  0
SECTION
  2
HEADER
  9
$ACADVER
  1
AC1009
  9
$INSBASE
 10
0.0
 20
0.0
 30
0.0
  9
$EXTMIN
 10
-0.399917
 20
-0.527917
 30
0.0
  9
$EXTMAX
 10
79.640333
 20
25.204333
 30
0.0
  9
$LIMMIN
 10
0.0
 20
0.0
  9
$LIMMAX
 10
12.0
 20
9.0
  9
$ORTHOMODE
 70
     0
  9
$REGENMODE
 70
     1
  9
$FILLMODE
 70
     1
  9
$QTEXTMODE
 70
     0
  9
$MIRRTEXT
 70
     1
  9
$DRAGMODE
 70
     2
  9
$LTSCALE
 40
1.0
  9
$OSMODE
 70
     0
  9
$ATTMODE
 70
     1
  9
$TEXTSIZE
 40
0.2
  9
$TRACEWID
 40
0.05
  9
$TEXTSTYLE
  7
STANDARD
  9
$CLAYER
  8
0
  9
$CELTYPE
  6
CONTINUOUS
  9
$CECOLOR
 62
   256
  9
$DIMSCALE
 40
1.0
  9
$DIMASZ
 40
0.18
  9
$DIMEXO
 40
0.0625
  9
$DIMDLI
 40
0.38
  9
$DIMRND
 40
0.0
  9
$DIMDLE
 40
0.0
  9
$DIMEXE
 40
0.18
  9
$DIMTP
 40
0.0
  9
$DIMTM
 40
0.0
  9
$DIMTXT
 40
0.18
  9
$DIMCEN
 40
0.09
  9
$DIMTSZ
 40
0.0
  9
$DIMTOL
 70
     0
  9
$DIMLIM
 70
     0
  9
$DIMTIH
 70
     1
  9
$DIMTOH
 70
     1
  9
$DIMSE1
 70
     0
  9
$DIMSE2
 70
     0
  9
$DIMTAD
 70
     0
  9
$DIMZIN
 70
     0
  9
$DIMBLK
  1

  9
$DIMASO
 70
     1
  9
$DIMSHO
 70
     1
  9
$DIMPOST
  1

  9
$DIMAPOST
  1

  9
$DIMALT
 70
     0
  9
$DIMALTD
 70
     2
  9
$DIMALTF
 40
25.4
  9
$DIMLFAC
 40
1.0
  9
$DIMTOFL
 70
     0
  9
$DIMTVP
 40
0.0
  9
$DIMTIX
 70
     0
  9
$DIMSOXD
 70
     0
  9
$DIMSAH
 70
     0
  9
$DIMBLK1
  1

  9
$DIMBLK2
  1

  9
$DIMSTYLE
  2
STANDARD
  9
$DIMCLRD
 70
     0
  9
$DIMCLRE
 70
     0
  9
$DIMCLRT
 70
     0
  9
$DIMTFAC
 40
1.0
  9
$DIMGAP
 40
0.09
  9
$LUNITS
 70
     2
  9
$LUPREC
 70
     4
  9
$AXISMODE
 70
     0
  9
$AXISUNIT
 10
0.0
 20
0.0
  9
$SKETCHINC
 40
0.1
  9
$FILLETRAD
 40
0.0
  9
$AUNITS
 70
     0
  9
$AUPREC
 70
     0
  9
$MENU
  1
acad
  9
$ELEVATION
 40
0.0
  9
$PELEVATION
 40
0.0
  9
$THICKNESS
 40
0.0
  9
$LIMCHECK
 70
     0
  9
$BLIPMODE
 70
     1
  9
$CHAMFERA
 40
0.0
  9
$CHAMFERB
 40
0.0
  9
$SKPOLY
 70
     0
  9
$TDCREATE
 40
2451566.416446759
  9
$TDUPDATE
 40
2451566.416446759
  9
$TDINDWG
 40
0.0000000000
  9
$TDUSRTIMER
 40
0.0000000000
  9
$USRTIMER
 70
     1
  9
$ANGBASE
 50
0.0
  9
$ANGDIR
 70
     0
  9
$PDMODE
 70
     0
  9
$PDSIZE
 40
0.0
  9
$PLINEWID
 40
0.0
  9
$COORDS
 70
     0
  9
$SPLFRAME
 70
     0
  9
$SPLINETYPE
 70
     6
  9
$SPLINESEGS
 70
    10
  9
$ATTDIA
 70
     0
  9
$ATTREQ
 70
     1
  9
$HANDLING
 70
     1
  9
$HANDSEED
  5
832
  9
$SURFTAB1
 70
     6
  9
$SURFTAB2
 70
     6
  9
$SURFTYPE
 70
     6
  9
$SURFU
 70
     6
  9
$SURFV
 70
     6
  9
$UCSNAME
  2

  9
$UCSORG
 10
0.0
 20
0.0
 30
0.0
  9
$UCSXDIR
 10
1.0
 20
0.0
 30
0.0
  9
$UCSYDIR
 10
0.0
 20
1.0
 30
0.0
  9
$PUCSNAME
  2

  9
$PUCSORG
 10
0.0
 20
0.0
 30
0.0
  9
$PUCSXDIR
 10
1.0
 20
0.0
 30
0.0
  9
$PUCSYDIR
 10
0.0
 20
1.0
 30
0.0
  9
$USERI1
 70
     0
  9
$USERI2
 70
     0
  9
$USERI3
 70
     0
  9
$USERI4
 70
     0
  9
$USERI5
 70
     0
  9
$USERR1
 40
0.0
  9
$USERR2
 40
0.0
  9
$USERR3
 40
0.0
  9
$USERR4
 40
0.0
  9
$USERR5
 40
0.0
  9
$WORLDVIEW
 70
     1
  9
$SHADEDGE
 70
     3
  9
$SHADEDIF
 70
    70
  9
$TILEMODE
 70
     1
  9
$MAXACTVP
 70
    16
  9
$PINSBASE
 10
0.0
 20
0.0
 30
0.0
  9
$PLIMCHECK
 70
     0
  9
$PEXTMIN
 10
-1.000000E+20
 20
-1.000000E+20
 30
-1.000000E+20
  9
$PEXTMAX
 10
-1.000000E+20
 20
-1.000000E+20
 30
-1.000000E+20
  9
$PLIMMIN
 10
0.0
 20
0.0
  9
$PLIMMAX
 10
12.0
 20
9.0
  9
$UNITMODE
 70
     0
  9
$VISRETAIN
 70
     0
  9
$PLINEGEN
 70
     1
  9
$PSLTSCALE
 70
     0
  9
$TREEDEPTH
 70
  3020
  9
$DWGCODEPAGE
  3
ansi_1252
  0
ENDSEC
  0
SECTION
  2
TABLES
  0
TABLE
  2
VPORT
 70
     1
  0
VPORT
  2
*ACTIVE
 70
     0
 10
0.0
 20
0.0
 11
1.0
 21
1.0
 12
0.0
 22
0.0
 13
0.0
 23
0.0
 14
0.0
 24
0.0
 15
0.0
 25
0.0
 16
0.0
 26
0.0
 36
1.0
 17
60.862806
 27
14.204333
 37
0.0
 40
22.55
 41
1.577899
 42
50.0
 43
0.0
 44
0.0
 50
0.0
 51
0.0
 71
     0
 72
   100
 73
     1
 74
     0
 75
     0
 76
     0
 77
     0
 78
     0
  0
ENDTAB
  0
TABLE
  2
LTYPE
 70
     7
  0
LTYPE
  2
CONTINUOUS
 70
     0
  3
Solid line
 72
    65
 73
     0
 40
0.0
  0
LTYPE
  2
DOT
 70
    64
  3
. . . . . . . . . . . . . . . . . . . . . . . . . . . . . . . . .
 72
    65
 73
     2
 40
0.25
 49
0.0
 49
-0.25
  0
LTYPE
  2
HIDDEN
 70
    64
  3
__ __ __ __ __ __ __ __ __ __ __ __ __ __ __ __ __ __ __ __ __ 
 72
    65
 73
     2
 40
0.375
 49
0.25
 49
-0.125
  0
LTYPE
  2
DASHED
 70
    64
  3
__ __ __ __ __ __ __ __ __ __ __ __ __ __ __ __ __ __ __ __ __
 72
    65
 73
     2
 40
0.75
 49
0.5
 49
-0.25
  0
LTYPE
  2
DASHDOT
 70
    64
  3
__ . __ . __ . __ . __ . __ . __ . __ . __ . __ . __ . __ . _
 72
    65
 73
     4
 40
1.0
 49
0.5
 49
-0.25
 49
0.0
 49
-0.25
  0
LTYPE
  2
DIVIDE
 70
    64
  3
____ . . ____ . . ____ . . ____ . . ____ . . ____ . . ____ . .
 72
    65
 73
     6
 40
1.25
 49
0.5
 49
-0.25
 49
0.0
 49
-0.25
 49
0.0
 49
-0.25
  0
LTYPE
  2
CENTER
 70
    64
  3
____ _ ____ _ ____ _ ____ _ ____ _ ____ _ ____ _ ____ _ ____ _
 72
    65
 73
     4
 40
2.0
 49
1.25
 49
-0.25
 49
0.25
 49
-0.25
  0
ENDTAB
  0
TABLE
  2
LAYER
 70
    11
  0
LAYER
  2
0
 70
     0
 62
     7
  6
CONTINUOUS
  0
LAYER
  2
CONSTRUCTION_CLASS
 70
     0
 62
     7
  6
CONTINUOUS
  0
LAYER
  2
PATTERN_CLASS
 70
     0
 62
     7
  6
CONTINUOUS
  0
LAYER
  2
6
 70
    64
 62
     7
  6
CONTINUOUS
  0
LAYER
  2
1
 70
    64
 62
     7
  6
CONTINUOUS
  0
LAYER
  2
2
 70
    64
 62
     7
  6
CONTINUOUS
  0
LAYER
  2
5
 70
    64
 62
     7
  6
CONTINUOUS
  0
LAYER
  2
3
 70
    64
 62
     7
  6
CONTINUOUS
  0
LAYER
  2
4
 70
    64
 62
     7
  6
CONTINUOUS
  0
LAYER
  2
8
 70
    64
 62
     7
  6
CONTINUOUS
  0
LAYER
  2
DEFPOINTS
 70
    64
 62
     7
  6
CONTINUOUS
  0
ENDTAB
  0
TABLE
  2
STYLE
 70
     5
  0
STYLE
  2
STANDARD
 70
     0
 40
0.0
 41
1.0
 50
0.0
 71
     0
 42
0.0
  3
txt
  4

  0
STYLE
  2
MONOTXT
 70
     0
 40
0.2
 41
1.0
 50
0.0
 71
     0
 42
0.2
  3
MONOTXT
  4

  0
STYLE
  2
txt
 70
     0
 40
0.2
 41
1.0
 50
0.0
 71
     0
 42
0.2
  3
TXT
  4

  0
STYLE
  2
ROMANT
 70
     0
 40
0.2
 41
1.0
 50
0.0
 71
     0
 42
0.2
  3
ROMANT
  4

  0
STYLE
  2
ROMANS
 70
     0
 40
0.2
 41
1.0
 50
0.0
 71
     0
 42
0.2
  3
ROMANS
  4

  0
ENDTAB
  0
TABLE
  2
VIEW
 70
     0
  0
ENDTAB
  0
TABLE
  2
UCS
 70
     0
  0
ENDTAB
  0
TABLE
  2
APPID
 70
     1
  0
APPID
  2
ACAD
 70
     0
  0
ENDTAB
  0
TABLE
  2
DIMSTYLE
 70
     2
  0
DIMSTYLE
  2
STANDARD
 70
     0
  3

  4

  5

  6

  7

 40
1.0
 41
0.18
 42
0.0625
 43
0.38
 44
0.18
 45
0.0
 46
0.0
 47
0.0
 48
0.0
140
0.18
141
0.09
142
0.0
143
25.4
144
1.0
145
0.0
146
1.0
147
0.09
 71
     0
 72
     0
 73
     1
 74
     1
 75
     0
 76
     0
 77
     0
 78
     0
170
     0
171
     2
172
     0
173
     0
174
     0
175
     0
176
     0
177
     0
178
     0
  0
DIMSTYLE
  2
MSADIM
 70
     0
  3

  4

  5

  6

  7

 40
1.0
 41
0.125
 42
0.0625
 43
0.0
 44
0.0625
 45
0.125
 46
0.0
 47
0.0
 48
0.0
140
0.125
141
0.0625
142
0.0
143
25.4
144
1.0
145
0.0625
146
1.0
147
0.0625
 71
     0
 72
     0
 73
     0
 74
     0
 75
     1
 76
     1
 77
     1
 78
     2
170
     0
171
     2
172
     0
173
     1
174
     0
175
     0
176
     0
177
     0
178
     0
  0
ENDTAB
  0
ENDSEC
  0
SECTION
  2
BLOCKS
  0
BLOCK
  8
1
  6
CONTINUOUS
 62
     7
  5
162
  2
$X0
 70
     0
 10
0.0
 20
0.0
 30
0.0
  3
$N0
  0
LINE
  8
1
  6
CONTINUOUS
 62
     7
  5
163
 10
10.637333
 20
5.643417
 30
0.0
 11
10.707333
 21
5.713417
 31
0.0
  0
LINE
  8
1
  6
CONTINUOUS
 62
     7
  5
164
 10
10.593167
 20
5.643417
 30
0.0
 11
10.663167
 21
5.713417
 31
0.0
  0
LINE
  8
1
  6
CONTINUOUS
 62
     7
  5
165
 10
10.549
 20
5.643417
 30
0.0
 11
10.619
 21
5.713417
 31
0.0
  0
LINE
  8
1
  6
CONTINUOUS
 62
     7
  5
166
 10
10.50475
 20
5.643417
 30
0.0
 11
10.57475
 21
5.713417
 31
0.0
  0
LINE
  8
1
  6
CONTINUOUS
 62
     7
  5
167
 10
10.470083
 20
5.652917
 30
0.0
 11
10.530583
 21
5.713417
 31
0.0
  0
LINE
  8
1
  6
CONTINUOUS
 62
     7
  5
168
 10
10.470083
 20
5.697083
 30
0.0
 11
10.486417
 21
5.713417
 31
0.0
  0
LINE
  8
1
  6
CONTINUOUS
 62
     7
  5
169
 10
10.6815
 20
5.643333
 30
0.0
 11
10.751583
 21
5.713417
 31
0.0
  0
LINE
  8
1
  6
CONTINUOUS
 62
     7
  5
16A
 10
10.699667
 20
5.617333
 30
0.0
 11
10.769667
 21
5.687333
 31
0.0
  0
LINE
  8
1
  6
CONTINUOUS
 62
     7
  5
16B
 10
10.710667
 20
5.584167
 30
0.0
 11
10.77225
 21
5.645667
 31
0.0
  0
LINE
  8
1
  6
CONTINUOUS
 62
     7
  5
16C
 10
10.737667
 20
5.567
 30
0.0
 11
10.80625
 21
5.6355
 31
0.0
  0
LINE
  8
1
  6
CONTINUOUS
 62
     7
  5
16D
 10
10.780417
 20
5.5655
 30
0.0
 11
10.84275
 21
5.627833
 31
0.0
  0
LINE
  8
1
  6
CONTINUOUS
 62
     7
  5
16E
 10
10.824667
 20
5.5655
 30
0.0
 11
10.84275
 21
5.583667
 31
0.0
  0
ENDBLK
  8
1
  6
CONTINUOUS
 62
     7
  5
16F
  0
BLOCK
  8
1
  6
CONTINUOUS
 62
     7
  5
200
  2
$X1
 70
     0
 10
0.0
 20
0.0
 30
0.0
  3
$N1
  0
LINE
  8
1
  6
CONTINUOUS
 62
     7
  5
201
 10
9.78125
 20
2.211
 30
0.0
 11
9.78125
 21
2.65375
 31
0.0
  0
LINE
  8
1
  6
CONTINUOUS
 62
     7
  5
202
 10
9.75
 20
2.220667
 30
0.0
 11
9.75
 21
2.65375
 31
0.0
  0
LINE
  8
1
  6
CONTINUOUS
 62
     7
  5
203
 10
9.71875
 20
2.230833
 30
0.0
 11
9.71875
 21
2.65375
 31
0.0
  0
LINE
  8
1
  6
CONTINUOUS
 62
     7
  5
204
 10
9.6875
 20
2.241417
 30
0.0
 11
9.6875
 21
2.65375
 31
0.0
  0
LINE
  8
1
  6
CONTINUOUS
 62
     7
  5
205
 10
9.65625
 20
2.2525
 30
0.0
 11
9.65625
 21
2.65375
 31
0.0
  0
LINE
  8
1
  6
CONTINUOUS
 62
     7
  5
206
 10
9.625
 20
2.264
 30
0.0
 11
9.625
 21
2.65375
 31
0.0
  0
LINE
  8
1
  6
CONTINUOUS
 62
     7
  5
207
 10
9.59375
 20
2.27525
 30
0.0
 11
9.59375
 21
2.65375
 31
0.0
  0
LINE
  8
1
  6
CONTINUOUS
 62
     7
  5
208
 10
9.5625
 20
2.285
 30
0.0
 11
9.5625
 21
2.65375
 31
0.0
  0
LINE
  8
1
  6
CONTINUOUS
 62
     7
  5
209
 10
9.53125
 20
2.294
 30
0.0
 11
9.53125
 21
2.65375
 31
0.0
  0
LINE
  8
1
  6
CONTINUOUS
 62
     7
  5
20A
 10
9.5
 20
2.301833
 30
0.0
 11
9.5
 21
2.65375
 31
0.0
  0
LINE
  8
1
  6
CONTINUOUS
 62
     7
  5
20B
 10
9.46875
 20
2.307167
 30
0.0
 11
9.46875
 21
2.65375
 31
0.0
  0
LINE
  8
1
  6
CONTINUOUS
 62
     7
  5
20C
 10
9.4375
 20
2.312417
 30
0.0
 11
9.4375
 21
2.65375
 31
0.0
  0
LINE
  8
1
  6
CONTINUOUS
 62
     7
  5
20D
 10
9.40625
 20
2.318917
 30
0.0
 11
9.40625
 21
2.65375
 31
0.0
  0
LINE
  8
1
  6
CONTINUOUS
 62
     7
  5
20E
 10
9.375
 20
2.327333
 30
0.0
 11
9.375
 21
2.65375
 31
0.0
  0
LINE
  8
1
  6
CONTINUOUS
 62
     7
  5
20F
 10
9.34375
 20
2.3405
 30
0.0
 11
9.34375
 21
2.65375
 31
0.0
  0
LINE
  8
1
  6
CONTINUOUS
 62
     7
  5
210
 10
9.3125
 20
2.352
 30
0.0
 11
9.3125
 21
2.65375
 31
0.0
  0
LINE
  8
1
  6
CONTINUOUS
 62
     7
  5
211
 10
9.28125
 20
2.357167
 30
0.0
 11
9.28125
 21
2.65375
 31
0.0
  0
LINE
  8
1
  6
CONTINUOUS
 62
     7
  5
212
 10
9.25
 20
2.353583
 30
0.0
 11
9.25
 21
2.65375
 31
0.0
  0
LINE
  8
1
  6
CONTINUOUS
 62
     7
  5
213
 10
9.21875
 20
2.35425
 30
0.0
 11
9.21875
 21
2.65375
 31
0.0
  0
LINE
  8
1
  6
CONTINUOUS
 62
     7
  5
214
 10
9.1875
 20
2.36225
 30
0.0
 11
9.1875
 21
2.65375
 31
0.0
  0
LINE
  8
1
  6
CONTINUOUS
 62
     7
  5
215
 10
9.15625
 20
2.379167
 30
0.0
 11
9.15625
 21
2.65375
 31
0.0
  0
LINE
  8
1
  6
CONTINUOUS
 62
     7
  5
216
 10
9.125
 20
2.3925
 30
0.0
 11
9.125
 21
2.65375
 31
0.0
  0
LINE
  8
1
  6
CONTINUOUS
 62
     7
  5
217
 10
9.09375
 20
2.395083
 30
0.0
 11
9.09375
 21
2.65375
 31
0.0
  0
LINE
  8
1
  6
CONTINUOUS
 62
     7
  5
218
 10
9.0625
 20
2.394917
 30
0.0
 11
9.0625
 21
2.65375
 31
0.0
  0
LINE
  8
1
  6
CONTINUOUS
 62
     7
  5
219
 10
9.03125
 20
2.393833
 30
0.0
 11
9.03125
 21
2.65375
 31
0.0
  0
LINE
  8
1
  6
CONTINUOUS
 62
     7
  5
21A
 10
9.0
 20
2.394417
 30
0.0
 11
9.0
 21
2.65375
 31
0.0
  0
LINE
  8
1
  6
CONTINUOUS
 62
     7
  5
21B
 10
8.96875
 20
2.396083
 30
0.0
 11
8.96875
 21
2.65375
 31
0.0
  0
LINE
  8
1
  6
CONTINUOUS
 62
     7
  5
21C
 10
8.9375
 20
2.398083
 30
0.0
 11
8.9375
 21
2.65375
 31
0.0
  0
LINE
  8
1
  6
CONTINUOUS
 62
     7
  5
21D
 10
8.90625
 20
2.400083
 30
0.0
 11
8.90625
 21
2.65375
 31
0.0
  0
LINE
  8
1
  6
CONTINUOUS
 62
     7
  5
21E
 10
8.875
 20
2.4015
 30
0.0
 11
8.875
 21
2.65375
 31
0.0
  0
LINE
  8
1
  6
CONTINUOUS
 62
     7
  5
21F
 10
8.84375
 20
2.401583
 30
0.0
 11
8.84375
 21
2.65375
 31
0.0
  0
LINE
  8
1
  6
CONTINUOUS
 62
     7
  5
220
 10
8.8125
 20
2.400417
 30
0.0
 11
8.8125
 21
2.65375
 31
0.0
  0
LINE
  8
1
  6
CONTINUOUS
 62
     7
  5
221
 10
8.78125
 20
2.400583
 30
0.0
 11
8.78125
 21
2.65375
 31
0.0
  0
LINE
  8
1
  6
CONTINUOUS
 62
     7
  5
222
 10
8.75
 20
2.40325
 30
0.0
 11
8.75
 21
2.65375
 31
0.0
  0
LINE
  8
1
  6
CONTINUOUS
 62
     7
  5
223
 10
8.71875
 20
2.407083
 30
0.0
 11
8.71875
 21
2.65375
 31
0.0
  0
LINE
  8
1
  6
CONTINUOUS
 62
     7
  5
224
 10
8.6875
 20
2.409917
 30
0.0
 11
8.6875
 21
2.65375
 31
0.0
  0
LINE
  8
1
  6
CONTINUOUS
 62
     7
  5
225
 10
8.65625
 20
2.412083
 30
0.0
 11
8.65625
 21
2.65375
 31
0.0
  0
LINE
  8
1
  6
CONTINUOUS
 62
     7
  5
226
 10
8.625
 20
2.413667
 30
0.0
 11
8.625
 21
2.65375
 31
0.0
  0
LINE
  8
1
  6
CONTINUOUS
 62
     7
  5
227
 10
8.59375
 20
2.414417
 30
0.0
 11
8.59375
 21
2.65375
 31
0.0
  0
LINE
  8
1
  6
CONTINUOUS
 62
     7
  5
228
 10
8.5625
 20
2.413083
 30
0.0
 11
8.5625
 21
2.65375
 31
0.0
  0
LINE
  8
1
  6
CONTINUOUS
 62
     7
  5
229
 10
8.53125
 20
2.409333
 30
0.0
 11
8.53125
 21
2.65375
 31
0.0
  0
LINE
  8
1
  6
CONTINUOUS
 62
     7
  5
22A
 10
8.5
 20
2.40775
 30
0.0
 11
8.5
 21
2.65375
 31
0.0
  0
LINE
  8
1
  6
CONTINUOUS
 62
     7
  5
22B
 10
8.46875
 20
2.409167
 30
0.0
 11
8.46875
 21
2.65375
 31
0.0
  0
LINE
  8
1
  6
CONTINUOUS
 62
     7
  5
22C
 10
8.4375
 20
2.413417
 30
0.0
 11
8.4375
 21
2.65375
 31
0.0
  0
LINE
  8
1
  6
CONTINUOUS
 62
     7
  5
22D
 10
8.40625
 20
2.414917
 30
0.0
 11
8.40625
 21
2.65375
 31
0.0
  0
LINE
  8
1
  6
CONTINUOUS
 62
     7
  5
22E
 10
8.375
 20
2.412417
 30
0.0
 11
8.375
 21
2.65375
 31
0.0
  0
LINE
  8
1
  6
CONTINUOUS
 62
     7
  5
22F
 10
8.34375
 20
2.409167
 30
0.0
 11
8.34375
 21
2.65375
 31
0.0
  0
LINE
  8
1
  6
CONTINUOUS
 62
     7
  5
230
 10
8.3125
 20
2.405417
 30
0.0
 11
8.3125
 21
2.65375
 31
0.0
  0
LINE
  8
1
  6
CONTINUOUS
 62
     7
  5
231
 10
8.28125
 20
2.40075
 30
0.0
 11
8.28125
 21
2.65375
 31
0.0
  0
LINE
  8
1
  6
CONTINUOUS
 62
     7
  5
232
 10
8.25
 20
2.395583
 30
0.0
 11
8.25
 21
2.65375
 31
0.0
  0
LINE
  8
1
  6
CONTINUOUS
 62
     7
  5
233
 10
8.21875
 20
2.3945
 30
0.0
 11
8.21875
 21
2.65375
 31
0.0
  0
LINE
  8
1
  6
CONTINUOUS
 62
     7
  5
234
 10
8.1875
 20
2.3945
 30
0.0
 11
8.1875
 21
2.65375
 31
0.0
  0
LINE
  8
1
  6
CONTINUOUS
 62
     7
  5
235
 10
8.15625
 20
2.3945
 30
0.0
 11
8.15625
 21
2.65375
 31
0.0
  0
LINE
  8
1
  6
CONTINUOUS
 62
     7
  5
236
 10
8.125
 20
2.3945
 30
0.0
 11
8.125
 21
2.65375
 31
0.0
  0
LINE
  8
1
  6
CONTINUOUS
 62
     7
  5
237
 10
8.09375
 20
2.3945
 30
0.0
 11
8.09375
 21
2.65375
 31
0.0
  0
LINE
  8
1
  6
CONTINUOUS
 62
     7
  5
238
 10
8.0625
 20
2.3945
 30
0.0
 11
8.0625
 21
2.65375
 31
0.0
  0
LINE
  8
1
  6
CONTINUOUS
 62
     7
  5
239
 10
8.03125
 20
2.3945
 30
0.0
 11
8.03125
 21
2.65375
 31
0.0
  0
LINE
  8
1
  6
CONTINUOUS
 62
     7
  5
23A
 10
8.0
 20
2.3945
 30
0.0
 11
8.0
 21
2.65375
 31
0.0
  0
LINE
  8
1
  6
CONTINUOUS
 62
     7
  5
23B
 10
7.96875
 20
2.3945
 30
0.0
 11
7.96875
 21
2.65375
 31
0.0
  0
LINE
  8
1
  6
CONTINUOUS
 62
     7
  5
23C
 10
7.9375
 20
2.396
 30
0.0
 11
7.9375
 21
2.65375
 31
0.0
  0
LINE
  8
1
  6
CONTINUOUS
 62
     7
  5
23D
 10
7.90625
 20
2.399083
 30
0.0
 11
7.90625
 21
2.65375
 31
0.0
  0
LINE
  8
1
  6
CONTINUOUS
 62
     7
  5
23E
 10
7.875
 20
2.403083
 30
0.0
 11
7.875
 21
2.65375
 31
0.0
  0
LINE
  8
1
  6
CONTINUOUS
 62
     7
  5
23F
 10
7.84375
 20
2.413667
 30
0.0
 11
7.84375
 21
2.65375
 31
0.0
  0
LINE
  8
1
  6
CONTINUOUS
 62
     7
  5
240
 10
9.8125
 20
2.203333
 30
0.0
 11
9.8125
 21
2.65375
 31
0.0
  0
LINE
  8
1
  6
CONTINUOUS
 62
     7
  5
241
 10
9.84375
 20
2.197583
 30
0.0
 11
9.84375
 21
2.65375
 31
0.0
  0
LINE
  8
1
  6
CONTINUOUS
 62
     7
  5
242
 10
9.875
 20
2.192917
 30
0.0
 11
9.875
 21
2.65375
 31
0.0
  0
LINE
  8
1
  6
CONTINUOUS
 62
     7
  5
243
 10
9.90625
 20
2.18925
 30
0.0
 11
9.90625
 21
2.65375
 31
0.0
  0
LINE
  8
1
  6
CONTINUOUS
 62
     7
  5
244
 10
9.9375
 20
2.1865
 30
0.0
 11
9.9375
 21
2.65375
 31
0.0
  0
LINE
  8
1
  6
CONTINUOUS
 62
     7
  5
245
 10
9.96875
 20
2.1845
 30
0.0
 11
9.96875
 21
2.65375
 31
0.0
  0
LINE
  8
1
  6
CONTINUOUS
 62
     7
  5
246
 10
10.0
 20
2.18325
 30
0.0
 11
10.0
 21
2.65375
 31
0.0
  0
LINE
  8
1
  6
CONTINUOUS
 62
     7
  5
247
 10
10.03125
 20
2.182333
 30
0.0
 11
10.03125
 21
2.65375
 31
0.0
  0
LINE
  8
1
  6
CONTINUOUS
 62
     7
  5
248
 10
10.0625
 20
2.181917
 30
0.0
 11
10.0625
 21
2.65375
 31
0.0
  0
LINE
  8
1
  6
CONTINUOUS
 62
     7
  5
249
 10
10.09375
 20
2.181833
 30
0.0
 11
10.09375
 21
2.65375
 31
0.0
  0
LINE
  8
1
  6
CONTINUOUS
 62
     7
  5
24A
 10
10.09375
 20
2.181833
 30
0.0
 11
10.09375
 21
2.65375
 31
0.0
  0
LINE
  8
1
  6
CONTINUOUS
 62
     7
  5
24B
 10
10.125
 20
2.182083
 30
0.0
 11
10.125
 21
2.65375
 31
0.0
  0
LINE
  8
1
  6
CONTINUOUS
 62
     7
  5
24C
 10
10.15625
 20
2.18275
 30
0.0
 11
10.15625
 21
2.65375
 31
0.0
  0
LINE
  8
1
  6
CONTINUOUS
 62
     7
  5
24D
 10
10.1875
 20
2.18375
 30
0.0
 11
10.1875
 21
2.65375
 31
0.0
  0
LINE
  8
1
  6
CONTINUOUS
 62
     7
  5
24E
 10
10.21875
 20
2.18625
 30
0.0
 11
10.21875
 21
2.65375
 31
0.0
  0
LINE
  8
1
  6
CONTINUOUS
 62
     7
  5
24F
 10
10.25
 20
2.19175
 30
0.0
 11
10.25
 21
2.65375
 31
0.0
  0
LINE
  8
1
  6
CONTINUOUS
 62
     7
  5
250
 10
10.28125
 20
2.197917
 30
0.0
 11
10.28125
 21
2.65375
 31
0.0
  0
LINE
  8
1
  6
CONTINUOUS
 62
     7
  5
251
 10
10.3125
 20
2.20425
 30
0.0
 11
10.3125
 21
2.65375
 31
0.0
  0
LINE
  8
1
  6
CONTINUOUS
 62
     7
  5
252
 10
10.34375
 20
2.210833
 30
0.0
 11
10.34375
 21
2.65375
 31
0.0
  0
LINE
  8
1
  6
CONTINUOUS
 62
     7
  5
253
 10
10.375
 20
2.217583
 30
0.0
 11
10.375
 21
2.65375
 31
0.0
  0
LINE
  8
1
  6
CONTINUOUS
 62
     7
  5
254
 10
10.40625
 20
2.224333
 30
0.0
 11
10.40625
 21
2.65375
 31
0.0
  0
LINE
  8
1
  6
CONTINUOUS
 62
     7
  5
255
 10
10.4375
 20
2.23075
 30
0.0
 11
10.4375
 21
2.65375
 31
0.0
  0
LINE
  8
1
  6
CONTINUOUS
 62
     7
  5
256
 10
10.46875
 20
2.236083
 30
0.0
 11
10.46875
 21
2.65375
 31
0.0
  0
LINE
  8
1
  6
CONTINUOUS
 62
     7
  5
257
 10
10.5
 20
2.240583
 30
0.0
 11
10.5
 21
2.65375
 31
0.0
  0
LINE
  8
1
  6
CONTINUOUS
 62
     7
  5
258
 10
10.53125
 20
2.24575
 30
0.0
 11
10.53125
 21
2.65375
 31
0.0
  0
LINE
  8
1
  6
CONTINUOUS
 62
     7
  5
259
 10
10.5625
 20
2.252083
 30
0.0
 11
10.5625
 21
2.65375
 31
0.0
  0
LINE
  8
1
  6
CONTINUOUS
 62
     7
  5
25A
 10
10.59375
 20
2.260917
 30
0.0
 11
10.59375
 21
2.65375
 31
0.0
  0
LINE
  8
1
  6
CONTINUOUS
 62
     7
  5
25B
 10
10.625
 20
2.26825
 30
0.0
 11
10.625
 21
2.65375
 31
0.0
  0
LINE
  8
1
  6
CONTINUOUS
 62
     7
  5
25C
 10
10.65625
 20
2.271583
 30
0.0
 11
10.65625
 21
2.65375
 31
0.0
  0
LINE
  8
1
  6
CONTINUOUS
 62
     7
  5
25D
 10
10.6875
 20
2.272333
 30
0.0
 11
10.6875
 21
2.65375
 31
0.0
  0
LINE
  8
1
  6
CONTINUOUS
 62
     7
  5
25E
 10
10.71875
 20
2.278083
 30
0.0
 11
10.71875
 21
2.65375
 31
0.0
  0
LINE
  8
1
  6
CONTINUOUS
 62
     7
  5
25F
 10
10.75
 20
2.2865
 30
0.0
 11
10.75
 21
2.65375
 31
0.0
  0
LINE
  8
1
  6
CONTINUOUS
 62
     7
  5
260
 10
10.78125
 20
2.292417
 30
0.0
 11
10.78125
 21
2.65375
 31
0.0
  0
LINE
  8
1
  6
CONTINUOUS
 62
     7
  5
261
 10
10.8125
 20
2.296833
 30
0.0
 11
10.8125
 21
2.65375
 31
0.0
  0
LINE
  8
1
  6
CONTINUOUS
 62
     7
  5
262
 10
10.84375
 20
2.300667
 30
0.0
 11
10.84375
 21
2.65375
 31
0.0
  0
LINE
  8
1
  6
CONTINUOUS
 62
     7
  5
263
 10
10.875
 20
2.302833
 30
0.0
 11
10.875
 21
2.65375
 31
0.0
  0
LINE
  8
1
  6
CONTINUOUS
 62
     7
  5
264
 10
10.90625
 20
2.300417
 30
0.0
 11
10.90625
 21
2.65375
 31
0.0
  0
LINE
  8
1
  6
CONTINUOUS
 62
     7
  5
265
 10
10.9375
 20
2.300583
 30
0.0
 11
10.9375
 21
2.65375
 31
0.0
  0
LINE
  8
1
  6
CONTINUOUS
 62
     7
  5
266
 10
10.96875
 20
2.311083
 30
0.0
 11
10.96875
 21
2.65375
 31
0.0
  0
LINE
  8
1
  6
CONTINUOUS
 62
     7
  5
267
 10
11.0
 20
2.327417
 30
0.0
 11
11.0
 21
2.65375
 31
0.0
  0
LINE
  8
1
  6
CONTINUOUS
 62
     7
  5
268
 10
11.03125
 20
2.3315
 30
0.0
 11
11.03125
 21
2.65375
 31
0.0
  0
LINE
  8
1
  6
CONTINUOUS
 62
     7
  5
269
 10
11.0625
 20
2.333917
 30
0.0
 11
11.0625
 21
2.65375
 31
0.0
  0
LINE
  8
1
  6
CONTINUOUS
 62
     7
  5
26A
 10
11.09375
 20
2.334917
 30
0.0
 11
11.09375
 21
2.65375
 31
0.0
  0
LINE
  8
1
  6
CONTINUOUS
 62
     7
  5
26B
 10
11.125
 20
2.334583
 30
0.0
 11
11.125
 21
2.65375
 31
0.0
  0
LINE
  8
1
  6
CONTINUOUS
 62
     7
  5
26C
 10
11.15625
 20
2.33475
 30
0.0
 11
11.15625
 21
2.65375
 31
0.0
  0
LINE
  8
1
  6
CONTINUOUS
 62
     7
  5
26D
 10
11.1875
 20
2.337417
 30
0.0
 11
11.1875
 21
2.65375
 31
0.0
  0
LINE
  8
1
  6
CONTINUOUS
 62
     7
  5
26E
 10
11.21875
 20
2.34275
 30
0.0
 11
11.21875
 21
2.65375
 31
0.0
  0
LINE
  8
1
  6
CONTINUOUS
 62
     7
  5
26F
 10
11.25
 20
2.349917
 30
0.0
 11
11.25
 21
2.65375
 31
0.0
  0
LINE
  8
1
  6
CONTINUOUS
 62
     7
  5
270
 10
11.28125
 20
2.36425
 30
0.0
 11
11.28125
 21
2.65375
 31
0.0
  0
LINE
  8
1
  6
CONTINUOUS
 62
     7
  5
271
 10
11.3125
 20
2.368833
 30
0.0
 11
11.3125
 21
2.65375
 31
0.0
  0
LINE
  8
1
  6
CONTINUOUS
 62
     7
  5
272
 10
11.34375
 20
2.3675
 30
0.0
 11
11.34375
 21
2.65375
 31
0.0
  0
LINE
  8
1
  6
CONTINUOUS
 62
     7
  5
273
 10
11.375
 20
2.368667
 30
0.0
 11
11.375
 21
2.65375
 31
0.0
  0
LINE
  8
1
  6
CONTINUOUS
 62
     7
  5
274
 10
11.40625
 20
2.371167
 30
0.0
 11
11.40625
 21
2.65375
 31
0.0
  0
LINE
  8
1
  6
CONTINUOUS
 62
     7
  5
275
 10
11.4375
 20
2.374
 30
0.0
 11
11.4375
 21
2.65375
 31
0.0
  0
LINE
  8
1
  6
CONTINUOUS
 62
     7
  5
276
 10
11.46875
 20
2.374583
 30
0.0
 11
11.46875
 21
2.65375
 31
0.0
  0
LINE
  8
1
  6
CONTINUOUS
 62
     7
  5
277
 10
11.5
 20
2.374583
 30
0.0
 11
11.5
 21
2.65375
 31
0.0
  0
LINE
  8
1
  6
CONTINUOUS
 62
     7
  5
278
 10
11.53125
 20
2.374583
 30
0.0
 11
11.53125
 21
2.65375
 31
0.0
  0
LINE
  8
1
  6
CONTINUOUS
 62
     7
  5
279
 10
11.5625
 20
2.374583
 30
0.0
 11
11.5625
 21
2.65375
 31
0.0
  0
LINE
  8
1
  6
CONTINUOUS
 62
     7
  5
27A
 10
11.59375
 20
2.374583
 30
0.0
 11
11.59375
 21
2.65375
 31
0.0
  0
LINE
  8
1
  6
CONTINUOUS
 62
     7
  5
27B
 10
11.625
 20
2.374583
 30
0.0
 11
11.625
 21
2.65375
 31
0.0
  0
LINE
  8
1
  6
CONTINUOUS
 62
     7
  5
27C
 10
11.65625
 20
2.374583
 30
0.0
 11
11.65625
 21
2.65375
 31
0.0
  0
LINE
  8
1
  6
CONTINUOUS
 62
     7
  5
27D
 10
11.6875
 20
2.374583
 30
0.0
 11
11.6875
 21
2.65375
 31
0.0
  0
LINE
  8
1
  6
CONTINUOUS
 62
     7
  5
27E
 10
11.71875
 20
2.376
 30
0.0
 11
11.71875
 21
2.65375
 31
0.0
  0
LINE
  8
1
  6
CONTINUOUS
 62
     7
  5
27F
 10
11.75
 20
2.3805
 30
0.0
 11
11.75
 21
2.65375
 31
0.0
  0
ENDBLK
  8
1
  6
CONTINUOUS
 62
     7
  5
280
  0
BLOCK
  8
1
  6
CONTINUOUS
 62
     7
  5
284
  2
$X2
 70
     0
 10
0.0
 20
0.0
 30
0.0
  3
$N2
  0
LINE
  8
1
  6
CONTINUOUS
 62
     7
  5
285
 10
8.28125
 20
2.09275
 30
0.0
 11
8.28125
 21
2.321
 31
0.0
  0
LINE
  8
1
  6
CONTINUOUS
 62
     7
  5
286
 10
8.25
 20
2.09975
 30
0.0
 11
8.25
 21
2.315833
 31
0.0
  0
LINE
  8
1
  6
CONTINUOUS
 62
     7
  5
287
 10
8.21875
 20
2.102083
 30
0.0
 11
8.21875
 21
2.31475
 31
0.0
  0
LINE
  8
1
  6
CONTINUOUS
 62
     7
  5
288
 10
8.1875
 20
2.097833
 30
0.0
 11
8.1875
 21
2.31475
 31
0.0
  0
LINE
  8
1
  6
CONTINUOUS
 62
     7
  5
289
 10
8.15625
 20
2.090333
 30
0.0
 11
8.15625
 21
2.31475
 31
0.0
  0
LINE
  8
1
  6
CONTINUOUS
 62
     7
  5
28A
 10
8.125
 20
2.0885
 30
0.0
 11
8.125
 21
2.31475
 31
0.0
  0
LINE
  8
1
  6
CONTINUOUS
 62
     7
  5
28B
 10
8.09375
 20
2.0885
 30
0.0
 11
8.09375
 21
2.31475
 31
0.0
  0
LINE
  8
1
  6
CONTINUOUS
 62
     7
  5
28C
 10
8.0625
 20
2.08925
 30
0.0
 11
8.0625
 21
2.31475
 31
0.0
  0
LINE
  8
1
  6
CONTINUOUS
 62
     7
  5
28D
 10
8.03125
 20
2.089
 30
0.0
 11
8.03125
 21
2.31475
 31
0.0
  0
LINE
  8
1
  6
CONTINUOUS
 62
     7
  5
28E
 10
8.0
 20
2.08775
 30
0.0
 11
8.0
 21
2.31475
 31
0.0
  0
LINE
  8
1
  6
CONTINUOUS
 62
     7
  5
28F
 10
7.96875
 20
2.086083
 30
0.0
 11
7.96875
 21
2.31475
 31
0.0
  0
LINE
  8
1
  6
CONTINUOUS
 62
     7
  5
290
 10
7.9375
 20
2.084333
 30
0.0
 11
7.9375
 21
2.31625
 31
0.0
  0
LINE
  8
1
  6
CONTINUOUS
 62
     7
  5
291
 10
7.90625
 20
2.082583
 30
0.0
 11
7.90625
 21
2.319333
 31
0.0
  0
LINE
  8
1
  6
CONTINUOUS
 62
     7
  5
292
 10
7.875
 20
2.079583
 30
0.0
 11
7.875
 21
2.323333
 31
0.0
  0
LINE
  8
1
  6
CONTINUOUS
 62
     7
  5
293
 10
7.84375
 20
2.074417
 30
0.0
 11
7.84375
 21
2.333917
 31
0.0
  0
LINE
  8
1
  6
CONTINUOUS
 62
     7
  5
294
 10
8.3125
 20
2.089
 30
0.0
 11
8.3125
 21
2.325667
 31
0.0
  0
LINE
  8
1
  6
CONTINUOUS
 62
     7
  5
295
 10
8.34375
 20
2.088583
 30
0.0
 11
8.34375
 21
2.329417
 31
0.0
  0
LINE
  8
1
  6
CONTINUOUS
 62
     7
  5
296
 10
8.375
 20
2.088833
 30
0.0
 11
8.375
 21
2.332667
 31
0.0
  0
LINE
  8
1
  6
CONTINUOUS
 62
     7
  5
297
 10
8.40625
 20
2.089083
 30
0.0
 11
8.40625
 21
2.335167
 31
0.0
  0
LINE
  8
1
  6
CONTINUOUS
 62
     7
  5
298
 10
8.4375
 20
2.088667
 30
0.0
 11
8.4375
 21
2.333667
 31
0.0
  0
LINE
  8
1
  6
CONTINUOUS
 62
     7
  5
299
 10
8.46875
 20
2.087667
 30
0.0
 11
8.46875
 21
2.329417
 31
0.0
  0
LINE
  8
1
  6
CONTINUOUS
 62
     7
  5
29A
 10
8.5
 20
2.086167
 30
0.0
 11
8.5
 21
2.328
 31
0.0
  0
LINE
  8
1
  6
CONTINUOUS
 62
     7
  5
29B
 10
8.53125
 20
2.084
 30
0.0
 11
8.53125
 21
2.329583
 31
0.0
  0
LINE
  8
1
  6
CONTINUOUS
 62
     7
  5
29C
 10
8.5625
 20
2.082417
 30
0.0
 11
8.5625
 21
2.333333
 31
0.0
  0
LINE
  8
1
  6
CONTINUOUS
 62
     7
  5
29D
 10
8.59375
 20
2.08225
 30
0.0
 11
8.59375
 21
2.334667
 31
0.0
  0
LINE
  8
1
  6
CONTINUOUS
 62
     7
  5
29E
 10
8.625
 20
2.083833
 30
0.0
 11
8.625
 21
2.333917
 31
0.0
  0
LINE
  8
1
  6
CONTINUOUS
 62
     7
  5
29F
 10
8.65625
 20
2.086833
 30
0.0
 11
8.65625
 21
2.332333
 31
0.0
  0
LINE
  8
1
  6
CONTINUOUS
 62
     7
  5
2A0
 10
8.6875
 20
2.088667
 30
0.0
 11
8.6875
 21
2.330167
 31
0.0
  0
LINE
  8
1
  6
CONTINUOUS
 62
     7
  5
2A1
 10
8.71875
 20
2.089583
 30
0.0
 11
8.71875
 21
2.327333
 31
0.0
  0
LINE
  8
1
  6
CONTINUOUS
 62
     7
  5
2A2
 10
8.75
 20
2.08975
 30
0.0
 11
8.75
 21
2.3235
 31
0.0
  0
LINE
  8
1
  6
CONTINUOUS
 62
     7
  5
2A3
 10
8.78125
 20
2.088917
 30
0.0
 11
8.78125
 21
2.320833
 31
0.0
  0
ENDBLK
  8
1
  6
CONTINUOUS
 62
     7
  5
2A4
  0
BLOCK
  8
1
  6
CONTINUOUS
 62
     7
  5
2AA
  2
$X4
 70
     0
 10
0.0
 20
0.0
 30
0.0
  3
$N4
  0
LINE
  8
1
  6
CONTINUOUS
 62
     7
  5
2AB
 10
11.3125
 20
2.055583
 30
0.0
 11
11.3125
 21
2.289
 31
0.0
  0
LINE
  8
1
  6
CONTINUOUS
 62
     7
  5
2AC
 10
11.28125
 20
2.055583
 30
0.0
 11
11.28125
 21
2.2845
 31
0.0
  0
LINE
  8
1
  6
CONTINUOUS
 62
     7
  5
2AD
 10
11.25
 20
2.055583
 30
0.0
 11
11.25
 21
2.270167
 31
0.0
  0
LINE
  8
1
  6
CONTINUOUS
 62
     7
  5
2AE
 10
11.21875
 20
2.055583
 30
0.0
 11
11.21875
 21
2.263
 31
0.0
  0
LINE
  8
1
  6
CONTINUOUS
 62
     7
  5
2AF
 10
11.1875
 20
2.055583
 30
0.0
 11
11.1875
 21
2.257667
 31
0.0
  0
LINE
  8
1
  6
CONTINUOUS
 62
     7
  5
2B0
 10
11.15625
 20
2.055583
 30
0.0
 11
11.15625
 21
2.255
 31
0.0
  0
LINE
  8
1
  6
CONTINUOUS
 62
     7
  5
2B1
 10
11.125
 20
2.055583
 30
0.0
 11
11.125
 21
2.254833
 31
0.0
  0
LINE
  8
1
  6
CONTINUOUS
 62
     7
  5
2B2
 10
11.09375
 20
2.055583
 30
0.0
 11
11.09375
 21
2.255167
 31
0.0
  0
LINE
  8
1
  6
CONTINUOUS
 62
     7
  5
2B3
 10
11.0625
 20
2.052167
 30
0.0
 11
11.0625
 21
2.254167
 31
0.0
  0
LINE
  8
1
  6
CONTINUOUS
 62
     7
  5
2B4
 10
11.03125
 20
2.045083
 30
0.0
 11
11.03125
 21
2.25175
 31
0.0
  0
LINE
  8
1
  6
CONTINUOUS
 62
     7
  5
2B5
 10
11.0
 20
2.039417
 30
0.0
 11
11.0
 21
2.247667
 31
0.0
  0
LINE
  8
1
  6
CONTINUOUS
 62
     7
  5
2B6
 10
10.96875
 20
2.035
 30
0.0
 11
10.96875
 21
2.231333
 31
0.0
  0
LINE
  8
1
  6
CONTINUOUS
 62
     7
  5
2B7
 10
10.9375
 20
2.031833
 30
0.0
 11
10.9375
 21
2.220833
 31
0.0
  0
LINE
  8
1
  6
CONTINUOUS
 62
     7
  5
2B8
 10
10.90625
 20
2.028917
 30
0.0
 11
10.90625
 21
2.220667
 31
0.0
  0
LINE
  8
1
  6
CONTINUOUS
 62
     7
  5
2B9
 10
11.34375
 20
2.055583
 30
0.0
 11
11.34375
 21
2.28775
 31
0.0
  0
LINE
  8
1
  6
CONTINUOUS
 62
     7
  5
2BA
 10
11.375
 20
2.055583
 30
0.0
 11
11.375
 21
2.288917
 31
0.0
  0
LINE
  8
1
  6
CONTINUOUS
 62
     7
  5
2BB
 10
11.40625
 20
2.055583
 30
0.0
 11
11.40625
 21
2.291417
 31
0.0
  0
LINE
  8
1
  6
CONTINUOUS
 62
     7
  5
2BC
 10
11.4375
 20
2.056
 30
0.0
 11
11.4375
 21
2.29425
 31
0.0
  0
LINE
  8
1
  6
CONTINUOUS
 62
     7
  5
2BD
 10
11.46875
 20
2.059167
 30
0.0
 11
11.46875
 21
2.294833
 31
0.0
  0
LINE
  8
1
  6
CONTINUOUS
 62
     7
  5
2BE
 10
11.5
 20
2.0635
 30
0.0
 11
11.5
 21
2.294833
 31
0.0
  0
LINE
  8
1
  6
CONTINUOUS
 62
     7
  5
2BF
 10
11.53125
 20
2.066917
 30
0.0
 11
11.53125
 21
2.294833
 31
0.0
  0
LINE
  8
1
  6
CONTINUOUS
 62
     7
  5
2C0
 10
11.5625
 20
2.069333
 30
0.0
 11
11.5625
 21
2.294833
 31
0.0
  0
LINE
  8
1
  6
CONTINUOUS
 62
     7
  5
2C1
 10
11.59375
 20
2.069833
 30
0.0
 11
11.59375
 21
2.294833
 31
0.0
  0
LINE
  8
1
  6
CONTINUOUS
 62
     7
  5
2C2
 10
11.625
 20
2.068833
 30
0.0
 11
11.625
 21
2.294833
 31
0.0
  0
LINE
  8
1
  6
CONTINUOUS
 62
     7
  5
2C3
 10
11.65625
 20
2.0685
 30
0.0
 11
11.65625
 21
2.294833
 31
0.0
  0
LINE
  8
1
  6
CONTINUOUS
 62
     7
  5
2C4
 10
11.6875
 20
2.069167
 30
0.0
 11
11.6875
 21
2.294833
 31
0.0
  0
LINE
  8
1
  6
CONTINUOUS
 62
     7
  5
2C5
 10
11.71875
 20
2.074667
 30
0.0
 11
11.71875
 21
2.29625
 31
0.0
  0
LINE
  8
1
  6
CONTINUOUS
 62
     7
  5
2C6
 10
11.75
 20
2.084083
 30
0.0
 11
11.75
 21
2.30075
 31
0.0
  0
ENDBLK
  8
1
  6
CONTINUOUS
 62
     7
  5
2C7
  0
BLOCK
  8
1
  6
CONTINUOUS
 62
     7
  5
7E8
  2
*D4
 70
     1
 10
0.0
 20
0.0
 30
0.0
  3
*N4
  0
POLYLINE
  8
1
  6
CONTINUOUS
 62
     7
  5
7E9
 66
     1
 10
0.0
 20
0.0
 30
0.0
  0
VERTEX
  8
1
  6
CONTINUOUS
 62
     7
  5
7EA
 10
0.03125
 20
0.125
 30
0.0
  0
VERTEX
  8
1
  6
CONTINUOUS
 62
     7
  5
7EB
 10
0.0
 20
0.0
 30
0.0
  0
VERTEX
  8
1
  6
CONTINUOUS
 62
     7
  5
7EC
 10
-0.03125
 20
0.125
 30
0.0
  0
SEQEND
  8
1
  6
CONTINUOUS
 62
     7
  5
7ED
  0
LINE
  8
1
  6
CONTINUOUS
 62
     7
  5
7EE
 10
0.0
 20
0.0
 30
0.0
 11
0.0
 21
0.527917
 31
0.0
  0
ENDBLK
  8
1
  6
CONTINUOUS
 62
     7
  5
7EF
  0
BLOCK
  8
1
  6
CONTINUOUS
 62
     7
  5
7F2
  2
*D5
 70
     1
 10
0.0
 20
0.0
 30
0.0
  3
*N5
  0
POLYLINE
  8
1
  6
CONTINUOUS
 62
     7
  5
7F3
 66
     1
 10
0.0
 20
0.0
 30
0.0
  0
VERTEX
  8
1
  6
CONTINUOUS
 62
     7
  5
7F4
 10
-0.03125
 20
-0.125
 30
0.0
  0
VERTEX
  8
1
  6
CONTINUOUS
 62
     7
  5
7F5
 10
0.0
 20
0.0
 30
0.0
  0
VERTEX
  8
1
  6
CONTINUOUS
 62
     7
  5
7F6
 10
0.03125
 20
-0.125
 30
0.0
  0
SEQEND
  8
1
  6
CONTINUOUS
 62
     7
  5
7F7
  0
LINE
  8
1
  6
CONTINUOUS
 62
     7
  5
7F8
 10
0.0
 20
0.0
 30
0.0
 11
0.0
 21
-0.527917
 31
0.0
  0
ENDBLK
  8
1
  6
CONTINUOUS
 62
     7
  5
7F9
  0
BLOCK
  8
3
  6
CONTINUOUS
 62
     7
  5
801
  2
*D6
 70
     1
 10
0.0
 20
0.0
 30
0.0
  3
*N6
  0
POLYLINE
  8
3
  6
CONTINUOUS
 62
     7
  5
802
 66
     1
 10
0.0
 20
0.0
 30
0.0
  0
VERTEX
  8
3
  6
CONTINUOUS
 62
     7
  5
803
 10
0.077167
 20
0.103167
 30
0.0
  0
VERTEX
  8
3
  6
CONTINUOUS
 62
     7
  5
804
 10
0.0
 20
0.0
 30
0.0
  0
VERTEX
  8
3
  6
CONTINUOUS
 62
     7
  5
805
 10
0.0195
 20
0.127333
 30
0.0
  0
SEQEND
  8
3
  6
CONTINUOUS
 62
     7
  5
806
  0
LINE
  8
3
  6
CONTINUOUS
 62
     7
  5
807
 10
0.0
 20
0.0
 30
0.0
 11
0.718583
 21
1.713167
 31
0.0
  0
ENDBLK
  8
3
  6
CONTINUOUS
 62
     7
  5
808
  0
BLOCK
  8
1
  6
CONTINUOUS
 62
     7
  5
814
  2
FLOW1
 70
     0
 10
0.0
 20
0.0
 30
0.0
  3
FLOW1
  0
SOLID
  8
1
  6
CONTINUOUS
 62
     7
  5
815
 10
0.4
 20
0.0
 30
0.0
 11
0.263333
 21
0.023333
 31
0.0
 12
0.263333
 22
-0.023333
 32
0.0
 13
0.29
 23
0.0
 33
0.0
  0
POLYLINE
  8
1
  6
CONTINUOUS
 62
     7
  5
816
 66
     1
 10
0.0
 20
0.0
 30
0.0
  0
VERTEX
  8
1
  6
CONTINUOUS
 62
     7
  5
817
 10
-0.4
 20
0.0
 30
0.0
  0
VERTEX
  8
1
  6
CONTINUOUS
 62
     7
  5
818
 10
-0.3
 20
0.003333
 30
0.0
  0
VERTEX
  8
1
  6
CONTINUOUS
 62
     7
  5
819
 10
-0.2
 20
0.01
 30
0.0
  0
VERTEX
  8
1
  6
CONTINUOUS
 62
     7
  5
81A
 10
-0.1
 20
0.02
 30
0.0
  0
VERTEX
  8
1
  6
CONTINUOUS
 62
     7
  5
81B
 10
-0.003333
 20
0.033333
 30
0.0
  0
VERTEX
  8
1
  6
CONTINUOUS
 62
     7
  5
81C
 10
0.01
 20
0.03
 30
0.0
  0
VERTEX
  8
1
  6
CONTINUOUS
 62
     7
  5
81D
 10
0.016667
 20
0.02
 30
0.0
  0
VERTEX
  8
1
  6
CONTINUOUS
 62
     7
  5
81E
 10
0.013333
 20
0.006667
 30
0.0
  0
VERTEX
  8
1
  6
CONTINUOUS
 62
     7
  5
81F
 10
0.0
 20
0.0
 30
0.0
  0
VERTEX
  8
1
  6
CONTINUOUS
 62
     7
  5
820
 10
-0.013333
 20
-0.006667
 30
0.0
  0
VERTEX
  8
1
  6
CONTINUOUS
 62
     7
  5
821
 10
-0.016667
 20
-0.02
 30
0.0
  0
VERTEX
  8
1
  6
CONTINUOUS
 62
     7
  5
822
 10
-0.01
 20
-0.03
 30
0.0
  0
VERTEX
  8
1
  6
CONTINUOUS
 62
     7
  5
823
 10
0.003333
 20
-0.033333
 30
0.0
  0
VERTEX
  8
1
  6
CONTINUOUS
 62
     7
  5
824
 10
0.1
 20
-0.02
 30
0.0
  0
VERTEX
  8
1
  6
CONTINUOUS
 62
     7
  5
825
 10
0.2
 20
-0.01
 30
0.0
  0
VERTEX
  8
1
  6
CONTINUOUS
 62
     7
  5
826
 10
0.3
 20
-0.003333
 30
0.0
  0
VERTEX
  8
1
  6
CONTINUOUS
 62
     7
  5
827
 10
0.4
 20
0.0
 30
0.0
  0
SEQEND
  8
1
  6
CONTINUOUS
 62
     7
  5
828
  0
ENDBLK
  8
1
  6
CONTINUOUS
 62
     7
  5
829
  0
ENDSEC
  0
SECTION
  2
ENTITIES
  0
LINE
  8
6
  6
DOT
 62
     2
  5
29
 10
53.391
 20
19.218083
 30
0.0
 11
53.391
 21
20.96075
 31
0.0
  0
LINE
  8
1
  6
CONTINUOUS
 62
   233
  5
2B
 10
49.622167
 20
20.321333
 30
0.0
 11
53.391
 21
20.321333
 31
0.0
  0
CIRCLE
  8
1
  6
CONTINUOUS
 62
   233
  5
2C
 10
53.391
 20
21.195417
 30
0.0
 40
0.874057
210
0.0
220
0.0
230
1.0
  0
ARC
  8
1
  6
CONTINUOUS
 62
   233
  5
2D
 10
53.391
 20
21.195417
 30
0.0
 40
1.014057
 50
90.0
 51
239.535183
210
0.0
220
0.0
230
1.0
  0
LINE
  8
1
  6
CONTINUOUS
 62
   233
  5
2E
 10
53.391
 20
19.109333
 30
0.0
 11
49.622167
 21
19.109333
 31
0.0
  0
LINE
  8
1
  6
CONTINUOUS
 62
   233
  5
2F
 10
49.622167
 20
19.109333
 30
0.0
 11
49.622167
 21
21.432417
 31
0.0
  0
LINE
  8
1
  6
CONTINUOUS
 62
   233
  5
30
 10
49.622167
 20
21.432417
 30
0.0
 11
51.860167
 21
22.644417
 31
0.0
  0
LINE
  8
1
  6
CONTINUOUS
 62
   233
  5
31
 10
51.860167
 20
22.644417
 30
0.0
 11
53.391
 21
22.644417
 31
0.0
  0
LINE
  8
1
  6
CONTINUOUS
 62
   233
  5
32
 10
49.8165
 20
21.432417
 30
0.0
 11
52.0545
 21
22.644417
 31
0.0
  0
LINE
  8
1
  6
CONTINUOUS
 62
   233
  5
33
 10
49.622167
 20
21.432417
 30
0.0
 11
49.8165
 21
21.432417
 31
0.0
  0
LINE
  8
1
  6
CONTINUOUS
 62
   233
  5
34
 10
49.8165
 20
21.432417
 30
0.0
 11
49.8165
 21
20.321333
 31
0.0
  0
LINE
  8
2
  6
HIDDEN
 62
   140
  5
36
 10
57.131417
 20
20.010583
 30
0.0
 11
49.622167
 21
20.010583
 31
0.0
  0
ARC
  8
2
  6
HIDDEN
 62
   140
  5
37
 10
53.359917
 20
21.117833
 30
0.0
 40
1.309648
 50
237.722883
 51
302.277111
210
0.0
220
0.0
230
1.0
  0
LINE
  8
1
  6
CONTINUOUS
 62
   233
  5
38
 10
52.101083
 20
22.644417
 30
0.0
 11
52.101083
 21
20.321333
 31
0.0
  0
LINE
  8
5
  6
DASHED
 62
     2
  5
3A
 10
53.391
 20
22.489
 30
0.0
 11
52.023417
 21
22.489
 31
0.0
  0
LINE
  8
5
  6
DASHED
 62
     2
  5
3B
 10
49.956333
 20
21.409083
 30
0.0
 11
52.023417
 21
22.489
 31
0.0
  0
LINE
  8
5
  6
DASHED
 62
     2
  5
3C
 10
53.391
 20
20.166
 30
0.0
 11
50.500333
 21
20.166
 31
0.0
  0
LINE
  8
5
  6
DASHED
 62
     2
  5
3D
 10
49.762083
 20
20.166
 30
0.0
 11
50.251667
 21
21.416833
 31
0.0
  0
LINE
  8
5
  6
DASHED
 62
     2
  5
3E
 10
50.500333
 20
21.4945
 30
0.0
 11
50.500333
 21
20.166
 31
0.0
  0
LINE
  8
5
  6
DASHED
 62
     2
  5
3F
 10
50.500333
 20
20.166
 30
0.0
 11
49.762083
 21
20.166
 31
0.0
  0
POLYLINE
  8
5
  6
DASHED
 62
     2
  5
40
 66
     1
 10
0.0
 20
0.0
 30
0.0
  0
VERTEX
  8
5
  6
DASHED
 62
     2
  5
41
 10
50.485333
 20
20.166
 30
0.0
 42
1.0
  0
VERTEX
  8
5
  6
DASHED
 62
     2
  5
42
 10
50.515333
 20
20.166
 30
0.0
 42
1.0
  0
VERTEX
  8
5
  6
DASHED
 62
     2
  5
43
 10
50.485333
 20
20.166
 30
0.0
  0
SEQEND
  8
5
  6
DASHED
 62
     2
  5
44
  0
LINE
  8
5
  6
DASHED
 62
     2
  5
45
 10
51.23075
 20
21.4945
 30
0.0
 11
51.23075
 21
20.166
 31
0.0
  0
POLYLINE
  8
5
  6
DASHED
 62
     2
  5
46
 66
     1
 10
0.0
 20
0.0
 30
0.0
  0
VERTEX
  8
5
  6
DASHED
 62
     2
  5
47
 10
51.21575
 20
20.166
 30
0.0
 42
1.0
  0
VERTEX
  8
5
  6
DASHED
 62
     2
  5
48
 10
51.24575
 20
20.166
 30
0.0
 42
1.0
  0
VERTEX
  8
5
  6
DASHED
 62
     2
  5
49
 10
51.21575
 20
20.166
 30
0.0
  0
SEQEND
  8
5
  6
DASHED
 62
     2
  5
4A
  0
POLYLINE
  8
5
  6
DASHED
 62
     2
  5
4B
 66
     1
 10
0.0
 20
0.0
 30
0.0
  0
VERTEX
  8
5
  6
DASHED
 62
     2
  5
4C
 10
51.938417
 20
20.166
 30
0.0
 42
1.0
  0
VERTEX
  8
5
  6
DASHED
 62
     2
  5
4D
 10
51.968417
 20
20.166
 30
0.0
 42
1.0
  0
VERTEX
  8
5
  6
DASHED
 62
     2
  5
4E
 10
51.938417
 20
20.166
 30
0.0
  0
SEQEND
  8
5
  6
DASHED
 62
     2
  5
4F
  0
LINE
  8
5
  6
DASHED
 62
     2
  5
50
 10
51.953417
 20
21.4945
 30
0.0
 11
51.953417
 21
20.166
 31
0.0
  0
POLYLINE
  8
5
  6
DASHED
 62
     2
  5
51
 66
     1
 10
0.0
 20
0.0
 30
0.0
  0
VERTEX
  8
5
  6
DASHED
 62
     2
  5
52
 10
49.747083
 20
20.166
 30
0.0
 42
1.0
  0
VERTEX
  8
5
  6
DASHED
 62
     2
  5
53
 10
49.777083
 20
20.166
 30
0.0
 42
1.0
  0
VERTEX
  8
5
  6
DASHED
 62
     2
  5
54
 10
49.747083
 20
20.166
 30
0.0
  0
SEQEND
  8
5
  6
DASHED
 62
     2
  5
55
  0
POLYLINE
  8
5
  6
DASHED
 62
     2
  5
56
 66
     1
 10
0.0
 20
0.0
 30
0.0
  0
VERTEX
  8
5
  6
DASHED
 62
     2
  5
57
 10
49.853917
 20
20.19825
 30
0.0
 42
1.0
  0
VERTEX
  8
5
  6
DASHED
 62
     2
  5
58
 10
49.883917
 20
20.19825
 30
0.0
 42
1.0
  0
VERTEX
  8
5
  6
DASHED
 62
     2
  5
59
 10
49.853917
 20
20.19825
 30
0.0
  0
SEQEND
  8
5
  6
DASHED
 62
     2
  5
5A
  0
LINE
  8
5
  6
DASHED
 62
     2
  5
5B
 10
49.868917
 20
20.19825
 30
0.0
 11
49.868917
 21
19.221667
 31
0.0
  0
LINE
  8
5
  6
DASHED
 62
     2
  5
5C
 10
51.58625
 20
20.19825
 30
0.0
 11
51.58625
 21
19.221667
 31
0.0
  0
POLYLINE
  8
5
  6
DASHED
 62
     2
  5
5D
 66
     1
 10
0.0
 20
0.0
 30
0.0
  0
VERTEX
  8
5
  6
DASHED
 62
     2
  5
5E
 10
51.57125
 20
20.19825
 30
0.0
 42
1.0
  0
VERTEX
  8
5
  6
DASHED
 62
     2
  5
5F
 10
51.60125
 20
20.19825
 30
0.0
 42
1.0
  0
VERTEX
  8
5
  6
DASHED
 62
     2
  5
60
 10
51.57125
 20
20.19825
 30
0.0
  0
SEQEND
  8
5
  6
DASHED
 62
     2
  5
61
  0
POLYLINE
  8
5
  6
DASHED
 62
     2
  5
62
 66
     1
 10
0.0
 20
0.0
 30
0.0
  0
VERTEX
  8
5
  6
DASHED
 62
     2
  5
63
 10
53.376
 20
20.19825
 30
0.0
 42
1.0
  0
VERTEX
  8
5
  6
DASHED
 62
     2
  5
64
 10
53.406
 20
20.19825
 30
0.0
 42
1.0
  0
VERTEX
  8
5
  6
DASHED
 62
     2
  5
65
 10
53.376
 20
20.19825
 30
0.0
  0
SEQEND
  8
5
  6
DASHED
 62
     2
  5
66
  0
POLYLINE
  8
5
  6
DASHED
 62
     2
  5
67
 66
     1
 10
0.0
 20
0.0
 30
0.0
  0
VERTEX
  8
5
  6
DASHED
 62
     2
  5
68
 10
53.406
 20
20.19825
 30
0.0
 42
-1.0
  0
VERTEX
  8
5
  6
DASHED
 62
     2
  5
69
 10
53.376
 20
20.19825
 30
0.0
 42
-1.0
  0
VERTEX
  8
5
  6
DASHED
 62
     2
  5
6A
 10
53.406
 20
20.19825
 30
0.0
  0
SEQEND
  8
5
  6
DASHED
 62
     2
  5
6B
  0
POLYLINE
  8
5
  6
DASHED
 62
     2
  5
6C
 66
     1
 10
0.0
 20
0.0
 30
0.0
  0
VERTEX
  8
5
  6
DASHED
 62
     2
  5
6D
 10
55.182333
 20
20.19825
 30
0.0
 42
-1.0
  0
VERTEX
  8
5
  6
DASHED
 62
     2
  5
6E
 10
55.152333
 20
20.19825
 30
0.0
 42
-1.0
  0
VERTEX
  8
5
  6
DASHED
 62
     2
  5
6F
 10
55.182333
 20
20.19825
 30
0.0
  0
SEQEND
  8
5
  6
DASHED
 62
     2
  5
70
  0
LINE
  8
5
  6
DASHED
 62
     2
  5
71
 10
55.167333
 20
20.19825
 30
0.0
 11
55.167333
 21
19.221667
 31
0.0
  0
LINE
  8
5
  6
DASHED
 62
     2
  5
72
 10
56.884667
 20
20.19825
 30
0.0
 11
56.884667
 21
19.221667
 31
0.0
  0
POLYLINE
  8
5
  6
DASHED
 62
     2
  5
73
 66
     1
 10
0.0
 20
0.0
 30
0.0
  0
VERTEX
  8
5
  6
DASHED
 62
     2
  5
74
 10
56.899667
 20
20.19825
 30
0.0
 42
-1.0
  0
VERTEX
  8
5
  6
DASHED
 62
     2
  5
75
 10
56.869667
 20
20.19825
 30
0.0
 42
-1.0
  0
VERTEX
  8
5
  6
DASHED
 62
     2
  5
76
 10
56.899667
 20
20.19825
 30
0.0
  0
SEQEND
  8
5
  6
DASHED
 62
     2
  5
77
  0
POLYLINE
  8
5
  6
DASHED
 62
     2
  5
78
 66
     1
 10
0.0
 20
0.0
 30
0.0
  0
VERTEX
  8
5
  6
DASHED
 62
     2
  5
79
 10
57.0065
 20
20.166
 30
0.0
 42
-1.0
  0
VERTEX
  8
5
  6
DASHED
 62
     2
  5
7A
 10
56.9765
 20
20.166
 30
0.0
 42
-1.0
  0
VERTEX
  8
5
  6
DASHED
 62
     2
  5
7B
 10
57.0065
 20
20.166
 30
0.0
  0
SEQEND
  8
5
  6
DASHED
 62
     2
  5
7C
  0
LINE
  8
5
  6
DASHED
 62
     2
  5
7D
 10
54.800167
 20
21.4945
 30
0.0
 11
54.800167
 21
20.166
 31
0.0
  0
POLYLINE
  8
5
  6
DASHED
 62
     2
  5
7E
 66
     1
 10
0.0
 20
0.0
 30
0.0
  0
VERTEX
  8
5
  6
DASHED
 62
     2
  5
7F
 10
54.815167
 20
20.166
 30
0.0
 42
-1.0
  0
VERTEX
  8
5
  6
DASHED
 62
     2
  5
80
 10
54.785167
 20
20.166
 30
0.0
 42
-1.0
  0
VERTEX
  8
5
  6
DASHED
 62
     2
  5
81
 10
54.815167
 20
20.166
 30
0.0
  0
SEQEND
  8
5
  6
DASHED
 62
     2
  5
82
  0
POLYLINE
  8
5
  6
DASHED
 62
     2
  5
83
 66
     1
 10
0.0
 20
0.0
 30
0.0
  0
VERTEX
  8
5
  6
DASHED
 62
     2
  5
84
 10
55.537833
 20
20.166
 30
0.0
 42
-1.0
  0
VERTEX
  8
5
  6
DASHED
 62
     2
  5
85
 10
55.507833
 20
20.166
 30
0.0
 42
-1.0
  0
VERTEX
  8
5
  6
DASHED
 62
     2
  5
86
 10
55.537833
 20
20.166
 30
0.0
  0
SEQEND
  8
5
  6
DASHED
 62
     2
  5
87
  0
LINE
  8
5
  6
DASHED
 62
     2
  5
88
 10
55.522833
 20
21.4945
 30
0.0
 11
55.522833
 21
20.166
 31
0.0
  0
POLYLINE
  8
5
  6
DASHED
 62
     2
  5
89
 66
     1
 10
0.0
 20
0.0
 30
0.0
  0
VERTEX
  8
5
  6
DASHED
 62
     2
  5
8A
 10
56.26825
 20
20.166
 30
0.0
 42
-1.0
  0
VERTEX
  8
5
  6
DASHED
 62
     2
  5
8B
 10
56.23825
 20
20.166
 30
0.0
 42
-1.0
  0
VERTEX
  8
5
  6
DASHED
 62
     2
  5
8C
 10
56.26825
 20
20.166
 30
0.0
  0
SEQEND
  8
5
  6
DASHED
 62
     2
  5
8D
  0
LINE
  8
5
  6
DASHED
 62
     2
  5
8E
 10
56.25325
 20
20.166
 30
0.0
 11
56.9915
 21
20.166
 31
0.0
  0
LINE
  8
5
  6
DASHED
 62
     2
  5
8F
 10
56.25325
 20
21.4945
 30
0.0
 11
56.25325
 21
20.166
 31
0.0
  0
LINE
  8
5
  6
DASHED
 62
     2
  5
90
 10
56.9915
 20
20.166
 30
0.0
 11
56.501917
 21
21.416833
 31
0.0
  0
LINE
  8
5
  6
DASHED
 62
     2
  5
91
 10
53.391
 20
20.166
 30
0.0
 11
56.25325
 21
20.166
 31
0.0
  0
LINE
  8
5
  6
DASHED
 62
     2
  5
92
 10
56.79725
 20
21.409083
 30
0.0
 11
54.730167
 21
22.489
 31
0.0
  0
LINE
  8
5
  6
DASHED
 62
     2
  5
93
 10
53.391
 20
22.489
 30
0.0
 11
54.730167
 21
22.489
 31
0.0
  0
LINE
  8
1
  6
CONTINUOUS
 62
   233
  5
94
 10
54.6525
 20
22.644417
 30
0.0
 11
54.6525
 21
20.321333
 31
0.0
  0
LINE
  8
1
  6
CONTINUOUS
 62
   233
  5
95
 10
56.937083
 20
21.432417
 30
0.0
 11
56.937083
 21
20.321333
 31
0.0
  0
LINE
  8
1
  6
CONTINUOUS
 62
   233
  5
96
 10
57.131417
 20
21.432417
 30
0.0
 11
56.937083
 21
21.432417
 31
0.0
  0
LINE
  8
1
  6
CONTINUOUS
 62
   233
  5
97
 10
56.937083
 20
21.432417
 30
0.0
 11
54.699083
 21
22.644417
 31
0.0
  0
LINE
  8
1
  6
CONTINUOUS
 62
   233
  5
98
 10
54.893417
 20
22.644417
 30
0.0
 11
53.391
 21
22.644417
 31
0.0
  0
LINE
  8
1
  6
CONTINUOUS
 62
   233
  5
99
 10
57.131417
 20
21.432417
 30
0.0
 11
54.893417
 21
22.644417
 31
0.0
  0
LINE
  8
1
  6
CONTINUOUS
 62
   233
  5
9A
 10
57.131417
 20
19.109333
 30
0.0
 11
57.131417
 21
21.432417
 31
0.0
  0
LINE
  8
1
  6
CONTINUOUS
 62
   233
  5
9B
 10
53.391
 20
19.109333
 30
0.0
 11
57.131417
 21
19.109333
 31
0.0
  0
ARC
  8
1
  6
CONTINUOUS
 62
   233
  5
9C
 10
53.391
 20
21.195417
 30
0.0
 40
1.014057
 50
300.464814
 51
89.999997
210
0.0
220
0.0
230
1.0
  0
LINE
  8
1
  6
CONTINUOUS
 62
   233
  5
9D
 10
57.131417
 20
20.321333
 30
0.0
 11
53.391
 21
20.321333
 31
0.0
  0
LINE
  8
1
  6
CONTINUOUS
 62
   233
  5
9E
 10
53.382
 20
13.232667
 30
0.0
 11
49.9
 21
13.232667
 31
0.0
  0
LINE
  8
1
  6
CONTINUOUS
 62
   233
  5
9F
 10
49.6485
 20
13.445417
 30
0.0
 11
52.16325
 21
15.902417
 31
0.0
  0
LINE
  8
1
  6
CONTINUOUS
 62
   233
  5
A0
 10
52.16325
 20
15.902417
 30
0.0
 11
53.382
 21
15.902417
 31
0.0
  0
LINE
  8
5
  6
DASHED
 62
     2
  5
A1
 10
53.382
 20
13.339083
 30
0.0
 11
49.77425
 21
13.339083
 31
0.0
  0
LINE
  8
5
  6
DASHED
 62
     2
  5
A2
 10
49.77425
 20
13.339083
 30
0.0
 11
51.021917
 21
14.557833
 31
0.0
  0
LINE
  8
5
  6
DASHED
 62
     2
  5
A3
 10
49.786417
 20
13.43575
 30
0.0
 11
52.172917
 21
15.767
 31
0.0
  0
LINE
  8
1
  6
CONTINUOUS
 62
   233
  5
A4
 10
49.6485
 20
13.445417
 30
0.0
 11
49.9
 21
13.232667
 31
0.0
  0
LINE
  8
1
  6
CONTINUOUS
 62
   233
  5
A5
 10
49.9
 20
13.232667
 30
0.0
 11
52.147833
 21
15.428833
 31
0.0
  0
LINE
  8
1
  6
CONTINUOUS
 62
   233
  5
A6
 10
51.918667
 20
15.663417
 30
0.0
 11
52.147833
 21
15.428833
 31
0.0
  0
LINE
  8
5
  6
DASHED
 62
     2
  5
A7
 10
49.745167
 20
13.43575
 30
0.0
 11
51.4185
 21
13.43575
 31
0.0
  0
LINE
  8
5
  6
DASHED
 62
     2
  5
A8
 10
52.172917
 20
15.767
 30
0.0
 11
53.382
 21
15.767
 31
0.0
  0
LINE
  8
2
  6
HIDDEN
 62
   140
  5
A9
 10
49.70225
 20
13.498
 30
0.0
 11
57.06175
 21
13.498
 31
0.0
  0
POLYLINE
  8
5
  6
DASHED
 62
     2
  5
AA
 66
     1
 10
0.0
 20
0.0
 30
0.0
  0
VERTEX
  8
5
  6
DASHED
 62
     2
  5
AB
 10
49.732667
 20
13.43575
 30
0.0
 42
1.0
  0
VERTEX
  8
5
  6
DASHED
 62
     2
  5
AC
 10
49.757667
 20
13.43575
 30
0.0
 42
1.0
  0
VERTEX
  8
5
  6
DASHED
 62
     2
  5
AD
 10
49.732667
 20
13.43575
 30
0.0
  0
SEQEND
  8
5
  6
DASHED
 62
     2
  5
AE
  0
POLYLINE
  8
5
  6
DASHED
 62
     2
  5
AF
 66
     1
 10
0.0
 20
0.0
 30
0.0
  0
VERTEX
  8
5
  6
DASHED
 62
     2
  5
B0
 10
50.462167
 20
14.138417
 30
0.0
 42
1.0
  0
VERTEX
  8
5
  6
DASHED
 62
     2
  5
B1
 10
50.487167
 20
14.138417
 30
0.0
 42
1.0
  0
VERTEX
  8
5
  6
DASHED
 62
     2
  5
B2
 10
50.462167
 20
14.138417
 30
0.0
  0
SEQEND
  8
5
  6
DASHED
 62
     2
  5
B3
  0
POLYLINE
  8
5
  6
DASHED
 62
     2
  5
B4
 66
     1
 10
0.0
 20
0.0
 30
0.0
  0
VERTEX
  8
5
  6
DASHED
 62
     2
  5
B5
 10
51.174167
 20
14.82325
 30
0.0
 42
1.0
  0
VERTEX
  8
5
  6
DASHED
 62
     2
  5
B6
 10
51.199167
 20
14.82325
 30
0.0
 42
1.0
  0
VERTEX
  8
5
  6
DASHED
 62
     2
  5
B7
 10
51.174167
 20
14.82325
 30
0.0
  0
SEQEND
  8
5
  6
DASHED
 62
     2
  5
B8
  0
LINE
  8
5
  6
DASHED
 62
     2
  5
B9
 10
50.474667
 20
14.138417
 30
0.0
 11
52.256333
 21
13.422917
 31
0.0
  0
LINE
  8
5
  6
DASHED
 62
     2
  5
BA
 10
52.477833
 20
13.579583
 30
0.0
 11
51.186667
 21
14.82325
 31
0.0
  0
POLYLINE
  8
5
  6
DASHED
 62
     2
  5
BB
 66
     1
 10
0.0
 20
0.0
 30
0.0
  0
VERTEX
  8
5
  6
DASHED
 62
     2
  5
BC
 10
51.918667
 20
15.553667
 30
0.0
 42
1.0
  0
VERTEX
  8
5
  6
DASHED
 62
     2
  5
BD
 10
51.943667
 20
15.553667
 30
0.0
 42
1.0
  0
VERTEX
  8
5
  6
DASHED
 62
     2
  5
BE
 10
51.918667
 20
15.553667
 30
0.0
  0
SEQEND
  8
5
  6
DASHED
 62
     2
  5
BF
  0
LINE
  8
5
  6
DASHED
 62
     2
  5
C0
 10
51.931167
 20
15.553667
 30
0.0
 11
53.240167
 21
14.251333
 31
0.0
  0
POLYLINE
  8
5
  6
DASHED
 62
     2
  5
C1
 66
     1
 10
0.0
 20
0.0
 30
0.0
  0
VERTEX
  8
5
  6
DASHED
 62
     2
  5
C2
 10
53.3695
 20
13.3105
 30
0.0
 42
1.0
  0
VERTEX
  8
5
  6
DASHED
 62
     2
  5
C3
 10
53.3945
 20
13.3105
 30
0.0
 42
1.0
  0
VERTEX
  8
5
  6
DASHED
 62
     2
  5
C4
 10
53.3695
 20
13.3105
 30
0.0
  0
SEQEND
  8
5
  6
DASHED
 62
     2
  5
C5
  0
LINE
  8
1
  6
CONTINUOUS
 62
   233
  5
C6
 10
52.147833
 20
15.428833
 30
0.0
 11
53.382
 21
15.428833
 31
0.0
  0
LINE
  8
1
  6
CONTINUOUS
 62
   233
  5
C7
 10
52.351917
 20
16.5215
 30
0.0
 11
53.382
 21
16.5215
 31
0.0
  0
LINE
  8
2
  6
HIDDEN
 62
   140
  5
C8
 10
53.382
 20
15.515
 30
0.0
 11
52.468417
 21
15.515
 31
0.0
  0
LINE
  8
2
  6
HIDDEN
 62
   140
  5
C9
 10
52.468417
 20
15.515
 30
0.0
 11
52.372833
 21
15.428833
 31
0.0
  0
POLYLINE
  8
1
  6
CONTINUOUS
 62
   233
  5
CA
 66
     1
 10
0.0
 20
0.0
 30
0.0
  0
VERTEX
  8
1
  6
CONTINUOUS
 62
   233
  5
CB
 10
52.486368
 20
16.521495
 30
0.0
 42
-0.104003
  0
VERTEX
  8
1
  6
CONTINUOUS
 62
   233
  5
CC
 10
52.514655
 20
16.475072
 30
0.0
 42
-0.122158
  0
VERTEX
  8
1
  6
CONTINUOUS
 62
   233
  5
CD
 10
52.519133
 20
16.428915
 30
0.0
 42
-0.144079
  0
VERTEX
  8
1
  6
CONTINUOUS
 62
   233
  5
CE
 10
52.501135
 20
16.389728
 30
0.0
 42
0.162427
  0
VERTEX
  8
1
  6
CONTINUOUS
 62
   233
  5
CF
 10
52.486309
 20
16.354262
 30
0.0
 42
0.21028
  0
VERTEX
  8
1
  6
CONTINUOUS
 62
   233
  5
D0
 10
52.502763
 20
16.307946
 30
0.0
 42
-0.21028
  0
VERTEX
  8
1
  6
CONTINUOUS
 62
   233
  5
D1
 10
52.519146
 20
16.261702
 30
0.0
 42
-0.172167
  0
VERTEX
  8
1
  6
CONTINUOUS
 62
   233
  5
D2
 10
52.502771
 20
16.224298
 30
0.0
 42
0.172167
  0
VERTEX
  8
1
  6
CONTINUOUS
 62
   233
  5
D3
 10
52.486309
 20
16.187012
 30
0.0
 42
0.21028
  0
VERTEX
  8
1
  6
CONTINUOUS
 62
   233
  5
D4
 10
52.502763
 20
16.140696
 30
0.0
 42
-0.21028
  0
VERTEX
  8
1
  6
CONTINUOUS
 62
   233
  5
D5
 10
52.519146
 20
16.094452
 30
0.0
 42
-0.172167
  0
VERTEX
  8
1
  6
CONTINUOUS
 62
   233
  5
D6
 10
52.502771
 20
16.057048
 30
0.0
 42
0.172167
  0
VERTEX
  8
1
  6
CONTINUOUS
 62
   233
  5
D7
 10
52.48632
 20
16.01972
 30
0.0
 42
0.21028
  0
VERTEX
  8
1
  6
CONTINUOUS
 62
   233
  5
D8
 10
52.502775
 20
15.973488
 30
0.0
 42
-0.21028
  0
VERTEX
  8
1
  6
CONTINUOUS
 62
   233
  5
D9
 10
52.519146
 20
15.927202
 30
0.0
 42
-0.172167
  0
VERTEX
  8
1
  6
CONTINUOUS
 62
   233
  5
DA
 10
52.502771
 20
15.889798
 30
0.0
 42
0.172167
  0
VERTEX
  8
1
  6
CONTINUOUS
 62
   233
  5
DB
 10
52.486295
 20
15.852483
 30
0.0
 42
0.208195
  0
VERTEX
  8
1
  6
CONTINUOUS
 62
   233
  5
DC
 10
52.502415
 20
15.806582
 30
0.0
 42
-0.204067
  0
VERTEX
  8
1
  6
CONTINUOUS
 62
   233
  5
DD
 10
52.519156
 20
15.759908
 30
0.0
 42
-0.183074
  0
VERTEX
  8
1
  6
CONTINUOUS
 62
   233
  5
DE
 10
52.502318
 20
15.722157
 30
0.0
 42
0.188646
  0
VERTEX
  8
1
  6
CONTINUOUS
 62
   233
  5
DF
 10
52.486332
 20
15.685253
 30
0.0
 42
0.215729
  0
VERTEX
  8
1
  6
CONTINUOUS
 62
   233
  5
E0
 10
52.500997
 20
15.649518
 30
0.0
 42
-0.182665
  0
VERTEX
  8
1
  6
CONTINUOUS
 62
   233
  5
E1
 10
52.520706
 20
15.608993
 30
0.0
 42
-0.150821
  0
VERTEX
  8
1
  6
CONTINUOUS
 62
   233
  5
E2
 10
52.509822
 20
15.557586
 30
0.0
 42
-0.132751
  0
VERTEX
  8
1
  6
CONTINUOUS
 62
   233
  5
E3
 10
52.468406
 20
15.515003
 30
0.0
  0
SEQEND
  8
1
  6
CONTINUOUS
 62
   233
  5
E4
  0
LINE
  8
2
  6
HIDDEN
 62
   140
  5
E5
 10
54.295583
 20
15.515
 30
0.0
 11
54.391167
 21
15.428833
 31
0.0
  0
LINE
  8
2
  6
HIDDEN
 62
   140
  5
E6
 10
53.382
 20
15.515
 30
0.0
 11
54.295583
 21
15.515
 31
0.0
  0
LINE
  8
1
  6
CONTINUOUS
 62
   233
  5
E7
 10
54.412083
 20
16.5215
 30
0.0
 11
53.382
 21
16.5215
 31
0.0
  0
LINE
  8
1
  6
CONTINUOUS
 62
   233
  5
E8
 10
54.616083
 20
15.428833
 30
0.0
 11
53.382
 21
15.428833
 31
0.0
  0
LINE
  8
5
  6
DASHED
 62
     2
  5
E9
 10
54.853
 20
15.486417
 30
0.0
 11
53.544
 21
14.184083
 31
0.0
  0
POLYLINE
  8
5
  6
DASHED
 62
     2
  5
EA
 66
     1
 10
0.0
 20
0.0
 30
0.0
  0
VERTEX
  8
5
  6
DASHED
 62
     2
  5
EB
 10
54.8655
 20
15.486417
 30
0.0
 42
-1.0
  0
VERTEX
  8
5
  6
DASHED
 62
     2
  5
EC
 10
54.8405
 20
15.486417
 30
0.0
 42
-1.0
  0
VERTEX
  8
5
  6
DASHED
 62
     2
  5
ED
 10
54.8655
 20
15.486417
 30
0.0
  0
SEQEND
  8
5
  6
DASHED
 62
     2
  5
EE
  0
LINE
  8
5
  6
DASHED
 62
     2
  5
EF
 10
54.286167
 20
13.546
 30
0.0
 11
55.577333
 21
14.789667
 31
0.0
  0
LINE
  8
5
  6
DASHED
 62
     2
  5
F0
 10
56.289333
 20
14.084583
 30
0.0
 11
54.507583
 21
13.369083
 31
0.0
  0
POLYLINE
  8
5
  6
DASHED
 62
     2
  5
F1
 66
     1
 10
0.0
 20
0.0
 30
0.0
  0
VERTEX
  8
5
  6
DASHED
 62
     2
  5
F2
 10
55.589833
 20
14.789667
 30
0.0
 42
-1.0
  0
VERTEX
  8
5
  6
DASHED
 62
     2
  5
F3
 10
55.564833
 20
14.789667
 30
0.0
 42
-1.0
  0
VERTEX
  8
5
  6
DASHED
 62
     2
  5
F4
 10
55.589833
 20
14.789667
 30
0.0
  0
SEQEND
  8
5
  6
DASHED
 62
     2
  5
F5
  0
POLYLINE
  8
5
  6
DASHED
 62
     2
  5
F6
 66
     1
 10
0.0
 20
0.0
 30
0.0
  0
VERTEX
  8
5
  6
DASHED
 62
     2
  5
F7
 10
56.301833
 20
14.084583
 30
0.0
 42
-1.0
  0
VERTEX
  8
5
  6
DASHED
 62
     2
  5
F8
 10
56.276833
 20
14.084583
 30
0.0
 42
-1.0
  0
VERTEX
  8
5
  6
DASHED
 62
     2
  5
F9
 10
56.301833
 20
14.084583
 30
0.0
  0
SEQEND
  8
5
  6
DASHED
 62
     2
  5
FA
  0
POLYLINE
  8
5
  6
DASHED
 62
     2
  5
FB
 66
     1
 10
0.0
 20
0.0
 30
0.0
  0
VERTEX
  8
5
  6
DASHED
 62
     2
  5
FC
 10
57.03125
 20
13.43575
 30
0.0
 42
-1.0
  0
VERTEX
  8
5
  6
DASHED
 62
     2
  5
FD
 10
57.00625
 20
13.43575
 30
0.0
 42
-1.0
  0
VERTEX
  8
5
  6
DASHED
 62
     2
  5
FE
 10
57.03125
 20
13.43575
 30
0.0
  0
SEQEND
  8
5
  6
DASHED
 62
     2
  5
FF
  0
LINE
  8
5
  6
DASHED
 62
     2
  5
100
 10
54.591
 20
15.767
 30
0.0
 11
53.382
 21
15.767
 31
0.0
  0
LINE
  8
5
  6
DASHED
 62
     2
  5
101
 10
57.01875
 20
13.43575
 30
0.0
 11
55.3455
 21
13.43575
 31
0.0
  0
LINE
  8
1
  6
CONTINUOUS
 62
   233
  5
102
 10
54.845333
 20
15.663417
 30
0.0
 11
54.616083
 21
15.428833
 31
0.0
  0
LINE
  8
1
  6
CONTINUOUS
 62
   233
  5
103
 10
56.864
 20
13.232667
 30
0.0
 11
54.616083
 21
15.428833
 31
0.0
  0
LINE
  8
1
  6
CONTINUOUS
 62
   233
  5
104
 10
57.1155
 20
13.445417
 30
0.0
 11
56.864
 21
13.232667
 31
0.0
  0
LINE
  8
5
  6
DASHED
 62
     2
  5
105
 10
53.382
 20
13.339083
 30
0.0
 11
56.98975
 21
13.339083
 31
0.0
  0
LINE
  8
1
  6
CONTINUOUS
 62
   233
  5
106
 10
54.600667
 20
15.902417
 30
0.0
 11
53.382
 21
15.902417
 31
0.0
  0
LINE
  8
1
  6
CONTINUOUS
 62
   233
  5
107
 10
57.1155
 20
13.445417
 30
0.0
 11
54.600667
 21
15.902417
 31
0.0
  0
LINE
  8
1
  6
CONTINUOUS
 62
   233
  5
108
 10
53.382
 20
13.232667
 30
0.0
 11
56.864
 21
13.232667
 31
0.0
  0
POLYLINE
  8
1
  6
CONTINUOUS
 62
   233
  5
109
 66
     1
 10
0.0
 20
0.0
 30
0.0
  0
VERTEX
  8
1
  6
CONTINUOUS
 62
   233
  5
10A
 10
54.313535
 20
16.521495
 30
0.0
 42
-0.104003
  0
VERTEX
  8
1
  6
CONTINUOUS
 62
   233
  5
10B
 10
54.341822
 20
16.475072
 30
0.0
 42
-0.122158
  0
VERTEX
  8
1
  6
CONTINUOUS
 62
   233
  5
10C
 10
54.3463
 20
16.428915
 30
0.0
 42
-0.144079
  0
VERTEX
  8
1
  6
CONTINUOUS
 62
   233
  5
10D
 10
54.328302
 20
16.389728
 30
0.0
 42
0.162427
  0
VERTEX
  8
1
  6
CONTINUOUS
 62
   233
  5
10E
 10
54.313475
 20
16.354262
 30
0.0
 42
0.21028
  0
VERTEX
  8
1
  6
CONTINUOUS
 62
   233
  5
10F
 10
54.32993
 20
16.307946
 30
0.0
 42
-0.21028
  0
VERTEX
  8
1
  6
CONTINUOUS
 62
   233
  5
110
 10
54.346312
 20
16.261702
 30
0.0
 42
-0.172167
  0
VERTEX
  8
1
  6
CONTINUOUS
 62
   233
  5
111
 10
54.329938
 20
16.224298
 30
0.0
 42
0.172167
  0
VERTEX
  8
1
  6
CONTINUOUS
 62
   233
  5
112
 10
54.313475
 20
16.187012
 30
0.0
 42
0.21028
  0
VERTEX
  8
1
  6
CONTINUOUS
 62
   233
  5
113
 10
54.32993
 20
16.140696
 30
0.0
 42
-0.21028
  0
VERTEX
  8
1
  6
CONTINUOUS
 62
   233
  5
114
 10
54.346312
 20
16.094452
 30
0.0
 42
-0.172167
  0
VERTEX
  8
1
  6
CONTINUOUS
 62
   233
  5
115
 10
54.329938
 20
16.057048
 30
0.0
 42
0.172167
  0
VERTEX
  8
1
  6
CONTINUOUS
 62
   233
  5
116
 10
54.313487
 20
16.01972
 30
0.0
 42
0.21028
  0
VERTEX
  8
1
  6
CONTINUOUS
 62
   233
  5
117
 10
54.329941
 20
15.973488
 30
0.0
 42
-0.21028
  0
VERTEX
  8
1
  6
CONTINUOUS
 62
   233
  5
118
 10
54.346312
 20
15.927202
 30
0.0
 42
-0.172167
  0
VERTEX
  8
1
  6
CONTINUOUS
 62
   233
  5
119
 10
54.329938
 20
15.889798
 30
0.0
 42
0.172167
  0
VERTEX
  8
1
  6
CONTINUOUS
 62
   233
  5
11A
 10
54.313462
 20
15.852483
 30
0.0
 42
0.208195
  0
VERTEX
  8
1
  6
CONTINUOUS
 62
   233
  5
11B
 10
54.329582
 20
15.806582
 30
0.0
 42
-0.204067
  0
VERTEX
  8
1
  6
CONTINUOUS
 62
   233
  5
11C
 10
54.346322
 20
15.759908
 30
0.0
 42
-0.183074
  0
VERTEX
  8
1
  6
CONTINUOUS
 62
   233
  5
11D
 10
54.329485
 20
15.722157
 30
0.0
 42
0.188646
  0
VERTEX
  8
1
  6
CONTINUOUS
 62
   233
  5
11E
 10
54.313499
 20
15.685253
 30
0.0
 42
0.215729
  0
VERTEX
  8
1
  6
CONTINUOUS
 62
   233
  5
11F
 10
54.328163
 20
15.649518
 30
0.0
 42
-0.182665
  0
VERTEX
  8
1
  6
CONTINUOUS
 62
   233
  5
120
 10
54.347873
 20
15.608993
 30
0.0
 42
-0.150821
  0
VERTEX
  8
1
  6
CONTINUOUS
 62
   233
  5
121
 10
54.336989
 20
15.557586
 30
0.0
 42
-0.132751
  0
VERTEX
  8
1
  6
CONTINUOUS
 62
   233
  5
122
 10
54.295572
 20
15.515003
 30
0.0
  0
SEQEND
  8
1
  6
CONTINUOUS
 62
   233
  5
123
  0
LINE
  8
5
  6
DASHED
 62
     2
  5
124
 10
55.678833
 20
14.528917
 30
0.0
 11
56.924167
 21
13.283583
 31
0.0
  0
LINE
  8
5
  6
DASHED
 62
     2
  5
125
 10
54.591
 20
15.767
 30
0.0
 11
56.991667
 21
13.340667
 31
0.0
  0
POLYLINE
  8
5
  6
DASHED
 62
     2
  5
126
 66
     1
 10
0.0
 20
0.0
 30
0.0
  0
VERTEX
  8
5
  6
DASHED
 62
     2
  5
127
 10
56.9515
 20
13.346583
 30
0.0
 42
1.0
  0
VERTEX
  8
5
  6
DASHED
 62
     2
  5
128
 10
56.9765
 20
13.346583
 30
0.0
 42
1.0
  0
VERTEX
  8
5
  6
DASHED
 62
     2
  5
129
 10
56.9515
 20
13.346583
 30
0.0
  0
SEQEND
  8
5
  6
DASHED
 62
     2
  5
12A
  0
LINE
  8
1
  6
CONTINUOUS
 62
   233
  5
12B
 10
61.28675
 20
22.517083
 30
0.0
 11
61.766417
 21
22.517083
 31
0.0
  0
LINE
  8
1
  6
CONTINUOUS
 62
   233
  5
12C
 10
61.766417
 20
22.517083
 30
0.0
 11
64.07425
 21
21.34725
 31
0.0
  0
LINE
  8
1
  6
CONTINUOUS
 62
   233
  5
12D
 10
64.07425
 20
19.01925
 30
0.0
 11
63.755167
 21
19.01925
 31
0.0
  0
LINE
  8
1
  6
CONTINUOUS
 62
   233
  5
12E
 10
63.755167
 20
19.01925
 30
0.0
 11
63.755167
 21
19.908333
 31
0.0
  0
LINE
  8
1
  6
CONTINUOUS
 62
   233
  5
12F
 10
63.755167
 20
19.908333
 30
0.0
 11
61.28675
 21
19.908333
 31
0.0
  0
LINE
  8
1
  6
CONTINUOUS
 62
   233
  5
130
 10
61.28675
 20
19.908333
 30
0.0
 11
61.28675
 21
20.219917
 31
0.0
  0
CIRCLE
  8
3
  6
CONTINUOUS
 62
     2
  5
132
 10
61.52075
 20
22.1895
 30
0.0
 40
0.444694
210
0.0
220
0.0
230
1.0
  0
CIRCLE
  8
3
  6
CONTINUOUS
 62
     2
  5
133
 10
61.55
 20
20.12475
 30
0.0
 40
0.439042
210
0.0
220
0.0
230
1.0
  0
LINE
  8
2
  6
HIDDEN
 62
   140
  5
134
 10
67.731
 20
19.229833
 30
0.0
 11
67.731
 21
21.14025
 31
0.0
  0
LINE
  8
1
  6
CONTINUOUS
 62
   233
  5
135
 10
67.731
 20
22.105917
 30
0.0
 11
68.646833
 21
22.105917
 31
0.0
  0
LINE
  8
1
  6
CONTINUOUS
 62
   233
  5
136
 10
68.646833
 20
22.105917
 30
0.0
 11
68.646833
 21
19.066417
 31
0.0
  0
LINE
  8
1
  6
CONTINUOUS
 62
   233
  5
137
 10
68.646833
 20
22.105917
 30
0.0
 11
70.043333
 21
21.531167
 31
0.0
  0
LINE
  8
1
  6
CONTINUOUS
 62
   233
  5
138
 10
68.395833
 20
19.060583
 30
0.0
 11
68.395833
 21
21.114167
 31
0.0
  0
LINE
  8
1
  6
CONTINUOUS
 62
   233
  5
139
 10
68.395833
 20
21.114167
 30
0.0
 11
68.646833
 21
21.355417
 31
0.0
  0
LINE
  8
1
  6
CONTINUOUS
 62
   233
  5
13A
 10
67.731
 20
21.72175
 30
0.0
 11
67.193083
 21
21.941833
 31
0.0
  0
LINE
  8
1
  6
CONTINUOUS
 62
   233
  5
13B
 10
68.395833
 20
21.114167
 30
0.0
 11
68.25
 21
21.166333
 31
0.0
  0
POLYLINE
  8
1
  6
CONTINUOUS
 62
   233
  5
13C
 66
     1
 10
0.0
 20
0.0
 30
0.0
  0
VERTEX
  8
1
  6
CONTINUOUS
 62
   233
  5
13D
 10
66.793794
 20
21.16616
 30
0.0
 42
-0.138793
  0
VERTEX
  8
1
  6
CONTINUOUS
 62
   233
  5
13E
 10
66.868965
 20
21.137061
 30
0.0
 42
0.162494
  0
VERTEX
  8
1
  6
CONTINUOUS
 62
   233
  5
13F
 10
66.937762
 20
21.114172
 30
0.0
 42
0.173422
  0
VERTEX
  8
1
  6
CONTINUOUS
 62
   233
  5
140
 10
67.010697
 20
21.140212
 30
0.0
 42
-0.173422
  0
VERTEX
  8
1
  6
CONTINUOUS
 62
   233
  5
141
 10
67.083512
 20
21.166328
 30
0.0
 42
-0.173422
  0
VERTEX
  8
1
  6
CONTINUOUS
 62
   233
  5
142
 10
67.156405
 20
21.140255
 30
0.0
 42
0.173422
  0
VERTEX
  8
1
  6
CONTINUOUS
 62
   233
  5
143
 10
67.229345
 20
21.114172
 30
0.0
 42
0.173422
  0
VERTEX
  8
1
  6
CONTINUOUS
 62
   233
  5
144
 10
67.302238
 20
21.140245
 30
0.0
 42
-0.173422
  0
VERTEX
  8
1
  6
CONTINUOUS
 62
   233
  5
145
 10
67.375178
 20
21.166328
 30
0.0
 42
-0.173422
  0
VERTEX
  8
1
  6
CONTINUOUS
 62
   233
  5
146
 10
67.448072
 20
21.140255
 30
0.0
 42
0.173422
  0
VERTEX
  8
1
  6
CONTINUOUS
 62
   233
  5
147
 10
67.521012
 20
21.114172
 30
0.0
 42
0.173422
  0
VERTEX
  8
1
  6
CONTINUOUS
 62
   233
  5
148
 10
67.593947
 20
21.140212
 30
0.0
 42
-0.173422
  0
VERTEX
  8
1
  6
CONTINUOUS
 62
   233
  5
149
 10
67.666762
 20
21.166328
 30
0.0
 42
-0.173422
  0
VERTEX
  8
1
  6
CONTINUOUS
 62
   233
  5
14A
 10
67.739655
 20
21.140255
 30
0.0
 42
0.173422
  0
VERTEX
  8
1
  6
CONTINUOUS
 62
   233
  5
14B
 10
67.812595
 20
21.114172
 30
0.0
 42
0.173422
  0
VERTEX
  8
1
  6
CONTINUOUS
 62
   233
  5
14C
 10
67.885488
 20
21.140245
 30
0.0
 42
-0.173422
  0
VERTEX
  8
1
  6
CONTINUOUS
 62
   233
  5
14D
 10
67.95841
 20
21.166314
 30
0.0
 42
-0.162494
  0
VERTEX
  8
1
  6
CONTINUOUS
 62
   233
  5
14E
 10
68.027165
 20
21.143331
 30
0.0
 42
0.142056
  0
VERTEX
  8
1
  6
CONTINUOUS
 62
   233
  5
14F
 10
68.104232
 20
21.114135
 30
0.0
 42
0.106229
  0
VERTEX
  8
1
  6
CONTINUOUS
 62
   233
  5
150
 10
68.174319
 20
21.123382
 30
0.0
 42
0.086068
  0
VERTEX
  8
1
  6
CONTINUOUS
 62
   233
  5
151
 10
68.249986
 20
21.166299
 30
0.0
  0
SEQEND
  8
1
  6
CONTINUOUS
 62
   233
  5
152
  0
LINE
  8
1
  6
CONTINUOUS
 62
   233
  5
153
 10
67.731
 20
21.14025
 30
0.0
 11
67.731
 21
22.105917
 31
0.0
  0
LINE
  8
1
  6
CONTINUOUS
 62
   233
  5
154
 10
67.625917
 20
16.111667
 30
0.0
 11
67.625917
 21
15.120333
 31
0.0
  0
LINE
  8
1
  6
CONTINUOUS
 62
   233
  5
155
 10
67.625917
 20
14.980333
 30
0.0
 11
67.439667
 21
14.980333
 31
0.0
  0
LINE
  8
1
  6
CONTINUOUS
 62
   233
  5
156
 10
67.339667
 20
15.080333
 30
0.0
 11
67.339667
 21
15.096083
 31
0.0
  0
LINE
  8
1
  6
CONTINUOUS
 62
   233
  5
157
 10
67.299667
 20
15.136083
 30
0.0
 11
66.880583
 21
15.136083
 31
0.0
  0
LINE
  8
1
  6
CONTINUOUS
 62
   233
  5
158
 10
66.880583
 20
15.136083
 30
0.0
 11
66.880583
 21
15.276083
 31
0.0
  0
LINE
  8
1
  6
CONTINUOUS
 62
   233
  5
159
 10
68.673667
 20
15.276083
 30
0.0
 11
66.880583
 21
15.276083
 31
0.0
  0
LINE
  8
1
  6
CONTINUOUS
 62
   233
  5
15A
 10
67.479667
 20
15.160333
 30
0.0
 11
67.479667
 21
15.276083
 31
0.0
  0
LINE
  8
1
  6
CONTINUOUS
 62
   233
  5
15B
 10
67.625917
 20
15.120333
 30
0.0
 11
67.519667
 21
15.120333
 31
0.0
  0
ARC
  8
1
  6
CONTINUOUS
 62
   233
  5
15C
 10
67.439667
 20
15.080333
 30
0.0
 40
0.1
 50
180.0
 51
270.0
210
0.0
220
0.0
230
1.0
  0
ARC
  8
1
  6
CONTINUOUS
 62
   233
  5
15D
 10
67.299667
 20
15.096083
 30
0.0
 40
0.04
 50
0.0
 51
90.0
210
0.0
220
0.0
230
1.0
  0
ARC
  8
1
  6
CONTINUOUS
 62
   233
  5
15E
 10
67.519667
 20
15.160333
 30
0.0
 40
0.04
 50
180.0
 51
270.0
210
0.0
220
0.0
230
1.0
  0
LINE
  8
1
  6
CONTINUOUS
 62
   233
  5
15F
 10
66.880583
 20
15.276083
 30
0.0
 11
66.880583
 21
15.589167
 31
0.0
  0
LINE
  8
1
  6
CONTINUOUS
 62
   233
  5
160
 10
67.625917
 20
15.120333
 30
0.0
 11
67.625917
 21
14.980333
 31
0.0
  0
INSERT
  8
1
  6
CONTINUOUS
 62
     7
  5
170
  2
$X0
 10
45.94025
 20
3.849167
 30
0.0
 41
2.0
 42
2.0
210
0.0
220
0.0
230
1.0
  0
LINE
  8
2
  6
HIDDEN
 62
   140
  5
171
 10
67.14825
 20
16.028583
 30
0.0
 11
67.14825
 21
15.276083
 31
0.0
  0
LINE
  8
1
  6
CONTINUOUS
 62
   233
  5
172
 10
67.151083
 20
15.136083
 30
0.0
 11
67.151083
 21
14.66875
 31
0.0
  0
LINE
  8
1
  6
CONTINUOUS
 62
   233
  5
173
 10
67.151083
 20
14.66875
 30
0.0
 11
68.08575
 21
14.66875
 31
0.0
  0
LINE
  8
1
  6
CONTINUOUS
 62
   233
  5
174
 10
68.08575
 20
14.66875
 30
0.0
 11
68.225083
 21
14.816333
 31
0.0
  0
LINE
  8
1
  6
CONTINUOUS
 62
   233
  5
175
 10
68.225083
 20
14.816333
 30
0.0
 11
68.702667
 21
14.816333
 31
0.0
  0
LINE
  8
1
  6
CONTINUOUS
 62
   233
  5
176
 10
66.880583
 20
15.589167
 30
0.0
 11
66.809417
 21
15.65475
 31
0.0
  0
LINE
  8
1
  6
CONTINUOUS
 62
   233
  5
177
 10
66.809417
 20
15.65475
 30
0.0
 11
66.940583
 21
15.763083
 31
0.0
  0
LINE
  8
1
  6
CONTINUOUS
 62
   233
  5
178
 10
66.940583
 20
15.763083
 30
0.0
 11
66.880583
 21
15.805833
 31
0.0
  0
LINE
  8
1
  6
CONTINUOUS
 62
   233
  5
179
 10
66.880583
 20
15.805833
 30
0.0
 11
66.880583
 21
15.874
 31
0.0
  0
LINE
  8
1
  6
CONTINUOUS
 62
   233
  5
17A
 10
61.449667
 20
14.855833
 30
0.0
 11
61.449667
 21
13.855833
 31
0.0
  0
LINE
  8
1
  6
CONTINUOUS
 62
   233
  5
17B
 10
61.449667
 20
13.855833
 30
0.0
 11
62.449667
 21
13.855833
 31
0.0
  0
LINE
  8
1
  6
CONTINUOUS
 62
   233
  5
17C
 10
61.00875
 20
15.704083
 30
0.0
 11
61.639583
 21
16.318
 31
0.0
  0
LINE
  8
1
  6
CONTINUOUS
 62
   233
  5
17D
 10
61.639583
 20
16.318
 30
0.0
 11
62.7715
 21
16.318
 31
0.0
  0
LINE
  8
1
  6
CONTINUOUS
 62
   233
  5
17E
 10
63.40225
 20
15.704083
 30
0.0
 11
62.7715
 21
16.318
 31
0.0
  0
LINE
  8
1
  6
CONTINUOUS
 62
   233
  5
17F
 10
61.31625
 20
15.970417
 30
0.0
 11
61.5095
 21
15.970417
 31
0.0
  0
LINE
  8
1
  6
CONTINUOUS
 62
   233
  5
180
 10
61.5095
 20
15.970417
 30
0.0
 11
61.5095
 21
16.157833
 31
0.0
  0
LINE
  8
1
  6
CONTINUOUS
 62
   233
  5
181
 10
61.28675
 20
22.33625
 30
0.0
 11
60.31725
 21
22.833167
 31
0.0
  0
LINE
  8
1
  6
CONTINUOUS
 62
   233
  5
182
 10
64.07425
 20
20.215583
 30
0.0
 11
61.6485
 21
20.215583
 31
0.0
  0
LINE
  8
1
  6
CONTINUOUS
 62
   233
  5
183
 10
61.6485
 20
20.215583
 30
0.0
 11
61.6485
 21
22.07325
 31
0.0
  0
LINE
  8
1
  6
CONTINUOUS
 62
   233
  5
184
 10
61.766417
 20
22.517083
 30
0.0
 11
61.766417
 21
20.215583
 31
0.0
  0
LINE
  8
5
  6
DASHED
 62
     2
  5
185
 10
63.94725
 20
19.062083
 30
0.0
 11
63.94725
 21
20.118
 31
0.0
  0
LINE
  8
5
  6
DASHED
 62
     2
  5
186
 10
63.94725
 20
20.118
 30
0.0
 11
62.163333
 21
20.118
 31
0.0
  0
LINE
  8
5
  6
DASHED
 62
     2
  5
187
 10
61.471
 20
20.055833
 30
0.0
 11
63.80525
 21
20.055833
 31
0.0
  0
POLYLINE
  8
5
  6
DASHED
 62
     2
  5
188
 66
     1
 10
0.0
 20
0.0
 30
0.0
  0
VERTEX
  8
5
  6
DASHED
 62
     2
  5
189
 10
61.4585
 20
20.055833
 30
0.0
 42
1.0
  0
VERTEX
  8
5
  6
DASHED
 62
     2
  5
18A
 10
61.4835
 20
20.055833
 30
0.0
 42
1.0
  0
VERTEX
  8
5
  6
DASHED
 62
     2
  5
18B
 10
61.4585
 20
20.055833
 30
0.0
  0
SEQEND
  8
5
  6
DASHED
 62
     2
  5
18C
  0
POLYLINE
  8
5
  6
DASHED
 62
     2
  5
18D
 66
     1
 10
0.0
 20
0.0
 30
0.0
  0
VERTEX
  8
5
  6
DASHED
 62
     2
  5
18E
 10
62.311
 20
20.099833
 30
0.0
 42
1.0
  0
VERTEX
  8
5
  6
DASHED
 62
     2
  5
18F
 10
62.336
 20
20.099833
 30
0.0
 42
1.0
  0
VERTEX
  8
5
  6
DASHED
 62
     2
  5
190
 10
62.311
 20
20.099833
 30
0.0
  0
SEQEND
  8
5
  6
DASHED
 62
     2
  5
191
  0
POLYLINE
  8
5
  6
DASHED
 62
     2
  5
192
 66
     1
 10
0.0
 20
0.0
 30
0.0
  0
VERTEX
  8
5
  6
DASHED
 62
     2
  5
193
 10
63.0665
 20
20.10925
 30
0.0
 42
1.0
  0
VERTEX
  8
5
  6
DASHED
 62
     2
  5
194
 10
63.0915
 20
20.10925
 30
0.0
 42
1.0
  0
VERTEX
  8
5
  6
DASHED
 62
     2
  5
195
 10
63.0665
 20
20.10925
 30
0.0
  0
SEQEND
  8
5
  6
DASHED
 62
     2
  5
196
  0
POLYLINE
  8
5
  6
DASHED
 62
     2
  5
197
 66
     1
 10
0.0
 20
0.0
 30
0.0
  0
VERTEX
  8
5
  6
DASHED
 62
     2
  5
198
 10
63.812583
 20
20.099833
 30
0.0
 42
1.0
  0
VERTEX
  8
5
  6
DASHED
 62
     2
  5
199
 10
63.837583
 20
20.099833
 30
0.0
 42
1.0
  0
VERTEX
  8
5
  6
DASHED
 62
     2
  5
19A
 10
63.812583
 20
20.099833
 30
0.0
  0
SEQEND
  8
5
  6
DASHED
 62
     2
  5
19B
  0
LINE
  8
5
  6
DASHED
 62
     2
  5
19C
 10
62.3235
 20
20.099833
 30
0.0
 11
62.3235
 21
21.475583
 31
0.0
  0
LINE
  8
5
  6
DASHED
 62
     2
  5
19D
 10
63.079
 20
20.10925
 30
0.0
 11
63.079
 21
21.449
 31
0.0
  0
LINE
  8
5
  6
DASHED
 62
     2
  5
19E
 10
63.825083
 20
20.099833
 30
0.0
 11
63.45025
 21
21.351333
 31
0.0
  0
POLYLINE
  8
5
  6
DASHED
 62
     2
  5
19F
 66
     1
 10
0.0
 20
0.0
 30
0.0
  0
VERTEX
  8
5
  6
DASHED
 62
     2
  5
1A0
 10
61.698583
 20
20.099833
 30
0.0
 42
1.0
  0
VERTEX
  8
5
  6
DASHED
 62
     2
  5
1A1
 10
61.723583
 20
20.099833
 30
0.0
 42
1.0
  0
VERTEX
  8
5
  6
DASHED
 62
     2
  5
1A2
 10
61.698583
 20
20.099833
 30
0.0
  0
SEQEND
  8
5
  6
DASHED
 62
     2
  5
1A3
  0
LINE
  8
5
  6
DASHED
 62
     2
  5
1A4
 10
61.711083
 20
20.099833
 30
0.0
 11
61.711083
 21
21.475583
 31
0.0
  0
LINE
  8
5
  6
DASHED
 62
     2
  5
1A5
 10
63.87625
 20
21.173917
 30
0.0
 11
61.479917
 21
22.3895
 31
0.0
  0
POLYLINE
  8
5
  6
DASHED
 62
     2
  5
1A6
 66
     1
 10
0.0
 20
0.0
 30
0.0
  0
VERTEX
  8
5
  6
DASHED
 62
     2
  5
1A7
 10
61.467417
 20
22.3895
 30
0.0
 42
1.0
  0
VERTEX
  8
5
  6
DASHED
 62
     2
  5
1A8
 10
61.492417
 20
22.3895
 30
0.0
 42
1.0
  0
VERTEX
  8
5
  6
DASHED
 62
     2
  5
1A9
 10
61.467417
 20
22.3895
 30
0.0
  0
SEQEND
  8
5
  6
DASHED
 62
     2
  5
1AA
  0
LINE
  8
2
  6
HIDDEN
 62
   140
  5
1AB
 10
61.52425
 20
22.517083
 30
0.0
 11
63.805583
 21
21.34725
 31
0.0
  0
LINE
  8
2
  6
HIDDEN
 62
   140
  5
1AC
 10
64.07425
 20
21.34725
 30
0.0
 11
63.805583
 21
21.34725
 31
0.0
  0
LINE
  8
1
  6
CONTINUOUS
 62
   233
  5
1AD
 10
60.72625
 20
22.141333
 30
0.0
 11
60.72625
 21
21.273583
 31
0.0
  0
POLYLINE
  8
1
  6
CONTINUOUS
 62
   233
  5
1AE
 66
     1
 10
0.0
 20
0.0
 30
0.0
  0
VERTEX
  8
1
  6
CONTINUOUS
 62
   233
  5
1AF
 10
60.726243
 20
22.072773
 30
0.0
 42
0.116478
  0
VERTEX
  8
1
  6
CONTINUOUS
 62
   233
  5
1B0
 10
60.778658
 20
22.038927
 30
0.0
 42
0.133095
  0
VERTEX
  8
1
  6
CONTINUOUS
 62
   233
  5
1B1
 10
60.833302
 20
22.034669
 30
0.0
 42
0.14701
  0
VERTEX
  8
1
  6
CONTINUOUS
 62
   233
  5
1B2
 10
60.872959
 20
22.05535
 30
0.0
 42
-0.163767
  0
VERTEX
  8
1
  6
CONTINUOUS
 62
   233
  5
1B3
 10
60.909492
 20
22.072727
 30
0.0
 42
-0.23616
  0
VERTEX
  8
1
  6
CONTINUOUS
 62
   233
  5
1B4
 10
60.962967
 20
22.053732
 30
0.0
 42
0.23616
  0
VERTEX
  8
1
  6
CONTINUOUS
 62
   233
  5
1B5
 10
61.016607
 20
22.034694
 30
0.0
 42
0.172611
  0
VERTEX
  8
1
  6
CONTINUOUS
 62
   233
  5
1B6
 10
61.054676
 20
22.053764
 30
0.0
 42
-0.172611
  0
VERTEX
  8
1
  6
CONTINUOUS
 62
   233
  5
1B7
 10
61.092742
 20
22.072727
 30
0.0
 42
-0.23616
  0
VERTEX
  8
1
  6
CONTINUOUS
 62
   233
  5
1B8
 10
61.146258
 20
22.053732
 30
0.0
 42
0.23616
  0
VERTEX
  8
1
  6
CONTINUOUS
 62
   233
  5
1B9
 10
61.199774
 20
22.034694
 30
0.0
 42
0.172611
  0
VERTEX
  8
1
  6
CONTINUOUS
 62
   233
  5
1BA
 10
61.237843
 20
22.053764
 30
0.0
 42
-0.172611
  0
VERTEX
  8
1
  6
CONTINUOUS
 62
   233
  5
1BB
 10
61.27595
 20
22.072727
 30
0.0
 42
-0.23616
  0
VERTEX
  8
1
  6
CONTINUOUS
 62
   233
  5
1BC
 10
61.329508
 20
22.053732
 30
0.0
 42
0.23616
  0
VERTEX
  8
1
  6
CONTINUOUS
 62
   233
  5
1BD
 10
61.383024
 20
22.034694
 30
0.0
 42
0.172611
  0
VERTEX
  8
1
  6
CONTINUOUS
 62
   233
  5
1BE
 10
61.421093
 20
22.053764
 30
0.0
 42
-0.172611
  0
VERTEX
  8
1
  6
CONTINUOUS
 62
   233
  5
1BF
 10
61.4592
 20
22.072727
 30
0.0
 42
-0.23616
  0
VERTEX
  8
1
  6
CONTINUOUS
 62
   233
  5
1C0
 10
61.512758
 20
22.053732
 30
0.0
 42
0.23616
  0
VERTEX
  8
1
  6
CONTINUOUS
 62
   233
  5
1C1
 10
61.566274
 20
22.034694
 30
0.0
 42
0.172611
  0
VERTEX
  8
1
  6
CONTINUOUS
 62
   233
  5
1C2
 10
61.604343
 20
22.053764
 30
0.0
 42
-0.172611
  0
VERTEX
  8
1
  6
CONTINUOUS
 62
   233
  5
1C3
 10
61.642385
 20
22.072761
 30
0.0
 42
-0.226714
  0
VERTEX
  8
1
  6
CONTINUOUS
 62
   233
  5
1C4
 10
61.69427
 20
22.055338
 30
0.0
 42
0.208617
  0
VERTEX
  8
1
  6
CONTINUOUS
 62
   233
  5
1C5
 10
61.749505
 20
22.034631
 30
0.0
 42
0.044239
  0
VERTEX
  8
1
  6
CONTINUOUS
 62
   233
  5
1C6
 10
61.766422
 20
22.037047
 30
0.0
  0
SEQEND
  8
1
  6
CONTINUOUS
 62
   233
  5
1C7
  0
LINE
  8
1
  6
CONTINUOUS
 62
   233
  5
1C8
 10
61.28675
 20
22.073167
 30
0.0
 11
61.28675
 21
22.517083
 31
0.0
  0
POLYLINE
  8
1
  6
CONTINUOUS
 62
   233
  5
1C9
 66
     1
 10
0.0
 20
0.0
 30
0.0
  0
VERTEX
  8
1
  6
CONTINUOUS
 62
   233
  5
1CA
 10
60.72621
 20
20.216084
 30
0.0
 42
0.110499
  0
VERTEX
  8
1
  6
CONTINUOUS
 62
   233
  5
1CB
 10
60.755167
 20
20.23381
 30
0.0
 42
-0.163767
  0
VERTEX
  8
1
  6
CONTINUOUS
 62
   233
  5
1CC
 10
60.791617
 20
20.251227
 30
0.0
 42
-0.23616
  0
VERTEX
  8
1
  6
CONTINUOUS
 62
   233
  5
1CD
 10
60.845175
 20
20.232232
 30
0.0
 42
0.23616
  0
VERTEX
  8
1
  6
CONTINUOUS
 62
   233
  5
1CE
 10
60.898691
 20
20.213194
 30
0.0
 42
0.172611
  0
VERTEX
  8
1
  6
CONTINUOUS
 62
   233
  5
1CF
 10
60.93676
 20
20.232264
 30
0.0
 42
-0.172611
  0
VERTEX
  8
1
  6
CONTINUOUS
 62
   233
  5
1D0
 10
60.974867
 20
20.251227
 30
0.0
 42
-0.23616
  0
VERTEX
  8
1
  6
CONTINUOUS
 62
   233
  5
1D1
 10
61.028425
 20
20.232232
 30
0.0
 42
0.23616
  0
VERTEX
  8
1
  6
CONTINUOUS
 62
   233
  5
1D2
 10
61.081941
 20
20.213194
 30
0.0
 42
0.172611
  0
VERTEX
  8
1
  6
CONTINUOUS
 62
   233
  5
1D3
 10
61.12001
 20
20.232264
 30
0.0
 42
-0.172611
  0
VERTEX
  8
1
  6
CONTINUOUS
 62
   233
  5
1D4
 10
61.158075
 20
20.251227
 30
0.0
 42
-0.23616
  0
VERTEX
  8
1
  6
CONTINUOUS
 62
   233
  5
1D5
 10
61.21155
 20
20.232232
 30
0.0
 42
0.23616
  0
VERTEX
  8
1
  6
CONTINUOUS
 62
   233
  5
1D6
 10
61.265191
 20
20.213194
 30
0.0
 42
0.172611
  0
VERTEX
  8
1
  6
CONTINUOUS
 62
   233
  5
1D7
 10
61.30326
 20
20.232264
 30
0.0
 42
-0.172611
  0
VERTEX
  8
1
  6
CONTINUOUS
 62
   233
  5
1D8
 10
61.341325
 20
20.251227
 30
0.0
 42
-0.23616
  0
VERTEX
  8
1
  6
CONTINUOUS
 62
   233
  5
1D9
 10
61.3948
 20
20.232232
 30
0.0
 42
0.23616
  0
VERTEX
  8
1
  6
CONTINUOUS
 62
   233
  5
1DA
 10
61.448441
 20
20.213194
 30
0.0
 42
0.172611
  0
VERTEX
  8
1
  6
CONTINUOUS
 62
   233
  5
1DB
 10
61.48651
 20
20.232264
 30
0.0
 42
-0.172611
  0
VERTEX
  8
1
  6
CONTINUOUS
 62
   233
  5
1DC
 10
61.524548
 20
20.251219
 30
0.0
 42
-0.226714
  0
VERTEX
  8
1
  6
CONTINUOUS
 62
   233
  5
1DD
 10
61.576424
 20
20.23388
 30
0.0
 42
0.208617
  0
VERTEX
  8
1
  6
CONTINUOUS
 62
   233
  5
1DE
 10
61.63163
 20
20.213184
 30
0.0
 42
0.044239
  0
VERTEX
  8
1
  6
CONTINUOUS
 62
   233
  5
1DF
 10
61.648463
 20
20.215601
 30
0.0
  0
SEQEND
  8
1
  6
CONTINUOUS
 62
   233
  5
1E0
  0
LINE
  8
2
  6
HIDDEN
 62
   140
  5
1E1
 10
61.28675
 20
20.219917
 30
0.0
 11
61.28675
 21
22.073167
 31
0.0
  0
LINE
  8
1
  6
CONTINUOUS
 62
   233
  5
1E2
 10
60.72625
 20
21.017917
 30
0.0
 11
60.667667
 21
21.092583
 31
0.0
  0
LINE
  8
1
  6
CONTINUOUS
 62
   233
  5
1E3
 10
60.667667
 20
21.092583
 30
0.0
 11
60.798083
 21
21.207333
 31
0.0
  0
LINE
  8
1
  6
CONTINUOUS
 62
   233
  5
1E4
 10
60.798083
 20
21.207333
 30
0.0
 11
60.72625
 21
21.273583
 31
0.0
  0
LINE
  8
1
  6
CONTINUOUS
 62
   233
  5
1E5
 10
60.72625
 20
21.017917
 30
0.0
 11
60.72625
 21
20.197417
 31
0.0
  0
LINE
  8
2
  6
HIDDEN
 62
   140
  5
1E6
 10
63.805583
 20
21.34725
 30
0.0
 11
63.805583
 21
20.215583
 31
0.0
  0
LINE
  8
1
  6
CONTINUOUS
 62
   233
  5
1E7
 10
64.07425
 20
21.34725
 30
0.0
 11
64.07425
 21
19.01925
 31
0.0
  0
LINE
  8
2
  6
HIDDEN
 62
   140
  5
1E8
 10
53.4985
 20
9.54525
 30
0.0
 11
52.128583
 21
7.250167
 31
0.0
  0
LINE
  8
2
  6
HIDDEN
 62
   140
  5
1E9
 10
53.948167
 20
9.232083
 30
0.0
 11
52.598
 21
6.970083
 31
0.0
  0
ARC
  8
2
  6
HIDDEN
 62
   140
  5
1EA
 10
53.535583
 20
9.316
 30
0.0
 40
0.232297
 50
19.051336
 51
99.196006
210
0.0
220
0.0
230
1.0
  0
ARC
  8
2
  6
HIDDEN
 62
   140
  5
1EB
 10
53.9755
 20
9.461583
 30
0.0
 40
0.231063
 50
197.576089
 51
263.210944
210
0.0
220
0.0
230
1.0
  0
ARC
  8
2
  6
HIDDEN
 62
   140
  5
1EC
 10
53.732167
 20
9.181417
 30
0.0
 40
0.221851
 50
13.202417
 51
85.077783
210
0.0
220
0.0
230
1.0
  0
LINE
  8
1
  6
CONTINUOUS
 62
   233
  5
1ED
 10
51.28575
 20
7.038667
 30
0.0
 11
52.128583
 21
7.250167
 31
0.0
  0
LINE
  8
1
  6
CONTINUOUS
 62
   233
  5
1EE
 10
52.128583
 20
7.250167
 30
0.0
 11
52.598
 21
6.970083
 31
0.0
  0
LINE
  8
1
  6
CONTINUOUS
 62
   233
  5
1EF
 10
52.598
 20
6.970083
 30
0.0
 11
52.827
 21
6.133083
 31
0.0
  0
LINE
  8
1
  6
CONTINUOUS
 62
   233
  5
1F0
 10
52.827
 20
6.133083
 30
0.0
 11
52.772
 21
6.02575
 31
0.0
  0
LINE
  8
1
  6
CONTINUOUS
 62
   233
  5
1F1
 10
51.28575
 20
7.038667
 30
0.0
 11
51.230667
 21
6.931333
 31
0.0
  0
LINE
  8
1
  6
CONTINUOUS
 62
   233
  5
1F2
 10
51.230667
 20
6.931333
 30
0.0
 11
52.772
 21
6.02575
 31
0.0
  0
LINE
  8
1
  6
CONTINUOUS
 62
   233
  5
1F3
 10
51.291333
 20
6.931333
 30
0.0
 11
52.09925
 21
7.134167
 31
0.0
  0
LINE
  8
1
  6
CONTINUOUS
 62
   233
  5
1F4
 10
51.271417
 20
7.01075
 30
0.0
 11
51.291333
 21
6.931333
 31
0.0
  0
LINE
  8
1
  6
CONTINUOUS
 62
   233
  5
1F5
 10
52.09925
 20
7.134167
 30
0.0
 11
52.494917
 21
6.898
 31
0.0
  0
LINE
  8
1
  6
CONTINUOUS
 62
   233
  5
1F6
 10
52.494917
 20
6.898
 30
0.0
 11
52.719667
 21
6.089
 31
0.0
  0
LINE
  8
1
  6
CONTINUOUS
 62
   233
  5
1F7
 10
52.719667
 20
6.089
 30
0.0
 11
52.815833
 21
6.11125
 31
0.0
  0
ARC
  8
2
  6
HIDDEN
 62
   140
  5
1F8
 10
52.80375
 20
8.494083
 30
0.0
 40
2.468611
 50
269.263514
 51
293.894044
210
0.0
220
0.0
230
1.0
  0
ARC
  8
2
  6
HIDDEN
 62
   140
  5
1F9
 10
60.240917
 20
-7.495833
 30
0.0
 40
15.166855
 50
110.409247
 51
115.1146
210
0.0
220
0.0
230
1.0
  0
ARC
  8
2
  6
HIDDEN
 62
   140
  5
1FA
 10
56.011583
 20
4.377333
 30
0.0
 40
2.570188
 50
88.287722
 51
114.349669
210
0.0
220
0.0
230
1.0
  0
LINE
  8
2
  6
HIDDEN
 62
   140
  5
1FB
 10
56.088333
 20
6.946333
 30
0.0
 11
56.95025
 21
6.946333
 31
0.0
  0
LINE
  8
2
  6
HIDDEN
 62
   140
  5
1FC
 10
51.230667
 20
6.931333
 30
0.0
 11
48.7085
 21
6.931333
 31
0.0
  0
LINE
  8
4
  6
CONTINUOUS
 62
    99
  5
1FE
 10
56.856333
 20
9.558417
 30
0.0
 11
56.856333
 21
9.031167
 31
0.0
  0
INSERT
  8
1
  6
CONTINUOUS
 62
     7
  5
281
  2
$X1
 10
33.293833
 20
4.250917
 30
0.0
 41
2.0
 42
2.0
210
0.0
220
0.0
230
1.0
  0
LINE
  8
4
  6
CONTINUOUS
 62
    99
  5
282
 10
56.856333
 20
8.871667
 30
0.0
 11
56.856333
 21
8.441917
 31
0.0
  0
INSERT
  8
1
  6
CONTINUOUS
 62
     7
  5
2A5
  2
$X2
 10
33.293833
 20
4.250917
 30
0.0
 41
2.0
 42
2.0
210
0.0
220
0.0
230
1.0
  0
LINE
  8
1
  6
CONTINUOUS
 62
   110
  5
2A6
 10
53.293833
 20
7.73325
 30
0.0
 11
53.293833
 21
8.457917
 31
0.0
  0
LINE
  8
4
  6
CONTINUOUS
 62
   110
  5
2A7
 10
53.165667
 20
7.72825
 30
0.0
 11
53.254167
 21
8.459417
 31
0.0
  0
LINE
  8
4
  6
CONTINUOUS
 62
   110
  5
2A8
 10
53.234083
 20
7.73
 30
0.0
 11
53.276333
 21
8.454833
 31
0.0
  0
INSERT
  8
1
  6
CONTINUOUS
 62
     7
  5
2C8
  2
$X4
 10
33.293833
 20
4.250917
 30
0.0
 41
2.0
 42
2.0
210
0.0
220
0.0
230
1.0
  0
LINE
  8
1
  6
CONTINUOUS
 62
   110
  5
2C9
 10
52.01375
 20
8.15075
 30
0.0
 11
52.135333
 21
8.722917
 31
0.0
  0
LINE
  8
1
  6
CONTINUOUS
 62
   110
  5
2CA
 10
51.955583
 20
8.177833
 30
0.0
 11
52.074417
 21
8.736917
 31
0.0
  0
LINE
  8
1
  6
CONTINUOUS
 62
   110
  5
2CB
 10
51.897333
 20
8.204583
 30
0.0
 11
52.014833
 21
8.757167
 31
0.0
  0
LINE
  8
1
  6
CONTINUOUS
 62
   110
  5
2CC
 10
51.838917
 20
8.230167
 30
0.0
 11
51.956417
 21
8.782833
 31
0.0
  0
LINE
  8
1
  6
CONTINUOUS
 62
   110
  5
2CD
 10
51.779917
 20
8.253417
 30
0.0
 11
51.896417
 21
8.80125
 31
0.0
  0
LINE
  8
1
  6
CONTINUOUS
 62
   110
  5
2CE
 10
51.719667
 20
8.27025
 30
0.0
 11
51.833167
 21
8.804417
 31
0.0
  0
LINE
  8
1
  6
CONTINUOUS
 62
   110
  5
2CF
 10
51.657917
 20
8.280583
 30
0.0
 11
51.767833
 21
8.797583
 31
0.0
  0
LINE
  8
1
  6
CONTINUOUS
 62
   110
  5
2D0
 10
51.596167
 20
8.290583
 30
0.0
 11
51.705417
 21
8.804667
 31
0.0
  0
LINE
  8
1
  6
CONTINUOUS
 62
   110
  5
2D1
 10
51.5345
 20
8.301167
 30
0.0
 11
51.646083
 21
8.825917
 31
0.0
  0
LINE
  8
1
  6
CONTINUOUS
 62
   110
  5
2D2
 10
51.472917
 20
8.311917
 30
0.0
 11
51.589333
 21
8.859833
 31
0.0
  0
LINE
  8
1
  6
CONTINUOUS
 62
   110
  5
2D3
 10
51.411333
 20
8.32275
 30
0.0
 11
51.529583
 21
8.879
 31
0.0
  0
LINE
  8
1
  6
CONTINUOUS
 62
   110
  5
2D4
 10
51.34975
 20
8.333833
 30
0.0
 11
51.46625
 21
8.881917
 31
0.0
  0
LINE
  8
1
  6
CONTINUOUS
 62
   110
  5
2D5
 10
51.288667
 20
8.34675
 30
0.0
 11
51.402083
 21
8.880667
 31
0.0
  0
LINE
  8
1
  6
CONTINUOUS
 62
   110
  5
2D6
 10
51.228333
 20
8.363583
 30
0.0
 11
51.337917
 21
8.879167
 31
0.0
  0
LINE
  8
1
  6
CONTINUOUS
 62
   110
  5
2D7
 10
51.16775
 20
8.379417
 30
0.0
 11
51.274417
 21
8.881167
 31
0.0
  0
LINE
  8
1
  6
CONTINUOUS
 62
   110
  5
2D8
 10
51.106833
 20
8.39325
 30
0.0
 11
51.211333
 21
8.884833
 31
0.0
  0
LINE
  8
1
  6
CONTINUOUS
 62
   110
  5
2D9
 10
51.0455
 20
8.405417
 30
0.0
 11
51.148333
 21
8.889083
 31
0.0
  0
LINE
  8
1
  6
CONTINUOUS
 62
   110
  5
2DA
 10
50.983833
 20
8.415833
 30
0.0
 11
51.08525
 21
8.892833
 31
0.0
  0
LINE
  8
1
  6
CONTINUOUS
 62
   110
  5
2DB
 10
50.921667
 20
8.424083
 30
0.0
 11
51.02175
 21
8.894833
 31
0.0
  0
LINE
  8
1
  6
CONTINUOUS
 62
   110
  5
2DC
 10
52.07175
 20
8.123333
 30
0.0
 11
52.19675
 21
8.71125
 31
0.0
  0
LINE
  8
1
  6
CONTINUOUS
 62
   110
  5
2DD
 10
52.129583
 20
8.094833
 30
0.0
 11
52.25625
 21
8.690583
 31
0.0
  0
LINE
  8
1
  6
CONTINUOUS
 62
   110
  5
2DE
 10
52.187167
 20
8.065
 30
0.0
 11
52.313667
 21
8.66
 31
0.0
  0
LINE
  8
1
  6
CONTINUOUS
 62
   110
  5
2DF
 10
52.244583
 20
8.034583
 30
0.0
 11
52.372333
 21
8.635333
 31
0.0
  0
LINE
  8
1
  6
CONTINUOUS
 62
   110
  5
2E0
 10
52.302417
 20
8.006
 30
0.0
 11
52.431583
 21
8.613667
 31
0.0
  0
LINE
  8
1
  6
CONTINUOUS
 62
   110
  5
2E1
 10
52.360833
 20
7.98
 30
0.0
 11
52.491333
 21
8.59425
 31
0.0
  0
LINE
  8
1
  6
CONTINUOUS
 62
   110
  5
2E2
 10
52.4205
 20
7.960167
 30
0.0
 11
52.548917
 21
8.564333
 31
0.0
  0
LINE
  8
1
  6
CONTINUOUS
 62
   110
  5
2E3
 10
52.48125
 20
7.945417
 30
0.0
 11
52.601
 21
8.509
 31
0.0
  0
LINE
  8
1
  6
CONTINUOUS
 62
   110
  5
2E4
 10
52.541333
 20
7.927583
 30
0.0
 11
52.661083
 21
8.490833
 31
0.0
  0
LINE
  8
1
  6
CONTINUOUS
 62
   110
  5
2E5
 10
52.600667
 20
7.905917
 30
0.0
 11
52.7215
 21
8.474333
 31
0.0
  0
LINE
  8
1
  6
CONTINUOUS
 62
   110
  5
2E6
 10
52.65925
 20
7.881
 30
0.0
 11
52.788667
 21
8.489917
 31
0.0
  0
LINE
  8
1
  6
CONTINUOUS
 62
   110
  5
2E7
 10
52.71725
 20
7.85325
 30
0.0
 11
52.851
 21
8.482417
 31
0.0
  0
LINE
  8
1
  6
CONTINUOUS
 62
   110
  5
2E8
 10
52.775417
 20
7.826417
 30
0.0
 11
52.913417
 21
8.4755
 31
0.0
  0
LINE
  8
1
  6
CONTINUOUS
 62
   110
  5
2E9
 10
52.834083
 20
7.801833
 30
0.0
 11
52.977083
 21
8.474333
 31
0.0
  0
LINE
  8
1
  6
CONTINUOUS
 62
   110
  5
2EA
 10
52.89325
 20
7.7795
 30
0.0
 11
53.037833
 21
8.459833
 31
0.0
  0
LINE
  8
1
  6
CONTINUOUS
 62
   110
  5
2EB
 10
52.952917
 20
7.759583
 30
0.0
 11
53.102583
 21
8.4635
 31
0.0
  0
LINE
  8
1
  6
CONTINUOUS
 62
   110
  5
2EC
 10
53.013333
 20
7.743333
 30
0.0
 11
53.166667
 21
8.464583
 31
0.0
  0
LINE
  8
1
  6
CONTINUOUS
 62
   110
  5
2ED
 10
53.074917
 20
7.73225
 30
0.0
 11
53.229667
 21
8.460583
 31
0.0
  0
INSERT
  8
1
  6
CONTINUOUS
 62
     7
  5
2EE
  2
$X2
 10
33.293833
 20
3.599583
 30
0.0
 41
2.0
 42
2.0
210
0.0
220
0.0
230
1.0
  0
LINE
  8
1
  6
CONTINUOUS
 62
   110
  5
2EF
 10
51.106833
 20
7.741917
 30
0.0
 11
51.209833
 21
8.22675
 31
0.0
  0
LINE
  8
1
  6
CONTINUOUS
 62
    99
  5
2F0
 10
53.074917
 20
7.080917
 30
0.0
 11
53.184083
 21
7.5945
 31
0.0
  0
LINE
  8
1
  6
CONTINUOUS
 62
    99
  5
2F1
 10
53.013333
 20
7.092
 30
0.0
 11
53.122167
 21
7.603917
 31
0.0
  0
LINE
  8
1
  6
CONTINUOUS
 62
   110
  5
2F2
 10
52.952917
 20
7.108333
 30
0.0
 11
53.06025
 21
7.613333
 31
0.0
  0
LINE
  8
1
  6
CONTINUOUS
 62
   110
  5
2F3
 10
52.89325
 20
7.12825
 30
0.0
 11
52.996583
 21
7.614417
 31
0.0
  0
LINE
  8
1
  6
CONTINUOUS
 62
   110
  5
2F4
 10
52.834083
 20
7.1505
 30
0.0
 11
52.938667
 21
7.6425
 31
0.0
  0
LINE
  8
1
  6
CONTINUOUS
 62
   110
  5
2F5
 10
52.775417
 20
7.175167
 30
0.0
 11
52.878
 21
7.657583
 31
0.0
  0
LINE
  8
1
  6
CONTINUOUS
 62
   110
  5
2F6
 10
52.71725
 20
7.201917
 30
0.0
 11
52.815333
 21
7.663333
 31
0.0
  0
LINE
  8
1
  6
CONTINUOUS
 62
   110
  5
2F7
 10
52.65925
 20
7.229667
 30
0.0
 11
52.760167
 21
7.704417
 31
0.0
  0
LINE
  8
1
  6
CONTINUOUS
 62
   110
  5
2F8
 10
52.600667
 20
7.254583
 30
0.0
 11
52.696667
 21
7.7065
 31
0.0
  0
LINE
  8
1
  6
CONTINUOUS
 62
   110
  5
2F9
 10
52.541333
 20
7.276333
 30
0.0
 11
52.636583
 21
7.72425
 31
0.0
  0
LINE
  8
1
  6
CONTINUOUS
 62
   110
  5
2FA
 10
52.48125
 20
7.294083
 30
0.0
 11
52.575667
 21
7.738333
 31
0.0
  0
LINE
  8
1
  6
CONTINUOUS
 62
   110
  5
2FB
 10
52.4205
 20
7.308917
 30
0.0
 11
52.521333
 21
7.783417
 31
0.0
  0
LINE
  8
1
  6
CONTINUOUS
 62
   110
  5
2FC
 10
52.360833
 20
7.328667
 30
0.0
 11
52.464833
 21
7.818083
 31
0.0
  0
LINE
  8
1
  6
CONTINUOUS
 62
   110
  5
2FD
 10
52.302417
 20
7.35475
 30
0.0
 11
52.40175
 21
7.821917
 31
0.0
  0
LINE
  8
1
  6
CONTINUOUS
 62
   110
  5
2FE
 10
52.244583
 20
7.38325
 30
0.0
 11
52.34625
 21
7.86125
 31
0.0
  0
LINE
  8
1
  6
CONTINUOUS
 62
   110
  5
2FF
 10
52.187167
 20
7.413667
 30
0.0
 11
52.2875
 21
7.885667
 31
0.0
  0
LINE
  8
1
  6
CONTINUOUS
 62
   110
  5
300
 10
52.129583
 20
7.4435
 30
0.0
 11
52.227833
 21
7.905417
 31
0.0
  0
LINE
  8
1
  6
CONTINUOUS
 62
   110
  5
301
 10
52.07175
 20
7.472
 30
0.0
 11
52.169083
 21
7.929833
 31
0.0
  0
LINE
  8
1
  6
CONTINUOUS
 62
   110
  5
302
 10
50.921667
 20
7.77275
 30
0.0
 11
51.016083
 21
8.216833
 31
0.0
  0
LINE
  8
1
  6
CONTINUOUS
 62
   110
  5
303
 10
50.983833
 20
7.764583
 30
0.0
 11
51.0795
 21
8.214667
 31
0.0
  0
LINE
  8
1
  6
CONTINUOUS
 62
   110
  5
304
 10
51.0455
 20
7.754083
 30
0.0
 11
51.146
 21
8.226833
 31
0.0
  0
LINE
  8
1
  6
CONTINUOUS
 62
   110
  5
305
 10
51.16775
 20
7.728083
 30
0.0
 11
51.270333
 21
8.210667
 31
0.0
  0
LINE
  8
1
  6
CONTINUOUS
 62
   110
  5
306
 10
51.228333
 20
7.71225
 30
0.0
 11
51.333
 21
8.204917
 31
0.0
  0
LINE
  8
1
  6
CONTINUOUS
 62
   110
  5
307
 10
51.288667
 20
7.6955
 30
0.0
 11
51.391167
 21
8.177833
 31
0.0
  0
LINE
  8
1
  6
CONTINUOUS
 62
   110
  5
308
 10
51.34975
 20
7.6825
 30
0.0
 11
51.45325
 21
8.169417
 31
0.0
  0
LINE
  8
1
  6
CONTINUOUS
 62
   110
  5
309
 10
51.411333
 20
7.6715
 30
0.0
 11
51.5155
 21
8.161667
 31
0.0
  0
LINE
  8
1
  6
CONTINUOUS
 62
   110
  5
30A
 10
51.472917
 20
7.660667
 30
0.0
 11
51.575417
 21
8.142917
 31
0.0
  0
LINE
  8
1
  6
CONTINUOUS
 62
   110
  5
30B
 10
51.5345
 20
7.649917
 30
0.0
 11
51.6365
 21
8.129833
 31
0.0
  0
LINE
  8
1
  6
CONTINUOUS
 62
   110
  5
30C
 10
51.596167
 20
7.639333
 30
0.0
 11
51.696
 21
8.109083
 31
0.0
  0
LINE
  8
1
  6
CONTINUOUS
 62
   110
  5
30D
 10
51.657917
 20
7.62925
 30
0.0
 11
51.758167
 21
8.100667
 31
0.0
  0
LINE
  8
1
  6
CONTINUOUS
 62
   110
  5
30E
 10
51.719667
 20
7.618917
 30
0.0
 11
51.820833
 21
8.094833
 31
0.0
  0
LINE
  8
1
  6
CONTINUOUS
 62
   110
  5
30F
 10
51.779917
 20
7.602083
 30
0.0
 11
51.880667
 21
8.076083
 31
0.0
  0
LINE
  8
1
  6
CONTINUOUS
 62
   110
  5
310
 10
51.838917
 20
7.578833
 30
0.0
 11
51.93825
 21
8.046083
 31
0.0
  0
LINE
  8
1
  6
CONTINUOUS
 62
   110
  5
311
 10
51.897333
 20
7.55325
 30
0.0
 11
51.994917
 21
8.012333
 31
0.0
  0
LINE
  8
1
  6
CONTINUOUS
 62
   110
  5
312
 10
51.955583
 20
7.5265
 30
0.0
 11
52.053833
 21
7.988917
 31
0.0
  0
LINE
  8
1
  6
CONTINUOUS
 62
   110
  5
313
 10
52.01375
 20
7.499417
 30
0.0
 11
52.112583
 21
7.9645
 31
0.0
  0
LINE
  8
4
  6
CONTINUOUS
 62
    99
  5
314
 10
53.234083
 20
7.078667
 30
0.0
 11
53.2635
 21
7.583167
 31
0.0
  0
LINE
  8
4
  6
CONTINUOUS
 62
    99
  5
315
 10
53.165667
 20
7.076917
 30
0.0
 11
53.227667
 21
7.589083
 31
0.0
  0
LINE
  8
1
  6
CONTINUOUS
 62
    99
  5
316
 10
54.355167
 20
7.400417
 30
0.0
 11
54.315333
 21
7.855833
 31
0.0
  0
LINE
  8
1
  6
CONTINUOUS
 62
    99
  5
317
 10
54.294417
 20
7.378083
 30
0.0
 11
54.253833
 21
7.841833
 31
0.0
  0
LINE
  8
1
  6
CONTINUOUS
 62
    99
  5
318
 10
54.233917
 20
7.352417
 30
0.0
 11
54.19325
 21
7.817667
 31
0.0
  0
LINE
  8
1
  6
CONTINUOUS
 62
    99
  5
319
 10
54.173667
 20
7.323583
 30
0.0
 11
54.13175
 21
7.80325
 31
0.0
  0
LINE
  8
1
  6
CONTINUOUS
 62
    99
  5
31A
 10
54.113167
 20
7.298
 30
0.0
 11
54.071667
 21
7.773
 31
0.0
  0
LINE
  8
1
  6
CONTINUOUS
 62
    99
  5
31B
 10
54.05225
 20
7.27725
 30
0.0
 11
54.008833
 21
7.7735
 31
0.0
  0
LINE
  8
1
  6
CONTINUOUS
 62
    99
  5
31C
 10
53.990917
 20
7.261667
 30
0.0
 11
53.947833
 21
7.753833
 31
0.0
  0
LINE
  8
1
  6
CONTINUOUS
 62
    99
  5
31D
 10
53.9295
 20
7.246417
 30
0.0
 11
53.88675
 21
7.734917
 31
0.0
  0
LINE
  8
1
  6
CONTINUOUS
 62
    99
  5
31E
 10
53.86825
 20
7.229167
 30
0.0
 11
53.826667
 21
7.705167
 31
0.0
  0
LINE
  8
1
  6
CONTINUOUS
 62
    99
  5
31F
 10
53.80725
 20
7.209333
 30
0.0
 11
53.766
 21
7.680583
 31
0.0
  0
LINE
  8
1
  6
CONTINUOUS
 62
    99
  5
320
 10
53.7465
 20
7.186417
 30
0.0
 11
53.704167
 21
7.670583
 31
0.0
  0
LINE
  8
1
  6
CONTINUOUS
 62
    99
  5
321
 10
53.686083
 20
7.160333
 30
0.0
 11
53.643583
 21
7.6465
 31
0.0
  0
LINE
  8
1
  6
CONTINUOUS
 62
    99
  5
322
 10
54.416167
 20
7.4205
 30
0.0
 11
54.374583
 21
7.896083
 31
0.0
  0
LINE
  8
1
  6
CONTINUOUS
 62
    99
  5
323
 10
54.47725
 20
7.43925
 30
0.0
 11
54.435583
 21
7.9155
 31
0.0
  0
LINE
  8
1
  6
CONTINUOUS
 62
    99
  5
324
 10
54.538083
 20
7.461417
 30
0.0
 11
54.497167
 21
7.929417
 31
0.0
  0
LINE
  8
1
  6
CONTINUOUS
 62
    99
  5
325
 10
54.598417
 20
7.488333
 30
0.0
 11
54.558
 21
7.95125
 31
0.0
  0
LINE
  8
1
  6
CONTINUOUS
 62
    99
  5
326
 10
54.65925
 20
7.5105
 30
0.0
 11
54.617917
 21
7.983417
 31
0.0
  0
LINE
  8
1
  6
CONTINUOUS
 62
    99
  5
327
 10
54.72025
 20
7.5305
 30
0.0
 11
54.680417
 21
7.98625
 31
0.0
  0
LINE
  8
1
  6
CONTINUOUS
 62
    99
  5
328
 10
54.78125
 20
7.550833
 30
0.0
 11
54.742
 21
7.999167
 31
0.0
  0
LINE
  8
1
  6
CONTINUOUS
 62
    99
  5
329
 10
54.842083
 20
7.571667
 30
0.0
 11
54.803333
 21
8.01525
 31
0.0
  0
LINE
  8
1
  6
CONTINUOUS
 62
    99
  5
32A
 10
54.903
 20
7.593417
 30
0.0
 11
54.865083
 21
8.026417
 31
0.0
  0
LINE
  8
1
  6
CONTINUOUS
 62
    99
  5
32B
 10
54.96375
 20
7.615833
 30
0.0
 11
54.927083
 21
8.034833
 31
0.0
  0
LINE
  8
1
  6
CONTINUOUS
 62
    99
  5
32C
 10
55.024667
 20
7.636833
 30
0.0
 11
54.989167
 21
8.042417
 31
0.0
  0
LINE
  8
1
  6
CONTINUOUS
 62
    99
  5
32D
 10
55.085917
 20
7.653833
 30
0.0
 11
55.051583
 21
8.045667
 31
0.0
  0
LINE
  8
4
  6
CONTINUOUS
 62
   110
  5
32E
 10
50.88225
 20
7.774917
 30
0.0
 11
50.93175
 21
8.223833
 31
0.0
  0
LINE
  8
4
  6
CONTINUOUS
 62
   110
  5
32F
 10
50.888417
 20
8.428167
 30
0.0
 11
50.934833
 21
8.892667
 31
0.0
  0
LINE
  8
4
  6
CONTINUOUS
 62
    99
  5
330
 10
50.871167
 20
6.931333
 30
0.0
 11
50.938
 21
7.53725
 31
0.0
  0
LINE
  8
1
  6
CONTINUOUS
 62
    99
  5
331
 10
52.050583
 20
7.230583
 30
0.0
 11
52.053833
 21
7.245917
 31
0.0
  0
LINE
  8
1
  6
CONTINUOUS
 62
    99
  5
332
 10
51.983083
 20
7.213667
 30
0.0
 11
51.994917
 21
7.269333
 31
0.0
  0
LINE
  8
1
  6
CONTINUOUS
 62
    99
  5
333
 10
51.915583
 20
7.19675
 30
0.0
 11
51.93825
 21
7.303
 31
0.0
  0
LINE
  8
1
  6
CONTINUOUS
 62
    99
  5
334
 10
51.848083
 20
7.179833
 30
0.0
 11
51.880667
 21
7.333083
 31
0.0
  0
LINE
  8
1
  6
CONTINUOUS
 62
    99
  5
335
 10
51.780667
 20
7.162833
 30
0.0
 11
51.820833
 21
7.351833
 31
0.0
  0
LINE
  8
1
  6
CONTINUOUS
 62
    99
  5
336
 10
51.713167
 20
7.145917
 30
0.0
 11
51.758167
 21
7.357667
 31
0.0
  0
LINE
  8
1
  6
CONTINUOUS
 62
    99
  5
337
 10
51.645667
 20
7.129
 30
0.0
 11
51.696
 21
7.366083
 31
0.0
  0
LINE
  8
1
  6
CONTINUOUS
 62
    99
  5
338
 10
51.578167
 20
7.112
 30
0.0
 11
51.6365
 21
7.38675
 31
0.0
  0
LINE
  8
1
  6
CONTINUOUS
 62
    99
  5
339
 10
51.510667
 20
7.095083
 30
0.0
 11
51.575417
 21
7.399917
 31
0.0
  0
LINE
  8
1
  6
CONTINUOUS
 62
    99
  5
33A
 10
51.443167
 20
7.078167
 30
0.0
 11
51.5155
 21
7.418667
 31
0.0
  0
LINE
  8
1
  6
CONTINUOUS
 62
    99
  5
33B
 10
51.375667
 20
7.06125
 30
0.0
 11
51.45325
 21
7.426417
 31
0.0
  0
LINE
  8
1
  6
CONTINUOUS
 62
    99
  5
33C
 10
51.308167
 20
7.04425
 30
0.0
 11
51.391167
 21
7.434833
 31
0.0
  0
LINE
  8
1
  6
CONTINUOUS
 62
    99
  5
33D
 10
51.22025
 20
6.931333
 30
0.0
 11
51.333
 21
7.461917
 31
0.0
  0
LINE
  8
1
  6
CONTINUOUS
 62
    99
  5
33E
 10
51.156333
 20
6.931333
 30
0.0
 11
51.270333
 21
7.467667
 31
0.0
  0
LINE
  8
1
  6
CONTINUOUS
 62
    99
  5
33F
 10
51.028583
 20
6.931333
 30
0.0
 11
51.151417
 21
7.509333
 31
0.0
  0
LINE
  8
1
  6
CONTINUOUS
 62
    99
  5
340
 10
50.964667
 20
6.931333
 30
0.0
 11
51.089333
 21
7.517833
 31
0.0
  0
LINE
  8
1
  6
CONTINUOUS
 62
    99
  5
341
 10
50.90075
 20
6.931333
 30
0.0
 11
51.027083
 21
7.525833
 31
0.0
  0
LINE
  8
1
  6
CONTINUOUS
 62
    99
  5
342
 10
51.092417
 20
6.931333
 30
0.0
 11
51.209833
 21
7.48375
 31
0.0
  0
LINE
  8
1
  6
CONTINUOUS
 62
    99
  5
343
 10
54.551667
 20
6.563417
 30
0.0
 11
54.497167
 21
7.186417
 31
0.0
  0
LINE
  8
1
  6
CONTINUOUS
 62
    99
  5
344
 10
54.491083
 20
6.53875
 30
0.0
 11
54.435583
 21
7.172417
 31
0.0
  0
LINE
  8
1
  6
CONTINUOUS
 62
    99
  5
345
 10
54.4305
 20
6.513833
 30
0.0
 11
54.374583
 21
7.153083
 31
0.0
  0
LINE
  8
1
  6
CONTINUOUS
 62
    99
  5
346
 10
53.705417
 20
6.196083
 30
0.0
 11
53.643583
 21
6.903417
 31
0.0
  0
LINE
  8
1
  6
CONTINUOUS
 62
    99
  5
347
 10
53.766
 20
6.22075
 30
0.0
 11
53.704167
 21
6.927583
 31
0.0
  0
LINE
  8
1
  6
CONTINUOUS
 62
    99
  5
348
 10
53.826417
 20
6.24775
 30
0.0
 11
53.766
 21
6.937583
 31
0.0
  0
LINE
  8
1
  6
CONTINUOUS
 62
    99
  5
349
 10
53.886667
 20
6.275667
 30
0.0
 11
53.826667
 21
6.962083
 31
0.0
  0
LINE
  8
1
  6
CONTINUOUS
 62
    99
  5
34A
 10
53.947
 20
6.303417
 30
0.0
 11
53.88675
 21
6.991917
 31
0.0
  0
LINE
  8
1
  6
CONTINUOUS
 62
    99
  5
34B
 10
54.007333
 20
6.33075
 30
0.0
 11
53.947833
 21
7.01075
 31
0.0
  0
LINE
  8
1
  6
CONTINUOUS
 62
    99
  5
34C
 10
54.06775
 20
6.357833
 30
0.0
 11
54.008833
 21
7.0305
 31
0.0
  0
LINE
  8
1
  6
CONTINUOUS
 62
    99
  5
34D
 10
54.128083
 20
6.384583
 30
0.0
 11
54.071667
 21
7.03
 31
0.0
  0
LINE
  8
1
  6
CONTINUOUS
 62
    99
  5
34E
 10
54.1885
 20
6.411
 30
0.0
 11
54.13175
 21
7.06025
 31
0.0
  0
LINE
  8
1
  6
CONTINUOUS
 62
    99
  5
34F
 10
54.249
 20
6.437167
 30
0.0
 11
54.19325
 21
7.074667
 31
0.0
  0
LINE
  8
1
  6
CONTINUOUS
 62
    99
  5
350
 10
54.3095
 20
6.463
 30
0.0
 11
54.253833
 21
7.09875
 31
0.0
  0
LINE
  8
1
  6
CONTINUOUS
 62
    99
  5
351
 10
54.37
 20
6.488583
 30
0.0
 11
54.315333
 21
7.112833
 31
0.0
  0
LINE
  8
1
  6
CONTINUOUS
 62
    99
  5
352
 10
53.356333
 20
6.088167
 30
0.0
 11
53.356333
 21
6.845333
 31
0.0
  0
LINE
  8
1
  6
CONTINUOUS
 62
    99
  5
353
 10
53.293833
 20
6.074667
 30
0.0
 11
53.293833
 21
6.845333
 31
0.0
  0
LINE
  8
1
  6
CONTINUOUS
 62
    99
  5
354
 10
53.418833
 20
6.103333
 30
0.0
 11
53.418833
 21
6.855083
 31
0.0
  0
LINE
  8
1
  6
CONTINUOUS
 62
    99
  5
355
 10
53.481333
 20
6.120333
 30
0.0
 11
53.481333
 21
6.86975
 31
0.0
  0
LINE
  8
1
  6
CONTINUOUS
 62
    99
  5
356
 10
53.543833
 20
6.139083
 30
0.0
 11
53.543833
 21
6.86975
 31
0.0
  0
LINE
  8
1
  6
CONTINUOUS
 62
    99
  5
357
 10
53.606333
 20
6.159583
 30
0.0
 11
53.606333
 21
6.889167
 31
0.0
  0
LINE
  8
4
  6
CONTINUOUS
 62
    99
  5
358
 10
53.130917
 20
6.04725
 30
0.0
 11
53.227667
 21
6.846083
 31
0.0
  0
LINE
  8
4
  6
CONTINUOUS
 62
    99
  5
359
 10
53.218083
 20
6.0605
 30
0.0
 11
53.2635
 21
6.840167
 31
0.0
  0
LINE
  8
1
  6
CONTINUOUS
 62
    99
  5
35A
 10
52.9455
 20
6.029583
 30
0.0
 11
53.122167
 21
6.860917
 31
0.0
  0
LINE
  8
1
  6
CONTINUOUS
 62
    99
  5
35B
 10
53.010333
 20
6.034167
 30
0.0
 11
53.184083
 21
6.851417
 31
0.0
  0
LINE
  8
1
  6
CONTINUOUS
 62
    99
  5
35C
 10
55.03675
 20
6.755417
 30
0.0
 11
54.982917
 21
7.371083
 31
0.0
  0
LINE
  8
1
  6
CONTINUOUS
 62
    99
  5
35D
 10
54.97625
 20
6.72975
 30
0.0
 11
54.922083
 21
7.34875
 31
0.0
  0
LINE
  8
1
  6
CONTINUOUS
 62
    99
  5
35E
 10
54.915667
 20
6.705333
 30
0.0
 11
54.86125
 21
7.327583
 31
0.0
  0
LINE
  8
1
  6
CONTINUOUS
 62
    99
  5
35F
 10
54.854917
 20
6.682417
 30
0.0
 11
54.800167
 21
7.308583
 31
0.0
  0
LINE
  8
1
  6
CONTINUOUS
 62
    99
  5
360
 10
54.79425
 20
6.659167
 30
0.0
 11
54.739083
 21
7.289583
 31
0.0
  0
LINE
  8
1
  6
CONTINUOUS
 62
    99
  5
361
 10
54.7335
 20
6.635667
 30
0.0
 11
54.678
 21
7.2705
 31
0.0
  0
LINE
  8
1
  6
CONTINUOUS
 62
    99
  5
362
 10
54.672833
 20
6.611917
 30
0.0
 11
54.617917
 21
7.240417
 31
0.0
  0
LINE
  8
1
  6
CONTINUOUS
 62
    99
  5
363
 10
54.61225
 20
6.587833
 30
0.0
 11
54.558
 21
7.208167
 31
0.0
  0
LINE
  8
1
  6
CONTINUOUS
 62
    99
  5
364
 10
52.618333
 20
6.895583
 30
0.0
 11
52.636583
 21
6.98125
 31
0.0
  0
LINE
  8
1
  6
CONTINUOUS
 62
    99
  5
365
 10
52.654333
 20
6.764167
 30
0.0
 11
52.696667
 21
6.9635
 31
0.0
  0
LINE
  8
1
  6
CONTINUOUS
 62
    99
  5
366
 10
52.69025
 20
6.63275
 30
0.0
 11
52.760167
 21
6.961417
 31
0.0
  0
LINE
  8
1
  6
CONTINUOUS
 62
    99
  5
367
 10
52.72625
 20
6.501333
 30
0.0
 11
52.815333
 21
6.920333
 31
0.0
  0
LINE
  8
1
  6
CONTINUOUS
 62
    99
  5
368
 10
52.76225
 20
6.369917
 30
0.0
 11
52.878
 21
6.914583
 31
0.0
  0
LINE
  8
1
  6
CONTINUOUS
 62
    99
  5
369
 10
52.798167
 20
6.2385
 30
0.0
 11
52.938667
 21
6.8995
 31
0.0
  0
LINE
  8
1
  6
CONTINUOUS
 62
    99
  5
36A
 10
52.816833
 20
6.025583
 30
0.0
 11
52.996583
 21
6.871417
 31
0.0
  0
LINE
  8
1
  6
CONTINUOUS
 62
    99
  5
36B
 10
52.880917
 20
6.02675
 30
0.0
 11
53.06025
 21
6.870333
 31
0.0
  0
LINE
  8
1
  6
CONTINUOUS
 62
    99
  5
36C
 10
55.918833
 20
7.18975
 30
0.0
 11
55.918833
 21
7.549917
 31
0.0
  0
LINE
  8
1
  6
CONTINUOUS
 62
    99
  5
36D
 10
55.856333
 20
7.18975
 30
0.0
 11
55.856333
 21
7.5445
 31
0.0
  0
LINE
  8
1
  6
CONTINUOUS
 62
    99
  5
36E
 10
55.793833
 20
7.18975
 30
0.0
 11
55.793833
 21
7.539
 31
0.0
  0
LINE
  8
1
  6
CONTINUOUS
 62
    99
  5
36F
 10
55.731333
 20
7.18975
 30
0.0
 11
55.731333
 21
7.533583
 31
0.0
  0
LINE
  8
1
  6
CONTINUOUS
 62
    99
  5
370
 10
55.668833
 20
6.9245
 30
0.0
 11
55.668833
 21
7.53025
 31
0.0
  0
LINE
  8
1
  6
CONTINUOUS
 62
    99
  5
371
 10
55.606333
 20
6.915333
 30
0.0
 11
55.606333
 21
7.526917
 31
0.0
  0
LINE
  8
1
  6
CONTINUOUS
 62
    99
  5
372
 10
55.543833
 20
6.904583
 30
0.0
 11
55.543833
 21
7.523667
 31
0.0
  0
LINE
  8
1
  6
CONTINUOUS
 62
    99
  5
373
 10
55.481333
 20
6.892167
 30
0.0
 11
55.481333
 21
7.520333
 31
0.0
  0
LINE
  8
1
  6
CONTINUOUS
 62
    99
  5
374
 10
55.418833
 20
6.878167
 30
0.0
 11
55.418833
 21
7.49975
 31
0.0
  0
LINE
  8
1
  6
CONTINUOUS
 62
    99
  5
375
 10
55.356333
 20
6.862583
 30
0.0
 11
55.356333
 21
7.47375
 31
0.0
  0
LINE
  8
1
  6
CONTINUOUS
 62
    99
  5
376
 10
55.293833
 20
6.84525
 30
0.0
 11
55.293833
 21
7.447667
 31
0.0
  0
LINE
  8
1
  6
CONTINUOUS
 62
    99
  5
377
 10
55.231333
 20
6.826167
 30
0.0
 11
55.231333
 21
7.42525
 31
0.0
  0
LINE
  8
1
  6
CONTINUOUS
 62
    99
  5
378
 10
55.168833
 20
6.805417
 30
0.0
 11
55.168833
 21
7.415833
 31
0.0
  0
LINE
  8
1
  6
CONTINUOUS
 62
    99
  5
379
 10
55.106333
 20
6.78275
 30
0.0
 11
55.106333
 21
7.4065
 31
0.0
  0
LINE
  8
1
  6
CONTINUOUS
 62
    99
  5
37A
 10
55.981333
 20
7.18975
 30
0.0
 11
55.981333
 21
7.551917
 31
0.0
  0
LINE
  8
1
  6
CONTINUOUS
 62
    99
  5
37B
 10
56.043833
 20
7.18975
 30
0.0
 11
56.043833
 21
7.551917
 31
0.0
  0
LINE
  8
1
  6
CONTINUOUS
 62
    99
  5
37C
 10
56.106333
 20
7.18975
 30
0.0
 11
56.106333
 21
7.551917
 31
0.0
  0
LINE
  8
1
  6
CONTINUOUS
 62
    99
  5
37D
 10
56.168833
 20
7.18975
 30
0.0
 11
56.168833
 21
7.551917
 31
0.0
  0
LINE
  8
1
  6
CONTINUOUS
 62
    99
  5
37E
 10
56.231333
 20
7.18975
 30
0.0
 11
56.231333
 21
7.55525
 31
0.0
  0
LINE
  8
1
  6
CONTINUOUS
 62
    99
  5
37F
 10
56.293833
 20
7.18975
 30
0.0
 11
56.293833
 21
7.561083
 31
0.0
  0
LINE
  8
1
  6
CONTINUOUS
 62
    99
  5
380
 10
56.356333
 20
7.18975
 30
0.0
 11
56.356333
 21
7.566917
 31
0.0
  0
LINE
  8
1
  6
CONTINUOUS
 62
    99
  5
381
 10
56.418833
 20
7.18975
 30
0.0
 11
56.418833
 21
7.57275
 31
0.0
  0
LINE
  8
1
  6
CONTINUOUS
 62
    99
  5
382
 10
56.481333
 20
7.18975
 30
0.0
 11
56.481333
 21
7.578583
 31
0.0
  0
LINE
  8
1
  6
CONTINUOUS
 62
    99
  5
383
 10
56.543833
 20
7.18975
 30
0.0
 11
56.543833
 21
7.58425
 31
0.0
  0
LINE
  8
1
  6
CONTINUOUS
 62
    99
  5
384
 10
56.606333
 20
7.18975
 30
0.0
 11
56.606333
 21
7.585167
 31
0.0
  0
LINE
  8
1
  6
CONTINUOUS
 62
    99
  5
385
 10
56.668833
 20
7.18975
 30
0.0
 11
56.668833
 21
7.586083
 31
0.0
  0
LINE
  8
1
  6
CONTINUOUS
 62
    99
  5
386
 10
56.731333
 20
7.18975
 30
0.0
 11
56.731333
 21
7.587
 31
0.0
  0
LINE
  8
1
  6
CONTINUOUS
 62
    99
  5
387
 10
56.793833
 20
7.18975
 30
0.0
 11
56.793833
 21
7.587917
 31
0.0
  0
LINE
  8
4
  6
CONTINUOUS
 62
    99
  5
388
 10
55.046167
 20
7.385667
 30
0.0
 11
55.079
 21
6.772333
 31
0.0
  0
LINE
  8
1
  6
CONTINUOUS
 62
    99
  5
389
 10
49.856333
 20
7.18975
 30
0.0
 11
49.856333
 21
7.5895
 31
0.0
  0
LINE
  8
1
  6
CONTINUOUS
 62
    99
  5
38A
 10
49.793833
 20
7.18975
 30
0.0
 11
49.793833
 21
7.597833
 31
0.0
  0
LINE
  8
1
  6
CONTINUOUS
 62
    99
  5
38B
 10
49.731333
 20
7.18975
 30
0.0
 11
49.731333
 21
7.606167
 31
0.0
  0
LINE
  8
1
  6
CONTINUOUS
 62
    99
  5
38C
 10
49.668833
 20
7.18975
 30
0.0
 11
49.668833
 21
7.6145
 31
0.0
  0
LINE
  8
1
  6
CONTINUOUS
 62
    99
  5
38D
 10
49.606333
 20
7.18975
 30
0.0
 11
49.606333
 21
7.61025
 31
0.0
  0
LINE
  8
1
  6
CONTINUOUS
 62
    99
  5
38E
 10
49.543833
 20
7.18975
 30
0.0
 11
49.543833
 21
7.601583
 31
0.0
  0
LINE
  8
1
  6
CONTINUOUS
 62
    99
  5
38F
 10
49.481333
 20
7.18975
 30
0.0
 11
49.481333
 21
7.59725
 31
0.0
  0
LINE
  8
1
  6
CONTINUOUS
 62
    99
  5
390
 10
49.418833
 20
7.18975
 30
0.0
 11
49.418833
 21
7.595083
 31
0.0
  0
LINE
  8
1
  6
CONTINUOUS
 62
    99
  5
391
 10
49.356333
 20
7.18975
 30
0.0
 11
49.356333
 21
7.589417
 31
0.0
  0
LINE
  8
1
  6
CONTINUOUS
 62
    99
  5
392
 10
49.293833
 20
7.18975
 30
0.0
 11
49.293833
 21
7.58375
 31
0.0
  0
LINE
  8
1
  6
CONTINUOUS
 62
    99
  5
393
 10
49.231333
 20
7.18975
 30
0.0
 11
49.231333
 21
7.583917
 31
0.0
  0
LINE
  8
1
  6
CONTINUOUS
 62
    99
  5
394
 10
49.168833
 20
7.18975
 30
0.0
 11
49.168833
 21
7.590167
 31
0.0
  0
LINE
  8
1
  6
CONTINUOUS
 62
    99
  5
395
 10
49.106333
 20
7.18975
 30
0.0
 11
49.106333
 21
7.593167
 31
0.0
  0
LINE
  8
1
  6
CONTINUOUS
 62
    99
  5
396
 10
49.043833
 20
7.18975
 30
0.0
 11
49.043833
 21
7.582917
 31
0.0
  0
LINE
  8
1
  6
CONTINUOUS
 62
    99
  5
397
 10
48.981333
 20
7.18975
 30
0.0
 11
48.981333
 21
7.57275
 31
0.0
  0
LINE
  8
1
  6
CONTINUOUS
 62
    99
  5
398
 10
49.918833
 20
7.18975
 30
0.0
 11
49.918833
 21
7.592917
 31
0.0
  0
LINE
  8
1
  6
CONTINUOUS
 62
    99
  5
399
 10
49.981333
 20
7.18975
 30
0.0
 11
49.981333
 21
7.598833
 31
0.0
  0
LINE
  8
1
  6
CONTINUOUS
 62
    99
  5
39A
 10
50.043833
 20
7.18975
 30
0.0
 11
50.043833
 21
7.60225
 31
0.0
  0
LINE
  8
1
  6
CONTINUOUS
 62
    99
  5
39B
 10
50.106333
 20
7.18975
 30
0.0
 11
50.106333
 21
7.605583
 31
0.0
  0
LINE
  8
1
  6
CONTINUOUS
 62
    99
  5
39C
 10
50.168833
 20
7.18975
 30
0.0
 11
50.168833
 21
7.608917
 31
0.0
  0
LINE
  8
1
  6
CONTINUOUS
 62
    99
  5
39D
 10
50.231333
 20
6.931333
 30
0.0
 11
50.231333
 21
7.598
 31
0.0
  0
LINE
  8
1
  6
CONTINUOUS
 62
    99
  5
39E
 10
50.293833
 20
6.931333
 30
0.0
 11
50.293833
 21
7.584083
 31
0.0
  0
LINE
  8
1
  6
CONTINUOUS
 62
    99
  5
39F
 10
50.356333
 20
6.931333
 30
0.0
 11
50.356333
 21
7.587417
 31
0.0
  0
LINE
  8
1
  6
CONTINUOUS
 62
    99
  5
3A0
 10
50.418833
 20
6.931333
 30
0.0
 11
50.418833
 21
7.596167
 31
0.0
  0
LINE
  8
1
  6
CONTINUOUS
 62
    99
  5
3A1
 10
50.481333
 20
6.931333
 30
0.0
 11
50.481333
 21
7.594083
 31
0.0
  0
LINE
  8
1
  6
CONTINUOUS
 62
    99
  5
3A2
 10
50.543833
 20
6.931333
 30
0.0
 11
50.543833
 21
7.587417
 31
0.0
  0
LINE
  8
1
  6
CONTINUOUS
 62
    99
  5
3A3
 10
50.606333
 20
6.931333
 30
0.0
 11
50.606333
 21
7.580833
 31
0.0
  0
LINE
  8
1
  6
CONTINUOUS
 62
    99
  5
3A4
 10
50.668833
 20
6.931333
 30
0.0
 11
50.668833
 21
7.575333
 31
0.0
  0
LINE
  8
1
  6
CONTINUOUS
 62
    99
  5
3A5
 10
50.731333
 20
6.931333
 30
0.0
 11
50.731333
 21
7.5695
 31
0.0
  0
LINE
  8
1
  6
CONTINUOUS
 62
    99
  5
3A6
 10
50.793833
 20
6.931333
 30
0.0
 11
50.793833
 21
7.5585
 31
0.0
  0
LINE
  8
4
  6
CONTINUOUS
 62
    99
  5
3A7
 10
50.856167
 20
7.54775
 30
0.0
 11
50.828417
 21
6.928667
 31
0.0
  0
LINE
  8
4
  6
CONTINUOUS
 62
    99
  5
3A8
 10
56.856333
 20
7.606417
 30
0.0
 11
56.856333
 21
7.18975
 31
0.0
  0
LINE
  8
4
  6
CONTINUOUS
 62
    99
  5
3A9
 10
56.856333
 20
8.23425
 30
0.0
 11
56.856333
 21
7.742167
 31
0.0
  0
LINE
  8
3
  6
CONTINUOUS
 62
     2
  5
3AA
 10
54.265083
 20
21.195417
 30
0.0
 11
52.517
 21
21.195417
 31
0.0
  0
SOLID
  8
3
  6
CONTINUOUS
 62
     2
  5
3AB
 10
54.265083
 20
21.195333
 30
0.0
 11
54.142
 21
21.173667
 31
0.0
 12
54.142
 22
21.217167
 32
0.0
 13
54.142
 23
21.217167
 33
0.0
  0
SOLID
  8
3
  6
CONTINUOUS
 62
     2
  5
3AC
 10
52.517
 20
21.195333
 30
0.0
 11
52.640083
 21
21.173667
 31
0.0
 12
52.640083
 22
21.217167
 32
0.0
 13
52.640083
 23
21.217167
 33
0.0
  0
SOLID
  8
3
  6
CONTINUOUS
 62
     2
  5
3AD
 10
54.405083
 20
21.195333
 30
0.0
 11
54.528167
 21
21.173667
 31
0.0
 12
54.528167
 22
21.217167
 32
0.0
 13
54.528167
 23
21.217167
 33
0.0
  0
LINE
  8
3
  6
CONTINUOUS
 62
     2
  5
3AE
 10
54.405083
 20
21.195417
 30
0.0
 11
54.626417
 21
21.195417
 31
0.0
  0
SOLID
  8
3
  6
CONTINUOUS
 62
     2
  5
3AF
 10
52.377
 20
21.195333
 30
0.0
 11
52.253917
 21
21.173667
 31
0.0
 12
52.253917
 22
21.217167
 32
0.0
 13
52.253917
 23
21.217167
 33
0.0
  0
LINE
  8
3
  6
CONTINUOUS
 62
     2
  5
3B0
 10
52.377
 20
21.195417
 30
0.0
 11
52.155583
 21
21.195417
 31
0.0
  0
TEXT
  8
3
  6
CONTINUOUS
 62
     2
  5
3B2
 10
52.916
 20
21.214917
 30
0.0
 40
0.125
  1
Inside Dia.
  7
MONOTXT
210
0.0
220
0.0
230
1.0
  0
TEXT
  8
3
  6
CONTINUOUS
 62
     2
  5
3B3
 10
53.058833
 20
21.0105
 30
0.0
 40
0.125
  1
of Pipe
  7
MONOTXT
210
0.0
220
0.0
230
1.0
  0
ARC
  8
3
  6
CONTINUOUS
 62
     2
  5
3B4
 10
53.074917
 20
21.084167
 30
0.0
 40
0.64312
 50
96.487633
 51
170.02415
210
0.0
220
0.0
230
1.0
  0
SOLID
  8
3
  6
CONTINUOUS
 62
     2
  5
3B5
 10
52.4415
 20
21.195583
 30
0.0
 11
52.453417
 21
21.319917
 31
0.0
 12
52.495333
 22
21.308417
 32
0.0
 13
52.495333
 23
21.308417
 33
0.0
  0
TEXT
  8
3
  6
CONTINUOUS
 62
     2
  5
3B6
 10
53.11825
 20
21.645
 30
0.0
 40
0.125
  1
Bevel
  7
MONOTXT
210
0.0
220
0.0
230
1.0
  0
SOLID
  8
3
  6
CONTINUOUS
 62
     2
  5
3B7
 10
54.340583
 20
21.195583
 30
0.0
 11
54.328667
 21
21.319917
 31
0.0
 12
54.28675
 22
21.308417
 32
0.0
 13
54.28675
 23
21.308417
 33
0.0
  0
ARC
  8
3
  6
CONTINUOUS
 62
     2
  5
3B8
 10
53.707167
 20
21.084167
 30
0.0
 40
0.64312
 50
9.975847
 51
83.512364
210
0.0
220
0.0
230
1.0
  0
TEXT
  8
3
  6
CONTINUOUS
 62
     2
  5
3B9
 10
53.360083
 20
21.434917
 30
0.0
 40
0.15625
  1
%%d
  7
MONOTXT
210
0.0
220
0.0
230
1.0
  0
TEXT
  8
3
  6
CONTINUOUS
 62
     2
  5
3BA
 10
53.65275
 20
21.435917
 30
0.0
 40
0.15625
  1
%%d
  7
MONOTXT
210
0.0
220
0.0
230
1.0
  0
TEXT
  8
3
  6
CONTINUOUS
 62
     2
  5
3BB
 10
54.353917
 20
23.2915
 30
0.0
 40
0.125
  1
c
  7
MONOTXT
210
0.0
220
0.0
230
1.0
  0
TEXT
  8
3
  6
CONTINUOUS
 62
     2
  5
3BC
 10
54.395667
 20
23.22475
 30
0.0
 40
0.125
  1
L
  7
MONOTXT
210
0.0
220
0.0
230
1.0
  0
TEXT
  8
3
  6
CONTINUOUS
 62
     2
  5
3BD
 10
53.517583
 20
23.46775
 30
0.0
 40
0.125
  1
Symmetrical
  7
MONOTXT
210
0.0
220
0.0
230
1.0
  0
TEXT
  8
3
  6
CONTINUOUS
 62
     2
  5
3BE
 10
53.411583
 20
23.216417
 30
0.0
 40
0.125
  1
  about
  7
MONOTXT
210
0.0
220
0.0
230
1.0
  0
LINE
  8
6
  6
DOT
 62
     2
  5
3BF
 10
53.391
 20
21.871667
 30
0.0
 11
53.391
 21
23.6195
 31
0.0
  0
LINE
  8
3
  6
CONTINUOUS
 62
     2
  5
3C0
 10
55.453583
 20
22.111083
 30
0.0
 11
56.2655
 21
22.466583
 31
0.0
  0
SOLID
  8
3
  6
CONTINUOUS
 62
     2
  5
3C1
 10
55.453583
 20
22.111
 30
0.0
 11
55.557583
 21
22.180417
 31
0.0
 12
55.575083
 22
22.1405
 32
0.0
 13
55.575083
 23
22.1405
 33
0.0
  0
TEXT
  8
3
  6
CONTINUOUS
 62
     2
  5
3C2
 10
56.561083
 20
22.413583
 30
0.0
 40
0.125
  1
#4h Bar
  7
MONOTXT
210
0.0
220
0.0
230
1.0
  0
TEXT
  8
3
  6
CONTINUOUS
 62
     2
  5
3C3
 10
56.905167
 20
22.378417
 30
0.0
 40
0.0625
  1
1
  7
MONOTXT
210
0.0
220
0.0
230
1.0
  0
LINE
  8
3
  6
CONTINUOUS
 62
     2
  5
3C4
 10
56.2655
 20
22.466583
 30
0.0
 11
56.44175
 21
22.466583
 31
0.0
  0
LINE
  8
3
  6
CONTINUOUS
 62
     2
  5
3C5
 10
54.800167
 20
20.929917
 30
0.0
 11
57.620333
 21
20.929917
 31
0.0
  0
SOLID
  8
3
  6
CONTINUOUS
 62
     2
  5
3C6
 10
56.6925
 20
20.929917
 30
0.0
 11
56.815583
 21
20.95175
 31
0.0
 12
56.815583
 22
20.908167
 32
0.0
 13
56.815583
 23
20.908167
 33
0.0
  0
TEXT
  8
3
  6
CONTINUOUS
 62
     2
  5
3C7
 10
57.7305
 20
20.979333
 30
0.0
 40
0.125
  1
#4v Bars
  7
MONOTXT
210
0.0
220
0.0
230
1.0
  0
TEXT
  8
3
  6
CONTINUOUS
 62
     2
  5
3C8
 10
57.7305
 20
20.7115
 30
0.0
 40
0.125
  1
@12"c-c
  7
MONOTXT
210
0.0
220
0.0
230
1.0
  0
SOLID
  8
3
  6
CONTINUOUS
 62
     2
  5
3C9
 10
56.25325
 20
20.929917
 30
0.0
 11
56.37625
 21
20.95175
 31
0.0
 12
56.37625
 22
20.908167
 32
0.0
 13
56.37625
 23
20.908167
 33
0.0
  0
SOLID
  8
3
  6
CONTINUOUS
 62
     2
  5
3CA
 10
55.522833
 20
20.929917
 30
0.0
 11
55.645833
 21
20.95175
 31
0.0
 12
55.645833
 22
20.908167
 32
0.0
 13
55.645833
 23
20.908167
 33
0.0
  0
SOLID
  8
3
  6
CONTINUOUS
 62
     2
  5
3CB
 10
54.800167
 20
20.929917
 30
0.0
 11
54.92325
 21
20.95175
 31
0.0
 12
54.92325
 22
20.908167
 32
0.0
 13
54.92325
 23
20.908167
 33
0.0
  0
LINE
  8
3
  6
CONTINUOUS
 62
     2
  5
3CC
 10
53.64975
 20
19.840667
 30
0.0
 11
54.370833
 21
18.456583
 31
0.0
  0
SOLID
  8
3
  6
CONTINUOUS
 62
     2
  5
3CD
 10
53.64975
 20
19.840667
 30
0.0
 11
53.725917
 21
19.741583
 31
0.0
 12
53.687333
 22
19.721417
 32
0.0
 13
53.687333
 23
19.721417
 33
0.0
  0
LINE
  8
3
  6
CONTINUOUS
 62
     2
  5
3CE
 10
54.370833
 20
18.456583
 30
0.0
 11
54.558083
 21
18.456583
 31
0.0
  0
TEXT
  8
3
  6
CONTINUOUS
 62
     2
  5
3CF
 10
54.712333
 20
18.478583
 30
0.0
 40
0.125
  1
For concrete pipe only
  7
MONOTXT
210
0.0
220
0.0
230
1.0
  0
TEXT
  8
3
  6
CONTINUOUS
 62
     2
  5
3D0
 10
54.712333
 20
18.21075
 30
0.0
 40
0.125
  1
(See Backwall Detail)
  7
MONOTXT
210
0.0
220
0.0
230
1.0
  0
TEXT
  8
3
  6
CONTINUOUS
 62
     2
  5
3D1
 10
52.441
 20
17.817167
 30
0.0
 40
0.25
  1
ELEVATION
  7
MONOTXT
210
0.0
220
0.0
230
1.0
  0
LINE
  8
3
  6
CONTINUOUS
 62
     2
  5
3D2
 10
49.868917
 20
19.59125
 30
0.0
 11
57.488167
 21
19.59125
 31
0.0
  0
SOLID
  8
3
  6
CONTINUOUS
 62
     2
  5
3D3
 10
56.884667
 20
19.59125
 30
0.0
 11
57.00775
 21
19.613
 31
0.0
 12
57.00775
 22
19.5695
 32
0.0
 13
57.00775
 23
19.5695
 33
0.0
  0
TEXT
  8
3
  6
CONTINUOUS
 62
     2
  5
3D4
 10
57.631417
 20
19.635333
 30
0.0
 40
0.125
  1
#4v Bars
  7
MONOTXT
210
0.0
220
0.0
230
1.0
  0
TEXT
  8
3
  6
CONTINUOUS
 62
     2
  5
3D5
 10
57.631417
 20
19.3675
 30
0.0
 40
0.125
  1
@18"c-c
  7
MONOTXT
210
0.0
220
0.0
230
1.0
  0
SOLID
  8
3
  6
CONTINUOUS
 62
     2
  5
3D6
 10
55.167333
 20
19.59125
 30
0.0
 11
55.290417
 21
19.613
 31
0.0
 12
55.290417
 22
19.5695
 32
0.0
 13
55.290417
 23
19.5695
 33
0.0
  0
SOLID
  8
3
  6
CONTINUOUS
 62
     2
  5
3D7
 10
51.58625
 20
19.59125
 30
0.0
 11
51.709333
 21
19.613
 31
0.0
 12
51.709333
 22
19.5695
 32
0.0
 13
51.709333
 23
19.5695
 33
0.0
  0
SOLID
  8
3
  6
CONTINUOUS
 62
     2
  5
3D8
 10
49.868917
 20
19.59125
 30
0.0
 11
49.992
 21
19.613
 31
0.0
 12
49.992
 22
19.5695
 32
0.0
 13
49.992
 23
19.5695
 33
0.0
  0
LINE
  8
3
  6
CONTINUOUS
 62
     2
  5
3D9
 10
50.856917
 20
20.166
 30
0.0
 11
50.856917
 21
18.500583
 31
0.0
  0
SOLID
  8
3
  6
CONTINUOUS
 62
     2
  5
3DA
 10
50.856917
 20
20.166
 30
0.0
 11
50.878667
 21
20.042833
 31
0.0
 12
50.835167
 22
20.042833
 32
0.0
 13
50.835167
 23
20.042833
 33
0.0
  0
LINE
  8
3
  6
CONTINUOUS
 62
     2
  5
3DB
 10
50.856917
 20
18.500583
 30
0.0
 11
51.45175
 21
18.500583
 31
0.0
  0
TEXT
  8
3
  6
CONTINUOUS
 62
     2
  5
3DC
 10
51.608
 20
18.4225
 30
0.0
 40
0.125
  1
#4h Bar
  7
MONOTXT
210
0.0
220
0.0
230
1.0
  0
TEXT
  8
3
  6
CONTINUOUS
 62
     2
  5
3DD
 10
51.951583
 20
18.38725
 30
0.0
 40
0.0625
  1
2
  7
MONOTXT
210
0.0
220
0.0
230
1.0
  0
TEXT
  8
3
  6
CONTINUOUS
 62
     2
  5
3DE
 10
53.336917
 20
23.734417
 30
0.0
 40
0.125
  1
c
  7
MONOTXT
210
0.0
220
0.0
230
1.0
  0
TEXT
  8
3
  6
CONTINUOUS
 62
     2
  5
3DF
 10
53.359667
 20
23.704167
 30
0.0
 40
0.125
  1
L
  7
MONOTXT
210
0.0
220
0.0
230
1.0
  0
SOLID
  8
6
  6
CENTER
 62
     2
  5
3E0
 10
53.56975
 20
17.211667
 30
0.0
 11
53.56975
 21
17.17
 31
0.0
 12
53.69475
 22
17.190833
 32
0.0
 13
53.69475
 23
17.190833
 33
0.0
  0
LINE
  8
6
  6
CENTER
 62
     2
  5
3E1
 10
53.56975
 20
17.190833
 30
0.0
 11
53.382
 21
17.190833
 31
0.0
  0
LINE
  8
6
  6
CENTER
 62
     2
  5
3E2
 10
53.56975
 20
11.145083
 30
0.0
 11
53.382
 21
11.145083
 31
0.0
  0
SOLID
  8
6
  6
CENTER
 62
     2
  5
3E3
 10
53.56975
 20
11.165917
 30
0.0
 11
53.56975
 21
11.12425
 31
0.0
 12
53.69475
 22
11.145083
 32
0.0
 13
53.69475
 23
11.145083
 33
0.0
  0
LINE
  8
1
  6
CONTINUOUS
 62
     7
  5
3E4
 10
49.714333
 20
13.48075
 30
0.0
 11
49.319417
 21
13.889333
 31
0.0
  0
LINE
  8
1
  6
CONTINUOUS
 62
     7
  5
3E5
 10
51.896667
 20
15.589833
 30
0.0
 11
51.50175
 21
15.998417
 31
0.0
  0
LINE
  8
1
  6
CONTINUOUS
 62
     7
  5
3E6
 10
49.534417
 20
13.84675
 30
0.0
 11
51.537
 21
15.782167
 31
0.0
  0
SOLID
  8
1
  6
CONTINUOUS
 62
     7
  5
3E7
 10
49.519833
 20
13.86175
 30
0.0
 11
49.548833
 21
13.831833
 31
0.0
 12
49.4445
 22
13.759917
 32
0.0
 13
49.4445
 23
13.759917
 33
0.0
  0
SOLID
  8
1
  6
CONTINUOUS
 62
     7
  5
3E8
 10
51.5225
 20
15.797083
 30
0.0
 11
51.5515
 21
15.767167
 31
0.0
 12
51.62675
 22
15.869
 32
0.0
 13
51.62675
 23
15.869
 33
0.0
  0
LINE
  8
8
  6
CONTINUOUS
 62
     7
  5
3EA
 10
49.75775
 20
13.43575
 30
0.0
 11
49.757833
 21
13.43575
 31
0.0
  0
LINE
  8
8
  6
CONTINUOUS
 62
     7
  5
3EB
 10
51.940167
 20
15.544833
 30
0.0
 11
51.94025
 21
15.544833
 31
0.0
  0
LINE
  8
8
  6
CONTINUOUS
 62
     7
  5
3EC
 10
51.626833
 20
15.869
 30
0.0
 11
51.626917
 21
15.869
 31
0.0
  0
TEXT
  8
3
  6
CONTINUOUS
 62
     2
  5
3ED
 10
49.560333
 20
13.968333
 30
0.0
 40
0.125
  1
#4v Bars @ 12"c-c
 50
44.278544
  7
MONOTXT
210
0.0
220
0.0
230
1.0
  0
LINE
  8
5
  6
DASHED
 62
     2
  5
3EE
 10
51.539417
 20
15.077083
 30
0.0
 11
51.539417
 21
13.339083
 31
0.0
  0
LINE
  8
5
  6
DASHED
 62
     2
  5
3EF
 10
55.224583
 20
15.077083
 30
0.0
 11
55.224583
 21
13.339083
 31
0.0
  0
LINE
  8
1
  6
CONTINUOUS
 62
     7
  5
3F0
 10
51.539417
 20
13.276583
 30
0.0
 11
51.539417
 21
12.068333
 31
0.0
  0
LINE
  8
1
  6
CONTINUOUS
 62
     7
  5
3F1
 10
55.2245
 20
13.276583
 30
0.0
 11
55.2245
 21
12.068333
 31
0.0
  0
LINE
  8
1
  6
CONTINUOUS
 62
     7
  5
3F2
 10
51.664417
 20
12.248333
 30
0.0
 11
55.0995
 21
12.248333
 31
0.0
  0
SOLID
  8
1
  6
CONTINUOUS
 62
     7
  5
3F3
 10
51.664333
 20
12.269167
 30
0.0
 11
51.664333
 21
12.227417
 31
0.0
 12
51.539333
 22
12.248333
 32
0.0
 13
51.539333
 23
12.248333
 33
0.0
  0
SOLID
  8
1
  6
CONTINUOUS
 62
     7
  5
3F4
 10
55.0995
 20
12.269167
 30
0.0
 11
55.0995
 21
12.227417
 31
0.0
 12
55.2245
 22
12.248333
 32
0.0
 13
55.2245
 23
12.248333
 33
0.0
  0
LINE
  8
8
  6
CONTINUOUS
 62
     7
  5
3F5
 10
51.539417
 20
13.339083
 30
0.0
 11
51.5395
 21
13.339083
 31
0.0
  0
LINE
  8
8
  6
CONTINUOUS
 62
     7
  5
3F6
 10
55.2245
 20
13.339083
 30
0.0
 11
55.224583
 21
13.339083
 31
0.0
  0
LINE
  8
8
  6
CONTINUOUS
 62
     7
  5
3F7
 10
55.2245
 20
12.248333
 30
0.0
 11
55.224583
 21
12.248333
 31
0.0
  0
TEXT
  8
3
  6
CONTINUOUS
 62
     2
  5
3F8
 10
52.295833
 20
12.320833
 30
0.0
 40
0.125
  1
#4v Bars @18"c-c
  7
MONOTXT
210
0.0
220
0.0
230
1.0
  0
POLYLINE
  8
5
  6
DASHED
 62
     2
  5
3F9
 66
     1
 10
0.0
 20
0.0
 30
0.0
  0
VERTEX
  8
5
  6
DASHED
 62
     2
  5
3FA
 10
51.517917
 20
13.34775
 30
0.0
 42
1.0
  0
VERTEX
  8
5
  6
DASHED
 62
     2
  5
3FB
 10
51.542917
 20
13.34775
 30
0.0
 42
1.0
  0
VERTEX
  8
5
  6
DASHED
 62
     2
  5
3FC
 10
51.517917
 20
13.34775
 30
0.0
  0
SEQEND
  8
5
  6
DASHED
 62
     2
  5
3FD
  0
POLYLINE
  8
5
  6
DASHED
 62
     2
  5
3FE
 66
     1
 10
0.0
 20
0.0
 30
0.0
  0
VERTEX
  8
5
  6
DASHED
 62
     2
  5
3FF
 10
55.203083
 20
13.34775
 30
0.0
 42
1.0
  0
VERTEX
  8
5
  6
DASHED
 62
     2
  5
400
 10
55.228083
 20
13.34775
 30
0.0
 42
1.0
  0
VERTEX
  8
5
  6
DASHED
 62
     2
  5
401
 10
55.203083
 20
13.34775
 30
0.0
  0
SEQEND
  8
5
  6
DASHED
 62
     2
  5
402
  0
LINE
  8
3
  6
CONTINUOUS
 62
     2
  5
403
 10
52.586
 20
13.339083
 30
0.0
 11
52.586
 21
13.626417
 31
0.0
  0
SOLID
  8
3
  6
CONTINUOUS
 62
     2
  5
404
 10
52.586
 20
13.339083
 30
0.0
 11
52.56425
 21
13.462167
 31
0.0
 12
52.60775
 22
13.462167
 32
0.0
 13
52.60775
 23
13.462167
 33
0.0
  0
LINE
  8
3
  6
CONTINUOUS
 62
     2
  5
405
 10
52.586
 20
13.626417
 30
0.0
 11
52.699833
 21
13.716333
 31
0.0
  0
TEXT
  8
3
  6
CONTINUOUS
 62
     2
  5
406
 10
52.52125
 20
13.772917
 30
0.0
 40
0.125
  1
#4h Bar
  7
MONOTXT
210
0.0
220
0.0
230
1.0
  0
TEXT
  8
3
  6
CONTINUOUS
 62
     2
  5
407
 10
52.856417
 20
13.705833
 30
0.0
 40
0.0625
  1
2
  7
MONOTXT
210
0.0
220
0.0
230
1.0
  0
LINE
  8
3
  6
CONTINUOUS
 62
     2
  5
408
 10
54.616083
 20
15.428833
 30
0.0
 11
54.616083
 21
14.476083
 31
0.0
  0
TEXT
  8
3
  6
CONTINUOUS
 62
     2
  5
409
 10
55.062417
 20
14.486417
 30
0.0
 40
0.15625
  1
%%d
  7
MONOTXT
210
0.0
220
0.0
230
1.0
  0
ARC
  8
3
  6
CONTINUOUS
 62
     2
  5
40A
 10
54.616083
 20
15.428833
 30
0.0
 40
0.761858
 50
279.411239
 51
306.255269
210
0.0
220
0.0
230
1.0
  0
SOLID
  8
3
  6
CONTINUOUS
 62
     2
  5
40B
 10
54.739
 20
14.698
 30
0.0
 11
54.742417
 21
14.6565
 31
0.0
 12
54.616083
 22
14.667
 32
0.0
 13
54.616083
 23
14.667
 33
0.0
  0
SOLID
  8
3
  6
CONTINUOUS
 62
     2
  5
40C
 10
55.053
 20
14.83025
 30
0.0
 11
55.080333
 21
14.79875
 31
0.0
 12
55.161083
 22
14.896417
 32
0.0
 13
55.161083
 23
14.896417
 33
0.0
  0
TEXT
  8
3
  6
CONTINUOUS
 62
     2
  5
40D
 10
54.772333
 20
14.465667
 30
0.0
 40
0.125
  1
45
  7
MONOTXT
210
0.0
220
0.0
230
1.0
  0
LINE
  8
8
  6
CONTINUOUS
 62
     7
  5
40E
 10
54.616083
 20
15.428833
 30
0.0
 11
54.616167
 21
15.428833
 31
0.0
  0
LINE
  8
8
  6
CONTINUOUS
 62
     7
  5
40F
 10
54.616083
 20
14.476083
 30
0.0
 11
54.616167
 21
14.476083
 31
0.0
  0
LINE
  8
8
  6
CONTINUOUS
 62
     7
  5
410
 10
56.864
 20
13.232667
 30
0.0
 11
56.864083
 21
13.232667
 31
0.0
  0
LINE
  8
8
  6
CONTINUOUS
 62
     7
  5
411
 10
54.616083
 20
15.428833
 30
0.0
 11
54.616167
 21
15.428833
 31
0.0
  0
TEXT
  8
3
  6
CONTINUOUS
 62
     2
  5
412
 10
53.76725
 20
17.107833
 30
0.0
 40
0.125
  1
A
  7
MONOTXT
210
0.0
220
0.0
230
1.0
  0
TEXT
  8
3
  6
CONTINUOUS
 62
     2
  5
413
 10
53.76725
 20
11.082917
 30
0.0
 40
0.125
  1
A
  7
MONOTXT
210
0.0
220
0.0
230
1.0
  0
SOLID
  8
3
  6
CONTINUOUS
 62
     2
  5
414
 10
52.616167
 20
16.137417
 30
0.0
 11
52.616167
 21
16.179083
 31
0.0
 12
52.491167
 22
16.15825
 32
0.0
 13
52.491167
 23
16.15825
 33
0.0
  0
LINE
  8
3
  6
CONTINUOUS
 62
     2
  5
415
 10
52.616167
 20
16.15825
 30
0.0
 11
54.318333
 21
16.15825
 31
0.0
  0
SOLID
  8
3
  6
CONTINUOUS
 62
     2
  5
416
 10
54.193333
 20
16.137417
 30
0.0
 11
54.193333
 21
16.179083
 31
0.0
 12
54.318333
 22
16.15825
 32
0.0
 13
54.318333
 23
16.15825
 33
0.0
  0
TEXT
  8
3
  6
CONTINUOUS
 62
     2
  5
417
 10
53.306417
 20
16.25425
 30
0.0
 40
0.125
  1
I.D.
  7
MONOTXT
210
0.0
220
0.0
230
1.0
  0
LINE
  8
3
  6
CONTINUOUS
 62
     2
  5
418
 10
52.783083
 20
15.767
 30
0.0
 11
52.783083
 21
16.042583
 31
0.0
  0
SOLID
  8
3
  6
CONTINUOUS
 62
     2
  5
419
 10
52.783083
 20
15.767
 30
0.0
 11
52.761333
 21
15.890083
 31
0.0
 12
52.804833
 22
15.890083
 32
0.0
 13
52.804833
 23
15.890083
 33
0.0
  0
LINE
  8
3
  6
CONTINUOUS
 62
     2
  5
41A
 10
52.783083
 20
16.042583
 30
0.0
 11
51.286583
 21
16.042583
 31
0.0
  0
TEXT
  8
3
  6
CONTINUOUS
 62
     2
  5
41B
 10
50.3955
 20
15.976417
 30
0.0
 40
0.125
  1
#4h Bar
  7
MONOTXT
210
0.0
220
0.0
230
1.0
  0
LINE
  8
6
  6
CENTER
 62
     2
  5
41C
 10
53.382
 20
16.809917
 30
0.0
 11
53.382
 21
17.190833
 31
0.0
  0
TEXT
  8
3
  6
CONTINUOUS
 62
     2
  5
41D
 10
53.218833
 20
14.755833
 30
0.0
 40
0.125
  1
L
  7
MONOTXT
210
0.0
220
0.0
230
1.0
  0
TEXT
  8
3
  6
CONTINUOUS
 62
     2
  5
41E
 10
53.196083
 20
14.786083
 30
0.0
 40
0.125
  1
c
  7
MONOTXT
210
0.0
220
0.0
230
1.0
  0
LINE
  8
3
  6
CONTINUOUS
 62
     2
  5
41F
 10
53.7345
 20
16.027417
 30
0.0
 11
53.7345
 21
16.152417
 31
0.0
  0
LINE
  8
3
  6
CONTINUOUS
 62
     2
  5
420
 10
53.7345
 20
15.642
 30
0.0
 11
53.7345
 21
15.517
 31
0.0
  0
SOLID
  8
3
  6
CONTINUOUS
 62
     2
  5
421
 10
53.755333
 20
16.027417
 30
0.0
 11
53.713667
 21
16.027417
 31
0.0
 12
53.7345
 22
15.902417
 32
0.0
 13
53.7345
 23
15.902417
 33
0.0
  0
SOLID
  8
3
  6
CONTINUOUS
 62
     2
  5
422
 10
53.755333
 20
15.642
 30
0.0
 11
53.713667
 21
15.642
 31
0.0
 12
53.7345
 22
15.767
 32
0.0
 13
53.7345
 23
15.767
 33
0.0
  0
TEXT
  8
3
  6
CONTINUOUS
 62
     2
  5
423
 10
53.78725
 20
15.939333
 30
0.0
 40
0.125
  1
3"
  7
MONOTXT
210
0.0
220
0.0
230
1.0
  0
LINE
  8
8
  6
CONTINUOUS
 62
     7
  5
424
 10
53.759667
 20
15.767
 30
0.0
 11
53.75975
 21
15.767
 31
0.0
  0
LINE
  8
8
  6
CONTINUOUS
 62
     7
  5
425
 10
53.732333
 20
15.902417
 30
0.0
 11
53.732417
 21
15.902417
 31
0.0
  0
LINE
  8
8
  6
CONTINUOUS
 62
     7
  5
426
 10
53.7345
 20
15.902417
 30
0.0
 11
53.734583
 21
15.902417
 31
0.0
  0
TEXT
  8
3
  6
CONTINUOUS
 62
     2
  5
427
 10
48.969583
 20
6.989
 30
0.0
 40
0.125
  1
Toe of Fill
  7
MONOTXT
210
0.0
220
0.0
230
1.0
  0
TEXT
  8
3
  6
CONTINUOUS
 62
     2
  5
428
 10
55.686083
 20
6.989
 30
0.0
 40
0.125
  1
Toe of Fill
  7
MONOTXT
210
0.0
220
0.0
230
1.0
  0
TEXT
  8
3
  6
CONTINUOUS
 62
     2
  5
429
 10
48.973417
 20
5.355417
 30
0.0
 40
0.25
  1
CONSTRUCTION DETAIL - SKEWED PIPE
  7
MONOTXT
210
0.0
220
0.0
230
1.0
  0
TEXT
  8
3
  6
CONTINUOUS
 62
     2
  5
42A
 10
52.441
 20
10.564833
 30
0.0
 40
0.25
  1
PLAN VIEW
  7
MONOTXT
210
0.0
220
0.0
230
1.0
  0
TEXT
  8
3
  6
CONTINUOUS
 62
     2
  5
42B
 10
61.724583
 20
15.330917
 30
0.0
 40
0.125
  1
#4h Bars
  7
MONOTXT
210
0.0
220
0.0
230
1.0
  0
TEXT
  8
3
  6
CONTINUOUS
 62
     2
  5
42C
 10
61.752667
 20
12.809083
 30
0.0
 40
0.125
  1
#4v Bars
  7
MONOTXT
210
0.0
220
0.0
230
1.0
  0
TEXT
  8
3
  6
CONTINUOUS
 62
     2
  5
42D
 10
62.061667
 20
15.292
 30
0.0
 40
0.0625
  1
1
  7
MONOTXT
210
0.0
220
0.0
230
1.0
  0
LINE
  8
1
  6
CONTINUOUS
 62
     7
  5
42E
 10
66.818
 20
15.136083
 30
0.0
 11
66.6375
 21
15.136083
 31
0.0
  0
LINE
  8
1
  6
CONTINUOUS
 62
     7
  5
42F
 10
67.088583
 20
14.66875
 30
0.0
 11
66.6375
 21
14.66875
 31
0.0
  0
LINE
  8
1
  6
CONTINUOUS
 62
     7
  5
430
 10
66.709917
 20
15.011083
 30
0.0
 11
66.709917
 21
14.79375
 31
0.0
  0
SOLID
  8
1
  6
CONTINUOUS
 62
     7
  5
431
 10
66.689083
 20
15.011083
 30
0.0
 11
66.730667
 21
15.011083
 31
0.0
 12
66.709917
 22
15.136083
 32
0.0
 13
66.709917
 23
15.136083
 33
0.0
  0
SOLID
  8
1
  6
CONTINUOUS
 62
     7
  5
432
 10
66.689083
 20
14.79375
 30
0.0
 11
66.730667
 21
14.79375
 31
0.0
 12
66.709917
 22
14.66875
 32
0.0
 13
66.709917
 23
14.66875
 33
0.0
  0
LINE
  8
8
  6
CONTINUOUS
 62
     7
  5
433
 10
66.8805
 20
15.136083
 30
0.0
 11
66.880583
 21
15.136083
 31
0.0
  0
LINE
  8
8
  6
CONTINUOUS
 62
     7
  5
434
 10
67.151083
 20
14.66875
 30
0.0
 11
67.151167
 21
14.66875
 31
0.0
  0
LINE
  8
8
  6
CONTINUOUS
 62
     7
  5
435
 10
66.709917
 20
14.66875
 30
0.0
 11
66.71
 21
14.66875
 31
0.0
  0
LINE
  8
3
  6
CONTINUOUS
 62
     2
  5
436
 10
66.709917
 20
14.878083
 30
0.0
 11
66.355
 21
14.878083
 31
0.0
  0
SOLID
  8
3
  6
CONTINUOUS
 62
     2
  5
437
 10
66.709917
 20
14.878083
 30
0.0
 11
66.586833
 21
14.856333
 31
0.0
 12
66.586833
 22
14.899833
 32
0.0
 13
66.586833
 23
14.899833
 33
0.0
  0
TEXT
  8
3
  6
CONTINUOUS
 62
     2
  5
438
 10
65.519333
 20
14.935583
 30
0.0
 40
0.125
  1
6" min.
  7
MONOTXT
210
0.0
220
0.0
230
1.0
  0
TEXT
  8
3
  6
CONTINUOUS
 62
     2
  5
439
 10
65.20975
 20
14.66775
 30
0.0
 40
0.125
  1
under pipe
  7
MONOTXT
210
0.0
220
0.0
230
1.0
  0
TEXT
  8
3
  6
CONTINUOUS
 62
     2
  5
43A
 10
66.390833
 20
12.366917
 30
0.0
 40
0.15625
  1
(For Concrete Pipe)
  7
MONOTXT
210
0.0
220
0.0
230
1.0
  0
TEXT
  8
3
  6
CONTINUOUS
 62
     2
  5
43B
 10
60.0205
 20
12.1185
 30
0.0
 40
0.25
  1
DETAIL OF BENT BARS
  7
MONOTXT
210
0.0
220
0.0
230
1.0
  0
TEXT
  8
3
  6
CONTINUOUS
 62
     2
  5
43C
 10
65.94725
 20
12.654667
 30
0.0
 40
0.25
  1
BACKWALL DETAIL
  7
MONOTXT
210
0.0
220
0.0
230
1.0
  0
LINE
  8
8
  6
CONTINUOUS
 62
     7
  5
43D
 10
68.395833
 20
21.114167
 30
0.0
 11
68.395917
 21
21.114167
 31
0.0
  0
LINE
  8
8
  6
CONTINUOUS
 62
     7
  5
43E
 10
68.646833
 20
21.11225
 30
0.0
 11
68.646917
 21
21.11225
 31
0.0
  0
LINE
  8
8
  6
CONTINUOUS
 62
     7
  5
43F
 10
68.646833
 20
21.11225
 30
0.0
 11
68.646917
 21
21.11225
 31
0.0
  0
SOLID
  8
3
  6
CONTINUOUS
 62
     2
  5
440
 10
68.512917
 20
20.968
 30
0.0
 11
68.554
 21
20.974833
 31
0.0
 12
68.512583
 22
21.094583
 32
0.0
 13
68.512583
 23
21.094583
 33
0.0
  0
LINE
  8
3
  6
CONTINUOUS
 62
     2
  5
441
 10
68.533417
 20
20.971417
 30
0.0
 11
68.59825
 21
20.588917
 31
0.0
  0
LINE
  8
3
  6
CONTINUOUS
 62
     2
  5
442
 10
68.59825
 20
20.588917
 30
0.0
 11
69.05475
 21
20.588917
 31
0.0
  0
LINE
  8
3
  6
CONTINUOUS
 62
     2
  5
443
 10
68.679583
 20
21.355417
 30
0.0
 11
69.037333
 21
21.355417
 31
0.0
  0
LINE
  8
3
  6
CONTINUOUS
 62
     2
  5
444
 10
68.679583
 20
21.11225
 30
0.0
 11
69.037333
 21
21.11225
 31
0.0
  0
LINE
  8
3
  6
CONTINUOUS
 62
     2
  5
445
 10
68.857333
 20
20.98725
 30
0.0
 11
68.857333
 21
20.86225
 31
0.0
  0
LINE
  8
3
  6
CONTINUOUS
 62
     2
  5
446
 10
68.857333
 20
21.480417
 30
0.0
 11
68.857333
 21
21.605417
 31
0.0
  0
SOLID
  8
3
  6
CONTINUOUS
 62
     2
  5
447
 10
68.878167
 20
20.98725
 30
0.0
 11
68.8365
 21
20.98725
 31
0.0
 12
68.857333
 22
21.11225
 32
0.0
 13
68.857333
 23
21.11225
 33
0.0
  0
SOLID
  8
3
  6
CONTINUOUS
 62
     2
  5
448
 10
68.878167
 20
21.480417
 30
0.0
 11
68.8365
 21
21.480417
 31
0.0
 12
68.857333
 22
21.355417
 32
0.0
 13
68.857333
 23
21.355417
 33
0.0
  0
TEXT
  8
3
  6
CONTINUOUS
 62
     2
  5
449
 10
69.0525
 20
21.156167
 30
0.0
 40
0.125
  1
0.042xI.D.=
  7
MONOTXT
210
0.0
220
0.0
230
1.0
  0
LINE
  8
8
  6
CONTINUOUS
 62
     7
  5
44A
 10
68.646833
 20
21.355417
 30
0.0
 11
68.646917
 21
21.355417
 31
0.0
  0
LINE
  8
8
  6
CONTINUOUS
 62
     7
  5
44B
 10
68.646833
 20
21.11225
 30
0.0
 11
68.646917
 21
21.11225
 31
0.0
  0
LINE
  8
3
  6
CONTINUOUS
 62
     2
  5
44C
 10
68.857333
 20
21.11225
 30
0.0
 11
68.857417
 21
21.11225
 31
0.0
  0
TEXT
  8
3
  6
CONTINUOUS
 62
     2
  5
44D
 10
70.115333
 20
21.251833
 30
0.0
 40
0.125
  1
Bevel
  7
MONOTXT
210
0.0
220
0.0
230
1.0
  0
TEXT
  8
3
  6
CONTINUOUS
 62
     2
  5
44E
 10
70.107583
 20
21.019583
 30
0.0
 40
0.125
  1
Depth
  7
MONOTXT
210
0.0
220
0.0
230
1.0
  0
LINE
  8
3
  6
CONTINUOUS
 62
     2
  5
44F
 10
68.098333
 20
21.11475
 30
0.0
 11
68.098333
 21
20.565667
 31
0.0
  0
SOLID
  8
3
  6
CONTINUOUS
 62
     2
  5
450
 10
68.098333
 20
21.11475
 30
0.0
 11
68.120083
 21
20.991667
 31
0.0
 12
68.076583
 22
20.991667
 32
0.0
 13
68.076583
 23
20.991667
 33
0.0
  0
TEXT
  8
3
  6
CONTINUOUS
 62
     2
  5
451
 10
68.026417
 20
19.71275
 30
0.0
 40
0.125
  1
I.D.
  7
MONOTXT
210
0.0
220
0.0
230
1.0
  0
LINE
  8
3
  6
CONTINUOUS
 62
     2
  5
452
 10
67.731
 20
20.367917
 30
0.0
 11
68.395833
 21
20.367917
 31
0.0
  0
SOLID
  8
3
  6
CONTINUOUS
 62
     2
  5
453
 10
67.731
 20
20.367917
 30
0.0
 11
67.854083
 21
20.389667
 31
0.0
 12
67.854083
 22
20.346083
 32
0.0
 13
67.854083
 23
20.346083
 33
0.0
  0
SOLID
  8
3
  6
CONTINUOUS
 62
     2
  5
454
 10
68.395833
 20
20.367917
 30
0.0
 11
68.27275
 21
20.389667
 31
0.0
 12
68.27275
 22
20.346083
 32
0.0
 13
68.27275
 23
20.346083
 33
0.0
  0
TEXT
  8
3
  6
CONTINUOUS
 62
     2
  5
455
 10
67.813083
 20
20.410583
 30
0.0
 40
0.125
  1
6"min
  7
MONOTXT
210
0.0
220
0.0
230
1.0
  0
LINE
  8
3
  6
CONTINUOUS
 62
     2
  5
456
 10
68.098333
 20
20.32525
 30
0.0
 11
68.098333
 21
19.1015
 31
0.0
  0
TEXT
  8
3
  6
CONTINUOUS
 62
     2
  5
457
 10
71.331333
 20
18.221167
 30
0.0
 40
0.13125
  1
     The covering for Reinforcing Steel shall be 2" measured
  7
MONOTXT
210
0.0
220
0.0
230
1.0
  0
TEXT
  8
3
  6
CONTINUOUS
 62
     2
  5
458
 10
71.331333
 20
17.996167
 30
0.0
 40
0.13125
  1
from the surface of the concrete to the face of the bar, unless
  7
MONOTXT
210
0.0
220
0.0
230
1.0
  0
TEXT
  8
3
  6
CONTINUOUS
 62
     2
  5
459
 10
71.331333
 20
17.771167
 30
0.0
 40
0.13125
  1
otherwise noted on the Plans.  Reinforcement in members where
  7
MONOTXT
210
0.0
220
0.0
230
1.0
  0
TEXT
  8
3
  6
CONTINUOUS
 62
     2
  5
45A
 10
71.331333
 20
17.546167
 30
0.0
 40
0.13125
  1
concrete is deposited on the ground shall have 3" of concrete from
  7
MONOTXT
210
0.0
220
0.0
230
1.0
  0
TEXT
  8
3
  6
CONTINUOUS
 62
     2
  5
45B
 10
71.331333
 20
17.321083
 30
0.0
 40
0.13125
  1
the face of the bar to the ground contact surface.
  7
MONOTXT
210
0.0
220
0.0
230
1.0
  0
TEXT
  8
3
  6
CONTINUOUS
 62
     2
  5
45C
 10
71.331333
 20
17.096167
 30
0.0
 40
0.13125
  1
     All exposed edges shall have a 3/4" x 45 chamfer.  Chamfer
  7
MONOTXT
210
0.0
220
0.0
230
1.0
  0
TEXT
  8
3
  6
CONTINUOUS
 62
     2
  5
45D
 10
71.331333
 20
16.871167
 30
0.0
 40
0.13125
  1
on vertical edges shall be continued a minimum of one foot below
  7
MONOTXT
210
0.0
220
0.0
230
1.0
  0
TEXT
  8
3
  6
CONTINUOUS
 62
     2
  5
45E
 10
71.331333
 20
16.646167
 30
0.0
 40
0.13125
  1
finished ground line.
  7
MONOTXT
210
0.0
220
0.0
230
1.0
  0
TEXT
  8
3
  6
CONTINUOUS
 62
     2
  5
45F
 10
71.331333
 20
16.421167
 30
0.0
 40
0.13125
  1
     When wingwalls are placed on the inlet end of corrugated
  7
MONOTXT
210
0.0
220
0.0
230
1.0
  0
TEXT
  8
3
  6
CONTINUOUS
 62
     2
  5
460
 10
71.331333
 20
16.196083
 30
0.0
 40
0.13125
  1
metal or structural plate pipe, a bevel shall be used at the inlet
  7
MONOTXT
210
0.0
220
0.0
230
1.0
  0
TEXT
  8
3
  6
CONTINUOUS
 62
     2
  5
461
 10
71.331333
 20
15.971167
 30
0.0
 40
0.13125
  1
opening.  The end of the pipe shall be set in from the face of the
  7
MONOTXT
210
0.0
220
0.0
230
1.0
  0
TEXT
  8
3
  6
CONTINUOUS
 62
     2
  5
462
 10
71.331333
 20
15.746167
 30
0.0
 40
0.13125
  1
wall as shown on the "Bevel Detail", and the bevel constructed from
  7
MONOTXT
210
0.0
220
0.0
230
1.0
  0
TEXT
  8
3
  6
CONTINUOUS
 62
     2
  5
463
 10
71.331333
 20
15.521167
 30
0.0
 40
0.13125
  1
the end of the pipe to the face of the wall.
  7
MONOTXT
210
0.0
220
0.0
230
1.0
  0
TEXT
  8
3
  6
CONTINUOUS
 62
     2
  5
464
 10
71.331333
 20
15.296167
 30
0.0
 40
0.13125
  1
     When wingwalls are placed on the inlet end of concrete pipe,
  7
MONOTXT
210
0.0
220
0.0
230
1.0
  0
TEXT
  8
3
  6
CONTINUOUS
 62
     2
  5
465
 10
71.331333
 20
15.071083
 30
0.0
 40
0.13125
  1
the "bell" or "groove" of the pipe shall be placed in the wall, and the in-
  7
MONOTXT
210
0.0
220
0.0
230
1.0
  0
TEXT
  8
3
  6
CONTINUOUS
 62
     2
  5
466
 10
71.331333
 20
14.846167
 30
0.0
 40
0.13125
  1
side of the "bell" or "groove" shall be filled with concrete up to the
  7
MONOTXT
210
0.0
220
0.0
230
1.0
  0
TEXT
  8
3
  6
CONTINUOUS
 62
     2
  5
467
 10
71.331333
 20
14.621167
 30
0.0
 40
0.13125
  1
flow line.
  7
MONOTXT
210
0.0
220
0.0
230
1.0
  0
TEXT
  8
3
  6
CONTINUOUS
 62
     2
  5
468
 10
71.331333
 20
13.946167
 30
0.0
 40
0.13125
  1
     Keyed or doweled type construction joints, acceptable to
  7
MONOTXT
210
0.0
220
0.0
230
1.0
  0
TEXT
  8
3
  6
CONTINUOUS
 62
     2
  5
469
 10
71.331333
 20
13.721167
 30
0.0
 40
0.13125
  1
the Engineer, may be used during construction.
  7
MONOTXT
210
0.0
220
0.0
230
1.0
  0
TEXT
  8
3
  6
CONTINUOUS
 62
     2
  5
46A
 10
71.331333
 20
13.496167
 30
0.0
 40
0.13125
  1
     If embankment slope above wingwalls is flatter than 2:1, provide
  7
MONOTXT
210
0.0
220
0.0
230
1.0
  0
TEXT
  8
3
  6
CONTINUOUS
 62
     2
  5
46B
 10
71.331333
 20
13.271167
 30
0.0
 40
0.13125
  1
wings for 2:1 slope and warp embankment to 2:1 slope at wingwall.
  7
MONOTXT
210
0.0
220
0.0
230
1.0
  0
TEXT
  8
3
  6
CONTINUOUS
 62
     2
  5
46C
 10
71.331333
 20
13.046167
 30
0.0
 40
0.13125
  1
     The pay quantity for wingwalls, constructed in accordance
  7
MONOTXT
210
0.0
220
0.0
230
1.0
  0
TEXT
  8
3
  6
CONTINUOUS
 62
     2
  5
46D
 10
71.331333
 20
12.821167
 30
0.0
 40
0.13125
  1
with the details herein, will be the cubic yards of Class B Concrete
  7
MONOTXT
210
0.0
220
0.0
230
1.0
  0
TEXT
  8
3
  6
CONTINUOUS
 62
     2
  5
46E
 10
71.331333
 20
12.596167
 30
0.0
 40
0.13125
  1
specified on this sheet.  Cost of all reinforcing steel shall be included
  7
MONOTXT
210
0.0
220
0.0
230
1.0
  0
TEXT
  8
3
  6
CONTINUOUS
 62
     2
  5
46F
 10
71.331333
 20
12.371167
 30
0.0
 40
0.13125
  1
in the unit price bid for Class B Concrete.
  7
MONOTXT
210
0.0
220
0.0
230
1.0
  0
TEXT
  8
3
  6
CONTINUOUS
 62
     2
  5
470
 10
67.3555
 20
18.117583
 30
0.0
 40
0.25
  1
BEVEL DETAIL
  7
MONOTXT
210
0.0
220
0.0
230
1.0
  0
LINE
  8
3
  6
CONTINUOUS
 62
     2
  5
471
 10
64.07425
 20
21.40975
 30
0.0
 11
64.07425
 21
23.71125
 31
0.0
  0
SOLID
  8
3
  6
CONTINUOUS
 62
     2
  5
472
 10
61.891417
 20
23.510417
 30
0.0
 11
61.891417
 21
23.552083
 31
0.0
 12
61.766417
 22
23.53125
 32
0.0
 13
61.766417
 23
23.53125
 33
0.0
  0
SOLID
  8
3
  6
CONTINUOUS
 62
     2
  5
473
 10
63.94925
 20
23.510417
 30
0.0
 11
63.94925
 21
23.552083
 31
0.0
 12
64.07425
 22
23.53125
 32
0.0
 13
64.07425
 23
23.53125
 33
0.0
  0
TEXT
  8
3
  6
CONTINUOUS
 62
     2
  5
474
 10
62.873667
 20
23.47925
 30
0.0
 40
0.125
  1
A
  7
MONOTXT
210
0.0
220
0.0
230
1.0
  0
LINE
  8
8
  6
CONTINUOUS
 62
     7
  5
475
 10
61.766417
 20
22.517083
 30
0.0
 11
61.7665
 21
22.517083
 31
0.0
  0
LINE
  8
8
  6
CONTINUOUS
 62
     7
  5
476
 10
64.07425
 20
21.34725
 30
0.0
 11
64.074333
 21
21.34725
 31
0.0
  0
LINE
  8
3
  6
CONTINUOUS
 62
     2
  5
477
 10
64.07425
 20
23.53125
 30
0.0
 11
64.074333
 21
23.53125
 31
0.0
  0
LINE
  8
3
  6
CONTINUOUS
 62
     2
  5
478
 10
61.766417
 20
23.334
 30
0.0
 11
61.766417
 21
23.71125
 31
0.0
  0
LINE
  8
3
  6
CONTINUOUS
 62
     2
  5
479
 10
61.857
 20
22.4805
 30
0.0
 11
62.23125
 21
23.05225
 31
0.0
  0
SOLID
  8
3
  6
CONTINUOUS
 62
     2
  5
47A
 10
61.857
 20
22.4805
 30
0.0
 11
61.906167
 21
22.595417
 31
0.0
 12
61.942583
 22
22.571583
 32
0.0
 13
61.942583
 23
22.571583
 33
0.0
  0
LINE
  8
3
  6
CONTINUOUS
 62
     2
  5
47B
 10
62.23125
 20
23.05225
 30
0.0
 11
62.36275
 21
23.05225
 31
0.0
  0
TEXT
  8
3
  6
CONTINUOUS
 62
     2
  5
47C
 10
62.5195
 20
23.00975
 30
0.0
 40
0.125
  1
See Bevel
  7
MONOTXT
210
0.0
220
0.0
230
1.0
  0
TEXT
  8
3
  6
CONTINUOUS
 62
     2
  5
47D
 10
62.5815
 20
22.814917
 30
0.0
 40
0.125
  1
 Detail
  7
MONOTXT
210
0.0
220
0.0
230
1.0
  0
LINE
  8
3
  6
CONTINUOUS
 62
     2
  5
47E
 10
60.703083
 20
22.635417
 30
0.0
 11
60.916417
 21
23.042833
 31
0.0
  0
SOLID
  8
3
  6
CONTINUOUS
 62
     2
  5
47F
 10
60.703083
 20
22.635417
 30
0.0
 11
60.740917
 21
22.754583
 31
0.0
 12
60.7795
 22
22.734417
 32
0.0
 13
60.7795
 23
22.734417
 33
0.0
  0
LINE
  8
3
  6
CONTINUOUS
 62
     2
  5
480
 10
60.916417
 20
23.042833
 30
0.0
 11
60.5275
 21
23.042833
 31
0.0
  0
TEXT
  8
3
  6
CONTINUOUS
 62
     2
  5
481
 10
59.324583
 20
23.080417
 30
0.0
 40
0.125
  1
Embankment
  7
MONOTXT
210
0.0
220
0.0
230
1.0
  0
TEXT
  8
3
  6
CONTINUOUS
 62
     2
  5
482
 10
59.659833
 20
22.894583
 30
0.0
 40
0.125
  1
Slope
  7
MONOTXT
210
0.0
220
0.0
230
1.0
  0
LINE
  8
3
  6
CONTINUOUS
 62
     2
  5
483
 10
63.509
 20
21.155
 30
0.0
 11
60.334083
 21
21.155
 31
0.0
  0
SOLID
  8
3
  6
CONTINUOUS
 62
     2
  5
484
 10
61.711083
 20
21.155
 30
0.0
 11
61.588
 21
21.13325
 31
0.0
 12
61.588
 22
21.176667
 32
0.0
 13
61.588
 23
21.176667
 33
0.0
  0
TEXT
  8
3
  6
CONTINUOUS
 62
     2
  5
485
 10
59.362333
 20
21.1925
 30
0.0
 40
0.125
  1
#4v Bars
  7
MONOTXT
210
0.0
220
0.0
230
1.0
  0
TEXT
  8
3
  6
CONTINUOUS
 62
     2
  5
486
 10
59.429667
 20
21.007917
 30
0.0
 40
0.125
  1
@12"c-c
  7
MONOTXT
210
0.0
220
0.0
230
1.0
  0
SOLID
  8
3
  6
CONTINUOUS
 62
     2
  5
487
 10
62.3235
 20
21.155
 30
0.0
 11
62.200417
 21
21.13325
 31
0.0
 12
62.200417
 22
21.176667
 32
0.0
 13
62.200417
 23
21.176667
 33
0.0
  0
SOLID
  8
3
  6
CONTINUOUS
 62
     2
  5
488
 10
63.078917
 20
21.155
 30
0.0
 11
62.955917
 21
21.13325
 31
0.0
 12
62.955917
 22
21.176667
 32
0.0
 13
62.955917
 23
21.176667
 33
0.0
  0
SOLID
  8
3
  6
CONTINUOUS
 62
     2
  5
489
 10
63.509
 20
21.155
 30
0.0
 11
63.385917
 21
21.13325
 31
0.0
 12
63.385917
 22
21.176667
 32
0.0
 13
63.385917
 23
21.176667
 33
0.0
  0
LINE
  8
3
  6
CONTINUOUS
 62
     2
  5
48A
 10
60.66375
 20
20.216083
 30
0.0
 11
60.407667
 21
20.216083
 31
0.0
  0
LINE
  8
3
  6
CONTINUOUS
 62
     2
  5
48B
 10
61.22425
 20
19.908333
 30
0.0
 11
60.407667
 21
19.908333
 31
0.0
  0
LINE
  8
3
  6
CONTINUOUS
 62
     2
  5
48C
 10
60.587667
 20
19.783333
 30
0.0
 11
60.587667
 21
19.658333
 31
0.0
  0
LINE
  8
3
  6
CONTINUOUS
 62
     2
  5
48D
 10
60.587667
 20
20.341083
 30
0.0
 11
60.587667
 21
20.466083
 31
0.0
  0
SOLID
  8
3
  6
CONTINUOUS
 62
     2
  5
48E
 10
60.6085
 20
19.78325
 30
0.0
 11
60.566833
 21
19.78325
 31
0.0
 12
60.587667
 22
19.90825
 32
0.0
 13
60.587667
 23
19.90825
 33
0.0
  0
SOLID
  8
3
  6
CONTINUOUS
 62
     2
  5
48F
 10
60.6085
 20
20.341083
 30
0.0
 11
60.566833
 21
20.341083
 31
0.0
 12
60.587667
 22
20.216083
 32
0.0
 13
60.587667
 23
20.216083
 33
0.0
  0
TEXT
  8
3
  6
CONTINUOUS
 62
     2
  5
490
 10
58.645583
 20
20.00275
 30
0.0
 40
0.125
  1
6"min. under Pipe
  7
MONOTXT
210
0.0
220
0.0
230
1.0
  0
LINE
  8
8
  6
CONTINUOUS
 62
     7
  5
491
 10
60.72625
 20
20.216083
 30
0.0
 11
60.726333
 21
20.216083
 31
0.0
  0
LINE
  8
8
  6
CONTINUOUS
 62
     7
  5
492
 10
61.28675
 20
19.908333
 30
0.0
 11
61.286833
 21
19.908333
 31
0.0
  0
LINE
  8
3
  6
CONTINUOUS
 62
     2
  5
493
 10
60.587667
 20
19.908333
 30
0.0
 11
60.58775
 21
19.908333
 31
0.0
  0
LINE
  8
3
  6
CONTINUOUS
 62
     2
  5
494
 10
61.4585
 20
20.055833
 30
0.0
 11
60.982083
 21
19.04175
 31
0.0
  0
SOLID
  8
3
  6
CONTINUOUS
 62
     2
  5
495
 10
61.4585
 20
20.055833
 30
0.0
 11
61.425917
 21
19.93525
 31
0.0
 12
61.3865
 22
19.95375
 32
0.0
 13
61.3865
 23
19.95375
 33
0.0
  0
LINE
  8
3
  6
CONTINUOUS
 62
     2
  5
496
 10
60.982083
 20
19.04175
 30
0.0
 11
60.813083
 21
19.04175
 31
0.0
  0
TEXT
  8
3
  6
CONTINUOUS
 62
     2
  5
497
 10
60.359167
 20
18.963583
 30
0.0
 40
0.125
  1
#4h
  7
MONOTXT
210
0.0
220
0.0
230
1.0
  0
TEXT
  8
3
  6
CONTINUOUS
 62
     2
  5
498
 10
60.438917
 20
18.766833
 30
0.0
 40
0.125
  1
Bar
  7
MONOTXT
210
0.0
220
0.0
230
1.0
  0
TEXT
  8
3
  6
CONTINUOUS
 62
     2
  5
499
 10
60.700333
 20
18.94775
 30
0.0
 40
0.0625
  1
1
  7
MONOTXT
210
0.0
220
0.0
230
1.0
  0
LINE
  8
3
  6
CONTINUOUS
 62
     2
  5
49A
 10
63.94725
 20
20.118
 30
0.0
 11
63.3865
 21
19.65225
 31
0.0
  0
SOLID
  8
3
  6
CONTINUOUS
 62
     2
  5
49B
 10
63.94725
 20
20.117917
 30
0.0
 11
63.866417
 21
20.022583
 31
0.0
 12
63.838667
 22
20.056083
 32
0.0
 13
63.838667
 23
20.056083
 33
0.0
  0
LINE
  8
3
  6
CONTINUOUS
 62
     2
  5
49C
 10
63.3865
 20
19.65225
 30
0.0
 11
63.264417
 21
19.65225
 31
0.0
  0
TEXT
  8
3
  6
CONTINUOUS
 62
     2
  5
49D
 10
62.364083
 20
19.574083
 30
0.0
 40
0.125
  1
#4h Bar
  7
MONOTXT
210
0.0
220
0.0
230
1.0
  0
LINE
  8
3
  6
CONTINUOUS
 62
     2
  5
49E
 10
61.463917
 20
19.69425
 30
0.0
 11
61.282667
 21
19.285917
 31
0.0
  0
SOLID
  8
3
  6
CONTINUOUS
 62
     2
  5
49F
 10
61.463917
 20
19.69425
 30
0.0
 11
61.433833
 21
19.572917
 31
0.0
 12
61.394083
 22
19.590583
 32
0.0
 13
61.394083
 23
19.590583
 33
0.0
  0
LINE
  8
3
  6
CONTINUOUS
 62
     2
  5
4A0
 10
61.282667
 20
19.285917
 30
0.0
 11
61.498667
 21
19.285917
 31
0.0
  0
TEXT
  8
3
  6
CONTINUOUS
 62
     2
  5
4A1
 10
61.654917
 20
19.207833
 30
0.0
 40
0.125
  1
See Backwall
  7
MONOTXT
210
0.0
220
0.0
230
1.0
  0
TEXT
  8
3
  6
CONTINUOUS
 62
     2
  5
4A2
 10
61.66075
 20
19.032583
 30
0.0
 40
0.125
  1
Detail (For
  7
MONOTXT
210
0.0
220
0.0
230
1.0
  0
TEXT
  8
3
  6
CONTINUOUS
 62
     2
  5
4A3
 10
61.66075
 20
18.86425
 30
0.0
 40
0.125
  1
Concrete Pipe)
  7
MONOTXT
210
0.0
220
0.0
230
1.0
  0
LINE
  8
3
  6
CONTINUOUS
 62
     2
  5
4A4
 10
63.94725
 20
19.116917
 30
0.0
 11
63.640083
 21
19.116917
 31
0.0
  0
SOLID
  8
3
  6
CONTINUOUS
 62
     2
  5
4A5
 10
63.94725
 20
19.116833
 30
0.0
 11
63.824167
 21
19.095
 31
0.0
 12
63.824167
 22
19.138667
 32
0.0
 13
63.824167
 23
19.138667
 33
0.0
  0
LINE
  8
3
  6
CONTINUOUS
 62
     2
  5
4A6
 10
63.640083
 20
19.116917
 30
0.0
 11
63.40525
 21
18.356083
 31
0.0
  0
LINE
  8
3
  6
CONTINUOUS
 62
     2
  5
4A7
 10
63.40525
 20
18.356083
 30
0.0
 11
63.302
 21
18.356083
 31
0.0
  0
TEXT
  8
3
  6
CONTINUOUS
 62
     2
  5
4A8
 10
61.508833
 20
18.278
 30
0.0
 40
0.125
  1
#4v Bars@18"c-c
  7
MONOTXT
210
0.0
220
0.0
230
1.0
  0
TEXT
  8
3
  6
CONTINUOUS
 62
     2
  5
4A9
 10
62.696667
 20
19.5425
 30
0.0
 40
0.0625
  1
2
  7
MONOTXT
210
0.0
220
0.0
230
1.0
  0
TEXT
  8
3
  6
CONTINUOUS
 62
     2
  5
4AA
 10
61.3215
 20
17.661917
 30
0.0
 40
0.25
  1
SECTION A-A
  7
MONOTXT
210
0.0
220
0.0
230
1.0
  0
LINE
  8
3
  6
CONTINUOUS
 62
     2
  5
4AB
 10
57.861917
 20
10.92375
 30
0.0
 11
57.861917
 21
4.881833
 31
0.0
  0
LINE
  8
3
  6
CONTINUOUS
 62
     2
  5
4AC
 10
57.861917
 20
5.19575
 30
0.0
 11
72.27025
 21
5.19575
 31
0.0
  0
LINE
  8
3
  6
CONTINUOUS
 62
     2
  5
4AD
 10
72.27025
 20
4.881833
 30
0.0
 11
72.27025
 21
10.92375
 31
0.0
  0
LINE
  8
3
  6
CONTINUOUS
 62
     2
  5
4AE
 10
72.27025
 20
10.92375
 30
0.0
 11
57.861917
 21
10.92375
 31
0.0
  0
LINE
  8
3
  6
CONTINUOUS
 62
     2
  5
4AF
 10
58.628167
 20
10.92375
 30
0.0
 11
58.628167
 21
4.881833
 31
0.0
  0
LINE
  8
3
  6
CONTINUOUS
 62
     2
  5
4B0
 10
59.402917
 20
10.923667
 30
0.0
 11
59.402917
 21
4.88175
 31
0.0
  0
LINE
  8
3
  6
CONTINUOUS
 62
     2
  5
4B1
 10
59.436167
 20
10.922083
 30
0.0
 11
59.436167
 21
4.880167
 31
0.0
  0
LINE
  8
3
  6
CONTINUOUS
 62
     2
  5
4B2
 10
65.524667
 20
10.92375
 30
0.0
 11
65.524667
 21
4.881833
 31
0.0
  0
LINE
  8
3
  6
CONTINUOUS
 62
     2
  5
4B3
 10
65.562333
 20
10.92375
 30
0.0
 11
65.562333
 21
4.881833
 31
0.0
  0
LINE
  8
3
  6
CONTINUOUS
 62
     2
  5
4B4
 10
69.996667
 20
10.92375
 30
0.0
 11
69.996667
 21
4.881833
 31
0.0
  0
LINE
  8
3
  6
CONTINUOUS
 62
     2
  5
4B5
 10
60.173333
 20
10.270667
 30
0.0
 11
60.173333
 21
8.964167
 31
0.0
  0
LINE
  8
3
  6
CONTINUOUS
 62
     2
  5
4B6
 10
60.97725
 20
10.270667
 30
0.0
 11
60.97725
 21
8.964167
 31
0.0
  0
LINE
  8
3
  6
CONTINUOUS
 62
     2
  5
4B7
 10
61.705917
 20
10.270667
 30
0.0
 11
61.705917
 21
8.964167
 31
0.0
  0
LINE
  8
3
  6
CONTINUOUS
 62
     2
  5
4B8
 10
62.484667
 20
10.270667
 30
0.0
 11
62.484667
 21
8.964167
 31
0.0
  0
LINE
  8
3
  6
CONTINUOUS
 62
     2
  5
4B9
 10
63.30125
 20
10.270667
 30
0.0
 11
63.30125
 21
8.964167
 31
0.0
  0
LINE
  8
3
  6
CONTINUOUS
 62
     2
  5
4BA
 10
64.064667
 20
10.270667
 30
0.0
 11
64.064667
 21
8.964167
 31
0.0
  0
LINE
  8
3
  6
CONTINUOUS
 62
     2
  5
4BB
 10
64.758417
 20
10.270667
 30
0.0
 11
64.758417
 21
8.964167
 31
0.0
  0
LINE
  8
3
  6
CONTINUOUS
 62
     2
  5
4BC
 10
66.15275
 20
10.270667
 30
0.0
 11
66.15275
 21
4.881833
 31
0.0
  0
LINE
  8
3
  6
CONTINUOUS
 62
     2
  5
4BD
 10
66.805917
 20
10.270667
 30
0.0
 11
66.805917
 21
4.881833
 31
0.0
  0
LINE
  8
3
  6
CONTINUOUS
 62
     2
  5
4BE
 10
67.446667
 20
10.270667
 30
0.0
 11
67.446667
 21
4.881833
 31
0.0
  0
LINE
  8
3
  6
CONTINUOUS
 62
     2
  5
4BF
 10
69.356
 20
10.270667
 30
0.0
 11
69.356
 21
4.881833
 31
0.0
  0
LINE
  8
3
  6
CONTINUOUS
 62
     2
  5
4C0
 10
71.4915
 20
10.270667
 30
0.0
 11
71.4915
 21
4.881833
 31
0.0
  0
LINE
  8
3
  6
CONTINUOUS
 62
     2
  5
4C1
 10
71.516667
 20
10.270667
 30
0.0
 11
71.516667
 21
4.881833
 31
0.0
  0
LINE
  8
3
  6
CONTINUOUS
 62
     2
  5
4C2
 10
72.27025
 20
10.270667
 30
0.0
 11
59.432167
 21
10.270667
 31
0.0
  0
LINE
  8
3
  6
CONTINUOUS
 62
     2
  5
4C3
 10
69.356
 20
9.932917
 30
0.0
 11
67.446667
 21
9.932917
 31
0.0
  0
LINE
  8
3
  6
CONTINUOUS
 62
     2
  5
4C4
 10
72.27025
 20
9.68025
 30
0.0
 11
57.861917
 21
9.68025
 31
0.0
  0
LINE
  8
3
  6
CONTINUOUS
 62
     2
  5
4C5
 10
72.27025
 20
9.6425
 30
0.0
 11
57.861917
 21
9.6425
 31
0.0
  0
LINE
  8
3
  6
CONTINUOUS
 62
     2
  5
4C6
 10
57.861917
 20
5.509833
 30
0.0
 11
72.27025
 21
5.509833
 31
0.0
  0
LINE
  8
3
  6
CONTINUOUS
 62
     2
  5
4C7
 10
57.861917
 20
5.823917
 30
0.0
 11
72.27025
 21
5.823917
 31
0.0
  0
LINE
  8
3
  6
CONTINUOUS
 62
     2
  5
4C8
 10
57.861917
 20
6.137917
 30
0.0
 11
72.27025
 21
6.137917
 31
0.0
  0
LINE
  8
3
  6
CONTINUOUS
 62
     2
  5
4C9
 10
57.861917
 20
6.451917
 30
0.0
 11
72.27025
 21
6.451917
 31
0.0
  0
LINE
  8
3
  6
CONTINUOUS
 62
     2
  5
4CA
 10
57.861917
 20
6.766
 30
0.0
 11
72.27025
 21
6.766
 31
0.0
  0
LINE
  8
3
  6
CONTINUOUS
 62
     2
  5
4CB
 10
57.861917
 20
7.394083
 30
0.0
 11
72.27025
 21
7.394083
 31
0.0
  0
LINE
  8
3
  6
CONTINUOUS
 62
     2
  5
4CC
 10
57.861917
 20
7.708083
 30
0.0
 11
72.27025
 21
7.708083
 31
0.0
  0
LINE
  8
3
  6
CONTINUOUS
 62
     2
  5
4CD
 10
57.861917
 20
8.336167
 30
0.0
 11
72.27025
 21
8.336167
 31
0.0
  0
LINE
  8
3
  6
CONTINUOUS
 62
     2
  5
4CE
 10
57.861917
 20
8.65025
 30
0.0
 11
72.27025
 21
8.65025
 31
0.0
  0
LINE
  8
3
  6
CONTINUOUS
 62
     2
  5
4CF
 10
57.861917
 20
8.964167
 30
0.0
 11
72.27025
 21
8.964167
 31
0.0
  0
LINE
  8
3
  6
CONTINUOUS
 62
     2
  5
4D0
 10
57.861917
 20
9.27825
 30
0.0
 11
72.27025
 21
9.27825
 31
0.0
  0
LINE
  8
3
  6
CONTINUOUS
 62
     2
  5
4D1
 10
57.861917
 20
8.700417
 30
0.0
 11
72.27025
 21
8.700417
 31
0.0
  0
LINE
  8
3
  6
CONTINUOUS
 62
     2
  5
4D2
 10
57.861917
 20
8.03475
 30
0.0
 11
72.27025
 21
8.03475
 31
0.0
  0
LINE
  8
3
  6
CONTINUOUS
 62
     2
  5
4D3
 10
57.861917
 20
7.657833
 30
0.0
 11
72.27025
 21
7.657833
 31
0.0
  0
LINE
  8
3
  6
CONTINUOUS
 62
     2
  5
4D4
 10
57.861917
 20
7.092667
 30
0.0
 11
72.27025
 21
7.092667
 31
0.0
  0
LINE
  8
3
  6
CONTINUOUS
 62
     2
  5
4D5
 10
57.861917
 20
6.71575
 30
0.0
 11
72.27025
 21
6.71575
 31
0.0
  0
LINE
  8
3
  6
CONTINUOUS
 62
     2
  5
4D6
 10
57.861917
 20
5.773667
 30
0.0
 11
72.27025
 21
5.773667
 31
0.0
  0
LINE
  8
3
  6
CONTINUOUS
 62
     2
  5
4D7
 10
57.861917
 20
4.881833
 30
0.0
 11
72.27025
 21
4.881833
 31
0.0
  0
LINE
  8
3
  6
CONTINUOUS
 62
     2
  5
4D8
 10
68.074667
 20
9.932917
 30
0.0
 11
68.074667
 21
4.881833
 31
0.0
  0
LINE
  8
3
  6
CONTINUOUS
 62
     2
  5
4D9
 10
68.715417
 20
9.932917
 30
0.0
 11
68.715417
 21
4.881833
 31
0.0
  0
LINE
  8
3
  6
CONTINUOUS
 62
     2
  5
4DA
 10
69.958917
 20
10.92375
 30
0.0
 11
69.958917
 21
4.881833
 31
0.0
  0
TEXT
  8
3
  6
CONTINUOUS
 62
     2
  5
4DB
 10
57.9205
 20
10.653917
 30
0.0
 40
0.15625
  1
Inside
  7
MONOTXT
210
0.0
220
0.0
230
1.0
  0
TEXT
  8
3
  6
CONTINUOUS
 62
     2
  5
4DC
 10
58.043167
 20
10.386083
 30
0.0
 40
0.15625
  1
Dia.
  7
MONOTXT
210
0.0
220
0.0
230
1.0
  0
TEXT
  8
3
  6
CONTINUOUS
 62
     2
  5
4DD
 10
58.128833
 20
10.11825
 30
0.0
 40
0.15625
  1
of
  7
MONOTXT
210
0.0
220
0.0
230
1.0
  0
TEXT
  8
3
  6
CONTINUOUS
 62
     2
  5
4DE
 10
58.006
 20
9.850333
 30
0.0
 40
0.15625
  1
Pipe
  7
MONOTXT
210
0.0
220
0.0
230
1.0
  0
TEXT
  8
3
  6
CONTINUOUS
 62
     2
  5
4DF
 10
58.732667
 20
10.494833
 30
0.0
 40
0.15625
  1
Slope
  7
MONOTXT
210
0.0
220
0.0
230
1.0
  0
TEXT
  8
3
  6
CONTINUOUS
 62
     2
  5
4E0
 10
58.9225
 20
10.226917
 30
0.0
 40
0.15625
  1
of
  7
MONOTXT
210
0.0
220
0.0
230
1.0
  0
TEXT
  8
3
  6
CONTINUOUS
 62
     2
  5
4E1
 10
58.896417
 20
9.959083
 30
0.0
 40
0.15625
  1
Fill
  7
MONOTXT
210
0.0
220
0.0
230
1.0
  0
TEXT
  8
3
  6
CONTINUOUS
 62
     2
  5
4E2
 10
61.485833
 20
10.484083
 30
0.0
 40
0.234333
  1
DIMENSIONS
  7
MONOTXT
210
0.0
220
0.0
230
1.0
  0
TEXT
  8
3
  6
CONTINUOUS
 62
     2
  5
4E3
 10
66.44925
 20
10.47125
 30
0.0
 40
0.234333
  1
REINFORCEMENT
  7
MONOTXT
210
0.0
220
0.0
230
1.0
  0
TEXT
  8
3
  6
CONTINUOUS
 62
     2
  5
4E4
 10
70.163083
 20
10.47125
 30
0.0
 40
0.234333
  1
QUANTITIES
  7
MONOTXT
210
0.0
220
0.0
230
1.0
  0
TEXT
  8
3
  6
CONTINUOUS
 62
     2
  5
4E5
 10
59.628
 20
9.806833
 30
0.0
 40
0.3125
  1
A 
  7
MONOTXT
210
0.0
220
0.0
230
1.0
  0
TEXT
  8
3
  6
CONTINUOUS
 62
     2
  5
4E6
 10
60.4075
 20
9.794
 30
0.0
 40
0.3125
  1
B  
  7
MONOTXT
210
0.0
220
0.0
230
1.0
  0
TEXT
  8
3
  6
CONTINUOUS
 62
     2
  5
4E7
 10
61.174167
 20
9.806833
 30
0.0
 40
0.3125
  1
C
  7
MONOTXT
210
0.0
220
0.0
230
1.0
  0
TEXT
  8
3
  6
CONTINUOUS
 62
     2
  5
4E8
 10
61.91525
 20
9.806833
 30
0.0
 40
0.3125
  1
D
  7
MONOTXT
210
0.0
220
0.0
230
1.0
  0
TEXT
  8
3
  6
CONTINUOUS
 62
     2
  5
4E9
 10
62.66925
 20
9.806833
 30
0.0
 40
0.3125
  1
E
  7
MONOTXT
210
0.0
220
0.0
230
1.0
  0
TEXT
  8
3
  6
CONTINUOUS
 62
     2
  5
4EA
 10
63.461417
 20
9.806833
 30
0.0
 40
0.3125
  1
F
  7
MONOTXT
210
0.0
220
0.0
230
1.0
  0
TEXT
  8
3
  6
CONTINUOUS
 62
     2
  5
4EB
 10
64.240917
 20
9.806833
 30
0.0
 40
0.3125
  1
G
  7
MONOTXT
210
0.0
220
0.0
230
1.0
  0
TEXT
  8
3
  6
CONTINUOUS
 62
     2
  5
4EC
 10
64.982083
 20
9.806833
 30
0.0
 40
0.3125
  1
H
  7
MONOTXT
210
0.0
220
0.0
230
1.0
  0
TEXT
  8
3
  6
CONTINUOUS
 62
     2
  5
4ED
 10
65.616667
 20
9.900833
 30
0.0
 40
0.15625
  1
Mark
  7
MONOTXT
210
0.0
220
0.0
230
1.0
  0
TEXT
  8
3
  6
CONTINUOUS
 62
     2
  5
4EE
 10
66.271917
 20
9.90975
 30
0.0
 40
0.15625
  1
Size
  7
MONOTXT
210
0.0
220
0.0
230
1.0
  0
TEXT
  8
3
  6
CONTINUOUS
 62
     2
  5
4EF
 10
66.84525
 20
10.034333
 30
0.0
 40
0.15625
  1
No.of
  7
MONOTXT
210
0.0
220
0.0
230
1.0
  0
TEXT
  8
3
  6
CONTINUOUS
 62
     2
  5
4F0
 10
66.897333
 20
9.766417
 30
0.0
 40
0.15625
  1
Bars
  7
MONOTXT
210
0.0
220
0.0
230
1.0
  0
TEXT
  8
3
  6
CONTINUOUS
 62
     2
  5
4F1
 10
67.709167
 20
9.7135
 30
0.0
 40
0.15625
  1
a   
  7
MONOTXT
210
0.0
220
0.0
230
1.0
  0
TEXT
  8
3
  6
CONTINUOUS
 62
     2
  5
4F2
 10
68.3405
 20
9.7135
 30
0.0
 40
0.15625
  1
b
  7
MONOTXT
210
0.0
220
0.0
230
1.0
  0
TEXT
  8
3
  6
CONTINUOUS
 62
     2
  5
4F3
 10
68.740833
 20
9.7135
 30
0.0
 40
0.15625
  1
Total
  7
MONOTXT
210
0.0
220
0.0
230
1.0
  0
TEXT
  8
3
  6
CONTINUOUS
 62
     2
  5
4F4
 10
67.956083
 20
10.008917
 30
0.0
 40
0.15625
  1
LENGTH
  7
MONOTXT
210
0.0
220
0.0
230
1.0
  0
TEXT
  8
3
  6
CONTINUOUS
 62
     2
  5
4F5
 10
69.404333
 20
9.813167
 30
0.0
 40
0.15625
  1
Type
  7
MONOTXT
210
0.0
220
0.0
230
1.0
  0
TEXT
  8
3
  6
CONTINUOUS
 62
     2
  5
4F6
 10
57.846083
 20
4.597333
 30
0.0
 40
0.15625
  1
* DIMENSIONS FOR INLET WINGWALLS ON CORRUGATED METAL PIPE (TO ACCOMMODATE THE BEVEL).
  7
MONOTXT
210
0.0
220
0.0
230
1.0
  0
TEXT
  8
3
  6
CONTINUOUS
 62
     2
  5
4F7
 10
57.846083
 20
4.329417
 30
0.0
 40
0.15625
  1
  DIMENSIONS FOR INLET WINGWALLS ON CONCRETE PIPE AND ALL OUTLET WINGWALLS.
  7
MONOTXT
210
0.0
220
0.0
230
1.0
  0
TEXT
  8
3
  6
CONTINUOUS
 62
     2
  5
4F8
 10
57.846083
 20
4.344
 30
0.0
 40
0.15625
  1
t
  7
MONOTXT
210
0.0
220
0.0
230
1.0
  0
TEXT
  8
3
  6
CONTINUOUS
 62
     2
  5
4F9
 10
70.05
 20
10.10075
 30
0.0
 40
0.15625
  1
CONC
 41
1.1344
  7
MONOTXT
210
0.0
220
0.0
230
1.0
  0
TEXT
  8
3
  6
CONTINUOUS
 62
     2
  5
4FA
 10
70.05
 20
9.890417
 30
0.0
 40
0.15625
  1
(R.C.P.)
 41
0.795733
  7
MONOTXT
210
0.0
220
0.0
230
1.0
  0
TEXT
  8
3
  6
CONTINUOUS
 62
     2
  5
4FB
 10
70.05
 20
9.694583
 30
0.0
 40
0.15625
  1
 C.Y. 
 41
0.9168
  7
MONOTXT
210
0.0
220
0.0
230
1.0
  0
TEXT
  8
3
  6
CONTINUOUS
 62
     2
  5
4FC
 10
70.798583
 20
10.10075
 30
0.0
 40
0.15625
  1
CONC
 41
1.1344
  7
MONOTXT
210
0.0
220
0.0
230
1.0
  0
TEXT
  8
3
  6
CONTINUOUS
 62
     2
  5
4FD
 10
70.798583
 20
9.890417
 30
0.0
 40
0.15625
  1
(C.M.P.)
 41
0.776
  7
MONOTXT
210
0.0
220
0.0
230
1.0
  0
TEXT
  8
3
  6
CONTINUOUS
 62
     2
  5
4FE
 10
70.798583
 20
9.694583
 30
0.0
 40
0.15625
  1
 C.Y. 
 41
0.9168
  7
MONOTXT
210
0.0
220
0.0
230
1.0
  0
TEXT
  8
3
  6
CONTINUOUS
 62
     2
  5
4FF
 10
71.552167
 20
9.999833
 30
0.0
 40
0.15625
  1
STEEL
  7
MONOTXT
210
0.0
220
0.0
230
1.0
  0
TEXT
  8
3
  6
CONTINUOUS
 62
     2
  5
500
 10
71.653
 20
9.731917
 30
0.0
 40
0.15625
  1
LBS.
  7
MONOTXT
210
0.0
220
0.0
230
1.0
  0
TEXT
  8
3
  6
CONTINUOUS
 62
     2
  5
501
 10
58.036083
 20
9.326417
 30
0.0
 40
0.15625
  1
15"
  7
MONOTXT
210
0.0
220
0.0
230
1.0
  0
TEXT
  8
3
  6
CONTINUOUS
 62
     2
  5
502
 10
58.036083
 20
8.396083
 30
0.0
 40
0.15625
  1
18"
  7
MONOTXT
210
0.0
220
0.0
230
1.0
  0
TEXT
  8
3
  6
CONTINUOUS
 62
     2
  5
503
 10
58.015083
 20
7.451417
 30
0.0
 40
0.15625
  1
24" 
  7
MONOTXT
210
0.0
220
0.0
230
1.0
  0
TEXT
  8
3
  6
CONTINUOUS
 62
     2
  5
504
 10
58.036083
 20
6.506583
 30
0.0
 40
0.15625
  1
30"
  7
MONOTXT
210
0.0
220
0.0
230
1.0
  0
TEXT
  8
3
  6
CONTINUOUS
 62
     2
  5
505
 10
58.036083
 20
5.55525
 30
0.0
 40
0.15625
  1
36"
  7
MONOTXT
210
0.0
220
0.0
230
1.0
  0
TEXT
  8
3
  6
CONTINUOUS
 62
     2
  5
506
 10
58.859667
 20
9.326417
 30
0.0
 40
0.15625
  1
2:1
  7
MONOTXT
210
0.0
220
0.0
230
1.0
  0
TEXT
  8
3
  6
CONTINUOUS
 62
     2
  5
507
 10
58.859667
 20
8.396083
 30
0.0
 40
0.15625
  1
2:1
  7
MONOTXT
210
0.0
220
0.0
230
1.0
  0
TEXT
  8
3
  6
CONTINUOUS
 62
     2
  5
508
 10
58.8385
 20
7.451417
 30
0.0
 40
0.15625
  1
2:1
  7
MONOTXT
210
0.0
220
0.0
230
1.0
  0
TEXT
  8
3
  6
CONTINUOUS
 62
     2
  5
509
 10
58.859667
 20
6.506583
 30
0.0
 40
0.15625
  1
2:1
  7
MONOTXT
210
0.0
220
0.0
230
1.0
  0
TEXT
  8
3
  6
CONTINUOUS
 62
     2
  5
50A
 10
58.859667
 20
5.55525
 30
0.0
 40
0.15625
  1
2:1
  7
MONOTXT
210
0.0
220
0.0
230
1.0
  0
LINE
  8
3
  6
CONTINUOUS
 62
     2
  5
50B
 10
60.173333
 20
8.700417
 30
0.0
 11
60.173333
 21
8.03475
 31
0.0
  0
LINE
  8
3
  6
CONTINUOUS
 62
     2
  5
50C
 10
60.97725
 20
8.700417
 30
0.0
 11
60.97725
 21
8.03475
 31
0.0
  0
LINE
  8
3
  6
CONTINUOUS
 62
     2
  5
50D
 10
61.705917
 20
8.700417
 30
0.0
 11
61.705917
 21
8.03475
 31
0.0
  0
LINE
  8
3
  6
CONTINUOUS
 62
     2
  5
50E
 10
62.484667
 20
8.700417
 30
0.0
 11
62.484667
 21
8.03475
 31
0.0
  0
LINE
  8
3
  6
CONTINUOUS
 62
     2
  5
50F
 10
63.30125
 20
8.700417
 30
0.0
 11
63.30125
 21
8.03475
 31
0.0
  0
LINE
  8
3
  6
CONTINUOUS
 62
     2
  5
510
 10
64.064667
 20
8.700417
 30
0.0
 11
64.064667
 21
8.03475
 31
0.0
  0
LINE
  8
3
  6
CONTINUOUS
 62
     2
  5
511
 10
64.758417
 20
8.964167
 30
0.0
 11
64.758417
 21
4.881833
 31
0.0
  0
LINE
  8
3
  6
CONTINUOUS
 62
     2
  5
512
 10
60.173333
 20
7.708083
 30
0.0
 11
60.173333
 21
7.092667
 31
0.0
  0
LINE
  8
3
  6
CONTINUOUS
 62
     2
  5
513
 10
60.97725
 20
7.708083
 30
0.0
 11
60.97725
 21
7.092667
 31
0.0
  0
LINE
  8
3
  6
CONTINUOUS
 62
     2
  5
514
 10
61.705917
 20
7.708083
 30
0.0
 11
61.705917
 21
7.092667
 31
0.0
  0
LINE
  8
3
  6
CONTINUOUS
 62
     2
  5
515
 10
62.484667
 20
7.708083
 30
0.0
 11
62.484667
 21
7.092667
 31
0.0
  0
LINE
  8
3
  6
CONTINUOUS
 62
     2
  5
516
 10
63.30125
 20
7.708083
 30
0.0
 11
63.30125
 21
7.092667
 31
0.0
  0
LINE
  8
3
  6
CONTINUOUS
 62
     2
  5
517
 10
64.064667
 20
7.708083
 30
0.0
 11
64.064667
 21
7.092667
 31
0.0
  0
LINE
  8
3
  6
CONTINUOUS
 62
     2
  5
518
 10
60.173333
 20
6.766
 30
0.0
 11
60.173333
 21
6.137917
 31
0.0
  0
LINE
  8
3
  6
CONTINUOUS
 62
     2
  5
519
 10
60.97725
 20
6.766
 30
0.0
 11
60.97725
 21
6.137917
 31
0.0
  0
LINE
  8
3
  6
CONTINUOUS
 62
     2
  5
51A
 10
61.705917
 20
6.766
 30
0.0
 11
61.705917
 21
6.137917
 31
0.0
  0
LINE
  8
3
  6
CONTINUOUS
 62
     2
  5
51B
 10
62.484667
 20
6.766
 30
0.0
 11
62.484667
 21
6.137917
 31
0.0
  0
LINE
  8
3
  6
CONTINUOUS
 62
     2
  5
51C
 10
63.30125
 20
6.766
 30
0.0
 11
63.30125
 21
6.137917
 31
0.0
  0
LINE
  8
3
  6
CONTINUOUS
 62
     2
  5
51D
 10
64.064667
 20
6.766
 30
0.0
 11
64.064667
 21
6.137917
 31
0.0
  0
LINE
  8
3
  6
CONTINUOUS
 62
     2
  5
51E
 10
60.173333
 20
5.823917
 30
0.0
 11
60.173333
 21
5.19575
 31
0.0
  0
LINE
  8
3
  6
CONTINUOUS
 62
     2
  5
51F
 10
60.97725
 20
5.823917
 30
0.0
 11
60.97725
 21
5.19575
 31
0.0
  0
LINE
  8
3
  6
CONTINUOUS
 62
     2
  5
520
 10
61.705917
 20
5.823917
 30
0.0
 11
61.705917
 21
5.19575
 31
0.0
  0
LINE
  8
3
  6
CONTINUOUS
 62
     2
  5
521
 10
62.484667
 20
5.823917
 30
0.0
 11
62.484667
 21
5.19575
 31
0.0
  0
LINE
  8
3
  6
CONTINUOUS
 62
     2
  5
522
 10
63.30125
 20
5.823917
 30
0.0
 11
63.30125
 21
5.19575
 31
0.0
  0
LINE
  8
3
  6
CONTINUOUS
 62
     2
  5
523
 10
64.064667
 20
5.823917
 30
0.0
 11
64.064667
 21
5.19575
 31
0.0
  0
TEXT
  8
3
  6
CONTINUOUS
 62
     2
  5
524
 10
60.168083
 20
8.745333
 30
0.0
 40
0.15625
  1
BEVEL:DEPTH=3/4" LENGTH=1"
  7
MONOTXT
210
0.0
220
0.0
230
1.0
  0
TEXT
  8
3
  6
CONTINUOUS
 62
     2
  5
525
 10
60.168083
 20
7.781917
 30
0.0
 40
0.15625
  1
BEVEL:DEPTH=3/4" LENGTH=1 1/4"
  7
MONOTXT
210
0.0
220
0.0
230
1.0
  0
TEXT
  8
3
  6
CONTINUOUS
 62
     2
  5
526
 10
60.168083
 20
6.86225
 30
0.0
 40
0.15625
  1
BEVEL:DEPTH=1"    LENGTH=1 1/2"
  7
MONOTXT
210
0.0
220
0.0
230
1.0
  0
TEXT
  8
3
  6
CONTINUOUS
 62
     2
  5
527
 10
60.168083
 20
5.914583
 30
0.0
 40
0.15625
  1
BEVEL:DEPTH=1 1/4" LENGTH=2"
  7
MONOTXT
210
0.0
220
0.0
230
1.0
  0
TEXT
  8
3
  6
CONTINUOUS
 62
     2
  5
528
 10
60.168083
 20
4.967083
 30
0.0
 40
0.15625
  1
BEVEL:DEPTH=1 1/2" LENGTH=2 1/4"
  7
MONOTXT
210
0.0
220
0.0
230
1.0
  0
TEXT
  8
3
  6
CONTINUOUS
 62
     2
  5
529
 10
59.568417
 20
9.321083
 30
0.0
 40
0.117167
  1
2'-0"
  7
MONOTXT
210
0.0
220
0.0
230
1.0
  0
TEXT
  8
3
  6
CONTINUOUS
 62
     2
  5
52A
 10
59.568417
 20
9.05325
 30
0.0
 40
0.117167
  1
2'-2"
  7
MONOTXT
210
0.0
220
0.0
230
1.0
  0
TEXT
  8
3
  6
CONTINUOUS
 62
     2
  5
52B
 10
59.568417
 20
8.3975
 30
0.0
 40
0.117167
  1
2'-0"
  7
MONOTXT
210
0.0
220
0.0
230
1.0
  0
TEXT
  8
3
  6
CONTINUOUS
 62
     2
  5
52C
 10
59.568417
 20
8.12975
 30
0.0
 40
0.117167
  1
2'-2"
  7
MONOTXT
210
0.0
220
0.0
230
1.0
  0
TEXT
  8
3
  6
CONTINUOUS
 62
     2
  5
52D
 10
59.568417
 20
7.438083
 30
0.0
 40
0.117167
  1
2'-8"
  7
MONOTXT
210
0.0
220
0.0
230
1.0
  0
TEXT
  8
3
  6
CONTINUOUS
 62
     2
  5
52E
 10
59.568417
 20
7.17025
 30
0.0
 40
0.117167
  1
2'-10"
  7
MONOTXT
210
0.0
220
0.0
230
1.0
  0
TEXT
  8
3
  6
CONTINUOUS
 62
     2
  5
52F
 10
59.568417
 20
6.490583
 30
0.0
 40
0.117167
  1
3'-1"
  7
MONOTXT
210
0.0
220
0.0
230
1.0
  0
TEXT
  8
3
  6
CONTINUOUS
 62
     2
  5
530
 10
59.568417
 20
6.22275
 30
0.0
 40
0.117167
  1
3'-4"
  7
MONOTXT
210
0.0
220
0.0
230
1.0
  0
TEXT
  8
3
  6
CONTINUOUS
 62
     2
  5
531
 10
59.568417
 20
5.555
 30
0.0
 40
0.117167
  1
3'-9"
  7
MONOTXT
210
0.0
220
0.0
230
1.0
  0
TEXT
  8
3
  6
CONTINUOUS
 62
     2
  5
532
 10
59.568417
 20
5.28725
 30
0.0
 40
0.117167
  1
4'-0"
  7
MONOTXT
210
0.0
220
0.0
230
1.0
  0
TEXT
  8
3
  6
CONTINUOUS
 62
     2
  5
533
 10
59.484417
 20
9.477
 30
0.0
 40
0.117167
  1
*
  7
MONOTXT
210
0.0
220
0.0
230
1.0
  0
TEXT
  8
3
  6
CONTINUOUS
 62
     2
  5
534
 10
59.484417
 20
8.4935
 30
0.0
 40
0.117167
  1
*
  7
MONOTXT
210
0.0
220
0.0
230
1.0
  0
TEXT
  8
3
  6
CONTINUOUS
 62
     2
  5
535
 10
59.484417
 20
7.521917
 30
0.0
 40
0.117167
  1
*
  7
MONOTXT
210
0.0
220
0.0
230
1.0
  0
TEXT
  8
3
  6
CONTINUOUS
 62
     2
  5
536
 10
59.484417
 20
6.586417
 30
0.0
 40
0.117167
  1
*
  7
MONOTXT
210
0.0
220
0.0
230
1.0
  0
TEXT
  8
3
  6
CONTINUOUS
 62
     2
  5
537
 10
59.484417
 20
5.65075
 30
0.0
 40
0.117167
  1
*
  7
MONOTXT
210
0.0
220
0.0
230
1.0
  0
TEXT
  8
3
  6
CONTINUOUS
 62
     2
  5
538
 10
59.484417
 20
9.13225
 30
0.0
 40
0.117167
  1
t
  7
MONOTXT
210
0.0
220
0.0
230
1.0
  0
TEXT
  8
3
  6
CONTINUOUS
 62
     2
  5
539
 10
59.484417
 20
8.184583
 30
0.0
 40
0.117167
  1
t
  7
MONOTXT
210
0.0
220
0.0
230
1.0
  0
TEXT
  8
3
  6
CONTINUOUS
 62
     2
  5
53A
 10
59.484417
 20
7.249083
 30
0.0
 40
0.117167
  1
t
  7
MONOTXT
210
0.0
220
0.0
230
1.0
  0
TEXT
  8
3
  6
CONTINUOUS
 62
     2
  5
53B
 10
59.484417
 20
6.2895
 30
0.0
 40
0.117167
  1
t
  7
MONOTXT
210
0.0
220
0.0
230
1.0
  0
TEXT
  8
3
  6
CONTINUOUS
 62
     2
  5
53C
 10
59.484417
 20
5.354
 30
0.0
 40
0.117167
  1
t
  7
MONOTXT
210
0.0
220
0.0
230
1.0
  0
TEXT
  8
3
  6
CONTINUOUS
 62
     2
  5
53D
 10
60.336083
 20
9.321083
 30
0.0
 40
0.117167
  1
0'-10"
  7
MONOTXT
210
0.0
220
0.0
230
1.0
  0
TEXT
  8
3
  6
CONTINUOUS
 62
     2
  5
53E
 10
60.336083
 20
8.388583
 30
0.0
 40
0.117167
  1
1'-1"
  7
MONOTXT
210
0.0
220
0.0
230
1.0
  0
TEXT
  8
3
  6
CONTINUOUS
 62
     2
  5
53F
 10
60.336083
 20
7.45
 30
0.0
 40
0.117167
  1
1'-4"
  7
MONOTXT
210
0.0
220
0.0
230
1.0
  0
TEXT
  8
3
  6
CONTINUOUS
 62
     2
  5
540
 10
60.336083
 20
6.4935
 30
0.0
 40
0.117167
  1
1'-7"
  7
MONOTXT
210
0.0
220
0.0
230
1.0
  0
TEXT
  8
3
  6
CONTINUOUS
 62
     2
  5
541
 10
60.336083
 20
5.560833
 30
0.0
 40
0.117167
  1
1'-10"
  7
MONOTXT
210
0.0
220
0.0
230
1.0
  0
TEXT
  8
3
  6
CONTINUOUS
 62
     2
  5
542
 10
61.12775
 20
9.321083
 30
0.0
 40
0.117167
  1
1'-11"
  7
MONOTXT
210
0.0
220
0.0
230
1.0
  0
TEXT
  8
3
  6
CONTINUOUS
 62
     2
  5
543
 10
61.12775
 20
8.388583
 30
0.0
 40
0.117167
  1
2'-2"
  7
MONOTXT
210
0.0
220
0.0
230
1.0
  0
TEXT
  8
3
  6
CONTINUOUS
 62
     2
  5
544
 10
61.8235
 20
9.321083
 30
0.0
 40
0.117167
  1
2'-0"
  7
MONOTXT
210
0.0
220
0.0
230
1.0
  0
TEXT
  8
3
  6
CONTINUOUS
 62
     2
  5
545
 10
61.8235
 20
8.388583
 30
0.0
 40
0.117167
  1
2'-3"
  7
MONOTXT
210
0.0
220
0.0
230
1.0
  0
TEXT
  8
3
  6
CONTINUOUS
 62
     2
  5
546
 10
62.543167
 20
9.321083
 30
0.0
 40
0.117167
  1
6'-7  "
  7
MONOTXT
210
0.0
220
0.0
230
1.0
  0
TEXT
  8
3
  6
CONTINUOUS
 62
     2
  5
547
 10
63.346917
 20
9.321083
 30
0.0
 40
0.117167
  1
3'-3  "
  7
MONOTXT
210
0.0
220
0.0
230
1.0
  0
TEXT
  8
3
  6
CONTINUOUS
 62
     2
  5
548
 10
62.914333
 20
9.381833
 30
0.0
 40
0.073167
  1
1/2
  7
MONOTXT
210
0.0
220
0.0
230
1.0
  0
TEXT
  8
3
  6
CONTINUOUS
 62
     2
  5
549
 10
63.741917
 20
9.384667
 30
0.0
 40
0.073167
  1
1/4
  7
MONOTXT
210
0.0
220
0.0
230
1.0
  0
TEXT
  8
3
  6
CONTINUOUS
 62
     2
  5
54A
 10
62.514
 20
8.3975
 30
0.0
 40
0.117167
  1
6'-10  "
  7
MONOTXT
210
0.0
220
0.0
230
1.0
  0
TEXT
  8
3
  6
CONTINUOUS
 62
     2
  5
54B
 10
62.957583
 20
8.463667
 30
0.0
 40
0.073167
  1
1/2
  7
MONOTXT
210
0.0
220
0.0
230
1.0
  0
TEXT
  8
3
  6
CONTINUOUS
 62
     2
  5
54C
 10
63.346917
 20
8.3975
 30
0.0
 40
0.117167
  1
3'-3  "
  7
MONOTXT
210
0.0
220
0.0
230
1.0
  0
TEXT
  8
3
  6
CONTINUOUS
 62
     2
  5
54D
 10
61.13125
 20
7.45
 30
0.0
 40
0.117167
  1
2'-9"
  7
MONOTXT
210
0.0
220
0.0
230
1.0
  0
TEXT
  8
3
  6
CONTINUOUS
 62
     2
  5
54E
 10
61.13125
 20
6.4935
 30
0.0
 40
0.117167
  1
3'-3"
  7
MONOTXT
210
0.0
220
0.0
230
1.0
  0
TEXT
  8
3
  6
CONTINUOUS
 62
     2
  5
54F
 10
61.13125
 20
5.560833
 30
0.0
 40
0.117167
  1
3'-10"
  7
MONOTXT
210
0.0
220
0.0
230
1.0
  0
TEXT
  8
3
  6
CONTINUOUS
 62
     2
  5
550
 10
61.853333
 20
7.45
 30
0.0
 40
0.117167
  1
2'-11"
  7
MONOTXT
210
0.0
220
0.0
230
1.0
  0
TEXT
  8
3
  6
CONTINUOUS
 62
     2
  5
551
 10
61.853333
 20
6.4935
 30
0.0
 40
0.117167
  1
3'-5"
  7
MONOTXT
210
0.0
220
0.0
230
1.0
  0
TEXT
  8
3
  6
CONTINUOUS
 62
     2
  5
552
 10
61.853333
 20
5.560833
 30
0.0
 40
0.117167
  1
4'-1"
  7
MONOTXT
210
0.0
220
0.0
230
1.0
  0
TEXT
  8
3
  6
CONTINUOUS
 62
     2
  5
553
 10
62.514
 20
7.449167
 30
0.0
 40
0.117167
  1
8'-10  "
  7
MONOTXT
210
0.0
220
0.0
230
1.0
  0
TEXT
  8
3
  6
CONTINUOUS
 62
     2
  5
554
 10
63.346917
 20
7.449167
 30
0.0
 40
0.117167
  1
4'-2  "
  7
MONOTXT
210
0.0
220
0.0
230
1.0
  0
TEXT
  8
3
  6
CONTINUOUS
 62
     2
  5
555
 10
62.514
 20
6.493583
 30
0.0
 40
0.117167
  1
10'-4  "
  7
MONOTXT
210
0.0
220
0.0
230
1.0
  0
TEXT
  8
3
  6
CONTINUOUS
 62
     2
  5
556
 10
63.346917
 20
6.493583
 30
0.0
 40
0.117167
  1
4'-11"
  7
MONOTXT
210
0.0
220
0.0
230
1.0
  0
TEXT
  8
3
  6
CONTINUOUS
 62
     2
  5
557
 10
62.514
 20
5.559917
 30
0.0
 40
0.117167
  1
12'-4  "
  7
MONOTXT
210
0.0
220
0.0
230
1.0
  0
TEXT
  8
3
  6
CONTINUOUS
 62
     2
  5
558
 10
63.3275
 20
5.558833
 30
0.0
 40
0.117167
  1
5'-10  "
  7
MONOTXT
210
0.0
220
0.0
230
1.0
  0
TEXT
  8
3
  6
CONTINUOUS
 62
     2
  5
559
 10
62.99075
 20
7.518
 30
0.0
 40
0.073167
  1
1/2
  7
MONOTXT
210
0.0
220
0.0
230
1.0
  0
TEXT
  8
3
  6
CONTINUOUS
 62
     2
  5
55A
 10
63.005833
 20
6.541833
 30
0.0
 40
0.073167
  1
1/2
  7
MONOTXT
210
0.0
220
0.0
230
1.0
  0
TEXT
  8
3
  6
CONTINUOUS
 62
     2
  5
55B
 10
62.998083
 20
5.608667
 30
0.0
 40
0.073167
  1
1/2
  7
MONOTXT
210
0.0
220
0.0
230
1.0
  0
TEXT
  8
3
  6
CONTINUOUS
 62
     2
  5
55C
 10
63.806
 20
5.6085
 30
0.0
 40
0.073167
  1
1/2
  7
MONOTXT
210
0.0
220
0.0
230
1.0
  0
TEXT
  8
3
  6
CONTINUOUS
 62
     2
  5
55D
 10
63.755917
 20
7.513583
 30
0.0
 40
0.073167
  1
1/2
  7
MONOTXT
210
0.0
220
0.0
230
1.0
  0
TEXT
  8
3
  6
CONTINUOUS
 62
     2
  5
55E
 10
64.138333
 20
9.477
 30
0.0
 40
0.117167
  1
*
  7
MONOTXT
210
0.0
220
0.0
230
1.0
  0
TEXT
  8
3
  6
CONTINUOUS
 62
     2
  5
55F
 10
64.222333
 20
9.321083
 30
0.0
 40
0.117167
  1
0'-8"
  7
MONOTXT
210
0.0
220
0.0
230
1.0
  0
TEXT
  8
3
  6
CONTINUOUS
 62
     2
  5
560
 10
64.138333
 20
9.13225
 30
0.0
 40
0.117167
  1
t
  7
MONOTXT
210
0.0
220
0.0
230
1.0
  0
TEXT
  8
3
  6
CONTINUOUS
 62
     2
  5
561
 10
64.222333
 20
9.002083
 30
0.0
 40
0.117167
  1
0'-6"
  7
MONOTXT
210
0.0
220
0.0
230
1.0
  0
TEXT
  8
3
  6
CONTINUOUS
 62
     2
  5
562
 10
64.138333
 20
5.354
 30
0.0
 40
0.117167
  1
t
  7
MONOTXT
210
0.0
220
0.0
230
1.0
  0
TEXT
  8
3
  6
CONTINUOUS
 62
     2
  5
563
 10
64.138333
 20
6.2895
 30
0.0
 40
0.117167
  1
t
  7
MONOTXT
210
0.0
220
0.0
230
1.0
  0
TEXT
  8
3
  6
CONTINUOUS
 62
     2
  5
564
 10
64.138333
 20
7.249083
 30
0.0
 40
0.117167
  1
t
  7
MONOTXT
210
0.0
220
0.0
230
1.0
  0
TEXT
  8
3
  6
CONTINUOUS
 62
     2
  5
565
 10
64.138333
 20
8.184583
 30
0.0
 40
0.117167
  1
t
  7
MONOTXT
210
0.0
220
0.0
230
1.0
  0
TEXT
  8
3
  6
CONTINUOUS
 62
     2
  5
566
 10
64.138333
 20
5.65075
 30
0.0
 40
0.117167
  1
*
  7
MONOTXT
210
0.0
220
0.0
230
1.0
  0
TEXT
  8
3
  6
CONTINUOUS
 62
     2
  5
567
 10
64.138333
 20
6.586417
 30
0.0
 40
0.117167
  1
*
  7
MONOTXT
210
0.0
220
0.0
230
1.0
  0
TEXT
  8
3
  6
CONTINUOUS
 62
     2
  5
568
 10
64.138333
 20
7.521917
 30
0.0
 40
0.117167
  1
*
  7
MONOTXT
210
0.0
220
0.0
230
1.0
  0
TEXT
  8
3
  6
CONTINUOUS
 62
     2
  5
569
 10
64.138333
 20
8.4935
 30
0.0
 40
0.117167
  1
*
  7
MONOTXT
210
0.0
220
0.0
230
1.0
  0
TEXT
  8
3
  6
CONTINUOUS
 62
     2
  5
56A
 10
64.222333
 20
5.22875
 30
0.0
 40
0.117167
  1
0'-6"
  7
MONOTXT
210
0.0
220
0.0
230
1.0
  0
TEXT
  8
3
  6
CONTINUOUS
 62
     2
  5
56B
 10
64.222333
 20
5.533167
 30
0.0
 40
0.117167
  1
0'-9"
  7
MONOTXT
210
0.0
220
0.0
230
1.0
  0
TEXT
  8
3
  6
CONTINUOUS
 62
     2
  5
56C
 10
64.222333
 20
6.164333
 30
0.0
 40
0.117167
  1
0'-6"
  7
MONOTXT
210
0.0
220
0.0
230
1.0
  0
TEXT
  8
3
  6
CONTINUOUS
 62
     2
  5
56D
 10
64.222333
 20
6.461417
 30
0.0
 40
0.117167
  1
0'-9"
  7
MONOTXT
210
0.0
220
0.0
230
1.0
  0
TEXT
  8
3
  6
CONTINUOUS
 62
     2
  5
56E
 10
64.222333
 20
7.126417
 30
0.0
 40
0.117167
  1
0'-6"
  7
MONOTXT
210
0.0
220
0.0
230
1.0
  0
TEXT
  8
3
  6
CONTINUOUS
 62
     2
  5
56F
 10
64.222333
 20
7.408917
 30
0.0
 40
0.117167
  1
0'-8"
  7
MONOTXT
210
0.0
220
0.0
230
1.0
  0
TEXT
  8
3
  6
CONTINUOUS
 62
     2
  5
570
 10
64.222333
 20
8.071417
 30
0.0
 40
0.117167
  1
0'-6"
  7
MONOTXT
210
0.0
220
0.0
230
1.0
  0
TEXT
  8
3
  6
CONTINUOUS
 62
     2
  5
571
 10
64.222333
 20
8.368333
 30
0.0
 40
0.117167
  1
0'-8"
  7
MONOTXT
210
0.0
220
0.0
230
1.0
  0
TEXT
  8
3
  6
CONTINUOUS
 62
     2
  5
572
 10
64.787583
 20
9.477
 30
0.0
 40
0.117167
  1
*
  7
MONOTXT
210
0.0
220
0.0
230
1.0
  0
TEXT
  8
3
  6
CONTINUOUS
 62
     2
  5
573
 10
64.82775
 20
9.321083
 30
0.0
 40
0.117167
  1
0'-5  "
  7
MONOTXT
210
0.0
220
0.0
230
1.0
  0
TEXT
  8
3
  6
CONTINUOUS
 62
     2
  5
574
 10
64.787583
 20
9.13225
 30
0.0
 40
0.117167
  1
t
  7
MONOTXT
210
0.0
220
0.0
230
1.0
  0
TEXT
  8
3
  6
CONTINUOUS
 62
     2
  5
575
 10
64.78025
 20
5.354
 30
0.0
 40
0.117167
  1
t
  7
MONOTXT
210
0.0
220
0.0
230
1.0
  0
TEXT
  8
3
  6
CONTINUOUS
 62
     2
  5
576
 10
64.773
 20
6.2895
 30
0.0
 40
0.117167
  1
t
  7
MONOTXT
210
0.0
220
0.0
230
1.0
  0
TEXT
  8
3
  6
CONTINUOUS
 62
     2
  5
577
 10
64.787583
 20
7.249083
 30
0.0
 40
0.117167
  1
t
  7
MONOTXT
210
0.0
220
0.0
230
1.0
  0
TEXT
  8
3
  6
CONTINUOUS
 62
     2
  5
578
 10
64.78025
 20
8.184583
 30
0.0
 40
0.117167
  1
t
  7
MONOTXT
210
0.0
220
0.0
230
1.0
  0
TEXT
  8
3
  6
CONTINUOUS
 62
     2
  5
579
 10
64.78025
 20
5.65075
 30
0.0
 40
0.117167
  1
*
  7
MONOTXT
210
0.0
220
0.0
230
1.0
  0
TEXT
  8
3
  6
CONTINUOUS
 62
     2
  5
57A
 10
64.794833
 20
6.586417
 30
0.0
 40
0.117167
  1
*
  7
MONOTXT
210
0.0
220
0.0
230
1.0
  0
TEXT
  8
3
  6
CONTINUOUS
 62
     2
  5
57B
 10
64.794833
 20
7.521917
 30
0.0
 40
0.117167
  1
*
  7
MONOTXT
210
0.0
220
0.0
230
1.0
  0
TEXT
  8
3
  6
CONTINUOUS
 62
     2
  5
57C
 10
64.78025
 20
8.4935
 30
0.0
 40
0.117167
  1
*
  7
MONOTXT
210
0.0
220
0.0
230
1.0
  0
TEXT
  8
3
  6
CONTINUOUS
 62
     2
  5
57D
 10
64.82775
 20
9.000167
 30
0.0
 40
0.117167
  1
0'-2  "
  7
MONOTXT
210
0.0
220
0.0
230
1.0
  0
TEXT
  8
3
  6
CONTINUOUS
 62
     2
  5
57E
 10
64.82775
 20
8.365417
 30
0.0
 40
0.117167
  1
0'-5  "
  7
MONOTXT
210
0.0
220
0.0
230
1.0
  0
TEXT
  8
3
  6
CONTINUOUS
 62
     2
  5
57F
 10
64.82775
 20
8.066417
 30
0.0
 40
0.117167
  1
0'-2  "
  7
MONOTXT
210
0.0
220
0.0
230
1.0
  0
TEXT
  8
3
  6
CONTINUOUS
 62
     2
  5
580
 10
64.82775
 20
7.421
 30
0.0
 40
0.117167
  1
0'-5  "
  7
MONOTXT
210
0.0
220
0.0
230
1.0
  0
TEXT
  8
3
  6
CONTINUOUS
 62
     2
  5
581
 10
64.82775
 20
7.125417
 30
0.0
 40
0.117167
  1
0'-2  "
  7
MONOTXT
210
0.0
220
0.0
230
1.0
  0
TEXT
  8
3
  6
CONTINUOUS
 62
     2
  5
582
 10
64.82775
 20
6.447
 30
0.0
 40
0.117167
  1
0'-6  "
  7
MONOTXT
210
0.0
220
0.0
230
1.0
  0
TEXT
  8
3
  6
CONTINUOUS
 62
     2
  5
583
 10
64.82775
 20
6.1625
 30
0.0
 40
0.117167
  1
0'-2  "
  7
MONOTXT
210
0.0
220
0.0
230
1.0
  0
TEXT
  8
3
  6
CONTINUOUS
 62
     2
  5
584
 10
64.837167
 20
5.535167
 30
0.0
 40
0.117167
  1
0'-6  "
  7
MONOTXT
210
0.0
220
0.0
230
1.0
  0
TEXT
  8
3
  6
CONTINUOUS
 62
     2
  5
585
 10
64.82775
 20
5.236083
 30
0.0
 40
0.117167
  1
0'-2  "
  7
MONOTXT
210
0.0
220
0.0
230
1.0
  0
TEXT
  8
3
  6
CONTINUOUS
 62
     2
  5
586
 10
65.228667
 20
9.045667
 30
0.0
 40
0.073167
  1
1/2
  7
MONOTXT
210
0.0
220
0.0
230
1.0
  0
TEXT
  8
3
  6
CONTINUOUS
 62
     2
  5
587
 10
65.2075
 20
9.37175
 30
0.0
 40
0.073167
  1
3/8
  7
MONOTXT
210
0.0
220
0.0
230
1.0
  0
TEXT
  8
3
  6
CONTINUOUS
 62
     2
  5
588
 10
65.195667
 20
8.428333
 30
0.0
 40
0.073167
  1
3/8
  7
MONOTXT
210
0.0
220
0.0
230
1.0
  0
TEXT
  8
3
  6
CONTINUOUS
 62
     2
  5
589
 10
65.216167
 20
8.125917
 30
0.0
 40
0.073167
  1
1/2
  7
MONOTXT
210
0.0
220
0.0
230
1.0
  0
TEXT
  8
3
  6
CONTINUOUS
 62
     2
  5
58A
 10
65.21675
 20
7.482
 30
0.0
 40
0.073167
  1
3/8
  7
MONOTXT
210
0.0
220
0.0
230
1.0
  0
TEXT
  8
3
  6
CONTINUOUS
 62
     2
  5
58B
 10
65.230167
 20
7.169583
 30
0.0
 40
0.073167
  1
1/2
  7
MONOTXT
210
0.0
220
0.0
230
1.0
  0
TEXT
  8
3
  6
CONTINUOUS
 62
     2
  5
58C
 10
65.210167
 20
6.509583
 30
0.0
 40
0.073167
  1
3/4
  7
MONOTXT
210
0.0
220
0.0
230
1.0
  0
TEXT
  8
3
  6
CONTINUOUS
 62
     2
  5
58D
 10
65.204917
 20
5.584083
 30
0.0
 40
0.073167
  1
3/4
  7
MONOTXT
210
0.0
220
0.0
230
1.0
  0
TEXT
  8
3
  6
CONTINUOUS
 62
     2
  5
58E
 10
65.225083
 20
5.285417
 30
0.0
 40
0.073167
  1
1/2
  7
MONOTXT
210
0.0
220
0.0
230
1.0
  0
TEXT
  8
3
  6
CONTINUOUS
 62
     2
  5
58F
 10
66.340917
 20
9.393167
 30
0.0
 40
0.117167
  1
#4
  7
MONOTXT
210
0.0
220
0.0
230
1.0
  0
TEXT
  8
3
  6
CONTINUOUS
 62
     2
  5
590
 10
67.02225
 20
9.387083
 30
0.0
 40
0.117167
  1
2
  7
MONOTXT
210
0.0
220
0.0
230
1.0
  0
TEXT
  8
3
  6
CONTINUOUS
 62
     2
  5
591
 10
67.02225
 20
9.034083
 30
0.0
 40
0.117167
  1
1
  7
MONOTXT
210
0.0
220
0.0
230
1.0
  0
TEXT
  8
3
  6
CONTINUOUS
 62
     2
  5
592
 10
67.02225
 20
8.772417
 30
0.0
 40
0.117167
  1
13
  7
MONOTXT
210
0.0
220
0.0
230
1.0
  0
TEXT
  8
3
  6
CONTINUOUS
 62
     2
  5
593
 10
67.02225
 20
8.419417
 30
0.0
 40
0.117167
  1
2
  7
MONOTXT
210
0.0
220
0.0
230
1.0
  0
TEXT
  8
3
  6
CONTINUOUS
 62
     2
  5
594
 10
67.02225
 20
8.139417
 30
0.0
 40
0.117167
  1
1
  7
MONOTXT
210
0.0
220
0.0
230
1.0
  0
TEXT
  8
3
  6
CONTINUOUS
 62
     2
  5
595
 10
67.02225
 20
7.816917
 30
0.0
 40
0.117167
  1
13
  7
MONOTXT
210
0.0
220
0.0
230
1.0
  0
TEXT
  8
3
  6
CONTINUOUS
 62
     2
  5
596
 10
67.02225
 20
7.482083
 30
0.0
 40
0.117167
  1
2
  7
MONOTXT
210
0.0
220
0.0
230
1.0
  0
TEXT
  8
3
  6
CONTINUOUS
 62
     2
  5
597
 10
67.02225
 20
7.183917
 30
0.0
 40
0.117167
  1
1
  7
MONOTXT
210
0.0
220
0.0
230
1.0
  0
TEXT
  8
3
  6
CONTINUOUS
 62
     2
  5
598
 10
67.02225
 20
6.867417
 30
0.0
 40
0.117167
  1
16
  7
MONOTXT
210
0.0
220
0.0
230
1.0
  0
TEXT
  8
3
  6
CONTINUOUS
 62
     2
  5
599
 10
67.02225
 20
6.53275
 30
0.0
 40
0.117167
  1
2
  7
MONOTXT
210
0.0
220
0.0
230
1.0
  0
TEXT
  8
3
  6
CONTINUOUS
 62
     2
  5
59A
 10
67.02225
 20
6.240417
 30
0.0
 40
0.117167
  1
1
  7
MONOTXT
210
0.0
220
0.0
230
1.0
  0
TEXT
  8
3
  6
CONTINUOUS
 62
     2
  5
59B
 10
67.02225
 20
5.917917
 30
0.0
 40
0.117167
  1
17
  7
MONOTXT
210
0.0
220
0.0
230
1.0
  0
TEXT
  8
3
  6
CONTINUOUS
 62
     2
  5
59C
 10
67.02225
 20
5.589417
 30
0.0
 40
0.117167
  1
2
  7
MONOTXT
210
0.0
220
0.0
230
1.0
  0
TEXT
  8
3
  6
CONTINUOUS
 62
     2
  5
59D
 10
67.02225
 20
5.30325
 30
0.0
 40
0.117167
  1
1
  7
MONOTXT
210
0.0
220
0.0
230
1.0
  0
TEXT
  8
3
  6
CONTINUOUS
 62
     2
  5
59E
 10
67.02225
 20
4.992917
 30
0.0
 40
0.117167
  1
21
  7
MONOTXT
210
0.0
220
0.0
230
1.0
  0
TEXT
  8
3
  6
CONTINUOUS
 62
     2
  5
59F
 10
65.763
 20
9.04025
 30
0.0
 40
0.117167
  1
h
  7
MONOTXT
210
0.0
220
0.0
230
1.0
  0
TEXT
  8
3
  6
CONTINUOUS
 62
     2
  5
5A0
 10
65.763
 20
8.7785
 30
0.0
 40
0.117167
  1
v
  7
MONOTXT
210
0.0
220
0.0
230
1.0
  0
TEXT
  8
3
  6
CONTINUOUS
 62
     2
  5
5A1
 10
65.763
 20
8.425417
 30
0.0
 40
0.117167
  1
h
  7
MONOTXT
210
0.0
220
0.0
230
1.0
  0
TEXT
  8
3
  6
CONTINUOUS
 62
     2
  5
5A2
 10
65.763
 20
8.145583
 30
0.0
 40
0.117167
  1
h
  7
MONOTXT
210
0.0
220
0.0
230
1.0
  0
TEXT
  8
3
  6
CONTINUOUS
 62
     2
  5
5A3
 10
65.763
 20
7.822917
 30
0.0
 40
0.117167
  1
v
  7
MONOTXT
210
0.0
220
0.0
230
1.0
  0
TEXT
  8
3
  6
CONTINUOUS
 62
     2
  5
5A4
 10
65.763
 20
7.48825
 30
0.0
 40
0.117167
  1
h
  7
MONOTXT
210
0.0
220
0.0
230
1.0
  0
TEXT
  8
3
  6
CONTINUOUS
 62
     2
  5
5A5
 10
65.763
 20
7.19
 30
0.0
 40
0.117167
  1
h
  7
MONOTXT
210
0.0
220
0.0
230
1.0
  0
TEXT
  8
3
  6
CONTINUOUS
 62
     2
  5
5A6
 10
65.763
 20
6.873583
 30
0.0
 40
0.117167
  1
v
  7
MONOTXT
210
0.0
220
0.0
230
1.0
  0
TEXT
  8
3
  6
CONTINUOUS
 62
     2
  5
5A7
 10
65.763
 20
6.53875
 30
0.0
 40
0.117167
  1
h
  7
MONOTXT
210
0.0
220
0.0
230
1.0
  0
TEXT
  8
3
  6
CONTINUOUS
 62
     2
  5
5A8
 10
65.763
 20
6.246667
 30
0.0
 40
0.117167
  1
h
  7
MONOTXT
210
0.0
220
0.0
230
1.0
  0
TEXT
  8
3
  6
CONTINUOUS
 62
     2
  5
5A9
 10
65.763
 20
5.924083
 30
0.0
 40
0.117167
  1
v
  7
MONOTXT
210
0.0
220
0.0
230
1.0
  0
TEXT
  8
3
  6
CONTINUOUS
 62
     2
  5
5AA
 10
65.763
 20
5.595417
 30
0.0
 40
0.117167
  1
h
  7
MONOTXT
210
0.0
220
0.0
230
1.0
  0
TEXT
  8
3
  6
CONTINUOUS
 62
     2
  5
5AB
 10
65.763
 20
5.309333
 30
0.0
 40
0.117167
  1
h
  7
MONOTXT
210
0.0
220
0.0
230
1.0
  0
TEXT
  8
3
  6
CONTINUOUS
 62
     2
  5
5AC
 10
65.763
 20
4.999
 30
0.0
 40
0.117167
  1
v
  7
MONOTXT
210
0.0
220
0.0
230
1.0
  0
TEXT
  8
3
  6
CONTINUOUS
 62
     2
  5
5AD
 10
66.340917
 20
9.034333
 30
0.0
 40
0.117167
  1
#4
  7
MONOTXT
210
0.0
220
0.0
230
1.0
  0
TEXT
  8
3
  6
CONTINUOUS
 62
     2
  5
5AE
 10
66.340917
 20
8.772667
 30
0.0
 40
0.117167
  1
#4
  7
MONOTXT
210
0.0
220
0.0
230
1.0
  0
TEXT
  8
3
  6
CONTINUOUS
 62
     2
  5
5AF
 10
66.340917
 20
8.426
 30
0.0
 40
0.117167
  1
#4
  7
MONOTXT
210
0.0
220
0.0
230
1.0
  0
TEXT
  8
3
  6
CONTINUOUS
 62
     2
  5
5B0
 10
66.340917
 20
8.146083
 30
0.0
 40
0.117167
  1
#4
  7
MONOTXT
210
0.0
220
0.0
230
1.0
  0
TEXT
  8
3
  6
CONTINUOUS
 62
     2
  5
5B1
 10
66.340917
 20
7.8175
 30
0.0
 40
0.117167
  1
#4
  7
MONOTXT
210
0.0
220
0.0
230
1.0
  0
TEXT
  8
3
  6
CONTINUOUS
 62
     2
  5
5B2
 10
66.340917
 20
7.482917
 30
0.0
 40
0.117167
  1
#4
  7
MONOTXT
210
0.0
220
0.0
230
1.0
  0
TEXT
  8
3
  6
CONTINUOUS
 62
     2
  5
5B3
 10
66.340917
 20
7.184917
 30
0.0
 40
0.117167
  1
#4
  7
MONOTXT
210
0.0
220
0.0
230
1.0
  0
TEXT
  8
3
  6
CONTINUOUS
 62
     2
  5
5B4
 10
66.340917
 20
6.886833
 30
0.0
 40
0.117167
  1
#4
  7
MONOTXT
210
0.0
220
0.0
230
1.0
  0
TEXT
  8
3
  6
CONTINUOUS
 62
     2
  5
5B5
 10
66.340917
 20
6.54
 30
0.0
 40
0.117167
  1
#4
  7
MONOTXT
210
0.0
220
0.0
230
1.0
  0
TEXT
  8
3
  6
CONTINUOUS
 62
     2
  5
5B6
 10
66.340917
 20
6.242
 30
0.0
 40
0.117167
  1
#4
  7
MONOTXT
210
0.0
220
0.0
230
1.0
  0
TEXT
  8
3
  6
CONTINUOUS
 62
     2
  5
5B7
 10
66.340917
 20
5.919583
 30
0.0
 40
0.117167
  1
#4
  7
MONOTXT
210
0.0
220
0.0
230
1.0
  0
TEXT
  8
3
  6
CONTINUOUS
 62
     2
  5
5B8
 10
66.340917
 20
5.597083
 30
0.0
 40
0.117167
  1
#4
  7
MONOTXT
210
0.0
220
0.0
230
1.0
  0
TEXT
  8
3
  6
CONTINUOUS
 62
     2
  5
5B9
 10
66.340917
 20
5.305167
 30
0.0
 40
0.117167
  1
#4
  7
MONOTXT
210
0.0
220
0.0
230
1.0
  0
TEXT
  8
3
  6
CONTINUOUS
 62
     2
  5
5BA
 10
66.340917
 20
5.001
 30
0.0
 40
0.117167
  1
#4
  7
MONOTXT
210
0.0
220
0.0
230
1.0
  0
TEXT
  8
3
  6
CONTINUOUS
 62
     2
  5
5BB
 10
69.461833
 20
9.399333
 30
0.0
 40
0.117167
  1
BENT
  7
MONOTXT
210
0.0
220
0.0
230
1.0
  0
TEXT
  8
3
  6
CONTINUOUS
 62
     2
  5
5BC
 10
69.461833
 20
9.04025
 30
0.0
 40
0.117167
  1
ST.
  7
MONOTXT
210
0.0
220
0.0
230
1.0
  0
TEXT
  8
3
  6
CONTINUOUS
 62
     2
  5
5BD
 10
69.461833
 20
8.772417
 30
0.0
 40
0.117167
  1
BENT
  7
MONOTXT
210
0.0
220
0.0
230
1.0
  0
TEXT
  8
3
  6
CONTINUOUS
 62
     2
  5
5BE
 10
69.461833
 20
8.425417
 30
0.0
 40
0.117167
  1
BENT
  7
MONOTXT
210
0.0
220
0.0
230
1.0
  0
TEXT
  8
3
  6
CONTINUOUS
 62
     2
  5
5BF
 10
69.461833
 20
8.115167
 30
0.0
 40
0.117167
  1
ST.
  7
MONOTXT
210
0.0
220
0.0
230
1.0
  0
TEXT
  8
3
  6
CONTINUOUS
 62
     2
  5
5C0
 10
69.461833
 20
7.822917
 30
0.0
 40
0.117167
  1
BENT
  7
MONOTXT
210
0.0
220
0.0
230
1.0
  0
TEXT
  8
3
  6
CONTINUOUS
 62
     2
  5
5C1
 10
69.461833
 20
7.463917
 30
0.0
 40
0.117167
  1
BENT
  7
MONOTXT
210
0.0
220
0.0
230
1.0
  0
TEXT
  8
3
  6
CONTINUOUS
 62
     2
  5
5C2
 10
69.461833
 20
7.177833
 30
0.0
 40
0.117167
  1
ST.
  7
MONOTXT
210
0.0
220
0.0
230
1.0
  0
TEXT
  8
3
  6
CONTINUOUS
 62
     2
  5
5C3
 10
69.461833
 20
6.85525
 30
0.0
 40
0.117167
  1
BENT
  7
MONOTXT
210
0.0
220
0.0
230
1.0
  0
TEXT
  8
3
  6
CONTINUOUS
 62
     2
  5
5C4
 10
69.461833
 20
6.520583
 30
0.0
 40
0.117167
  1
BENT
  7
MONOTXT
210
0.0
220
0.0
230
1.0
  0
TEXT
  8
3
  6
CONTINUOUS
 62
     2
  5
5C5
 10
69.461833
 20
6.21625
 30
0.0
 40
0.117167
  1
ST.
  7
MONOTXT
210
0.0
220
0.0
230
1.0
  0
TEXT
  8
3
  6
CONTINUOUS
 62
     2
  5
5C6
 10
69.461833
 20
5.917917
 30
0.0
 40
0.117167
  1
BENT
  7
MONOTXT
210
0.0
220
0.0
230
1.0
  0
TEXT
  8
3
  6
CONTINUOUS
 62
     2
  5
5C7
 10
69.461833
 20
5.589417
 30
0.0
 40
0.117167
  1
BENT
  7
MONOTXT
210
0.0
220
0.0
230
1.0
  0
TEXT
  8
3
  6
CONTINUOUS
 62
     2
  5
5C8
 10
69.461833
 20
5.272833
 30
0.0
 40
0.117167
  1
ST.
  7
MONOTXT
210
0.0
220
0.0
230
1.0
  0
TEXT
  8
3
  6
CONTINUOUS
 62
     2
  5
5C9
 10
69.461833
 20
4.986833
 30
0.0
 40
0.117167
  1
BENT
  7
MONOTXT
210
0.0
220
0.0
230
1.0
  0
TEXT
  8
3
  6
CONTINUOUS
 62
     2
  5
5CA
 10
70.137167
 20
9.387083
 30
0.0
 40
0.117167
  1
0.61
  7
MONOTXT
210
0.0
220
0.0
230
1.0
  0
TEXT
  8
3
  6
CONTINUOUS
 62
     2
  5
5CB
 10
70.137167
 20
8.437917
 30
0.0
 40
0.117167
  1
0.67
  7
MONOTXT
210
0.0
220
0.0
230
1.0
  0
TEXT
  8
3
  6
CONTINUOUS
 62
     2
  5
5CC
 10
70.137167
 20
7.476583
 30
0.0
 40
0.117167
  1
1.01
  7
MONOTXT
210
0.0
220
0.0
230
1.0
  0
TEXT
  8
3
  6
CONTINUOUS
 62
     2
  5
5CD
 10
70.137167
 20
6.533583
 30
0.0
 40
0.117167
  1
1.32
  7
MONOTXT
210
0.0
220
0.0
230
1.0
  0
TEXT
  8
3
  6
CONTINUOUS
 62
     2
  5
5CE
 10
70.137167
 20
5.566167
 30
0.0
 40
0.117167
  1
1.79
  7
MONOTXT
210
0.0
220
0.0
230
1.0
  0
TEXT
  8
3
  6
CONTINUOUS
 62
     2
  5
5CF
 10
70.952333
 20
9.393167
 30
0.0
 40
0.117167
  1
0.62
  7
MONOTXT
210
0.0
220
0.0
230
1.0
  0
TEXT
  8
3
  6
CONTINUOUS
 62
     2
  5
5D0
 10
70.952333
 20
8.444
 30
0.0
 40
0.117167
  1
0.68
  7
MONOTXT
210
0.0
220
0.0
230
1.0
  0
TEXT
  8
3
  6
CONTINUOUS
 62
     2
  5
5D1
 10
70.952333
 20
7.48275
 30
0.0
 40
0.117167
  1
1.02
  7
MONOTXT
210
0.0
220
0.0
230
1.0
  0
TEXT
  8
3
  6
CONTINUOUS
 62
     2
  5
5D2
 10
70.952333
 20
6.539583
 30
0.0
 40
0.117167
  1
1.37
  7
MONOTXT
210
0.0
220
0.0
230
1.0
  0
TEXT
  8
3
  6
CONTINUOUS
 62
     2
  5
5D3
 10
70.952333
 20
5.57225
 30
0.0
 40
0.117167
  1
1.86
  7
MONOTXT
210
0.0
220
0.0
230
1.0
  0
TEXT
  8
3
  6
CONTINUOUS
 62
     2
  5
5D4
 10
71.63375
 20
9.387083
 30
0.0
 40
0.117167
  1
41.2
  7
MONOTXT
210
0.0
220
0.0
230
1.0
  0
TEXT
  8
3
  6
CONTINUOUS
 62
     2
  5
5D5
 10
71.63375
 20
8.437917
 30
0.0
 40
0.117167
  1
41.8
  7
MONOTXT
210
0.0
220
0.0
230
1.0
  0
TEXT
  8
3
  6
CONTINUOUS
 62
     2
  5
5D6
 10
71.63375
 20
7.476583
 30
0.0
 40
0.117167
  1
52.4
  7
MONOTXT
210
0.0
220
0.0
230
1.0
  0
TEXT
  8
3
  6
CONTINUOUS
 62
     2
  5
5D7
 10
71.63375
 20
6.533583
 30
0.0
 40
0.117167
  1
58.1
  7
MONOTXT
210
0.0
220
0.0
230
1.0
  0
TEXT
  8
3
  6
CONTINUOUS
 62
     2
  5
5D8
 10
71.63375
 20
5.566167
 30
0.0
 40
0.117167
  1
70.8
  7
MONOTXT
210
0.0
220
0.0
230
1.0
  0
TEXT
  8
3
  6
CONTINUOUS
 62
     2
  5
5D9
 10
65.869417
 20
9.30475
 30
0.0
 40
0.0585
  1
1
  7
MONOTXT
210
0.0
220
0.0
230
1.0
  0
TEXT
  8
3
  6
CONTINUOUS
 62
     2
  5
5DA
 10
65.869417
 20
8.994417
 30
0.0
 40
0.0585
  1
2
  7
MONOTXT
210
0.0
220
0.0
230
1.0
  0
TEXT
  8
3
  6
CONTINUOUS
 62
     2
  5
5DB
 10
65.869417
 20
8.355667
 30
0.0
 40
0.0585
  1
1
  7
MONOTXT
210
0.0
220
0.0
230
1.0
  0
TEXT
  8
3
  6
CONTINUOUS
 62
     2
  5
5DC
 10
65.869417
 20
8.094083
 30
0.0
 40
0.0585
  1
2
  7
MONOTXT
210
0.0
220
0.0
230
1.0
  0
TEXT
  8
3
  6
CONTINUOUS
 62
     2
  5
5DD
 10
65.869417
 20
7.431
 30
0.0
 40
0.0585
  1
1
  7
MONOTXT
210
0.0
220
0.0
230
1.0
  0
TEXT
  8
3
  6
CONTINUOUS
 62
     2
  5
5DE
 10
65.869417
 20
7.126833
 30
0.0
 40
0.0585
  1
2
  7
MONOTXT
210
0.0
220
0.0
230
1.0
  0
TEXT
  8
3
  6
CONTINUOUS
 62
     2
  5
5DF
 10
65.869417
 20
6.488083
 30
0.0
 40
0.0585
  1
1
  7
MONOTXT
210
0.0
220
0.0
230
1.0
  0
TEXT
  8
3
  6
CONTINUOUS
 62
     2
  5
5E0
 10
65.869417
 20
6.171667
 30
0.0
 40
0.0585
  1
2
  7
MONOTXT
210
0.0
220
0.0
230
1.0
  0
TEXT
  8
3
  6
CONTINUOUS
 62
     2
  5
5E1
 10
65.869417
 20
5.545167
 30
0.0
 40
0.0585
  1
1
  7
MONOTXT
210
0.0
220
0.0
230
1.0
  0
TEXT
  8
3
  6
CONTINUOUS
 62
     2
  5
5E2
 10
65.869417
 20
5.259167
 30
0.0
 40
0.0585
  1
2
  7
MONOTXT
210
0.0
220
0.0
230
1.0
  0
TEXT
  8
3
  6
CONTINUOUS
 62
     2
  5
5E3
 10
67.502917
 20
9.374917
 30
0.0
 40
0.117167
  1
1'-10"
  7
MONOTXT
210
0.0
220
0.0
230
1.0
  0
TEXT
  8
3
  6
CONTINUOUS
 62
     2
  5
5E4
 10
68.774333
 20
9.374917
 30
0.0
 40
0.117167
  1
8'-3"
  7
MONOTXT
210
0.0
220
0.0
230
1.0
  0
TEXT
  8
3
  6
CONTINUOUS
 62
     2
  5
5E5
 10
68.774333
 20
9.082917
 30
0.0
 40
0.117167
  1
6'-1"
  7
MONOTXT
210
0.0
220
0.0
230
1.0
  0
TEXT
  8
3
  6
CONTINUOUS
 62
     2
  5
5E6
 10
68.7805
 20
8.784833
 30
0.0
 40
0.117167
  1
3'-0"
  7
MONOTXT
210
0.0
220
0.0
230
1.0
  0
TEXT
  8
3
  6
CONTINUOUS
 62
     2
  5
5E7
 10
68.774333
 20
8.45025
 30
0.0
 40
0.117167
  1
8'-6"
  7
MONOTXT
210
0.0
220
0.0
230
1.0
  0
TEXT
  8
3
  6
CONTINUOUS
 62
     2
  5
5E8
 10
68.774333
 20
8.115667
 30
0.0
 40
0.117167
  1
6'-4"
  7
MONOTXT
210
0.0
220
0.0
230
1.0
  0
TEXT
  8
3
  6
CONTINUOUS
 62
     2
  5
5E9
 10
68.774333
 20
7.82975
 30
0.0
 40
0.117167
  1
3'-0"
  7
MONOTXT
210
0.0
220
0.0
230
1.0
  0
TEXT
  8
3
  6
CONTINUOUS
 62
     2
  5
5EA
 10
68.774333
 20
7.46475
 30
0.0
 40
0.117167
  1
11'-0"
  7
MONOTXT
210
0.0
220
0.0
230
1.0
  0
TEXT
  8
3
  6
CONTINUOUS
 62
     2
  5
5EB
 10
68.7805
 20
7.166667
 30
0.0
 40
0.117167
  1
8'-4"
  7
MONOTXT
210
0.0
220
0.0
230
1.0
  0
TEXT
  8
3
  6
CONTINUOUS
 62
     2
  5
5EC
 10
68.7805
 20
6.899
 30
0.0
 40
0.117167
  1
3'-0"
  7
MONOTXT
210
0.0
220
0.0
230
1.0
  0
TEXT
  8
3
  6
CONTINUOUS
 62
     2
  5
5ED
 10
68.774333
 20
6.54
 30
0.0
 40
0.117167
  1
13'-0"
  7
MONOTXT
210
0.0
220
0.0
230
1.0
  0
TEXT
  8
3
  6
CONTINUOUS
 62
     2
  5
5EE
 10
68.7805
 20
6.235833
 30
0.0
 40
0.117167
  1
9'-10"
  7
MONOTXT
210
0.0
220
0.0
230
1.0
  0
TEXT
  8
3
  6
CONTINUOUS
 62
     2
  5
5EF
 10
68.792667
 20
5.925667
 30
0.0
 40
0.117167
  1
3'-0"
  7
MONOTXT
210
0.0
220
0.0
230
1.0
  0
TEXT
  8
3
  6
CONTINUOUS
 62
     2
  5
5F0
 10
68.792667
 20
5.566667
 30
0.0
 40
0.117167
  1
15'-6"
  7
MONOTXT
210
0.0
220
0.0
230
1.0
  0
TEXT
  8
3
  6
CONTINUOUS
 62
     2
  5
5F1
 10
68.743833
 20
5.268667
 30
0.0
 40
0.117167
  1
11'-10"
  7
MONOTXT
210
0.0
220
0.0
230
1.0
  0
TEXT
  8
3
  6
CONTINUOUS
 62
     2
  5
5F2
 10
68.829167
 20
4.958333
 30
0.0
 40
0.117167
  1
3'-0"
  7
MONOTXT
210
0.0
220
0.0
230
1.0
  0
TEXT
  8
3
  6
CONTINUOUS
 62
     2
  5
5F3
 10
67.502917
 20
8.407667
 30
0.0
 40
0.117167
  1
2'-1"
  7
MONOTXT
210
0.0
220
0.0
230
1.0
  0
TEXT
  8
3
  6
CONTINUOUS
 62
     2
  5
5F4
 10
67.521083
 20
7.470833
 30
0.0
 40
0.117167
  1
2'-9"
  7
MONOTXT
210
0.0
220
0.0
230
1.0
  0
TEXT
  8
3
  6
CONTINUOUS
 62
     2
  5
5F5
 10
67.52725
 20
6.527917
 30
0.0
 40
0.117167
  1
3'-3"
  7
MONOTXT
210
0.0
220
0.0
230
1.0
  0
TEXT
  8
3
  6
CONTINUOUS
 62
     2
  5
5F6
 10
67.52725
 20
5.584917
 30
0.0
 40
0.117167
  1
3'-11"
  7
MONOTXT
210
0.0
220
0.0
230
1.0
  0
TEXT
  8
3
  6
CONTINUOUS
 62
     2
  5
5F7
 10
68.117333
 20
5.578917
 30
0.0
 40
0.117167
  1
5'-9 
  7
MONOTXT
210
0.0
220
0.0
230
1.0
  0
TEXT
  8
3
  6
CONTINUOUS
 62
     2
  5
5F8
 10
68.465333
 20
9.387
 30
0.0
 40
0.073167
  1
1/2
  7
MONOTXT
210
0.0
220
0.0
230
1.0
  0
TEXT
  8
3
  6
CONTINUOUS
 62
     2
  5
5F9
 10
68.47925
 20
8.445417
 30
0.0
 40
0.073167
  1
1/2
  7
MONOTXT
210
0.0
220
0.0
230
1.0
  0
TEXT
  8
3
  6
CONTINUOUS
 62
     2
  5
5FA
 10
68.45825
 20
7.513833
 30
0.0
 40
0.073167
  1
1/2
  7
MONOTXT
210
0.0
220
0.0
230
1.0
  0
TEXT
  8
3
  6
CONTINUOUS
 62
     2
  5
5FB
 10
68.479083
 20
5.6285
 30
0.0
 40
0.073167
  1
1/2
  7
MONOTXT
210
0.0
220
0.0
230
1.0
  0
TEXT
  8
3
  6
CONTINUOUS
 62
     2
  5
5FC
 10
68.447833
 20
6.558583
 30
0.0
 40
0.073167
  1
1/2
  7
MONOTXT
210
0.0
220
0.0
230
1.0
  0
LINE
  8
1
  6
CONTINUOUS
 62
     2
  5
5FD
 10
49.559667
 20
21.432417
 30
0.0
 11
48.9145
 21
21.432417
 31
0.0
  0
LINE
  8
1
  6
CONTINUOUS
 62
     2
  5
5FE
 10
49.032
 20
20.321333
 30
0.0
 11
48.9145
 21
20.321333
 31
0.0
  0
LINE
  8
1
  6
CONTINUOUS
 62
     2
  5
5FF
 10
49.0945
 20
21.307417
 30
0.0
 11
49.0945
 21
21.060583
 31
0.0
  0
LINE
  8
1
  6
CONTINUOUS
 62
     2
  5
600
 10
49.0945
 20
20.446333
 30
0.0
 11
49.0945
 21
20.693083
 31
0.0
  0
SOLID
  8
1
  6
CONTINUOUS
 62
     2
  5
601
 10
49.073667
 20
21.307417
 30
0.0
 11
49.115333
 21
21.307417
 31
0.0
 12
49.0945
 22
21.432417
 32
0.0
 13
49.0945
 23
21.432417
 33
0.0
  0
SOLID
  8
1
  6
CONTINUOUS
 62
     2
  5
602
 10
49.073667
 20
20.446333
 30
0.0
 11
49.115333
 21
20.446333
 31
0.0
 12
49.0945
 22
20.321333
 32
0.0
 13
49.0945
 23
20.321333
 33
0.0
  0
TEXT
  8
1
  6
CONTINUOUS
 62
     2
  5
603
 10
49.052833
 20
20.814333
 30
0.0
 40
0.125
  1
B
  7
MONOTXT
210
0.0
220
0.0
230
1.0
  0
LINE
  8
8
  6
CONTINUOUS
 62
     7
  5
604
 10
49.622167
 20
21.432417
 30
0.0
 11
49.62225
 21
21.432417
 31
0.0
  0
LINE
  8
8
  6
CONTINUOUS
 62
     2
  5
605
 10
49.0945
 20
20.321333
 30
0.0
 11
49.094583
 21
20.321333
 31
0.0
  0
LINE
  8
8
  6
CONTINUOUS
 62
     2
  5
606
 10
49.0945
 20
20.321333
 30
0.0
 11
49.094583
 21
20.321333
 31
0.0
  0
LINE
  8
1
  6
CONTINUOUS
 62
     2
  5
607
 10
51.797667
 20
22.644417
 30
0.0
 11
48.330667
 21
22.644417
 31
0.0
  0
LINE
  8
1
  6
CONTINUOUS
 62
     2
  5
608
 10
49.559667
 20
20.321333
 30
0.0
 11
48.330667
 21
20.321333
 31
0.0
  0
LINE
  8
1
  6
CONTINUOUS
 62
     2
  5
609
 10
48.510667
 20
22.519417
 30
0.0
 11
48.510667
 21
21.666667
 31
0.0
  0
LINE
  8
1
  6
CONTINUOUS
 62
     2
  5
60A
 10
48.510667
 20
20.446333
 30
0.0
 11
48.510667
 21
21.299167
 31
0.0
  0
SOLID
  8
1
  6
CONTINUOUS
 62
     2
  5
60B
 10
48.489833
 20
22.519417
 30
0.0
 11
48.5315
 21
22.519417
 31
0.0
 12
48.510667
 22
22.644417
 32
0.0
 13
48.510667
 23
22.644417
 33
0.0
  0
SOLID
  8
1
  6
CONTINUOUS
 62
     2
  5
60C
 10
48.489833
 20
20.446333
 30
0.0
 11
48.5315
 21
20.446333
 31
0.0
 12
48.510667
 22
20.321333
 32
0.0
 13
48.510667
 23
20.321333
 33
0.0
  0
TEXT
  8
1
  6
CONTINUOUS
 62
     2
  5
60D
 10
48.466
 20
21.420417
 30
0.0
 40
0.125
  1
C
  7
MONOTXT
210
0.0
220
0.0
230
1.0
  0
LINE
  8
8
  6
CONTINUOUS
 62
     7
  5
60E
 10
51.860167
 20
22.644417
 30
0.0
 11
51.86025
 21
22.644417
 31
0.0
  0
LINE
  8
8
  6
CONTINUOUS
 62
     7
  5
60F
 10
49.622167
 20
20.321333
 30
0.0
 11
49.62225
 21
20.321333
 31
0.0
  0
LINE
  8
8
  6
CONTINUOUS
 62
     2
  5
610
 10
48.510667
 20
20.321333
 30
0.0
 11
48.51075
 21
20.321333
 31
0.0
  0
LINE
  8
1
  6
CONTINUOUS
 62
     2
  5
611
 10
49.559667
 20
19.109333
 30
0.0
 11
48.319667
 21
19.109333
 31
0.0
  0
LINE
  8
1
  6
CONTINUOUS
 62
     2
  5
612
 10
49.559667
 20
20.321333
 30
0.0
 11
48.319667
 21
20.321333
 31
0.0
  0
LINE
  8
1
  6
CONTINUOUS
 62
     2
  5
613
 10
48.499667
 20
19.234333
 30
0.0
 11
48.499667
 21
19.531583
 31
0.0
  0
LINE
  8
1
  6
CONTINUOUS
 62
     2
  5
614
 10
48.499667
 20
20.196333
 30
0.0
 11
48.499667
 21
19.899083
 31
0.0
  0
SOLID
  8
1
  6
CONTINUOUS
 62
     2
  5
615
 10
48.478833
 20
19.234333
 30
0.0
 11
48.5205
 21
19.234333
 31
0.0
 12
48.499583
 22
19.109333
 32
0.0
 13
48.499583
 23
19.109333
 33
0.0
  0
SOLID
  8
1
  6
CONTINUOUS
 62
     2
  5
616
 10
48.478833
 20
20.196333
 30
0.0
 11
48.5205
 21
20.196333
 31
0.0
 12
48.499583
 22
20.321333
 32
0.0
 13
48.499583
 23
20.321333
 33
0.0
  0
TEXT
  8
1
  6
CONTINUOUS
 62
     2
  5
617
 10
48.252583
 20
19.65275
 30
0.0
 40
0.125
  1
2'-0"
  7
MONOTXT
210
0.0
220
0.0
230
1.0
  0
LINE
  8
8
  6
CONTINUOUS
 62
     7
  5
618
 10
49.622167
 20
19.109333
 30
0.0
 11
49.62225
 21
19.109333
 31
0.0
  0
LINE
  8
8
  6
CONTINUOUS
 62
     7
  5
619
 10
49.622167
 20
20.321333
 30
0.0
 11
49.62225
 21
20.321333
 31
0.0
  0
LINE
  8
8
  6
CONTINUOUS
 62
     2
  5
61A
 10
48.499667
 20
20.321333
 30
0.0
 11
48.49975
 21
20.321333
 31
0.0
  0
LINE
  8
1
  6
CONTINUOUS
 62
     2
  5
61B
 10
52.10075
 20
15.902417
 30
0.0
 11
48.054
 21
15.902417
 31
0.0
  0
LINE
  8
1
  6
CONTINUOUS
 62
     2
  5
61C
 10
48.234
 20
15.303833
 30
0.0
 11
48.234
 21
15.178833
 31
0.0
  0
SOLID
  8
1
  6
CONTINUOUS
 62
     2
  5
61D
 10
48.213167
 20
15.303833
 30
0.0
 11
48.254833
 21
15.303833
 31
0.0
 12
48.234
 22
15.428833
 32
0.0
 13
48.234
 23
15.428833
 33
0.0
  0
SOLID
  8
1
  6
CONTINUOUS
 62
     2
  5
61E
 10
48.254833
 20
15.777417
 30
0.0
 11
48.213167
 21
15.777417
 31
0.0
 12
48.234
 22
15.902417
 32
0.0
 13
48.234
 23
15.902417
 33
0.0
  0
TEXT
  8
1
  6
CONTINUOUS
 62
     2
  5
61F
 10
48.187667
 20
15.601917
 30
0.0
 40
0.125
  1
G
  7
MONOTXT
210
0.0
220
0.0
230
1.0
  0
LINE
  8
8
  6
CONTINUOUS
 62
     7
  5
620
 10
52.147833
 20
15.428833
 30
0.0
 11
52.147917
 21
15.428833
 31
0.0
  0
LINE
  8
8
  6
CONTINUOUS
 62
     7
  5
621
 10
52.16325
 20
15.902417
 30
0.0
 11
52.163333
 21
15.902417
 31
0.0
  0
LINE
  8
8
  6
CONTINUOUS
 62
     2
  5
622
 10
48.234
 20
15.902417
 30
0.0
 11
48.233917
 21
15.902417
 31
0.0
  0
LINE
  8
1
  6
CONTINUOUS
 62
     2
  5
623
 10
49.8375
 20
13.232667
 30
0.0
 11
48.054
 21
13.232667
 31
0.0
  0
LINE
  8
1
  6
CONTINUOUS
 62
     2
  5
624
 10
52.085333
 20
15.428833
 30
0.0
 11
48.054
 21
15.428833
 31
0.0
  0
LINE
  8
1
  6
CONTINUOUS
 62
     2
  5
625
 10
48.234
 20
13.357667
 30
0.0
 11
48.234
 21
14.147
 31
0.0
  0
LINE
  8
1
  6
CONTINUOUS
 62
     2
  5
626
 10
48.234
 20
15.303833
 30
0.0
 11
48.234
 21
14.5145
 31
0.0
  0
SOLID
  8
1
  6
CONTINUOUS
 62
     2
  5
627
 10
48.213167
 20
13.357667
 30
0.0
 11
48.254833
 21
13.357667
 31
0.0
 12
48.234
 22
13.232667
 32
0.0
 13
48.234
 23
13.232667
 33
0.0
  0
SOLID
  8
1
  6
CONTINUOUS
 62
     2
  5
628
 10
48.213167
 20
15.303833
 30
0.0
 11
48.254833
 21
15.303833
 31
0.0
 12
48.234
 22
15.428833
 32
0.0
 13
48.234
 23
15.428833
 33
0.0
  0
TEXT
  8
1
  6
CONTINUOUS
 62
     2
  5
629
 10
48.186333
 20
14.26825
 30
0.0
 40
0.125
  1
A
  7
MONOTXT
210
0.0
220
0.0
230
1.0
  0
LINE
  8
8
  6
CONTINUOUS
 62
     7
  5
62A
 10
49.9
 20
13.232667
 30
0.0
 11
49.900083
 21
13.232667
 31
0.0
  0
LINE
  8
8
  6
CONTINUOUS
 62
     7
  5
62B
 10
52.147833
 20
15.428833
 30
0.0
 11
52.147917
 21
15.428833
 31
0.0
  0
LINE
  8
8
  6
CONTINUOUS
 62
     2
  5
62C
 10
48.234
 20
15.428833
 30
0.0
 11
48.234083
 21
15.428833
 31
0.0
  0
LINE
  8
1
  6
CONTINUOUS
 62
     2
  5
62D
 10
49.859583
 20
13.184917
 30
0.0
 11
49.153
 21
12.349917
 31
0.0
  0
LINE
  8
1
  6
CONTINUOUS
 62
     2
  5
62E
 10
49.608083
 20
13.39775
 30
0.0
 11
48.9015
 21
12.56275
 31
0.0
  0
LINE
  8
1
  6
CONTINUOUS
 62
     2
  5
62F
 10
49.364667
 20
12.406583
 30
0.0
 11
49.460083
 21
12.325833
 31
0.0
  0
LINE
  8
1
  6
CONTINUOUS
 62
     2
  5
630
 10
48.922417
 20
12.780917
 30
0.0
 11
48.827
 21
12.861667
 31
0.0
  0
LINE
  8
1
  6
CONTINUOUS
 62
     2
  5
631
 10
48.827
 20
12.861667
 30
0.0
 11
48.702
 21
12.861667
 31
0.0
  0
SOLID
  8
1
  6
CONTINUOUS
 62
     2
  5
632
 10
49.378167
 20
12.4225
 30
0.0
 11
49.35125
 21
12.390667
 31
0.0
 12
49.26925
 22
12.487333
 32
0.0
 13
49.26925
 23
12.487333
 33
0.0
  0
SOLID
  8
1
  6
CONTINUOUS
 62
     2
  5
633
 10
48.935833
 20
12.796833
 30
0.0
 11
48.908917
 21
12.765
 31
0.0
 12
49.01775
 22
12.700167
 32
0.0
 13
49.01775
 23
12.700167
 33
0.0
  0
TEXT
  8
1
  6
CONTINUOUS
 62
     2
  5
634
 10
48.403667
 20
12.799167
 30
0.0
 40
0.125
  1
6"
  7
MONOTXT
210
0.0
220
0.0
230
1.0
  0
LINE
  8
8
  6
CONTINUOUS
 62
     7
  5
635
 10
49.9
 20
13.232667
 30
0.0
 11
49.900083
 21
13.232667
 31
0.0
  0
LINE
  8
8
  6
CONTINUOUS
 62
     7
  5
636
 10
49.6485
 20
13.445417
 30
0.0
 11
49.648583
 21
13.445417
 31
0.0
  0
LINE
  8
8
  6
CONTINUOUS
 62
     2
  5
637
 10
49.017833
 20
12.700167
 30
0.0
 11
49.017917
 21
12.700167
 31
0.0
  0
LINE
  8
1
  6
CONTINUOUS
 62
     2
  5
638
 10
49.6485
 20
13.382917
 30
0.0
 11
49.6485
 21
12.658917
 31
0.0
  0
LINE
  8
1
  6
CONTINUOUS
 62
     2
  5
639
 10
49.9
 20
13.170167
 30
0.0
 11
49.9
 21
12.658917
 31
0.0
  0
LINE
  8
1
  6
CONTINUOUS
 62
     2
  5
63A
 10
49.5235
 20
12.838917
 30
0.0
 11
49.3985
 21
12.838917
 31
0.0
  0
LINE
  8
1
  6
CONTINUOUS
 62
     2
  5
63B
 10
50.025
 20
12.838917
 30
0.0
 11
50.15
 21
12.838917
 31
0.0
  0
SOLID
  8
1
  6
CONTINUOUS
 62
     2
  5
63C
 10
49.5235
 20
12.85975
 30
0.0
 11
49.5235
 21
12.818083
 31
0.0
 12
49.6485
 22
12.838917
 32
0.0
 13
49.6485
 23
12.838917
 33
0.0
  0
SOLID
  8
1
  6
CONTINUOUS
 62
     2
  5
63D
 10
50.025
 20
12.85975
 30
0.0
 11
50.025
 21
12.818083
 31
0.0
 12
49.9
 22
12.838917
 32
0.0
 13
49.9
 23
12.838917
 33
0.0
  0
TEXT
  8
1
  6
CONTINUOUS
 62
     2
  5
63E
 10
50.39625
 20
12.776417
 30
0.0
 40
0.125
  1
4 1/4"
  7
MONOTXT
210
0.0
220
0.0
230
1.0
  0
LINE
  8
8
  6
CONTINUOUS
 62
     7
  5
63F
 10
49.6485
 20
13.445417
 30
0.0
 11
49.648583
 21
13.445417
 31
0.0
  0
LINE
  8
8
  6
CONTINUOUS
 62
     7
  5
640
 10
49.9
 20
13.232667
 30
0.0
 11
49.900083
 21
13.232667
 31
0.0
  0
LINE
  8
8
  6
CONTINUOUS
 62
     2
  5
641
 10
49.9
 20
12.838917
 30
0.0
 11
49.900083
 21
12.838917
 31
0.0
  0
LINE
  8
1
  6
CONTINUOUS
 62
     2
  5
642
 10
49.6485
 20
13.382917
 30
0.0
 11
49.6485
 21
11.633083
 31
0.0
  0
LINE
  8
1
  6
CONTINUOUS
 62
     2
  5
643
 10
57.1155
 20
13.382917
 30
0.0
 11
57.1155
 21
11.633083
 31
0.0
  0
LINE
  8
1
  6
CONTINUOUS
 62
     2
  5
644
 10
49.7735
 20
11.813083
 30
0.0
 11
53.233917
 21
11.813083
 31
0.0
  0
LINE
  8
1
  6
CONTINUOUS
 62
     2
  5
645
 10
56.9905
 20
11.813083
 30
0.0
 11
53.53
 21
11.813083
 31
0.0
  0
SOLID
  8
1
  6
CONTINUOUS
 62
     2
  5
646
 10
49.7735
 20
11.833917
 30
0.0
 11
49.7735
 21
11.79225
 31
0.0
 12
49.6485
 22
11.813083
 32
0.0
 13
49.6485
 23
11.813083
 33
0.0
  0
SOLID
  8
1
  6
CONTINUOUS
 62
     2
  5
647
 10
56.9905
 20
11.833917
 30
0.0
 11
56.9905
 21
11.79225
 31
0.0
 12
57.1155
 22
11.813083
 32
0.0
 13
57.1155
 23
11.813083
 33
0.0
  0
TEXT
  8
1
  6
CONTINUOUS
 62
     2
  5
648
 10
53.343333
 20
11.750583
 30
0.0
 40
0.125
  1
E
  7
MONOTXT
210
0.0
220
0.0
230
1.0
  0
LINE
  8
8
  6
CONTINUOUS
 62
     7
  5
649
 10
49.6485
 20
13.445417
 30
0.0
 11
49.648583
 21
13.445417
 31
0.0
  0
LINE
  8
8
  6
CONTINUOUS
 62
     7
  5
64A
 10
57.1155
 20
13.445417
 30
0.0
 11
57.115583
 21
13.445417
 31
0.0
  0
LINE
  8
8
  6
CONTINUOUS
 62
     2
  5
64B
 10
57.1155
 20
11.813083
 30
0.0
 11
57.115583
 21
11.813083
 31
0.0
  0
LINE
  8
1
  6
CONTINUOUS
 62
     2
  5
64C
 10
57.1155
 20
13.382917
 30
0.0
 11
57.1155
 21
12.648583
 31
0.0
  0
LINE
  8
1
  6
CONTINUOUS
 62
     2
  5
64D
 10
56.864
 20
13.170167
 30
0.0
 11
56.864
 21
12.648583
 31
0.0
  0
LINE
  8
1
  6
CONTINUOUS
 62
     2
  5
64E
 10
57.2405
 20
12.828583
 30
0.0
 11
57.3655
 21
12.828583
 31
0.0
  0
LINE
  8
1
  6
CONTINUOUS
 62
     2
  5
64F
 10
56.739
 20
12.828583
 30
0.0
 11
56.614
 21
12.828583
 31
0.0
  0
SOLID
  8
1
  6
CONTINUOUS
 62
     2
  5
650
 10
57.2405
 20
12.849417
 30
0.0
 11
57.2405
 21
12.80775
 31
0.0
 12
57.1155
 22
12.828583
 32
0.0
 13
57.1155
 23
12.828583
 33
0.0
  0
SOLID
  8
1
  6
CONTINUOUS
 62
     2
  5
651
 10
56.739
 20
12.849417
 30
0.0
 11
56.739
 21
12.80775
 31
0.0
 12
56.864
 22
12.828583
 32
0.0
 13
56.864
 23
12.828583
 33
0.0
  0
TEXT
  8
1
  6
CONTINUOUS
 62
     2
  5
652
 10
55.74275
 20
12.766083
 30
0.0
 40
0.125
  1
4 1/4"
  7
MONOTXT
210
0.0
220
0.0
230
1.0
  0
LINE
  8
8
  6
CONTINUOUS
 62
     7
  5
653
 10
57.1155
 20
13.445417
 30
0.0
 11
57.115583
 21
13.445417
 31
0.0
  0
LINE
  8
8
  6
CONTINUOUS
 62
     7
  5
654
 10
56.864
 20
13.232667
 30
0.0
 11
56.864083
 21
13.232667
 31
0.0
  0
LINE
  8
8
  6
CONTINUOUS
 62
     2
  5
655
 10
56.864
 20
12.828583
 30
0.0
 11
56.864083
 21
12.828583
 31
0.0
  0
LINE
  8
1
  6
CONTINUOUS
 62
     2
  5
656
 10
54.644417
 20
15.947083
 30
0.0
 11
55.2485
 21
16.5655
 31
0.0
  0
LINE
  8
1
  6
CONTINUOUS
 62
     2
  5
657
 10
57.159167
 20
13.490167
 30
0.0
 11
57.763333
 21
14.1085
 31
0.0
  0
LINE
  8
1
  6
CONTINUOUS
 62
     2
  5
658
 10
55.212167
 20
16.349333
 30
0.0
 11
56.232083
 21
15.352833
 31
0.0
  0
LINE
  8
1
  6
CONTINUOUS
 62
     2
  5
659
 10
57.548083
 20
14.067083
 30
0.0
 11
56.528167
 21
15.063583
 31
0.0
  0
SOLID
  8
1
  6
CONTINUOUS
 62
     2
  5
65A
 10
55.226583
 20
16.36425
 30
0.0
 11
55.197583
 21
16.3345
 31
0.0
 12
55.122667
 22
16.43675
 32
0.0
 13
55.122667
 23
16.43675
 33
0.0
  0
SOLID
  8
1
  6
CONTINUOUS
 62
     2
  5
65B
 10
57.562667
 20
14.082
 30
0.0
 11
57.533583
 21
14.05225
 31
0.0
 12
57.6375
 22
13.97975
 32
0.0
 13
57.6375
 23
13.97975
 33
0.0
  0
TEXT
  8
1
  6
CONTINUOUS
 62
     2
  5
65C
 10
56.341417
 20
15.14575
 30
0.0
 40
0.125
  1
F
  7
MONOTXT
210
0.0
220
0.0
230
1.0
  0
LINE
  8
8
  6
CONTINUOUS
 62
     7
  5
65D
 10
54.600667
 20
15.902417
 30
0.0
 11
54.60075
 21
15.902417
 31
0.0
  0
LINE
  8
8
  6
CONTINUOUS
 62
     7
  5
65E
 10
57.1155
 20
13.445417
 30
0.0
 11
57.115583
 21
13.445417
 31
0.0
  0
LINE
  8
8
  6
CONTINUOUS
 62
     2
  5
65F
 10
57.6375
 20
13.97975
 30
0.0
 11
57.637583
 21
13.97975
 31
0.0
  0
LINE
  8
1
  6
CONTINUOUS
 62
     2
  5
660
 10
54.644417
 20
15.947083
 30
0.0
 11
54.949667
 21
16.259667
 31
0.0
  0
LINE
  8
1
  6
CONTINUOUS
 62
     2
  5
661
 10
54.889
 20
15.708167
 30
0.0
 11
55.194333
 21
16.020667
 31
0.0
  0
LINE
  8
1
  6
CONTINUOUS
 62
     2
  5
662
 10
54.7345
 20
16.21825
 30
0.0
 11
54.645083
 21
16.305583
 31
0.0
  0
LINE
  8
1
  6
CONTINUOUS
 62
     2
  5
663
 10
55.157917
 20
15.804583
 30
0.0
 11
55.247333
 21
15.717167
 31
0.0
  0
LINE
  8
1
  6
CONTINUOUS
 62
     2
  5
664
 10
55.247333
 20
15.717167
 30
0.0
 11
55.372333
 21
15.717167
 31
0.0
  0
SOLID
  8
1
  6
CONTINUOUS
 62
     2
  5
665
 10
54.749083
 20
16.233167
 30
0.0
 11
54.719917
 21
16.203333
 31
0.0
 12
54.823917
 22
16.130917
 32
0.0
 13
54.823917
 23
16.130917
 33
0.0
  0
SOLID
  8
1
  6
CONTINUOUS
 62
     2
  5
666
 10
55.1725
 20
15.819417
 30
0.0
 11
55.143333
 21
15.789667
 31
0.0
 12
55.0685
 22
15.891917
 32
0.0
 13
55.0685
 23
15.891917
 33
0.0
  0
TEXT
  8
1
  6
CONTINUOUS
 62
     2
  5
667
 10
55.483167
 20
15.654667
 30
0.0
 40
0.125
  1
H
  7
MONOTXT
210
0.0
220
0.0
230
1.0
  0
LINE
  8
8
  6
CONTINUOUS
 62
     7
  5
668
 10
54.600667
 20
15.902417
 30
0.0
 11
54.60075
 21
15.902417
 31
0.0
  0
LINE
  8
8
  6
CONTINUOUS
 62
     7
  5
669
 10
54.845333
 20
15.663417
 30
0.0
 11
54.845417
 21
15.663417
 31
0.0
  0
LINE
  8
8
  6
CONTINUOUS
 62
     2
  5
66A
 10
55.0685
 20
15.891917
 30
0.0
 11
55.068583
 21
15.891917
 31
0.0
  0
LINE
  8
1
  6
CONTINUOUS
 62
     2
  5
66B
 10
52.16325
 20
15.964917
 30
0.0
 11
52.16325
 21
16.842417
 31
0.0
  0
LINE
  8
1
  6
CONTINUOUS
 62
     2
  5
66C
 10
54.600667
 20
15.964917
 30
0.0
 11
54.600667
 21
16.842417
 31
0.0
  0
LINE
  8
1
  6
CONTINUOUS
 62
     2
  5
66D
 10
52.28825
 20
16.662417
 30
0.0
 11
53.2295
 21
16.662417
 31
0.0
  0
LINE
  8
1
  6
CONTINUOUS
 62
     2
  5
66E
 10
54.475667
 20
16.662417
 30
0.0
 11
53.5345
 21
16.662417
 31
0.0
  0
SOLID
  8
1
  6
CONTINUOUS
 62
     2
  5
66F
 10
52.28825
 20
16.68325
 30
0.0
 11
52.28825
 21
16.641583
 31
0.0
 12
52.16325
 22
16.662417
 32
0.0
 13
52.16325
 23
16.662417
 33
0.0
  0
SOLID
  8
1
  6
CONTINUOUS
 62
     2
  5
670
 10
54.475667
 20
16.68325
 30
0.0
 11
54.475667
 21
16.641583
 31
0.0
 12
54.600667
 22
16.662417
 32
0.0
 13
54.600667
 23
16.662417
 33
0.0
  0
TEXT
  8
1
  6
CONTINUOUS
 62
     2
  5
671
 10
53.354333
 20
16.599167
 30
0.0
 40
0.125
  1
D
  7
MONOTXT
210
0.0
220
0.0
230
1.0
  0
LINE
  8
8
  6
CONTINUOUS
 62
     7
  5
672
 10
52.16325
 20
15.902417
 30
0.0
 11
52.163333
 21
15.902417
 31
0.0
  0
LINE
  8
8
  6
CONTINUOUS
 62
     7
  5
673
 10
54.600667
 20
15.902417
 30
0.0
 11
54.60075
 21
15.902417
 31
0.0
  0
LINE
  8
8
  6
CONTINUOUS
 62
     2
  5
674
 10
54.600667
 20
16.662417
 30
0.0
 11
54.60075
 21
16.662417
 31
0.0
  0
LINE
  8
1
  6
CONTINUOUS
 62
     2
  5
675
 10
56.904417
 20
13.184917
 30
0.0
 11
57.650667
 21
12.303
 31
0.0
  0
LINE
  8
1
  6
CONTINUOUS
 62
     2
  5
676
 10
57.155833
 20
13.39775
 30
0.0
 11
57.902167
 21
12.515833
 31
0.0
  0
LINE
  8
1
  6
CONTINUOUS
 62
     2
  5
677
 10
57.439
 20
12.359667
 30
0.0
 11
57.343583
 21
12.278917
 31
0.0
  0
LINE
  8
1
  6
CONTINUOUS
 62
     2
  5
678
 10
57.881333
 20
12.734
 30
0.0
 11
57.97675
 21
12.81475
 31
0.0
  0
LINE
  8
1
  6
CONTINUOUS
 62
     2
  5
679
 10
57.97675
 20
12.81475
 30
0.0
 11
58.10175
 21
12.81475
 31
0.0
  0
SOLID
  8
1
  6
CONTINUOUS
 62
     2
  5
67A
 10
57.4255
 20
12.375583
 30
0.0
 11
57.452417
 21
12.34375
 31
0.0
 12
57.534417
 22
12.440417
 32
0.0
 13
57.534417
 23
12.440417
 33
0.0
  0
SOLID
  8
1
  6
CONTINUOUS
 62
     2
  5
67B
 10
57.867833
 20
12.749917
 30
0.0
 11
57.89475
 21
12.718083
 31
0.0
 12
57.785917
 22
12.65325
 32
0.0
 13
57.785917
 23
12.65325
 33
0.0
  0
TEXT
  8
1
  6
CONTINUOUS
 62
     2
  5
67C
 10
58.233417
 20
12.75225
 30
0.0
 40
0.125
  1
6"
  7
MONOTXT
210
0.0
220
0.0
230
1.0
  0
LINE
  8
8
  6
CONTINUOUS
 62
     7
  5
67D
 10
56.864
 20
13.232667
 30
0.0
 11
56.864083
 21
13.232667
 31
0.0
  0
LINE
  8
8
  6
CONTINUOUS
 62
     7
  5
67E
 10
57.1155
 20
13.445417
 30
0.0
 11
57.115583
 21
13.445417
 31
0.0
  0
LINE
  8
8
  6
CONTINUOUS
 62
     2
  5
67F
 10
57.785917
 20
12.65325
 30
0.0
 11
57.786
 21
12.65325
 31
0.0
  0
LINE
  8
1
  6
CONTINUOUS
 62
     2
  5
680
 10
61.28675
 20
22.579583
 30
0.0
 11
61.28675
 21
23.701833
 31
0.0
  0
LINE
  8
1
  6
CONTINUOUS
 62
     2
  5
681
 10
61.766417
 20
23.499833
 30
0.0
 11
61.766417
 21
23.701833
 31
0.0
  0
LINE
  8
1
  6
CONTINUOUS
 62
     2
  5
682
 10
61.16175
 20
23.521833
 30
0.0
 11
61.03675
 21
23.521833
 31
0.0
  0
LINE
  8
1
  6
CONTINUOUS
 62
     2
  5
683
 10
61.891417
 20
23.521833
 30
0.0
 11
62.016417
 21
23.521833
 31
0.0
  0
SOLID
  8
1
  6
CONTINUOUS
 62
     2
  5
684
 10
61.16175
 20
23.542667
 30
0.0
 11
61.16175
 21
23.501
 31
0.0
 12
61.28675
 22
23.521833
 32
0.0
 13
61.28675
 23
23.521833
 33
0.0
  0
SOLID
  8
1
  6
CONTINUOUS
 62
     2
  5
685
 10
61.891417
 20
23.542667
 30
0.0
 11
61.891417
 21
23.501
 31
0.0
 12
61.766417
 22
23.521833
 32
0.0
 13
61.766417
 23
23.521833
 33
0.0
  0
TEXT
  8
1
  6
CONTINUOUS
 62
     2
  5
686
 10
61.457667
 20
23.459333
 30
0.0
 40
0.125
  1
G
  7
MONOTXT
210
0.0
220
0.0
230
1.0
  0
LINE
  8
8
  6
CONTINUOUS
 62
     7
  5
687
 10
61.28675
 20
22.517083
 30
0.0
 11
61.286833
 21
22.517083
 31
0.0
  0
LINE
  8
8
  6
CONTINUOUS
 62
     2
  5
688
 10
61.766417
 20
23.437333
 30
0.0
 11
61.7665
 21
23.437333
 31
0.0
  0
LINE
  8
8
  6
CONTINUOUS
 62
     2
  5
689
 10
61.766417
 20
23.521833
 30
0.0
 11
61.7665
 21
23.521833
 31
0.0
  0
LINE
  8
1
  6
CONTINUOUS
 62
     2
  5
68A
 10
61.22425
 20
22.517083
 30
0.0
 11
60.032
 21
22.517083
 31
0.0
  0
LINE
  8
1
  6
CONTINUOUS
 62
     2
  5
68B
 10
61.22425
 20
22.33625
 30
0.0
 11
60.032
 21
22.33625
 31
0.0
  0
LINE
  8
1
  6
CONTINUOUS
 62
     2
  5
68C
 10
60.212
 20
22.642083
 30
0.0
 11
60.212
 21
22.767083
 31
0.0
  0
LINE
  8
1
  6
CONTINUOUS
 62
     2
  5
68D
 10
60.212
 20
22.21125
 30
0.0
 11
60.212
 21
22.08625
 31
0.0
  0
LINE
  8
1
  6
CONTINUOUS
 62
     2
  5
68E
 10
60.212
 20
22.08625
 30
0.0
 11
60.087
 21
22.08625
 31
0.0
  0
SOLID
  8
1
  6
CONTINUOUS
 62
     2
  5
68F
 10
60.191167
 20
22.642083
 30
0.0
 11
60.232833
 21
22.642083
 31
0.0
 12
60.212
 22
22.517083
 32
0.0
 13
60.212
 23
22.517083
 33
0.0
  0
SOLID
  8
1
  6
CONTINUOUS
 62
     2
  5
690
 10
60.191167
 20
22.21125
 30
0.0
 11
60.232833
 21
22.21125
 31
0.0
 12
60.212
 22
22.33625
 32
0.0
 13
60.212
 23
22.33625
 33
0.0
  0
TEXT
  8
1
  6
CONTINUOUS
 62
     2
  5
691
 10
59.788667
 20
22.02375
 30
0.0
 40
0.125
  1
4"
  7
MONOTXT
210
0.0
220
0.0
230
1.0
  0
LINE
  8
8
  6
CONTINUOUS
 62
     7
  5
692
 10
61.28675
 20
22.517083
 30
0.0
 11
61.286833
 21
22.517083
 31
0.0
  0
LINE
  8
8
  6
CONTINUOUS
 62
     7
  5
693
 10
61.28675
 20
22.33625
 30
0.0
 11
61.286833
 21
22.33625
 31
0.0
  0
LINE
  8
8
  6
CONTINUOUS
 62
     2
  5
694
 10
60.212
 20
22.33625
 30
0.0
 11
60.212083
 21
22.33625
 31
0.0
  0
LINE
  8
1
  6
CONTINUOUS
 62
     2
  5
695
 10
64.13675
 20
19.01925
 30
0.0
 11
65.012833
 21
19.01925
 31
0.0
  0
LINE
  8
1
  6
CONTINUOUS
 62
     2
  5
696
 10
64.13675
 20
19.908333
 30
0.0
 11
65.012833
 21
19.908333
 31
0.0
  0
LINE
  8
1
  6
CONTINUOUS
 62
     2
  5
697
 10
64.832833
 20
19.14425
 30
0.0
 11
64.832833
 21
19.280083
 31
0.0
  0
LINE
  8
1
  6
CONTINUOUS
 62
     2
  5
698
 10
64.832833
 20
19.783333
 30
0.0
 11
64.832833
 21
19.647583
 31
0.0
  0
SOLID
  8
1
  6
CONTINUOUS
 62
     2
  5
699
 10
64.812
 20
19.14425
 30
0.0
 11
64.853667
 21
19.14425
 31
0.0
 12
64.832833
 22
19.01925
 32
0.0
 13
64.832833
 23
19.01925
 33
0.0
  0
SOLID
  8
1
  6
CONTINUOUS
 62
     2
  5
69A
 10
64.812
 20
19.78325
 30
0.0
 11
64.853667
 21
19.78325
 31
0.0
 12
64.832833
 22
19.90825
 32
0.0
 13
64.832833
 23
19.90825
 33
0.0
  0
TEXT
  8
1
  6
CONTINUOUS
 62
     2
  5
69B
 10
64.59775
 20
19.401333
 30
0.0
 40
0.125
  1
1'-6"
  7
MONOTXT
210
0.0
220
0.0
230
1.0
  0
LINE
  8
8
  6
CONTINUOUS
 62
     7
  5
69C
 10
64.07425
 20
19.01925
 30
0.0
 11
64.074333
 21
19.01925
 31
0.0
  0
LINE
  8
8
  6
CONTINUOUS
 62
     7
  5
69D
 10
64.07425
 20
19.908333
 30
0.0
 11
64.074333
 21
19.908333
 31
0.0
  0
LINE
  8
8
  6
CONTINUOUS
 62
     2
  5
69E
 10
64.832833
 20
19.908333
 30
0.0
 11
64.832917
 21
19.908333
 31
0.0
  0
LINE
  8
1
  6
CONTINUOUS
 62
     2
  5
69F
 10
64.13675
 20
20.215583
 30
0.0
 11
65.557583
 21
20.215583
 31
0.0
  0
LINE
  8
1
  6
CONTINUOUS
 62
     2
  5
6A0
 10
64.13675
 20
19.01925
 30
0.0
 11
65.557583
 21
19.01925
 31
0.0
  0
LINE
  8
1
  6
CONTINUOUS
 62
     2
  5
6A1
 10
65.377583
 20
20.090583
 30
0.0
 11
65.377583
 21
19.801167
 31
0.0
  0
LINE
  8
1
  6
CONTINUOUS
 62
     2
  5
6A2
 10
65.377583
 20
19.14425
 30
0.0
 11
65.377583
 21
19.433667
 31
0.0
  0
SOLID
  8
1
  6
CONTINUOUS
 62
     2
  5
6A3
 10
65.35675
 20
20.090583
 30
0.0
 11
65.398417
 21
20.090583
 31
0.0
 12
65.377583
 22
20.215583
 32
0.0
 13
65.377583
 23
20.215583
 33
0.0
  0
SOLID
  8
1
  6
CONTINUOUS
 62
     2
  5
6A4
 10
65.35675
 20
19.14425
 30
0.0
 11
65.398417
 21
19.14425
 31
0.0
 12
65.377583
 22
19.01925
 32
0.0
 13
65.377583
 23
19.01925
 33
0.0
  0
TEXT
  8
1
  6
CONTINUOUS
 62
     2
  5
6A5
 10
65.1305
 20
19.554917
 30
0.0
 40
0.125
  1
2'-0"
  7
MONOTXT
210
0.0
220
0.0
230
1.0
  0
LINE
  8
8
  6
CONTINUOUS
 62
     7
  5
6A6
 10
64.07425
 20
20.215583
 30
0.0
 11
64.074333
 21
20.215583
 31
0.0
  0
LINE
  8
8
  6
CONTINUOUS
 62
     7
  5
6A7
 10
64.07425
 20
19.01925
 30
0.0
 11
64.074333
 21
19.01925
 31
0.0
  0
LINE
  8
8
  6
CONTINUOUS
 62
     2
  5
6A8
 10
65.377583
 20
19.01925
 30
0.0
 11
65.377667
 21
19.01925
 31
0.0
  0
LINE
  8
1
  6
CONTINUOUS
 62
     2
  5
6A9
 10
64.13675
 20
19.908333
 30
0.0
 11
65.012833
 21
19.908333
 31
0.0
  0
LINE
  8
1
  6
CONTINUOUS
 62
     2
  5
6AA
 10
64.13675
 20
20.215583
 30
0.0
 11
65.012833
 21
20.215583
 31
0.0
  0
LINE
  8
1
  6
CONTINUOUS
 62
     2
  5
6AB
 10
64.832833
 20
19.783333
 30
0.0
 11
64.832833
 21
19.658333
 31
0.0
  0
LINE
  8
1
  6
CONTINUOUS
 62
     2
  5
6AC
 10
64.832833
 20
20.340583
 30
0.0
 11
64.832833
 21
20.465583
 31
0.0
  0
SOLID
  8
1
  6
CONTINUOUS
 62
     2
  5
6AD
 10
64.812
 20
19.78325
 30
0.0
 11
64.853667
 21
19.78325
 31
0.0
 12
64.832833
 22
19.90825
 32
0.0
 13
64.832833
 23
19.90825
 33
0.0
  0
SOLID
  8
1
  6
CONTINUOUS
 62
     2
  5
6AE
 10
64.812
 20
20.340583
 30
0.0
 11
64.853667
 21
20.340583
 31
0.0
 12
64.832833
 22
20.215583
 32
0.0
 13
64.832833
 23
20.215583
 33
0.0
  0
TEXT
  8
1
  6
CONTINUOUS
 62
     2
  5
6AF
 10
64.782083
 20
19.994083
 30
0.0
 40
0.125
  1
6"
  7
MONOTXT
210
0.0
220
0.0
230
1.0
  0
LINE
  8
8
  6
CONTINUOUS
 62
     7
  5
6B0
 10
64.07425
 20
19.908333
 30
0.0
 11
64.074333
 21
19.908333
 31
0.0
  0
LINE
  8
8
  6
CONTINUOUS
 62
     7
  5
6B1
 10
64.07425
 20
20.215583
 30
0.0
 11
64.074333
 21
20.215583
 31
0.0
  0
LINE
  8
8
  6
CONTINUOUS
 62
     2
  5
6B2
 10
64.832833
 20
20.215583
 30
0.0
 11
64.832917
 21
20.215583
 31
0.0
  0
LINE
  8
1
  6
CONTINUOUS
 62
     2
  5
6B3
 10
64.13675
 20
21.34725
 30
0.0
 11
65.012833
 21
21.34725
 31
0.0
  0
LINE
  8
1
  6
CONTINUOUS
 62
     2
  5
6B4
 10
64.13675
 20
20.215583
 30
0.0
 11
65.012833
 21
20.215583
 31
0.0
  0
LINE
  8
1
  6
CONTINUOUS
 62
     2
  5
6B5
 10
64.832833
 20
21.22225
 30
0.0
 11
64.832833
 21
20.965167
 31
0.0
  0
LINE
  8
1
  6
CONTINUOUS
 62
     2
  5
6B6
 10
64.832833
 20
20.340583
 30
0.0
 11
64.832833
 21
20.597667
 31
0.0
  0
SOLID
  8
1
  6
CONTINUOUS
 62
     2
  5
6B7
 10
64.812
 20
21.22225
 30
0.0
 11
64.853667
 21
21.22225
 31
0.0
 12
64.832833
 22
21.34725
 32
0.0
 13
64.832833
 23
21.34725
 33
0.0
  0
SOLID
  8
1
  6
CONTINUOUS
 62
     2
  5
6B8
 10
64.812
 20
20.340583
 30
0.0
 11
64.853667
 21
20.340583
 31
0.0
 12
64.832833
 22
20.215583
 32
0.0
 13
64.832833
 23
20.215583
 33
0.0
  0
TEXT
  8
1
  6
CONTINUOUS
 62
     2
  5
6B9
 10
64.791167
 20
20.718833
 30
0.0
 40
0.125
  1
B
  7
MONOTXT
210
0.0
220
0.0
230
1.0
  0
LINE
  8
8
  6
CONTINUOUS
 62
     7
  5
6BA
 10
64.07425
 20
21.34725
 30
0.0
 11
64.074333
 21
21.34725
 31
0.0
  0
LINE
  8
8
  6
CONTINUOUS
 62
     7
  5
6BB
 10
64.07425
 20
20.215583
 30
0.0
 11
64.074333
 21
20.215583
 31
0.0
  0
LINE
  8
8
  6
CONTINUOUS
 62
     2
  5
6BC
 10
64.832833
 20
20.215583
 30
0.0
 11
64.832917
 21
20.215583
 31
0.0
  0
LINE
  8
1
  6
CONTINUOUS
 62
     2
  5
6BD
 10
61.828917
 20
22.517083
 30
0.0
 11
65.567
 21
22.517083
 31
0.0
  0
LINE
  8
1
  6
CONTINUOUS
 62
     2
  5
6BE
 10
64.13675
 20
20.215583
 30
0.0
 11
65.567
 21
20.215583
 31
0.0
  0
LINE
  8
1
  6
CONTINUOUS
 62
     2
  5
6BF
 10
65.387
 20
22.392083
 30
0.0
 11
65.387
 21
21.550083
 31
0.0
  0
LINE
  8
1
  6
CONTINUOUS
 62
     2
  5
6C0
 10
65.387
 20
20.340583
 30
0.0
 11
65.387
 21
21.182583
 31
0.0
  0
SOLID
  8
1
  6
CONTINUOUS
 62
     2
  5
6C1
 10
65.366167
 20
22.392083
 30
0.0
 11
65.407833
 21
22.392083
 31
0.0
 12
65.387
 22
22.517083
 32
0.0
 13
65.387
 23
22.517083
 33
0.0
  0
SOLID
  8
1
  6
CONTINUOUS
 62
     2
  5
6C2
 10
65.366167
 20
20.340583
 30
0.0
 11
65.407833
 21
20.340583
 31
0.0
 12
65.387
 22
20.215583
 32
0.0
 13
65.387
 23
20.215583
 33
0.0
  0
TEXT
  8
1
  6
CONTINUOUS
 62
     2
  5
6C3
 10
65.342333
 20
21.303833
 30
0.0
 40
0.125
  1
C
  7
MONOTXT
210
0.0
220
0.0
230
1.0
  0
LINE
  8
8
  6
CONTINUOUS
 62
     7
  5
6C4
 10
61.766417
 20
22.517083
 30
0.0
 11
61.7665
 21
22.517083
 31
0.0
  0
LINE
  8
8
  6
CONTINUOUS
 62
     7
  5
6C5
 10
64.07425
 20
20.215583
 30
0.0
 11
64.074333
 21
20.215583
 31
0.0
  0
LINE
  8
8
  6
CONTINUOUS
 62
     2
  5
6C6
 10
65.387
 20
20.215583
 30
0.0
 11
65.387083
 21
20.215583
 31
0.0
  0
LINE
  8
1
  6
CONTINUOUS
 62
     2
  5
6C7
 10
63.755167
 20
18.95675
 30
0.0
 11
63.755167
 21
18.33575
 31
0.0
  0
LINE
  8
1
  6
CONTINUOUS
 62
     2
  5
6C8
 10
64.07425
 20
18.95675
 30
0.0
 11
64.07425
 21
18.33575
 31
0.0
  0
LINE
  8
1
  6
CONTINUOUS
 62
     2
  5
6C9
 10
63.630167
 20
18.51575
 30
0.0
 11
63.505167
 21
18.51575
 31
0.0
  0
LINE
  8
1
  6
CONTINUOUS
 62
     2
  5
6CA
 10
64.19925
 20
18.51575
 30
0.0
 11
64.32425
 21
18.51575
 31
0.0
  0
SOLID
  8
1
  6
CONTINUOUS
 62
     2
  5
6CB
 10
63.630083
 20
18.536583
 30
0.0
 11
63.630083
 21
18.494833
 31
0.0
 12
63.755083
 22
18.51575
 32
0.0
 13
63.755083
 23
18.51575
 33
0.0
  0
SOLID
  8
1
  6
CONTINUOUS
 62
     2
  5
6CC
 10
64.19925
 20
18.536583
 30
0.0
 11
64.19925
 21
18.494833
 31
0.0
 12
64.07425
 22
18.51575
 32
0.0
 13
64.07425
 23
18.51575
 33
0.0
  0
TEXT
  8
1
  6
CONTINUOUS
 62
     2
  5
6CD
 10
64.455917
 20
18.45325
 30
0.0
 40
0.125
  1
6"
  7
MONOTXT
210
0.0
220
0.0
230
1.0
  0
LINE
  8
8
  6
CONTINUOUS
 62
     7
  5
6CE
 10
63.755167
 20
19.01925
 30
0.0
 11
63.75525
 21
19.01925
 31
0.0
  0
LINE
  8
8
  6
CONTINUOUS
 62
     7
  5
6CF
 10
64.07425
 20
19.01925
 30
0.0
 11
64.074333
 21
19.01925
 31
0.0
  0
LINE
  8
8
  6
CONTINUOUS
 62
     2
  5
6D0
 10
64.07425
 20
18.51575
 30
0.0
 11
64.074333
 21
18.51575
 31
0.0
  0
LINE
  8
1
  6
CONTINUOUS
 62
     2
  5
6D1
 10
61.28675
 20
22.579583
 30
0.0
 11
61.28675
 21
23.025583
 31
0.0
  0
LINE
  8
1
  6
CONTINUOUS
 62
     2
  5
6D2
 10
61.467417
 20
22.452
 30
0.0
 11
61.467417
 21
23.025583
 31
0.0
  0
LINE
  8
1
  6
CONTINUOUS
 62
     2
  5
6D3
 10
61.16175
 20
22.845583
 30
0.0
 11
61.03675
 21
22.845583
 31
0.0
  0
LINE
  8
1
  6
CONTINUOUS
 62
     2
  5
6D4
 10
61.592417
 20
22.845583
 30
0.0
 11
61.717417
 21
22.845583
 31
0.0
  0
SOLID
  8
1
  6
CONTINUOUS
 62
     2
  5
6D5
 10
61.16175
 20
22.866417
 30
0.0
 11
61.16175
 21
22.82475
 31
0.0
 12
61.28675
 22
22.845583
 32
0.0
 13
61.28675
 23
22.845583
 33
0.0
  0
SOLID
  8
1
  6
CONTINUOUS
 62
     2
  5
6D6
 10
61.592417
 20
22.866417
 30
0.0
 11
61.592417
 21
22.82475
 31
0.0
 12
61.467417
 22
22.845583
 32
0.0
 13
61.467417
 23
22.845583
 33
0.0
  0
TEXT
  8
1
  6
CONTINUOUS
 62
     2
  5
6D7
 10
61.731583
 20
22.770583
 30
0.0
 40
0.125
  1
3"
  7
MONOTXT
210
0.0
220
0.0
230
1.0
  0
LINE
  8
8
  6
CONTINUOUS
 62
     7
  5
6D8
 10
61.28675
 20
22.517083
 30
0.0
 11
61.286833
 21
22.517083
 31
0.0
  0
LINE
  8
8
  6
CONTINUOUS
 62
     7
  5
6D9
 10
61.467417
 20
22.3895
 30
0.0
 11
61.4675
 21
22.3895
 31
0.0
  0
LINE
  8
8
  6
CONTINUOUS
 62
     2
  5
6DA
 10
61.467417
 20
22.845583
 30
0.0
 11
61.4675
 21
22.845583
 31
0.0
  0
LINE
  8
1
  6
CONTINUOUS
 62
     2
  5
6DB
 10
67.731
 20
22.168417
 30
0.0
 11
67.731
 21
22.494
 31
0.0
  0
LINE
  8
1
  6
CONTINUOUS
 62
     2
  5
6DC
 10
68.646833
 20
22.168417
 30
0.0
 11
68.646833
 21
22.494
 31
0.0
  0
LINE
  8
1
  6
CONTINUOUS
 62
     2
  5
6DD
 10
67.856
 20
22.314
 30
0.0
 11
68.031917
 21
22.314
 31
0.0
  0
LINE
  8
1
  6
CONTINUOUS
 62
     2
  5
6DE
 10
68.521833
 20
22.314
 30
0.0
 11
68.345833
 21
22.314
 31
0.0
  0
SOLID
  8
1
  6
CONTINUOUS
 62
     2
  5
6DF
 10
67.856
 20
22.334833
 30
0.0
 11
67.856
 21
22.293167
 31
0.0
 12
67.731
 22
22.314
 32
0.0
 13
67.731
 23
22.314
 33
0.0
  0
SOLID
  8
1
  6
CONTINUOUS
 62
     2
  5
6E0
 10
68.521833
 20
22.334833
 30
0.0
 11
68.521833
 21
22.293167
 31
0.0
 12
68.646833
 22
22.314
 32
0.0
 13
68.646833
 23
22.314
 33
0.0
  0
TEXT
  8
1
  6
CONTINUOUS
 62
     2
  5
6E1
 10
68.14425
 20
22.2515
 30
0.0
 40
0.125
  1
G
  7
MONOTXT
210
0.0
220
0.0
230
1.0
  0
LINE
  8
8
  6
CONTINUOUS
 62
     7
  5
6E2
 10
67.731
 20
22.105917
 30
0.0
 11
67.731083
 21
22.105917
 31
0.0
  0
LINE
  8
8
  6
CONTINUOUS
 62
     7
  5
6E3
 10
68.646833
 20
22.105917
 30
0.0
 11
68.646917
 21
22.105917
 31
0.0
  0
LINE
  8
8
  6
CONTINUOUS
 62
     2
  5
6E4
 10
68.646833
 20
22.314
 30
0.0
 11
68.646917
 21
22.314
 31
0.0
  0
LINE
  8
1
  6
CONTINUOUS
 62
     2
  5
6E5
 10
61.595917
 20
16.362833
 30
0.0
 11
61.336333
 21
16.6295
 31
0.0
  0
LINE
  8
1
  6
CONTINUOUS
 62
     2
  5
6E6
 10
60.965167
 20
15.748833
 30
0.0
 11
60.705583
 21
16.0155
 31
0.0
  0
LINE
  8
1
  6
CONTINUOUS
 62
     7
  5
6E7
 10
61.372333
 20
16.413333
 30
0.0
 11
61.290083
 21
16.33325
 31
0.0
  0
LINE
  8
1
  6
CONTINUOUS
 62
     2
  5
6E8
 10
60.92075
 20
15.97375
 30
0.0
 11
61.002917
 21
16.05375
 31
0.0
  0
SOLID
  8
1
  6
CONTINUOUS
 62
     2
  5
6E9
 10
61.357833
 20
16.42825
 30
0.0
 11
61.386833
 21
16.398417
 31
0.0
 12
61.461917
 22
16.5005
 32
0.0
 13
61.461917
 23
16.5005
 33
0.0
  0
SOLID
  8
1
  6
CONTINUOUS
 62
     2
  5
6EA
 10
60.906167
 20
15.988667
 30
0.0
 11
60.93525
 21
15.958833
 31
0.0
 12
60.831167
 22
15.886583
 32
0.0
 13
60.831167
 23
15.886583
 33
0.0
  0
TEXT
  8
1
  6
CONTINUOUS
 62
     2
  5
6EB
 10
61.110833
 20
16.131
 30
0.0
 40
0.125
  1
b
  7
MONOTXT
210
0.0
220
0.0
230
1.0
  0
LINE
  8
8
  6
CONTINUOUS
 62
     7
  5
6EC
 10
61.639583
 20
16.318
 30
0.0
 11
61.639667
 21
16.318
 31
0.0
  0
LINE
  8
8
  6
CONTINUOUS
 62
     2
  5
6ED
 10
61.00875
 20
15.704083
 30
0.0
 11
61.008833
 21
15.704083
 31
0.0
  0
LINE
  8
8
  6
CONTINUOUS
 62
     2
  5
6EE
 10
60.831167
 20
15.886583
 30
0.0
 11
60.83125
 21
15.886583
 31
0.0
  0
LINE
  8
1
  6
CONTINUOUS
 62
     2
  5
6EF
 10
61.639583
 20
16.3805
 30
0.0
 11
61.639583
 21
16.709917
 31
0.0
  0
LINE
  8
1
  6
CONTINUOUS
 62
     2
  5
6F0
 10
62.7715
 20
16.3805
 30
0.0
 11
62.7715
 21
16.709917
 31
0.0
  0
LINE
  8
1
  6
CONTINUOUS
 62
     2
  5
6F1
 10
61.764583
 20
16.529917
 30
0.0
 11
62.062
 21
16.529917
 31
0.0
  0
LINE
  8
1
  6
CONTINUOUS
 62
     2
  5
6F2
 10
62.6465
 20
16.529917
 30
0.0
 11
62.349083
 21
16.529917
 31
0.0
  0
SOLID
  8
1
  6
CONTINUOUS
 62
     2
  5
6F3
 10
61.764583
 20
16.55075
 30
0.0
 11
61.764583
 21
16.509083
 31
0.0
 12
61.639583
 22
16.529917
 32
0.0
 13
61.639583
 23
16.529917
 33
0.0
  0
SOLID
  8
1
  6
CONTINUOUS
 62
     2
  5
6F4
 10
62.6465
 20
16.55075
 30
0.0
 11
62.6465
 21
16.509083
 31
0.0
 12
62.7715
 22
16.529917
 32
0.0
 13
62.7715
 23
16.529917
 33
0.0
  0
TEXT
  8
1
  6
CONTINUOUS
 62
     2
  5
6F5
 10
62.169833
 20
16.467417
 30
0.0
 40
0.125
  1
a
  7
MONOTXT
210
0.0
220
0.0
230
1.0
  0
LINE
  8
8
  6
CONTINUOUS
 62
     7
  5
6F6
 10
61.639583
 20
16.318
 30
0.0
 11
61.639667
 21
16.318
 31
0.0
  0
LINE
  8
8
  6
CONTINUOUS
 62
     7
  5
6F7
 10
62.7715
 20
16.318
 30
0.0
 11
62.771583
 21
16.318
 31
0.0
  0
LINE
  8
8
  6
CONTINUOUS
 62
     2
  5
6F8
 10
62.7715
 20
16.529917
 30
0.0
 11
62.771583
 21
16.529917
 31
0.0
  0
LINE
  8
1
  6
CONTINUOUS
 62
     2
  5
6F9
 10
62.815167
 20
16.362833
 30
0.0
 11
63.123417
 21
16.6795
 31
0.0
  0
LINE
  8
1
  6
CONTINUOUS
 62
     2
  5
6FA
 10
63.445917
 20
15.748833
 30
0.0
 11
63.754167
 21
16.0655
 31
0.0
  0
LINE
  8
1
  6
CONTINUOUS
 62
     2
  5
6FB
 10
63.087417
 20
16.463333
 30
0.0
 11
63.169667
 21
16.38325
 31
0.0
  0
LINE
  8
1
  6
CONTINUOUS
 62
     2
  5
6FC
 10
63.539
 20
16.02375
 30
0.0
 11
63.456833
 21
16.10375
 31
0.0
  0
SOLID
  8
1
  6
CONTINUOUS
 62
     2
  5
6FD
 10
63.101917
 20
16.47825
 30
0.0
 11
63.072917
 21
16.448417
 31
0.0
 12
62.997833
 22
16.5505
 32
0.0
 13
62.997833
 23
16.5505
 33
0.0
  0
SOLID
  8
1
  6
CONTINUOUS
 62
     2
  5
6FE
 10
63.553583
 20
16.038667
 30
0.0
 11
63.5245
 21
16.008833
 31
0.0
 12
63.628583
 22
15.936583
 32
0.0
 13
63.628583
 23
15.936583
 33
0.0
  0
TEXT
  8
1
  6
CONTINUOUS
 62
     2
  5
6FF
 10
63.2775
 20
16.181
 30
0.0
 40
0.125
  1
b
  7
MONOTXT
210
0.0
220
0.0
230
1.0
  0
LINE
  8
8
  6
CONTINUOUS
 62
     7
  5
700
 10
62.7715
 20
16.318
 30
0.0
 11
62.771583
 21
16.318
 31
0.0
  0
LINE
  8
8
  6
CONTINUOUS
 62
     2
  5
701
 10
63.40225
 20
15.704083
 30
0.0
 11
63.402333
 21
15.704083
 31
0.0
  0
LINE
  8
8
  6
CONTINUOUS
 62
     2
  5
702
 10
63.628583
 20
15.936583
 30
0.0
 11
63.628667
 21
15.936583
 31
0.0
  0
LINE
  8
1
  6
CONTINUOUS
 62
     2
  5
703
 10
61.387167
 20
13.855833
 30
0.0
 11
61.005
 21
13.855833
 31
0.0
  0
LINE
  8
1
  6
CONTINUOUS
 62
     2
  5
704
 10
61.387167
 20
14.855833
 30
0.0
 11
61.005
 21
14.855833
 31
0.0
  0
LINE
  8
1
  6
CONTINUOUS
 62
     2
  5
705
 10
61.185
 20
13.980833
 30
0.0
 11
61.185
 21
14.172083
 31
0.0
  0
LINE
  8
1
  6
CONTINUOUS
 62
     2
  5
706
 10
61.185
 20
14.730833
 30
0.0
 11
61.185
 21
14.539583
 31
0.0
  0
SOLID
  8
1
  6
CONTINUOUS
 62
     2
  5
707
 10
61.164167
 20
13.980833
 30
0.0
 11
61.205833
 21
13.980833
 31
0.0
 12
61.185
 22
13.855833
 32
0.0
 13
61.185
 23
13.855833
 33
0.0
  0
SOLID
  8
1
  6
CONTINUOUS
 62
     2
  5
708
 10
61.164167
 20
14.730833
 30
0.0
 11
61.205833
 21
14.730833
 31
0.0
 12
61.185
 22
14.855833
 32
0.0
 13
61.185
 23
14.855833
 33
0.0
  0
TEXT
  8
1
  6
CONTINUOUS
 62
     2
  5
709
 10
61.054083
 20
14.293333
 30
0.0
 40
0.125
  1
18"
  7
MONOTXT
210
0.0
220
0.0
230
1.0
  0
LINE
  8
8
  6
CONTINUOUS
 62
     7
  5
70A
 10
61.449667
 20
13.855833
 30
0.0
 11
61.44975
 21
13.855833
 31
0.0
  0
LINE
  8
8
  6
CONTINUOUS
 62
     7
  5
70B
 10
61.449667
 20
14.855833
 30
0.0
 11
61.44975
 21
14.855833
 31
0.0
  0
LINE
  8
8
  6
CONTINUOUS
 62
     2
  5
70C
 10
61.185
 20
14.855833
 30
0.0
 11
61.185083
 21
14.855833
 31
0.0
  0
LINE
  8
1
  6
CONTINUOUS
 62
     2
  5
70D
 10
61.449667
 20
13.793333
 30
0.0
 11
61.449667
 21
13.310167
 31
0.0
  0
LINE
  8
1
  6
CONTINUOUS
 62
     2
  5
70E
 10
62.449667
 20
13.793333
 30
0.0
 11
62.449667
 21
13.310167
 31
0.0
  0
SOLID
  8
1
  6
CONTINUOUS
 62
     2
  5
70F
 10
62.324667
 20
13.511
 30
0.0
 11
62.324667
 21
13.469333
 31
0.0
 12
62.449667
 22
13.490167
 32
0.0
 13
62.449667
 23
13.490167
 33
0.0
  0
SOLID
  8
1
  6
CONTINUOUS
 62
     2
  5
710
 10
61.574667
 20
13.511
 30
0.0
 11
61.574667
 21
13.469333
 31
0.0
 12
61.449667
 22
13.490167
 32
0.0
 13
61.449667
 23
13.490167
 33
0.0
  0
TEXT
  8
1
  6
CONTINUOUS
 62
     2
  5
711
 10
61.855167
 20
13.427667
 30
0.0
 40
0.125
  1
18"
  7
MONOTXT
210
0.0
220
0.0
230
1.0
  0
LINE
  8
8
  6
CONTINUOUS
 62
     7
  5
712
 10
61.449667
 20
13.855833
 30
0.0
 11
61.44975
 21
13.855833
 31
0.0
  0
LINE
  8
8
  6
CONTINUOUS
 62
     7
  5
713
 10
62.449667
 20
13.855833
 30
0.0
 11
62.44975
 21
13.855833
 31
0.0
  0
LINE
  8
1
  6
CONTINUOUS
 62
     2
  5
714
 10
67.151083
 20
14.60625
 30
0.0
 11
67.151083
 21
14.068583
 31
0.0
  0
LINE
  8
1
  6
CONTINUOUS
 62
     2
  5
715
 10
68.08575
 20
14.60625
 30
0.0
 11
68.08575
 21
14.068583
 31
0.0
  0
SOLID
  8
1
  6
CONTINUOUS
 62
     2
  5
716
 10
67.96075
 20
14.141083
 30
0.0
 11
67.96075
 21
14.099417
 31
0.0
 12
68.08575
 22
14.12025
 32
0.0
 13
68.08575
 23
14.12025
 33
0.0
  0
SOLID
  8
1
  6
CONTINUOUS
 62
     2
  5
717
 10
67.276
 20
14.141083
 30
0.0
 11
67.276
 21
14.099417
 31
0.0
 12
67.151
 22
14.12025
 32
0.0
 13
67.151
 23
14.12025
 33
0.0
  0
TEXT
  8
1
  6
CONTINUOUS
 62
     2
  5
718
 10
67.556417
 20
14.05775
 30
0.0
 40
0.125
  1
12"
  7
MONOTXT
210
0.0
220
0.0
230
1.0
  0
LINE
  8
8
  6
CONTINUOUS
 62
     7
  5
719
 10
67.151083
 20
14.66875
 30
0.0
 11
67.151167
 21
14.66875
 31
0.0
  0
LINE
  8
8
  6
CONTINUOUS
 62
     7
  5
71A
 10
68.08575
 20
14.66875
 30
0.0
 11
68.085833
 21
14.66875
 31
0.0
  0
SOLID
  8
3
  6
CONTINUOUS
 62
     2
  5
71B
 10
62.686833
 20
21.91125
 30
0.0
 11
62.653583
 21
21.93625
 31
0.0
 12
62.595167
 22
21.82375
 32
0.0
 13
62.595167
 23
21.82375
 33
0.0
  0
LINE
  8
3
  6
CONTINUOUS
 62
     2
  5
71C
 10
62.67025
 20
21.92375
 30
0.0
 11
62.953333
 21
22.301083
 31
0.0
  0
LINE
  8
3
  6
CONTINUOUS
 62
     2
  5
71D
 10
62.953333
 20
22.301083
 30
0.0
 11
63.048083
 21
22.301083
 31
0.0
  0
TEXT
  8
3
  6
CONTINUOUS
 62
     2
  5
71E
 10
63.131583
 20
22.25
 30
0.0
 40
0.125
  1
#4h Bar
  7
MONOTXT
210
0.0
220
0.0
230
1.0
  0
TEXT
  8
3
  6
CONTINUOUS
 62
     2
  5
71F
 10
63.46425
 20
22.218333
 30
0.0
 40
0.0625
  1
1
  7
MONOTXT
210
0.0
220
0.0
230
1.0
  0
SOLID
  8
3
  6
CONTINUOUS
 62
     2
  5
720
 10
53.391
 20
19.59125
 30
0.0
 11
53.514167
 21
19.613
 31
0.0
 12
53.514167
 22
19.5695
 32
0.0
 13
53.514167
 23
19.5695
 33
0.0
  0
TEXT
  8
3
  6
CONTINUOUS
 62
     2
  5
721
 10
50.717833
 20
15.92675
 30
0.0
 40
0.0625
  1
1
  7
MONOTXT
210
0.0
220
0.0
230
1.0
  0
LINE
  8
6
  6
CENTER
 62
     2
  5
722
 10
53.382
 20
11.145083
 30
0.0
 11
53.382
 21
11.684417
 31
0.0
  0
LINE
  8
6
  6
CENTER
 62
     2
  5
723
 10
53.382
 20
16.465
 30
0.0
 11
53.382
 21
16.589583
 31
0.0
  0
LINE
  8
6
  6
CENTER
 62
     2
  5
724
 10
53.382
 20
11.96225
 30
0.0
 11
53.382
 21
12.182583
 31
0.0
  0
LINE
  8
6
  6
CENTER
 62
     2
  5
725
 10
53.382
 20
12.517917
 30
0.0
 11
53.382
 21
16.091333
 31
0.0
  0
SOLID
  8
1
  6
CONTINUOUS
 62
     2
  5
726
 10
48.213083
 20
15.553833
 30
0.0
 11
48.25475
 21
15.553833
 31
0.0
 12
48.233917
 22
15.428833
 32
0.0
 13
48.233917
 23
15.428833
 33
0.0
  0
LINE
  8
8
  6
CONTINUOUS
 62
     2
  5
727
 10
48.233917
 20
15.428833
 30
0.0
 11
48.234
 21
15.428833
 31
0.0
  0
LINE
  8
1
  6
CONTINUOUS
 62
     2
  5
728
 10
48.234
 20
15.777417
 30
0.0
 11
48.234
 21
15.754167
 31
0.0
  0
LINE
  8
1
  6
CONTINUOUS
 62
     2
  5
729
 10
48.233917
 20
15.553833
 30
0.0
 11
48.233917
 21
15.579333
 31
0.0
  0
LINE
  8
3
  6
CONTINUOUS
 62
     2
  5
72A
 10
61.891417
 20
23.53125
 30
0.0
 11
62.802833
 21
23.53125
 31
0.0
  0
LINE
  8
3
  6
CONTINUOUS
 62
     2
  5
72B
 10
63.041917
 20
23.53125
 30
0.0
 11
63.94925
 21
23.53125
 31
0.0
  0
TEXT
  8
3
  6
CONTINUOUS
 62
     2
  5
72C
 10
69.107583
 20
20.526167
 30
0.0
 40
0.125
  1
0.063xI.D.= Bevel Length
  7
MONOTXT
210
0.0
220
0.0
230
1.0
  0
ARC
  8
3
  6
CONTINUOUS
 62
     2
  5
72D
 10
68.4815
 20
20.788083
 30
0.0
 40
1.729563
 50
23.618142
 51
349.252433
210
0.0
220
0.0
230
1.0
  0
ARC
  8
3
  6
CONTINUOUS
 62
     2
  5
72E
 10
68.4815
 20
20.788083
 30
0.0
 40
1.729563
 50
356.506892
 51
3.924269
210
0.0
220
0.0
230
1.0
  0
TEXT
  8
1
  6
CONTINUOUS
 62
     7
  5
72F
 10
61.389333
 20
15.778833
 30
0.0
 40
0.125
  1
1
  7
MONOTXT
210
0.0
220
0.0
230
1.0
  0
TEXT
  8
1
  6
CONTINUOUS
 62
     7
  5
730
 10
61.589
 20
16.005583
 30
0.0
 40
0.125
  1
1
  7
MONOTXT
210
0.0
220
0.0
230
1.0
  0
LINE
  8
1
  6
CONTINUOUS
 62
     2
  5
731
 10
61.574667
 20
13.490167
 30
0.0
 11
61.837167
 21
13.490167
 31
0.0
  0
LINE
  8
1
  6
CONTINUOUS
 62
     2
  5
732
 10
62.131333
 20
13.490167
 30
0.0
 11
62.449667
 21
13.490167
 31
0.0
  0
LINE
  8
1
  6
CONTINUOUS
 62
     2
  5
733
 10
67.276
 20
14.12025
 30
0.0
 11
67.542583
 21
14.12025
 31
0.0
  0
LINE
  8
1
  6
CONTINUOUS
 62
     2
  5
734
 10
67.835083
 20
14.12025
 30
0.0
 11
68.08575
 21
14.12025
 31
0.0
  0
ARC
  8
3
  6
CONTINUOUS
 62
     2
  5
735
 10
67.577417
 20
14.976167
 30
0.0
 40
1.136542
 50
188.688044
 51
182.108122
210
0.0
220
0.0
230
1.0
  0
POINT
  8
1
  6
DASHED
 62
     2
  5
736
 10
46.103167
 20
24.724333
 30
0.0
  0
POINT
  8
1
  6
DASHED
 62
     2
  5
737
 10
79.328167
 20
3.604333
 30
0.0
  0
LINE
  8
1
  6
DASHED
 62
     4
  5
738
 10
79.1985
 20
25.204333
 30
0.0
 11
43.9985
 21
25.204333
 31
0.0
  0
LINE
  8
1
  6
DASHED
 62
     4
  5
739
 10
79.1985
 20
3.204333
 30
0.0
 11
43.9985
 21
3.204333
 31
0.0
  0
LINE
  8
1
  6
DASHED
 62
     4
  5
73A
 10
45.5735
 20
25.204333
 30
0.0
 11
45.5735
 21
3.204333
 31
0.0
  0
LINE
  8
1
  6
CONTINUOUS
 62
   140
  5
73B
 10
46.615167
 20
24.704333
 30
0.0
 11
46.615167
 21
3.704333
 31
0.0
  0
LINE
  8
1
  6
CONTINUOUS
 62
   140
  5
73C
 10
79.115167
 20
24.704333
 30
0.0
 11
46.615167
 21
24.704333
 31
0.0
  0
LINE
  8
1
  6
CONTINUOUS
 62
   140
  5
73D
 10
79.115167
 20
24.704333
 30
0.0
 11
79.115167
 21
3.704333
 31
0.0
  0
LINE
  8
1
  6
CONTINUOUS
 62
   140
  5
73E
 10
79.115167
 20
3.704333
 30
0.0
 11
46.615167
 21
3.704333
 31
0.0
  0
LINE
  8
1
  6
CONTINUOUS
 62
   140
  5
73F
 10
46.365167
 20
20.804333
 30
0.0
 11
45.965167
 21
20.804333
 31
0.0
  0
LINE
  8
1
  6
CONTINUOUS
 62
   140
  5
740
 10
46.365167
 20
18.004333
 30
0.0
 11
45.965167
 21
18.004333
 31
0.0
  0
LINE
  8
1
  6
CONTINUOUS
 62
   140
  5
741
 10
46.365167
 20
10.404333
 30
0.0
 11
45.965167
 21
10.404333
 31
0.0
  0
LINE
  8
1
  6
CONTINUOUS
 62
   140
  5
742
 10
46.365167
 20
7.604333
 30
0.0
 11
45.965167
 21
7.604333
 31
0.0
  0
CIRCLE
  8
1
  6
CONTINUOUS
 62
   140
  5
743
 10
46.115167
 20
20.804333
 30
0.0
 40
0.125
210
0.0
220
0.0
230
1.0
  0
CIRCLE
  8
1
  6
CONTINUOUS
 62
   140
  5
744
 10
46.115167
 20
18.004333
 30
0.0
 40
0.125
210
0.0
220
0.0
230
1.0
  0
CIRCLE
  8
1
  6
CONTINUOUS
 62
   140
  5
745
 10
46.115167
 20
10.404333
 30
0.0
 40
0.125
210
0.0
220
0.0
230
1.0
  0
CIRCLE
  8
1
  6
CONTINUOUS
 62
   140
  5
746
 10
46.115167
 20
7.604333
 30
0.0
 40
0.125
210
0.0
220
0.0
230
1.0
  0
TEXT
  8
1
  6
CONTINUOUS
 62
   140
  5
748
 10
75.570917
 20
3.612583
 30
0.0
 40
0.06
  1
$$$$$$$$$FILENAME$$$$$$$$
  7
txt
 11
75.570917
 21
3.642583
 31
0.0
210
0.0
220
0.0
230
1.0
 73
     2
  0
TEXT
  8
1
  6
CONTINUOUS
 62
   140
  5
749
 10
77.295
 20
3.612583
 30
0.0
 40
0.06
  1
$USERNAME$
  7
txt
 11
77.295
 21
3.642583
 31
0.0
210
0.0
220
0.0
230
1.0
 73
     2
  0
TEXT
  8
1
  6
CONTINUOUS
 62
   140
  5
74A
 10
78.068583
 20
3.612583
 30
0.0
 40
0.06
  1
DD-MMM-YYYY HH:MM
  7
txt
 11
78.068583
 21
3.642583
 31
0.0
210
0.0
220
0.0
230
1.0
 73
     2
  0
POINT
  8
1
  6
CONTINUOUS
 62
   140
  5
74B
 10
46.615167
 20
3.704333
 30
0.0
  0
POINT
  8
1
  6
CONTINUOUS
 62
   140
  5
74C
 10
46.615167
 20
24.704333
 30
0.0
  0
POINT
  8
1
  6
CONTINUOUS
 62
   140
  5
74D
 10
79.115167
 20
24.704333
 30
0.0
  0
POINT
  8
1
  6
CONTINUOUS
 62
   140
  5
74E
 10
79.115167
 20
3.704333
 30
0.0
  0
LINE
  8
1
  6
CONTINUOUS
 62
   140
  5
74F
 10
79.115167
 20
3.704333
 30
0.0
 11
79.115167
 21
6.203333
 31
0.0
  0
LINE
  8
1
  6
CONTINUOUS
 62
   140
  5
750
 10
79.115167
 20
7.194167
 30
0.0
 11
73.115167
 21
7.194167
 31
0.0
  0
LINE
  8
1
  6
CONTINUOUS
 62
   140
  5
751
 10
79.115167
 20
3.704333
 30
0.0
 11
73.115167
 21
3.704333
 31
0.0
  0
LINE
  8
1
  6
CONTINUOUS
 62
   140
  5
752
 10
74.653083
 20
5.603333
 30
0.0
 11
73.115167
 21
5.603333
 31
0.0
  0
LINE
  8
1
  6
CONTINUOUS
 62
   140
  5
753
 10
74.653083
 20
5.404333
 30
0.0
 11
73.115167
 21
5.404333
 31
0.0
  0
LINE
  8
1
  6
CONTINUOUS
 62
   140
  5
754
 10
74.653083
 20
5.205333
 30
0.0
 11
73.115167
 21
5.205333
 31
0.0
  0
LINE
  8
1
  6
CONTINUOUS
 62
   140
  5
755
 10
74.653083
 20
5.006333
 30
0.0
 11
73.115167
 21
5.006333
 31
0.0
  0
LINE
  8
1
  6
CONTINUOUS
 62
   140
  5
756
 10
74.653083
 20
4.807333
 30
0.0
 11
73.115167
 21
4.807333
 31
0.0
  0
LINE
  8
1
  6
CONTINUOUS
 62
   140
  5
757
 10
74.653083
 20
4.608333
 30
0.0
 11
73.115167
 21
4.608333
 31
0.0
  0
LINE
  8
1
  6
CONTINUOUS
 62
   140
  5
758
 10
74.653083
 20
4.409333
 30
0.0
 11
73.115167
 21
4.409333
 31
0.0
  0
LINE
  8
1
  6
CONTINUOUS
 62
   140
  5
759
 10
74.653083
 20
4.210333
 30
0.0
 11
73.115167
 21
4.210333
 31
0.0
  0
LINE
  8
1
  6
CONTINUOUS
 62
   140
  5
75A
 10
74.653083
 20
4.011333
 30
0.0
 11
73.115167
 21
4.011333
 31
0.0
  0
TEXT
  8
1
  6
CONTINUOUS
 62
   140
  5
75B
 10
73.42225
 20
5.650667
 30
0.0
 40
0.079
  1
REVISION DATE
 41
1.003165
  7
MONOTXT
210
0.0
220
0.0
230
1.0
  0
LINE
  8
1
  6
CONTINUOUS
 62
   140
  5
75C
 10
73.115167
 20
5.114333
 30
0.0
 11
73.115167
 21
3.704333
 31
0.0
  0
TEXT
  8
1
  6
CONTINUOUS
 62
   140
  5
75E
 10
73.3265
 20
6.93925
 30
0.0
 40
0.1875
  1
WEST VIRGINIA DEPARTMENT OF TRANSPORTATION
  7
ROMANT
 72
     4
 11
76.096833
 21
7.033
 31
0.0
210
0.0
220
0.0
230
1.0
  0
TEXT
  8
1
  6
CONTINUOUS
 62
   140
  5
75F
 10
74.899333
 20
6.730333
 30
0.0
 40
0.1875
  1
DIVISION OF HIGHWAYS
  7
ROMANT
 72
     4
 11
76.118833
 21
6.824083
 31
0.0
210
0.0
220
0.0
230
1.0
  0
TEXT
  8
1
  6
CONTINUOUS
 62
   140
  5
760
 10
75.129417
 20
6.532167
 30
0.0
 40
0.1875
  1
STANDARD DETAIL
  7
ROMANT
 72
     4
 11
76.1075
 21
6.625917
 31
0.0
210
0.0
220
0.0
230
1.0
  0
LINE
  8
1
  6
CONTINUOUS
 62
   140
  5
761
 10
74.653083
 20
5.803333
 30
0.0
 11
73.115167
 21
5.803333
 31
0.0
  0
LINE
  8
1
  6
CONTINUOUS
 62
   140
  5
762
 10
74.653083
 20
3.704333
 30
0.0
 11
74.653083
 21
5.803333
 31
0.0
  0
LINE
  8
1
  6
CONTINUOUS
 62
   140
  5
763
 10
73.115167
 20
3.704333
 30
0.0
 11
73.115167
 21
7.194167
 31
0.0
  0
TEXT
  8
1
  6
CONTINUOUS
 62
     2
  5
764
 10
75.122167
 20
3.921417
 30
0.0
 40
0.166667
  1
STANDARD SHEET DR2       
  7
txt
 72
     4
 11
77.1615
 21
4.00475
 31
0.0
210
0.0
220
0.0
230
1.0
  0
TEXT
  8
1
  6
CONTINUOUS
 62
     2
  5
765
 10
74.38075
 20
6.066417
 30
0.0
 40
0.208333
  1
                        
  7
txt
 72
     4
 11
76.846
 21
6.170583
 31
0.0
210
0.0
220
0.0
230
1.0
  0
TEXT
  8
1
  6
CONTINUOUS
 62
     2
  5
766
 10
74.7735
 20
5.694833
 30
0.0
 40
0.208333
  1
      PIPE CULVERT      
  7
txt
 72
     4
 11
77.224333
 21
5.799
 31
0.0
210
0.0
220
0.0
230
1.0
  0
TEXT
  8
1
  6
CONTINUOUS
 62
     2
  5
767
 10
74.501417
 20
5.314167
 30
0.0
 40
0.208333
  1
        WINGWALLS       
  7
txt
 72
     4
 11
76.953833
 21
5.418333
 31
0.0
210
0.0
220
0.0
230
1.0
  0
TEXT
  8
1
  6
CONTINUOUS
 62
     2
  5
768
 10
74.965167
 20
4.97775
 30
0.0
 40
0.208333
  1
     (SHEET 1 OF 4)     
  7
txt
 72
     4
 11
77.415167
 21
5.081917
 31
0.0
210
0.0
220
0.0
230
1.0
  0
TEXT
  8
1
  6
CONTINUOUS
 62
     2
  5
769
 10
74.386333
 20
4.618833
 30
0.0
 40
0.208333
  1
                        
  7
txt
 72
     4
 11
76.851583
 21
4.723
 31
0.0
210
0.0
220
0.0
230
1.0
  0
TEXT
  8
1
  6
CONTINUOUS
 62
     2
  5
76B
 10
73.15025
 20
5.44075
 30
0.0
 40
0.083333
  1
                  
  7
ROMANS
 72
     4
 11
73.886333
 21
5.482417
 31
0.0
210
0.0
220
0.0
230
1.0
  0
TEXT
  8
1
  6
CONTINUOUS
 62
     2
  5
76C
 10
73.15025
 20
5.24175
 30
0.0
 40
0.083333
  1
                  
  7
ROMANS
 72
     4
 11
73.886333
 21
5.283417
 31
0.0
210
0.0
220
0.0
230
1.0
  0
TEXT
  8
1
  6
CONTINUOUS
 62
     2
  5
76D
 10
73.15025
 20
5.04275
 30
0.0
 40
0.083333
  1
                  
  7
ROMANS
 72
     4
 11
73.886333
 21
5.084417
 31
0.0
210
0.0
220
0.0
230
1.0
  0
TEXT
  8
1
  6
CONTINUOUS
 62
     2
  5
76E
 10
73.15025
 20
4.84375
 30
0.0
 40
0.083333
  1
                  
  7
ROMANS
 72
     4
 11
73.886333
 21
4.885417
 31
0.0
210
0.0
220
0.0
230
1.0
  0
TEXT
  8
1
  6
CONTINUOUS
 62
     2
  5
76F
 10
73.15025
 20
4.64475
 30
0.0
 40
0.083333
  1
                  
  7
ROMANS
 72
     4
 11
73.886333
 21
4.686417
 31
0.0
210
0.0
220
0.0
230
1.0
  0
TEXT
  8
1
  6
CONTINUOUS
 62
     2
  5
770
 10
73.15025
 20
4.44575
 30
0.0
 40
0.083333
  1
                  
  7
ROMANS
 72
     4
 11
73.886333
 21
4.487417
 31
0.0
210
0.0
220
0.0
230
1.0
  0
TEXT
  8
1
  6
CONTINUOUS
 62
     2
  5
771
 10
73.15025
 20
4.24675
 30
0.0
 40
0.083333
  1
                  
  7
ROMANS
 72
     4
 11
73.886333
 21
4.288417
 31
0.0
210
0.0
220
0.0
230
1.0
  0
TEXT
  8
1
  6
CONTINUOUS
 62
     2
  5
772
 10
73.15025
 20
4.04775
 30
0.0
 40
0.083333
  1
                  
  7
ROMANS
 72
     4
 11
73.886333
 21
4.089417
 31
0.0
210
0.0
220
0.0
230
1.0
  0
TEXT
  8
1
  6
CONTINUOUS
 62
     2
  5
773
 10
73.148667
 20
3.843583
 30
0.0
 40
0.083333
  1
                  
  7
ROMANS
 72
     4
 11
73.88475
 21
3.88525
 31
0.0
210
0.0
220
0.0
230
1.0
  0
POINT
  8
1
  6
DASHED
 62
     2
  5
774
 10
46.103167
 20
24.724333
 30
0.0
  0
POINT
  8
1
  6
DASHED
 62
     2
  5
775
 10
79.328167
 20
3.604333
 30
0.0
  0
TEXT
  8
1
  6
CONTINUOUS
 62
   140
  5
776
 10
46.663167
 20
3.583333
 30
0.0
 40
0.06
  1
P5A1G92-STDBOR a
  7
MONOTXT
210
0.0
220
0.0
230
1.0
  0
LINE
  8
3
  6
CONTINUOUS
 62
     2
  5
777
 10
70.7755
 20
10.270667
 30
0.0
 11
70.7755
 21
4.881833
 31
0.0
  0
TEXT
  8
3
  6
CONTINUOUS
 62
     2
  5
778
 10
65.757833
 20
9.364083
 30
0.0
 40
0.117167
  1
h
  7
MONOTXT
210
0.0
220
0.0
230
1.0
  0
TEXT
  8
3
  6
CONTINUOUS
 62
     2
  5
779
 10
76.248667
 20
17.093083
 30
0.0
 40
0.15625
  1
%%d
  7
MONOTXT
210
0.0
220
0.0
230
1.0
  0
TEXT
  8
3
  6
CONTINUOUS
 62
     2
  5
77A
 10
65.2345
 20
6.200417
 30
0.0
 40
0.073167
  1
1/2
  7
MONOTXT
210
0.0
220
0.0
230
1.0
  0
TEXT
  8
3
  6
CONTINUOUS
 62
     2
  5
77B
 10
63.741917
 20
8.46675
 30
0.0
 40
0.073167
  1
1/4
  7
MONOTXT
210
0.0
220
0.0
230
1.0
  0
TEXT
  8
3
  6
CONTINUOUS
 62
     2
  5
77C
 10
68.123333
 20
7.46475
 30
0.0
 40
0.117167
  1
4'-1   "
  7
MONOTXT
210
0.0
220
0.0
230
1.0
  0
TEXT
  8
3
  6
CONTINUOUS
 62
     2
  5
77D
 10
68.102417
 20
8.400167
 30
0.0
 40
0.117167
  1
3'-2 
  7
MONOTXT
210
0.0
220
0.0
230
1.0
  0
TEXT
  8
3
  6
CONTINUOUS
 62
     2
  5
77E
 10
68.102417
 20
9.330083
 30
0.0
 40
0.117167
  1
3'-2  
  7
MONOTXT
210
0.0
220
0.0
230
1.0
  0
TEXT
  8
3
  6
CONTINUOUS
 62
     2
  5
77F
 10
68.634417
 20
9.395167
 30
0.0
 40
0.117167
  1
"
  7
MONOTXT
210
0.0
220
0.0
230
1.0
  0
TEXT
  8
3
  6
CONTINUOUS
 62
     2
  5
780
 10
68.52675
 20
8.46675
 30
0.0
 40
0.117167
  1
 "
  7
MONOTXT
210
0.0
220
0.0
230
1.0
  0
TEXT
  8
3
  6
CONTINUOUS
 62
     2
  5
781
 10
68.105167
 20
6.503583
 30
0.0
 40
0.117167
  1
4'-10 
 41
0.763869
  7
MONOTXT
210
0.0
220
0.0
230
1.0
  0
TEXT
  8
3
  6
CONTINUOUS
 62
     2
  5
782
 10
68.64275
 20
6.546083
 30
0.0
 40
0.117167
  1
"
 41
0.763869
  7
MONOTXT
210
0.0
220
0.0
230
1.0
  0
TEXT
  8
3
  6
CONTINUOUS
 62
     2
  5
783
 10
68.656917
 20
5.62325
 30
0.0
 40
0.117167
  1
"
 41
0.763869
  7
MONOTXT
210
0.0
220
0.0
230
1.0
  0
LINE
  8
1
  6
CONTINUOUS
 62
   110
  5
784
 10
53.356333
 20
7.73825
 30
0.0
 11
53.356333
 21
7.742667
 31
0.0
  0
LINE
  8
1
  6
CONTINUOUS
 62
   110
  5
785
 10
53.356333
 20
7.742667
 30
0.0
 11
53.356333
 21
8.456167
 31
0.0
  0
LINE
  8
1
  6
CONTINUOUS
 62
   110
  5
786
 10
53.418833
 20
7.744667
 30
0.0
 11
53.418833
 21
7.7575
 31
0.0
  0
LINE
  8
1
  6
CONTINUOUS
 62
   110
  5
787
 10
53.418833
 20
7.7575
 30
0.0
 11
53.418833
 21
8.45525
 31
0.0
  0
LINE
  8
1
  6
CONTINUOUS
 62
   110
  5
788
 10
53.481333
 20
7.752333
 30
0.0
 11
53.481333
 21
7.77225
 31
0.0
  0
LINE
  8
1
  6
CONTINUOUS
 62
   110
  5
789
 10
53.481333
 20
7.77225
 30
0.0
 11
53.481333
 21
8.455167
 31
0.0
  0
LINE
  8
1
  6
CONTINUOUS
 62
   110
  5
78A
 10
53.543833
 20
7.763333
 30
0.0
 11
53.543833
 21
7.787083
 31
0.0
  0
LINE
  8
1
  6
CONTINUOUS
 62
   110
  5
78B
 10
53.543833
 20
7.787083
 30
0.0
 11
53.543833
 21
8.45575
 31
0.0
  0
LINE
  8
1
  6
CONTINUOUS
 62
   110
  5
78C
 10
53.606333
 20
7.78075
 30
0.0
 11
53.606333
 21
7.801833
 31
0.0
  0
LINE
  8
1
  6
CONTINUOUS
 62
   110
  5
78D
 10
53.606333
 20
7.801833
 30
0.0
 11
53.606333
 21
8.457
 31
0.0
  0
LINE
  8
1
  6
CONTINUOUS
 62
     7
  5
78E
 10
53.686
 20
7.811583
 30
0.0
 11
53.68525
 21
7.8205
 31
0.0
  0
LINE
  8
1
  6
CONTINUOUS
 62
     7
  5
78F
 10
54.355167
 20
8.05175
 30
0.0
 11
54.309333
 21
8.574917
 31
0.0
  0
LINE
  8
1
  6
CONTINUOUS
 62
     7
  5
790
 10
54.294333
 20
8.02925
 30
0.0
 11
54.247333
 21
8.565917
 31
0.0
  0
LINE
  8
1
  6
CONTINUOUS
 62
     7
  5
791
 10
54.233833
 20
8.003583
 30
0.0
 11
54.1855
 21
8.556083
 31
0.0
  0
LINE
  8
1
  6
CONTINUOUS
 62
     7
  5
792
 10
54.173667
 20
7.974917
 30
0.0
 11
54.123833
 21
8.54375
 31
0.0
  0
LINE
  8
1
  6
CONTINUOUS
 62
     7
  5
793
 10
54.113167
 20
7.94925
 30
0.0
 11
54.062333
 21
8.530583
 31
0.0
  0
LINE
  8
1
  6
CONTINUOUS
 62
     7
  5
794
 10
54.052167
 20
7.928583
 30
0.0
 11
54.000667
 21
8.51725
 31
0.0
  0
LINE
  8
1
  6
CONTINUOUS
 62
     7
  5
795
 10
53.990833
 20
7.912917
 30
0.0
 11
53.939167
 21
8.50425
 31
0.0
  0
LINE
  8
1
  6
CONTINUOUS
 62
     7
  5
796
 10
53.9295
 20
7.897583
 30
0.0
 11
53.8775
 21
8.491417
 31
0.0
  0
LINE
  8
1
  6
CONTINUOUS
 62
     7
  5
797
 10
53.868167
 20
7.880417
 30
0.0
 11
53.815833
 21
8.47925
 31
0.0
  0
LINE
  8
1
  6
CONTINUOUS
 62
     7
  5
798
 10
53.807167
 20
7.860583
 30
0.0
 11
53.754167
 21
8.467583
 31
0.0
  0
LINE
  8
1
  6
CONTINUOUS
 62
     7
  5
799
 10
53.7465
 20
7.837583
 30
0.0
 11
53.692
 21
8.460083
 31
0.0
  0
LINE
  8
1
  6
CONTINUOUS
 62
     7
  5
79A
 10
54.416167
 20
8.07175
 30
0.0
 11
54.371167
 21
8.585583
 31
0.0
  0
LINE
  8
1
  6
CONTINUOUS
 62
     7
  5
79B
 10
54.477167
 20
8.090417
 30
0.0
 11
54.432667
 21
8.599083
 31
0.0
  0
LINE
  8
1
  6
CONTINUOUS
 62
     7
  5
79C
 10
54.538
 20
8.11275
 30
0.0
 11
54.494
 21
8.616583
 31
0.0
  0
LINE
  8
1
  6
CONTINUOUS
 62
     7
  5
79D
 10
54.598333
 20
8.139583
 30
0.0
 11
54.5555
 21
8.630083
 31
0.0
  0
LINE
  8
1
  6
CONTINUOUS
 62
     7
  5
79E
 10
54.659167
 20
8.16175
 30
0.0
 11
54.617833
 21
8.63475
 31
0.0
  0
LINE
  8
1
  6
CONTINUOUS
 62
     7
  5
79F
 10
54.720167
 20
8.18175
 30
0.0
 11
54.680333
 21
8.637417
 31
0.0
  0
LINE
  8
1
  6
CONTINUOUS
 62
     7
  5
7A0
 10
54.781167
 20
8.202083
 30
0.0
 11
54.742
 21
8.650417
 31
0.0
  0
LINE
  8
1
  6
CONTINUOUS
 62
     7
  5
7A1
 10
54.842
 20
8.222917
 30
0.0
 11
54.803167
 21
8.666583
 31
0.0
  0
LINE
  8
1
  6
CONTINUOUS
 62
     7
  5
7A2
 10
54.902833
 20
8.244583
 30
0.0
 11
54.865
 21
8.677583
 31
0.0
  0
LINE
  8
1
  6
CONTINUOUS
 62
     7
  5
7A3
 10
54.963667
 20
8.267083
 30
0.0
 11
54.927
 21
8.686083
 31
0.0
  0
LINE
  8
1
  6
CONTINUOUS
 62
     7
  5
7A4
 10
55.0245
 20
8.288083
 30
0.0
 11
54.989167
 21
8.69375
 31
0.0
  0
LINE
  8
1
  6
CONTINUOUS
 62
     7
  5
7A5
 10
55.085833
 20
8.305083
 30
0.0
 11
55.0515
 21
8.696917
 31
0.0
  0
LINE
  8
1
  6
CONTINUOUS
 62
     7
  5
7A6
 10
53.68525
 20
7.8205
 30
0.0
 11
53.6295
 21
8.457583
 31
0.0
  0
LINE
  8
1
  6
CONTINUOUS
 62
     7
  5
7A7
 10
55.168833
 20
7.9785
 30
0.0
 11
55.168833
 21
8.04125
 31
0.0
  0
LINE
  8
1
  6
CONTINUOUS
 62
     7
  5
7A8
 10
55.106333
 20
7.691667
 30
0.0
 11
55.106333
 21
8.040917
 31
0.0
  0
LINE
  8
1
  6
CONTINUOUS
 62
     7
  5
7A9
 10
55.918833
 20
7.71075
 30
0.0
 11
55.918833
 21
8.177583
 31
0.0
  0
LINE
  8
1
  6
CONTINUOUS
 62
     7
  5
7AA
 10
55.856333
 20
7.71075
 30
0.0
 11
55.856333
 21
8.168583
 31
0.0
  0
LINE
  8
1
  6
CONTINUOUS
 62
     7
  5
7AB
 10
55.793833
 20
7.71075
 30
0.0
 11
55.793833
 21
8.139917
 31
0.0
  0
LINE
  8
1
  6
CONTINUOUS
 62
     7
  5
7AC
 10
55.731333
 20
7.71075
 30
0.0
 11
55.731333
 21
8.125583
 31
0.0
  0
LINE
  8
1
  6
CONTINUOUS
 62
     7
  5
7AD
 10
55.668833
 20
7.71075
 30
0.0
 11
55.668833
 21
8.114917
 31
0.0
  0
LINE
  8
1
  6
CONTINUOUS
 62
     7
  5
7AE
 10
55.606333
 20
7.71075
 30
0.0
 11
55.606333
 21
8.109583
 31
0.0
  0
LINE
  8
1
  6
CONTINUOUS
 62
     7
  5
7AF
 10
55.543833
 20
7.71075
 30
0.0
 11
55.543833
 21
8.10925
 31
0.0
  0
LINE
  8
1
  6
CONTINUOUS
 62
     7
  5
7B0
 10
55.481333
 20
7.71075
 30
0.0
 11
55.481333
 21
8.109917
 31
0.0
  0
LINE
  8
1
  6
CONTINUOUS
 62
     7
  5
7B1
 10
55.418833
 20
7.703917
 30
0.0
 11
55.418833
 21
8.107917
 31
0.0
  0
LINE
  8
1
  6
CONTINUOUS
 62
     7
  5
7B2
 10
55.356333
 20
7.68975
 30
0.0
 11
55.356333
 21
8.103083
 31
0.0
  0
LINE
  8
1
  6
CONTINUOUS
 62
     7
  5
7B3
 10
55.293833
 20
7.678417
 30
0.0
 11
55.293833
 21
8.094917
 31
0.0
  0
LINE
  8
1
  6
CONTINUOUS
 62
     7
  5
7B4
 10
55.231333
 20
7.669583
 30
0.0
 11
55.231333
 21
8.06225
 31
0.0
  0
LINE
  8
1
  6
CONTINUOUS
 62
     7
  5
7B5
 10
55.981333
 20
7.71075
 30
0.0
 11
55.981333
 21
8.175083
 31
0.0
  0
LINE
  8
1
  6
CONTINUOUS
 62
     7
  5
7B6
 10
56.043833
 20
7.71075
 30
0.0
 11
56.043833
 21
8.177417
 31
0.0
  0
LINE
  8
1
  6
CONTINUOUS
 62
     7
  5
7B7
 10
56.106333
 20
7.71075
 30
0.0
 11
56.106333
 21
8.182417
 31
0.0
  0
LINE
  8
1
  6
CONTINUOUS
 62
     7
  5
7B8
 10
56.168833
 20
7.711583
 30
0.0
 11
56.168833
 21
8.188083
 31
0.0
  0
LINE
  8
1
  6
CONTINUOUS
 62
     7
  5
7B9
 10
56.231333
 20
7.717917
 30
0.0
 11
56.231333
 21
8.18925
 31
0.0
  0
LINE
  8
1
  6
CONTINUOUS
 62
     7
  5
7BA
 10
56.293833
 20
7.726583
 30
0.0
 11
56.293833
 21
8.18925
 31
0.0
  0
LINE
  8
1
  6
CONTINUOUS
 62
     7
  5
7BB
 10
56.356333
 20
7.733417
 30
0.0
 11
56.356333
 21
8.18925
 31
0.0
  0
LINE
  8
1
  6
CONTINUOUS
 62
     7
  5
7BC
 10
56.418833
 20
7.73825
 30
0.0
 11
56.418833
 21
8.18925
 31
0.0
  0
LINE
  8
1
  6
CONTINUOUS
 62
     7
  5
7BD
 10
56.481333
 20
7.73925
 30
0.0
 11
56.481333
 21
8.18925
 31
0.0
  0
LINE
  8
1
  6
CONTINUOUS
 62
     7
  5
7BE
 10
56.543833
 20
7.73725
 30
0.0
 11
56.543833
 21
8.18925
 31
0.0
  0
LINE
  8
1
  6
CONTINUOUS
 62
     7
  5
7BF
 10
56.606333
 20
7.736583
 30
0.0
 11
56.606333
 21
8.18925
 31
0.0
  0
LINE
  8
1
  6
CONTINUOUS
 62
     7
  5
7C0
 10
56.668833
 20
7.737917
 30
0.0
 11
56.668833
 21
8.18925
 31
0.0
  0
LINE
  8
1
  6
CONTINUOUS
 62
     7
  5
7C1
 10
56.731333
 20
7.748917
 30
0.0
 11
56.731333
 21
8.192083
 31
0.0
  0
LINE
  8
1
  6
CONTINUOUS
 62
     7
  5
7C2
 10
56.793833
 20
7.76775
 30
0.0
 11
56.793833
 21
8.201083
 31
0.0
  0
LINE
  8
1
  6
CONTINUOUS
 62
     7
  5
7C3
 10
55.168833
 20
7.66325
 30
0.0
 11
55.168833
 21
7.9785
 31
0.0
  0
LINE
  8
1
  6
CONTINUOUS
 62
     7
  5
7C4
 10
55.106333
 20
7.657417
 30
0.0
 11
55.106333
 21
7.691667
 31
0.0
  0
LINE
  8
1
  6
CONTINUOUS
 62
    99
  5
7C5
 10
53.606333
 20
7.139917
 30
0.0
 11
53.606333
 21
7.63225
 31
0.0
  0
LINE
  8
1
  6
CONTINUOUS
 62
    99
  5
7C6
 10
53.606333
 20
7.129417
 30
0.0
 11
53.606333
 21
7.139917
 31
0.0
  0
LINE
  8
1
  6
CONTINUOUS
 62
    99
  5
7C7
 10
53.543833
 20
7.128833
 30
0.0
 11
53.543833
 21
7.61275
 31
0.0
  0
LINE
  8
1
  6
CONTINUOUS
 62
    99
  5
7C8
 10
53.543833
 20
7.112083
 30
0.0
 11
53.543833
 21
7.128833
 31
0.0
  0
LINE
  8
1
  6
CONTINUOUS
 62
    99
  5
7C9
 10
53.481333
 20
7.117667
 30
0.0
 11
53.481333
 21
7.61275
 31
0.0
  0
LINE
  8
1
  6
CONTINUOUS
 62
    99
  5
7CA
 10
53.481333
 20
7.101
 30
0.0
 11
53.481333
 21
7.117667
 31
0.0
  0
LINE
  8
1
  6
CONTINUOUS
 62
    99
  5
7CB
 10
53.418833
 20
7.106583
 30
0.0
 11
53.418833
 21
7.598167
 31
0.0
  0
LINE
  8
1
  6
CONTINUOUS
 62
    99
  5
7CC
 10
53.418833
 20
7.093417
 30
0.0
 11
53.418833
 21
7.106583
 31
0.0
  0
LINE
  8
1
  6
CONTINUOUS
 62
    99
  5
7CD
 10
53.293833
 20
7.084333
 30
0.0
 11
53.293833
 21
7.588417
 31
0.0
  0
LINE
  8
1
  6
CONTINUOUS
 62
    99
  5
7CE
 10
53.293833
 20
7.081917
 30
0.0
 11
53.293833
 21
7.084333
 31
0.0
  0
LINE
  8
1
  6
CONTINUOUS
 62
    99
  5
7CF
 10
53.356333
 20
7.095417
 30
0.0
 11
53.356333
 21
7.588417
 31
0.0
  0
LINE
  8
1
  6
CONTINUOUS
 62
    99
  5
7D0
 10
53.356333
 20
7.087
 30
0.0
 11
53.356333
 21
7.095417
 31
0.0
  0
TEXT
  8
1
  6
CONTINUOUS
 62
     2
  5
7D1
 10
73.21525
 20
5.874083
 30
0.0
 40
0.083333
  1
 PREPARED 7-1-99 
  7
ROMANS
 72
     4
 11
73.909667
 21
5.91575
 31
0.0
210
0.0
220
0.0
230
1.0
  0
TEXT
  8
1
  6
CONTINUOUS
 62
     2
  5
7D2
 10
53.83125
 20
21.411833
 30
0.0
 40
0.125
  1
-
  7
MONOTXT
210
0.0
220
0.0
230
1.0
  0
TEXT
  8
1
  6
CONTINUOUS
 62
     2
  5
7D3
 10
53.834917
 20
21.474917
 30
0.0
 40
0.125
  1
+
  7
MONOTXT
210
0.0
220
0.0
230
1.0
  0
TEXT
  8
3
  6
CONTINUOUS
 62
     2
  5
7D4
 10
74.161833
 20
19.285167
 30
0.0
 40
0.25
  1
NOTES
  7
MONOTXT
210
0.0
220
0.0
230
1.0
  0
TEXT
  8
3
  6
CONTINUOUS
 62
     2
  5
7D5
 10
71.331333
 20
18.945667
 30
0.0
 40
0.13125
  1
     All concrete shall be Class B Concrete.
  7
MONOTXT
210
0.0
220
0.0
230
1.0
  0
TEXT
  8
3
  6
CONTINUOUS
 62
     2
  5
7D6
 10
71.331333
 20
18.679417
 30
0.0
 40
0.13125
  1
     Reinforcing steel shall be new billet steel and shall conform to 
  7
MONOTXT
210
0.0
220
0.0
230
1.0
  0
TEXT
  8
3
  6
CONTINUOUS
 62
     2
  5
7D7
 10
71.332
 20
18.447167
 30
0.0
 40
0.13125
  1
the requirements of 709.1 of the Specifications.
  7
MONOTXT
210
0.0
220
0.0
230
1.0
  0
TEXT
  8
3
  6
CONTINUOUS
 62
     2
  5
7D8
 10
52.90925
 20
21.45175
 30
0.0
 40
0.125
  1
(300 Arc ) 
  7
MONOTXT
210
0.0
220
0.0
230
1.0
  0
CIRCLE
  8
1
  6
CONTINUOUS
 62
     7
  5
7D9
 10
74.724083
 20
22.201833
 30
0.0
 40
1.733128
210
0.0
220
0.0
230
1.0
  0
LINE
  8
1
  6
CONTINUOUS
 62
     7
  5
7DA
 10
73.138917
 20
22.451833
 30
0.0
 11
75.7755
 21
22.451833
 31
0.0
  0
LINE
  8
1
  6
CONTINUOUS
 62
     7
  5
7DB
 10
73.138917
 20
21.951833
 30
0.0
 11
74.474083
 21
21.951833
 31
0.0
  0
LINE
  8
1
  6
CONTINUOUS
 62
     7
  5
7DC
 10
74.974083
 20
21.951833
 30
0.0
 11
76.33025
 21
21.951833
 31
0.0
  0
LINE
  8
3
  6
HIDDEN
 62
     2
  5
7DD
 10
74.474083
 20
23.809167
 30
0.0
 11
74.474083
 21
22.451833
 31
0.0
  0
LINE
  8
1
  6
CONTINUOUS
 62
     7
  5
7DE
 10
74.474083
 20
21.951833
 30
0.0
 11
74.474083
 21
20.552083
 31
0.0
  0
LINE
  8
1
  6
CONTINUOUS
 62
     7
  5
7DF
 10
74.974083
 20
23.809167
 30
0.0
 11
74.974083
 21
20.552083
 31
0.0
  0
LINE
  8
1
  6
CONTINUOUS
 62
     7
  5
7E0
 10
75.60875
 20
22.201833
 30
0.0
 11
76.214083
 21
22.201833
 31
0.0
  0
LINE
  8
1
  6
CONTINUOUS
 62
     7
  5
7E1
 10
74.474083
 20
22.201833
 30
0.0
 11
75.355167
 21
22.201833
 31
0.0
  0
LINE
  8
1
  6
CONTINUOUS
 62
     7
  5
7E2
 10
73.138917
 20
22.451833
 30
0.0
 11
76.33025
 21
22.451833
 31
0.0
  0
LINE
  8
1
  6
CONTINUOUS
 62
     7
  5
7E3
 10
75.7755
 20
22.201833
 30
0.0
 11
75.7755
 21
21.673917
 31
0.0
  0
LINE
  8
1
  6
CONTINUOUS
 62
     7
  5
7E4
 10
75.7755
 20
22.97975
 30
0.0
 11
75.7755
 21
22.451833
 31
0.0
  0
INSERT
  8
1
  6
CONTINUOUS
 62
     7
  5
7F0
  2
*D4
 10
75.7755
 20
22.451833
 30
0.0
 70
     0
 71
     0
  0
INSERT
  8
1
  6
CONTINUOUS
 62
     7
  5
7FA
  2
*D5
 10
75.7755
 20
22.201833
 30
0.0
 70
     0
 71
     0
  0
TEXT
  8
3
  6
CONTINUOUS
 62
     2
  5
7FB
 10
75.889583
 20
22.805833
 30
0.0
 40
0.125
  1
3"
  7
MONOTXT
210
0.0
220
0.0
230
1.0
  0
TEXT
  8
3
  6
CONTINUOUS
 62
     2
  5
7FC
 10
77.153917
 20
22.146417
 30
0.0
 40
0.125
  1
Concrete Gutter
  7
MONOTXT
210
0.0
220
0.0
230
1.0
  0
TEXT
  8
3
  6
CONTINUOUS
 62
     2
  5
7FD
 10
75.861333
 20
23.869333
 30
0.0
 40
0.125
  1
Waterstop
  7
MONOTXT
210
0.0
220
0.0
230
1.0
  0
TEXT
  8
3
  6
CONTINUOUS
 62
     2
  5
7FE
 10
71.53925
 20
22.07175
 30
0.0
 40
0.125
  1
Wingwall
  7
MONOTXT
210
0.0
220
0.0
230
1.0
  0
LINE
  8
3
  6
CONTINUOUS
 62
     7
  5
7FF
 10
75.586583
 20
23.91175
 30
0.0
 11
75.776833
 21
23.91175
 31
0.0
  0
INSERT
  8
3
  6
CONTINUOUS
 62
     7
  5
809
  2
*D6
 10
74.868
 20
22.198583
 30
0.0
 70
     0
 71
     0
  0
CIRCLE
  8
3
  6
CONTINUOUS
 62
     2
  5
80A
 10
63.85375
 20
20.061333
 30
0.0
 40
0.439042
210
0.0
220
0.0
230
1.0
  0
SOLID
  8
1
  6
CONTINUOUS
 62
     2
  5
80B
 10
64.2265
 20
19.655583
 30
0.0
 11
64.263167
 21
19.67525
 31
0.0
 12
64.185833
 22
19.775583
 32
0.0
 13
64.185833
 23
19.775583
 33
0.0
  0
LINE
  8
3
  6
CONTINUOUS
 62
     2
  5
80C
 10
64.246667
 20
19.666417
 30
0.0
 11
64.98325
 21
18.3355
 31
0.0
  0
LINE
  8
3
  6
CONTINUOUS
 62
     2
  5
80D
 10
65.105333
 20
18.3355
 30
0.0
 11
64.98325
 21
18.3355
 31
0.0
  0
TEXT
  8
3
  6
CONTINUOUS
 62
     2
  5
80E
 10
72.841083
 20
20.00525
 30
0.0
 40
0.25
  1
WATERSTOP DETAIL
  7
MONOTXT
210
0.0
220
0.0
230
1.0
  0
TEXT
  8
3
  6
CONTINUOUS
 62
     2
  5
80F
 10
65.192583
 20
18.282083
 30
0.0
 40
0.125
  1
See Waterstop
  7
MONOTXT
210
0.0
220
0.0
230
1.0
  0
TEXT
  8
3
  6
CONTINUOUS
 62
     2
  5
810
 10
65.192583
 20
18.02825
 30
0.0
 40
0.125
  1
Detail
  7
MONOTXT
210
0.0
220
0.0
230
1.0
  0
TEXT
  8
3
  6
CONTINUOUS
 62
     2
  5
811
 10
72.067333
 20
12.111167
 30
0.0
 40
0.13125
  1
Waterstop meeting the requirements of 708.10 shall be placed
  7
MONOTXT
210
0.0
220
0.0
230
1.0
  0
TEXT
  8
3
  6
CONTINUOUS
 62
     2
  5
812
 10
71.28525
 20
11.91025
 30
0.0
 40
0.13125
  1
as shown when concrete gutter is to abut the wingwall.
  7
MONOTXT
210
0.0
220
0.0
230
1.0
  0
INSERT
  8
1
  6
CONTINUOUS
 62
     7
  5
82A
  2
FLOW1
 10
72.761833
 20
22.11925
 30
0.0
210
0.0
220
0.0
230
1.0
  0
INSERT
  8
1
  6
CONTINUOUS
 62
     7
  5
82B
  2
FLOW1
 10
76.679083
 20
22.205333
 30
0.0
 50
180.0
210
0.0
220
0.0
230
1.0
  0
LINE
  8
1
  6
CONTINUOUS
 62
     7
  5
82C
 10
74.474083
 20
20.552083
 30
0.0
 11
74.974083
 21
20.552083
 31
0.0
  0
TEXT
  8
3
  6
CONTINUOUS
 62
     2
  5
82D
 10
71.331333
 20
14.396167
 30
0.0
 40
0.13125
  1
     Bevels are not required on outlet wingwalls or on inlet wingwalls
  7
MONOTXT
210
0.0
220
0.0
230
1.0
  0
TEXT
  8
3
  6
CONTINUOUS
 62
     2
  5
82E
 10
71.331333
 20
14.171167
 30
0.0
 40
0.13125
  1
for concrete pipe.
  7
MONOTXT
210
0.0
220
0.0
230
1.0
  0
ENDSEC
  0
EOF
