  0
SECTION
  2
HEADER
  9
$ACADVER
  1
AC1009
  9
$INSBASE
 10
0.0
 20
0.0
 30
0.0
  9
$EXTMIN
 10
-0.18
 20
-0.398167
 30
0.0
  9
$EXTMAX
 10
140.759833
 20
78.867583
 30
0.0
  9
$LIMMIN
 10
0.0
 20
0.0
  9
$LIMMAX
 10
12.0
 20
9.0
  9
$ORTHOMODE
 70
     0
  9
$REGENMODE
 70
     1
  9
$FILLMODE
 70
     1
  9
$QTEXTMODE
 70
     0
  9
$MIRRTEXT
 70
     1
  9
$DRAGMODE
 70
     2
  9
$LTSCALE
 40
1.0
  9
$OSMODE
 70
     0
  9
$ATTMODE
 70
     1
  9
$TEXTSIZE
 40
0.2
  9
$TRACEWID
 40
0.05
  9
$TEXTSTYLE
  7
STANDARD
  9
$CLAYER
  8
0
  9
$CELTYPE
  6
CONTINUOUS
  9
$CECOLOR
 62
   256
  9
$DIMSCALE
 40
1.0
  9
$DIMASZ
 40
0.18
  9
$DIMEXO
 40
0.0625
  9
$DIMDLI
 40
0.38
  9
$DIMRND
 40
0.0
  9
$DIMDLE
 40
0.0
  9
$DIMEXE
 40
0.18
  9
$DIMTP
 40
0.0
  9
$DIMTM
 40
0.0
  9
$DIMTXT
 40
0.18
  9
$DIMCEN
 40
0.09
  9
$DIMTSZ
 40
0.0
  9
$DIMTOL
 70
     0
  9
$DIMLIM
 70
     0
  9
$DIMTIH
 70
     1
  9
$DIMTOH
 70
     1
  9
$DIMSE1
 70
     0
  9
$DIMSE2
 70
     0
  9
$DIMTAD
 70
     0
  9
$DIMZIN
 70
     0
  9
$DIMBLK
  1

  9
$DIMASO
 70
     1
  9
$DIMSHO
 70
     1
  9
$DIMPOST
  1

  9
$DIMAPOST
  1

  9
$DIMALT
 70
     0
  9
$DIMALTD
 70
     2
  9
$DIMALTF
 40
25.4
  9
$DIMLFAC
 40
1.0
  9
$DIMTOFL
 70
     0
  9
$DIMTVP
 40
0.0
  9
$DIMTIX
 70
     0
  9
$DIMSOXD
 70
     0
  9
$DIMSAH
 70
     0
  9
$DIMBLK1
  1

  9
$DIMBLK2
  1

  9
$DIMSTYLE
  2
STANDARD
  9
$DIMCLRD
 70
     0
  9
$DIMCLRE
 70
     0
  9
$DIMCLRT
 70
     0
  9
$DIMTFAC
 40
1.0
  9
$DIMGAP
 40
0.09
  9
$LUNITS
 70
     2
  9
$LUPREC
 70
     4
  9
$AXISMODE
 70
     0
  9
$AXISUNIT
 10
0.0
 20
0.0
  9
$SKETCHINC
 40
0.1
  9
$FILLETRAD
 40
0.0
  9
$AUNITS
 70
     0
  9
$AUPREC
 70
     0
  9
$MENU
  1
acad
  9
$ELEVATION
 40
0.0
  9
$PELEVATION
 40
0.0
  9
$THICKNESS
 40
0.0
  9
$LIMCHECK
 70
     0
  9
$BLIPMODE
 70
     1
  9
$CHAMFERA
 40
0.0
  9
$CHAMFERB
 40
0.0
  9
$SKPOLY
 70
     0
  9
$TDCREATE
 40
2451562.608958333
  9
$TDUPDATE
 40
2451562.608958333
  9
$TDINDWG
 40
0.0000000000
  9
$TDUSRTIMER
 40
0.0000000000
  9
$USRTIMER
 70
     1
  9
$ANGBASE
 50
0.0
  9
$ANGDIR
 70
     0
  9
$PDMODE
 70
     0
  9
$PDSIZE
 40
0.0
  9
$PLINEWID
 40
0.0
  9
$COORDS
 70
     0
  9
$SPLFRAME
 70
     0
  9
$SPLINETYPE
 70
     6
  9
$SPLINESEGS
 70
    10
  9
$ATTDIA
 70
     0
  9
$ATTREQ
 70
     1
  9
$HANDLING
 70
     1
  9
$HANDSEED
  5
C5C
  9
$SURFTAB1
 70
     6
  9
$SURFTAB2
 70
     6
  9
$SURFTYPE
 70
     6
  9
$SURFU
 70
     6
  9
$SURFV
 70
     6
  9
$UCSNAME
  2

  9
$UCSORG
 10
0.0
 20
0.0
 30
0.0
  9
$UCSXDIR
 10
1.0
 20
0.0
 30
0.0
  9
$UCSYDIR
 10
0.0
 20
1.0
 30
0.0
  9
$PUCSNAME
  2

  9
$PUCSORG
 10
0.0
 20
0.0
 30
0.0
  9
$PUCSXDIR
 10
1.0
 20
0.0
 30
0.0
  9
$PUCSYDIR
 10
0.0
 20
1.0
 30
0.0
  9
$USERI1
 70
     0
  9
$USERI2
 70
     0
  9
$USERI3
 70
     0
  9
$USERI4
 70
     0
  9
$USERI5
 70
     0
  9
$USERR1
 40
0.0
  9
$USERR2
 40
0.0
  9
$USERR3
 40
0.0
  9
$USERR4
 40
0.0
  9
$USERR5
 40
0.0
  9
$WORLDVIEW
 70
     1
  9
$SHADEDGE
 70
     3
  9
$SHADEDIF
 70
    70
  9
$TILEMODE
 70
     1
  9
$MAXACTVP
 70
    16
  9
$PINSBASE
 10
0.0
 20
0.0
 30
0.0
  9
$PLIMCHECK
 70
     0
  9
$PEXTMIN
 10
-1.000000E+20
 20
-1.000000E+20
 30
-1.000000E+20
  9
$PEXTMAX
 10
-1.000000E+20
 20
-1.000000E+20
 30
-1.000000E+20
  9
$PLIMMIN
 10
0.0
 20
0.0
  9
$PLIMMAX
 10
12.0
 20
9.0
  9
$UNITMODE
 70
     0
  9
$VISRETAIN
 70
     0
  9
$PLINEGEN
 70
     1
  9
$PSLTSCALE
 70
     0
  9
$TREEDEPTH
 70
  3020
  9
$DWGCODEPAGE
  3
ansi_1252
  0
ENDSEC
  0
SECTION
  2
TABLES
  0
TABLE
  2
VPORT
 70
     1
  0
VPORT
  2
*ACTIVE
 70
     0
 10
0.0
 20
0.0
 11
1.0
 21
1.0
 12
0.0
 22
0.0
 13
0.0
 23
0.0
 14
0.0
 24
0.0
 15
0.0
 25
0.0
 16
0.0
 26
0.0
 36
1.0
 17
120.935937
 27
67.877208
 37
0.0
 40
22.56925
 41
1.57971
 42
50.0
 43
0.000333
 44
0.0
 50
0.0
 51
0.0
 71
     0
 72
   100
 73
     1
 74
     0
 75
     0
 76
     0
 77
     0
 78
     0
  0
ENDTAB
  0
TABLE
  2
LTYPE
 70
     7
  0
LTYPE
  2
CONTINUOUS
 70
     0
  3
Solid line
 72
    65
 73
     0
 40
0.0
  0
LTYPE
  2
DOT
 70
    64
  3
. . . . . . . . . . . . . . . . . . . . . . . . . . . . . . . . .
 72
    65
 73
     2
 40
0.25
 49
0.0
 49
-0.25
  0
LTYPE
  2
HIDDEN
 70
    64
  3
__ __ __ __ __ __ __ __ __ __ __ __ __ __ __ __ __ __ __ __ __ 
 72
    65
 73
     2
 40
0.375
 49
0.25
 49
-0.125
  0
LTYPE
  2
DASHED
 70
    64
  3
__ __ __ __ __ __ __ __ __ __ __ __ __ __ __ __ __ __ __ __ __
 72
    65
 73
     2
 40
0.75
 49
0.5
 49
-0.25
  0
LTYPE
  2
DASHDOT
 70
    64
  3
__ . __ . __ . __ . __ . __ . __ . __ . __ . __ . __ . __ . _
 72
    65
 73
     4
 40
1.0
 49
0.5
 49
-0.25
 49
0.0
 49
-0.25
  0
LTYPE
  2
DIVIDE
 70
    64
  3
____ . . ____ . . ____ . . ____ . . ____ . . ____ . . ____ . .
 72
    65
 73
     6
 40
1.25
 49
0.5
 49
-0.25
 49
0.0
 49
-0.25
 49
0.0
 49
-0.25
  0
LTYPE
  2
CENTER
 70
    64
  3
____ _ ____ _ ____ _ ____ _ ____ _ ____ _ ____ _ ____ _ ____ _
 72
    65
 73
     4
 40
2.0
 49
1.25
 49
-0.25
 49
0.25
 49
-0.25
  0
ENDTAB
  0
TABLE
  2
LAYER
 70
     8
  0
LAYER
  2
0
 70
     0
 62
     7
  6
CONTINUOUS
  0
LAYER
  2
CONSTRUCTION_CLASS
 70
     0
 62
     7
  6
CONTINUOUS
  0
LAYER
  2
PATTERN_CLASS
 70
     0
 62
     7
  6
CONTINUOUS
  0
LAYER
  2
1
 70
    64
 62
     7
  6
CONTINUOUS
  0
LAYER
  2
2
 70
    64
 62
     7
  6
CONTINUOUS
  0
LAYER
  2
6
 70
    64
 62
     7
  6
CONTINUOUS
  0
LAYER
  2
5
 70
    64
 62
     7
  6
CONTINUOUS
  0
LAYER
  2
3
 70
    64
 62
     7
  6
CONTINUOUS
  0
ENDTAB
  0
TABLE
  2
STYLE
 70
     5
  0
STYLE
  2
STANDARD
 70
     0
 40
0.0
 41
1.0
 50
0.0
 71
     0
 42
0.0
  3
txt
  4

  0
STYLE
  2
MONOTXT
 70
     0
 40
0.2
 41
1.0
 50
0.0
 71
     0
 42
0.2
  3
MONOTXT
  4

  0
STYLE
  2
txt
 70
     0
 40
0.2
 41
1.0
 50
0.0
 71
     0
 42
0.2
  3
TXT
  4

  0
STYLE
  2
ROMANT
 70
     0
 40
0.2
 41
1.0
 50
0.0
 71
     0
 42
0.2
  3
ROMANT
  4

  0
STYLE
  2
ROMANS
 70
     0
 40
0.2
 41
1.0
 50
0.0
 71
     0
 42
0.2
  3
ROMANS
  4

  0
ENDTAB
  0
TABLE
  2
VIEW
 70
     0
  0
ENDTAB
  0
TABLE
  2
UCS
 70
     0
  0
ENDTAB
  0
TABLE
  2
APPID
 70
     1
  0
APPID
  2
ACAD
 70
     0
  0
ENDTAB
  0
TABLE
  2
DIMSTYLE
 70
     1
  0
DIMSTYLE
  2
STANDARD
 70
     0
  3

  4

  5

  6

  7

 40
1.0
 41
0.18
 42
0.0625
 43
0.38
 44
0.18
 45
0.0
 46
0.0
 47
0.0
 48
0.0
140
0.18
141
0.09
142
0.0
143
25.4
144
1.0
145
0.0
146
1.0
147
0.09
 71
     0
 72
     0
 73
     1
 74
     1
 75
     0
 76
     0
 77
     0
 78
     0
170
     0
171
     2
172
     0
173
     0
174
     0
175
     0
176
     0
177
     0
178
     0
  0
ENDTAB
  0
ENDSEC
  0
SECTION
  2
BLOCKS
  0
BLOCK
  8
1
  6
CONTINUOUS
 62
     7
  5
56
  2
$X9
 70
     0
 10
0.0
 20
0.0
 30
0.0
  3
$N9
  0
LINE
  8
1
  6
CONTINUOUS
 62
     7
  5
57
 10
21.635667
 20
9.8005
 30
0.0
 11
21.68775
 21
9.852583
 31
0.0
  0
LINE
  8
1
  6
CONTINUOUS
 62
     7
  5
58
 10
21.632
 20
9.805667
 30
0.0
 11
21.682583
 21
9.85625
 31
0.0
  0
LINE
  8
1
  6
CONTINUOUS
 62
     7
  5
59
 10
21.629167
 20
9.811583
 30
0.0
 11
21.676667
 21
9.859083
 31
0.0
  0
LINE
  8
1
  6
CONTINUOUS
 62
     7
  5
5A
 10
21.62725
 20
9.818583
 30
0.0
 11
21.669667
 21
9.860917
 31
0.0
  0
LINE
  8
1
  6
CONTINUOUS
 62
     7
  5
5B
 10
21.626917
 20
9.827083
 30
0.0
 11
21.661167
 21
9.861333
 31
0.0
  0
LINE
  8
1
  6
CONTINUOUS
 62
     7
  5
5C
 10
21.629583
 20
9.838583
 30
0.0
 11
21.649667
 21
9.858667
 31
0.0
  0
LINE
  8
1
  6
CONTINUOUS
 62
     7
  5
5D
 10
21.640167
 20
9.796083
 30
0.0
 11
21.692167
 21
9.848083
 31
0.0
  0
LINE
  8
1
  6
CONTINUOUS
 62
     7
  5
5E
 10
21.645333
 20
9.7925
 30
0.0
 11
21.69575
 21
9.842917
 31
0.0
  0
LINE
  8
1
  6
CONTINUOUS
 62
     7
  5
5F
 10
21.651417
 20
9.789667
 30
0.0
 11
21.6985
 21
9.836833
 31
0.0
  0
LINE
  8
1
  6
CONTINUOUS
 62
     7
  5
60
 10
21.6585
 20
9.787917
 30
0.0
 11
21.70025
 21
9.82975
 31
0.0
  0
LINE
  8
1
  6
CONTINUOUS
 62
     7
  5
61
 10
21.667167
 20
9.78775
 30
0.0
 11
21.7005
 21
9.821083
 31
0.0
  0
LINE
  8
1
  6
CONTINUOUS
 62
     7
  5
62
 10
21.67925
 20
9.791
 30
0.0
 11
21.69725
 21
9.809
 31
0.0
  0
LINE
  8
1
  6
CONTINUOUS
 62
     7
  5
63
 10
21.687583
 20
9.796333
 30
0.0
 11
21.6355
 21
9.848333
 31
0.0
  0
LINE
  8
1
  6
CONTINUOUS
 62
     7
  5
64
 10
21.682333
 20
9.792667
 30
0.0
 11
21.631833
 21
9.843167
 31
0.0
  0
LINE
  8
1
  6
CONTINUOUS
 62
     7
  5
65
 10
21.676333
 20
9.789833
 30
0.0
 11
21.629
 21
9.837167
 31
0.0
  0
LINE
  8
1
  6
CONTINUOUS
 62
     7
  5
66
 10
21.669333
 20
9.788
 30
0.0
 11
21.62725
 21
9.830083
 31
0.0
  0
LINE
  8
1
  6
CONTINUOUS
 62
     7
  5
67
 10
21.66075
 20
9.787667
 30
0.0
 11
21.626917
 21
9.821583
 31
0.0
  0
LINE
  8
1
  6
CONTINUOUS
 62
     7
  5
68
 10
21.649
 20
9.790667
 30
0.0
 11
21.629833
 21
9.80975
 31
0.0
  0
LINE
  8
1
  6
CONTINUOUS
 62
     7
  5
69
 10
21.692
 20
9.80075
 30
0.0
 11
21.639917
 21
9.85275
 31
0.0
  0
LINE
  8
1
  6
CONTINUOUS
 62
     7
  5
6A
 10
21.695583
 20
9.805917
 30
0.0
 11
21.645083
 21
9.856417
 31
0.0
  0
LINE
  8
1
  6
CONTINUOUS
 62
     7
  5
6B
 10
21.698417
 20
9.811917
 30
0.0
 11
21.651167
 21
9.85925
 31
0.0
  0
LINE
  8
1
  6
CONTINUOUS
 62
     7
  5
6C
 10
21.70025
 20
9.819
 30
0.0
 11
21.658167
 21
9.861
 31
0.0
  0
LINE
  8
1
  6
CONTINUOUS
 62
     7
  5
6D
 10
21.7005
 20
9.8275
 30
0.0
 11
21.66675
 21
9.861333
 31
0.0
  0
LINE
  8
1
  6
CONTINUOUS
 62
     7
  5
6E
 10
21.697583
 20
9.839333
 30
0.0
 11
21.678583
 21
9.858333
 31
0.0
  0
ENDBLK
  8
1
  6
CONTINUOUS
 62
     7
  5
6F
  0
BLOCK
  8
1
  6
CONTINUOUS
 62
     7
  5
72
  2
$X10
 70
     0
 10
0.0
 20
0.0
 30
0.0
  3
$N10
  0
LINE
  8
1
  6
CONTINUOUS
 62
     7
  5
73
 10
21.435
 20
9.76775
 30
0.0
 11
21.5155
 21
9.848167
 31
0.0
  0
LINE
  8
1
  6
CONTINUOUS
 62
     7
  5
74
 10
21.435
 20
9.820833
 30
0.0
 11
21.5155
 21
9.90125
 31
0.0
  0
LINE
  8
1
  6
CONTINUOUS
 62
     7
  5
75
 10
21.435
 20
9.873833
 30
0.0
 11
21.470833
 21
9.909667
 31
0.0
  0
LINE
  8
1
  6
CONTINUOUS
 62
     7
  5
76
 10
21.435
 20
9.926917
 30
0.0
 11
21.440167
 21
9.932
 31
0.0
  0
LINE
  8
1
  6
CONTINUOUS
 62
     7
  5
77
 10
21.435
 20
9.71475
 30
0.0
 11
21.5155
 21
9.795167
 31
0.0
  0
LINE
  8
1
  6
CONTINUOUS
 62
     7
  5
78
 10
21.435
 20
9.66175
 30
0.0
 11
21.5155
 21
9.742167
 31
0.0
  0
LINE
  8
1
  6
CONTINUOUS
 62
     7
  5
79
 10
21.464833
 20
9.6385
 30
0.0
 11
21.5155
 21
9.689083
 31
0.0
  0
ENDBLK
  8
1
  6
CONTINUOUS
 62
     7
  5
7A
  0
BLOCK
  8
1
  6
CONTINUOUS
 62
     7
  5
6EB
  2
D1
 70
     0
 10
0.0
 20
0.0
 30
0.0
  3
D1
  0
LINE
  8
1
  6
CONTINUOUS
 62
     7
  5
6EC
 10
0.568
 20
-0.322583
 30
0.0
 11
0.338333
 21
-0.192167
 31
0.0
  0
LINE
  8
1
  6
CONTINUOUS
 62
     7
  5
6ED
 10
0.10875
 20
-0.061667
 30
0.0
 11
0.338333
 21
-0.192167
 31
0.0
  0
SOLID
  8
1
  6
CONTINUOUS
 62
     7
  5
6EE
 10
0.557833
 20
-0.340667
 30
0.0
 11
0.578333
 21
-0.304417
 31
0.0
 12
0.67675
 22
-0.38425
 32
0.0
 13
0.67675
 23
-0.38425
 33
0.0
  0
SOLID
  8
1
  6
CONTINUOUS
 62
     7
  5
6EF
 10
0.098417
 20
-0.079833
 30
0.0
 11
0.119
 21
-0.043583
 31
0.0
 12
0.0
 22
0.0
 32
0.0
 13
0.0
 23
0.0
 33
0.0
  0
LINE
  8
6
  6
CONTINUOUS
 62
     7
  5
6F0
 10
0.668833
 20
-0.398167
 30
0.0
 11
0.669
 21
-0.398167
 31
0.0
  0
LINE
  8
6
  6
CONTINUOUS
 62
     7
  5
6F1
 10
-0.007917
 20
-0.013833
 30
0.0
 11
-0.007833
 21
-0.013833
 31
0.0
  0
LINE
  8
6
  6
CONTINUOUS
 62
     7
  5
6F2
 10
0.0
 20
0.0
 30
0.0
 11
0.000083
 21
0.0
 31
0.0
  0
ENDBLK
  8
6
  6
CONTINUOUS
 62
     7
  5
6F3
  0
BLOCK
  8
1
  6
CONTINUOUS
 62
     7
  5
7AE
  2
D3
 70
     0
 10
0.0
 20
0.0
 30
0.0
  3
D3
  0
LINE
  8
1
  6
CONTINUOUS
 62
     7
  5
7AF
 10
0.058
 20
1.5465
 30
0.0
 11
-0.18
 21
1.5465
 31
0.0
  0
LINE
  8
1
  6
CONTINUOUS
 62
     7
  5
7B0
 10
0.058
 20
0.0
 30
0.0
 11
-0.18
 21
0.0
 31
0.0
  0
LINE
  8
1
  6
CONTINUOUS
 62
     7
  5
7B1
 10
0.0
 20
1.4215
 30
0.0
 11
0.0
 21
0.125
 31
0.0
  0
SOLID
  8
1
  6
CONTINUOUS
 62
     7
  5
7B2
 10
-0.020833
 20
1.4215
 30
0.0
 11
0.020833
 21
1.4215
 31
0.0
 12
0.0
 22
1.5465
 32
0.0
 13
0.0
 23
1.5465
 33
0.0
  0
SOLID
  8
1
  6
CONTINUOUS
 62
     7
  5
7B3
 10
-0.020833
 20
0.125
 30
0.0
 11
0.020833
 21
0.125
 31
0.0
 12
0.0
 22
0.0
 32
0.0
 13
0.0
 23
0.0
 33
0.0
  0
LINE
  8
6
  6
CONTINUOUS
 62
     7
  5
7B4
 10
0.1205
 20
1.5465
 30
0.0
 11
0.120667
 21
1.5465
 31
0.0
  0
LINE
  8
6
  6
CONTINUOUS
 62
     7
  5
7B5
 10
0.1205
 20
0.0
 30
0.0
 11
0.120667
 21
0.0
 31
0.0
  0
POINT
  8
6
  6
CONTINUOUS
 62
     7
  5
7B6
 10
0.0
 20
0.0
 30
0.0
  0
ENDBLK
  8
6
  6
CONTINUOUS
 62
     7
  5
7B7
  0
BLOCK
  8
1
  6
CONTINUOUS
 62
     7
  5
BE1
  2
$X6
 70
     0
 10
0.0
 20
0.0
 30
0.0
  3
$N6
  0
LINE
  8
1
  6
CONTINUOUS
 62
     7
  5
BE2
 10
21.200667
 20
17.0905
 30
0.0
 11
21.26625
 21
17.156
 31
0.0
  0
LINE
  8
1
  6
CONTINUOUS
 62
     7
  5
BE3
 10
21.200667
 20
17.223
 30
0.0
 11
21.26625
 21
17.288583
 31
0.0
  0
LINE
  8
1
  6
CONTINUOUS
 62
     7
  5
BE4
 10
21.200667
 20
17.355583
 30
0.0
 11
21.26625
 21
17.42125
 31
0.0
  0
LINE
  8
1
  6
CONTINUOUS
 62
     7
  5
BE5
 10
21.200583
 20
17.488167
 30
0.0
 11
21.26625
 21
17.55375
 31
0.0
  0
LINE
  8
1
  6
CONTINUOUS
 62
     7
  5
BE6
 10
21.200667
 20
17.62075
 30
0.0
 11
21.26625
 21
17.686333
 31
0.0
  0
LINE
  8
1
  6
CONTINUOUS
 62
     7
  5
BE7
 10
21.200667
 20
17.753333
 30
0.0
 11
21.26625
 21
17.819
 31
0.0
  0
LINE
  8
1
  6
CONTINUOUS
 62
     7
  5
BE8
 10
21.200583
 20
17.886
 30
0.0
 11
21.26625
 21
17.951417
 31
0.0
  0
LINE
  8
1
  6
CONTINUOUS
 62
     7
  5
BE9
 10
21.200667
 20
18.0185
 30
0.0
 11
21.26625
 21
18.084083
 31
0.0
  0
LINE
  8
1
  6
CONTINUOUS
 62
     7
  5
BEA
 10
21.200667
 20
18.151083
 30
0.0
 11
21.26625
 21
18.216667
 31
0.0
  0
LINE
  8
1
  6
CONTINUOUS
 62
     7
  5
BEB
 10
21.200667
 20
18.283667
 30
0.0
 11
21.266167
 21
18.349333
 31
0.0
  0
LINE
  8
1
  6
CONTINUOUS
 62
     7
  5
BEC
 10
21.200583
 20
18.416333
 30
0.0
 11
21.237333
 21
18.453
 31
0.0
  0
LINE
  8
1
  6
CONTINUOUS
 62
     7
  5
BED
 10
21.200667
 20
16.957833
 30
0.0
 11
21.266333
 21
17.0235
 31
0.0
  0
LINE
  8
1
  6
CONTINUOUS
 62
     7
  5
BEE
 10
21.200667
 20
16.82525
 30
0.0
 11
21.26625
 21
16.890917
 31
0.0
  0
LINE
  8
1
  6
CONTINUOUS
 62
     7
  5
BEF
 10
21.200667
 20
16.69275
 30
0.0
 11
21.266167
 21
16.75825
 31
0.0
  0
LINE
  8
1
  6
CONTINUOUS
 62
     7
  5
BF0
 10
21.200667
 20
16.560083
 30
0.0
 11
21.266167
 21
16.625667
 31
0.0
  0
LINE
  8
1
  6
CONTINUOUS
 62
     7
  5
BF1
 10
21.200667
 20
16.427583
 30
0.0
 11
21.266167
 21
16.493083
 31
0.0
  0
LINE
  8
1
  6
CONTINUOUS
 62
     7
  5
BF2
 10
21.200667
 20
16.294917
 30
0.0
 11
21.266167
 21
16.360583
 31
0.0
  0
LINE
  8
1
  6
CONTINUOUS
 62
     7
  5
BF3
 10
21.200583
 20
16.162417
 30
0.0
 11
21.266167
 21
16.227917
 31
0.0
  0
LINE
  8
1
  6
CONTINUOUS
 62
     7
  5
BF4
 10
21.200667
 20
16.02975
 30
0.0
 11
21.26625
 21
16.095333
 31
0.0
  0
LINE
  8
1
  6
CONTINUOUS
 62
     7
  5
BF5
 10
21.200583
 20
15.897167
 30
0.0
 11
21.266167
 21
15.96275
 31
0.0
  0
LINE
  8
1
  6
CONTINUOUS
 62
     7
  5
BF6
 10
21.200583
 20
15.764583
 30
0.0
 11
21.266167
 21
15.830167
 31
0.0
  0
ENDBLK
  8
1
  6
CONTINUOUS
 62
     7
  5
BF7
  0
ENDSEC
  0
SECTION
  2
ENTITIES
  0
LINE
  8
1
  6
CONTINUOUS
 62
   233
  5
29
 10
127.45475
 20
67.609083
 30
0.0
 11
127.45475
 21
67.575583
 31
0.0
  0
LINE
  8
1
  6
CONTINUOUS
 62
   233
  5
2A
 10
127.45475
 20
67.63375
 30
0.0
 11
127.45475
 21
64.990583
 31
0.0
  0
LINE
  8
1
  6
CONTINUOUS
 62
   233
  5
2B
 10
127.953417
 20
66.5275
 30
0.0
 11
127.953417
 21
67.634083
 31
0.0
  0
LINE
  8
1
  6
CONTINUOUS
 62
   233
  5
2C
 10
127.458417
 20
67.633583
 30
0.0
 11
126.30125
 21
67.706083
 31
0.0
  0
LINE
  8
1
  6
CONTINUOUS
 62
   233
  5
2D
 10
127.953417
 20
67.634083
 30
0.0
 11
129.279333
 21
67.69925
 31
0.0
  0
LINE
  8
1
  6
CONTINUOUS
 62
   233
  5
2E
 10
127.516667
 20
67.575583
 30
0.0
 11
127.696833
 21
67.575583
 31
0.0
  0
LINE
  8
1
  6
CONTINUOUS
 62
   233
  5
2F
 10
127.953417
 20
66.5275
 30
0.0
 11
127.953417
 21
65.005833
 31
0.0
  0
ARC
  8
1
  6
CONTINUOUS
 62
   233
  5
30
 10
127.7495
 20
63.5165
 30
0.0
 40
1.649803
 50
40.644625
 51
82.900417
210
0.0
220
0.0
230
1.0
  0
ARC
  8
1
  6
CONTINUOUS
 62
   233
  5
31
 10
127.7495
 20
63.5165
 30
0.0
 40
1.503268
 50
40.325692
 51
82.204258
210
0.0
220
0.0
230
1.0
  0
ARC
  8
1
  6
CONTINUOUS
 62
   233
  5
32
 10
127.7495
 20
63.5165
 30
0.0
 40
1.649803
 50
100.292814
 51
137.896178
210
0.0
220
0.0
230
1.0
  0
LINE
  8
1
  6
CONTINUOUS
 62
   233
  5
33
 10
127.556667
 20
67.575583
 30
0.0
 11
127.556667
 21
67.305167
 31
0.0
  0
LINE
  8
1
  6
CONTINUOUS
 62
   233
  5
34
 10
127.476167
 20
67.305167
 30
0.0
 11
127.476167
 21
67.63275
 31
0.0
  0
LINE
  8
1
  6
CONTINUOUS
 62
   233
  5
35
 10
127.556667
 20
67.5025
 30
0.0
 11
127.61575
 21
67.40675
 31
0.0
  0
LINE
  8
1
  6
CONTINUOUS
 62
   233
  5
36
 10
127.61575
 20
67.40675
 30
0.0
 11
127.696833
 21
67.40675
 31
0.0
  0
LINE
  8
1
  6
CONTINUOUS
 62
   233
  5
37
 10
127.561333
 20
67.605333
 30
0.0
 11
127.5785
 21
67.575583
 31
0.0
  0
LINE
  8
1
  6
CONTINUOUS
 62
   233
  5
38
 10
127.644167
 20
67.461667
 30
0.0
 11
127.672583
 21
67.454333
 31
0.0
  0
LINE
  8
1
  6
CONTINUOUS
 62
   233
  5
39
 10
127.672583
 20
67.454333
 30
0.0
 11
127.696833
 21
67.454333
 31
0.0
  0
ARC
  8
1
  6
CONTINUOUS
 62
   233
  5
3A
 10
127.507667
 20
67.5845
 30
0.0
 40
0.057591
 50
21.164353
 51
123.102669
210
0.0
220
0.0
230
1.0
  0
LINE
  8
1
  6
CONTINUOUS
 62
   233
  5
3B
 10
127.953417
 20
67.305167
 30
0.0
 11
127.45475
 21
67.305167
 31
0.0
  0
LINE
  8
1
  6
CONTINUOUS
 62
   233
  5
3C
 10
127.45475
 20
67.189
 30
0.0
 11
127.63075
 21
67.189
 31
0.0
  0
LINE
  8
1
  6
CONTINUOUS
 62
   233
  5
3D
 10
127.736583
 20
67.189
 30
0.0
 11
127.736583
 21
67.176167
 31
0.0
  0
LINE
  8
1
  6
CONTINUOUS
 62
   233
  5
3E
 10
127.679667
 20
67.305167
 30
0.0
 11
127.679667
 21
67.40675
 31
0.0
  0
LINE
  8
1
  6
CONTINUOUS
 62
   233
  5
3F
 10
127.679833
 20
67.248417
 30
0.0
 11
127.6325
 21
67.248417
 31
0.0
  0
LINE
  8
1
  6
CONTINUOUS
 62
   233
  5
40
 10
127.6325
 20
67.248417
 30
0.0
 11
127.6325
 21
67.206333
 31
0.0
  0
LINE
  8
1
  6
CONTINUOUS
 62
   233
  5
41
 10
127.604083
 20
67.531167
 30
0.0
 11
127.644167
 21
67.461667
 31
0.0
  0
ARC
  8
1
  6
CONTINUOUS
 62
   233
  5
42
 10
127.521833
 20
67.622083
 30
0.0
 40
0.046832
 50
166.87075
 51
263.712906
210
0.0
220
0.0
230
1.0
  0
LINE
  8
1
  6
CONTINUOUS
 62
   233
  5
43
 10
127.696833
 20
67.531167
 30
0.0
 11
127.556667
 21
67.531167
 31
0.0
  0
LINE
  8
1
  6
CONTINUOUS
 62
   233
  5
44
 10
127.696833
 20
67.531167
 30
0.0
 11
127.853583
 21
67.531167
 31
0.0
  0
ARC
  8
1
  6
CONTINUOUS
 62
   233
  5
45
 10
127.888417
 20
67.622083
 30
0.0
 40
0.046832
 50
276.287089
 51
13.129244
210
0.0
220
0.0
230
1.0
  0
LINE
  8
1
  6
CONTINUOUS
 62
   233
  5
46
 10
127.806083
 20
67.531167
 30
0.0
 11
127.766083
 21
67.461667
 31
0.0
  0
ARC
  8
1
  6
CONTINUOUS
 62
   233
  5
47
 10
127.902583
 20
67.5845
 30
0.0
 40
0.057591
 50
56.897328
 51
158.835644
210
0.0
220
0.0
230
1.0
  0
LINE
  8
1
  6
CONTINUOUS
 62
   233
  5
48
 10
127.766083
 20
67.461667
 30
0.0
 11
127.737667
 21
67.454333
 31
0.0
  0
LINE
  8
1
  6
CONTINUOUS
 62
   233
  5
49
 10
127.848833
 20
67.605333
 30
0.0
 11
127.831667
 21
67.575583
 31
0.0
  0
LINE
  8
1
  6
CONTINUOUS
 62
   233
  5
4A
 10
127.794417
 20
67.40675
 30
0.0
 11
127.696833
 21
67.40675
 31
0.0
  0
LINE
  8
1
  6
CONTINUOUS
 62
   233
  5
4B
 10
127.853583
 20
67.5025
 30
0.0
 11
127.794417
 21
67.40675
 31
0.0
  0
LINE
  8
1
  6
CONTINUOUS
 62
   233
  5
4C
 10
127.934
 20
67.305167
 30
0.0
 11
127.934
 21
67.63275
 31
0.0
  0
LINE
  8
1
  6
CONTINUOUS
 62
   233
  5
4D
 10
127.853583
 20
67.575583
 30
0.0
 11
127.853583
 21
67.305167
 31
0.0
  0
LINE
  8
1
  6
CONTINUOUS
 62
   233
  5
4E
 10
127.8935
 20
67.575583
 30
0.0
 11
127.696833
 21
67.575583
 31
0.0
  0
LINE
  8
1
  6
CONTINUOUS
 62
   233
  5
4F
 10
127.737667
 20
67.454333
 30
0.0
 11
127.696833
 21
67.454333
 31
0.0
  0
LINE
  8
1
  6
CONTINUOUS
 62
   233
  5
50
 10
127.730583
 20
67.305167
 30
0.0
 11
127.730583
 21
67.40675
 31
0.0
  0
CIRCLE
  8
1
  6
CONTINUOUS
 62
   233
  5
51
 10
127.704917
 20
67.491167
 30
0.0
 40
0.036925
210
0.0
220
0.0
230
1.0
  0
ARC
  8
1
  6
CONTINUOUS
 62
   233
  5
52
 10
127.713583
 20
67.225833
 30
0.0
 40
0.040645
 50
146.182472
 51
294.937419
210
0.0
220
0.0
230
1.0
  0
ARC
  8
1
  6
CONTINUOUS
 62
   233
  5
53
 10
127.680917
 20
67.192833
 30
0.0
 40
0.050272
 50
164.348978
 51
352.213897
210
0.0
220
0.0
230
1.0
  0
LINE
  8
1
  6
CONTINUOUS
 62
   233
  5
54
 10
127.696417
 20
67.189
 30
0.0
 11
127.953417
 21
67.189
 31
0.0
  0
INSERT
  8
1
  6
CONTINUOUS
 62
     7
  5
70
  2
$X9
 10
106.041167
 20
57.666667
 30
0.0
210
0.0
220
0.0
230
1.0
  0
INSERT
  8
1
  6
CONTINUOUS
 62
     7
  5
7B
  2
$X10
 10
106.041167
 20
57.666667
 30
0.0
210
0.0
220
0.0
230
1.0
  0
INSERT
  8
1
  6
CONTINUOUS
 62
     7
  5
7C
  2
$X10
 10
149.368667
 20
57.666667
 30
0.0
 42
-1.0
 50
180.0
210
0.0
220
0.0
230
1.0
  0
LINE
  8
2
  6
HIDDEN
 62
     2
  5
7E
 10
127.45475
 20
67.305167
 30
0.0
 11
126.938083
 21
67.305167
 31
0.0
  0
LINE
  8
2
  6
HIDDEN
 62
     2
  5
7F
 10
127.953417
 20
67.305167
 30
0.0
 11
128.481
 21
67.305167
 31
0.0
  0
LINE
  8
2
  6
HIDDEN
 62
     2
  5
80
 10
127.953417
 20
67.189
 30
0.0
 11
128.481
 21
67.189
 31
0.0
  0
LINE
  8
2
  6
HIDDEN
 62
     2
  5
81
 10
127.45475
 20
67.189
 30
0.0
 11
126.938083
 21
67.189
 31
0.0
  0
CIRCLE
  8
2
  6
HIDDEN
 62
     2
  5
82
 10
128.481
 20
67.247083
 30
0.0
 40
0.058104
210
0.0
220
0.0
230
1.0
  0
ARC
  8
2
  6
HIDDEN
 62
     2
  5
83
 10
126.938083
 20
67.247083
 30
0.0
 40
0.058104
 50
90.0
 51
270.0
210
0.0
220
0.0
230
1.0
  0
LINE
  8
1
  6
CONTINUOUS
 62
     7
  5
84
 10
127.458417
 20
67.696083
 30
0.0
 11
127.458417
 21
68.319667
 31
0.0
  0
LINE
  8
1
  6
CONTINUOUS
 62
     7
  5
85
 10
127.953417
 20
67.696583
 30
0.0
 11
127.953417
 21
68.319667
 31
0.0
  0
LINE
  8
1
  6
CONTINUOUS
 62
     7
  5
86
 10
127.583417
 20
68.139667
 30
0.0
 11
127.828417
 21
68.139667
 31
0.0
  0
SOLID
  8
1
  6
CONTINUOUS
 62
     7
  5
87
 10
127.583417
 20
68.1605
 30
0.0
 11
127.583417
 21
68.118833
 31
0.0
 12
127.458417
 22
68.139667
 32
0.0
 13
127.458417
 23
68.139667
 33
0.0
  0
SOLID
  8
1
  6
CONTINUOUS
 62
     7
  5
88
 10
127.828417
 20
68.1605
 30
0.0
 11
127.828417
 21
68.118833
 31
0.0
 12
127.953417
 22
68.139667
 32
0.0
 13
127.953417
 23
68.139667
 33
0.0
  0
LINE
  8
6
  6
CONTINUOUS
 62
     7
  5
8A
 10
127.458417
 20
67.633583
 30
0.0
 11
127.4585
 21
67.633583
 31
0.0
  0
LINE
  8
6
  6
CONTINUOUS
 62
     7
  5
8B
 10
127.953417
 20
67.634083
 30
0.0
 11
127.9535
 21
67.634083
 31
0.0
  0
LINE
  8
6
  6
CONTINUOUS
 62
     7
  5
8C
 10
127.953417
 20
68.139667
 30
0.0
 11
127.9535
 21
68.139667
 31
0.0
  0
POLYLINE
  8
5
  6
CONTINUOUS
 62
    99
  5
8E
 66
     1
 10
0.0
 20
0.0
 30
0.0
  0
VERTEX
  8
5
  6
CONTINUOUS
 62
    99
  5
8F
 10
127.82057
 20
66.909956
 30
0.0
 42
0.153395
  0
VERTEX
  8
5
  6
CONTINUOUS
 62
    99
  5
90
 10
127.831979
 20
66.928
 30
0.0
 42
0.106873
  0
VERTEX
  8
5
  6
CONTINUOUS
 62
    99
  5
91
 10
127.833305
 20
66.958302
 30
0.0
 42
0.073831
  0
VERTEX
  8
5
  6
CONTINUOUS
 62
    99
  5
92
 10
127.823304
 20
66.989116
 30
0.0
 42
0.060398
  0
VERTEX
  8
5
  6
CONTINUOUS
 62
    99
  5
93
 10
127.80158
 20
67.022099
 30
0.0
 42
0.060398
  0
VERTEX
  8
5
  6
CONTINUOUS
 62
    99
  5
94
 10
127.772579
 20
67.048903
 30
0.0
 42
0.073831
  0
VERTEX
  8
5
  6
CONTINUOUS
 62
    99
  5
95
 10
127.743828
 20
67.063776
 30
0.0
 42
0.106873
  0
VERTEX
  8
5
  6
CONTINUOUS
 62
    99
  5
96
 10
127.71378
 20
67.067347
 30
0.0
 42
0.153395
  0
VERTEX
  8
5
  6
CONTINUOUS
 62
    99
  5
97
 10
127.694013
 20
67.05896
 30
0.0
 42
0.153395
  0
VERTEX
  8
5
  6
CONTINUOUS
 62
    99
  5
98
 10
127.682562
 20
67.040943
 30
0.0
 42
0.106873
  0
VERTEX
  8
5
  6
CONTINUOUS
 62
    99
  5
99
 10
127.681153
 20
67.010584
 30
0.0
 42
0.073831
  0
VERTEX
  8
5
  6
CONTINUOUS
 62
    99
  5
9A
 10
127.691279
 20
66.979801
 30
0.0
 42
0.060398
  0
VERTEX
  8
5
  6
CONTINUOUS
 62
    99
  5
9B
 10
127.713013
 20
66.946859
 30
0.0
 42
0.060398
  0
VERTEX
  8
5
  6
CONTINUOUS
 62
    99
  5
9C
 10
127.742016
 20
66.920086
 30
0.0
 42
0.073831
  0
VERTEX
  8
5
  6
CONTINUOUS
 62
    99
  5
9D
 10
127.77063
 20
66.905198
 30
0.0
 42
0.106873
  0
VERTEX
  8
5
  6
CONTINUOUS
 62
    99
  5
9E
 10
127.800804
 20
66.901569
 30
0.0
 42
0.153395
  0
VERTEX
  8
5
  6
CONTINUOUS
 62
    99
  5
9F
 10
127.820554
 20
66.909903
 30
0.0
  0
SEQEND
  8
5
  6
CONTINUOUS
 62
    99
  5
A0
  0
POLYLINE
  8
5
  6
CONTINUOUS
 62
    99
  5
A1
 66
     1
 10
0.0
 20
0.0
 30
0.0
  0
VERTEX
  8
5
  6
CONTINUOUS
 62
    99
  5
A2
 10
127.591125
 20
66.759804
 30
0.0
 42
0.176186
  0
VERTEX
  8
5
  6
CONTINUOUS
 62
    99
  5
A3
 10
127.607197
 20
66.761205
 30
0.0
 42
0.103928
  0
VERTEX
  8
5
  6
CONTINUOUS
 62
    99
  5
A4
 10
127.628592
 20
66.777127
 30
0.0
 42
0.064358
  0
VERTEX
  8
5
  6
CONTINUOUS
 62
    99
  5
A5
 10
127.644716
 20
66.801177
 30
0.0
 42
0.05052
  0
VERTEX
  8
5
  6
CONTINUOUS
 62
    99
  5
A6
 10
127.657921
 20
66.835468
 30
0.0
 42
0.05052
  0
VERTEX
  8
5
  6
CONTINUOUS
 62
    99
  5
A7
 10
127.663904
 20
66.871873
 30
0.0
 42
0.064358
  0
VERTEX
  8
5
  6
CONTINUOUS
 62
    99
  5
A8
 10
127.662038
 20
66.900745
 30
0.0
 42
0.103928
  0
VERTEX
  8
5
  6
CONTINUOUS
 62
    99
  5
A9
 10
127.651551
 20
66.925311
 30
0.0
 42
0.176186
  0
VERTEX
  8
5
  6
CONTINUOUS
 62
    99
  5
AA
 10
127.638417
 20
66.934582
 30
0.0
 42
0.176186
  0
VERTEX
  8
5
  6
CONTINUOUS
 62
    99
  5
AB
 10
127.622428
 20
66.933243
 30
0.0
 42
0.103928
  0
VERTEX
  8
5
  6
CONTINUOUS
 62
    99
  5
AC
 10
127.600908
 20
66.91729
 30
0.0
 42
0.064358
  0
VERTEX
  8
5
  6
CONTINUOUS
 62
    99
  5
AD
 10
127.584784
 20
66.893239
 30
0.0
 42
0.05052
  0
VERTEX
  8
5
  6
CONTINUOUS
 62
    99
  5
AE
 10
127.571579
 20
66.858949
 30
0.0
 42
0.05052
  0
VERTEX
  8
5
  6
CONTINUOUS
 62
    99
  5
AF
 10
127.565596
 20
66.822544
 30
0.0
 42
0.064358
  0
VERTEX
  8
5
  6
CONTINUOUS
 62
    99
  5
B0
 10
127.567462
 20
66.793672
 30
0.0
 42
0.103928
  0
VERTEX
  8
5
  6
CONTINUOUS
 62
    99
  5
B1
 10
127.577949
 20
66.769105
 30
0.0
 42
0.176186
  0
VERTEX
  8
5
  6
CONTINUOUS
 62
    99
  5
B2
 10
127.591115
 20
66.759855
 30
0.0
  0
SEQEND
  8
5
  6
CONTINUOUS
 62
    99
  5
B3
  0
POLYLINE
  8
5
  6
CONTINUOUS
 62
    99
  5
B4
 66
     1
 10
0.0
 20
0.0
 30
0.0
  0
VERTEX
  8
5
  6
CONTINUOUS
 62
    99
  5
B5
 10
127.495343
 20
66.867801
 30
0.0
 42
0.157365
  0
VERTEX
  8
5
  6
CONTINUOUS
 62
    99
  5
B6
 10
127.515417
 20
66.865507
 30
0.0
 42
0.106573
  0
VERTEX
  8
5
  6
CONTINUOUS
 62
    99
  5
B7
 10
127.54241
 20
66.877212
 30
0.0
 42
0.072121
  0
VERTEX
  8
5
  6
CONTINUOUS
 62
    99
  5
B8
 10
127.56512
 20
66.899193
 30
0.0
 42
0.058512
  0
VERTEX
  8
5
  6
CONTINUOUS
 62
    99
  5
B9
 10
127.585149
 20
66.932427
 30
0.0
 42
0.058512
  0
VERTEX
  8
5
  6
CONTINUOUS
 62
    99
  5
BA
 10
127.596915
 20
66.969373
 30
0.0
 42
0.072121
  0
VERTEX
  8
5
  6
CONTINUOUS
 62
    99
  5
BB
 10
127.598463
 20
67.000831
 30
0.0
 42
0.106573
  0
VERTEX
  8
5
  6
CONTINUOUS
 62
    99
  5
BC
 10
127.589507
 20
67.028906
 30
0.0
 42
0.157365
  0
VERTEX
  8
5
  6
CONTINUOUS
 62
    99
  5
BD
 10
127.574528
 20
67.042574
 30
0.0
 42
0.157365
  0
VERTEX
  8
5
  6
CONTINUOUS
 62
    99
  5
BE
 10
127.554416
 20
67.044826
 30
0.0
 42
0.106573
  0
VERTEX
  8
5
  6
CONTINUOUS
 62
    99
  5
BF
 10
127.527423
 20
67.033121
 30
0.0
 42
0.072121
  0
VERTEX
  8
5
  6
CONTINUOUS
 62
    99
  5
C0
 10
127.504735
 20
67.011182
 30
0.0
 42
0.058512
  0
VERTEX
  8
5
  6
CONTINUOUS
 62
    99
  5
C1
 10
127.484662
 20
66.978031
 30
0.0
 42
0.058512
  0
VERTEX
  8
5
  6
CONTINUOUS
 62
    99
  5
C2
 10
127.472876
 20
66.941006
 30
0.0
 42
0.072121
  0
VERTEX
  8
5
  6
CONTINUOUS
 62
    99
  5
C3
 10
127.471412
 20
66.909529
 30
0.0
 42
0.106573
  0
VERTEX
  8
5
  6
CONTINUOUS
 62
    99
  5
C4
 10
127.480372
 20
66.881385
 30
0.0
 42
0.157365
  0
VERTEX
  8
5
  6
CONTINUOUS
 62
    99
  5
C5
 10
127.495372
 20
66.867802
 30
0.0
  0
SEQEND
  8
5
  6
CONTINUOUS
 62
    99
  5
C6
  0
POLYLINE
  8
5
  6
CONTINUOUS
 62
    99
  5
C7
 66
     1
 10
0.0
 20
0.0
 30
0.0
  0
VERTEX
  8
5
  6
CONTINUOUS
 62
    99
  5
C8
 10
127.623021
 20
67.009639
 30
0.0
 42
0.11471
  0
VERTEX
  8
5
  6
CONTINUOUS
 62
    99
  5
C9
 10
127.632563
 20
67.004002
 30
0.0
 42
0.103796
  0
VERTEX
  8
5
  6
CONTINUOUS
 62
    99
  5
CA
 10
127.644641
 20
67.002727
 30
0.0
 42
0.091355
  0
VERTEX
  8
5
  6
CONTINUOUS
 62
    99
  5
CB
 10
127.656676
 20
67.006338
 30
0.0
 42
0.084158
  0
VERTEX
  8
5
  6
CONTINUOUS
 62
    99
  5
CC
 10
127.667478
 20
67.014382
 30
0.0
 42
0.084158
  0
VERTEX
  8
5
  6
CONTINUOUS
 62
    99
  5
CD
 10
127.675083
 20
67.025591
 30
0.0
 42
0.091355
  0
VERTEX
  8
5
  6
CONTINUOUS
 62
    99
  5
CE
 10
127.678165
 20
67.037628
 30
0.0
 42
0.103796
  0
VERTEX
  8
5
  6
CONTINUOUS
 62
    99
  5
CF
 10
127.676436
 20
67.049709
 30
0.0
 42
0.11471
  0
VERTEX
  8
5
  6
CONTINUOUS
 62
    99
  5
D0
 10
127.670354
 20
67.059015
 30
0.0
 42
0.11471
  0
VERTEX
  8
5
  6
CONTINUOUS
 62
    99
  5
D1
 10
127.660812
 20
67.064697
 30
0.0
 42
0.103796
  0
VERTEX
  8
5
  6
CONTINUOUS
 62
    99
  5
D2
 10
127.648651
 20
67.06588
 30
0.0
 42
0.091355
  0
VERTEX
  8
5
  6
CONTINUOUS
 62
    99
  5
D3
 10
127.636783
 20
67.062324
 30
0.0
 42
0.084158
  0
VERTEX
  8
5
  6
CONTINUOUS
 62
    99
  5
D4
 10
127.625855
 20
67.054284
 30
0.0
 42
0.084158
  0
VERTEX
  8
5
  6
CONTINUOUS
 62
    99
  5
D5
 10
127.618209
 20
67.0431
 30
0.0
 42
0.091355
  0
VERTEX
  8
5
  6
CONTINUOUS
 62
    99
  5
D6
 10
127.615252
 20
67.031039
 30
0.0
 42
0.103796
  0
VERTEX
  8
5
  6
CONTINUOUS
 62
    99
  5
D7
 10
127.617022
 20
67.018887
 30
0.0
 42
0.11471
  0
VERTEX
  8
5
  6
CONTINUOUS
 62
    99
  5
D8
 10
127.623022
 20
67.009637
 30
0.0
  0
SEQEND
  8
5
  6
CONTINUOUS
 62
    99
  5
D9
  0
POLYLINE
  8
5
  6
CONTINUOUS
 62
    99
  5
DA
 66
     1
 10
0.0
 20
0.0
 30
0.0
  0
VERTEX
  8
5
  6
CONTINUOUS
 62
    99
  5
DB
 10
127.574529
 20
67.059021
 30
0.0
 42
0.223593
  0
VERTEX
  8
5
  6
CONTINUOUS
 62
    99
  5
DC
 10
127.575461
 20
67.066154
 30
0.0
 42
0.090478
  0
VERTEX
  8
5
  6
CONTINUOUS
 62
    99
  5
DD
 10
127.567619
 20
67.081288
 30
0.0
 42
0.047297
  0
VERTEX
  8
5
  6
CONTINUOUS
 62
    99
  5
DE
 10
127.554694
 20
67.094948
 30
0.0
 42
0.035246
  0
VERTEX
  8
5
  6
CONTINUOUS
 62
    99
  5
DF
 10
127.534524
 20
67.110102
 30
0.0
 42
0.035246
  0
VERTEX
  8
5
  6
CONTINUOUS
 62
    99
  5
E0
 10
127.512462
 20
67.122214
 30
0.0
 42
0.047297
  0
VERTEX
  8
5
  6
CONTINUOUS
 62
    99
  5
E1
 10
127.494822
 20
67.128483
 30
0.0
 42
0.090478
  0
VERTEX
  8
5
  6
CONTINUOUS
 62
    99
  5
E2
 10
127.47772
 20
67.129628
 30
0.0
 42
0.223593
  0
VERTEX
  8
5
  6
CONTINUOUS
 62
    99
  5
E3
 10
127.471638
 20
67.125812
 30
0.0
 42
0.223593
  0
VERTEX
  8
5
  6
CONTINUOUS
 62
    99
  5
E4
 10
127.470706
 20
67.11868
 30
0.0
 42
0.090478
  0
VERTEX
  8
5
  6
CONTINUOUS
 62
    99
  5
E5
 10
127.478613
 20
67.103564
 30
0.0
 42
0.047297
  0
VERTEX
  8
5
  6
CONTINUOUS
 62
    99
  5
E6
 10
127.491598
 20
67.089976
 30
0.0
 42
0.035246
  0
VERTEX
  8
5
  6
CONTINUOUS
 62
    99
  5
E7
 10
127.511642
 20
67.074814
 30
0.0
 42
0.035246
  0
VERTEX
  8
5
  6
CONTINUOUS
 62
    99
  5
E8
 10
127.53364
 20
67.062638
 30
0.0
 42
0.047297
  0
VERTEX
  8
5
  6
CONTINUOUS
 62
    99
  5
E9
 10
127.551448
 20
67.05637
 30
0.0
 42
0.090478
  0
VERTEX
  8
5
  6
CONTINUOUS
 62
    99
  5
EA
 10
127.568442
 20
67.055247
 30
0.0
 42
0.223593
  0
VERTEX
  8
5
  6
CONTINUOUS
 62
    99
  5
EB
 10
127.574525
 20
67.058997
 30
0.0
  0
SEQEND
  8
5
  6
CONTINUOUS
 62
    99
  5
EC
  0
POLYLINE
  8
5
  6
CONTINUOUS
 62
    99
  5
ED
 66
     1
 10
0.0
 20
0.0
 30
0.0
  0
VERTEX
  8
5
  6
CONTINUOUS
 62
    99
  5
EE
 10
127.677443
 20
67.067222
 30
0.0
 42
0.181507
  0
VERTEX
  8
5
  6
CONTINUOUS
 62
    99
  5
EF
 10
127.687664
 20
67.058176
 30
0.0
 42
0.102853
  0
VERTEX
  8
5
  6
CONTINUOUS
 62
    99
  5
F0
 10
127.710997
 20
67.054227
 30
0.0
 42
0.062269
  0
VERTEX
  8
5
  6
CONTINUOUS
 62
    99
  5
F1
 10
127.736294
 20
67.058511
 30
0.0
 42
0.048504
  0
VERTEX
  8
5
  6
CONTINUOUS
 62
    99
  5
F2
 10
127.766778
 20
67.070872
 30
0.0
 42
0.048504
  0
VERTEX
  8
5
  6
CONTINUOUS
 62
    99
  5
F3
 10
127.79432
 20
67.088888
 30
0.0
 42
0.062269
  0
VERTEX
  8
5
  6
CONTINUOUS
 62
    99
  5
F4
 10
127.812131
 20
67.107292
 30
0.0
 42
0.102853
  0
VERTEX
  8
5
  6
CONTINUOUS
 62
    99
  5
F5
 10
127.822259
 20
67.128762
 30
0.0
 42
0.181507
  0
VERTEX
  8
5
  6
CONTINUOUS
 62
    99
  5
F6
 10
127.820557
 20
67.142361
 30
0.0
 42
0.181507
  0
VERTEX
  8
5
  6
CONTINUOUS
 62
    99
  5
F7
 10
127.810336
 20
67.151407
 30
0.0
 42
0.102853
  0
VERTEX
  8
5
  6
CONTINUOUS
 62
    99
  5
F8
 10
127.787003
 20
67.155357
 30
0.0
 42
0.062269
  0
VERTEX
  8
5
  6
CONTINUOUS
 62
    99
  5
F9
 10
127.761694
 20
67.151114
 30
0.0
 42
0.048504
  0
VERTEX
  8
5
  6
CONTINUOUS
 62
    99
  5
FA
 10
127.731234
 20
67.138669
 30
0.0
 42
0.048504
  0
VERTEX
  8
5
  6
CONTINUOUS
 62
    99
  5
FB
 10
127.70368
 20
67.120695
 30
0.0
 42
0.062269
  0
VERTEX
  8
5
  6
CONTINUOUS
 62
    99
  5
FC
 10
127.685869
 20
67.102291
 30
0.0
 42
0.102853
  0
VERTEX
  8
5
  6
CONTINUOUS
 62
    99
  5
FD
 10
127.675741
 20
67.080822
 30
0.0
 42
0.181507
  0
VERTEX
  8
5
  6
CONTINUOUS
 62
    99
  5
FE
 10
127.677407
 20
67.067238
 30
0.0
  0
SEQEND
  8
5
  6
CONTINUOUS
 62
    99
  5
FF
  0
POLYLINE
  8
5
  6
CONTINUOUS
 62
    99
  5
100
 66
     1
 10
0.0
 20
0.0
 30
0.0
  0
VERTEX
  8
5
  6
CONTINUOUS
 62
    99
  5
101
 10
127.89151
 20
67.0343
 30
0.0
 42
0.164514
  0
VERTEX
  8
5
  6
CONTINUOUS
 62
    99
  5
102
 10
127.901596
 20
67.037784
 30
0.0
 42
0.105795
  0
VERTEX
  8
5
  6
CONTINUOUS
 62
    99
  5
103
 10
127.912273
 20
67.050172
 30
0.0
 42
0.069105
  0
VERTEX
  8
5
  6
CONTINUOUS
 62
    99
  5
104
 10
127.918394
 20
67.066567
 30
0.0
 42
0.055304
  0
VERTEX
  8
5
  6
CONTINUOUS
 62
    99
  5
105
 10
127.920811
 20
67.088349
 30
0.0
 42
0.055304
  0
VERTEX
  8
5
  6
CONTINUOUS
 62
    99
  5
106
 10
127.91844
 20
67.110078
 30
0.0
 42
0.069105
  0
VERTEX
  8
5
  6
CONTINUOUS
 62
    99
  5
107
 10
127.912263
 20
67.126466
 30
0.0
 42
0.105795
  0
VERTEX
  8
5
  6
CONTINUOUS
 62
    99
  5
108
 10
127.901593
 20
67.13895
 30
0.0
 42
0.164514
  0
VERTEX
  8
5
  6
CONTINUOUS
 62
    99
  5
109
 10
127.89149
 20
67.142367
 30
0.0
 42
0.164514
  0
VERTEX
  8
5
  6
CONTINUOUS
 62
    99
  5
10A
 10
127.881445
 20
67.138937
 30
0.0
 42
0.105795
  0
VERTEX
  8
5
  6
CONTINUOUS
 62
    99
  5
10B
 10
127.87081
 20
67.126494
 30
0.0
 42
0.069105
  0
VERTEX
  8
5
  6
CONTINUOUS
 62
    99
  5
10C
 10
127.864689
 20
67.110099
 30
0.0
 42
0.055304
  0
VERTEX
  8
5
  6
CONTINUOUS
 62
    99
  5
10D
 10
127.862272
 20
67.088317
 30
0.0
 42
0.055304
  0
VERTEX
  8
5
  6
CONTINUOUS
 62
    99
  5
10E
 10
127.864643
 20
67.066589
 30
0.0
 42
0.069105
  0
VERTEX
  8
5
  6
CONTINUOUS
 62
    99
  5
10F
 10
127.870862
 20
67.050146
 30
0.0
 42
0.105795
  0
VERTEX
  8
5
  6
CONTINUOUS
 62
    99
  5
110
 10
127.881407
 20
67.037717
 30
0.0
 42
0.164514
  0
VERTEX
  8
5
  6
CONTINUOUS
 62
    99
  5
111
 10
127.89149
 20
67.0343
 30
0.0
  0
SEQEND
  8
5
  6
CONTINUOUS
 62
    99
  5
112
  0
POLYLINE
  8
5
  6
CONTINUOUS
 62
    99
  5
113
 66
     1
 10
0.0
 20
0.0
 30
0.0
  0
VERTEX
  8
5
  6
CONTINUOUS
 62
    99
  5
114
 10
127.543768
 20
66.818428
 30
0.0
 42
0.114633
  0
VERTEX
  8
5
  6
CONTINUOUS
 62
    99
  5
115
 10
127.523376
 20
66.82292
 30
0.0
 42
0.103777
  0
VERTEX
  8
5
  6
CONTINUOUS
 62
    99
  5
116
 10
127.500998
 20
66.817945
 30
0.0
 42
0.09139
  0
VERTEX
  8
5
  6
CONTINUOUS
 62
    99
  5
117
 10
127.481679
 20
66.804562
 30
0.0
 42
0.084218
  0
VERTEX
  8
5
  6
CONTINUOUS
 62
    99
  5
118
 10
127.467038
 20
66.783715
 30
0.0
 42
0.084218
  0
VERTEX
  8
5
  6
CONTINUOUS
 62
    99
  5
119
 10
127.460002
 20
66.759229
 30
0.0
 42
0.09139
  0
VERTEX
  8
5
  6
CONTINUOUS
 62
    99
  5
11A
 10
127.461657
 20
66.735782
 30
0.0
 42
0.103777
  0
VERTEX
  8
5
  6
CONTINUOUS
 62
    99
  5
11B
 10
127.471896
 20
66.715193
 30
0.0
 42
0.114633
  0
VERTEX
  8
5
  6
CONTINUOUS
 62
    99
  5
11C
 10
127.48819
 20
66.702142
 30
0.0
 42
0.114633
  0
VERTEX
  8
5
  6
CONTINUOUS
 62
    99
  5
11D
 10
127.508592
 20
66.697705
 30
0.0
 42
0.103777
  0
VERTEX
  8
5
  6
CONTINUOUS
 62
    99
  5
11E
 10
127.530978
 20
66.702596
 30
0.0
 42
0.09139
  0
VERTEX
  8
5
  6
CONTINUOUS
 62
    99
  5
11F
 10
127.550321
 20
66.716021
 30
0.0
 42
0.084218
  0
VERTEX
  8
5
  6
CONTINUOUS
 62
    99
  5
120
 10
127.564962
 20
66.736868
 30
0.0
 42
0.084218
  0
VERTEX
  8
5
  6
CONTINUOUS
 62
    99
  5
121
 10
127.571998
 20
66.761354
 30
0.0
 42
0.09139
  0
VERTEX
  8
5
  6
CONTINUOUS
 62
    99
  5
122
 10
127.570311
 20
66.784843
 30
0.0
 42
0.103777
  0
VERTEX
  8
5
  6
CONTINUOUS
 62
    99
  5
123
 10
127.560075
 20
66.805361
 30
0.0
 42
0.114633
  0
VERTEX
  8
5
  6
CONTINUOUS
 62
    99
  5
124
 10
127.543741
 20
66.818445
 30
0.0
  0
SEQEND
  8
5
  6
CONTINUOUS
 62
    99
  5
125
  0
POLYLINE
  8
5
  6
CONTINUOUS
 62
    99
  5
126
 66
     1
 10
0.0
 20
0.0
 30
0.0
  0
VERTEX
  8
5
  6
CONTINUOUS
 62
    99
  5
127
 10
127.867807
 20
66.918141
 30
0.0
 42
0.180257
  0
VERTEX
  8
5
  6
CONTINUOUS
 62
    99
  5
128
 10
127.846312
 20
66.908553
 30
0.0
 42
0.103117
  0
VERTEX
  8
5
  6
CONTINUOUS
 62
    99
  5
129
 10
127.823808
 20
66.875099
 30
0.0
 42
0.062755
  0
VERTEX
  8
5
  6
CONTINUOUS
 62
    99
  5
12A
 10
127.812548
 20
66.832827
 30
0.0
 42
0.048969
  0
VERTEX
  8
5
  6
CONTINUOUS
 62
    99
  5
12B
 10
127.810444
 20
66.776887
 30
0.0
 42
0.048969
  0
VERTEX
  8
5
  6
CONTINUOUS
 62
    99
  5
12C
 10
127.819216
 20
66.721688
 30
0.0
 42
0.062755
  0
VERTEX
  8
5
  6
CONTINUOUS
 62
    99
  5
12D
 10
127.835591
 20
66.681002
 30
0.0
 42
0.103117
  0
VERTEX
  8
5
  6
CONTINUOUS
 62
    99
  5
12E
 10
127.861886
 20
66.650517
 30
0.0
 42
0.180257
  0
VERTEX
  8
5
  6
CONTINUOUS
 62
    99
  5
12F
 10
127.884401
 20
66.64358
 30
0.0
 42
0.180257
  0
VERTEX
  8
5
  6
CONTINUOUS
 62
    99
  5
130
 10
127.90603
 20
66.653189
 30
0.0
 42
0.103117
  0
VERTEX
  8
5
  6
CONTINUOUS
 62
    99
  5
131
 10
127.928398
 20
66.686612
 30
0.0
 42
0.062755
  0
VERTEX
  8
5
  6
CONTINUOUS
 62
    99
  5
132
 10
127.939744
 20
66.728931
 30
0.0
 42
0.048969
  0
VERTEX
  8
5
  6
CONTINUOUS
 62
    99
  5
133
 10
127.941806
 20
66.784863
 30
0.0
 42
0.048969
  0
VERTEX
  8
5
  6
CONTINUOUS
 62
    99
  5
134
 10
127.932993
 20
66.840064
 30
0.0
 42
0.062755
  0
VERTEX
  8
5
  6
CONTINUOUS
 62
    99
  5
135
 10
127.916742
 20
66.880748
 30
0.0
 42
0.103117
  0
VERTEX
  8
5
  6
CONTINUOUS
 62
    99
  5
136
 10
127.890406
 20
66.911262
 30
0.0
 42
0.180257
  0
VERTEX
  8
5
  6
CONTINUOUS
 62
    99
  5
137
 10
127.867823
 20
66.918178
 30
0.0
  0
SEQEND
  8
5
  6
CONTINUOUS
 62
    99
  5
138
  0
POLYLINE
  8
5
  6
CONTINUOUS
 62
    99
  5
139
 66
     1
 10
0.0
 20
0.0
 30
0.0
  0
VERTEX
  8
5
  6
CONTINUOUS
 62
    99
  5
13A
 10
127.677389
 20
66.668299
 30
0.0
 42
0.151085
  0
VERTEX
  8
5
  6
CONTINUOUS
 62
    99
  5
13B
 10
127.701561
 20
66.662714
 30
0.0
 42
0.107002
  0
VERTEX
  8
5
  6
CONTINUOUS
 62
    99
  5
13C
 10
127.734663
 20
66.672515
 30
0.0
 42
0.074836
  0
VERTEX
  8
5
  6
CONTINUOUS
 62
    99
  5
13D
 10
127.763979
 20
66.69472
 30
0.0
 42
0.061532
  0
VERTEX
  8
5
  6
CONTINUOUS
 62
    99
  5
13E
 10
127.790912
 20
66.730289
 30
0.0
 42
0.061532
  0
VERTEX
  8
5
  6
CONTINUOUS
 62
    99
  5
13F
 10
127.808474
 20
66.771319
 30
0.0
 42
0.074836
  0
VERTEX
  8
5
  6
CONTINUOUS
 62
    99
  5
140
 10
127.813358
 20
66.807743
 30
0.0
 42
0.107002
  0
VERTEX
  8
5
  6
CONTINUOUS
 62
    99
  5
141
 10
127.805426
 20
66.841343
 30
0.0
 42
0.151085
  0
VERTEX
  8
5
  6
CONTINUOUS
 62
    99
  5
142
 10
127.788601
 20
66.859608
 30
0.0
 42
0.151085
  0
VERTEX
  8
5
  6
CONTINUOUS
 62
    99
  5
143
 10
127.764523
 20
66.865119
 30
0.0
 42
0.107002
  0
VERTEX
  8
5
  6
CONTINUOUS
 62
    99
  5
144
 10
127.731447
 20
66.85536
 30
0.0
 42
0.074836
  0
VERTEX
  8
5
  6
CONTINUOUS
 62
    99
  5
145
 10
127.702058
 20
66.833159
 30
0.0
 42
0.061532
  0
VERTEX
  8
5
  6
CONTINUOUS
 62
    99
  5
146
 10
127.675051
 20
66.797582
 30
0.0
 42
0.061532
  0
VERTEX
  8
5
  6
CONTINUOUS
 62
    99
  5
147
 10
127.65761
 20
66.756598
 30
0.0
 42
0.074836
  0
VERTEX
  8
5
  6
CONTINUOUS
 62
    99
  5
148
 10
127.652783
 20
66.720132
 30
0.0
 42
0.107002
  0
VERTEX
  8
5
  6
CONTINUOUS
 62
    99
  5
149
 10
127.660668
 20
66.6865
 30
0.0
 42
0.151085
  0
VERTEX
  8
5
  6
CONTINUOUS
 62
    99
  5
14A
 10
127.677418
 20
66.668333
 30
0.0
  0
SEQEND
  8
5
  6
CONTINUOUS
 62
    99
  5
14B
  0
POLYLINE
  8
5
  6
CONTINUOUS
 62
    99
  5
14C
 66
     1
 10
0.0
 20
0.0
 30
0.0
  0
VERTEX
  8
5
  6
CONTINUOUS
 62
    99
  5
14D
 10
127.820549
 20
66.66009
 30
0.0
 42
0.185462
  0
VERTEX
  8
5
  6
CONTINUOUS
 62
    99
  5
14E
 10
127.805902
 20
66.64889
 30
0.0
 42
0.101972
  0
VERTEX
  8
5
  6
CONTINUOUS
 62
    99
  5
14F
 10
127.794845
 20
66.618042
 30
0.0
 42
0.060745
  0
VERTEX
  8
5
  6
CONTINUOUS
 62
    99
  5
150
 10
127.793968
 20
66.582474
 30
0.0
 42
0.047064
  0
VERTEX
  8
5
  6
CONTINUOUS
 62
    99
  5
151
 10
127.802802
 20
66.537389
 30
0.0
 42
0.047064
  0
VERTEX
  8
5
  6
CONTINUOUS
 62
    99
  5
152
 10
127.819964
 20
66.494867
 30
0.0
 42
0.060745
  0
VERTEX
  8
5
  6
CONTINUOUS
 62
    99
  5
153
 10
127.840006
 20
66.465384
 30
0.0
 42
0.101972
  0
VERTEX
  8
5
  6
CONTINUOUS
 62
    99
  5
154
 10
127.866073
 20
66.445595
 30
0.0
 42
0.185462
  0
VERTEX
  8
5
  6
CONTINUOUS
 62
    99
  5
155
 10
127.884451
 20
66.44416
 30
0.0
 42
0.185462
  0
VERTEX
  8
5
  6
CONTINUOUS
 62
    99
  5
156
 10
127.899098
 20
66.45536
 30
0.0
 42
0.101972
  0
VERTEX
  8
5
  6
CONTINUOUS
 62
    99
  5
157
 10
127.910197
 20
66.486133
 30
0.0
 42
0.060745
  0
VERTEX
  8
5
  6
CONTINUOUS
 62
    99
  5
158
 10
127.910948
 20
66.521776
 30
0.0
 42
0.047064
  0
VERTEX
  8
5
  6
CONTINUOUS
 62
    99
  5
159
 10
127.902073
 20
66.566836
 30
0.0
 42
0.047064
  0
VERTEX
  8
5
  6
CONTINUOUS
 62
    99
  5
15A
 10
127.885036
 20
66.609383
 30
0.0
 42
0.060745
  0
VERTEX
  8
5
  6
CONTINUOUS
 62
    99
  5
15B
 10
127.864994
 20
66.638866
 30
0.0
 42
0.101972
  0
VERTEX
  8
5
  6
CONTINUOUS
 62
    99
  5
15C
 10
127.838927
 20
66.658655
 30
0.0
 42
0.185462
  0
VERTEX
  8
5
  6
CONTINUOUS
 62
    99
  5
15D
 10
127.820594
 20
66.660071
 30
0.0
  0
SEQEND
  8
5
  6
CONTINUOUS
 62
    99
  5
15E
  0
POLYLINE
  8
5
  6
CONTINUOUS
 62
    99
  5
15F
 66
     1
 10
0.0
 20
0.0
 30
0.0
  0
VERTEX
  8
5
  6
CONTINUOUS
 62
    99
  5
160
 10
127.781498
 20
66.643588
 30
0.0
 42
0.163518
  0
VERTEX
  8
5
  6
CONTINUOUS
 62
    99
  5
161
 10
127.757619
 20
66.647251
 30
0.0
 42
0.105921
  0
VERTEX
  8
5
  6
CONTINUOUS
 62
    99
  5
162
 10
127.723498
 20
66.633475
 30
0.0
 42
0.06952
  0
VERTEX
  8
5
  6
CONTINUOUS
 62
    99
  5
163
 10
127.69413
 20
66.607013
 30
0.0
 42
0.055737
  0
VERTEX
  8
5
  6
CONTINUOUS
 62
    99
  5
164
 10
127.666937
 20
66.566041
 30
0.0
 42
0.055737
  0
VERTEX
  8
5
  6
CONTINUOUS
 62
    99
  5
165
 10
127.649404
 20
66.520104
 30
0.0
 42
0.06952
  0
VERTEX
  8
5
  6
CONTINUOUS
 62
    99
  5
166
 10
127.644943
 20
66.48076
 30
0.0
 42
0.105921
  0
VERTEX
  8
5
  6
CONTINUOUS
 62
    99
  5
167
 10
127.653541
 20
66.445035
 30
0.0
 42
0.163518
  0
VERTEX
  8
5
  6
CONTINUOUS
 62
    99
  5
168
 10
127.670336
 20
66.427662
 30
0.0
 42
0.163518
  0
VERTEX
  8
5
  6
CONTINUOUS
 62
    99
  5
169
 10
127.694242
 20
66.424041
 30
0.0
 42
0.105921
  0
VERTEX
  8
5
  6
CONTINUOUS
 62
    99
  5
16A
 10
127.728329
 20
66.437851
 30
0.0
 42
0.06952
  0
VERTEX
  8
5
  6
CONTINUOUS
 62
    99
  5
16B
 10
127.757786
 20
66.464237
 30
0.0
 42
0.055737
  0
VERTEX
  8
5
  6
CONTINUOUS
 62
    99
  5
16C
 10
127.785018
 20
66.50525
 30
0.0
 42
0.055737
  0
VERTEX
  8
5
  6
CONTINUOUS
 62
    99
  5
16D
 10
127.802464
 20
66.551271
 30
0.0
 42
0.06952
  0
VERTEX
  8
5
  6
CONTINUOUS
 62
    99
  5
16E
 10
127.806974
 20
66.59049
 30
0.0
 42
0.105921
  0
VERTEX
  8
5
  6
CONTINUOUS
 62
    99
  5
16F
 10
127.798417
 20
66.626255
 30
0.0
 42
0.163518
  0
VERTEX
  8
5
  6
CONTINUOUS
 62
    99
  5
170
 10
127.7815
 20
66.643589
 30
0.0
  0
SEQEND
  8
5
  6
CONTINUOUS
 62
    99
  5
171
  0
POLYLINE
  8
5
  6
CONTINUOUS
 62
    99
  5
172
 66
     1
 10
0.0
 20
0.0
 30
0.0
  0
VERTEX
  8
5
  6
CONTINUOUS
 62
    99
  5
173
 10
127.606488
 20
66.743328
 30
0.0
 42
0.108177
  0
VERTEX
  8
5
  6
CONTINUOUS
 62
    99
  5
174
 10
127.593185
 20
66.736276
 30
0.0
 42
0.10199
  0
VERTEX
  8
5
  6
CONTINUOUS
 62
    99
  5
175
 10
127.58338
 20
66.723666
 30
0.0
 42
0.094307
  0
VERTEX
  8
5
  6
CONTINUOUS
 62
    99
  5
176
 10
127.579131
 20
66.708007
 30
0.0
 42
0.089511
  0
VERTEX
  8
5
  6
CONTINUOUS
 62
    99
  5
177
 10
127.580851
 20
66.691054
 30
0.0
 42
0.089511
  0
VERTEX
  8
5
  6
CONTINUOUS
 62
    99
  5
178
 10
127.588349
 20
66.675743
 30
0.0
 42
0.094307
  0
VERTEX
  8
5
  6
CONTINUOUS
 62
    99
  5
179
 10
127.600165
 20
66.664775
 30
0.0
 42
0.10199
  0
VERTEX
  8
5
  6
CONTINUOUS
 62
    99
  5
17A
 10
127.615052
 20
66.659175
 30
0.0
 42
0.108177
  0
VERTEX
  8
5
  6
CONTINUOUS
 62
    99
  5
17B
 10
127.630137
 20
66.660112
 30
0.0
 42
0.108177
  0
VERTEX
  8
5
  6
CONTINUOUS
 62
    99
  5
17C
 10
127.643434
 20
66.667183
 30
0.0
 42
0.10199
  0
VERTEX
  8
5
  6
CONTINUOUS
 62
    99
  5
17D
 10
127.653193
 20
66.679823
 30
0.0
 42
0.094307
  0
VERTEX
  8
5
  6
CONTINUOUS
 62
    99
  5
17E
 10
127.657516
 20
66.695451
 30
0.0
 42
0.089511
  0
VERTEX
  8
5
  6
CONTINUOUS
 62
    99
  5
17F
 10
127.655835
 20
66.712404
 30
0.0
 42
0.089511
  0
VERTEX
  8
5
  6
CONTINUOUS
 62
    99
  5
180
 10
127.648359
 20
66.727642
 30
0.0
 42
0.094307
  0
VERTEX
  8
5
  6
CONTINUOUS
 62
    99
  5
181
 10
127.636419
 20
66.738642
 30
0.0
 42
0.10199
  0
VERTEX
  8
5
  6
CONTINUOUS
 62
    99
  5
182
 10
127.62149
 20
66.744218
 30
0.0
 42
0.108177
  0
VERTEX
  8
5
  6
CONTINUOUS
 62
    99
  5
183
 10
127.60649
 20
66.743301
 30
0.0
  0
SEQEND
  8
5
  6
CONTINUOUS
 62
    99
  5
184
  0
POLYLINE
  8
5
  6
CONTINUOUS
 62
    99
  5
185
 66
     1
 10
0.0
 20
0.0
 30
0.0
  0
VERTEX
  8
5
  6
CONTINUOUS
 62
    99
  5
186
 10
127.550907
 20
66.685751
 30
0.0
 42
0.12605
  0
VERTEX
  8
5
  6
CONTINUOUS
 62
    99
  5
187
 10
127.534529
 20
66.692003
 30
0.0
 42
0.105964
  0
VERTEX
  8
5
  6
CONTINUOUS
 62
    99
  5
188
 10
127.513808
 20
66.690099
 30
0.0
 42
0.086139
  0
VERTEX
  8
5
  6
CONTINUOUS
 62
    99
  5
189
 10
127.494735
 20
66.680128
 30
0.0
 42
0.075959
  0
VERTEX
  8
5
  6
CONTINUOUS
 62
    99
  5
18A
 10
127.477722
 20
66.662662
 30
0.0
 42
0.075959
  0
VERTEX
  8
5
  6
CONTINUOUS
 62
    99
  5
18B
 10
127.466752
 20
66.640799
 30
0.0
 42
0.086139
  0
VERTEX
  8
5
  6
CONTINUOUS
 62
    99
  5
18C
 10
127.463664
 20
66.61953
 30
0.0
 42
0.105964
  0
VERTEX
  8
5
  6
CONTINUOUS
 62
    99
  5
18D
 10
127.468559
 20
66.599296
 30
0.0
 42
0.12605
  0
VERTEX
  8
5
  6
CONTINUOUS
 62
    99
  5
18E
 10
127.479888
 20
66.586037
 30
0.0
 42
0.12605
  0
VERTEX
  8
5
  6
CONTINUOUS
 62
    99
  5
18F
 10
127.496221
 20
66.579664
 30
0.0
 42
0.105964
  0
VERTEX
  8
5
  6
CONTINUOUS
 62
    99
  5
190
 10
127.516901
 20
66.581577
 30
0.0
 42
0.086139
  0
VERTEX
  8
5
  6
CONTINUOUS
 62
    99
  5
191
 10
127.536098
 20
66.591538
 30
0.0
 42
0.075959
  0
VERTEX
  8
5
  6
CONTINUOUS
 62
    99
  5
192
 10
127.553111
 20
66.609005
 30
0.0
 42
0.075959
  0
VERTEX
  8
5
  6
CONTINUOUS
 62
    99
  5
193
 10
127.564081
 20
66.630868
 30
0.0
 42
0.086139
  0
VERTEX
  8
5
  6
CONTINUOUS
 62
    99
  5
194
 10
127.567128
 20
66.652164
 30
0.0
 42
0.105964
  0
VERTEX
  8
5
  6
CONTINUOUS
 62
    99
  5
195
 10
127.562145
 20
66.672333
 30
0.0
 42
0.12605
  0
VERTEX
  8
5
  6
CONTINUOUS
 62
    99
  5
196
 10
127.550895
 20
66.68575
 30
0.0
  0
SEQEND
  8
5
  6
CONTINUOUS
 62
    99
  5
197
  0
POLYLINE
  8
5
  6
CONTINUOUS
 62
    99
  5
198
 66
     1
 10
0.0
 20
0.0
 30
0.0
  0
VERTEX
  8
5
  6
CONTINUOUS
 62
    99
  5
199
 10
127.567447
 20
66.56033
 30
0.0
 42
0.155681
  0
VERTEX
  8
5
  6
CONTINUOUS
 62
    99
  5
19A
 10
127.581159
 20
66.549583
 30
0.0
 42
0.106712
  0
VERTEX
  8
5
  6
CONTINUOUS
 62
    99
  5
19B
 10
127.606053
 20
66.54597
 30
0.0
 42
0.072843
  0
VERTEX
  8
5
  6
CONTINUOUS
 62
    99
  5
19C
 10
127.632297
 20
66.551641
 30
0.0
 42
0.059302
  0
VERTEX
  8
5
  6
CONTINUOUS
 62
    99
  5
19D
 10
127.661461
 20
66.56687
 30
0.0
 42
0.059302
  0
VERTEX
  8
5
  6
CONTINUOUS
 62
    99
  5
19E
 10
127.686458
 20
66.588418
 30
0.0
 42
0.072843
  0
VERTEX
  8
5
  6
CONTINUOUS
 62
    99
  5
19F
 10
127.701384
 20
66.610698
 30
0.0
 42
0.106712
  0
VERTEX
  8
5
  6
CONTINUOUS
 62
    99
  5
1A0
 10
127.707246
 20
66.635043
 30
0.0
 42
0.155681
  0
VERTEX
  8
5
  6
CONTINUOUS
 62
    99
  5
1A1
 10
127.702225
 20
66.651831
 30
0.0
 42
0.155681
  0
VERTEX
  8
5
  6
CONTINUOUS
 62
    99
  5
1A2
 10
127.688591
 20
66.662667
 30
0.0
 42
0.106712
  0
VERTEX
  8
5
  6
CONTINUOUS
 62
    99
  5
1A3
 10
127.663697
 20
66.66628
 30
0.0
 42
0.072843
  0
VERTEX
  8
5
  6
CONTINUOUS
 62
    99
  5
1A4
 10
127.637412
 20
66.660543
 30
0.0
 42
0.059302
  0
VERTEX
  8
5
  6
CONTINUOUS
 62
    99
  5
1A5
 10
127.608164
 20
66.645447
 30
0.0
 42
0.059302
  0
VERTEX
  8
5
  6
CONTINUOUS
 62
    99
  5
1A6
 10
127.583292
 20
66.623832
 30
0.0
 42
0.072843
  0
VERTEX
  8
5
  6
CONTINUOUS
 62
    99
  5
1A7
 10
127.568339
 20
66.601594
 30
0.0
 42
0.106712
  0
VERTEX
  8
5
  6
CONTINUOUS
 62
    99
  5
1A8
 10
127.562462
 20
66.577088
 30
0.0
 42
0.155681
  0
VERTEX
  8
5
  6
CONTINUOUS
 62
    99
  5
1A9
 10
127.567379
 20
66.560338
 30
0.0
  0
SEQEND
  8
5
  6
CONTINUOUS
 62
    99
  5
1AA
  0
POLYLINE
  8
5
  6
CONTINUOUS
 62
    99
  5
1AB
 66
     1
 10
0.0
 20
0.0
 30
0.0
  0
VERTEX
  8
5
  6
CONTINUOUS
 62
    99
  5
1AC
 10
127.860735
 20
66.942805
 30
0.0
 42
0.111023
  0
VERTEX
  8
5
  6
CONTINUOUS
 62
    99
  5
1AD
 10
127.876473
 20
66.937034
 30
0.0
 42
0.102829
  0
VERTEX
  8
5
  6
CONTINUOUS
 62
    99
  5
1AE
 10
127.894506
 20
66.938127
 30
0.0
 42
0.09303
  0
VERTEX
  8
5
  6
CONTINUOUS
 62
    99
  5
1AF
 10
127.911029
 20
66.946373
 30
0.0
 42
0.087116
  0
VERTEX
  8
5
  6
CONTINUOUS
 62
    99
  5
1B0
 10
127.92443
 20
66.960666
 30
0.0
 42
0.087116
  0
VERTEX
  8
5
  6
CONTINUOUS
 62
    99
  5
1B1
 10
127.932105
 20
66.978683
 30
0.0
 42
0.09303
  0
VERTEX
  8
5
  6
CONTINUOUS
 62
    99
  5
1B2
 10
127.932977
 20
66.997084
 30
0.0
 42
0.102829
  0
VERTEX
  8
5
  6
CONTINUOUS
 62
    99
  5
1B3
 10
127.926855
 20
67.014114
 30
0.0
 42
0.111023
  0
VERTEX
  8
5
  6
CONTINUOUS
 62
    99
  5
1B4
 10
127.915159
 20
67.026051
 30
0.0
 42
0.111023
  0
VERTEX
  8
5
  6
CONTINUOUS
 62
    99
  5
1B5
 10
127.899493
 20
67.032008
 30
0.0
 42
0.102829
  0
VERTEX
  8
5
  6
CONTINUOUS
 62
    99
  5
1B6
 10
127.881494
 20
67.03079
 30
0.0
 42
0.09303
  0
VERTEX
  8
5
  6
CONTINUOUS
 62
    99
  5
1B7
 10
127.864971
 20
67.022543
 30
0.0
 42
0.087116
  0
VERTEX
  8
5
  6
CONTINUOUS
 62
    99
  5
1B8
 10
127.851612
 20
67.008238
 30
0.0
 42
0.087116
  0
VERTEX
  8
5
  6
CONTINUOUS
 62
    99
  5
1B9
 10
127.843854
 20
66.990262
 30
0.0
 42
0.09303
  0
VERTEX
  8
5
  6
CONTINUOUS
 62
    99
  5
1BA
 10
127.842981
 20
66.971866
 30
0.0
 42
0.102829
  0
VERTEX
  8
5
  6
CONTINUOUS
 62
    99
  5
1BB
 10
127.849062
 20
66.954803
 30
0.0
 42
0.111023
  0
VERTEX
  8
5
  6
CONTINUOUS
 62
    99
  5
1BC
 10
127.860728
 20
66.942803
 30
0.0
  0
SEQEND
  8
5
  6
CONTINUOUS
 62
    99
  5
1BD
  0
POLYLINE
  8
5
  6
CONTINUOUS
 62
    99
  5
1BE
 66
     1
 10
0.0
 20
0.0
 30
0.0
  0
VERTEX
  8
5
  6
CONTINUOUS
 62
    99
  5
1BF
 10
127.550922
 20
67.150501
 30
0.0
 42
0.115568
  0
VERTEX
  8
5
  6
CONTINUOUS
 62
    99
  5
1C0
 10
127.544057
 20
67.133205
 30
0.0
 42
0.104002
  0
VERTEX
  8
5
  6
CONTINUOUS
 62
    99
  5
1C1
 10
127.54538
 20
67.112561
 30
0.0
 42
0.090963
  0
VERTEX
  8
5
  6
CONTINUOUS
 62
    99
  5
1C2
 10
127.554759
 20
67.093605
 30
0.0
 42
0.083492
  0
VERTEX
  8
5
  6
CONTINUOUS
 62
    99
  5
1C3
 10
127.571217
 20
67.077598
 30
0.0
 42
0.083492
  0
VERTEX
  8
5
  6
CONTINUOUS
 62
    99
  5
1C4
 10
127.59217
 20
67.067845
 30
0.0
 42
0.090963
  0
VERTEX
  8
5
  6
CONTINUOUS
 62
    99
  5
1C5
 10
127.613173
 20
67.065997
 30
0.0
 42
0.104002
  0
VERTEX
  8
5
  6
CONTINUOUS
 62
    99
  5
1C6
 10
127.632899
 20
67.072111
 30
0.0
 42
0.115568
  0
VERTEX
  8
5
  6
CONTINUOUS
 62
    99
  5
1C7
 10
127.646662
 20
67.084665
 30
0.0
 42
0.115568
  0
VERTEX
  8
5
  6
CONTINUOUS
 62
    99
  5
1C8
 10
127.653485
 20
67.101994
 30
0.0
 42
0.104002
  0
VERTEX
  8
5
  6
CONTINUOUS
 62
    99
  5
1C9
 10
127.652079
 20
67.122545
 30
0.0
 42
0.090963
  0
VERTEX
  8
5
  6
CONTINUOUS
 62
    99
  5
1CA
 10
127.642823
 20
67.141603
 30
0.0
 42
0.083492
  0
VERTEX
  8
5
  6
CONTINUOUS
 62
    99
  5
1CB
 10
127.626368
 20
67.157694
 30
0.0
 42
0.083492
  0
VERTEX
  8
5
  6
CONTINUOUS
 62
    99
  5
1CC
 10
127.605414
 20
67.167322
 30
0.0
 42
0.090963
  0
VERTEX
  8
5
  6
CONTINUOUS
 62
    99
  5
1CD
 10
127.58441
 20
67.16917
 30
0.0
 42
0.104002
  0
VERTEX
  8
5
  6
CONTINUOUS
 62
    99
  5
1CE
 10
127.564685
 20
67.163055
 30
0.0
 42
0.115568
  0
VERTEX
  8
5
  6
CONTINUOUS
 62
    99
  5
1CF
 10
127.550935
 20
67.150472
 30
0.0
  0
SEQEND
  8
5
  6
CONTINUOUS
 62
    99
  5
1D0
  0
POLYLINE
  8
5
  6
CONTINUOUS
 62
    99
  5
1D1
 66
     1
 10
0.0
 20
0.0
 30
0.0
  0
VERTEX
  8
5
  6
CONTINUOUS
 62
    99
  5
1D2
 10
127.788557
 20
66.460584
 30
0.0
 42
0.144336
  0
VERTEX
  8
5
  6
CONTINUOUS
 62
    99
  5
1D3
 10
127.76392
 20
66.44644
 30
0.0
 42
0.107177
  0
VERTEX
  8
5
  6
CONTINUOUS
 62
    99
  5
1D4
 10
127.74406
 20
66.414026
 30
0.0
 42
0.077817
  0
VERTEX
  8
5
  6
CONTINUOUS
 62
    99
  5
1D5
 10
127.736804
 20
66.374453
 30
0.0
 42
0.065015
  0
VERTEX
  8
5
  6
CONTINUOUS
 62
    99
  5
1D6
 10
127.741889
 20
66.326546
 30
0.0
 42
0.065015
  0
VERTEX
  8
5
  6
CONTINUOUS
 62
    99
  5
1D7
 10
127.758984
 20
66.281632
 30
0.0
 42
0.077817
  0
VERTEX
  8
5
  6
CONTINUOUS
 62
    99
  5
1D8
 10
127.783342
 20
66.24967
 30
0.0
 42
0.107177
  0
VERTEX
  8
5
  6
CONTINUOUS
 62
    99
  5
1D9
 10
127.815789
 20
66.229664
 30
0.0
 42
0.144336
  0
VERTEX
  8
5
  6
CONTINUOUS
 62
    99
  5
1DA
 10
127.844251
 20
66.228207
 30
0.0
 42
0.144336
  0
VERTEX
  8
5
  6
CONTINUOUS
 62
    99
  5
1DB
 10
127.868913
 20
66.242393
 30
0.0
 42
0.107177
  0
VERTEX
  8
5
  6
CONTINUOUS
 62
    99
  5
1DC
 10
127.888773
 20
66.274808
 30
0.0
 42
0.077817
  0
VERTEX
  8
5
  6
CONTINUOUS
 62
    99
  5
1DD
 10
127.896029
 20
66.314381
 30
0.0
 42
0.065015
  0
VERTEX
  8
5
  6
CONTINUOUS
 62
    99
  5
1DE
 10
127.890945
 20
66.362287
 30
0.0
 42
0.065015
  0
VERTEX
  8
5
  6
CONTINUOUS
 62
    99
  5
1DF
 10
127.873849
 20
66.407201
 30
0.0
 42
0.077817
  0
VERTEX
  8
5
  6
CONTINUOUS
 62
    99
  5
1E0
 10
127.849491
 20
66.439163
 30
0.0
 42
0.107177
  0
VERTEX
  8
5
  6
CONTINUOUS
 62
    99
  5
1E1
 10
127.817069
 20
66.459127
 30
0.0
 42
0.144336
  0
VERTEX
  8
5
  6
CONTINUOUS
 62
    99
  5
1E2
 10
127.788569
 20
66.460544
 30
0.0
  0
SEQEND
  8
5
  6
CONTINUOUS
 62
    99
  5
1E3
  0
POLYLINE
  8
5
  6
CONTINUOUS
 62
    99
  5
1E4
 66
     1
 10
0.0
 20
0.0
 30
0.0
  0
VERTEX
  8
5
  6
CONTINUOUS
 62
    99
  5
1E5
 10
127.527226
 20
66.569531
 30
0.0
 42
0.182618
  0
VERTEX
  8
5
  6
CONTINUOUS
 62
    99
  5
1E6
 10
127.509493
 20
66.564891
 30
0.0
 42
0.102613
  0
VERTEX
  8
5
  6
CONTINUOUS
 62
    99
  5
1E7
 10
127.487763
 20
66.54164
 30
0.0
 42
0.061838
  0
VERTEX
  8
5
  6
CONTINUOUS
 62
    99
  5
1E8
 10
127.473533
 20
66.51019
 30
0.0
 42
0.048095
  0
VERTEX
  8
5
  6
CONTINUOUS
 62
    99
  5
1E9
 10
127.464389
 20
66.466676
 30
0.0
 42
0.048095
  0
VERTEX
  8
5
  6
CONTINUOUS
 62
    99
  5
1EA
 10
127.463949
 20
66.42214
 30
0.0
 42
0.061838
  0
VERTEX
  8
5
  6
CONTINUOUS
 62
    99
  5
1EB
 10
127.471032
 20
66.388368
 30
0.0
 42
0.102613
  0
VERTEX
  8
5
  6
CONTINUOUS
 62
    99
  5
1EC
 10
127.487249
 20
66.360927
 30
0.0
 42
0.182618
  0
VERTEX
  8
5
  6
CONTINUOUS
 62
    99
  5
1ED
 10
127.503607
 20
66.352636
 30
0.0
 42
0.182618
  0
VERTEX
  8
5
  6
CONTINUOUS
 62
    99
  5
1EE
 10
127.52134
 20
66.357276
 30
0.0
 42
0.102613
  0
VERTEX
  8
5
  6
CONTINUOUS
 62
    99
  5
1EF
 10
127.54307
 20
66.380527
 30
0.0
 42
0.061838
  0
VERTEX
  8
5
  6
CONTINUOUS
 62
    99
  5
1F0
 10
127.557342
 20
66.411992
 30
0.0
 42
0.048095
  0
VERTEX
  8
5
  6
CONTINUOUS
 62
    99
  5
1F1
 10
127.566304
 20
66.455516
 30
0.0
 42
0.048095
  0
VERTEX
  8
5
  6
CONTINUOUS
 62
    99
  5
1F2
 10
127.566886
 20
66.499902
 30
0.0
 42
0.061838
  0
VERTEX
  8
5
  6
CONTINUOUS
 62
    99
  5
1F3
 10
127.559801
 20
66.533799
 30
0.0
 42
0.102613
  0
VERTEX
  8
5
  6
CONTINUOUS
 62
    99
  5
1F4
 10
127.543584
 20
66.561239
 30
0.0
 42
0.182618
  0
VERTEX
  8
5
  6
CONTINUOUS
 62
    99
  5
1F5
 10
127.527251
 20
66.569489
 30
0.0
  0
SEQEND
  8
5
  6
CONTINUOUS
 62
    99
  5
1F6
  0
POLYLINE
  8
5
  6
CONTINUOUS
 62
    99
  5
1F7
 66
     1
 10
0.0
 20
0.0
 30
0.0
  0
VERTEX
  8
5
  6
CONTINUOUS
 62
    99
  5
1F8
 10
127.614734
 20
66.43591
 30
0.0
 42
0.197447
  0
VERTEX
  8
5
  6
CONTINUOUS
 62
    99
  5
1F9
 10
127.622122
 20
66.438891
 30
0.0
 42
0.098904
  0
VERTEX
  8
5
  6
CONTINUOUS
 62
    99
  5
1FA
 10
127.630791
 20
66.451718
 30
0.0
 42
0.056283
  0
VERTEX
  8
5
  6
CONTINUOUS
 62
    99
  5
1FB
 10
127.635483
 20
66.467939
 30
0.0
 42
0.042979
  0
VERTEX
  8
5
  6
CONTINUOUS
 62
    99
  5
1FC
 10
127.637316
 20
66.489894
 30
0.0
 42
0.042979
  0
VERTEX
  8
5
  6
CONTINUOUS
 62
    99
  5
1FD
 10
127.635541
 20
66.511949
 30
0.0
 42
0.056283
  0
VERTEX
  8
5
  6
CONTINUOUS
 62
    99
  5
1FE
 10
127.630746
 20
66.528067
 30
0.0
 42
0.098904
  0
VERTEX
  8
5
  6
CONTINUOUS
 62
    99
  5
1FF
 10
127.622085
 20
66.540798
 30
0.0
 42
0.197447
  0
VERTEX
  8
5
  6
CONTINUOUS
 62
    99
  5
200
 10
127.614748
 20
66.543882
 30
0.0
 42
0.197447
  0
VERTEX
  8
5
  6
CONTINUOUS
 62
    99
  5
201
 10
127.60742
 20
66.540817
 30
0.0
 42
0.098904
  0
VERTEX
  8
5
  6
CONTINUOUS
 62
    99
  5
202
 10
127.598709
 20
66.528115
 30
0.0
 42
0.056283
  0
VERTEX
  8
5
  6
CONTINUOUS
 62
    99
  5
203
 10
127.594017
 20
66.511894
 30
0.0
 42
0.042979
  0
VERTEX
  8
5
  6
CONTINUOUS
 62
    99
  5
204
 10
127.592184
 20
66.489939
 30
0.0
 42
0.042979
  0
VERTEX
  8
5
  6
CONTINUOUS
 62
    99
  5
205
 10
127.593959
 20
66.467885
 30
0.0
 42
0.056283
  0
VERTEX
  8
5
  6
CONTINUOUS
 62
    99
  5
206
 10
127.598712
 20
66.451724
 30
0.0
 42
0.098904
  0
VERTEX
  8
5
  6
CONTINUOUS
 62
    99
  5
207
 10
127.607433
 20
66.43891
 30
0.0
 42
0.197447
  0
VERTEX
  8
5
  6
CONTINUOUS
 62
    99
  5
208
 10
127.614766
 20
66.43591
 30
0.0
  0
SEQEND
  8
5
  6
CONTINUOUS
 62
    99
  5
209
  0
POLYLINE
  8
5
  6
CONTINUOUS
 62
    99
  5
20A
 66
     1
 10
0.0
 20
0.0
 30
0.0
  0
VERTEX
  8
5
  6
CONTINUOUS
 62
    99
  5
20B
 10
127.915191
 20
66.386493
 30
0.0
 42
0.178745
  0
VERTEX
  8
5
  6
CONTINUOUS
 62
    99
  5
20C
 10
127.922281
 20
66.388331
 30
0.0
 42
0.103427
  0
VERTEX
  8
5
  6
CONTINUOUS
 62
    99
  5
20D
 10
127.930657
 20
66.397215
 30
0.0
 42
0.063347
  0
VERTEX
  8
5
  6
CONTINUOUS
 62
    99
  5
20E
 10
127.936155
 20
66.409428
 30
0.0
 42
0.049539
  0
VERTEX
  8
5
  6
CONTINUOUS
 62
    99
  5
20F
 10
127.9395
 20
66.42617
 30
0.0
 42
0.049539
  0
VERTEX
  8
5
  6
CONTINUOUS
 62
    99
  5
210
 10
127.9565
 20
66.42617
 30
0.0
  0
VERTEX
  8
5
  6
CONTINUOUS
 62
    99
  5
211
 10
127.939516
 20
66.443125
 30
0.0
 42
0.063347
  0
VERTEX
  8
5
  6
CONTINUOUS
 62
    99
  5
212
 10
127.936493
 20
66.456168
 30
0.0
 42
0.103427
  0
VERTEX
  8
5
  6
CONTINUOUS
 62
    99
  5
213
 10
127.929996
 20
66.46658
 30
0.0
 42
0.178745
  0
VERTEX
  8
5
  6
CONTINUOUS
 62
    99
  5
214
 10
127.923434
 20
66.469728
 30
0.0
 42
0.178745
  0
VERTEX
  8
5
  6
CONTINUOUS
 62
    99
  5
215
 10
127.916386
 20
66.467919
 30
0.0
 42
0.103427
  0
VERTEX
  8
5
  6
CONTINUOUS
 62
    99
  5
216
 10
127.90801
 20
66.459035
 30
0.0
 42
0.063347
  0
VERTEX
  8
5
  6
CONTINUOUS
 62
    99
  5
217
 10
127.902514
 20
66.446864
 30
0.0
 42
0.049539
  0
VERTEX
  8
5
  6
CONTINUOUS
 62
    99
  5
218
 10
127.899208
 20
66.430167
 30
0.0
 42
0.049539
  0
VERTEX
  8
5
  6
CONTINUOUS
 62
    99
  5
219
 10
127.916292
 20
66.430167
 30
0.0
  0
VERTEX
  8
5
  6
CONTINUOUS
 62
    99
  5
21A
 10
127.899151
 20
66.413125
 30
0.0
 42
0.063347
  0
VERTEX
  8
5
  6
CONTINUOUS
 62
    99
  5
21B
 10
127.902174
 20
66.400082
 30
0.0
 42
0.103427
  0
VERTEX
  8
5
  6
CONTINUOUS
 62
    99
  5
21C
 10
127.908629
 20
66.389699
 30
0.0
 42
0.178745
  0
VERTEX
  8
5
  6
CONTINUOUS
 62
    99
  5
21D
 10
127.915129
 20
66.386533
 30
0.0
  0
SEQEND
  8
5
  6
CONTINUOUS
 62
    99
  5
21E
  0
POLYLINE
  8
5
  6
CONTINUOUS
 62
    99
  5
21F
 66
     1
 10
0.0
 20
0.0
 30
0.0
  0
VERTEX
  8
5
  6
CONTINUOUS
 62
    99
  5
220
 10
127.931712
 20
66.278523
 30
0.0
 42
0.203849
  0
VERTEX
  8
5
  6
CONTINUOUS
 62
    99
  5
221
 10
127.925884
 20
66.277349
 30
0.0
 42
0.097044
  0
VERTEX
  8
5
  6
CONTINUOUS
 62
    99
  5
222
 10
127.917585
 20
66.26866
 30
0.0
 42
0.053991
  0
VERTEX
  8
5
  6
CONTINUOUS
 62
    99
  5
223
 10
127.911618
 20
66.256909
 30
0.0
 42
0.040949
  0
VERTEX
  8
5
  6
CONTINUOUS
 62
    99
  5
224
 10
127.906863
 20
66.240148
 30
0.0
 42
0.040949
  0
VERTEX
  8
5
  6
CONTINUOUS
 62
    99
  5
225
 10
127.904794
 20
66.222883
 30
0.0
 42
0.053991
  0
VERTEX
  8
5
  6
CONTINUOUS
 62
    99
  5
226
 10
127.905796
 20
66.209729
 30
0.0
 42
0.097044
  0
VERTEX
  8
5
  6
CONTINUOUS
 62
    99
  5
227
 10
127.91029
 20
66.198554
 30
0.0
 42
0.203849
  0
VERTEX
  8
5
  6
CONTINUOUS
 62
    99
  5
228
 10
127.915136
 20
66.195268
 30
0.0
 42
0.203849
  0
VERTEX
  8
5
  6
CONTINUOUS
 62
    99
  5
229
 10
127.920987
 20
66.196526
 30
0.0
 42
0.097044
  0
VERTEX
  8
5
  6
CONTINUOUS
 62
    99
  5
22A
 10
127.929342
 20
66.2051
 30
0.0
 42
0.053991
  0
VERTEX
  8
5
  6
CONTINUOUS
 62
    99
  5
22B
 10
127.935249
 20
66.216958
 30
0.0
 42
0.040949
  0
VERTEX
  8
5
  6
CONTINUOUS
 62
    99
  5
22C
 10
127.940054
 20
66.233602
 30
0.0
 42
0.040949
  0
VERTEX
  8
5
  6
CONTINUOUS
 62
    99
  5
22D
 10
127.942123
 20
66.250867
 30
0.0
 42
0.053991
  0
VERTEX
  8
5
  6
CONTINUOUS
 62
    99
  5
22E
 10
127.941079
 20
66.263984
 30
0.0
 42
0.097044
  0
VERTEX
  8
5
  6
CONTINUOUS
 62
    99
  5
22F
 10
127.936585
 20
66.275181
 30
0.0
 42
0.203849
  0
VERTEX
  8
5
  6
CONTINUOUS
 62
    99
  5
230
 10
127.931751
 20
66.278515
 30
0.0
  0
SEQEND
  8
5
  6
CONTINUOUS
 62
    99
  5
231
  0
POLYLINE
  8
5
  6
CONTINUOUS
 62
    99
  5
232
 66
     1
 10
0.0
 20
0.0
 30
0.0
  0
VERTEX
  8
5
  6
CONTINUOUS
 62
    99
  5
233
 10
127.518895
 20
66.319639
 30
0.0
 42
0.274272
  0
VERTEX
  8
5
  6
CONTINUOUS
 62
    99
  5
234
 10
127.510218
 20
66.314527
 30
0.0
 42
0.069482
  0
VERTEX
  8
5
  6
CONTINUOUS
 62
    99
  5
235
 10
127.497037
 20
66.279532
 30
0.0
 42
0.032284
  0
VERTEX
  8
5
  6
CONTINUOUS
 62
    99
  5
236
 10
127.490516
 20
66.238994
 30
0.0
 42
0.023371
  0
VERTEX
  8
5
  6
CONTINUOUS
 62
    99
  5
237
 10
127.487907
 20
66.182381
 30
0.0
 42
0.023371
  0
VERTEX
  8
5
  6
CONTINUOUS
 62
    99
  5
238
 10
127.490537
 20
66.125885
 30
0.0
 42
0.032284
  0
VERTEX
  8
5
  6
CONTINUOUS
 62
    99
  5
239
 10
127.497003
 20
66.085431
 30
0.0
 42
0.069482
  0
VERTEX
  8
5
  6
CONTINUOUS
 62
    99
  5
23A
 10
127.510228
 20
66.050361
 30
0.0
 42
0.274272
  0
VERTEX
  8
5
  6
CONTINUOUS
 62
    99
  5
23B
 10
127.518897
 20
66.045208
 30
0.0
 42
0.274272
  0
VERTEX
  8
5
  6
CONTINUOUS
 62
    99
  5
23C
 10
127.527664
 20
66.050348
 30
0.0
 42
0.069482
  0
VERTEX
  8
5
  6
CONTINUOUS
 62
    99
  5
23D
 10
127.540921
 20
66.085446
 30
0.0
 42
0.032284
  0
VERTEX
  8
5
  6
CONTINUOUS
 62
    99
  5
23E
 10
127.547301
 20
66.125907
 30
0.0
 42
0.023371
  0
VERTEX
  8
5
  6
CONTINUOUS
 62
    99
  5
23F
 10
127.550026
 20
66.182385
 30
0.0
 42
0.023371
  0
VERTEX
  8
5
  6
CONTINUOUS
 62
    99
  5
240
 10
127.547338
 20
66.238971
 30
0.0
 42
0.032284
  0
VERTEX
  8
5
  6
CONTINUOUS
 62
    99
  5
241
 10
127.540949
 20
66.279527
 30
0.0
 42
0.069482
  0
VERTEX
  8
5
  6
CONTINUOUS
 62
    99
  5
242
 10
127.527647
 20
66.314459
 30
0.0
 42
0.274272
  0
VERTEX
  8
5
  6
CONTINUOUS
 62
    99
  5
243
 10
127.518897
 20
66.319626
 30
0.0
  0
SEQEND
  8
5
  6
CONTINUOUS
 62
    99
  5
244
  0
POLYLINE
  8
5
  6
CONTINUOUS
 62
    99
  5
245
 66
     1
 10
0.0
 20
0.0
 30
0.0
  0
VERTEX
  8
5
  6
CONTINUOUS
 62
    99
  5
246
 10
127.717627
 20
66.394755
 30
0.0
 42
0.157137
  0
VERTEX
  8
5
  6
CONTINUOUS
 62
    99
  5
247
 10
127.702213
 20
66.410907
 30
0.0
 42
0.106593
  0
VERTEX
  8
5
  6
CONTINUOUS
 62
    99
  5
248
 10
127.671178
 20
66.420088
 30
0.0
 42
0.072219
  0
VERTEX
  8
5
  6
CONTINUOUS
 62
    99
  5
249
 10
127.636497
 20
66.417697
 30
0.0
 42
0.058618
  0
VERTEX
  8
5
  6
CONTINUOUS
 62
    99
  5
24A
 10
127.596057
 20
66.403821
 30
0.0
 42
0.058618
  0
VERTEX
  8
5
  6
CONTINUOUS
 62
    99
  5
24B
 10
127.560021
 20
66.380925
 30
0.0
 42
0.072219
  0
VERTEX
  8
5
  6
CONTINUOUS
 62
    99
  5
24C
 10
127.536495
 20
66.355389
 30
0.0
 42
0.106593
  0
VERTEX
  8
5
  6
CONTINUOUS
 62
    99
  5
24D
 10
127.524192
 20
66.325341
 30
0.0
 42
0.157137
  0
VERTEX
  8
5
  6
CONTINUOUS
 62
    99
  5
24E
 10
127.527248
 20
66.303291
 30
0.0
 42
0.157137
  0
VERTEX
  8
5
  6
CONTINUOUS
 62
    99
  5
24F
 10
127.542552
 20
66.287108
 30
0.0
 42
0.106593
  0
VERTEX
  8
5
  6
CONTINUOUS
 62
    99
  5
250
 10
127.573739
 20
66.277829
 30
0.0
 42
0.072219
  0
VERTEX
  8
5
  6
CONTINUOUS
 62
    99
  5
251
 10
127.608441
 20
66.280261
 30
0.0
 42
0.058618
  0
VERTEX
  8
5
  6
CONTINUOUS
 62
    99
  5
252
 10
127.648797
 20
66.294158
 30
0.0
 42
0.058618
  0
VERTEX
  8
5
  6
CONTINUOUS
 62
    99
  5
253
 10
127.684808
 20
66.316996
 30
0.0
 42
0.072219
  0
VERTEX
  8
5
  6
CONTINUOUS
 62
    99
  5
254
 10
127.708437
 20
66.342596
 30
0.0
 42
0.106593
  0
VERTEX
  8
5
  6
CONTINUOUS
 62
    99
  5
255
 10
127.720646
 20
66.372572
 30
0.0
 42
0.157137
  0
VERTEX
  8
5
  6
CONTINUOUS
 62
    99
  5
256
 10
127.717646
 20
66.394738
 30
0.0
  0
SEQEND
  8
5
  6
CONTINUOUS
 62
    99
  5
257
  0
POLYLINE
  8
5
  6
CONTINUOUS
 62
    99
  5
258
 66
     1
 10
0.0
 20
0.0
 30
0.0
  0
VERTEX
  8
5
  6
CONTINUOUS
 62
    99
  5
259
 10
127.598204
 20
65.95461
 30
0.0
 42
0.140106
  0
VERTEX
  8
5
  6
CONTINUOUS
 62
    99
  5
25A
 10
127.576159
 20
65.92982
 30
0.0
 42
0.107124
  0
VERTEX
  8
5
  6
CONTINUOUS
 62
    99
  5
25B
 10
127.566154
 20
65.887982
 30
0.0
 42
0.079715
  0
VERTEX
  8
5
  6
CONTINUOUS
 62
    99
  5
25C
 10
127.572428
 20
65.843068
 30
0.0
 42
0.067337
  0
VERTEX
  8
5
  6
CONTINUOUS
 62
    99
  5
25D
 10
127.59482
 20
65.794394
 30
0.0
 42
0.067337
  0
VERTEX
  8
5
  6
CONTINUOUS
 62
    99
  5
25E
 10
127.629383
 20
65.753499
 30
0.0
 42
0.079715
  0
VERTEX
  8
5
  6
CONTINUOUS
 62
    99
  5
25F
 10
127.667439
 20
65.728874
 30
0.0
 42
0.107124
  0
VERTEX
  8
5
  6
CONTINUOUS
 62
    99
  5
260
 10
127.709473
 20
65.720104
 30
0.0
 42
0.140106
  0
VERTEX
  8
5
  6
CONTINUOUS
 62
    99
  5
261
 10
127.741359
 20
65.729515
 30
0.0
 42
0.140106
  0
VERTEX
  8
5
  6
CONTINUOUS
 62
    99
  5
262
 10
127.763341
 20
65.754347
 30
0.0
 42
0.107124
  0
VERTEX
  8
5
  6
CONTINUOUS
 62
    99
  5
263
 10
127.773337
 20
65.796143
 30
0.0
 42
0.079715
  0
VERTEX
  8
5
  6
CONTINUOUS
 62
    99
  5
264
 10
127.767072
 20
65.841015
 30
0.0
 42
0.067337
  0
VERTEX
  8
5
  6
CONTINUOUS
 62
    99
  5
265
 10
127.74468
 20
65.889689
 30
0.0
 42
0.067337
  0
VERTEX
  8
5
  6
CONTINUOUS
 62
    99
  5
266
 10
127.710044
 20
65.930542
 30
0.0
 42
0.079715
  0
VERTEX
  8
5
  6
CONTINUOUS
 62
    99
  5
267
 10
127.672119
 20
65.955335
 30
0.0
 42
0.107124
  0
VERTEX
  8
5
  6
CONTINUOUS
 62
    99
  5
268
 10
127.630027
 20
65.963979
 30
0.0
 42
0.140106
  0
VERTEX
  8
5
  6
CONTINUOUS
 62
    99
  5
269
 10
127.598194
 20
65.954562
 30
0.0
  0
SEQEND
  8
5
  6
CONTINUOUS
 62
    99
  5
26A
  0
POLYLINE
  8
5
  6
CONTINUOUS
 62
    99
  5
26B
 66
     1
 10
0.0
 20
0.0
 30
0.0
  0
VERTEX
  8
5
  6
CONTINUOUS
 62
    99
  5
26C
 10
127.623029
 20
65.979367
 30
0.0
 42
0.178894
  0
VERTEX
  8
5
  6
CONTINUOUS
 62
    99
  5
26D
 10
127.646977
 20
65.980855
 30
0.0
 42
0.103397
  0
VERTEX
  8
5
  6
CONTINUOUS
 62
    99
  5
26E
 10
127.679963
 20
66.00455
 30
0.0
 42
0.063289
  0
VERTEX
  8
5
  6
CONTINUOUS
 62
    99
  5
26F
 10
127.705502
 20
66.040647
 30
0.0
 42
0.049482
  0
VERTEX
  8
5
  6
CONTINUOUS
 62
    99
  5
270
 10
127.726837
 20
66.09282
 30
0.0
 42
0.049482
  0
VERTEX
  8
5
  6
CONTINUOUS
 62
    99
  5
271
 10
127.737604
 20
66.148193
 30
0.0
 42
0.063289
  0
VERTEX
  8
5
  6
CONTINUOUS
 62
    99
  5
272
 10
127.736105
 20
66.192217
 30
0.0
 42
0.103397
  0
VERTEX
  8
5
  6
CONTINUOUS
 62
    99
  5
273
 10
127.721461
 20
66.230249
 30
0.0
 42
0.178894
  0
VERTEX
  8
5
  6
CONTINUOUS
 62
    99
  5
274
 10
127.702263
 20
66.244687
 30
0.0
 42
0.178894
  0
VERTEX
  8
5
  6
CONTINUOUS
 62
    99
  5
275
 10
127.678365
 20
66.243136
 30
0.0
 42
0.103397
  0
VERTEX
  8
5
  6
CONTINUOUS
 62
    99
  5
276
 10
127.64524
 20
66.21933
 30
0.0
 42
0.063289
  0
VERTEX
  8
5
  6
CONTINUOUS
 62
    99
  5
277
 10
127.619831
 20
66.183353
 30
0.0
 42
0.049482
  0
VERTEX
  8
5
  6
CONTINUOUS
 62
    99
  5
278
 10
127.598497
 20
66.13118
 30
0.0
 42
0.049482
  0
VERTEX
  8
5
  6
CONTINUOUS
 62
    99
  5
279
 10
127.587729
 20
66.075807
 30
0.0
 42
0.063289
  0
VERTEX
  8
5
  6
CONTINUOUS
 62
    99
  5
27A
 10
127.589228
 20
66.031783
 30
0.0
 42
0.103397
  0
VERTEX
  8
5
  6
CONTINUOUS
 62
    99
  5
27B
 10
127.603831
 20
65.993781
 30
0.0
 42
0.178894
  0
VERTEX
  8
5
  6
CONTINUOUS
 62
    99
  5
27C
 10
127.622998
 20
65.979364
 30
0.0
  0
SEQEND
  8
5
  6
CONTINUOUS
 62
    99
  5
27D
  0
POLYLINE
  8
5
  6
CONTINUOUS
 62
    99
  5
27E
 66
     1
 10
0.0
 20
0.0
 30
0.0
  0
VERTEX
  8
5
  6
CONTINUOUS
 62
    99
  5
27F
 10
127.852485
 20
65.954579
 30
0.0
 42
0.189964
  0
VERTEX
  8
5
  6
CONTINUOUS
 62
    99
  5
280
 10
127.869558
 20
65.962736
 30
0.0
 42
0.100887
  0
VERTEX
  8
5
  6
CONTINUOUS
 62
    99
  5
281
 10
127.887872
 20
65.992431
 30
0.0
 42
0.059042
  0
VERTEX
  8
5
  6
CONTINUOUS
 62
    99
  5
282
 10
127.89648
 20
66.029391
 30
0.0
 42
0.045483
  0
VERTEX
  8
5
  6
CONTINUOUS
 62
    99
  5
283
 10
127.897614
 20
66.078552
 30
0.0
 42
0.045483
  0
VERTEX
  8
5
  6
CONTINUOUS
 62
    99
  5
284
 10
127.889816
 20
66.127143
 30
0.0
 42
0.059042
  0
VERTEX
  8
5
  6
CONTINUOUS
 62
    99
  5
285
 10
127.876063
 20
66.162624
 30
0.0
 42
0.100887
  0
VERTEX
  8
5
  6
CONTINUOUS
 62
    99
  5
286
 10
127.854002
 20
66.189481
 30
0.0
 42
0.189964
  0
VERTEX
  8
5
  6
CONTINUOUS
 62
    99
  5
287
 10
127.835932
 20
66.195254
 30
0.0
 42
0.189964
  0
VERTEX
  8
5
  6
CONTINUOUS
 62
    99
  5
288
 10
127.818859
 20
66.187097
 30
0.0
 42
0.100887
  0
VERTEX
  8
5
  6
CONTINUOUS
 62
    99
  5
289
 10
127.800563
 20
66.157444
 30
0.0
 42
0.059042
  0
VERTEX
  8
5
  6
CONTINUOUS
 62
    99
  5
28A
 10
127.791896
 20
66.120484
 30
0.0
 42
0.045483
  0
VERTEX
  8
5
  6
CONTINUOUS
 62
    99
  5
28B
 10
127.790845
 20
66.071241
 30
0.0
 42
0.045483
  0
VERTEX
  8
5
  6
CONTINUOUS
 62
    99
  5
28C
 10
127.798642
 20
66.022708
 30
0.0
 42
0.059042
  0
VERTEX
  8
5
  6
CONTINUOUS
 62
    99
  5
28D
 10
127.812354
 20
65.987209
 30
0.0
 42
0.100887
  0
VERTEX
  8
5
  6
CONTINUOUS
 62
    99
  5
28E
 10
127.834414
 20
65.960352
 30
0.0
 42
0.189964
  0
VERTEX
  8
5
  6
CONTINUOUS
 62
    99
  5
28F
 10
127.852498
 20
65.954602
 30
0.0
  0
SEQEND
  8
5
  6
CONTINUOUS
 62
    99
  5
290
  0
POLYLINE
  8
5
  6
CONTINUOUS
 62
    99
  5
291
 66
     1
 10
0.0
 20
0.0
 30
0.0
  0
VERTEX
  8
5
  6
CONTINUOUS
 62
    99
  5
292
 10
127.567431
 20
66.17056
 30
0.0
 42
0.143447
  0
VERTEX
  8
5
  6
CONTINUOUS
 62
    99
  5
293
 10
127.58038
 20
66.165393
 30
0.0
 42
0.107176
  0
VERTEX
  8
5
  6
CONTINUOUS
 62
    99
  5
294
 10
127.598719
 20
66.167757
 30
0.0
 42
0.078214
  0
VERTEX
  8
5
  6
CONTINUOUS
 62
    99
  5
295
 10
127.615954
 20
66.176971
 30
0.0
 42
0.065494
  0
VERTEX
  8
5
  6
CONTINUOUS
 62
    99
  5
296
 10
127.632524
 20
66.193341
 30
0.0
 42
0.065494
  0
VERTEX
  8
5
  6
CONTINUOUS
 62
    99
  5
297
 10
127.644261
 20
66.213467
 30
0.0
 42
0.078214
  0
VERTEX
  8
5
  6
CONTINUOUS
 62
    99
  5
298
 10
127.64894
 20
66.23238
 30
0.0
 42
0.107176
  0
VERTEX
  8
5
  6
CONTINUOUS
 62
    99
  5
299
 10
127.646595
 20
66.250773
 30
0.0
 42
0.143447
  0
VERTEX
  8
5
  6
CONTINUOUS
 62
    99
  5
29A
 10
127.638427
 20
66.262065
 30
0.0
 42
0.143447
  0
VERTEX
  8
5
  6
CONTINUOUS
 62
    99
  5
29B
 10
127.625453
 20
66.26719
 30
0.0
 42
0.107176
  0
VERTEX
  8
5
  6
CONTINUOUS
 62
    99
  5
29C
 10
127.607115
 20
66.264827
 30
0.0
 42
0.078214
  0
VERTEX
  8
5
  6
CONTINUOUS
 62
    99
  5
29D
 10
127.589879
 20
66.255613
 30
0.0
 42
0.065494
  0
VERTEX
  8
5
  6
CONTINUOUS
 62
    99
  5
29E
 10
127.573293
 20
66.239284
 30
0.0
 42
0.065494
  0
VERTEX
  8
5
  6
CONTINUOUS
 62
    99
  5
29F
 10
127.561557
 20
66.219158
 30
0.0
 42
0.078214
  0
VERTEX
  8
5
  6
CONTINUOUS
 62
    99
  5
2A0
 10
127.556893
 20
66.200203
 30
0.0
 42
0.107176
  0
VERTEX
  8
5
  6
CONTINUOUS
 62
    99
  5
2A1
 10
127.559214
 20
66.181852
 30
0.0
 42
0.143447
  0
VERTEX
  8
5
  6
CONTINUOUS
 62
    99
  5
2A2
 10
127.56738
 20
66.170602
 30
0.0
  0
SEQEND
  8
5
  6
CONTINUOUS
 62
    99
  5
2A3
  0
POLYLINE
  8
5
  6
CONTINUOUS
 62
    99
  5
2A4
 66
     1
 10
0.0
 20
0.0
 30
0.0
  0
VERTEX
  8
5
  6
CONTINUOUS
 62
    99
  5
2A5
 10
127.717706
 20
66.003965
 30
0.0
 42
0.229584
  0
VERTEX
  8
5
  6
CONTINUOUS
 62
    99
  5
2A6
 10
127.71348
 20
65.994689
 30
0.0
 42
0.08827
  0
VERTEX
  8
5
  6
CONTINUOUS
 62
    99
  5
2A7
 10
127.718694
 20
65.969764
 30
0.0
 42
0.04537
  0
VERTEX
  8
5
  6
CONTINUOUS
 62
    99
  5
2A8
 10
127.731505
 20
65.944755
 30
0.0
 42
0.033658
  0
VERTEX
  8
5
  6
CONTINUOUS
 62
    99
  5
2A9
 10
127.753742
 20
65.914238
 30
0.0
 42
0.033658
  0
VERTEX
  8
5
  6
CONTINUOUS
 62
    99
  5
2AA
 10
127.779935
 20
65.887025
 30
0.0
 42
0.04537
  0
VERTEX
  8
5
  6
CONTINUOUS
 62
    99
  5
2AB
 10
127.802304
 20
65.870076
 30
0.0
 42
0.08827
  0
VERTEX
  8
5
  6
CONTINUOUS
 62
    99
  5
2AC
 10
127.826037
 20
65.860604
 30
0.0
 42
0.229584
  0
VERTEX
  8
5
  6
CONTINUOUS
 62
    99
  5
2AD
 10
127.835878
 20
65.863119
 30
0.0
 42
0.229584
  0
VERTEX
  8
5
  6
CONTINUOUS
 62
    99
  5
2AE
 10
127.840087
 20
65.872436
 30
0.0
 42
0.08827
  0
VERTEX
  8
5
  6
CONTINUOUS
 62
    99
  5
2AF
 10
127.834889
 20
65.897403
 30
0.0
 42
0.04537
  0
VERTEX
  8
5
  6
CONTINUOUS
 62
    99
  5
2B0
 10
127.822078
 20
65.922411
 30
0.0
 42
0.033658
  0
VERTEX
  8
5
  6
CONTINUOUS
 62
    99
  5
2B1
 10
127.799841
 20
65.952928
 30
0.0
 42
0.033658
  0
VERTEX
  8
5
  6
CONTINUOUS
 62
    99
  5
2B2
 10
127.773648
 20
65.980142
 30
0.0
 42
0.04537
  0
VERTEX
  8
5
  6
CONTINUOUS
 62
    99
  5
2B3
 10
127.751212
 20
65.997049
 30
0.0
 42
0.08827
  0
VERTEX
  8
5
  6
CONTINUOUS
 62
    99
  5
2B4
 10
127.727546
 20
66.006479
 30
0.0
 42
0.229584
  0
VERTEX
  8
5
  6
CONTINUOUS
 62
    99
  5
2B5
 10
127.71763
 20
66.003979
 30
0.0
  0
SEQEND
  8
5
  6
CONTINUOUS
 62
    99
  5
2B6
  0
POLYLINE
  8
5
  6
CONTINUOUS
 62
    99
  5
2B7
 66
     1
 10
0.0
 20
0.0
 30
0.0
  0
VERTEX
  8
5
  6
CONTINUOUS
 62
    99
  5
2B8
 10
127.559162
 20
65.995755
 30
0.0
 42
0.170693
  0
VERTEX
  8
5
  6
CONTINUOUS
 62
    99
  5
2B9
 10
127.543774
 20
65.997393
 30
0.0
 42
0.104894
  0
VERTEX
  8
5
  6
CONTINUOUS
 62
    99
  5
2BA
 10
127.521393
 20
65.986774
 30
0.0
 42
0.066564
  0
VERTEX
  8
5
  6
CONTINUOUS
 62
    99
  5
2BB
 10
127.502467
 20
65.967796
 30
0.0
 42
0.052706
  0
VERTEX
  8
5
  6
CONTINUOUS
 62
    99
  5
2BC
 10
127.484883
 20
65.939092
 30
0.0
 42
0.052706
  0
VERTEX
  8
5
  6
CONTINUOUS
 62
    99
  5
2BD
 10
127.473851
 20
65.907263
 30
0.0
 42
0.066564
  0
VERTEX
  8
5
  6
CONTINUOUS
 62
    99
  5
2BE
 10
127.471149
 20
65.880649
 30
0.0
 42
0.104894
  0
VERTEX
  8
5
  6
CONTINUOUS
 62
    99
  5
2BF
 10
127.477179
 20
65.856609
 30
0.0
 42
0.170693
  0
VERTEX
  8
5
  6
CONTINUOUS
 62
    99
  5
2C0
 10
127.488172
 20
65.845745
 30
0.0
 42
0.170693
  0
VERTEX
  8
5
  6
CONTINUOUS
 62
    99
  5
2C1
 10
127.503601
 20
65.844078
 30
0.0
 42
0.104894
  0
VERTEX
  8
5
  6
CONTINUOUS
 62
    99
  5
2C2
 10
127.526024
 20
65.854726
 30
0.0
 42
0.066564
  0
VERTEX
  8
5
  6
CONTINUOUS
 62
    99
  5
2C3
 10
127.544908
 20
65.873681
 30
0.0
 42
0.052706
  0
VERTEX
  8
5
  6
CONTINUOUS
 62
    99
  5
2C4
 10
127.56245
 20
65.902408
 30
0.0
 42
0.052706
  0
VERTEX
  8
5
  6
CONTINUOUS
 62
    99
  5
2C5
 10
127.573482
 20
65.934237
 30
0.0
 42
0.066564
  0
VERTEX
  8
5
  6
CONTINUOUS
 62
    99
  5
2C6
 10
127.576184
 20
65.960851
 30
0.0
 42
0.104894
  0
VERTEX
  8
5
  6
CONTINUOUS
 62
    99
  5
2C7
 10
127.570154
 20
65.984891
 30
0.0
 42
0.170693
  0
VERTEX
  8
5
  6
CONTINUOUS
 62
    99
  5
2C8
 10
127.559154
 20
65.995725
 30
0.0
  0
SEQEND
  8
5
  6
CONTINUOUS
 62
    99
  5
2C9
  0
POLYLINE
  8
5
  6
CONTINUOUS
 62
    99
  5
2CA
 66
     1
 10
0.0
 20
0.0
 30
0.0
  0
VERTEX
  8
5
  6
CONTINUOUS
 62
    99
  5
2CB
 10
127.535471
 20
65.812756
 30
0.0
 42
0.186858
  0
VERTEX
  8
5
  6
CONTINUOUS
 62
    99
  5
2CC
 10
127.518141
 20
65.807528
 30
0.0
 42
0.101644
  0
VERTEX
  8
5
  6
CONTINUOUS
 62
    99
  5
2CD
 10
127.49708
 20
65.782593
 30
0.0
 42
0.060214
  0
VERTEX
  8
5
  6
CONTINUOUS
 62
    99
  5
2CE
 10
127.483931
 20
65.749695
 30
0.0
 42
0.046567
  0
VERTEX
  8
5
  6
CONTINUOUS
 62
    99
  5
2CF
 10
127.47621
 20
65.704381
 30
0.0
 42
0.046567
  0
VERTEX
  8
5
  6
CONTINUOUS
 62
    99
  5
2D0
 10
127.477185
 20
65.658674
 30
0.0
 42
0.060214
  0
VERTEX
  8
5
  6
CONTINUOUS
 62
    99
  5
2D1
 10
127.485322
 20
65.624047
 30
0.0
 42
0.101644
  0
VERTEX
  8
5
  6
CONTINUOUS
 62
    99
  5
2D2
 10
127.502511
 20
65.596386
 30
0.0
 42
0.186858
  0
VERTEX
  8
5
  6
CONTINUOUS
 62
    99
  5
2D3
 10
127.518928
 20
65.588595
 30
0.0
 42
0.186858
  0
VERTEX
  8
5
  6
CONTINUOUS
 62
    99
  5
2D4
 10
127.536323
 20
65.59393
 30
0.0
 42
0.101644
  0
VERTEX
  8
5
  6
CONTINUOUS
 62
    99
  5
2D5
 10
127.557431
 20
65.618782
 30
0.0
 42
0.060214
  0
VERTEX
  8
5
  6
CONTINUOUS
 62
    99
  5
2D6
 10
127.570581
 20
65.65171
 30
0.0
 42
0.046567
  0
VERTEX
  8
5
  6
CONTINUOUS
 62
    99
  5
2D7
 10
127.578194
 20
65.696881
 30
0.0
 42
0.046567
  0
VERTEX
  8
5
  6
CONTINUOUS
 62
    99
  5
2D8
 10
127.577345
 20
65.742712
 30
0.0
 42
0.060214
  0
VERTEX
  8
5
  6
CONTINUOUS
 62
    99
  5
2D9
 10
127.569048
 20
65.777245
 30
0.0
 42
0.101644
  0
VERTEX
  8
5
  6
CONTINUOUS
 62
    99
  5
2DA
 10
127.551882
 20
65.804989
 30
0.0
 42
0.186858
  0
VERTEX
  8
5
  6
CONTINUOUS
 62
    99
  5
2DB
 10
127.535465
 20
65.812739
 30
0.0
  0
SEQEND
  8
5
  6
CONTINUOUS
 62
    99
  5
2DC
  0
POLYLINE
  8
5
  6
CONTINUOUS
 62
    99
  5
2DD
 66
     1
 10
0.0
 20
0.0
 30
0.0
  0
VERTEX
  8
5
  6
CONTINUOUS
 62
    99
  5
2DE
 10
127.915174
 20
65.763363
 30
0.0
 42
0.167763
  0
VERTEX
  8
5
  6
CONTINUOUS
 62
    99
  5
2DF
 10
127.896452
 20
65.771244
 30
0.0
 42
0.105347
  0
VERTEX
  8
5
  6
CONTINUOUS
 62
    99
  5
2E0
 10
127.864851
 20
65.766691
 30
0.0
 42
0.067761
  0
VERTEX
  8
5
  6
CONTINUOUS
 62
    99
  5
2E1
 10
127.834492
 20
65.750575
 30
0.0
 42
0.053919
  0
VERTEX
  8
5
  6
CONTINUOUS
 62
    99
  5
2E2
 10
127.802389
 20
65.721723
 30
0.0
 42
0.053919
  0
VERTEX
  8
5
  6
CONTINUOUS
 62
    99
  5
2E3
 10
127.777244
 20
65.686699
 30
0.0
 42
0.067761
  0
VERTEX
  8
5
  6
CONTINUOUS
 62
    99
  5
2E4
 10
127.764461
 20
65.654738
 30
0.0
 42
0.105347
  0
VERTEX
  8
5
  6
CONTINUOUS
 62
    99
  5
2E5
 10
127.763298
 20
65.622888
 30
0.0
 42
0.167763
  0
VERTEX
  8
5
  6
CONTINUOUS
 62
    99
  5
2E6
 10
127.773243
 20
65.605054
 30
0.0
 42
0.167763
  0
VERTEX
  8
5
  6
CONTINUOUS
 62
    99
  5
2E7
 10
127.791964
 20
65.597173
 30
0.0
 42
0.105347
  0
VERTEX
  8
5
  6
CONTINUOUS
 62
    99
  5
2E8
 10
127.823622
 20
65.601768
 30
0.0
 42
0.067761
  0
VERTEX
  8
5
  6
CONTINUOUS
 62
    99
  5
2E9
 10
127.853925
 20
65.617925
 30
0.0
 42
0.053919
  0
VERTEX
  8
5
  6
CONTINUOUS
 62
    99
  5
2EA
 10
127.885975
 20
65.646735
 30
0.0
 42
0.053919
  0
VERTEX
  8
5
  6
CONTINUOUS
 62
    99
  5
2EB
 10
127.911131
 20
65.681745
 30
0.0
 42
0.067761
  0
VERTEX
  8
5
  6
CONTINUOUS
 62
    99
  5
2EC
 10
127.924026
 20
65.713666
 30
0.0
 42
0.105347
  0
VERTEX
  8
5
  6
CONTINUOUS
 62
    99
  5
2ED
 10
127.925082
 20
65.74557
 30
0.0
 42
0.167763
  0
VERTEX
  8
5
  6
CONTINUOUS
 62
    99
  5
2EE
 10
127.915165
 20
65.76332
 30
0.0
  0
SEQEND
  8
5
  6
CONTINUOUS
 62
    99
  5
2EF
  0
POLYLINE
  8
5
  6
CONTINUOUS
 62
    99
  5
2F0
 66
     1
 10
0.0
 20
0.0
 30
0.0
  0
VERTEX
  8
5
  6
CONTINUOUS
 62
    99
  5
2F1
 10
127.908094
 20
65.854836
 30
0.0
 42
0.117546
  0
VERTEX
  8
5
  6
CONTINUOUS
 62
    99
  5
2F2
 10
127.92214
 20
65.85708
 30
0.0
 42
0.10445
  0
VERTEX
  8
5
  6
CONTINUOUS
 62
    99
  5
2F3
 10
127.93534
 20
65.866072
 30
0.0
 42
0.090056
  0
VERTEX
  8
5
  6
CONTINUOUS
 62
    99
  5
2F4
 10
127.944421
 20
65.879709
 30
0.0
 42
0.081986
  0
VERTEX
  8
5
  6
CONTINUOUS
 62
    99
  5
2F5
 10
127.948724
 20
65.897254
 30
0.0
 42
0.081986
  0
VERTEX
  8
5
  6
CONTINUOUS
 62
    99
  5
2F6
 10
127.947178
 20
65.91517
 30
0.0
 42
0.090056
  0
VERTEX
  8
5
  6
CONTINUOUS
 62
    99
  5
2F7
 10
127.940427
 20
65.930161
 30
0.0
 42
0.10445
  0
VERTEX
  8
5
  6
CONTINUOUS
 62
    99
  5
2F8
 10
127.928714
 20
65.941074
 30
0.0
 42
0.117546
  0
VERTEX
  8
5
  6
CONTINUOUS
 62
    99
  5
2F9
 10
127.915164
 20
65.945456
 30
0.0
 42
0.117546
  0
VERTEX
  8
5
  6
CONTINUOUS
 62
    99
  5
2FA
 10
127.90111
 20
65.943254
 30
0.0
 42
0.10445
  0
VERTEX
  8
5
  6
CONTINUOUS
 62
    99
  5
2FB
 10
127.88791
 20
65.934261
 30
0.0
 42
0.090056
  0
VERTEX
  8
5
  6
CONTINUOUS
 62
    99
  5
2FC
 10
127.878829
 20
65.920625
 30
0.0
 42
0.081986
  0
VERTEX
  8
5
  6
CONTINUOUS
 62
    99
  5
2FD
 10
127.874526
 20
65.903079
 30
0.0
 42
0.081986
  0
VERTEX
  8
5
  6
CONTINUOUS
 62
    99
  5
2FE
 10
127.876114
 20
65.885184
 30
0.0
 42
0.090056
  0
VERTEX
  8
5
  6
CONTINUOUS
 62
    99
  5
2FF
 10
127.882948
 20
65.870203
 30
0.0
 42
0.10445
  0
VERTEX
  8
5
  6
CONTINUOUS
 62
    99
  5
300
 10
127.894528
 20
65.859218
 30
0.0
 42
0.117546
  0
VERTEX
  8
5
  6
CONTINUOUS
 62
    99
  5
301
 10
127.908111
 20
65.854801
 30
0.0
  0
SEQEND
  8
5
  6
CONTINUOUS
 62
    99
  5
302
  0
POLYLINE
  8
5
  6
CONTINUOUS
 62
    99
  5
303
 66
     1
 10
0.0
 20
0.0
 30
0.0
  0
VERTEX
  8
5
  6
CONTINUOUS
 62
    99
  5
304
 10
127.670371
 20
65.671841
 30
0.0
 42
0.143536
  0
VERTEX
  8
5
  6
CONTINUOUS
 62
    99
  5
305
 10
127.677579
 20
65.661103
 30
0.0
 42
0.107177
  0
VERTEX
  8
5
  6
CONTINUOUS
 62
    99
  5
306
 10
127.692908
 20
65.653133
 30
0.0
 42
0.078174
  0
VERTEX
  8
5
  6
CONTINUOUS
 62
    99
  5
307
 10
127.711081
 20
65.651272
 30
0.0
 42
0.065445
  0
VERTEX
  8
5
  6
CONTINUOUS
 62
    99
  5
308
 10
127.732434
 20
65.65507
 30
0.0
 42
0.065445
  0
VERTEX
  8
5
  6
CONTINUOUS
 62
    99
  5
309
 10
127.752046
 20
65.664326
 30
0.0
 42
0.078174
  0
VERTEX
  8
5
  6
CONTINUOUS
 62
    99
  5
30A
 10
127.765647
 20
65.676496
 30
0.0
 42
0.107177
  0
VERTEX
  8
5
  6
CONTINUOUS
 62
    99
  5
30B
 10
127.773593
 20
65.691819
 30
0.0
 42
0.143536
  0
VERTEX
  8
5
  6
CONTINUOUS
 62
    99
  5
30C
 10
127.773213
 20
65.704826
 30
0.0
 42
0.143536
  0
VERTEX
  8
5
  6
CONTINUOUS
 62
    99
  5
30D
 10
127.766004
 20
65.715564
 30
0.0
 42
0.107177
  0
VERTEX
  8
5
  6
CONTINUOUS
 62
    99
  5
30E
 10
127.750675
 20
65.723534
 30
0.0
 42
0.078174
  0
VERTEX
  8
5
  6
CONTINUOUS
 62
    99
  5
30F
 10
127.732503
 20
65.725394
 30
0.0
 42
0.065445
  0
VERTEX
  8
5
  6
CONTINUOUS
 62
    99
  5
310
 10
127.71115
 20
65.721597
 30
0.0
 42
0.065445
  0
VERTEX
  8
5
  6
CONTINUOUS
 62
    99
  5
311
 10
127.691537
 20
65.712341
 30
0.0
 42
0.078174
  0
VERTEX
  8
5
  6
CONTINUOUS
 62
    99
  5
312
 10
127.677936
 20
65.700171
 30
0.0
 42
0.107177
  0
VERTEX
  8
5
  6
CONTINUOUS
 62
    99
  5
313
 10
127.669991
 20
65.684848
 30
0.0
 42
0.143536
  0
VERTEX
  8
5
  6
CONTINUOUS
 62
    99
  5
314
 10
127.670324
 20
65.671848
 30
0.0
  0
SEQEND
  8
5
  6
CONTINUOUS
 62
    99
  5
315
  0
POLYLINE
  8
5
  6
CONTINUOUS
 62
    99
  5
316
 66
     1
 10
0.0
 20
0.0
 30
0.0
  0
VERTEX
  8
5
  6
CONTINUOUS
 62
    99
  5
317
 10
127.638396
 20
65.688306
 30
0.0
 42
0.205135
  0
VERTEX
  8
5
  6
CONTINUOUS
 62
    99
  5
318
 10
127.61917
 20
65.679488
 30
0.0
 42
0.096653
  0
VERTEX
  8
5
  6
CONTINUOUS
 62
    99
  5
319
 10
127.596638
 20
65.642158
 30
0.0
 42
0.053538
  0
VERTEX
  8
5
  6
CONTINUOUS
 62
    99
  5
31A
 10
127.585233
 20
65.595862
 30
0.0
 42
0.040552
  0
VERTEX
  8
5
  6
CONTINUOUS
 62
    99
  5
31B
 10
127.581813
 20
65.532984
 30
0.0
 42
0.040552
  0
VERTEX
  8
5
  6
CONTINUOUS
 62
    99
  5
31C
 10
127.588659
 20
65.470451
 30
0.0
 42
0.053538
  0
VERTEX
  8
5
  6
CONTINUOUS
 62
    99
  5
31D
 10
127.602581
 20
65.424726
 30
0.0
 42
0.096653
  0
VERTEX
  8
5
  6
CONTINUOUS
 62
    99
  5
31E
 10
127.627036
 20
65.388666
 30
0.0
 42
0.205135
  0
VERTEX
  8
5
  6
CONTINUOUS
 62
    99
  5
31F
 10
127.646687
 20
65.380944
 30
0.0
 42
0.205135
  0
VERTEX
  8
5
  6
CONTINUOUS
 62
    99
  5
320
 10
127.665913
 20
65.389762
 30
0.0
 42
0.096653
  0
VERTEX
  8
5
  6
CONTINUOUS
 62
    99
  5
321
 10
127.688445
 20
65.427092
 30
0.0
 42
0.053538
  0
VERTEX
  8
5
  6
CONTINUOUS
 62
    99
  5
322
 10
127.699851
 20
65.473388
 30
0.0
 42
0.040552
  0
VERTEX
  8
5
  6
CONTINUOUS
 62
    99
  5
323
 10
127.703229
 20
65.536253
 30
0.0
 42
0.040552
  0
VERTEX
  8
5
  6
CONTINUOUS
 62
    99
  5
324
 10
127.696508
 20
65.598799
 30
0.0
 42
0.053538
  0
VERTEX
  8
5
  6
CONTINUOUS
 62
    99
  5
325
 10
127.68258
 20
65.644529
 30
0.0
 42
0.096653
  0
VERTEX
  8
5
  6
CONTINUOUS
 62
    99
  5
326
 10
127.658062
 20
65.680459
 30
0.0
 42
0.205135
  0
VERTEX
  8
5
  6
CONTINUOUS
 62
    99
  5
327
 10
127.638395
 20
65.688293
 30
0.0
  0
SEQEND
  8
5
  6
CONTINUOUS
 62
    99
  5
328
  0
POLYLINE
  8
5
  6
CONTINUOUS
 62
    99
  5
329
 66
     1
 10
0.0
 20
0.0
 30
0.0
  0
VERTEX
  8
5
  6
CONTINUOUS
 62
    99
  5
32A
 10
127.741293
 20
65.547439
 30
0.0
 42
0.110981
  0
VERTEX
  8
5
  6
CONTINUOUS
 62
    99
  5
32B
 10
127.752192
 20
65.549853
 30
0.0
 42
0.102818
  0
VERTEX
  8
5
  6
CONTINUOUS
 62
    99
  5
32C
 10
127.761675
 20
65.557103
 30
0.0
 42
0.093049
  0
VERTEX
  8
5
  6
CONTINUOUS
 62
    99
  5
32D
 10
127.767922
 20
65.567553
 30
0.0
 42
0.087151
  0
VERTEX
  8
5
  6
CONTINUOUS
 62
    99
  5
32E
 10
127.770159
 20
65.580322
 30
0.0
 42
0.087151
  0
VERTEX
  8
5
  6
CONTINUOUS
 62
    99
  5
32F
 10
127.767925
 20
65.593147
 30
0.0
 42
0.093049
  0
VERTEX
  8
5
  6
CONTINUOUS
 62
    99
  5
330
 10
127.761658
 20
65.603688
 30
0.0
 42
0.102818
  0
VERTEX
  8
5
  6
CONTINUOUS
 62
    99
  5
331
 10
127.752146
 20
65.610853
 30
0.0
 42
0.110981
  0
VERTEX
  8
5
  6
CONTINUOUS
 62
    99
  5
332
 10
127.741354
 20
65.613353
 30
0.0
 42
0.110981
  0
VERTEX
  8
5
  6
CONTINUOUS
 62
    99
  5
333
 10
127.730467
 20
65.610805
 30
0.0
 42
0.102818
  0
VERTEX
  8
5
  6
CONTINUOUS
 62
    99
  5
334
 10
127.72095
 20
65.603675
 30
0.0
 42
0.093049
  0
VERTEX
  8
5
  6
CONTINUOUS
 62
    99
  5
335
 10
127.714758
 20
65.593155
 30
0.0
 42
0.087151
  0
VERTEX
  8
5
  6
CONTINUOUS
 62
    99
  5
336
 10
127.712495
 20
65.580303
 30
0.0
 42
0.087151
  0
VERTEX
  8
5
  6
CONTINUOUS
 62
    99
  5
337
 10
127.714783
 20
65.567575
 30
0.0
 42
0.093049
  0
VERTEX
  8
5
  6
CONTINUOUS
 62
    99
  5
338
 10
127.720933
 20
65.55707
 30
0.0
 42
0.102818
  0
VERTEX
  8
5
  6
CONTINUOUS
 62
    99
  5
339
 10
127.73054
 20
65.549855
 30
0.0
 42
0.110981
  0
VERTEX
  8
5
  6
CONTINUOUS
 62
    99
  5
33A
 10
127.741373
 20
65.547439
 30
0.0
  0
SEQEND
  8
5
  6
CONTINUOUS
 62
    99
  5
33B
  0
POLYLINE
  8
5
  6
CONTINUOUS
 62
    99
  5
33C
 66
     1
 10
0.0
 20
0.0
 30
0.0
  0
VERTEX
  8
5
  6
CONTINUOUS
 62
    99
  5
33D
 10
127.923379
 20
65.605108
 30
0.0
 42
0.062849
  0
VERTEX
  8
5
  6
CONTINUOUS
 62
    99
  5
33E
 10
127.907612
 20
65.623649
 30
0.0
 42
0.075982
  0
VERTEX
  8
5
  6
CONTINUOUS
 62
    99
  5
33F
 10
127.890739
 20
65.634795
 30
0.0
 42
0.107106
  0
VERTEX
  8
5
  6
CONTINUOUS
 62
    99
  5
340
 10
127.872134
 20
65.638997
 30
0.0
 42
0.148474
  0
VERTEX
  8
5
  6
CONTINUOUS
 62
    99
  5
341
 10
127.858852
 20
65.635046
 30
0.0
 42
0.148474
  0
VERTEX
  8
5
  6
CONTINUOUS
 62
    99
  5
342
 10
127.849971
 20
65.624435
 30
0.0
 42
0.107106
  0
VERTEX
  8
5
  6
CONTINUOUS
 62
    99
  5
343
 10
127.846389
 20
65.605736
 30
0.0
 42
0.075982
  0
VERTEX
  8
5
  6
CONTINUOUS
 62
    99
  5
344
 10
127.85004
 20
65.585866
 30
0.0
 42
0.062849
  0
VERTEX
  8
5
  6
CONTINUOUS
 62
    99
  5
345
 10
127.860788
 20
65.563892
 30
0.0
 42
0.062849
  0
VERTEX
  8
5
  6
CONTINUOUS
 62
    99
  5
346
 10
127.876596
 20
65.545328
 30
0.0
 42
0.075982
  0
VERTEX
  8
5
  6
CONTINUOUS
 62
    99
  5
347
 10
127.893485
 20
65.534163
 30
0.0
 42
0.107106
  0
VERTEX
  8
5
  6
CONTINUOUS
 62
    99
  5
348
 10
127.912074
 20
65.52989
 30
0.0
 42
0.148474
  0
VERTEX
  8
5
  6
CONTINUOUS
 62
    99
  5
349
 10
127.925356
 20
65.533817
 30
0.0
 42
0.148474
  0
VERTEX
  8
5
  6
CONTINUOUS
 62
    99
  5
34A
 10
127.934263
 20
65.544466
 30
0.0
 42
0.107106
  0
VERTEX
  8
5
  6
CONTINUOUS
 62
    99
  5
34B
 10
127.937778
 20
65.563264
 30
0.0
 42
0.075982
  0
VERTEX
  8
5
  6
CONTINUOUS
 62
    99
  5
34C
 10
127.934127
 20
65.583134
 30
0.0
 42
0.062849
  0
VERTEX
  8
5
  6
CONTINUOUS
 62
    99
  5
34D
 10
127.923377
 20
65.605051
 30
0.0
  0
SEQEND
  8
5
  6
CONTINUOUS
 62
    99
  5
34E
  0
POLYLINE
  8
5
  6
CONTINUOUS
 62
    99
  5
34F
 66
     1
 10
0.0
 20
0.0
 30
0.0
  0
VERTEX
  8
5
  6
CONTINUOUS
 62
    99
  5
350
 10
127.518939
 20
65.438508
 30
0.0
 42
0.141829
  0
VERTEX
  8
5
  6
CONTINUOUS
 62
    99
  5
351
 10
127.53572
 20
65.439318
 30
0.0
 42
0.107161
  0
VERTEX
  8
5
  6
CONTINUOUS
 62
    99
  5
352
 10
127.554587
 20
65.450693
 30
0.0
 42
0.078939
  0
VERTEX
  8
5
  6
CONTINUOUS
 62
    99
  5
353
 10
127.568807
 20
65.469086
 30
0.0
 42
0.066377
  0
VERTEX
  8
5
  6
CONTINUOUS
 62
    99
  5
354
 10
127.578702
 20
65.494792
 30
0.0
 42
0.066377
  0
VERTEX
  8
5
  6
CONTINUOUS
 62
    99
  5
355
 10
127.581529
 20
65.522305
 30
0.0
 42
0.078939
  0
VERTEX
  8
5
  6
CONTINUOUS
 62
    99
  5
356
 10
127.577131
 20
65.545155
 30
0.0
 42
0.107161
  0
VERTEX
  8
5
  6
CONTINUOUS
 62
    99
  5
357
 10
127.565519
 20
65.563855
 30
0.0
 42
0.141829
  0
VERTEX
  8
5
  6
CONTINUOUS
 62
    99
  5
358
 10
127.550894
 20
65.572158
 30
0.0
 42
0.141829
  0
VERTEX
  8
5
  6
CONTINUOUS
 62
    99
  5
359
 10
127.534114
 20
65.571349
 30
0.0
 42
0.107161
  0
VERTEX
  8
5
  6
CONTINUOUS
 62
    99
  5
35A
 10
127.515288
 20
65.559961
 30
0.0
 42
0.078939
  0
VERTEX
  8
5
  6
CONTINUOUS
 62
    99
  5
35B
 10
127.501068
 20
65.54156
 30
0.0
 42
0.066377
  0
VERTEX
  8
5
  6
CONTINUOUS
 62
    99
  5
35C
 10
127.491131
 20
65.515874
 30
0.0
 42
0.066377
  0
VERTEX
  8
5
  6
CONTINUOUS
 62
    99
  5
35D
 10
127.488304
 20
65.488362
 30
0.0
 42
0.078939
  0
VERTEX
  8
5
  6
CONTINUOUS
 62
    99
  5
35E
 10
127.492702
 20
65.465512
 30
0.0
 42
0.107161
  0
VERTEX
  8
5
  6
CONTINUOUS
 62
    99
  5
35F
 10
127.504315
 20
65.446811
 30
0.0
 42
0.141829
  0
VERTEX
  8
5
  6
CONTINUOUS
 62
    99
  5
360
 10
127.518898
 20
65.438478
 30
0.0
  0
SEQEND
  8
5
  6
CONTINUOUS
 62
    99
  5
361
  0
POLYLINE
  8
5
  6
CONTINUOUS
 62
    99
  5
362
 66
     1
 10
0.0
 20
0.0
 30
0.0
  0
VERTEX
  8
5
  6
CONTINUOUS
 62
    99
  5
363
 10
127.725948
 20
65.447668
 30
0.0
 42
0.126841
  0
VERTEX
  8
5
  6
CONTINUOUS
 62
    99
  5
364
 10
127.736906
 20
65.423809
 30
0.0
 42
0.106073
  0
VERTEX
  8
5
  6
CONTINUOUS
 62
    99
  5
365
 10
127.761339
 20
65.404287
 30
0.0
 42
0.085774
  0
VERTEX
  8
5
  6
CONTINUOUS
 62
    99
  5
366
 10
127.792462
 20
65.39487
 30
0.0
 42
0.075432
  0
VERTEX
  8
5
  6
CONTINUOUS
 62
    99
  5
367
 10
127.829336
 20
65.395853
 30
0.0
 42
0.075432
  0
VERTEX
  8
5
  6
CONTINUOUS
 62
    99
  5
368
 10
127.864274
 20
65.407851
 30
0.0
 42
0.085774
  0
VERTEX
  8
5
  6
CONTINUOUS
 62
    99
  5
369
 10
127.890142
 20
65.427506
 30
0.0
 42
0.106073
  0
VERTEX
  8
5
  6
CONTINUOUS
 62
    99
  5
36A
 10
127.906197
 20
65.454408
 30
0.0
 42
0.126841
  0
VERTEX
  8
5
  6
CONTINUOUS
 62
    99
  5
36B
 10
127.908052
 20
65.480665
 30
0.0
 42
0.126841
  0
VERTEX
  8
5
  6
CONTINUOUS
 62
    99
  5
36C
 10
127.897094
 20
65.504524
 30
0.0
 42
0.106073
  0
VERTEX
  8
5
  6
CONTINUOUS
 62
    99
  5
36D
 10
127.872703
 20
65.524055
 30
0.0
 42
0.085774
  0
VERTEX
  8
5
  6
CONTINUOUS
 62
    99
  5
36E
 10
127.841555
 20
65.53353
 30
0.0
 42
0.075432
  0
VERTEX
  8
5
  6
CONTINUOUS
 62
    99
  5
36F
 10
127.804688
 20
65.532439
 30
0.0
 42
0.075432
  0
VERTEX
  8
5
  6
CONTINUOUS
 62
    99
  5
370
 10
127.769767
 20
65.520491
 30
0.0
 42
0.085774
  0
VERTEX
  8
5
  6
CONTINUOUS
 62
    99
  5
371
 10
127.7439
 20
65.500855
 30
0.0
 42
0.106073
  0
VERTEX
  8
5
  6
CONTINUOUS
 62
    99
  5
372
 10
127.727803
 20
65.473925
 30
0.0
 42
0.126841
  0
VERTEX
  8
5
  6
CONTINUOUS
 62
    99
  5
373
 10
127.725886
 20
65.447675
 30
0.0
  0
SEQEND
  8
5
  6
CONTINUOUS
 62
    99
  5
374
  0
POLYLINE
  8
5
  6
CONTINUOUS
 62
    99
  5
375
 66
     1
 10
0.0
 20
0.0
 30
0.0
  0
VERTEX
  8
5
  6
CONTINUOUS
 62
    99
  5
376
 10
127.48819
 20
65.056988
 30
0.0
 42
0.140928
  0
VERTEX
  8
5
  6
CONTINUOUS
 62
    99
  5
377
 10
127.511109
 20
65.040137
 30
0.0
 42
0.107145
  0
VERTEX
  8
5
  6
CONTINUOUS
 62
    99
  5
378
 10
127.547762
 20
65.035105
 30
0.0
 42
0.079344
  0
VERTEX
  8
5
  6
CONTINUOUS
 62
    99
  5
379
 10
127.585756
 20
65.04408
 30
0.0
 42
0.066877
  0
VERTEX
  8
5
  6
CONTINUOUS
 62
    99
  5
37A
 10
127.625832
 20
65.06726
 30
0.0
 42
0.066877
  0
VERTEX
  8
5
  6
CONTINUOUS
 62
    99
  5
37B
 10
127.658311
 20
65.100193
 30
0.0
 42
0.079344
  0
VERTEX
  8
5
  6
CONTINUOUS
 62
    99
  5
37C
 10
127.676581
 20
65.134697
 30
0.0
 42
0.107145
  0
VERTEX
  8
5
  6
CONTINUOUS
 62
    99
  5
37D
 10
127.680848
 20
65.171465
 30
0.0
 42
0.140928
  0
VERTEX
  8
5
  6
CONTINUOUS
 62
    99
  5
37E
 10
127.670332
 20
65.197887
 30
0.0
 42
0.140928
  0
VERTEX
  8
5
  6
CONTINUOUS
 62
    99
  5
37F
 10
127.647391
 20
65.214697
 30
0.0
 42
0.107145
  0
VERTEX
  8
5
  6
CONTINUOUS
 62
    99
  5
380
 10
127.610738
 20
65.219728
 30
0.0
 42
0.079344
  0
VERTEX
  8
5
  6
CONTINUOUS
 62
    99
  5
381
 10
127.572786
 20
65.210776
 30
0.0
 42
0.066877
  0
VERTEX
  8
5
  6
CONTINUOUS
 62
    99
  5
382
 10
127.532751
 20
65.187573
 30
0.0
 42
0.066877
  0
VERTEX
  8
5
  6
CONTINUOUS
 62
    99
  5
383
 10
127.500272
 20
65.154641
 30
0.0
 42
0.079344
  0
VERTEX
  8
5
  6
CONTINUOUS
 62
    99
  5
384
 10
127.481961
 20
65.120162
 30
0.0
 42
0.107145
  0
VERTEX
  8
5
  6
CONTINUOUS
 62
    99
  5
385
 10
127.47763
 20
65.083327
 30
0.0
 42
0.140928
  0
VERTEX
  8
5
  6
CONTINUOUS
 62
    99
  5
386
 10
127.48813
 20
65.056993
 30
0.0
  0
SEQEND
  8
5
  6
CONTINUOUS
 62
    99
  5
387
  0
POLYLINE
  8
5
  6
CONTINUOUS
 62
    99
  5
388
 66
     1
 10
0.0
 20
0.0
 30
0.0
  0
VERTEX
  8
5
  6
CONTINUOUS
 62
    99
  5
389
 10
127.852483
 20
65.065178
 30
0.0
 42
0.156139
  0
VERTEX
  8
5
  6
CONTINUOUS
 62
    99
  5
38A
 10
127.879834
 20
65.069582
 30
0.0
 42
0.106676
  0
VERTEX
  8
5
  6
CONTINUOUS
 62
    99
  5
38B
 10
127.910996
 20
65.094838
 30
0.0
 42
0.072647
  0
VERTEX
  8
5
  6
CONTINUOUS
 62
    99
  5
38C
 10
127.932753
 20
65.131739
 30
0.0
 42
0.059086
  0
VERTEX
  8
5
  6
CONTINUOUS
 62
    99
  5
38D
 10
127.946668
 20
65.182413
 30
0.0
 42
0.059086
  0
VERTEX
  8
5
  6
CONTINUOUS
 62
    99
  5
38E
 10
127.948381
 20
65.234994
 30
0.0
 42
0.072647
  0
VERTEX
  8
5
  6
CONTINUOUS
 62
    99
  5
38F
 10
127.938604
 20
65.276634
 30
0.0
 42
0.106676
  0
VERTEX
  8
5
  6
CONTINUOUS
 62
    99
  5
390
 10
127.916349
 20
65.309959
 30
0.0
 42
0.156139
  0
VERTEX
  8
5
  6
CONTINUOUS
 62
    99
  5
391
 10
127.891517
 20
65.322322
 30
0.0
 42
0.156139
  0
VERTEX
  8
5
  6
CONTINUOUS
 62
    99
  5
392
 10
127.864166
 20
65.317918
 30
0.0
 42
0.106676
  0
VERTEX
  8
5
  6
CONTINUOUS
 62
    99
  5
393
 10
127.832963
 20
65.292626
 30
0.0
 42
0.072647
  0
VERTEX
  8
5
  6
CONTINUOUS
 62
    99
  5
394
 10
127.811372
 20
65.255779
 30
0.0
 42
0.059086
  0
VERTEX
  8
5
  6
CONTINUOUS
 62
    99
  5
395
 10
127.797308
 20
65.205111
 30
0.0
 42
0.059086
  0
VERTEX
  8
5
  6
CONTINUOUS
 62
    99
  5
396
 10
127.795626
 20
65.152583
 30
0.0
 42
0.072647
  0
VERTEX
  8
5
  6
CONTINUOUS
 62
    99
  5
397
 10
127.805396
 20
65.110866
 30
0.0
 42
0.106676
  0
VERTEX
  8
5
  6
CONTINUOUS
 62
    99
  5
398
 10
127.827651
 20
65.077541
 30
0.0
 42
0.156139
  0
VERTEX
  8
5
  6
CONTINUOUS
 62
    99
  5
399
 10
127.852484
 20
65.065208
 30
0.0
  0
SEQEND
  8
5
  6
CONTINUOUS
 62
    99
  5
39A
  0
POLYLINE
  8
5
  6
CONTINUOUS
 62
    99
  5
39B
 66
     1
 10
0.0
 20
0.0
 30
0.0
  0
VERTEX
  8
5
  6
CONTINUOUS
 62
    99
  5
39C
 10
127.68577
 20
65.065203
 30
0.0
 42
0.129565
  0
VERTEX
  8
5
  6
CONTINUOUS
 62
    99
  5
39D
 10
127.695376
 20
65.055235
 30
0.0
 42
0.106405
  0
VERTEX
  8
5
  6
CONTINUOUS
 62
    99
  5
39E
 10
127.711359
 20
65.049815
 30
0.0
 42
0.08452
  0
VERTEX
  8
5
  6
CONTINUOUS
 62
    99
  5
39F
 10
127.728817
 20
65.050791
 30
0.0
 42
0.073659
  0
VERTEX
  8
5
  6
CONTINUOUS
 62
    99
  5
3A0
 10
127.747549
 20
65.057886
 30
0.0
 42
0.073659
  0
VERTEX
  8
5
  6
CONTINUOUS
 62
    99
  5
3A1
 10
127.763458
 20
65.070283
 30
0.0
 42
0.08452
  0
VERTEX
  8
5
  6
CONTINUOUS
 62
    99
  5
3A2
 10
127.773176
 20
65.084718
 30
0.0
 42
0.106405
  0
VERTEX
  8
5
  6
CONTINUOUS
 62
    99
  5
3A3
 10
127.776787
 20
65.101182
 30
0.0
 42
0.129565
  0
VERTEX
  8
5
  6
CONTINUOUS
 62
    99
  5
3A4
 10
127.773221
 20
65.114589
 30
0.0
 42
0.129565
  0
VERTEX
  8
5
  6
CONTINUOUS
 62
    99
  5
3A5
 10
127.763624
 20
65.124598
 30
0.0
 42
0.106405
  0
VERTEX
  8
5
  6
CONTINUOUS
 62
    99
  5
3A6
 10
127.747641
 20
65.130018
 30
0.0
 42
0.08452
  0
VERTEX
  8
5
  6
CONTINUOUS
 62
    99
  5
3A7
 10
127.730183
 20
65.129043
 30
0.0
 42
0.073659
  0
VERTEX
  8
5
  6
CONTINUOUS
 62
    99
  5
3A8
 10
127.711451
 20
65.121947
 30
0.0
 42
0.073659
  0
VERTEX
  8
5
  6
CONTINUOUS
 62
    99
  5
3A9
 10
127.695584
 20
65.109545
 30
0.0
 42
0.08452
  0
VERTEX
  8
5
  6
CONTINUOUS
 62
    99
  5
3AA
 10
127.685741
 20
65.095115
 30
0.0
 42
0.106405
  0
VERTEX
  8
5
  6
CONTINUOUS
 62
    99
  5
3AB
 10
127.68218
 20
65.078702
 30
0.0
 42
0.129565
  0
VERTEX
  8
5
  6
CONTINUOUS
 62
    99
  5
3AC
 10
127.685764
 20
65.065202
 30
0.0
  0
SEQEND
  8
5
  6
CONTINUOUS
 62
    99
  5
3AD
  0
POLYLINE
  8
5
  6
CONTINUOUS
 62
    99
  5
3AE
 66
     1
 10
0.0
 20
0.0
 30
0.0
  0
VERTEX
  8
5
  6
CONTINUOUS
 62
    99
  5
3AF
 10
127.559145
 20
65.397362
 30
0.0
 42
0.139961
  0
VERTEX
  8
5
  6
CONTINUOUS
 62
    99
  5
3B0
 10
127.535702
 20
65.396762
 30
0.0
 42
0.10712
  0
VERTEX
  8
5
  6
CONTINUOUS
 62
    99
  5
3B1
 10
127.509126
 20
65.381677
 30
0.0
 42
0.07978
  0
VERTEX
  8
5
  6
CONTINUOUS
 62
    99
  5
3B2
 10
127.488939
 20
65.356742
 30
0.0
 42
0.067419
  0
VERTEX
  8
5
  6
CONTINUOUS
 62
    99
  5
3B3
 10
127.474544
 20
65.321611
 30
0.0
 42
0.067419
  0
VERTEX
  8
5
  6
CONTINUOUS
 62
    99
  5
3B4
 10
127.470118
 20
65.283907
 30
0.0
 42
0.07978
  0
VERTEX
  8
5
  6
CONTINUOUS
 62
    99
  5
3B5
 10
127.475699
 20
65.252321
 30
0.0
 42
0.10712
  0
VERTEX
  8
5
  6
CONTINUOUS
 62
    99
  5
3B6
 10
127.49159
 20
65.226246
 30
0.0
 42
0.139961
  0
VERTEX
  8
5
  6
CONTINUOUS
 62
    99
  5
3B7
 10
127.511813
 20
65.214325
 30
0.0
 42
0.139961
  0
VERTEX
  8
5
  6
CONTINUOUS
 62
    99
  5
3B8
 10
127.535381
 20
65.214905
 30
0.0
 42
0.10712
  0
VERTEX
  8
5
  6
CONTINUOUS
 62
    99
  5
3B9
 10
127.561883
 20
65.230031
 30
0.0
 42
0.07978
  0
VERTEX
  8
5
  6
CONTINUOUS
 62
    99
  5
3BA
 10
127.58217
 20
65.254966
 30
0.0
 42
0.067419
  0
VERTEX
  8
5
  6
CONTINUOUS
 62
    99
  5
3BB
 10
127.596497
 20
65.290113
 30
0.0
 42
0.067419
  0
VERTEX
  8
5
  6
CONTINUOUS
 62
    99
  5
3BC
 10
127.600891
 20
65.327718
 30
0.0
 42
0.07978
  0
VERTEX
  8
5
  6
CONTINUOUS
 62
    99
  5
3BD
 10
127.595358
 20
65.359387
 30
0.0
 42
0.10712
  0
VERTEX
  8
5
  6
CONTINUOUS
 62
    99
  5
3BE
 10
127.57941
 20
65.385421
 30
0.0
 42
0.139961
  0
VERTEX
  8
5
  6
CONTINUOUS
 62
    99
  5
3BF
 10
127.55916
 20
65.397337
 30
0.0
  0
SEQEND
  8
5
  6
CONTINUOUS
 62
    99
  5
3C0
  0
POLYLINE
  8
5
  6
CONTINUOUS
 62
    99
  5
3C1
 66
     1
 10
0.0
 20
0.0
 30
0.0
  0
VERTEX
  8
5
  6
CONTINUOUS
 62
    99
  5
3C2
 10
127.670309
 20
65.305862
 30
0.0
 42
0.094219
  0
VERTEX
  8
5
  6
CONTINUOUS
 62
    99
  5
3C3
 10
127.657918
 20
65.298585
 30
0.0
 42
0.096618
  0
VERTEX
  8
5
  6
CONTINUOUS
 62
    99
  5
3C4
 10
127.649367
 20
65.28743
 30
0.0
 42
0.100216
  0
VERTEX
  8
5
  6
CONTINUOUS
 62
    99
  5
3C5
 10
127.645679
 20
65.273977
 30
0.0
 42
0.102918
  0
VERTEX
  8
5
  6
CONTINUOUS
 62
    99
  5
3C6
 10
127.647619
 20
65.260518
 30
0.0
 42
0.102918
  0
VERTEX
  8
5
  6
CONTINUOUS
 62
    99
  5
3C7
 10
127.654663
 20
65.248931
 30
0.0
 42
0.100216
  0
VERTEX
  8
5
  6
CONTINUOUS
 62
    99
  5
3C8
 10
127.666096
 20
65.240842
 30
0.0
 42
0.096618
  0
VERTEX
  8
5
  6
CONTINUOUS
 62
    99
  5
3C9
 10
127.679709
 20
65.237733
 30
0.0
 42
0.094219
  0
VERTEX
  8
5
  6
CONTINUOUS
 62
    99
  5
3CA
 10
127.694025
 20
65.239971
 30
0.0
 42
0.094219
  0
VERTEX
  8
5
  6
CONTINUOUS
 62
    99
  5
3CB
 10
127.706416
 20
65.247248
 30
0.0
 42
0.096618
  0
VERTEX
  8
5
  6
CONTINUOUS
 62
    99
  5
3CC
 10
127.714967
 20
65.258403
 30
0.0
 42
0.100216
  0
VERTEX
  8
5
  6
CONTINUOUS
 62
    99
  5
3CD
 10
127.718654
 20
65.271856
 30
0.0
 42
0.102918
  0
VERTEX
  8
5
  6
CONTINUOUS
 62
    99
  5
3CE
 10
127.716714
 20
65.285316
 30
0.0
 42
0.102918
  0
VERTEX
  8
5
  6
CONTINUOUS
 62
    99
  5
3CF
 10
127.709671
 20
65.296902
 30
0.0
 42
0.100216
  0
VERTEX
  8
5
  6
CONTINUOUS
 62
    99
  5
3D0
 10
127.698237
 20
65.304991
 30
0.0
 42
0.096618
  0
VERTEX
  8
5
  6
CONTINUOUS
 62
    99
  5
3D1
 10
127.684625
 20
65.3081
 30
0.0
 42
0.094219
  0
VERTEX
  8
5
  6
CONTINUOUS
 62
    99
  5
3D2
 10
127.670375
 20
65.30585
 30
0.0
  0
SEQEND
  8
5
  6
CONTINUOUS
 62
    99
  5
3D3
  0
POLYLINE
  8
5
  6
CONTINUOUS
 62
    99
  5
3D4
 66
     1
 10
0.0
 20
0.0
 30
0.0
  0
VERTEX
  8
5
  6
CONTINUOUS
 62
    99
  5
3D5
 10
127.717649
 20
65.372652
 30
0.0
 42
0.135391
  0
VERTEX
  8
5
  6
CONTINUOUS
 62
    99
  5
3D6
 10
127.710261
 20
65.35876
 30
0.0
 42
0.10691
  0
VERTEX
  8
5
  6
CONTINUOUS
 62
    99
  5
3D7
 10
127.710052
 20
65.339041
 30
0.0
 42
0.081853
  0
VERTEX
  8
5
  6
CONTINUOUS
 62
    99
  5
3D8
 10
127.717501
 20
65.319616
 30
0.0
 42
0.070065
  0
VERTEX
  8
5
  6
CONTINUOUS
 62
    99
  5
3D9
 10
127.732537
 20
65.300667
 30
0.0
 42
0.070065
  0
VERTEX
  8
5
  6
CONTINUOUS
 62
    99
  5
3DA
 10
127.75228
 20
65.286585
 30
0.0
 42
0.081853
  0
VERTEX
  8
5
  6
CONTINUOUS
 62
    99
  5
3DB
 10
127.771905
 20
65.280094
 30
0.0
 42
0.10691
  0
VERTEX
  8
5
  6
CONTINUOUS
 62
    99
  5
3DC
 10
127.791637
 20
65.281279
 30
0.0
 42
0.135391
  0
VERTEX
  8
5
  6
CONTINUOUS
 62
    99
  5
3DD
 10
127.8052
 20
65.289389
 30
0.0
 42
0.135391
  0
VERTEX
  8
5
  6
CONTINUOUS
 62
    99
  5
3DE
 10
127.812598
 20
65.303281
 30
0.0
 42
0.10691
  0
VERTEX
  8
5
  6
CONTINUOUS
 62
    99
  5
3DF
 10
127.812778
 20
65.323084
 30
0.0
 42
0.081853
  0
VERTEX
  8
5
  6
CONTINUOUS
 62
    99
  5
3E0
 10
127.805295
 20
65.342426
 30
0.0
 42
0.070065
  0
VERTEX
  8
5
  6
CONTINUOUS
 62
    99
  5
3E1
 10
127.790333
 20
65.361458
 30
0.0
 42
0.070065
  0
VERTEX
  8
5
  6
CONTINUOUS
 62
    99
  5
3E2
 10
127.770553
 20
65.375415
 30
0.0
 42
0.081853
  0
VERTEX
  8
5
  6
CONTINUOUS
 62
    99
  5
3E3
 10
127.750928
 20
65.381906
 30
0.0
 42
0.10691
  0
VERTEX
  8
5
  6
CONTINUOUS
 62
    99
  5
3E4
 10
127.731181
 20
65.380763
 30
0.0
 42
0.135391
  0
VERTEX
  8
5
  6
CONTINUOUS
 62
    99
  5
3E5
 10
127.717681
 20
65.372679
 30
0.0
  0
SEQEND
  8
5
  6
CONTINUOUS
 62
    99
  5
3E6
  0
POLYLINE
  8
5
  6
CONTINUOUS
 62
    99
  5
3E7
 66
     1
 10
0.0
 20
0.0
 30
0.0
  0
VERTEX
  8
5
  6
CONTINUOUS
 62
    99
  5
3E8
 10
127.741352
 20
65.27289
 30
0.0
 42
0.124142
  0
VERTEX
  8
5
  6
CONTINUOUS
 62
    99
  5
3E9
 10
127.722866
 20
65.267027
 30
0.0
 42
0.105681
  0
VERTEX
  8
5
  6
CONTINUOUS
 62
    99
  5
3EA
 10
127.706408
 20
65.25124
 30
0.0
 42
0.087019
  0
VERTEX
  8
5
  6
CONTINUOUS
 62
    99
  5
3EB
 10
127.696831
 20
65.229774
 30
0.0
 42
0.077252
  0
VERTEX
  8
5
  6
CONTINUOUS
 62
    99
  5
3EC
 10
127.694398
 20
65.203438
 30
0.0
 42
0.077252
  0
VERTEX
  8
5
  6
CONTINUOUS
 62
    99
  5
3ED
 10
127.700043
 20
65.177573
 30
0.0
 42
0.087019
  0
VERTEX
  8
5
  6
CONTINUOUS
 62
    99
  5
3EE
 10
127.712309
 20
65.15738
 30
0.0
 42
0.105681
  0
VERTEX
  8
5
  6
CONTINUOUS
 62
    99
  5
3EF
 10
127.73052
 20
65.14387
 30
0.0
 42
0.124142
  0
VERTEX
  8
5
  6
CONTINUOUS
 62
    99
  5
3F0
 10
127.749565
 20
65.140277
 30
0.0
 42
0.124142
  0
VERTEX
  8
5
  6
CONTINUOUS
 62
    99
  5
3F1
 10
127.768092
 20
65.146168
 30
0.0
 42
0.105681
  0
VERTEX
  8
5
  6
CONTINUOUS
 62
    99
  5
3F2
 10
127.784384
 20
65.161939
 30
0.0
 42
0.087019
  0
VERTEX
  8
5
  6
CONTINUOUS
 62
    99
  5
3F3
 10
127.794085
 20
65.183393
 30
0.0
 42
0.077252
  0
VERTEX
  8
5
  6
CONTINUOUS
 62
    99
  5
3F4
 10
127.796477
 20
65.209747
 30
0.0
 42
0.077252
  0
VERTEX
  8
5
  6
CONTINUOUS
 62
    99
  5
3F5
 10
127.790749
 20
65.235606
 30
0.0
 42
0.087019
  0
VERTEX
  8
5
  6
CONTINUOUS
 62
    99
  5
3F6
 10
127.778607
 20
65.255787
 30
0.0
 42
0.105681
  0
VERTEX
  8
5
  6
CONTINUOUS
 62
    99
  5
3F7
 10
127.760397
 20
65.269297
 30
0.0
 42
0.124142
  0
VERTEX
  8
5
  6
CONTINUOUS
 62
    99
  5
3F8
 10
127.741313
 20
65.27288
 30
0.0
  0
SEQEND
  8
5
  6
CONTINUOUS
 62
    99
  5
3F9
  0
ARC
  8
1
  6
CONTINUOUS
 62
   233
  5
3FA
 10
127.7495
 20
63.5165
 30
0.0
 40
1.503268
 50
101.308756
 51
138.792672
210
0.0
220
0.0
230
1.0
  0
LINE
  8
1
  6
CONTINUOUS
 62
   233
  5
3FB
 10
127.45475
 20
64.990583
 30
0.0
 11
127.953417
 21
65.005833
 31
0.0
  0
SOLID
  8
3
  6
CONTINUOUS
 62
     2
  5
3FD
 10
127.721917
 20
67.632417
 30
0.0
 11
127.680167
 21
67.632417
 31
0.0
 12
127.701083
 22
67.507417
 32
0.0
 13
127.701083
 23
67.507417
 33
0.0
  0
LINE
  8
3
  6
CONTINUOUS
 62
     2
  5
3FE
 10
127.701083
 20
67.632417
 30
0.0
 11
127.701083
 21
68.88725
 31
0.0
  0
LINE
  8
3
  6
CONTINUOUS
 62
     2
  5
3FF
 10
127.701083
 20
68.88725
 30
0.0
 11
128.311417
 21
68.88725
 31
0.0
  0
LINE
  8
3
  6
CONTINUOUS
 62
     2
  5
400
 10
128.311417
 20
68.88725
 30
0.0
 11
128.401417
 21
68.88725
 31
0.0
  0
SOLID
  8
3
  6
CONTINUOUS
 62
     2
  5
401
 10
127.794083
 20
67.6745
 30
0.0
 11
127.752417
 21
67.6745
 31
0.0
 12
127.773167
 22
67.5495
 32
0.0
 13
127.773167
 23
67.5495
 33
0.0
  0
LINE
  8
3
  6
CONTINUOUS
 62
     2
  5
402
 10
127.77325
 20
67.6745
 30
0.0
 11
127.77325
 21
68.463583
 31
0.0
  0
LINE
  8
3
  6
CONTINUOUS
 62
     2
  5
403
 10
127.77325
 20
68.463583
 30
0.0
 11
128.184833
 21
68.463583
 31
0.0
  0
LINE
  8
3
  6
CONTINUOUS
 62
     2
  5
404
 10
128.184833
 20
68.463583
 30
0.0
 11
128.274833
 21
68.463583
 31
0.0
  0
SOLID
  8
3
  6
CONTINUOUS
 62
     2
  5
405
 10
127.912333
 20
67.766
 30
0.0
 11
127.870667
 21
67.766
 31
0.0
 12
127.8915
 22
67.641
 32
0.0
 13
127.8915
 23
67.641
 33
0.0
  0
LINE
  8
3
  6
CONTINUOUS
 62
     2
  5
406
 10
127.8915
 20
67.766
 30
0.0
 11
127.8915
 21
68.01525
 31
0.0
  0
LINE
  8
3
  6
CONTINUOUS
 62
     2
  5
407
 10
127.8915
 20
68.01525
 30
0.0
 11
128.193167
 21
68.01525
 31
0.0
  0
LINE
  8
3
  6
CONTINUOUS
 62
     2
  5
408
 10
128.193167
 20
68.01525
 30
0.0
 11
128.283167
 21
68.01525
 31
0.0
  0
SOLID
  8
3
  6
CONTINUOUS
 62
     2
  5
409
 10
127.323
 20
68.1605
 30
0.0
 11
127.323
 21
68.118833
 31
0.0
 12
127.448
 22
68.139667
 32
0.0
 13
127.448
 23
68.139667
 33
0.0
  0
LINE
  8
3
  6
CONTINUOUS
 62
     2
  5
40A
 10
127.323
 20
68.139667
 30
0.0
 11
127.162917
 21
68.139667
 31
0.0
  0
LINE
  8
3
  6
CONTINUOUS
 62
     2
  5
40B
 10
127.162917
 20
68.139667
 30
0.0
 11
127.072917
 21
68.139667
 31
0.0
  0
SOLID
  8
3
  6
CONTINUOUS
 62
     2
  5
40C
 10
128.189667
 20
67.0655
 30
0.0
 11
128.225917
 21
67.086083
 31
0.0
 12
128.145833
 22
67.184417
 32
0.0
 13
128.145833
 23
67.184417
 33
0.0
  0
LINE
  8
3
  6
CONTINUOUS
 62
     2
  5
40D
 10
128.20775
 20
67.075833
 30
0.0
 11
128.4545
 21
66.643583
 31
0.0
  0
LINE
  8
3
  6
CONTINUOUS
 62
     2
  5
40E
 10
128.4545
 20
66.643583
 30
0.0
 11
128.76325
 21
66.643583
 31
0.0
  0
LINE
  8
3
  6
CONTINUOUS
 62
     2
  5
40F
 10
128.76325
 20
66.643583
 30
0.0
 11
128.85325
 21
66.643583
 31
0.0
  0
SOLID
  8
3
  6
CONTINUOUS
 62
     2
  5
410
 10
127.834417
 20
65.7755
 30
0.0
 11
127.834417
 21
65.817083
 31
0.0
 12
127.709417
 22
65.796333
 32
0.0
 13
127.709417
 23
65.796333
 33
0.0
  0
LINE
  8
3
  6
CONTINUOUS
 62
     2
  5
411
 10
127.834417
 20
65.796333
 30
0.0
 11
128.906333
 21
65.796333
 31
0.0
  0
LINE
  8
3
  6
CONTINUOUS
 62
     2
  5
412
 10
128.906333
 20
65.796333
 30
0.0
 11
128.996333
 21
65.796333
 31
0.0
  0
LINE
  8
1
  6
CONTINUOUS
 62
     7
  5
413
 10
127.39225
 20
64.990583
 30
0.0
 11
125.620417
 21
64.990583
 31
0.0
  0
LINE
  8
1
  6
CONTINUOUS
 62
     7
  5
414
 10
127.395917
 20
67.633583
 30
0.0
 11
125.620417
 21
67.633583
 31
0.0
  0
LINE
  8
1
  6
CONTINUOUS
 62
     7
  5
415
 10
125.800417
 20
65.115583
 30
0.0
 11
125.800417
 21
67.508583
 31
0.0
  0
SOLID
  8
1
  6
CONTINUOUS
 62
     7
  5
416
 10
125.779583
 20
65.115583
 30
0.0
 11
125.82125
 21
65.115583
 31
0.0
 12
125.800417
 22
64.990583
 32
0.0
 13
125.800417
 23
64.990583
 33
0.0
  0
SOLID
  8
1
  6
CONTINUOUS
 62
     7
  5
417
 10
125.779583
 20
67.508583
 30
0.0
 11
125.82125
 21
67.508583
 31
0.0
 12
125.800417
 22
67.633583
 32
0.0
 13
125.800417
 23
67.633583
 33
0.0
  0
LINE
  8
6
  6
CONTINUOUS
 62
     7
  5
418
 10
127.45475
 20
64.990583
 30
0.0
 11
127.454833
 21
64.990583
 31
0.0
  0
LINE
  8
6
  6
CONTINUOUS
 62
     7
  5
419
 10
127.458417
 20
67.633583
 30
0.0
 11
127.4585
 21
67.633583
 31
0.0
  0
LINE
  8
6
  6
CONTINUOUS
 62
     7
  5
41A
 10
125.800417
 20
67.633583
 30
0.0
 11
125.8005
 21
67.633583
 31
0.0
  0
TEXT
  8
3
  6
CONTINUOUS
 62
     2
  5
41C
 10
128.460917
 20
68.820417
 30
0.0
 40
0.15
  1
J-Bolt
 41
0.85
  7
MONOTXT
210
0.0
220
0.0
230
1.0
  0
TEXT
  8
3
  6
CONTINUOUS
 62
     2
  5
41D
 10
128.390667
 20
68.380333
 30
0.0
 40
0.15
  1
Grate
 41
0.85
  7
MONOTXT
210
0.0
220
0.0
230
1.0
  0
TEXT
  8
3
  6
CONTINUOUS
 62
     2
  5
41E
 10
128.367
 20
67.931917
 30
0.0
 40
0.15
  1
Clamp
 41
0.85
  7
MONOTXT
210
0.0
220
0.0
230
1.0
  0
TEXT
  8
3
  6
CONTINUOUS
 62
     2
  5
41F
 10
126.886167
 20
68.048167
 30
0.0
 40
0.15
  1
2"
 41
0.85
  7
MONOTXT
210
0.0
220
0.0
230
1.0
  0
TEXT
  8
3
  6
CONTINUOUS
 62
     2
  5
420
 10
128.85075
 20
66.710333
 30
0.0
 40
0.15
  1
Serpentine
 41
0.85
  7
MONOTXT
210
0.0
220
0.0
230
1.0
  0
TEXT
  8
3
  6
CONTINUOUS
 62
     2
  5
421
 10
128.85075
 20
66.45325
 30
0.0
 40
0.15
  1
Rebar
 41
0.85
  7
MONOTXT
210
0.0
220
0.0
230
1.0
  0
TEXT
  8
3
  6
CONTINUOUS
 62
     2
  5
422
 10
128.859
 20
65.837417
 30
0.0
 40
0.15
  1
Removable
 41
0.85
  7
MONOTXT
210
0.0
220
0.0
230
1.0
  0
TEXT
  8
3
  6
CONTINUOUS
 62
     2
  5
423
 10
128.859
 20
65.580333
 30
0.0
 40
0.15
  1
Form
 41
0.85
  7
MONOTXT
210
0.0
220
0.0
230
1.0
  0
TEXT
  8
3
  6
CONTINUOUS
 62
     2
  5
424
 10
125.903333
 20
66.211667
 30
0.0
 40
0.15
  1
4" Minimum
 41
0.85
  7
MONOTXT
210
0.0
220
0.0
230
1.0
  0
TEXT
  8
3
  6
CONTINUOUS
 62
     2
  5
425
 10
125.903333
 20
65.9545
 30
0.0
 40
0.15
  1
Slot Height
 41
0.85
  7
MONOTXT
210
0.0
220
0.0
230
1.0
  0
TEXT
  8
3
  6
CONTINUOUS
 62
     2
  5
426
 10
129.460583
 20
67.805333
 30
0.0
 40
0.15
  1
This slot is not acceptable
 41
0.85
  7
MONOTXT
210
0.0
220
0.0
230
1.0
  0
TEXT
  8
3
  6
CONTINUOUS
 62
     2
  5
427
 10
129.460583
 20
67.548167
 30
0.0
 40
0.15
  1
for use adjacent to
 41
0.85
  7
MONOTXT
210
0.0
220
0.0
230
1.0
  0
TEXT
  8
3
  6
CONTINUOUS
 62
     2
  5
428
 10
129.460583
 20
67.291083
 30
0.0
 40
0.15
  1
bituminous concrete.
 41
0.85
  7
MONOTXT
210
0.0
220
0.0
230
1.0
  0
TEXT
  8
3
  6
CONTINUOUS
 62
     2
  5
429
 10
126.324083
 20
63.6065
 30
0.0
 40
0.322333
  1
TYPE 2 SLOT
 41
0.850052
  7
MONOTXT
210
0.0
220
0.0
230
1.0
  0
TEXT
  8
3
  6
CONTINUOUS
 62
     2
  5
42A
 10
135.97725
 20
77.143417
 30
0.0
 40
0.322333
  1
NOTES
 41
0.850052
  7
MONOTXT
210
0.0
220
0.0
230
1.0
  0
TEXT
  8
3
  6
CONTINUOUS
 62
     2
  5
42B
 10
125.715583
 20
76.469167
 30
0.0
 40
0.4845
  1
SLOT DETAILS
 41
0.850017
  7
MONOTXT
210
0.0
220
0.0
230
1.0
  0
POINT
  8
1
  6
DASHED
 62
     2
  5
42C
 10
107.534833
 20
78.387583
 30
0.0
  0
POINT
  8
1
  6
DASHED
 62
     2
  5
42D
 10
140.759833
 20
57.267583
 30
0.0
  0
LINE
  8
1
  6
DASHED
 62
     4
  5
42E
 10
140.630167
 20
78.867583
 30
0.0
 11
105.430167
 21
78.867583
 31
0.0
  0
LINE
  8
1
  6
DASHED
 62
     4
  5
42F
 10
140.630167
 20
56.867583
 30
0.0
 11
105.430167
 21
56.867583
 31
0.0
  0
LINE
  8
1
  6
DASHED
 62
     4
  5
430
 10
107.005167
 20
78.867583
 30
0.0
 11
107.005167
 21
56.867583
 31
0.0
  0
LINE
  8
1
  6
CONTINUOUS
 62
   140
  5
431
 10
108.046833
 20
78.367583
 30
0.0
 11
108.046833
 21
57.367583
 31
0.0
  0
LINE
  8
1
  6
CONTINUOUS
 62
   140
  5
432
 10
140.546833
 20
78.367583
 30
0.0
 11
108.046833
 21
78.367583
 31
0.0
  0
LINE
  8
1
  6
CONTINUOUS
 62
   140
  5
433
 10
140.546833
 20
78.367583
 30
0.0
 11
140.546833
 21
57.367583
 31
0.0
  0
LINE
  8
1
  6
CONTINUOUS
 62
   140
  5
434
 10
140.546833
 20
57.367583
 30
0.0
 11
108.046833
 21
57.367583
 31
0.0
  0
LINE
  8
1
  6
CONTINUOUS
 62
   140
  5
435
 10
107.796833
 20
74.467583
 30
0.0
 11
107.396833
 21
74.467583
 31
0.0
  0
LINE
  8
1
  6
CONTINUOUS
 62
   140
  5
436
 10
107.796833
 20
71.667583
 30
0.0
 11
107.396833
 21
71.667583
 31
0.0
  0
LINE
  8
1
  6
CONTINUOUS
 62
   140
  5
437
 10
107.796833
 20
64.067583
 30
0.0
 11
107.396833
 21
64.067583
 31
0.0
  0
LINE
  8
1
  6
CONTINUOUS
 62
   140
  5
438
 10
107.796833
 20
61.267583
 30
0.0
 11
107.396833
 21
61.267583
 31
0.0
  0
CIRCLE
  8
1
  6
CONTINUOUS
 62
   140
  5
439
 10
107.546833
 20
74.467583
 30
0.0
 40
0.125
210
0.0
220
0.0
230
1.0
  0
CIRCLE
  8
1
  6
CONTINUOUS
 62
   140
  5
43A
 10
107.546833
 20
71.667583
 30
0.0
 40
0.125
210
0.0
220
0.0
230
1.0
  0
CIRCLE
  8
1
  6
CONTINUOUS
 62
   140
  5
43B
 10
107.546833
 20
64.067583
 30
0.0
 40
0.125
210
0.0
220
0.0
230
1.0
  0
CIRCLE
  8
1
  6
CONTINUOUS
 62
   140
  5
43C
 10
107.546833
 20
61.267583
 30
0.0
 40
0.125
210
0.0
220
0.0
230
1.0
  0
TEXT
  8
1
  6
CONTINUOUS
 62
   140
  5
43E
 10
137.002583
 20
57.275833
 30
0.0
 40
0.06
  1
$$$$$$$$$FILENAME$$$$$$$$
  7
txt
 11
137.002583
 21
57.305833
 31
0.0
210
0.0
220
0.0
230
1.0
 73
     2
  0
TEXT
  8
1
  6
CONTINUOUS
 62
   140
  5
43F
 10
138.726667
 20
57.275833
 30
0.0
 40
0.06
  1
$USERNAME$
  7
txt
 11
138.726667
 21
57.305833
 31
0.0
210
0.0
220
0.0
230
1.0
 73
     2
  0
TEXT
  8
1
  6
CONTINUOUS
 62
   140
  5
440
 10
139.50025
 20
57.275833
 30
0.0
 40
0.06
  1
DD-MMM-YYYY HH:MM
  7
txt
 11
139.50025
 21
57.305833
 31
0.0
210
0.0
220
0.0
230
1.0
 73
     2
  0
POINT
  8
1
  6
CONTINUOUS
 62
   140
  5
441
 10
108.046833
 20
57.367583
 30
0.0
  0
POINT
  8
1
  6
CONTINUOUS
 62
   140
  5
442
 10
108.046833
 20
78.367583
 30
0.0
  0
POINT
  8
1
  6
CONTINUOUS
 62
   140
  5
443
 10
140.546833
 20
78.367583
 30
0.0
  0
POINT
  8
1
  6
CONTINUOUS
 62
   140
  5
444
 10
140.546833
 20
57.367583
 30
0.0
  0
LINE
  8
1
  6
CONTINUOUS
 62
   140
  5
445
 10
140.546833
 20
57.367583
 30
0.0
 11
140.546833
 21
59.866583
 31
0.0
  0
LINE
  8
1
  6
CONTINUOUS
 62
   140
  5
446
 10
140.546833
 20
60.857417
 30
0.0
 11
133.442083
 21
60.857417
 31
0.0
  0
LINE
  8
1
  6
CONTINUOUS
 62
   140
  5
447
 10
140.546833
 20
57.367583
 30
0.0
 11
134.546833
 21
57.367583
 31
0.0
  0
LINE
  8
1
  6
CONTINUOUS
 62
   140
  5
448
 10
134.98
 20
59.266583
 30
0.0
 11
133.442083
 21
59.266583
 31
0.0
  0
LINE
  8
1
  6
CONTINUOUS
 62
   140
  5
449
 10
134.98
 20
59.067583
 30
0.0
 11
133.442083
 21
59.067583
 31
0.0
  0
LINE
  8
1
  6
CONTINUOUS
 62
   140
  5
44A
 10
134.98
 20
58.868583
 30
0.0
 11
133.442083
 21
58.868583
 31
0.0
  0
LINE
  8
1
  6
CONTINUOUS
 62
   140
  5
44B
 10
134.98
 20
58.669583
 30
0.0
 11
133.442083
 21
58.669583
 31
0.0
  0
LINE
  8
1
  6
CONTINUOUS
 62
   140
  5
44C
 10
134.98
 20
58.470583
 30
0.0
 11
133.442083
 21
58.470583
 31
0.0
  0
LINE
  8
1
  6
CONTINUOUS
 62
   140
  5
44D
 10
134.98
 20
58.271583
 30
0.0
 11
133.442083
 21
58.271583
 31
0.0
  0
LINE
  8
1
  6
CONTINUOUS
 62
   140
  5
44E
 10
134.98
 20
58.072583
 30
0.0
 11
133.442083
 21
58.072583
 31
0.0
  0
LINE
  8
1
  6
CONTINUOUS
 62
   140
  5
44F
 10
134.98
 20
57.873583
 30
0.0
 11
133.442083
 21
57.873583
 31
0.0
  0
LINE
  8
1
  6
CONTINUOUS
 62
   140
  5
450
 10
134.98
 20
57.674583
 30
0.0
 11
133.442083
 21
57.674583
 31
0.0
  0
TEXT
  8
1
  6
CONTINUOUS
 62
   140
  5
451
 10
133.749167
 20
59.313917
 30
0.0
 40
0.079
  1
REVISION DATE
 41
1.003165
  7
MONOTXT
210
0.0
220
0.0
230
1.0
  0
LINE
  8
1
  6
CONTINUOUS
 62
   140
  5
452
 10
133.442083
 20
60.857417
 30
0.0
 11
133.442083
 21
57.367583
 31
0.0
  0
TEXT
  8
1
  6
CONTINUOUS
 62
   140
  5
454
 10
134.20075
 20
60.6025
 30
0.0
 40
0.1875
  1
WEST VIRGINIA DEPARTMENT OF TRANSPORTATION
  7
ROMANT
 72
     4
 11
136.971083
 21
60.69625
 31
0.0
210
0.0
220
0.0
230
1.0
  0
TEXT
  8
1
  6
CONTINUOUS
 62
   140
  5
455
 10
135.773583
 20
60.393583
 30
0.0
 40
0.1875
  1
DIVISION OF HIGHWAYS
  7
ROMANT
 72
     4
 11
136.993083
 21
60.487333
 31
0.0
210
0.0
220
0.0
230
1.0
  0
TEXT
  8
1
  6
CONTINUOUS
 62
   140
  5
456
 10
136.003667
 20
60.195417
 30
0.0
 40
0.1875
  1
STANDARD DETAIL
  7
ROMANT
 72
     4
 11
136.98175
 21
60.289167
 31
0.0
210
0.0
220
0.0
230
1.0
  0
LINE
  8
1
  6
CONTINUOUS
 62
   140
  5
457
 10
134.98
 20
59.466583
 30
0.0
 11
133.442083
 21
59.466583
 31
0.0
  0
LINE
  8
1
  6
CONTINUOUS
 62
   140
  5
458
 10
134.98
 20
57.367583
 30
0.0
 11
134.98
 21
59.466583
 31
0.0
  0
TEXT
  8
1
  6
CONTINUOUS
 62
     2
  5
459
 10
135.623333
 20
57.584667
 30
0.0
 40
0.166667
  1
STANDARD SHEET DR6-S     
  7
txt
 72
     4
 11
137.662667
 21
57.668
 31
0.0
210
0.0
220
0.0
230
1.0
  0
TEXT
  8
1
  6
CONTINUOUS
 62
     2
  5
45A
 10
134.943583
 20
59.729667
 30
0.0
 40
0.208333
  1
                        
  7
txt
 72
     4
 11
137.408833
 21
59.833833
 31
0.0
210
0.0
220
0.0
230
1.0
  0
TEXT
  8
1
  6
CONTINUOUS
 62
   140
  5
45B
 10
134.94925
 20
59.358083
 30
0.0
 40
0.208333
  1
                        
  7
txt
 72
     4
 11
137.4145
 21
59.46225
 31
0.0
210
0.0
220
0.0
230
1.0
  0
TEXT
  8
1
  6
CONTINUOUS
 62
     2
  5
45C
 10
135.319833
 20
58.98275
 30
0.0
 40
0.208333
  1
       SLOT INLET       
  7
txt
 72
     4
 11
137.771417
 21
59.086917
 31
0.0
210
0.0
220
0.0
230
1.0
  0
TEXT
  8
1
  6
CONTINUOUS
 62
     2
  5
45D
 10
134.949167
 20
58.632417
 30
0.0
 40
0.208333
  1
                        
  7
txt
 72
     4
 11
137.414417
 21
58.736583
 31
0.0
210
0.0
220
0.0
230
1.0
  0
TEXT
  8
1
  6
CONTINUOUS
 62
     2
  5
45E
 10
134.949167
 20
58.282083
 30
0.0
 40
0.208333
  1
                        
  7
txt
 72
     4
 11
137.414417
 21
58.38625
 31
0.0
210
0.0
220
0.0
230
1.0
  0
TEXT
  8
1
  6
CONTINUOUS
 62
     2
  5
460
 10
133.477167
 20
59.104
 30
0.0
 40
0.083333
  1
                  
  7
ROMANS
 72
     4
 11
134.21325
 21
59.145667
 31
0.0
210
0.0
220
0.0
230
1.0
  0
TEXT
  8
1
  6
CONTINUOUS
 62
     2
  5
461
 10
133.477167
 20
58.905
 30
0.0
 40
0.083333
  1
                  
  7
ROMANS
 72
     4
 11
134.21325
 21
58.946667
 31
0.0
210
0.0
220
0.0
230
1.0
  0
TEXT
  8
1
  6
CONTINUOUS
 62
     2
  5
462
 10
133.477167
 20
58.706
 30
0.0
 40
0.083333
  1
                  
  7
ROMANS
 72
     4
 11
134.21325
 21
58.747667
 31
0.0
210
0.0
220
0.0
230
1.0
  0
TEXT
  8
1
  6
CONTINUOUS
 62
     2
  5
463
 10
133.477167
 20
58.507
 30
0.0
 40
0.083333
  1
                  
  7
ROMANS
 72
     4
 11
134.21325
 21
58.548667
 31
0.0
210
0.0
220
0.0
230
1.0
  0
TEXT
  8
1
  6
CONTINUOUS
 62
     2
  5
464
 10
133.477167
 20
58.308
 30
0.0
 40
0.083333
  1
                  
  7
ROMANS
 72
     4
 11
134.21325
 21
58.349667
 31
0.0
210
0.0
220
0.0
230
1.0
  0
TEXT
  8
1
  6
CONTINUOUS
 62
     2
  5
465
 10
133.477167
 20
58.109
 30
0.0
 40
0.083333
  1
                  
  7
ROMANS
 72
     4
 11
134.21325
 21
58.150667
 31
0.0
210
0.0
220
0.0
230
1.0
  0
TEXT
  8
1
  6
CONTINUOUS
 62
     2
  5
466
 10
133.477167
 20
57.91
 30
0.0
 40
0.083333
  1
                  
  7
ROMANS
 72
     4
 11
134.21325
 21
57.951667
 31
0.0
210
0.0
220
0.0
230
1.0
  0
TEXT
  8
1
  6
CONTINUOUS
 62
     2
  5
467
 10
133.477167
 20
57.711
 30
0.0
 40
0.083333
  1
                  
  7
ROMANS
 72
     4
 11
134.21325
 21
57.752667
 31
0.0
210
0.0
220
0.0
230
1.0
  0
TEXT
  8
1
  6
CONTINUOUS
 62
     2
  5
468
 10
133.475583
 20
57.506833
 30
0.0
 40
0.083333
  1
                  
  7
ROMANS
 72
     4
 11
134.211667
 21
57.5485
 31
0.0
210
0.0
220
0.0
230
1.0
  0
POINT
  8
1
  6
DASHED
 62
     2
  5
469
 10
107.534833
 20
78.387583
 30
0.0
  0
POINT
  8
1
  6
DASHED
 62
     2
  5
46A
 10
140.759833
 20
57.267583
 30
0.0
  0
TEXT
  8
1
  6
CONTINUOUS
 62
   140
  5
46B
 10
108.094833
 20
57.246583
 30
0.0
 40
0.06
  1
P5A1G92-STDBOR a
  7
MONOTXT
210
0.0
220
0.0
230
1.0
  0
LINE
  8
1
  6
CONTINUOUS
 62
   233
  5
46C
 10
112.307
 20
73.971083
 30
0.0
 11
112.254583
 21
73.971083
 31
0.0
  0
LINE
  8
1
  6
CONTINUOUS
 62
   233
  5
46D
 10
112.254583
 20
73.971083
 30
0.0
 11
109.689417
 21
74.21225
 31
0.0
  0
LINE
  8
1
  6
CONTINUOUS
 62
   233
  5
46E
 10
112.254583
 20
73.971083
 30
0.0
 11
112.254583
 21
71.81975
 31
0.0
  0
LINE
  8
1
  6
CONTINUOUS
 62
   233
  5
46F
 10
112.307
 20
73.971083
 30
0.0
 11
112.307
 21
71.838917
 31
0.0
  0
LINE
  8
1
  6
CONTINUOUS
 62
   233
  5
470
 10
112.254583
 20
72.955667
 30
0.0
 11
109.577083
 21
73.207333
 31
0.0
  0
LINE
  8
1
  6
CONTINUOUS
 62
   233
  5
471
 10
112.307
 20
73.971083
 30
0.0
 11
112.6695
 21
73.971083
 31
0.0
  0
LINE
  8
1
  6
CONTINUOUS
 62
   233
  5
472
 10
110.381917
 20
70.895583
 30
0.0
 11
109.434083
 21
70.98475
 31
0.0
  0
LINE
  8
1
  6
CONTINUOUS
 62
   233
  5
473
 10
110.381917
 20
70.895583
 30
0.0
 11
110.381917
 21
69.134917
 31
0.0
  0
LINE
  8
1
  6
CONTINUOUS
 62
   233
  5
474
 10
110.381917
 20
69.134917
 30
0.0
 11
112.520917
 21
69.134917
 31
0.0
  0
ARC
  8
1
  6
CONTINUOUS
 62
   233
  5
475
 10
112.48745
 20
70.639883
 30
0.0
 40
1.202614
 50
98.630642
 51
268.180214
210
0.0
220
0.0
230
1.0
  0
ARC
  8
1
  6
CONTINUOUS
 62
   233
  5
476
 10
112.48745
 20
70.639883
 30
0.0
 40
1.319842
 50
100.164247
 51
268.249411
210
0.0
220
0.0
230
1.0
  0
LINE
  8
1
  6
CONTINUOUS
 62
   233
  5
477
 10
110.381917
 20
70.595667
 30
0.0
 11
111.168417
 21
70.595667
 31
0.0
  0
LINE
  8
1
  6
CONTINUOUS
 62
   233
  5
478
 10
110.785083
 20
70.595667
 30
0.0
 11
110.785083
 21
70.598917
 31
0.0
  0
LINE
  8
1
  6
CONTINUOUS
 62
   233
  5
479
 10
110.785083
 20
70.663583
 30
0.0
 11
111.094333
 21
70.663583
 31
0.0
  0
LINE
  8
1
  6
CONTINUOUS
 62
   233
  5
47A
 10
111.325417
 20
71.26575
 30
0.0
 11
111.26075
 21
71.300583
 31
0.0
  0
ARC
  8
1
  6
CONTINUOUS
 62
   233
  5
47B
 10
112.48745
 20
70.639883
 30
0.0
 40
1.393367
 50
151.693331
 51
179.027403
210
0.0
220
0.0
230
1.0
  0
LINE
  8
1
  6
CONTINUOUS
 62
   233
  5
47C
 10
111.377
 20
71.101583
 30
0.0
 11
111.26875
 21
71.146583
 31
0.0
  0
LINE
  8
1
  6
CONTINUOUS
 62
   233
  5
47D
 10
111.343667
 20
71.01125
 30
0.0
 11
111.232083
 21
71.0475
 31
0.0
  0
LINE
  8
1
  6
CONTINUOUS
 62
   233
  5
47E
 10
111.305917
 20
70.86375
 30
0.0
 11
111.19075
 21
70.885583
 31
0.0
  0
LINE
  8
1
  6
CONTINUOUS
 62
   233
  5
47F
 10
111.290083
 20
70.75225
 30
0.0
 11
111.173417
 21
70.76325
 31
0.0
  0
LINE
  8
1
  6
CONTINUOUS
 62
   233
  5
480
 10
112.254583
 20
72.008333
 30
0.0
 11
112.19675
 21
72.011083
 31
0.0
  0
LINE
  8
1
  6
CONTINUOUS
 62
   233
  5
481
 10
112.19675
 20
72.011083
 30
0.0
 11
112.014083
 21
72.026917
 31
0.0
  0
LINE
  8
1
  6
CONTINUOUS
 62
   233
  5
482
 10
112.014083
 20
72.026917
 30
0.0
 11
111.9125
 21
72.045833
 31
0.0
  0
LINE
  8
1
  6
CONTINUOUS
 62
   233
  5
483
 10
111.9125
 20
72.045833
 30
0.0
 11
111.788917
 21
72.026917
 31
0.0
  0
LINE
  8
1
  6
CONTINUOUS
 62
   233
  5
484
 10
111.788917
 20
72.026917
 30
0.0
 11
111.618167
 21
72.0325
 31
0.0
  0
LINE
  8
1
  6
CONTINUOUS
 62
   233
  5
485
 10
111.618167
 20
72.0325
 30
0.0
 11
111.479917
 21
72.011083
 31
0.0
  0
LINE
  8
1
  6
CONTINUOUS
 62
   233
  5
486
 10
111.479917
 20
72.011083
 30
0.0
 11
111.30175
 21
72.026917
 31
0.0
  0
LINE
  8
1
  6
CONTINUOUS
 62
   233
  5
487
 10
111.30175
 20
72.026917
 30
0.0
 11
111.1735
 21
71.981917
 31
0.0
  0
LINE
  8
1
  6
CONTINUOUS
 62
   233
  5
488
 10
111.1735
 20
71.981917
 30
0.0
 11
111.07975
 21
71.90775
 31
0.0
  0
LINE
  8
1
  6
CONTINUOUS
 62
   233
  5
489
 10
111.07975
 20
71.90775
 30
0.0
 11
110.993333
 21
71.825667
 31
0.0
  0
LINE
  8
1
  6
CONTINUOUS
 62
   233
  5
48A
 10
110.993333
 20
71.825667
 30
0.0
 11
110.874583
 21
71.72225
 31
0.0
  0
LINE
  8
1
  6
CONTINUOUS
 62
   233
  5
48B
 10
110.874583
 20
71.72225
 30
0.0
 11
110.810167
 21
71.64825
 31
0.0
  0
LINE
  8
1
  6
CONTINUOUS
 62
   233
  5
48C
 10
110.810167
 20
71.64825
 30
0.0
 11
110.77075
 21
71.565667
 31
0.0
  0
LINE
  8
1
  6
CONTINUOUS
 62
   233
  5
48D
 10
110.77075
 20
71.565667
 30
0.0
 11
110.679083
 21
71.483583
 31
0.0
  0
LINE
  8
1
  6
CONTINUOUS
 62
   233
  5
48E
 10
110.679083
 20
71.483583
 30
0.0
 11
110.647083
 21
71.353917
 31
0.0
  0
LINE
  8
1
  6
CONTINUOUS
 62
   233
  5
48F
 10
110.647083
 20
71.353917
 30
0.0
 11
110.607417
 21
71.327333
 31
0.0
  0
LINE
  8
1
  6
CONTINUOUS
 62
   233
  5
490
 10
110.607417
 20
71.327333
 30
0.0
 11
110.575417
 21
71.269083
 31
0.0
  0
LINE
  8
1
  6
CONTINUOUS
 62
   233
  5
491
 10
110.575417
 20
71.269083
 30
0.0
 11
110.558167
 21
71.149583
 31
0.0
  0
LINE
  8
1
  6
CONTINUOUS
 62
   233
  5
492
 10
110.558167
 20
71.149583
 30
0.0
 11
110.558167
 21
71.110083
 31
0.0
  0
LINE
  8
1
  6
CONTINUOUS
 62
   233
  5
493
 10
110.558167
 20
71.110083
 30
0.0
 11
110.526083
 21
71.07025
 31
0.0
  0
LINE
  8
1
  6
CONTINUOUS
 62
   233
  5
494
 10
110.526083
 20
71.07025
 30
0.0
 11
110.441917
 21
70.979917
 31
0.0
  0
LINE
  8
1
  6
CONTINUOUS
 62
   233
  5
495
 10
110.441917
 20
70.979917
 30
0.0
 11
110.381917
 21
70.895583
 31
0.0
  0
LINE
  8
1
  6
CONTINUOUS
 62
   233
  5
496
 10
109.689417
 20
74.21225
 30
0.0
 11
109.6635
 21
74.172833
 31
0.0
  0
LINE
  8
1
  6
CONTINUOUS
 62
   233
  5
497
 10
109.6635
 20
74.172833
 30
0.0
 11
109.6635
 21
74.092083
 31
0.0
  0
LINE
  8
1
  6
CONTINUOUS
 62
   233
  5
498
 10
109.6635
 20
74.092083
 30
0.0
 11
109.674167
 21
73.999167
 31
0.0
  0
LINE
  8
1
  6
CONTINUOUS
 62
   233
  5
499
 10
109.674167
 20
73.999167
 30
0.0
 11
109.59875
 21
73.91325
 31
0.0
  0
LINE
  8
1
  6
CONTINUOUS
 62
   233
  5
49A
 10
109.59875
 20
73.91325
 30
0.0
 11
109.588333
 21
73.814333
 31
0.0
  0
LINE
  8
1
  6
CONTINUOUS
 62
   233
  5
49B
 10
109.588333
 20
73.814333
 30
0.0
 11
109.577083
 21
73.745667
 31
0.0
  0
LINE
  8
1
  6
CONTINUOUS
 62
   233
  5
49C
 10
109.577083
 20
73.745667
 30
0.0
 11
109.545083
 21
73.66475
 31
0.0
  0
LINE
  8
1
  6
CONTINUOUS
 62
   233
  5
49D
 10
109.545083
 20
73.66475
 30
0.0
 11
109.5555
 21
73.578
 31
0.0
  0
LINE
  8
1
  6
CONTINUOUS
 62
   233
  5
49E
 10
109.5555
 20
73.578
 30
0.0
 11
109.571417
 21
73.51425
 31
0.0
  0
LINE
  8
1
  6
CONTINUOUS
 62
   233
  5
49F
 10
109.571417
 20
73.51425
 30
0.0
 11
109.577083
 21
73.416417
 31
0.0
  0
LINE
  8
1
  6
CONTINUOUS
 62
   233
  5
4A0
 10
109.577083
 20
73.416417
 30
0.0
 11
109.59875
 21
73.358583
 31
0.0
  0
LINE
  8
1
  6
CONTINUOUS
 62
   233
  5
4A1
 10
109.59875
 20
73.358583
 30
0.0
 11
109.620333
 21
73.277917
 31
0.0
  0
LINE
  8
1
  6
CONTINUOUS
 62
   233
  5
4A2
 10
109.620333
 20
73.277917
 30
0.0
 11
109.577083
 21
73.219333
 31
0.0
  0
LINE
  8
1
  6
CONTINUOUS
 62
   233
  5
4A3
 10
109.577083
 20
73.219333
 30
0.0
 11
109.577083
 21
73.098333
 31
0.0
  0
LINE
  8
1
  6
CONTINUOUS
 62
   233
  5
4A4
 10
109.577083
 20
73.098333
 30
0.0
 11
109.588333
 21
73.052833
 31
0.0
  0
LINE
  8
1
  6
CONTINUOUS
 62
   233
  5
4A5
 10
109.588333
 20
73.052833
 30
0.0
 11
109.571417
 21
72.977083
 31
0.0
  0
LINE
  8
1
  6
CONTINUOUS
 62
   233
  5
4A6
 10
109.571417
 20
72.977083
 30
0.0
 11
109.561
 21
72.942667
 31
0.0
  0
LINE
  8
1
  6
CONTINUOUS
 62
   233
  5
4A7
 10
109.561
 20
72.942667
 30
0.0
 11
109.5555
 21
72.908333
 31
0.0
  0
LINE
  8
1
  6
CONTINUOUS
 62
   233
  5
4A8
 10
109.5555
 20
72.908333
 30
0.0
 11
109.588333
 21
72.86175
 31
0.0
  0
LINE
  8
1
  6
CONTINUOUS
 62
   233
  5
4A9
 10
109.588333
 20
72.86175
 30
0.0
 11
109.588333
 21
72.71125
 31
0.0
  0
LINE
  8
1
  6
CONTINUOUS
 62
   233
  5
4AA
 10
109.588333
 20
72.71125
 30
0.0
 11
109.59875
 21
72.664917
 31
0.0
  0
LINE
  8
1
  6
CONTINUOUS
 62
   233
  5
4AB
 10
109.59875
 20
72.664917
 30
0.0
 11
109.588333
 21
72.59625
 31
0.0
  0
LINE
  8
1
  6
CONTINUOUS
 62
   233
  5
4AC
 10
109.588333
 20
72.59625
 30
0.0
 11
109.577083
 21
72.520583
 31
0.0
  0
LINE
  8
1
  6
CONTINUOUS
 62
   233
  5
4AD
 10
109.577083
 20
72.520583
 30
0.0
 11
109.59875
 21
72.434583
 31
0.0
  0
LINE
  8
1
  6
CONTINUOUS
 62
   233
  5
4AE
 10
109.59875
 20
72.434583
 30
0.0
 11
109.571417
 21
72.38825
 31
0.0
  0
LINE
  8
1
  6
CONTINUOUS
 62
   233
  5
4AF
 10
109.571417
 20
72.38825
 30
0.0
 11
109.561
 21
72.353167
 31
0.0
  0
LINE
  8
1
  6
CONTINUOUS
 62
   233
  5
4B0
 10
109.561
 20
72.353167
 30
0.0
 11
109.56675
 21
72.290417
 31
0.0
  0
LINE
  8
1
  6
CONTINUOUS
 62
   233
  5
4B1
 10
109.56675
 20
72.290417
 30
0.0
 11
109.5235
 21
72.220667
 31
0.0
  0
LINE
  8
1
  6
CONTINUOUS
 62
   233
  5
4B2
 10
109.5235
 20
72.220667
 30
0.0
 11
109.51775
 21
72.059
 31
0.0
  0
LINE
  8
1
  6
CONTINUOUS
 62
   233
  5
4B3
 10
109.51775
 20
72.059
 30
0.0
 11
109.480083
 21
72.00675
 31
0.0
  0
LINE
  8
1
  6
CONTINUOUS
 62
   233
  5
4B4
 10
109.480083
 20
72.00675
 30
0.0
 11
109.491167
 21
71.920833
 31
0.0
  0
LINE
  8
1
  6
CONTINUOUS
 62
   233
  5
4B5
 10
109.491167
 20
71.920833
 30
0.0
 11
109.507333
 21
71.845083
 31
0.0
  0
LINE
  8
1
  6
CONTINUOUS
 62
   233
  5
4B6
 10
109.507333
 20
71.845083
 30
0.0
 11
109.48575
 21
71.764417
 31
0.0
  0
LINE
  8
1
  6
CONTINUOUS
 62
   233
  5
4B7
 10
109.48575
 20
71.764417
 30
0.0
 11
109.480083
 21
71.65425
 31
0.0
  0
LINE
  8
1
  6
CONTINUOUS
 62
   233
  5
4B8
 10
109.480083
 20
71.65425
 30
0.0
 11
109.491167
 21
71.55625
 31
0.0
  0
LINE
  8
1
  6
CONTINUOUS
 62
   233
  5
4B9
 10
109.491167
 20
71.55625
 30
0.0
 11
109.448
 21
71.4755
 31
0.0
  0
LINE
  8
1
  6
CONTINUOUS
 62
   233
  5
4BA
 10
109.448
 20
71.4755
 30
0.0
 11
109.458417
 21
71.383333
 31
0.0
  0
LINE
  8
1
  6
CONTINUOUS
 62
   233
  5
4BB
 10
109.458417
 20
71.383333
 30
0.0
 11
109.416
 21
71.284667
 31
0.0
  0
LINE
  8
1
  6
CONTINUOUS
 62
   233
  5
4BC
 10
109.416
 20
71.284667
 30
0.0
 11
109.44225
 21
71.180583
 31
0.0
  0
LINE
  8
1
  6
CONTINUOUS
 62
   233
  5
4BD
 10
109.44225
 20
71.180583
 30
0.0
 11
109.431833
 21
71.105917
 31
0.0
  0
LINE
  8
1
  6
CONTINUOUS
 62
   233
  5
4BE
 10
109.431833
 20
71.105917
 30
0.0
 11
109.448
 21
71.054083
 31
0.0
  0
LINE
  8
1
  6
CONTINUOUS
 62
   233
  5
4BF
 10
109.448
 20
71.054083
 30
0.0
 11
109.434083
 21
70.98475
 31
0.0
  0
LINE
  8
1
  6
CONTINUOUS
 62
   233
  5
4C0
 10
111.289667
 20
71.284667
 30
0.0
 11
111.219917
 21
71.198583
 31
0.0
  0
LINE
  8
1
  6
CONTINUOUS
 62
   233
  5
4C1
 10
111.3175
 20
71.27
 30
0.0
 11
111.166667
 21
71.083667
 31
0.0
  0
LINE
  8
1
  6
CONTINUOUS
 62
   233
  5
4C2
 10
111.282083
 20
71.1775
 30
0.0
 11
111.143
 21
71.005667
 31
0.0
  0
LINE
  8
1
  6
CONTINUOUS
 62
   233
  5
4C3
 10
111.167667
 20
70.64925
 30
0.0
 11
111.124333
 21
70.595667
 31
0.0
  0
LINE
  8
1
  6
CONTINUOUS
 62
   233
  5
4C4
 10
111.227
 20
71.03125
 30
0.0
 11
111.117917
 21
70.896583
 31
0.0
  0
LINE
  8
1
  6
CONTINUOUS
 62
   233
  5
4C5
 10
111.20325
 20
70.944583
 30
0.0
 11
111.106417
 21
70.824917
 31
0.0
  0
LINE
  8
1
  6
CONTINUOUS
 62
   233
  5
4C6
 10
111.1825
 20
70.837417
 30
0.0
 11
111.10125
 21
70.737083
 31
0.0
  0
LINE
  8
1
  6
CONTINUOUS
 62
   233
  5
4C7
 10
111.171
 20
70.7595
 30
0.0
 11
111.10125
 21
70.67325
 31
0.0
  0
LINE
  8
1
  6
CONTINUOUS
 62
   233
  5
4C8
 10
111.16975
 20
70.715167
 30
0.0
 11
111.079667
 21
70.603833
 31
0.0
  0
LINE
  8
1
  6
CONTINUOUS
 62
   233
  5
4C9
 10
111.051417
 20
70.663583
 30
0.0
 11
110.994
 21
70.592583
 31
0.0
  0
LINE
  8
1
  6
CONTINUOUS
 62
   233
  5
4CA
 10
110.986417
 20
70.663583
 30
0.0
 11
110.931417
 21
70.595667
 31
0.0
  0
LINE
  8
1
  6
CONTINUOUS
 62
   233
  5
4CB
 10
110.9175
 20
70.663583
 30
0.0
 11
110.864083
 21
70.597583
 31
0.0
  0
LINE
  8
1
  6
CONTINUOUS
 62
   233
  5
4CC
 10
110.785083
 20
70.598917
 30
0.0
 11
110.784
 21
70.597583
 31
0.0
  0
LINE
  8
1
  6
CONTINUOUS
 62
   233
  5
4CD
 10
110.785083
 20
70.663583
 30
0.0
 11
110.785083
 21
70.595667
 31
0.0
  0
LINE
  8
1
  6
CONTINUOUS
 62
   233
  5
4CE
 10
110.858167
 20
70.663583
 30
0.0
 11
110.80475
 21
70.597583
 31
0.0
  0
LINE
  8
1
  6
CONTINUOUS
 62
   233
  5
4CF
 10
112.307
 20
71.838917
 30
0.0
 11
112.307
 21
71.828917
 31
0.0
  0
POINT
  8
5
  6
CONTINUOUS
 62
    99
  5
4D0
 10
110.640417
 20
71.293917
 30
0.0
  0
POINT
  8
5
  6
CONTINUOUS
 62
    99
  5
4D1
 10
110.700417
 20
71.293917
 30
0.0
  0
POINT
  8
5
  6
CONTINUOUS
 62
    99
  5
4D2
 10
110.820333
 20
71.293917
 30
0.0
  0
POINT
  8
5
  6
CONTINUOUS
 62
    99
  5
4D3
 10
110.880417
 20
71.293917
 30
0.0
  0
POINT
  8
5
  6
CONTINUOUS
 62
    99
  5
4D4
 10
110.940417
 20
71.293917
 30
0.0
  0
POINT
  8
5
  6
CONTINUOUS
 62
    99
  5
4D5
 10
111.000417
 20
71.293917
 30
0.0
  0
POINT
  8
5
  6
CONTINUOUS
 62
    99
  5
4D6
 10
111.120333
 20
71.293917
 30
0.0
  0
POINT
  8
1
  6
CONTINUOUS
 62
     7
  5
4D7
 10
111.180417
 20
71.293917
 30
0.0
  0
POINT
  8
1
  6
CONTINUOUS
 62
     7
  5
4D8
 10
111.240417
 20
71.293917
 30
0.0
  0
POINT
  8
1
  6
CONTINUOUS
 62
     7
  5
4D9
 10
111.300417
 20
71.293917
 30
0.0
  0
POINT
  8
1
  6
CONTINUOUS
 62
     7
  5
4DA
 10
110.670333
 20
71.353917
 30
0.0
  0
POINT
  8
5
  6
CONTINUOUS
 62
    99
  5
4DB
 10
110.730417
 20
71.353917
 30
0.0
  0
POINT
  8
5
  6
CONTINUOUS
 62
    99
  5
4DC
 10
110.790417
 20
71.353917
 30
0.0
  0
POINT
  8
5
  6
CONTINUOUS
 62
    99
  5
4DD
 10
110.910417
 20
71.353917
 30
0.0
  0
POINT
  8
5
  6
CONTINUOUS
 62
    99
  5
4DE
 10
110.970333
 20
71.353917
 30
0.0
  0
POINT
  8
5
  6
CONTINUOUS
 62
    99
  5
4DF
 10
111.090417
 20
71.353917
 30
0.0
  0
POINT
  8
5
  6
CONTINUOUS
 62
    99
  5
4E0
 10
111.270333
 20
71.353917
 30
0.0
  0
POINT
  8
5
  6
CONTINUOUS
 62
    99
  5
4E1
 10
111.330417
 20
71.353917
 30
0.0
  0
POINT
  8
5
  6
CONTINUOUS
 62
    99
  5
4E2
 10
110.700417
 20
71.413917
 30
0.0
  0
POINT
  8
5
  6
CONTINUOUS
 62
    99
  5
4E3
 10
110.760417
 20
71.413917
 30
0.0
  0
POINT
  8
5
  6
CONTINUOUS
 62
    99
  5
4E4
 10
110.940417
 20
71.413917
 30
0.0
  0
POINT
  8
5
  6
CONTINUOUS
 62
    99
  5
4E5
 10
111.000417
 20
71.413917
 30
0.0
  0
POINT
  8
5
  6
CONTINUOUS
 62
    99
  5
4E6
 10
111.120333
 20
71.413917
 30
0.0
  0
POINT
  8
5
  6
CONTINUOUS
 62
    99
  5
4E7
 10
111.180417
 20
71.413917
 30
0.0
  0
POINT
  8
5
  6
CONTINUOUS
 62
    99
  5
4E8
 10
111.240417
 20
71.413917
 30
0.0
  0
POINT
  8
5
  6
CONTINUOUS
 62
    99
  5
4E9
 10
111.300417
 20
71.413917
 30
0.0
  0
POINT
  8
1
  6
CONTINUOUS
 62
     7
  5
4EA
 10
111.360417
 20
71.413917
 30
0.0
  0
POINT
  8
5
  6
CONTINUOUS
 62
    99
  5
4EB
 10
110.730417
 20
71.473917
 30
0.0
  0
POINT
  8
5
  6
CONTINUOUS
 62
    99
  5
4EC
 10
110.790417
 20
71.473917
 30
0.0
  0
POINT
  8
5
  6
CONTINUOUS
 62
    99
  5
4ED
 10
110.850417
 20
71.473917
 30
0.0
  0
POINT
  8
5
  6
CONTINUOUS
 62
    99
  5
4EE
 10
110.910417
 20
71.473917
 30
0.0
  0
POINT
  8
5
  6
CONTINUOUS
 62
    99
  5
4EF
 10
111.150417
 20
71.473917
 30
0.0
  0
POINT
  8
5
  6
CONTINUOUS
 62
    99
  5
4F0
 10
111.390417
 20
71.473917
 30
0.0
  0
POINT
  8
1
  6
CONTINUOUS
 62
     7
  5
4F1
 10
111.450417
 20
71.473917
 30
0.0
  0
POINT
  8
1
  6
CONTINUOUS
 62
     7
  5
4F2
 10
110.760417
 20
71.533917
 30
0.0
  0
POINT
  8
5
  6
CONTINUOUS
 62
    99
  5
4F3
 10
110.820333
 20
71.533917
 30
0.0
  0
POINT
  8
5
  6
CONTINUOUS
 62
    99
  5
4F4
 10
110.880417
 20
71.533917
 30
0.0
  0
POINT
  8
5
  6
CONTINUOUS
 62
    99
  5
4F5
 10
110.940417
 20
71.533917
 30
0.0
  0
POINT
  8
5
  6
CONTINUOUS
 62
    99
  5
4F6
 10
111.180417
 20
71.533917
 30
0.0
  0
POINT
  8
5
  6
CONTINUOUS
 62
    99
  5
4F7
 10
111.240417
 20
71.533917
 30
0.0
  0
POINT
  8
5
  6
CONTINUOUS
 62
    99
  5
4F8
 10
111.360417
 20
71.533917
 30
0.0
  0
POINT
  8
1
  6
CONTINUOUS
 62
     7
  5
4F9
 10
111.480417
 20
71.533917
 30
0.0
  0
POINT
  8
1
  6
CONTINUOUS
 62
     7
  5
4FA
 10
110.790417
 20
71.593917
 30
0.0
  0
POINT
  8
5
  6
CONTINUOUS
 62
    99
  5
4FB
 10
110.850417
 20
71.593917
 30
0.0
  0
POINT
  8
5
  6
CONTINUOUS
 62
    99
  5
4FC
 10
110.910417
 20
71.593917
 30
0.0
  0
POINT
  8
5
  6
CONTINUOUS
 62
    99
  5
4FD
 10
111.090417
 20
71.593917
 30
0.0
  0
POINT
  8
5
  6
CONTINUOUS
 62
    99
  5
4FE
 10
111.150417
 20
71.593917
 30
0.0
  0
POINT
  8
5
  6
CONTINUOUS
 62
    99
  5
4FF
 10
111.270333
 20
71.593917
 30
0.0
  0
POINT
  8
5
  6
CONTINUOUS
 62
    99
  5
500
 10
111.390417
 20
71.593917
 30
0.0
  0
POINT
  8
1
  6
CONTINUOUS
 62
     7
  5
501
 10
111.510417
 20
71.593917
 30
0.0
  0
POINT
  8
1
  6
CONTINUOUS
 62
     7
  5
502
 10
111.570333
 20
71.593917
 30
0.0
  0
POINT
  8
1
  6
CONTINUOUS
 62
     7
  5
503
 10
110.820333
 20
71.653917
 30
0.0
  0
POINT
  8
5
  6
CONTINUOUS
 62
    99
  5
504
 10
110.880417
 20
71.653917
 30
0.0
  0
POINT
  8
5
  6
CONTINUOUS
 62
    99
  5
505
 10
110.940417
 20
71.653917
 30
0.0
  0
POINT
  8
5
  6
CONTINUOUS
 62
    99
  5
506
 10
111.060417
 20
71.653917
 30
0.0
  0
POINT
  8
5
  6
CONTINUOUS
 62
    99
  5
507
 10
111.180417
 20
71.653917
 30
0.0
  0
POINT
  8
5
  6
CONTINUOUS
 62
    99
  5
508
 10
111.240417
 20
71.653917
 30
0.0
  0
POINT
  8
5
  6
CONTINUOUS
 62
    99
  5
509
 10
111.300417
 20
71.653917
 30
0.0
  0
POINT
  8
5
  6
CONTINUOUS
 62
    99
  5
50A
 10
111.360417
 20
71.653917
 30
0.0
  0
POINT
  8
5
  6
CONTINUOUS
 62
    99
  5
50B
 10
111.420333
 20
71.653917
 30
0.0
  0
POINT
  8
1
  6
CONTINUOUS
 62
     7
  5
50C
 10
111.600417
 20
71.653917
 30
0.0
  0
POINT
  8
5
  6
CONTINUOUS
 62
    99
  5
50D
 10
110.970333
 20
71.713917
 30
0.0
  0
POINT
  8
5
  6
CONTINUOUS
 62
    99
  5
50E
 10
111.450417
 20
71.713917
 30
0.0
  0
POINT
  8
5
  6
CONTINUOUS
 62
    99
  5
50F
 10
111.510417
 20
71.713917
 30
0.0
  0
POINT
  8
1
  6
CONTINUOUS
 62
     7
  5
510
 10
111.630417
 20
71.713917
 30
0.0
  0
POINT
  8
1
  6
CONTINUOUS
 62
     7
  5
511
 10
111.690417
 20
71.713917
 30
0.0
  0
POINT
  8
5
  6
CONTINUOUS
 62
    99
  5
512
 10
110.940417
 20
71.773917
 30
0.0
  0
POINT
  8
5
  6
CONTINUOUS
 62
    99
  5
513
 10
111.060417
 20
71.773917
 30
0.0
  0
POINT
  8
5
  6
CONTINUOUS
 62
    99
  5
514
 10
111.120333
 20
71.773917
 30
0.0
  0
POINT
  8
5
  6
CONTINUOUS
 62
    99
  5
515
 10
111.180417
 20
71.773917
 30
0.0
  0
POINT
  8
5
  6
CONTINUOUS
 62
    99
  5
516
 10
111.300417
 20
71.773917
 30
0.0
  0
POINT
  8
5
  6
CONTINUOUS
 62
    99
  5
517
 10
111.420333
 20
71.773917
 30
0.0
  0
POINT
  8
5
  6
CONTINUOUS
 62
    99
  5
518
 10
111.600417
 20
71.773917
 30
0.0
  0
POINT
  8
1
  6
CONTINUOUS
 62
     7
  5
519
 10
111.660417
 20
71.773917
 30
0.0
  0
POINT
  8
1
  6
CONTINUOUS
 62
     7
  5
51A
 10
111.720417
 20
71.773917
 30
0.0
  0
POINT
  8
1
  6
CONTINUOUS
 62
     7
  5
51B
 10
111.780417
 20
71.773917
 30
0.0
  0
POINT
  8
5
  6
CONTINUOUS
 62
    99
  5
51C
 10
111.030417
 20
71.833917
 30
0.0
  0
POINT
  8
5
  6
CONTINUOUS
 62
    99
  5
51D
 10
111.090417
 20
71.833917
 30
0.0
  0
POINT
  8
5
  6
CONTINUOUS
 62
    99
  5
51E
 10
111.210417
 20
71.833917
 30
0.0
  0
POINT
  8
5
  6
CONTINUOUS
 62
    99
  5
51F
 10
111.270333
 20
71.833917
 30
0.0
  0
POINT
  8
5
  6
CONTINUOUS
 62
    99
  5
520
 10
111.330417
 20
71.833917
 30
0.0
  0
POINT
  8
5
  6
CONTINUOUS
 62
    99
  5
521
 10
111.450417
 20
71.833917
 30
0.0
  0
POINT
  8
5
  6
CONTINUOUS
 62
    99
  5
522
 10
111.510417
 20
71.833917
 30
0.0
  0
POINT
  8
5
  6
CONTINUOUS
 62
    99
  5
523
 10
111.570333
 20
71.833917
 30
0.0
  0
POINT
  8
5
  6
CONTINUOUS
 62
    99
  5
524
 10
111.630417
 20
71.833917
 30
0.0
  0
POINT
  8
5
  6
CONTINUOUS
 62
    99
  5
525
 10
111.750417
 20
71.833917
 30
0.0
  0
POINT
  8
5
  6
CONTINUOUS
 62
    99
  5
526
 10
111.810417
 20
71.833917
 30
0.0
  0
POINT
  8
1
  6
CONTINUOUS
 62
     7
  5
527
 10
111.870417
 20
71.833917
 30
0.0
  0
POINT
  8
1
  6
CONTINUOUS
 62
     7
  5
528
 10
111.120333
 20
71.893917
 30
0.0
  0
POINT
  8
5
  6
CONTINUOUS
 62
    99
  5
529
 10
111.180417
 20
71.893917
 30
0.0
  0
POINT
  8
5
  6
CONTINUOUS
 62
    99
  5
52A
 10
111.240417
 20
71.893917
 30
0.0
  0
POINT
  8
5
  6
CONTINUOUS
 62
    99
  5
52B
 10
111.300417
 20
71.893917
 30
0.0
  0
POINT
  8
5
  6
CONTINUOUS
 62
    99
  5
52C
 10
111.360417
 20
71.893917
 30
0.0
  0
POINT
  8
5
  6
CONTINUOUS
 62
    99
  5
52D
 10
111.420333
 20
71.893917
 30
0.0
  0
POINT
  8
5
  6
CONTINUOUS
 62
    99
  5
52E
 10
111.480417
 20
71.893917
 30
0.0
  0
POINT
  8
5
  6
CONTINUOUS
 62
    99
  5
52F
 10
111.600417
 20
71.893917
 30
0.0
  0
POINT
  8
5
  6
CONTINUOUS
 62
    99
  5
530
 10
111.660417
 20
71.893917
 30
0.0
  0
POINT
  8
5
  6
CONTINUOUS
 62
    99
  5
531
 10
111.840417
 20
71.893917
 30
0.0
  0
POINT
  8
5
  6
CONTINUOUS
 62
    99
  5
532
 10
111.900417
 20
71.893917
 30
0.0
  0
POINT
  8
1
  6
CONTINUOUS
 62
     7
  5
533
 10
111.960417
 20
71.893917
 30
0.0
  0
POINT
  8
1
  6
CONTINUOUS
 62
     7
  5
534
 10
112.020417
 20
71.893917
 30
0.0
  0
POINT
  8
1
  6
CONTINUOUS
 62
     7
  5
535
 10
111.150417
 20
71.953917
 30
0.0
  0
POINT
  8
5
  6
CONTINUOUS
 62
    99
  5
536
 10
111.330417
 20
71.953917
 30
0.0
  0
POINT
  8
5
  6
CONTINUOUS
 62
    99
  5
537
 10
111.450417
 20
71.953917
 30
0.0
  0
POINT
  8
5
  6
CONTINUOUS
 62
    99
  5
538
 10
111.510417
 20
71.953917
 30
0.0
  0
POINT
  8
5
  6
CONTINUOUS
 62
    99
  5
539
 10
111.630417
 20
71.953917
 30
0.0
  0
POINT
  8
5
  6
CONTINUOUS
 62
    99
  5
53A
 10
111.690417
 20
71.953917
 30
0.0
  0
POINT
  8
5
  6
CONTINUOUS
 62
    99
  5
53B
 10
111.810417
 20
71.953917
 30
0.0
  0
POINT
  8
5
  6
CONTINUOUS
 62
    99
  5
53C
 10
111.930417
 20
71.953917
 30
0.0
  0
POINT
  8
5
  6
CONTINUOUS
 62
    99
  5
53D
 10
112.050417
 20
71.953917
 30
0.0
  0
POINT
  8
1
  6
CONTINUOUS
 62
     7
  5
53E
 10
112.110417
 20
71.953917
 30
0.0
  0
POINT
  8
1
  6
CONTINUOUS
 62
     7
  5
53F
 10
112.230417
 20
71.953917
 30
0.0
  0
POINT
  8
1
  6
CONTINUOUS
 62
     7
  5
540
 10
111.300417
 20
72.013917
 30
0.0
  0
POINT
  8
1
  6
CONTINUOUS
 62
     7
  5
541
 10
111.360417
 20
72.013917
 30
0.0
  0
POINT
  8
1
  6
CONTINUOUS
 62
     7
  5
542
 10
111.420333
 20
72.013917
 30
0.0
  0
POINT
  8
1
  6
CONTINUOUS
 62
     7
  5
543
 10
111.540417
 20
72.013917
 30
0.0
  0
POINT
  8
5
  6
CONTINUOUS
 62
    99
  5
544
 10
111.600417
 20
72.013917
 30
0.0
  0
POINT
  8
5
  6
CONTINUOUS
 62
    99
  5
545
 10
111.720417
 20
72.013917
 30
0.0
  0
POINT
  8
5
  6
CONTINUOUS
 62
    99
  5
546
 10
111.780417
 20
72.013917
 30
0.0
  0
POINT
  8
5
  6
CONTINUOUS
 62
    99
  5
547
 10
111.840417
 20
72.013917
 30
0.0
  0
POINT
  8
5
  6
CONTINUOUS
 62
    99
  5
548
 10
111.900417
 20
72.013917
 30
0.0
  0
POINT
  8
1
  6
CONTINUOUS
 62
     7
  5
549
 10
112.020417
 20
72.013917
 30
0.0
  0
POINT
  8
1
  6
CONTINUOUS
 62
     7
  5
54A
 10
112.080417
 20
72.013917
 30
0.0
  0
POINT
  8
1
  6
CONTINUOUS
 62
     7
  5
54B
 10
112.140417
 20
72.013917
 30
0.0
  0
POINT
  8
1
  6
CONTINUOUS
 62
     7
  5
54C
 10
110.610417
 20
71.233917
 30
0.0
  0
POINT
  8
5
  6
CONTINUOUS
 62
    99
  5
54D
 10
110.790417
 20
71.233917
 30
0.0
  0
POINT
  8
5
  6
CONTINUOUS
 62
    99
  5
54E
 10
110.910417
 20
71.233917
 30
0.0
  0
POINT
  8
5
  6
CONTINUOUS
 62
    99
  5
54F
 10
111.090417
 20
71.233917
 30
0.0
  0
POINT
  8
1
  6
CONTINUOUS
 62
     7
  5
550
 10
111.150417
 20
71.233917
 30
0.0
  0
POINT
  8
1
  6
CONTINUOUS
 62
     7
  5
551
 10
111.210417
 20
71.233917
 30
0.0
  0
POINT
  8
1
  6
CONTINUOUS
 62
     7
  5
552
 10
110.580417
 20
71.173917
 30
0.0
  0
POINT
  8
5
  6
CONTINUOUS
 62
    99
  5
553
 10
110.700417
 20
71.173917
 30
0.0
  0
POINT
  8
5
  6
CONTINUOUS
 62
    99
  5
554
 10
110.760417
 20
71.173917
 30
0.0
  0
POINT
  8
5
  6
CONTINUOUS
 62
    99
  5
555
 10
110.820333
 20
71.173917
 30
0.0
  0
POINT
  8
5
  6
CONTINUOUS
 62
    99
  5
556
 10
110.880417
 20
71.173917
 30
0.0
  0
POINT
  8
5
  6
CONTINUOUS
 62
    99
  5
557
 10
110.940417
 20
71.173917
 30
0.0
  0
POINT
  8
1
  6
CONTINUOUS
 62
     7
  5
558
 10
110.610417
 20
71.113917
 30
0.0
  0
POINT
  8
5
  6
CONTINUOUS
 62
    99
  5
559
 10
110.670333
 20
71.113917
 30
0.0
  0
POINT
  8
5
  6
CONTINUOUS
 62
    99
  5
55A
 10
110.790417
 20
71.113917
 30
0.0
  0
POINT
  8
5
  6
CONTINUOUS
 62
    99
  5
55B
 10
110.910417
 20
71.113917
 30
0.0
  0
POINT
  8
5
  6
CONTINUOUS
 62
    99
  5
55C
 10
110.970333
 20
71.113917
 30
0.0
  0
POINT
  8
5
  6
CONTINUOUS
 62
    99
  5
55D
 10
111.030417
 20
71.113917
 30
0.0
  0
POINT
  8
5
  6
CONTINUOUS
 62
    99
  5
55E
 10
111.090417
 20
71.113917
 30
0.0
  0
POINT
  8
1
  6
CONTINUOUS
 62
     7
  5
55F
 10
111.150417
 20
71.113917
 30
0.0
  0
POINT
  8
1
  6
CONTINUOUS
 62
     7
  5
560
 10
110.520417
 20
71.053917
 30
0.0
  0
POINT
  8
5
  6
CONTINUOUS
 62
    99
  5
561
 10
110.580417
 20
71.053917
 30
0.0
  0
POINT
  8
5
  6
CONTINUOUS
 62
    99
  5
562
 10
110.640417
 20
71.053917
 30
0.0
  0
POINT
  8
5
  6
CONTINUOUS
 62
    99
  5
563
 10
110.700417
 20
71.053917
 30
0.0
  0
POINT
  8
5
  6
CONTINUOUS
 62
    99
  5
564
 10
110.760417
 20
71.053917
 30
0.0
  0
POINT
  8
5
  6
CONTINUOUS
 62
    99
  5
565
 10
110.820333
 20
71.053917
 30
0.0
  0
POINT
  8
5
  6
CONTINUOUS
 62
    99
  5
566
 10
111.000417
 20
71.053917
 30
0.0
  0
POINT
  8
5
  6
CONTINUOUS
 62
    99
  5
567
 10
111.120333
 20
71.053917
 30
0.0
  0
POINT
  8
1
  6
CONTINUOUS
 62
     7
  5
568
 10
110.490417
 20
70.993917
 30
0.0
  0
POINT
  8
1
  6
CONTINUOUS
 62
     7
  5
569
 10
110.550417
 20
70.993917
 30
0.0
  0
POINT
  8
5
  6
CONTINUOUS
 62
    99
  5
56A
 10
110.610417
 20
70.993917
 30
0.0
  0
POINT
  8
5
  6
CONTINUOUS
 62
    99
  5
56B
 10
110.670333
 20
70.993917
 30
0.0
  0
POINT
  8
5
  6
CONTINUOUS
 62
    99
  5
56C
 10
110.730417
 20
70.993917
 30
0.0
  0
POINT
  8
5
  6
CONTINUOUS
 62
    99
  5
56D
 10
110.910417
 20
70.993917
 30
0.0
  0
POINT
  8
5
  6
CONTINUOUS
 62
    99
  5
56E
 10
110.970333
 20
70.993917
 30
0.0
  0
POINT
  8
5
  6
CONTINUOUS
 62
    99
  5
56F
 10
111.090417
 20
70.993917
 30
0.0
  0
POINT
  8
1
  6
CONTINUOUS
 62
     7
  5
570
 10
110.460417
 20
70.933917
 30
0.0
  0
POINT
  8
1
  6
CONTINUOUS
 62
     7
  5
571
 10
110.520417
 20
70.933917
 30
0.0
  0
POINT
  8
5
  6
CONTINUOUS
 62
    99
  5
572
 10
110.580417
 20
70.933917
 30
0.0
  0
POINT
  8
5
  6
CONTINUOUS
 62
    99
  5
573
 10
110.880417
 20
70.933917
 30
0.0
  0
POINT
  8
5
  6
CONTINUOUS
 62
    99
  5
574
 10
110.940417
 20
70.933917
 30
0.0
  0
POINT
  8
5
  6
CONTINUOUS
 62
    99
  5
575
 10
111.000417
 20
70.933917
 30
0.0
  0
POINT
  8
5
  6
CONTINUOUS
 62
    99
  5
576
 10
111.060417
 20
70.933917
 30
0.0
  0
POINT
  8
1
  6
CONTINUOUS
 62
     7
  5
577
 10
111.120333
 20
70.933917
 30
0.0
  0
POINT
  8
5
  6
CONTINUOUS
 62
    99
  5
578
 10
110.490417
 20
70.873917
 30
0.0
  0
POINT
  8
5
  6
CONTINUOUS
 62
    99
  5
579
 10
110.730417
 20
70.873917
 30
0.0
  0
POINT
  8
5
  6
CONTINUOUS
 62
    99
  5
57A
 10
110.910417
 20
70.873917
 30
0.0
  0
POINT
  8
5
  6
CONTINUOUS
 62
    99
  5
57B
 10
110.970333
 20
70.873917
 30
0.0
  0
POINT
  8
1
  6
CONTINUOUS
 62
     7
  5
57C
 10
111.090417
 20
70.873917
 30
0.0
  0
POINT
  8
1
  6
CONTINUOUS
 62
     7
  5
57D
 10
110.400417
 20
70.813917
 30
0.0
  0
POINT
  8
5
  6
CONTINUOUS
 62
    99
  5
57E
 10
110.460417
 20
70.813917
 30
0.0
  0
POINT
  8
5
  6
CONTINUOUS
 62
    99
  5
57F
 10
110.520417
 20
70.813917
 30
0.0
  0
POINT
  8
5
  6
CONTINUOUS
 62
    99
  5
580
 10
110.580417
 20
70.813917
 30
0.0
  0
POINT
  8
5
  6
CONTINUOUS
 62
    99
  5
581
 10
110.760417
 20
70.813917
 30
0.0
  0
POINT
  8
5
  6
CONTINUOUS
 62
    99
  5
582
 10
110.820333
 20
70.813917
 30
0.0
  0
POINT
  8
5
  6
CONTINUOUS
 62
    99
  5
583
 10
110.880417
 20
70.813917
 30
0.0
  0
POINT
  8
5
  6
CONTINUOUS
 62
    99
  5
584
 10
110.940417
 20
70.813917
 30
0.0
  0
POINT
  8
5
  6
CONTINUOUS
 62
    99
  5
585
 10
111.000417
 20
70.813917
 30
0.0
  0
POINT
  8
5
  6
CONTINUOUS
 62
    99
  5
586
 10
110.430417
 20
70.753917
 30
0.0
  0
POINT
  8
5
  6
CONTINUOUS
 62
    99
  5
587
 10
110.610417
 20
70.753917
 30
0.0
  0
POINT
  8
5
  6
CONTINUOUS
 62
    99
  5
588
 10
110.670333
 20
70.753917
 30
0.0
  0
POINT
  8
5
  6
CONTINUOUS
 62
    99
  5
589
 10
110.730417
 20
70.753917
 30
0.0
  0
POINT
  8
5
  6
CONTINUOUS
 62
    99
  5
58A
 10
110.790417
 20
70.753917
 30
0.0
  0
POINT
  8
5
  6
CONTINUOUS
 62
    99
  5
58B
 10
110.910417
 20
70.753917
 30
0.0
  0
POINT
  8
5
  6
CONTINUOUS
 62
    99
  5
58C
 10
110.970333
 20
70.753917
 30
0.0
  0
POINT
  8
1
  6
CONTINUOUS
 62
     7
  5
58D
 10
111.090417
 20
70.753917
 30
0.0
  0
POINT
  8
1
  6
CONTINUOUS
 62
     7
  5
58E
 10
110.400417
 20
70.693917
 30
0.0
  0
POINT
  8
5
  6
CONTINUOUS
 62
    99
  5
58F
 10
110.460417
 20
70.693917
 30
0.0
  0
POINT
  8
5
  6
CONTINUOUS
 62
    99
  5
590
 10
110.580417
 20
70.693917
 30
0.0
  0
POINT
  8
5
  6
CONTINUOUS
 62
    99
  5
591
 10
110.760417
 20
70.693917
 30
0.0
  0
POINT
  8
5
  6
CONTINUOUS
 62
    99
  5
592
 10
110.820333
 20
70.693917
 30
0.0
  0
POINT
  8
5
  6
CONTINUOUS
 62
    99
  5
593
 10
110.880417
 20
70.693917
 30
0.0
  0
POINT
  8
5
  6
CONTINUOUS
 62
    99
  5
594
 10
111.000417
 20
70.693917
 30
0.0
  0
POINT
  8
5
  6
CONTINUOUS
 62
    99
  5
595
 10
111.060417
 20
70.693917
 30
0.0
  0
POINT
  8
5
  6
CONTINUOUS
 62
    99
  5
596
 10
110.430417
 20
70.633917
 30
0.0
  0
POINT
  8
5
  6
CONTINUOUS
 62
    99
  5
597
 10
110.490417
 20
70.633917
 30
0.0
  0
POINT
  8
5
  6
CONTINUOUS
 62
    99
  5
598
 10
110.610417
 20
70.633917
 30
0.0
  0
POINT
  8
5
  6
CONTINUOUS
 62
    99
  5
599
 10
110.670333
 20
70.633917
 30
0.0
  0
POINT
  8
5
  6
CONTINUOUS
 62
    99
  5
59A
 10
110.730417
 20
70.633917
 30
0.0
  0
POINT
  8
5
  6
CONTINUOUS
 62
    99
  5
59B
 10
114.246083
 20
70.633917
 30
0.0
  0
POINT
  8
5
  6
CONTINUOUS
 62
    99
  5
59C
 10
114.306083
 20
70.633917
 30
0.0
  0
POINT
  8
5
  6
CONTINUOUS
 62
    99
  5
59D
 10
114.366083
 20
70.633917
 30
0.0
  0
POINT
  8
5
  6
CONTINUOUS
 62
    99
  5
59E
 10
114.486083
 20
70.633917
 30
0.0
  0
POINT
  8
5
  6
CONTINUOUS
 62
    99
  5
59F
 10
114.546083
 20
70.633917
 30
0.0
  0
POINT
  8
5
  6
CONTINUOUS
 62
    99
  5
5A0
 10
113.916083
 20
70.693917
 30
0.0
  0
POINT
  8
5
  6
CONTINUOUS
 62
    99
  5
5A1
 10
113.976083
 20
70.693917
 30
0.0
  0
POINT
  8
5
  6
CONTINUOUS
 62
    99
  5
5A2
 10
114.096083
 20
70.693917
 30
0.0
  0
POINT
  8
5
  6
CONTINUOUS
 62
    99
  5
5A3
 10
114.156083
 20
70.693917
 30
0.0
  0
POINT
  8
5
  6
CONTINUOUS
 62
    99
  5
5A4
 10
114.216083
 20
70.693917
 30
0.0
  0
POINT
  8
5
  6
CONTINUOUS
 62
    99
  5
5A5
 10
114.396083
 20
70.693917
 30
0.0
  0
POINT
  8
5
  6
CONTINUOUS
 62
    99
  5
5A6
 10
114.516083
 20
70.693917
 30
0.0
  0
POINT
  8
1
  6
CONTINUOUS
 62
     7
  5
5A7
 10
114.576083
 20
70.693917
 30
0.0
  0
POINT
  8
1
  6
CONTINUOUS
 62
     7
  5
5A8
 10
113.886083
 20
70.753917
 30
0.0
  0
POINT
  8
5
  6
CONTINUOUS
 62
    99
  5
5A9
 10
114.006083
 20
70.753917
 30
0.0
  0
POINT
  8
5
  6
CONTINUOUS
 62
    99
  5
5AA
 10
114.066083
 20
70.753917
 30
0.0
  0
POINT
  8
5
  6
CONTINUOUS
 62
    99
  5
5AB
 10
114.186083
 20
70.753917
 30
0.0
  0
POINT
  8
5
  6
CONTINUOUS
 62
    99
  5
5AC
 10
114.306083
 20
70.753917
 30
0.0
  0
POINT
  8
5
  6
CONTINUOUS
 62
    99
  5
5AD
 10
114.366083
 20
70.753917
 30
0.0
  0
POINT
  8
5
  6
CONTINUOUS
 62
    99
  5
5AE
 10
114.546083
 20
70.753917
 30
0.0
  0
POINT
  8
5
  6
CONTINUOUS
 62
    99
  5
5AF
 10
113.916083
 20
70.813917
 30
0.0
  0
POINT
  8
5
  6
CONTINUOUS
 62
    99
  5
5B0
 10
113.976083
 20
70.813917
 30
0.0
  0
POINT
  8
5
  6
CONTINUOUS
 62
    99
  5
5B1
 10
114.036083
 20
70.813917
 30
0.0
  0
POINT
  8
5
  6
CONTINUOUS
 62
    99
  5
5B2
 10
114.096083
 20
70.813917
 30
0.0
  0
POINT
  8
5
  6
CONTINUOUS
 62
    99
  5
5B3
 10
114.216083
 20
70.813917
 30
0.0
  0
POINT
  8
5
  6
CONTINUOUS
 62
    99
  5
5B4
 10
114.276083
 20
70.813917
 30
0.0
  0
POINT
  8
5
  6
CONTINUOUS
 62
    99
  5
5B5
 10
114.396083
 20
70.813917
 30
0.0
  0
POINT
  8
5
  6
CONTINUOUS
 62
    99
  5
5B6
 10
114.456083
 20
70.813917
 30
0.0
  0
POINT
  8
5
  6
CONTINUOUS
 62
    99
  5
5B7
 10
114.516083
 20
70.813917
 30
0.0
  0
POINT
  8
1
  6
CONTINUOUS
 62
     7
  5
5B8
 10
114.576083
 20
70.813917
 30
0.0
  0
POINT
  8
1
  6
CONTINUOUS
 62
     7
  5
5B9
 10
113.886083
 20
70.873917
 30
0.0
  0
POINT
  8
5
  6
CONTINUOUS
 62
    99
  5
5BA
 10
114.006083
 20
70.873917
 30
0.0
  0
POINT
  8
5
  6
CONTINUOUS
 62
    99
  5
5BB
 10
114.066083
 20
70.873917
 30
0.0
  0
POINT
  8
5
  6
CONTINUOUS
 62
    99
  5
5BC
 10
114.246083
 20
70.873917
 30
0.0
  0
POINT
  8
5
  6
CONTINUOUS
 62
    99
  5
5BD
 10
114.306083
 20
70.873917
 30
0.0
  0
POINT
  8
5
  6
CONTINUOUS
 62
    99
  5
5BE
 10
114.366083
 20
70.873917
 30
0.0
  0
POINT
  8
5
  6
CONTINUOUS
 62
    99
  5
5BF
 10
114.486083
 20
70.873917
 30
0.0
  0
POINT
  8
1
  6
CONTINUOUS
 62
     7
  5
5C0
 10
113.856083
 20
70.933917
 30
0.0
  0
POINT
  8
5
  6
CONTINUOUS
 62
    99
  5
5C1
 10
113.916083
 20
70.933917
 30
0.0
  0
POINT
  8
5
  6
CONTINUOUS
 62
    99
  5
5C2
 10
113.976083
 20
70.933917
 30
0.0
  0
POINT
  8
5
  6
CONTINUOUS
 62
    99
  5
5C3
 10
114.096083
 20
70.933917
 30
0.0
  0
POINT
  8
5
  6
CONTINUOUS
 62
    99
  5
5C4
 10
114.396083
 20
70.933917
 30
0.0
  0
POINT
  8
1
  6
CONTINUOUS
 62
     7
  5
5C5
 10
114.456083
 20
70.933917
 30
0.0
  0
POINT
  8
1
  6
CONTINUOUS
 62
     7
  5
5C6
 10
114.516083
 20
70.933917
 30
0.0
  0
POINT
  8
5
  6
CONTINUOUS
 62
    99
  5
5C7
 10
113.886083
 20
70.993917
 30
0.0
  0
POINT
  8
5
  6
CONTINUOUS
 62
    99
  5
5C8
 10
114.066083
 20
70.993917
 30
0.0
  0
POINT
  8
5
  6
CONTINUOUS
 62
    99
  5
5C9
 10
114.246083
 20
70.993917
 30
0.0
  0
POINT
  8
5
  6
CONTINUOUS
 62
    99
  5
5CA
 10
114.306083
 20
70.993917
 30
0.0
  0
POINT
  8
5
  6
CONTINUOUS
 62
    99
  5
5CB
 10
114.366083
 20
70.993917
 30
0.0
  0
POINT
  8
1
  6
CONTINUOUS
 62
     7
  5
5CC
 10
114.426083
 20
70.993917
 30
0.0
  0
POINT
  8
1
  6
CONTINUOUS
 62
     7
  5
5CD
 10
114.486083
 20
70.993917
 30
0.0
  0
POINT
  8
5
  6
CONTINUOUS
 62
    99
  5
5CE
 10
113.856083
 20
71.053917
 30
0.0
  0
POINT
  8
5
  6
CONTINUOUS
 62
    99
  5
5CF
 10
113.916083
 20
71.053917
 30
0.0
  0
POINT
  8
5
  6
CONTINUOUS
 62
    99
  5
5D0
 10
113.976083
 20
71.053917
 30
0.0
  0
POINT
  8
5
  6
CONTINUOUS
 62
    99
  5
5D1
 10
114.096083
 20
71.053917
 30
0.0
  0
POINT
  8
5
  6
CONTINUOUS
 62
    99
  5
5D2
 10
114.156083
 20
71.053917
 30
0.0
  0
POINT
  8
5
  6
CONTINUOUS
 62
    99
  5
5D3
 10
114.216083
 20
71.053917
 30
0.0
  0
POINT
  8
5
  6
CONTINUOUS
 62
    99
  5
5D4
 10
114.276083
 20
71.053917
 30
0.0
  0
POINT
  8
5
  6
CONTINUOUS
 62
    99
  5
5D5
 10
114.336083
 20
71.053917
 30
0.0
  0
POINT
  8
5
  6
CONTINUOUS
 62
    99
  5
5D6
 10
114.396083
 20
71.053917
 30
0.0
  0
POINT
  8
1
  6
CONTINUOUS
 62
     7
  5
5D7
 10
114.456083
 20
71.053917
 30
0.0
  0
POINT
  8
1
  6
CONTINUOUS
 62
     7
  5
5D8
 10
113.826083
 20
71.113917
 30
0.0
  0
POINT
  8
5
  6
CONTINUOUS
 62
    99
  5
5D9
 10
113.886083
 20
71.113917
 30
0.0
  0
POINT
  8
5
  6
CONTINUOUS
 62
    99
  5
5DA
 10
113.946083
 20
71.113917
 30
0.0
  0
POINT
  8
5
  6
CONTINUOUS
 62
    99
  5
5DB
 10
114.006083
 20
71.113917
 30
0.0
  0
POINT
  8
5
  6
CONTINUOUS
 62
    99
  5
5DC
 10
114.066083
 20
71.113917
 30
0.0
  0
POINT
  8
5
  6
CONTINUOUS
 62
    99
  5
5DD
 10
114.186083
 20
71.113917
 30
0.0
  0
POINT
  8
5
  6
CONTINUOUS
 62
    99
  5
5DE
 10
114.306083
 20
71.113917
 30
0.0
  0
POINT
  8
1
  6
CONTINUOUS
 62
     7
  5
5DF
 10
114.366083
 20
71.113917
 30
0.0
  0
POINT
  8
5
  6
CONTINUOUS
 62
    99
  5
5E0
 10
113.916083
 20
71.173917
 30
0.0
  0
POINT
  8
5
  6
CONTINUOUS
 62
    99
  5
5E1
 10
113.976083
 20
71.173917
 30
0.0
  0
POINT
  8
5
  6
CONTINUOUS
 62
    99
  5
5E2
 10
114.096083
 20
71.173917
 30
0.0
  0
POINT
  8
5
  6
CONTINUOUS
 62
    99
  5
5E3
 10
114.156083
 20
71.173917
 30
0.0
  0
POINT
  8
5
  6
CONTINUOUS
 62
    99
  5
5E4
 10
114.216083
 20
71.173917
 30
0.0
  0
POINT
  8
5
  6
CONTINUOUS
 62
    99
  5
5E5
 10
114.276083
 20
71.173917
 30
0.0
  0
POINT
  8
1
  6
CONTINUOUS
 62
     7
  5
5E6
 10
114.396083
 20
71.173917
 30
0.0
  0
POINT
  8
1
  6
CONTINUOUS
 62
     7
  5
5E7
 10
113.766083
 20
71.233917
 30
0.0
  0
POINT
  8
1
  6
CONTINUOUS
 62
     7
  5
5E8
 10
113.826083
 20
71.233917
 30
0.0
  0
POINT
  8
5
  6
CONTINUOUS
 62
    99
  5
5E9
 10
114.066083
 20
71.233917
 30
0.0
  0
POINT
  8
1
  6
CONTINUOUS
 62
     7
  5
5EA
 10
114.366083
 20
71.233917
 30
0.0
  0
POINT
  8
1
  6
CONTINUOUS
 62
     7
  5
5EB
 10
112.836083
 20
72.013917
 30
0.0
  0
POINT
  8
1
  6
CONTINUOUS
 62
     7
  5
5EC
 10
112.896083
 20
72.013917
 30
0.0
  0
POINT
  8
1
  6
CONTINUOUS
 62
     7
  5
5ED
 10
112.956083
 20
72.013917
 30
0.0
  0
POINT
  8
5
  6
CONTINUOUS
 62
    99
  5
5EE
 10
113.076083
 20
72.013917
 30
0.0
  0
POINT
  8
5
  6
CONTINUOUS
 62
    99
  5
5EF
 10
113.136083
 20
72.013917
 30
0.0
  0
POINT
  8
5
  6
CONTINUOUS
 62
    99
  5
5F0
 10
113.196083
 20
72.013917
 30
0.0
  0
POINT
  8
5
  6
CONTINUOUS
 62
    99
  5
5F1
 10
113.256083
 20
72.013917
 30
0.0
  0
POINT
  8
5
  6
CONTINUOUS
 62
    99
  5
5F2
 10
113.376083
 20
72.013917
 30
0.0
  0
POINT
  8
1
  6
CONTINUOUS
 62
     7
  5
5F3
 10
113.436083
 20
72.013917
 30
0.0
  0
POINT
  8
1
  6
CONTINUOUS
 62
     7
  5
5F4
 10
113.556083
 20
72.013917
 30
0.0
  0
POINT
  8
1
  6
CONTINUOUS
 62
     7
  5
5F5
 10
113.616083
 20
72.013917
 30
0.0
  0
POINT
  8
1
  6
CONTINUOUS
 62
     7
  5
5F6
 10
113.676083
 20
72.013917
 30
0.0
  0
POINT
  8
1
  6
CONTINUOUS
 62
     7
  5
5F7
 10
112.746083
 20
71.953917
 30
0.0
  0
POINT
  8
1
  6
CONTINUOUS
 62
     7
  5
5F8
 10
112.866083
 20
71.953917
 30
0.0
  0
POINT
  8
5
  6
CONTINUOUS
 62
    99
  5
5F9
 10
112.926083
 20
71.953917
 30
0.0
  0
POINT
  8
5
  6
CONTINUOUS
 62
    99
  5
5FA
 10
113.046083
 20
71.953917
 30
0.0
  0
POINT
  8
5
  6
CONTINUOUS
 62
    99
  5
5FB
 10
113.166083
 20
71.953917
 30
0.0
  0
POINT
  8
5
  6
CONTINUOUS
 62
    99
  5
5FC
 10
113.226083
 20
71.953917
 30
0.0
  0
POINT
  8
5
  6
CONTINUOUS
 62
    99
  5
5FD
 10
113.346083
 20
71.953917
 30
0.0
  0
POINT
  8
5
  6
CONTINUOUS
 62
    99
  5
5FE
 10
113.406083
 20
71.953917
 30
0.0
  0
POINT
  8
5
  6
CONTINUOUS
 62
    99
  5
5FF
 10
113.466083
 20
71.953917
 30
0.0
  0
POINT
  8
5
  6
CONTINUOUS
 62
    99
  5
600
 10
113.526083
 20
71.953917
 30
0.0
  0
POINT
  8
5
  6
CONTINUOUS
 62
    99
  5
601
 10
113.646083
 20
71.953917
 30
0.0
  0
POINT
  8
1
  6
CONTINUOUS
 62
     7
  5
602
 10
113.826083
 20
71.953917
 30
0.0
  0
POINT
  8
1
  6
CONTINUOUS
 62
     7
  5
603
 10
112.956083
 20
71.893917
 30
0.0
  0
POINT
  8
1
  6
CONTINUOUS
 62
     7
  5
604
 10
113.016083
 20
71.893917
 30
0.0
  0
POINT
  8
5
  6
CONTINUOUS
 62
    99
  5
605
 10
113.076083
 20
71.893917
 30
0.0
  0
POINT
  8
5
  6
CONTINUOUS
 62
    99
  5
606
 10
113.196083
 20
71.893917
 30
0.0
  0
POINT
  8
5
  6
CONTINUOUS
 62
    99
  5
607
 10
113.316083
 20
71.893917
 30
0.0
  0
POINT
  8
5
  6
CONTINUOUS
 62
    99
  5
608
 10
113.376083
 20
71.893917
 30
0.0
  0
POINT
  8
5
  6
CONTINUOUS
 62
    99
  5
609
 10
113.496083
 20
71.893917
 30
0.0
  0
POINT
  8
5
  6
CONTINUOUS
 62
    99
  5
60A
 10
113.616083
 20
71.893917
 30
0.0
  0
POINT
  8
5
  6
CONTINUOUS
 62
    99
  5
60B
 10
113.676083
 20
71.893917
 30
0.0
  0
POINT
  8
5
  6
CONTINUOUS
 62
    99
  5
60C
 10
113.736083
 20
71.893917
 30
0.0
  0
POINT
  8
5
  6
CONTINUOUS
 62
    99
  5
60D
 10
113.796083
 20
71.893917
 30
0.0
  0
POINT
  8
1
  6
CONTINUOUS
 62
     7
  5
60E
 10
113.856083
 20
71.893917
 30
0.0
  0
POINT
  8
5
  6
CONTINUOUS
 62
    99
  5
60F
 10
113.166083
 20
71.833917
 30
0.0
  0
POINT
  8
5
  6
CONTINUOUS
 62
    99
  5
610
 10
113.226083
 20
71.833917
 30
0.0
  0
POINT
  8
5
  6
CONTINUOUS
 62
    99
  5
611
 10
113.286083
 20
71.833917
 30
0.0
  0
POINT
  8
5
  6
CONTINUOUS
 62
    99
  5
612
 10
113.406083
 20
71.833917
 30
0.0
  0
POINT
  8
5
  6
CONTINUOUS
 62
    99
  5
613
 10
113.466083
 20
71.833917
 30
0.0
  0
POINT
  8
5
  6
CONTINUOUS
 62
    99
  5
614
 10
113.526083
 20
71.833917
 30
0.0
  0
POINT
  8
5
  6
CONTINUOUS
 62
    99
  5
615
 10
113.586083
 20
71.833917
 30
0.0
  0
POINT
  8
5
  6
CONTINUOUS
 62
    99
  5
616
 10
113.646083
 20
71.833917
 30
0.0
  0
POINT
  8
5
  6
CONTINUOUS
 62
    99
  5
617
 10
113.706083
 20
71.833917
 30
0.0
  0
POINT
  8
5
  6
CONTINUOUS
 62
    99
  5
618
 10
113.766083
 20
71.833917
 30
0.0
  0
POINT
  8
5
  6
CONTINUOUS
 62
    99
  5
619
 10
113.886083
 20
71.833917
 30
0.0
  0
POINT
  8
5
  6
CONTINUOUS
 62
    99
  5
61A
 10
113.946083
 20
71.833917
 30
0.0
  0
POINT
  8
1
  6
CONTINUOUS
 62
     7
  5
61B
 10
113.196083
 20
71.773917
 30
0.0
  0
POINT
  8
1
  6
CONTINUOUS
 62
     7
  5
61C
 10
113.256083
 20
71.773917
 30
0.0
  0
POINT
  8
1
  6
CONTINUOUS
 62
     7
  5
61D
 10
113.316083
 20
71.773917
 30
0.0
  0
POINT
  8
5
  6
CONTINUOUS
 62
    99
  5
61E
 10
113.376083
 20
71.773917
 30
0.0
  0
POINT
  8
5
  6
CONTINUOUS
 62
    99
  5
61F
 10
113.556083
 20
71.773917
 30
0.0
  0
POINT
  8
5
  6
CONTINUOUS
 62
    99
  5
620
 10
113.676083
 20
71.773917
 30
0.0
  0
POINT
  8
5
  6
CONTINUOUS
 62
    99
  5
621
 10
113.856083
 20
71.773917
 30
0.0
  0
POINT
  8
5
  6
CONTINUOUS
 62
    99
  5
622
 10
113.976083
 20
71.773917
 30
0.0
  0
POINT
  8
5
  6
CONTINUOUS
 62
    99
  5
623
 10
114.036083
 20
71.773917
 30
0.0
  0
POINT
  8
1
  6
CONTINUOUS
 62
     7
  5
624
 10
113.286083
 20
71.713917
 30
0.0
  0
POINT
  8
1
  6
CONTINUOUS
 62
     7
  5
625
 10
113.346083
 20
71.713917
 30
0.0
  0
POINT
  8
5
  6
CONTINUOUS
 62
    99
  5
626
 10
113.466083
 20
71.713917
 30
0.0
  0
POINT
  8
5
  6
CONTINUOUS
 62
    99
  5
627
 10
113.526083
 20
71.713917
 30
0.0
  0
POINT
  8
5
  6
CONTINUOUS
 62
    99
  5
628
 10
113.586083
 20
71.713917
 30
0.0
  0
POINT
  8
5
  6
CONTINUOUS
 62
    99
  5
629
 10
113.706083
 20
71.713917
 30
0.0
  0
POINT
  8
5
  6
CONTINUOUS
 62
    99
  5
62A
 10
113.826083
 20
71.713917
 30
0.0
  0
POINT
  8
5
  6
CONTINUOUS
 62
    99
  5
62B
 10
113.886083
 20
71.713917
 30
0.0
  0
POINT
  8
5
  6
CONTINUOUS
 62
    99
  5
62C
 10
113.946083
 20
71.713917
 30
0.0
  0
POINT
  8
5
  6
CONTINUOUS
 62
    99
  5
62D
 10
114.006083
 20
71.713917
 30
0.0
  0
POINT
  8
1
  6
CONTINUOUS
 62
     7
  5
62E
 10
113.376083
 20
71.653917
 30
0.0
  0
POINT
  8
1
  6
CONTINUOUS
 62
     7
  5
62F
 10
113.436083
 20
71.653917
 30
0.0
  0
POINT
  8
5
  6
CONTINUOUS
 62
    99
  5
630
 10
113.556083
 20
71.653917
 30
0.0
  0
POINT
  8
5
  6
CONTINUOUS
 62
    99
  5
631
 10
113.616083
 20
71.653917
 30
0.0
  0
POINT
  8
5
  6
CONTINUOUS
 62
    99
  5
632
 10
113.676083
 20
71.653917
 30
0.0
  0
POINT
  8
5
  6
CONTINUOUS
 62
    99
  5
633
 10
113.736083
 20
71.653917
 30
0.0
  0
POINT
  8
5
  6
CONTINUOUS
 62
    99
  5
634
 10
113.796083
 20
71.653917
 30
0.0
  0
POINT
  8
5
  6
CONTINUOUS
 62
    99
  5
635
 10
113.916083
 20
71.653917
 30
0.0
  0
POINT
  8
5
  6
CONTINUOUS
 62
    99
  5
636
 10
113.976083
 20
71.653917
 30
0.0
  0
POINT
  8
5
  6
CONTINUOUS
 62
    99
  5
637
 10
114.036083
 20
71.653917
 30
0.0
  0
POINT
  8
1
  6
CONTINUOUS
 62
     7
  5
638
 10
114.156083
 20
71.653917
 30
0.0
  0
POINT
  8
1
  6
CONTINUOUS
 62
     7
  5
639
 10
113.406083
 20
71.593917
 30
0.0
  0
POINT
  8
1
  6
CONTINUOUS
 62
     7
  5
63A
 10
113.466083
 20
71.593917
 30
0.0
  0
POINT
  8
5
  6
CONTINUOUS
 62
    99
  5
63B
 10
113.586083
 20
71.593917
 30
0.0
  0
POINT
  8
5
  6
CONTINUOUS
 62
    99
  5
63C
 10
113.706083
 20
71.593917
 30
0.0
  0
POINT
  8
5
  6
CONTINUOUS
 62
    99
  5
63D
 10
113.826083
 20
71.593917
 30
0.0
  0
POINT
  8
5
  6
CONTINUOUS
 62
    99
  5
63E
 10
113.886083
 20
71.593917
 30
0.0
  0
POINT
  8
5
  6
CONTINUOUS
 62
    99
  5
63F
 10
114.066083
 20
71.593917
 30
0.0
  0
POINT
  8
5
  6
CONTINUOUS
 62
    99
  5
640
 10
114.126083
 20
71.593917
 30
0.0
  0
POINT
  8
1
  6
CONTINUOUS
 62
     7
  5
641
 10
114.186083
 20
71.593917
 30
0.0
  0
POINT
  8
1
  6
CONTINUOUS
 62
     7
  5
642
 10
113.496083
 20
71.533917
 30
0.0
  0
POINT
  8
5
  6
CONTINUOUS
 62
    99
  5
643
 10
113.616083
 20
71.533917
 30
0.0
  0
POINT
  8
5
  6
CONTINUOUS
 62
    99
  5
644
 10
113.676083
 20
71.533917
 30
0.0
  0
POINT
  8
5
  6
CONTINUOUS
 62
    99
  5
645
 10
113.796083
 20
71.533917
 30
0.0
  0
POINT
  8
5
  6
CONTINUOUS
 62
    99
  5
646
 10
114.036083
 20
71.533917
 30
0.0
  0
POINT
  8
5
  6
CONTINUOUS
 62
    99
  5
647
 10
114.096083
 20
71.533917
 30
0.0
  0
POINT
  8
1
  6
CONTINUOUS
 62
     7
  5
648
 10
114.216083
 20
71.533917
 30
0.0
  0
POINT
  8
1
  6
CONTINUOUS
 62
     7
  5
649
 10
113.526083
 20
71.473917
 30
0.0
  0
POINT
  8
5
  6
CONTINUOUS
 62
    99
  5
64A
 10
113.586083
 20
71.473917
 30
0.0
  0
POINT
  8
5
  6
CONTINUOUS
 62
    99
  5
64B
 10
113.766083
 20
71.473917
 30
0.0
  0
POINT
  8
5
  6
CONTINUOUS
 62
    99
  5
64C
 10
113.826083
 20
71.473917
 30
0.0
  0
POINT
  8
5
  6
CONTINUOUS
 62
    99
  5
64D
 10
114.066083
 20
71.473917
 30
0.0
  0
POINT
  8
5
  6
CONTINUOUS
 62
    99
  5
64E
 10
114.126083
 20
71.473917
 30
0.0
  0
POINT
  8
5
  6
CONTINUOUS
 62
    99
  5
64F
 10
114.186083
 20
71.473917
 30
0.0
  0
POINT
  8
1
  6
CONTINUOUS
 62
     7
  5
650
 10
113.616083
 20
71.413917
 30
0.0
  0
POINT
  8
5
  6
CONTINUOUS
 62
    99
  5
651
 10
113.676083
 20
71.413917
 30
0.0
  0
POINT
  8
5
  6
CONTINUOUS
 62
    99
  5
652
 10
113.736083
 20
71.413917
 30
0.0
  0
POINT
  8
5
  6
CONTINUOUS
 62
    99
  5
653
 10
113.796083
 20
71.413917
 30
0.0
  0
POINT
  8
5
  6
CONTINUOUS
 62
    99
  5
654
 10
113.856083
 20
71.413917
 30
0.0
  0
POINT
  8
5
  6
CONTINUOUS
 62
    99
  5
655
 10
113.976083
 20
71.413917
 30
0.0
  0
POINT
  8
5
  6
CONTINUOUS
 62
    99
  5
656
 10
114.036083
 20
71.413917
 30
0.0
  0
POINT
  8
5
  6
CONTINUOUS
 62
    99
  5
657
 10
114.216083
 20
71.413917
 30
0.0
  0
POINT
  8
5
  6
CONTINUOUS
 62
    99
  5
658
 10
114.276083
 20
71.413917
 30
0.0
  0
POINT
  8
5
  6
CONTINUOUS
 62
    99
  5
659
 10
113.646083
 20
71.353917
 30
0.0
  0
POINT
  8
5
  6
CONTINUOUS
 62
    99
  5
65A
 10
113.706083
 20
71.353917
 30
0.0
  0
POINT
  8
5
  6
CONTINUOUS
 62
    99
  5
65B
 10
113.886083
 20
71.353917
 30
0.0
  0
POINT
  8
5
  6
CONTINUOUS
 62
    99
  5
65C
 10
114.006083
 20
71.353917
 30
0.0
  0
POINT
  8
5
  6
CONTINUOUS
 62
    99
  5
65D
 10
114.066083
 20
71.353917
 30
0.0
  0
POINT
  8
5
  6
CONTINUOUS
 62
    99
  5
65E
 10
114.186083
 20
71.353917
 30
0.0
  0
POINT
  8
5
  6
CONTINUOUS
 62
    99
  5
65F
 10
114.246083
 20
71.353917
 30
0.0
  0
POINT
  8
1
  6
CONTINUOUS
 62
     7
  5
660
 10
114.306083
 20
71.353917
 30
0.0
  0
POINT
  8
1
  6
CONTINUOUS
 62
     7
  5
661
 10
113.676083
 20
71.293917
 30
0.0
  0
POINT
  8
1
  6
CONTINUOUS
 62
     7
  5
662
 10
113.736083
 20
71.293917
 30
0.0
  0
POINT
  8
1
  6
CONTINUOUS
 62
     7
  5
663
 10
113.796083
 20
71.293917
 30
0.0
  0
POINT
  8
5
  6
CONTINUOUS
 62
    99
  5
664
 10
113.856083
 20
71.293917
 30
0.0
  0
POINT
  8
5
  6
CONTINUOUS
 62
    99
  5
665
 10
113.976083
 20
71.293917
 30
0.0
  0
POINT
  8
5
  6
CONTINUOUS
 62
    99
  5
666
 10
114.036083
 20
71.293917
 30
0.0
  0
POINT
  8
5
  6
CONTINUOUS
 62
    99
  5
667
 10
114.096083
 20
71.293917
 30
0.0
  0
POINT
  8
5
  6
CONTINUOUS
 62
    99
  5
668
 10
114.156083
 20
71.293917
 30
0.0
  0
POINT
  8
5
  6
CONTINUOUS
 62
    99
  5
669
 10
114.276083
 20
71.293917
 30
0.0
  0
POINT
  8
5
  6
CONTINUOUS
 62
    99
  5
66A
 10
114.336083
 20
71.293917
 30
0.0
  0
LINE
  8
1
  6
CONTINUOUS
 62
   233
  5
66B
 10
112.6695
 20
71.838917
 30
0.0
 11
112.6695
 21
71.828917
 31
0.0
  0
LINE
  8
1
  6
CONTINUOUS
 62
   233
  5
66C
 10
114.118333
 20
70.663583
 30
0.0
 11
114.17175
 21
70.597583
 31
0.0
  0
LINE
  8
1
  6
CONTINUOUS
 62
   233
  5
66D
 10
114.191417
 20
70.663583
 30
0.0
 11
114.191417
 21
70.595667
 31
0.0
  0
LINE
  8
1
  6
CONTINUOUS
 62
   233
  5
66E
 10
114.191417
 20
70.598917
 30
0.0
 11
114.1925
 21
70.597583
 31
0.0
  0
LINE
  8
1
  6
CONTINUOUS
 62
   233
  5
66F
 10
114.058917
 20
70.663583
 30
0.0
 11
114.112417
 21
70.597583
 31
0.0
  0
LINE
  8
1
  6
CONTINUOUS
 62
   233
  5
670
 10
113.990083
 20
70.663583
 30
0.0
 11
114.045083
 21
70.595667
 31
0.0
  0
LINE
  8
1
  6
CONTINUOUS
 62
   233
  5
671
 10
113.925083
 20
70.663583
 30
0.0
 11
113.9825
 21
70.592583
 31
0.0
  0
LINE
  8
1
  6
CONTINUOUS
 62
   233
  5
672
 10
113.80675
 20
70.715167
 30
0.0
 11
113.896833
 21
70.603833
 31
0.0
  0
LINE
  8
1
  6
CONTINUOUS
 62
   233
  5
673
 10
113.8055
 20
70.7595
 30
0.0
 11
113.87525
 21
70.67325
 31
0.0
  0
LINE
  8
1
  6
CONTINUOUS
 62
   233
  5
674
 10
113.794
 20
70.837417
 30
0.0
 11
113.87525
 21
70.737083
 31
0.0
  0
LINE
  8
1
  6
CONTINUOUS
 62
   233
  5
675
 10
113.773167
 20
70.944583
 30
0.0
 11
113.870083
 21
70.824917
 31
0.0
  0
LINE
  8
1
  6
CONTINUOUS
 62
   233
  5
676
 10
113.7495
 20
71.03125
 30
0.0
 11
113.8585
 21
70.896583
 31
0.0
  0
LINE
  8
1
  6
CONTINUOUS
 62
   233
  5
677
 10
113.808833
 20
70.64925
 30
0.0
 11
113.852167
 21
70.595667
 31
0.0
  0
LINE
  8
1
  6
CONTINUOUS
 62
   233
  5
678
 10
113.694417
 20
71.1775
 30
0.0
 11
113.8335
 21
71.005667
 31
0.0
  0
LINE
  8
1
  6
CONTINUOUS
 62
   233
  5
679
 10
113.659
 20
71.27
 30
0.0
 11
113.809833
 21
71.083667
 31
0.0
  0
LINE
  8
1
  6
CONTINUOUS
 62
   233
  5
67A
 10
113.686833
 20
71.284667
 30
0.0
 11
113.756583
 21
71.198583
 31
0.0
  0
LINE
  8
1
  6
CONTINUOUS
 62
   233
  5
67B
 10
115.6635
 20
71.062833
 30
0.0
 11
115.676583
 21
70.997333
 31
0.0
  0
LINE
  8
1
  6
CONTINUOUS
 62
   233
  5
67C
 10
115.679667
 20
71.114583
 30
0.0
 11
115.6635
 21
71.062833
 31
0.0
  0
LINE
  8
1
  6
CONTINUOUS
 62
   233
  5
67D
 10
115.66925
 20
71.18925
 30
0.0
 11
115.679667
 21
71.114583
 31
0.0
  0
LINE
  8
1
  6
CONTINUOUS
 62
   233
  5
67E
 10
115.6955
 20
71.293417
 30
0.0
 11
115.66925
 21
71.18925
 31
0.0
  0
LINE
  8
1
  6
CONTINUOUS
 62
   233
  5
67F
 10
115.653083
 20
71.392
 30
0.0
 11
115.6955
 21
71.293417
 31
0.0
  0
LINE
  8
1
  6
CONTINUOUS
 62
   233
  5
680
 10
115.6635
 20
71.484167
 30
0.0
 11
115.653083
 21
71.392
 31
0.0
  0
LINE
  8
1
  6
CONTINUOUS
 62
   233
  5
681
 10
115.620333
 20
71.564917
 30
0.0
 11
115.6635
 21
71.484167
 31
0.0
  0
LINE
  8
1
  6
CONTINUOUS
 62
   233
  5
682
 10
115.6315
 20
71.663
 30
0.0
 11
115.620333
 21
71.564917
 31
0.0
  0
LINE
  8
1
  6
CONTINUOUS
 62
   233
  5
683
 10
115.62575
 20
71.773083
 30
0.0
 11
115.6315
 21
71.663
 31
0.0
  0
LINE
  8
1
  6
CONTINUOUS
 62
   233
  5
684
 10
115.604167
 20
71.85375
 30
0.0
 11
115.62575
 21
71.773083
 31
0.0
  0
LINE
  8
1
  6
CONTINUOUS
 62
   233
  5
685
 10
115.620333
 20
71.929583
 30
0.0
 11
115.604167
 21
71.85375
 31
0.0
  0
LINE
  8
1
  6
CONTINUOUS
 62
   233
  5
686
 10
115.6315
 20
72.015417
 30
0.0
 11
115.620333
 21
71.929583
 31
0.0
  0
LINE
  8
1
  6
CONTINUOUS
 62
   233
  5
687
 10
115.59375
 20
72.06775
 30
0.0
 11
115.6315
 21
72.015417
 31
0.0
  0
LINE
  8
1
  6
CONTINUOUS
 62
   233
  5
688
 10
115.588083
 20
72.229333
 30
0.0
 11
115.59375
 21
72.06775
 31
0.0
  0
LINE
  8
1
  6
CONTINUOUS
 62
   233
  5
689
 10
115.54475
 20
72.299167
 30
0.0
 11
115.588083
 21
72.229333
 31
0.0
  0
LINE
  8
1
  6
CONTINUOUS
 62
   233
  5
68A
 10
115.5505
 20
72.361833
 30
0.0
 11
115.54475
 21
72.299167
 31
0.0
  0
LINE
  8
1
  6
CONTINUOUS
 62
   233
  5
68B
 10
115.540083
 20
72.397
 30
0.0
 11
115.5505
 21
72.361833
 31
0.0
  0
LINE
  8
1
  6
CONTINUOUS
 62
   233
  5
68C
 10
115.51275
 20
72.44325
 30
0.0
 11
115.540083
 21
72.397
 31
0.0
  0
LINE
  8
1
  6
CONTINUOUS
 62
   233
  5
68D
 10
115.534417
 20
72.52925
 30
0.0
 11
115.51275
 21
72.44325
 31
0.0
  0
LINE
  8
1
  6
CONTINUOUS
 62
   233
  5
68E
 10
115.523167
 20
72.604917
 30
0.0
 11
115.534417
 21
72.52925
 31
0.0
  0
LINE
  8
1
  6
CONTINUOUS
 62
   233
  5
68F
 10
115.51275
 20
72.673667
 30
0.0
 11
115.523167
 21
72.604917
 31
0.0
  0
LINE
  8
1
  6
CONTINUOUS
 62
   233
  5
690
 10
115.523167
 20
72.72
 30
0.0
 11
115.51275
 21
72.673667
 31
0.0
  0
LINE
  8
1
  6
CONTINUOUS
 62
   233
  5
691
 10
115.523167
 20
72.870417
 30
0.0
 11
115.523167
 21
72.72
 31
0.0
  0
LINE
  8
1
  6
CONTINUOUS
 62
   233
  5
692
 10
115.556
 20
72.917
 30
0.0
 11
115.523167
 21
72.870417
 31
0.0
  0
LINE
  8
1
  6
CONTINUOUS
 62
   233
  5
693
 10
115.5505
 20
72.951333
 30
0.0
 11
115.556
 21
72.917
 31
0.0
  0
LINE
  8
1
  6
CONTINUOUS
 62
   233
  5
694
 10
115.540083
 20
72.98575
 30
0.0
 11
115.5505
 21
72.951333
 31
0.0
  0
LINE
  8
1
  6
CONTINUOUS
 62
   233
  5
695
 10
115.523167
 20
73.0615
 30
0.0
 11
115.540083
 21
72.98575
 31
0.0
  0
LINE
  8
1
  6
CONTINUOUS
 62
   233
  5
696
 10
115.534417
 20
73.107
 30
0.0
 11
115.523167
 21
73.0615
 31
0.0
  0
LINE
  8
1
  6
CONTINUOUS
 62
   233
  5
697
 10
115.534417
 20
73.228083
 30
0.0
 11
115.534417
 21
73.107
 31
0.0
  0
LINE
  8
1
  6
CONTINUOUS
 62
   233
  5
698
 10
115.491167
 20
73.286583
 30
0.0
 11
115.534417
 21
73.228083
 31
0.0
  0
LINE
  8
1
  6
CONTINUOUS
 62
   233
  5
699
 10
115.51275
 20
73.36725
 30
0.0
 11
115.491167
 21
73.286583
 31
0.0
  0
LINE
  8
1
  6
CONTINUOUS
 62
   233
  5
69A
 10
115.534417
 20
73.425083
 30
0.0
 11
115.51275
 21
73.36725
 31
0.0
  0
LINE
  8
1
  6
CONTINUOUS
 62
   233
  5
69B
 10
115.540083
 20
73.522917
 30
0.0
 11
115.534417
 21
73.425083
 31
0.0
  0
LINE
  8
1
  6
CONTINUOUS
 62
   233
  5
69C
 10
115.556
 20
73.58675
 30
0.0
 11
115.540083
 21
73.522917
 31
0.0
  0
LINE
  8
1
  6
CONTINUOUS
 62
   233
  5
69D
 10
115.566417
 20
73.673417
 30
0.0
 11
115.556
 21
73.58675
 31
0.0
  0
LINE
  8
1
  6
CONTINUOUS
 62
   233
  5
69E
 10
115.534417
 20
73.754333
 30
0.0
 11
115.566417
 21
73.673417
 31
0.0
  0
LINE
  8
1
  6
CONTINUOUS
 62
   233
  5
69F
 10
115.523167
 20
73.823083
 30
0.0
 11
115.534417
 21
73.754333
 31
0.0
  0
LINE
  8
1
  6
CONTINUOUS
 62
   233
  5
6A0
 10
115.51275
 20
73.921917
 30
0.0
 11
115.523167
 21
73.823083
 31
0.0
  0
LINE
  8
1
  6
CONTINUOUS
 62
   233
  5
6A1
 10
115.437333
 20
74.007917
 30
0.0
 11
115.51275
 21
73.921917
 31
0.0
  0
LINE
  8
1
  6
CONTINUOUS
 62
   233
  5
6A2
 10
115.448
 20
74.10075
 30
0.0
 11
115.437333
 21
74.007917
 31
0.0
  0
LINE
  8
1
  6
CONTINUOUS
 62
   233
  5
6A3
 10
115.448
 20
74.105
 30
0.0
 11
115.448
 21
74.10075
 31
0.0
  0
LINE
  8
1
  6
CONTINUOUS
 62
   233
  5
6A4
 10
114.534583
 20
70.979917
 30
0.0
 11
114.594583
 21
70.895583
 31
0.0
  0
LINE
  8
1
  6
CONTINUOUS
 62
   233
  5
6A5
 10
114.450417
 20
71.07025
 30
0.0
 11
114.534583
 21
70.979917
 31
0.0
  0
LINE
  8
1
  6
CONTINUOUS
 62
   233
  5
6A6
 10
114.418333
 20
71.110083
 30
0.0
 11
114.450417
 21
71.07025
 31
0.0
  0
LINE
  8
1
  6
CONTINUOUS
 62
   233
  5
6A7
 10
114.418333
 20
71.149583
 30
0.0
 11
114.418333
 21
71.110083
 31
0.0
  0
LINE
  8
1
  6
CONTINUOUS
 62
   233
  5
6A8
 10
114.401083
 20
71.269083
 30
0.0
 11
114.418333
 21
71.149583
 31
0.0
  0
LINE
  8
1
  6
CONTINUOUS
 62
   233
  5
6A9
 10
114.369
 20
71.327333
 30
0.0
 11
114.401083
 21
71.269083
 31
0.0
  0
LINE
  8
1
  6
CONTINUOUS
 62
   233
  5
6AA
 10
114.329417
 20
71.353917
 30
0.0
 11
114.369
 21
71.327333
 31
0.0
  0
LINE
  8
1
  6
CONTINUOUS
 62
   233
  5
6AB
 10
114.297333
 20
71.483583
 30
0.0
 11
114.329417
 21
71.353917
 31
0.0
  0
LINE
  8
1
  6
CONTINUOUS
 62
   233
  5
6AC
 10
114.20575
 20
71.565667
 30
0.0
 11
114.297333
 21
71.483583
 31
0.0
  0
LINE
  8
1
  6
CONTINUOUS
 62
   233
  5
6AD
 10
114.166333
 20
71.64825
 30
0.0
 11
114.20575
 21
71.565667
 31
0.0
  0
LINE
  8
1
  6
CONTINUOUS
 62
   233
  5
6AE
 10
114.101917
 20
71.72225
 30
0.0
 11
114.166333
 21
71.64825
 31
0.0
  0
LINE
  8
1
  6
CONTINUOUS
 62
   233
  5
6AF
 10
113.983167
 20
71.825667
 30
0.0
 11
114.101917
 21
71.72225
 31
0.0
  0
LINE
  8
1
  6
CONTINUOUS
 62
   233
  5
6B0
 10
113.89675
 20
71.90775
 30
0.0
 11
113.983167
 21
71.825667
 31
0.0
  0
LINE
  8
1
  6
CONTINUOUS
 62
   233
  5
6B1
 10
113.803
 20
71.981917
 30
0.0
 11
113.89675
 21
71.90775
 31
0.0
  0
LINE
  8
1
  6
CONTINUOUS
 62
   233
  5
6B2
 10
113.67475
 20
72.026917
 30
0.0
 11
113.803
 21
71.981917
 31
0.0
  0
LINE
  8
1
  6
CONTINUOUS
 62
   233
  5
6B3
 10
113.496583
 20
72.011083
 30
0.0
 11
113.67475
 21
72.026917
 31
0.0
  0
LINE
  8
1
  6
CONTINUOUS
 62
   233
  5
6B4
 10
113.35825
 20
72.0325
 30
0.0
 11
113.496583
 21
72.011083
 31
0.0
  0
LINE
  8
1
  6
CONTINUOUS
 62
   233
  5
6B5
 10
113.187583
 20
72.026917
 30
0.0
 11
113.35825
 21
72.0325
 31
0.0
  0
LINE
  8
1
  6
CONTINUOUS
 62
   233
  5
6B6
 10
113.064
 20
72.045833
 30
0.0
 11
113.187583
 21
72.026917
 31
0.0
  0
LINE
  8
1
  6
CONTINUOUS
 62
   233
  5
6B7
 10
112.962417
 20
72.026917
 30
0.0
 11
113.064
 21
72.045833
 31
0.0
  0
LINE
  8
1
  6
CONTINUOUS
 62
   233
  5
6B8
 10
112.77975
 20
72.011083
 30
0.0
 11
112.962417
 21
72.026917
 31
0.0
  0
LINE
  8
1
  6
CONTINUOUS
 62
   233
  5
6B9
 10
112.721917
 20
72.008333
 30
0.0
 11
112.77975
 21
72.011083
 31
0.0
  0
LINE
  8
1
  6
CONTINUOUS
 62
   233
  5
6BA
 10
113.686417
 20
70.75225
 30
0.0
 11
113.803083
 21
70.76325
 31
0.0
  0
LINE
  8
1
  6
CONTINUOUS
 62
   233
  5
6BB
 10
113.670583
 20
70.86375
 30
0.0
 11
113.78575
 21
70.885583
 31
0.0
  0
LINE
  8
1
  6
CONTINUOUS
 62
   233
  5
6BC
 10
113.632833
 20
71.01125
 30
0.0
 11
113.744417
 21
71.0475
 31
0.0
  0
LINE
  8
1
  6
CONTINUOUS
 62
   233
  5
6BD
 10
113.5995
 20
71.101583
 30
0.0
 11
113.70775
 21
71.146583
 31
0.0
  0
ARC
  8
1
  6
CONTINUOUS
 62
   233
  5
6BE
 10
112.48905
 20
70.639883
 30
0.0
 40
1.393367
 50
0.972594
 51
28.306667
210
0.0
220
0.0
230
1.0
  0
LINE
  8
1
  6
CONTINUOUS
 62
   233
  5
6BF
 10
113.651083
 20
71.26575
 30
0.0
 11
113.71575
 21
71.300583
 31
0.0
  0
LINE
  8
1
  6
CONTINUOUS
 62
   233
  5
6C0
 10
114.191417
 20
70.663583
 30
0.0
 11
113.882167
 21
70.663583
 31
0.0
  0
LINE
  8
1
  6
CONTINUOUS
 62
   233
  5
6C1
 10
114.191417
 20
70.595667
 30
0.0
 11
114.191417
 21
70.598917
 31
0.0
  0
LINE
  8
1
  6
CONTINUOUS
 62
   233
  5
6C2
 10
114.594583
 20
70.595667
 30
0.0
 11
113.808083
 21
70.595667
 31
0.0
  0
ARC
  8
1
  6
CONTINUOUS
 62
   233
  5
6C3
 10
112.48905
 20
70.639883
 30
0.0
 40
1.319842
 50
268.182458
 51
79.835747
210
0.0
220
0.0
230
1.0
  0
ARC
  8
1
  6
CONTINUOUS
 62
   233
  5
6C4
 10
112.48905
 20
70.639883
 30
0.0
 40
1.202614
 50
268.106731
 51
81.369353
210
0.0
220
0.0
230
1.0
  0
LINE
  8
1
  6
CONTINUOUS
 62
   233
  5
6C5
 10
114.594583
 20
69.134917
 30
0.0
 11
112.455583
 21
69.134917
 31
0.0
  0
LINE
  8
1
  6
CONTINUOUS
 62
   233
  5
6C6
 10
114.594583
 20
70.895583
 30
0.0
 11
114.594583
 21
69.134917
 31
0.0
  0
LINE
  8
1
  6
CONTINUOUS
 62
   233
  5
6C7
 10
114.594583
 20
70.895583
 30
0.0
 11
115.676583
 21
70.997333
 31
0.0
  0
LINE
  8
1
  6
CONTINUOUS
 62
   233
  5
6C8
 10
112.6695
 20
73.971083
 30
0.0
 11
112.307
 21
73.971083
 31
0.0
  0
LINE
  8
1
  6
CONTINUOUS
 62
   233
  5
6C9
 10
112.721917
 20
72.955667
 30
0.0
 11
115.533083
 21
73.101583
 31
0.0
  0
LINE
  8
1
  6
CONTINUOUS
 62
   233
  5
6CA
 10
112.6695
 20
73.971083
 30
0.0
 11
112.6695
 21
71.838917
 31
0.0
  0
LINE
  8
1
  6
CONTINUOUS
 62
   233
  5
6CB
 10
112.721917
 20
73.971083
 30
0.0
 11
112.721917
 21
71.81975
 31
0.0
  0
LINE
  8
1
  6
CONTINUOUS
 62
   233
  5
6CC
 10
112.721917
 20
73.971083
 30
0.0
 11
115.448
 21
74.105
 31
0.0
  0
LINE
  8
1
  6
CONTINUOUS
 62
   233
  5
6CD
 10
112.6695
 20
73.971083
 30
0.0
 11
112.721917
 21
73.971083
 31
0.0
  0
TEXT
  8
3
  6
CONTINUOUS
 62
     2
  5
6CE
 10
110.007333
 20
73.706917
 30
0.0
 40
0.15
  1
Bituminous
 41
0.85
  7
MONOTXT
210
0.0
220
0.0
230
1.0
  0
TEXT
  8
3
  6
CONTINUOUS
 62
     2
  5
6CF
 10
110.007333
 20
73.501167
 30
0.0
 40
0.15
  1
Concrete
 41
0.85
  7
MONOTXT
210
0.0
220
0.0
230
1.0
  0
LINE
  8
1
  6
CONTINUOUS
 62
     7
  5
6D0
 10
112.204583
 20
73.971083
 30
0.0
 11
111.910917
 21
73.971083
 31
0.0
  0
LINE
  8
1
  6
CONTINUOUS
 62
     7
  5
6D1
 10
112.204583
 20
71.81975
 30
0.0
 11
111.910917
 21
71.81975
 31
0.0
  0
LINE
  8
1
  6
CONTINUOUS
 62
     7
  5
6D2
 10
112.054917
 20
73.871083
 30
0.0
 11
112.054917
 21
72.895417
 31
0.0
  0
LINE
  8
1
  6
CONTINUOUS
 62
     7
  5
6D3
 10
112.054917
 20
71.91975
 30
0.0
 11
112.054917
 21
72.895417
 31
0.0
  0
SOLID
  8
1
  6
CONTINUOUS
 62
     7
  5
6D4
 10
112.071583
 20
73.871083
 30
0.0
 11
112.03825
 21
73.871083
 31
0.0
 12
112.054917
 22
73.971083
 32
0.0
 13
112.054917
 23
73.971083
 33
0.0
  0
SOLID
  8
1
  6
CONTINUOUS
 62
     7
  5
6D5
 10
112.071583
 20
71.91975
 30
0.0
 11
112.03825
 21
71.91975
 31
0.0
 12
112.054917
 22
71.81975
 32
0.0
 13
112.054917
 23
71.81975
 33
0.0
  0
LINE
  8
6
  6
CONTINUOUS
 62
     7
  5
6D6
 10
112.254583
 20
73.971083
 30
0.0
 11
112.254667
 21
73.971083
 31
0.0
  0
LINE
  8
6
  6
CONTINUOUS
 62
     7
  5
6D7
 10
112.254583
 20
71.81975
 30
0.0
 11
112.254667
 21
71.81975
 31
0.0
  0
LINE
  8
6
  6
CONTINUOUS
 62
     7
  5
6D8
 10
112.054917
 20
71.81975
 30
0.0
 11
112.055
 21
71.81975
 31
0.0
  0
TEXT
  8
3
  6
CONTINUOUS
 62
     2
  5
6D9
 10
111.942167
 20
70.743917
 30
0.0
 40
0.15
  1
2 Rows of
 41
0.85
  7
MONOTXT
210
0.0
220
0.0
230
1.0
  0
TEXT
  8
3
  6
CONTINUOUS
 62
     2
  5
6DA
 10
111.841083
 20
70.524917
 30
0.0
 40
0.15
  1
Perforations
 41
0.85
  7
MONOTXT
210
0.0
220
0.0
230
1.0
  0
TEXT
  8
3
  6
CONTINUOUS
 62
     2
  5
6DB
 10
112.004583
 20
70.338
 30
0.0
 40
0.15
  1
Each Side
 41
0.85
  7
MONOTXT
210
0.0
220
0.0
230
1.0
  0
LINE
  8
3
  6
CONTINUOUS
 62
     2
  5
6DC
 10
111.472167
 20
70.732333
 30
0.0
 11
111.613833
 21
70.54375
 31
0.0
  0
SOLID
  8
3
  6
CONTINUOUS
 62
     2
  5
6DD
 10
111.46325
 20
70.750083
 30
0.0
 11
111.536333
 21
70.681833
 31
0.0
 12
111.508333
 22
70.660917
 32
0.0
 13
111.508333
 23
70.660917
 33
0.0
  0
LINE
  8
3
  6
CONTINUOUS
 62
     2
  5
6DE
 10
111.613833
 20
70.54375
 30
0.0
 11
111.808417
 21
70.54375
 31
0.0
  0
LINE
  8
3
  6
CONTINUOUS
 62
     2
  5
6DF
 10
113.243
 20
70.54375
 30
0.0
 11
113.048417
 21
70.54375
 31
0.0
  0
SOLID
  8
3
  6
CONTINUOUS
 62
     2
  5
6E0
 10
113.38475
 20
70.732333
 30
0.0
 11
113.311667
 21
70.664083
 31
0.0
 12
113.339417
 22
70.643167
 32
0.0
 13
113.339417
 23
70.643167
 33
0.0
  0
LINE
  8
3
  6
CONTINUOUS
 62
     2
  5
6E1
 10
113.38475
 20
70.732333
 30
0.0
 11
113.243
 21
70.54375
 31
0.0
  0
TEXT
  8
3
  6
CONTINUOUS
 62
     2
  5
6E2
 10
110.643583
 20
72.592167
 30
0.0
 40
0.15
  1
(Nominal) 8.5"
 41
0.85
  7
MONOTXT
210
0.0
220
0.0
230
1.0
  0
TEXT
  8
3
  6
CONTINUOUS
 62
     2
  5
6E3
 10
109.70775
 20
71.454417
 30
0.0
 40
0.15
  1
Base
 41
0.85
  7
MONOTXT
210
0.0
220
0.0
230
1.0
  0
TEXT
  8
3
  6
CONTINUOUS
 62
     2
  5
6E4
 10
113.166167
 20
72.529
 30
0.0
 40
0.15
  1
Type 1 or
 41
0.85
  7
MONOTXT
210
0.0
220
0.0
230
1.0
  0
TEXT
  8
3
  6
CONTINUOUS
 62
     2
  5
6E5
 10
113.078667
 20
72.183333
 30
0.0
 40
0.15
  1
Type 2 Slot
 41
0.85
  7
MONOTXT
210
0.0
220
0.0
230
1.0
  0
TEXT
  8
3
  6
CONTINUOUS
 62
     2
  5
6E6
 10
113.535083
 20
71.476833
 30
0.0
 40
0.15
  1
Gravel
 41
0.85
  7
MONOTXT
210
0.0
220
0.0
230
1.0
  0
TEXT
  8
3
  6
CONTINUOUS
 62
     2
  5
6E7
 10
113.749083
 20
69.464
 30
0.0
 40
0.15
  1
Lean
 41
0.85
  7
MONOTXT
210
0.0
220
0.0
230
1.0
  0
TEXT
  8
3
  6
CONTINUOUS
 62
     2
  5
6E8
 10
113.749083
 20
69.258333
 30
0.0
 40
0.15
  1
Grout
 41
0.85
  7
MONOTXT
210
0.0
220
0.0
230
1.0
  0
TEXT
  8
3
  6
CONTINUOUS
 62
     2
  5
6E9
 10
108.683083
 20
70.070417
 30
0.0
 40
0.15
  1
3" Minimum
 41
0.85
  7
MONOTXT
210
0.0
220
0.0
230
1.0
  0
INSERT
  8
1
  6
CONTINUOUS
 62
     7
  5
6F4
  2
D1
 10
110.903083
 20
71.759
 30
0.0
 41
0.799998
 42
0.799998
210
0.0
220
0.0
230
1.0
  0
LINE
  8
3
  6
CONTINUOUS
 62
     2
  5
6F5
 10
111.188417
 20
71.588417
 30
0.0
 11
110.872917
 21
70.11925
 31
0.0
  0
SOLID
  8
3
  6
CONTINUOUS
 62
     2
  5
6F6
 10
111.188333
 20
71.588417
 30
0.0
 11
111.18475
 21
71.4885
 31
0.0
 12
111.15075
 22
71.49575
 32
0.0
 13
111.15075
 23
71.49575
 33
0.0
  0
LINE
  8
3
  6
CONTINUOUS
 62
     2
  5
6F7
 10
110.872917
 20
70.11925
 30
0.0
 11
109.84175
 21
70.11925
 31
0.0
  0
LINE
  8
3
  6
CONTINUOUS
 62
     2
  5
6F8
 10
112.415417
 20
72.45725
 30
0.0
 11
114.208833
 21
72.45725
 31
0.0
  0
SOLID
  8
3
  6
CONTINUOUS
 62
     2
  5
6F9
 10
112.415417
 20
72.45725
 30
0.0
 11
112.513833
 21
72.474667
 31
0.0
 12
112.513833
 22
72.439917
 32
0.0
 13
112.513833
 23
72.439917
 33
0.0
  0
LINE
  8
2
  6
HIDDEN
 62
     2
  5
6FA
 10
114.51775
 20
75.568583
 30
0.0
 11
114.51775
 21
73.798917
 31
0.0
  0
LINE
  8
2
  6
HIDDEN
 62
     2
  5
6FB
 10
114.51775
 20
75.568583
 30
0.0
 11
113.56575
 21
75.5145
 31
0.0
  0
LINE
  8
2
  6
HIDDEN
 62
     2
  5
6FC
 10
113.409417
 20
75.377333
 30
0.0
 11
113.254833
 21
74.176583
 31
0.0
  0
LINE
  8
2
  6
HIDDEN
 62
     2
  5
6FD
 10
113.308417
 20
74.163
 30
0.0
 11
113.594
 21
74.885917
 31
0.0
  0
LINE
  8
2
  6
HIDDEN
 62
     2
  5
6FE
 10
113.790833
 20
74.97525
 30
0.0
 11
114.51775
 21
74.99425
 31
0.0
  0
ARC
  8
2
  6
HIDDEN
 62
     2
  5
6FF
 10
113.808783
 20
74.673817
 30
0.0
 40
0.301904
 50
93.401183
 51
135.362122
210
0.0
220
0.0
230
1.0
  0
ARC
  8
2
  6
HIDDEN
 62
     2
  5
700
 10
113.549583
 20
75.375217
 30
0.0
 40
0.140187
 50
83.386203
 51
179.127506
210
0.0
220
0.0
230
1.0
  0
ARC
  8
2
  6
HIDDEN
 62
     2
  5
701
 10
113.07205
 20
74.165017
 30
0.0
 40
0.183143
 50
288.314478
 51
3.620492
210
0.0
220
0.0
230
1.0
  0
ARC
  8
2
  6
HIDDEN
 62
     2
  5
702
 10
113.058117
 20
74.199283
 30
0.0
 40
0.252862
 50
306.095511
 51
351.762744
210
0.0
220
0.0
230
1.0
  0
LINE
  8
2
  6
HIDDEN
 62
     2
  5
703
 10
113.331167
 20
74.769333
 30
0.0
 11
113.93975
 21
75.926917
 31
0.0
  0
LINE
  8
1
  6
CONTINUOUS
 62
     7
  5
704
 10
112.48825
 20
74.021083
 30
0.0
 11
112.48825
 21
74.793
 31
0.0
  0
LINE
  8
1
  6
CONTINUOUS
 62
     7
  5
705
 10
113.219083
 20
74.123833
 30
0.0
 11
113.219083
 21
74.793
 31
0.0
  0
LINE
  8
1
  6
CONTINUOUS
 62
     7
  5
706
 10
112.58825
 20
74.649
 30
0.0
 11
113.119083
 21
74.649
 31
0.0
  0
SOLID
  8
1
  6
CONTINUOUS
 62
     7
  5
707
 10
112.58825
 20
74.63225
 30
0.0
 11
112.58825
 21
74.665667
 31
0.0
 12
112.48825
 22
74.649
 32
0.0
 13
112.48825
 23
74.649
 33
0.0
  0
SOLID
  8
1
  6
CONTINUOUS
 62
     7
  5
708
 10
113.119083
 20
74.63225
 30
0.0
 11
113.119083
 21
74.665667
 31
0.0
 12
113.219083
 22
74.649
 32
0.0
 13
113.219083
 23
74.649
 33
0.0
  0
TEXT
  8
1
  6
CONTINUOUS
 62
     7
  5
709
 10
112.58175
 20
74.709
 30
0.0
 40
0.15
  1
3-1/2"
 41
0.85
  7
MONOTXT
210
0.0
220
0.0
230
1.0
  0
LINE
  8
6
  6
CONTINUOUS
 62
     7
  5
70A
 10
112.48825
 20
73.971083
 30
0.0
 11
112.488333
 21
73.971083
 31
0.0
  0
LINE
  8
6
  6
CONTINUOUS
 62
     7
  5
70B
 10
113.219083
 20
74.073833
 30
0.0
 11
113.219167
 21
74.073833
 31
0.0
  0
LINE
  8
6
  6
CONTINUOUS
 62
     7
  5
70C
 10
113.219083
 20
74.649
 30
0.0
 11
113.219167
 21
74.649
 31
0.0
  0
TEXT
  8
3
  6
CONTINUOUS
 62
     2
  5
70D
 10
114.698
 20
75.53675
 30
0.0
 40
0.15
  1
Median or
 41
0.85
  7
MONOTXT
210
0.0
220
0.0
230
1.0
  0
TEXT
  8
3
  6
CONTINUOUS
 62
     2
  5
70E
 10
114.667417
 20
75.310667
 30
0.0
 40
0.15
  1
Curb Where
 41
0.85
  7
MONOTXT
210
0.0
220
0.0
230
1.0
  0
TEXT
  8
3
  6
CONTINUOUS
 62
     2
  5
70F
 10
114.687833
 20
75.064083
 30
0.0
 40
0.15
  1
Specified
 41
0.85
  7
MONOTXT
210
0.0
220
0.0
230
1.0
  0
LINE
  8
3
  6
CONTINUOUS
 62
     2
  5
710
 10
114.237667
 20
75.255583
 30
0.0
 11
115.679417
 21
75.255583
 31
0.0
  0
SOLID
  8
3
  6
CONTINUOUS
 62
     2
  5
711
 10
114.237667
 20
75.255583
 30
0.0
 11
114.336083
 21
75.273
 31
0.0
 12
114.336083
 22
75.23825
 32
0.0
 13
114.336083
 23
75.23825
 33
0.0
  0
LINE
  8
2
  6
HIDDEN
 62
     2
  5
712
 10
114.51775
 20
73.798917
 30
0.0
 11
114.51775
 21
72.897917
 31
0.0
  0
LINE
  8
2
  6
HIDDEN
 62
     2
  5
713
 10
114.51775
 20
72.897917
 30
0.0
 11
112.721917
 21
72.897917
 31
0.0
  0
SOLID
  8
3
  6
CONTINUOUS
 62
     2
  5
714
 10
121.797833
 20
75.279
 30
0.0
 11
121.896333
 21
75.296417
 31
0.0
 12
121.896333
 22
75.261583
 32
0.0
 13
121.896333
 23
75.261583
 33
0.0
  0
LINE
  8
3
  6
CONTINUOUS
 62
     2
  5
715
 10
121.797833
 20
75.279
 30
0.0
 11
123.239583
 21
75.279
 31
0.0
  0
TEXT
  8
3
  6
CONTINUOUS
 62
     2
  5
716
 10
122.279667
 20
75.0695
 30
0.0
 40
0.15
  1
Specified
 41
0.85
  7
MONOTXT
210
0.0
220
0.0
230
1.0
  0
TEXT
  8
3
  6
CONTINUOUS
 62
     2
  5
717
 10
122.227167
 20
75.345083
 30
0.0
 40
0.15
  1
Curb Where
 41
0.85
  7
MONOTXT
210
0.0
220
0.0
230
1.0
  0
TEXT
  8
3
  6
CONTINUOUS
 62
     2
  5
718
 10
122.227167
 20
75.585917
 30
0.0
 40
0.15
  1
Median or
 41
0.85
  7
MONOTXT
210
0.0
220
0.0
230
1.0
  0
LINE
  8
1
  6
CONTINUOUS
 62
     7
  5
719
 10
120.0485
 20
74.044417
 30
0.0
 11
120.0485
 21
74.816417
 31
0.0
  0
LINE
  8
1
  6
CONTINUOUS
 62
     7
  5
71A
 10
120.779333
 20
74.147167
 30
0.0
 11
120.779333
 21
74.816417
 31
0.0
  0
LINE
  8
1
  6
CONTINUOUS
 62
     7
  5
71B
 10
120.1485
 20
74.672417
 30
0.0
 11
120.679333
 21
74.672417
 31
0.0
  0
SOLID
  8
1
  6
CONTINUOUS
 62
     7
  5
71C
 10
120.1485
 20
74.655667
 30
0.0
 11
120.1485
 21
74.689083
 31
0.0
 12
120.0485
 22
74.672417
 32
0.0
 13
120.0485
 23
74.672417
 33
0.0
  0
SOLID
  8
1
  6
CONTINUOUS
 62
     7
  5
71D
 10
120.679333
 20
74.655667
 30
0.0
 11
120.679333
 21
74.689083
 31
0.0
 12
120.779333
 22
74.672417
 32
0.0
 13
120.779333
 23
74.672417
 33
0.0
  0
TEXT
  8
1
  6
CONTINUOUS
 62
     7
  5
71E
 10
120.141917
 20
74.732417
 30
0.0
 40
0.15
  1
3-1/2"
 41
0.85
  7
MONOTXT
210
0.0
220
0.0
230
1.0
  0
POINT
  8
6
  6
CONTINUOUS
 62
     7
  5
71F
 10
120.0485
 20
73.994417
 30
0.0
  0
LINE
  8
6
  6
CONTINUOUS
 62
     7
  5
720
 10
120.779333
 20
74.097167
 30
0.0
 11
120.779417
 21
74.097167
 31
0.0
  0
LINE
  8
6
  6
CONTINUOUS
 62
     7
  5
721
 10
120.779333
 20
74.672417
 30
0.0
 11
120.779417
 21
74.672417
 31
0.0
  0
LINE
  8
2
  6
HIDDEN
 62
     2
  5
722
 10
120.89675
 20
74.70075
 30
0.0
 11
121.505333
 21
75.858417
 31
0.0
  0
ARC
  8
2
  6
HIDDEN
 62
     2
  5
723
 10
120.618333
 20
74.22265
 30
0.0
 40
0.252862
 50
306.095511
 51
351.762744
210
0.0
220
0.0
230
1.0
  0
ARC
  8
2
  6
HIDDEN
 62
     2
  5
724
 10
120.632267
 20
74.188383
 30
0.0
 40
0.183143
 50
288.314478
 51
3.620492
210
0.0
220
0.0
230
1.0
  0
ARC
  8
2
  6
HIDDEN
 62
     2
  5
725
 10
121.1098
 20
75.39865
 30
0.0
 40
0.140187
 50
83.386203
 51
179.127506
210
0.0
220
0.0
230
1.0
  0
ARC
  8
2
  6
HIDDEN
 62
     2
  5
726
 10
121.369
 20
74.697183
 30
0.0
 40
0.301904
 50
93.401183
 51
135.362122
210
0.0
220
0.0
230
1.0
  0
LINE
  8
2
  6
HIDDEN
 62
     2
  5
727
 10
121.351083
 20
74.998583
 30
0.0
 11
122.078
 21
75.017583
 31
0.0
  0
LINE
  8
2
  6
HIDDEN
 62
     2
  5
728
 10
120.868583
 20
74.186417
 30
0.0
 11
121.154167
 21
74.909333
 31
0.0
  0
LINE
  8
2
  6
HIDDEN
 62
     2
  5
729
 10
120.969583
 20
75.40075
 30
0.0
 11
120.815
 21
74.2
 31
0.0
  0
LINE
  8
2
  6
HIDDEN
 62
     2
  5
72A
 10
122.078
 20
75.591917
 30
0.0
 11
121.125917
 21
75.537833
 31
0.0
  0
LINE
  8
2
  6
HIDDEN
 62
     2
  5
72B
 10
122.078
 20
75.591917
 30
0.0
 11
122.078
 21
72.837667
 31
0.0
  0
SOLID
  8
3
  6
CONTINUOUS
 62
     2
  5
72C
 10
120.006417
 20
73.512
 30
0.0
 11
120.104833
 21
73.529417
 31
0.0
 12
120.104833
 22
73.494583
 32
0.0
 13
120.104833
 23
73.494583
 33
0.0
  0
LINE
  8
3
  6
CONTINUOUS
 62
     2
  5
72D
 10
120.006417
 20
73.512
 30
0.0
 11
121.799917
 21
73.512
 31
0.0
  0
TEXT
  8
3
  6
CONTINUOUS
 62
     2
  5
72E
 10
121.340167
 20
70.334083
 30
0.0
 40
0.15
  1
Grout
 41
0.85
  7
MONOTXT
210
0.0
220
0.0
230
1.0
  0
TEXT
  8
3
  6
CONTINUOUS
 62
     2
  5
72F
 10
121.340167
 20
70.53975
 30
0.0
 40
0.15
  1
Lean
 41
0.85
  7
MONOTXT
210
0.0
220
0.0
230
1.0
  0
TEXT
  8
3
  6
CONTINUOUS
 62
     2
  5
730
 10
117.217167
 20
71.414
 30
0.0
 40
0.15
  1
Base
 41
0.85
  7
MONOTXT
210
0.0
220
0.0
230
1.0
  0
TEXT
  8
3
  6
CONTINUOUS
 62
     2
  5
731
 10
117.5675
 20
73.524583
 30
0.0
 40
0.15
  1
Concrete
 41
0.85
  7
MONOTXT
210
0.0
220
0.0
230
1.0
  0
TEXT
  8
3
  6
CONTINUOUS
 62
     2
  5
732
 10
117.5675
 20
73.73025
 30
0.0
 40
0.15
  1
Bituminous
 41
0.85
  7
MONOTXT
210
0.0
220
0.0
230
1.0
  0
LINE
  8
1
  6
CONTINUOUS
 62
   233
  5
733
 10
120.229667
 20
73.9945
 30
0.0
 11
120.282167
 21
73.9945
 31
0.0
  0
LINE
  8
1
  6
CONTINUOUS
 62
   233
  5
734
 10
120.282167
 20
73.9945
 30
0.0
 11
123.008167
 21
74.128417
 31
0.0
  0
LINE
  8
1
  6
CONTINUOUS
 62
   233
  5
735
 10
120.282167
 20
73.9945
 30
0.0
 11
120.282167
 21
72.757333
 31
0.0
  0
LINE
  8
1
  6
CONTINUOUS
 62
   233
  5
736
 10
120.229667
 20
73.9945
 30
0.0
 11
120.229667
 21
72.776417
 31
0.0
  0
LINE
  8
1
  6
CONTINUOUS
 62
   233
  5
737
 10
120.282167
 20
72.979083
 30
0.0
 11
123.09325
 21
73.125083
 31
0.0
  0
LINE
  8
1
  6
CONTINUOUS
 62
   233
  5
738
 10
120.229667
 20
73.9945
 30
0.0
 11
119.867167
 21
73.9945
 31
0.0
  0
LINE
  8
1
  6
CONTINUOUS
 62
   233
  5
739
 10
122.28625
 20
70.931417
 30
0.0
 11
123.236833
 21
71.02075
 31
0.0
  0
LINE
  8
1
  6
CONTINUOUS
 62
   233
  5
73A
 10
122.28625
 20
73.083083
 30
0.0
 11
122.28625
 21
70.030417
 31
0.0
  0
LINE
  8
1
  6
CONTINUOUS
 62
   233
  5
73B
 10
122.28625
 20
70.030417
 30
0.0
 11
120.015833
 21
70.030417
 31
0.0
  0
ARC
  8
1
  6
CONTINUOUS
 62
   233
  5
73C
 10
120.0492
 20
71.57745
 30
0.0
 40
1.202614
 50
268.106731
 51
81.369353
210
0.0
220
0.0
230
1.0
  0
ARC
  8
1
  6
CONTINUOUS
 62
   233
  5
73D
 10
120.0492
 20
71.57745
 30
0.0
 40
1.319842
 50
268.182458
 51
79.835747
210
0.0
220
0.0
230
1.0
  0
LINE
  8
1
  6
CONTINUOUS
 62
   233
  5
73E
 10
123.008167
 20
74.128417
 30
0.0
 11
123.008167
 21
74.124167
 31
0.0
  0
LINE
  8
1
  6
CONTINUOUS
 62
   233
  5
73F
 10
123.008167
 20
74.124167
 30
0.0
 11
122.9975
 21
74.03125
 31
0.0
  0
LINE
  8
1
  6
CONTINUOUS
 62
   233
  5
740
 10
122.9975
 20
74.03125
 30
0.0
 11
123.073
 21
73.945417
 31
0.0
  0
LINE
  8
1
  6
CONTINUOUS
 62
   233
  5
741
 10
123.073
 20
73.945417
 30
0.0
 11
123.083417
 21
73.846417
 31
0.0
  0
LINE
  8
1
  6
CONTINUOUS
 62
   233
  5
742
 10
123.083417
 20
73.846417
 30
0.0
 11
123.094583
 21
73.77775
 31
0.0
  0
LINE
  8
1
  6
CONTINUOUS
 62
   233
  5
743
 10
123.094583
 20
73.77775
 30
0.0
 11
123.126583
 21
73.69675
 31
0.0
  0
LINE
  8
1
  6
CONTINUOUS
 62
   233
  5
744
 10
123.126583
 20
73.69675
 30
0.0
 11
123.116167
 21
73.610083
 31
0.0
  0
LINE
  8
1
  6
CONTINUOUS
 62
   233
  5
745
 10
123.116167
 20
73.610083
 30
0.0
 11
123.100333
 21
73.546333
 31
0.0
  0
LINE
  8
1
  6
CONTINUOUS
 62
   233
  5
746
 10
123.100333
 20
73.546333
 30
0.0
 11
123.094583
 21
73.448417
 31
0.0
  0
LINE
  8
1
  6
CONTINUOUS
 62
   233
  5
747
 10
123.094583
 20
73.448417
 30
0.0
 11
123.073
 21
73.39075
 31
0.0
  0
LINE
  8
1
  6
CONTINUOUS
 62
   233
  5
748
 10
123.073
 20
73.39075
 30
0.0
 11
123.051417
 21
73.31
 31
0.0
  0
LINE
  8
1
  6
CONTINUOUS
 62
   233
  5
749
 10
123.051417
 20
73.31
 30
0.0
 11
123.094583
 21
73.251417
 31
0.0
  0
LINE
  8
1
  6
CONTINUOUS
 62
   233
  5
74A
 10
123.094583
 20
73.251417
 30
0.0
 11
123.094583
 21
73.130417
 31
0.0
  0
LINE
  8
1
  6
CONTINUOUS
 62
   233
  5
74B
 10
123.094583
 20
73.130417
 30
0.0
 11
123.083417
 21
73.084833
 31
0.0
  0
LINE
  8
1
  6
CONTINUOUS
 62
   233
  5
74C
 10
123.083417
 20
73.084833
 30
0.0
 11
123.100333
 21
73.009083
 31
0.0
  0
LINE
  8
1
  6
CONTINUOUS
 62
   233
  5
74D
 10
123.100333
 20
73.009083
 30
0.0
 11
123.11075
 21
72.97475
 31
0.0
  0
LINE
  8
1
  6
CONTINUOUS
 62
   233
  5
74E
 10
123.11075
 20
72.97475
 30
0.0
 11
123.116167
 21
72.940417
 31
0.0
  0
LINE
  8
1
  6
CONTINUOUS
 62
   233
  5
74F
 10
123.116167
 20
72.940417
 30
0.0
 11
123.083417
 21
72.893833
 31
0.0
  0
LINE
  8
1
  6
CONTINUOUS
 62
   233
  5
750
 10
123.083417
 20
72.893833
 30
0.0
 11
123.083417
 21
72.743417
 31
0.0
  0
LINE
  8
1
  6
CONTINUOUS
 62
   233
  5
751
 10
123.083417
 20
72.743417
 30
0.0
 11
123.073
 21
72.697083
 31
0.0
  0
LINE
  8
1
  6
CONTINUOUS
 62
   233
  5
752
 10
123.073
 20
72.697083
 30
0.0
 11
123.083417
 21
72.628333
 31
0.0
  0
LINE
  8
1
  6
CONTINUOUS
 62
   233
  5
753
 10
123.083417
 20
72.628333
 30
0.0
 11
123.094583
 21
72.552583
 31
0.0
  0
LINE
  8
1
  6
CONTINUOUS
 62
   233
  5
754
 10
123.094583
 20
72.552583
 30
0.0
 11
123.073
 21
72.46675
 31
0.0
  0
LINE
  8
1
  6
CONTINUOUS
 62
   233
  5
755
 10
123.073
 20
72.46675
 30
0.0
 11
123.100333
 21
72.420417
 31
0.0
  0
LINE
  8
1
  6
CONTINUOUS
 62
   233
  5
756
 10
123.100333
 20
72.420417
 30
0.0
 11
123.11075
 21
72.38525
 31
0.0
  0
LINE
  8
1
  6
CONTINUOUS
 62
   233
  5
757
 10
123.11075
 20
72.38525
 30
0.0
 11
123.105
 21
72.3225
 31
0.0
  0
LINE
  8
1
  6
CONTINUOUS
 62
   233
  5
758
 10
123.105
 20
72.3225
 30
0.0
 11
123.148167
 21
72.25275
 31
0.0
  0
LINE
  8
1
  6
CONTINUOUS
 62
   233
  5
759
 10
123.148167
 20
72.25275
 30
0.0
 11
123.153917
 21
72.091083
 31
0.0
  0
LINE
  8
1
  6
CONTINUOUS
 62
   233
  5
75A
 10
123.153917
 20
72.091083
 30
0.0
 11
123.191667
 21
72.03875
 31
0.0
  0
LINE
  8
1
  6
CONTINUOUS
 62
   233
  5
75B
 10
123.191667
 20
72.03875
 30
0.0
 11
123.1805
 21
71.952917
 31
0.0
  0
LINE
  8
1
  6
CONTINUOUS
 62
   233
  5
75C
 10
123.1805
 20
71.952917
 30
0.0
 11
123.164333
 21
71.877167
 31
0.0
  0
LINE
  8
1
  6
CONTINUOUS
 62
   233
  5
75D
 10
123.164333
 20
71.877167
 30
0.0
 11
123.185917
 21
71.796417
 31
0.0
  0
LINE
  8
1
  6
CONTINUOUS
 62
   233
  5
75E
 10
123.185917
 20
71.796417
 30
0.0
 11
123.191667
 21
71.686417
 31
0.0
  0
LINE
  8
1
  6
CONTINUOUS
 62
   233
  5
75F
 10
123.191667
 20
71.686417
 30
0.0
 11
123.1805
 21
71.58825
 31
0.0
  0
LINE
  8
1
  6
CONTINUOUS
 62
   233
  5
760
 10
123.1805
 20
71.58825
 30
0.0
 11
123.223667
 21
71.507583
 31
0.0
  0
LINE
  8
1
  6
CONTINUOUS
 62
   233
  5
761
 10
123.223667
 20
71.507583
 30
0.0
 11
123.21325
 21
71.415417
 31
0.0
  0
LINE
  8
1
  6
CONTINUOUS
 62
   233
  5
762
 10
123.21325
 20
71.415417
 30
0.0
 11
123.25575
 21
71.31675
 31
0.0
  0
LINE
  8
1
  6
CONTINUOUS
 62
   233
  5
763
 10
123.25575
 20
71.31675
 30
0.0
 11
123.229417
 21
71.212667
 31
0.0
  0
LINE
  8
1
  6
CONTINUOUS
 62
   233
  5
764
 10
123.229417
 20
71.212667
 30
0.0
 11
123.239833
 21
71.138
 31
0.0
  0
LINE
  8
1
  6
CONTINUOUS
 62
   233
  5
765
 10
123.239833
 20
71.138
 30
0.0
 11
123.223667
 21
71.086167
 31
0.0
  0
LINE
  8
1
  6
CONTINUOUS
 62
   233
  5
766
 10
123.223667
 20
71.086167
 30
0.0
 11
123.236833
 21
71.02075
 31
0.0
  0
LINE
  8
1
  6
CONTINUOUS
 62
   233
  5
767
 10
120.229667
 20
72.776417
 30
0.0
 11
120.229667
 21
72.766417
 31
0.0
  0
LINE
  8
1
  6
CONTINUOUS
 62
   233
  5
768
 10
119.867167
 20
72.776417
 30
0.0
 11
119.867167
 21
72.766417
 31
0.0
  0
LINE
  8
1
  6
CONTINUOUS
 62
   233
  5
769
 10
117.008167
 20
71.0775
 30
0.0
 11
116.994333
 21
71.008083
 31
0.0
  0
LINE
  8
1
  6
CONTINUOUS
 62
   233
  5
76A
 10
116.992083
 20
71.12925
 30
0.0
 11
117.008167
 21
71.0775
 31
0.0
  0
LINE
  8
1
  6
CONTINUOUS
 62
   233
  5
76B
 10
117.0025
 20
71.204
 30
0.0
 11
116.992083
 21
71.12925
 31
0.0
  0
LINE
  8
1
  6
CONTINUOUS
 62
   233
  5
76C
 10
116.976167
 20
71.308083
 30
0.0
 11
117.0025
 21
71.204
 31
0.0
  0
LINE
  8
1
  6
CONTINUOUS
 62
   233
  5
76D
 10
117.018583
 20
71.40675
 30
0.0
 11
116.976167
 21
71.308083
 31
0.0
  0
LINE
  8
1
  6
CONTINUOUS
 62
   233
  5
76E
 10
117.008167
 20
71.498833
 30
0.0
 11
117.018583
 21
71.40675
 31
0.0
  0
LINE
  8
1
  6
CONTINUOUS
 62
   233
  5
76F
 10
117.051417
 20
71.579583
 30
0.0
 11
117.008167
 21
71.498833
 31
0.0
  0
LINE
  8
1
  6
CONTINUOUS
 62
   233
  5
770
 10
117.040167
 20
71.67775
 30
0.0
 11
117.051417
 21
71.579583
 31
0.0
  0
LINE
  8
1
  6
CONTINUOUS
 62
   233
  5
771
 10
117.045917
 20
71.78775
 30
0.0
 11
117.040167
 21
71.67775
 31
0.0
  0
LINE
  8
1
  6
CONTINUOUS
 62
   233
  5
772
 10
117.0675
 20
71.868417
 30
0.0
 11
117.045917
 21
71.78775
 31
0.0
  0
LINE
  8
1
  6
CONTINUOUS
 62
   233
  5
773
 10
117.051417
 20
71.94425
 30
0.0
 11
117.0675
 21
71.868417
 31
0.0
  0
LINE
  8
1
  6
CONTINUOUS
 62
   233
  5
774
 10
117.040167
 20
72.030083
 30
0.0
 11
117.051417
 21
71.94425
 31
0.0
  0
LINE
  8
1
  6
CONTINUOUS
 62
   233
  5
775
 10
117.077917
 20
72.082417
 30
0.0
 11
117.040167
 21
72.030083
 31
0.0
  0
LINE
  8
1
  6
CONTINUOUS
 62
   233
  5
776
 10
117.083667
 20
72.244083
 30
0.0
 11
117.077917
 21
72.082417
 31
0.0
  0
LINE
  8
1
  6
CONTINUOUS
 62
   233
  5
777
 10
117.126833
 20
72.313833
 30
0.0
 11
117.083667
 21
72.244083
 31
0.0
  0
LINE
  8
1
  6
CONTINUOUS
 62
   233
  5
778
 10
117.121167
 20
72.3765
 30
0.0
 11
117.126833
 21
72.313833
 31
0.0
  0
LINE
  8
1
  6
CONTINUOUS
 62
   233
  5
779
 10
117.131583
 20
72.41175
 30
0.0
 11
117.121167
 21
72.3765
 31
0.0
  0
LINE
  8
1
  6
CONTINUOUS
 62
   233
  5
77A
 10
117.158833
 20
72.458
 30
0.0
 11
117.131583
 21
72.41175
 31
0.0
  0
LINE
  8
1
  6
CONTINUOUS
 62
   233
  5
77B
 10
117.13725
 20
72.543917
 30
0.0
 11
117.158833
 21
72.458
 31
0.0
  0
LINE
  8
1
  6
CONTINUOUS
 62
   233
  5
77C
 10
117.1485
 20
72.619667
 30
0.0
 11
117.13725
 21
72.543917
 31
0.0
  0
LINE
  8
1
  6
CONTINUOUS
 62
   233
  5
77D
 10
117.158833
 20
72.688417
 30
0.0
 11
117.1485
 21
72.619667
 31
0.0
  0
LINE
  8
1
  6
CONTINUOUS
 62
   233
  5
77E
 10
117.1485
 20
72.73475
 30
0.0
 11
117.158833
 21
72.688417
 31
0.0
  0
LINE
  8
1
  6
CONTINUOUS
 62
   233
  5
77F
 10
117.1485
 20
72.885083
 30
0.0
 11
117.1485
 21
72.73475
 31
0.0
  0
LINE
  8
1
  6
CONTINUOUS
 62
   233
  5
780
 10
117.115667
 20
72.93175
 30
0.0
 11
117.1485
 21
72.885083
 31
0.0
  0
LINE
  8
1
  6
CONTINUOUS
 62
   233
  5
781
 10
117.121167
 20
72.966083
 30
0.0
 11
117.115667
 21
72.93175
 31
0.0
  0
LINE
  8
1
  6
CONTINUOUS
 62
   233
  5
782
 10
117.131583
 20
73.000417
 30
0.0
 11
117.121167
 21
72.966083
 31
0.0
  0
LINE
  8
1
  6
CONTINUOUS
 62
   233
  5
783
 10
117.1485
 20
73.076167
 30
0.0
 11
117.131583
 21
73.000417
 31
0.0
  0
LINE
  8
1
  6
CONTINUOUS
 62
   233
  5
784
 10
117.13725
 20
73.12175
 30
0.0
 11
117.1485
 21
73.076167
 31
0.0
  0
LINE
  8
1
  6
CONTINUOUS
 62
   233
  5
785
 10
117.13725
 20
73.24275
 30
0.0
 11
117.13725
 21
73.12175
 31
0.0
  0
LINE
  8
1
  6
CONTINUOUS
 62
   233
  5
786
 10
117.1805
 20
73.301333
 30
0.0
 11
117.13725
 21
73.24275
 31
0.0
  0
LINE
  8
1
  6
CONTINUOUS
 62
   233
  5
787
 10
117.158833
 20
73.382
 30
0.0
 11
117.1805
 21
73.301333
 31
0.0
  0
LINE
  8
1
  6
CONTINUOUS
 62
   233
  5
788
 10
117.13725
 20
73.43975
 30
0.0
 11
117.158833
 21
73.382
 31
0.0
  0
LINE
  8
1
  6
CONTINUOUS
 62
   233
  5
789
 10
117.131583
 20
73.537667
 30
0.0
 11
117.13725
 21
73.43975
 31
0.0
  0
LINE
  8
1
  6
CONTINUOUS
 62
   233
  5
78A
 10
117.115667
 20
73.601417
 30
0.0
 11
117.131583
 21
73.537667
 31
0.0
  0
LINE
  8
1
  6
CONTINUOUS
 62
   233
  5
78B
 10
117.10525
 20
73.688083
 30
0.0
 11
117.115667
 21
73.601417
 31
0.0
  0
LINE
  8
1
  6
CONTINUOUS
 62
   233
  5
78C
 10
117.13725
 20
73.769083
 30
0.0
 11
117.10525
 21
73.688083
 31
0.0
  0
LINE
  8
1
  6
CONTINUOUS
 62
   233
  5
78D
 10
117.1485
 20
73.83775
 30
0.0
 11
117.13725
 21
73.769083
 31
0.0
  0
LINE
  8
1
  6
CONTINUOUS
 62
   233
  5
78E
 10
117.158833
 20
73.936667
 30
0.0
 11
117.1485
 21
73.83775
 31
0.0
  0
LINE
  8
1
  6
CONTINUOUS
 62
   233
  5
78F
 10
117.234417
 20
74.022583
 30
0.0
 11
117.158833
 21
73.936667
 31
0.0
  0
LINE
  8
1
  6
CONTINUOUS
 62
   233
  5
790
 10
117.22375
 20
74.115417
 30
0.0
 11
117.234417
 21
74.022583
 31
0.0
  0
LINE
  8
1
  6
CONTINUOUS
 62
   233
  5
791
 10
117.22375
 20
74.157
 30
0.0
 11
117.22375
 21
74.115417
 31
0.0
  0
ARC
  8
1
  6
CONTINUOUS
 62
   233
  5
792
 10
120.047667
 20
71.57745
 30
0.0
 40
1.319842
 50
100.164247
 51
268.249411
210
0.0
220
0.0
230
1.0
  0
ARC
  8
1
  6
CONTINUOUS
 62
   233
  5
793
 10
120.047667
 20
71.57745
 30
0.0
 40
1.202614
 50
98.630642
 51
268.180214
210
0.0
220
0.0
230
1.0
  0
LINE
  8
1
  6
CONTINUOUS
 62
   233
  5
794
 10
117.8705
 20
70.030417
 30
0.0
 11
120.081083
 21
70.030417
 31
0.0
  0
LINE
  8
1
  6
CONTINUOUS
 62
   233
  5
795
 10
117.8705
 20
73.114333
 30
0.0
 11
117.8705
 21
70.030417
 31
0.0
  0
LINE
  8
1
  6
CONTINUOUS
 62
   233
  5
796
 10
117.8705
 20
70.92575
 30
0.0
 11
116.994333
 21
71.008083
 31
0.0
  0
LINE
  8
1
  6
CONTINUOUS
 62
   233
  5
797
 10
119.867167
 20
73.9945
 30
0.0
 11
120.229667
 21
73.9945
 31
0.0
  0
LINE
  8
1
  6
CONTINUOUS
 62
   233
  5
798
 10
119.81475
 20
72.979083
 30
0.0
 11
117.132
 21
73.165667
 31
0.0
  0
LINE
  8
1
  6
CONTINUOUS
 62
   233
  5
799
 10
119.867167
 20
73.9945
 30
0.0
 11
119.867167
 21
72.776417
 31
0.0
  0
LINE
  8
1
  6
CONTINUOUS
 62
   233
  5
79A
 10
119.81475
 20
73.9945
 30
0.0
 11
119.81475
 21
72.757333
 31
0.0
  0
LINE
  8
1
  6
CONTINUOUS
 62
   233
  5
79B
 10
119.81475
 20
73.9945
 30
0.0
 11
117.22375
 21
74.157
 31
0.0
  0
LINE
  8
1
  6
CONTINUOUS
 62
   233
  5
79C
 10
119.867167
 20
73.9945
 30
0.0
 11
119.81475
 21
73.9945
 31
0.0
  0
LINE
  8
2
  6
HIDDEN
 62
     2
  5
79D
 10
120.282167
 20
72.979083
 30
0.0
 11
122.078
 21
72.837667
 31
0.0
  0
SOLID
  8
3
  6
CONTINUOUS
 62
     2
  5
79E
 10
120.835333
 20
72.35075
 30
0.0
 11
120.858333
 21
72.326667
 31
0.0
 12
120.91925
 22
72.407667
 32
0.0
 13
120.91925
 23
72.407667
 33
0.0
  0
LINE
  8
3
  6
CONTINUOUS
 62
     2
  5
79F
 10
120.846833
 20
72.33875
 30
0.0
 11
119.176833
 21
70.748
 31
0.0
  0
SOLID
  8
3
  6
CONTINUOUS
 62
     2
  5
7A0
 10
119.260833
 20
70.804833
 30
0.0
 11
119.237833
 21
70.829
 31
0.0
 12
119.176833
 22
70.748
 32
0.0
 13
119.176833
 23
70.748
 33
0.0
  0
LINE
  8
3
  6
CONTINUOUS
 62
     2
  5
7A1
 10
119.249333
 20
70.816917
 30
0.0
 11
119.623167
 21
71.173083
 31
0.0
  0
TEXT
  8
3
  6
CONTINUOUS
 62
     2
  5
7A2
 10
119.961
 20
71.604417
 30
0.0
 40
0.15
  1
D
 41
0.85
  7
MONOTXT
210
0.0
220
0.0
230
1.0
  0
LINE
  8
1
  6
CONTINUOUS
 62
     7
  5
7A3
 10
119.76475
 20
73.9945
 30
0.0
 11
119.57425
 21
73.9945
 31
0.0
  0
LINE
  8
1
  6
CONTINUOUS
 62
     7
  5
7A4
 10
119.76475
 20
72.757333
 30
0.0
 11
119.57425
 21
72.757333
 31
0.0
  0
LINE
  8
1
  6
CONTINUOUS
 62
     7
  5
7A5
 10
119.71825
 20
73.8945
 30
0.0
 11
119.71825
 21
72.857333
 31
0.0
  0
SOLID
  8
1
  6
CONTINUOUS
 62
     7
  5
7A6
 10
119.701583
 20
73.8945
 30
0.0
 11
119.734917
 21
73.8945
 31
0.0
 12
119.71825
 22
73.9945
 32
0.0
 13
119.71825
 23
73.9945
 33
0.0
  0
SOLID
  8
1
  6
CONTINUOUS
 62
     7
  5
7A7
 10
119.701583
 20
72.857333
 30
0.0
 11
119.734917
 21
72.857333
 31
0.0
 12
119.71825
 22
72.757333
 32
0.0
 13
119.71825
 23
72.757333
 33
0.0
  0
LINE
  8
6
  6
CONTINUOUS
 62
     7
  5
7A8
 10
119.81475
 20
73.9945
 30
0.0
 11
119.814833
 21
73.9945
 31
0.0
  0
LINE
  8
6
  6
CONTINUOUS
 62
     7
  5
7A9
 10
119.81475
 20
72.757333
 30
0.0
 11
119.814833
 21
72.757333
 31
0.0
  0
LINE
  8
6
  6
CONTINUOUS
 62
     7
  5
7AA
 10
119.71825
 20
72.757333
 30
0.0
 11
119.718333
 21
72.757333
 31
0.0
  0
TEXT
  8
3
  6
CONTINUOUS
 62
     2
  5
7AB
 10
118.684333
 20
73.313
 30
0.0
 40
0.15
  1
2.5" or 6"
 41
0.85
  7
MONOTXT
210
0.0
220
0.0
230
1.0
  0
TEXT
  8
3
  6
CONTINUOUS
 62
     2
  5
7AC
 10
118.6915
 20
64.556417
 30
0.0
 40
0.15
  1
2.5" or 6"
 41
0.85
  7
MONOTXT
210
0.0
220
0.0
230
1.0
  0
INSERT
  8
1
  6
CONTINUOUS
 62
     7
  5
7B8
  2
D3
 10
119.81375
 20
64.004583
 30
0.0
 41
0.799998
 42
0.799998
210
0.0
220
0.0
230
1.0
  0
LINE
  8
1
  6
CONTINUOUS
 62
   233
  5
7B9
 10
119.940917
 20
65.244
 30
0.0
 11
117.38625
 21
65.40425
 31
0.0
  0
LINE
  8
1
  6
CONTINUOUS
 62
   233
  5
7BA
 10
117.97725
 20
62.17825
 30
0.0
 11
117.156833
 21
62.255333
 31
0.0
  0
LINE
  8
1
  6
CONTINUOUS
 62
   233
  5
7BB
 10
117.967667
 20
60.837917
 30
0.0
 11
120.178333
 21
60.837917
 31
0.0
  0
ARC
  8
1
  6
CONTINUOUS
 62
   233
  5
7BC
 10
120.210183
 20
62.824683
 30
0.0
 40
1.202614
 50
102.9393
 51
268.180214
210
0.0
220
0.0
230
1.0
  0
ARC
  8
1
  6
CONTINUOUS
 62
   233
  5
7BD
 10
120.210183
 20
62.824683
 30
0.0
 40
1.319842
 50
101.772739
 51
268.249414
210
0.0
220
0.0
230
1.0
  0
LINE
  8
1
  6
CONTINUOUS
 62
   233
  5
7BE
 10
117.38625
 20
65.40425
 30
0.0
 11
117.38625
 21
65.36275
 31
0.0
  0
LINE
  8
1
  6
CONTINUOUS
 62
   233
  5
7BF
 10
117.38625
 20
65.36275
 30
0.0
 11
117.396917
 21
65.269833
 31
0.0
  0
LINE
  8
1
  6
CONTINUOUS
 62
   233
  5
7C0
 10
117.396917
 20
65.269833
 30
0.0
 11
117.321417
 21
65.183917
 31
0.0
  0
LINE
  8
1
  6
CONTINUOUS
 62
   233
  5
7C1
 10
117.321417
 20
65.183917
 30
0.0
 11
117.311083
 21
65.085
 31
0.0
  0
LINE
  8
1
  6
CONTINUOUS
 62
   233
  5
7C2
 10
117.311083
 20
65.085
 30
0.0
 11
117.299833
 21
65.01625
 31
0.0
  0
LINE
  8
1
  6
CONTINUOUS
 62
   233
  5
7C3
 10
117.299833
 20
65.01625
 30
0.0
 11
117.267833
 21
64.935333
 31
0.0
  0
LINE
  8
1
  6
CONTINUOUS
 62
   233
  5
7C4
 10
117.267833
 20
64.935333
 30
0.0
 11
117.27825
 21
64.848667
 31
0.0
  0
LINE
  8
1
  6
CONTINUOUS
 62
   233
  5
7C5
 10
117.27825
 20
64.848667
 30
0.0
 11
117.294083
 21
64.784917
 31
0.0
  0
LINE
  8
1
  6
CONTINUOUS
 62
   233
  5
7C6
 10
117.294083
 20
64.784917
 30
0.0
 11
117.299833
 21
64.687083
 31
0.0
  0
LINE
  8
1
  6
CONTINUOUS
 62
   233
  5
7C7
 10
117.299833
 20
64.687083
 30
0.0
 11
117.321417
 21
64.62925
 31
0.0
  0
LINE
  8
1
  6
CONTINUOUS
 62
   233
  5
7C8
 10
117.321417
 20
64.62925
 30
0.0
 11
117.343083
 21
64.548583
 31
0.0
  0
LINE
  8
1
  6
CONTINUOUS
 62
   233
  5
7C9
 10
117.343083
 20
64.548583
 30
0.0
 11
117.299833
 21
64.49
 31
0.0
  0
LINE
  8
1
  6
CONTINUOUS
 62
   233
  5
7CA
 10
117.299833
 20
64.49
 30
0.0
 11
117.299833
 21
64.369
 31
0.0
  0
LINE
  8
1
  6
CONTINUOUS
 62
   233
  5
7CB
 10
117.299833
 20
64.369
 30
0.0
 11
117.311083
 21
64.323417
 31
0.0
  0
LINE
  8
1
  6
CONTINUOUS
 62
   233
  5
7CC
 10
117.311083
 20
64.323417
 30
0.0
 11
117.294083
 21
64.247667
 31
0.0
  0
LINE
  8
1
  6
CONTINUOUS
 62
   233
  5
7CD
 10
117.294083
 20
64.247667
 30
0.0
 11
117.28375
 21
64.213333
 31
0.0
  0
LINE
  8
1
  6
CONTINUOUS
 62
   233
  5
7CE
 10
117.28375
 20
64.213333
 30
0.0
 11
117.27825
 21
64.179
 31
0.0
  0
LINE
  8
1
  6
CONTINUOUS
 62
   233
  5
7CF
 10
117.27825
 20
64.179
 30
0.0
 11
117.311083
 21
64.132417
 31
0.0
  0
LINE
  8
1
  6
CONTINUOUS
 62
   233
  5
7D0
 10
117.311083
 20
64.132417
 30
0.0
 11
117.311083
 21
63.981917
 31
0.0
  0
LINE
  8
1
  6
CONTINUOUS
 62
   233
  5
7D1
 10
117.311083
 20
63.981917
 30
0.0
 11
117.321417
 21
63.935583
 31
0.0
  0
LINE
  8
1
  6
CONTINUOUS
 62
   233
  5
7D2
 10
117.321417
 20
63.935583
 30
0.0
 11
117.311083
 21
63.866917
 31
0.0
  0
LINE
  8
1
  6
CONTINUOUS
 62
   233
  5
7D3
 10
117.311083
 20
63.866917
 30
0.0
 11
117.299833
 21
63.791167
 31
0.0
  0
LINE
  8
1
  6
CONTINUOUS
 62
   233
  5
7D4
 10
117.299833
 20
63.791167
 30
0.0
 11
117.321417
 21
63.70525
 31
0.0
  0
LINE
  8
1
  6
CONTINUOUS
 62
   233
  5
7D5
 10
117.321417
 20
63.70525
 30
0.0
 11
117.294083
 21
63.658917
 31
0.0
  0
LINE
  8
1
  6
CONTINUOUS
 62
   233
  5
7D6
 10
117.294083
 20
63.658917
 30
0.0
 11
117.28375
 21
63.623833
 31
0.0
  0
LINE
  8
1
  6
CONTINUOUS
 62
   233
  5
7D7
 10
117.28375
 20
63.623833
 30
0.0
 11
117.289417
 21
63.561083
 31
0.0
  0
LINE
  8
1
  6
CONTINUOUS
 62
   233
  5
7D8
 10
117.289417
 20
63.561083
 30
0.0
 11
117.24625
 21
63.491333
 31
0.0
  0
LINE
  8
1
  6
CONTINUOUS
 62
   233
  5
7D9
 10
117.24625
 20
63.491333
 30
0.0
 11
117.2405
 21
63.329667
 31
0.0
  0
LINE
  8
1
  6
CONTINUOUS
 62
   233
  5
7DA
 10
117.2405
 20
63.329667
 30
0.0
 11
117.20275
 21
63.277333
 31
0.0
  0
LINE
  8
1
  6
CONTINUOUS
 62
   233
  5
7DB
 10
117.20275
 20
63.277333
 30
0.0
 11
117.213917
 21
63.1915
 31
0.0
  0
LINE
  8
1
  6
CONTINUOUS
 62
   233
  5
7DC
 10
117.213917
 20
63.1915
 30
0.0
 11
117.230083
 21
63.11575
 31
0.0
  0
LINE
  8
1
  6
CONTINUOUS
 62
   233
  5
7DD
 10
117.230083
 20
63.11575
 30
0.0
 11
117.208417
 21
63.035083
 31
0.0
  0
LINE
  8
1
  6
CONTINUOUS
 62
   233
  5
7DE
 10
117.208417
 20
63.035083
 30
0.0
 11
117.20275
 21
62.924917
 31
0.0
  0
LINE
  8
1
  6
CONTINUOUS
 62
   233
  5
7DF
 10
117.20275
 20
62.924917
 30
0.0
 11
117.213917
 21
62.826833
 31
0.0
  0
LINE
  8
1
  6
CONTINUOUS
 62
   233
  5
7E0
 10
117.213917
 20
62.826833
 30
0.0
 11
117.17075
 21
62.746167
 31
0.0
  0
LINE
  8
1
  6
CONTINUOUS
 62
   233
  5
7E1
 10
117.17075
 20
62.746167
 30
0.0
 11
117.181083
 21
62.654
 31
0.0
  0
LINE
  8
1
  6
CONTINUOUS
 62
   233
  5
7E2
 10
117.181083
 20
62.654
 30
0.0
 11
117.13875
 21
62.555333
 31
0.0
  0
LINE
  8
1
  6
CONTINUOUS
 62
   233
  5
7E3
 10
117.13875
 20
62.555333
 30
0.0
 11
117.165
 21
62.45125
 31
0.0
  0
LINE
  8
1
  6
CONTINUOUS
 62
   233
  5
7E4
 10
117.165
 20
62.45125
 30
0.0
 11
117.154583
 21
62.376583
 31
0.0
  0
LINE
  8
1
  6
CONTINUOUS
 62
   233
  5
7E5
 10
117.154583
 20
62.376583
 30
0.0
 11
117.17075
 21
62.32475
 31
0.0
  0
LINE
  8
1
  6
CONTINUOUS
 62
   233
  5
7E6
 10
117.17075
 20
62.32475
 30
0.0
 11
117.156833
 21
62.255333
 31
0.0
  0
LINE
  8
1
  6
CONTINUOUS
 62
   233
  5
7E7
 10
120.02975
 20
64.023667
 30
0.0
 11
120.02975
 21
64.013667
 31
0.0
  0
POINT
  8
5
  6
CONTINUOUS
 62
    99
  5
7E8
 10
118.333083
 20
62.81875
 30
0.0
  0
POINT
  8
5
  6
CONTINUOUS
 62
    99
  5
7E9
 10
118.393083
 20
62.81875
 30
0.0
  0
POINT
  8
5
  6
CONTINUOUS
 62
    99
  5
7EA
 10
118.453083
 20
62.81875
 30
0.0
  0
POINT
  8
5
  6
CONTINUOUS
 62
    99
  5
7EB
 10
121.968833
 20
62.81875
 30
0.0
  0
POINT
  8
5
  6
CONTINUOUS
 62
    99
  5
7EC
 10
122.028833
 20
62.81875
 30
0.0
  0
POINT
  8
5
  6
CONTINUOUS
 62
    99
  5
7ED
 10
122.088833
 20
62.81875
 30
0.0
  0
LINE
  8
1
  6
CONTINUOUS
 62
   233
  5
7EE
 10
120.39225
 20
64.023667
 30
0.0
 11
120.39225
 21
64.013667
 31
0.0
  0
LINE
  8
1
  6
CONTINUOUS
 62
   233
  5
7EF
 10
123.38625
 20
62.333417
 30
0.0
 11
123.399333
 21
62.268
 31
0.0
  0
LINE
  8
1
  6
CONTINUOUS
 62
   233
  5
7F0
 10
123.402417
 20
62.38525
 30
0.0
 11
123.38625
 21
62.333417
 31
0.0
  0
LINE
  8
1
  6
CONTINUOUS
 62
   233
  5
7F1
 10
123.392
 20
62.459917
 30
0.0
 11
123.402417
 21
62.38525
 31
0.0
  0
LINE
  8
1
  6
CONTINUOUS
 62
   233
  5
7F2
 10
123.41825
 20
62.564
 30
0.0
 11
123.392
 21
62.459917
 31
0.0
  0
LINE
  8
1
  6
CONTINUOUS
 62
   233
  5
7F3
 10
123.375833
 20
62.662667
 30
0.0
 11
123.41825
 21
62.564
 31
0.0
  0
LINE
  8
1
  6
CONTINUOUS
 62
   233
  5
7F4
 10
123.38625
 20
62.754833
 30
0.0
 11
123.375833
 21
62.662667
 31
0.0
  0
LINE
  8
1
  6
CONTINUOUS
 62
   233
  5
7F5
 10
123.343083
 20
62.8355
 30
0.0
 11
123.38625
 21
62.754833
 31
0.0
  0
LINE
  8
1
  6
CONTINUOUS
 62
   233
  5
7F6
 10
123.35425
 20
62.933583
 30
0.0
 11
123.343083
 21
62.8355
 31
0.0
  0
LINE
  8
1
  6
CONTINUOUS
 62
   233
  5
7F7
 10
123.3485
 20
63.04375
 30
0.0
 11
123.35425
 21
62.933583
 31
0.0
  0
LINE
  8
1
  6
CONTINUOUS
 62
   233
  5
7F8
 10
123.326917
 20
63.124417
 30
0.0
 11
123.3485
 21
63.04375
 31
0.0
  0
LINE
  8
1
  6
CONTINUOUS
 62
   233
  5
7F9
 10
123.343083
 20
63.200167
 30
0.0
 11
123.326917
 21
63.124417
 31
0.0
  0
LINE
  8
1
  6
CONTINUOUS
 62
   233
  5
7FA
 10
123.35425
 20
63.286083
 30
0.0
 11
123.343083
 21
63.200167
 31
0.0
  0
LINE
  8
1
  6
CONTINUOUS
 62
   233
  5
7FB
 10
123.316417
 20
63.338333
 30
0.0
 11
123.35425
 21
63.286083
 31
0.0
  0
LINE
  8
1
  6
CONTINUOUS
 62
   233
  5
7FC
 10
123.31075
 20
63.5
 30
0.0
 11
123.316417
 21
63.338333
 31
0.0
  0
LINE
  8
1
  6
CONTINUOUS
 62
   233
  5
7FD
 10
123.2675
 20
63.56975
 30
0.0
 11
123.31075
 21
63.5
 31
0.0
  0
LINE
  8
1
  6
CONTINUOUS
 62
   233
  5
7FE
 10
123.27325
 20
63.6325
 30
0.0
 11
123.2675
 21
63.56975
 31
0.0
  0
LINE
  8
1
  6
CONTINUOUS
 62
   233
  5
7FF
 10
123.262833
 20
63.667583
 30
0.0
 11
123.27325
 21
63.6325
 31
0.0
  0
LINE
  8
1
  6
CONTINUOUS
 62
   233
  5
800
 10
123.2355
 20
63.713917
 30
0.0
 11
123.262833
 21
63.667583
 31
0.0
  0
LINE
  8
1
  6
CONTINUOUS
 62
   233
  5
801
 10
123.257083
 20
63.799917
 30
0.0
 11
123.2355
 21
63.713917
 31
0.0
  0
LINE
  8
1
  6
CONTINUOUS
 62
   233
  5
802
 10
123.245917
 20
63.875583
 30
0.0
 11
123.257083
 21
63.799917
 31
0.0
  0
LINE
  8
1
  6
CONTINUOUS
 62
   233
  5
803
 10
123.2355
 20
63.94425
 30
0.0
 11
123.245917
 21
63.875583
 31
0.0
  0
LINE
  8
1
  6
CONTINUOUS
 62
   233
  5
804
 10
123.245917
 20
63.990583
 30
0.0
 11
123.2355
 21
63.94425
 31
0.0
  0
LINE
  8
1
  6
CONTINUOUS
 62
   233
  5
805
 10
123.245917
 20
64.141083
 30
0.0
 11
123.245917
 21
63.990583
 31
0.0
  0
LINE
  8
1
  6
CONTINUOUS
 62
   233
  5
806
 10
123.27875
 20
64.187667
 30
0.0
 11
123.245917
 21
64.141083
 31
0.0
  0
LINE
  8
1
  6
CONTINUOUS
 62
   233
  5
807
 10
123.27325
 20
64.222
 30
0.0
 11
123.27875
 21
64.187667
 31
0.0
  0
LINE
  8
1
  6
CONTINUOUS
 62
   233
  5
808
 10
123.262833
 20
64.256417
 30
0.0
 11
123.27325
 21
64.222
 31
0.0
  0
LINE
  8
1
  6
CONTINUOUS
 62
   233
  5
809
 10
123.245917
 20
64.332167
 30
0.0
 11
123.262833
 21
64.256417
 31
0.0
  0
LINE
  8
1
  6
CONTINUOUS
 62
   233
  5
80A
 10
123.257083
 20
64.377667
 30
0.0
 11
123.245917
 21
64.332167
 31
0.0
  0
LINE
  8
1
  6
CONTINUOUS
 62
   233
  5
80B
 10
123.257083
 20
64.498667
 30
0.0
 11
123.257083
 21
64.377667
 31
0.0
  0
LINE
  8
1
  6
CONTINUOUS
 62
   233
  5
80C
 10
123.213917
 20
64.55725
 30
0.0
 11
123.257083
 21
64.498667
 31
0.0
  0
LINE
  8
1
  6
CONTINUOUS
 62
   233
  5
80D
 10
123.2355
 20
64.637917
 30
0.0
 11
123.213917
 21
64.55725
 31
0.0
  0
LINE
  8
1
  6
CONTINUOUS
 62
   233
  5
80E
 10
123.257083
 20
64.69575
 30
0.0
 11
123.2355
 21
64.637917
 31
0.0
  0
LINE
  8
1
  6
CONTINUOUS
 62
   233
  5
80F
 10
123.262833
 20
64.793583
 30
0.0
 11
123.257083
 21
64.69575
 31
0.0
  0
LINE
  8
1
  6
CONTINUOUS
 62
   233
  5
810
 10
123.27875
 20
64.857333
 30
0.0
 11
123.262833
 21
64.793583
 31
0.0
  0
LINE
  8
1
  6
CONTINUOUS
 62
   233
  5
811
 10
123.289167
 20
64.944
 30
0.0
 11
123.27875
 21
64.857333
 31
0.0
  0
LINE
  8
1
  6
CONTINUOUS
 62
   233
  5
812
 10
123.257083
 20
65.025
 30
0.0
 11
123.289167
 21
64.944
 31
0.0
  0
LINE
  8
1
  6
CONTINUOUS
 62
   233
  5
813
 10
123.245917
 20
65.093667
 30
0.0
 11
123.257083
 21
65.025
 31
0.0
  0
LINE
  8
1
  6
CONTINUOUS
 62
   233
  5
814
 10
123.2355
 20
65.192583
 30
0.0
 11
123.245917
 21
65.093667
 31
0.0
  0
LINE
  8
1
  6
CONTINUOUS
 62
   233
  5
815
 10
123.160083
 20
65.2785
 30
0.0
 11
123.2355
 21
65.192583
 31
0.0
  0
LINE
  8
1
  6
CONTINUOUS
 62
   233
  5
816
 10
123.17075
 20
65.371417
 30
0.0
 11
123.160083
 21
65.2785
 31
0.0
  0
LINE
  8
1
  6
CONTINUOUS
 62
   233
  5
817
 10
123.17075
 20
65.375667
 30
0.0
 11
123.17075
 21
65.371417
 31
0.0
  0
LINE
  8
1
  6
CONTINUOUS
 62
   233
  5
818
 10
121.914083
 20
62.7805
 30
0.0
 11
121.914083
 21
62.78375
 31
0.0
  0
ARC
  8
1
  6
CONTINUOUS
 62
   233
  5
819
 10
120.211783
 20
62.824683
 30
0.0
 40
1.319842
 50
268.182458
 51
79.835747
210
0.0
220
0.0
230
1.0
  0
ARC
  8
1
  6
CONTINUOUS
 62
   233
  5
81A
 10
120.211783
 20
62.824683
 30
0.0
 40
1.202614
 50
268.106731
 51
81.369353
210
0.0
220
0.0
230
1.0
  0
LINE
  8
1
  6
CONTINUOUS
 62
   233
  5
81B
 10
122.411583
 20
60.837917
 30
0.0
 11
120.178333
 21
60.837917
 31
0.0
  0
LINE
  8
1
  6
CONTINUOUS
 62
   233
  5
81C
 10
122.411583
 20
63.324833
 30
0.0
 11
122.411583
 21
60.837917
 31
0.0
  0
LINE
  8
1
  6
CONTINUOUS
 62
   233
  5
81D
 10
122.448833
 20
62.178583
 30
0.0
 11
123.399333
 21
62.268
 31
0.0
  0
LINE
  8
1
  6
CONTINUOUS
 62
   233
  5
81E
 10
120.39225
 20
65.24175
 30
0.0
 11
120.39225
 21
64.023667
 31
0.0
  0
LINE
  8
1
  6
CONTINUOUS
 62
   233
  5
81F
 10
120.444667
 20
65.24175
 30
0.0
 11
123.17075
 21
65.375667
 31
0.0
  0
LINE
  8
1
  6
CONTINUOUS
 62
   233
  5
820
 10
120.39225
 20
65.24175
 30
0.0
 11
120.444667
 21
65.24175
 31
0.0
  0
TEXT
  8
3
  6
CONTINUOUS
 62
     2
  5
821
 10
117.379667
 20
62.66125
 30
0.0
 40
0.15
  1
Base
 41
0.85
  7
MONOTXT
210
0.0
220
0.0
230
1.0
  0
TEXT
  8
3
  6
CONTINUOUS
 62
     2
  5
822
 10
120.561333
 20
64.619833
 30
0.0
 40
0.15
  1
Type 2 Slot
 41
0.85
  7
MONOTXT
210
0.0
220
0.0
230
1.0
  0
TEXT
  8
3
  6
CONTINUOUS
 62
     2
  5
823
 10
121.502667
 20
61.787
 30
0.0
 40
0.12
  1
Lean
 41
0.85
  7
MONOTXT
210
0.0
220
0.0
230
1.0
  0
TEXT
  8
3
  6
CONTINUOUS
 62
     2
  5
824
 10
121.502667
 20
61.581333
 30
0.0
 40
0.12
  1
Grout
 41
0.85
  7
MONOTXT
210
0.0
220
0.0
230
1.0
  0
LINE
  8
3
  6
CONTINUOUS
 62
     2
  5
825
 10
120.168917
 20
64.869583
 30
0.0
 11
121.962417
 21
64.869583
 31
0.0
  0
SOLID
  8
3
  6
CONTINUOUS
 62
     2
  5
826
 10
120.168917
 20
64.869583
 30
0.0
 11
120.267417
 21
64.887
 31
0.0
 12
120.267417
 22
64.85225
 32
0.0
 13
120.267417
 23
64.85225
 33
0.0
  0
LINE
  8
2
  6
HIDDEN
 62
     2
  5
827
 10
122.2405
 20
66.83925
 30
0.0
 11
122.2405
 21
64.084917
 31
0.0
  0
LINE
  8
2
  6
HIDDEN
 62
     2
  5
828
 10
122.2405
 20
66.83925
 30
0.0
 11
121.288417
 21
66.785167
 31
0.0
  0
LINE
  8
2
  6
HIDDEN
 62
     2
  5
829
 10
121.132167
 20
66.648
 30
0.0
 11
120.977583
 21
65.44725
 31
0.0
  0
LINE
  8
2
  6
HIDDEN
 62
     2
  5
82A
 10
121.031083
 20
65.433667
 30
0.0
 11
121.31675
 21
66.156583
 31
0.0
  0
LINE
  8
2
  6
HIDDEN
 62
     2
  5
82B
 10
121.513583
 20
66.245833
 30
0.0
 11
122.2405
 21
66.264833
 31
0.0
  0
ARC
  8
2
  6
HIDDEN
 62
     2
  5
82C
 10
121.531517
 20
65.944483
 30
0.0
 40
0.301904
 50
93.401183
 51
135.362122
210
0.0
220
0.0
230
1.0
  0
ARC
  8
2
  6
HIDDEN
 62
     2
  5
82D
 10
121.272317
 20
66.645883
 30
0.0
 40
0.140187
 50
83.386203
 51
179.127506
210
0.0
220
0.0
230
1.0
  0
ARC
  8
2
  6
HIDDEN
 62
     2
  5
82E
 10
120.794783
 20
65.435617
 30
0.0
 40
0.183143
 50
288.314478
 51
3.620492
210
0.0
220
0.0
230
1.0
  0
ARC
  8
2
  6
HIDDEN
 62
     2
  5
82F
 10
120.78085
 20
65.469883
 30
0.0
 40
0.252862
 50
306.095511
 51
351.762744
210
0.0
220
0.0
230
1.0
  0
LINE
  8
2
  6
HIDDEN
 62
     2
  5
830
 10
121.053917
 20
66.039917
 30
0.0
 11
121.662417
 21
67.197583
 31
0.0
  0
LINE
  8
1
  6
CONTINUOUS
 62
     7
  5
831
 10
120.211
 20
65.291667
 30
0.0
 11
120.211
 21
66.063583
 31
0.0
  0
LINE
  8
1
  6
CONTINUOUS
 62
     7
  5
832
 10
120.941833
 20
65.394417
 30
0.0
 11
120.941833
 21
66.063583
 31
0.0
  0
LINE
  8
1
  6
CONTINUOUS
 62
     7
  5
833
 10
120.311
 20
65.919583
 30
0.0
 11
120.841833
 21
65.919583
 31
0.0
  0
SOLID
  8
1
  6
CONTINUOUS
 62
     7
  5
834
 10
120.311
 20
65.902917
 30
0.0
 11
120.311
 21
65.93625
 31
0.0
 12
120.211
 22
65.919583
 32
0.0
 13
120.211
 23
65.919583
 33
0.0
  0
SOLID
  8
1
  6
CONTINUOUS
 62
     7
  5
835
 10
120.841833
 20
65.902917
 30
0.0
 11
120.841833
 21
65.93625
 31
0.0
 12
120.941833
 22
65.919583
 32
0.0
 13
120.941833
 23
65.919583
 33
0.0
  0
TEXT
  8
1
  6
CONTINUOUS
 62
     7
  5
836
 10
120.304417
 20
65.979583
 30
0.0
 40
0.15
  1
3-1/2"
 41
0.85
  7
MONOTXT
210
0.0
220
0.0
230
1.0
  0
LINE
  8
6
  6
CONTINUOUS
 62
     7
  5
837
 10
120.211
 20
65.241667
 30
0.0
 11
120.211083
 21
65.241667
 31
0.0
  0
LINE
  8
6
  6
CONTINUOUS
 62
     7
  5
838
 10
120.941833
 20
65.344417
 30
0.0
 11
120.941917
 21
65.344417
 31
0.0
  0
LINE
  8
6
  6
CONTINUOUS
 62
     7
  5
839
 10
120.941833
 20
65.919583
 30
0.0
 11
120.941917
 21
65.919583
 31
0.0
  0
TEXT
  8
3
  6
CONTINUOUS
 62
     2
  5
83A
 10
122.407167
 20
66.780667
 30
0.0
 40
0.15
  1
Median or
 41
0.85
  7
MONOTXT
210
0.0
220
0.0
230
1.0
  0
TEXT
  8
3
  6
CONTINUOUS
 62
     2
  5
83B
 10
122.407167
 20
66.575083
 30
0.0
 40
0.15
  1
Curb Where
 41
0.85
  7
MONOTXT
210
0.0
220
0.0
230
1.0
  0
TEXT
  8
3
  6
CONTINUOUS
 62
     2
  5
83C
 10
122.407167
 20
66.28175
 30
0.0
 40
0.15
  1
Specified
 41
0.85
  7
MONOTXT
210
0.0
220
0.0
230
1.0
  0
LINE
  8
3
  6
CONTINUOUS
 62
     2
  5
83D
 10
121.960417
 20
66.52625
 30
0.0
 11
123.402083
 21
66.52625
 31
0.0
  0
SOLID
  8
3
  6
CONTINUOUS
 62
     2
  5
83E
 10
121.960417
 20
66.526167
 30
0.0
 11
122.058833
 21
66.543583
 31
0.0
 12
122.058833
 22
66.508833
 32
0.0
 13
122.058833
 23
66.508833
 33
0.0
  0
LINE
  8
1
  6
CONTINUOUS
 62
   233
  5
83F
 10
119.940917
 20
65.244
 30
0.0
 11
119.940917
 21
63.99675
 31
0.0
  0
LINE
  8
1
  6
CONTINUOUS
 62
   233
  5
840
 10
121.450833
 20
63.27925
 30
0.0
 11
123.315417
 21
63.367583
 31
0.0
  0
LINE
  8
1
  6
CONTINUOUS
 62
   233
  5
841
 10
118.985917
 20
63.317667
 30
0.0
 11
117.244
 21
63.427667
 31
0.0
  0
LINE
  8
1
  6
CONTINUOUS
 62
   233
  5
842
 10
118.033
 20
61.277667
 30
0.0
 11
117.97725
 21
61.277667
 31
0.0
  0
LINE
  8
1
  6
CONTINUOUS
 62
   233
  5
843
 10
117.97725
 20
60.837917
 30
0.0
 11
117.97725
 21
63.381417
 31
0.0
  0
LINE
  8
2
  6
HIDDEN
 62
     2
  5
844
 10
122.2405
 20
64.084917
 30
0.0
 11
122.2405
 21
63.257667
 31
0.0
  0
LINE
  8
2
  6
HIDDEN
 62
     2
  5
845
 10
122.2405
 20
63.257667
 30
0.0
 11
121.450833
 21
63.27925
 31
0.0
  0
LINE
  8
1
  6
CONTINUOUS
 62
     7
  5
846
 10
118.07725
 20
62.837583
 30
0.0
 11
118.790417
 21
62.837583
 31
0.0
  0
SOLID
  8
1
  6
CONTINUOUS
 62
     7
  5
847
 10
118.07725
 20
62.85425
 30
0.0
 11
118.07725
 21
62.820917
 31
0.0
 12
117.97725
 22
62.837583
 32
0.0
 13
117.97725
 23
62.837583
 33
0.0
  0
SOLID
  8
1
  6
CONTINUOUS
 62
     7
  5
848
 10
118.790417
 20
62.85425
 30
0.0
 11
118.790417
 21
62.820917
 31
0.0
 12
118.890417
 22
62.837583
 32
0.0
 13
118.890417
 23
62.837583
 33
0.0
  0
TEXT
  8
1
  6
CONTINUOUS
 62
     7
  5
849
 10
118.36575
 20
62.897583
 30
0.0
 40
0.12
  1
3"
 41
0.85
  7
MONOTXT
210
0.0
220
0.0
230
1.0
  0
LINE
  8
6
  6
CONTINUOUS
 62
     7
  5
84A
 10
117.97725
 20
62.837583
 30
0.0
 11
117.977333
 21
62.837583
 31
0.0
  0
POINT
  8
6
  6
CONTINUOUS
 62
     7
  5
84B
 10
118.890417
 20
62.82775
 30
0.0
  0
POINT
  8
6
  6
CONTINUOUS
 62
     7
  5
84C
 10
118.890417
 20
62.837583
 30
0.0
  0
LINE
  8
1
  6
CONTINUOUS
 62
     7
  5
84D
 10
121.6315
 20
62.837583
 30
0.0
 11
122.311583
 21
62.837583
 31
0.0
  0
SOLID
  8
1
  6
CONTINUOUS
 62
     7
  5
84E
 10
121.6315
 20
62.85425
 30
0.0
 11
121.6315
 21
62.820917
 31
0.0
 12
121.5315
 22
62.837583
 32
0.0
 13
121.5315
 23
62.837583
 33
0.0
  0
SOLID
  8
1
  6
CONTINUOUS
 62
     7
  5
84F
 10
122.311583
 20
62.85425
 30
0.0
 11
122.311583
 21
62.820917
 31
0.0
 12
122.411583
 22
62.837583
 32
0.0
 13
122.411583
 23
62.837583
 33
0.0
  0
TEXT
  8
1
  6
CONTINUOUS
 62
     7
  5
850
 10
121.903583
 20
62.897583
 30
0.0
 40
0.12
  1
3"
 41
0.85
  7
MONOTXT
210
0.0
220
0.0
230
1.0
  0
LINE
  8
6
  6
CONTINUOUS
 62
     7
  5
851
 10
121.5315
 20
62.837583
 30
0.0
 11
121.531583
 21
62.837583
 31
0.0
  0
LINE
  8
6
  6
CONTINUOUS
 62
     7
  5
852
 10
122.411583
 20
62.837583
 30
0.0
 11
122.411667
 21
62.837583
 31
0.0
  0
LINE
  8
6
  6
CONTINUOUS
 62
     7
  5
853
 10
122.411583
 20
62.837583
 30
0.0
 11
122.411667
 21
62.837583
 31
0.0
  0
TEXT
  8
3
  6
CONTINUOUS
 62
     2
  5
854
 10
117.49075
 20
64.696583
 30
0.0
 40
0.15
  1
Portland
 41
0.85
  7
MONOTXT
210
0.0
220
0.0
230
1.0
  0
TEXT
  8
3
  6
CONTINUOUS
 62
     2
  5
855
 10
117.49075
 20
64.490917
 30
0.0
 40
0.15
  1
Cement
 41
0.85
  7
MONOTXT
210
0.0
220
0.0
230
1.0
  0
TEXT
  8
3
  6
CONTINUOUS
 62
     2
  5
856
 10
117.49075
 20
64.285167
 30
0.0
 40
0.15
  1
Concrete
 41
0.85
  7
MONOTXT
210
0.0
220
0.0
230
1.0
  0
TEXT
  8
3
  6
CONTINUOUS
 62
     2
  5
857
 10
118.177417
 20
62.658083
 30
0.0
 40
0.12
  1
Minimum
 41
0.85
  7
MONOTXT
210
0.0
220
0.0
230
1.0
  0
TEXT
  8
3
  6
CONTINUOUS
 62
     2
  5
858
 10
121.695
 20
62.658083
 30
0.0
 40
0.12
  1
Minimum
 41
0.85
  7
MONOTXT
210
0.0
220
0.0
230
1.0
  0
TEXT
  8
3
  6
CONTINUOUS
 62
     2
  5
859
 10
112.70525
 20
76.514083
 30
0.0
 40
0.4845
  1
TYPICAL INSTALLATIONS
 41
0.850017
  7
MONOTXT
210
0.0
220
0.0
230
1.0
  0
LINE
  8
1
  6
CONTINUOUS
 62
   233
  5
85A
 10
114.787333
 20
60.898833
 30
0.0
 11
112.648333
 21
60.898833
 31
0.0
  0
ARC
  8
1
  6
CONTINUOUS
 62
   233
  5
85B
 10
112.681717
 20
62.40375
 30
0.0
 40
1.319842
 50
268.182458
 51
79.835747
210
0.0
220
0.0
230
1.0
  0
LINE
  8
1
  6
CONTINUOUS
 62
   233
  5
85C
 10
110.574583
 20
60.898833
 30
0.0
 11
112.713667
 21
60.898833
 31
0.0
  0
LINE
  8
1
  6
CONTINUOUS
 62
   233
  5
85D
 10
110.574583
 20
62.6595
 30
0.0
 11
110.574583
 21
60.898833
 31
0.0
  0
LINE
  8
1
  6
CONTINUOUS
 62
   233
  5
85E
 10
110.574583
 20
62.359583
 30
0.0
 11
111.361083
 21
62.359583
 31
0.0
  0
LINE
  8
1
  6
CONTINUOUS
 62
   233
  5
85F
 10
114.894833
 20
62.359583
 30
0.0
 11
114.000833
 21
62.359583
 31
0.0
  0
POINT
  8
5
  6
CONTINUOUS
 62
    99
  5
860
 10
111.313083
 20
62.817833
 30
0.0
  0
LINE
  8
1
  6
CONTINUOUS
 62
   233
  5
861
 10
111.179083
 20
62.427417
 30
0.0
 11
111.124083
 21
62.359583
 31
0.0
  0
LINE
  8
1
  6
CONTINUOUS
 62
   233
  5
862
 10
114.351333
 20
62.427417
 30
0.0
 11
114.074917
 21
62.427417
 31
0.0
  0
LINE
  8
3
  6
CONTINUOUS
 62
     2
  5
863
 10
113.703083
 20
62.56025
 30
0.0
 11
113.561333
 21
62.371583
 31
0.0
  0
SOLID
  8
3
  6
CONTINUOUS
 62
     2
  5
864
 10
113.7415
 20
62.60825
 30
0.0
 11
113.668417
 21
62.539917
 31
0.0
 12
113.69625
 22
62.519
 32
0.0
 13
113.69625
 23
62.519
 33
0.0
  0
LINE
  8
3
  6
CONTINUOUS
 62
     2
  5
865
 10
113.561333
 20
62.371583
 30
0.0
 11
113.36675
 21
62.371583
 31
0.0
  0
LINE
  8
3
  6
CONTINUOUS
 62
     2
  5
866
 10
111.971417
 20
62.371583
 30
0.0
 11
112.166083
 21
62.371583
 31
0.0
  0
SOLID
  8
3
  6
CONTINUOUS
 62
     2
  5
867
 10
111.82975
 20
62.56025
 30
0.0
 11
111.902833
 21
62.491917
 31
0.0
 12
111.875
 22
62.471
 32
0.0
 13
111.875
 23
62.471
 33
0.0
  0
LINE
  8
3
  6
CONTINUOUS
 62
     2
  5
868
 10
111.82975
 20
62.56025
 30
0.0
 11
111.971417
 21
62.371583
 31
0.0
  0
TEXT
  8
3
  6
CONTINUOUS
 62
     2
  5
869
 10
112.259
 20
62.139833
 30
0.0
 40
0.15
  1
Each Side
 41
0.85
  7
MONOTXT
210
0.0
220
0.0
230
1.0
  0
TEXT
  8
3
  6
CONTINUOUS
 62
     2
  5
86A
 10
112.177583
 20
62.339
 30
0.0
 40
0.15
  1
Perforations
 41
0.85
  7
MONOTXT
210
0.0
220
0.0
230
1.0
  0
TEXT
  8
3
  6
CONTINUOUS
 62
     2
  5
86B
 10
112.24925
 20
62.525167
 30
0.0
 40
0.15
  1
2 Rows of
 41
0.85
  7
MONOTXT
210
0.0
220
0.0
230
1.0
  0
TEXT
  8
3
  6
CONTINUOUS
 62
     2
  5
86C
 10
113.964583
 20
61.22725
 30
0.0
 40
0.15
  1
Lean
 41
0.85
  7
MONOTXT
210
0.0
220
0.0
230
1.0
  0
TEXT
  8
3
  6
CONTINUOUS
 62
     2
  5
86D
 10
113.964583
 20
61.0215
 30
0.0
 40
0.15
  1
Grout
 41
0.85
  7
MONOTXT
210
0.0
220
0.0
230
1.0
  0
TEXT
  8
3
  6
CONTINUOUS
 62
     2
  5
86E
 10
110.021
 20
63.043833
 30
0.0
 40
0.15
  1
Base
 41
0.85
  7
MONOTXT
210
0.0
220
0.0
230
1.0
  0
TEXT
  8
3
  6
CONTINUOUS
 62
     2
  5
86F
 10
110.698333
 20
64.559083
 30
0.0
 40
0.15
  1
(Nominal) 8.5"
 41
0.85
  7
MONOTXT
210
0.0
220
0.0
230
1.0
  0
LINE
  8
1
  6
CONTINUOUS
 62
     7
  5
870
 10
112.25075
 20
65.734917
 30
0.0
 11
111.957083
 21
65.734917
 31
0.0
  0
LINE
  8
1
  6
CONTINUOUS
 62
     7
  5
871
 10
112.25075
 20
63.583583
 30
0.0
 11
111.957083
 21
63.583583
 31
0.0
  0
LINE
  8
1
  6
CONTINUOUS
 62
     7
  5
872
 10
112.101083
 20
65.634917
 30
0.0
 11
112.101083
 21
64.65925
 31
0.0
  0
LINE
  8
1
  6
CONTINUOUS
 62
     7
  5
873
 10
112.101083
 20
63.683583
 30
0.0
 11
112.101083
 21
64.65925
 31
0.0
  0
SOLID
  8
1
  6
CONTINUOUS
 62
     7
  5
874
 10
112.11775
 20
65.634917
 30
0.0
 11
112.084417
 21
65.634917
 31
0.0
 12
112.101083
 22
65.734917
 32
0.0
 13
112.101083
 23
65.734917
 33
0.0
  0
SOLID
  8
1
  6
CONTINUOUS
 62
     7
  5
875
 10
112.11775
 20
63.683583
 30
0.0
 11
112.084417
 21
63.683583
 31
0.0
 12
112.101083
 22
63.583583
 32
0.0
 13
112.101083
 23
63.583583
 33
0.0
  0
POINT
  8
6
  6
CONTINUOUS
 62
     7
  5
876
 10
112.30075
 20
65.734917
 30
0.0
  0
POINT
  8
6
  6
CONTINUOUS
 62
     7
  5
877
 10
112.30075
 20
63.583583
 30
0.0
  0
POINT
  8
6
  6
CONTINUOUS
 62
     7
  5
878
 10
112.101083
 20
63.583583
 30
0.0
  0
LINE
  8
3
  6
CONTINUOUS
 62
     2
  5
879
 10
112.644417
 20
64.45375
 30
0.0
 11
114.437917
 21
64.45375
 31
0.0
  0
SOLID
  8
3
  6
CONTINUOUS
 62
     2
  5
87A
 10
112.644417
 20
64.45375
 30
0.0
 11
112.742917
 21
64.471167
 31
0.0
 12
112.742917
 22
64.436333
 32
0.0
 13
112.742917
 23
64.436333
 33
0.0
  0
TEXT
  8
3
  6
CONTINUOUS
 62
     2
  5
87B
 10
114.06075
 20
62.96075
 30
0.0
 40
0.15
  1
Gravel
 41
0.85
  7
MONOTXT
210
0.0
220
0.0
230
1.0
  0
TEXT
  8
3
  6
CONTINUOUS
 62
     2
  5
87C
 10
109.967667
 20
65.544833
 30
0.0
 40
0.15
  1
Portland
 41
0.85
  7
MONOTXT
210
0.0
220
0.0
230
1.0
  0
TEXT
  8
3
  6
CONTINUOUS
 62
     2
  5
87D
 10
110.025333
 20
65.291167
 30
0.0
 40
0.15
  1
Cement
 41
0.85
  7
MONOTXT
210
0.0
220
0.0
230
1.0
  0
TEXT
  8
3
  6
CONTINUOUS
 62
     2
  5
87E
 10
110.025333
 20
65.02775
 30
0.0
 40
0.15
  1
Concrete
 41
0.85
  7
MONOTXT
210
0.0
220
0.0
230
1.0
  0
TEXT
  8
3
  6
CONTINUOUS
 62
     2
  5
87F
 10
109.906167
 20
61.787333
 30
0.0
 40
0.15
  1
Filter
 41
0.85
  7
MONOTXT
210
0.0
220
0.0
230
1.0
  0
TEXT
  8
3
  6
CONTINUOUS
 62
     2
  5
880
 10
109.906167
 20
61.495167
 30
0.0
 40
0.15
  1
Fabric
 41
0.85
  7
MONOTXT
210
0.0
220
0.0
230
1.0
  0
LINE
  8
1
  6
CONTINUOUS
 62
   233
  5
881
 10
114.787333
 20
60.898833
 30
0.0
 11
114.894833
 21
60.898833
 31
0.0
  0
LINE
  8
1
  6
CONTINUOUS
 62
   233
  5
882
 10
114.894833
 20
60.898833
 30
0.0
 11
114.894833
 21
62.631833
 31
0.0
  0
LINE
  8
1
  6
CONTINUOUS
 62
   233
  5
883
 10
114.894833
 20
62.631833
 30
0.0
 11
115.878833
 21
62.684833
 31
0.0
  0
LINE
  8
1
  6
CONTINUOUS
 62
   233
  5
884
 10
113.275333
 20
63.582583
 30
0.0
 11
115.9085
 21
63.71975
 31
0.0
  0
LINE
  8
1
  6
CONTINUOUS
 62
   233
  5
885
 10
112.01425
 20
63.54325
 30
0.0
 11
109.716667
 21
63.640917
 31
0.0
  0
LINE
  8
1
  6
CONTINUOUS
 62
   233
  5
886
 10
111.17125
 20
63.579167
 30
0.0
 11
111.100417
 21
63.5435
 31
0.0
  0
LINE
  8
1
  6
CONTINUOUS
 62
   233
  5
887
 10
111.100417
 20
63.5435
 30
0.0
 11
111.016417
 21
63.505167
 31
0.0
  0
LINE
  8
1
  6
CONTINUOUS
 62
   233
  5
888
 10
111.016417
 20
63.505167
 30
0.0
 11
110.918417
 21
63.3775
 31
0.0
  0
LINE
  8
1
  6
CONTINUOUS
 62
   233
  5
889
 10
110.918417
 20
63.3775
 30
0.0
 11
110.848083
 21
63.324833
 31
0.0
  0
LINE
  8
1
  6
CONTINUOUS
 62
   233
  5
88A
 10
110.848083
 20
63.324833
 30
0.0
 11
110.80525
 21
63.226333
 31
0.0
  0
LINE
  8
1
  6
CONTINUOUS
 62
   233
  5
88B
 10
110.80525
 20
63.226333
 30
0.0
 11
110.777083
 21
63.106167
 31
0.0
  0
LINE
  8
1
  6
CONTINUOUS
 62
   233
  5
88C
 10
110.777083
 20
63.106167
 30
0.0
 11
110.686083
 21
62.956083
 31
0.0
  0
LINE
  8
1
  6
CONTINUOUS
 62
   233
  5
88D
 10
110.686083
 20
62.956083
 30
0.0
 11
110.657917
 21
62.879667
 31
0.0
  0
LINE
  8
1
  6
CONTINUOUS
 62
   233
  5
88E
 10
110.657917
 20
62.879667
 30
0.0
 11
110.62975
 21
62.804667
 31
0.0
  0
LINE
  8
1
  6
CONTINUOUS
 62
   233
  5
88F
 10
110.62975
 20
62.804667
 30
0.0
 11
110.5805
 21
62.721833
 31
0.0
  0
LINE
  8
1
  6
CONTINUOUS
 62
   233
  5
890
 10
110.5805
 20
62.721833
 30
0.0
 11
110.574583
 21
62.6595
 31
0.0
  0
LINE
  8
1
  6
CONTINUOUS
 62
   233
  5
891
 10
114.277583
 20
63.634833
 30
0.0
 11
114.297583
 21
63.549917
 31
0.0
  0
LINE
  8
1
  6
CONTINUOUS
 62
   233
  5
892
 10
114.297583
 20
63.549917
 30
0.0
 11
114.35325
 21
63.51975
 31
0.0
  0
LINE
  8
1
  6
CONTINUOUS
 62
   233
  5
893
 10
114.35325
 20
63.51975
 30
0.0
 11
114.402083
 21
63.392083
 31
0.0
  0
LINE
  8
1
  6
CONTINUOUS
 62
   233
  5
894
 10
114.402083
 20
63.392083
 30
0.0
 11
114.458833
 21
63.30925
 31
0.0
  0
LINE
  8
1
  6
CONTINUOUS
 62
   233
  5
895
 10
114.458833
 20
63.30925
 30
0.0
 11
114.501667
 21
63.294583
 31
0.0
  0
LINE
  8
1
  6
CONTINUOUS
 62
   233
  5
896
 10
114.501667
 20
63.294583
 30
0.0
 11
114.515167
 21
63.219583
 31
0.0
  0
LINE
  8
1
  6
CONTINUOUS
 62
   233
  5
897
 10
114.515167
 20
63.219583
 30
0.0
 11
114.585167
 21
63.166917
 31
0.0
  0
LINE
  8
1
  6
CONTINUOUS
 62
   233
  5
898
 10
114.585167
 20
63.166917
 30
0.0
 11
114.62075
 21
63.106167
 31
0.0
  0
LINE
  8
1
  6
CONTINUOUS
 62
   233
  5
899
 10
114.62075
 20
63.106167
 30
0.0
 11
114.677167
 21
62.9785
 31
0.0
  0
LINE
  8
1
  6
CONTINUOUS
 62
   233
  5
89A
 10
114.677167
 20
62.9785
 30
0.0
 11
114.726417
 21
62.909917
 31
0.0
  0
LINE
  8
1
  6
CONTINUOUS
 62
   233
  5
89B
 10
114.726417
 20
62.909917
 30
0.0
 11
114.768167
 21
62.865083
 31
0.0
  0
LINE
  8
1
  6
CONTINUOUS
 62
   233
  5
89C
 10
114.768167
 20
62.865083
 30
0.0
 11
114.809917
 21
62.78225
 31
0.0
  0
LINE
  8
1
  6
CONTINUOUS
 62
   233
  5
89D
 10
114.809917
 20
62.78225
 30
0.0
 11
114.859167
 21
62.715
 31
0.0
  0
LINE
  8
1
  6
CONTINUOUS
 62
   233
  5
89E
 10
114.859167
 20
62.715
 30
0.0
 11
114.88025
 21
62.668833
 31
0.0
  0
LINE
  8
1
  6
CONTINUOUS
 62
   233
  5
89F
 10
114.88025
 20
62.668833
 30
0.0
 11
114.894833
 21
62.631833
 31
0.0
  0
LINE
  8
1
  6
CONTINUOUS
 62
   233
  5
8A0
 10
109.786667
 20
65.91625
 30
0.0
 11
109.773083
 21
65.871417
 31
0.0
  0
LINE
  8
1
  6
CONTINUOUS
 62
   233
  5
8A1
 10
109.773083
 20
65.871417
 30
0.0
 11
109.822333
 21
65.80325
 31
0.0
  0
LINE
  8
1
  6
CONTINUOUS
 62
   233
  5
8A2
 10
109.822333
 20
65.80325
 30
0.0
 11
109.758417
 21
65.728167
 31
0.0
  0
LINE
  8
1
  6
CONTINUOUS
 62
   233
  5
8A3
 10
109.758417
 20
65.728167
 30
0.0
 11
109.773083
 21
65.644917
 31
0.0
  0
LINE
  8
1
  6
CONTINUOUS
 62
   233
  5
8A4
 10
109.773083
 20
65.644917
 30
0.0
 11
109.73025
 21
65.539667
 31
0.0
  0
LINE
  8
1
  6
CONTINUOUS
 62
   233
  5
8A5
 10
109.73025
 20
65.539667
 30
0.0
 11
109.724167
 21
65.38925
 31
0.0
  0
LINE
  8
1
  6
CONTINUOUS
 62
   233
  5
8A6
 10
109.724167
 20
65.38925
 30
0.0
 11
109.773083
 21
65.245667
 31
0.0
  0
LINE
  8
1
  6
CONTINUOUS
 62
   233
  5
8A7
 10
109.773083
 20
65.245667
 30
0.0
 11
109.794083
 21
65.200833
 31
0.0
  0
LINE
  8
1
  6
CONTINUOUS
 62
   233
  5
8A8
 10
109.794083
 20
65.200833
 30
0.0
 11
109.765917
 21
65.118
 31
0.0
  0
LINE
  8
1
  6
CONTINUOUS
 62
   233
  5
8A9
 10
109.765917
 20
65.118
 30
0.0
 11
109.73025
 21
65.027
 31
0.0
  0
LINE
  8
1
  6
CONTINUOUS
 62
   233
  5
8AA
 10
109.73025
 20
65.027
 30
0.0
 11
109.744833
 21
64.929583
 31
0.0
  0
LINE
  8
1
  6
CONTINUOUS
 62
   233
  5
8AB
 10
109.744833
 20
64.929583
 30
0.0
 11
109.73775
 21
64.801583
 31
0.0
  0
LINE
  8
1
  6
CONTINUOUS
 62
   233
  5
8AC
 10
109.73775
 20
64.801583
 30
0.0
 11
109.7795
 21
64.680667
 31
0.0
  0
LINE
  8
1
  6
CONTINUOUS
 62
   233
  5
8AD
 10
109.7795
 20
64.680667
 30
0.0
 11
109.794083
 21
64.650083
 31
0.0
  0
LINE
  8
1
  6
CONTINUOUS
 62
   233
  5
8AE
 10
109.794083
 20
64.650083
 30
0.0
 11
109.758417
 21
64.575083
 31
0.0
  0
LINE
  8
1
  6
CONTINUOUS
 62
   233
  5
8AF
 10
109.758417
 20
64.575083
 30
0.0
 11
109.73775
 21
64.5
 31
0.0
  0
LINE
  8
1
  6
CONTINUOUS
 62
   233
  5
8B0
 10
109.73775
 20
64.5
 30
0.0
 11
109.765917
 21
64.349583
 31
0.0
  0
LINE
  8
1
  6
CONTINUOUS
 62
   233
  5
8B1
 10
109.765917
 20
64.349583
 30
0.0
 11
109.73775
 21
64.26675
 31
0.0
  0
LINE
  8
1
  6
CONTINUOUS
 62
   233
  5
8B2
 10
109.73775
 20
64.26675
 30
0.0
 11
109.716667
 21
64.130917
 31
0.0
  0
LINE
  8
1
  6
CONTINUOUS
 62
   233
  5
8B3
 10
109.716667
 20
64.130917
 30
0.0
 11
109.652833
 21
64.0325
 31
0.0
  0
LINE
  8
1
  6
CONTINUOUS
 62
   233
  5
8B4
 10
109.652833
 20
64.0325
 30
0.0
 11
109.652833
 21
63.851833
 31
0.0
  0
LINE
  8
1
  6
CONTINUOUS
 62
   233
  5
8B5
 10
109.652833
 20
63.851833
 30
0.0
 11
109.674917
 21
63.776833
 31
0.0
  0
LINE
  8
1
  6
CONTINUOUS
 62
   233
  5
8B6
 10
109.674917
 20
63.776833
 30
0.0
 11
109.674917
 21
63.679
 31
0.0
  0
LINE
  8
1
  6
CONTINUOUS
 62
   233
  5
8B7
 10
109.674917
 20
63.679
 30
0.0
 11
109.716667
 21
63.640917
 31
0.0
  0
LINE
  8
1
  6
CONTINUOUS
 62
   233
  5
8B8
 10
109.716667
 20
63.640917
 30
0.0
 11
109.695667
 21
63.565917
 31
0.0
  0
LINE
  8
1
  6
CONTINUOUS
 62
   233
  5
8B9
 10
109.695667
 20
63.565917
 30
0.0
 11
109.681083
 21
63.38525
 31
0.0
  0
LINE
  8
1
  6
CONTINUOUS
 62
   233
  5
8BA
 10
109.681083
 20
63.38525
 30
0.0
 11
109.695667
 21
63.324833
 31
0.0
  0
LINE
  8
1
  6
CONTINUOUS
 62
   233
  5
8BB
 10
109.695667
 20
63.324833
 30
0.0
 11
109.674917
 21
63.21175
 31
0.0
  0
LINE
  8
1
  6
CONTINUOUS
 62
   233
  5
8BC
 10
109.674917
 20
63.21175
 30
0.0
 11
109.724167
 21
63.12075
 31
0.0
  0
LINE
  8
1
  6
CONTINUOUS
 62
   233
  5
8BD
 10
109.724167
 20
63.12075
 30
0.0
 11
109.709583
 21
62.962917
 31
0.0
  0
LINE
  8
1
  6
CONTINUOUS
 62
   233
  5
8BE
 10
109.709583
 20
62.962917
 30
0.0
 11
109.667417
 21
62.918083
 31
0.0
  0
LINE
  8
1
  6
CONTINUOUS
 62
   233
  5
8BF
 10
109.667417
 20
62.918083
 30
0.0
 11
109.709583
 21
62.879667
 31
0.0
  0
LINE
  8
1
  6
CONTINUOUS
 62
   233
  5
8C0
 10
109.709583
 20
62.879667
 30
0.0
 11
109.695667
 21
62.834917
 31
0.0
  0
LINE
  8
1
  6
CONTINUOUS
 62
   233
  5
8C1
 10
109.695667
 20
62.834917
 30
0.0
 11
109.695667
 21
62.74425
 31
0.0
  0
LINE
  8
1
  6
CONTINUOUS
 62
   233
  5
8C2
 10
109.695667
 20
62.74425
 30
0.0
 11
109.709583
 21
62.684833
 31
0.0
  0
LINE
  8
1
  6
CONTINUOUS
 62
   233
  5
8C3
 10
109.709583
 20
62.684833
 30
0.0
 11
110.574583
 21
62.6595
 31
0.0
  0
LINE
  8
1
  6
CONTINUOUS
 62
   233
  5
8C4
 10
111.576
 20
62.880167
 30
0.0
 11
111.468333
 21
62.926583
 31
0.0
  0
LINE
  8
1
  6
CONTINUOUS
 62
   233
  5
8C5
 10
111.534167
 20
62.768333
 30
0.0
 11
111.422417
 21
62.803917
 31
0.0
  0
LINE
  8
1
  6
CONTINUOUS
 62
   233
  5
8C6
 10
111.498
 20
62.624583
 30
0.0
 11
111.38275
 21
62.646
 31
0.0
  0
LINE
  8
1
  6
CONTINUOUS
 62
   233
  5
8C7
 10
111.484083
 20
62.52825
 30
0.0
 11
111.367417
 21
62.540417
 31
0.0
  0
LINE
  8
1
  6
CONTINUOUS
 62
   233
  5
8C8
 10
113.87625
 20
62.529417
 30
0.0
 11
113.99275
 21
62.541667
 31
0.0
  0
LINE
  8
1
  6
CONTINUOUS
 62
   233
  5
8C9
 10
113.862083
 20
62.625583
 30
0.0
 11
113.977417
 21
62.64725
 31
0.0
  0
LINE
  8
1
  6
CONTINUOUS
 62
   233
  5
8CA
 10
113.825833
 20
62.769417
 30
0.0
 11
113.9375
 21
62.805083
 31
0.0
  0
LINE
  8
1
  6
CONTINUOUS
 62
   233
  5
8CB
 10
113.783917
 20
62.881167
 30
0.0
 11
113.8915
 21
62.92775
 31
0.0
  0
LINE
  8
1
  6
CONTINUOUS
 62
   233
  5
8CC
 10
111.009083
 20
62.359583
 30
0.0
 11
111.009083
 21
62.426167
 31
0.0
  0
LINE
  8
1
  6
CONTINUOUS
 62
   233
  5
8CD
 10
111.009083
 20
62.426167
 30
0.0
 11
111.310083
 21
62.426167
 31
0.0
  0
ARC
  8
1
  6
CONTINUOUS
 62
   233
  5
8CE
 10
112.67845
 20
62.403017
 30
0.0
 40
1.368529
 50
154.267258
 51
179.030578
210
0.0
220
0.0
230
1.0
  0
LINE
  8
1
  6
CONTINUOUS
 62
   233
  5
8CF
 10
111.445583
 20
62.997167
 30
0.0
 11
111.490667
 21
62.975583
 31
0.0
  0
LINE
  8
1
  6
CONTINUOUS
 62
   233
  5
8D0
 10
111.076417
 20
62.427417
 30
0.0
 11
111.021417
 21
62.359583
 31
0.0
  0
LINE
  8
1
  6
CONTINUOUS
 62
   233
  5
8D1
 10
111.1315
 20
62.427417
 30
0.0
 11
111.076583
 21
62.359583
 31
0.0
  0
LINE
  8
1
  6
CONTINUOUS
 62
   233
  5
8D2
 10
111.23425
 20
62.427417
 30
0.0
 11
111.179333
 21
62.359583
 31
0.0
  0
LINE
  8
1
  6
CONTINUOUS
 62
   233
  5
8D3
 10
111.304083
 20
62.427417
 30
0.0
 11
111.249167
 21
62.359583
 31
0.0
  0
LINE
  8
1
  6
CONTINUOUS
 62
   233
  5
8D4
 10
111.366417
 20
62.54925
 30
0.0
 11
111.311417
 21
62.481417
 31
0.0
  0
LINE
  8
1
  6
CONTINUOUS
 62
   233
  5
8D5
 10
111.3845
 20
62.64425
 30
0.0
 11
111.319417
 21
62.56375
 31
0.0
  0
LINE
  8
1
  6
CONTINUOUS
 62
   233
  5
8D6
 10
111.395333
 20
62.7345
 30
0.0
 11
111.334
 21
62.65875
 31
0.0
  0
LINE
  8
1
  6
CONTINUOUS
 62
   233
  5
8D7
 10
111.44675
 20
62.8735
 30
0.0
 11
111.359
 21
62.765083
 31
0.0
  0
LINE
  8
1
  6
CONTINUOUS
 62
   233
  5
8D8
 10
111.481083
 20
62.980167
 30
0.0
 11
111.399417
 21
62.87925
 31
0.0
  0
LINE
  8
1
  6
CONTINUOUS
 62
   233
  5
8D9
 10
111.361083
 20
62.448417
 30
0.0
 11
111.289167
 21
62.359583
 31
0.0
  0
LINE
  8
1
  6
CONTINUOUS
 62
   233
  5
8DA
 10
114.351333
 20
62.359583
 30
0.0
 11
114.351333
 21
62.427417
 31
0.0
  0
LINE
  8
1
  6
CONTINUOUS
 62
   233
  5
8DB
 10
114.351333
 20
62.426167
 30
0.0
 11
114.050333
 21
62.426167
 31
0.0
  0
ARC
  8
1
  6
CONTINUOUS
 62
   233
  5
8DC
 10
112.681983
 20
62.403017
 30
0.0
 40
1.368529
 50
0.969417
 51
25.732736
210
0.0
220
0.0
230
1.0
  0
LINE
  8
1
  6
CONTINUOUS
 62
   233
  5
8DD
 10
113.91475
 20
62.997167
 30
0.0
 11
113.86975
 21
62.975583
 31
0.0
  0
POINT
  8
1
  6
CONTINUOUS
 62
     7
  5
8DE
 10
111.15275
 20
62.991667
 30
0.0
  0
POINT
  8
5
  6
CONTINUOUS
 62
    99
  5
8DF
 10
111.09275
 20
62.991667
 30
0.0
  0
POINT
  8
5
  6
CONTINUOUS
 62
    99
  5
8E0
 10
110.97275
 20
62.991667
 30
0.0
  0
POINT
  8
5
  6
CONTINUOUS
 62
    99
  5
8E1
 10
110.85275
 20
62.991667
 30
0.0
  0
POINT
  8
5
  6
CONTINUOUS
 62
    99
  5
8E2
 10
111.12275
 20
62.931667
 30
0.0
  0
POINT
  8
5
  6
CONTINUOUS
 62
    99
  5
8E3
 10
111.06275
 20
62.931667
 30
0.0
  0
POINT
  8
5
  6
CONTINUOUS
 62
    99
  5
8E4
 10
111.00275
 20
62.931667
 30
0.0
  0
POINT
  8
5
  6
CONTINUOUS
 62
    99
  5
8E5
 10
110.94275
 20
62.931667
 30
0.0
  0
POINT
  8
5
  6
CONTINUOUS
 62
    99
  5
8E6
 10
110.88275
 20
62.931667
 30
0.0
  0
POINT
  8
5
  6
CONTINUOUS
 62
    99
  5
8E7
 10
111.15275
 20
62.871667
 30
0.0
  0
POINT
  8
5
  6
CONTINUOUS
 62
    99
  5
8E8
 10
111.09275
 20
62.871667
 30
0.0
  0
POINT
  8
5
  6
CONTINUOUS
 62
    99
  5
8E9
 10
111.03275
 20
62.871667
 30
0.0
  0
POINT
  8
5
  6
CONTINUOUS
 62
    99
  5
8EA
 10
110.85275
 20
62.871667
 30
0.0
  0
POINT
  8
5
  6
CONTINUOUS
 62
    99
  5
8EB
 10
110.88275
 20
62.811667
 30
0.0
  0
POINT
  8
5
  6
CONTINUOUS
 62
    99
  5
8EC
 10
111.15275
 20
62.751667
 30
0.0
  0
POINT
  8
5
  6
CONTINUOUS
 62
    99
  5
8ED
 10
111.09275
 20
62.751667
 30
0.0
  0
POINT
  8
5
  6
CONTINUOUS
 62
    99
  5
8EE
 10
111.03275
 20
62.751667
 30
0.0
  0
POINT
  8
5
  6
CONTINUOUS
 62
    99
  5
8EF
 10
110.85275
 20
62.751667
 30
0.0
  0
LINE
  8
1
  6
CONTINUOUS
 62
   233
  5
8F0
 10
115.9085
 20
63.776833
 30
0.0
 11
115.9085
 21
63.679
 31
0.0
  0
LINE
  8
1
  6
CONTINUOUS
 62
   233
  5
8F1
 10
115.930583
 20
63.851833
 30
0.0
 11
115.9085
 21
63.776833
 31
0.0
  0
LINE
  8
1
  6
CONTINUOUS
 62
   233
  5
8F2
 10
115.930583
 20
64.0325
 30
0.0
 11
115.930583
 21
63.851833
 31
0.0
  0
LINE
  8
1
  6
CONTINUOUS
 62
   233
  5
8F3
 10
115.86675
 20
64.130917
 30
0.0
 11
115.930583
 21
64.0325
 31
0.0
  0
LINE
  8
1
  6
CONTINUOUS
 62
   233
  5
8F4
 10
115.84575
 20
64.26675
 30
0.0
 11
115.86675
 21
64.130917
 31
0.0
  0
LINE
  8
1
  6
CONTINUOUS
 62
   233
  5
8F5
 10
115.8175
 20
64.349583
 30
0.0
 11
115.84575
 21
64.26675
 31
0.0
  0
LINE
  8
1
  6
CONTINUOUS
 62
   233
  5
8F6
 10
115.84575
 20
64.5
 30
0.0
 11
115.8175
 21
64.349583
 31
0.0
  0
LINE
  8
1
  6
CONTINUOUS
 62
   233
  5
8F7
 10
115.825
 20
64.575083
 30
0.0
 11
115.84575
 21
64.5
 31
0.0
  0
LINE
  8
1
  6
CONTINUOUS
 62
   233
  5
8F8
 10
115.789417
 20
64.650083
 30
0.0
 11
115.825
 21
64.575083
 31
0.0
  0
LINE
  8
1
  6
CONTINUOUS
 62
   233
  5
8F9
 10
115.804
 20
64.680667
 30
0.0
 11
115.789417
 21
64.650083
 31
0.0
  0
LINE
  8
1
  6
CONTINUOUS
 62
   233
  5
8FA
 10
115.84575
 20
64.801583
 30
0.0
 11
115.804
 21
64.680667
 31
0.0
  0
LINE
  8
1
  6
CONTINUOUS
 62
   233
  5
8FB
 10
115.838583
 20
64.929583
 30
0.0
 11
115.84575
 21
64.801583
 31
0.0
  0
LINE
  8
1
  6
CONTINUOUS
 62
   233
  5
8FC
 10
115.853167
 20
65.027
 30
0.0
 11
115.838583
 21
64.929583
 31
0.0
  0
LINE
  8
1
  6
CONTINUOUS
 62
   233
  5
8FD
 10
115.8175
 20
65.118
 30
0.0
 11
115.853167
 21
65.027
 31
0.0
  0
LINE
  8
1
  6
CONTINUOUS
 62
   233
  5
8FE
 10
115.789417
 20
65.200833
 30
0.0
 11
115.8175
 21
65.118
 31
0.0
  0
LINE
  8
1
  6
CONTINUOUS
 62
   233
  5
8FF
 10
115.810417
 20
65.245667
 30
0.0
 11
115.789417
 21
65.200833
 31
0.0
  0
LINE
  8
1
  6
CONTINUOUS
 62
   233
  5
900
 10
115.859333
 20
65.38925
 30
0.0
 11
115.810417
 21
65.245667
 31
0.0
  0
LINE
  8
1
  6
CONTINUOUS
 62
   233
  5
901
 10
115.853167
 20
65.539667
 30
0.0
 11
115.859333
 21
65.38925
 31
0.0
  0
LINE
  8
1
  6
CONTINUOUS
 62
   233
  5
902
 10
115.810417
 20
65.644917
 30
0.0
 11
115.853167
 21
65.539667
 31
0.0
  0
LINE
  8
1
  6
CONTINUOUS
 62
   233
  5
903
 10
115.825
 20
65.728167
 30
0.0
 11
115.810417
 21
65.644917
 31
0.0
  0
LINE
  8
1
  6
CONTINUOUS
 62
   233
  5
904
 10
115.761167
 20
65.80325
 30
0.0
 11
115.825
 21
65.728167
 31
0.0
  0
LINE
  8
1
  6
CONTINUOUS
 62
   233
  5
905
 10
115.810417
 20
65.871417
 30
0.0
 11
115.761167
 21
65.80325
 31
0.0
  0
LINE
  8
1
  6
CONTINUOUS
 62
   233
  5
906
 10
115.887833
 20
62.74425
 30
0.0
 11
115.873833
 21
62.684583
 31
0.0
  0
LINE
  8
1
  6
CONTINUOUS
 62
   233
  5
907
 10
115.887833
 20
62.834917
 30
0.0
 11
115.887833
 21
62.74425
 31
0.0
  0
LINE
  8
1
  6
CONTINUOUS
 62
   233
  5
908
 10
115.873917
 20
62.879667
 30
0.0
 11
115.887833
 21
62.834917
 31
0.0
  0
LINE
  8
1
  6
CONTINUOUS
 62
   233
  5
909
 10
115.916
 20
62.918083
 30
0.0
 11
115.873917
 21
62.879667
 31
0.0
  0
LINE
  8
1
  6
CONTINUOUS
 62
   233
  5
90A
 10
115.873917
 20
62.962917
 30
0.0
 11
115.916
 21
62.918083
 31
0.0
  0
LINE
  8
1
  6
CONTINUOUS
 62
   233
  5
90B
 10
115.859333
 20
63.12075
 30
0.0
 11
115.873917
 21
62.962917
 31
0.0
  0
LINE
  8
1
  6
CONTINUOUS
 62
   233
  5
90C
 10
115.9085
 20
63.21175
 30
0.0
 11
115.859333
 21
63.12075
 31
0.0
  0
LINE
  8
1
  6
CONTINUOUS
 62
   233
  5
90D
 10
115.887833
 20
63.324833
 30
0.0
 11
115.9085
 21
63.21175
 31
0.0
  0
LINE
  8
1
  6
CONTINUOUS
 62
   233
  5
90E
 10
115.902417
 20
63.38525
 30
0.0
 11
115.887833
 21
63.324833
 31
0.0
  0
LINE
  8
1
  6
CONTINUOUS
 62
   233
  5
90F
 10
115.887833
 20
63.565917
 30
0.0
 11
115.902417
 21
63.38525
 31
0.0
  0
LINE
  8
1
  6
CONTINUOUS
 62
   233
  5
910
 10
115.86675
 20
63.640917
 30
0.0
 11
115.887833
 21
63.565917
 31
0.0
  0
LINE
  8
2
  6
HIDDEN
 62
     2
  5
911
 10
113.618833
 20
67.149917
 30
0.0
 11
113.464333
 21
65.949167
 31
0.0
  0
ARC
  8
2
  6
HIDDEN
 62
     2
  5
912
 10
113.75905
 20
67.147817
 30
0.0
 40
0.140187
 50
83.386203
 51
179.127506
210
0.0
220
0.0
230
1.0
  0
SOLID
  8
3
  6
CONTINUOUS
 62
     2
  5
913
 10
114.447083
 20
67.02825
 30
0.0
 11
114.545583
 21
67.045583
 31
0.0
 12
114.545583
 22
67.01075
 32
0.0
 13
114.545583
 23
67.01075
 33
0.0
  0
LINE
  8
3
  6
CONTINUOUS
 62
     2
  5
914
 10
114.447083
 20
67.02825
 30
0.0
 11
115.888833
 21
67.02825
 31
0.0
  0
LINE
  8
1
  6
CONTINUOUS
 62
     7
  5
915
 10
112.69775
 20
65.793667
 30
0.0
 11
112.69775
 21
66.565583
 31
0.0
  0
LINE
  8
1
  6
CONTINUOUS
 62
     7
  5
916
 10
113.428583
 20
65.896417
 30
0.0
 11
113.428583
 21
66.565583
 31
0.0
  0
LINE
  8
1
  6
CONTINUOUS
 62
     7
  5
917
 10
112.79775
 20
66.421583
 30
0.0
 11
113.328583
 21
66.421583
 31
0.0
  0
SOLID
  8
1
  6
CONTINUOUS
 62
     7
  5
918
 10
112.79775
 20
66.404917
 30
0.0
 11
112.79775
 21
66.43825
 31
0.0
 12
112.69775
 22
66.421583
 32
0.0
 13
112.69775
 23
66.421583
 33
0.0
  0
SOLID
  8
1
  6
CONTINUOUS
 62
     7
  5
919
 10
113.328583
 20
66.404917
 30
0.0
 11
113.328583
 21
66.43825
 31
0.0
 12
113.428583
 22
66.421583
 32
0.0
 13
113.428583
 23
66.421583
 33
0.0
  0
TEXT
  8
1
  6
CONTINUOUS
 62
     7
  5
91A
 10
112.791167
 20
66.481583
 30
0.0
 40
0.15
  1
3-1/2"
 41
0.85
  7
MONOTXT
210
0.0
220
0.0
230
1.0
  0
POINT
  8
6
  6
CONTINUOUS
 62
     7
  5
91B
 10
112.69775
 20
65.743667
 30
0.0
  0
LINE
  8
6
  6
CONTINUOUS
 62
     7
  5
91C
 10
113.428583
 20
65.846417
 30
0.0
 11
113.428667
 21
65.846417
 31
0.0
  0
LINE
  8
6
  6
CONTINUOUS
 62
     7
  5
91D
 10
113.428583
 20
66.421583
 30
0.0
 11
113.428667
 21
66.421583
 31
0.0
  0
LINE
  8
2
  6
HIDDEN
 62
     2
  5
91E
 10
113.540583
 20
66.541917
 30
0.0
 11
114.149167
 21
67.699583
 31
0.0
  0
ARC
  8
2
  6
HIDDEN
 62
     2
  5
91F
 10
113.267583
 20
65.971883
 30
0.0
 40
0.252862
 50
306.095511
 51
351.762744
210
0.0
220
0.0
230
1.0
  0
ARC
  8
2
  6
HIDDEN
 62
     2
  5
920
 10
113.281517
 20
65.937617
 30
0.0
 40
0.183143
 50
288.314478
 51
3.620492
210
0.0
220
0.0
230
1.0
  0
ARC
  8
2
  6
HIDDEN
 62
     2
  5
921
 10
114.01825
 20
66.446417
 30
0.0
 40
0.301904
 50
93.401183
 51
135.362122
210
0.0
220
0.0
230
1.0
  0
LINE
  8
2
  6
HIDDEN
 62
     2
  5
922
 10
114.000333
 20
66.74775
 30
0.0
 11
114.72725
 21
66.76675
 31
0.0
  0
LINE
  8
2
  6
HIDDEN
 62
     2
  5
923
 10
113.517833
 20
65.935583
 30
0.0
 11
113.803417
 21
66.658583
 31
0.0
  0
LINE
  8
2
  6
HIDDEN
 62
     2
  5
924
 10
114.72725
 20
67.341167
 30
0.0
 11
113.775167
 21
67.287083
 31
0.0
  0
LINE
  8
2
  6
HIDDEN
 62
     2
  5
925
 10
114.72725
 20
67.341167
 30
0.0
 11
114.72725
 21
65.571417
 31
0.0
  0
TEXT
  8
3
  6
CONTINUOUS
 62
     2
  5
926
 10
114.893917
 20
67.330833
 30
0.0
 40
0.15
  1
Median or
 41
0.85
  7
MONOTXT
210
0.0
220
0.0
230
1.0
  0
TEXT
  8
3
  6
CONTINUOUS
 62
     2
  5
927
 10
114.807417
 20
67.114333
 30
0.0
 40
0.15
  1
Curb Where
 41
0.85
  7
MONOTXT
210
0.0
220
0.0
230
1.0
  0
TEXT
  8
3
  6
CONTINUOUS
 62
     2
  5
928
 10
114.83625
 20
66.81525
 30
0.0
 40
0.15
  1
Specified
 41
0.85
  7
MONOTXT
210
0.0
220
0.0
230
1.0
  0
LINE
  8
2
  6
HIDDEN
 62
     2
  5
929
 10
114.72725
 20
65.571417
 30
0.0
 11
114.72725
 21
64.6705
 31
0.0
  0
LINE
  8
1
  6
CONTINUOUS
 62
   233
  5
92A
 10
115.77325
 20
65.901667
 30
0.0
 11
115.810417
 21
65.871417
 31
0.0
  0
LINE
  8
2
  6
HIDDEN
 62
     2
  5
92B
 10
114.72725
 20
64.6705
 30
0.0
 11
114.72725
 21
63.433333
 31
0.0
  0
LINE
  8
2
  6
HIDDEN
 62
     2
  5
92C
 10
114.72725
 20
63.433333
 30
0.0
 11
113.431833
 21
63.48975
 31
0.0
  0
LINE
  8
1
  6
CONTINUOUS
 62
   233
  5
92D
 10
115.9085
 20
63.679
 30
0.0
 11
115.86675
 21
63.640917
 31
0.0
  0
LINE
  8
1
  6
CONTINUOUS
 62
   233
  5
92E
 10
113.98225
 20
62.829917
 30
0.0
 11
113.9455
 21
62.7845
 31
0.0
  0
LINE
  8
1
  6
CONTINUOUS
 62
   233
  5
92F
 10
113.95575
 20
62.9035
 30
0.0
 11
113.920333
 21
62.85975
 31
0.0
  0
LINE
  8
1
  6
CONTINUOUS
 62
   233
  5
930
 10
113.925833
 20
62.973583
 30
0.0
 11
113.891583
 21
62.93125
 31
0.0
  0
LINE
  8
1
  6
CONTINUOUS
 62
   233
  5
931
 10
114.000333
 20
62.770167
 30
0.0
 11
113.957667
 21
62.717417
 31
0.0
  0
LINE
  8
1
  6
CONTINUOUS
 62
   233
  5
932
 10
114.0175
 20
62.70175
 30
0.0
 11
113.977833
 21
62.652833
 31
0.0
  0
LINE
  8
1
  6
CONTINUOUS
 62
   233
  5
933
 10
114.032667
 20
62.62325
 30
0.0
 11
113.990833
 21
62.571583
 31
0.0
  0
LINE
  8
1
  6
CONTINUOUS
 62
   233
  5
934
 10
114.044167
 20
62.534667
 30
0.0
 11
113.999417
 21
62.479417
 31
0.0
  0
LINE
  8
1
  6
CONTINUOUS
 62
   233
  5
935
 10
114.049167
 20
62.462917
 30
0.0
 11
114.001583
 21
62.404167
 31
0.0
  0
LINE
  8
1
  6
CONTINUOUS
 62
   233
  5
936
 10
114.086417
 20
62.427417
 30
0.0
 11
114.0315
 21
62.359583
 31
0.0
  0
LINE
  8
1
  6
CONTINUOUS
 62
   233
  5
937
 10
114.14725
 20
62.427417
 30
0.0
 11
114.092333
 21
62.359583
 31
0.0
  0
LINE
  8
1
  6
CONTINUOUS
 62
   233
  5
938
 10
114.213167
 20
62.427417
 30
0.0
 11
114.15825
 21
62.359583
 31
0.0
  0
LINE
  8
1
  6
CONTINUOUS
 62
   233
  5
939
 10
114.27425
 20
62.427417
 30
0.0
 11
114.219333
 21
62.359583
 31
0.0
  0
LINE
  8
1
  6
CONTINUOUS
 62
   233
  5
93A
 10
114.329417
 20
62.427417
 30
0.0
 11
114.274417
 21
62.359583
 31
0.0
  0
POINT
  8
5
  6
CONTINUOUS
 62
    99
  5
93B
 10
111.1985
 20
63.054917
 30
0.0
  0
POINT
  8
5
  6
CONTINUOUS
 62
    99
  5
93C
 10
111.2585
 20
63.054917
 30
0.0
  0
POINT
  8
5
  6
CONTINUOUS
 62
    99
  5
93D
 10
111.0485
 20
63.114917
 30
0.0
  0
POINT
  8
5
  6
CONTINUOUS
 62
    99
  5
93E
 10
111.1985
 20
63.174917
 30
0.0
  0
POINT
  8
5
  6
CONTINUOUS
 62
    99
  5
93F
 10
111.2585
 20
63.174917
 30
0.0
  0
POINT
  8
5
  6
CONTINUOUS
 62
    99
  5
940
 10
111.1085
 20
63.234917
 30
0.0
  0
POINT
  8
5
  6
CONTINUOUS
 62
    99
  5
941
 10
111.1685
 20
63.234917
 30
0.0
  0
POINT
  8
5
  6
CONTINUOUS
 62
    99
  5
942
 10
111.2285
 20
63.234917
 30
0.0
  0
POINT
  8
5
  6
CONTINUOUS
 62
    99
  5
943
 10
111.2885
 20
63.234917
 30
0.0
  0
POINT
  8
5
  6
CONTINUOUS
 62
    99
  5
944
 10
111.1385
 20
63.294917
 30
0.0
  0
POINT
  8
5
  6
CONTINUOUS
 62
    99
  5
945
 10
111.2585
 20
63.294917
 30
0.0
  0
POINT
  8
5
  6
CONTINUOUS
 62
    99
  5
946
 10
111.259583
 20
63.268917
 30
0.0
  0
POINT
  8
5
  6
CONTINUOUS
 62
    99
  5
947
 10
111.319583
 20
63.268917
 30
0.0
  0
POINT
  8
5
  6
CONTINUOUS
 62
    99
  5
948
 10
111.109583
 20
63.328917
 30
0.0
  0
POINT
  8
5
  6
CONTINUOUS
 62
    99
  5
949
 10
111.259583
 20
63.388917
 30
0.0
  0
POINT
  8
5
  6
CONTINUOUS
 62
    99
  5
94A
 10
111.319583
 20
63.388917
 30
0.0
  0
POINT
  8
5
  6
CONTINUOUS
 62
    99
  5
94B
 10
111.109583
 20
63.448917
 30
0.0
  0
POINT
  8
5
  6
CONTINUOUS
 62
    99
  5
94C
 10
111.169583
 20
63.448917
 30
0.0
  0
POINT
  8
5
  6
CONTINUOUS
 62
    99
  5
94D
 10
111.229583
 20
63.448917
 30
0.0
  0
POINT
  8
5
  6
CONTINUOUS
 62
    99
  5
94E
 10
111.289583
 20
63.448917
 30
0.0
  0
POINT
  8
5
  6
CONTINUOUS
 62
    99
  5
94F
 10
111.349583
 20
63.448917
 30
0.0
  0
POINT
  8
5
  6
CONTINUOUS
 62
    99
  5
950
 10
111.199583
 20
63.508917
 30
0.0
  0
POINT
  8
5
  6
CONTINUOUS
 62
    99
  5
951
 10
111.319583
 20
63.508917
 30
0.0
  0
POINT
  8
5
  6
CONTINUOUS
 62
    99
  5
952
 10
111.592
 20
63.26275
 30
0.0
  0
POINT
  8
5
  6
CONTINUOUS
 62
    99
  5
953
 10
111.652
 20
63.26275
 30
0.0
  0
POINT
  8
5
  6
CONTINUOUS
 62
    99
  5
954
 10
111.442
 20
63.32275
 30
0.0
  0
POINT
  8
5
  6
CONTINUOUS
 62
    99
  5
955
 10
111.592
 20
63.38275
 30
0.0
  0
POINT
  8
5
  6
CONTINUOUS
 62
    99
  5
956
 10
111.652
 20
63.38275
 30
0.0
  0
POINT
  8
5
  6
CONTINUOUS
 62
    99
  5
957
 10
111.442
 20
63.44275
 30
0.0
  0
POINT
  8
5
  6
CONTINUOUS
 62
    99
  5
958
 10
111.502
 20
63.44275
 30
0.0
  0
POINT
  8
5
  6
CONTINUOUS
 62
    99
  5
959
 10
111.562
 20
63.44275
 30
0.0
  0
POINT
  8
5
  6
CONTINUOUS
 62
    99
  5
95A
 10
111.622
 20
63.44275
 30
0.0
  0
POINT
  8
5
  6
CONTINUOUS
 62
    99
  5
95B
 10
111.682
 20
63.44275
 30
0.0
  0
POINT
  8
5
  6
CONTINUOUS
 62
    99
  5
95C
 10
111.532
 20
63.50275
 30
0.0
  0
POINT
  8
5
  6
CONTINUOUS
 62
    99
  5
95D
 10
111.652
 20
63.50275
 30
0.0
  0
POINT
  8
5
  6
CONTINUOUS
 62
    99
  5
95E
 10
111.414667
 20
63.102583
 30
0.0
  0
POINT
  8
5
  6
CONTINUOUS
 62
    99
  5
95F
 10
111.474667
 20
63.102583
 30
0.0
  0
POINT
  8
5
  6
CONTINUOUS
 62
    99
  5
960
 10
111.264667
 20
63.162583
 30
0.0
  0
POINT
  8
5
  6
CONTINUOUS
 62
    99
  5
961
 10
111.414667
 20
63.222583
 30
0.0
  0
POINT
  8
5
  6
CONTINUOUS
 62
    99
  5
962
 10
111.474667
 20
63.222583
 30
0.0
  0
POINT
  8
5
  6
CONTINUOUS
 62
    99
  5
963
 10
111.264667
 20
63.282583
 30
0.0
  0
POINT
  8
5
  6
CONTINUOUS
 62
    99
  5
964
 10
111.324667
 20
63.282583
 30
0.0
  0
POINT
  8
5
  6
CONTINUOUS
 62
    99
  5
965
 10
111.384667
 20
63.282583
 30
0.0
  0
POINT
  8
5
  6
CONTINUOUS
 62
    99
  5
966
 10
111.444667
 20
63.282583
 30
0.0
  0
POINT
  8
5
  6
CONTINUOUS
 62
    99
  5
967
 10
111.504667
 20
63.282583
 30
0.0
  0
POINT
  8
5
  6
CONTINUOUS
 62
    99
  5
968
 10
111.354667
 20
63.342583
 30
0.0
  0
POINT
  8
5
  6
CONTINUOUS
 62
    99
  5
969
 10
111.474667
 20
63.342583
 30
0.0
  0
POINT
  8
5
  6
CONTINUOUS
 62
    99
  5
96A
 10
111.259583
 20
62.86475
 30
0.0
  0
POINT
  8
5
  6
CONTINUOUS
 62
    99
  5
96B
 10
111.319583
 20
62.86475
 30
0.0
  0
POINT
  8
5
  6
CONTINUOUS
 62
    99
  5
96C
 10
111.109583
 20
62.92475
 30
0.0
  0
POINT
  8
5
  6
CONTINUOUS
 62
    99
  5
96D
 10
111.259583
 20
62.98475
 30
0.0
  0
POINT
  8
5
  6
CONTINUOUS
 62
    99
  5
96E
 10
111.319583
 20
62.98475
 30
0.0
  0
POINT
  8
5
  6
CONTINUOUS
 62
    99
  5
96F
 10
111.109583
 20
63.04475
 30
0.0
  0
POINT
  8
5
  6
CONTINUOUS
 62
    99
  5
970
 10
111.169583
 20
63.04475
 30
0.0
  0
POINT
  8
5
  6
CONTINUOUS
 62
    99
  5
971
 10
111.229583
 20
63.04475
 30
0.0
  0
POINT
  8
5
  6
CONTINUOUS
 62
    99
  5
972
 10
111.289583
 20
63.04475
 30
0.0
  0
POINT
  8
5
  6
CONTINUOUS
 62
    99
  5
973
 10
111.349583
 20
63.04475
 30
0.0
  0
POINT
  8
5
  6
CONTINUOUS
 62
    99
  5
974
 10
111.199583
 20
63.10475
 30
0.0
  0
POINT
  8
5
  6
CONTINUOUS
 62
    99
  5
975
 10
111.319583
 20
63.10475
 30
0.0
  0
POINT
  8
5
  6
CONTINUOUS
 62
    99
  5
976
 10
111.17625
 20
62.567667
 30
0.0
  0
POINT
  8
5
  6
CONTINUOUS
 62
    99
  5
977
 10
111.23625
 20
62.567667
 30
0.0
  0
POINT
  8
5
  6
CONTINUOUS
 62
    99
  5
978
 10
111.02625
 20
62.627667
 30
0.0
  0
POINT
  8
5
  6
CONTINUOUS
 62
    99
  5
979
 10
111.17625
 20
62.687667
 30
0.0
  0
POINT
  8
5
  6
CONTINUOUS
 62
    99
  5
97A
 10
111.23625
 20
62.687667
 30
0.0
  0
POINT
  8
5
  6
CONTINUOUS
 62
    99
  5
97B
 10
111.02625
 20
62.747667
 30
0.0
  0
POINT
  8
5
  6
CONTINUOUS
 62
    99
  5
97C
 10
111.08625
 20
62.747667
 30
0.0
  0
POINT
  8
5
  6
CONTINUOUS
 62
    99
  5
97D
 10
111.14625
 20
62.747667
 30
0.0
  0
POINT
  8
5
  6
CONTINUOUS
 62
    99
  5
97E
 10
111.20625
 20
62.747667
 30
0.0
  0
POINT
  8
5
  6
CONTINUOUS
 62
    99
  5
97F
 10
111.26625
 20
62.747667
 30
0.0
  0
POINT
  8
5
  6
CONTINUOUS
 62
    99
  5
980
 10
111.11625
 20
62.807667
 30
0.0
  0
POINT
  8
5
  6
CONTINUOUS
 62
    99
  5
981
 10
111.23625
 20
62.807667
 30
0.0
  0
POINT
  8
5
  6
CONTINUOUS
 62
    99
  5
982
 10
111.110083
 20
62.460583
 30
0.0
  0
POINT
  8
5
  6
CONTINUOUS
 62
    99
  5
983
 10
111.170083
 20
62.460583
 30
0.0
  0
POINT
  8
5
  6
CONTINUOUS
 62
    99
  5
984
 10
110.960083
 20
62.520583
 30
0.0
  0
POINT
  8
5
  6
CONTINUOUS
 62
    99
  5
985
 10
111.110083
 20
62.580583
 30
0.0
  0
POINT
  8
5
  6
CONTINUOUS
 62
    99
  5
986
 10
111.170083
 20
62.580583
 30
0.0
  0
POINT
  8
5
  6
CONTINUOUS
 62
    99
  5
987
 10
110.960083
 20
62.640583
 30
0.0
  0
POINT
  8
5
  6
CONTINUOUS
 62
    99
  5
988
 10
111.020083
 20
62.640583
 30
0.0
  0
POINT
  8
5
  6
CONTINUOUS
 62
    99
  5
989
 10
111.080083
 20
62.640583
 30
0.0
  0
POINT
  8
5
  6
CONTINUOUS
 62
    99
  5
98A
 10
111.140083
 20
62.640583
 30
0.0
  0
POINT
  8
5
  6
CONTINUOUS
 62
    99
  5
98B
 10
111.200083
 20
62.640583
 30
0.0
  0
POINT
  8
5
  6
CONTINUOUS
 62
    99
  5
98C
 10
111.050083
 20
62.700583
 30
0.0
  0
POINT
  8
5
  6
CONTINUOUS
 62
    99
  5
98D
 10
110.904667
 20
62.412917
 30
0.0
  0
POINT
  8
5
  6
CONTINUOUS
 62
    99
  5
98E
 10
110.964667
 20
62.412917
 30
0.0
  0
POINT
  8
5
  6
CONTINUOUS
 62
    99
  5
98F
 10
110.754667
 20
62.472917
 30
0.0
  0
POINT
  8
5
  6
CONTINUOUS
 62
    99
  5
990
 10
110.904667
 20
62.532917
 30
0.0
  0
POINT
  8
5
  6
CONTINUOUS
 62
    99
  5
991
 10
110.964667
 20
62.532917
 30
0.0
  0
POINT
  8
5
  6
CONTINUOUS
 62
    99
  5
992
 10
110.754667
 20
62.592917
 30
0.0
  0
POINT
  8
5
  6
CONTINUOUS
 62
    99
  5
993
 10
110.934667
 20
62.592917
 30
0.0
  0
POINT
  8
5
  6
CONTINUOUS
 62
    99
  5
994
 10
110.994667
 20
62.592917
 30
0.0
  0
POINT
  8
5
  6
CONTINUOUS
 62
    99
  5
995
 10
110.964667
 20
62.652917
 30
0.0
  0
POINT
  8
5
  6
CONTINUOUS
 62
    99
  5
996
 10
110.73325
 20
62.436667
 30
0.0
  0
POINT
  8
5
  6
CONTINUOUS
 62
    99
  5
997
 10
110.79325
 20
62.436667
 30
0.0
  0
POINT
  8
5
  6
CONTINUOUS
 62
    99
  5
998
 10
110.58325
 20
62.496667
 30
0.0
  0
POINT
  8
5
  6
CONTINUOUS
 62
    99
  5
999
 10
110.73325
 20
62.556667
 30
0.0
  0
POINT
  8
5
  6
CONTINUOUS
 62
    99
  5
99A
 10
110.79325
 20
62.556667
 30
0.0
  0
POINT
  8
5
  6
CONTINUOUS
 62
    99
  5
99B
 10
110.58325
 20
62.616667
 30
0.0
  0
POINT
  8
5
  6
CONTINUOUS
 62
    99
  5
99C
 10
110.64325
 20
62.616667
 30
0.0
  0
POINT
  8
5
  6
CONTINUOUS
 62
    99
  5
99D
 10
110.70325
 20
62.616667
 30
0.0
  0
POINT
  8
5
  6
CONTINUOUS
 62
    99
  5
99E
 10
110.67325
 20
62.676667
 30
0.0
  0
POINT
  8
5
  6
CONTINUOUS
 62
    99
  5
99F
 10
110.794333
 20
62.472083
 30
0.0
  0
POINT
  8
5
  6
CONTINUOUS
 62
    99
  5
9A0
 10
110.854333
 20
62.472083
 30
0.0
  0
POINT
  8
5
  6
CONTINUOUS
 62
    99
  5
9A1
 10
110.644333
 20
62.532083
 30
0.0
  0
POINT
  8
5
  6
CONTINUOUS
 62
    99
  5
9A2
 10
110.794333
 20
62.592083
 30
0.0
  0
POINT
  8
5
  6
CONTINUOUS
 62
    99
  5
9A3
 10
110.854333
 20
62.592083
 30
0.0
  0
POINT
  8
5
  6
CONTINUOUS
 62
    99
  5
9A4
 10
110.644333
 20
62.652083
 30
0.0
  0
POINT
  8
5
  6
CONTINUOUS
 62
    99
  5
9A5
 10
110.704333
 20
62.652083
 30
0.0
  0
POINT
  8
5
  6
CONTINUOUS
 62
    99
  5
9A6
 10
110.884333
 20
62.652083
 30
0.0
  0
POINT
  8
5
  6
CONTINUOUS
 62
    99
  5
9A7
 10
110.854333
 20
62.712083
 30
0.0
  0
POINT
  8
5
  6
CONTINUOUS
 62
    99
  5
9A8
 10
110.8495
 20
62.620667
 30
0.0
  0
POINT
  8
5
  6
CONTINUOUS
 62
    99
  5
9A9
 10
110.9095
 20
62.620667
 30
0.0
  0
POINT
  8
5
  6
CONTINUOUS
 62
    99
  5
9AA
 10
110.8495
 20
62.740667
 30
0.0
  0
POINT
  8
5
  6
CONTINUOUS
 62
    99
  5
9AB
 10
110.9095
 20
62.740667
 30
0.0
  0
POINT
  8
5
  6
CONTINUOUS
 62
    99
  5
9AC
 10
110.6995
 20
62.800667
 30
0.0
  0
POINT
  8
5
  6
CONTINUOUS
 62
    99
  5
9AD
 10
110.7595
 20
62.800667
 30
0.0
  0
POINT
  8
5
  6
CONTINUOUS
 62
    99
  5
9AE
 10
110.8195
 20
62.800667
 30
0.0
  0
POINT
  8
5
  6
CONTINUOUS
 62
    99
  5
9AF
 10
110.8795
 20
62.800667
 30
0.0
  0
POINT
  8
5
  6
CONTINUOUS
 62
    99
  5
9B0
 10
110.9395
 20
62.800667
 30
0.0
  0
POINT
  8
5
  6
CONTINUOUS
 62
    99
  5
9B1
 10
110.7895
 20
62.860667
 30
0.0
  0
POINT
  8
5
  6
CONTINUOUS
 62
    99
  5
9B2
 10
110.9095
 20
62.860667
 30
0.0
  0
POINT
  8
5
  6
CONTINUOUS
 62
    99
  5
9B3
 10
110.910583
 20
62.810917
 30
0.0
  0
POINT
  8
5
  6
CONTINUOUS
 62
    99
  5
9B4
 10
110.970583
 20
62.810917
 30
0.0
  0
POINT
  8
5
  6
CONTINUOUS
 62
    99
  5
9B5
 10
110.760583
 20
62.870917
 30
0.0
  0
POINT
  8
5
  6
CONTINUOUS
 62
    99
  5
9B6
 10
110.910583
 20
62.930917
 30
0.0
  0
POINT
  8
5
  6
CONTINUOUS
 62
    99
  5
9B7
 10
110.970583
 20
62.930917
 30
0.0
  0
POINT
  8
5
  6
CONTINUOUS
 62
    99
  5
9B8
 10
110.760583
 20
62.990917
 30
0.0
  0
POINT
  8
5
  6
CONTINUOUS
 62
    99
  5
9B9
 10
110.820583
 20
62.990917
 30
0.0
  0
POINT
  8
5
  6
CONTINUOUS
 62
    99
  5
9BA
 10
110.880583
 20
62.990917
 30
0.0
  0
POINT
  8
5
  6
CONTINUOUS
 62
    99
  5
9BB
 10
110.940583
 20
62.990917
 30
0.0
  0
POINT
  8
5
  6
CONTINUOUS
 62
    99
  5
9BC
 10
111.000583
 20
62.990917
 30
0.0
  0
POINT
  8
5
  6
CONTINUOUS
 62
    99
  5
9BD
 10
110.850583
 20
63.050917
 30
0.0
  0
POINT
  8
5
  6
CONTINUOUS
 62
    99
  5
9BE
 10
110.970583
 20
63.050917
 30
0.0
  0
POINT
  8
5
  6
CONTINUOUS
 62
    99
  5
9BF
 10
110.96575
 20
63.019583
 30
0.0
  0
POINT
  8
5
  6
CONTINUOUS
 62
    99
  5
9C0
 10
111.02575
 20
63.019583
 30
0.0
  0
POINT
  8
5
  6
CONTINUOUS
 62
    99
  5
9C1
 10
110.81575
 20
63.079583
 30
0.0
  0
POINT
  8
5
  6
CONTINUOUS
 62
    99
  5
9C2
 10
110.96575
 20
63.139583
 30
0.0
  0
POINT
  8
5
  6
CONTINUOUS
 62
    99
  5
9C3
 10
110.81575
 20
63.199583
 30
0.0
  0
POINT
  8
5
  6
CONTINUOUS
 62
    99
  5
9C4
 10
110.87575
 20
63.199583
 30
0.0
  0
POINT
  8
5
  6
CONTINUOUS
 62
    99
  5
9C5
 10
110.93575
 20
63.199583
 30
0.0
  0
POINT
  8
5
  6
CONTINUOUS
 62
    99
  5
9C6
 10
110.99575
 20
63.199583
 30
0.0
  0
POINT
  8
5
  6
CONTINUOUS
 62
    99
  5
9C7
 10
110.90575
 20
63.259583
 30
0.0
  0
POINT
  8
5
  6
CONTINUOUS
 62
    99
  5
9C8
 10
111.1315
 20
63.1495
 30
0.0
  0
POINT
  8
5
  6
CONTINUOUS
 62
    99
  5
9C9
 10
110.9215
 20
63.2095
 30
0.0
  0
POINT
  8
5
  6
CONTINUOUS
 62
    99
  5
9CA
 10
111.1315
 20
63.2695
 30
0.0
  0
POINT
  8
5
  6
CONTINUOUS
 62
    99
  5
9CB
 10
110.9215
 20
63.3295
 30
0.0
  0
POINT
  8
5
  6
CONTINUOUS
 62
    99
  5
9CC
 10
110.9815
 20
63.3295
 30
0.0
  0
POINT
  8
5
  6
CONTINUOUS
 62
    99
  5
9CD
 10
111.0415
 20
63.3295
 30
0.0
  0
POINT
  8
5
  6
CONTINUOUS
 62
    99
  5
9CE
 10
111.1015
 20
63.3295
 30
0.0
  0
POINT
  8
5
  6
CONTINUOUS
 62
    99
  5
9CF
 10
111.1615
 20
63.3295
 30
0.0
  0
POINT
  8
5
  6
CONTINUOUS
 62
    99
  5
9D0
 10
111.0115
 20
63.3895
 30
0.0
  0
POINT
  8
5
  6
CONTINUOUS
 62
    99
  5
9D1
 10
111.1315
 20
63.3895
 30
0.0
  0
POINT
  8
5
  6
CONTINUOUS
 62
    99
  5
9D2
 10
111.602667
 20
63.358167
 30
0.0
  0
POINT
  8
5
  6
CONTINUOUS
 62
    99
  5
9D3
 10
111.752667
 20
63.418167
 30
0.0
  0
POINT
  8
5
  6
CONTINUOUS
 62
    99
  5
9D4
 10
111.812667
 20
63.418167
 30
0.0
  0
POINT
  8
5
  6
CONTINUOUS
 62
    99
  5
9D5
 10
111.602667
 20
63.478167
 30
0.0
  0
POINT
  8
5
  6
CONTINUOUS
 62
    99
  5
9D6
 10
111.662667
 20
63.478167
 30
0.0
  0
POINT
  8
5
  6
CONTINUOUS
 62
    99
  5
9D7
 10
111.722667
 20
63.478167
 30
0.0
  0
POINT
  8
5
  6
CONTINUOUS
 62
    99
  5
9D8
 10
111.782667
 20
63.478167
 30
0.0
  0
POINT
  8
5
  6
CONTINUOUS
 62
    99
  5
9D9
 10
111.842667
 20
63.478167
 30
0.0
  0
POINT
  8
5
  6
CONTINUOUS
 62
    99
  5
9DA
 10
111.692667
 20
63.538167
 30
0.0
  0
POINT
  8
5
  6
CONTINUOUS
 62
    99
  5
9DB
 10
111.812667
 20
63.538167
 30
0.0
  0
POINT
  8
5
  6
CONTINUOUS
 62
    99
  5
9DC
 10
111.436917
 20
63.03725
 30
0.0
  0
POINT
  8
5
  6
CONTINUOUS
 62
    99
  5
9DD
 10
111.496917
 20
63.03725
 30
0.0
  0
POINT
  8
5
  6
CONTINUOUS
 62
    99
  5
9DE
 10
111.286917
 20
63.09725
 30
0.0
  0
POINT
  8
5
  6
CONTINUOUS
 62
    99
  5
9DF
 10
111.436917
 20
63.15725
 30
0.0
  0
POINT
  8
5
  6
CONTINUOUS
 62
    99
  5
9E0
 10
111.496917
 20
63.15725
 30
0.0
  0
POINT
  8
5
  6
CONTINUOUS
 62
    99
  5
9E1
 10
111.286917
 20
63.21725
 30
0.0
  0
POINT
  8
5
  6
CONTINUOUS
 62
    99
  5
9E2
 10
111.346917
 20
63.21725
 30
0.0
  0
POINT
  8
5
  6
CONTINUOUS
 62
    99
  5
9E3
 10
111.406917
 20
63.21725
 30
0.0
  0
POINT
  8
5
  6
CONTINUOUS
 62
    99
  5
9E4
 10
111.466917
 20
63.21725
 30
0.0
  0
POINT
  8
5
  6
CONTINUOUS
 62
    99
  5
9E5
 10
111.526917
 20
63.21725
 30
0.0
  0
POINT
  8
5
  6
CONTINUOUS
 62
    99
  5
9E6
 10
111.376917
 20
63.27725
 30
0.0
  0
POINT
  8
5
  6
CONTINUOUS
 62
    99
  5
9E7
 10
111.496917
 20
63.27725
 30
0.0
  0
POINT
  8
5
  6
CONTINUOUS
 62
    99
  5
9E8
 10
111.259583
 20
62.7225
 30
0.0
  0
POINT
  8
5
  6
CONTINUOUS
 62
    99
  5
9E9
 10
111.319583
 20
62.7225
 30
0.0
  0
POINT
  8
5
  6
CONTINUOUS
 62
    99
  5
9EA
 10
111.109583
 20
62.7825
 30
0.0
  0
POINT
  8
5
  6
CONTINUOUS
 62
    99
  5
9EB
 10
111.259583
 20
62.8425
 30
0.0
  0
POINT
  8
5
  6
CONTINUOUS
 62
    99
  5
9EC
 10
111.319583
 20
62.8425
 30
0.0
  0
POINT
  8
5
  6
CONTINUOUS
 62
    99
  5
9ED
 10
111.109583
 20
62.9025
 30
0.0
  0
POINT
  8
5
  6
CONTINUOUS
 62
    99
  5
9EE
 10
111.169583
 20
62.9025
 30
0.0
  0
POINT
  8
5
  6
CONTINUOUS
 62
    99
  5
9EF
 10
111.229583
 20
62.9025
 30
0.0
  0
POINT
  8
5
  6
CONTINUOUS
 62
    99
  5
9F0
 10
111.289583
 20
62.9025
 30
0.0
  0
POINT
  8
5
  6
CONTINUOUS
 62
    99
  5
9F1
 10
111.349583
 20
62.9025
 30
0.0
  0
POINT
  8
5
  6
CONTINUOUS
 62
    99
  5
9F2
 10
111.199583
 20
62.9625
 30
0.0
  0
POINT
  8
5
  6
CONTINUOUS
 62
    99
  5
9F3
 10
111.319583
 20
62.9625
 30
0.0
  0
POINT
  8
5
  6
CONTINUOUS
 62
    99
  5
9F4
 10
111.226667
 20
62.472083
 30
0.0
  0
POINT
  8
5
  6
CONTINUOUS
 62
    99
  5
9F5
 10
111.286667
 20
62.472083
 30
0.0
  0
POINT
  8
5
  6
CONTINUOUS
 62
    99
  5
9F6
 10
111.076667
 20
62.532083
 30
0.0
  0
POINT
  8
5
  6
CONTINUOUS
 62
    99
  5
9F7
 10
111.226667
 20
62.592083
 30
0.0
  0
POINT
  8
5
  6
CONTINUOUS
 62
    99
  5
9F8
 10
111.286667
 20
62.592083
 30
0.0
  0
POINT
  8
5
  6
CONTINUOUS
 62
    99
  5
9F9
 10
111.076667
 20
62.652083
 30
0.0
  0
POINT
  8
5
  6
CONTINUOUS
 62
    99
  5
9FA
 10
111.136667
 20
62.652083
 30
0.0
  0
POINT
  8
5
  6
CONTINUOUS
 62
    99
  5
9FB
 10
111.196667
 20
62.652083
 30
0.0
  0
POINT
  8
5
  6
CONTINUOUS
 62
    99
  5
9FC
 10
111.256667
 20
62.652083
 30
0.0
  0
POINT
  8
5
  6
CONTINUOUS
 62
    99
  5
9FD
 10
111.316667
 20
62.652083
 30
0.0
  0
POINT
  8
5
  6
CONTINUOUS
 62
    99
  5
9FE
 10
111.166667
 20
62.712083
 30
0.0
  0
POINT
  8
5
  6
CONTINUOUS
 62
    99
  5
9FF
 10
111.286667
 20
62.712083
 30
0.0
  0
POINT
  8
5
  6
CONTINUOUS
 62
    99
  5
A00
 10
113.78075
 20
63.345833
 30
0.0
  0
POINT
  8
5
  6
CONTINUOUS
 62
    99
  5
A01
 10
113.84075
 20
63.345833
 30
0.0
  0
POINT
  8
5
  6
CONTINUOUS
 62
    99
  5
A02
 10
113.63075
 20
63.405833
 30
0.0
  0
POINT
  8
5
  6
CONTINUOUS
 62
    99
  5
A03
 10
113.78075
 20
63.465833
 30
0.0
  0
POINT
  8
5
  6
CONTINUOUS
 62
    99
  5
A04
 10
113.84075
 20
63.465833
 30
0.0
  0
POINT
  8
5
  6
CONTINUOUS
 62
    99
  5
A05
 10
113.63075
 20
63.525833
 30
0.0
  0
POINT
  8
5
  6
CONTINUOUS
 62
    99
  5
A06
 10
113.69075
 20
63.525833
 30
0.0
  0
POINT
  8
5
  6
CONTINUOUS
 62
    99
  5
A07
 10
113.75075
 20
63.525833
 30
0.0
  0
POINT
  8
5
  6
CONTINUOUS
 62
    99
  5
A08
 10
113.81075
 20
63.525833
 30
0.0
  0
POINT
  8
5
  6
CONTINUOUS
 62
    99
  5
A09
 10
113.87075
 20
63.525833
 30
0.0
  0
POINT
  8
5
  6
CONTINUOUS
 62
    99
  5
A0A
 10
113.72075
 20
63.585833
 30
0.0
  0
POINT
  8
5
  6
CONTINUOUS
 62
    99
  5
A0B
 10
113.84075
 20
63.585833
 30
0.0
  0
POINT
  8
5
  6
CONTINUOUS
 62
    99
  5
A0C
 10
113.958417
 20
63.339583
 30
0.0
  0
POINT
  8
5
  6
CONTINUOUS
 62
    99
  5
A0D
 10
114.018417
 20
63.339583
 30
0.0
  0
POINT
  8
5
  6
CONTINUOUS
 62
    99
  5
A0E
 10
113.808417
 20
63.399583
 30
0.0
  0
POINT
  8
5
  6
CONTINUOUS
 62
    99
  5
A0F
 10
113.958417
 20
63.459583
 30
0.0
  0
POINT
  8
5
  6
CONTINUOUS
 62
    99
  5
A10
 10
114.018417
 20
63.459583
 30
0.0
  0
POINT
  8
5
  6
CONTINUOUS
 62
    99
  5
A11
 10
113.808417
 20
63.519583
 30
0.0
  0
POINT
  8
5
  6
CONTINUOUS
 62
    99
  5
A12
 10
113.868417
 20
63.519583
 30
0.0
  0
POINT
  8
5
  6
CONTINUOUS
 62
    99
  5
A13
 10
113.928417
 20
63.519583
 30
0.0
  0
POINT
  8
5
  6
CONTINUOUS
 62
    99
  5
A14
 10
113.988417
 20
63.519583
 30
0.0
  0
POINT
  8
5
  6
CONTINUOUS
 62
    99
  5
A15
 10
114.048417
 20
63.519583
 30
0.0
  0
POINT
  8
5
  6
CONTINUOUS
 62
    99
  5
A16
 10
113.898417
 20
63.579583
 30
0.0
  0
POINT
  8
5
  6
CONTINUOUS
 62
    99
  5
A17
 10
114.018417
 20
63.579583
 30
0.0
  0
POINT
  8
5
  6
CONTINUOUS
 62
    99
  5
A18
 10
114.224667
 20
63.286583
 30
0.0
  0
POINT
  8
5
  6
CONTINUOUS
 62
    99
  5
A19
 10
114.284667
 20
63.286583
 30
0.0
  0
POINT
  8
5
  6
CONTINUOUS
 62
    99
  5
A1A
 10
114.074667
 20
63.346583
 30
0.0
  0
POINT
  8
5
  6
CONTINUOUS
 62
    99
  5
A1B
 10
114.224667
 20
63.406583
 30
0.0
  0
POINT
  8
5
  6
CONTINUOUS
 62
    99
  5
A1C
 10
114.284667
 20
63.406583
 30
0.0
  0
POINT
  8
5
  6
CONTINUOUS
 62
    99
  5
A1D
 10
114.074667
 20
63.466583
 30
0.0
  0
POINT
  8
5
  6
CONTINUOUS
 62
    99
  5
A1E
 10
114.134667
 20
63.466583
 30
0.0
  0
POINT
  8
5
  6
CONTINUOUS
 62
    99
  5
A1F
 10
114.194667
 20
63.466583
 30
0.0
  0
POINT
  8
5
  6
CONTINUOUS
 62
    99
  5
A20
 10
114.254667
 20
63.466583
 30
0.0
  0
POINT
  8
5
  6
CONTINUOUS
 62
    99
  5
A21
 10
114.314667
 20
63.466583
 30
0.0
  0
POINT
  8
5
  6
CONTINUOUS
 62
    99
  5
A22
 10
114.164667
 20
63.526583
 30
0.0
  0
POINT
  8
5
  6
CONTINUOUS
 62
    99
  5
A23
 10
114.284667
 20
63.526583
 30
0.0
  0
POINT
  8
5
  6
CONTINUOUS
 62
    99
  5
A24
 10
114.17425
 20
63.256583
 30
0.0
  0
POINT
  8
5
  6
CONTINUOUS
 62
    99
  5
A25
 10
114.23425
 20
63.256583
 30
0.0
  0
POINT
  8
5
  6
CONTINUOUS
 62
    99
  5
A26
 10
114.02425
 20
63.316583
 30
0.0
  0
POINT
  8
5
  6
CONTINUOUS
 62
    99
  5
A27
 10
114.17425
 20
63.376583
 30
0.0
  0
POINT
  8
5
  6
CONTINUOUS
 62
    99
  5
A28
 10
114.23425
 20
63.376583
 30
0.0
  0
POINT
  8
5
  6
CONTINUOUS
 62
    99
  5
A29
 10
114.02425
 20
63.436583
 30
0.0
  0
POINT
  8
5
  6
CONTINUOUS
 62
    99
  5
A2A
 10
114.08425
 20
63.436583
 30
0.0
  0
POINT
  8
5
  6
CONTINUOUS
 62
    99
  5
A2B
 10
114.14425
 20
63.436583
 30
0.0
  0
POINT
  8
5
  6
CONTINUOUS
 62
    99
  5
A2C
 10
114.20425
 20
63.436583
 30
0.0
  0
POINT
  8
5
  6
CONTINUOUS
 62
    99
  5
A2D
 10
114.26425
 20
63.436583
 30
0.0
  0
POINT
  8
5
  6
CONTINUOUS
 62
    99
  5
A2E
 10
114.11425
 20
63.496583
 30
0.0
  0
POINT
  8
5
  6
CONTINUOUS
 62
    99
  5
A2F
 10
114.23425
 20
63.496583
 30
0.0
  0
POINT
  8
5
  6
CONTINUOUS
 62
    99
  5
A30
 10
114.28575
 20
63.12025
 30
0.0
  0
POINT
  8
5
  6
CONTINUOUS
 62
    99
  5
A31
 10
114.34575
 20
63.12025
 30
0.0
  0
POINT
  8
5
  6
CONTINUOUS
 62
    99
  5
A32
 10
114.13575
 20
63.18025
 30
0.0
  0
POINT
  8
5
  6
CONTINUOUS
 62
    99
  5
A33
 10
114.28575
 20
63.24025
 30
0.0
  0
POINT
  8
5
  6
CONTINUOUS
 62
    99
  5
A34
 10
114.34575
 20
63.24025
 30
0.0
  0
POINT
  8
5
  6
CONTINUOUS
 62
    99
  5
A35
 10
114.13575
 20
63.30025
 30
0.0
  0
POINT
  8
5
  6
CONTINUOUS
 62
    99
  5
A36
 10
114.19575
 20
63.30025
 30
0.0
  0
POINT
  8
5
  6
CONTINUOUS
 62
    99
  5
A37
 10
114.25575
 20
63.30025
 30
0.0
  0
POINT
  8
5
  6
CONTINUOUS
 62
    99
  5
A38
 10
114.31575
 20
63.30025
 30
0.0
  0
POINT
  8
5
  6
CONTINUOUS
 62
    99
  5
A39
 10
114.37575
 20
63.30025
 30
0.0
  0
POINT
  8
5
  6
CONTINUOUS
 62
    99
  5
A3A
 10
114.22575
 20
63.36025
 30
0.0
  0
POINT
  8
5
  6
CONTINUOUS
 62
    99
  5
A3B
 10
114.34575
 20
63.36025
 30
0.0
  0
POINT
  8
5
  6
CONTINUOUS
 62
    99
  5
A3C
 10
114.412667
 20
62.95925
 30
0.0
  0
POINT
  8
5
  6
CONTINUOUS
 62
    99
  5
A3D
 10
114.472667
 20
62.95925
 30
0.0
  0
POINT
  8
5
  6
CONTINUOUS
 62
    99
  5
A3E
 10
114.262667
 20
63.01925
 30
0.0
  0
POINT
  8
5
  6
CONTINUOUS
 62
    99
  5
A3F
 10
114.412667
 20
63.07925
 30
0.0
  0
POINT
  8
5
  6
CONTINUOUS
 62
    99
  5
A40
 10
114.472667
 20
63.07925
 30
0.0
  0
POINT
  8
5
  6
CONTINUOUS
 62
    99
  5
A41
 10
114.262667
 20
63.13925
 30
0.0
  0
POINT
  8
5
  6
CONTINUOUS
 62
    99
  5
A42
 10
114.322667
 20
63.13925
 30
0.0
  0
POINT
  8
5
  6
CONTINUOUS
 62
    99
  5
A43
 10
114.382667
 20
63.13925
 30
0.0
  0
POINT
  8
5
  6
CONTINUOUS
 62
    99
  5
A44
 10
114.442667
 20
63.13925
 30
0.0
  0
POINT
  8
5
  6
CONTINUOUS
 62
    99
  5
A45
 10
114.352667
 20
63.19925
 30
0.0
  0
POINT
  8
5
  6
CONTINUOUS
 62
    99
  5
A46
 10
114.385583
 20
63.024583
 30
0.0
  0
POINT
  8
5
  6
CONTINUOUS
 62
    99
  5
A47
 10
114.445583
 20
63.024583
 30
0.0
  0
POINT
  8
5
  6
CONTINUOUS
 62
    99
  5
A48
 10
114.235583
 20
63.084583
 30
0.0
  0
POINT
  8
5
  6
CONTINUOUS
 62
    99
  5
A49
 10
114.385583
 20
63.144583
 30
0.0
  0
POINT
  8
5
  6
CONTINUOUS
 62
    99
  5
A4A
 10
114.445583
 20
63.144583
 30
0.0
  0
POINT
  8
5
  6
CONTINUOUS
 62
    99
  5
A4B
 10
114.235583
 20
63.204583
 30
0.0
  0
POINT
  8
5
  6
CONTINUOUS
 62
    99
  5
A4C
 10
114.295583
 20
63.204583
 30
0.0
  0
POINT
  8
5
  6
CONTINUOUS
 62
    99
  5
A4D
 10
114.355583
 20
63.204583
 30
0.0
  0
POINT
  8
5
  6
CONTINUOUS
 62
    99
  5
A4E
 10
114.415583
 20
63.204583
 30
0.0
  0
POINT
  8
5
  6
CONTINUOUS
 62
    99
  5
A4F
 10
114.475583
 20
63.204583
 30
0.0
  0
POINT
  8
5
  6
CONTINUOUS
 62
    99
  5
A50
 10
114.325583
 20
63.264583
 30
0.0
  0
POINT
  8
5
  6
CONTINUOUS
 62
    99
  5
A51
 10
114.445583
 20
63.264583
 30
0.0
  0
POINT
  8
5
  6
CONTINUOUS
 62
    99
  5
A52
 10
114.54525
 20
62.829333
 30
0.0
  0
POINT
  8
5
  6
CONTINUOUS
 62
    99
  5
A53
 10
114.33525
 20
62.889333
 30
0.0
  0
POINT
  8
5
  6
CONTINUOUS
 62
    99
  5
A54
 10
114.48525
 20
62.949333
 30
0.0
  0
POINT
  8
5
  6
CONTINUOUS
 62
    99
  5
A55
 10
114.54525
 20
62.949333
 30
0.0
  0
POINT
  8
5
  6
CONTINUOUS
 62
    99
  5
A56
 10
114.33525
 20
63.009333
 30
0.0
  0
POINT
  8
5
  6
CONTINUOUS
 62
    99
  5
A57
 10
114.39525
 20
63.009333
 30
0.0
  0
POINT
  8
5
  6
CONTINUOUS
 62
    99
  5
A58
 10
114.45525
 20
63.009333
 30
0.0
  0
POINT
  8
5
  6
CONTINUOUS
 62
    99
  5
A59
 10
114.51525
 20
63.009333
 30
0.0
  0
POINT
  8
5
  6
CONTINUOUS
 62
    99
  5
A5A
 10
114.57525
 20
63.009333
 30
0.0
  0
POINT
  8
5
  6
CONTINUOUS
 62
    99
  5
A5B
 10
114.54525
 20
63.069333
 30
0.0
  0
POINT
  8
5
  6
CONTINUOUS
 62
    99
  5
A5C
 10
114.59025
 20
62.663
 30
0.0
  0
POINT
  8
5
  6
CONTINUOUS
 62
    99
  5
A5D
 10
114.65025
 20
62.663
 30
0.0
  0
POINT
  8
5
  6
CONTINUOUS
 62
    99
  5
A5E
 10
114.44025
 20
62.723
 30
0.0
  0
POINT
  8
5
  6
CONTINUOUS
 62
    99
  5
A5F
 10
114.65025
 20
62.783
 30
0.0
  0
POINT
  8
5
  6
CONTINUOUS
 62
    99
  5
A60
 10
114.44025
 20
62.843
 30
0.0
  0
POINT
  8
5
  6
CONTINUOUS
 62
    99
  5
A61
 10
114.56025
 20
62.843
 30
0.0
  0
POINT
  8
5
  6
CONTINUOUS
 62
    99
  5
A62
 10
114.62025
 20
62.843
 30
0.0
  0
POINT
  8
5
  6
CONTINUOUS
 62
    99
  5
A63
 10
114.68025
 20
62.843
 30
0.0
  0
POINT
  8
5
  6
CONTINUOUS
 62
    99
  5
A64
 10
114.53025
 20
62.903
 30
0.0
  0
POINT
  8
5
  6
CONTINUOUS
 62
    99
  5
A65
 10
114.65025
 20
62.903
 30
0.0
  0
POINT
  8
5
  6
CONTINUOUS
 62
    99
  5
A66
 10
114.6735
 20
62.526167
 30
0.0
  0
POINT
  8
5
  6
CONTINUOUS
 62
    99
  5
A67
 10
114.7335
 20
62.526167
 30
0.0
  0
POINT
  8
5
  6
CONTINUOUS
 62
    99
  5
A68
 10
114.5235
 20
62.586167
 30
0.0
  0
POINT
  8
5
  6
CONTINUOUS
 62
    99
  5
A69
 10
114.7335
 20
62.646167
 30
0.0
  0
POINT
  8
5
  6
CONTINUOUS
 62
    99
  5
A6A
 10
114.5235
 20
62.706167
 30
0.0
  0
POINT
  8
5
  6
CONTINUOUS
 62
    99
  5
A6B
 10
114.5835
 20
62.706167
 30
0.0
  0
POINT
  8
5
  6
CONTINUOUS
 62
    99
  5
A6C
 10
114.6435
 20
62.706167
 30
0.0
  0
POINT
  8
5
  6
CONTINUOUS
 62
    99
  5
A6D
 10
114.7035
 20
62.706167
 30
0.0
  0
POINT
  8
5
  6
CONTINUOUS
 62
    99
  5
A6E
 10
114.7635
 20
62.706167
 30
0.0
  0
POINT
  8
5
  6
CONTINUOUS
 62
    99
  5
A6F
 10
114.6135
 20
62.766167
 30
0.0
  0
POINT
  8
5
  6
CONTINUOUS
 62
    99
  5
A70
 10
114.7335
 20
62.766167
 30
0.0
  0
POINT
  8
5
  6
CONTINUOUS
 62
    99
  5
A71
 10
114.779083
 20
62.383667
 30
0.0
  0
POINT
  8
5
  6
CONTINUOUS
 62
    99
  5
A72
 10
114.839083
 20
62.383667
 30
0.0
  0
POINT
  8
5
  6
CONTINUOUS
 62
    99
  5
A73
 10
114.629083
 20
62.443667
 30
0.0
  0
POINT
  8
5
  6
CONTINUOUS
 62
    99
  5
A74
 10
114.779083
 20
62.503667
 30
0.0
  0
POINT
  8
5
  6
CONTINUOUS
 62
    99
  5
A75
 10
114.839083
 20
62.503667
 30
0.0
  0
POINT
  8
5
  6
CONTINUOUS
 62
    99
  5
A76
 10
114.749083
 20
62.563667
 30
0.0
  0
POINT
  8
5
  6
CONTINUOUS
 62
    99
  5
A77
 10
114.809083
 20
62.563667
 30
0.0
  0
POINT
  8
5
  6
CONTINUOUS
 62
    99
  5
A78
 10
114.869083
 20
62.563667
 30
0.0
  0
POINT
  8
5
  6
CONTINUOUS
 62
    99
  5
A79
 10
114.839083
 20
62.623667
 30
0.0
  0
POINT
  8
5
  6
CONTINUOUS
 62
    99
  5
A7A
 10
114.756833
 20
62.383667
 30
0.0
  0
POINT
  8
5
  6
CONTINUOUS
 62
    99
  5
A7B
 10
114.816833
 20
62.383667
 30
0.0
  0
POINT
  8
5
  6
CONTINUOUS
 62
    99
  5
A7C
 10
114.606833
 20
62.443667
 30
0.0
  0
POINT
  8
5
  6
CONTINUOUS
 62
    99
  5
A7D
 10
114.756833
 20
62.503667
 30
0.0
  0
POINT
  8
5
  6
CONTINUOUS
 62
    99
  5
A7E
 10
114.816833
 20
62.503667
 30
0.0
  0
POINT
  8
5
  6
CONTINUOUS
 62
    99
  5
A7F
 10
114.726833
 20
62.563667
 30
0.0
  0
POINT
  8
5
  6
CONTINUOUS
 62
    99
  5
A80
 10
114.786833
 20
62.563667
 30
0.0
  0
POINT
  8
5
  6
CONTINUOUS
 62
    99
  5
A81
 10
114.846833
 20
62.563667
 30
0.0
  0
POINT
  8
5
  6
CONTINUOUS
 62
    99
  5
A82
 10
114.816833
 20
62.623667
 30
0.0
  0
POINT
  8
5
  6
CONTINUOUS
 62
    99
  5
A83
 10
114.701417
 20
62.436667
 30
0.0
  0
POINT
  8
5
  6
CONTINUOUS
 62
    99
  5
A84
 10
114.761417
 20
62.436667
 30
0.0
  0
POINT
  8
5
  6
CONTINUOUS
 62
    99
  5
A85
 10
114.551417
 20
62.496667
 30
0.0
  0
POINT
  8
5
  6
CONTINUOUS
 62
    99
  5
A86
 10
114.761417
 20
62.556667
 30
0.0
  0
POINT
  8
5
  6
CONTINUOUS
 62
    99
  5
A87
 10
114.551417
 20
62.616667
 30
0.0
  0
POINT
  8
5
  6
CONTINUOUS
 62
    99
  5
A88
 10
114.731417
 20
62.616667
 30
0.0
  0
POINT
  8
5
  6
CONTINUOUS
 62
    99
  5
A89
 10
114.791417
 20
62.616667
 30
0.0
  0
POINT
  8
5
  6
CONTINUOUS
 62
    99
  5
A8A
 10
114.641417
 20
62.676667
 30
0.0
  0
POINT
  8
5
  6
CONTINUOUS
 62
    99
  5
A8B
 10
114.761417
 20
62.676667
 30
0.0
  0
POINT
  8
5
  6
CONTINUOUS
 62
    99
  5
A8C
 10
114.512583
 20
62.55
 30
0.0
  0
POINT
  8
5
  6
CONTINUOUS
 62
    99
  5
A8D
 10
114.572583
 20
62.55
 30
0.0
  0
POINT
  8
5
  6
CONTINUOUS
 62
    99
  5
A8E
 10
114.362583
 20
62.61
 30
0.0
  0
POINT
  8
5
  6
CONTINUOUS
 62
    99
  5
A8F
 10
114.512583
 20
62.67
 30
0.0
  0
POINT
  8
5
  6
CONTINUOUS
 62
    99
  5
A90
 10
114.572583
 20
62.67
 30
0.0
  0
POINT
  8
5
  6
CONTINUOUS
 62
    99
  5
A91
 10
114.362583
 20
62.73
 30
0.0
  0
POINT
  8
5
  6
CONTINUOUS
 62
    99
  5
A92
 10
114.422583
 20
62.73
 30
0.0
  0
POINT
  8
5
  6
CONTINUOUS
 62
    99
  5
A93
 10
114.482583
 20
62.73
 30
0.0
  0
POINT
  8
5
  6
CONTINUOUS
 62
    99
  5
A94
 10
114.542583
 20
62.73
 30
0.0
  0
POINT
  8
5
  6
CONTINUOUS
 62
    99
  5
A95
 10
114.602583
 20
62.73
 30
0.0
  0
POINT
  8
5
  6
CONTINUOUS
 62
    99
  5
A96
 10
114.452583
 20
62.79
 30
0.0
  0
POINT
  8
5
  6
CONTINUOUS
 62
    99
  5
A97
 10
114.572583
 20
62.79
 30
0.0
  0
POINT
  8
5
  6
CONTINUOUS
 62
    99
  5
A98
 10
114.313083
 20
62.57925
 30
0.0
  0
POINT
  8
5
  6
CONTINUOUS
 62
    99
  5
A99
 10
114.163083
 20
62.63925
 30
0.0
  0
POINT
  8
5
  6
CONTINUOUS
 62
    99
  5
A9A
 10
114.313083
 20
62.69925
 30
0.0
  0
POINT
  8
5
  6
CONTINUOUS
 62
    99
  5
A9B
 10
114.373083
 20
62.69925
 30
0.0
  0
POINT
  8
5
  6
CONTINUOUS
 62
    99
  5
A9C
 10
114.163083
 20
62.75925
 30
0.0
  0
POINT
  8
5
  6
CONTINUOUS
 62
    99
  5
A9D
 10
114.223083
 20
62.75925
 30
0.0
  0
POINT
  8
5
  6
CONTINUOUS
 62
    99
  5
A9E
 10
114.403083
 20
62.75925
 30
0.0
  0
POINT
  8
5
  6
CONTINUOUS
 62
    99
  5
A9F
 10
114.253083
 20
62.81925
 30
0.0
  0
POINT
  8
5
  6
CONTINUOUS
 62
    99
  5
AA0
 10
114.373083
 20
62.81925
 30
0.0
  0
POINT
  8
5
  6
CONTINUOUS
 62
    99
  5
AA1
 10
114.33525
 20
62.663
 30
0.0
  0
POINT
  8
5
  6
CONTINUOUS
 62
    99
  5
AA2
 10
114.39525
 20
62.663
 30
0.0
  0
POINT
  8
5
  6
CONTINUOUS
 62
    99
  5
AA3
 10
114.18525
 20
62.723
 30
0.0
  0
POINT
  8
5
  6
CONTINUOUS
 62
    99
  5
AA4
 10
114.39525
 20
62.783
 30
0.0
  0
POINT
  8
5
  6
CONTINUOUS
 62
    99
  5
AA5
 10
114.18525
 20
62.843
 30
0.0
  0
POINT
  8
5
  6
CONTINUOUS
 62
    99
  5
AA6
 10
114.24525
 20
62.843
 30
0.0
  0
POINT
  8
5
  6
CONTINUOUS
 62
    99
  5
AA7
 10
114.30525
 20
62.843
 30
0.0
  0
POINT
  8
5
  6
CONTINUOUS
 62
    99
  5
AA8
 10
114.36525
 20
62.843
 30
0.0
  0
POINT
  8
5
  6
CONTINUOUS
 62
    99
  5
AA9
 10
114.42525
 20
62.843
 30
0.0
  0
POINT
  8
5
  6
CONTINUOUS
 62
    99
  5
AAA
 10
114.27525
 20
62.903
 30
0.0
  0
POINT
  8
5
  6
CONTINUOUS
 62
    99
  5
AAB
 10
114.39525
 20
62.903
 30
0.0
  0
POINT
  8
5
  6
CONTINUOUS
 62
    99
  5
AAC
 10
114.246833
 20
62.90625
 30
0.0
  0
POINT
  8
5
  6
CONTINUOUS
 62
    99
  5
AAD
 10
114.306833
 20
62.90625
 30
0.0
  0
POINT
  8
5
  6
CONTINUOUS
 62
    99
  5
AAE
 10
114.096833
 20
62.96625
 30
0.0
  0
POINT
  8
5
  6
CONTINUOUS
 62
    99
  5
AAF
 10
114.246833
 20
63.02625
 30
0.0
  0
POINT
  8
5
  6
CONTINUOUS
 62
    99
  5
AB0
 10
114.306833
 20
63.02625
 30
0.0
  0
POINT
  8
5
  6
CONTINUOUS
 62
    99
  5
AB1
 10
114.096833
 20
63.08625
 30
0.0
  0
POINT
  8
5
  6
CONTINUOUS
 62
    99
  5
AB2
 10
114.156833
 20
63.08625
 30
0.0
  0
POINT
  8
5
  6
CONTINUOUS
 62
    99
  5
AB3
 10
114.216833
 20
63.08625
 30
0.0
  0
POINT
  8
5
  6
CONTINUOUS
 62
    99
  5
AB4
 10
114.276833
 20
63.08625
 30
0.0
  0
POINT
  8
5
  6
CONTINUOUS
 62
    99
  5
AB5
 10
114.336833
 20
63.08625
 30
0.0
  0
POINT
  8
5
  6
CONTINUOUS
 62
    99
  5
AB6
 10
114.186833
 20
63.14625
 30
0.0
  0
POINT
  8
5
  6
CONTINUOUS
 62
    99
  5
AB7
 10
114.306833
 20
63.14625
 30
0.0
  0
POINT
  8
5
  6
CONTINUOUS
 62
    99
  5
AB8
 10
114.363417
 20
62.740167
 30
0.0
  0
POINT
  8
5
  6
CONTINUOUS
 62
    99
  5
AB9
 10
114.423417
 20
62.740167
 30
0.0
  0
POINT
  8
5
  6
CONTINUOUS
 62
    99
  5
ABA
 10
114.213417
 20
62.800167
 30
0.0
  0
POINT
  8
5
  6
CONTINUOUS
 62
    99
  5
ABB
 10
114.363417
 20
62.860167
 30
0.0
  0
POINT
  8
5
  6
CONTINUOUS
 62
    99
  5
ABC
 10
114.423417
 20
62.860167
 30
0.0
  0
POINT
  8
5
  6
CONTINUOUS
 62
    99
  5
ABD
 10
114.213417
 20
62.920167
 30
0.0
  0
POINT
  8
5
  6
CONTINUOUS
 62
    99
  5
ABE
 10
114.273417
 20
62.920167
 30
0.0
  0
POINT
  8
5
  6
CONTINUOUS
 62
    99
  5
ABF
 10
114.333417
 20
62.920167
 30
0.0
  0
POINT
  8
5
  6
CONTINUOUS
 62
    99
  5
AC0
 10
114.393417
 20
62.920167
 30
0.0
  0
POINT
  8
5
  6
CONTINUOUS
 62
    99
  5
AC1
 10
114.453417
 20
62.920167
 30
0.0
  0
POINT
  8
5
  6
CONTINUOUS
 62
    99
  5
AC2
 10
114.303417
 20
62.980167
 30
0.0
  0
POINT
  8
5
  6
CONTINUOUS
 62
    99
  5
AC3
 10
114.423417
 20
62.980167
 30
0.0
  0
POINT
  8
5
  6
CONTINUOUS
 62
    99
  5
AC4
 10
114.573667
 20
62.561583
 30
0.0
  0
POINT
  8
5
  6
CONTINUOUS
 62
    99
  5
AC5
 10
114.423667
 20
62.621583
 30
0.0
  0
POINT
  8
5
  6
CONTINUOUS
 62
    99
  5
AC6
 10
114.573667
 20
62.681583
 30
0.0
  0
POINT
  8
5
  6
CONTINUOUS
 62
    99
  5
AC7
 10
114.633667
 20
62.681583
 30
0.0
  0
POINT
  8
5
  6
CONTINUOUS
 62
    99
  5
AC8
 10
114.423667
 20
62.741583
 30
0.0
  0
POINT
  8
5
  6
CONTINUOUS
 62
    99
  5
AC9
 10
114.483667
 20
62.741583
 30
0.0
  0
POINT
  8
5
  6
CONTINUOUS
 62
    99
  5
ACA
 10
114.543667
 20
62.741583
 30
0.0
  0
POINT
  8
5
  6
CONTINUOUS
 62
    99
  5
ACB
 10
114.603667
 20
62.741583
 30
0.0
  0
POINT
  8
5
  6
CONTINUOUS
 62
    99
  5
ACC
 10
114.663667
 20
62.741583
 30
0.0
  0
POINT
  8
5
  6
CONTINUOUS
 62
    99
  5
ACD
 10
114.633667
 20
62.801583
 30
0.0
  0
POINT
  8
5
  6
CONTINUOUS
 62
    99
  5
ACE
 10
114.169417
 20
62.810917
 30
0.0
  0
POINT
  8
5
  6
CONTINUOUS
 62
    99
  5
ACF
 10
114.229417
 20
62.810917
 30
0.0
  0
POINT
  8
5
  6
CONTINUOUS
 62
    99
  5
AD0
 10
114.019417
 20
62.870917
 30
0.0
  0
POINT
  8
5
  6
CONTINUOUS
 62
    99
  5
AD1
 10
114.169417
 20
62.930917
 30
0.0
  0
POINT
  8
5
  6
CONTINUOUS
 62
    99
  5
AD2
 10
114.229417
 20
62.930917
 30
0.0
  0
POINT
  8
5
  6
CONTINUOUS
 62
    99
  5
AD3
 10
114.019417
 20
62.990917
 30
0.0
  0
POINT
  8
5
  6
CONTINUOUS
 62
    99
  5
AD4
 10
114.079417
 20
62.990917
 30
0.0
  0
POINT
  8
5
  6
CONTINUOUS
 62
    99
  5
AD5
 10
114.139417
 20
62.990917
 30
0.0
  0
POINT
  8
5
  6
CONTINUOUS
 62
    99
  5
AD6
 10
114.199417
 20
62.990917
 30
0.0
  0
POINT
  8
5
  6
CONTINUOUS
 62
    99
  5
AD7
 10
114.259417
 20
62.990917
 30
0.0
  0
POINT
  8
5
  6
CONTINUOUS
 62
    99
  5
AD8
 10
114.109417
 20
63.050917
 30
0.0
  0
POINT
  8
5
  6
CONTINUOUS
 62
    99
  5
AD9
 10
114.229417
 20
63.050917
 30
0.0
  0
POINT
  8
5
  6
CONTINUOUS
 62
    99
  5
ADA
 10
114.09175
 20
62.93625
 30
0.0
  0
POINT
  8
5
  6
CONTINUOUS
 62
    99
  5
ADB
 10
114.15175
 20
62.93625
 30
0.0
  0
POINT
  8
5
  6
CONTINUOUS
 62
    99
  5
ADC
 10
113.94175
 20
62.99625
 30
0.0
  0
POINT
  8
5
  6
CONTINUOUS
 62
    99
  5
ADD
 10
114.09175
 20
63.05625
 30
0.0
  0
POINT
  8
5
  6
CONTINUOUS
 62
    99
  5
ADE
 10
114.15175
 20
63.05625
 30
0.0
  0
POINT
  8
5
  6
CONTINUOUS
 62
    99
  5
ADF
 10
113.94175
 20
63.11625
 30
0.0
  0
POINT
  8
5
  6
CONTINUOUS
 62
    99
  5
AE0
 10
114.00175
 20
63.11625
 30
0.0
  0
POINT
  8
5
  6
CONTINUOUS
 62
    99
  5
AE1
 10
114.06175
 20
63.11625
 30
0.0
  0
POINT
  8
5
  6
CONTINUOUS
 62
    99
  5
AE2
 10
114.12175
 20
63.11625
 30
0.0
  0
POINT
  8
5
  6
CONTINUOUS
 62
    99
  5
AE3
 10
114.18175
 20
63.11625
 30
0.0
  0
POINT
  8
5
  6
CONTINUOUS
 62
    99
  5
AE4
 10
114.03175
 20
63.17625
 30
0.0
  0
POINT
  8
5
  6
CONTINUOUS
 62
    99
  5
AE5
 10
114.15175
 20
63.17625
 30
0.0
  0
POINT
  8
5
  6
CONTINUOUS
 62
    99
  5
AE6
 10
114.025083
 20
63.04875
 30
0.0
  0
POINT
  8
5
  6
CONTINUOUS
 62
    99
  5
AE7
 10
113.875083
 20
63.10875
 30
0.0
  0
POINT
  8
5
  6
CONTINUOUS
 62
    99
  5
AE8
 10
114.025083
 20
63.16875
 30
0.0
  0
POINT
  8
5
  6
CONTINUOUS
 62
    99
  5
AE9
 10
114.085083
 20
63.16875
 30
0.0
  0
POINT
  8
5
  6
CONTINUOUS
 62
    99
  5
AEA
 10
113.875083
 20
63.22875
 30
0.0
  0
POINT
  8
5
  6
CONTINUOUS
 62
    99
  5
AEB
 10
113.995083
 20
63.22875
 30
0.0
  0
POINT
  8
5
  6
CONTINUOUS
 62
    99
  5
AEC
 10
114.055083
 20
63.22875
 30
0.0
  0
POINT
  8
5
  6
CONTINUOUS
 62
    99
  5
AED
 10
114.115083
 20
63.22875
 30
0.0
  0
POINT
  8
5
  6
CONTINUOUS
 62
    99
  5
AEE
 10
113.965083
 20
63.28875
 30
0.0
  0
POINT
  8
5
  6
CONTINUOUS
 62
    99
  5
AEF
 10
114.085083
 20
63.28875
 30
0.0
  0
POINT
  8
5
  6
CONTINUOUS
 62
    99
  5
AF0
 10
114.00175
 20
63.203583
 30
0.0
  0
POINT
  8
5
  6
CONTINUOUS
 62
    99
  5
AF1
 10
113.79175
 20
63.263583
 30
0.0
  0
POINT
  8
5
  6
CONTINUOUS
 62
    99
  5
AF2
 10
114.00175
 20
63.323583
 30
0.0
  0
POINT
  8
5
  6
CONTINUOUS
 62
    99
  5
AF3
 10
113.79175
 20
63.383583
 30
0.0
  0
POINT
  8
5
  6
CONTINUOUS
 62
    99
  5
AF4
 10
113.85175
 20
63.383583
 30
0.0
  0
POINT
  8
5
  6
CONTINUOUS
 62
    99
  5
AF5
 10
113.91175
 20
63.383583
 30
0.0
  0
POINT
  8
5
  6
CONTINUOUS
 62
    99
  5
AF6
 10
113.97175
 20
63.383583
 30
0.0
  0
POINT
  8
5
  6
CONTINUOUS
 62
    99
  5
AF7
 10
114.03175
 20
63.383583
 30
0.0
  0
POINT
  8
5
  6
CONTINUOUS
 62
    99
  5
AF8
 10
113.88175
 20
63.443583
 30
0.0
  0
POINT
  8
5
  6
CONTINUOUS
 62
    99
  5
AF9
 10
114.00175
 20
63.443583
 30
0.0
  0
POINT
  8
5
  6
CONTINUOUS
 62
    99
  5
AFA
 10
113.8255
 20
63.339583
 30
0.0
  0
POINT
  8
5
  6
CONTINUOUS
 62
    99
  5
AFB
 10
113.8855
 20
63.339583
 30
0.0
  0
POINT
  8
5
  6
CONTINUOUS
 62
    99
  5
AFC
 10
113.6755
 20
63.399583
 30
0.0
  0
POINT
  8
5
  6
CONTINUOUS
 62
    99
  5
AFD
 10
113.8255
 20
63.459583
 30
0.0
  0
POINT
  8
5
  6
CONTINUOUS
 62
    99
  5
AFE
 10
113.8855
 20
63.459583
 30
0.0
  0
POINT
  8
5
  6
CONTINUOUS
 62
    99
  5
AFF
 10
113.9155
 20
63.519583
 30
0.0
  0
POINT
  8
5
  6
CONTINUOUS
 62
    99
  5
B00
 10
113.7655
 20
63.579583
 30
0.0
  0
POINT
  8
5
  6
CONTINUOUS
 62
    99
  5
B01
 10
113.8855
 20
63.579583
 30
0.0
  0
POINT
  8
5
  6
CONTINUOUS
 62
    99
  5
B02
 10
114.113417
 20
63.155583
 30
0.0
  0
POINT
  8
5
  6
CONTINUOUS
 62
    99
  5
B03
 10
114.173417
 20
63.155583
 30
0.0
  0
POINT
  8
5
  6
CONTINUOUS
 62
    99
  5
B04
 10
113.963417
 20
63.215583
 30
0.0
  0
POINT
  8
5
  6
CONTINUOUS
 62
    99
  5
B05
 10
114.113417
 20
63.275583
 30
0.0
  0
POINT
  8
5
  6
CONTINUOUS
 62
    99
  5
B06
 10
114.173417
 20
63.275583
 30
0.0
  0
POINT
  8
5
  6
CONTINUOUS
 62
    99
  5
B07
 10
113.963417
 20
63.335583
 30
0.0
  0
POINT
  8
5
  6
CONTINUOUS
 62
    99
  5
B08
 10
114.023417
 20
63.335583
 30
0.0
  0
POINT
  8
5
  6
CONTINUOUS
 62
    99
  5
B09
 10
114.083417
 20
63.335583
 30
0.0
  0
POINT
  8
5
  6
CONTINUOUS
 62
    99
  5
B0A
 10
114.143417
 20
63.335583
 30
0.0
  0
POINT
  8
5
  6
CONTINUOUS
 62
    99
  5
B0B
 10
114.203417
 20
63.335583
 30
0.0
  0
POINT
  8
5
  6
CONTINUOUS
 62
    99
  5
B0C
 10
114.053417
 20
63.395583
 30
0.0
  0
POINT
  8
5
  6
CONTINUOUS
 62
    99
  5
B0D
 10
114.173417
 20
63.395583
 30
0.0
  0
POINT
  8
5
  6
CONTINUOUS
 62
    99
  5
B0E
 10
113.88075
 20
63.203583
 30
0.0
  0
POINT
  8
5
  6
CONTINUOUS
 62
    99
  5
B0F
 10
113.73075
 20
63.263583
 30
0.0
  0
POINT
  8
5
  6
CONTINUOUS
 62
    99
  5
B10
 10
113.88075
 20
63.323583
 30
0.0
  0
POINT
  8
5
  6
CONTINUOUS
 62
    99
  5
B11
 10
113.73075
 20
63.383583
 30
0.0
  0
POINT
  8
5
  6
CONTINUOUS
 62
    99
  5
B12
 10
113.97075
 20
63.383583
 30
0.0
  0
POINT
  8
5
  6
CONTINUOUS
 62
    99
  5
B13
 10
113.82075
 20
63.443583
 30
0.0
  0
POINT
  8
5
  6
CONTINUOUS
 62
    99
  5
B14
 10
113.94075
 20
63.443583
 30
0.0
  0
POINT
  8
5
  6
CONTINUOUS
 62
    99
  5
B15
 10
113.980667
 20
63.043417
 30
0.0
  0
POINT
  8
5
  6
CONTINUOUS
 62
    99
  5
B16
 10
114.040667
 20
63.043417
 30
0.0
  0
POINT
  8
5
  6
CONTINUOUS
 62
    99
  5
B17
 10
113.830667
 20
63.103417
 30
0.0
  0
POINT
  8
5
  6
CONTINUOUS
 62
    99
  5
B18
 10
113.980667
 20
63.163417
 30
0.0
  0
POINT
  8
5
  6
CONTINUOUS
 62
    99
  5
B19
 10
114.040667
 20
63.163417
 30
0.0
  0
POINT
  8
5
  6
CONTINUOUS
 62
    99
  5
B1A
 10
113.830667
 20
63.223417
 30
0.0
  0
POINT
  8
5
  6
CONTINUOUS
 62
    99
  5
B1B
 10
113.890667
 20
63.223417
 30
0.0
  0
POINT
  8
5
  6
CONTINUOUS
 62
    99
  5
B1C
 10
114.010667
 20
63.223417
 30
0.0
  0
POINT
  8
5
  6
CONTINUOUS
 62
    99
  5
B1D
 10
114.070667
 20
63.223417
 30
0.0
  0
POINT
  8
5
  6
CONTINUOUS
 62
    99
  5
B1E
 10
114.040667
 20
63.283417
 30
0.0
  0
POINT
  8
5
  6
CONTINUOUS
 62
    99
  5
B1F
 10
114.069583
 20
62.805583
 30
0.0
  0
POINT
  8
5
  6
CONTINUOUS
 62
    99
  5
B20
 10
114.129583
 20
62.805583
 30
0.0
  0
POINT
  8
5
  6
CONTINUOUS
 62
    99
  5
B21
 10
113.919583
 20
62.865583
 30
0.0
  0
POINT
  8
5
  6
CONTINUOUS
 62
    99
  5
B22
 10
114.069583
 20
62.925583
 30
0.0
  0
POINT
  8
5
  6
CONTINUOUS
 62
    99
  5
B23
 10
114.129583
 20
62.925583
 30
0.0
  0
POINT
  8
5
  6
CONTINUOUS
 62
    99
  5
B24
 10
113.919583
 20
62.985583
 30
0.0
  0
POINT
  8
5
  6
CONTINUOUS
 62
    99
  5
B25
 10
113.979583
 20
62.985583
 30
0.0
  0
POINT
  8
5
  6
CONTINUOUS
 62
    99
  5
B26
 10
114.039583
 20
62.985583
 30
0.0
  0
POINT
  8
5
  6
CONTINUOUS
 62
    99
  5
B27
 10
114.099583
 20
62.985583
 30
0.0
  0
POINT
  8
5
  6
CONTINUOUS
 62
    99
  5
B28
 10
114.159583
 20
62.985583
 30
0.0
  0
POINT
  8
5
  6
CONTINUOUS
 62
    99
  5
B29
 10
114.009583
 20
63.045583
 30
0.0
  0
POINT
  8
5
  6
CONTINUOUS
 62
    99
  5
B2A
 10
114.19675
 20
62.656917
 30
0.0
  0
POINT
  8
5
  6
CONTINUOUS
 62
    99
  5
B2B
 10
114.25675
 20
62.656917
 30
0.0
  0
POINT
  8
5
  6
CONTINUOUS
 62
    99
  5
B2C
 10
114.04675
 20
62.716917
 30
0.0
  0
POINT
  8
5
  6
CONTINUOUS
 62
    99
  5
B2D
 10
114.19675
 20
62.776917
 30
0.0
  0
POINT
  8
5
  6
CONTINUOUS
 62
    99
  5
B2E
 10
114.04675
 20
62.836917
 30
0.0
  0
POINT
  8
5
  6
CONTINUOUS
 62
    99
  5
B2F
 10
114.10675
 20
62.836917
 30
0.0
  0
POINT
  8
5
  6
CONTINUOUS
 62
    99
  5
B30
 10
114.16675
 20
62.836917
 30
0.0
  0
POINT
  8
5
  6
CONTINUOUS
 62
    99
  5
B31
 10
114.28675
 20
62.836917
 30
0.0
  0
POINT
  8
5
  6
CONTINUOUS
 62
    99
  5
B32
 10
114.25675
 20
62.896917
 30
0.0
  0
POINT
  8
5
  6
CONTINUOUS
 62
    99
  5
B33
 10
114.235333
 20
62.495917
 30
0.0
  0
POINT
  8
5
  6
CONTINUOUS
 62
    99
  5
B34
 10
114.295333
 20
62.495917
 30
0.0
  0
POINT
  8
5
  6
CONTINUOUS
 62
    99
  5
B35
 10
114.085333
 20
62.555917
 30
0.0
  0
POINT
  8
5
  6
CONTINUOUS
 62
    99
  5
B36
 10
114.235333
 20
62.615917
 30
0.0
  0
POINT
  8
5
  6
CONTINUOUS
 62
    99
  5
B37
 10
114.295333
 20
62.615917
 30
0.0
  0
POINT
  8
5
  6
CONTINUOUS
 62
    99
  5
B38
 10
114.085333
 20
62.675917
 30
0.0
  0
POINT
  8
5
  6
CONTINUOUS
 62
    99
  5
B39
 10
114.145333
 20
62.675917
 30
0.0
  0
POINT
  8
5
  6
CONTINUOUS
 62
    99
  5
B3A
 10
114.205333
 20
62.675917
 30
0.0
  0
POINT
  8
5
  6
CONTINUOUS
 62
    99
  5
B3B
 10
114.265333
 20
62.675917
 30
0.0
  0
POINT
  8
5
  6
CONTINUOUS
 62
    99
  5
B3C
 10
114.325333
 20
62.675917
 30
0.0
  0
POINT
  8
5
  6
CONTINUOUS
 62
    99
  5
B3D
 10
114.175333
 20
62.735917
 30
0.0
  0
POINT
  8
5
  6
CONTINUOUS
 62
    99
  5
B3E
 10
114.3245
 20
62.425167
 30
0.0
  0
POINT
  8
5
  6
CONTINUOUS
 62
    99
  5
B3F
 10
114.3845
 20
62.425167
 30
0.0
  0
POINT
  8
5
  6
CONTINUOUS
 62
    99
  5
B40
 10
114.1745
 20
62.485167
 30
0.0
  0
POINT
  8
5
  6
CONTINUOUS
 62
    99
  5
B41
 10
114.3245
 20
62.545167
 30
0.0
  0
POINT
  8
5
  6
CONTINUOUS
 62
    99
  5
B42
 10
114.3845
 20
62.545167
 30
0.0
  0
POINT
  8
5
  6
CONTINUOUS
 62
    99
  5
B43
 10
114.1745
 20
62.605167
 30
0.0
  0
POINT
  8
5
  6
CONTINUOUS
 62
    99
  5
B44
 10
114.2345
 20
62.605167
 30
0.0
  0
POINT
  8
5
  6
CONTINUOUS
 62
    99
  5
B45
 10
114.2945
 20
62.605167
 30
0.0
  0
POINT
  8
5
  6
CONTINUOUS
 62
    99
  5
B46
 10
114.3545
 20
62.605167
 30
0.0
  0
POINT
  8
5
  6
CONTINUOUS
 62
    99
  5
B47
 10
114.4145
 20
62.605167
 30
0.0
  0
POINT
  8
5
  6
CONTINUOUS
 62
    99
  5
B48
 10
114.2645
 20
62.665167
 30
0.0
  0
POINT
  8
5
  6
CONTINUOUS
 62
    99
  5
B49
 10
114.3845
 20
62.665167
 30
0.0
  0
POINT
  8
5
  6
CONTINUOUS
 62
    99
  5
B4A
 10
114.606583
 20
62.396583
 30
0.0
  0
POINT
  8
5
  6
CONTINUOUS
 62
    99
  5
B4B
 10
114.666583
 20
62.396583
 30
0.0
  0
POINT
  8
5
  6
CONTINUOUS
 62
    99
  5
B4C
 10
114.456583
 20
62.456583
 30
0.0
  0
POINT
  8
5
  6
CONTINUOUS
 62
    99
  5
B4D
 10
114.516583
 20
62.456583
 30
0.0
  0
POINT
  8
5
  6
CONTINUOUS
 62
    99
  5
B4E
 10
114.576583
 20
62.456583
 30
0.0
  0
POINT
  8
5
  6
CONTINUOUS
 62
    99
  5
B4F
 10
114.636583
 20
62.456583
 30
0.0
  0
POINT
  8
5
  6
CONTINUOUS
 62
    99
  5
B50
 10
114.696583
 20
62.456583
 30
0.0
  0
POINT
  8
5
  6
CONTINUOUS
 62
    99
  5
B51
 10
114.546583
 20
62.516583
 30
0.0
  0
POINT
  8
5
  6
CONTINUOUS
 62
    99
  5
B52
 10
114.666583
 20
62.516583
 30
0.0
  0
POINT
  8
5
  6
CONTINUOUS
 62
    99
  5
B53
 10
114.59025
 20
62.704833
 30
0.0
  0
POINT
  8
5
  6
CONTINUOUS
 62
    99
  5
B54
 10
114.65025
 20
62.704833
 30
0.0
  0
POINT
  8
5
  6
CONTINUOUS
 62
    99
  5
B55
 10
114.44025
 20
62.764833
 30
0.0
  0
POINT
  8
5
  6
CONTINUOUS
 62
    99
  5
B56
 10
114.59025
 20
62.824833
 30
0.0
  0
POINT
  8
5
  6
CONTINUOUS
 62
    99
  5
B57
 10
114.65025
 20
62.824833
 30
0.0
  0
POINT
  8
5
  6
CONTINUOUS
 62
    99
  5
B58
 10
114.44025
 20
62.884833
 30
0.0
  0
POINT
  8
5
  6
CONTINUOUS
 62
    99
  5
B59
 10
114.56025
 20
62.884833
 30
0.0
  0
POINT
  8
5
  6
CONTINUOUS
 62
    99
  5
B5A
 10
114.62025
 20
62.884833
 30
0.0
  0
POINT
  8
5
  6
CONTINUOUS
 62
    99
  5
B5B
 10
114.68025
 20
62.884833
 30
0.0
  0
POINT
  8
5
  6
CONTINUOUS
 62
    99
  5
B5C
 10
114.53025
 20
62.944833
 30
0.0
  0
POINT
  8
5
  6
CONTINUOUS
 62
    99
  5
B5D
 10
114.65025
 20
62.944833
 30
0.0
  0
POINT
  8
5
  6
CONTINUOUS
 62
    99
  5
B5E
 10
113.464167
 20
63.54375
 30
0.0
  0
POINT
  8
5
  6
CONTINUOUS
 62
    99
  5
B5F
 10
113.409083
 20
63.559833
 30
0.0
  0
POINT
  8
5
  6
CONTINUOUS
 62
    99
  5
B60
 10
113.64525
 20
63.54375
 30
0.0
  0
POINT
  8
5
  6
CONTINUOUS
 62
    99
  5
B61
 10
113.58525
 20
63.54375
 30
0.0
  0
POINT
  8
5
  6
CONTINUOUS
 62
    99
  5
B62
 10
113.52525
 20
63.54375
 30
0.0
  0
POINT
  8
5
  6
CONTINUOUS
 62
    99
  5
B63
 10
113.541917
 20
63.559833
 30
0.0
  0
POINT
  8
5
  6
CONTINUOUS
 62
    99
  5
B64
 10
113.574333
 20
63.505917
 30
0.0
  0
POINT
  8
5
  6
CONTINUOUS
 62
    99
  5
B65
 10
113.514333
 20
63.505917
 30
0.0
  0
POINT
  8
5
  6
CONTINUOUS
 62
    99
  5
B66
 10
114.467333
 20
62.580583
 30
0.0
  0
POINT
  8
5
  6
CONTINUOUS
 62
    99
  5
B67
 10
114.412083
 20
62.596583
 30
0.0
  0
POINT
  8
5
  6
CONTINUOUS
 62
    99
  5
B68
 10
114.648417
 20
62.580583
 30
0.0
  0
POINT
  8
5
  6
CONTINUOUS
 62
    99
  5
B69
 10
114.588417
 20
62.580583
 30
0.0
  0
POINT
  8
5
  6
CONTINUOUS
 62
    99
  5
B6A
 10
114.528417
 20
62.580583
 30
0.0
  0
POINT
  8
5
  6
CONTINUOUS
 62
    99
  5
B6B
 10
114.545
 20
62.596583
 30
0.0
  0
POINT
  8
5
  6
CONTINUOUS
 62
    99
  5
B6C
 10
114.577417
 20
62.54275
 30
0.0
  0
POINT
  8
5
  6
CONTINUOUS
 62
    99
  5
B6D
 10
114.517417
 20
62.54275
 30
0.0
  0
POINT
  8
5
  6
CONTINUOUS
 62
    99
  5
B6E
 10
110.749083
 20
62.693833
 30
0.0
  0
POINT
  8
5
  6
CONTINUOUS
 62
    99
  5
B6F
 10
110.693833
 20
62.709917
 30
0.0
  0
POINT
  8
5
  6
CONTINUOUS
 62
    99
  5
B70
 10
110.930083
 20
62.693833
 30
0.0
  0
POINT
  8
5
  6
CONTINUOUS
 62
    99
  5
B71
 10
110.870083
 20
62.693833
 30
0.0
  0
POINT
  8
5
  6
CONTINUOUS
 62
    99
  5
B72
 10
110.810083
 20
62.693833
 30
0.0
  0
POINT
  8
5
  6
CONTINUOUS
 62
    99
  5
B73
 10
110.82675
 20
62.709917
 30
0.0
  0
POINT
  8
5
  6
CONTINUOUS
 62
    99
  5
B74
 10
110.859083
 20
62.656083
 30
0.0
  0
POINT
  8
5
  6
CONTINUOUS
 62
    99
  5
B75
 10
110.799083
 20
62.656083
 30
0.0
  0
POINT
  8
5
  6
CONTINUOUS
 62
    99
  5
B76
 10
111.01475
 20
63.281833
 30
0.0
  0
POINT
  8
5
  6
CONTINUOUS
 62
    99
  5
B77
 10
110.959583
 20
63.297917
 30
0.0
  0
POINT
  8
5
  6
CONTINUOUS
 62
    99
  5
B78
 10
111.195833
 20
63.281833
 30
0.0
  0
POINT
  8
5
  6
CONTINUOUS
 62
    99
  5
B79
 10
111.135833
 20
63.281833
 30
0.0
  0
POINT
  8
5
  6
CONTINUOUS
 62
    99
  5
B7A
 10
111.075833
 20
63.281833
 30
0.0
  0
POINT
  8
5
  6
CONTINUOUS
 62
    99
  5
B7B
 10
111.092417
 20
63.297917
 30
0.0
  0
POINT
  8
5
  6
CONTINUOUS
 62
    99
  5
B7C
 10
111.124833
 20
63.244
 30
0.0
  0
POINT
  8
5
  6
CONTINUOUS
 62
    99
  5
B7D
 10
111.064833
 20
63.244
 30
0.0
  0
POINT
  8
5
  6
CONTINUOUS
 62
    99
  5
B7E
 10
111.136667
 20
63.508417
 30
0.0
  0
POINT
  8
5
  6
CONTINUOUS
 62
    99
  5
B7F
 10
111.081417
 20
63.5245
 30
0.0
  0
POINT
  8
5
  6
CONTINUOUS
 62
    99
  5
B80
 10
111.31775
 20
63.508417
 30
0.0
  0
POINT
  8
5
  6
CONTINUOUS
 62
    99
  5
B81
 10
111.25775
 20
63.508417
 30
0.0
  0
POINT
  8
5
  6
CONTINUOUS
 62
    99
  5
B82
 10
111.19775
 20
63.508417
 30
0.0
  0
POINT
  8
5
  6
CONTINUOUS
 62
    99
  5
B83
 10
111.214333
 20
63.5245
 30
0.0
  0
POINT
  8
5
  6
CONTINUOUS
 62
    99
  5
B84
 10
111.24675
 20
63.470583
 30
0.0
  0
POINT
  8
5
  6
CONTINUOUS
 62
    99
  5
B85
 10
111.18675
 20
63.470583
 30
0.0
  0
POINT
  8
5
  6
CONTINUOUS
 62
    99
  5
B86
 10
111.364333
 20
63.526083
 30
0.0
  0
POINT
  8
5
  6
CONTINUOUS
 62
    99
  5
B87
 10
111.309083
 20
63.542167
 30
0.0
  0
POINT
  8
5
  6
CONTINUOUS
 62
    99
  5
B88
 10
111.545417
 20
63.526083
 30
0.0
  0
POINT
  8
5
  6
CONTINUOUS
 62
    99
  5
B89
 10
111.485417
 20
63.526083
 30
0.0
  0
POINT
  8
5
  6
CONTINUOUS
 62
    99
  5
B8A
 10
111.425417
 20
63.526083
 30
0.0
  0
POINT
  8
5
  6
CONTINUOUS
 62
    99
  5
B8B
 10
111.442
 20
63.542167
 30
0.0
  0
POINT
  8
5
  6
CONTINUOUS
 62
    99
  5
B8C
 10
111.474417
 20
63.48825
 30
0.0
  0
POINT
  8
5
  6
CONTINUOUS
 62
    99
  5
B8D
 10
111.414417
 20
63.48825
 30
0.0
  0
POINT
  8
5
  6
CONTINUOUS
 62
    99
  5
B8E
 10
111.3975
 20
63.204917
 30
0.0
  0
POINT
  8
5
  6
CONTINUOUS
 62
    99
  5
B8F
 10
111.342333
 20
63.220917
 30
0.0
  0
POINT
  8
5
  6
CONTINUOUS
 62
    99
  5
B90
 10
111.578583
 20
63.204917
 30
0.0
  0
POINT
  8
5
  6
CONTINUOUS
 62
    99
  5
B91
 10
111.518583
 20
63.204917
 30
0.0
  0
POINT
  8
5
  6
CONTINUOUS
 62
    99
  5
B92
 10
111.458583
 20
63.204917
 30
0.0
  0
POINT
  8
5
  6
CONTINUOUS
 62
    99
  5
B93
 10
111.475167
 20
63.220917
 30
0.0
  0
POINT
  8
5
  6
CONTINUOUS
 62
    99
  5
B94
 10
111.507583
 20
63.167167
 30
0.0
  0
POINT
  8
5
  6
CONTINUOUS
 62
    99
  5
B95
 10
111.447583
 20
63.167167
 30
0.0
  0
POINT
  8
5
  6
CONTINUOUS
 62
    99
  5
B96
 10
114.412083
 20
62.450583
 30
0.0
  0
POINT
  8
5
  6
CONTINUOUS
 62
    99
  5
B97
 10
114.356917
 20
62.466667
 30
0.0
  0
POINT
  8
5
  6
CONTINUOUS
 62
    99
  5
B98
 10
114.593167
 20
62.450583
 30
0.0
  0
POINT
  8
5
  6
CONTINUOUS
 62
    99
  5
B99
 10
114.533167
 20
62.450583
 30
0.0
  0
POINT
  8
5
  6
CONTINUOUS
 62
    99
  5
B9A
 10
114.473167
 20
62.450583
 30
0.0
  0
POINT
  8
5
  6
CONTINUOUS
 62
    99
  5
B9B
 10
114.48975
 20
62.466667
 30
0.0
  0
POINT
  8
5
  6
CONTINUOUS
 62
    99
  5
B9C
 10
114.522167
 20
62.412917
 30
0.0
  0
POINT
  8
5
  6
CONTINUOUS
 62
    99
  5
B9D
 10
114.462167
 20
62.412917
 30
0.0
  0
SOLID
  8
3
  6
CONTINUOUS
 62
     2
  5
B9E
 10
111.13225
 20
62.284917
 30
0.0
 11
111.160083
 21
62.26675
 31
0.0
 12
111.200917
 22
62.359583
 32
0.0
 13
111.200917
 23
62.359583
 33
0.0
  0
LINE
  8
3
  6
CONTINUOUS
 62
     2
  5
B9F
 10
111.146167
 20
62.275917
 30
0.0
 11
110.79375
 21
61.736667
 31
0.0
  0
LINE
  8
3
  6
CONTINUOUS
 62
     2
  5
BA0
 10
110.79375
 20
61.736667
 30
0.0
 11
109.91
 21
61.736667
 31
0.0
  0
LINE
  8
1
  6
CONTINUOUS
 62
     7
  5
BA1
 10
111.51675
 20
62.358917
 30
0.0
 11
111.701083
 21
62.358917
 31
0.0
  0
TEXT
  8
1
  6
CONTINUOUS
 62
     7
  5
BA2
 10
111.683667
 20
62.441167
 30
0.0
 40
0.144
  1
1"
 41
0.75
  7
MONOTXT
210
0.0
220
0.0
230
1.0
  0
LINE
  8
6
  6
CONTINUOUS
 62
     7
  5
BA3
 10
111.47975
 20
62.358917
 30
0.0
 11
111.479833
 21
62.358917
 31
0.0
  0
LINE
  8
6
  6
CONTINUOUS
 62
     7
  5
BA4
 10
111.517833
 20
62.702083
 30
0.0
 11
111.517917
 21
62.702083
 31
0.0
  0
LINE
  8
6
  6
CONTINUOUS
 62
     7
  5
BA5
 10
111.631167
 20
62.702083
 30
0.0
 11
111.63125
 21
62.702083
 31
0.0
  0
SOLID
  8
3
  6
CONTINUOUS
 62
     2
  5
BA6
 10
111.631917
 20
62.5605
 30
0.0
 11
111.66525
 21
62.5605
 31
0.0
 12
111.648583
 22
62.6605
 32
0.0
 13
111.648583
 23
62.6605
 33
0.0
  0
LINE
  8
3
  6
CONTINUOUS
 62
     2
  5
BA7
 10
111.648583
 20
62.5605
 30
0.0
 11
111.648583
 21
62.358917
 31
0.0
  0
SOLID
  8
3
  6
CONTINUOUS
 62
     2
  5
BA8
 10
111.66525
 20
62.458917
 30
0.0
 11
111.631917
 21
62.458917
 31
0.0
 12
111.648583
 22
62.358917
 32
0.0
 13
111.648583
 23
62.358917
 33
0.0
  0
LINE
  8
3
  6
CONTINUOUS
 62
     2
  5
BA9
 10
111.648583
 20
62.458917
 30
0.0
 11
111.648583
 21
62.582167
 31
0.0
  0
LINE
  8
1
  6
CONTINUOUS
 62
     7
  5
BAA
 10
111.552583
 20
62.6605
 30
0.0
 11
111.7055
 21
62.6605
 31
0.0
  0
LINE
  8
1
  6
CONTINUOUS
 62
     7
  5
BAB
 10
111.59425
 20
62.834333
 30
0.0
 11
111.707417
 21
62.834333
 31
0.0
  0
SOLID
  8
3
  6
CONTINUOUS
 62
     2
  5
BAC
 10
111.636917
 20
62.7305
 30
0.0
 11
111.66025
 21
62.7305
 31
0.0
 12
111.648583
 22
62.6605
 32
0.0
 13
111.648583
 23
62.6605
 33
0.0
  0
LINE
  8
3
  6
CONTINUOUS
 62
     2
  5
BAD
 10
111.648583
 20
62.834333
 30
0.0
 11
111.648583
 21
62.6605
 31
0.0
  0
SOLID
  8
3
  6
CONTINUOUS
 62
     2
  5
BAE
 10
111.636917
 20
62.764333
 30
0.0
 11
111.66025
 21
62.764333
 31
0.0
 12
111.648583
 22
62.834333
 32
0.0
 13
111.648583
 23
62.834333
 33
0.0
  0
TEXT
  8
1
  6
CONTINUOUS
 62
     7
  5
BAF
 10
111.718667
 20
62.668
 30
0.0
 40
0.144
  1
1"
 41
0.75
  7
MONOTXT
210
0.0
220
0.0
230
1.0
  0
ARC
  8
1
  6
CONTINUOUS
 62
   233
  5
BB0
 10
112.680183
 20
62.40375
 30
0.0
 40
1.319842
 50
100.165067
 51
268.249411
210
0.0
220
0.0
230
1.0
  0
LINE
  8
1
  6
CONTINUOUS
 62
   233
  5
BB1
 10
112.44725
 20
65.738583
 30
0.0
 11
109.786667
 21
65.91625
 31
0.0
  0
LINE
  8
1
  6
CONTINUOUS
 62
   233
  5
BB2
 10
112.914667
 20
65.738
 30
0.0
 11
115.77325
 21
65.901667
 31
0.0
  0
ARC
  8
1
  6
CONTINUOUS
 62
   233
  5
BB3
 10
112.681717
 20
62.40375
 30
0.0
 40
1.202614
 50
268.106731
 51
78.832086
210
0.0
220
0.0
230
1.0
  0
LINE
  8
1
  6
CONTINUOUS
 62
   233
  5
BB4
 10
112.914667
 20
65.738
 30
0.0
 11
112.914667
 21
63.583583
 31
0.0
  0
ARC
  8
1
  6
CONTINUOUS
 62
   233
  5
BB5
 10
112.680183
 20
62.40375
 30
0.0
 40
1.202614
 50
101.167914
 51
268.180214
210
0.0
220
0.0
230
1.0
  0
LINE
  8
1
  6
CONTINUOUS
 62
   233
  5
BB6
 10
112.44725
 20
65.738583
 30
0.0
 11
112.44725
 21
63.583583
 31
0.0
  0
TEXT
  8
3
  6
CONTINUOUS
 62
     2
  5
BB7
 10
133.466583
 20
69.312
 30
0.0
 40
0.133
  1
galvanized as per ASTM A-123.
  7
MONOTXT
210
0.0
220
0.0
230
1.0
  0
TEXT
  8
3
  6
CONTINUOUS
 62
     2
  5
BB8
 10
133.466583
 20
69.577917
 30
0.0
 40
0.133
  1
structural steel suitably welded to form the open slot and hot-dip
  7
MONOTXT
210
0.0
220
0.0
230
1.0
  0
TEXT
  8
3
  6
CONTINUOUS
 62
     2
  5
BB9
 10
133.7815
 20
69.840917
 30
0.0
 40
0.133
  1
BEARING BARS AND SPACERS:  These elements are to be 3/16"
  7
MONOTXT
210
0.0
220
0.0
230
1.0
  0
TEXT
  8
3
  6
CONTINUOUS
 62
     2
  5
BBA
 10
136.817333
 20
69.323333
 30
0.0
 40
0.15
  1
Spacer may be vertical or tilted
 41
0.85
  7
MONOTXT
210
0.0
220
0.0
230
1.0
  0
TEXT
  8
3
  6
CONTINUOUS
 62
     2
  5
BBB
 10
133.46925
 20
68.802583
 30
0.0
 40
0.133
  1
a grade and adjacent to a curb or median, the inlet is to be in-
  7
MONOTXT
210
0.0
220
0.0
230
1.0
  0
TEXT
  8
3
  6
CONTINUOUS
 62
     2
  5
BBC
 10
133.471333
 20
67.128167
 30
0.0
 40
0.133
  1
GRATE AND CLAMP: These parts are to be hot-dip galvanized mild
  7
MONOTXT
210
0.0
220
0.0
230
1.0
  0
TEXT
  8
3
  6
CONTINUOUS
 62
     2
  5
BBD
 10
134.310917
 20
66.871
 30
0.0
 40
0.133
  1
carbon steel conforming to ASTM A569. Grating. measuring
  7
MONOTXT
210
0.0
220
0.0
230
1.0
  0
TEXT
  8
3
  6
CONTINUOUS
 62
     2
  5
BBE
 10
133.471333
 20
65.973583
 30
0.0
 40
0.133
  1
REBARS: The rebar shall be serpentine bent to cross the slotted
  7
MONOTXT
210
0.0
220
0.0
230
1.0
  0
TEXT
  8
3
  6
CONTINUOUS
 62
     2
  5
BBF
 10
134.310917
 20
65.716583
 30
0.0
 40
0.133
  1
opening on 6" centers and shall be coated with 7 mils of
  7
MONOTXT
210
0.0
220
0.0
230
1.0
  0
TEXT
  8
3
  6
CONTINUOUS
 62
     2
  5
BC0
 10
134.310917
 20
65.459417
 30
0.0
 40
0.133
  1
fusion-bonded epoxy powder.
  7
MONOTXT
210
0.0
220
0.0
230
1.0
  0
TEXT
  8
3
  6
CONTINUOUS
 62
     2
  5
BC1
 10
133.471333
 20
65.087833
 30
0.0
 40
0.133
  1
J-BOLT: The J-bolt shall be 5/16 inch diameter, plated, ASTM
  7
MONOTXT
210
0.0
220
0.0
230
1.0
  0
TEXT
  8
3
  6
CONTINUOUS
 62
     2
  5
BC2
 10
134.310917
 20
64.830667
 30
0.0
 40
0.133
  1
A307 steel supplied with self-locking nuts.
  7
MONOTXT
210
0.0
220
0.0
230
1.0
  0
TEXT
  8
3
  6
CONTINUOUS
 62
     2
  5
BC3
 10
133.471333
 20
64.505833
 30
0.0
 40
0.133
  1
REMOVABLE FORMS: Forms are to be cellular foam with a wood
  7
MONOTXT
210
0.0
220
0.0
230
1.0
  0
TEXT
  8
3
  6
CONTINUOUS
 62
     2
  5
BC4
 10
134.310917
 20
64.304
 30
0.0
 40
0.133
  1
or plastic cap.
  7
MONOTXT
210
0.0
220
0.0
230
1.0
  0
TEXT
  8
3
  6
CONTINUOUS
 62
     2
  5
BC5
 10
134.310917
 20
63.6075
 30
0.0
 40
0.133
  1
slot height is specified.
  7
MONOTXT
210
0.0
220
0.0
230
1.0
  0
TEXT
  8
3
  6
CONTINUOUS
 62
     2
  5
BC6
 10
135.746583
 20
70.272083
 30
0.0
 40
0.1805
  1
TYPE 1 SLOT
 41
0.849954
  7
MONOTXT
210
0.0
220
0.0
230
1.0
  0
TEXT
  8
3
  6
CONTINUOUS
 62
     2
  5
BC7
 10
135.814917
 20
67.711
 30
0.0
 40
0.1805
  1
TYPE 2 SLOT
 41
0.849954
  7
MONOTXT
210
0.0
220
0.0
230
1.0
  0
TEXT
  8
3
  6
CONTINUOUS
 62
     2
  5
BC8
 10
133.478
 20
68.279583
 30
0.0
 40
0.15
  1
incoming gutter flow.
 41
0.85
  7
MONOTXT
210
0.0
220
0.0
230
1.0
  0
TEXT
  8
3
  6
CONTINUOUS
 62
     2
  5
BC9
 10
133.4605
 20
68.545417
 30
0.0
 40
0.133
  1
stalled to position tilted spacers to tilt upgrade toward the
  7
MONOTXT
210
0.0
220
0.0
230
1.0
  0
TEXT
  8
3
  6
CONTINUOUS
 62
     2
  5
BCA
 10
133.4715
 20
76.631083
 30
0.0
 40
0.133
  1
     The contractor may, at his option but subject to the limit-
  7
MONOTXT
210
0.0
220
0.0
230
1.0
  0
TEXT
  8
3
  6
CONTINUOUS
 62
     2
  5
BCB
 10
133.43875
 20
76.311083
 30
0.0
 40
0.133
  1
-ations as noted on this sheet and elsewhere on the plans, install
  7
MONOTXT
210
0.0
220
0.0
230
1.0
  0
TEXT
  8
3
  6
CONTINUOUS
 62
     2
  5
BCC
 10
133.34825
 20
74.62975
 30
0.0
 40
0.133
  1
     Gravel shall be omitted from the perforated slot inlet instal-
  7
MONOTXT
210
0.0
220
0.0
230
1.0
  0
TEXT
  8
3
  6
CONTINUOUS
 62
     2
  5
BCD
 10
133.484583
 20
74.273833
 30
0.0
 40
0.133
  1
lation when free-draining base is specified and will be placed
  7
MONOTXT
210
0.0
220
0.0
230
1.0
  0
TEXT
  8
3
  6
CONTINUOUS
 62
     2
  5
BCE
 10
133.459417
 20
73.989917
 30
0.0
 40
0.133
  1
against the inlet.
  7
MONOTXT
210
0.0
220
0.0
230
1.0
  0
TEXT
  8
3
  6
CONTINUOUS
 62
     2
  5
BCF
 10
133.465
 20
72.233083
 30
0.0
 40
0.133
  1
The resultant slot height may be slightly less than 8 1/2 ".
  7
MONOTXT
210
0.0
220
0.0
230
1.0
  0
TEXT
  8
3
  6
CONTINUOUS
 62
     2
  5
BD0
 10
135.325083
 20
70.807583
 30
0.0
 40
0.322333
  1
SLOTS NOTES
 41
0.850052
  7
MONOTXT
210
0.0
220
0.0
230
1.0
  0
TEXT
  8
3
  6
CONTINUOUS
 62
     2
  5
BD1
 10
134.310917
 20
66.35675
 30
0.0
 40
0.133
  1
each pipe section slot.
  7
MONOTXT
210
0.0
220
0.0
230
1.0
  0
TEXT
  8
3
  6
CONTINUOUS
 62
     2
  5
BD2
 10
134.310917
 20
66.613917
 30
0.0
 40
0.133
  1
 3/4 " deep by 1-3/4" wide, shall extend the full length of 
  7
MONOTXT
210
0.0
220
0.0
230
1.0
  0
TEXT
  8
3
  6
CONTINUOUS
 62
     2
  5
BD3
 10
133.46925
 20
69.07725
 30
0.0
 40
0.133
  1
at approximately 30%%d from vertical. If the slot inlet is placed on
  7
MONOTXT
210
0.0
220
0.0
230
1.0
  0
TEXT
  8
1
  6
CONTINUOUS
 62
     7
  5
BD4
 10
119.876917
 20
61.117667
 30
0.0
 40
0.12
  1
3"
 41
0.85
  7
MONOTXT
210
0.0
220
0.0
230
1.0
  0
TEXT
  8
3
  6
CONTINUOUS
 62
     2
  5
BD5
 10
120.218667
 20
61.1215
 30
0.0
 40
0.12
  1
Minimum
 41
0.85
  7
MONOTXT
210
0.0
220
0.0
230
1.0
  0
SOLID
  8
1
  6
CONTINUOUS
 62
     7
  5
BD6
 10
120.158583
 20
61.400833
 30
0.0
 11
120.12525
 21
61.400833
 31
0.0
 12
120.141917
 22
61.500833
 32
0.0
 13
120.141917
 23
61.500833
 33
0.0
  0
LINE
  8
1
  6
CONTINUOUS
 62
     7
  5
BD7
 10
120.135833
 20
60.87625
 30
0.0
 11
120.135833
 21
61.4925
 31
0.0
  0
SOLID
  8
1
  6
CONTINUOUS
 62
     7
  5
BD8
 10
120.158583
 20
60.926333
 30
0.0
 11
120.12525
 21
60.926333
 31
0.0
 12
120.141917
 22
60.826333
 32
0.0
 13
120.141917
 23
60.826333
 33
0.0
  0
TEXT
  8
1
  6
CONTINUOUS
 62
     2
  5
BD9
 10
133.530917
 20
59.539083
 30
0.0
 40
0.083333
  1
 PREPARED 7-1-99 
  7
ROMANS
 72
     4
 11
134.225333
 21
59.58075
 31
0.0
210
0.0
220
0.0
230
1.0
  0
TEXT
  8
3
  6
CONTINUOUS
 62
     2
  5
BDA
 10
133.471333
 20
63.864667
 30
0.0
 40
0.133
  1
SLOT HEIGHT:  4" minimum slot height acceptable where 2.5"
  7
MONOTXT
210
0.0
220
0.0
230
1.0
  0
TEXT
  8
3
  6
CONTINUOUS
 62
     2
  5
BDB
 10
133.990333
 20
71.716417
 30
0.0
 40
0.133
  1
Slot inlet shall not be placed across a pedestrian cross walk.
  7
MONOTXT
210
0.0
220
0.0
230
1.0
  0
LINE
  8
1
  6
CONTINUOUS
 62
   233
  5
BDC
 10
127.794083
 20
74.544917
 30
0.0
 11
129.134333
 21
74.610667
 31
0.0
  0
LINE
  8
1
  6
CONTINUOUS
 62
   233
  5
BDD
 10
127.313417
 20
74.545
 30
0.0
 11
126.15625
 21
74.617583
 31
0.0
  0
LINE
  8
1
  6
CONTINUOUS
 62
   233
  5
BDE
 10
127.107833
 20
71.971667
 30
0.0
 11
128.002667
 21
71.970583
 31
0.0
  0
LINE
  8
1
  6
CONTINUOUS
 62
   233
  5
BDF
 10
127.30975
 20
74.553
 30
0.0
 11
127.30975
 21
74.51175
 31
0.0
  0
INSERT
  8
1
  6
CONTINUOUS
 62
     7
  5
BF8
  2
$X6
 10
104.2965
 20
58.407417
 30
0.0
 41
1.000002
 42
1.000002
 50
354.000085
210
0.0
220
0.0
230
1.0
  0
INSERT
  8
1
  6
CONTINUOUS
 62
     7
  5
BF9
  2
$X6
 10
108.577167
 20
53.97425
 30
0.0
 41
1.000002
 42
1.000002
 50
5.999915
210
0.0
220
0.0
230
1.0
  0
LINE
  8
1
  6
CONTINUOUS
 62
     7
  5
BFA
 10
127.1205
 20
74.553833
 30
0.0
 11
126.536
 21
74.553833
 31
0.0
  0
LINE
  8
1
  6
CONTINUOUS
 62
     7
  5
BFB
 10
127.025917
 20
71.969
 30
0.0
 11
126.394667
 21
71.969
 31
0.0
  0
SOLID
  8
1
  6
CONTINUOUS
 62
     7
  5
BFC
 10
126.695167
 20
74.428833
 30
0.0
 11
126.736833
 21
74.428833
 31
0.0
 12
126.716
 22
74.553833
 32
0.0
 13
126.716
 23
74.553833
 33
0.0
  0
SOLID
  8
1
  6
CONTINUOUS
 62
     7
  5
BFD
 10
126.693083
 20
72.091833
 30
0.0
 11
126.73475
 21
72.091833
 31
0.0
 12
126.713917
 22
71.966833
 32
0.0
 13
126.713917
 23
71.966833
 33
0.0
  0
LINE
  8
6
  6
CONTINUOUS
 62
     7
  5
BFE
 10
127.183
 20
74.553833
 30
0.0
 11
127.183083
 21
74.553833
 31
0.0
  0
LINE
  8
6
  6
CONTINUOUS
 62
     7
  5
BFF
 10
127.22975
 20
71.833917
 30
0.0
 11
127.229833
 21
71.833917
 31
0.0
  0
LINE
  8
6
  6
CONTINUOUS
 62
     7
  5
C00
 10
126.716
 20
71.833917
 30
0.0
 11
126.716083
 21
71.833917
 31
0.0
  0
SOLID
  8
3
  6
CONTINUOUS
 62
     2
  5
C01
 10
127.507083
 20
74.0
 30
0.0
 11
127.507083
 21
74.041667
 31
0.0
 12
127.382083
 22
74.020833
 32
0.0
 13
127.382083
 23
74.020833
 33
0.0
  0
LINE
  8
3
  6
CONTINUOUS
 62
     2
  5
C02
 10
127.507083
 20
74.020833
 30
0.0
 11
127.81425
 21
74.020833
 31
0.0
  0
LINE
  8
3
  6
CONTINUOUS
 62
     2
  5
C03
 10
127.81425
 20
74.020833
 30
0.0
 11
127.90425
 21
74.020833
 31
0.0
  0
SOLID
  8
3
  6
CONTINUOUS
 62
     2
  5
C04
 10
127.93925
 20
74.0
 30
0.0
 11
127.93925
 21
74.041667
 31
0.0
 12
127.81425
 22
74.020833
 32
0.0
 13
127.81425
 23
74.020833
 33
0.0
  0
LINE
  8
3
  6
CONTINUOUS
 62
     2
  5
C05
 10
127.93925
 20
74.020833
 30
0.0
 11
128.4625
 21
74.020833
 31
0.0
  0
LINE
  8
3
  6
CONTINUOUS
 62
     2
  5
C06
 10
128.4625
 20
74.020833
 30
0.0
 11
128.5525
 21
74.020833
 31
0.0
  0
SOLID
  8
3
  6
CONTINUOUS
 62
     2
  5
C07
 10
127.717167
 20
73.387583
 30
0.0
 11
127.717167
 21
73.42925
 31
0.0
 12
127.592167
 22
73.408417
 32
0.0
 13
127.592167
 23
73.408417
 33
0.0
  0
LINE
  8
3
  6
CONTINUOUS
 62
     2
  5
C08
 10
127.717167
 20
73.408417
 30
0.0
 11
128.433583
 21
73.408417
 31
0.0
  0
LINE
  8
3
  6
CONTINUOUS
 62
     2
  5
C09
 10
128.433583
 20
73.408417
 30
0.0
 11
128.523583
 21
73.408417
 31
0.0
  0
SOLID
  8
3
  6
CONTINUOUS
 62
     2
  5
C0A
 10
127.086167
 20
72.066583
 30
0.0
 11
127.063833
 21
72.10175
 31
0.0
 12
126.969417
 22
72.017167
 32
0.0
 13
126.969417
 23
72.017167
 33
0.0
  0
LINE
  8
3
  6
CONTINUOUS
 62
     2
  5
C0B
 10
127.062083
 20
72.07775
 30
0.0
 11
127.905583
 21
72.612833
 31
0.0
  0
LINE
  8
3
  6
CONTINUOUS
 62
     2
  5
C0C
 10
127.902417
 20
72.615667
 30
0.0
 11
128.6665
 21
72.615667
 31
0.0
  0
SOLID
  8
3
  6
CONTINUOUS
 62
     2
  5
C0D
 10
128.174
 20
72.177917
 30
0.0
 11
128.14025
 21
72.2025
 31
0.0
 12
128.083333
 22
72.089333
 32
0.0
 13
128.083333
 23
72.089333
 33
0.0
  0
LINE
  8
3
  6
CONTINUOUS
 62
     2
  5
C0E
 10
128.133583
 20
72.155917
 30
0.0
 11
128.469917
 21
72.615667
 31
0.0
  0
LINE
  8
3
  6
CONTINUOUS
 62
     2
  5
C0F
 10
128.234417
 20
72.58725
 30
0.0
 11
128.359417
 21
72.58725
 31
0.0
  0
SOLID
  8
3
  6
CONTINUOUS
 62
     2
  5
C10
 10
128.07775
 20
71.200667
 30
0.0
 11
128.07775
 21
71.242333
 31
0.0
 12
127.95275
 22
71.2215
 32
0.0
 13
127.95275
 23
71.2215
 33
0.0
  0
LINE
  8
3
  6
CONTINUOUS
 62
     2
  5
C11
 10
127.114
 20
71.2215
 30
0.0
 11
128.140833
 21
71.2215
 31
0.0
  0
LINE
  8
3
  6
CONTINUOUS
 62
     2
  5
C12
 10
128.140833
 20
71.2215
 30
0.0
 11
128.230833
 21
71.2215
 31
0.0
  0
LINE
  8
1
  6
CONTINUOUS
 62
     7
  5
C13
 10
127.114
 20
71.799167
 30
0.0
 11
127.114
 21
71.063
 31
0.0
  0
LINE
  8
1
  6
CONTINUOUS
 62
     7
  5
C14
 10
127.9955
 20
71.7905
 30
0.0
 11
127.9955
 21
71.054333
 31
0.0
  0
LINE
  8
6
  6
CONTINUOUS
 62
     7
  5
C15
 10
127.375333
 20
71.840167
 30
0.0
 11
127.375417
 21
71.840167
 31
0.0
  0
LINE
  8
6
  6
CONTINUOUS
 62
     7
  5
C16
 10
127.742833
 20
71.840167
 30
0.0
 11
127.742917
 21
71.840167
 31
0.0
  0
LINE
  8
6
  6
CONTINUOUS
 62
     7
  5
C17
 10
127.742833
 20
71.2215
 30
0.0
 11
127.742917
 21
71.2215
 31
0.0
  0
SOLID
  8
3
  6
CONTINUOUS
 62
     2
  5
C18
 10
127.879083
 20
71.200667
 30
0.0
 11
127.879083
 21
71.242333
 31
0.0
 12
128.004083
 22
71.2215
 32
0.0
 13
128.004083
 23
71.2215
 33
0.0
  0
SOLID
  8
3
  6
CONTINUOUS
 62
     2
  5
C19
 10
127.23475
 20
71.200667
 30
0.0
 11
127.23475
 21
71.242333
 31
0.0
 12
127.10975
 22
71.2215
 32
0.0
 13
127.10975
 23
71.2215
 33
0.0
  0
SOLID
  8
3
  6
CONTINUOUS
 62
     2
  5
C1A
 10
127.622917
 20
74.925083
 30
0.0
 11
127.622917
 21
74.96675
 31
0.0
 12
127.747917
 22
74.945917
 32
0.0
 13
127.747917
 23
74.945917
 33
0.0
  0
SOLID
  8
3
  6
CONTINUOUS
 62
     2
  5
C1B
 10
127.496
 20
74.925083
 30
0.0
 11
127.496
 21
74.96675
 31
0.0
 12
127.371
 22
74.945917
 32
0.0
 13
127.371
 23
74.945917
 33
0.0
  0
LINE
  8
3
  6
CONTINUOUS
 62
     2
  5
C1C
 10
127.667917
 20
71.2215
 30
0.0
 11
127.46375
 21
71.2215
 31
0.0
  0
LINE
  8
3
  6
CONTINUOUS
 62
     2
  5
C1D
 10
127.650917
 20
74.945917
 30
0.0
 11
127.475667
 21
74.945917
 31
0.0
  0
LINE
  8
3
  6
CONTINUOUS
 62
     2
  5
C1E
 10
127.376167
 20
74.597
 30
0.0
 11
127.376167
 21
75.086917
 31
0.0
  0
LINE
  8
3
  6
CONTINUOUS
 62
     2
  5
C1F
 10
127.738583
 20
74.590833
 30
0.0
 11
127.738583
 21
75.093083
 31
0.0
  0
TEXT
  8
3
  6
CONTINUOUS
 62
     2
  5
C20
 10
126.299583
 20
69.943917
 30
0.0
 40
0.322333
  1
TYPE 1 SLOT
 41
0.850052
  7
MONOTXT
210
0.0
220
0.0
230
1.0
  0
LINE
  8
1
  6
CONTINUOUS
 62
     7
  5
C21
 10
126.716
 20
74.428833
 30
0.0
 11
126.716
 21
73.03
 31
0.0
  0
LINE
  8
1
  6
CONTINUOUS
 62
     7
  5
C22
 10
126.716
 20
74.428833
 30
0.0
 11
126.716
 21
72.0875
 31
0.0
  0
POLYLINE
  8
1
  6
CONTINUOUS
 62
   240
  5
C23
 66
     1
 10
0.0
 20
0.0
 30
0.0
  0
VERTEX
  8
1
  6
CONTINUOUS
 62
   240
  5
C24
 10
127.26325
 20
73.455
 30
0.0
  0
VERTEX
  8
1
  6
CONTINUOUS
 62
   240
  5
C25
 10
127.377083
 20
74.538417
 30
0.0
  0
VERTEX
  8
1
  6
CONTINUOUS
 62
   240
  5
C26
 10
127.311917
 20
74.54525
 30
0.0
  0
VERTEX
  8
1
  6
CONTINUOUS
 62
   240
  5
C27
 10
127.307583
 20
74.504167
 30
0.0
  0
VERTEX
  8
1
  6
CONTINUOUS
 62
   240
  5
C28
 10
127.028417
 20
71.84725
 30
0.0
  0
VERTEX
  8
1
  6
CONTINUOUS
 62
   240
  5
C29
 10
127.093583
 20
71.840333
 30
0.0
  0
VERTEX
  8
1
  6
CONTINUOUS
 62
   240
  5
C2A
 10
127.26325
 20
73.455
 30
0.0
  0
SEQEND
  8
1
  6
CONTINUOUS
 62
   240
  5
C2B
  0
ARC
  8
1
  6
CONTINUOUS
 62
   233
  5
C2C
 10
127.613167
 20
70.57825
 30
0.0
 40
1.649803
 50
109.947206
 51
131.774328
210
0.0
220
0.0
230
1.0
  0
ARC
  8
1
  6
CONTINUOUS
 62
   233
  5
C2D
 10
127.613167
 20
70.57825
 30
0.0
 40
1.503268
 50
112.498161
 51
132.262653
210
0.0
220
0.0
230
1.0
  0
POLYLINE
  8
1
  6
CONTINUOUS
 62
   240
  5
C2E
 66
     1
 10
0.0
 20
0.0
 30
0.0
  0
VERTEX
  8
1
  6
CONTINUOUS
 62
   240
  5
C2F
 10
128.012167
 20
71.84675
 30
0.0
  0
VERTEX
  8
1
  6
CONTINUOUS
 62
   240
  5
C30
 10
127.732917
 20
74.50375
 30
0.0
  0
VERTEX
  8
1
  6
CONTINUOUS
 62
   240
  5
C31
 10
127.73175
 20
74.512583
 30
0.0
  0
VERTEX
  8
1
  6
CONTINUOUS
 62
   240
  5
C32
 10
127.727667
 20
74.544667
 30
0.0
  0
VERTEX
  8
1
  6
CONTINUOUS
 62
   240
  5
C33
 10
127.793833
 20
74.551667
 30
0.0
  0
VERTEX
  8
1
  6
CONTINUOUS
 62
   240
  5
C34
 10
127.907667
 20
73.468167
 30
0.0
  0
VERTEX
  8
1
  6
CONTINUOUS
 62
   240
  5
C35
 10
128.06425
 20
71.979
 30
0.0
  0
SEQEND
  8
1
  6
CONTINUOUS
 62
   240
  5
C36
  0
POLYLINE
  8
1
  6
CONTINUOUS
 62
   240
  5
C37
 66
     1
 10
0.0
 20
0.0
 30
0.0
  0
VERTEX
  8
1
  6
CONTINUOUS
 62
   240
  5
C38
 10
128.065333
 20
71.968667
 30
0.0
  0
VERTEX
  8
1
  6
CONTINUOUS
 62
   240
  5
C39
 10
128.077417
 20
71.853667
 30
0.0
  0
VERTEX
  8
1
  6
CONTINUOUS
 62
   240
  5
C3A
 10
128.012167
 20
71.84675
 30
0.0
  0
SEQEND
  8
1
  6
CONTINUOUS
 62
   240
  5
C3B
  0
ARC
  8
1
  6
CONTINUOUS
 62
   233
  5
C3C
 10
127.525917
 20
70.567917
 30
0.0
 40
1.503268
 50
44.095903
 51
69.106033
210
0.0
220
0.0
230
1.0
  0
ARC
  8
1
  6
CONTINUOUS
 62
   233
  5
C3D
 10
127.508667
 20
70.576583
 30
0.0
 40
1.649803
 50
43.922839
 51
70.786456
210
0.0
220
0.0
230
1.0
  0
LINE
  8
1
  6
CONTINUOUS
 62
   233
  5
C3E
 10
127.378917
 20
74.51175
 30
0.0
 11
127.73075
 21
74.51175
 31
0.0
  0
TEXT
  8
3
  6
CONTINUOUS
 62
     2
  5
C3F
 10
125.883
 20
73.743167
 30
0.0
 40
0.15
  1
Slot
 41
0.85
  7
MONOTXT
210
0.0
220
0.0
230
1.0
  0
TEXT
  8
3
  6
CONTINUOUS
 62
     2
  5
C40
 10
125.883
 20
73.486
 30
0.0
 40
0.15
  1
Height
 41
0.85
  7
MONOTXT
210
0.0
220
0.0
230
1.0
  0
TEXT
  8
3
  6
CONTINUOUS
 62
     2
  5
C41
 10
125.883
 20
73.228833
 30
0.0
 40
0.15
  1
2.5"
 41
0.85
  7
MONOTXT
210
0.0
220
0.0
230
1.0
  0
TEXT
  8
3
  6
CONTINUOUS
 62
     2
  5
C42
 10
125.883
 20
72.97175
 30
0.0
 40
0.15
  1
6" or
 41
0.85
  7
MONOTXT
210
0.0
220
0.0
230
1.0
  0
TEXT
  8
3
  6
CONTINUOUS
 62
     2
  5
C43
 10
125.883
 20
72.714583
 30
0.0
 40
0.15
  1
8.5"
 41
0.85
  7
MONOTXT
210
0.0
220
0.0
230
1.0
  0
TEXT
  8
3
  6
CONTINUOUS
 62
     2
  5
C44
 10
128.651917
 20
73.923667
 30
0.0
 40
0.15
  1
3/16" Bearing Bars
 41
0.85
  7
MONOTXT
210
0.0
220
0.0
230
1.0
  0
TEXT
  8
3
  6
CONTINUOUS
 62
     2
  5
C45
 10
128.6105
 20
73.469167
 30
0.0
 40
0.15
  1
3/16" Solid Web
 41
0.85
  7
MONOTXT
210
0.0
220
0.0
230
1.0
  0
TEXT
  8
3
  6
CONTINUOUS
 62
     2
  5
C46
 10
128.6105
 20
73.212083
 30
0.0
 40
0.15
  1
Spacers @ 6"Center
 41
0.85
  7
MONOTXT
210
0.0
220
0.0
230
1.0
  0
LINE
  8
3
  6
CONTINUOUS
 62
     2
  5
C47
 10
128.494
 20
73.41375
 30
0.0
 11
128.584
 21
73.41375
 31
0.0
  0
TEXT
  8
3
  6
CONTINUOUS
 62
     2
  5
C48
 10
130.260333
 20
72.283167
 30
0.0
 40
0.15
  1
Centers Each Side.)
 41
0.85
  7
MONOTXT
210
0.0
220
0.0
230
1.0
  0
TEXT
  8
3
  6
CONTINUOUS
 62
     2
  5
C49
 10
127.298333
 20
75.181417
 30
0.0
 40
0.15
  1
1-3/4"
 41
0.85
  7
MONOTXT
210
0.0
220
0.0
230
1.0
  0
TEXT
  8
3
  6
CONTINUOUS
 62
     2
  5
C4A
 10
128.285917
 20
71.246583
 30
0.0
 40
0.15
  1
1-3/4" Min.
 41
0.85
  7
MONOTXT
210
0.0
220
0.0
230
1.0
  0
TEXT
  8
3
  6
CONTINUOUS
 62
     2
  5
C4B
 10
128.306583
 20
71.013417
 30
0.0
 40
0.15
  1
3" Max.
 41
0.85
  7
MONOTXT
210
0.0
220
0.0
230
1.0
  0
TEXT
  8
3
  6
CONTINUOUS
 62
     2
  5
C4C
 10
133.459333
 20
75.996
 30
0.0
 40
0.133
  1
Type 1 or 2 Slots or approved equals.
  7
MONOTXT
210
0.0
220
0.0
230
1.0
  0
TEXT
  8
3
  6
CONTINUOUS
 62
     2
  5
C4D
 10
133.401
 20
75.585
 30
0.0
 40
0.133
  1
     When specified on the plans, Type 1 slots shall include
  7
MONOTXT
210
0.0
220
0.0
230
1.0
  0
TEXT
  8
3
  6
CONTINUOUS
 62
     2
  5
C4E
 10
133.432167
 20
75.24975
 30
0.0
 40
0.133
  1
expanded steel mesh heel guards tack welded to the spacer 
  7
MONOTXT
210
0.0
220
0.0
230
1.0
  0
TEXT
  8
3
  6
CONTINUOUS
 62
     2
  5
C4F
 10
133.334
 20
74.977167
 30
0.0
 40
0.133
  1
 bars.
  7
MONOTXT
210
0.0
220
0.0
230
1.0
  0
TEXT
  8
3
  6
CONTINUOUS
 62
     2
  5
C50
 10
133.3325
 20
73.539333
 30
0.0
 40
0.133
  1
     When slot heights of 8.5" are specified, the Type 1 slots
  7
MONOTXT
210
0.0
220
0.0
230
1.0
  0
TEXT
  8
3
  6
CONTINUOUS
 62
     2
  5
C51
 10
133.45625
 20
73.169667
 30
0.0
 40
0.133
  1
may be fabricated by stacking a 2.5" slot on top of a 6" slot.  
  7
MONOTXT
210
0.0
220
0.0
230
1.0
  0
TEXT
  8
3
  6
CONTINUOUS
 62
     2
  5
C52
 10
133.47275
 20
72.872083
 30
0.0
 40
0.133
  1
The assembly shall then be joined by minimum  3/16 " x 1 " fillet
  7
MONOTXT
210
0.0
220
0.0
230
1.0
  0
TEXT
  8
3
  6
CONTINUOUS
 62
     2
  5
C53
 10
133.45625
 20
72.552
 30
0.0
 40
0.133
  1
welds at 6" centers along each side of the horizontal joint.
  7
MONOTXT
210
0.0
220
0.0
230
1.0
  0
TEXT
  8
3
  6
CONTINUOUS
 62
     2
  5
C54
 10
128.77675
 20
72.53675
 30
0.0
 40
0.15
  1
Fillet Welds (3/16" x 1" Spaced At 6"
 41
0.85
  7
MONOTXT
210
0.0
220
0.0
230
1.0
  0
TEXT
  8
3
  6
CONTINUOUS
 62
     2
  5
C55
 10
120.55225
 20
64.976417
 30
0.0
 40
0.15
  1
Type 1 or
 41
0.85
  7
MONOTXT
210
0.0
220
0.0
230
1.0
  0
TEXT
  8
3
  6
CONTINUOUS
 62
     2
  5
C56
 10
113.003667
 20
64.567083
 30
0.0
 40
0.15
  1
Type 1 or
 41
0.85
  7
MONOTXT
210
0.0
220
0.0
230
1.0
  0
TEXT
  8
3
  6
CONTINUOUS
 62
     2
  5
C57
 10
113.007083
 20
64.201583
 30
0.0
 40
0.15
  1
Type 2 Slot
 41
0.85
  7
MONOTXT
210
0.0
220
0.0
230
1.0
  0
TEXT
  8
3
  6
CONTINUOUS
 62
     2
  5
C58
 10
120.6645
 20
73.589083
 30
0.0
 40
0.15
  1
Type 1 Slot
 41
0.85
  7
MONOTXT
210
0.0
220
0.0
230
1.0
  0
ENDSEC
  0
EOF
