  0
SECTION
  2
HEADER
  9
$ACADVER
  1
AC1009
  9
$INSBASE
 10
0.0
 20
0.0
 30
0.0
  9
$EXTMIN
 10
-0.18
 20
0.0
 30
0.0
  9
$EXTMAX
 10
129.470667
 20
22.996333
 30
0.0
  9
$LIMMIN
 10
0.0
 20
0.0
  9
$LIMMAX
 10
12.0
 20
9.0
  9
$ORTHOMODE
 70
     0
  9
$REGENMODE
 70
     1
  9
$FILLMODE
 70
     1
  9
$QTEXTMODE
 70
     0
  9
$MIRRTEXT
 70
     1
  9
$DRAGMODE
 70
     2
  9
$LTSCALE
 40
1.0
  9
$OSMODE
 70
     0
  9
$ATTMODE
 70
     1
  9
$TEXTSIZE
 40
0.2
  9
$TRACEWID
 40
0.05
  9
$TEXTSTYLE
  7
STANDARD
  9
$CLAYER
  8
0
  9
$CELTYPE
  6
CONTINUOUS
  9
$CECOLOR
 62
   256
  9
$DIMSCALE
 40
1.0
  9
$DIMASZ
 40
0.18
  9
$DIMEXO
 40
0.0625
  9
$DIMDLI
 40
0.38
  9
$DIMRND
 40
0.0
  9
$DIMDLE
 40
0.0
  9
$DIMEXE
 40
0.18
  9
$DIMTP
 40
0.0
  9
$DIMTM
 40
0.0
  9
$DIMTXT
 40
0.18
  9
$DIMCEN
 40
0.09
  9
$DIMTSZ
 40
0.0
  9
$DIMTOL
 70
     0
  9
$DIMLIM
 70
     0
  9
$DIMTIH
 70
     1
  9
$DIMTOH
 70
     1
  9
$DIMSE1
 70
     0
  9
$DIMSE2
 70
     0
  9
$DIMTAD
 70
     0
  9
$DIMZIN
 70
     0
  9
$DIMBLK
  1

  9
$DIMASO
 70
     1
  9
$DIMSHO
 70
     1
  9
$DIMPOST
  1

  9
$DIMAPOST
  1

  9
$DIMALT
 70
     0
  9
$DIMALTD
 70
     2
  9
$DIMALTF
 40
25.4
  9
$DIMLFAC
 40
1.0
  9
$DIMTOFL
 70
     0
  9
$DIMTVP
 40
0.0
  9
$DIMTIX
 70
     0
  9
$DIMSOXD
 70
     0
  9
$DIMSAH
 70
     0
  9
$DIMBLK1
  1

  9
$DIMBLK2
  1

  9
$DIMSTYLE
  2
STANDARD
  9
$DIMCLRD
 70
     0
  9
$DIMCLRE
 70
     0
  9
$DIMCLRT
 70
     0
  9
$DIMTFAC
 40
1.0
  9
$DIMGAP
 40
0.09
  9
$LUNITS
 70
     2
  9
$LUPREC
 70
     4
  9
$AXISMODE
 70
     0
  9
$AXISUNIT
 10
0.0
 20
0.0
  9
$SKETCHINC
 40
0.1
  9
$FILLETRAD
 40
0.0
  9
$AUNITS
 70
     0
  9
$AUPREC
 70
     0
  9
$MENU
  1
acad
  9
$ELEVATION
 40
0.0
  9
$PELEVATION
 40
0.0
  9
$THICKNESS
 40
0.0
  9
$LIMCHECK
 70
     0
  9
$BLIPMODE
 70
     1
  9
$CHAMFERA
 40
0.0
  9
$CHAMFERB
 40
0.0
  9
$SKPOLY
 70
     0
  9
$TDCREATE
 40
2451562.610300926
  9
$TDUPDATE
 40
2451562.610300926
  9
$TDINDWG
 40
0.0000000000
  9
$TDUSRTIMER
 40
0.0000000000
  9
$USRTIMER
 70
     1
  9
$ANGBASE
 50
0.0
  9
$ANGDIR
 70
     0
  9
$PDMODE
 70
     0
  9
$PDSIZE
 40
0.0
  9
$PLINEWID
 40
0.0
  9
$COORDS
 70
     0
  9
$SPLFRAME
 70
     0
  9
$SPLINETYPE
 70
     6
  9
$SPLINESEGS
 70
    10
  9
$ATTDIA
 70
     0
  9
$ATTREQ
 70
     1
  9
$HANDLING
 70
     1
  9
$HANDSEED
  5
799
  9
$SURFTAB1
 70
     6
  9
$SURFTAB2
 70
     6
  9
$SURFTYPE
 70
     6
  9
$SURFU
 70
     6
  9
$SURFV
 70
     6
  9
$UCSNAME
  2

  9
$UCSORG
 10
0.0
 20
0.0
 30
0.0
  9
$UCSXDIR
 10
1.0
 20
0.0
 30
0.0
  9
$UCSYDIR
 10
0.0
 20
1.0
 30
0.0
  9
$PUCSNAME
  2

  9
$PUCSORG
 10
0.0
 20
0.0
 30
0.0
  9
$PUCSXDIR
 10
1.0
 20
0.0
 30
0.0
  9
$PUCSYDIR
 10
0.0
 20
1.0
 30
0.0
  9
$USERI1
 70
     0
  9
$USERI2
 70
     0
  9
$USERI3
 70
     0
  9
$USERI4
 70
     0
  9
$USERI5
 70
     0
  9
$USERR1
 40
0.0
  9
$USERR2
 40
0.0
  9
$USERR3
 40
0.0
  9
$USERR4
 40
0.0
  9
$USERR5
 40
0.0
  9
$WORLDVIEW
 70
     1
  9
$SHADEDGE
 70
     3
  9
$SHADEDIF
 70
    70
  9
$TILEMODE
 70
     1
  9
$MAXACTVP
 70
    16
  9
$PINSBASE
 10
0.0
 20
0.0
 30
0.0
  9
$PLIMCHECK
 70
     0
  9
$PEXTMIN
 10
-1.000000E+20
 20
-1.000000E+20
 30
-1.000000E+20
  9
$PEXTMAX
 10
-1.000000E+20
 20
-1.000000E+20
 30
-1.000000E+20
  9
$PLIMMIN
 10
0.0
 20
0.0
  9
$PLIMMAX
 10
12.0
 20
9.0
  9
$UNITMODE
 70
     0
  9
$VISRETAIN
 70
     0
  9
$PLINEGEN
 70
     1
  9
$PSLTSCALE
 70
     0
  9
$TREEDEPTH
 70
  3020
  9
$DWGCODEPAGE
  3
ansi_1252
  0
ENDSEC
  0
SECTION
  2
TABLES
  0
TABLE
  2
VPORT
 70
     1
  0
VPORT
  2
*ACTIVE
 70
     0
 10
0.0
 20
0.0
 11
1.0
 21
1.0
 12
0.0
 22
0.0
 13
0.0
 23
0.0
 14
0.0
 24
0.0
 15
0.0
 25
0.0
 16
0.0
 26
0.0
 36
1.0
 17
110.852828
 27
11.778917
 37
0.0
 40
22.115167
 41
1.577899
 42
50.0
 43
0.000333
 44
0.0
 50
0.0
 51
0.0
 71
     0
 72
   100
 73
     1
 74
     0
 75
     0
 76
     0
 77
     0
 78
     0
  0
ENDTAB
  0
TABLE
  2
LTYPE
 70
     7
  0
LTYPE
  2
CONTINUOUS
 70
     0
  3
Solid line
 72
    65
 73
     0
 40
0.0
  0
LTYPE
  2
DOT
 70
    64
  3
. . . . . . . . . . . . . . . . . . . . . . . . . . . . . . . . .
 72
    65
 73
     2
 40
0.25
 49
0.0
 49
-0.25
  0
LTYPE
  2
HIDDEN
 70
    64
  3
__ __ __ __ __ __ __ __ __ __ __ __ __ __ __ __ __ __ __ __ __ 
 72
    65
 73
     2
 40
0.375
 49
0.25
 49
-0.125
  0
LTYPE
  2
DASHED
 70
    64
  3
__ __ __ __ __ __ __ __ __ __ __ __ __ __ __ __ __ __ __ __ __
 72
    65
 73
     2
 40
0.75
 49
0.5
 49
-0.25
  0
LTYPE
  2
DASHDOT
 70
    64
  3
__ . __ . __ . __ . __ . __ . __ . __ . __ . __ . __ . __ . _
 72
    65
 73
     4
 40
1.0
 49
0.5
 49
-0.25
 49
0.0
 49
-0.25
  0
LTYPE
  2
DIVIDE
 70
    64
  3
____ . . ____ . . ____ . . ____ . . ____ . . ____ . . ____ . .
 72
    65
 73
     6
 40
1.25
 49
0.5
 49
-0.25
 49
0.0
 49
-0.25
 49
0.0
 49
-0.25
  0
LTYPE
  2
CENTER
 70
    64
  3
____ _ ____ _ ____ _ ____ _ ____ _ ____ _ ____ _ ____ _ ____ _
 72
    65
 73
     4
 40
2.0
 49
1.25
 49
-0.25
 49
0.25
 49
-0.25
  0
ENDTAB
  0
TABLE
  2
LAYER
 70
    10
  0
LAYER
  2
0
 70
     0
 62
     7
  6
CONTINUOUS
  0
LAYER
  2
CONSTRUCTION_CLASS
 70
     0
 62
     7
  6
CONTINUOUS
  0
LAYER
  2
PATTERN_CLASS
 70
     0
 62
     7
  6
CONTINUOUS
  0
LAYER
  2
3
 70
    64
 62
     7
  6
CONTINUOUS
  0
LAYER
  2
1
 70
    64
 62
     7
  6
CONTINUOUS
  0
LAYER
  2
2
 70
    64
 62
     7
  6
CONTINUOUS
  0
LAYER
  2
6
 70
    64
 62
     7
  6
CONTINUOUS
  0
LAYER
  2
4
 70
    64
 62
     7
  6
CONTINUOUS
  0
LAYER
  2
7
 70
    64
 62
     7
  6
CONTINUOUS
  0
LAYER
  2
5
 70
    64
 62
     7
  6
CONTINUOUS
  0
ENDTAB
  0
TABLE
  2
STYLE
 70
     5
  0
STYLE
  2
STANDARD
 70
     0
 40
0.0
 41
1.0
 50
0.0
 71
     0
 42
0.0
  3
txt
  4

  0
STYLE
  2
MONOTXT
 70
     0
 40
0.2
 41
1.0
 50
0.0
 71
     0
 42
0.2
  3
MONOTXT
  4

  0
STYLE
  2
ROMANS
 70
     0
 40
0.2
 41
1.0
 50
0.0
 71
     0
 42
0.2
  3
ROMANS
  4

  0
STYLE
  2
txt
 70
     0
 40
0.2
 41
1.0
 50
0.0
 71
     0
 42
0.2
  3
TXT
  4

  0
STYLE
  2
ROMANT
 70
     0
 40
0.2
 41
1.0
 50
0.0
 71
     0
 42
0.2
  3
ROMANT
  4

  0
ENDTAB
  0
TABLE
  2
VIEW
 70
     0
  0
ENDTAB
  0
TABLE
  2
UCS
 70
     0
  0
ENDTAB
  0
TABLE
  2
APPID
 70
     1
  0
APPID
  2
ACAD
 70
     0
  0
ENDTAB
  0
TABLE
  2
DIMSTYLE
 70
     1
  0
DIMSTYLE
  2
STANDARD
 70
     0
  3

  4

  5

  6

  7

 40
1.0
 41
0.18
 42
0.0625
 43
0.38
 44
0.18
 45
0.0
 46
0.0
 47
0.0
 48
0.0
140
0.18
141
0.09
142
0.0
143
25.4
144
1.0
145
0.0
146
1.0
147
0.09
 71
     0
 72
     0
 73
     1
 74
     1
 75
     0
 76
     0
 77
     0
 78
     0
170
     0
171
     2
172
     0
173
     0
174
     0
175
     0
176
     0
177
     0
178
     0
  0
ENDTAB
  0
ENDSEC
  0
SECTION
  2
BLOCKS
  0
BLOCK
  8
1
  6
CONTINUOUS
 62
     2
  5
4A
  2
$X1
 70
     0
 10
0.0
 20
0.0
 30
0.0
  3
$N1
  0
LINE
  8
1
  6
CONTINUOUS
 62
     2
  5
4B
 10
15.028333
 20
4.605583
 30
0.0
 11
15.052417
 21
4.634333
 31
0.0
  0
LINE
  8
1
  6
CONTINUOUS
 62
     2
  5
4C
 10
15.317583
 20
4.950333
 30
0.0
 11
15.341667
 21
4.979
 31
0.0
  0
LINE
  8
1
  6
CONTINUOUS
 62
     2
  5
4D
 10
15.386917
 20
4.574167
 30
0.0
 11
15.411
 21
4.602917
 31
0.0
  0
LINE
  8
1
  6
CONTINUOUS
 62
     2
  5
4E
 10
15.676167
 20
4.918917
 30
0.0
 11
15.70025
 21
4.947667
 31
0.0
  0
LINE
  8
1
  6
CONTINUOUS
 62
     2
  5
4F
 10
15.745583
 20
4.542833
 30
0.0
 11
15.769667
 21
4.571583
 31
0.0
  0
LINE
  8
1
  6
CONTINUOUS
 62
     2
  5
50
 10
16.034833
 20
4.8875
 30
0.0
 11
16.058917
 21
4.91625
 31
0.0
  0
LINE
  8
1
  6
CONTINUOUS
 62
     2
  5
51
 10
16.104167
 20
4.511417
 30
0.0
 11
16.128333
 21
4.540167
 31
0.0
  0
LINE
  8
1
  6
CONTINUOUS
 62
     2
  5
52
 10
16.393417
 20
4.856167
 30
0.0
 11
16.417583
 21
4.884917
 31
0.0
  0
LINE
  8
1
  6
CONTINUOUS
 62
     2
  5
53
 10
16.462833
 20
4.480083
 30
0.0
 11
16.486917
 21
4.508833
 31
0.0
  0
LINE
  8
1
  6
CONTINUOUS
 62
     2
  5
54
 10
16.752083
 20
4.82475
 30
0.0
 11
16.776167
 21
4.8535
 31
0.0
  0
LINE
  8
1
  6
CONTINUOUS
 62
     2
  5
55
 10
16.842667
 20
4.473917
 30
0.0
 11
16.845583
 21
4.477417
 31
0.0
  0
LINE
  8
1
  6
CONTINUOUS
 62
     2
  5
56
 10
17.110667
 20
4.793417
 30
0.0
 11
17.134833
 21
4.822167
 31
0.0
  0
LINE
  8
1
  6
CONTINUOUS
 62
     2
  5
57
 10
14.669667
 20
4.636917
 30
0.0
 11
14.685833
 21
4.65625
 31
0.0
  0
LINE
  8
1
  6
CONTINUOUS
 62
     2
  5
58
 10
14.958917
 20
4.981667
 30
0.0
 11
14.983
 21
5.010417
 31
0.0
  0
LINE
  8
1
  6
CONTINUOUS
 62
     2
  5
59
 10
14.311
 20
4.668333
 30
0.0
 11
14.335167
 21
4.697083
 31
0.0
  0
LINE
  8
1
  6
CONTINUOUS
 62
     2
  5
5A
 10
14.600333
 20
5.013083
 30
0.0
 11
14.624417
 21
5.04175
 31
0.0
  0
LINE
  8
1
  6
CONTINUOUS
 62
     2
  5
5B
 10
13.952417
 20
4.699667
 30
0.0
 11
13.9765
 21
4.728417
 31
0.0
  0
LINE
  8
1
  6
CONTINUOUS
 62
     2
  5
5C
 10
14.241667
 20
5.044417
 30
0.0
 11
14.255417
 21
5.06075
 31
0.0
  0
LINE
  8
1
  6
CONTINUOUS
 62
     2
  5
5D
 10
13.59375
 20
4.731083
 30
0.0
 11
13.617917
 21
4.759833
 31
0.0
  0
LINE
  8
1
  6
CONTINUOUS
 62
     2
  5
5E
 10
13.243667
 20
4.772583
 30
0.0
 11
13.25925
 21
4.791167
 31
0.0
  0
LINE
  8
1
  6
CONTINUOUS
 62
     2
  5
5F
 10
13.254917
 20
4.76075
 30
0.0
 11
13.265
 21
4.759833
 31
0.0
  0
LINE
  8
1
  6
CONTINUOUS
 62
     2
  5
60
 10
13.59375
 20
4.731083
 30
0.0
 11
13.623667
 21
4.7285
 31
0.0
  0
LINE
  8
1
  6
CONTINUOUS
 62
     2
  5
61
 10
13.952417
 20
4.699667
 30
0.0
 11
13.982333
 21
4.697083
 31
0.0
  0
LINE
  8
1
  6
CONTINUOUS
 62
     2
  5
62
 10
14.311
 20
4.668333
 30
0.0
 11
14.340917
 21
4.66575
 31
0.0
  0
LINE
  8
1
  6
CONTINUOUS
 62
     2
  5
63
 10
14.669667
 20
4.636917
 30
0.0
 11
14.699583
 21
4.634333
 31
0.0
  0
LINE
  8
1
  6
CONTINUOUS
 62
     2
  5
64
 10
15.028333
 20
4.605583
 30
0.0
 11
15.058167
 21
4.602917
 31
0.0
  0
LINE
  8
1
  6
CONTINUOUS
 62
     2
  5
65
 10
15.386917
 20
4.574167
 30
0.0
 11
15.416833
 21
4.571583
 31
0.0
  0
LINE
  8
1
  6
CONTINUOUS
 62
     2
  5
66
 10
15.745583
 20
4.542833
 30
0.0
 11
15.775417
 21
4.540167
 31
0.0
  0
LINE
  8
1
  6
CONTINUOUS
 62
     2
  5
67
 10
16.104167
 20
4.511417
 30
0.0
 11
16.134083
 21
4.508833
 31
0.0
  0
LINE
  8
1
  6
CONTINUOUS
 62
     2
  5
68
 10
16.462833
 20
4.480083
 30
0.0
 11
16.49275
 21
4.477417
 31
0.0
  0
LINE
  8
1
  6
CONTINUOUS
 62
     2
  5
69
 10
14.241667
 20
5.044417
 30
0.0
 11
14.271583
 21
5.041833
 31
0.0
  0
LINE
  8
1
  6
CONTINUOUS
 62
     2
  5
6A
 10
14.600333
 20
5.013083
 30
0.0
 11
14.630167
 21
5.010417
 31
0.0
  0
LINE
  8
1
  6
CONTINUOUS
 62
     2
  5
6B
 10
14.958917
 20
4.981667
 30
0.0
 11
14.988833
 21
4.979083
 31
0.0
  0
LINE
  8
1
  6
CONTINUOUS
 62
     2
  5
6C
 10
15.317583
 20
4.950333
 30
0.0
 11
15.347417
 21
4.947667
 31
0.0
  0
LINE
  8
1
  6
CONTINUOUS
 62
     2
  5
6D
 10
15.676167
 20
4.918917
 30
0.0
 11
15.706083
 21
4.916333
 31
0.0
  0
LINE
  8
1
  6
CONTINUOUS
 62
     2
  5
6E
 10
16.034833
 20
4.8875
 30
0.0
 11
16.064667
 21
4.884917
 31
0.0
  0
LINE
  8
1
  6
CONTINUOUS
 62
     2
  5
6F
 10
16.393417
 20
4.856167
 30
0.0
 11
16.423333
 21
4.853583
 31
0.0
  0
LINE
  8
1
  6
CONTINUOUS
 62
     2
  5
70
 10
16.752083
 20
4.82475
 30
0.0
 11
16.782
 21
4.822167
 31
0.0
  0
LINE
  8
1
  6
CONTINUOUS
 62
     2
  5
71
 10
17.110667
 20
4.793417
 30
0.0
 11
17.140583
 21
4.790833
 31
0.0
  0
LINE
  8
1
  6
CONTINUOUS
 62
     2
  5
72
 10
15.058167
 20
4.602917
 30
0.0
 11
15.052417
 21
4.63425
 31
0.0
  0
LINE
  8
1
  6
CONTINUOUS
 62
     2
  5
73
 10
14.988833
 20
4.979083
 30
0.0
 11
14.983
 21
5.010417
 31
0.0
  0
LINE
  8
1
  6
CONTINUOUS
 62
     2
  5
74
 10
15.416833
 20
4.571583
 30
0.0
 11
15.411
 21
4.602917
 31
0.0
  0
LINE
  8
1
  6
CONTINUOUS
 62
     2
  5
75
 10
15.347417
 20
4.947667
 30
0.0
 11
15.341667
 21
4.979
 31
0.0
  0
LINE
  8
1
  6
CONTINUOUS
 62
     2
  5
76
 10
15.775417
 20
4.540167
 30
0.0
 11
15.769667
 21
4.5715
 31
0.0
  0
LINE
  8
1
  6
CONTINUOUS
 62
     2
  5
77
 10
15.706083
 20
4.91625
 30
0.0
 11
15.700333
 21
4.947667
 31
0.0
  0
LINE
  8
1
  6
CONTINUOUS
 62
     2
  5
78
 10
16.134083
 20
4.508833
 30
0.0
 11
16.128333
 21
4.540167
 31
0.0
  0
LINE
  8
1
  6
CONTINUOUS
 62
     2
  5
79
 10
16.064667
 20
4.884917
 30
0.0
 11
16.058917
 21
4.91625
 31
0.0
  0
LINE
  8
1
  6
CONTINUOUS
 62
     2
  5
7A
 10
16.49275
 20
4.477417
 30
0.0
 11
16.486917
 21
4.50875
 31
0.0
  0
LINE
  8
1
  6
CONTINUOUS
 62
     2
  5
7B
 10
16.423333
 20
4.8535
 30
0.0
 11
16.417583
 21
4.884917
 31
0.0
  0
LINE
  8
1
  6
CONTINUOUS
 62
     2
  5
7C
 10
16.846167
 20
4.474083
 30
0.0
 11
16.845583
 21
4.477417
 31
0.0
  0
LINE
  8
1
  6
CONTINUOUS
 62
     2
  5
7D
 10
16.782
 20
4.822167
 30
0.0
 11
16.776167
 21
4.8535
 31
0.0
  0
LINE
  8
1
  6
CONTINUOUS
 62
     2
  5
7E
 10
17.140583
 20
4.79075
 30
0.0
 11
17.134833
 21
4.822167
 31
0.0
  0
LINE
  8
1
  6
CONTINUOUS
 62
     2
  5
7F
 10
14.699583
 20
4.634333
 30
0.0
 11
14.6955
 21
4.65625
 31
0.0
  0
LINE
  8
1
  6
CONTINUOUS
 62
     2
  5
80
 10
14.630167
 20
5.010417
 30
0.0
 11
14.624417
 21
5.04175
 31
0.0
  0
LINE
  8
1
  6
CONTINUOUS
 62
     2
  5
81
 10
14.340917
 20
4.665667
 30
0.0
 11
14.335167
 21
4.697
 31
0.0
  0
LINE
  8
1
  6
CONTINUOUS
 62
     2
  5
82
 10
14.271583
 20
5.041833
 30
0.0
 11
14.268083
 21
5.06075
 31
0.0
  0
LINE
  8
1
  6
CONTINUOUS
 62
     2
  5
83
 10
13.982333
 20
4.697083
 30
0.0
 11
13.9765
 21
4.728417
 31
0.0
  0
LINE
  8
1
  6
CONTINUOUS
 62
     2
  5
84
 10
13.623667
 20
4.728417
 30
0.0
 11
13.617917
 21
4.759833
 31
0.0
  0
LINE
  8
1
  6
CONTINUOUS
 62
     2
  5
85
 10
13.265
 20
4.759833
 30
0.0
 11
13.25925
 21
4.791167
 31
0.0
  0
LINE
  8
1
  6
CONTINUOUS
 62
     2
  5
86
 10
14.6795
 20
4.53775
 30
0.0
 11
14.718417
 21
4.578333
 31
0.0
  0
LINE
  8
1
  6
CONTINUOUS
 62
     2
  5
87
 10
15.146833
 20
5.024833
 30
0.0
 11
15.181333
 21
5.06075
 31
0.0
  0
LINE
  8
1
  6
CONTINUOUS
 62
     2
  5
88
 10
15.234917
 20
4.47775
 30
0.0
 11
15.252083
 21
4.495583
 31
0.0
  0
LINE
  8
1
  6
CONTINUOUS
 62
     2
  5
89
 10
15.680417
 20
4.942083
 30
0.0
 11
15.719333
 21
4.982667
 31
0.0
  0
LINE
  8
1
  6
CONTINUOUS
 62
     2
  5
8A
 10
16.214083
 20
4.859333
 30
0.0
 11
16.253
 21
4.899917
 31
0.0
  0
LINE
  8
1
  6
CONTINUOUS
 62
     2
  5
8B
 10
16.747667
 20
4.7765
 30
0.0
 11
16.786583
 21
4.817167
 31
0.0
  0
LINE
  8
1
  6
CONTINUOUS
 62
     2
  5
8C
 10
14.145833
 20
4.6205
 30
0.0
 11
14.184833
 21
4.661083
 31
0.0
  0
LINE
  8
1
  6
CONTINUOUS
 62
     2
  5
8D
 10
13.61225
 20
4.70325
 30
0.0
 11
13.651167
 21
4.743833
 31
0.0
  0
LINE
  8
1
  6
CONTINUOUS
 62
     2
  5
8E
 10
15.254667
 20
4.473333
 30
0.0
 11
15.252083
 21
4.495583
 31
0.0
  0
LINE
  8
1
  6
CONTINUOUS
 62
     2
  5
8F
 10
15.19125
 20
5.017917
 30
0.0
 11
15.186333
 21
5.06075
 31
0.0
  0
LINE
  8
1
  6
CONTINUOUS
 62
     2
  5
90
 10
15.724917
 20
4.935167
 30
0.0
 11
15.719417
 21
4.982667
 31
0.0
  0
LINE
  8
1
  6
CONTINUOUS
 62
     2
  5
91
 10
16.2585
 20
4.852417
 30
0.0
 11
16.253
 21
4.899917
 31
0.0
  0
LINE
  8
1
  6
CONTINUOUS
 62
     2
  5
92
 10
16.792167
 20
4.769667
 30
0.0
 11
16.786583
 21
4.817083
 31
0.0
  0
LINE
  8
1
  6
CONTINUOUS
 62
     2
  5
93
 10
14.723917
 20
4.530833
 30
0.0
 11
14.718417
 21
4.578333
 31
0.0
  0
LINE
  8
1
  6
CONTINUOUS
 62
     2
  5
94
 10
14.723917
 20
4.530833
 30
0.0
 11
14.718417
 21
4.578333
 31
0.0
  0
LINE
  8
1
  6
CONTINUOUS
 62
     2
  5
95
 10
14.190333
 20
4.613583
 30
0.0
 11
14.184833
 21
4.661083
 31
0.0
  0
LINE
  8
1
  6
CONTINUOUS
 62
     2
  5
96
 10
13.65675
 20
4.696333
 30
0.0
 11
13.651167
 21
4.743833
 31
0.0
  0
LINE
  8
1
  6
CONTINUOUS
 62
     2
  5
97
 10
13.61225
 20
4.70325
 30
0.0
 11
13.656667
 21
4.696417
 31
0.0
  0
LINE
  8
1
  6
CONTINUOUS
 62
     2
  5
98
 10
14.145833
 20
4.6205
 30
0.0
 11
14.190333
 21
4.613583
 31
0.0
  0
LINE
  8
1
  6
CONTINUOUS
 62
     2
  5
99
 10
14.6795
 20
4.53775
 30
0.0
 11
14.723917
 21
4.530833
 31
0.0
  0
LINE
  8
1
  6
CONTINUOUS
 62
     2
  5
9A
 10
15.146833
 20
5.024833
 30
0.0
 11
15.19125
 21
5.017917
 31
0.0
  0
LINE
  8
1
  6
CONTINUOUS
 62
     2
  5
9B
 10
15.680417
 20
4.942083
 30
0.0
 11
15.724917
 21
4.935167
 31
0.0
  0
LINE
  8
1
  6
CONTINUOUS
 62
     2
  5
9C
 10
16.214083
 20
4.859333
 30
0.0
 11
16.2585
 21
4.852417
 31
0.0
  0
LINE
  8
1
  6
CONTINUOUS
 62
     2
  5
9D
 10
16.747667
 20
4.7765
 30
0.0
 11
16.792167
 21
4.769667
 31
0.0
  0
LINE
  8
1
  6
CONTINUOUS
 62
     2
  5
9E
 10
14.388917
 20
4.6315
 30
0.0
 11
14.423917
 21
4.645
 31
0.0
  0
LINE
  8
1
  6
CONTINUOUS
 62
     2
  5
9F
 10
15.229083
 20
4.954083
 30
0.0
 11
15.264083
 21
4.9675
 31
0.0
  0
LINE
  8
1
  6
CONTINUOUS
 62
     2
  5
A0
 10
15.107417
 20
4.5915
 30
0.0
 11
15.142417
 21
4.604917
 31
0.0
  0
LINE
  8
1
  6
CONTINUOUS
 62
     2
  5
A1
 10
15.947667
 20
4.914
 30
0.0
 11
15.982667
 21
4.927417
 31
0.0
  0
LINE
  8
1
  6
CONTINUOUS
 62
     2
  5
A2
 10
15.826
 20
4.551417
 30
0.0
 11
15.861
 21
4.564917
 31
0.0
  0
LINE
  8
1
  6
CONTINUOUS
 62
     2
  5
A3
 10
16.246083
 20
4.712667
 30
0.0
 11
16.281167
 21
4.726167
 31
0.0
  0
LINE
  8
1
  6
CONTINUOUS
 62
     2
  5
A4
 10
16.66625
 20
4.874
 30
0.0
 11
16.70125
 21
4.887417
 31
0.0
  0
LINE
  8
1
  6
CONTINUOUS
 62
     2
  5
A5
 10
17.086333
 20
5.03525
 30
0.0
 11
17.121333
 21
5.048667
 31
0.0
  0
LINE
  8
1
  6
CONTINUOUS
 62
     2
  5
A6
 10
16.544583
 20
4.511417
 30
0.0
 11
16.579583
 21
4.524833
 31
0.0
  0
LINE
  8
1
  6
CONTINUOUS
 62
     2
  5
A7
 10
16.964667
 20
4.672667
 30
0.0
 11
16.999667
 21
4.686083
 31
0.0
  0
LINE
  8
1
  6
CONTINUOUS
 62
     2
  5
A8
 10
13.26925
 20
4.517583
 30
0.0
 11
13.28525
 21
4.52375
 31
0.0
  0
LINE
  8
1
  6
CONTINUOUS
 62
     2
  5
A9
 10
13.670333
 20
4.671583
 30
0.0
 11
13.705333
 21
4.685
 31
0.0
  0
LINE
  8
1
  6
CONTINUOUS
 62
     2
  5
AA
 10
14.090417
 20
4.832833
 30
0.0
 11
14.125417
 21
4.84625
 31
0.0
  0
LINE
  8
1
  6
CONTINUOUS
 62
     2
  5
AB
 10
14.5105
 20
4.994083
 30
0.0
 11
14.545583
 21
5.007583
 31
0.0
  0
LINE
  8
1
  6
CONTINUOUS
 62
     2
  5
AC
 10
13.371833
 20
4.872917
 30
0.0
 11
13.406833
 21
4.886333
 31
0.0
  0
LINE
  8
1
  6
CONTINUOUS
 62
     2
  5
AD
 10
13.792
 20
5.034167
 30
0.0
 11
13.827
 21
5.047583
 31
0.0
  0
LINE
  8
1
  6
CONTINUOUS
 62
     2
  5
AE
 10
14.5105
 20
4.994083
 30
0.0
 11
14.535417
 21
4.977333
 31
0.0
  0
LINE
  8
1
  6
CONTINUOUS
 62
     2
  5
AF
 10
15.107417
 20
4.5915
 30
0.0
 11
15.132333
 21
4.57475
 31
0.0
  0
LINE
  8
1
  6
CONTINUOUS
 62
     2
  5
B0
 10
15.229083
 20
4.954083
 30
0.0
 11
15.254
 21
4.93725
 31
0.0
  0
LINE
  8
1
  6
CONTINUOUS
 62
     2
  5
B1
 10
15.826
 20
4.551417
 30
0.0
 11
15.850917
 21
4.534667
 31
0.0
  0
LINE
  8
1
  6
CONTINUOUS
 62
     2
  5
B2
 10
15.947667
 20
4.914
 30
0.0
 11
15.9725
 21
4.89725
 31
0.0
  0
LINE
  8
1
  6
CONTINUOUS
 62
     2
  5
B3
 10
16.246083
 20
4.712667
 30
0.0
 11
16.271
 21
4.695917
 31
0.0
  0
LINE
  8
1
  6
CONTINUOUS
 62
     2
  5
B4
 10
16.544583
 20
4.511417
 30
0.0
 11
16.569417
 21
4.494583
 31
0.0
  0
LINE
  8
1
  6
CONTINUOUS
 62
     2
  5
B5
 10
16.38925
 20
5.06075
 30
0.0
 11
16.392667
 21
5.0585
 31
0.0
  0
LINE
  8
1
  6
CONTINUOUS
 62
     2
  5
B6
 10
16.66625
 20
4.874
 30
0.0
 11
16.691083
 21
4.857167
 31
0.0
  0
LINE
  8
1
  6
CONTINUOUS
 62
     2
  5
B7
 10
16.964667
 20
4.672667
 30
0.0
 11
16.989583
 21
4.655917
 31
0.0
  0
LINE
  8
1
  6
CONTINUOUS
 62
     2
  5
B8
 10
17.086333
 20
5.03525
 30
0.0
 11
17.11125
 21
5.0185
 31
0.0
  0
LINE
  8
1
  6
CONTINUOUS
 62
     2
  5
B9
 10
13.792
 20
5.034167
 30
0.0
 11
13.816833
 21
5.017333
 31
0.0
  0
LINE
  8
1
  6
CONTINUOUS
 62
     2
  5
BA
 10
14.090417
 20
4.832833
 30
0.0
 11
14.115333
 21
4.816083
 31
0.0
  0
LINE
  8
1
  6
CONTINUOUS
 62
     2
  5
BB
 10
14.388917
 20
4.6315
 30
0.0
 11
14.41375
 21
4.61475
 31
0.0
  0
LINE
  8
1
  6
CONTINUOUS
 62
     2
  5
BC
 10
13.371833
 20
4.872917
 30
0.0
 11
13.39675
 21
4.856083
 31
0.0
  0
LINE
  8
1
  6
CONTINUOUS
 62
     2
  5
BD
 10
13.670333
 20
4.671583
 30
0.0
 11
13.695167
 21
4.654833
 31
0.0
  0
LINE
  8
1
  6
CONTINUOUS
 62
     2
  5
BE
 10
15.132333
 20
4.574667
 30
0.0
 11
15.142417
 21
4.604917
 31
0.0
  0
LINE
  8
1
  6
CONTINUOUS
 62
     2
  5
BF
 10
15.254
 20
4.93725
 30
0.0
 11
15.264083
 21
4.9675
 31
0.0
  0
LINE
  8
1
  6
CONTINUOUS
 62
     2
  5
C0
 10
15.850917
 20
4.534667
 30
0.0
 11
15.861
 21
4.564833
 31
0.0
  0
LINE
  8
1
  6
CONTINUOUS
 62
     2
  5
C1
 10
15.9725
 20
4.89725
 30
0.0
 11
15.982667
 21
4.927417
 31
0.0
  0
LINE
  8
1
  6
CONTINUOUS
 62
     2
  5
C2
 10
16.271
 20
4.695917
 30
0.0
 11
16.281167
 21
4.726167
 31
0.0
  0
LINE
  8
1
  6
CONTINUOUS
 62
     2
  5
C3
 10
16.392667
 20
5.0585
 30
0.0
 11
16.393417
 21
5.06075
 31
0.0
  0
LINE
  8
1
  6
CONTINUOUS
 62
     2
  5
C4
 10
16.569417
 20
4.494583
 30
0.0
 11
16.579583
 21
4.524833
 31
0.0
  0
LINE
  8
1
  6
CONTINUOUS
 62
     2
  5
C5
 10
16.691083
 20
4.857167
 30
0.0
 11
16.70125
 21
4.887417
 31
0.0
  0
LINE
  8
1
  6
CONTINUOUS
 62
     2
  5
C6
 10
16.989583
 20
4.655833
 30
0.0
 11
16.999667
 21
4.686083
 31
0.0
  0
LINE
  8
1
  6
CONTINUOUS
 62
     2
  5
C7
 10
17.11125
 20
5.018417
 30
0.0
 11
17.121333
 21
5.048667
 31
0.0
  0
LINE
  8
1
  6
CONTINUOUS
 62
     2
  5
C8
 10
14.41375
 20
4.61475
 30
0.0
 11
14.423917
 21
4.644917
 31
0.0
  0
LINE
  8
1
  6
CONTINUOUS
 62
     2
  5
C9
 10
14.535417
 20
4.977333
 30
0.0
 11
14.545583
 21
5.0075
 31
0.0
  0
LINE
  8
1
  6
CONTINUOUS
 62
     2
  5
CA
 10
14.115333
 20
4.816083
 30
0.0
 11
14.125417
 21
4.84625
 31
0.0
  0
LINE
  8
1
  6
CONTINUOUS
 62
     2
  5
CB
 10
13.695167
 20
4.65475
 30
0.0
 11
13.705333
 21
4.685
 31
0.0
  0
LINE
  8
1
  6
CONTINUOUS
 62
     2
  5
CC
 10
13.816833
 20
5.017333
 30
0.0
 11
13.827
 21
5.047583
 31
0.0
  0
LINE
  8
1
  6
CONTINUOUS
 62
     2
  5
CD
 10
13.28
 20
4.508167
 30
0.0
 11
13.28525
 21
4.52375
 31
0.0
  0
LINE
  8
1
  6
CONTINUOUS
 62
     2
  5
CE
 10
13.39675
 20
4.856083
 30
0.0
 11
13.406833
 21
4.886333
 31
0.0
  0
POINT
  8
1
  6
CONTINUOUS
 62
     2
  5
CF
 10
14.7015
 20
4.486
 30
0.0
  0
POINT
  8
1
  6
CONTINUOUS
 62
     2
  5
D0
 10
14.44475
 20
4.450833
 30
0.0
  0
POINT
  8
1
  6
CONTINUOUS
 62
     2
  5
D1
 10
14.707583
 20
4.6525
 30
0.0
  0
POINT
  8
1
  6
CONTINUOUS
 62
     2
  5
D2
 10
15.232
 20
5.054833
 30
0.0
  0
POINT
  8
1
  6
CONTINUOUS
 62
     2
  5
D3
 10
14.450833
 20
4.61725
 30
0.0
  0
POINT
  8
1
  6
CONTINUOUS
 62
     2
  5
D4
 10
14.97225
 20
5.017333
 30
0.0
  0
POINT
  8
1
  6
CONTINUOUS
 62
     2
  5
D5
 10
14.191167
 20
4.57975
 30
0.0
  0
POINT
  8
1
  6
CONTINUOUS
 62
     2
  5
D6
 10
14.456917
 20
4.783667
 30
0.0
  0
POINT
  8
1
  6
CONTINUOUS
 62
     2
  5
D7
 10
14.71975
 20
4.985333
 30
0.0
  0
POINT
  8
1
  6
CONTINUOUS
 62
     2
  5
D8
 10
13.938583
 20
4.54775
 30
0.0
  0
POINT
  8
1
  6
CONTINUOUS
 62
     2
  5
D9
 10
14.19725
 20
4.74625
 30
0.0
  0
POINT
  8
1
  6
CONTINUOUS
 62
     2
  5
DA
 10
14.463
 20
4.950167
 30
0.0
  0
POINT
  8
1
  6
CONTINUOUS
 62
     2
  5
DB
 10
13.681917
 20
4.512583
 30
0.0
  0
POINT
  8
1
  6
CONTINUOUS
 62
     2
  5
DC
 10
13.944667
 20
4.714167
 30
0.0
  0
POINT
  8
1
  6
CONTINUOUS
 62
     2
  5
DD
 10
13.944667
 20
4.714167
 30
0.0
  0
POINT
  8
1
  6
CONTINUOUS
 62
     2
  5
DE
 10
14.203333
 20
4.912667
 30
0.0
  0
POINT
  8
1
  6
CONTINUOUS
 62
     2
  5
DF
 10
13.422167
 20
4.475083
 30
0.0
  0
POINT
  8
1
  6
CONTINUOUS
 62
     2
  5
E0
 10
13.688
 20
4.679
 30
0.0
  0
POINT
  8
1
  6
CONTINUOUS
 62
     2
  5
E1
 10
13.95075
 20
4.880667
 30
0.0
  0
POINT
  8
1
  6
CONTINUOUS
 62
     2
  5
E2
 10
13.42825
 20
4.6415
 30
0.0
  0
POINT
  8
1
  6
CONTINUOUS
 62
     2
  5
E3
 10
13.694083
 20
4.845417
 30
0.0
  0
POINT
  8
1
  6
CONTINUOUS
 62
     2
  5
E4
 10
13.956833
 20
5.047083
 30
0.0
  0
POINT
  8
1
  6
CONTINUOUS
 62
     2
  5
E5
 10
13.434333
 20
4.808
 30
0.0
  0
POINT
  8
1
  6
CONTINUOUS
 62
     2
  5
E6
 10
13.700167
 20
5.011917
 30
0.0
  0
POINT
  8
1
  6
CONTINUOUS
 62
     2
  5
E7
 10
13.440417
 20
4.974417
 30
0.0
  0
POINT
  8
1
  6
CONTINUOUS
 62
     2
  5
E8
 10
14.954083
 20
4.518
 30
0.0
  0
POINT
  8
1
  6
CONTINUOUS
 62
     2
  5
E9
 10
15.482583
 20
4.923583
 30
0.0
  0
POINT
  8
1
  6
CONTINUOUS
 62
     2
  5
EA
 10
15.21375
 20
4.5555
 30
0.0
  0
POINT
  8
1
  6
CONTINUOUS
 62
     2
  5
EB
 10
15.735167
 20
4.955583
 30
0.0
  0
POINT
  8
1
  6
CONTINUOUS
 62
     2
  5
EC
 10
15.4705
 20
4.59075
 30
0.0
  0
POINT
  8
1
  6
CONTINUOUS
 62
     2
  5
ED
 10
15.994833
 20
4.993083
 30
0.0
  0
POINT
  8
1
  6
CONTINUOUS
 62
     2
  5
EE
 10
15.723
 20
4.62275
 30
0.0
  0
POINT
  8
1
  6
CONTINUOUS
 62
     2
  5
EF
 10
15.98875
 20
4.826667
 30
0.0
  0
POINT
  8
1
  6
CONTINUOUS
 62
     2
  5
F0
 10
16.251583
 20
5.028333
 30
0.0
  0
POINT
  8
1
  6
CONTINUOUS
 62
     2
  5
F1
 10
15.982667
 20
4.66025
 30
0.0
  0
POINT
  8
1
  6
CONTINUOUS
 62
     2
  5
F2
 10
16.2455
 20
4.861833
 30
0.0
  0
POINT
  8
1
  6
CONTINUOUS
 62
     2
  5
F3
 10
16.504167
 20
5.060333
 30
0.0
  0
POINT
  8
1
  6
CONTINUOUS
 62
     2
  5
F4
 10
15.976667
 20
4.49375
 30
0.0
  0
POINT
  8
1
  6
CONTINUOUS
 62
     2
  5
F5
 10
16.239417
 20
4.695417
 30
0.0
  0
POINT
  8
1
  6
CONTINUOUS
 62
     2
  5
F6
 10
16.498083
 20
4.893917
 30
0.0
  0
POINT
  8
1
  6
CONTINUOUS
 62
     2
  5
F7
 10
16.233333
 20
4.529
 30
0.0
  0
POINT
  8
1
  6
CONTINUOUS
 62
     2
  5
F8
 10
16.492
 20
4.727417
 30
0.0
  0
POINT
  8
1
  6
CONTINUOUS
 62
     2
  5
F9
 10
16.75775
 20
4.931333
 30
0.0
  0
POINT
  8
1
  6
CONTINUOUS
 62
     2
  5
FA
 10
16.485917
 20
4.561
 30
0.0
  0
POINT
  8
1
  6
CONTINUOUS
 62
     2
  5
FB
 10
16.751667
 20
4.764917
 30
0.0
  0
POINT
  8
1
  6
CONTINUOUS
 62
     2
  5
FC
 10
16.745583
 20
4.5985
 30
0.0
  0
POINT
  8
1
  6
CONTINUOUS
 62
     2
  5
FD
 10
17.008417
 20
4.800083
 30
0.0
  0
POINT
  8
1
  6
CONTINUOUS
 62
     2
  5
FE
 10
17.002333
 20
4.633667
 30
0.0
  0
POINT
  8
1
  6
CONTINUOUS
 62
     2
  5
FF
 10
17.254833
 20
4.665667
 30
0.0
  0
POINT
  8
1
  6
CONTINUOUS
 62
     2
  5
100
 10
13.507917
 20
4.476667
 30
0.0
  0
POINT
  8
1
  6
CONTINUOUS
 62
     2
  5
101
 10
17.100417
 20
4.949583
 30
0.0
  0
POINT
  8
1
  6
CONTINUOUS
 62
     2
  5
102
 10
13.82375
 20
4.51825
 30
0.0
  0
POINT
  8
1
  6
CONTINUOUS
 62
     2
  5
103
 10
13.948917
 20
4.534667
 30
0.0
  0
POINT
  8
1
  6
CONTINUOUS
 62
     2
  5
104
 10
14.13825
 20
4.559667
 30
0.0
  0
POINT
  8
1
  6
CONTINUOUS
 62
     2
  5
105
 10
14.454
 20
4.601167
 30
0.0
  0
POINT
  8
1
  6
CONTINUOUS
 62
     2
  5
106
 10
14.579167
 20
4.617667
 30
0.0
  0
POINT
  8
1
  6
CONTINUOUS
 62
     2
  5
107
 10
14.768583
 20
4.642583
 30
0.0
  0
POINT
  8
1
  6
CONTINUOUS
 62
     2
  5
108
 10
15.839833
 20
4.783667
 30
0.0
  0
POINT
  8
1
  6
CONTINUOUS
 62
     2
  5
109
 10
16.029167
 20
4.808583
 30
0.0
  0
POINT
  8
1
  6
CONTINUOUS
 62
     2
  5
10A
 10
16.345
 20
4.850167
 30
0.0
  0
POINT
  8
1
  6
CONTINUOUS
 62
     2
  5
10B
 10
16.470167
 20
4.866667
 30
0.0
  0
POINT
  8
1
  6
CONTINUOUS
 62
     2
  5
10C
 10
16.6595
 20
4.891583
 30
0.0
  0
POINT
  8
1
  6
CONTINUOUS
 62
     2
  5
10D
 10
13.324917
 20
4.632417
 30
0.0
  0
POINT
  8
1
  6
CONTINUOUS
 62
     2
  5
10E
 10
13.450083
 20
4.648917
 30
0.0
  0
POINT
  8
1
  6
CONTINUOUS
 62
     2
  5
10F
 10
13.6395
 20
4.673833
 30
0.0
  0
POINT
  8
1
  6
CONTINUOUS
 62
     2
  5
110
 10
13.95525
 20
4.715417
 30
0.0
  0
POINT
  8
1
  6
CONTINUOUS
 62
     2
  5
111
 10
14.080417
 20
4.731917
 30
0.0
  0
POINT
  8
1
  6
CONTINUOUS
 62
     2
  5
112
 10
14.26975
 20
4.756833
 30
0.0
  0
POINT
  8
1
  6
CONTINUOUS
 62
     2
  5
113
 10
15.341083
 20
4.897833
 30
0.0
  0
POINT
  8
1
  6
CONTINUOUS
 62
     2
  5
114
 10
15.530417
 20
4.922833
 30
0.0
  0
POINT
  8
1
  6
CONTINUOUS
 62
     2
  5
115
 10
15.846167
 20
4.964417
 30
0.0
  0
POINT
  8
1
  6
CONTINUOUS
 62
     2
  5
116
 10
15.971333
 20
4.980833
 30
0.0
  0
POINT
  8
1
  6
CONTINUOUS
 62
     2
  5
117
 10
16.16075
 20
5.00575
 30
0.0
  0
POINT
  8
1
  6
CONTINUOUS
 62
     2
  5
118
 10
16.4765
 20
5.047333
 30
0.0
  0
POINT
  8
1
  6
CONTINUOUS
 62
     2
  5
119
 10
13.4565
 20
4.829667
 30
0.0
  0
POINT
  8
1
  6
CONTINUOUS
 62
     2
  5
11A
 10
13.581667
 20
4.846167
 30
0.0
  0
POINT
  8
1
  6
CONTINUOUS
 62
     2
  5
11B
 10
13.771
 20
4.871083
 30
0.0
  0
POINT
  8
1
  6
CONTINUOUS
 62
     2
  5
11C
 10
14.08675
 20
4.912667
 30
0.0
  0
POINT
  8
1
  6
CONTINUOUS
 62
     2
  5
11D
 10
14.212
 20
4.929083
 30
0.0
  0
POINT
  8
1
  6
CONTINUOUS
 62
     2
  5
11E
 10
14.401333
 20
4.954083
 30
0.0
  0
POINT
  8
1
  6
CONTINUOUS
 62
     2
  5
11F
 10
14.717083
 20
4.995583
 30
0.0
  0
POINT
  8
1
  6
CONTINUOUS
 62
     2
  5
120
 10
14.84225
 20
5.012083
 30
0.0
  0
POINT
  8
1
  6
CONTINUOUS
 62
     2
  5
121
 10
15.031667
 20
5.037
 30
0.0
  0
POINT
  8
1
  6
CONTINUOUS
 62
     2
  5
122
 10
13.27225
 20
4.98525
 30
0.0
  0
POINT
  8
1
  6
CONTINUOUS
 62
     2
  5
123
 10
13.588
 20
5.026833
 30
0.0
  0
POINT
  8
1
  6
CONTINUOUS
 62
     2
  5
124
 10
13.713167
 20
5.043333
 30
0.0
  0
POINT
  8
1
  6
CONTINUOUS
 62
     2
  5
125
 10
15.267333
 20
4.528417
 30
0.0
  0
POINT
  8
1
  6
CONTINUOUS
 62
     2
  5
126
 10
15.267333
 20
4.528417
 30
0.0
  0
POINT
  8
1
  6
CONTINUOUS
 62
     2
  5
127
 10
15.583083
 20
4.57
 30
0.0
  0
POINT
  8
1
  6
CONTINUOUS
 62
     2
  5
128
 10
15.70825
 20
4.586417
 30
0.0
  0
POINT
  8
1
  6
CONTINUOUS
 62
     2
  5
129
 10
15.897667
 20
4.611417
 30
0.0
  0
POINT
  8
1
  6
CONTINUOUS
 62
     2
  5
12A
 10
16.213417
 20
4.652917
 30
0.0
  0
POINT
  8
1
  6
CONTINUOUS
 62
     2
  5
12B
 10
16.338583
 20
4.669417
 30
0.0
  0
POINT
  8
1
  6
CONTINUOUS
 62
     2
  5
12C
 10
16.528
 20
4.694333
 30
0.0
  0
POINT
  8
1
  6
CONTINUOUS
 62
     2
  5
12D
 10
16.84375
 20
4.735917
 30
0.0
  0
POINT
  8
1
  6
CONTINUOUS
 62
     2
  5
12E
 10
16.968917
 20
4.752417
 30
0.0
  0
POINT
  8
1
  6
CONTINUOUS
 62
     2
  5
12F
 10
17.15825
 20
4.777333
 30
0.0
  0
POINT
  8
1
  6
CONTINUOUS
 62
     2
  5
130
 10
16.396417
 20
4.497167
 30
0.0
  0
POINT
  8
1
  6
CONTINUOUS
 62
     2
  5
131
 10
16.712167
 20
4.53875
 30
0.0
  0
POINT
  8
1
  6
CONTINUOUS
 62
     2
  5
132
 10
16.837417
 20
4.555167
 30
0.0
  0
POINT
  8
1
  6
CONTINUOUS
 62
     2
  5
133
 10
17.02675
 20
4.580167
 30
0.0
  0
POINT
  8
1
  6
CONTINUOUS
 62
     2
  5
134
 10
14.704
 20
5.008917
 30
0.0
  0
POINT
  8
1
  6
CONTINUOUS
 62
     2
  5
135
 10
15.469333
 20
4.521333
 30
0.0
  0
POINT
  8
1
  6
CONTINUOUS
 62
     2
  5
136
 10
14.970917
 20
4.997667
 30
0.0
  0
POINT
  8
1
  6
CONTINUOUS
 62
     2
  5
137
 10
15.73625
 20
4.510083
 30
0.0
  0
POINT
  8
1
  6
CONTINUOUS
 62
     2
  5
138
 10
15.132417
 20
5.0535
 30
0.0
  0
POINT
  8
1
  6
CONTINUOUS
 62
     2
  5
139
 10
15.237833
 20
4.986333
 30
0.0
  0
POINT
  8
1
  6
CONTINUOUS
 62
     2
  5
13A
 10
16.003167
 20
4.49875
 30
0.0
  0
POINT
  8
1
  6
CONTINUOUS
 62
     2
  5
13B
 10
15.399333
 20
5.04225
 30
0.0
  0
POINT
  8
1
  6
CONTINUOUS
 62
     2
  5
13C
 10
15.50475
 20
4.975083
 30
0.0
  0
POINT
  8
1
  6
CONTINUOUS
 62
     2
  5
13D
 10
15.833667
 20
4.765583
 30
0.0
  0
POINT
  8
1
  6
CONTINUOUS
 62
     2
  5
13E
 10
15.666167
 20
5.031
 30
0.0
  0
POINT
  8
1
  6
CONTINUOUS
 62
     2
  5
13F
 10
15.771667
 20
4.963833
 30
0.0
  0
POINT
  8
1
  6
CONTINUOUS
 62
     2
  5
140
 10
16.100583
 20
4.75425
 30
0.0
  0
POINT
  8
1
  6
CONTINUOUS
 62
     2
  5
141
 10
16.537
 20
4.47625
 30
0.0
  0
POINT
  8
1
  6
CONTINUOUS
 62
     2
  5
142
 10
15.933083
 20
5.019667
 30
0.0
  0
POINT
  8
1
  6
CONTINUOUS
 62
     2
  5
143
 10
16.0385
 20
4.952583
 30
0.0
  0
POINT
  8
1
  6
CONTINUOUS
 62
     2
  5
144
 10
16.3675
 20
4.743
 30
0.0
  0
POINT
  8
1
  6
CONTINUOUS
 62
     2
  5
145
 10
16.2
 20
5.008417
 30
0.0
  0
POINT
  8
1
  6
CONTINUOUS
 62
     2
  5
146
 10
16.305417
 20
4.94125
 30
0.0
  0
POINT
  8
1
  6
CONTINUOUS
 62
     2
  5
147
 10
16.634333
 20
4.73175
 30
0.0
  0
POINT
  8
1
  6
CONTINUOUS
 62
     2
  5
148
 10
16.466917
 20
4.997167
 30
0.0
  0
POINT
  8
1
  6
CONTINUOUS
 62
     2
  5
149
 10
16.572333
 20
4.93
 30
0.0
  0
POINT
  8
1
  6
CONTINUOUS
 62
     2
  5
14A
 10
16.90125
 20
4.720417
 30
0.0
  0
POINT
  8
1
  6
CONTINUOUS
 62
     2
  5
14B
 10
16.733833
 20
4.985833
 30
0.0
  0
POINT
  8
1
  6
CONTINUOUS
 62
     2
  5
14C
 10
17.168167
 20
4.709167
 30
0.0
  0
POINT
  8
1
  6
CONTINUOUS
 62
     2
  5
14D
 10
17.106167
 20
4.907417
 30
0.0
  0
POINT
  8
1
  6
CONTINUOUS
 62
     2
  5
14E
 10
14.437083
 20
5.020167
 30
0.0
  0
POINT
  8
1
  6
CONTINUOUS
 62
     2
  5
14F
 10
15.202417
 20
4.532583
 30
0.0
  0
POINT
  8
1
  6
CONTINUOUS
 62
     2
  5
150
 10
15.307917
 20
4.465417
 30
0.0
  0
POINT
  8
1
  6
CONTINUOUS
 62
     2
  5
151
 10
14.170167
 20
5.0315
 30
0.0
  0
POINT
  8
1
  6
CONTINUOUS
 62
     2
  5
152
 10
14.499083
 20
4.821917
 30
0.0
  0
POINT
  8
1
  6
CONTINUOUS
 62
     2
  5
153
 10
14.9355
 20
4.543917
 30
0.0
  0
POINT
  8
1
  6
CONTINUOUS
 62
     2
  5
154
 10
13.90325
 20
5.04275
 30
0.0
  0
POINT
  8
1
  6
CONTINUOUS
 62
     2
  5
155
 10
14.232167
 20
4.83325
 30
0.0
  0
POINT
  8
1
  6
CONTINUOUS
 62
     2
  5
156
 10
14.668667
 20
4.555167
 30
0.0
  0
POINT
  8
1
  6
CONTINUOUS
 62
     2
  5
157
 10
14.774083
 20
4.488
 30
0.0
  0
POINT
  8
1
  6
CONTINUOUS
 62
     2
  5
158
 10
13.636333
 20
5.054
 30
0.0
  0
POINT
  8
1
  6
CONTINUOUS
 62
     2
  5
159
 10
13.96525
 20
4.8445
 30
0.0
  0
POINT
  8
1
  6
CONTINUOUS
 62
     2
  5
15A
 10
14.40175
 20
4.566417
 30
0.0
  0
POINT
  8
1
  6
CONTINUOUS
 62
     2
  5
15B
 10
14.507167
 20
4.49925
 30
0.0
  0
POINT
  8
1
  6
CONTINUOUS
 62
     2
  5
15C
 10
13.698333
 20
4.85575
 30
0.0
  0
POINT
  8
1
  6
CONTINUOUS
 62
     2
  5
15D
 10
14.134833
 20
4.57775
 30
0.0
  0
POINT
  8
1
  6
CONTINUOUS
 62
     2
  5
15E
 10
14.24025
 20
4.510583
 30
0.0
  0
POINT
  8
1
  6
CONTINUOUS
 62
     2
  5
15F
 10
13.431417
 20
4.867083
 30
0.0
  0
POINT
  8
1
  6
CONTINUOUS
 62
     2
  5
160
 10
13.867917
 20
4.589
 30
0.0
  0
POINT
  8
1
  6
CONTINUOUS
 62
     2
  5
161
 10
13.973333
 20
4.521833
 30
0.0
  0
POINT
  8
1
  6
CONTINUOUS
 62
     2
  5
162
 10
13.601
 20
4.60025
 30
0.0
  0
POINT
  8
1
  6
CONTINUOUS
 62
     2
  5
163
 10
13.706417
 20
4.533083
 30
0.0
  0
POINT
  8
1
  6
CONTINUOUS
 62
     2
  5
164
 10
13.334083
 20
4.611583
 30
0.0
  0
POINT
  8
1
  6
CONTINUOUS
 62
     2
  5
165
 10
13.4395
 20
4.544417
 30
0.0
  0
POINT
  8
1
  6
CONTINUOUS
 62
     2
  5
166
 10
14.835417
 20
4.975417
 30
0.0
  0
POINT
  8
1
  6
CONTINUOUS
 62
     2
  5
167
 10
15.297333
 20
4.552167
 30
0.0
  0
POINT
  8
1
  6
CONTINUOUS
 62
     2
  5
168
 10
15.127
 20
5.0255
 30
0.0
  0
POINT
  8
1
  6
CONTINUOUS
 62
     2
  5
169
 10
15.588917
 20
4.60225
 30
0.0
  0
POINT
  8
1
  6
CONTINUOUS
 62
     2
  5
16A
 10
15.70875
 20
4.492417
 30
0.0
  0
POINT
  8
1
  6
CONTINUOUS
 62
     2
  5
16B
 10
15.609583
 20
4.900583
 30
0.0
  0
POINT
  8
1
  6
CONTINUOUS
 62
     2
  5
16C
 10
15.8805
 20
4.65225
 30
0.0
  0
POINT
  8
1
  6
CONTINUOUS
 62
     2
  5
16D
 10
16.000333
 20
4.5425
 30
0.0
  0
POINT
  8
1
  6
CONTINUOUS
 62
     2
  5
16E
 10
15.901167
 20
4.950583
 30
0.0
  0
POINT
  8
1
  6
CONTINUOUS
 62
     2
  5
16F
 10
15.901167
 20
4.950583
 30
0.0
  0
POINT
  8
1
  6
CONTINUOUS
 62
     2
  5
170
 10
16.172083
 20
4.702333
 30
0.0
  0
POINT
  8
1
  6
CONTINUOUS
 62
     2
  5
171
 10
16.291917
 20
4.592583
 30
0.0
  0
POINT
  8
1
  6
CONTINUOUS
 62
     2
  5
172
 10
16.19275
 20
5.000667
 30
0.0
  0
POINT
  8
1
  6
CONTINUOUS
 62
     2
  5
173
 10
16.463667
 20
4.752417
 30
0.0
  0
POINT
  8
1
  6
CONTINUOUS
 62
     2
  5
174
 10
16.5835
 20
4.642583
 30
0.0
  0
POINT
  8
1
  6
CONTINUOUS
 62
     2
  5
175
 10
16.484333
 20
5.05075
 30
0.0
  0
POINT
  8
1
  6
CONTINUOUS
 62
     2
  5
176
 10
16.75525
 20
4.802417
 30
0.0
  0
POINT
  8
1
  6
CONTINUOUS
 62
     2
  5
177
 10
16.875083
 20
4.692667
 30
0.0
  0
POINT
  8
1
  6
CONTINUOUS
 62
     2
  5
178
 10
17.066083
 20
4.517667
 30
0.0
  0
POINT
  8
1
  6
CONTINUOUS
 62
     2
  5
179
 10
17.046833
 20
4.8525
 30
0.0
  0
POINT
  8
1
  6
CONTINUOUS
 62
     2
  5
17A
 10
17.166667
 20
4.74275
 30
0.0
  0
POINT
  8
1
  6
CONTINUOUS
 62
     2
  5
17B
 10
14.424
 20
5.035167
 30
0.0
  0
POINT
  8
1
  6
CONTINUOUS
 62
     2
  5
17C
 10
14.543833
 20
4.925417
 30
0.0
  0
POINT
  8
1
  6
CONTINUOUS
 62
     2
  5
17D
 10
14.132417
 20
4.985083
 30
0.0
  0
POINT
  8
1
  6
CONTINUOUS
 62
     2
  5
17E
 10
14.25225
 20
4.875333
 30
0.0
  0
POINT
  8
1
  6
CONTINUOUS
 62
     2
  5
17F
 10
14.443167
 20
4.700333
 30
0.0
  0
POINT
  8
1
  6
CONTINUOUS
 62
     2
  5
180
 10
13.840833
 20
4.935083
 30
0.0
  0
POINT
  8
1
  6
CONTINUOUS
 62
     2
  5
181
 10
13.960667
 20
4.82525
 30
0.0
  0
POINT
  8
1
  6
CONTINUOUS
 62
     2
  5
182
 10
14.151583
 20
4.650333
 30
0.0
  0
POINT
  8
1
  6
CONTINUOUS
 62
     2
  5
183
 10
13.54925
 20
4.885
 30
0.0
  0
POINT
  8
1
  6
CONTINUOUS
 62
     2
  5
184
 10
13.669
 20
4.77525
 30
0.0
  0
POINT
  8
1
  6
CONTINUOUS
 62
     2
  5
185
 10
13.86
 20
4.60025
 30
0.0
  0
POINT
  8
1
  6
CONTINUOUS
 62
     2
  5
186
 10
13.257667
 20
4.834917
 30
0.0
  0
POINT
  8
1
  6
CONTINUOUS
 62
     2
  5
187
 10
13.377417
 20
4.725167
 30
0.0
  0
POINT
  8
1
  6
CONTINUOUS
 62
     2
  5
188
 10
13.568417
 20
4.550167
 30
0.0
  0
ENDBLK
  8
1
  6
CONTINUOUS
 62
     2
  5
189
  0
BLOCK
  8
1
  6
CONTINUOUS
 62
     2
  5
1A1
  2
$X2
 70
     0
 10
0.0
 20
0.0
 30
0.0
  3
$N2
  0
LINE
  8
1
  6
CONTINUOUS
 62
     2
  5
1A2
 10
16.971917
 20
5.545583
 30
0.0
 11
16.996083
 21
5.574333
 31
0.0
  0
LINE
  8
1
  6
CONTINUOUS
 62
     2
  5
1A3
 10
17.041333
 20
5.1695
 30
0.0
 11
17.065417
 21
5.19825
 31
0.0
  0
LINE
  8
1
  6
CONTINUOUS
 62
     2
  5
1A4
 10
16.902583
 20
5.921667
 30
0.0
 11
16.926667
 21
5.950417
 31
0.0
  0
LINE
  8
1
  6
CONTINUOUS
 62
     2
  5
1A5
 10
17.041333
 20
5.1695
 30
0.0
 11
17.07125
 21
5.166917
 31
0.0
  0
LINE
  8
1
  6
CONTINUOUS
 62
     2
  5
1A6
 10
16.971917
 20
5.545583
 30
0.0
 11
17.001833
 21
5.543
 31
0.0
  0
LINE
  8
1
  6
CONTINUOUS
 62
     2
  5
1A7
 10
16.902583
 20
5.921667
 30
0.0
 11
16.9325
 21
5.919083
 31
0.0
  0
LINE
  8
1
  6
CONTINUOUS
 62
     2
  5
1A8
 10
17.07125
 20
5.166917
 30
0.0
 11
17.065417
 21
5.19825
 31
0.0
  0
LINE
  8
1
  6
CONTINUOUS
 62
     2
  5
1A9
 10
17.001833
 20
5.543
 30
0.0
 11
16.996083
 21
5.574333
 31
0.0
  0
LINE
  8
1
  6
CONTINUOUS
 62
     2
  5
1AA
 10
16.9325
 20
5.919083
 30
0.0
 11
16.926667
 21
5.950417
 31
0.0
  0
LINE
  8
1
  6
CONTINUOUS
 62
     2
  5
1AB
 10
17.14875
 20
5.833417
 30
0.0
 11
17.187667
 21
5.874
 31
0.0
  0
LINE
  8
1
  6
CONTINUOUS
 62
     2
  5
1AC
 10
17.193167
 20
5.8265
 30
0.0
 11
17.187667
 21
5.874
 31
0.0
  0
LINE
  8
1
  6
CONTINUOUS
 62
     2
  5
1AD
 10
17.14875
 20
5.833417
 30
0.0
 11
17.193167
 21
5.8265
 31
0.0
  0
LINE
  8
1
  6
CONTINUOUS
 62
     2
  5
1AE
 10
16.909583
 20
5.599083
 30
0.0
 11
16.944583
 21
5.612583
 31
0.0
  0
LINE
  8
1
  6
CONTINUOUS
 62
     2
  5
1AF
 10
16.813
 20
5.246167
 30
0.0
 11
16.822917
 21
5.25
 31
0.0
  0
LINE
  8
1
  6
CONTINUOUS
 62
     2
  5
1B0
 10
17.031167
 20
5.961667
 30
0.0
 11
17.06625
 21
5.975167
 31
0.0
  0
LINE
  8
1
  6
CONTINUOUS
 62
     2
  5
1B1
 10
16.909583
 20
5.599083
 30
0.0
 11
16.934417
 21
5.582333
 31
0.0
  0
LINE
  8
1
  6
CONTINUOUS
 62
     2
  5
1B2
 10
17.031167
 20
5.961667
 30
0.0
 11
17.056083
 21
5.944917
 31
0.0
  0
LINE
  8
1
  6
CONTINUOUS
 62
     2
  5
1B3
 10
16.813
 20
5.220417
 30
0.0
 11
16.822917
 21
5.25
 31
0.0
  0
LINE
  8
1
  6
CONTINUOUS
 62
     2
  5
1B4
 10
16.934417
 20
5.582333
 30
0.0
 11
16.944583
 21
5.612583
 31
0.0
  0
LINE
  8
1
  6
CONTINUOUS
 62
     2
  5
1B5
 10
17.056083
 20
5.944917
 30
0.0
 11
17.06625
 21
5.975083
 31
0.0
  0
POINT
  8
1
  6
CONTINUOUS
 62
     2
  5
1B6
 10
17.03875
 20
5.632333
 30
0.0
  0
POINT
  8
1
  6
CONTINUOUS
 62
     2
  5
1B7
 10
17.044833
 20
5.798833
 30
0.0
  0
POINT
  8
1
  6
CONTINUOUS
 62
     2
  5
1B8
 10
17.050917
 20
5.96525
 30
0.0
  0
POINT
  8
1
  6
CONTINUOUS
 62
     2
  5
1B9
 10
17.057
 20
6.131667
 30
0.0
  0
POINT
  8
1
  6
CONTINUOUS
 62
     2
  5
1BA
 10
17.03275
 20
5.465917
 30
0.0
  0
POINT
  8
1
  6
CONTINUOUS
 62
     2
  5
1BB
 10
17.026667
 20
5.2995
 30
0.0
  0
POINT
  8
1
  6
CONTINUOUS
 62
     2
  5
1BC
 10
17.020583
 20
5.133
 30
0.0
  0
POINT
  8
1
  6
CONTINUOUS
 62
     2
  5
1BD
 10
17.0145
 20
4.966583
 30
0.0
  0
POINT
  8
1
  6
CONTINUOUS
 62
     2
  5
1BE
 10
16.86475
 20
5.45825
 30
0.0
  0
POINT
  8
1
  6
CONTINUOUS
 62
     2
  5
1BF
 10
17.054083
 20
5.483167
 30
0.0
  0
POINT
  8
1
  6
CONTINUOUS
 62
     2
  5
1C0
 10
16.871083
 20
5.639
 30
0.0
  0
POINT
  8
1
  6
CONTINUOUS
 62
     2
  5
1C1
 10
16.99625
 20
5.655417
 30
0.0
  0
POINT
  8
1
  6
CONTINUOUS
 62
     2
  5
1C2
 10
17.185667
 20
5.680417
 30
0.0
  0
POINT
  8
1
  6
CONTINUOUS
 62
     2
  5
1C3
 10
17.002667
 20
5.836167
 30
0.0
  0
POINT
  8
1
  6
CONTINUOUS
 62
     2
  5
1C4
 10
17.127833
 20
5.852667
 30
0.0
  0
POINT
  8
1
  6
CONTINUOUS
 62
     2
  5
1C5
 10
16.818417
 20
5.991833
 30
0.0
  0
POINT
  8
1
  6
CONTINUOUS
 62
     2
  5
1C6
 10
17.134167
 20
6.033417
 30
0.0
  0
POINT
  8
1
  6
CONTINUOUS
 62
     2
  5
1C7
 10
16.922583
 20
5.286
 30
0.0
  0
POINT
  8
1
  6
CONTINUOUS
 62
     2
  5
1C8
 10
17.106833
 20
5.130333
 30
0.0
  0
POINT
  8
1
  6
CONTINUOUS
 62
     2
  5
1C9
 10
16.97525
 20
4.933167
 30
0.0
  0
POINT
  8
1
  6
CONTINUOUS
 62
     2
  5
1CA
 10
16.930667
 20
5.4955
 30
0.0
  0
POINT
  8
1
  6
CONTINUOUS
 62
     2
  5
1CB
 10
17.036083
 20
5.428333
 30
0.0
  0
POINT
  8
1
  6
CONTINUOUS
 62
     2
  5
1CC
 10
17.197583
 20
5.48425
 30
0.0
  0
POINT
  8
1
  6
CONTINUOUS
 62
     2
  5
1CD
 10
17.028083
 20
5.751
 30
0.0
  0
POINT
  8
1
  6
CONTINUOUS
 62
     2
  5
1CE
 10
16.860667
 20
6.016417
 30
0.0
  0
POINT
  8
1
  6
CONTINUOUS
 62
     2
  5
1CF
 10
16.966083
 20
5.94925
 30
0.0
  0
POINT
  8
1
  6
CONTINUOUS
 62
     2
  5
1D0
 10
17.1275
 20
6.005167
 30
0.0
  0
POINT
  8
1
  6
CONTINUOUS
 62
     2
  5
1D1
 10
17.098167
 20
5.230083
 30
0.0
  0
POINT
  8
1
  6
CONTINUOUS
 62
     2
  5
1D2
 10
16.83125
 20
5.241333
 30
0.0
  0
POINT
  8
1
  6
CONTINUOUS
 62
     2
  5
1D3
 10
17.00075
 20
4.974583
 30
0.0
  0
POINT
  8
1
  6
CONTINUOUS
 62
     2
  5
1D4
 10
16.83925
 20
4.91875
 30
0.0
  0
POINT
  8
1
  6
CONTINUOUS
 62
     2
  5
1D5
 10
17.048333
 20
5.485667
 30
0.0
  0
POINT
  8
1
  6
CONTINUOUS
 62
     2
  5
1D6
 10
17.168167
 20
5.375833
 30
0.0
  0
POINT
  8
1
  6
CONTINUOUS
 62
     2
  5
1D7
 10
16.878
 20
5.958917
 30
0.0
  0
POINT
  8
1
  6
CONTINUOUS
 62
     2
  5
1D8
 10
17.069
 20
5.784
 30
0.0
  0
POINT
  8
1
  6
CONTINUOUS
 62
     2
  5
1D9
 10
17.049833
 20
6.11875
 30
0.0
  0
POINT
  8
1
  6
CONTINUOUS
 62
     2
  5
1DA
 10
17.169667
 20
6.009
 30
0.0
  0
POINT
  8
1
  6
CONTINUOUS
 62
     2
  5
1DB
 10
16.876583
 20
5.325833
 30
0.0
  0
POINT
  8
1
  6
CONTINUOUS
 62
     2
  5
1DC
 10
17.0675
 20
5.150833
 30
0.0
  0
ENDBLK
  8
1
  6
CONTINUOUS
 62
     2
  5
1DD
  0
BLOCK
  8
1
  6
CONTINUOUS
 62
     7
  5
1E4
  2
D3
 70
     0
 10
0.0
 20
0.0
 30
0.0
  3
D3
  0
LINE
  8
1
  6
CONTINUOUS
 62
     7
  5
1E5
 10
0.056083
 20
0.611083
 30
0.0
 11
0.18
 21
0.611083
 31
0.0
  0
LINE
  8
1
  6
CONTINUOUS
 62
     7
  5
1E6
 10
0.056083
 20
0.0
 30
0.0
 11
0.18
 21
0.0
 31
0.0
  0
LINE
  8
1
  6
CONTINUOUS
 62
     7
  5
1E7
 10
0.0
 20
0.486083
 30
0.0
 11
0.0
 21
0.305583
 31
0.0
  0
LINE
  8
1
  6
CONTINUOUS
 62
     7
  5
1E8
 10
0.0
 20
0.125
 30
0.0
 11
0.0
 21
0.305583
 31
0.0
  0
SOLID
  8
1
  6
CONTINUOUS
 62
     7
  5
1E9
 10
0.020833
 20
0.486
 30
0.0
 11
-0.020833
 21
0.486
 31
0.0
 12
0.0
 22
0.611
 32
0.0
 13
0.0
 23
0.611
 33
0.0
  0
SOLID
  8
1
  6
CONTINUOUS
 62
     7
  5
1EA
 10
0.020833
 20
0.125
 30
0.0
 11
-0.020833
 21
0.125
 31
0.0
 12
0.0
 22
0.0
 32
0.0
 13
0.0
 23
0.0
 33
0.0
  0
LINE
  8
6
  6
CONTINUOUS
 62
     7
  5
1EC
 10
-0.006417
 20
0.611083
 30
0.0
 11
-0.006333
 21
0.611083
 31
0.0
  0
LINE
  8
6
  6
CONTINUOUS
 62
     7
  5
1ED
 10
-0.006417
 20
0.0
 30
0.0
 11
-0.006333
 21
0.0
 31
0.0
  0
LINE
  8
6
  6
CONTINUOUS
 62
     7
  5
1EE
 10
0.0
 20
0.0
 30
0.0
 11
0.000083
 21
0.0
 31
0.0
  0
ENDBLK
  8
6
  6
CONTINUOUS
 62
     7
  5
1EF
  0
BLOCK
  8
1
  6
CONTINUOUS
 62
   240
  5
230
  2
$X4
 70
     0
 10
0.0
 20
0.0
 30
0.0
  3
$N4
  0
LINE
  8
1
  6
CONTINUOUS
 62
   240
  5
231
 10
4.091417
 20
6.586667
 30
0.0
 11
4.609
 21
6.287833
 31
0.0
  0
LINE
  8
1
  6
CONTINUOUS
 62
   240
  5
232
 10
4.08275
 20
6.447333
 30
0.0
 11
4.359
 21
6.287833
 31
0.0
  0
LINE
  8
1
  6
CONTINUOUS
 62
   240
  5
233
 10
4.074167
 20
6.308
 30
0.0
 11
4.109
 21
6.287833
 31
0.0
  0
LINE
  8
1
  6
CONTINUOUS
 62
   240
  5
234
 10
4.100083
 20
6.726
 30
0.0
 11
4.681917
 21
6.390083
 31
0.0
  0
LINE
  8
1
  6
CONTINUOUS
 62
   240
  5
235
 10
4.261417
 20
6.77725
 30
0.0
 11
4.681917
 21
6.534417
 31
0.0
  0
LINE
  8
1
  6
CONTINUOUS
 62
   240
  5
236
 10
4.52275
 20
6.770667
 30
0.0
 11
4.681917
 21
6.67875
 31
0.0
  0
ENDBLK
  8
1
  6
CONTINUOUS
 62
   240
  5
237
  0
BLOCK
  8
1
  6
CONTINUOUS
 62
   240
  5
241
  2
$X5
 70
     0
 10
0.0
 20
0.0
 30
0.0
  3
$N5
  0
LINE
  8
1
  6
CONTINUOUS
 62
   240
  5
242
 10
5.078167
 20
5.170667
 30
0.0
 11
5.145083
 21
5.286583
 31
0.0
  0
LINE
  8
1
  6
CONTINUOUS
 62
   240
  5
243
 10
5.016833
 20
5.189417
 30
0.0
 11
5.084167
 21
5.306
 31
0.0
  0
LINE
  8
1
  6
CONTINUOUS
 62
   240
  5
244
 10
4.9555
 20
5.208167
 30
0.0
 11
5.023167
 21
5.325417
 31
0.0
  0
LINE
  8
1
  6
CONTINUOUS
 62
   240
  5
245
 10
4.894167
 20
5.227
 30
0.0
 11
4.962167
 21
5.344833
 31
0.0
  0
LINE
  8
1
  6
CONTINUOUS
 62
   240
  5
246
 10
4.832833
 20
5.24575
 30
0.0
 11
4.90125
 21
5.364167
 31
0.0
  0
LINE
  8
1
  6
CONTINUOUS
 62
   240
  5
247
 10
4.7715
 20
5.264583
 30
0.0
 11
4.84025
 21
5.383583
 31
0.0
  0
LINE
  8
1
  6
CONTINUOUS
 62
   240
  5
248
 10
4.710167
 20
5.283333
 30
0.0
 11
4.77925
 21
5.403
 31
0.0
  0
LINE
  8
1
  6
CONTINUOUS
 62
   240
  5
249
 10
4.681917
 20
5.359333
 30
0.0
 11
4.718333
 21
5.422417
 31
0.0
  0
LINE
  8
1
  6
CONTINUOUS
 62
   240
  5
24A
 10
5.1395
 20
5.151833
 30
0.0
 11
5.206083
 21
5.26725
 31
0.0
  0
LINE
  8
1
  6
CONTINUOUS
 62
   240
  5
24B
 10
5.200833
 20
5.133083
 30
0.0
 11
5.267083
 21
5.247833
 31
0.0
  0
LINE
  8
1
  6
CONTINUOUS
 62
   240
  5
24C
 10
5.262167
 20
5.114333
 30
0.0
 11
5.328
 21
5.228417
 31
0.0
  0
LINE
  8
1
  6
CONTINUOUS
 62
   240
  5
24D
 10
5.323417
 20
5.0955
 30
0.0
 11
5.389
 21
5.209
 31
0.0
  0
LINE
  8
1
  6
CONTINUOUS
 62
   240
  5
24E
 10
5.38475
 20
5.07675
 30
0.0
 11
5.45
 21
5.189667
 31
0.0
  0
LINE
  8
1
  6
CONTINUOUS
 62
   240
  5
24F
 10
5.446083
 20
5.058
 30
0.0
 11
5.510583
 21
5.169583
 31
0.0
  0
LINE
  8
1
  6
CONTINUOUS
 62
   240
  5
250
 10
5.507417
 20
5.039167
 30
0.0
 11
5.5305
 21
5.079083
 31
0.0
  0
ENDBLK
  8
1
  6
CONTINUOUS
 62
   240
  5
251
  0
BLOCK
  8
1
  6
CONTINUOUS
 62
   240
  5
25B
  2
$X6
 70
     0
 10
0.0
 20
0.0
 30
0.0
  3
$N6
  0
LINE
  8
1
  6
CONTINUOUS
 62
   240
  5
25C
 10
7.126417
 20
5.267417
 30
0.0
 11
7.302917
 21
5.1655
 31
0.0
  0
LINE
  8
1
  6
CONTINUOUS
 62
   240
  5
25D
 10
7.044417
 20
5.242583
 30
0.0
 11
7.21975
 21
5.141417
 31
0.0
  0
LINE
  8
1
  6
CONTINUOUS
 62
   240
  5
25E
 10
6.962417
 20
5.21775
 30
0.0
 11
7.1365
 21
5.11725
 31
0.0
  0
LINE
  8
1
  6
CONTINUOUS
 62
   240
  5
25F
 10
6.880417
 20
5.192917
 30
0.0
 11
7.05325
 21
5.093167
 31
0.0
  0
LINE
  8
1
  6
CONTINUOUS
 62
   240
  5
260
 10
6.843333
 20
5.142167
 30
0.0
 11
6.970083
 21
5.069083
 31
0.0
  0
LINE
  8
1
  6
CONTINUOUS
 62
   240
  5
261
 10
6.828417
 20
5.078667
 30
0.0
 11
6.886833
 21
5.044917
 31
0.0
  0
LINE
  8
1
  6
CONTINUOUS
 62
   240
  5
262
 10
7.208417
 20
5.29225
 30
0.0
 11
7.386167
 21
5.189667
 31
0.0
  0
LINE
  8
1
  6
CONTINUOUS
 62
   240
  5
263
 10
7.2905
 20
5.317083
 30
0.0
 11
7.469417
 21
5.21375
 31
0.0
  0
LINE
  8
1
  6
CONTINUOUS
 62
   240
  5
264
 10
7.3725
 20
5.341917
 30
0.0
 11
7.552667
 21
5.237833
 31
0.0
  0
LINE
  8
1
  6
CONTINUOUS
 62
   240
  5
265
 10
7.4545
 20
5.36675
 30
0.0
 11
7.635833
 21
5.262
 31
0.0
  0
LINE
  8
1
  6
CONTINUOUS
 62
   240
  5
266
 10
7.5365
 20
5.3915
 30
0.0
 11
7.719083
 21
5.286083
 31
0.0
  0
LINE
  8
1
  6
CONTINUOUS
 62
   240
  5
267
 10
7.6185
 20
5.416333
 30
0.0
 11
7.729917
 21
5.352
 31
0.0
  0
LINE
  8
1
  6
CONTINUOUS
 62
   240
  5
268
 10
7.7005
 20
5.441167
 30
0.0
 11
7.729917
 21
5.424167
 31
0.0
  0
ENDBLK
  8
1
  6
CONTINUOUS
 62
   240
  5
269
  0
BLOCK
  8
1
  6
CONTINUOUS
 62
   240
  5
26C
  2
$X7
 70
     0
 10
0.0
 20
0.0
 30
0.0
  3
$N7
  0
LINE
  8
1
  6
CONTINUOUS
 62
   240
  5
26D
 10
6.079333
 20
4.604083
 30
0.0
 11
6.098667
 21
4.713583
 31
0.0
  0
LINE
  8
1
  6
CONTINUOUS
 62
   240
  5
26E
 10
6.018
 20
4.616083
 30
0.0
 11
6.037333
 21
4.725833
 31
0.0
  0
LINE
  8
1
  6
CONTINUOUS
 62
   240
  5
26F
 10
5.957667
 20
4.633833
 30
0.0
 11
5.97725
 21
4.744917
 31
0.0
  0
LINE
  8
1
  6
CONTINUOUS
 62
   240
  5
270
 10
5.898333
 20
4.6575
 30
0.0
 11
5.918417
 21
4.77125
 31
0.0
  0
LINE
  8
1
  6
CONTINUOUS
 62
   240
  5
271
 10
5.840167
 20
4.6875
 30
0.0
 11
5.861
 21
4.8055
 31
0.0
  0
LINE
  8
1
  6
CONTINUOUS
 62
   240
  5
272
 10
5.783167
 20
4.724333
 30
0.0
 11
5.805167
 21
4.848833
 31
0.0
  0
LINE
  8
1
  6
CONTINUOUS
 62
   240
  5
273
 10
5.727583
 20
4.769
 30
0.0
 11
5.75125
 21
4.903167
 31
0.0
  0
LINE
  8
1
  6
CONTINUOUS
 62
   240
  5
274
 10
5.673667
 20
4.823083
 30
0.0
 11
5.7
 21
4.9725
 31
0.0
  0
LINE
  8
1
  6
CONTINUOUS
 62
   240
  5
275
 10
5.621833
 20
4.889167
 30
0.0
 11
5.653
 21
5.065667
 31
0.0
  0
LINE
  8
1
  6
CONTINUOUS
 62
   240
  5
276
 10
5.573
 20
4.972167
 30
0.0
 11
5.608
 21
5.170417
 31
0.0
  0
LINE
  8
1
  6
CONTINUOUS
 62
   240
  5
277
 10
5.529167
 20
5.083417
 30
0.0
 11
5.5445
 21
5.170417
 31
0.0
  0
LINE
  8
1
  6
CONTINUOUS
 62
   240
  5
278
 10
6.141667
 20
4.597833
 30
0.0
 11
6.161167
 21
4.70825
 31
0.0
  0
LINE
  8
1
  6
CONTINUOUS
 62
   240
  5
279
 10
6.205083
 20
4.597417
 30
0.0
 11
6.224917
 21
4.709917
 31
0.0
  0
LINE
  8
1
  6
CONTINUOUS
 62
   240
  5
27A
 10
6.2695
 20
4.603083
 30
0.0
 11
6.29
 21
4.71925
 31
0.0
  0
LINE
  8
1
  6
CONTINUOUS
 62
   240
  5
27B
 10
6.335167
 20
4.615417
 30
0.0
 11
6.356583
 21
4.737
 31
0.0
  0
LINE
  8
1
  6
CONTINUOUS
 62
   240
  5
27C
 10
6.402083
 20
4.635167
 30
0.0
 11
6.425
 21
4.764917
 31
0.0
  0
LINE
  8
1
  6
CONTINUOUS
 62
   240
  5
27D
 10
6.470583
 20
4.6635
 30
0.0
 11
6.495667
 21
4.805917
 31
0.0
  0
LINE
  8
1
  6
CONTINUOUS
 62
   240
  5
27E
 10
6.540917
 20
4.702667
 30
0.0
 11
6.56975
 21
4.866167
 31
0.0
  0
LINE
  8
1
  6
CONTINUOUS
 62
   240
  5
27F
 10
6.613917
 20
4.756333
 30
0.0
 11
6.650417
 21
4.96375
 31
0.0
  0
LINE
  8
1
  6
CONTINUOUS
 62
   240
  5
280
 10
6.690833
 20
4.83275
 30
0.0
 11
6.752583
 21
5.183
 31
0.0
  0
LINE
  8
1
  6
CONTINUOUS
 62
   240
  5
281
 10
6.776667
 20
4.959583
 30
0.0
 11
6.816
 21
5.183
 31
0.0
  0
ENDBLK
  8
1
  6
CONTINUOUS
 62
   240
  5
282
  0
BLOCK
  8
1
  6
CONTINUOUS
 62
   240
  5
287
  2
$X8
 70
     0
 10
0.0
 20
0.0
 30
0.0
  3
$N8
  0
LINE
  8
1
  6
CONTINUOUS
 62
   240
  5
288
 10
7.729917
 20
6.651083
 30
0.0
 11
8.28175
 21
6.332417
 31
0.0
  0
LINE
  8
1
  6
CONTINUOUS
 62
   240
  5
289
 10
7.729917
 20
6.50675
 30
0.0
 11
8.104167
 21
6.290583
 31
0.0
  0
LINE
  8
1
  6
CONTINUOUS
 62
   240
  5
28A
 10
7.729917
 20
6.362417
 30
0.0
 11
7.854167
 21
6.290583
 31
0.0
  0
LINE
  8
1
  6
CONTINUOUS
 62
   240
  5
28B
 10
7.722
 20
6.799917
 30
0.0
 11
8.28175
 21
6.47675
 31
0.0
  0
LINE
  8
1
  6
CONTINUOUS
 62
   240
  5
28C
 10
7.972
 20
6.799917
 30
0.0
 11
8.28175
 21
6.621083
 31
0.0
  0
LINE
  8
1
  6
CONTINUOUS
 62
   240
  5
28D
 10
8.222
 20
6.799917
 30
0.0
 11
8.28175
 21
6.765417
 31
0.0
  0
ENDBLK
  8
1
  6
CONTINUOUS
 62
   240
  5
28E
  0
BLOCK
  8
1
  6
CONTINUOUS
 62
     7
  5
2CF
  2
$X12
 70
     0
 10
0.0
 20
0.0
 30
0.0
  3
$N12
  0
LINE
  8
1
  6
CONTINUOUS
 62
     7
  5
2D0
 10
4.75525
 20
6.111417
 30
0.0
 11
4.788167
 21
6.168417
 31
0.0
  0
LINE
  8
1
  6
CONTINUOUS
 62
     7
  5
2D1
 10
4.719167
 20
6.111417
 30
0.0
 11
4.752083
 21
6.168417
 31
0.0
  0
LINE
  8
1
  6
CONTINUOUS
 62
     7
  5
2D2
 10
4.683083
 20
6.111417
 30
0.0
 11
4.716
 21
6.168417
 31
0.0
  0
LINE
  8
1
  6
CONTINUOUS
 62
     7
  5
2D3
 10
4.791333
 20
6.111417
 30
0.0
 11
4.82425
 21
6.168417
 31
0.0
  0
LINE
  8
1
  6
CONTINUOUS
 62
     7
  5
2D4
 10
4.827417
 20
6.111417
 30
0.0
 11
4.860333
 21
6.168417
 31
0.0
  0
LINE
  8
1
  6
CONTINUOUS
 62
     7
  5
2D5
 10
4.8635
 20
6.111417
 30
0.0
 11
4.896417
 21
6.168417
 31
0.0
  0
LINE
  8
1
  6
CONTINUOUS
 62
     7
  5
2D6
 10
4.899583
 20
6.111417
 30
0.0
 11
4.924833
 21
6.155167
 31
0.0
  0
ENDBLK
  8
1
  6
CONTINUOUS
 62
     7
  5
2D7
  0
BLOCK
  8
1
  6
CONTINUOUS
 62
     7
  5
2DA
  2
$D13
 70
     0
 10
0.0
 20
0.0
 30
0.0
  3
$N13
  0
LINE
  8
1
  6
CONTINUOUS
 62
     7
  5
2DB
 10
-0.061417
 20
0.598417
 30
0.0
 11
-0.18
 21
0.598417
 31
0.0
  0
LINE
  8
1
  6
CONTINUOUS
 62
     7
  5
2DC
 10
-0.046
 20
0.0
 30
0.0
 11
-0.18
 21
0.0
 31
0.0
  0
LINE
  8
1
  6
CONTINUOUS
 62
     7
  5
2DD
 10
0.0
 20
0.473417
 30
0.0
 11
0.0
 21
0.125
 31
0.0
  0
SOLID
  8
1
  6
CONTINUOUS
 62
     7
  5
2DE
 10
0.020833
 20
0.473333
 30
0.0
 11
-0.020833
 21
0.473333
 31
0.0
 12
0.0
 22
0.598333
 32
0.0
 13
0.0
 23
0.598333
 33
0.0
  0
SOLID
  8
1
  6
CONTINUOUS
 62
     7
  5
2DF
 10
0.020833
 20
0.125
 30
0.0
 11
-0.020833
 21
0.125
 31
0.0
 12
0.0
 22
0.0
 32
0.0
 13
0.0
 23
0.0
 33
0.0
  0
LINE
  8
6
  6
CONTINUOUS
 62
     7
  5
2E0
 10
0.001083
 20
0.598417
 30
0.0
 11
0.001167
 21
0.598417
 31
0.0
  0
LINE
  8
6
  6
CONTINUOUS
 62
     7
  5
2E1
 10
0.0165
 20
0.0
 30
0.0
 11
0.016583
 21
0.0
 31
0.0
  0
LINE
  8
6
  6
CONTINUOUS
 62
     7
  5
2E2
 10
0.0
 20
0.0
 30
0.0
 11
0.000083
 21
0.0
 31
0.0
  0
ENDBLK
  8
6
  6
CONTINUOUS
 62
     7
  5
2E3
  0
BLOCK
  8
1
  6
CONTINUOUS
 62
   240
  5
31C
  2
$X14
 70
     0
 10
0.0
 20
0.0
 30
0.0
  3
$N14
  0
LINE
  8
1
  6
CONTINUOUS
 62
   240
  5
31D
 10
4.116083
 20
10.32525
 30
0.0
 11
4.66275
 21
10.009583
 31
0.0
  0
LINE
  8
1
  6
CONTINUOUS
 62
   240
  5
31E
 10
7.59
 20
8.319583
 30
0.0
 11
8.1985
 21
7.96825
 31
0.0
  0
LINE
  8
1
  6
CONTINUOUS
 62
   240
  5
31F
 10
4.13275
 20
10.17125
 30
0.0
 11
4.66275
 21
9.86525
 31
0.0
  0
LINE
  8
1
  6
CONTINUOUS
 62
   240
  5
320
 10
7.618667
 20
8.158667
 30
0.0
 11
8.230917
 21
7.805167
 31
0.0
  0
LINE
  8
1
  6
CONTINUOUS
 62
   240
  5
321
 10
4.122917
 20
10.032583
 30
0.0
 11
4.66275
 21
9.720917
 31
0.0
  0
LINE
  8
1
  6
CONTINUOUS
 62
   240
  5
322
 10
7.643417
 20
8.0
 30
0.0
 11
8.284917
 21
7.629667
 31
0.0
  0
LINE
  8
1
  6
CONTINUOUS
 62
   240
  5
323
 10
4.101083
 20
9.900833
 30
0.0
 11
4.66275
 21
9.576583
 31
0.0
  0
LINE
  8
1
  6
CONTINUOUS
 62
   240
  5
324
 10
7.6645
 20
7.8435
 30
0.0
 11
8.2705
 21
7.493667
 31
0.0
  0
LINE
  8
1
  6
CONTINUOUS
 62
   240
  5
325
 10
4.094583
 20
9.760333
 30
0.0
 11
4.66275
 21
9.43225
 31
0.0
  0
LINE
  8
1
  6
CONTINUOUS
 62
   240
  5
326
 10
7.682
 20
7.689083
 30
0.0
 11
8.31325
 21
7.324667
 31
0.0
  0
LINE
  8
1
  6
CONTINUOUS
 62
   240
  5
327
 10
4.115167
 20
9.604083
 30
0.0
 11
4.66275
 21
9.287917
 31
0.0
  0
LINE
  8
1
  6
CONTINUOUS
 62
   240
  5
328
 10
7.696167
 20
7.536583
 30
0.0
 11
8.336667
 21
7.166833
 31
0.0
  0
LINE
  8
1
  6
CONTINUOUS
 62
   240
  5
329
 10
4.125833
 20
9.453583
 30
0.0
 11
4.66275
 21
9.143583
 31
0.0
  0
LINE
  8
1
  6
CONTINUOUS
 62
   240
  5
32A
 10
7.707083
 20
7.385917
 30
0.0
 11
8.31375
 21
7.035667
 31
0.0
  0
LINE
  8
1
  6
CONTINUOUS
 62
   240
  5
32B
 10
4.107
 20
9.320083
 30
0.0
 11
4.66275
 21
8.99925
 31
0.0
  0
LINE
  8
1
  6
CONTINUOUS
 62
   240
  5
32C
 10
7.714917
 20
7.237083
 30
0.0
 11
8.06
 21
7.037833
 31
0.0
  0
LINE
  8
1
  6
CONTINUOUS
 62
   240
  5
32D
 10
4.09975
 20
9.18
 30
0.0
 11
4.66275
 21
8.854917
 31
0.0
  0
LINE
  8
1
  6
CONTINUOUS
 62
   240
  5
32E
 10
7.71975
 20
7.089917
 30
0.0
 11
7.798083
 21
7.04475
 31
0.0
  0
LINE
  8
1
  6
CONTINUOUS
 62
   240
  5
32F
 10
4.11175
 20
9.028667
 30
0.0
 11
4.66275
 21
8.710583
 31
0.0
  0
LINE
  8
1
  6
CONTINUOUS
 62
   240
  5
330
 10
4.12375
 20
8.877417
 30
0.0
 11
4.66275
 21
8.56625
 31
0.0
  0
LINE
  8
1
  6
CONTINUOUS
 62
   240
  5
331
 10
4.119
 20
8.735833
 30
0.0
 11
4.66275
 21
8.421917
 31
0.0
  0
LINE
  8
1
  6
CONTINUOUS
 62
   240
  5
332
 10
4.10325
 20
8.600583
 30
0.0
 11
4.66275
 21
8.277583
 31
0.0
  0
LINE
  8
1
  6
CONTINUOUS
 62
   240
  5
333
 10
4.087417
 20
8.465333
 30
0.0
 11
4.66275
 21
8.13325
 31
0.0
  0
LINE
  8
1
  6
CONTINUOUS
 62
   240
  5
334
 10
4.115167
 20
8.305
 30
0.0
 11
4.66275
 21
7.988917
 31
0.0
  0
LINE
  8
1
  6
CONTINUOUS
 62
   240
  5
335
 10
4.139583
 20
8.146583
 30
0.0
 11
4.66275
 21
7.844583
 31
0.0
  0
LINE
  8
1
  6
CONTINUOUS
 62
   240
  5
336
 10
4.11325
 20
8.017417
 30
0.0
 11
4.66275
 21
7.70025
 31
0.0
  0
LINE
  8
1
  6
CONTINUOUS
 62
   240
  5
337
 10
4.086917
 20
7.888333
 30
0.0
 11
4.66275
 21
7.555917
 31
0.0
  0
LINE
  8
1
  6
CONTINUOUS
 62
   240
  5
338
 10
4.113417
 20
7.728667
 30
0.0
 11
4.66275
 21
7.411583
 31
0.0
  0
LINE
  8
1
  6
CONTINUOUS
 62
   240
  5
339
 10
4.119167
 20
7.581
 30
0.0
 11
4.66275
 21
7.267167
 31
0.0
  0
LINE
  8
1
  6
CONTINUOUS
 62
   240
  5
33A
 10
4.1055
 20
7.444583
 30
0.0
 11
4.66275
 21
7.122833
 31
0.0
  0
LINE
  8
1
  6
CONTINUOUS
 62
   240
  5
33B
 10
4.10925
 20
7.298083
 30
0.0
 11
4.562417
 21
7.036417
 31
0.0
  0
LINE
  8
1
  6
CONTINUOUS
 62
   240
  5
33C
 10
4.1205
 20
7.14725
 30
0.0
 11
4.3265
 21
7.028333
 31
0.0
  0
LINE
  8
1
  6
CONTINUOUS
 62
   240
  5
33D
 10
4.088667
 20
10.485417
 30
0.0
 11
4.66275
 21
10.154
 31
0.0
  0
LINE
  8
1
  6
CONTINUOUS
 62
   240
  5
33E
 10
7.557167
 20
8.482833
 30
0.0
 11
8.222833
 21
8.0985
 31
0.0
  0
LINE
  8
1
  6
CONTINUOUS
 62
   240
  5
33F
 10
4.109917
 20
10.617417
 30
0.0
 11
4.66275
 21
10.298333
 31
0.0
  0
LINE
  8
1
  6
CONTINUOUS
 62
   240
  5
340
 10
7.52
 20
8.648667
 30
0.0
 11
8.1875
 21
8.26325
 31
0.0
  0
LINE
  8
1
  6
CONTINUOUS
 62
   240
  5
341
 10
4.1215
 20
10.755083
 30
0.0
 11
4.66275
 21
10.442667
 31
0.0
  0
LINE
  8
1
  6
CONTINUOUS
 62
   240
  5
342
 10
7.478167
 20
8.817167
 30
0.0
 11
8.122
 21
8.445417
 31
0.0
  0
LINE
  8
1
  6
CONTINUOUS
 62
   240
  5
343
 10
4.1215
 20
10.899417
 30
0.0
 11
4.66275
 21
10.587
 31
0.0
  0
LINE
  8
1
  6
CONTINUOUS
 62
   240
  5
344
 10
7.431333
 20
8.9885
 30
0.0
 11
8.1425
 21
8.577917
 31
0.0
  0
LINE
  8
1
  6
CONTINUOUS
 62
   240
  5
345
 10
4.1215
 20
11.04375
 30
0.0
 11
4.66275
 21
10.731333
 31
0.0
  0
LINE
  8
1
  6
CONTINUOUS
 62
   240
  5
346
 10
7.37925
 20
9.162917
 30
0.0
 11
8.148583
 21
8.71875
 31
0.0
  0
LINE
  8
1
  6
CONTINUOUS
 62
   240
  5
347
 10
4.1215
 20
11.188083
 30
0.0
 11
4.66275
 21
10.875667
 31
0.0
  0
LINE
  8
1
  6
CONTINUOUS
 62
   240
  5
348
 10
7.321333
 20
9.340667
 30
0.0
 11
8.0225
 21
8.935917
 31
0.0
  0
LINE
  8
1
  6
CONTINUOUS
 62
   240
  5
349
 10
4.31375
 20
11.221417
 30
0.0
 11
4.66275
 21
11.02
 31
0.0
  0
LINE
  8
1
  6
CONTINUOUS
 62
   240
  5
34A
 10
7.257167
 20
9.522083
 30
0.0
 11
8.004
 21
9.090917
 31
0.0
  0
LINE
  8
1
  6
CONTINUOUS
 62
   240
  5
34B
 10
4.56375
 20
11.221417
 30
0.0
 11
4.66275
 21
11.164333
 31
0.0
  0
LINE
  8
1
  6
CONTINUOUS
 62
   240
  5
34C
 10
7.186083
 20
9.707417
 30
0.0
 11
7.985583
 21
9.245917
 31
0.0
  0
LINE
  8
1
  6
CONTINUOUS
 62
   240
  5
34D
 10
7.1075
 20
9.897167
 30
0.0
 11
7.895417
 21
9.44225
 31
0.0
  0
LINE
  8
1
  6
CONTINUOUS
 62
   240
  5
34E
 10
7.0205
 20
10.09175
 30
0.0
 11
7.8725
 21
9.599833
 31
0.0
  0
LINE
  8
1
  6
CONTINUOUS
 62
   240
  5
34F
 10
6.924083
 20
10.29175
 30
0.0
 11
7.8045
 21
9.783417
 31
0.0
  0
LINE
  8
1
  6
CONTINUOUS
 62
   240
  5
350
 10
6.816833
 20
10.498
 30
0.0
 11
7.711417
 21
9.9815
 31
0.0
  0
LINE
  8
1
  6
CONTINUOUS
 62
   240
  5
351
 10
6.697167
 20
10.711417
 30
0.0
 11
7.701917
 21
10.131333
 31
0.0
  0
LINE
  8
1
  6
CONTINUOUS
 62
   240
  5
352
 10
6.56275
 20
10.933333
 30
0.0
 11
7.59075
 21
10.339833
 31
0.0
  0
LINE
  8
1
  6
CONTINUOUS
 62
   240
  5
353
 10
6.410667
 20
11.1655
 30
0.0
 11
7.488167
 21
10.543417
 31
0.0
  0
LINE
  8
1
  6
CONTINUOUS
 62
   240
  5
354
 10
6.525417
 20
11.243583
 30
0.0
 11
7.334
 21
10.77675
 31
0.0
  0
LINE
  8
1
  6
CONTINUOUS
 62
   240
  5
355
 10
6.775417
 20
11.243583
 30
0.0
 11
7.275667
 21
10.95475
 31
0.0
  0
LINE
  8
1
  6
CONTINUOUS
 62
   240
  5
356
 10
7.025417
 20
11.243583
 30
0.0
 11
7.06375
 21
11.2215
 31
0.0
  0
ENDBLK
  8
1
  6
CONTINUOUS
 62
   240
  5
357
  0
BLOCK
  8
1
  6
CONTINUOUS
 62
   240
  5
3B5
  2
$X15
 70
     0
 10
0.0
 20
0.0
 30
0.0
  3
$N15
  0
LINE
  8
1
  6
CONTINUOUS
 62
   240
  5
3B6
 10
4.324417
 20
11.21875
 30
0.0
 11
4.34475
 21
11.239083
 31
0.0
  0
LINE
  8
1
  6
CONTINUOUS
 62
   240
  5
3B7
 10
4.671333
 20
11.565583
 30
0.0
 11
4.808167
 21
11.702417
 31
0.0
  0
LINE
  8
1
  6
CONTINUOUS
 62
   240
  5
3B8
 10
4.671333
 20
11.654
 30
0.0
 11
4.7665
 21
11.749167
 31
0.0
  0
LINE
  8
1
  6
CONTINUOUS
 62
   240
  5
3B9
 10
4.671333
 20
11.742333
 30
0.0
 11
4.737917
 21
11.809
 31
0.0
  0
LINE
  8
1
  6
CONTINUOUS
 62
   240
  5
3BA
 10
4.412833
 20
11.21875
 30
0.0
 11
4.4595
 21
11.265417
 31
0.0
  0
LINE
  8
1
  6
CONTINUOUS
 62
   240
  5
3BB
 10
4.671333
 20
11.477167
 30
0.0
 11
4.76075
 21
11.566667
 31
0.0
  0
LINE
  8
1
  6
CONTINUOUS
 62
   240
  5
3BC
 10
4.50125
 20
11.21875
 30
0.0
 11
4.551417
 21
11.268917
 31
0.0
  0
LINE
  8
1
  6
CONTINUOUS
 62
   240
  5
3BD
 10
4.671333
 20
11.388833
 30
0.0
 11
4.751167
 21
11.468667
 31
0.0
  0
LINE
  8
1
  6
CONTINUOUS
 62
   240
  5
3BE
 10
4.589583
 20
11.21875
 30
0.0
 11
4.751167
 21
11.38025
 31
0.0
  0
LINE
  8
1
  6
CONTINUOUS
 62
   240
  5
3BF
 10
4.678
 20
11.21875
 30
0.0
 11
4.751167
 21
11.291833
 31
0.0
  0
ENDBLK
  8
1
  6
CONTINUOUS
 62
   240
  5
3C0
  0
BLOCK
  8
1
  6
CONTINUOUS
 62
   240
  5
3CE
  2
$X16
 70
     0
 10
0.0
 20
0.0
 30
0.0
  3
$N16
  0
LINE
  8
1
  6
CONTINUOUS
 62
   240
  5
3CF
 10
6.233583
 20
11.27175
 30
0.0
 11
6.313417
 21
11.351583
 31
0.0
  0
LINE
  8
1
  6
CONTINUOUS
 62
   240
  5
3D0
 10
6.233583
 20
11.360083
 30
0.0
 11
6.313417
 21
11.439917
 31
0.0
  0
LINE
  8
1
  6
CONTINUOUS
 62
   240
  5
3D1
 10
6.233583
 20
11.4485
 30
0.0
 11
6.313417
 21
11.528333
 31
0.0
  0
LINE
  8
1
  6
CONTINUOUS
 62
   240
  5
3D2
 10
6.233583
 20
11.536917
 30
0.0
 11
6.313417
 21
11.61675
 31
0.0
  0
LINE
  8
1
  6
CONTINUOUS
 62
   240
  5
3D3
 10
6.2085
 20
11.600167
 30
0.0
 11
6.313417
 21
11.705083
 31
0.0
  0
LINE
  8
1
  6
CONTINUOUS
 62
   240
  5
3D4
 10
6.180583
 20
11.660667
 30
0.0
 11
6.313417
 21
11.7935
 31
0.0
  0
LINE
  8
1
  6
CONTINUOUS
 62
   240
  5
3D5
 10
6.176583
 20
11.745
 30
0.0
 11
6.180667
 21
11.749167
 31
0.0
  0
LINE
  8
1
  6
CONTINUOUS
 62
   240
  5
3D6
 10
6.237417
 20
11.805833
 30
0.0
 11
6.2405
 21
11.809
 31
0.0
  0
LINE
  8
1
  6
CONTINUOUS
 62
   240
  5
3D7
 10
6.293833
 20
11.243583
 30
0.0
 11
6.346917
 21
11.296667
 31
0.0
  0
LINE
  8
1
  6
CONTINUOUS
 62
   240
  5
3D8
 10
6.38225
 20
11.243583
 30
0.0
 11
6.435667
 21
11.297
 31
0.0
  0
LINE
  8
1
  6
CONTINUOUS
 62
   240
  5
3D9
 10
6.470583
 20
11.243583
 30
0.0
 11
6.520833
 21
11.29375
 31
0.0
  0
LINE
  8
1
  6
CONTINUOUS
 62
   240
  5
3DA
 10
6.559
 20
11.243583
 30
0.0
 11
6.602417
 21
11.287
 31
0.0
  0
LINE
  8
1
  6
CONTINUOUS
 62
   240
  5
3DB
 10
6.647417
 20
11.243583
 30
0.0
 11
6.647583
 21
11.243833
 31
0.0
  0
ENDBLK
  8
1
  6
CONTINUOUS
 62
   240
  5
3DC
  0
BLOCK
  8
1
  6
CONTINUOUS
 62
   240
  5
667
  2
$X33
 70
     0
 10
0.0
 20
0.0
 30
0.0
  3
$N33
  0
LINE
  8
1
  6
CONTINUOUS
 62
   240
  5
668
 10
9.879667
 20
15.713333
 30
0.0
 11
10.267167
 21
16.100833
 31
0.0
  0
LINE
  8
1
  6
CONTINUOUS
 62
   240
  5
669
 10
12.449917
 20
18.283583
 30
0.0
 11
12.837417
 21
18.671083
 31
0.0
  0
LINE
  8
1
  6
CONTINUOUS
 62
   240
  5
66A
 10
9.8145
 20
15.780667
 30
0.0
 11
10.202417
 21
16.168583
 31
0.0
  0
LINE
  8
1
  6
CONTINUOUS
 62
   240
  5
66B
 10
12.382167
 20
18.348333
 30
0.0
 11
12.770083
 21
18.73625
 31
0.0
  0
LINE
  8
1
  6
CONTINUOUS
 62
   240
  5
66C
 10
9.75225
 20
15.851
 30
0.0
 11
10.141583
 21
16.240417
 31
0.0
  0
LINE
  8
1
  6
CONTINUOUS
 62
   240
  5
66D
 10
12.310333
 20
18.409167
 30
0.0
 11
12.69975
 21
18.7985
 31
0.0
  0
LINE
  8
1
  6
CONTINUOUS
 62
   240
  5
66E
 10
9.693
 20
15.924417
 30
0.0
 11
10.085
 21
16.316333
 31
0.0
  0
LINE
  8
1
  6
CONTINUOUS
 62
   240
  5
66F
 10
12.234417
 20
18.46575
 30
0.0
 11
12.626333
 21
18.85775
 31
0.0
  0
LINE
  8
1
  6
CONTINUOUS
 62
   240
  5
670
 10
9.636833
 20
16.000833
 30
0.0
 11
10.0325
 21
16.3965
 31
0.0
  0
LINE
  8
1
  6
CONTINUOUS
 62
   240
  5
671
 10
12.15425
 20
18.51825
 30
0.0
 11
12.549917
 21
18.913917
 31
0.0
  0
LINE
  8
1
  6
CONTINUOUS
 62
   240
  5
672
 10
9.583833
 20
16.080333
 30
0.0
 11
9.9845
 21
16.481
 31
0.0
  0
LINE
  8
1
  6
CONTINUOUS
 62
   240
  5
673
 10
12.06975
 20
18.56625
 30
0.0
 11
12.470417
 21
18.966917
 31
0.0
  0
LINE
  8
1
  6
CONTINUOUS
 62
   240
  5
674
 10
9.533917
 20
16.163083
 30
0.0
 11
9.941083
 21
16.570167
 31
0.0
  0
LINE
  8
1
  6
CONTINUOUS
 62
   240
  5
675
 10
11.980583
 20
18.609667
 30
0.0
 11
12.387667
 21
19.016833
 31
0.0
  0
LINE
  8
1
  6
CONTINUOUS
 62
   240
  5
676
 10
9.487417
 20
16.249083
 30
0.0
 11
9.902583
 21
16.664333
 31
0.0
  0
LINE
  8
1
  6
CONTINUOUS
 62
   240
  5
677
 10
11.886417
 20
18.648167
 30
0.0
 11
12.301667
 21
19.063333
 31
0.0
  0
LINE
  8
1
  6
CONTINUOUS
 62
   240
  5
678
 10
9.444333
 20
16.338583
 30
0.0
 11
9.8695
 21
16.76375
 31
0.0
  0
LINE
  8
1
  6
CONTINUOUS
 62
   240
  5
679
 10
11.787
 20
18.68125
 30
0.0
 11
12.212167
 21
19.106417
 31
0.0
  0
LINE
  8
1
  6
CONTINUOUS
 62
   240
  5
67A
 10
9.404833
 20
16.43175
 30
0.0
 11
9.842333
 21
16.86925
 31
0.0
  0
LINE
  8
1
  6
CONTINUOUS
 62
   240
  5
67B
 10
11.6815
 20
18.708417
 30
0.0
 11
12.119
 21
19.145917
 31
0.0
  0
LINE
  8
1
  6
CONTINUOUS
 62
   240
  5
67C
 10
9.36925
 20
16.528667
 30
0.0
 11
9.822
 21
16.981417
 31
0.0
  0
LINE
  8
1
  6
CONTINUOUS
 62
   240
  5
67D
 10
11.569333
 20
18.72875
 30
0.0
 11
12.022083
 21
19.1815
 31
0.0
  0
LINE
  8
1
  6
CONTINUOUS
 62
   240
  5
67E
 10
9.33775
 20
16.62975
 30
0.0
 11
9.8095
 21
17.1015
 31
0.0
  0
LINE
  8
1
  6
CONTINUOUS
 62
   240
  5
67F
 10
11.44925
 20
18.74125
 30
0.0
 11
11.921
 21
19.213
 31
0.0
  0
LINE
  8
1
  6
CONTINUOUS
 62
   240
  5
680
 10
9.31075
 20
16.735333
 30
0.0
 11
9.806583
 21
17.231167
 31
0.0
  0
LINE
  8
1
  6
CONTINUOUS
 62
   240
  5
681
 10
11.319583
 20
18.744167
 30
0.0
 11
11.815417
 21
19.24
 31
0.0
  0
LINE
  8
1
  6
CONTINUOUS
 62
   240
  5
682
 10
9.288583
 20
16.845833
 30
0.0
 11
9.815917
 21
17.373083
 31
0.0
  0
LINE
  8
1
  6
CONTINUOUS
 62
   240
  5
683
 10
11.177667
 20
18.734833
 30
0.0
 11
11.704917
 21
19.262167
 31
0.0
  0
LINE
  8
1
  6
CONTINUOUS
 62
   240
  5
684
 10
9.271917
 20
16.96175
 30
0.0
 11
9.842167
 21
17.531917
 31
0.0
  0
LINE
  8
1
  6
CONTINUOUS
 62
   240
  5
685
 10
11.018833
 20
18.708583
 30
0.0
 11
11.589
 21
19.278833
 31
0.0
  0
LINE
  8
1
  6
CONTINUOUS
 62
   240
  5
686
 10
9.2615
 20
17.083833
 30
0.0
 11
9.895333
 21
17.717667
 31
0.0
  0
LINE
  8
1
  6
CONTINUOUS
 62
   240
  5
687
 10
10.833083
 20
18.655417
 30
0.0
 11
11.466917
 21
19.28925
 31
0.0
  0
LINE
  8
1
  6
CONTINUOUS
 62
   240
  5
688
 10
9.25825
 20
17.213167
 30
0.0
 11
10.006667
 21
17.961667
 31
0.0
  0
LINE
  8
1
  6
CONTINUOUS
 62
   240
  5
689
 10
10.589083
 20
18.544083
 30
0.0
 11
11.337583
 21
19.2925
 31
0.0
  0
LINE
  8
1
  6
CONTINUOUS
 62
   240
  5
68A
 10
9.263583
 20
17.351167
 30
0.0
 11
11.199583
 21
19.287167
 31
0.0
  0
LINE
  8
1
  6
CONTINUOUS
 62
   240
  5
68B
 10
9.279667
 20
17.49975
 30
0.0
 11
11.051
 21
19.271083
 31
0.0
  0
LINE
  8
1
  6
CONTINUOUS
 62
   240
  5
68C
 10
9.30975
 20
17.662417
 30
0.0
 11
10.888333
 21
19.241
 31
0.0
  0
LINE
  8
1
  6
CONTINUOUS
 62
   240
  5
68D
 10
9.359833
 20
17.845167
 30
0.0
 11
10.705583
 21
19.190917
 31
0.0
  0
LINE
  8
1
  6
CONTINUOUS
 62
   240
  5
68E
 10
9.44325
 20
18.061083
 30
0.0
 11
10.489667
 21
19.1075
 31
0.0
  0
LINE
  8
1
  6
CONTINUOUS
 62
   240
  5
68F
 10
9.607
 20
18.357417
 30
0.0
 11
10.193333
 21
18.94375
 31
0.0
  0
LINE
  8
1
  6
CONTINUOUS
 62
   240
  5
690
 10
9.947833
 20
15.648917
 30
0.0
 11
10.336
 21
16.037083
 31
0.0
  0
LINE
  8
1
  6
CONTINUOUS
 62
   240
  5
691
 10
12.513667
 20
18.214667
 30
0.0
 11
12.901833
 21
18.602917
 31
0.0
  0
LINE
  8
1
  6
CONTINUOUS
 62
   240
  5
692
 10
10.019
 20
15.5875
 30
0.0
 11
10.408917
 21
15.977417
 31
0.0
  0
LINE
  8
1
  6
CONTINUOUS
 62
   240
  5
693
 10
12.573333
 20
18.141833
 30
0.0
 11
12.96325
 21
18.53175
 31
0.0
  0
LINE
  8
1
  6
CONTINUOUS
 62
   240
  5
694
 10
10.093167
 20
15.529083
 30
0.0
 11
10.486
 21
15.921833
 31
0.0
  0
LINE
  8
1
  6
CONTINUOUS
 62
   240
  5
695
 10
12.628917
 20
18.06475
 30
0.0
 11
13.021667
 21
18.457583
 31
0.0
  0
LINE
  8
1
  6
CONTINUOUS
 62
   240
  5
696
 10
10.170417
 20
15.473667
 30
0.0
 11
10.56725
 21
15.870583
 31
0.0
  0
LINE
  8
1
  6
CONTINUOUS
 62
   240
  5
697
 10
12.680167
 20
17.9835
 30
0.0
 11
13.077083
 21
18.380333
 31
0.0
  0
LINE
  8
1
  6
CONTINUOUS
 62
   240
  5
698
 10
10.25075
 20
15.4215
 30
0.0
 11
10.653
 21
15.82375
 31
0.0
  0
LINE
  8
1
  6
CONTINUOUS
 62
   240
  5
699
 10
12.727
 20
17.89775
 30
0.0
 11
13.12925
 21
18.3
 31
0.0
  0
LINE
  8
1
  6
CONTINUOUS
 62
   240
  5
69A
 10
10.334333
 20
15.3725
 30
0.0
 11
10.7435
 21
15.781583
 31
0.0
  0
LINE
  8
1
  6
CONTINUOUS
 62
   240
  5
69B
 10
12.769167
 20
17.80725
 30
0.0
 11
13.17825
 21
18.216417
 31
0.0
  0
LINE
  8
1
  6
CONTINUOUS
 62
   240
  5
69C
 10
10.421333
 20
15.326833
 30
0.0
 11
10.839
 21
15.7445
 31
0.0
  0
LINE
  8
1
  6
CONTINUOUS
 62
   240
  5
69D
 10
12.80625
 20
17.71175
 30
0.0
 11
13.223917
 21
18.129417
 31
0.0
  0
LINE
  8
1
  6
CONTINUOUS
 62
   240
  5
69E
 10
10.51175
 20
15.28475
 30
0.0
 11
10.94
 21
15.712917
 31
0.0
  0
LINE
  8
1
  6
CONTINUOUS
 62
   240
  5
69F
 10
12.837833
 20
17.61075
 30
0.0
 11
13.266
 21
18.039
 31
0.0
  0
LINE
  8
1
  6
CONTINUOUS
 62
   240
  5
6A0
 10
10.605833
 20
15.24625
 30
0.0
 11
11.047083
 21
15.6875
 31
0.0
  0
LINE
  8
1
  6
CONTINUOUS
 62
   240
  5
6A1
 10
12.86325
 20
17.503667
 30
0.0
 11
13.3045
 21
17.944917
 31
0.0
  0
LINE
  8
1
  6
CONTINUOUS
 62
   240
  5
6A2
 10
10.703917
 20
15.21175
 30
0.0
 11
11.161333
 21
15.669083
 31
0.0
  0
LINE
  8
1
  6
CONTINUOUS
 62
   240
  5
6A3
 10
12.881667
 20
17.389417
 30
0.0
 11
13.339
 21
17.846833
 31
0.0
  0
LINE
  8
1
  6
CONTINUOUS
 62
   240
  5
6A4
 10
10.806167
 20
15.181417
 30
0.0
 11
11.28375
 21
15.659
 31
0.0
  0
LINE
  8
1
  6
CONTINUOUS
 62
   240
  5
6A5
 10
12.89175
 20
17.267
 30
0.0
 11
13.369333
 21
17.744583
 31
0.0
  0
LINE
  8
1
  6
CONTINUOUS
 62
   240
  5
6A6
 10
10.913
 20
15.155583
 30
0.0
 11
11.416333
 21
15.659
 31
0.0
  0
LINE
  8
1
  6
CONTINUOUS
 62
   240
  5
6A7
 10
12.89175
 20
17.134417
 30
0.0
 11
13.395167
 21
17.63775
 31
0.0
  0
LINE
  8
1
  6
CONTINUOUS
 62
   240
  5
6A8
 10
11.024833
 20
15.134917
 30
0.0
 11
11.562167
 21
15.67225
 31
0.0
  0
LINE
  8
1
  6
CONTINUOUS
 62
   240
  5
6A9
 10
12.8785
 20
16.988583
 30
0.0
 11
13.415833
 21
17.525917
 31
0.0
  0
LINE
  8
1
  6
CONTINUOUS
 62
   240
  5
6AA
 10
11.142333
 20
15.119833
 30
0.0
 11
11.726833
 21
15.704333
 31
0.0
  0
LINE
  8
1
  6
CONTINUOUS
 62
   240
  5
6AB
 10
12.846417
 20
16.823917
 30
0.0
 11
13.430917
 21
17.408417
 31
0.0
  0
LINE
  8
1
  6
CONTINUOUS
 62
   240
  5
6AC
 10
11.26625
 20
15.111167
 30
0.0
 11
11.923083
 21
15.768
 31
0.0
  0
LINE
  8
1
  6
CONTINUOUS
 62
   240
  5
6AD
 10
12.78275
 20
16.627667
 30
0.0
 11
13.439583
 21
17.2845
 31
0.0
  0
LINE
  8
1
  6
CONTINUOUS
 62
   240
  5
6AE
 10
11.39775
 20
15.110083
 30
0.0
 11
12.201667
 21
15.914
 31
0.0
  0
LINE
  8
1
  6
CONTINUOUS
 62
   240
  5
6AF
 10
12.63675
 20
16.349083
 30
0.0
 11
13.440667
 21
17.153
 31
0.0
  0
LINE
  8
1
  6
CONTINUOUS
 62
   240
  5
6B0
 10
11.538333
 20
15.118
 30
0.0
 11
13.43275
 21
17.012417
 31
0.0
  0
LINE
  8
1
  6
CONTINUOUS
 62
   240
  5
6B1
 10
11.538333
 20
15.118
 30
0.0
 11
13.43275
 21
17.012417
 31
0.0
  0
LINE
  8
1
  6
CONTINUOUS
 62
   240
  5
6B2
 10
11.69025
 20
15.137417
 30
0.0
 11
13.413333
 21
16.8605
 31
0.0
  0
LINE
  8
1
  6
CONTINUOUS
 62
   240
  5
6B3
 10
11.8575
 20
15.172083
 30
0.0
 11
13.378667
 21
16.69325
 31
0.0
  0
LINE
  8
1
  6
CONTINUOUS
 62
   240
  5
6B4
 10
12.04725
 20
15.22925
 30
0.0
 11
13.3215
 21
16.5035
 31
0.0
  0
LINE
  8
1
  6
CONTINUOUS
 62
   240
  5
6B5
 10
12.276833
 20
15.326167
 30
0.0
 11
13.224583
 21
16.273917
 31
0.0
  0
LINE
  8
1
  6
CONTINUOUS
 62
   240
  5
6B6
 10
12.631417
 20
15.54825
 30
0.0
 11
13.0025
 21
15.919333
 31
0.0
  0
ENDBLK
  8
1
  6
CONTINUOUS
 62
   240
  5
6B7
  0
BLOCK
  8
1
  6
CONTINUOUS
 62
   240
  5
6D8
  2
$X34
 70
     0
 10
0.0
 20
0.0
 30
0.0
  3
$N34
  0
LINE
  8
1
  6
CONTINUOUS
 62
   240
  5
6D9
 10
9.935083
 20
17.0945
 30
0.0
 11
10.2435
 21
17.403
 31
0.0
  0
LINE
  8
1
  6
CONTINUOUS
 62
   240
  5
6DA
 10
9.935083
 20
17.227083
 30
0.0
 11
10.2435
 21
17.535583
 31
0.0
  0
LINE
  8
1
  6
CONTINUOUS
 62
   240
  5
6DB
 10
9.935083
 20
17.359667
 30
0.0
 11
10.160167
 21
17.584833
 31
0.0
  0
LINE
  8
1
  6
CONTINUOUS
 62
   240
  5
6DC
 10
9.935083
 20
17.49225
 30
0.0
 11
10.027583
 21
17.584833
 31
0.0
  0
LINE
  8
1
  6
CONTINUOUS
 62
   240
  5
6DD
 10
9.935083
 20
16.961917
 30
0.0
 11
10.2435
 21
17.270417
 31
0.0
  0
LINE
  8
1
  6
CONTINUOUS
 62
   240
  5
6DE
 10
10.04325
 20
16.937583
 30
0.0
 11
10.2435
 21
17.137833
 31
0.0
  0
LINE
  8
1
  6
CONTINUOUS
 62
   240
  5
6DF
 10
10.175833
 20
16.937583
 30
0.0
 11
10.2435
 21
17.00525
 31
0.0
  0
LINE
  8
1
  6
CONTINUOUS
 62
   240
  5
6E0
 10
10.2435
 20
17.068417
 30
0.0
 11
9.935083
 21
17.376833
 31
0.0
  0
LINE
  8
1
  6
CONTINUOUS
 62
   240
  5
6E1
 10
10.24175
 20
16.937583
 30
0.0
 11
9.935083
 21
17.24425
 31
0.0
  0
LINE
  8
1
  6
CONTINUOUS
 62
   240
  5
6E2
 10
10.109167
 20
16.937583
 30
0.0
 11
9.935083
 21
17.111667
 31
0.0
  0
LINE
  8
1
  6
CONTINUOUS
 62
   240
  5
6E3
 10
9.976583
 20
16.937583
 30
0.0
 11
9.935083
 21
16.979083
 31
0.0
  0
LINE
  8
1
  6
CONTINUOUS
 62
   240
  5
6E4
 10
10.2435
 20
17.201
 30
0.0
 11
9.935083
 21
17.509417
 31
0.0
  0
LINE
  8
1
  6
CONTINUOUS
 62
   240
  5
6E5
 10
10.2435
 20
17.333583
 30
0.0
 11
9.99225
 21
17.584833
 31
0.0
  0
LINE
  8
1
  6
CONTINUOUS
 62
   240
  5
6E6
 10
10.2435
 20
17.466167
 30
0.0
 11
10.124833
 21
17.584833
 31
0.0
  0
ENDBLK
  8
1
  6
CONTINUOUS
 62
   240
  5
6E7
  0
ENDSEC
  0
SECTION
  2
ENTITIES
  0
TEXT
  8
3
  6
CONTINUOUS
 62
     2
  5
2A
 10
124.321083
 20
17.871083
 30
0.0
 40
0.34
  1
NOTES
  7
MONOTXT
210
0.0
220
0.0
230
1.0
  0
LINE
  8
1
  6
CONTINUOUS
 62
   233
  5
2C
 10
111.6635
 20
4.873417
 30
0.0
 11
115.195917
 21
4.873417
 31
0.0
  0
LINE
  8
1
  6
CONTINUOUS
 62
   233
  5
2D
 10
115.195917
 20
4.873417
 30
0.0
 11
115.195917
 21
4.716
 31
0.0
  0
LINE
  8
1
  6
CONTINUOUS
 62
   233
  5
2E
 10
115.195917
 20
4.716
 30
0.0
 11
115.392167
 21
4.703917
 31
0.0
  0
LINE
  8
1
  6
CONTINUOUS
 62
   233
  5
2F
 10
115.392167
 20
4.703917
 30
0.0
 11
115.449833
 21
4.873417
 31
0.0
  0
LINE
  8
1
  6
CONTINUOUS
 62
   233
  5
30
 10
115.449833
 20
4.873417
 30
0.0
 11
115.584167
 21
4.873417
 31
0.0
  0
LINE
  8
1
  6
CONTINUOUS
 62
   233
  5
31
 10
115.584167
 20
4.873417
 30
0.0
 11
115.634583
 21
4.80075
 31
0.0
  0
LINE
  8
1
  6
CONTINUOUS
 62
   233
  5
32
 10
115.634583
 20
4.80075
 30
0.0
 11
115.588417
 21
4.667583
 31
0.0
  0
LINE
  8
1
  6
CONTINUOUS
 62
   233
  5
33
 10
115.588417
 20
4.667583
 30
0.0
 11
115.646083
 21
4.522167
 31
0.0
  0
LINE
  8
1
  6
CONTINUOUS
 62
   233
  5
34
 10
115.646083
 20
4.522167
 30
0.0
 11
115.6115
 21
4.292083
 31
0.0
  0
LINE
  8
1
  6
CONTINUOUS
 62
   233
  5
35
 10
115.6115
 20
4.292083
 30
0.0
 11
115.369083
 21
4.292083
 31
0.0
  0
LINE
  8
1
  6
CONTINUOUS
 62
   233
  5
36
 10
115.369083
 20
4.292083
 30
0.0
 11
114.734167
 21
4.267833
 31
0.0
  0
LINE
  8
1
  6
CONTINUOUS
 62
   233
  5
37
 10
114.734167
 20
4.267833
 30
0.0
 11
114.63025
 21
4.328417
 31
0.0
  0
LINE
  8
1
  6
CONTINUOUS
 62
   233
  5
38
 10
114.63025
 20
4.328417
 30
0.0
 11
114.087667
 21
4.28
 31
0.0
  0
LINE
  8
1
  6
CONTINUOUS
 62
   233
  5
39
 10
114.087667
 20
4.28
 30
0.0
 11
113.718333
 21
4.267833
 31
0.0
  0
LINE
  8
1
  6
CONTINUOUS
 62
   233
  5
3A
 10
113.718333
 20
4.267833
 30
0.0
 11
113.395083
 21
4.3405
 31
0.0
  0
LINE
  8
1
  6
CONTINUOUS
 62
   233
  5
3B
 10
113.395083
 20
4.3405
 30
0.0
 11
113.083417
 21
4.267833
 31
0.0
  0
LINE
  8
1
  6
CONTINUOUS
 62
   233
  5
3C
 10
113.083417
 20
4.267833
 30
0.0
 11
112.667833
 21
4.25575
 31
0.0
  0
LINE
  8
1
  6
CONTINUOUS
 62
   233
  5
3D
 10
112.667833
 20
4.25575
 30
0.0
 11
112.540833
 21
4.304167
 31
0.0
  0
LINE
  8
1
  6
CONTINUOUS
 62
   233
  5
3E
 10
112.540833
 20
4.304167
 30
0.0
 11
112.275333
 21
4.304167
 31
0.0
  0
LINE
  8
1
  6
CONTINUOUS
 62
   233
  5
3F
 10
112.275333
 20
4.304167
 30
0.0
 11
112.12525
 21
4.328417
 31
0.0
  0
LINE
  8
1
  6
CONTINUOUS
 62
   233
  5
40
 10
112.12525
 20
4.328417
 30
0.0
 11
111.9175
 21
4.25575
 31
0.0
  0
LINE
  8
1
  6
CONTINUOUS
 62
   233
  5
41
 10
111.9175
 20
4.25575
 30
0.0
 11
111.84825
 21
4.28
 31
0.0
  0
LINE
  8
1
  6
CONTINUOUS
 62
   233
  5
42
 10
111.84825
 20
4.28
 30
0.0
 11
111.709667
 21
4.28
 31
0.0
  0
LINE
  8
1
  6
CONTINUOUS
 62
   233
  5
43
 10
111.709667
 20
4.28
 30
0.0
 11
111.640417
 21
4.3405
 31
0.0
  0
LINE
  8
1
  6
CONTINUOUS
 62
   233
  5
44
 10
111.640417
 20
4.3405
 30
0.0
 11
111.6635
 21
4.437417
 31
0.0
  0
LINE
  8
1
  6
CONTINUOUS
 62
   233
  5
45
 10
111.6635
 20
4.437417
 30
0.0
 11
111.6635
 21
4.546417
 31
0.0
  0
LINE
  8
1
  6
CONTINUOUS
 62
   233
  5
46
 10
111.6635
 20
4.546417
 30
0.0
 11
111.605833
 21
4.607
 31
0.0
  0
LINE
  8
1
  6
CONTINUOUS
 62
   233
  5
47
 10
111.605833
 20
4.607
 30
0.0
 11
111.628917
 21
4.776583
 31
0.0
  0
LINE
  8
1
  6
CONTINUOUS
 62
   233
  5
48
 10
111.628917
 20
4.776583
 30
0.0
 11
111.6635
 21
4.873417
 31
0.0
  0
INSERT
  8
1
  6
CONTINUOUS
 62
     2
  5
18A
  2
$X1
 10
98.382917
 20
-0.187333
 30
0.0
210
0.0
220
0.0
230
1.0
  0
LINE
  8
1
  6
CONTINUOUS
 62
   233
  5
18B
 10
112.229583
 20
4.873417
 30
0.0
 11
112.229583
 21
5.963917
 31
0.0
  0
LINE
  8
1
  6
CONTINUOUS
 62
   233
  5
18C
 10
112.229583
 20
5.963917
 30
0.0
 11
112.10175
 21
5.957167
 31
0.0
  0
LINE
  8
1
  6
CONTINUOUS
 62
   233
  5
18D
 10
112.10175
 20
5.957167
 30
0.0
 11
111.96125
 21
6.004083
 31
0.0
  0
LINE
  8
1
  6
CONTINUOUS
 62
   233
  5
18E
 10
111.96125
 20
6.004083
 30
0.0
 11
111.890917
 21
6.010833
 31
0.0
  0
LINE
  8
1
  6
CONTINUOUS
 62
   233
  5
18F
 10
111.890917
 20
6.010833
 30
0.0
 11
111.744
 21
5.970583
 31
0.0
  0
LINE
  8
1
  6
CONTINUOUS
 62
   233
  5
190
 10
111.744
 20
5.970583
 30
0.0
 11
111.6545
 21
6.0175
 31
0.0
  0
LINE
  8
1
  6
CONTINUOUS
 62
   233
  5
191
 10
111.6545
 20
6.0175
 30
0.0
 11
111.648083
 21
5.863333
 31
0.0
  0
LINE
  8
1
  6
CONTINUOUS
 62
   233
  5
192
 10
111.648083
 20
5.863333
 30
0.0
 11
111.622583
 21
5.7225
 31
0.0
  0
LINE
  8
1
  6
CONTINUOUS
 62
   233
  5
193
 10
111.622583
 20
5.7225
 30
0.0
 11
111.648083
 21
5.554917
 31
0.0
  0
LINE
  8
1
  6
CONTINUOUS
 62
   233
  5
194
 10
111.648083
 20
5.554917
 30
0.0
 11
111.648083
 21
5.407417
 31
0.0
  0
LINE
  8
1
  6
CONTINUOUS
 62
   233
  5
195
 10
111.648083
 20
5.407417
 30
0.0
 11
111.622583
 21
5.2935
 31
0.0
  0
LINE
  8
1
  6
CONTINUOUS
 62
   233
  5
196
 10
111.622583
 20
5.2935
 30
0.0
 11
111.64175
 21
5.172833
 31
0.0
  0
LINE
  8
1
  6
CONTINUOUS
 62
   233
  5
197
 10
111.64175
 20
5.172833
 30
0.0
 11
111.628917
 21
5.045417
 31
0.0
  0
LINE
  8
1
  6
CONTINUOUS
 62
   233
  5
198
 10
111.628917
 20
5.045417
 30
0.0
 11
111.66725
 21
4.944833
 31
0.0
  0
LINE
  8
1
  6
CONTINUOUS
 62
   233
  5
199
 10
111.66725
 20
4.944833
 30
0.0
 11
111.6635
 21
4.873417
 31
0.0
  0
LINE
  8
1
  6
CONTINUOUS
 62
   233
  5
19A
 10
115.195917
 20
4.873417
 30
0.0
 11
115.195917
 21
5.970583
 31
0.0
  0
LINE
  8
1
  6
CONTINUOUS
 62
   233
  5
19B
 10
115.195917
 20
5.970583
 30
0.0
 11
115.341333
 21
5.97725
 31
0.0
  0
LINE
  8
1
  6
CONTINUOUS
 62
   233
  5
19C
 10
115.341333
 20
5.97725
 30
0.0
 11
115.418
 21
5.937083
 31
0.0
  0
LINE
  8
1
  6
CONTINUOUS
 62
   233
  5
19D
 10
115.418
 20
5.937083
 30
0.0
 11
115.488333
 21
5.970583
 31
0.0
  0
LINE
  8
1
  6
CONTINUOUS
 62
   233
  5
19E
 10
115.488333
 20
5.970583
 30
0.0
 11
115.584167
 21
5.963917
 31
0.0
  0
LINE
  8
1
  6
CONTINUOUS
 62
   233
  5
19F
 10
115.584167
 20
5.963917
 30
0.0
 11
115.584167
 21
4.873417
 31
0.0
  0
INSERT
  8
1
  6
CONTINUOUS
 62
     2
  5
1DE
  2
$X2
 10
98.382917
 20
-0.187333
 30
0.0
210
0.0
220
0.0
230
1.0
  0
ARC
  8
1
  6
CONTINUOUS
 62
   233
  5
1DF
 10
113.686167
 20
5.895833
 30
0.0
 40
1.12374
 50
294.525775
 51
245.474219
210
0.0
220
0.0
230
1.0
  0
CIRCLE
  8
1
  6
CONTINUOUS
 62
   233
  5
1E0
 10
113.686167
 20
5.895833
 30
0.0
 40
1.02253
210
0.0
220
0.0
230
1.0
  0
ARC
  8
2
  6
HIDDEN
 62
     2
  5
1E2
 10
113.686167
 20
5.81675
 30
0.0
 40
1.052333
 50
243.687292
 51
296.312706
210
0.0
220
0.0
230
1.0
  0
INSERT
  8
1
  6
CONTINUOUS
 62
     7
  5
1F0
  2
D3
 10
112.900167
 20
4.262333
 30
0.0
210
0.0
220
0.0
230
1.0
  0
TEXT
  8
3
  6
CONTINUOUS
 62
   110
  5
1F2
 10
113.018167
 20
4.55075
 30
0.0
 40
0.125
  1
9" Minimum
  7
ROMANS
210
0.0
220
0.0
230
1.0
  0
TEXT
  8
3
  6
CONTINUOUS
 62
   110
  5
1F3
 10
116.007083
 20
5.395167
 30
0.0
 40
0.125
  1
Pre-cast
  7
ROMANS
210
0.0
220
0.0
230
1.0
  0
TEXT
  8
3
  6
CONTINUOUS
 62
   110
  5
1F4
 10
116.012
 20
5.1685
 30
0.0
 40
0.125
  1
Riser
  7
ROMANS
210
0.0
220
0.0
230
1.0
  0
SOLID
  8
3
  6
CONTINUOUS
 62
     2
  5
1F5
 10
115.709167
 20
5.326083
 30
0.0
 11
115.709167
 21
5.36775
 31
0.0
 12
115.584167
 22
5.346917
 32
0.0
 13
115.584167
 23
5.346917
 33
0.0
  0
LINE
  8
3
  6
CONTINUOUS
 62
     2
  5
1F6
 10
115.709167
 20
5.346917
 30
0.0
 11
115.9355
 21
5.346917
 31
0.0
  0
TEXT
  8
3
  6
CONTINUOUS
 62
   110
  5
1F7
 10
110.229667
 20
5.392083
 30
0.0
 40
0.125
  1
Concrete
  7
ROMANS
210
0.0
220
0.0
230
1.0
  0
TEXT
  8
3
  6
CONTINUOUS
 62
   110
  5
1F8
 10
110.230083
 20
5.14525
 30
0.0
 40
0.125
  1
or Brick
  7
ROMANS
210
0.0
220
0.0
230
1.0
  0
SOLID
  8
3
  6
CONTINUOUS
 62
     2
  5
1F9
 10
111.498583
 20
5.307583
 30
0.0
 11
111.498583
 21
5.265917
 31
0.0
 12
111.623583
 22
5.28675
 32
0.0
 13
111.623583
 23
5.28675
 33
0.0
  0
LINE
  8
3
  6
CONTINUOUS
 62
     2
  5
1FA
 10
111.498583
 20
5.28675
 30
0.0
 11
111.2005
 21
5.28675
 31
0.0
  0
TEXT
  8
3
  6
CONTINUOUS
 62
   110
  5
1FB
 10
111.714167
 20
2.99
 30
0.0
 40
0.14
  1
(For Use With Storm Sewers Only)
  7
MONOTXT
210
0.0
220
0.0
230
1.0
  0
LINE
  8
1
  6
CONTINUOUS
 62
   233
  5
1FC
 10
102.487667
 20
6.612583
 30
0.0
 11
102.638333
 21
6.59
 31
0.0
  0
LINE
  8
1
  6
CONTINUOUS
 62
   233
  5
1FD
 10
102.638333
 20
6.59
 30
0.0
 11
103.0905
 21
6.57875
 31
0.0
  0
LINE
  8
1
  6
CONTINUOUS
 62
   233
  5
1FE
 10
103.0905
 20
6.57875
 30
0.0
 11
103.252
 21
6.556167
 31
0.0
  0
LINE
  8
1
  6
CONTINUOUS
 62
   233
  5
1FF
 10
103.252
 20
6.556167
 30
0.0
 11
103.488833
 21
6.57875
 31
0.0
  0
LINE
  8
1
  6
CONTINUOUS
 62
   233
  5
200
 10
103.488833
 20
6.57875
 30
0.0
 11
103.682583
 21
6.57875
 31
0.0
  0
LINE
  8
1
  6
CONTINUOUS
 62
   233
  5
201
 10
103.682583
 20
6.57875
 30
0.0
 11
104.156333
 21
6.612583
 31
0.0
  0
LINE
  8
1
  6
CONTINUOUS
 62
   233
  5
202
 10
104.156333
 20
6.612583
 30
0.0
 11
104.66225
 21
6.57875
 31
0.0
  0
LINE
  8
1
  6
CONTINUOUS
 62
   233
  5
203
 10
104.66225
 20
6.57875
 30
0.0
 11
105.200583
 21
6.601333
 31
0.0
  0
LINE
  8
1
  6
CONTINUOUS
 62
   233
  5
204
 10
105.200583
 20
6.601333
 30
0.0
 11
105.426667
 21
6.57875
 31
0.0
  0
LINE
  8
1
  6
CONTINUOUS
 62
   233
  5
205
 10
105.426667
 20
6.57875
 30
0.0
 11
105.5235
 21
6.567417
 31
0.0
  0
LINE
  8
1
  6
CONTINUOUS
 62
   233
  5
206
 10
105.5235
 20
6.567417
 30
0.0
 11
106.061833
 21
6.612583
 31
0.0
  0
LINE
  8
1
  6
CONTINUOUS
 62
   233
  5
207
 10
106.061833
 20
6.612583
 30
0.0
 11
106.664667
 21
6.612583
 31
0.0
  0
LINE
  8
1
  6
CONTINUOUS
 62
   233
  5
208
 10
106.664667
 20
6.612583
 30
0.0
 11
106.664667
 21
6.10325
 31
0.0
  0
LINE
  8
1
  6
CONTINUOUS
 62
   233
  5
209
 10
106.664667
 20
6.10325
 30
0.0
 11
106.6755
 21
6.025333
 31
0.0
  0
LINE
  8
1
  6
CONTINUOUS
 62
   233
  5
20A
 10
106.6755
 20
6.025333
 30
0.0
 11
106.740083
 21
5.7655
 31
0.0
  0
LINE
  8
1
  6
CONTINUOUS
 62
   233
  5
20B
 10
106.740083
 20
5.7655
 30
0.0
 11
106.68625
 21
5.4945
 31
0.0
  0
LINE
  8
1
  6
CONTINUOUS
 62
   233
  5
20C
 10
106.68625
 20
5.4945
 30
0.0
 11
106.70775
 21
5.246
 31
0.0
  0
LINE
  8
1
  6
CONTINUOUS
 62
   233
  5
20D
 10
106.70775
 20
5.246
 30
0.0
 11
106.68625
 21
4.963667
 31
0.0
  0
LINE
  8
1
  6
CONTINUOUS
 62
   233
  5
20E
 10
106.68625
 20
4.963667
 30
0.0
 11
106.653917
 21
4.715167
 31
0.0
  0
LINE
  8
1
  6
CONTINUOUS
 62
   233
  5
20F
 10
106.653917
 20
4.715167
 30
0.0
 11
106.7185
 21
4.478
 31
0.0
  0
LINE
  8
1
  6
CONTINUOUS
 62
   233
  5
210
 10
106.7185
 20
4.478
 30
0.0
 11
106.6755
 21
4.35375
 31
0.0
  0
LINE
  8
1
  6
CONTINUOUS
 62
   233
  5
211
 10
106.6755
 20
4.35375
 30
0.0
 11
106.68625
 21
4.139167
 31
0.0
  0
LINE
  8
1
  6
CONTINUOUS
 62
   233
  5
212
 10
106.68625
 20
4.139167
 30
0.0
 11
106.664667
 21
4.014917
 31
0.0
  0
LINE
  8
1
  6
CONTINUOUS
 62
   233
  5
213
 10
106.664667
 20
4.014917
 30
0.0
 11
106.68625
 21
3.811583
 31
0.0
  0
LINE
  8
1
  6
CONTINUOUS
 62
   233
  5
214
 10
106.68625
 20
3.811583
 30
0.0
 11
106.514
 21
3.811583
 31
0.0
  0
LINE
  8
1
  6
CONTINUOUS
 62
   233
  5
215
 10
106.514
 20
3.811583
 30
0.0
 11
106.18025
 21
3.743833
 31
0.0
  0
LINE
  8
1
  6
CONTINUOUS
 62
   233
  5
216
 10
106.18025
 20
3.743833
 30
0.0
 11
105.900333
 21
3.811583
 31
0.0
  0
LINE
  8
1
  6
CONTINUOUS
 62
   233
  5
217
 10
105.900333
 20
3.811583
 30
0.0
 11
105.566583
 21
3.822917
 31
0.0
  0
LINE
  8
1
  6
CONTINUOUS
 62
   233
  5
218
 10
105.566583
 20
3.822917
 30
0.0
 11
105.319
 21
3.766417
 31
0.0
  0
LINE
  8
1
  6
CONTINUOUS
 62
   233
  5
219
 10
105.319
 20
3.766417
 30
0.0
 11
104.909917
 21
3.85675
 31
0.0
  0
LINE
  8
1
  6
CONTINUOUS
 62
   233
  5
21A
 10
104.909917
 20
3.85675
 30
0.0
 11
104.565417
 21
3.811583
 31
0.0
  0
LINE
  8
1
  6
CONTINUOUS
 62
   233
  5
21B
 10
104.565417
 20
3.811583
 30
0.0
 11
104.048667
 21
3.789
 31
0.0
  0
LINE
  8
1
  6
CONTINUOUS
 62
   233
  5
21C
 10
104.048667
 20
3.789
 30
0.0
 11
103.854833
 21
3.789
 31
0.0
  0
LINE
  8
1
  6
CONTINUOUS
 62
   233
  5
21D
 10
103.854833
 20
3.789
 30
0.0
 11
103.58575
 21
3.8455
 31
0.0
  0
LINE
  8
1
  6
CONTINUOUS
 62
   233
  5
21E
 10
103.58575
 20
3.8455
 30
0.0
 11
103.370417
 21
3.91325
 31
0.0
  0
LINE
  8
1
  6
CONTINUOUS
 62
   233
  5
21F
 10
103.370417
 20
3.91325
 30
0.0
 11
103.198167
 21
3.800333
 31
0.0
  0
LINE
  8
1
  6
CONTINUOUS
 62
   233
  5
220
 10
103.198167
 20
3.800333
 30
0.0
 11
102.93975
 21
3.8455
 31
0.0
  0
LINE
  8
1
  6
CONTINUOUS
 62
   233
  5
221
 10
102.93975
 20
3.8455
 30
0.0
 11
102.659917
 21
3.8455
 31
0.0
  0
LINE
  8
1
  6
CONTINUOUS
 62
   233
  5
222
 10
102.659917
 20
3.8455
 30
0.0
 11
102.476833
 21
3.811583
 31
0.0
  0
LINE
  8
1
  6
CONTINUOUS
 62
   233
  5
223
 10
102.476833
 20
3.811583
 30
0.0
 11
102.455333
 21
3.958417
 31
0.0
  0
LINE
  8
1
  6
CONTINUOUS
 62
   233
  5
224
 10
102.455333
 20
3.958417
 30
0.0
 11
102.476833
 21
4.240833
 31
0.0
  0
LINE
  8
1
  6
CONTINUOUS
 62
   233
  5
225
 10
102.476833
 20
4.240833
 30
0.0
 11
102.476833
 21
4.455417
 31
0.0
  0
LINE
  8
1
  6
CONTINUOUS
 62
   233
  5
226
 10
102.476833
 20
4.455417
 30
0.0
 11
102.509167
 21
4.715167
 31
0.0
  0
LINE
  8
1
  6
CONTINUOUS
 62
   233
  5
227
 10
102.509167
 20
4.715167
 30
0.0
 11
102.476833
 21
4.907167
 31
0.0
  0
LINE
  8
1
  6
CONTINUOUS
 62
   233
  5
228
 10
102.476833
 20
4.907167
 30
0.0
 11
102.444583
 21
5.166917
 31
0.0
  0
LINE
  8
1
  6
CONTINUOUS
 62
   233
  5
229
 10
102.444583
 20
5.166917
 30
0.0
 11
102.498417
 21
5.347667
 31
0.0
  0
LINE
  8
1
  6
CONTINUOUS
 62
   233
  5
22A
 10
102.498417
 20
5.347667
 30
0.0
 11
102.498417
 21
5.776833
 31
0.0
  0
LINE
  8
1
  6
CONTINUOUS
 62
   233
  5
22B
 10
102.498417
 20
5.776833
 30
0.0
 11
102.455333
 21
6.093083
 31
0.0
  0
LINE
  8
1
  6
CONTINUOUS
 62
   233
  5
22C
 10
102.455333
 20
6.093083
 30
0.0
 11
102.487667
 21
6.612583
 31
0.0
  0
LINE
  8
1
  6
CONTINUOUS
 62
   233
  5
22D
 10
103.064833
 20
6.579417
 30
0.0
 11
103.064833
 21
5.981083
 31
0.0
  0
LINE
  8
1
  6
CONTINUOUS
 62
   233
  5
22E
 10
103.064833
 20
6.1005
 30
0.0
 11
102.45575
 21
6.1005
 31
0.0
  0
INSERT
  8
1
  6
CONTINUOUS
 62
   240
  5
238
  2
$X4
 10
98.382917
 20
-0.187333
 30
0.0
210
0.0
220
0.0
230
1.0
  0
LINE
  8
1
  6
CONTINUOUS
 62
   233
  5
239
 10
103.931917
 20
4.839083
 30
0.0
 11
103.064833
 21
5.104667
 31
0.0
  0
LINE
  8
1
  6
CONTINUOUS
 62
   233
  5
23A
 10
103.893333
 20
4.983083
 30
0.0
 11
103.064833
 21
5.246667
 31
0.0
  0
LINE
  8
1
  6
CONTINUOUS
 62
   233
  5
23B
 10
103.064833
 20
5.246667
 30
0.0
 11
103.064833
 21
5.104667
 31
0.0
  0
ARC
  8
1
  6
CONTINUOUS
 62
   233
  5
23C
 10
104.560917
 20
5.084833
 30
0.0
 40
0.564176
 50
190.392706
 51
350.902078
210
0.0
220
0.0
230
1.0
  0
ARC
  8
1
  6
CONTINUOUS
 62
   233
  5
23D
 10
104.560917
 20
5.084833
 30
0.0
 40
0.675302
 50
201.337625
 51
338.183725
210
0.0
220
0.0
230
1.0
  0
LINE
  8
1
  6
CONTINUOUS
 62
   233
  5
23E
 10
103.893333
 20
4.983083
 30
0.0
 11
104.006
 21
4.983083
 31
0.0
  0
ARC
  8
1
  6
CONTINUOUS
 62
   233
  5
23F
 10
104.496333
 20
5.0675
 30
0.0
 40
0.608864
 50
187.97345
 51
202.032183
210
0.0
220
0.0
230
1.0
  0
INSERT
  8
1
  6
CONTINUOUS
 62
   240
  5
252
  2
$X5
 10
98.382917
 20
-0.187333
 30
0.0
210
0.0
220
0.0
230
1.0
  0
LINE
  8
1
  6
CONTINUOUS
 62
   233
  5
253
 10
105.118
 20
4.995667
 30
0.0
 11
105.230333
 21
4.995667
 31
0.0
  0
ARC
  8
1
  6
CONTINUOUS
 62
   110
  5
254
 10
104.560917
 20
5.084833
 30
0.0
 40
0.564176
 50
350.902078
 51
190.392703
210
0.0
220
0.0
230
1.0
  0
ARC
  8
1
  6
CONTINUOUS
 62
   233
  5
255
 10
104.560917
 20
5.084833
 30
0.0
 40
0.675302
 50
352.408917
 51
188.668006
210
0.0
220
0.0
230
1.0
  0
LINE
  8
1
  6
CONTINUOUS
 62
   233
  5
256
 10
105.187917
 20
4.833917
 30
0.0
 11
106.112833
 21
5.101917
 31
0.0
  0
LINE
  8
1
  6
CONTINUOUS
 62
   233
  5
257
 10
106.112833
 20
5.101917
 30
0.0
 11
106.112833
 21
6.10325
 31
0.0
  0
LINE
  8
1
  6
CONTINUOUS
 62
   233
  5
258
 10
105.230333
 20
4.995667
 30
0.0
 11
106.112833
 21
5.26275
 31
0.0
  0
ARC
  8
1
  6
CONTINUOUS
 62
   233
  5
259
 10
104.823667
 20
5.015917
 30
0.0
 40
0.407198
 50
333.446689
 51
357.14595
210
0.0
220
0.0
230
1.0
  0
INSERT
  8
1
  6
CONTINUOUS
 62
   240
  5
26A
  2
$X6
 10
98.382917
 20
-0.187333
 30
0.0
210
0.0
220
0.0
230
1.0
  0
INSERT
  8
1
  6
CONTINUOUS
 62
   240
  5
283
  2
$X7
 10
98.382917
 20
-0.187333
 30
0.0
210
0.0
220
0.0
230
1.0
  0
LINE
  8
1
  6
CONTINUOUS
 62
   233
  5
284
 10
106.112833
 20
6.10325
 30
0.0
 11
106.664667
 21
6.10325
 31
0.0
  0
LINE
  8
1
  6
CONTINUOUS
 62
   233
  5
285
 10
106.112833
 20
6.10325
 30
0.0
 11
106.112833
 21
6.612583
 31
0.0
  0
INSERT
  8
1
  6
CONTINUOUS
 62
   240
  5
28F
  2
$X8
 10
98.382917
 20
-0.187333
 30
0.0
210
0.0
220
0.0
230
1.0
  0
TEXT
  8
3
  6
CONTINUOUS
 62
   110
  5
290
 10
106.35725
 20
5.507333
 30
0.0
 40
0.125
  1
9"
  7
ROMANS
210
0.0
220
0.0
230
1.0
  0
LINE
  8
1
  6
CONTINUOUS
 62
     7
  5
291
 10
106.112833
 20
5.370667
 30
0.0
 11
106.112833
 21
5.226083
 31
0.0
  0
LINE
  8
1
  6
CONTINUOUS
 62
     7
  5
292
 10
106.692083
 20
5.364083
 30
0.0
 11
106.692083
 21
5.226083
 31
0.0
  0
LINE
  8
1
  6
CONTINUOUS
 62
     7
  5
293
 10
106.237833
 20
5.406083
 30
0.0
 11
106.4025
 21
5.406083
 31
0.0
  0
LINE
  8
1
  6
CONTINUOUS
 62
     7
  5
294
 10
106.567083
 20
5.406083
 30
0.0
 11
106.4025
 21
5.406083
 31
0.0
  0
SOLID
  8
1
  6
CONTINUOUS
 62
     7
  5
295
 10
106.237833
 20
5.38525
 30
0.0
 11
106.237833
 21
5.426917
 31
0.0
 12
106.112833
 22
5.406083
 32
0.0
 13
106.112833
 23
5.406083
 33
0.0
  0
SOLID
  8
1
  6
CONTINUOUS
 62
     7
  5
296
 10
106.567083
 20
5.38525
 30
0.0
 11
106.567083
 21
5.426917
 31
0.0
 12
106.692083
 22
5.406083
 32
0.0
 13
106.692083
 23
5.406083
 33
0.0
  0
LINE
  8
6
  6
CONTINUOUS
 62
     7
  5
297
 10
106.112833
 20
5.433167
 30
0.0
 11
106.112917
 21
5.433167
 31
0.0
  0
LINE
  8
6
  6
CONTINUOUS
 62
     7
  5
298
 10
106.692083
 20
5.426583
 30
0.0
 11
106.692167
 21
5.426583
 31
0.0
  0
LINE
  8
6
  6
CONTINUOUS
 62
     7
  5
299
 10
106.692083
 20
5.406083
 30
0.0
 11
106.692167
 21
5.406083
 31
0.0
  0
SOLID
  8
1
  6
CONTINUOUS
 62
     7
  5
29A
 10
104.525083
 20
5.524333
 30
0.0
 11
104.566833
 21
5.52425
 31
0.0
 12
104.546167
 22
5.649333
 32
0.0
 13
104.546167
 23
5.649333
 33
0.0
  0
SOLID
  8
1
  6
CONTINUOUS
 62
     7
  5
29B
 10
104.5235
 20
4.646
 30
0.0
 11
104.565167
 21
4.645917
 31
0.0
 12
104.544083
 22
4.520917
 32
0.0
 13
104.544083
 23
4.520917
 33
0.0
  0
LINE
  8
6
  6
CONTINUOUS
 62
     7
  5
29C
 10
104.546167
 20
5.649333
 30
0.0
 11
104.54625
 21
5.649333
 31
0.0
  0
LINE
  8
6
  6
CONTINUOUS
 62
     7
  5
29D
 10
104.544083
 20
4.520917
 30
0.0
 11
104.544167
 21
4.520917
 31
0.0
  0
TEXT
  8
3
  6
CONTINUOUS
 62
   110
  5
29E
 10
104.471667
 20
5.064917
 30
0.0
 40
0.14
  1
D
  7
MONOTXT
210
0.0
220
0.0
230
1.0
  0
TEXT
  8
3
  6
CONTINUOUS
 62
   110
  5
29F
 10
103.74325
 20
6.2475
 30
0.0
 40
0.125
  1
Vitrified Brick
  7
ROMANS
210
0.0
220
0.0
230
1.0
  0
TEXT
  8
3
  6
CONTINUOUS
 62
   110
  5
2A0
 10
103.7855
 20
6.081333
 30
0.0
 40
0.125
  1
When Specified
  7
ROMANS
210
0.0
220
0.0
230
1.0
  0
SOLID
  8
3
  6
CONTINUOUS
 62
     2
  5
2A1
 10
103.499583
 20
5.239833
 30
0.0
 11
103.45975
 21
5.251833
 31
0.0
 12
103.44375
 22
5.126083
 32
0.0
 13
103.44375
 23
5.126083
 33
0.0
  0
LINE
  8
3
  6
CONTINUOUS
 62
     2
  5
2A2
 10
103.47975
 20
5.245833
 30
0.0
 11
103.747167
 21
6.13525
 31
0.0
  0
SOLID
  8
3
  6
CONTINUOUS
 62
     2
  5
2A3
 10
105.68225
 20
5.263
 30
0.0
 11
105.642333
 21
5.251
 31
0.0
 12
105.69825
 22
5.137167
 32
0.0
 13
105.69825
 23
5.137167
 33
0.0
  0
LINE
  8
3
  6
CONTINUOUS
 62
     2
  5
2A4
 10
105.662333
 20
5.257
 30
0.0
 11
105.447667
 21
5.972333
 31
0.0
  0
TEXT
  8
3
  6
CONTINUOUS
 62
   110
  5
2A5
 10
105.526083
 20
4.408583
 30
0.0
 40
0.125
  1
Slope 4:1
  7
ROMANS
210
0.0
220
0.0
230
1.0
  0
TEXT
  8
3
  6
CONTINUOUS
 62
   110
  5
2A6
 10
106.2205
 20
5.144833
 30
0.0
 40
0.125
  1
Min.
  7
ROMANS
210
0.0
220
0.0
230
1.0
  0
TEXT
  8
3
  6
CONTINUOUS
 62
   110
  5
2A7
 10
107.656417
 20
4.9355
 30
0.0
 40
0.125
  1
Field-cast
  7
ROMANS
210
0.0
220
0.0
230
1.0
  0
TEXT
  8
3
  6
CONTINUOUS
 62
   110
  5
2A8
 10
107.688667
 20
4.708917
 30
0.0
 40
0.125
  1
Concrete
  7
ROMANS
210
0.0
220
0.0
230
1.0
  0
TEXT
  8
3
  6
CONTINUOUS
 62
   110
  5
2A9
 10
107.723333
 20
4.48225
 30
0.0
 40
0.125
  1
Footer
  7
ROMANS
210
0.0
220
0.0
230
1.0
  0
SOLID
  8
3
  6
CONTINUOUS
 62
     2
  5
2AA
 10
106.400667
 20
4.8345
 30
0.0
 11
106.400667
 21
4.876167
 31
0.0
 12
106.275667
 22
4.855333
 32
0.0
 13
106.275667
 23
4.855333
 33
0.0
  0
LINE
  8
3
  6
CONTINUOUS
 62
     2
  5
2AB
 10
106.400667
 20
4.855333
 30
0.0
 11
107.532667
 21
4.855333
 31
0.0
  0
TEXT
  8
3
  6
CONTINUOUS
 62
   110
  5
2AC
 10
100.571583
 20
5.939167
 30
0.0
 40
0.125
  1
3" Min (Into
  7
ROMANS
210
0.0
220
0.0
230
1.0
  0
TEXT
  8
3
  6
CONTINUOUS
 62
   110
  5
2AD
 10
100.922917
 20
5.627
 30
0.0
 40
0.125
  1
Sidewall)
  7
ROMANS
210
0.0
220
0.0
230
1.0
  0
LINE
  8
1
  6
CONTINUOUS
 62
     7
  5
2AE
 10
102.498417
 20
5.499583
 30
0.0
 11
102.498417
 21
5.640417
 31
0.0
  0
LINE
  8
1
  6
CONTINUOUS
 62
     7
  5
2AF
 10
103.064833
 20
5.405667
 30
0.0
 11
103.064833
 21
5.280417
 31
0.0
  0
LINE
  8
1
  6
CONTINUOUS
 62
     7
  5
2B0
 10
102.623417
 20
5.460417
 30
0.0
 11
102.939833
 21
5.460417
 31
0.0
  0
SOLID
  8
1
  6
CONTINUOUS
 62
     7
  5
2B1
 10
102.623417
 20
5.439583
 30
0.0
 11
102.623417
 21
5.48125
 31
0.0
 12
102.498417
 22
5.460417
 32
0.0
 13
102.498417
 23
5.460417
 33
0.0
  0
SOLID
  8
1
  6
CONTINUOUS
 62
     7
  5
2B2
 10
102.939833
 20
5.439583
 30
0.0
 11
102.939833
 21
5.48125
 31
0.0
 12
103.064833
 22
5.460417
 32
0.0
 13
103.064833
 23
5.460417
 33
0.0
  0
TEXT
  8
1
  6
CONTINUOUS
 62
   110
  5
2B3
 10
102.717
 20
5.5385
 30
0.0
 40
0.125
  1
9"
  7
ROMANS
210
0.0
220
0.0
230
1.0
  0
LINE
  8
6
  6
CONTINUOUS
 62
     7
  5
2B4
 10
102.498417
 20
5.437083
 30
0.0
 11
102.4985
 21
5.437083
 31
0.0
  0
LINE
  8
6
  6
CONTINUOUS
 62
     7
  5
2B5
 10
103.064833
 20
5.468167
 30
0.0
 11
103.064917
 21
5.468167
 31
0.0
  0
LINE
  8
6
  6
CONTINUOUS
 62
     7
  5
2B6
 10
103.064833
 20
5.460417
 30
0.0
 11
103.064917
 21
5.460417
 31
0.0
  0
TEXT
  8
3
  6
CONTINUOUS
 62
   110
  5
2B7
 10
102.546083
 20
5.245917
 30
0.0
 40
0.125
  1
Min.
  7
ROMANS
210
0.0
220
0.0
230
1.0
  0
SOLID
  8
3
  6
CONTINUOUS
 62
     2
  5
2B8
 10
103.189833
 20
5.800083
 30
0.0
 11
103.189833
 21
5.84175
 31
0.0
 12
103.064833
 22
5.820917
 32
0.0
 13
103.064833
 23
5.820917
 33
0.0
  0
LINE
  8
3
  6
CONTINUOUS
 62
     2
  5
2B9
 10
103.189833
 20
5.820917
 30
0.0
 11
103.374667
 21
5.820917
 31
0.0
  0
LINE
  8
3
  6
CONTINUOUS
 62
     2
  5
2BA
 10
102.7015
 20
5.72
 30
0.0
 11
102.7015
 21
5.946
 31
0.0
  0
SOLID
  8
3
  6
CONTINUOUS
 62
     2
  5
2BB
 10
102.5765
 20
5.800083
 30
0.0
 11
102.5765
 21
5.84175
 31
0.0
 12
102.7015
 22
5.820917
 32
0.0
 13
102.7015
 23
5.820917
 33
0.0
  0
LINE
  8
3
  6
CONTINUOUS
 62
     2
  5
2BC
 10
102.7015
 20
5.820917
 30
0.0
 11
101.866833
 21
5.820917
 31
0.0
  0
LINE
  8
2
  6
HIDDEN
 62
     2
  5
2BD
 10
103.064833
 20
5.924083
 30
0.0
 11
102.726583
 21
5.924083
 31
0.0
  0
LINE
  8
2
  6
HIDDEN
 62
     2
  5
2BE
 10
102.726583
 20
5.924083
 30
0.0
 11
102.726583
 21
5.981083
 31
0.0
  0
LINE
  8
2
  6
HIDDEN
 62
     2
  5
2BF
 10
102.726583
 20
5.981083
 30
0.0
 11
103.064833
 21
5.981083
 31
0.0
  0
LINE
  8
1
  6
CONTINUOUS
 62
   233
  5
2C0
 10
103.064833
 20
5.924083
 30
0.0
 11
103.30775
 21
5.924083
 31
0.0
  0
LINE
  8
1
  6
CONTINUOUS
 62
   233
  5
2C1
 10
103.30775
 20
5.924083
 30
0.0
 11
103.30775
 21
5.981083
 31
0.0
  0
LINE
  8
1
  6
CONTINUOUS
 62
   233
  5
2C2
 10
103.064833
 20
5.981083
 30
0.0
 11
103.30775
 21
5.981083
 31
0.0
  0
LINE
  8
1
  6
CONTINUOUS
 62
   233
  5
2C3
 10
103.231333
 20
5.981083
 30
0.0
 11
103.231333
 21
6.11675
 31
0.0
  0
LINE
  8
1
  6
CONTINUOUS
 62
   233
  5
2C4
 10
103.231333
 20
6.11675
 30
0.0
 11
103.30775
 21
6.11675
 31
0.0
  0
LINE
  8
1
  6
CONTINUOUS
 62
   233
  5
2C5
 10
103.064833
 20
5.924083
 30
0.0
 11
103.064833
 21
5.246667
 31
0.0
  0
LINE
  8
1
  6
CONTINUOUS
 62
   233
  5
2C6
 10
103.064833
 20
5.924083
 30
0.0
 11
103.064833
 21
5.981083
 31
0.0
  0
LINE
  8
1
  6
CONTINUOUS
 62
   233
  5
2C7
 10
103.255
 20
5.874833
 30
0.0
 11
103.255
 21
5.924083
 31
0.0
  0
LINE
  8
1
  6
CONTINUOUS
 62
   233
  5
2C8
 10
103.255
 20
6.060917
 30
0.0
 11
103.281
 21
6.060917
 31
0.0
  0
LINE
  8
1
  6
CONTINUOUS
 62
   233
  5
2C9
 10
103.281
 20
6.060917
 30
0.0
 11
103.281
 21
5.981083
 31
0.0
  0
LINE
  8
1
  6
CONTINUOUS
 62
   233
  5
2CA
 10
103.281
 20
5.874833
 30
0.0
 11
103.255
 21
5.874833
 31
0.0
  0
LINE
  8
1
  6
CONTINUOUS
 62
   233
  5
2CB
 10
103.281
 20
5.924083
 30
0.0
 11
103.281
 21
5.874833
 31
0.0
  0
LINE
  8
1
  6
CONTINUOUS
 62
   233
  5
2CC
 10
103.255
 20
5.981083
 30
0.0
 11
103.255
 21
6.060917
 31
0.0
  0
LINE
  8
1
  6
CONTINUOUS
 62
   233
  5
2CD
 10
103.30775
 20
6.11675
 30
0.0
 11
103.30775
 21
5.981083
 31
0.0
  0
INSERT
  8
1
  6
CONTINUOUS
 62
     7
  5
2D8
  2
$X12
 10
98.382917
 20
-0.187333
 30
0.0
210
0.0
220
0.0
230
1.0
  0
INSERT
  8
1
  6
CONTINUOUS
 62
     7
  5
2E4
  2
$D13
 10
104.54275
 20
3.811333
 30
0.0
210
0.0
220
0.0
230
1.0
  0
TEXT
  8
3
  6
CONTINUOUS
 62
   110
  5
2E5
 10
104.804167
 20
4.032583
 30
0.0
 40
0.125
  1
9" Minimum
  7
ROMANS
210
0.0
220
0.0
230
1.0
  0
TEXT
  8
3
  6
CONTINUOUS
 62
     2
  5
2E6
 10
103.566917
 20
3.0875
 30
0.0
 40
0.18
  1
SECTION B-B
  7
MONOTXT
210
0.0
220
0.0
230
1.0
  0
LINE
  8
1
  6
CONTINUOUS
 62
   233
  5
2E7
 10
102.497417
 20
6.852833
 30
0.0
 11
102.609833
 21
6.830667
 31
0.0
  0
LINE
  8
1
  6
CONTINUOUS
 62
   233
  5
2E8
 10
102.609833
 20
6.830667
 30
0.0
 11
102.680167
 21
6.852833
 31
0.0
  0
LINE
  8
1
  6
CONTINUOUS
 62
   233
  5
2E9
 10
102.680167
 20
6.852833
 30
0.0
 11
102.7715
 21
6.815917
 31
0.0
  0
LINE
  8
1
  6
CONTINUOUS
 62
   233
  5
2EA
 10
102.7715
 20
6.815917
 30
0.0
 11
102.841833
 21
6.874917
 31
0.0
  0
LINE
  8
1
  6
CONTINUOUS
 62
   233
  5
2EB
 10
102.841833
 20
6.874917
 30
0.0
 11
102.912083
 21
6.845417
 31
0.0
  0
LINE
  8
1
  6
CONTINUOUS
 62
   233
  5
2EC
 10
102.912083
 20
6.845417
 30
0.0
 11
103.045667
 21
6.860167
 31
0.0
  0
LINE
  8
1
  6
CONTINUOUS
 62
   233
  5
2ED
 10
103.045667
 20
6.860167
 30
0.0
 11
103.045667
 21
11.034083
 31
0.0
  0
LINE
  8
1
  6
CONTINUOUS
 62
   233
  5
2EE
 10
102.497417
 20
6.852833
 30
0.0
 11
102.504417
 21
6.978167
 31
0.0
  0
LINE
  8
1
  6
CONTINUOUS
 62
   233
  5
2EF
 10
102.504417
 20
6.978167
 30
0.0
 11
102.483333
 21
7.20675
 31
0.0
  0
LINE
  8
1
  6
CONTINUOUS
 62
   233
  5
2F0
 10
102.483333
 20
7.20675
 30
0.0
 11
102.511417
 21
7.487
 31
0.0
  0
LINE
  8
1
  6
CONTINUOUS
 62
   233
  5
2F1
 10
102.511417
 20
7.487
 30
0.0
 11
102.46225
 21
7.664
 31
0.0
  0
LINE
  8
1
  6
CONTINUOUS
 62
   233
  5
2F2
 10
102.46225
 20
7.664
 30
0.0
 11
102.5255
 21
7.97375
 31
0.0
  0
LINE
  8
1
  6
CONTINUOUS
 62
   233
  5
2F3
 10
102.5255
 20
7.97375
 30
0.0
 11
102.46925
 21
8.26875
 31
0.0
  0
LINE
  8
1
  6
CONTINUOUS
 62
   233
  5
2F4
 10
102.46925
 20
8.26875
 30
0.0
 11
102.511417
 21
8.630083
 31
0.0
  0
LINE
  8
1
  6
CONTINUOUS
 62
   233
  5
2F5
 10
102.511417
 20
8.630083
 30
0.0
 11
102.476333
 21
9.072583
 31
0.0
  0
LINE
  8
1
  6
CONTINUOUS
 62
   233
  5
2F6
 10
102.504417
 20
11.034083
 30
0.0
 11
103.134083
 21
11.034083
 31
0.0
  0
LINE
  8
1
  6
CONTINUOUS
 62
   233
  5
2F7
 10
102.476333
 20
9.072583
 30
0.0
 11
102.511417
 21
9.2275
 31
0.0
  0
LINE
  8
1
  6
CONTINUOUS
 62
   233
  5
2F8
 10
102.511417
 20
9.2275
 30
0.0
 11
102.497417
 21
9.426583
 31
0.0
  0
LINE
  8
1
  6
CONTINUOUS
 62
   233
  5
2F9
 10
102.497417
 20
9.426583
 30
0.0
 11
102.46925
 21
9.633083
 31
0.0
  0
LINE
  8
1
  6
CONTINUOUS
 62
   233
  5
2FA
 10
102.46925
 20
9.633083
 30
0.0
 11
102.504417
 21
9.82475
 31
0.0
  0
LINE
  8
1
  6
CONTINUOUS
 62
   233
  5
2FB
 10
102.504417
 20
9.82475
 30
0.0
 11
102.5185
 21
10.023917
 31
0.0
  0
LINE
  8
1
  6
CONTINUOUS
 62
   233
  5
2FC
 10
102.5185
 20
10.023917
 30
0.0
 11
102.46925
 21
10.3115
 31
0.0
  0
LINE
  8
1
  6
CONTINUOUS
 62
   233
  5
2FD
 10
102.46925
 20
10.3115
 30
0.0
 11
102.504417
 21
10.488417
 31
0.0
  0
LINE
  8
1
  6
CONTINUOUS
 62
   233
  5
2FE
 10
102.504417
 20
10.488417
 30
0.0
 11
102.504417
 21
11.034083
 31
0.0
  0
LINE
  8
1
  6
CONTINUOUS
 62
   233
  5
2FF
 10
104.739583
 20
11.05625
 30
0.0
 11
105.428417
 21
11.05625
 31
0.0
  0
LINE
  8
1
  6
CONTINUOUS
 62
   233
  5
300
 10
105.428417
 20
11.05625
 30
0.0
 11
105.653333
 21
10.783417
 31
0.0
  0
LINE
  8
1
  6
CONTINUOUS
 62
   233
  5
301
 10
105.653333
 20
10.783417
 30
0.0
 11
105.730667
 21
10.547417
 31
0.0
  0
LINE
  8
1
  6
CONTINUOUS
 62
   233
  5
302
 10
105.730667
 20
10.547417
 30
0.0
 11
105.815
 21
10.488417
 31
0.0
  0
LINE
  8
1
  6
CONTINUOUS
 62
   233
  5
303
 10
105.815
 20
10.488417
 30
0.0
 11
105.9275
 21
10.223
 31
0.0
  0
LINE
  8
1
  6
CONTINUOUS
 62
   233
  5
304
 10
105.9275
 20
10.223
 30
0.0
 11
106.082083
 21
9.987
 31
0.0
  0
LINE
  8
1
  6
CONTINUOUS
 62
   233
  5
305
 10
106.082083
 20
9.987
 30
0.0
 11
106.096167
 21
9.765833
 31
0.0
  0
LINE
  8
1
  6
CONTINUOUS
 62
   233
  5
306
 10
106.096167
 20
9.765833
 30
0.0
 11
106.250833
 21
9.478167
 31
0.0
  0
LINE
  8
1
  6
CONTINUOUS
 62
   233
  5
307
 10
106.250833
 20
9.478167
 30
0.0
 11
106.264833
 21
9.279083
 31
0.0
  0
LINE
  8
1
  6
CONTINUOUS
 62
   233
  5
308
 10
106.264833
 20
9.279083
 30
0.0
 11
106.36325
 21
9.102167
 31
0.0
  0
LINE
  8
1
  6
CONTINUOUS
 62
   233
  5
309
 10
106.36325
 20
9.102167
 30
0.0
 11
106.405417
 21
8.748167
 31
0.0
  0
LINE
  8
1
  6
CONTINUOUS
 62
   233
  5
30A
 10
106.405417
 20
8.748167
 30
0.0
 11
106.532
 21
8.541667
 31
0.0
  0
LINE
  8
1
  6
CONTINUOUS
 62
   233
  5
30B
 10
106.532
 20
8.541667
 30
0.0
 11
106.524917
 21
8.3795
 31
0.0
  0
LINE
  8
1
  6
CONTINUOUS
 62
   233
  5
30C
 10
106.524917
 20
8.3795
 30
0.0
 11
106.496833
 21
8.283583
 31
0.0
  0
LINE
  8
1
  6
CONTINUOUS
 62
   233
  5
30D
 10
106.496833
 20
8.283583
 30
0.0
 11
106.539
 21
8.150917
 31
0.0
  0
LINE
  8
1
  6
CONTINUOUS
 62
   233
  5
30E
 10
106.539
 20
8.150917
 30
0.0
 11
106.616333
 21
7.9665
 31
0.0
  0
LINE
  8
1
  6
CONTINUOUS
 62
   233
  5
30F
 10
106.616333
 20
7.9665
 30
0.0
 11
106.581167
 21
7.782167
 31
0.0
  0
LINE
  8
1
  6
CONTINUOUS
 62
   233
  5
310
 10
106.581167
 20
7.782167
 30
0.0
 11
106.616333
 21
7.605167
 31
0.0
  0
LINE
  8
1
  6
CONTINUOUS
 62
   233
  5
311
 10
106.616333
 20
7.605167
 30
0.0
 11
106.6725
 21
7.48725
 31
0.0
  0
LINE
  8
1
  6
CONTINUOUS
 62
   233
  5
312
 10
106.6725
 20
7.48725
 30
0.0
 11
106.6515
 21
7.288083
 31
0.0
  0
LINE
  8
1
  6
CONTINUOUS
 62
   233
  5
313
 10
106.6515
 20
7.288083
 30
0.0
 11
106.714833
 21
7.07425
 31
0.0
  0
LINE
  8
1
  6
CONTINUOUS
 62
   233
  5
314
 10
106.714833
 20
7.07425
 30
0.0
 11
106.721833
 21
6.934083
 31
0.0
  0
LINE
  8
1
  6
CONTINUOUS
 62
   233
  5
315
 10
106.721833
 20
6.934083
 30
0.0
 11
106.69375
 21
6.83825
 31
0.0
  0
LINE
  8
1
  6
CONTINUOUS
 62
   233
  5
316
 10
106.69375
 20
6.83825
 30
0.0
 11
106.532083
 21
6.860333
 31
0.0
  0
LINE
  8
1
  6
CONTINUOUS
 62
   233
  5
317
 10
106.532083
 20
6.860333
 30
0.0
 11
106.3985
 21
6.845583
 31
0.0
  0
LINE
  8
1
  6
CONTINUOUS
 62
   233
  5
318
 10
106.3985
 20
6.845583
 30
0.0
 11
106.264917
 21
6.83825
 31
0.0
  0
LINE
  8
1
  6
CONTINUOUS
 62
   233
  5
319
 10
106.264917
 20
6.83825
 30
0.0
 11
106.10325
 21
6.875083
 31
0.0
  0
ARC
  8
1
  6
CONTINUOUS
 62
   233
  5
31A
 10
98.560917
 20
6.728083
 30
0.0
 40
7.543776
 50
1.116492
 51
35.011111
210
0.0
220
0.0
230
1.0
  0
INSERT
  8
1
  6
CONTINUOUS
 62
   240
  5
358
  2
$X14
 10
98.382917
 20
-0.187333
 30
0.0
210
0.0
220
0.0
230
1.0
  0
LINE
  8
1
  6
CONTINUOUS
 62
   233
  5
359
 10
103.045667
 20
6.860167
 30
0.0
 11
103.166833
 21
6.8765
 31
0.0
  0
LINE
  8
1
  6
CONTINUOUS
 62
   233
  5
35A
 10
103.166833
 20
6.8765
 30
0.0
 11
103.319
 21
6.839667
 31
0.0
  0
LINE
  8
1
  6
CONTINUOUS
 62
   233
  5
35B
 10
103.319
 20
6.839667
 30
0.0
 11
103.42425
 21
6.864167
 31
0.0
  0
LINE
  8
1
  6
CONTINUOUS
 62
   233
  5
35C
 10
103.42425
 20
6.864167
 30
0.0
 11
103.711
 21
6.8335
 31
0.0
  0
LINE
  8
1
  6
CONTINUOUS
 62
   233
  5
35D
 10
103.711
 20
6.8335
 30
0.0
 11
103.833833
 21
6.851917
 31
0.0
  0
LINE
  8
1
  6
CONTINUOUS
 62
   233
  5
35E
 10
103.833833
 20
6.851917
 30
0.0
 11
104.261
 21
6.851917
 31
0.0
  0
LINE
  8
1
  6
CONTINUOUS
 62
   233
  5
35F
 10
104.261
 20
6.851917
 30
0.0
 11
104.366333
 21
6.870333
 31
0.0
  0
LINE
  8
1
  6
CONTINUOUS
 62
   233
  5
360
 10
104.366333
 20
6.870333
 30
0.0
 11
104.658917
 21
6.808917
 31
0.0
  0
LINE
  8
1
  6
CONTINUOUS
 62
   233
  5
361
 10
104.658917
 20
6.808917
 30
0.0
 11
104.705667
 21
6.827333
 31
0.0
  0
LINE
  8
1
  6
CONTINUOUS
 62
   233
  5
362
 10
104.705667
 20
6.827333
 30
0.0
 11
105.138667
 21
6.858083
 31
0.0
  0
LINE
  8
1
  6
CONTINUOUS
 62
   233
  5
363
 10
105.138667
 20
6.858083
 30
0.0
 11
105.349333
 21
6.839667
 31
0.0
  0
LINE
  8
1
  6
CONTINUOUS
 62
   233
  5
364
 10
105.349333
 20
6.839667
 30
0.0
 11
105.495583
 21
6.870333
 31
0.0
  0
LINE
  8
1
  6
CONTINUOUS
 62
   233
  5
365
 10
105.495583
 20
6.870333
 30
0.0
 11
105.671167
 21
6.84575
 31
0.0
  0
LINE
  8
1
  6
CONTINUOUS
 62
   233
  5
366
 10
105.671167
 20
6.84575
 30
0.0
 11
105.758917
 21
6.882583
 31
0.0
  0
LINE
  8
1
  6
CONTINUOUS
 62
   233
  5
367
 10
105.758917
 20
6.882583
 30
0.0
 11
105.934417
 21
6.851917
 31
0.0
  0
LINE
  8
1
  6
CONTINUOUS
 62
   233
  5
368
 10
105.934417
 20
6.851917
 30
0.0
 11
106.10325
 21
6.875083
 31
0.0
  0
LINE
  8
2
  6
HIDDEN
 62
     2
  5
369
 10
102.726583
 20
7.09225
 30
0.0
 11
103.064833
 21
7.09225
 31
0.0
  0
LINE
  8
2
  6
HIDDEN
 62
     2
  5
36A
 10
102.726583
 20
7.03525
 30
0.0
 11
102.726583
 21
7.09225
 31
0.0
  0
LINE
  8
2
  6
HIDDEN
 62
     2
  5
36B
 10
103.064833
 20
7.03525
 30
0.0
 11
102.726583
 21
7.03525
 31
0.0
  0
INSERT
  8
1
  6
CONTINUOUS
 62
     7
  5
36C
  2
$X12
 10
98.382917
 20
0.923833
 30
0.0
210
0.0
220
0.0
230
1.0
  0
LINE
  8
1
  6
CONTINUOUS
 62
   233
  5
36D
 10
103.30775
 20
7.227917
 30
0.0
 11
103.30775
 21
7.09225
 31
0.0
  0
LINE
  8
1
  6
CONTINUOUS
 62
   233
  5
36E
 10
103.255
 20
7.09225
 30
0.0
 11
103.255
 21
7.172083
 31
0.0
  0
LINE
  8
1
  6
CONTINUOUS
 62
   233
  5
36F
 10
103.281
 20
7.03525
 30
0.0
 11
103.281
 21
6.986
 31
0.0
  0
LINE
  8
1
  6
CONTINUOUS
 62
   233
  5
370
 10
103.281
 20
6.986
 30
0.0
 11
103.255
 21
6.986
 31
0.0
  0
LINE
  8
1
  6
CONTINUOUS
 62
   233
  5
371
 10
103.281
 20
7.172083
 30
0.0
 11
103.281
 21
7.09225
 31
0.0
  0
LINE
  8
1
  6
CONTINUOUS
 62
   233
  5
372
 10
103.255
 20
7.172083
 30
0.0
 11
103.281
 21
7.172083
 31
0.0
  0
LINE
  8
1
  6
CONTINUOUS
 62
   233
  5
373
 10
103.255
 20
6.986
 30
0.0
 11
103.255
 21
7.03525
 31
0.0
  0
LINE
  8
1
  6
CONTINUOUS
 62
   233
  5
374
 10
103.231333
 20
7.227917
 30
0.0
 11
103.30775
 21
7.227917
 31
0.0
  0
LINE
  8
1
  6
CONTINUOUS
 62
   233
  5
375
 10
103.231333
 20
7.09225
 30
0.0
 11
103.231333
 21
7.227917
 31
0.0
  0
LINE
  8
1
  6
CONTINUOUS
 62
   233
  5
376
 10
103.064833
 20
7.09225
 30
0.0
 11
103.30775
 21
7.09225
 31
0.0
  0
LINE
  8
1
  6
CONTINUOUS
 62
   233
  5
377
 10
103.30775
 20
7.03525
 30
0.0
 11
103.30775
 21
7.09225
 31
0.0
  0
LINE
  8
1
  6
CONTINUOUS
 62
   233
  5
378
 10
103.064833
 20
7.03525
 30
0.0
 11
103.30775
 21
7.03525
 31
0.0
  0
LINE
  8
2
  6
HIDDEN
 62
     2
  5
379
 10
102.726583
 20
8.21575
 30
0.0
 11
103.064833
 21
8.21575
 31
0.0
  0
LINE
  8
2
  6
HIDDEN
 62
     2
  5
37A
 10
102.726583
 20
8.158667
 30
0.0
 11
102.726583
 21
8.21575
 31
0.0
  0
LINE
  8
2
  6
HIDDEN
 62
     2
  5
37B
 10
103.064833
 20
8.158667
 30
0.0
 11
102.726583
 21
8.158667
 31
0.0
  0
INSERT
  8
1
  6
CONTINUOUS
 62
     7
  5
37C
  2
$X12
 10
98.382917
 20
2.047167
 30
0.0
210
0.0
220
0.0
230
1.0
  0
LINE
  8
1
  6
CONTINUOUS
 62
   233
  5
37D
 10
103.30775
 20
8.351333
 30
0.0
 11
103.30775
 21
8.21575
 31
0.0
  0
LINE
  8
1
  6
CONTINUOUS
 62
   233
  5
37E
 10
103.255
 20
8.21575
 30
0.0
 11
103.255
 21
8.2955
 31
0.0
  0
LINE
  8
1
  6
CONTINUOUS
 62
   233
  5
37F
 10
103.281
 20
8.158667
 30
0.0
 11
103.281
 21
8.109417
 31
0.0
  0
LINE
  8
1
  6
CONTINUOUS
 62
   233
  5
380
 10
103.281
 20
8.109417
 30
0.0
 11
103.255
 21
8.109417
 31
0.0
  0
LINE
  8
1
  6
CONTINUOUS
 62
   233
  5
381
 10
103.281
 20
8.2955
 30
0.0
 11
103.281
 21
8.21575
 31
0.0
  0
LINE
  8
1
  6
CONTINUOUS
 62
   233
  5
382
 10
103.255
 20
8.2955
 30
0.0
 11
103.281
 21
8.2955
 31
0.0
  0
LINE
  8
1
  6
CONTINUOUS
 62
   233
  5
383
 10
103.255
 20
8.109417
 30
0.0
 11
103.255
 21
8.158667
 31
0.0
  0
LINE
  8
1
  6
CONTINUOUS
 62
   233
  5
384
 10
103.231333
 20
8.351333
 30
0.0
 11
103.30775
 21
8.351333
 31
0.0
  0
LINE
  8
1
  6
CONTINUOUS
 62
   233
  5
385
 10
103.231333
 20
8.21575
 30
0.0
 11
103.231333
 21
8.351333
 31
0.0
  0
LINE
  8
1
  6
CONTINUOUS
 62
   233
  5
386
 10
103.064833
 20
8.21575
 30
0.0
 11
103.30775
 21
8.21575
 31
0.0
  0
LINE
  8
1
  6
CONTINUOUS
 62
   233
  5
387
 10
103.30775
 20
8.158667
 30
0.0
 11
103.30775
 21
8.21575
 31
0.0
  0
LINE
  8
1
  6
CONTINUOUS
 62
   233
  5
388
 10
103.064833
 20
8.158667
 30
0.0
 11
103.30775
 21
8.158667
 31
0.0
  0
LINE
  8
2
  6
HIDDEN
 62
     2
  5
389
 10
102.726583
 20
9.357167
 30
0.0
 11
103.064833
 21
9.357167
 31
0.0
  0
LINE
  8
2
  6
HIDDEN
 62
     2
  5
38A
 10
102.726583
 20
9.300167
 30
0.0
 11
102.726583
 21
9.357167
 31
0.0
  0
LINE
  8
2
  6
HIDDEN
 62
     2
  5
38B
 10
103.064833
 20
9.300167
 30
0.0
 11
102.726583
 21
9.300167
 31
0.0
  0
INSERT
  8
1
  6
CONTINUOUS
 62
     7
  5
38C
  2
$X12
 10
98.382917
 20
3.18875
 30
0.0
210
0.0
220
0.0
230
1.0
  0
LINE
  8
1
  6
CONTINUOUS
 62
   233
  5
38D
 10
103.30775
 20
9.492833
 30
0.0
 11
103.30775
 21
9.357167
 31
0.0
  0
LINE
  8
1
  6
CONTINUOUS
 62
   233
  5
38E
 10
103.255
 20
9.357167
 30
0.0
 11
103.255
 21
9.437
 31
0.0
  0
LINE
  8
1
  6
CONTINUOUS
 62
   233
  5
38F
 10
103.281
 20
9.300167
 30
0.0
 11
103.281
 21
9.250917
 31
0.0
  0
LINE
  8
1
  6
CONTINUOUS
 62
   233
  5
390
 10
103.281
 20
9.250917
 30
0.0
 11
103.255
 21
9.250917
 31
0.0
  0
LINE
  8
1
  6
CONTINUOUS
 62
   233
  5
391
 10
103.281
 20
9.437
 30
0.0
 11
103.281
 21
9.357167
 31
0.0
  0
LINE
  8
1
  6
CONTINUOUS
 62
   233
  5
392
 10
103.255
 20
9.437
 30
0.0
 11
103.281
 21
9.437
 31
0.0
  0
LINE
  8
1
  6
CONTINUOUS
 62
   233
  5
393
 10
103.255
 20
9.250917
 30
0.0
 11
103.255
 21
9.300167
 31
0.0
  0
LINE
  8
1
  6
CONTINUOUS
 62
   233
  5
394
 10
103.231333
 20
9.492833
 30
0.0
 11
103.30775
 21
9.492833
 31
0.0
  0
LINE
  8
1
  6
CONTINUOUS
 62
   233
  5
395
 10
103.231333
 20
9.357167
 30
0.0
 11
103.231333
 21
9.492833
 31
0.0
  0
LINE
  8
1
  6
CONTINUOUS
 62
   233
  5
396
 10
103.064833
 20
9.357167
 30
0.0
 11
103.30775
 21
9.357167
 31
0.0
  0
LINE
  8
1
  6
CONTINUOUS
 62
   233
  5
397
 10
103.30775
 20
9.300167
 30
0.0
 11
103.30775
 21
9.357167
 31
0.0
  0
LINE
  8
1
  6
CONTINUOUS
 62
   233
  5
398
 10
103.064833
 20
9.300167
 30
0.0
 11
103.30775
 21
9.300167
 31
0.0
  0
LINE
  8
1
  6
CONTINUOUS
 62
   233
  5
399
 10
103.064833
 20
10.442083
 30
0.0
 11
103.30775
 21
10.442083
 31
0.0
  0
LINE
  8
1
  6
CONTINUOUS
 62
   233
  5
39A
 10
103.30775
 20
10.442083
 30
0.0
 11
103.30775
 21
10.499083
 31
0.0
  0
LINE
  8
1
  6
CONTINUOUS
 62
   233
  5
39B
 10
103.064833
 20
10.499083
 30
0.0
 11
103.30775
 21
10.499083
 31
0.0
  0
LINE
  8
1
  6
CONTINUOUS
 62
   233
  5
39C
 10
103.231333
 20
10.499083
 30
0.0
 11
103.231333
 21
10.63475
 31
0.0
  0
LINE
  8
1
  6
CONTINUOUS
 62
   233
  5
39D
 10
103.231333
 20
10.63475
 30
0.0
 11
103.30775
 21
10.63475
 31
0.0
  0
LINE
  8
1
  6
CONTINUOUS
 62
   233
  5
39E
 10
103.255
 20
10.392833
 30
0.0
 11
103.255
 21
10.442083
 31
0.0
  0
LINE
  8
1
  6
CONTINUOUS
 62
   233
  5
39F
 10
103.255
 20
10.578917
 30
0.0
 11
103.281
 21
10.578917
 31
0.0
  0
LINE
  8
1
  6
CONTINUOUS
 62
   233
  5
3A0
 10
103.281
 20
10.578917
 30
0.0
 11
103.281
 21
10.499083
 31
0.0
  0
LINE
  8
1
  6
CONTINUOUS
 62
   233
  5
3A1
 10
103.281
 20
10.392833
 30
0.0
 11
103.255
 21
10.392833
 31
0.0
  0
LINE
  8
1
  6
CONTINUOUS
 62
   233
  5
3A2
 10
103.281
 20
10.442083
 30
0.0
 11
103.281
 21
10.392833
 31
0.0
  0
LINE
  8
1
  6
CONTINUOUS
 62
   233
  5
3A3
 10
103.255
 20
10.499083
 30
0.0
 11
103.255
 21
10.578917
 31
0.0
  0
LINE
  8
1
  6
CONTINUOUS
 62
   233
  5
3A4
 10
103.30775
 20
10.63475
 30
0.0
 11
103.30775
 21
10.499083
 31
0.0
  0
INSERT
  8
1
  6
CONTINUOUS
 62
     7
  5
3A5
  2
$X12
 10
98.382917
 20
4.330667
 30
0.0
210
0.0
220
0.0
230
1.0
  0
LINE
  8
2
  6
HIDDEN
 62
     2
  5
3A6
 10
102.726583
 20
10.499083
 30
0.0
 11
103.064833
 21
10.499083
 31
0.0
  0
LINE
  8
2
  6
HIDDEN
 62
     2
  5
3A7
 10
102.726583
 20
10.442083
 30
0.0
 11
102.726583
 21
10.499083
 31
0.0
  0
LINE
  8
2
  6
HIDDEN
 62
     2
  5
3A8
 10
103.064833
 20
10.442083
 30
0.0
 11
102.726583
 21
10.442083
 31
0.0
  0
LINE
  8
1
  6
CONTINUOUS
 62
   233
  5
3A9
 10
103.134083
 20
11.031417
 30
0.0
 11
103.134083
 21
11.358417
 31
0.0
  0
LINE
  8
1
  6
CONTINUOUS
 62
   233
  5
3AA
 10
103.134083
 20
11.358417
 30
0.0
 11
103.191083
 21
11.482083
 31
0.0
  0
LINE
  8
1
  6
CONTINUOUS
 62
   233
  5
3AB
 10
103.191083
 20
11.482083
 30
0.0
 11
103.191083
 21
11.561833
 31
0.0
  0
LINE
  8
4
  6
CONTINUOUS
 62
    99
  5
3AD
 10
103.191083
 20
11.561833
 30
0.0
 11
103.13025
 21
11.561833
 31
0.0
  0
LINE
  8
1
  6
CONTINUOUS
 62
   233
  5
3AE
 10
103.13025
 20
11.561833
 30
0.0
 11
103.13025
 21
11.621667
 31
0.0
  0
LINE
  8
1
  6
CONTINUOUS
 62
   233
  5
3AF
 10
103.13025
 20
11.621667
 30
0.0
 11
103.05425
 21
11.621667
 31
0.0
  0
LINE
  8
1
  6
CONTINUOUS
 62
   233
  5
3B0
 10
103.05425
 20
11.621667
 30
0.0
 11
103.05425
 21
11.146333
 31
0.0
  0
LINE
  8
1
  6
CONTINUOUS
 62
   233
  5
3B1
 10
102.696667
 20
11.034083
 30
0.0
 11
102.769167
 21
11.07525
 31
0.0
  0
LINE
  8
1
  6
CONTINUOUS
 62
   233
  5
3B2
 10
102.769167
 20
11.07525
 30
0.0
 11
102.994083
 21
11.083833
 31
0.0
  0
ARC
  8
1
  6
CONTINUOUS
 62
   233
  5
3B3
 10
102.99175
 20
11.146333
 30
0.0
 40
0.0625
 50
272.184819
 51
359.999997
210
0.0
220
0.0
230
1.0
  0
INSERT
  8
1
  6
CONTINUOUS
 62
   240
  5
3C1
  2
$X15
 10
98.382917
 20
-0.187333
 30
0.0
210
0.0
220
0.0
230
1.0
  0
ARC
  8
1
  6
CONTINUOUS
 62
   233
  5
3C2
 10
104.739
 20
11.151333
 30
0.0
 40
0.042989
 50
186.736458
 51
293.912961
210
0.0
220
0.0
230
1.0
  0
LINE
  8
1
  6
CONTINUOUS
 62
   233
  5
3C3
 10
104.981417
 20
11.1035
 30
0.0
 11
104.756417
 21
11.112083
 31
0.0
  0
LINE
  8
1
  6
CONTINUOUS
 62
   233
  5
3C4
 10
105.03075
 20
11.05625
 30
0.0
 11
104.981417
 21
11.1035
 31
0.0
  0
LINE
  8
1
  6
CONTINUOUS
 62
   233
  5
3C5
 10
104.696333
 20
11.621667
 30
0.0
 11
104.696333
 21
11.146333
 31
0.0
  0
LINE
  8
1
  6
CONTINUOUS
 62
   233
  5
3C6
 10
104.620333
 20
11.621667
 30
0.0
 11
104.696333
 21
11.621667
 31
0.0
  0
LINE
  8
1
  6
CONTINUOUS
 62
   233
  5
3C7
 10
104.620333
 20
11.561833
 30
0.0
 11
104.620333
 21
11.621667
 31
0.0
  0
LINE
  8
4
  6
CONTINUOUS
 62
    99
  5
3C8
 10
104.5595
 20
11.561833
 30
0.0
 11
104.620333
 21
11.561833
 31
0.0
  0
LINE
  8
1
  6
CONTINUOUS
 62
   233
  5
3C9
 10
104.5595
 20
11.482083
 30
0.0
 11
104.5595
 21
11.561833
 31
0.0
  0
LINE
  8
1
  6
CONTINUOUS
 62
   233
  5
3CA
 10
104.6165
 20
11.358417
 30
0.0
 11
104.5595
 21
11.482083
 31
0.0
  0
LINE
  8
1
  6
CONTINUOUS
 62
   233
  5
3CB
 10
104.6165
 20
11.05625
 30
0.0
 11
104.6165
 21
11.358417
 31
0.0
  0
LINE
  8
1
  6
CONTINUOUS
 62
   233
  5
3CC
 10
105.03075
 20
11.05625
 30
0.0
 11
104.6165
 21
11.05625
 31
0.0
  0
INSERT
  8
1
  6
CONTINUOUS
 62
   240
  5
3DD
  2
$X16
 10
98.382917
 20
-0.187333
 30
0.0
210
0.0
220
0.0
230
1.0
  0
LINE
  8
1
  6
CONTINUOUS
 62
   233
  5
3DE
 10
104.935667
 20
11.10525
 30
0.0
 11
104.696333
 21
11.462833
 31
0.0
  0
LINE
  8
1
  6
CONTINUOUS
 62
   233
  5
3DF
 10
102.787167
 20
11.075917
 30
0.0
 11
103.05425
 21
11.46925
 31
0.0
  0
LINE
  8
1
  6
CONTINUOUS
 62
   233
  5
3E0
 10
103.191083
 20
11.482083
 30
0.0
 11
104.5595
 21
11.482083
 31
0.0
  0
LINE
  8
1
  6
CONTINUOUS
 62
   233
  5
3E1
 10
104.5595
 20
11.557667
 30
0.0
 11
103.191083
 21
11.561833
 31
0.0
  0
LINE
  8
1
  6
CONTINUOUS
 62
   233
  5
3E2
 10
103.13025
 20
11.621667
 30
0.0
 11
104.620333
 21
11.621667
 31
0.0
  0
LINE
  8
1
  6
CONTINUOUS
 62
     7
  5
3E3
 10
103.045667
 20
7.313083
 30
0.0
 11
103.045667
 21
7.450167
 31
0.0
  0
LINE
  8
1
  6
CONTINUOUS
 62
     7
  5
3E4
 10
103.170667
 20
7.270167
 30
0.0
 11
105.961583
 21
7.270167
 31
0.0
  0
SOLID
  8
1
  6
CONTINUOUS
 62
     7
  5
3E5
 10
103.170667
 20
7.249333
 30
0.0
 11
103.170667
 21
7.291
 31
0.0
 12
103.045667
 22
7.270167
 32
0.0
 13
103.045667
 23
7.270167
 33
0.0
  0
SOLID
  8
1
  6
CONTINUOUS
 62
     7
  5
3E6
 10
105.961583
 20
7.249333
 30
0.0
 11
105.961583
 21
7.291
 31
0.0
 12
106.086583
 22
7.270167
 32
0.0
 13
106.086583
 23
7.270167
 33
0.0
  0
LINE
  8
6
  6
CONTINUOUS
 62
     7
  5
3E7
 10
103.045667
 20
7.250583
 30
0.0
 11
103.04575
 21
7.250583
 31
0.0
  0
LINE
  8
6
  6
CONTINUOUS
 62
     7
  5
3E8
 10
106.086583
 20
7.250583
 30
0.0
 11
106.086667
 21
7.250583
 31
0.0
  0
LINE
  8
6
  6
CONTINUOUS
 62
     7
  5
3E9
 10
106.086583
 20
7.270167
 30
0.0
 11
106.086667
 21
7.270167
 31
0.0
  0
LINE
  8
1
  6
CONTINUOUS
 62
     7
  5
3EA
 10
103.045667
 20
8.06875
 30
0.0
 11
103.045667
 21
8.196083
 31
0.0
  0
LINE
  8
1
  6
CONTINUOUS
 62
     7
  5
3EB
 10
103.170667
 20
8.016083
 30
0.0
 11
105.866417
 21
8.016083
 31
0.0
  0
SOLID
  8
1
  6
CONTINUOUS
 62
     7
  5
3EC
 10
103.170667
 20
7.99525
 30
0.0
 11
103.170667
 21
8.036917
 31
0.0
 12
103.045667
 22
8.016083
 32
0.0
 13
103.045667
 23
8.016083
 33
0.0
  0
SOLID
  8
1
  6
CONTINUOUS
 62
     7
  5
3ED
 10
105.866417
 20
7.99525
 30
0.0
 11
105.866417
 21
8.036917
 31
0.0
 12
105.991417
 22
8.016083
 32
0.0
 13
105.991417
 23
8.016083
 33
0.0
  0
LINE
  8
6
  6
CONTINUOUS
 62
     7
  5
3EE
 10
103.045667
 20
8.00625
 30
0.0
 11
103.04575
 21
8.00625
 31
0.0
  0
LINE
  8
6
  6
CONTINUOUS
 62
     7
  5
3EF
 10
105.991417
 20
8.030583
 30
0.0
 11
105.9915
 21
8.030583
 31
0.0
  0
LINE
  8
6
  6
CONTINUOUS
 62
     7
  5
3F0
 10
105.991417
 20
8.016083
 30
0.0
 11
105.9915
 21
8.016083
 31
0.0
  0
LINE
  8
1
  6
CONTINUOUS
 62
     7
  5
3F1
 10
103.045667
 20
8.68975
 30
0.0
 11
103.045667
 21
8.57225
 31
0.0
  0
LINE
  8
1
  6
CONTINUOUS
 62
     7
  5
3F2
 10
103.170667
 20
8.75225
 30
0.0
 11
105.707917
 21
8.75225
 31
0.0
  0
SOLID
  8
1
  6
CONTINUOUS
 62
     7
  5
3F3
 10
103.170667
 20
8.731333
 30
0.0
 11
103.170667
 21
8.773083
 31
0.0
 12
103.045667
 22
8.75225
 32
0.0
 13
103.045667
 23
8.75225
 33
0.0
  0
SOLID
  8
1
  6
CONTINUOUS
 62
     7
  5
3F4
 10
105.707917
 20
8.731333
 30
0.0
 11
105.707917
 21
8.773083
 31
0.0
 12
105.832917
 22
8.75225
 32
0.0
 13
105.832917
 23
8.75225
 33
0.0
  0
LINE
  8
6
  6
CONTINUOUS
 62
     7
  5
3F5
 10
103.045667
 20
8.75225
 30
0.0
 11
103.04575
 21
8.75225
 31
0.0
  0
LINE
  8
6
  6
CONTINUOUS
 62
     7
  5
3F6
 10
105.832917
 20
8.734917
 30
0.0
 11
105.833
 21
8.734917
 31
0.0
  0
LINE
  8
6
  6
CONTINUOUS
 62
     7
  5
3F7
 10
105.832917
 20
8.75225
 30
0.0
 11
105.833
 21
8.75225
 31
0.0
  0
LINE
  8
1
  6
CONTINUOUS
 62
     7
  5
3F8
 10
103.045667
 20
9.570417
 30
0.0
 11
103.045667
 21
9.707583
 31
0.0
  0
LINE
  8
1
  6
CONTINUOUS
 62
     7
  5
3F9
 10
103.170667
 20
9.527583
 30
0.0
 11
105.444
 21
9.527583
 31
0.0
  0
SOLID
  8
1
  6
CONTINUOUS
 62
     7
  5
3FA
 10
103.170667
 20
9.50675
 30
0.0
 11
103.170667
 21
9.548417
 31
0.0
 12
103.045667
 22
9.527583
 32
0.0
 13
103.045667
 23
9.527583
 33
0.0
  0
SOLID
  8
1
  6
CONTINUOUS
 62
     7
  5
3FB
 10
105.444
 20
9.50675
 30
0.0
 11
105.444
 21
9.548417
 31
0.0
 12
105.569
 22
9.527583
 32
0.0
 13
105.569
 23
9.527583
 33
0.0
  0
LINE
  8
6
  6
CONTINUOUS
 62
     7
  5
3FC
 10
103.045667
 20
9.507917
 30
0.0
 11
103.04575
 21
9.507917
 31
0.0
  0
LINE
  8
6
  6
CONTINUOUS
 62
     7
  5
3FD
 10
105.569
 20
9.520083
 30
0.0
 11
105.569083
 21
9.520083
 31
0.0
  0
LINE
  8
6
  6
CONTINUOUS
 62
     7
  5
3FE
 10
105.569
 20
9.527583
 30
0.0
 11
105.569083
 21
9.527583
 31
0.0
  0
LINE
  8
1
  6
CONTINUOUS
 62
     7
  5
3FF
 10
103.045667
 20
10.220833
 30
0.0
 11
103.045667
 21
10.103333
 31
0.0
  0
LINE
  8
1
  6
CONTINUOUS
 62
     7
  5
400
 10
103.170667
 20
10.283333
 30
0.0
 11
105.0775
 21
10.283333
 31
0.0
  0
SOLID
  8
1
  6
CONTINUOUS
 62
     7
  5
401
 10
103.170667
 20
10.2625
 30
0.0
 11
103.170667
 21
10.304167
 31
0.0
 12
103.045667
 22
10.283333
 32
0.0
 13
103.045667
 23
10.283333
 33
0.0
  0
SOLID
  8
1
  6
CONTINUOUS
 62
     7
  5
402
 10
105.0775
 20
10.2625
 30
0.0
 11
105.0775
 21
10.304167
 31
0.0
 12
105.2025
 22
10.283333
 32
0.0
 13
105.2025
 23
10.283333
 33
0.0
  0
LINE
  8
6
  6
CONTINUOUS
 62
     7
  5
403
 10
103.045667
 20
10.283333
 30
0.0
 11
103.04575
 21
10.283333
 31
0.0
  0
LINE
  8
6
  6
CONTINUOUS
 62
     7
  5
404
 10
105.2025
 20
10.3055
 30
0.0
 11
105.202583
 21
10.3055
 31
0.0
  0
LINE
  8
6
  6
CONTINUOUS
 62
     7
  5
405
 10
105.2025
 20
10.283333
 30
0.0
 11
105.202583
 21
10.283333
 31
0.0
  0
TEXT
  8
3
  6
CONTINUOUS
 62
   110
  5
406
 10
103.7885
 20
10.3945
 30
0.0
 40
0.125
  1
2'-11"
  7
ROMANS
210
0.0
220
0.0
230
1.0
  0
TEXT
  8
3
  6
CONTINUOUS
 62
   110
  5
407
 10
103.79225
 20
9.657583
 30
0.0
 40
0.125
  1
3'-4"
  7
ROMANS
210
0.0
220
0.0
230
1.0
  0
TEXT
  8
3
  6
CONTINUOUS
 62
   110
  5
408
 10
103.802417
 20
8.885333
 30
0.0
 40
0.125
  1
3'-8"
  7
ROMANS
210
0.0
220
0.0
230
1.0
  0
TEXT
  8
3
  6
CONTINUOUS
 62
   110
  5
409
 10
103.699833
 20
8.082583
 30
0.0
 40
0.125
  1
3'-10"
  7
ROMANS
210
0.0
220
0.0
230
1.0
  0
TEXT
  8
3
  6
CONTINUOUS
 62
   110
  5
40A
 10
103.739417
 20
7.352833
 30
0.0
 40
0.125
  1
4'-0"
  7
ROMANS
210
0.0
220
0.0
230
1.0
  0
LINE
  8
1
  6
CONTINUOUS
 62
     7
  5
40B
 10
103.37025
 20
7.09225
 30
0.0
 11
103.675167
 21
7.09225
 31
0.0
  0
LINE
  8
1
  6
CONTINUOUS
 62
     7
  5
40C
 10
103.495167
 20
7.21725
 30
0.0
 11
103.495167
 21
8.130667
 31
0.0
  0
SOLID
  8
1
  6
CONTINUOUS
 62
     7
  5
40D
 10
103.516
 20
7.21725
 30
0.0
 11
103.474333
 21
7.21725
 31
0.0
 12
103.495167
 22
7.09225
 32
0.0
 13
103.495167
 23
7.09225
 33
0.0
  0
SOLID
  8
1
  6
CONTINUOUS
 62
     7
  5
40E
 10
103.516
 20
8.130667
 30
0.0
 11
103.474333
 21
8.130667
 31
0.0
 12
103.495167
 22
8.255667
 32
0.0
 13
103.495167
 23
8.255667
 33
0.0
  0
LINE
  8
6
  6
CONTINUOUS
 62
     7
  5
40F
 10
103.30775
 20
7.09225
 30
0.0
 11
103.307833
 21
7.09225
 31
0.0
  0
LINE
  8
6
  6
CONTINUOUS
 62
     7
  5
410
 10
103.281
 20
8.255667
 30
0.0
 11
103.281083
 21
8.255667
 31
0.0
  0
LINE
  8
6
  6
CONTINUOUS
 62
     7
  5
411
 10
103.495167
 20
8.255667
 30
0.0
 11
103.49525
 21
8.255667
 31
0.0
  0
LINE
  8
1
  6
CONTINUOUS
 62
     7
  5
412
 10
103.3435
 20
8.21575
 30
0.0
 11
103.675167
 21
8.21575
 31
0.0
  0
LINE
  8
1
  6
CONTINUOUS
 62
     7
  5
413
 10
103.3435
 20
9.357167
 30
0.0
 11
103.675167
 21
9.357167
 31
0.0
  0
LINE
  8
1
  6
CONTINUOUS
 62
     7
  5
414
 10
103.495167
 20
8.380583
 30
0.0
 11
103.495167
 21
9.272
 31
0.0
  0
SOLID
  8
1
  6
CONTINUOUS
 62
     7
  5
415
 10
103.516
 20
8.34075
 30
0.0
 11
103.474333
 21
8.34075
 31
0.0
 12
103.495167
 22
8.21575
 32
0.0
 13
103.495167
 23
8.21575
 33
0.0
  0
SOLID
  8
1
  6
CONTINUOUS
 62
     7
  5
416
 10
103.516
 20
9.232083
 30
0.0
 11
103.474333
 21
9.232083
 31
0.0
 12
103.495167
 22
9.357083
 32
0.0
 13
103.495167
 23
9.357083
 33
0.0
  0
LINE
  8
6
  6
CONTINUOUS
 62
     7
  5
417
 10
103.281
 20
8.255583
 30
0.0
 11
103.281083
 21
8.255583
 31
0.0
  0
LINE
  8
6
  6
CONTINUOUS
 62
     7
  5
418
 10
103.281
 20
9.397
 30
0.0
 11
103.281083
 21
9.397
 31
0.0
  0
LINE
  8
6
  6
CONTINUOUS
 62
     7
  5
419
 10
103.495167
 20
9.357167
 30
0.0
 11
103.49525
 21
9.357167
 31
0.0
  0
LINE
  8
1
  6
CONTINUOUS
 62
     7
  5
41A
 10
103.3435
 20
9.35725
 30
0.0
 11
103.675167
 21
9.35725
 31
0.0
  0
LINE
  8
1
  6
CONTINUOUS
 62
     7
  5
41B
 10
103.3435
 20
10.499083
 30
0.0
 11
103.675167
 21
10.499083
 31
0.0
  0
LINE
  8
1
  6
CONTINUOUS
 62
     7
  5
41C
 10
103.495167
 20
9.522083
 30
0.0
 11
103.495167
 21
10.414
 31
0.0
  0
SOLID
  8
1
  6
CONTINUOUS
 62
     7
  5
41D
 10
103.516
 20
9.482167
 30
0.0
 11
103.474333
 21
9.482167
 31
0.0
 12
103.495167
 22
9.357167
 32
0.0
 13
103.495167
 23
9.357167
 33
0.0
  0
SOLID
  8
1
  6
CONTINUOUS
 62
     7
  5
41E
 10
103.516
 20
10.374083
 30
0.0
 11
103.474333
 21
10.374083
 31
0.0
 12
103.495167
 22
10.499083
 32
0.0
 13
103.495167
 23
10.499083
 33
0.0
  0
LINE
  8
6
  6
CONTINUOUS
 62
     7
  5
41F
 10
103.281
 20
9.397083
 30
0.0
 11
103.281083
 21
9.397083
 31
0.0
  0
LINE
  8
6
  6
CONTINUOUS
 62
     7
  5
420
 10
103.281
 20
10.539
 30
0.0
 11
103.281083
 21
10.539
 31
0.0
  0
LINE
  8
6
  6
CONTINUOUS
 62
     7
  5
421
 10
103.495167
 20
10.499083
 30
0.0
 11
103.49525
 21
10.499083
 31
0.0
  0
TEXT
  8
3
  6
CONTINUOUS
 62
   110
  5
422
 10
103.43475
 20
9.7835
 30
0.0
 40
0.125
  1
16"
 50
90.0
  7
ROMANS
210
0.0
220
0.0
230
1.0
  0
TEXT
  8
3
  6
CONTINUOUS
 62
   110
  5
423
 10
103.428333
 20
7.5495
 30
0.0
 40
0.125
  1
16"
 50
90.0
  7
ROMANS
210
0.0
220
0.0
230
1.0
  0
TEXT
  8
3
  6
CONTINUOUS
 62
   110
  5
424
 10
103.422
 20
8.894667
 30
0.0
 40
0.125
  1
Max
 50
90.0
  7
ROMANS
210
0.0
220
0.0
230
1.0
  0
TEXT
  8
3
  6
CONTINUOUS
 62
   110
  5
425
 10
103.69275
 20
9.805583
 30
0.0
 40
0.125
  1
Max
 50
90.0
  7
ROMANS
210
0.0
220
0.0
230
1.0
  0
TEXT
  8
3
  6
CONTINUOUS
 62
   110
  5
426
 10
103.656667
 20
7.53625
 30
0.0
 40
0.125
  1
Max
 50
90.0
  7
ROMANS
210
0.0
220
0.0
230
1.0
  0
LINE
  8
1
  6
CONTINUOUS
 62
     7
  5
427
 10
102.441917
 20
11.034083
 30
0.0
 11
102.052333
 21
11.034083
 31
0.0
  0
LINE
  8
1
  6
CONTINUOUS
 62
     7
  5
428
 10
102.664083
 20
10.470583
 30
0.0
 11
102.052333
 21
10.470583
 31
0.0
  0
LINE
  8
1
  6
CONTINUOUS
 62
     7
  5
429
 10
102.232333
 20
10.909083
 30
0.0
 11
102.232333
 21
10.595583
 31
0.0
  0
SOLID
  8
1
  6
CONTINUOUS
 62
     7
  5
42A
 10
102.253167
 20
10.909083
 30
0.0
 11
102.2115
 21
10.909083
 31
0.0
 12
102.232333
 22
11.034083
 32
0.0
 13
102.232333
 23
11.034083
 33
0.0
  0
SOLID
  8
1
  6
CONTINUOUS
 62
     7
  5
42B
 10
102.253167
 20
10.595583
 30
0.0
 11
102.2115
 21
10.595583
 31
0.0
 12
102.232333
 22
10.470583
 32
0.0
 13
102.232333
 23
10.470583
 33
0.0
  0
TEXT
  8
1
  6
CONTINUOUS
 62
   110
  5
42C
 10
102.16475
 20
10.638833
 30
0.0
 40
0.125
  1
7"
 50
90.0
  7
ROMANS
210
0.0
220
0.0
230
1.0
  0
LINE
  8
6
  6
CONTINUOUS
 62
     7
  5
42D
 10
102.504417
 20
11.034083
 30
0.0
 11
102.5045
 21
11.034083
 31
0.0
  0
LINE
  8
6
  6
CONTINUOUS
 62
     7
  5
42E
 10
102.726583
 20
10.470583
 30
0.0
 11
102.726667
 21
10.470583
 31
0.0
  0
LINE
  8
6
  6
CONTINUOUS
 62
     7
  5
42F
 10
102.232333
 20
10.470583
 30
0.0
 11
102.232417
 21
10.470583
 31
0.0
  0
LINE
  8
1
  6
CONTINUOUS
 62
     7
  5
430
 10
102.441917
 20
11.034083
 30
0.0
 11
101.672333
 21
11.034083
 31
0.0
  0
LINE
  8
1
  6
CONTINUOUS
 62
     7
  5
431
 10
102.425083
 20
7.249333
 30
0.0
 11
101.672333
 21
7.249333
 31
0.0
  0
LINE
  8
1
  6
CONTINUOUS
 62
     7
  5
432
 10
101.852333
 20
10.909083
 30
0.0
 11
101.852333
 21
7.374333
 31
0.0
  0
SOLID
  8
1
  6
CONTINUOUS
 62
     7
  5
433
 10
101.873167
 20
10.909083
 30
0.0
 11
101.8315
 21
10.909083
 31
0.0
 12
101.852333
 22
11.034083
 32
0.0
 13
101.852333
 23
11.034083
 33
0.0
  0
SOLID
  8
1
  6
CONTINUOUS
 62
     7
  5
434
 10
101.873167
 20
7.374333
 30
0.0
 11
101.8315
 21
7.374333
 31
0.0
 12
101.852333
 22
7.249333
 32
0.0
 13
101.852333
 23
7.249333
 33
0.0
  0
TEXT
  8
1
  6
CONTINUOUS
 62
   110
  5
435
 10
101.787083
 20
8.655583
 30
0.0
 40
0.125
  1
5'-0"
 50
90.0
  7
ROMANS
210
0.0
220
0.0
230
1.0
  0
LINE
  8
6
  6
CONTINUOUS
 62
     7
  5
436
 10
102.504417
 20
11.034083
 30
0.0
 11
102.5045
 21
11.034083
 31
0.0
  0
LINE
  8
6
  6
CONTINUOUS
 62
     7
  5
437
 10
102.487583
 20
7.249333
 30
0.0
 11
102.487667
 21
7.249333
 31
0.0
  0
LINE
  8
6
  6
CONTINUOUS
 62
     7
  5
438
 10
101.852333
 20
7.249333
 30
0.0
 11
101.852417
 21
7.249333
 31
0.0
  0
LINE
  8
1
  6
CONTINUOUS
 62
     7
  5
439
 10
104.54925
 20
7.270167
 30
0.0
 11
104.704167
 21
7.270167
 31
0.0
  0
LINE
  8
1
  6
CONTINUOUS
 62
     7
  5
43A
 10
104.54925
 20
8.016083
 30
0.0
 11
104.704167
 21
8.016083
 31
0.0
  0
LINE
  8
1
  6
CONTINUOUS
 62
     7
  5
43B
 10
104.524167
 20
7.395167
 30
0.0
 11
104.524167
 21
7.891083
 31
0.0
  0
SOLID
  8
1
  6
CONTINUOUS
 62
     7
  5
43C
 10
104.545
 20
7.395167
 30
0.0
 11
104.503333
 21
7.395167
 31
0.0
 12
104.524167
 22
7.270167
 32
0.0
 13
104.524167
 23
7.270167
 33
0.0
  0
SOLID
  8
1
  6
CONTINUOUS
 62
     7
  5
43D
 10
104.545
 20
7.891083
 30
0.0
 11
104.503333
 21
7.891083
 31
0.0
 12
104.524167
 22
8.016083
 32
0.0
 13
104.524167
 23
8.016083
 33
0.0
  0
TEXT
  8
1
  6
CONTINUOUS
 62
   110
  5
43E
 10
104.776083
 20
7.53375
 30
0.0
 40
0.125
  1
12"
 50
90.0
  7
ROMANS
210
0.0
220
0.0
230
1.0
  0
LINE
  8
6
  6
CONTINUOUS
 62
     7
  5
43F
 10
104.48675
 20
7.270167
 30
0.0
 11
104.486833
 21
7.270167
 31
0.0
  0
LINE
  8
6
  6
CONTINUOUS
 62
     7
  5
440
 10
104.48675
 20
8.016083
 30
0.0
 11
104.486833
 21
8.016083
 31
0.0
  0
LINE
  8
6
  6
CONTINUOUS
 62
     7
  5
441
 10
104.524167
 20
8.016083
 30
0.0
 11
104.52425
 21
8.016083
 31
0.0
  0
LINE
  8
1
  6
CONTINUOUS
 62
     7
  5
442
 10
104.54925
 20
8.016083
 30
0.0
 11
104.704167
 21
8.016083
 31
0.0
  0
LINE
  8
1
  6
CONTINUOUS
 62
     7
  5
443
 10
104.586667
 20
8.75225
 30
0.0
 11
104.704167
 21
8.75225
 31
0.0
  0
LINE
  8
1
  6
CONTINUOUS
 62
     7
  5
444
 10
104.524167
 20
8.141083
 30
0.0
 11
104.524167
 21
8.62725
 31
0.0
  0
SOLID
  8
1
  6
CONTINUOUS
 62
     7
  5
445
 10
104.545
 20
8.141083
 30
0.0
 11
104.503333
 21
8.141083
 31
0.0
 12
104.524167
 22
8.016083
 32
0.0
 13
104.524167
 23
8.016083
 33
0.0
  0
SOLID
  8
1
  6
CONTINUOUS
 62
     7
  5
446
 10
104.545
 20
8.62725
 30
0.0
 11
104.503333
 21
8.62725
 31
0.0
 12
104.524167
 22
8.75225
 32
0.0
 13
104.524167
 23
8.75225
 33
0.0
  0
LINE
  8
6
  6
CONTINUOUS
 62
     7
  5
447
 10
104.48675
 20
8.016083
 30
0.0
 11
104.486833
 21
8.016083
 31
0.0
  0
LINE
  8
6
  6
CONTINUOUS
 62
     7
  5
448
 10
104.524167
 20
8.75225
 30
0.0
 11
104.52425
 21
8.75225
 31
0.0
  0
LINE
  8
6
  6
CONTINUOUS
 62
     7
  5
449
 10
104.524167
 20
8.75225
 30
0.0
 11
104.52425
 21
8.75225
 31
0.0
  0
LINE
  8
1
  6
CONTINUOUS
 62
     7
  5
44A
 10
104.586667
 20
8.75225
 30
0.0
 11
104.704167
 21
8.75225
 31
0.0
  0
LINE
  8
1
  6
CONTINUOUS
 62
     7
  5
44B
 10
104.480417
 20
9.527583
 30
0.0
 11
104.344167
 21
9.527583
 31
0.0
  0
LINE
  8
1
  6
CONTINUOUS
 62
     7
  5
44C
 10
104.524167
 20
8.87725
 30
0.0
 11
104.524167
 21
9.402583
 31
0.0
  0
SOLID
  8
1
  6
CONTINUOUS
 62
     7
  5
44D
 10
104.545
 20
8.87725
 30
0.0
 11
104.503333
 21
8.87725
 31
0.0
 12
104.524167
 22
8.75225
 32
0.0
 13
104.524167
 23
8.75225
 33
0.0
  0
SOLID
  8
1
  6
CONTINUOUS
 62
     7
  5
44E
 10
104.545
 20
9.402583
 30
0.0
 11
104.503333
 21
9.402583
 31
0.0
 12
104.524167
 22
9.527583
 32
0.0
 13
104.524167
 23
9.527583
 33
0.0
  0
TEXT
  8
1
  6
CONTINUOUS
 62
   110
  5
44F
 10
104.753833
 20
8.969
 30
0.0
 40
0.125
  1
12"
 50
90.0
  7
ROMANS
210
0.0
220
0.0
230
1.0
  0
LINE
  8
6
  6
CONTINUOUS
 62
     7
  5
450
 10
104.524167
 20
8.75225
 30
0.0
 11
104.52425
 21
8.75225
 31
0.0
  0
LINE
  8
6
  6
CONTINUOUS
 62
     7
  5
451
 10
104.542917
 20
9.527583
 30
0.0
 11
104.543
 21
9.527583
 31
0.0
  0
LINE
  8
6
  6
CONTINUOUS
 62
     7
  5
452
 10
104.524167
 20
9.527583
 30
0.0
 11
104.52425
 21
9.527583
 31
0.0
  0
LINE
  8
1
  6
CONTINUOUS
 62
     7
  5
453
 10
104.480417
 20
9.527583
 30
0.0
 11
104.344167
 21
9.527583
 31
0.0
  0
LINE
  8
1
  6
CONTINUOUS
 62
     7
  5
454
 10
104.558583
 20
10.283333
 30
0.0
 11
104.704167
 21
10.283333
 31
0.0
  0
LINE
  8
1
  6
CONTINUOUS
 62
     7
  5
455
 10
104.524167
 20
9.652583
 30
0.0
 11
104.524167
 21
10.158333
 31
0.0
  0
SOLID
  8
1
  6
CONTINUOUS
 62
     7
  5
456
 10
104.545
 20
9.652583
 30
0.0
 11
104.503333
 21
9.652583
 31
0.0
 12
104.524167
 22
9.527583
 32
0.0
 13
104.524167
 23
9.527583
 33
0.0
  0
SOLID
  8
1
  6
CONTINUOUS
 62
     7
  5
457
 10
104.545
 20
10.158333
 30
0.0
 11
104.503333
 21
10.158333
 31
0.0
 12
104.524167
 22
10.283333
 32
0.0
 13
104.524167
 23
10.283333
 33
0.0
  0
TEXT
  8
1
  6
CONTINUOUS
 62
   110
  5
458
 10
104.739333
 20
9.76475
 30
0.0
 40
0.125
  1
12"
 50
90.0
  7
ROMANS
210
0.0
220
0.0
230
1.0
  0
LINE
  8
6
  6
CONTINUOUS
 62
     7
  5
459
 10
104.542917
 20
9.527583
 30
0.0
 11
104.543
 21
9.527583
 31
0.0
  0
LINE
  8
6
  6
CONTINUOUS
 62
     7
  5
45A
 10
104.496083
 20
10.283333
 30
0.0
 11
104.496167
 21
10.283333
 31
0.0
  0
LINE
  8
6
  6
CONTINUOUS
 62
     7
  5
45B
 10
104.524167
 20
10.283333
 30
0.0
 11
104.52425
 21
10.283333
 31
0.0
  0
LINE
  8
1
  6
CONTINUOUS
 62
     7
  5
45C
 10
104.558583
 20
10.283333
 30
0.0
 11
104.704167
 21
10.283333
 31
0.0
  0
LINE
  8
1
  6
CONTINUOUS
 62
     7
  5
45D
 10
104.554
 20
11.05625
 30
0.0
 11
104.344167
 21
11.05625
 31
0.0
  0
LINE
  8
1
  6
CONTINUOUS
 62
     7
  5
45E
 10
104.524167
 20
10.408333
 30
0.0
 11
104.524167
 21
10.93125
 31
0.0
  0
SOLID
  8
1
  6
CONTINUOUS
 62
     7
  5
45F
 10
104.545
 20
10.408333
 30
0.0
 11
104.503333
 21
10.408333
 31
0.0
 12
104.524167
 22
10.283333
 32
0.0
 13
104.524167
 23
10.283333
 33
0.0
  0
SOLID
  8
1
  6
CONTINUOUS
 62
     7
  5
460
 10
104.545
 20
10.93125
 30
0.0
 11
104.503333
 21
10.93125
 31
0.0
 12
104.524167
 22
11.05625
 32
0.0
 13
104.524167
 23
11.05625
 33
0.0
  0
TEXT
  8
1
  6
CONTINUOUS
 62
   110
  5
461
 10
104.745083
 20
10.53375
 30
0.0
 40
0.125
  1
12"
 50
90.0
  7
ROMANS
210
0.0
220
0.0
230
1.0
  0
LINE
  8
6
  6
CONTINUOUS
 62
     7
  5
462
 10
104.496083
 20
10.283333
 30
0.0
 11
104.496167
 21
10.283333
 31
0.0
  0
LINE
  8
6
  6
CONTINUOUS
 62
     7
  5
463
 10
104.6165
 20
11.05625
 30
0.0
 11
104.616583
 21
11.05625
 31
0.0
  0
LINE
  8
6
  6
CONTINUOUS
 62
     7
  5
464
 10
104.524167
 20
11.05625
 30
0.0
 11
104.52425
 21
11.05625
 31
0.0
  0
TEXT
  8
3
  6
CONTINUOUS
 62
   110
  5
465
 10
107.271167
 20
6.648083
 30
0.0
 40
0.125
  1
To Be Brick or Concrete Above Footer
 50
90.0
  7
ROMANS
210
0.0
220
0.0
230
1.0
  0
SOLID
  8
3
  6
CONTINUOUS
 62
     2
  5
466
 10
107.001
 20
10.93125
 30
0.0
 11
107.042667
 21
10.93125
 31
0.0
 12
107.021833
 22
11.05625
 32
0.0
 13
107.021833
 23
11.05625
 33
0.0
  0
LINE
  8
3
  6
CONTINUOUS
 62
     2
  5
467
 10
107.021833
 20
11.05625
 30
0.0
 11
107.021833
 21
6.063167
 31
0.0
  0
SOLID
  8
3
  6
CONTINUOUS
 62
     2
  5
468
 10
107.042667
 20
6.188167
 30
0.0
 11
107.001
 21
6.188167
 31
0.0
 12
107.021833
 22
6.063167
 32
0.0
 13
107.021833
 23
6.063167
 33
0.0
  0
LINE
  8
1
  6
CONTINUOUS
 62
     7
  5
469
 10
103.045583
 20
6.797667
 30
0.0
 11
103.045583
 21
6.653583
 31
0.0
  0
LINE
  8
1
  6
CONTINUOUS
 62
     7
  5
46A
 10
103.307667
 20
6.97275
 30
0.0
 11
103.307667
 21
6.653583
 31
0.0
  0
LINE
  8
6
  6
CONTINUOUS
 62
     7
  5
46B
 10
103.045583
 20
6.860167
 30
0.0
 11
103.045667
 21
6.860167
 31
0.0
  0
LINE
  8
6
  6
CONTINUOUS
 62
     7
  5
46C
 10
103.307667
 20
7.03525
 30
0.0
 11
103.30775
 21
7.03525
 31
0.0
  0
LINE
  8
6
  6
CONTINUOUS
 62
     7
  5
46D
 10
103.307667
 20
6.718667
 30
0.0
 11
103.30775
 21
6.718667
 31
0.0
  0
LINE
  8
3
  6
CONTINUOUS
 62
     2
  5
46E
 10
102.775417
 20
6.718667
 30
0.0
 11
103.045667
 21
6.718667
 31
0.0
  0
SOLID
  8
3
  6
CONTINUOUS
 62
     2
  5
46F
 10
102.920667
 20
6.7395
 30
0.0
 11
102.920667
 21
6.697833
 31
0.0
 12
103.045667
 22
6.718667
 32
0.0
 13
103.045667
 23
6.718667
 33
0.0
  0
LINE
  8
3
  6
CONTINUOUS
 62
     2
  5
470
 10
103.30775
 20
6.718667
 30
0.0
 11
103.496833
 21
6.718667
 31
0.0
  0
SOLID
  8
3
  6
CONTINUOUS
 62
     2
  5
471
 10
103.432667
 20
6.7395
 30
0.0
 11
103.432667
 21
6.697833
 31
0.0
 12
103.307667
 22
6.718667
 32
0.0
 13
103.307667
 23
6.718667
 33
0.0
  0
CIRCLE
  8
1
  6
CONTINUOUS
 62
   233
  5
472
 10
103.46075
 20
17.342167
 30
0.0
 40
1.157839
210
0.0
220
0.0
230
1.0
  0
CIRCLE
  8
1
  6
CONTINUOUS
 62
   233
  5
473
 10
103.5835
 20
17.299167
 30
0.0
 40
1.491774
210
0.0
220
0.0
230
1.0
  0
CIRCLE
  8
1
  6
CONTINUOUS
 62
   233
  5
474
 10
103.752917
 20
17.274667
 30
0.0
 40
1.661807
210
0.0
220
0.0
230
1.0
  0
CIRCLE
  8
1
  6
CONTINUOUS
 62
   233
  5
475
 10
103.92825
 20
17.28075
 30
0.0
 40
1.836789
210
0.0
220
0.0
230
1.0
  0
CIRCLE
  8
1
  6
CONTINUOUS
 62
   233
  5
476
 10
104.0335
 20
17.36675
 30
0.0
 40
1.942296
210
0.0
220
0.0
230
1.0
  0
CIRCLE
  8
1
  6
CONTINUOUS
 62
   233
  5
477
 10
104.121
 20
17.292833
 30
0.0
 40
2.02965
210
0.0
220
0.0
230
1.0
  0
CIRCLE
  8
1
  6
CONTINUOUS
 62
   233
  5
478
 10
104.180083
 20
17.34825
 30
0.0
 40
2.091515
210
0.0
220
0.0
230
1.0
  0
LINE
  8
1
  6
CONTINUOUS
 62
   233
  5
479
 10
104.922667
 20
14.3235
 30
0.0
 11
104.922667
 21
15.393
 31
0.0
  0
LINE
  8
1
  6
CONTINUOUS
 62
   233
  5
47A
 10
103.472417
 20
14.349333
 30
0.0
 11
103.472417
 21
15.380083
 31
0.0
  0
LINE
  8
1
  6
CONTINUOUS
 62
   233
  5
47B
 10
104.922667
 20
14.3235
 30
0.0
 11
104.821583
 21
14.389583
 31
0.0
  0
LINE
  8
1
  6
CONTINUOUS
 62
   233
  5
47C
 10
104.821583
 20
14.389583
 30
0.0
 11
104.645
 21
14.433917
 31
0.0
  0
LINE
  8
1
  6
CONTINUOUS
 62
   233
  5
47D
 10
104.645
 20
14.433917
 30
0.0
 11
104.456833
 21
14.425833
 31
0.0
  0
LINE
  8
1
  6
CONTINUOUS
 62
   233
  5
47E
 10
104.456833
 20
14.425833
 30
0.0
 11
104.245583
 21
14.325167
 31
0.0
  0
LINE
  8
1
  6
CONTINUOUS
 62
   233
  5
47F
 10
104.245583
 20
14.325167
 30
0.0
 11
104.088167
 21
14.2285
 31
0.0
  0
LINE
  8
1
  6
CONTINUOUS
 62
   233
  5
480
 10
104.088167
 20
14.2285
 30
0.0
 11
103.942167
 21
14.216417
 31
0.0
  0
LINE
  8
1
  6
CONTINUOUS
 62
   233
  5
481
 10
103.942167
 20
14.216417
 30
0.0
 11
103.757917
 21
14.216417
 31
0.0
  0
LINE
  8
1
  6
CONTINUOUS
 62
   233
  5
482
 10
103.757917
 20
14.216417
 30
0.0
 11
103.6465
 21
14.252667
 31
0.0
  0
LINE
  8
1
  6
CONTINUOUS
 62
   233
  5
483
 10
103.6465
 20
14.252667
 30
0.0
 11
103.558167
 21
14.292917
 31
0.0
  0
LINE
  8
1
  6
CONTINUOUS
 62
   233
  5
484
 10
103.558167
 20
14.292917
 30
0.0
 11
103.472417
 21
14.349333
 31
0.0
  0
LINE
  8
1
  6
CONTINUOUS
 62
   233
  5
485
 10
104.241833
 20
14.322833
 30
0.0
 11
104.364667
 21
14.252667
 31
0.0
  0
LINE
  8
1
  6
CONTINUOUS
 62
   233
  5
486
 10
104.364667
 20
14.252667
 30
0.0
 11
104.525917
 21
14.220417
 31
0.0
  0
LINE
  8
1
  6
CONTINUOUS
 62
   233
  5
487
 10
104.525917
 20
14.220417
 30
0.0
 11
104.683417
 21
14.220417
 31
0.0
  0
LINE
  8
1
  6
CONTINUOUS
 62
   233
  5
488
 10
104.683417
 20
14.220417
 30
0.0
 11
104.86
 21
14.280833
 31
0.0
  0
LINE
  8
1
  6
CONTINUOUS
 62
   233
  5
489
 10
104.86
 20
14.280833
 30
0.0
 11
104.922667
 21
14.3235
 31
0.0
  0
LINE
  8
1
  6
CONTINUOUS
 62
   233
  5
48A
 10
104.874
 20
14.355333
 30
0.0
 11
104.874
 21
15.37525
 31
0.0
  0
LINE
  8
1
  6
CONTINUOUS
 62
   233
  5
48B
 10
104.814417
 20
14.391417
 30
0.0
 11
104.814417
 21
15.35525
 31
0.0
  0
LINE
  8
1
  6
CONTINUOUS
 62
   233
  5
48C
 10
104.73
 20
14.412583
 30
0.0
 11
104.73
 21
15.330333
 31
0.0
  0
LINE
  8
1
  6
CONTINUOUS
 62
   233
  5
48D
 10
104.579083
 20
14.431083
 30
0.0
 11
104.579083
 21
15.295167
 31
0.0
  0
LINE
  8
1
  6
CONTINUOUS
 62
   233
  5
48E
 10
103.865417
 20
14.216417
 30
0.0
 11
103.865417
 21
15.280583
 31
0.0
  0
LINE
  8
1
  6
CONTINUOUS
 62
   233
  5
48F
 10
103.710333
 20
14.231833
 30
0.0
 11
103.710333
 21
15.310167
 31
0.0
  0
LINE
  8
1
  6
CONTINUOUS
 62
   233
  5
490
 10
103.589583
 20
14.278583
 30
0.0
 11
103.589583
 21
15.341833
 31
0.0
  0
LINE
  8
1
  6
CONTINUOUS
 62
   233
  5
491
 10
103.54375
 20
14.302417
 30
0.0
 11
103.54375
 21
15.355917
 31
0.0
  0
LINE
  8
7
  6
CENTER
 62
     2
  5
493
 10
104.261
 20
13.721333
 30
0.0
 11
104.261
 21
15.258333
 31
0.0
  0
TEXT
  8
3
  6
CONTINUOUS
 62
     2
  5
494
 10
102.832417
 20
13.34275
 30
0.0
 40
0.18
  1
COMPLETE STRUCTURE
  7
MONOTXT
210
0.0
220
0.0
230
1.0
  0
TEXT
  8
3
  6
CONTINUOUS
 62
   110
  5
495
 10
107.359
 20
15.048667
 30
0.0
 40
0.125
  1
Standard Cast Iron, Reinforced
  7
ROMANS
210
0.0
220
0.0
230
1.0
  0
TEXT
  8
3
  6
CONTINUOUS
 62
   110
  5
496
 10
107.209917
 20
14.78375
 30
0.0
 40
0.125
  1
Plastic Or Reinforced Corrosion-
  7
ROMANS
210
0.0
220
0.0
230
1.0
  0
TEXT
  8
3
  6
CONTINUOUS
 62
   110
  5
497
 10
107.207667
 20
14.528833
 30
0.0
 40
0.125
  1
Resistant Rubber Manhole Steps.
  7
ROMANS
210
0.0
220
0.0
230
1.0
  0
TEXT
  8
3
  6
CONTINUOUS
 62
   110
  5
498
 10
101.13725
 20
15.003917
 30
0.0
 40
0.125
  1
Single-Grate Deep
  7
ROMANS
210
0.0
220
0.0
230
1.0
  0
TEXT
  8
3
  6
CONTINUOUS
 62
   110
  5
499
 10
101.2195
 20
14.759083
 30
0.0
 40
0.125
  1
Frame With Round
  7
ROMANS
210
0.0
220
0.0
230
1.0
  0
TEXT
  8
3
  6
CONTINUOUS
 62
   110
  5
49A
 10
101.216917
 20
14.5245
 30
0.0
 40
0.125
  1
Base.
  7
ROMANS
210
0.0
220
0.0
230
1.0
  0
TEXT
  8
3
  6
CONTINUOUS
 62
     2
  5
49B
 10
107.26925
 20
12.574583
 30
0.0
 40
0.28125
  1
PLAN VIEWS
  7
MONOTXT
210
0.0
220
0.0
230
1.0
  0
LINE
  8
1
  6
CONTINUOUS
 62
   233
  5
49C
 10
103.480833
 20
16.1845
 30
0.0
 11
103.480833
 21
16.529
 31
0.0
  0
LINE
  8
1
  6
CONTINUOUS
 62
   233
  5
49D
 10
103.521083
 20
16.185833
 30
0.0
 11
103.521083
 21
16.5285
 31
0.0
  0
LINE
  8
1
  6
CONTINUOUS
 62
   233
  5
49E
 10
103.521083
 20
18.1445
 30
0.0
 11
103.521083
 21
18.498417
 31
0.0
  0
LINE
  8
1
  6
CONTINUOUS
 62
   233
  5
49F
 10
103.480833
 20
18.14425
 30
0.0
 11
103.480833
 21
18.499833
 31
0.0
  0
LINE
  8
1
  6
CONTINUOUS
 62
   233
  5
4A0
 10
102.9965
 20
18.039667
 30
0.0
 11
102.9965
 21
17.881667
 31
0.0
  0
LINE
  8
1
  6
CONTINUOUS
 62
   233
  5
4A1
 10
102.9965
 20
17.881667
 30
0.0
 11
103.021917
 21
17.881667
 31
0.0
  0
LINE
  8
1
  6
CONTINUOUS
 62
   233
  5
4A2
 10
103.021917
 20
17.881667
 30
0.0
 11
103.021917
 21
17.985167
 31
0.0
  0
LINE
  8
1
  6
CONTINUOUS
 62
   233
  5
4A3
 10
103.021917
 20
17.985167
 30
0.0
 11
102.9965
 21
18.004083
 31
0.0
  0
LINE
  8
1
  6
CONTINUOUS
 62
   233
  5
4A4
 10
102.937083
 20
17.985167
 30
0.0
 11
102.962583
 21
18.004083
 31
0.0
  0
LINE
  8
1
  6
CONTINUOUS
 62
   233
  5
4A5
 10
102.937083
 20
17.881667
 30
0.0
 11
102.937083
 21
17.985167
 31
0.0
  0
LINE
  8
1
  6
CONTINUOUS
 62
   233
  5
4A6
 10
102.962583
 20
17.881667
 30
0.0
 11
102.937083
 21
17.881667
 31
0.0
  0
LINE
  8
1
  6
CONTINUOUS
 62
   233
  5
4A7
 10
102.962583
 20
18.039667
 30
0.0
 11
102.962583
 21
17.881667
 31
0.0
  0
LINE
  8
1
  6
CONTINUOUS
 62
   233
  5
4A8
 10
102.809
 20
18.039667
 30
0.0
 11
102.809
 21
17.881667
 31
0.0
  0
LINE
  8
1
  6
CONTINUOUS
 62
   233
  5
4A9
 10
102.809
 20
17.881667
 30
0.0
 11
102.783583
 21
17.881667
 31
0.0
  0
LINE
  8
1
  6
CONTINUOUS
 62
   233
  5
4AA
 10
102.783583
 20
17.881667
 30
0.0
 11
102.783583
 21
17.985167
 31
0.0
  0
LINE
  8
1
  6
CONTINUOUS
 62
   233
  5
4AB
 10
102.783583
 20
17.985167
 30
0.0
 11
102.809
 21
18.004083
 31
0.0
  0
LINE
  8
1
  6
CONTINUOUS
 62
   233
  5
4AC
 10
102.868417
 20
17.985167
 30
0.0
 11
102.842917
 21
18.004083
 31
0.0
  0
LINE
  8
1
  6
CONTINUOUS
 62
   233
  5
4AD
 10
102.868417
 20
17.881667
 30
0.0
 11
102.868417
 21
17.985167
 31
0.0
  0
LINE
  8
1
  6
CONTINUOUS
 62
   233
  5
4AE
 10
102.842917
 20
17.881667
 30
0.0
 11
102.868417
 21
17.881667
 31
0.0
  0
LINE
  8
1
  6
CONTINUOUS
 62
   233
  5
4AF
 10
102.842917
 20
18.039667
 30
0.0
 11
102.842917
 21
17.881667
 31
0.0
  0
LINE
  8
1
  6
CONTINUOUS
 62
   233
  5
4B0
 10
103.15025
 20
18.039667
 30
0.0
 11
103.15025
 21
17.881667
 31
0.0
  0
LINE
  8
1
  6
CONTINUOUS
 62
   233
  5
4B1
 10
103.15025
 20
17.881667
 30
0.0
 11
103.124833
 21
17.881667
 31
0.0
  0
LINE
  8
1
  6
CONTINUOUS
 62
   233
  5
4B2
 10
103.124833
 20
17.881667
 30
0.0
 11
103.124833
 21
17.985167
 31
0.0
  0
LINE
  8
1
  6
CONTINUOUS
 62
   233
  5
4B3
 10
103.124833
 20
17.985167
 30
0.0
 11
103.15025
 21
18.004083
 31
0.0
  0
LINE
  8
1
  6
CONTINUOUS
 62
   233
  5
4B4
 10
103.209667
 20
17.985167
 30
0.0
 11
103.184167
 21
18.004083
 31
0.0
  0
LINE
  8
1
  6
CONTINUOUS
 62
   233
  5
4B5
 10
103.209667
 20
17.881667
 30
0.0
 11
103.209667
 21
17.985167
 31
0.0
  0
LINE
  8
1
  6
CONTINUOUS
 62
   233
  5
4B6
 10
103.184167
 20
17.881667
 30
0.0
 11
103.209667
 21
17.881667
 31
0.0
  0
LINE
  8
1
  6
CONTINUOUS
 62
   233
  5
4B7
 10
103.184167
 20
18.039667
 30
0.0
 11
103.184167
 21
17.881667
 31
0.0
  0
LINE
  8
1
  6
CONTINUOUS
 62
   233
  5
4B8
 10
103.34225
 20
18.039667
 30
0.0
 11
103.34225
 21
17.881667
 31
0.0
  0
LINE
  8
1
  6
CONTINUOUS
 62
   233
  5
4B9
 10
103.34225
 20
17.881667
 30
0.0
 11
103.31675
 21
17.881667
 31
0.0
  0
LINE
  8
1
  6
CONTINUOUS
 62
   233
  5
4BA
 10
103.31675
 20
17.881667
 30
0.0
 11
103.31675
 21
17.985167
 31
0.0
  0
LINE
  8
1
  6
CONTINUOUS
 62
   233
  5
4BB
 10
103.31675
 20
17.985167
 30
0.0
 11
103.34225
 21
18.004083
 31
0.0
  0
LINE
  8
1
  6
CONTINUOUS
 62
   233
  5
4BC
 10
103.401583
 20
17.985167
 30
0.0
 11
103.376167
 21
18.004083
 31
0.0
  0
LINE
  8
1
  6
CONTINUOUS
 62
   233
  5
4BD
 10
103.401583
 20
17.881667
 30
0.0
 11
103.401583
 21
17.985167
 31
0.0
  0
LINE
  8
1
  6
CONTINUOUS
 62
   233
  5
4BE
 10
103.376167
 20
17.881667
 30
0.0
 11
103.401583
 21
17.881667
 31
0.0
  0
LINE
  8
1
  6
CONTINUOUS
 62
   233
  5
4BF
 10
103.376167
 20
18.039667
 30
0.0
 11
103.376167
 21
17.881667
 31
0.0
  0
LINE
  8
1
  6
CONTINUOUS
 62
   233
  5
4C0
 10
103.534167
 20
18.039667
 30
0.0
 11
103.534167
 21
17.881667
 31
0.0
  0
LINE
  8
1
  6
CONTINUOUS
 62
   233
  5
4C1
 10
103.534167
 20
17.881667
 30
0.0
 11
103.50875
 21
17.881667
 31
0.0
  0
LINE
  8
1
  6
CONTINUOUS
 62
   233
  5
4C2
 10
103.50875
 20
17.881667
 30
0.0
 11
103.50875
 21
17.985167
 31
0.0
  0
LINE
  8
1
  6
CONTINUOUS
 62
   233
  5
4C3
 10
103.50875
 20
17.985167
 30
0.0
 11
103.534167
 21
18.004083
 31
0.0
  0
LINE
  8
1
  6
CONTINUOUS
 62
   233
  5
4C4
 10
103.593583
 20
17.985167
 30
0.0
 11
103.568083
 21
18.004083
 31
0.0
  0
LINE
  8
1
  6
CONTINUOUS
 62
   233
  5
4C5
 10
103.593583
 20
17.881667
 30
0.0
 11
103.593583
 21
17.985167
 31
0.0
  0
LINE
  8
1
  6
CONTINUOUS
 62
   233
  5
4C6
 10
103.568083
 20
17.881667
 30
0.0
 11
103.593583
 21
17.881667
 31
0.0
  0
LINE
  8
1
  6
CONTINUOUS
 62
   233
  5
4C7
 10
103.568083
 20
18.039667
 30
0.0
 11
103.568083
 21
17.881667
 31
0.0
  0
LINE
  8
1
  6
CONTINUOUS
 62
   233
  5
4C8
 10
103.726083
 20
18.039667
 30
0.0
 11
103.726083
 21
17.881667
 31
0.0
  0
LINE
  8
1
  6
CONTINUOUS
 62
   233
  5
4C9
 10
103.726083
 20
17.881667
 30
0.0
 11
103.700667
 21
17.881667
 31
0.0
  0
LINE
  8
1
  6
CONTINUOUS
 62
   233
  5
4CA
 10
103.700667
 20
17.881667
 30
0.0
 11
103.700667
 21
17.985167
 31
0.0
  0
LINE
  8
1
  6
CONTINUOUS
 62
   233
  5
4CB
 10
103.700667
 20
17.985167
 30
0.0
 11
103.726083
 21
18.004083
 31
0.0
  0
LINE
  8
1
  6
CONTINUOUS
 62
   233
  5
4CC
 10
103.7855
 20
17.985167
 30
0.0
 11
103.760083
 21
18.004083
 31
0.0
  0
LINE
  8
1
  6
CONTINUOUS
 62
   233
  5
4CD
 10
103.7855
 20
17.881667
 30
0.0
 11
103.7855
 21
17.985167
 31
0.0
  0
LINE
  8
1
  6
CONTINUOUS
 62
   233
  5
4CE
 10
103.760083
 20
17.881667
 30
0.0
 11
103.7855
 21
17.881667
 31
0.0
  0
LINE
  8
1
  6
CONTINUOUS
 62
   233
  5
4CF
 10
103.760083
 20
18.039667
 30
0.0
 11
103.760083
 21
17.881667
 31
0.0
  0
LINE
  8
1
  6
CONTINUOUS
 62
   233
  5
4D0
 10
103.913833
 20
18.039667
 30
0.0
 11
103.913833
 21
17.881667
 31
0.0
  0
LINE
  8
1
  6
CONTINUOUS
 62
   233
  5
4D1
 10
103.913833
 20
17.881667
 30
0.0
 11
103.888333
 21
17.881667
 31
0.0
  0
LINE
  8
1
  6
CONTINUOUS
 62
   233
  5
4D2
 10
103.888333
 20
17.881667
 30
0.0
 11
103.888333
 21
17.985167
 31
0.0
  0
LINE
  8
1
  6
CONTINUOUS
 62
   233
  5
4D3
 10
103.888333
 20
17.985167
 30
0.0
 11
103.913833
 21
18.004083
 31
0.0
  0
LINE
  8
1
  6
CONTINUOUS
 62
   233
  5
4D4
 10
103.973167
 20
17.985167
 30
0.0
 11
103.94775
 21
18.004083
 31
0.0
  0
LINE
  8
1
  6
CONTINUOUS
 62
   233
  5
4D5
 10
103.973167
 20
17.881667
 30
0.0
 11
103.973167
 21
17.985167
 31
0.0
  0
LINE
  8
1
  6
CONTINUOUS
 62
   233
  5
4D6
 10
103.94775
 20
17.881667
 30
0.0
 11
103.973167
 21
17.881667
 31
0.0
  0
LINE
  8
1
  6
CONTINUOUS
 62
   233
  5
4D7
 10
103.94775
 20
18.039667
 30
0.0
 11
103.94775
 21
17.881667
 31
0.0
  0
LINE
  8
1
  6
CONTINUOUS
 62
   233
  5
4D8
 10
104.127083
 20
18.039667
 30
0.0
 11
104.127083
 21
17.881667
 31
0.0
  0
LINE
  8
1
  6
CONTINUOUS
 62
   233
  5
4D9
 10
104.127083
 20
17.881667
 30
0.0
 11
104.101667
 21
17.881667
 31
0.0
  0
LINE
  8
1
  6
CONTINUOUS
 62
   233
  5
4DA
 10
104.101667
 20
17.881667
 30
0.0
 11
104.101667
 21
17.985167
 31
0.0
  0
LINE
  8
1
  6
CONTINUOUS
 62
   233
  5
4DB
 10
104.101667
 20
17.985167
 30
0.0
 11
104.127083
 21
18.004083
 31
0.0
  0
LINE
  8
1
  6
CONTINUOUS
 62
   233
  5
4DC
 10
104.1865
 20
17.985167
 30
0.0
 11
104.161
 21
18.004083
 31
0.0
  0
LINE
  8
1
  6
CONTINUOUS
 62
   233
  5
4DD
 10
104.1865
 20
17.881667
 30
0.0
 11
104.1865
 21
17.985167
 31
0.0
  0
LINE
  8
1
  6
CONTINUOUS
 62
   233
  5
4DE
 10
104.161
 20
17.881667
 30
0.0
 11
104.1865
 21
17.881667
 31
0.0
  0
LINE
  8
1
  6
CONTINUOUS
 62
   233
  5
4DF
 10
104.161
 20
18.039667
 30
0.0
 11
104.161
 21
17.881667
 31
0.0
  0
LINE
  8
1
  6
CONTINUOUS
 62
   233
  5
4E0
 10
104.161
 20
17.596667
 30
0.0
 11
104.161
 21
17.438583
 31
0.0
  0
LINE
  8
1
  6
CONTINUOUS
 62
   233
  5
4E1
 10
104.161
 20
17.438583
 30
0.0
 11
104.1865
 21
17.438583
 31
0.0
  0
LINE
  8
1
  6
CONTINUOUS
 62
   233
  5
4E2
 10
104.1865
 20
17.438583
 30
0.0
 11
104.1865
 21
17.542083
 31
0.0
  0
LINE
  8
1
  6
CONTINUOUS
 62
   233
  5
4E3
 10
104.1865
 20
17.542083
 30
0.0
 11
104.161
 21
17.561
 31
0.0
  0
LINE
  8
1
  6
CONTINUOUS
 62
   233
  5
4E4
 10
104.101667
 20
17.542083
 30
0.0
 11
104.127083
 21
17.561
 31
0.0
  0
LINE
  8
1
  6
CONTINUOUS
 62
   233
  5
4E5
 10
104.101667
 20
17.438583
 30
0.0
 11
104.101667
 21
17.542083
 31
0.0
  0
LINE
  8
1
  6
CONTINUOUS
 62
   233
  5
4E6
 10
104.127083
 20
17.438583
 30
0.0
 11
104.101667
 21
17.438583
 31
0.0
  0
LINE
  8
1
  6
CONTINUOUS
 62
   233
  5
4E7
 10
104.127083
 20
17.596667
 30
0.0
 11
104.127083
 21
17.438583
 31
0.0
  0
LINE
  8
1
  6
CONTINUOUS
 62
   233
  5
4E8
 10
103.94775
 20
17.596667
 30
0.0
 11
103.94775
 21
17.438583
 31
0.0
  0
LINE
  8
1
  6
CONTINUOUS
 62
   233
  5
4E9
 10
103.94775
 20
17.438583
 30
0.0
 11
103.973167
 21
17.438583
 31
0.0
  0
LINE
  8
1
  6
CONTINUOUS
 62
   233
  5
4EA
 10
103.973167
 20
17.438583
 30
0.0
 11
103.973167
 21
17.542083
 31
0.0
  0
LINE
  8
1
  6
CONTINUOUS
 62
   233
  5
4EB
 10
103.973167
 20
17.542083
 30
0.0
 11
103.94775
 21
17.561
 31
0.0
  0
LINE
  8
1
  6
CONTINUOUS
 62
   233
  5
4EC
 10
103.888333
 20
17.542083
 30
0.0
 11
103.913833
 21
17.561
 31
0.0
  0
LINE
  8
1
  6
CONTINUOUS
 62
   233
  5
4ED
 10
103.888333
 20
17.438583
 30
0.0
 11
103.888333
 21
17.542083
 31
0.0
  0
LINE
  8
1
  6
CONTINUOUS
 62
   233
  5
4EE
 10
103.913833
 20
17.438583
 30
0.0
 11
103.888333
 21
17.438583
 31
0.0
  0
LINE
  8
1
  6
CONTINUOUS
 62
   233
  5
4EF
 10
103.913833
 20
17.596667
 30
0.0
 11
103.913833
 21
17.438583
 31
0.0
  0
LINE
  8
1
  6
CONTINUOUS
 62
   233
  5
4F0
 10
103.760083
 20
17.596667
 30
0.0
 11
103.760083
 21
17.438583
 31
0.0
  0
LINE
  8
1
  6
CONTINUOUS
 62
   233
  5
4F1
 10
103.760083
 20
17.438583
 30
0.0
 11
103.7855
 21
17.438583
 31
0.0
  0
LINE
  8
1
  6
CONTINUOUS
 62
   233
  5
4F2
 10
103.7855
 20
17.438583
 30
0.0
 11
103.7855
 21
17.542083
 31
0.0
  0
LINE
  8
1
  6
CONTINUOUS
 62
   233
  5
4F3
 10
103.7855
 20
17.542083
 30
0.0
 11
103.760083
 21
17.561
 31
0.0
  0
LINE
  8
1
  6
CONTINUOUS
 62
   233
  5
4F4
 10
103.700667
 20
17.542083
 30
0.0
 11
103.726083
 21
17.561
 31
0.0
  0
LINE
  8
1
  6
CONTINUOUS
 62
   233
  5
4F5
 10
103.700667
 20
17.438583
 30
0.0
 11
103.700667
 21
17.542083
 31
0.0
  0
LINE
  8
1
  6
CONTINUOUS
 62
   233
  5
4F6
 10
103.726083
 20
17.438583
 30
0.0
 11
103.700667
 21
17.438583
 31
0.0
  0
LINE
  8
1
  6
CONTINUOUS
 62
   233
  5
4F7
 10
103.726083
 20
17.596667
 30
0.0
 11
103.726083
 21
17.438583
 31
0.0
  0
LINE
  8
1
  6
CONTINUOUS
 62
   233
  5
4F8
 10
103.568083
 20
17.596667
 30
0.0
 11
103.568083
 21
17.438583
 31
0.0
  0
LINE
  8
1
  6
CONTINUOUS
 62
   233
  5
4F9
 10
103.568083
 20
17.438583
 30
0.0
 11
103.593583
 21
17.438583
 31
0.0
  0
LINE
  8
1
  6
CONTINUOUS
 62
   233
  5
4FA
 10
103.593583
 20
17.438583
 30
0.0
 11
103.593583
 21
17.542083
 31
0.0
  0
LINE
  8
1
  6
CONTINUOUS
 62
   233
  5
4FB
 10
103.593583
 20
17.542083
 30
0.0
 11
103.568083
 21
17.561
 31
0.0
  0
LINE
  8
1
  6
CONTINUOUS
 62
   233
  5
4FC
 10
103.50875
 20
17.542083
 30
0.0
 11
103.534167
 21
17.561
 31
0.0
  0
LINE
  8
1
  6
CONTINUOUS
 62
   233
  5
4FD
 10
103.50875
 20
17.438583
 30
0.0
 11
103.50875
 21
17.542083
 31
0.0
  0
LINE
  8
1
  6
CONTINUOUS
 62
   233
  5
4FE
 10
103.534167
 20
17.438583
 30
0.0
 11
103.50875
 21
17.438583
 31
0.0
  0
LINE
  8
1
  6
CONTINUOUS
 62
   233
  5
4FF
 10
103.534167
 20
17.596667
 30
0.0
 11
103.534167
 21
17.438583
 31
0.0
  0
LINE
  8
1
  6
CONTINUOUS
 62
   233
  5
500
 10
103.376167
 20
17.596667
 30
0.0
 11
103.376167
 21
17.438583
 31
0.0
  0
LINE
  8
1
  6
CONTINUOUS
 62
   233
  5
501
 10
103.376167
 20
17.438583
 30
0.0
 11
103.401583
 21
17.438583
 31
0.0
  0
LINE
  8
1
  6
CONTINUOUS
 62
   233
  5
502
 10
103.401583
 20
17.438583
 30
0.0
 11
103.401583
 21
17.542083
 31
0.0
  0
LINE
  8
1
  6
CONTINUOUS
 62
   233
  5
503
 10
103.401583
 20
17.542083
 30
0.0
 11
103.376167
 21
17.561
 31
0.0
  0
LINE
  8
1
  6
CONTINUOUS
 62
   233
  5
504
 10
103.31675
 20
17.542083
 30
0.0
 11
103.34225
 21
17.561
 31
0.0
  0
LINE
  8
1
  6
CONTINUOUS
 62
   233
  5
505
 10
103.31675
 20
17.438583
 30
0.0
 11
103.31675
 21
17.542083
 31
0.0
  0
LINE
  8
1
  6
CONTINUOUS
 62
   233
  5
506
 10
103.34225
 20
17.438583
 30
0.0
 11
103.31675
 21
17.438583
 31
0.0
  0
LINE
  8
1
  6
CONTINUOUS
 62
   233
  5
507
 10
103.34225
 20
17.596667
 30
0.0
 11
103.34225
 21
17.438583
 31
0.0
  0
LINE
  8
1
  6
CONTINUOUS
 62
   233
  5
508
 10
103.184167
 20
17.596667
 30
0.0
 11
103.184167
 21
17.438583
 31
0.0
  0
LINE
  8
1
  6
CONTINUOUS
 62
   233
  5
509
 10
103.184167
 20
17.438583
 30
0.0
 11
103.209667
 21
17.438583
 31
0.0
  0
LINE
  8
1
  6
CONTINUOUS
 62
   233
  5
50A
 10
103.209667
 20
17.438583
 30
0.0
 11
103.209667
 21
17.542083
 31
0.0
  0
LINE
  8
1
  6
CONTINUOUS
 62
   233
  5
50B
 10
103.209667
 20
17.542083
 30
0.0
 11
103.184167
 21
17.561
 31
0.0
  0
LINE
  8
1
  6
CONTINUOUS
 62
   233
  5
50C
 10
103.124833
 20
17.542083
 30
0.0
 11
103.15025
 21
17.561
 31
0.0
  0
LINE
  8
1
  6
CONTINUOUS
 62
   233
  5
50D
 10
103.124833
 20
17.438583
 30
0.0
 11
103.124833
 21
17.542083
 31
0.0
  0
LINE
  8
1
  6
CONTINUOUS
 62
   233
  5
50E
 10
103.15025
 20
17.438583
 30
0.0
 11
103.124833
 21
17.438583
 31
0.0
  0
LINE
  8
1
  6
CONTINUOUS
 62
   233
  5
50F
 10
103.15025
 20
17.596667
 30
0.0
 11
103.15025
 21
17.438583
 31
0.0
  0
LINE
  8
1
  6
CONTINUOUS
 62
   233
  5
510
 10
102.842917
 20
17.596667
 30
0.0
 11
102.842917
 21
17.438583
 31
0.0
  0
LINE
  8
1
  6
CONTINUOUS
 62
   233
  5
511
 10
102.842917
 20
17.438583
 30
0.0
 11
102.868417
 21
17.438583
 31
0.0
  0
LINE
  8
1
  6
CONTINUOUS
 62
   233
  5
512
 10
102.868417
 20
17.438583
 30
0.0
 11
102.868417
 21
17.542083
 31
0.0
  0
LINE
  8
1
  6
CONTINUOUS
 62
   233
  5
513
 10
102.868417
 20
17.542083
 30
0.0
 11
102.842917
 21
17.561
 31
0.0
  0
LINE
  8
1
  6
CONTINUOUS
 62
   233
  5
514
 10
102.783583
 20
17.542083
 30
0.0
 11
102.809
 21
17.561
 31
0.0
  0
LINE
  8
1
  6
CONTINUOUS
 62
   233
  5
515
 10
102.783583
 20
17.438583
 30
0.0
 11
102.783583
 21
17.542083
 31
0.0
  0
LINE
  8
1
  6
CONTINUOUS
 62
   233
  5
516
 10
102.809
 20
17.438583
 30
0.0
 11
102.783583
 21
17.438583
 31
0.0
  0
LINE
  8
1
  6
CONTINUOUS
 62
   233
  5
517
 10
102.809
 20
17.596667
 30
0.0
 11
102.809
 21
17.438583
 31
0.0
  0
LINE
  8
1
  6
CONTINUOUS
 62
   233
  5
518
 10
102.962583
 20
17.596667
 30
0.0
 11
102.962583
 21
17.438583
 31
0.0
  0
LINE
  8
1
  6
CONTINUOUS
 62
   233
  5
519
 10
102.962583
 20
17.438583
 30
0.0
 11
102.937083
 21
17.438583
 31
0.0
  0
LINE
  8
1
  6
CONTINUOUS
 62
   233
  5
51A
 10
102.937083
 20
17.438583
 30
0.0
 11
102.937083
 21
17.542083
 31
0.0
  0
LINE
  8
1
  6
CONTINUOUS
 62
   233
  5
51B
 10
102.937083
 20
17.542083
 30
0.0
 11
102.962583
 21
17.561
 31
0.0
  0
LINE
  8
1
  6
CONTINUOUS
 62
   233
  5
51C
 10
103.021917
 20
17.542083
 30
0.0
 11
102.9965
 21
17.561
 31
0.0
  0
LINE
  8
1
  6
CONTINUOUS
 62
   233
  5
51D
 10
103.021917
 20
17.438583
 30
0.0
 11
103.021917
 21
17.542083
 31
0.0
  0
LINE
  8
1
  6
CONTINUOUS
 62
   233
  5
51E
 10
102.9965
 20
17.438583
 30
0.0
 11
103.021917
 21
17.438583
 31
0.0
  0
LINE
  8
1
  6
CONTINUOUS
 62
   233
  5
51F
 10
102.9965
 20
17.596667
 30
0.0
 11
102.9965
 21
17.438583
 31
0.0
  0
LINE
  8
1
  6
CONTINUOUS
 62
   233
  5
520
 10
104.161
 20
17.149083
 30
0.0
 11
104.161
 21
16.991083
 31
0.0
  0
LINE
  8
1
  6
CONTINUOUS
 62
   233
  5
521
 10
104.161
 20
16.991083
 30
0.0
 11
104.1865
 21
16.991083
 31
0.0
  0
LINE
  8
1
  6
CONTINUOUS
 62
   233
  5
522
 10
104.1865
 20
16.991083
 30
0.0
 11
104.1865
 21
17.094583
 31
0.0
  0
LINE
  8
1
  6
CONTINUOUS
 62
   233
  5
523
 10
104.1865
 20
17.094583
 30
0.0
 11
104.161
 21
17.1135
 31
0.0
  0
LINE
  8
1
  6
CONTINUOUS
 62
   233
  5
524
 10
104.101667
 20
17.094583
 30
0.0
 11
104.127083
 21
17.1135
 31
0.0
  0
LINE
  8
1
  6
CONTINUOUS
 62
   233
  5
525
 10
104.101667
 20
16.991083
 30
0.0
 11
104.101667
 21
17.094583
 31
0.0
  0
LINE
  8
1
  6
CONTINUOUS
 62
   233
  5
526
 10
104.127083
 20
16.991083
 30
0.0
 11
104.101667
 21
16.991083
 31
0.0
  0
LINE
  8
1
  6
CONTINUOUS
 62
   233
  5
527
 10
104.127083
 20
17.149083
 30
0.0
 11
104.127083
 21
16.991083
 31
0.0
  0
LINE
  8
1
  6
CONTINUOUS
 62
   233
  5
528
 10
103.94775
 20
17.149083
 30
0.0
 11
103.94775
 21
16.991083
 31
0.0
  0
LINE
  8
1
  6
CONTINUOUS
 62
   233
  5
529
 10
103.94775
 20
16.991083
 30
0.0
 11
103.973167
 21
16.991083
 31
0.0
  0
LINE
  8
1
  6
CONTINUOUS
 62
   233
  5
52A
 10
103.973167
 20
16.991083
 30
0.0
 11
103.973167
 21
17.094583
 31
0.0
  0
LINE
  8
1
  6
CONTINUOUS
 62
   233
  5
52B
 10
103.973167
 20
17.094583
 30
0.0
 11
103.94775
 21
17.1135
 31
0.0
  0
LINE
  8
1
  6
CONTINUOUS
 62
   233
  5
52C
 10
103.888333
 20
17.094583
 30
0.0
 11
103.913833
 21
17.1135
 31
0.0
  0
LINE
  8
1
  6
CONTINUOUS
 62
   233
  5
52D
 10
103.888333
 20
16.991083
 30
0.0
 11
103.888333
 21
17.094583
 31
0.0
  0
LINE
  8
1
  6
CONTINUOUS
 62
   233
  5
52E
 10
103.913833
 20
16.991083
 30
0.0
 11
103.888333
 21
16.991083
 31
0.0
  0
LINE
  8
1
  6
CONTINUOUS
 62
   233
  5
52F
 10
103.913833
 20
17.149083
 30
0.0
 11
103.913833
 21
16.991083
 31
0.0
  0
LINE
  8
1
  6
CONTINUOUS
 62
   233
  5
530
 10
103.760083
 20
17.149083
 30
0.0
 11
103.760083
 21
16.991083
 31
0.0
  0
LINE
  8
1
  6
CONTINUOUS
 62
   233
  5
531
 10
103.760083
 20
16.991083
 30
0.0
 11
103.7855
 21
16.991083
 31
0.0
  0
LINE
  8
1
  6
CONTINUOUS
 62
   233
  5
532
 10
103.7855
 20
16.991083
 30
0.0
 11
103.7855
 21
17.094583
 31
0.0
  0
LINE
  8
1
  6
CONTINUOUS
 62
   233
  5
533
 10
103.7855
 20
17.094583
 30
0.0
 11
103.760083
 21
17.1135
 31
0.0
  0
LINE
  8
1
  6
CONTINUOUS
 62
   233
  5
534
 10
103.700667
 20
17.094583
 30
0.0
 11
103.726083
 21
17.1135
 31
0.0
  0
LINE
  8
1
  6
CONTINUOUS
 62
   233
  5
535
 10
103.700667
 20
16.991083
 30
0.0
 11
103.700667
 21
17.094583
 31
0.0
  0
LINE
  8
1
  6
CONTINUOUS
 62
   233
  5
536
 10
103.726083
 20
16.991083
 30
0.0
 11
103.700667
 21
16.991083
 31
0.0
  0
LINE
  8
1
  6
CONTINUOUS
 62
   233
  5
537
 10
103.726083
 20
17.149083
 30
0.0
 11
103.726083
 21
16.991083
 31
0.0
  0
LINE
  8
1
  6
CONTINUOUS
 62
   233
  5
538
 10
103.568083
 20
17.149083
 30
0.0
 11
103.568083
 21
16.991083
 31
0.0
  0
LINE
  8
1
  6
CONTINUOUS
 62
   233
  5
539
 10
103.568083
 20
16.991083
 30
0.0
 11
103.593583
 21
16.991083
 31
0.0
  0
LINE
  8
1
  6
CONTINUOUS
 62
   233
  5
53A
 10
103.593583
 20
16.991083
 30
0.0
 11
103.593583
 21
17.094583
 31
0.0
  0
LINE
  8
1
  6
CONTINUOUS
 62
   233
  5
53B
 10
103.593583
 20
17.094583
 30
0.0
 11
103.568083
 21
17.1135
 31
0.0
  0
LINE
  8
1
  6
CONTINUOUS
 62
   233
  5
53C
 10
103.50875
 20
17.094583
 30
0.0
 11
103.534167
 21
17.1135
 31
0.0
  0
LINE
  8
1
  6
CONTINUOUS
 62
   233
  5
53D
 10
103.50875
 20
16.991083
 30
0.0
 11
103.50875
 21
17.094583
 31
0.0
  0
LINE
  8
1
  6
CONTINUOUS
 62
   233
  5
53E
 10
103.534167
 20
16.991083
 30
0.0
 11
103.50875
 21
16.991083
 31
0.0
  0
LINE
  8
1
  6
CONTINUOUS
 62
   233
  5
53F
 10
103.534167
 20
17.149083
 30
0.0
 11
103.534167
 21
16.991083
 31
0.0
  0
LINE
  8
1
  6
CONTINUOUS
 62
   233
  5
540
 10
103.376167
 20
17.149083
 30
0.0
 11
103.376167
 21
16.991083
 31
0.0
  0
LINE
  8
1
  6
CONTINUOUS
 62
   233
  5
541
 10
103.376167
 20
16.991083
 30
0.0
 11
103.401583
 21
16.991083
 31
0.0
  0
LINE
  8
1
  6
CONTINUOUS
 62
   233
  5
542
 10
103.401583
 20
16.991083
 30
0.0
 11
103.401583
 21
17.094583
 31
0.0
  0
LINE
  8
1
  6
CONTINUOUS
 62
   233
  5
543
 10
103.401583
 20
17.094583
 30
0.0
 11
103.376167
 21
17.1135
 31
0.0
  0
LINE
  8
1
  6
CONTINUOUS
 62
   233
  5
544
 10
103.31675
 20
17.094583
 30
0.0
 11
103.34225
 21
17.1135
 31
0.0
  0
LINE
  8
1
  6
CONTINUOUS
 62
   233
  5
545
 10
103.31675
 20
16.991083
 30
0.0
 11
103.31675
 21
17.094583
 31
0.0
  0
LINE
  8
1
  6
CONTINUOUS
 62
   233
  5
546
 10
103.34225
 20
16.991083
 30
0.0
 11
103.31675
 21
16.991083
 31
0.0
  0
LINE
  8
1
  6
CONTINUOUS
 62
   233
  5
547
 10
103.34225
 20
17.149083
 30
0.0
 11
103.34225
 21
16.991083
 31
0.0
  0
LINE
  8
1
  6
CONTINUOUS
 62
   233
  5
548
 10
103.184167
 20
17.149083
 30
0.0
 11
103.184167
 21
16.991083
 31
0.0
  0
LINE
  8
1
  6
CONTINUOUS
 62
   233
  5
549
 10
103.184167
 20
16.991083
 30
0.0
 11
103.209667
 21
16.991083
 31
0.0
  0
LINE
  8
1
  6
CONTINUOUS
 62
   233
  5
54A
 10
103.209667
 20
16.991083
 30
0.0
 11
103.209667
 21
17.094583
 31
0.0
  0
LINE
  8
1
  6
CONTINUOUS
 62
   233
  5
54B
 10
103.209667
 20
17.094583
 30
0.0
 11
103.184167
 21
17.1135
 31
0.0
  0
LINE
  8
1
  6
CONTINUOUS
 62
   233
  5
54C
 10
103.124833
 20
17.094583
 30
0.0
 11
103.15025
 21
17.1135
 31
0.0
  0
LINE
  8
1
  6
CONTINUOUS
 62
   233
  5
54D
 10
103.124833
 20
16.991083
 30
0.0
 11
103.124833
 21
17.094583
 31
0.0
  0
LINE
  8
1
  6
CONTINUOUS
 62
   233
  5
54E
 10
103.15025
 20
16.991083
 30
0.0
 11
103.124833
 21
16.991083
 31
0.0
  0
LINE
  8
1
  6
CONTINUOUS
 62
   233
  5
54F
 10
103.15025
 20
17.149083
 30
0.0
 11
103.15025
 21
16.991083
 31
0.0
  0
LINE
  8
1
  6
CONTINUOUS
 62
   233
  5
550
 10
102.842917
 20
17.149083
 30
0.0
 11
102.842917
 21
16.991083
 31
0.0
  0
LINE
  8
1
  6
CONTINUOUS
 62
   233
  5
551
 10
102.842917
 20
16.991083
 30
0.0
 11
102.868417
 21
16.991083
 31
0.0
  0
LINE
  8
1
  6
CONTINUOUS
 62
   233
  5
552
 10
102.868417
 20
16.991083
 30
0.0
 11
102.868417
 21
17.094583
 31
0.0
  0
LINE
  8
1
  6
CONTINUOUS
 62
   233
  5
553
 10
102.868417
 20
17.094583
 30
0.0
 11
102.842917
 21
17.1135
 31
0.0
  0
LINE
  8
1
  6
CONTINUOUS
 62
   233
  5
554
 10
102.783583
 20
17.094583
 30
0.0
 11
102.809
 21
17.1135
 31
0.0
  0
LINE
  8
1
  6
CONTINUOUS
 62
   233
  5
555
 10
102.783583
 20
16.991083
 30
0.0
 11
102.783583
 21
17.094583
 31
0.0
  0
LINE
  8
1
  6
CONTINUOUS
 62
   233
  5
556
 10
102.809
 20
16.991083
 30
0.0
 11
102.783583
 21
16.991083
 31
0.0
  0
LINE
  8
1
  6
CONTINUOUS
 62
   233
  5
557
 10
102.809
 20
17.149083
 30
0.0
 11
102.809
 21
16.991083
 31
0.0
  0
LINE
  8
1
  6
CONTINUOUS
 62
   233
  5
558
 10
102.962583
 20
17.149083
 30
0.0
 11
102.962583
 21
16.991083
 31
0.0
  0
LINE
  8
1
  6
CONTINUOUS
 62
   233
  5
559
 10
102.962583
 20
16.991083
 30
0.0
 11
102.937083
 21
16.991083
 31
0.0
  0
LINE
  8
1
  6
CONTINUOUS
 62
   233
  5
55A
 10
102.937083
 20
16.991083
 30
0.0
 11
102.937083
 21
17.094583
 31
0.0
  0
LINE
  8
1
  6
CONTINUOUS
 62
   233
  5
55B
 10
102.937083
 20
17.094583
 30
0.0
 11
102.962583
 21
17.1135
 31
0.0
  0
LINE
  8
1
  6
CONTINUOUS
 62
   233
  5
55C
 10
103.021917
 20
17.094583
 30
0.0
 11
102.9965
 21
17.1135
 31
0.0
  0
LINE
  8
1
  6
CONTINUOUS
 62
   233
  5
55D
 10
103.021917
 20
16.991083
 30
0.0
 11
103.021917
 21
17.094583
 31
0.0
  0
LINE
  8
1
  6
CONTINUOUS
 62
   233
  5
55E
 10
102.9965
 20
16.991083
 30
0.0
 11
103.021917
 21
16.991083
 31
0.0
  0
LINE
  8
1
  6
CONTINUOUS
 62
   233
  5
55F
 10
102.9965
 20
17.149083
 30
0.0
 11
102.9965
 21
16.991083
 31
0.0
  0
LINE
  8
1
  6
CONTINUOUS
 62
   233
  5
560
 10
104.01175
 20
17.815917
 30
0.0
 11
104.01175
 21
17.657917
 31
0.0
  0
LINE
  8
1
  6
CONTINUOUS
 62
   233
  5
561
 10
104.01175
 20
17.657917
 30
0.0
 11
104.037167
 21
17.657917
 31
0.0
  0
LINE
  8
1
  6
CONTINUOUS
 62
   233
  5
562
 10
104.037167
 20
17.657917
 30
0.0
 11
104.037167
 21
17.761417
 31
0.0
  0
LINE
  8
1
  6
CONTINUOUS
 62
   233
  5
563
 10
104.037167
 20
17.761417
 30
0.0
 11
104.01175
 21
17.780333
 31
0.0
  0
LINE
  8
1
  6
CONTINUOUS
 62
   233
  5
564
 10
103.952333
 20
17.761417
 30
0.0
 11
103.977833
 21
17.780333
 31
0.0
  0
LINE
  8
1
  6
CONTINUOUS
 62
   233
  5
565
 10
103.952333
 20
17.657917
 30
0.0
 11
103.952333
 21
17.761417
 31
0.0
  0
LINE
  8
1
  6
CONTINUOUS
 62
   233
  5
566
 10
103.977833
 20
17.657917
 30
0.0
 11
103.952333
 21
17.657917
 31
0.0
  0
LINE
  8
1
  6
CONTINUOUS
 62
   233
  5
567
 10
103.977833
 20
17.815917
 30
0.0
 11
103.977833
 21
17.657917
 31
0.0
  0
LINE
  8
1
  6
CONTINUOUS
 62
   233
  5
568
 10
103.824083
 20
17.815917
 30
0.0
 11
103.824083
 21
17.657917
 31
0.0
  0
LINE
  8
1
  6
CONTINUOUS
 62
   233
  5
569
 10
103.824083
 20
17.657917
 30
0.0
 11
103.8495
 21
17.657917
 31
0.0
  0
LINE
  8
1
  6
CONTINUOUS
 62
   233
  5
56A
 10
103.8495
 20
17.657917
 30
0.0
 11
103.8495
 21
17.761417
 31
0.0
  0
LINE
  8
1
  6
CONTINUOUS
 62
   233
  5
56B
 10
103.8495
 20
17.761417
 30
0.0
 11
103.824083
 21
17.780333
 31
0.0
  0
LINE
  8
1
  6
CONTINUOUS
 62
   233
  5
56C
 10
103.764667
 20
17.761417
 30
0.0
 11
103.790083
 21
17.780333
 31
0.0
  0
LINE
  8
1
  6
CONTINUOUS
 62
   233
  5
56D
 10
103.764667
 20
17.657917
 30
0.0
 11
103.764667
 21
17.761417
 31
0.0
  0
LINE
  8
1
  6
CONTINUOUS
 62
   233
  5
56E
 10
103.790083
 20
17.657917
 30
0.0
 11
103.764667
 21
17.657917
 31
0.0
  0
LINE
  8
1
  6
CONTINUOUS
 62
   233
  5
56F
 10
103.790083
 20
17.815917
 30
0.0
 11
103.790083
 21
17.657917
 31
0.0
  0
LINE
  8
1
  6
CONTINUOUS
 62
   233
  5
570
 10
103.632083
 20
17.815917
 30
0.0
 11
103.632083
 21
17.657917
 31
0.0
  0
LINE
  8
1
  6
CONTINUOUS
 62
   233
  5
571
 10
103.632083
 20
17.657917
 30
0.0
 11
103.6575
 21
17.657917
 31
0.0
  0
LINE
  8
1
  6
CONTINUOUS
 62
   233
  5
572
 10
103.6575
 20
17.657917
 30
0.0
 11
103.6575
 21
17.761417
 31
0.0
  0
LINE
  8
1
  6
CONTINUOUS
 62
   233
  5
573
 10
103.6575
 20
17.761417
 30
0.0
 11
103.632083
 21
17.780333
 31
0.0
  0
LINE
  8
1
  6
CONTINUOUS
 62
   233
  5
574
 10
103.572667
 20
17.761417
 30
0.0
 11
103.598167
 21
17.780333
 31
0.0
  0
LINE
  8
1
  6
CONTINUOUS
 62
   233
  5
575
 10
103.572667
 20
17.657917
 30
0.0
 11
103.572667
 21
17.761417
 31
0.0
  0
LINE
  8
1
  6
CONTINUOUS
 62
   233
  5
576
 10
103.598167
 20
17.657917
 30
0.0
 11
103.572667
 21
17.657917
 31
0.0
  0
LINE
  8
1
  6
CONTINUOUS
 62
   233
  5
577
 10
103.598167
 20
17.815917
 30
0.0
 11
103.598167
 21
17.657917
 31
0.0
  0
LINE
  8
1
  6
CONTINUOUS
 62
   233
  5
578
 10
103.440167
 20
17.815917
 30
0.0
 11
103.440167
 21
17.657917
 31
0.0
  0
LINE
  8
1
  6
CONTINUOUS
 62
   233
  5
579
 10
103.440167
 20
17.657917
 30
0.0
 11
103.465583
 21
17.657917
 31
0.0
  0
LINE
  8
1
  6
CONTINUOUS
 62
   233
  5
57A
 10
103.465583
 20
17.657917
 30
0.0
 11
103.465583
 21
17.761417
 31
0.0
  0
LINE
  8
1
  6
CONTINUOUS
 62
   233
  5
57B
 10
103.465583
 20
17.761417
 30
0.0
 11
103.440167
 21
17.780333
 31
0.0
  0
LINE
  8
1
  6
CONTINUOUS
 62
   233
  5
57C
 10
103.38075
 20
17.761417
 30
0.0
 11
103.406167
 21
17.780333
 31
0.0
  0
LINE
  8
1
  6
CONTINUOUS
 62
   233
  5
57D
 10
103.38075
 20
17.657917
 30
0.0
 11
103.38075
 21
17.761417
 31
0.0
  0
LINE
  8
1
  6
CONTINUOUS
 62
   233
  5
57E
 10
103.406167
 20
17.657917
 30
0.0
 11
103.38075
 21
17.657917
 31
0.0
  0
LINE
  8
1
  6
CONTINUOUS
 62
   233
  5
57F
 10
103.406167
 20
17.815917
 30
0.0
 11
103.406167
 21
17.657917
 31
0.0
  0
LINE
  8
1
  6
CONTINUOUS
 62
   233
  5
580
 10
103.248167
 20
17.815917
 30
0.0
 11
103.248167
 21
17.657917
 31
0.0
  0
LINE
  8
1
  6
CONTINUOUS
 62
   233
  5
581
 10
103.248167
 20
17.657917
 30
0.0
 11
103.273667
 21
17.657917
 31
0.0
  0
LINE
  8
1
  6
CONTINUOUS
 62
   233
  5
582
 10
103.273667
 20
17.657917
 30
0.0
 11
103.273667
 21
17.761417
 31
0.0
  0
LINE
  8
1
  6
CONTINUOUS
 62
   233
  5
583
 10
103.273667
 20
17.761417
 30
0.0
 11
103.248167
 21
17.780333
 31
0.0
  0
LINE
  8
1
  6
CONTINUOUS
 62
   233
  5
584
 10
103.18875
 20
17.761417
 30
0.0
 11
103.21425
 21
17.780333
 31
0.0
  0
LINE
  8
1
  6
CONTINUOUS
 62
   233
  5
585
 10
103.18875
 20
17.657917
 30
0.0
 11
103.18875
 21
17.761417
 31
0.0
  0
LINE
  8
1
  6
CONTINUOUS
 62
   233
  5
586
 10
103.21425
 20
17.657917
 30
0.0
 11
103.18875
 21
17.657917
 31
0.0
  0
LINE
  8
1
  6
CONTINUOUS
 62
   233
  5
587
 10
103.21425
 20
17.815917
 30
0.0
 11
103.21425
 21
17.657917
 31
0.0
  0
LINE
  8
1
  6
CONTINUOUS
 62
   233
  5
588
 10
102.906917
 20
17.815917
 30
0.0
 11
102.906917
 21
17.657917
 31
0.0
  0
LINE
  8
1
  6
CONTINUOUS
 62
   233
  5
589
 10
102.906917
 20
17.657917
 30
0.0
 11
102.932417
 21
17.657917
 31
0.0
  0
LINE
  8
1
  6
CONTINUOUS
 62
   233
  5
58A
 10
102.932417
 20
17.657917
 30
0.0
 11
102.932417
 21
17.761417
 31
0.0
  0
LINE
  8
1
  6
CONTINUOUS
 62
   233
  5
58B
 10
102.932417
 20
17.761417
 30
0.0
 11
102.906917
 21
17.780333
 31
0.0
  0
LINE
  8
1
  6
CONTINUOUS
 62
   233
  5
58C
 10
102.8475
 20
17.761417
 30
0.0
 11
102.873
 21
17.780333
 31
0.0
  0
LINE
  8
1
  6
CONTINUOUS
 62
   233
  5
58D
 10
102.8475
 20
17.657917
 30
0.0
 11
102.8475
 21
17.761417
 31
0.0
  0
LINE
  8
1
  6
CONTINUOUS
 62
   233
  5
58E
 10
102.873
 20
17.657917
 30
0.0
 11
102.8475
 21
17.657917
 31
0.0
  0
LINE
  8
1
  6
CONTINUOUS
 62
   233
  5
58F
 10
102.873
 20
17.815917
 30
0.0
 11
102.873
 21
17.657917
 31
0.0
  0
LINE
  8
1
  6
CONTINUOUS
 62
   233
  5
590
 10
103.026583
 20
17.815917
 30
0.0
 11
103.026583
 21
17.657917
 31
0.0
  0
LINE
  8
1
  6
CONTINUOUS
 62
   233
  5
591
 10
103.026583
 20
17.657917
 30
0.0
 11
103.001083
 21
17.657917
 31
0.0
  0
LINE
  8
1
  6
CONTINUOUS
 62
   233
  5
592
 10
103.001083
 20
17.657917
 30
0.0
 11
103.001083
 21
17.761417
 31
0.0
  0
LINE
  8
1
  6
CONTINUOUS
 62
   233
  5
593
 10
103.001083
 20
17.761417
 30
0.0
 11
103.026583
 21
17.780333
 31
0.0
  0
LINE
  8
1
  6
CONTINUOUS
 62
   233
  5
594
 10
103.085917
 20
17.761417
 30
0.0
 11
103.0605
 21
17.780333
 31
0.0
  0
LINE
  8
1
  6
CONTINUOUS
 62
   233
  5
595
 10
103.085917
 20
17.657917
 30
0.0
 11
103.085917
 21
17.761417
 31
0.0
  0
LINE
  8
1
  6
CONTINUOUS
 62
   233
  5
596
 10
103.0605
 20
17.657917
 30
0.0
 11
103.085917
 21
17.657917
 31
0.0
  0
LINE
  8
1
  6
CONTINUOUS
 62
   233
  5
597
 10
103.0605
 20
17.815917
 30
0.0
 11
103.0605
 21
17.657917
 31
0.0
  0
LINE
  8
1
  6
CONTINUOUS
 62
   233
  5
598
 10
103.0605
 20
17.368417
 30
0.0
 11
103.0605
 21
17.210333
 31
0.0
  0
LINE
  8
1
  6
CONTINUOUS
 62
   233
  5
599
 10
103.0605
 20
17.210333
 30
0.0
 11
103.085917
 21
17.210333
 31
0.0
  0
LINE
  8
1
  6
CONTINUOUS
 62
   233
  5
59A
 10
103.085917
 20
17.210333
 30
0.0
 11
103.085917
 21
17.313833
 31
0.0
  0
LINE
  8
1
  6
CONTINUOUS
 62
   233
  5
59B
 10
103.085917
 20
17.313833
 30
0.0
 11
103.0605
 21
17.33275
 31
0.0
  0
LINE
  8
1
  6
CONTINUOUS
 62
   233
  5
59C
 10
103.001083
 20
17.313833
 30
0.0
 11
103.026583
 21
17.33275
 31
0.0
  0
LINE
  8
1
  6
CONTINUOUS
 62
   233
  5
59D
 10
103.001083
 20
17.210333
 30
0.0
 11
103.001083
 21
17.313833
 31
0.0
  0
LINE
  8
1
  6
CONTINUOUS
 62
   233
  5
59E
 10
103.026583
 20
17.210333
 30
0.0
 11
103.001083
 21
17.210333
 31
0.0
  0
LINE
  8
1
  6
CONTINUOUS
 62
   233
  5
59F
 10
103.026583
 20
17.368417
 30
0.0
 11
103.026583
 21
17.210333
 31
0.0
  0
LINE
  8
1
  6
CONTINUOUS
 62
   233
  5
5A0
 10
102.873
 20
17.368417
 30
0.0
 11
102.873
 21
17.210333
 31
0.0
  0
LINE
  8
1
  6
CONTINUOUS
 62
   233
  5
5A1
 10
102.873
 20
17.210333
 30
0.0
 11
102.8475
 21
17.210333
 31
0.0
  0
LINE
  8
1
  6
CONTINUOUS
 62
   233
  5
5A2
 10
102.8475
 20
17.210333
 30
0.0
 11
102.8475
 21
17.313833
 31
0.0
  0
LINE
  8
1
  6
CONTINUOUS
 62
   233
  5
5A3
 10
102.8475
 20
17.313833
 30
0.0
 11
102.873
 21
17.33275
 31
0.0
  0
LINE
  8
1
  6
CONTINUOUS
 62
   233
  5
5A4
 10
102.932417
 20
17.313833
 30
0.0
 11
102.906917
 21
17.33275
 31
0.0
  0
LINE
  8
1
  6
CONTINUOUS
 62
   233
  5
5A5
 10
102.932417
 20
17.210333
 30
0.0
 11
102.932417
 21
17.313833
 31
0.0
  0
LINE
  8
1
  6
CONTINUOUS
 62
   233
  5
5A6
 10
102.906917
 20
17.210333
 30
0.0
 11
102.932417
 21
17.210333
 31
0.0
  0
LINE
  8
1
  6
CONTINUOUS
 62
   233
  5
5A7
 10
102.906917
 20
17.368417
 30
0.0
 11
102.906917
 21
17.210333
 31
0.0
  0
LINE
  8
1
  6
CONTINUOUS
 62
   233
  5
5A8
 10
103.21425
 20
17.368417
 30
0.0
 11
103.21425
 21
17.210333
 31
0.0
  0
LINE
  8
1
  6
CONTINUOUS
 62
   233
  5
5A9
 10
103.21425
 20
17.210333
 30
0.0
 11
103.18875
 21
17.210333
 31
0.0
  0
LINE
  8
1
  6
CONTINUOUS
 62
   233
  5
5AA
 10
103.18875
 20
17.210333
 30
0.0
 11
103.18875
 21
17.313833
 31
0.0
  0
LINE
  8
1
  6
CONTINUOUS
 62
   233
  5
5AB
 10
103.18875
 20
17.313833
 30
0.0
 11
103.21425
 21
17.33275
 31
0.0
  0
LINE
  8
1
  6
CONTINUOUS
 62
   233
  5
5AC
 10
103.273667
 20
17.313833
 30
0.0
 11
103.248167
 21
17.33275
 31
0.0
  0
LINE
  8
1
  6
CONTINUOUS
 62
   233
  5
5AD
 10
103.273667
 20
17.210333
 30
0.0
 11
103.273667
 21
17.313833
 31
0.0
  0
LINE
  8
1
  6
CONTINUOUS
 62
   233
  5
5AE
 10
103.248167
 20
17.210333
 30
0.0
 11
103.273667
 21
17.210333
 31
0.0
  0
LINE
  8
1
  6
CONTINUOUS
 62
   233
  5
5AF
 10
103.248167
 20
17.368417
 30
0.0
 11
103.248167
 21
17.210333
 31
0.0
  0
LINE
  8
1
  6
CONTINUOUS
 62
   233
  5
5B0
 10
103.406167
 20
17.368417
 30
0.0
 11
103.406167
 21
17.210333
 31
0.0
  0
LINE
  8
1
  6
CONTINUOUS
 62
   233
  5
5B1
 10
103.406167
 20
17.210333
 30
0.0
 11
103.38075
 21
17.210333
 31
0.0
  0
LINE
  8
1
  6
CONTINUOUS
 62
   233
  5
5B2
 10
103.38075
 20
17.210333
 30
0.0
 11
103.38075
 21
17.313833
 31
0.0
  0
LINE
  8
1
  6
CONTINUOUS
 62
   233
  5
5B3
 10
103.38075
 20
17.313833
 30
0.0
 11
103.406167
 21
17.33275
 31
0.0
  0
LINE
  8
1
  6
CONTINUOUS
 62
   233
  5
5B4
 10
103.465583
 20
17.210333
 30
0.0
 11
103.465583
 21
17.313833
 31
0.0
  0
LINE
  8
1
  6
CONTINUOUS
 62
   233
  5
5B5
 10
103.440167
 20
17.210333
 30
0.0
 11
103.465583
 21
17.210333
 31
0.0
  0
LINE
  8
1
  6
CONTINUOUS
 62
   233
  5
5B6
 10
103.440167
 20
17.368417
 30
0.0
 11
103.440167
 21
17.210333
 31
0.0
  0
LINE
  8
1
  6
CONTINUOUS
 62
   233
  5
5B7
 10
103.598167
 20
17.368417
 30
0.0
 11
103.598167
 21
17.210333
 31
0.0
  0
LINE
  8
1
  6
CONTINUOUS
 62
   233
  5
5B8
 10
103.598167
 20
17.210333
 30
0.0
 11
103.572667
 21
17.210333
 31
0.0
  0
LINE
  8
1
  6
CONTINUOUS
 62
   233
  5
5B9
 10
103.572667
 20
17.210333
 30
0.0
 11
103.572667
 21
17.313833
 31
0.0
  0
LINE
  8
1
  6
CONTINUOUS
 62
   233
  5
5BA
 10
103.572667
 20
17.313833
 30
0.0
 11
103.598167
 21
17.33275
 31
0.0
  0
LINE
  8
1
  6
CONTINUOUS
 62
   233
  5
5BB
 10
103.6575
 20
17.313833
 30
0.0
 11
103.632083
 21
17.33275
 31
0.0
  0
LINE
  8
1
  6
CONTINUOUS
 62
   233
  5
5BC
 10
103.6575
 20
17.210333
 30
0.0
 11
103.6575
 21
17.313833
 31
0.0
  0
LINE
  8
1
  6
CONTINUOUS
 62
   233
  5
5BD
 10
103.632083
 20
17.210333
 30
0.0
 11
103.6575
 21
17.210333
 31
0.0
  0
LINE
  8
1
  6
CONTINUOUS
 62
   233
  5
5BE
 10
103.632083
 20
17.368417
 30
0.0
 11
103.632083
 21
17.210333
 31
0.0
  0
LINE
  8
1
  6
CONTINUOUS
 62
   233
  5
5BF
 10
103.790083
 20
17.368417
 30
0.0
 11
103.790083
 21
17.210333
 31
0.0
  0
LINE
  8
1
  6
CONTINUOUS
 62
   233
  5
5C0
 10
103.790083
 20
17.210333
 30
0.0
 11
103.764667
 21
17.210333
 31
0.0
  0
LINE
  8
1
  6
CONTINUOUS
 62
   233
  5
5C1
 10
103.764667
 20
17.210333
 30
0.0
 11
103.764667
 21
17.313833
 31
0.0
  0
LINE
  8
1
  6
CONTINUOUS
 62
   233
  5
5C2
 10
103.764667
 20
17.313833
 30
0.0
 11
103.790083
 21
17.33275
 31
0.0
  0
LINE
  8
1
  6
CONTINUOUS
 62
   233
  5
5C3
 10
103.8495
 20
17.313833
 30
0.0
 11
103.824083
 21
17.33275
 31
0.0
  0
LINE
  8
1
  6
CONTINUOUS
 62
   233
  5
5C4
 10
103.8495
 20
17.210333
 30
0.0
 11
103.8495
 21
17.313833
 31
0.0
  0
LINE
  8
1
  6
CONTINUOUS
 62
   233
  5
5C5
 10
103.824083
 20
17.210333
 30
0.0
 11
103.8495
 21
17.210333
 31
0.0
  0
LINE
  8
1
  6
CONTINUOUS
 62
   233
  5
5C6
 10
103.824083
 20
17.368417
 30
0.0
 11
103.824083
 21
17.210333
 31
0.0
  0
LINE
  8
1
  6
CONTINUOUS
 62
   233
  5
5C7
 10
103.977833
 20
17.368417
 30
0.0
 11
103.977833
 21
17.210333
 31
0.0
  0
LINE
  8
1
  6
CONTINUOUS
 62
   233
  5
5C8
 10
103.977833
 20
17.210333
 30
0.0
 11
103.952333
 21
17.210333
 31
0.0
  0
LINE
  8
1
  6
CONTINUOUS
 62
   233
  5
5C9
 10
103.952333
 20
17.210333
 30
0.0
 11
103.952333
 21
17.313833
 31
0.0
  0
LINE
  8
1
  6
CONTINUOUS
 62
   233
  5
5CA
 10
103.952333
 20
17.313833
 30
0.0
 11
103.977833
 21
17.33275
 31
0.0
  0
LINE
  8
1
  6
CONTINUOUS
 62
   233
  5
5CB
 10
104.037167
 20
17.313833
 30
0.0
 11
104.01175
 21
17.33275
 31
0.0
  0
LINE
  8
1
  6
CONTINUOUS
 62
   233
  5
5CC
 10
104.037167
 20
17.210333
 30
0.0
 11
104.037167
 21
17.313833
 31
0.0
  0
LINE
  8
1
  6
CONTINUOUS
 62
   233
  5
5CD
 10
104.01175
 20
17.210333
 30
0.0
 11
104.037167
 21
17.210333
 31
0.0
  0
LINE
  8
1
  6
CONTINUOUS
 62
   233
  5
5CE
 10
104.01175
 20
17.368417
 30
0.0
 11
104.01175
 21
17.210333
 31
0.0
  0
LINE
  8
1
  6
CONTINUOUS
 62
   233
  5
5CF
 10
103.0605
 20
16.929833
 30
0.0
 11
103.0605
 21
16.77175
 31
0.0
  0
LINE
  8
1
  6
CONTINUOUS
 62
   233
  5
5D0
 10
103.0605
 20
16.77175
 30
0.0
 11
103.085917
 21
16.77175
 31
0.0
  0
LINE
  8
1
  6
CONTINUOUS
 62
   233
  5
5D1
 10
103.085917
 20
16.77175
 30
0.0
 11
103.085917
 21
16.87525
 31
0.0
  0
LINE
  8
1
  6
CONTINUOUS
 62
   233
  5
5D2
 10
103.085917
 20
16.87525
 30
0.0
 11
103.0605
 21
16.894167
 31
0.0
  0
LINE
  8
1
  6
CONTINUOUS
 62
   233
  5
5D3
 10
103.001083
 20
16.87525
 30
0.0
 11
103.026583
 21
16.894167
 31
0.0
  0
LINE
  8
1
  6
CONTINUOUS
 62
   233
  5
5D4
 10
103.001083
 20
16.77175
 30
0.0
 11
103.001083
 21
16.87525
 31
0.0
  0
LINE
  8
1
  6
CONTINUOUS
 62
   233
  5
5D5
 10
103.026583
 20
16.77175
 30
0.0
 11
103.001083
 21
16.77175
 31
0.0
  0
LINE
  8
1
  6
CONTINUOUS
 62
   233
  5
5D6
 10
103.026583
 20
16.929833
 30
0.0
 11
103.026583
 21
16.77175
 31
0.0
  0
LINE
  8
1
  6
CONTINUOUS
 62
   233
  5
5D7
 10
102.873
 20
16.929833
 30
0.0
 11
102.873
 21
16.77175
 31
0.0
  0
LINE
  8
1
  6
CONTINUOUS
 62
   233
  5
5D8
 10
102.873
 20
16.77175
 30
0.0
 11
102.8475
 21
16.77175
 31
0.0
  0
LINE
  8
1
  6
CONTINUOUS
 62
   233
  5
5D9
 10
102.8475
 20
16.77175
 30
0.0
 11
102.8475
 21
16.87525
 31
0.0
  0
LINE
  8
1
  6
CONTINUOUS
 62
   233
  5
5DA
 10
102.8475
 20
16.87525
 30
0.0
 11
102.873
 21
16.894167
 31
0.0
  0
LINE
  8
1
  6
CONTINUOUS
 62
   233
  5
5DB
 10
102.932417
 20
16.87525
 30
0.0
 11
102.906917
 21
16.894167
 31
0.0
  0
LINE
  8
1
  6
CONTINUOUS
 62
   233
  5
5DC
 10
102.932417
 20
16.77175
 30
0.0
 11
102.932417
 21
16.87525
 31
0.0
  0
LINE
  8
1
  6
CONTINUOUS
 62
   233
  5
5DD
 10
102.906917
 20
16.77175
 30
0.0
 11
102.932417
 21
16.77175
 31
0.0
  0
LINE
  8
1
  6
CONTINUOUS
 62
   233
  5
5DE
 10
102.906917
 20
16.929833
 30
0.0
 11
102.906917
 21
16.77175
 31
0.0
  0
LINE
  8
1
  6
CONTINUOUS
 62
   233
  5
5DF
 10
103.21425
 20
16.929833
 30
0.0
 11
103.21425
 21
16.77175
 31
0.0
  0
LINE
  8
1
  6
CONTINUOUS
 62
   233
  5
5E0
 10
103.21425
 20
16.77175
 30
0.0
 11
103.18875
 21
16.77175
 31
0.0
  0
LINE
  8
1
  6
CONTINUOUS
 62
   233
  5
5E1
 10
103.18875
 20
16.77175
 30
0.0
 11
103.18875
 21
16.87525
 31
0.0
  0
LINE
  8
1
  6
CONTINUOUS
 62
   233
  5
5E2
 10
103.18875
 20
16.87525
 30
0.0
 11
103.21425
 21
16.894167
 31
0.0
  0
LINE
  8
1
  6
CONTINUOUS
 62
   233
  5
5E3
 10
103.273667
 20
16.87525
 30
0.0
 11
103.248167
 21
16.894167
 31
0.0
  0
LINE
  8
1
  6
CONTINUOUS
 62
   233
  5
5E4
 10
103.273667
 20
16.77175
 30
0.0
 11
103.273667
 21
16.87525
 31
0.0
  0
LINE
  8
1
  6
CONTINUOUS
 62
   233
  5
5E5
 10
103.248167
 20
16.77175
 30
0.0
 11
103.273667
 21
16.77175
 31
0.0
  0
LINE
  8
1
  6
CONTINUOUS
 62
   233
  5
5E6
 10
103.248167
 20
16.929833
 30
0.0
 11
103.248167
 21
16.77175
 31
0.0
  0
LINE
  8
1
  6
CONTINUOUS
 62
   233
  5
5E7
 10
103.406167
 20
16.929833
 30
0.0
 11
103.406167
 21
16.77175
 31
0.0
  0
LINE
  8
1
  6
CONTINUOUS
 62
   233
  5
5E8
 10
103.406167
 20
16.77175
 30
0.0
 11
103.38075
 21
16.77175
 31
0.0
  0
LINE
  8
1
  6
CONTINUOUS
 62
   233
  5
5E9
 10
103.38075
 20
16.77175
 30
0.0
 11
103.38075
 21
16.87525
 31
0.0
  0
LINE
  8
1
  6
CONTINUOUS
 62
   233
  5
5EA
 10
103.38075
 20
16.87525
 30
0.0
 11
103.406167
 21
16.894167
 31
0.0
  0
LINE
  8
1
  6
CONTINUOUS
 62
   233
  5
5EB
 10
103.465583
 20
16.87525
 30
0.0
 11
103.440167
 21
16.894167
 31
0.0
  0
LINE
  8
1
  6
CONTINUOUS
 62
   233
  5
5EC
 10
103.465583
 20
16.77175
 30
0.0
 11
103.465583
 21
16.87525
 31
0.0
  0
LINE
  8
1
  6
CONTINUOUS
 62
   233
  5
5ED
 10
103.440167
 20
16.77175
 30
0.0
 11
103.465583
 21
16.77175
 31
0.0
  0
LINE
  8
1
  6
CONTINUOUS
 62
   233
  5
5EE
 10
103.440167
 20
16.929833
 30
0.0
 11
103.440167
 21
16.77175
 31
0.0
  0
LINE
  8
1
  6
CONTINUOUS
 62
   233
  5
5EF
 10
103.598167
 20
16.929833
 30
0.0
 11
103.598167
 21
16.77175
 31
0.0
  0
LINE
  8
1
  6
CONTINUOUS
 62
   233
  5
5F0
 10
103.598167
 20
16.77175
 30
0.0
 11
103.572667
 21
16.77175
 31
0.0
  0
LINE
  8
1
  6
CONTINUOUS
 62
   233
  5
5F1
 10
103.572667
 20
16.77175
 30
0.0
 11
103.572667
 21
16.87525
 31
0.0
  0
LINE
  8
1
  6
CONTINUOUS
 62
   233
  5
5F2
 10
103.572667
 20
16.87525
 30
0.0
 11
103.598167
 21
16.894167
 31
0.0
  0
LINE
  8
1
  6
CONTINUOUS
 62
   233
  5
5F3
 10
103.6575
 20
16.87525
 30
0.0
 11
103.632083
 21
16.894167
 31
0.0
  0
LINE
  8
1
  6
CONTINUOUS
 62
   233
  5
5F4
 10
103.6575
 20
16.77175
 30
0.0
 11
103.6575
 21
16.87525
 31
0.0
  0
LINE
  8
1
  6
CONTINUOUS
 62
   233
  5
5F5
 10
103.632083
 20
16.77175
 30
0.0
 11
103.6575
 21
16.77175
 31
0.0
  0
LINE
  8
1
  6
CONTINUOUS
 62
   233
  5
5F6
 10
103.632083
 20
16.929833
 30
0.0
 11
103.632083
 21
16.77175
 31
0.0
  0
LINE
  8
1
  6
CONTINUOUS
 62
   233
  5
5F7
 10
103.790083
 20
16.929833
 30
0.0
 11
103.790083
 21
16.77175
 31
0.0
  0
LINE
  8
1
  6
CONTINUOUS
 62
   233
  5
5F8
 10
103.790083
 20
16.77175
 30
0.0
 11
103.764667
 21
16.77175
 31
0.0
  0
LINE
  8
1
  6
CONTINUOUS
 62
   233
  5
5F9
 10
103.764667
 20
16.77175
 30
0.0
 11
103.764667
 21
16.87525
 31
0.0
  0
LINE
  8
1
  6
CONTINUOUS
 62
   233
  5
5FA
 10
103.764667
 20
16.87525
 30
0.0
 11
103.790083
 21
16.894167
 31
0.0
  0
LINE
  8
1
  6
CONTINUOUS
 62
   233
  5
5FB
 10
103.8495
 20
16.87525
 30
0.0
 11
103.824083
 21
16.894167
 31
0.0
  0
LINE
  8
1
  6
CONTINUOUS
 62
   233
  5
5FC
 10
103.8495
 20
16.77175
 30
0.0
 11
103.8495
 21
16.87525
 31
0.0
  0
LINE
  8
1
  6
CONTINUOUS
 62
   233
  5
5FD
 10
103.824083
 20
16.77175
 30
0.0
 11
103.8495
 21
16.77175
 31
0.0
  0
LINE
  8
1
  6
CONTINUOUS
 62
   233
  5
5FE
 10
103.824083
 20
16.929833
 30
0.0
 11
103.824083
 21
16.77175
 31
0.0
  0
LINE
  8
1
  6
CONTINUOUS
 62
   233
  5
5FF
 10
103.977833
 20
16.929833
 30
0.0
 11
103.977833
 21
16.77175
 31
0.0
  0
LINE
  8
1
  6
CONTINUOUS
 62
   233
  5
600
 10
103.977833
 20
16.77175
 30
0.0
 11
103.952333
 21
16.77175
 31
0.0
  0
LINE
  8
1
  6
CONTINUOUS
 62
   233
  5
601
 10
103.952333
 20
16.77175
 30
0.0
 11
103.952333
 21
16.87525
 31
0.0
  0
LINE
  8
1
  6
CONTINUOUS
 62
   233
  5
602
 10
103.952333
 20
16.87525
 30
0.0
 11
103.977833
 21
16.894167
 31
0.0
  0
LINE
  8
1
  6
CONTINUOUS
 62
   233
  5
603
 10
104.037167
 20
16.87525
 30
0.0
 11
104.01175
 21
16.894167
 31
0.0
  0
LINE
  8
1
  6
CONTINUOUS
 62
   233
  5
604
 10
104.037167
 20
16.77175
 30
0.0
 11
104.037167
 21
16.87525
 31
0.0
  0
LINE
  8
1
  6
CONTINUOUS
 62
   233
  5
605
 10
104.01175
 20
16.77175
 30
0.0
 11
104.037167
 21
16.77175
 31
0.0
  0
LINE
  8
1
  6
CONTINUOUS
 62
   233
  5
606
 10
104.01175
 20
16.929833
 30
0.0
 11
104.01175
 21
16.77175
 31
0.0
  0
SOLID
  8
5
  6
CONTINUOUS
 62
   217
  5
608
 10
101.51075
 20
17.712333
 30
0.0
 11
101.552417
 21
17.712333
 31
0.0
 12
101.531583
 22
17.837333
 32
0.0
 13
101.531583
 23
17.837333
 33
0.0
  0
LINE
  8
5
  6
CONTINUOUS
 62
   217
  5
609
 10
101.531583
 20
17.712333
 30
0.0
 11
101.531583
 21
17.327083
 31
0.0
  0
TEXT
  8
5
  6
CONTINUOUS
 62
   240
  5
60A
 10
101.471833
 20
17.882083
 30
0.0
 40
0.18
  1
B
  7
MONOTXT
210
0.0
220
0.0
230
1.0
  0
LINE
  8
5
  6
CONTINUOUS
 62
   217
  5
60B
 10
106.8
 20
17.712333
 30
0.0
 11
106.8
 21
17.327083
 31
0.0
  0
TEXT
  8
5
  6
CONTINUOUS
 62
   240
  5
60C
 10
106.699917
 20
17.882083
 30
0.0
 40
0.18
  1
B
  7
MONOTXT
210
0.0
220
0.0
230
1.0
  0
LINE
  8
5
  6
CONTINUOUS
 62
   217
  5
60D
 10
106.355417
 20
17.327083
 30
0.0
 11
106.8
 21
17.327083
 31
0.0
  0
SOLID
  8
5
  6
CONTINUOUS
 62
   217
  5
60E
 10
106.7795
 20
17.712333
 30
0.0
 11
106.821167
 21
17.712333
 31
0.0
 12
106.800333
 22
17.837333
 32
0.0
 13
106.800333
 23
17.837333
 33
0.0
  0
LINE
  8
7
  6
CENTER
 62
     2
  5
60F
 10
104.261
 20
19.43825
 30
0.0
 11
104.261
 21
21.073917
 31
0.0
  0
SOLID
  8
3
  6
CONTINUOUS
 62
     2
  5
610
 10
103.126667
 20
18.260417
 30
0.0
 11
103.090917
 21
18.239167
 31
0.0
 12
103.1725
 22
18.14225
 32
0.0
 13
103.1725
 23
18.14225
 33
0.0
  0
LINE
  8
3
  6
CONTINUOUS
 62
     2
  5
611
 10
103.108833
 20
18.249833
 30
0.0
 11
102.21725
 21
19.755333
 31
0.0
  0
LINE
  8
3
  6
CONTINUOUS
 62
     2
  5
612
 10
102.21725
 20
19.755333
 30
0.0
 11
102.016167
 21
19.755333
 31
0.0
  0
TEXT
  8
3
  6
CONTINUOUS
 62
   110
  5
613
 10
100.221417
 20
19.713667
 30
0.0
 40
0.125
  1
Tilt-Bar Grate
  7
ROMANS
210
0.0
220
0.0
230
1.0
  0
LINE
  8
1
  6
CONTINUOUS
 62
   233
  5
614
 10
103.43775
 20
19.303667
 30
0.0
 11
103.43775
 21
20.367917
 31
0.0
  0
LINE
  8
1
  6
CONTINUOUS
 62
   233
  5
615
 10
103.43775
 20
20.367917
 30
0.0
 11
103.585
 21
20.4555
 31
0.0
  0
LINE
  8
1
  6
CONTINUOUS
 62
   233
  5
616
 10
103.585
 20
20.4555
 30
0.0
 11
103.72025
 21
20.48475
 31
0.0
  0
LINE
  8
1
  6
CONTINUOUS
 62
   233
  5
617
 10
103.72025
 20
20.48475
 30
0.0
 11
103.859417
 21
20.488917
 31
0.0
  0
LINE
  8
1
  6
CONTINUOUS
 62
   233
  5
618
 10
103.859417
 20
20.488917
 30
0.0
 11
103.970833
 21
20.476417
 31
0.0
  0
LINE
  8
1
  6
CONTINUOUS
 62
   233
  5
619
 10
103.970833
 20
20.476417
 30
0.0
 11
104.090167
 21
20.443
 31
0.0
  0
LINE
  8
1
  6
CONTINUOUS
 62
   233
  5
61A
 10
104.090167
 20
20.443
 30
0.0
 11
104.193583
 21
20.384583
 31
0.0
  0
LINE
  8
1
  6
CONTINUOUS
 62
   233
  5
61B
 10
104.193583
 20
20.384583
 30
0.0
 11
104.352667
 21
20.317833
 31
0.0
  0
LINE
  8
1
  6
CONTINUOUS
 62
   233
  5
61C
 10
104.352667
 20
20.317833
 30
0.0
 11
104.483917
 21
20.301167
 31
0.0
  0
LINE
  8
1
  6
CONTINUOUS
 62
   233
  5
61D
 10
104.483917
 20
20.301167
 30
0.0
 11
104.639083
 21
20.322
 31
0.0
  0
LINE
  8
1
  6
CONTINUOUS
 62
   233
  5
61E
 10
104.639083
 20
20.322
 30
0.0
 11
104.762417
 21
20.347083
 31
0.0
  0
LINE
  8
1
  6
CONTINUOUS
 62
   233
  5
61F
 10
104.762417
 20
20.347083
 30
0.0
 11
104.841917
 21
20.38875
 31
0.0
  0
LINE
  8
1
  6
CONTINUOUS
 62
   233
  5
620
 10
104.841917
 20
20.38875
 30
0.0
 11
104.762417
 21
20.451333
 31
0.0
  0
LINE
  8
1
  6
CONTINUOUS
 62
   233
  5
621
 10
104.762417
 20
20.451333
 30
0.0
 11
104.639083
 21
20.488917
 31
0.0
  0
LINE
  8
1
  6
CONTINUOUS
 62
   233
  5
622
 10
104.639083
 20
20.488917
 30
0.0
 11
104.539667
 21
20.493083
 31
0.0
  0
LINE
  8
1
  6
CONTINUOUS
 62
   233
  5
623
 10
104.539667
 20
20.493083
 30
0.0
 11
104.452083
 21
20.493083
 31
0.0
  0
LINE
  8
1
  6
CONTINUOUS
 62
   233
  5
624
 10
104.452083
 20
20.493083
 30
0.0
 11
104.356667
 21
20.47225
 31
0.0
  0
LINE
  8
1
  6
CONTINUOUS
 62
   233
  5
625
 10
104.356667
 20
20.47225
 30
0.0
 11
104.265167
 21
20.443
 31
0.0
  0
LINE
  8
1
  6
CONTINUOUS
 62
   233
  5
626
 10
104.265167
 20
20.443
 30
0.0
 11
104.177917
 21
20.393417
 31
0.0
  0
LINE
  8
1
  6
CONTINUOUS
 62
   233
  5
627
 10
103.52925
 20
19.336
 30
0.0
 11
103.52925
 21
20.422417
 31
0.0
  0
LINE
  8
1
  6
CONTINUOUS
 62
   233
  5
628
 10
103.4895
 20
19.3225
 30
0.0
 11
103.4895
 21
20.398667
 31
0.0
  0
LINE
  8
1
  6
CONTINUOUS
 62
   233
  5
629
 10
103.640667
 20
19.369
 30
0.0
 11
103.640667
 21
20.467583
 31
0.0
  0
LINE
  8
1
  6
CONTINUOUS
 62
   233
  5
62A
 10
104.503833
 20
19.422917
 30
0.0
 11
104.503833
 21
20.303833
 31
0.0
  0
LINE
  8
1
  6
CONTINUOUS
 62
   233
  5
62B
 10
104.678833
 20
19.379417
 30
0.0
 11
104.678833
 21
20.330083
 31
0.0
  0
LINE
  8
1
  6
CONTINUOUS
 62
   233
  5
62C
 10
104.758417
 20
19.35825
 30
0.0
 11
104.758417
 21
20.34625
 31
0.0
  0
LINE
  8
1
  6
CONTINUOUS
 62
   233
  5
62D
 10
104.806167
 20
19.343917
 30
0.0
 11
104.806167
 21
20.37
 31
0.0
  0
LINE
  8
1
  6
CONTINUOUS
 62
   233
  5
62E
 10
104.841917
 20
20.38875
 30
0.0
 11
104.841917
 21
19.33225
 31
0.0
  0
TEXT
  8
3
  6
CONTINUOUS
 62
   110
  5
62F
 10
106.670917
 20
19.868
 30
0.0
 40
0.125
  1
Invert Channel Or Split Pipe Same
  7
ROMANS
210
0.0
220
0.0
230
1.0
  0
TEXT
  8
3
  6
CONTINUOUS
 62
   110
  5
630
 10
106.211917
 20
19.641333
 30
0.0
 40
0.125
  1
Size As Outlet On Inside Of Sidewalls.
  7
ROMANS
210
0.0
220
0.0
230
1.0
  0
LINE
  8
1
  6
CONTINUOUS
 62
   233
  5
631
 10
113.824917
 20
20.38875
 30
0.0
 11
113.824917
 21
19.33225
 31
0.0
  0
LINE
  8
1
  6
CONTINUOUS
 62
   233
  5
632
 10
113.789167
 20
19.343917
 30
0.0
 11
113.789167
 21
20.37
 31
0.0
  0
LINE
  8
1
  6
CONTINUOUS
 62
   233
  5
633
 10
113.661833
 20
19.379417
 30
0.0
 11
113.661833
 21
20.330083
 31
0.0
  0
LINE
  8
1
  6
CONTINUOUS
 62
   233
  5
634
 10
113.486833
 20
19.414583
 30
0.0
 11
113.486833
 21
20.303833
 31
0.0
  0
LINE
  8
1
  6
CONTINUOUS
 62
   233
  5
635
 10
112.4725
 20
19.3225
 30
0.0
 11
112.4725
 21
20.398667
 31
0.0
  0
LINE
  8
1
  6
CONTINUOUS
 62
   233
  5
636
 10
112.512333
 20
19.336
 30
0.0
 11
112.512333
 21
20.422417
 31
0.0
  0
LINE
  8
1
  6
CONTINUOUS
 62
   233
  5
637
 10
113.248167
 20
20.443
 30
0.0
 11
113.160917
 21
20.393417
 31
0.0
  0
LINE
  8
1
  6
CONTINUOUS
 62
   233
  5
638
 10
113.339667
 20
20.47225
 30
0.0
 11
113.248167
 21
20.443
 31
0.0
  0
LINE
  8
1
  6
CONTINUOUS
 62
   233
  5
639
 10
113.435167
 20
20.493083
 30
0.0
 11
113.339667
 21
20.47225
 31
0.0
  0
LINE
  8
1
  6
CONTINUOUS
 62
   233
  5
63A
 10
113.522667
 20
20.493083
 30
0.0
 11
113.435167
 21
20.493083
 31
0.0
  0
LINE
  8
1
  6
CONTINUOUS
 62
   233
  5
63B
 10
113.622083
 20
20.488917
 30
0.0
 11
113.522667
 21
20.493083
 31
0.0
  0
LINE
  8
1
  6
CONTINUOUS
 62
   233
  5
63C
 10
113.745417
 20
20.451333
 30
0.0
 11
113.622083
 21
20.488917
 31
0.0
  0
LINE
  8
1
  6
CONTINUOUS
 62
   233
  5
63D
 10
113.824917
 20
20.38875
 30
0.0
 11
113.745417
 21
20.451333
 31
0.0
  0
LINE
  8
1
  6
CONTINUOUS
 62
   233
  5
63E
 10
113.745417
 20
20.347083
 30
0.0
 11
113.824917
 21
20.38875
 31
0.0
  0
LINE
  8
1
  6
CONTINUOUS
 62
   233
  5
63F
 10
113.622083
 20
20.322
 30
0.0
 11
113.745417
 21
20.347083
 31
0.0
  0
LINE
  8
1
  6
CONTINUOUS
 62
   233
  5
640
 10
113.466917
 20
20.301167
 30
0.0
 11
113.622083
 21
20.322
 31
0.0
  0
LINE
  8
1
  6
CONTINUOUS
 62
   233
  5
641
 10
113.335667
 20
20.317833
 30
0.0
 11
113.466917
 21
20.301167
 31
0.0
  0
LINE
  8
1
  6
CONTINUOUS
 62
   233
  5
642
 10
113.176583
 20
20.384583
 30
0.0
 11
113.335667
 21
20.317833
 31
0.0
  0
LINE
  8
1
  6
CONTINUOUS
 62
   233
  5
643
 10
113.073167
 20
20.443
 30
0.0
 11
113.176583
 21
20.384583
 31
0.0
  0
LINE
  8
1
  6
CONTINUOUS
 62
   233
  5
644
 10
112.953833
 20
20.476417
 30
0.0
 11
113.073167
 21
20.443
 31
0.0
  0
LINE
  8
1
  6
CONTINUOUS
 62
   233
  5
645
 10
112.842417
 20
20.488917
 30
0.0
 11
112.953833
 21
20.476417
 31
0.0
  0
LINE
  8
1
  6
CONTINUOUS
 62
   233
  5
646
 10
112.70325
 20
20.48475
 30
0.0
 11
112.842417
 21
20.488917
 31
0.0
  0
LINE
  8
1
  6
CONTINUOUS
 62
   233
  5
647
 10
112.568
 20
20.4555
 30
0.0
 11
112.70325
 21
20.48475
 31
0.0
  0
LINE
  8
1
  6
CONTINUOUS
 62
   233
  5
648
 10
112.4725
 20
20.398667
 30
0.0
 11
112.568
 21
20.4555
 31
0.0
  0
LINE
  8
7
  6
CENTER
 62
     2
  5
649
 10
113.134583
 20
19.43825
 30
0.0
 11
113.134583
 21
21.073917
 31
0.0
  0
LINE
  8
7
  6
CENTER
 62
     2
  5
64A
 10
113.244
 20
13.721333
 30
0.0
 11
113.244
 21
15.258333
 31
0.0
  0
LINE
  8
1
  6
CONTINUOUS
 62
   233
  5
64B
 10
112.52675
 20
14.302417
 30
0.0
 11
112.52675
 21
15.355917
 31
0.0
  0
LINE
  8
1
  6
CONTINUOUS
 62
   233
  5
64C
 10
112.572583
 20
14.278583
 30
0.0
 11
112.572583
 21
15.341833
 31
0.0
  0
LINE
  8
1
  6
CONTINUOUS
 62
   233
  5
64D
 10
112.693417
 20
14.231833
 30
0.0
 11
112.693417
 21
15.310167
 31
0.0
  0
LINE
  8
1
  6
CONTINUOUS
 62
   233
  5
64E
 10
112.848417
 20
14.216417
 30
0.0
 11
112.848417
 21
15.280583
 31
0.0
  0
LINE
  8
1
  6
CONTINUOUS
 62
   233
  5
64F
 10
113.562167
 20
14.431083
 30
0.0
 11
113.562167
 21
15.295167
 31
0.0
  0
LINE
  8
1
  6
CONTINUOUS
 62
   233
  5
650
 10
113.713
 20
14.412583
 30
0.0
 11
113.713
 21
15.330333
 31
0.0
  0
LINE
  8
1
  6
CONTINUOUS
 62
   233
  5
651
 10
113.797417
 20
14.391417
 30
0.0
 11
113.797417
 21
15.35525
 31
0.0
  0
LINE
  8
1
  6
CONTINUOUS
 62
   233
  5
652
 10
113.857083
 20
14.355333
 30
0.0
 11
113.857083
 21
15.37525
 31
0.0
  0
LINE
  8
1
  6
CONTINUOUS
 62
   233
  5
653
 10
113.843
 20
14.280833
 30
0.0
 11
113.892167
 21
14.314333
 31
0.0
  0
LINE
  8
1
  6
CONTINUOUS
 62
   233
  5
654
 10
113.666417
 20
14.220417
 30
0.0
 11
113.843
 21
14.280833
 31
0.0
  0
LINE
  8
1
  6
CONTINUOUS
 62
   233
  5
655
 10
113.508917
 20
14.220417
 30
0.0
 11
113.666417
 21
14.220417
 31
0.0
  0
LINE
  8
1
  6
CONTINUOUS
 62
   233
  5
656
 10
113.347667
 20
14.252667
 30
0.0
 11
113.508917
 21
14.220417
 31
0.0
  0
LINE
  8
1
  6
CONTINUOUS
 62
   233
  5
657
 10
113.224833
 20
14.322833
 30
0.0
 11
113.347667
 21
14.252667
 31
0.0
  0
LINE
  8
1
  6
CONTINUOUS
 62
   233
  5
658
 10
112.541167
 20
14.292917
 30
0.0
 11
112.495917
 21
14.32275
 31
0.0
  0
LINE
  8
1
  6
CONTINUOUS
 62
   233
  5
659
 10
112.6295
 20
14.252667
 30
0.0
 11
112.541167
 21
14.292917
 31
0.0
  0
LINE
  8
1
  6
CONTINUOUS
 62
   233
  5
65A
 10
112.740917
 20
14.216417
 30
0.0
 11
112.6295
 21
14.252667
 31
0.0
  0
LINE
  8
1
  6
CONTINUOUS
 62
   233
  5
65B
 10
112.92525
 20
14.216417
 30
0.0
 11
112.740917
 21
14.216417
 31
0.0
  0
LINE
  8
1
  6
CONTINUOUS
 62
   233
  5
65C
 10
113.071167
 20
14.2285
 30
0.0
 11
112.92525
 21
14.216417
 31
0.0
  0
LINE
  8
1
  6
CONTINUOUS
 62
   233
  5
65D
 10
113.228583
 20
14.325167
 30
0.0
 11
113.071167
 21
14.2285
 31
0.0
  0
LINE
  8
1
  6
CONTINUOUS
 62
   233
  5
65E
 10
113.439833
 20
14.425833
 30
0.0
 11
113.228583
 21
14.325167
 31
0.0
  0
LINE
  8
1
  6
CONTINUOUS
 62
   233
  5
65F
 10
113.628
 20
14.433917
 30
0.0
 11
113.439833
 21
14.425833
 31
0.0
  0
LINE
  8
1
  6
CONTINUOUS
 62
   233
  5
660
 10
113.804667
 20
14.389583
 30
0.0
 11
113.628
 21
14.433917
 31
0.0
  0
LINE
  8
1
  6
CONTINUOUS
 62
   233
  5
661
 10
113.892167
 20
14.332333
 30
0.0
 11
113.804667
 21
14.389583
 31
0.0
  0
LINE
  8
1
  6
CONTINUOUS
 62
   233
  5
662
 10
112.495917
 20
14.32275
 30
0.0
 11
112.495917
 21
15.366
 31
0.0
  0
LINE
  8
1
  6
CONTINUOUS
 62
   233
  5
663
 10
113.892167
 20
14.314333
 30
0.0
 11
113.892167
 21
15.388
 31
0.0
  0
CIRCLE
  8
1
  6
CONTINUOUS
 62
   233
  5
664
 10
113.163083
 20
17.34825
 30
0.0
 40
2.091515
210
0.0
220
0.0
230
1.0
  0
CIRCLE
  8
1
  6
CONTINUOUS
 62
   233
  5
665
 10
113.163083
 20
17.34825
 30
0.0
 40
1.543469
210
0.0
220
0.0
230
1.0
  0
INSERT
  8
1
  6
CONTINUOUS
 62
   240
  5
6B8
  2
$X33
 10
101.813333
 20
0.14725
 30
0.0
210
0.0
220
0.0
230
1.0
  0
LINE
  8
1
  6
CONTINUOUS
 62
   233
  5
6B9
 10
112.644917
 20
15.894333
 30
0.0
 11
112.644917
 21
18.802167
 31
0.0
  0
LINE
  8
1
  6
CONTINUOUS
 62
   233
  5
6BA
 10
113.760833
 20
15.92525
 30
0.0
 11
113.760833
 21
18.77125
 31
0.0
  0
LINE
  8
1
  6
CONTINUOUS
 62
   233
  5
6BB
 10
113.898
 20
16.329333
 30
0.0
 11
113.898
 21
18.354333
 31
0.0
  0
LINE
  8
1
  6
CONTINUOUS
 62
   233
  5
6BC
 10
112.489417
 20
16.329333
 30
0.0
 11
112.489417
 21
18.2775
 31
0.0
  0
LINE
  8
1
  6
CONTINUOUS
 62
   233
  5
6BD
 10
113.898
 20
16.329333
 30
0.0
 11
113.760833
 21
16.329333
 31
0.0
  0
LINE
  8
1
  6
CONTINUOUS
 62
   233
  5
6BE
 10
112.644917
 20
16.329333
 30
0.0
 11
112.489417
 21
16.329333
 31
0.0
  0
LINE
  8
1
  6
CONTINUOUS
 62
   233
  5
6BF
 10
113.9605
 20
16.267
 30
0.0
 11
113.9605
 21
16.657667
 31
0.0
  0
LINE
  8
1
  6
CONTINUOUS
 62
   233
  5
6C0
 10
113.9605
 20
16.657667
 30
0.0
 11
113.760833
 21
16.657667
 31
0.0
  0
LINE
  8
1
  6
CONTINUOUS
 62
   233
  5
6C1
 10
112.421417
 20
16.657667
 30
0.0
 11
112.421417
 21
16.234417
 31
0.0
  0
LINE
  8
1
  6
CONTINUOUS
 62
   233
  5
6C2
 10
112.421417
 20
16.234417
 30
0.0
 11
112.495917
 21
16.1205
 31
0.0
  0
LINE
  8
1
  6
CONTINUOUS
 62
   233
  5
6C3
 10
112.495917
 20
16.1205
 30
0.0
 11
112.495917
 21
15.956417
 31
0.0
  0
LINE
  8
1
  6
CONTINUOUS
 62
   233
  5
6C4
 10
113.9605
 20
16.267
 30
0.0
 11
113.892167
 21
16.14325
 31
0.0
  0
LINE
  8
1
  6
CONTINUOUS
 62
   233
  5
6C5
 10
113.892167
 20
16.14325
 30
0.0
 11
113.892167
 21
15.987917
 31
0.0
  0
LINE
  8
1
  6
CONTINUOUS
 62
   233
  5
6C6
 10
112.644917
 20
16.657667
 30
0.0
 11
112.421417
 21
16.657667
 31
0.0
  0
ARC
  8
2
  6
HIDDEN
 62
     2
  5
6C7
 10
113.202833
 20
17.375
 30
0.0
 40
0.908776
 50
232.123517
 51
307.876481
210
0.0
220
0.0
230
1.0
  0
ARC
  8
1
  6
CONTINUOUS
 62
   233
  5
6C8
 10
113.202833
 20
17.3015
 30
0.0
 40
1.120943
 50
240.148506
 51
299.851489
210
0.0
220
0.0
230
1.0
  0
LINE
  8
2
  6
HIDDEN
 62
     2
  5
6C9
 10
113.892167
 20
15.987917
 30
0.0
 11
113.892167
 21
15.388
 31
0.0
  0
LINE
  8
2
  6
HIDDEN
 62
     2
  5
6CA
 10
112.644917
 20
15.894333
 30
0.0
 11
112.644917
 21
14.247667
 31
0.0
  0
LINE
  8
2
  6
HIDDEN
 62
     2
  5
6CB
 10
113.760833
 20
15.92525
 30
0.0
 11
113.760833
 21
14.400583
 31
0.0
  0
LINE
  8
2
  6
HIDDEN
 62
     2
  5
6CC
 10
112.495917
 20
15.956417
 30
0.0
 11
112.495917
 21
15.366
 31
0.0
  0
TEXT
  8
3
  6
CONTINUOUS
 62
     2
  5
6CD
 10
111.192833
 20
13.335167
 30
0.0
 40
0.18
  1
SECTION THROUGH FOOTER
  7
MONOTXT
210
0.0
220
0.0
230
1.0
  0
TEXT
  8
3
  6
CONTINUOUS
 62
   110
  5
6CE
 10
115.024583
 20
15.175917
 30
0.0
 40
0.125
  1
Pipe Size, Type, And
  7
ROMANS
210
0.0
220
0.0
230
1.0
  0
TEXT
  8
3
  6
CONTINUOUS
 62
   110
  5
6CF
 10
114.887583
 20
14.971583
 30
0.0
 40
0.125
  1
Location(s) As Specified
  7
ROMANS
210
0.0
220
0.0
230
1.0
  0
TEXT
  8
3
  6
CONTINUOUS
 62
   110
  5
6D0
 10
114.915333
 20
14.767167
 30
0.0
 40
0.125
  1
On The Plans.
  7
ROMANS
210
0.0
220
0.0
230
1.0
  0
SOLID
  8
3
  6
CONTINUOUS
 62
     2
  5
6D1
 10
113.508083
 20
15.0215
 30
0.0
 11
113.508083
 21
15.063167
 31
0.0
 12
113.383083
 22
15.042333
 32
0.0
 13
113.383083
 23
15.042333
 33
0.0
  0
LINE
  8
3
  6
CONTINUOUS
 62
     2
  5
6D2
 10
113.508083
 20
15.042333
 30
0.0
 11
114.7285
 21
15.042333
 31
0.0
  0
LINE
  8
1
  6
CONTINUOUS
 62
   233
  5
6D3
 10
111.64225
 20
17.084833
 30
0.0
 11
112.056833
 21
17.084833
 31
0.0
  0
LINE
  8
1
  6
CONTINUOUS
 62
   233
  5
6D4
 10
112.056833
 20
17.084833
 30
0.0
 11
112.056833
 21
17.732083
 31
0.0
  0
LINE
  8
1
  6
CONTINUOUS
 62
   233
  5
6D5
 10
112.056833
 20
17.732083
 30
0.0
 11
111.748417
 21
17.732083
 31
0.0
  0
LINE
  8
1
  6
CONTINUOUS
 62
   233
  5
6D6
 10
111.748417
 20
17.732083
 30
0.0
 11
111.748417
 21
17.084833
 31
0.0
  0
INSERT
  8
1
  6
CONTINUOUS
 62
   240
  5
6E8
  2
$X34
 10
101.813333
 20
0.14725
 30
0.0
210
0.0
220
0.0
230
1.0
  0
LINE
  8
1
  6
CONTINUOUS
 62
   233
  5
6E9
 10
111.748417
 20
17.153667
 30
0.0
 11
111.631917
 21
17.153667
 31
0.0
  0
LINE
  8
1
  6
CONTINUOUS
 62
   233
  5
6EA
 10
111.748417
 20
17.732083
 30
0.0
 11
111.668083
 21
17.732083
 31
0.0
  0
LINE
  8
1
  6
CONTINUOUS
 62
   233
  5
6EB
 10
111.748417
 20
17.656333
 30
0.0
 11
111.650667
 21
17.656333
 31
0.0
  0
LINE
  8
2
  6
HIDDEN
 62
     2
  5
6EC
 10
111.668083
 20
17.732083
 30
0.0
 11
111.476
 21
17.732083
 31
0.0
  0
LINE
  8
2
  6
HIDDEN
 62
     2
  5
6ED
 10
111.650667
 20
17.656333
 30
0.0
 11
111.476
 21
17.656333
 31
0.0
  0
LINE
  8
2
  6
HIDDEN
 62
     2
  5
6EE
 10
111.476
 20
17.656333
 30
0.0
 11
111.476
 21
17.732083
 31
0.0
  0
LINE
  8
2
  6
HIDDEN
 62
     2
  5
6EF
 10
111.631917
 20
17.153667
 30
0.0
 11
111.4695
 21
17.153667
 31
0.0
  0
LINE
  8
2
  6
HIDDEN
 62
     2
  5
6F0
 10
111.4695
 20
17.153667
 30
0.0
 11
111.4695
 21
17.084833
 31
0.0
  0
LINE
  8
2
  6
HIDDEN
 62
     2
  5
6F1
 10
111.64225
 20
17.084833
 30
0.0
 11
111.4695
 21
17.084833
 31
0.0
  0
SOLID
  8
3
  6
CONTINUOUS
 62
     2
  5
6F2
 10
112.769917
 20
16.895083
 30
0.0
 11
112.769917
 21
16.93675
 31
0.0
 12
112.644833
 22
16.915917
 32
0.0
 13
112.644833
 23
16.915917
 33
0.0
  0
LINE
  8
3
  6
CONTINUOUS
 62
     2
  5
6F3
 10
112.769917
 20
16.915917
 30
0.0
 11
113.189167
 21
16.915917
 31
0.0
  0
LINE
  8
3
  6
CONTINUOUS
 62
     2
  5
6F4
 10
113.189167
 20
16.915917
 30
0.0
 11
113.189167
 21
17.101833
 31
0.0
  0
SOLID
  8
3
  6
CONTINUOUS
 62
     2
  5
6F5
 10
113.635833
 20
17.976417
 30
0.0
 11
113.635833
 21
17.934833
 31
0.0
 12
113.760833
 22
17.955667
 32
0.0
 13
113.760833
 23
17.955667
 33
0.0
  0
LINE
  8
3
  6
CONTINUOUS
 62
     2
  5
6F6
 10
113.635833
 20
17.955667
 30
0.0
 11
113.182583
 21
17.955667
 31
0.0
  0
LINE
  8
3
  6
CONTINUOUS
 62
     2
  5
6F7
 10
113.182583
 20
17.955667
 30
0.0
 11
113.182583
 21
17.811083
 31
0.0
  0
TEXT
  8
3
  6
CONTINUOUS
 62
   110
  5
6F8
 10
113.380917
 20
17.071167
 30
0.0
 40
0.125
  1
Invert
 50
90.0
  7
ROMANS
210
0.0
220
0.0
230
1.0
  0
LINE
  8
1
  6
CONTINUOUS
 62
   233
  5
6F9
 10
112.489417
 20
18.2775
 30
0.0
 11
112.399333
 21
18.419917
 31
0.0
  0
LINE
  8
1
  6
CONTINUOUS
 62
   233
  5
6FA
 10
112.399333
 20
18.419917
 30
0.0
 11
112.399333
 21
18.816167
 31
0.0
  0
LINE
  8
1
  6
CONTINUOUS
 62
   233
  5
6FB
 10
112.399333
 20
18.816167
 30
0.0
 11
112.4725
 21
18.816167
 31
0.0
  0
LINE
  8
1
  6
CONTINUOUS
 62
   233
  5
6FC
 10
113.898
 20
18.354333
 30
0.0
 11
113.926
 21
18.450417
 31
0.0
  0
LINE
  8
1
  6
CONTINUOUS
 62
   233
  5
6FD
 10
113.926
 20
18.450417
 30
0.0
 11
113.926
 21
18.863583
 31
0.0
  0
LINE
  8
1
  6
CONTINUOUS
 62
   233
  5
6FE
 10
113.926
 20
18.863583
 30
0.0
 11
113.824917
 21
18.863583
 31
0.0
  0
LINE
  8
1
  6
CONTINUOUS
 62
   233
  5
6FF
 10
113.869083
 20
18.72075
 30
0.0
 11
113.869083
 21
18.504583
 31
0.0
  0
LINE
  8
1
  6
CONTINUOUS
 62
   233
  5
700
 10
113.869083
 20
18.504583
 30
0.0
 11
113.760833
 21
18.504583
 31
0.0
  0
LINE
  8
1
  6
CONTINUOUS
 62
   233
  5
701
 10
112.469167
 20
18.727
 30
0.0
 11
112.469167
 21
18.487667
 31
0.0
  0
LINE
  8
1
  6
CONTINUOUS
 62
   233
  5
702
 10
112.469167
 20
18.487667
 30
0.0
 11
112.644917
 21
18.487667
 31
0.0
  0
ARC
  8
1
  6
CONTINUOUS
 62
   233
  5
703
 10
113.18925
 20
19.394083
 30
0.0
 40
1.057316
 50
239.014622
 51
302.724147
210
0.0
220
0.0
230
1.0
  0
ARC
  8
2
  6
HIDDEN
 62
     2
  5
704
 10
113.226333
 20
19.635
 30
0.0
 40
1.015723
 50
235.080089
 51
301.749178
210
0.0
220
0.0
230
1.0
  0
LINE
  8
2
  6
HIDDEN
 62
     2
  5
705
 10
112.644917
 20
18.802167
 30
0.0
 11
112.644917
 21
20.472167
 31
0.0
  0
LINE
  8
2
  6
HIDDEN
 62
     2
  5
706
 10
113.824917
 20
19.33225
 30
0.0
 11
113.824917
 21
18.863583
 31
0.0
  0
LINE
  8
2
  6
HIDDEN
 62
     2
  5
707
 10
112.4725
 20
19.3225
 30
0.0
 11
112.4725
 21
18.816167
 31
0.0
  0
LINE
  8
1
  6
CONTINUOUS
 62
   233
  5
708
 10
112.85425
 20
19.416833
 30
0.0
 11
112.85425
 21
20.487583
 31
0.0
  0
LINE
  8
2
  6
HIDDEN
 62
     2
  5
709
 10
113.760833
 20
18.77125
 30
0.0
 11
113.760833
 21
20.355167
 31
0.0
  0
LINE
  8
1
  6
CONTINUOUS
 62
   233
  5
70A
 10
112.563417
 20
19.352
 30
0.0
 11
112.563417
 21
20.452833
 31
0.0
  0
TEXT
  8
3
  6
CONTINUOUS
 62
   110
  5
70B
 10
121.778333
 20
17.154667
 30
0.0
 40
0.133
  1
The Engineer, May Be Used In The Construction Of Concrete Manholes.
  7
MONOTXT
210
0.0
220
0.0
230
1.0
  0
TEXT
  8
3
  6
CONTINUOUS
 62
   110
  5
70C
 10
120.743167
 20
16.6675
 30
0.0
 40
0.133
  1
        If Cast-In-Place Manhole Is Over Twelve Feet (12') In Depth. 
  7
MONOTXT
210
0.0
220
0.0
230
1.0
  0
TEXT
  8
3
  6
CONTINUOUS
 62
   110
  5
70D
 10
121.760917
 20
16.4085
 30
0.0
 40
0.133
  1
The Sidewalls Below That Depth Will Be Double Thickness.
  7
MONOTXT
210
0.0
220
0.0
230
1.0
  0
TEXT
  8
3
  6
CONTINUOUS
 62
   110
  5
70E
 10
120.686167
 20
15.9105
 30
0.0
 40
0.133
  1
        Pipe At Elevations Other Than Shown May Be Joined To The 
  7
MONOTXT
210
0.0
220
0.0
230
1.0
  0
TEXT
  8
3
  6
CONTINUOUS
 62
   110
  5
70F
 10
121.781417
 20
15.640167
 30
0.0
 40
0.133
  1
Manhole By Cutting A Hole The Size Of The Connecting Pipe In The
  7
MONOTXT
210
0.0
220
0.0
230
1.0
  0
TEXT
  8
3
  6
CONTINUOUS
 62
   110
  5
710
 10
121.785917
 20
15.369333
 30
0.0
 40
0.133
  1
Manhole, Inserting The Pipe The Thickness Of The Manhole Shell
  7
MONOTXT
210
0.0
220
0.0
230
1.0
  0
TEXT
  8
3
  6
CONTINUOUS
 62
   110
  5
711
 10
121.7995
 20
15.0985
 30
0.0
 40
0.133
  1
And Closing All Openings Around The Connecting Pipe With Joint
  7
MONOTXT
210
0.0
220
0.0
230
1.0
  0
TEXT
  8
3
  6
CONTINUOUS
 62
   110
  5
712
 10
121.801667
 20
14.849667
 30
0.0
 40
0.133
  1
Mortar.
  7
MONOTXT
210
0.0
220
0.0
230
1.0
  0
TEXT
  8
3
  6
CONTINUOUS
 62
   110
  5
713
 10
120.745
 20
13.1255
 30
0.0
 40
0.133
  1
        Minimum Height Of Bench Wall Above Flowline Of Pipe Is
  7
MONOTXT
210
0.0
220
0.0
230
1.0
  0
TEXT
  8
3
  6
CONTINUOUS
 62
   110
  5
714
 10
121.795667
 20
12.865583
 30
0.0
 40
0.133
  1
25% Of The Diameter Of The Pipes.
  7
MONOTXT
210
0.0
220
0.0
230
1.0
  0
LINE
  8
1
  6
CONTINUOUS
 62
     7
  5
715
 10
104.546
 20
5.52425
 30
0.0
 11
104.545417
 21
5.245417
 31
0.0
  0
LINE
  8
1
  6
CONTINUOUS
 62
     7
  5
716
 10
104.544333
 20
4.645917
 30
0.0
 11
104.544917
 21
5.003833
 31
0.0
  0
LINE
  8
3
  6
CONTINUOUS
 62
     2
  5
717
 10
106.709917
 20
6.063167
 30
0.0
 11
107.21425
 21
6.063167
 31
0.0
  0
LINE
  8
3
  6
CONTINUOUS
 62
     2
  5
718
 10
105.56675
 20
11.05625
 30
0.0
 11
107.21425
 21
11.05625
 31
0.0
  0
TEXT
  8
1
  6
CONTINUOUS
 62
   110
  5
719
 10
104.793083
 20
8.19925
 30
0.0
 40
0.125
  1
12"
 50
90.0
  7
ROMANS
210
0.0
220
0.0
230
1.0
  0
TEXT
  8
3
  6
CONTINUOUS
 62
   110
  5
71A
 10
103.42875
 20
8.371917
 30
0.0
 40
0.125
  1
16"
 50
90.0
  7
ROMANS
210
0.0
220
0.0
230
1.0
  0
SOLID
  8
5
  6
CONTINUOUS
 62
   217
  5
71B
 10
106.769083
 20
17.649833
 30
0.0
 11
106.831583
 21
17.649833
 31
0.0
 12
106.800333
 22
17.837333
 32
0.0
 13
106.800333
 23
17.837333
 33
0.0
  0
SOLID
  8
5
  6
CONTINUOUS
 62
   217
  5
71C
 10
101.501333
 20
17.644917
 30
0.0
 11
101.563833
 21
17.644917
 31
0.0
 12
101.532583
 22
17.832417
 32
0.0
 13
101.532583
 23
17.832417
 33
0.0
  0
LINE
  8
5
  6
CONTINUOUS
 62
   217
  5
71D
 10
101.531583
 20
17.327083
 30
0.0
 11
101.99025
 21
17.327083
 31
0.0
  0
LINE
  8
5
  6
CONTINUOUS
 62
   217
  5
71E
 10
102.302917
 20
17.327083
 30
0.0
 11
102.623667
 21
17.327083
 31
0.0
  0
LINE
  8
5
  6
CONTINUOUS
 62
   217
  5
71F
 10
104.290583
 20
17.327083
 30
0.0
 11
104.618583
 21
17.327083
 31
0.0
  0
LINE
  8
5
  6
CONTINUOUS
 62
   217
  5
720
 10
102.312667
 20
17.367417
 30
0.0
 11
102.6235
 21
17.367417
 31
0.0
  0
LINE
  8
5
  6
CONTINUOUS
 62
   217
  5
721
 10
104.290583
 20
17.367417
 30
0.0
 11
104.618583
 21
17.367417
 31
0.0
  0
POLYLINE
  8
1
  6
CONTINUOUS
 62
   233
  5
722
 66
     1
 10
0.0
 20
0.0
 30
0.0
 70
     1
  0
VERTEX
  8
1
  6
CONTINUOUS
 62
   233
  5
723
 10
102.62675
 20
16.538917
 30
0.0
  0
VERTEX
  8
1
  6
CONTINUOUS
 62
   233
  5
724
 10
104.290583
 20
16.538917
 30
0.0
  0
VERTEX
  8
1
  6
CONTINUOUS
 62
   233
  5
725
 10
104.290583
 20
18.1495
 30
0.0
  0
VERTEX
  8
1
  6
CONTINUOUS
 62
   233
  5
726
 10
102.62675
 20
18.1495
 30
0.0
  0
SEQEND
  8
1
  6
CONTINUOUS
 62
   233
  5
727
  0
POLYLINE
  8
1
  6
CONTINUOUS
 62
   233
  5
728
 66
     1
 10
0.0
 20
0.0
 30
0.0
 70
     1
  0
VERTEX
  8
1
  6
CONTINUOUS
 62
   233
  5
729
 10
102.666917
 20
16.57875
 30
0.0
  0
VERTEX
  8
1
  6
CONTINUOUS
 62
   233
  5
72A
 10
104.25225
 20
16.57875
 30
0.0
  0
VERTEX
  8
1
  6
CONTINUOUS
 62
   233
  5
72B
 10
104.25225
 20
18.096917
 30
0.0
  0
VERTEX
  8
1
  6
CONTINUOUS
 62
   233
  5
72C
 10
102.666917
 20
18.096917
 30
0.0
  0
SEQEND
  8
1
  6
CONTINUOUS
 62
   233
  5
72D
  0
SOLID
  8
3
  6
CONTINUOUS
 62
     2
  5
72E
 10
113.570583
 20
15.011083
 30
0.0
 11
113.570583
 21
15.073583
 31
0.0
 12
113.383083
 22
15.042333
 32
0.0
 13
113.383083
 23
15.042333
 33
0.0
  0
SOLID
  8
3
  6
CONTINUOUS
 62
     2
  5
72F
 10
112.8325
 20
16.884667
 30
0.0
 11
112.8325
 21
16.947167
 31
0.0
 12
112.644833
 22
16.915917
 32
0.0
 13
112.644833
 23
16.915917
 33
0.0
  0
SOLID
  8
3
  6
CONTINUOUS
 62
     2
  5
730
 10
113.573333
 20
17.986833
 30
0.0
 11
113.573333
 21
17.924417
 31
0.0
 12
113.760833
 22
17.955667
 32
0.0
 13
113.760833
 23
17.955667
 33
0.0
  0
POINT
  8
1
  6
DASHED
 62
     2
  5
731
 10
96.187417
 20
22.516333
 30
0.0
  0
POINT
  8
1
  6
DASHED
 62
     2
  5
732
 10
129.412417
 20
1.396333
 30
0.0
  0
LINE
  8
1
  6
DASHED
 62
     4
  5
733
 10
129.28275
 20
22.996333
 30
0.0
 11
94.08275
 21
22.996333
 31
0.0
  0
LINE
  8
1
  6
DASHED
 62
     4
  5
734
 10
129.28275
 20
0.996333
 30
0.0
 11
94.08275
 21
0.996333
 31
0.0
  0
LINE
  8
1
  6
DASHED
 62
     4
  5
735
 10
95.65775
 20
22.996333
 30
0.0
 11
95.65775
 21
0.996333
 31
0.0
  0
LINE
  8
1
  6
CONTINUOUS
 62
   140
  5
736
 10
96.699417
 20
22.496333
 30
0.0
 11
96.699417
 21
1.496333
 31
0.0
  0
LINE
  8
1
  6
CONTINUOUS
 62
   140
  5
737
 10
129.199417
 20
22.496333
 30
0.0
 11
96.699417
 21
22.496333
 31
0.0
  0
LINE
  8
1
  6
CONTINUOUS
 62
   140
  5
738
 10
129.199417
 20
22.496333
 30
0.0
 11
129.199417
 21
1.496333
 31
0.0
  0
LINE
  8
1
  6
CONTINUOUS
 62
   140
  5
739
 10
129.199417
 20
1.496333
 30
0.0
 11
96.699417
 21
1.496333
 31
0.0
  0
LINE
  8
1
  6
CONTINUOUS
 62
   140
  5
73A
 10
96.449417
 20
18.596333
 30
0.0
 11
96.049417
 21
18.596333
 31
0.0
  0
LINE
  8
1
  6
CONTINUOUS
 62
   140
  5
73B
 10
96.449417
 20
15.796333
 30
0.0
 11
96.049417
 21
15.796333
 31
0.0
  0
LINE
  8
1
  6
CONTINUOUS
 62
   140
  5
73C
 10
96.449417
 20
8.196333
 30
0.0
 11
96.049417
 21
8.196333
 31
0.0
  0
LINE
  8
1
  6
CONTINUOUS
 62
   140
  5
73D
 10
96.449417
 20
5.396333
 30
0.0
 11
96.049417
 21
5.396333
 31
0.0
  0
CIRCLE
  8
1
  6
CONTINUOUS
 62
   140
  5
73E
 10
96.199417
 20
18.596333
 30
0.0
 40
0.125
210
0.0
220
0.0
230
1.0
  0
CIRCLE
  8
1
  6
CONTINUOUS
 62
   140
  5
73F
 10
96.199417
 20
15.796333
 30
0.0
 40
0.125
210
0.0
220
0.0
230
1.0
  0
CIRCLE
  8
1
  6
CONTINUOUS
 62
   140
  5
740
 10
96.199417
 20
8.196333
 30
0.0
 40
0.125
210
0.0
220
0.0
230
1.0
  0
CIRCLE
  8
1
  6
CONTINUOUS
 62
   140
  5
741
 10
96.199417
 20
5.396333
 30
0.0
 40
0.125
210
0.0
220
0.0
230
1.0
  0
TEXT
  8
1
  6
CONTINUOUS
 62
   140
  5
743
 10
125.655167
 20
1.404583
 30
0.0
 40
0.06
  1
$$$$$$$$$FILENAME$$$$$$$$
  7
txt
 11
125.655167
 21
1.434583
 31
0.0
210
0.0
220
0.0
230
1.0
 73
     2
  0
TEXT
  8
1
  6
CONTINUOUS
 62
   140
  5
744
 10
127.37925
 20
1.404583
 30
0.0
 40
0.06
  1
$USERNAME$
  7
txt
 11
127.37925
 21
1.434583
 31
0.0
210
0.0
220
0.0
230
1.0
 73
     2
  0
TEXT
  8
1
  6
CONTINUOUS
 62
   140
  5
745
 10
128.152833
 20
1.404583
 30
0.0
 40
0.06
  1
DD-MMM-YYYY HH:MM
  7
txt
 11
128.152833
 21
1.434583
 31
0.0
210
0.0
220
0.0
230
1.0
 73
     2
  0
POINT
  8
1
  6
CONTINUOUS
 62
   140
  5
746
 10
96.699417
 20
1.496333
 30
0.0
  0
POINT
  8
1
  6
CONTINUOUS
 62
   140
  5
747
 10
96.699417
 20
22.496333
 30
0.0
  0
POINT
  8
1
  6
CONTINUOUS
 62
   140
  5
748
 10
129.199417
 20
22.496333
 30
0.0
  0
POINT
  8
1
  6
CONTINUOUS
 62
   140
  5
749
 10
129.199417
 20
1.496333
 30
0.0
  0
LINE
  8
1
  6
CONTINUOUS
 62
   140
  5
74A
 10
129.199417
 20
1.496333
 30
0.0
 11
129.199417
 21
3.995333
 31
0.0
  0
LINE
  8
1
  6
CONTINUOUS
 62
   140
  5
74B
 10
129.199417
 20
4.986167
 30
0.0
 11
123.199417
 21
4.986167
 31
0.0
  0
LINE
  8
1
  6
CONTINUOUS
 62
   140
  5
74C
 10
129.199417
 20
1.496333
 30
0.0
 11
123.199417
 21
1.496333
 31
0.0
  0
LINE
  8
1
  6
CONTINUOUS
 62
   140
  5
74D
 10
124.737333
 20
3.395333
 30
0.0
 11
123.199417
 21
3.395333
 31
0.0
  0
LINE
  8
1
  6
CONTINUOUS
 62
   140
  5
74E
 10
124.737333
 20
3.196333
 30
0.0
 11
123.199417
 21
3.196333
 31
0.0
  0
LINE
  8
1
  6
CONTINUOUS
 62
   140
  5
74F
 10
124.737333
 20
2.997333
 30
0.0
 11
123.199417
 21
2.997333
 31
0.0
  0
LINE
  8
1
  6
CONTINUOUS
 62
   140
  5
750
 10
124.737333
 20
2.798333
 30
0.0
 11
123.199417
 21
2.798333
 31
0.0
  0
LINE
  8
1
  6
CONTINUOUS
 62
   140
  5
751
 10
124.737333
 20
2.599333
 30
0.0
 11
123.199417
 21
2.599333
 31
0.0
  0
LINE
  8
1
  6
CONTINUOUS
 62
   140
  5
752
 10
124.737333
 20
2.400333
 30
0.0
 11
123.199417
 21
2.400333
 31
0.0
  0
LINE
  8
1
  6
CONTINUOUS
 62
   140
  5
753
 10
124.737333
 20
2.201333
 30
0.0
 11
123.199417
 21
2.201333
 31
0.0
  0
LINE
  8
1
  6
CONTINUOUS
 62
   140
  5
754
 10
124.737333
 20
2.002333
 30
0.0
 11
123.199417
 21
2.002333
 31
0.0
  0
LINE
  8
1
  6
CONTINUOUS
 62
   140
  5
755
 10
124.737333
 20
1.803333
 30
0.0
 11
123.199417
 21
1.803333
 31
0.0
  0
TEXT
  8
1
  6
CONTINUOUS
 62
   140
  5
756
 10
123.5065
 20
3.442667
 30
0.0
 40
0.079
  1
REVISION DATE
 41
1.003165
  7
MONOTXT
210
0.0
220
0.0
230
1.0
  0
LINE
  8
1
  6
CONTINUOUS
 62
   140
  5
757
 10
123.199417
 20
2.906333
 30
0.0
 11
123.199417
 21
1.496333
 31
0.0
  0
TEXT
  8
1
  6
CONTINUOUS
 62
   140
  5
759
 10
123.41075
 20
4.73125
 30
0.0
 40
0.1875
  1
WEST VIRGINIA DEPARTMENT OF TRANSPORTATION
  7
ROMANT
 72
     4
 11
126.181083
 21
4.825
 31
0.0
210
0.0
220
0.0
230
1.0
  0
TEXT
  8
1
  6
CONTINUOUS
 62
   140
  5
75A
 10
124.983583
 20
4.522333
 30
0.0
 40
0.1875
  1
DIVISION OF HIGHWAYS
  7
ROMANT
 72
     4
 11
126.203083
 21
4.616083
 31
0.0
210
0.0
220
0.0
230
1.0
  0
TEXT
  8
1
  6
CONTINUOUS
 62
   140
  5
75B
 10
125.213667
 20
4.324167
 30
0.0
 40
0.1875
  1
STANDARD DETAIL
  7
ROMANT
 72
     4
 11
126.19175
 21
4.417917
 31
0.0
210
0.0
220
0.0
230
1.0
  0
LINE
  8
1
  6
CONTINUOUS
 62
   140
  5
75C
 10
124.737333
 20
3.595333
 30
0.0
 11
123.199417
 21
3.595333
 31
0.0
  0
LINE
  8
1
  6
CONTINUOUS
 62
   140
  5
75D
 10
124.737333
 20
1.496333
 30
0.0
 11
124.737333
 21
3.595333
 31
0.0
  0
LINE
  8
1
  6
CONTINUOUS
 62
   140
  5
75E
 10
123.199417
 20
1.496333
 30
0.0
 11
123.199417
 21
4.986167
 31
0.0
  0
TEXT
  8
1
  6
CONTINUOUS
 62
     2
  5
75F
 10
125.154583
 20
1.713417
 30
0.0
 40
0.166667
  1
STANDARD SHEET DR7-B     
  7
txt
 72
     4
 11
127.193917
 21
1.79675
 31
0.0
210
0.0
220
0.0
230
1.0
  0
TEXT
  8
1
  6
CONTINUOUS
 62
     2
  5
760
 10
124.465
 20
3.858417
 30
0.0
 40
0.208333
  1
                        
  7
txt
 72
     4
 11
126.93025
 21
3.962583
 31
0.0
210
0.0
220
0.0
230
1.0
  0
TEXT
  8
1
  6
CONTINUOUS
 62
     2
  5
761
 10
124.470667
 20
3.486833
 30
0.0
 40
0.208333
  1
                        
  7
txt
 72
     4
 11
126.935917
 21
3.591
 31
0.0
210
0.0
220
0.0
230
1.0
  0
TEXT
  8
1
  6
CONTINUOUS
 62
     2
  5
762
 10
124.51225
 20
3.1115
 30
0.0
 40
0.208333
  1
     TYPE B MANHOLE     
  7
txt
 72
     4
 11
126.96225
 21
3.215667
 31
0.0
210
0.0
220
0.0
230
1.0
  0
TEXT
  8
1
  6
CONTINUOUS
 62
     2
  5
763
 10
124.470583
 20
2.761167
 30
0.0
 40
0.208333
  1
                        
  7
txt
 72
     4
 11
126.935833
 21
2.865333
 31
0.0
210
0.0
220
0.0
230
1.0
  0
TEXT
  8
1
  6
CONTINUOUS
 62
     2
  5
764
 10
124.470583
 20
2.410833
 30
0.0
 40
0.208333
  1
                        
  7
txt
 72
     4
 11
126.935833
 21
2.515
 31
0.0
210
0.0
220
0.0
230
1.0
  0
TEXT
  8
1
  6
CONTINUOUS
 62
     2
  5
765
 10
123.28475
 20
3.246583
 30
0.0
 40
0.079
  1
                  
 41
1.003165
  7
MONOTXT
 72
     4
 11
123.98475
 21
3.286083
 31
0.0
210
0.0
220
0.0
230
1.0
  0
TEXT
  8
1
  6
CONTINUOUS
 62
     2
  5
766
 10
123.254083
 20
3.036417
 30
0.0
 40
0.079
  1
                  
 41
1.003165
  7
MONOTXT
 72
     4
 11
123.954083
 21
3.075917
 31
0.0
210
0.0
220
0.0
230
1.0
  0
TEXT
  8
1
  6
CONTINUOUS
 62
     2
  5
767
 10
123.276333
 20
2.831833
 30
0.0
 40
0.079
  1
                  
 41
1.003165
  7
MONOTXT
 72
     4
 11
123.976333
 21
2.871333
 31
0.0
210
0.0
220
0.0
230
1.0
  0
TEXT
  8
1
  6
CONTINUOUS
 62
     2
  5
768
 10
123.254
 20
2.644
 30
0.0
 40
0.079
  1
                  
 41
1.003165
  7
MONOTXT
 72
     4
 11
123.954
 21
2.6835
 31
0.0
210
0.0
220
0.0
230
1.0
  0
TEXT
  8
1
  6
CONTINUOUS
 62
     2
  5
769
 10
123.2345
 20
2.43675
 30
0.0
 40
0.083333
  1
                  
  7
ROMANS
 72
     4
 11
123.970583
 21
2.478417
 31
0.0
210
0.0
220
0.0
230
1.0
  0
TEXT
  8
1
  6
CONTINUOUS
 62
     2
  5
76A
 10
123.2345
 20
2.23775
 30
0.0
 40
0.083333
  1
                  
  7
ROMANS
 72
     4
 11
123.970583
 21
2.279417
 31
0.0
210
0.0
220
0.0
230
1.0
  0
TEXT
  8
1
  6
CONTINUOUS
 62
     2
  5
76B
 10
123.2345
 20
2.03875
 30
0.0
 40
0.083333
  1
                  
  7
ROMANS
 72
     4
 11
123.970583
 21
2.080417
 31
0.0
210
0.0
220
0.0
230
1.0
  0
TEXT
  8
1
  6
CONTINUOUS
 62
     2
  5
76C
 10
123.2345
 20
1.83975
 30
0.0
 40
0.083333
  1
                  
  7
ROMANS
 72
     4
 11
123.970583
 21
1.881417
 31
0.0
210
0.0
220
0.0
230
1.0
  0
TEXT
  8
1
  6
CONTINUOUS
 62
     2
  5
76D
 10
123.232917
 20
1.635583
 30
0.0
 40
0.083333
  1
                  
  7
ROMANS
 72
     4
 11
123.969
 21
1.67725
 31
0.0
210
0.0
220
0.0
230
1.0
  0
POINT
  8
1
  6
DASHED
 62
     2
  5
76E
 10
96.187417
 20
22.516333
 30
0.0
  0
POINT
  8
1
  6
DASHED
 62
     2
  5
76F
 10
129.412417
 20
1.396333
 30
0.0
  0
TEXT
  8
1
  6
CONTINUOUS
 62
   140
  5
770
 10
96.747417
 20
1.375333
 30
0.0
 40
0.06
  1
P5A1G92-STDBOR a
  7
MONOTXT
210
0.0
220
0.0
230
1.0
  0
TEXT
  8
3
  6
CONTINUOUS
 62
     2
  5
771
 10
112.421417
 20
3.55025
 30
0.0
 40
0.18
  1
CONCRETE BASE
  7
MONOTXT
210
0.0
220
0.0
230
1.0
  0
LINE
  8
1
  6
CONTINUOUS
 62
   233
  5
772
 10
103.465583
 20
17.313833
 30
0.0
 11
103.440167
 21
17.33275
 31
0.0
  0
LINE
  8
3
  6
CONTINUOUS
 62
     2
  5
773
 10
112.489417
 20
17.483167
 30
0.0
 11
111.062667
 21
19.892417
 31
0.0
  0
LINE
  8
3
  6
CONTINUOUS
 62
     2
  5
774
 10
111.062667
 20
19.892417
 30
0.0
 11
110.861583
 21
19.892417
 31
0.0
  0
LINE
  8
3
  6
CONTINUOUS
 62
     2
  5
775
 10
111.5695
 20
15.020667
 30
0.0
 11
111.886917
 21
17.084833
 31
0.0
  0
LINE
  8
3
  6
CONTINUOUS
 62
     2
  5
776
 10
111.5695
 20
15.020667
 30
0.0
 11
111.198
 21
15.020667
 31
0.0
  0
LINE
  8
3
  6
CONTINUOUS
 62
     2
  5
777
 10
100.773833
 20
15.077333
 30
0.0
 11
102.62675
 21
17.051583
 31
0.0
  0
LINE
  8
3
  6
CONTINUOUS
 62
     2
  5
778
 10
101.145333
 20
15.077333
 30
0.0
 11
100.773833
 21
15.077333
 31
0.0
  0
SOLID
  8
5
  6
CONTINUOUS
 62
   217
  5
779
 10
102.478
 20
16.93325
 30
0.0
 11
102.524417
 21
16.891417
 31
0.0
 12
102.62675
 22
17.051583
 32
0.0
 13
102.62675
 23
17.051583
 33
0.0
  0
SOLID
  8
5
  6
CONTINUOUS
 62
   217
  5
77A
 10
111.82475
 20
16.90525
 30
0.0
 11
111.886333
 21
16.89475
 31
0.0
 12
111.886917
 22
17.084833
 32
0.0
 13
111.886917
 23
17.084833
 33
0.0
  0
SOLID
  8
5
  6
CONTINUOUS
 62
   217
  5
77B
 10
112.420417
 20
17.660333
 30
0.0
 11
112.36675
 21
17.628333
 31
0.0
 12
112.489417
 22
17.483167
 32
0.0
 13
112.489417
 23
17.483167
 33
0.0
  0
LINE
  8
3
  6
CONTINUOUS
 62
     2
  5
77C
 10
112.056833
 20
16.755
 30
0.0
 11
112.056833
 21
17.021833
 31
0.0
  0
LINE
  8
3
  6
CONTINUOUS
 62
     2
  5
77D
 10
111.64225
 20
16.755
 30
0.0
 11
111.64225
 21
17.021833
 31
0.0
  0
SOLID
  8
3
  6
CONTINUOUS
 62
     2
  5
77E
 10
112.2445
 20
16.851667
 30
0.0
 11
112.2445
 21
16.914167
 31
0.0
 12
112.056833
 22
16.882917
 32
0.0
 13
112.056833
 23
16.882917
 33
0.0
  0
LINE
  8
3
  6
CONTINUOUS
 62
     2
  5
77F
 10
112.056833
 20
16.882917
 30
0.0
 11
112.427833
 21
16.882917
 31
0.0
  0
LINE
  8
3
  6
CONTINUOUS
 62
     2
  5
780
 10
110.836083
 20
16.882917
 30
0.0
 11
111.64225
 21
16.882917
 31
0.0
  0
SOLID
  8
3
  6
CONTINUOUS
 62
     2
  5
781
 10
111.45475
 20
16.914083
 30
0.0
 11
111.45475
 21
16.851667
 31
0.0
 12
111.64225
 22
16.882917
 32
0.0
 13
111.64225
 23
16.882917
 33
0.0
  0
TEXT
  8
3
  6
CONTINUOUS
 62
   110
  5
782
 10
109.761917
 20
16.759333
 30
0.0
 40
0.125
  1
4" MIN.
  7
ROMANS
210
0.0
220
0.0
230
1.0
  0
LINE
  8
3
  6
CONTINUOUS
 62
     2
  5
783
 10
105.272167
 20
4.434
 30
0.0
 11
105.474833
 21
5.069667
 31
0.0
  0
LINE
  8
3
  6
CONTINUOUS
 62
     2
  5
784
 10
105.272167
 20
4.434
 30
0.0
 11
105.457
 21
4.434
 31
0.0
  0
SOLID
  8
3
  6
CONTINUOUS
 62
     2
  5
785
 10
105.418167
 20
4.956333
 30
0.0
 11
105.457917
 21
4.944083
 31
0.0
 12
105.474833
 22
5.069667
 32
0.0
 13
105.474833
 23
5.069667
 33
0.0
  0
TEXT
  8
3
  6
CONTINUOUS
 62
   110
  5
786
 10
120.656417
 20
17.402333
 30
0.0
 40
0.133
  1
        "Keyed" Or "Doweled" Type Construction Joints, Acceptable To 
  7
MONOTXT
210
0.0
220
0.0
230
1.0
  0
TEXT
  8
1
  6
CONTINUOUS
 62
   110
  5
787
 10
121.805333
 20
12.474917
 30
0.0
 40
0.133
  1
The use of brick for manhole construction will not be allowed when
  7
MONOTXT
 72
     4
 11
125.272167
 21
12.541417
 31
0.0
210
0.0
220
0.0
230
1.0
  0
TEXT
  8
3
  6
CONTINUOUS
 62
   110
  5
788
 10
120.71275
 20
14.483583
 30
0.0
 40
0.133
  1
        Either This Manhole Or The Precast Manhole On Standard Sheet
  7
MONOTXT
210
0.0
220
0.0
230
1.0
  0
TEXT
  8
3
  6
CONTINUOUS
 62
   110
  5
789
 10
121.8055
 20
14.213917
 30
0.0
 40
0.133
  1
DR7-A May Be Furnished When Type B Manhole Is Called For In The
  7
MONOTXT
210
0.0
220
0.0
230
1.0
  0
TEXT
  8
3
  6
CONTINUOUS
 62
   110
  5
78A
 10
121.8315
 20
13.98725
 30
0.0
 40
0.133
  1
Contract. The Frame And Grate Shall Be As Shown On Standard 
  7
MONOTXT
210
0.0
220
0.0
230
1.0
  0
TEXT
  8
3
  6
CONTINUOUS
 62
   110
  5
78B
 10
121.809083
 20
13.716417
 30
0.0
 40
0.133
  1
Sheet DR6-X INLET CASTINGS. Steps Shall Be As Shown On Standard 
  7
MONOTXT
210
0.0
220
0.0
230
1.0
  0
TEXT
  8
3
  6
CONTINUOUS
 62
   110
  5
78C
 10
121.809083
 20
13.441833
 30
0.0
 40
0.133
  1
Sheet DR7-X.
  7
MONOTXT
210
0.0
220
0.0
230
1.0
  0
TEXT
  8
1
  6
CONTINUOUS
 62
   110
  5
78D
 10
121.778
 20
12.178667
 30
0.0
 40
0.133
  1
a manhole is located in the raodway.
  7
MONOTXT
 72
     4
 11
123.710417
 21
12.245167
 31
0.0
210
0.0
220
0.0
230
1.0
  0
TEXT
  8
1
  6
CONTINUOUS
 62
     2
  5
78E
 10
123.275833
 20
3.664583
 30
0.0
 40
0.083333
  1
 PREPARED 7-1-99 
  7
ROMANS
 72
     4
 11
123.97025
 21
3.70625
 31
0.0
210
0.0
220
0.0
230
1.0
  0
TEXT
  8
3
  6
CONTINUOUS
 62
   110
  5
78F
 10
111.8815
 20
3.26125
 30
0.0
 40
0.14
  1
Optional  Precast Or Field-cast
  7
MONOTXT
210
0.0
220
0.0
230
1.0
  0
TEXT
  8
3
  6
CONTINUOUS
 62
   110
  5
790
 10
101.918083
 20
6.673083
 30
0.0
 40
0.125
  1
4" Min 
  7
ROMANS
210
0.0
220
0.0
230
1.0
  0
TEXT
  8
3
  6
CONTINUOUS
 62
   110
  5
791
 10
103.442917
 20
6.663083
 30
0.0
 40
0.125
  1
 (At Point Of Embedment)
  7
ROMANS
210
0.0
220
0.0
230
1.0
  0
TEXT
  8
3
  6
CONTINUOUS
 62
   110
  5
792
 10
99.24875
 20
19.394833
 30
0.0
 40
0.125
  1
Type B manhole with the
  7
ROMANS
210
0.0
220
0.0
230
1.0
  0
TEXT
  8
3
  6
CONTINUOUS
 62
   110
  5
793
 10
99.23875
 20
19.145583
 30
0.0
 40
0.125
  1
tilt bar grate shall not
  7
ROMANS
210
0.0
220
0.0
230
1.0
  0
TEXT
  8
3
  6
CONTINUOUS
 62
   110
  5
794
 10
99.268667
 20
18.716833
 30
0.0
 40
0.125
  1
cross walk.
  7
ROMANS
210
0.0
220
0.0
230
1.0
  0
TEXT
  8
3
  6
CONTINUOUS
 62
   110
  5
795
 10
99.268667
 20
18.92625
 30
0.0
 40
0.125
  1
be placed in a pedestrian
  7
ROMANS
210
0.0
220
0.0
230
1.0
  0
ENDSEC
  0
EOF
