  0
SECTION
  2
HEADER
  9
$ACADVER
  1
AC1009
  9
$INSBASE
 10
0.0
 20
0.0
 30
0.0
  9
$EXTMIN
 10
3.81325
 20
5.664333
 30
0.0
  9
$EXTMAX
 10
72.635417
 20
58.210333
 30
0.0
  9
$LIMMIN
 10
0.0
 20
0.0
  9
$LIMMAX
 10
12.0
 20
9.0
  9
$ORTHOMODE
 70
     0
  9
$REGENMODE
 70
     1
  9
$FILLMODE
 70
     1
  9
$QTEXTMODE
 70
     0
  9
$MIRRTEXT
 70
     1
  9
$DRAGMODE
 70
     2
  9
$LTSCALE
 40
1.0
  9
$OSMODE
 70
     0
  9
$ATTMODE
 70
     1
  9
$TEXTSIZE
 40
0.2
  9
$TRACEWID
 40
0.05
  9
$TEXTSTYLE
  7
STANDARD
  9
$CLAYER
  8
0
  9
$CELTYPE
  6
CONTINUOUS
  9
$CECOLOR
 62
   256
  9
$DIMSCALE
 40
1.0
  9
$DIMASZ
 40
0.18
  9
$DIMEXO
 40
0.0625
  9
$DIMDLI
 40
0.38
  9
$DIMRND
 40
0.0
  9
$DIMDLE
 40
0.0
  9
$DIMEXE
 40
0.18
  9
$DIMTP
 40
0.0
  9
$DIMTM
 40
0.0
  9
$DIMTXT
 40
0.18
  9
$DIMCEN
 40
0.09
  9
$DIMTSZ
 40
0.0
  9
$DIMTOL
 70
     0
  9
$DIMLIM
 70
     0
  9
$DIMTIH
 70
     1
  9
$DIMTOH
 70
     1
  9
$DIMSE1
 70
     0
  9
$DIMSE2
 70
     0
  9
$DIMTAD
 70
     0
  9
$DIMZIN
 70
     0
  9
$DIMBLK
  1

  9
$DIMASO
 70
     1
  9
$DIMSHO
 70
     1
  9
$DIMPOST
  1

  9
$DIMAPOST
  1

  9
$DIMALT
 70
     0
  9
$DIMALTD
 70
     2
  9
$DIMALTF
 40
25.4
  9
$DIMLFAC
 40
1.0
  9
$DIMTOFL
 70
     0
  9
$DIMTVP
 40
0.0
  9
$DIMTIX
 70
     0
  9
$DIMSOXD
 70
     0
  9
$DIMSAH
 70
     0
  9
$DIMBLK1
  1

  9
$DIMBLK2
  1

  9
$DIMSTYLE
  2
STANDARD
  9
$DIMCLRD
 70
     0
  9
$DIMCLRE
 70
     0
  9
$DIMCLRT
 70
     0
  9
$DIMTFAC
 40
1.0
  9
$DIMGAP
 40
0.09
  9
$LUNITS
 70
     2
  9
$LUPREC
 70
     4
  9
$AXISMODE
 70
     0
  9
$AXISUNIT
 10
0.0
 20
0.0
  9
$SKETCHINC
 40
0.1
  9
$FILLETRAD
 40
0.0
  9
$AUNITS
 70
     0
  9
$AUPREC
 70
     0
  9
$MENU
  1
acad
  9
$ELEVATION
 40
0.0
  9
$PELEVATION
 40
0.0
  9
$THICKNESS
 40
0.0
  9
$LIMCHECK
 70
     0
  9
$BLIPMODE
 70
     1
  9
$CHAMFERA
 40
0.0
  9
$CHAMFERB
 40
0.0
  9
$SKPOLY
 70
     0
  9
$TDCREATE
 40
2451569.375509259
  9
$TDUPDATE
 40
2451569.375509259
  9
$TDINDWG
 40
0.0000000000
  9
$TDUSRTIMER
 40
0.0000000000
  9
$USRTIMER
 70
     1
  9
$ANGBASE
 50
0.0
  9
$ANGDIR
 70
     0
  9
$PDMODE
 70
     0
  9
$PDSIZE
 40
0.0
  9
$PLINEWID
 40
0.0
  9
$COORDS
 70
     0
  9
$SPLFRAME
 70
     0
  9
$SPLINETYPE
 70
     6
  9
$SPLINESEGS
 70
    10
  9
$ATTDIA
 70
     0
  9
$ATTREQ
 70
     1
  9
$HANDLING
 70
     1
  9
$HANDSEED
  5
7D4
  9
$SURFTAB1
 70
     6
  9
$SURFTAB2
 70
     6
  9
$SURFTYPE
 70
     6
  9
$SURFU
 70
     6
  9
$SURFV
 70
     6
  9
$UCSNAME
  2

  9
$UCSORG
 10
0.0
 20
0.0
 30
0.0
  9
$UCSXDIR
 10
1.0
 20
0.0
 30
0.0
  9
$UCSYDIR
 10
0.0
 20
1.0
 30
0.0
  9
$PUCSNAME
  2

  9
$PUCSORG
 10
0.0
 20
0.0
 30
0.0
  9
$PUCSXDIR
 10
1.0
 20
0.0
 30
0.0
  9
$PUCSYDIR
 10
0.0
 20
1.0
 30
0.0
  9
$USERI1
 70
     0
  9
$USERI2
 70
     0
  9
$USERI3
 70
     0
  9
$USERI4
 70
     0
  9
$USERI5
 70
     0
  9
$USERR1
 40
0.0
  9
$USERR2
 40
0.0
  9
$USERR3
 40
0.0
  9
$USERR4
 40
0.0
  9
$USERR5
 40
0.0
  9
$WORLDVIEW
 70
     1
  9
$SHADEDGE
 70
     3
  9
$SHADEDIF
 70
    70
  9
$TILEMODE
 70
     1
  9
$MAXACTVP
 70
    16
  9
$PINSBASE
 10
0.0
 20
0.0
 30
0.0
  9
$PLIMCHECK
 70
     0
  9
$PEXTMIN
 10
-1.000000E+20
 20
-1.000000E+20
 30
-1.000000E+20
  9
$PEXTMAX
 10
-1.000000E+20
 20
-1.000000E+20
 30
-1.000000E+20
  9
$PLIMMIN
 10
0.0
 20
0.0
  9
$PLIMMAX
 10
12.0
 20
9.0
  9
$UNITMODE
 70
     0
  9
$VISRETAIN
 70
     0
  9
$PLINEGEN
 70
     1
  9
$PSLTSCALE
 70
     0
  9
$TREEDEPTH
 70
  3020
  9
$DWGCODEPAGE
  3
ansi_1252
  0
ENDSEC
  0
SECTION
  2
TABLES
  0
TABLE
  2
VPORT
 70
     1
  0
VPORT
  2
*ACTIVE
 70
     0
 10
0.0
 20
0.0
 11
1.0
 21
1.0
 12
0.0
 22
0.0
 13
0.0
 23
0.0
 14
0.0
 24
0.0
 15
0.0
 25
0.0
 16
0.0
 26
0.0
 36
1.0
 17
53.984806
 27
47.210333
 37
0.0
 40
22.55
 41
1.577899
 42
50.0
 43
0.0
 44
0.0
 50
0.0
 51
0.0
 71
     0
 72
   100
 73
     1
 74
     0
 75
     0
 76
     0
 77
     0
 78
     0
  0
ENDTAB
  0
TABLE
  2
LTYPE
 70
     7
  0
LTYPE
  2
CONTINUOUS
 70
     0
  3
Solid line
 72
    65
 73
     0
 40
0.0
  0
LTYPE
  2
DOT
 70
    64
  3
. . . . . . . . . . . . . . . . . . . . . . . . . . . . . . . . .
 72
    65
 73
     2
 40
0.25
 49
0.0
 49
-0.25
  0
LTYPE
  2
HIDDEN
 70
    64
  3
__ __ __ __ __ __ __ __ __ __ __ __ __ __ __ __ __ __ __ __ __ 
 72
    65
 73
     2
 40
0.375
 49
0.25
 49
-0.125
  0
LTYPE
  2
DASHED
 70
    64
  3
__ __ __ __ __ __ __ __ __ __ __ __ __ __ __ __ __ __ __ __ __
 72
    65
 73
     2
 40
0.75
 49
0.5
 49
-0.25
  0
LTYPE
  2
DASHDOT
 70
    64
  3
__ . __ . __ . __ . __ . __ . __ . __ . __ . __ . __ . __ . _
 72
    65
 73
     4
 40
1.0
 49
0.5
 49
-0.25
 49
0.0
 49
-0.25
  0
LTYPE
  2
DIVIDE
 70
    64
  3
____ . . ____ . . ____ . . ____ . . ____ . . ____ . . ____ . .
 72
    65
 73
     6
 40
1.25
 49
0.5
 49
-0.25
 49
0.0
 49
-0.25
 49
0.0
 49
-0.25
  0
LTYPE
  2
CENTER
 70
    64
  3
____ _ ____ _ ____ _ ____ _ ____ _ ____ _ ____ _ ____ _ ____ _
 72
    65
 73
     4
 40
2.0
 49
1.25
 49
-0.25
 49
0.25
 49
-0.25
  0
ENDTAB
  0
TABLE
  2
LAYER
 70
     7
  0
LAYER
  2
0
 70
     0
 62
     7
  6
CONTINUOUS
  0
LAYER
  2
CONSTRUCTION_CLASS
 70
     0
 62
     7
  6
CONTINUOUS
  0
LAYER
  2
PATTERN_CLASS
 70
     0
 62
     7
  6
CONTINUOUS
  0
LAYER
  2
1
 70
    64
 62
     7
  6
CONTINUOUS
  0
LAYER
  2
3
 70
    64
 62
     7
  6
CONTINUOUS
  0
LAYER
  2
2
 70
    64
 62
     7
  6
CONTINUOUS
  0
LAYER
  2
4
 70
    64
 62
     7
  6
CONTINUOUS
  0
ENDTAB
  0
TABLE
  2
STYLE
 70
     5
  0
STYLE
  2
STANDARD
 70
     0
 40
0.0
 41
1.0
 50
0.0
 71
     0
 42
0.0
  3
txt
  4

  0
STYLE
  2
MONOTXT
 70
     0
 40
0.2
 41
1.0
 50
0.0
 71
     0
 42
0.2
  3
MONOTXT
  4

  0
STYLE
  2
txt
 70
     0
 40
0.2
 41
1.0
 50
0.0
 71
     0
 42
0.2
  3
TXT
  4

  0
STYLE
  2
ROMANT
 70
     0
 40
0.2
 41
1.0
 50
0.0
 71
     0
 42
0.2
  3
ROMANT
  4

  0
STYLE
  2
ROMANS
 70
     0
 40
0.2
 41
1.0
 50
0.0
 71
     0
 42
0.2
  3
ROMANS
  4

  0
ENDTAB
  0
TABLE
  2
VIEW
 70
     0
  0
ENDTAB
  0
TABLE
  2
UCS
 70
     0
  0
ENDTAB
  0
TABLE
  2
APPID
 70
     1
  0
APPID
  2
ACAD
 70
     0
  0
ENDTAB
  0
TABLE
  2
DIMSTYLE
 70
     1
  0
DIMSTYLE
  2
STANDARD
 70
     0
  3

  4

  5

  6

  7

 40
1.0
 41
0.18
 42
0.0625
 43
0.38
 44
0.18
 45
0.0
 46
0.0
 47
0.0
 48
0.0
140
0.18
141
0.09
142
0.0
143
25.4
144
1.0
145
0.0
146
1.0
147
0.09
 71
     0
 72
     0
 73
     1
 74
     1
 75
     0
 76
     0
 77
     0
 78
     0
170
     0
171
     2
172
     0
173
     0
174
     0
175
     0
176
     0
177
     0
178
     0
  0
ENDTAB
  0
ENDSEC
  0
SECTION
  2
BLOCKS
  0
BLOCK
  8
1
  6
CONTINUOUS
 62
   110
  5
426
  2
$X61
 70
     0
 10
0.0
 20
0.0
 30
0.0
  3
$N61
  0
POINT
  8
1
  6
CONTINUOUS
 62
   110
  5
427
 10
17.8125
 20
14.5
 30
0.0
  0
POINT
  8
1
  6
CONTINUOUS
 62
   110
  5
428
 10
17.875
 20
14.5
 30
0.0
  0
POINT
  8
1
  6
CONTINUOUS
 62
   110
  5
429
 10
17.9375
 20
14.5
 30
0.0
  0
POINT
  8
1
  6
CONTINUOUS
 62
   110
  5
42A
 10
18.0
 20
14.5
 30
0.0
  0
POINT
  8
1
  6
CONTINUOUS
 62
   110
  5
42B
 10
18.0625
 20
14.5
 30
0.0
  0
POINT
  8
1
  6
CONTINUOUS
 62
   110
  5
42C
 10
18.125
 20
14.5
 30
0.0
  0
POINT
  8
1
  6
CONTINUOUS
 62
   110
  5
42D
 10
18.1875
 20
14.5
 30
0.0
  0
POINT
  8
1
  6
CONTINUOUS
 62
   110
  5
42E
 10
18.25
 20
14.5
 30
0.0
  0
POINT
  8
1
  6
CONTINUOUS
 62
   110
  5
42F
 10
18.3125
 20
14.5
 30
0.0
  0
POINT
  8
1
  6
CONTINUOUS
 62
   110
  5
430
 10
18.375
 20
14.5
 30
0.0
  0
POINT
  8
1
  6
CONTINUOUS
 62
   110
  5
431
 10
18.4375
 20
14.5
 30
0.0
  0
POINT
  8
1
  6
CONTINUOUS
 62
   110
  5
432
 10
18.5
 20
14.5
 30
0.0
  0
POINT
  8
1
  6
CONTINUOUS
 62
   110
  5
433
 10
18.5625
 20
14.5
 30
0.0
  0
POINT
  8
1
  6
CONTINUOUS
 62
   110
  5
434
 10
18.625
 20
14.5
 30
0.0
  0
POINT
  8
1
  6
CONTINUOUS
 62
   110
  5
435
 10
18.6875
 20
14.5
 30
0.0
  0
POINT
  8
1
  6
CONTINUOUS
 62
   110
  5
436
 10
18.75
 20
14.5
 30
0.0
  0
POINT
  8
1
  6
CONTINUOUS
 62
   110
  5
437
 10
18.8125
 20
14.5
 30
0.0
  0
POINT
  8
1
  6
CONTINUOUS
 62
   110
  5
438
 10
18.875
 20
14.5
 30
0.0
  0
POINT
  8
1
  6
CONTINUOUS
 62
   110
  5
439
 10
18.9375
 20
14.5
 30
0.0
  0
POINT
  8
1
  6
CONTINUOUS
 62
   110
  5
43A
 10
19.0
 20
14.5
 30
0.0
  0
POINT
  8
1
  6
CONTINUOUS
 62
   110
  5
43B
 10
19.0625
 20
14.5
 30
0.0
  0
POINT
  8
1
  6
CONTINUOUS
 62
   110
  5
43C
 10
19.125
 20
14.5
 30
0.0
  0
POINT
  8
1
  6
CONTINUOUS
 62
   110
  5
43D
 10
19.1875
 20
14.5
 30
0.0
  0
POINT
  8
1
  6
CONTINUOUS
 62
   110
  5
43E
 10
19.25
 20
14.5
 30
0.0
  0
POINT
  8
1
  6
CONTINUOUS
 62
   110
  5
43F
 10
19.3125
 20
14.5
 30
0.0
  0
POINT
  8
1
  6
CONTINUOUS
 62
   110
  5
440
 10
19.375
 20
14.5
 30
0.0
  0
POINT
  8
1
  6
CONTINUOUS
 62
   110
  5
441
 10
19.4375
 20
14.5
 30
0.0
  0
POINT
  8
1
  6
CONTINUOUS
 62
   110
  5
442
 10
19.5
 20
14.5
 30
0.0
  0
POINT
  8
1
  6
CONTINUOUS
 62
   110
  5
443
 10
19.5625
 20
14.5
 30
0.0
  0
POINT
  8
1
  6
CONTINUOUS
 62
   110
  5
444
 10
19.625
 20
14.5
 30
0.0
  0
POINT
  8
1
  6
CONTINUOUS
 62
   110
  5
445
 10
19.6875
 20
14.5
 30
0.0
  0
POINT
  8
1
  6
CONTINUOUS
 62
   110
  5
446
 10
19.75
 20
14.5
 30
0.0
  0
POINT
  8
1
  6
CONTINUOUS
 62
   110
  5
447
 10
19.8125
 20
14.5
 30
0.0
  0
POINT
  8
1
  6
CONTINUOUS
 62
   110
  5
448
 10
19.875
 20
14.5
 30
0.0
  0
POINT
  8
1
  6
CONTINUOUS
 62
   110
  5
449
 10
19.9375
 20
14.5
 30
0.0
  0
POINT
  8
1
  6
CONTINUOUS
 62
   110
  5
44A
 10
20.0
 20
14.5
 30
0.0
  0
POINT
  8
1
  6
CONTINUOUS
 62
   110
  5
44B
 10
20.0625
 20
14.5
 30
0.0
  0
POINT
  8
1
  6
CONTINUOUS
 62
   110
  5
44C
 10
20.125
 20
14.5
 30
0.0
  0
POINT
  8
1
  6
CONTINUOUS
 62
   110
  5
44D
 10
20.1875
 20
14.5
 30
0.0
  0
POINT
  8
1
  6
CONTINUOUS
 62
   110
  5
44E
 10
20.25
 20
14.5
 30
0.0
  0
POINT
  8
1
  6
CONTINUOUS
 62
   110
  5
44F
 10
17.84375
 20
14.5625
 30
0.0
  0
POINT
  8
1
  6
CONTINUOUS
 62
   110
  5
450
 10
17.90625
 20
14.5625
 30
0.0
  0
POINT
  8
1
  6
CONTINUOUS
 62
   110
  5
451
 10
17.96875
 20
14.5625
 30
0.0
  0
POINT
  8
1
  6
CONTINUOUS
 62
   110
  5
452
 10
18.03125
 20
14.5625
 30
0.0
  0
POINT
  8
1
  6
CONTINUOUS
 62
   110
  5
453
 10
18.09375
 20
14.5625
 30
0.0
  0
POINT
  8
1
  6
CONTINUOUS
 62
   110
  5
454
 10
18.15625
 20
14.5625
 30
0.0
  0
POINT
  8
1
  6
CONTINUOUS
 62
   110
  5
455
 10
18.21875
 20
14.5625
 30
0.0
  0
POINT
  8
1
  6
CONTINUOUS
 62
   110
  5
456
 10
18.28125
 20
14.5625
 30
0.0
  0
POINT
  8
1
  6
CONTINUOUS
 62
   110
  5
457
 10
18.34375
 20
14.5625
 30
0.0
  0
POINT
  8
1
  6
CONTINUOUS
 62
   110
  5
458
 10
18.40625
 20
14.5625
 30
0.0
  0
POINT
  8
1
  6
CONTINUOUS
 62
   110
  5
459
 10
18.46875
 20
14.5625
 30
0.0
  0
POINT
  8
1
  6
CONTINUOUS
 62
   110
  5
45A
 10
18.53125
 20
14.5625
 30
0.0
  0
POINT
  8
1
  6
CONTINUOUS
 62
   110
  5
45B
 10
18.59375
 20
14.5625
 30
0.0
  0
POINT
  8
1
  6
CONTINUOUS
 62
   110
  5
45C
 10
18.65625
 20
14.5625
 30
0.0
  0
POINT
  8
1
  6
CONTINUOUS
 62
   110
  5
45D
 10
18.71875
 20
14.5625
 30
0.0
  0
POINT
  8
1
  6
CONTINUOUS
 62
   110
  5
45E
 10
18.78125
 20
14.5625
 30
0.0
  0
POINT
  8
1
  6
CONTINUOUS
 62
   110
  5
45F
 10
18.84375
 20
14.5625
 30
0.0
  0
POINT
  8
1
  6
CONTINUOUS
 62
   110
  5
460
 10
18.90625
 20
14.5625
 30
0.0
  0
POINT
  8
1
  6
CONTINUOUS
 62
   110
  5
461
 10
18.96875
 20
14.5625
 30
0.0
  0
POINT
  8
1
  6
CONTINUOUS
 62
   110
  5
462
 10
19.03125
 20
14.5625
 30
0.0
  0
POINT
  8
1
  6
CONTINUOUS
 62
   110
  5
463
 10
19.09375
 20
14.5625
 30
0.0
  0
POINT
  8
1
  6
CONTINUOUS
 62
   110
  5
464
 10
19.15625
 20
14.5625
 30
0.0
  0
POINT
  8
1
  6
CONTINUOUS
 62
   110
  5
465
 10
19.21875
 20
14.5625
 30
0.0
  0
POINT
  8
1
  6
CONTINUOUS
 62
   110
  5
466
 10
19.28125
 20
14.5625
 30
0.0
  0
POINT
  8
1
  6
CONTINUOUS
 62
   110
  5
467
 10
19.34375
 20
14.5625
 30
0.0
  0
POINT
  8
1
  6
CONTINUOUS
 62
   110
  5
468
 10
19.40625
 20
14.5625
 30
0.0
  0
POINT
  8
1
  6
CONTINUOUS
 62
   110
  5
469
 10
19.46875
 20
14.5625
 30
0.0
  0
POINT
  8
1
  6
CONTINUOUS
 62
   110
  5
46A
 10
19.53125
 20
14.5625
 30
0.0
  0
POINT
  8
1
  6
CONTINUOUS
 62
   110
  5
46B
 10
19.59375
 20
14.5625
 30
0.0
  0
POINT
  8
1
  6
CONTINUOUS
 62
   110
  5
46C
 10
19.65625
 20
14.5625
 30
0.0
  0
POINT
  8
1
  6
CONTINUOUS
 62
   110
  5
46D
 10
19.71875
 20
14.5625
 30
0.0
  0
POINT
  8
1
  6
CONTINUOUS
 62
   110
  5
46E
 10
19.78125
 20
14.5625
 30
0.0
  0
POINT
  8
1
  6
CONTINUOUS
 62
   110
  5
46F
 10
19.84375
 20
14.5625
 30
0.0
  0
POINT
  8
1
  6
CONTINUOUS
 62
   110
  5
470
 10
19.84375
 20
14.5625
 30
0.0
  0
POINT
  8
1
  6
CONTINUOUS
 62
   110
  5
471
 10
19.90625
 20
14.5625
 30
0.0
  0
POINT
  8
1
  6
CONTINUOUS
 62
   110
  5
472
 10
19.96875
 20
14.5625
 30
0.0
  0
POINT
  8
1
  6
CONTINUOUS
 62
   110
  5
473
 10
20.03125
 20
14.5625
 30
0.0
  0
POINT
  8
1
  6
CONTINUOUS
 62
   110
  5
474
 10
20.09375
 20
14.5625
 30
0.0
  0
POINT
  8
1
  6
CONTINUOUS
 62
   110
  5
475
 10
20.15625
 20
14.5625
 30
0.0
  0
POINT
  8
1
  6
CONTINUOUS
 62
   110
  5
476
 10
20.21875
 20
14.5625
 30
0.0
  0
POINT
  8
1
  6
CONTINUOUS
 62
   110
  5
477
 10
18.0625
 20
14.625
 30
0.0
  0
POINT
  8
1
  6
CONTINUOUS
 62
   110
  5
478
 10
18.125
 20
14.625
 30
0.0
  0
POINT
  8
1
  6
CONTINUOUS
 62
   110
  5
479
 10
18.1875
 20
14.625
 30
0.0
  0
POINT
  8
1
  6
CONTINUOUS
 62
   110
  5
47A
 10
18.25
 20
14.625
 30
0.0
  0
POINT
  8
1
  6
CONTINUOUS
 62
   110
  5
47B
 10
18.3125
 20
14.625
 30
0.0
  0
POINT
  8
1
  6
CONTINUOUS
 62
   110
  5
47C
 10
18.375
 20
14.625
 30
0.0
  0
POINT
  8
1
  6
CONTINUOUS
 62
   110
  5
47D
 10
18.4375
 20
14.625
 30
0.0
  0
POINT
  8
1
  6
CONTINUOUS
 62
   110
  5
47E
 10
18.5
 20
14.625
 30
0.0
  0
POINT
  8
1
  6
CONTINUOUS
 62
   110
  5
47F
 10
18.5625
 20
14.625
 30
0.0
  0
POINT
  8
1
  6
CONTINUOUS
 62
   110
  5
480
 10
18.625
 20
14.625
 30
0.0
  0
POINT
  8
1
  6
CONTINUOUS
 62
   110
  5
481
 10
18.6875
 20
14.625
 30
0.0
  0
POINT
  8
1
  6
CONTINUOUS
 62
   110
  5
482
 10
18.75
 20
14.625
 30
0.0
  0
POINT
  8
1
  6
CONTINUOUS
 62
   110
  5
483
 10
18.8125
 20
14.625
 30
0.0
  0
POINT
  8
1
  6
CONTINUOUS
 62
   110
  5
484
 10
18.875
 20
14.625
 30
0.0
  0
POINT
  8
1
  6
CONTINUOUS
 62
   110
  5
485
 10
18.9375
 20
14.625
 30
0.0
  0
POINT
  8
1
  6
CONTINUOUS
 62
   110
  5
486
 10
19.0
 20
14.625
 30
0.0
  0
POINT
  8
1
  6
CONTINUOUS
 62
   110
  5
487
 10
19.0625
 20
14.625
 30
0.0
  0
POINT
  8
1
  6
CONTINUOUS
 62
   110
  5
488
 10
19.125
 20
14.625
 30
0.0
  0
POINT
  8
1
  6
CONTINUOUS
 62
   110
  5
489
 10
19.1875
 20
14.625
 30
0.0
  0
POINT
  8
1
  6
CONTINUOUS
 62
   110
  5
48A
 10
19.25
 20
14.625
 30
0.0
  0
POINT
  8
1
  6
CONTINUOUS
 62
   110
  5
48B
 10
19.3125
 20
14.625
 30
0.0
  0
POINT
  8
1
  6
CONTINUOUS
 62
   110
  5
48C
 10
19.375
 20
14.625
 30
0.0
  0
POINT
  8
1
  6
CONTINUOUS
 62
   110
  5
48D
 10
19.4375
 20
14.625
 30
0.0
  0
POINT
  8
1
  6
CONTINUOUS
 62
   110
  5
48E
 10
19.5
 20
14.625
 30
0.0
  0
POINT
  8
1
  6
CONTINUOUS
 62
   110
  5
48F
 10
19.5625
 20
14.625
 30
0.0
  0
POINT
  8
1
  6
CONTINUOUS
 62
   110
  5
490
 10
19.625
 20
14.625
 30
0.0
  0
POINT
  8
1
  6
CONTINUOUS
 62
   110
  5
491
 10
19.6875
 20
14.625
 30
0.0
  0
POINT
  8
1
  6
CONTINUOUS
 62
   110
  5
492
 10
19.75
 20
14.625
 30
0.0
  0
POINT
  8
1
  6
CONTINUOUS
 62
   110
  5
493
 10
19.8125
 20
14.625
 30
0.0
  0
POINT
  8
1
  6
CONTINUOUS
 62
   110
  5
494
 10
19.875
 20
14.625
 30
0.0
  0
POINT
  8
1
  6
CONTINUOUS
 62
   110
  5
495
 10
19.9375
 20
14.625
 30
0.0
  0
POINT
  8
1
  6
CONTINUOUS
 62
   110
  5
496
 10
20.0
 20
14.625
 30
0.0
  0
POINT
  8
1
  6
CONTINUOUS
 62
   110
  5
497
 10
18.40625
 20
14.6875
 30
0.0
  0
POINT
  8
1
  6
CONTINUOUS
 62
   110
  5
498
 10
18.46875
 20
14.6875
 30
0.0
  0
POINT
  8
1
  6
CONTINUOUS
 62
   110
  5
499
 10
18.53125
 20
14.6875
 30
0.0
  0
POINT
  8
1
  6
CONTINUOUS
 62
   110
  5
49A
 10
18.59375
 20
14.6875
 30
0.0
  0
POINT
  8
1
  6
CONTINUOUS
 62
   110
  5
49B
 10
18.65625
 20
14.6875
 30
0.0
  0
POINT
  8
1
  6
CONTINUOUS
 62
   110
  5
49C
 10
18.71875
 20
14.6875
 30
0.0
  0
POINT
  8
1
  6
CONTINUOUS
 62
   110
  5
49D
 10
18.78125
 20
14.6875
 30
0.0
  0
POINT
  8
1
  6
CONTINUOUS
 62
   110
  5
49E
 10
18.84375
 20
14.6875
 30
0.0
  0
POINT
  8
1
  6
CONTINUOUS
 62
   110
  5
49F
 10
18.90625
 20
14.6875
 30
0.0
  0
POINT
  8
1
  6
CONTINUOUS
 62
   110
  5
4A0
 10
18.96875
 20
14.6875
 30
0.0
  0
POINT
  8
1
  6
CONTINUOUS
 62
   110
  5
4A1
 10
19.03125
 20
14.6875
 30
0.0
  0
POINT
  8
1
  6
CONTINUOUS
 62
   110
  5
4A2
 10
19.09375
 20
14.6875
 30
0.0
  0
POINT
  8
1
  6
CONTINUOUS
 62
   110
  5
4A3
 10
19.15625
 20
14.6875
 30
0.0
  0
POINT
  8
1
  6
CONTINUOUS
 62
   110
  5
4A4
 10
19.21875
 20
14.6875
 30
0.0
  0
POINT
  8
1
  6
CONTINUOUS
 62
   110
  5
4A5
 10
19.28125
 20
14.6875
 30
0.0
  0
POINT
  8
1
  6
CONTINUOUS
 62
   110
  5
4A6
 10
19.34375
 20
14.6875
 30
0.0
  0
POINT
  8
1
  6
CONTINUOUS
 62
   110
  5
4A7
 10
19.40625
 20
14.6875
 30
0.0
  0
POINT
  8
1
  6
CONTINUOUS
 62
   110
  5
4A8
 10
19.46875
 20
14.6875
 30
0.0
  0
POINT
  8
1
  6
CONTINUOUS
 62
   110
  5
4A9
 10
19.53125
 20
14.6875
 30
0.0
  0
POINT
  8
1
  6
CONTINUOUS
 62
   110
  5
4AA
 10
19.59375
 20
14.6875
 30
0.0
  0
POINT
  8
1
  6
CONTINUOUS
 62
   110
  5
4AB
 10
19.65625
 20
14.6875
 30
0.0
  0
POINT
  8
1
  6
CONTINUOUS
 62
   110
  5
4AC
 10
18.6875
 20
14.75
 30
0.0
  0
POINT
  8
1
  6
CONTINUOUS
 62
   110
  5
4AD
 10
18.75
 20
14.75
 30
0.0
  0
POINT
  8
1
  6
CONTINUOUS
 62
   110
  5
4AE
 10
18.8125
 20
14.75
 30
0.0
  0
POINT
  8
1
  6
CONTINUOUS
 62
   110
  5
4AF
 10
18.875
 20
14.75
 30
0.0
  0
POINT
  8
1
  6
CONTINUOUS
 62
   110
  5
4B0
 10
18.9375
 20
14.75
 30
0.0
  0
POINT
  8
1
  6
CONTINUOUS
 62
   110
  5
4B1
 10
19.0
 20
14.75
 30
0.0
  0
POINT
  8
1
  6
CONTINUOUS
 62
   110
  5
4B2
 10
19.0625
 20
14.75
 30
0.0
  0
POINT
  8
1
  6
CONTINUOUS
 62
   110
  5
4B3
 10
19.125
 20
14.75
 30
0.0
  0
POINT
  8
1
  6
CONTINUOUS
 62
   110
  5
4B4
 10
19.1875
 20
14.75
 30
0.0
  0
POINT
  8
1
  6
CONTINUOUS
 62
   110
  5
4B5
 10
19.25
 20
14.75
 30
0.0
  0
POINT
  8
1
  6
CONTINUOUS
 62
   110
  5
4B6
 10
19.3125
 20
14.75
 30
0.0
  0
POINT
  8
1
  6
CONTINUOUS
 62
   110
  5
4B7
 10
19.375
 20
14.75
 30
0.0
  0
POINT
  8
1
  6
CONTINUOUS
 62
   110
  5
4B8
 10
18.71875
 20
14.8125
 30
0.0
  0
POINT
  8
1
  6
CONTINUOUS
 62
   110
  5
4B9
 10
18.71875
 20
14.8125
 30
0.0
  0
POINT
  8
1
  6
CONTINUOUS
 62
   110
  5
4BA
 10
18.78125
 20
14.8125
 30
0.0
  0
POINT
  8
1
  6
CONTINUOUS
 62
   110
  5
4BB
 10
18.84375
 20
14.8125
 30
0.0
  0
POINT
  8
1
  6
CONTINUOUS
 62
   110
  5
4BC
 10
18.90625
 20
14.8125
 30
0.0
  0
POINT
  8
1
  6
CONTINUOUS
 62
   110
  5
4BD
 10
18.96875
 20
14.8125
 30
0.0
  0
POINT
  8
1
  6
CONTINUOUS
 62
   110
  5
4BE
 10
19.03125
 20
14.8125
 30
0.0
  0
POINT
  8
1
  6
CONTINUOUS
 62
   110
  5
4BF
 10
19.09375
 20
14.8125
 30
0.0
  0
POINT
  8
1
  6
CONTINUOUS
 62
   110
  5
4C0
 10
19.15625
 20
14.8125
 30
0.0
  0
POINT
  8
1
  6
CONTINUOUS
 62
   110
  5
4C1
 10
19.21875
 20
14.8125
 30
0.0
  0
POINT
  8
1
  6
CONTINUOUS
 62
   110
  5
4C2
 10
19.28125
 20
14.8125
 30
0.0
  0
POINT
  8
1
  6
CONTINUOUS
 62
   110
  5
4C3
 10
18.8125
 20
14.875
 30
0.0
  0
POINT
  8
1
  6
CONTINUOUS
 62
   110
  5
4C4
 10
18.875
 20
14.875
 30
0.0
  0
POINT
  8
1
  6
CONTINUOUS
 62
   110
  5
4C5
 10
18.9375
 20
14.875
 30
0.0
  0
POINT
  8
1
  6
CONTINUOUS
 62
   110
  5
4C6
 10
19.0
 20
14.875
 30
0.0
  0
POINT
  8
1
  6
CONTINUOUS
 62
   110
  5
4C7
 10
19.0625
 20
14.875
 30
0.0
  0
POINT
  8
1
  6
CONTINUOUS
 62
   110
  5
4C8
 10
19.125
 20
14.875
 30
0.0
  0
POINT
  8
1
  6
CONTINUOUS
 62
   110
  5
4C9
 10
19.1875
 20
14.875
 30
0.0
  0
POINT
  8
1
  6
CONTINUOUS
 62
   110
  5
4CA
 10
19.25
 20
14.875
 30
0.0
  0
POINT
  8
1
  6
CONTINUOUS
 62
   110
  5
4CB
 10
18.84375
 20
14.9375
 30
0.0
  0
POINT
  8
1
  6
CONTINUOUS
 62
   110
  5
4CC
 10
18.90625
 20
14.9375
 30
0.0
  0
POINT
  8
1
  6
CONTINUOUS
 62
   110
  5
4CD
 10
18.96875
 20
14.9375
 30
0.0
  0
POINT
  8
1
  6
CONTINUOUS
 62
   110
  5
4CE
 10
19.03125
 20
14.9375
 30
0.0
  0
POINT
  8
1
  6
CONTINUOUS
 62
   110
  5
4CF
 10
19.09375
 20
14.9375
 30
0.0
  0
POINT
  8
1
  6
CONTINUOUS
 62
   110
  5
4D0
 10
19.15625
 20
14.9375
 30
0.0
  0
POINT
  8
1
  6
CONTINUOUS
 62
   110
  5
4D1
 10
19.21875
 20
14.9375
 30
0.0
  0
POINT
  8
1
  6
CONTINUOUS
 62
   110
  5
4D2
 10
18.8125
 20
15.0
 30
0.0
  0
POINT
  8
1
  6
CONTINUOUS
 62
   110
  5
4D3
 10
18.875
 20
15.0
 30
0.0
  0
POINT
  8
1
  6
CONTINUOUS
 62
   110
  5
4D4
 10
18.9375
 20
15.0
 30
0.0
  0
POINT
  8
1
  6
CONTINUOUS
 62
   110
  5
4D5
 10
19.0
 20
15.0
 30
0.0
  0
POINT
  8
1
  6
CONTINUOUS
 62
   110
  5
4D6
 10
19.0625
 20
15.0
 30
0.0
  0
POINT
  8
1
  6
CONTINUOUS
 62
   110
  5
4D7
 10
19.125
 20
15.0
 30
0.0
  0
POINT
  8
1
  6
CONTINUOUS
 62
   110
  5
4D8
 10
19.1875
 20
15.0
 30
0.0
  0
POINT
  8
1
  6
CONTINUOUS
 62
   110
  5
4D9
 10
18.84375
 20
15.0625
 30
0.0
  0
POINT
  8
1
  6
CONTINUOUS
 62
   110
  5
4DA
 10
18.90625
 20
15.0625
 30
0.0
  0
POINT
  8
1
  6
CONTINUOUS
 62
   110
  5
4DB
 10
18.96875
 20
15.0625
 30
0.0
  0
POINT
  8
1
  6
CONTINUOUS
 62
   110
  5
4DC
 10
19.03125
 20
15.0625
 30
0.0
  0
POINT
  8
1
  6
CONTINUOUS
 62
   110
  5
4DD
 10
19.09375
 20
15.0625
 30
0.0
  0
POINT
  8
1
  6
CONTINUOUS
 62
   110
  5
4DE
 10
19.15625
 20
15.0625
 30
0.0
  0
POINT
  8
1
  6
CONTINUOUS
 62
   110
  5
4DF
 10
19.21875
 20
15.0625
 30
0.0
  0
POINT
  8
1
  6
CONTINUOUS
 62
   110
  5
4E0
 10
18.875
 20
15.125
 30
0.0
  0
POINT
  8
1
  6
CONTINUOUS
 62
   110
  5
4E1
 10
18.9375
 20
15.125
 30
0.0
  0
POINT
  8
1
  6
CONTINUOUS
 62
   110
  5
4E2
 10
19.0
 20
15.125
 30
0.0
  0
POINT
  8
1
  6
CONTINUOUS
 62
   110
  5
4E3
 10
19.0625
 20
15.125
 30
0.0
  0
POINT
  8
1
  6
CONTINUOUS
 62
   110
  5
4E4
 10
19.125
 20
15.125
 30
0.0
  0
POINT
  8
1
  6
CONTINUOUS
 62
   110
  5
4E5
 10
19.1875
 20
15.125
 30
0.0
  0
POINT
  8
1
  6
CONTINUOUS
 62
   110
  5
4E6
 10
18.84375
 20
15.1875
 30
0.0
  0
POINT
  8
1
  6
CONTINUOUS
 62
   110
  5
4E7
 10
18.90625
 20
15.1875
 30
0.0
  0
POINT
  8
1
  6
CONTINUOUS
 62
   110
  5
4E8
 10
18.96875
 20
15.1875
 30
0.0
  0
POINT
  8
1
  6
CONTINUOUS
 62
   110
  5
4E9
 10
19.03125
 20
15.1875
 30
0.0
  0
POINT
  8
1
  6
CONTINUOUS
 62
   110
  5
4EA
 10
19.09375
 20
15.1875
 30
0.0
  0
POINT
  8
1
  6
CONTINUOUS
 62
   110
  5
4EB
 10
19.15625
 20
15.1875
 30
0.0
  0
POINT
  8
1
  6
CONTINUOUS
 62
   110
  5
4EC
 10
18.875
 20
15.25
 30
0.0
  0
POINT
  8
1
  6
CONTINUOUS
 62
   110
  5
4ED
 10
18.9375
 20
15.25
 30
0.0
  0
POINT
  8
1
  6
CONTINUOUS
 62
   110
  5
4EE
 10
19.0
 20
15.25
 30
0.0
  0
POINT
  8
1
  6
CONTINUOUS
 62
   110
  5
4EF
 10
19.0625
 20
15.25
 30
0.0
  0
POINT
  8
1
  6
CONTINUOUS
 62
   110
  5
4F0
 10
19.125
 20
15.25
 30
0.0
  0
POINT
  8
1
  6
CONTINUOUS
 62
   110
  5
4F1
 10
19.1875
 20
15.25
 30
0.0
  0
POINT
  8
1
  6
CONTINUOUS
 62
   110
  5
4F2
 10
18.90625
 20
15.3125
 30
0.0
  0
POINT
  8
1
  6
CONTINUOUS
 62
   110
  5
4F3
 10
18.96875
 20
15.3125
 30
0.0
  0
POINT
  8
1
  6
CONTINUOUS
 62
   110
  5
4F4
 10
19.03125
 20
15.3125
 30
0.0
  0
POINT
  8
1
  6
CONTINUOUS
 62
   110
  5
4F5
 10
19.09375
 20
15.3125
 30
0.0
  0
POINT
  8
1
  6
CONTINUOUS
 62
   110
  5
4F6
 10
19.15625
 20
15.3125
 30
0.0
  0
POINT
  8
1
  6
CONTINUOUS
 62
   110
  5
4F7
 10
18.875
 20
15.375
 30
0.0
  0
POINT
  8
1
  6
CONTINUOUS
 62
   110
  5
4F8
 10
18.9375
 20
15.375
 30
0.0
  0
POINT
  8
1
  6
CONTINUOUS
 62
   110
  5
4F9
 10
19.0
 20
15.375
 30
0.0
  0
POINT
  8
1
  6
CONTINUOUS
 62
   110
  5
4FA
 10
19.0625
 20
15.375
 30
0.0
  0
POINT
  8
1
  6
CONTINUOUS
 62
   110
  5
4FB
 10
19.125
 20
15.375
 30
0.0
  0
POINT
  8
1
  6
CONTINUOUS
 62
   110
  5
4FC
 10
18.90625
 20
15.4375
 30
0.0
  0
POINT
  8
1
  6
CONTINUOUS
 62
   110
  5
4FD
 10
18.96875
 20
15.4375
 30
0.0
  0
POINT
  8
1
  6
CONTINUOUS
 62
   110
  5
4FE
 10
19.03125
 20
15.4375
 30
0.0
  0
POINT
  8
1
  6
CONTINUOUS
 62
   110
  5
4FF
 10
19.09375
 20
15.4375
 30
0.0
  0
POINT
  8
1
  6
CONTINUOUS
 62
   110
  5
500
 10
19.15625
 20
15.4375
 30
0.0
  0
POINT
  8
1
  6
CONTINUOUS
 62
   110
  5
501
 10
18.9375
 20
15.5
 30
0.0
  0
POINT
  8
1
  6
CONTINUOUS
 62
   110
  5
502
 10
18.9375
 20
15.5
 30
0.0
  0
POINT
  8
1
  6
CONTINUOUS
 62
   110
  5
503
 10
19.0
 20
15.5
 30
0.0
  0
POINT
  8
1
  6
CONTINUOUS
 62
   110
  5
504
 10
19.0625
 20
15.5
 30
0.0
  0
POINT
  8
1
  6
CONTINUOUS
 62
   110
  5
505
 10
19.125
 20
15.5
 30
0.0
  0
POINT
  8
1
  6
CONTINUOUS
 62
   110
  5
506
 10
18.90625
 20
15.5625
 30
0.0
  0
POINT
  8
1
  6
CONTINUOUS
 62
   110
  5
507
 10
18.96875
 20
15.5625
 30
0.0
  0
POINT
  8
1
  6
CONTINUOUS
 62
   110
  5
508
 10
19.03125
 20
15.5625
 30
0.0
  0
POINT
  8
1
  6
CONTINUOUS
 62
   110
  5
509
 10
19.09375
 20
15.5625
 30
0.0
  0
POINT
  8
1
  6
CONTINUOUS
 62
   110
  5
50A
 10
18.9375
 20
15.625
 30
0.0
  0
POINT
  8
1
  6
CONTINUOUS
 62
   110
  5
50B
 10
19.0
 20
15.625
 30
0.0
  0
POINT
  8
1
  6
CONTINUOUS
 62
   110
  5
50C
 10
19.0625
 20
15.625
 30
0.0
  0
POINT
  8
1
  6
CONTINUOUS
 62
   110
  5
50D
 10
19.125
 20
15.625
 30
0.0
  0
POINT
  8
1
  6
CONTINUOUS
 62
   110
  5
50E
 10
18.96875
 20
15.6875
 30
0.0
  0
POINT
  8
1
  6
CONTINUOUS
 62
   110
  5
50F
 10
19.03125
 20
15.6875
 30
0.0
  0
POINT
  8
1
  6
CONTINUOUS
 62
   110
  5
510
 10
19.09375
 20
15.6875
 30
0.0
  0
POINT
  8
1
  6
CONTINUOUS
 62
   110
  5
511
 10
18.9375
 20
15.75
 30
0.0
  0
POINT
  8
1
  6
CONTINUOUS
 62
   110
  5
512
 10
19.0
 20
15.75
 30
0.0
  0
POINT
  8
1
  6
CONTINUOUS
 62
   110
  5
513
 10
19.0625
 20
15.75
 30
0.0
  0
POINT
  8
1
  6
CONTINUOUS
 62
   110
  5
514
 10
17.84375
 20
14.4375
 30
0.0
  0
POINT
  8
1
  6
CONTINUOUS
 62
   110
  5
515
 10
17.90625
 20
14.4375
 30
0.0
  0
POINT
  8
1
  6
CONTINUOUS
 62
   110
  5
516
 10
17.96875
 20
14.4375
 30
0.0
  0
POINT
  8
1
  6
CONTINUOUS
 62
   110
  5
517
 10
18.03125
 20
14.4375
 30
0.0
  0
POINT
  8
1
  6
CONTINUOUS
 62
   110
  5
518
 10
18.09375
 20
14.4375
 30
0.0
  0
POINT
  8
1
  6
CONTINUOUS
 62
   110
  5
519
 10
18.15625
 20
14.4375
 30
0.0
  0
POINT
  8
1
  6
CONTINUOUS
 62
   110
  5
51A
 10
18.21875
 20
14.4375
 30
0.0
  0
POINT
  8
1
  6
CONTINUOUS
 62
   110
  5
51B
 10
18.28125
 20
14.4375
 30
0.0
  0
POINT
  8
1
  6
CONTINUOUS
 62
   110
  5
51C
 10
18.34375
 20
14.4375
 30
0.0
  0
POINT
  8
1
  6
CONTINUOUS
 62
   110
  5
51D
 10
18.40625
 20
14.4375
 30
0.0
  0
POINT
  8
1
  6
CONTINUOUS
 62
   110
  5
51E
 10
18.46875
 20
14.4375
 30
0.0
  0
POINT
  8
1
  6
CONTINUOUS
 62
   110
  5
51F
 10
18.53125
 20
14.4375
 30
0.0
  0
POINT
  8
1
  6
CONTINUOUS
 62
   110
  5
520
 10
18.59375
 20
14.4375
 30
0.0
  0
POINT
  8
1
  6
CONTINUOUS
 62
   110
  5
521
 10
18.65625
 20
14.4375
 30
0.0
  0
POINT
  8
1
  6
CONTINUOUS
 62
   110
  5
522
 10
18.71875
 20
14.4375
 30
0.0
  0
POINT
  8
1
  6
CONTINUOUS
 62
   110
  5
523
 10
18.78125
 20
14.4375
 30
0.0
  0
POINT
  8
1
  6
CONTINUOUS
 62
   110
  5
524
 10
18.84375
 20
14.4375
 30
0.0
  0
POINT
  8
1
  6
CONTINUOUS
 62
   110
  5
525
 10
18.90625
 20
14.4375
 30
0.0
  0
POINT
  8
1
  6
CONTINUOUS
 62
   110
  5
526
 10
18.96875
 20
14.4375
 30
0.0
  0
POINT
  8
1
  6
CONTINUOUS
 62
   110
  5
527
 10
19.03125
 20
14.4375
 30
0.0
  0
POINT
  8
1
  6
CONTINUOUS
 62
   110
  5
528
 10
19.09375
 20
14.4375
 30
0.0
  0
POINT
  8
1
  6
CONTINUOUS
 62
   110
  5
529
 10
19.15625
 20
14.4375
 30
0.0
  0
POINT
  8
1
  6
CONTINUOUS
 62
   110
  5
52A
 10
19.21875
 20
14.4375
 30
0.0
  0
POINT
  8
1
  6
CONTINUOUS
 62
   110
  5
52B
 10
19.28125
 20
14.4375
 30
0.0
  0
POINT
  8
1
  6
CONTINUOUS
 62
   110
  5
52C
 10
19.34375
 20
14.4375
 30
0.0
  0
POINT
  8
1
  6
CONTINUOUS
 62
   110
  5
52D
 10
19.40625
 20
14.4375
 30
0.0
  0
POINT
  8
1
  6
CONTINUOUS
 62
   110
  5
52E
 10
19.46875
 20
14.4375
 30
0.0
  0
POINT
  8
1
  6
CONTINUOUS
 62
   110
  5
52F
 10
19.53125
 20
14.4375
 30
0.0
  0
POINT
  8
1
  6
CONTINUOUS
 62
   110
  5
530
 10
19.59375
 20
14.4375
 30
0.0
  0
POINT
  8
1
  6
CONTINUOUS
 62
   110
  5
531
 10
19.65625
 20
14.4375
 30
0.0
  0
POINT
  8
1
  6
CONTINUOUS
 62
   110
  5
532
 10
19.71875
 20
14.4375
 30
0.0
  0
POINT
  8
1
  6
CONTINUOUS
 62
   110
  5
533
 10
19.78125
 20
14.4375
 30
0.0
  0
POINT
  8
1
  6
CONTINUOUS
 62
   110
  5
534
 10
19.84375
 20
14.4375
 30
0.0
  0
POINT
  8
1
  6
CONTINUOUS
 62
   110
  5
535
 10
19.90625
 20
14.4375
 30
0.0
  0
POINT
  8
1
  6
CONTINUOUS
 62
   110
  5
536
 10
19.96875
 20
14.4375
 30
0.0
  0
POINT
  8
1
  6
CONTINUOUS
 62
   110
  5
537
 10
20.03125
 20
14.4375
 30
0.0
  0
POINT
  8
1
  6
CONTINUOUS
 62
   110
  5
538
 10
20.09375
 20
14.4375
 30
0.0
  0
POINT
  8
1
  6
CONTINUOUS
 62
   110
  5
539
 10
20.15625
 20
14.4375
 30
0.0
  0
POINT
  8
1
  6
CONTINUOUS
 62
   110
  5
53A
 10
20.21875
 20
14.4375
 30
0.0
  0
POINT
  8
1
  6
CONTINUOUS
 62
   110
  5
53B
 10
18.0625
 20
14.375
 30
0.0
  0
POINT
  8
1
  6
CONTINUOUS
 62
   110
  5
53C
 10
18.125
 20
14.375
 30
0.0
  0
POINT
  8
1
  6
CONTINUOUS
 62
   110
  5
53D
 10
18.1875
 20
14.375
 30
0.0
  0
POINT
  8
1
  6
CONTINUOUS
 62
   110
  5
53E
 10
18.25
 20
14.375
 30
0.0
  0
POINT
  8
1
  6
CONTINUOUS
 62
   110
  5
53F
 10
18.3125
 20
14.375
 30
0.0
  0
POINT
  8
1
  6
CONTINUOUS
 62
   110
  5
540
 10
18.375
 20
14.375
 30
0.0
  0
POINT
  8
1
  6
CONTINUOUS
 62
   110
  5
541
 10
18.4375
 20
14.375
 30
0.0
  0
POINT
  8
1
  6
CONTINUOUS
 62
   110
  5
542
 10
18.5
 20
14.375
 30
0.0
  0
POINT
  8
1
  6
CONTINUOUS
 62
   110
  5
543
 10
18.5625
 20
14.375
 30
0.0
  0
POINT
  8
1
  6
CONTINUOUS
 62
   110
  5
544
 10
18.625
 20
14.375
 30
0.0
  0
POINT
  8
1
  6
CONTINUOUS
 62
   110
  5
545
 10
18.6875
 20
14.375
 30
0.0
  0
POINT
  8
1
  6
CONTINUOUS
 62
   110
  5
546
 10
18.75
 20
14.375
 30
0.0
  0
POINT
  8
1
  6
CONTINUOUS
 62
   110
  5
547
 10
18.8125
 20
14.375
 30
0.0
  0
POINT
  8
1
  6
CONTINUOUS
 62
   110
  5
548
 10
18.875
 20
14.375
 30
0.0
  0
POINT
  8
1
  6
CONTINUOUS
 62
   110
  5
549
 10
18.9375
 20
14.375
 30
0.0
  0
POINT
  8
1
  6
CONTINUOUS
 62
   110
  5
54A
 10
19.0
 20
14.375
 30
0.0
  0
POINT
  8
1
  6
CONTINUOUS
 62
   110
  5
54B
 10
19.0
 20
14.375
 30
0.0
  0
POINT
  8
1
  6
CONTINUOUS
 62
   110
  5
54C
 10
19.0625
 20
14.375
 30
0.0
  0
POINT
  8
1
  6
CONTINUOUS
 62
   110
  5
54D
 10
19.125
 20
14.375
 30
0.0
  0
POINT
  8
1
  6
CONTINUOUS
 62
   110
  5
54E
 10
19.1875
 20
14.375
 30
0.0
  0
POINT
  8
1
  6
CONTINUOUS
 62
   110
  5
54F
 10
19.25
 20
14.375
 30
0.0
  0
POINT
  8
1
  6
CONTINUOUS
 62
   110
  5
550
 10
19.3125
 20
14.375
 30
0.0
  0
POINT
  8
1
  6
CONTINUOUS
 62
   110
  5
551
 10
19.375
 20
14.375
 30
0.0
  0
POINT
  8
1
  6
CONTINUOUS
 62
   110
  5
552
 10
19.4375
 20
14.375
 30
0.0
  0
POINT
  8
1
  6
CONTINUOUS
 62
   110
  5
553
 10
19.5
 20
14.375
 30
0.0
  0
POINT
  8
1
  6
CONTINUOUS
 62
   110
  5
554
 10
19.5625
 20
14.375
 30
0.0
  0
POINT
  8
1
  6
CONTINUOUS
 62
   110
  5
555
 10
19.625
 20
14.375
 30
0.0
  0
POINT
  8
1
  6
CONTINUOUS
 62
   110
  5
556
 10
19.6875
 20
14.375
 30
0.0
  0
POINT
  8
1
  6
CONTINUOUS
 62
   110
  5
557
 10
19.75
 20
14.375
 30
0.0
  0
POINT
  8
1
  6
CONTINUOUS
 62
   110
  5
558
 10
19.8125
 20
14.375
 30
0.0
  0
POINT
  8
1
  6
CONTINUOUS
 62
   110
  5
559
 10
19.875
 20
14.375
 30
0.0
  0
POINT
  8
1
  6
CONTINUOUS
 62
   110
  5
55A
 10
19.9375
 20
14.375
 30
0.0
  0
POINT
  8
1
  6
CONTINUOUS
 62
   110
  5
55B
 10
20.0
 20
14.375
 30
0.0
  0
POINT
  8
1
  6
CONTINUOUS
 62
   110
  5
55C
 10
18.46875
 20
14.3125
 30
0.0
  0
POINT
  8
1
  6
CONTINUOUS
 62
   110
  5
55D
 10
18.53125
 20
14.3125
 30
0.0
  0
POINT
  8
1
  6
CONTINUOUS
 62
   110
  5
55E
 10
18.59375
 20
14.3125
 30
0.0
  0
POINT
  8
1
  6
CONTINUOUS
 62
   110
  5
55F
 10
18.65625
 20
14.3125
 30
0.0
  0
POINT
  8
1
  6
CONTINUOUS
 62
   110
  5
560
 10
18.71875
 20
14.3125
 30
0.0
  0
POINT
  8
1
  6
CONTINUOUS
 62
   110
  5
561
 10
18.78125
 20
14.3125
 30
0.0
  0
POINT
  8
1
  6
CONTINUOUS
 62
   110
  5
562
 10
18.84375
 20
14.3125
 30
0.0
  0
POINT
  8
1
  6
CONTINUOUS
 62
   110
  5
563
 10
18.90625
 20
14.3125
 30
0.0
  0
POINT
  8
1
  6
CONTINUOUS
 62
   110
  5
564
 10
18.96875
 20
14.3125
 30
0.0
  0
POINT
  8
1
  6
CONTINUOUS
 62
   110
  5
565
 10
19.03125
 20
14.3125
 30
0.0
  0
POINT
  8
1
  6
CONTINUOUS
 62
   110
  5
566
 10
19.09375
 20
14.3125
 30
0.0
  0
POINT
  8
1
  6
CONTINUOUS
 62
   110
  5
567
 10
19.15625
 20
14.3125
 30
0.0
  0
POINT
  8
1
  6
CONTINUOUS
 62
   110
  5
568
 10
19.21875
 20
14.3125
 30
0.0
  0
POINT
  8
1
  6
CONTINUOUS
 62
   110
  5
569
 10
19.28125
 20
14.3125
 30
0.0
  0
POINT
  8
1
  6
CONTINUOUS
 62
   110
  5
56A
 10
19.34375
 20
14.3125
 30
0.0
  0
POINT
  8
1
  6
CONTINUOUS
 62
   110
  5
56B
 10
19.40625
 20
14.3125
 30
0.0
  0
POINT
  8
1
  6
CONTINUOUS
 62
   110
  5
56C
 10
19.46875
 20
14.3125
 30
0.0
  0
POINT
  8
1
  6
CONTINUOUS
 62
   110
  5
56D
 10
19.53125
 20
14.3125
 30
0.0
  0
POINT
  8
1
  6
CONTINUOUS
 62
   110
  5
56E
 10
19.59375
 20
14.3125
 30
0.0
  0
POINT
  8
1
  6
CONTINUOUS
 62
   110
  5
56F
 10
18.6875
 20
14.25
 30
0.0
  0
POINT
  8
1
  6
CONTINUOUS
 62
   110
  5
570
 10
18.75
 20
14.25
 30
0.0
  0
POINT
  8
1
  6
CONTINUOUS
 62
   110
  5
571
 10
18.8125
 20
14.25
 30
0.0
  0
POINT
  8
1
  6
CONTINUOUS
 62
   110
  5
572
 10
18.875
 20
14.25
 30
0.0
  0
POINT
  8
1
  6
CONTINUOUS
 62
   110
  5
573
 10
18.9375
 20
14.25
 30
0.0
  0
POINT
  8
1
  6
CONTINUOUS
 62
   110
  5
574
 10
19.0
 20
14.25
 30
0.0
  0
POINT
  8
1
  6
CONTINUOUS
 62
   110
  5
575
 10
19.0625
 20
14.25
 30
0.0
  0
POINT
  8
1
  6
CONTINUOUS
 62
   110
  5
576
 10
19.125
 20
14.25
 30
0.0
  0
POINT
  8
1
  6
CONTINUOUS
 62
   110
  5
577
 10
19.1875
 20
14.25
 30
0.0
  0
POINT
  8
1
  6
CONTINUOUS
 62
   110
  5
578
 10
19.25
 20
14.25
 30
0.0
  0
POINT
  8
1
  6
CONTINUOUS
 62
   110
  5
579
 10
19.3125
 20
14.25
 30
0.0
  0
POINT
  8
1
  6
CONTINUOUS
 62
   110
  5
57A
 10
18.78125
 20
14.1875
 30
0.0
  0
POINT
  8
1
  6
CONTINUOUS
 62
   110
  5
57B
 10
18.84375
 20
14.1875
 30
0.0
  0
POINT
  8
1
  6
CONTINUOUS
 62
   110
  5
57C
 10
18.90625
 20
14.1875
 30
0.0
  0
POINT
  8
1
  6
CONTINUOUS
 62
   110
  5
57D
 10
18.96875
 20
14.1875
 30
0.0
  0
POINT
  8
1
  6
CONTINUOUS
 62
   110
  5
57E
 10
19.03125
 20
14.1875
 30
0.0
  0
POINT
  8
1
  6
CONTINUOUS
 62
   110
  5
57F
 10
19.09375
 20
14.1875
 30
0.0
  0
POINT
  8
1
  6
CONTINUOUS
 62
   110
  5
580
 10
19.15625
 20
14.1875
 30
0.0
  0
POINT
  8
1
  6
CONTINUOUS
 62
   110
  5
581
 10
19.21875
 20
14.1875
 30
0.0
  0
POINT
  8
1
  6
CONTINUOUS
 62
   110
  5
582
 10
19.28125
 20
14.1875
 30
0.0
  0
POINT
  8
1
  6
CONTINUOUS
 62
   110
  5
583
 10
18.8125
 20
14.125
 30
0.0
  0
POINT
  8
1
  6
CONTINUOUS
 62
   110
  5
584
 10
18.875
 20
14.125
 30
0.0
  0
POINT
  8
1
  6
CONTINUOUS
 62
   110
  5
585
 10
18.9375
 20
14.125
 30
0.0
  0
POINT
  8
1
  6
CONTINUOUS
 62
   110
  5
586
 10
19.0
 20
14.125
 30
0.0
  0
POINT
  8
1
  6
CONTINUOUS
 62
   110
  5
587
 10
19.0625
 20
14.125
 30
0.0
  0
POINT
  8
1
  6
CONTINUOUS
 62
   110
  5
588
 10
19.125
 20
14.125
 30
0.0
  0
POINT
  8
1
  6
CONTINUOUS
 62
   110
  5
589
 10
19.1875
 20
14.125
 30
0.0
  0
POINT
  8
1
  6
CONTINUOUS
 62
   110
  5
58A
 10
19.25
 20
14.125
 30
0.0
  0
POINT
  8
1
  6
CONTINUOUS
 62
   110
  5
58B
 10
18.84375
 20
14.0625
 30
0.0
  0
POINT
  8
1
  6
CONTINUOUS
 62
   110
  5
58C
 10
18.90625
 20
14.0625
 30
0.0
  0
POINT
  8
1
  6
CONTINUOUS
 62
   110
  5
58D
 10
18.96875
 20
14.0625
 30
0.0
  0
POINT
  8
1
  6
CONTINUOUS
 62
   110
  5
58E
 10
19.03125
 20
14.0625
 30
0.0
  0
POINT
  8
1
  6
CONTINUOUS
 62
   110
  5
58F
 10
19.09375
 20
14.0625
 30
0.0
  0
POINT
  8
1
  6
CONTINUOUS
 62
   110
  5
590
 10
19.15625
 20
14.0625
 30
0.0
  0
POINT
  8
1
  6
CONTINUOUS
 62
   110
  5
591
 10
19.21875
 20
14.0625
 30
0.0
  0
POINT
  8
1
  6
CONTINUOUS
 62
   110
  5
592
 10
18.8125
 20
14.0
 30
0.0
  0
POINT
  8
1
  6
CONTINUOUS
 62
   110
  5
593
 10
18.875
 20
14.0
 30
0.0
  0
POINT
  8
1
  6
CONTINUOUS
 62
   110
  5
594
 10
18.875
 20
14.0
 30
0.0
  0
POINT
  8
1
  6
CONTINUOUS
 62
   110
  5
595
 10
18.9375
 20
14.0
 30
0.0
  0
POINT
  8
1
  6
CONTINUOUS
 62
   110
  5
596
 10
19.0
 20
14.0
 30
0.0
  0
POINT
  8
1
  6
CONTINUOUS
 62
   110
  5
597
 10
19.0625
 20
14.0
 30
0.0
  0
POINT
  8
1
  6
CONTINUOUS
 62
   110
  5
598
 10
19.125
 20
14.0
 30
0.0
  0
POINT
  8
1
  6
CONTINUOUS
 62
   110
  5
599
 10
19.1875
 20
14.0
 30
0.0
  0
POINT
  8
1
  6
CONTINUOUS
 62
   110
  5
59A
 10
18.84375
 20
13.9375
 30
0.0
  0
POINT
  8
1
  6
CONTINUOUS
 62
   110
  5
59B
 10
18.90625
 20
13.9375
 30
0.0
  0
POINT
  8
1
  6
CONTINUOUS
 62
   110
  5
59C
 10
18.96875
 20
13.9375
 30
0.0
  0
POINT
  8
1
  6
CONTINUOUS
 62
   110
  5
59D
 10
19.03125
 20
13.9375
 30
0.0
  0
POINT
  8
1
  6
CONTINUOUS
 62
   110
  5
59E
 10
19.09375
 20
13.9375
 30
0.0
  0
POINT
  8
1
  6
CONTINUOUS
 62
   110
  5
59F
 10
19.15625
 20
13.9375
 30
0.0
  0
POINT
  8
1
  6
CONTINUOUS
 62
   110
  5
5A0
 10
19.21875
 20
13.9375
 30
0.0
  0
POINT
  8
1
  6
CONTINUOUS
 62
   110
  5
5A1
 10
18.875
 20
13.875
 30
0.0
  0
POINT
  8
1
  6
CONTINUOUS
 62
   110
  5
5A2
 10
18.9375
 20
13.875
 30
0.0
  0
POINT
  8
1
  6
CONTINUOUS
 62
   110
  5
5A3
 10
19.0
 20
13.875
 30
0.0
  0
POINT
  8
1
  6
CONTINUOUS
 62
   110
  5
5A4
 10
19.0625
 20
13.875
 30
0.0
  0
POINT
  8
1
  6
CONTINUOUS
 62
   110
  5
5A5
 10
19.125
 20
13.875
 30
0.0
  0
POINT
  8
1
  6
CONTINUOUS
 62
   110
  5
5A6
 10
19.1875
 20
13.875
 30
0.0
  0
POINT
  8
1
  6
CONTINUOUS
 62
   110
  5
5A7
 10
18.84375
 20
13.8125
 30
0.0
  0
POINT
  8
1
  6
CONTINUOUS
 62
   110
  5
5A8
 10
18.90625
 20
13.8125
 30
0.0
  0
POINT
  8
1
  6
CONTINUOUS
 62
   110
  5
5A9
 10
18.96875
 20
13.8125
 30
0.0
  0
POINT
  8
1
  6
CONTINUOUS
 62
   110
  5
5AA
 10
19.03125
 20
13.8125
 30
0.0
  0
POINT
  8
1
  6
CONTINUOUS
 62
   110
  5
5AB
 10
19.09375
 20
13.8125
 30
0.0
  0
POINT
  8
1
  6
CONTINUOUS
 62
   110
  5
5AC
 10
19.15625
 20
13.8125
 30
0.0
  0
POINT
  8
1
  6
CONTINUOUS
 62
   110
  5
5AD
 10
18.875
 20
13.75
 30
0.0
  0
POINT
  8
1
  6
CONTINUOUS
 62
   110
  5
5AE
 10
18.9375
 20
13.75
 30
0.0
  0
POINT
  8
1
  6
CONTINUOUS
 62
   110
  5
5AF
 10
19.0
 20
13.75
 30
0.0
  0
POINT
  8
1
  6
CONTINUOUS
 62
   110
  5
5B0
 10
19.0625
 20
13.75
 30
0.0
  0
POINT
  8
1
  6
CONTINUOUS
 62
   110
  5
5B1
 10
19.125
 20
13.75
 30
0.0
  0
POINT
  8
1
  6
CONTINUOUS
 62
   110
  5
5B2
 10
19.1875
 20
13.75
 30
0.0
  0
POINT
  8
1
  6
CONTINUOUS
 62
   110
  5
5B3
 10
18.90625
 20
13.6875
 30
0.0
  0
POINT
  8
1
  6
CONTINUOUS
 62
   110
  5
5B4
 10
18.96875
 20
13.6875
 30
0.0
  0
POINT
  8
1
  6
CONTINUOUS
 62
   110
  5
5B5
 10
19.03125
 20
13.6875
 30
0.0
  0
POINT
  8
1
  6
CONTINUOUS
 62
   110
  5
5B6
 10
19.09375
 20
13.6875
 30
0.0
  0
POINT
  8
1
  6
CONTINUOUS
 62
   110
  5
5B7
 10
19.15625
 20
13.6875
 30
0.0
  0
POINT
  8
1
  6
CONTINUOUS
 62
   110
  5
5B8
 10
18.875
 20
13.625
 30
0.0
  0
POINT
  8
1
  6
CONTINUOUS
 62
   110
  5
5B9
 10
18.9375
 20
13.625
 30
0.0
  0
POINT
  8
1
  6
CONTINUOUS
 62
   110
  5
5BA
 10
19.0
 20
13.625
 30
0.0
  0
POINT
  8
1
  6
CONTINUOUS
 62
   110
  5
5BB
 10
19.0625
 20
13.625
 30
0.0
  0
POINT
  8
1
  6
CONTINUOUS
 62
   110
  5
5BC
 10
19.125
 20
13.625
 30
0.0
  0
POINT
  8
1
  6
CONTINUOUS
 62
   110
  5
5BD
 10
18.90625
 20
13.5625
 30
0.0
  0
POINT
  8
1
  6
CONTINUOUS
 62
   110
  5
5BE
 10
18.96875
 20
13.5625
 30
0.0
  0
POINT
  8
1
  6
CONTINUOUS
 62
   110
  5
5BF
 10
19.03125
 20
13.5625
 30
0.0
  0
POINT
  8
1
  6
CONTINUOUS
 62
   110
  5
5C0
 10
19.09375
 20
13.5625
 30
0.0
  0
POINT
  8
1
  6
CONTINUOUS
 62
   110
  5
5C1
 10
19.15625
 20
13.5625
 30
0.0
  0
POINT
  8
1
  6
CONTINUOUS
 62
   110
  5
5C2
 10
18.9375
 20
13.5
 30
0.0
  0
POINT
  8
1
  6
CONTINUOUS
 62
   110
  5
5C3
 10
19.0
 20
13.5
 30
0.0
  0
POINT
  8
1
  6
CONTINUOUS
 62
   110
  5
5C4
 10
19.0625
 20
13.5
 30
0.0
  0
POINT
  8
1
  6
CONTINUOUS
 62
   110
  5
5C5
 10
19.125
 20
13.5
 30
0.0
  0
POINT
  8
1
  6
CONTINUOUS
 62
   110
  5
5C6
 10
18.90625
 20
13.4375
 30
0.0
  0
POINT
  8
1
  6
CONTINUOUS
 62
   110
  5
5C7
 10
18.96875
 20
13.4375
 30
0.0
  0
POINT
  8
1
  6
CONTINUOUS
 62
   110
  5
5C8
 10
19.03125
 20
13.4375
 30
0.0
  0
POINT
  8
1
  6
CONTINUOUS
 62
   110
  5
5C9
 10
19.09375
 20
13.4375
 30
0.0
  0
POINT
  8
1
  6
CONTINUOUS
 62
   110
  5
5CA
 10
18.9375
 20
13.375
 30
0.0
  0
POINT
  8
1
  6
CONTINUOUS
 62
   110
  5
5CB
 10
19.0
 20
13.375
 30
0.0
  0
POINT
  8
1
  6
CONTINUOUS
 62
   110
  5
5CC
 10
19.0625
 20
13.375
 30
0.0
  0
POINT
  8
1
  6
CONTINUOUS
 62
   110
  5
5CD
 10
19.125
 20
13.375
 30
0.0
  0
POINT
  8
1
  6
CONTINUOUS
 62
   110
  5
5CE
 10
18.96875
 20
13.3125
 30
0.0
  0
POINT
  8
1
  6
CONTINUOUS
 62
   110
  5
5CF
 10
19.03125
 20
13.3125
 30
0.0
  0
POINT
  8
1
  6
CONTINUOUS
 62
   110
  5
5D0
 10
19.09375
 20
13.3125
 30
0.0
  0
ENDBLK
  8
1
  6
CONTINUOUS
 62
   110
  5
5D1
  0
BLOCK
  8
1
  6
CONTINUOUS
 62
   110
  5
5D4
  2
$X68
 70
     0
 10
0.0
 20
0.0
 30
0.0
  3
$N68
  0
LINE
  8
1
  6
CONTINUOUS
 62
   110
  5
5D5
 10
3.861417
 20
17.508583
 30
0.0
 11
3.982083
 21
17.62925
 31
0.0
  0
LINE
  8
1
  6
CONTINUOUS
 62
   110
  5
5D6
 10
4.428333
 20
18.0755
 30
0.0
 11
4.5575
 21
18.204667
 31
0.0
  0
LINE
  8
1
  6
CONTINUOUS
 62
   110
  5
5D7
 10
3.81325
 20
17.531167
 30
0.0
 11
3.911333
 21
17.62925
 31
0.0
  0
LINE
  8
1
  6
CONTINUOUS
 62
   110
  5
5D8
 10
4.67875
 20
18.396583
 30
0.0
 11
4.685583
 21
18.4035
 31
0.0
  0
LINE
  8
1
  6
CONTINUOUS
 62
   110
  5
5D9
 10
4.428333
 20
18.146167
 30
0.0
 11
4.5575
 21
18.275417
 31
0.0
  0
LINE
  8
1
  6
CONTINUOUS
 62
   110
  5
5DA
 10
4.428333
 20
18.216917
 30
0.0
 11
4.5575
 21
18.346083
 31
0.0
  0
LINE
  8
1
  6
CONTINUOUS
 62
   110
  5
5DB
 10
4.608
 20
18.396583
 30
0.0
 11
4.685583
 21
18.474167
 31
0.0
  0
LINE
  8
1
  6
CONTINUOUS
 62
   110
  5
5DC
 10
4.428333
 20
18.287583
 30
0.0
 11
4.67325
 21
18.532583
 31
0.0
  0
LINE
  8
1
  6
CONTINUOUS
 62
   110
  5
5DD
 10
4.428333
 20
18.358333
 30
0.0
 11
4.602583
 21
18.532583
 31
0.0
  0
LINE
  8
1
  6
CONTINUOUS
 62
   110
  5
5DE
 10
4.428333
 20
18.429083
 30
0.0
 11
4.5575
 21
18.55825
 31
0.0
  0
LINE
  8
1
  6
CONTINUOUS
 62
   110
  5
5DF
 10
4.428333
 20
18.49975
 30
0.0
 11
4.5575
 21
18.628917
 31
0.0
  0
LINE
  8
1
  6
CONTINUOUS
 62
   110
  5
5E0
 10
4.428333
 20
18.5705
 30
0.0
 11
4.504583
 21
18.64675
 31
0.0
  0
LINE
  8
1
  6
CONTINUOUS
 62
   110
  5
5E1
 10
4.428333
 20
18.641167
 30
0.0
 11
4.433833
 21
18.64675
 31
0.0
  0
LINE
  8
1
  6
CONTINUOUS
 62
   110
  5
5E2
 10
3.932167
 20
17.508583
 30
0.0
 11
4.05275
 21
17.62925
 31
0.0
  0
LINE
  8
1
  6
CONTINUOUS
 62
   110
  5
5E3
 10
4.428333
 20
18.00475
 30
0.0
 11
4.5575
 21
18.134
 31
0.0
  0
LINE
  8
1
  6
CONTINUOUS
 62
   110
  5
5E4
 10
4.002833
 20
17.508583
 30
0.0
 11
4.1235
 21
17.62925
 31
0.0
  0
LINE
  8
1
  6
CONTINUOUS
 62
   110
  5
5E5
 10
4.428333
 20
17.934083
 30
0.0
 11
4.5575
 21
18.06325
 31
0.0
  0
LINE
  8
1
  6
CONTINUOUS
 62
   110
  5
5E6
 10
4.073583
 20
17.508583
 30
0.0
 11
4.194167
 21
17.62925
 31
0.0
  0
LINE
  8
1
  6
CONTINUOUS
 62
   110
  5
5E7
 10
4.428333
 20
17.863333
 30
0.0
 11
4.5575
 21
17.992583
 31
0.0
  0
LINE
  8
1
  6
CONTINUOUS
 62
   110
  5
5E8
 10
4.14425
 20
17.508583
 30
0.0
 11
4.264917
 21
17.62925
 31
0.0
  0
LINE
  8
1
  6
CONTINUOUS
 62
   110
  5
5E9
 10
4.428333
 20
17.792667
 30
0.0
 11
4.5575
 21
17.921833
 31
0.0
  0
LINE
  8
1
  6
CONTINUOUS
 62
   110
  5
5EA
 10
4.215
 20
17.508583
 30
0.0
 11
4.335583
 21
17.629167
 31
0.0
  0
LINE
  8
1
  6
CONTINUOUS
 62
   110
  5
5EB
 10
4.429417
 20
17.723083
 30
0.0
 11
4.5575
 21
17.851167
 31
0.0
  0
LINE
  8
1
  6
CONTINUOUS
 62
   110
  5
5EC
 10
4.285667
 20
17.508583
 30
0.0
 11
4.5575
 21
17.780417
 31
0.0
  0
LINE
  8
1
  6
CONTINUOUS
 62
   110
  5
5ED
 10
4.356417
 20
17.508583
 30
0.0
 11
4.5575
 21
17.70975
 31
0.0
  0
LINE
  8
1
  6
CONTINUOUS
 62
   110
  5
5EE
 10
4.427167
 20
17.508583
 30
0.0
 11
4.5575
 21
17.639
 31
0.0
  0
LINE
  8
1
  6
CONTINUOUS
 62
   110
  5
5EF
 10
4.42725
 20
17.438
 30
0.0
 11
4.5575
 21
17.568333
 31
0.0
  0
LINE
  8
1
  6
CONTINUOUS
 62
   110
  5
5F0
 10
4.42725
 20
17.36725
 30
0.0
 11
4.5575
 21
17.497583
 31
0.0
  0
LINE
  8
1
  6
CONTINUOUS
 62
   110
  5
5F1
 10
4.42725
 20
17.296583
 30
0.0
 11
4.5575
 21
17.426833
 31
0.0
  0
LINE
  8
1
  6
CONTINUOUS
 62
   110
  5
5F2
 10
4.467917
 20
17.266583
 30
0.0
 11
4.5575
 21
17.356167
 31
0.0
  0
LINE
  8
1
  6
CONTINUOUS
 62
   110
  5
5F3
 10
4.538667
 20
17.266583
 30
0.0
 11
4.5575
 21
17.285417
 31
0.0
  0
ENDBLK
  8
1
  6
CONTINUOUS
 62
   110
  5
5F4
  0
BLOCK
  8
1
  6
CONTINUOUS
 62
   110
  5
5F7
  2
$X69
 70
     0
 10
0.0
 20
0.0
 30
0.0
  3
$N69
  0
LINE
  8
1
  6
CONTINUOUS
 62
   110
  5
5F8
 10
7.6185
 20
17.588667
 30
0.0
 11
7.746833
 21
17.717
 31
0.0
  0
LINE
  8
1
  6
CONTINUOUS
 62
   110
  5
5F9
 10
7.6185
 20
17.659417
 30
0.0
 11
7.747667
 21
17.788583
 31
0.0
  0
LINE
  8
1
  6
CONTINUOUS
 62
   110
  5
5FA
 10
7.6185
 20
17.730083
 30
0.0
 11
7.747667
 21
17.859333
 31
0.0
  0
LINE
  8
1
  6
CONTINUOUS
 62
   110
  5
5FB
 10
7.6185
 20
17.800833
 30
0.0
 11
7.747667
 21
17.93
 31
0.0
  0
LINE
  8
1
  6
CONTINUOUS
 62
   110
  5
5FC
 10
7.6185
 20
17.871583
 30
0.0
 11
7.747667
 21
18.00075
 31
0.0
  0
LINE
  8
1
  6
CONTINUOUS
 62
   110
  5
5FD
 10
7.6185
 20
17.94225
 30
0.0
 11
7.747667
 21
18.071417
 31
0.0
  0
LINE
  8
1
  6
CONTINUOUS
 62
   110
  5
5FE
 10
7.6185
 20
18.013
 30
0.0
 11
7.747667
 21
18.142167
 31
0.0
  0
LINE
  8
1
  6
CONTINUOUS
 62
   110
  5
5FF
 10
7.6185
 20
18.083667
 30
0.0
 11
7.747667
 21
18.212833
 31
0.0
  0
LINE
  8
1
  6
CONTINUOUS
 62
   110
  5
600
 10
7.6185
 20
18.154417
 30
0.0
 11
7.747667
 21
18.283583
 31
0.0
  0
LINE
  8
1
  6
CONTINUOUS
 62
   110
  5
601
 10
7.6185
 20
18.225083
 30
0.0
 11
7.747667
 21
18.354333
 31
0.0
  0
LINE
  8
1
  6
CONTINUOUS
 62
   110
  5
602
 10
7.6185
 20
18.295833
 30
0.0
 11
7.747667
 21
18.425
 31
0.0
  0
LINE
  8
1
  6
CONTINUOUS
 62
   110
  5
603
 10
7.6185
 20
18.3665
 30
0.0
 11
7.747667
 21
18.49575
 31
0.0
  0
LINE
  8
1
  6
CONTINUOUS
 62
   110
  5
604
 10
7.577833
 20
18.396583
 30
0.0
 11
7.747667
 21
18.566417
 31
0.0
  0
LINE
  8
1
  6
CONTINUOUS
 62
   110
  5
605
 10
7.507167
 20
18.396583
 30
0.0
 11
7.747667
 21
18.637167
 31
0.0
  0
LINE
  8
1
  6
CONTINUOUS
 62
   110
  5
606
 10
7.490417
 20
18.450583
 30
0.0
 11
7.572417
 21
18.532583
 31
0.0
  0
LINE
  8
1
  6
CONTINUOUS
 62
   110
  5
607
 10
7.6185
 20
18.578667
 30
0.0
 11
7.686583
 21
18.64675
 31
0.0
  0
LINE
  8
1
  6
CONTINUOUS
 62
   110
  5
608
 10
7.490417
 20
18.52125
 30
0.0
 11
7.50175
 21
18.532583
 31
0.0
  0
LINE
  8
1
  6
CONTINUOUS
 62
   110
  5
609
 10
7.6185
 20
17.518
 30
0.0
 11
7.766417
 21
17.665917
 31
0.0
  0
LINE
  8
1
  6
CONTINUOUS
 62
   110
  5
60A
 10
7.6185
 20
17.44725
 30
0.0
 11
7.806917
 21
17.635667
 31
0.0
  0
LINE
  8
1
  6
CONTINUOUS
 62
   110
  5
60B
 10
7.6185
 20
17.376583
 30
0.0
 11
7.748833
 21
17.506833
 31
0.0
  0
LINE
  8
1
  6
CONTINUOUS
 62
   110
  5
60C
 10
7.7505
 20
17.508583
 30
0.0
 11
7.871167
 21
17.62925
 31
0.0
  0
LINE
  8
1
  6
CONTINUOUS
 62
   110
  5
60D
 10
7.6185
 20
17.305833
 30
0.0
 11
7.748833
 21
17.436167
 31
0.0
  0
LINE
  8
1
  6
CONTINUOUS
 62
   110
  5
60E
 10
7.82125
 20
17.508583
 30
0.0
 11
7.941833
 21
17.62925
 31
0.0
  0
LINE
  8
1
  6
CONTINUOUS
 62
   110
  5
60F
 10
7.649917
 20
17.266583
 30
0.0
 11
7.748833
 21
17.365417
 31
0.0
  0
LINE
  8
1
  6
CONTINUOUS
 62
   110
  5
610
 10
7.891917
 20
17.508583
 30
0.0
 11
8.012583
 21
17.62925
 31
0.0
  0
LINE
  8
1
  6
CONTINUOUS
 62
   110
  5
611
 10
7.720667
 20
17.266583
 30
0.0
 11
7.748833
 21
17.29475
 31
0.0
  0
LINE
  8
1
  6
CONTINUOUS
 62
   110
  5
612
 10
7.962667
 20
17.508583
 30
0.0
 11
8.08325
 21
17.62925
 31
0.0
  0
LINE
  8
1
  6
CONTINUOUS
 62
   110
  5
613
 10
8.033333
 20
17.508583
 30
0.0
 11
8.154
 21
17.62925
 31
0.0
  0
LINE
  8
1
  6
CONTINUOUS
 62
   110
  5
614
 10
8.104083
 20
17.508583
 30
0.0
 11
8.224667
 21
17.62925
 31
0.0
  0
LINE
  8
1
  6
CONTINUOUS
 62
   110
  5
615
 10
8.174833
 20
17.508583
 30
0.0
 11
8.295167
 21
17.629
 31
0.0
  0
LINE
  8
1
  6
CONTINUOUS
 62
   110
  5
616
 10
8.2455
 20
17.508583
 30
0.0
 11
8.34225
 21
17.605333
 31
0.0
  0
LINE
  8
1
  6
CONTINUOUS
 62
   110
  5
617
 10
8.31625
 20
17.508583
 30
0.0
 11
8.36275
 21
17.555167
 31
0.0
  0
ENDBLK
  8
1
  6
CONTINUOUS
 62
   110
  5
618
  0
BLOCK
  8
1
  6
CONTINUOUS
 62
   110
  5
740
  2
$X62
 70
     0
 10
0.0
 20
0.0
 30
0.0
  3
$N62
  0
LINE
  8
1
  6
CONTINUOUS
 62
   110
  5
741
 10
14.9275
 20
5.664417
 30
0.0
 11
15.099917
 21
5.836833
 31
0.0
  0
LINE
  8
1
  6
CONTINUOUS
 62
   110
  5
742
 10
14.85675
 20
5.664417
 30
0.0
 11
15.029167
 21
5.836833
 31
0.0
  0
LINE
  8
1
  6
CONTINUOUS
 62
   110
  5
743
 10
14.786083
 20
5.664417
 30
0.0
 11
14.9585
 21
5.836833
 31
0.0
  0
LINE
  8
1
  6
CONTINUOUS
 62
   110
  5
744
 10
14.715333
 20
5.664417
 30
0.0
 11
14.88775
 21
5.836833
 31
0.0
  0
LINE
  8
1
  6
CONTINUOUS
 62
   110
  5
745
 10
14.644667
 20
5.664417
 30
0.0
 11
14.817083
 21
5.836833
 31
0.0
  0
LINE
  8
1
  6
CONTINUOUS
 62
   110
  5
746
 10
14.573917
 20
5.664417
 30
0.0
 11
14.746333
 21
5.836833
 31
0.0
  0
LINE
  8
1
  6
CONTINUOUS
 62
   110
  5
747
 10
14.50325
 20
5.664417
 30
0.0
 11
14.675667
 21
5.836833
 31
0.0
  0
LINE
  8
1
  6
CONTINUOUS
 62
   110
  5
748
 10
14.4325
 20
5.664417
 30
0.0
 11
14.604917
 21
5.836833
 31
0.0
  0
LINE
  8
1
  6
CONTINUOUS
 62
   110
  5
749
 10
14.423083
 20
5.725667
 30
0.0
 11
14.53425
 21
5.836833
 31
0.0
  0
LINE
  8
1
  6
CONTINUOUS
 62
   110
  5
74A
 10
14.423083
 20
5.796417
 30
0.0
 11
14.4635
 21
5.836833
 31
0.0
  0
LINE
  8
1
  6
CONTINUOUS
 62
   110
  5
74B
 10
14.998167
 20
5.664417
 30
0.0
 11
15.170583
 21
5.836833
 31
0.0
  0
LINE
  8
1
  6
CONTINUOUS
 62
   110
  5
74C
 10
15.068917
 20
5.664417
 30
0.0
 11
15.241333
 21
5.836833
 31
0.0
  0
LINE
  8
1
  6
CONTINUOUS
 62
   110
  5
74D
 10
15.139667
 20
5.664417
 30
0.0
 11
15.312083
 21
5.836833
 31
0.0
  0
LINE
  8
1
  6
CONTINUOUS
 62
   110
  5
74E
 10
15.210333
 20
5.664417
 30
0.0
 11
15.38275
 21
5.836833
 31
0.0
  0
LINE
  8
1
  6
CONTINUOUS
 62
   110
  5
74F
 10
15.281083
 20
5.664417
 30
0.0
 11
15.4535
 21
5.836833
 31
0.0
  0
LINE
  8
1
  6
CONTINUOUS
 62
   110
  5
750
 10
15.35175
 20
5.664417
 30
0.0
 11
15.524167
 21
5.836833
 31
0.0
  0
LINE
  8
1
  6
CONTINUOUS
 62
   110
  5
751
 10
15.4225
 20
5.664417
 30
0.0
 11
15.594917
 21
5.836833
 31
0.0
  0
LINE
  8
1
  6
CONTINUOUS
 62
   110
  5
752
 10
15.493167
 20
5.664417
 30
0.0
 11
15.665583
 21
5.836833
 31
0.0
  0
LINE
  8
1
  6
CONTINUOUS
 62
   110
  5
753
 10
15.563917
 20
5.664417
 30
0.0
 11
15.720583
 21
5.821083
 31
0.0
  0
LINE
  8
1
  6
CONTINUOUS
 62
   110
  5
754
 10
15.634583
 20
5.664417
 30
0.0
 11
15.720583
 21
5.750333
 31
0.0
  0
LINE
  8
1
  6
CONTINUOUS
 62
   110
  5
755
 10
15.705333
 20
5.664417
 30
0.0
 11
15.720583
 21
5.679667
 31
0.0
  0
LINE
  8
1
  6
CONTINUOUS
 62
   110
  5
756
 10
15.1245
 20
5.664417
 30
0.0
 11
14.952083
 21
5.836833
 31
0.0
  0
LINE
  8
1
  6
CONTINUOUS
 62
   110
  5
757
 10
15.05375
 20
5.664417
 30
0.0
 11
14.881333
 21
5.836833
 31
0.0
  0
LINE
  8
1
  6
CONTINUOUS
 62
   110
  5
758
 10
14.983
 20
5.664417
 30
0.0
 11
14.810583
 21
5.836833
 31
0.0
  0
LINE
  8
1
  6
CONTINUOUS
 62
   110
  5
759
 10
14.912333
 20
5.664417
 30
0.0
 11
14.739917
 21
5.836833
 31
0.0
  0
LINE
  8
1
  6
CONTINUOUS
 62
   110
  5
75A
 10
14.841583
 20
5.664417
 30
0.0
 11
14.669167
 21
5.836833
 31
0.0
  0
LINE
  8
1
  6
CONTINUOUS
 62
   110
  5
75B
 10
14.770917
 20
5.664417
 30
0.0
 11
14.5985
 21
5.836833
 31
0.0
  0
LINE
  8
1
  6
CONTINUOUS
 62
   110
  5
75C
 10
14.700167
 20
5.664417
 30
0.0
 11
14.52775
 21
5.836833
 31
0.0
  0
LINE
  8
1
  6
CONTINUOUS
 62
   110
  5
75D
 10
14.6295
 20
5.664417
 30
0.0
 11
14.457083
 21
5.836833
 31
0.0
  0
LINE
  8
1
  6
CONTINUOUS
 62
   110
  5
75E
 10
14.55875
 20
5.664417
 30
0.0
 11
14.423083
 21
5.800083
 31
0.0
  0
LINE
  8
1
  6
CONTINUOUS
 62
   110
  5
75F
 10
14.488083
 20
5.664417
 30
0.0
 11
14.423083
 21
5.729417
 31
0.0
  0
LINE
  8
1
  6
CONTINUOUS
 62
   110
  5
760
 10
15.195167
 20
5.664417
 30
0.0
 11
15.02275
 21
5.836833
 31
0.0
  0
LINE
  8
1
  6
CONTINUOUS
 62
   110
  5
761
 10
15.265917
 20
5.664417
 30
0.0
 11
15.0935
 21
5.836833
 31
0.0
  0
LINE
  8
1
  6
CONTINUOUS
 62
   110
  5
762
 10
15.336583
 20
5.664417
 30
0.0
 11
15.164167
 21
5.836833
 31
0.0
  0
LINE
  8
1
  6
CONTINUOUS
 62
   110
  5
763
 10
15.407333
 20
5.664417
 30
0.0
 11
15.234917
 21
5.836833
 31
0.0
  0
LINE
  8
1
  6
CONTINUOUS
 62
   110
  5
764
 10
15.478
 20
5.664417
 30
0.0
 11
15.305583
 21
5.836833
 31
0.0
  0
LINE
  8
1
  6
CONTINUOUS
 62
   110
  5
765
 10
15.54875
 20
5.664417
 30
0.0
 11
15.376333
 21
5.836833
 31
0.0
  0
LINE
  8
1
  6
CONTINUOUS
 62
   110
  5
766
 10
15.619417
 20
5.664417
 30
0.0
 11
15.447
 21
5.836833
 31
0.0
  0
LINE
  8
1
  6
CONTINUOUS
 62
   110
  5
767
 10
15.690167
 20
5.664417
 30
0.0
 11
15.51775
 21
5.836833
 31
0.0
  0
LINE
  8
1
  6
CONTINUOUS
 62
   110
  5
768
 10
15.720583
 20
5.704667
 30
0.0
 11
15.588417
 21
5.836833
 31
0.0
  0
LINE
  8
1
  6
CONTINUOUS
 62
   110
  5
769
 10
15.720583
 20
5.775417
 30
0.0
 11
15.659167
 21
5.836833
 31
0.0
  0
ENDBLK
  8
1
  6
CONTINUOUS
 62
   110
  5
76A
  0
BLOCK
  8
1
  6
CONTINUOUS
 62
   110
  5
76D
  2
$X63
 70
     0
 10
0.0
 20
0.0
 30
0.0
  3
$N63
  0
LINE
  8
1
  6
CONTINUOUS
 62
   110
  5
76E
 10
18.2835
 20
5.76775
 30
0.0
 11
18.384167
 21
5.868417
 31
0.0
  0
LINE
  8
1
  6
CONTINUOUS
 62
   110
  5
76F
 10
18.2835
 20
5.838417
 30
0.0
 11
18.3135
 21
5.868417
 31
0.0
  0
LINE
  8
1
  6
CONTINUOUS
 62
   110
  5
770
 10
18.2835
 20
5.697
 30
0.0
 11
18.445833
 21
5.859333
 31
0.0
  0
LINE
  8
1
  6
CONTINUOUS
 62
   110
  5
771
 10
18.352333
 20
5.695167
 30
0.0
 11
18.445833
 21
5.788667
 31
0.0
  0
LINE
  8
1
  6
CONTINUOUS
 62
   110
  5
772
 10
18.423083
 20
5.695167
 30
0.0
 11
18.445833
 21
5.717917
 31
0.0
  0
LINE
  8
1
  6
CONTINUOUS
 62
   110
  5
773
 10
18.417083
 20
5.695167
 30
0.0
 11
18.2835
 21
5.82875
 31
0.0
  0
LINE
  8
1
  6
CONTINUOUS
 62
   110
  5
774
 10
18.346417
 20
5.695167
 30
0.0
 11
18.2835
 21
5.758
 31
0.0
  0
LINE
  8
1
  6
CONTINUOUS
 62
   110
  5
775
 10
18.445833
 20
5.737083
 30
0.0
 11
18.314583
 21
5.868417
 31
0.0
  0
LINE
  8
1
  6
CONTINUOUS
 62
   110
  5
776
 10
18.445833
 20
5.807833
 30
0.0
 11
18.385333
 21
5.868417
 31
0.0
  0
ENDBLK
  8
1
  6
CONTINUOUS
 62
   110
  5
777
  0
ENDSEC
  0
SECTION
  2
ENTITIES
  0
LINE
  8
1
  6
CONTINUOUS
 62
   110
  5
29
 10
44.133417
 20
40.03075
 30
0.0
 11
44.133417
 21
41.16075
 31
0.0
  0
LINE
  8
1
  6
CONTINUOUS
 62
   110
  5
2A
 10
44.133417
 20
41.16075
 30
0.0
 11
44.2615
 21
41.16075
 31
0.0
  0
LINE
  8
1
  6
CONTINUOUS
 62
   110
  5
2B
 10
44.2615
 20
41.16075
 30
0.0
 11
44.2615
 21
41.29675
 31
0.0
  0
LINE
  8
1
  6
CONTINUOUS
 62
   110
  5
2C
 10
44.2615
 20
41.29675
 30
0.0
 11
44.133417
 21
41.29675
 31
0.0
  0
LINE
  8
1
  6
CONTINUOUS
 62
   110
  5
2D
 10
44.133417
 20
41.29675
 30
0.0
 11
44.133417
 21
41.410917
 31
0.0
  0
LINE
  8
1
  6
CONTINUOUS
 62
   110
  5
2E
 10
44.133417
 20
41.410917
 30
0.0
 11
44.00425
 21
41.410917
 31
0.0
  0
LINE
  8
1
  6
CONTINUOUS
 62
   110
  5
2F
 10
44.00425
 20
41.410917
 30
0.0
 11
44.00425
 21
40.502667
 31
0.0
  0
LINE
  8
1
  6
CONTINUOUS
 62
   110
  5
30
 10
44.133417
 20
40.03075
 30
0.0
 11
44.003167
 21
40.03075
 31
0.0
  0
LINE
  8
1
  6
CONTINUOUS
 62
   110
  5
31
 10
44.003167
 20
40.03075
 30
0.0
 11
44.003167
 21
40.27275
 31
0.0
  0
LINE
  8
1
  6
CONTINUOUS
 62
   110
  5
32
 10
44.003167
 20
40.27275
 30
0.0
 11
43.389167
 21
40.27275
 31
0.0
  0
LINE
  8
1
  6
CONTINUOUS
 62
   110
  5
33
 10
43.389167
 20
40.27275
 30
0.0
 11
43.389167
 21
40.31725
 31
0.0
  0
LINE
  8
1
  6
CONTINUOUS
 62
   110
  5
34
 10
43.45875
 20
40.393417
 30
0.0
 11
43.908167
 21
40.393417
 31
0.0
  0
ARC
  8
1
  6
CONTINUOUS
 62
   110
  5
35
 10
43.46525
 20
40.317583
 30
0.0
 40
0.076087
 50
94.914769
 51
180.21355
210
0.0
220
0.0
230
1.0
  0
ARC
  8
1
  6
CONTINUOUS
 62
   110
  5
36
 10
43.910583
 20
40.488083
 30
0.0
 40
0.094764
 50
268.531756
 51
8.829464
210
0.0
220
0.0
230
1.0
  0
LINE
  8
3
  6
DASHDOT
 62
   110
  5
38
 10
45.663917
 20
39.436583
 30
0.0
 11
45.663917
 21
42.169333
 31
0.0
  0
ARC
  8
1
  6
CONTINUOUS
 62
   110
  5
39
 10
47.41725
 20
40.488083
 30
0.0
 40
0.094764
 50
171.170533
 51
271.468242
210
0.0
220
0.0
230
1.0
  0
ARC
  8
1
  6
CONTINUOUS
 62
   110
  5
3A
 10
47.862583
 20
40.317583
 30
0.0
 40
0.076087
 50
359.786447
 51
85.085228
210
0.0
220
0.0
230
1.0
  0
LINE
  8
1
  6
CONTINUOUS
 62
   110
  5
3B
 10
47.869083
 20
40.393417
 30
0.0
 11
47.419667
 21
40.393417
 31
0.0
  0
LINE
  8
1
  6
CONTINUOUS
 62
   110
  5
3C
 10
47.938667
 20
40.27275
 30
0.0
 11
47.938667
 21
40.31725
 31
0.0
  0
LINE
  8
1
  6
CONTINUOUS
 62
   110
  5
3D
 10
47.32475
 20
40.27275
 30
0.0
 11
47.938667
 21
40.27275
 31
0.0
  0
LINE
  8
1
  6
CONTINUOUS
 62
   110
  5
3E
 10
47.32475
 20
40.03075
 30
0.0
 11
47.32475
 21
40.27275
 31
0.0
  0
LINE
  8
1
  6
CONTINUOUS
 62
   110
  5
3F
 10
47.194417
 20
40.03075
 30
0.0
 11
47.32475
 21
40.03075
 31
0.0
  0
LINE
  8
1
  6
CONTINUOUS
 62
   110
  5
40
 10
47.323583
 20
41.410917
 30
0.0
 11
47.323583
 21
40.502667
 31
0.0
  0
LINE
  8
1
  6
CONTINUOUS
 62
   110
  5
41
 10
47.194417
 20
41.410917
 30
0.0
 11
47.323583
 21
41.410917
 31
0.0
  0
LINE
  8
1
  6
CONTINUOUS
 62
   110
  5
42
 10
47.194417
 20
41.29675
 30
0.0
 11
47.194417
 21
41.410917
 31
0.0
  0
LINE
  8
1
  6
CONTINUOUS
 62
   110
  5
43
 10
47.066333
 20
41.29675
 30
0.0
 11
47.194417
 21
41.29675
 31
0.0
  0
LINE
  8
1
  6
CONTINUOUS
 62
   110
  5
44
 10
47.066333
 20
41.16075
 30
0.0
 11
47.066333
 21
41.29675
 31
0.0
  0
LINE
  8
1
  6
CONTINUOUS
 62
   110
  5
45
 10
47.194417
 20
41.16075
 30
0.0
 11
47.066333
 21
41.16075
 31
0.0
  0
LINE
  8
1
  6
CONTINUOUS
 62
   110
  5
46
 10
47.194417
 20
40.03075
 30
0.0
 11
47.194417
 21
41.16075
 31
0.0
  0
LINE
  8
1
  6
CONTINUOUS
 62
   110
  5
47
 10
44.133417
 20
41.410917
 30
0.0
 11
47.194417
 21
41.410917
 31
0.0
  0
LINE
  8
1
  6
CONTINUOUS
 62
   110
  5
48
 10
44.2615
 20
41.29675
 30
0.0
 11
47.066333
 21
41.29675
 31
0.0
  0
LINE
  8
1
  6
CONTINUOUS
 62
   110
  5
49
 10
44.2615
 20
41.16075
 30
0.0
 11
47.066333
 21
41.16075
 31
0.0
  0
LINE
  8
1
  6
CONTINUOUS
 62
   110
  5
4A
 10
44.133417
 20
40.03075
 30
0.0
 11
47.194417
 21
40.03075
 31
0.0
  0
ARC
  8
1
  6
CONTINUOUS
 62
   110
  5
4B
 10
45.695667
 20
54.439917
 30
0.0
 40
1.516334
 50
93.471708
 51
266.737272
210
0.0
220
0.0
230
1.0
  0
POLYLINE
  8
1
  6
CONTINUOUS
 62
   110
  5
4C
 66
     1
 10
0.0
 20
0.0
 30
0.0
  0
VERTEX
  8
1
  6
CONTINUOUS
 62
   110
  5
4D
 10
44.706083
 20
55.411917
 30
0.0
  0
VERTEX
  8
1
  6
CONTINUOUS
 62
   110
  5
4E
 10
44.759083
 20
55.411917
 30
0.0
  0
VERTEX
  8
1
  6
CONTINUOUS
 62
   110
  5
4F
 10
44.759083
 20
55.464917
 30
0.0
  0
VERTEX
  8
1
  6
CONTINUOUS
 62
   110
  5
50
 10
44.706083
 20
55.464917
 30
0.0
  0
VERTEX
  8
1
  6
CONTINUOUS
 62
   110
  5
51
 10
44.706083
 20
55.411917
 30
0.0
  0
SEQEND
  8
1
  6
CONTINUOUS
 62
   110
  5
52
  0
POLYLINE
  8
1
  6
CONTINUOUS
 62
   110
  5
53
 66
     1
 10
0.0
 20
0.0
 30
0.0
  0
VERTEX
  8
1
  6
CONTINUOUS
 62
   110
  5
54
 10
45.291333
 20
55.751833
 30
0.0
  0
VERTEX
  8
1
  6
CONTINUOUS
 62
   110
  5
55
 10
45.344333
 20
55.751833
 30
0.0
  0
VERTEX
  8
1
  6
CONTINUOUS
 62
   110
  5
56
 10
45.344333
 20
55.804917
 30
0.0
  0
VERTEX
  8
1
  6
CONTINUOUS
 62
   110
  5
57
 10
45.291333
 20
55.804917
 30
0.0
  0
VERTEX
  8
1
  6
CONTINUOUS
 62
   110
  5
58
 10
45.291333
 20
55.751833
 30
0.0
  0
SEQEND
  8
1
  6
CONTINUOUS
 62
   110
  5
59
  0
POLYLINE
  8
1
  6
CONTINUOUS
 62
   110
  5
5A
 66
     1
 10
0.0
 20
0.0
 30
0.0
  0
VERTEX
  8
1
  6
CONTINUOUS
 62
   110
  5
5B
 10
45.317833
 20
55.58675
 30
0.0
  0
VERTEX
  8
1
  6
CONTINUOUS
 62
   110
  5
5C
 10
45.370833
 20
55.58675
 30
0.0
  0
VERTEX
  8
1
  6
CONTINUOUS
 62
   110
  5
5D
 10
45.370833
 20
55.639667
 30
0.0
  0
VERTEX
  8
1
  6
CONTINUOUS
 62
   110
  5
5E
 10
45.317833
 20
55.639667
 30
0.0
  0
VERTEX
  8
1
  6
CONTINUOUS
 62
   110
  5
5F
 10
45.317833
 20
55.58675
 30
0.0
  0
SEQEND
  8
1
  6
CONTINUOUS
 62
   110
  5
60
  0
POLYLINE
  8
1
  6
CONTINUOUS
 62
   110
  5
61
 66
     1
 10
0.0
 20
0.0
 30
0.0
  0
VERTEX
  8
1
  6
CONTINUOUS
 62
   110
  5
62
 10
45.673417
 20
55.592417
 30
0.0
  0
VERTEX
  8
1
  6
CONTINUOUS
 62
   110
  5
63
 10
45.726417
 20
55.592417
 30
0.0
  0
VERTEX
  8
1
  6
CONTINUOUS
 62
   110
  5
64
 10
45.726417
 20
55.645417
 30
0.0
  0
VERTEX
  8
1
  6
CONTINUOUS
 62
   110
  5
65
 10
45.673417
 20
55.645417
 30
0.0
  0
VERTEX
  8
1
  6
CONTINUOUS
 62
   110
  5
66
 10
45.673417
 20
55.592417
 30
0.0
  0
SEQEND
  8
1
  6
CONTINUOUS
 62
   110
  5
67
  0
POLYLINE
  8
1
  6
CONTINUOUS
 62
   110
  5
68
 66
     1
 10
0.0
 20
0.0
 30
0.0
  0
VERTEX
  8
1
  6
CONTINUOUS
 62
   110
  5
69
 10
44.541583
 20
54.981167
 30
0.0
  0
VERTEX
  8
1
  6
CONTINUOUS
 62
   110
  5
6A
 10
44.594583
 20
54.981167
 30
0.0
  0
VERTEX
  8
1
  6
CONTINUOUS
 62
   110
  5
6B
 10
44.594583
 20
55.03425
 30
0.0
  0
VERTEX
  8
1
  6
CONTINUOUS
 62
   110
  5
6C
 10
44.541583
 20
55.03425
 30
0.0
  0
VERTEX
  8
1
  6
CONTINUOUS
 62
   110
  5
6D
 10
44.541583
 20
54.981167
 30
0.0
  0
SEQEND
  8
1
  6
CONTINUOUS
 62
   110
  5
6E
  0
POLYLINE
  8
1
  6
CONTINUOUS
 62
   110
  5
6F
 66
     1
 10
0.0
 20
0.0
 30
0.0
  0
VERTEX
  8
1
  6
CONTINUOUS
 62
   110
  5
70
 10
44.92475
 20
54.981167
 30
0.0
  0
VERTEX
  8
1
  6
CONTINUOUS
 62
   110
  5
71
 10
44.97775
 20
54.981167
 30
0.0
  0
VERTEX
  8
1
  6
CONTINUOUS
 62
   110
  5
72
 10
44.97775
 20
55.03425
 30
0.0
  0
VERTEX
  8
1
  6
CONTINUOUS
 62
   110
  5
73
 10
44.92475
 20
55.03425
 30
0.0
  0
VERTEX
  8
1
  6
CONTINUOUS
 62
   110
  5
74
 10
44.92475
 20
54.981167
 30
0.0
  0
SEQEND
  8
1
  6
CONTINUOUS
 62
   110
  5
75
  0
POLYLINE
  8
1
  6
CONTINUOUS
 62
   110
  5
76
 66
     1
 10
0.0
 20
0.0
 30
0.0
  0
VERTEX
  8
1
  6
CONTINUOUS
 62
   110
  5
77
 10
45.312333
 20
54.981167
 30
0.0
  0
VERTEX
  8
1
  6
CONTINUOUS
 62
   110
  5
78
 10
45.365333
 20
54.981167
 30
0.0
  0
VERTEX
  8
1
  6
CONTINUOUS
 62
   110
  5
79
 10
45.365333
 20
55.03425
 30
0.0
  0
VERTEX
  8
1
  6
CONTINUOUS
 62
   110
  5
7A
 10
45.312333
 20
55.03425
 30
0.0
  0
VERTEX
  8
1
  6
CONTINUOUS
 62
   110
  5
7B
 10
45.312333
 20
54.981167
 30
0.0
  0
SEQEND
  8
1
  6
CONTINUOUS
 62
   110
  5
7C
  0
POLYLINE
  8
1
  6
CONTINUOUS
 62
   110
  5
7D
 66
     1
 10
0.0
 20
0.0
 30
0.0
  0
VERTEX
  8
1
  6
CONTINUOUS
 62
   110
  5
7E
 10
45.6845
 20
54.981167
 30
0.0
  0
VERTEX
  8
1
  6
CONTINUOUS
 62
   110
  5
7F
 10
45.7375
 20
54.981167
 30
0.0
  0
VERTEX
  8
1
  6
CONTINUOUS
 62
   110
  5
80
 10
45.7375
 20
55.03425
 30
0.0
  0
VERTEX
  8
1
  6
CONTINUOUS
 62
   110
  5
81
 10
45.6845
 20
55.03425
 30
0.0
  0
VERTEX
  8
1
  6
CONTINUOUS
 62
   110
  5
82
 10
45.6845
 20
54.981167
 30
0.0
  0
SEQEND
  8
1
  6
CONTINUOUS
 62
   110
  5
83
  0
POLYLINE
  8
1
  6
CONTINUOUS
 62
   110
  5
84
 66
     1
 10
0.0
 20
0.0
 30
0.0
  0
VERTEX
  8
1
  6
CONTINUOUS
 62
   110
  5
85
 10
44.3505
 20
54.81125
 30
0.0
  0
VERTEX
  8
1
  6
CONTINUOUS
 62
   110
  5
86
 10
44.4035
 20
54.81125
 30
0.0
  0
VERTEX
  8
1
  6
CONTINUOUS
 62
   110
  5
87
 10
44.4035
 20
54.86425
 30
0.0
  0
VERTEX
  8
1
  6
CONTINUOUS
 62
   110
  5
88
 10
44.3505
 20
54.86425
 30
0.0
  0
VERTEX
  8
1
  6
CONTINUOUS
 62
   110
  5
89
 10
44.3505
 20
54.81125
 30
0.0
  0
SEQEND
  8
1
  6
CONTINUOUS
 62
   110
  5
8A
  0
POLYLINE
  8
1
  6
CONTINUOUS
 62
   110
  5
8B
 66
     1
 10
0.0
 20
0.0
 30
0.0
  0
VERTEX
  8
1
  6
CONTINUOUS
 62
   110
  5
8C
 10
44.314083
 20
54.62025
 30
0.0
  0
VERTEX
  8
1
  6
CONTINUOUS
 62
   110
  5
8D
 10
44.367083
 20
54.62025
 30
0.0
  0
VERTEX
  8
1
  6
CONTINUOUS
 62
   110
  5
8E
 10
44.367083
 20
54.673167
 30
0.0
  0
VERTEX
  8
1
  6
CONTINUOUS
 62
   110
  5
8F
 10
44.314083
 20
54.673167
 30
0.0
  0
VERTEX
  8
1
  6
CONTINUOUS
 62
   110
  5
90
 10
44.314083
 20
54.62025
 30
0.0
  0
SEQEND
  8
1
  6
CONTINUOUS
 62
   110
  5
91
  0
POLYLINE
  8
1
  6
CONTINUOUS
 62
   110
  5
92
 66
     1
 10
0.0
 20
0.0
 30
0.0
  0
VERTEX
  8
1
  6
CONTINUOUS
 62
   110
  5
93
 10
44.308583
 20
54.4235
 30
0.0
  0
VERTEX
  8
1
  6
CONTINUOUS
 62
   110
  5
94
 10
44.361583
 20
54.4235
 30
0.0
  0
VERTEX
  8
1
  6
CONTINUOUS
 62
   110
  5
95
 10
44.361583
 20
54.4765
 30
0.0
  0
VERTEX
  8
1
  6
CONTINUOUS
 62
   110
  5
96
 10
44.308583
 20
54.4765
 30
0.0
  0
VERTEX
  8
1
  6
CONTINUOUS
 62
   110
  5
97
 10
44.308583
 20
54.4235
 30
0.0
  0
SEQEND
  8
1
  6
CONTINUOUS
 62
   110
  5
98
  0
POLYLINE
  8
1
  6
CONTINUOUS
 62
   110
  5
99
 66
     1
 10
0.0
 20
0.0
 30
0.0
  0
VERTEX
  8
1
  6
CONTINUOUS
 62
   110
  5
9A
 10
44.314083
 20
54.216333
 30
0.0
  0
VERTEX
  8
1
  6
CONTINUOUS
 62
   110
  5
9B
 10
44.367083
 20
54.216333
 30
0.0
  0
VERTEX
  8
1
  6
CONTINUOUS
 62
   110
  5
9C
 10
44.367083
 20
54.269333
 30
0.0
  0
VERTEX
  8
1
  6
CONTINUOUS
 62
   110
  5
9D
 10
44.314083
 20
54.269333
 30
0.0
  0
VERTEX
  8
1
  6
CONTINUOUS
 62
   110
  5
9E
 10
44.314083
 20
54.216333
 30
0.0
  0
SEQEND
  8
1
  6
CONTINUOUS
 62
   110
  5
9F
  0
POLYLINE
  8
1
  6
CONTINUOUS
 62
   110
  5
A0
 66
     1
 10
0.0
 20
0.0
 30
0.0
  0
VERTEX
  8
1
  6
CONTINUOUS
 62
   110
  5
A1
 10
44.3505
 20
54.02525
 30
0.0
  0
VERTEX
  8
1
  6
CONTINUOUS
 62
   110
  5
A2
 10
44.4035
 20
54.02525
 30
0.0
  0
VERTEX
  8
1
  6
CONTINUOUS
 62
   110
  5
A3
 10
44.4035
 20
54.07825
 30
0.0
  0
VERTEX
  8
1
  6
CONTINUOUS
 62
   110
  5
A4
 10
44.3505
 20
54.07825
 30
0.0
  0
VERTEX
  8
1
  6
CONTINUOUS
 62
   110
  5
A5
 10
44.3505
 20
54.02525
 30
0.0
  0
SEQEND
  8
1
  6
CONTINUOUS
 62
   110
  5
A6
  0
POLYLINE
  8
1
  6
CONTINUOUS
 62
   110
  5
A7
 66
     1
 10
0.0
 20
0.0
 30
0.0
  0
VERTEX
  8
1
  6
CONTINUOUS
 62
   110
  5
A8
 10
44.547083
 20
53.849583
 30
0.0
  0
VERTEX
  8
1
  6
CONTINUOUS
 62
   110
  5
A9
 10
44.600083
 20
53.849583
 30
0.0
  0
VERTEX
  8
1
  6
CONTINUOUS
 62
   110
  5
AA
 10
44.600083
 20
53.902583
 30
0.0
  0
VERTEX
  8
1
  6
CONTINUOUS
 62
   110
  5
AB
 10
44.547083
 20
53.902583
 30
0.0
  0
VERTEX
  8
1
  6
CONTINUOUS
 62
   110
  5
AC
 10
44.547083
 20
53.849583
 30
0.0
  0
SEQEND
  8
1
  6
CONTINUOUS
 62
   110
  5
AD
  0
POLYLINE
  8
1
  6
CONTINUOUS
 62
   110
  5
AE
 66
     1
 10
0.0
 20
0.0
 30
0.0
  0
VERTEX
  8
1
  6
CONTINUOUS
 62
   110
  5
AF
 10
44.717167
 20
53.424667
 30
0.0
  0
VERTEX
  8
1
  6
CONTINUOUS
 62
   110
  5
B0
 10
44.770167
 20
53.424667
 30
0.0
  0
VERTEX
  8
1
  6
CONTINUOUS
 62
   110
  5
B1
 10
44.770167
 20
53.477667
 30
0.0
  0
VERTEX
  8
1
  6
CONTINUOUS
 62
   110
  5
B2
 10
44.717167
 20
53.477667
 30
0.0
  0
VERTEX
  8
1
  6
CONTINUOUS
 62
   110
  5
B3
 10
44.717167
 20
53.424667
 30
0.0
  0
SEQEND
  8
1
  6
CONTINUOUS
 62
   110
  5
B4
  0
POLYLINE
  8
1
  6
CONTINUOUS
 62
   110
  5
B5
 66
     1
 10
0.0
 20
0.0
 30
0.0
  0
VERTEX
  8
1
  6
CONTINUOUS
 62
   110
  5
B6
 10
45.306833
 20
53.297583
 30
0.0
  0
VERTEX
  8
1
  6
CONTINUOUS
 62
   110
  5
B7
 10
45.359833
 20
53.297583
 30
0.0
  0
VERTEX
  8
1
  6
CONTINUOUS
 62
   110
  5
B8
 10
45.359833
 20
53.3505
 30
0.0
  0
VERTEX
  8
1
  6
CONTINUOUS
 62
   110
  5
B9
 10
45.306833
 20
53.3505
 30
0.0
  0
VERTEX
  8
1
  6
CONTINUOUS
 62
   110
  5
BA
 10
45.306833
 20
53.297583
 30
0.0
  0
SEQEND
  8
1
  6
CONTINUOUS
 62
   110
  5
BB
  0
POLYLINE
  8
1
  6
CONTINUOUS
 62
   110
  5
BC
 66
     1
 10
0.0
 20
0.0
 30
0.0
  0
VERTEX
  8
1
  6
CONTINUOUS
 62
   110
  5
BD
 10
44.552583
 20
54.614583
 30
0.0
  0
VERTEX
  8
1
  6
CONTINUOUS
 62
   110
  5
BE
 10
44.605583
 20
54.614583
 30
0.0
  0
VERTEX
  8
1
  6
CONTINUOUS
 62
   110
  5
BF
 10
44.605583
 20
54.6675
 30
0.0
  0
VERTEX
  8
1
  6
CONTINUOUS
 62
   110
  5
C0
 10
44.552583
 20
54.6675
 30
0.0
  0
VERTEX
  8
1
  6
CONTINUOUS
 62
   110
  5
C1
 10
44.552583
 20
54.614583
 30
0.0
  0
SEQEND
  8
1
  6
CONTINUOUS
 62
   110
  5
C2
  0
POLYLINE
  8
1
  6
DASHDOT
 62
   110
  5
C3
 66
     1
 10
0.0
 20
0.0
 30
0.0
  0
VERTEX
  8
1
  6
DASHDOT
 62
   110
  5
C4
 10
44.941333
 20
54.62025
 30
0.0
  0
VERTEX
  8
1
  6
DASHDOT
 62
   110
  5
C5
 10
44.994333
 20
54.62025
 30
0.0
  0
VERTEX
  8
1
  6
DASHDOT
 62
   110
  5
C6
 10
44.994333
 20
54.673167
 30
0.0
  0
VERTEX
  8
1
  6
DASHDOT
 62
   110
  5
C7
 10
44.941333
 20
54.673167
 30
0.0
  0
VERTEX
  8
1
  6
DASHDOT
 62
   110
  5
C8
 10
44.941333
 20
54.62025
 30
0.0
  0
SEQEND
  8
1
  6
DASHDOT
 62
   110
  5
C9
  0
POLYLINE
  8
1
  6
CONTINUOUS
 62
   110
  5
CA
 66
     1
 10
0.0
 20
0.0
 30
0.0
  0
VERTEX
  8
1
  6
CONTINUOUS
 62
   110
  5
CB
 10
45.317833
 20
54.62025
 30
0.0
  0
VERTEX
  8
1
  6
CONTINUOUS
 62
   110
  5
CC
 10
45.370833
 20
54.62025
 30
0.0
  0
VERTEX
  8
1
  6
CONTINUOUS
 62
   110
  5
CD
 10
45.370833
 20
54.673167
 30
0.0
  0
VERTEX
  8
1
  6
CONTINUOUS
 62
   110
  5
CE
 10
45.317833
 20
54.673167
 30
0.0
  0
VERTEX
  8
1
  6
CONTINUOUS
 62
   110
  5
CF
 10
45.317833
 20
54.62025
 30
0.0
  0
SEQEND
  8
1
  6
CONTINUOUS
 62
   110
  5
D0
  0
POLYLINE
  8
1
  6
CONTINUOUS
 62
   110
  5
D1
 66
     1
 10
0.0
 20
0.0
 30
0.0
  0
VERTEX
  8
1
  6
CONTINUOUS
 62
   110
  5
D2
 10
45.493417
 20
54.62025
 30
0.0
  0
VERTEX
  8
1
  6
CONTINUOUS
 62
   110
  5
D3
 10
45.546417
 20
54.62025
 30
0.0
  0
VERTEX
  8
1
  6
CONTINUOUS
 62
   110
  5
D4
 10
45.546417
 20
54.673167
 30
0.0
  0
VERTEX
  8
1
  6
CONTINUOUS
 62
   110
  5
D5
 10
45.493417
 20
54.673167
 30
0.0
  0
VERTEX
  8
1
  6
CONTINUOUS
 62
   110
  5
D6
 10
45.493417
 20
54.62025
 30
0.0
  0
SEQEND
  8
1
  6
CONTINUOUS
 62
   110
  5
D7
  0
POLYLINE
  8
1
  6
CONTINUOUS
 62
   110
  5
D8
 66
     1
 10
0.0
 20
0.0
 30
0.0
  0
VERTEX
  8
1
  6
CONTINUOUS
 62
   110
  5
D9
 10
44.563667
 20
54.216333
 30
0.0
  0
VERTEX
  8
1
  6
CONTINUOUS
 62
   110
  5
DA
 10
44.616667
 20
54.216333
 30
0.0
  0
VERTEX
  8
1
  6
CONTINUOUS
 62
   110
  5
DB
 10
44.616667
 20
54.269333
 30
0.0
  0
VERTEX
  8
1
  6
CONTINUOUS
 62
   110
  5
DC
 10
44.563667
 20
54.269333
 30
0.0
  0
VERTEX
  8
1
  6
CONTINUOUS
 62
   110
  5
DD
 10
44.563667
 20
54.216333
 30
0.0
  0
SEQEND
  8
1
  6
CONTINUOUS
 62
   110
  5
DE
  0
POLYLINE
  8
1
  6
CONTINUOUS
 62
   110
  5
DF
 66
     1
 10
0.0
 20
0.0
 30
0.0
  0
VERTEX
  8
1
  6
CONTINUOUS
 62
   110
  5
E0
 10
44.93025
 20
54.216333
 30
0.0
  0
VERTEX
  8
1
  6
CONTINUOUS
 62
   110
  5
E1
 10
44.98325
 20
54.216333
 30
0.0
  0
VERTEX
  8
1
  6
CONTINUOUS
 62
   110
  5
E2
 10
44.98325
 20
54.269333
 30
0.0
  0
VERTEX
  8
1
  6
CONTINUOUS
 62
   110
  5
E3
 10
44.93025
 20
54.269333
 30
0.0
  0
VERTEX
  8
1
  6
CONTINUOUS
 62
   110
  5
E4
 10
44.93025
 20
54.216333
 30
0.0
  0
SEQEND
  8
1
  6
CONTINUOUS
 62
   110
  5
E5
  0
POLYLINE
  8
1
  6
CONTINUOUS
 62
   110
  5
E6
 66
     1
 10
0.0
 20
0.0
 30
0.0
  0
VERTEX
  8
1
  6
CONTINUOUS
 62
   110
  5
E7
 10
45.307917
 20
54.216333
 30
0.0
  0
VERTEX
  8
1
  6
CONTINUOUS
 62
   110
  5
E8
 10
45.360917
 20
54.216333
 30
0.0
  0
VERTEX
  8
1
  6
CONTINUOUS
 62
   110
  5
E9
 10
45.360917
 20
54.269333
 30
0.0
  0
VERTEX
  8
1
  6
CONTINUOUS
 62
   110
  5
EA
 10
45.307917
 20
54.269333
 30
0.0
  0
VERTEX
  8
1
  6
CONTINUOUS
 62
   110
  5
EB
 10
45.307917
 20
54.216333
 30
0.0
  0
SEQEND
  8
1
  6
CONTINUOUS
 62
   110
  5
EC
  0
POLYLINE
  8
1
  6
CONTINUOUS
 62
   110
  5
ED
 66
     1
 10
0.0
 20
0.0
 30
0.0
  0
VERTEX
  8
1
  6
CONTINUOUS
 62
   110
  5
EE
 10
45.51
 20
54.216333
 30
0.0
  0
VERTEX
  8
1
  6
CONTINUOUS
 62
   110
  5
EF
 10
45.563
 20
54.216333
 30
0.0
  0
VERTEX
  8
1
  6
CONTINUOUS
 62
   110
  5
F0
 10
45.563
 20
54.269333
 30
0.0
  0
VERTEX
  8
1
  6
CONTINUOUS
 62
   110
  5
F1
 10
45.51
 20
54.269333
 30
0.0
  0
VERTEX
  8
1
  6
CONTINUOUS
 62
   110
  5
F2
 10
45.51
 20
54.216333
 30
0.0
  0
SEQEND
  8
1
  6
CONTINUOUS
 62
   110
  5
F3
  0
POLYLINE
  8
1
  6
CONTINUOUS
 62
   110
  5
F4
 66
     1
 10
0.0
 20
0.0
 30
0.0
  0
VERTEX
  8
1
  6
CONTINUOUS
 62
   110
  5
F5
 10
44.940167
 20
53.849583
 30
0.0
  0
VERTEX
  8
1
  6
CONTINUOUS
 62
   110
  5
F6
 10
44.993167
 20
53.849583
 30
0.0
  0
VERTEX
  8
1
  6
CONTINUOUS
 62
   110
  5
F7
 10
44.993167
 20
53.902583
 30
0.0
  0
VERTEX
  8
1
  6
CONTINUOUS
 62
   110
  5
F8
 10
44.940167
 20
53.902583
 30
0.0
  0
VERTEX
  8
1
  6
CONTINUOUS
 62
   110
  5
F9
 10
44.940167
 20
53.849583
 30
0.0
  0
SEQEND
  8
1
  6
CONTINUOUS
 62
   110
  5
FA
  0
POLYLINE
  8
1
  6
CONTINUOUS
 62
   110
  5
FB
 66
     1
 10
0.0
 20
0.0
 30
0.0
  0
VERTEX
  8
1
  6
CONTINUOUS
 62
   110
  5
FC
 10
45.312333
 20
53.849583
 30
0.0
  0
VERTEX
  8
1
  6
CONTINUOUS
 62
   110
  5
FD
 10
45.365333
 20
53.849583
 30
0.0
  0
VERTEX
  8
1
  6
CONTINUOUS
 62
   110
  5
FE
 10
45.365333
 20
53.902583
 30
0.0
  0
VERTEX
  8
1
  6
CONTINUOUS
 62
   110
  5
FF
 10
45.312333
 20
53.902583
 30
0.0
  0
VERTEX
  8
1
  6
CONTINUOUS
 62
   110
  5
100
 10
45.312333
 20
53.849583
 30
0.0
  0
SEQEND
  8
1
  6
CONTINUOUS
 62
   110
  5
101
  0
POLYLINE
  8
1
  6
CONTINUOUS
 62
   110
  5
102
 66
     1
 10
0.0
 20
0.0
 30
0.0
  0
VERTEX
  8
1
  6
CONTINUOUS
 62
   110
  5
103
 10
45.701
 20
53.849583
 30
0.0
  0
VERTEX
  8
1
  6
CONTINUOUS
 62
   110
  5
104
 10
45.754
 20
53.849583
 30
0.0
  0
VERTEX
  8
1
  6
CONTINUOUS
 62
   110
  5
105
 10
45.754
 20
53.902583
 30
0.0
  0
VERTEX
  8
1
  6
CONTINUOUS
 62
   110
  5
106
 10
45.701
 20
53.902583
 30
0.0
  0
VERTEX
  8
1
  6
CONTINUOUS
 62
   110
  5
107
 10
45.701
 20
53.849583
 30
0.0
  0
SEQEND
  8
1
  6
CONTINUOUS
 62
   110
  5
108
  0
POLYLINE
  8
1
  6
CONTINUOUS
 62
   110
  5
109
 66
     1
 10
0.0
 20
0.0
 30
0.0
  0
VERTEX
  8
1
  6
CONTINUOUS
 62
   110
  5
10A
 10
45.701
 20
53.291917
 30
0.0
  0
VERTEX
  8
1
  6
CONTINUOUS
 62
   110
  5
10B
 10
45.754
 20
53.291917
 30
0.0
  0
VERTEX
  8
1
  6
CONTINUOUS
 62
   110
  5
10C
 10
45.754
 20
53.344833
 30
0.0
  0
VERTEX
  8
1
  6
CONTINUOUS
 62
   110
  5
10D
 10
45.701
 20
53.344833
 30
0.0
  0
VERTEX
  8
1
  6
CONTINUOUS
 62
   110
  5
10E
 10
45.701
 20
53.291917
 30
0.0
  0
SEQEND
  8
1
  6
CONTINUOUS
 62
   110
  5
10F
  0
POLYLINE
  8
1
  6
CONTINUOUS
 62
   110
  5
110
 66
     1
 10
0.0
 20
0.0
 30
0.0
  0
VERTEX
  8
1
  6
CONTINUOUS
 62
   110
  5
111
 10
45.306833
 20
53.096
 30
0.0
  0
VERTEX
  8
1
  6
CONTINUOUS
 62
   110
  5
112
 10
45.354333
 20
53.074167
 30
0.0
  0
VERTEX
  8
1
  6
CONTINUOUS
 62
   110
  5
113
 10
45.376167
 20
53.121583
 30
0.0
  0
VERTEX
  8
1
  6
CONTINUOUS
 62
   110
  5
114
 10
45.328667
 20
53.143417
 30
0.0
  0
VERTEX
  8
1
  6
CONTINUOUS
 62
   110
  5
115
 10
45.306833
 20
53.096
 30
0.0
  0
SEQEND
  8
1
  6
CONTINUOUS
 62
   110
  5
116
  0
POLYLINE
  8
1
  6
CONTINUOUS
 62
   110
  5
117
 66
     1
 10
0.0
 20
0.0
 30
0.0
  0
VERTEX
  8
1
  6
CONTINUOUS
 62
   110
  5
118
 10
46.1405
 20
53.096
 30
0.0
  0
VERTEX
  8
1
  6
CONTINUOUS
 62
   110
  5
119
 10
46.093
 20
53.074167
 30
0.0
  0
VERTEX
  8
1
  6
CONTINUOUS
 62
   110
  5
11A
 10
46.071167
 20
53.121583
 30
0.0
  0
VERTEX
  8
1
  6
CONTINUOUS
 62
   110
  5
11B
 10
46.118667
 20
53.143417
 30
0.0
  0
VERTEX
  8
1
  6
CONTINUOUS
 62
   110
  5
11C
 10
46.1405
 20
53.096
 30
0.0
  0
SEQEND
  8
1
  6
CONTINUOUS
 62
   110
  5
11D
  0
POLYLINE
  8
1
  6
CONTINUOUS
 62
   110
  5
11E
 66
     1
 10
0.0
 20
0.0
 30
0.0
  0
VERTEX
  8
1
  6
CONTINUOUS
 62
   110
  5
11F
 10
46.134917
 20
53.849583
 30
0.0
  0
VERTEX
  8
1
  6
CONTINUOUS
 62
   110
  5
120
 10
46.082
 20
53.849583
 30
0.0
  0
VERTEX
  8
1
  6
CONTINUOUS
 62
   110
  5
121
 10
46.082
 20
53.902583
 30
0.0
  0
VERTEX
  8
1
  6
CONTINUOUS
 62
   110
  5
122
 10
46.134917
 20
53.902583
 30
0.0
  0
VERTEX
  8
1
  6
CONTINUOUS
 62
   110
  5
123
 10
46.134917
 20
53.849583
 30
0.0
  0
SEQEND
  8
1
  6
CONTINUOUS
 62
   110
  5
124
  0
POLYLINE
  8
1
  6
CONTINUOUS
 62
   110
  5
125
 66
     1
 10
0.0
 20
0.0
 30
0.0
  0
VERTEX
  8
1
  6
CONTINUOUS
 62
   110
  5
126
 10
46.507167
 20
53.849583
 30
0.0
  0
VERTEX
  8
1
  6
CONTINUOUS
 62
   110
  5
127
 10
46.454083
 20
53.849583
 30
0.0
  0
VERTEX
  8
1
  6
CONTINUOUS
 62
   110
  5
128
 10
46.454083
 20
53.902583
 30
0.0
  0
VERTEX
  8
1
  6
CONTINUOUS
 62
   110
  5
129
 10
46.507167
 20
53.902583
 30
0.0
  0
VERTEX
  8
1
  6
CONTINUOUS
 62
   110
  5
12A
 10
46.507167
 20
53.849583
 30
0.0
  0
SEQEND
  8
1
  6
CONTINUOUS
 62
   110
  5
12B
  0
POLYLINE
  8
1
  6
CONTINUOUS
 62
   110
  5
12C
 66
     1
 10
0.0
 20
0.0
 30
0.0
  0
VERTEX
  8
1
  6
CONTINUOUS
 62
   110
  5
12D
 10
45.93725
 20
54.216333
 30
0.0
  0
VERTEX
  8
1
  6
CONTINUOUS
 62
   110
  5
12E
 10
45.884333
 20
54.216333
 30
0.0
  0
VERTEX
  8
1
  6
CONTINUOUS
 62
   110
  5
12F
 10
45.884333
 20
54.269333
 30
0.0
  0
VERTEX
  8
1
  6
CONTINUOUS
 62
   110
  5
130
 10
45.93725
 20
54.269333
 30
0.0
  0
VERTEX
  8
1
  6
CONTINUOUS
 62
   110
  5
131
 10
45.93725
 20
54.216333
 30
0.0
  0
SEQEND
  8
1
  6
CONTINUOUS
 62
   110
  5
132
  0
POLYLINE
  8
1
  6
CONTINUOUS
 62
   110
  5
133
 66
     1
 10
0.0
 20
0.0
 30
0.0
  0
VERTEX
  8
1
  6
CONTINUOUS
 62
   110
  5
134
 10
46.139417
 20
54.216333
 30
0.0
  0
VERTEX
  8
1
  6
CONTINUOUS
 62
   110
  5
135
 10
46.086333
 20
54.216333
 30
0.0
  0
VERTEX
  8
1
  6
CONTINUOUS
 62
   110
  5
136
 10
46.086333
 20
54.269333
 30
0.0
  0
VERTEX
  8
1
  6
CONTINUOUS
 62
   110
  5
137
 10
46.139417
 20
54.269333
 30
0.0
  0
VERTEX
  8
1
  6
CONTINUOUS
 62
   110
  5
138
 10
46.139417
 20
54.216333
 30
0.0
  0
SEQEND
  8
1
  6
CONTINUOUS
 62
   110
  5
139
  0
POLYLINE
  8
1
  6
CONTINUOUS
 62
   110
  5
13A
 66
     1
 10
0.0
 20
0.0
 30
0.0
  0
VERTEX
  8
1
  6
CONTINUOUS
 62
   110
  5
13B
 10
46.517083
 20
54.216333
 30
0.0
  0
VERTEX
  8
1
  6
CONTINUOUS
 62
   110
  5
13C
 10
46.464083
 20
54.216333
 30
0.0
  0
VERTEX
  8
1
  6
CONTINUOUS
 62
   110
  5
13D
 10
46.464083
 20
54.269333
 30
0.0
  0
VERTEX
  8
1
  6
CONTINUOUS
 62
   110
  5
13E
 10
46.517083
 20
54.269333
 30
0.0
  0
VERTEX
  8
1
  6
CONTINUOUS
 62
   110
  5
13F
 10
46.517083
 20
54.216333
 30
0.0
  0
SEQEND
  8
1
  6
CONTINUOUS
 62
   110
  5
140
  0
POLYLINE
  8
1
  6
CONTINUOUS
 62
   110
  5
141
 66
     1
 10
0.0
 20
0.0
 30
0.0
  0
VERTEX
  8
1
  6
CONTINUOUS
 62
   110
  5
142
 10
46.883667
 20
54.216333
 30
0.0
  0
VERTEX
  8
1
  6
CONTINUOUS
 62
   110
  5
143
 10
46.830667
 20
54.216333
 30
0.0
  0
VERTEX
  8
1
  6
CONTINUOUS
 62
   110
  5
144
 10
46.830667
 20
54.269333
 30
0.0
  0
VERTEX
  8
1
  6
CONTINUOUS
 62
   110
  5
145
 10
46.883667
 20
54.269333
 30
0.0
  0
VERTEX
  8
1
  6
CONTINUOUS
 62
   110
  5
146
 10
46.883667
 20
54.216333
 30
0.0
  0
SEQEND
  8
1
  6
CONTINUOUS
 62
   110
  5
147
  0
POLYLINE
  8
1
  6
CONTINUOUS
 62
   110
  5
148
 66
     1
 10
0.0
 20
0.0
 30
0.0
  0
VERTEX
  8
1
  6
CONTINUOUS
 62
   110
  5
149
 10
45.953917
 20
54.62025
 30
0.0
  0
VERTEX
  8
1
  6
CONTINUOUS
 62
   110
  5
14A
 10
45.900917
 20
54.62025
 30
0.0
  0
VERTEX
  8
1
  6
CONTINUOUS
 62
   110
  5
14B
 10
45.900917
 20
54.673167
 30
0.0
  0
VERTEX
  8
1
  6
CONTINUOUS
 62
   110
  5
14C
 10
45.953917
 20
54.673167
 30
0.0
  0
VERTEX
  8
1
  6
CONTINUOUS
 62
   110
  5
14D
 10
45.953917
 20
54.62025
 30
0.0
  0
SEQEND
  8
1
  6
CONTINUOUS
 62
   110
  5
14E
  0
POLYLINE
  8
1
  6
CONTINUOUS
 62
   110
  5
14F
 66
     1
 10
0.0
 20
0.0
 30
0.0
  0
VERTEX
  8
1
  6
CONTINUOUS
 62
   110
  5
150
 10
46.1295
 20
54.62025
 30
0.0
  0
VERTEX
  8
1
  6
CONTINUOUS
 62
   110
  5
151
 10
46.0765
 20
54.62025
 30
0.0
  0
VERTEX
  8
1
  6
CONTINUOUS
 62
   110
  5
152
 10
46.0765
 20
54.673167
 30
0.0
  0
VERTEX
  8
1
  6
CONTINUOUS
 62
   110
  5
153
 10
46.1295
 20
54.673167
 30
0.0
  0
VERTEX
  8
1
  6
CONTINUOUS
 62
   110
  5
154
 10
46.1295
 20
54.62025
 30
0.0
  0
SEQEND
  8
1
  6
CONTINUOUS
 62
   110
  5
155
  0
POLYLINE
  8
1
  6
DASHDOT
 62
   110
  5
156
 66
     1
 10
0.0
 20
0.0
 30
0.0
  0
VERTEX
  8
1
  6
DASHDOT
 62
   110
  5
157
 10
46.506
 20
54.62025
 30
0.0
  0
VERTEX
  8
1
  6
DASHDOT
 62
   110
  5
158
 10
46.453
 20
54.62025
 30
0.0
  0
VERTEX
  8
1
  6
DASHDOT
 62
   110
  5
159
 10
46.453
 20
54.673167
 30
0.0
  0
VERTEX
  8
1
  6
DASHDOT
 62
   110
  5
15A
 10
46.506
 20
54.673167
 30
0.0
  0
VERTEX
  8
1
  6
DASHDOT
 62
   110
  5
15B
 10
46.506
 20
54.62025
 30
0.0
  0
SEQEND
  8
1
  6
DASHDOT
 62
   110
  5
15C
  0
POLYLINE
  8
1
  6
CONTINUOUS
 62
   110
  5
15D
 66
     1
 10
0.0
 20
0.0
 30
0.0
  0
VERTEX
  8
1
  6
CONTINUOUS
 62
   110
  5
15E
 10
46.894667
 20
54.614583
 30
0.0
  0
VERTEX
  8
1
  6
CONTINUOUS
 62
   110
  5
15F
 10
46.84175
 20
54.614583
 30
0.0
  0
VERTEX
  8
1
  6
CONTINUOUS
 62
   110
  5
160
 10
46.84175
 20
54.6675
 30
0.0
  0
VERTEX
  8
1
  6
CONTINUOUS
 62
   110
  5
161
 10
46.894667
 20
54.6675
 30
0.0
  0
VERTEX
  8
1
  6
CONTINUOUS
 62
   110
  5
162
 10
46.894667
 20
54.614583
 30
0.0
  0
SEQEND
  8
1
  6
CONTINUOUS
 62
   110
  5
163
  0
POLYLINE
  8
1
  6
CONTINUOUS
 62
   110
  5
164
 66
     1
 10
0.0
 20
0.0
 30
0.0
  0
VERTEX
  8
1
  6
CONTINUOUS
 62
   110
  5
165
 10
46.1405
 20
53.297583
 30
0.0
  0
VERTEX
  8
1
  6
CONTINUOUS
 62
   110
  5
166
 10
46.0875
 20
53.297583
 30
0.0
  0
VERTEX
  8
1
  6
CONTINUOUS
 62
   110
  5
167
 10
46.0875
 20
53.3505
 30
0.0
  0
VERTEX
  8
1
  6
CONTINUOUS
 62
   110
  5
168
 10
46.1405
 20
53.3505
 30
0.0
  0
VERTEX
  8
1
  6
CONTINUOUS
 62
   110
  5
169
 10
46.1405
 20
53.297583
 30
0.0
  0
SEQEND
  8
1
  6
CONTINUOUS
 62
   110
  5
16A
  0
POLYLINE
  8
1
  6
CONTINUOUS
 62
   110
  5
16B
 66
     1
 10
0.0
 20
0.0
 30
0.0
  0
VERTEX
  8
1
  6
CONTINUOUS
 62
   110
  5
16C
 10
46.730167
 20
53.424667
 30
0.0
  0
VERTEX
  8
1
  6
CONTINUOUS
 62
   110
  5
16D
 10
46.677083
 20
53.424667
 30
0.0
  0
VERTEX
  8
1
  6
CONTINUOUS
 62
   110
  5
16E
 10
46.677083
 20
53.477667
 30
0.0
  0
VERTEX
  8
1
  6
CONTINUOUS
 62
   110
  5
16F
 10
46.730167
 20
53.477667
 30
0.0
  0
VERTEX
  8
1
  6
CONTINUOUS
 62
   110
  5
170
 10
46.730167
 20
53.424667
 30
0.0
  0
SEQEND
  8
1
  6
CONTINUOUS
 62
   110
  5
171
  0
POLYLINE
  8
1
  6
CONTINUOUS
 62
   110
  5
172
 66
     1
 10
0.0
 20
0.0
 30
0.0
  0
VERTEX
  8
1
  6
CONTINUOUS
 62
   110
  5
173
 10
46.90025
 20
53.849583
 30
0.0
  0
VERTEX
  8
1
  6
CONTINUOUS
 62
   110
  5
174
 10
46.84725
 20
53.849583
 30
0.0
  0
VERTEX
  8
1
  6
CONTINUOUS
 62
   110
  5
175
 10
46.84725
 20
53.902583
 30
0.0
  0
VERTEX
  8
1
  6
CONTINUOUS
 62
   110
  5
176
 10
46.90025
 20
53.902583
 30
0.0
  0
VERTEX
  8
1
  6
CONTINUOUS
 62
   110
  5
177
 10
46.90025
 20
53.849583
 30
0.0
  0
SEQEND
  8
1
  6
CONTINUOUS
 62
   110
  5
178
  0
POLYLINE
  8
1
  6
CONTINUOUS
 62
   110
  5
179
 66
     1
 10
0.0
 20
0.0
 30
0.0
  0
VERTEX
  8
1
  6
CONTINUOUS
 62
   110
  5
17A
 10
47.096833
 20
54.02525
 30
0.0
  0
VERTEX
  8
1
  6
CONTINUOUS
 62
   110
  5
17B
 10
47.04375
 20
54.02525
 30
0.0
  0
VERTEX
  8
1
  6
CONTINUOUS
 62
   110
  5
17C
 10
47.04375
 20
54.07825
 30
0.0
  0
VERTEX
  8
1
  6
CONTINUOUS
 62
   110
  5
17D
 10
47.096833
 20
54.07825
 30
0.0
  0
VERTEX
  8
1
  6
CONTINUOUS
 62
   110
  5
17E
 10
47.096833
 20
54.02525
 30
0.0
  0
SEQEND
  8
1
  6
CONTINUOUS
 62
   110
  5
17F
  0
POLYLINE
  8
1
  6
CONTINUOUS
 62
   110
  5
180
 66
     1
 10
0.0
 20
0.0
 30
0.0
  0
VERTEX
  8
1
  6
CONTINUOUS
 62
   110
  5
181
 10
47.13325
 20
54.216333
 30
0.0
  0
VERTEX
  8
1
  6
CONTINUOUS
 62
   110
  5
182
 10
47.08025
 20
54.216333
 30
0.0
  0
VERTEX
  8
1
  6
CONTINUOUS
 62
   110
  5
183
 10
47.08025
 20
54.269333
 30
0.0
  0
VERTEX
  8
1
  6
CONTINUOUS
 62
   110
  5
184
 10
47.13325
 20
54.269333
 30
0.0
  0
VERTEX
  8
1
  6
CONTINUOUS
 62
   110
  5
185
 10
47.13325
 20
54.216333
 30
0.0
  0
SEQEND
  8
1
  6
CONTINUOUS
 62
   110
  5
186
  0
POLYLINE
  8
1
  6
CONTINUOUS
 62
   110
  5
187
 66
     1
 10
0.0
 20
0.0
 30
0.0
  0
VERTEX
  8
1
  6
CONTINUOUS
 62
   110
  5
188
 10
47.138667
 20
54.4235
 30
0.0
  0
VERTEX
  8
1
  6
CONTINUOUS
 62
   110
  5
189
 10
47.08575
 20
54.4235
 30
0.0
  0
VERTEX
  8
1
  6
CONTINUOUS
 62
   110
  5
18A
 10
47.08575
 20
54.4765
 30
0.0
  0
VERTEX
  8
1
  6
CONTINUOUS
 62
   110
  5
18B
 10
47.138667
 20
54.4765
 30
0.0
  0
VERTEX
  8
1
  6
CONTINUOUS
 62
   110
  5
18C
 10
47.138667
 20
54.4235
 30
0.0
  0
SEQEND
  8
1
  6
CONTINUOUS
 62
   110
  5
18D
  0
POLYLINE
  8
1
  6
CONTINUOUS
 62
   110
  5
18E
 66
     1
 10
0.0
 20
0.0
 30
0.0
  0
VERTEX
  8
1
  6
CONTINUOUS
 62
   110
  5
18F
 10
47.13325
 20
54.62025
 30
0.0
  0
VERTEX
  8
1
  6
CONTINUOUS
 62
   110
  5
190
 10
47.08025
 20
54.62025
 30
0.0
  0
VERTEX
  8
1
  6
CONTINUOUS
 62
   110
  5
191
 10
47.08025
 20
54.673167
 30
0.0
  0
VERTEX
  8
1
  6
CONTINUOUS
 62
   110
  5
192
 10
47.13325
 20
54.673167
 30
0.0
  0
VERTEX
  8
1
  6
CONTINUOUS
 62
   110
  5
193
 10
47.13325
 20
54.62025
 30
0.0
  0
SEQEND
  8
1
  6
CONTINUOUS
 62
   110
  5
194
  0
POLYLINE
  8
1
  6
CONTINUOUS
 62
   110
  5
195
 66
     1
 10
0.0
 20
0.0
 30
0.0
  0
VERTEX
  8
1
  6
CONTINUOUS
 62
   110
  5
196
 10
47.096833
 20
54.81125
 30
0.0
  0
VERTEX
  8
1
  6
CONTINUOUS
 62
   110
  5
197
 10
47.04375
 20
54.81125
 30
0.0
  0
VERTEX
  8
1
  6
CONTINUOUS
 62
   110
  5
198
 10
47.04375
 20
54.86425
 30
0.0
  0
VERTEX
  8
1
  6
CONTINUOUS
 62
   110
  5
199
 10
47.096833
 20
54.86425
 30
0.0
  0
VERTEX
  8
1
  6
CONTINUOUS
 62
   110
  5
19A
 10
47.096833
 20
54.81125
 30
0.0
  0
SEQEND
  8
1
  6
CONTINUOUS
 62
   110
  5
19B
  0
POLYLINE
  8
1
  6
CONTINUOUS
 62
   110
  5
19C
 66
     1
 10
0.0
 20
0.0
 30
0.0
  0
VERTEX
  8
1
  6
CONTINUOUS
 62
   110
  5
19D
 10
46.134917
 20
54.981167
 30
0.0
  0
VERTEX
  8
1
  6
CONTINUOUS
 62
   110
  5
19E
 10
46.082
 20
54.981167
 30
0.0
  0
VERTEX
  8
1
  6
CONTINUOUS
 62
   110
  5
19F
 10
46.082
 20
55.03425
 30
0.0
  0
VERTEX
  8
1
  6
CONTINUOUS
 62
   110
  5
1A0
 10
46.134917
 20
55.03425
 30
0.0
  0
VERTEX
  8
1
  6
CONTINUOUS
 62
   110
  5
1A1
 10
46.134917
 20
54.981167
 30
0.0
  0
SEQEND
  8
1
  6
CONTINUOUS
 62
   110
  5
1A2
  0
POLYLINE
  8
1
  6
CONTINUOUS
 62
   110
  5
1A3
 66
     1
 10
0.0
 20
0.0
 30
0.0
  0
VERTEX
  8
1
  6
CONTINUOUS
 62
   110
  5
1A4
 10
46.522583
 20
54.981167
 30
0.0
  0
VERTEX
  8
1
  6
CONTINUOUS
 62
   110
  5
1A5
 10
46.469583
 20
54.981167
 30
0.0
  0
VERTEX
  8
1
  6
CONTINUOUS
 62
   110
  5
1A6
 10
46.469583
 20
55.03425
 30
0.0
  0
VERTEX
  8
1
  6
CONTINUOUS
 62
   110
  5
1A7
 10
46.522583
 20
55.03425
 30
0.0
  0
VERTEX
  8
1
  6
CONTINUOUS
 62
   110
  5
1A8
 10
46.522583
 20
54.981167
 30
0.0
  0
SEQEND
  8
1
  6
CONTINUOUS
 62
   110
  5
1A9
  0
POLYLINE
  8
1
  6
CONTINUOUS
 62
   110
  5
1AA
 66
     1
 10
0.0
 20
0.0
 30
0.0
  0
VERTEX
  8
1
  6
CONTINUOUS
 62
   110
  5
1AB
 10
46.90575
 20
54.981167
 30
0.0
  0
VERTEX
  8
1
  6
CONTINUOUS
 62
   110
  5
1AC
 10
46.85275
 20
54.981167
 30
0.0
  0
VERTEX
  8
1
  6
CONTINUOUS
 62
   110
  5
1AD
 10
46.85275
 20
55.03425
 30
0.0
  0
VERTEX
  8
1
  6
CONTINUOUS
 62
   110
  5
1AE
 10
46.90575
 20
55.03425
 30
0.0
  0
VERTEX
  8
1
  6
CONTINUOUS
 62
   110
  5
1AF
 10
46.90575
 20
54.981167
 30
0.0
  0
SEQEND
  8
1
  6
CONTINUOUS
 62
   110
  5
1B0
  0
POLYLINE
  8
1
  6
CONTINUOUS
 62
   110
  5
1B1
 66
     1
 10
0.0
 20
0.0
 30
0.0
  0
VERTEX
  8
1
  6
CONTINUOUS
 62
   110
  5
1B2
 10
46.1295
 20
55.58675
 30
0.0
  0
VERTEX
  8
1
  6
CONTINUOUS
 62
   110
  5
1B3
 10
46.0765
 20
55.58675
 30
0.0
  0
VERTEX
  8
1
  6
CONTINUOUS
 62
   110
  5
1B4
 10
46.0765
 20
55.639667
 30
0.0
  0
VERTEX
  8
1
  6
CONTINUOUS
 62
   110
  5
1B5
 10
46.1295
 20
55.639667
 30
0.0
  0
VERTEX
  8
1
  6
CONTINUOUS
 62
   110
  5
1B6
 10
46.1295
 20
55.58675
 30
0.0
  0
SEQEND
  8
1
  6
CONTINUOUS
 62
   110
  5
1B7
  0
POLYLINE
  8
1
  6
CONTINUOUS
 62
   110
  5
1B8
 66
     1
 10
0.0
 20
0.0
 30
0.0
  0
VERTEX
  8
1
  6
CONTINUOUS
 62
   110
  5
1B9
 10
46.156
 20
55.751833
 30
0.0
  0
VERTEX
  8
1
  6
CONTINUOUS
 62
   110
  5
1BA
 10
46.102917
 20
55.751833
 30
0.0
  0
VERTEX
  8
1
  6
CONTINUOUS
 62
   110
  5
1BB
 10
46.102917
 20
55.804917
 30
0.0
  0
VERTEX
  8
1
  6
CONTINUOUS
 62
   110
  5
1BC
 10
46.156
 20
55.804917
 30
0.0
  0
VERTEX
  8
1
  6
CONTINUOUS
 62
   110
  5
1BD
 10
46.156
 20
55.751833
 30
0.0
  0
SEQEND
  8
1
  6
CONTINUOUS
 62
   110
  5
1BE
  0
POLYLINE
  8
1
  6
CONTINUOUS
 62
   110
  5
1BF
 66
     1
 10
0.0
 20
0.0
 30
0.0
  0
VERTEX
  8
1
  6
CONTINUOUS
 62
   110
  5
1C0
 10
46.74125
 20
55.411917
 30
0.0
  0
VERTEX
  8
1
  6
CONTINUOUS
 62
   110
  5
1C1
 10
46.68825
 20
55.411917
 30
0.0
  0
VERTEX
  8
1
  6
CONTINUOUS
 62
   110
  5
1C2
 10
46.68825
 20
55.464917
 30
0.0
  0
VERTEX
  8
1
  6
CONTINUOUS
 62
   110
  5
1C3
 10
46.74125
 20
55.464917
 30
0.0
  0
VERTEX
  8
1
  6
CONTINUOUS
 62
   110
  5
1C4
 10
46.74125
 20
55.411917
 30
0.0
  0
SEQEND
  8
1
  6
CONTINUOUS
 62
   110
  5
1C5
  0
ARC
  8
1
  6
CONTINUOUS
 62
   110
  5
1C6
 10
45.751667
 20
54.439917
 30
0.0
 40
1.516334
 50
273.262725
 51
86.528289
210
0.0
220
0.0
230
1.0
  0
ARC
  8
1
  6
CONTINUOUS
 62
   110
  5
1C7
 10
45.723667
 20
55.997
 30
0.0
 40
0.127479
 50
199.974161
 51
340.025836
210
0.0
220
0.0
230
1.0
  0
ARC
  8
1
  6
CONTINUOUS
 62
   110
  5
1C8
 10
45.723667
 20
52.916
 30
0.0
 40
0.114728
 50
5.010936
 51
174.989058
210
0.0
220
0.0
230
1.0
  0
LINE
  8
1
  6
CONTINUOUS
 62
   110
  5
1C9
 10
41.552833
 20
48.487417
 30
0.0
 11
44.5575
 21
48.487417
 31
0.0
  0
LINE
  8
1
  6
CONTINUOUS
 62
   110
  5
1CA
 10
44.5575
 20
48.487417
 30
0.0
 11
44.5575
 21
48.365167
 31
0.0
  0
LINE
  8
1
  6
CONTINUOUS
 62
   110
  5
1CB
 10
41.552833
 20
48.365167
 30
0.0
 11
44.5575
 21
48.365167
 31
0.0
  0
LINE
  8
1
  6
CONTINUOUS
 62
   110
  5
1CC
 10
41.552833
 20
48.487417
 30
0.0
 11
41.552833
 21
48.365167
 31
0.0
  0
LINE
  8
1
  6
CONTINUOUS
 62
   110
  5
1CD
 10
41.929417
 20
48.365167
 30
0.0
 11
42.678083
 21
48.126417
 31
0.0
  0
LINE
  8
1
  6
CONTINUOUS
 62
   110
  5
1CE
 10
42.678083
 20
48.126417
 30
0.0
 11
43.433417
 21
48.126417
 31
0.0
  0
LINE
  8
1
  6
CONTINUOUS
 62
   110
  5
1CF
 10
43.433417
 20
48.126417
 30
0.0
 11
44.188667
 21
48.365167
 31
0.0
  0
LINE
  8
1
  6
CONTINUOUS
 62
   110
  5
1D0
 10
42.887917
 20
48.365167
 30
0.0
 11
42.985083
 21
48.126417
 31
0.0
  0
LINE
  8
1
  6
CONTINUOUS
 62
   110
  5
1D1
 10
43.237917
 20
48.365167
 30
0.0
 11
43.133
 21
48.126417
 31
0.0
  0
LINE
  8
1
  6
CONTINUOUS
 62
   110
  5
1D2
 10
41.552833
 20
48.487417
 30
0.0
 11
41.552833
 21
48.548917
 31
0.0
  0
LINE
  8
1
  6
CONTINUOUS
 62
   110
  5
1D3
 10
41.552833
 20
48.548917
 30
0.0
 11
41.608083
 21
48.548917
 31
0.0
  0
LINE
  8
1
  6
CONTINUOUS
 62
   110
  5
1D4
 10
41.608083
 20
48.487417
 30
0.0
 11
41.608083
 21
48.548917
 31
0.0
  0
LINE
  8
1
  6
CONTINUOUS
 62
   110
  5
1D5
 10
41.94125
 20
48.487417
 30
0.0
 11
41.94125
 21
48.548917
 31
0.0
  0
LINE
  8
1
  6
CONTINUOUS
 62
   110
  5
1D6
 10
41.886
 20
48.548917
 30
0.0
 11
41.94125
 21
48.548917
 31
0.0
  0
LINE
  8
1
  6
CONTINUOUS
 62
   110
  5
1D7
 10
41.886
 20
48.487417
 30
0.0
 11
41.886
 21
48.548917
 31
0.0
  0
LINE
  8
1
  6
CONTINUOUS
 62
   110
  5
1D8
 10
42.317167
 20
48.487417
 30
0.0
 11
42.317167
 21
48.548917
 31
0.0
  0
LINE
  8
1
  6
CONTINUOUS
 62
   110
  5
1D9
 10
42.261917
 20
48.548917
 30
0.0
 11
42.317167
 21
48.548917
 31
0.0
  0
LINE
  8
1
  6
CONTINUOUS
 62
   110
  5
1DA
 10
42.261917
 20
48.487417
 30
0.0
 11
42.261917
 21
48.548917
 31
0.0
  0
LINE
  8
1
  6
CONTINUOUS
 62
   110
  5
1DB
 10
42.701417
 20
48.487417
 30
0.0
 11
42.701417
 21
48.548917
 31
0.0
  0
LINE
  8
1
  6
CONTINUOUS
 62
   110
  5
1DC
 10
42.64625
 20
48.548917
 30
0.0
 11
42.701417
 21
48.548917
 31
0.0
  0
LINE
  8
1
  6
CONTINUOUS
 62
   110
  5
1DD
 10
42.64625
 20
48.487417
 30
0.0
 11
42.64625
 21
48.548917
 31
0.0
  0
LINE
  8
1
  6
CONTINUOUS
 62
   110
  5
1DE
 10
43.071
 20
48.487417
 30
0.0
 11
43.071
 21
48.548917
 31
0.0
  0
LINE
  8
1
  6
CONTINUOUS
 62
   110
  5
1DF
 10
43.015833
 20
48.548917
 30
0.0
 11
43.071
 21
48.548917
 31
0.0
  0
LINE
  8
1
  6
CONTINUOUS
 62
   110
  5
1E0
 10
43.015833
 20
48.487417
 30
0.0
 11
43.015833
 21
48.548917
 31
0.0
  0
LINE
  8
1
  6
CONTINUOUS
 62
   110
  5
1E1
 10
43.448
 20
48.487417
 30
0.0
 11
43.448
 21
48.548917
 31
0.0
  0
LINE
  8
1
  6
CONTINUOUS
 62
   110
  5
1E2
 10
43.39275
 20
48.548917
 30
0.0
 11
43.448
 21
48.548917
 31
0.0
  0
LINE
  8
1
  6
CONTINUOUS
 62
   110
  5
1E3
 10
43.39275
 20
48.487417
 30
0.0
 11
43.39275
 21
48.548917
 31
0.0
  0
LINE
  8
1
  6
CONTINUOUS
 62
   110
  5
1E4
 10
43.828083
 20
48.487417
 30
0.0
 11
43.828083
 21
48.548917
 31
0.0
  0
LINE
  8
1
  6
CONTINUOUS
 62
   110
  5
1E5
 10
43.772833
 20
48.548917
 30
0.0
 11
43.828083
 21
48.548917
 31
0.0
  0
LINE
  8
1
  6
CONTINUOUS
 62
   110
  5
1E6
 10
43.772833
 20
48.487417
 30
0.0
 11
43.772833
 21
48.548917
 31
0.0
  0
LINE
  8
1
  6
CONTINUOUS
 62
   110
  5
1E7
 10
44.19025
 20
48.487417
 30
0.0
 11
44.19025
 21
48.548917
 31
0.0
  0
LINE
  8
1
  6
CONTINUOUS
 62
   110
  5
1E8
 10
44.135083
 20
48.548917
 30
0.0
 11
44.19025
 21
48.548917
 31
0.0
  0
LINE
  8
1
  6
CONTINUOUS
 62
   110
  5
1E9
 10
44.135083
 20
48.487417
 30
0.0
 11
44.135083
 21
48.548917
 31
0.0
  0
LINE
  8
1
  6
CONTINUOUS
 62
   110
  5
1EA
 10
44.54725
 20
48.487417
 30
0.0
 11
44.54725
 21
48.548917
 31
0.0
  0
LINE
  8
1
  6
CONTINUOUS
 62
   110
  5
1EB
 10
44.492
 20
48.548917
 30
0.0
 11
44.54725
 21
48.548917
 31
0.0
  0
LINE
  8
1
  6
CONTINUOUS
 62
   110
  5
1EC
 10
44.492
 20
48.487417
 30
0.0
 11
44.492
 21
48.548917
 31
0.0
  0
ARC
  8
1
  6
CONTINUOUS
 62
   110
  5
1ED
 10
48.164167
 20
48.52675
 30
0.0
 40
1.516334
 50
273.262725
 51
86.528289
210
0.0
220
0.0
230
1.0
  0
ARC
  8
1
  6
CONTINUOUS
 62
   110
  5
1EE
 10
48.136167
 20
47.002917
 30
0.0
 40
0.114728
 50
5.010936
 51
174.989058
210
0.0
220
0.0
230
1.0
  0
ARC
  8
1
  6
CONTINUOUS
 62
   110
  5
1EF
 10
48.10825
 20
48.52675
 30
0.0
 40
1.516334
 50
93.471708
 51
266.737272
210
0.0
220
0.0
230
1.0
  0
ARC
  8
1
  6
CONTINUOUS
 62
   110
  5
1F0
 10
48.136167
 20
50.083833
 30
0.0
 40
0.127479
 50
199.974161
 51
340.025836
210
0.0
220
0.0
230
1.0
  0
LINE
  8
1
  6
CONTINUOUS
 62
   110
  5
1F1
 10
48.22775
 20
49.784667
 30
0.0
 11
48.049833
 21
49.784667
 31
0.0
  0
LINE
  8
1
  6
CONTINUOUS
 62
   110
  5
1F2
 10
48.049833
 20
49.784667
 30
0.0
 11
48.049833
 21
48.92325
 31
0.0
  0
LINE
  8
1
  6
CONTINUOUS
 62
   110
  5
1F3
 10
48.049833
 20
48.92325
 30
0.0
 11
47.7445
 21
48.608333
 31
0.0
  0
LINE
  8
1
  6
CONTINUOUS
 62
   110
  5
1F4
 10
47.7445
 20
48.608333
 30
0.0
 11
46.907417
 21
48.608333
 31
0.0
  0
LINE
  8
1
  6
CONTINUOUS
 62
   110
  5
1F5
 10
46.907417
 20
48.608333
 30
0.0
 11
46.907417
 21
48.4455
 31
0.0
  0
LINE
  8
1
  6
CONTINUOUS
 62
   110
  5
1F6
 10
46.907417
 20
48.4455
 30
0.0
 11
47.755
 21
48.4455
 31
0.0
  0
LINE
  8
1
  6
CONTINUOUS
 62
   110
  5
1F7
 10
47.755
 20
48.4455
 30
0.0
 11
48.049833
 21
48.130583
 31
0.0
  0
LINE
  8
1
  6
CONTINUOUS
 62
   110
  5
1F8
 10
48.049833
 20
48.130583
 30
0.0
 11
48.049833
 21
47.3085
 31
0.0
  0
LINE
  8
1
  6
CONTINUOUS
 62
   110
  5
1F9
 10
48.049833
 20
47.3085
 30
0.0
 11
47.911917
 21
48.140583
 31
0.0
  0
LINE
  8
1
  6
CONTINUOUS
 62
   110
  5
1FA
 10
47.911917
 20
48.140583
 30
0.0
 11
47.76975
 21
48.308083
 31
0.0
  0
LINE
  8
1
  6
CONTINUOUS
 62
   110
  5
1FB
 10
47.76975
 20
48.308083
 30
0.0
 11
46.907417
 21
48.4455
 31
0.0
  0
LINE
  8
1
  6
CONTINUOUS
 62
   110
  5
1FC
 10
46.907417
 20
48.608333
 30
0.0
 11
47.74975
 21
48.770417
 31
0.0
  0
LINE
  8
1
  6
CONTINUOUS
 62
   110
  5
1FD
 10
47.74975
 20
48.770417
 30
0.0
 11
47.907667
 21
48.927917
 31
0.0
  0
LINE
  8
1
  6
CONTINUOUS
 62
   110
  5
1FE
 10
47.907667
 20
48.927917
 30
0.0
 11
48.049833
 21
49.784667
 31
0.0
  0
LINE
  8
1
  6
CONTINUOUS
 62
   110
  5
1FF
 10
48.229917
 20
49.784667
 30
0.0
 11
48.229917
 21
48.92325
 31
0.0
  0
LINE
  8
1
  6
CONTINUOUS
 62
   110
  5
200
 10
48.372
 20
48.927917
 30
0.0
 11
48.229917
 21
49.784667
 31
0.0
  0
LINE
  8
1
  6
CONTINUOUS
 62
   110
  5
201
 10
48.229917
 20
48.92325
 30
0.0
 11
48.53525
 21
48.608333
 31
0.0
  0
LINE
  8
1
  6
CONTINUOUS
 62
   110
  5
202
 10
48.53
 20
48.770417
 30
0.0
 11
48.372
 21
48.927917
 31
0.0
  0
LINE
  8
1
  6
CONTINUOUS
 62
   110
  5
203
 10
49.372333
 20
48.608333
 30
0.0
 11
48.53
 21
48.770417
 31
0.0
  0
LINE
  8
1
  6
CONTINUOUS
 62
   110
  5
204
 10
48.53525
 20
48.608333
 30
0.0
 11
49.372333
 21
48.608333
 31
0.0
  0
LINE
  8
1
  6
CONTINUOUS
 62
   110
  5
205
 10
48.524667
 20
48.4455
 30
0.0
 11
48.229917
 21
48.130583
 31
0.0
  0
LINE
  8
1
  6
CONTINUOUS
 62
   110
  5
206
 10
49.372333
 20
48.4455
 30
0.0
 11
48.524667
 21
48.4455
 31
0.0
  0
LINE
  8
1
  6
CONTINUOUS
 62
   110
  5
207
 10
48.51
 20
48.308083
 30
0.0
 11
49.372333
 21
48.4455
 31
0.0
  0
LINE
  8
1
  6
CONTINUOUS
 62
   110
  5
208
 10
49.372333
 20
48.608333
 30
0.0
 11
49.372333
 21
48.4455
 31
0.0
  0
LINE
  8
1
  6
CONTINUOUS
 62
   110
  5
209
 10
48.367833
 20
48.140583
 30
0.0
 11
48.51
 21
48.308083
 31
0.0
  0
LINE
  8
1
  6
CONTINUOUS
 62
   110
  5
20A
 10
48.229917
 20
47.3085
 30
0.0
 11
48.367833
 21
48.140583
 31
0.0
  0
LINE
  8
1
  6
CONTINUOUS
 62
   110
  5
20B
 10
48.229917
 20
48.130583
 30
0.0
 11
48.229917
 21
47.3085
 31
0.0
  0
LINE
  8
1
  6
CONTINUOUS
 62
   110
  5
20C
 10
48.049833
 20
47.3085
 30
0.0
 11
48.229917
 21
47.3085
 31
0.0
  0
LINE
  8
1
  6
CONTINUOUS
 62
   110
  5
20D
 10
54.048333
 20
43.56425
 30
0.0
 11
54.048333
 21
43.853667
 31
0.0
  0
LINE
  8
1
  6
CONTINUOUS
 62
   110
  5
20E
 10
54.048333
 20
43.853667
 30
0.0
 11
54.180833
 21
43.853667
 31
0.0
  0
LINE
  8
1
  6
CONTINUOUS
 62
   110
  5
20F
 10
54.180833
 20
43.56425
 30
0.0
 11
54.180833
 21
43.853667
 31
0.0
  0
LINE
  8
1
  6
CONTINUOUS
 62
   110
  5
210
 10
54.048333
 20
43.56425
 30
0.0
 11
54.180833
 21
43.56425
 31
0.0
  0
LINE
  8
1
  6
CONTINUOUS
 62
   110
  5
211
 10
54.0
 20
43.490417
 30
0.0
 11
54.0
 21
43.917417
 31
0.0
  0
LINE
  8
1
  6
CONTINUOUS
 62
   110
  5
212
 10
54.0
 20
43.917417
 30
0.0
 11
54.186333
 21
43.917417
 31
0.0
  0
LINE
  8
1
  6
CONTINUOUS
 62
   110
  5
213
 10
54.186333
 20
43.917417
 30
0.0
 11
54.186333
 21
45.44425
 31
0.0
  0
LINE
  8
1
  6
CONTINUOUS
 62
   110
  5
214
 10
54.186333
 20
45.44425
 30
0.0
 11
54.147667
 21
45.492917
 31
0.0
  0
LINE
  8
1
  6
CONTINUOUS
 62
   110
  5
215
 10
54.147667
 20
45.492917
 30
0.0
 11
54.215333
 21
46.25375
 31
0.0
  0
LINE
  8
1
  6
CONTINUOUS
 62
   110
  5
216
 10
54.215333
 20
46.25375
 30
0.0
 11
54.245583
 21
46.263833
 31
0.0
  0
LINE
  8
1
  6
CONTINUOUS
 62
   110
  5
217
 10
54.186333
 20
45.44425
 30
0.0
 11
54.245583
 21
45.935
 31
0.0
  0
LINE
  8
1
  6
CONTINUOUS
 62
   110
  5
218
 10
54.24975
 20
45.453417
 30
0.0
 11
54.24975
 21
46.4055
 31
0.0
  0
LINE
  8
1
  6
CONTINUOUS
 62
   110
  5
219
 10
54.24975
 20
46.4055
 30
0.0
 11
54.201417
 21
46.529
 31
0.0
  0
LINE
  8
1
  6
CONTINUOUS
 62
   110
  5
21A
 10
54.451333
 20
46.4055
 30
0.0
 11
54.499667
 21
46.529
 31
0.0
  0
LINE
  8
1
  6
CONTINUOUS
 62
   110
  5
21B
 10
54.451333
 20
45.453417
 30
0.0
 11
54.451333
 21
46.4055
 31
0.0
  0
LINE
  8
1
  6
CONTINUOUS
 62
   110
  5
21C
 10
54.51475
 20
45.44425
 30
0.0
 11
54.4555
 21
45.935
 31
0.0
  0
LINE
  8
1
  6
CONTINUOUS
 62
   110
  5
21D
 10
54.485833
 20
46.25375
 30
0.0
 11
54.4555
 21
46.263833
 31
0.0
  0
LINE
  8
1
  6
CONTINUOUS
 62
   110
  5
21E
 10
54.553417
 20
45.492917
 30
0.0
 11
54.485833
 21
46.25375
 31
0.0
  0
LINE
  8
1
  6
CONTINUOUS
 62
   110
  5
21F
 10
54.51475
 20
45.44425
 30
0.0
 11
54.553417
 21
45.492917
 31
0.0
  0
LINE
  8
1
  6
CONTINUOUS
 62
   110
  5
220
 10
54.24975
 20
45.453417
 30
0.0
 11
54.451333
 21
45.453417
 31
0.0
  0
LINE
  8
1
  6
CONTINUOUS
 62
   110
  5
221
 10
54.350583
 20
46.65825
 30
0.0
 11
54.499667
 21
46.529
 31
0.0
  0
LINE
  8
1
  6
CONTINUOUS
 62
   110
  5
222
 10
54.350583
 20
46.65825
 30
0.0
 11
54.201417
 21
46.529
 31
0.0
  0
LINE
  8
1
  6
CONTINUOUS
 62
   110
  5
223
 10
54.353833
 20
45.039083
 30
0.0
 11
54.220917
 21
44.888583
 31
0.0
  0
LINE
  8
1
  6
CONTINUOUS
 62
   110
  5
224
 10
54.220917
 20
44.888583
 30
0.0
 11
54.31175
 21
44.792083
 31
0.0
  0
LINE
  8
1
  6
CONTINUOUS
 62
   110
  5
225
 10
54.31175
 20
44.792083
 30
0.0
 11
54.220917
 21
44.679167
 31
0.0
  0
LINE
  8
1
  6
CONTINUOUS
 62
   110
  5
226
 10
54.220917
 20
44.679167
 30
0.0
 11
54.31175
 21
44.58275
 31
0.0
  0
LINE
  8
1
  6
CONTINUOUS
 62
   110
  5
227
 10
54.31175
 20
44.58275
 30
0.0
 11
54.220917
 21
44.469833
 31
0.0
  0
LINE
  8
1
  6
CONTINUOUS
 62
   110
  5
228
 10
54.220917
 20
44.469833
 30
0.0
 11
54.31175
 21
44.373333
 31
0.0
  0
LINE
  8
1
  6
CONTINUOUS
 62
   110
  5
229
 10
54.31175
 20
44.373333
 30
0.0
 11
54.220917
 21
44.260417
 31
0.0
  0
LINE
  8
1
  6
CONTINUOUS
 62
   110
  5
22A
 10
54.220917
 20
44.260417
 30
0.0
 11
54.31175
 21
44.164
 31
0.0
  0
LINE
  8
1
  6
CONTINUOUS
 62
   110
  5
22B
 10
54.31175
 20
44.164
 30
0.0
 11
54.220917
 21
44.051083
 31
0.0
  0
LINE
  8
1
  6
CONTINUOUS
 62
   110
  5
22C
 10
54.353833
 20
43.9005
 30
0.0
 11
54.220917
 21
44.051083
 31
0.0
  0
LINE
  8
1
  6
CONTINUOUS
 62
   110
  5
22D
 10
54.353833
 20
44.983167
 30
0.0
 11
54.281417
 21
44.904
 31
0.0
  0
LINE
  8
1
  6
CONTINUOUS
 62
   110
  5
22E
 10
54.281417
 20
44.904
 30
0.0
 11
54.353833
 21
44.8365
 31
0.0
  0
LINE
  8
1
  6
CONTINUOUS
 62
   110
  5
22F
 10
54.353833
 20
44.77375
 30
0.0
 11
54.281417
 21
44.694583
 31
0.0
  0
LINE
  8
1
  6
CONTINUOUS
 62
   110
  5
230
 10
54.281417
 20
44.694583
 30
0.0
 11
54.353833
 21
44.627083
 31
0.0
  0
LINE
  8
1
  6
CONTINUOUS
 62
   110
  5
231
 10
54.353833
 20
44.564417
 30
0.0
 11
54.281417
 21
44.48525
 31
0.0
  0
LINE
  8
1
  6
CONTINUOUS
 62
   110
  5
232
 10
54.281417
 20
44.48525
 30
0.0
 11
54.353833
 21
44.41775
 31
0.0
  0
LINE
  8
1
  6
CONTINUOUS
 62
   110
  5
233
 10
54.353833
 20
44.355
 30
0.0
 11
54.281417
 21
44.275833
 31
0.0
  0
LINE
  8
1
  6
CONTINUOUS
 62
   110
  5
234
 10
54.281417
 20
44.275833
 30
0.0
 11
54.353833
 21
44.208333
 31
0.0
  0
LINE
  8
1
  6
CONTINUOUS
 62
   110
  5
235
 10
54.353833
 20
44.145667
 30
0.0
 11
54.281417
 21
44.066583
 31
0.0
  0
LINE
  8
1
  6
CONTINUOUS
 62
   110
  5
236
 10
54.281417
 20
44.066583
 30
0.0
 11
54.353833
 21
43.999
 31
0.0
  0
LINE
  8
1
  6
CONTINUOUS
 62
   110
  5
237
 10
54.42625
 20
44.066583
 30
0.0
 11
54.353833
 21
43.999
 31
0.0
  0
LINE
  8
1
  6
CONTINUOUS
 62
   110
  5
238
 10
54.353833
 20
44.145667
 30
0.0
 11
54.42625
 21
44.066583
 31
0.0
  0
LINE
  8
1
  6
CONTINUOUS
 62
   110
  5
239
 10
54.42625
 20
44.275833
 30
0.0
 11
54.353833
 21
44.208333
 31
0.0
  0
LINE
  8
1
  6
CONTINUOUS
 62
   110
  5
23A
 10
54.353833
 20
44.355
 30
0.0
 11
54.42625
 21
44.275833
 31
0.0
  0
LINE
  8
1
  6
CONTINUOUS
 62
   110
  5
23B
 10
54.42625
 20
44.48525
 30
0.0
 11
54.353833
 21
44.41775
 31
0.0
  0
LINE
  8
1
  6
CONTINUOUS
 62
   110
  5
23C
 10
54.353833
 20
44.564417
 30
0.0
 11
54.42625
 21
44.48525
 31
0.0
  0
LINE
  8
1
  6
CONTINUOUS
 62
   110
  5
23D
 10
54.42625
 20
44.694583
 30
0.0
 11
54.353833
 21
44.627083
 31
0.0
  0
LINE
  8
1
  6
CONTINUOUS
 62
   110
  5
23E
 10
54.353833
 20
44.77375
 30
0.0
 11
54.42625
 21
44.694583
 31
0.0
  0
LINE
  8
1
  6
CONTINUOUS
 62
   110
  5
23F
 10
54.42625
 20
44.904
 30
0.0
 11
54.353833
 21
44.8365
 31
0.0
  0
LINE
  8
1
  6
CONTINUOUS
 62
   110
  5
240
 10
54.353833
 20
44.983167
 30
0.0
 11
54.42625
 21
44.904
 31
0.0
  0
LINE
  8
1
  6
CONTINUOUS
 62
   110
  5
241
 10
54.395917
 20
44.164
 30
0.0
 11
54.48675
 21
44.051083
 31
0.0
  0
LINE
  8
1
  6
CONTINUOUS
 62
   110
  5
242
 10
54.48675
 20
44.260417
 30
0.0
 11
54.395917
 21
44.164
 31
0.0
  0
LINE
  8
1
  6
CONTINUOUS
 62
   110
  5
243
 10
54.395917
 20
44.373333
 30
0.0
 11
54.48675
 21
44.260417
 31
0.0
  0
LINE
  8
1
  6
CONTINUOUS
 62
   110
  5
244
 10
54.48675
 20
44.469833
 30
0.0
 11
54.395917
 21
44.373333
 31
0.0
  0
LINE
  8
1
  6
CONTINUOUS
 62
   110
  5
245
 10
54.395917
 20
44.58275
 30
0.0
 11
54.48675
 21
44.469833
 31
0.0
  0
LINE
  8
1
  6
CONTINUOUS
 62
   110
  5
246
 10
54.48675
 20
44.679167
 30
0.0
 11
54.395917
 21
44.58275
 31
0.0
  0
LINE
  8
1
  6
CONTINUOUS
 62
   110
  5
247
 10
54.395917
 20
44.792083
 30
0.0
 11
54.48675
 21
44.679167
 31
0.0
  0
LINE
  8
1
  6
CONTINUOUS
 62
   110
  5
248
 10
54.48675
 20
44.888583
 30
0.0
 11
54.395917
 21
44.792083
 31
0.0
  0
LINE
  8
1
  6
CONTINUOUS
 62
   110
  5
249
 10
54.353833
 20
43.9005
 30
0.0
 11
54.48675
 21
44.051083
 31
0.0
  0
LINE
  8
1
  6
CONTINUOUS
 62
   110
  5
24A
 10
54.353833
 20
45.039083
 30
0.0
 11
54.48675
 21
44.888583
 31
0.0
  0
CIRCLE
  8
1
  6
CONTINUOUS
 62
   110
  5
24B
 10
54.29925
 20
45.502604
 30
0.0
 40
0.015084
210
0.0
220
0.0
230
1.0
  0
CIRCLE
  8
1
  6
CONTINUOUS
 62
   110
  5
24C
 10
54.354458
 20
45.502604
 30
0.0
 40
0.015084
210
0.0
220
0.0
230
1.0
  0
CIRCLE
  8
1
  6
CONTINUOUS
 62
   110
  5
24D
 10
54.409771
 20
45.502604
 30
0.0
 40
0.015084
210
0.0
220
0.0
230
1.0
  0
CIRCLE
  8
1
  6
CONTINUOUS
 62
   110
  5
24E
 10
54.29925
 20
45.580833
 30
0.0
 40
0.015084
210
0.0
220
0.0
230
1.0
  0
CIRCLE
  8
1
  6
CONTINUOUS
 62
   110
  5
24F
 10
54.354458
 20
45.580833
 30
0.0
 40
0.015084
210
0.0
220
0.0
230
1.0
  0
CIRCLE
  8
1
  6
CONTINUOUS
 62
   110
  5
250
 10
54.409771
 20
45.580833
 30
0.0
 40
0.015084
210
0.0
220
0.0
230
1.0
  0
CIRCLE
  8
1
  6
CONTINUOUS
 62
   110
  5
251
 10
54.29925
 20
45.655104
 30
0.0
 40
0.015084
210
0.0
220
0.0
230
1.0
  0
CIRCLE
  8
1
  6
CONTINUOUS
 62
   110
  5
252
 10
54.354458
 20
45.655104
 30
0.0
 40
0.015084
210
0.0
220
0.0
230
1.0
  0
CIRCLE
  8
1
  6
CONTINUOUS
 62
   110
  5
253
 10
54.409771
 20
45.655104
 30
0.0
 40
0.015084
210
0.0
220
0.0
230
1.0
  0
CIRCLE
  8
1
  6
CONTINUOUS
 62
   110
  5
254
 10
54.29925
 20
45.764063
 30
0.0
 40
0.015084
210
0.0
220
0.0
230
1.0
  0
CIRCLE
  8
1
  6
CONTINUOUS
 62
   110
  5
255
 10
54.354458
 20
45.764063
 30
0.0
 40
0.015084
210
0.0
220
0.0
230
1.0
  0
CIRCLE
  8
1
  6
CONTINUOUS
 62
   110
  5
256
 10
54.409771
 20
45.764063
 30
0.0
 40
0.015084
210
0.0
220
0.0
230
1.0
  0
CIRCLE
  8
1
  6
CONTINUOUS
 62
   110
  5
257
 10
54.29925
 20
45.868333
 30
0.0
 40
0.015084
210
0.0
220
0.0
230
1.0
  0
CIRCLE
  8
1
  6
CONTINUOUS
 62
   110
  5
258
 10
54.354458
 20
45.868333
 30
0.0
 40
0.015084
210
0.0
220
0.0
230
1.0
  0
CIRCLE
  8
1
  6
CONTINUOUS
 62
   110
  5
259
 10
54.409771
 20
45.868333
 30
0.0
 40
0.015084
210
0.0
220
0.0
230
1.0
  0
CIRCLE
  8
1
  6
CONTINUOUS
 62
   110
  5
25A
 10
54.29925
 20
45.996667
 30
0.0
 40
0.015084
210
0.0
220
0.0
230
1.0
  0
CIRCLE
  8
1
  6
CONTINUOUS
 62
   110
  5
25B
 10
54.354458
 20
45.996667
 30
0.0
 40
0.015084
210
0.0
220
0.0
230
1.0
  0
CIRCLE
  8
1
  6
CONTINUOUS
 62
   110
  5
25C
 10
54.409771
 20
45.996667
 30
0.0
 40
0.015084
210
0.0
220
0.0
230
1.0
  0
CIRCLE
  8
1
  6
CONTINUOUS
 62
   110
  5
25D
 10
54.29925
 20
46.111458
 30
0.0
 40
0.015084
210
0.0
220
0.0
230
1.0
  0
CIRCLE
  8
1
  6
CONTINUOUS
 62
   110
  5
25E
 10
54.354458
 20
46.111458
 30
0.0
 40
0.015084
210
0.0
220
0.0
230
1.0
  0
CIRCLE
  8
1
  6
CONTINUOUS
 62
   110
  5
25F
 10
54.409771
 20
46.111458
 30
0.0
 40
0.015084
210
0.0
220
0.0
230
1.0
  0
CIRCLE
  8
1
  6
CONTINUOUS
 62
   110
  5
260
 10
54.29925
 20
46.227187
 30
0.0
 40
0.015084
210
0.0
220
0.0
230
1.0
  0
CIRCLE
  8
1
  6
CONTINUOUS
 62
   110
  5
261
 10
54.354458
 20
46.227187
 30
0.0
 40
0.015084
210
0.0
220
0.0
230
1.0
  0
CIRCLE
  8
1
  6
CONTINUOUS
 62
   110
  5
262
 10
54.409771
 20
46.227187
 30
0.0
 40
0.015084
210
0.0
220
0.0
230
1.0
  0
CIRCLE
  8
1
  6
CONTINUOUS
 62
   110
  5
263
 10
57.389667
 20
46.226354
 30
0.0
 40
0.015084
210
0.0
220
0.0
230
1.0
  0
CIRCLE
  8
1
  6
CONTINUOUS
 62
   110
  5
264
 10
57.444979
 20
46.226354
 30
0.0
 40
0.015084
210
0.0
220
0.0
230
1.0
  0
CIRCLE
  8
1
  6
CONTINUOUS
 62
   110
  5
265
 10
57.500292
 20
46.226354
 30
0.0
 40
0.015084
210
0.0
220
0.0
230
1.0
  0
CIRCLE
  8
1
  6
CONTINUOUS
 62
   110
  5
266
 10
57.389667
 20
46.110521
 30
0.0
 40
0.015084
210
0.0
220
0.0
230
1.0
  0
CIRCLE
  8
1
  6
CONTINUOUS
 62
   110
  5
267
 10
57.444979
 20
46.110521
 30
0.0
 40
0.015084
210
0.0
220
0.0
230
1.0
  0
CIRCLE
  8
1
  6
CONTINUOUS
 62
   110
  5
268
 10
57.500292
 20
46.110521
 30
0.0
 40
0.015084
210
0.0
220
0.0
230
1.0
  0
CIRCLE
  8
1
  6
CONTINUOUS
 62
   110
  5
269
 10
57.389667
 20
45.995729
 30
0.0
 40
0.015084
210
0.0
220
0.0
230
1.0
  0
CIRCLE
  8
1
  6
CONTINUOUS
 62
   110
  5
26A
 10
57.444979
 20
45.995729
 30
0.0
 40
0.015084
210
0.0
220
0.0
230
1.0
  0
CIRCLE
  8
1
  6
CONTINUOUS
 62
   110
  5
26B
 10
57.500292
 20
45.995729
 30
0.0
 40
0.015084
210
0.0
220
0.0
230
1.0
  0
CIRCLE
  8
1
  6
CONTINUOUS
 62
   110
  5
26C
 10
57.389667
 20
45.867396
 30
0.0
 40
0.015084
210
0.0
220
0.0
230
1.0
  0
CIRCLE
  8
1
  6
CONTINUOUS
 62
   110
  5
26D
 10
57.444979
 20
45.867396
 30
0.0
 40
0.015084
210
0.0
220
0.0
230
1.0
  0
CIRCLE
  8
1
  6
CONTINUOUS
 62
   110
  5
26E
 10
57.500292
 20
45.867396
 30
0.0
 40
0.015084
210
0.0
220
0.0
230
1.0
  0
CIRCLE
  8
1
  6
CONTINUOUS
 62
   110
  5
26F
 10
57.389667
 20
45.763229
 30
0.0
 40
0.015084
210
0.0
220
0.0
230
1.0
  0
CIRCLE
  8
1
  6
CONTINUOUS
 62
   110
  5
270
 10
57.444979
 20
45.763229
 30
0.0
 40
0.015084
210
0.0
220
0.0
230
1.0
  0
CIRCLE
  8
1
  6
CONTINUOUS
 62
   110
  5
271
 10
57.500292
 20
45.763229
 30
0.0
 40
0.015084
210
0.0
220
0.0
230
1.0
  0
CIRCLE
  8
1
  6
CONTINUOUS
 62
   110
  5
272
 10
57.389667
 20
45.654167
 30
0.0
 40
0.015084
210
0.0
220
0.0
230
1.0
  0
CIRCLE
  8
1
  6
CONTINUOUS
 62
   110
  5
273
 10
57.444979
 20
45.654167
 30
0.0
 40
0.015084
210
0.0
220
0.0
230
1.0
  0
CIRCLE
  8
1
  6
CONTINUOUS
 62
   110
  5
274
 10
57.500292
 20
45.654167
 30
0.0
 40
0.015084
210
0.0
220
0.0
230
1.0
  0
CIRCLE
  8
1
  6
CONTINUOUS
 62
   110
  5
275
 10
57.389667
 20
45.579896
 30
0.0
 40
0.015084
210
0.0
220
0.0
230
1.0
  0
CIRCLE
  8
1
  6
CONTINUOUS
 62
   110
  5
276
 10
57.444979
 20
45.579896
 30
0.0
 40
0.015084
210
0.0
220
0.0
230
1.0
  0
CIRCLE
  8
1
  6
CONTINUOUS
 62
   110
  5
277
 10
57.500292
 20
45.579896
 30
0.0
 40
0.015084
210
0.0
220
0.0
230
1.0
  0
CIRCLE
  8
1
  6
CONTINUOUS
 62
   110
  5
278
 10
57.389667
 20
45.501771
 30
0.0
 40
0.015084
210
0.0
220
0.0
230
1.0
  0
CIRCLE
  8
1
  6
CONTINUOUS
 62
   110
  5
279
 10
57.444979
 20
45.501771
 30
0.0
 40
0.015084
210
0.0
220
0.0
230
1.0
  0
CIRCLE
  8
1
  6
CONTINUOUS
 62
   110
  5
27A
 10
57.500292
 20
45.501771
 30
0.0
 40
0.015084
210
0.0
220
0.0
230
1.0
  0
LINE
  8
1
  6
CONTINUOUS
 62
   110
  5
27B
 10
57.445583
 20
45.03825
 30
0.0
 11
57.312667
 21
44.88775
 31
0.0
  0
LINE
  8
1
  6
CONTINUOUS
 62
   110
  5
27C
 10
57.445583
 20
43.899667
 30
0.0
 11
57.312667
 21
44.05025
 31
0.0
  0
LINE
  8
1
  6
CONTINUOUS
 62
   110
  5
27D
 10
57.312667
 20
44.88775
 30
0.0
 11
57.4035
 21
44.791167
 31
0.0
  0
LINE
  8
1
  6
CONTINUOUS
 62
   110
  5
27E
 10
57.4035
 20
44.791167
 30
0.0
 11
57.312667
 21
44.678333
 31
0.0
  0
LINE
  8
1
  6
CONTINUOUS
 62
   110
  5
27F
 10
57.312667
 20
44.678333
 30
0.0
 11
57.4035
 21
44.58175
 31
0.0
  0
LINE
  8
1
  6
CONTINUOUS
 62
   110
  5
280
 10
57.4035
 20
44.58175
 30
0.0
 11
57.312667
 21
44.469
 31
0.0
  0
LINE
  8
1
  6
CONTINUOUS
 62
   110
  5
281
 10
57.312667
 20
44.469
 30
0.0
 11
57.4035
 21
44.3725
 31
0.0
  0
LINE
  8
1
  6
CONTINUOUS
 62
   110
  5
282
 10
57.4035
 20
44.3725
 30
0.0
 11
57.312667
 21
44.259583
 31
0.0
  0
LINE
  8
1
  6
CONTINUOUS
 62
   110
  5
283
 10
57.312667
 20
44.259583
 30
0.0
 11
57.4035
 21
44.163167
 31
0.0
  0
LINE
  8
1
  6
CONTINUOUS
 62
   110
  5
284
 10
57.4035
 20
44.163167
 30
0.0
 11
57.312667
 21
44.05025
 31
0.0
  0
LINE
  8
1
  6
CONTINUOUS
 62
   110
  5
285
 10
57.445583
 20
44.982167
 30
0.0
 11
57.37325
 21
44.903167
 31
0.0
  0
LINE
  8
1
  6
CONTINUOUS
 62
   110
  5
286
 10
57.37325
 20
44.903167
 30
0.0
 11
57.445583
 21
44.8355
 31
0.0
  0
LINE
  8
1
  6
CONTINUOUS
 62
   110
  5
287
 10
57.445583
 20
44.772833
 30
0.0
 11
57.37325
 21
44.69375
 31
0.0
  0
LINE
  8
1
  6
CONTINUOUS
 62
   110
  5
288
 10
57.37325
 20
44.69375
 30
0.0
 11
57.445583
 21
44.62625
 31
0.0
  0
LINE
  8
1
  6
CONTINUOUS
 62
   110
  5
289
 10
57.445583
 20
44.563583
 30
0.0
 11
57.37325
 21
44.484417
 31
0.0
  0
LINE
  8
1
  6
CONTINUOUS
 62
   110
  5
28A
 10
57.37325
 20
44.484417
 30
0.0
 11
57.445583
 21
44.416917
 31
0.0
  0
LINE
  8
1
  6
CONTINUOUS
 62
   110
  5
28B
 10
57.445583
 20
44.354167
 30
0.0
 11
57.37325
 21
44.275
 31
0.0
  0
LINE
  8
1
  6
CONTINUOUS
 62
   110
  5
28C
 10
57.37325
 20
44.275
 30
0.0
 11
57.445583
 21
44.2075
 31
0.0
  0
LINE
  8
1
  6
CONTINUOUS
 62
   110
  5
28D
 10
57.445583
 20
44.144833
 30
0.0
 11
57.37325
 21
44.065667
 31
0.0
  0
LINE
  8
1
  6
CONTINUOUS
 62
   110
  5
28E
 10
57.37325
 20
44.065667
 30
0.0
 11
57.445583
 21
43.998167
 31
0.0
  0
LINE
  8
1
  6
CONTINUOUS
 62
   110
  5
28F
 10
57.518
 20
44.065667
 30
0.0
 11
57.445583
 21
43.998167
 31
0.0
  0
LINE
  8
1
  6
CONTINUOUS
 62
   110
  5
290
 10
57.445583
 20
44.144833
 30
0.0
 11
57.518
 21
44.065667
 31
0.0
  0
LINE
  8
1
  6
CONTINUOUS
 62
   110
  5
291
 10
57.518
 20
44.275
 30
0.0
 11
57.445583
 21
44.2075
 31
0.0
  0
LINE
  8
1
  6
CONTINUOUS
 62
   110
  5
292
 10
57.445583
 20
44.354167
 30
0.0
 11
57.518
 21
44.275
 31
0.0
  0
LINE
  8
1
  6
CONTINUOUS
 62
   110
  5
293
 10
57.518
 20
44.484417
 30
0.0
 11
57.445583
 21
44.416917
 31
0.0
  0
LINE
  8
1
  6
CONTINUOUS
 62
   110
  5
294
 10
57.445583
 20
44.563583
 30
0.0
 11
57.518
 21
44.484417
 31
0.0
  0
LINE
  8
1
  6
CONTINUOUS
 62
   110
  5
295
 10
57.518
 20
44.69375
 30
0.0
 11
57.445583
 21
44.62625
 31
0.0
  0
LINE
  8
1
  6
CONTINUOUS
 62
   110
  5
296
 10
57.445583
 20
44.772833
 30
0.0
 11
57.518
 21
44.69375
 31
0.0
  0
LINE
  8
1
  6
CONTINUOUS
 62
   110
  5
297
 10
57.518
 20
44.903167
 30
0.0
 11
57.445583
 21
44.8355
 31
0.0
  0
LINE
  8
1
  6
CONTINUOUS
 62
   110
  5
298
 10
57.445583
 20
44.982167
 30
0.0
 11
57.518
 21
44.903167
 31
0.0
  0
LINE
  8
1
  6
CONTINUOUS
 62
   110
  5
299
 10
57.445583
 20
43.899667
 30
0.0
 11
57.5785
 21
44.05025
 31
0.0
  0
LINE
  8
1
  6
CONTINUOUS
 62
   110
  5
29A
 10
57.487833
 20
44.163167
 30
0.0
 11
57.5785
 21
44.05025
 31
0.0
  0
LINE
  8
1
  6
CONTINUOUS
 62
   110
  5
29B
 10
57.5785
 20
44.259583
 30
0.0
 11
57.487833
 21
44.163167
 31
0.0
  0
LINE
  8
1
  6
CONTINUOUS
 62
   110
  5
29C
 10
57.487833
 20
44.3725
 30
0.0
 11
57.5785
 21
44.259583
 31
0.0
  0
LINE
  8
1
  6
CONTINUOUS
 62
   110
  5
29D
 10
57.5785
 20
44.469
 30
0.0
 11
57.487833
 21
44.3725
 31
0.0
  0
LINE
  8
1
  6
CONTINUOUS
 62
   110
  5
29E
 10
57.487833
 20
44.58175
 30
0.0
 11
57.5785
 21
44.469
 31
0.0
  0
LINE
  8
1
  6
CONTINUOUS
 62
   110
  5
29F
 10
57.5785
 20
44.678333
 30
0.0
 11
57.487833
 21
44.58175
 31
0.0
  0
LINE
  8
1
  6
CONTINUOUS
 62
   110
  5
2A0
 10
57.487833
 20
44.791167
 30
0.0
 11
57.5785
 21
44.678333
 31
0.0
  0
LINE
  8
1
  6
CONTINUOUS
 62
   110
  5
2A1
 10
57.5785
 20
44.88775
 30
0.0
 11
57.487833
 21
44.791167
 31
0.0
  0
LINE
  8
1
  6
CONTINUOUS
 62
   110
  5
2A2
 10
57.445583
 20
45.03825
 30
0.0
 11
57.5785
 21
44.88775
 31
0.0
  0
LINE
  8
1
  6
CONTINUOUS
 62
   110
  5
2A3
 10
57.448917
 20
46.657417
 30
0.0
 11
57.598
 21
46.528167
 31
0.0
  0
LINE
  8
1
  6
CONTINUOUS
 62
   110
  5
2A4
 10
57.448917
 20
46.657417
 30
0.0
 11
57.299917
 21
46.528167
 31
0.0
  0
LINE
  8
1
  6
CONTINUOUS
 62
   110
  5
2A5
 10
57.549667
 20
45.4525
 30
0.0
 11
57.34825
 21
45.4525
 31
0.0
  0
LINE
  8
1
  6
CONTINUOUS
 62
   110
  5
2A6
 10
57.284667
 20
45.443417
 30
0.0
 11
57.246
 21
45.492
 31
0.0
  0
LINE
  8
1
  6
CONTINUOUS
 62
   110
  5
2A7
 10
57.246
 20
45.492
 30
0.0
 11
57.313667
 21
46.252917
 31
0.0
  0
LINE
  8
1
  6
CONTINUOUS
 62
   110
  5
2A8
 10
57.313667
 20
46.252917
 30
0.0
 11
57.344083
 21
46.263
 31
0.0
  0
LINE
  8
1
  6
CONTINUOUS
 62
   110
  5
2A9
 10
57.284667
 20
45.443417
 30
0.0
 11
57.344083
 21
45.934167
 31
0.0
  0
LINE
  8
1
  6
CONTINUOUS
 62
   110
  5
2AA
 10
57.34825
 20
45.4525
 30
0.0
 11
57.34825
 21
46.404667
 31
0.0
  0
LINE
  8
1
  6
CONTINUOUS
 62
   110
  5
2AB
 10
57.34825
 20
46.404667
 30
0.0
 11
57.299917
 21
46.528167
 31
0.0
  0
LINE
  8
1
  6
CONTINUOUS
 62
   110
  5
2AC
 10
57.549667
 20
46.404667
 30
0.0
 11
57.598
 21
46.528167
 31
0.0
  0
LINE
  8
1
  6
CONTINUOUS
 62
   110
  5
2AD
 10
57.549667
 20
45.4525
 30
0.0
 11
57.549667
 21
46.404667
 31
0.0
  0
LINE
  8
1
  6
CONTINUOUS
 62
   110
  5
2AE
 10
57.61325
 20
45.443417
 30
0.0
 11
57.553833
 21
45.934167
 31
0.0
  0
LINE
  8
1
  6
CONTINUOUS
 62
   110
  5
2AF
 10
57.584167
 20
46.252917
 30
0.0
 11
57.553833
 21
46.263
 31
0.0
  0
LINE
  8
1
  6
CONTINUOUS
 62
   110
  5
2B0
 10
57.651833
 20
45.492
 30
0.0
 11
57.584167
 21
46.252917
 31
0.0
  0
LINE
  8
1
  6
CONTINUOUS
 62
   110
  5
2B1
 10
57.61325
 20
45.443417
 30
0.0
 11
57.651833
 21
45.492
 31
0.0
  0
LINE
  8
1
  6
CONTINUOUS
 62
   110
  5
2B2
 10
57.61325
 20
43.916583
 30
0.0
 11
57.61325
 21
45.443417
 31
0.0
  0
LINE
  8
1
  6
CONTINUOUS
 62
   110
  5
2B3
 10
57.799583
 20
43.916583
 30
0.0
 11
57.61325
 21
43.916583
 31
0.0
  0
LINE
  8
1
  6
CONTINUOUS
 62
   110
  5
2B4
 10
57.799583
 20
43.489583
 30
0.0
 11
57.799583
 21
43.916583
 31
0.0
  0
LINE
  8
1
  6
CONTINUOUS
 62
   110
  5
2B5
 10
57.75125
 20
43.563417
 30
0.0
 11
57.61875
 21
43.563417
 31
0.0
  0
LINE
  8
1
  6
CONTINUOUS
 62
   110
  5
2B6
 10
57.61875
 20
43.563417
 30
0.0
 11
57.61875
 21
43.852833
 31
0.0
  0
LINE
  8
1
  6
CONTINUOUS
 62
   110
  5
2B7
 10
57.75125
 20
43.852833
 30
0.0
 11
57.61875
 21
43.852833
 31
0.0
  0
LINE
  8
1
  6
CONTINUOUS
 62
   110
  5
2B8
 10
57.75125
 20
43.563417
 30
0.0
 11
57.75125
 21
43.852833
 31
0.0
  0
LINE
  8
1
  6
CONTINUOUS
 62
   110
  5
2B9
 10
54.0
 20
43.490417
 30
0.0
 11
57.799583
 21
43.490417
 31
0.0
  0
LINE
  8
1
  6
CONTINUOUS
 62
   110
  5
2BA
 10
54.51475
 20
45.44425
 30
0.0
 11
54.51475
 21
43.847583
 31
0.0
  0
LINE
  8
1
  6
CONTINUOUS
 62
   110
  5
2BB
 10
54.51475
 20
43.847583
 30
0.0
 11
57.285083
 21
43.847583
 31
0.0
  0
LINE
  8
1
  6
CONTINUOUS
 62
   110
  5
2BC
 10
57.285083
 20
43.847583
 30
0.0
 11
57.284667
 21
45.443417
 31
0.0
  0
LINE
  8
1
  6
CONTINUOUS
 62
   110
  5
2BD
 10
57.300333
 20
43.716083
 30
0.0
 11
54.541
 21
43.716083
 31
0.0
  0
LINE
  8
1
  6
CONTINUOUS
 62
   110
  5
2BE
 10
54.541
 20
43.716083
 30
0.0
 11
54.541
 21
43.647333
 31
0.0
  0
LINE
  8
1
  6
CONTINUOUS
 62
   110
  5
2BF
 10
57.300333
 20
43.647333
 30
0.0
 11
54.541
 21
43.647333
 31
0.0
  0
LINE
  8
1
  6
CONTINUOUS
 62
   110
  5
2C0
 10
54.621667
 20
43.716083
 30
0.0
 11
54.621667
 21
43.647333
 31
0.0
  0
LINE
  8
1
  6
CONTINUOUS
 62
   110
  5
2C1
 10
54.664167
 20
43.716083
 30
0.0
 11
54.664167
 21
43.647333
 31
0.0
  0
LINE
  8
1
  6
CONTINUOUS
 62
   110
  5
2C2
 10
54.802667
 20
43.716083
 30
0.0
 11
54.802667
 21
43.647333
 31
0.0
  0
LINE
  8
1
  6
CONTINUOUS
 62
   110
  5
2C3
 10
54.760333
 20
43.716083
 30
0.0
 11
54.760333
 21
43.647333
 31
0.0
  0
LINE
  8
1
  6
CONTINUOUS
 62
   110
  5
2C4
 10
54.917083
 20
43.716083
 30
0.0
 11
54.917083
 21
43.647333
 31
0.0
  0
LINE
  8
1
  6
CONTINUOUS
 62
   110
  5
2C5
 10
54.874667
 20
43.716083
 30
0.0
 11
54.874667
 21
43.647333
 31
0.0
  0
LINE
  8
1
  6
CONTINUOUS
 62
   110
  5
2C6
 10
55.049583
 20
43.716083
 30
0.0
 11
55.049583
 21
43.647333
 31
0.0
  0
LINE
  8
1
  6
CONTINUOUS
 62
   110
  5
2C7
 10
55.007083
 20
43.716083
 30
0.0
 11
55.007083
 21
43.647333
 31
0.0
  0
LINE
  8
1
  6
CONTINUOUS
 62
   110
  5
2C8
 10
55.17925
 20
43.716083
 30
0.0
 11
55.17925
 21
43.647333
 31
0.0
  0
LINE
  8
1
  6
CONTINUOUS
 62
   110
  5
2C9
 10
55.13675
 20
43.716083
 30
0.0
 11
55.13675
 21
43.647333
 31
0.0
  0
LINE
  8
1
  6
CONTINUOUS
 62
   110
  5
2CA
 10
55.314333
 20
43.716083
 30
0.0
 11
55.314333
 21
43.647333
 31
0.0
  0
LINE
  8
1
  6
CONTINUOUS
 62
   110
  5
2CB
 10
55.271833
 20
43.716083
 30
0.0
 11
55.271833
 21
43.647333
 31
0.0
  0
LINE
  8
1
  6
CONTINUOUS
 62
   110
  5
2CC
 10
55.437833
 20
43.716083
 30
0.0
 11
55.437833
 21
43.647333
 31
0.0
  0
LINE
  8
1
  6
CONTINUOUS
 62
   110
  5
2CD
 10
55.395333
 20
43.716083
 30
0.0
 11
55.395333
 21
43.647333
 31
0.0
  0
LINE
  8
1
  6
CONTINUOUS
 62
   110
  5
2CE
 10
55.5675
 20
43.716083
 30
0.0
 11
55.5675
 21
43.647333
 31
0.0
  0
LINE
  8
1
  6
CONTINUOUS
 62
   110
  5
2CF
 10
55.525
 20
43.716083
 30
0.0
 11
55.525
 21
43.647333
 31
0.0
  0
LINE
  8
1
  6
CONTINUOUS
 62
   110
  5
2D0
 10
55.715167
 20
43.716083
 30
0.0
 11
55.715167
 21
43.647333
 31
0.0
  0
LINE
  8
1
  6
CONTINUOUS
 62
   110
  5
2D1
 10
55.672667
 20
43.716083
 30
0.0
 11
55.672667
 21
43.647333
 31
0.0
  0
LINE
  8
1
  6
CONTINUOUS
 62
   110
  5
2D2
 10
55.865583
 20
43.716083
 30
0.0
 11
55.865583
 21
43.647333
 31
0.0
  0
LINE
  8
1
  6
CONTINUOUS
 62
   110
  5
2D3
 10
55.823083
 20
43.716083
 30
0.0
 11
55.823083
 21
43.647333
 31
0.0
  0
LINE
  8
1
  6
CONTINUOUS
 62
   110
  5
2D4
 10
56.019667
 20
43.716083
 30
0.0
 11
56.019667
 21
43.647333
 31
0.0
  0
LINE
  8
1
  6
CONTINUOUS
 62
   110
  5
2D5
 10
55.977167
 20
43.716083
 30
0.0
 11
55.977167
 21
43.647333
 31
0.0
  0
LINE
  8
1
  6
CONTINUOUS
 62
   110
  5
2D6
 10
56.158333
 20
43.716083
 30
0.0
 11
56.158333
 21
43.647333
 31
0.0
  0
LINE
  8
1
  6
CONTINUOUS
 62
   110
  5
2D7
 10
56.115917
 20
43.716083
 30
0.0
 11
56.115917
 21
43.647333
 31
0.0
  0
LINE
  8
1
  6
CONTINUOUS
 62
   110
  5
2D8
 10
56.306167
 20
43.716083
 30
0.0
 11
56.306167
 21
43.647333
 31
0.0
  0
LINE
  8
1
  6
CONTINUOUS
 62
   110
  5
2D9
 10
56.263667
 20
43.716083
 30
0.0
 11
56.263667
 21
43.647333
 31
0.0
  0
LINE
  8
1
  6
CONTINUOUS
 62
   110
  5
2DA
 10
56.4475
 20
43.716083
 30
0.0
 11
56.4475
 21
43.647333
 31
0.0
  0
LINE
  8
1
  6
CONTINUOUS
 62
   110
  5
2DB
 10
56.405083
 20
43.716083
 30
0.0
 11
56.405083
 21
43.647333
 31
0.0
  0
LINE
  8
1
  6
CONTINUOUS
 62
   110
  5
2DC
 10
56.550167
 20
43.716083
 30
0.0
 11
56.550167
 21
43.647333
 31
0.0
  0
LINE
  8
1
  6
CONTINUOUS
 62
   110
  5
2DD
 10
56.507667
 20
43.716083
 30
0.0
 11
56.507667
 21
43.647333
 31
0.0
  0
LINE
  8
1
  6
CONTINUOUS
 62
   110
  5
2DE
 10
56.691667
 20
43.716083
 30
0.0
 11
56.691667
 21
43.647333
 31
0.0
  0
LINE
  8
1
  6
CONTINUOUS
 62
   110
  5
2DF
 10
56.649167
 20
43.716083
 30
0.0
 11
56.649167
 21
43.647333
 31
0.0
  0
LINE
  8
1
  6
CONTINUOUS
 62
   110
  5
2E0
 10
56.839333
 20
43.716083
 30
0.0
 11
56.839333
 21
43.647333
 31
0.0
  0
LINE
  8
1
  6
CONTINUOUS
 62
   110
  5
2E1
 10
56.796833
 20
43.716083
 30
0.0
 11
56.796833
 21
43.647333
 31
0.0
  0
LINE
  8
1
  6
CONTINUOUS
 62
   110
  5
2E2
 10
56.960083
 20
43.716083
 30
0.0
 11
56.960083
 21
43.647333
 31
0.0
  0
LINE
  8
1
  6
CONTINUOUS
 62
   110
  5
2E3
 10
56.917583
 20
43.716083
 30
0.0
 11
56.917583
 21
43.647333
 31
0.0
  0
LINE
  8
1
  6
CONTINUOUS
 62
   110
  5
2E4
 10
57.101417
 20
43.716083
 30
0.0
 11
57.101417
 21
43.647333
 31
0.0
  0
LINE
  8
1
  6
CONTINUOUS
 62
   110
  5
2E5
 10
57.058917
 20
43.716083
 30
0.0
 11
57.058917
 21
43.647333
 31
0.0
  0
LINE
  8
1
  6
CONTINUOUS
 62
   110
  5
2E6
 10
57.233833
 20
43.716083
 30
0.0
 11
57.233833
 21
43.647333
 31
0.0
  0
LINE
  8
1
  6
CONTINUOUS
 62
   110
  5
2E7
 10
57.191417
 20
43.716083
 30
0.0
 11
57.191417
 21
43.647333
 31
0.0
  0
LINE
  8
1
  6
CONTINUOUS
 62
   110
  5
2E8
 10
57.300333
 20
43.647333
 30
0.0
 11
57.300333
 21
43.716083
 31
0.0
  0
LINE
  8
1
  6
CONTINUOUS
 62
   110
  5
2E9
 10
59.112583
 20
43.824417
 30
0.0
 11
59.112583
 21
43.567333
 31
0.0
  0
LINE
  8
1
  6
CONTINUOUS
 62
   110
  5
2EA
 10
59.112583
 20
43.567333
 30
0.0
 11
59.435583
 21
43.51775
 31
0.0
  0
LINE
  8
1
  6
CONTINUOUS
 62
   110
  5
2EB
 10
59.435583
 20
43.51775
 30
0.0
 11
59.5985
 21
43.551167
 31
0.0
  0
LINE
  8
1
  6
CONTINUOUS
 62
   110
  5
2EC
 10
59.5985
 20
43.551167
 30
0.0
 11
59.5985
 21
45.73575
 31
0.0
  0
LINE
  8
1
  6
CONTINUOUS
 62
   110
  5
2ED
 10
59.5985
 20
45.73575
 30
0.0
 11
59.533667
 21
46.521917
 31
0.0
  0
LINE
  8
1
  6
CONTINUOUS
 62
   110
  5
2EE
 10
59.533667
 20
46.521917
 30
0.0
 11
59.55575
 21
46.576583
 31
0.0
  0
LINE
  8
1
  6
CONTINUOUS
 62
   110
  5
2EF
 10
59.55575
 20
46.576583
 30
0.0
 11
59.4135
 21
46.669667
 31
0.0
  0
LINE
  8
1
  6
CONTINUOUS
 62
   110
  5
2F0
 10
59.4135
 20
46.669667
 30
0.0
 11
59.298917
 21
46.565417
 31
0.0
  0
LINE
  8
1
  6
CONTINUOUS
 62
   110
  5
2F1
 10
59.298917
 20
46.565417
 30
0.0
 11
59.352833
 21
46.467333
 31
0.0
  0
LINE
  8
1
  6
CONTINUOUS
 62
   110
  5
2F2
 10
59.352833
 20
46.467333
 30
0.0
 11
59.265833
 21
45.528333
 31
0.0
  0
LINE
  8
1
  6
CONTINUOUS
 62
   110
  5
2F3
 10
59.265833
 20
45.528333
 30
0.0
 11
59.265833
 21
43.845667
 31
0.0
  0
LINE
  8
1
  6
CONTINUOUS
 62
   110
  5
2F4
 10
59.435583
 20
43.51775
 30
0.0
 11
59.435583
 21
45.385667
 31
0.0
  0
LINE
  8
1
  6
CONTINUOUS
 62
   110
  5
2F5
 10
59.112583
 20
43.824417
 30
0.0
 11
59.435583
 21
43.879
 31
0.0
  0
LINE
  8
1
  6
CONTINUOUS
 62
   110
  5
2F6
 10
59.435583
 20
43.879
 30
0.0
 11
59.5985
 21
43.851667
 31
0.0
  0
LINE
  8
1
  6
CONTINUOUS
 62
   110
  5
2F7
 10
59.5985
 20
43.851667
 30
0.0
 11
59.670333
 21
44.141083
 31
0.0
  0
LINE
  8
1
  6
CONTINUOUS
 62
   110
  5
2F8
 10
59.670333
 20
44.141083
 30
0.0
 11
59.670333
 21
45.424083
 31
0.0
  0
LINE
  8
1
  6
CONTINUOUS
 62
   110
  5
2F9
 10
59.445333
 20
45.484833
 30
0.0
 11
59.4135
 21
45.484833
 31
0.0
  0
LINE
  8
1
  6
CONTINUOUS
 62
   110
  5
2FA
 10
59.4135
 20
45.484833
 30
0.0
 11
59.4135
 21
46.264917
 31
0.0
  0
ARC
  8
1
  6
CONTINUOUS
 62
   110
  5
2FB
 10
59.610708
 20
45.415833
 30
0.0
 40
0.060105
 50
7.892486
 51
101.750492
210
0.0
220
0.0
230
1.0
  0
LINE
  8
1
  6
CONTINUOUS
 62
   110
  5
2FC
 10
59.445333
 20
45.484833
 30
0.0
 11
59.445333
 21
46.264917
 31
0.0
  0
LINE
  8
1
  6
CONTINUOUS
 62
   110
  5
2FD
 10
59.4135
 20
46.264917
 30
0.0
 11
59.445333
 21
46.264917
 31
0.0
  0
LINE
  8
1
  6
CONTINUOUS
 62
   110
  5
2FE
 10
59.596
 20
45.765917
 30
0.0
 11
59.6275
 21
45.77525
 31
0.0
  0
LINE
  8
1
  6
CONTINUOUS
 62
   110
  5
2FF
 10
59.6275
 20
45.77525
 30
0.0
 11
59.55825
 21
46.224083
 31
0.0
  0
LINE
  8
3
  6
HIDDEN
 62
   110
  5
300
 10
59.541833
 20
45.491917
 30
0.0
 11
59.541833
 21
45.73875
 31
0.0
  0
LINE
  8
3
  6
HIDDEN
 62
   110
  5
301
 10
59.265833
 20
45.489833
 30
0.0
 11
59.351417
 21
45.489833
 31
0.0
  0
LINE
  8
3
  6
HIDDEN
 62
   110
  5
302
 10
59.351417
 20
45.489833
 30
0.0
 11
59.34375
 21
46.369667
 31
0.0
  0
ARC
  8
1
  6
CONTINUOUS
 62
   110
  5
303
 10
59.628104
 20
43.704167
 30
0.0
 40
0.040856
 50
223.563886
 51
136.436108
210
0.0
220
0.0
230
1.0
  0
CIRCLE
  8
1
  6
CONTINUOUS
 62
   110
  5
304
 10
59.345188
 20
41.880625
 30
0.0
 40
0.112095
210
0.0
220
0.0
230
1.0
  0
LINE
  8
1
  6
CONTINUOUS
 62
   110
  5
305
 10
59.277917
 20
42.355917
 30
0.0
 11
59.3985
 21
42.355917
 31
0.0
  0
LINE
  8
1
  6
CONTINUOUS
 62
   110
  5
306
 10
59.3985
 20
42.355917
 30
0.0
 11
59.3985
 21
42.21275
 31
0.0
  0
LINE
  8
1
  6
CONTINUOUS
 62
   110
  5
307
 10
59.3985
 20
42.21275
 30
0.0
 11
59.59475
 21
42.21275
 31
0.0
  0
LINE
  8
1
  6
CONTINUOUS
 62
   110
  5
308
 10
59.59475
 20
42.21275
 30
0.0
 11
59.672417
 21
41.887833
 31
0.0
  0
LINE
  8
1
  6
CONTINUOUS
 62
   110
  5
309
 10
59.672417
 20
41.887833
 30
0.0
 11
59.591
 21
41.55825
 31
0.0
  0
LINE
  8
1
  6
CONTINUOUS
 62
   110
  5
30A
 10
59.591
 20
41.55825
 30
0.0
 11
59.385417
 21
41.55825
 31
0.0
  0
LINE
  8
1
  6
CONTINUOUS
 62
   110
  5
30B
 10
59.385417
 20
41.55825
 30
0.0
 11
59.385417
 21
41.478
 31
0.0
  0
LINE
  8
1
  6
CONTINUOUS
 62
   110
  5
30C
 10
59.277917
 20
42.355917
 30
0.0
 11
59.277917
 21
42.21275
 31
0.0
  0
LINE
  8
1
  6
CONTINUOUS
 62
   110
  5
30D
 10
59.277917
 20
42.21275
 30
0.0
 11
59.081583
 21
42.21275
 31
0.0
  0
LINE
  8
1
  6
CONTINUOUS
 62
   110
  5
30E
 10
59.081583
 20
42.21275
 30
0.0
 11
59.003917
 21
41.887833
 31
0.0
  0
LINE
  8
1
  6
CONTINUOUS
 62
   110
  5
30F
 10
59.003917
 20
41.887833
 30
0.0
 11
59.085333
 21
41.55825
 31
0.0
  0
LINE
  8
1
  6
CONTINUOUS
 62
   110
  5
310
 10
59.085333
 20
41.55825
 30
0.0
 11
59.290917
 21
41.55825
 31
0.0
  0
LINE
  8
1
  6
CONTINUOUS
 62
   110
  5
311
 10
59.290917
 20
41.55825
 30
0.0
 11
59.290917
 21
41.478
 31
0.0
  0
ARC
  8
1
  6
CONTINUOUS
 62
   110
  5
312
 10
59.338208
 20
41.480729
 30
0.0
 40
0.047295
 50
183.322239
 51
356.677758
210
0.0
220
0.0
230
1.0
  0
LINE
  8
1
  6
CONTINUOUS
 62
   110
  5
313
 10
54.207
 20
41.763667
 30
0.0
 11
54.150417
 21
41.990333
 31
0.0
  0
LINE
  8
1
  6
CONTINUOUS
 62
   110
  5
314
 10
54.150417
 20
41.990333
 30
0.0
 11
54.052417
 21
41.990333
 31
0.0
  0
LINE
  8
1
  6
CONTINUOUS
 62
   110
  5
315
 10
54.052417
 20
41.990333
 30
0.0
 11
54.028917
 21
41.609917
 31
0.0
  0
LINE
  8
1
  6
CONTINUOUS
 62
   110
  5
316
 10
54.028917
 20
41.609917
 30
0.0
 11
54.053833
 21
41.462083
 31
0.0
  0
LINE
  8
1
  6
CONTINUOUS
 62
   110
  5
317
 10
54.55075
 20
41.459083
 30
0.0
 11
54.910917
 21
41.393333
 31
0.0
  0
LINE
  8
3
  6
HIDDEN
 62
   110
  5
318
 10
54.505167
 20
41.760667
 30
0.0
 11
54.505167
 21
41.803167
 31
0.0
  0
LINE
  8
3
  6
HIDDEN
 62
   110
  5
319
 10
54.505167
 20
41.803167
 30
0.0
 11
54.52725
 21
41.818333
 31
0.0
  0
ARC
  8
1
  6
CONTINUOUS
 62
   110
  5
31A
 10
54.364979
 20
41.451667
 30
0.0
 40
0.038412
 50
170.453147
 51
8.019631
210
0.0
220
0.0
230
1.0
  0
ARC
  8
1
  6
CONTINUOUS
 62
   110
  5
31B
 10
57.444562
 20
41.451667
 30
0.0
 40
0.038412
 50
171.980367
 51
9.54685
210
0.0
220
0.0
230
1.0
  0
LINE
  8
3
  6
HIDDEN
 62
   110
  5
31C
 10
57.3045
 20
41.803167
 30
0.0
 11
57.28225
 21
41.818333
 31
0.0
  0
LINE
  8
3
  6
HIDDEN
 62
   110
  5
31D
 10
57.3045
 20
41.760667
 30
0.0
 11
57.3045
 21
41.803167
 31
0.0
  0
LINE
  8
1
  6
CONTINUOUS
 62
   110
  5
31E
 10
57.258833
 20
41.459083
 30
0.0
 11
56.898667
 21
41.393333
 31
0.0
  0
LINE
  8
1
  6
CONTINUOUS
 62
   110
  5
31F
 10
57.780583
 20
41.609917
 30
0.0
 11
57.755833
 21
41.462083
 31
0.0
  0
LINE
  8
1
  6
CONTINUOUS
 62
   110
  5
320
 10
57.757167
 20
41.990333
 30
0.0
 11
57.780583
 21
41.609917
 31
0.0
  0
LINE
  8
1
  6
CONTINUOUS
 62
   110
  5
321
 10
57.659167
 20
41.990333
 30
0.0
 11
57.757167
 21
41.990333
 31
0.0
  0
LINE
  8
1
  6
CONTINUOUS
 62
   110
  5
322
 10
57.602583
 20
41.763667
 30
0.0
 11
57.659167
 21
41.990333
 31
0.0
  0
LINE
  8
1
  6
CONTINUOUS
 62
   110
  5
323
 10
54.207
 20
41.763667
 30
0.0
 11
57.602583
 21
41.763667
 31
0.0
  0
LINE
  8
1
  6
CONTINUOUS
 62
   110
  5
324
 10
57.780583
 20
41.609917
 30
0.0
 11
54.028917
 21
41.609917
 31
0.0
  0
LINE
  8
1
  6
CONTINUOUS
 62
   110
  5
325
 10
57.755833
 20
41.462083
 30
0.0
 11
54.053833
 21
41.462083
 31
0.0
  0
LINE
  8
1
  6
CONTINUOUS
 62
   110
  5
326
 10
56.898667
 20
41.393333
 30
0.0
 11
54.910917
 21
41.393333
 31
0.0
  0
LINE
  8
3
  6
HIDDEN
 62
   110
  5
327
 10
57.28225
 20
41.818333
 30
0.0
 11
54.52725
 21
41.818333
 31
0.0
  0
TEXT
  8
2
  6
CONTINUOUS
 62
   110
  5
32A
 10
43.789333
 20
37.964917
 30
0.0
 40
0.3
  1
MANHOLE FRAME
  7
MONOTXT
210
0.0
220
0.0
230
1.0
  0
TEXT
  8
2
  6
CONTINUOUS
 62
   110
  5
32B
 10
43.498583
 20
45.0775
 30
0.0
 40
0.3
  1
MANHOLE COVER
  7
MONOTXT
210
0.0
220
0.0
230
1.0
  0
TEXT
  8
2
  6
CONTINUOUS
 62
   110
  5
32C
 10
51.447833
 20
39.09525
 30
0.0
 40
0.3
  1
REINFORCED PLASTIC AND REINFORCED CORROSION -
  7
MONOTXT
210
0.0
220
0.0
230
1.0
  0
TEXT
  8
2
  6
CONTINUOUS
 62
   110
  5
32D
 10
53.377583
 20
38.314417
 30
0.0
 40
0.3
  1
RESISTANT RUBBER MANHOLE STEPS
  7
MONOTXT
210
0.0
220
0.0
230
1.0
  0
TEXT
  8
2
  6
CONTINUOUS
 62
   110
  5
32E
 10
67.37325
 20
49.622167
 30
0.0
 40
0.3
  1
NOTES
  7
MONOTXT
210
0.0
220
0.0
230
1.0
  0
TEXT
  8
2
  6
CONTINUOUS
 62
   110
  5
32F
 10
45.249417
 20
51.912
 30
0.0
 40
0.3
  1
PLAN
  7
MONOTXT
210
0.0
220
0.0
230
1.0
  0
TEXT
  8
2
  6
CONTINUOUS
 62
   110
  5
330
 10
42.066583
 20
47.270333
 30
0.0
 40
0.25
  1
ELEVATION
  7
MONOTXT
210
0.0
220
0.0
230
1.0
  0
TEXT
  8
2
  6
CONTINUOUS
 62
   110
  5
331
 10
46.67075
 20
46.04525
 30
0.0
 40
0.3
  1
INVERTED PLAN
  7
MONOTXT
210
0.0
220
0.0
230
1.0
  0
TEXT
  8
2
  6
DASHDOT
 62
   110
  5
332
 10
44.63325
 20
54.360417
 30
0.0
 40
0.133
  1
STORM
  7
MONOTXT
210
0.0
220
0.0
230
1.0
  0
TEXT
  8
2
  6
DASHDOT
 62
   110
  5
333
 10
46.078667
 20
54.360417
 30
0.0
 40
0.133
  1
SEWER
  7
MONOTXT
210
0.0
220
0.0
230
1.0
  0
TEXT
  8
2
  6
CONTINUOUS
 62
   110
  5
334
 10
44.958667
 20
38.70625
 30
0.0
 40
0.3
  1
SECTION
  7
MONOTXT
210
0.0
220
0.0
230
1.0
  0
TEXT
  8
2
  6
CONTINUOUS
 62
   110
  5
335
 10
58.013417
 20
40.589583
 30
0.0
 40
0.3
  1
SECTION A-A
  7
MONOTXT
210
0.0
220
0.0
230
1.0
  0
LINE
  8
1
  6
CONTINUOUS
 62
   110
  5
336
 10
47.989
 20
40.267917
 30
0.0
 11
48.416833
 21
40.267917
 31
0.0
  0
LINE
  8
1
  6
CONTINUOUS
 62
   110
  5
337
 10
47.989
 20
40.38775
 30
0.0
 11
48.416833
 21
40.38775
 31
0.0
  0
LINE
  8
1
  6
CONTINUOUS
 62
   110
  5
338
 10
48.236833
 20
40.087917
 30
0.0
 11
48.236833
 21
39.907917
 31
0.0
  0
LINE
  8
1
  6
CONTINUOUS
 62
   110
  5
339
 10
48.236833
 20
40.56775
 30
0.0
 11
48.236833
 21
40.74775
 31
0.0
  0
SOLID
  8
1
  6
CONTINUOUS
 62
   110
  5
33A
 10
48.20675
 20
40.087917
 30
0.0
 11
48.266833
 21
40.087917
 31
0.0
 12
48.236833
 22
40.267917
 32
0.0
 13
48.236833
 23
40.267917
 33
0.0
  0
SOLID
  8
1
  6
CONTINUOUS
 62
   110
  5
33B
 10
48.20675
 20
40.56775
 30
0.0
 11
48.266833
 21
40.56775
 31
0.0
 12
48.236833
 22
40.38775
 32
0.0
 13
48.236833
 23
40.38775
 33
0.0
  0
TEXT
  8
1
  6
DASHDOT
 62
   110
  5
33C
 10
48.464583
 20
40.667667
 30
0.0
 40
0.133
  1
3/4"
  7
MONOTXT
210
0.0
220
0.0
230
1.0
  0
LINE
  8
4
  6
CONTINUOUS
 62
   110
  5
33E
 10
47.9265
 20
40.267917
 30
0.0
 11
47.926583
 21
40.267917
 31
0.0
  0
LINE
  8
4
  6
CONTINUOUS
 62
   110
  5
33F
 10
47.9265
 20
40.38775
 30
0.0
 11
47.926583
 21
40.38775
 31
0.0
  0
LINE
  8
4
  6
CONTINUOUS
 62
   110
  5
340
 10
48.236833
 20
40.38775
 30
0.0
 11
48.236917
 21
40.38775
 31
0.0
  0
LINE
  8
1
  6
CONTINUOUS
 62
   110
  5
341
 10
43.388
 20
40.205417
 30
0.0
 11
43.388
 21
39.481583
 31
0.0
  0
LINE
  8
1
  6
CONTINUOUS
 62
   110
  5
342
 10
44.130083
 20
39.965833
 30
0.0
 11
44.130083
 21
39.481583
 31
0.0
  0
LINE
  8
1
  6
CONTINUOUS
 62
   110
  5
343
 10
43.208
 20
39.661583
 30
0.0
 11
43.028
 21
39.661583
 31
0.0
  0
LINE
  8
1
  6
CONTINUOUS
 62
   110
  5
344
 10
44.310083
 20
39.661583
 30
0.0
 11
44.490083
 21
39.661583
 31
0.0
  0
SOLID
  8
1
  6
CONTINUOUS
 62
   110
  5
345
 10
43.208
 20
39.691583
 30
0.0
 11
43.208
 21
39.631583
 31
0.0
 12
43.388
 22
39.661583
 32
0.0
 13
43.388
 23
39.661583
 33
0.0
  0
SOLID
  8
1
  6
CONTINUOUS
 62
   110
  5
346
 10
44.310083
 20
39.691583
 30
0.0
 11
44.310083
 21
39.631583
 31
0.0
 12
44.13
 22
39.661583
 32
0.0
 13
44.13
 23
39.661583
 33
0.0
  0
TEXT
  8
1
  6
DASHDOT
 62
   110
  5
347
 10
42.739333
 20
39.6175
 30
0.0
 40
0.133
  1
6"
  7
MONOTXT
210
0.0
220
0.0
230
1.0
  0
LINE
  8
4
  6
CONTINUOUS
 62
   110
  5
348
 10
43.388
 20
40.267917
 30
0.0
 11
43.388083
 21
40.267917
 31
0.0
  0
LINE
  8
4
  6
CONTINUOUS
 62
   110
  5
349
 10
44.130083
 20
40.028333
 30
0.0
 11
44.130167
 21
40.028333
 31
0.0
  0
LINE
  8
4
  6
CONTINUOUS
 62
   110
  5
34A
 10
44.130083
 20
39.661583
 30
0.0
 11
44.130167
 21
39.661583
 31
0.0
  0
LINE
  8
1
  6
CONTINUOUS
 62
   110
  5
34B
 10
43.325583
 20
40.267917
 30
0.0
 11
42.83375
 21
40.267917
 31
0.0
  0
LINE
  8
1
  6
CONTINUOUS
 62
   110
  5
34C
 10
43.9395
 20
41.407667
 30
0.0
 11
42.83375
 21
41.407667
 31
0.0
  0
LINE
  8
1
  6
CONTINUOUS
 62
   110
  5
34D
 10
43.01375
 20
40.447917
 30
0.0
 11
43.01375
 21
40.664417
 31
0.0
  0
LINE
  8
1
  6
CONTINUOUS
 62
   110
  5
34E
 10
43.01375
 20
41.227667
 30
0.0
 11
43.01375
 21
41.011083
 31
0.0
  0
SOLID
  8
1
  6
CONTINUOUS
 62
   110
  5
34F
 10
42.98375
 20
40.447917
 30
0.0
 11
43.04375
 21
40.447917
 31
0.0
 12
43.01375
 22
40.267917
 32
0.0
 13
43.01375
 23
40.267917
 33
0.0
  0
SOLID
  8
1
  6
CONTINUOUS
 62
   110
  5
350
 10
42.98375
 20
41.227667
 30
0.0
 11
43.04375
 21
41.227667
 31
0.0
 12
43.01375
 22
41.407667
 32
0.0
 13
43.01375
 23
41.407667
 33
0.0
  0
TEXT
  8
1
  6
DASHDOT
 62
   110
  5
351
 10
42.9275
 20
40.761583
 30
0.0
 40
0.133
  1
9"
  7
MONOTXT
210
0.0
220
0.0
230
1.0
  0
LINE
  8
4
  6
CONTINUOUS
 62
   110
  5
352
 10
43.388083
 20
40.267917
 30
0.0
 11
43.388167
 21
40.267917
 31
0.0
  0
LINE
  8
4
  6
CONTINUOUS
 62
   110
  5
353
 10
44.002
 20
41.407667
 30
0.0
 11
44.002083
 21
41.407667
 31
0.0
  0
LINE
  8
4
  6
CONTINUOUS
 62
   110
  5
354
 10
43.01375
 20
41.407667
 30
0.0
 11
43.013833
 21
41.407667
 31
0.0
  0
LINE
  8
1
  6
CONTINUOUS
 62
   110
  5
355
 10
44.130167
 20
41.470167
 30
0.0
 11
44.130167
 21
42.0345
 31
0.0
  0
LINE
  8
1
  6
CONTINUOUS
 62
   110
  5
356
 10
44.310167
 20
41.703083
 30
0.0
 11
44.566417
 21
41.703083
 31
0.0
  0
LINE
  8
1
  6
CONTINUOUS
 62
   110
  5
357
 10
45.472917
 20
41.703083
 30
0.0
 11
45.216667
 21
41.703083
 31
0.0
  0
SOLID
  8
1
  6
CONTINUOUS
 62
   110
  5
358
 10
44.310167
 20
41.733
 30
0.0
 11
44.310167
 21
41.673083
 31
0.0
 12
44.130083
 22
41.703083
 32
0.0
 13
44.130083
 23
41.703083
 33
0.0
  0
SOLID
  8
1
  6
CONTINUOUS
 62
   110
  5
359
 10
45.472917
 20
41.733
 30
0.0
 11
45.472917
 21
41.673083
 31
0.0
 12
45.652917
 22
41.703083
 32
0.0
 13
45.652917
 23
41.703083
 33
0.0
  0
TEXT
  8
1
  6
DASHDOT
 62
   110
  5
35A
 10
44.656417
 20
41.640583
 30
0.0
 40
0.133
  1
1'-0"
  7
MONOTXT
210
0.0
220
0.0
230
1.0
  0
LINE
  8
4
  6
CONTINUOUS
 62
   110
  5
35B
 10
44.130167
 20
41.407667
 30
0.0
 11
44.13025
 21
41.407667
 31
0.0
  0
LINE
  8
4
  6
CONTINUOUS
 62
   110
  5
35C
 10
45.652917
 20
41.399583
 30
0.0
 11
45.653
 21
41.399583
 31
0.0
  0
LINE
  8
4
  6
CONTINUOUS
 62
   110
  5
35D
 10
45.652917
 20
41.703083
 30
0.0
 11
45.653
 21
41.703083
 31
0.0
  0
LINE
  8
1
  6
CONTINUOUS
 62
   110
  5
35E
 10
44.002
 20
41.470167
 30
0.0
 11
44.002
 21
42.0345
 31
0.0
  0
LINE
  8
1
  6
CONTINUOUS
 62
   110
  5
35F
 10
44.130167
 20
41.961833
 30
0.0
 11
44.482417
 21
41.961833
 31
0.0
  0
LINE
  8
1
  6
CONTINUOUS
 62
   110
  5
360
 10
43.82975
 20
41.961833
 30
0.0
 11
43.64975
 21
41.961833
 31
0.0
  0
SOLID
  8
1
  6
CONTINUOUS
 62
   110
  5
361
 10
44.310167
 20
41.991833
 30
0.0
 11
44.310167
 21
41.931833
 31
0.0
 12
44.130167
 22
41.961833
 32
0.0
 13
44.130167
 23
41.961833
 33
0.0
  0
SOLID
  8
1
  6
CONTINUOUS
 62
   110
  5
362
 10
43.829667
 20
41.991833
 30
0.0
 11
43.829667
 21
41.931833
 31
0.0
 12
44.00975
 22
41.961833
 32
0.0
 13
44.00975
 23
41.961833
 33
0.0
  0
TEXT
  8
1
  6
DASHDOT
 62
   110
  5
363
 10
43.416917
 20
41.899333
 30
0.0
 40
0.133
  1
1"
  7
MONOTXT
210
0.0
220
0.0
230
1.0
  0
LINE
  8
4
  6
CONTINUOUS
 62
   110
  5
364
 10
44.122417
 20
41.407667
 30
0.0
 11
44.1225
 21
41.407667
 31
0.0
  0
LINE
  8
4
  6
CONTINUOUS
 62
   110
  5
365
 10
44.002
 20
41.407667
 30
0.0
 11
44.002083
 21
41.407667
 31
0.0
  0
LINE
  8
4
  6
CONTINUOUS
 62
   110
  5
366
 10
44.00975
 20
41.961833
 30
0.0
 11
44.009833
 21
41.961833
 31
0.0
  0
LINE
  8
1
  6
CONTINUOUS
 62
   110
  5
367
 10
47.06525
 20
41.470083
 30
0.0
 11
47.06525
 21
42.0425
 31
0.0
  0
LINE
  8
1
  6
CONTINUOUS
 62
   110
  5
368
 10
47.192167
 20
41.478167
 30
0.0
 11
47.192167
 21
42.0425
 31
0.0
  0
LINE
  8
1
  6
CONTINUOUS
 62
   110
  5
369
 10
46.120417
 20
41.767667
 30
0.0
 11
45.940417
 21
41.767667
 31
0.0
  0
LINE
  8
1
  6
CONTINUOUS
 62
   110
  5
36A
 10
47.372167
 20
41.971833
 30
0.0
 11
47.552167
 21
41.971833
 31
0.0
  0
SOLID
  8
1
  6
CONTINUOUS
 62
   110
  5
36B
 10
46.88525
 20
42.001833
 30
0.0
 11
46.88525
 21
41.941833
 31
0.0
 12
47.06525
 22
41.97175
 32
0.0
 13
47.06525
 23
41.97175
 33
0.0
  0
SOLID
  8
1
  6
CONTINUOUS
 62
   110
  5
36C
 10
47.372167
 20
42.001833
 30
0.0
 11
47.372167
 21
41.941833
 31
0.0
 12
47.192167
 22
41.97175
 32
0.0
 13
47.192167
 23
41.97175
 33
0.0
  0
TEXT
  8
1
  6
DASHDOT
 62
   110
  5
36D
 10
47.642167
 20
41.90925
 30
0.0
 40
0.133
  1
1"
  7
MONOTXT
210
0.0
220
0.0
230
1.0
  0
LINE
  8
4
  6
CONTINUOUS
 62
   110
  5
36E
 10
47.06525
 20
41.407583
 30
0.0
 11
47.065333
 21
41.407583
 31
0.0
  0
LINE
  8
4
  6
CONTINUOUS
 62
   110
  5
36F
 10
47.192167
 20
41.415667
 30
0.0
 11
47.19225
 21
41.415667
 31
0.0
  0
LINE
  8
4
  6
CONTINUOUS
 62
   110
  5
370
 10
47.192167
 20
41.971833
 30
0.0
 11
47.19225
 21
41.971833
 31
0.0
  0
LINE
  8
1
  6
CONTINUOUS
 62
   110
  5
371
 10
44.192667
 20
40.028333
 30
0.0
 11
45.083083
 21
40.028333
 31
0.0
  0
LINE
  8
1
  6
CONTINUOUS
 62
   110
  5
372
 10
44.200333
 20
40.267917
 30
0.0
 11
45.083083
 21
40.267917
 31
0.0
  0
LINE
  8
1
  6
CONTINUOUS
 62
   110
  5
373
 10
44.903083
 20
39.848333
 30
0.0
 11
44.903083
 21
39.668333
 31
0.0
  0
LINE
  8
1
  6
CONTINUOUS
 62
   110
  5
374
 10
44.903083
 20
40.447917
 30
0.0
 11
44.903083
 21
40.627917
 31
0.0
  0
SOLID
  8
1
  6
CONTINUOUS
 62
   110
  5
375
 10
44.873083
 20
39.848333
 30
0.0
 11
44.933083
 21
39.848333
 31
0.0
 12
44.903083
 22
40.028333
 32
0.0
 13
44.903083
 23
40.028333
 33
0.0
  0
SOLID
  8
1
  6
CONTINUOUS
 62
   110
  5
376
 10
44.873083
 20
40.447917
 30
0.0
 11
44.933083
 21
40.447917
 31
0.0
 12
44.903083
 22
40.267917
 32
0.0
 13
44.903083
 23
40.267917
 33
0.0
  0
TEXT
  8
1
  6
DASHDOT
 62
   110
  5
377
 10
44.46075
 20
40.5835
 30
0.0
 40
0.133
  1
2"
  7
MONOTXT
210
0.0
220
0.0
230
1.0
  0
LINE
  8
4
  6
CONTINUOUS
 62
   110
  5
378
 10
44.130167
 20
40.028333
 30
0.0
 11
44.13025
 21
40.028333
 31
0.0
  0
LINE
  8
4
  6
CONTINUOUS
 62
   110
  5
379
 10
44.137833
 20
40.267917
 30
0.0
 11
44.137917
 21
40.267917
 31
0.0
  0
LINE
  8
4
  6
CONTINUOUS
 62
   110
  5
37A
 10
44.903083
 20
40.267917
 30
0.0
 11
44.903167
 21
40.267917
 31
0.0
  0
LINE
  8
1
  6
CONTINUOUS
 62
   110
  5
37B
 10
45.787583
 20
41.172083
 30
0.0
 11
46.120417
 21
41.172083
 31
0.0
  0
LINE
  8
1
  6
CONTINUOUS
 62
   110
  5
37C
 10
45.923
 20
41.407667
 30
0.0
 11
46.248083
 21
41.407667
 31
0.0
  0
LINE
  8
1
  6
CONTINUOUS
 62
   110
  5
37D
 10
45.940417
 20
40.992083
 30
0.0
 11
45.940417
 21
40.812083
 31
0.0
  0
LINE
  8
1
  6
CONTINUOUS
 62
   110
  5
37E
 10
45.940417
 20
41.410917
 30
0.0
 11
45.940417
 21
41.767667
 31
0.0
  0
SOLID
  8
1
  6
CONTINUOUS
 62
   110
  5
37F
 10
45.910417
 20
40.992083
 30
0.0
 11
45.970417
 21
40.992083
 31
0.0
 12
45.940417
 22
41.172083
 32
0.0
 13
45.940417
 23
41.172083
 33
0.0
  0
SOLID
  8
1
  6
CONTINUOUS
 62
   110
  5
380
 10
45.910417
 20
41.590917
 30
0.0
 11
45.970417
 21
41.590917
 31
0.0
 12
45.940417
 22
41.410917
 32
0.0
 13
45.940417
 23
41.410917
 33
0.0
  0
TEXT
  8
1
  6
DASHDOT
 62
   110
  5
381
 10
46.1855
 20
41.71375
 30
0.0
 40
0.133
  1
2"
  7
MONOTXT
210
0.0
220
0.0
230
1.0
  0
LINE
  8
4
  6
CONTINUOUS
 62
   110
  5
382
 10
45.85275
 20
41.168833
 30
0.0
 11
45.852833
 21
41.168833
 31
0.0
  0
LINE
  8
4
  6
CONTINUOUS
 62
   110
  5
383
 10
45.8605
 20
41.407667
 30
0.0
 11
45.860583
 21
41.407667
 31
0.0
  0
LINE
  8
4
  6
CONTINUOUS
 62
   110
  5
384
 10
45.940417
 20
41.410917
 30
0.0
 11
45.9405
 21
41.410917
 31
0.0
  0
LINE
  8
1
  6
CONTINUOUS
 62
   110
  5
385
 10
46.675833
 20
41.16075
 30
0.0
 11
46.334167
 21
41.16075
 31
0.0
  0
LINE
  8
1
  6
CONTINUOUS
 62
   110
  5
386
 10
46.675833
 20
41.295917
 30
0.0
 11
46.334167
 21
41.295917
 31
0.0
  0
LINE
  8
1
  6
CONTINUOUS
 62
   110
  5
387
 10
46.514167
 20
40.98075
 30
0.0
 11
46.514167
 21
40.80075
 31
0.0
  0
LINE
  8
1
  6
CONTINUOUS
 62
   110
  5
388
 10
46.514167
 20
41.475917
 30
0.0
 11
46.514167
 21
41.655917
 31
0.0
  0
SOLID
  8
1
  6
CONTINUOUS
 62
   110
  5
389
 10
46.484167
 20
40.98075
 30
0.0
 11
46.544167
 21
40.98075
 31
0.0
 12
46.514167
 22
41.16075
 32
0.0
 13
46.514167
 23
41.16075
 33
0.0
  0
SOLID
  8
1
  6
CONTINUOUS
 62
   110
  5
38A
 10
46.484167
 20
41.475833
 30
0.0
 11
46.544167
 21
41.475833
 31
0.0
 12
46.514167
 22
41.295917
 32
0.0
 13
46.514167
 23
41.295917
 33
0.0
  0
TEXT
  8
1
  6
DASHDOT
 62
   110
  5
38B
 10
46.748333
 20
41.59875
 30
0.0
 40
0.133
  1
1"
  7
MONOTXT
210
0.0
220
0.0
230
1.0
  0
LINE
  8
4
  6
CONTINUOUS
 62
   110
  5
38C
 10
46.738333
 20
41.16075
 30
0.0
 11
46.738417
 21
41.16075
 31
0.0
  0
LINE
  8
4
  6
CONTINUOUS
 62
   110
  5
38D
 10
46.738333
 20
41.295917
 30
0.0
 11
46.738417
 21
41.295917
 31
0.0
  0
LINE
  8
4
  6
CONTINUOUS
 62
   110
  5
38E
 10
46.514167
 20
41.295917
 30
0.0
 11
46.51425
 21
41.295917
 31
0.0
  0
SOLID
  8
2
  6
CONTINUOUS
 62
   110
  5
38F
 10
45.785917
 20
56.051917
 30
0.0
 11
45.72825
 21
56.068417
 31
0.0
 12
45.707667
 22
55.887
 32
0.0
 13
45.707667
 23
55.887
 33
0.0
  0
LINE
  8
2
  6
CONTINUOUS
 62
   110
  5
390
 10
45.757083
 20
56.060167
 30
0.0
 11
45.812583
 21
56.254583
 31
0.0
  0
LINE
  8
2
  6
CONTINUOUS
 62
   110
  5
391
 10
45.812583
 20
56.254583
 30
0.0
 11
45.984833
 21
56.254583
 31
0.0
  0
TEXT
  8
2
  6
DASHDOT
 62
   110
  5
392
 10
46.074833
 20
56.192
 30
0.0
 40
0.133
  1
3/4"R
  7
MONOTXT
210
0.0
220
0.0
230
1.0
  0
SOLID
  8
2
  6
CONTINUOUS
 62
   110
  5
393
 10
44.368917
 20
55.07475
 30
0.0
 11
44.354167
 21
55.016583
 31
0.0
 12
44.536083
 22
55.0015
 32
0.0
 13
44.536083
 23
55.0015
 33
0.0
  0
LINE
  8
2
  6
CONTINUOUS
 62
   110
  5
394
 10
44.361583
 20
55.045667
 30
0.0
 11
43.350083
 21
55.301833
 31
0.0
  0
LINE
  8
2
  6
CONTINUOUS
 62
   110
  5
395
 10
43.350083
 20
55.301833
 30
0.0
 11
43.237417
 21
55.301833
 31
0.0
  0
TEXT
  8
2
  6
DASHDOT
 62
   110
  5
396
 10
41.492667
 20
55.239333
 30
0.0
 40
0.133
  1
Lugs Raised 1/8"
  7
MONOTXT
210
0.0
220
0.0
230
1.0
  0
SOLID
  8
2
  6
CONTINUOUS
 62
   110
  5
397
 10
44.452
 20
54.528167
 30
0.0
 11
44.431667
 21
54.47175
 31
0.0
 12
44.611167
 22
54.438917
 32
0.0
 13
44.611167
 23
54.438917
 33
0.0
  0
LINE
  8
2
  6
CONTINUOUS
 62
   110
  5
398
 10
44.441833
 20
54.499917
 30
0.0
 11
43.425167
 21
54.866333
 31
0.0
  0
LINE
  8
2
  6
CONTINUOUS
 62
   110
  5
399
 10
43.425167
 20
54.866333
 30
0.0
 11
43.328
 21
54.866333
 31
0.0
  0
TEXT
  8
2
  6
DASHDOT
 62
   110
  5
39A
 10
41.351083
 20
54.803833
 30
0.0
 40
0.133
  1
Letters Raised 1/8"
  7
MONOTXT
210
0.0
220
0.0
230
1.0
  0
LINE
  8
2
  6
CONTINUOUS
 62
   110
  5
39B
 10
47.126
 20
50.140417
 30
0.0
 11
47.126
 21
50.139583
 31
0.0
  0
SOLID
  8
2
  6
CONTINUOUS
 62
   110
  5
39C
 10
47.059833
 20
48.435667
 30
0.0
 11
47.102917
 21
48.393917
 31
0.0
 12
47.206583
 22
48.544083
 32
0.0
 13
47.206583
 23
48.544083
 33
0.0
  0
LINE
  8
2
  6
CONTINUOUS
 62
   110
  5
39D
 10
47.081417
 20
48.41475
 30
0.0
 11
45.512667
 21
46.794833
 31
0.0
  0
LINE
  8
2
  6
CONTINUOUS
 62
   110
  5
39E
 10
45.512667
 20
46.794833
 30
0.0
 11
45.067667
 21
46.794833
 31
0.0
  0
TEXT
  8
2
  6
DASHDOT
 62
   110
  5
39F
 10
42.953833
 20
46.732333
 30
0.0
 40
0.133
  1
Bottom Ribs Optional
  7
MONOTXT
210
0.0
220
0.0
230
1.0
  0
SOLID
  8
2
  6
CONTINUOUS
 62
   110
  5
3A0
 10
43.549667
 20
48.174833
 30
0.0
 11
43.58475
 21
48.2235
 31
0.0
 12
43.42125
 22
48.3045
 32
0.0
 13
43.42125
 23
48.3045
 33
0.0
  0
LINE
  8
2
  6
CONTINUOUS
 62
   110
  5
3A1
 10
43.567167
 20
48.199167
 30
0.0
 11
45.512667
 21
46.794833
 31
0.0
  0
LINE
  8
1
  6
CONTINUOUS
 62
   110
  5
3A2
 10
41.555083
 20
48.613083
 30
0.0
 11
41.555083
 21
49.078667
 31
0.0
  0
LINE
  8
1
  6
CONTINUOUS
 62
   110
  5
3A3
 10
44.555333
 20
48.613083
 30
0.0
 11
44.555333
 21
49.078667
 31
0.0
  0
LINE
  8
1
  6
CONTINUOUS
 62
   110
  5
3A4
 10
41.735083
 20
48.898667
 30
0.0
 11
42.58125
 21
48.898667
 31
0.0
  0
LINE
  8
1
  6
CONTINUOUS
 62
   110
  5
3A5
 10
44.375333
 20
48.898667
 30
0.0
 11
43.529083
 21
48.898667
 31
0.0
  0
SOLID
  8
1
  6
CONTINUOUS
 62
   110
  5
3A6
 10
41.735083
 20
48.928667
 30
0.0
 11
41.735083
 21
48.868667
 31
0.0
 12
41.555083
 22
48.898667
 32
0.0
 13
41.555083
 23
48.898667
 33
0.0
  0
SOLID
  8
1
  6
CONTINUOUS
 62
   110
  5
3A7
 10
44.375333
 20
48.928667
 30
0.0
 11
44.375333
 21
48.868667
 31
0.0
 12
44.555333
 22
48.898667
 32
0.0
 13
44.555333
 23
48.898667
 33
0.0
  0
LINE
  8
4
  6
CONTINUOUS
 62
   110
  5
3A8
 10
41.555083
 20
48.550583
 30
0.0
 11
41.555167
 21
48.550583
 31
0.0
  0
LINE
  8
4
  6
CONTINUOUS
 62
   110
  5
3A9
 10
44.555333
 20
48.550583
 30
0.0
 11
44.555417
 21
48.550583
 31
0.0
  0
LINE
  8
4
  6
CONTINUOUS
 62
   110
  5
3AA
 10
44.555333
 20
48.898667
 30
0.0
 11
44.555417
 21
48.898667
 31
0.0
  0
LINE
  8
1
  6
CONTINUOUS
 62
   110
  5
3AB
 10
46.311583
 20
48.261333
 30
0.0
 11
46.311583
 21
48.081333
 31
0.0
  0
LINE
  8
1
  6
CONTINUOUS
 62
   110
  5
3AC
 10
46.311583
 20
48.792083
 30
0.0
 11
46.311583
 21
48.972083
 31
0.0
  0
SOLID
  8
1
  6
CONTINUOUS
 62
   110
  5
3AD
 10
46.281583
 20
48.261333
 30
0.0
 11
46.341583
 21
48.261333
 31
0.0
 12
46.311583
 22
48.441333
 32
0.0
 13
46.311583
 23
48.441333
 33
0.0
  0
SOLID
  8
1
  6
CONTINUOUS
 62
   110
  5
3AE
 10
46.281583
 20
48.792083
 30
0.0
 11
46.341583
 21
48.792083
 31
0.0
 12
46.311583
 22
48.612083
 32
0.0
 13
46.311583
 23
48.612083
 33
0.0
  0
LINE
  8
4
  6
CONTINUOUS
 62
   110
  5
3AF
 10
46.605917
 20
48.441333
 30
0.0
 11
46.606
 21
48.441333
 31
0.0
  0
LINE
  8
4
  6
CONTINUOUS
 62
   110
  5
3B0
 10
46.59925
 20
48.612083
 30
0.0
 11
46.599333
 21
48.612083
 31
0.0
  0
LINE
  8
4
  6
CONTINUOUS
 62
   110
  5
3B1
 10
46.311583
 20
48.612083
 30
0.0
 11
46.311667
 21
48.612083
 31
0.0
  0
LINE
  8
1
  6
CONTINUOUS
 62
   110
  5
3B2
 10
44.611167
 20
48.366
 30
0.0
 11
45.186917
 21
48.366
 31
0.0
  0
LINE
  8
1
  6
CONTINUOUS
 62
   110
  5
3B3
 10
44.611167
 20
48.489083
 30
0.0
 11
45.186917
 21
48.489083
 31
0.0
  0
LINE
  8
1
  6
CONTINUOUS
 62
   110
  5
3B4
 10
45.006917
 20
48.186
 30
0.0
 11
45.006917
 21
48.006
 31
0.0
  0
LINE
  8
1
  6
CONTINUOUS
 62
   110
  5
3B5
 10
45.006917
 20
48.669083
 30
0.0
 11
45.006917
 21
48.849083
 31
0.0
  0
SOLID
  8
1
  6
CONTINUOUS
 62
   110
  5
3B6
 10
44.976833
 20
48.186
 30
0.0
 11
45.036917
 21
48.186
 31
0.0
 12
45.006917
 22
48.366
 32
0.0
 13
45.006917
 23
48.366
 33
0.0
  0
SOLID
  8
1
  6
CONTINUOUS
 62
   110
  5
3B7
 10
44.976833
 20
48.669083
 30
0.0
 11
45.036917
 21
48.669083
 31
0.0
 12
45.006917
 22
48.489083
 32
0.0
 13
45.006917
 23
48.489083
 33
0.0
  0
TEXT
  8
1
  6
DASHDOT
 62
   110
  5
3B8
 10
45.236833
 20
48.36225
 30
0.0
 40
0.133
  1
1"
  7
MONOTXT
210
0.0
220
0.0
230
1.0
  0
LINE
  8
4
  6
CONTINUOUS
 62
   110
  5
3B9
 10
44.548667
 20
48.366
 30
0.0
 11
44.54875
 21
48.366
 31
0.0
  0
LINE
  8
4
  6
CONTINUOUS
 62
   110
  5
3BA
 10
44.548667
 20
48.489083
 30
0.0
 11
44.54875
 21
48.489083
 31
0.0
  0
LINE
  8
4
  6
CONTINUOUS
 62
   110
  5
3BB
 10
45.006917
 20
48.489083
 30
0.0
 11
45.007
 21
48.489083
 31
0.0
  0
LINE
  8
1
  6
CONTINUOUS
 62
   110
  5
3BC
 10
42.613417
 20
48.119833
 30
0.0
 11
40.856083
 21
48.119833
 31
0.0
  0
LINE
  8
1
  6
CONTINUOUS
 62
   110
  5
3BD
 10
41.485917
 20
48.3595
 30
0.0
 11
40.856083
 21
48.3595
 31
0.0
  0
LINE
  8
1
  6
CONTINUOUS
 62
   110
  5
3BE
 10
41.036083
 20
47.939833
 30
0.0
 11
41.036083
 21
47.759833
 31
0.0
  0
LINE
  8
1
  6
CONTINUOUS
 62
   110
  5
3BF
 10
41.036083
 20
48.5395
 30
0.0
 11
41.036083
 21
48.7195
 31
0.0
  0
SOLID
  8
1
  6
CONTINUOUS
 62
   110
  5
3C0
 10
41.006083
 20
47.939833
 30
0.0
 11
41.066083
 21
47.939833
 31
0.0
 12
41.036083
 22
48.119833
 32
0.0
 13
41.036083
 23
48.119833
 33
0.0
  0
SOLID
  8
1
  6
CONTINUOUS
 62
   110
  5
3C1
 10
41.006083
 20
48.5395
 30
0.0
 11
41.066083
 21
48.5395
 31
0.0
 12
41.036083
 22
48.3595
 32
0.0
 13
41.036083
 23
48.3595
 33
0.0
  0
TEXT
  8
1
  6
DASHDOT
 62
   110
  5
3C2
 10
40.968417
 20
48.176917
 30
0.0
 40
0.133
  1
2"
  7
MONOTXT
210
0.0
220
0.0
230
1.0
  0
LINE
  8
4
  6
CONTINUOUS
 62
   110
  5
3C3
 10
42.675917
 20
48.119833
 30
0.0
 11
42.676
 21
48.119833
 31
0.0
  0
LINE
  8
4
  6
CONTINUOUS
 62
   110
  5
3C4
 10
41.548417
 20
48.3595
 30
0.0
 11
41.5485
 21
48.3595
 31
0.0
  0
LINE
  8
4
  6
CONTINUOUS
 62
   110
  5
3C5
 10
41.036083
 20
48.3595
 30
0.0
 11
41.036167
 21
48.3595
 31
0.0
  0
LINE
  8
1
  6
CONTINUOUS
 62
   110
  5
3C6
 10
47.833833
 20
50.292583
 30
0.0
 11
47.653833
 21
50.292583
 31
0.0
  0
LINE
  8
1
  6
CONTINUOUS
 62
   110
  5
3C7
 10
48.4345
 20
50.292583
 30
0.0
 11
48.6145
 21
50.292583
 31
0.0
  0
SOLID
  8
1
  6
CONTINUOUS
 62
   110
  5
3C8
 10
47.833833
 20
50.322583
 30
0.0
 11
47.833833
 21
50.262583
 31
0.0
 12
48.013833
 22
50.292583
 32
0.0
 13
48.013833
 23
50.292583
 33
0.0
  0
SOLID
  8
1
  6
CONTINUOUS
 62
   110
  5
3C9
 10
48.4345
 20
50.322583
 30
0.0
 11
48.4345
 21
50.262583
 31
0.0
 12
48.2545
 22
50.292583
 32
0.0
 13
48.2545
 23
50.292583
 33
0.0
  0
LINE
  8
4
  6
CONTINUOUS
 62
   110
  5
3CA
 10
48.013833
 20
50.041667
 30
0.0
 11
48.013917
 21
50.041667
 31
0.0
  0
LINE
  8
4
  6
CONTINUOUS
 62
   110
  5
3CB
 10
48.2545
 20
50.041667
 30
0.0
 11
48.254583
 21
50.041667
 31
0.0
  0
LINE
  8
4
  6
CONTINUOUS
 62
   110
  5
3CC
 10
48.2545
 20
50.292583
 30
0.0
 11
48.254583
 21
50.292583
 31
0.0
  0
LINE
  8
1
  6
CONTINUOUS
 62
   110
  5
3CD
 10
57.873917
 20
43.4875
 30
0.0
 11
58.307917
 21
43.4875
 31
0.0
  0
LINE
  8
1
  6
CONTINUOUS
 62
   110
  5
3CE
 10
57.535833
 20
46.6555
 30
0.0
 11
58.307917
 21
46.6555
 31
0.0
  0
LINE
  8
1
  6
CONTINUOUS
 62
   110
  5
3CF
 10
58.082917
 20
43.7125
 30
0.0
 11
58.082917
 21
44.560917
 31
0.0
  0
LINE
  8
1
  6
CONTINUOUS
 62
   110
  5
3D0
 10
58.082917
 20
46.4305
 30
0.0
 11
58.082917
 21
45.775083
 31
0.0
  0
SOLID
  8
1
  6
CONTINUOUS
 62
   110
  5
3D1
 10
58.045417
 20
43.7125
 30
0.0
 11
58.120417
 21
43.7125
 31
0.0
 12
58.082917
 22
43.4875
 32
0.0
 13
58.082917
 23
43.4875
 33
0.0
  0
SOLID
  8
1
  6
CONTINUOUS
 62
   110
  5
3D2
 10
58.045417
 20
46.4305
 30
0.0
 11
58.120417
 21
46.4305
 31
0.0
 12
58.082917
 22
46.6555
 32
0.0
 13
58.082917
 23
46.6555
 33
0.0
  0
LINE
  8
4
  6
CONTINUOUS
 62
   110
  5
3D3
 10
57.795833
 20
43.4875
 30
0.0
 11
57.795917
 21
43.4875
 31
0.0
  0
LINE
  8
4
  6
CONTINUOUS
 62
   110
  5
3D4
 10
57.457667
 20
46.6555
 30
0.0
 11
57.457833
 21
46.6555
 31
0.0
  0
LINE
  8
4
  6
CONTINUOUS
 62
   110
  5
3D5
 10
58.082917
 20
46.6555
 30
0.0
 11
58.083
 21
46.6555
 31
0.0
  0
LINE
  8
1
  6
CONTINUOUS
 62
   110
  5
3D6
 10
54.191833
 20
44.7855
 30
0.0
 11
54.191833
 21
45.235917
 31
0.0
  0
LINE
  8
1
  6
CONTINUOUS
 62
   110
  5
3D7
 10
54.517583
 20
44.7795
 30
0.0
 11
54.517583
 21
45.235917
 31
0.0
  0
LINE
  8
1
  6
CONTINUOUS
 62
   110
  5
3D8
 10
53.966833
 20
45.010917
 30
0.0
 11
53.741833
 21
45.010917
 31
0.0
  0
LINE
  8
1
  6
CONTINUOUS
 62
   110
  5
3D9
 10
54.742583
 20
45.010917
 30
0.0
 11
54.967583
 21
45.010917
 31
0.0
  0
SOLID
  8
1
  6
CONTINUOUS
 62
   110
  5
3DA
 10
53.966833
 20
45.048417
 30
0.0
 11
53.966833
 21
44.973417
 31
0.0
 12
54.191833
 22
45.010917
 32
0.0
 13
54.191833
 23
45.010917
 33
0.0
  0
SOLID
  8
1
  6
CONTINUOUS
 62
   110
  5
3DB
 10
54.742583
 20
45.048417
 30
0.0
 11
54.742583
 21
44.973417
 31
0.0
 12
54.517583
 22
45.010917
 32
0.0
 13
54.517583
 23
45.010917
 33
0.0
  0
TEXT
  8
1
  6
DASHDOT
 62
   110
  5
3DC
 10
55.080083
 20
44.932833
 30
0.0
 40
0.133
  1
1" Min.
  7
MONOTXT
210
0.0
220
0.0
230
1.0
  0
LINE
  8
4
  6
CONTINUOUS
 62
   110
  5
3DD
 10
54.191833
 20
44.707417
 30
0.0
 11
54.192
 21
44.707417
 31
0.0
  0
LINE
  8
4
  6
CONTINUOUS
 62
   110
  5
3DE
 10
54.517583
 20
44.701333
 30
0.0
 11
54.517667
 21
44.701333
 31
0.0
  0
LINE
  8
4
  6
CONTINUOUS
 62
   110
  5
3DF
 10
54.517583
 20
45.010917
 30
0.0
 11
54.517667
 21
45.010917
 31
0.0
  0
LINE
  8
1
  6
CONTINUOUS
 62
   110
  5
3E0
 10
54.813833
 20
43.487417
 30
0.0
 11
55.18425
 21
43.487417
 31
0.0
  0
LINE
  8
1
  6
CONTINUOUS
 62
   110
  5
3E1
 10
54.813833
 20
43.847583
 30
0.0
 11
55.18425
 21
43.847583
 31
0.0
  0
SOLID
  8
1
  6
CONTINUOUS
 62
   110
  5
3E2
 10
54.92175
 20
43.262417
 30
0.0
 11
54.99675
 21
43.262417
 31
0.0
 12
54.959167
 22
43.487417
 32
0.0
 13
54.959167
 23
43.487417
 33
0.0
  0
SOLID
  8
1
  6
CONTINUOUS
 62
   110
  5
3E3
 10
54.92175
 20
44.072583
 30
0.0
 11
54.99675
 21
44.072583
 31
0.0
 12
54.959167
 22
43.847583
 32
0.0
 13
54.959167
 23
43.847583
 33
0.0
  0
TEXT
  8
1
  6
DASHDOT
 62
   110
  5
3E4
 10
55.35225
 20
44.43775
 30
0.0
 40
0.133
  1
1" Min.
  7
MONOTXT
210
0.0
220
0.0
230
1.0
  0
LINE
  8
4
  6
CONTINUOUS
 62
   110
  5
3E5
 10
54.73575
 20
43.487417
 30
0.0
 11
54.735833
 21
43.487417
 31
0.0
  0
LINE
  8
4
  6
CONTINUOUS
 62
   110
  5
3E6
 10
54.73575
 20
43.847583
 30
0.0
 11
54.735833
 21
43.847583
 31
0.0
  0
LINE
  8
4
  6
CONTINUOUS
 62
   110
  5
3E7
 10
54.95925
 20
43.847583
 30
0.0
 11
54.959333
 21
43.847583
 31
0.0
  0
SOLID
  8
2
  6
CONTINUOUS
 62
   110
  5
3E8
 10
55.9925
 20
44.055333
 30
0.0
 11
55.9925
 21
44.167917
 31
0.0
 12
55.655
 22
44.111583
 32
0.0
 13
55.655
 23
44.111583
 33
0.0
  0
LINE
  8
2
  6
CONTINUOUS
 62
   110
  5
3E9
 10
55.655
 20
44.111667
 30
0.0
 11
56.197417
 21
44.111667
 31
0.0
  0
LINE
  8
2
  6
CONTINUOUS
 62
   110
  5
3EA
 10
55.655
 20
43.315417
 30
0.0
 11
56.197417
 21
43.315417
 31
0.0
  0
SOLID
  8
2
  6
CONTINUOUS
 62
   110
  5
3EB
 10
55.9925
 20
43.259167
 30
0.0
 11
55.9925
 21
43.371667
 31
0.0
 12
55.655
 22
43.315417
 32
0.0
 13
55.655
 23
43.315417
 33
0.0
  0
LINE
  8
2
  6
CONTINUOUS
 62
   110
  5
3EC
 10
56.197417
 20
44.111667
 30
0.0
 11
56.197417
 21
43.315417
 31
0.0
  0
TEXT
  8
2
  6
CONTINUOUS
 62
   110
  5
3ED
 10
55.590083
 20
44.052167
 30
0.0
 40
0.15625
  1
A
 50
90.0
  7
MONOTXT
210
0.0
220
0.0
230
1.0
  0
TEXT
  8
2
  6
CONTINUOUS
 62
   110
  5
3EE
 10
55.590083
 20
43.25575
 30
0.0
 40
0.15625
  1
A
 50
90.0
  7
MONOTXT
210
0.0
220
0.0
230
1.0
  0
LINE
  8
1
  6
CONTINUOUS
 62
   110
  5
3EF
 10
54.207083
 20
41.84175
 30
0.0
 11
54.207083
 21
42.5755
 31
0.0
  0
LINE
  8
1
  6
CONTINUOUS
 62
   110
  5
3F0
 10
57.602583
 20
41.84175
 30
0.0
 11
57.602583
 21
42.5755
 31
0.0
  0
LINE
  8
1
  6
CONTINUOUS
 62
   110
  5
3F1
 10
54.432083
 20
42.3505
 30
0.0
 11
55.33475
 21
42.3505
 31
0.0
  0
LINE
  8
1
  6
CONTINUOUS
 62
   110
  5
3F2
 10
57.377583
 20
42.3505
 30
0.0
 11
56.474917
 21
42.3505
 31
0.0
  0
SOLID
  8
1
  6
CONTINUOUS
 62
   110
  5
3F3
 10
54.432083
 20
42.388
 30
0.0
 11
54.432083
 21
42.313
 31
0.0
 12
54.207083
 22
42.3505
 32
0.0
 13
54.207083
 23
42.3505
 33
0.0
  0
SOLID
  8
1
  6
CONTINUOUS
 62
   110
  5
3F4
 10
57.377583
 20
42.388
 30
0.0
 11
57.377583
 21
42.313
 31
0.0
 12
57.602583
 22
42.3505
 32
0.0
 13
57.602583
 23
42.3505
 33
0.0
  0
TEXT
  8
1
  6
DASHDOT
 62
   110
  5
3F5
 10
55.447167
 20
42.272417
 30
0.0
 40
0.133
  1
10" Min.
  7
MONOTXT
210
0.0
220
0.0
230
1.0
  0
LINE
  8
4
  6
CONTINUOUS
 62
   110
  5
3F6
 10
54.207083
 20
41.763667
 30
0.0
 11
54.207167
 21
41.763667
 31
0.0
  0
LINE
  8
4
  6
CONTINUOUS
 62
   110
  5
3F7
 10
57.602583
 20
41.763667
 30
0.0
 11
57.602667
 21
41.763667
 31
0.0
  0
LINE
  8
4
  6
CONTINUOUS
 62
   110
  5
3F8
 10
57.602583
 20
42.3505
 30
0.0
 11
57.602667
 21
42.3505
 31
0.0
  0
LINE
  8
1
  6
CONTINUOUS
 62
   110
  5
3F9
 10
53.97575
 20
41.987333
 30
0.0
 11
53.52375
 21
41.987333
 31
0.0
  0
LINE
  8
1
  6
CONTINUOUS
 62
   110
  5
3FA
 10
53.961833
 20
41.760667
 30
0.0
 11
53.52375
 21
41.760667
 31
0.0
  0
LINE
  8
1
  6
CONTINUOUS
 62
   110
  5
3FB
 10
53.74875
 20
42.212333
 30
0.0
 11
53.74875
 21
42.437333
 31
0.0
  0
LINE
  8
1
  6
CONTINUOUS
 62
   110
  5
3FC
 10
53.74875
 20
41.535667
 30
0.0
 11
53.74875
 21
41.310667
 31
0.0
  0
LINE
  8
1
  6
CONTINUOUS
 62
   110
  5
3FD
 10
53.74875
 20
41.310667
 30
0.0
 11
53.52375
 21
41.310667
 31
0.0
  0
SOLID
  8
1
  6
CONTINUOUS
 62
   110
  5
3FE
 10
53.71125
 20
42.212167
 30
0.0
 11
53.78625
 21
42.212167
 31
0.0
 12
53.74875
 22
41.987333
 32
0.0
 13
53.74875
 23
41.987333
 33
0.0
  0
SOLID
  8
1
  6
CONTINUOUS
 62
   110
  5
3FF
 10
53.71125
 20
41.535667
 30
0.0
 11
53.78625
 21
41.535667
 31
0.0
 12
53.74875
 22
41.760667
 32
0.0
 13
53.74875
 23
41.760667
 33
0.0
  0
LINE
  8
4
  6
CONTINUOUS
 62
   110
  5
400
 10
54.053833
 20
41.987333
 30
0.0
 11
54.053917
 21
41.987333
 31
0.0
  0
LINE
  8
4
  6
CONTINUOUS
 62
   110
  5
401
 10
54.04
 20
41.760667
 30
0.0
 11
54.040083
 21
41.760667
 31
0.0
  0
LINE
  8
4
  6
CONTINUOUS
 62
   110
  5
402
 10
53.74875
 20
41.760667
 30
0.0
 11
53.748833
 21
41.760667
 31
0.0
  0
LINE
  8
1
  6
CONTINUOUS
 62
   110
  5
403
 10
56.018833
 20
41.760667
 30
0.0
 11
56.284333
 21
41.760667
 31
0.0
  0
LINE
  8
1
  6
CONTINUOUS
 62
   110
  5
404
 10
56.018833
 20
41.461167
 30
0.0
 11
56.284333
 21
41.461167
 31
0.0
  0
LINE
  8
1
  6
CONTINUOUS
 62
   110
  5
405
 10
56.059333
 20
41.236167
 30
0.0
 11
56.059333
 21
41.011167
 31
0.0
  0
LINE
  8
1
  6
CONTINUOUS
 62
   110
  5
406
 10
56.059333
 20
41.011167
 30
0.0
 11
55.834333
 21
41.011167
 31
0.0
  0
SOLID
  8
1
  6
CONTINUOUS
 62
   110
  5
407
 10
56.021833
 20
41.985667
 30
0.0
 11
56.096833
 21
41.985667
 31
0.0
 12
56.059333
 22
41.760667
 32
0.0
 13
56.059333
 23
41.760667
 33
0.0
  0
SOLID
  8
1
  6
CONTINUOUS
 62
   110
  5
408
 10
56.021833
 20
41.236167
 30
0.0
 11
56.096833
 21
41.236167
 31
0.0
 12
56.059333
 22
41.461167
 32
0.0
 13
56.059333
 23
41.461167
 33
0.0
  0
TEXT
  8
1
  6
DASHDOT
 62
   110
  5
409
 10
54.955417
 20
40.933
 30
0.0
 40
0.133
  1
1" Min.
  7
MONOTXT
210
0.0
220
0.0
230
1.0
  0
LINE
  8
4
  6
CONTINUOUS
 62
   110
  5
40A
 10
55.94075
 20
41.760667
 30
0.0
 11
55.940833
 21
41.760667
 31
0.0
  0
LINE
  8
4
  6
CONTINUOUS
 62
   110
  5
40B
 10
55.94075
 20
41.461167
 30
0.0
 11
55.940833
 21
41.461167
 31
0.0
  0
LINE
  8
4
  6
CONTINUOUS
 62
   110
  5
40C
 10
56.059333
 20
41.461167
 30
0.0
 11
56.0595
 21
41.461167
 31
0.0
  0
TEXT
  8
2
  6
DASHDOT
 62
   110
  5
40D
 10
59.003
 20
40.178917
 30
0.0
 40
0.133
  1
(Enlarged)
  7
MONOTXT
210
0.0
220
0.0
230
1.0
  0
LINE
  8
1
  6
CONTINUOUS
 62
   110
  5
40E
 10
59.258833
 20
44.370917
 30
0.0
 11
59.258833
 21
44.695917
 31
0.0
  0
LINE
  8
1
  6
CONTINUOUS
 62
   110
  5
40F
 10
59.602583
 20
44.370917
 30
0.0
 11
59.602583
 21
44.695917
 31
0.0
  0
LINE
  8
1
  6
CONTINUOUS
 62
   110
  5
410
 10
59.033833
 20
44.470917
 30
0.0
 11
58.808833
 21
44.470917
 31
0.0
  0
LINE
  8
1
  6
CONTINUOUS
 62
   110
  5
411
 10
59.827583
 20
44.470917
 30
0.0
 11
60.052583
 21
44.470917
 31
0.0
  0
SOLID
  8
1
  6
CONTINUOUS
 62
   110
  5
412
 10
59.033833
 20
44.508417
 30
0.0
 11
59.033833
 21
44.433417
 31
0.0
 12
59.258833
 22
44.470917
 32
0.0
 13
59.258833
 23
44.470917
 33
0.0
  0
SOLID
  8
1
  6
CONTINUOUS
 62
   110
  5
413
 10
59.827583
 20
44.508417
 30
0.0
 11
59.827583
 21
44.433417
 31
0.0
 12
59.602583
 22
44.470917
 32
0.0
 13
59.602583
 23
44.470917
 33
0.0
  0
TEXT
  8
1
  6
DASHDOT
 62
   110
  5
414
 10
58.2895
 20
44.556583
 30
0.0
 40
0.133
  1
1" Min.
  7
MONOTXT
210
0.0
220
0.0
230
1.0
  0
LINE
  8
4
  6
CONTINUOUS
 62
   110
  5
415
 10
59.258833
 20
44.292833
 30
0.0
 11
59.258917
 21
44.292833
 31
0.0
  0
LINE
  8
4
  6
CONTINUOUS
 62
   110
  5
416
 10
59.602583
 20
44.292833
 30
0.0
 11
59.602667
 21
44.292833
 31
0.0
  0
LINE
  8
4
  6
CONTINUOUS
 62
   110
  5
417
 10
59.602583
 20
44.470917
 30
0.0
 11
59.602667
 21
44.470917
 31
0.0
  0
LINE
  8
1
  6
CONTINUOUS
 62
   110
  5
418
 10
59.74425
 20
45.437167
 30
0.0
 11
60.31075
 21
45.437167
 31
0.0
  0
LINE
  8
1
  6
CONTINUOUS
 62
   110
  5
419
 10
60.08575
 20
45.662167
 30
0.0
 11
60.08575
 21
45.856667
 31
0.0
  0
LINE
  8
1
  6
CONTINUOUS
 62
   110
  5
41A
 10
60.08575
 20
46.4325
 30
0.0
 11
60.08575
 21
46.237917
 31
0.0
  0
SOLID
  8
1
  6
CONTINUOUS
 62
   110
  5
41B
 10
60.04825
 20
45.662167
 30
0.0
 11
60.12325
 21
45.662167
 31
0.0
 12
60.08575
 22
45.437167
 32
0.0
 13
60.08575
 23
45.437167
 33
0.0
  0
SOLID
  8
1
  6
CONTINUOUS
 62
   110
  5
41C
 10
60.04825
 20
46.4325
 30
0.0
 11
60.12325
 21
46.4325
 31
0.0
 12
60.08575
 22
46.6575
 32
0.0
 13
60.08575
 23
46.6575
 33
0.0
  0
TEXT
  8
1
  6
DASHDOT
 62
   110
  5
41D
 10
60.084583
 20
45.969167
 30
0.0
 40
0.133
  1
3" Min.
  7
MONOTXT
210
0.0
220
0.0
230
1.0
  0
LINE
  8
4
  6
CONTINUOUS
 62
   110
  5
41E
 10
59.666167
 20
45.437167
 30
0.0
 11
59.66625
 21
45.437167
 31
0.0
  0
LINE
  8
4
  6
CONTINUOUS
 62
   110
  5
41F
 10
59.385917
 20
46.6575
 30
0.0
 11
59.386
 21
46.6575
 31
0.0
  0
LINE
  8
4
  6
CONTINUOUS
 62
   110
  5
420
 10
60.08575
 20
46.6575
 30
0.0
 11
60.085833
 21
46.6575
 31
0.0
  0
SOLID
  8
2
  6
CONTINUOUS
 62
   110
  5
421
 10
59.607583
 20
42.077
 30
0.0
 11
59.554167
 21
42.1295
 31
0.0
 12
59.42325
 22
41.94275
 32
0.0
 13
59.42325
 23
41.94275
 33
0.0
  0
LINE
  8
2
  6
CONTINUOUS
 62
   110
  5
422
 10
59.580833
 20
42.10325
 30
0.0
 11
60.073333
 21
42.6045
 31
0.0
  0
LINE
  8
2
  6
CONTINUOUS
 62
   110
  5
423
 10
60.073333
 20
42.6045
 30
0.0
 11
60.263833
 21
42.6045
 31
0.0
  0
TEXT
  8
2
  6
DASHDOT
 62
   110
  5
424
 10
60.376333
 20
42.52625
 30
0.0
 40
0.133
  1
# 3, Grade 60, or #4,
  7
MONOTXT
210
0.0
220
0.0
230
1.0
  0
INSERT
  8
1
  6
CONTINUOUS
 62
   110
  5
5D2
  2
$X61
 10
29.11875
 20
34.032167
 30
0.0
210
0.0
220
0.0
230
1.0
  0
INSERT
  8
1
  6
CONTINUOUS
 62
   110
  5
5F5
  2
$X68
 10
39.575917
 20
22.764167
 30
0.0
210
0.0
220
0.0
230
1.0
  0
INSERT
  8
1
  6
CONTINUOUS
 62
   110
  5
619
  2
$X69
 10
39.575917
 20
22.764167
 30
0.0
210
0.0
220
0.0
230
1.0
  0
TEXT
  8
1
  6
DASHDOT
 62
   110
  5
61A
 10
42.84725
 20
48.836167
 30
0.0
 40
0.133
  1
23 3/4 "
  7
MONOTXT
210
0.0
220
0.0
230
1.0
  0
TEXT
  8
1
  6
DASHDOT
 62
   110
  5
61B
 10
45.769667
 20
48.476
 30
0.0
 40
0.133
  1
1 1/4 "
  7
MONOTXT
210
0.0
220
0.0
230
1.0
  0
TEXT
  8
1
  6
DASHDOT
 62
   110
  5
61C
 10
47.99775
 20
50.527833
 30
0.0
 40
0.133
  1
1 1/2 "
  7
MONOTXT
210
0.0
220
0.0
230
1.0
  0
LINE
  8
1
  6
CONTINUOUS
 62
   110
  5
61D
 10
48.2545
 20
50.104167
 30
0.0
 11
48.2545
 21
50.391917
 31
0.0
  0
LINE
  8
1
  6
CONTINUOUS
 62
   110
  5
61E
 10
48.013833
 20
50.104167
 30
0.0
 11
48.013833
 21
50.391917
 31
0.0
  0
LINE
  8
1
  6
CONTINUOUS
 62
   110
  5
61F
 10
46.524917
 20
48.612083
 30
0.0
 11
46.131583
 21
48.612083
 31
0.0
  0
LINE
  8
1
  6
CONTINUOUS
 62
   110
  5
620
 10
46.524917
 20
48.441333
 30
0.0
 11
46.131583
 21
48.441333
 31
0.0
  0
LINE
  8
1
  6
CONTINUOUS
 62
   110
  5
621
 10
54.95925
 20
43.262417
 30
0.0
 11
54.95925
 21
43.140333
 31
0.0
  0
LINE
  8
1
  6
CONTINUOUS
 62
   110
  5
622
 10
54.95925
 20
44.072583
 30
0.0
 11
54.95925
 21
44.528667
 31
0.0
  0
LINE
  8
1
  6
CONTINUOUS
 62
   110
  5
623
 10
56.059333
 20
41.985667
 30
0.0
 11
56.059333
 21
42.072833
 31
0.0
  0
TEXT
  8
1
  6
DASHDOT
 62
   110
  5
624
 10
52.332417
 20
41.2325
 30
0.0
 40
0.133
  1
 1/2 " Min.
  7
MONOTXT
210
0.0
220
0.0
230
1.0
  0
LINE
  8
1
  6
CONTINUOUS
 62
   110
  5
625
 10
59.74425
 20
46.6575
 30
0.0
 11
60.31075
 21
46.6575
 31
0.0
  0
POINT
  8
1
  6
DASHED
 62
   110
  5
626
 10
39.352167
 20
57.730333
 30
0.0
  0
POINT
  8
1
  6
DASHED
 62
   110
  5
627
 10
72.577167
 20
36.610333
 30
0.0
  0
LINE
  8
1
  6
DASHED
 62
   110
  5
628
 10
72.4475
 20
58.210333
 30
0.0
 11
37.2475
 21
58.210333
 31
0.0
  0
LINE
  8
1
  6
DASHED
 62
   110
  5
629
 10
72.4475
 20
36.210333
 30
0.0
 11
37.2475
 21
36.210333
 31
0.0
  0
LINE
  8
1
  6
DASHED
 62
   110
  5
62A
 10
38.8225
 20
58.210333
 30
0.0
 11
38.8225
 21
36.210333
 31
0.0
  0
LINE
  8
1
  6
CONTINUOUS
 62
   110
  5
62B
 10
39.864167
 20
57.710333
 30
0.0
 11
39.864167
 21
36.710333
 31
0.0
  0
LINE
  8
1
  6
CONTINUOUS
 62
   110
  5
62C
 10
72.364167
 20
57.710333
 30
0.0
 11
39.864167
 21
57.710333
 31
0.0
  0
LINE
  8
1
  6
CONTINUOUS
 62
   110
  5
62D
 10
72.364167
 20
57.710333
 30
0.0
 11
72.364167
 21
36.710333
 31
0.0
  0
LINE
  8
1
  6
CONTINUOUS
 62
   110
  5
62E
 10
72.364167
 20
36.710333
 30
0.0
 11
39.864167
 21
36.710333
 31
0.0
  0
LINE
  8
1
  6
CONTINUOUS
 62
   110
  5
62F
 10
39.614167
 20
53.810333
 30
0.0
 11
39.214167
 21
53.810333
 31
0.0
  0
LINE
  8
1
  6
CONTINUOUS
 62
   110
  5
630
 10
39.614167
 20
51.010333
 30
0.0
 11
39.214167
 21
51.010333
 31
0.0
  0
LINE
  8
1
  6
CONTINUOUS
 62
   110
  5
631
 10
39.614167
 20
43.410333
 30
0.0
 11
39.214167
 21
43.410333
 31
0.0
  0
LINE
  8
1
  6
CONTINUOUS
 62
   110
  5
632
 10
39.614167
 20
40.610333
 30
0.0
 11
39.214167
 21
40.610333
 31
0.0
  0
CIRCLE
  8
1
  6
CONTINUOUS
 62
   110
  5
633
 10
39.364167
 20
53.810333
 30
0.0
 40
0.125
210
0.0
220
0.0
230
1.0
  0
CIRCLE
  8
1
  6
CONTINUOUS
 62
   110
  5
634
 10
39.364167
 20
51.010333
 30
0.0
 40
0.125
210
0.0
220
0.0
230
1.0
  0
CIRCLE
  8
1
  6
CONTINUOUS
 62
   110
  5
635
 10
39.364167
 20
43.410333
 30
0.0
 40
0.125
210
0.0
220
0.0
230
1.0
  0
CIRCLE
  8
1
  6
CONTINUOUS
 62
   110
  5
636
 10
39.364167
 20
40.610333
 30
0.0
 40
0.125
210
0.0
220
0.0
230
1.0
  0
TEXT
  8
1
  6
CONTINUOUS
 62
   110
  5
638
 10
68.819917
 20
36.618583
 30
0.0
 40
0.06
  1
$$$$$$$$$FILENAME$$$$$$$$
  7
txt
 11
68.819917
 21
36.648583
 31
0.0
210
0.0
220
0.0
230
1.0
 73
     2
  0
TEXT
  8
1
  6
CONTINUOUS
 62
   110
  5
639
 10
70.544
 20
36.618583
 30
0.0
 40
0.06
  1
$USERNAME$
  7
txt
 11
70.544
 21
36.648583
 31
0.0
210
0.0
220
0.0
230
1.0
 73
     2
  0
TEXT
  8
1
  6
CONTINUOUS
 62
   110
  5
63A
 10
71.317583
 20
36.618583
 30
0.0
 40
0.06
  1
DD-MMM-YYYY HH:MM
  7
txt
 11
71.317583
 21
36.648583
 31
0.0
210
0.0
220
0.0
230
1.0
 73
     2
  0
POINT
  8
1
  6
CONTINUOUS
 62
   110
  5
63B
 10
39.864167
 20
36.710333
 30
0.0
  0
POINT
  8
1
  6
CONTINUOUS
 62
   110
  5
63C
 10
39.864167
 20
57.710333
 30
0.0
  0
POINT
  8
1
  6
CONTINUOUS
 62
   110
  5
63D
 10
72.364167
 20
57.710333
 30
0.0
  0
POINT
  8
1
  6
CONTINUOUS
 62
   110
  5
63E
 10
72.364167
 20
36.710333
 30
0.0
  0
LINE
  8
1
  6
CONTINUOUS
 62
   110
  5
63F
 10
72.364167
 20
36.710333
 30
0.0
 11
72.364167
 21
39.209333
 31
0.0
  0
LINE
  8
1
  6
CONTINUOUS
 62
   110
  5
640
 10
72.364167
 20
40.200167
 30
0.0
 11
66.364167
 21
40.200167
 31
0.0
  0
LINE
  8
1
  6
CONTINUOUS
 62
   110
  5
641
 10
72.364167
 20
36.710333
 30
0.0
 11
66.364167
 21
36.710333
 31
0.0
  0
LINE
  8
1
  6
CONTINUOUS
 62
   110
  5
642
 10
67.902083
 20
38.609333
 30
0.0
 11
66.364167
 21
38.609333
 31
0.0
  0
LINE
  8
1
  6
CONTINUOUS
 62
   110
  5
643
 10
67.902083
 20
38.410333
 30
0.0
 11
66.364167
 21
38.410333
 31
0.0
  0
LINE
  8
1
  6
CONTINUOUS
 62
   110
  5
644
 10
67.902083
 20
38.211333
 30
0.0
 11
66.364167
 21
38.211333
 31
0.0
  0
LINE
  8
1
  6
CONTINUOUS
 62
   110
  5
645
 10
67.902083
 20
38.012333
 30
0.0
 11
66.364167
 21
38.012333
 31
0.0
  0
LINE
  8
1
  6
CONTINUOUS
 62
   110
  5
646
 10
67.902083
 20
37.813333
 30
0.0
 11
66.364167
 21
37.813333
 31
0.0
  0
LINE
  8
1
  6
CONTINUOUS
 62
   110
  5
647
 10
67.902083
 20
37.614333
 30
0.0
 11
66.364167
 21
37.614333
 31
0.0
  0
LINE
  8
1
  6
CONTINUOUS
 62
   110
  5
648
 10
67.902083
 20
37.415333
 30
0.0
 11
66.364167
 21
37.415333
 31
0.0
  0
LINE
  8
1
  6
CONTINUOUS
 62
   110
  5
649
 10
67.902083
 20
37.216333
 30
0.0
 11
66.364167
 21
37.216333
 31
0.0
  0
LINE
  8
1
  6
CONTINUOUS
 62
   110
  5
64A
 10
67.902083
 20
37.017333
 30
0.0
 11
66.364167
 21
37.017333
 31
0.0
  0
TEXT
  8
1
  6
CONTINUOUS
 62
   110
  5
64B
 10
66.67125
 20
38.656667
 30
0.0
 40
0.079
  1
REVISION DATE
 41
1.003165
  7
MONOTXT
210
0.0
220
0.0
230
1.0
  0
LINE
  8
1
  6
CONTINUOUS
 62
   110
  5
64C
 10
66.364167
 20
38.120333
 30
0.0
 11
66.364167
 21
36.710333
 31
0.0
  0
TEXT
  8
1
  6
CONTINUOUS
 62
   110
  5
64E
 10
66.5755
 20
39.94525
 30
0.0
 40
0.1875
  1
WEST VIRGINIA DEPARTMENT OF TRANSPORTATION
  7
ROMANT
 72
     4
 11
69.345833
 21
40.039
 31
0.0
210
0.0
220
0.0
230
1.0
  0
TEXT
  8
1
  6
CONTINUOUS
 62
   110
  5
64F
 10
68.148333
 20
39.736333
 30
0.0
 40
0.1875
  1
DIVISION OF HIGHWAYS
  7
ROMANT
 72
     4
 11
69.367833
 21
39.830083
 31
0.0
210
0.0
220
0.0
230
1.0
  0
TEXT
  8
1
  6
CONTINUOUS
 62
   110
  5
650
 10
68.378417
 20
39.538167
 30
0.0
 40
0.1875
  1
STANDARD DETAIL
  7
ROMANT
 72
     4
 11
69.3565
 21
39.631917
 31
0.0
210
0.0
220
0.0
230
1.0
  0
LINE
  8
1
  6
CONTINUOUS
 62
   110
  5
651
 10
67.902083
 20
38.809333
 30
0.0
 11
66.364167
 21
38.809333
 31
0.0
  0
LINE
  8
1
  6
CONTINUOUS
 62
   110
  5
652
 10
67.902083
 20
36.710333
 30
0.0
 11
67.902083
 21
38.809333
 31
0.0
  0
LINE
  8
1
  6
CONTINUOUS
 62
   110
  5
653
 10
66.364167
 20
36.710333
 30
0.0
 11
66.364167
 21
40.200167
 31
0.0
  0
TEXT
  8
1
  6
CONTINUOUS
 62
   110
  5
654
 10
68.280667
 20
36.927417
 30
0.0
 40
0.166667
  1
STANDARD SHEET DR7-X     
  7
txt
 72
     4
 11
70.32
 21
37.01075
 31
0.0
210
0.0
220
0.0
230
1.0
  0
TEXT
  8
1
  6
CONTINUOUS
 62
   110
  5
655
 10
67.62975
 20
39.072417
 30
0.0
 40
0.208333
  1
                        
  7
txt
 72
     4
 11
70.095
 21
39.176583
 31
0.0
210
0.0
220
0.0
230
1.0
  0
TEXT
  8
1
  6
CONTINUOUS
 62
   110
  5
656
 10
67.635417
 20
38.700833
 30
0.0
 40
0.208333
  1
                        
  7
txt
 72
     4
 11
70.100667
 21
38.805
 31
0.0
210
0.0
220
0.0
230
1.0
  0
TEXT
  8
1
  6
CONTINUOUS
 62
   110
  5
657
 10
67.82
 20
38.329667
 30
0.0
 40
0.2
  1
    MANHOLE CASTINGS    
  7
txt
 72
     4
 11
70.171167
 21
38.429667
 31
0.0
210
0.0
220
0.0
230
1.0
  0
TEXT
  8
1
  6
CONTINUOUS
 62
   110
  5
658
 10
67.635333
 20
37.975167
 30
0.0
 40
0.208333
  1
                        
  7
txt
 72
     4
 11
70.100583
 21
38.079333
 31
0.0
210
0.0
220
0.0
230
1.0
  0
TEXT
  8
1
  6
CONTINUOUS
 62
   110
  5
659
 10
67.635333
 20
37.624833
 30
0.0
 40
0.208333
  1
                        
  7
txt
 72
     4
 11
70.100583
 21
37.729
 31
0.0
210
0.0
220
0.0
230
1.0
  0
TEXT
  8
1
  6
CONTINUOUS
 62
   110
  5
65B
 10
66.39925
 20
38.44675
 30
0.0
 40
0.083333
  1
                  
  7
ROMANS
 72
     4
 11
67.135333
 21
38.488417
 31
0.0
210
0.0
220
0.0
230
1.0
  0
TEXT
  8
1
  6
CONTINUOUS
 62
   110
  5
65C
 10
66.39925
 20
38.24775
 30
0.0
 40
0.083333
  1
                  
  7
ROMANS
 72
     4
 11
67.135333
 21
38.289417
 31
0.0
210
0.0
220
0.0
230
1.0
  0
TEXT
  8
1
  6
CONTINUOUS
 62
   110
  5
65D
 10
66.39925
 20
38.04875
 30
0.0
 40
0.083333
  1
                  
  7
ROMANS
 72
     4
 11
67.135333
 21
38.090417
 31
0.0
210
0.0
220
0.0
230
1.0
  0
TEXT
  8
1
  6
CONTINUOUS
 62
   110
  5
65E
 10
66.39925
 20
37.84975
 30
0.0
 40
0.083333
  1
                  
  7
ROMANS
 72
     4
 11
67.135333
 21
37.891417
 31
0.0
210
0.0
220
0.0
230
1.0
  0
TEXT
  8
1
  6
CONTINUOUS
 62
   110
  5
65F
 10
66.39925
 20
37.65075
 30
0.0
 40
0.083333
  1
                  
  7
ROMANS
 72
     4
 11
67.135333
 21
37.692417
 31
0.0
210
0.0
220
0.0
230
1.0
  0
TEXT
  8
1
  6
CONTINUOUS
 62
   110
  5
660
 10
66.39925
 20
37.45175
 30
0.0
 40
0.083333
  1
                  
  7
ROMANS
 72
     4
 11
67.135333
 21
37.493417
 31
0.0
210
0.0
220
0.0
230
1.0
  0
TEXT
  8
1
  6
CONTINUOUS
 62
   110
  5
661
 10
66.39925
 20
37.25275
 30
0.0
 40
0.083333
  1
                  
  7
ROMANS
 72
     4
 11
67.135333
 21
37.294417
 31
0.0
210
0.0
220
0.0
230
1.0
  0
TEXT
  8
1
  6
CONTINUOUS
 62
   110
  5
662
 10
66.39925
 20
37.05375
 30
0.0
 40
0.083333
  1
                  
  7
ROMANS
 72
     4
 11
67.135333
 21
37.095417
 31
0.0
210
0.0
220
0.0
230
1.0
  0
TEXT
  8
1
  6
CONTINUOUS
 62
   110
  5
663
 10
66.397667
 20
36.849583
 30
0.0
 40
0.083333
  1
                  
  7
ROMANS
 72
     4
 11
67.13375
 21
36.89125
 31
0.0
210
0.0
220
0.0
230
1.0
  0
POINT
  8
1
  6
DASHED
 62
   110
  5
664
 10
39.352167
 20
57.730333
 30
0.0
  0
POINT
  8
1
  6
DASHED
 62
   110
  5
665
 10
72.577167
 20
36.610333
 30
0.0
  0
TEXT
  8
1
  6
CONTINUOUS
 62
   110
  5
666
 10
39.912167
 20
36.589333
 30
0.0
 40
0.06
  1
P5A1G92-STDBOR a
  7
MONOTXT
210
0.0
220
0.0
230
1.0
  0
LINE
  8
1
  6
CONTINUOUS
 62
   110
  5
667
 10
55.18425
 20
44.528667
 30
0.0
 11
54.95925
 21
44.528667
 31
0.0
  0
LINE
  8
1
  6
CONTINUOUS
 62
   110
  5
668
 10
44.723083
 20
40.627917
 30
0.0
 11
44.903083
 21
40.627917
 31
0.0
  0
LINE
  8
1
  6
CONTINUOUS
 62
   110
  5
669
 10
48.236833
 20
40.74775
 30
0.0
 11
48.416833
 21
40.74775
 31
0.0
  0
LINE
  8
1
  6
CONTINUOUS
 62
   110
  5
66A
 10
47.06525
 20
41.97175
 30
0.0
 11
46.88525
 21
41.97175
 31
0.0
  0
LINE
  8
1
  6
CONTINUOUS
 62
   110
  5
66B
 10
47.06525
 20
41.97175
 30
0.0
 11
46.73
 21
41.97175
 31
0.0
  0
LINE
  8
1
  6
CONTINUOUS
 62
   110
  5
66C
 10
46.671583
 20
41.655917
 30
0.0
 11
46.514167
 21
41.655917
 31
0.0
  0
LINE
  8
1
  6
CONTINUOUS
 62
   110
  5
66D
 10
55.4925
 20
51.945083
 30
0.0
 11
55.31
 21
52.453
 31
0.0
  0
LINE
  8
1
  6
CONTINUOUS
 62
   110
  5
66E
 10
55.31
 20
52.453
 30
0.0
 11
55.31
 21
53.1715
 31
0.0
  0
LINE
  8
1
  6
CONTINUOUS
 62
   110
  5
66F
 10
55.31
 20
53.1715
 30
0.0
 11
55.05325
 21
53.1715
 31
0.0
  0
LINE
  8
1
  6
CONTINUOUS
 62
   110
  5
670
 10
55.05325
 20
53.1715
 30
0.0
 11
55.05325
 21
52.442917
 31
0.0
  0
LINE
  8
1
  6
CONTINUOUS
 62
   110
  5
671
 10
55.05325
 20
52.442917
 30
0.0
 11
55.231333
 21
51.945083
 31
0.0
  0
LINE
  8
1
  6
CONTINUOUS
 62
   110
  5
672
 10
55.231333
 20
51.945083
 30
0.0
 11
55.231333
 21
51.729583
 31
0.0
  0
LINE
  8
1
  6
CONTINUOUS
 62
   110
  5
673
 10
55.31
 20
52.453
 30
0.0
 11
55.141583
 21
52.453
 31
0.0
  0
LINE
  8
1
  6
CONTINUOUS
 62
   110
  5
674
 10
55.141583
 20
52.453
 30
0.0
 11
55.296167
 21
51.952167
 31
0.0
  0
LINE
  8
1
  6
CONTINUOUS
 62
   110
  5
675
 10
55.31
 20
52.4975
 30
0.0
 11
55.11125
 21
52.4975
 31
0.0
  0
LINE
  8
1
  6
CONTINUOUS
 62
   110
  5
676
 10
55.11125
 20
52.4975
 30
0.0
 11
55.11125
 21
53.105667
 31
0.0
  0
LINE
  8
1
  6
CONTINUOUS
 62
   110
  5
677
 10
55.11125
 20
53.105667
 30
0.0
 11
55.31
 21
53.105667
 31
0.0
  0
LINE
  8
1
  6
CONTINUOUS
 62
   110
  5
678
 10
55.231333
 20
51.945083
 30
0.0
 11
57.0505
 21
51.945083
 31
0.0
  0
LINE
  8
1
  6
CONTINUOUS
 62
   110
  5
679
 10
57.0505
 20
51.945083
 30
0.0
 11
57.0505
 21
51.729583
 31
0.0
  0
LINE
  8
1
  6
CONTINUOUS
 62
   110
  5
67A
 10
55.231333
 20
51.729583
 30
0.0
 11
57.0505
 21
51.729583
 31
0.0
  0
LINE
  8
1
  6
CONTINUOUS
 62
   110
  5
67B
 10
57.170667
 20
53.105667
 30
0.0
 11
56.971917
 21
53.105667
 31
0.0
  0
LINE
  8
1
  6
CONTINUOUS
 62
   110
  5
67C
 10
57.170667
 20
52.4975
 30
0.0
 11
57.170667
 21
53.105667
 31
0.0
  0
LINE
  8
1
  6
CONTINUOUS
 62
   110
  5
67D
 10
56.971917
 20
52.4975
 30
0.0
 11
57.170667
 21
52.4975
 31
0.0
  0
LINE
  8
1
  6
CONTINUOUS
 62
   110
  5
67E
 10
57.140333
 20
52.453
 30
0.0
 11
56.98575
 21
51.952167
 31
0.0
  0
LINE
  8
1
  6
CONTINUOUS
 62
   110
  5
67F
 10
56.971917
 20
52.453
 30
0.0
 11
57.140333
 21
52.453
 31
0.0
  0
LINE
  8
1
  6
CONTINUOUS
 62
   110
  5
680
 10
57.228667
 20
52.442917
 30
0.0
 11
57.0505
 21
51.945083
 31
0.0
  0
LINE
  8
1
  6
CONTINUOUS
 62
   110
  5
681
 10
57.228667
 20
53.1715
 30
0.0
 11
57.228667
 21
52.442917
 31
0.0
  0
LINE
  8
1
  6
CONTINUOUS
 62
   110
  5
682
 10
56.971917
 20
53.1715
 30
0.0
 11
57.228667
 21
53.1715
 31
0.0
  0
LINE
  8
1
  6
CONTINUOUS
 62
   110
  5
683
 10
56.971917
 20
52.453
 30
0.0
 11
56.971917
 21
53.1715
 31
0.0
  0
LINE
  8
1
  6
CONTINUOUS
 62
   110
  5
684
 10
56.789417
 20
51.945083
 30
0.0
 11
56.971917
 21
52.453
 31
0.0
  0
LINE
  8
1
  6
CONTINUOUS
 62
   110
  5
685
 10
55.337583
 20
51.945083
 30
0.0
 11
55.337583
 21
51.729583
 31
0.0
  0
LINE
  8
1
  6
CONTINUOUS
 62
   110
  5
686
 10
56.9595
 20
51.945083
 30
0.0
 11
56.9595
 21
51.729583
 31
0.0
  0
LINE
  8
1
  6
CONTINUOUS
 62
   110
  5
687
 10
60.18525
 20
53.19575
 30
0.0
 11
60.367417
 21
53.19575
 31
0.0
  0
LINE
  8
1
  6
CONTINUOUS
 62
   110
  5
688
 10
60.367417
 20
53.19575
 30
0.0
 11
60.367417
 21
51.768
 31
0.0
  0
LINE
  8
1
  6
CONTINUOUS
 62
   110
  5
689
 10
60.367417
 20
51.768
 30
0.0
 11
59.956167
 21
51.768
 31
0.0
  0
LINE
  8
1
  6
CONTINUOUS
 62
   110
  5
68A
 10
59.956167
 20
51.768
 30
0.0
 11
59.956167
 21
51.984583
 31
0.0
  0
LINE
  8
1
  6
CONTINUOUS
 62
   110
  5
68B
 10
59.956167
 20
51.984583
 30
0.0
 11
60.366083
 21
51.984583
 31
0.0
  0
LINE
  8
1
  6
CONTINUOUS
 62
   110
  5
68C
 10
60.18525
 20
53.19575
 30
0.0
 11
59.982333
 21
52.508667
 31
0.0
  0
LINE
  8
1
  6
CONTINUOUS
 62
   110
  5
68D
 10
59.982333
 20
52.508667
 30
0.0
 11
60.030667
 21
51.984583
 31
0.0
  0
LINE
  8
1
  6
CONTINUOUS
 62
   110
  5
68E
 10
59.982333
 20
52.508667
 30
0.0
 11
60.301167
 21
52.508667
 31
0.0
  0
LINE
  8
1
  6
CONTINUOUS
 62
   110
  5
68F
 10
60.301167
 20
52.508667
 30
0.0
 11
60.301167
 21
53.140083
 31
0.0
  0
LINE
  8
1
  6
CONTINUOUS
 62
   110
  5
690
 10
60.301167
 20
53.140083
 30
0.0
 11
60.168667
 21
53.140083
 31
0.0
  0
LINE
  8
1
  6
CONTINUOUS
 62
   110
  5
691
 10
59.98675
 20
52.4605
 30
0.0
 11
60.298417
 21
52.4605
 31
0.0
  0
LINE
  8
1
  6
CONTINUOUS
 62
   110
  5
692
 10
60.298417
 20
52.4605
 30
0.0
 11
60.298417
 21
51.968583
 31
0.0
  0
LINE
  8
1
  6
CONTINUOUS
 62
   110
  5
693
 10
60.163167
 20
51.768
 30
0.0
 11
60.163167
 21
51.984583
 31
0.0
  0
TEXT
  8
2
  6
CONTINUOUS
 62
   110
  5
694
 10
55.557083
 20
49.057833
 30
0.0
 40
0.3125
  1
GRAY IRON STEP
  7
MONOTXT
210
0.0
220
0.0
230
1.0
  0
TEXT
  8
2
  6
DASHDOT
 62
   110
  5
695
 10
55.9845
 20
55.697417
 30
0.0
 40
0.133
  1
   Top Of Step To Be Non-Skid
  7
MONOTXT
210
0.0
220
0.0
230
1.0
  0
TEXT
  8
2
  6
DASHDOT
 62
   110
  5
696
 10
56.226417
 20
55.380583
 30
0.0
 40
0.133
  1
Surface (Rough Diamond Design)
  7
MONOTXT
210
0.0
220
0.0
230
1.0
  0
LINE
  8
1
  6
CONTINUOUS
 62
   110
  5
697
 10
55.051917
 20
53.294417
 30
0.0
 11
55.051917
 21
53.9845
 31
0.0
  0
LINE
  8
1
  6
CONTINUOUS
 62
   110
  5
698
 10
57.227333
 20
53.294417
 30
0.0
 11
57.227333
 21
53.9845
 31
0.0
  0
LINE
  8
1
  6
CONTINUOUS
 62
   110
  5
699
 10
55.176917
 20
53.8595
 30
0.0
 11
57.102333
 21
53.8595
 31
0.0
  0
SOLID
  8
1
  6
CONTINUOUS
 62
   110
  5
69A
 10
55.176917
 20
53.880333
 30
0.0
 11
55.176917
 21
53.838667
 31
0.0
 12
55.051917
 22
53.8595
 32
0.0
 13
55.051917
 23
53.8595
 33
0.0
  0
SOLID
  8
1
  6
CONTINUOUS
 62
   110
  5
69B
 10
57.102333
 20
53.880333
 30
0.0
 11
57.102333
 21
53.838667
 31
0.0
 12
57.227333
 22
53.8595
 32
0.0
 13
57.227333
 23
53.8595
 33
0.0
  0
LINE
  8
4
  6
CONTINUOUS
 62
   110
  5
69C
 10
55.051917
 20
53.169417
 30
0.0
 11
55.052
 21
53.169417
 31
0.0
  0
LINE
  8
4
  6
CONTINUOUS
 62
   110
  5
69D
 10
57.227333
 20
53.169417
 30
0.0
 11
57.227417
 21
53.169417
 31
0.0
  0
LINE
  8
4
  6
CONTINUOUS
 62
   110
  5
69E
 10
57.227333
 20
53.8595
 30
0.0
 11
57.227417
 21
53.8595
 31
0.0
  0
LINE
  8
1
  6
CONTINUOUS
 62
   110
  5
69F
 10
55.314167
 20
53.294417
 30
0.0
 11
55.314167
 21
53.66075
 31
0.0
  0
LINE
  8
1
  6
CONTINUOUS
 62
   110
  5
6A0
 10
56.9705
 20
53.306583
 30
0.0
 11
56.9705
 21
53.66075
 31
0.0
  0
LINE
  8
1
  6
CONTINUOUS
 62
   110
  5
6A1
 10
55.439167
 20
53.53575
 30
0.0
 11
56.8455
 21
53.53575
 31
0.0
  0
SOLID
  8
1
  6
CONTINUOUS
 62
   110
  5
6A2
 10
55.439167
 20
53.556583
 30
0.0
 11
55.439167
 21
53.514917
 31
0.0
 12
55.314167
 22
53.53575
 32
0.0
 13
55.314167
 23
53.53575
 33
0.0
  0
SOLID
  8
1
  6
CONTINUOUS
 62
   110
  5
6A3
 10
56.8455
 20
53.556583
 30
0.0
 11
56.8455
 21
53.514917
 31
0.0
 12
56.9705
 22
53.53575
 32
0.0
 13
56.9705
 23
53.53575
 33
0.0
  0
LINE
  8
4
  6
CONTINUOUS
 62
   110
  5
6A4
 10
55.314167
 20
53.169417
 30
0.0
 11
55.31425
 21
53.169417
 31
0.0
  0
LINE
  8
4
  6
CONTINUOUS
 62
   110
  5
6A5
 10
56.9705
 20
53.181583
 30
0.0
 11
56.970667
 21
53.181583
 31
0.0
  0
LINE
  8
4
  6
CONTINUOUS
 62
   110
  5
6A6
 10
56.9705
 20
53.53575
 30
0.0
 11
56.970667
 21
53.53575
 31
0.0
  0
LINE
  8
1
  6
CONTINUOUS
 62
   110
  5
6A7
 10
55.308667
 20
53.294417
 30
0.0
 11
55.308667
 21
53.465417
 31
0.0
  0
LINE
  8
1
  6
CONTINUOUS
 62
   110
  5
6A8
 10
55.051917
 20
53.294417
 30
0.0
 11
55.051917
 21
53.465417
 31
0.0
  0
LINE
  8
1
  6
CONTINUOUS
 62
   110
  5
6A9
 10
55.433667
 20
53.340417
 30
0.0
 11
55.558667
 21
53.340417
 31
0.0
  0
LINE
  8
1
  6
CONTINUOUS
 62
   110
  5
6AA
 10
54.926917
 20
53.340417
 30
0.0
 11
54.801917
 21
53.340417
 31
0.0
  0
POINT
  8
1
  6
CONTINUOUS
 62
   110
  5
6AB
 10
54.801917
 20
53.340417
 30
0.0
  0
SOLID
  8
1
  6
CONTINUOUS
 62
   110
  5
6AC
 10
55.433667
 20
53.36125
 30
0.0
 11
55.433667
 21
53.319583
 31
0.0
 12
55.308667
 22
53.340417
 32
0.0
 13
55.308667
 23
53.340417
 33
0.0
  0
SOLID
  8
1
  6
CONTINUOUS
 62
   110
  5
6AD
 10
54.926917
 20
53.36125
 30
0.0
 11
54.926917
 21
53.319583
 31
0.0
 12
55.051917
 22
53.340417
 32
0.0
 13
55.051917
 23
53.340417
 33
0.0
  0
LINE
  8
4
  6
CONTINUOUS
 62
   110
  5
6AE
 10
55.308667
 20
53.169417
 30
0.0
 11
55.30875
 21
53.169417
 31
0.0
  0
LINE
  8
4
  6
CONTINUOUS
 62
   110
  5
6AF
 10
55.051917
 20
53.169417
 30
0.0
 11
55.052
 21
53.169417
 31
0.0
  0
LINE
  8
4
  6
CONTINUOUS
 62
   110
  5
6B0
 10
55.051917
 20
53.340417
 30
0.0
 11
55.052
 21
53.340417
 31
0.0
  0
LINE
  8
1
  6
CONTINUOUS
 62
   110
  5
6B1
 10
56.9705
 20
53.306583
 30
0.0
 11
56.9705
 21
53.465417
 31
0.0
  0
LINE
  8
1
  6
CONTINUOUS
 62
   110
  5
6B2
 10
57.220333
 20
53.294417
 30
0.0
 11
57.220333
 21
53.465417
 31
0.0
  0
LINE
  8
1
  6
CONTINUOUS
 62
   110
  5
6B3
 10
56.8455
 20
53.340417
 30
0.0
 11
56.7205
 21
53.340417
 31
0.0
  0
LINE
  8
1
  6
CONTINUOUS
 62
   110
  5
6B4
 10
57.345333
 20
53.340417
 30
0.0
 11
57.470333
 21
53.340417
 31
0.0
  0
SOLID
  8
1
  6
CONTINUOUS
 62
   110
  5
6B5
 10
56.8455
 20
53.36125
 30
0.0
 11
56.8455
 21
53.319583
 31
0.0
 12
56.9705
 22
53.340417
 32
0.0
 13
56.9705
 23
53.340417
 33
0.0
  0
SOLID
  8
1
  6
CONTINUOUS
 62
   110
  5
6B6
 10
57.345333
 20
53.36125
 30
0.0
 11
57.345333
 21
53.319583
 31
0.0
 12
57.220333
 22
53.340417
 32
0.0
 13
57.220333
 23
53.340417
 33
0.0
  0
LINE
  8
4
  6
CONTINUOUS
 62
   110
  5
6B7
 10
56.9705
 20
53.181583
 30
0.0
 11
56.970667
 21
53.181583
 31
0.0
  0
LINE
  8
4
  6
CONTINUOUS
 62
   110
  5
6B8
 10
57.220333
 20
53.169417
 30
0.0
 11
57.220417
 21
53.169417
 31
0.0
  0
LINE
  8
4
  6
CONTINUOUS
 62
   110
  5
6B9
 10
57.220333
 20
53.340417
 30
0.0
 11
57.220417
 21
53.340417
 31
0.0
  0
LINE
  8
1
  6
CONTINUOUS
 62
   110
  5
6BA
 10
55.228583
 20
51.649417
 30
0.0
 11
55.228583
 21
50.88025
 31
0.0
  0
LINE
  8
1
  6
CONTINUOUS
 62
   110
  5
6BB
 10
57.049167
 20
51.649417
 30
0.0
 11
57.049167
 21
50.88025
 31
0.0
  0
LINE
  8
1
  6
CONTINUOUS
 62
   110
  5
6BC
 10
55.453583
 20
51.10525
 30
0.0
 11
55.819083
 21
51.10525
 31
0.0
  0
LINE
  8
1
  6
CONTINUOUS
 62
   110
  5
6BD
 10
56.824167
 20
51.10525
 30
0.0
 11
56.54
 21
51.10525
 31
0.0
  0
SOLID
  8
1
  6
CONTINUOUS
 62
   110
  5
6BE
 10
55.453583
 20
51.14275
 30
0.0
 11
55.453583
 21
51.067583
 31
0.0
 12
55.228583
 22
51.10525
 32
0.0
 13
55.228583
 23
51.10525
 33
0.0
  0
SOLID
  8
1
  6
CONTINUOUS
 62
   110
  5
6BF
 10
56.824167
 20
51.14275
 30
0.0
 11
56.824167
 21
51.067583
 31
0.0
 12
57.049167
 22
51.10525
 32
0.0
 13
57.049167
 23
51.10525
 33
0.0
  0
LINE
  8
4
  6
CONTINUOUS
 62
   110
  5
6C0
 10
55.228583
 20
51.7275
 30
0.0
 11
55.228667
 21
51.7275
 31
0.0
  0
LINE
  8
4
  6
CONTINUOUS
 62
   110
  5
6C1
 10
57.049167
 20
51.7275
 30
0.0
 11
57.04925
 21
51.7275
 31
0.0
  0
LINE
  8
4
  6
CONTINUOUS
 62
   110
  5
6C2
 10
57.049167
 20
51.10525
 30
0.0
 11
57.04925
 21
51.10525
 31
0.0
  0
LINE
  8
1
  6
CONTINUOUS
 62
   110
  5
6C3
 10
55.339
 20
51.649417
 30
0.0
 11
55.339
 21
51.1605
 31
0.0
  0
LINE
  8
1
  6
CONTINUOUS
 62
   110
  5
6C4
 10
56.963667
 20
51.649417
 30
0.0
 11
56.963667
 21
51.1605
 31
0.0
  0
LINE
  8
1
  6
CONTINUOUS
 62
   110
  5
6C5
 10
56.738667
 20
51.3855
 30
0.0
 11
56.513667
 21
51.3855
 31
0.0
  0
LINE
  8
1
  6
CONTINUOUS
 62
   110
  5
6C6
 10
55.564
 20
51.3855
 30
0.0
 11
55.789
 21
51.3855
 31
0.0
  0
SOLID
  8
1
  6
CONTINUOUS
 62
   110
  5
6C7
 10
56.738667
 20
51.423
 30
0.0
 11
56.738667
 21
51.348
 31
0.0
 12
56.963667
 22
51.3855
 32
0.0
 13
56.963667
 23
51.3855
 33
0.0
  0
SOLID
  8
1
  6
CONTINUOUS
 62
   110
  5
6C8
 10
55.564
 20
51.423
 30
0.0
 11
55.564
 21
51.348
 31
0.0
 12
55.339
 22
51.3855
 32
0.0
 13
55.339
 23
51.3855
 33
0.0
  0
LINE
  8
4
  6
CONTINUOUS
 62
   110
  5
6C9
 10
55.339
 20
51.7275
 30
0.0
 11
55.339083
 21
51.7275
 31
0.0
  0
LINE
  8
4
  6
CONTINUOUS
 62
   110
  5
6CA
 10
56.963667
 20
51.7275
 30
0.0
 11
56.96375
 21
51.7275
 31
0.0
  0
LINE
  8
4
  6
CONTINUOUS
 62
   110
  5
6CB
 10
55.339
 20
51.3855
 30
0.0
 11
55.339083
 21
51.3855
 31
0.0
  0
LINE
  8
1
  6
CONTINUOUS
 62
   110
  5
6CC
 10
55.339
 20
51.643333
 30
0.0
 11
55.339
 21
51.337583
 31
0.0
  0
LINE
  8
1
  6
CONTINUOUS
 62
   110
  5
6CD
 10
55.228583
 20
51.643333
 30
0.0
 11
55.228583
 21
51.337583
 31
0.0
  0
LINE
  8
1
  6
CONTINUOUS
 62
   110
  5
6CE
 10
55.564
 20
51.562583
 30
0.0
 11
55.789
 21
51.562583
 31
0.0
  0
LINE
  8
1
  6
CONTINUOUS
 62
   110
  5
6CF
 10
55.003583
 20
51.562583
 30
0.0
 11
54.778583
 21
51.562583
 31
0.0
  0
SOLID
  8
1
  6
CONTINUOUS
 62
   110
  5
6D0
 10
55.564
 20
51.600083
 30
0.0
 11
55.564
 21
51.525083
 31
0.0
 12
55.339
 22
51.562583
 32
0.0
 13
55.339
 23
51.562583
 33
0.0
  0
SOLID
  8
1
  6
CONTINUOUS
 62
   110
  5
6D1
 10
55.003583
 20
51.600083
 30
0.0
 11
55.003583
 21
51.525083
 31
0.0
 12
55.228583
 22
51.562583
 32
0.0
 13
55.228583
 23
51.562583
 33
0.0
  0
LINE
  8
4
  6
CONTINUOUS
 62
   110
  5
6D2
 10
55.339
 20
51.7215
 30
0.0
 11
55.339083
 21
51.7215
 31
0.0
  0
LINE
  8
4
  6
CONTINUOUS
 62
   110
  5
6D3
 10
55.228583
 20
51.7215
 30
0.0
 11
55.228667
 21
51.7215
 31
0.0
  0
LINE
  8
4
  6
CONTINUOUS
 62
   110
  5
6D4
 10
55.228583
 20
51.562583
 30
0.0
 11
55.228667
 21
51.562583
 31
0.0
  0
LINE
  8
1
  6
CONTINUOUS
 62
   110
  5
6D5
 10
56.963583
 20
51.649417
 30
0.0
 11
56.963583
 21
51.337583
 31
0.0
  0
LINE
  8
1
  6
CONTINUOUS
 62
   110
  5
6D6
 10
56.738583
 20
51.562583
 30
0.0
 11
56.513583
 21
51.562583
 31
0.0
  0
LINE
  8
1
  6
CONTINUOUS
 62
   110
  5
6D7
 10
57.281083
 20
51.562583
 30
0.0
 11
57.506083
 21
51.562583
 31
0.0
  0
SOLID
  8
1
  6
CONTINUOUS
 62
   110
  5
6D8
 10
56.738583
 20
51.600083
 30
0.0
 11
56.738583
 21
51.525083
 31
0.0
 12
56.963583
 22
51.562583
 32
0.0
 13
56.963583
 23
51.562583
 33
0.0
  0
SOLID
  8
1
  6
CONTINUOUS
 62
   110
  5
6D9
 10
57.281083
 20
51.600083
 30
0.0
 11
57.281083
 21
51.525083
 31
0.0
 12
57.056083
 22
51.562583
 32
0.0
 13
57.056083
 23
51.562583
 33
0.0
  0
LINE
  8
4
  6
CONTINUOUS
 62
   110
  5
6DA
 10
56.963583
 20
51.7275
 30
0.0
 11
56.963667
 21
51.7275
 31
0.0
  0
LINE
  8
4
  6
CONTINUOUS
 62
   110
  5
6DB
 10
57.056083
 20
51.7215
 30
0.0
 11
57.056167
 21
51.7215
 31
0.0
  0
LINE
  8
4
  6
CONTINUOUS
 62
   110
  5
6DC
 10
57.056083
 20
51.562583
 30
0.0
 11
57.056167
 21
51.562583
 31
0.0
  0
SOLID
  8
2
  6
CONTINUOUS
 62
   110
  5
6DD
 10
55.807583
 20
50.378333
 30
0.0
 11
55.807583
 21
50.490833
 31
0.0
 12
55.470083
 22
50.434583
 32
0.0
 13
55.470083
 23
50.434583
 33
0.0
  0
LINE
  8
2
  6
CONTINUOUS
 62
   110
  5
6DE
 10
55.807583
 20
50.434583
 30
0.0
 11
56.169917
 21
50.434583
 31
0.0
  0
TEXT
  8
2
  6
CONTINUOUS
 62
   110
  5
6DF
 10
55.245333
 20
50.375333
 30
0.0
 40
0.15625
  1
C
  7
MONOTXT
210
0.0
220
0.0
230
1.0
  0
SOLID
  8
2
  6
CONTINUOUS
 62
   110
  5
6E0
 10
55.82075
 20
54.665333
 30
0.0
 11
55.82075
 21
54.552833
 31
0.0
 12
55.48325
 22
54.609083
 32
0.0
 13
55.48325
 23
54.609083
 33
0.0
  0
LINE
  8
2
  6
CONTINUOUS
 62
   110
  5
6E1
 10
55.82075
 20
54.609083
 30
0.0
 11
56.183
 21
54.609083
 31
0.0
  0
TEXT
  8
2
  6
CONTINUOUS
 62
   110
  5
6E2
 10
55.219083
 20
54.548667
 30
0.0
 40
0.15625
  1
C
  7
MONOTXT
210
0.0
220
0.0
230
1.0
  0
TEXT
  8
2
  6
CONTINUOUS
 62
   110
  5
6E3
 10
54.892917
 20
49.67675
 30
0.0
 40
0.3125
  1
PLAN
  7
MONOTXT
210
0.0
220
0.0
230
1.0
  0
TEXT
  8
2
  6
CONTINUOUS
 62
   110
  5
6E4
 10
58.49875
 20
49.705667
 30
0.0
 40
0.3125
  1
SECTION C-C
  7
MONOTXT
210
0.0
220
0.0
230
1.0
  0
LINE
  8
1
  6
CONTINUOUS
 62
   110
  5
6E5
 10
60.364667
 20
53.272833
 30
0.0
 11
60.364667
 21
54.10675
 31
0.0
  0
LINE
  8
1
  6
CONTINUOUS
 62
   110
  5
6E6
 10
59.97825
 20
52.579667
 30
0.0
 11
59.97825
 21
54.10675
 31
0.0
  0
LINE
  8
1
  6
CONTINUOUS
 62
   110
  5
6E7
 10
60.589667
 20
53.88175
 30
0.0
 11
60.814667
 21
53.88175
 31
0.0
  0
LINE
  8
1
  6
CONTINUOUS
 62
   110
  5
6E8
 10
59.75325
 20
53.88175
 30
0.0
 11
59.52825
 21
53.88175
 31
0.0
  0
SOLID
  8
1
  6
CONTINUOUS
 62
   110
  5
6E9
 10
60.589667
 20
53.91925
 30
0.0
 11
60.589667
 21
53.84425
 31
0.0
 12
60.364667
 22
53.88175
 32
0.0
 13
60.364667
 23
53.88175
 33
0.0
  0
SOLID
  8
1
  6
CONTINUOUS
 62
   110
  5
6EA
 10
59.75325
 20
53.91925
 30
0.0
 11
59.75325
 21
53.84425
 31
0.0
 12
59.97825
 22
53.88175
 32
0.0
 13
59.97825
 23
53.88175
 33
0.0
  0
LINE
  8
4
  6
CONTINUOUS
 62
   110
  5
6EB
 10
60.364667
 20
53.194667
 30
0.0
 11
60.364833
 21
53.194667
 31
0.0
  0
LINE
  8
4
  6
CONTINUOUS
 62
   110
  5
6EC
 10
59.97825
 20
52.501583
 30
0.0
 11
59.978333
 21
52.501583
 31
0.0
  0
LINE
  8
4
  6
CONTINUOUS
 62
   110
  5
6ED
 10
59.97825
 20
53.88175
 30
0.0
 11
59.978333
 21
53.88175
 31
0.0
  0
LINE
  8
1
  6
CONTINUOUS
 62
   110
  5
6EE
 10
60.1825
 20
53.277917
 30
0.0
 11
60.1825
 21
53.7415
 31
0.0
  0
LINE
  8
1
  6
CONTINUOUS
 62
   110
  5
6EF
 10
60.364667
 20
53.272833
 30
0.0
 11
60.364667
 21
53.7415
 31
0.0
  0
LINE
  8
1
  6
CONTINUOUS
 62
   110
  5
6F0
 10
59.9575
 20
53.5165
 30
0.0
 11
59.7325
 21
53.5165
 31
0.0
  0
LINE
  8
1
  6
CONTINUOUS
 62
   110
  5
6F1
 10
60.589667
 20
53.5165
 30
0.0
 11
60.814667
 21
53.5165
 31
0.0
  0
SOLID
  8
1
  6
CONTINUOUS
 62
   110
  5
6F2
 10
59.9575
 20
53.554
 30
0.0
 11
59.9575
 21
53.479
 31
0.0
 12
60.1825
 22
53.5165
 32
0.0
 13
60.1825
 23
53.5165
 33
0.0
  0
SOLID
  8
1
  6
CONTINUOUS
 62
   110
  5
6F3
 10
60.589667
 20
53.554
 30
0.0
 11
60.589667
 21
53.479
 31
0.0
 12
60.364667
 22
53.5165
 32
0.0
 13
60.364667
 23
53.5165
 33
0.0
  0
LINE
  8
4
  6
CONTINUOUS
 62
   110
  5
6F4
 10
60.1825
 20
53.199833
 30
0.0
 11
60.182583
 21
53.199833
 31
0.0
  0
LINE
  8
4
  6
CONTINUOUS
 62
   110
  5
6F5
 10
60.359167
 20
53.205833
 30
0.0
 11
60.35925
 21
53.205833
 31
0.0
  0
LINE
  8
4
  6
CONTINUOUS
 62
   110
  5
6F6
 10
60.364667
 20
53.5165
 30
0.0
 11
60.364833
 21
53.5165
 31
0.0
  0
LINE
  8
1
  6
CONTINUOUS
 62
   110
  5
6F7
 10
60.160417
 20
51.694
 30
0.0
 11
60.160417
 21
51.401083
 31
0.0
  0
LINE
  8
1
  6
CONTINUOUS
 62
   110
  5
6F8
 10
60.37025
 20
51.699
 30
0.0
 11
60.37025
 21
51.246583
 31
0.0
  0
LINE
  8
1
  6
CONTINUOUS
 62
   110
  5
6F9
 10
59.935417
 20
51.471583
 30
0.0
 11
59.710417
 21
51.471583
 31
0.0
  0
LINE
  8
1
  6
CONTINUOUS
 62
   110
  5
6FA
 10
60.59525
 20
51.471583
 30
0.0
 11
60.82025
 21
51.471583
 31
0.0
  0
SOLID
  8
1
  6
CONTINUOUS
 62
   110
  5
6FB
 10
59.935417
 20
51.509083
 30
0.0
 11
59.935417
 21
51.434083
 31
0.0
 12
60.160417
 22
51.471583
 32
0.0
 13
60.160417
 23
51.471583
 33
0.0
  0
SOLID
  8
1
  6
CONTINUOUS
 62
   110
  5
6FC
 10
60.59525
 20
51.509083
 30
0.0
 11
60.59525
 21
51.434083
 31
0.0
 12
60.37025
 22
51.471583
 32
0.0
 13
60.37025
 23
51.471583
 33
0.0
  0
TEXT
  8
1
  6
DASHDOT
 62
   110
  5
6FD
 10
60.928083
 20
51.424417
 30
0.0
 40
0.133
  1
1"
  7
MONOTXT
210
0.0
220
0.0
230
1.0
  0
LINE
  8
4
  6
CONTINUOUS
 62
   110
  5
6FE
 10
60.160417
 20
51.772083
 30
0.0
 11
60.1605
 21
51.772083
 31
0.0
  0
LINE
  8
4
  6
CONTINUOUS
 62
   110
  5
6FF
 10
60.37025
 20
51.777083
 30
0.0
 11
60.370333
 21
51.777083
 31
0.0
  0
LINE
  8
4
  6
CONTINUOUS
 62
   110
  5
700
 10
60.37025
 20
51.471583
 30
0.0
 11
60.370333
 21
51.471583
 31
0.0
  0
LINE
  8
1
  6
CONTINUOUS
 62
   110
  5
701
 10
59.731167
 20
51.223667
 30
0.0
 11
59.506167
 21
51.223667
 31
0.0
  0
SOLID
  8
1
  6
CONTINUOUS
 62
   110
  5
702
 10
60.262583
 20
51.261083
 30
0.0
 11
60.262583
 21
51.186167
 31
0.0
 12
60.037583
 22
51.223667
 32
0.0
 13
60.037583
 23
51.223667
 33
0.0
  0
SOLID
  8
1
  6
CONTINUOUS
 62
   110
  5
703
 10
59.731167
 20
51.261083
 30
0.0
 11
59.731167
 21
51.186167
 31
0.0
 12
59.956167
 22
51.223667
 32
0.0
 13
59.956167
 23
51.223667
 33
0.0
  0
LINE
  8
4
  6
CONTINUOUS
 62
   110
  5
704
 10
60.037583
 20
51.765917
 30
0.0
 11
60.03775
 21
51.765917
 31
0.0
  0
LINE
  8
4
  6
CONTINUOUS
 62
   110
  5
705
 10
59.961667
 20
51.765917
 30
0.0
 11
59.96175
 21
51.765917
 31
0.0
  0
LINE
  8
4
  6
CONTINUOUS
 62
   110
  5
706
 10
59.956167
 20
51.223667
 30
0.0
 11
59.95625
 21
51.223667
 31
0.0
  0
LINE
  8
1
  6
CONTINUOUS
 62
   110
  5
707
 10
59.731167
 20
50.93925
 30
0.0
 11
59.506167
 21
50.93925
 31
0.0
  0
LINE
  8
1
  6
CONTINUOUS
 62
   110
  5
708
 10
60.59525
 20
50.93925
 30
0.0
 11
60.82025
 21
50.93925
 31
0.0
  0
SOLID
  8
1
  6
CONTINUOUS
 62
   110
  5
709
 10
59.731167
 20
50.976667
 30
0.0
 11
59.731167
 21
50.90175
 31
0.0
 12
59.956167
 22
50.93925
 32
0.0
 13
59.956167
 23
50.93925
 33
0.0
  0
SOLID
  8
1
  6
CONTINUOUS
 62
   110
  5
70A
 10
60.59525
 20
50.976667
 30
0.0
 11
60.59525
 21
50.90175
 31
0.0
 12
60.37025
 22
50.93925
 32
0.0
 13
60.37025
 23
50.93925
 33
0.0
  0
LINE
  8
4
  6
CONTINUOUS
 62
   110
  5
70B
 10
59.956167
 20
51.777083
 30
0.0
 11
59.95625
 21
51.777083
 31
0.0
  0
LINE
  8
4
  6
CONTINUOUS
 62
   110
  5
70C
 10
60.37025
 20
51.772083
 30
0.0
 11
60.370333
 21
51.772083
 31
0.0
  0
LINE
  8
4
  6
CONTINUOUS
 62
   110
  5
70D
 10
60.37025
 20
50.93925
 30
0.0
 11
60.370333
 21
50.93925
 31
0.0
  0
LINE
  8
1
  6
CONTINUOUS
 62
   110
  5
70E
 10
54.972417
 20
53.181583
 30
0.0
 11
53.377583
 21
53.181583
 31
0.0
  0
LINE
  8
1
  6
CONTINUOUS
 62
   110
  5
70F
 10
55.14775
 20
51.7225
 30
0.0
 11
53.377583
 21
51.7225
 31
0.0
  0
LINE
  8
1
  6
CONTINUOUS
 62
   110
  5
710
 10
53.602583
 20
51.9475
 30
0.0
 11
53.602583
 21
52.344
 31
0.0
  0
LINE
  8
1
  6
CONTINUOUS
 62
   110
  5
711
 10
53.602583
 20
52.956583
 30
0.0
 11
53.602583
 21
52.731583
 31
0.0
  0
SOLID
  8
1
  6
CONTINUOUS
 62
   110
  5
712
 10
53.565083
 20
51.9475
 30
0.0
 11
53.640083
 21
51.9475
 31
0.0
 12
53.602583
 22
51.7225
 32
0.0
 13
53.602583
 23
51.7225
 33
0.0
  0
SOLID
  8
1
  6
CONTINUOUS
 62
   110
  5
713
 10
53.565083
 20
52.956583
 30
0.0
 11
53.640083
 21
52.956583
 31
0.0
 12
53.602583
 22
53.181583
 32
0.0
 13
53.602583
 23
53.181583
 33
0.0
  0
LINE
  8
4
  6
CONTINUOUS
 62
   110
  5
714
 10
55.0505
 20
53.181583
 30
0.0
 11
55.050667
 21
53.181583
 31
0.0
  0
LINE
  8
4
  6
CONTINUOUS
 62
   110
  5
715
 10
55.225833
 20
51.7225
 30
0.0
 11
55.225917
 21
51.7225
 31
0.0
  0
LINE
  8
4
  6
CONTINUOUS
 62
   110
  5
716
 10
53.602583
 20
51.7225
 30
0.0
 11
53.60275
 21
51.7225
 31
0.0
  0
LINE
  8
1
  6
CONTINUOUS
 62
   110
  5
717
 10
55.15325
 20
51.945083
 30
0.0
 11
53.774167
 21
51.945083
 31
0.0
  0
LINE
  8
1
  6
CONTINUOUS
 62
   110
  5
718
 10
53.90075
 20
52.170083
 30
0.0
 11
53.90075
 21
52.395083
 31
0.0
  0
LINE
  8
1
  6
CONTINUOUS
 62
   110
  5
719
 10
53.90075
 20
51.4975
 30
0.0
 11
53.90075
 21
50.980083
 31
0.0
  0
SOLID
  8
1
  6
CONTINUOUS
 62
   110
  5
71A
 10
53.86325
 20
52.170083
 30
0.0
 11
53.93825
 21
52.170083
 31
0.0
 12
53.90075
 22
51.945083
 32
0.0
 13
53.90075
 23
51.945083
 33
0.0
  0
SOLID
  8
1
  6
CONTINUOUS
 62
   110
  5
71B
 10
53.86325
 20
51.4975
 30
0.0
 11
53.93825
 21
51.4975
 31
0.0
 12
53.90075
 22
51.7225
 32
0.0
 13
53.90075
 23
51.7225
 33
0.0
  0
LINE
  8
4
  6
CONTINUOUS
 62
   110
  5
71C
 10
55.231333
 20
51.945083
 30
0.0
 11
55.2315
 21
51.945083
 31
0.0
  0
LINE
  8
4
  6
CONTINUOUS
 62
   110
  5
71D
 10
55.231333
 20
51.729583
 30
0.0
 11
55.2315
 21
51.729583
 31
0.0
  0
LINE
  8
4
  6
CONTINUOUS
 62
   110
  5
71E
 10
53.90075
 20
51.7225
 30
0.0
 11
53.900833
 21
51.7225
 31
0.0
  0
LINE
  8
1
  6
CONTINUOUS
 62
   110
  5
71F
 10
57.30675
 20
52.442917
 30
0.0
 11
58.475917
 21
52.442917
 31
0.0
  0
LINE
  8
1
  6
CONTINUOUS
 62
   110
  5
720
 10
57.12875
 20
51.945083
 30
0.0
 11
58.475917
 21
51.945083
 31
0.0
  0
LINE
  8
1
  6
CONTINUOUS
 62
   110
  5
721
 10
58.250917
 20
52.667917
 30
0.0
 11
58.250917
 21
52.892917
 31
0.0
  0
LINE
  8
1
  6
CONTINUOUS
 62
   110
  5
722
 10
58.250917
 20
51.720083
 30
0.0
 11
58.250917
 21
51.495083
 31
0.0
  0
SOLID
  8
1
  6
CONTINUOUS
 62
   110
  5
723
 10
58.213417
 20
52.667917
 30
0.0
 11
58.288417
 21
52.667917
 31
0.0
 12
58.250917
 22
52.442917
 32
0.0
 13
58.250917
 23
52.442917
 33
0.0
  0
SOLID
  8
1
  6
CONTINUOUS
 62
   110
  5
724
 10
58.213417
 20
51.720083
 30
0.0
 11
58.288417
 21
51.720083
 31
0.0
 12
58.250917
 22
51.945083
 32
0.0
 13
58.250917
 23
51.945083
 33
0.0
  0
LINE
  8
4
  6
CONTINUOUS
 62
   110
  5
725
 10
57.228667
 20
52.442917
 30
0.0
 11
57.22875
 21
52.442917
 31
0.0
  0
LINE
  8
4
  6
CONTINUOUS
 62
   110
  5
726
 10
57.050667
 20
51.945083
 30
0.0
 11
57.05075
 21
51.945083
 31
0.0
  0
LINE
  8
4
  6
CONTINUOUS
 62
   110
  5
727
 10
58.250917
 20
51.945083
 30
0.0
 11
58.251083
 21
51.945083
 31
0.0
  0
LINE
  8
1
  6
CONTINUOUS
 62
   110
  5
728
 10
57.30675
 20
53.1715
 30
0.0
 11
58.828583
 21
53.1715
 31
0.0
  0
LINE
  8
1
  6
CONTINUOUS
 62
   110
  5
729
 10
57.30675
 20
52.442917
 30
0.0
 11
58.828583
 21
52.442917
 31
0.0
  0
LINE
  8
1
  6
CONTINUOUS
 62
   110
  5
72A
 10
58.603583
 20
53.3965
 30
0.0
 11
58.603583
 21
53.839083
 31
0.0
  0
LINE
  8
1
  6
CONTINUOUS
 62
   110
  5
72B
 10
58.603583
 20
52.217917
 30
0.0
 11
58.603583
 21
51.992917
 31
0.0
  0
SOLID
  8
1
  6
CONTINUOUS
 62
   110
  5
72C
 10
58.566083
 20
53.3965
 30
0.0
 11
58.641083
 21
53.3965
 31
0.0
 12
58.603583
 22
53.1715
 32
0.0
 13
58.603583
 23
53.1715
 33
0.0
  0
SOLID
  8
1
  6
CONTINUOUS
 62
   110
  5
72D
 10
58.566083
 20
52.217917
 30
0.0
 11
58.641083
 21
52.217917
 31
0.0
 12
58.603583
 22
52.442917
 32
0.0
 13
58.603583
 23
52.442917
 33
0.0
  0
LINE
  8
4
  6
CONTINUOUS
 62
   110
  5
72E
 10
57.228667
 20
53.1715
 30
0.0
 11
57.22875
 21
53.1715
 31
0.0
  0
LINE
  8
4
  6
CONTINUOUS
 62
   110
  5
72F
 10
57.228667
 20
52.442917
 30
0.0
 11
57.22875
 21
52.442917
 31
0.0
  0
LINE
  8
4
  6
CONTINUOUS
 62
   110
  5
730
 10
58.603583
 20
52.442917
 30
0.0
 11
58.603667
 21
52.442917
 31
0.0
  0
POLYLINE
  8
1
  6
CONTINUOUS
 62
   110
  5
731
 66
     1
 10
0.0
 20
0.0
 30
0.0
  0
VERTEX
  8
1
  6
CONTINUOUS
 62
   110
  5
732
 10
55.337583
 20
51.729583
 30
0.0
  0
VERTEX
  8
1
  6
CONTINUOUS
 62
   110
  5
733
 10
56.9595
 20
51.729583
 30
0.0
  0
VERTEX
  8
1
  6
CONTINUOUS
 62
   110
  5
734
 10
56.9595
 20
51.945083
 30
0.0
  0
VERTEX
  8
1
  6
CONTINUOUS
 62
   110
  5
735
 10
55.337583
 20
51.945083
 30
0.0
  0
VERTEX
  8
1
  6
CONTINUOUS
 62
   110
  5
736
 10
55.337583
 20
51.729583
 30
0.0
  0
SEQEND
  8
1
  6
CONTINUOUS
 62
   110
  5
737
  0
POLYLINE
  8
1
  6
CONTINUOUS
 62
   110
  5
738
 66
     1
 10
0.0
 20
0.0
 30
0.0
  0
VERTEX
  8
1
  6
CONTINUOUS
 62
   110
  5
739
 10
60.163167
 20
51.768
 30
0.0
  0
VERTEX
  8
1
  6
CONTINUOUS
 62
   110
  5
73A
 10
60.366083
 20
51.768
 30
0.0
  0
VERTEX
  8
1
  6
CONTINUOUS
 62
   110
  5
73B
 10
60.366083
 20
51.984583
 30
0.0
  0
VERTEX
  8
1
  6
CONTINUOUS
 62
   110
  5
73C
 10
60.163167
 20
51.984583
 30
0.0
  0
VERTEX
  8
1
  6
CONTINUOUS
 62
   110
  5
73D
 10
60.163167
 20
51.768
 30
0.0
  0
SEQEND
  8
1
  6
CONTINUOUS
 62
   110
  5
73E
  0
INSERT
  8
1
  6
CONTINUOUS
 62
   110
  5
76B
  2
$X62
 10
37.30875
 20
44.649083
 30
0.0
 41
1.25
 42
1.25
210
0.0
220
0.0
230
1.0
  0
INSERT
  8
1
  6
CONTINUOUS
 62
   110
  5
778
  2
$X63
 10
37.30875
 20
44.649083
 30
0.0
 41
1.25
 42
1.25
210
0.0
220
0.0
230
1.0
  0
LINE
  8
1
  6
CONTINUOUS
 62
   110
  5
779
 10
60.298417
 20
52.331167
 30
0.0
 11
60.298417
 21
52.339
 31
0.0
  0
LINE
  8
1
  6
CONTINUOUS
 62
   110
  5
77A
 10
60.367417
 20
52.331167
 30
0.0
 11
60.367417
 21
52.339
 31
0.0
  0
LINE
  8
1
  6
CONTINUOUS
 62
   110
  5
77B
 10
60.173417
 20
52.214
 30
0.0
 11
60.048417
 21
52.214
 31
0.0
  0
LINE
  8
1
  6
CONTINUOUS
 62
   110
  5
77C
 10
60.492417
 20
52.214
 30
0.0
 11
60.617417
 21
52.214
 31
0.0
  0
POINT
  8
1
  6
CONTINUOUS
 62
   110
  5
77D
 10
60.617417
 20
52.214
 30
0.0
  0
SOLID
  8
1
  6
CONTINUOUS
 62
   110
  5
77E
 10
60.173417
 20
52.234833
 30
0.0
 11
60.173417
 21
52.193167
 31
0.0
 12
60.298333
 22
52.214
 32
0.0
 13
60.298333
 23
52.214
 33
0.0
  0
SOLID
  8
1
  6
CONTINUOUS
 62
   110
  5
77F
 10
60.492417
 20
52.234833
 30
0.0
 11
60.492417
 21
52.193167
 31
0.0
 12
60.367417
 22
52.214
 32
0.0
 13
60.367417
 23
52.214
 33
0.0
  0
LINE
  8
4
  6
CONTINUOUS
 62
   110
  5
780
 10
60.298417
 20
52.206167
 30
0.0
 11
60.298583
 21
52.206167
 31
0.0
  0
LINE
  8
4
  6
CONTINUOUS
 62
   110
  5
781
 10
60.367417
 20
52.206167
 30
0.0
 11
60.3675
 21
52.206167
 31
0.0
  0
LINE
  8
4
  6
CONTINUOUS
 62
   110
  5
782
 10
60.367417
 20
52.214
 30
0.0
 11
60.3675
 21
52.214
 31
0.0
  0
LINE
  8
1
  6
CONTINUOUS
 62
   110
  5
783
 10
55.11125
 20
52.92625
 30
0.0
 11
55.11125
 21
52.944167
 31
0.0
  0
LINE
  8
1
  6
CONTINUOUS
 62
   110
  5
784
 10
55.05325
 20
52.92625
 30
0.0
 11
55.05325
 21
52.944167
 31
0.0
  0
LINE
  8
1
  6
CONTINUOUS
 62
   110
  5
785
 10
55.23625
 20
52.819167
 30
0.0
 11
55.36125
 21
52.819167
 31
0.0
  0
LINE
  8
1
  6
CONTINUOUS
 62
   110
  5
786
 10
54.92825
 20
52.819167
 30
0.0
 11
54.80325
 21
52.819167
 31
0.0
  0
SOLID
  8
1
  6
CONTINUOUS
 62
   110
  5
787
 10
55.23625
 20
52.84
 30
0.0
 11
55.23625
 21
52.798333
 31
0.0
 12
55.11125
 22
52.819167
 32
0.0
 13
55.11125
 23
52.819167
 33
0.0
  0
SOLID
  8
1
  6
CONTINUOUS
 62
   110
  5
788
 10
54.92825
 20
52.84
 30
0.0
 11
54.92825
 21
52.798333
 31
0.0
 12
55.05325
 22
52.819167
 32
0.0
 13
55.05325
 23
52.819167
 33
0.0
  0
LINE
  8
4
  6
CONTINUOUS
 62
   110
  5
789
 10
55.11125
 20
52.80125
 30
0.0
 11
55.111333
 21
52.80125
 31
0.0
  0
LINE
  8
4
  6
CONTINUOUS
 62
   110
  5
78A
 10
55.05325
 20
52.80125
 30
0.0
 11
55.053333
 21
52.80125
 31
0.0
  0
LINE
  8
4
  6
CONTINUOUS
 62
   110
  5
78B
 10
55.05325
 20
52.819167
 30
0.0
 11
55.053333
 21
52.819167
 31
0.0
  0
LINE
  8
2
  6
CONTINUOUS
 62
   110
  5
78C
 10
56.846917
 20
53.1715
 30
0.0
 11
56.38325
 21
53.1715
 31
0.0
  0
LINE
  8
2
  6
CONTINUOUS
 62
   110
  5
78D
 10
56.846917
 20
53.105667
 30
0.0
 11
56.38325
 21
53.105667
 31
0.0
  0
LINE
  8
2
  6
CONTINUOUS
 62
   110
  5
78E
 10
56.512
 20
53.2965
 30
0.0
 11
56.512
 21
53.4215
 31
0.0
  0
LINE
  8
2
  6
CONTINUOUS
 62
   110
  5
78F
 10
56.512
 20
53.105667
 30
0.0
 11
56.512
 21
52.855667
 31
0.0
  0
SOLID
  8
2
  6
CONTINUOUS
 62
   110
  5
790
 10
56.491167
 20
53.2965
 30
0.0
 11
56.532833
 21
53.2965
 31
0.0
 12
56.512
 22
53.1715
 32
0.0
 13
56.512
 23
53.1715
 33
0.0
  0
SOLID
  8
2
  6
CONTINUOUS
 62
   110
  5
791
 10
56.491167
 20
52.980667
 30
0.0
 11
56.532833
 21
52.980667
 31
0.0
 12
56.512
 22
53.105667
 32
0.0
 13
56.512
 23
53.105667
 33
0.0
  0
LINE
  8
2
  6
CONTINUOUS
 62
   110
  5
792
 10
56.971917
 20
53.1715
 30
0.0
 11
56.972
 21
53.1715
 31
0.0
  0
LINE
  8
2
  6
CONTINUOUS
 62
   110
  5
793
 10
56.971917
 20
53.105667
 30
0.0
 11
56.972
 21
53.105667
 31
0.0
  0
LINE
  8
2
  6
CONTINUOUS
 62
   110
  5
794
 10
56.512
 20
53.105667
 30
0.0
 11
56.512083
 21
53.105667
 31
0.0
  0
LINE
  8
1
  6
CONTINUOUS
 62
   110
  5
795
 10
56.846917
 20
52.453
 30
0.0
 11
55.998833
 21
52.453
 31
0.0
  0
LINE
  8
1
  6
CONTINUOUS
 62
   110
  5
796
 10
56.846917
 20
52.4975
 30
0.0
 11
55.998833
 21
52.4975
 31
0.0
  0
LINE
  8
1
  6
CONTINUOUS
 62
   110
  5
797
 10
56.123833
 20
52.328
 30
0.0
 11
56.123833
 21
52.203
 31
0.0
  0
LINE
  8
1
  6
CONTINUOUS
 62
   110
  5
798
 10
56.123833
 20
52.6225
 30
0.0
 11
56.123833
 21
52.7475
 31
0.0
  0
SOLID
  8
1
  6
CONTINUOUS
 62
   110
  5
799
 10
56.103
 20
52.328
 30
0.0
 11
56.144667
 21
52.328
 31
0.0
 12
56.123833
 22
52.453
 32
0.0
 13
56.123833
 23
52.453
 33
0.0
  0
SOLID
  8
1
  6
CONTINUOUS
 62
   110
  5
79A
 10
56.103
 20
52.6225
 30
0.0
 11
56.144667
 21
52.6225
 31
0.0
 12
56.123833
 22
52.4975
 32
0.0
 13
56.123833
 23
52.4975
 33
0.0
  0
LINE
  8
4
  6
CONTINUOUS
 62
   110
  5
79B
 10
56.971917
 20
52.453
 30
0.0
 11
56.972
 21
52.453
 31
0.0
  0
LINE
  8
4
  6
CONTINUOUS
 62
   110
  5
79C
 10
56.971917
 20
52.4975
 30
0.0
 11
56.972
 21
52.4975
 31
0.0
  0
LINE
  8
4
  6
CONTINUOUS
 62
   110
  5
79D
 10
56.123833
 20
52.4975
 30
0.0
 11
56.124
 21
52.4975
 31
0.0
  0
TEXT
  8
1
  6
DASHDOT
 62
   110
  5
79E
 10
60.879917
 20
53.477917
 30
0.0
 40
0.133
  1
1 5/8 "
  7
MONOTXT
210
0.0
220
0.0
230
1.0
  0
TEXT
  8
1
  6
DASHDOT
 62
   110
  5
79F
 10
59.101417
 20
53.849833
 30
0.0
 40
0.133
  1
2 7/16 "
  7
MONOTXT
210
0.0
220
0.0
230
1.0
  0
TEXT
  8
1
  6
DASHDOT
 62
   110
  5
7A0
 10
60.681
 20
52.137333
 30
0.0
 40
0.133
  1
 7/16 "
  7
MONOTXT
210
0.0
220
0.0
230
1.0
  0
TEXT
  8
1
  6
DASHDOT
 62
   110
  5
7A1
 10
57.741083
 20
53.80675
 30
0.0
 40
0.133
  1
4 1/2 "
  7
MONOTXT
210
0.0
220
0.0
230
1.0
  0
TEXT
  8
1
  6
DASHDOT
 62
   110
  5
7A2
 10
59.17425
 20
51.1885
 30
0.0
 40
0.133
  1
 9/16 "
  7
MONOTXT
210
0.0
220
0.0
230
1.0
  0
TEXT
  8
1
  6
DASHDOT
 62
   110
  5
7A3
 10
60.92375
 20
50.86425
 30
0.0
 40
0.133
  1
2 1/2 "
  7
MONOTXT
210
0.0
220
0.0
230
1.0
  0
TEXT
  8
1
  6
DASHDOT
 62
   110
  5
7A4
 10
57.469833
 20
52.786083
 30
0.0
 40
0.133
  1
3 1/4 "
  7
MONOTXT
210
0.0
220
0.0
230
1.0
  0
LINE
  8
1
  6
CONTINUOUS
 62
   110
  5
7A5
 10
60.037583
 20
51.687833
 30
0.0
 11
60.037583
 21
51.553333
 31
0.0
  0
LINE
  8
1
  6
CONTINUOUS
 62
   110
  5
7A6
 10
60.037583
 20
51.401083
 30
0.0
 11
60.037583
 21
50.998667
 31
0.0
  0
LINE
  8
1
  6
CONTINUOUS
 62
   110
  5
7A7
 10
59.956167
 20
51.699
 30
0.0
 11
59.956167
 21
51.555667
 31
0.0
  0
LINE
  8
1
  6
CONTINUOUS
 62
   110
  5
7A8
 10
60.262583
 20
51.223667
 30
0.0
 11
60.348833
 21
51.223667
 31
0.0
  0
LINE
  8
1
  6
CONTINUOUS
 62
   110
  5
7A9
 10
59.956167
 20
51.401083
 30
0.0
 11
59.956167
 21
50.85075
 31
0.0
  0
LINE
  8
1
  6
CONTINUOUS
 62
   110
  5
7AA
 10
60.37025
 20
51.694
 30
0.0
 11
60.37025
 21
50.85075
 31
0.0
  0
TEXT
  8
1
  6
DASHDOT
 62
   110
  5
7AB
 10
54.30525
 20
53.339583
 30
0.0
 40
0.133
  1
1 1/2 "
  7
MONOTXT
210
0.0
220
0.0
230
1.0
  0
TEXT
  8
1
  6
DASHDOT
 62
   110
  5
7AC
 10
55.890917
 20
53.987
 30
0.0
 40
0.133
  1
13 1/2 "
  7
MONOTXT
210
0.0
220
0.0
230
1.0
  0
TEXT
  8
1
  6
DASHDOT
 62
   110
  5
7AD
 10
54.358417
 20
52.776083
 30
0.0
 40
0.133
  1
 7/16 "
  7
MONOTXT
210
0.0
220
0.0
230
1.0
  0
TEXT
  8
1
  6
DASHDOT
 62
   110
  5
7AE
 10
55.7495
 20
53.637
 30
0.0
 40
0.133
  1
10 1/2 "
  7
MONOTXT
210
0.0
220
0.0
230
1.0
  0
TEXT
  8
1
  6
DASHDOT
 62
   110
  5
7AF
 10
57.595917
 20
53.297417
 30
0.0
 40
0.133
  1
1 1/2 "
  7
MONOTXT
210
0.0
220
0.0
230
1.0
  0
TEXT
  8
1
  6
DASHDOT
 62
   110
  5
7B0
 10
57.618583
 20
51.4845
 30
0.0
 40
0.133
  1
 3/4 "
  7
MONOTXT
210
0.0
220
0.0
230
1.0
  0
TEXT
  8
2
  6
DASHDOT
 62
   110
  5
7B1
 10
55.879417
 20
53.159
 30
0.0
 40
0.133
  1
 3/16 "
  7
MONOTXT
210
0.0
220
0.0
230
1.0
  0
TEXT
  8
1
  6
DASHDOT
 62
   110
  5
7B2
 10
55.886667
 20
51.2945
 30
0.0
 40
0.133
  1
10 1/8 "
  7
MONOTXT
210
0.0
220
0.0
230
1.0
  0
TEXT
  8
1
  6
DASHDOT
 62
   110
  5
7B3
 10
55.915417
 20
50.97025
 30
0.0
 40
0.133
  1
11 5/8 "
  7
MONOTXT
210
0.0
220
0.0
230
1.0
  0
TEXT
  8
1
  6
DASHDOT
 62
   110
  5
7B4
 10
54.423417
 20
51.4845
 30
0.0
 40
0.133
  1
 3/4 "
  7
MONOTXT
210
0.0
220
0.0
230
1.0
  0
TEXT
  8
1
  6
DASHDOT
 62
   110
  5
7B5
 10
53.330417
 20
52.492417
 30
0.0
 40
0.15625
  1
9 1/8 "
  7
MONOTXT
210
0.0
220
0.0
230
1.0
  0
TEXT
  8
1
  6
DASHDOT
 62
   110
  5
7B6
 10
53.126917
 20
50.965333
 30
0.0
 40
0.15625
  1
1 3/8 "
  7
MONOTXT
210
0.0
220
0.0
230
1.0
  0
TEXT
  8
1
  6
DASHDOT
 62
   110
  5
7B7
 10
55.515
 20
52.161917
 30
0.0
 40
0.15
  1
 3/8 "
  7
MONOTXT
210
0.0
220
0.0
230
1.0
  0
LINE
  8
2
  6
CONTINUOUS
 62
   110
  5
7B8
 10
56.169917
 20
50.434583
 30
0.0
 11
56.169917
 21
50.728
 31
0.0
  0
LINE
  8
2
  6
CONTINUOUS
 62
   110
  5
7B9
 10
56.183
 20
54.609083
 30
0.0
 11
56.183
 21
54.31575
 31
0.0
  0
LINE
  8
1
  6
CONTINUOUS
 62
   110
  5
7BA
 10
53.90075
 20
50.980083
 30
0.0
 11
53.5645
 21
50.980083
 31
0.0
  0
LINE
  8
1
  6
CONTINUOUS
 62
   110
  5
7BB
 10
58.603583
 20
53.839083
 30
0.0
 11
58.267333
 21
53.839083
 31
0.0
  0
LINE
  8
1
  6
CONTINUOUS
 62
   110
  5
7BC
 10
58.250917
 20
52.892917
 30
0.0
 11
58.02125
 21
52.892917
 31
0.0
  0
LINE
  8
1
  6
CONTINUOUS
 62
   110
  5
7BD
 10
56.123833
 20
52.203
 30
0.0
 11
55.787583
 21
52.203
 31
0.0
  0
LINE
  8
2
  6
CONTINUOUS
 62
   110
  5
7BE
 10
56.238333
 20
53.202333
 30
0.0
 11
56.512
 21
53.4215
 31
0.0
  0
TEXT
  8
2
  6
DASHDOT
 62
   110
  5
7BF
 10
55.843333
 20
55.03025
 30
0.0
 40
0.133
  1
Raised  1/8 " Above Metal Elevations Shown.
  7
MONOTXT
210
0.0
220
0.0
230
1.0
  0
TEXT
  8
2
  6
CONTINUOUS
 62
   110
  5
7C0
 10
64.967167
 20
49.088833
 30
0.0
 40
0.13325
  1
Lettering on covers shall denote STORM SEWER or SANITARY
  7
MONOTXT
210
0.0
220
0.0
230
1.0
  0
TEXT
  8
2
  6
CONTINUOUS
 62
   110
  5
7C1
 10
64.928917
 20
48.73075
 30
0.0
 40
0.13325
  1
SEWER as applicable.
  7
MONOTXT
210
0.0
220
0.0
230
1.0
  0
TEXT
  8
1
  6
DASHDOT
 62
   110
  5
7C2
 10
58.161
 20
44.78425
 30
0.0
 40
0.133
  1
8.5" Min.
 50
90.0
  7
MONOTXT
210
0.0
220
0.0
230
1.0
  0
TEXT
  8
2
  6
DASHDOT
 62
   110
  5
7C3
 10
60.32725
 20
42.23525
 30
0.0
 40
0.133
  1
Grade 40 or 60, Deformed Bar.
  7
MONOTXT
210
0.0
220
0.0
230
1.0
  0
LINE
  8
1
  6
CONTINUOUS
 62
   110
  5
7C4
 10
59.74425
 20
43.5605
 30
0.0
 11
60.31075
 21
43.5605
 31
0.0
  0
SOLID
  8
1
  6
CONTINUOUS
 62
   110
  5
7C5
 10
60.04825
 20
45.152417
 30
0.0
 11
60.12325
 21
45.152417
 31
0.0
 12
60.08575
 22
45.377417
 32
0.0
 13
60.08575
 23
45.377417
 33
0.0
  0
SOLID
  8
1
  6
CONTINUOUS
 62
   110
  5
7C6
 10
60.04825
 20
43.78575
 30
0.0
 11
60.12325
 21
43.78575
 31
0.0
 12
60.08575
 22
43.56075
 32
0.0
 13
60.08575
 23
43.56075
 33
0.0
  0
SOLID
  8
1
  6
CONTINUOUS
 62
   110
  5
7C7
 10
60.04825
 20
45.152417
 30
0.0
 11
60.12325
 21
45.152417
 31
0.0
 12
60.08575
 22
45.377417
 32
0.0
 13
60.08575
 23
45.377417
 33
0.0
  0
LINE
  8
1
  6
CONTINUOUS
 62
   110
  5
7C8
 10
60.08575
 20
43.99075
 30
0.0
 11
60.08575
 21
43.79625
 31
0.0
  0
LINE
  8
1
  6
CONTINUOUS
 62
   110
  5
7C9
 10
60.08575
 20
44.947417
 30
0.0
 11
60.08575
 21
45.141917
 31
0.0
  0
TEXT
  8
1
  6
DASHDOT
 62
   110
  5
7CA
 10
60.334333
 20
44.084417
 30
0.0
 40
0.133
  1
5.5" Min.
 50
90.0
  7
MONOTXT
210
0.0
220
0.0
230
1.0
  0
TEXT
  8
2
  6
CONTINUOUS
 62
   110
  5
7CB
 10
64.926167
 20
48.393583
 30
0.0
 40
0.13325
  1
Bottom ribs may be deleted from
  7
MONOTXT
210
0.0
220
0.0
230
1.0
  0
TEXT
  8
2
  6
CONTINUOUS
 62
   110
  5
7CC
 10
68.7095
 20
48.42
 30
0.0
 40
0.13325
  1
manhole cover castings.
  7
MONOTXT
210
0.0
220
0.0
230
1.0
  0
TEXT
  8
2
  6
CONTINUOUS
 62
   110
  5
7CD
 10
64.898833
 20
47.321333
 30
0.0
 40
0.13325
  1
Shop Drawings shall be submitted if details and dimensions vary.
  7
MONOTXT
210
0.0
220
0.0
230
1.0
  0
TEXT
  8
1
  6
CONTINUOUS
 62
   110
  5
7CE
 10
66.499
 20
38.866167
 30
0.0
 40
0.083333
  1
 PREPARED 7-1-99
  7
ROMANS
 72
     4
 11
67.148333
 21
38.907833
 31
0.0
210
0.0
220
0.0
230
1.0
  0
TEXT
  8
1
  6
DASHDOT
 62
   110
  5
7CF
 10
64.892583
 20
48.032583
 30
0.0
 40
0.13325
  1
The  1/8 " raised lugs are a skid resistant measure. Alternative
  7
MONOTXT
210
0.0
220
0.0
230
1.0
  0
TEXT
  8
1
  6
DASHDOT
 62
   110
  5
7D0
 10
64.911333
 20
47.687917
 30
0.0
 40
0.13325
  1
measures will require approval  by the Engineer.
  7
MONOTXT
210
0.0
220
0.0
230
1.0
  0
ENDSEC
  0
EOF
