  0
SECTION
  2
HEADER
  9
$ACADVER
  1
AC1009
  9
$INSBASE
 10
0.0
 20
0.0
 30
0.0
  9
$EXTMIN
 10
1.292073
 20
35.084292
 30
0.0
  9
$EXTMAX
 10
36.62174
 20
57.084292
 30
0.0
  9
$LIMMIN
 10
0.0
 20
0.0
  9
$LIMMAX
 10
12.0
 20
9.0
  9
$ORTHOMODE
 70
     0
  9
$REGENMODE
 70
     1
  9
$FILLMODE
 70
     1
  9
$QTEXTMODE
 70
     0
  9
$MIRRTEXT
 70
     1
  9
$DRAGMODE
 70
     2
  9
$LTSCALE
 40
1.0
  9
$OSMODE
 70
     0
  9
$ATTMODE
 70
     1
  9
$TEXTSIZE
 40
0.2
  9
$TRACEWID
 40
0.05
  9
$TEXTSTYLE
  7
STANDARD
  9
$CLAYER
  8
0
  9
$CELTYPE
  6
CONTINUOUS
  9
$CECOLOR
 62
   256
  9
$DIMSCALE
 40
1.0
  9
$DIMASZ
 40
0.18
  9
$DIMEXO
 40
0.0625
  9
$DIMDLI
 40
0.38
  9
$DIMRND
 40
0.0
  9
$DIMDLE
 40
0.0
  9
$DIMEXE
 40
0.18
  9
$DIMTP
 40
0.0
  9
$DIMTM
 40
0.0
  9
$DIMTXT
 40
0.18
  9
$DIMCEN
 40
0.09
  9
$DIMTSZ
 40
0.0
  9
$DIMTOL
 70
     0
  9
$DIMLIM
 70
     0
  9
$DIMTIH
 70
     1
  9
$DIMTOH
 70
     1
  9
$DIMSE1
 70
     0
  9
$DIMSE2
 70
     0
  9
$DIMTAD
 70
     0
  9
$DIMZIN
 70
     0
  9
$DIMBLK
  1

  9
$DIMASO
 70
     1
  9
$DIMSHO
 70
     1
  9
$DIMPOST
  1

  9
$DIMAPOST
  1

  9
$DIMALT
 70
     0
  9
$DIMALTD
 70
     2
  9
$DIMALTF
 40
25.4
  9
$DIMLFAC
 40
1.0
  9
$DIMTOFL
 70
     0
  9
$DIMTVP
 40
0.0
  9
$DIMTIX
 70
     0
  9
$DIMSOXD
 70
     0
  9
$DIMSAH
 70
     0
  9
$DIMBLK1
  1

  9
$DIMBLK2
  1

  9
$DIMSTYLE
  2
STANDARD
  9
$DIMCLRD
 70
     0
  9
$DIMCLRE
 70
     0
  9
$DIMCLRT
 70
     0
  9
$DIMTFAC
 40
1.0
  9
$DIMGAP
 40
0.09
  9
$LUNITS
 70
     2
  9
$LUPREC
 70
     4
  9
$AXISMODE
 70
     0
  9
$AXISUNIT
 10
0.0
 20
0.0
  9
$SKETCHINC
 40
0.1
  9
$FILLETRAD
 40
0.0
  9
$AUNITS
 70
     0
  9
$AUPREC
 70
     0
  9
$MENU
  1
acad
  9
$ELEVATION
 40
0.0
  9
$PELEVATION
 40
0.0
  9
$THICKNESS
 40
0.0
  9
$LIMCHECK
 70
     0
  9
$BLIPMODE
 70
     1
  9
$CHAMFERA
 40
0.0
  9
$CHAMFERB
 40
0.0
  9
$SKPOLY
 70
     0
  9
$TDCREATE
 40
2451569.403969907
  9
$TDUPDATE
 40
2451569.403969907
  9
$TDINDWG
 40
0.0000000000
  9
$TDUSRTIMER
 40
0.0000000000
  9
$USRTIMER
 70
     1
  9
$ANGBASE
 50
0.0
  9
$ANGDIR
 70
     0
  9
$PDMODE
 70
     0
  9
$PDSIZE
 40
0.0
  9
$PLINEWID
 40
0.0
  9
$COORDS
 70
     0
  9
$SPLFRAME
 70
     0
  9
$SPLINETYPE
 70
     6
  9
$SPLINESEGS
 70
    10
  9
$ATTDIA
 70
     0
  9
$ATTREQ
 70
     1
  9
$HANDLING
 70
     1
  9
$HANDSEED
  5
802
  9
$SURFTAB1
 70
     6
  9
$SURFTAB2
 70
     6
  9
$SURFTYPE
 70
     6
  9
$SURFU
 70
     6
  9
$SURFV
 70
     6
  9
$UCSNAME
  2

  9
$UCSORG
 10
0.0
 20
0.0
 30
0.0
  9
$UCSXDIR
 10
1.0
 20
0.0
 30
0.0
  9
$UCSYDIR
 10
0.0
 20
1.0
 30
0.0
  9
$PUCSNAME
  2

  9
$PUCSORG
 10
0.0
 20
0.0
 30
0.0
  9
$PUCSXDIR
 10
1.0
 20
0.0
 30
0.0
  9
$PUCSYDIR
 10
0.0
 20
1.0
 30
0.0
  9
$USERI1
 70
     0
  9
$USERI2
 70
     0
  9
$USERI3
 70
     0
  9
$USERI4
 70
     0
  9
$USERI5
 70
     0
  9
$USERR1
 40
0.0
  9
$USERR2
 40
0.0
  9
$USERR3
 40
0.0
  9
$USERR4
 40
0.0
  9
$USERR5
 40
0.0
  9
$WORLDVIEW
 70
     1
  9
$SHADEDGE
 70
     3
  9
$SHADEDIF
 70
    70
  9
$TILEMODE
 70
     1
  9
$MAXACTVP
 70
    16
  9
$PINSBASE
 10
0.0
 20
0.0
 30
0.0
  9
$PLIMCHECK
 70
     0
  9
$PEXTMIN
 10
-1.000000E+20
 20
-1.000000E+20
 30
-1.000000E+20
  9
$PEXTMAX
 10
-1.000000E+20
 20
-1.000000E+20
 30
-1.000000E+20
  9
$PLIMMIN
 10
0.0
 20
0.0
  9
$PLIMMAX
 10
12.0
 20
9.0
  9
$UNITMODE
 70
     0
  9
$VISRETAIN
 70
     0
  9
$PLINEGEN
 70
     1
  9
$PSLTSCALE
 70
     0
  9
$TREEDEPTH
 70
  3020
  9
$DWGCODEPAGE
  3
ansi_1252
  0
ENDSEC
  0
SECTION
  2
TABLES
  0
TABLE
  2
VPORT
 70
     1
  0
VPORT
  2
*ACTIVE
 70
     0
 10
0.0
 20
0.0
 11
1.0
 21
1.0
 12
0.0
 22
0.0
 13
0.0
 23
0.0
 14
0.0
 24
0.0
 15
0.0
 25
0.0
 16
0.0
 26
0.0
 36
1.0
 17
17.713009
 27
46.084292
 37
0.0
 40
22.55
 41
1.647834
 42
50.0
 43
0.0
 44
0.0
 50
0.0
 51
0.0
 71
     0
 72
   100
 73
     1
 74
     0
 75
     0
 76
     0
 77
     0
 78
     0
  0
ENDTAB
  0
TABLE
  2
LTYPE
 70
     7
  0
LTYPE
  2
CONTINUOUS
 70
     0
  3
Solid line
 72
    65
 73
     0
 40
0.0
  0
LTYPE
  2
DOT
 70
    64
  3
. . . . . . . . . . . . . . . . . . . . . . . . . . . . . . . . .
 72
    65
 73
     2
 40
0.25
 49
0.0
 49
-0.25
  0
LTYPE
  2
HIDDEN
 70
    64
  3
__ __ __ __ __ __ __ __ __ __ __ __ __ __ __ __ __ __ __ __ __ 
 72
    65
 73
     2
 40
0.375
 49
0.25
 49
-0.125
  0
LTYPE
  2
DASHED
 70
    64
  3
__ __ __ __ __ __ __ __ __ __ __ __ __ __ __ __ __ __ __ __ __
 72
    65
 73
     2
 40
0.75
 49
0.5
 49
-0.25
  0
LTYPE
  2
DASHDOT
 70
    64
  3
__ . __ . __ . __ . __ . __ . __ . __ . __ . __ . __ . __ . _
 72
    65
 73
     4
 40
1.0
 49
0.5
 49
-0.25
 49
0.0
 49
-0.25
  0
LTYPE
  2
DIVIDE
 70
    64
  3
____ . . ____ . . ____ . . ____ . . ____ . . ____ . . ____ . .
 72
    65
 73
     6
 40
1.25
 49
0.5
 49
-0.25
 49
0.0
 49
-0.25
 49
0.0
 49
-0.25
  0
LTYPE
  2
CENTER
 70
    64
  3
____ _ ____ _ ____ _ ____ _ ____ _ ____ _ ____ _ ____ _ ____ _
 72
    65
 73
     4
 40
2.0
 49
1.25
 49
-0.25
 49
0.25
 49
-0.25
  0
ENDTAB
  0
TABLE
  2
LAYER
 70
    10
  0
LAYER
  2
0
 70
     0
 62
     7
  6
CONTINUOUS
  0
LAYER
  2
CONSTRUCTION_CLASS
 70
     1
 62
     7
  6
CONTINUOUS
  0
LAYER
  2
PATTERN_CLASS
 70
     0
 62
     7
  6
CONTINUOUS
  0
LAYER
  2
1
 70
    64
 62
     7
  6
CONTINUOUS
  0
LAYER
  2
5
 70
    64
 62
     7
  6
CONTINUOUS
  0
LAYER
  2
2
 70
    64
 62
     7
  6
CONTINUOUS
  0
LAYER
  2
4
 70
    64
 62
     7
  6
CONTINUOUS
  0
LAYER
  2
3
 70
    64
 62
     7
  6
CONTINUOUS
  0
LAYER
  2
7
 70
    64
 62
     7
  6
CONTINUOUS
  0
LAYER
  2
6
 70
    64
 62
     7
  6
CONTINUOUS
  0
ENDTAB
  0
TABLE
  2
STYLE
 70
     5
  0
STYLE
  2
STANDARD
 70
     0
 40
0.0
 41
1.0
 50
0.0
 71
     0
 42
0.0
  3
txt
  4

  0
STYLE
  2
ROMANS
 70
     0
 40
0.2
 41
1.0
 50
0.0
 71
     0
 42
0.2
  3
ROMANS
  4

  0
STYLE
  2
ROMANT
 70
     0
 40
0.2
 41
1.0
 50
0.0
 71
     0
 42
0.2
  3
ROMANT
  4

  0
STYLE
  2
MONOTXT
 70
     0
 40
0.2
 41
1.0
 50
0.0
 71
     0
 42
0.2
  3
MONOTXT
  4

  0
STYLE
  2
txt
 70
     0
 40
0.2
 41
1.0
 50
0.0
 71
     0
 42
0.2
  3
TXT
  4

  0
ENDTAB
  0
TABLE
  2
VIEW
 70
     0
  0
ENDTAB
  0
TABLE
  2
UCS
 70
     0
  0
ENDTAB
  0
TABLE
  2
APPID
 70
     1
  0
APPID
  2
ACAD
 70
     0
  0
ENDTAB
  0
TABLE
  2
DIMSTYLE
 70
     1
  0
DIMSTYLE
  2
STANDARD
 70
     0
  3

  4

  5

  6

  7

 40
1.0
 41
0.18
 42
0.0625
 43
0.38
 44
0.18
 45
0.0
 46
0.0
 47
0.0
 48
0.0
140
0.18
141
0.09
142
0.0
143
25.4
144
1.0
145
0.0
146
1.0
147
0.09
 71
     0
 72
     0
 73
     1
 74
     1
 75
     0
 76
     0
 77
     0
 78
     0
170
     0
171
     2
172
     0
173
     0
174
     0
175
     0
176
     0
177
     0
178
     0
  0
ENDTAB
  0
ENDSEC
  0
SECTION
  2
BLOCKS
  0
ENDSEC
  0
SECTION
  2
ENTITIES
  0
LINE
  8
1
  6
CONTINUOUS
 62
   233
  5
29
 10
6.862469
 20
39.331094
 30
0.0
 11
6.862469
 21
41.165135
 31
0.0
  0
LINE
  8
1
  6
CONTINUOUS
 62
   233
  5
2A
 10
6.890865
 20
41.908
 30
0.0
 11
6.890865
 21
42.310927
 31
0.0
  0
LINE
  8
1
  6
CONTINUOUS
 62
   233
  5
2B
 10
8.64501
 20
42.310927
 30
0.0
 11
6.890865
 21
42.310927
 31
0.0
  0
LINE
  8
1
  6
CONTINUOUS
 62
   233
  5
2C
 10
9.876594
 20
41.908
 30
0.0
 11
6.890865
 21
41.908
 31
0.0
  0
LINE
  8
1
  6
CONTINUOUS
 62
   233
  5
2D
 10
8.64501
 20
42.310927
 30
0.0
 11
9.75801
 21
41.90801
 31
0.0
  0
LINE
  8
5
  6
CONTINUOUS
 62
   217
  5
2F
 10
6.951823
 20
42.03525
 30
0.0
 11
9.336448
 21
42.03525
 31
0.0
  0
LINE
  8
5
  6
CONTINUOUS
 62
   217
  5
30
 10
6.951823
 20
41.971615
 30
0.0
 11
9.522365
 21
41.971615
 31
0.0
  0
LINE
  8
1
  6
CONTINUOUS
 62
   233
  5
31
 10
7.245875
 20
42.180115
 30
0.0
 11
7.242667
 21
42.180115
 31
0.0
  0
LINE
  8
1
  6
CONTINUOUS
 62
   233
  5
32
 10
7.142406
 20
42.180573
 30
0.0
 11
7.254802
 21
42.180573
 31
0.0
  0
LINE
  8
1
  6
CONTINUOUS
 62
   233
  5
33
 10
7.142406
 20
42.085177
 30
0.0
 11
7.254802
 21
42.085177
 31
0.0
  0
ARC
  8
1
  6
CONTINUOUS
 62
   233
  5
34
 10
7.153278
 20
42.132871
 30
0.0
 40
0.048925
 50
102.838567
 51
257.161431
210
0.0
220
0.0
230
1.0
  0
ARC
  8
1
  6
CONTINUOUS
 62
   233
  5
35
 10
7.246397
 20
42.132871
 30
0.0
 40
0.048436
 50
279.98655
 51
80.013447
210
0.0
220
0.0
230
1.0
  0
ARC
  8
1
  6
CONTINUOUS
 62
   233
  5
36
 10
8.462871
 20
42.132871
 30
0.0
 40
0.048436
 50
279.98655
 51
80.013447
210
0.0
220
0.0
230
1.0
  0
ARC
  8
1
  6
CONTINUOUS
 62
   233
  5
37
 10
8.369743
 20
42.132871
 30
0.0
 40
0.048925
 50
102.838567
 51
257.161431
210
0.0
220
0.0
230
1.0
  0
LINE
  8
1
  6
CONTINUOUS
 62
   233
  5
38
 10
8.358875
 20
42.085177
 30
0.0
 11
8.47126
 21
42.085177
 31
0.0
  0
LINE
  8
1
  6
CONTINUOUS
 62
   233
  5
39
 10
8.358875
 20
42.180573
 30
0.0
 11
8.47126
 21
42.180573
 31
0.0
  0
LINE
  8
1
  6
CONTINUOUS
 62
   233
  5
3A
 10
8.462344
 20
42.180115
 30
0.0
 11
8.459146
 21
42.180115
 31
0.0
  0
ARC
  8
1
  6
CONTINUOUS
 62
   233
  5
3B
 10
9.747185
 20
42.740161
 30
0.0
 40
0.84216
 50
278.839406
 51
129.563789
210
0.0
220
0.0
230
1.0
  0
LINE
  8
1
  6
CONTINUOUS
 62
   233
  5
3C
 10
10.589354
 20
41.38951
 30
0.0
 11
9.266573
 21
41.38951
 31
0.0
  0
LINE
  8
1
  6
CONTINUOUS
 62
   233
  5
3D
 10
10.589354
 20
39.077448
 30
0.0
 11
9.266573
 21
39.077448
 31
0.0
  0
LINE
  8
1
  6
CONTINUOUS
 62
   233
  5
3E
 10
8.820271
 20
41.165135
 30
0.0
 11
6.862469
 21
41.165135
 31
0.0
  0
LINE
  8
1
  6
CONTINUOUS
 62
   233
  5
3F
 10
8.732604
 20
39.331094
 30
0.0
 11
6.862469
 21
39.331094
 31
0.0
  0
LINE
  8
1
  6
CONTINUOUS
 62
   233
  5
40
 10
9.266573
 20
41.330021
 30
0.0
 11
8.820271
 21
41.165135
 31
0.0
  0
LINE
  8
1
  6
CONTINUOUS
 62
   233
  5
41
 10
9.266573
 20
39.077448
 30
0.0
 11
9.266573
 21
39.139792
 31
0.0
  0
LINE
  8
1
  6
CONTINUOUS
 62
   233
  5
42
 10
9.266573
 20
39.139792
 30
0.0
 11
8.732604
 21
39.331094
 31
0.0
  0
LINE
  8
1
  6
CONTINUOUS
 62
   233
  5
43
 10
9.266573
 20
41.330021
 30
0.0
 11
9.266573
 21
41.38951
 31
0.0
  0
LINE
  8
1
  6
CONTINUOUS
 62
   233
  5
44
 10
7.142406
 20
40.934021
 30
0.0
 11
7.254802
 21
40.934021
 31
0.0
  0
LINE
  8
1
  6
CONTINUOUS
 62
   233
  5
45
 10
7.142406
 20
41.029427
 30
0.0
 11
7.254802
 21
41.029427
 31
0.0
  0
ARC
  8
1
  6
CONTINUOUS
 62
   233
  5
46
 10
7.153278
 20
40.981723
 30
0.0
 40
0.048925
 50
102.838567
 51
257.161431
210
0.0
220
0.0
230
1.0
  0
ARC
  8
1
  6
CONTINUOUS
 62
   233
  5
47
 10
7.246397
 20
40.981723
 30
0.0
 40
0.048436
 50
279.98655
 51
80.013447
210
0.0
220
0.0
230
1.0
  0
LINE
  8
1
  6
CONTINUOUS
 62
   233
  5
48
 10
8.358875
 20
40.934021
 30
0.0
 11
8.47126
 21
40.934021
 31
0.0
  0
LINE
  8
1
  6
CONTINUOUS
 62
   233
  5
49
 10
8.358875
 20
41.029427
 30
0.0
 11
8.47126
 21
41.029427
 31
0.0
  0
ARC
  8
1
  6
CONTINUOUS
 62
   233
  5
4A
 10
8.369743
 20
40.981723
 30
0.0
 40
0.048925
 50
102.838567
 51
257.161431
210
0.0
220
0.0
230
1.0
  0
ARC
  8
1
  6
CONTINUOUS
 62
   233
  5
4B
 10
8.462871
 20
40.981723
 30
0.0
 40
0.048436
 50
279.98655
 51
80.013447
210
0.0
220
0.0
230
1.0
  0
LINE
  8
1
  6
CONTINUOUS
 62
   233
  5
4C
 10
7.142406
 20
39.421917
 30
0.0
 11
7.254802
 21
39.421917
 31
0.0
  0
LINE
  8
1
  6
CONTINUOUS
 62
   233
  5
4D
 10
7.142406
 20
39.517323
 30
0.0
 11
7.254802
 21
39.517323
 31
0.0
  0
ARC
  8
1
  6
CONTINUOUS
 62
   233
  5
4E
 10
7.153278
 20
39.469618
 30
0.0
 40
0.048925
 50
102.838567
 51
257.161431
210
0.0
220
0.0
230
1.0
  0
ARC
  8
1
  6
CONTINUOUS
 62
   233
  5
4F
 10
7.246397
 20
39.469618
 30
0.0
 40
0.048436
 50
279.98655
 51
80.013447
210
0.0
220
0.0
230
1.0
  0
LINE
  8
1
  6
CONTINUOUS
 62
   233
  5
50
 10
8.358875
 20
39.421917
 30
0.0
 11
8.47126
 21
39.421917
 31
0.0
  0
LINE
  8
1
  6
CONTINUOUS
 62
   233
  5
51
 10
8.358875
 20
39.517323
 30
0.0
 11
8.47126
 21
39.517323
 31
0.0
  0
ARC
  8
1
  6
CONTINUOUS
 62
   233
  5
52
 10
8.369743
 20
39.469618
 30
0.0
 40
0.048925
 50
102.838567
 51
257.161431
210
0.0
220
0.0
230
1.0
  0
ARC
  8
1
  6
CONTINUOUS
 62
   233
  5
53
 10
8.462871
 20
39.469618
 30
0.0
 40
0.048436
 50
279.98655
 51
80.013447
210
0.0
220
0.0
230
1.0
  0
LINE
  8
1
  6
CONTINUOUS
 62
   233
  5
54
 10
6.862469
 20
39.638
 30
0.0
 11
6.275906
 21
40.093927
 31
0.0
  0
LINE
  8
1
  6
CONTINUOUS
 62
   233
  5
55
 10
6.862469
 20
40.778365
 30
0.0
 11
6.278437
 21
40.390677
 31
0.0
  0
ARC
  8
1
  6
CONTINUOUS
 62
   233
  5
56
 10
6.498149
 20
40.234352
 30
0.0
 40
0.269648
 50
144.569397
 51
212.286822
210
0.0
220
0.0
230
1.0
  0
LINE
  8
5
  6
CONTINUOUS
 62
   217
  5
57
 10
6.341708
 20
40.398677
 30
0.0
 11
6.341708
 21
40.11525
 31
0.0
  0
LINE
  8
5
  6
CONTINUOUS
 62
   217
  5
58
 10
6.435125
 20
40.494687
 30
0.0
 11
6.435125
 21
40.006656
 31
0.0
  0
LINE
  8
5
  6
CONTINUOUS
 62
   217
  5
59
 10
6.533594
 20
40.531115
 30
0.0
 11
6.533594
 21
39.927187
 31
0.0
  0
LINE
  8
5
  6
CONTINUOUS
 62
   217
  5
5A
 10
6.619438
 20
40.617031
 30
0.0
 11
6.619438
 21
39.882156
 31
0.0
  0
LINE
  8
5
  6
CONTINUOUS
 62
   217
  5
5B
 10
6.672458
 20
39.813292
 30
0.0
 11
6.672458
 21
40.615875
 31
0.0
  0
LINE
  8
5
  6
CONTINUOUS
 62
   217
  5
5C
 10
6.722958
 20
40.68575
 30
0.0
 11
6.722958
 21
39.746448
 31
0.0
  0
LINE
  8
5
  6
CONTINUOUS
 62
   217
  5
5D
 10
6.760823
 20
39.739125
 30
0.0
 11
6.760823
 21
40.710896
 31
0.0
  0
LINE
  8
5
  6
CONTINUOUS
 62
   217
  5
5E
 10
6.798698
 20
40.69799
 30
0.0
 11
6.798698
 21
39.687562
 31
0.0
  0
LINE
  8
5
  6
CONTINUOUS
 62
   217
  5
5F
 10
6.831521
 20
39.686156
 30
0.0
 11
6.831521
 21
40.757823
 31
0.0
  0
LINE
  8
1
  6
CONTINUOUS
 62
   233
  5
60
 10
6.890865
 20
41.908
 30
0.0
 11
6.302896
 21
42.261854
 31
0.0
  0
LINE
  8
1
  6
CONTINUOUS
 62
   233
  5
61
 10
6.890865
 20
41.946
 30
0.0
 11
6.318719
 21
42.290312
 31
0.0
  0
LINE
  8
1
  6
CONTINUOUS
 62
   233
  5
62
 10
6.302896
 20
42.261854
 30
0.0
 11
6.318719
 21
42.290312
 31
0.0
  0
LINE
  8
5
  6
CONTINUOUS
 62
   217
  5
63
 10
6.903958
 20
41.928917
 30
0.0
 11
9.678313
 21
41.928917
 31
0.0
  0
ARC
  8
1
  6
CONTINUOUS
 62
   233
  5
64
 10
9.747185
 20
42.740161
 30
0.0
 40
0.801986
 50
263.918708
 51
129.563792
210
0.0
220
0.0
230
1.0
  0
LINE
  8
1
  6
CONTINUOUS
 62
   233
  5
65
 10
9.210781
 20
43.389396
 30
0.0
 11
9.236375
 21
43.358417
 31
0.0
  0
LINE
  8
1
  6
CONTINUOUS
 62
   233
  5
66
 10
27.061281
 20
38.37625
 30
0.0
 11
27.061281
 21
38.943896
 31
0.0
  0
LINE
  8
1
  6
CONTINUOUS
 62
   233
  5
67
 10
27.061281
 20
38.476427
 30
0.0
 11
26.971104
 21
38.476427
 31
0.0
  0
LINE
  8
1
  6
CONTINUOUS
 62
   233
  5
68
 10
27.061281
 20
38.827021
 30
0.0
 11
26.971104
 21
38.827021
 31
0.0
  0
LINE
  8
1
  6
CONTINUOUS
 62
   233
  5
69
 10
26.971104
 20
38.78251
 30
0.0
 11
26.562667
 21
38.78251
 31
0.0
  0
LINE
  8
1
  6
CONTINUOUS
 62
   233
  5
6A
 10
26.971104
 20
38.520948
 30
0.0
 11
26.562667
 21
38.520948
 31
0.0
  0
LINE
  8
1
  6
CONTINUOUS
 62
   233
  5
6B
 10
26.562667
 20
38.520948
 30
0.0
 11
26.562667
 21
38.78251
 31
0.0
  0
LINE
  8
1
  6
CONTINUOUS
 62
   233
  5
6C
 10
26.971104
 20
38.476427
 30
0.0
 11
26.971104
 21
38.827021
 31
0.0
  0
LINE
  8
1
  6
CONTINUOUS
 62
   233
  5
6D
 10
26.652844
 20
38.73799
 30
0.0
 11
26.652844
 21
38.554333
 31
0.0
  0
LINE
  8
1
  6
CONTINUOUS
 62
   233
  5
6E
 10
26.743021
 20
38.73799
 30
0.0
 11
26.743021
 21
38.559906
 31
0.0
  0
LINE
  8
1
  6
CONTINUOUS
 62
   233
  5
6F
 10
26.817281
 20
38.73799
 30
0.0
 11
26.817281
 21
38.559906
 31
0.0
  0
LINE
  8
1
  6
CONTINUOUS
 62
   233
  5
70
 10
26.907448
 20
38.743552
 30
0.0
 11
26.907448
 21
38.565469
 31
0.0
  0
LINE
  8
1
  6
CONTINUOUS
 62
   233
  5
71
 10
26.615719
 20
38.699031
 30
0.0
 11
26.615719
 21
38.615552
 31
0.0
  0
LINE
  8
1
  6
CONTINUOUS
 62
   233
  5
72
 10
26.695281
 20
38.699031
 30
0.0
 11
26.695281
 21
38.615552
 31
0.0
  0
LINE
  8
1
  6
CONTINUOUS
 62
   233
  5
73
 10
26.780146
 20
38.699031
 30
0.0
 11
26.780146
 21
38.615552
 31
0.0
  0
LINE
  8
1
  6
CONTINUOUS
 62
   233
  5
74
 10
26.854417
 20
38.699031
 30
0.0
 11
26.854417
 21
38.615552
 31
0.0
  0
LINE
  8
1
  6
CONTINUOUS
 62
   233
  5
75
 10
26.933979
 20
38.699031
 30
0.0
 11
26.933979
 21
38.615552
 31
0.0
  0
ARC
  8
1
  6
CONTINUOUS
 62
   233
  5
76
 10
26.968926
 20
38.660071
 30
0.0
 40
0.29847
 50
288.024364
 51
71.975633
210
0.0
220
0.0
230
1.0
  0
CIRCLE
  8
1
  6
CONTINUOUS
 62
   233
  5
77
 10
25.100324
 20
38.656644
 30
0.0
 40
0.245343
210
0.0
220
0.0
230
1.0
  0
CIRCLE
  8
1
  6
CONTINUOUS
 62
   233
  5
78
 10
25.100324
 20
38.652917
 30
0.0
 40
0.184896
210
0.0
220
0.0
230
1.0
  0
LINE
  8
1
  6
CONTINUOUS
 62
   233
  5
79
 10
25.370552
 20
38.503135
 30
0.0
 11
25.370552
 21
38.807698
 31
0.0
  0
LINE
  8
1
  6
CONTINUOUS
 62
   233
  5
7A
 10
24.837198
 20
38.502198
 30
0.0
 11
24.837198
 21
38.814865
 31
0.0
  0
LINE
  8
1
  6
CONTINUOUS
 62
   233
  5
7B
 10
25.103052
 20
38.964594
 30
0.0
 11
24.837198
 21
38.814865
 31
0.0
  0
LINE
  8
1
  6
CONTINUOUS
 62
   233
  5
7C
 10
25.370552
 20
38.503135
 30
0.0
 11
25.097656
 21
38.349427
 31
0.0
  0
LINE
  8
1
  6
CONTINUOUS
 62
   233
  5
7D
 10
25.370552
 20
38.807698
 30
0.0
 11
25.103052
 21
38.964594
 31
0.0
  0
LINE
  8
1
  6
CONTINUOUS
 62
   233
  5
7E
 10
25.097656
 20
38.349427
 30
0.0
 11
24.837198
 21
38.502198
 31
0.0
  0
CIRCLE
  8
5
  6
CONTINUOUS
 62
   217
  5
7F
 10
25.100324
 20
38.652917
 30
0.0
 40
0.123976
210
0.0
220
0.0
230
1.0
  0
CIRCLE
  8
1
  6
CONTINUOUS
 62
   233
  5
80
 10
25.100324
 20
38.652917
 30
0.0
 40
0.086974
210
0.0
220
0.0
230
1.0
  0
LINE
  8
5
  6
CONTINUOUS
 62
   217
  5
81
 10
9.778177
 20
39.077448
 30
0.0
 11
9.778177
 21
41.38951
 31
0.0
  0
LINE
  8
5
  6
CONTINUOUS
 62
   217
  5
82
 10
9.909646
 20
41.38951
 30
0.0
 11
9.909646
 21
39.077448
 31
0.0
  0
LINE
  8
5
  6
CONTINUOUS
 62
   217
  5
83
 10
10.13751
 20
41.38951
 30
0.0
 11
10.13751
 21
39.077448
 31
0.0
  0
LINE
  8
5
  6
CONTINUOUS
 62
   217
  5
84
 10
10.312802
 20
39.077448
 30
0.0
 11
10.312802
 21
41.38951
 31
0.0
  0
LINE
  8
5
  6
CONTINUOUS
 62
   217
  5
85
 10
10.041104
 20
41.38951
 30
0.0
 11
10.041104
 21
39.077448
 31
0.0
  0
LINE
  8
5
  6
CONTINUOUS
 62
   217
  5
86
 10
10.216385
 20
41.38951
 30
0.0
 11
10.216385
 21
39.077448
 31
0.0
  0
LINE
  8
5
  6
CONTINUOUS
 62
   217
  5
87
 10
10.374146
 20
41.38951
 30
0.0
 11
10.374146
 21
39.077448
 31
0.0
  0
LINE
  8
5
  6
CONTINUOUS
 62
   217
  5
88
 10
10.453021
 20
39.077448
 30
0.0
 11
10.453021
 21
41.38951
 31
0.0
  0
LINE
  8
5
  6
CONTINUOUS
 62
   217
  5
89
 10
10.505604
 20
41.38951
 30
0.0
 11
10.505604
 21
39.077448
 31
0.0
  0
LINE
  8
5
  6
CONTINUOUS
 62
   217
  5
8A
 10
10.558187
 20
39.077448
 30
0.0
 11
10.558187
 21
41.38951
 31
0.0
  0
LINE
  8
5
  6
CONTINUOUS
 62
   217
  5
8B
 10
6.862469
 20
40.904
 30
0.0
 11
8.665115
 21
40.904
 31
0.0
  0
LINE
  8
5
  6
CONTINUOUS
 62
   217
  5
8C
 10
8.665115
 20
40.904
 30
0.0
 11
9.068271
 21
40.995948
 31
0.0
  0
LINE
  8
5
  6
CONTINUOUS
 62
   217
  5
8D
 10
9.068271
 20
40.995948
 30
0.0
 11
9.427615
 21
41.170635
 31
0.0
  0
LINE
  8
5
  6
CONTINUOUS
 62
   217
  5
8E
 10
9.427615
 20
41.170635
 30
0.0
 11
9.713115
 21
41.38951
 31
0.0
  0
LINE
  8
5
  6
CONTINUOUS
 62
   217
  5
8F
 10
6.885979
 20
40.968365
 30
0.0
 11
7.043729
 21
40.968365
 31
0.0
  0
LINE
  8
5
  6
CONTINUOUS
 62
   217
  5
90
 10
7.324187
 20
40.959167
 30
0.0
 11
8.270729
 21
40.959167
 31
0.0
  0
LINE
  8
5
  6
CONTINUOUS
 62
   217
  5
91
 10
8.568719
 20
40.959167
 30
0.0
 11
8.805354
 21
40.995948
 31
0.0
  0
LINE
  8
5
  6
CONTINUOUS
 62
   217
  5
92
 10
8.805354
 20
40.995948
 30
0.0
 11
9.068271
 21
41.078698
 31
0.0
  0
LINE
  8
5
  6
CONTINUOUS
 62
   217
  5
93
 10
9.068271
 20
41.078698
 30
0.0
 11
9.339969
 21
41.207417
 31
0.0
  0
LINE
  8
5
  6
CONTINUOUS
 62
   217
  5
94
 10
9.339969
 20
41.207417
 30
0.0
 11
9.585875
 21
41.38951
 31
0.0
  0
LINE
  8
5
  6
CONTINUOUS
 62
   217
  5
95
 10
6.862469
 20
41.040219
 30
0.0
 11
7.070021
 21
41.051104
 31
0.0
  0
LINE
  8
5
  6
CONTINUOUS
 62
   217
  5
96
 10
8.270729
 20
41.051104
 30
0.0
 11
7.332958
 21
41.041917
 31
0.0
  0
LINE
  8
5
  6
CONTINUOUS
 62
   217
  5
97
 10
8.551187
 20
41.051104
 30
0.0
 11
8.761521
 21
41.060302
 31
0.0
  0
LINE
  8
5
  6
CONTINUOUS
 62
   217
  5
98
 10
8.875458
 20
41.0695
 30
0.0
 11
9.05951
 21
41.143052
 31
0.0
  0
LINE
  8
5
  6
CONTINUOUS
 62
   217
  5
99
 10
9.155917
 20
41.179823
 30
0.0
 11
9.519323
 21
41.38951
 31
0.0
  0
LINE
  8
5
  6
CONTINUOUS
 62
   217
  5
9A
 10
6.862469
 20
41.106271
 30
0.0
 11
8.542417
 21
41.106271
 31
0.0
  0
LINE
  8
5
  6
CONTINUOUS
 62
   217
  5
9B
 10
8.647583
 20
41.106271
 30
0.0
 11
8.884219
 21
41.143052
 31
0.0
  0
LINE
  8
5
  6
CONTINUOUS
 62
   217
  5
9C
 10
8.998156
 20
41.170635
 30
0.0
 11
9.460146
 21
41.38951
 31
0.0
  0
LINE
  8
5
  6
CONTINUOUS
 62
   217
  5
9D
 10
8.998156
 20
39.325594
 30
0.0
 11
9.521917
 21
39.077448
 31
0.0
  0
LINE
  8
5
  6
CONTINUOUS
 62
   217
  5
9E
 10
8.647583
 20
39.389958
 30
0.0
 11
8.884219
 21
39.353177
 31
0.0
  0
LINE
  8
5
  6
CONTINUOUS
 62
   217
  5
9F
 10
6.862469
 20
39.389958
 30
0.0
 11
8.542417
 21
39.389958
 31
0.0
  0
LINE
  8
5
  6
CONTINUOUS
 62
   217
  5
A0
 10
9.155917
 20
39.316406
 30
0.0
 11
9.570052
 21
39.077448
 31
0.0
  0
LINE
  8
5
  6
CONTINUOUS
 62
   217
  5
A1
 10
8.875458
 20
39.426729
 30
0.0
 11
9.05951
 21
39.353177
 31
0.0
  0
LINE
  8
5
  6
CONTINUOUS
 62
   217
  5
A2
 10
8.551187
 20
39.445115
 30
0.0
 11
8.761521
 21
39.435927
 31
0.0
  0
LINE
  8
5
  6
CONTINUOUS
 62
   217
  5
A3
 10
8.270729
 20
39.445115
 30
0.0
 11
7.332958
 21
39.454323
 31
0.0
  0
LINE
  8
5
  6
CONTINUOUS
 62
   217
  5
A4
 10
6.89474
 20
39.454323
 30
0.0
 11
7.070021
 21
39.445115
 31
0.0
  0
LINE
  8
5
  6
CONTINUOUS
 62
   217
  5
A5
 10
9.339969
 20
39.288812
 30
0.0
 11
9.625396
 21
39.077448
 31
0.0
  0
LINE
  8
5
  6
CONTINUOUS
 62
   217
  5
A6
 10
9.068271
 20
39.417542
 30
0.0
 11
9.339969
 21
39.288812
 31
0.0
  0
LINE
  8
5
  6
CONTINUOUS
 62
   217
  5
A7
 10
8.805354
 20
39.500292
 30
0.0
 11
9.068271
 21
39.417542
 31
0.0
  0
LINE
  8
5
  6
CONTINUOUS
 62
   217
  5
A8
 10
8.568719
 20
39.537073
 30
0.0
 11
8.805354
 21
39.500292
 31
0.0
  0
LINE
  8
5
  6
CONTINUOUS
 62
   217
  5
A9
 10
7.324187
 20
39.537073
 30
0.0
 11
8.270729
 21
39.537073
 31
0.0
  0
LINE
  8
5
  6
CONTINUOUS
 62
   217
  5
AA
 10
6.862469
 20
39.527865
 30
0.0
 11
7.043729
 21
39.527865
 31
0.0
  0
LINE
  8
5
  6
CONTINUOUS
 62
   217
  5
AB
 10
9.427615
 20
39.325594
 30
0.0
 11
9.751281
 21
39.077448
 31
0.0
  0
LINE
  8
5
  6
CONTINUOUS
 62
   217
  5
AC
 10
9.068271
 20
39.500292
 30
0.0
 11
9.427615
 21
39.325594
 31
0.0
  0
LINE
  8
5
  6
CONTINUOUS
 62
   217
  5
AD
 10
8.665115
 20
39.592229
 30
0.0
 11
9.068271
 21
39.500292
 31
0.0
  0
LINE
  8
5
  6
CONTINUOUS
 62
   217
  5
AE
 10
6.862469
 20
39.592229
 30
0.0
 11
8.665115
 21
39.592229
 31
0.0
  0
LINE
  8
5
  6
CONTINUOUS
 62
   217
  5
AF
 10
7.332958
 20
42.09926
 30
0.0
 11
8.226906
 21
42.09926
 31
0.0
  0
LINE
  8
5
  6
CONTINUOUS
 62
   217
  5
B0
 10
8.568719
 20
42.09926
 30
0.0
 11
9.129625
 21
42.09926
 31
0.0
  0
LINE
  8
1
  6
CONTINUOUS
 62
   150
  5
B1
 10
13.213615
 20
40.288417
 30
0.0
 11
16.571729
 21
40.288417
 31
0.0
  0
LINE
  8
1
  6
CONTINUOUS
 62
   150
  5
B2
 10
12.938094
 20
37.718187
 30
0.0
 11
16.278969
 21
37.718187
 31
0.0
  0
LINE
  8
1
  6
CONTINUOUS
 62
   150
  5
B3
 10
16.278969
 20
37.718187
 30
0.0
 11
16.352615
 21
38.364667
 31
0.0
  0
LINE
  8
1
  6
CONTINUOUS
 62
   150
  5
B4
 10
12.938094
 20
37.718187
 30
0.0
 11
12.977125
 21
38.082354
 31
0.0
  0
LINE
  8
1
  6
CONTINUOUS
 62
   150
  5
B5
 10
13.688052
 20
40.144677
 30
0.0
 11
13.830333
 21
40.144677
 31
0.0
  0
LINE
  8
1
  6
CONTINUOUS
 62
   150
  5
B6
 10
13.688052
 20
40.019344
 30
0.0
 11
13.830333
 21
40.019344
 31
0.0
  0
ARC
  8
1
  6
CONTINUOUS
 62
   150
  5
B7
 10
13.694236
 20
40.082016
 30
0.0
 40
0.062972
 50
95.632714
 51
264.367283
210
0.0
220
0.0
230
1.0
  0
ARC
  8
1
  6
CONTINUOUS
 62
   150
  5
B8
 10
13.824153
 20
40.082016
 30
0.0
 40
0.062972
 50
275.632714
 51
84.367283
210
0.0
220
0.0
230
1.0
  0
LINE
  8
5
  6
CONTINUOUS
 62
   150
  5
B9
 10
13.165188
 20
39.836646
 30
0.0
 11
16.520271
 21
39.836646
 31
0.0
  0
LINE
  8
5
  6
CONTINUOUS
 62
   150
  5
BA
 10
13.172031
 20
39.900479
 30
0.0
 11
16.527542
 21
39.900479
 31
0.0
  0
LINE
  8
2
  6
HIDDEN
 62
     2
  5
BC
 10
14.002313
 20
37.718187
 30
0.0
 11
14.002313
 21
40.288417
 31
0.0
  0
LINE
  8
2
  6
HIDDEN
 62
     2
  5
BD
 10
15.301333
 20
37.718187
 30
0.0
 11
15.301333
 21
40.288417
 31
0.0
  0
ARC
  8
1
  6
CONTINUOUS
 62
   150
  5
BE
 10
15.608896
 20
40.082016
 30
0.0
 40
0.062972
 50
275.632714
 51
84.367283
210
0.0
220
0.0
230
1.0
  0
ARC
  8
1
  6
CONTINUOUS
 62
   150
  5
BF
 10
15.478979
 20
40.082016
 30
0.0
 40
0.062972
 50
95.632714
 51
264.367283
210
0.0
220
0.0
230
1.0
  0
LINE
  8
1
  6
CONTINUOUS
 62
   150
  5
C0
 10
15.472802
 20
40.019344
 30
0.0
 11
15.615083
 21
40.019344
 31
0.0
  0
LINE
  8
1
  6
CONTINUOUS
 62
   150
  5
C1
 10
15.472802
 20
40.144677
 30
0.0
 11
15.615083
 21
40.144677
 31
0.0
  0
LINE
  8
2
  6
HIDDEN
 62
     2
  5
C2
 10
15.301333
 20
37.718187
 30
0.0
 11
15.301333
 21
39.525562
 31
0.0
  0
LINE
  8
2
  6
HIDDEN
 62
     2
  5
C3
 10
14.002313
 20
37.718187
 30
0.0
 11
14.002313
 21
39.508083
 31
0.0
  0
CIRCLE
  8
1
  6
CONTINUOUS
 62
   150
  5
C4
 10
14.652974
 20
39.016116
 30
0.0
 40
0.172598
210
0.0
220
0.0
230
1.0
  0
ARC
  8
5
  6
CONTINUOUS
 62
   150
  5
C5
 10
14.894631
 20
39.016116
 30
0.0
 40
0.073163
 50
270.0
 51
90.0
210
0.0
220
0.0
230
1.0
  0
ARC
  8
5
  6
CONTINUOUS
 62
   150
  5
C6
 10
14.411308
 20
39.016116
 30
0.0
 40
0.073163
 50
90.0
 51
270.0
210
0.0
220
0.0
230
1.0
  0
LINE
  8
5
  6
CONTINUOUS
 62
   217
  5
C7
 10
14.411312
 20
39.089292
 30
0.0
 11
14.496646
 21
39.089292
 31
0.0
  0
LINE
  8
5
  6
CONTINUOUS
 62
   150
  5
C8
 10
14.894635
 20
38.942958
 30
0.0
 11
14.809292
 21
38.942958
 31
0.0
  0
LINE
  8
5
  6
CONTINUOUS
 62
   150
  5
C9
 10
14.496646
 20
38.942958
 30
0.0
 11
14.411312
 21
38.942958
 31
0.0
  0
LINE
  8
5
  6
CONTINUOUS
 62
   217
  5
CA
 10
14.809292
 20
39.089292
 30
0.0
 11
14.894635
 21
39.089292
 31
0.0
  0
CIRCLE
  8
5
  6
CONTINUOUS
 62
   150
  5
CB
 10
14.652974
 20
39.016116
 30
0.0
 40
0.155187
210
0.0
220
0.0
230
1.0
  0
CIRCLE
  8
5
  6
CONTINUOUS
 62
   150
  5
CC
 10
14.652974
 20
39.016116
 30
0.0
 40
0.119561
210
0.0
220
0.0
230
1.0
  0
CIRCLE
  8
5
  6
CONTINUOUS
 62
   150
  5
CD
 10
14.652974
 20
39.016116
 30
0.0
 40
0.119561
210
0.0
220
0.0
230
1.0
  0
CIRCLE
  8
5
  6
CONTINUOUS
 62
   150
  5
CE
 10
14.652974
 20
39.016116
 30
0.0
 40
0.107686
210
0.0
220
0.0
230
1.0
  0
CIRCLE
  8
5
  6
CONTINUOUS
 62
   217
  5
CF
 10
14.652974
 20
39.016116
 30
0.0
 40
0.064496
210
0.0
220
0.0
230
1.0
  0
LINE
  8
2
  6
HIDDEN
 62
     2
  5
D0
 10
15.891125
 20
37.718187
 30
0.0
 11
15.891125
 21
40.288417
 31
0.0
  0
LINE
  8
2
  6
HIDDEN
 62
     2
  5
D1
 10
13.42274
 20
37.718187
 30
0.0
 11
13.42274
 21
40.288417
 31
0.0
  0
LINE
  8
1
  6
CONTINUOUS
 62
   233
  5
D2
 10
10.589354
 20
41.38951
 30
0.0
 11
10.589354
 21
39.077448
 31
0.0
  0
LINE
  8
5
  6
CONTINUOUS
 62
   217
  5
D3
 10
9.266573
 20
41.330021
 30
0.0
 11
9.3815
 21
41.38951
 31
0.0
  0
LINE
  8
5
  6
CONTINUOUS
 62
   217
  5
D4
 10
9.266573
 20
41.374094
 30
0.0
 11
9.351719
 21
41.374094
 31
0.0
  0
LINE
  8
5
  6
CONTINUOUS
 62
   217
  5
D5
 10
9.266573
 20
41.355719
 30
0.0
 11
9.316219
 21
41.355719
 31
0.0
  0
LINE
  8
5
  6
CONTINUOUS
 62
   217
  5
D6
 10
9.266573
 20
39.139792
 30
0.0
 11
9.433625
 21
39.077448
 31
0.0
  0
LINE
  8
5
  6
CONTINUOUS
 62
   217
  5
D7
 10
9.266573
 20
39.110833
 30
0.0
 11
9.344188
 21
39.110833
 31
0.0
  0
LINE
  8
5
  6
CONTINUOUS
 62
   217
  5
D8
 10
9.266573
 20
39.094854
 30
0.0
 11
9.386979
 21
39.094854
 31
0.0
  0
LINE
  8
5
  6
CONTINUOUS
 62
   217
  5
D9
 10
9.266573
 20
39.08599
 30
0.0
 11
9.41075
 21
39.08599
 31
0.0
  0
LINE
  8
5
  6
CONTINUOUS
 62
   150
  5
DA
 10
13.205792
 20
40.215365
 30
0.0
 11
16.563406
 21
40.215365
 31
0.0
  0
LINE
  8
5
  6
CONTINUOUS
 62
   150
  5
DB
 10
13.206865
 20
40.22549
 30
0.0
 11
16.564573
 21
40.22549
 31
0.0
  0
LINE
  8
5
  6
CONTINUOUS
 62
   150
  5
DC
 10
13.207958
 20
40.235604
 30
0.0
 11
16.565719
 21
40.235604
 31
0.0
  0
LINE
  8
5
  6
CONTINUOUS
 62
   150
  5
DD
 10
13.209042
 20
40.24574
 30
0.0
 11
16.566875
 21
40.24574
 31
0.0
  0
LINE
  8
5
  6
CONTINUOUS
 62
   150
  5
DE
 10
13.211344
 20
40.26725
 30
0.0
 11
16.569323
 21
40.26725
 31
0.0
  0
LINE
  8
5
  6
CONTINUOUS
 62
   150
  5
DF
 10
13.169177
 20
39.873833
 30
0.0
 11
16.522469
 21
39.873833
 31
0.0
  0
LINE
  8
5
  6
CONTINUOUS
 62
   150
  5
E0
 10
13.174885
 20
39.927115
 30
0.0
 11
16.530583
 21
39.927115
 31
0.0
  0
LINE
  8
5
  6
CONTINUOUS
 62
   150
  5
E1
 10
13.17774
 20
39.95375
 30
0.0
 11
16.533615
 21
39.95375
 31
0.0
  0
LINE
  8
5
  6
CONTINUOUS
 62
   150
  5
E2
 10
13.180594
 20
39.980375
 30
0.0
 11
16.536646
 21
39.980375
 31
0.0
  0
LINE
  8
5
  6
CONTINUOUS
 62
   150
  5
E3
 10
13.183448
 20
40.00701
 30
0.0
 11
16.539677
 21
40.00701
 31
0.0
  0
LINE
  8
5
  6
CONTINUOUS
 62
   150
  5
E4
 10
13.186177
 20
40.032396
 30
0.0
 11
13.655458
 21
40.032396
 31
0.0
  0
LINE
  8
5
  6
CONTINUOUS
 62
   150
  5
E5
 10
13.189031
 20
40.059031
 30
0.0
 11
13.635615
 21
40.059031
 31
0.0
  0
LINE
  8
5
  6
CONTINUOUS
 62
   150
  5
E6
 10
13.191969
 20
40.086479
 30
0.0
 11
13.631427
 21
40.086479
 31
0.0
  0
LINE
  8
5
  6
CONTINUOUS
 62
   150
  5
E7
 10
13.194698
 20
40.111854
 30
0.0
 11
13.638792
 21
40.111854
 31
0.0
  0
LINE
  8
5
  6
CONTINUOUS
 62
   150
  5
E8
 10
13.197542
 20
40.1385
 30
0.0
 11
13.666385
 21
40.1385
 31
0.0
  0
LINE
  8
5
  6
CONTINUOUS
 62
   150
  5
E9
 10
13.204073
 20
40.199396
 30
0.0
 11
16.561594
 21
40.199396
 31
0.0
  0
LINE
  8
5
  6
CONTINUOUS
 62
   150
  5
EA
 10
13.202313
 20
40.183
 30
0.0
 11
16.559729
 21
40.183
 31
0.0
  0
LINE
  8
5
  6
CONTINUOUS
 62
   150
  5
EB
 10
13.200188
 20
40.163177
 30
0.0
 11
16.557469
 21
40.163177
 31
0.0
  0
LINE
  8
5
  6
CONTINUOUS
 62
   150
  5
EC
 10
15.647677
 20
40.032396
 30
0.0
 11
16.542573
 21
40.032396
 31
0.0
  0
LINE
  8
5
  6
CONTINUOUS
 62
   150
  5
ED
 10
15.664354
 20
40.111854
 30
0.0
 11
16.551625
 21
40.111854
 31
0.0
  0
LINE
  8
5
  6
CONTINUOUS
 62
   150
  5
EE
 10
15.671719
 20
40.086479
 30
0.0
 11
16.548729
 21
40.086479
 31
0.0
  0
LINE
  8
5
  6
CONTINUOUS
 62
   150
  5
EF
 10
15.667531
 20
40.059031
 30
0.0
 11
16.545604
 21
40.059031
 31
0.0
  0
LINE
  8
5
  6
CONTINUOUS
 62
   150
  5
F0
 10
15.63674
 20
40.1385
 30
0.0
 11
16.554656
 21
40.1385
 31
0.0
  0
LINE
  8
5
  6
CONTINUOUS
 62
   150
  5
F1
 10
13.852
 20
40.1385
 30
0.0
 11
15.451135
 21
40.1385
 31
0.0
  0
LINE
  8
5
  6
CONTINUOUS
 62
   150
  5
F2
 10
13.879604
 20
40.111854
 30
0.0
 11
15.423531
 21
40.111854
 31
0.0
  0
LINE
  8
5
  6
CONTINUOUS
 62
   150
  5
F3
 10
13.886969
 20
40.086479
 30
0.0
 11
15.416167
 21
40.086479
 31
0.0
  0
LINE
  8
5
  6
CONTINUOUS
 62
   150
  5
F4
 10
13.882781
 20
40.059031
 30
0.0
 11
15.420354
 21
40.059031
 31
0.0
  0
LINE
  8
5
  6
CONTINUOUS
 62
   150
  5
F5
 10
13.862937
 20
40.032396
 30
0.0
 11
15.440198
 21
40.032396
 31
0.0
  0
LINE
  8
5
  6
CONTINUOUS
 62
   150
  5
F6
 10
13.210104
 20
40.255573
 30
0.0
 11
16.568
 21
40.255573
 31
0.0
  0
LINE
  8
5
  6
CONTINUOUS
 62
   217
  5
F7
 10
13.212573
 20
40.278667
 30
0.0
 11
16.570625
 21
40.278667
 31
0.0
  0
LINE
  8
5
  6
CONTINUOUS
 62
   150
  5
F8
 10
13.102125
 20
39.248323
 30
0.0
 11
16.45326
 21
39.248323
 31
0.0
  0
LINE
  8
5
  6
CONTINUOUS
 62
   150
  5
F9
 10
13.104594
 20
39.271417
 30
0.0
 11
16.455896
 21
39.271417
 31
0.0
  0
LINE
  8
5
  6
CONTINUOUS
 62
   150
  5
FA
 10
13.87676
 20
39.494594
 30
0.0
 11
15.454021
 21
39.494594
 31
0.0
  0
LINE
  8
5
  6
CONTINUOUS
 62
   150
  5
FB
 10
13.896604
 20
39.467948
 30
0.0
 11
15.434177
 21
39.467948
 31
0.0
  0
LINE
  8
5
  6
CONTINUOUS
 62
   150
  5
FC
 10
13.900792
 20
39.44051
 30
0.0
 11
15.42999
 21
39.44051
 31
0.0
  0
LINE
  8
5
  6
CONTINUOUS
 62
   150
  5
FD
 10
13.893427
 20
39.415125
 30
0.0
 11
15.437354
 21
39.415125
 31
0.0
  0
LINE
  8
5
  6
CONTINUOUS
 62
   150
  5
FE
 10
13.865823
 20
39.3885
 30
0.0
 11
15.464958
 21
39.3885
 31
0.0
  0
LINE
  8
5
  6
CONTINUOUS
 62
   150
  5
FF
 10
15.650562
 20
39.3885
 30
0.0
 11
16.469229
 21
39.3885
 31
0.0
  0
LINE
  8
5
  6
CONTINUOUS
 62
   150
  5
100
 10
15.681354
 20
39.467948
 30
0.0
 11
16.52499
 21
39.467948
 31
0.0
  0
LINE
  8
5
  6
CONTINUOUS
 62
   150
  5
101
 10
15.685542
 20
39.44051
 30
0.0
 11
16.475156
 21
39.44051
 31
0.0
  0
LINE
  8
5
  6
CONTINUOUS
 62
   150
  5
102
 10
15.678167
 20
39.415125
 30
0.0
 11
16.472271
 21
39.415125
 31
0.0
  0
LINE
  8
5
  6
CONTINUOUS
 62
   150
  5
103
 10
15.6615
 20
39.494594
 30
0.0
 11
16.545406
 21
39.494594
 31
0.0
  0
LINE
  8
5
  6
CONTINUOUS
 62
   150
  5
104
 10
13.153938
 20
39.363823
 30
0.0
 11
16.466417
 21
39.363823
 31
0.0
  0
LINE
  8
5
  6
CONTINUOUS
 62
   150
  5
105
 10
13.121052
 20
39.34399
 30
0.0
 11
16.464156
 21
39.34399
 31
0.0
  0
LINE
  8
5
  6
CONTINUOUS
 62
   150
  5
106
 10
13.110615
 20
39.327594
 30
0.0
 11
16.462292
 21
39.327594
 31
0.0
  0
LINE
  8
5
  6
CONTINUOUS
 62
   150
  5
107
 10
13.194885
 20
39.3885
 30
0.0
 11
13.680208
 21
39.3885
 31
0.0
  0
LINE
  8
5
  6
CONTINUOUS
 62
   150
  5
108
 10
13.189552
 20
39.415125
 30
0.0
 11
13.652604
 21
39.415125
 31
0.0
  0
LINE
  8
5
  6
CONTINUOUS
 62
   150
  5
109
 10
13.175406
 20
39.44051
 30
0.0
 11
13.64525
 21
39.44051
 31
0.0
  0
LINE
  8
5
  6
CONTINUOUS
 62
   150
  5
10A
 10
13.160125
 20
39.467948
 30
0.0
 11
13.649427
 21
39.467948
 31
0.0
  0
LINE
  8
5
  6
CONTINUOUS
 62
   150
  5
10B
 10
13.145292
 20
39.494594
 30
0.0
 11
13.669281
 21
39.494594
 31
0.0
  0
LINE
  8
5
  6
CONTINUOUS
 62
   150
  5
10C
 10
13.13124
 20
39.519969
 30
0.0
 11
16.527958
 21
39.519969
 31
0.0
  0
LINE
  8
5
  6
CONTINUOUS
 62
   150
  5
10D
 10
13.116302
 20
39.546615
 30
0.0
 11
16.509646
 21
39.546615
 31
0.0
  0
LINE
  8
5
  6
CONTINUOUS
 62
   150
  5
10E
 10
13.101469
 20
39.57325
 30
0.0
 11
16.490271
 21
39.57325
 31
0.0
  0
LINE
  8
5
  6
CONTINUOUS
 62
   150
  5
10F
 10
13.086625
 20
39.599875
 30
0.0
 11
16.473021
 21
39.599875
 31
0.0
  0
LINE
  8
5
  6
CONTINUOUS
 62
   150
  5
110
 10
13.066125
 20
39.653156
 30
0.0
 11
16.436385
 21
39.653156
 31
0.0
  0
LINE
  8
5
  6
CONTINUOUS
 62
   150
  5
111
 10
13.103344
 20
39.25975
 30
0.0
 11
16.454562
 21
39.25975
 31
0.0
  0
LINE
  8
5
  6
CONTINUOUS
 62
   150
  5
112
 10
13.105646
 20
39.28125
 30
0.0
 11
16.45701
 21
39.28125
 31
0.0
  0
LINE
  8
5
  6
CONTINUOUS
 62
   150
  5
113
 10
13.10674
 20
39.291385
 30
0.0
 11
16.458167
 21
39.291385
 31
0.0
  0
LINE
  8
5
  6
CONTINUOUS
 62
   150
  5
114
 10
13.107813
 20
39.3015
 30
0.0
 11
16.459323
 21
39.3015
 31
0.0
  0
LINE
  8
5
  6
CONTINUOUS
 62
   150
  5
115
 10
13.108906
 20
39.311635
 30
0.0
 11
16.460469
 21
39.311635
 31
0.0
  0
LINE
  8
1
  6
CONTINUOUS
 62
   150
  5
116
 10
15.486625
 20
39.382302
 30
0.0
 11
15.628896
 21
39.382302
 31
0.0
  0
LINE
  8
1
  6
CONTINUOUS
 62
   233
  5
117
 10
15.486625
 20
39.507646
 30
0.0
 11
15.628896
 21
39.507646
 31
0.0
  0
ARC
  8
1
  6
CONTINUOUS
 62
   150
  5
118
 10
15.492801
 20
39.444976
 30
0.0
 40
0.062972
 50
95.632714
 51
264.367283
210
0.0
220
0.0
230
1.0
  0
ARC
  8
1
  6
CONTINUOUS
 62
   150
  5
119
 10
15.622718
 20
39.444976
 30
0.0
 40
0.062972
 50
275.632714
 51
84.367283
210
0.0
220
0.0
230
1.0
  0
LINE
  8
5
  6
CONTINUOUS
 62
   150
  5
11A
 10
13.071802
 20
39.62651
 30
0.0
 11
16.454698
 21
39.62651
 31
0.0
  0
LINE
  8
5
  6
CONTINUOUS
 62
   150
  5
11B
 10
13.115937
 20
39.690344
 30
0.0
 11
16.410812
 21
39.690344
 31
0.0
  0
ARC
  8
1
  6
CONTINUOUS
 62
   150
  5
11C
 10
13.837974
 20
39.444976
 30
0.0
 40
0.062972
 50
275.632714
 51
84.367283
210
0.0
220
0.0
230
1.0
  0
ARC
  8
1
  6
CONTINUOUS
 62
   150
  5
11D
 10
13.708057
 20
39.444976
 30
0.0
 40
0.062972
 50
95.632714
 51
264.367283
210
0.0
220
0.0
230
1.0
  0
LINE
  8
1
  6
CONTINUOUS
 62
   150
  5
11E
 10
13.701875
 20
39.507646
 30
0.0
 11
13.844156
 21
39.507646
 31
0.0
  0
LINE
  8
1
  6
CONTINUOUS
 62
   150
  5
11F
 10
13.701875
 20
39.382302
 30
0.0
 11
13.844156
 21
39.382302
 31
0.0
  0
LINE
  8
1
  6
CONTINUOUS
 62
   150
  5
120
 10
13.701875
 20
37.868667
 30
0.0
 11
13.844156
 21
37.868667
 31
0.0
  0
LINE
  8
1
  6
CONTINUOUS
 62
   233
  5
121
 10
13.701875
 20
37.99401
 30
0.0
 11
13.844156
 21
37.99401
 31
0.0
  0
ARC
  8
1
  6
CONTINUOUS
 62
   150
  5
122
 10
13.708057
 20
37.931339
 30
0.0
 40
0.062972
 50
95.632714
 51
264.367283
210
0.0
220
0.0
230
1.0
  0
ARC
  8
1
  6
CONTINUOUS
 62
   150
  5
123
 10
13.837974
 20
37.931339
 30
0.0
 40
0.062972
 50
275.632714
 51
84.367283
210
0.0
220
0.0
230
1.0
  0
LINE
  8
5
  6
CONTINUOUS
 62
   150
  5
124
 10
13.034729
 20
38.176708
 30
0.0
 11
16.331198
 21
38.176708
 31
0.0
  0
LINE
  8
5
  6
CONTINUOUS
 62
   150
  5
125
 10
13.017208
 20
38.112875
 30
0.0
 11
16.323927
 21
38.112875
 31
0.0
  0
LINE
  8
5
  6
CONTINUOUS
 62
   150
  5
126
 10
12.946646
 20
37.798
 30
0.0
 11
16.288062
 21
37.798
 31
0.0
  0
LINE
  8
5
  6
CONTINUOUS
 62
   150
  5
127
 10
12.945552
 20
37.787865
 30
0.0
 11
16.286906
 21
37.787865
 31
0.0
  0
LINE
  8
5
  6
CONTINUOUS
 62
   150
  5
128
 10
12.944479
 20
37.77774
 30
0.0
 11
16.28575
 21
37.77774
 31
0.0
  0
LINE
  8
5
  6
CONTINUOUS
 62
   150
  5
129
 10
12.943385
 20
37.767615
 30
0.0
 11
16.284604
 21
37.767615
 31
0.0
  0
LINE
  8
5
  6
CONTINUOUS
 62
   150
  5
12A
 10
12.941083
 20
37.746115
 30
0.0
 11
16.282146
 21
37.746115
 31
0.0
  0
LINE
  8
5
  6
CONTINUOUS
 62
   150
  5
12B
 10
13.052198
 20
38.13951
 30
0.0
 11
16.326958
 21
38.13951
 31
0.0
  0
LINE
  8
5
  6
CONTINUOUS
 62
   150
  5
12C
 10
12.982229
 20
38.08624
 30
0.0
 11
16.320896
 21
38.08624
 31
0.0
  0
LINE
  8
5
  6
CONTINUOUS
 62
   150
  5
12D
 10
12.974688
 20
38.059604
 30
0.0
 11
16.317854
 21
38.059604
 31
0.0
  0
LINE
  8
5
  6
CONTINUOUS
 62
   150
  5
12E
 10
12.971833
 20
38.032969
 30
0.0
 11
16.314823
 21
38.032969
 31
0.0
  0
LINE
  8
5
  6
CONTINUOUS
 62
   150
  5
12F
 10
12.968969
 20
38.006333
 30
0.0
 11
16.311792
 21
38.006333
 31
0.0
  0
LINE
  8
5
  6
CONTINUOUS
 62
   150
  5
130
 10
12.96626
 20
37.980948
 30
0.0
 11
13.669281
 21
37.980948
 31
0.0
  0
LINE
  8
5
  6
CONTINUOUS
 62
   150
  5
131
 10
12.963396
 20
37.954313
 30
0.0
 11
13.649427
 21
37.954313
 31
0.0
  0
LINE
  8
5
  6
CONTINUOUS
 62
   150
  5
132
 10
12.960458
 20
37.926875
 30
0.0
 11
13.64525
 21
37.926875
 31
0.0
  0
LINE
  8
5
  6
CONTINUOUS
 62
   150
  5
133
 10
12.95774
 20
37.90149
 30
0.0
 11
13.652604
 21
37.90149
 31
0.0
  0
LINE
  8
5
  6
CONTINUOUS
 62
   150
  5
134
 10
12.954875
 20
37.874854
 30
0.0
 11
13.680208
 21
37.874854
 31
0.0
  0
LINE
  8
5
  6
CONTINUOUS
 62
   150
  5
135
 10
12.948354
 20
37.813958
 30
0.0
 11
16.289875
 21
37.813958
 31
0.0
  0
LINE
  8
5
  6
CONTINUOUS
 62
   150
  5
136
 10
12.950115
 20
37.830344
 30
0.0
 11
16.29175
 21
37.830344
 31
0.0
  0
LINE
  8
5
  6
CONTINUOUS
 62
   150
  5
137
 10
12.95224
 20
37.850177
 30
0.0
 11
16.29401
 21
37.850177
 31
0.0
  0
LINE
  8
5
  6
CONTINUOUS
 62
   150
  5
138
 10
13.865823
 20
37.874854
 30
0.0
 11
15.464958
 21
37.874854
 31
0.0
  0
LINE
  8
5
  6
CONTINUOUS
 62
   150
  5
139
 10
13.893427
 20
37.90149
 30
0.0
 11
15.437354
 21
37.90149
 31
0.0
  0
LINE
  8
5
  6
CONTINUOUS
 62
   150
  5
13A
 10
13.900792
 20
37.926875
 30
0.0
 11
15.42999
 21
37.926875
 31
0.0
  0
LINE
  8
5
  6
CONTINUOUS
 62
   150
  5
13B
 10
13.896604
 20
37.954313
 30
0.0
 11
15.434177
 21
37.954313
 31
0.0
  0
LINE
  8
5
  6
CONTINUOUS
 62
   150
  5
13C
 10
13.87676
 20
37.980948
 30
0.0
 11
15.454021
 21
37.980948
 31
0.0
  0
LINE
  8
5
  6
CONTINUOUS
 62
   150
  5
13D
 10
12.942333
 20
37.757781
 30
0.0
 11
16.283479
 21
37.757781
 31
0.0
  0
LINE
  8
5
  6
CONTINUOUS
 62
   150
  5
13E
 10
12.939854
 20
37.734688
 30
0.0
 11
16.280844
 21
37.734688
 31
0.0
  0
LINE
  8
5
  6
CONTINUOUS
 62
   150
  5
13F
 10
13.050313
 20
38.765031
 30
0.0
 11
16.398208
 21
38.765031
 31
0.0
  0
LINE
  8
5
  6
CONTINUOUS
 62
   150
  5
140
 10
13.047833
 20
38.741937
 30
0.0
 11
16.395583
 21
38.741937
 31
0.0
  0
LINE
  8
5
  6
CONTINUOUS
 62
   150
  5
141
 10
13.862937
 20
38.51876
 30
0.0
 11
15.440198
 21
38.51876
 31
0.0
  0
LINE
  8
5
  6
CONTINUOUS
 62
   150
  5
142
 10
13.882781
 20
38.545396
 30
0.0
 11
15.420354
 21
38.545396
 31
0.0
  0
LINE
  8
5
  6
CONTINUOUS
 62
   150
  5
143
 10
13.886969
 20
38.572833
 30
0.0
 11
15.416167
 21
38.572833
 31
0.0
  0
LINE
  8
5
  6
CONTINUOUS
 62
   150
  5
144
 10
13.879604
 20
38.598219
 30
0.0
 11
15.423531
 21
38.598219
 31
0.0
  0
LINE
  8
5
  6
CONTINUOUS
 62
   150
  5
145
 10
13.852
 20
38.624854
 30
0.0
 11
15.451135
 21
38.624854
 31
0.0
  0
LINE
  8
5
  6
CONTINUOUS
 62
   150
  5
146
 10
13.037927
 20
38.649531
 30
0.0
 11
16.282094
 21
38.649531
 31
0.0
  0
LINE
  8
5
  6
CONTINUOUS
 62
   150
  5
147
 10
13.040052
 20
38.669365
 30
0.0
 11
16.313573
 21
38.669365
 31
0.0
  0
LINE
  8
5
  6
CONTINUOUS
 62
   150
  5
148
 10
13.041812
 20
38.68575
 30
0.0
 11
16.339604
 21
38.68575
 31
0.0
  0
LINE
  8
5
  6
CONTINUOUS
 62
   150
  5
149
 10
13.035281
 20
38.624854
 30
0.0
 11
13.666385
 21
38.624854
 31
0.0
  0
LINE
  8
5
  6
CONTINUOUS
 62
   150
  5
14A
 10
13.032427
 20
38.598219
 30
0.0
 11
13.638792
 21
38.598219
 31
0.0
  0
LINE
  8
5
  6
CONTINUOUS
 62
   150
  5
14B
 10
13.029708
 20
38.572833
 30
0.0
 11
13.631427
 21
38.572833
 31
0.0
  0
LINE
  8
5
  6
CONTINUOUS
 62
   150
  5
14C
 10
13.02676
 20
38.545396
 30
0.0
 11
13.635615
 21
38.545396
 31
0.0
  0
LINE
  8
5
  6
CONTINUOUS
 62
   150
  5
14D
 10
13.023906
 20
38.51876
 30
0.0
 11
13.655458
 21
38.51876
 31
0.0
  0
LINE
  8
5
  6
CONTINUOUS
 62
   150
  5
14E
 10
13.021188
 20
38.493375
 30
0.0
 11
16.377979
 21
38.493375
 31
0.0
  0
LINE
  8
5
  6
CONTINUOUS
 62
   150
  5
14F
 10
13.018333
 20
38.46674
 30
0.0
 11
16.396812
 21
38.46674
 31
0.0
  0
LINE
  8
5
  6
CONTINUOUS
 62
   150
  5
150
 10
13.015479
 20
38.440104
 30
0.0
 11
16.415656
 21
38.440104
 31
0.0
  0
LINE
  8
5
  6
CONTINUOUS
 62
   150
  5
151
 10
12.998573
 20
38.413469
 30
0.0
 11
16.43449
 21
38.413469
 31
0.0
  0
LINE
  8
5
  6
CONTINUOUS
 62
   150
  5
152
 10
12.925094
 20
38.360198
 30
0.0
 11
16.352094
 21
38.360198
 31
0.0
  0
LINE
  8
5
  6
CONTINUOUS
 62
   150
  5
153
 10
13.049083
 20
38.753594
 30
0.0
 11
16.396906
 21
38.753594
 31
0.0
  0
LINE
  8
5
  6
CONTINUOUS
 62
   150
  5
154
 10
13.046771
 20
38.732104
 30
0.0
 11
16.394469
 21
38.732104
 31
0.0
  0
LINE
  8
5
  6
CONTINUOUS
 62
   150
  5
155
 10
13.045698
 20
38.721969
 30
0.0
 11
16.393302
 21
38.721969
 31
0.0
  0
LINE
  8
5
  6
CONTINUOUS
 62
   150
  5
156
 10
13.044604
 20
38.711844
 30
0.0
 11
16.381031
 21
38.711844
 31
0.0
  0
LINE
  8
5
  6
CONTINUOUS
 62
   150
  5
157
 10
13.043521
 20
38.701719
 30
0.0
 11
16.364958
 21
38.701719
 31
0.0
  0
LINE
  8
5
  6
CONTINUOUS
 62
   150
  5
158
 10
12.961833
 20
38.386833
 30
0.0
 11
16.390292
 21
38.386833
 31
0.0
  0
LINE
  8
5
  6
CONTINUOUS
 62
   150
  5
159
 10
12.892531
 20
38.323
 30
0.0
 11
16.347865
 21
38.323
 31
0.0
  0
ARC
  8
1
  6
CONTINUOUS
 62
   150
  5
15A
 10
13.824153
 20
38.568369
 30
0.0
 40
0.062972
 50
275.632714
 51
84.367283
210
0.0
220
0.0
230
1.0
  0
ARC
  8
1
  6
CONTINUOUS
 62
   150
  5
15B
 10
13.694236
 20
38.568369
 30
0.0
 40
0.062972
 50
95.632714
 51
264.367283
210
0.0
220
0.0
230
1.0
  0
LINE
  8
1
  6
CONTINUOUS
 62
   150
  5
15C
 10
13.688052
 20
38.505708
 30
0.0
 11
13.830333
 21
38.505708
 31
0.0
  0
LINE
  8
1
  6
CONTINUOUS
 62
   150
  5
15D
 10
13.688052
 20
38.631042
 30
0.0
 11
13.830333
 21
38.631042
 31
0.0
  0
ARC
  8
1
  6
CONTINUOUS
 62
   150
  5
15E
 10
15.622718
 20
37.931339
 30
0.0
 40
0.062972
 50
275.632714
 51
84.367283
210
0.0
220
0.0
230
1.0
  0
ARC
  8
1
  6
CONTINUOUS
 62
   150
  5
15F
 10
15.492801
 20
37.931339
 30
0.0
 40
0.062972
 50
95.632714
 51
264.367283
210
0.0
220
0.0
230
1.0
  0
LINE
  8
1
  6
CONTINUOUS
 62
   150
  5
160
 10
15.486625
 20
37.99401
 30
0.0
 11
15.628896
 21
37.99401
 31
0.0
  0
LINE
  8
1
  6
CONTINUOUS
 62
   150
  5
161
 10
15.486625
 20
37.868667
 30
0.0
 11
15.628896
 21
37.868667
 31
0.0
  0
LINE
  8
5
  6
CONTINUOUS
 62
   150
  5
162
 10
15.6615
 20
37.980948
 30
0.0
 11
16.308896
 21
37.980948
 31
0.0
  0
LINE
  8
5
  6
CONTINUOUS
 62
   150
  5
163
 10
15.678167
 20
37.90149
 30
0.0
 11
16.299854
 21
37.90149
 31
0.0
  0
LINE
  8
5
  6
CONTINUOUS
 62
   150
  5
164
 10
15.685542
 20
37.926875
 30
0.0
 11
16.30274
 21
37.926875
 31
0.0
  0
LINE
  8
5
  6
CONTINUOUS
 62
   150
  5
165
 10
15.681354
 20
37.954313
 30
0.0
 11
16.305875
 21
37.954313
 31
0.0
  0
LINE
  8
5
  6
CONTINUOUS
 62
   150
  5
166
 10
15.650562
 20
37.874854
 30
0.0
 11
16.296812
 21
37.874854
 31
0.0
  0
LINE
  8
5
  6
CONTINUOUS
 62
   150
  5
167
 10
15.63674
 20
38.624854
 30
0.0
 11
16.285
 21
38.624854
 31
0.0
  0
LINE
  8
5
  6
CONTINUOUS
 62
   150
  5
168
 10
15.667531
 20
38.545396
 30
0.0
 11
16.341188
 21
38.545396
 31
0.0
  0
LINE
  8
5
  6
CONTINUOUS
 62
   150
  5
169
 10
15.671719
 20
38.572833
 30
0.0
 11
16.321781
 21
38.572833
 31
0.0
  0
LINE
  8
5
  6
CONTINUOUS
 62
   150
  5
16A
 10
15.664354
 20
38.598219
 30
0.0
 11
16.303833
 21
38.598219
 31
0.0
  0
LINE
  8
5
  6
CONTINUOUS
 62
   150
  5
16B
 10
15.647677
 20
38.51876
 30
0.0
 11
16.360031
 21
38.51876
 31
0.0
  0
LINE
  8
1
  6
CONTINUOUS
 62
   150
  5
16C
 10
15.472802
 20
38.631042
 30
0.0
 11
15.615083
 21
38.631042
 31
0.0
  0
LINE
  8
1
  6
CONTINUOUS
 62
   150
  5
16D
 10
15.472802
 20
38.505708
 30
0.0
 11
15.615083
 21
38.505708
 31
0.0
  0
ARC
  8
1
  6
CONTINUOUS
 62
   150
  5
16E
 10
15.478979
 20
38.568369
 30
0.0
 40
0.062972
 50
95.632714
 51
264.367283
210
0.0
220
0.0
230
1.0
  0
ARC
  8
1
  6
CONTINUOUS
 62
   150
  5
16F
 10
15.608896
 20
38.568369
 30
0.0
 40
0.062972
 50
275.632714
 51
84.367283
210
0.0
220
0.0
230
1.0
  0
LINE
  8
1
  6
CONTINUOUS
 62
   233
  5
170
 10
21.217927
 20
41.093719
 30
0.0
 11
21.578292
 21
41.025635
 31
0.0
  0
LINE
  8
1
  6
CONTINUOUS
 62
   233
  5
171
 10
21.578292
 20
41.025635
 30
0.0
 11
22.08924
 21
40.757604
 31
0.0
  0
LINE
  8
1
  6
CONTINUOUS
 62
   233
  5
172
 10
21.295396
 20
39.549062
 30
0.0
 11
21.295396
 21
39.304156
 31
0.0
  0
LINE
  8
1
  6
CONTINUOUS
 62
   233
  5
173
 10
21.295396
 20
39.549062
 30
0.0
 11
22.15824
 21
40.41874
 31
0.0
  0
ARC
  8
1
  6
CONTINUOUS
 62
   233
  5
174
 10
21.980111
 20
40.558929
 30
0.0
 40
0.226675
 50
321.794219
 51
61.221447
210
0.0
220
0.0
230
1.0
  0
LINE
  8
1
  6
CONTINUOUS
 62
   233
  5
175
 10
21.112094
 20
41.007583
 30
0.0
 11
21.551677
 21
40.943604
 31
0.0
  0
LINE
  8
1
  6
CONTINUOUS
 62
   233
  5
176
 10
21.551677
 20
40.943604
 30
0.0
 11
22.048948
 21
40.68276
 31
0.0
  0
ARC
  8
1
  6
CONTINUOUS
 62
   233
  5
177
 10
21.980111
 20
40.558929
 30
0.0
 40
0.141675
 50
323.5369
 51
60.930261
210
0.0
220
0.0
230
1.0
  0
LINE
  8
1
  6
CONTINUOUS
 62
   233
  5
178
 10
21.210396
 20
39.584073
 30
0.0
 11
22.094052
 21
40.47474
 31
0.0
  0
LINE
  8
1
  6
CONTINUOUS
 62
   233
  5
179
 10
21.210396
 20
39.584073
 30
0.0
 11
21.210396
 21
39.304156
 31
0.0
  0
LINE
  8
1
  6
CONTINUOUS
 62
   233
  5
17A
 10
21.112094
 20
41.007583
 30
0.0
 11
21.124333
 21
41.091698
 31
0.0
  0
LINE
  8
1
  6
CONTINUOUS
 62
   233
  5
17B
 10
21.825062
 20
40.082927
 30
0.0
 11
21.764969
 21
40.143042
 31
0.0
  0
LINE
  8
1
  6
CONTINUOUS
 62
   233
  5
17C
 10
21.747937
 20
40.005198
 30
0.0
 11
21.687833
 21
40.065302
 31
0.0
  0
LINE
  8
1
  6
CONTINUOUS
 62
   233
  5
17D
 10
21.694604
 20
40.964615
 30
0.0
 11
21.655115
 21
40.889354
 31
0.0
  0
LINE
  8
1
  6
CONTINUOUS
 62
   233
  5
17E
 10
21.788812
 20
40.915208
 30
0.0
 11
21.749333
 21
40.839927
 31
0.0
  0
LINE
  8
1
  6
CONTINUOUS
 62
   233
  5
17F
 10
21.788812
 20
37.693104
 30
0.0
 11
21.749333
 21
37.768375
 31
0.0
  0
LINE
  8
1
  6
CONTINUOUS
 62
   233
  5
180
 10
21.694604
 20
37.643677
 30
0.0
 11
21.655115
 21
37.718958
 31
0.0
  0
LINE
  8
1
  6
CONTINUOUS
 62
   233
  5
181
 10
21.747937
 20
38.603104
 30
0.0
 11
21.687833
 21
38.543
 31
0.0
  0
LINE
  8
1
  6
CONTINUOUS
 62
   233
  5
182
 10
21.825062
 20
38.525375
 30
0.0
 11
21.764969
 21
38.46526
 31
0.0
  0
LINE
  8
1
  6
CONTINUOUS
 62
   233
  5
183
 10
21.112094
 20
37.600719
 30
0.0
 11
21.124333
 21
37.516604
 31
0.0
  0
LINE
  8
1
  6
CONTINUOUS
 62
   233
  5
184
 10
21.210396
 20
39.024229
 30
0.0
 11
21.210396
 21
39.304156
 31
0.0
  0
LINE
  8
1
  6
CONTINUOUS
 62
   233
  5
185
 10
21.210396
 20
39.024229
 30
0.0
 11
22.094052
 21
38.133573
 31
0.0
  0
ARC
  8
1
  6
CONTINUOUS
 62
   233
  5
186
 10
21.980111
 20
38.049366
 30
0.0
 40
0.141675
 50
299.069733
 51
36.463094
210
0.0
220
0.0
230
1.0
  0
LINE
  8
1
  6
CONTINUOUS
 62
   233
  5
187
 10
21.551677
 20
37.664698
 30
0.0
 11
22.048948
 21
37.925542
 31
0.0
  0
LINE
  8
1
  6
CONTINUOUS
 62
   233
  5
188
 10
21.112094
 20
37.600719
 30
0.0
 11
21.551677
 21
37.664698
 31
0.0
  0
ARC
  8
1
  6
CONTINUOUS
 62
   233
  5
189
 10
21.980111
 20
38.049366
 30
0.0
 40
0.226675
 50
298.77855
 51
38.205778
210
0.0
220
0.0
230
1.0
  0
LINE
  8
1
  6
CONTINUOUS
 62
   233
  5
18A
 10
21.295396
 20
39.05924
 30
0.0
 11
22.15824
 21
38.189563
 31
0.0
  0
LINE
  8
1
  6
CONTINUOUS
 62
   233
  5
18B
 10
21.295396
 20
39.05924
 30
0.0
 11
21.295396
 21
39.304156
 31
0.0
  0
LINE
  8
1
  6
CONTINUOUS
 62
   233
  5
18C
 10
21.578292
 20
37.582677
 30
0.0
 11
22.08924
 21
37.850698
 31
0.0
  0
LINE
  8
1
  6
CONTINUOUS
 62
   233
  5
18D
 10
21.124333
 20
37.516604
 30
0.0
 11
21.578292
 21
37.582677
 31
0.0
  0
LINE
  8
1
  6
CONTINUOUS
 62
   150
  5
18E
 10
13.152427
 20
39.717583
 30
0.0
 11
13.059646
 21
39.648323
 31
0.0
  0
LINE
  8
1
  6
CONTINUOUS
 62
   233
  5
18F
 10
13.059646
 20
39.648323
 30
0.0
 11
13.202
 21
39.392781
 31
0.0
  0
LINE
  8
1
  6
CONTINUOUS
 62
   150
  5
190
 10
13.202
 20
39.392781
 30
0.0
 11
13.111771
 21
39.338396
 31
0.0
  0
LINE
  8
1
  6
CONTINUOUS
 62
   150
  5
191
 10
13.152427
 20
39.717583
 30
0.0
 11
13.213615
 21
40.288417
 31
0.0
  0
LINE
  8
1
  6
CONTINUOUS
 62
   150
  5
192
 10
13.013802
 20
38.424521
 30
0.0
 11
12.884792
 21
38.330979
 31
0.0
  0
LINE
  8
1
  6
CONTINUOUS
 62
   150
  5
193
 10
12.884792
 20
38.330979
 30
0.0
 11
13.062927
 21
38.147677
 31
0.0
  0
LINE
  8
1
  6
CONTINUOUS
 62
   233
  5
194
 10
13.062927
 20
38.147677
 30
0.0
 11
12.977125
 21
38.082354
 31
0.0
  0
LINE
  8
1
  6
CONTINUOUS
 62
   150
  5
195
 10
13.013802
 20
38.424521
 30
0.0
 11
13.111771
 21
39.338396
 31
0.0
  0
LINE
  8
1
  6
CONTINUOUS
 62
   150
  5
196
 10
16.352615
 20
38.364667
 30
0.0
 11
16.434802
 21
38.41301
 31
0.0
  0
LINE
  8
1
  6
CONTINUOUS
 62
   233
  5
197
 10
16.434802
 20
38.41301
 30
0.0
 11
16.272031
 21
38.643198
 31
0.0
  0
LINE
  8
1
  6
CONTINUOUS
 62
   233
  5
198
 10
16.272031
 20
38.643198
 30
0.0
 11
16.39301
 21
38.719385
 31
0.0
  0
LINE
  8
1
  6
CONTINUOUS
 62
   150
  5
199
 10
16.39301
 20
38.719385
 30
0.0
 11
16.474906
 21
39.438313
 31
0.0
  0
LINE
  8
1
  6
CONTINUOUS
 62
   150
  5
19A
 10
16.474906
 20
39.438313
 30
0.0
 11
16.552521
 21
39.48425
 31
0.0
  0
LINE
  8
1
  6
CONTINUOUS
 62
   150
  5
19B
 10
16.552521
 20
39.48425
 30
0.0
 11
16.39976
 21
39.706417
 31
0.0
  0
LINE
  8
1
  6
CONTINUOUS
 62
   150
  5
19C
 10
16.39976
 20
39.706417
 30
0.0
 11
16.517719
 21
39.814177
 31
0.0
  0
LINE
  8
1
  6
CONTINUOUS
 62
   150
  5
19D
 10
16.517719
 20
39.814177
 30
0.0
 11
16.571729
 21
40.288417
 31
0.0
  0
LINE
  8
1
  6
CONTINUOUS
 62
   233
  5
19E
 10
14.002313
 20
37.648604
 30
0.0
 11
15.301333
 21
37.648604
 31
0.0
  0
LINE
  8
1
  6
CONTINUOUS
 62
   233
  5
19F
 10
15.301333
 20
37.718187
 30
0.0
 11
15.301333
 21
37.480698
 31
0.0
  0
LINE
  8
1
  6
CONTINUOUS
 62
   233
  5
1A0
 10
14.002313
 20
37.718187
 30
0.0
 11
14.002313
 21
37.480698
 31
0.0
  0
LINE
  8
1
  6
CONTINUOUS
 62
   233
  5
1A1
 10
14.002313
 20
40.333062
 30
0.0
 11
15.301333
 21
40.333062
 31
0.0
  0
LINE
  8
1
  6
CONTINUOUS
 62
   233
  5
1A2
 10
14.002313
 20
40.288417
 30
0.0
 11
14.002313
 21
40.333062
 31
0.0
  0
LINE
  8
1
  6
CONTINUOUS
 62
   233
  5
1A3
 10
15.301333
 20
40.288417
 30
0.0
 11
15.301333
 21
40.333062
 31
0.0
  0
LINE
  8
1
  6
CONTINUOUS
 62
   150
  5
1A4
 10
7.928104
 20
47.633594
 30
0.0
 11
8.35174
 21
47.633594
 31
0.0
  0
LINE
  8
1
  6
CONTINUOUS
 62
   150
  5
1A5
 10
7.928104
 20
47.633594
 30
0.0
 11
7.928104
 21
48.314979
 31
0.0
  0
LINE
  8
1
  6
CONTINUOUS
 62
   150
  5
1A6
 10
8.35174
 20
47.633594
 30
0.0
 11
8.35174
 21
48.043125
 31
0.0
  0
LINE
  8
1
  6
CONTINUOUS
 62
   150
  5
1A7
 10
7.928104
 20
48.314979
 30
0.0
 11
8.027229
 21
48.24399
 31
0.0
  0
LINE
  8
1
  6
CONTINUOUS
 62
   150
  5
1A8
 10
8.027229
 20
48.24399
 30
0.0
 11
8.06726
 21
48.277604
 31
0.0
  0
LINE
  8
1
  6
CONTINUOUS
 62
   150
  5
1A9
 10
8.06726
 20
48.277604
 30
0.0
 11
8.151323
 21
48.095542
 31
0.0
  0
LINE
  8
1
  6
CONTINUOUS
 62
   150
  5
1AA
 10
8.151323
 20
48.095542
 30
0.0
 11
8.198031
 21
48.13476
 31
0.0
  0
LINE
  8
1
  6
CONTINUOUS
 62
   150
  5
1AB
 10
8.198031
 20
48.13476
 30
0.0
 11
8.35174
 21
48.043125
 31
0.0
  0
LINE
  8
1
  6
CONTINUOUS
 62
   150
  5
1AC
 10
8.198031
 20
48.337823
 30
0.0
 11
8.35174
 21
48.246198
 31
0.0
  0
LINE
  8
1
  6
CONTINUOUS
 62
   150
  5
1AD
 10
8.151323
 20
48.298615
 30
0.0
 11
8.198031
 21
48.337823
 31
0.0
  0
LINE
  8
1
  6
CONTINUOUS
 62
   150
  5
1AE
 10
8.06726
 20
48.480677
 30
0.0
 11
8.151323
 21
48.298615
 31
0.0
  0
LINE
  8
1
  6
CONTINUOUS
 62
   150
  5
1AF
 10
8.027229
 20
48.447063
 30
0.0
 11
8.06726
 21
48.480677
 31
0.0
  0
LINE
  8
1
  6
CONTINUOUS
 62
   150
  5
1B0
 10
7.928104
 20
48.518052
 30
0.0
 11
8.027229
 21
48.447063
 31
0.0
  0
LINE
  8
1
  6
CONTINUOUS
 62
   150
  5
1B1
 10
7.928104
 20
48.518052
 30
0.0
 11
7.928104
 21
49.682479
 31
0.0
  0
LINE
  8
1
  6
CONTINUOUS
 62
   150
  5
1B2
 10
8.35174
 20
48.246198
 30
0.0
 11
8.35174
 21
49.682479
 31
0.0
  0
LINE
  8
1
  6
CONTINUOUS
 62
   150
  5
1B3
 10
13.403604
 20
49.682479
 30
0.0
 11
9.934573
 21
49.682479
 31
0.0
  0
LINE
  8
1
  6
CONTINUOUS
 62
   150
  5
1B4
 10
7.700781
 20
49.682479
 30
0.0
 11
7.057583
 21
49.487354
 31
0.0
  0
LINE
  8
1
  6
CONTINUOUS
 62
   150
  5
1B5
 10
7.473469
 20
49.487354
 30
0.0
 11
6.626187
 21
49.487354
 31
0.0
  0
LINE
  8
1
  6
CONTINUOUS
 62
   150
  5
1B6
 10
6.626187
 20
49.487354
 30
0.0
 11
6.626187
 21
50.702646
 31
0.0
  0
LINE
  8
1
  6
CONTINUOUS
 62
   150
  5
1B7
 10
7.473469
 20
49.487354
 30
0.0
 11
7.473469
 21
49.613521
 31
0.0
  0
LINE
  8
1
  6
CONTINUOUS
 62
   150
  5
1B8
 10
13.445573
 20
50.569375
 30
0.0
 11
9.985656
 21
50.569375
 31
0.0
  0
LINE
  8
1
  6
CONTINUOUS
 62
   150
  5
1B9
 10
6.626187
 20
50.702646
 30
0.0
 11
7.473469
 21
50.702646
 31
0.0
  0
LINE
  8
1
  6
CONTINUOUS
 62
   150
  5
1BA
 10
7.473469
 20
50.624219
 30
0.0
 11
7.473469
 21
50.702646
 31
0.0
  0
LINE
  8
1
  6
CONTINUOUS
 62
   150
  5
1BB
 10
7.148375
 20
50.702646
 30
0.0
 11
7.700781
 21
50.569375
 31
0.0
  0
LINE
  8
5
  6
CONTINUOUS
 62
   150
  5
1BC
 10
6.64476
 20
50.702646
 30
0.0
 11
6.64476
 21
49.487354
 31
0.0
  0
LINE
  8
5
  6
CONTINUOUS
 62
   150
  5
1BD
 10
6.654323
 20
50.702646
 30
0.0
 11
6.654323
 21
49.487354
 31
0.0
  0
LINE
  8
5
  6
CONTINUOUS
 62
   150
  5
1BE
 10
6.66176
 20
50.702646
 30
0.0
 11
6.66176
 21
49.487354
 31
0.0
  0
LINE
  8
5
  6
CONTINUOUS
 62
   150
  5
1BF
 10
6.671323
 20
50.702646
 30
0.0
 11
6.671323
 21
49.487354
 31
0.0
  0
LINE
  8
5
  6
CONTINUOUS
 62
   150
  5
1C0
 10
6.705323
 20
50.702646
 30
0.0
 11
6.705323
 21
49.487354
 31
0.0
  0
LINE
  8
5
  6
CONTINUOUS
 62
   150
  5
1C1
 10
6.69576
 20
50.702646
 30
0.0
 11
6.69576
 21
49.487354
 31
0.0
  0
LINE
  8
5
  6
CONTINUOUS
 62
   150
  5
1C2
 10
6.688323
 20
50.702646
 30
0.0
 11
6.688323
 21
49.487354
 31
0.0
  0
LINE
  8
5
  6
CONTINUOUS
 62
   150
  5
1C3
 10
6.67876
 20
50.702646
 30
0.0
 11
6.67876
 21
49.487354
 31
0.0
  0
LINE
  8
5
  6
CONTINUOUS
 62
   150
  5
1C4
 10
6.722323
 20
50.702646
 30
0.0
 11
6.722323
 21
49.487354
 31
0.0
  0
LINE
  8
5
  6
CONTINUOUS
 62
   150
  5
1C5
 10
6.739323
 20
50.702646
 30
0.0
 11
6.739323
 21
49.487354
 31
0.0
  0
LINE
  8
5
  6
CONTINUOUS
 62
   150
  5
1C6
 10
6.756323
 20
50.702646
 30
0.0
 11
6.756323
 21
49.493615
 31
0.0
  0
LINE
  8
5
  6
CONTINUOUS
 62
   150
  5
1C7
 10
6.781823
 20
50.66626
 30
0.0
 11
6.781823
 21
49.497844
 31
0.0
  0
LINE
  8
5
  6
CONTINUOUS
 62
   150
  5
1C8
 10
6.807323
 20
50.663552
 30
0.0
 11
6.807323
 21
49.502083
 31
0.0
  0
LINE
  8
5
  6
CONTINUOUS
 62
   150
  5
1C9
 10
6.832823
 20
50.660854
 30
0.0
 11
6.832823
 21
49.506313
 31
0.0
  0
LINE
  8
5
  6
CONTINUOUS
 62
   150
  5
1CA
 10
6.866823
 20
50.65725
 30
0.0
 11
6.866823
 21
49.511948
 31
0.0
  0
LINE
  8
5
  6
CONTINUOUS
 62
   150
  5
1CB
 10
6.900823
 20
50.653656
 30
0.0
 11
6.900823
 21
49.517604
 31
0.0
  0
LINE
  8
5
  6
CONTINUOUS
 62
   150
  5
1CC
 10
6.934823
 20
50.650052
 30
0.0
 11
6.934823
 21
49.52324
 31
0.0
  0
LINE
  8
5
  6
CONTINUOUS
 62
   150
  5
1CD
 10
6.994323
 20
50.64375
 30
0.0
 11
6.994323
 21
49.533125
 31
0.0
  0
LINE
  8
5
  6
CONTINUOUS
 62
   150
  5
1CE
 10
7.087823
 20
50.633844
 30
0.0
 11
7.087823
 21
49.548646
 31
0.0
  0
LINE
  8
5
  6
CONTINUOUS
 62
   150
  5
1CF
 10
7.181323
 20
50.623615
 30
0.0
 11
7.181323
 21
49.566417
 31
0.0
  0
LINE
  8
5
  6
CONTINUOUS
 62
   150
  5
1D0
 10
7.116969
 20
49.505375
 30
0.0
 11
7.473469
 21
49.505375
 31
0.0
  0
LINE
  8
5
  6
CONTINUOUS
 62
   150
  5
1D1
 10
7.172792
 20
49.522302
 30
0.0
 11
7.473469
 21
49.522302
 31
0.0
  0
LINE
  8
5
  6
CONTINUOUS
 62
   150
  5
1D2
 10
7.242552
 20
49.543469
 30
0.0
 11
7.473469
 21
49.543469
 31
0.0
  0
LINE
  8
5
  6
CONTINUOUS
 62
   150
  5
1D3
 10
7.294875
 20
49.559333
 30
0.0
 11
7.473469
 21
49.559333
 31
0.0
  0
LINE
  8
5
  6
CONTINUOUS
 62
   150
  5
1D4
 10
7.357667
 20
49.578396
 30
0.0
 11
7.473469
 21
49.578396
 31
0.0
  0
LINE
  8
5
  6
CONTINUOUS
 62
   150
  5
1D5
 10
7.169354
 20
50.696844
 30
0.0
 11
7.473469
 21
50.696844
 31
0.0
  0
LINE
  8
5
  6
CONTINUOUS
 62
   150
  5
1D6
 10
7.22925
 20
50.683135
 30
0.0
 11
7.473469
 21
50.683135
 31
0.0
  0
LINE
  8
5
  6
CONTINUOUS
 62
   150
  5
1D7
 10
7.281333
 20
50.670573
 30
0.0
 11
7.473469
 21
50.670573
 31
0.0
  0
LINE
  8
5
  6
CONTINUOUS
 62
   150
  5
1D8
 10
7.347625
 20
50.654583
 30
0.0
 11
7.473469
 21
50.654583
 31
0.0
  0
LINE
  8
5
  6
CONTINUOUS
 62
   150
  5
1D9
 10
7.399708
 20
50.642021
 30
0.0
 11
7.473469
 21
50.642021
 31
0.0
  0
LINE
  8
2
  6
HIDDEN
 62
     2
  5
1DA
 10
7.700781
 20
49.682479
 30
0.0
 11
7.700781
 21
50.569375
 31
0.0
  0
LINE
  8
1
  6
CONTINUOUS
 62
   150
  5
1DB
 10
7.928104
 20
50.591115
 30
0.0
 11
8.35174
 21
50.591115
 31
0.0
  0
LINE
  8
2
  6
HIDDEN
 62
     2
  5
1DC
 10
7.928104
 20
49.682479
 30
0.0
 11
7.928104
 21
50.591115
 31
0.0
  0
LINE
  8
2
  6
HIDDEN
 62
     2
  5
1DD
 10
8.35174
 20
49.682479
 30
0.0
 11
8.35174
 21
50.591115
 31
0.0
  0
CIRCLE
  8
1
  6
CONTINUOUS
 62
   150
  5
1DE
 10
7.824014
 20
50.477772
 30
0.0
 40
0.033242
210
0.0
220
0.0
230
1.0
  0
CIRCLE
  8
1
  6
CONTINUOUS
 62
   150
  5
1DF
 10
8.432746
 20
50.477772
 30
0.0
 40
0.033242
210
0.0
220
0.0
230
1.0
  0
CIRCLE
  8
1
  6
CONTINUOUS
 62
   150
  5
1E0
 10
8.432746
 20
49.734491
 30
0.0
 40
0.033242
210
0.0
220
0.0
230
1.0
  0
CIRCLE
  8
1
  6
CONTINUOUS
 62
   150
  5
1E1
 10
7.824014
 20
49.734491
 30
0.0
 40
0.033242
210
0.0
220
0.0
230
1.0
  0
CIRCLE
  8
1
  6
CONTINUOUS
 62
   150
  5
1E2
 10
8.126304
 20
50.132291
 30
0.0
 40
0.03428
210
0.0
220
0.0
230
1.0
  0
ARC
  8
1
  6
CONTINUOUS
 62
   233
  5
1E3
 10
7.054409
 20
53.175017
 30
0.0
 40
0.321137
 50
63.298806
 51
285.365606
210
0.0
220
0.0
230
1.0
  0
LINE
  8
1
  6
CONTINUOUS
 62
   233
  5
1E4
 10
7.1395
 20
52.865365
 30
0.0
 11
9.783521
 21
52.865365
 31
0.0
  0
LINE
  8
1
  6
CONTINUOUS
 62
   233
  5
1E5
 10
7.928104
 20
53.08301
 30
0.0
 11
7.928104
 21
54.196458
 31
0.0
  0
LINE
  8
1
  6
CONTINUOUS
 62
   233
  5
1E6
 10
7.664896
 20
53.08301
 30
0.0
 11
9.784594
 21
53.08301
 31
0.0
  0
LINE
  8
1
  6
CONTINUOUS
 62
   233
  5
1E7
 10
9.971781
 20
53.085396
 30
0.0
 11
13.450604
 21
53.085396
 31
0.0
  0
LINE
  8
1
  6
CONTINUOUS
 62
   233
  5
1E8
 10
7.664896
 20
53.08301
 30
0.0
 11
7.106073
 21
52.885458
 31
0.0
  0
ARC
  8
1
  6
CONTINUOUS
 62
   233
  5
1E9
 10
7.054409
 20
53.175017
 30
0.0
 40
0.29413
 50
63.298806
 51
280.116594
210
0.0
220
0.0
230
1.0
  0
LINE
  8
1
  6
CONTINUOUS
 62
   233
  5
1EA
 10
7.198708
 20
53.461906
 30
0.0
 11
7.186563
 21
53.437781
 31
0.0
  0
LINE
  8
2
  6
HIDDEN
 62
     2
  5
1EB
 10
8.082427
 20
53.08301
 30
0.0
 11
8.082427
 21
54.196458
 31
0.0
  0
LINE
  8
2
  6
HIDDEN
 62
     2
  5
1EC
 10
8.152406
 20
53.08301
 30
0.0
 11
8.152406
 21
54.196458
 31
0.0
  0
LINE
  8
1
  6
CONTINUOUS
 62
   233
  5
1ED
 10
7.928104
 20
54.196458
 30
0.0
 11
8.303781
 21
54.196458
 31
0.0
  0
LINE
  8
1
  6
CONTINUOUS
 62
   233
  5
1EE
 10
7.928104
 20
53.583271
 30
0.0
 11
8.309104
 21
53.583271
 31
0.0
  0
LINE
  8
1
  6
CONTINUOUS
 62
   233
  5
1EF
 10
8.024812
 20
54.226677
 30
0.0
 11
8.197677
 21
54.226677
 31
0.0
  0
LINE
  8
1
  6
CONTINUOUS
 62
   233
  5
1F0
 10
8.0495
 20
54.274177
 30
0.0
 11
8.181219
 21
54.274177
 31
0.0
  0
LINE
  8
1
  6
CONTINUOUS
 62
   233
  5
1F1
 10
8.024812
 20
54.196458
 30
0.0
 11
8.024812
 21
54.226677
 31
0.0
  0
LINE
  8
1
  6
CONTINUOUS
 62
   233
  5
1F2
 10
8.197677
 20
54.196458
 30
0.0
 11
8.197677
 21
54.226677
 31
0.0
  0
LINE
  8
1
  6
CONTINUOUS
 62
   233
  5
1F3
 10
8.070083
 20
54.334635
 30
0.0
 11
8.158458
 21
54.334635
 31
0.0
  0
LINE
  8
1
  6
CONTINUOUS
 62
   233
  5
1F4
 10
8.158458
 20
54.274177
 30
0.0
 11
8.158458
 21
54.334635
 31
0.0
  0
LINE
  8
1
  6
CONTINUOUS
 62
   233
  5
1F5
 10
8.070083
 20
54.274177
 30
0.0
 11
8.070083
 21
54.334635
 31
0.0
  0
LINE
  8
1
  6
CONTINUOUS
 62
   233
  5
1F6
 10
8.0495
 20
54.226677
 30
0.0
 11
8.0495
 21
54.274177
 31
0.0
  0
LINE
  8
1
  6
CONTINUOUS
 62
   233
  5
1F7
 10
8.181219
 20
54.226677
 30
0.0
 11
8.181219
 21
54.274177
 31
0.0
  0
LINE
  8
1
  6
CONTINUOUS
 62
   233
  5
1F8
 10
8.082208
 20
54.226677
 30
0.0
 11
8.082208
 21
54.274177
 31
0.0
  0
LINE
  8
1
  6
CONTINUOUS
 62
   233
  5
1F9
 10
8.144635
 20
54.226677
 30
0.0
 11
8.144635
 21
54.274177
 31
0.0
  0
LINE
  8
2
  6
HIDDEN
 62
     2
  5
1FA
 10
8.167323
 20
53.08301
 30
0.0
 11
8.167323
 21
54.196458
 31
0.0
  0
LINE
  8
2
  6
HIDDEN
 62
     2
  5
1FB
 10
8.061406
 20
53.08301
 30
0.0
 11
8.061406
 21
54.196458
 31
0.0
  0
LINE
  8
1
  6
CONTINUOUS
 62
   233
  5
1FC
 10
8.088323
 20
54.196458
 30
0.0
 11
8.088323
 21
54.226677
 31
0.0
  0
LINE
  8
1
  6
CONTINUOUS
 62
   233
  5
1FD
 10
8.135802
 20
54.196458
 30
0.0
 11
8.135802
 21
54.226677
 31
0.0
  0
LINE
  8
1
  6
CONTINUOUS
 62
   233
  5
1FE
 10
7.673635
 20
52.865365
 30
0.0
 11
7.673635
 21
53.08301
 31
0.0
  0
LINE
  8
1
  6
CONTINUOUS
 62
   233
  5
1FF
 10
8.57826
 20
52.865365
 30
0.0
 11
8.57826
 21
53.08301
 31
0.0
  0
LINE
  8
1
  6
CONTINUOUS
 62
   233
  5
200
 10
8.094906
 20
53.08301
 30
0.0
 11
8.094906
 21
53.037021
 31
0.0
  0
LINE
  8
1
  6
CONTINUOUS
 62
   233
  5
201
 10
8.142396
 20
53.08301
 30
0.0
 11
8.142396
 21
53.037021
 31
0.0
  0
LINE
  8
1
  6
CONTINUOUS
 62
   233
  5
202
 10
8.086083
 20
53.037021
 30
0.0
 11
8.086083
 21
53.002729
 31
0.0
  0
LINE
  8
1
  6
CONTINUOUS
 62
   233
  5
203
 10
8.14851
 20
53.037021
 30
0.0
 11
8.14851
 21
53.002729
 31
0.0
  0
LINE
  8
1
  6
CONTINUOUS
 62
   233
  5
204
 10
8.033031
 20
53.08301
 30
0.0
 11
8.033031
 21
53.037021
 31
0.0
  0
LINE
  8
1
  6
CONTINUOUS
 62
   233
  5
205
 10
8.205917
 20
53.08301
 30
0.0
 11
8.205917
 21
53.037021
 31
0.0
  0
LINE
  8
1
  6
CONTINUOUS
 62
   233
  5
206
 10
8.14851
 20
53.002729
 30
0.0
 11
8.086083
 21
53.002729
 31
0.0
  0
LINE
  8
1
  6
CONTINUOUS
 62
   233
  5
207
 10
8.205917
 20
53.037021
 30
0.0
 11
8.033031
 21
53.037021
 31
0.0
  0
LINE
  8
1
  6
CONTINUOUS
 62
   233
  5
208
 10
9.784594
 20
53.228771
 30
0.0
 11
9.784594
 21
53.03576
 31
0.0
  0
LINE
  8
1
  6
CONTINUOUS
 62
   233
  5
209
 10
9.784594
 20
53.03576
 30
0.0
 11
9.743115
 21
53.001167
 31
0.0
  0
LINE
  8
1
  6
CONTINUOUS
 62
   233
  5
20A
 10
9.743115
 20
53.001167
 30
0.0
 11
9.813302
 21
52.924187
 31
0.0
  0
LINE
  8
1
  6
CONTINUOUS
 62
   233
  5
20B
 10
9.813302
 20
52.924187
 30
0.0
 11
9.783521
 21
52.894062
 31
0.0
  0
LINE
  8
1
  6
CONTINUOUS
 62
   233
  5
20C
 10
9.783521
 20
52.894062
 30
0.0
 11
9.783521
 21
52.702781
 31
0.0
  0
LINE
  8
1
  6
CONTINUOUS
 62
   233
  5
20D
 10
9.970719
 20
52.894062
 30
0.0
 11
9.970719
 21
52.702781
 31
0.0
  0
LINE
  8
1
  6
CONTINUOUS
 62
   233
  5
20E
 10
10.00049
 20
52.924187
 30
0.0
 11
9.970719
 21
52.894062
 31
0.0
  0
LINE
  8
1
  6
CONTINUOUS
 62
   233
  5
20F
 10
9.930292
 20
53.001167
 30
0.0
 11
10.00049
 21
52.924187
 31
0.0
  0
LINE
  8
1
  6
CONTINUOUS
 62
   233
  5
210
 10
9.971781
 20
53.03576
 30
0.0
 11
9.930292
 21
53.001167
 31
0.0
  0
LINE
  8
1
  6
CONTINUOUS
 62
   233
  5
211
 10
9.971781
 20
53.228771
 30
0.0
 11
9.971781
 21
53.03576
 31
0.0
  0
LINE
  8
1
  6
CONTINUOUS
 62
   233
  5
212
 10
9.970719
 20
52.865365
 30
0.0
 11
12.043427
 21
52.865365
 31
0.0
  0
CIRCLE
  8
1
  6
CONTINUOUS
 62
   233
  5
213
 10
7.851461
 20
52.957027
 30
0.0
 40
0.031368
210
0.0
220
0.0
230
1.0
  0
CIRCLE
  8
1
  6
CONTINUOUS
 62
   233
  5
214
 10
8.417747
 20
52.957027
 30
0.0
 40
0.031368
210
0.0
220
0.0
230
1.0
  0
LINE
  8
5
  6
CONTINUOUS
 62
   217
  5
215
 10
7.144625
 20
52.870219
 30
0.0
 11
9.783521
 21
52.870219
 31
0.0
  0
LINE
  8
5
  6
CONTINUOUS
 62
   217
  5
216
 10
7.144625
 20
52.878719
 30
0.0
 11
9.783521
 21
52.878719
 31
0.0
  0
LINE
  8
5
  6
CONTINUOUS
 62
   217
  5
217
 10
7.144625
 20
52.887219
 30
0.0
 11
9.783521
 21
52.887219
 31
0.0
  0
LINE
  8
5
  6
CONTINUOUS
 62
   217
  5
218
 10
7.135073
 20
52.895719
 30
0.0
 11
9.785156
 21
52.895719
 31
0.0
  0
LINE
  8
5
  6
CONTINUOUS
 62
   217
  5
219
 10
7.159115
 20
52.904219
 30
0.0
 11
9.793563
 21
52.904219
 31
0.0
  0
LINE
  8
5
  6
CONTINUOUS
 62
   217
  5
21A
 10
9.738208
 20
53.01949
 30
0.0
 11
8.222635
 21
53.01949
 31
0.0
  0
LINE
  8
5
  6
CONTINUOUS
 62
   217
  5
21B
 10
9.711792
 20
52.977927
 30
0.0
 11
8.490094
 21
52.977927
 31
0.0
  0
LINE
  8
5
  6
CONTINUOUS
 62
   217
  5
21C
 10
9.748115
 20
52.950208
 30
0.0
 11
8.698104
 21
52.950208
 31
0.0
  0
LINE
  8
5
  6
CONTINUOUS
 62
   217
  5
21D
 10
8.311792
 20
52.977927
 30
0.0
 11
7.941979
 21
52.977927
 31
0.0
  0
LINE
  8
5
  6
CONTINUOUS
 62
   217
  5
21E
 10
8.3415
 20
52.943281
 30
0.0
 11
7.938677
 21
52.943281
 31
0.0
  0
LINE
  8
5
  6
CONTINUOUS
 62
   217
  5
21F
 10
7.757125
 20
52.974448
 30
0.0
 11
7.43024
 21
52.974448
 31
0.0
  0
LINE
  8
5
  6
CONTINUOUS
 62
   217
  5
220
 10
7.790146
 20
52.943281
 30
0.0
 11
7.275042
 21
52.943281
 31
0.0
  0
LINE
  8
5
  6
CONTINUOUS
 62
   217
  5
221
 10
7.95524
 20
53.012563
 30
0.0
 11
7.578823
 21
53.012563
 31
0.0
  0
LINE
  8
5
  6
CONTINUOUS
 62
   217
  5
222
 10
13.455594
 20
52.950208
 30
0.0
 11
9.97676
 21
52.950208
 31
0.0
  0
LINE
  8
5
  6
CONTINUOUS
 62
   217
  5
223
 10
13.430323
 20
52.977927
 30
0.0
 11
9.95149
 21
52.977927
 31
0.0
  0
LINE
  8
5
  6
CONTINUOUS
 62
   217
  5
224
 10
13.431104
 20
53.01949
 30
0.0
 11
11.814583
 21
53.01949
 31
0.0
  0
LINE
  8
5
  6
CONTINUOUS
 62
   217
  5
225
 10
9.98076
 20
52.904219
 30
0.0
 11
13.459583
 21
52.904219
 31
0.0
  0
LINE
  8
5
  6
CONTINUOUS
 62
   217
  5
226
 10
9.972344
 20
52.895719
 30
0.0
 11
13.451177
 21
52.895719
 31
0.0
  0
LINE
  8
5
  6
CONTINUOUS
 62
   217
  5
227
 10
9.970719
 20
52.887219
 30
0.0
 11
13.449542
 21
52.887219
 31
0.0
  0
LINE
  8
5
  6
CONTINUOUS
 62
   217
  5
228
 10
9.970719
 20
52.878719
 30
0.0
 11
13.449542
 21
52.878719
 31
0.0
  0
LINE
  8
5
  6
CONTINUOUS
 62
   217
  5
229
 10
9.970719
 20
52.870219
 30
0.0
 11
13.449542
 21
52.870219
 31
0.0
  0
LINE
  8
1
  6
CONTINUOUS
 62
   233
  5
22A
 10
9.970719
 20
52.865365
 30
0.0
 11
13.449542
 21
52.865365
 31
0.0
  0
LINE
  8
1
  6
CONTINUOUS
 62
   233
  5
22B
 10
11.357
 20
52.865365
 30
0.0
 11
11.357
 21
53.085396
 31
0.0
  0
LINE
  8
1
  6
CONTINUOUS
 62
   233
  5
22C
 10
11.76099
 20
53.085396
 30
0.0
 11
11.76099
 21
53.048198
 31
0.0
  0
LINE
  8
1
  6
CONTINUOUS
 62
   233
  5
22D
 10
11.752177
 20
53.048198
 30
0.0
 11
11.752177
 21
53.013906
 31
0.0
  0
LINE
  8
1
  6
CONTINUOUS
 62
   233
  5
22E
 10
11.814583
 20
53.048198
 30
0.0
 11
11.814583
 21
53.013906
 31
0.0
  0
LINE
  8
1
  6
CONTINUOUS
 62
   233
  5
22F
 10
11.699115
 20
53.085396
 30
0.0
 11
11.699115
 21
53.048198
 31
0.0
  0
LINE
  8
1
  6
CONTINUOUS
 62
   233
  5
230
 10
11.87199
 20
53.085396
 30
0.0
 11
11.87199
 21
53.048198
 31
0.0
  0
LINE
  8
1
  6
CONTINUOUS
 62
   233
  5
231
 10
11.814583
 20
53.013906
 30
0.0
 11
11.752177
 21
53.013906
 31
0.0
  0
LINE
  8
1
  6
CONTINUOUS
 62
   233
  5
232
 10
11.808479
 20
53.085396
 30
0.0
 11
11.808479
 21
53.048198
 31
0.0
  0
LINE
  8
1
  6
CONTINUOUS
 62
   233
  5
233
 10
11.87199
 20
53.048198
 30
0.0
 11
11.699115
 21
53.048198
 31
0.0
  0
LINE
  8
1
  6
CONTINUOUS
 62
   233
  5
234
 10
11.594177
 20
53.085396
 30
0.0
 11
11.594177
 21
54.207635
 31
0.0
  0
LINE
  8
1
  6
CONTINUOUS
 62
   233
  5
235
 10
11.969865
 20
53.085396
 30
0.0
 11
11.969865
 21
54.207635
 31
0.0
  0
LINE
  8
2
  6
HIDDEN
 62
     2
  5
236
 10
11.74851
 20
53.085396
 30
0.0
 11
11.74851
 21
54.207635
 31
0.0
  0
LINE
  8
2
  6
HIDDEN
 62
     2
  5
237
 10
11.818479
 20
53.085396
 30
0.0
 11
11.818479
 21
54.207635
 31
0.0
  0
LINE
  8
1
  6
CONTINUOUS
 62
   233
  5
238
 10
11.594177
 20
54.207635
 30
0.0
 11
11.969865
 21
54.207635
 31
0.0
  0
LINE
  8
1
  6
CONTINUOUS
 62
   233
  5
239
 10
11.594177
 20
53.594458
 30
0.0
 11
11.969865
 21
53.594458
 31
0.0
  0
LINE
  8
1
  6
CONTINUOUS
 62
   233
  5
23A
 10
11.690885
 20
54.237865
 30
0.0
 11
11.86376
 21
54.237865
 31
0.0
  0
LINE
  8
1
  6
CONTINUOUS
 62
   233
  5
23B
 10
11.715583
 20
54.285365
 30
0.0
 11
11.847292
 21
54.285365
 31
0.0
  0
LINE
  8
1
  6
CONTINUOUS
 62
   233
  5
23C
 10
11.690885
 20
54.207635
 30
0.0
 11
11.690885
 21
54.237865
 31
0.0
  0
LINE
  8
1
  6
CONTINUOUS
 62
   233
  5
23D
 10
11.86376
 20
54.207635
 30
0.0
 11
11.86376
 21
54.237865
 31
0.0
  0
LINE
  8
1
  6
CONTINUOUS
 62
   233
  5
23E
 10
11.736167
 20
54.345823
 30
0.0
 11
11.824542
 21
54.345823
 31
0.0
  0
LINE
  8
1
  6
CONTINUOUS
 62
   233
  5
23F
 10
11.824542
 20
54.285365
 30
0.0
 11
11.824542
 21
54.345823
 31
0.0
  0
LINE
  8
1
  6
CONTINUOUS
 62
   233
  5
240
 10
11.736167
 20
54.285365
 30
0.0
 11
11.736167
 21
54.345823
 31
0.0
  0
LINE
  8
1
  6
CONTINUOUS
 62
   233
  5
241
 10
11.715583
 20
54.237865
 30
0.0
 11
11.715583
 21
54.285365
 31
0.0
  0
LINE
  8
1
  6
CONTINUOUS
 62
   233
  5
242
 10
11.847292
 20
54.237865
 30
0.0
 11
11.847292
 21
54.285365
 31
0.0
  0
LINE
  8
1
  6
CONTINUOUS
 62
   233
  5
243
 10
11.748292
 20
54.237865
 30
0.0
 11
11.748292
 21
54.285365
 31
0.0
  0
LINE
  8
1
  6
CONTINUOUS
 62
   233
  5
244
 10
11.810708
 20
54.237865
 30
0.0
 11
11.810708
 21
54.285365
 31
0.0
  0
LINE
  8
2
  6
HIDDEN
 62
     2
  5
245
 10
11.833406
 20
53.085396
 30
0.0
 11
11.833406
 21
54.207635
 31
0.0
  0
LINE
  8
2
  6
HIDDEN
 62
     2
  5
246
 10
11.727479
 20
53.085396
 30
0.0
 11
11.727479
 21
54.207635
 31
0.0
  0
LINE
  8
1
  6
CONTINUOUS
 62
   233
  5
247
 10
11.754396
 20
54.207635
 30
0.0
 11
11.754396
 21
54.237865
 31
0.0
  0
LINE
  8
1
  6
CONTINUOUS
 62
   233
  5
248
 10
11.801885
 20
54.207635
 30
0.0
 11
11.801885
 21
54.237865
 31
0.0
  0
LINE
  8
5
  6
CONTINUOUS
 62
   217
  5
249
 10
11.752177
 20
53.01949
 30
0.0
 11
9.952271
 21
53.01949
 31
0.0
  0
LINE
  8
1
  6
CONTINUOUS
 62
   233
  5
24A
 10
13.637792
 20
53.228771
 30
0.0
 11
13.637792
 21
53.03576
 31
0.0
  0
LINE
  8
1
  6
CONTINUOUS
 62
   233
  5
24B
 10
13.637792
 20
53.03576
 30
0.0
 11
13.596323
 21
53.001167
 31
0.0
  0
LINE
  8
1
  6
CONTINUOUS
 62
   233
  5
24C
 10
13.596323
 20
53.001167
 30
0.0
 11
13.66651
 21
52.924187
 31
0.0
  0
LINE
  8
1
  6
CONTINUOUS
 62
   233
  5
24D
 10
13.66651
 20
52.924187
 30
0.0
 11
13.636729
 21
52.894062
 31
0.0
  0
LINE
  8
1
  6
CONTINUOUS
 62
   233
  5
24E
 10
13.636729
 20
52.894062
 30
0.0
 11
13.636729
 21
52.702781
 31
0.0
  0
LINE
  8
1
  6
CONTINUOUS
 62
   233
  5
24F
 10
13.449542
 20
52.894062
 30
0.0
 11
13.449542
 21
52.702781
 31
0.0
  0
LINE
  8
1
  6
CONTINUOUS
 62
   233
  5
250
 10
13.479323
 20
52.924187
 30
0.0
 11
13.449542
 21
52.894062
 31
0.0
  0
LINE
  8
1
  6
CONTINUOUS
 62
   233
  5
251
 10
13.409125
 20
53.001167
 30
0.0
 11
13.479323
 21
52.924187
 31
0.0
  0
LINE
  8
1
  6
CONTINUOUS
 62
   233
  5
252
 10
13.450604
 20
53.03576
 30
0.0
 11
13.409125
 21
53.001167
 31
0.0
  0
LINE
  8
1
  6
CONTINUOUS
 62
   233
  5
253
 10
13.450604
 20
53.228771
 30
0.0
 11
13.450604
 21
53.03576
 31
0.0
  0
LINE
  8
1
  6
CONTINUOUS
 62
   233
  5
254
 10
12.220396
 20
52.865365
 30
0.0
 11
12.220396
 21
53.085396
 31
0.0
  0
LINE
  8
1
  6
CONTINUOUS
 62
   233
  5
255
 10
15.437458
 20
53.11924
 30
0.0
 11
15.437458
 21
53.06774
 31
0.0
  0
LINE
  8
1
  6
CONTINUOUS
 62
   233
  5
256
 10
15.428635
 20
53.06774
 30
0.0
 11
15.428635
 21
53.033448
 31
0.0
  0
LINE
  8
1
  6
CONTINUOUS
 62
   233
  5
257
 10
15.491052
 20
53.06774
 30
0.0
 11
15.491052
 21
53.033448
 31
0.0
  0
LINE
  8
1
  6
CONTINUOUS
 62
   233
  5
258
 10
15.375583
 20
53.11924
 30
0.0
 11
15.375583
 21
53.06774
 31
0.0
  0
LINE
  8
1
  6
CONTINUOUS
 62
   233
  5
259
 10
15.548458
 20
53.11924
 30
0.0
 11
15.548458
 21
53.06774
 31
0.0
  0
LINE
  8
1
  6
CONTINUOUS
 62
   233
  5
25A
 10
15.491052
 20
53.033448
 30
0.0
 11
15.428635
 21
53.033448
 31
0.0
  0
LINE
  8
1
  6
CONTINUOUS
 62
   233
  5
25B
 10
15.484937
 20
53.11924
 30
0.0
 11
15.484937
 21
53.06774
 31
0.0
  0
LINE
  8
1
  6
CONTINUOUS
 62
   233
  5
25C
 10
15.548458
 20
53.06774
 30
0.0
 11
15.375583
 21
53.06774
 31
0.0
  0
LINE
  8
1
  6
CONTINUOUS
 62
   233
  5
25D
 10
15.270646
 20
53.11924
 30
0.0
 11
15.270646
 21
54.263583
 31
0.0
  0
LINE
  8
1
  6
CONTINUOUS
 62
   233
  5
25E
 10
15.646323
 20
53.11924
 30
0.0
 11
15.646323
 21
54.263583
 31
0.0
  0
LINE
  8
2
  6
HIDDEN
 62
     2
  5
25F
 10
15.424969
 20
53.11924
 30
0.0
 11
15.424969
 21
54.263583
 31
0.0
  0
LINE
  8
2
  6
HIDDEN
 62
     2
  5
260
 10
15.494948
 20
53.11924
 30
0.0
 11
15.494948
 21
54.263583
 31
0.0
  0
LINE
  8
1
  6
CONTINUOUS
 62
   233
  5
261
 10
15.270646
 20
54.263583
 30
0.0
 11
15.646323
 21
54.263583
 31
0.0
  0
LINE
  8
1
  6
CONTINUOUS
 62
   233
  5
262
 10
15.270646
 20
53.650406
 30
0.0
 11
15.646323
 21
53.650406
 31
0.0
  0
LINE
  8
1
  6
CONTINUOUS
 62
   233
  5
263
 10
15.367344
 20
54.293813
 30
0.0
 11
15.540229
 21
54.293813
 31
0.0
  0
LINE
  8
1
  6
CONTINUOUS
 62
   233
  5
264
 10
15.392042
 20
54.341313
 30
0.0
 11
15.52376
 21
54.341313
 31
0.0
  0
LINE
  8
1
  6
CONTINUOUS
 62
   233
  5
265
 10
15.367344
 20
54.263583
 30
0.0
 11
15.367344
 21
54.293813
 31
0.0
  0
LINE
  8
1
  6
CONTINUOUS
 62
   233
  5
266
 10
15.540229
 20
54.263583
 30
0.0
 11
15.540229
 21
54.293813
 31
0.0
  0
LINE
  8
1
  6
CONTINUOUS
 62
   233
  5
267
 10
15.412625
 20
54.401771
 30
0.0
 11
15.50101
 21
54.401771
 31
0.0
  0
LINE
  8
1
  6
CONTINUOUS
 62
   233
  5
268
 10
15.50101
 20
54.341313
 30
0.0
 11
15.50101
 21
54.401771
 31
0.0
  0
LINE
  8
1
  6
CONTINUOUS
 62
   233
  5
269
 10
15.412625
 20
54.341313
 30
0.0
 11
15.412625
 21
54.401771
 31
0.0
  0
LINE
  8
1
  6
CONTINUOUS
 62
   233
  5
26A
 10
15.392042
 20
54.293813
 30
0.0
 11
15.392042
 21
54.341313
 31
0.0
  0
LINE
  8
1
  6
CONTINUOUS
 62
   233
  5
26B
 10
15.52376
 20
54.293813
 30
0.0
 11
15.52376
 21
54.341313
 31
0.0
  0
LINE
  8
1
  6
CONTINUOUS
 62
   233
  5
26C
 10
15.42476
 20
54.293813
 30
0.0
 11
15.42476
 21
54.341313
 31
0.0
  0
LINE
  8
1
  6
CONTINUOUS
 62
   233
  5
26D
 10
15.487167
 20
54.293813
 30
0.0
 11
15.487167
 21
54.341313
 31
0.0
  0
LINE
  8
2
  6
HIDDEN
 62
     2
  5
26E
 10
15.509875
 20
53.11924
 30
0.0
 11
15.509875
 21
54.263583
 31
0.0
  0
LINE
  8
2
  6
HIDDEN
 62
     2
  5
26F
 10
15.403938
 20
53.11924
 30
0.0
 11
15.403938
 21
54.263583
 31
0.0
  0
LINE
  8
1
  6
CONTINUOUS
 62
   233
  5
270
 10
15.430854
 20
54.263583
 30
0.0
 11
15.430854
 21
54.293813
 31
0.0
  0
LINE
  8
1
  6
CONTINUOUS
 62
   233
  5
271
 10
15.478354
 20
54.263583
 30
0.0
 11
15.478354
 21
54.293813
 31
0.0
  0
LINE
  8
1
  6
CONTINUOUS
 62
   233
  5
272
 10
13.636729
 20
52.865365
 30
0.0
 11
16.47199
 21
52.865365
 31
0.0
  0
LINE
  8
5
  6
CONTINUOUS
 62
   217
  5
273
 10
13.636729
 20
52.870219
 30
0.0
 11
16.47199
 21
52.870219
 31
0.0
  0
LINE
  8
5
  6
CONTINUOUS
 62
   217
  5
274
 10
13.636729
 20
52.878719
 30
0.0
 11
16.47199
 21
52.878719
 31
0.0
  0
LINE
  8
5
  6
CONTINUOUS
 62
   217
  5
275
 10
13.636729
 20
52.887219
 30
0.0
 11
16.47199
 21
52.887219
 31
0.0
  0
LINE
  8
5
  6
CONTINUOUS
 62
   217
  5
276
 10
13.638365
 20
52.895719
 30
0.0
 11
16.47199
 21
52.895719
 31
0.0
  0
LINE
  8
5
  6
CONTINUOUS
 62
   217
  5
277
 10
13.646771
 20
52.904219
 30
0.0
 11
16.47199
 21
52.904219
 31
0.0
  0
LINE
  8
5
  6
CONTINUOUS
 62
   217
  5
278
 10
19.85451
 20
53.0025
 30
0.0
 11
18.3105
 21
53.0025
 31
0.0
  0
LINE
  8
5
  6
CONTINUOUS
 62
   217
  5
279
 10
19.855719
 20
52.960938
 30
0.0
 11
18.308885
 21
52.960938
 31
0.0
  0
LINE
  8
5
  6
CONTINUOUS
 62
   217
  5
27A
 10
19.845021
 20
52.933219
 30
0.0
 11
16.996844
 21
52.933219
 31
0.0
  0
LINE
  8
1
  6
CONTINUOUS
 62
   233
  5
27B
 10
15.016083
 20
52.865365
 30
0.0
 11
15.016083
 21
53.11924
 31
0.0
  0
LINE
  8
1
  6
CONTINUOUS
 62
   233
  5
27C
 10
15.937438
 20
52.865365
 30
0.0
 11
15.937438
 21
53.11924
 31
0.0
  0
LINE
  8
1
  6
CONTINUOUS
 62
   233
  5
27D
 10
16.982844
 20
53.252688
 30
0.0
 11
16.982844
 21
53.059677
 31
0.0
  0
LINE
  8
1
  6
CONTINUOUS
 62
   233
  5
27E
 10
16.982844
 20
53.059677
 30
0.0
 11
16.941365
 21
53.025094
 31
0.0
  0
LINE
  8
1
  6
CONTINUOUS
 62
   233
  5
27F
 10
16.941365
 20
53.025094
 30
0.0
 11
17.011563
 21
52.948104
 31
0.0
  0
LINE
  8
1
  6
CONTINUOUS
 62
   233
  5
280
 10
17.011563
 20
52.948104
 30
0.0
 11
16.981781
 21
52.917979
 31
0.0
  0
LINE
  8
1
  6
CONTINUOUS
 62
   233
  5
281
 10
16.981781
 20
52.917979
 30
0.0
 11
16.981781
 21
52.726708
 31
0.0
  0
LINE
  8
1
  6
CONTINUOUS
 62
   233
  5
282
 10
16.47199
 20
52.934969
 30
0.0
 11
16.47199
 21
52.743698
 31
0.0
  0
LINE
  8
1
  6
CONTINUOUS
 62
   233
  5
283
 10
16.431583
 20
53.042083
 30
0.0
 11
16.501781
 21
52.965094
 31
0.0
  0
LINE
  8
1
  6
CONTINUOUS
 62
   233
  5
284
 10
16.473052
 20
53.076667
 30
0.0
 11
16.431583
 21
53.042083
 31
0.0
  0
LINE
  8
1
  6
CONTINUOUS
 62
   233
  5
285
 10
16.473052
 20
53.269677
 30
0.0
 11
16.473052
 21
53.076667
 31
0.0
  0
LINE
  8
1
  6
CONTINUOUS
 62
   233
  5
286
 10
13.637792
 20
53.11924
 30
0.0
 11
16.453083
 21
53.11924
 31
0.0
  0
CIRCLE
  8
1
  6
CONTINUOUS
 62
   233
  5
287
 10
15.192637
 20
53.000094
 30
0.0
 40
0.041344
210
0.0
220
0.0
230
1.0
  0
CIRCLE
  8
1
  6
CONTINUOUS
 62
   233
  5
288
 10
15.759888
 20
53.000094
 30
0.0
 40
0.041344
210
0.0
220
0.0
230
1.0
  0
LINE
  8
5
  6
CONTINUOUS
 62
   217
  5
289
 10
15.723375
 20
53.01949
 30
0.0
 11
15.229156
 21
53.01949
 31
0.0
  0
LINE
  8
5
  6
CONTINUOUS
 62
   217
  5
28A
 10
15.72499
 20
52.977927
 30
0.0
 11
15.227542
 21
52.977927
 31
0.0
  0
LINE
  8
5
  6
CONTINUOUS
 62
   217
  5
28B
 10
15.156135
 20
53.01949
 30
0.0
 11
13.618292
 21
53.01949
 31
0.0
  0
LINE
  8
5
  6
CONTINUOUS
 62
   217
  5
28C
 10
15.15774
 20
52.977927
 30
0.0
 11
13.617521
 21
52.977927
 31
0.0
  0
LINE
  8
5
  6
CONTINUOUS
 62
   217
  5
28D
 10
13.721813
 20
53.053312
 30
0.0
 11
15.317062
 21
53.053312
 31
0.0
  0
LINE
  8
5
  6
CONTINUOUS
 62
   217
  5
28E
 10
15.597438
 20
53.073604
 30
0.0
 11
16.469385
 21
53.073604
 31
0.0
  0
LINE
  8
1
  6
CONTINUOUS
 62
   233
  5
28F
 10
17.992448
 20
54.246594
 30
0.0
 11
17.992448
 21
54.276823
 31
0.0
  0
LINE
  8
1
  6
CONTINUOUS
 62
   233
  5
290
 10
17.944969
 20
54.246594
 30
0.0
 11
17.944969
 21
54.276823
 31
0.0
  0
LINE
  8
2
  6
HIDDEN
 62
     2
  5
291
 10
17.918052
 20
53.10225
 30
0.0
 11
17.918052
 21
54.246594
 31
0.0
  0
LINE
  8
2
  6
HIDDEN
 62
     2
  5
292
 10
18.023969
 20
53.10225
 30
0.0
 11
18.023969
 21
54.246594
 31
0.0
  0
LINE
  8
1
  6
CONTINUOUS
 62
   233
  5
293
 10
18.001271
 20
54.276823
 30
0.0
 11
18.001271
 21
54.324323
 31
0.0
  0
LINE
  8
1
  6
CONTINUOUS
 62
   233
  5
294
 10
17.938854
 20
54.276823
 30
0.0
 11
17.938854
 21
54.324323
 31
0.0
  0
LINE
  8
1
  6
CONTINUOUS
 62
   233
  5
295
 10
18.037865
 20
54.276823
 30
0.0
 11
18.037865
 21
54.324323
 31
0.0
  0
LINE
  8
1
  6
CONTINUOUS
 62
   233
  5
296
 10
17.906146
 20
54.276823
 30
0.0
 11
17.906146
 21
54.324323
 31
0.0
  0
LINE
  8
1
  6
CONTINUOUS
 62
   233
  5
297
 10
17.926729
 20
54.324323
 30
0.0
 11
17.926729
 21
54.384781
 31
0.0
  0
LINE
  8
1
  6
CONTINUOUS
 62
   233
  5
298
 10
18.015104
 20
54.324323
 30
0.0
 11
18.015104
 21
54.384781
 31
0.0
  0
LINE
  8
1
  6
CONTINUOUS
 62
   233
  5
299
 10
17.926729
 20
54.384781
 30
0.0
 11
18.015104
 21
54.384781
 31
0.0
  0
LINE
  8
1
  6
CONTINUOUS
 62
   233
  5
29A
 10
18.054323
 20
54.246594
 30
0.0
 11
18.054323
 21
54.276823
 31
0.0
  0
LINE
  8
1
  6
CONTINUOUS
 62
   233
  5
29B
 10
17.881458
 20
54.246594
 30
0.0
 11
17.881458
 21
54.276823
 31
0.0
  0
LINE
  8
1
  6
CONTINUOUS
 62
   233
  5
29C
 10
17.906146
 20
54.324323
 30
0.0
 11
18.037865
 21
54.324323
 31
0.0
  0
LINE
  8
1
  6
CONTINUOUS
 62
   233
  5
29D
 10
17.881458
 20
54.276823
 30
0.0
 11
18.054323
 21
54.276823
 31
0.0
  0
LINE
  8
1
  6
CONTINUOUS
 62
   233
  5
29E
 10
17.78475
 20
53.633417
 30
0.0
 11
18.160427
 21
53.633417
 31
0.0
  0
LINE
  8
1
  6
CONTINUOUS
 62
   233
  5
29F
 10
17.78475
 20
54.246594
 30
0.0
 11
18.160427
 21
54.246594
 31
0.0
  0
LINE
  8
2
  6
HIDDEN
 62
     2
  5
2A0
 10
18.009052
 20
53.10225
 30
0.0
 11
18.009052
 21
54.246594
 31
0.0
  0
LINE
  8
2
  6
HIDDEN
 62
     2
  5
2A1
 10
17.939073
 20
53.10225
 30
0.0
 11
17.939073
 21
54.246594
 31
0.0
  0
LINE
  8
1
  6
CONTINUOUS
 62
   233
  5
2A2
 10
18.160427
 20
53.10225
 30
0.0
 11
18.160427
 21
54.246594
 31
0.0
  0
LINE
  8
1
  6
CONTINUOUS
 62
   233
  5
2A3
 10
17.78475
 20
53.10225
 30
0.0
 11
17.78475
 21
54.246594
 31
0.0
  0
LINE
  8
1
  6
CONTINUOUS
 62
   233
  5
2A4
 10
18.062552
 20
53.05075
 30
0.0
 11
17.889677
 21
53.05075
 31
0.0
  0
LINE
  8
1
  6
CONTINUOUS
 62
   233
  5
2A5
 10
17.999042
 20
53.10225
 30
0.0
 11
17.999042
 21
53.05075
 31
0.0
  0
LINE
  8
1
  6
CONTINUOUS
 62
   233
  5
2A6
 10
18.005156
 20
53.016458
 30
0.0
 11
17.942729
 21
53.016458
 31
0.0
  0
LINE
  8
1
  6
CONTINUOUS
 62
   233
  5
2A7
 10
18.062552
 20
53.10225
 30
0.0
 11
18.062552
 21
53.05075
 31
0.0
  0
LINE
  8
1
  6
CONTINUOUS
 62
   233
  5
2A8
 10
17.889677
 20
53.10225
 30
0.0
 11
17.889677
 21
53.05075
 31
0.0
  0
LINE
  8
1
  6
CONTINUOUS
 62
   233
  5
2A9
 10
18.005156
 20
53.05075
 30
0.0
 11
18.005156
 21
53.016458
 31
0.0
  0
LINE
  8
1
  6
CONTINUOUS
 62
   233
  5
2AA
 10
17.942729
 20
53.05075
 30
0.0
 11
17.942729
 21
53.016458
 31
0.0
  0
LINE
  8
1
  6
CONTINUOUS
 62
   233
  5
2AB
 10
17.951552
 20
53.10225
 30
0.0
 11
17.951552
 21
53.05075
 31
0.0
  0
CIRCLE
  8
1
  6
CONTINUOUS
 62
   233
  5
2AC
 10
18.273985
 20
52.983104
 30
0.0
 40
0.041344
210
0.0
220
0.0
230
1.0
  0
CIRCLE
  8
1
  6
CONTINUOUS
 62
   233
  5
2AD
 10
17.706743
 20
52.983104
 30
0.0
 40
0.041344
210
0.0
220
0.0
230
1.0
  0
LINE
  8
1
  6
CONTINUOUS
 62
   233
  5
2AE
 10
19.846083
 20
53.10225
 30
0.0
 11
16.982844
 21
53.10225
 31
0.0
  0
LINE
  8
5
  6
CONTINUOUS
 62
   217
  5
2AF
 10
16.452177
 20
53.01949
 30
0.0
 11
15.796396
 21
53.01949
 31
0.0
  0
LINE
  8
5
  6
CONTINUOUS
 62
   217
  5
2B0
 10
16.490083
 20
52.977927
 30
0.0
 11
15.794781
 21
52.977927
 31
0.0
  0
LINE
  8
5
  6
CONTINUOUS
 62
   217
  5
2B1
 10
16.981781
 20
52.887229
 30
0.0
 11
19.845021
 21
52.887229
 31
0.0
  0
LINE
  8
5
  6
CONTINUOUS
 62
   217
  5
2B2
 10
16.981781
 20
52.878729
 30
0.0
 11
19.845021
 21
52.878729
 31
0.0
  0
LINE
  8
5
  6
CONTINUOUS
 62
   217
  5
2B3
 10
16.981781
 20
52.870229
 30
0.0
 11
19.845021
 21
52.870229
 31
0.0
  0
LINE
  8
5
  6
CONTINUOUS
 62
   217
  5
2B4
 10
16.981781
 20
52.861729
 30
0.0
 11
19.845021
 21
52.861729
 31
0.0
  0
LINE
  8
5
  6
CONTINUOUS
 62
   217
  5
2B5
 10
16.981781
 20
52.853229
 30
0.0
 11
19.845021
 21
52.853229
 31
0.0
  0
LINE
  8
1
  6
CONTINUOUS
 62
   233
  5
2B6
 10
16.981781
 20
52.848375
 30
0.0
 11
19.845021
 21
52.848375
 31
0.0
  0
LINE
  8
1
  6
CONTINUOUS
 62
   233
  5
2B7
 10
16.501781
 20
52.965094
 30
0.0
 11
16.47199
 21
52.934969
 31
0.0
  0
LINE
  8
5
  6
CONTINUOUS
 62
   217
  5
2B8
 10
17.061656
 20
53.045042
 30
0.0
 11
17.942729
 21
53.045042
 31
0.0
  0
LINE
  8
1
  6
CONTINUOUS
 62
   233
  5
2B9
 10
17.536313
 20
52.848375
 30
0.0
 11
17.536313
 21
53.10225
 31
0.0
  0
LINE
  8
1
  6
CONTINUOUS
 62
   233
  5
2BA
 10
18.439687
 20
52.848375
 30
0.0
 11
18.439687
 21
53.10225
 31
0.0
  0
LINE
  8
1
  6
CONTINUOUS
 62
   233
  5
2BB
 10
19.846083
 20
53.284823
 30
0.0
 11
19.846083
 21
53.091802
 31
0.0
  0
LINE
  8
1
  6
CONTINUOUS
 62
   233
  5
2BC
 10
19.846083
 20
53.091802
 30
0.0
 11
19.804615
 21
53.057219
 31
0.0
  0
LINE
  8
1
  6
CONTINUOUS
 62
   233
  5
2BD
 10
19.804615
 20
53.057219
 30
0.0
 11
19.874813
 21
52.98024
 31
0.0
  0
LINE
  8
1
  6
CONTINUOUS
 62
   233
  5
2BE
 10
19.845021
 20
52.950115
 30
0.0
 11
19.845021
 21
52.758833
 31
0.0
  0
LINE
  8
1
  6
CONTINUOUS
 62
   233
  5
2BF
 10
19.874813
 20
52.98024
 30
0.0
 11
19.845021
 21
52.950115
 31
0.0
  0
LINE
  8
5
  6
CONTINUOUS
 62
   217
  5
2C0
 10
17.67024
 20
53.0025
 30
0.0
 11
16.961969
 21
53.0025
 31
0.0
  0
LINE
  8
5
  6
CONTINUOUS
 62
   217
  5
2C1
 10
17.671854
 20
52.960938
 30
0.0
 11
16.999865
 21
52.960938
 31
0.0
  0
LINE
  8
5
  6
CONTINUOUS
 62
   217
  5
2C2
 10
18.237479
 20
53.0025
 30
0.0
 11
17.74326
 21
53.0025
 31
0.0
  0
LINE
  8
5
  6
CONTINUOUS
 62
   217
  5
2C3
 10
18.239094
 20
52.960938
 30
0.0
 11
17.741635
 21
52.960938
 31
0.0
  0
LINE
  8
5
  6
CONTINUOUS
 62
   217
  5
2C4
 10
18.005156
 20
53.045042
 30
0.0
 11
19.815708
 21
53.045042
 31
0.0
  0
LINE
  8
1
  6
CONTINUOUS
 62
   233
  5
2C5
 10
19.975281
 20
53.057302
 30
0.0
 11
20.005052
 21
53.087438
 31
0.0
  0
LINE
  8
1
  6
CONTINUOUS
 62
   233
  5
2C6
 10
20.005052
 20
53.087438
 30
0.0
 11
20.005052
 21
53.278708
 31
0.0
  0
LINE
  8
1
  6
CONTINUOUS
 62
   233
  5
2C7
 10
20.045479
 20
52.980323
 30
0.0
 11
19.975281
 21
53.057302
 31
0.0
  0
LINE
  8
1
  6
CONTINUOUS
 62
   233
  5
2C8
 10
20.00399
 20
52.94574
 30
0.0
 11
20.045479
 21
52.980323
 31
0.0
  0
LINE
  8
1
  6
CONTINUOUS
 62
   233
  5
2C9
 10
20.00399
 20
52.752719
 30
0.0
 11
20.00399
 21
52.94574
 31
0.0
  0
LINE
  8
5
  6
CONTINUOUS
 62
   217
  5
2CA
 10
21.648771
 20
53.045042
 30
0.0
 11
22.254771
 21
53.045042
 31
0.0
  0
LINE
  8
5
  6
CONTINUOUS
 62
   217
  5
2CB
 10
21.882719
 20
52.960938
 30
0.0
 11
21.38526
 21
52.960938
 31
0.0
  0
LINE
  8
5
  6
CONTINUOUS
 62
   217
  5
2CC
 10
21.881094
 20
53.0025
 30
0.0
 11
21.386885
 21
53.0025
 31
0.0
  0
LINE
  8
5
  6
CONTINUOUS
 62
   217
  5
2CD
 10
21.315469
 20
52.960938
 30
0.0
 11
20.022219
 21
52.960938
 31
0.0
  0
LINE
  8
5
  6
CONTINUOUS
 62
   217
  5
2CE
 10
21.313854
 20
53.0025
 30
0.0
 11
20.02525
 21
53.0025
 31
0.0
  0
LINE
  8
1
  6
CONTINUOUS
 62
   233
  5
2CF
 10
22.083312
 20
52.848375
 30
0.0
 11
22.083312
 21
53.10225
 31
0.0
  0
LINE
  8
1
  6
CONTINUOUS
 62
   233
  5
2D0
 10
21.179927
 20
52.848375
 30
0.0
 11
21.179927
 21
53.10225
 31
0.0
  0
LINE
  8
5
  6
CONTINUOUS
 62
   217
  5
2D1
 10
19.986448
 20
53.045042
 30
0.0
 11
21.586354
 21
53.045042
 31
0.0
  0
LINE
  8
1
  6
CONTINUOUS
 62
   233
  5
2D2
 10
20.00399
 20
52.848375
 30
0.0
 11
22.779406
 21
52.848375
 31
0.0
  0
LINE
  8
5
  6
CONTINUOUS
 62
   217
  5
2D3
 10
20.00399
 20
52.853229
 30
0.0
 11
22.727698
 21
52.853229
 31
0.0
  0
LINE
  8
5
  6
CONTINUOUS
 62
   217
  5
2D4
 10
20.00399
 20
52.861729
 30
0.0
 11
22.727698
 21
52.861729
 31
0.0
  0
LINE
  8
5
  6
CONTINUOUS
 62
   217
  5
2D5
 10
20.00399
 20
52.870229
 30
0.0
 11
22.727698
 21
52.870229
 31
0.0
  0
LINE
  8
5
  6
CONTINUOUS
 62
   217
  5
2D6
 10
20.00399
 20
52.878729
 30
0.0
 11
22.727698
 21
52.878729
 31
0.0
  0
LINE
  8
5
  6
CONTINUOUS
 62
   217
  5
2D7
 10
20.00399
 20
52.887229
 30
0.0
 11
22.727698
 21
52.887229
 31
0.0
  0
LINE
  8
1
  6
CONTINUOUS
 62
   233
  5
2D8
 10
22.083312
 20
53.10225
 30
0.0
 11
20.005052
 21
53.10225
 31
0.0
  0
CIRCLE
  8
1
  6
CONTINUOUS
 62
   233
  5
2D9
 10
21.350366
 20
52.983104
 30
0.0
 40
0.041344
210
0.0
220
0.0
230
1.0
  0
CIRCLE
  8
1
  6
CONTINUOUS
 62
   233
  5
2DA
 10
21.917608
 20
52.983104
 30
0.0
 40
0.041344
210
0.0
220
0.0
230
1.0
  0
LINE
  8
1
  6
CONTINUOUS
 62
   233
  5
2DB
 10
21.595177
 20
53.10225
 30
0.0
 11
21.595177
 21
53.05075
 31
0.0
  0
LINE
  8
1
  6
CONTINUOUS
 62
   233
  5
2DC
 10
21.586354
 20
53.05075
 30
0.0
 11
21.586354
 21
53.016458
 31
0.0
  0
LINE
  8
1
  6
CONTINUOUS
 62
   233
  5
2DD
 10
21.648771
 20
53.05075
 30
0.0
 11
21.648771
 21
53.016458
 31
0.0
  0
LINE
  8
1
  6
CONTINUOUS
 62
   233
  5
2DE
 10
21.533302
 20
53.10225
 30
0.0
 11
21.533302
 21
53.05075
 31
0.0
  0
LINE
  8
1
  6
CONTINUOUS
 62
   233
  5
2DF
 10
21.706177
 20
53.10225
 30
0.0
 11
21.706177
 21
53.05075
 31
0.0
  0
LINE
  8
1
  6
CONTINUOUS
 62
   233
  5
2E0
 10
21.648771
 20
53.016458
 30
0.0
 11
21.586354
 21
53.016458
 31
0.0
  0
LINE
  8
1
  6
CONTINUOUS
 62
   233
  5
2E1
 10
21.642667
 20
53.10225
 30
0.0
 11
21.642667
 21
53.05075
 31
0.0
  0
LINE
  8
1
  6
CONTINUOUS
 62
   233
  5
2E2
 10
21.706177
 20
53.05075
 30
0.0
 11
21.533302
 21
53.05075
 31
0.0
  0
LINE
  8
1
  6
CONTINUOUS
 62
   233
  5
2E3
 10
21.428375
 20
53.10225
 30
0.0
 11
21.428375
 21
54.246594
 31
0.0
  0
LINE
  8
1
  6
CONTINUOUS
 62
   233
  5
2E4
 10
21.804042
 20
53.10225
 30
0.0
 11
21.804042
 21
54.246594
 31
0.0
  0
LINE
  8
2
  6
HIDDEN
 62
     2
  5
2E5
 10
21.582698
 20
53.10225
 30
0.0
 11
21.582698
 21
54.246594
 31
0.0
  0
LINE
  8
2
  6
HIDDEN
 62
     2
  5
2E6
 10
21.652677
 20
53.10225
 30
0.0
 11
21.652677
 21
54.246594
 31
0.0
  0
LINE
  8
1
  6
CONTINUOUS
 62
   233
  5
2E7
 10
21.428375
 20
54.246594
 30
0.0
 11
21.804042
 21
54.246594
 31
0.0
  0
LINE
  8
1
  6
CONTINUOUS
 62
   233
  5
2E8
 10
21.428375
 20
53.633417
 30
0.0
 11
21.804042
 21
53.633417
 31
0.0
  0
LINE
  8
1
  6
CONTINUOUS
 62
   233
  5
2E9
 10
21.525073
 20
54.276823
 30
0.0
 11
21.697948
 21
54.276823
 31
0.0
  0
LINE
  8
1
  6
CONTINUOUS
 62
   233
  5
2EA
 10
21.549771
 20
54.324323
 30
0.0
 11
21.68149
 21
54.324323
 31
0.0
  0
LINE
  8
1
  6
CONTINUOUS
 62
   233
  5
2EB
 10
21.525073
 20
54.246594
 30
0.0
 11
21.525073
 21
54.276823
 31
0.0
  0
LINE
  8
1
  6
CONTINUOUS
 62
   233
  5
2EC
 10
21.697948
 20
54.246594
 30
0.0
 11
21.697948
 21
54.276823
 31
0.0
  0
LINE
  8
1
  6
CONTINUOUS
 62
   233
  5
2ED
 10
21.570344
 20
54.384781
 30
0.0
 11
21.658729
 21
54.384781
 31
0.0
  0
LINE
  8
1
  6
CONTINUOUS
 62
   233
  5
2EE
 10
21.658729
 20
54.324323
 30
0.0
 11
21.658729
 21
54.384781
 31
0.0
  0
LINE
  8
1
  6
CONTINUOUS
 62
   233
  5
2EF
 10
21.570344
 20
54.324323
 30
0.0
 11
21.570344
 21
54.384781
 31
0.0
  0
LINE
  8
1
  6
CONTINUOUS
 62
   233
  5
2F0
 10
21.549771
 20
54.276823
 30
0.0
 11
21.549771
 21
54.324323
 31
0.0
  0
LINE
  8
1
  6
CONTINUOUS
 62
   233
  5
2F1
 10
21.68149
 20
54.276823
 30
0.0
 11
21.68149
 21
54.324323
 31
0.0
  0
LINE
  8
1
  6
CONTINUOUS
 62
   233
  5
2F2
 10
21.582479
 20
54.276823
 30
0.0
 11
21.582479
 21
54.324323
 31
0.0
  0
LINE
  8
1
  6
CONTINUOUS
 62
   233
  5
2F3
 10
21.644896
 20
54.276823
 30
0.0
 11
21.644896
 21
54.324323
 31
0.0
  0
LINE
  8
2
  6
HIDDEN
 62
     2
  5
2F4
 10
21.667594
 20
53.10225
 30
0.0
 11
21.667594
 21
54.246594
 31
0.0
  0
LINE
  8
2
  6
HIDDEN
 62
     2
  5
2F5
 10
21.561667
 20
53.10225
 30
0.0
 11
21.561667
 21
54.246594
 31
0.0
  0
LINE
  8
1
  6
CONTINUOUS
 62
   233
  5
2F6
 10
21.588583
 20
54.246594
 30
0.0
 11
21.588583
 21
54.276823
 31
0.0
  0
LINE
  8
1
  6
CONTINUOUS
 62
   233
  5
2F7
 10
21.636073
 20
54.246594
 30
0.0
 11
21.636073
 21
54.276823
 31
0.0
  0
LINE
  8
5
  6
CONTINUOUS
 62
   217
  5
2F8
 10
22.589875
 20
52.933219
 30
0.0
 11
20.00399
 21
52.933219
 31
0.0
  0
LINE
  8
5
  6
CONTINUOUS
 62
   217
  5
2F9
 10
22.506833
 20
52.960938
 30
0.0
 11
21.95251
 21
52.960938
 31
0.0
  0
LINE
  8
5
  6
CONTINUOUS
 62
   217
  5
2FA
 10
22.382271
 20
53.0025
 30
0.0
 11
21.954125
 21
53.0025
 31
0.0
  0
ARC
  8
1
  6
CONTINUOUS
 62
   233
  5
2FB
 10
22.80399
 20
53.168564
 30
0.0
 40
0.29413
 50
259.8834
 51
116.701189
210
0.0
220
0.0
230
1.0
  0
LINE
  8
1
  6
CONTINUOUS
 62
   233
  5
2FC
 10
22.659698
 20
53.455458
 30
0.0
 11
22.671823
 21
53.431333
 31
0.0
  0
ARC
  8
1
  6
CONTINUOUS
 62
   233
  5
2FD
 10
22.80399
 20
53.168564
 30
0.0
 40
0.321137
 50
265.610269
 51
116.701189
210
0.0
220
0.0
230
1.0
  0
LINE
  8
1
  6
CONTINUOUS
 62
   233
  5
2FE
 10
22.752323
 20
52.87901
 30
0.0
 11
22.083312
 21
53.10225
 31
0.0
  0
LINE
  8
1
  6
CONTINUOUS
 62
   150
  5
2FF
 10
12.023167
 20
48.246198
 30
0.0
 11
12.023167
 21
49.682479
 31
0.0
  0
LINE
  8
1
  6
CONTINUOUS
 62
   150
  5
300
 10
11.599521
 20
48.518052
 30
0.0
 11
11.599521
 21
49.682479
 31
0.0
  0
LINE
  8
1
  6
CONTINUOUS
 62
   150
  5
301
 10
11.599521
 20
48.518052
 30
0.0
 11
11.698646
 21
48.447063
 31
0.0
  0
LINE
  8
1
  6
CONTINUOUS
 62
   150
  5
302
 10
11.698646
 20
48.447063
 30
0.0
 11
11.738677
 21
48.480677
 31
0.0
  0
LINE
  8
1
  6
CONTINUOUS
 62
   150
  5
303
 10
11.738677
 20
48.480677
 30
0.0
 11
11.82275
 21
48.298615
 31
0.0
  0
LINE
  8
1
  6
CONTINUOUS
 62
   150
  5
304
 10
11.82275
 20
48.298615
 30
0.0
 11
11.869448
 21
48.337823
 31
0.0
  0
LINE
  8
1
  6
CONTINUOUS
 62
   150
  5
305
 10
11.869448
 20
48.337823
 30
0.0
 11
12.023167
 21
48.246198
 31
0.0
  0
LINE
  8
1
  6
CONTINUOUS
 62
   150
  5
306
 10
11.869448
 20
48.13476
 30
0.0
 11
12.023167
 21
48.043125
 31
0.0
  0
LINE
  8
1
  6
CONTINUOUS
 62
   150
  5
307
 10
11.82275
 20
48.095542
 30
0.0
 11
11.869448
 21
48.13476
 31
0.0
  0
LINE
  8
1
  6
CONTINUOUS
 62
   150
  5
308
 10
11.738677
 20
48.277604
 30
0.0
 11
11.82275
 21
48.095542
 31
0.0
  0
LINE
  8
1
  6
CONTINUOUS
 62
   150
  5
309
 10
11.698646
 20
48.24399
 30
0.0
 11
11.738677
 21
48.277604
 31
0.0
  0
LINE
  8
1
  6
CONTINUOUS
 62
   150
  5
30A
 10
11.599521
 20
48.314979
 30
0.0
 11
11.698646
 21
48.24399
 31
0.0
  0
LINE
  8
1
  6
CONTINUOUS
 62
   150
  5
30B
 10
12.023167
 20
47.633594
 30
0.0
 11
12.023167
 21
48.043125
 31
0.0
  0
LINE
  8
1
  6
CONTINUOUS
 62
   150
  5
30C
 10
11.599521
 20
47.633594
 30
0.0
 11
11.599521
 21
48.314979
 31
0.0
  0
LINE
  8
1
  6
CONTINUOUS
 62
   150
  5
30D
 10
11.599521
 20
47.633594
 30
0.0
 11
12.023167
 21
47.633594
 31
0.0
  0
CIRCLE
  8
1
  6
CONTINUOUS
 62
   150
  5
30E
 10
11.797719
 20
50.132291
 30
0.0
 40
0.03428
210
0.0
220
0.0
230
1.0
  0
LINE
  8
1
  6
CONTINUOUS
 62
   233
  5
30F
 10
11.699042
 20
50.179156
 30
0.0
 11
11.896406
 21
50.179156
 31
0.0
  0
LINE
  8
2
  6
HIDDEN
 62
     2
  5
310
 10
12.023167
 20
49.682479
 30
0.0
 11
12.023167
 21
50.569375
 31
0.0
  0
LINE
  8
2
  6
HIDDEN
 62
     2
  5
311
 10
11.599521
 20
49.682479
 30
0.0
 11
11.599521
 21
50.569375
 31
0.0
  0
LINE
  8
2
  6
CONTINUOUS
 62
     2
  5
312
 10
11.372208
 20
49.682479
 30
0.0
 11
11.372208
 21
50.569375
 31
0.0
  0
LINE
  8
1
  6
CONTINUOUS
 62
   150
  5
313
 10
11.599521
 20
50.634396
 30
0.0
 11
12.023167
 21
50.634396
 31
0.0
  0
LINE
  8
2
  6
HIDDEN
 62
     2
  5
314
 10
12.228187
 20
49.682479
 30
0.0
 11
12.228187
 21
50.569375
 31
0.0
  0
LINE
  8
1
  6
CONTINUOUS
 62
   150
  5
315
 10
9.764563
 20
50.569375
 30
0.0
 11
9.712542
 21
50.444635
 31
0.0
  0
LINE
  8
1
  6
CONTINUOUS
 62
   150
  5
316
 10
9.712542
 20
50.444635
 30
0.0
 11
9.640354
 21
50.368896
 31
0.0
  0
LINE
  8
1
  6
CONTINUOUS
 62
   150
  5
317
 10
9.640354
 20
50.368896
 30
0.0
 11
9.660979
 21
50.249875
 31
0.0
  0
LINE
  8
1
  6
CONTINUOUS
 62
   150
  5
318
 10
9.660979
 20
50.249875
 30
0.0
 11
9.691917
 21
50.120042
 31
0.0
  0
LINE
  8
1
  6
CONTINUOUS
 62
   150
  5
319
 10
9.691917
 20
50.120042
 30
0.0
 11
9.650667
 21
49.968562
 31
0.0
  0
LINE
  8
1
  6
CONTINUOUS
 62
   150
  5
31A
 10
9.650667
 20
49.968562
 30
0.0
 11
9.599104
 21
49.871187
 31
0.0
  0
LINE
  8
1
  6
CONTINUOUS
 62
   150
  5
31B
 10
9.599104
 20
49.871187
 30
0.0
 11
9.599104
 21
49.795448
 31
0.0
  0
LINE
  8
1
  6
CONTINUOUS
 62
   150
  5
31C
 10
9.599104
 20
49.795448
 30
0.0
 11
9.702229
 21
49.730531
 31
0.0
  0
LINE
  8
1
  6
CONTINUOUS
 62
   150
  5
31D
 10
9.702229
 20
49.730531
 30
0.0
 11
9.722583
 21
49.682479
 31
0.0
  0
LINE
  8
1
  6
CONTINUOUS
 62
   150
  5
31E
 10
9.918802
 20
49.719719
 30
0.0
 11
9.934573
 21
49.682479
 31
0.0
  0
LINE
  8
1
  6
CONTINUOUS
 62
   150
  5
31F
 10
9.815667
 20
49.784635
 30
0.0
 11
9.918802
 21
49.719719
 31
0.0
  0
LINE
  8
1
  6
CONTINUOUS
 62
   150
  5
320
 10
9.815667
 20
49.860375
 30
0.0
 11
9.815667
 21
49.784635
 31
0.0
  0
LINE
  8
1
  6
CONTINUOUS
 62
   150
  5
321
 10
9.86724
 20
49.95774
 30
0.0
 11
9.815667
 21
49.860375
 31
0.0
  0
LINE
  8
1
  6
CONTINUOUS
 62
   150
  5
322
 10
9.90849
 20
50.109219
 30
0.0
 11
9.86724
 21
49.95774
 31
0.0
  0
LINE
  8
1
  6
CONTINUOUS
 62
   150
  5
323
 10
9.877552
 20
50.239052
 30
0.0
 11
9.90849
 21
50.109219
 31
0.0
  0
LINE
  8
1
  6
CONTINUOUS
 62
   150
  5
324
 10
9.856927
 20
50.358073
 30
0.0
 11
9.877552
 21
50.239052
 31
0.0
  0
LINE
  8
1
  6
CONTINUOUS
 62
   150
  5
325
 10
9.929115
 20
50.433812
 30
0.0
 11
9.856927
 21
50.358073
 31
0.0
  0
LINE
  8
1
  6
CONTINUOUS
 62
   150
  5
326
 10
9.985656
 20
50.569375
 30
0.0
 11
9.929115
 21
50.433812
 31
0.0
  0
LINE
  8
5
  6
CONTINUOUS
 62
   150
  5
327
 10
8.557146
 20
49.682479
 30
0.0
 11
8.557146
 21
50.569375
 31
0.0
  0
LINE
  8
5
  6
CONTINUOUS
 62
   150
  5
328
 10
9.675229
 20
50.190083
 30
0.0
 11
8.830479
 21
50.190083
 31
0.0
  0
LINE
  8
5
  6
CONTINUOUS
 62
   150
  5
329
 10
8.830479
 20
50.190083
 30
0.0
 11
8.830479
 21
50.044385
 31
0.0
  0
LINE
  8
5
  6
CONTINUOUS
 62
   150
  5
32A
 10
8.830479
 20
50.044385
 30
0.0
 11
9.671312
 21
50.044385
 31
0.0
  0
LINE
  8
5
  6
CONTINUOUS
 62
   150
  5
32B
 10
8.830479
 20
50.044385
 30
0.0
 11
8.557146
 21
49.772781
 31
0.0
  0
LINE
  8
5
  6
CONTINUOUS
 62
   150
  5
32C
 10
8.830479
 20
50.190083
 30
0.0
 11
8.557146
 21
50.422406
 31
0.0
  0
LINE
  8
5
  6
CONTINUOUS
 62
   150
  5
32D
 10
9.689427
 20
50.420375
 30
0.0
 11
8.664687
 21
50.420375
 31
0.0
  0
LINE
  8
5
  6
CONTINUOUS
 62
   150
  5
32E
 10
9.642021
 20
50.359281
 30
0.0
 11
8.713969
 21
50.359281
 31
0.0
  0
LINE
  8
5
  6
CONTINUOUS
 62
   150
  5
32F
 10
9.651802
 20
50.302875
 30
0.0
 11
8.82151
 21
50.302875
 31
0.0
  0
LINE
  8
5
  6
CONTINUOUS
 62
   150
  5
330
 10
9.656688
 20
50.274687
 30
0.0
 11
8.830479
 21
50.274687
 31
0.0
  0
LINE
  8
5
  6
CONTINUOUS
 62
   150
  5
331
 10
8.727417
 20
49.997385
 30
0.0
 11
8.727417
 21
50.22299
 31
0.0
  0
LINE
  8
5
  6
CONTINUOUS
 62
   150
  5
332
 10
8.682615
 20
49.973885
 30
0.0
 11
8.682615
 21
50.279375
 31
0.0
  0
LINE
  8
5
  6
CONTINUOUS
 62
   150
  5
333
 10
8.642281
 20
49.912792
 30
0.0
 11
8.642281
 21
50.307573
 31
0.0
  0
LINE
  8
5
  6
CONTINUOUS
 62
   150
  5
334
 10
8.597479
 20
49.875187
 30
0.0
 11
8.597479
 21
50.345177
 31
0.0
  0
LINE
  8
5
  6
CONTINUOUS
 62
   150
  5
335
 10
9.644156
 20
49.767094
 30
0.0
 11
8.615396
 21
49.767094
 31
0.0
  0
LINE
  8
5
  6
CONTINUOUS
 62
   150
  5
336
 10
9.599354
 20
49.795292
 30
0.0
 11
8.628844
 21
49.795292
 31
0.0
  0
LINE
  8
5
  6
CONTINUOUS
 62
   150
  5
337
 10
9.599104
 20
49.851687
 30
0.0
 11
8.669167
 21
49.851687
 31
0.0
  0
LINE
  8
5
  6
CONTINUOUS
 62
   150
  5
338
 10
9.618635
 20
49.908083
 30
0.0
 11
8.758781
 21
49.908083
 31
0.0
  0
LINE
  8
5
  6
CONTINUOUS
 62
   150
  5
339
 10
9.641042
 20
49.950385
 30
0.0
 11
8.799104
 21
49.950385
 31
0.0
  0
LINE
  8
5
  6
CONTINUOUS
 62
   150
  5
33A
 10
8.821927
 20
50.035885
 30
0.0
 11
9.669
 21
50.035885
 31
0.0
  0
LINE
  8
5
  6
CONTINUOUS
 62
   150
  5
33B
 10
8.813365
 20
50.027385
 30
0.0
 11
9.666677
 21
50.027385
 31
0.0
  0
LINE
  8
5
  6
CONTINUOUS
 62
   150
  5
33C
 10
8.804812
 20
50.018885
 30
0.0
 11
9.664375
 21
50.018885
 31
0.0
  0
LINE
  8
5
  6
CONTINUOUS
 62
   150
  5
33D
 10
8.79625
 20
50.010385
 30
0.0
 11
9.662062
 21
50.010385
 31
0.0
  0
LINE
  8
5
  6
CONTINUOUS
 62
   150
  5
33E
 10
8.787698
 20
50.001885
 30
0.0
 11
9.65974
 21
50.001885
 31
0.0
  0
LINE
  8
5
  6
CONTINUOUS
 62
   150
  5
33F
 10
8.820344
 20
50.198687
 30
0.0
 11
9.673177
 21
50.198687
 31
0.0
  0
LINE
  8
5
  6
CONTINUOUS
 62
   150
  5
340
 10
8.810344
 20
50.207187
 30
0.0
 11
9.671156
 21
50.207187
 31
0.0
  0
LINE
  8
5
  6
CONTINUOUS
 62
   150
  5
341
 10
8.800344
 20
50.215688
 30
0.0
 11
9.669125
 21
50.215688
 31
0.0
  0
LINE
  8
5
  6
CONTINUOUS
 62
   150
  5
342
 10
8.790344
 20
50.224187
 30
0.0
 11
9.667094
 21
50.224187
 31
0.0
  0
LINE
  8
5
  6
CONTINUOUS
 62
   150
  5
343
 10
8.780344
 20
50.232687
 30
0.0
 11
9.665083
 21
50.232687
 31
0.0
  0
LINE
  8
5
  6
CONTINUOUS
 62
   150
  5
344
 10
8.821542
 20
50.197677
 30
0.0
 11
8.821542
 21
50.03551
 31
0.0
  0
LINE
  8
5
  6
CONTINUOUS
 62
   150
  5
345
 10
8.809625
 20
50.207802
 30
0.0
 11
8.809625
 21
50.023667
 31
0.0
  0
LINE
  8
5
  6
CONTINUOUS
 62
   217
  5
346
 10
8.566281
 20
50.561198
 30
0.0
 11
8.693781
 21
50.561198
 31
0.0
  0
LINE
  8
5
  6
CONTINUOUS
 62
   150
  5
347
 10
7.700781
 20
50.561198
 30
0.0
 11
9.761156
 21
50.561198
 31
0.0
  0
LINE
  8
5
  6
CONTINUOUS
 62
   150
  5
348
 10
7.700781
 20
50.552687
 30
0.0
 11
9.757604
 21
50.552687
 31
0.0
  0
LINE
  8
5
  6
CONTINUOUS
 62
   150
  5
349
 10
7.700781
 20
50.544198
 30
0.0
 11
9.754062
 21
50.544198
 31
0.0
  0
LINE
  8
5
  6
CONTINUOUS
 62
   150
  5
34A
 10
7.700781
 20
50.535698
 30
0.0
 11
9.750521
 21
50.535698
 31
0.0
  0
LINE
  8
5
  6
CONTINUOUS
 62
   150
  5
34B
 10
7.700781
 20
50.527198
 30
0.0
 11
9.746969
 21
50.527198
 31
0.0
  0
LINE
  8
5
  6
CONTINUOUS
 62
   150
  5
34C
 10
7.700781
 20
49.695885
 30
0.0
 11
9.716906
 21
49.695885
 31
0.0
  0
LINE
  8
5
  6
CONTINUOUS
 62
   150
  5
34D
 10
8.557146
 20
49.704385
 30
0.0
 11
9.713302
 21
49.704385
 31
0.0
  0
LINE
  8
5
  6
CONTINUOUS
 62
   150
  5
34E
 10
8.557146
 20
49.712885
 30
0.0
 11
9.709708
 21
49.712885
 31
0.0
  0
LINE
  8
5
  6
CONTINUOUS
 62
   150
  5
34F
 10
8.557146
 20
49.721385
 30
0.0
 11
9.706104
 21
49.721385
 31
0.0
  0
LINE
  8
5
  6
CONTINUOUS
 62
   150
  5
350
 10
8.557146
 20
49.729885
 30
0.0
 11
9.7025
 21
49.729885
 31
0.0
  0
LINE
  8
5
  6
CONTINUOUS
 62
   150
  5
351
 10
9.902635
 20
49.729885
 30
0.0
 11
11.186
 21
49.729885
 31
0.0
  0
LINE
  8
5
  6
CONTINUOUS
 62
   150
  5
352
 10
9.916135
 20
49.721385
 30
0.0
 11
13.387125
 21
49.721385
 31
0.0
  0
LINE
  8
5
  6
CONTINUOUS
 62
   150
  5
353
 10
9.921698
 20
49.712885
 30
0.0
 11
13.390719
 21
49.712885
 31
0.0
  0
LINE
  8
5
  6
CONTINUOUS
 62
   150
  5
354
 10
9.925292
 20
49.704385
 30
0.0
 11
13.394323
 21
49.704385
 31
0.0
  0
LINE
  8
5
  6
CONTINUOUS
 62
   150
  5
355
 10
9.928896
 20
49.695885
 30
0.0
 11
13.397927
 21
49.695885
 31
0.0
  0
LINE
  8
5
  6
CONTINUOUS
 62
   150
  5
356
 10
9.968063
 20
50.527198
 30
0.0
 11
13.427979
 21
50.527198
 31
0.0
  0
LINE
  8
5
  6
CONTINUOUS
 62
   150
  5
357
 10
9.971604
 20
50.535698
 30
0.0
 11
13.431531
 21
50.535698
 31
0.0
  0
LINE
  8
5
  6
CONTINUOUS
 62
   150
  5
358
 10
9.975156
 20
50.544198
 30
0.0
 11
13.435073
 21
50.544198
 31
0.0
  0
LINE
  8
5
  6
CONTINUOUS
 62
   150
  5
359
 10
9.978698
 20
50.552687
 30
0.0
 11
13.438615
 21
50.552687
 31
0.0
  0
LINE
  8
5
  6
CONTINUOUS
 62
   150
  5
35A
 10
9.98224
 20
50.561198
 30
0.0
 11
13.442167
 21
50.561198
 31
0.0
  0
LINE
  8
5
  6
CONTINUOUS
 62
   150
  5
35B
 10
9.879062
 20
50.232687
 30
0.0
 11
13.346094
 21
50.232687
 31
0.0
  0
LINE
  8
5
  6
CONTINUOUS
 62
   150
  5
35C
 10
10.273844
 20
50.224187
 30
0.0
 11
13.348115
 21
50.224187
 31
0.0
  0
LINE
  8
5
  6
CONTINUOUS
 62
   150
  5
35D
 10
9.883125
 20
50.215688
 30
0.0
 11
13.350135
 21
50.215688
 31
0.0
  0
LINE
  8
5
  6
CONTINUOUS
 62
   150
  5
35E
 10
9.885146
 20
50.207187
 30
0.0
 11
13.352167
 21
50.207187
 31
0.0
  0
LINE
  8
5
  6
CONTINUOUS
 62
   150
  5
35F
 10
9.887167
 20
50.198687
 30
0.0
 11
13.354198
 21
50.198687
 31
0.0
  0
LINE
  8
5
  6
CONTINUOUS
 62
   150
  5
360
 10
9.87926
 20
50.001885
 30
0.0
 11
13.34075
 21
50.001885
 31
0.0
  0
LINE
  8
5
  6
CONTINUOUS
 62
   150
  5
361
 10
9.881573
 20
50.010385
 30
0.0
 11
13.343073
 21
50.010385
 31
0.0
  0
LINE
  8
5
  6
CONTINUOUS
 62
   150
  5
362
 10
9.883896
 20
50.018885
 30
0.0
 11
13.345385
 21
50.018885
 31
0.0
  0
LINE
  8
5
  6
CONTINUOUS
 62
   150
  5
363
 10
9.886198
 20
50.027385
 30
0.0
 11
13.347698
 21
50.027385
 31
0.0
  0
LINE
  8
5
  6
CONTINUOUS
 62
   150
  5
364
 10
9.888521
 20
50.035885
 30
0.0
 11
13.35001
 21
50.035885
 31
0.0
  0
LINE
  8
5
  6
CONTINUOUS
 62
   150
  5
365
 10
13.322052
 20
49.950385
 30
0.0
 11
9.863344
 21
49.950385
 31
0.0
  0
LINE
  8
5
  6
CONTINUOUS
 62
   150
  5
366
 10
13.299656
 20
49.908083
 30
0.0
 11
9.840937
 21
49.908083
 31
0.0
  0
LINE
  8
5
  6
CONTINUOUS
 62
   150
  5
367
 10
13.280115
 20
49.851687
 30
0.0
 11
9.815667
 21
49.851687
 31
0.0
  0
LINE
  8
5
  6
CONTINUOUS
 62
   150
  5
368
 10
13.280365
 20
49.795292
 30
0.0
 11
9.815667
 21
49.795292
 31
0.0
  0
LINE
  8
5
  6
CONTINUOUS
 62
   150
  5
369
 10
13.325167
 20
49.767094
 30
0.0
 11
9.843542
 21
49.767094
 31
0.0
  0
LINE
  8
5
  6
CONTINUOUS
 62
   150
  5
36A
 10
13.337698
 20
50.274687
 30
0.0
 11
9.871385
 21
50.274687
 31
0.0
  0
LINE
  8
5
  6
CONTINUOUS
 62
   150
  5
36B
 10
13.332812
 20
50.302875
 30
0.0
 11
9.86649
 21
50.302875
 31
0.0
  0
LINE
  8
5
  6
CONTINUOUS
 62
   150
  5
36C
 10
13.323031
 20
50.359281
 30
0.0
 11
9.858083
 21
50.359281
 31
0.0
  0
LINE
  8
5
  6
CONTINUOUS
 62
   150
  5
36D
 10
13.370438
 20
50.420375
 30
0.0
 11
9.916313
 21
50.420375
 31
0.0
  0
LINE
  8
5
  6
CONTINUOUS
 62
   150
  5
36E
 10
9.890833
 20
50.044385
 30
0.0
 11
13.352323
 21
50.044385
 31
0.0
  0
LINE
  8
5
  6
CONTINUOUS
 62
   150
  5
36F
 10
13.35624
 20
50.190083
 30
0.0
 11
9.889219
 21
50.190083
 31
0.0
  0
LINE
  8
1
  6
CONTINUOUS
 62
   150
  5
370
 10
9.722583
 20
49.682479
 30
0.0
 11
7.700781
 21
49.682479
 31
0.0
  0
LINE
  8
1
  6
CONTINUOUS
 62
   150
  5
371
 10
9.764563
 20
50.569375
 30
0.0
 11
8.55276
 21
50.569375
 31
0.0
  0
LINE
  8
5
  6
CONTINUOUS
 62
   150
  5
372
 10
6.718625
 20
49.487354
 30
0.0
 11
7.169313
 21
49.562167
 31
0.0
  0
LINE
  8
5
  6
CONTINUOUS
 62
   150
  5
373
 10
7.169313
 20
49.562167
 30
0.0
 11
7.700781
 21
49.750187
 31
0.0
  0
LINE
  8
5
  6
CONTINUOUS
 62
   150
  5
374
 10
6.771365
 20
49.487354
 30
0.0
 11
7.175229
 21
49.554396
 31
0.0
  0
LINE
  8
5
  6
CONTINUOUS
 62
   150
  5
375
 10
7.175229
 20
49.554396
 30
0.0
 11
7.700781
 21
49.729406
 31
0.0
  0
LINE
  8
5
  6
CONTINUOUS
 62
   150
  5
376
 10
7.185615
 20
49.537302
 30
0.0
 11
7.700781
 21
49.698427
 31
0.0
  0
LINE
  8
5
  6
CONTINUOUS
 62
   150
  5
377
 10
7.179677
 20
49.545073
 30
0.0
 11
7.700781
 21
49.71324
 31
0.0
  0
LINE
  8
5
  6
CONTINUOUS
 62
   150
  5
378
 10
6.831969
 20
49.487354
 30
0.0
 11
7.179677
 21
49.545073
 31
0.0
  0
LINE
  8
5
  6
CONTINUOUS
 62
   150
  5
379
 10
6.884698
 20
49.487354
 30
0.0
 11
7.185615
 21
49.537302
 31
0.0
  0
LINE
  8
5
  6
CONTINUOUS
 62
   150
  5
37A
 10
7.18001
 20
50.624083
 30
0.0
 11
6.756323
 21
50.668958
 31
0.0
  0
LINE
  8
5
  6
CONTINUOUS
 62
   150
  5
37B
 10
7.693448
 20
50.519542
 30
0.0
 11
7.527385
 21
50.519542
 31
0.0
  0
LINE
  8
5
  6
CONTINUOUS
 62
   150
  5
37C
 10
7.527385
 20
50.519542
 30
0.0
 11
7.186927
 21
50.640052
 31
0.0
  0
LINE
  8
5
  6
CONTINUOUS
 62
   150
  5
37D
 10
7.186927
 20
50.640052
 30
0.0
 11
6.756323
 21
50.685656
 31
0.0
  0
LINE
  8
5
  6
CONTINUOUS
 62
   150
  5
37E
 10
7.694833
 20
50.536969
 30
0.0
 11
7.52876
 21
50.536969
 31
0.0
  0
LINE
  8
5
  6
CONTINUOUS
 62
   150
  5
37F
 10
7.52876
 20
50.536969
 30
0.0
 11
7.188312
 21
50.657479
 31
0.0
  0
LINE
  8
5
  6
CONTINUOUS
 62
   150
  5
380
 10
7.188312
 20
50.657479
 30
0.0
 11
6.761812
 21
50.702646
 31
0.0
  0
LINE
  8
5
  6
CONTINUOUS
 62
   150
  5
381
 10
7.70176
 20
50.55875
 30
0.0
 11
7.535687
 21
50.55875
 31
0.0
  0
LINE
  8
5
  6
CONTINUOUS
 62
   150
  5
382
 10
7.535687
 20
50.55875
 30
0.0
 11
7.19524
 21
50.67925
 31
0.0
  0
LINE
  8
5
  6
CONTINUOUS
 62
   150
  5
383
 10
7.19524
 20
50.67925
 30
0.0
 11
6.974354
 21
50.702646
 31
0.0
  0
LINE
  8
5
  6
CONTINUOUS
 62
   150
  5
384
 10
7.639479
 20
50.571813
 30
0.0
 11
7.539833
 21
50.576167
 31
0.0
  0
LINE
  8
5
  6
CONTINUOUS
 62
   150
  5
385
 10
7.539833
 20
50.576167
 30
0.0
 11
7.346083
 21
50.640052
 31
0.0
  0
LINE
  8
5
  6
CONTINUOUS
 62
   150
  5
386
 10
8.544365
 20
49.68799
 30
0.0
 11
7.704625
 21
49.68799
 31
0.0
  0
LINE
  8
2
  6
HIDDEN
 62
     2
  5
387
 10
15.895302
 20
49.682479
 30
0.0
 11
15.895302
 21
50.569375
 31
0.0
  0
LINE
  8
1
  6
CONTINUOUS
 62
   150
  5
388
 10
15.266646
 20
50.634396
 30
0.0
 11
15.690281
 21
50.634396
 31
0.0
  0
LINE
  8
2
  6
CONTINUOUS
 62
     2
  5
389
 10
15.039323
 20
49.682479
 30
0.0
 11
15.039323
 21
50.569375
 31
0.0
  0
LINE
  8
2
  6
HIDDEN
 62
     2
  5
38A
 10
15.266646
 20
49.682479
 30
0.0
 11
15.266646
 21
50.634396
 31
0.0
  0
LINE
  8
2
  6
HIDDEN
 62
     2
  5
38B
 10
15.690281
 20
49.682479
 30
0.0
 11
15.690281
 21
50.634396
 31
0.0
  0
CIRCLE
  8
1
  6
CONTINUOUS
 62
   150
  5
38C
 10
15.464849
 20
50.132291
 30
0.0
 40
0.03428
210
0.0
220
0.0
230
1.0
  0
LINE
  8
1
  6
CONTINUOUS
 62
   150
  5
38D
 10
15.266646
 20
47.633594
 30
0.0
 11
15.690281
 21
47.633594
 31
0.0
  0
LINE
  8
1
  6
CONTINUOUS
 62
   150
  5
38E
 10
15.266646
 20
47.633594
 30
0.0
 11
15.266646
 21
48.314979
 31
0.0
  0
LINE
  8
1
  6
CONTINUOUS
 62
   150
  5
38F
 10
15.690281
 20
47.633594
 30
0.0
 11
15.690281
 21
48.043125
 31
0.0
  0
LINE
  8
1
  6
CONTINUOUS
 62
   150
  5
390
 10
15.266646
 20
48.314979
 30
0.0
 11
15.365771
 21
48.24399
 31
0.0
  0
LINE
  8
1
  6
CONTINUOUS
 62
   233
  5
391
 10
15.365771
 20
48.24399
 30
0.0
 11
15.405802
 21
48.277604
 31
0.0
  0
LINE
  8
1
  6
CONTINUOUS
 62
   150
  5
392
 10
15.405802
 20
48.277604
 30
0.0
 11
15.489875
 21
48.095542
 31
0.0
  0
LINE
  8
1
  6
CONTINUOUS
 62
   150
  5
393
 10
15.489875
 20
48.095542
 30
0.0
 11
15.536573
 21
48.13476
 31
0.0
  0
LINE
  8
1
  6
CONTINUOUS
 62
   150
  5
394
 10
15.536573
 20
48.13476
 30
0.0
 11
15.690281
 21
48.043125
 31
0.0
  0
LINE
  8
1
  6
CONTINUOUS
 62
   150
  5
395
 10
15.536573
 20
48.337823
 30
0.0
 11
15.690281
 21
48.246198
 31
0.0
  0
LINE
  8
1
  6
CONTINUOUS
 62
   233
  5
396
 10
15.489875
 20
48.298615
 30
0.0
 11
15.536573
 21
48.337823
 31
0.0
  0
LINE
  8
1
  6
CONTINUOUS
 62
   150
  5
397
 10
15.405802
 20
48.480677
 30
0.0
 11
15.489875
 21
48.298615
 31
0.0
  0
LINE
  8
1
  6
CONTINUOUS
 62
   150
  5
398
 10
15.365771
 20
48.447063
 30
0.0
 11
15.405802
 21
48.480677
 31
0.0
  0
LINE
  8
1
  6
CONTINUOUS
 62
   150
  5
399
 10
15.266646
 20
48.518052
 30
0.0
 11
15.365771
 21
48.447063
 31
0.0
  0
LINE
  8
1
  6
CONTINUOUS
 62
   150
  5
39A
 10
15.266646
 20
48.518052
 30
0.0
 11
15.266646
 21
49.682479
 31
0.0
  0
LINE
  8
1
  6
CONTINUOUS
 62
   150
  5
39B
 10
15.690281
 20
48.246198
 30
0.0
 11
15.690281
 21
49.682479
 31
0.0
  0
LINE
  8
1
  6
CONTINUOUS
 62
   150
  5
39C
 10
13.666667
 20
50.569375
 30
0.0
 11
13.610135
 21
50.433812
 31
0.0
  0
LINE
  8
1
  6
CONTINUOUS
 62
   150
  5
39D
 10
13.610135
 20
50.433812
 30
0.0
 11
13.537948
 21
50.358073
 31
0.0
  0
LINE
  8
1
  6
CONTINUOUS
 62
   150
  5
39E
 10
13.537948
 20
50.358073
 30
0.0
 11
13.558562
 21
50.239052
 31
0.0
  0
LINE
  8
1
  6
CONTINUOUS
 62
   150
  5
39F
 10
13.558562
 20
50.239052
 30
0.0
 11
13.5895
 21
50.109219
 31
0.0
  0
LINE
  8
1
  6
CONTINUOUS
 62
   150
  5
3A0
 10
13.5895
 20
50.109219
 30
0.0
 11
13.54825
 21
49.95774
 31
0.0
  0
LINE
  8
1
  6
CONTINUOUS
 62
   150
  5
3A1
 10
13.54825
 20
49.95774
 30
0.0
 11
13.496688
 21
49.860375
 31
0.0
  0
LINE
  8
1
  6
CONTINUOUS
 62
   150
  5
3A2
 10
13.496688
 20
49.860375
 30
0.0
 11
13.496688
 21
49.784635
 31
0.0
  0
LINE
  8
1
  6
CONTINUOUS
 62
   150
  5
3A3
 10
13.496688
 20
49.784635
 30
0.0
 11
13.599812
 21
49.719719
 31
0.0
  0
LINE
  8
1
  6
CONTINUOUS
 62
   150
  5
3A4
 10
13.599812
 20
49.719719
 30
0.0
 11
13.615583
 21
49.682479
 31
0.0
  0
LINE
  8
1
  6
CONTINUOUS
 62
   150
  5
3A5
 10
13.38324
 20
49.730531
 30
0.0
 11
13.403604
 21
49.682479
 31
0.0
  0
LINE
  8
1
  6
CONTINUOUS
 62
   150
  5
3A6
 10
13.280115
 20
49.795448
 30
0.0
 11
13.38324
 21
49.730531
 31
0.0
  0
LINE
  8
1
  6
CONTINUOUS
 62
   150
  5
3A7
 10
13.280115
 20
49.871187
 30
0.0
 11
13.280115
 21
49.795448
 31
0.0
  0
LINE
  8
1
  6
CONTINUOUS
 62
   150
  5
3A8
 10
13.331677
 20
49.968562
 30
0.0
 11
13.280115
 21
49.871187
 31
0.0
  0
LINE
  8
1
  6
CONTINUOUS
 62
   150
  5
3A9
 10
13.372927
 20
50.120042
 30
0.0
 11
13.331677
 21
49.968562
 31
0.0
  0
LINE
  8
1
  6
CONTINUOUS
 62
   150
  5
3AA
 10
13.34199
 20
50.249875
 30
0.0
 11
13.372927
 21
50.120042
 31
0.0
  0
LINE
  8
1
  6
CONTINUOUS
 62
   150
  5
3AB
 10
13.321365
 20
50.368896
 30
0.0
 11
13.34199
 21
50.249875
 31
0.0
  0
LINE
  8
1
  6
CONTINUOUS
 62
   150
  5
3AC
 10
13.393563
 20
50.444635
 30
0.0
 11
13.321365
 21
50.368896
 31
0.0
  0
LINE
  8
1
  6
CONTINUOUS
 62
   150
  5
3AD
 10
13.445573
 20
50.569375
 30
0.0
 11
13.393563
 21
50.444635
 31
0.0
  0
LINE
  8
1
  6
CONTINUOUS
 62
   233
  5
3AE
 10
12.023167
 20
50.569375
 30
0.0
 11
12.023167
 21
50.634396
 31
0.0
  0
LINE
  8
1
  6
CONTINUOUS
 62
   233
  5
3AF
 10
11.599521
 20
50.569375
 30
0.0
 11
11.599521
 21
50.634396
 31
0.0
  0
LINE
  8
5
  6
CONTINUOUS
 62
   150
  5
3B0
 10
19.548802
 20
50.190083
 30
0.0
 11
16.655437
 21
50.190083
 31
0.0
  0
LINE
  8
5
  6
CONTINUOUS
 62
   150
  5
3B1
 10
13.571844
 20
50.044385
 30
0.0
 11
15.1415
 21
50.044385
 31
0.0
  0
LINE
  8
5
  6
CONTINUOUS
 62
   150
  5
3B2
 10
19.455125
 20
50.420375
 30
0.0
 11
16.687083
 21
50.420375
 31
0.0
  0
LINE
  8
5
  6
CONTINUOUS
 62
   150
  5
3B3
 10
19.467146
 20
50.359281
 30
0.0
 11
18.00076
 21
50.359281
 31
0.0
  0
LINE
  8
5
  6
CONTINUOUS
 62
   150
  5
3B4
 10
19.487531
 20
50.302875
 30
0.0
 11
17.99425
 21
50.302875
 31
0.0
  0
LINE
  8
5
  6
CONTINUOUS
 62
   150
  5
3B5
 10
19.499469
 20
50.274687
 30
0.0
 11
16.687083
 21
50.274687
 31
0.0
  0
LINE
  8
5
  6
CONTINUOUS
 62
   150
  5
3B6
 10
19.491781
 20
49.767094
 30
0.0
 11
17.995896
 21
49.767094
 31
0.0
  0
LINE
  8
5
  6
CONTINUOUS
 62
   150
  5
3B7
 10
17.115437
 20
49.795292
 30
0.0
 11
16.696646
 21
49.795292
 31
0.0
  0
LINE
  8
5
  6
CONTINUOUS
 62
   150
  5
3B8
 10
19.469031
 20
49.851687
 30
0.0
 11
16.696646
 21
49.851687
 31
0.0
  0
LINE
  8
5
  6
CONTINUOUS
 62
   150
  5
3B9
 10
19.47374
 20
49.908083
 30
0.0
 11
16.696646
 21
49.908083
 31
0.0
  0
LINE
  8
5
  6
CONTINUOUS
 62
   150
  5
3BA
 10
19.488406
 20
49.950385
 30
0.0
 11
16.696646
 21
49.950385
 31
0.0
  0
LINE
  8
5
  6
CONTINUOUS
 62
   150
  5
3BB
 10
13.569531
 20
50.035885
 30
0.0
 11
15.14251
 21
50.035885
 31
0.0
  0
LINE
  8
5
  6
CONTINUOUS
 62
   150
  5
3BC
 10
13.567219
 20
50.027385
 30
0.0
 11
15.136833
 21
50.027385
 31
0.0
  0
LINE
  8
5
  6
CONTINUOUS
 62
   150
  5
3BD
 10
13.564906
 20
50.018885
 30
0.0
 11
15.134417
 21
50.018885
 31
0.0
  0
LINE
  8
5
  6
CONTINUOUS
 62
   150
  5
3BE
 10
13.562583
 20
50.010385
 30
0.0
 11
15.13449
 21
50.010385
 31
0.0
  0
LINE
  8
5
  6
CONTINUOUS
 62
   150
  5
3BF
 10
13.560271
 20
50.001885
 30
0.0
 11
15.137073
 21
50.001885
 31
0.0
  0
LINE
  8
5
  6
CONTINUOUS
 62
   150
  5
3C0
 10
13.568177
 20
50.198687
 30
0.0
 11
16.385083
 21
50.198687
 31
0.0
  0
LINE
  8
5
  6
CONTINUOUS
 62
   150
  5
3C1
 10
13.566167
 20
50.207187
 30
0.0
 11
16.377542
 21
50.207187
 31
0.0
  0
LINE
  8
5
  6
CONTINUOUS
 62
   150
  5
3C2
 10
13.564135
 20
50.215688
 30
0.0
 11
16.382083
 21
50.215688
 31
0.0
  0
LINE
  8
5
  6
CONTINUOUS
 62
   150
  5
3C3
 10
14.108906
 20
50.224187
 30
0.0
 11
16.388302
 21
50.224187
 31
0.0
  0
LINE
  8
5
  6
CONTINUOUS
 62
   150
  5
3C4
 10
13.560083
 20
50.232687
 30
0.0
 11
16.394542
 21
50.232687
 31
0.0
  0
LINE
  8
5
  6
CONTINUOUS
 62
   150
  5
3C5
 10
13.66325
 20
50.561198
 30
0.0
 11
16.424375
 21
50.561198
 31
0.0
  0
LINE
  8
5
  6
CONTINUOUS
 62
   150
  5
3C6
 10
13.659708
 20
50.552687
 30
0.0
 11
16.424375
 21
50.552687
 31
0.0
  0
LINE
  8
5
  6
CONTINUOUS
 62
   150
  5
3C7
 10
13.656167
 20
50.544198
 30
0.0
 11
15.15724
 21
50.544198
 31
0.0
  0
LINE
  8
5
  6
CONTINUOUS
 62
   150
  5
3C8
 10
13.652615
 20
50.535698
 30
0.0
 11
15.151875
 21
50.535698
 31
0.0
  0
LINE
  8
5
  6
CONTINUOUS
 62
   150
  5
3C9
 10
13.649073
 20
50.527198
 30
0.0
 11
15.149677
 21
50.527198
 31
0.0
  0
LINE
  8
5
  6
CONTINUOUS
 62
   150
  5
3CA
 10
13.609906
 20
49.695885
 30
0.0
 11
16.433927
 21
49.695885
 31
0.0
  0
LINE
  8
5
  6
CONTINUOUS
 62
   150
  5
3CB
 10
13.606302
 20
49.704385
 30
0.0
 11
16.433927
 21
49.704385
 31
0.0
  0
LINE
  8
5
  6
CONTINUOUS
 62
   150
  5
3CC
 10
13.602708
 20
49.712885
 30
0.0
 11
16.433927
 21
49.712885
 31
0.0
  0
LINE
  8
5
  6
CONTINUOUS
 62
   150
  5
3CD
 10
13.597156
 20
49.721385
 30
0.0
 11
16.433927
 21
49.721385
 31
0.0
  0
LINE
  8
5
  6
CONTINUOUS
 62
   150
  5
3CE
 10
13.583646
 20
49.729885
 30
0.0
 11
16.433927
 21
49.729885
 31
0.0
  0
LINE
  8
1
  6
CONTINUOUS
 62
   150
  5
3CF
 10
19.483052
 20
50.569375
 30
0.0
 11
16.687083
 21
50.569375
 31
0.0
  0
LINE
  8
1
  6
CONTINUOUS
 62
   150
  5
3D0
 10
19.559437
 20
49.682479
 30
0.0
 11
16.696646
 21
49.682479
 31
0.0
  0
CIRCLE
  8
1
  6
CONTINUOUS
 62
   150
  5
3D1
 10
15.180002
 20
50.50885
 30
0.0
 40
0.030506
210
0.0
220
0.0
230
1.0
  0
CIRCLE
  8
1
  6
CONTINUOUS
 62
   150
  5
3D2
 10
15.180002
 20
50.328615
 30
0.0
 40
0.030506
210
0.0
220
0.0
230
1.0
  0
CIRCLE
  8
1
  6
CONTINUOUS
 62
   150
  5
3D3
 10
15.180002
 20
50.014903
 30
0.0
 40
0.030506
210
0.0
220
0.0
230
1.0
  0
CIRCLE
  8
1
  6
CONTINUOUS
 62
   150
  5
3D4
 10
15.180002
 20
49.787625
 30
0.0
 40
0.030506
210
0.0
220
0.0
230
1.0
  0
CIRCLE
  8
1
  6
CONTINUOUS
 62
   150
  5
3D5
 10
15.78097
 20
49.787625
 30
0.0
 40
0.030506
210
0.0
220
0.0
230
1.0
  0
CIRCLE
  8
1
  6
CONTINUOUS
 62
   150
  5
3D6
 10
15.78097
 20
50.014903
 30
0.0
 40
0.030506
210
0.0
220
0.0
230
1.0
  0
CIRCLE
  8
1
  6
CONTINUOUS
 62
   150
  5
3D7
 10
15.78097
 20
50.328615
 30
0.0
 40
0.030506
210
0.0
220
0.0
230
1.0
  0
CIRCLE
  8
1
  6
CONTINUOUS
 62
   150
  5
3D8
 10
15.78097
 20
50.50885
 30
0.0
 40
0.030506
210
0.0
220
0.0
230
1.0
  0
LINE
  8
5
  6
CONTINUOUS
 62
   150
  5
3D9
 10
15.210323
 20
50.527198
 30
0.0
 11
15.750646
 21
50.527198
 31
0.0
  0
LINE
  8
5
  6
CONTINUOUS
 62
   150
  5
3DA
 10
15.208135
 20
50.535698
 30
0.0
 11
15.752844
 21
50.535698
 31
0.0
  0
LINE
  8
5
  6
CONTINUOUS
 62
   217
  5
3DB
 10
15.202771
 20
50.544198
 30
0.0
 11
15.758198
 21
50.544198
 31
0.0
  0
LINE
  8
5
  6
CONTINUOUS
 62
   150
  5
3DC
 10
15.811292
 20
50.527198
 30
0.0
 11
16.424375
 21
50.527198
 31
0.0
  0
LINE
  8
5
  6
CONTINUOUS
 62
   150
  5
3DD
 10
15.809104
 20
50.535698
 30
0.0
 11
16.424375
 21
50.535698
 31
0.0
  0
LINE
  8
5
  6
CONTINUOUS
 62
   150
  5
3DE
 10
15.803729
 20
50.544198
 30
0.0
 11
16.424375
 21
50.544198
 31
0.0
  0
LINE
  8
5
  6
CONTINUOUS
 62
   150
  5
3DF
 10
15.747167
 20
50.302875
 30
0.0
 11
15.20799
 21
50.302875
 31
0.0
  0
LINE
  8
5
  6
CONTINUOUS
 62
   150
  5
3E0
 10
15.140406
 20
50.302875
 30
0.0
 11
13.54751
 21
50.302875
 31
0.0
  0
LINE
  8
5
  6
CONTINUOUS
 62
   150
  5
3E1
 10
15.216802
 20
50.001885
 30
0.0
 11
15.74301
 21
50.001885
 31
0.0
  0
LINE
  8
5
  6
CONTINUOUS
 62
   150
  5
3E2
 10
15.219375
 20
50.010385
 30
0.0
 11
15.740427
 21
50.010385
 31
0.0
  0
LINE
  8
5
  6
CONTINUOUS
 62
   150
  5
3E3
 10
15.219458
 20
50.018885
 30
0.0
 11
15.740354
 21
50.018885
 31
0.0
  0
LINE
  8
5
  6
CONTINUOUS
 62
   150
  5
3E4
 10
15.217052
 20
50.027385
 30
0.0
 11
15.74276
 21
50.027385
 31
0.0
  0
LINE
  8
5
  6
CONTINUOUS
 62
   150
  5
3E5
 10
15.211365
 20
50.035885
 30
0.0
 11
15.748448
 21
50.035885
 31
0.0
  0
LINE
  8
5
  6
CONTINUOUS
 62
   150
  5
3E6
 10
15.820469
 20
50.001885
 30
0.0
 11
16.459688
 21
50.001885
 31
0.0
  0
LINE
  8
5
  6
CONTINUOUS
 62
   150
  5
3E7
 10
15.823042
 20
50.010385
 30
0.0
 11
16.466083
 21
50.010385
 31
0.0
  0
LINE
  8
5
  6
CONTINUOUS
 62
   150
  5
3E8
 10
15.823125
 20
50.018885
 30
0.0
 11
16.472479
 21
50.018885
 31
0.0
  0
LINE
  8
5
  6
CONTINUOUS
 62
   150
  5
3E9
 10
15.820719
 20
50.027385
 30
0.0
 11
16.478875
 21
50.027385
 31
0.0
  0
LINE
  8
5
  6
CONTINUOUS
 62
   150
  5
3EA
 10
15.815031
 20
50.035885
 30
0.0
 11
16.485271
 21
50.035885
 31
0.0
  0
LINE
  8
5
  6
CONTINUOUS
 62
   150
  5
3EB
 10
15.728198
 20
49.795292
 30
0.0
 11
15.228115
 21
49.795292
 31
0.0
  0
LINE
  8
5
  6
CONTINUOUS
 62
   150
  5
3EC
 10
15.735177
 20
49.767094
 30
0.0
 11
15.221146
 21
49.767094
 31
0.0
  0
LINE
  8
5
  6
CONTINUOUS
 62
   150
  5
3ED
 10
15.13074
 20
49.795292
 30
0.0
 11
13.496688
 21
49.795292
 31
0.0
  0
LINE
  8
5
  6
CONTINUOUS
 62
   150
  5
3EE
 10
15.137708
 20
49.767094
 30
0.0
 11
13.524552
 21
49.767094
 31
0.0
  0
LINE
  8
1
  6
CONTINUOUS
 62
   150
  5
3EF
 10
16.424375
 20
51.170604
 30
0.0
 11
16.424375
 21
50.273396
 31
0.0
  0
LINE
  8
1
  6
CONTINUOUS
 62
   150
  5
3F0
 10
16.424375
 20
50.273396
 30
0.0
 11
16.376615
 21
50.20824
 31
0.0
  0
LINE
  8
1
  6
CONTINUOUS
 62
   150
  5
3F1
 10
16.376615
 20
50.20824
 30
0.0
 11
16.505573
 21
50.062885
 31
0.0
  0
LINE
  8
1
  6
CONTINUOUS
 62
   150
  5
3F2
 10
16.505573
 20
50.062885
 30
0.0
 11
16.433927
 21
49.967646
 31
0.0
  0
LINE
  8
1
  6
CONTINUOUS
 62
   150
  5
3F3
 10
16.433927
 20
49.967646
 30
0.0
 11
16.433927
 21
49.316052
 31
0.0
  0
LINE
  8
1
  6
CONTINUOUS
 62
   150
  5
3F4
 10
16.433927
 20
49.316052
 30
0.0
 11
16.367062
 21
49.240865
 31
0.0
  0
LINE
  8
1
  6
CONTINUOUS
 62
   150
  5
3F5
 10
16.367062
 20
49.240865
 30
0.0
 11
16.505573
 21
49.020323
 31
0.0
  0
LINE
  8
1
  6
CONTINUOUS
 62
   150
  5
3F6
 10
16.505573
 20
49.020323
 30
0.0
 11
16.433927
 21
48.955156
 31
0.0
  0
LINE
  8
1
  6
CONTINUOUS
 62
   150
  5
3F7
 10
16.433927
 20
48.955156
 30
0.0
 11
16.433927
 21
48.163323
 31
0.0
  0
LINE
  8
1
  6
CONTINUOUS
 62
   150
  5
3F8
 10
16.696646
 20
48.955156
 30
0.0
 11
16.696646
 21
48.163323
 31
0.0
  0
LINE
  8
1
  6
CONTINUOUS
 62
   150
  5
3F9
 10
16.768292
 20
49.020323
 30
0.0
 11
16.696646
 21
48.955156
 31
0.0
  0
LINE
  8
1
  6
CONTINUOUS
 62
   150
  5
3FA
 10
16.629771
 20
49.240865
 30
0.0
 11
16.768292
 21
49.020323
 31
0.0
  0
LINE
  8
1
  6
CONTINUOUS
 62
   150
  5
3FB
 10
16.696646
 20
49.316052
 30
0.0
 11
16.629771
 21
49.240865
 31
0.0
  0
LINE
  8
1
  6
CONTINUOUS
 62
   150
  5
3FC
 10
16.696646
 20
49.967646
 30
0.0
 11
16.696646
 21
49.316052
 31
0.0
  0
LINE
  8
1
  6
CONTINUOUS
 62
   150
  5
3FD
 10
16.768292
 20
50.062885
 30
0.0
 11
16.696646
 21
49.967646
 31
0.0
  0
LINE
  8
1
  6
CONTINUOUS
 62
   150
  5
3FE
 10
16.639323
 20
50.20824
 30
0.0
 11
16.768292
 21
50.062885
 31
0.0
  0
LINE
  8
1
  6
CONTINUOUS
 62
   150
  5
3FF
 10
16.687083
 20
50.273396
 30
0.0
 11
16.639323
 21
50.20824
 31
0.0
  0
LINE
  8
1
  6
CONTINUOUS
 62
   150
  5
400
 10
16.687083
 20
51.170604
 30
0.0
 11
16.687083
 21
50.273396
 31
0.0
  0
LINE
  8
1
  6
CONTINUOUS
 62
   233
  5
401
 10
16.424375
 20
50.569375
 30
0.0
 11
13.666667
 21
50.569375
 31
0.0
  0
LINE
  8
5
  6
CONTINUOUS
 62
   150
  5
402
 10
16.687083
 20
50.552687
 30
0.0
 11
18.073417
 21
50.552687
 31
0.0
  0
LINE
  8
5
  6
CONTINUOUS
 62
   150
  5
403
 10
16.687083
 20
50.561198
 30
0.0
 11
19.479927
 21
50.561198
 31
0.0
  0
LINE
  8
5
  6
CONTINUOUS
 62
   150
  5
404
 10
16.687083
 20
50.544198
 30
0.0
 11
17.339385
 21
50.544198
 31
0.0
  0
LINE
  8
5
  6
CONTINUOUS
 62
   150
  5
405
 10
16.687083
 20
50.535698
 30
0.0
 11
17.329604
 21
50.535698
 31
0.0
  0
LINE
  8
5
  6
CONTINUOUS
 62
   150
  5
406
 10
16.687083
 20
50.527198
 30
0.0
 11
17.325229
 21
50.527198
 31
0.0
  0
LINE
  8
5
  6
CONTINUOUS
 62
   150
  5
407
 10
16.424375
 20
50.420375
 30
0.0
 11
13.597333
 21
50.420375
 31
0.0
  0
LINE
  8
5
  6
CONTINUOUS
 62
   150
  5
408
 10
16.424375
 20
50.359281
 30
0.0
 11
15.81876
 21
50.359281
 31
0.0
  0
LINE
  8
5
  6
CONTINUOUS
 62
   150
  5
409
 10
16.424375
 20
50.302875
 30
0.0
 11
15.811281
 21
50.302875
 31
0.0
  0
LINE
  8
5
  6
CONTINUOUS
 62
   150
  5
40A
 10
16.424375
 20
50.274687
 30
0.0
 11
13.552396
 21
50.274687
 31
0.0
  0
LINE
  8
5
  6
CONTINUOUS
 62
   150
  5
40B
 10
16.65725
 20
50.232687
 30
0.0
 11
19.521198
 21
50.232687
 31
0.0
  0
LINE
  8
5
  6
CONTINUOUS
 62
   150
  5
40C
 10
16.651021
 20
50.224187
 30
0.0
 11
19.526979
 21
50.224187
 31
0.0
  0
LINE
  8
5
  6
CONTINUOUS
 62
   150
  5
40D
 10
16.644781
 20
50.215688
 30
0.0
 11
19.53276
 21
50.215688
 31
0.0
  0
LINE
  8
5
  6
CONTINUOUS
 62
   150
  5
40E
 10
16.64025
 20
50.207187
 30
0.0
 11
18.073417
 21
50.207187
 31
0.0
  0
LINE
  8
5
  6
CONTINUOUS
 62
   150
  5
40F
 10
16.647792
 20
50.198687
 30
0.0
 11
19.544333
 21
50.198687
 31
0.0
  0
LINE
  8
5
  6
CONTINUOUS
 62
   150
  5
410
 10
16.392719
 20
50.190083
 30
0.0
 11
13.57024
 21
50.190083
 31
0.0
  0
LINE
  8
5
  6
CONTINUOUS
 62
   150
  5
411
 10
16.754375
 20
50.044385
 30
0.0
 11
17.321458
 21
50.044385
 31
0.0
  0
LINE
  8
5
  6
CONTINUOUS
 62
   150
  5
412
 10
16.747979
 20
50.035885
 30
0.0
 11
17.322437
 21
50.035885
 31
0.0
  0
LINE
  8
5
  6
CONTINUOUS
 62
   150
  5
413
 10
16.741583
 20
50.027385
 30
0.0
 11
17.31674
 21
50.027385
 31
0.0
  0
LINE
  8
5
  6
CONTINUOUS
 62
   150
  5
414
 10
16.735187
 20
50.018885
 30
0.0
 11
17.314333
 21
50.018885
 31
0.0
  0
LINE
  8
5
  6
CONTINUOUS
 62
   150
  5
415
 10
16.728792
 20
50.010385
 30
0.0
 11
17.314417
 21
50.010385
 31
0.0
  0
LINE
  8
5
  6
CONTINUOUS
 62
   150
  5
416
 10
16.722396
 20
50.001885
 30
0.0
 11
17.317
 21
50.001885
 31
0.0
  0
LINE
  8
5
  6
CONTINUOUS
 62
   150
  5
417
 10
16.433927
 20
49.950385
 30
0.0
 11
13.544354
 21
49.950385
 31
0.0
  0
LINE
  8
5
  6
CONTINUOUS
 62
   150
  5
418
 10
16.433927
 20
49.908083
 30
0.0
 11
13.521958
 21
49.908083
 31
0.0
  0
LINE
  8
5
  6
CONTINUOUS
 62
   150
  5
419
 10
16.433927
 20
49.851687
 30
0.0
 11
13.496688
 21
49.851687
 31
0.0
  0
LINE
  8
5
  6
CONTINUOUS
 62
   150
  5
41A
 10
16.433927
 20
49.795292
 30
0.0
 11
15.82675
 21
49.795292
 31
0.0
  0
LINE
  8
5
  6
CONTINUOUS
 62
   150
  5
41B
 10
16.433927
 20
49.767094
 30
0.0
 11
15.819792
 21
49.767094
 31
0.0
  0
LINE
  8
5
  6
CONTINUOUS
 62
   150
  5
41C
 10
16.696646
 20
49.721385
 30
0.0
 11
19.527656
 21
49.721385
 31
0.0
  0
LINE
  8
5
  6
CONTINUOUS
 62
   150
  5
41D
 10
16.696646
 20
49.712885
 30
0.0
 11
19.534594
 21
49.712885
 31
0.0
  0
LINE
  8
5
  6
CONTINUOUS
 62
   150
  5
41E
 10
16.696646
 20
49.704385
 30
0.0
 11
19.541542
 21
49.704385
 31
0.0
  0
LINE
  8
5
  6
CONTINUOUS
 62
   150
  5
41F
 10
16.696646
 20
49.695885
 30
0.0
 11
19.54849
 21
49.695885
 31
0.0
  0
LINE
  8
1
  6
CONTINUOUS
 62
   233
  5
420
 10
16.433927
 20
49.682479
 30
0.0
 11
13.615583
 21
49.682479
 31
0.0
  0
LINE
  8
5
  6
CONTINUOUS
 62
   150
  5
421
 10
15.74351
 20
50.359281
 30
0.0
 11
15.217948
 21
50.359281
 31
0.0
  0
LINE
  8
5
  6
CONTINUOUS
 62
   150
  5
422
 10
15.140323
 20
50.359281
 30
0.0
 11
13.539094
 21
50.359281
 31
0.0
  0
LINE
  8
5
  6
CONTINUOUS
 62
   150
  5
423
 10
15.813979
 20
50.044385
 30
0.0
 11
16.491656
 21
50.044385
 31
0.0
  0
LINE
  8
5
  6
CONTINUOUS
 62
   150
  5
424
 10
15.207198
 20
50.044385
 30
0.0
 11
15.74949
 21
50.044385
 31
0.0
  0
CIRCLE
  8
1
  6
CONTINUOUS
 62
   150
  5
425
 10
17.959077
 20
50.50885
 30
0.0
 40
0.030506
210
0.0
220
0.0
230
1.0
  0
CIRCLE
  8
1
  6
CONTINUOUS
 62
   150
  5
426
 10
17.959077
 20
50.328615
 30
0.0
 40
0.030506
210
0.0
220
0.0
230
1.0
  0
CIRCLE
  8
1
  6
CONTINUOUS
 62
   150
  5
427
 10
17.959077
 20
50.014903
 30
0.0
 40
0.030506
210
0.0
220
0.0
230
1.0
  0
CIRCLE
  8
1
  6
CONTINUOUS
 62
   150
  5
428
 10
17.959077
 20
49.787625
 30
0.0
 40
0.030506
210
0.0
220
0.0
230
1.0
  0
CIRCLE
  8
1
  6
CONTINUOUS
 62
   150
  5
429
 10
17.358109
 20
49.787625
 30
0.0
 40
0.030506
210
0.0
220
0.0
230
1.0
  0
CIRCLE
  8
1
  6
CONTINUOUS
 62
   150
  5
42A
 10
17.358109
 20
50.014903
 30
0.0
 40
0.030506
210
0.0
220
0.0
230
1.0
  0
CIRCLE
  8
1
  6
CONTINUOUS
 62
   150
  5
42B
 10
17.358109
 20
50.328615
 30
0.0
 40
0.030506
210
0.0
220
0.0
230
1.0
  0
CIRCLE
  8
1
  6
CONTINUOUS
 62
   150
  5
42C
 10
17.358109
 20
50.50885
 30
0.0
 40
0.030506
210
0.0
220
0.0
230
1.0
  0
LINE
  8
1
  6
CONTINUOUS
 62
   233
  5
42D
 10
17.44476
 20
48.518052
 30
0.0
 11
17.543875
 21
48.447063
 31
0.0
  0
LINE
  8
1
  6
CONTINUOUS
 62
   233
  5
42E
 10
17.543875
 20
48.447063
 30
0.0
 11
17.583906
 21
48.480677
 31
0.0
  0
LINE
  8
1
  6
CONTINUOUS
 62
   233
  5
42F
 10
17.583906
 20
48.480677
 30
0.0
 11
17.667979
 21
48.298615
 31
0.0
  0
LINE
  8
1
  6
CONTINUOUS
 62
   233
  5
430
 10
17.667979
 20
48.298615
 30
0.0
 11
17.714688
 21
48.337823
 31
0.0
  0
LINE
  8
1
  6
CONTINUOUS
 62
   233
  5
431
 10
17.714688
 20
48.337823
 30
0.0
 11
17.868396
 21
48.246198
 31
0.0
  0
LINE
  8
1
  6
CONTINUOUS
 62
   233
  5
432
 10
17.714688
 20
48.13476
 30
0.0
 11
17.868396
 21
48.043125
 31
0.0
  0
LINE
  8
1
  6
CONTINUOUS
 62
   233
  5
433
 10
17.667979
 20
48.095542
 30
0.0
 11
17.714688
 21
48.13476
 31
0.0
  0
LINE
  8
1
  6
CONTINUOUS
 62
   233
  5
434
 10
17.583906
 20
48.277604
 30
0.0
 11
17.667979
 21
48.095542
 31
0.0
  0
LINE
  8
1
  6
CONTINUOUS
 62
   233
  5
435
 10
17.543875
 20
48.24399
 30
0.0
 11
17.583906
 21
48.277604
 31
0.0
  0
LINE
  8
1
  6
CONTINUOUS
 62
   233
  5
436
 10
17.44476
 20
48.314979
 30
0.0
 11
17.543875
 21
48.24399
 31
0.0
  0
LINE
  8
1
  6
CONTINUOUS
 62
   233
  5
437
 10
17.868396
 20
47.633594
 30
0.0
 11
17.868396
 21
48.043125
 31
0.0
  0
LINE
  8
1
  6
CONTINUOUS
 62
   233
  5
438
 10
17.44476
 20
47.633594
 30
0.0
 11
17.44476
 21
48.314979
 31
0.0
  0
LINE
  8
1
  6
CONTINUOUS
 62
   150
  5
439
 10
17.44476
 20
47.633594
 30
0.0
 11
17.868396
 21
47.633594
 31
0.0
  0
CIRCLE
  8
1
  6
CONTINUOUS
 62
   150
  5
43A
 10
17.642957
 20
50.132291
 30
0.0
 40
0.03428
210
0.0
220
0.0
230
1.0
  0
LINE
  8
2
  6
HIDDEN
 62
     2
  5
43B
 10
17.868396
 20
49.682479
 30
0.0
 11
17.868396
 21
50.634396
 31
0.0
  0
LINE
  8
2
  6
HIDDEN
 62
     2
  5
43C
 10
17.44476
 20
49.682479
 30
0.0
 11
17.44476
 21
50.634396
 31
0.0
  0
LINE
  8
1
  6
CONTINUOUS
 62
   233
  5
43D
 10
17.44476
 20
50.634396
 30
0.0
 11
17.868396
 21
50.634396
 31
0.0
  0
LINE
  8
1
  6
CONTINUOUS
 62
   150
  5
43E
 10
19.483052
 20
50.569375
 30
0.0
 11
19.469031
 21
50.532615
 31
0.0
  0
LINE
  8
1
  6
CONTINUOUS
 62
   150
  5
43F
 10
19.469031
 20
50.532615
 30
0.0
 11
19.455125
 21
50.466948
 31
0.0
  0
LINE
  8
1
  6
CONTINUOUS
 62
   150
  5
440
 10
19.455125
 20
50.466948
 30
0.0
 11
19.455125
 21
50.393969
 31
0.0
  0
LINE
  8
1
  6
CONTINUOUS
 62
   150
  5
441
 10
19.455125
 20
50.393969
 30
0.0
 11
19.482937
 21
50.313698
 31
0.0
  0
LINE
  8
1
  6
CONTINUOUS
 62
   150
  5
442
 10
19.482937
 20
50.313698
 30
0.0
 11
19.51076
 21
50.248021
 31
0.0
  0
LINE
  8
1
  6
CONTINUOUS
 62
   150
  5
443
 10
19.51076
 20
50.248021
 30
0.0
 11
19.545531
 21
50.196948
 31
0.0
  0
LINE
  8
1
  6
CONTINUOUS
 62
   150
  5
444
 10
19.545531
 20
50.196948
 30
0.0
 11
19.566396
 21
50.153156
 31
0.0
  0
LINE
  8
1
  6
CONTINUOUS
 62
   150
  5
445
 10
19.566396
 20
50.153156
 30
0.0
 11
19.566396
 21
50.094781
 31
0.0
  0
LINE
  8
1
  6
CONTINUOUS
 62
   150
  5
446
 10
19.566396
 20
50.094781
 30
0.0
 11
19.538583
 21
50.05099
 31
0.0
  0
LINE
  8
1
  6
CONTINUOUS
 62
   150
  5
447
 10
19.538583
 20
50.05099
 30
0.0
 11
19.51076
 21
49.992615
 31
0.0
  0
LINE
  8
1
  6
CONTINUOUS
 62
   150
  5
448
 10
19.51076
 20
49.992615
 30
0.0
 11
19.47599
 21
49.926938
 31
0.0
  0
LINE
  8
1
  6
CONTINUOUS
 62
   150
  5
449
 10
19.47599
 20
49.926938
 30
0.0
 11
19.469031
 21
49.868562
 31
0.0
  0
LINE
  8
1
  6
CONTINUOUS
 62
   150
  5
44A
 10
19.469031
 20
49.868562
 30
0.0
 11
19.469031
 21
49.802885
 31
0.0
  0
LINE
  8
1
  6
CONTINUOUS
 62
   150
  5
44B
 10
19.469031
 20
49.802885
 30
0.0
 11
19.496854
 21
49.759094
 31
0.0
  0
LINE
  8
1
  6
CONTINUOUS
 62
   150
  5
44C
 10
19.496854
 20
49.759094
 30
0.0
 11
19.559437
 21
49.682479
 31
0.0
  0
LINE
  8
5
  6
CONTINUOUS
 62
   150
  5
44D
 10
17.317219
 20
49.767094
 30
0.0
 11
16.696646
 21
49.767094
 31
0.0
  0
LINE
  8
5
  6
CONTINUOUS
 62
   150
  5
44E
 10
17.910021
 20
49.767094
 30
0.0
 11
17.388823
 21
49.767094
 31
0.0
  0
LINE
  8
5
  6
CONTINUOUS
 62
   150
  5
44F
 10
18.00051
 20
50.001885
 30
0.0
 11
19.515177
 21
50.001885
 31
0.0
  0
LINE
  8
5
  6
CONTINUOUS
 62
   150
  5
450
 10
18.003094
 20
50.010385
 30
0.0
 11
19.519229
 21
50.010385
 31
0.0
  0
LINE
  8
5
  6
CONTINUOUS
 62
   150
  5
451
 10
18.003167
 20
50.018885
 30
0.0
 11
19.523281
 21
50.018885
 31
0.0
  0
LINE
  8
5
  6
CONTINUOUS
 62
   150
  5
452
 10
18.00076
 20
50.027385
 30
0.0
 11
19.527323
 21
50.027385
 31
0.0
  0
LINE
  8
5
  6
CONTINUOUS
 62
   150
  5
453
 10
17.995083
 20
50.035885
 30
0.0
 11
19.531375
 21
50.035885
 31
0.0
  0
LINE
  8
5
  6
CONTINUOUS
 62
   150
  5
454
 10
17.394115
 20
50.001885
 30
0.0
 11
17.917635
 21
50.001885
 31
0.0
  0
LINE
  8
5
  6
CONTINUOUS
 62
   150
  5
455
 10
17.396698
 20
50.010385
 30
0.0
 11
17.915052
 21
50.010385
 31
0.0
  0
LINE
  8
5
  6
CONTINUOUS
 62
   150
  5
456
 10
17.396771
 20
50.018885
 30
0.0
 11
17.914979
 21
50.018885
 31
0.0
  0
LINE
  8
5
  6
CONTINUOUS
 62
   150
  5
457
 10
17.394354
 20
50.027385
 30
0.0
 11
17.917385
 21
50.027385
 31
0.0
  0
LINE
  8
5
  6
CONTINUOUS
 62
   150
  5
458
 10
17.388677
 20
50.035885
 30
0.0
 11
17.923073
 21
50.035885
 31
0.0
  0
LINE
  8
5
  6
CONTINUOUS
 62
   150
  5
459
 10
17.914427
 20
50.302875
 30
0.0
 11
17.393135
 21
50.302875
 31
0.0
  0
LINE
  8
5
  6
CONTINUOUS
 62
   150
  5
45A
 10
17.929083
 20
50.359281
 30
0.0
 11
17.393135
 21
50.359281
 31
0.0
  0
LINE
  8
5
  6
CONTINUOUS
 62
   150
  5
45B
 10
17.305167
 20
50.302875
 30
0.0
 11
16.687083
 21
50.302875
 31
0.0
  0
LINE
  8
5
  6
CONTINUOUS
 62
   150
  5
45C
 10
17.318208
 20
50.359281
 30
0.0
 11
16.687083
 21
50.359281
 31
0.0
  0
LINE
  8
5
  6
CONTINUOUS
 62
   150
  5
45D
 10
17.386625
 20
50.044385
 30
0.0
 11
17.922562
 21
50.044385
 31
0.0
  0
LINE
  8
5
  6
CONTINUOUS
 62
   150
  5
45E
 10
17.992615
 20
50.044385
 30
0.0
 11
19.535427
 21
50.044385
 31
0.0
  0
LINE
  8
5
  6
CONTINUOUS
 62
   150
  5
45F
 10
17.99375
 20
50.527198
 30
0.0
 11
19.467885
 21
50.527198
 31
0.0
  0
LINE
  8
5
  6
CONTINUOUS
 62
   150
  5
460
 10
17.388604
 20
50.527198
 30
0.0
 11
17.926458
 21
50.527198
 31
0.0
  0
LINE
  8
5
  6
CONTINUOUS
 62
   150
  5
461
 10
17.386625
 20
50.535698
 30
0.0
 11
17.924187
 21
50.535698
 31
0.0
  0
LINE
  8
5
  6
CONTINUOUS
 62
   150
  5
462
 10
17.987729
 20
50.535698
 30
0.0
 11
18.073417
 21
50.535698
 31
0.0
  0
LINE
  8
5
  6
CONTINUOUS
 62
   150
  5
463
 10
17.984469
 20
50.544198
 30
0.0
 11
19.473448
 21
50.544198
 31
0.0
  0
LINE
  8
5
  6
CONTINUOUS
 62
   150
  5
464
 10
17.376844
 20
50.544198
 30
0.0
 11
17.937229
 21
50.544198
 31
0.0
  0
LINE
  8
5
  6
CONTINUOUS
 62
   150
  5
465
 10
20.87999
 20
49.68799
 30
0.0
 11
21.732521
 21
49.68799
 31
0.0
  0
LINE
  8
5
  6
CONTINUOUS
 62
   217
  5
466
 10
21.897302
 20
50.576167
 30
0.0
 11
22.091063
 21
50.640052
 31
0.0
  0
LINE
  8
5
  6
CONTINUOUS
 62
   217
  5
467
 10
21.797656
 20
50.571813
 30
0.0
 11
21.897302
 21
50.576167
 31
0.0
  0
LINE
  8
5
  6
CONTINUOUS
 62
   217
  5
468
 10
22.241906
 20
50.67925
 30
0.0
 11
22.462781
 21
50.702646
 31
0.0
  0
LINE
  8
5
  6
CONTINUOUS
 62
   217
  5
469
 10
21.901458
 20
50.55875
 30
0.0
 11
22.241906
 21
50.67925
 31
0.0
  0
LINE
  8
5
  6
CONTINUOUS
 62
   217
  5
46A
 10
21.735385
 20
50.55875
 30
0.0
 11
21.901458
 21
50.55875
 31
0.0
  0
LINE
  8
5
  6
CONTINUOUS
 62
   217
  5
46B
 10
22.248823
 20
50.657479
 30
0.0
 11
22.675323
 21
50.702646
 31
0.0
  0
LINE
  8
5
  6
CONTINUOUS
 62
   217
  5
46C
 10
21.908385
 20
50.536969
 30
0.0
 11
22.248823
 21
50.657479
 31
0.0
  0
LINE
  8
5
  6
CONTINUOUS
 62
   217
  5
46D
 10
21.742302
 20
50.536969
 30
0.0
 11
21.908385
 21
50.536969
 31
0.0
  0
LINE
  8
5
  6
CONTINUOUS
 62
   217
  5
46E
 10
22.250219
 20
50.640052
 30
0.0
 11
22.680812
 21
50.685656
 31
0.0
  0
LINE
  8
5
  6
CONTINUOUS
 62
   217
  5
46F
 10
21.90976
 20
50.519542
 30
0.0
 11
22.250219
 21
50.640052
 31
0.0
  0
LINE
  8
5
  6
CONTINUOUS
 62
   217
  5
470
 10
21.743688
 20
50.519542
 30
0.0
 11
21.90976
 21
50.519542
 31
0.0
  0
LINE
  8
5
  6
CONTINUOUS
 62
   217
  5
471
 10
22.257125
 20
50.624083
 30
0.0
 11
22.680812
 21
50.668958
 31
0.0
  0
LINE
  8
5
  6
CONTINUOUS
 62
   217
  5
472
 10
22.552448
 20
49.487354
 30
0.0
 11
22.251531
 21
49.537302
 31
0.0
  0
LINE
  8
5
  6
CONTINUOUS
 62
   217
  5
473
 10
22.605177
 20
49.487354
 30
0.0
 11
22.257458
 21
49.545073
 31
0.0
  0
LINE
  8
5
  6
CONTINUOUS
 62
   217
  5
474
 10
22.257458
 20
49.545073
 30
0.0
 11
21.736354
 21
49.71324
 31
0.0
  0
LINE
  8
5
  6
CONTINUOUS
 62
   217
  5
475
 10
22.251531
 20
49.537302
 30
0.0
 11
21.736354
 21
49.698427
 31
0.0
  0
LINE
  8
5
  6
CONTINUOUS
 62
   217
  5
476
 10
22.261906
 20
49.554396
 30
0.0
 11
21.736354
 21
49.729406
 31
0.0
  0
LINE
  8
5
  6
CONTINUOUS
 62
   217
  5
477
 10
22.665781
 20
49.487354
 30
0.0
 11
22.261906
 21
49.554396
 31
0.0
  0
LINE
  8
5
  6
CONTINUOUS
 62
   217
  5
478
 10
22.71851
 20
49.487354
 30
0.0
 11
22.267823
 21
49.562167
 31
0.0
  0
LINE
  8
1
  6
CONTINUOUS
 62
   150
  5
479
 10
19.669042
 20
50.569375
 30
0.0
 11
20.884385
 21
50.569375
 31
0.0
  0
LINE
  8
1
  6
CONTINUOUS
 62
   150
  5
47A
 10
19.745427
 20
49.682479
 30
0.0
 11
21.736354
 21
49.682479
 31
0.0
  0
LINE
  8
5
  6
CONTINUOUS
 62
   150
  5
47B
 10
20.87999
 20
49.729885
 30
0.0
 11
19.706708
 21
49.729885
 31
0.0
  0
LINE
  8
5
  6
CONTINUOUS
 62
   150
  5
47C
 10
21.736354
 20
49.721385
 30
0.0
 11
19.713646
 21
49.721385
 31
0.0
  0
LINE
  8
5
  6
CONTINUOUS
 62
   150
  5
47D
 10
21.736354
 20
49.712885
 30
0.0
 11
19.720583
 21
49.712885
 31
0.0
  0
LINE
  8
5
  6
CONTINUOUS
 62
   150
  5
47E
 10
21.736354
 20
49.704385
 30
0.0
 11
19.727531
 21
49.704385
 31
0.0
  0
LINE
  8
5
  6
CONTINUOUS
 62
   150
  5
47F
 10
21.736354
 20
49.695885
 30
0.0
 11
19.734469
 21
49.695885
 31
0.0
  0
LINE
  8
5
  6
CONTINUOUS
 62
   150
  5
480
 10
21.736354
 20
50.527198
 30
0.0
 11
19.653875
 21
50.527198
 31
0.0
  0
LINE
  8
5
  6
CONTINUOUS
 62
   150
  5
481
 10
21.736354
 20
50.535698
 30
0.0
 11
19.656187
 21
50.535698
 31
0.0
  0
LINE
  8
5
  6
CONTINUOUS
 62
   150
  5
482
 10
21.736354
 20
50.544198
 30
0.0
 11
19.659427
 21
50.544198
 31
0.0
  0
LINE
  8
5
  6
CONTINUOUS
 62
   150
  5
483
 10
21.736354
 20
50.552687
 30
0.0
 11
19.662677
 21
50.552687
 31
0.0
  0
LINE
  8
5
  6
CONTINUOUS
 62
   150
  5
484
 10
21.736354
 20
50.561198
 30
0.0
 11
19.665917
 21
50.561198
 31
0.0
  0
LINE
  8
5
  6
CONTINUOUS
 62
   150
  5
485
 10
20.870865
 20
50.561198
 30
0.0
 11
20.743365
 21
50.561198
 31
0.0
  0
LINE
  8
5
  6
CONTINUOUS
 62
   150
  5
486
 10
20.62751
 20
50.207802
 30
0.0
 11
20.62751
 21
50.023667
 31
0.0
  0
LINE
  8
5
  6
CONTINUOUS
 62
   150
  5
487
 10
20.615604
 20
50.197677
 30
0.0
 11
20.615604
 21
50.03551
 31
0.0
  0
LINE
  8
5
  6
CONTINUOUS
 62
   150
  5
488
 10
20.656802
 20
50.232687
 30
0.0
 11
19.707177
 21
50.232687
 31
0.0
  0
LINE
  8
5
  6
CONTINUOUS
 62
   150
  5
489
 10
20.646792
 20
50.224187
 30
0.0
 11
19.712969
 21
50.224187
 31
0.0
  0
LINE
  8
5
  6
CONTINUOUS
 62
   150
  5
48A
 10
20.636802
 20
50.215688
 30
0.0
 11
19.71875
 21
50.215688
 31
0.0
  0
LINE
  8
5
  6
CONTINUOUS
 62
   150
  5
48B
 10
20.626792
 20
50.207187
 30
0.0
 11
19.724542
 21
50.207187
 31
0.0
  0
LINE
  8
5
  6
CONTINUOUS
 62
   150
  5
48C
 10
20.616802
 20
50.198687
 30
0.0
 11
19.730323
 21
50.198687
 31
0.0
  0
LINE
  8
5
  6
CONTINUOUS
 62
   150
  5
48D
 10
20.649437
 20
50.001885
 30
0.0
 11
19.701156
 21
50.001885
 31
0.0
  0
LINE
  8
5
  6
CONTINUOUS
 62
   150
  5
48E
 10
20.640885
 20
50.010385
 30
0.0
 11
19.705219
 21
50.010385
 31
0.0
  0
LINE
  8
5
  6
CONTINUOUS
 62
   150
  5
48F
 10
20.632323
 20
50.018885
 30
0.0
 11
19.70926
 21
50.018885
 31
0.0
  0
LINE
  8
5
  6
CONTINUOUS
 62
   150
  5
490
 10
20.623771
 20
50.027385
 30
0.0
 11
19.713323
 21
50.027385
 31
0.0
  0
LINE
  8
5
  6
CONTINUOUS
 62
   150
  5
491
 10
20.615219
 20
50.035885
 30
0.0
 11
19.717365
 21
50.035885
 31
0.0
  0
LINE
  8
5
  6
CONTINUOUS
 62
   150
  5
492
 10
19.674385
 20
49.950385
 30
0.0
 11
20.638031
 21
49.950385
 31
0.0
  0
LINE
  8
5
  6
CONTINUOUS
 62
   150
  5
493
 10
19.659729
 20
49.908083
 30
0.0
 11
20.678365
 21
49.908083
 31
0.0
  0
LINE
  8
5
  6
CONTINUOUS
 62
   150
  5
494
 10
19.655021
 20
49.851687
 30
0.0
 11
20.767969
 21
49.851687
 31
0.0
  0
LINE
  8
5
  6
CONTINUOUS
 62
   150
  5
495
 10
19.659844
 20
49.795292
 30
0.0
 11
20.808292
 21
49.795292
 31
0.0
  0
LINE
  8
5
  6
CONTINUOUS
 62
   150
  5
496
 10
19.67776
 20
49.767094
 30
0.0
 11
20.82174
 21
49.767094
 31
0.0
  0
LINE
  8
5
  6
CONTINUOUS
 62
   150
  5
497
 10
20.839667
 20
49.875187
 30
0.0
 11
20.839667
 21
50.345177
 31
0.0
  0
LINE
  8
5
  6
CONTINUOUS
 62
   150
  5
498
 10
20.794854
 20
49.912792
 30
0.0
 11
20.794854
 21
50.307573
 31
0.0
  0
LINE
  8
5
  6
CONTINUOUS
 62
   150
  5
499
 10
20.754531
 20
49.973885
 30
0.0
 11
20.754531
 21
50.279375
 31
0.0
  0
LINE
  8
5
  6
CONTINUOUS
 62
   150
  5
49A
 10
20.709719
 20
49.997385
 30
0.0
 11
20.709719
 21
50.22299
 31
0.0
  0
LINE
  8
5
  6
CONTINUOUS
 62
   150
  5
49B
 10
19.685458
 20
50.274687
 30
0.0
 11
20.606667
 21
50.274687
 31
0.0
  0
LINE
  8
5
  6
CONTINUOUS
 62
   150
  5
49C
 10
19.67351
 20
50.302875
 30
0.0
 11
20.615625
 21
50.302875
 31
0.0
  0
LINE
  8
5
  6
CONTINUOUS
 62
   150
  5
49D
 10
19.653135
 20
50.359281
 30
0.0
 11
20.723167
 21
50.359281
 31
0.0
  0
LINE
  8
5
  6
CONTINUOUS
 62
   150
  5
49E
 10
19.641115
 20
50.420375
 30
0.0
 11
20.772458
 21
50.420375
 31
0.0
  0
LINE
  8
5
  6
CONTINUOUS
 62
   150
  5
49F
 10
20.606667
 20
50.190083
 30
0.0
 11
20.87999
 21
50.422406
 31
0.0
  0
LINE
  8
5
  6
CONTINUOUS
 62
   150
  5
4A0
 10
20.606667
 20
50.044385
 30
0.0
 11
20.87999
 21
49.772781
 31
0.0
  0
LINE
  8
5
  6
CONTINUOUS
 62
   150
  5
4A1
 10
20.606667
 20
50.044385
 30
0.0
 11
19.721417
 21
50.044385
 31
0.0
  0
LINE
  8
5
  6
CONTINUOUS
 62
   150
  5
4A2
 10
20.606667
 20
50.190083
 30
0.0
 11
20.606667
 21
50.044385
 31
0.0
  0
LINE
  8
5
  6
CONTINUOUS
 62
   150
  5
4A3
 10
19.734792
 20
50.190083
 30
0.0
 11
20.606667
 21
50.190083
 31
0.0
  0
LINE
  8
5
  6
CONTINUOUS
 62
   150
  5
4A4
 10
20.87999
 20
49.682479
 30
0.0
 11
20.87999
 21
50.569375
 31
0.0
  0
CIRCLE
  8
1
  6
CONTINUOUS
 62
   150
  5
4A5
 10
21.31084
 20
50.132291
 30
0.0
 40
0.03428
210
0.0
220
0.0
230
1.0
  0
CIRCLE
  8
1
  6
CONTINUOUS
 62
   150
  5
4A6
 10
21.61313
 20
49.77043
 30
0.0
 40
0.033242
210
0.0
220
0.0
230
1.0
  0
CIRCLE
  8
1
  6
CONTINUOUS
 62
   150
  5
4A7
 10
21.004388
 20
49.77043
 30
0.0
 40
0.033242
210
0.0
220
0.0
230
1.0
  0
CIRCLE
  8
1
  6
CONTINUOUS
 62
   150
  5
4A8
 10
21.004388
 20
50.477772
 30
0.0
 40
0.033242
210
0.0
220
0.0
230
1.0
  0
CIRCLE
  8
1
  6
CONTINUOUS
 62
   150
  5
4A9
 10
21.61313
 20
50.477772
 30
0.0
 40
0.033242
210
0.0
220
0.0
230
1.0
  0
LINE
  8
2
  6
HIDDEN
 62
     2
  5
4AA
 10
21.085406
 20
49.682479
 30
0.0
 11
21.085406
 21
50.591115
 31
0.0
  0
LINE
  8
2
  6
HIDDEN
 62
     2
  5
4AB
 10
21.509042
 20
49.682479
 30
0.0
 11
21.509042
 21
50.591115
 31
0.0
  0
LINE
  8
1
  6
CONTINUOUS
 62
   233
  5
4AC
 10
21.509042
 20
50.591115
 30
0.0
 11
21.085406
 21
50.591115
 31
0.0
  0
LINE
  8
2
  6
HIDDEN
 62
     2
  5
4AD
 10
21.736354
 20
49.682479
 30
0.0
 11
21.736354
 21
50.569375
 31
0.0
  0
LINE
  8
5
  6
CONTINUOUS
 62
   217
  5
4AE
 10
22.037427
 20
50.642021
 30
0.0
 11
21.963677
 21
50.642021
 31
0.0
  0
LINE
  8
5
  6
CONTINUOUS
 62
   217
  5
4AF
 10
22.089521
 20
50.654583
 30
0.0
 11
21.963677
 21
50.654583
 31
0.0
  0
LINE
  8
5
  6
CONTINUOUS
 62
   217
  5
4B0
 10
22.155802
 20
50.670573
 30
0.0
 11
21.963677
 21
50.670573
 31
0.0
  0
LINE
  8
5
  6
CONTINUOUS
 62
   217
  5
4B1
 10
22.207896
 20
50.683135
 30
0.0
 11
21.963677
 21
50.683135
 31
0.0
  0
LINE
  8
5
  6
CONTINUOUS
 62
   217
  5
4B2
 10
22.267781
 20
50.696844
 30
0.0
 11
21.963677
 21
50.696844
 31
0.0
  0
LINE
  8
5
  6
CONTINUOUS
 62
   217
  5
4B3
 10
22.079479
 20
49.578396
 30
0.0
 11
21.963677
 21
49.578396
 31
0.0
  0
LINE
  8
5
  6
CONTINUOUS
 62
   217
  5
4B4
 10
22.14226
 20
49.559333
 30
0.0
 11
21.963677
 21
49.559333
 31
0.0
  0
LINE
  8
5
  6
CONTINUOUS
 62
   217
  5
4B5
 10
22.194583
 20
49.543469
 30
0.0
 11
21.963677
 21
49.543469
 31
0.0
  0
LINE
  8
5
  6
CONTINUOUS
 62
   217
  5
4B6
 10
22.264354
 20
49.522302
 30
0.0
 11
21.963677
 21
49.522302
 31
0.0
  0
LINE
  8
5
  6
CONTINUOUS
 62
   217
  5
4B7
 10
22.320167
 20
49.505375
 30
0.0
 11
21.963677
 21
49.505375
 31
0.0
  0
LINE
  8
5
  6
CONTINUOUS
 62
   217
  5
4B8
 10
22.255812
 20
50.623615
 30
0.0
 11
22.255812
 21
49.556427
 31
0.0
  0
LINE
  8
5
  6
CONTINUOUS
 62
   217
  5
4B9
 10
22.349313
 20
50.633844
 30
0.0
 11
22.349313
 21
49.548646
 31
0.0
  0
LINE
  8
5
  6
CONTINUOUS
 62
   217
  5
4BA
 10
22.442812
 20
50.64375
 30
0.0
 11
22.442812
 21
49.533125
 31
0.0
  0
LINE
  8
5
  6
CONTINUOUS
 62
   217
  5
4BB
 10
22.502312
 20
50.650052
 30
0.0
 11
22.502312
 21
49.52324
 31
0.0
  0
LINE
  8
5
  6
CONTINUOUS
 62
   217
  5
4BC
 10
22.536312
 20
50.653656
 30
0.0
 11
22.536312
 21
49.517604
 31
0.0
  0
LINE
  8
5
  6
CONTINUOUS
 62
   217
  5
4BD
 10
22.570313
 20
50.65725
 30
0.0
 11
22.570313
 21
49.511948
 31
0.0
  0
LINE
  8
5
  6
CONTINUOUS
 62
   217
  5
4BE
 10
22.604312
 20
50.660854
 30
0.0
 11
22.604312
 21
49.506313
 31
0.0
  0
LINE
  8
5
  6
CONTINUOUS
 62
   217
  5
4BF
 10
22.629813
 20
50.663552
 30
0.0
 11
22.629813
 21
49.502083
 31
0.0
  0
LINE
  8
5
  6
CONTINUOUS
 62
   217
  5
4C0
 10
22.655313
 20
50.66626
 30
0.0
 11
22.655313
 21
49.497844
 31
0.0
  0
LINE
  8
5
  6
CONTINUOUS
 62
   217
  5
4C1
 10
22.680812
 20
50.702646
 30
0.0
 11
22.680812
 21
49.493615
 31
0.0
  0
LINE
  8
5
  6
CONTINUOUS
 62
   217
  5
4C2
 10
22.697812
 20
50.702646
 30
0.0
 11
22.697812
 21
49.487354
 31
0.0
  0
LINE
  8
5
  6
CONTINUOUS
 62
   217
  5
4C3
 10
22.714813
 20
50.702646
 30
0.0
 11
22.714813
 21
49.487354
 31
0.0
  0
LINE
  8
5
  6
CONTINUOUS
 62
   217
  5
4C4
 10
22.758385
 20
50.702646
 30
0.0
 11
22.758385
 21
49.487354
 31
0.0
  0
LINE
  8
5
  6
CONTINUOUS
 62
   217
  5
4C5
 10
22.748813
 20
50.702646
 30
0.0
 11
22.748813
 21
49.487354
 31
0.0
  0
LINE
  8
5
  6
CONTINUOUS
 62
   217
  5
4C6
 10
22.741385
 20
50.702646
 30
0.0
 11
22.741385
 21
49.487354
 31
0.0
  0
LINE
  8
5
  6
CONTINUOUS
 62
   217
  5
4C7
 10
22.731813
 20
50.702646
 30
0.0
 11
22.731813
 21
49.487354
 31
0.0
  0
LINE
  8
5
  6
CONTINUOUS
 62
   217
  5
4C8
 10
22.765812
 20
50.702646
 30
0.0
 11
22.765812
 21
49.487354
 31
0.0
  0
LINE
  8
5
  6
CONTINUOUS
 62
   217
  5
4C9
 10
22.775385
 20
50.702646
 30
0.0
 11
22.775385
 21
49.487354
 31
0.0
  0
LINE
  8
5
  6
CONTINUOUS
 62
   217
  5
4CA
 10
22.782812
 20
50.702646
 30
0.0
 11
22.782812
 21
49.487354
 31
0.0
  0
LINE
  8
5
  6
CONTINUOUS
 62
   217
  5
4CB
 10
22.792385
 20
50.702646
 30
0.0
 11
22.792385
 21
49.487354
 31
0.0
  0
LINE
  8
1
  6
CONTINUOUS
 62
   150
  5
4CC
 10
22.28876
 20
50.702646
 30
0.0
 11
21.736354
 21
50.569375
 31
0.0
  0
LINE
  8
1
  6
CONTINUOUS
 62
   150
  5
4CD
 10
21.963677
 20
50.624219
 30
0.0
 11
21.963677
 21
50.702646
 31
0.0
  0
LINE
  8
1
  6
CONTINUOUS
 62
   150
  5
4CE
 10
22.810948
 20
50.702646
 30
0.0
 11
21.963677
 21
50.702646
 31
0.0
  0
LINE
  8
1
  6
CONTINUOUS
 62
   150
  5
4CF
 10
21.963677
 20
49.487354
 30
0.0
 11
21.963677
 21
49.613521
 31
0.0
  0
LINE
  8
1
  6
CONTINUOUS
 62
   150
  5
4D0
 10
22.810948
 20
49.487354
 30
0.0
 11
22.810948
 21
50.702646
 31
0.0
  0
LINE
  8
1
  6
CONTINUOUS
 62
   150
  5
4D1
 10
21.963677
 20
49.487354
 30
0.0
 11
22.810948
 21
49.487354
 31
0.0
  0
LINE
  8
1
  6
CONTINUOUS
 62
   150
  5
4D2
 10
21.736354
 20
49.682479
 30
0.0
 11
22.379562
 21
49.487354
 31
0.0
  0
LINE
  8
1
  6
CONTINUOUS
 62
   233
  5
4D3
 10
21.509042
 20
48.246198
 30
0.0
 11
21.509042
 21
49.682479
 31
0.0
  0
LINE
  8
1
  6
CONTINUOUS
 62
   233
  5
4D4
 10
21.085406
 20
48.518052
 30
0.0
 11
21.085406
 21
49.682479
 31
0.0
  0
LINE
  8
1
  6
CONTINUOUS
 62
   233
  5
4D5
 10
21.085406
 20
48.518052
 30
0.0
 11
21.184531
 21
48.447063
 31
0.0
  0
LINE
  8
1
  6
CONTINUOUS
 62
   233
  5
4D6
 10
21.184531
 20
48.447063
 30
0.0
 11
21.224552
 21
48.480677
 31
0.0
  0
LINE
  8
1
  6
CONTINUOUS
 62
   233
  5
4D7
 10
21.224552
 20
48.480677
 30
0.0
 11
21.308625
 21
48.298615
 31
0.0
  0
LINE
  8
1
  6
CONTINUOUS
 62
   233
  5
4D8
 10
21.308625
 20
48.298615
 30
0.0
 11
21.355333
 21
48.337823
 31
0.0
  0
LINE
  8
1
  6
CONTINUOUS
 62
   233
  5
4D9
 10
21.355333
 20
48.337823
 30
0.0
 11
21.509042
 21
48.246198
 31
0.0
  0
LINE
  8
1
  6
CONTINUOUS
 62
   233
  5
4DA
 10
21.355333
 20
48.13476
 30
0.0
 11
21.509042
 21
48.043125
 31
0.0
  0
LINE
  8
1
  6
CONTINUOUS
 62
   233
  5
4DB
 10
21.308625
 20
48.095542
 30
0.0
 11
21.355333
 21
48.13476
 31
0.0
  0
LINE
  8
1
  6
CONTINUOUS
 62
   233
  5
4DC
 10
21.224552
 20
48.277604
 30
0.0
 11
21.308625
 21
48.095542
 31
0.0
  0
LINE
  8
1
  6
CONTINUOUS
 62
   233
  5
4DD
 10
21.184531
 20
48.24399
 30
0.0
 11
21.224552
 21
48.277604
 31
0.0
  0
LINE
  8
1
  6
CONTINUOUS
 62
   233
  5
4DE
 10
21.085406
 20
48.314979
 30
0.0
 11
21.184531
 21
48.24399
 31
0.0
  0
LINE
  8
1
  6
CONTINUOUS
 62
   233
  5
4DF
 10
21.509042
 20
47.633594
 30
0.0
 11
21.509042
 21
48.043125
 31
0.0
  0
LINE
  8
1
  6
CONTINUOUS
 62
   233
  5
4E0
 10
21.085406
 20
47.633594
 30
0.0
 11
21.085406
 21
48.314979
 31
0.0
  0
LINE
  8
1
  6
CONTINUOUS
 62
   233
  5
4E1
 10
21.085406
 20
47.633594
 30
0.0
 11
21.509042
 21
47.633594
 31
0.0
  0
LINE
  8
1
  6
CONTINUOUS
 62
   150
  5
4E2
 10
19.682844
 20
49.759094
 30
0.0
 11
19.745427
 21
49.682479
 31
0.0
  0
LINE
  8
1
  6
CONTINUOUS
 62
   150
  5
4E3
 10
19.655021
 20
49.802885
 30
0.0
 11
19.682844
 21
49.759094
 31
0.0
  0
LINE
  8
1
  6
CONTINUOUS
 62
   150
  5
4E4
 10
19.655021
 20
49.868562
 30
0.0
 11
19.655021
 21
49.802885
 31
0.0
  0
LINE
  8
1
  6
CONTINUOUS
 62
   150
  5
4E5
 10
19.661969
 20
49.926938
 30
0.0
 11
19.655021
 21
49.868562
 31
0.0
  0
LINE
  8
1
  6
CONTINUOUS
 62
   150
  5
4E6
 10
19.69674
 20
49.992615
 30
0.0
 11
19.661969
 21
49.926938
 31
0.0
  0
LINE
  8
1
  6
CONTINUOUS
 62
   150
  5
4E7
 10
19.724563
 20
50.05099
 30
0.0
 11
19.69674
 21
49.992615
 31
0.0
  0
LINE
  8
1
  6
CONTINUOUS
 62
   150
  5
4E8
 10
19.752385
 20
50.094781
 30
0.0
 11
19.724563
 21
50.05099
 31
0.0
  0
LINE
  8
1
  6
CONTINUOUS
 62
   150
  5
4E9
 10
19.752385
 20
50.153156
 30
0.0
 11
19.752385
 21
50.094781
 31
0.0
  0
LINE
  8
1
  6
CONTINUOUS
 62
   150
  5
4EA
 10
19.731521
 20
50.196948
 30
0.0
 11
19.752385
 21
50.153156
 31
0.0
  0
LINE
  8
1
  6
CONTINUOUS
 62
   150
  5
4EB
 10
19.69674
 20
50.248021
 30
0.0
 11
19.731521
 21
50.196948
 31
0.0
  0
LINE
  8
1
  6
CONTINUOUS
 62
   150
  5
4EC
 10
19.668927
 20
50.313698
 30
0.0
 11
19.69674
 21
50.248021
 31
0.0
  0
LINE
  8
1
  6
CONTINUOUS
 62
   150
  5
4ED
 10
19.641115
 20
50.393969
 30
0.0
 11
19.668927
 21
50.313698
 31
0.0
  0
LINE
  8
1
  6
CONTINUOUS
 62
   150
  5
4EE
 10
19.641115
 20
50.466948
 30
0.0
 11
19.641115
 21
50.393969
 31
0.0
  0
LINE
  8
1
  6
CONTINUOUS
 62
   150
  5
4EF
 10
19.655021
 20
50.532615
 30
0.0
 11
19.641115
 21
50.466948
 31
0.0
  0
LINE
  8
1
  6
CONTINUOUS
 62
   150
  5
4F0
 10
19.669042
 20
50.569375
 30
0.0
 11
19.655021
 21
50.532615
 31
0.0
  0
LINE
  8
4
  6
CONTINUOUS
 62
    99
  5
4F2
 10
22.552115
 20
48.911063
 30
0.0
 11
21.509042
 21
48.911063
 31
0.0
  0
LINE
  8
4
  6
CONTINUOUS
 62
    99
  5
4F3
 10
20.080573
 20
48.911063
 30
0.0
 11
19.911708
 21
48.742198
 31
0.0
  0
LINE
  8
4
  6
CONTINUOUS
 62
    99
  5
4F4
 10
20.16701
 20
48.911063
 30
0.0
 11
19.998135
 21
48.742198
 31
0.0
  0
LINE
  8
4
  6
CONTINUOUS
 62
    99
  5
4F5
 10
20.253448
 20
48.911063
 30
0.0
 11
20.084583
 21
48.742198
 31
0.0
  0
LINE
  8
4
  6
CONTINUOUS
 62
    99
  5
4F6
 10
20.339896
 20
48.911063
 30
0.0
 11
20.171021
 21
48.742198
 31
0.0
  0
LINE
  8
4
  6
CONTINUOUS
 62
    99
  5
4F7
 10
20.425385
 20
48.911063
 30
0.0
 11
20.502875
 21
48.833573
 31
0.0
  0
LINE
  8
4
  6
CONTINUOUS
 62
    99
  5
4F8
 10
20.359083
 20
48.911063
 30
0.0
 11
20.469729
 21
48.800417
 31
0.0
  0
LINE
  8
4
  6
CONTINUOUS
 62
    99
  5
4F9
 10
20.301042
 20
48.872208
 30
0.0
 11
20.421281
 21
48.751969
 31
0.0
  0
LINE
  8
4
  6
CONTINUOUS
 62
    99
  5
4FA
 10
20.262792
 20
48.833958
 30
0.0
 11
20.354563
 21
48.742198
 31
0.0
  0
LINE
  8
4
  6
CONTINUOUS
 62
    99
  5
4FB
 10
22.38324
 20
48.742198
 30
0.0
 11
21.509042
 21
48.742198
 31
0.0
  0
LINE
  8
4
  6
CONTINUOUS
 62
    99
  5
4FC
 10
20.220292
 20
48.791458
 30
0.0
 11
20.269562
 21
48.742198
 31
0.0
  0
LINE
  8
4
  6
CONTINUOUS
 62
    99
  5
4FD
 10
20.580375
 20
48.911063
 30
0.0
 11
20.4115
 21
48.742198
 31
0.0
  0
LINE
  8
4
  6
CONTINUOUS
 62
    99
  5
4FE
 10
20.666812
 20
48.911063
 30
0.0
 11
20.497937
 21
48.742198
 31
0.0
  0
LINE
  8
4
  6
CONTINUOUS
 62
    99
  5
4FF
 10
20.75325
 20
48.911063
 30
0.0
 11
20.584385
 21
48.742198
 31
0.0
  0
LINE
  8
4
  6
CONTINUOUS
 62
    99
  5
500
 10
20.839688
 20
48.911063
 30
0.0
 11
20.670823
 21
48.742198
 31
0.0
  0
LINE
  8
4
  6
CONTINUOUS
 62
    99
  5
501
 10
20.925188
 20
48.911063
 30
0.0
 11
21.002677
 21
48.833573
 31
0.0
  0
LINE
  8
4
  6
CONTINUOUS
 62
    99
  5
502
 10
20.858885
 20
48.911063
 30
0.0
 11
20.969531
 21
48.800417
 31
0.0
  0
LINE
  8
4
  6
CONTINUOUS
 62
    99
  5
503
 10
20.800844
 20
48.872208
 30
0.0
 11
20.921083
 21
48.751969
 31
0.0
  0
LINE
  8
4
  6
CONTINUOUS
 62
    99
  5
504
 10
20.762594
 20
48.833958
 30
0.0
 11
20.854365
 21
48.742198
 31
0.0
  0
LINE
  8
4
  6
CONTINUOUS
 62
    99
  5
505
 10
20.720094
 20
48.791458
 30
0.0
 11
20.769365
 21
48.742198
 31
0.0
  0
LINE
  8
4
  6
CONTINUOUS
 62
    99
  5
506
 10
21.080167
 20
48.911063
 30
0.0
 11
20.911302
 21
48.742198
 31
0.0
  0
LINE
  8
4
  6
CONTINUOUS
 62
    99
  5
507
 10
21.085406
 20
48.829854
 30
0.0
 11
20.99774
 21
48.742198
 31
0.0
  0
LINE
  8
4
  6
CONTINUOUS
 62
    99
  5
508
 10
22.48751
 20
48.911063
 30
0.0
 11
22.318635
 21
48.742198
 31
0.0
  0
LINE
  8
4
  6
CONTINUOUS
 62
    99
  5
509
 10
22.401073
 20
48.911063
 30
0.0
 11
22.232208
 21
48.742198
 31
0.0
  0
LINE
  8
4
  6
CONTINUOUS
 62
    99
  5
50A
 10
22.04099
 20
48.791458
 30
0.0
 11
22.09026
 21
48.742198
 31
0.0
  0
LINE
  8
4
  6
CONTINUOUS
 62
    99
  5
50B
 10
22.08349
 20
48.833958
 30
0.0
 11
22.17526
 21
48.742198
 31
0.0
  0
LINE
  8
4
  6
CONTINUOUS
 62
    99
  5
50C
 10
22.12174
 20
48.872208
 30
0.0
 11
22.241979
 21
48.751969
 31
0.0
  0
LINE
  8
4
  6
CONTINUOUS
 62
    99
  5
50D
 10
22.179792
 20
48.911063
 30
0.0
 11
22.290427
 21
48.800417
 31
0.0
  0
LINE
  8
4
  6
CONTINUOUS
 62
    99
  5
50E
 10
22.246083
 20
48.911063
 30
0.0
 11
22.323583
 21
48.833573
 31
0.0
  0
LINE
  8
4
  6
CONTINUOUS
 62
    99
  5
50F
 10
22.160594
 20
48.911063
 30
0.0
 11
21.991729
 21
48.742198
 31
0.0
  0
LINE
  8
4
  6
CONTINUOUS
 62
    99
  5
510
 10
22.074146
 20
48.911063
 30
0.0
 11
21.905281
 21
48.742198
 31
0.0
  0
LINE
  8
4
  6
CONTINUOUS
 62
    99
  5
511
 10
21.987719
 20
48.911063
 30
0.0
 11
21.818844
 21
48.742198
 31
0.0
  0
LINE
  8
4
  6
CONTINUOUS
 62
    99
  5
512
 10
21.901271
 20
48.911063
 30
0.0
 11
21.732406
 21
48.742198
 31
0.0
  0
LINE
  8
4
  6
CONTINUOUS
 62
    99
  5
513
 10
21.541187
 20
48.791458
 30
0.0
 11
21.590458
 21
48.742198
 31
0.0
  0
LINE
  8
4
  6
CONTINUOUS
 62
    99
  5
514
 10
21.583688
 20
48.833958
 30
0.0
 11
21.675458
 21
48.742198
 31
0.0
  0
LINE
  8
4
  6
CONTINUOUS
 62
    99
  5
515
 10
21.621937
 20
48.872208
 30
0.0
 11
21.742177
 21
48.751969
 31
0.0
  0
LINE
  8
4
  6
CONTINUOUS
 62
    99
  5
516
 10
21.67999
 20
48.911063
 30
0.0
 11
21.790625
 21
48.800417
 31
0.0
  0
LINE
  8
4
  6
CONTINUOUS
 62
    99
  5
517
 10
21.746292
 20
48.911063
 30
0.0
 11
21.823781
 21
48.833573
 31
0.0
  0
LINE
  8
4
  6
CONTINUOUS
 62
    99
  5
518
 10
21.660792
 20
48.911063
 30
0.0
 11
21.509042
 21
48.759313
 31
0.0
  0
LINE
  8
4
  6
CONTINUOUS
 62
    99
  5
519
 10
19.106219
 20
48.911063
 30
0.0
 11
18.937344
 21
48.742198
 31
0.0
  0
LINE
  8
4
  6
CONTINUOUS
 62
    99
  5
51A
 10
19.019771
 20
48.911063
 30
0.0
 11
18.850906
 21
48.742198
 31
0.0
  0
LINE
  8
4
  6
CONTINUOUS
 62
    99
  5
51B
 10
18.659688
 20
48.791458
 30
0.0
 11
18.708958
 21
48.742198
 31
0.0
  0
LINE
  8
4
  6
CONTINUOUS
 62
    99
  5
51C
 10
18.702188
 20
48.833958
 30
0.0
 11
18.793958
 21
48.742198
 31
0.0
  0
LINE
  8
4
  6
CONTINUOUS
 62
    99
  5
51D
 10
18.740437
 20
48.872208
 30
0.0
 11
18.860677
 21
48.751969
 31
0.0
  0
LINE
  8
4
  6
CONTINUOUS
 62
    99
  5
51E
 10
18.79849
 20
48.911063
 30
0.0
 11
18.909125
 21
48.800417
 31
0.0
  0
LINE
  8
4
  6
CONTINUOUS
 62
    99
  5
51F
 10
18.864792
 20
48.911063
 30
0.0
 11
18.942281
 21
48.833573
 31
0.0
  0
LINE
  8
4
  6
CONTINUOUS
 62
    99
  5
520
 10
18.779292
 20
48.911063
 30
0.0
 11
18.610427
 21
48.742198
 31
0.0
  0
LINE
  8
4
  6
CONTINUOUS
 62
    99
  5
521
 10
18.692844
 20
48.911063
 30
0.0
 11
18.523979
 21
48.742198
 31
0.0
  0
LINE
  8
4
  6
CONTINUOUS
 62
    99
  5
522
 10
18.606417
 20
48.911063
 30
0.0
 11
18.437542
 21
48.742198
 31
0.0
  0
LINE
  8
4
  6
CONTINUOUS
 62
    99
  5
523
 10
18.519969
 20
48.911063
 30
0.0
 11
18.351104
 21
48.742198
 31
0.0
  0
LINE
  8
4
  6
CONTINUOUS
 62
    99
  5
524
 10
18.159885
 20
48.791458
 30
0.0
 11
18.209167
 21
48.742198
 31
0.0
  0
LINE
  8
4
  6
CONTINUOUS
 62
    99
  5
525
 10
18.202385
 20
48.833958
 30
0.0
 11
18.294167
 21
48.742198
 31
0.0
  0
LINE
  8
4
  6
CONTINUOUS
 62
    99
  5
526
 10
18.240635
 20
48.872208
 30
0.0
 11
18.360875
 21
48.751969
 31
0.0
  0
LINE
  8
4
  6
CONTINUOUS
 62
    99
  5
527
 10
18.298688
 20
48.911063
 30
0.0
 11
18.409333
 21
48.800417
 31
0.0
  0
LINE
  8
4
  6
CONTINUOUS
 62
    99
  5
528
 10
18.36499
 20
48.911063
 30
0.0
 11
18.442479
 21
48.833573
 31
0.0
  0
LINE
  8
4
  6
CONTINUOUS
 62
    99
  5
529
 10
18.27949
 20
48.911063
 30
0.0
 11
18.110625
 21
48.742198
 31
0.0
  0
LINE
  8
4
  6
CONTINUOUS
 62
    99
  5
52A
 10
18.193052
 20
48.911063
 30
0.0
 11
18.024177
 21
48.742198
 31
0.0
  0
LINE
  8
4
  6
CONTINUOUS
 62
    99
  5
52B
 10
18.106615
 20
48.911063
 30
0.0
 11
17.93774
 21
48.742198
 31
0.0
  0
LINE
  8
4
  6
CONTINUOUS
 62
    99
  5
52C
 10
18.020167
 20
48.911063
 30
0.0
 11
17.868396
 21
48.759281
 31
0.0
  0
LINE
  8
4
  6
CONTINUOUS
 62
    99
  5
52D
 10
19.204812
 20
48.911063
 30
0.0
 11
19.035937
 21
48.742198
 31
0.0
  0
LINE
  8
4
  6
CONTINUOUS
 62
    99
  5
52E
 10
19.271115
 20
48.911063
 30
0.0
 11
19.10224
 21
48.742198
 31
0.0
  0
LINE
  8
4
  6
CONTINUOUS
 62
    99
  5
52F
 10
19.369719
 20
48.911063
 30
0.0
 11
19.200844
 21
48.742198
 31
0.0
  0
LINE
  8
4
  6
CONTINUOUS
 62
    99
  5
530
 10
21.085406
 20
48.911063
 30
0.0
 11
17.868396
 21
48.911063
 31
0.0
  0
LINE
  8
4
  6
CONTINUOUS
 62
    99
  5
531
 10
22.552115
 20
48.911063
 30
0.0
 11
22.38324
 21
48.742198
 31
0.0
  0
LINE
  8
4
  6
CONTINUOUS
 62
    99
  5
532
 10
17.19201
 20
48.911063
 30
0.0
 11
17.023135
 21
48.742198
 31
0.0
  0
LINE
  8
4
  6
CONTINUOUS
 62
    99
  5
533
 10
17.093417
 20
48.911063
 30
0.0
 11
16.924542
 21
48.742198
 31
0.0
  0
LINE
  8
4
  6
CONTINUOUS
 62
    99
  5
534
 10
17.027115
 20
48.911063
 30
0.0
 11
16.85824
 21
48.742198
 31
0.0
  0
LINE
  8
4
  6
CONTINUOUS
 62
    99
  5
535
 10
15.842469
 20
48.911063
 30
0.0
 11
15.690698
 21
48.759281
 31
0.0
  0
LINE
  8
4
  6
CONTINUOUS
 62
    99
  5
536
 10
15.928917
 20
48.911063
 30
0.0
 11
15.760042
 21
48.742198
 31
0.0
  0
LINE
  8
4
  6
CONTINUOUS
 62
    99
  5
537
 10
16.015344
 20
48.911063
 30
0.0
 11
15.846479
 21
48.742198
 31
0.0
  0
LINE
  8
4
  6
CONTINUOUS
 62
    99
  5
538
 10
16.101792
 20
48.911063
 30
0.0
 11
15.932927
 21
48.742198
 31
0.0
  0
LINE
  8
4
  6
CONTINUOUS
 62
    99
  5
539
 10
16.187292
 20
48.911063
 30
0.0
 11
16.264781
 21
48.833573
 31
0.0
  0
LINE
  8
4
  6
CONTINUOUS
 62
    99
  5
53A
 10
16.12099
 20
48.911063
 30
0.0
 11
16.231625
 21
48.800417
 31
0.0
  0
LINE
  8
4
  6
CONTINUOUS
 62
    99
  5
53B
 10
16.062938
 20
48.872208
 30
0.0
 11
16.183177
 21
48.751969
 31
0.0
  0
LINE
  8
4
  6
CONTINUOUS
 62
    99
  5
53C
 10
16.024687
 20
48.833958
 30
0.0
 11
16.116458
 21
48.742198
 31
0.0
  0
LINE
  8
4
  6
CONTINUOUS
 62
    99
  5
53D
 10
15.982188
 20
48.791458
 30
0.0
 11
16.031458
 21
48.742198
 31
0.0
  0
LINE
  8
4
  6
CONTINUOUS
 62
    99
  5
53E
 10
16.342271
 20
48.911063
 30
0.0
 11
16.173406
 21
48.742198
 31
0.0
  0
LINE
  8
4
  6
CONTINUOUS
 62
    99
  5
53F
 10
16.428719
 20
48.911063
 30
0.0
 11
16.259844
 21
48.742198
 31
0.0
  0
LINE
  8
4
  6
CONTINUOUS
 62
    99
  5
540
 10
16.433927
 20
48.829844
 30
0.0
 11
16.346281
 21
48.742198
 31
0.0
  0
LINE
  8
4
  6
CONTINUOUS
 62
    99
  5
541
 10
16.433927
 20
48.743396
 30
0.0
 11
16.432729
 21
48.742198
 31
0.0
  0
LINE
  8
4
  6
CONTINUOUS
 62
    99
  5
542
 10
16.687083
 20
48.911063
 30
0.0
 11
16.764583
 21
48.833573
 31
0.0
  0
LINE
  8
4
  6
CONTINUOUS
 62
    99
  5
543
 10
16.696646
 20
48.835208
 30
0.0
 11
16.731427
 21
48.800417
 31
0.0
  0
LINE
  8
4
  6
CONTINUOUS
 62
    99
  5
544
 10
16.842073
 20
48.911063
 30
0.0
 11
16.696646
 21
48.765635
 31
0.0
  0
LINE
  8
4
  6
CONTINUOUS
 62
    99
  5
545
 10
16.92851
 20
48.911063
 30
0.0
 11
16.759635
 21
48.742198
 31
0.0
  0
LINE
  8
1
  6
CONTINUOUS
 62
   150
  5
546
 10
15.690698
 20
48.246198
 30
0.0
 11
15.690698
 21
49.682479
 31
0.0
  0
LINE
  8
4
  6
CONTINUOUS
 62
    99
  5
547
 10
17.44476
 20
48.911063
 30
0.0
 11
16.696646
 21
48.911063
 31
0.0
  0
LINE
  8
4
  6
CONTINUOUS
 62
    99
  5
548
 10
17.072417
 20
48.791458
 30
0.0
 11
17.121677
 21
48.742198
 31
0.0
  0
LINE
  8
4
  6
CONTINUOUS
 62
    99
  5
549
 10
17.114917
 20
48.833958
 30
0.0
 11
17.206677
 21
48.742198
 31
0.0
  0
LINE
  8
4
  6
CONTINUOUS
 62
    99
  5
54A
 10
17.153167
 20
48.872208
 30
0.0
 11
17.273406
 21
48.751969
 31
0.0
  0
LINE
  8
4
  6
CONTINUOUS
 62
    99
  5
54B
 10
17.211208
 20
48.911063
 30
0.0
 11
17.321854
 21
48.800417
 31
0.0
  0
LINE
  8
4
  6
CONTINUOUS
 62
    99
  5
54C
 10
17.27751
 20
48.911063
 30
0.0
 11
17.355
 21
48.833573
 31
0.0
  0
LINE
  8
4
  6
CONTINUOUS
 62
    99
  5
54D
 10
17.44476
 20
48.836885
 30
0.0
 11
17.350063
 21
48.742198
 31
0.0
  0
LINE
  8
4
  6
CONTINUOUS
 62
    99
  5
54E
 10
17.43249
 20
48.911063
 30
0.0
 11
17.263625
 21
48.742198
 31
0.0
  0
LINE
  8
4
  6
CONTINUOUS
 62
    99
  5
54F
 10
16.433927
 20
48.911063
 30
0.0
 11
15.690698
 21
48.911063
 31
0.0
  0
LINE
  8
4
  6
CONTINUOUS
 62
    99
  5
550
 10
15.266646
 20
48.866865
 30
0.0
 11
12.023167
 21
48.866865
 31
0.0
  0
LINE
  8
4
  6
CONTINUOUS
 62
    99
  5
551
 10
14.858031
 20
48.699198
 30
0.0
 11
14.856823
 21
48.698
 31
0.0
  0
LINE
  8
4
  6
CONTINUOUS
 62
    99
  5
552
 10
14.93925
 20
48.866865
 30
0.0
 11
14.770385
 21
48.698
 31
0.0
  0
LINE
  8
4
  6
CONTINUOUS
 62
    99
  5
553
 10
14.852812
 20
48.866865
 30
0.0
 11
14.683937
 21
48.698
 31
0.0
  0
LINE
  8
4
  6
CONTINUOUS
 62
    99
  5
554
 10
14.766375
 20
48.866865
 30
0.0
 11
14.5975
 21
48.698
 31
0.0
  0
LINE
  8
4
  6
CONTINUOUS
 62
    99
  5
555
 10
14.406292
 20
48.74726
 30
0.0
 11
14.455562
 21
48.698
 31
0.0
  0
LINE
  8
4
  6
CONTINUOUS
 62
    99
  5
556
 10
14.448792
 20
48.78976
 30
0.0
 11
14.540563
 21
48.698
 31
0.0
  0
LINE
  8
4
  6
CONTINUOUS
 62
    99
  5
557
 10
14.487042
 20
48.82801
 30
0.0
 11
14.607281
 21
48.707771
 31
0.0
  0
LINE
  8
4
  6
CONTINUOUS
 62
    99
  5
558
 10
14.545083
 20
48.866865
 30
0.0
 11
14.655729
 21
48.756219
 31
0.0
  0
LINE
  8
4
  6
CONTINUOUS
 62
    99
  5
559
 10
14.611385
 20
48.866865
 30
0.0
 11
14.688875
 21
48.789375
 31
0.0
  0
LINE
  8
4
  6
CONTINUOUS
 62
    99
  5
55A
 10
14.525896
 20
48.866865
 30
0.0
 11
14.357021
 21
48.698
 31
0.0
  0
LINE
  8
4
  6
CONTINUOUS
 62
    99
  5
55B
 10
14.439448
 20
48.866865
 30
0.0
 11
14.270583
 21
48.698
 31
0.0
  0
LINE
  8
4
  6
CONTINUOUS
 62
    99
  5
55C
 10
14.35301
 20
48.866865
 30
0.0
 11
14.184135
 21
48.698
 31
0.0
  0
LINE
  8
4
  6
CONTINUOUS
 62
    99
  5
55D
 10
14.266573
 20
48.866865
 30
0.0
 11
14.097708
 21
48.698
 31
0.0
  0
LINE
  8
4
  6
CONTINUOUS
 62
    99
  5
55E
 10
14.992531
 20
48.74726
 30
0.0
 11
15.041802
 21
48.698
 31
0.0
  0
LINE
  8
4
  6
CONTINUOUS
 62
    99
  5
55F
 10
15.112125
 20
48.866865
 30
0.0
 11
14.94326
 21
48.698
 31
0.0
  0
LINE
  8
4
  6
CONTINUOUS
 62
    99
  5
560
 10
15.035031
 20
48.78976
 30
0.0
 11
15.126802
 21
48.698
 31
0.0
  0
LINE
  8
4
  6
CONTINUOUS
 62
    99
  5
561
 10
15.073281
 20
48.82801
 30
0.0
 11
15.203302
 21
48.698
 31
0.0
  0
LINE
  8
4
  6
CONTINUOUS
 62
    99
  5
562
 10
15.131333
 20
48.866865
 30
0.0
 11
15.266646
 21
48.731542
 31
0.0
  0
LINE
  8
4
  6
CONTINUOUS
 62
    99
  5
563
 10
15.197635
 20
48.866865
 30
0.0
 11
15.266646
 21
48.797844
 31
0.0
  0
LINE
  8
4
  6
CONTINUOUS
 62
    99
  5
564
 10
15.000448
 20
48.866865
 30
0.0
 11
14.831583
 21
48.698
 31
0.0
  0
LINE
  8
4
  6
CONTINUOUS
 62
    99
  5
565
 10
13.14575
 20
48.866865
 30
0.0
 11
12.976885
 21
48.698
 31
0.0
  0
LINE
  8
4
  6
CONTINUOUS
 62
    99
  5
566
 10
13.257427
 20
48.866865
 30
0.0
 11
13.088563
 21
48.698
 31
0.0
  0
LINE
  8
4
  6
CONTINUOUS
 62
    99
  5
567
 10
12.411875
 20
48.866865
 30
0.0
 11
12.243
 21
48.698
 31
0.0
  0
LINE
  8
4
  6
CONTINUOUS
 62
    99
  5
568
 10
12.498312
 20
48.866865
 30
0.0
 11
12.329437
 21
48.698
 31
0.0
  0
LINE
  8
4
  6
CONTINUOUS
 62
    99
  5
569
 10
12.58475
 20
48.866865
 30
0.0
 11
12.415885
 21
48.698
 31
0.0
  0
LINE
  8
4
  6
CONTINUOUS
 62
    99
  5
56A
 10
12.671188
 20
48.866865
 30
0.0
 11
12.502323
 21
48.698
 31
0.0
  0
LINE
  8
4
  6
CONTINUOUS
 62
    99
  5
56B
 10
12.756688
 20
48.866865
 30
0.0
 11
12.834177
 21
48.789375
 31
0.0
  0
LINE
  8
4
  6
CONTINUOUS
 62
    99
  5
56C
 10
12.690385
 20
48.866865
 30
0.0
 11
12.801031
 21
48.756219
 31
0.0
  0
LINE
  8
4
  6
CONTINUOUS
 62
    99
  5
56D
 10
12.632344
 20
48.82801
 30
0.0
 11
12.752583
 21
48.707771
 31
0.0
  0
LINE
  8
4
  6
CONTINUOUS
 62
    99
  5
56E
 10
12.594094
 20
48.78976
 30
0.0
 11
12.685865
 21
48.698
 31
0.0
  0
LINE
  8
4
  6
CONTINUOUS
 62
    99
  5
56F
 10
12.551594
 20
48.74726
 30
0.0
 11
12.600865
 21
48.698
 31
0.0
  0
LINE
  8
4
  6
CONTINUOUS
 62
    99
  5
570
 10
12.911667
 20
48.866865
 30
0.0
 11
12.742802
 21
48.698
 31
0.0
  0
LINE
  8
4
  6
CONTINUOUS
 62
    99
  5
571
 10
12.998115
 20
48.866865
 30
0.0
 11
12.82924
 21
48.698
 31
0.0
  0
LINE
  8
4
  6
CONTINUOUS
 62
    99
  5
572
 10
13.084552
 20
48.866865
 30
0.0
 11
12.915677
 21
48.698
 31
0.0
  0
LINE
  8
4
  6
CONTINUOUS
 62
    99
  5
573
 10
13.003333
 20
48.699198
 30
0.0
 11
13.002125
 21
48.698
 31
0.0
  0
LINE
  8
4
  6
CONTINUOUS
 62
    99
  5
574
 10
12.035885
 20
48.866865
 30
0.0
 11
12.20476
 21
48.698
 31
0.0
  0
LINE
  8
4
  6
CONTINUOUS
 62
    99
  5
575
 10
12.120885
 20
48.866865
 30
0.0
 11
12.266375
 21
48.721375
 31
0.0
  0
LINE
  8
4
  6
CONTINUOUS
 62
    99
  5
576
 10
12.197385
 20
48.866865
 30
0.0
 11
12.304625
 21
48.759625
 31
0.0
  0
LINE
  8
4
  6
CONTINUOUS
 62
    99
  5
577
 10
12.294292
 20
48.866865
 30
0.0
 11
12.353083
 21
48.808073
 31
0.0
  0
LINE
  8
4
  6
CONTINUOUS
 62
    99
  5
578
 10
12.023167
 20
48.811583
 30
0.0
 11
12.13676
 21
48.698
 31
0.0
  0
LINE
  8
4
  6
CONTINUOUS
 62
    99
  5
579
 10
11.456188
 20
48.866865
 30
0.0
 11
11.514979
 21
48.808073
 31
0.0
  0
LINE
  8
4
  6
CONTINUOUS
 62
    99
  5
57A
 10
11.359292
 20
48.866865
 30
0.0
 11
11.466531
 21
48.759625
 31
0.0
  0
LINE
  8
4
  6
CONTINUOUS
 62
    99
  5
57B
 10
11.29601
 20
48.853646
 30
0.0
 11
11.428281
 21
48.721375
 31
0.0
  0
LINE
  8
4
  6
CONTINUOUS
 62
    99
  5
57C
 10
11.25351
 20
48.811146
 30
0.0
 11
11.366667
 21
48.698
 31
0.0
  0
LINE
  8
4
  6
CONTINUOUS
 62
    99
  5
57D
 10
11.055125
 20
48.699198
 30
0.0
 11
11.053927
 21
48.698
 31
0.0
  0
LINE
  8
4
  6
CONTINUOUS
 62
    99
  5
57E
 10
11.136344
 20
48.866865
 30
0.0
 11
10.967479
 21
48.698
 31
0.0
  0
LINE
  8
4
  6
CONTINUOUS
 62
    99
  5
57F
 10
11.049917
 20
48.866865
 30
0.0
 11
10.881042
 21
48.698
 31
0.0
  0
LINE
  8
4
  6
CONTINUOUS
 62
    99
  5
580
 10
10.963469
 20
48.866865
 30
0.0
 11
10.794604
 21
48.698
 31
0.0
  0
LINE
  8
4
  6
CONTINUOUS
 62
    99
  5
581
 10
10.603385
 20
48.74726
 30
0.0
 11
10.652667
 21
48.698
 31
0.0
  0
LINE
  8
4
  6
CONTINUOUS
 62
    99
  5
582
 10
10.645885
 20
48.78976
 30
0.0
 11
10.737667
 21
48.698
 31
0.0
  0
LINE
  8
4
  6
CONTINUOUS
 62
    99
  5
583
 10
10.684135
 20
48.82801
 30
0.0
 11
10.804375
 21
48.707771
 31
0.0
  0
LINE
  8
4
  6
CONTINUOUS
 62
    99
  5
584
 10
10.742188
 20
48.866865
 30
0.0
 11
10.852833
 21
48.756219
 31
0.0
  0
LINE
  8
4
  6
CONTINUOUS
 62
    99
  5
585
 10
10.80849
 20
48.866865
 30
0.0
 11
10.885979
 21
48.789375
 31
0.0
  0
LINE
  8
4
  6
CONTINUOUS
 62
    99
  5
586
 10
10.72299
 20
48.866865
 30
0.0
 11
10.554125
 21
48.698
 31
0.0
  0
LINE
  8
4
  6
CONTINUOUS
 62
    99
  5
587
 10
10.636552
 20
48.866865
 30
0.0
 11
10.467677
 21
48.698
 31
0.0
  0
LINE
  8
4
  6
CONTINUOUS
 62
    99
  5
588
 10
10.550115
 20
48.866865
 30
0.0
 11
10.38124
 21
48.698
 31
0.0
  0
LINE
  8
4
  6
CONTINUOUS
 62
    99
  5
589
 10
11.573771
 20
48.866865
 30
0.0
 11
11.404906
 21
48.698
 31
0.0
  0
LINE
  8
4
  6
CONTINUOUS
 62
    99
  5
58A
 10
11.309229
 20
48.866865
 30
0.0
 11
11.140365
 21
48.698
 31
0.0
  0
LINE
  8
4
  6
CONTINUOUS
 62
    99
  5
58B
 10
11.197552
 20
48.866865
 30
0.0
 11
11.028677
 21
48.698
 31
0.0
  0
LINE
  8
4
  6
CONTINUOUS
 62
    99
  5
58C
 10
11.599521
 20
48.866865
 30
0.0
 11
8.35174
 21
48.866865
 31
0.0
  0
LINE
  8
4
  6
CONTINUOUS
 62
    99
  5
58D
 10
11.599521
 20
48.816115
 30
0.0
 11
11.481406
 21
48.698
 31
0.0
  0
LINE
  8
4
  6
CONTINUOUS
 62
    99
  5
58E
 10
11.599521
 20
48.739615
 30
0.0
 11
11.557906
 21
48.698
 31
0.0
  0
LINE
  8
4
  6
CONTINUOUS
 62
    99
  5
58F
 10
11.229708
 20
48.787344
 30
0.0
 11
11.319062
 21
48.698
 31
0.0
  0
LINE
  8
4
  6
CONTINUOUS
 62
    99
  5
590
 10
11.193156
 20
48.750792
 30
0.0
 11
11.245958
 21
48.698
 31
0.0
  0
LINE
  8
4
  6
CONTINUOUS
 62
    99
  5
591
 10
8.34776
 20
48.811583
 30
0.0
 11
8.461365
 21
48.698
 31
0.0
  0
LINE
  8
4
  6
CONTINUOUS
 62
    99
  5
592
 10
8.618885
 20
48.866865
 30
0.0
 11
8.677677
 21
48.808073
 31
0.0
  0
LINE
  8
4
  6
CONTINUOUS
 62
    99
  5
593
 10
8.52199
 20
48.866865
 30
0.0
 11
8.629229
 21
48.759625
 31
0.0
  0
LINE
  8
4
  6
CONTINUOUS
 62
    99
  5
594
 10
8.44549
 20
48.866865
 30
0.0
 11
8.590979
 21
48.721375
 31
0.0
  0
LINE
  8
4
  6
CONTINUOUS
 62
    99
  5
595
 10
8.36049
 20
48.866865
 30
0.0
 11
8.529365
 21
48.698
 31
0.0
  0
LINE
  8
4
  6
CONTINUOUS
 62
    99
  5
596
 10
9.327927
 20
48.699198
 30
0.0
 11
9.326729
 21
48.698
 31
0.0
  0
LINE
  8
4
  6
CONTINUOUS
 62
    99
  5
597
 10
9.409146
 20
48.866865
 30
0.0
 11
9.240281
 21
48.698
 31
0.0
  0
LINE
  8
4
  6
CONTINUOUS
 62
    99
  5
598
 10
9.322719
 20
48.866865
 30
0.0
 11
9.153844
 21
48.698
 31
0.0
  0
LINE
  8
4
  6
CONTINUOUS
 62
    99
  5
599
 10
9.236271
 20
48.866865
 30
0.0
 11
9.067406
 21
48.698
 31
0.0
  0
LINE
  8
4
  6
CONTINUOUS
 62
    99
  5
59A
 10
8.876188
 20
48.74726
 30
0.0
 11
8.925458
 21
48.698
 31
0.0
  0
LINE
  8
4
  6
CONTINUOUS
 62
    99
  5
59B
 10
8.918687
 20
48.78976
 30
0.0
 11
9.010458
 21
48.698
 31
0.0
  0
LINE
  8
4
  6
CONTINUOUS
 62
    99
  5
59C
 10
8.956938
 20
48.82801
 30
0.0
 11
9.077177
 21
48.707771
 31
0.0
  0
LINE
  8
4
  6
CONTINUOUS
 62
    99
  5
59D
 10
9.01499
 20
48.866865
 30
0.0
 11
9.125625
 21
48.756219
 31
0.0
  0
LINE
  8
4
  6
CONTINUOUS
 62
    99
  5
59E
 10
9.081292
 20
48.866865
 30
0.0
 11
9.158781
 21
48.789375
 31
0.0
  0
LINE
  8
4
  6
CONTINUOUS
 62
    99
  5
59F
 10
8.995792
 20
48.866865
 30
0.0
 11
8.826927
 21
48.698
 31
0.0
  0
LINE
  8
4
  6
CONTINUOUS
 62
    99
  5
5A0
 10
8.909344
 20
48.866865
 30
0.0
 11
8.740479
 21
48.698
 31
0.0
  0
LINE
  8
4
  6
CONTINUOUS
 62
    99
  5
5A1
 10
8.822917
 20
48.866865
 30
0.0
 11
8.654042
 21
48.698
 31
0.0
  0
LINE
  8
4
  6
CONTINUOUS
 62
    99
  5
5A2
 10
8.736469
 20
48.866865
 30
0.0
 11
8.567604
 21
48.698
 31
0.0
  0
LINE
  8
4
  6
CONTINUOUS
 62
    99
  5
5A3
 10
9.582031
 20
48.866865
 30
0.0
 11
9.413156
 21
48.698
 31
0.0
  0
LINE
  8
4
  6
CONTINUOUS
 62
    99
  5
5A4
 10
9.470344
 20
48.866865
 30
0.0
 11
9.301479
 21
48.698
 31
0.0
  0
LINE
  8
4
  6
CONTINUOUS
 62
    99
  5
5A5
 10
7.488417
 20
48.866865
 30
0.0
 11
7.319542
 21
48.698
 31
0.0
  0
LINE
  8
4
  6
CONTINUOUS
 62
    99
  5
5A6
 10
7.574844
 20
48.866865
 30
0.0
 11
7.405979
 21
48.698
 31
0.0
  0
LINE
  8
4
  6
CONTINUOUS
 62
    99
  5
5A7
 10
7.661292
 20
48.866865
 30
0.0
 11
7.492427
 21
48.698
 31
0.0
  0
LINE
  8
4
  6
CONTINUOUS
 62
    99
  5
5A8
 10
7.746792
 20
48.866865
 30
0.0
 11
7.824281
 21
48.789375
 31
0.0
  0
LINE
  8
4
  6
CONTINUOUS
 62
    99
  5
5A9
 10
7.68049
 20
48.866865
 30
0.0
 11
7.791125
 21
48.756219
 31
0.0
  0
LINE
  8
4
  6
CONTINUOUS
 62
    99
  5
5AA
 10
7.622437
 20
48.82801
 30
0.0
 11
7.742677
 21
48.707771
 31
0.0
  0
LINE
  8
4
  6
CONTINUOUS
 62
    99
  5
5AB
 10
7.584187
 20
48.78976
 30
0.0
 11
7.675958
 21
48.698
 31
0.0
  0
LINE
  8
4
  6
CONTINUOUS
 62
    99
  5
5AC
 10
7.541688
 20
48.74726
 30
0.0
 11
7.590958
 21
48.698
 31
0.0
  0
LINE
  8
4
  6
CONTINUOUS
 62
    99
  5
5AD
 10
7.901771
 20
48.866865
 30
0.0
 11
7.732906
 21
48.698
 31
0.0
  0
LINE
  8
4
  6
CONTINUOUS
 62
    99
  5
5AE
 10
7.928104
 20
48.80675
 30
0.0
 11
7.819344
 21
48.698
 31
0.0
  0
LINE
  8
4
  6
CONTINUOUS
 62
    99
  5
5AF
 10
7.928104
 20
48.720312
 30
0.0
 11
7.905781
 21
48.698
 31
0.0
  0
LINE
  8
4
  6
CONTINUOUS
 62
    99
  5
5B0
 10
7.928104
 20
48.866865
 30
0.0
 11
7.024375
 21
48.866865
 31
0.0
  0
LINE
  8
1
  6
CONTINUOUS
 62
   233
  5
5B1
 10
8.303781
 20
53.08301
 30
0.0
 11
8.303781
 21
54.196458
 31
0.0
  0
TEXT
  8
3
  6
CONTINUOUS
 62
     2
  5
5B4
 10
12.688729
 20
55.052594
 30
0.0
 40
0.119
  1
(UNANCHORED ENDS - WOOD POSTS AND BLOCKS SHOWN)
  7
ROMANS
210
0.0
220
0.0
230
1.0
  0
TEXT
  8
3
  6
CONTINUOUS
 62
     2
  5
5B5
 10
12.841781
 20
55.271135
 30
0.0
 40
0.17
  1
TYPICAL GUARDRAIL INSTALLATION
  7
ROMANS
210
0.0
220
0.0
230
1.0
  0
TEXT
  8
3
  6
CONTINUOUS
 62
     2
  5
5B6
 10
19.062198
 20
53.924344
 30
0.0
 40
0.133292
  1
Offset Blocks
  7
ROMANS
210
0.0
220
0.0
230
1.0
  0
TEXT
  8
3
  6
CONTINUOUS
 62
     2
  5
5B7
 10
18.938469
 20
53.685938
 30
0.0
 40
0.133292
  1
(Unless other-
  7
ROMANS
210
0.0
220
0.0
230
1.0
  0
TEXT
  8
3
  6
CONTINUOUS
 62
     2
  5
5B8
 10
18.906656
 20
53.4645
 30
0.0
 40
0.133292
  1
wise specified)
  7
ROMANS
210
0.0
220
0.0
230
1.0
  0
TEXT
  8
3
  6
CONTINUOUS
 62
     2
  5
5B9
 10
23.271969
 20
53.626562
 30
0.0
 40
0.133292
  1
Approach End
  7
ROMANS
210
0.0
220
0.0
230
1.0
  0
TEXT
  8
3
  6
CONTINUOUS
 62
     2
  5
5BA
 10
23.208531
 20
53.397521
 30
0.0
 40
0.133292
  1
(Terminal Section
  7
ROMANS
210
0.0
220
0.0
230
1.0
  0
TEXT
  8
3
  6
CONTINUOUS
 62
     2
  5
5BB
 10
23.306302
 20
53.177146
 30
0.0
 40
0.133292
  1
Buffer End)
  7
ROMANS
210
0.0
220
0.0
230
1.0
  0
TEXT
  8
3
  6
CONTINUOUS
 62
     2
  5
5BC
 10
19.564021
 20
48.03475
 30
0.0
 40
0.133292
  1
End Post
  7
ROMANS
210
0.0
220
0.0
230
1.0
  0
TEXT
  8
3
  6
CONTINUOUS
 62
     2
  5
5BD
 10
18.819552
 20
49.427885
 30
0.0
 40
0.133292
  1
Intermediate Post
  7
ROMANS
210
0.0
220
0.0
230
1.0
  0
TEXT
  8
3
  6
CONTINUOUS
 62
     2
  5
5BE
 10
16.212406
 20
48.023406
 30
0.0
 40
0.133292
  1
Splice
  7
ROMANS
210
0.0
220
0.0
230
1.0
  0
TEXT
  8
3
  6
CONTINUOUS
 62
     2
  5
5BF
 10
16.349187
 20
47.700688
 30
0.0
 40
0.133292
  1
Post
  7
ROMANS
210
0.0
220
0.0
230
1.0
  0
TEXT
  8
3
  6
CONTINUOUS
 62
     2
  5
5C0
 10
14.655344
 20
51.515427
 30
0.0
 40
0.119
  1
PLAN
  7
ROMANS
210
0.0
220
0.0
230
1.0
  0
TEXT
  8
3
  6
CONTINUOUS
 62
     2
  5
5C1
 10
12.57301
 20
49.438896
 30
0.0
 40
0.133292
  1
Intermediate Post
  7
ROMANS
210
0.0
220
0.0
230
1.0
  0
TEXT
  8
3
  6
CONTINUOUS
 62
     2
  5
5C2
 10
16.416833
 20
51.756052
 30
0.0
 40
0.133292
  1
Direction of Traffic
  7
ROMANS
210
0.0
220
0.0
230
1.0
  0
TEXT
  8
3
  6
CONTINUOUS
 62
     2
  5
5C3
 10
9.063177
 20
50.722177
 30
0.0
 40
0.133292
  1
  as called for on Plans
  7
ROMANS
210
0.0
220
0.0
230
1.0
  0
TEXT
  8
3
  6
CONTINUOUS
 62
     2
  5
5C4
 10
6.462604
 20
49.098687
 30
0.0
 40
0.133292
  1
End Post
  7
ROMANS
210
0.0
220
0.0
230
1.0
  0
TEXT
  8
3
  6
CONTINUOUS
 62
     2
  5
5C5
 10
24.779833
 20
37.050708
 30
0.0
 40
0.119
  1
NUT
  7
ROMANS
210
0.0
220
0.0
230
1.0
  0
TEXT
  8
3
  6
CONTINUOUS
 62
     2
  5
5C7
 10
11.045313
 20
35.315729
 30
0.0
 40
0.1
  1
  
  7
ROMANT
210
0.0
220
0.0
230
1.0
  0
TEXT
  8
3
  6
CONTINUOUS
 62
     2
  5
5C8
 10
21.008062
 20
36.982458
 30
0.0
 40
0.119
  1
SECTION
  7
ROMANS
210
0.0
220
0.0
230
1.0
  0
TEXT
  8
3
  6
CONTINUOUS
 62
     2
  5
5C9
 10
20.727198
 20
36.759469
 30
0.0
 40
0.119
  1
RAIL ELEMENT
  7
ROMANS
210
0.0
220
0.0
230
1.0
  0
TEXT
  8
3
  6
CONTINUOUS
 62
     2
  5
5CA
 10
13.996229
 20
36.798667
 30
0.0
 40
0.119
  1
RAIL SPLICE
  7
ROMANS
210
0.0
220
0.0
230
1.0
  0
TEXT
  8
3
  6
CONTINUOUS
 62
     2
  5
5CB
 10
6.463437
 20
37.195573
 30
0.0
 40
0.119
  1
TERMINAL SECTION BUFFER END
  7
ROMANS
210
0.0
220
0.0
230
1.0
  0
TEXT
  8
3
  6
CONTINUOUS
 62
     2
  5
5CC
 10
6.16351
 20
36.96675
 30
0.0
 40
0.102
  1
(For Use Only on Unanchored Ends And
  7
ROMANS
210
0.0
220
0.0
230
1.0
  0
TEXT
  8
3
  6
CONTINUOUS
 62
     2
  5
5CD
 10
6.333625
 20
36.783313
 30
0.0
 40
0.102
  1
on Special Trailing End Terminal)
  7
ROMANS
210
0.0
220
0.0
230
1.0
  0
LINE
  8
1
  6
CONTINUOUS
 62
   233
  5
5CE
 10
14.002313
 20
37.480698
 30
0.0
 11
14.615656
 21
37.480698
 31
0.0
  0
LINE
  8
1
  6
CONTINUOUS
 62
   233
  5
5CF
 10
14.615656
 20
37.480698
 30
0.0
 11
14.68025
 21
37.558167
 31
0.0
  0
LINE
  8
1
  6
CONTINUOUS
 62
   233
  5
5D0
 10
14.68025
 20
37.558167
 30
0.0
 11
14.772552
 21
37.422604
 31
0.0
  0
LINE
  8
1
  6
CONTINUOUS
 62
   233
  5
5D1
 10
14.8305
 20
37.480698
 30
0.0
 11
15.301333
 21
37.480698
 31
0.0
  0
LINE
  8
1
  6
CONTINUOUS
 62
   233
  5
5D2
 10
14.8305
 20
37.480698
 30
0.0
 11
14.772552
 21
37.422604
 31
0.0
  0
TEXT
  8
3
  6
CONTINUOUS
 62
     2
  5
5D3
 10
16.01424
 20
37.243854
 30
0.0
 40
0.133292
  1
29/32" x 1-1/8"
  7
ROMANS
210
0.0
220
0.0
230
1.0
  0
TEXT
  8
3
  6
CONTINUOUS
 62
     2
  5
5D4
 10
16.08151
 20
36.994323
 30
0.0
 40
0.133292
  1
Slotted Holes
  7
ROMANS
210
0.0
220
0.0
230
1.0
  0
LINE
  8
7
  6
CENTER
 62
     2
  5
5D6
 10
20.882896
 20
39.304156
 30
0.0
 11
22.451719
 21
39.304156
 31
0.0
  0
TEXT
  8
3
  6
CONTINUOUS
 62
     2
  5
5D7
 10
21.725698
 20
39.373042
 30
0.0
 40
0.133292
  1
Symmetrical
  7
ROMANS
210
0.0
220
0.0
230
1.0
  0
TEXT
  8
3
  6
CONTINUOUS
 62
     2
  5
5D8
 10
21.777083
 20
39.106583
 30
0.0
 40
0.133292
  1
About C
  7
ROMANS
210
0.0
220
0.0
230
1.0
  0
TEXT
  8
3
  6
CONTINUOUS
 62
     2
  5
5D9
 10
22.617771
 20
39.085292
 30
0.0
 40
0.085
  1
L
  7
ROMANS
210
0.0
220
0.0
230
1.0
  0
LINE
  8
3
  6
CONTINUOUS
 62
   150
  5
5DA
 10
21.621167
 20
38.407562
 30
0.0
 11
21.879562
 21
38.66899
 31
0.0
  0
LINE
  8
3
  6
CONTINUOUS
 62
     2
  5
5DB
 10
21.833427
 20
37.545833
 30
0.0
 11
21.630396
 21
37.933125
 31
0.0
  0
LINE
  8
3
  6
CONTINUOUS
 62
   150
  5
5DC
 10
21.916479
 20
39.888958
 30
0.0
 11
21.621167
 21
40.227844
 31
0.0
  0
LINE
  8
3
  6
CONTINUOUS
 62
   150
  5
5DD
 10
21.648854
 20
40.770052
 30
0.0
 11
21.794906
 21
41.036802
 31
0.0
  0
SOLID
  8
3
  6
CONTINUOUS
 62
     2
  5
5DE
 10
27.001781
 20
38.28049
 30
0.0
 11
27.065917
 21
38.303156
 31
0.0
 12
26.965885
 22
38.484156
 32
0.0
 13
26.965885
 23
38.484156
 33
0.0
  0
LINE
  8
3
  6
CONTINUOUS
 62
     2
  5
5DF
 10
27.016135
 20
38.351021
 30
0.0
 11
27.280333
 21
37.553125
 31
0.0
  0
LINE
  8
3
  6
CONTINUOUS
 62
     2
  5
5E0
 10
27.280333
 20
37.555125
 30
0.0
 11
26.612271
 21
37.555125
 31
0.0
  0
SOLID
  8
3
  6
CONTINUOUS
 62
     2
  5
5E1
 10
27.252542
 20
38.25101
 30
0.0
 11
27.311042
 21
38.285667
 31
0.0
 12
27.177792
 22
38.443833
 32
0.0
 13
27.177792
 23
38.443833
 33
0.0
  0
LINE
  8
3
  6
CONTINUOUS
 62
     2
  5
5E2
 10
27.281792
 20
38.268344
 30
0.0
 11
27.390083
 21
38.085594
 31
0.0
  0
LINE
  8
3
  6
CONTINUOUS
 62
     2
  5
5E3
 10
27.390083
 20
38.085594
 30
0.0
 11
27.445458
 21
38.085594
 31
0.0
  0
TEXT
  8
3
  6
CONTINUOUS
 62
     2
  5
5E4
 10
8.961073
 20
53.899708
 30
0.0
 40
0.133292
  1
Offset Blocks
  7
ROMANS
210
0.0
220
0.0
230
1.0
  0
TEXT
  8
3
  6
CONTINUOUS
 62
     2
  5
5E5
 10
8.914865
 20
53.705729
 30
0.0
 40
0.133292
  1
(Unless other-
  7
ROMANS
210
0.0
220
0.0
230
1.0
  0
TEXT
  8
3
  6
CONTINUOUS
 62
     2
  5
5E6
 10
8.934531
 20
53.537448
 30
0.0
 40
0.133292
  1
wise specified)
  7
ROMANS
210
0.0
220
0.0
230
1.0
  0
SOLID
  8
3
  6
CONTINUOUS
 62
     2
  5
5E7
 10
8.407875
 20
53.420479
 30
0.0
 11
8.384917
 21
53.447448
 31
0.0
 12
8.3155
 22
53.365083
 32
0.0
 13
8.3155
 23
53.365083
 33
0.0
  0
LINE
  8
3
  6
CONTINUOUS
 62
     2
  5
5E8
 10
8.396396
 20
53.433969
 30
0.0
 11
8.759844
 21
53.743437
 31
0.0
  0
LINE
  8
3
  6
CONTINUOUS
 62
     2
  5
5E9
 10
8.759844
 20
53.743437
 30
0.0
 11
8.8825
 21
53.743437
 31
0.0
  0
SOLID
  8
3
  6
CONTINUOUS
 62
     2
  5
5EA
 10
11.487469
 20
53.364812
 30
0.0
 11
11.466896
 21
53.33599
 31
0.0
 12
11.563656
 22
53.288667
 32
0.0
 13
11.563656
 23
53.288667
 33
0.0
  0
LINE
  8
3
  6
CONTINUOUS
 62
     2
  5
5EB
 10
11.477177
 20
53.350406
 30
0.0
 11
10.955604
 21
53.722677
 31
0.0
  0
LINE
  8
3
  6
CONTINUOUS
 62
     2
  5
5EC
 10
10.955604
 20
53.722677
 30
0.0
 11
10.733208
 21
53.722677
 31
0.0
  0
TEXT
  8
3
  6
CONTINUOUS
 62
     2
  5
5ED
 10
5.053656
 20
54.388427
 30
0.0
 40
0.133292
  1
Trailing End
  7
ROMANS
210
0.0
220
0.0
230
1.0
  0
TEXT
  8
3
  6
CONTINUOUS
 62
     2
  5
5EE
 10
4.686167
 20
54.167313
 30
0.0
 40
0.133292
  1
(Terminal Section
  7
ROMANS
210
0.0
220
0.0
230
1.0
  0
TEXT
  8
3
  6
CONTINUOUS
 62
     2
  5
5EF
 10
4.946865
 20
53.925719
 30
0.0
 40
0.133292
  1
Buffer End)
  7
ROMANS
210
0.0
220
0.0
230
1.0
  0
SOLID
  8
3
  6
CONTINUOUS
 62
     2
  5
5F0
 10
6.865625
 20
53.546417
 30
0.0
 11
6.832021
 21
53.557594
 31
0.0
 12
6.815281
 22
53.451187
 32
0.0
 13
6.815281
 23
53.451187
 33
0.0
  0
LINE
  8
3
  6
CONTINUOUS
 62
     2
  5
5F1
 10
6.848823
 20
53.552
 30
0.0
 11
7.029615
 21
54.095219
 31
0.0
  0
LINE
  8
3
  6
CONTINUOUS
 62
     2
  5
5F2
 10
7.029615
 20
54.095219
 30
0.0
 11
6.218521
 21
54.095219
 31
0.0
  0
TEXT
  8
3
  6
CONTINUOUS
 62
     2
  5
5F3
 10
15.815781
 20
53.322875
 30
0.0
 40
0.133292
  1
Splice Section
  7
ROMANS
210
0.0
220
0.0
230
1.0
  0
SOLID
  8
3
  6
CONTINUOUS
 62
     2
  5
5F4
 10
15.780333
 20
53.214927
 30
0.0
 11
15.745844
 21
53.222958
 31
0.0
 12
15.738979
 22
53.115469
 32
0.0
 13
15.738979
 23
53.115469
 33
0.0
  0
LINE
  8
3
  6
CONTINUOUS
 62
     2
  5
5F5
 10
15.77174
 20
53.218937
 30
0.0
 11
15.785281
 21
53.277063
 31
0.0
  0
LINE
  8
3
  6
CONTINUOUS
 62
     2
  5
5F6
 10
15.785281
 20
53.277063
 30
0.0
 11
15.843656
 21
53.277063
 31
0.0
  0
SOLID
  8
3
  6
CONTINUOUS
 62
     2
  5
5F7
 10
17.702865
 20
53.195948
 30
0.0
 11
17.668052
 21
53.189469
 31
0.0
 12
17.704938
 22
53.08826
 32
0.0
 13
17.704938
 23
53.08826
 33
0.0
  0
LINE
  8
3
  6
CONTINUOUS
 62
     2
  5
5F8
 10
17.685458
 20
53.192719
 30
0.0
 11
17.668083
 21
53.285917
 31
0.0
  0
LINE
  8
3
  6
CONTINUOUS
 62
     2
  5
5F9
 10
17.668083
 20
53.285917
 30
0.0
 11
17.59024
 21
53.285917
 31
0.0
  0
TEXT
  8
3
  6
CONTINUOUS
 62
     2
  5
5FA
 10
12.934719
 20
50.955479
 30
0.0
 40
0.133292
  1
Lap Guardrail at Splice in
  7
ROMANS
210
0.0
220
0.0
230
1.0
  0
TEXT
  8
3
  6
CONTINUOUS
 62
     2
  5
5FB
 10
13.198708
 20
50.728417
 30
0.0
 40
0.133292
  1
the Direction of Traffic
  7
ROMANS
210
0.0
220
0.0
230
1.0
  0
SOLID
  8
3
  6
CONTINUOUS
 62
     2
  5
5FC
 10
18.258062
 20
53.291312
 30
0.0
 11
18.238042
 21
53.320521
 31
0.0
 12
18.160427
 22
53.245823
 32
0.0
 13
18.160427
 23
53.245823
 33
0.0
  0
LINE
  8
3
  6
CONTINUOUS
 62
     2
  5
5FD
 10
18.248052
 20
53.305906
 30
0.0
 11
18.734302
 21
53.72776
 31
0.0
  0
LINE
  8
3
  6
CONTINUOUS
 62
     2
  5
5FE
 10
18.734302
 20
53.72776
 30
0.0
 11
18.913729
 21
53.72776
 31
0.0
  0
POINT
  8
3
  6
CONTINUOUS
 62
     2
  5
5FF
 10
19.117146
 20
53.72776
 30
0.0
  0
SOLID
  8
3
  6
CONTINUOUS
 62
     2
  5
600
 10
21.352812
 20
53.347687
 30
0.0
 11
21.33199
 21
53.319052
 31
0.0
 12
21.428375
 22
53.270927
 32
0.0
 13
21.428375
 23
53.270927
 33
0.0
  0
LINE
  8
3
  6
CONTINUOUS
 62
     2
  5
601
 10
21.342406
 20
53.333375
 30
0.0
 11
20.806427
 21
53.72274
 31
0.0
  0
LINE
  8
3
  6
CONTINUOUS
 62
     2
  5
602
 10
20.806427
 20
53.72274
 30
0.0
 11
20.756854
 21
53.72274
 31
0.0
  0
SOLID
  8
3
  6
CONTINUOUS
 62
     2
  5
603
 10
22.966271
 20
53.52551
 30
0.0
 11
22.934875
 21
53.509115
 31
0.0
 12
22.99976
 22
53.423125
 32
0.0
 13
22.99976
 23
53.423125
 33
0.0
  0
LINE
  8
3
  6
CONTINUOUS
 62
     2
  5
604
 10
22.950573
 20
53.517312
 30
0.0
 11
22.860469
 21
53.689833
 31
0.0
  0
LINE
  8
3
  6
CONTINUOUS
 62
     2
  5
605
 10
22.860469
 20
53.689833
 30
0.0
 11
23.138333
 21
53.689833
 31
0.0
  0
TEXT
  8
3
  6
CONTINUOUS
 62
     2
  5
606
 10
21.516771
 20
52.263417
 30
0.0
 40
0.133292
  1
Lap
  7
ROMANS
210
0.0
220
0.0
230
1.0
  0
TEXT
  8
3
  6
CONTINUOUS
 62
     2
  5
607
 10
27.641115
 20
38.13999
 30
0.0
 40
0.133292
  1
Button Head
  7
ROMANS
210
0.0
220
0.0
230
1.0
  0
TEXT
  8
3
  6
CONTINUOUS
 62
     2
  5
608
 10
27.599104
 20
37.925927
 30
0.0
 40
0.133292
  1
1-5/16" Dia. Round x
  7
ROMANS
210
0.0
220
0.0
230
1.0
  0
TEXT
  8
3
  6
CONTINUOUS
 62
     2
  5
609
 10
27.792073
 20
37.694323
 30
0.0
 40
0.133292
  1
5/16" Height
  7
ROMANS
210
0.0
220
0.0
230
1.0
  0
TEXT
  8
3
  6
CONTINUOUS
 62
     2
  5
60A
 10
25.354958
 20
37.833354
 30
0.0
 40
0.133292
  1
Oval Shoulder
  7
ROMANS
210
0.0
220
0.0
230
1.0
  0
TEXT
  8
3
  6
CONTINUOUS
 62
     2
  5
60B
 10
25.536708
 20
37.620656
 30
0.0
 40
0.133292
  1
5/8" x 7/8"
  7
ROMANS
210
0.0
220
0.0
230
1.0
  0
TEXT
  8
3
  6
CONTINUOUS
 62
     2
  5
60C
 10
24.380208
 20
36.699448
 30
0.0
 40
0.119
  1
POST BOLT: Similar Except Length
  7
ROMANS
210
0.0
220
0.0
230
1.0
  0
TEXT
  8
3
  6
CONTINUOUS
 62
     2
  5
60D
 10
26.454448
 20
37.025469
 30
0.0
 40
0.119
  1
SPLICE BOLT
  7
ROMANS
210
0.0
220
0.0
230
1.0
  0
LINE
  8
3
  6
CONTINUOUS
 62
     2
  5
60E
 10
26.509542
 20
38.78251
 30
0.0
 11
26.282646
 21
38.78251
 31
0.0
  0
LINE
  8
3
  6
CONTINUOUS
 62
     2
  5
60F
 10
26.509542
 20
38.520948
 30
0.0
 11
26.282646
 21
38.520948
 31
0.0
  0
LINE
  8
3
  6
CONTINUOUS
 62
     2
  5
610
 10
26.435646
 20
38.414698
 30
0.0
 11
26.435646
 21
38.308448
 31
0.0
  0
LINE
  8
3
  6
CONTINUOUS
 62
     2
  5
611
 10
26.435646
 20
38.88876
 30
0.0
 11
26.435646
 21
38.99501
 31
0.0
  0
LINE
  8
3
  6
CONTINUOUS
 62
     2
  5
612
 10
26.435646
 20
38.99501
 30
0.0
 11
26.329396
 21
38.99501
 31
0.0
  0
SOLID
  8
3
  6
CONTINUOUS
 62
     2
  5
613
 10
26.453354
 20
38.414698
 30
0.0
 11
26.417938
 21
38.414698
 31
0.0
 12
26.435646
 22
38.520948
 32
0.0
 13
26.435646
 23
38.520948
 33
0.0
  0
SOLID
  8
3
  6
CONTINUOUS
 62
     2
  5
614
 10
26.453354
 20
38.88876
 30
0.0
 11
26.417938
 21
38.88876
 31
0.0
 12
26.435646
 22
38.78251
 32
0.0
 13
26.435646
 23
38.78251
 33
0.0
  0
TEXT
  8
3
  6
CONTINUOUS
 62
     2
  5
615
 10
25.993292
 20
38.955344
 30
0.0
 40
0.133292
  1
5/8"
  7
ROMANS
210
0.0
220
0.0
230
1.0
  0
LINE
  8
6
  6
CONTINUOUS
 62
     7
  5
617
 10
26.562667
 20
38.78251
 30
0.0
 11
26.562677
 21
38.78251
 31
0.0
  0
LINE
  8
6
  6
CONTINUOUS
 62
     7
  5
618
 10
26.562667
 20
38.520948
 30
0.0
 11
26.562677
 21
38.520948
 31
0.0
  0
LINE
  8
6
  6
CONTINUOUS
 62
     7
  5
619
 10
26.435646
 20
38.520948
 30
0.0
 11
26.435656
 21
38.520948
 31
0.0
  0
LINE
  8
1
  6
CONTINUOUS
 62
     2
  5
61A
 10
26.562667
 20
38.835635
 30
0.0
 11
26.562667
 21
39.417115
 31
0.0
  0
LINE
  8
1
  6
CONTINUOUS
 62
     2
  5
61B
 10
27.061281
 20
38.997021
 30
0.0
 11
27.061281
 21
39.417115
 31
0.0
  0
LINE
  8
1
  6
CONTINUOUS
 62
     2
  5
61C
 10
27.167531
 20
39.264115
 30
0.0
 11
27.273781
 21
39.264115
 31
0.0
  0
LINE
  8
1
  6
CONTINUOUS
 62
     2
  5
61D
 10
26.456417
 20
39.264115
 30
0.0
 11
26.350167
 21
39.264115
 31
0.0
  0
LINE
  8
1
  6
CONTINUOUS
 62
     2
  5
61E
 10
27.273781
 20
39.264115
 30
0.0
 11
28.003365
 21
39.264115
 31
0.0
  0
SOLID
  8
1
  6
CONTINUOUS
 62
     2
  5
61F
 10
27.167531
 20
39.246406
 30
0.0
 11
27.167531
 21
39.281823
 31
0.0
 12
27.061281
 22
39.264115
 32
0.0
 13
27.061281
 23
39.264115
 33
0.0
  0
SOLID
  8
1
  6
CONTINUOUS
 62
     2
  5
620
 10
26.456417
 20
39.246406
 30
0.0
 11
26.456417
 21
39.281823
 31
0.0
 12
26.562667
 22
39.264115
 32
0.0
 13
26.562667
 23
39.264115
 33
0.0
  0
TEXT
  8
1
  6
CONTINUOUS
 62
   140
  5
621
 10
27.34426
 20
39.30449
 30
0.0
 40
0.133292
  1
1-1/4"
  7
ROMANS
210
0.0
220
0.0
230
1.0
  0
LINE
  8
6
  6
CONTINUOUS
 62
     7
  5
622
 10
26.562667
 20
38.78251
 30
0.0
 11
26.562677
 21
38.78251
 31
0.0
  0
LINE
  8
6
  6
CONTINUOUS
 62
     7
  5
623
 10
27.061281
 20
38.943896
 30
0.0
 11
27.061292
 21
38.943896
 31
0.0
  0
LINE
  8
6
  6
CONTINUOUS
 62
     7
  5
624
 10
27.061281
 20
39.264115
 30
0.0
 11
27.061292
 21
39.264115
 31
0.0
  0
LINE
  8
1
  6
CONTINUOUS
 62
     2
  5
625
 10
26.971104
 20
38.880146
 30
0.0
 11
26.971104
 21
39.149375
 31
0.0
  0
LINE
  8
1
  6
CONTINUOUS
 62
   140
  5
626
 10
27.061281
 20
38.997021
 30
0.0
 11
27.061281
 21
39.149375
 31
0.0
  0
LINE
  8
1
  6
CONTINUOUS
 62
     2
  5
627
 10
27.167531
 20
38.996375
 30
0.0
 11
27.273781
 21
38.996375
 31
0.0
  0
LINE
  8
1
  6
CONTINUOUS
 62
     2
  5
628
 10
26.864854
 20
38.996375
 30
0.0
 11
26.758604
 21
38.996375
 31
0.0
  0
LINE
  8
1
  6
CONTINUOUS
 62
     2
  5
629
 10
27.273781
 20
38.996375
 30
0.0
 11
27.873031
 21
38.996375
 31
0.0
  0
SOLID
  8
1
  6
CONTINUOUS
 62
     2
  5
62A
 10
27.167531
 20
38.978667
 30
0.0
 11
27.167531
 21
39.014083
 31
0.0
 12
27.061281
 22
38.996375
 32
0.0
 13
27.061281
 23
38.996375
 33
0.0
  0
SOLID
  8
1
  6
CONTINUOUS
 62
     2
  5
62B
 10
26.864854
 20
38.978667
 30
0.0
 11
26.864854
 21
39.014083
 31
0.0
 12
26.971104
 22
38.996375
 32
0.0
 13
26.971104
 23
38.996375
 33
0.0
  0
TEXT
  8
1
  6
CONTINUOUS
 62
   140
  5
62C
 10
27.339698
 20
39.03675
 30
0.0
 40
0.133292
  1
3/16"
  7
ROMANS
210
0.0
220
0.0
230
1.0
  0
LINE
  8
6
  6
CONTINUOUS
 62
     7
  5
62D
 10
26.971104
 20
38.827021
 30
0.0
 11
26.971115
 21
38.827021
 31
0.0
  0
LINE
  8
6
  6
CONTINUOUS
 62
     7
  5
62E
 10
27.061281
 20
38.943896
 30
0.0
 11
27.061292
 21
38.943896
 31
0.0
  0
LINE
  8
6
  6
CONTINUOUS
 62
     7
  5
62F
 10
27.061281
 20
38.996375
 30
0.0
 11
27.061292
 21
38.996375
 31
0.0
  0
LINE
  8
3
  6
CONTINUOUS
 62
     2
  5
630
 10
25.100323
 20
38.646573
 30
0.0
 11
25.100323
 21
38.667823
 31
0.0
  0
SOLID
  8
3
  6
CONTINUOUS
 62
     2
  5
631
 10
24.891469
 20
38.349427
 30
0.0
 11
24.920354
 21
38.328938
 31
0.0
 12
24.967437
 22
38.425812
 32
0.0
 13
24.967437
 23
38.425812
 33
0.0
  0
LINE
  8
3
  6
CONTINUOUS
 62
     2
  5
632
 10
24.905917
 20
38.339188
 30
0.0
 11
24.512292
 21
37.784917
 31
0.0
  0
LINE
  8
3
  6
CONTINUOUS
 62
     2
  5
633
 10
24.512292
 20
37.806917
 30
0.0
 11
23.980854
 21
37.806917
 31
0.0
  0
LINE
  8
3
  6
CONTINUOUS
 62
     2
  5
634
 10
25.100323
 20
38.648521
 30
0.0
 11
25.079687
 21
38.648521
 31
0.0
  0
LINE
  8
3
  6
CONTINUOUS
 62
     2
  5
635
 10
25.100323
 20
38.648521
 30
0.0
 11
25.100323
 21
38.625323
 31
0.0
  0
LINE
  8
3
  6
CONTINUOUS
 62
     2
  5
636
 10
25.100323
 20
38.648521
 30
0.0
 11
25.122187
 21
38.648521
 31
0.0
  0
LINE
  8
3
  6
CONTINUOUS
 62
     2
  5
637
 10
25.164687
 20
38.648521
 30
0.0
 11
25.708667
 21
38.648521
 31
0.0
  0
LINE
  8
3
  6
CONTINUOUS
 62
     2
  5
638
 10
25.037177
 20
38.648521
 30
0.0
 11
24.491969
 21
38.648521
 31
0.0
  0
LINE
  8
3
  6
CONTINUOUS
 62
     2
  5
639
 10
25.100323
 20
38.710323
 30
0.0
 11
25.100323
 21
39.255625
 31
0.0
  0
LINE
  8
3
  6
CONTINUOUS
 62
     2
  5
63A
 10
25.100323
 20
38.582812
 30
0.0
 11
25.100323
 21
38.041417
 31
0.0
  0
LINE
  8
3
  6
CONTINUOUS
 62
     2
  5
63B
 10
26.933979
 20
38.651729
 30
0.0
 11
26.164135
 21
38.651729
 31
0.0
  0
LINE
  8
1
  6
CONTINUOUS
 62
     2
  5
63C
 10
24.837198
 20
38.86799
 30
0.0
 11
24.837198
 21
39.650437
 31
0.0
  0
LINE
  8
1
  6
CONTINUOUS
 62
     2
  5
63D
 10
25.370552
 20
38.860823
 30
0.0
 11
25.370552
 21
39.650437
 31
0.0
  0
LINE
  8
1
  6
CONTINUOUS
 62
     2
  5
63E
 10
25.476802
 20
39.497437
 30
0.0
 11
25.583052
 21
39.497437
 31
0.0
  0
LINE
  8
1
  6
CONTINUOUS
 62
     2
  5
63F
 10
24.730948
 20
39.497437
 30
0.0
 11
24.624698
 21
39.497437
 31
0.0
  0
LINE
  8
1
  6
CONTINUOUS
 62
   140
  5
640
 10
25.583052
 20
39.497437
 30
0.0
 11
26.312635
 21
39.497437
 31
0.0
  0
SOLID
  8
1
  6
CONTINUOUS
 62
     2
  5
641
 10
25.476802
 20
39.479729
 30
0.0
 11
25.476802
 21
39.515146
 31
0.0
 12
25.370552
 22
39.497437
 32
0.0
 13
25.370552
 23
39.497437
 33
0.0
  0
SOLID
  8
1
  6
CONTINUOUS
 62
     2
  5
642
 10
24.730938
 20
39.479729
 30
0.0
 11
24.730938
 21
39.515146
 31
0.0
 12
24.837187
 22
39.497437
 32
0.0
 13
24.837187
 23
39.497437
 33
0.0
  0
TEXT
  8
1
  6
CONTINUOUS
 62
   140
  5
643
 10
25.653542
 20
39.530021
 30
0.0
 40
0.133292
  1
1-1/4"
  7
ROMANS
210
0.0
220
0.0
230
1.0
  0
LINE
  8
6
  6
CONTINUOUS
 62
     7
  5
644
 10
24.837198
 20
38.814865
 30
0.0
 11
24.837208
 21
38.814865
 31
0.0
  0
LINE
  8
6
  6
CONTINUOUS
 62
     7
  5
645
 10
25.370552
 20
38.807698
 30
0.0
 11
25.370562
 21
38.807698
 31
0.0
  0
LINE
  8
6
  6
CONTINUOUS
 62
     7
  5
646
 10
25.370552
 20
39.497437
 30
0.0
 11
25.370562
 21
39.497437
 31
0.0
  0
LINE
  8
1
  6
CONTINUOUS
 62
   140
  5
647
 10
6.809344
 20
41.165135
 30
0.0
 11
5.381646
 21
41.165135
 31
0.0
  0
LINE
  8
1
  6
CONTINUOUS
 62
   140
  5
648
 10
6.809344
 20
39.331094
 30
0.0
 11
5.381646
 21
39.331094
 31
0.0
  0
LINE
  8
1
  6
CONTINUOUS
 62
   140
  5
649
 10
5.534646
 20
41.058885
 30
0.0
 11
5.534646
 21
39.437344
 31
0.0
  0
SOLID
  8
1
  6
CONTINUOUS
 62
   140
  5
64A
 10
5.552354
 20
41.058885
 30
0.0
 11
5.516938
 21
41.058885
 31
0.0
 12
5.534646
 22
41.165135
 32
0.0
 13
5.534646
 23
41.165135
 33
0.0
  0
SOLID
  8
1
  6
CONTINUOUS
 62
   140
  5
64B
 10
5.552354
 20
39.437344
 30
0.0
 11
5.516938
 21
39.437344
 31
0.0
 12
5.534646
 22
39.331094
 32
0.0
 13
5.534646
 23
39.331094
 33
0.0
  0
TEXT
  8
1
  6
CONTINUOUS
 62
   140
  5
64C
 10
5.449875
 20
39.963677
 30
0.0
 40
0.133292
  1
12-1/4"
 50
90.0
  7
ROMANS
210
0.0
220
0.0
230
1.0
  0
LINE
  8
6
  6
CONTINUOUS
 62
     7
  5
64D
 10
6.862469
 20
41.165135
 30
0.0
 11
6.862479
 21
41.165135
 31
0.0
  0
LINE
  8
6
  6
CONTINUOUS
 62
     7
  5
64E
 10
6.862469
 20
39.331094
 30
0.0
 11
6.862479
 21
39.331094
 31
0.0
  0
LINE
  8
6
  6
CONTINUOUS
 62
     7
  5
64F
 10
5.534646
 20
39.331094
 30
0.0
 11
5.534656
 21
39.331094
 31
0.0
  0
LINE
  8
1
  6
CONTINUOUS
 62
   140
  5
650
 10
10.642479
 20
41.38951
 30
0.0
 11
11.018115
 21
41.38951
 31
0.0
  0
LINE
  8
1
  6
CONTINUOUS
 62
   140
  5
651
 10
10.642479
 20
39.077448
 30
0.0
 11
11.018115
 21
39.077448
 31
0.0
  0
LINE
  8
1
  6
CONTINUOUS
 62
   140
  5
652
 10
10.865115
 20
41.28326
 30
0.0
 11
10.865115
 21
39.183698
 31
0.0
  0
SOLID
  8
1
  6
CONTINUOUS
 62
   140
  5
653
 10
10.882823
 20
41.28326
 30
0.0
 11
10.847406
 21
41.28326
 31
0.0
 12
10.865115
 22
41.38951
 32
0.0
 13
10.865115
 23
41.38951
 33
0.0
  0
SOLID
  8
1
  6
CONTINUOUS
 62
   140
  5
654
 10
10.882823
 20
39.183698
 30
0.0
 11
10.847406
 21
39.183698
 31
0.0
 12
10.865115
 22
39.077448
 32
0.0
 13
10.865115
 23
39.077448
 33
0.0
  0
TEXT
  8
1
  6
CONTINUOUS
 62
   140
  5
655
 10
10.812802
 20
40.002708
 30
0.0
 40
0.133292
  1
16"
 50
90.0
  7
ROMANS
210
0.0
220
0.0
230
1.0
  0
POINT
  8
6
  6
CONTINUOUS
 62
     7
  5
656
 10
10.589354
 20
41.38951
 30
0.0
  0
POINT
  8
6
  6
CONTINUOUS
 62
     7
  5
657
 10
10.589354
 20
39.077448
 30
0.0
  0
LINE
  8
6
  6
CONTINUOUS
 62
     7
  5
658
 10
10.865115
 20
39.077448
 30
0.0
 11
10.865125
 21
39.077448
 31
0.0
  0
TEXT
  8
3
  6
CONTINUOUS
 62
     2
  5
659
 10
11.058844
 20
39.846448
 30
0.0
 40
0.133292
  1
Approx.
 50
90.0
  7
ROMANS
210
0.0
220
0.0
230
1.0
  0
TEXT
  8
3
  6
CONTINUOUS
 62
     2
  5
65A
 10
8.501073
 20
38.45401
 30
0.0
 40
0.133292
  1
Approx.
  7
ROMANS
210
0.0
220
0.0
230
1.0
  0
LINE
  8
1
  6
CONTINUOUS
 62
   140
  5
65B
 10
6.862469
 20
39.277969
 30
0.0
 11
6.862469
 21
38.868552
 31
0.0
  0
LINE
  8
1
  6
CONTINUOUS
 62
   140
  5
65C
 10
8.732604
 20
39.277969
 30
0.0
 11
8.732604
 21
38.868552
 31
0.0
  0
LINE
  8
1
  6
CONTINUOUS
 62
   140
  5
65D
 10
6.968719
 20
39.021552
 30
0.0
 11
8.626354
 21
39.021552
 31
0.0
  0
SOLID
  8
1
  6
CONTINUOUS
 62
   140
  5
65E
 10
6.968719
 20
39.003844
 30
0.0
 11
6.968719
 21
39.03925
 31
0.0
 12
6.862469
 22
39.021552
 32
0.0
 13
6.862469
 23
39.021552
 33
0.0
  0
SOLID
  8
1
  6
CONTINUOUS
 62
   140
  5
65F
 10
8.626354
 20
39.003844
 30
0.0
 11
8.626354
 21
39.03925
 31
0.0
 12
8.732604
 22
39.021552
 32
0.0
 13
8.732604
 23
39.021552
 33
0.0
  0
TEXT
  8
1
  6
CONTINUOUS
 62
   140
  5
660
 10
7.478344
 20
39.062104
 30
0.0
 40
0.133292
  1
12-3/4"
  7
ROMANS
210
0.0
220
0.0
230
1.0
  0
LINE
  8
6
  6
CONTINUOUS
 62
     7
  5
661
 10
6.862469
 20
39.331094
 30
0.0
 11
6.862479
 21
39.331094
 31
0.0
  0
LINE
  8
6
  6
CONTINUOUS
 62
     7
  5
662
 10
8.732604
 20
39.331094
 30
0.0
 11
8.732615
 21
39.331094
 31
0.0
  0
LINE
  8
6
  6
CONTINUOUS
 62
     7
  5
663
 10
8.732604
 20
39.021552
 30
0.0
 11
8.732615
 21
39.021552
 31
0.0
  0
LINE
  8
1
  6
CONTINUOUS
 62
   140
  5
664
 10
6.862469
 20
39.277969
 30
0.0
 11
6.862469
 21
38.443552
 31
0.0
  0
LINE
  8
1
  6
CONTINUOUS
 62
   140
  5
665
 10
10.589354
 20
39.024323
 30
0.0
 11
10.589354
 21
38.443552
 31
0.0
  0
LINE
  8
1
  6
CONTINUOUS
 62
   140
  5
666
 10
6.968719
 20
38.596552
 30
0.0
 11
10.483104
 21
38.596552
 31
0.0
  0
SOLID
  8
1
  6
CONTINUOUS
 62
   140
  5
667
 10
6.968719
 20
38.578844
 30
0.0
 11
6.968719
 21
38.61425
 31
0.0
 12
6.862469
 22
38.596552
 32
0.0
 13
6.862469
 23
38.596552
 33
0.0
  0
SOLID
  8
1
  6
CONTINUOUS
 62
   140
  5
668
 10
10.483104
 20
38.578844
 30
0.0
 11
10.483104
 21
38.61425
 31
0.0
 12
10.589354
 22
38.596552
 32
0.0
 13
10.589354
 23
38.596552
 33
0.0
  0
TEXT
  8
1
  6
CONTINUOUS
 62
   140
  5
669
 10
8.639646
 20
38.648885
 30
0.0
 40
0.133292
  1
24"
  7
ROMANS
210
0.0
220
0.0
230
1.0
  0
LINE
  8
6
  6
CONTINUOUS
 62
     7
  5
66A
 10
6.862469
 20
39.331094
 30
0.0
 11
6.862479
 21
39.331094
 31
0.0
  0
POINT
  8
6
  6
CONTINUOUS
 62
     7
  5
66B
 10
10.589354
 20
39.077448
 30
0.0
  0
POINT
  8
6
  6
CONTINUOUS
 62
     7
  5
66C
 10
10.589354
 20
38.596552
 30
0.0
  0
TEXT
  8
3
  6
CONTINUOUS
 62
     2
  5
66D
 10
10.24274
 20
41.787156
 30
0.0
 40
0.133292
  1
Base Metal Nominal
  7
ROMANS
210
0.0
220
0.0
230
1.0
  0
TEXT
  8
3
  6
CONTINUOUS
 62
     2
  5
66E
 10
10.236219
 20
41.519885
 30
0.0
 40
0.133292
  1
Thickness, 0.135"
  7
ROMANS
210
0.0
220
0.0
230
1.0
  0
SOLID
  8
3
  6
CONTINUOUS
 62
     2
  5
66F
 10
9.851073
 20
41.468823
 30
0.0
 11
9.821406
 21
41.488177
 31
0.0
 12
9.778177
 22
41.38951
 32
0.0
 13
9.778177
 23
41.38951
 33
0.0
  0
LINE
  8
3
  6
CONTINUOUS
 62
     2
  5
670
 10
9.83624
 20
41.4785
 30
0.0
 11
10.0585
 21
41.819135
 31
0.0
  0
LINE
  8
3
  6
CONTINUOUS
 62
     2
  5
671
 10
10.0585
 20
41.819135
 30
0.0
 11
10.170438
 21
41.819135
 31
0.0
  0
POINT
  8
3
  6
CONTINUOUS
 62
     2
  5
672
 10
10.170438
 20
41.819135
 30
0.0
  0
LINE
  8
7
  6
CENTER
 62
     2
  5
673
 10
7.198604
 20
39.421917
 30
0.0
 11
7.198604
 21
42.510135
 31
0.0
  0
LINE
  8
7
  6
CENTER
 62
     2
  5
674
 10
8.415062
 20
39.421917
 30
0.0
 11
8.415062
 21
42.510135
 31
0.0
  0
LINE
  8
1
  6
CONTINUOUS
 62
   140
  5
675
 10
9.715344
 20
41.942687
 30
0.0
 11
9.829698
 21
41.942687
 31
0.0
  0
LINE
  8
1
  6
CONTINUOUS
 62
   140
  5
676
 10
8.698135
 20
42.310927
 30
0.0
 11
9.829698
 21
42.310927
 31
0.0
  0
LINE
  8
1
  6
CONTINUOUS
 62
   140
  5
677
 10
9.676698
 20
42.048938
 30
0.0
 11
9.676698
 21
42.204677
 31
0.0
  0
SOLID
  8
1
  6
CONTINUOUS
 62
   140
  5
678
 10
9.694406
 20
42.048938
 30
0.0
 11
9.65899
 21
42.048938
 31
0.0
 12
9.676698
 22
41.942687
 32
0.0
 13
9.676698
 23
41.942687
 33
0.0
  0
SOLID
  8
1
  6
CONTINUOUS
 62
   140
  5
679
 10
9.694406
 20
42.204677
 30
0.0
 11
9.65899
 21
42.204677
 31
0.0
 12
9.676698
 22
42.310927
 32
0.0
 13
9.676698
 23
42.310927
 33
0.0
  0
TEXT
  8
1
  6
CONTINUOUS
 62
   140
  5
67A
 10
9.636156
 20
42.057021
 30
0.0
 40
0.133292
  1
3"
 50
90.0
  7
ROMANS
210
0.0
220
0.0
230
1.0
  0
LINE
  8
6
  6
CONTINUOUS
 62
     7
  5
67B
 10
9.662219
 20
41.942687
 30
0.0
 11
9.662229
 21
41.942687
 31
0.0
  0
LINE
  8
6
  6
CONTINUOUS
 62
     7
  5
67C
 10
8.64501
 20
42.310927
 30
0.0
 11
8.645021
 21
42.310927
 31
0.0
  0
LINE
  8
6
  6
CONTINUOUS
 62
     7
  5
67D
 10
9.676698
 20
42.310927
 30
0.0
 11
9.676708
 21
42.310927
 31
0.0
  0
SOLID
  8
3
  6
CONTINUOUS
 62
     2
  5
67E
 10
7.304854
 20
41.60801
 30
0.0
 11
7.304854
 21
41.643427
 31
0.0
 12
7.198604
 22
41.625719
 32
0.0
 13
7.198604
 23
41.625719
 33
0.0
  0
LINE
  8
3
  6
CONTINUOUS
 62
     2
  5
67F
 10
7.304854
 20
41.625719
 30
0.0
 11
8.415062
 21
41.625719
 31
0.0
  0
SOLID
  8
3
  6
CONTINUOUS
 62
     2
  5
680
 10
8.308813
 20
41.643427
 30
0.0
 11
8.308813
 21
41.60801
 31
0.0
 12
8.415062
 22
41.625719
 32
0.0
 13
8.415062
 23
41.625719
 33
0.0
  0
TEXT
  8
3
  6
CONTINUOUS
 62
     2
  5
681
 10
7.575667
 20
41.664854
 30
0.0
 40
0.133292
  1
8-1/2"
  7
ROMANS
210
0.0
220
0.0
230
1.0
  0
SOLID
  8
3
  6
CONTINUOUS
 62
     2
  5
682
 10
6.784615
 20
41.643427
 30
0.0
 11
6.784615
 21
41.60801
 31
0.0
 12
6.890865
 22
41.625719
 32
0.0
 13
6.890865
 23
41.625719
 33
0.0
  0
LINE
  8
3
  6
CONTINUOUS
 62
     2
  5
683
 10
6.784615
 20
41.625719
 30
0.0
 11
6.624281
 21
41.625719
 31
0.0
  0
LINE
  8
3
  6
CONTINUOUS
 62
     2
  5
684
 10
6.890865
 20
41.786104
 30
0.0
 11
6.890865
 21
41.488198
 31
0.0
  0
TEXT
  8
3
  6
CONTINUOUS
 62
     2
  5
685
 10
6.091563
 20
41.578333
 30
0.0
 40
0.085
  1
2-1/4"
  7
ROMANS
210
0.0
220
0.0
230
1.0
  0
ARC
  8
1
  6
CONTINUOUS
 62
   140
  5
686
 10
6.302897
 20
42.26185
 30
0.0
 40
0.738446
 50
188.251031
 51
196.502061
210
0.0
220
0.0
230
1.0
  0
ARC
  8
1
  6
CONTINUOUS
 62
   140
  5
687
 10
6.302897
 20
42.26185
 30
0.0
 40
0.738446
 50
132.45785
 51
140.708881
210
0.0
220
0.0
230
1.0
  0
LINE
  8
1
  6
CONTINUOUS
 62
   140
  5
688
 10
5.411448
 20
42.261854
 30
0.0
 11
6.249771
 21
42.261854
 31
0.0
  0
LINE
  8
1
  6
CONTINUOUS
 62
   140
  5
689
 10
5.539104
 20
42.72151
 30
0.0
 11
6.250104
 21
42.293615
 31
0.0
  0
SOLID
  8
1
  6
CONTINUOUS
 62
   140
  5
68A
 10
5.58976
 20
42.157146
 30
0.0
 11
5.554437
 21
42.154604
 31
0.0
 12
5.564448
 22
42.261844
 32
0.0
 13
5.564448
 23
42.261844
 33
0.0
  0
SOLID
  8
1
  6
CONTINUOUS
 62
   140
  5
68B
 10
5.745865
 20
42.719271
 30
0.0
 11
5.716906
 21
42.739677
 31
0.0
 12
5.670187
 22
42.642625
 32
0.0
 13
5.670187
 23
42.642625
 33
0.0
  0
TEXT
  8
1
  6
CONTINUOUS
 62
   140
  5
68C
 10
5.517115
 20
42.382167
 30
0.0
 40
0.133292
  1
30%%d
  7
ROMANS
210
0.0
220
0.0
230
1.0
  0
LINE
  8
6
  6
CONTINUOUS
 62
     7
  5
68D
 10
9.288625
 20
42.261854
 30
0.0
 11
9.288635
 21
42.261854
 31
0.0
  0
LINE
  8
6
  6
CONTINUOUS
 62
     7
  5
68E
 10
6.302896
 20
42.261854
 30
0.0
 11
6.302906
 21
42.261854
 31
0.0
  0
LINE
  8
6
  6
CONTINUOUS
 62
     7
  5
68F
 10
6.302896
 20
42.261854
 30
0.0
 11
6.302906
 21
42.261854
 31
0.0
  0
LINE
  8
6
  6
CONTINUOUS
 62
     7
  5
690
 10
5.714927
 20
42.615698
 30
0.0
 11
5.714937
 21
42.615698
 31
0.0
  0
TEXT
  8
3
  6
CONTINUOUS
 62
     2
  5
691
 10
7.362427
 20
40.563281
 30
0.0
 40
0.133292
  1
Splice Bolt
  7
ROMANS
210
0.0
220
0.0
230
1.0
  0
TEXT
  8
3
  6
CONTINUOUS
 62
     2
  5
692
 10
7.333771
 20
40.35551
 30
0.0
 40
0.133292
  1
Slots,29/32"
  7
ROMANS
210
0.0
220
0.0
230
1.0
  0
TEXT
  8
3
  6
CONTINUOUS
 62
     2
  5
693
 10
7.421437
 20
40.16324
 30
0.0
 40
0.133292
  1
x 1-1/8"
  7
ROMANS
210
0.0
220
0.0
230
1.0
  0
SOLID
  8
3
  6
CONTINUOUS
 62
     2
  5
694
 10
7.148333
 20
40.83876
 30
0.0
 11
7.181958
 21
40.827604
 31
0.0
 12
7.198604
 22
40.934021
 32
0.0
 13
7.198604
 23
40.934021
 33
0.0
  0
LINE
  8
3
  6
CONTINUOUS
 62
     2
  5
695
 10
7.165146
 20
40.833177
 30
0.0
 11
6.970187
 21
40.24551
 31
0.0
  0
LINE
  8
3
  6
CONTINUOUS
 62
     2
  5
696
 10
6.970187
 20
40.24551
 30
0.0
 11
7.285854
 21
40.24551
 31
0.0
  0
SOLID
  8
3
  6
CONTINUOUS
 62
     2
  5
697
 10
8.471438
 20
39.609094
 30
0.0
 11
8.438625
 21
39.622427
 31
0.0
 12
8.415062
 22
39.517323
 32
0.0
 13
8.415062
 23
39.517323
 33
0.0
  0
LINE
  8
3
  6
CONTINUOUS
 62
     2
  5
698
 10
8.455031
 20
39.61576
 30
0.0
 11
8.70826
 21
40.239552
 31
0.0
  0
LINE
  8
3
  6
CONTINUOUS
 62
     2
  5
699
 10
8.70826
 20
40.239552
 30
0.0
 11
8.356927
 21
40.239552
 31
0.0
  0
SOLID
  8
1
  6
CONTINUOUS
 62
   140
  5
69A
 10
10.071427
 20
43.356
 30
0.0
 11
10.102333
 21
43.338698
 31
0.0
 12
10.13874
 22
43.440062
 32
0.0
 13
10.13874
 23
43.440062
 33
0.0
  0
LINE
  8
1
  6
CONTINUOUS
 62
   140
  5
69B
 10
9.747198
 20
42.740156
 30
0.0
 11
10.13874
 21
43.440062
 31
0.0
  0
TEXT
  8
1
  6
CONTINUOUS
 62
   140
  5
69C
 10
8.7015
 20
42.682219
 30
0.0
 40
0.133292
  1
6-1/4"R
  7
ROMANS
210
0.0
220
0.0
230
1.0
  0
LINE
  8
1
  6
CONTINUOUS
 62
   140
  5
69D
 10
9.670687
 20
42.740156
 30
0.0
 11
9.823688
 21
42.740156
 31
0.0
  0
LINE
  8
1
  6
CONTINUOUS
 62
   140
  5
69E
 10
9.747187
 20
42.663656
 30
0.0
 11
9.747187
 21
42.816656
 31
0.0
  0
LINE
  8
6
  6
CONTINUOUS
 62
     7
  5
69F
 10
9.747187
 20
42.740156
 30
0.0
 11
9.747198
 21
42.740156
 31
0.0
  0
LINE
  8
6
  6
CONTINUOUS
 62
     7
  5
6A0
 10
9.747187
 20
42.740156
 30
0.0
 11
9.747198
 21
42.740156
 31
0.0
  0
ARC
  8
1
  6
CONTINUOUS
 62
   140
  5
6A1
 10
9.772774
 20
42.709189
 30
0.0
 40
1.152805
 50
96.421008
 51
124.281167
210
0.0
220
0.0
230
1.0
  0
LINE
  8
1
  6
CONTINUOUS
 62
   140
  5
6A2
 10
9.746833
 20
44.01474
 30
0.0
 11
9.75499
 21
43.604292
 31
0.0
  0
LINE
  8
1
  6
CONTINUOUS
 62
   140
  5
6A3
 10
8.941062
 20
43.715854
 30
0.0
 11
9.202531
 21
43.399375
 31
0.0
  0
SOLID
  8
1
  6
CONTINUOUS
 62
   140
  5
6A4
 10
9.64501
 20
43.837083
 30
0.0
 11
9.642687
 21
43.872427
 31
0.0
 12
9.749865
 22
43.86176
 32
0.0
 13
9.749865
 23
43.86176
 33
0.0
  0
SOLID
  8
1
  6
CONTINUOUS
 62
   140
  5
6A5
 10
9.134083
 20
43.647573
 30
0.0
 11
9.112813
 21
43.675885
 31
0.0
 12
9.03851
 22
43.597896
 32
0.0
 13
9.03851
 23
43.597896
 33
0.0
  0
TEXT
  8
1
  6
CONTINUOUS
 62
   140
  5
6A6
 10
9.323729
 20
43.84575
 30
0.0
 40
0.133292
  1
3"
  7
ROMANS
210
0.0
220
0.0
230
1.0
  0
LINE
  8
6
  6
CONTINUOUS
 62
     7
  5
6A7
 10
9.756042
 20
43.551177
 30
0.0
 11
9.756052
 21
43.551177
 31
0.0
  0
LINE
  8
6
  6
CONTINUOUS
 62
     7
  5
6A8
 10
9.759625
 20
43.370958
 30
0.0
 11
9.759635
 21
43.370958
 31
0.0
  0
POINT
  8
6
  6
CONTINUOUS
 62
     7
  5
6A9
 10
9.236375
 20
43.358417
 30
0.0
  0
LINE
  8
6
  6
CONTINUOUS
 62
     7
  5
6AA
 10
9.261958
 20
43.327448
 30
0.0
 11
9.261969
 21
43.327448
 31
0.0
  0
TEXT
  8
3
  6
CONTINUOUS
 62
     2
  5
6AB
 10
9.30675
 20
43.594844
 30
0.0
 40
0.133292
  1
Min.
 50
15.881206
  7
ROMANS
210
0.0
220
0.0
230
1.0
  0
TEXT
  8
3
  6
CONTINUOUS
 62
     2
  5
6AC
 10
15.034167
 20
46.784781
 30
0.0
 40
0.14
  1
ELEVATION
  7
ROMANS
210
0.0
220
0.0
230
1.0
  0
TEXT
  8
3
  6
CONTINUOUS
 62
     2
  5
6AD
 10
19.659802
 20
38.467437
 30
0.0
 40
0.133292
  1
Base Metal
  7
ROMANS
210
0.0
220
0.0
230
1.0
  0
TEXT
  8
3
  6
CONTINUOUS
 62
     2
  5
6AE
 10
19.705063
 20
38.254448
 30
0.0
 40
0.133292
  1
Nominal
  7
ROMANS
210
0.0
220
0.0
230
1.0
  0
TEXT
  8
3
  6
CONTINUOUS
 62
     2
  5
6AF
 10
19.667229
 20
38.023656
 30
0.0
 40
0.133292
  1
Thickness,
  7
ROMANS
210
0.0
220
0.0
230
1.0
  0
TEXT
  8
3
  6
CONTINUOUS
 62
     2
  5
6B0
 10
19.82451
 20
37.783812
 30
0.0
 40
0.133292
  1
0.105"
  7
ROMANS
210
0.0
220
0.0
230
1.0
  0
TEXT
  8
3
  6
CONTINUOUS
 62
     2
  5
6B1
 10
16.651823
 20
40.232781
 30
0.0
 40
0.133292
  1
in Rail Element
  7
ROMANS
210
0.0
220
0.0
230
1.0
  0
TEXT
  8
3
  6
CONTINUOUS
 62
     2
  5
6B2
 10
16.66974
 20
40.437875
 30
0.0
 40
0.133292
  1
3/4"x2-1/2"Slot
  7
ROMANS
210
0.0
220
0.0
230
1.0
  0
LINE
  8
1
  6
CONTINUOUS
 62
   140
  5
6B3
 10
21.071208
 20
41.091698
 30
0.0
 11
20.557792
 21
41.091698
 31
0.0
  0
LINE
  8
1
  6
CONTINUOUS
 62
   140
  5
6B4
 10
21.071208
 20
37.516604
 30
0.0
 11
20.557792
 21
37.516604
 31
0.0
  0
LINE
  8
1
  6
CONTINUOUS
 62
   150
  5
6B5
 10
20.710792
 20
40.985448
 30
0.0
 11
20.710792
 21
37.622854
 31
0.0
  0
SOLID
  8
1
  6
CONTINUOUS
 62
   140
  5
6B6
 10
20.7285
 20
40.985448
 30
0.0
 11
20.693083
 21
40.985448
 31
0.0
 12
20.710792
 22
41.091698
 32
0.0
 13
20.710792
 23
41.091698
 33
0.0
  0
SOLID
  8
1
  6
CONTINUOUS
 62
   140
  5
6B7
 10
20.7285
 20
37.622854
 30
0.0
 11
20.693083
 21
37.622854
 31
0.0
 12
20.710792
 22
37.516604
 32
0.0
 13
20.710792
 23
37.516604
 33
0.0
  0
TEXT
  8
1
  6
CONTINUOUS
 62
   140
  5
6B8
 10
20.667677
 20
39.108052
 30
0.0
 40
0.133292
  1
12-1/4"
 50
90.0
  7
ROMANS
210
0.0
220
0.0
230
1.0
  0
LINE
  8
6
  6
CONTINUOUS
 62
     7
  5
6B9
 10
21.124333
 20
41.091698
 30
0.0
 11
21.124344
 21
41.091698
 31
0.0
  0
LINE
  8
6
  6
CONTINUOUS
 62
     7
  5
6BA
 10
21.124333
 20
37.516604
 30
0.0
 11
21.124344
 21
37.516604
 31
0.0
  0
POINT
  8
6
  6
CONTINUOUS
 62
     7
  5
6BB
 10
20.710792
 20
37.516604
 30
0.0
  0
TEXT
  8
3
  6
CONTINUOUS
 62
     2
  5
6BC
 10
19.825167
 20
41.49876
 30
0.0
 40
0.133292
  1
Tolerance
  7
ROMANS
210
0.0
220
0.0
230
1.0
  0
LINE
  8
1
  6
CONTINUOUS
 62
   233
  5
6BD
 10
21.217927
 20
41.093719
 30
0.0
 11
21.124333
 21
41.091698
 31
0.0
  0
ARC
  8
1
  6
CONTINUOUS
 62
   140
  5
6BE
 10
21.124338
 20
41.091693
 30
0.0
 40
1.555099
 50
5.155528
 51
9.070944
210
0.0
220
0.0
230
1.0
  0
ARC
  8
1
  6
CONTINUOUS
 62
   140
  5
6BF
 10
21.124338
 20
41.091693
 30
0.0
 40
1.555099
 50
341.468714
 51
345.384131
210
0.0
220
0.0
230
1.0
  0
LINE
  8
1
  6
CONTINUOUS
 62
     2
  5
6C0
 10
22.802729
 20
40.774542
 30
0.0
 11
21.536906
 21
41.01374
 31
0.0
  0
LINE
  8
1
  6
CONTINUOUS
 62
     2
  5
6C1
 10
22.832042
 20
41.128656
 30
0.0
 11
21.177458
 21
41.092844
 31
0.0
  0
SOLID
  8
1
  6
CONTINUOUS
 62
   140
  5
6C2
 10
22.655458
 20
41.230448
 30
0.0
 11
22.690823
 21
41.232417
 31
0.0
 12
22.679073
 22
41.125344
 32
0.0
 13
22.679073
 23
41.125344
 33
0.0
  0
SOLID
  8
1
  6
CONTINUOUS
 62
   140
  5
6C3
 10
22.611833
 20
40.703167
 30
0.0
 11
22.646385
 21
40.695406
 31
0.0
 12
22.652385
 22
40.802948
 32
0.0
 13
22.652385
 23
40.802948
 33
0.0
  0
TEXT
  8
1
  6
CONTINUOUS
 62
   140
  5
6C4
 10
22.599313
 20
40.909844
 30
0.0
 40
0.133292
  1
10%%d
  7
ROMANS
210
0.0
220
0.0
230
1.0
  0
LINE
  8
6
  6
CONTINUOUS
 62
     7
  5
6C5
 10
21.124333
 20
41.091698
 30
0.0
 11
21.124344
 21
41.091698
 31
0.0
  0
LINE
  8
6
  6
CONTINUOUS
 62
     7
  5
6C6
 10
21.484698
 20
41.023604
 30
0.0
 11
21.484708
 21
41.023604
 31
0.0
  0
LINE
  8
6
  6
CONTINUOUS
 62
     7
  5
6C7
 10
21.124333
 20
41.091698
 30
0.0
 11
21.124344
 21
41.091698
 31
0.0
  0
LINE
  8
6
  6
CONTINUOUS
 62
     7
  5
6C8
 10
21.03075
 20
41.089667
 30
0.0
 11
21.03076
 21
41.089667
 31
0.0
  0
LINE
  8
3
  6
CONTINUOUS
 62
   150
  5
6C9
 10
21.200167
 20
41.146844
 30
0.0
 11
21.200167
 21
41.412188
 31
0.0
  0
LINE
  8
3
  6
CONTINUOUS
 62
   150
  5
6CA
 10
21.578292
 20
41.07876
 30
0.0
 11
21.578292
 21
41.412188
 31
0.0
  0
LINE
  8
3
  6
CONTINUOUS
 62
   150
  5
6CB
 10
21.200167
 20
41.259187
 30
0.0
 11
22.165604
 21
41.259187
 31
0.0
  0
SOLID
  8
3
  6
CONTINUOUS
 62
     2
  5
6CC
 10
21.306417
 20
41.241479
 30
0.0
 11
21.306417
 21
41.276896
 31
0.0
 12
21.200167
 22
41.259187
 32
0.0
 13
21.200167
 23
41.259187
 33
0.0
  0
SOLID
  8
3
  6
CONTINUOUS
 62
     2
  5
6CD
 10
21.472031
 20
41.241479
 30
0.0
 11
21.472031
 21
41.276896
 31
0.0
 12
21.578281
 22
41.259187
 32
0.0
 13
21.578281
 23
41.259187
 33
0.0
  0
TEXT
  8
3
  6
CONTINUOUS
 62
     2
  5
6CE
 10
22.198219
 20
41.333687
 30
0.0
 40
0.133292
  1
1-1/16"
  7
ROMANS
210
0.0
220
0.0
230
1.0
  0
LINE
  8
6
  6
CONTINUOUS
 62
     7
  5
6CF
 10
21.217927
 20
41.093719
 30
0.0
 11
21.217937
 21
41.093719
 31
0.0
  0
LINE
  8
6
  6
CONTINUOUS
 62
     7
  5
6D0
 10
21.578292
 20
41.025635
 30
0.0
 11
21.578302
 21
41.025635
 31
0.0
  0
LINE
  8
3
  6
CONTINUOUS
 62
     2
  5
6D1
 10
21.578292
 20
41.259187
 30
0.0
 11
21.578302
 21
41.259187
 31
0.0
  0
LINE
  8
3
  6
CONTINUOUS
 62
     2
  5
6D2
 10
22.08924
 20
37.415083
 30
0.0
 11
22.08924
 21
37.77924
 31
0.0
  0
LINE
  8
3
  6
CONTINUOUS
 62
   150
  5
6D3
 10
21.200167
 20
41.684188
 30
0.0
 11
21.98299
 21
41.684188
 31
0.0
  0
SOLID
  8
3
  6
CONTINUOUS
 62
     2
  5
6D4
 10
21.306417
 20
41.666479
 30
0.0
 11
21.306417
 21
41.701896
 31
0.0
 12
21.200167
 22
41.684188
 32
0.0
 13
21.200167
 23
41.684188
 33
0.0
  0
SOLID
  8
3
  6
CONTINUOUS
 62
     2
  5
6D5
 10
21.98299
 20
41.666479
 30
0.0
 11
21.98299
 21
41.701896
 31
0.0
 12
22.08924
 22
41.684188
 32
0.0
 13
22.08924
 23
41.684188
 33
0.0
  0
TEXT
  8
3
  6
CONTINUOUS
 62
     2
  5
6D6
 10
21.248458
 20
41.727312
 30
0.0
 40
0.133292
  1
3-3/16"
  7
ROMANS
210
0.0
220
0.0
230
1.0
  0
LINE
  8
6
  6
CONTINUOUS
 62
     7
  5
6D7
 10
21.217927
 20
41.093719
 30
0.0
 11
21.217937
 21
41.093719
 31
0.0
  0
LINE
  8
6
  6
CONTINUOUS
 62
     7
  5
6D8
 10
22.08924
 20
40.757604
 30
0.0
 11
22.08925
 21
40.757604
 31
0.0
  0
LINE
  8
6
  6
CONTINUOUS
 62
     7
  5
6D9
 10
22.08924
 20
41.684188
 30
0.0
 11
22.08925
 21
41.684188
 31
0.0
  0
LINE
  8
3
  6
CONTINUOUS
 62
   150
  5
6DA
 10
21.200167
 20
41.146844
 30
0.0
 11
21.200167
 21
41.841781
 31
0.0
  0
LINE
  8
3
  6
CONTINUOUS
 62
   150
  5
6DB
 10
21.124333
 20
41.144823
 30
0.0
 11
21.124333
 21
42.046104
 31
0.0
  0
TEXT
  8
3
  6
CONTINUOUS
 62
     2
  5
6DC
 10
20.071427
 20
41.688323
 30
0.0
 40
0.133292
  1
1/16"
  7
ROMANS
210
0.0
220
0.0
230
1.0
  0
LINE
  8
6
  6
CONTINUOUS
 62
     7
  5
6DD
 10
21.217927
 20
41.093719
 30
0.0
 11
21.217937
 21
41.093719
 31
0.0
  0
LINE
  8
6
  6
CONTINUOUS
 62
     7
  5
6DE
 10
21.124333
 20
41.091698
 30
0.0
 11
21.124344
 21
41.091698
 31
0.0
  0
SOLID
  8
3
  6
CONTINUOUS
 62
     2
  5
6DF
 10
21.230583
 20
41.957687
 30
0.0
 11
21.230583
 21
41.993115
 31
0.0
 12
21.124333
 22
41.975406
 32
0.0
 13
21.124333
 23
41.975406
 33
0.0
  0
LINE
  8
3
  6
CONTINUOUS
 62
     2
  5
6E0
 10
21.124333
 20
41.975406
 30
0.0
 11
21.98299
 21
41.975406
 31
0.0
  0
SOLID
  8
3
  6
CONTINUOUS
 62
     2
  5
6E1
 10
21.98299
 20
41.957687
 30
0.0
 11
21.98299
 21
41.993115
 31
0.0
 12
22.08924
 22
41.975406
 32
0.0
 13
22.08924
 23
41.975406
 33
0.0
  0
TEXT
  8
3
  6
CONTINUOUS
 62
     2
  5
6E2
 10
21.27076
 20
42.035677
 30
0.0
 40
0.133292
  1
3-1/4"
  7
ROMANS
210
0.0
220
0.0
230
1.0
  0
LINE
  8
3
  6
CONTINUOUS
 62
   150
  5
6E3
 10
20.7045
 20
41.684188
 30
0.0
 11
21.124333
 21
41.684188
 31
0.0
  0
SOLID
  8
3
  6
CONTINUOUS
 62
     2
  5
6E4
 10
21.018083
 20
41.666479
 30
0.0
 11
21.018083
 21
41.701896
 31
0.0
 12
21.124333
 22
41.684188
 32
0.0
 13
21.124333
 23
41.684188
 33
0.0
  0
LINE
  8
1
  6
CONTINUOUS
 62
   140
  5
6E5
 10
21.157271
 20
39.584073
 30
0.0
 11
20.876219
 21
39.584073
 31
0.0
  0
LINE
  8
1
  6
CONTINUOUS
 62
   150
  5
6E6
 10
22.068667
 20
40.558927
 30
0.0
 11
20.876219
 21
40.558927
 31
0.0
  0
LINE
  8
1
  6
CONTINUOUS
 62
   150
  5
6E7
 10
21.029219
 20
39.690323
 30
0.0
 11
21.029219
 21
40.452677
 31
0.0
  0
SOLID
  8
1
  6
CONTINUOUS
 62
   140
  5
6E8
 10
21.046927
 20
39.690323
 30
0.0
 11
21.0115
 21
39.690323
 31
0.0
 12
21.029219
 22
39.584073
 32
0.0
 13
21.029219
 23
39.584073
 33
0.0
  0
SOLID
  8
1
  6
CONTINUOUS
 62
   140
  5
6E9
 10
21.046927
 20
40.452677
 30
0.0
 11
21.0115
 21
40.452677
 31
0.0
 12
21.029219
 22
40.558927
 32
0.0
 13
21.029219
 23
40.558927
 33
0.0
  0
TEXT
  8
1
  6
CONTINUOUS
 62
   140
  5
6EA
 10
20.994812
 20
39.843865
 30
0.0
 40
0.133292
  1
3-1/4"
 50
90.0
  7
ROMANS
210
0.0
220
0.0
230
1.0
  0
POINT
  8
6
  6
CONTINUOUS
 62
     7
  5
6EB
 10
21.210396
 20
39.584073
 30
0.0
  0
POINT
  8
6
  6
CONTINUOUS
 62
     7
  5
6EC
 10
22.121792
 20
40.558927
 30
0.0
  0
LINE
  8
6
  6
CONTINUOUS
 62
     7
  5
6ED
 10
21.029219
 20
40.558927
 30
0.0
 11
21.029229
 21
40.558927
 31
0.0
  0
LINE
  8
3
  6
CONTINUOUS
 62
     2
  5
6EE
 10
21.029219
 20
39.024229
 30
0.0
 11
21.029219
 21
39.304156
 31
0.0
  0
SOLID
  8
3
  6
CONTINUOUS
 62
     2
  5
6EF
 10
21.046927
 20
39.197906
 30
0.0
 11
21.0115
 21
39.197906
 31
0.0
 12
21.029219
 22
39.304156
 32
0.0
 13
21.029219
 23
39.304156
 33
0.0
  0
TEXT
  8
3
  6
CONTINUOUS
 62
     2
  5
6F0
 10
24.031354
 20
37.890646
 30
0.0
 40
0.133292
  1
5/8"
  7
ROMANS
210
0.0
220
0.0
230
1.0
  0
TEXT
  8
3
  6
CONTINUOUS
 62
     2
  5
6F1
 10
23.720229
 20
37.574469
 30
0.0
 40
0.133292
  1
Height
  7
ROMANS
210
0.0
220
0.0
230
1.0
  0
TEXT
  8
3
  6
CONTINUOUS
 62
     2
  5
6F2
 10
21.107844
 20
38.462573
 30
0.0
 40
0.133292
  1
9/16"
 50
90.0
  7
ROMANS
210
0.0
220
0.0
230
1.0
  0
LINE
  8
3
  6
CONTINUOUS
 62
   150
  5
6F3
 10
21.722885
 20
40.767104
 30
0.0
 11
21.722885
 21
40.287062
 31
0.0
  0
LINE
  8
3
  6
CONTINUOUS
 62
   150
  5
6F4
 10
21.722885
 20
38.333781
 30
0.0
 11
21.722885
 21
37.845469
 31
0.0
  0
LINE
  8
3
  6
CONTINUOUS
 62
   150
  5
6F5
 10
21.722885
 20
39.79874
 30
0.0
 11
21.722885
 21
38.764167
 31
0.0
  0
LINE
  8
3
  6
CONTINUOUS
 62
   150
  5
6F6
 10
22.08924
 20
40.800208
 30
0.0
 11
22.08924
 21
41.203979
 31
0.0
  0
SOLID
  8
3
  6
CONTINUOUS
 62
     2
  5
6F7
 10
21.616635
 20
39.673375
 30
0.0
 11
21.616635
 21
39.708792
 31
0.0
 12
21.722885
 22
39.691094
 32
0.0
 13
21.722885
 23
39.691094
 33
0.0
  0
LINE
  8
3
  6
CONTINUOUS
 62
     2
  5
6F8
 10
21.442969
 20
39.691094
 30
0.0
 11
21.722885
 21
39.691094
 31
0.0
  0
LINE
  8
3
  6
CONTINUOUS
 62
     2
  5
6F9
 10
22.369167
 20
39.691094
 30
0.0
 11
22.08924
 21
39.691094
 31
0.0
  0
SOLID
  8
3
  6
CONTINUOUS
 62
     2
  5
6FA
 10
22.19549
 20
39.673375
 30
0.0
 11
22.19549
 21
39.708792
 31
0.0
 12
22.08924
 22
39.691094
 32
0.0
 13
22.08924
 23
39.691094
 33
0.0
  0
TEXT
  8
3
  6
CONTINUOUS
 62
     2
  5
6FB
 10
22.28325
 20
39.746698
 30
0.0
 40
0.133292
  1
1-17/32"
  7
ROMANS
210
0.0
220
0.0
230
1.0
  0
SOLID
  8
3
  6
CONTINUOUS
 62
     2
  5
6FC
 10
21.298875
 20
38.783417
 30
0.0
 11
21.330073
 21
38.766667
 31
0.0
 12
21.36475
 22
38.868646
 32
0.0
 13
21.36475
 23
38.868646
 33
0.0
  0
LINE
  8
3
  6
CONTINUOUS
 62
   150
  5
6FD
 10
21.314479
 20
38.775042
 30
0.0
 11
21.028635
 21
38.24274
 31
0.0
  0
LINE
  8
3
  6
CONTINUOUS
 62
   150
  5
6FE
 10
21.028635
 20
38.24274
 30
0.0
 11
20.626292
 21
38.24274
 31
0.0
  0
LINE
  8
1
  6
CONTINUOUS
 62
   140
  5
6FF
 10
21.462656
 20
50.132292
 30
0.0
 11
23.647854
 21
50.132292
 31
0.0
  0
LINE
  8
1
  6
CONTINUOUS
 62
   140
  5
700
 10
22.60524
 20
48.911063
 30
0.0
 11
23.647854
 21
48.911063
 31
0.0
  0
LINE
  8
1
  6
CONTINUOUS
 62
   140
  5
701
 10
23.494854
 20
50.026042
 30
0.0
 11
23.494854
 21
49.017312
 31
0.0
  0
SOLID
  8
1
  6
CONTINUOUS
 62
   140
  5
702
 10
23.512562
 20
50.026042
 30
0.0
 11
23.477146
 21
50.026042
 31
0.0
 12
23.494854
 22
50.132292
 32
0.0
 13
23.494854
 23
50.132292
 33
0.0
  0
SOLID
  8
1
  6
CONTINUOUS
 62
   140
  5
703
 10
23.512562
 20
49.017312
 30
0.0
 11
23.477146
 21
49.017312
 31
0.0
 12
23.494854
 22
48.911063
 32
0.0
 13
23.494854
 23
48.911063
 33
0.0
  0
TEXT
  8
1
  6
CONTINUOUS
 62
   140
  5
704
 10
23.415698
 20
48.936948
 30
0.0
 40
0.133292
  1
1-10 3/8"
 50
90.0
  7
ROMANS
210
0.0
220
0.0
230
1.0
  0
LINE
  8
6
  6
CONTINUOUS
 62
     7
  5
705
 10
21.409531
 20
50.132292
 30
0.0
 11
21.409542
 21
50.132292
 31
0.0
  0
LINE
  8
6
  6
CONTINUOUS
 62
     7
  5
706
 10
22.552115
 20
48.911063
 30
0.0
 11
22.552125
 21
48.911063
 31
0.0
  0
LINE
  8
6
  6
CONTINUOUS
 62
     7
  5
707
 10
23.494854
 20
48.911063
 30
0.0
 11
23.494865
 21
48.911063
 31
0.0
  0
LINE
  8
1
  6
CONTINUOUS
 62
   140
  5
708
 10
22.60524
 20
48.911063
 30
0.0
 11
23.647854
 21
48.911063
 31
0.0
  0
LINE
  8
1
  6
CONTINUOUS
 62
   140
  5
709
 10
21.562167
 20
47.633594
 30
0.0
 11
23.647854
 21
47.633594
 31
0.0
  0
LINE
  8
1
  6
CONTINUOUS
 62
   140
  5
70A
 10
23.494854
 20
48.804812
 30
0.0
 11
23.494854
 21
47.739844
 31
0.0
  0
SOLID
  8
1
  6
CONTINUOUS
 62
   140
  5
70B
 10
23.512562
 20
48.804812
 30
0.0
 11
23.477146
 21
48.804812
 31
0.0
 12
23.494854
 22
48.911063
 32
0.0
 13
23.494854
 23
48.911063
 33
0.0
  0
SOLID
  8
1
  6
CONTINUOUS
 62
   140
  5
70C
 10
23.512562
 20
47.739844
 30
0.0
 11
23.477146
 21
47.739844
 31
0.0
 12
23.494854
 22
47.633594
 32
0.0
 13
23.494854
 23
47.633594
 33
0.0
  0
TEXT
  8
1
  6
CONTINUOUS
 62
   140
  5
70D
 10
23.458187
 20
48.05326
 30
0.0
 40
0.133292
  1
3'-6"
 50
90.0
  7
ROMANS
210
0.0
220
0.0
230
1.0
  0
LINE
  8
6
  6
CONTINUOUS
 62
     7
  5
70E
 10
22.552115
 20
48.911063
 30
0.0
 11
22.552125
 21
48.911063
 31
0.0
  0
LINE
  8
6
  6
CONTINUOUS
 62
     7
  5
70F
 10
21.509042
 20
47.633594
 30
0.0
 11
21.509052
 21
47.633594
 31
0.0
  0
LINE
  8
6
  6
CONTINUOUS
 62
     7
  5
710
 10
23.494854
 20
47.633594
 30
0.0
 11
23.494865
 21
47.633594
 31
0.0
  0
TEXT
  8
3
  6
CONTINUOUS
 62
     2
  5
711
 10
23.708802
 20
48.113937
 30
0.0
 40
0.133292
  1
Min.
 50
90.0
  7
ROMANS
210
0.0
220
0.0
230
1.0
  0
TEXT
  8
3
  6
CONTINUOUS
 62
     2
  5
712
 10
23.710917
 20
49.44301
 30
0.0
 40
0.133292
  1
1"
 50
90.0
  7
ROMANS
210
0.0
220
0.0
230
1.0
  0
SOLID
  8
3
  6
CONTINUOUS
 62
     2
  5
713
 10
14.985344
 20
39.147375
 30
0.0
 11
14.961604
 21
39.173646
 31
0.0
 12
14.894635
 22
39.089292
 32
0.0
 13
14.894635
 23
39.089292
 33
0.0
  0
LINE
  8
3
  6
CONTINUOUS
 62
     2
  5
714
 10
14.973479
 20
39.16051
 30
0.0
 11
16.424917
 21
40.471677
 31
0.0
  0
LINE
  8
3
  6
CONTINUOUS
 62
     2
  5
715
 10
16.424917
 20
40.471677
 30
0.0
 11
16.617135
 21
40.471677
 31
0.0
  0
SOLID
  8
3
  6
CONTINUOUS
 62
     2
  5
716
 10
15.685552
 20
37.777042
 30
0.0
 11
15.712198
 21
37.800365
 31
0.0
 12
15.628896
 22
37.868667
 32
0.0
 13
15.628896
 23
37.868667
 33
0.0
  0
LINE
  8
3
  6
CONTINUOUS
 62
     2
  5
717
 10
15.698875
 20
37.788708
 30
0.0
 11
16.0165
 21
37.425708
 31
0.0
  0
LINE
  8
3
  6
CONTINUOUS
 62
     2
  5
718
 10
16.0165
 20
37.425708
 30
0.0
 11
16.132594
 21
37.425708
 31
0.0
  0
LINE
  8
1
  6
CONTINUOUS
 62
   140
  5
719
 10
13.42274
 20
40.331792
 30
0.0
 11
13.42274
 21
41.213354
 31
0.0
  0
LINE
  8
1
  6
CONTINUOUS
 62
   140
  5
71A
 10
15.891125
 20
40.341542
 30
0.0
 11
15.891125
 21
41.213354
 31
0.0
  0
LINE
  8
1
  6
CONTINUOUS
 62
   140
  5
71B
 10
13.52899
 20
41.060354
 30
0.0
 11
15.784875
 21
41.060354
 31
0.0
  0
SOLID
  8
1
  6
CONTINUOUS
 62
   140
  5
71C
 10
13.52899
 20
41.042646
 30
0.0
 11
13.52899
 21
41.078063
 31
0.0
 12
13.42274
 22
41.060354
 32
0.0
 13
13.42274
 23
41.060354
 33
0.0
  0
SOLID
  8
1
  6
CONTINUOUS
 62
   140
  5
71D
 10
15.784875
 20
41.042646
 30
0.0
 11
15.784875
 21
41.078063
 31
0.0
 12
15.891125
 22
41.060354
 32
0.0
 13
15.891125
 23
41.060354
 33
0.0
  0
TEXT
  8
1
  6
CONTINUOUS
 62
   140
  5
71E
 10
14.212271
 20
41.10426
 30
0.0
 40
0.133292
  1
12-1/2" Lap
  7
ROMANS
210
0.0
220
0.0
230
1.0
  0
LINE
  8
6
  6
CONTINUOUS
 62
     7
  5
71F
 10
13.42274
 20
40.278667
 30
0.0
 11
13.42275
 21
40.278667
 31
0.0
  0
LINE
  8
6
  6
CONTINUOUS
 62
     7
  5
720
 10
15.891125
 20
40.288417
 30
0.0
 11
15.891135
 21
40.288417
 31
0.0
  0
LINE
  8
6
  6
CONTINUOUS
 62
     7
  5
721
 10
15.891125
 20
41.060354
 30
0.0
 11
15.891135
 21
41.060354
 31
0.0
  0
LINE
  8
1
  6
CONTINUOUS
 62
   140
  5
722
 10
13.42274
 20
40.341542
 30
0.0
 11
13.42274
 21
40.835073
 31
0.0
  0
LINE
  8
1
  6
CONTINUOUS
 62
   140
  5
723
 10
13.759198
 20
40.341542
 30
0.0
 11
13.759198
 21
40.835073
 31
0.0
  0
LINE
  8
1
  6
CONTINUOUS
 62
   140
  5
724
 10
13.52899
 20
40.682073
 30
0.0
 11
13.652948
 21
40.682073
 31
0.0
  0
SOLID
  8
1
  6
CONTINUOUS
 62
   140
  5
725
 10
13.52899
 20
40.664365
 30
0.0
 11
13.52899
 21
40.699781
 31
0.0
 12
13.42274
 22
40.682073
 32
0.0
 13
13.42274
 23
40.682073
 33
0.0
  0
SOLID
  8
1
  6
CONTINUOUS
 62
   140
  5
726
 10
13.652948
 20
40.664365
 30
0.0
 11
13.652948
 21
40.699781
 31
0.0
 12
13.759198
 22
40.682073
 32
0.0
 13
13.759198
 23
40.682073
 33
0.0
  0
TEXT
  8
1
  6
CONTINUOUS
 62
   140
  5
727
 10
13.549115
 20
40.725969
 30
0.0
 40
0.133292
  1
2"
  7
ROMANS
210
0.0
220
0.0
230
1.0
  0
LINE
  8
6
  6
CONTINUOUS
 62
     7
  5
728
 10
13.42274
 20
40.288417
 30
0.0
 11
13.42275
 21
40.288417
 31
0.0
  0
LINE
  8
6
  6
CONTINUOUS
 62
     7
  5
729
 10
13.759198
 20
40.288417
 30
0.0
 11
13.759208
 21
40.288417
 31
0.0
  0
LINE
  8
6
  6
CONTINUOUS
 62
     7
  5
72A
 10
13.759198
 20
40.682073
 30
0.0
 11
13.759208
 21
40.682073
 31
0.0
  0
LINE
  8
1
  6
CONTINUOUS
 62
   140
  5
72B
 10
13.759198
 20
40.341542
 30
0.0
 11
13.759198
 21
40.835073
 31
0.0
  0
LINE
  8
1
  6
CONTINUOUS
 62
   140
  5
72C
 10
14.651823
 20
40.386187
 30
0.0
 11
14.651823
 21
40.835073
 31
0.0
  0
LINE
  8
1
  6
CONTINUOUS
 62
   140
  5
72D
 10
13.865448
 20
40.682073
 30
0.0
 11
14.545573
 21
40.682073
 31
0.0
  0
SOLID
  8
1
  6
CONTINUOUS
 62
   140
  5
72E
 10
13.865448
 20
40.664365
 30
0.0
 11
13.865448
 21
40.699781
 31
0.0
 12
13.759198
 22
40.682073
 32
0.0
 13
13.759198
 23
40.682073
 33
0.0
  0
SOLID
  8
1
  6
CONTINUOUS
 62
   140
  5
72F
 10
14.545573
 20
40.664365
 30
0.0
 11
14.545573
 21
40.699781
 31
0.0
 12
14.651823
 22
40.682073
 32
0.0
 13
14.651823
 23
40.682073
 33
0.0
  0
TEXT
  8
1
  6
CONTINUOUS
 62
   140
  5
730
 10
14.014521
 20
40.717
 30
0.0
 40
0.133292
  1
4-1/4"
  7
ROMANS
210
0.0
220
0.0
230
1.0
  0
LINE
  8
6
  6
CONTINUOUS
 62
     7
  5
731
 10
13.759198
 20
40.288417
 30
0.0
 11
13.759208
 21
40.288417
 31
0.0
  0
LINE
  8
6
  6
CONTINUOUS
 62
     7
  5
732
 10
14.651823
 20
40.333062
 30
0.0
 11
14.651833
 21
40.333062
 31
0.0
  0
LINE
  8
6
  6
CONTINUOUS
 62
     7
  5
733
 10
14.651823
 20
40.682073
 30
0.0
 11
14.651833
 21
40.682073
 31
0.0
  0
LINE
  8
1
  6
CONTINUOUS
 62
   140
  5
734
 10
14.651823
 20
40.386187
 30
0.0
 11
14.651823
 21
40.835073
 31
0.0
  0
LINE
  8
1
  6
CONTINUOUS
 62
   140
  5
735
 10
15.543938
 20
40.341542
 30
0.0
 11
15.543938
 21
40.835073
 31
0.0
  0
LINE
  8
1
  6
CONTINUOUS
 62
   140
  5
736
 10
14.758073
 20
40.682073
 30
0.0
 11
15.437687
 21
40.682073
 31
0.0
  0
SOLID
  8
1
  6
CONTINUOUS
 62
   140
  5
737
 10
14.758073
 20
40.664365
 30
0.0
 11
14.758073
 21
40.699781
 31
0.0
 12
14.651823
 22
40.682073
 32
0.0
 13
14.651823
 23
40.682073
 33
0.0
  0
SOLID
  8
1
  6
CONTINUOUS
 62
   140
  5
738
 10
15.437687
 20
40.664365
 30
0.0
 11
15.437687
 21
40.699781
 31
0.0
 12
15.543938
 22
40.682073
 32
0.0
 13
15.543938
 23
40.682073
 33
0.0
  0
TEXT
  8
1
  6
CONTINUOUS
 62
   140
  5
739
 10
14.888969
 20
40.708042
 30
0.0
 40
0.133292
  1
4-1/4"
  7
ROMANS
210
0.0
220
0.0
230
1.0
  0
LINE
  8
6
  6
CONTINUOUS
 62
     7
  5
73A
 10
14.651823
 20
40.333062
 30
0.0
 11
14.651833
 21
40.333062
 31
0.0
  0
LINE
  8
6
  6
CONTINUOUS
 62
     7
  5
73B
 10
15.543938
 20
40.288417
 30
0.0
 11
15.543948
 21
40.288417
 31
0.0
  0
LINE
  8
6
  6
CONTINUOUS
 62
     7
  5
73C
 10
15.543938
 20
40.682073
 30
0.0
 11
15.543948
 21
40.682073
 31
0.0
  0
LINE
  8
1
  6
CONTINUOUS
 62
   140
  5
73D
 10
15.543938
 20
40.341542
 30
0.0
 11
15.543938
 21
40.835073
 31
0.0
  0
LINE
  8
1
  6
CONTINUOUS
 62
   140
  5
73E
 10
15.891125
 20
40.341542
 30
0.0
 11
15.891125
 21
40.835073
 31
0.0
  0
LINE
  8
1
  6
CONTINUOUS
 62
   140
  5
73F
 10
15.650187
 20
40.682073
 30
0.0
 11
15.784875
 21
40.682073
 31
0.0
  0
SOLID
  8
1
  6
CONTINUOUS
 62
   140
  5
740
 10
15.650187
 20
40.664365
 30
0.0
 11
15.650187
 21
40.699781
 31
0.0
 12
15.543938
 22
40.682073
 32
0.0
 13
15.543938
 23
40.682073
 33
0.0
  0
SOLID
  8
1
  6
CONTINUOUS
 62
   140
  5
741
 10
15.784875
 20
40.664365
 30
0.0
 11
15.784875
 21
40.699781
 31
0.0
 12
15.891125
 22
40.682073
 32
0.0
 13
15.891125
 23
40.682073
 33
0.0
  0
TEXT
  8
1
  6
CONTINUOUS
 62
   140
  5
742
 10
15.666719
 20
40.717
 30
0.0
 40
0.133292
  1
2"
  7
ROMANS
210
0.0
220
0.0
230
1.0
  0
LINE
  8
6
  6
CONTINUOUS
 62
     7
  5
743
 10
15.543938
 20
40.288417
 30
0.0
 11
15.543948
 21
40.288417
 31
0.0
  0
LINE
  8
6
  6
CONTINUOUS
 62
     7
  5
744
 10
15.891125
 20
40.288417
 30
0.0
 11
15.891135
 21
40.288417
 31
0.0
  0
LINE
  8
6
  6
CONTINUOUS
 62
     7
  5
745
 10
15.891125
 20
40.682073
 30
0.0
 11
15.891135
 21
40.682073
 31
0.0
  0
SOLID
  8
3
  6
CONTINUOUS
 62
     2
  5
746
 10
21.350635
 20
39.456583
 30
0.0
 11
21.377635
 21
39.4795
 31
0.0
 12
21.295396
 22
39.549062
 32
0.0
 13
21.295396
 23
39.549062
 33
0.0
  0
LINE
  8
3
  6
CONTINUOUS
 62
     2
  5
747
 10
21.364135
 20
39.468042
 30
0.0
 11
22.368531
 21
38.284323
 31
0.0
  0
LINE
  8
3
  6
CONTINUOUS
 62
     2
  5
748
 10
22.368531
 20
38.284323
 30
0.0
 11
22.514958
 21
38.284323
 31
0.0
  0
TEXT
  8
3
  6
CONTINUOUS
 62
     2
  5
749
 10
22.550271
 20
38.24325
 30
0.0
 40
0.133292
  1
15/16"R
  7
ROMANS
210
0.0
220
0.0
230
1.0
  0
SOLID
  8
3
  6
CONTINUOUS
 62
     2
  5
74A
 10
22.02175
 20
40.636177
 30
0.0
 11
22.011677
 21
40.60224
 31
0.0
 12
22.118573
 22
40.588958
 32
0.0
 13
22.118573
 23
40.588958
 33
0.0
  0
LINE
  8
3
  6
CONTINUOUS
 62
   150
  5
74B
 10
22.016719
 20
40.619208
 30
0.0
 11
21.523896
 21
40.765604
 31
0.0
  0
TEXT
  8
3
  6
CONTINUOUS
 62
     2
  5
74C
 10
20.445844
 20
40.70676
 30
0.0
 40
0.133292
  1
15/16"R
  7
ROMANS
210
0.0
220
0.0
230
1.0
  0
LINE
  8
3
  6
CONTINUOUS
 62
     2
  5
74D
 10
21.186677
 20
40.968865
 30
0.0
 11
21.186677
 21
40.879208
 31
0.0
  0
LINE
  8
3
  6
CONTINUOUS
 62
   150
  5
74E
 10
21.200167
 20
40.633823
 30
0.0
 11
21.200167
 21
39.628719
 31
0.0
  0
LINE
  8
1
  6
CONTINUOUS
 62
   140
  5
74F
 10
7.97449
 20
50.132292
 30
0.0
 11
6.031896
 21
50.132292
 31
0.0
  0
LINE
  8
1
  6
CONTINUOUS
 62
   140
  5
750
 10
6.97125
 20
48.866865
 30
0.0
 11
6.031896
 21
48.866865
 31
0.0
  0
LINE
  8
1
  6
CONTINUOUS
 62
   140
  5
751
 10
6.184896
 20
50.026042
 30
0.0
 11
6.184896
 21
48.973115
 31
0.0
  0
SOLID
  8
1
  6
CONTINUOUS
 62
   140
  5
752
 10
6.202604
 20
50.026042
 30
0.0
 11
6.167187
 21
50.026042
 31
0.0
 12
6.184896
 22
50.132292
 32
0.0
 13
6.184896
 23
50.132292
 33
0.0
  0
SOLID
  8
1
  6
CONTINUOUS
 62
   140
  5
753
 10
6.202604
 20
48.973115
 30
0.0
 11
6.167187
 21
48.973115
 31
0.0
 12
6.184896
 22
48.866865
 32
0.0
 13
6.184896
 23
48.866865
 33
0.0
  0
TEXT
  8
1
  6
CONTINUOUS
 62
   140
  5
754
 10
6.04749
 20
48.879885
 30
0.0
 40
0.133292
  1
1'-10 3/8"
 50
90.0
  7
ROMANS
210
0.0
220
0.0
230
1.0
  0
LINE
  8
6
  6
CONTINUOUS
 62
     7
  5
755
 10
8.027615
 20
50.132292
 30
0.0
 11
8.027625
 21
50.132292
 31
0.0
  0
LINE
  8
6
  6
CONTINUOUS
 62
     7
  5
756
 10
7.024375
 20
48.866865
 30
0.0
 11
7.024385
 21
48.866865
 31
0.0
  0
LINE
  8
6
  6
CONTINUOUS
 62
     7
  5
757
 10
6.184896
 20
48.866865
 30
0.0
 11
6.184906
 21
48.866865
 31
0.0
  0
LINE
  8
1
  6
CONTINUOUS
 62
   140
  5
758
 10
6.97125
 20
48.866865
 30
0.0
 11
6.031896
 21
48.866865
 31
0.0
  0
LINE
  8
1
  6
CONTINUOUS
 62
   140
  5
759
 10
7.874979
 20
47.633594
 30
0.0
 11
6.031896
 21
47.633594
 31
0.0
  0
LINE
  8
1
  6
CONTINUOUS
 62
   140
  5
75A
 10
6.184896
 20
48.760615
 30
0.0
 11
6.184896
 21
47.739844
 31
0.0
  0
SOLID
  8
1
  6
CONTINUOUS
 62
   140
  5
75B
 10
6.202604
 20
48.760615
 30
0.0
 11
6.167187
 21
48.760615
 31
0.0
 12
6.184896
 22
48.866865
 32
0.0
 13
6.184896
 23
48.866865
 33
0.0
  0
SOLID
  8
1
  6
CONTINUOUS
 62
   140
  5
75C
 10
6.202604
 20
47.739844
 30
0.0
 11
6.167187
 21
47.739844
 31
0.0
 12
6.184896
 22
47.633594
 32
0.0
 13
6.184896
 23
47.633594
 33
0.0
  0
TEXT
  8
1
  6
CONTINUOUS
 62
   140
  5
75D
 10
6.040083
 20
48.117083
 30
0.0
 40
0.133292
  1
3'6"
 50
90.0
  7
ROMANS
210
0.0
220
0.0
230
1.0
  0
LINE
  8
6
  6
CONTINUOUS
 62
     7
  5
75E
 10
7.024375
 20
48.866865
 30
0.0
 11
7.024385
 21
48.866865
 31
0.0
  0
LINE
  8
6
  6
CONTINUOUS
 62
     7
  5
75F
 10
7.928104
 20
47.633594
 30
0.0
 11
7.928115
 21
47.633594
 31
0.0
  0
LINE
  8
6
  6
CONTINUOUS
 62
     7
  5
760
 10
6.184896
 20
47.633594
 30
0.0
 11
6.184906
 21
47.633594
 31
0.0
  0
TEXT
  8
3
  6
CONTINUOUS
 62
     2
  5
761
 10
6.381417
 20
48.110344
 30
0.0
 40
0.133292
  1
Min.
 50
90.0
  7
ROMANS
210
0.0
220
0.0
230
1.0
  0
SOLID
  8
3
  6
CONTINUOUS
 62
     2
  5
762
 10
12.128125
 20
49.336771
 30
0.0
 11
12.114604
 21
49.3695
 31
0.0
 12
12.023167
 22
49.312573
 32
0.0
 13
12.023167
 23
49.312573
 33
0.0
  0
LINE
  8
3
  6
CONTINUOUS
 62
     2
  5
763
 10
12.121365
 20
49.353146
 30
0.0
 11
12.420625
 21
49.47676
 31
0.0
  0
LINE
  8
3
  6
CONTINUOUS
 62
     2
  5
764
 10
12.420625
 20
49.47676
 30
0.0
 11
12.585458
 21
49.47676
 31
0.0
  0
TEXT
  8
3
  6
CONTINUOUS
 62
     2
  5
765
 10
16.145219
 20
47.86924
 30
0.0
 40
0.133292
  1
Section
  7
ROMANS
210
0.0
220
0.0
230
1.0
  0
SOLID
  8
3
  6
CONTINUOUS
 62
     2
  5
766
 10
15.790698
 20
47.94649
 30
0.0
 11
15.797917
 21
47.981167
 31
0.0
 12
15.690281
 22
47.985479
 32
0.0
 13
15.690281
 23
47.985479
 33
0.0
  0
LINE
  8
3
  6
CONTINUOUS
 62
     2
  5
767
 10
15.794302
 20
47.963823
 30
0.0
 11
16.032563
 21
47.91424
 31
0.0
  0
LINE
  8
3
  6
CONTINUOUS
 62
     2
  5
768
 10
16.032563
 20
47.91424
 30
0.0
 11
16.176
 21
47.91424
 31
0.0
  0
SOLID
  8
3
  6
CONTINUOUS
 62
     2
  5
769
 10
17.354021
 20
47.804104
 30
0.0
 11
17.340104
 21
47.771531
 31
0.0
 12
17.44476
 22
47.746052
 32
0.0
 13
17.44476
 23
47.746052
 33
0.0
  0
LINE
  8
3
  6
CONTINUOUS
 62
     2
  5
76A
 10
17.347063
 20
47.787813
 30
0.0
 11
17.187156
 21
47.856187
 31
0.0
  0
LINE
  8
3
  6
CONTINUOUS
 62
     2
  5
76B
 10
17.187156
 20
47.856187
 30
0.0
 11
17.091677
 21
47.856187
 31
0.0
  0
TEXT
  8
3
  6
CONTINUOUS
 62
     2
  5
76C
 10
17.8405
 20
49.257719
 30
0.0
 40
0.133292
  1
Ground Line or Shoulder
  7
ROMANS
210
0.0
220
0.0
230
1.0
  0
TEXT
  8
3
  6
CONTINUOUS
 62
     2
  5
76D
 10
17.226823
 20
49.043302
 30
0.0
 40
0.133292
  1
Surfacing at Face of Rail
  7
ROMANS
210
0.0
220
0.0
230
1.0
  0
SOLID
  8
3
  6
CONTINUOUS
 62
     2
  5
76E
 10
17.968229
 20
49.573271
 30
0.0
 11
17.975948
 21
49.607833
 31
0.0
 12
17.868396
 22
49.613698
 32
0.0
 13
17.868396
 23
49.613698
 33
0.0
  0
LINE
  8
3
  6
CONTINUOUS
 62
     2
  5
76F
 10
17.972094
 20
49.590562
 30
0.0
 11
18.542625
 21
49.463208
 31
0.0
  0
LINE
  8
3
  6
CONTINUOUS
 62
     2
  5
770
 10
18.542625
 20
49.463208
 30
0.0
 11
18.764333
 21
49.463208
 31
0.0
  0
SOLID
  8
3
  6
CONTINUOUS
 62
     2
  5
771
 10
20.964344
 20
49.00076
 30
0.0
 11
20.938469
 21
48.976573
 31
0.0
 12
21.023969
 22
48.911063
 32
0.0
 13
21.023969
 23
48.911063
 33
0.0
  0
LINE
  8
3
  6
CONTINUOUS
 62
     2
  5
772
 10
20.967719
 20
48.9805
 30
0.0
 11
20.799073
 21
49.160885
 31
0.0
  0
LINE
  8
3
  6
CONTINUOUS
 62
     2
  5
773
 10
20.799073
 20
49.160885
 30
0.0
 11
20.486135
 21
49.160885
 31
0.0
  0
SOLID
  8
3
  6
CONTINUOUS
 62
     2
  5
774
 10
20.984146
 20
48.201979
 30
0.0
 11
21.001542
 21
48.171125
 31
0.0
 12
21.085406
 22
48.238708
 32
0.0
 13
21.085406
 23
48.238708
 33
0.0
  0
LINE
  8
3
  6
CONTINUOUS
 62
     2
  5
775
 10
20.992844
 20
48.186542
 30
0.0
 11
20.818375
 21
48.088219
 31
0.0
  0
LINE
  8
3
  6
CONTINUOUS
 62
     2
  5
776
 10
20.818375
 20
48.088219
 30
0.0
 11
20.655396
 21
48.088219
 31
0.0
  0
SOLID
  8
3
  6
CONTINUOUS
 62
     2
  5
777
 10
16.008229
 20
51.692542
 30
0.0
 11
16.008229
 21
51.727958
 31
0.0
 12
15.901979
 22
51.71025
 32
0.0
 13
15.901979
 23
51.71025
 33
0.0
  0
LINE
  8
3
  6
CONTINUOUS
 62
     2
  5
778
 10
16.008229
 20
51.71025
 30
0.0
 11
18.536302
 21
51.71025
 31
0.0
  0
LINE
  8
1
  6
CONTINUOUS
 62
   140
  5
779
 10
7.673635
 20
52.81224
 30
0.0
 11
7.673635
 21
52.333229
 31
0.0
  0
LINE
  8
1
  6
CONTINUOUS
 62
   140
  5
77A
 10
8.57826
 20
52.81224
 30
0.0
 11
8.57826
 21
52.333229
 31
0.0
  0
LINE
  8
1
  6
CONTINUOUS
 62
   140
  5
77B
 10
7.779885
 20
52.486229
 30
0.0
 11
8.47201
 21
52.486229
 31
0.0
  0
SOLID
  8
1
  6
CONTINUOUS
 62
   140
  5
77C
 10
7.779885
 20
52.46851
 30
0.0
 11
7.779885
 21
52.503937
 31
0.0
 12
7.673635
 22
52.486229
 32
0.0
 13
7.673635
 23
52.486229
 33
0.0
  0
SOLID
  8
1
  6
CONTINUOUS
 62
   140
  5
77D
 10
8.47201
 20
52.46851
 30
0.0
 11
8.47201
 21
52.503937
 31
0.0
 12
8.57826
 22
52.486229
 32
0.0
 13
8.57826
 23
52.486229
 33
0.0
  0
TEXT
  8
1
  6
CONTINUOUS
 62
   140
  5
77E
 10
7.687302
 20
52.528146
 30
0.0
 40
0.133292
  1
12 3/4"
  7
ROMANS
210
0.0
220
0.0
230
1.0
  0
LINE
  8
6
  6
CONTINUOUS
 62
     7
  5
77F
 10
7.673635
 20
52.865365
 30
0.0
 11
7.673646
 21
52.865365
 31
0.0
  0
POINT
  8
6
  6
CONTINUOUS
 62
     7
  5
780
 10
8.57826
 20
52.865365
 30
0.0
  0
POINT
  8
6
  6
CONTINUOUS
 62
     7
  5
781
 10
8.57826
 20
52.486229
 30
0.0
  0
LINE
  8
1
  6
CONTINUOUS
 62
   140
  5
782
 10
7.673635
 20
52.81224
 30
0.0
 11
7.673635
 21
51.908229
 31
0.0
  0
LINE
  8
1
  6
CONTINUOUS
 62
   140
  5
783
 10
15.937438
 20
52.81224
 30
0.0
 11
15.937438
 21
51.908229
 31
0.0
  0
LINE
  8
1
  6
CONTINUOUS
 62
   140
  5
784
 10
7.779885
 20
52.061229
 30
0.0
 11
15.831187
 21
52.061229
 31
0.0
  0
SOLID
  8
1
  6
CONTINUOUS
 62
   140
  5
785
 10
7.779885
 20
52.04351
 30
0.0
 11
7.779885
 21
52.078937
 31
0.0
 12
7.673635
 22
52.061229
 32
0.0
 13
7.673635
 23
52.061229
 33
0.0
  0
SOLID
  8
1
  6
CONTINUOUS
 62
   140
  5
786
 10
15.831187
 20
52.04351
 30
0.0
 11
15.831187
 21
52.078937
 31
0.0
 12
15.937438
 22
52.061229
 32
0.0
 13
15.937438
 23
52.061229
 33
0.0
  0
TEXT
  8
1
  6
CONTINUOUS
 62
   140
  5
787
 10
10.48049
 20
52.128073
 30
0.0
 40
0.133292
  1
13'-6 1/2" Min. Element Length
  7
ROMANS
210
0.0
220
0.0
230
1.0
  0
LINE
  8
6
  6
CONTINUOUS
 62
     7
  5
788
 10
7.673635
 20
52.865365
 30
0.0
 11
7.673646
 21
52.865365
 31
0.0
  0
LINE
  8
6
  6
CONTINUOUS
 62
     7
  5
789
 10
15.937438
 20
52.865365
 30
0.0
 11
15.937448
 21
52.865365
 31
0.0
  0
LINE
  8
6
  6
CONTINUOUS
 62
     7
  5
78A
 10
15.937438
 20
52.061229
 30
0.0
 11
15.937448
 21
52.061229
 31
0.0
  0
LINE
  8
6
  6
CONTINUOUS
 62
     7
  5
78B
 10
11.357
 20
52.865354
 30
0.0
 11
11.35701
 21
52.865354
 31
0.0
  0
LINE
  8
6
  6
CONTINUOUS
 62
     7
  5
78C
 10
12.220396
 20
52.870208
 30
0.0
 11
12.220406
 21
52.870208
 31
0.0
  0
LINE
  8
6
  6
CONTINUOUS
 62
     7
  5
78D
 10
12.220396
 20
52.472417
 30
0.0
 11
12.220406
 21
52.472417
 31
0.0
  0
TEXT
  8
3
  6
CONTINUOUS
 62
     2
  5
78E
 10
10.482917
 20
51.883729
 30
0.0
 40
0.133292
  1
26'-0 1/2" Max. Element Length
  7
ROMANS
210
0.0
220
0.0
230
1.0
  0
LINE
  8
1
  6
CONTINUOUS
 62
   140
  5
78F
 10
21.179927
 20
52.79524
 30
0.0
 11
21.179927
 21
52.28851
 31
0.0
  0
LINE
  8
1
  6
CONTINUOUS
 62
   140
  5
790
 10
22.083312
 20
52.79524
 30
0.0
 11
22.083312
 21
52.28851
 31
0.0
  0
LINE
  8
1
  6
CONTINUOUS
 62
   140
  5
791
 10
21.286177
 20
52.44151
 30
0.0
 11
21.977062
 21
52.44151
 31
0.0
  0
SOLID
  8
1
  6
CONTINUOUS
 62
   140
  5
792
 10
21.286177
 20
52.423802
 30
0.0
 11
21.286177
 21
52.459219
 31
0.0
 12
21.179927
 22
52.4415
 32
0.0
 13
21.179927
 23
52.4415
 33
0.0
  0
SOLID
  8
1
  6
CONTINUOUS
 62
   140
  5
793
 10
21.977062
 20
52.423802
 30
0.0
 11
21.977062
 21
52.459219
 31
0.0
 12
22.083312
 22
52.4415
 32
0.0
 13
22.083312
 23
52.4415
 33
0.0
  0
TEXT
  8
1
  6
CONTINUOUS
 62
   140
  5
794
 10
21.192115
 20
52.483781
 30
0.0
 40
0.133292
  1
12-3/4"
  7
ROMANS
210
0.0
220
0.0
230
1.0
  0
LINE
  8
6
  6
CONTINUOUS
 62
     7
  5
795
 10
21.179927
 20
52.848365
 30
0.0
 11
21.179937
 21
52.848365
 31
0.0
  0
LINE
  8
6
  6
CONTINUOUS
 62
     7
  5
796
 10
22.083312
 20
52.848365
 30
0.0
 11
22.083323
 21
52.848365
 31
0.0
  0
LINE
  8
6
  6
CONTINUOUS
 62
     7
  5
797
 10
22.083312
 20
52.44151
 30
0.0
 11
22.083323
 21
52.44151
 31
0.0
  0
TEXT
  8
3
  6
CONTINUOUS
 62
     2
  5
798
 10
12.577677
 20
36.485115
 30
0.0
 40
0.133292
  1
Eight (8) Splice Bolts are to
  7
ROMANS
210
0.0
220
0.0
230
1.0
  0
TEXT
  8
3
  6
CONTINUOUS
 62
     2
  5
799
 10
12.67626
 20
36.171302
 30
0.0
 40
0.133292
  1
be used at all Rail Splices
  7
ROMANS
210
0.0
220
0.0
230
1.0
  0
TEXT
  8
3
  6
CONTINUOUS
 62
     2
  5
79A
 10
7.953354
 20
52.276948
 30
0.0
 40
0.133292
  1
Lap
  7
ROMANS
210
0.0
220
0.0
230
1.0
  0
SOLID
  8
3
  6
CONTINUOUS
 62
     2
  5
79B
 10
7.835865
 20
49.146792
 30
0.0
 11
7.819458
 21
49.115396
 31
0.0
 12
7.921812
 22
49.081865
 32
0.0
 13
7.921812
 23
49.081865
 33
0.0
  0
LINE
  8
3
  6
CONTINUOUS
 62
     2
  5
79C
 10
7.827656
 20
49.131094
 30
0.0
 11
7.578313
 21
49.261469
 31
0.0
  0
LINE
  8
3
  6
CONTINUOUS
 62
     2
  5
79D
 10
7.578313
 20
49.261469
 30
0.0
 11
7.434292
 21
49.261469
 31
0.0
  0
TEXT
  8
3
  6
CONTINUOUS
 62
     2
  5
79E
 10
7.601417
 20
38.874302
 30
0.0
 40
0.133292
  1
Lap
  7
ROMANS
210
0.0
220
0.0
230
1.0
  0
TEXT
  8
3
  6
CONTINUOUS
 62
     2
  5
79F
 10
30.784031
 20
54.166031
 30
0.0
 40
0.28
  1
NOTES
  7
ROMANS
210
0.0
220
0.0
230
1.0
  0
TEXT
  8
3
  6
CONTINUOUS
 62
     2
  5
7A1
 10
26.933458
 20
53.292021
 30
0.0
 40
0.133292
  1
by 5/8" dia. bolts and nuts conforming to the details herein and to the 
  7
MONOTXT
210
0.0
220
0.0
230
1.0
  0
TEXT
  8
3
  6
CONTINUOUS
 62
     2
  5
7A2
 10
26.916854
 20
52.01825
 30
0.0
 40
0.133292
  1
specified on the Plans or directed by the Engineer. Approach and trailing ends 
  7
MONOTXT
210
0.0
220
0.0
230
1.0
  0
TEXT
  8
3
  6
CONTINUOUS
 62
     2
  5
7A3
 10
26.889104
 20
51.781094
 30
0.0
 40
0.133292
  1
shall be anchored unless otherwise specified on the Plans; the specific anchor 
  7
MONOTXT
210
0.0
220
0.0
230
1.0
  0
TEXT
  8
3
  6
CONTINUOUS
 62
     2
  5
7A4
 10
23.645396
 20
49.278021
 30
0.0
 40
0.133292
  1
+
 50
90.0
  7
ROMANS
210
0.0
220
0.0
230
1.0
  0
TEXT
  8
3
  6
CONTINUOUS
 62
     2
  5
7A5
 10
23.710354
 20
49.30576
 30
0.0
 40
0.085
  1
-
 50
90.0
  7
ROMANS
210
0.0
220
0.0
230
1.0
  0
TEXT
  8
3
  6
CONTINUOUS
 62
     2
  5
7A6
 10
6.41376
 20
49.40701
 30
0.0
 40
0.133292
  1
1"
 50
90.0
  7
ROMANS
210
0.0
220
0.0
230
1.0
  0
TEXT
  8
3
  6
CONTINUOUS
 62
     2
  5
7A7
 10
6.336448
 20
49.254719
 30
0.0
 40
0.133292
  1
+
 50
90.0
  7
ROMANS
210
0.0
220
0.0
230
1.0
  0
TEXT
  8
3
  6
CONTINUOUS
 62
     2
  5
7A8
 10
6.408812
 20
49.265375
 30
0.0
 40
0.085
  1
-
 50
90.0
  7
ROMANS
210
0.0
220
0.0
230
1.0
  0
POINT
  8
1
  6
DASHED
 62
     2
  5
7A9
 10
3.39674
 20
56.604292
 30
0.0
  0
POINT
  8
1
  6
DASHED
 62
     2
  5
7AA
 10
36.62174
 20
35.484292
 30
0.0
  0
LINE
  8
1
  6
DASHED
 62
     4
  5
7AB
 10
36.492073
 20
57.084292
 30
0.0
 11
1.292073
 21
57.084292
 31
0.0
  0
LINE
  8
1
  6
DASHED
 62
     4
  5
7AC
 10
36.492073
 20
35.084292
 30
0.0
 11
1.292073
 21
35.084292
 31
0.0
  0
LINE
  8
1
  6
DASHED
 62
     4
  5
7AD
 10
2.867073
 20
57.084292
 30
0.0
 11
2.867073
 21
35.084292
 31
0.0
  0
LINE
  8
1
  6
CONTINUOUS
 62
   140
  5
7AE
 10
3.90874
 20
56.584292
 30
0.0
 11
3.90874
 21
35.584292
 31
0.0
  0
LINE
  8
1
  6
CONTINUOUS
 62
   140
  5
7AF
 10
36.40874
 20
56.584292
 30
0.0
 11
3.90874
 21
56.584292
 31
0.0
  0
LINE
  8
1
  6
CONTINUOUS
 62
   140
  5
7B0
 10
36.40874
 20
56.584292
 30
0.0
 11
36.40874
 21
35.584292
 31
0.0
  0
LINE
  8
1
  6
CONTINUOUS
 62
   140
  5
7B1
 10
36.40874
 20
35.584292
 30
0.0
 11
3.90874
 21
35.584292
 31
0.0
  0
LINE
  8
1
  6
CONTINUOUS
 62
   140
  5
7B2
 10
3.65874
 20
52.684292
 30
0.0
 11
3.25874
 21
52.684292
 31
0.0
  0
LINE
  8
1
  6
CONTINUOUS
 62
   140
  5
7B3
 10
3.65874
 20
49.884292
 30
0.0
 11
3.25874
 21
49.884292
 31
0.0
  0
LINE
  8
1
  6
CONTINUOUS
 62
   140
  5
7B4
 10
3.65874
 20
42.284292
 30
0.0
 11
3.25874
 21
42.284292
 31
0.0
  0
LINE
  8
1
  6
CONTINUOUS
 62
   140
  5
7B5
 10
3.65874
 20
39.484292
 30
0.0
 11
3.25874
 21
39.484292
 31
0.0
  0
CIRCLE
  8
1
  6
CONTINUOUS
 62
   140
  5
7B6
 10
3.40874
 20
52.684292
 30
0.0
 40
0.125
210
0.0
220
0.0
230
1.0
  0
CIRCLE
  8
1
  6
CONTINUOUS
 62
   140
  5
7B7
 10
3.40874
 20
49.884292
 30
0.0
 40
0.125
210
0.0
220
0.0
230
1.0
  0
CIRCLE
  8
1
  6
CONTINUOUS
 62
   140
  5
7B8
 10
3.40874
 20
42.284292
 30
0.0
 40
0.125
210
0.0
220
0.0
230
1.0
  0
CIRCLE
  8
1
  6
CONTINUOUS
 62
   140
  5
7B9
 10
3.40874
 20
39.484292
 30
0.0
 40
0.125
210
0.0
220
0.0
230
1.0
  0
TEXT
  8
1
  6
CONTINUOUS
 62
   140
  5
7BB
 10
32.86449
 20
35.492542
 30
0.0
 40
0.06
  1
$$$$$$$$$FILENAME$$$$$$$$
  7
txt
 11
32.86449
 21
35.522542
 31
0.0
210
0.0
220
0.0
230
1.0
 73
     2
  0
TEXT
  8
1
  6
CONTINUOUS
 62
   140
  5
7BC
 10
34.588573
 20
35.492542
 30
0.0
 40
0.06
  1
$USERNAME$
  7
txt
 11
34.588573
 21
35.522542
 31
0.0
210
0.0
220
0.0
230
1.0
 73
     2
  0
TEXT
  8
1
  6
CONTINUOUS
 62
   140
  5
7BD
 10
35.362156
 20
35.492542
 30
0.0
 40
0.06
  1
DD-MMM-YYYY HH:MM
  7
txt
 11
35.362156
 21
35.522542
 31
0.0
210
0.0
220
0.0
230
1.0
 73
     2
  0
POINT
  8
1
  6
CONTINUOUS
 62
   140
  5
7BE
 10
3.90874
 20
35.584292
 30
0.0
  0
POINT
  8
1
  6
CONTINUOUS
 62
   140
  5
7BF
 10
3.90874
 20
56.584292
 30
0.0
  0
POINT
  8
1
  6
CONTINUOUS
 62
   140
  5
7C0
 10
36.40874
 20
56.584292
 30
0.0
  0
POINT
  8
1
  6
CONTINUOUS
 62
   140
  5
7C1
 10
36.40874
 20
35.584292
 30
0.0
  0
LINE
  8
1
  6
CONTINUOUS
 62
   140
  5
7C2
 10
36.40874
 20
35.584292
 30
0.0
 11
36.40874
 21
38.083292
 31
0.0
  0
LINE
  8
1
  6
CONTINUOUS
 62
   140
  5
7C3
 10
36.40874
 20
39.074125
 30
0.0
 11
30.40874
 21
39.074125
 31
0.0
  0
LINE
  8
1
  6
CONTINUOUS
 62
   140
  5
7C4
 10
36.40874
 20
35.584292
 30
0.0
 11
30.40874
 21
35.584292
 31
0.0
  0
LINE
  8
1
  6
CONTINUOUS
 62
   140
  5
7C5
 10
31.946656
 20
37.483292
 30
0.0
 11
30.40874
 21
37.483292
 31
0.0
  0
LINE
  8
1
  6
CONTINUOUS
 62
   140
  5
7C6
 10
31.946656
 20
37.284292
 30
0.0
 11
30.40874
 21
37.284292
 31
0.0
  0
LINE
  8
1
  6
CONTINUOUS
 62
   140
  5
7C7
 10
31.946656
 20
37.085292
 30
0.0
 11
30.40874
 21
37.085292
 31
0.0
  0
LINE
  8
1
  6
CONTINUOUS
 62
   140
  5
7C8
 10
31.946656
 20
36.886292
 30
0.0
 11
30.40874
 21
36.886292
 31
0.0
  0
LINE
  8
1
  6
CONTINUOUS
 62
   140
  5
7C9
 10
31.946656
 20
36.687292
 30
0.0
 11
30.40874
 21
36.687292
 31
0.0
  0
LINE
  8
1
  6
CONTINUOUS
 62
   140
  5
7CA
 10
31.946656
 20
36.488292
 30
0.0
 11
30.40874
 21
36.488292
 31
0.0
  0
LINE
  8
1
  6
CONTINUOUS
 62
   140
  5
7CB
 10
31.946656
 20
36.289292
 30
0.0
 11
30.40874
 21
36.289292
 31
0.0
  0
LINE
  8
1
  6
CONTINUOUS
 62
   140
  5
7CC
 10
31.946656
 20
36.090292
 30
0.0
 11
30.40874
 21
36.090292
 31
0.0
  0
LINE
  8
1
  6
CONTINUOUS
 62
   140
  5
7CD
 10
31.946656
 20
35.891292
 30
0.0
 11
30.40874
 21
35.891292
 31
0.0
  0
TEXT
  8
1
  6
CONTINUOUS
 62
   140
  5
7CE
 10
30.715823
 20
37.530625
 30
0.0
 40
0.079
  1
REVISION DATE
 41
1.003165
  7
MONOTXT
210
0.0
220
0.0
230
1.0
  0
LINE
  8
1
  6
CONTINUOUS
 62
   140
  5
7CF
 10
30.40874
 20
36.994292
 30
0.0
 11
30.40874
 21
35.584292
 31
0.0
  0
TEXT
  8
1
  6
CONTINUOUS
 62
   140
  5
7D0
 10
30.620073
 20
38.819208
 30
0.0
 40
0.1875
  1
WEST VIRGINIA DEPARTMENT OF TRANSPORTATION
  7
ROMANT
 72
     4
 11
33.39049
 21
38.912958
 31
0.0
210
0.0
220
0.0
230
1.0
  0
TEXT
  8
1
  6
CONTINUOUS
 62
   140
  5
7D1
 10
32.192906
 20
38.610292
 30
0.0
 40
0.1875
  1
DIVISION OF HIGHWAYS
  7
ROMANT
 72
     4
 11
33.412385
 21
38.704042
 31
0.0
210
0.0
220
0.0
230
1.0
  0
TEXT
  8
1
  6
CONTINUOUS
 62
   140
  5
7D2
 10
32.42299
 20
38.412125
 30
0.0
 40
0.1875
  1
STANDARD DETAIL
  7
ROMANT
 72
     4
 11
33.401094
 21
38.505875
 31
0.0
210
0.0
220
0.0
230
1.0
  0
LINE
  8
1
  6
CONTINUOUS
 62
   140
  5
7D3
 10
31.946656
 20
37.683292
 30
0.0
 11
30.40874
 21
37.683292
 31
0.0
  0
LINE
  8
1
  6
CONTINUOUS
 62
   140
  5
7D4
 10
31.946656
 20
35.584292
 30
0.0
 11
31.946656
 21
37.683292
 31
0.0
  0
LINE
  8
1
  6
CONTINUOUS
 62
   140
  5
7D5
 10
30.40874
 20
35.584292
 30
0.0
 11
30.40874
 21
39.074125
 31
0.0
  0
TEXT
  8
1
  6
CONTINUOUS
 62
     2
  5
7D6
 10
31.674323
 20
37.946375
 30
0.0
 40
0.208333
  1
                        
  7
txt
 72
     4
 11
34.139594
 21
38.050542
 31
0.0
210
0.0
220
0.0
230
1.0
  0
TEXT
  8
1
  6
CONTINUOUS
 62
     2
  5
7D7
 10
31.679906
 20
37.199458
 30
0.0
 40
0.208333
  1
                        
  7
txt
 72
     4
 11
34.145177
 21
37.303625
 31
0.0
210
0.0
220
0.0
230
1.0
  0
TEXT
  8
1
  6
CONTINUOUS
 62
     2
  5
7D8
 10
31.679906
 20
36.849125
 30
0.0
 40
0.208333
  1
                        
  7
txt
 72
     4
 11
34.145177
 21
36.953292
 31
0.0
210
0.0
220
0.0
230
1.0
  0
TEXT
  8
1
  6
CONTINUOUS
 62
     2
  5
7D9
 10
31.679906
 20
36.498792
 30
0.0
 40
0.208333
  1
                        
  7
txt
 72
     4
 11
34.145177
 21
36.602958
 31
0.0
210
0.0
220
0.0
230
1.0
  0
TEXT
  8
1
  6
CONTINUOUS
 62
     2
  5
7DA
 10
30.443823
 20
37.121708
 30
0.0
 40
0.083333
  1
                  
  7
ROMANS
 72
     4
 11
31.179927
 21
37.163375
 31
0.0
210
0.0
220
0.0
230
1.0
  0
TEXT
  8
1
  6
CONTINUOUS
 62
     2
  5
7DB
 10
30.443823
 20
36.922708
 30
0.0
 40
0.083333
  1
                  
  7
ROMANS
 72
     4
 11
31.179927
 21
36.964375
 31
0.0
210
0.0
220
0.0
230
1.0
  0
TEXT
  8
1
  6
CONTINUOUS
 62
     2
  5
7DC
 10
30.443823
 20
36.723708
 30
0.0
 40
0.083333
  1
                  
  7
ROMANS
 72
     4
 11
31.179927
 21
36.765375
 31
0.0
210
0.0
220
0.0
230
1.0
  0
TEXT
  8
1
  6
CONTINUOUS
 62
     2
  5
7DD
 10
30.443823
 20
36.524708
 30
0.0
 40
0.083333
  1
                  
  7
ROMANS
 72
     4
 11
31.179927
 21
36.566375
 31
0.0
210
0.0
220
0.0
230
1.0
  0
TEXT
  8
1
  6
CONTINUOUS
 62
     2
  5
7DE
 10
30.443823
 20
36.325708
 30
0.0
 40
0.083333
  1
                  
  7
ROMANS
 72
     4
 11
31.179927
 21
36.367375
 31
0.0
210
0.0
220
0.0
230
1.0
  0
TEXT
  8
1
  6
CONTINUOUS
 62
     2
  5
7DF
 10
30.443823
 20
36.126708
 30
0.0
 40
0.083333
  1
                  
  7
ROMANS
 72
     4
 11
31.179927
 21
36.168375
 31
0.0
210
0.0
220
0.0
230
1.0
  0
TEXT
  8
1
  6
CONTINUOUS
 62
     2
  5
7E0
 10
30.443823
 20
35.927708
 30
0.0
 40
0.083333
  1
                  
  7
ROMANS
 72
     4
 11
31.179927
 21
35.969375
 31
0.0
210
0.0
220
0.0
230
1.0
  0
TEXT
  8
1
  6
CONTINUOUS
 62
     2
  5
7E1
 10
30.44224
 20
35.723542
 30
0.0
 40
0.083333
  1
                  
  7
ROMANS
 72
     4
 11
31.178344
 21
35.765208
 31
0.0
210
0.0
220
0.0
230
1.0
  0
POINT
  8
1
  6
DASHED
 62
     2
  5
7E2
 10
3.39674
 20
56.604292
 30
0.0
  0
POINT
  8
1
  6
DASHED
 62
     2
  5
7E3
 10
36.62174
 20
35.484292
 30
0.0
  0
TEXT
  8
1
  6
CONTINUOUS
 62
   140
  5
7E4
 10
3.95674
 20
35.463292
 30
0.0
 40
0.06
  1
P5A1G92-STDBOR a
  7
MONOTXT
210
0.0
220
0.0
230
1.0
  0
TEXT
  8
3
  6
CONTINUOUS
 62
     2
  5
7E5
 10
28.32424
 20
52.275573
 30
0.0
 40
0.133292
  1
Approach and Trailing End Treatments shall be as 
  7
MONOTXT
210
0.0
220
0.0
230
1.0
  0
TEXT
  8
3
  6
CONTINUOUS
 62
     2
  5
7E6
 10
33.474104
 20
52.264031
 30
0.0
 40
0.133292
  1
 shown or
  7
MONOTXT
210
0.0
220
0.0
230
1.0
  0
SOLID
  8
3
  6
CONTINUOUS
 62
     2
  5
7E7
 10
21.350635
 20
39.144844
 30
0.0
 11
21.377635
 21
39.121938
 31
0.0
 12
21.295396
 22
39.052375
 32
0.0
 13
21.295396
 23
39.052375
 33
0.0
  0
LINE
  8
3
  6
CONTINUOUS
 62
   150
  5
7E8
 10
21.326208
 20
39.088812
 30
0.0
 11
21.504865
 21
39.299375
 31
0.0
  0
TEXT
  8
1
  6
CONTINUOUS
 62
     2
  5
7E9
 10
28.26525
 20
50.991823
 30
0.0
 40
0.133292
  1
The pay quantity of guardrail will be the Linear Feet of guardrail 
  7
MONOTXT
210
0.0
220
0.0
230
1.0
  0
TEXT
  8
1
  6
CONTINUOUS
 62
     2
  5
7EA
 10
26.824688
 20
50.737635
 30
0.0
 40
0.133292
  1
 measured along the face of the rail from center to center of end posts. Cost
  7
MONOTXT
210
0.0
220
0.0
230
1.0
  0
LINE
  8
3
  6
CONTINUOUS
 62
     2
  5
7EB
 10
22.08924
 20
41.430312
 30
0.0
 11
22.08924
 21
41.742073
 31
0.0
  0
LINE
  8
3
  6
CONTINUOUS
 62
     2
  5
7EC
 10
22.08924
 20
41.925229
 30
0.0
 11
22.08924
 21
42.046104
 31
0.0
  0
LINE
  8
3
  6
CONTINUOUS
 62
   150
  5
7ED
 10
22.08924
 20
38.391708
 30
0.0
 11
22.08924
 21
39.05576
 31
0.0
  0
LINE
  8
3
  6
CONTINUOUS
 62
   150
  5
7EE
 10
22.08924
 20
39.570344
 30
0.0
 11
22.08924
 21
40.245677
 31
0.0
  0
LINE
  8
1
  6
CONTINUOUS
 62
   233
  5
7EF
 10
17.868396
 20
48.246198
 30
0.0
 11
17.868396
 21
49.017865
 31
0.0
  0
LINE
  8
1
  6
CONTINUOUS
 62
   233
  5
7F0
 10
17.868396
 20
49.421542
 30
0.0
 11
17.868396
 21
49.682479
 31
0.0
  0
LINE
  8
1
  6
CONTINUOUS
 62
   233
  5
7F1
 10
17.44476
 20
48.518052
 30
0.0
 11
17.44476
 21
48.999094
 31
0.0
  0
LINE
  8
1
  6
CONTINUOUS
 62
   233
  5
7F2
 10
17.44476
 20
49.177458
 30
0.0
 11
17.44476
 21
49.682479
 31
0.0
  0
TEXT
  8
1
  6
CONTINUOUS
 62
     2
  5
7F3
 10
26.953344
 20
50.494812
 30
0.0
 40
0.133292
  1
of the Terminal Section Buffer End shall be included in the cost of the Guardrail.  
  7
MONOTXT
210
0.0
220
0.0
230
1.0
  0
TEXT
  8
3
  6
CONTINUOUS
 62
     2
  5
7F4
 10
7.535583
 20
50.734365
 30
0.0
 40
0.133292
  1
 Post Spacing
  7
ROMANS
210
0.0
220
0.0
230
1.0
  0
LINE
  8
2
  6
HIDDEN
 62
     2
  5
7F5
 10
18.089844
 20
49.682479
 30
0.0
 11
18.089844
 21
50.569375
 31
0.0
  0
LINE
  8
2
  6
CONTINUOUS
 62
     2
  5
7F6
 10
17.220021
 20
49.682479
 30
0.0
 11
17.220021
 21
50.569375
 31
0.0
  0
TEXT
  8
3
  6
CONTINUOUS
 62
     2
  5
7F7
 10
26.898677
 20
51.535302
 30
0.0
 40
0.133292
  1
terminal to be utilized shall be as shown or specified.
  7
MONOTXT
210
0.0
220
0.0
230
1.0
  0
TEXT
  8
1
  6
CONTINUOUS
 62
     2
  5
7F8
 10
30.437708
 20
37.748042
 30
0.0
 40
0.083333
  1
 PREPARED 7-1-99 
  7
ROMANS
 72
     4
 11
31.132146
 21
37.789708
 31
0.0
210
0.0
220
0.0
230
1.0
  0
TEXT
  8
1
  6
CONTINUOUS
 62
     2
  5
7F9
 10
28.275208
 20
49.960667
 30
0.0
 40
0.133292
  1
The approach slope to the face of all guardrail shall be 10:1 or flatter.
  7
MONOTXT
 72
     4
 11
31.892208
 21
50.027313
 31
0.0
210
0.0
220
0.0
230
1.0
  0
TEXT
  8
1
  6
CONTINUOUS
 62
     2
  5
7FA
 10
32.337958
 20
37.327115
 30
0.0
 40
0.208333
  1
  GUARDRAIL ELEMENT 
  7
txt
 72
     4
 11
34.372073
 21
37.431281
 31
0.0
210
0.0
220
0.0
230
1.0
  0
TEXT
  8
1
  6
CONTINUOUS
 62
     2
  5
7FB
 10
32.615594
 20
35.801375
 30
0.0
 40
0.166667
  1
STANDARD SHEET GR1     
  7
txt
 72
     4
 11
34.489604
 21
35.884708
 31
0.0
210
0.0
220
0.0
230
1.0
  0
TEXT
  8
3
  6
CONTINUOUS
 62
     2
  5
7FC
 10
27.229635
 20
53.537792
 30
0.0
 40
0.133292
  1
        Guardrail shall be secured to the blocks, posts and other elements
  7
MONOTXT
210
0.0
220
0.0
230
1.0
  0
TEXT
  8
3
  6
CONTINUOUS
 62
     2
  5
7FD
 10
26.914354
 20
53.027104
 30
0.0
 40
0.133292
  1
requirements of 712.4 of the Standard Specifications. Nuts shall conform to
  7
MONOTXT
210
0.0
220
0.0
230
1.0
  0
TEXT
  8
3
  6
CONTINUOUS
 62
     2
  5
7FE
 10
26.790198
 20
52.749448
 30
0.0
 40
0.133292
  1
 ASTM A563, Grade A or better.
  7
MONOTXT
210
0.0
220
0.0
230
1.0
  0
ENDSEC
  0
EOF
