  0
SECTION
  2
HEADER
  9
$ACADVER
  1
AC1009
  9
$INSBASE
 10
0.0
 20
0.0
 30
0.0
  9
$EXTMIN
 10
-0.149917
 20
-10.208333
 30
-0.293167
  9
$EXTMAX
 10
13181.416917
 20
3419.953
 30
0.293167
  9
$LIMMIN
 10
0.0
 20
0.0
  9
$LIMMAX
 10
12.0
 20
9.0
  9
$ORTHOMODE
 70
     0
  9
$REGENMODE
 70
     1
  9
$FILLMODE
 70
     1
  9
$QTEXTMODE
 70
     0
  9
$MIRRTEXT
 70
     1
  9
$DRAGMODE
 70
     2
  9
$LTSCALE
 40
1.0
  9
$OSMODE
 70
     0
  9
$ATTMODE
 70
     1
  9
$TEXTSIZE
 40
0.2
  9
$TRACEWID
 40
0.05
  9
$TEXTSTYLE
  7
STANDARD
  9
$CLAYER
  8
0
  9
$CELTYPE
  6
CONTINUOUS
  9
$CECOLOR
 62
   256
  9
$DIMSCALE
 40
1.0
  9
$DIMASZ
 40
0.18
  9
$DIMEXO
 40
0.0625
  9
$DIMDLI
 40
0.38
  9
$DIMRND
 40
0.0
  9
$DIMDLE
 40
0.0
  9
$DIMEXE
 40
0.18
  9
$DIMTP
 40
0.0
  9
$DIMTM
 40
0.0
  9
$DIMTXT
 40
0.18
  9
$DIMCEN
 40
0.09
  9
$DIMTSZ
 40
0.0
  9
$DIMTOL
 70
     0
  9
$DIMLIM
 70
     0
  9
$DIMTIH
 70
     1
  9
$DIMTOH
 70
     1
  9
$DIMSE1
 70
     0
  9
$DIMSE2
 70
     0
  9
$DIMTAD
 70
     0
  9
$DIMZIN
 70
     0
  9
$DIMBLK
  1

  9
$DIMASO
 70
     1
  9
$DIMSHO
 70
     1
  9
$DIMPOST
  1

  9
$DIMAPOST
  1

  9
$DIMALT
 70
     0
  9
$DIMALTD
 70
     2
  9
$DIMALTF
 40
25.4
  9
$DIMLFAC
 40
1.0
  9
$DIMTOFL
 70
     0
  9
$DIMTVP
 40
0.0
  9
$DIMTIX
 70
     0
  9
$DIMSOXD
 70
     0
  9
$DIMSAH
 70
     0
  9
$DIMBLK1
  1

  9
$DIMBLK2
  1

  9
$DIMSTYLE
  2
STANDARD
  9
$DIMCLRD
 70
     0
  9
$DIMCLRE
 70
     0
  9
$DIMCLRT
 70
     0
  9
$DIMTFAC
 40
1.0
  9
$DIMGAP
 40
0.09
  9
$LUNITS
 70
     2
  9
$LUPREC
 70
     4
  9
$AXISMODE
 70
     0
  9
$AXISUNIT
 10
0.0
 20
0.0
  9
$SKETCHINC
 40
0.1
  9
$FILLETRAD
 40
0.0
  9
$AUNITS
 70
     0
  9
$AUPREC
 70
     0
  9
$MENU
  1
acad
  9
$ELEVATION
 40
0.0
  9
$PELEVATION
 40
0.0
  9
$THICKNESS
 40
0.0
  9
$LIMCHECK
 70
     0
  9
$BLIPMODE
 70
     1
  9
$CHAMFERA
 40
0.0
  9
$CHAMFERB
 40
0.0
  9
$SKPOLY
 70
     0
  9
$TDCREATE
 40
2451562.615196759
  9
$TDUPDATE
 40
2451562.615196759
  9
$TDINDWG
 40
0.0000000000
  9
$TDUSRTIMER
 40
0.0000000000
  9
$USRTIMER
 70
     1
  9
$ANGBASE
 50
0.0
  9
$ANGDIR
 70
     0
  9
$PDMODE
 70
     0
  9
$PDSIZE
 40
0.0
  9
$PLINEWID
 40
0.0
  9
$COORDS
 70
     0
  9
$SPLFRAME
 70
     0
  9
$SPLINETYPE
 70
     6
  9
$SPLINESEGS
 70
    10
  9
$ATTDIA
 70
     0
  9
$ATTREQ
 70
     1
  9
$HANDLING
 70
     1
  9
$HANDSEED
  5
A73
  9
$SURFTAB1
 70
     6
  9
$SURFTAB2
 70
     6
  9
$SURFTYPE
 70
     6
  9
$SURFU
 70
     6
  9
$SURFV
 70
     6
  9
$UCSNAME
  2

  9
$UCSORG
 10
0.0
 20
0.0
 30
0.0
  9
$UCSXDIR
 10
1.0
 20
0.0
 30
0.0
  9
$UCSYDIR
 10
0.0
 20
1.0
 30
0.0
  9
$PUCSNAME
  2

  9
$PUCSORG
 10
0.0
 20
0.0
 30
0.0
  9
$PUCSXDIR
 10
1.0
 20
0.0
 30
0.0
  9
$PUCSYDIR
 10
0.0
 20
1.0
 30
0.0
  9
$USERI1
 70
     0
  9
$USERI2
 70
     0
  9
$USERI3
 70
     0
  9
$USERI4
 70
     0
  9
$USERI5
 70
     0
  9
$USERR1
 40
0.0
  9
$USERR2
 40
0.0
  9
$USERR3
 40
0.0
  9
$USERR4
 40
0.0
  9
$USERR5
 40
0.0
  9
$WORLDVIEW
 70
     1
  9
$SHADEDGE
 70
     3
  9
$SHADEDIF
 70
    70
  9
$TILEMODE
 70
     1
  9
$MAXACTVP
 70
    16
  9
$PINSBASE
 10
0.0
 20
0.0
 30
0.0
  9
$PLIMCHECK
 70
     0
  9
$PEXTMIN
 10
-1.000000E+20
 20
-1.000000E+20
 30
-1.000000E+20
  9
$PEXTMAX
 10
-1.000000E+20
 20
-1.000000E+20
 30
-1.000000E+20
  9
$PLIMMIN
 10
0.0
 20
0.0
  9
$PLIMMAX
 10
12.0
 20
9.0
  9
$UNITMODE
 70
     0
  9
$VISRETAIN
 70
     0
  9
$PLINEGEN
 70
     1
  9
$PSLTSCALE
 70
     0
  9
$TREEDEPTH
 70
  3020
  9
$DWGCODEPAGE
  3
ansi_1252
  0
ENDSEC
  0
SECTION
  2
TABLES
  0
TABLE
  2
VPORT
 70
     1
  0
VPORT
  2
*ACTIVE
 70
     0
 10
0.0
 20
0.0
 11
1.0
 21
1.0
 12
0.0
 22
0.0
 13
0.0
 23
0.0
 14
0.0
 24
0.0
 15
0.0
 25
0.0
 16
0.0
 26
0.0
 36
1.0
 17
13162.858143
 27
3408.238667
 37
0.0
 40
23.683
 41
1.602251
 42
50.0
 43
47.524333
 44
-47.524333
 50
0.0
 51
0.0
 71
    22
 72
   100
 73
     1
 74
     0
 75
     0
 76
     0
 77
     0
 78
     0
  0
ENDTAB
  0
TABLE
  2
LTYPE
 70
     7
  0
LTYPE
  2
CONTINUOUS
 70
     0
  3
Solid line
 72
    65
 73
     0
 40
0.0
  0
LTYPE
  2
DOT
 70
    64
  3
. . . . . . . . . . . . . . . . . . . . . . . . . . . . . . . . .
 72
    65
 73
     2
 40
0.25
 49
0.0
 49
-0.25
  0
LTYPE
  2
HIDDEN
 70
    64
  3
__ __ __ __ __ __ __ __ __ __ __ __ __ __ __ __ __ __ __ __ __ 
 72
    65
 73
     2
 40
0.375
 49
0.25
 49
-0.125
  0
LTYPE
  2
DASHED
 70
    64
  3
__ __ __ __ __ __ __ __ __ __ __ __ __ __ __ __ __ __ __ __ __
 72
    65
 73
     2
 40
0.75
 49
0.5
 49
-0.25
  0
LTYPE
  2
DASHDOT
 70
    64
  3
__ . __ . __ . __ . __ . __ . __ . __ . __ . __ . __ . __ . _
 72
    65
 73
     4
 40
1.0
 49
0.5
 49
-0.25
 49
0.0
 49
-0.25
  0
LTYPE
  2
DIVIDE
 70
    64
  3
____ . . ____ . . ____ . . ____ . . ____ . . ____ . . ____ . .
 72
    65
 73
     6
 40
1.25
 49
0.5
 49
-0.25
 49
0.0
 49
-0.25
 49
0.0
 49
-0.25
  0
LTYPE
  2
CENTER
 70
    64
  3
____ _ ____ _ ____ _ ____ _ ____ _ ____ _ ____ _ ____ _ ____ _
 72
    65
 73
     4
 40
2.0
 49
1.25
 49
-0.25
 49
0.25
 49
-0.25
  0
ENDTAB
  0
TABLE
  2
LAYER
 70
     6
  0
LAYER
  2
0
 70
     0
 62
     7
  6
CONTINUOUS
  0
LAYER
  2
CONSTRUCTION_CLASS
 70
     0
 62
     7
  6
CONTINUOUS
  0
LAYER
  2
PATTERN_CLASS
 70
     0
 62
     7
  6
CONTINUOUS
  0
LAYER
  2
3
 70
    64
 62
     7
  6
CONTINUOUS
  0
LAYER
  2
1
 70
    64
 62
     7
  6
CONTINUOUS
  0
LAYER
  2
5
 70
    64
 62
     7
  6
CONTINUOUS
  0
ENDTAB
  0
TABLE
  2
STYLE
 70
     5
  0
STYLE
  2
STANDARD
 70
     0
 40
0.0
 41
1.0
 50
0.0
 71
     0
 42
0.0
  3
txt
  4

  0
STYLE
  2
txt
 70
     0
 40
0.2
 41
1.0
 50
0.0
 71
     0
 42
0.2
  3
TXT
  4

  0
STYLE
  2
ROMANS
 70
     0
 40
0.2
 41
1.0
 50
0.0
 71
     0
 42
0.2
  3
ROMANS
  4

  0
STYLE
  2
MONOTXT
 70
     0
 40
0.2
 41
1.0
 50
0.0
 71
     0
 42
0.2
  3
MONOTXT
  4

  0
STYLE
  2
ROMANT
 70
     0
 40
0.2
 41
1.0
 50
0.0
 71
     0
 42
0.2
  3
ROMANT
  4

  0
ENDTAB
  0
TABLE
  2
VIEW
 70
     0
  0
ENDTAB
  0
TABLE
  2
UCS
 70
     0
  0
ENDTAB
  0
TABLE
  2
APPID
 70
     1
  0
APPID
  2
ACAD
 70
     0
  0
ENDTAB
  0
TABLE
  2
DIMSTYLE
 70
     1
  0
DIMSTYLE
  2
STANDARD
 70
     0
  3

  4

  5

  6

  7

 40
1.0
 41
0.18
 42
0.0625
 43
0.38
 44
0.18
 45
0.0
 46
0.0
 47
0.0
 48
0.0
140
0.18
141
0.09
142
0.0
143
25.4
144
1.0
145
0.0
146
1.0
147
0.09
 71
     0
 72
     0
 73
     1
 74
     1
 75
     0
 76
     0
 77
     0
 78
     0
170
     0
171
     2
172
     0
173
     0
174
     0
175
     0
176
     0
177
     0
178
     0
  0
ENDTAB
  0
ENDSEC
  0
SECTION
  2
BLOCKS
  0
BLOCK
  8
3
  6
CONTINUOUS
 62
   241
  5
35F
  2
WSEC
 70
     0
 10
0.0
 20
0.0
 30
0.0
  3
WSEC
  0
LINE
  8
3
  6
CONTINUOUS
 62
   241
  5
360
 10
1.742417
 20
-2.99875
 30
0.0
 11
1.801167
 21
-3.079333
 31
0.0
  0
LINE
  8
3
  6
CONTINUOUS
 62
   241
  5
361
 10
1.11975
 20
-3.43025
 30
0.0
 11
1.179833
 21
-3.508083
 31
0.0
  0
LINE
  8
3
  6
CONTINUOUS
 62
   241
  5
362
 10
1.750667
 20
-0.858917
 30
0.0
 11
1.801167
 21
-0.778333
 31
0.0
  0
LINE
  8
3
  6
CONTINUOUS
 62
   241
  5
363
 10
1.11975
 20
-0.42875
 30
0.0
 11
1.171667
 21
-0.34825
 31
0.0
  0
LINE
  8
3
  6
CONTINUOUS
 62
   241
  5
364
 10
0.15025
 20
-4.790417
 30
0.0
 11
0.0505
 21
-4.790417
 31
0.0
  0
LINE
  8
3
  6
CONTINUOUS
 62
   241
  5
365
 10
1.742417
 20
-7.202
 30
0.0
 11
1.801167
 21
-7.118667
 31
0.0
  0
LINE
  8
3
  6
CONTINUOUS
 62
   241
  5
366
 10
1.11975
 20
-6.770417
 30
0.0
 11
1.179833
 21
-6.69125
 31
0.0
  0
LINE
  8
3
  6
CONTINUOUS
 62
   241
  5
367
 10
1.750667
 20
-9.343167
 30
0.0
 11
1.801167
 21
-9.421
 31
0.0
  0
LINE
  8
3
  6
CONTINUOUS
 62
   241
  5
368
 10
1.11975
 20
-9.771917
 30
0.0
 11
1.171667
 21
-9.841583
 31
0.0
  0
LINE
  8
3
  6
CONTINUOUS
 62
   241
  5
369
 10
0.15025
 20
-5.41175
 30
0.0
 11
0.0505
 21
-5.41175
 31
0.0
  0
POLYLINE
  8
3
  6
CONTINUOUS
 62
   241
  5
36A
 66
     1
 10
0.0
 20
0.0
 30
0.0
210
0.0
220
0.0
230
1.0
  0
VERTEX
  8
3
  6
CONTINUOUS
 62
   241
  5
36B
 10
0.894419
 20
-9.925645
 30
0.0
 42
-0.105969
  0
VERTEX
  8
3
  6
CONTINUOUS
 62
   241
  5
36C
 10
0.773058
 20
-9.974922
 30
0.0
  0
VERTEX
  8
3
  6
CONTINUOUS
 62
   241
  5
36D
 10
0.7715
 20
-9.972667
 30
0.0
  0
VERTEX
  8
3
  6
CONTINUOUS
 62
   241
  5
36E
 10
-0.008167
 20
-10.114667
 30
0.0
  0
VERTEX
  8
3
  6
CONTINUOUS
 62
   241
  5
36F
 10
0.0
 20
-10.2035
 30
0.0
  0
VERTEX
  8
3
  6
CONTINUOUS
 62
   241
  5
370
 10
0.790667
 20
-10.061417
 30
0.0
  0
VERTEX
  8
3
  6
CONTINUOUS
 62
   241
  5
371
 10
0.789121
 20
-10.066012
 30
0.0
 42
0.105969
  0
VERTEX
  8
3
  6
CONTINUOUS
 62
   241
  5
372
 10
0.946405
 20
-10.002149
 30
0.0
  0
VERTEX
  8
3
  6
CONTINUOUS
 62
   241
  5
373
 10
0.950417
 20
-10.004083
 30
0.0
  0
VERTEX
  8
3
  6
CONTINUOUS
 62
   241
  5
374
 10
2.4225
 20
-9.003167
 30
0.0
  0
VERTEX
  8
3
  6
CONTINUOUS
 62
   241
  5
375
 10
2.420695
 20
-9.000356
 30
0.0
 42
0.52647
  0
VERTEX
  8
3
  6
CONTINUOUS
 62
   241
  5
376
 10
2.427516
 20
-7.559755
 30
0.0
  0
VERTEX
  8
3
  6
CONTINUOUS
 62
   241
  5
377
 10
2.432083
 20
-7.55975
 30
0.0
  0
VERTEX
  8
3
  6
CONTINUOUS
 62
   241
  5
378
 10
0.480667
 20
-6.213333
 30
0.0
  0
VERTEX
  8
3
  6
CONTINUOUS
 62
   241
  5
379
 10
0.483283
 20
-6.211498
 30
0.0
 42
-0.245912
  0
VERTEX
  8
3
  6
CONTINUOUS
 62
   241
  5
37A
 10
0.147223
 20
-5.569525
 30
0.0
  0
VERTEX
  8
3
  6
CONTINUOUS
 62
   241
  5
37B
 10
0.15025
 20
-5.5715
 30
0.0
  0
VERTEX
  8
3
  6
CONTINUOUS
 62
   241
  5
37C
 10
0.15025
 20
-4.630583
 30
0.0
  0
VERTEX
  8
3
  6
CONTINUOUS
 62
   241
  5
37D
 10
0.147223
 20
-4.632075
 30
0.0
 42
-0.245912
  0
VERTEX
  8
3
  6
CONTINUOUS
 62
   241
  5
37E
 10
0.483283
 20
-3.990102
 30
0.0
  0
VERTEX
  8
3
  6
CONTINUOUS
 62
   241
  5
37F
 10
0.480667
 20
-3.988833
 30
0.0
  0
VERTEX
  8
3
  6
CONTINUOUS
 62
   241
  5
380
 10
2.432083
 20
-2.63825
 30
0.0
  0
VERTEX
  8
3
  6
CONTINUOUS
 62
   241
  5
381
 10
2.427516
 20
-2.641845
 30
0.0
 42
0.52647
  0
VERTEX
  8
3
  6
CONTINUOUS
 62
   241
  5
382
 10
2.420695
 20
-1.201244
 30
0.0
  0
VERTEX
  8
3
  6
CONTINUOUS
 62
   241
  5
383
 10
2.4225
 20
-1.199
 30
0.0
  0
VERTEX
  8
3
  6
CONTINUOUS
 62
   241
  5
384
 10
0.950417
 20
-0.202083
 30
0.0
  0
VERTEX
  8
3
  6
CONTINUOUS
 62
   241
  5
385
 10
0.946405
 20
-0.199451
 30
0.0
 42
0.105969
  0
VERTEX
  8
3
  6
CONTINUOUS
 62
   241
  5
386
 10
0.789121
 20
-0.135588
 30
0.0
  0
VERTEX
  8
3
  6
CONTINUOUS
 62
   241
  5
387
 10
0.790667
 20
-0.137917
 30
0.0
  0
VERTEX
  8
3
  6
CONTINUOUS
 62
   241
  5
388
 10
0.0
 20
0.0
 30
0.0
  0
VERTEX
  8
3
  6
CONTINUOUS
 62
   241
  5
389
 10
-0.008167
 20
-0.08875
 30
0.0
  0
VERTEX
  8
3
  6
CONTINUOUS
 62
   241
  5
38A
 10
0.7715
 20
-0.229417
 30
0.0
  0
VERTEX
  8
3
  6
CONTINUOUS
 62
   241
  5
38B
 10
0.773058
 20
-0.226678
 30
0.0
 42
-0.105969
  0
VERTEX
  8
3
  6
CONTINUOUS
 62
   241
  5
38C
 10
0.894419
 20
-0.275955
 30
0.0
  0
VERTEX
  8
3
  6
CONTINUOUS
 62
   241
  5
38D
 10
0.890333
 20
-0.279917
 30
0.0
  0
VERTEX
  8
3
  6
CONTINUOUS
 62
   241
  5
38E
 10
2.372
 20
-1.280917
 30
0.0
  0
VERTEX
  8
3
  6
CONTINUOUS
 62
   241
  5
38F
 10
2.368707
 20
-1.277747
 30
0.0
 42
-0.52647
  0
VERTEX
  8
3
  6
CONTINUOUS
 62
   241
  5
390
 10
2.374807
 20
-2.565838
 30
0.0
  0
VERTEX
  8
3
  6
CONTINUOUS
 62
   241
  5
391
 10
2.372
 20
-2.56725
 30
0.0
  0
VERTEX
  8
3
  6
CONTINUOUS
 62
   241
  5
392
 10
0.42875
 20
-3.911
 30
0.0
  0
VERTEX
  8
3
  6
CONTINUOUS
 62
   241
  5
393
 10
0.430578
 20
-3.914092
 30
0.0
 42
0.245912
  0
VERTEX
  8
3
  6
CONTINUOUS
 62
   241
  5
394
 10
0.054728
 20
-4.632075
 30
0.0
  0
VERTEX
  8
3
  6
CONTINUOUS
 62
   241
  5
395
 10
0.0505
 20
-4.630583
 30
0.0
  0
VERTEX
  8
3
  6
CONTINUOUS
 62
   241
  5
396
 10
0.0505
 20
-5.5715
 30
0.0
  0
VERTEX
  8
3
  6
CONTINUOUS
 62
   241
  5
397
 10
0.054728
 20
-5.569525
 30
0.0
 42
0.245912
  0
VERTEX
  8
3
  6
CONTINUOUS
 62
   241
  5
398
 10
0.430578
 20
-6.287508
 30
0.0
  0
VERTEX
  8
3
  6
CONTINUOUS
 62
   241
  5
399
 10
0.42875
 20
-6.291167
 30
0.0
  0
VERTEX
  8
3
  6
CONTINUOUS
 62
   241
  5
39A
 10
2.372
 20
-7.63075
 30
0.0
  0
VERTEX
  8
3
  6
CONTINUOUS
 62
   241
  5
39B
 10
2.374807
 20
-7.635762
 30
0.0
 42
-0.52647
  0
VERTEX
  8
3
  6
CONTINUOUS
 62
   241
  5
39C
 10
2.368707
 20
-8.923853
 30
0.0
  0
VERTEX
  8
3
  6
CONTINUOUS
 62
   241
  5
39D
 10
2.372
 20
-8.921167
 30
0.0
  0
VERTEX
  8
3
  6
CONTINUOUS
 62
   241
  5
39E
 10
0.890333
 20
-9.922167
 30
0.0
  0
SEQEND
  8
3
  6
CONTINUOUS
 62
   241
  5
39F
  0
LINE
  8
3
  6
CONTINUOUS
 62
   241
  5
3A0
 10
0.532583
 20
-10.114667
 30
0.0
 11
1.020083
 21
-9.952167
 31
0.0
  0
LINE
  8
3
  6
CONTINUOUS
 62
   241
  5
3A1
 10
-0.008167
 20
-10.152917
 30
0.0
 11
0.282667
 21
-10.061417
 31
0.0
  0
LINE
  8
3
  6
CONTINUOUS
 62
   241
  5
3A2
 10
1.072
 20
-9.802
 30
0.0
 11
1.130667
 21
-9.782833
 31
0.0
  0
LINE
  8
3
  6
CONTINUOUS
 62
   241
  5
3A3
 10
1.81075
 20
-9.302167
 30
0.0
 11
2.13025
 21
-9.201167
 31
0.0
  0
LINE
  8
3
  6
CONTINUOUS
 62
   241
  5
3A4
 10
2.182167
 20
-9.053667
 30
0.0
 11
2.4935
 21
-8.95125
 31
0.0
  0
LINE
  8
3
  6
CONTINUOUS
 62
   241
  5
3A5
 10
2.4935
 20
-8.80925
 30
0.0
 11
2.65325
 21
-8.761417
 31
0.0
  0
LINE
  8
3
  6
CONTINUOUS
 62
   241
  5
3A6
 10
2.621917
 20
-8.642667
 30
0.0
 11
2.742083
 21
-8.603
 31
0.0
  0
LINE
  8
3
  6
CONTINUOUS
 62
   241
  5
3A7
 10
2.682
 20
-8.492417
 30
0.0
 11
2.781667
 21
-8.461
 31
0.0
  0
LINE
  8
3
  6
CONTINUOUS
 62
   241
  5
3A8
 10
2.712
 20
-8.35175
 30
0.0
 11
2.80075
 21
-8.32175
 31
0.0
  0
LINE
  8
3
  6
CONTINUOUS
 62
   241
  5
3A9
 10
2.712
 20
-8.222
 30
0.0
 11
2.80075
 21
-8.193333
 31
0.0
  0
LINE
  8
3
  6
CONTINUOUS
 62
   241
  5
3AA
 10
2.692917
 20
-8.092333
 30
0.0
 11
2.781667
 21
-8.073167
 31
0.0
  0
LINE
  8
3
  6
CONTINUOUS
 62
   241
  5
3AB
 10
2.65325
 20
-7.981667
 30
0.0
 11
2.742083
 21
-7.951667
 31
0.0
  0
LINE
  8
3
  6
CONTINUOUS
 62
   241
  5
3AC
 10
2.591833
 20
-7.8615
 30
0.0
 11
2.682
 21
-7.8315
 31
0.0
  0
LINE
  8
3
  6
CONTINUOUS
 62
   241
  5
3AD
 10
2.51125
 20
-7.761833
 30
0.0
 11
2.610917
 21
-7.731833
 31
0.0
  0
LINE
  8
3
  6
CONTINUOUS
 62
   241
  5
3AE
 10
2.408833
 20
-7.660833
 30
0.0
 11
2.51125
 21
-7.63075
 31
0.0
  0
LINE
  8
3
  6
CONTINUOUS
 62
   241
  5
3AF
 10
2.281833
 20
-7.572
 30
0.0
 11
2.393833
 21
-7.528333
 31
0.0
  0
LINE
  8
3
  6
CONTINUOUS
 62
   241
  5
3B0
 10
2.152083
 20
-7.481917
 30
0.0
 11
2.261333
 21
-7.442333
 31
0.0
  0
LINE
  8
3
  6
CONTINUOUS
 62
   241
  5
3B1
 10
2.022417
 20
-7.39175
 30
0.0
 11
2.13025
 21
-7.350833
 31
0.0
  0
LINE
  8
3
  6
CONTINUOUS
 62
   241
  5
3B2
 10
1.891333
 20
-7.30025
 30
0.0
 11
2.000583
 21
-7.262083
 31
0.0
  0
LINE
  8
3
  6
CONTINUOUS
 62
   241
  5
3B3
 10
1.762917
 20
-7.210167
 30
0.0
 11
1.869417
 21
-7.17875
 31
0.0
  0
LINE
  8
3
  6
CONTINUOUS
 62
   241
  5
3B4
 10
0.99
 20
-6.669417
 30
0.0
 11
1.102
 21
-6.639333
 31
0.0
  0
LINE
  8
3
  6
CONTINUOUS
 62
   241
  5
3B5
 10
0.860333
 20
-6.591583
 30
0.0
 11
0.970917
 21
-6.54925
 31
0.0
  0
LINE
  8
3
  6
CONTINUOUS
 62
   241
  5
3B6
 10
0.730583
 20
-6.504167
 30
0.0
 11
0.838417
 21
-6.463167
 31
0.0
  0
LINE
  8
3
  6
CONTINUOUS
 62
   241
  5
3B7
 10
0.600833
 20
-6.409917
 30
0.0
 11
0.710083
 21
-6.371667
 31
0.0
  0
LINE
  8
3
  6
CONTINUOUS
 62
   241
  5
3B8
 10
0.4725
 20
-6.319833
 30
0.0
 11
0.579
 21
-6.28025
 31
0.0
  0
LINE
  8
3
  6
CONTINUOUS
 62
   241
  5
3B9
 10
0.349583
 20
-6.231083
 30
0.0
 11
0.461583
 21
-6.190083
 31
0.0
  0
LINE
  8
3
  6
CONTINUOUS
 62
   241
  5
3BA
 10
0.249917
 20
-6.13
 30
0.0
 11
0.349583
 21
-6.090417
 31
0.0
  0
LINE
  8
3
  6
CONTINUOUS
 62
   241
  5
3BB
 10
0.18025
 20
-6.022083
 30
0.0
 11
0.270417
 21
-5.992083
 31
0.0
  0
LINE
  8
3
  6
CONTINUOUS
 62
   241
  5
3BC
 10
0.120167
 20
-5.910167
 30
0.0
 11
0.210333
 21
-5.880083
 31
0.0
  0
LINE
  8
3
  6
CONTINUOUS
 62
   241
  5
3BD
 10
0.079167
 20
-5.791333
 30
0.0
 11
0.170667
 21
-5.761333
 31
0.0
  0
LINE
  8
3
  6
CONTINUOUS
 62
   241
  5
3BE
 10
0.060083
 20
-5.66025
 30
0.0
 11
0.15025
 21
-5.631583
 31
0.0
  0
LINE
  8
3
  6
CONTINUOUS
 62
   241
  5
3BF
 10
0.0505
 20
-5.531917
 30
0.0
 11
0.15025
 21
-5.501833
 31
0.0
  0
LINE
  8
3
  6
CONTINUOUS
 62
   241
  5
3C0
 10
0.0505
 20
-4.749417
 30
0.0
 11
0.15025
 21
-4.719417
 31
0.0
  0
LINE
  8
3
  6
CONTINUOUS
 62
   241
  5
3C1
 10
0.0505
 20
-4.6115
 30
0.0
 11
0.15025
 21
-4.582833
 31
0.0
  0
LINE
  8
3
  6
CONTINUOUS
 62
   241
  5
3C2
 10
0.069667
 20
-4.48175
 30
0.0
 11
0.170667
 21
-4.45175
 31
0.0
  0
LINE
  8
3
  6
CONTINUOUS
 62
   241
  5
3C3
 10
0.110583
 20
-4.328833
 30
0.0
 11
0.22125
 21
-4.300167
 31
0.0
  0
LINE
  8
3
  6
CONTINUOUS
 62
   241
  5
3C4
 10
0.18025
 20
-4.181333
 30
0.0
 11
0.3305
 21
-4.130833
 31
0.0
  0
LINE
  8
3
  6
CONTINUOUS
 62
   241
  5
3C5
 10
0.3195
 20
-4.001083
 30
0.0
 11
0.589917
 21
-3.911
 31
0.0
  0
LINE
  8
3
  6
CONTINUOUS
 62
   241
  5
3C6
 10
0.639083
 20
-3.770333
 30
0.0
 11
0.950417
 21
-3.670667
 31
0.0
  0
LINE
  8
3
  6
CONTINUOUS
 62
   241
  5
3C7
 10
1.000917
 20
-3.52175
 30
0.0
 11
1.149833
 21
-3.469917
 31
0.0
  0
LINE
  8
3
  6
CONTINUOUS
 62
   241
  5
3C8
 10
1.750667
 20
-3.011083
 30
0.0
 11
2.022417
 21
-2.929167
 31
0.0
  0
LINE
  8
3
  6
CONTINUOUS
 62
   241
  5
3C9
 10
2.070167
 20
-2.78025
 30
0.0
 11
2.372
 21
-2.67925
 31
0.0
  0
LINE
  8
3
  6
CONTINUOUS
 62
   241
  5
3CA
 10
2.4225
 20
-2.530417
 30
0.0
 11
2.610917
 21
-2.470333
 31
0.0
  0
LINE
  8
3
  6
CONTINUOUS
 62
   241
  5
3CB
 10
2.579583
 20
-2.350167
 30
0.0
 11
2.712
 21
-2.299583
 31
0.0
  0
LINE
  8
3
  6
CONTINUOUS
 62
   241
  5
3CC
 10
2.662833
 20
-2.189
 30
0.0
 11
2.772083
 21
-2.149417
 31
0.0
  0
LINE
  8
3
  6
CONTINUOUS
 62
   241
  5
3CD
 10
2.69975
 20
-2.049667
 30
0.0
 11
2.80075
 21
-2.010083
 31
0.0
  0
LINE
  8
3
  6
CONTINUOUS
 62
   241
  5
3CE
 10
2.712
 20
-1.909083
 30
0.0
 11
2.80075
 21
-1.879
 31
0.0
  0
LINE
  8
3
  6
CONTINUOUS
 62
   241
  5
3CF
 10
2.69975
 20
-1.780667
 30
0.0
 11
2.781667
 21
-1.758833
 31
0.0
  0
LINE
  8
3
  6
CONTINUOUS
 62
   241
  5
3D0
 10
2.662833
 20
-1.6605
 30
0.0
 11
2.751583
 21
-1.638667
 31
0.0
  0
LINE
  8
3
  6
CONTINUOUS
 62
   241
  5
3D1
 10
2.610917
 20
-1.548583
 30
0.0
 11
2.69975
 21
-1.5185
 31
0.0
  0
LINE
  8
3
  6
CONTINUOUS
 62
   241
  5
3D2
 10
2.541333
 20
-1.440667
 30
0.0
 11
2.631417
 21
-1.410583
 31
0.0
  0
LINE
  8
3
  6
CONTINUOUS
 62
   241
  5
3D3
 10
2.452583
 20
-1.341
 30
0.0
 11
2.55225
 21
-1.310917
 31
0.0
  0
LINE
  8
3
  6
CONTINUOUS
 62
   241
  5
3D4
 10
2.321417
 20
-1.2495
 30
0.0
 11
2.432083
 21
-1.21125
 31
0.0
  0
LINE
  8
3
  6
CONTINUOUS
 62
   241
  5
3D5
 10
2.19175
 20
-1.159333
 30
0.0
 11
2.301
 21
-1.11975
 31
0.0
  0
LINE
  8
3
  6
CONTINUOUS
 62
   241
  5
3D6
 10
2.060667
 20
-1.067833
 30
0.0
 11
2.169917
 21
-1.031
 31
0.0
  0
LINE
  8
3
  6
CONTINUOUS
 62
   241
  5
3D7
 10
1.930917
 20
-0.979083
 30
0.0
 11
2.040167
 21
-0.947667
 31
0.0
  0
LINE
  8
3
  6
CONTINUOUS
 62
   241
  5
3D8
 10
1.801167
 20
-0.887583
 30
0.0
 11
1.913167
 21
-0.858917
 31
0.0
  0
LINE
  8
3
  6
CONTINUOUS
 62
   241
  5
3D9
 10
1.020083
 20
-0.359167
 30
0.0
 11
1.130667
 21
-0.318167
 31
0.0
  0
LINE
  8
3
  6
CONTINUOUS
 62
   241
  5
3DA
 10
0.88075
 20
-0.269
 30
0.0
 11
1.000917
 21
-0.229417
 31
0.0
  0
LINE
  8
3
  6
CONTINUOUS
 62
   241
  5
3DB
 10
0.6705
 20
-0.208917
 30
0.0
 11
0.85075
 21
-0.148833
 31
0.0
  0
LINE
  8
3
  6
CONTINUOUS
 62
   241
  5
3DC
 10
0.412417
 20
-0.158417
 30
0.0
 11
0.600833
 21
-0.099667
 31
0.0
  0
LINE
  8
3
  6
CONTINUOUS
 62
   241
  5
3DD
 10
0.15025
 20
-0.118833
 30
0.0
 11
0.3305
 21
-0.060083
 31
0.0
  0
LINE
  8
3
  6
CONTINUOUS
 62
   241
  5
3DE
 10
-0.008167
 20
-0.030083
 30
0.0
 11
0.069667
 21
-0.009583
 31
0.0
  0
LINE
  8
3
  6
CONTINUOUS
 62
   241
  5
3DF
 10
2.000583
 20
-9.171083
 30
0.0
 11
2.311917
 21
-9.071417
 31
0.0
  0
LINE
  8
3
  6
CONTINUOUS
 62
   241
  5
3E0
 10
0.110583
 20
-10.183
 30
0.0
 11
0.710083
 21
-9.98225
 31
0.0
  0
LINE
  8
3
  6
CONTINUOUS
 62
   241
  5
3E1
 10
0.90125
 20
-9.922167
 30
0.0
 11
1.162083
 21
-9.841583
 31
0.0
  0
LINE
  8
3
  6
CONTINUOUS
 62
   241
  5
3E2
 10
1.771167
 20
-9.381417
 30
0.0
 11
1.930917
 21
-9.330833
 31
0.0
  0
LINE
  8
3
  6
CONTINUOUS
 62
   241
  5
3E3
 10
0.4725
 20
-3.889083
 30
0.0
 11
0.760583
 21
-3.789417
 31
0.0
  0
LINE
  8
3
  6
CONTINUOUS
 62
   241
  5
3E4
 10
0.820667
 20
-3.640583
 30
0.0
 11
1.111583
 21
-3.551833
 31
0.0
  0
LINE
  8
3
  6
CONTINUOUS
 62
   241
  5
3E5
 10
1.891333
 20
-2.900417
 30
0.0
 11
2.182167
 21
-2.808917
 31
0.0
  0
LINE
  8
3
  6
CONTINUOUS
 62
   241
  5
3E6
 10
2.251833
 20
-2.649167
 30
0.0
 11
2.51125
 21
-2.56725
 31
0.0
  0
ENDBLK
  8
3
  6
CONTINUOUS
 62
   241
  5
3E7
  0
BLOCK
  8
3
  6
CONTINUOUS
 62
   241
  5
942
  2
ARWHD
 70
     0
 10
0.0
 20
0.0
 30
0.0
  3
ARWHD
  0
LINE
  8
3
  6
CONTINUOUS
 62
   241
  5
943
 10
0.0
 20
0.0
 30
0.0
 11
-0.01
 21
0.0025
 31
0.0
  0
LINE
  8
3
  6
CONTINUOUS
 62
   241
  5
944
 10
-0.01
 20
0.0025
 30
0.0
 11
-0.0075
 21
0.0
 31
0.0
  0
LINE
  8
3
  6
CONTINUOUS
 62
   241
  5
945
 10
-0.0075
 20
0.0
 30
0.0
 11
-0.01
 21
-0.002583
 31
0.0
  0
LINE
  8
3
  6
CONTINUOUS
 62
   241
  5
946
 10
-0.01
 20
-0.002583
 30
0.0
 11
0.0
 21
0.0
 31
0.0
  0
ENDBLK
  8
3
  6
CONTINUOUS
 62
   241
  5
947
  0
BLOCK
  8
1
  6
CONTINUOUS
 62
     7
  5
9A6
  2
ARROW2
 70
     0
 10
0.0
 20
0.0
 30
0.0
  3
ARROW2
  0
SOLID
  8
1
  6
CONTINUOUS
 62
     7
  5
9A7
 10
0.0
 20
0.0
 30
0.0
 11
-0.150083
 21
0.025
 31
0.0
 12
-0.150083
 22
-0.025083
 32
0.0
 13
-0.12
 23
0.0
 33
0.0
210
0.0
220
0.0
230
1.0
  0
ENDBLK
  8
1
  6
CONTINUOUS
 62
     7
  5
9A8
  0
ENDSEC
  0
SECTION
  2
ENTITIES
  0
TEXT
  8
3
  6
CONTINUOUS
 62
   241
  5
2A
 10
13161.71625
 20
3399.745667
 30
0.0
 40
0.293
  1
ELEVATION
  7
txt
 11
13161.71625
 21
3399.892167
 31
0.0
210
0.0
220
0.0
230
1.0
 73
     2
  0
LINE
  8
3
  6
CONTINUOUS
 62
   241
  5
2B
 10
13165.68775
 20
3402.804167
 30
0.0
 11
13165.865917
 21
3403.052
 31
0.0
  0
LINE
  8
3
  6
CONTINUOUS
 62
   241
  5
2C
 10
13165.840417
 20
3402.804167
 30
0.0
 11
13166.018583
 21
3403.052
 31
0.0
  0
LINE
  8
3
  6
CONTINUOUS
 62
   241
  5
2D
 10
13165.992917
 20
3402.804167
 30
0.0
 11
13166.171167
 21
3403.052
 31
0.0
  0
LINE
  8
3
  6
CONTINUOUS
 62
   241
  5
2E
 10
13166.311
 20
3402.837167
 30
0.0
 11
13166.129083
 21
3402.993417
 31
0.0
  0
LINE
  8
3
  6
CONTINUOUS
 62
   241
  5
2F
 10
13166.400167
 20
3402.96175
 30
0.0
 11
13166.28475
 21
3403.060667
 31
0.0
  0
LINE
  8
3
  6
CONTINUOUS
 62
   241
  5
30
 10
13166.287083
 20
3402.804167
 30
0.0
 11
13166.4715
 21
3403.060667
 31
0.0
  0
LINE
  8
3
  6
CONTINUOUS
 62
   241
  5
31
 10
13166.43975
 20
3402.804167
 30
0.0
 11
13166.624167
 21
3403.060667
 31
0.0
  0
LINE
  8
3
  6
CONTINUOUS
 62
   241
  5
32
 10
13152.557917
 20
3402.684167
 30
0.0
 11
13152.557917
 21
3404.192167
 31
0.0
  0
POLYLINE
  8
3
  6
CONTINUOUS
 62
   241
  5
33
 66
     1
 10
0.0
 20
0.0
 30
0.0
210
0.0
220
0.0
230
1.0
  0
VERTEX
  8
3
  6
CONTINUOUS
 62
   241
  5
34
 10
13153.655531
 20
3404.465778
 30
0.0
 42
0.071267
  0
VERTEX
  8
3
  6
CONTINUOUS
 62
   241
  5
35
 10
13153.654829
 20
3404.470626
 30
0.0
 42
0.065729
  0
VERTEX
  8
3
  6
CONTINUOUS
 62
   241
  5
36
 10
13153.65275
 20
3404.475288
 30
0.0
 42
0.057443
  0
VERTEX
  8
3
  6
CONTINUOUS
 62
   241
  5
37
 10
13153.649372
 20
3404.479584
 30
0.0
 42
0.049287
  0
VERTEX
  8
3
  6
CONTINUOUS
 62
   241
  5
38
 10
13153.644827
 20
3404.48335
 30
0.0
 42
0.042701
  0
VERTEX
  8
3
  6
CONTINUOUS
 62
   241
  5
39
 10
13153.639289
 20
3404.486441
 30
0.0
 42
0.037998
  0
VERTEX
  8
3
  6
CONTINUOUS
 62
   241
  5
3A
 10
13153.63297
 20
3404.488737
 30
0.0
 42
0.03504
  0
VERTEX
  8
3
  6
CONTINUOUS
 62
   241
  5
3B
 10
13153.626114
 20
3404.490151
 30
0.0
 42
0.033623
  0
VERTEX
  8
3
  6
CONTINUOUS
 62
   241
  5
3C
 10
13153.618985
 20
3404.490629
 30
0.0
 42
0.033623
  0
VERTEX
  8
3
  6
CONTINUOUS
 62
   241
  5
3D
 10
13153.611855
 20
3404.490151
 30
0.0
 42
0.03504
  0
VERTEX
  8
3
  6
CONTINUOUS
 62
   241
  5
3E
 10
13153.604999
 20
3404.488737
 30
0.0
 42
0.037998
  0
VERTEX
  8
3
  6
CONTINUOUS
 62
   241
  5
3F
 10
13153.59868
 20
3404.486441
 30
0.0
 42
0.042701
  0
VERTEX
  8
3
  6
CONTINUOUS
 62
   241
  5
40
 10
13153.593142
 20
3404.48335
 30
0.0
 42
0.049287
  0
VERTEX
  8
3
  6
CONTINUOUS
 62
   241
  5
41
 10
13153.588597
 20
3404.479584
 30
0.0
 42
0.057443
  0
VERTEX
  8
3
  6
CONTINUOUS
 62
   241
  5
42
 10
13153.58522
 20
3404.475288
 30
0.0
 42
0.065729
  0
VERTEX
  8
3
  6
CONTINUOUS
 62
   241
  5
43
 10
13153.58314
 20
3404.470626
 30
0.0
 42
0.071267
  0
VERTEX
  8
3
  6
CONTINUOUS
 62
   241
  5
44
 10
13153.582438
 20
3404.465778
 30
0.0
 42
0.071267
  0
SEQEND
  8
3
  6
CONTINUOUS
 62
   241
  5
45
  0
POLYLINE
  8
3
  6
CONTINUOUS
 62
   241
  5
46
 66
     1
 10
0.0
 20
0.0
 30
0.0
210
0.0
220
0.0
230
1.0
  0
VERTEX
  8
3
  6
CONTINUOUS
 62
   241
  5
47
 10
13153.582438
 20
3404.465778
 30
0.0
 42
0.107797
  0
VERTEX
  8
3
  6
CONTINUOUS
 62
   241
  5
48
 10
13153.58314
 20
3404.462681
 30
0.0
 42
0.083254
  0
VERTEX
  8
3
  6
CONTINUOUS
 62
   241
  5
49
 10
13153.58522
 20
3404.459704
 30
0.0
 42
0.058242
  0
VERTEX
  8
3
  6
CONTINUOUS
 62
   241
  5
4A
 10
13153.588597
 20
3404.45696
 30
0.0
 42
0.041681
  0
VERTEX
  8
3
  6
CONTINUOUS
 62
   241
  5
4B
 10
13153.593142
 20
3404.454555
 30
0.0
 42
0.03183
  0
VERTEX
  8
3
  6
CONTINUOUS
 62
   241
  5
4C
 10
13153.59868
 20
3404.452582
 30
0.0
 42
0.026114
  0
VERTEX
  8
3
  6
CONTINUOUS
 62
   241
  5
4D
 10
13153.604999
 20
3404.451115
 30
0.0
 42
0.022956
  0
VERTEX
  8
3
  6
CONTINUOUS
 62
   241
  5
4E
 10
13153.611855
 20
3404.450212
 30
0.0
 42
0.021545
  0
VERTEX
  8
3
  6
CONTINUOUS
 62
   241
  5
4F
 10
13153.618985
 20
3404.449907
 30
0.0
 42
0.021545
  0
VERTEX
  8
3
  6
CONTINUOUS
 62
   241
  5
50
 10
13153.626114
 20
3404.450212
 30
0.0
 42
0.022956
  0
VERTEX
  8
3
  6
CONTINUOUS
 62
   241
  5
51
 10
13153.63297
 20
3404.451115
 30
0.0
 42
0.026114
  0
VERTEX
  8
3
  6
CONTINUOUS
 62
   241
  5
52
 10
13153.639289
 20
3404.452582
 30
0.0
 42
0.03183
  0
VERTEX
  8
3
  6
CONTINUOUS
 62
   241
  5
53
 10
13153.644827
 20
3404.454555
 30
0.0
 42
0.041681
  0
VERTEX
  8
3
  6
CONTINUOUS
 62
   241
  5
54
 10
13153.649372
 20
3404.45696
 30
0.0
 42
0.058242
  0
VERTEX
  8
3
  6
CONTINUOUS
 62
   241
  5
55
 10
13153.65275
 20
3404.459704
 30
0.0
 42
0.083254
  0
VERTEX
  8
3
  6
CONTINUOUS
 62
   241
  5
56
 10
13153.654829
 20
3404.462681
 30
0.0
 42
0.107797
  0
VERTEX
  8
3
  6
CONTINUOUS
 62
   241
  5
57
 10
13153.655531
 20
3404.465778
 30
0.0
 42
0.107797
  0
SEQEND
  8
3
  6
CONTINUOUS
 62
   241
  5
58
  0
POLYLINE
  8
3
  6
CONTINUOUS
 62
   241
  5
59
 66
     1
 10
0.0
 20
0.0
 30
0.0
210
0.0
220
0.0
230
1.0
  0
VERTEX
  8
3
  6
CONTINUOUS
 62
   241
  5
5A
 10
13153.655531
 20
3404.308672
 30
0.0
 42
0.105926
  0
VERTEX
  8
3
  6
CONTINUOUS
 62
   241
  5
5B
 10
13153.654829
 20
3404.31183
 30
0.0
 42
0.082645
  0
VERTEX
  8
3
  6
CONTINUOUS
 62
   241
  5
5C
 10
13153.65275
 20
3404.314866
 30
0.0
 42
0.058441
  0
VERTEX
  8
3
  6
CONTINUOUS
 62
   241
  5
5D
 10
13153.649372
 20
3404.317664
 30
0.0
 42
0.042129
  0
VERTEX
  8
3
  6
CONTINUOUS
 62
   241
  5
5E
 10
13153.644827
 20
3404.320117
 30
0.0
 42
0.032313
  0
VERTEX
  8
3
  6
CONTINUOUS
 62
   241
  5
5F
 10
13153.639289
 20
3404.32213
 30
0.0
 42
0.026577
  0
VERTEX
  8
3
  6
CONTINUOUS
 62
   241
  5
60
 10
13153.63297
 20
3404.323626
 30
0.0
 42
0.023395
  0
VERTEX
  8
3
  6
CONTINUOUS
 62
   241
  5
61
 10
13153.626114
 20
3404.324547
 30
0.0
 42
0.021971
  0
VERTEX
  8
3
  6
CONTINUOUS
 62
   241
  5
62
 10
13153.618985
 20
3404.324858
 30
0.0
 42
0.021971
  0
VERTEX
  8
3
  6
CONTINUOUS
 62
   241
  5
63
 10
13153.611855
 20
3404.324547
 30
0.0
 42
0.023395
  0
VERTEX
  8
3
  6
CONTINUOUS
 62
   241
  5
64
 10
13153.604999
 20
3404.323626
 30
0.0
 42
0.026577
  0
VERTEX
  8
3
  6
CONTINUOUS
 62
   241
  5
65
 10
13153.59868
 20
3404.32213
 30
0.0
 42
0.032313
  0
VERTEX
  8
3
  6
CONTINUOUS
 62
   241
  5
66
 10
13153.593142
 20
3404.320117
 30
0.0
 42
0.042129
  0
VERTEX
  8
3
  6
CONTINUOUS
 62
   241
  5
67
 10
13153.588597
 20
3404.317664
 30
0.0
 42
0.058441
  0
VERTEX
  8
3
  6
CONTINUOUS
 62
   241
  5
68
 10
13153.58522
 20
3404.314866
 30
0.0
 42
0.082645
  0
VERTEX
  8
3
  6
CONTINUOUS
 62
   241
  5
69
 10
13153.58314
 20
3404.31183
 30
0.0
 42
0.105926
  0
VERTEX
  8
3
  6
CONTINUOUS
 62
   241
  5
6A
 10
13153.582438
 20
3404.308672
 30
0.0
 42
0.105926
  0
SEQEND
  8
3
  6
CONTINUOUS
 62
   241
  5
6B
  0
POLYLINE
  8
3
  6
CONTINUOUS
 62
   241
  5
6C
 66
     1
 10
0.0
 20
0.0
 30
0.0
210
0.0
220
0.0
230
1.0
  0
VERTEX
  8
3
  6
CONTINUOUS
 62
   241
  5
6D
 10
13153.582438
 20
3404.308672
 30
0.0
 42
0.069642
  0
VERTEX
  8
3
  6
CONTINUOUS
 62
   241
  5
6E
 10
13153.58314
 20
3404.303705
 30
0.0
 42
0.064663
  0
VERTEX
  8
3
  6
CONTINUOUS
 62
   241
  5
6F
 10
13153.58522
 20
3404.298928
 30
0.0
 42
0.05709
  0
VERTEX
  8
3
  6
CONTINUOUS
 62
   241
  5
70
 10
13153.588597
 20
3404.294526
 30
0.0
 42
0.049486
  0
VERTEX
  8
3
  6
CONTINUOUS
 62
   241
  5
71
 10
13153.593142
 20
3404.290668
 30
0.0
 42
0.043232
  0
VERTEX
  8
3
  6
CONTINUOUS
 62
   241
  5
72
 10
13153.59868
 20
3404.287502
 30
0.0
 42
0.038702
  0
VERTEX
  8
3
  6
CONTINUOUS
 62
   241
  5
73
 10
13153.604999
 20
3404.285149
 30
0.0
 42
0.035825
  0
VERTEX
  8
3
  6
CONTINUOUS
 62
   241
  5
74
 10
13153.611855
 20
3404.2837
 30
0.0
 42
0.034439
  0
VERTEX
  8
3
  6
CONTINUOUS
 62
   241
  5
75
 10
13153.618985
 20
3404.283211
 30
0.0
 42
0.034439
  0
VERTEX
  8
3
  6
CONTINUOUS
 62
   241
  5
76
 10
13153.626114
 20
3404.2837
 30
0.0
 42
0.035825
  0
VERTEX
  8
3
  6
CONTINUOUS
 62
   241
  5
77
 10
13153.63297
 20
3404.285149
 30
0.0
 42
0.038702
  0
VERTEX
  8
3
  6
CONTINUOUS
 62
   241
  5
78
 10
13153.639289
 20
3404.287502
 30
0.0
 42
0.043232
  0
VERTEX
  8
3
  6
CONTINUOUS
 62
   241
  5
79
 10
13153.644827
 20
3404.290668
 30
0.0
 42
0.049486
  0
VERTEX
  8
3
  6
CONTINUOUS
 62
   241
  5
7A
 10
13153.649372
 20
3404.294526
 30
0.0
 42
0.05709
  0
VERTEX
  8
3
  6
CONTINUOUS
 62
   241
  5
7B
 10
13153.65275
 20
3404.298928
 30
0.0
 42
0.064663
  0
VERTEX
  8
3
  6
CONTINUOUS
 62
   241
  5
7C
 10
13153.654829
 20
3404.303705
 30
0.0
 42
0.069642
  0
VERTEX
  8
3
  6
CONTINUOUS
 62
   241
  5
7D
 10
13153.655531
 20
3404.308672
 30
0.0
 42
0.069642
  0
SEQEND
  8
3
  6
CONTINUOUS
 62
   241
  5
7E
  0
POLYLINE
  8
3
  6
CONTINUOUS
 62
   241
  5
7F
 66
     1
 10
0.0
 20
0.0
 30
0.0
210
0.0
220
0.0
230
1.0
  0
VERTEX
  8
3
  6
CONTINUOUS
 62
   241
  5
80
 10
13153.655531
 20
3403.921728
 30
0.0
 42
-0.071267
  0
VERTEX
  8
3
  6
CONTINUOUS
 62
   241
  5
81
 10
13153.654829
 20
3403.91688
 30
0.0
 42
-0.065729
  0
VERTEX
  8
3
  6
CONTINUOUS
 62
   241
  5
82
 10
13153.65275
 20
3403.912218
 30
0.0
 42
-0.057443
  0
VERTEX
  8
3
  6
CONTINUOUS
 62
   241
  5
83
 10
13153.649372
 20
3403.907921
 30
0.0
 42
-0.049287
  0
VERTEX
  8
3
  6
CONTINUOUS
 62
   241
  5
84
 10
13153.644827
 20
3403.904156
 30
0.0
 42
-0.042701
  0
VERTEX
  8
3
  6
CONTINUOUS
 62
   241
  5
85
 10
13153.639289
 20
3403.901065
 30
0.0
 42
-0.037998
  0
VERTEX
  8
3
  6
CONTINUOUS
 62
   241
  5
86
 10
13153.63297
 20
3403.898769
 30
0.0
 42
-0.03504
  0
VERTEX
  8
3
  6
CONTINUOUS
 62
   241
  5
87
 10
13153.626114
 20
3403.897354
 30
0.0
 42
-0.033623
  0
VERTEX
  8
3
  6
CONTINUOUS
 62
   241
  5
88
 10
13153.618985
 20
3403.896877
 30
0.0
 42
-0.033623
  0
VERTEX
  8
3
  6
CONTINUOUS
 62
   241
  5
89
 10
13153.611855
 20
3403.897354
 30
0.0
 42
-0.03504
  0
VERTEX
  8
3
  6
CONTINUOUS
 62
   241
  5
8A
 10
13153.604999
 20
3403.898769
 30
0.0
 42
-0.037998
  0
VERTEX
  8
3
  6
CONTINUOUS
 62
   241
  5
8B
 10
13153.59868
 20
3403.901065
 30
0.0
 42
-0.042701
  0
VERTEX
  8
3
  6
CONTINUOUS
 62
   241
  5
8C
 10
13153.593142
 20
3403.904156
 30
0.0
 42
-0.049287
  0
VERTEX
  8
3
  6
CONTINUOUS
 62
   241
  5
8D
 10
13153.588597
 20
3403.907921
 30
0.0
 42
-0.057443
  0
VERTEX
  8
3
  6
CONTINUOUS
 62
   241
  5
8E
 10
13153.58522
 20
3403.912218
 30
0.0
 42
-0.065729
  0
VERTEX
  8
3
  6
CONTINUOUS
 62
   241
  5
8F
 10
13153.58314
 20
3403.91688
 30
0.0
 42
-0.071267
  0
VERTEX
  8
3
  6
CONTINUOUS
 62
   241
  5
90
 10
13153.582438
 20
3403.921728
 30
0.0
 42
-0.071267
  0
SEQEND
  8
3
  6
CONTINUOUS
 62
   241
  5
91
  0
POLYLINE
  8
3
  6
CONTINUOUS
 62
   241
  5
92
 66
     1
 10
0.0
 20
0.0
 30
0.0
210
0.0
220
0.0
230
1.0
  0
VERTEX
  8
3
  6
CONTINUOUS
 62
   241
  5
93
 10
13153.582438
 20
3403.921728
 30
0.0
 42
-0.107797
  0
VERTEX
  8
3
  6
CONTINUOUS
 62
   241
  5
94
 10
13153.58314
 20
3403.924824
 30
0.0
 42
-0.083254
  0
VERTEX
  8
3
  6
CONTINUOUS
 62
   241
  5
95
 10
13153.58522
 20
3403.927801
 30
0.0
 42
-0.058242
  0
VERTEX
  8
3
  6
CONTINUOUS
 62
   241
  5
96
 10
13153.588597
 20
3403.930545
 30
0.0
 42
-0.041681
  0
VERTEX
  8
3
  6
CONTINUOUS
 62
   241
  5
97
 10
13153.593142
 20
3403.93295
 30
0.0
 42
-0.03183
  0
VERTEX
  8
3
  6
CONTINUOUS
 62
   241
  5
98
 10
13153.59868
 20
3403.934924
 30
0.0
 42
-0.026114
  0
VERTEX
  8
3
  6
CONTINUOUS
 62
   241
  5
99
 10
13153.604999
 20
3403.936391
 30
0.0
 42
-0.022956
  0
VERTEX
  8
3
  6
CONTINUOUS
 62
   241
  5
9A
 10
13153.611855
 20
3403.937294
 30
0.0
 42
-0.021545
  0
VERTEX
  8
3
  6
CONTINUOUS
 62
   241
  5
9B
 10
13153.618985
 20
3403.937599
 30
0.0
 42
-0.021545
  0
VERTEX
  8
3
  6
CONTINUOUS
 62
   241
  5
9C
 10
13153.626114
 20
3403.937294
 30
0.0
 42
-0.022956
  0
VERTEX
  8
3
  6
CONTINUOUS
 62
   241
  5
9D
 10
13153.63297
 20
3403.936391
 30
0.0
 42
-0.026114
  0
VERTEX
  8
3
  6
CONTINUOUS
 62
   241
  5
9E
 10
13153.639289
 20
3403.934924
 30
0.0
 42
-0.03183
  0
VERTEX
  8
3
  6
CONTINUOUS
 62
   241
  5
9F
 10
13153.644827
 20
3403.93295
 30
0.0
 42
-0.041681
  0
VERTEX
  8
3
  6
CONTINUOUS
 62
   241
  5
A0
 10
13153.649372
 20
3403.930545
 30
0.0
 42
-0.058242
  0
VERTEX
  8
3
  6
CONTINUOUS
 62
   241
  5
A1
 10
13153.65275
 20
3403.927801
 30
0.0
 42
-0.083254
  0
VERTEX
  8
3
  6
CONTINUOUS
 62
   241
  5
A2
 10
13153.654829
 20
3403.924824
 30
0.0
 42
-0.107797
  0
VERTEX
  8
3
  6
CONTINUOUS
 62
   241
  5
A3
 10
13153.655531
 20
3403.921728
 30
0.0
 42
-0.107797
  0
SEQEND
  8
3
  6
CONTINUOUS
 62
   241
  5
A4
  0
POLYLINE
  8
3
  6
CONTINUOUS
 62
   241
  5
A5
 66
     1
 10
0.0
 20
0.0
 30
0.0
210
0.0
220
0.0
230
1.0
  0
VERTEX
  8
3
  6
CONTINUOUS
 62
   241
  5
A6
 10
13153.655531
 20
3404.078834
 30
0.0
 42
-0.105926
  0
VERTEX
  8
3
  6
CONTINUOUS
 62
   241
  5
A7
 10
13153.654829
 20
3404.075676
 30
0.0
 42
-0.082645
  0
VERTEX
  8
3
  6
CONTINUOUS
 62
   241
  5
A8
 10
13153.65275
 20
3404.072639
 30
0.0
 42
-0.058441
  0
VERTEX
  8
3
  6
CONTINUOUS
 62
   241
  5
A9
 10
13153.649372
 20
3404.069841
 30
0.0
 42
-0.042129
  0
VERTEX
  8
3
  6
CONTINUOUS
 62
   241
  5
AA
 10
13153.644827
 20
3404.067388
 30
0.0
 42
-0.032313
  0
VERTEX
  8
3
  6
CONTINUOUS
 62
   241
  5
AB
 10
13153.639289
 20
3404.065375
 30
0.0
 42
-0.026577
  0
VERTEX
  8
3
  6
CONTINUOUS
 62
   241
  5
AC
 10
13153.63297
 20
3404.06388
 30
0.0
 42
-0.023395
  0
VERTEX
  8
3
  6
CONTINUOUS
 62
   241
  5
AD
 10
13153.626114
 20
3404.062959
 30
0.0
 42
-0.021971
  0
VERTEX
  8
3
  6
CONTINUOUS
 62
   241
  5
AE
 10
13153.618985
 20
3404.062648
 30
0.0
 42
-0.021971
  0
VERTEX
  8
3
  6
CONTINUOUS
 62
   241
  5
AF
 10
13153.611855
 20
3404.062959
 30
0.0
 42
-0.023395
  0
VERTEX
  8
3
  6
CONTINUOUS
 62
   241
  5
B0
 10
13153.604999
 20
3404.06388
 30
0.0
 42
-0.026577
  0
VERTEX
  8
3
  6
CONTINUOUS
 62
   241
  5
B1
 10
13153.59868
 20
3404.065375
 30
0.0
 42
-0.032313
  0
VERTEX
  8
3
  6
CONTINUOUS
 62
   241
  5
B2
 10
13153.593142
 20
3404.067388
 30
0.0
 42
-0.042129
  0
VERTEX
  8
3
  6
CONTINUOUS
 62
   241
  5
B3
 10
13153.588597
 20
3404.069841
 30
0.0
 42
-0.058441
  0
VERTEX
  8
3
  6
CONTINUOUS
 62
   241
  5
B4
 10
13153.58522
 20
3404.072639
 30
0.0
 42
-0.082645
  0
VERTEX
  8
3
  6
CONTINUOUS
 62
   241
  5
B5
 10
13153.58314
 20
3404.075676
 30
0.0
 42
-0.105926
  0
VERTEX
  8
3
  6
CONTINUOUS
 62
   241
  5
B6
 10
13153.582438
 20
3404.078834
 30
0.0
 42
-0.105926
  0
SEQEND
  8
3
  6
CONTINUOUS
 62
   241
  5
B7
  0
POLYLINE
  8
3
  6
CONTINUOUS
 62
   241
  5
B8
 66
     1
 10
0.0
 20
0.0
 30
0.0
210
0.0
220
0.0
230
1.0
  0
VERTEX
  8
3
  6
CONTINUOUS
 62
   241
  5
B9
 10
13153.582438
 20
3404.078834
 30
0.0
 42
-0.069642
  0
VERTEX
  8
3
  6
CONTINUOUS
 62
   241
  5
BA
 10
13153.58314
 20
3404.083801
 30
0.0
 42
-0.064663
  0
VERTEX
  8
3
  6
CONTINUOUS
 62
   241
  5
BB
 10
13153.58522
 20
3404.088577
 30
0.0
 42
-0.05709
  0
VERTEX
  8
3
  6
CONTINUOUS
 62
   241
  5
BC
 10
13153.588597
 20
3404.092979
 30
0.0
 42
-0.049486
  0
VERTEX
  8
3
  6
CONTINUOUS
 62
   241
  5
BD
 10
13153.593142
 20
3404.096837
 30
0.0
 42
-0.043232
  0
VERTEX
  8
3
  6
CONTINUOUS
 62
   241
  5
BE
 10
13153.59868
 20
3404.100004
 30
0.0
 42
-0.038702
  0
VERTEX
  8
3
  6
CONTINUOUS
 62
   241
  5
BF
 10
13153.604999
 20
3404.102357
 30
0.0
 42
-0.035825
  0
VERTEX
  8
3
  6
CONTINUOUS
 62
   241
  5
C0
 10
13153.611855
 20
3404.103806
 30
0.0
 42
-0.034439
  0
VERTEX
  8
3
  6
CONTINUOUS
 62
   241
  5
C1
 10
13153.618985
 20
3404.104295
 30
0.0
 42
-0.034439
  0
VERTEX
  8
3
  6
CONTINUOUS
 62
   241
  5
C2
 10
13153.626114
 20
3404.103806
 30
0.0
 42
-0.035825
  0
VERTEX
  8
3
  6
CONTINUOUS
 62
   241
  5
C3
 10
13153.63297
 20
3404.102357
 30
0.0
 42
-0.038702
  0
VERTEX
  8
3
  6
CONTINUOUS
 62
   241
  5
C4
 10
13153.639289
 20
3404.100004
 30
0.0
 42
-0.043232
  0
VERTEX
  8
3
  6
CONTINUOUS
 62
   241
  5
C5
 10
13153.644827
 20
3404.096837
 30
0.0
 42
-0.049486
  0
VERTEX
  8
3
  6
CONTINUOUS
 62
   241
  5
C6
 10
13153.649372
 20
3404.092979
 30
0.0
 42
-0.05709
  0
VERTEX
  8
3
  6
CONTINUOUS
 62
   241
  5
C7
 10
13153.65275
 20
3404.088577
 30
0.0
 42
-0.064663
  0
VERTEX
  8
3
  6
CONTINUOUS
 62
   241
  5
C8
 10
13153.654829
 20
3404.083801
 30
0.0
 42
-0.069642
  0
VERTEX
  8
3
  6
CONTINUOUS
 62
   241
  5
C9
 10
13153.655531
 20
3404.078834
 30
0.0
 42
-0.069642
  0
SEQEND
  8
3
  6
CONTINUOUS
 62
   241
  5
CA
  0
POLYLINE
  8
3
  6
CONTINUOUS
 62
   241
  5
CB
 66
     1
 10
0.0
 20
0.0
 30
0.0
210
0.0
220
0.0
230
1.0
  0
VERTEX
  8
3
  6
CONTINUOUS
 62
   241
  5
CC
 10
13154.087769
 20
3404.465778
 30
0.0
 42
0.071267
  0
VERTEX
  8
3
  6
CONTINUOUS
 62
   241
  5
CD
 10
13154.087067
 20
3404.470626
 30
0.0
 42
0.065729
  0
VERTEX
  8
3
  6
CONTINUOUS
 62
   241
  5
CE
 10
13154.084987
 20
3404.475288
 30
0.0
 42
0.057443
  0
VERTEX
  8
3
  6
CONTINUOUS
 62
   241
  5
CF
 10
13154.08161
 20
3404.479584
 30
0.0
 42
0.049287
  0
VERTEX
  8
3
  6
CONTINUOUS
 62
   241
  5
D0
 10
13154.077065
 20
3404.48335
 30
0.0
 42
0.042701
  0
VERTEX
  8
3
  6
CONTINUOUS
 62
   241
  5
D1
 10
13154.071526
 20
3404.486441
 30
0.0
 42
0.037998
  0
VERTEX
  8
3
  6
CONTINUOUS
 62
   241
  5
D2
 10
13154.065208
 20
3404.488737
 30
0.0
 42
0.03504
  0
VERTEX
  8
3
  6
CONTINUOUS
 62
   241
  5
D3
 10
13154.058352
 20
3404.490151
 30
0.0
 42
0.033623
  0
VERTEX
  8
3
  6
CONTINUOUS
 62
   241
  5
D4
 10
13154.051222
 20
3404.490629
 30
0.0
 42
0.033623
  0
VERTEX
  8
3
  6
CONTINUOUS
 62
   241
  5
D5
 10
13154.044092
 20
3404.490151
 30
0.0
 42
0.03504
  0
VERTEX
  8
3
  6
CONTINUOUS
 62
   241
  5
D6
 10
13154.037236
 20
3404.488737
 30
0.0
 42
0.037998
  0
VERTEX
  8
3
  6
CONTINUOUS
 62
   241
  5
D7
 10
13154.030918
 20
3404.486441
 30
0.0
 42
0.042701
  0
VERTEX
  8
3
  6
CONTINUOUS
 62
   241
  5
D8
 10
13154.025379
 20
3404.48335
 30
0.0
 42
0.049287
  0
VERTEX
  8
3
  6
CONTINUOUS
 62
   241
  5
D9
 10
13154.020834
 20
3404.479584
 30
0.0
 42
0.057443
  0
VERTEX
  8
3
  6
CONTINUOUS
 62
   241
  5
DA
 10
13154.017457
 20
3404.475288
 30
0.0
 42
0.065729
  0
VERTEX
  8
3
  6
CONTINUOUS
 62
   241
  5
DB
 10
13154.015377
 20
3404.470626
 30
0.0
 42
0.071267
  0
VERTEX
  8
3
  6
CONTINUOUS
 62
   241
  5
DC
 10
13154.014675
 20
3404.465778
 30
0.0
 42
0.071267
  0
SEQEND
  8
3
  6
CONTINUOUS
 62
   241
  5
DD
  0
POLYLINE
  8
3
  6
CONTINUOUS
 62
   241
  5
DE
 66
     1
 10
0.0
 20
0.0
 30
0.0
210
0.0
220
0.0
230
1.0
  0
VERTEX
  8
3
  6
CONTINUOUS
 62
   241
  5
DF
 10
13154.014675
 20
3404.465778
 30
0.0
 42
0.107797
  0
VERTEX
  8
3
  6
CONTINUOUS
 62
   241
  5
E0
 10
13154.015377
 20
3404.462681
 30
0.0
 42
0.083254
  0
VERTEX
  8
3
  6
CONTINUOUS
 62
   241
  5
E1
 10
13154.017457
 20
3404.459704
 30
0.0
 42
0.058242
  0
VERTEX
  8
3
  6
CONTINUOUS
 62
   241
  5
E2
 10
13154.020834
 20
3404.45696
 30
0.0
 42
0.041681
  0
VERTEX
  8
3
  6
CONTINUOUS
 62
   241
  5
E3
 10
13154.025379
 20
3404.454555
 30
0.0
 42
0.03183
  0
VERTEX
  8
3
  6
CONTINUOUS
 62
   241
  5
E4
 10
13154.030918
 20
3404.452582
 30
0.0
 42
0.026114
  0
VERTEX
  8
3
  6
CONTINUOUS
 62
   241
  5
E5
 10
13154.037236
 20
3404.451115
 30
0.0
 42
0.022956
  0
VERTEX
  8
3
  6
CONTINUOUS
 62
   241
  5
E6
 10
13154.044092
 20
3404.450212
 30
0.0
 42
0.021545
  0
VERTEX
  8
3
  6
CONTINUOUS
 62
   241
  5
E7
 10
13154.051222
 20
3404.449907
 30
0.0
 42
0.021545
  0
VERTEX
  8
3
  6
CONTINUOUS
 62
   241
  5
E8
 10
13154.058352
 20
3404.450212
 30
0.0
 42
0.022956
  0
VERTEX
  8
3
  6
CONTINUOUS
 62
   241
  5
E9
 10
13154.065208
 20
3404.451115
 30
0.0
 42
0.026114
  0
VERTEX
  8
3
  6
CONTINUOUS
 62
   241
  5
EA
 10
13154.071526
 20
3404.452582
 30
0.0
 42
0.03183
  0
VERTEX
  8
3
  6
CONTINUOUS
 62
   241
  5
EB
 10
13154.077065
 20
3404.454555
 30
0.0
 42
0.041681
  0
VERTEX
  8
3
  6
CONTINUOUS
 62
   241
  5
EC
 10
13154.08161
 20
3404.45696
 30
0.0
 42
0.058242
  0
VERTEX
  8
3
  6
CONTINUOUS
 62
   241
  5
ED
 10
13154.084987
 20
3404.459704
 30
0.0
 42
0.083254
  0
VERTEX
  8
3
  6
CONTINUOUS
 62
   241
  5
EE
 10
13154.087067
 20
3404.462681
 30
0.0
 42
0.107797
  0
VERTEX
  8
3
  6
CONTINUOUS
 62
   241
  5
EF
 10
13154.087769
 20
3404.465778
 30
0.0
 42
0.107797
  0
SEQEND
  8
3
  6
CONTINUOUS
 62
   241
  5
F0
  0
POLYLINE
  8
3
  6
CONTINUOUS
 62
   241
  5
F1
 66
     1
 10
0.0
 20
0.0
 30
0.0
210
0.0
220
0.0
230
1.0
  0
VERTEX
  8
3
  6
CONTINUOUS
 62
   241
  5
F2
 10
13154.087769
 20
3403.921728
 30
0.0
 42
-0.071267
  0
VERTEX
  8
3
  6
CONTINUOUS
 62
   241
  5
F3
 10
13154.087067
 20
3403.91688
 30
0.0
 42
-0.065729
  0
VERTEX
  8
3
  6
CONTINUOUS
 62
   241
  5
F4
 10
13154.084987
 20
3403.912218
 30
0.0
 42
-0.057443
  0
VERTEX
  8
3
  6
CONTINUOUS
 62
   241
  5
F5
 10
13154.08161
 20
3403.907921
 30
0.0
 42
-0.049287
  0
VERTEX
  8
3
  6
CONTINUOUS
 62
   241
  5
F6
 10
13154.077065
 20
3403.904156
 30
0.0
 42
-0.042701
  0
VERTEX
  8
3
  6
CONTINUOUS
 62
   241
  5
F7
 10
13154.071526
 20
3403.901065
 30
0.0
 42
-0.037998
  0
VERTEX
  8
3
  6
CONTINUOUS
 62
   241
  5
F8
 10
13154.065208
 20
3403.898769
 30
0.0
 42
-0.03504
  0
VERTEX
  8
3
  6
CONTINUOUS
 62
   241
  5
F9
 10
13154.058352
 20
3403.897354
 30
0.0
 42
-0.033623
  0
VERTEX
  8
3
  6
CONTINUOUS
 62
   241
  5
FA
 10
13154.051222
 20
3403.896877
 30
0.0
 42
-0.033623
  0
VERTEX
  8
3
  6
CONTINUOUS
 62
   241
  5
FB
 10
13154.044092
 20
3403.897354
 30
0.0
 42
-0.03504
  0
VERTEX
  8
3
  6
CONTINUOUS
 62
   241
  5
FC
 10
13154.037236
 20
3403.898769
 30
0.0
 42
-0.037998
  0
VERTEX
  8
3
  6
CONTINUOUS
 62
   241
  5
FD
 10
13154.030918
 20
3403.901065
 30
0.0
 42
-0.042701
  0
VERTEX
  8
3
  6
CONTINUOUS
 62
   241
  5
FE
 10
13154.025379
 20
3403.904156
 30
0.0
 42
-0.049287
  0
VERTEX
  8
3
  6
CONTINUOUS
 62
   241
  5
FF
 10
13154.020834
 20
3403.907921
 30
0.0
 42
-0.057443
  0
VERTEX
  8
3
  6
CONTINUOUS
 62
   241
  5
100
 10
13154.017457
 20
3403.912218
 30
0.0
 42
-0.065729
  0
VERTEX
  8
3
  6
CONTINUOUS
 62
   241
  5
101
 10
13154.015377
 20
3403.91688
 30
0.0
 42
-0.071267
  0
VERTEX
  8
3
  6
CONTINUOUS
 62
   241
  5
102
 10
13154.014675
 20
3403.921728
 30
0.0
 42
-0.071267
  0
SEQEND
  8
3
  6
CONTINUOUS
 62
   241
  5
103
  0
POLYLINE
  8
3
  6
CONTINUOUS
 62
   241
  5
104
 66
     1
 10
0.0
 20
0.0
 30
0.0
210
0.0
220
0.0
230
1.0
  0
VERTEX
  8
3
  6
CONTINUOUS
 62
   241
  5
105
 10
13154.014675
 20
3403.921728
 30
0.0
 42
-0.107797
  0
VERTEX
  8
3
  6
CONTINUOUS
 62
   241
  5
106
 10
13154.015377
 20
3403.924824
 30
0.0
 42
-0.083254
  0
VERTEX
  8
3
  6
CONTINUOUS
 62
   241
  5
107
 10
13154.017457
 20
3403.927801
 30
0.0
 42
-0.058242
  0
VERTEX
  8
3
  6
CONTINUOUS
 62
   241
  5
108
 10
13154.020834
 20
3403.930545
 30
0.0
 42
-0.041681
  0
VERTEX
  8
3
  6
CONTINUOUS
 62
   241
  5
109
 10
13154.025379
 20
3403.93295
 30
0.0
 42
-0.03183
  0
VERTEX
  8
3
  6
CONTINUOUS
 62
   241
  5
10A
 10
13154.030918
 20
3403.934924
 30
0.0
 42
-0.026114
  0
VERTEX
  8
3
  6
CONTINUOUS
 62
   241
  5
10B
 10
13154.037236
 20
3403.936391
 30
0.0
 42
-0.022956
  0
VERTEX
  8
3
  6
CONTINUOUS
 62
   241
  5
10C
 10
13154.044092
 20
3403.937294
 30
0.0
 42
-0.021545
  0
VERTEX
  8
3
  6
CONTINUOUS
 62
   241
  5
10D
 10
13154.051222
 20
3403.937599
 30
0.0
 42
-0.021545
  0
VERTEX
  8
3
  6
CONTINUOUS
 62
   241
  5
10E
 10
13154.058352
 20
3403.937294
 30
0.0
 42
-0.022956
  0
VERTEX
  8
3
  6
CONTINUOUS
 62
   241
  5
10F
 10
13154.065208
 20
3403.936391
 30
0.0
 42
-0.026114
  0
VERTEX
  8
3
  6
CONTINUOUS
 62
   241
  5
110
 10
13154.071526
 20
3403.934924
 30
0.0
 42
-0.03183
  0
VERTEX
  8
3
  6
CONTINUOUS
 62
   241
  5
111
 10
13154.077065
 20
3403.93295
 30
0.0
 42
-0.041681
  0
VERTEX
  8
3
  6
CONTINUOUS
 62
   241
  5
112
 10
13154.08161
 20
3403.930545
 30
0.0
 42
-0.058242
  0
VERTEX
  8
3
  6
CONTINUOUS
 62
   241
  5
113
 10
13154.084987
 20
3403.927801
 30
0.0
 42
-0.083254
  0
VERTEX
  8
3
  6
CONTINUOUS
 62
   241
  5
114
 10
13154.087067
 20
3403.924824
 30
0.0
 42
-0.107797
  0
VERTEX
  8
3
  6
CONTINUOUS
 62
   241
  5
115
 10
13154.087769
 20
3403.921728
 30
0.0
 42
-0.107797
  0
SEQEND
  8
3
  6
CONTINUOUS
 62
   241
  5
116
  0
POLYLINE
  8
3
  6
CONTINUOUS
 62
   241
  5
117
 66
     1
 10
0.0
 20
0.0
 30
0.0
210
0.0
220
0.0
230
1.0
  0
VERTEX
  8
3
  6
CONTINUOUS
 62
   241
  5
118
 10
13154.087769
 20
3404.078834
 30
0.0
 42
-0.105926
  0
VERTEX
  8
3
  6
CONTINUOUS
 62
   241
  5
119
 10
13154.087067
 20
3404.075676
 30
0.0
 42
-0.082645
  0
VERTEX
  8
3
  6
CONTINUOUS
 62
   241
  5
11A
 10
13154.084987
 20
3404.072639
 30
0.0
 42
-0.058441
  0
VERTEX
  8
3
  6
CONTINUOUS
 62
   241
  5
11B
 10
13154.08161
 20
3404.069841
 30
0.0
 42
-0.042129
  0
VERTEX
  8
3
  6
CONTINUOUS
 62
   241
  5
11C
 10
13154.077065
 20
3404.067388
 30
0.0
 42
-0.032313
  0
VERTEX
  8
3
  6
CONTINUOUS
 62
   241
  5
11D
 10
13154.071526
 20
3404.065375
 30
0.0
 42
-0.026577
  0
VERTEX
  8
3
  6
CONTINUOUS
 62
   241
  5
11E
 10
13154.065208
 20
3404.06388
 30
0.0
 42
-0.023395
  0
VERTEX
  8
3
  6
CONTINUOUS
 62
   241
  5
11F
 10
13154.058352
 20
3404.062959
 30
0.0
 42
-0.021971
  0
VERTEX
  8
3
  6
CONTINUOUS
 62
   241
  5
120
 10
13154.051222
 20
3404.062648
 30
0.0
 42
-0.021971
  0
VERTEX
  8
3
  6
CONTINUOUS
 62
   241
  5
121
 10
13154.044092
 20
3404.062959
 30
0.0
 42
-0.023395
  0
VERTEX
  8
3
  6
CONTINUOUS
 62
   241
  5
122
 10
13154.037236
 20
3404.06388
 30
0.0
 42
-0.026577
  0
VERTEX
  8
3
  6
CONTINUOUS
 62
   241
  5
123
 10
13154.030918
 20
3404.065375
 30
0.0
 42
-0.032313
  0
VERTEX
  8
3
  6
CONTINUOUS
 62
   241
  5
124
 10
13154.025379
 20
3404.067388
 30
0.0
 42
-0.042129
  0
VERTEX
  8
3
  6
CONTINUOUS
 62
   241
  5
125
 10
13154.020834
 20
3404.069841
 30
0.0
 42
-0.058441
  0
VERTEX
  8
3
  6
CONTINUOUS
 62
   241
  5
126
 10
13154.017457
 20
3404.072639
 30
0.0
 42
-0.082645
  0
VERTEX
  8
3
  6
CONTINUOUS
 62
   241
  5
127
 10
13154.015377
 20
3404.075676
 30
0.0
 42
-0.105926
  0
VERTEX
  8
3
  6
CONTINUOUS
 62
   241
  5
128
 10
13154.014675
 20
3404.078834
 30
0.0
 42
-0.105926
  0
SEQEND
  8
3
  6
CONTINUOUS
 62
   241
  5
129
  0
POLYLINE
  8
3
  6
CONTINUOUS
 62
   241
  5
12A
 66
     1
 10
0.0
 20
0.0
 30
0.0
210
0.0
220
0.0
230
1.0
  0
VERTEX
  8
3
  6
CONTINUOUS
 62
   241
  5
12B
 10
13154.014675
 20
3404.078834
 30
0.0
 42
-0.069642
  0
VERTEX
  8
3
  6
CONTINUOUS
 62
   241
  5
12C
 10
13154.015377
 20
3404.083801
 30
0.0
 42
-0.064663
  0
VERTEX
  8
3
  6
CONTINUOUS
 62
   241
  5
12D
 10
13154.017457
 20
3404.088577
 30
0.0
 42
-0.05709
  0
VERTEX
  8
3
  6
CONTINUOUS
 62
   241
  5
12E
 10
13154.020834
 20
3404.092979
 30
0.0
 42
-0.049486
  0
VERTEX
  8
3
  6
CONTINUOUS
 62
   241
  5
12F
 10
13154.025379
 20
3404.096837
 30
0.0
 42
-0.043232
  0
VERTEX
  8
3
  6
CONTINUOUS
 62
   241
  5
130
 10
13154.030918
 20
3404.100004
 30
0.0
 42
-0.038702
  0
VERTEX
  8
3
  6
CONTINUOUS
 62
   241
  5
131
 10
13154.037236
 20
3404.102357
 30
0.0
 42
-0.035825
  0
VERTEX
  8
3
  6
CONTINUOUS
 62
   241
  5
132
 10
13154.044092
 20
3404.103806
 30
0.0
 42
-0.034439
  0
VERTEX
  8
3
  6
CONTINUOUS
 62
   241
  5
133
 10
13154.051222
 20
3404.104295
 30
0.0
 42
-0.034439
  0
VERTEX
  8
3
  6
CONTINUOUS
 62
   241
  5
134
 10
13154.058352
 20
3404.103806
 30
0.0
 42
-0.035825
  0
VERTEX
  8
3
  6
CONTINUOUS
 62
   241
  5
135
 10
13154.065208
 20
3404.102357
 30
0.0
 42
-0.038702
  0
VERTEX
  8
3
  6
CONTINUOUS
 62
   241
  5
136
 10
13154.071526
 20
3404.100004
 30
0.0
 42
-0.043232
  0
VERTEX
  8
3
  6
CONTINUOUS
 62
   241
  5
137
 10
13154.077065
 20
3404.096837
 30
0.0
 42
-0.049486
  0
VERTEX
  8
3
  6
CONTINUOUS
 62
   241
  5
138
 10
13154.08161
 20
3404.092979
 30
0.0
 42
-0.05709
  0
VERTEX
  8
3
  6
CONTINUOUS
 62
   241
  5
139
 10
13154.084987
 20
3404.088577
 30
0.0
 42
-0.064663
  0
VERTEX
  8
3
  6
CONTINUOUS
 62
   241
  5
13A
 10
13154.087067
 20
3404.083801
 30
0.0
 42
-0.069642
  0
VERTEX
  8
3
  6
CONTINUOUS
 62
   241
  5
13B
 10
13154.087769
 20
3404.078834
 30
0.0
 42
-0.069642
  0
SEQEND
  8
3
  6
CONTINUOUS
 62
   241
  5
13C
  0
LINE
  8
3
  6
CONTINUOUS
 62
   241
  5
13D
 10
13159.395667
 20
3404.505583
 30
0.0
 11
13159.395667
 21
3404.543917
 31
0.0
  0
LINE
  8
3
  6
CONTINUOUS
 62
   241
  5
13E
 10
13159.395667
 20
3404.543917
 30
0.0
 11
13159.592833
 21
3404.543917
 31
0.0
  0
LINE
  8
3
  6
CONTINUOUS
 62
   241
  5
13F
 10
13160.355417
 20
3404.538583
 30
0.0
 11
13160.558583
 21
3404.538583
 31
0.0
  0
LINE
  8
3
  6
CONTINUOUS
 62
   241
  5
140
 10
13160.355417
 20
3404.538583
 30
0.0
 11
13160.558583
 21
3404.538583
 31
0.0
  0
LINE
  8
3
  6
CONTINUOUS
 62
   241
  5
141
 10
13160.355417
 20
3404.504833
 30
0.0
 11
13160.355417
 21
3404.538583
 31
0.0
  0
LINE
  8
3
  6
CONTINUOUS
 62
   241
  5
142
 10
13160.558583
 20
3404.504833
 30
0.0
 11
13160.558583
 21
3404.538583
 31
0.0
  0
LINE
  8
3
  6
CONTINUOUS
 62
   241
  5
143
 10
13159.592833
 20
3404.505583
 30
0.0
 11
13159.592833
 21
3404.543917
 31
0.0
  0
LINE
  8
3
  6
CONTINUOUS
 62
   241
  5
144
 10
13157.479417
 20
3404.504833
 30
0.0
 11
13157.479417
 21
3404.530583
 31
0.0
  0
LINE
  8
3
  6
CONTINUOUS
 62
   241
  5
145
 10
13157.682667
 20
3404.504833
 30
0.0
 11
13157.682667
 21
3404.530583
 31
0.0
  0
LINE
  8
3
  6
CONTINUOUS
 62
   241
  5
146
 10
13157.479417
 20
3404.530583
 30
0.0
 11
13157.682667
 21
3404.530583
 31
0.0
  0
LINE
  8
3
  6
CONTINUOUS
 62
   241
  5
147
 10
13158.42625
 20
3404.530583
 30
0.0
 11
13158.629417
 21
3404.530583
 31
0.0
  0
LINE
  8
3
  6
CONTINUOUS
 62
   241
  5
148
 10
13158.629417
 20
3404.504833
 30
0.0
 11
13158.629417
 21
3404.530583
 31
0.0
  0
LINE
  8
3
  6
CONTINUOUS
 62
   241
  5
149
 10
13158.42625
 20
3404.530583
 30
0.0
 11
13158.42625
 21
3404.504833
 31
0.0
  0
LINE
  8
3
  6
CONTINUOUS
 62
   241
  5
14A
 10
13163.2085
 20
3404.504833
 30
0.0
 11
13163.2085
 21
3404.543417
 31
0.0
  0
LINE
  8
3
  6
CONTINUOUS
 62
   241
  5
14B
 10
13163.2085
 20
3404.543417
 30
0.0
 11
13163.411833
 21
3404.543417
 31
0.0
  0
LINE
  8
3
  6
CONTINUOUS
 62
   241
  5
14C
 10
13163.411833
 20
3404.504833
 30
0.0
 11
13163.411833
 21
3404.543417
 31
0.0
  0
LINE
  8
3
  6
CONTINUOUS
 62
   241
  5
14D
 10
13161.314917
 20
3404.544583
 30
0.0
 11
13161.518167
 21
3404.544583
 31
0.0
  0
LINE
  8
3
  6
CONTINUOUS
 62
   241
  5
14E
 10
13161.518167
 20
3404.504833
 30
0.0
 11
13161.518167
 21
3404.544583
 31
0.0
  0
LINE
  8
3
  6
CONTINUOUS
 62
   241
  5
14F
 10
13161.314917
 20
3404.504833
 30
0.0
 11
13161.314917
 21
3404.544583
 31
0.0
  0
LINE
  8
3
  6
CONTINUOUS
 62
   241
  5
150
 10
13165.131583
 20
3404.504833
 30
0.0
 11
13165.131583
 21
3404.536667
 31
0.0
  0
LINE
  8
3
  6
CONTINUOUS
 62
   241
  5
151
 10
13165.334917
 20
3404.504833
 30
0.0
 11
13165.334917
 21
3404.536667
 31
0.0
  0
LINE
  8
3
  6
CONTINUOUS
 62
   241
  5
152
 10
13165.131583
 20
3404.536667
 30
0.0
 11
13165.334917
 21
3404.536667
 31
0.0
  0
LINE
  8
3
  6
CONTINUOUS
 62
   241
  5
153
 10
13154.20125
 20
3403.882333
 30
0.0
 11
13152.694083
 21
3403.882333
 31
0.0
  0
LINE
  8
3
  6
CONTINUOUS
 62
   241
  5
154
 10
13154.29825
 20
3404.50425
 30
0.0
 11
13152.6915
 21
3404.50425
 31
0.0
  0
LINE
  8
3
  6
CONTINUOUS
 62
   241
  5
155
 10
13152.675167
 20
3403.901333
 30
0.0
 11
13152.675167
 21
3404.486
 31
0.0
  0
ARC
  8
3
  6
CONTINUOUS
 62
   241
  5
156
 10
13152.694143
 20
3403.90121
 30
0.0
 40
0.019076
 50
180.0
 51
270.0
210
0.0
220
0.0
230
1.0
  0
ARC
  8
3
  6
CONTINUOUS
 62
   241
  5
157
 10
13152.694143
 20
3404.486194
 30
0.0
 40
0.019076
 50
90.0
 51
180.0
210
0.0
220
0.0
230
1.0
  0
POLYLINE
  8
3
  6
CONTINUOUS
 62
   241
  5
158
 66
     1
 10
0.0
 20
0.0
 30
0.0
210
0.0
220
0.0
230
1.0
  0
VERTEX
  8
3
  6
CONTINUOUS
 62
   241
  5
159
 10
13154.011949
 20
3403.921588
 30
0.0
 42
0.071267
  0
VERTEX
  8
3
  6
CONTINUOUS
 62
   241
  5
15A
 10
13154.012651
 20
3403.916738
 30
0.0
 42
0.065729
  0
VERTEX
  8
3
  6
CONTINUOUS
 62
   241
  5
15B
 10
13154.014732
 20
3403.912075
 30
0.0
 42
0.057443
  0
VERTEX
  8
3
  6
CONTINUOUS
 62
   241
  5
15C
 10
13154.01811
 20
3403.907777
 30
0.0
 42
0.049287
  0
VERTEX
  8
3
  6
CONTINUOUS
 62
   241
  5
15D
 10
13154.022657
 20
3403.90401
 30
0.0
 42
0.042701
  0
VERTEX
  8
3
  6
CONTINUOUS
 62
   241
  5
15E
 10
13154.028197
 20
3403.900918
 30
0.0
 42
0.037998
  0
VERTEX
  8
3
  6
CONTINUOUS
 62
   241
  5
15F
 10
13154.034517
 20
3403.898621
 30
0.0
 42
0.03504
  0
VERTEX
  8
3
  6
CONTINUOUS
 62
   241
  5
160
 10
13154.041375
 20
3403.897206
 30
0.0
 42
0.033623
  0
VERTEX
  8
3
  6
CONTINUOUS
 62
   241
  5
161
 10
13154.048508
 20
3403.896729
 30
0.0
 42
0.033623
  0
VERTEX
  8
3
  6
CONTINUOUS
 62
   241
  5
162
 10
13154.05564
 20
3403.897206
 30
0.0
 42
0.03504
  0
VERTEX
  8
3
  6
CONTINUOUS
 62
   241
  5
163
 10
13154.062498
 20
3403.898621
 30
0.0
 42
0.037998
  0
VERTEX
  8
3
  6
CONTINUOUS
 62
   241
  5
164
 10
13154.068819
 20
3403.900918
 30
0.0
 42
0.042701
  0
VERTEX
  8
3
  6
CONTINUOUS
 62
   241
  5
165
 10
13154.074359
 20
3403.90401
 30
0.0
 42
0.049287
  0
VERTEX
  8
3
  6
CONTINUOUS
 62
   241
  5
166
 10
13154.078905
 20
3403.907777
 30
0.0
 42
0.057443
  0
VERTEX
  8
3
  6
CONTINUOUS
 62
   241
  5
167
 10
13154.082284
 20
3403.912075
 30
0.0
 42
0.065729
  0
VERTEX
  8
3
  6
CONTINUOUS
 62
   241
  5
168
 10
13154.084364
 20
3403.916738
 30
0.0
 42
0.071267
  0
VERTEX
  8
3
  6
CONTINUOUS
 62
   241
  5
169
 10
13154.085067
 20
3403.921588
 30
0.0
 42
0.071267
  0
SEQEND
  8
3
  6
CONTINUOUS
 62
   241
  5
16A
  0
POLYLINE
  8
3
  6
CONTINUOUS
 62
   241
  5
16B
 66
     1
 10
0.0
 20
0.0
 30
0.0
210
0.0
220
0.0
230
1.0
  0
VERTEX
  8
3
  6
CONTINUOUS
 62
   241
  5
16C
 10
13154.085067
 20
3403.921588
 30
0.0
 42
0.107797
  0
VERTEX
  8
3
  6
CONTINUOUS
 62
   241
  5
16D
 10
13154.084364
 20
3403.924685
 30
0.0
 42
0.083254
  0
VERTEX
  8
3
  6
CONTINUOUS
 62
   241
  5
16E
 10
13154.082284
 20
3403.927663
 30
0.0
 42
0.058242
  0
VERTEX
  8
3
  6
CONTINUOUS
 62
   241
  5
16F
 10
13154.078905
 20
3403.930408
 30
0.0
 42
0.041681
  0
VERTEX
  8
3
  6
CONTINUOUS
 62
   241
  5
170
 10
13154.074359
 20
3403.932814
 30
0.0
 42
0.03183
  0
VERTEX
  8
3
  6
CONTINUOUS
 62
   241
  5
171
 10
13154.068819
 20
3403.934788
 30
0.0
 42
0.026114
  0
VERTEX
  8
3
  6
CONTINUOUS
 62
   241
  5
172
 10
13154.062498
 20
3403.936255
 30
0.0
 42
0.022956
  0
VERTEX
  8
3
  6
CONTINUOUS
 62
   241
  5
173
 10
13154.05564
 20
3403.937159
 30
0.0
 42
0.021545
  0
VERTEX
  8
3
  6
CONTINUOUS
 62
   241
  5
174
 10
13154.048508
 20
3403.937464
 30
0.0
 42
0.021545
  0
VERTEX
  8
3
  6
CONTINUOUS
 62
   241
  5
175
 10
13154.041375
 20
3403.937159
 30
0.0
 42
0.022956
  0
VERTEX
  8
3
  6
CONTINUOUS
 62
   241
  5
176
 10
13154.034517
 20
3403.936255
 30
0.0
 42
0.026114
  0
VERTEX
  8
3
  6
CONTINUOUS
 62
   241
  5
177
 10
13154.028197
 20
3403.934788
 30
0.0
 42
0.03183
  0
VERTEX
  8
3
  6
CONTINUOUS
 62
   241
  5
178
 10
13154.022657
 20
3403.932814
 30
0.0
 42
0.041681
  0
VERTEX
  8
3
  6
CONTINUOUS
 62
   241
  5
179
 10
13154.01811
 20
3403.930408
 30
0.0
 42
0.058242
  0
VERTEX
  8
3
  6
CONTINUOUS
 62
   241
  5
17A
 10
13154.014732
 20
3403.927663
 30
0.0
 42
0.083254
  0
VERTEX
  8
3
  6
CONTINUOUS
 62
   241
  5
17B
 10
13154.012651
 20
3403.924685
 30
0.0
 42
0.107797
  0
VERTEX
  8
3
  6
CONTINUOUS
 62
   241
  5
17C
 10
13154.011949
 20
3403.921588
 30
0.0
 42
0.107797
  0
SEQEND
  8
3
  6
CONTINUOUS
 62
   241
  5
17D
  0
POLYLINE
  8
3
  6
CONTINUOUS
 62
   241
  5
17E
 66
     1
 10
0.0
 20
0.0
 30
0.0
210
0.0
220
0.0
230
1.0
  0
VERTEX
  8
3
  6
CONTINUOUS
 62
   241
  5
17F
 10
13154.011949
 20
3404.078745
 30
0.0
 42
0.105926
  0
VERTEX
  8
3
  6
CONTINUOUS
 62
   241
  5
180
 10
13154.012651
 20
3404.075586
 30
0.0
 42
0.082645
  0
VERTEX
  8
3
  6
CONTINUOUS
 62
   241
  5
181
 10
13154.014732
 20
3404.072549
 30
0.0
 42
0.058441
  0
VERTEX
  8
3
  6
CONTINUOUS
 62
   241
  5
182
 10
13154.01811
 20
3404.06975
 30
0.0
 42
0.042129
  0
VERTEX
  8
3
  6
CONTINUOUS
 62
   241
  5
183
 10
13154.022657
 20
3404.067296
 30
0.0
 42
0.032313
  0
VERTEX
  8
3
  6
CONTINUOUS
 62
   241
  5
184
 10
13154.028197
 20
3404.065282
 30
0.0
 42
0.026577
  0
VERTEX
  8
3
  6
CONTINUOUS
 62
   241
  5
185
 10
13154.034517
 20
3404.063786
 30
0.0
 42
0.023395
  0
VERTEX
  8
3
  6
CONTINUOUS
 62
   241
  5
186
 10
13154.041375
 20
3404.062865
 30
0.0
 42
0.021971
  0
VERTEX
  8
3
  6
CONTINUOUS
 62
   241
  5
187
 10
13154.048508
 20
3404.062554
 30
0.0
 42
0.021971
  0
VERTEX
  8
3
  6
CONTINUOUS
 62
   241
  5
188
 10
13154.05564
 20
3404.062865
 30
0.0
 42
0.023395
  0
VERTEX
  8
3
  6
CONTINUOUS
 62
   241
  5
189
 10
13154.062498
 20
3404.063786
 30
0.0
 42
0.026577
  0
VERTEX
  8
3
  6
CONTINUOUS
 62
   241
  5
18A
 10
13154.068819
 20
3404.065282
 30
0.0
 42
0.032313
  0
VERTEX
  8
3
  6
CONTINUOUS
 62
   241
  5
18B
 10
13154.074359
 20
3404.067296
 30
0.0
 42
0.042129
  0
VERTEX
  8
3
  6
CONTINUOUS
 62
   241
  5
18C
 10
13154.078905
 20
3404.06975
 30
0.0
 42
0.058441
  0
VERTEX
  8
3
  6
CONTINUOUS
 62
   241
  5
18D
 10
13154.082284
 20
3404.072549
 30
0.0
 42
0.082645
  0
VERTEX
  8
3
  6
CONTINUOUS
 62
   241
  5
18E
 10
13154.084364
 20
3404.075586
 30
0.0
 42
0.105926
  0
VERTEX
  8
3
  6
CONTINUOUS
 62
   241
  5
18F
 10
13154.085067
 20
3404.078745
 30
0.0
 42
0.105926
  0
SEQEND
  8
3
  6
CONTINUOUS
 62
   241
  5
190
  0
POLYLINE
  8
3
  6
CONTINUOUS
 62
   241
  5
191
 66
     1
 10
0.0
 20
0.0
 30
0.0
210
0.0
220
0.0
230
1.0
  0
VERTEX
  8
3
  6
CONTINUOUS
 62
   241
  5
192
 10
13154.085067
 20
3404.078745
 30
0.0
 42
0.069642
  0
VERTEX
  8
3
  6
CONTINUOUS
 62
   241
  5
193
 10
13154.084364
 20
3404.083714
 30
0.0
 42
0.064663
  0
VERTEX
  8
3
  6
CONTINUOUS
 62
   241
  5
194
 10
13154.082284
 20
3404.088492
 30
0.0
 42
0.05709
  0
VERTEX
  8
3
  6
CONTINUOUS
 62
   241
  5
195
 10
13154.078905
 20
3404.092895
 30
0.0
 42
0.049486
  0
VERTEX
  8
3
  6
CONTINUOUS
 62
   241
  5
196
 10
13154.074359
 20
3404.096755
 30
0.0
 42
0.043232
  0
VERTEX
  8
3
  6
CONTINUOUS
 62
   241
  5
197
 10
13154.068819
 20
3404.099922
 30
0.0
 42
0.038702
  0
VERTEX
  8
3
  6
CONTINUOUS
 62
   241
  5
198
 10
13154.062498
 20
3404.102276
 30
0.0
 42
0.035825
  0
VERTEX
  8
3
  6
CONTINUOUS
 62
   241
  5
199
 10
13154.05564
 20
3404.103725
 30
0.0
 42
0.034439
  0
VERTEX
  8
3
  6
CONTINUOUS
 62
   241
  5
19A
 10
13154.048508
 20
3404.104215
 30
0.0
 42
0.034439
  0
VERTEX
  8
3
  6
CONTINUOUS
 62
   241
  5
19B
 10
13154.041375
 20
3404.103725
 30
0.0
 42
0.035825
  0
VERTEX
  8
3
  6
CONTINUOUS
 62
   241
  5
19C
 10
13154.034517
 20
3404.102276
 30
0.0
 42
0.038702
  0
VERTEX
  8
3
  6
CONTINUOUS
 62
   241
  5
19D
 10
13154.028197
 20
3404.099922
 30
0.0
 42
0.043232
  0
VERTEX
  8
3
  6
CONTINUOUS
 62
   241
  5
19E
 10
13154.022657
 20
3404.096755
 30
0.0
 42
0.049486
  0
VERTEX
  8
3
  6
CONTINUOUS
 62
   241
  5
19F
 10
13154.01811
 20
3404.092895
 30
0.0
 42
0.05709
  0
VERTEX
  8
3
  6
CONTINUOUS
 62
   241
  5
1A0
 10
13154.014732
 20
3404.088492
 30
0.0
 42
0.064663
  0
VERTEX
  8
3
  6
CONTINUOUS
 62
   241
  5
1A1
 10
13154.012651
 20
3404.083714
 30
0.0
 42
0.069642
  0
VERTEX
  8
3
  6
CONTINUOUS
 62
   241
  5
1A2
 10
13154.011949
 20
3404.078745
 30
0.0
 42
0.069642
  0
SEQEND
  8
3
  6
CONTINUOUS
 62
   241
  5
1A3
  0
POLYLINE
  8
3
  6
CONTINUOUS
 62
   241
  5
1A4
 66
     1
 10
0.0
 20
0.0
 30
0.0
210
0.0
220
0.0
230
1.0
  0
VERTEX
  8
3
  6
CONTINUOUS
 62
   241
  5
1A5
 10
13154.011949
 20
3404.465816
 30
0.0
 42
-0.071267
  0
VERTEX
  8
3
  6
CONTINUOUS
 62
   241
  5
1A6
 10
13154.012651
 20
3404.470666
 30
0.0
 42
-0.065729
  0
VERTEX
  8
3
  6
CONTINUOUS
 62
   241
  5
1A7
 10
13154.014732
 20
3404.475329
 30
0.0
 42
-0.057443
  0
VERTEX
  8
3
  6
CONTINUOUS
 62
   241
  5
1A8
 10
13154.01811
 20
3404.479627
 30
0.0
 42
-0.049287
  0
VERTEX
  8
3
  6
CONTINUOUS
 62
   241
  5
1A9
 10
13154.022657
 20
3404.483394
 30
0.0
 42
-0.042701
  0
VERTEX
  8
3
  6
CONTINUOUS
 62
   241
  5
1AA
 10
13154.028197
 20
3404.486486
 30
0.0
 42
-0.037998
  0
VERTEX
  8
3
  6
CONTINUOUS
 62
   241
  5
1AB
 10
13154.034517
 20
3404.488783
 30
0.0
 42
-0.03504
  0
VERTEX
  8
3
  6
CONTINUOUS
 62
   241
  5
1AC
 10
13154.041375
 20
3404.490198
 30
0.0
 42
-0.033623
  0
VERTEX
  8
3
  6
CONTINUOUS
 62
   241
  5
1AD
 10
13154.048508
 20
3404.490675
 30
0.0
 42
-0.033623
  0
VERTEX
  8
3
  6
CONTINUOUS
 62
   241
  5
1AE
 10
13154.05564
 20
3404.490198
 30
0.0
 42
-0.03504
  0
VERTEX
  8
3
  6
CONTINUOUS
 62
   241
  5
1AF
 10
13154.062498
 20
3404.488783
 30
0.0
 42
-0.037998
  0
VERTEX
  8
3
  6
CONTINUOUS
 62
   241
  5
1B0
 10
13154.068819
 20
3404.486486
 30
0.0
 42
-0.042701
  0
VERTEX
  8
3
  6
CONTINUOUS
 62
   241
  5
1B1
 10
13154.074359
 20
3404.483394
 30
0.0
 42
-0.049287
  0
VERTEX
  8
3
  6
CONTINUOUS
 62
   241
  5
1B2
 10
13154.078905
 20
3404.479627
 30
0.0
 42
-0.057443
  0
VERTEX
  8
3
  6
CONTINUOUS
 62
   241
  5
1B3
 10
13154.082284
 20
3404.475329
 30
0.0
 42
-0.065729
  0
VERTEX
  8
3
  6
CONTINUOUS
 62
   241
  5
1B4
 10
13154.084364
 20
3404.470666
 30
0.0
 42
-0.071267
  0
VERTEX
  8
3
  6
CONTINUOUS
 62
   241
  5
1B5
 10
13154.085067
 20
3404.465816
 30
0.0
 42
-0.071267
  0
SEQEND
  8
3
  6
CONTINUOUS
 62
   241
  5
1B6
  0
POLYLINE
  8
3
  6
CONTINUOUS
 62
   241
  5
1B7
 66
     1
 10
0.0
 20
0.0
 30
0.0
210
0.0
220
0.0
230
1.0
  0
VERTEX
  8
3
  6
CONTINUOUS
 62
   241
  5
1B8
 10
13154.085067
 20
3404.465816
 30
0.0
 42
-0.107797
  0
VERTEX
  8
3
  6
CONTINUOUS
 62
   241
  5
1B9
 10
13154.084364
 20
3404.462719
 30
0.0
 42
-0.083254
  0
VERTEX
  8
3
  6
CONTINUOUS
 62
   241
  5
1BA
 10
13154.082284
 20
3404.459741
 30
0.0
 42
-0.058242
  0
VERTEX
  8
3
  6
CONTINUOUS
 62
   241
  5
1BB
 10
13154.078905
 20
3404.456996
 30
0.0
 42
-0.041681
  0
VERTEX
  8
3
  6
CONTINUOUS
 62
   241
  5
1BC
 10
13154.074359
 20
3404.45459
 30
0.0
 42
-0.03183
  0
VERTEX
  8
3
  6
CONTINUOUS
 62
   241
  5
1BD
 10
13154.068819
 20
3404.452616
 30
0.0
 42
-0.026114
  0
VERTEX
  8
3
  6
CONTINUOUS
 62
   241
  5
1BE
 10
13154.062498
 20
3404.451149
 30
0.0
 42
-0.022956
  0
VERTEX
  8
3
  6
CONTINUOUS
 62
   241
  5
1BF
 10
13154.05564
 20
3404.450245
 30
0.0
 42
-0.021545
  0
VERTEX
  8
3
  6
CONTINUOUS
 62
   241
  5
1C0
 10
13154.048508
 20
3404.44994
 30
0.0
 42
-0.021545
  0
VERTEX
  8
3
  6
CONTINUOUS
 62
   241
  5
1C1
 10
13154.041375
 20
3404.450245
 30
0.0
 42
-0.022956
  0
VERTEX
  8
3
  6
CONTINUOUS
 62
   241
  5
1C2
 10
13154.034517
 20
3404.451149
 30
0.0
 42
-0.026114
  0
VERTEX
  8
3
  6
CONTINUOUS
 62
   241
  5
1C3
 10
13154.028197
 20
3404.452616
 30
0.0
 42
-0.03183
  0
VERTEX
  8
3
  6
CONTINUOUS
 62
   241
  5
1C4
 10
13154.022657
 20
3404.45459
 30
0.0
 42
-0.041681
  0
VERTEX
  8
3
  6
CONTINUOUS
 62
   241
  5
1C5
 10
13154.01811
 20
3404.456996
 30
0.0
 42
-0.058242
  0
VERTEX
  8
3
  6
CONTINUOUS
 62
   241
  5
1C6
 10
13154.014732
 20
3404.459741
 30
0.0
 42
-0.083254
  0
VERTEX
  8
3
  6
CONTINUOUS
 62
   241
  5
1C7
 10
13154.012651
 20
3404.462719
 30
0.0
 42
-0.107797
  0
VERTEX
  8
3
  6
CONTINUOUS
 62
   241
  5
1C8
 10
13154.011949
 20
3404.465816
 30
0.0
 42
-0.107797
  0
SEQEND
  8
3
  6
CONTINUOUS
 62
   241
  5
1C9
  0
POLYLINE
  8
3
  6
CONTINUOUS
 62
   241
  5
1CA
 66
     1
 10
0.0
 20
0.0
 30
0.0
210
0.0
220
0.0
230
1.0
  0
VERTEX
  8
3
  6
CONTINUOUS
 62
   241
  5
1CB
 10
13154.011949
 20
3404.308659
 30
0.0
 42
-0.105926
  0
VERTEX
  8
3
  6
CONTINUOUS
 62
   241
  5
1CC
 10
13154.012651
 20
3404.311818
 30
0.0
 42
-0.082645
  0
VERTEX
  8
3
  6
CONTINUOUS
 62
   241
  5
1CD
 10
13154.014732
 20
3404.314855
 30
0.0
 42
-0.058441
  0
VERTEX
  8
3
  6
CONTINUOUS
 62
   241
  5
1CE
 10
13154.01811
 20
3404.317654
 30
0.0
 42
-0.042129
  0
VERTEX
  8
3
  6
CONTINUOUS
 62
   241
  5
1CF
 10
13154.022657
 20
3404.320108
 30
0.0
 42
-0.032313
  0
VERTEX
  8
3
  6
CONTINUOUS
 62
   241
  5
1D0
 10
13154.028197
 20
3404.322122
 30
0.0
 42
-0.026577
  0
VERTEX
  8
3
  6
CONTINUOUS
 62
   241
  5
1D1
 10
13154.034517
 20
3404.323618
 30
0.0
 42
-0.023395
  0
VERTEX
  8
3
  6
CONTINUOUS
 62
   241
  5
1D2
 10
13154.041375
 20
3404.324539
 30
0.0
 42
-0.021971
  0
VERTEX
  8
3
  6
CONTINUOUS
 62
   241
  5
1D3
 10
13154.048508
 20
3404.32485
 30
0.0
 42
-0.021971
  0
VERTEX
  8
3
  6
CONTINUOUS
 62
   241
  5
1D4
 10
13154.05564
 20
3404.324539
 30
0.0
 42
-0.023395
  0
VERTEX
  8
3
  6
CONTINUOUS
 62
   241
  5
1D5
 10
13154.062498
 20
3404.323618
 30
0.0
 42
-0.026577
  0
VERTEX
  8
3
  6
CONTINUOUS
 62
   241
  5
1D6
 10
13154.068819
 20
3404.322122
 30
0.0
 42
-0.032313
  0
VERTEX
  8
3
  6
CONTINUOUS
 62
   241
  5
1D7
 10
13154.074359
 20
3404.320108
 30
0.0
 42
-0.042129
  0
VERTEX
  8
3
  6
CONTINUOUS
 62
   241
  5
1D8
 10
13154.078905
 20
3404.317654
 30
0.0
 42
-0.058441
  0
VERTEX
  8
3
  6
CONTINUOUS
 62
   241
  5
1D9
 10
13154.082284
 20
3404.314855
 30
0.0
 42
-0.082645
  0
VERTEX
  8
3
  6
CONTINUOUS
 62
   241
  5
1DA
 10
13154.084364
 20
3404.311818
 30
0.0
 42
-0.105926
  0
VERTEX
  8
3
  6
CONTINUOUS
 62
   241
  5
1DB
 10
13154.085067
 20
3404.308659
 30
0.0
 42
-0.105926
  0
SEQEND
  8
3
  6
CONTINUOUS
 62
   241
  5
1DC
  0
POLYLINE
  8
3
  6
CONTINUOUS
 62
   241
  5
1DD
 66
     1
 10
0.0
 20
0.0
 30
0.0
210
0.0
220
0.0
230
1.0
  0
VERTEX
  8
3
  6
CONTINUOUS
 62
   241
  5
1DE
 10
13154.085067
 20
3404.308659
 30
0.0
 42
-0.069642
  0
VERTEX
  8
3
  6
CONTINUOUS
 62
   241
  5
1DF
 10
13154.084364
 20
3404.30369
 30
0.0
 42
-0.064663
  0
VERTEX
  8
3
  6
CONTINUOUS
 62
   241
  5
1E0
 10
13154.082284
 20
3404.298912
 30
0.0
 42
-0.05709
  0
VERTEX
  8
3
  6
CONTINUOUS
 62
   241
  5
1E1
 10
13154.078905
 20
3404.294509
 30
0.0
 42
-0.049486
  0
VERTEX
  8
3
  6
CONTINUOUS
 62
   241
  5
1E2
 10
13154.074359
 20
3404.290649
 30
0.0
 42
-0.043232
  0
VERTEX
  8
3
  6
CONTINUOUS
 62
   241
  5
1E3
 10
13154.068819
 20
3404.287482
 30
0.0
 42
-0.038702
  0
VERTEX
  8
3
  6
CONTINUOUS
 62
   241
  5
1E4
 10
13154.062498
 20
3404.285128
 30
0.0
 42
-0.035825
  0
VERTEX
  8
3
  6
CONTINUOUS
 62
   241
  5
1E5
 10
13154.05564
 20
3404.283679
 30
0.0
 42
-0.034439
  0
VERTEX
  8
3
  6
CONTINUOUS
 62
   241
  5
1E6
 10
13154.048508
 20
3404.283189
 30
0.0
 42
-0.034439
  0
VERTEX
  8
3
  6
CONTINUOUS
 62
   241
  5
1E7
 10
13154.041375
 20
3404.283679
 30
0.0
 42
-0.035825
  0
VERTEX
  8
3
  6
CONTINUOUS
 62
   241
  5
1E8
 10
13154.034517
 20
3404.285128
 30
0.0
 42
-0.038702
  0
VERTEX
  8
3
  6
CONTINUOUS
 62
   241
  5
1E9
 10
13154.028197
 20
3404.287482
 30
0.0
 42
-0.043232
  0
VERTEX
  8
3
  6
CONTINUOUS
 62
   241
  5
1EA
 10
13154.022657
 20
3404.290649
 30
0.0
 42
-0.049486
  0
VERTEX
  8
3
  6
CONTINUOUS
 62
   241
  5
1EB
 10
13154.01811
 20
3404.294509
 30
0.0
 42
-0.05709
  0
VERTEX
  8
3
  6
CONTINUOUS
 62
   241
  5
1EC
 10
13154.014732
 20
3404.298912
 30
0.0
 42
-0.064663
  0
VERTEX
  8
3
  6
CONTINUOUS
 62
   241
  5
1ED
 10
13154.012651
 20
3404.30369
 30
0.0
 42
-0.069642
  0
VERTEX
  8
3
  6
CONTINUOUS
 62
   241
  5
1EE
 10
13154.011949
 20
3404.308659
 30
0.0
 42
-0.069642
  0
SEQEND
  8
3
  6
CONTINUOUS
 62
   241
  5
1EF
  0
POLYLINE
  8
3
  6
CONTINUOUS
 62
   241
  5
1F0
 66
     1
 10
0.0
 20
0.0
 30
0.0
210
0.0
220
0.0
230
1.0
  0
VERTEX
  8
3
  6
CONTINUOUS
 62
   241
  5
1F1
 10
13153.579569
 20
3403.921588
 30
0.0
 42
0.071267
  0
VERTEX
  8
3
  6
CONTINUOUS
 62
   241
  5
1F2
 10
13153.580272
 20
3403.916738
 30
0.0
 42
0.065729
  0
VERTEX
  8
3
  6
CONTINUOUS
 62
   241
  5
1F3
 10
13153.582352
 20
3403.912075
 30
0.0
 42
0.057443
  0
VERTEX
  8
3
  6
CONTINUOUS
 62
   241
  5
1F4
 10
13153.585731
 20
3403.907777
 30
0.0
 42
0.049287
  0
VERTEX
  8
3
  6
CONTINUOUS
 62
   241
  5
1F5
 10
13153.590277
 20
3403.90401
 30
0.0
 42
0.042701
  0
VERTEX
  8
3
  6
CONTINUOUS
 62
   241
  5
1F6
 10
13153.595817
 20
3403.900918
 30
0.0
 42
0.037998
  0
VERTEX
  8
3
  6
CONTINUOUS
 62
   241
  5
1F7
 10
13153.602138
 20
3403.898621
 30
0.0
 42
0.03504
  0
VERTEX
  8
3
  6
CONTINUOUS
 62
   241
  5
1F8
 10
13153.608996
 20
3403.897206
 30
0.0
 42
0.033623
  0
VERTEX
  8
3
  6
CONTINUOUS
 62
   241
  5
1F9
 10
13153.616128
 20
3403.896729
 30
0.0
 42
0.033623
  0
VERTEX
  8
3
  6
CONTINUOUS
 62
   241
  5
1FA
 10
13153.623261
 20
3403.897206
 30
0.0
 42
0.03504
  0
VERTEX
  8
3
  6
CONTINUOUS
 62
   241
  5
1FB
 10
13153.630119
 20
3403.898621
 30
0.0
 42
0.037998
  0
VERTEX
  8
3
  6
CONTINUOUS
 62
   241
  5
1FC
 10
13153.636439
 20
3403.900918
 30
0.0
 42
0.042701
  0
VERTEX
  8
3
  6
CONTINUOUS
 62
   241
  5
1FD
 10
13153.641979
 20
3403.90401
 30
0.0
 42
0.049287
  0
VERTEX
  8
3
  6
CONTINUOUS
 62
   241
  5
1FE
 10
13153.646526
 20
3403.907777
 30
0.0
 42
0.057443
  0
VERTEX
  8
3
  6
CONTINUOUS
 62
   241
  5
1FF
 10
13153.649904
 20
3403.912075
 30
0.0
 42
0.065729
  0
VERTEX
  8
3
  6
CONTINUOUS
 62
   241
  5
200
 10
13153.651985
 20
3403.916738
 30
0.0
 42
0.071267
  0
VERTEX
  8
3
  6
CONTINUOUS
 62
   241
  5
201
 10
13153.652687
 20
3403.921588
 30
0.0
 42
0.071267
  0
SEQEND
  8
3
  6
CONTINUOUS
 62
   241
  5
202
  0
POLYLINE
  8
3
  6
CONTINUOUS
 62
   241
  5
203
 66
     1
 10
0.0
 20
0.0
 30
0.0
210
0.0
220
0.0
230
1.0
  0
VERTEX
  8
3
  6
CONTINUOUS
 62
   241
  5
204
 10
13153.652687
 20
3403.921588
 30
0.0
 42
0.107797
  0
VERTEX
  8
3
  6
CONTINUOUS
 62
   241
  5
205
 10
13153.651985
 20
3403.924685
 30
0.0
 42
0.083254
  0
VERTEX
  8
3
  6
CONTINUOUS
 62
   241
  5
206
 10
13153.649904
 20
3403.927663
 30
0.0
 42
0.058242
  0
VERTEX
  8
3
  6
CONTINUOUS
 62
   241
  5
207
 10
13153.646526
 20
3403.930408
 30
0.0
 42
0.041681
  0
VERTEX
  8
3
  6
CONTINUOUS
 62
   241
  5
208
 10
13153.641979
 20
3403.932814
 30
0.0
 42
0.03183
  0
VERTEX
  8
3
  6
CONTINUOUS
 62
   241
  5
209
 10
13153.636439
 20
3403.934788
 30
0.0
 42
0.026114
  0
VERTEX
  8
3
  6
CONTINUOUS
 62
   241
  5
20A
 10
13153.630119
 20
3403.936255
 30
0.0
 42
0.022956
  0
VERTEX
  8
3
  6
CONTINUOUS
 62
   241
  5
20B
 10
13153.623261
 20
3403.937159
 30
0.0
 42
0.021545
  0
VERTEX
  8
3
  6
CONTINUOUS
 62
   241
  5
20C
 10
13153.616128
 20
3403.937464
 30
0.0
 42
0.021545
  0
VERTEX
  8
3
  6
CONTINUOUS
 62
   241
  5
20D
 10
13153.608996
 20
3403.937159
 30
0.0
 42
0.022956
  0
VERTEX
  8
3
  6
CONTINUOUS
 62
   241
  5
20E
 10
13153.602138
 20
3403.936255
 30
0.0
 42
0.026114
  0
VERTEX
  8
3
  6
CONTINUOUS
 62
   241
  5
20F
 10
13153.595817
 20
3403.934788
 30
0.0
 42
0.03183
  0
VERTEX
  8
3
  6
CONTINUOUS
 62
   241
  5
210
 10
13153.590277
 20
3403.932814
 30
0.0
 42
0.041681
  0
VERTEX
  8
3
  6
CONTINUOUS
 62
   241
  5
211
 10
13153.585731
 20
3403.930408
 30
0.0
 42
0.058242
  0
VERTEX
  8
3
  6
CONTINUOUS
 62
   241
  5
212
 10
13153.582352
 20
3403.927663
 30
0.0
 42
0.083254
  0
VERTEX
  8
3
  6
CONTINUOUS
 62
   241
  5
213
 10
13153.580272
 20
3403.924685
 30
0.0
 42
0.107797
  0
VERTEX
  8
3
  6
CONTINUOUS
 62
   241
  5
214
 10
13153.579569
 20
3403.921588
 30
0.0
 42
0.107797
  0
SEQEND
  8
3
  6
CONTINUOUS
 62
   241
  5
215
  0
POLYLINE
  8
3
  6
CONTINUOUS
 62
   241
  5
216
 66
     1
 10
0.0
 20
0.0
 30
0.0
210
0.0
220
0.0
230
1.0
  0
VERTEX
  8
3
  6
CONTINUOUS
 62
   241
  5
217
 10
13153.579569
 20
3404.078745
 30
0.0
 42
0.105926
  0
VERTEX
  8
3
  6
CONTINUOUS
 62
   241
  5
218
 10
13153.580272
 20
3404.075586
 30
0.0
 42
0.082645
  0
VERTEX
  8
3
  6
CONTINUOUS
 62
   241
  5
219
 10
13153.582352
 20
3404.072549
 30
0.0
 42
0.058441
  0
VERTEX
  8
3
  6
CONTINUOUS
 62
   241
  5
21A
 10
13153.585731
 20
3404.06975
 30
0.0
 42
0.042129
  0
VERTEX
  8
3
  6
CONTINUOUS
 62
   241
  5
21B
 10
13153.590277
 20
3404.067296
 30
0.0
 42
0.032313
  0
VERTEX
  8
3
  6
CONTINUOUS
 62
   241
  5
21C
 10
13153.595817
 20
3404.065282
 30
0.0
 42
0.026577
  0
VERTEX
  8
3
  6
CONTINUOUS
 62
   241
  5
21D
 10
13153.602138
 20
3404.063786
 30
0.0
 42
0.023395
  0
VERTEX
  8
3
  6
CONTINUOUS
 62
   241
  5
21E
 10
13153.608996
 20
3404.062865
 30
0.0
 42
0.021971
  0
VERTEX
  8
3
  6
CONTINUOUS
 62
   241
  5
21F
 10
13153.616128
 20
3404.062554
 30
0.0
 42
0.021971
  0
VERTEX
  8
3
  6
CONTINUOUS
 62
   241
  5
220
 10
13153.623261
 20
3404.062865
 30
0.0
 42
0.023395
  0
VERTEX
  8
3
  6
CONTINUOUS
 62
   241
  5
221
 10
13153.630119
 20
3404.063786
 30
0.0
 42
0.026577
  0
VERTEX
  8
3
  6
CONTINUOUS
 62
   241
  5
222
 10
13153.636439
 20
3404.065282
 30
0.0
 42
0.032313
  0
VERTEX
  8
3
  6
CONTINUOUS
 62
   241
  5
223
 10
13153.641979
 20
3404.067296
 30
0.0
 42
0.042129
  0
VERTEX
  8
3
  6
CONTINUOUS
 62
   241
  5
224
 10
13153.646526
 20
3404.06975
 30
0.0
 42
0.058441
  0
VERTEX
  8
3
  6
CONTINUOUS
 62
   241
  5
225
 10
13153.649904
 20
3404.072549
 30
0.0
 42
0.082645
  0
VERTEX
  8
3
  6
CONTINUOUS
 62
   241
  5
226
 10
13153.651985
 20
3404.075586
 30
0.0
 42
0.105926
  0
VERTEX
  8
3
  6
CONTINUOUS
 62
   241
  5
227
 10
13153.652687
 20
3404.078745
 30
0.0
 42
0.105926
  0
SEQEND
  8
3
  6
CONTINUOUS
 62
   241
  5
228
  0
POLYLINE
  8
3
  6
CONTINUOUS
 62
   241
  5
229
 66
     1
 10
0.0
 20
0.0
 30
0.0
210
0.0
220
0.0
230
1.0
  0
VERTEX
  8
3
  6
CONTINUOUS
 62
   241
  5
22A
 10
13153.652687
 20
3404.078745
 30
0.0
 42
0.069642
  0
VERTEX
  8
3
  6
CONTINUOUS
 62
   241
  5
22B
 10
13153.651985
 20
3404.083714
 30
0.0
 42
0.064663
  0
VERTEX
  8
3
  6
CONTINUOUS
 62
   241
  5
22C
 10
13153.649904
 20
3404.088492
 30
0.0
 42
0.05709
  0
VERTEX
  8
3
  6
CONTINUOUS
 62
   241
  5
22D
 10
13153.646526
 20
3404.092895
 30
0.0
 42
0.049486
  0
VERTEX
  8
3
  6
CONTINUOUS
 62
   241
  5
22E
 10
13153.641979
 20
3404.096755
 30
0.0
 42
0.043232
  0
VERTEX
  8
3
  6
CONTINUOUS
 62
   241
  5
22F
 10
13153.636439
 20
3404.099922
 30
0.0
 42
0.038702
  0
VERTEX
  8
3
  6
CONTINUOUS
 62
   241
  5
230
 10
13153.630119
 20
3404.102276
 30
0.0
 42
0.035825
  0
VERTEX
  8
3
  6
CONTINUOUS
 62
   241
  5
231
 10
13153.623261
 20
3404.103725
 30
0.0
 42
0.034439
  0
VERTEX
  8
3
  6
CONTINUOUS
 62
   241
  5
232
 10
13153.616128
 20
3404.104215
 30
0.0
 42
0.034439
  0
VERTEX
  8
3
  6
CONTINUOUS
 62
   241
  5
233
 10
13153.608996
 20
3404.103725
 30
0.0
 42
0.035825
  0
VERTEX
  8
3
  6
CONTINUOUS
 62
   241
  5
234
 10
13153.602138
 20
3404.102276
 30
0.0
 42
0.038702
  0
VERTEX
  8
3
  6
CONTINUOUS
 62
   241
  5
235
 10
13153.595817
 20
3404.099922
 30
0.0
 42
0.043232
  0
VERTEX
  8
3
  6
CONTINUOUS
 62
   241
  5
236
 10
13153.590277
 20
3404.096755
 30
0.0
 42
0.049486
  0
VERTEX
  8
3
  6
CONTINUOUS
 62
   241
  5
237
 10
13153.585731
 20
3404.092895
 30
0.0
 42
0.05709
  0
VERTEX
  8
3
  6
CONTINUOUS
 62
   241
  5
238
 10
13153.582352
 20
3404.088492
 30
0.0
 42
0.064663
  0
VERTEX
  8
3
  6
CONTINUOUS
 62
   241
  5
239
 10
13153.580272
 20
3404.083714
 30
0.0
 42
0.069642
  0
VERTEX
  8
3
  6
CONTINUOUS
 62
   241
  5
23A
 10
13153.579569
 20
3404.078745
 30
0.0
 42
0.069642
  0
SEQEND
  8
3
  6
CONTINUOUS
 62
   241
  5
23B
  0
POLYLINE
  8
3
  6
CONTINUOUS
 62
   241
  5
23C
 66
     1
 10
0.0
 20
0.0
 30
0.0
210
0.0
220
0.0
230
1.0
  0
VERTEX
  8
3
  6
CONTINUOUS
 62
   241
  5
23D
 10
13153.579569
 20
3404.465816
 30
0.0
 42
-0.071267
  0
VERTEX
  8
3
  6
CONTINUOUS
 62
   241
  5
23E
 10
13153.580272
 20
3404.470666
 30
0.0
 42
-0.065729
  0
VERTEX
  8
3
  6
CONTINUOUS
 62
   241
  5
23F
 10
13153.582352
 20
3404.475329
 30
0.0
 42
-0.057443
  0
VERTEX
  8
3
  6
CONTINUOUS
 62
   241
  5
240
 10
13153.585731
 20
3404.479627
 30
0.0
 42
-0.049287
  0
VERTEX
  8
3
  6
CONTINUOUS
 62
   241
  5
241
 10
13153.590277
 20
3404.483394
 30
0.0
 42
-0.042701
  0
VERTEX
  8
3
  6
CONTINUOUS
 62
   241
  5
242
 10
13153.595817
 20
3404.486486
 30
0.0
 42
-0.037998
  0
VERTEX
  8
3
  6
CONTINUOUS
 62
   241
  5
243
 10
13153.602138
 20
3404.488783
 30
0.0
 42
-0.03504
  0
VERTEX
  8
3
  6
CONTINUOUS
 62
   241
  5
244
 10
13153.608996
 20
3404.490198
 30
0.0
 42
-0.033623
  0
VERTEX
  8
3
  6
CONTINUOUS
 62
   241
  5
245
 10
13153.616128
 20
3404.490675
 30
0.0
 42
-0.033623
  0
VERTEX
  8
3
  6
CONTINUOUS
 62
   241
  5
246
 10
13153.623261
 20
3404.490198
 30
0.0
 42
-0.03504
  0
VERTEX
  8
3
  6
CONTINUOUS
 62
   241
  5
247
 10
13153.630119
 20
3404.488783
 30
0.0
 42
-0.037998
  0
VERTEX
  8
3
  6
CONTINUOUS
 62
   241
  5
248
 10
13153.636439
 20
3404.486486
 30
0.0
 42
-0.042701
  0
VERTEX
  8
3
  6
CONTINUOUS
 62
   241
  5
249
 10
13153.641979
 20
3404.483394
 30
0.0
 42
-0.049287
  0
VERTEX
  8
3
  6
CONTINUOUS
 62
   241
  5
24A
 10
13153.646526
 20
3404.479627
 30
0.0
 42
-0.057443
  0
VERTEX
  8
3
  6
CONTINUOUS
 62
   241
  5
24B
 10
13153.649904
 20
3404.475329
 30
0.0
 42
-0.065729
  0
VERTEX
  8
3
  6
CONTINUOUS
 62
   241
  5
24C
 10
13153.651985
 20
3404.470666
 30
0.0
 42
-0.071267
  0
VERTEX
  8
3
  6
CONTINUOUS
 62
   241
  5
24D
 10
13153.652687
 20
3404.465816
 30
0.0
 42
-0.071267
  0
SEQEND
  8
3
  6
CONTINUOUS
 62
   241
  5
24E
  0
POLYLINE
  8
3
  6
CONTINUOUS
 62
   241
  5
24F
 66
     1
 10
0.0
 20
0.0
 30
0.0
210
0.0
220
0.0
230
1.0
  0
VERTEX
  8
3
  6
CONTINUOUS
 62
   241
  5
250
 10
13153.652687
 20
3404.465816
 30
0.0
 42
-0.107797
  0
VERTEX
  8
3
  6
CONTINUOUS
 62
   241
  5
251
 10
13153.651985
 20
3404.462719
 30
0.0
 42
-0.083254
  0
VERTEX
  8
3
  6
CONTINUOUS
 62
   241
  5
252
 10
13153.649904
 20
3404.459741
 30
0.0
 42
-0.058242
  0
VERTEX
  8
3
  6
CONTINUOUS
 62
   241
  5
253
 10
13153.646526
 20
3404.456996
 30
0.0
 42
-0.041681
  0
VERTEX
  8
3
  6
CONTINUOUS
 62
   241
  5
254
 10
13153.641979
 20
3404.45459
 30
0.0
 42
-0.03183
  0
VERTEX
  8
3
  6
CONTINUOUS
 62
   241
  5
255
 10
13153.636439
 20
3404.452616
 30
0.0
 42
-0.026114
  0
VERTEX
  8
3
  6
CONTINUOUS
 62
   241
  5
256
 10
13153.630119
 20
3404.451149
 30
0.0
 42
-0.022956
  0
VERTEX
  8
3
  6
CONTINUOUS
 62
   241
  5
257
 10
13153.623261
 20
3404.450245
 30
0.0
 42
-0.021545
  0
VERTEX
  8
3
  6
CONTINUOUS
 62
   241
  5
258
 10
13153.616128
 20
3404.44994
 30
0.0
 42
-0.021545
  0
VERTEX
  8
3
  6
CONTINUOUS
 62
   241
  5
259
 10
13153.608996
 20
3404.450245
 30
0.0
 42
-0.022956
  0
VERTEX
  8
3
  6
CONTINUOUS
 62
   241
  5
25A
 10
13153.602138
 20
3404.451149
 30
0.0
 42
-0.026114
  0
VERTEX
  8
3
  6
CONTINUOUS
 62
   241
  5
25B
 10
13153.595817
 20
3404.452616
 30
0.0
 42
-0.03183
  0
VERTEX
  8
3
  6
CONTINUOUS
 62
   241
  5
25C
 10
13153.590277
 20
3404.45459
 30
0.0
 42
-0.041681
  0
VERTEX
  8
3
  6
CONTINUOUS
 62
   241
  5
25D
 10
13153.585731
 20
3404.456996
 30
0.0
 42
-0.058242
  0
VERTEX
  8
3
  6
CONTINUOUS
 62
   241
  5
25E
 10
13153.582352
 20
3404.459741
 30
0.0
 42
-0.083254
  0
VERTEX
  8
3
  6
CONTINUOUS
 62
   241
  5
25F
 10
13153.580272
 20
3404.462719
 30
0.0
 42
-0.107797
  0
VERTEX
  8
3
  6
CONTINUOUS
 62
   241
  5
260
 10
13153.579569
 20
3404.465816
 30
0.0
 42
-0.107797
  0
SEQEND
  8
3
  6
CONTINUOUS
 62
   241
  5
261
  0
POLYLINE
  8
3
  6
CONTINUOUS
 62
   241
  5
262
 66
     1
 10
0.0
 20
0.0
 30
0.0
210
0.0
220
0.0
230
1.0
  0
VERTEX
  8
3
  6
CONTINUOUS
 62
   241
  5
263
 10
13153.579569
 20
3404.308659
 30
0.0
 42
-0.105926
  0
VERTEX
  8
3
  6
CONTINUOUS
 62
   241
  5
264
 10
13153.580272
 20
3404.311818
 30
0.0
 42
-0.082645
  0
VERTEX
  8
3
  6
CONTINUOUS
 62
   241
  5
265
 10
13153.582352
 20
3404.314855
 30
0.0
 42
-0.058441
  0
VERTEX
  8
3
  6
CONTINUOUS
 62
   241
  5
266
 10
13153.585731
 20
3404.317654
 30
0.0
 42
-0.042129
  0
VERTEX
  8
3
  6
CONTINUOUS
 62
   241
  5
267
 10
13153.590277
 20
3404.320108
 30
0.0
 42
-0.032313
  0
VERTEX
  8
3
  6
CONTINUOUS
 62
   241
  5
268
 10
13153.595817
 20
3404.322122
 30
0.0
 42
-0.026577
  0
VERTEX
  8
3
  6
CONTINUOUS
 62
   241
  5
269
 10
13153.602138
 20
3404.323618
 30
0.0
 42
-0.023395
  0
VERTEX
  8
3
  6
CONTINUOUS
 62
   241
  5
26A
 10
13153.608996
 20
3404.324539
 30
0.0
 42
-0.021971
  0
VERTEX
  8
3
  6
CONTINUOUS
 62
   241
  5
26B
 10
13153.616128
 20
3404.32485
 30
0.0
 42
-0.021971
  0
VERTEX
  8
3
  6
CONTINUOUS
 62
   241
  5
26C
 10
13153.623261
 20
3404.324539
 30
0.0
 42
-0.023395
  0
VERTEX
  8
3
  6
CONTINUOUS
 62
   241
  5
26D
 10
13153.630119
 20
3404.323618
 30
0.0
 42
-0.026577
  0
VERTEX
  8
3
  6
CONTINUOUS
 62
   241
  5
26E
 10
13153.636439
 20
3404.322122
 30
0.0
 42
-0.032313
  0
VERTEX
  8
3
  6
CONTINUOUS
 62
   241
  5
26F
 10
13153.641979
 20
3404.320108
 30
0.0
 42
-0.042129
  0
VERTEX
  8
3
  6
CONTINUOUS
 62
   241
  5
270
 10
13153.646526
 20
3404.317654
 30
0.0
 42
-0.058441
  0
VERTEX
  8
3
  6
CONTINUOUS
 62
   241
  5
271
 10
13153.649904
 20
3404.314855
 30
0.0
 42
-0.082645
  0
VERTEX
  8
3
  6
CONTINUOUS
 62
   241
  5
272
 10
13153.651985
 20
3404.311818
 30
0.0
 42
-0.105926
  0
VERTEX
  8
3
  6
CONTINUOUS
 62
   241
  5
273
 10
13153.652687
 20
3404.308659
 30
0.0
 42
-0.105926
  0
SEQEND
  8
3
  6
CONTINUOUS
 62
   241
  5
274
  0
POLYLINE
  8
3
  6
CONTINUOUS
 62
   241
  5
275
 66
     1
 10
0.0
 20
0.0
 30
0.0
210
0.0
220
0.0
230
1.0
  0
VERTEX
  8
3
  6
CONTINUOUS
 62
   241
  5
276
 10
13153.652687
 20
3404.308659
 30
0.0
 42
-0.069642
  0
VERTEX
  8
3
  6
CONTINUOUS
 62
   241
  5
277
 10
13153.651985
 20
3404.30369
 30
0.0
 42
-0.064663
  0
VERTEX
  8
3
  6
CONTINUOUS
 62
   241
  5
278
 10
13153.649904
 20
3404.298912
 30
0.0
 42
-0.05709
  0
VERTEX
  8
3
  6
CONTINUOUS
 62
   241
  5
279
 10
13153.646526
 20
3404.294509
 30
0.0
 42
-0.049486
  0
VERTEX
  8
3
  6
CONTINUOUS
 62
   241
  5
27A
 10
13153.641979
 20
3404.290649
 30
0.0
 42
-0.043232
  0
VERTEX
  8
3
  6
CONTINUOUS
 62
   241
  5
27B
 10
13153.636439
 20
3404.287482
 30
0.0
 42
-0.038702
  0
VERTEX
  8
3
  6
CONTINUOUS
 62
   241
  5
27C
 10
13153.630119
 20
3404.285128
 30
0.0
 42
-0.035825
  0
VERTEX
  8
3
  6
CONTINUOUS
 62
   241
  5
27D
 10
13153.623261
 20
3404.283679
 30
0.0
 42
-0.034439
  0
VERTEX
  8
3
  6
CONTINUOUS
 62
   241
  5
27E
 10
13153.616128
 20
3404.283189
 30
0.0
 42
-0.034439
  0
VERTEX
  8
3
  6
CONTINUOUS
 62
   241
  5
27F
 10
13153.608996
 20
3404.283679
 30
0.0
 42
-0.035825
  0
VERTEX
  8
3
  6
CONTINUOUS
 62
   241
  5
280
 10
13153.602138
 20
3404.285128
 30
0.0
 42
-0.038702
  0
VERTEX
  8
3
  6
CONTINUOUS
 62
   241
  5
281
 10
13153.595817
 20
3404.287482
 30
0.0
 42
-0.043232
  0
VERTEX
  8
3
  6
CONTINUOUS
 62
   241
  5
282
 10
13153.590277
 20
3404.290649
 30
0.0
 42
-0.049486
  0
VERTEX
  8
3
  6
CONTINUOUS
 62
   241
  5
283
 10
13153.585731
 20
3404.294509
 30
0.0
 42
-0.05709
  0
VERTEX
  8
3
  6
CONTINUOUS
 62
   241
  5
284
 10
13153.582352
 20
3404.298912
 30
0.0
 42
-0.064663
  0
VERTEX
  8
3
  6
CONTINUOUS
 62
   241
  5
285
 10
13153.580272
 20
3404.30369
 30
0.0
 42
-0.069642
  0
VERTEX
  8
3
  6
CONTINUOUS
 62
   241
  5
286
 10
13153.579569
 20
3404.308659
 30
0.0
 42
-0.069642
  0
SEQEND
  8
3
  6
CONTINUOUS
 62
   241
  5
287
  0
CIRCLE
  8
3
  6
CONTINUOUS
 62
   241
  5
288
 10
13152.776804
 20
3404.015663
 30
0.0
 40
0.033385
210
0.0
220
0.0
230
1.0
  0
POLYLINE
  8
3
  6
CONTINUOUS
 62
   241
  5
289
 66
     1
 10
0.0
 20
0.0
 30
0.0
210
0.0
220
0.0
230
1.0
  0
VERTEX
  8
3
  6
CONTINUOUS
 62
   241
  5
28A
 10
13152.743417
 20
3403.996417
 30
0.0
  0
VERTEX
  8
3
  6
CONTINUOUS
 62
   241
  5
28B
 10
13152.776917
 20
3403.976917
 30
0.0
  0
VERTEX
  8
3
  6
CONTINUOUS
 62
   241
  5
28C
 10
13152.81
 20
3403.996417
 30
0.0
  0
VERTEX
  8
3
  6
CONTINUOUS
 62
   241
  5
28D
 10
13152.81
 20
3404.034917
 30
0.0
  0
VERTEX
  8
3
  6
CONTINUOUS
 62
   241
  5
28E
 10
13152.776917
 20
3404.05375
 30
0.0
  0
VERTEX
  8
3
  6
CONTINUOUS
 62
   241
  5
28F
 10
13152.743417
 20
3404.034917
 30
0.0
  0
VERTEX
  8
3
  6
CONTINUOUS
 62
   241
  5
290
 10
13152.743417
 20
3403.996417
 30
0.0
  0
SEQEND
  8
3
  6
CONTINUOUS
 62
   241
  5
291
  0
CIRCLE
  8
3
  6
CONTINUOUS
 62
   241
  5
292
 10
13152.776804
 20
3404.371741
 30
0.0
 40
0.033385
210
0.0
220
0.0
230
1.0
  0
POLYLINE
  8
3
  6
CONTINUOUS
 62
   241
  5
293
 66
     1
 10
0.0
 20
0.0
 30
0.0
210
0.0
220
0.0
230
1.0
  0
VERTEX
  8
3
  6
CONTINUOUS
 62
   241
  5
294
 10
13152.743417
 20
3404.352417
 30
0.0
  0
VERTEX
  8
3
  6
CONTINUOUS
 62
   241
  5
295
 10
13152.776917
 20
3404.333333
 30
0.0
  0
VERTEX
  8
3
  6
CONTINUOUS
 62
   241
  5
296
 10
13152.81
 20
3404.352417
 30
0.0
  0
VERTEX
  8
3
  6
CONTINUOUS
 62
   241
  5
297
 10
13152.81
 20
3404.390833
 30
0.0
  0
VERTEX
  8
3
  6
CONTINUOUS
 62
   241
  5
298
 10
13152.776917
 20
3404.410333
 30
0.0
  0
VERTEX
  8
3
  6
CONTINUOUS
 62
   241
  5
299
 10
13152.743417
 20
3404.390833
 30
0.0
  0
VERTEX
  8
3
  6
CONTINUOUS
 62
   241
  5
29A
 10
13152.743417
 20
3404.352417
 30
0.0
  0
SEQEND
  8
3
  6
CONTINUOUS
 62
   241
  5
29B
  0
CIRCLE
  8
3
  6
CONTINUOUS
 62
   241
  5
29C
 10
13152.980276
 20
3404.193702
 30
0.0
 40
0.033385
210
0.0
220
0.0
230
1.0
  0
POLYLINE
  8
3
  6
CONTINUOUS
 62
   241
  5
29D
 66
     1
 10
0.0
 20
0.0
 30
0.0
210
0.0
220
0.0
230
1.0
  0
VERTEX
  8
3
  6
CONTINUOUS
 62
   241
  5
29E
 10
13152.946833
 20
3404.174667
 30
0.0
  0
VERTEX
  8
3
  6
CONTINUOUS
 62
   241
  5
29F
 10
13152.98025
 20
3404.155083
 30
0.0
  0
VERTEX
  8
3
  6
CONTINUOUS
 62
   241
  5
2A0
 10
13153.013833
 20
3404.174667
 30
0.0
  0
VERTEX
  8
3
  6
CONTINUOUS
 62
   241
  5
2A1
 10
13153.013833
 20
3404.213083
 30
0.0
  0
VERTEX
  8
3
  6
CONTINUOUS
 62
   241
  5
2A2
 10
13152.98025
 20
3404.232083
 30
0.0
  0
VERTEX
  8
3
  6
CONTINUOUS
 62
   241
  5
2A3
 10
13152.946833
 20
3404.213083
 30
0.0
  0
VERTEX
  8
3
  6
CONTINUOUS
 62
   241
  5
2A4
 10
13152.946833
 20
3404.174667
 30
0.0
  0
SEQEND
  8
3
  6
CONTINUOUS
 62
   241
  5
2A5
  0
CIRCLE
  8
3
  6
CONTINUOUS
 62
   241
  5
2A6
 10
13153.183749
 20
3404.193702
 30
0.0
 40
0.033385
210
0.0
220
0.0
230
1.0
  0
POLYLINE
  8
3
  6
CONTINUOUS
 62
   241
  5
2A7
 66
     1
 10
0.0
 20
0.0
 30
0.0
210
0.0
220
0.0
230
1.0
  0
VERTEX
  8
3
  6
CONTINUOUS
 62
   241
  5
2A8
 10
13153.150667
 20
3404.174667
 30
0.0
  0
VERTEX
  8
3
  6
CONTINUOUS
 62
   241
  5
2A9
 10
13153.183667
 20
3404.155083
 30
0.0
  0
VERTEX
  8
3
  6
CONTINUOUS
 62
   241
  5
2AA
 10
13153.217167
 20
3404.174667
 30
0.0
  0
VERTEX
  8
3
  6
CONTINUOUS
 62
   241
  5
2AB
 10
13153.217167
 20
3404.213083
 30
0.0
  0
VERTEX
  8
3
  6
CONTINUOUS
 62
   241
  5
2AC
 10
13153.183667
 20
3404.232083
 30
0.0
  0
VERTEX
  8
3
  6
CONTINUOUS
 62
   241
  5
2AD
 10
13153.150667
 20
3404.213083
 30
0.0
  0
VERTEX
  8
3
  6
CONTINUOUS
 62
   241
  5
2AE
 10
13153.150667
 20
3404.174667
 30
0.0
  0
SEQEND
  8
3
  6
CONTINUOUS
 62
   241
  5
2AF
  0
CIRCLE
  8
3
  6
CONTINUOUS
 62
   241
  5
2B0
 10
13152.776804
 20
3404.015663
 30
0.0
 40
0.057227
210
0.0
220
0.0
230
1.0
  0
CIRCLE
  8
3
  6
CONTINUOUS
 62
   241
  5
2B1
 10
13152.776804
 20
3404.371741
 30
0.0
 40
0.057227
210
0.0
220
0.0
230
1.0
  0
CIRCLE
  8
3
  6
CONTINUOUS
 62
   241
  5
2B2
 10
13152.980276
 20
3404.193702
 30
0.0
 40
0.057227
210
0.0
220
0.0
230
1.0
  0
CIRCLE
  8
3
  6
CONTINUOUS
 62
   241
  5
2B3
 10
13153.183749
 20
3404.193702
 30
0.0
 40
0.057227
210
0.0
220
0.0
230
1.0
  0
LINE
  8
3
  6
CONTINUOUS
 62
   241
  5
2B4
 10
13153.183667
 20
3403.891583
 30
0.0
 11
13154.29825
 21
3403.891583
 31
0.0
  0
LINE
  8
3
  6
CONTINUOUS
 62
   241
  5
2B5
 10
13153.18425
 20
3404.500083
 30
0.0
 11
13154.29825
 21
3404.500083
 31
0.0
  0
LINE
  8
3
  6
CONTINUOUS
 62
   241
  5
2B6
 10
13154.29825
 20
3404.125833
 30
0.0
 11
13153.203833
 21
3404.125833
 31
0.0
  0
LINE
  8
3
  6
CONTINUOUS
 62
   241
  5
2B7
 10
13154.420333
 20
3404.261417
 30
0.0
 11
13153.203833
 21
3404.261417
 31
0.0
  0
LINE
  8
3
  6
CONTINUOUS
 62
   241
  5
2B8
 10
13154.420333
 20
3404.261417
 30
0.0
 11
13162.0505
 21
3404.261417
 31
0.0
  0
CIRCLE
  8
3
  6
CONTINUOUS
 62
   241
  5
2B9
 10
13156.683383
 20
3404.19361
 30
0.0
 40
0.036567
210
0.0
220
0.0
230
1.0
  0
CIRCLE
  8
3
  6
CONTINUOUS
 62
   241
  5
2BA
 10
13157.645817
 20
3404.193605
 30
0.0
 40
0.036567
210
0.0
220
0.0
230
1.0
  0
LINE
  8
3
  6
CONTINUOUS
 62
   241
  5
2BB
 10
13162.0505
 20
3404.261417
 30
0.0
 11
13169.9865
 21
3404.261417
 31
0.0
  0
LINE
  8
3
  6
CONTINUOUS
 62
   241
  5
2BC
 10
13162.012833
 20
3404.504833
 30
0.0
 11
13169.967583
 21
3404.504833
 31
0.0
  0
LINE
  8
3
  6
CONTINUOUS
 62
   241
  5
2BD
 10
13162.031583
 20
3403.882333
 30
0.0
 11
13169.967583
 21
3403.882333
 31
0.0
  0
LINE
  8
3
  6
CONTINUOUS
 62
   241
  5
2BE
 10
13162.009167
 20
3404.125833
 30
0.0
 11
13169.967583
 21
3404.125833
 31
0.0
  0
LINE
  8
3
  6
CONTINUOUS
 62
   241
  5
2BF
 10
13153.615833
 20
3403.882333
 30
0.0
 11
13162.031583
 21
3403.882333
 31
0.0
  0
LINE
  8
3
  6
CONTINUOUS
 62
   241
  5
2C0
 10
13161.083667
 20
3403.8805
 30
0.0
 11
13161.083667
 21
3404.503083
 31
0.0
  0
LINE
  8
3
  6
CONTINUOUS
 62
   241
  5
2C1
 10
13165.333667
 20
3403.882333
 30
0.0
 11
13165.333667
 21
3403.0765
 31
0.0
  0
LINE
  8
3
  6
CONTINUOUS
 62
   241
  5
2C2
 10
13165.130333
 20
3403.882333
 30
0.0
 11
13165.130333
 21
3403.0765
 31
0.0
  0
LINE
  8
3
  6
CONTINUOUS
 62
   241
  5
2C3
 10
13163.222667
 20
3403.882333
 30
0.0
 11
13163.222667
 21
3403.088083
 31
0.0
  0
LINE
  8
3
  6
CONTINUOUS
 62
   241
  5
2C4
 10
13163.425917
 20
3403.882333
 30
0.0
 11
13163.425917
 21
3403.088083
 31
0.0
  0
LINE
  8
3
  6
CONTINUOUS
 62
   241
  5
2C5
 10
13154.699417
 20
3402.81825
 30
0.0
 11
13154.873583
 21
3403.060667
 31
0.0
  0
LINE
  8
3
  6
CONTINUOUS
 62
   241
  5
2C6
 10
13154.852
 20
3402.81825
 30
0.0
 11
13155.026333
 21
3403.060667
 31
0.0
  0
LINE
  8
3
  6
CONTINUOUS
 62
   241
  5
2C7
 10
13155.004667
 20
3402.81825
 30
0.0
 11
13155.179
 21
3403.060667
 31
0.0
  0
LINE
  8
3
  6
CONTINUOUS
 62
   241
  5
2C8
 10
13155.322667
 20
3402.8505
 30
0.0
 11
13155.140833
 21
3403.0075
 31
0.0
  0
LINE
  8
3
  6
CONTINUOUS
 62
   241
  5
2C9
 10
13155.412417
 20
3402.97525
 30
0.0
 11
13155.31325
 21
3403.060667
 31
0.0
  0
LINE
  8
3
  6
CONTINUOUS
 62
   241
  5
2CA
 10
13155.299417
 20
3402.81825
 30
0.0
 11
13155.473667
 21
3403.060667
 31
0.0
  0
LINE
  8
3
  6
CONTINUOUS
 62
   241
  5
2CB
 10
13155.452083
 20
3402.81825
 30
0.0
 11
13155.626333
 21
3403.060667
 31
0.0
  0
POLYLINE
  8
3
  6
CONTINUOUS
 62
   241
  5
2CC
 66
     1
 10
0.0
 20
0.0
 30
0.0
210
0.0
220
0.0
230
1.0
  0
VERTEX
  8
3
  6
CONTINUOUS
 62
   241
  5
2CD
 10
13154.014675
 20
3404.308672
 30
0.0
 42
0.069642
  0
VERTEX
  8
3
  6
CONTINUOUS
 62
   241
  5
2CE
 10
13154.015377
 20
3404.303705
 30
0.0
 42
0.064663
  0
VERTEX
  8
3
  6
CONTINUOUS
 62
   241
  5
2CF
 10
13154.017457
 20
3404.298928
 30
0.0
 42
0.05709
  0
VERTEX
  8
3
  6
CONTINUOUS
 62
   241
  5
2D0
 10
13154.020834
 20
3404.294526
 30
0.0
 42
0.049486
  0
VERTEX
  8
3
  6
CONTINUOUS
 62
   241
  5
2D1
 10
13154.025379
 20
3404.290668
 30
0.0
 42
0.043232
  0
VERTEX
  8
3
  6
CONTINUOUS
 62
   241
  5
2D2
 10
13154.030918
 20
3404.287502
 30
0.0
 42
0.038702
  0
VERTEX
  8
3
  6
CONTINUOUS
 62
   241
  5
2D3
 10
13154.037236
 20
3404.285149
 30
0.0
 42
0.035825
  0
VERTEX
  8
3
  6
CONTINUOUS
 62
   241
  5
2D4
 10
13154.044092
 20
3404.2837
 30
0.0
 42
0.034439
  0
VERTEX
  8
3
  6
CONTINUOUS
 62
   241
  5
2D5
 10
13154.051222
 20
3404.283211
 30
0.0
 42
0.034439
  0
VERTEX
  8
3
  6
CONTINUOUS
 62
   241
  5
2D6
 10
13154.058352
 20
3404.2837
 30
0.0
 42
0.035825
  0
VERTEX
  8
3
  6
CONTINUOUS
 62
   241
  5
2D7
 10
13154.065208
 20
3404.285149
 30
0.0
 42
0.038702
  0
VERTEX
  8
3
  6
CONTINUOUS
 62
   241
  5
2D8
 10
13154.071526
 20
3404.287502
 30
0.0
 42
0.043232
  0
VERTEX
  8
3
  6
CONTINUOUS
 62
   241
  5
2D9
 10
13154.077065
 20
3404.290668
 30
0.0
 42
0.049486
  0
VERTEX
  8
3
  6
CONTINUOUS
 62
   241
  5
2DA
 10
13154.08161
 20
3404.294526
 30
0.0
 42
0.05709
  0
VERTEX
  8
3
  6
CONTINUOUS
 62
   241
  5
2DB
 10
13154.084987
 20
3404.298928
 30
0.0
 42
0.064663
  0
VERTEX
  8
3
  6
CONTINUOUS
 62
   241
  5
2DC
 10
13154.087067
 20
3404.303705
 30
0.0
 42
0.069642
  0
VERTEX
  8
3
  6
CONTINUOUS
 62
   241
  5
2DD
 10
13154.087769
 20
3404.308672
 30
0.0
 42
0.069642
  0
SEQEND
  8
3
  6
CONTINUOUS
 62
   241
  5
2DE
  0
POLYLINE
  8
3
  6
CONTINUOUS
 62
   241
  5
2DF
 66
     1
 10
0.0
 20
0.0
 30
0.0
210
0.0
220
0.0
230
1.0
  0
VERTEX
  8
3
  6
CONTINUOUS
 62
   241
  5
2E0
 10
13154.087769
 20
3404.308672
 30
0.0
 42
0.105926
  0
VERTEX
  8
3
  6
CONTINUOUS
 62
   241
  5
2E1
 10
13154.087067
 20
3404.31183
 30
0.0
 42
0.082645
  0
VERTEX
  8
3
  6
CONTINUOUS
 62
   241
  5
2E2
 10
13154.084987
 20
3404.314866
 30
0.0
 42
0.058441
  0
VERTEX
  8
3
  6
CONTINUOUS
 62
   241
  5
2E3
 10
13154.08161
 20
3404.317664
 30
0.0
 42
0.042129
  0
VERTEX
  8
3
  6
CONTINUOUS
 62
   241
  5
2E4
 10
13154.077065
 20
3404.320117
 30
0.0
 42
0.032313
  0
VERTEX
  8
3
  6
CONTINUOUS
 62
   241
  5
2E5
 10
13154.071526
 20
3404.32213
 30
0.0
 42
0.026577
  0
VERTEX
  8
3
  6
CONTINUOUS
 62
   241
  5
2E6
 10
13154.065208
 20
3404.323626
 30
0.0
 42
0.023395
  0
VERTEX
  8
3
  6
CONTINUOUS
 62
   241
  5
2E7
 10
13154.058352
 20
3404.324547
 30
0.0
 42
0.021971
  0
VERTEX
  8
3
  6
CONTINUOUS
 62
   241
  5
2E8
 10
13154.051222
 20
3404.324858
 30
0.0
 42
0.021971
  0
VERTEX
  8
3
  6
CONTINUOUS
 62
   241
  5
2E9
 10
13154.044092
 20
3404.324547
 30
0.0
 42
0.023395
  0
VERTEX
  8
3
  6
CONTINUOUS
 62
   241
  5
2EA
 10
13154.037236
 20
3404.323626
 30
0.0
 42
0.026577
  0
VERTEX
  8
3
  6
CONTINUOUS
 62
   241
  5
2EB
 10
13154.030918
 20
3404.32213
 30
0.0
 42
0.032313
  0
VERTEX
  8
3
  6
CONTINUOUS
 62
   241
  5
2EC
 10
13154.025379
 20
3404.320117
 30
0.0
 42
0.042129
  0
VERTEX
  8
3
  6
CONTINUOUS
 62
   241
  5
2ED
 10
13154.020834
 20
3404.317664
 30
0.0
 42
0.058441
  0
VERTEX
  8
3
  6
CONTINUOUS
 62
   241
  5
2EE
 10
13154.017457
 20
3404.314866
 30
0.0
 42
0.082645
  0
VERTEX
  8
3
  6
CONTINUOUS
 62
   241
  5
2EF
 10
13154.015377
 20
3404.31183
 30
0.0
 42
0.105926
  0
VERTEX
  8
3
  6
CONTINUOUS
 62
   241
  5
2F0
 10
13154.014675
 20
3404.308672
 30
0.0
 42
0.105926
  0
SEQEND
  8
3
  6
CONTINUOUS
 62
   241
  5
2F1
  0
LINE
  8
3
  6
HIDDEN
 62
   241
  5
2F2
 10
13161.693417
 20
3404.504833
 30
0.0
 11
13161.693417
 21
3403.879667
 31
0.0
  0
LINE
  8
3
  6
CONTINUOUS
 62
   241
  5
2F3
 10
13151.68
 20
3400.959417
 30
0.0
 11
13151.68
 21
3403.45925
 31
0.0
  0
LINE
  8
3
  6
CONTINUOUS
 62
   241
  5
2F4
 10
13151.68
 20
3403.950083
 30
0.0
 11
13151.68
 21
3405.289417
 31
0.0
  0
LINE
  8
3
  6
CONTINUOUS
 62
   241
  5
2F5
 10
13169.967583
 20
3405.079917
 30
0.0
 11
13169.967583
 21
3403.628917
 31
0.0
  0
LINE
  8
3
  6
CONTINUOUS
 62
   241
  5
2F6
 10
13169.967583
 20
3403.294417
 30
0.0
 11
13169.967583
 21
3401.977667
 31
0.0
  0
LINE
  8
3
  6
CONTINUOUS
 62
   241
  5
2F7
 10
13169.967583
 20
3403.628917
 30
0.0
 11
13170.097
 21
3403.461833
 31
0.0
  0
LINE
  8
3
  6
CONTINUOUS
 62
   241
  5
2F8
 10
13170.097
 20
3403.461833
 30
0.0
 11
13169.854667
 21
3403.456083
 31
0.0
  0
LINE
  8
3
  6
CONTINUOUS
 62
   241
  5
2F9
 10
13169.854667
 20
3403.456083
 30
0.0
 11
13169.967583
 21
3403.294417
 31
0.0
  0
LINE
  8
3
  6
CONTINUOUS
 62
   241
  5
2FA
 10
13151.68
 20
3403.950083
 30
0.0
 11
13151.8375
 21
3403.700333
 31
0.0
  0
LINE
  8
3
  6
CONTINUOUS
 62
   241
  5
2FB
 10
13151.8375
 20
3403.700333
 30
0.0
 11
13151.5335
 21
3403.708833
 31
0.0
  0
LINE
  8
3
  6
CONTINUOUS
 62
   241
  5
2FC
 10
13151.5335
 20
3403.708833
 30
0.0
 11
13151.68
 21
3403.45925
 31
0.0
  0
LINE
  8
3
  6
CONTINUOUS
 62
   241
  5
2FD
 10
13160.865917
 20
3405.670167
 30
0.0
 11
13158.12
 21
3405.670167
 31
0.0
  0
TEXT
  8
3
  6
CONTINUOUS
 62
   241
  5
2FE
 10
13162.20125
 20
3406.510833
 30
0.0
 40
0.293
  1
PLAN
  7
txt
 11
13162.20125
 21
3406.657333
 31
0.0
210
0.0
220
0.0
230
1.0
 73
     2
  0
LINE
  8
3
  6
CONTINUOUS
 62
   241
  5
2FF
 10
13159.344333
 20
3408.679167
 30
0.0
 11
13159.188
 21
3408.679167
 31
0.0
  0
LINE
  8
3
  6
CONTINUOUS
 62
   241
  5
300
 10
13158.390833
 20
3408.616333
 30
0.0
 11
13158.157
 21
3408.616333
 31
0.0
  0
LINE
  8
3
  6
CONTINUOUS
 62
   241
  5
301
 10
13160.2985
 20
3408.7305
 30
0.0
 11
13160.047583
 21
3408.7305
 31
0.0
  0
LINE
  8
3
  6
CONTINUOUS
 62
   241
  5
302
 10
13169.98225
 20
3408.482083
 30
0.0
 11
13156.641167
 21
3408.482083
 31
0.0
  0
LINE
  8
3
  6
CONTINUOUS
 62
   241
  5
303
 10
13157.555833
 20
3408.535167
 30
0.0
 11
13158.500083
 21
3408.602833
 31
0.0
  0
LINE
  8
3
  6
CONTINUOUS
 62
   241
  5
304
 10
13158.500083
 20
3408.602833
 30
0.0
 11
13159.453083
 21
3408.670083
 31
0.0
  0
LINE
  8
3
  6
CONTINUOUS
 62
   241
  5
305
 10
13159.453083
 20
3408.670083
 30
0.0
 11
13160.406583
 21
3408.737333
 31
0.0
  0
ARC
  8
3
  6
CONTINUOUS
 62
   241
  5
306
 10
13160.032305
 20
3408.958831
 30
0.0
 40
0.209438
 50
144.367578
 51
286.513367
210
0.0
220
0.0
230
1.0
  0
ARC
  8
3
  6
CONTINUOUS
 62
   241
  5
307
 10
13159.086357
 20
3408.954332
 30
0.0
 40
0.23516
 50
146.710436
 51
286.380906
210
0.0
220
0.0
230
1.0
  0
ARC
  8
3
  6
CONTINUOUS
 62
   241
  5
308
 10
13158.25583
 20
3408.977382
 30
0.0
 40
0.304484
 50
159.763778
 51
259.880992
210
0.0
220
0.0
230
1.0
  0
LINE
  8
3
  6
CONTINUOUS
 62
   241
  5
309
 10
13166.66025
 20
3407.673167
 30
0.0
 11
13166.66025
 21
3409.657333
 31
0.0
  0
LINE
  8
3
  6
CONTINUOUS
 62
   241
  5
30A
 10
13166.66025
 20
3409.657333
 30
0.0
 11
13167.148833
 21
3409.657333
 31
0.0
  0
LINE
  8
3
  6
CONTINUOUS
 62
   241
  5
30B
 10
13166.66025
 20
3407.673167
 30
0.0
 11
13167.148833
 21
3407.673167
 31
0.0
  0
LINE
  8
3
  6
CONTINUOUS
 62
   241
  5
30C
 10
13158.69725
 20
3408.076917
 30
0.0
 11
13159.185583
 21
3408.076917
 31
0.0
  0
LINE
  8
3
  6
CONTINUOUS
 62
   241
  5
30D
 10
13158.69725
 20
3410.061
 30
0.0
 11
13159.185583
 21
3410.061
 31
0.0
  0
LINE
  8
3
  6
CONTINUOUS
 62
   241
  5
30E
 10
13158.69725
 20
3408.076917
 30
0.0
 11
13158.69725
 21
3410.061
 31
0.0
  0
TEXT
  8
3
  6
CONTINUOUS
 62
   241
  5
30F
 10
13157.9365
 20
3409.15875
 30
0.0
 40
0.195333
  1
2
  7
txt
 72
     4
 11
13158.001083
 21
3409.256417
 31
0.0
210
0.0
220
0.0
230
1.0
  0
TEXT
  8
3
  6
CONTINUOUS
 62
   241
  5
310
 10
13158.85825
 20
3409.15875
 30
0.0
 40
0.195333
  1
3
  7
txt
 72
     4
 11
13158.922833
 21
3409.256417
 31
0.0
210
0.0
220
0.0
230
1.0
  0
TEXT
  8
3
  6
CONTINUOUS
 62
   241
  5
311
 10
13159.77925
 20
3409.15875
 30
0.0
 40
0.195333
  1
4
  7
txt
 72
     4
 11
13159.843833
 21
3409.256417
 31
0.0
210
0.0
220
0.0
230
1.0
  0
TEXT
  8
3
  6
CONTINUOUS
 62
   241
  5
312
 10
13157.177333
 20
3409.15875
 30
0.0
 40
0.195333
  1
1
  7
txt
 72
     4
 11
13157.241917
 21
3409.256417
 31
0.0
210
0.0
220
0.0
230
1.0
  0
TEXT
  8
3
  6
CONTINUOUS
 62
   241
  5
313
 10
13168.339417
 20
3416.2825
 30
0.0
 40
0.195333
  1
POST
  7
txt
 11
13168.339417
 21
3416.380167
 31
0.0
210
0.0
220
0.0
230
1.0
 73
     2
  0
TEXT
  8
3
  6
CONTINUOUS
 62
   241
  5
314
 10
13169.691417
 20
3416.28675
 30
0.0
 40
0.195333
  1
THICKNESS
  7
txt
 11
13169.691417
 21
3416.384417
 31
0.0
210
0.0
220
0.0
230
1.0
 73
     2
  0
TEXT
  8
3
  6
CONTINUOUS
 62
   241
  5
315
 10
13168.641333
 20
3413.686333
 30
0.0
 40
0.195333
  1
4
  7
txt
 11
13168.641333
 21
3413.784
 31
0.0
210
0.0
220
0.0
230
1.0
 73
     2
  0
TEXT
  8
3
  6
CONTINUOUS
 62
   241
  5
316
 10
13168.641333
 20
3414.350917
 30
0.0
 40
0.195333
  1
3
  7
txt
 11
13168.641333
 21
3414.448583
 31
0.0
210
0.0
220
0.0
230
1.0
 73
     2
  0
TEXT
  8
3
  6
CONTINUOUS
 62
   241
  5
317
 10
13168.641333
 20
3415.022333
 30
0.0
 40
0.195333
  1
2
  7
txt
 11
13168.641333
 21
3415.12
 31
0.0
210
0.0
220
0.0
230
1.0
 73
     2
  0
LINE
  8
3
  6
CONTINUOUS
 62
   241
  5
318
 10
13169.42275
 20
3416.629167
 30
0.0
 11
13169.42275
 21
3413.449167
 31
0.0
  0
LINE
  8
3
  6
CONTINUOUS
 62
   241
  5
319
 10
13167.954083
 20
3416.1615
 30
0.0
 11
13171.36475
 21
3416.1615
 31
0.0
  0
LINE
  8
3
  6
CONTINUOUS
 62
   241
  5
31A
 10
13171.36475
 20
3416.629167
 30
0.0
 11
13171.36475
 21
3413.449167
 31
0.0
  0
LINE
  8
3
  6
CONTINUOUS
 62
   241
  5
31B
 10
13167.954083
 20
3416.629167
 30
0.0
 11
13171.36475
 21
3416.629167
 31
0.0
  0
LINE
  8
3
  6
CONTINUOUS
 62
   241
  5
31C
 10
13167.954083
 20
3415.461917
 30
0.0
 11
13171.354417
 21
3415.461917
 31
0.0
  0
LINE
  8
3
  6
CONTINUOUS
 62
   241
  5
31D
 10
13167.954083
 20
3414.778167
 30
0.0
 11
13171.36475
 21
3414.778167
 31
0.0
  0
LINE
  8
3
  6
CONTINUOUS
 62
   241
  5
31E
 10
13167.954083
 20
3414.119
 30
0.0
 11
13171.36475
 21
3414.119
 31
0.0
  0
TEXT
  8
3
  6
CONTINUOUS
 62
   241
  5
31F
 10
13168.641333
 20
3415.714083
 30
0.0
 40
0.195333
  1
1
  7
txt
 11
13168.641333
 21
3415.81175
 31
0.0
210
0.0
220
0.0
230
1.0
 73
     2
  0
LINE
  8
3
  6
CONTINUOUS
 62
   241
  5
320
 10
13167.959583
 20
3413.449167
 30
0.0
 11
13171.36475
 21
3413.449167
 31
0.0
  0
TEXT
  8
3
  6
CONTINUOUS
 62
   241
  5
321
 10
13168.597083
 20
3417.090583
 30
0.0
 40
0.195333
  1
WOOD BLOCKS
  7
txt
 11
13168.597083
 21
3417.18825
 31
0.0
210
0.0
220
0.0
230
1.0
 73
     2
  0
POLYLINE
  8
3
  6
CONTINUOUS
 62
   241
  5
322
 66
     1
 10
0.0
 20
0.0
 30
0.0
210
0.0
220
0.0
230
1.0
  0
VERTEX
  8
3
  6
CONTINUOUS
 62
   241
  5
323
 10
13153.184833
 20
3409.229833
 30
0.0
  0
VERTEX
  8
3
  6
CONTINUOUS
 62
   241
  5
324
 10
13153.184833
 20
3409.253667
 30
0.0
  0
VERTEX
  8
3
  6
CONTINUOUS
 62
   241
  5
325
 10
13153.1305
 20
3409.253667
 30
0.0
  0
VERTEX
  8
3
  6
CONTINUOUS
 62
   241
  5
326
 10
13153.1305
 20
3409.229833
 30
0.0
  0
SEQEND
  8
3
  6
CONTINUOUS
 62
   241
  5
327
  0
POLYLINE
  8
3
  6
CONTINUOUS
 62
   241
  5
328
 66
     1
 10
0.0
 20
0.0
 30
0.0
210
0.0
220
0.0
230
1.0
  0
VERTEX
  8
3
  6
CONTINUOUS
 62
   241
  5
329
 10
13152.98025
 20
3409.229333
 30
0.0
  0
VERTEX
  8
3
  6
CONTINUOUS
 62
   241
  5
32A
 10
13152.98025
 20
3409.253083
 30
0.0
  0
VERTEX
  8
3
  6
CONTINUOUS
 62
   241
  5
32B
 10
13152.926667
 20
3409.253083
 30
0.0
  0
VERTEX
  8
3
  6
CONTINUOUS
 62
   241
  5
32C
 10
13152.926667
 20
3409.229333
 30
0.0
  0
SEQEND
  8
3
  6
CONTINUOUS
 62
   241
  5
32D
  0
POLYLINE
  8
3
  6
CONTINUOUS
 62
   241
  5
32E
 66
     1
 10
0.0
 20
0.0
 30
0.0
210
0.0
220
0.0
230
1.0
  0
VERTEX
  8
3
  6
CONTINUOUS
 62
   241
  5
32F
 10
13152.780667
 20
3409.2305
 30
0.0
  0
VERTEX
  8
3
  6
CONTINUOUS
 62
   241
  5
330
 10
13152.780667
 20
3409.254333
 30
0.0
  0
VERTEX
  8
3
  6
CONTINUOUS
 62
   241
  5
331
 10
13152.726917
 20
3409.254333
 30
0.0
  0
VERTEX
  8
3
  6
CONTINUOUS
 62
   241
  5
332
 10
13152.726917
 20
3409.2305
 30
0.0
  0
SEQEND
  8
3
  6
CONTINUOUS
 62
   241
  5
333
  0
POLYLINE
  8
3
  6
CONTINUOUS
 62
   241
  5
334
 66
     1
 10
0.0
 20
0.0
 30
0.0
210
0.0
220
0.0
230
1.0
  0
VERTEX
  8
3
  6
CONTINUOUS
 62
   241
  5
335
 10
13152.769167
 20
3409.255
 30
0.0
  0
VERTEX
  8
3
  6
CONTINUOUS
 62
   241
  5
336
 10
13152.769167
 20
3409.266583
 30
0.0
  0
VERTEX
  8
3
  6
CONTINUOUS
 62
   241
  5
337
 10
13152.74225
 20
3409.266583
 30
0.0
  0
VERTEX
  8
3
  6
CONTINUOUS
 62
   241
  5
338
 10
13152.74225
 20
3409.255
 30
0.0
  0
SEQEND
  8
3
  6
CONTINUOUS
 62
   241
  5
339
  0
POLYLINE
  8
3
  6
CONTINUOUS
 62
   241
  5
33A
 66
     1
 10
0.0
 20
0.0
 30
0.0
210
0.0
220
0.0
230
1.0
  0
VERTEX
  8
3
  6
CONTINUOUS
 62
   241
  5
33B
 10
13152.967583
 20
3409.2525
 30
0.0
  0
VERTEX
  8
3
  6
CONTINUOUS
 62
   241
  5
33C
 10
13152.967583
 20
3409.264083
 30
0.0
  0
VERTEX
  8
3
  6
CONTINUOUS
 62
   241
  5
33D
 10
13152.94
 20
3409.264083
 30
0.0
  0
VERTEX
  8
3
  6
CONTINUOUS
 62
   241
  5
33E
 10
13152.94
 20
3409.2525
 30
0.0
  0
SEQEND
  8
3
  6
CONTINUOUS
 62
   241
  5
33F
  0
POLYLINE
  8
3
  6
CONTINUOUS
 62
   241
  5
340
 66
     1
 10
0.0
 20
0.0
 30
0.0
210
0.0
220
0.0
230
1.0
  0
VERTEX
  8
3
  6
CONTINUOUS
 62
   241
  5
341
 10
13153.170083
 20
3409.254333
 30
0.0
  0
VERTEX
  8
3
  6
CONTINUOUS
 62
   241
  5
342
 10
13153.170083
 20
3409.266
 30
0.0
  0
VERTEX
  8
3
  6
CONTINUOUS
 62
   241
  5
343
 10
13153.143333
 20
3409.266
 30
0.0
  0
VERTEX
  8
3
  6
CONTINUOUS
 62
   241
  5
344
 10
13153.143333
 20
3409.254333
 30
0.0
  0
SEQEND
  8
3
  6
CONTINUOUS
 62
   241
  5
345
  0
LINE
  8
3
  6
CONTINUOUS
 62
   241
  5
346
 10
13151.6715
 20
3408.81375
 30
0.0
 11
13151.6715
 21
3410.054667
 31
0.0
  0
LINE
  8
3
  6
CONTINUOUS
 62
   241
  5
347
 10
13151.6715
 20
3408.81375
 30
0.0
 11
13151.589083
 21
3408.728
 31
0.0
  0
LINE
  8
3
  6
CONTINUOUS
 62
   241
  5
348
 10
13151.589083
 20
3408.728
 30
0.0
 11
13151.7435
 21
3408.712167
 31
0.0
  0
LINE
  8
3
  6
CONTINUOUS
 62
   241
  5
349
 10
13151.7435
 20
3408.712167
 30
0.0
 11
13151.6715
 21
3408.635833
 31
0.0
  0
LINE
  8
3
  6
CONTINUOUS
 62
   241
  5
34A
 10
13151.6715
 20
3408.635833
 30
0.0
 11
13151.6715
 21
3407.68875
 31
0.0
  0
ARC
  8
3
  6
CONTINUOUS
 62
   241
  5
34B
 10
13157.422672
 20
3408.951072
 30
0.0
 40
0.304484
 50
152.555214
 51
259.880992
210
0.0
220
0.0
230
1.0
  0
LINE
  8
3
  6
CONTINUOUS
 62
   241
  5
34C
 10
13164.497167
 20
3417.437083
 30
0.0
 11
13161.827167
 21
3417.437083
 31
0.0
  0
LINE
  8
3
  6
CONTINUOUS
 62
   241
  5
34D
 10
13161.827167
 20
3417.437083
 30
0.0
 11
13161.662917
 21
3416.689333
 31
0.0
  0
LINE
  8
3
  6
CONTINUOUS
 62
   241
  5
34E
 10
13161.827167
 20
3417.437083
 30
0.0
 11
13161.95725
 21
3416.696583
 31
0.0
  0
TEXT
  8
3
  6
CONTINUOUS
 62
   241
  5
34F
 10
13169.101917
 20
3417.422083
 30
0.0
 40
0.195333
  1
RUBRAIL
  7
txt
 11
13169.101917
 21
3417.51975
 31
0.0
210
0.0
220
0.0
230
1.0
 73
     2
  0
TEXT
  8
3
  6
CONTINUOUS
 62
   241
  5
350
 10
13161.891333
 20
3412.349
 30
0.0
 40
0.293
  1
SECTION B-B
  7
txt
 11
13161.891333
 21
3412.4955
 31
0.0
210
0.0
220
0.0
230
1.0
 73
     2
  0
TEXT
  8
3
  6
CONTINUOUS
 62
   241
  5
351
 10
13159.263
 20
3409.937917
 30
0.0
 40
0.293
  1
A
  7
txt
 11
13159.263
 21
3410.084417
 31
0.0
210
0.0
220
0.0
230
1.0
 73
     2
  0
TEXT
  8
3
  6
CONTINUOUS
 62
   241
  5
352
 10
13159.253833
 20
3407.91925
 30
0.0
 40
0.293
  1
A
  7
txt
 11
13159.253833
 21
3408.06575
 31
0.0
210
0.0
220
0.0
230
1.0
 73
     2
  0
LINE
  8
3
  6
CONTINUOUS
 62
   241
  5
353
 10
13154.16425
 20
3415.384667
 30
0.0
 11
13151.622167
 21
3415.13
 31
0.0
  0
LINE
  8
3
  6
CONTINUOUS
 62
   241
  5
354
 10
13151.647333
 20
3414.875667
 30
0.0
 11
13151.799917
 21
3415.139833
 31
0.0
  0
LINE
  8
3
  6
CONTINUOUS
 62
   241
  5
355
 10
13151.799167
 20
3414.890083
 30
0.0
 11
13151.951917
 21
3415.1545
 31
0.0
  0
LINE
  8
3
  6
CONTINUOUS
 62
   241
  5
356
 10
13151.95125
 20
3414.905417
 30
0.0
 11
13152.103833
 21
3415.169833
 31
0.0
  0
LINE
  8
3
  6
CONTINUOUS
 62
   241
  5
357
 10
13152.2645
 20
3414.969667
 30
0.0
 11
13152.067833
 21
3415.1075
 31
0.0
  0
LINE
  8
3
  6
CONTINUOUS
 62
   241
  5
358
 10
13152.340833
 20
3415.102583
 30
0.0
 11
13152.21625
 21
3415.190083
 31
0.0
  0
LINE
  8
3
  6
CONTINUOUS
 62
   241
  5
359
 10
13152.2445
 20
3414.93475
 30
0.0
 11
13152.40175
 21
3415.20825
 31
0.0
  0
LINE
  8
3
  6
CONTINUOUS
 62
   241
  5
35A
 10
13153.6485
 20
3416.47925
 30
0.0
 11
13154.285917
 21
3416.847083
 31
0.0
  0
LINE
  8
3
  6
CONTINUOUS
 62
   241
  5
35B
 10
13152.88475
 20
3416.785083
 30
0.0
 11
13152.88475
 21
3415.2515
 31
0.0
  0
LINE
  8
3
  6
CONTINUOUS
 62
   241
  5
35C
 10
13153.340167
 20
3416.785083
 30
0.0
 11
13152.424333
 21
3416.785083
 31
0.0
  0
LINE
  8
3
  6
CONTINUOUS
 62
   241
  5
35D
 10
13153.6485
 20
3415.373417
 30
0.0
 11
13154.285917
 21
3415.741333
 31
0.0
  0
INSERT
  8
3
  6
CONTINUOUS
 62
   241
  5
3E8
  2
WSEC
 10
13153.3425
 20
3416.739833
 30
0.0
 41
0.061025
 42
0.061025
 43
0.097677
210
0.0
220
0.0
230
0.9999999999999999
  0
POLYLINE
  8
3
  6
CONTINUOUS
 62
   241
  5
3E9
 66
     1
 10
0.0
 20
0.0
 30
0.0
210
0.0
220
0.0
230
1.0
  0
VERTEX
  8
3
  6
CONTINUOUS
 62
   241
  5
3EA
 10
13153.299833
 20
3416.44625
 30
0.0
  0
VERTEX
  8
3
  6
CONTINUOUS
 62
   241
  5
3EB
 10
13153.26625
 20
3416.44625
 30
0.0
  0
VERTEX
  8
3
  6
CONTINUOUS
 62
   241
  5
3EC
 10
13153.26625
 20
3416.4145
 30
0.0
  0
VERTEX
  8
3
  6
CONTINUOUS
 62
   241
  5
3ED
 10
13153.299833
 20
3416.4145
 30
0.0
  0
SEQEND
  8
3
  6
CONTINUOUS
 62
   241
  5
3EE
  0
POLYLINE
  8
3
  6
CONTINUOUS
 62
   241
  5
3EF
 66
     1
 10
0.0
 20
0.0
 30
0.0
210
0.0
220
0.0
230
1.0
  0
VERTEX
  8
3
  6
CONTINUOUS
 62
   241
  5
3F0
 10
13153.325417
 20
3416.456583
 30
0.0
  0
VERTEX
  8
3
  6
CONTINUOUS
 62
   241
  5
3F1
 10
13153.302167
 20
3416.456583
 30
0.0
  0
VERTEX
  8
3
  6
CONTINUOUS
 62
   241
  5
3F2
 10
13153.302167
 20
3416.40225
 30
0.0
  0
VERTEX
  8
3
  6
CONTINUOUS
 62
   241
  5
3F3
 10
13153.325417
 20
3416.40225
 30
0.0
  0
SEQEND
  8
3
  6
CONTINUOUS
 62
   241
  5
3F4
  0
INSERT
  8
3
  6
CONTINUOUS
 62
   241
  5
3F5
  2
WSEC
 10
13153.392333
 20
3416.739833
 30
0.0
 41
0.061025
 42
0.061025
 43
0.097677
210
0.0
220
0.0
230
0.9999999999999999
  0
POLYLINE
  8
3
  6
CONTINUOUS
 62
   241
  5
3F6
 66
     1
 10
0.0
 20
0.0
 30
0.0
210
0.0
220
0.0
230
1.0
  0
VERTEX
  8
3
  6
CONTINUOUS
 62
   241
  5
3F7
 10
13153.362667
 20
3416.456583
 30
0.0
  0
VERTEX
  8
3
  6
CONTINUOUS
 62
   241
  5
3F8
 10
13153.385833
 20
3416.456583
 30
0.0
  0
VERTEX
  8
3
  6
CONTINUOUS
 62
   241
  5
3F9
 10
13153.385833
 20
3416.40225
 30
0.0
  0
VERTEX
  8
3
  6
CONTINUOUS
 62
   241
  5
3FA
 10
13153.362667
 20
3416.40225
 30
0.0
  0
SEQEND
  8
3
  6
CONTINUOUS
 62
   241
  5
3FB
  0
LINE
  8
3
  6
DASHED
 62
   241
  5
3FC
 10
13152.885833
 20
3415.257
 30
0.0
 11
13152.885833
 21
3413.09425
 31
0.0
  0
LINE
  8
3
  6
DASHED
 62
   241
  5
3FD
 10
13152.4365
 20
3413.09425
 30
0.0
 11
13152.888333
 21
3413.09425
 31
0.0
  0
LINE
  8
3
  6
CONTINUOUS
 62
   241
  5
3FE
 10
13152.871833
 20
3415.25225
 30
0.0
 11
13152.871833
 21
3416.780667
 31
0.0
  0
LINE
  8
3
  6
CONTINUOUS
 62
   241
  5
3FF
 10
13152.898833
 20
3416.070917
 30
0.0
 11
13152.898833
 21
3416.778333
 31
0.0
  0
LINE
  8
3
  6
CONTINUOUS
 62
   241
  5
400
 10
13153.564
 20
3415.422167
 30
0.0
 11
13153.564
 21
3416.699667
 31
0.0
  0
TEXT
  8
3
  6
CONTINUOUS
 62
   241
  5
401
 10
13153.296083
 20
3412.46325
 30
0.0
 40
0.293
  1
SECTION A-A
  7
txt
 11
13153.296083
 21
3412.60975
 31
0.0
210
0.0
220
0.0
230
1.0
 73
     2
  0
LINE
  8
3
  6
CONTINUOUS
 62
   241
  5
402
 10
13153.9275
 20
3417.2465
 30
0.0
 11
13157.548583
 21
3417.2465
 31
0.0
  0
LINE
  8
3
  6
CONTINUOUS
 62
   241
  5
403
 10
13153.9275
 20
3417.2465
 30
0.0
 11
13153.453917
 21
3416.72525
 31
0.0
  0
LINE
  8
3
  6
CONTINUOUS
 62
   241
  5
404
 10
13160.0965
 20
3408.421333
 30
0.0
 11
13160.0965
 21
3408.7305
 31
0.0
  0
POLYLINE
  8
3
  6
CONTINUOUS
 62
   241
  5
405
 66
     1
 10
0.0
 20
0.0
 30
0.0
210
0.0
220
0.0
230
1.0
  0
VERTEX
  8
3
  6
CONTINUOUS
 62
   241
  5
406
 10
13165.217667
 20
3408.490667
 30
0.0
  0
VERTEX
  8
3
  6
CONTINUOUS
 62
   241
  5
407
 10
13165.217667
 20
3408.77025
 30
0.0
  0
VERTEX
  8
3
  6
CONTINUOUS
 62
   241
  5
408
 10
13165.314083
 20
3408.77025
 30
0.0
  0
VERTEX
  8
3
  6
CONTINUOUS
 62
   241
  5
409
 10
13165.314083
 20
3408.78
 30
0.0
  0
VERTEX
  8
3
  6
CONTINUOUS
 62
   241
  5
40A
 10
13165.110833
 20
3408.78
 30
0.0
  0
VERTEX
  8
3
  6
CONTINUOUS
 62
   241
  5
40B
 10
13165.110833
 20
3408.77025
 30
0.0
  0
VERTEX
  8
3
  6
CONTINUOUS
 62
   241
  5
40C
 10
13165.207917
 20
3408.77025
 30
0.0
  0
VERTEX
  8
3
  6
CONTINUOUS
 62
   241
  5
40D
 10
13165.207917
 20
3408.489917
 30
0.0
  0
SEQEND
  8
3
  6
CONTINUOUS
 62
   241
  5
40E
  0
POLYLINE
  8
3
  6
CONTINUOUS
 62
   241
  5
40F
 66
     1
 10
0.0
 20
0.0
 30
0.0
210
0.0
220
0.0
230
1.0
  0
VERTEX
  8
3
  6
CONTINUOUS
 62
   241
  5
410
 10
13165.110833
 20
3408.78
 30
0.0
  0
VERTEX
  8
3
  6
CONTINUOUS
 62
   241
  5
411
 10
13165.314083
 20
3408.78
 30
0.0
  0
VERTEX
  8
3
  6
CONTINUOUS
 62
   241
  5
412
 10
13165.314083
 20
3408.789167
 30
0.0
  0
VERTEX
  8
3
  6
CONTINUOUS
 62
   241
  5
413
 10
13165.217667
 20
3408.789167
 30
0.0
  0
VERTEX
  8
3
  6
CONTINUOUS
 62
   241
  5
414
 10
13165.217667
 20
3409.06875
 30
0.0
  0
SEQEND
  8
3
  6
CONTINUOUS
 62
   241
  5
415
  0
POLYLINE
  8
3
  6
CONTINUOUS
 62
   241
  5
416
 66
     1
 10
0.0
 20
0.0
 30
0.0
210
0.0
220
0.0
230
1.0
  0
VERTEX
  8
3
  6
CONTINUOUS
 62
   241
  5
417
 10
13165.207917
 20
3409.06875
 30
0.0
  0
VERTEX
  8
3
  6
CONTINUOUS
 62
   241
  5
418
 10
13165.207917
 20
3408.789167
 30
0.0
  0
VERTEX
  8
3
  6
CONTINUOUS
 62
   241
  5
419
 10
13165.110833
 20
3408.789167
 30
0.0
  0
VERTEX
  8
3
  6
CONTINUOUS
 62
   241
  5
41A
 10
13165.110833
 20
3408.78
 30
0.0
  0
SEQEND
  8
3
  6
CONTINUOUS
 62
   241
  5
41B
  0
LINE
  8
3
  6
CONTINUOUS
 62
   241
  5
41C
 10
13151.6715
 20
3409.654167
 30
0.0
 11
13156.931833
 21
3409.654167
 31
0.0
  0
CIRCLE
  8
3
  6
CONTINUOUS
 62
   241
  5
41D
 10
13156.642482
 20
3408.645707
 30
0.0
 40
0.152615
210
0.0
220
0.0
230
1.0
  0
LINE
  8
3
  6
CONTINUOUS
 62
   241
  5
41E
 10
13156.9135
 20
3408.482083
 30
0.0
 11
13157.555833
 21
3408.535167
 31
0.0
  0
LINE
  8
3
  6
CONTINUOUS
 62
   241
  5
41F
 10
13151.6715
 20
3408.433083
 30
0.0
 11
13155.5865
 21
3408.433083
 31
0.0
  0
LINE
  8
3
  6
CONTINUOUS
 62
   241
  5
420
 10
13152.8035
 20
3408.83325
 30
0.0
 11
13152.753583
 21
3408.875333
 31
0.0
  0
LINE
  8
3
  6
CONTINUOUS
 62
   241
  5
421
 10
13161.694
 20
3408.457083
 30
0.0
 11
13156.639833
 21
3408.457083
 31
0.0
  0
LINE
  8
3
  6
CONTINUOUS
 62
   241
  5
422
 10
13153.298417
 20
3407.101167
 30
0.0
 11
13161.694
 21
3407.101167
 31
0.0
  0
LINE
  8
3
  6
CONTINUOUS
 62
   241
  5
423
 10
13153.3425
 20
3416.072667
 30
0.0
 11
13152.88475
 21
3416.072667
 31
0.0
  0
LINE
  8
3
  6
CONTINUOUS
 62
   241
  5
424
 10
13153.3425
 20
3416.785083
 30
0.0
 11
13153.3425
 21
3416.072667
 31
0.0
  0
LINE
  8
3
  6
CONTINUOUS
 62
   241
  5
425
 10
13153.326
 20
3416.073167
 30
0.0
 11
13153.326
 21
3416.780667
 31
0.0
  0
LINE
  8
3
  6
CONTINUOUS
 62
   241
  5
426
 10
13152.432333
 20
3416.785083
 30
0.0
 11
13152.432333
 21
3415.230167
 31
0.0
  0
LINE
  8
3
  6
CONTINUOUS
 62
   241
  5
427
 10
13152.448833
 20
3415.223
 30
0.0
 11
13152.448833
 21
3416.780667
 31
0.0
  0
POLYLINE
  8
3
  6
CONTINUOUS
 62
   241
  5
428
 66
     1
 10
0.0
 20
0.0
 30
0.0
210
0.0
220
0.0
230
1.0
  0
VERTEX
  8
3
  6
CONTINUOUS
 62
   241
  5
429
 10
13152.84675
 20
3416.694083
 30
0.0
  0
VERTEX
  8
3
  6
CONTINUOUS
 62
   241
  5
42A
 10
13152.812667
 20
3416.694083
 30
0.0
  0
VERTEX
  8
3
  6
CONTINUOUS
 62
   241
  5
42B
 10
13152.812667
 20
3416.662417
 30
0.0
  0
VERTEX
  8
3
  6
CONTINUOUS
 62
   241
  5
42C
 10
13152.84675
 20
3416.662417
 30
0.0
  0
SEQEND
  8
3
  6
CONTINUOUS
 62
   241
  5
42D
  0
POLYLINE
  8
3
  6
CONTINUOUS
 62
   241
  5
42E
 66
     1
 10
0.0
 20
0.0
 30
0.0
210
0.0
220
0.0
230
1.0
  0
VERTEX
  8
3
  6
CONTINUOUS
 62
   241
  5
42F
 10
13152.871833
 20
3416.704
 30
0.0
  0
VERTEX
  8
3
  6
CONTINUOUS
 62
   241
  5
430
 10
13152.848667
 20
3416.704
 30
0.0
  0
VERTEX
  8
3
  6
CONTINUOUS
 62
   241
  5
431
 10
13152.848667
 20
3416.650167
 30
0.0
  0
VERTEX
  8
3
  6
CONTINUOUS
 62
   241
  5
432
 10
13152.871833
 20
3416.650167
 30
0.0
  0
SEQEND
  8
3
  6
CONTINUOUS
 62
   241
  5
433
  0
POLYLINE
  8
3
  6
CONTINUOUS
 62
   241
  5
434
 66
     1
 10
0.0
 20
0.0
 30
0.0
210
0.0
220
0.0
230
1.0
  0
VERTEX
  8
3
  6
CONTINUOUS
 62
   241
  5
435
 10
13152.899333
 20
3416.704417
 30
0.0
  0
VERTEX
  8
3
  6
CONTINUOUS
 62
   241
  5
436
 10
13152.922583
 20
3416.704417
 30
0.0
  0
VERTEX
  8
3
  6
CONTINUOUS
 62
   241
  5
437
 10
13152.922583
 20
3416.650833
 30
0.0
  0
VERTEX
  8
3
  6
CONTINUOUS
 62
   241
  5
438
 10
13152.899333
 20
3416.650833
 30
0.0
  0
SEQEND
  8
3
  6
CONTINUOUS
 62
   241
  5
439
  0
LINE
  8
3
  6
DASHED
 62
   241
  5
43A
 10
13152.428167
 20
3415.2265
 30
0.0
 11
13152.428167
 21
3413.09425
 31
0.0
  0
LINE
  8
3
  6
CONTINUOUS
 62
   241
  5
43B
 10
13164.207333
 20
3415.39575
 30
0.0
 11
13163.331083
 21
3415.308083
 31
0.0
  0
LINE
  8
3
  6
CONTINUOUS
 62
   241
  5
43C
 10
13160.567833
 20
3414.77425
 30
0.0
 11
13160.720417
 21
3415.0385
 31
0.0
  0
LINE
  8
3
  6
CONTINUOUS
 62
   241
  5
43D
 10
13160.719917
 20
3414.788833
 30
0.0
 11
13160.872417
 21
3415.053167
 31
0.0
  0
LINE
  8
3
  6
CONTINUOUS
 62
   241
  5
43E
 10
13160.871833
 20
3414.804167
 30
0.0
 11
13161.024417
 21
3415.068417
 31
0.0
  0
LINE
  8
3
  6
CONTINUOUS
 62
   241
  5
43F
 10
13161.185
 20
3414.868333
 30
0.0
 11
13160.988417
 21
3415.006167
 31
0.0
  0
LINE
  8
3
  6
CONTINUOUS
 62
   241
  5
440
 10
13161.26125
 20
3415.001417
 30
0.0
 11
13161.136833
 21
3415.088583
 31
0.0
  0
LINE
  8
3
  6
CONTINUOUS
 62
   241
  5
441
 10
13161.16475
 20
3414.833417
 30
0.0
 11
13161.322333
 21
3415.10675
 31
0.0
  0
LINE
  8
3
  6
CONTINUOUS
 62
   241
  5
442
 10
13162.539333
 20
3416.389167
 30
0.0
 11
13162.986083
 21
3416.647167
 31
0.0
  0
LINE
  8
3
  6
CONTINUOUS
 62
   241
  5
443
 10
13161.80525
 20
3416.68375
 30
0.0
 11
13161.80525
 21
3415.15025
 31
0.0
  0
LINE
  8
3
  6
CONTINUOUS
 62
   241
  5
444
 10
13162.260583
 20
3416.68375
 30
0.0
 11
13161.353
 21
3416.68375
 31
0.0
  0
LINE
  8
3
  6
CONTINUOUS
 62
   241
  5
445
 10
13162.526
 20
3415.265667
 30
0.0
 11
13162.986083
 21
3415.531333
 31
0.0
  0
INSERT
  8
3
  6
CONTINUOUS
 62
   241
  5
446
  2
WSEC
 10
13162.263
 20
3416.6385
 30
0.0
 41
0.061025
 42
0.061025
 43
0.097677
210
0.0
220
0.0
230
0.9999999999999999
  0
POLYLINE
  8
3
  6
CONTINUOUS
 62
   241
  5
447
 66
     1
 10
0.0
 20
0.0
 30
0.0
210
0.0
220
0.0
230
1.0
  0
VERTEX
  8
3
  6
CONTINUOUS
 62
   241
  5
448
 10
13162.220333
 20
3416.345
 30
0.0
  0
VERTEX
  8
3
  6
CONTINUOUS
 62
   241
  5
449
 10
13162.186667
 20
3416.345
 30
0.0
  0
VERTEX
  8
3
  6
CONTINUOUS
 62
   241
  5
44A
 10
13162.186667
 20
3416.31325
 30
0.0
  0
VERTEX
  8
3
  6
CONTINUOUS
 62
   241
  5
44B
 10
13162.220333
 20
3416.31325
 30
0.0
  0
SEQEND
  8
3
  6
CONTINUOUS
 62
   241
  5
44C
  0
POLYLINE
  8
3
  6
CONTINUOUS
 62
   241
  5
44D
 66
     1
 10
0.0
 20
0.0
 30
0.0
210
0.0
220
0.0
230
1.0
  0
VERTEX
  8
3
  6
CONTINUOUS
 62
   241
  5
44E
 10
13162.245917
 20
3416.355333
 30
0.0
  0
VERTEX
  8
3
  6
CONTINUOUS
 62
   241
  5
44F
 10
13162.222917
 20
3416.355333
 30
0.0
  0
VERTEX
  8
3
  6
CONTINUOUS
 62
   241
  5
450
 10
13162.222917
 20
3416.300917
 30
0.0
  0
VERTEX
  8
3
  6
CONTINUOUS
 62
   241
  5
451
 10
13162.245917
 20
3416.300917
 30
0.0
  0
SEQEND
  8
3
  6
CONTINUOUS
 62
   241
  5
452
  0
POLYLINE
  8
3
  6
CONTINUOUS
 62
   241
  5
453
 66
     1
 10
0.0
 20
0.0
 30
0.0
210
0.0
220
0.0
230
1.0
  0
VERTEX
  8
3
  6
CONTINUOUS
 62
   241
  5
454
 10
13162.28325
 20
3416.355333
 30
0.0
  0
VERTEX
  8
3
  6
CONTINUOUS
 62
   241
  5
455
 10
13162.306333
 20
3416.355333
 30
0.0
  0
VERTEX
  8
3
  6
CONTINUOUS
 62
   241
  5
456
 10
13162.306333
 20
3416.300917
 30
0.0
  0
VERTEX
  8
3
  6
CONTINUOUS
 62
   241
  5
457
 10
13162.28325
 20
3416.300917
 30
0.0
  0
SEQEND
  8
3
  6
CONTINUOUS
 62
   241
  5
458
  0
LINE
  8
3
  6
DASHED
 62
   241
  5
459
 10
13161.806417
 20
3415.15575
 30
0.0
 11
13161.806417
 21
3412.992917
 31
0.0
  0
LINE
  8
3
  6
DASHED
 62
   241
  5
45A
 10
13161.357167
 20
3412.992917
 30
0.0
 11
13161.808833
 21
3412.992917
 31
0.0
  0
LINE
  8
3
  6
CONTINUOUS
 62
   241
  5
45B
 10
13161.792417
 20
3415.150833
 30
0.0
 11
13161.792417
 21
3416.6795
 31
0.0
  0
LINE
  8
3
  6
CONTINUOUS
 62
   241
  5
45C
 10
13161.819167
 20
3415.969583
 30
0.0
 11
13161.819167
 21
3416.677083
 31
0.0
  0
LINE
  8
3
  6
CONTINUOUS
 62
   241
  5
45D
 10
13162.45475
 20
3416.10075
 30
0.0
 11
13162.45475
 21
3416.54675
 31
0.0
  0
LINE
  8
3
  6
CONTINUOUS
 62
   241
  5
45E
 10
13162.9015
 20
3415.48
 30
0.0
 11
13162.9015
 21
3416.593333
 31
0.0
  0
LINE
  8
3
  6
CONTINUOUS
 62
   241
  5
45F
 10
13162.263
 20
3415.971333
 30
0.0
 11
13161.80525
 21
3415.971333
 31
0.0
  0
LINE
  8
3
  6
CONTINUOUS
 62
   241
  5
460
 10
13162.263
 20
3416.68375
 30
0.0
 11
13162.263
 21
3415.971333
 31
0.0
  0
LINE
  8
3
  6
CONTINUOUS
 62
   241
  5
461
 10
13162.246583
 20
3415.972
 30
0.0
 11
13162.246583
 21
3416.6795
 31
0.0
  0
LINE
  8
3
  6
CONTINUOUS
 62
   241
  5
462
 10
13161.353
 20
3416.68375
 30
0.0
 11
13161.353
 21
3415.128917
 31
0.0
  0
LINE
  8
3
  6
CONTINUOUS
 62
   241
  5
463
 10
13161.369417
 20
3415.1215
 30
0.0
 11
13161.369417
 21
3416.6795
 31
0.0
  0
POLYLINE
  8
3
  6
CONTINUOUS
 62
   241
  5
464
 66
     1
 10
0.0
 20
0.0
 30
0.0
210
0.0
220
0.0
230
1.0
  0
VERTEX
  8
3
  6
CONTINUOUS
 62
   241
  5
465
 10
13161.76725
 20
3416.592917
 30
0.0
  0
VERTEX
  8
3
  6
CONTINUOUS
 62
   241
  5
466
 10
13161.73325
 20
3416.592917
 30
0.0
  0
VERTEX
  8
3
  6
CONTINUOUS
 62
   241
  5
467
 10
13161.73325
 20
3416.561083
 30
0.0
  0
VERTEX
  8
3
  6
CONTINUOUS
 62
   241
  5
468
 10
13161.76725
 20
3416.561083
 30
0.0
  0
SEQEND
  8
3
  6
CONTINUOUS
 62
   241
  5
469
  0
POLYLINE
  8
3
  6
CONTINUOUS
 62
   241
  5
46A
 66
     1
 10
0.0
 20
0.0
 30
0.0
210
0.0
220
0.0
230
1.0
  0
VERTEX
  8
3
  6
CONTINUOUS
 62
   241
  5
46B
 10
13161.792417
 20
3416.602583
 30
0.0
  0
VERTEX
  8
3
  6
CONTINUOUS
 62
   241
  5
46C
 10
13161.769083
 20
3416.602583
 30
0.0
  0
VERTEX
  8
3
  6
CONTINUOUS
 62
   241
  5
46D
 10
13161.769083
 20
3416.54875
 30
0.0
  0
VERTEX
  8
3
  6
CONTINUOUS
 62
   241
  5
46E
 10
13161.792417
 20
3416.54875
 30
0.0
  0
SEQEND
  8
3
  6
CONTINUOUS
 62
   241
  5
46F
  0
POLYLINE
  8
3
  6
CONTINUOUS
 62
   241
  5
470
 66
     1
 10
0.0
 20
0.0
 30
0.0
210
0.0
220
0.0
230
1.0
  0
VERTEX
  8
3
  6
CONTINUOUS
 62
   241
  5
471
 10
13161.819833
 20
3416.603167
 30
0.0
  0
VERTEX
  8
3
  6
CONTINUOUS
 62
   241
  5
472
 10
13161.843083
 20
3416.603167
 30
0.0
  0
VERTEX
  8
3
  6
CONTINUOUS
 62
   241
  5
473
 10
13161.843083
 20
3416.5495
 30
0.0
  0
VERTEX
  8
3
  6
CONTINUOUS
 62
   241
  5
474
 10
13161.819833
 20
3416.5495
 30
0.0
  0
SEQEND
  8
3
  6
CONTINUOUS
 62
   241
  5
475
  0
LINE
  8
3
  6
DASHED
 62
   241
  5
476
 10
13161.348583
 20
3415.125167
 30
0.0
 11
13161.348583
 21
3412.992917
 31
0.0
  0
LINE
  8
3
  6
CONTINUOUS
 62
   241
  5
477
 10
13152.885833
 20
3415.969583
 30
0.0
 11
13153.076333
 21
3415.969583
 31
0.0
  0
LINE
  8
3
  6
CONTINUOUS
 62
   241
  5
478
 10
13153.076333
 20
3415.969583
 30
0.0
 11
13153.076333
 21
3415.613667
 31
0.0
  0
LINE
  8
3
  6
CONTINUOUS
 62
   241
  5
479
 10
13152.885833
 20
3415.613667
 30
0.0
 11
13153.076333
 21
3415.613667
 31
0.0
  0
LINE
  8
3
  6
CONTINUOUS
 62
   241
  5
47A
 10
13153.078917
 20
3415.945083
 30
0.0
 11
13153.1765
 21
3415.945083
 31
0.0
  0
LINE
  8
3
  6
CONTINUOUS
 62
   241
  5
47B
 10
13153.1765
 20
3415.945083
 30
0.0
 11
13153.1765
 21
3415.639667
 31
0.0
  0
LINE
  8
3
  6
CONTINUOUS
 62
   241
  5
47C
 10
13153.078917
 20
3415.639667
 30
0.0
 11
13153.1765
 21
3415.639667
 31
0.0
  0
LINE
  8
3
  6
CONTINUOUS
 62
   241
  5
47D
 10
13153.651
 20
3415.83825
 30
0.0
 11
13154.09125
 21
3416.092417
 31
0.0
  0
LINE
  8
3
  6
CONTINUOUS
 62
   241
  5
47E
 10
13153.0965
 20
3415.809667
 30
0.0
 11
13153.0965
 21
3415.756833
 31
0.0
  0
LINE
  8
3
  6
DASHED
 62
   241
  5
47F
 10
13153.075833
 20
3415.767333
 30
0.0
 11
13152.87
 21
3415.767333
 31
0.0
  0
LINE
  8
3
  6
DASHED
 62
   241
  5
480
 10
13153.076333
 20
3415.799167
 30
0.0
 11
13152.871833
 21
3415.799167
 31
0.0
  0
LINE
  8
3
  6
CONTINUOUS
 62
   241
  5
481
 10
13153.076333
 20
3415.809667
 30
0.0
 11
13153.0965
 21
3415.809667
 31
0.0
  0
LINE
  8
3
  6
CONTINUOUS
 62
   241
  5
482
 10
13153.076333
 20
3415.756833
 30
0.0
 11
13153.0965
 21
3415.756833
 31
0.0
  0
LINE
  8
3
  6
CONTINUOUS
 62
   241
  5
483
 10
13153.19725
 20
3415.808833
 30
0.0
 11
13153.19725
 21
3415.756417
 31
0.0
  0
LINE
  8
3
  6
CONTINUOUS
 62
   241
  5
484
 10
13153.1765
 20
3415.808833
 30
0.0
 11
13153.19725
 21
3415.808833
 31
0.0
  0
LINE
  8
3
  6
CONTINUOUS
 62
   241
  5
485
 10
13153.1765
 20
3415.756417
 30
0.0
 11
13153.19725
 21
3415.756417
 31
0.0
  0
LINE
  8
3
  6
CONTINUOUS
 62
   241
  5
486
 10
13153.854917
 20
3415.955833
 30
0.0
 11
13153.854917
 21
3416.288
 31
0.0
  0
LINE
  8
3
  6
CONTINUOUS
 62
   241
  5
487
 10
13153.854917
 20
3415.146333
 30
0.0
 11
13153.854917
 21
3415.492583
 31
0.0
  0
LINE
  8
3
  6
CONTINUOUS
 62
   241
  5
488
 10
13156.401667
 20
3414.082667
 30
0.0
 11
13153.711333
 21
3414.082667
 31
0.0
  0
LINE
  8
3
  6
CONTINUOUS
 62
   241
  5
489
 10
13153.711333
 20
3414.082667
 30
0.0
 11
13153.19725
 21
3415.787583
 31
0.0
  0
LINE
  8
3
  6
CONTINUOUS
 62
   241
  5
48A
 10
13165.112
 20
3408.480917
 30
0.0
 11
13165.112
 21
3408.490667
 31
0.0
  0
POLYLINE
  8
3
  6
CONTINUOUS
 62
   241
  5
48B
 66
     1
 10
0.0
 20
0.0
 30
0.0
210
0.0
220
0.0
230
1.0
  0
VERTEX
  8
3
  6
CONTINUOUS
 62
   241
  5
48C
 10
13165.112
 20
3408.480917
 30
0.0
  0
VERTEX
  8
3
  6
CONTINUOUS
 62
   241
  5
48D
 10
13165.314083
 20
3408.480917
 30
0.0
  0
VERTEX
  8
3
  6
CONTINUOUS
 62
   241
  5
48E
 10
13165.314083
 20
3408.490667
 30
0.0
  0
VERTEX
  8
3
  6
CONTINUOUS
 62
   241
  5
48F
 10
13165.217667
 20
3408.490667
 30
0.0
  0
SEQEND
  8
3
  6
CONTINUOUS
 62
   241
  5
490
  0
LINE
  8
3
  6
CONTINUOUS
 62
   241
  5
491
 10
13165.207917
 20
3408.490667
 30
0.0
 11
13165.112
 21
3408.490667
 31
0.0
  0
LINE
  8
3
  6
CONTINUOUS
 62
   241
  5
492
 10
13165.112
 20
3409.06875
 30
0.0
 11
13165.112
 21
3409.0785
 31
0.0
  0
LINE
  8
3
  6
CONTINUOUS
 62
   241
  5
493
 10
13165.217667
 20
3409.0785
 30
0.0
 11
13165.112
 21
3409.0785
 31
0.0
  0
LINE
  8
3
  6
CONTINUOUS
 62
   241
  5
494
 10
13165.112
 20
3409.06875
 30
0.0
 11
13165.207917
 21
3409.06875
 31
0.0
  0
POLYLINE
  8
3
  6
CONTINUOUS
 62
   241
  5
495
 66
     1
 10
0.0
 20
0.0
 30
0.0
210
0.0
220
0.0
230
1.0
  0
VERTEX
  8
3
  6
CONTINUOUS
 62
   241
  5
496
 10
13165.217667
 20
3409.06875
 30
0.0
  0
VERTEX
  8
3
  6
CONTINUOUS
 62
   241
  5
497
 10
13165.314083
 20
3409.06875
 30
0.0
  0
VERTEX
  8
3
  6
CONTINUOUS
 62
   241
  5
498
 10
13165.314083
 20
3409.0785
 30
0.0
  0
VERTEX
  8
3
  6
CONTINUOUS
 62
   241
  5
499
 10
13165.217667
 20
3409.0785
 30
0.0
  0
SEQEND
  8
3
  6
CONTINUOUS
 62
   241
  5
49A
  0
POLYLINE
  8
3
  6
CONTINUOUS
 62
   241
  5
49B
 66
     1
 10
0.0
 20
0.0
 30
0.0
210
0.0
220
0.0
230
1.0
  0
VERTEX
  8
3
  6
CONTINUOUS
 62
   241
  5
49C
 10
13163.293417
 20
3408.493083
 30
0.0
  0
VERTEX
  8
3
  6
CONTINUOUS
 62
   241
  5
49D
 10
13163.293417
 20
3408.772583
 30
0.0
  0
VERTEX
  8
3
  6
CONTINUOUS
 62
   241
  5
49E
 10
13163.389917
 20
3408.772583
 30
0.0
  0
VERTEX
  8
3
  6
CONTINUOUS
 62
   241
  5
49F
 10
13163.389917
 20
3408.7825
 30
0.0
  0
VERTEX
  8
3
  6
CONTINUOUS
 62
   241
  5
4A0
 10
13163.186667
 20
3408.7825
 30
0.0
  0
VERTEX
  8
3
  6
CONTINUOUS
 62
   241
  5
4A1
 10
13163.186667
 20
3408.772583
 30
0.0
  0
VERTEX
  8
3
  6
CONTINUOUS
 62
   241
  5
4A2
 10
13163.283583
 20
3408.772583
 30
0.0
  0
VERTEX
  8
3
  6
CONTINUOUS
 62
   241
  5
4A3
 10
13163.283583
 20
3408.4925
 30
0.0
  0
SEQEND
  8
3
  6
CONTINUOUS
 62
   241
  5
4A4
  0
POLYLINE
  8
3
  6
CONTINUOUS
 62
   241
  5
4A5
 66
     1
 10
0.0
 20
0.0
 30
0.0
210
0.0
220
0.0
230
1.0
  0
VERTEX
  8
3
  6
CONTINUOUS
 62
   241
  5
4A6
 10
13163.186667
 20
3408.7825
 30
0.0
  0
VERTEX
  8
3
  6
CONTINUOUS
 62
   241
  5
4A7
 10
13163.389917
 20
3408.7825
 30
0.0
  0
VERTEX
  8
3
  6
CONTINUOUS
 62
   241
  5
4A8
 10
13163.389917
 20
3408.791583
 30
0.0
  0
VERTEX
  8
3
  6
CONTINUOUS
 62
   241
  5
4A9
 10
13163.293417
 20
3408.791583
 30
0.0
  0
VERTEX
  8
3
  6
CONTINUOUS
 62
   241
  5
4AA
 10
13163.293417
 20
3409.07125
 30
0.0
  0
SEQEND
  8
3
  6
CONTINUOUS
 62
   241
  5
4AB
  0
POLYLINE
  8
3
  6
CONTINUOUS
 62
   241
  5
4AC
 66
     1
 10
0.0
 20
0.0
 30
0.0
210
0.0
220
0.0
230
1.0
  0
VERTEX
  8
3
  6
CONTINUOUS
 62
   241
  5
4AD
 10
13163.283583
 20
3409.07125
 30
0.0
  0
VERTEX
  8
3
  6
CONTINUOUS
 62
   241
  5
4AE
 10
13163.283583
 20
3408.791583
 30
0.0
  0
VERTEX
  8
3
  6
CONTINUOUS
 62
   241
  5
4AF
 10
13163.186667
 20
3408.791583
 30
0.0
  0
VERTEX
  8
3
  6
CONTINUOUS
 62
   241
  5
4B0
 10
13163.186667
 20
3408.7825
 30
0.0
  0
SEQEND
  8
3
  6
CONTINUOUS
 62
   241
  5
4B1
  0
LINE
  8
3
  6
CONTINUOUS
 62
   241
  5
4B2
 10
13163.187833
 20
3408.483333
 30
0.0
 11
13163.187833
 21
3408.493083
 31
0.0
  0
POLYLINE
  8
3
  6
CONTINUOUS
 62
   241
  5
4B3
 66
     1
 10
0.0
 20
0.0
 30
0.0
210
0.0
220
0.0
230
1.0
  0
VERTEX
  8
3
  6
CONTINUOUS
 62
   241
  5
4B4
 10
13163.187833
 20
3408.483333
 30
0.0
  0
VERTEX
  8
3
  6
CONTINUOUS
 62
   241
  5
4B5
 10
13163.389917
 20
3408.483333
 30
0.0
  0
VERTEX
  8
3
  6
CONTINUOUS
 62
   241
  5
4B6
 10
13163.389917
 20
3408.493083
 30
0.0
  0
VERTEX
  8
3
  6
CONTINUOUS
 62
   241
  5
4B7
 10
13163.293417
 20
3408.493083
 30
0.0
  0
SEQEND
  8
3
  6
CONTINUOUS
 62
   241
  5
4B8
  0
LINE
  8
3
  6
CONTINUOUS
 62
   241
  5
4B9
 10
13163.283583
 20
3408.493083
 30
0.0
 11
13163.187833
 21
3408.493083
 31
0.0
  0
LINE
  8
3
  6
CONTINUOUS
 62
   241
  5
4BA
 10
13163.187833
 20
3409.07125
 30
0.0
 11
13163.187833
 21
3409.081083
 31
0.0
  0
LINE
  8
3
  6
CONTINUOUS
 62
   241
  5
4BB
 10
13163.293417
 20
3409.081083
 30
0.0
 11
13163.187833
 21
3409.081083
 31
0.0
  0
LINE
  8
3
  6
CONTINUOUS
 62
   241
  5
4BC
 10
13163.187833
 20
3409.07125
 30
0.0
 11
13163.283583
 21
3409.07125
 31
0.0
  0
POLYLINE
  8
3
  6
CONTINUOUS
 62
   241
  5
4BD
 66
     1
 10
0.0
 20
0.0
 30
0.0
210
0.0
220
0.0
230
1.0
  0
VERTEX
  8
3
  6
CONTINUOUS
 62
   241
  5
4BE
 10
13163.293417
 20
3409.07125
 30
0.0
  0
VERTEX
  8
3
  6
CONTINUOUS
 62
   241
  5
4BF
 10
13163.389917
 20
3409.07125
 30
0.0
  0
VERTEX
  8
3
  6
CONTINUOUS
 62
   241
  5
4C0
 10
13163.389917
 20
3409.081083
 30
0.0
  0
VERTEX
  8
3
  6
CONTINUOUS
 62
   241
  5
4C1
 10
13163.293417
 20
3409.081083
 30
0.0
  0
SEQEND
  8
3
  6
CONTINUOUS
 62
   241
  5
4C2
  0
POLYLINE
  8
3
  6
CONTINUOUS
 62
   241
  5
4C3
 66
     1
 10
0.0
 20
0.0
 30
0.0
210
0.0
220
0.0
230
1.0
  0
VERTEX
  8
3
  6
CONTINUOUS
 62
   241
  5
4C4
 10
13161.471833
 20
3408.533333
 30
0.0
  0
VERTEX
  8
3
  6
CONTINUOUS
 62
   241
  5
4C5
 10
13161.471833
 20
3408.567
 30
0.0
  0
VERTEX
  8
3
  6
CONTINUOUS
 62
   241
  5
4C6
 10
13161.44
 20
3408.567
 30
0.0
  0
VERTEX
  8
3
  6
CONTINUOUS
 62
   241
  5
4C7
 10
13161.44
 20
3408.533333
 30
0.0
  0
SEQEND
  8
3
  6
CONTINUOUS
 62
   241
  5
4C8
  0
POLYLINE
  8
3
  6
CONTINUOUS
 62
   241
  5
4C9
 66
     1
 10
0.0
 20
0.0
 30
0.0
210
0.0
220
0.0
230
1.0
  0
VERTEX
  8
3
  6
CONTINUOUS
 62
   241
  5
4CA
 10
13161.48275
 20
3408.510083
 30
0.0
  0
VERTEX
  8
3
  6
CONTINUOUS
 62
   241
  5
4CB
 10
13161.48275
 20
3408.534083
 30
0.0
  0
VERTEX
  8
3
  6
CONTINUOUS
 62
   241
  5
4CC
 10
13161.428583
 20
3408.534083
 30
0.0
  0
VERTEX
  8
3
  6
CONTINUOUS
 62
   241
  5
4CD
 10
13161.428583
 20
3408.510083
 30
0.0
  0
SEQEND
  8
3
  6
CONTINUOUS
 62
   241
  5
4CE
  0
POLYLINE
  8
3
  6
CONTINUOUS
 62
   241
  5
4CF
 66
     1
 10
0.0
 20
0.0
 30
0.0
210
0.0
220
0.0
230
1.0
  0
VERTEX
  8
3
  6
CONTINUOUS
 62
   241
  5
4D0
 10
13161.317333
 20
3408.789167
 30
0.0
  0
VERTEX
  8
3
  6
CONTINUOUS
 62
   241
  5
4D1
 10
13161.317333
 20
3408.766
 30
0.0
  0
VERTEX
  8
3
  6
CONTINUOUS
 62
   241
  5
4D2
 10
13161.371167
 20
3408.766
 30
0.0
  0
VERTEX
  8
3
  6
CONTINUOUS
 62
   241
  5
4D3
 10
13161.371167
 20
3408.789167
 30
0.0
  0
SEQEND
  8
3
  6
CONTINUOUS
 62
   241
  5
4D4
  0
POLYLINE
  8
3
  6
CONTINUOUS
 62
   241
  5
4D5
 66
     1
 10
0.0
 20
0.0
 30
0.0
210
0.0
220
0.0
230
1.0
  0
VERTEX
  8
3
  6
CONTINUOUS
 62
   241
  5
4D6
 10
13161.328417
 20
3408.831917
 30
0.0
  0
VERTEX
  8
3
  6
CONTINUOUS
 62
   241
  5
4D7
 10
13161.328417
 20
3408.865583
 30
0.0
  0
VERTEX
  8
3
  6
CONTINUOUS
 62
   241
  5
4D8
 10
13161.360167
 20
3408.865583
 30
0.0
  0
VERTEX
  8
3
  6
CONTINUOUS
 62
   241
  5
4D9
 10
13161.360167
 20
3408.831917
 30
0.0
  0
SEQEND
  8
3
  6
CONTINUOUS
 62
   241
  5
4DA
  0
POLYLINE
  8
3
  6
CONTINUOUS
 62
   241
  5
4DB
 66
     1
 10
0.0
 20
0.0
 30
0.0
210
0.0
220
0.0
230
1.0
  0
VERTEX
  8
3
  6
CONTINUOUS
 62
   241
  5
4DC
 10
13161.317333
 20
3408.808167
 30
0.0
  0
VERTEX
  8
3
  6
CONTINUOUS
 62
   241
  5
4DD
 10
13161.317333
 20
3408.831917
 30
0.0
  0
VERTEX
  8
3
  6
CONTINUOUS
 62
   241
  5
4DE
 10
13161.371167
 20
3408.831917
 30
0.0
  0
VERTEX
  8
3
  6
CONTINUOUS
 62
   241
  5
4DF
 10
13161.371167
 20
3408.808167
 30
0.0
  0
SEQEND
  8
3
  6
CONTINUOUS
 62
   241
  5
4E0
  0
POLYLINE
  8
3
  6
CONTINUOUS
 62
   241
  5
4E1
 66
     1
 10
0.0
 20
0.0
 30
0.0
210
0.0
220
0.0
230
1.0
  0
VERTEX
  8
3
  6
CONTINUOUS
 62
   241
  5
4E2
 10
13161.446833
 20
3408.831917
 30
0.0
  0
VERTEX
  8
3
  6
CONTINUOUS
 62
   241
  5
4E3
 10
13161.446833
 20
3408.865583
 30
0.0
  0
VERTEX
  8
3
  6
CONTINUOUS
 62
   241
  5
4E4
 10
13161.478583
 20
3408.865583
 30
0.0
  0
VERTEX
  8
3
  6
CONTINUOUS
 62
   241
  5
4E5
 10
13161.478583
 20
3408.831917
 30
0.0
  0
SEQEND
  8
3
  6
CONTINUOUS
 62
   241
  5
4E6
  0
POLYLINE
  8
3
  6
CONTINUOUS
 62
   241
  5
4E7
 66
     1
 10
0.0
 20
0.0
 30
0.0
210
0.0
220
0.0
230
1.0
  0
VERTEX
  8
3
  6
CONTINUOUS
 62
   241
  5
4E8
 10
13161.435833
 20
3408.808667
 30
0.0
  0
VERTEX
  8
3
  6
CONTINUOUS
 62
   241
  5
4E9
 10
13161.435833
 20
3408.831917
 30
0.0
  0
VERTEX
  8
3
  6
CONTINUOUS
 62
   241
  5
4EA
 10
13161.4895
 20
3408.831917
 30
0.0
  0
VERTEX
  8
3
  6
CONTINUOUS
 62
   241
  5
4EB
 10
13161.4895
 20
3408.808667
 30
0.0
  0
SEQEND
  8
3
  6
CONTINUOUS
 62
   241
  5
4EC
  0
POLYLINE
  8
3
  6
CONTINUOUS
 62
   241
  5
4ED
 66
     1
 10
0.0
 20
0.0
 30
0.0
210
0.0
220
0.0
230
1.0
  0
VERTEX
  8
3
  6
CONTINUOUS
 62
   241
  5
4EE
 10
13161.435833
 20
3408.789167
 30
0.0
  0
VERTEX
  8
3
  6
CONTINUOUS
 62
   241
  5
4EF
 10
13161.435833
 20
3408.766
 30
0.0
  0
VERTEX
  8
3
  6
CONTINUOUS
 62
   241
  5
4F0
 10
13161.4895
 20
3408.766
 30
0.0
  0
VERTEX
  8
3
  6
CONTINUOUS
 62
   241
  5
4F1
 10
13161.4895
 20
3408.789167
 30
0.0
  0
SEQEND
  8
3
  6
CONTINUOUS
 62
   241
  5
4F2
  0
POLYLINE
  8
3
  6
CONTINUOUS
 62
   241
  5
4F3
 66
     1
 10
0.0
 20
0.0
 30
0.0
210
0.0
220
0.0
230
1.0
  0
VERTEX
  8
3
  6
CONTINUOUS
 62
   241
  5
4F4
 10
13161.4065
 20
3408.509583
 30
0.0
  0
VERTEX
  8
3
  6
CONTINUOUS
 62
   241
  5
4F5
 10
13161.4065
 20
3408.789167
 30
0.0
  0
VERTEX
  8
3
  6
CONTINUOUS
 62
   241
  5
4F6
 10
13161.502917
 20
3408.789167
 30
0.0
  0
VERTEX
  8
3
  6
CONTINUOUS
 62
   241
  5
4F7
 10
13161.502917
 20
3408.799
 30
0.0
  0
VERTEX
  8
3
  6
CONTINUOUS
 62
   241
  5
4F8
 10
13161.29975
 20
3408.799
 30
0.0
  0
VERTEX
  8
3
  6
CONTINUOUS
 62
   241
  5
4F9
 10
13161.29975
 20
3408.789167
 30
0.0
  0
VERTEX
  8
3
  6
CONTINUOUS
 62
   241
  5
4FA
 10
13161.396667
 20
3408.789167
 30
0.0
  0
VERTEX
  8
3
  6
CONTINUOUS
 62
   241
  5
4FB
 10
13161.396667
 20
3408.509
 30
0.0
  0
SEQEND
  8
3
  6
CONTINUOUS
 62
   241
  5
4FC
  0
POLYLINE
  8
3
  6
CONTINUOUS
 62
   241
  5
4FD
 66
     1
 10
0.0
 20
0.0
 30
0.0
210
0.0
220
0.0
230
1.0
  0
VERTEX
  8
3
  6
CONTINUOUS
 62
   241
  5
4FE
 10
13161.29975
 20
3408.799
 30
0.0
  0
VERTEX
  8
3
  6
CONTINUOUS
 62
   241
  5
4FF
 10
13161.502917
 20
3408.799
 30
0.0
  0
VERTEX
  8
3
  6
CONTINUOUS
 62
   241
  5
500
 10
13161.502917
 20
3408.808167
 30
0.0
  0
VERTEX
  8
3
  6
CONTINUOUS
 62
   241
  5
501
 10
13161.4065
 20
3408.808167
 30
0.0
  0
VERTEX
  8
3
  6
CONTINUOUS
 62
   241
  5
502
 10
13161.4065
 20
3409.087667
 30
0.0
  0
SEQEND
  8
3
  6
CONTINUOUS
 62
   241
  5
503
  0
POLYLINE
  8
3
  6
CONTINUOUS
 62
   241
  5
504
 66
     1
 10
0.0
 20
0.0
 30
0.0
210
0.0
220
0.0
230
1.0
  0
VERTEX
  8
3
  6
CONTINUOUS
 62
   241
  5
505
 10
13161.396667
 20
3409.087667
 30
0.0
  0
VERTEX
  8
3
  6
CONTINUOUS
 62
   241
  5
506
 10
13161.396667
 20
3408.808167
 30
0.0
  0
VERTEX
  8
3
  6
CONTINUOUS
 62
   241
  5
507
 10
13161.29975
 20
3408.808167
 30
0.0
  0
VERTEX
  8
3
  6
CONTINUOUS
 62
   241
  5
508
 10
13161.29975
 20
3408.799
 30
0.0
  0
SEQEND
  8
3
  6
CONTINUOUS
 62
   241
  5
509
  0
LINE
  8
3
  6
CONTINUOUS
 62
   241
  5
50A
 10
13161.301
 20
3408.499833
 30
0.0
 11
13161.301
 21
3408.509583
 31
0.0
  0
POLYLINE
  8
3
  6
CONTINUOUS
 62
   241
  5
50B
 66
     1
 10
0.0
 20
0.0
 30
0.0
210
0.0
220
0.0
230
1.0
  0
VERTEX
  8
3
  6
CONTINUOUS
 62
   241
  5
50C
 10
13161.301
 20
3408.499833
 30
0.0
  0
VERTEX
  8
3
  6
CONTINUOUS
 62
   241
  5
50D
 10
13161.502917
 20
3408.499833
 30
0.0
  0
VERTEX
  8
3
  6
CONTINUOUS
 62
   241
  5
50E
 10
13161.502917
 20
3408.509583
 30
0.0
  0
VERTEX
  8
3
  6
CONTINUOUS
 62
   241
  5
50F
 10
13161.4065
 20
3408.509583
 30
0.0
  0
SEQEND
  8
3
  6
CONTINUOUS
 62
   241
  5
510
  0
LINE
  8
3
  6
CONTINUOUS
 62
   241
  5
511
 10
13161.396667
 20
3408.509583
 30
0.0
 11
13161.301
 21
3408.509583
 31
0.0
  0
LINE
  8
3
  6
CONTINUOUS
 62
   241
  5
512
 10
13161.301
 20
3409.087667
 30
0.0
 11
13161.301
 21
3409.097417
 31
0.0
  0
LINE
  8
3
  6
CONTINUOUS
 62
   241
  5
513
 10
13161.4065
 20
3409.097417
 30
0.0
 11
13161.301
 21
3409.097417
 31
0.0
  0
LINE
  8
3
  6
CONTINUOUS
 62
   241
  5
514
 10
13161.301
 20
3409.087667
 30
0.0
 11
13161.396667
 21
3409.087667
 31
0.0
  0
POLYLINE
  8
3
  6
CONTINUOUS
 62
   241
  5
515
 66
     1
 10
0.0
 20
0.0
 30
0.0
210
0.0
220
0.0
230
1.0
  0
VERTEX
  8
3
  6
CONTINUOUS
 62
   241
  5
516
 10
13161.4065
 20
3409.087667
 30
0.0
  0
VERTEX
  8
3
  6
CONTINUOUS
 62
   241
  5
517
 10
13161.502917
 20
3409.087667
 30
0.0
  0
VERTEX
  8
3
  6
CONTINUOUS
 62
   241
  5
518
 10
13161.502917
 20
3409.097417
 30
0.0
  0
VERTEX
  8
3
  6
CONTINUOUS
 62
   241
  5
519
 10
13161.4065
 20
3409.097417
 30
0.0
  0
SEQEND
  8
3
  6
CONTINUOUS
 62
   241
  5
51A
  0
POLYLINE
  8
3
  6
CONTINUOUS
 62
   241
  5
51B
 66
     1
 10
0.0
 20
0.0
 30
0.0
210
0.0
220
0.0
230
1.0
  0
VERTEX
  8
3
  6
CONTINUOUS
 62
   241
  5
51C
 10
13160.36375
 20
3408.7715
 30
0.0
  0
VERTEX
  8
3
  6
CONTINUOUS
 62
   241
  5
51D
 10
13160.36375
 20
3408.748333
 30
0.0
  0
VERTEX
  8
3
  6
CONTINUOUS
 62
   241
  5
51E
 10
13160.417583
 20
3408.748333
 30
0.0
  0
VERTEX
  8
3
  6
CONTINUOUS
 62
   241
  5
51F
 10
13160.417583
 20
3408.7715
 30
0.0
  0
SEQEND
  8
3
  6
CONTINUOUS
 62
   241
  5
520
  0
POLYLINE
  8
3
  6
CONTINUOUS
 62
   241
  5
521
 66
     1
 10
0.0
 20
0.0
 30
0.0
210
0.0
220
0.0
230
1.0
  0
VERTEX
  8
3
  6
CONTINUOUS
 62
   241
  5
522
 10
13160.374833
 20
3408.814167
 30
0.0
  0
VERTEX
  8
3
  6
CONTINUOUS
 62
   241
  5
523
 10
13160.374833
 20
3408.847667
 30
0.0
  0
VERTEX
  8
3
  6
CONTINUOUS
 62
   241
  5
524
 10
13160.406583
 20
3408.847667
 30
0.0
  0
VERTEX
  8
3
  6
CONTINUOUS
 62
   241
  5
525
 10
13160.406583
 20
3408.814167
 30
0.0
  0
SEQEND
  8
3
  6
CONTINUOUS
 62
   241
  5
526
  0
POLYLINE
  8
3
  6
CONTINUOUS
 62
   241
  5
527
 66
     1
 10
0.0
 20
0.0
 30
0.0
210
0.0
220
0.0
230
1.0
  0
VERTEX
  8
3
  6
CONTINUOUS
 62
   241
  5
528
 10
13160.36375
 20
3408.790417
 30
0.0
  0
VERTEX
  8
3
  6
CONTINUOUS
 62
   241
  5
529
 10
13160.36375
 20
3408.814167
 30
0.0
  0
VERTEX
  8
3
  6
CONTINUOUS
 62
   241
  5
52A
 10
13160.417583
 20
3408.814167
 30
0.0
  0
VERTEX
  8
3
  6
CONTINUOUS
 62
   241
  5
52B
 10
13160.417583
 20
3408.790417
 30
0.0
  0
SEQEND
  8
3
  6
CONTINUOUS
 62
   241
  5
52C
  0
POLYLINE
  8
3
  6
CONTINUOUS
 62
   241
  5
52D
 66
     1
 10
0.0
 20
0.0
 30
0.0
210
0.0
220
0.0
230
1.0
  0
VERTEX
  8
3
  6
CONTINUOUS
 62
   241
  5
52E
 10
13160.493333
 20
3408.814167
 30
0.0
  0
VERTEX
  8
3
  6
CONTINUOUS
 62
   241
  5
52F
 10
13160.493333
 20
3408.847667
 30
0.0
  0
VERTEX
  8
3
  6
CONTINUOUS
 62
   241
  5
530
 10
13160.525
 20
3408.847667
 30
0.0
  0
VERTEX
  8
3
  6
CONTINUOUS
 62
   241
  5
531
 10
13160.525
 20
3408.814167
 30
0.0
  0
SEQEND
  8
3
  6
CONTINUOUS
 62
   241
  5
532
  0
POLYLINE
  8
3
  6
CONTINUOUS
 62
   241
  5
533
 66
     1
 10
0.0
 20
0.0
 30
0.0
210
0.0
220
0.0
230
1.0
  0
VERTEX
  8
3
  6
CONTINUOUS
 62
   241
  5
534
 10
13160.48225
 20
3408.791
 30
0.0
  0
VERTEX
  8
3
  6
CONTINUOUS
 62
   241
  5
535
 10
13160.48225
 20
3408.814167
 30
0.0
  0
VERTEX
  8
3
  6
CONTINUOUS
 62
   241
  5
536
 10
13160.536
 20
3408.814167
 30
0.0
  0
VERTEX
  8
3
  6
CONTINUOUS
 62
   241
  5
537
 10
13160.536
 20
3408.791
 30
0.0
  0
SEQEND
  8
3
  6
CONTINUOUS
 62
   241
  5
538
  0
POLYLINE
  8
3
  6
CONTINUOUS
 62
   241
  5
539
 66
     1
 10
0.0
 20
0.0
 30
0.0
210
0.0
220
0.0
230
1.0
  0
VERTEX
  8
3
  6
CONTINUOUS
 62
   241
  5
53A
 10
13160.48225
 20
3408.7715
 30
0.0
  0
VERTEX
  8
3
  6
CONTINUOUS
 62
   241
  5
53B
 10
13160.48225
 20
3408.748333
 30
0.0
  0
VERTEX
  8
3
  6
CONTINUOUS
 62
   241
  5
53C
 10
13160.536
 20
3408.748333
 30
0.0
  0
VERTEX
  8
3
  6
CONTINUOUS
 62
   241
  5
53D
 10
13160.536
 20
3408.7715
 30
0.0
  0
SEQEND
  8
3
  6
CONTINUOUS
 62
   241
  5
53E
  0
POLYLINE
  8
3
  6
CONTINUOUS
 62
   241
  5
53F
 66
     1
 10
0.0
 20
0.0
 30
0.0
210
0.0
220
0.0
230
1.0
  0
VERTEX
  8
3
  6
CONTINUOUS
 62
   241
  5
540
 10
13160.452917
 20
3408.491833
 30
0.0
  0
VERTEX
  8
3
  6
CONTINUOUS
 62
   241
  5
541
 10
13160.452917
 20
3408.7715
 30
0.0
  0
VERTEX
  8
3
  6
CONTINUOUS
 62
   241
  5
542
 10
13160.549333
 20
3408.7715
 30
0.0
  0
VERTEX
  8
3
  6
CONTINUOUS
 62
   241
  5
543
 10
13160.549333
 20
3408.781167
 30
0.0
  0
VERTEX
  8
3
  6
CONTINUOUS
 62
   241
  5
544
 10
13160.346083
 20
3408.781167
 30
0.0
  0
VERTEX
  8
3
  6
CONTINUOUS
 62
   241
  5
545
 10
13160.346083
 20
3408.7715
 30
0.0
  0
VERTEX
  8
3
  6
CONTINUOUS
 62
   241
  5
546
 10
13160.443167
 20
3408.7715
 30
0.0
  0
VERTEX
  8
3
  6
CONTINUOUS
 62
   241
  5
547
 10
13160.443167
 20
3408.491417
 30
0.0
  0
SEQEND
  8
3
  6
CONTINUOUS
 62
   241
  5
548
  0
POLYLINE
  8
3
  6
CONTINUOUS
 62
   241
  5
549
 66
     1
 10
0.0
 20
0.0
 30
0.0
210
0.0
220
0.0
230
1.0
  0
VERTEX
  8
3
  6
CONTINUOUS
 62
   241
  5
54A
 10
13160.346083
 20
3408.781167
 30
0.0
  0
VERTEX
  8
3
  6
CONTINUOUS
 62
   241
  5
54B
 10
13160.549333
 20
3408.781167
 30
0.0
  0
VERTEX
  8
3
  6
CONTINUOUS
 62
   241
  5
54C
 10
13160.549333
 20
3408.790417
 30
0.0
  0
VERTEX
  8
3
  6
CONTINUOUS
 62
   241
  5
54D
 10
13160.452917
 20
3408.790417
 30
0.0
  0
VERTEX
  8
3
  6
CONTINUOUS
 62
   241
  5
54E
 10
13160.452917
 20
3409.069833
 30
0.0
  0
SEQEND
  8
3
  6
CONTINUOUS
 62
   241
  5
54F
  0
POLYLINE
  8
3
  6
CONTINUOUS
 62
   241
  5
550
 66
     1
 10
0.0
 20
0.0
 30
0.0
210
0.0
220
0.0
230
1.0
  0
VERTEX
  8
3
  6
CONTINUOUS
 62
   241
  5
551
 10
13160.443167
 20
3409.069833
 30
0.0
  0
VERTEX
  8
3
  6
CONTINUOUS
 62
   241
  5
552
 10
13160.443167
 20
3408.790417
 30
0.0
  0
VERTEX
  8
3
  6
CONTINUOUS
 62
   241
  5
553
 10
13160.346083
 20
3408.790417
 30
0.0
  0
VERTEX
  8
3
  6
CONTINUOUS
 62
   241
  5
554
 10
13160.346083
 20
3408.781167
 30
0.0
  0
SEQEND
  8
3
  6
CONTINUOUS
 62
   241
  5
555
  0
LINE
  8
3
  6
CONTINUOUS
 62
   241
  5
556
 10
13160.347333
 20
3408.482083
 30
0.0
 11
13160.347333
 21
3408.491833
 31
0.0
  0
POLYLINE
  8
3
  6
CONTINUOUS
 62
   241
  5
557
 66
     1
 10
0.0
 20
0.0
 30
0.0
210
0.0
220
0.0
230
1.0
  0
VERTEX
  8
3
  6
CONTINUOUS
 62
   241
  5
558
 10
13160.347333
 20
3408.482083
 30
0.0
  0
VERTEX
  8
3
  6
CONTINUOUS
 62
   241
  5
559
 10
13160.549333
 20
3408.482083
 30
0.0
  0
VERTEX
  8
3
  6
CONTINUOUS
 62
   241
  5
55A
 10
13160.549333
 20
3408.491833
 30
0.0
  0
VERTEX
  8
3
  6
CONTINUOUS
 62
   241
  5
55B
 10
13160.452917
 20
3408.491833
 30
0.0
  0
SEQEND
  8
3
  6
CONTINUOUS
 62
   241
  5
55C
  0
LINE
  8
3
  6
CONTINUOUS
 62
   241
  5
55D
 10
13160.443167
 20
3408.491833
 30
0.0
 11
13160.347333
 21
3408.491833
 31
0.0
  0
LINE
  8
3
  6
CONTINUOUS
 62
   241
  5
55E
 10
13160.347333
 20
3409.069833
 30
0.0
 11
13160.347333
 21
3409.079583
 31
0.0
  0
LINE
  8
3
  6
CONTINUOUS
 62
   241
  5
55F
 10
13160.452917
 20
3409.079583
 30
0.0
 11
13160.347333
 21
3409.079583
 31
0.0
  0
LINE
  8
3
  6
CONTINUOUS
 62
   241
  5
560
 10
13160.347333
 20
3409.069833
 30
0.0
 11
13160.443167
 21
3409.069833
 31
0.0
  0
POLYLINE
  8
3
  6
CONTINUOUS
 62
   241
  5
561
 66
     1
 10
0.0
 20
0.0
 30
0.0
210
0.0
220
0.0
230
1.0
  0
VERTEX
  8
3
  6
CONTINUOUS
 62
   241
  5
562
 10
13160.452917
 20
3409.069833
 30
0.0
  0
VERTEX
  8
3
  6
CONTINUOUS
 62
   241
  5
563
 10
13160.549333
 20
3409.069833
 30
0.0
  0
VERTEX
  8
3
  6
CONTINUOUS
 62
   241
  5
564
 10
13160.549333
 20
3409.079583
 30
0.0
  0
VERTEX
  8
3
  6
CONTINUOUS
 62
   241
  5
565
 10
13160.452917
 20
3409.079583
 30
0.0
  0
SEQEND
  8
3
  6
CONTINUOUS
 62
   241
  5
566
  0
POLYLINE
  8
3
  6
CONTINUOUS
 62
   241
  5
567
 66
     1
 10
0.0
 20
0.0
 30
0.0
210
0.0
220
0.0
230
1.0
  0
VERTEX
  8
3
  6
CONTINUOUS
 62
   241
  5
568
 10
13159.410333
 20
3408.772083
 30
0.0
  0
VERTEX
  8
3
  6
CONTINUOUS
 62
   241
  5
569
 10
13159.410333
 20
3408.748833
 30
0.0
  0
VERTEX
  8
3
  6
CONTINUOUS
 62
   241
  5
56A
 10
13159.464083
 20
3408.748833
 30
0.0
  0
VERTEX
  8
3
  6
CONTINUOUS
 62
   241
  5
56B
 10
13159.464083
 20
3408.772083
 30
0.0
  0
SEQEND
  8
3
  6
CONTINUOUS
 62
   241
  5
56C
  0
POLYLINE
  8
3
  6
CONTINUOUS
 62
   241
  5
56D
 66
     1
 10
0.0
 20
0.0
 30
0.0
210
0.0
220
0.0
230
1.0
  0
VERTEX
  8
3
  6
CONTINUOUS
 62
   241
  5
56E
 10
13159.42125
 20
3408.814833
 30
0.0
  0
VERTEX
  8
3
  6
CONTINUOUS
 62
   241
  5
56F
 10
13159.42125
 20
3408.848417
 30
0.0
  0
VERTEX
  8
3
  6
CONTINUOUS
 62
   241
  5
570
 10
13159.453083
 20
3408.848417
 30
0.0
  0
VERTEX
  8
3
  6
CONTINUOUS
 62
   241
  5
571
 10
13159.453083
 20
3408.814833
 30
0.0
  0
SEQEND
  8
3
  6
CONTINUOUS
 62
   241
  5
572
  0
POLYLINE
  8
3
  6
CONTINUOUS
 62
   241
  5
573
 66
     1
 10
0.0
 20
0.0
 30
0.0
210
0.0
220
0.0
230
1.0
  0
VERTEX
  8
3
  6
CONTINUOUS
 62
   241
  5
574
 10
13159.410333
 20
3408.791
 30
0.0
  0
VERTEX
  8
3
  6
CONTINUOUS
 62
   241
  5
575
 10
13159.410333
 20
3408.814833
 30
0.0
  0
VERTEX
  8
3
  6
CONTINUOUS
 62
   241
  5
576
 10
13159.464083
 20
3408.814833
 30
0.0
  0
VERTEX
  8
3
  6
CONTINUOUS
 62
   241
  5
577
 10
13159.464083
 20
3408.791
 30
0.0
  0
SEQEND
  8
3
  6
CONTINUOUS
 62
   241
  5
578
  0
POLYLINE
  8
3
  6
CONTINUOUS
 62
   241
  5
579
 66
     1
 10
0.0
 20
0.0
 30
0.0
210
0.0
220
0.0
230
1.0
  0
VERTEX
  8
3
  6
CONTINUOUS
 62
   241
  5
57A
 10
13159.539667
 20
3408.814833
 30
0.0
  0
VERTEX
  8
3
  6
CONTINUOUS
 62
   241
  5
57B
 10
13159.539667
 20
3408.848417
 30
0.0
  0
VERTEX
  8
3
  6
CONTINUOUS
 62
   241
  5
57C
 10
13159.5715
 20
3408.848417
 30
0.0
  0
VERTEX
  8
3
  6
CONTINUOUS
 62
   241
  5
57D
 10
13159.5715
 20
3408.814833
 30
0.0
  0
SEQEND
  8
3
  6
CONTINUOUS
 62
   241
  5
57E
  0
POLYLINE
  8
3
  6
CONTINUOUS
 62
   241
  5
57F
 66
     1
 10
0.0
 20
0.0
 30
0.0
210
0.0
220
0.0
230
1.0
  0
VERTEX
  8
3
  6
CONTINUOUS
 62
   241
  5
580
 10
13159.52875
 20
3408.791583
 30
0.0
  0
VERTEX
  8
3
  6
CONTINUOUS
 62
   241
  5
581
 10
13159.52875
 20
3408.814833
 30
0.0
  0
VERTEX
  8
3
  6
CONTINUOUS
 62
   241
  5
582
 10
13159.582417
 20
3408.814833
 30
0.0
  0
VERTEX
  8
3
  6
CONTINUOUS
 62
   241
  5
583
 10
13159.582417
 20
3408.791583
 30
0.0
  0
SEQEND
  8
3
  6
CONTINUOUS
 62
   241
  5
584
  0
POLYLINE
  8
3
  6
CONTINUOUS
 62
   241
  5
585
 66
     1
 10
0.0
 20
0.0
 30
0.0
210
0.0
220
0.0
230
1.0
  0
VERTEX
  8
3
  6
CONTINUOUS
 62
   241
  5
586
 10
13159.52875
 20
3408.772083
 30
0.0
  0
VERTEX
  8
3
  6
CONTINUOUS
 62
   241
  5
587
 10
13159.52875
 20
3408.748833
 30
0.0
  0
VERTEX
  8
3
  6
CONTINUOUS
 62
   241
  5
588
 10
13159.582417
 20
3408.748833
 30
0.0
  0
VERTEX
  8
3
  6
CONTINUOUS
 62
   241
  5
589
 10
13159.582417
 20
3408.772083
 30
0.0
  0
SEQEND
  8
3
  6
CONTINUOUS
 62
   241
  5
58A
  0
POLYLINE
  8
3
  6
CONTINUOUS
 62
   241
  5
58B
 66
     1
 10
0.0
 20
0.0
 30
0.0
210
0.0
220
0.0
230
1.0
  0
VERTEX
  8
3
  6
CONTINUOUS
 62
   241
  5
58C
 10
13159.499417
 20
3408.4925
 30
0.0
  0
VERTEX
  8
3
  6
CONTINUOUS
 62
   241
  5
58D
 10
13159.499417
 20
3408.772083
 30
0.0
  0
VERTEX
  8
3
  6
CONTINUOUS
 62
   241
  5
58E
 10
13159.595833
 20
3408.772083
 30
0.0
  0
VERTEX
  8
3
  6
CONTINUOUS
 62
   241
  5
58F
 10
13159.595833
 20
3408.781833
 30
0.0
  0
VERTEX
  8
3
  6
CONTINUOUS
 62
   241
  5
590
 10
13159.392667
 20
3408.781833
 30
0.0
  0
VERTEX
  8
3
  6
CONTINUOUS
 62
   241
  5
591
 10
13159.392667
 20
3408.772083
 30
0.0
  0
VERTEX
  8
3
  6
CONTINUOUS
 62
   241
  5
592
 10
13159.48975
 20
3408.772083
 30
0.0
  0
VERTEX
  8
3
  6
CONTINUOUS
 62
   241
  5
593
 10
13159.48975
 20
3408.491833
 30
0.0
  0
SEQEND
  8
3
  6
CONTINUOUS
 62
   241
  5
594
  0
POLYLINE
  8
3
  6
CONTINUOUS
 62
   241
  5
595
 66
     1
 10
0.0
 20
0.0
 30
0.0
210
0.0
220
0.0
230
1.0
  0
VERTEX
  8
3
  6
CONTINUOUS
 62
   241
  5
596
 10
13159.392667
 20
3408.781833
 30
0.0
  0
VERTEX
  8
3
  6
CONTINUOUS
 62
   241
  5
597
 10
13159.595833
 20
3408.781833
 30
0.0
  0
VERTEX
  8
3
  6
CONTINUOUS
 62
   241
  5
598
 10
13159.595833
 20
3408.791
 30
0.0
  0
VERTEX
  8
3
  6
CONTINUOUS
 62
   241
  5
599
 10
13159.499417
 20
3408.791
 30
0.0
  0
VERTEX
  8
3
  6
CONTINUOUS
 62
   241
  5
59A
 10
13159.499417
 20
3409.070667
 30
0.0
  0
SEQEND
  8
3
  6
CONTINUOUS
 62
   241
  5
59B
  0
POLYLINE
  8
3
  6
CONTINUOUS
 62
   241
  5
59C
 66
     1
 10
0.0
 20
0.0
 30
0.0
210
0.0
220
0.0
230
1.0
  0
VERTEX
  8
3
  6
CONTINUOUS
 62
   241
  5
59D
 10
13159.48975
 20
3409.070667
 30
0.0
  0
VERTEX
  8
3
  6
CONTINUOUS
 62
   241
  5
59E
 10
13159.48975
 20
3408.791
 30
0.0
  0
VERTEX
  8
3
  6
CONTINUOUS
 62
   241
  5
59F
 10
13159.392667
 20
3408.791
 30
0.0
  0
VERTEX
  8
3
  6
CONTINUOUS
 62
   241
  5
5A0
 10
13159.392667
 20
3408.781833
 30
0.0
  0
SEQEND
  8
3
  6
CONTINUOUS
 62
   241
  5
5A1
  0
LINE
  8
3
  6
CONTINUOUS
 62
   241
  5
5A2
 10
13159.39375
 20
3408.482667
 30
0.0
 11
13159.39375
 21
3408.4925
 31
0.0
  0
POLYLINE
  8
3
  6
CONTINUOUS
 62
   241
  5
5A3
 66
     1
 10
0.0
 20
0.0
 30
0.0
210
0.0
220
0.0
230
1.0
  0
VERTEX
  8
3
  6
CONTINUOUS
 62
   241
  5
5A4
 10
13159.39375
 20
3408.482667
 30
0.0
  0
VERTEX
  8
3
  6
CONTINUOUS
 62
   241
  5
5A5
 10
13159.595833
 20
3408.482667
 30
0.0
  0
VERTEX
  8
3
  6
CONTINUOUS
 62
   241
  5
5A6
 10
13159.595833
 20
3408.4925
 30
0.0
  0
VERTEX
  8
3
  6
CONTINUOUS
 62
   241
  5
5A7
 10
13159.499417
 20
3408.4925
 30
0.0
  0
SEQEND
  8
3
  6
CONTINUOUS
 62
   241
  5
5A8
  0
LINE
  8
3
  6
CONTINUOUS
 62
   241
  5
5A9
 10
13159.48975
 20
3408.4925
 30
0.0
 11
13159.39375
 21
3408.4925
 31
0.0
  0
LINE
  8
3
  6
CONTINUOUS
 62
   241
  5
5AA
 10
13159.39375
 20
3409.070667
 30
0.0
 11
13159.39375
 21
3409.080333
 31
0.0
  0
LINE
  8
3
  6
CONTINUOUS
 62
   241
  5
5AB
 10
13159.499417
 20
3409.080333
 30
0.0
 11
13159.39375
 21
3409.080333
 31
0.0
  0
LINE
  8
3
  6
CONTINUOUS
 62
   241
  5
5AC
 10
13159.39375
 20
3409.070667
 30
0.0
 11
13159.48975
 21
3409.070667
 31
0.0
  0
POLYLINE
  8
3
  6
CONTINUOUS
 62
   241
  5
5AD
 66
     1
 10
0.0
 20
0.0
 30
0.0
210
0.0
220
0.0
230
1.0
  0
VERTEX
  8
3
  6
CONTINUOUS
 62
   241
  5
5AE
 10
13159.499417
 20
3409.070667
 30
0.0
  0
VERTEX
  8
3
  6
CONTINUOUS
 62
   241
  5
5AF
 10
13159.595833
 20
3409.070667
 30
0.0
  0
VERTEX
  8
3
  6
CONTINUOUS
 62
   241
  5
5B0
 10
13159.595833
 20
3409.080333
 30
0.0
  0
VERTEX
  8
3
  6
CONTINUOUS
 62
   241
  5
5B1
 10
13159.499417
 20
3409.080333
 30
0.0
  0
SEQEND
  8
3
  6
CONTINUOUS
 62
   241
  5
5B2
  0
POLYLINE
  8
3
  6
CONTINUOUS
 62
   241
  5
5B3
 66
     1
 10
0.0
 20
0.0
 30
0.0
210
0.0
220
0.0
230
1.0
  0
VERTEX
  8
3
  6
CONTINUOUS
 62
   241
  5
5B4
 10
13158.45675
 20
3408.7715
 30
0.0
  0
VERTEX
  8
3
  6
CONTINUOUS
 62
   241
  5
5B5
 10
13158.45675
 20
3408.748333
 30
0.0
  0
VERTEX
  8
3
  6
CONTINUOUS
 62
   241
  5
5B6
 10
13158.5105
 20
3408.748333
 30
0.0
  0
VERTEX
  8
3
  6
CONTINUOUS
 62
   241
  5
5B7
 10
13158.5105
 20
3408.7715
 30
0.0
  0
SEQEND
  8
3
  6
CONTINUOUS
 62
   241
  5
5B8
  0
POLYLINE
  8
3
  6
CONTINUOUS
 62
   241
  5
5B9
 66
     1
 10
0.0
 20
0.0
 30
0.0
210
0.0
220
0.0
230
1.0
  0
VERTEX
  8
3
  6
CONTINUOUS
 62
   241
  5
5BA
 10
13158.46775
 20
3408.814167
 30
0.0
  0
VERTEX
  8
3
  6
CONTINUOUS
 62
   241
  5
5BB
 10
13158.46775
 20
3408.847667
 30
0.0
  0
VERTEX
  8
3
  6
CONTINUOUS
 62
   241
  5
5BC
 10
13158.4995
 20
3408.847667
 30
0.0
  0
VERTEX
  8
3
  6
CONTINUOUS
 62
   241
  5
5BD
 10
13158.4995
 20
3408.814167
 30
0.0
  0
SEQEND
  8
3
  6
CONTINUOUS
 62
   241
  5
5BE
  0
POLYLINE
  8
3
  6
CONTINUOUS
 62
   241
  5
5BF
 66
     1
 10
0.0
 20
0.0
 30
0.0
210
0.0
220
0.0
230
1.0
  0
VERTEX
  8
3
  6
CONTINUOUS
 62
   241
  5
5C0
 10
13158.45675
 20
3408.790417
 30
0.0
  0
VERTEX
  8
3
  6
CONTINUOUS
 62
   241
  5
5C1
 10
13158.45675
 20
3408.814167
 30
0.0
  0
VERTEX
  8
3
  6
CONTINUOUS
 62
   241
  5
5C2
 10
13158.5105
 20
3408.814167
 30
0.0
  0
VERTEX
  8
3
  6
CONTINUOUS
 62
   241
  5
5C3
 10
13158.5105
 20
3408.790417
 30
0.0
  0
SEQEND
  8
3
  6
CONTINUOUS
 62
   241
  5
5C4
  0
POLYLINE
  8
3
  6
CONTINUOUS
 62
   241
  5
5C5
 66
     1
 10
0.0
 20
0.0
 30
0.0
210
0.0
220
0.0
230
1.0
  0
VERTEX
  8
3
  6
CONTINUOUS
 62
   241
  5
5C6
 10
13158.58625
 20
3408.814167
 30
0.0
  0
VERTEX
  8
3
  6
CONTINUOUS
 62
   241
  5
5C7
 10
13158.58625
 20
3408.847667
 30
0.0
  0
VERTEX
  8
3
  6
CONTINUOUS
 62
   241
  5
5C8
 10
13158.618
 20
3408.847667
 30
0.0
  0
VERTEX
  8
3
  6
CONTINUOUS
 62
   241
  5
5C9
 10
13158.618
 20
3408.814167
 30
0.0
  0
SEQEND
  8
3
  6
CONTINUOUS
 62
   241
  5
5CA
  0
POLYLINE
  8
3
  6
CONTINUOUS
 62
   241
  5
5CB
 66
     1
 10
0.0
 20
0.0
 30
0.0
210
0.0
220
0.0
230
1.0
  0
VERTEX
  8
3
  6
CONTINUOUS
 62
   241
  5
5CC
 10
13158.57525
 20
3408.791
 30
0.0
  0
VERTEX
  8
3
  6
CONTINUOUS
 62
   241
  5
5CD
 10
13158.57525
 20
3408.814167
 30
0.0
  0
VERTEX
  8
3
  6
CONTINUOUS
 62
   241
  5
5CE
 10
13158.628917
 20
3408.814167
 30
0.0
  0
VERTEX
  8
3
  6
CONTINUOUS
 62
   241
  5
5CF
 10
13158.628917
 20
3408.791
 30
0.0
  0
SEQEND
  8
3
  6
CONTINUOUS
 62
   241
  5
5D0
  0
POLYLINE
  8
3
  6
CONTINUOUS
 62
   241
  5
5D1
 66
     1
 10
0.0
 20
0.0
 30
0.0
210
0.0
220
0.0
230
1.0
  0
VERTEX
  8
3
  6
CONTINUOUS
 62
   241
  5
5D2
 10
13158.57525
 20
3408.7715
 30
0.0
  0
VERTEX
  8
3
  6
CONTINUOUS
 62
   241
  5
5D3
 10
13158.57525
 20
3408.748333
 30
0.0
  0
VERTEX
  8
3
  6
CONTINUOUS
 62
   241
  5
5D4
 10
13158.628917
 20
3408.748333
 30
0.0
  0
VERTEX
  8
3
  6
CONTINUOUS
 62
   241
  5
5D5
 10
13158.628917
 20
3408.7715
 30
0.0
  0
SEQEND
  8
3
  6
CONTINUOUS
 62
   241
  5
5D6
  0
POLYLINE
  8
3
  6
CONTINUOUS
 62
   241
  5
5D7
 66
     1
 10
0.0
 20
0.0
 30
0.0
210
0.0
220
0.0
230
1.0
  0
VERTEX
  8
3
  6
CONTINUOUS
 62
   241
  5
5D8
 10
13158.546
 20
3408.491833
 30
0.0
  0
VERTEX
  8
3
  6
CONTINUOUS
 62
   241
  5
5D9
 10
13158.546
 20
3408.7715
 30
0.0
  0
VERTEX
  8
3
  6
CONTINUOUS
 62
   241
  5
5DA
 10
13158.642417
 20
3408.7715
 30
0.0
  0
VERTEX
  8
3
  6
CONTINUOUS
 62
   241
  5
5DB
 10
13158.642417
 20
3408.781167
 30
0.0
  0
VERTEX
  8
3
  6
CONTINUOUS
 62
   241
  5
5DC
 10
13158.439
 20
3408.781167
 30
0.0
  0
VERTEX
  8
3
  6
CONTINUOUS
 62
   241
  5
5DD
 10
13158.439
 20
3408.7715
 30
0.0
  0
VERTEX
  8
3
  6
CONTINUOUS
 62
   241
  5
5DE
 10
13158.53625
 20
3408.7715
 30
0.0
  0
VERTEX
  8
3
  6
CONTINUOUS
 62
   241
  5
5DF
 10
13158.53625
 20
3408.491417
 30
0.0
  0
SEQEND
  8
3
  6
CONTINUOUS
 62
   241
  5
5E0
  0
POLYLINE
  8
3
  6
CONTINUOUS
 62
   241
  5
5E1
 66
     1
 10
0.0
 20
0.0
 30
0.0
210
0.0
220
0.0
230
1.0
  0
VERTEX
  8
3
  6
CONTINUOUS
 62
   241
  5
5E2
 10
13158.439
 20
3408.781167
 30
0.0
  0
VERTEX
  8
3
  6
CONTINUOUS
 62
   241
  5
5E3
 10
13158.642417
 20
3408.781167
 30
0.0
  0
VERTEX
  8
3
  6
CONTINUOUS
 62
   241
  5
5E4
 10
13158.642417
 20
3408.790417
 30
0.0
  0
VERTEX
  8
3
  6
CONTINUOUS
 62
   241
  5
5E5
 10
13158.546
 20
3408.790417
 30
0.0
  0
VERTEX
  8
3
  6
CONTINUOUS
 62
   241
  5
5E6
 10
13158.546
 20
3409.069833
 30
0.0
  0
SEQEND
  8
3
  6
CONTINUOUS
 62
   241
  5
5E7
  0
POLYLINE
  8
3
  6
CONTINUOUS
 62
   241
  5
5E8
 66
     1
 10
0.0
 20
0.0
 30
0.0
210
0.0
220
0.0
230
1.0
  0
VERTEX
  8
3
  6
CONTINUOUS
 62
   241
  5
5E9
 10
13158.53625
 20
3409.069833
 30
0.0
  0
VERTEX
  8
3
  6
CONTINUOUS
 62
   241
  5
5EA
 10
13158.53625
 20
3408.790417
 30
0.0
  0
VERTEX
  8
3
  6
CONTINUOUS
 62
   241
  5
5EB
 10
13158.439
 20
3408.790417
 30
0.0
  0
VERTEX
  8
3
  6
CONTINUOUS
 62
   241
  5
5EC
 10
13158.439
 20
3408.781167
 30
0.0
  0
SEQEND
  8
3
  6
CONTINUOUS
 62
   241
  5
5ED
  0
LINE
  8
3
  6
CONTINUOUS
 62
   241
  5
5EE
 10
13158.44025
 20
3408.482083
 30
0.0
 11
13158.44025
 21
3408.491833
 31
0.0
  0
POLYLINE
  8
3
  6
CONTINUOUS
 62
   241
  5
5EF
 66
     1
 10
0.0
 20
0.0
 30
0.0
210
0.0
220
0.0
230
1.0
  0
VERTEX
  8
3
  6
CONTINUOUS
 62
   241
  5
5F0
 10
13158.44025
 20
3408.482083
 30
0.0
  0
VERTEX
  8
3
  6
CONTINUOUS
 62
   241
  5
5F1
 10
13158.642417
 20
3408.482083
 30
0.0
  0
VERTEX
  8
3
  6
CONTINUOUS
 62
   241
  5
5F2
 10
13158.642417
 20
3408.491833
 30
0.0
  0
VERTEX
  8
3
  6
CONTINUOUS
 62
   241
  5
5F3
 10
13158.546
 20
3408.491833
 30
0.0
  0
SEQEND
  8
3
  6
CONTINUOUS
 62
   241
  5
5F4
  0
LINE
  8
3
  6
CONTINUOUS
 62
   241
  5
5F5
 10
13158.53625
 20
3408.491833
 30
0.0
 11
13158.44025
 21
3408.491833
 31
0.0
  0
LINE
  8
3
  6
CONTINUOUS
 62
   241
  5
5F6
 10
13158.44025
 20
3409.069833
 30
0.0
 11
13158.44025
 21
3409.079583
 31
0.0
  0
LINE
  8
3
  6
CONTINUOUS
 62
   241
  5
5F7
 10
13158.546
 20
3409.079583
 30
0.0
 11
13158.44025
 21
3409.079583
 31
0.0
  0
LINE
  8
3
  6
CONTINUOUS
 62
   241
  5
5F8
 10
13158.44025
 20
3409.069833
 30
0.0
 11
13158.53625
 21
3409.069833
 31
0.0
  0
POLYLINE
  8
3
  6
CONTINUOUS
 62
   241
  5
5F9
 66
     1
 10
0.0
 20
0.0
 30
0.0
210
0.0
220
0.0
230
1.0
  0
VERTEX
  8
3
  6
CONTINUOUS
 62
   241
  5
5FA
 10
13158.546
 20
3409.069833
 30
0.0
  0
VERTEX
  8
3
  6
CONTINUOUS
 62
   241
  5
5FB
 10
13158.642417
 20
3409.069833
 30
0.0
  0
VERTEX
  8
3
  6
CONTINUOUS
 62
   241
  5
5FC
 10
13158.642417
 20
3409.079583
 30
0.0
  0
VERTEX
  8
3
  6
CONTINUOUS
 62
   241
  5
5FD
 10
13158.546
 20
3409.079583
 30
0.0
  0
SEQEND
  8
3
  6
CONTINUOUS
 62
   241
  5
5FE
  0
POLYLINE
  8
3
  6
CONTINUOUS
 62
   241
  5
5FF
 66
     1
 10
0.0
 20
0.0
 30
0.0
210
0.0
220
0.0
230
1.0
  0
VERTEX
  8
3
  6
CONTINUOUS
 62
   241
  5
600
 10
13157.657667
 20
3408.515667
 30
0.0
  0
VERTEX
  8
3
  6
CONTINUOUS
 62
   241
  5
601
 10
13157.657667
 20
3408.549333
 30
0.0
  0
VERTEX
  8
3
  6
CONTINUOUS
 62
   241
  5
602
 10
13157.625917
 20
3408.549333
 30
0.0
  0
VERTEX
  8
3
  6
CONTINUOUS
 62
   241
  5
603
 10
13157.625917
 20
3408.515667
 30
0.0
  0
SEQEND
  8
3
  6
CONTINUOUS
 62
   241
  5
604
  0
POLYLINE
  8
3
  6
CONTINUOUS
 62
   241
  5
605
 66
     1
 10
0.0
 20
0.0
 30
0.0
210
0.0
220
0.0
230
1.0
  0
VERTEX
  8
3
  6
CONTINUOUS
 62
   241
  5
606
 10
13157.668667
 20
3408.4925
 30
0.0
  0
VERTEX
  8
3
  6
CONTINUOUS
 62
   241
  5
607
 10
13157.668667
 20
3408.516417
 30
0.0
  0
VERTEX
  8
3
  6
CONTINUOUS
 62
   241
  5
608
 10
13157.614333
 20
3408.516417
 30
0.0
  0
VERTEX
  8
3
  6
CONTINUOUS
 62
   241
  5
609
 10
13157.614333
 20
3408.4925
 30
0.0
  0
SEQEND
  8
3
  6
CONTINUOUS
 62
   241
  5
60A
  0
POLYLINE
  8
3
  6
CONTINUOUS
 62
   241
  5
60B
 66
     1
 10
0.0
 20
0.0
 30
0.0
210
0.0
220
0.0
230
1.0
  0
VERTEX
  8
3
  6
CONTINUOUS
 62
   241
  5
60C
 10
13157.503333
 20
3408.7715
 30
0.0
  0
VERTEX
  8
3
  6
CONTINUOUS
 62
   241
  5
60D
 10
13157.503333
 20
3408.748333
 30
0.0
  0
VERTEX
  8
3
  6
CONTINUOUS
 62
   241
  5
60E
 10
13157.556917
 20
3408.748333
 30
0.0
  0
VERTEX
  8
3
  6
CONTINUOUS
 62
   241
  5
60F
 10
13157.556917
 20
3408.7715
 30
0.0
  0
SEQEND
  8
3
  6
CONTINUOUS
 62
   241
  5
610
  0
POLYLINE
  8
3
  6
CONTINUOUS
 62
   241
  5
611
 66
     1
 10
0.0
 20
0.0
 30
0.0
210
0.0
220
0.0
230
1.0
  0
VERTEX
  8
3
  6
CONTINUOUS
 62
   241
  5
612
 10
13157.514167
 20
3408.814167
 30
0.0
  0
VERTEX
  8
3
  6
CONTINUOUS
 62
   241
  5
613
 10
13157.514167
 20
3408.847667
 30
0.0
  0
VERTEX
  8
3
  6
CONTINUOUS
 62
   241
  5
614
 10
13157.545917
 20
3408.847667
 30
0.0
  0
VERTEX
  8
3
  6
CONTINUOUS
 62
   241
  5
615
 10
13157.545917
 20
3408.814167
 30
0.0
  0
SEQEND
  8
3
  6
CONTINUOUS
 62
   241
  5
616
  0
POLYLINE
  8
3
  6
CONTINUOUS
 62
   241
  5
617
 66
     1
 10
0.0
 20
0.0
 30
0.0
210
0.0
220
0.0
230
1.0
  0
VERTEX
  8
3
  6
CONTINUOUS
 62
   241
  5
618
 10
13157.503333
 20
3408.790417
 30
0.0
  0
VERTEX
  8
3
  6
CONTINUOUS
 62
   241
  5
619
 10
13157.503333
 20
3408.814167
 30
0.0
  0
VERTEX
  8
3
  6
CONTINUOUS
 62
   241
  5
61A
 10
13157.556917
 20
3408.814167
 30
0.0
  0
VERTEX
  8
3
  6
CONTINUOUS
 62
   241
  5
61B
 10
13157.556917
 20
3408.790417
 30
0.0
  0
SEQEND
  8
3
  6
CONTINUOUS
 62
   241
  5
61C
  0
POLYLINE
  8
3
  6
CONTINUOUS
 62
   241
  5
61D
 66
     1
 10
0.0
 20
0.0
 30
0.0
210
0.0
220
0.0
230
1.0
  0
VERTEX
  8
3
  6
CONTINUOUS
 62
   241
  5
61E
 10
13157.632667
 20
3408.814167
 30
0.0
  0
VERTEX
  8
3
  6
CONTINUOUS
 62
   241
  5
61F
 10
13157.632667
 20
3408.847667
 30
0.0
  0
VERTEX
  8
3
  6
CONTINUOUS
 62
   241
  5
620
 10
13157.664333
 20
3408.847667
 30
0.0
  0
VERTEX
  8
3
  6
CONTINUOUS
 62
   241
  5
621
 10
13157.664333
 20
3408.814167
 30
0.0
  0
SEQEND
  8
3
  6
CONTINUOUS
 62
   241
  5
622
  0
POLYLINE
  8
3
  6
CONTINUOUS
 62
   241
  5
623
 66
     1
 10
0.0
 20
0.0
 30
0.0
210
0.0
220
0.0
230
1.0
  0
VERTEX
  8
3
  6
CONTINUOUS
 62
   241
  5
624
 10
13157.621583
 20
3408.791
 30
0.0
  0
VERTEX
  8
3
  6
CONTINUOUS
 62
   241
  5
625
 10
13157.621583
 20
3408.814167
 30
0.0
  0
VERTEX
  8
3
  6
CONTINUOUS
 62
   241
  5
626
 10
13157.675333
 20
3408.814167
 30
0.0
  0
VERTEX
  8
3
  6
CONTINUOUS
 62
   241
  5
627
 10
13157.675333
 20
3408.791
 30
0.0
  0
SEQEND
  8
3
  6
CONTINUOUS
 62
   241
  5
628
  0
POLYLINE
  8
3
  6
CONTINUOUS
 62
   241
  5
629
 66
     1
 10
0.0
 20
0.0
 30
0.0
210
0.0
220
0.0
230
1.0
  0
VERTEX
  8
3
  6
CONTINUOUS
 62
   241
  5
62A
 10
13157.621583
 20
3408.7715
 30
0.0
  0
VERTEX
  8
3
  6
CONTINUOUS
 62
   241
  5
62B
 10
13157.621583
 20
3408.748333
 30
0.0
  0
VERTEX
  8
3
  6
CONTINUOUS
 62
   241
  5
62C
 10
13157.675333
 20
3408.748333
 30
0.0
  0
VERTEX
  8
3
  6
CONTINUOUS
 62
   241
  5
62D
 10
13157.675333
 20
3408.7715
 30
0.0
  0
SEQEND
  8
3
  6
CONTINUOUS
 62
   241
  5
62E
  0
POLYLINE
  8
3
  6
CONTINUOUS
 62
   241
  5
62F
 66
     1
 10
0.0
 20
0.0
 30
0.0
210
0.0
220
0.0
230
1.0
  0
VERTEX
  8
3
  6
CONTINUOUS
 62
   241
  5
630
 10
13157.592417
 20
3408.491833
 30
0.0
  0
VERTEX
  8
3
  6
CONTINUOUS
 62
   241
  5
631
 10
13157.592417
 20
3408.7715
 30
0.0
  0
VERTEX
  8
3
  6
CONTINUOUS
 62
   241
  5
632
 10
13157.688917
 20
3408.7715
 30
0.0
  0
VERTEX
  8
3
  6
CONTINUOUS
 62
   241
  5
633
 10
13157.688917
 20
3408.781167
 30
0.0
  0
VERTEX
  8
3
  6
CONTINUOUS
 62
   241
  5
634
 10
13157.485583
 20
3408.781167
 30
0.0
  0
VERTEX
  8
3
  6
CONTINUOUS
 62
   241
  5
635
 10
13157.485583
 20
3408.7715
 30
0.0
  0
VERTEX
  8
3
  6
CONTINUOUS
 62
   241
  5
636
 10
13157.5825
 20
3408.7715
 30
0.0
  0
VERTEX
  8
3
  6
CONTINUOUS
 62
   241
  5
637
 10
13157.5825
 20
3408.491417
 30
0.0
  0
SEQEND
  8
3
  6
CONTINUOUS
 62
   241
  5
638
  0
POLYLINE
  8
3
  6
CONTINUOUS
 62
   241
  5
639
 66
     1
 10
0.0
 20
0.0
 30
0.0
210
0.0
220
0.0
230
1.0
  0
VERTEX
  8
3
  6
CONTINUOUS
 62
   241
  5
63A
 10
13157.485583
 20
3408.781167
 30
0.0
  0
VERTEX
  8
3
  6
CONTINUOUS
 62
   241
  5
63B
 10
13157.688917
 20
3408.781167
 30
0.0
  0
VERTEX
  8
3
  6
CONTINUOUS
 62
   241
  5
63C
 10
13157.688917
 20
3408.790417
 30
0.0
  0
VERTEX
  8
3
  6
CONTINUOUS
 62
   241
  5
63D
 10
13157.592417
 20
3408.790417
 30
0.0
  0
VERTEX
  8
3
  6
CONTINUOUS
 62
   241
  5
63E
 10
13157.592417
 20
3409.069833
 30
0.0
  0
SEQEND
  8
3
  6
CONTINUOUS
 62
   241
  5
63F
  0
POLYLINE
  8
3
  6
CONTINUOUS
 62
   241
  5
640
 66
     1
 10
0.0
 20
0.0
 30
0.0
210
0.0
220
0.0
230
1.0
  0
VERTEX
  8
3
  6
CONTINUOUS
 62
   241
  5
641
 10
13157.5825
 20
3409.069833
 30
0.0
  0
VERTEX
  8
3
  6
CONTINUOUS
 62
   241
  5
642
 10
13157.5825
 20
3408.790417
 30
0.0
  0
VERTEX
  8
3
  6
CONTINUOUS
 62
   241
  5
643
 10
13157.485583
 20
3408.790417
 30
0.0
  0
VERTEX
  8
3
  6
CONTINUOUS
 62
   241
  5
644
 10
13157.485583
 20
3408.781167
 30
0.0
  0
SEQEND
  8
3
  6
CONTINUOUS
 62
   241
  5
645
  0
LINE
  8
3
  6
CONTINUOUS
 62
   241
  5
646
 10
13157.48675
 20
3408.482083
 30
0.0
 11
13157.48675
 21
3408.491833
 31
0.0
  0
POLYLINE
  8
3
  6
CONTINUOUS
 62
   241
  5
647
 66
     1
 10
0.0
 20
0.0
 30
0.0
210
0.0
220
0.0
230
1.0
  0
VERTEX
  8
3
  6
CONTINUOUS
 62
   241
  5
648
 10
13157.48675
 20
3408.482083
 30
0.0
  0
VERTEX
  8
3
  6
CONTINUOUS
 62
   241
  5
649
 10
13157.688917
 20
3408.482083
 30
0.0
  0
VERTEX
  8
3
  6
CONTINUOUS
 62
   241
  5
64A
 10
13157.688917
 20
3408.491833
 30
0.0
  0
VERTEX
  8
3
  6
CONTINUOUS
 62
   241
  5
64B
 10
13157.592417
 20
3408.491833
 30
0.0
  0
SEQEND
  8
3
  6
CONTINUOUS
 62
   241
  5
64C
  0
LINE
  8
3
  6
CONTINUOUS
 62
   241
  5
64D
 10
13157.5825
 20
3408.491833
 30
0.0
 11
13157.48675
 21
3408.491833
 31
0.0
  0
LINE
  8
3
  6
CONTINUOUS
 62
   241
  5
64E
 10
13157.48675
 20
3409.069833
 30
0.0
 11
13157.48675
 21
3409.079583
 31
0.0
  0
LINE
  8
3
  6
CONTINUOUS
 62
   241
  5
64F
 10
13157.592417
 20
3409.079583
 30
0.0
 11
13157.48675
 21
3409.079583
 31
0.0
  0
LINE
  8
3
  6
CONTINUOUS
 62
   241
  5
650
 10
13157.48675
 20
3409.069833
 30
0.0
 11
13157.5825
 21
3409.069833
 31
0.0
  0
POLYLINE
  8
3
  6
CONTINUOUS
 62
   241
  5
651
 66
     1
 10
0.0
 20
0.0
 30
0.0
210
0.0
220
0.0
230
1.0
  0
VERTEX
  8
3
  6
CONTINUOUS
 62
   241
  5
652
 10
13157.592417
 20
3409.069833
 30
0.0
  0
VERTEX
  8
3
  6
CONTINUOUS
 62
   241
  5
653
 10
13157.688917
 20
3409.069833
 30
0.0
  0
VERTEX
  8
3
  6
CONTINUOUS
 62
   241
  5
654
 10
13157.688917
 20
3409.079583
 30
0.0
  0
VERTEX
  8
3
  6
CONTINUOUS
 62
   241
  5
655
 10
13157.592417
 20
3409.079583
 30
0.0
  0
SEQEND
  8
3
  6
CONTINUOUS
 62
   241
  5
656
  0
LINE
  8
3
  6
CONTINUOUS
 62
   241
  5
657
 10
13158.390833
 20
3408.781833
 30
0.0
 11
13158.157
 21
3408.781833
 31
0.0
  0
POLYLINE
  8
3
  6
CONTINUOUS
 62
   241
  5
658
 66
     1
 10
0.0
 20
0.0
 30
0.0
210
0.0
220
0.0
230
1.0
  0
VERTEX
  8
3
  6
CONTINUOUS
 62
   241
  5
659
 10
13167.127667
 20
3408.491833
 30
0.0
  0
VERTEX
  8
3
  6
CONTINUOUS
 62
   241
  5
65A
 10
13167.127667
 20
3408.7715
 30
0.0
  0
VERTEX
  8
3
  6
CONTINUOUS
 62
   241
  5
65B
 10
13167.224333
 20
3408.7715
 30
0.0
  0
VERTEX
  8
3
  6
CONTINUOUS
 62
   241
  5
65C
 10
13167.224333
 20
3408.781167
 30
0.0
  0
VERTEX
  8
3
  6
CONTINUOUS
 62
   241
  5
65D
 10
13167.020833
 20
3408.781167
 30
0.0
  0
VERTEX
  8
3
  6
CONTINUOUS
 62
   241
  5
65E
 10
13167.020833
 20
3408.7715
 30
0.0
  0
VERTEX
  8
3
  6
CONTINUOUS
 62
   241
  5
65F
 10
13167.118083
 20
3408.7715
 30
0.0
  0
VERTEX
  8
3
  6
CONTINUOUS
 62
   241
  5
660
 10
13167.118083
 20
3408.491417
 30
0.0
  0
SEQEND
  8
3
  6
CONTINUOUS
 62
   241
  5
661
  0
POLYLINE
  8
3
  6
CONTINUOUS
 62
   241
  5
662
 66
     1
 10
0.0
 20
0.0
 30
0.0
210
0.0
220
0.0
230
1.0
  0
VERTEX
  8
3
  6
CONTINUOUS
 62
   241
  5
663
 10
13167.020833
 20
3408.781167
 30
0.0
  0
VERTEX
  8
3
  6
CONTINUOUS
 62
   241
  5
664
 10
13167.224333
 20
3408.781167
 30
0.0
  0
VERTEX
  8
3
  6
CONTINUOUS
 62
   241
  5
665
 10
13167.224333
 20
3408.790417
 30
0.0
  0
VERTEX
  8
3
  6
CONTINUOUS
 62
   241
  5
666
 10
13167.127667
 20
3408.790417
 30
0.0
  0
VERTEX
  8
3
  6
CONTINUOUS
 62
   241
  5
667
 10
13167.127667
 20
3409.069833
 30
0.0
  0
SEQEND
  8
3
  6
CONTINUOUS
 62
   241
  5
668
  0
POLYLINE
  8
3
  6
CONTINUOUS
 62
   241
  5
669
 66
     1
 10
0.0
 20
0.0
 30
0.0
210
0.0
220
0.0
230
1.0
  0
VERTEX
  8
3
  6
CONTINUOUS
 62
   241
  5
66A
 10
13167.118083
 20
3409.069833
 30
0.0
  0
VERTEX
  8
3
  6
CONTINUOUS
 62
   241
  5
66B
 10
13167.118083
 20
3408.790417
 30
0.0
  0
VERTEX
  8
3
  6
CONTINUOUS
 62
   241
  5
66C
 10
13167.020833
 20
3408.790417
 30
0.0
  0
VERTEX
  8
3
  6
CONTINUOUS
 62
   241
  5
66D
 10
13167.020833
 20
3408.781167
 30
0.0
  0
SEQEND
  8
3
  6
CONTINUOUS
 62
   241
  5
66E
  0
LINE
  8
3
  6
CONTINUOUS
 62
   241
  5
66F
 10
13167.022167
 20
3408.482083
 30
0.0
 11
13167.022167
 21
3408.491833
 31
0.0
  0
POLYLINE
  8
3
  6
CONTINUOUS
 62
   241
  5
670
 66
     1
 10
0.0
 20
0.0
 30
0.0
210
0.0
220
0.0
230
1.0
  0
VERTEX
  8
3
  6
CONTINUOUS
 62
   241
  5
671
 10
13167.022167
 20
3408.482083
 30
0.0
  0
VERTEX
  8
3
  6
CONTINUOUS
 62
   241
  5
672
 10
13167.224333
 20
3408.482083
 30
0.0
  0
VERTEX
  8
3
  6
CONTINUOUS
 62
   241
  5
673
 10
13167.224333
 20
3408.491833
 30
0.0
  0
VERTEX
  8
3
  6
CONTINUOUS
 62
   241
  5
674
 10
13167.127667
 20
3408.491833
 30
0.0
  0
SEQEND
  8
3
  6
CONTINUOUS
 62
   241
  5
675
  0
LINE
  8
3
  6
CONTINUOUS
 62
   241
  5
676
 10
13167.118083
 20
3408.491833
 30
0.0
 11
13167.022167
 21
3408.491833
 31
0.0
  0
LINE
  8
3
  6
CONTINUOUS
 62
   241
  5
677
 10
13167.022167
 20
3409.069833
 30
0.0
 11
13167.022167
 21
3409.079583
 31
0.0
  0
LINE
  8
3
  6
CONTINUOUS
 62
   241
  5
678
 10
13167.127667
 20
3409.079583
 30
0.0
 11
13167.022167
 21
3409.079583
 31
0.0
  0
LINE
  8
3
  6
CONTINUOUS
 62
   241
  5
679
 10
13167.022167
 20
3409.069833
 30
0.0
 11
13167.118083
 21
3409.069833
 31
0.0
  0
POLYLINE
  8
3
  6
CONTINUOUS
 62
   241
  5
67A
 66
     1
 10
0.0
 20
0.0
 30
0.0
210
0.0
220
0.0
230
1.0
  0
VERTEX
  8
3
  6
CONTINUOUS
 62
   241
  5
67B
 10
13167.127667
 20
3409.069833
 30
0.0
  0
VERTEX
  8
3
  6
CONTINUOUS
 62
   241
  5
67C
 10
13167.224333
 20
3409.069833
 30
0.0
  0
VERTEX
  8
3
  6
CONTINUOUS
 62
   241
  5
67D
 10
13167.224333
 20
3409.079583
 30
0.0
  0
VERTEX
  8
3
  6
CONTINUOUS
 62
   241
  5
67E
 10
13167.127667
 20
3409.079583
 30
0.0
  0
SEQEND
  8
3
  6
CONTINUOUS
 62
   241
  5
67F
  0
POLYLINE
  8
3
  6
CONTINUOUS
 62
   241
  5
680
 66
     1
 10
0.0
 20
0.0
 30
0.0
210
0.0
220
0.0
230
1.0
  0
VERTEX
  8
3
  6
CONTINUOUS
 62
   241
  5
681
 10
13169.025583
 20
3408.491833
 30
0.0
  0
VERTEX
  8
3
  6
CONTINUOUS
 62
   241
  5
682
 10
13169.025583
 20
3408.7715
 30
0.0
  0
VERTEX
  8
3
  6
CONTINUOUS
 62
   241
  5
683
 10
13169.122083
 20
3408.7715
 30
0.0
  0
VERTEX
  8
3
  6
CONTINUOUS
 62
   241
  5
684
 10
13169.122083
 20
3408.781167
 30
0.0
  0
VERTEX
  8
3
  6
CONTINUOUS
 62
   241
  5
685
 10
13168.918833
 20
3408.781167
 30
0.0
  0
VERTEX
  8
3
  6
CONTINUOUS
 62
   241
  5
686
 10
13168.918833
 20
3408.7715
 30
0.0
  0
VERTEX
  8
3
  6
CONTINUOUS
 62
   241
  5
687
 10
13169.015917
 20
3408.7715
 30
0.0
  0
VERTEX
  8
3
  6
CONTINUOUS
 62
   241
  5
688
 10
13169.015917
 20
3408.491417
 30
0.0
  0
SEQEND
  8
3
  6
CONTINUOUS
 62
   241
  5
689
  0
POLYLINE
  8
3
  6
CONTINUOUS
 62
   241
  5
68A
 66
     1
 10
0.0
 20
0.0
 30
0.0
210
0.0
220
0.0
230
1.0
  0
VERTEX
  8
3
  6
CONTINUOUS
 62
   241
  5
68B
 10
13168.918833
 20
3408.781167
 30
0.0
  0
VERTEX
  8
3
  6
CONTINUOUS
 62
   241
  5
68C
 10
13169.122083
 20
3408.781167
 30
0.0
  0
VERTEX
  8
3
  6
CONTINUOUS
 62
   241
  5
68D
 10
13169.122083
 20
3408.790417
 30
0.0
  0
VERTEX
  8
3
  6
CONTINUOUS
 62
   241
  5
68E
 10
13169.025583
 20
3408.790417
 30
0.0
  0
VERTEX
  8
3
  6
CONTINUOUS
 62
   241
  5
68F
 10
13169.025583
 20
3409.069833
 30
0.0
  0
SEQEND
  8
3
  6
CONTINUOUS
 62
   241
  5
690
  0
POLYLINE
  8
3
  6
CONTINUOUS
 62
   241
  5
691
 66
     1
 10
0.0
 20
0.0
 30
0.0
210
0.0
220
0.0
230
1.0
  0
VERTEX
  8
3
  6
CONTINUOUS
 62
   241
  5
692
 10
13169.015917
 20
3409.069833
 30
0.0
  0
VERTEX
  8
3
  6
CONTINUOUS
 62
   241
  5
693
 10
13169.015917
 20
3408.790417
 30
0.0
  0
VERTEX
  8
3
  6
CONTINUOUS
 62
   241
  5
694
 10
13168.918833
 20
3408.790417
 30
0.0
  0
VERTEX
  8
3
  6
CONTINUOUS
 62
   241
  5
695
 10
13168.918833
 20
3408.781167
 30
0.0
  0
SEQEND
  8
3
  6
CONTINUOUS
 62
   241
  5
696
  0
LINE
  8
3
  6
CONTINUOUS
 62
   241
  5
697
 10
13168.920167
 20
3408.482083
 30
0.0
 11
13168.920167
 21
3408.491833
 31
0.0
  0
POLYLINE
  8
3
  6
CONTINUOUS
 62
   241
  5
698
 66
     1
 10
0.0
 20
0.0
 30
0.0
210
0.0
220
0.0
230
1.0
  0
VERTEX
  8
3
  6
CONTINUOUS
 62
   241
  5
699
 10
13168.920167
 20
3408.482083
 30
0.0
  0
VERTEX
  8
3
  6
CONTINUOUS
 62
   241
  5
69A
 10
13169.122083
 20
3408.482083
 30
0.0
  0
VERTEX
  8
3
  6
CONTINUOUS
 62
   241
  5
69B
 10
13169.122083
 20
3408.491833
 30
0.0
  0
VERTEX
  8
3
  6
CONTINUOUS
 62
   241
  5
69C
 10
13169.025583
 20
3408.491833
 30
0.0
  0
SEQEND
  8
3
  6
CONTINUOUS
 62
   241
  5
69D
  0
LINE
  8
3
  6
CONTINUOUS
 62
   241
  5
69E
 10
13169.015917
 20
3408.491833
 30
0.0
 11
13168.920167
 21
3408.491833
 31
0.0
  0
LINE
  8
3
  6
CONTINUOUS
 62
   241
  5
69F
 10
13168.920167
 20
3409.069833
 30
0.0
 11
13168.920167
 21
3409.079583
 31
0.0
  0
LINE
  8
3
  6
CONTINUOUS
 62
   241
  5
6A0
 10
13169.025583
 20
3409.079583
 30
0.0
 11
13168.920167
 21
3409.079583
 31
0.0
  0
LINE
  8
3
  6
CONTINUOUS
 62
   241
  5
6A1
 10
13168.920167
 20
3409.069833
 30
0.0
 11
13169.015917
 21
3409.069833
 31
0.0
  0
POLYLINE
  8
3
  6
CONTINUOUS
 62
   241
  5
6A2
 66
     1
 10
0.0
 20
0.0
 30
0.0
210
0.0
220
0.0
230
1.0
  0
VERTEX
  8
3
  6
CONTINUOUS
 62
   241
  5
6A3
 10
13169.025583
 20
3409.069833
 30
0.0
  0
VERTEX
  8
3
  6
CONTINUOUS
 62
   241
  5
6A4
 10
13169.122083
 20
3409.069833
 30
0.0
  0
VERTEX
  8
3
  6
CONTINUOUS
 62
   241
  5
6A5
 10
13169.122083
 20
3409.079583
 30
0.0
  0
VERTEX
  8
3
  6
CONTINUOUS
 62
   241
  5
6A6
 10
13169.025583
 20
3409.079583
 30
0.0
  0
SEQEND
  8
3
  6
CONTINUOUS
 62
   241
  5
6A7
  0
LINE
  8
3
  6
CONTINUOUS
 62
   241
  5
6A8
 10
13157.486167
 20
3408.780667
 30
0.0
 11
13157.689417
 21
3408.780667
 31
0.0
  0
LINE
  8
3
  6
CONTINUOUS
 62
   241
  5
6A9
 10
13157.486167
 20
3408.780667
 30
0.0
 11
13157.486167
 21
3408.564583
 31
0.0
  0
LINE
  8
3
  6
CONTINUOUS
 62
   241
  5
6AA
 10
13157.689417
 20
3408.780667
 30
0.0
 11
13157.689417
 21
3408.564583
 31
0.0
  0
LINE
  8
3
  6
CONTINUOUS
 62
   241
  5
6AB
 10
13157.437333
 20
3408.780667
 30
0.0
 11
13157.298667
 21
3408.780667
 31
0.0
  0
LINE
  8
3
  6
CONTINUOUS
 62
   241
  5
6AC
 10
13157.437333
 20
3408.565167
 30
0.0
 11
13157.298667
 21
3408.565167
 31
0.0
  0
LINE
  8
3
  6
CONTINUOUS
 62
   241
  5
6AD
 10
13157.486167
 20
3408.564583
 30
0.0
 11
13157.5825
 21
3408.564583
 31
0.0
  0
LINE
  8
3
  6
CONTINUOUS
 62
   241
  5
6AE
 10
13157.591167
 20
3408.564583
 30
0.0
 11
13157.689417
 21
3408.564583
 31
0.0
  0
LINE
  8
3
  6
CONTINUOUS
 62
   241
  5
6AF
 10
13158.439667
 20
3408.781167
 30
0.0
 11
13158.643
 21
3408.781167
 31
0.0
  0
LINE
  8
3
  6
CONTINUOUS
 62
   241
  5
6B0
 10
13158.643
 20
3408.781167
 30
0.0
 11
13158.643
 21
3408.615833
 31
0.0
  0
LINE
  8
3
  6
CONTINUOUS
 62
   241
  5
6B1
 10
13158.439667
 20
3408.781167
 30
0.0
 11
13158.439667
 21
3408.615833
 31
0.0
  0
LINE
  8
3
  6
CONTINUOUS
 62
   241
  5
6B2
 10
13158.439667
 20
3408.615833
 30
0.0
 11
13158.5355
 21
3408.615833
 31
0.0
  0
LINE
  8
3
  6
CONTINUOUS
 62
   241
  5
6B3
 10
13158.544667
 20
3408.615833
 30
0.0
 11
13158.643
 21
3408.615833
 31
0.0
  0
LINE
  8
3
  6
CONTINUOUS
 62
   241
  5
6B4
 10
13159.39325
 20
3408.781833
 30
0.0
 11
13159.5965
 21
3408.781833
 31
0.0
  0
LINE
  8
3
  6
CONTINUOUS
 62
   241
  5
6B5
 10
13159.39325
 20
3408.781833
 30
0.0
 11
13159.39325
 21
3408.68
 31
0.0
  0
LINE
  8
3
  6
CONTINUOUS
 62
   241
  5
6B6
 10
13159.39325
 20
3408.68
 30
0.0
 11
13159.5965
 21
3408.68
 31
0.0
  0
LINE
  8
3
  6
CONTINUOUS
 62
   241
  5
6B7
 10
13159.5965
 20
3408.781833
 30
0.0
 11
13159.5965
 21
3408.68
 31
0.0
  0
LINE
  8
3
  6
CONTINUOUS
 62
   241
  5
6B8
 10
13159.344333
 20
3408.780667
 30
0.0
 11
13159.188
 21
3408.780667
 31
0.0
  0
LINE
  8
3
  6
CONTINUOUS
 62
   241
  5
6B9
 10
13160.347333
 20
3408.780667
 30
0.0
 11
13160.550667
 21
3408.780667
 31
0.0
  0
LINE
  8
3
  6
CONTINUOUS
 62
   241
  5
6BA
 10
13160.550667
 20
3408.780667
 30
0.0
 11
13160.550667
 21
3408.729917
 31
0.0
  0
LINE
  8
3
  6
CONTINUOUS
 62
   241
  5
6BB
 10
13160.347333
 20
3408.780667
 30
0.0
 11
13160.347333
 21
3408.729917
 31
0.0
  0
LINE
  8
3
  6
CONTINUOUS
 62
   241
  5
6BC
 10
13160.347333
 20
3408.729917
 30
0.0
 11
13160.550667
 21
3408.729917
 31
0.0
  0
LINE
  8
3
  6
CONTINUOUS
 62
   241
  5
6BD
 10
13160.297333
 20
3408.781833
 30
0.0
 11
13160.047583
 21
3408.781833
 31
0.0
  0
LINE
  8
3
  6
CONTINUOUS
 62
   241
  5
6BE
 10
13159.45975
 20
3408.572417
 30
0.0
 11
13160.413333
 21
3408.639583
 31
0.0
  0
LINE
  8
3
  6
CONTINUOUS
 62
   241
  5
6BF
 10
13158.2815
 20
3408.4895
 30
0.0
 11
13159.45975
 21
3408.572417
 31
0.0
  0
LINE
  8
3
  6
CONTINUOUS
 62
   241
  5
6C0
 10
13161.520083
 20
3408.694
 30
0.0
 11
13161.499333
 21
3408.789167
 31
0.0
  0
LINE
  8
3
  6
CONTINUOUS
 62
   241
  5
6C1
 10
13163.347167
 20
3409.112667
 30
0.0
 11
13163.08825
 21
3409.055833
 31
0.0
  0
LINE
  8
3
  6
CONTINUOUS
 62
   241
  5
6C2
 10
13163.08825
 20
3409.055833
 30
0.0
 11
13161.520083
 21
3408.694
 31
0.0
  0
LINE
  8
3
  6
CONTINUOUS
 62
   241
  5
6C3
 10
13160.413333
 20
3408.639583
 30
0.0
 11
13161.520083
 21
3408.694
 31
0.0
  0
LINE
  8
3
  6
CONTINUOUS
 62
   241
  5
6C4
 10
13160.4085
 20
3408.737333
 30
0.0
 11
13161.49875
 21
3408.791
 31
0.0
  0
LINE
  8
3
  6
CONTINUOUS
 62
   241
  5
6C5
 10
13163.066417
 20
3409.15125
 30
0.0
 11
13161.498167
 21
3408.789167
 31
0.0
  0
LINE
  8
3
  6
CONTINUOUS
 62
   241
  5
6C6
 10
13163.3265
 20
3409.207917
 30
0.0
 11
13163.067583
 21
3409.15125
 31
0.0
  0
LINE
  8
3
  6
CONTINUOUS
 62
   241
  5
6C7
 10
13163.346583
 20
3409.1115
 30
0.0
 11
13163.32575
 21
3409.206583
 31
0.0
  0
LINE
  8
3
  6
CONTINUOUS
 62
   241
  5
6C8
 10
13170.08625
 20
3408.31375
 30
0.0
 11
13156.63175
 21
3408.31375
 31
0.0
  0
LINE
  8
3
  6
DASHED
 62
   241
  5
6C9
 10
13152.735
 20
3408.875333
 30
0.0
 11
13152.735
 21
3409.196417
 31
0.0
  0
LINE
  8
3
  6
CONTINUOUS
 62
   241
  5
6CA
 10
13152.670083
 20
3409.229333
 30
0.0
 11
13153.230083
 21
3409.229333
 31
0.0
  0
LINE
  8
3
  6
CONTINUOUS
 62
   241
  5
6CB
 10
13152.670083
 20
3409.1975
 30
0.0
 11
13152.670083
 21
3409.229333
 31
0.0
  0
LINE
  8
3
  6
CONTINUOUS
 62
   241
  5
6CC
 10
13153.230083
 20
3408.875333
 30
0.0
 11
13153.230083
 21
3408.891083
 31
0.0
  0
LINE
  8
3
  6
DASHED
 62
   241
  5
6CD
 10
13152.973833
 20
3408.875333
 30
0.0
 11
13152.973833
 21
3409.192667
 31
0.0
  0
LINE
  8
3
  6
DASHED
 62
   241
  5
6CE
 10
13152.93825
 20
3408.875333
 30
0.0
 11
13152.93825
 21
3409.196417
 31
0.0
  0
LINE
  8
3
  6
DASHED
 62
   241
  5
6CF
 10
13153.177417
 20
3408.875333
 30
0.0
 11
13153.177417
 21
3409.196417
 31
0.0
  0
LINE
  8
3
  6
DASHED
 62
   241
  5
6D0
 10
13153.1415
 20
3408.875333
 30
0.0
 11
13153.1415
 21
3409.192667
 31
0.0
  0
LINE
  8
3
  6
CONTINUOUS
 62
   241
  5
6D1
 10
13152.653167
 20
3408.875333
 30
0.0
 11
13153.230083
 21
3408.875333
 31
0.0
  0
LINE
  8
3
  6
CONTINUOUS
 62
   241
  5
6D2
 10
13156.641167
 20
3410.6975
 30
0.0
 11
13156.641167
 21
3408.64575
 31
0.0
  0
POLYLINE
  8
3
  6
CONTINUOUS
 62
   241
  5
6D3
 66
     1
 10
0.0
 20
0.0
 30
0.0
210
0.0
220
0.0
230
1.0
  0
VERTEX
  8
3
  6
CONTINUOUS
 62
   241
  5
6D4
 10
13153.203997
 20
3404.261569
 30
0.0
 42
-0.019898
  0
VERTEX
  8
3
  6
CONTINUOUS
 62
   241
  5
6D5
 10
13153.146587
 20
3404.265321
 30
0.0
 42
-0.021611
  0
VERTEX
  8
3
  6
CONTINUOUS
 62
   241
  5
6D6
 10
13153.091967
 20
3404.273439
 30
0.0
 42
-0.025049
  0
VERTEX
  8
3
  6
CONTINUOUS
 62
   241
  5
6D7
 10
13153.042117
 20
3404.285628
 30
0.0
 42
-0.031131
  0
VERTEX
  8
3
  6
CONTINUOUS
 62
   241
  5
6D8
 10
13152.998848
 20
3404.301446
 30
0.0
 42
-0.041647
  0
VERTEX
  8
3
  6
CONTINUOUS
 62
   241
  5
6D9
 10
13152.963729
 20
3404.320319
 30
0.0
 42
-0.059604
  0
VERTEX
  8
3
  6
CONTINUOUS
 62
   241
  5
6DA
 10
13152.938035
 20
3404.341562
 30
0.0
 42
-0.087061
  0
VERTEX
  8
3
  6
CONTINUOUS
 62
   241
  5
6DB
 10
13152.922699
 20
3404.364404
 30
0.0
 42
-0.112833
  0
VERTEX
  8
3
  6
CONTINUOUS
 62
   241
  5
6DC
 10
13152.918277
 20
3404.388016
 30
0.0
 42
-0.109178
  0
VERTEX
  8
3
  6
CONTINUOUS
 62
   241
  5
6DD
 10
13152.924929
 20
3404.41154
 30
0.0
 42
-0.08093
  0
VERTEX
  8
3
  6
CONTINUOUS
 62
   241
  5
6DE
 10
13152.942414
 20
3404.434125
 30
0.0
 42
-0.05521
  0
VERTEX
  8
3
  6
CONTINUOUS
 62
   241
  5
6DF
 10
13152.970098
 20
3404.454949
 30
0.0
 42
-0.039038
  0
VERTEX
  8
3
  6
CONTINUOUS
 62
   241
  5
6E0
 10
13153.006976
 20
3404.473257
 30
0.0
 42
-0.02962
  0
VERTEX
  8
3
  6
CONTINUOUS
 62
   241
  5
6E1
 10
13153.051709
 20
3404.488384
 30
0.0
 42
-0.024181
  0
VERTEX
  8
3
  6
CONTINUOUS
 62
   241
  5
6E2
 10
13153.102675
 20
3404.499782
 30
0.0
 42
-0.024181
  0
SEQEND
  8
3
  6
CONTINUOUS
 62
   241
  5
6E3
  0
POLYLINE
  8
3
  6
CONTINUOUS
 62
   241
  5
6E4
 66
     1
 10
0.0
 20
0.0
 30
0.0
210
0.0
220
0.0
230
1.0
  0
VERTEX
  8
3
  6
CONTINUOUS
 62
   241
  5
6E5
 10
13153.203991
 20
3404.125835
 30
0.0
 42
0.019874
  0
VERTEX
  8
3
  6
CONTINUOUS
 62
   241
  5
6E6
 10
13153.146648
 20
3404.122089
 30
0.0
 42
0.021581
  0
VERTEX
  8
3
  6
CONTINUOUS
 62
   241
  5
6E7
 10
13153.092084
 20
3404.113988
 30
0.0
 42
0.025007
  0
VERTEX
  8
3
  6
CONTINUOUS
 62
   241
  5
6E8
 10
13153.042276
 20
3404.101824
 30
0.0
 42
0.031063
  0
VERTEX
  8
3
  6
CONTINUOUS
 62
   241
  5
6E9
 10
13152.999028
 20
3404.086037
 30
0.0
 42
0.041528
  0
VERTEX
  8
3
  6
CONTINUOUS
 62
   241
  5
6EA
 10
13152.963904
 20
3404.0672
 30
0.0
 42
0.05939
  0
VERTEX
  8
3
  6
CONTINUOUS
 62
   241
  5
6EB
 10
13152.938178
 20
3404.045995
 30
0.0
 42
0.086731
  0
VERTEX
  8
3
  6
CONTINUOUS
 62
   241
  5
6EC
 10
13152.922779
 20
3404.023188
 30
0.0
 42
0.112575
  0
VERTEX
  8
3
  6
CONTINUOUS
 62
   241
  5
6ED
 10
13152.918267
 20
3403.999607
 30
0.0
 42
0.109257
  0
VERTEX
  8
3
  6
CONTINUOUS
 62
   241
  5
6EE
 10
13152.924804
 20
3403.976104
 30
0.0
 42
0.081163
  0
VERTEX
  8
3
  6
CONTINUOUS
 62
   241
  5
6EF
 10
13152.942153
 20
3403.953531
 30
0.0
 42
0.055396
  0
VERTEX
  8
3
  6
CONTINUOUS
 62
   241
  5
6F0
 10
13152.969687
 20
3403.932705
 30
0.0
 42
0.039154
  0
VERTEX
  8
3
  6
CONTINUOUS
 62
   241
  5
6F1
 10
13153.006408
 20
3403.914381
 30
0.0
 42
0.029687
  0
VERTEX
  8
3
  6
CONTINUOUS
 62
   241
  5
6F2
 10
13153.050988
 20
3403.899221
 30
0.0
 42
0.024216
  0
VERTEX
  8
3
  6
CONTINUOUS
 62
   241
  5
6F3
 10
13153.101811
 20
3403.887774
 30
0.0
 42
0.024216
  0
SEQEND
  8
3
  6
CONTINUOUS
 62
   241
  5
6F4
  0
LINE
  8
3
  6
CONTINUOUS
 62
   241
  5
6F5
 10
13153.10125
 20
3403.88775
 30
0.0
 11
13153.183667
 21
3403.891583
 31
0.0
  0
LINE
  8
3
  6
CONTINUOUS
 62
   241
  5
6F6
 10
13153.102417
 20
3404.500083
 30
0.0
 11
13153.18425
 21
3404.500083
 31
0.0
  0
LINE
  8
3
  6
CONTINUOUS
 62
   241
  5
6F7
 10
13154.29825
 20
3404.504833
 30
0.0
 11
13162.031583
 21
3404.504833
 31
0.0
  0
LINE
  8
3
  6
CONTINUOUS
 62
   241
  5
6F8
 10
13154.29825
 20
3404.125833
 30
0.0
 11
13162.031583
 21
3404.125833
 31
0.0
  0
LINE
  8
3
  6
CONTINUOUS
 62
   241
  5
6F9
 10
13167.03925
 20
3404.504833
 30
0.0
 11
13167.03925
 21
3404.536667
 31
0.0
  0
LINE
  8
3
  6
CONTINUOUS
 62
   241
  5
6FA
 10
13167.2425
 20
3404.504833
 30
0.0
 11
13167.2425
 21
3404.536667
 31
0.0
  0
LINE
  8
3
  6
CONTINUOUS
 62
   241
  5
6FB
 10
13167.03925
 20
3404.536667
 30
0.0
 11
13167.2425
 21
3404.536667
 31
0.0
  0
LINE
  8
3
  6
CONTINUOUS
 62
   241
  5
6FC
 10
13167.241333
 20
3403.882333
 30
0.0
 11
13167.241333
 21
3403.0765
 31
0.0
  0
LINE
  8
3
  6
CONTINUOUS
 62
   241
  5
6FD
 10
13167.038
 20
3403.882333
 30
0.0
 11
13167.038
 21
3403.0765
 31
0.0
  0
LINE
  8
3
  6
CONTINUOUS
 62
   241
  5
6FE
 10
13169.98225
 20
3408.448
 30
0.0
 11
13169.98225
 21
3408.912583
 31
0.0
  0
LINE
  8
3
  6
CONTINUOUS
 62
   241
  5
6FF
 10
13169.98225
 20
3408.113333
 30
0.0
 11
13169.98225
 21
3407.753583
 31
0.0
  0
LINE
  8
3
  6
CONTINUOUS
 62
   241
  5
700
 10
13169.98225
 20
3408.448
 30
0.0
 11
13170.111667
 21
3408.2805
 31
0.0
  0
LINE
  8
3
  6
CONTINUOUS
 62
   241
  5
701
 10
13170.111667
 20
3408.2805
 30
0.0
 11
13169.869333
 21
3408.27525
 31
0.0
  0
LINE
  8
3
  6
CONTINUOUS
 62
   241
  5
702
 10
13169.869333
 20
3408.27525
 30
0.0
 11
13169.98225
 21
3408.113333
 31
0.0
  0
LINE
  8
3
  6
CONTINUOUS
 62
   241
  5
703
 10
13168.947
 20
3404.504833
 30
0.0
 11
13168.947
 21
3404.536667
 31
0.0
  0
LINE
  8
3
  6
CONTINUOUS
 62
   241
  5
704
 10
13169.15025
 20
3404.504833
 30
0.0
 11
13169.15025
 21
3404.536667
 31
0.0
  0
LINE
  8
3
  6
CONTINUOUS
 62
   241
  5
705
 10
13168.947
 20
3404.536667
 30
0.0
 11
13169.15025
 21
3404.536667
 31
0.0
  0
LINE
  8
3
  6
CONTINUOUS
 62
   241
  5
706
 10
13169.148917
 20
3403.882333
 30
0.0
 11
13169.148917
 21
3403.0765
 31
0.0
  0
LINE
  8
3
  6
CONTINUOUS
 62
   241
  5
707
 10
13168.945667
 20
3403.882333
 30
0.0
 11
13168.945667
 21
3403.0765
 31
0.0
  0
POLYLINE
  8
3
  6
HIDDEN
 62
   241
  5
708
 66
     1
 10
0.0
 20
0.0
 30
0.0
210
0.0
220
0.0
230
1.0
  0
VERTEX
  8
3
  6
HIDDEN
 62
   241
  5
709
 10
13169.148917
 20
3403.0765
 30
0.0
  0
VERTEX
  8
3
  6
HIDDEN
 62
   241
  5
70A
 10
13169.148917
 20
3400.787333
 30
0.0
  0
VERTEX
  8
3
  6
HIDDEN
 62
   241
  5
70B
 10
13168.945667
 20
3400.787333
 30
0.0
  0
VERTEX
  8
3
  6
HIDDEN
 62
   241
  5
70C
 10
13168.945667
 20
3403.0765
 30
0.0
  0
SEQEND
  8
3
  6
HIDDEN
 62
   241
  5
70D
  0
LINE
  8
3
  6
CONTINUOUS
 62
   241
  5
70E
 10
13169.031917
 20
3409.349417
 30
0.0
 11
13169.031917
 21
3410.702333
 31
0.0
  0
LINE
  8
3
  6
CONTINUOUS
 62
   241
  5
70F
 10
13151.68
 20
3403.060667
 30
0.0
 11
13154.873583
 21
3403.060667
 31
0.0
  0
LINE
  8
3
  6
DASHED
 62
   241
  5
710
 10
13156.931833
 20
3401.464917
 30
0.0
 11
13151.6655
 21
3401.448333
 31
0.0
  0
LINE
  8
3
  6
CONTINUOUS
 62
   241
  5
711
 10
13156.413667
 20
3404.764917
 30
0.0
 11
13156.933
 21
3404.561667
 31
0.0
  0
LINE
  8
3
  6
CONTINUOUS
 62
   241
  5
712
 10
13154.490083
 20
3403.37
 30
0.0
 11
13154.490083
 21
3403.675333
 31
0.0
  0
LINE
  8
3
  6
CONTINUOUS
 62
   241
  5
713
 10
13154.490083
 20
3403.675333
 30
0.0
 11
13157.694917
 21
3403.675333
 31
0.0
  0
LINE
  8
3
  6
CONTINUOUS
 62
   241
  5
714
 10
13154.490083
 20
3403.37
 30
0.0
 11
13157.694917
 21
3403.37
 31
0.0
  0
CIRCLE
  8
3
  6
CONTINUOUS
 62
   241
  5
715
 10
13154.5895
 20
3403.59963
 30
0.0
 40
0.019077
210
0.0
220
0.0
230
1.0
  0
CIRCLE
  8
3
  6
CONTINUOUS
 62
   241
  5
716
 10
13154.594994
 20
3403.445794
 30
0.0
 40
0.019077
210
0.0
220
0.0
230
1.0
  0
CIRCLE
  8
3
  6
CONTINUOUS
 62
   241
  5
717
 10
13154.746388
 20
3403.524543
 30
0.0
 40
0.019077
210
0.0
220
0.0
230
1.0
  0
CIRCLE
  8
3
  6
CONTINUOUS
 62
   241
  5
718
 10
13157.64425
 20
3403.528206
 30
0.0
 40
0.019077
210
0.0
220
0.0
230
1.0
  0
CIRCLE
  8
3
  6
CONTINUOUS
 62
   241
  5
719
 10
13157.558175
 20
3403.59902
 30
0.0
 40
0.019077
210
0.0
220
0.0
230
1.0
  0
CIRCLE
  8
3
  6
CONTINUOUS
 62
   241
  5
71A
 10
13157.558175
 20
3403.442131
 30
0.0
 40
0.019077
210
0.0
220
0.0
230
1.0
  0
LINE
  8
3
  6
CONTINUOUS
 62
   241
  5
71B
 10
13156.931833
 20
3408.485167
 30
0.0
 11
13156.931833
 21
3409.654167
 31
0.0
  0
LINE
  8
3
  6
CONTINUOUS
 62
   241
  5
71C
 10
13156.933
 20
3404.561667
 30
0.0
 11
13156.933
 21
3404.501917
 31
0.0
  0
LINE
  8
3
  6
CONTINUOUS
 62
   241
  5
71D
 10
13156.933
 20
3403.882333
 30
0.0
 11
13156.933
 21
3403.675333
 31
0.0
  0
LINE
  8
3
  6
DASHED
 62
   241
  5
71E
 10
13156.635833
 20
3403.63325
 30
0.0
 11
13156.635833
 21
3403.404333
 31
0.0
  0
LINE
  8
3
  6
DASHED
 62
   241
  5
71F
 10
13156.635833
 20
3403.63325
 30
0.0
 11
13156.814
 21
3403.63325
 31
0.0
  0
LINE
  8
3
  6
DASHED
 62
   241
  5
720
 10
13156.814
 20
3403.63325
 30
0.0
 11
13156.814
 21
3403.404333
 31
0.0
  0
LINE
  8
3
  6
DASHED
 62
   241
  5
721
 10
13156.635833
 20
3403.404333
 30
0.0
 11
13156.814
 21
3403.404333
 31
0.0
  0
LINE
  8
3
  6
CONTINUOUS
 62
   241
  5
722
 10
13157.514583
 20
3403.37
 30
0.0
 11
13157.514583
 21
3403.675333
 31
0.0
  0
LINE
  8
3
  6
DASHED
 62
   241
  5
723
 10
13157.730333
 20
3403.37
 30
0.0
 11
13157.730333
 21
3403.675333
 31
0.0
  0
LINE
  8
3
  6
CONTINUOUS
 62
   241
  5
724
 10
13157.701083
 20
3403.882333
 30
0.0
 11
13157.701083
 21
3403.674667
 31
0.0
  0
LINE
  8
3
  6
CONTINUOUS
 62
   241
  5
725
 10
13157.701083
 20
3403.37
 30
0.0
 11
13157.701083
 21
3403.060667
 31
0.0
  0
LINE
  8
3
  6
CONTINUOUS
 62
   241
  5
726
 10
13157.497833
 20
3403.882333
 30
0.0
 11
13157.497833
 21
3403.67175
 31
0.0
  0
LINE
  8
3
  6
CONTINUOUS
 62
   241
  5
727
 10
13157.497833
 20
3403.37
 30
0.0
 11
13157.497833
 21
3403.060667
 31
0.0
  0
LINE
  8
3
  6
CONTINUOUS
 62
   241
  5
728
 10
13158.646
 20
3403.882333
 30
0.0
 11
13158.646
 21
3403.674667
 31
0.0
  0
LINE
  8
3
  6
CONTINUOUS
 62
   241
  5
729
 10
13158.646
 20
3403.36275
 30
0.0
 11
13158.646
 21
3403.06975
 31
0.0
  0
LINE
  8
3
  6
CONTINUOUS
 62
   241
  5
72A
 10
13158.442833
 20
3403.882333
 30
0.0
 11
13158.442833
 21
3403.67175
 31
0.0
  0
LINE
  8
3
  6
CONTINUOUS
 62
   241
  5
72B
 10
13158.442833
 20
3403.37
 30
0.0
 11
13158.442833
 21
3403.06975
 31
0.0
  0
LINE
  8
3
  6
CONTINUOUS
 62
   241
  5
72C
 10
13159.402417
 20
3403.882333
 30
0.0
 11
13159.402417
 21
3403.675333
 31
0.0
  0
LINE
  8
3
  6
CONTINUOUS
 62
   241
  5
72D
 10
13159.402417
 20
3403.367667
 30
0.0
 11
13159.402417
 21
3403.060667
 31
0.0
  0
LINE
  8
3
  6
CONTINUOUS
 62
   241
  5
72E
 10
13159.605667
 20
3403.882333
 30
0.0
 11
13159.605667
 21
3403.675333
 31
0.0
  0
LINE
  8
3
  6
CONTINUOUS
 62
   241
  5
72F
 10
13159.605667
 20
3403.37
 30
0.0
 11
13159.605667
 21
3403.060667
 31
0.0
  0
LINE
  8
3
  6
CONTINUOUS
 62
   241
  5
730
 10
13151.68
 20
3404.764917
 30
0.0
 11
13156.413667
 21
3404.764917
 31
0.0
  0
LINE
  8
3
  6
CONTINUOUS
 62
   241
  5
731
 10
13156.933
 20
3403.357833
 30
0.0
 11
13156.933
 21
3403.04825
 31
0.0
  0
LINE
  8
3
  6
DASHED
 62
   241
  5
732
 10
13156.931833
 20
3403.0625
 30
0.0
 11
13156.931833
 21
3401.464917
 31
0.0
  0
LINE
  8
3
  6
CONTINUOUS
 62
   241
  5
733
 10
13161.314917
 20
3403.882333
 30
0.0
 11
13161.314917
 21
3403.672833
 31
0.0
  0
LINE
  8
3
  6
CONTINUOUS
 62
   241
  5
734
 10
13161.314917
 20
3403.3725
 30
0.0
 11
13161.314917
 21
3403.060667
 31
0.0
  0
LINE
  8
3
  6
CONTINUOUS
 62
   241
  5
735
 10
13161.518833
 20
3403.882333
 30
0.0
 11
13161.518833
 21
3403.672833
 31
0.0
  0
LINE
  8
3
  6
CONTINUOUS
 62
   241
  5
736
 10
13161.518833
 20
3403.3725
 30
0.0
 11
13161.518833
 21
3403.060667
 31
0.0
  0
LINE
  8
3
  6
CONTINUOUS
 62
   241
  5
737
 10
13160.565333
 20
3403.882333
 30
0.0
 11
13160.565333
 21
3403.672833
 31
0.0
  0
LINE
  8
3
  6
CONTINUOUS
 62
   241
  5
738
 10
13160.565333
 20
3403.368917
 30
0.0
 11
13160.565333
 21
3403.060667
 31
0.0
  0
LINE
  8
3
  6
CONTINUOUS
 62
   241
  5
739
 10
13160.362
 20
3403.882333
 30
0.0
 11
13160.362
 21
3403.68075
 31
0.0
  0
LINE
  8
3
  6
CONTINUOUS
 62
   241
  5
73A
 10
13160.362
 20
3403.3725
 30
0.0
 11
13160.362
 21
3403.060667
 31
0.0
  0
POLYLINE
  8
3
  6
CONTINUOUS
 62
   241
  5
73B
 66
     1
 10
0.0
 20
0.0
 30
0.0
210
0.0
220
0.0
230
1.0
  0
VERTEX
  8
3
  6
CONTINUOUS
 62
   241
  5
73C
 10
13161.217199
 20
3404.466937
 30
0.0
 42
0.071267
  0
VERTEX
  8
3
  6
CONTINUOUS
 62
   241
  5
73D
 10
13161.216497
 20
3404.471786
 30
0.0
 42
0.065729
  0
VERTEX
  8
3
  6
CONTINUOUS
 62
   241
  5
73E
 10
13161.214417
 20
3404.476448
 30
0.0
 42
0.057443
  0
VERTEX
  8
3
  6
CONTINUOUS
 62
   241
  5
73F
 10
13161.21104
 20
3404.480744
 30
0.0
 42
0.049287
  0
VERTEX
  8
3
  6
CONTINUOUS
 62
   241
  5
740
 10
13161.206495
 20
3404.48451
 30
0.0
 42
0.042701
  0
VERTEX
  8
3
  6
CONTINUOUS
 62
   241
  5
741
 10
13161.200957
 20
3404.4876
 30
0.0
 42
0.037998
  0
VERTEX
  8
3
  6
CONTINUOUS
 62
   241
  5
742
 10
13161.194638
 20
3404.489897
 30
0.0
 42
0.03504
  0
VERTEX
  8
3
  6
CONTINUOUS
 62
   241
  5
743
 10
13161.187782
 20
3404.491311
 30
0.0
 42
0.033623
  0
VERTEX
  8
3
  6
CONTINUOUS
 62
   241
  5
744
 10
13161.180652
 20
3404.491789
 30
0.0
 42
0.033623
  0
VERTEX
  8
3
  6
CONTINUOUS
 62
   241
  5
745
 10
13161.173522
 20
3404.491311
 30
0.0
 42
0.03504
  0
VERTEX
  8
3
  6
CONTINUOUS
 62
   241
  5
746
 10
13161.166666
 20
3404.489897
 30
0.0
 42
0.037998
  0
VERTEX
  8
3
  6
CONTINUOUS
 62
   241
  5
747
 10
13161.160348
 20
3404.4876
 30
0.0
 42
0.042701
  0
VERTEX
  8
3
  6
CONTINUOUS
 62
   241
  5
748
 10
13161.15481
 20
3404.48451
 30
0.0
 42
0.049287
  0
VERTEX
  8
3
  6
CONTINUOUS
 62
   241
  5
749
 10
13161.150264
 20
3404.480744
 30
0.0
 42
0.057443
  0
VERTEX
  8
3
  6
CONTINUOUS
 62
   241
  5
74A
 10
13161.146887
 20
3404.476448
 30
0.0
 42
0.065729
  0
VERTEX
  8
3
  6
CONTINUOUS
 62
   241
  5
74B
 10
13161.144807
 20
3404.471786
 30
0.0
 42
0.071267
  0
VERTEX
  8
3
  6
CONTINUOUS
 62
   241
  5
74C
 10
13161.144105
 20
3404.466937
 30
0.0
 42
0.071267
  0
SEQEND
  8
3
  6
CONTINUOUS
 62
   241
  5
74D
  0
POLYLINE
  8
3
  6
CONTINUOUS
 62
   241
  5
74E
 66
     1
 10
0.0
 20
0.0
 30
0.0
210
0.0
220
0.0
230
1.0
  0
VERTEX
  8
3
  6
CONTINUOUS
 62
   241
  5
74F
 10
13161.144105
 20
3403.922888
 30
0.0
 42
-0.107797
  0
VERTEX
  8
3
  6
CONTINUOUS
 62
   241
  5
750
 10
13161.144807
 20
3403.925984
 30
0.0
 42
-0.083254
  0
VERTEX
  8
3
  6
CONTINUOUS
 62
   241
  5
751
 10
13161.146887
 20
3403.928961
 30
0.0
 42
-0.058242
  0
VERTEX
  8
3
  6
CONTINUOUS
 62
   241
  5
752
 10
13161.150264
 20
3403.931705
 30
0.0
 42
-0.041681
  0
VERTEX
  8
3
  6
CONTINUOUS
 62
   241
  5
753
 10
13161.15481
 20
3403.93411
 30
0.0
 42
-0.03183
  0
VERTEX
  8
3
  6
CONTINUOUS
 62
   241
  5
754
 10
13161.160348
 20
3403.936084
 30
0.0
 42
-0.026114
  0
VERTEX
  8
3
  6
CONTINUOUS
 62
   241
  5
755
 10
13161.166666
 20
3403.93755
 30
0.0
 42
-0.022956
  0
VERTEX
  8
3
  6
CONTINUOUS
 62
   241
  5
756
 10
13161.173522
 20
3403.938454
 30
0.0
 42
-0.021545
  0
VERTEX
  8
3
  6
CONTINUOUS
 62
   241
  5
757
 10
13161.180652
 20
3403.938759
 30
0.0
 42
-0.021545
  0
VERTEX
  8
3
  6
CONTINUOUS
 62
   241
  5
758
 10
13161.187782
 20
3403.938454
 30
0.0
 42
-0.022956
  0
VERTEX
  8
3
  6
CONTINUOUS
 62
   241
  5
759
 10
13161.194638
 20
3403.93755
 30
0.0
 42
-0.026114
  0
VERTEX
  8
3
  6
CONTINUOUS
 62
   241
  5
75A
 10
13161.200957
 20
3403.936084
 30
0.0
 42
-0.03183
  0
VERTEX
  8
3
  6
CONTINUOUS
 62
   241
  5
75B
 10
13161.206495
 20
3403.93411
 30
0.0
 42
-0.041681
  0
VERTEX
  8
3
  6
CONTINUOUS
 62
   241
  5
75C
 10
13161.21104
 20
3403.931705
 30
0.0
 42
-0.058242
  0
VERTEX
  8
3
  6
CONTINUOUS
 62
   241
  5
75D
 10
13161.214417
 20
3403.928961
 30
0.0
 42
-0.083254
  0
VERTEX
  8
3
  6
CONTINUOUS
 62
   241
  5
75E
 10
13161.216497
 20
3403.925984
 30
0.0
 42
-0.107797
  0
VERTEX
  8
3
  6
CONTINUOUS
 62
   241
  5
75F
 10
13161.217199
 20
3403.922888
 30
0.0
 42
-0.107797
  0
SEQEND
  8
3
  6
CONTINUOUS
 62
   241
  5
760
  0
POLYLINE
  8
3
  6
CONTINUOUS
 62
   241
  5
761
 66
     1
 10
0.0
 20
0.0
 30
0.0
210
0.0
220
0.0
230
1.0
  0
VERTEX
  8
3
  6
CONTINUOUS
 62
   241
  5
762
 10
13161.576343
 20
3404.466937
 30
0.0
 42
0.107797
  0
VERTEX
  8
3
  6
CONTINUOUS
 62
   241
  5
763
 10
13161.577045
 20
3404.463841
 30
0.0
 42
0.083254
  0
VERTEX
  8
3
  6
CONTINUOUS
 62
   241
  5
764
 10
13161.579125
 20
3404.460864
 30
0.0
 42
0.058242
  0
VERTEX
  8
3
  6
CONTINUOUS
 62
   241
  5
765
 10
13161.582502
 20
3404.45812
 30
0.0
 42
0.041681
  0
VERTEX
  8
3
  6
CONTINUOUS
 62
   241
  5
766
 10
13161.587047
 20
3404.455715
 30
0.0
 42
0.03183
  0
VERTEX
  8
3
  6
CONTINUOUS
 62
   241
  5
767
 10
13161.592585
 20
3404.453741
 30
0.0
 42
0.026114
  0
VERTEX
  8
3
  6
CONTINUOUS
 62
   241
  5
768
 10
13161.598904
 20
3404.452275
 30
0.0
 42
0.022956
  0
VERTEX
  8
3
  6
CONTINUOUS
 62
   241
  5
769
 10
13161.60576
 20
3404.451372
 30
0.0
 42
0.021545
  0
VERTEX
  8
3
  6
CONTINUOUS
 62
   241
  5
76A
 10
13161.61289
 20
3404.451067
 30
0.0
 42
0.021545
  0
VERTEX
  8
3
  6
CONTINUOUS
 62
   241
  5
76B
 10
13161.62002
 20
3404.451372
 30
0.0
 42
0.022956
  0
VERTEX
  8
3
  6
CONTINUOUS
 62
   241
  5
76C
 10
13161.626876
 20
3404.452275
 30
0.0
 42
0.026114
  0
VERTEX
  8
3
  6
CONTINUOUS
 62
   241
  5
76D
 10
13161.633194
 20
3404.453741
 30
0.0
 42
0.03183
  0
VERTEX
  8
3
  6
CONTINUOUS
 62
   241
  5
76E
 10
13161.638732
 20
3404.455715
 30
0.0
 42
0.041681
  0
VERTEX
  8
3
  6
CONTINUOUS
 62
   241
  5
76F
 10
13161.643277
 20
3404.45812
 30
0.0
 42
0.058242
  0
VERTEX
  8
3
  6
CONTINUOUS
 62
   241
  5
770
 10
13161.646655
 20
3404.460864
 30
0.0
 42
0.083254
  0
VERTEX
  8
3
  6
CONTINUOUS
 62
   241
  5
771
 10
13161.648734
 20
3404.463841
 30
0.0
 42
0.107797
  0
VERTEX
  8
3
  6
CONTINUOUS
 62
   241
  5
772
 10
13161.649437
 20
3404.466937
 30
0.0
 42
0.107797
  0
SEQEND
  8
3
  6
CONTINUOUS
 62
   241
  5
773
  0
POLYLINE
  8
3
  6
CONTINUOUS
 62
   241
  5
774
 66
     1
 10
0.0
 20
0.0
 30
0.0
210
0.0
220
0.0
230
1.0
  0
VERTEX
  8
3
  6
CONTINUOUS
 62
   241
  5
775
 10
13161.649437
 20
3403.922888
 30
0.0
 42
-0.071267
  0
VERTEX
  8
3
  6
CONTINUOUS
 62
   241
  5
776
 10
13161.648734
 20
3403.91804
 30
0.0
 42
-0.065729
  0
VERTEX
  8
3
  6
CONTINUOUS
 62
   241
  5
777
 10
13161.646655
 20
3403.913378
 30
0.0
 42
-0.057443
  0
VERTEX
  8
3
  6
CONTINUOUS
 62
   241
  5
778
 10
13161.643277
 20
3403.909081
 30
0.0
 42
-0.049287
  0
VERTEX
  8
3
  6
CONTINUOUS
 62
   241
  5
779
 10
13161.638732
 20
3403.905315
 30
0.0
 42
-0.042701
  0
VERTEX
  8
3
  6
CONTINUOUS
 62
   241
  5
77A
 10
13161.633194
 20
3403.902225
 30
0.0
 42
-0.037998
  0
VERTEX
  8
3
  6
CONTINUOUS
 62
   241
  5
77B
 10
13161.626876
 20
3403.899928
 30
0.0
 42
-0.03504
  0
VERTEX
  8
3
  6
CONTINUOUS
 62
   241
  5
77C
 10
13161.62002
 20
3403.898514
 30
0.0
 42
-0.033623
  0
VERTEX
  8
3
  6
CONTINUOUS
 62
   241
  5
77D
 10
13161.61289
 20
3403.898037
 30
0.0
 42
-0.033623
  0
VERTEX
  8
3
  6
CONTINUOUS
 62
   241
  5
77E
 10
13161.60576
 20
3403.898514
 30
0.0
 42
-0.03504
  0
VERTEX
  8
3
  6
CONTINUOUS
 62
   241
  5
77F
 10
13161.598904
 20
3403.899928
 30
0.0
 42
-0.037998
  0
VERTEX
  8
3
  6
CONTINUOUS
 62
   241
  5
780
 10
13161.592585
 20
3403.902225
 30
0.0
 42
-0.042701
  0
VERTEX
  8
3
  6
CONTINUOUS
 62
   241
  5
781
 10
13161.587047
 20
3403.905315
 30
0.0
 42
-0.049287
  0
VERTEX
  8
3
  6
CONTINUOUS
 62
   241
  5
782
 10
13161.582502
 20
3403.909081
 30
0.0
 42
-0.057443
  0
VERTEX
  8
3
  6
CONTINUOUS
 62
   241
  5
783
 10
13161.579125
 20
3403.913378
 30
0.0
 42
-0.065729
  0
VERTEX
  8
3
  6
CONTINUOUS
 62
   241
  5
784
 10
13161.577045
 20
3403.91804
 30
0.0
 42
-0.071267
  0
VERTEX
  8
3
  6
CONTINUOUS
 62
   241
  5
785
 10
13161.576343
 20
3403.922888
 30
0.0
 42
-0.071267
  0
SEQEND
  8
3
  6
CONTINUOUS
 62
   241
  5
786
  0
CIRCLE
  8
3
  6
CONTINUOUS
 62
   241
  5
787
 10
13161.4122
 20
3404.192225
 30
0.0
 40
0.036567
210
0.0
220
0.0
230
1.0
  0
POLYLINE
  8
3
  6
CONTINUOUS
 62
   241
  5
788
 66
     1
 10
0.0
 20
0.0
 30
0.0
210
0.0
220
0.0
230
1.0
  0
VERTEX
  8
3
  6
CONTINUOUS
 62
   241
  5
789
 10
13161.217199
 20
3404.079993
 30
0.0
 42
-0.105926
  0
VERTEX
  8
3
  6
CONTINUOUS
 62
   241
  5
78A
 10
13161.216497
 20
3404.076836
 30
0.0
 42
-0.082645
  0
VERTEX
  8
3
  6
CONTINUOUS
 62
   241
  5
78B
 10
13161.214417
 20
3404.073799
 30
0.0
 42
-0.058441
  0
VERTEX
  8
3
  6
CONTINUOUS
 62
   241
  5
78C
 10
13161.21104
 20
3404.071001
 30
0.0
 42
-0.042129
  0
VERTEX
  8
3
  6
CONTINUOUS
 62
   241
  5
78D
 10
13161.206495
 20
3404.068548
 30
0.0
 42
-0.032313
  0
VERTEX
  8
3
  6
CONTINUOUS
 62
   241
  5
78E
 10
13161.200957
 20
3404.066535
 30
0.0
 42
-0.026577
  0
VERTEX
  8
3
  6
CONTINUOUS
 62
   241
  5
78F
 10
13161.194638
 20
3404.065039
 30
0.0
 42
-0.023395
  0
VERTEX
  8
3
  6
CONTINUOUS
 62
   241
  5
790
 10
13161.187782
 20
3404.064118
 30
0.0
 42
-0.021971
  0
VERTEX
  8
3
  6
CONTINUOUS
 62
   241
  5
791
 10
13161.180652
 20
3404.063807
 30
0.0
 42
-0.021971
  0
VERTEX
  8
3
  6
CONTINUOUS
 62
   241
  5
792
 10
13161.173522
 20
3404.064118
 30
0.0
 42
-0.023395
  0
VERTEX
  8
3
  6
CONTINUOUS
 62
   241
  5
793
 10
13161.166666
 20
3404.065039
 30
0.0
 42
-0.026577
  0
VERTEX
  8
3
  6
CONTINUOUS
 62
   241
  5
794
 10
13161.160348
 20
3404.066535
 30
0.0
 42
-0.032313
  0
VERTEX
  8
3
  6
CONTINUOUS
 62
   241
  5
795
 10
13161.15481
 20
3404.068548
 30
0.0
 42
-0.042129
  0
VERTEX
  8
3
  6
CONTINUOUS
 62
   241
  5
796
 10
13161.150264
 20
3404.071001
 30
0.0
 42
-0.058441
  0
VERTEX
  8
3
  6
CONTINUOUS
 62
   241
  5
797
 10
13161.146887
 20
3404.073799
 30
0.0
 42
-0.082645
  0
VERTEX
  8
3
  6
CONTINUOUS
 62
   241
  5
798
 10
13161.144807
 20
3404.076836
 30
0.0
 42
-0.105926
  0
VERTEX
  8
3
  6
CONTINUOUS
 62
   241
  5
799
 10
13161.144105
 20
3404.079993
 30
0.0
 42
-0.105926
  0
SEQEND
  8
3
  6
CONTINUOUS
 62
   241
  5
79A
  0
POLYLINE
  8
3
  6
CONTINUOUS
 62
   241
  5
79B
 66
     1
 10
0.0
 20
0.0
 30
0.0
210
0.0
220
0.0
230
1.0
  0
VERTEX
  8
3
  6
CONTINUOUS
 62
   241
  5
79C
 10
13161.144105
 20
3404.079993
 30
0.0
 42
-0.069642
  0
VERTEX
  8
3
  6
CONTINUOUS
 62
   241
  5
79D
 10
13161.144807
 20
3404.084961
 30
0.0
 42
-0.064663
  0
VERTEX
  8
3
  6
CONTINUOUS
 62
   241
  5
79E
 10
13161.146887
 20
3404.089737
 30
0.0
 42
-0.05709
  0
VERTEX
  8
3
  6
CONTINUOUS
 62
   241
  5
79F
 10
13161.150264
 20
3404.094139
 30
0.0
 42
-0.049486
  0
VERTEX
  8
3
  6
CONTINUOUS
 62
   241
  5
7A0
 10
13161.15481
 20
3404.097997
 30
0.0
 42
-0.043232
  0
VERTEX
  8
3
  6
CONTINUOUS
 62
   241
  5
7A1
 10
13161.160348
 20
3404.101164
 30
0.0
 42
-0.038702
  0
VERTEX
  8
3
  6
CONTINUOUS
 62
   241
  5
7A2
 10
13161.166666
 20
3404.103517
 30
0.0
 42
-0.035825
  0
VERTEX
  8
3
  6
CONTINUOUS
 62
   241
  5
7A3
 10
13161.173522
 20
3404.104966
 30
0.0
 42
-0.034439
  0
VERTEX
  8
3
  6
CONTINUOUS
 62
   241
  5
7A4
 10
13161.180652
 20
3404.105455
 30
0.0
 42
-0.034439
  0
VERTEX
  8
3
  6
CONTINUOUS
 62
   241
  5
7A5
 10
13161.187782
 20
3404.104966
 30
0.0
 42
-0.035825
  0
VERTEX
  8
3
  6
CONTINUOUS
 62
   241
  5
7A6
 10
13161.194638
 20
3404.103517
 30
0.0
 42
-0.038702
  0
VERTEX
  8
3
  6
CONTINUOUS
 62
   241
  5
7A7
 10
13161.200957
 20
3404.101164
 30
0.0
 42
-0.043232
  0
VERTEX
  8
3
  6
CONTINUOUS
 62
   241
  5
7A8
 10
13161.206495
 20
3404.097997
 30
0.0
 42
-0.049486
  0
VERTEX
  8
3
  6
CONTINUOUS
 62
   241
  5
7A9
 10
13161.21104
 20
3404.094139
 30
0.0
 42
-0.05709
  0
VERTEX
  8
3
  6
CONTINUOUS
 62
   241
  5
7AA
 10
13161.214417
 20
3404.089737
 30
0.0
 42
-0.064663
  0
VERTEX
  8
3
  6
CONTINUOUS
 62
   241
  5
7AB
 10
13161.216497
 20
3404.084961
 30
0.0
 42
-0.069642
  0
VERTEX
  8
3
  6
CONTINUOUS
 62
   241
  5
7AC
 10
13161.217199
 20
3404.079993
 30
0.0
 42
-0.069642
  0
SEQEND
  8
3
  6
CONTINUOUS
 62
   241
  5
7AD
  0
POLYLINE
  8
3
  6
CONTINUOUS
 62
   241
  5
7AE
 66
     1
 10
0.0
 20
0.0
 30
0.0
210
0.0
220
0.0
230
1.0
  0
VERTEX
  8
3
  6
CONTINUOUS
 62
   241
  5
7AF
 10
13161.217199
 20
3404.309832
 30
0.0
 42
0.105926
  0
VERTEX
  8
3
  6
CONTINUOUS
 62
   241
  5
7B0
 10
13161.216497
 20
3404.31299
 30
0.0
 42
0.082645
  0
VERTEX
  8
3
  6
CONTINUOUS
 62
   241
  5
7B1
 10
13161.214417
 20
3404.316026
 30
0.0
 42
0.058441
  0
VERTEX
  8
3
  6
CONTINUOUS
 62
   241
  5
7B2
 10
13161.21104
 20
3404.318824
 30
0.0
 42
0.042129
  0
VERTEX
  8
3
  6
CONTINUOUS
 62
   241
  5
7B3
 10
13161.206495
 20
3404.321277
 30
0.0
 42
0.032313
  0
VERTEX
  8
3
  6
CONTINUOUS
 62
   241
  5
7B4
 10
13161.200957
 20
3404.32329
 30
0.0
 42
0.026577
  0
VERTEX
  8
3
  6
CONTINUOUS
 62
   241
  5
7B5
 10
13161.194638
 20
3404.324786
 30
0.0
 42
0.023395
  0
VERTEX
  8
3
  6
CONTINUOUS
 62
   241
  5
7B6
 10
13161.187782
 20
3404.325707
 30
0.0
 42
0.021971
  0
VERTEX
  8
3
  6
CONTINUOUS
 62
   241
  5
7B7
 10
13161.180652
 20
3404.326018
 30
0.0
 42
0.021971
  0
VERTEX
  8
3
  6
CONTINUOUS
 62
   241
  5
7B8
 10
13161.173522
 20
3404.325707
 30
0.0
 42
0.023395
  0
VERTEX
  8
3
  6
CONTINUOUS
 62
   241
  5
7B9
 10
13161.166666
 20
3404.324786
 30
0.0
 42
0.026577
  0
VERTEX
  8
3
  6
CONTINUOUS
 62
   241
  5
7BA
 10
13161.160348
 20
3404.32329
 30
0.0
 42
0.032313
  0
VERTEX
  8
3
  6
CONTINUOUS
 62
   241
  5
7BB
 10
13161.15481
 20
3404.321277
 30
0.0
 42
0.042129
  0
VERTEX
  8
3
  6
CONTINUOUS
 62
   241
  5
7BC
 10
13161.150264
 20
3404.318824
 30
0.0
 42
0.058441
  0
VERTEX
  8
3
  6
CONTINUOUS
 62
   241
  5
7BD
 10
13161.146887
 20
3404.316026
 30
0.0
 42
0.082645
  0
VERTEX
  8
3
  6
CONTINUOUS
 62
   241
  5
7BE
 10
13161.144807
 20
3404.31299
 30
0.0
 42
0.105926
  0
VERTEX
  8
3
  6
CONTINUOUS
 62
   241
  5
7BF
 10
13161.144105
 20
3404.309832
 30
0.0
 42
0.105926
  0
SEQEND
  8
3
  6
CONTINUOUS
 62
   241
  5
7C0
  0
POLYLINE
  8
3
  6
CONTINUOUS
 62
   241
  5
7C1
 66
     1
 10
0.0
 20
0.0
 30
0.0
210
0.0
220
0.0
230
1.0
  0
VERTEX
  8
3
  6
CONTINUOUS
 62
   241
  5
7C2
 10
13161.144105
 20
3404.309832
 30
0.0
 42
0.069642
  0
VERTEX
  8
3
  6
CONTINUOUS
 62
   241
  5
7C3
 10
13161.144807
 20
3404.304865
 30
0.0
 42
0.064663
  0
VERTEX
  8
3
  6
CONTINUOUS
 62
   241
  5
7C4
 10
13161.146887
 20
3404.300088
 30
0.0
 42
0.05709
  0
VERTEX
  8
3
  6
CONTINUOUS
 62
   241
  5
7C5
 10
13161.150264
 20
3404.295686
 30
0.0
 42
0.049486
  0
VERTEX
  8
3
  6
CONTINUOUS
 62
   241
  5
7C6
 10
13161.15481
 20
3404.291828
 30
0.0
 42
0.043232
  0
VERTEX
  8
3
  6
CONTINUOUS
 62
   241
  5
7C7
 10
13161.160348
 20
3404.288662
 30
0.0
 42
0.038702
  0
VERTEX
  8
3
  6
CONTINUOUS
 62
   241
  5
7C8
 10
13161.166666
 20
3404.286309
 30
0.0
 42
0.035825
  0
VERTEX
  8
3
  6
CONTINUOUS
 62
   241
  5
7C9
 10
13161.173522
 20
3404.28486
 30
0.0
 42
0.034439
  0
VERTEX
  8
3
  6
CONTINUOUS
 62
   241
  5
7CA
 10
13161.180652
 20
3404.284371
 30
0.0
 42
0.034439
  0
VERTEX
  8
3
  6
CONTINUOUS
 62
   241
  5
7CB
 10
13161.187782
 20
3404.28486
 30
0.0
 42
0.035825
  0
VERTEX
  8
3
  6
CONTINUOUS
 62
   241
  5
7CC
 10
13161.194638
 20
3404.286309
 30
0.0
 42
0.038702
  0
VERTEX
  8
3
  6
CONTINUOUS
 62
   241
  5
7CD
 10
13161.200957
 20
3404.288662
 30
0.0
 42
0.043232
  0
VERTEX
  8
3
  6
CONTINUOUS
 62
   241
  5
7CE
 10
13161.206495
 20
3404.291828
 30
0.0
 42
0.049486
  0
VERTEX
  8
3
  6
CONTINUOUS
 62
   241
  5
7CF
 10
13161.21104
 20
3404.295686
 30
0.0
 42
0.05709
  0
VERTEX
  8
3
  6
CONTINUOUS
 62
   241
  5
7D0
 10
13161.214417
 20
3404.300088
 30
0.0
 42
0.064663
  0
VERTEX
  8
3
  6
CONTINUOUS
 62
   241
  5
7D1
 10
13161.216497
 20
3404.304865
 30
0.0
 42
0.069642
  0
VERTEX
  8
3
  6
CONTINUOUS
 62
   241
  5
7D2
 10
13161.217199
 20
3404.309832
 30
0.0
 42
0.069642
  0
SEQEND
  8
3
  6
CONTINUOUS
 62
   241
  5
7D3
  0
POLYLINE
  8
3
  6
CONTINUOUS
 62
   241
  5
7D4
 66
     1
 10
0.0
 20
0.0
 30
0.0
210
0.0
220
0.0
230
1.0
  0
VERTEX
  8
3
  6
CONTINUOUS
 62
   241
  5
7D5
 10
13161.144105
 20
3404.466937
 30
0.0
 42
0.107797
  0
VERTEX
  8
3
  6
CONTINUOUS
 62
   241
  5
7D6
 10
13161.144807
 20
3404.463841
 30
0.0
 42
0.083254
  0
VERTEX
  8
3
  6
CONTINUOUS
 62
   241
  5
7D7
 10
13161.146887
 20
3404.460864
 30
0.0
 42
0.058242
  0
VERTEX
  8
3
  6
CONTINUOUS
 62
   241
  5
7D8
 10
13161.150264
 20
3404.45812
 30
0.0
 42
0.041681
  0
VERTEX
  8
3
  6
CONTINUOUS
 62
   241
  5
7D9
 10
13161.15481
 20
3404.455715
 30
0.0
 42
0.03183
  0
VERTEX
  8
3
  6
CONTINUOUS
 62
   241
  5
7DA
 10
13161.160348
 20
3404.453741
 30
0.0
 42
0.026114
  0
VERTEX
  8
3
  6
CONTINUOUS
 62
   241
  5
7DB
 10
13161.166666
 20
3404.452275
 30
0.0
 42
0.022956
  0
VERTEX
  8
3
  6
CONTINUOUS
 62
   241
  5
7DC
 10
13161.173522
 20
3404.451372
 30
0.0
 42
0.021545
  0
VERTEX
  8
3
  6
CONTINUOUS
 62
   241
  5
7DD
 10
13161.180652
 20
3404.451067
 30
0.0
 42
0.021545
  0
VERTEX
  8
3
  6
CONTINUOUS
 62
   241
  5
7DE
 10
13161.187782
 20
3404.451372
 30
0.0
 42
0.022956
  0
VERTEX
  8
3
  6
CONTINUOUS
 62
   241
  5
7DF
 10
13161.194638
 20
3404.452275
 30
0.0
 42
0.026114
  0
VERTEX
  8
3
  6
CONTINUOUS
 62
   241
  5
7E0
 10
13161.200957
 20
3404.453741
 30
0.0
 42
0.03183
  0
VERTEX
  8
3
  6
CONTINUOUS
 62
   241
  5
7E1
 10
13161.206495
 20
3404.455715
 30
0.0
 42
0.041681
  0
VERTEX
  8
3
  6
CONTINUOUS
 62
   241
  5
7E2
 10
13161.21104
 20
3404.45812
 30
0.0
 42
0.058242
  0
VERTEX
  8
3
  6
CONTINUOUS
 62
   241
  5
7E3
 10
13161.214417
 20
3404.460864
 30
0.0
 42
0.083254
  0
VERTEX
  8
3
  6
CONTINUOUS
 62
   241
  5
7E4
 10
13161.216497
 20
3404.463841
 30
0.0
 42
0.107797
  0
VERTEX
  8
3
  6
CONTINUOUS
 62
   241
  5
7E5
 10
13161.217199
 20
3404.466937
 30
0.0
 42
0.107797
  0
SEQEND
  8
3
  6
CONTINUOUS
 62
   241
  5
7E6
  0
POLYLINE
  8
3
  6
CONTINUOUS
 62
   241
  5
7E7
 66
     1
 10
0.0
 20
0.0
 30
0.0
210
0.0
220
0.0
230
1.0
  0
VERTEX
  8
3
  6
CONTINUOUS
 62
   241
  5
7E8
 10
13161.217199
 20
3403.922888
 30
0.0
 42
-0.071267
  0
VERTEX
  8
3
  6
CONTINUOUS
 62
   241
  5
7E9
 10
13161.216497
 20
3403.91804
 30
0.0
 42
-0.065729
  0
VERTEX
  8
3
  6
CONTINUOUS
 62
   241
  5
7EA
 10
13161.214417
 20
3403.913378
 30
0.0
 42
-0.057443
  0
VERTEX
  8
3
  6
CONTINUOUS
 62
   241
  5
7EB
 10
13161.21104
 20
3403.909081
 30
0.0
 42
-0.049287
  0
VERTEX
  8
3
  6
CONTINUOUS
 62
   241
  5
7EC
 10
13161.206495
 20
3403.905315
 30
0.0
 42
-0.042701
  0
VERTEX
  8
3
  6
CONTINUOUS
 62
   241
  5
7ED
 10
13161.200957
 20
3403.902225
 30
0.0
 42
-0.037998
  0
VERTEX
  8
3
  6
CONTINUOUS
 62
   241
  5
7EE
 10
13161.194638
 20
3403.899928
 30
0.0
 42
-0.03504
  0
VERTEX
  8
3
  6
CONTINUOUS
 62
   241
  5
7EF
 10
13161.187782
 20
3403.898514
 30
0.0
 42
-0.033623
  0
VERTEX
  8
3
  6
CONTINUOUS
 62
   241
  5
7F0
 10
13161.180652
 20
3403.898037
 30
0.0
 42
-0.033623
  0
VERTEX
  8
3
  6
CONTINUOUS
 62
   241
  5
7F1
 10
13161.173522
 20
3403.898514
 30
0.0
 42
-0.03504
  0
VERTEX
  8
3
  6
CONTINUOUS
 62
   241
  5
7F2
 10
13161.166666
 20
3403.899928
 30
0.0
 42
-0.037998
  0
VERTEX
  8
3
  6
CONTINUOUS
 62
   241
  5
7F3
 10
13161.160348
 20
3403.902225
 30
0.0
 42
-0.042701
  0
VERTEX
  8
3
  6
CONTINUOUS
 62
   241
  5
7F4
 10
13161.15481
 20
3403.905315
 30
0.0
 42
-0.049287
  0
VERTEX
  8
3
  6
CONTINUOUS
 62
   241
  5
7F5
 10
13161.150264
 20
3403.909081
 30
0.0
 42
-0.057443
  0
VERTEX
  8
3
  6
CONTINUOUS
 62
   241
  5
7F6
 10
13161.146887
 20
3403.913378
 30
0.0
 42
-0.065729
  0
VERTEX
  8
3
  6
CONTINUOUS
 62
   241
  5
7F7
 10
13161.144807
 20
3403.91804
 30
0.0
 42
-0.071267
  0
VERTEX
  8
3
  6
CONTINUOUS
 62
   241
  5
7F8
 10
13161.144105
 20
3403.922888
 30
0.0
 42
-0.071267
  0
SEQEND
  8
3
  6
CONTINUOUS
 62
   241
  5
7F9
  0
POLYLINE
  8
3
  6
CONTINUOUS
 62
   241
  5
7FA
 66
     1
 10
0.0
 20
0.0
 30
0.0
210
0.0
220
0.0
230
1.0
  0
VERTEX
  8
3
  6
CONTINUOUS
 62
   241
  5
7FB
 10
13161.649437
 20
3404.079993
 30
0.0
 42
-0.105926
  0
VERTEX
  8
3
  6
CONTINUOUS
 62
   241
  5
7FC
 10
13161.648734
 20
3404.076836
 30
0.0
 42
-0.082645
  0
VERTEX
  8
3
  6
CONTINUOUS
 62
   241
  5
7FD
 10
13161.646655
 20
3404.073799
 30
0.0
 42
-0.058441
  0
VERTEX
  8
3
  6
CONTINUOUS
 62
   241
  5
7FE
 10
13161.643277
 20
3404.071001
 30
0.0
 42
-0.042129
  0
VERTEX
  8
3
  6
CONTINUOUS
 62
   241
  5
7FF
 10
13161.638732
 20
3404.068548
 30
0.0
 42
-0.032313
  0
VERTEX
  8
3
  6
CONTINUOUS
 62
   241
  5
800
 10
13161.633194
 20
3404.066535
 30
0.0
 42
-0.026577
  0
VERTEX
  8
3
  6
CONTINUOUS
 62
   241
  5
801
 10
13161.626876
 20
3404.065039
 30
0.0
 42
-0.023395
  0
VERTEX
  8
3
  6
CONTINUOUS
 62
   241
  5
802
 10
13161.62002
 20
3404.064118
 30
0.0
 42
-0.021971
  0
VERTEX
  8
3
  6
CONTINUOUS
 62
   241
  5
803
 10
13161.61289
 20
3404.063807
 30
0.0
 42
-0.021971
  0
VERTEX
  8
3
  6
CONTINUOUS
 62
   241
  5
804
 10
13161.60576
 20
3404.064118
 30
0.0
 42
-0.023395
  0
VERTEX
  8
3
  6
CONTINUOUS
 62
   241
  5
805
 10
13161.598904
 20
3404.065039
 30
0.0
 42
-0.026577
  0
VERTEX
  8
3
  6
CONTINUOUS
 62
   241
  5
806
 10
13161.592585
 20
3404.066535
 30
0.0
 42
-0.032313
  0
VERTEX
  8
3
  6
CONTINUOUS
 62
   241
  5
807
 10
13161.587047
 20
3404.068548
 30
0.0
 42
-0.042129
  0
VERTEX
  8
3
  6
CONTINUOUS
 62
   241
  5
808
 10
13161.582502
 20
3404.071001
 30
0.0
 42
-0.058441
  0
VERTEX
  8
3
  6
CONTINUOUS
 62
   241
  5
809
 10
13161.579125
 20
3404.073799
 30
0.0
 42
-0.082645
  0
VERTEX
  8
3
  6
CONTINUOUS
 62
   241
  5
80A
 10
13161.577045
 20
3404.076836
 30
0.0
 42
-0.105926
  0
VERTEX
  8
3
  6
CONTINUOUS
 62
   241
  5
80B
 10
13161.576343
 20
3404.079993
 30
0.0
 42
-0.105926
  0
SEQEND
  8
3
  6
CONTINUOUS
 62
   241
  5
80C
  0
POLYLINE
  8
3
  6
CONTINUOUS
 62
   241
  5
80D
 66
     1
 10
0.0
 20
0.0
 30
0.0
210
0.0
220
0.0
230
1.0
  0
VERTEX
  8
3
  6
CONTINUOUS
 62
   241
  5
80E
 10
13161.649437
 20
3404.309832
 30
0.0
 42
0.105926
  0
VERTEX
  8
3
  6
CONTINUOUS
 62
   241
  5
80F
 10
13161.648734
 20
3404.31299
 30
0.0
 42
0.082645
  0
VERTEX
  8
3
  6
CONTINUOUS
 62
   241
  5
810
 10
13161.646655
 20
3404.316026
 30
0.0
 42
0.058441
  0
VERTEX
  8
3
  6
CONTINUOUS
 62
   241
  5
811
 10
13161.643277
 20
3404.318824
 30
0.0
 42
0.042129
  0
VERTEX
  8
3
  6
CONTINUOUS
 62
   241
  5
812
 10
13161.638732
 20
3404.321277
 30
0.0
 42
0.032313
  0
VERTEX
  8
3
  6
CONTINUOUS
 62
   241
  5
813
 10
13161.633194
 20
3404.32329
 30
0.0
 42
0.026577
  0
VERTEX
  8
3
  6
CONTINUOUS
 62
   241
  5
814
 10
13161.626876
 20
3404.324786
 30
0.0
 42
0.023395
  0
VERTEX
  8
3
  6
CONTINUOUS
 62
   241
  5
815
 10
13161.62002
 20
3404.325707
 30
0.0
 42
0.021971
  0
VERTEX
  8
3
  6
CONTINUOUS
 62
   241
  5
816
 10
13161.61289
 20
3404.326018
 30
0.0
 42
0.021971
  0
VERTEX
  8
3
  6
CONTINUOUS
 62
   241
  5
817
 10
13161.60576
 20
3404.325707
 30
0.0
 42
0.023395
  0
VERTEX
  8
3
  6
CONTINUOUS
 62
   241
  5
818
 10
13161.598904
 20
3404.324786
 30
0.0
 42
0.026577
  0
VERTEX
  8
3
  6
CONTINUOUS
 62
   241
  5
819
 10
13161.592585
 20
3404.32329
 30
0.0
 42
0.032313
  0
VERTEX
  8
3
  6
CONTINUOUS
 62
   241
  5
81A
 10
13161.587047
 20
3404.321277
 30
0.0
 42
0.042129
  0
VERTEX
  8
3
  6
CONTINUOUS
 62
   241
  5
81B
 10
13161.582502
 20
3404.318824
 30
0.0
 42
0.058441
  0
VERTEX
  8
3
  6
CONTINUOUS
 62
   241
  5
81C
 10
13161.579125
 20
3404.316026
 30
0.0
 42
0.082645
  0
VERTEX
  8
3
  6
CONTINUOUS
 62
   241
  5
81D
 10
13161.577045
 20
3404.31299
 30
0.0
 42
0.105926
  0
VERTEX
  8
3
  6
CONTINUOUS
 62
   241
  5
81E
 10
13161.576343
 20
3404.309832
 30
0.0
 42
0.105926
  0
SEQEND
  8
3
  6
CONTINUOUS
 62
   241
  5
81F
  0
POLYLINE
  8
3
  6
CONTINUOUS
 62
   241
  5
820
 66
     1
 10
0.0
 20
0.0
 30
0.0
210
0.0
220
0.0
230
1.0
  0
VERTEX
  8
3
  6
CONTINUOUS
 62
   241
  5
821
 10
13161.576343
 20
3404.309832
 30
0.0
 42
0.069642
  0
VERTEX
  8
3
  6
CONTINUOUS
 62
   241
  5
822
 10
13161.577045
 20
3404.304865
 30
0.0
 42
0.064663
  0
VERTEX
  8
3
  6
CONTINUOUS
 62
   241
  5
823
 10
13161.579125
 20
3404.300088
 30
0.0
 42
0.05709
  0
VERTEX
  8
3
  6
CONTINUOUS
 62
   241
  5
824
 10
13161.582502
 20
3404.295686
 30
0.0
 42
0.049486
  0
VERTEX
  8
3
  6
CONTINUOUS
 62
   241
  5
825
 10
13161.587047
 20
3404.291828
 30
0.0
 42
0.043232
  0
VERTEX
  8
3
  6
CONTINUOUS
 62
   241
  5
826
 10
13161.592585
 20
3404.288662
 30
0.0
 42
0.038702
  0
VERTEX
  8
3
  6
CONTINUOUS
 62
   241
  5
827
 10
13161.598904
 20
3404.286309
 30
0.0
 42
0.035825
  0
VERTEX
  8
3
  6
CONTINUOUS
 62
   241
  5
828
 10
13161.60576
 20
3404.28486
 30
0.0
 42
0.034439
  0
VERTEX
  8
3
  6
CONTINUOUS
 62
   241
  5
829
 10
13161.61289
 20
3404.284371
 30
0.0
 42
0.034439
  0
VERTEX
  8
3
  6
CONTINUOUS
 62
   241
  5
82A
 10
13161.62002
 20
3404.28486
 30
0.0
 42
0.035825
  0
VERTEX
  8
3
  6
CONTINUOUS
 62
   241
  5
82B
 10
13161.626876
 20
3404.286309
 30
0.0
 42
0.038702
  0
VERTEX
  8
3
  6
CONTINUOUS
 62
   241
  5
82C
 10
13161.633194
 20
3404.288662
 30
0.0
 42
0.043232
  0
VERTEX
  8
3
  6
CONTINUOUS
 62
   241
  5
82D
 10
13161.638732
 20
3404.291828
 30
0.0
 42
0.049486
  0
VERTEX
  8
3
  6
CONTINUOUS
 62
   241
  5
82E
 10
13161.643277
 20
3404.295686
 30
0.0
 42
0.05709
  0
VERTEX
  8
3
  6
CONTINUOUS
 62
   241
  5
82F
 10
13161.646655
 20
3404.300088
 30
0.0
 42
0.064663
  0
VERTEX
  8
3
  6
CONTINUOUS
 62
   241
  5
830
 10
13161.648734
 20
3404.304865
 30
0.0
 42
0.069642
  0
VERTEX
  8
3
  6
CONTINUOUS
 62
   241
  5
831
 10
13161.649437
 20
3404.309832
 30
0.0
 42
0.069642
  0
SEQEND
  8
3
  6
CONTINUOUS
 62
   241
  5
832
  0
POLYLINE
  8
3
  6
CONTINUOUS
 62
   241
  5
833
 66
     1
 10
0.0
 20
0.0
 30
0.0
210
0.0
220
0.0
230
1.0
  0
VERTEX
  8
3
  6
CONTINUOUS
 62
   241
  5
834
 10
13161.649437
 20
3404.466937
 30
0.0
 42
0.071267
  0
VERTEX
  8
3
  6
CONTINUOUS
 62
   241
  5
835
 10
13161.648734
 20
3404.471786
 30
0.0
 42
0.065729
  0
VERTEX
  8
3
  6
CONTINUOUS
 62
   241
  5
836
 10
13161.646655
 20
3404.476448
 30
0.0
 42
0.057443
  0
VERTEX
  8
3
  6
CONTINUOUS
 62
   241
  5
837
 10
13161.643277
 20
3404.480744
 30
0.0
 42
0.049287
  0
VERTEX
  8
3
  6
CONTINUOUS
 62
   241
  5
838
 10
13161.638732
 20
3404.48451
 30
0.0
 42
0.042701
  0
VERTEX
  8
3
  6
CONTINUOUS
 62
   241
  5
839
 10
13161.633194
 20
3404.4876
 30
0.0
 42
0.037998
  0
VERTEX
  8
3
  6
CONTINUOUS
 62
   241
  5
83A
 10
13161.626876
 20
3404.489897
 30
0.0
 42
0.03504
  0
VERTEX
  8
3
  6
CONTINUOUS
 62
   241
  5
83B
 10
13161.62002
 20
3404.491311
 30
0.0
 42
0.033623
  0
VERTEX
  8
3
  6
CONTINUOUS
 62
   241
  5
83C
 10
13161.61289
 20
3404.491789
 30
0.0
 42
0.033623
  0
VERTEX
  8
3
  6
CONTINUOUS
 62
   241
  5
83D
 10
13161.60576
 20
3404.491311
 30
0.0
 42
0.03504
  0
VERTEX
  8
3
  6
CONTINUOUS
 62
   241
  5
83E
 10
13161.598904
 20
3404.489897
 30
0.0
 42
0.037998
  0
VERTEX
  8
3
  6
CONTINUOUS
 62
   241
  5
83F
 10
13161.592585
 20
3404.4876
 30
0.0
 42
0.042701
  0
VERTEX
  8
3
  6
CONTINUOUS
 62
   241
  5
840
 10
13161.587047
 20
3404.48451
 30
0.0
 42
0.049287
  0
VERTEX
  8
3
  6
CONTINUOUS
 62
   241
  5
841
 10
13161.582502
 20
3404.480744
 30
0.0
 42
0.057443
  0
VERTEX
  8
3
  6
CONTINUOUS
 62
   241
  5
842
 10
13161.579125
 20
3404.476448
 30
0.0
 42
0.065729
  0
VERTEX
  8
3
  6
CONTINUOUS
 62
   241
  5
843
 10
13161.577045
 20
3404.471786
 30
0.0
 42
0.071267
  0
VERTEX
  8
3
  6
CONTINUOUS
 62
   241
  5
844
 10
13161.576343
 20
3404.466937
 30
0.0
 42
0.071267
  0
SEQEND
  8
3
  6
CONTINUOUS
 62
   241
  5
845
  0
POLYLINE
  8
3
  6
CONTINUOUS
 62
   241
  5
846
 66
     1
 10
0.0
 20
0.0
 30
0.0
210
0.0
220
0.0
230
1.0
  0
VERTEX
  8
3
  6
CONTINUOUS
 62
   241
  5
847
 10
13161.576343
 20
3403.922888
 30
0.0
 42
-0.107797
  0
VERTEX
  8
3
  6
CONTINUOUS
 62
   241
  5
848
 10
13161.577045
 20
3403.925984
 30
0.0
 42
-0.083254
  0
VERTEX
  8
3
  6
CONTINUOUS
 62
   241
  5
849
 10
13161.579125
 20
3403.928961
 30
0.0
 42
-0.058242
  0
VERTEX
  8
3
  6
CONTINUOUS
 62
   241
  5
84A
 10
13161.582502
 20
3403.931705
 30
0.0
 42
-0.041681
  0
VERTEX
  8
3
  6
CONTINUOUS
 62
   241
  5
84B
 10
13161.587047
 20
3403.93411
 30
0.0
 42
-0.03183
  0
VERTEX
  8
3
  6
CONTINUOUS
 62
   241
  5
84C
 10
13161.592585
 20
3403.936084
 30
0.0
 42
-0.026114
  0
VERTEX
  8
3
  6
CONTINUOUS
 62
   241
  5
84D
 10
13161.598904
 20
3403.93755
 30
0.0
 42
-0.022956
  0
VERTEX
  8
3
  6
CONTINUOUS
 62
   241
  5
84E
 10
13161.60576
 20
3403.938454
 30
0.0
 42
-0.021545
  0
VERTEX
  8
3
  6
CONTINUOUS
 62
   241
  5
84F
 10
13161.61289
 20
3403.938759
 30
0.0
 42
-0.021545
  0
VERTEX
  8
3
  6
CONTINUOUS
 62
   241
  5
850
 10
13161.62002
 20
3403.938454
 30
0.0
 42
-0.022956
  0
VERTEX
  8
3
  6
CONTINUOUS
 62
   241
  5
851
 10
13161.626876
 20
3403.93755
 30
0.0
 42
-0.026114
  0
VERTEX
  8
3
  6
CONTINUOUS
 62
   241
  5
852
 10
13161.633194
 20
3403.936084
 30
0.0
 42
-0.03183
  0
VERTEX
  8
3
  6
CONTINUOUS
 62
   241
  5
853
 10
13161.638732
 20
3403.93411
 30
0.0
 42
-0.041681
  0
VERTEX
  8
3
  6
CONTINUOUS
 62
   241
  5
854
 10
13161.643277
 20
3403.931705
 30
0.0
 42
-0.058242
  0
VERTEX
  8
3
  6
CONTINUOUS
 62
   241
  5
855
 10
13161.646655
 20
3403.928961
 30
0.0
 42
-0.083254
  0
VERTEX
  8
3
  6
CONTINUOUS
 62
   241
  5
856
 10
13161.648734
 20
3403.925984
 30
0.0
 42
-0.107797
  0
VERTEX
  8
3
  6
CONTINUOUS
 62
   241
  5
857
 10
13161.649437
 20
3403.922888
 30
0.0
 42
-0.107797
  0
SEQEND
  8
3
  6
CONTINUOUS
 62
   241
  5
858
  0
POLYLINE
  8
3
  6
CONTINUOUS
 62
   241
  5
859
 66
     1
 10
0.0
 20
0.0
 30
0.0
210
0.0
220
0.0
230
1.0
  0
VERTEX
  8
3
  6
CONTINUOUS
 62
   241
  5
85A
 10
13161.576343
 20
3404.079993
 30
0.0
 42
-0.069642
  0
VERTEX
  8
3
  6
CONTINUOUS
 62
   241
  5
85B
 10
13161.577045
 20
3404.084961
 30
0.0
 42
-0.064663
  0
VERTEX
  8
3
  6
CONTINUOUS
 62
   241
  5
85C
 10
13161.579125
 20
3404.089737
 30
0.0
 42
-0.05709
  0
VERTEX
  8
3
  6
CONTINUOUS
 62
   241
  5
85D
 10
13161.582502
 20
3404.094139
 30
0.0
 42
-0.049486
  0
VERTEX
  8
3
  6
CONTINUOUS
 62
   241
  5
85E
 10
13161.587047
 20
3404.097997
 30
0.0
 42
-0.043232
  0
VERTEX
  8
3
  6
CONTINUOUS
 62
   241
  5
85F
 10
13161.592585
 20
3404.101164
 30
0.0
 42
-0.038702
  0
VERTEX
  8
3
  6
CONTINUOUS
 62
   241
  5
860
 10
13161.598904
 20
3404.103517
 30
0.0
 42
-0.035825
  0
VERTEX
  8
3
  6
CONTINUOUS
 62
   241
  5
861
 10
13161.60576
 20
3404.104966
 30
0.0
 42
-0.034439
  0
VERTEX
  8
3
  6
CONTINUOUS
 62
   241
  5
862
 10
13161.61289
 20
3404.105455
 30
0.0
 42
-0.034439
  0
VERTEX
  8
3
  6
CONTINUOUS
 62
   241
  5
863
 10
13161.62002
 20
3404.104966
 30
0.0
 42
-0.035825
  0
VERTEX
  8
3
  6
CONTINUOUS
 62
   241
  5
864
 10
13161.626876
 20
3404.103517
 30
0.0
 42
-0.038702
  0
VERTEX
  8
3
  6
CONTINUOUS
 62
   241
  5
865
 10
13161.633194
 20
3404.101164
 30
0.0
 42
-0.043232
  0
VERTEX
  8
3
  6
CONTINUOUS
 62
   241
  5
866
 10
13161.638732
 20
3404.097997
 30
0.0
 42
-0.049486
  0
VERTEX
  8
3
  6
CONTINUOUS
 62
   241
  5
867
 10
13161.643277
 20
3404.094139
 30
0.0
 42
-0.05709
  0
VERTEX
  8
3
  6
CONTINUOUS
 62
   241
  5
868
 10
13161.646655
 20
3404.089737
 30
0.0
 42
-0.064663
  0
VERTEX
  8
3
  6
CONTINUOUS
 62
   241
  5
869
 10
13161.648734
 20
3404.084961
 30
0.0
 42
-0.069642
  0
VERTEX
  8
3
  6
CONTINUOUS
 62
   241
  5
86A
 10
13161.649437
 20
3404.079993
 30
0.0
 42
-0.069642
  0
SEQEND
  8
3
  6
CONTINUOUS
 62
   241
  5
86B
  0
LINE
  8
3
  6
CONTINUOUS
 62
   241
  5
86C
 10
13157.38975
 20
3403.675333
 30
0.0
 11
13163.221417
 21
3403.675333
 31
0.0
  0
LINE
  8
3
  6
CONTINUOUS
 62
   241
  5
86D
 10
13157.38975
 20
3403.37
 30
0.0
 11
13163.223917
 21
3403.37
 31
0.0
  0
LINE
  8
3
  6
CONTINUOUS
 62
   241
  5
86E
 10
13161.400417
 20
3409.27875
 30
0.0
 11
13161.400417
 21
3410.6975
 31
0.0
  0
LINE
  8
3
  6
CONTINUOUS
 62
   241
  5
86F
 10
13161.083667
 20
3408.316667
 30
0.0
 11
13161.083667
 21
3408.482083
 31
0.0
  0
LINE
  8
3
  6
DASHED
 62
   241
  5
870
 10
13168.715333
 20
3408.31375
 30
0.0
 11
13168.715333
 21
3408.483333
 31
0.0
  0
LINE
  8
3
  6
DASHED
 62
   241
  5
871
 10
13169.325833
 20
3408.31375
 30
0.0
 11
13169.325833
 21
3408.483333
 31
0.0
  0
LINE
  8
3
  6
CONTINUOUS
 62
   241
  5
872
 10
13151.68
 20
3403.23025
 30
0.0
 11
13156.923333
 21
3403.23025
 31
0.0
  0
LINE
  8
3
  6
DASHED
 62
   241
  5
873
 10
13161.694
 20
3408.336833
 30
0.0
 11
13156.632917
 21
3408.336833
 31
0.0
  0
LINE
  8
3
  6
CONTINUOUS
 62
   241
  5
874
 10
13156.933
 20
3404.698417
 30
0.0
 11
13156.933
 21
3405.359583
 31
0.0
  0
LINE
  8
3
  6
CONTINUOUS
 62
   241
  5
875
 10
13154.490083
 20
3403.279083
 30
0.0
 11
13154.490083
 21
3402.331083
 31
0.0
  0
LINE
  8
3
  6
CONTINUOUS
 62
   241
  5
876
 10
13152.773333
 20
3404.378667
 30
0.0
 11
13152.773333
 21
3405.359583
 31
0.0
  0
LINE
  8
3
  6
CONTINUOUS
 62
   241
  5
877
 10
13154.490083
 20
3402.641333
 30
0.0
 11
13156.931833
 21
3402.641333
 31
0.0
  0
LINE
  8
3
  6
CONTINUOUS
 62
   241
  5
878
 10
13156.931167
 20
3405.18925
 30
0.0
 11
13152.773333
 21
3405.18925
 31
0.0
  0
LINE
  8
3
  6
CONTINUOUS
 62
   241
  5
879
 10
13151.6715
 20
3409.196417
 30
0.0
 11
13152.624417
 21
3409.196417
 31
0.0
  0
LINE
  8
3
  6
CONTINUOUS
 62
   241
  5
87A
 10
13152.624417
 20
3409.196417
 30
0.0
 11
13156.931833
 21
3409.196417
 31
0.0
  0
LINE
  8
3
  6
CONTINUOUS
 62
   241
  5
87B
 10
13151.6715
 20
3408.891083
 30
0.0
 11
13152.677417
 21
3408.891083
 31
0.0
  0
LINE
  8
3
  6
CONTINUOUS
 62
   241
  5
87C
 10
13152.677417
 20
3408.891083
 30
0.0
 11
13156.931833
 21
3408.891083
 31
0.0
  0
LINE
  8
3
  6
CONTINUOUS
 62
   241
  5
87D
 10
13153.298417
 20
3408.244667
 30
0.0
 11
13153.298417
 21
3406.989
 31
0.0
  0
LINE
  8
3
  6
DASHED
 62
   241
  5
87E
 10
13152.771
 20
3408.875333
 30
0.0
 11
13152.771
 21
3409.196417
 31
0.0
  0
LINE
  8
3
  6
CONTINUOUS
 62
   241
  5
87F
 10
13152.97975
 20
3404.192167
 30
0.0
 11
13152.402583
 21
3404.192167
 31
0.0
  0
LINE
  8
3
  6
CONTINUOUS
 62
   140
  5
880
 10
13153.298417
 20
3404.5025
 30
0.0
 11
13153.298417
 21
3403.890833
 31
0.0
  0
LINE
  8
3
  6
CONTINUOUS
 62
   241
  5
881
 10
13150.847667
 20
3410.782417
 30
0.0
 11
13154.482833
 21
3410.782417
 31
0.0
  0
LINE
  8
3
  6
CONTINUOUS
 62
   241
  5
882
 10
13154.482833
 20
3410.782417
 30
0.0
 11
13153.230083
 21
3409.229333
 31
0.0
  0
LINE
  8
3
  6
CONTINUOUS
 62
   241
  5
883
 10
13158.205917
 20
3408.781833
 30
0.0
 11
13158.205917
 21
3409.023917
 31
0.0
  0
LINE
  8
3
  6
CONTINUOUS
 62
   241
  5
884
 10
13158.205917
 20
3408.361833
 30
0.0
 11
13158.205917
 21
3408.616333
 31
0.0
  0
LINE
  8
3
  6
CONTINUOUS
 62
   241
  5
885
 10
13157.37075
 20
3408.355667
 30
0.0
 11
13157.37075
 21
3408.565167
 31
0.0
  0
LINE
  8
3
  6
CONTINUOUS
 62
   241
  5
886
 10
13157.661417
 20
3404.238917
 30
0.0
 11
13158.12
 21
3405.670167
 31
0.0
  0
TEXT
  8
3
  6
CONTINUOUS
 62
   241
  5
887
 10
13173.469917
 20
3411.187667
 30
0.0
 40
0.175833
  1
6.
  7
txt
 11
13173.469917
 21
3411.275583
 31
0.0
210
0.0
220
0.0
230
1.0
 73
     2
  0
TEXT
  8
3
  6
CONTINUOUS
 62
   241
  5
888
 10
13173.469917
 20
3409.548333
 30
0.0
 40
0.175833
  1
7.
  7
txt
 11
13173.469917
 21
3409.63625
 31
0.0
210
0.0
220
0.0
230
1.0
 73
     2
  0
LINE
  8
3
  6
CONTINUOUS
 62
   241
  5
889
 10
13153.70675
 20
3400.818
 30
0.0
 11
13156.428083
 21
3400.818
 31
0.0
  0
LINE
  8
3
  6
CONTINUOUS
 62
   241
  5
88A
 10
13155.941083
 20
3407.9215
 30
0.0
 11
13156.147333
 21
3407.9215
 31
0.0
  0
LINE
  8
3
  6
CONTINUOUS
 62
   241
  5
88B
 10
13156.147333
 20
3407.9215
 30
0.0
 11
13156.569917
 21
3408.504583
 31
0.0
  0
TEXT
  8
3
  6
CONTINUOUS
 62
   241
  5
88C
 10
13154.46925
 20
3407.834
 30
0.0
 40
0.195333
  1
See Note 6
  7
txt
 11
13154.46925
 21
3407.931667
 31
0.0
210
0.0
220
0.0
230
1.0
 73
     2
  0
LINE
  8
3
  6
CONTINUOUS
 62
   241
  5
88D
 10
13154.20125
 20
3415.692583
 30
0.0
 11
13154.20125
 21
3416.7985
 31
0.0
  0
LINE
  8
3
  6
CONTINUOUS
 62
   241
  5
88E
 10
13153.711333
 20
3414.082667
 30
0.0
 11
13153.0965
 21
3415.771083
 31
0.0
  0
LINE
  8
3
  6
CONTINUOUS
 62
   241
  5
88F
 10
13156.641167
 20
3410.58025
 30
0.0
 11
13161.400417
 21
3410.58025
 31
0.0
  0
LINE
  8
3
  6
CONTINUOUS
 62
   241
  5
890
 10
13161.400417
 20
3410.580917
 30
0.0
 11
13169.031917
 21
3410.580917
 31
0.0
  0
LINE
  8
3
  6
CONTINUOUS
 62
   241
  5
891
 10
13159.236917
 20
3408.780667
 30
0.0
 11
13159.236917
 21
3409.010417
 31
0.0
  0
LINE
  8
3
  6
CONTINUOUS
 62
   241
  5
892
 10
13159.236917
 20
3408.379417
 30
0.0
 11
13159.236917
 21
3408.679167
 31
0.0
  0
LINE
  8
3
  6
CONTINUOUS
 62
   241
  5
893
 10
13157.37075
 20
3409.001333
 30
0.0
 11
13157.37075
 21
3408.780667
 31
0.0
  0
TEXT
  8
3
  6
CONTINUOUS
 62
   241
  5
894
 10
13173.857667
 20
3415.575417
 30
0.0
 40
0.175833
  1
Bridge rail ends and bridge parapets must
  7
txt
 11
13173.857667
 21
3415.663333
 31
0.0
210
0.0
220
0.0
230
1.0
 73
     2
  0
TEXT
  8
3
  6
CONTINUOUS
 62
   241
  5
895
 10
13173.857667
 20
3415.30275
 30
0.0
 40
0.175833
  1
be of adequate strength to accept full impact
  7
txt
 11
13173.857667
 21
3415.390667
 31
0.0
210
0.0
220
0.0
230
1.0
 73
     2
  0
TEXT
  8
3
  6
CONTINUOUS
 62
   241
  5
896
 10
13173.857667
 20
3415.017167
 30
0.0
 40
0.175833
  1
loading.
  7
txt
 11
13173.857667
 21
3415.105083
 31
0.0
210
0.0
220
0.0
230
1.0
 73
     2
  0
TEXT
  8
3
  6
CONTINUOUS
 62
   241
  5
897
 10
13173.489833
 20
3416.43575
 30
0.0
 40
0.175833
  1
1.
  7
txt
 11
13173.489833
 21
3416.523667
 31
0.0
210
0.0
220
0.0
230
1.0
 73
     2
  0
TEXT
  8
3
  6
CONTINUOUS
 62
   241
  5
898
 10
13173.489833
 20
3415.575417
 30
0.0
 40
0.175833
  1
2.
  7
txt
 11
13173.489833
 21
3415.663333
 31
0.0
210
0.0
220
0.0
230
1.0
 73
     2
  0
TEXT
  8
3
  6
CONTINUOUS
 62
   241
  5
899
 10
13173.489833
 20
3414.432833
 30
0.0
 40
0.175833
  1
3.
  7
txt
 11
13173.489833
 21
3414.52075
 31
0.0
210
0.0
220
0.0
230
1.0
 73
     2
  0
TEXT
  8
3
  6
CONTINUOUS
 62
   241
  5
89A
 10
13173.469917
 20
3413.559167
 30
0.0
 40
0.175833
  1
4.
  7
txt
 11
13173.469917
 21
3413.647083
 31
0.0
210
0.0
220
0.0
230
1.0
 73
     2
  0
TEXT
  8
3
  6
CONTINUOUS
 62
   241
  5
89B
 10
13173.469917
 20
3412.061333
 30
0.0
 40
0.175833
  1
5.
  7
txt
 11
13173.469917
 21
3412.14925
 31
0.0
210
0.0
220
0.0
230
1.0
 73
     2
  0
LINE
  8
3
  6
CONTINUOUS
 62
   241
  5
89C
 10
13160.542917
 20
3415.028667
 30
0.0
 11
13163.331083
 21
3415.308083
 31
0.0
  0
LINE
  8
3
  6
CONTINUOUS
 62
   241
  5
89D
 10
13165.74975
 20
3415.732583
 30
0.0
 11
13164.10125
 21
3415.5675
 31
0.0
  0
TEXT
  8
3
  6
CONTINUOUS
 62
   241
  5
89E
 10
13173.83775
 20
3413.559167
 30
0.0
 40
0.175833
  1
Rubrail  wood blocks located on posts 1
  7
txt
 11
13173.83775
 21
3413.647083
 31
0.0
210
0.0
220
0.0
230
1.0
 73
     2
  0
LINE
  8
3
  6
CONTINUOUS
 62
   241
  5
89F
 10
13161.694
 20
3408.258083
 30
0.0
 11
13161.694
 21
3406.976083
 31
0.0
  0
LINE
  8
3
  6
DASHED
 62
   241
  5
8A0
 10
13161.694
 20
3408.483333
 30
0.0
 11
13161.694
 21
3408.31375
 31
0.0
  0
LINE
  8
3
  6
CONTINUOUS
 62
   241
  5
8A1
 10
13152.653167
 20
3408.875333
 30
0.0
 11
13152.653167
 21
3408.891083
 31
0.0
  0
LINE
  8
3
  6
CONTINUOUS
 62
   241
  5
8A2
 10
13153.207333
 20
3408.875333
 30
0.0
 11
13156.641167
 21
3408.482083
 31
0.0
  0
LINE
  8
3
  6
DASHED
 62
   241
  5
8A3
 10
13153.30775
 20
3408.864
 30
0.0
 11
13153.290667
 21
3408.702
 31
0.0
  0
LINE
  8
3
  6
CONTINUOUS
 62
   241
  5
8A4
 10
13153.230083
 20
3409.229333
 30
0.0
 11
13153.230083
 21
3409.196417
 31
0.0
  0
LINE
  8
3
  6
CONTINUOUS
 62
   241
  5
8A5
 10
13154.359333
 20
3408.745333
 30
0.0
 11
13154.341833
 21
3408.580833
 31
0.0
  0
LINE
  8
3
  6
CONTINUOUS
 62
   241
  5
8A6
 10
13160.0965
 20
3409.017833
 30
0.0
 11
13160.0965
 21
3408.781833
 31
0.0
  0
POLYLINE
  8
3
  6
CONTINUOUS
 62
   241
  5
8A7
 66
     1
 10
0.0
 20
0.0
 30
0.0
210
0.0
220
0.0
230
1.0
  0
VERTEX
  8
3
  6
CONTINUOUS
 62
   241
  5
8A8
 10
13156.657167
 20
3408.519333
 30
0.0
  0
VERTEX
  8
3
  6
CONTINUOUS
 62
   241
  5
8A9
 10
13156.657167
 20
3408.552333
 30
0.0
  0
VERTEX
  8
3
  6
CONTINUOUS
 62
   241
  5
8AA
 10
13156.625417
 20
3408.552333
 30
0.0
  0
VERTEX
  8
3
  6
CONTINUOUS
 62
   241
  5
8AB
 10
13156.625417
 20
3408.519333
 30
0.0
  0
SEQEND
  8
3
  6
CONTINUOUS
 62
   241
  5
8AC
  0
POLYLINE
  8
3
  6
CONTINUOUS
 62
   241
  5
8AD
 66
     1
 10
0.0
 20
0.0
 30
0.0
210
0.0
220
0.0
230
1.0
  0
VERTEX
  8
3
  6
CONTINUOUS
 62
   241
  5
8AE
 10
13156.66825
 20
3408.4955
 30
0.0
  0
VERTEX
  8
3
  6
CONTINUOUS
 62
   241
  5
8AF
 10
13156.66825
 20
3408.519333
 30
0.0
  0
VERTEX
  8
3
  6
CONTINUOUS
 62
   241
  5
8B0
 10
13156.613667
 20
3408.519333
 30
0.0
  0
VERTEX
  8
3
  6
CONTINUOUS
 62
   241
  5
8B1
 10
13156.613667
 20
3408.4955
 30
0.0
  0
SEQEND
  8
3
  6
CONTINUOUS
 62
   241
  5
8B2
  0
LINE
  8
3
  6
CONTINUOUS
 62
   241
  5
8B3
 10
13153.06175
 20
3408.722333
 30
0.0
 11
13156.63175
 21
3408.31375
 31
0.0
  0
LINE
  8
3
  6
CONTINUOUS
 62
   241
  5
8B4
 10
13153.305083
 20
3408.838833
 30
0.0
 11
13156.639833
 21
3408.457083
 31
0.0
  0
LINE
  8
3
  6
DASHED
 62
   241
  5
8B5
 10
13153.292583
 20
3408.719167
 30
0.0
 11
13156.632917
 21
3408.336833
 31
0.0
  0
ARC
  8
3
  6
CONTINUOUS
 62
   241
  5
8B6
 10
13153.117329
 20
3409.207525
 30
0.0
 40
0.488373
 50
230.029281
 51
263.472117
210
0.0
220
0.0
230
1.0
  0
CIRCLE
  8
3
  6
CONTINUOUS
 62
   241
  5
8B7
 10
13159.55683
 20
3403.518439
 30
0.0
 40
0.019077
210
0.0
220
0.0
230
1.0
  0
CIRCLE
  8
3
  6
CONTINUOUS
 62
   241
  5
8B8
 10
13161.451701
 20
3403.51966
 30
0.0
 40
0.019077
210
0.0
220
0.0
230
1.0
  0
LINE
  8
3
  6
CONTINUOUS
 62
   241
  5
8B9
 10
13155.739
 20
3403.060667
 30
0.0
 11
13169.967583
 21
3403.060667
 31
0.0
  0
LINE
  8
3
  6
CONTINUOUS
 62
   241
  5
8BA
 10
13154.873583
 20
3403.060667
 30
0.0
 11
13155.739
 21
3403.060667
 31
0.0
  0
LINE
  8
3
  6
DASHED
 62
   140
  5
8BB
 10
13154.29825
 20
3403.882333
 30
0.0
 11
13154.29825
 21
3404.50425
 31
0.0
  0
POLYLINE
  8
3
  6
DASHED
 62
   241
  5
8BC
 66
     1
 10
0.0
 20
0.0
 30
0.0
 70
     1
210
0.0
220
0.0
230
1.0
  0
VERTEX
  8
3
  6
DASHED
 62
   241
  5
8BD
 10
13156.557083
 20
3404.439667
 30
0.0
  0
VERTEX
  8
3
  6
DASHED
 62
   241
  5
8BE
 10
13156.814583
 20
3404.439667
 30
0.0
  0
VERTEX
  8
3
  6
DASHED
 62
   241
  5
8BF
 10
13156.814583
 20
3403.951167
 30
0.0
  0
VERTEX
  8
3
  6
DASHED
 62
   241
  5
8C0
 10
13156.557083
 20
3403.951167
 30
0.0
  0
SEQEND
  8
3
  6
DASHED
 62
   241
  5
8C1
  0
LINE
  8
3
  6
CONTINUOUS
 62
   241
  5
8C2
 10
13154.843417
 20
3403.37
 30
0.0
 11
13154.843417
 21
3403.675333
 31
0.0
  0
LINE
  8
3
  6
CONTINUOUS
 62
   241
  5
8C3
 10
13155.059167
 20
3403.37
 30
0.0
 11
13155.059167
 21
3403.675333
 31
0.0
  0
LINE
  8
3
  6
CONTINUOUS
 62
   241
  5
8C4
 10
13161.559583
 20
3403.367667
 30
0.0
 11
13161.559583
 21
3403.672833
 31
0.0
  0
CIRCLE
  8
3
  6
CONTINUOUS
 62
   241
  5
8C5
 10
13163.322275
 20
3404.193475
 30
0.0
 40
0.036567
210
0.0
220
0.0
230
1.0
  0
CIRCLE
  8
3
  6
CONTINUOUS
 62
   241
  5
8C6
 10
13165.228811
 20
3404.192142
 30
0.0
 40
0.036567
210
0.0
220
0.0
230
1.0
  0
CIRCLE
  8
3
  6
CONTINUOUS
 62
   241
  5
8C7
 10
13167.137919
 20
3404.190926
 30
0.0
 40
0.036567
210
0.0
220
0.0
230
1.0
  0
CIRCLE
  8
3
  6
CONTINUOUS
 62
   241
  5
8C8
 10
13169.04561
 20
3404.192176
 30
0.0
 40
0.036567
210
0.0
220
0.0
230
1.0
  0
TEXT
  8
3
  6
CONTINUOUS
 62
   241
  5
8C9
 10
13169.71625
 20
3410.680917
 30
0.0
 40
0.195333
  1
Standard
  7
txt
 72
     4
 11
13170.459167
 21
3410.778583
 31
0.0
210
0.0
220
0.0
230
1.0
  0
TEXT
  8
3
  6
CONTINUOUS
 62
   241
  5
8CA
 10
13169.712083
 20
3410.29025
 30
0.0
 40
0.195333
  1
Guardrail
  7
txt
 72
     4
 11
13170.551917
 21
3410.387917
 31
0.0
210
0.0
220
0.0
230
1.0
  0
TEXT
  8
3
  6
CONTINUOUS
 62
   241
  5
8CB
 10
13169.808583
 20
3409.899417
 30
0.0
 40
0.195333
  1
Section
  7
txt
 72
     4
 11
13170.454583
 21
3409.997083
 31
0.0
210
0.0
220
0.0
230
1.0
  0
TEXT
  8
3
  6
CONTINUOUS
 62
   241
  5
8CC
 10
13157.348833
 20
3401.8725
 30
0.0
 40
0.195333
  1
Post
  7
txt
 72
     4
 11
13157.704167
 21
3401.970167
 31
0.0
210
0.0
220
0.0
230
1.0
  0
TEXT
  8
3
  6
CONTINUOUS
 62
   241
  5
8CD
 10
13157.566833
 20
3401.481667
 30
0.0
 40
0.195333
  1
1
  7
txt
 72
     4
 11
13157.631417
 21
3401.579333
 31
0.0
210
0.0
220
0.0
230
1.0
  0
TEXT
  8
3
  6
CONTINUOUS
 62
   241
  5
8CE
 10
13158.268583
 20
3401.8725
 30
0.0
 40
0.195333
  1
Post
  7
txt
 72
     4
 11
13158.623917
 21
3401.970167
 31
0.0
210
0.0
220
0.0
230
1.0
  0
TEXT
  8
3
  6
CONTINUOUS
 62
   241
  5
8CF
 10
13158.46025
 20
3401.481667
 30
0.0
 40
0.195333
  1
2
  7
txt
 72
     4
 11
13158.524833
 21
3401.579333
 31
0.0
210
0.0
220
0.0
230
1.0
  0
TEXT
  8
3
  6
CONTINUOUS
 62
   241
  5
8D0
 10
13159.237167
 20
3401.8725
 30
0.0
 40
0.195333
  1
Post
  7
txt
 72
     4
 11
13159.5925
 21
3401.970167
 31
0.0
210
0.0
220
0.0
230
1.0
  0
TEXT
  8
3
  6
CONTINUOUS
 62
   241
  5
8D1
 10
13159.42725
 20
3401.481667
 30
0.0
 40
0.195333
  1
3
  7
txt
 72
     4
 11
13159.491833
 21
3401.579333
 31
0.0
210
0.0
220
0.0
230
1.0
  0
TEXT
  8
3
  6
CONTINUOUS
 62
   241
  5
8D2
 10
13160.181333
 20
3401.8725
 30
0.0
 40
0.195333
  1
Post
  7
txt
 72
     4
 11
13160.536667
 21
3401.970167
 31
0.0
210
0.0
220
0.0
230
1.0
  0
TEXT
  8
3
  6
CONTINUOUS
 62
   241
  5
8D3
 10
13160.369
 20
3401.481667
 30
0.0
 40
0.195333
  1
4
  7
txt
 72
     4
 11
13160.433583
 21
3401.579333
 31
0.0
210
0.0
220
0.0
230
1.0
  0
TEXT
  8
3
  6
CONTINUOUS
 62
   241
  5
8D4
 10
13161.158167
 20
3401.8725
 30
0.0
 40
0.195333
  1
Post
  7
txt
 72
     4
 11
13161.5135
 21
3401.970167
 31
0.0
210
0.0
220
0.0
230
1.0
  0
TEXT
  8
3
  6
CONTINUOUS
 62
   241
  5
8D5
 10
13161.348167
 20
3401.481667
 30
0.0
 40
0.195333
  1
5
  7
txt
 72
     4
 11
13161.41275
 21
3401.579333
 31
0.0
210
0.0
220
0.0
230
1.0
  0
TEXT
  8
3
  6
CONTINUOUS
 62
   241
  5
8D6
 10
13163.06275
 20
3401.8725
 30
0.0
 40
0.195333
  1
Post
  7
txt
 72
     4
 11
13163.418083
 21
3401.970167
 31
0.0
210
0.0
220
0.0
230
1.0
  0
TEXT
  8
3
  6
CONTINUOUS
 62
   241
  5
8D7
 10
13163.252833
 20
3401.481667
 30
0.0
 40
0.195333
  1
6
  7
txt
 72
     4
 11
13163.317417
 21
3401.579333
 31
0.0
210
0.0
220
0.0
230
1.0
  0
TEXT
  8
3
  6
CONTINUOUS
 62
   241
  5
8D8
 10
13164.967417
 20
3401.8725
 30
0.0
 40
0.195333
  1
Post
  7
txt
 72
     4
 11
13165.32275
 21
3401.970167
 31
0.0
210
0.0
220
0.0
230
1.0
  0
TEXT
  8
3
  6
CONTINUOUS
 62
   241
  5
8D9
 10
13165.1595
 20
3401.481667
 30
0.0
 40
0.195333
  1
7
  7
txt
 72
     4
 11
13165.224083
 21
3401.579333
 31
0.0
210
0.0
220
0.0
230
1.0
  0
TEXT
  8
3
  6
CONTINUOUS
 62
   241
  5
8DA
 10
13166.872083
 20
3401.8725
 30
0.0
 40
0.195333
  1
Post
  7
txt
 72
     4
 11
13167.227417
 21
3401.970167
 31
0.0
210
0.0
220
0.0
230
1.0
  0
TEXT
  8
3
  6
CONTINUOUS
 62
   241
  5
8DB
 10
13167.061417
 20
3401.481667
 30
0.0
 40
0.195333
  1
8
  7
txt
 72
     4
 11
13167.126
 21
3401.579333
 31
0.0
210
0.0
220
0.0
230
1.0
  0
LINE
  8
3
  6
DASHED
 62
   241
  5
8DC
 10
13159.605667
 20
3403.071583
 30
0.0
 11
13159.605667
 21
3402.130833
 31
0.0
  0
LINE
  8
3
  6
DASHED
 62
   241
  5
8DD
 10
13158.646
 20
3403.06975
 30
0.0
 11
13158.646
 21
3402.130833
 31
0.0
  0
LINE
  8
3
  6
DASHED
 62
   241
  5
8DE
 10
13157.701083
 20
3403.060667
 30
0.0
 11
13157.701083
 21
3402.130833
 31
0.0
  0
LINE
  8
3
  6
HIDDEN
 62
   241
  5
8DF
 10
13165.333667
 20
3403.0765
 30
0.0
 11
13165.333667
 21
3402.130833
 31
0.0
  0
LINE
  8
3
  6
DASHED
 62
   241
  5
8E0
 10
13160.565333
 20
3403.082583
 30
0.0
 11
13160.565333
 21
3402.130833
 31
0.0
  0
LINE
  8
3
  6
DASHED
 62
   241
  5
8E1
 10
13161.518833
 20
3403.081333
 30
0.0
 11
13161.518833
 21
3402.130833
 31
0.0
  0
LINE
  8
3
  6
DASHED
 62
   241
  5
8E2
 10
13163.425917
 20
3403.088083
 30
0.0
 11
13163.425917
 21
3402.130833
 31
0.0
  0
LINE
  8
3
  6
HIDDEN
 62
   241
  5
8E3
 10
13167.241333
 20
3403.0765
 30
0.0
 11
13167.241333
 21
3402.130833
 31
0.0
  0
LINE
  8
3
  6
DASHED
 62
   241
  5
8E4
 10
13159.402417
 20
3402.130833
 30
0.0
 11
13159.402417
 21
3403.071583
 31
0.0
  0
LINE
  8
3
  6
DASHED
 62
   241
  5
8E5
 10
13158.442833
 20
3402.130833
 30
0.0
 11
13158.442833
 21
3403.06975
 31
0.0
  0
LINE
  8
3
  6
DASHED
 62
   241
  5
8E6
 10
13157.497833
 20
3402.130833
 30
0.0
 11
13157.497833
 21
3403.060667
 31
0.0
  0
LINE
  8
3
  6
HIDDEN
 62
   241
  5
8E7
 10
13165.130333
 20
3402.130833
 30
0.0
 11
13165.130333
 21
3403.0765
 31
0.0
  0
LINE
  8
3
  6
DASHED
 62
   241
  5
8E8
 10
13160.362
 20
3402.130833
 30
0.0
 11
13160.362
 21
3403.082583
 31
0.0
  0
LINE
  8
3
  6
DASHED
 62
   241
  5
8E9
 10
13161.314917
 20
3402.130833
 30
0.0
 11
13161.314917
 21
3403.081333
 31
0.0
  0
LINE
  8
3
  6
DASHED
 62
   241
  5
8EA
 10
13163.222667
 20
3402.130833
 30
0.0
 11
13163.222667
 21
3403.088083
 31
0.0
  0
LINE
  8
3
  6
HIDDEN
 62
   241
  5
8EB
 10
13167.038
 20
3402.130833
 30
0.0
 11
13167.038
 21
3403.0765
 31
0.0
  0
POLYLINE
  8
3
  6
DASHED
 62
   241
  5
8EC
 66
     1
 10
0.0
 20
0.0
 30
0.0
210
0.0
220
0.0
230
1.0
  0
VERTEX
  8
3
  6
DASHED
 62
   241
  5
8ED
 10
13159.605667
 20
3401.386167
 30
0.0
  0
VERTEX
  8
3
  6
DASHED
 62
   241
  5
8EE
 10
13159.605667
 20
3400.782333
 30
0.0
  0
VERTEX
  8
3
  6
DASHED
 62
   241
  5
8EF
 10
13159.402417
 20
3400.782333
 30
0.0
  0
VERTEX
  8
3
  6
DASHED
 62
   241
  5
8F0
 10
13159.402417
 20
3401.386167
 30
0.0
  0
SEQEND
  8
3
  6
DASHED
 62
   241
  5
8F1
  0
POLYLINE
  8
3
  6
DASHED
 62
   241
  5
8F2
 66
     1
 10
0.0
 20
0.0
 30
0.0
210
0.0
220
0.0
230
1.0
  0
VERTEX
  8
3
  6
DASHED
 62
   241
  5
8F3
 10
13158.646
 20
3401.386167
 30
0.0
  0
VERTEX
  8
3
  6
DASHED
 62
   241
  5
8F4
 10
13158.646
 20
3400.780583
 30
0.0
  0
VERTEX
  8
3
  6
DASHED
 62
   241
  5
8F5
 10
13158.442833
 20
3400.780583
 30
0.0
  0
VERTEX
  8
3
  6
DASHED
 62
   241
  5
8F6
 10
13158.442833
 20
3401.386167
 30
0.0
  0
SEQEND
  8
3
  6
DASHED
 62
   241
  5
8F7
  0
POLYLINE
  8
3
  6
DASHED
 62
   241
  5
8F8
 66
     1
 10
0.0
 20
0.0
 30
0.0
210
0.0
220
0.0
230
1.0
  0
VERTEX
  8
3
  6
DASHED
 62
   241
  5
8F9
 10
13157.701083
 20
3401.386167
 30
0.0
  0
VERTEX
  8
3
  6
DASHED
 62
   241
  5
8FA
 10
13157.701083
 20
3400.771333
 30
0.0
  0
VERTEX
  8
3
  6
DASHED
 62
   241
  5
8FB
 10
13157.497833
 20
3400.771333
 30
0.0
  0
VERTEX
  8
3
  6
DASHED
 62
   241
  5
8FC
 10
13157.497833
 20
3401.386167
 30
0.0
  0
SEQEND
  8
3
  6
DASHED
 62
   241
  5
8FD
  0
POLYLINE
  8
3
  6
HIDDEN
 62
   241
  5
8FE
 66
     1
 10
0.0
 20
0.0
 30
0.0
210
0.0
220
0.0
230
1.0
  0
VERTEX
  8
3
  6
HIDDEN
 62
   241
  5
8FF
 10
13165.333667
 20
3401.386167
 30
0.0
  0
VERTEX
  8
3
  6
HIDDEN
 62
   241
  5
900
 10
13165.333667
 20
3400.787333
 30
0.0
  0
VERTEX
  8
3
  6
HIDDEN
 62
   241
  5
901
 10
13165.130333
 20
3400.787333
 30
0.0
  0
VERTEX
  8
3
  6
HIDDEN
 62
   241
  5
902
 10
13165.130333
 20
3401.386167
 30
0.0
  0
SEQEND
  8
3
  6
HIDDEN
 62
   241
  5
903
  0
POLYLINE
  8
3
  6
DASHED
 62
   241
  5
904
 66
     1
 10
0.0
 20
0.0
 30
0.0
210
0.0
220
0.0
230
1.0
  0
VERTEX
  8
3
  6
DASHED
 62
   241
  5
905
 10
13160.565333
 20
3401.386167
 30
0.0
  0
VERTEX
  8
3
  6
DASHED
 62
   241
  5
906
 10
13160.565333
 20
3400.793417
 30
0.0
  0
VERTEX
  8
3
  6
DASHED
 62
   241
  5
907
 10
13160.362
 20
3400.793417
 30
0.0
  0
VERTEX
  8
3
  6
DASHED
 62
   241
  5
908
 10
13160.362
 20
3401.386167
 30
0.0
  0
SEQEND
  8
3
  6
DASHED
 62
   241
  5
909
  0
POLYLINE
  8
3
  6
DASHED
 62
   241
  5
90A
 66
     1
 10
0.0
 20
0.0
 30
0.0
210
0.0
220
0.0
230
1.0
  0
VERTEX
  8
3
  6
DASHED
 62
   241
  5
90B
 10
13161.518833
 20
3401.386167
 30
0.0
  0
VERTEX
  8
3
  6
DASHED
 62
   241
  5
90C
 10
13161.518833
 20
3400.792083
 30
0.0
  0
VERTEX
  8
3
  6
DASHED
 62
   241
  5
90D
 10
13161.314917
 20
3400.792083
 30
0.0
  0
VERTEX
  8
3
  6
DASHED
 62
   241
  5
90E
 10
13161.314917
 20
3401.386167
 30
0.0
  0
SEQEND
  8
3
  6
DASHED
 62
   241
  5
90F
  0
POLYLINE
  8
3
  6
DASHED
 62
   241
  5
910
 66
     1
 10
0.0
 20
0.0
 30
0.0
210
0.0
220
0.0
230
1.0
  0
VERTEX
  8
3
  6
DASHED
 62
   241
  5
911
 10
13163.425917
 20
3401.386167
 30
0.0
  0
VERTEX
  8
3
  6
DASHED
 62
   241
  5
912
 10
13163.425917
 20
3400.798917
 30
0.0
  0
VERTEX
  8
3
  6
DASHED
 62
   241
  5
913
 10
13163.222667
 20
3400.798917
 30
0.0
  0
VERTEX
  8
3
  6
DASHED
 62
   241
  5
914
 10
13163.222667
 20
3401.386167
 30
0.0
  0
SEQEND
  8
3
  6
DASHED
 62
   241
  5
915
  0
POLYLINE
  8
3
  6
HIDDEN
 62
   241
  5
916
 66
     1
 10
0.0
 20
0.0
 30
0.0
210
0.0
220
0.0
230
1.0
  0
VERTEX
  8
3
  6
HIDDEN
 62
   241
  5
917
 10
13167.241333
 20
3401.386167
 30
0.0
  0
VERTEX
  8
3
  6
HIDDEN
 62
   241
  5
918
 10
13167.241333
 20
3400.787333
 30
0.0
  0
VERTEX
  8
3
  6
HIDDEN
 62
   241
  5
919
 10
13167.038
 20
3400.787333
 30
0.0
  0
VERTEX
  8
3
  6
HIDDEN
 62
   241
  5
91A
 10
13167.038
 20
3401.386167
 30
0.0
  0
SEQEND
  8
3
  6
HIDDEN
 62
   241
  5
91B
  0
POLYLINE
  8
3
  6
CONTINUOUS
 62
   241
  5
91C
 66
     1
 10
0.0
 20
0.0
 30
0.0
210
0.0
220
0.0
230
1.0
  0
VERTEX
  8
3
  6
CONTINUOUS
 62
   241
  5
91D
 10
13161.488667
 20
3404.236667
 30
0.0
  0
VERTEX
  8
3
  6
CONTINUOUS
 62
   241
  5
91E
 10
13161.336167
 20
3404.236667
 30
0.0
  0
VERTEX
  8
3
  6
CONTINUOUS
 62
   241
  5
91F
 10
13161.336167
 20
3404.147667
 30
0.0
  0
VERTEX
  8
3
  6
CONTINUOUS
 62
   241
  5
920
 10
13161.488667
 20
3404.147667
 30
0.0
  0
VERTEX
  8
3
  6
CONTINUOUS
 62
   241
  5
921
 10
13161.488667
 20
3404.236667
 30
0.0
  0
SEQEND
  8
3
  6
CONTINUOUS
 62
   241
  5
922
  0
POLYLINE
  8
3
  6
CONTINUOUS
 62
   241
  5
923
 66
     1
 10
0.0
 20
0.0
 30
0.0
210
0.0
220
0.0
230
1.0
  0
VERTEX
  8
3
  6
CONTINUOUS
 62
   241
  5
924
 10
13163.398833
 20
3404.237917
 30
0.0
  0
VERTEX
  8
3
  6
CONTINUOUS
 62
   241
  5
925
 10
13163.246167
 20
3404.237917
 30
0.0
  0
VERTEX
  8
3
  6
CONTINUOUS
 62
   241
  5
926
 10
13163.246167
 20
3404.148917
 30
0.0
  0
VERTEX
  8
3
  6
CONTINUOUS
 62
   241
  5
927
 10
13163.398833
 20
3404.148917
 30
0.0
  0
VERTEX
  8
3
  6
CONTINUOUS
 62
   241
  5
928
 10
13163.398833
 20
3404.237917
 30
0.0
  0
SEQEND
  8
3
  6
CONTINUOUS
 62
   241
  5
929
  0
POLYLINE
  8
3
  6
CONTINUOUS
 62
   241
  5
92A
 66
     1
 10
0.0
 20
0.0
 30
0.0
210
0.0
220
0.0
230
1.0
  0
VERTEX
  8
3
  6
CONTINUOUS
 62
   241
  5
92B
 10
13165.305333
 20
3404.236583
 30
0.0
  0
VERTEX
  8
3
  6
CONTINUOUS
 62
   241
  5
92C
 10
13165.152667
 20
3404.236583
 30
0.0
  0
VERTEX
  8
3
  6
CONTINUOUS
 62
   241
  5
92D
 10
13165.152667
 20
3404.147583
 30
0.0
  0
VERTEX
  8
3
  6
CONTINUOUS
 62
   241
  5
92E
 10
13165.305333
 20
3404.147583
 30
0.0
  0
VERTEX
  8
3
  6
CONTINUOUS
 62
   241
  5
92F
 10
13165.305333
 20
3404.236583
 30
0.0
  0
SEQEND
  8
3
  6
CONTINUOUS
 62
   241
  5
930
  0
POLYLINE
  8
3
  6
CONTINUOUS
 62
   241
  5
931
 66
     1
 10
0.0
 20
0.0
 30
0.0
210
0.0
220
0.0
230
1.0
  0
VERTEX
  8
3
  6
CONTINUOUS
 62
   241
  5
932
 10
13167.214417
 20
3404.2355
 30
0.0
  0
VERTEX
  8
3
  6
CONTINUOUS
 62
   241
  5
933
 10
13167.061833
 20
3404.2355
 30
0.0
  0
VERTEX
  8
3
  6
CONTINUOUS
 62
   241
  5
934
 10
13167.061833
 20
3404.14625
 30
0.0
  0
VERTEX
  8
3
  6
CONTINUOUS
 62
   241
  5
935
 10
13167.214417
 20
3404.14625
 30
0.0
  0
VERTEX
  8
3
  6
CONTINUOUS
 62
   241
  5
936
 10
13167.214417
 20
3404.2355
 30
0.0
  0
SEQEND
  8
3
  6
CONTINUOUS
 62
   241
  5
937
  0
POLYLINE
  8
3
  6
CONTINUOUS
 62
   241
  5
938
 66
     1
 10
0.0
 20
0.0
 30
0.0
210
0.0
220
0.0
230
1.0
  0
VERTEX
  8
3
  6
CONTINUOUS
 62
   241
  5
939
 10
13169.122083
 20
3404.23675
 30
0.0
  0
VERTEX
  8
3
  6
CONTINUOUS
 62
   241
  5
93A
 10
13168.969417
 20
3404.23675
 30
0.0
  0
VERTEX
  8
3
  6
CONTINUOUS
 62
   241
  5
93B
 10
13168.969417
 20
3404.1475
 30
0.0
  0
VERTEX
  8
3
  6
CONTINUOUS
 62
   241
  5
93C
 10
13169.122083
 20
3404.1475
 30
0.0
  0
VERTEX
  8
3
  6
CONTINUOUS
 62
   241
  5
93D
 10
13169.122083
 20
3404.23675
 30
0.0
  0
SEQEND
  8
3
  6
CONTINUOUS
 62
   241
  5
93E
  0
LINE
  8
3
  6
CONTINUOUS
 62
   241
  5
93F
 10
13169.576917
 20
3410.580917
 30
0.0
 11
13169.385333
 21
3410.580917
 31
0.0
  0
LINE
  8
3
  6
CONTINUOUS
 62
   241
  5
940
 10
13169.031917
 20
3410.580917
 30
0.0
 11
13169.385333
 21
3410.580917
 31
0.0
  0
INSERT
  8
3
  6
CONTINUOUS
 62
   241
  5
948
  2
ARWHD
 10
13161.400417
 20
3410.580917
 30
0.0
 41
9.767462
 42
9.767462
 50
180.0
 43
0.097677
210
0.0
220
0.0
230
0.9999999999999999
  0
LINE
  8
3
  6
CONTINUOUS
 62
   241
  5
949
 10
13156.716417
 20
3399.90625
 30
0.0
 11
13156.93975
 21
3399.90625
 31
0.0
  0
LINE
  8
3
  6
CONTINUOUS
 62
   241
  5
94A
 10
13156.93975
 20
3399.90625
 30
0.0
 11
13157.1525
 21
3403.37
 31
0.0
  0
TEXT
  8
3
  6
CONTINUOUS
 62
   241
  5
94B
 10
13173.83775
 20
3411.772
 30
0.0
 40
0.175833
  1
through 4 and posts 6 and 8.
  7
txt
 11
13173.83775
 21
3411.859917
 31
0.0
210
0.0
220
0.0
230
1.0
 73
     2
  0
TEXT
  8
3
  6
CONTINUOUS
 62
   241
  5
94C
 10
13155.851667
 20
3407.262
 30
0.0
 40
0.195333
  1
Two sections of W-beam
  7
txt
 11
13155.851667
 21
3407.359667
 31
0.0
210
0.0
220
0.0
230
1.0
 73
     2
  0
TEXT
  8
3
  6
CONTINUOUS
 62
   241
  5
94D
 10
13155.851667
 20
3406.871417
 30
0.0
 40
0.195333
  1
one set inside the other
  7
txt
 11
13155.851667
 21
3406.969083
 31
0.0
210
0.0
220
0.0
230
1.0
 73
     2
  0
LINE
  8
3
  6
CONTINUOUS
 62
   241
  5
94E
 10
13156.486833
 20
3408.493083
 30
0.0
 11
13156.0645
 21
3408.493083
 31
0.0
  0
LINE
  8
3
  6
CONTINUOUS
 62
   241
  5
94F
 10
13156.159583
 20
3408.493083
 30
0.0
 11
13156.159583
 21
3408.248917
 31
0.0
  0
LINE
  8
3
  6
CONTINUOUS
 62
   241
  5
950
 10
13156.159583
 20
3409.858917
 30
0.0
 11
13156.159583
 21
3408.891083
 31
0.0
  0
INSERT
  8
3
  6
CONTINUOUS
 62
   140
  5
951
  2
ARWHD
 10
13153.298417
 20
3407.101167
 30
0.0
 41
9.767462
 42
9.767462
 50
180.0
 43
0.097677
210
0.0
220
0.0
230
0.9999999999999999
  0
TEXT
  8
3
  6
CONTINUOUS
 62
   241
  5
952
 10
13173.83775
 20
3412.061333
 30
0.0
 40
0.175833
  1
W-beam is not bolted to posts at posts 2
  7
txt
 11
13173.83775
 21
3412.14925
 31
0.0
210
0.0
220
0.0
230
1.0
 73
     2
  0
CIRCLE
  8
3
  6
CONTINUOUS
 62
   241
  5
953
 10
13156.729169
 20
3403.521491
 30
0.0
 40
0.019077
210
0.0
220
0.0
230
1.0
  0
LINE
  8
3
  6
CONTINUOUS
 62
   241
  5
954
 10
13151.816917
 20
3403.733
 30
0.0
 11
13156.923333
 21
3403.733
 31
0.0
  0
LINE
  8
3
  6
CONTINUOUS
 62
   241
  5
955
 10
13151.725583
 20
3408.69325
 30
0.0
 11
13153.315417
 21
3408.69325
 31
0.0
  0
LINE
  8
3
  6
CONTINUOUS
 62
   241
  5
956
 10
13154.846583
 20
3408.69325
 30
0.0
 11
13156.934667
 21
3408.69325
 31
0.0
  0
LINE
  8
3
  6
CONTINUOUS
 62
   241
  5
957
 10
13151.6715
 20
3409.4185
 30
0.0
 11
13156.931833
 21
3409.4185
 31
0.0
  0
TEXT
  8
1
  6
CONTINUOUS
 62
   140
  5
959
 10
13181.059333
 20
3398.077583
 30
0.0
 40
0.058583
  1
$$$$$$$$$FILENAME$$$$$$$$
 50
90.0
  7
txt
 11
13181.03
 21
3398.077583
 31
0.0
210
0.0
220
0.0
230
1.0
 73
     2
  0
TEXT
  8
1
  6
CONTINUOUS
 62
   140
  5
95A
 10
13181.059333
 20
3399.761583
 30
0.0
 40
0.058583
  1
$USERNAME$
 50
90.0
  7
txt
 11
13181.03
 21
3399.761583
 31
0.0
210
0.0
220
0.0
230
1.0
 73
     2
  0
TEXT
  8
1
  6
CONTINUOUS
 62
   140
  5
95B
 10
13181.059333
 20
3400.517
 30
0.0
 40
0.058583
  1
DD-MMM-YYYY HH:MM
 50
90.0
  7
txt
 11
13181.03
 21
3400.517
 31
0.0
210
0.0
220
0.0
230
1.0
 73
     2
  0
POINT
  8
1
  6
CONTINUOUS
 62
     7
  5
95C
 10
13181.416917
 20
3419.953
 30
0.0
  0
POINT
  8
1
  6
CONTINUOUS
 62
     7
  5
95D
 10
13147.461667
 20
3396.688
 30
0.0
  0
POINT
  8
1
  6
CONTINUOUS
 62
     2
  5
95E
 10
13148.534417
 20
3418.587917
 30
0.0
  0
POINT
  8
1
  6
CONTINUOUS
 62
     2
  5
95F
 10
13181.066833
 20
3398.053
 30
0.0
  0
POINT
  8
1
  6
CONTINUOUS
 62
   110
  5
960
 10
13181.26225
 20
3418.876583
 30
0.0
  0
POINT
  8
1
  6
CONTINUOUS
 62
   110
  5
961
 10
13148.365417
 20
3397.771667
 30
0.0
  0
LINE
  8
1
  6
CONTINUOUS
 62
   140
  5
962
 10
13149.224917
 20
3418.576333
 30
0.0
 11
13149.224917
 21
3398.064583
 31
0.0
  0
LINE
  8
1
  6
CONTINUOUS
 62
   140
  5
963
 10
13180.96925
 20
3418.576333
 30
0.0
 11
13149.224917
 21
3418.576333
 31
0.0
  0
LINE
  8
1
  6
CONTINUOUS
 62
   140
  5
964
 10
13180.96925
 20
3418.576333
 30
0.0
 11
13180.96925
 21
3398.064583
 31
0.0
  0
LINE
  8
1
  6
CONTINUOUS
 62
   140
  5
965
 10
13180.96925
 20
3398.064583
 30
0.0
 11
13149.224917
 21
3398.064583
 31
0.0
  0
LINE
  8
1
  6
CONTINUOUS
 62
   140
  5
966
 10
13148.98075
 20
3414.767083
 30
0.0
 11
13148.590167
 21
3414.767083
 31
0.0
  0
LINE
  8
1
  6
CONTINUOUS
 62
   140
  5
967
 10
13148.98075
 20
3412.032167
 30
0.0
 11
13148.590167
 21
3412.032167
 31
0.0
  0
LINE
  8
1
  6
CONTINUOUS
 62
   140
  5
968
 10
13148.98075
 20
3404.608833
 30
0.0
 11
13148.590167
 21
3404.608833
 31
0.0
  0
LINE
  8
1
  6
CONTINUOUS
 62
   140
  5
969
 10
13148.98075
 20
3401.874
 30
0.0
 11
13148.590167
 21
3401.874
 31
0.0
  0
CIRCLE
  8
1
  6
CONTINUOUS
 62
   140
  5
96A
 10
13148.736605
 20
3414.766948
 30
0.0
 40
0.122093
210
0.0
220
0.0
230
1.0
  0
CIRCLE
  8
1
  6
CONTINUOUS
 62
   140
  5
96B
 10
13148.736605
 20
3412.032059
 30
0.0
 40
0.122093
210
0.0
220
0.0
230
1.0
  0
CIRCLE
  8
1
  6
CONTINUOUS
 62
   140
  5
96C
 10
13148.736605
 20
3404.608789
 30
0.0
 40
0.122093
210
0.0
220
0.0
230
1.0
  0
CIRCLE
  8
1
  6
CONTINUOUS
 62
   140
  5
96D
 10
13148.736605
 20
3401.8739
 30
0.0
 40
0.122093
210
0.0
220
0.0
230
1.0
  0
TEXT
  8
1
  6
CONTINUOUS
 62
   140
  5
96F
 10
13176.466333
 20
3417.64
 30
0.0
 40
0.097667
  1
       
 41
0.800341
  7
ROMANS
 72
     4
 11
13176.726833
 21
3417.688833
 31
0.0
210
0.0
220
0.0
230
1.0
  0
TEXT
  8
1
  6
CONTINUOUS
 62
   140
  5
970
 10
13176.465167
 20
3417.496833
 30
0.0
 40
0.097667
  1
       
 41
0.800341
  7
ROMANS
 72
     4
 11
13176.725667
 21
3417.545667
 31
0.0
210
0.0
220
0.0
230
1.0
  0
TEXT
  8
1
  6
CONTINUOUS
 62
   140
  5
971
 10
13176.497167
 20
3417.350667
 30
0.0
 40
0.097667
  1
       
 41
0.800341
  7
ROMANS
 72
     4
 11
13176.757667
 21
3417.3995
 31
0.0
210
0.0
220
0.0
230
1.0
  0
TEXT
  8
1
  6
CONTINUOUS
 62
   140
  5
972
 10
13177.186167
 20
3417.584583
 30
0.0
 40
0.097667
  1
         
  7
ROMANS
 72
     4
 11
13177.609417
 21
3417.633417
 31
0.0
210
0.0
220
0.0
230
1.0
  0
TEXT
  8
1
  6
CONTINUOUS
 62
   140
  5
973
 10
13177.184917
 20
3417.40925
 30
0.0
 40
0.097667
  1
         
  7
ROMANS
 72
     4
 11
13177.608167
 21
3417.458083
 31
0.0
210
0.0
220
0.0
230
1.0
  0
TEXT
  8
1
  6
CONTINUOUS
 62
   140
  5
974
 10
13178.75075
 20
3417.496833
 30
0.0
 40
0.097667
  1
          
  7
ROMANS
 72
     4
 11
13179.222833
 21
3417.545667
 31
0.0
210
0.0
220
0.0
230
1.0
  0
TEXT
  8
1
  6
CONTINUOUS
 62
   140
  5
975
 10
13179.745917
 20
3417.496833
 30
0.0
 40
0.097667
  1
     
  7
ROMANS
 72
     4
 11
13179.97375
 21
3417.545667
 31
0.0
210
0.0
220
0.0
230
1.0
  0
TEXT
  8
1
  6
CONTINUOUS
 62
   140
  5
976
 10
13180.334167
 20
3417.496833
 30
0.0
 40
0.097667
  1
   
  7
ROMANS
 72
     4
 11
13180.464333
 21
3417.545667
 31
0.0
210
0.0
220
0.0
230
1.0
  0
POINT
  8
1
  6
CONTINUOUS
 62
   140
  5
977
 10
13149.224917
 20
3398.064583
 30
0.0
  0
POINT
  8
1
  6
CONTINUOUS
 62
   140
  5
978
 10
13149.224917
 20
3418.576333
 30
0.0
  0
POINT
  8
1
  6
CONTINUOUS
 62
   140
  5
979
 10
13180.96925
 20
3418.576333
 30
0.0
  0
POINT
  8
1
  6
CONTINUOUS
 62
   140
  5
97A
 10
13180.96925
 20
3398.064583
 30
0.0
  0
LINE
  8
1
  6
CONTINUOUS
 62
   140
  5
97B
 10
13180.96925
 20
3398.064583
 30
0.0
 11
13180.96925
 21
3400.505417
 31
0.0
  0
LINE
  8
1
  6
CONTINUOUS
 62
   140
  5
97C
 10
13180.96925
 20
3401.473333
 30
0.0
 11
13175.10875
 21
3401.473333
 31
0.0
  0
LINE
  8
1
  6
CONTINUOUS
 62
   140
  5
97D
 10
13180.96925
 20
3398.064583
 30
0.0
 11
13175.10875
 21
3398.064583
 31
0.0
  0
LINE
  8
1
  6
CONTINUOUS
 62
   140
  5
97E
 10
13176.610917
 20
3399.9195
 30
0.0
 11
13175.10875
 21
3399.9195
 31
0.0
  0
LINE
  8
1
  6
CONTINUOUS
 62
   140
  5
97F
 10
13176.610917
 20
3399.725083
 30
0.0
 11
13175.10875
 21
3399.725083
 31
0.0
  0
LINE
  8
1
  6
CONTINUOUS
 62
   140
  5
980
 10
13176.610917
 20
3399.530667
 30
0.0
 11
13175.10875
 21
3399.530667
 31
0.0
  0
LINE
  8
1
  6
CONTINUOUS
 62
   140
  5
981
 10
13176.610917
 20
3399.33625
 30
0.0
 11
13175.10875
 21
3399.33625
 31
0.0
  0
LINE
  8
1
  6
CONTINUOUS
 62
   140
  5
982
 10
13176.610917
 20
3399.141833
 30
0.0
 11
13175.10875
 21
3399.141833
 31
0.0
  0
LINE
  8
1
  6
CONTINUOUS
 62
   140
  5
983
 10
13176.610917
 20
3398.9475
 30
0.0
 11
13175.10875
 21
3398.9475
 31
0.0
  0
LINE
  8
1
  6
CONTINUOUS
 62
   140
  5
984
 10
13176.610917
 20
3398.753083
 30
0.0
 11
13175.10875
 21
3398.753083
 31
0.0
  0
LINE
  8
1
  6
CONTINUOUS
 62
   140
  5
985
 10
13176.610917
 20
3398.558917
 30
0.0
 11
13175.10875
 21
3398.558917
 31
0.0
  0
LINE
  8
1
  6
CONTINUOUS
 62
   140
  5
986
 10
13176.610917
 20
3398.3645
 30
0.0
 11
13175.10875
 21
3398.3645
 31
0.0
  0
TEXT
  8
1
  6
CONTINUOUS
 62
   140
  5
988
 10
13175.408667
 20
3399.965667
 30
0.0
 40
0.077167
  1
REVISION DATE
 41
1.00324
  7
MONOTXT
210
0.0
220
0.0
230
1.0
  0
LINE
  8
1
  6
CONTINUOUS
 62
   140
  5
989
 10
13175.10875
 20
3399.441833
 30
0.0
 11
13175.10875
 21
3398.064583
 31
0.0
  0
TEXT
  8
1
  6
CONTINUOUS
 62
   140
  5
98B
 10
13175.315083
 20
3401.224333
 30
0.0
 40
0.183167
  1
WEST VIRGINIA DEPARTMENT OF TRANSPORTATION
  7
ROMANT
 72
     4
 11
13178.021083
 21
3401.315917
 31
0.0
210
0.0
220
0.0
230
1.0
  0
TEXT
  8
1
  6
CONTINUOUS
 62
   140
  5
98C
 10
13176.8515
 20
3401.020167
 30
0.0
 40
0.183167
  1
DIVISION OF HIGHWAYS
  7
ROMANT
 72
     4
 11
13178.042667
 21
3401.11175
 31
0.0
210
0.0
220
0.0
230
1.0
  0
LINE
  8
1
  6
CONTINUOUS
 62
   140
  5
98D
 10
13176.610917
 20
3400.114833
 30
0.0
 11
13175.10875
 21
3400.114833
 31
0.0
  0
LINE
  8
1
  6
CONTINUOUS
 62
   140
  5
98E
 10
13176.610917
 20
3398.064583
 30
0.0
 11
13176.610917
 21
3400.114833
 31
0.0
  0
LINE
  8
1
  6
CONTINUOUS
 62
   140
  5
98F
 10
13175.10875
 20
3398.064583
 30
0.0
 11
13175.10875
 21
3401.473333
 31
0.0
  0
TEXT
  8
1
  6
CONTINUOUS
 62
     2
  5
990
 10
13176.826667
 20
3400.392083
 30
0.0
 40
0.16275
  1
                        
  7
txt
 72
     4
 11
13178.752833
 21
3400.473417
 31
0.0
210
0.0
220
0.0
230
1.0
  0
TEXT
  8
1
  6
CONTINUOUS
 62
     2
  5
991
 10
13176.3505
 20
3399.64225
 30
0.0
 40
0.2035
  1
                        
  7
txt
 72
     4
 11
13178.758417
 21
3399.744
 31
0.0
210
0.0
220
0.0
230
1.0
  0
TEXT
  8
1
  6
CONTINUOUS
 62
     2
  5
992
 10
13176.270083
 20
3399.360333
 30
0.0
 40
0.2035
  1
                        
  7
txt
 72
     4
 11
13178.678
 21
3399.462083
 31
0.0
210
0.0
220
0.0
230
1.0
  0
TEXT
  8
1
  6
CONTINUOUS
 62
     2
  5
993
 10
13175.143
 20
3399.566333
 30
0.0
 40
0.081417
  1
                  
  7
ROMANS
 72
     4
 11
13175.862
 21
3399.607
 31
0.0
210
0.0
220
0.0
230
1.0
  0
TEXT
  8
1
  6
CONTINUOUS
 62
     2
  5
994
 10
13175.143
 20
3399.371917
 30
0.0
 40
0.081417
  1
                  
  7
ROMANS
 72
     4
 11
13175.862
 21
3399.412583
 31
0.0
210
0.0
220
0.0
230
1.0
  0
TEXT
  8
1
  6
CONTINUOUS
 62
     2
  5
995
 10
13175.143
 20
3399.177333
 30
0.0
 40
0.081417
  1
                  
  7
ROMANS
 72
     4
 11
13175.862
 21
3399.218
 31
0.0
210
0.0
220
0.0
230
1.0
  0
TEXT
  8
1
  6
CONTINUOUS
 62
     2
  5
996
 10
13175.143
 20
3398.983083
 30
0.0
 40
0.081417
  1
                  
  7
ROMANS
 72
     4
 11
13175.862
 21
3399.02375
 31
0.0
210
0.0
220
0.0
230
1.0
  0
TEXT
  8
1
  6
CONTINUOUS
 62
     2
  5
997
 10
13175.143
 20
3398.788667
 30
0.0
 40
0.081417
  1
                  
  7
ROMANS
 72
     4
 11
13175.862
 21
3398.829333
 31
0.0
210
0.0
220
0.0
230
1.0
  0
TEXT
  8
1
  6
CONTINUOUS
 62
     2
  5
998
 10
13175.143
 20
3398.594333
 30
0.0
 40
0.081417
  1
                  
  7
ROMANS
 72
     4
 11
13175.862
 21
3398.635
 31
0.0
210
0.0
220
0.0
230
1.0
  0
TEXT
  8
1
  6
CONTINUOUS
 62
     2
  5
999
 10
13175.143
 20
3398.399917
 30
0.0
 40
0.081417
  1
                  
  7
ROMANS
 72
     4
 11
13175.862
 21
3398.440583
 31
0.0
210
0.0
220
0.0
230
1.0
  0
TEXT
  8
1
  6
CONTINUOUS
 62
     2
  5
99A
 10
13175.1415
 20
3398.200583
 30
0.0
 40
0.081417
  1
                  
  7
ROMANS
 72
     4
 11
13175.8605
 21
3398.24125
 31
0.0
210
0.0
220
0.0
230
1.0
  0
TEXT
  8
1
  6
CONTINUOUS
 62
   140
  5
99B
 10
13149.271833
 20
3397.94625
 30
0.0
 40
0.058583
  1
D09K20C95-STDBOR c
  7
MONOTXT
210
0.0
220
0.0
230
1.0
  0
POINT
  8
1
  6
CONTINUOUS
 62
     7
  5
99C
 10
13181.416917
 20
3419.953
 30
0.0
  0
POINT
  8
1
  6
CONTINUOUS
 62
     7
  5
99D
 10
13147.461667
 20
3396.688
 30
0.0
  0
POINT
  8
1
  6
CONTINUOUS
 62
     2
  5
99E
 10
13148.534417
 20
3418.587917
 30
0.0
  0
POINT
  8
1
  6
CONTINUOUS
 62
     2
  5
99F
 10
13181.066833
 20
3398.053
 30
0.0
  0
POINT
  8
1
  6
CONTINUOUS
 62
   110
  5
9A0
 10
13181.26225
 20
3418.876583
 30
0.0
  0
POINT
  8
1
  6
CONTINUOUS
 62
   110
  5
9A1
 10
13148.365417
 20
3397.771667
 30
0.0
  0
TEXT
  8
3
  6
CONTINUOUS
 62
   241
  5
9A2
 10
13173.83775
 20
3409.548333
 30
0.0
 40
0.175833
  1
See sheet 3 of 3 for detail.  Block
  7
txt
 11
13173.83775
 21
3409.63625
 31
0.0
210
0.0
220
0.0
230
1.0
 73
     2
  0
TEXT
  8
3
  6
CONTINUOUS
 62
   241
  5
9A3
 10
13154.409
 20
3417.356583
 30
0.0
 40
0.195333
  1
Two sections of W-beam
  7
txt
 11
13154.409
 21
3417.45425
 31
0.0
210
0.0
220
0.0
230
1.0
 73
     2
  0
TEXT
  8
3
  6
CONTINUOUS
 62
   241
  5
9A4
 10
13154.409
 20
3416.965833
 30
0.0
 40
0.195333
  1
one set inside the other
  7
txt
 11
13154.409
 21
3417.0635
 31
0.0
210
0.0
220
0.0
230
1.0
 73
     2
  0
INSERT
  8
1
  6
CONTINUOUS
 62
     7
  5
9A9
  2
ARROW2
 10
13154.20125
 20
3416.7985
 30
0.0
 41
0.976745
 42
0.976745
 50
90.0
 43
0.976745
210
0.0
220
0.0
230
0.9999999999999999
  0
INSERT
  8
1
  6
CONTINUOUS
 62
     7
  5
9AA
  2
ARROW2
 10
13154.20125
 20
3415.692583
 30
0.0
 41
0.976745
 42
0.976745
 50
270.0
 43
0.976745
210
0.0
220
0.0
230
0.9999999999999999
  0
INSERT
  8
1
  6
CONTINUOUS
 62
     7
  5
9AB
  2
ARROW2
 10
13153.854917
 20
3415.955833
 30
0.0
 41
0.976745
 42
0.976745
 50
270.0
 43
0.976745
210
0.0
220
0.0
230
0.9999999999999999
  0
INSERT
  8
1
  6
CONTINUOUS
 62
     7
  5
9AC
  2
ARROW2
 10
13153.19725
 20
3415.787583
 30
0.0
 41
0.976747
 42
0.976747
 50
106.776401
 43
0.976745
210
0.0
220
0.0
230
0.9999999999999999
  0
INSERT
  8
1
  6
CONTINUOUS
 62
     7
  5
9AD
  2
ARROW2
 10
13153.0965
 20
3415.771083
 30
0.0
 41
0.976745
 42
0.976745
 50
110.00432
 43
0.976745
210
0.0
220
0.0
230
0.9999999999999999
  0
INSERT
  8
1
  6
CONTINUOUS
 62
     7
  5
9AE
  2
ARROW2
 10
13153.854917
 20
3415.492583
 30
0.0
 41
0.976745
 42
0.976745
 50
90.0
 43
0.976745
210
0.0
220
0.0
230
0.9999999999999999
  0
INSERT
  8
1
  6
CONTINUOUS
 62
     7
  5
9AF
  2
ARROW2
 10
13161.662917
 20
3416.689333
 30
0.0
 41
0.976746
 42
0.976746
 50
257.615007
 43
0.976745
210
0.0
220
0.0
230
0.9999999999999999
  0
INSERT
  8
1
  6
CONTINUOUS
 62
     7
  5
9B0
  2
ARROW2
 10
13161.662917
 20
3416.689333
 30
0.0
 41
0.976746
 42
0.976746
 50
257.615007
 43
0.976745
210
0.0
220
0.0
230
0.9999999999999999
  0
INSERT
  8
1
  6
CONTINUOUS
 62
     7
  5
9B1
  2
ARROW2
 10
13161.95725
 20
3416.696583
 30
0.0
 41
0.976745
 42
0.976745
 50
279.95967
 43
0.976745
210
0.0
220
0.0
230
0.9999999999999999
  0
INSERT
  8
1
  6
CONTINUOUS
 62
     7
  5
9B2
  2
ARROW2
 10
13162.9015
 20
3416.593333
 30
0.0
 41
0.976745
 42
0.976745
 50
90.0
 43
0.976745
210
0.0
220
0.0
230
0.9999999999999999
  0
INSERT
  8
1
  6
CONTINUOUS
 62
     7
  5
9B3
  2
ARROW2
 10
13162.9015
 20
3415.48
 30
0.0
 41
0.976745
 42
0.976745
 50
270.0
 43
0.976745
210
0.0
220
0.0
230
0.9999999999999999
  0
INSERT
  8
1
  6
CONTINUOUS
 62
     7
  5
9B4
  2
ARROW2
 10
13164.10125
 20
3415.5675
 30
0.0
 41
0.97675
 42
0.97675
 50
185.718992
 43
0.976745
210
0.0
220
0.0
230
0.9999999999999999
  0
INSERT
  8
1
  6
CONTINUOUS
 62
     7
  5
9B5
  2
ARROW2
 10
13153.230083
 20
3409.229333
 30
0.0
 41
0.97674
 42
0.97674
 50
231.110935
 43
0.976745
210
0.0
220
0.0
230
0.9999999999999999
  0
INSERT
  8
1
  6
CONTINUOUS
 62
     7
  5
9B6
  2
ARROW2
 10
13156.159583
 20
3408.891083
 30
0.0
 41
0.976745
 42
0.976745
 50
270.0
 43
0.976745
210
0.0
220
0.0
230
0.9999999999999999
  0
INSERT
  8
1
  6
CONTINUOUS
 62
     7
  5
9B7
  2
ARROW2
 10
13156.159583
 20
3408.891083
 30
0.0
 41
0.976745
 42
0.976745
 50
270.0
 43
0.976745
210
0.0
220
0.0
230
0.9999999999999999
  0
INSERT
  8
1
  6
CONTINUOUS
 62
     7
  5
9B8
  2
ARROW2
 10
13156.159583
 20
3408.493083
 30
0.0
 41
0.976745
 42
0.976745
 50
90.0
 43
0.976745
210
0.0
220
0.0
230
0.9999999999999999
  0
INSERT
  8
1
  6
CONTINUOUS
 62
     7
  5
9B9
  2
ARROW2
 10
13156.159583
 20
3408.493083
 30
0.0
 41
0.976745
 42
0.976745
 50
90.0
 43
0.976745
210
0.0
220
0.0
230
0.9999999999999999
  0
INSERT
  8
1
  6
CONTINUOUS
 62
     7
  5
9BA
  2
ARROW2
 10
13157.37075
 20
3408.780667
 30
0.0
 41
0.976745
 42
0.976745
 50
270.0
 43
0.976745
210
0.0
220
0.0
230
0.9999999999999999
  0
INSERT
  8
1
  6
CONTINUOUS
 62
     7
  5
9BB
  2
ARROW2
 10
13157.37075
 20
3408.565167
 30
0.0
 41
0.976745
 42
0.976745
 50
90.0
 43
0.976745
210
0.0
220
0.0
230
0.9999999999999999
  0
INSERT
  8
1
  6
CONTINUOUS
 62
     7
  5
9BC
  2
ARROW2
 10
13158.205917
 20
3408.781833
 30
0.0
 41
0.976745
 42
0.976745
 50
270.0
 43
0.976745
210
0.0
220
0.0
230
0.9999999999999999
  0
INSERT
  8
1
  6
CONTINUOUS
 62
     7
  5
9BD
  2
ARROW2
 10
13158.205917
 20
3408.616333
 30
0.0
 41
0.976745
 42
0.976745
 50
90.0
 43
0.976745
210
0.0
220
0.0
230
0.9999999999999999
  0
INSERT
  8
1
  6
CONTINUOUS
 62
     7
  5
9BE
  2
ARROW2
 10
13159.236917
 20
3408.780667
 30
0.0
 41
0.976745
 42
0.976745
 50
270.0
 43
0.976745
210
0.0
220
0.0
230
0.9999999999999999
  0
INSERT
  8
1
  6
CONTINUOUS
 62
     7
  5
9BF
  2
ARROW2
 10
13159.236917
 20
3408.679167
 30
0.0
 41
0.976745
 42
0.976745
 50
90.0
 43
0.976745
210
0.0
220
0.0
230
0.9999999999999999
  0
INSERT
  8
1
  6
CONTINUOUS
 62
     7
  5
9C0
  2
ARROW2
 10
13160.0965
 20
3408.781833
 30
0.0
 41
0.976745
 42
0.976745
 50
270.0
 43
0.976745
210
0.0
220
0.0
230
0.9999999999999999
  0
INSERT
  8
1
  6
CONTINUOUS
 62
     7
  5
9C1
  2
ARROW2
 10
13160.0965
 20
3408.7305
 30
0.0
 41
0.976745
 42
0.976745
 50
90.0
 43
0.976745
210
0.0
220
0.0
230
0.9999999999999999
  0
INSERT
  8
1
  6
CONTINUOUS
 62
     7
  5
9C2
  2
ARROW2
 10
13159.185583
 20
3408.076917
 30
0.0
 41
1.95349
 42
1.95349
 43
1.95349
210
0.0
220
0.0
230
0.9999999999999999
  0
INSERT
  8
1
  6
CONTINUOUS
 62
     7
  5
9C3
  2
ARROW2
 10
13159.185583
 20
3410.061
 30
0.0
 41
1.95349
 42
1.95349
 43
1.95349
210
0.0
220
0.0
230
0.9999999999999999
  0
INSERT
  8
1
  6
CONTINUOUS
 62
     7
  5
9C4
  2
ARROW2
 10
13153.298417
 20
3407.101167
 30
0.0
 41
0.976745
 42
0.976745
 50
180.0
 43
0.976745
210
0.0
220
0.0
230
0.9999999999999999
  0
INSERT
  8
1
  6
CONTINUOUS
 62
     7
  5
9C5
  2
ARROW2
 10
13161.694
 20
3407.101167
 30
0.0
 41
0.976745
 42
0.976745
 43
0.976745
210
0.0
220
0.0
230
0.9999999999999999
  0
INSERT
  8
1
  6
CONTINUOUS
 62
     7
  5
9C6
  2
ARROW2
 10
13156.641167
 20
3410.58025
 30
0.0
 41
0.976745
 42
0.976745
 50
180.0
 43
0.976745
210
0.0
220
0.0
230
0.9999999999999999
  0
INSERT
  8
1
  6
CONTINUOUS
 62
     7
  5
9C7
  2
ARROW2
 10
13161.400417
 20
3410.58025
 30
0.0
 41
0.976745
 42
0.976745
 43
0.976745
210
0.0
220
0.0
230
0.9999999999999999
  0
INSERT
  8
1
  6
CONTINUOUS
 62
     7
  5
9C8
  2
ARROW2
 10
13161.400417
 20
3410.580917
 30
0.0
 41
0.976745
 42
0.976745
 50
180.0
 43
0.976745
210
0.0
220
0.0
230
0.9999999999999999
  0
INSERT
  8
1
  6
CONTINUOUS
 62
     7
  5
9C9
  2
ARROW2
 10
13169.031917
 20
3410.580917
 30
0.0
 41
0.976745
 42
0.976745
 43
0.976745
210
0.0
220
0.0
230
0.9999999999999999
  0
INSERT
  8
1
  6
CONTINUOUS
 62
     7
  5
9CA
  2
ARROW2
 10
13169.385333
 20
3410.580917
 30
0.0
 41
0.976745
 42
0.976745
 43
0.976745
210
0.0
220
0.0
230
0.9999999999999999
  0
INSERT
  8
1
  6
CONTINUOUS
 62
     7
  5
9CB
  2
ARROW2
 10
13169.576917
 20
3410.580917
 30
0.0
 41
0.976745
 42
0.976745
 43
0.976745
210
0.0
220
0.0
230
0.9999999999999999
  0
INSERT
  8
1
  6
CONTINUOUS
 62
     7
  5
9CC
  2
ARROW2
 10
13167.148833
 20
3409.657333
 30
0.0
 41
1.95349
 42
1.95349
 43
1.95349
210
0.0
220
0.0
230
0.9999999999999999
  0
INSERT
  8
1
  6
CONTINUOUS
 62
     7
  5
9CD
  2
ARROW2
 10
13167.148833
 20
3407.673167
 30
0.0
 41
1.95349
 42
1.95349
 43
1.95349
210
0.0
220
0.0
230
0.9999999999999999
  0
LINE
  8
3
  6
CONTINUOUS
 62
   241
  5
9CE
 10
13151.948083
 20
3405.91475
 30
0.0
 11
13150.637917
 21
3405.91475
 31
0.0
  0
LINE
  8
3
  6
CONTINUOUS
 62
   241
  5
9CF
 10
13152.675167
 20
3404.486
 30
0.0
 11
13151.948083
 21
3405.91475
 31
0.0
  0
TEXT
  8
3
  6
CONTINUOUS
 62
   241
  5
9D0
 10
13150.747583
 20
3406.014167
 30
0.0
 40
0.195333
  1
Guardrail
  7
txt
 72
     4
 11
13151.587417
 21
3406.111833
 31
0.0
210
0.0
220
0.0
230
1.0
  0
TEXT
  8
3
  6
CONTINUOUS
 62
   241
  5
9D1
 10
13150.673
 20
3405.623417
 30
0.0
 40
0.195333
  1
End Shoe
  7
txt
 72
     4
 11
13151.415917
 21
3405.721083
 31
0.0
210
0.0
220
0.0
230
1.0
  0
INSERT
  8
1
  6
CONTINUOUS
 62
     7
  5
9D2
  2
ARROW2
 10
13152.557917
 20
3404.192167
 30
0.0
 41
0.976745
 42
0.976745
 50
90.0
 43
0.976745
210
0.0
220
0.0
230
0.9999999999999999
  0
INSERT
  8
1
  6
CONTINUOUS
 62
     7
  5
9D3
  2
ARROW2
 10
13152.675167
 20
3404.486
 30
0.0
 41
0.976741
 42
0.976741
 50
296.966594
 43
0.976745
210
0.0
220
0.0
230
0.9999999999999999
  0
INSERT
  8
1
  6
CONTINUOUS
 62
     7
  5
9D4
  2
ARROW2
 10
13152.675167
 20
3404.486
 30
0.0
 41
0.976741
 42
0.976741
 50
296.966594
 43
0.976745
210
0.0
220
0.0
230
0.9999999999999999
  0
INSERT
  8
1
  6
CONTINUOUS
 62
     7
  5
9D5
  2
ARROW2
 10
13152.773333
 20
3405.18925
 30
0.0
 41
0.976745
 42
0.976745
 50
180.0
 43
0.976745
210
0.0
220
0.0
230
0.9999999999999999
  0
INSERT
  8
1
  6
CONTINUOUS
 62
     7
  5
9D6
  2
ARROW2
 10
13156.931167
 20
3405.18925
 30
0.0
 41
0.976745
 42
0.976745
 43
0.976745
210
0.0
220
0.0
230
0.9999999999999999
  0
INSERT
  8
1
  6
CONTINUOUS
 62
     7
  5
9D7
  2
ARROW2
 10
13152.557917
 20
3403.060667
 30
0.0
 41
0.976745
 42
0.976745
 50
270.0
 43
0.976745
210
0.0
220
0.0
230
0.9999999999999999
  0
INSERT
  8
1
  6
CONTINUOUS
 62
     7
  5
9D8
  2
ARROW2
 10
13154.490083
 20
3402.641333
 30
0.0
 41
0.976745
 42
0.976745
 50
180.0
 43
0.976745
210
0.0
220
0.0
230
0.9999999999999999
  0
INSERT
  8
1
  6
CONTINUOUS
 62
     7
  5
9D9
  2
ARROW2
 10
13156.931833
 20
3402.641333
 30
0.0
 41
0.976745
 42
0.976745
 43
0.976745
210
0.0
220
0.0
230
0.9999999999999999
  0
INSERT
  8
1
  6
CONTINUOUS
 62
     7
  5
9DA
  2
ARROW2
 10
13156.728583
 20
3403.5025
 30
0.0
 41
0.976746
 42
0.976746
 50
83.617064
 43
0.976745
210
0.0
220
0.0
230
0.9999999999999999
  0
INSERT
  8
1
  6
CONTINUOUS
 62
     7
  5
9DB
  2
ARROW2
 10
13157.1525
 20
3403.37
 30
0.0
 41
0.976747
 42
0.976747
 50
86.485551
 43
0.976745
210
0.0
220
0.0
230
0.9999999999999999
  0
INSERT
  8
1
  6
CONTINUOUS
 62
     7
  5
9DC
  2
ARROW2
 10
13157.661417
 20
3404.238917
 30
0.0
 41
0.97675
 42
0.97675
 50
252.232174
 43
0.976745
210
0.0
220
0.0
230
0.9999999999999999
  0
LINE
  8
3
  6
CONTINUOUS
 62
   241
  5
9DD
 10
13172.828417
 20
3403.710917
 30
0.0
 11
13172.828417
 21
3405.695
 31
0.0
  0
LINE
  8
3
  6
CONTINUOUS
 62
   241
  5
9DE
 10
13172.828417
 20
3405.695
 30
0.0
 11
13175.752
 21
3405.695
 31
0.0
  0
LINE
  8
3
  6
CONTINUOUS
 62
   241
  5
9DF
 10
13172.828417
 20
3403.710917
 30
0.0
 11
13175.752
 21
3403.710917
 31
0.0
  0
LINE
  8
3
  6
CONTINUOUS
 62
   241
  5
9E0
 10
13175.752
 20
3403.710917
 30
0.0
 11
13175.752
 21
3405.695
 31
0.0
  0
LINE
  8
3
  6
CONTINUOUS
 62
   241
  5
9E1
 10
13176.786
 20
3403.710917
 30
0.0
 11
13176.786
 21
3405.695
 31
0.0
  0
LINE
  8
3
  6
CONTINUOUS
 62
   241
  5
9E2
 10
13177.189167
 20
3403.710917
 30
0.0
 11
13177.189167
 21
3405.695
 31
0.0
  0
LINE
  8
3
  6
CONTINUOUS
 62
   241
  5
9E3
 10
13176.786
 20
3405.695
 30
0.0
 11
13177.189167
 21
3405.695
 31
0.0
  0
LINE
  8
3
  6
CONTINUOUS
 62
   241
  5
9E4
 10
13176.786
 20
3403.710917
 30
0.0
 11
13177.189167
 21
3403.710917
 31
0.0
  0
LINE
  8
3
  6
CONTINUOUS
 62
   241
  5
9E5
 10
13172.1945
 20
3403.710917
 30
0.0
 11
13172.1945
 21
3405.695
 31
0.0
  0
LINE
  8
3
  6
CONTINUOUS
 62
   241
  5
9E6
 10
13172.828417
 20
3405.792583
 30
0.0
 11
13172.828417
 21
3406.4
 31
0.0
  0
LINE
  8
3
  6
CONTINUOUS
 62
   241
  5
9E7
 10
13175.752
 20
3405.792583
 30
0.0
 11
13175.752
 21
3406.4
 31
0.0
  0
LINE
  8
3
  6
CONTINUOUS
 62
   241
  5
9E8
 10
13172.828417
 20
3406.27975
 30
0.0
 11
13175.752
 21
3406.27975
 31
0.0
  0
LINE
  8
3
  6
CONTINUOUS
 62
   241
  5
9E9
 10
13172.09675
 20
3403.710917
 30
0.0
 11
13172.73075
 21
3403.710917
 31
0.0
  0
LINE
  8
3
  6
CONTINUOUS
 62
   241
  5
9EA
 10
13172.09675
 20
3405.695
 30
0.0
 11
13172.73075
 21
3405.695
 31
0.0
  0
LINE
  8
3
  6
CONTINUOUS
 62
   241
  5
9EB
 10
13174.290167
 20
3402.810083
 30
0.0
 11
13175.752
 21
3402.810083
 31
0.0
  0
LINE
  8
3
  6
CONTINUOUS
 62
   241
  5
9EC
 10
13175.752
 20
3402.7125
 30
0.0
 11
13175.752
 21
3403.613083
 31
0.0
  0
LINE
  8
3
  6
CONTINUOUS
 62
   241
  5
9ED
 10
13176.299667
 20
3404.70275
 30
0.0
 11
13177.6755
 21
3404.70275
 31
0.0
  0
LINE
  8
3
  6
CONTINUOUS
 62
   241
  5
9EE
 10
13177.6755
 20
3403.710917
 30
0.0
 11
13177.286667
 21
3403.710917
 31
0.0
  0
LINE
  8
3
  6
CONTINUOUS
 62
   241
  5
9EF
 10
13176.786
 20
3402.7125
 30
0.0
 11
13176.786
 21
3403.613083
 31
0.0
  0
LINE
  8
3
  6
CONTINUOUS
 62
   241
  5
9F0
 10
13177.189167
 20
3402.7125
 30
0.0
 11
13177.189167
 21
3403.613083
 31
0.0
  0
INSERT
  8
1
  6
CONTINUOUS
 62
     7
  5
9F1
  2
ARROW2
 10
13172.828417
 20
3406.27975
 30
0.0
 41
0.976745
 42
0.976745
 50
180.0
 43
0.976745
210
0.0
220
0.0
230
0.9999999999999999
  0
INSERT
  8
1
  6
CONTINUOUS
 62
     7
  5
9F2
  2
ARROW2
 10
13175.752
 20
3406.27975
 30
0.0
 41
0.976745
 42
0.976745
 43
0.976745
210
0.0
220
0.0
230
0.9999999999999999
  0
INSERT
  8
1
  6
CONTINUOUS
 62
     7
  5
9F3
  2
ARROW2
 10
13172.1945
 20
3405.695
 30
0.0
 41
0.976745
 42
0.976745
 50
90.0
 43
0.976745
210
0.0
220
0.0
230
0.9999999999999999
  0
INSERT
  8
1
  6
CONTINUOUS
 62
     7
  5
9F4
  2
ARROW2
 10
13172.1945
 20
3403.710917
 30
0.0
 41
0.976745
 42
0.976745
 50
270.0
 43
0.976745
210
0.0
220
0.0
230
0.9999999999999999
  0
INSERT
  8
1
  6
CONTINUOUS
 62
     7
  5
9F5
  2
ARROW2
 10
13174.290167
 20
3402.810083
 30
0.0
 41
0.976745
 42
0.976745
 50
180.0
 43
0.976745
210
0.0
220
0.0
230
0.9999999999999999
  0
INSERT
  8
1
  6
CONTINUOUS
 62
     7
  5
9F6
  2
ARROW2
 10
13175.752
 20
3402.810083
 30
0.0
 41
0.976745
 42
0.976745
 43
0.976745
210
0.0
220
0.0
230
0.9999999999999999
  0
LINE
  8
3
  6
CONTINUOUS
 62
   241
  5
9F7
 10
13176.300583
 20
3402.810083
 30
0.0
 11
13176.786
 21
3402.810083
 31
0.0
  0
LINE
  8
3
  6
CONTINUOUS
 62
   241
  5
9F8
 10
13177.189167
 20
3402.810083
 30
0.0
 11
13180.069167
 21
3402.810083
 31
0.0
  0
INSERT
  8
1
  6
CONTINUOUS
 62
     7
  5
9F9
  2
ARROW2
 10
13176.786
 20
3402.810083
 30
0.0
 41
0.976745
 42
0.976745
 43
0.976745
210
0.0
220
0.0
230
0.9999999999999999
  0
INSERT
  8
1
  6
CONTINUOUS
 62
     7
  5
9FA
  2
ARROW2
 10
13177.189167
 20
3402.810083
 30
0.0
 41
0.976745
 42
0.976745
 50
180.0
 43
0.976745
210
0.0
220
0.0
230
0.9999999999999999
  0
LINE
  8
1
  6
CONTINUOUS
 62
   241
  5
9FB
 10
13174.125333
 20
3404.359333
 30
0.0
 11
13174.454917
 21
3404.359333
 31
0.0
  0
LINE
  8
1
  6
CONTINUOUS
 62
   241
  5
9FC
 10
13174.125333
 20
3405.046417
 30
0.0
 11
13174.454917
 21
3405.046417
 31
0.0
  0
ARC
  8
1
  6
CONTINUOUS
 62
   241
  5
9FD
 10
-13174.433155
 20
3404.702898
 30
0.0
 40
0.34425
 50
93.643224
 51
266.356774
210
0.0
220
0.0
230
-1.0
  0
ARC
  8
1
  6
CONTINUOUS
 62
   241
  5
9FE
 10
13174.147171
 20
3404.702898
 30
0.0
 40
0.34425
 50
93.643224
 51
266.356774
210
0.0
220
0.0
230
1.0
  0
LINE
  8
3
  6
CONTINUOUS
 62
   241
  5
9FF
 10
13172.540333
 20
3404.70275
 30
0.0
 11
13173.97575
 21
3404.70275
 31
0.0
  0
LINE
  8
3
  6
CONTINUOUS
 62
   241
  5
A00
 10
13174.617917
 20
3404.70275
 30
0.0
 11
13175.93575
 21
3404.70275
 31
0.0
  0
LINE
  8
3
  6
CONTINUOUS
 62
   241
  5
A01
 10
13174.290167
 20
3404.948
 30
0.0
 11
13174.290167
 21
3405.924
 31
0.0
  0
LINE
  8
3
  6
CONTINUOUS
 62
   241
  5
A02
 10
13174.290167
 20
3404.584417
 30
0.0
 11
13174.290167
 21
3404.825917
 31
0.0
  0
LINE
  8
3
  6
CONTINUOUS
 62
   241
  5
A03
 10
13174.162417
 20
3404.70275
 30
0.0
 11
13174.41875
 21
3404.70275
 31
0.0
  0
LINE
  8
3
  6
CONTINUOUS
 62
   241
  5
A04
 10
13177.57775
 20
3403.710917
 30
0.0
 11
13177.57775
 21
3404.70275
 31
0.0
  0
INSERT
  8
1
  6
CONTINUOUS
 62
     7
  5
A05
  2
ARROW2
 10
13177.57775
 20
3404.70275
 30
0.0
 41
0.976745
 42
0.976745
 50
90.0
 43
0.976745
210
0.0
220
0.0
230
0.9999999999999999
  0
INSERT
  8
1
  6
CONTINUOUS
 62
     7
  5
A06
  2
ARROW2
 10
13177.57775
 20
3403.710917
 30
0.0
 41
0.976745
 42
0.976745
 50
270.0
 43
0.976745
210
0.0
220
0.0
230
0.9999999999999999
  0
LINE
  8
1
  6
DASHED
 62
   241
  5
A07
 10
13176.786
 20
3405.046417
 30
0.0
 11
13177.189167
 21
3405.046417
 31
0.0
  0
LINE
  8
1
  6
DASHED
 62
   241
  5
A08
 10
13176.786
 20
3404.359333
 30
0.0
 11
13177.189167
 21
3404.359333
 31
0.0
  0
LINE
  8
3
  6
CONTINUOUS
 62
   241
  5
A09
 10
13174.290167
 20
3402.7125
 30
0.0
 11
13174.290167
 21
3403.613083
 31
0.0
  0
LINE
  8
3
  6
CONTINUOUS
 62
   241
  5
A0A
 10
13174.290167
 20
3403.710917
 30
0.0
 11
13174.290167
 21
3404.4575
 31
0.0
  0
INSERT
  8
1
  6
CONTINUOUS
 62
     7
  5
A0B
  2
ARROW2
 10
13153.453917
 20
3416.72525
 30
0.0
 41
0.976741
 42
0.976741
 50
227.730464
 43
0.976745
210
0.0
220
0.0
230
0.9999999999999999
  0
LINE
  8
3
  6
CONTINUOUS
 62
   241
  5
A0C
 10
13153.854917
 20
3415.146333
 30
0.0
 11
13154.061333
 21
3415.146333
 31
0.0
  0
LINE
  8
1
  6
CONTINUOUS
 62
   241
  5
A0D
 10
13153.34875
 20
3412.341667
 30
0.0
 11
13155.9675
 21
3412.341667
 31
0.0
  0
LINE
  8
1
  6
CONTINUOUS
 62
   241
  5
A0E
 10
13161.858167
 20
3412.255
 30
0.0
 11
13164.586417
 21
3412.255
 31
0.0
  0
POINT
  8
1
  6
CONTINUOUS
 62
   241
  5
A0F
 10
13164.586417
 20
3412.255
 30
0.0
  0
TEXT
  8
3
  6
CONTINUOUS
 62
   241
  5
A10
 10
13164.36125
 20
3415.69375
 30
0.0
 40
0.195333
  1
Slope=10:1
 50
5.389674
  7
txt
 11
13164.352076
 21
3415.790985
 31
0.0
210
0.0
220
0.0
230
1.0
 73
     2
  0
TEXT
  8
3
  6
CONTINUOUS
 62
   241
  5
A11
 10
13164.397917
 20
3415.304667
 30
0.0
 40
0.195333
  1
or flatter
 50
5.389674
  7
txt
 11
13164.388743
 21
3415.401902
 31
0.0
210
0.0
220
0.0
230
1.0
 73
     2
  0
LINE
  8
3
  6
CONTINUOUS
 62
   241
  5
A12
 10
13167.954083
 20
3416.629167
 30
0.0
 11
13167.954083
 21
3416.1615
 31
0.0
  0
LINE
  8
3
  6
CONTINUOUS
 62
   241
  5
A13
 10
13167.954083
 20
3416.1615
 30
0.0
 11
13167.954083
 21
3415.461917
 31
0.0
  0
LINE
  8
3
  6
CONTINUOUS
 62
   241
  5
A14
 10
13167.954083
 20
3415.461917
 30
0.0
 11
13167.954083
 21
3414.778167
 31
0.0
  0
LINE
  8
3
  6
CONTINUOUS
 62
   241
  5
A15
 10
13167.954083
 20
3414.778167
 30
0.0
 11
13167.954083
 21
3414.119
 31
0.0
  0
LINE
  8
3
  6
CONTINUOUS
 62
   241
  5
A16
 10
13167.954083
 20
3414.119
 30
0.0
 11
13167.954083
 21
3413.449167
 31
0.0
  0
LINE
  8
1
  6
CONTINUOUS
 62
   241
  5
A17
 10
13173.501833
 20
3416.941167
 30
0.0
 11
13174.2585
 21
3416.941167
 31
0.0
  0
TEXT
  8
3
  6
CONTINUOUS
 62
   241
  5
A18
 10
13173.489833
 20
3417.014833
 30
0.0
 40
0.175833
  1
NOTES
  7
txt
 11
13173.489833
 21
3417.10275
 31
0.0
210
0.0
220
0.0
230
1.0
 73
     2
  0
TEXT
  8
3
  6
CONTINUOUS
 62
   241
  5
A19
 10
13173.83775
 20
3413.286583
 30
0.0
 40
0.175833
  1
through 4 are offset drilled and secured with
  7
txt
 11
13173.83775
 21
3413.3745
 31
0.0
210
0.0
220
0.0
230
1.0
 73
     2
  0
TEXT
  8
3
  6
CONTINUOUS
 62
   241
  5
A1A
 10
13173.857667
 20
3414.432833
 30
0.0
 40
0.175833
  1
Posts 1-6 require an additional hole to attach
  7
txt
 11
13173.857667
 21
3414.52075
 31
0.0
210
0.0
220
0.0
230
1.0
 73
     2
  0
TEXT
  8
3
  6
CONTINUOUS
 62
   241
  5
A1B
 10
13173.83775
 20
3414.143583
 30
0.0
 40
0.175833
  1
lower blocks and/or rubrail.
  7
txt
 11
13173.83775
 21
3414.2315
 31
0.0
210
0.0
220
0.0
230
1.0
 73
     2
  0
TEXT
  8
3
  6
CONTINUOUS
 62
   241
  5
A1C
 10
13173.857667
 20
3416.4455
 30
0.0
 40
0.175833
  1
This guardrail transition is appropriate for
  7
txt
 11
13173.857667
 21
3416.533417
 31
0.0
210
0.0
220
0.0
230
1.0
 73
     2
  0
TEXT
  8
3
  6
CONTINUOUS
 62
   241
  5
A1D
 10
13173.857667
 20
3416.159917
 30
0.0
 40
0.175833
  1
connection to a concrete safety shape.
  7
txt
 11
13173.857667
 21
3416.247833
 31
0.0
210
0.0
220
0.0
230
1.0
 73
     2
  0
TEXT
  8
3
  6
CONTINUOUS
 62
   241
  5
A1E
 10
13173.83775
 20
3410.13275
 30
0.0
 40
0.175833
  1
washer.
  7
txt
 11
13173.83775
 21
3410.220667
 31
0.0
210
0.0
220
0.0
230
1.0
 73
     2
  0
INSERT
  8
1
  6
CONTINUOUS
 62
     7
  5
A1F
  2
ARROW2
 10
13156.569917
 20
3408.504583
 30
0.0
 41
0.976742
 42
0.976742
 50
54.060409
 43
0.976745
210
0.0
220
0.0
230
0.9999999999999999
  0
LINE
  8
3
  6
CONTINUOUS
 62
   241
  5
A20
 10
13155.9535
 20
3409.858917
 30
0.0
 11
13156.159583
 21
3409.858917
 31
0.0
  0
CIRCLE
  8
1
  6
CONTINUOUS
 62
   241
  5
A21
 10
13157.214338
 20
3409.256399
 30
0.0
 40
0.176216
210
0.0
220
0.0
230
1.0
  0
CIRCLE
  8
1
  6
CONTINUOUS
 62
   241
  5
A22
 10
13157.999821
 20
3409.256399
 30
0.0
 40
0.176216
210
0.0
220
0.0
230
1.0
  0
CIRCLE
  8
1
  6
CONTINUOUS
 62
   241
  5
A23
 10
13158.923318
 20
3409.256399
 30
0.0
 40
0.176216
210
0.0
220
0.0
230
1.0
  0
CIRCLE
  8
1
  6
CONTINUOUS
 62
   241
  5
A24
 10
13159.846815
 20
3409.256399
 30
0.0
 40
0.176216
210
0.0
220
0.0
230
1.0
  0
TEXT
  8
3
  6
CONTINUOUS
 62
   241
  5
A25
 10
13167.204583
 20
3409.52475
 30
0.0
 40
0.293
  1
B
  7
txt
 11
13167.204583
 21
3409.67125
 31
0.0
210
0.0
220
0.0
230
1.0
 73
     2
  0
TEXT
  8
3
  6
CONTINUOUS
 62
   241
  5
A26
 10
13167.188083
 20
3407.528583
 30
0.0
 40
0.293
  1
B
  7
txt
 11
13167.188083
 21
3407.675083
 31
0.0
210
0.0
220
0.0
230
1.0
 73
     2
  0
LINE
  8
1
  6
CONTINUOUS
 62
   241
  5
A27
 10
13162.153583
 20
3406.411583
 30
0.0
 11
13163.237167
 21
3406.411583
 31
0.0
  0
TEXT
  8
3
  6
CONTINUOUS
 62
   241
  5
A28
 10
13177.632167
 20
3402.94775
 30
0.0
 40
0.195333
  1
3/16" (approximate
  7
txt
 72
     4
 11
13179.344167
 21
3403.045417
 31
0.0
210
0.0
220
0.0
230
1.0
  0
TEXT
  8
3
  6
CONTINUOUS
 62
   241
  5
A29
 10
13177.447167
 20
3402.557167
 30
0.0
 40
0.195333
  1
base metal thickness)
  7
txt
 72
     4
 11
13179.449833
 21
3402.654833
 31
0.0
210
0.0
220
0.0
230
1.0
  0
LINE
  8
3
  6
CONTINUOUS
 62
   241
  5
A2A
 10
13175.31825
 20
3406.743917
 30
0.0
 11
13177.631667
 21
3406.743917
 31
0.0
  0
INSERT
  8
1
  6
CONTINUOUS
 62
   241
  5
A2B
  2
ARROW2
 10
13174.454917
 20
3405.046417
 30
0.0
 41
0.97675
 42
0.97675
 50
243.04929
 43
0.976745
210
0.0
220
0.0
230
0.9999999999999999
  0
LINE
  8
3
  6
CONTINUOUS
 62
   241
  5
A2C
 10
13174.454917
 20
3405.046417
 30
0.0
 11
13175.0365
 21
3406.190083
 31
0.0
  0
LINE
  8
3
  6
CONTINUOUS
 62
   241
  5
A2D
 10
13175.123333
 20
3406.360833
 30
0.0
 11
13175.31825
 21
3406.743917
 31
0.0
  0
TEXT
  8
3
  6
CONTINUOUS
 62
   241
  5
A2E
 10
13171.938833
 20
3402.01925
 30
0.0
 40
0.293
  1
RECTANGULAR PLATE WASHER DETAIL
  7
txt
 11
13171.938833
 21
3402.16575
 31
0.0
210
0.0
220
0.0
230
1.0
 73
     2
  0
LINE
  8
1
  6
CONTINUOUS
 62
   241
  5
A2F
 10
13171.86975
 20
3401.892333
 30
0.0
 11
13179.711833
 21
3401.892333
 31
0.0
  0
LINE
  8
3
  6
CONTINUOUS
 62
   241
  5
A30
 10
13152.728
 20
3402.684167
 30
0.0
 11
13152.557917
 21
3402.684167
 31
0.0
  0
LINE
  8
1
  6
CONTINUOUS
 62
   241
  5
A31
 10
13161.7085
 20
3399.648083
 30
0.0
 11
13163.845667
 21
3399.648083
 31
0.0
  0
LINE
  8
3
  6
CONTINUOUS
 62
   241
  5
A32
 10
13156.728583
 20
3403.5025
 30
0.0
 11
13156.638667
 21
3402.69925
 31
0.0
  0
LINE
  8
3
  6
CONTINUOUS
 62
   241
  5
A33
 10
13156.625083
 20
3402.577917
 30
0.0
 11
13156.428083
 21
3400.818
 31
0.0
  0
TEXT
  8
3
  6
CONTINUOUS
 62
   241
  5
A34
 10
13153.859917
 20
3414.195167
 30
0.0
 40
0.195333
  1
5/8" carriage
  7
txt
 11
13153.859917
 21
3414.292833
 31
0.0
210
0.0
220
0.0
230
1.0
 73
     2
  0
TEXT
  8
3
  6
CONTINUOUS
 62
   241
  5
A35
 10
13153.859917
 20
3413.8045
 30
0.0
 40
0.195333
  1
bolt, nut and washer
  7
txt
 11
13153.859917
 21
3413.902167
 31
0.0
210
0.0
220
0.0
230
1.0
 73
     2
  0
TEXT
  8
3
  6
CONTINUOUS
 62
   241
  5
A36
 10
13170.128083
 20
3415.706333
 30
0.0
 40
0.195333
  1
4 1/2"
  7
txt
 11
13170.128083
 21
3415.804
 31
0.0
210
0.0
220
0.0
230
1.0
 73
     2
  0
TEXT
  8
3
  6
CONTINUOUS
 62
   241
  5
A37
 10
13170.14725
 20
3415.031917
 30
0.0
 40
0.195333
  1
3 1/2"
  7
txt
 11
13170.14725
 21
3415.129583
 31
0.0
210
0.0
220
0.0
230
1.0
 73
     2
  0
TEXT
  8
3
  6
CONTINUOUS
 62
   241
  5
A38
 10
13174.729417
 20
3402.908667
 30
0.0
 40
0.195333
  1
1 1/2"
  7
txt
 72
     4
 11
13175.2785
 21
3403.006333
 31
0.0
210
0.0
220
0.0
230
1.0
  0
TEXT
  8
3
  6
CONTINUOUS
 62
   241
  5
A39
 10
13150.884917
 20
3410.906083
 30
0.0
 40
0.195333
  1
7/8" H.S.  hex bolts
  7
txt
 11
13150.884917
 21
3411.00375
 31
0.0
210
0.0
220
0.0
230
1.0
 73
     2
  0
TEXT
  8
3
  6
CONTINUOUS
 62
   241
  5
A3A
 10
13150.884917
 20
3410.515417
 30
0.0
 40
0.195333
  1
with 1/4" bearing plate
  7
txt
 11
13150.884917
 21
3410.613083
 31
0.0
210
0.0
220
0.0
230
1.0
 73
     2
  0
TEXT
  8
3
  6
CONTINUOUS
 62
   241
  5
A3B
 10
13155.40375
 20
3402.381667
 30
0.0
 40
0.195333
  1
4' - 0"
  7
txt
 72
     4
 11
13156.04975
 21
3402.479333
 31
0.0
210
0.0
220
0.0
230
1.0
  0
TEXT
  8
1
  6
CONTINUOUS
 62
   140
  5
A3C
 10
13178.717333
 20
3417.6505
 30
0.0
 40
0.097667
  1
          
  7
ROMANS
 72
     4
 11
13179.189417
 21
3417.699333
 31
0.0
210
0.0
220
0.0
230
1.0
  0
TEXT
  8
1
  6
CONTINUOUS
 62
   140
  5
A3D
 10
13178.721
 20
3417.3545
 30
0.0
 40
0.097667
  1
          
  7
ROMANS
 72
     4
 11
13179.193083
 21
3417.403333
 31
0.0
210
0.0
220
0.0
230
1.0
  0
TEXT
  8
3
  6
CONTINUOUS
 62
   241
  5
A3E
 10
13154.110833
 20
3415.071
 30
0.0
 40
0.195333
  1
9"
  7
txt
 11
13154.110833
 21
3415.168667
 31
0.0
210
0.0
220
0.0
230
1.0
 73
     2
  0
TEXT
  8
3
  6
CONTINUOUS
 62
   241
  5
A3F
 10
13162.048417
 20
3417.562
 30
0.0
 40
0.195333
  1
W6 x 9.0 steel post
  7
txt
 11
13162.048417
 21
3417.659667
 31
0.0
210
0.0
220
0.0
230
1.0
 73
     2
  0
TEXT
  8
3
  6
CONTINUOUS
 62
   241
  5
A40
 10
13162.048417
 20
3417.17125
 30
0.0
 40
0.195333
  1
and block
  7
txt
 11
13162.048417
 21
3417.268917
 31
0.0
210
0.0
220
0.0
230
1.0
 73
     2
  0
TEXT
  8
3
  6
CONTINUOUS
 62
   241
  5
A41
 10
13169.117417
 20
3416.7715
 30
0.0
 40
0.195333
  1
7" X 4"
  7
txt
 11
13169.117417
 21
3416.869167
 31
0.0
210
0.0
220
0.0
230
1.0
 73
     2
  0
TEXT
  8
3
  6
CONTINUOUS
 62
   241
  5
A42
 10
13170.33225
 20
3414.350917
 30
0.0
 40
0.195333
  1
2"
  7
txt
 11
13170.33225
 21
3414.448583
 31
0.0
210
0.0
220
0.0
230
1.0
 73
     2
  0
TEXT
  8
3
  6
CONTINUOUS
 62
   241
  5
A43
 10
13170.348
 20
3413.686333
 30
0.0
 40
0.195333
  1
1"
  7
txt
 11
13170.348
 21
3413.784
 31
0.0
210
0.0
220
0.0
230
1.0
 73
     2
  0
TEXT
  8
3
  6
CONTINUOUS
 62
   241
  5
A44
 10
13155.658
 20
3409.772
 30
0.0
 40
0.195333
  1
7"
  7
txt
 11
13155.658
 21
3409.869667
 31
0.0
210
0.0
220
0.0
230
1.0
 73
     2
  0
TEXT
  8
3
  6
CONTINUOUS
 62
   241
  5
A45
 10
13154.169667
 20
3405.286667
 30
0.0
 40
0.195333
  1
6' - 9 3/4"
  7
txt
 72
     4
 11
13155.203333
 21
3405.384333
 31
0.0
210
0.0
220
0.0
230
1.0
  0
TEXT
  8
3
  6
CONTINUOUS
 62
   241
  5
A46
 10
13157.4555
 20
3410.67025
 30
0.0
 40
0.195333
  1
5 spaces @ 1' - 6 3/4"
  7
txt
 11
13157.4555
 21
3410.767917
 31
0.0
210
0.0
220
0.0
230
1.0
 73
     2
  0
TEXT
  8
3
  6
CONTINUOUS
 62
   241
  5
A47
 10
13163.62625
 20
3410.685667
 30
0.0
 40
0.195333
  1
4 spaces @ 3' - 1 1/2"
  7
txt
 72
     4
 11
13165.725833
 21
3410.783333
 31
0.0
210
0.0
220
0.0
230
1.0
  0
TEXT
  8
3
  6
CONTINUOUS
 62
   241
  5
A48
 10
13154.295833
 20
3416.193583
 30
0.0
 40
0.195333
  1
1' - 10 3/8"
  7
txt
 11
13154.295833
 21
3416.29125
 31
0.0
210
0.0
220
0.0
230
1.0
 73
     2
  0
TEXT
  8
3
  6
CONTINUOUS
 62
   241
  5
A49
 10
13163.011333
 20
3416.016333
 30
0.0
 40
0.195333
  1
1' - 10 3/8"
  7
txt
 11
13163.011333
 21
3416.114
 31
0.0
210
0.0
220
0.0
230
1.0
 73
     2
  0
TEXT
  8
3
  6
CONTINUOUS
 62
   241
  5
A4A
 10
13152.7805
 20
3402.594583
 30
0.0
 40
0.195333
  1
1' - 10 3/8"
  7
txt
 72
     4
 11
13153.911
 21
3402.69225
 31
0.0
210
0.0
220
0.0
230
1.0
  0
TEXT
  8
3
  6
CONTINUOUS
 62
   241
  5
A4B
 10
13153.701667
 20
3400.922583
 30
0.0
 40
0.195333
  1
Block is Attached By
  7
txt
 72
     4
 11
13155.607417
 21
3401.02025
 31
0.0
210
0.0
220
0.0
230
1.0
  0
TEXT
  8
3
  6
CONTINUOUS
 62
   241
  5
A4C
 10
13154.310167
 20
3400.53175
 30
0.0
 40
0.195333
  1
A 3/8" Bolt
  7
txt
 72
     4
 11
13155.343833
 21
3400.629417
 31
0.0
210
0.0
220
0.0
230
1.0
  0
TEXT
  8
3
  6
DASHED
 62
   241
  5
A4D
 10
13151.96475
 20
3399.8535
 30
0.0
 40
0.195333
  1
(C6 X 8.2 Rub Rail And Splice Plate)
  7
txt
 72
     4
 11
13155.421
 21
3399.951167
 31
0.0
210
0.0
220
0.0
230
1.0
  0
TEXT
  8
3
  6
CONTINUOUS
 62
   241
  5
A4E
 10
13158.181417
 20
3405.7745
 30
0.0
 40
0.195333
  1
5/8" Dia. Block Bolt,
  7
txt
 11
13158.181417
 21
3405.872167
 31
0.0
210
0.0
220
0.0
230
1.0
 73
     2
  0
TEXT
  8
3
  6
CONTINUOUS
 62
   241
  5
A4F
 10
13158.181417
 20
3405.383833
 30
0.0
 40
0.195333
  1
2" Long, with Circular
  7
txt
 11
13158.181417
 21
3405.4815
 31
0.0
210
0.0
220
0.0
230
1.0
 73
     2
  0
TEXT
  8
3
  6
CONTINUOUS
 62
   241
  5
A50
 10
13158.181417
 20
3404.993083
 30
0.0
 40
0.195333
  1
Washer
  7
txt
 11
13158.181417
 21
3405.09075
 31
0.0
210
0.0
220
0.0
230
1.0
 73
     2
  0
TEXT
  8
3
  6
CONTINUOUS
 62
   241
  5
A51
 10
13171.481417
 20
3404.605833
 30
0.0
 40
0.195333
  1
1 3/4"
  7
txt
 72
     4
 11
13172.0305
 21
3404.7035
 31
0.0
210
0.0
220
0.0
230
1.0
  0
TEXT
  8
3
  6
CONTINUOUS
 62
   241
  5
A52
 10
13174.232083
 20
3406.341833
 30
0.0
 40
0.195333
  1
3"
  7
txt
 72
     4
 11
13174.393583
 21
3406.4395
 31
0.0
210
0.0
220
0.0
230
1.0
  0
TEXT
  8
3
  6
CONTINUOUS
 62
   241
  5
A53
 10
13176.254417
 20
3406.86225
 30
0.0
 40
0.195333
  1
11/16" x 1"
  7
txt
 72
     4
 11
13177.288083
 21
3406.959917
 31
0.0
210
0.0
220
0.0
230
1.0
  0
TEXT
  8
3
  6
CONTINUOUS
 62
   241
  5
A54
 10
13176.08225
 20
3406.471583
 30
0.0
 40
0.195333
  1
Slotted Hole
  7
txt
 72
     4
 11
13177.21275
 21
3406.56925
 31
0.0
210
0.0
220
0.0
230
1.0
  0
TEXT
  8
3
  6
CONTINUOUS
 62
   241
  5
A55
 10
13177.72
 20
3404.04325
 30
0.0
 40
0.195333
  1
7/8"
  7
txt
 72
     4
 11
13178.075333
 21
3404.140917
 31
0.0
210
0.0
220
0.0
230
1.0
  0
TEXT
  8
3
  6
CONTINUOUS
 62
   241
  5
A56
 10
13173.848917
 20
3413.009
 30
0.0
 40
0.175833
  1
5/8" carriage bolts to posts 2 and 4. :
  7
txt
 11
13173.848917
 21
3413.096917
 31
0.0
210
0.0
220
0.0
230
1.0
 73
     2
  0
TEXT
  8
3
  6
CONTINUOUS
 62
   241
  5
A57
 10
13173.848917
 20
3412.708917
 30
0.0
 40
0.175833
  1
rubrail and posts of posts 1, 3 and 5.
  7
txt
 11
13173.848917
 21
3412.796833
 31
0.0
210
0.0
220
0.0
230
1.0
 73
     2
  0
TEXT
  8
5
  6
CONTINUOUS
 62
   241
  5
A59
 10
13173.83775
 20
3411.187667
 30
0.0
 40
0.175833
  1
Steel spacer tube, schedule 40 galvanized pipe,
  7
txt
 11
13173.83775
 21
3411.275583
 31
0.0
210
0.0
220
0.0
230
1.0
 73
     2
  0
TEXT
  8
5
  6
CONTINUOUS
 62
   241
  5
A5A
 10
13173.83775
 20
3410.836083
 30
0.0
 40
0.175833
  1
6" (I.D.) x 9", and attached by a
  7
txt
 11
13173.83775
 21
3410.924
 31
0.0
210
0.0
220
0.0
230
1.0
 73
     2
  0
TEXT
  8
5
  6
CONTINUOUS
 62
   241
  5
A5B
 10
13173.83775
 20
3410.4845
 30
0.0
 40
0.175833
  1
5/8" carriage bolt and rectangular plate
  7
txt
 11
13173.83775
 21
3410.572417
 31
0.0
210
0.0
220
0.0
230
1.0
 73
     2
  0
TEXT
  8
3
  6
CONTINUOUS
 62
   241
  5
A5C
 10
13173.83775
 20
3409.19675
 30
0.0
 40
0.175833
  1
is attached by 3/8" X 3" bolt.
  7
txt
 11
13173.83775
 21
3409.284667
 31
0.0
210
0.0
220
0.0
230
1.0
 73
     2
  0
TEXT
  8
3
  6
CONTINUOUS
 62
   241
  5
A5D
 10
13173.83775
 20
3408.612333
 30
0.0
 40
0.175833
  1
There is no separate pay item for this connection
  7
txt
 11
13173.83775
 21
3408.70025
 31
0.0
210
0.0
220
0.0
230
1.0
 73
     2
  0
TEXT
  8
3
  6
CONTINUOUS
 62
   241
  5
A5E
 10
13173.83775
 20
3408.26075
 30
0.0
 40
0.175833
  1
and all components as detailed herein shall be
  7
txt
 11
13173.83775
 21
3408.348667
 31
0.0
210
0.0
220
0.0
230
1.0
 73
     2
  0
TEXT
  8
3
  6
CONTINUOUS
 62
   241
  5
A5F
 10
13173.83775
 20
3407.909083
 30
0.0
 40
0.175833
  1
included in the contract price for guardrail.
  7
txt
 11
13173.83775
 21
3407.997
 31
0.0
210
0.0
220
0.0
230
1.0
 73
     2
  0
TEXT
  8
3
  6
CONTINUOUS
 62
   241
  5
A60
 10
13173.469917
 20
3408.612333
 30
0.0
 40
0.175833
  1
8.
  7
txt
 11
13173.469917
 21
3408.70025
 31
0.0
210
0.0
220
0.0
230
1.0
 73
     2
  0
TEXT
  8
1
  6
CONTINUOUS
 62
   140
  5
A61
 10
13177.255917
 20
3399.723333
 30
0.0
 40
0.208333
  1
W-BEAM TRANSITION
  7
txt
 72
     4
 11
13178.978333
 21
3399.8275
 31
0.0
210
0.0
220
0.0
230
1.0
  0
TEXT
  8
1
  6
CONTINUOUS
 62
   140
  5
A62
 10
13177.3315
 20
3399.380083
 30
0.0
 40
0.208333
  1
TO SAFETY SHAPE
  7
txt
 72
     4
 11
13178.84725
 21
3399.48425
 31
0.0
210
0.0
220
0.0
230
1.0
  0
TEXT
  8
1
  6
CONTINUOUS
 62
   140
  5
A63
 10
13176.78425
 20
3398.997833
 30
0.0
 40
0.208333
  1
WOOD POST WITH RUBRAIL
  7
txt
 72
     4
 11
13179.023417
 21
3399.102
 31
0.0
210
0.0
220
0.0
230
1.0
  0
TEXT
  8
1
  6
CONTINUOUS
 62
   140
  5
A64
 10
13177.076
 20
3400.82675
 30
0.0
 40
0.183167
  1
STANDARD DETAIL
  7
ROMANT
 72
     4
 11
13178.0315
 21
3400.918333
 31
0.0
210
0.0
220
0.0
230
1.0
  0
TEXT
  8
1
  6
CONTINUOUS
 62
     2
  5
A65
 10
13177.718417
 20
3398.583
 30
0.0
 40
0.16275
  1
 SHEET 1 OF 3    
  7
txt
 72
     4
 11
13179.064583
 21
3398.664333
 31
0.0
210
0.0
220
0.0
230
1.0
  0
TEXT
  8
1
  6
CONTINUOUS
 62
     2
  5
A66
 10
13177.44525
 20
3398.276583
 30
0.0
 40
0.16275
  1
STANDARD SHEET GR10
  7
txt
 72
     4
 11
13178.95225
 21
3398.357917
 31
0.0
210
0.0
220
0.0
230
1.0
  0
LINE
  8
1
  6
CONTINUOUS
 62
   241
  5
A67
 10
13165.110833
 20
3408.77025
 30
0.0
 11
13165.110833
 21
3408.489917
 31
0.0
  0
LINE
  8
1
  6
CONTINUOUS
 62
   241
  5
A68
 10
13165.314083
 20
3408.78
 30
0.0
 11
13165.314083
 21
3408.489917
 31
0.0
  0
LINE
  8
1
  6
CONTINUOUS
 62
   241
  5
A69
 10
13167.020833
 20
3408.7715
 30
0.0
 11
13167.020833
 21
3408.491833
 31
0.0
  0
LINE
  8
1
  6
CONTINUOUS
 62
   241
  5
A6A
 10
13167.224333
 20
3408.781167
 30
0.0
 11
13167.224333
 21
3408.482083
 31
0.0
  0
LINE
  8
1
  6
CONTINUOUS
 62
   241
  5
A6B
 10
13168.918833
 20
3408.781167
 30
0.0
 11
13168.918833
 21
3408.491833
 31
0.0
  0
LINE
  8
1
  6
CONTINUOUS
 62
   241
  5
A6C
 10
13169.122083
 20
3408.7715
 30
0.0
 11
13169.122083
 21
3408.491833
 31
0.0
  0
LINE
  8
1
  6
CONTINUOUS
 62
   241
  5
A6D
 10
13163.186667
 20
3408.7775
 30
0.0
 11
13163.186667
 21
3408.493083
 31
0.0
  0
LINE
  8
1
  6
CONTINUOUS
 62
   241
  5
A6E
 10
13163.389917
 20
3408.772583
 30
0.0
 11
13163.389917
 21
3408.493083
 31
0.0
  0
TEXT
  8
1
  6
CONTINUOUS
 62
   241
  5
A6F
 10
13175.304583
 20
3400.171667
 30
0.0
 40
0.081417
  1
PREPARED 7-1-99     
  7
ROMANS
 72
     4
 11
13176.105167
 21
3400.212333
 31
0.0
210
0.0
220
0.0
230
1.0
  0
ENDSEC
  0
EOF
