  0
SECTION
  2
HEADER
  9
$ACADVER
  1
AC1009
  9
$INSBASE
 10
0.0
 20
0.0
 30
0.0
  9
$EXTMIN
 10
-0.016083
 20
-10.20825
 30
-0.109417
  9
$EXTMAX
 10
13222.06325
 20
3419.076333
 30
0.109417
  9
$LIMMIN
 10
0.0
 20
0.0
  9
$LIMMAX
 10
12.0
 20
9.0
  9
$ORTHOMODE
 70
     0
  9
$REGENMODE
 70
     1
  9
$FILLMODE
 70
     1
  9
$QTEXTMODE
 70
     0
  9
$MIRRTEXT
 70
     1
  9
$DRAGMODE
 70
     2
  9
$LTSCALE
 40
1.0
  9
$OSMODE
 70
     0
  9
$ATTMODE
 70
     1
  9
$TEXTSIZE
 40
0.2
  9
$TRACEWID
 40
0.05
  9
$TEXTSTYLE
  7
STANDARD
  9
$CLAYER
  8
0
  9
$CELTYPE
  6
CONTINUOUS
  9
$CECOLOR
 62
   256
  9
$DIMSCALE
 40
1.0
  9
$DIMASZ
 40
0.18
  9
$DIMEXO
 40
0.0625
  9
$DIMDLI
 40
0.38
  9
$DIMRND
 40
0.0
  9
$DIMDLE
 40
0.0
  9
$DIMEXE
 40
0.18
  9
$DIMTP
 40
0.0
  9
$DIMTM
 40
0.0
  9
$DIMTXT
 40
0.18
  9
$DIMCEN
 40
0.09
  9
$DIMTSZ
 40
0.0
  9
$DIMTOL
 70
     0
  9
$DIMLIM
 70
     0
  9
$DIMTIH
 70
     1
  9
$DIMTOH
 70
     1
  9
$DIMSE1
 70
     0
  9
$DIMSE2
 70
     0
  9
$DIMTAD
 70
     0
  9
$DIMZIN
 70
     0
  9
$DIMBLK
  1

  9
$DIMASO
 70
     1
  9
$DIMSHO
 70
     1
  9
$DIMPOST
  1

  9
$DIMAPOST
  1

  9
$DIMALT
 70
     0
  9
$DIMALTD
 70
     2
  9
$DIMALTF
 40
25.4
  9
$DIMLFAC
 40
1.0
  9
$DIMTOFL
 70
     0
  9
$DIMTVP
 40
0.0
  9
$DIMTIX
 70
     0
  9
$DIMSOXD
 70
     0
  9
$DIMSAH
 70
     0
  9
$DIMBLK1
  1

  9
$DIMBLK2
  1

  9
$DIMSTYLE
  2
STANDARD
  9
$DIMCLRD
 70
     0
  9
$DIMCLRE
 70
     0
  9
$DIMCLRT
 70
     0
  9
$DIMTFAC
 40
1.0
  9
$DIMGAP
 40
0.09
  9
$LUNITS
 70
     2
  9
$LUPREC
 70
     4
  9
$AXISMODE
 70
     0
  9
$AXISUNIT
 10
0.0
 20
0.0
  9
$SKETCHINC
 40
0.1
  9
$FILLETRAD
 40
0.0
  9
$AUNITS
 70
     0
  9
$AUPREC
 70
     0
  9
$MENU
  1
acad
  9
$ELEVATION
 40
0.0
  9
$PELEVATION
 40
0.0
  9
$THICKNESS
 40
0.0
  9
$LIMCHECK
 70
     0
  9
$BLIPMODE
 70
     1
  9
$CHAMFERA
 40
0.0
  9
$CHAMFERB
 40
0.0
  9
$SKPOLY
 70
     0
  9
$TDCREATE
 40
2451562.615567130
  9
$TDUPDATE
 40
2451562.615567130
  9
$TDINDWG
 40
0.0000000000
  9
$TDUSRTIMER
 40
0.0000000000
  9
$USRTIMER
 70
     1
  9
$ANGBASE
 50
0.0
  9
$ANGDIR
 70
     0
  9
$PDMODE
 70
     0
  9
$PDSIZE
 40
0.0
  9
$PLINEWID
 40
0.0
  9
$COORDS
 70
     0
  9
$SPLFRAME
 70
     0
  9
$SPLINETYPE
 70
     6
  9
$SPLINESEGS
 70
    10
  9
$ATTDIA
 70
     0
  9
$ATTREQ
 70
     1
  9
$HANDLING
 70
     1
  9
$HANDSEED
  5
AB0
  9
$SURFTAB1
 70
     6
  9
$SURFTAB2
 70
     6
  9
$SURFTYPE
 70
     6
  9
$SURFU
 70
     6
  9
$SURFV
 70
     6
  9
$UCSNAME
  2

  9
$UCSORG
 10
0.0
 20
0.0
 30
0.0
  9
$UCSXDIR
 10
1.0
 20
0.0
 30
0.0
  9
$UCSYDIR
 10
0.0
 20
1.0
 30
0.0
  9
$PUCSNAME
  2

  9
$PUCSORG
 10
0.0
 20
0.0
 30
0.0
  9
$PUCSXDIR
 10
1.0
 20
0.0
 30
0.0
  9
$PUCSYDIR
 10
0.0
 20
1.0
 30
0.0
  9
$USERI1
 70
     0
  9
$USERI2
 70
     0
  9
$USERI3
 70
     0
  9
$USERI4
 70
     0
  9
$USERI5
 70
     0
  9
$USERR1
 40
0.0
  9
$USERR2
 40
0.0
  9
$USERR3
 40
0.0
  9
$USERR4
 40
0.0
  9
$USERR5
 40
0.0
  9
$WORLDVIEW
 70
     1
  9
$SHADEDGE
 70
     3
  9
$SHADEDIF
 70
    70
  9
$TILEMODE
 70
     1
  9
$MAXACTVP
 70
    16
  9
$PINSBASE
 10
0.0
 20
0.0
 30
0.0
  9
$PLIMCHECK
 70
     0
  9
$PEXTMIN
 10
-1.000000E+20
 20
-1.000000E+20
 30
-1.000000E+20
  9
$PEXTMAX
 10
-1.000000E+20
 20
-1.000000E+20
 30
-1.000000E+20
  9
$PLIMMIN
 10
0.0
 20
0.0
  9
$PLIMMAX
 10
12.0
 20
9.0
  9
$UNITMODE
 70
     0
  9
$VISRETAIN
 70
     0
  9
$PLINEGEN
 70
     1
  9
$PSLTSCALE
 70
     0
  9
$TREEDEPTH
 70
  3020
  9
$DWGCODEPAGE
  3
ansi_1252
  0
ENDSEC
  0
SECTION
  2
TABLES
  0
TABLE
  2
VPORT
 70
     1
  0
VPORT
  2
*ACTIVE
 70
     0
 10
0.0
 20
0.0
 11
1.0
 21
1.0
 12
0.0
 22
0.0
 13
0.0
 23
0.0
 14
0.0
 24
0.0
 15
0.0
 25
0.0
 16
0.0
 26
0.0
 36
1.0
 17
13201.661596
 27
3408.087083
 37
0.0
 40
22.5715
 41
1.641651
 42
50.0
 43
48.136667
 44
-48.136667
 50
0.0
 51
0.0
 71
    22
 72
   100
 73
     1
 74
     0
 75
     0
 76
     0
 77
     0
 78
     0
  0
ENDTAB
  0
TABLE
  2
LTYPE
 70
     7
  0
LTYPE
  2
CONTINUOUS
 70
     0
  3
Solid line
 72
    65
 73
     0
 40
0.0
  0
LTYPE
  2
DOT
 70
    64
  3
. . . . . . . . . . . . . . . . . . . . . . . . . . . . . . . . .
 72
    65
 73
     2
 40
0.25
 49
0.0
 49
-0.25
  0
LTYPE
  2
HIDDEN
 70
    64
  3
__ __ __ __ __ __ __ __ __ __ __ __ __ __ __ __ __ __ __ __ __ 
 72
    65
 73
     2
 40
0.375
 49
0.25
 49
-0.125
  0
LTYPE
  2
DASHED
 70
    64
  3
__ __ __ __ __ __ __ __ __ __ __ __ __ __ __ __ __ __ __ __ __
 72
    65
 73
     2
 40
0.75
 49
0.5
 49
-0.25
  0
LTYPE
  2
DASHDOT
 70
    64
  3
__ . __ . __ . __ . __ . __ . __ . __ . __ . __ . __ . __ . _
 72
    65
 73
     4
 40
1.0
 49
0.5
 49
-0.25
 49
0.0
 49
-0.25
  0
LTYPE
  2
DIVIDE
 70
    64
  3
____ . . ____ . . ____ . . ____ . . ____ . . ____ . . ____ . .
 72
    65
 73
     6
 40
1.25
 49
0.5
 49
-0.25
 49
0.0
 49
-0.25
 49
0.0
 49
-0.25
  0
LTYPE
  2
CENTER
 70
    64
  3
____ _ ____ _ ____ _ ____ _ ____ _ ____ _ ____ _ ____ _ ____ _
 72
    65
 73
     4
 40
2.0
 49
1.25
 49
-0.25
 49
0.25
 49
-0.25
  0
ENDTAB
  0
TABLE
  2
LAYER
 70
     9
  0
LAYER
  2
0
 70
     0
 62
     7
  6
CONTINUOUS
  0
LAYER
  2
CONSTRUCTION_CLASS
 70
     0
 62
     7
  6
CONTINUOUS
  0
LAYER
  2
PATTERN_CLASS
 70
     0
 62
     7
  6
CONTINUOUS
  0
LAYER
  2
1
 70
    64
 62
     7
  6
CONTINUOUS
  0
LAYER
  2
3
 70
    64
 62
     7
  6
CONTINUOUS
  0
LAYER
  2
5
 70
    64
 62
     7
  6
CONTINUOUS
  0
LAYER
  2
6
 70
    64
 62
     7
  6
CONTINUOUS
  0
LAYER
  2
7
 70
    64
 62
     7
  6
CONTINUOUS
  0
LAYER
  2
2
 70
    64
 62
     7
  6
CONTINUOUS
  0
ENDTAB
  0
TABLE
  2
STYLE
 70
     5
  0
STYLE
  2
STANDARD
 70
     0
 40
0.0
 41
1.0
 50
0.0
 71
     0
 42
0.0
  3
txt
  4

  0
STYLE
  2
txt
 70
     0
 40
0.2
 41
1.0
 50
0.0
 71
     0
 42
0.2
  3
TXT
  4

  0
STYLE
  2
MONOTXT
 70
     0
 40
0.2
 41
1.0
 50
0.0
 71
     0
 42
0.2
  3
MONOTXT
  4

  0
STYLE
  2
ROMANT
 70
     0
 40
0.2
 41
1.0
 50
0.0
 71
     0
 42
0.2
  3
ROMANT
  4

  0
STYLE
  2
ROMANS
 70
     0
 40
0.2
 41
1.0
 50
0.0
 71
     0
 42
0.2
  3
ROMANS
  4

  0
ENDTAB
  0
TABLE
  2
VIEW
 70
     0
  0
ENDTAB
  0
TABLE
  2
UCS
 70
     0
  0
ENDTAB
  0
TABLE
  2
APPID
 70
     1
  0
APPID
  2
ACAD
 70
     0
  0
ENDTAB
  0
TABLE
  2
DIMSTYLE
 70
     1
  0
DIMSTYLE
  2
STANDARD
 70
     0
  3

  4

  5

  6

  7

 40
1.0
 41
0.18
 42
0.0625
 43
0.38
 44
0.18
 45
0.0
 46
0.0
 47
0.0
 48
0.0
140
0.18
141
0.09
142
0.0
143
25.4
144
1.0
145
0.0
146
1.0
147
0.09
 71
     0
 72
     0
 73
     1
 74
     1
 75
     0
 76
     0
 77
     0
 78
     0
170
     0
171
     2
172
     0
173
     0
174
     0
175
     0
176
     0
177
     0
178
     0
  0
ENDTAB
  0
ENDSEC
  0
SECTION
  2
BLOCKS
  0
BLOCK
  8
1
  6
CONTINUOUS
 62
   140
  5
372
  2
WSEC
 70
     0
 10
0.0
 20
0.0
 30
0.0
  3
WSEC
  0
LINE
  8
1
  6
CONTINUOUS
 62
   140
  5
373
 10
1.742
 20
-3.010417
 30
0.0
 11
1.791833
 21
-3.08025
 31
0.0
  0
LINE
  8
1
  6
CONTINUOUS
 62
   140
  5
374
 10
1.120167
 20
-3.439083
 30
0.0
 11
1.17
 21
-3.520083
 31
0.0
  0
LINE
  8
1
  6
CONTINUOUS
 62
   140
  5
375
 10
1.742
 20
-0.861
 30
0.0
 11
1.791833
 21
-0.79
 31
0.0
  0
LINE
  8
1
  6
CONTINUOUS
 62
   140
  5
376
 10
1.120167
 20
-0.439833
 30
0.0
 11
1.17
 21
-0.360083
 31
0.0
  0
LINE
  8
1
  6
CONTINUOUS
 62
   140
  5
377
 10
0.140833
 20
-4.78975
 30
0.0
 11
0.051083
 21
-4.78975
 31
0.0
  0
LINE
  8
1
  6
CONTINUOUS
 62
   140
  5
378
 10
1.742
 20
-7.200917
 30
0.0
 11
1.791833
 21
-7.131083
 31
0.0
  0
LINE
  8
1
  6
CONTINUOUS
 62
   140
  5
379
 10
1.120167
 20
-6.76975
 30
0.0
 11
1.17
 21
-6.70125
 31
0.0
  0
LINE
  8
1
  6
CONTINUOUS
 62
   140
  5
37A
 10
1.742
 20
-9.350333
 30
0.0
 11
1.791833
 21
-9.431333
 31
0.0
  0
LINE
  8
1
  6
CONTINUOUS
 62
   140
  5
37B
 10
1.120167
 20
-9.77025
 30
0.0
 11
1.17
 21
-9.85125
 31
0.0
  0
LINE
  8
1
  6
CONTINUOUS
 62
   140
  5
37C
 10
0.140833
 20
-5.42025
 30
0.0
 11
0.051083
 21
-5.42025
 31
0.0
  0
POLYLINE
  8
1
  6
CONTINUOUS
 62
   140
  5
37D
 66
     1
 10
0.0
 20
0.0
 30
0.0
210
0.0
220
0.0
230
1.0
  0
VERTEX
  8
1
  6
CONTINUOUS
 62
   140
  5
37E
 10
0.889805
 20
-9.931007
 30
0.0
 42
-0.105969
  0
VERTEX
  8
1
  6
CONTINUOUS
 62
   140
  5
37F
 10
0.768452
 20
-9.980281
 30
0.0
  0
VERTEX
  8
1
  6
CONTINUOUS
 62
   140
  5
380
 10
0.771333
 20
-9.980833
 30
0.0
  0
VERTEX
  8
1
  6
CONTINUOUS
 62
   140
  5
381
 10
-0.018667
 20
-10.121583
 30
0.0
  0
VERTEX
  8
1
  6
CONTINUOUS
 62
   140
  5
382
 10
0.0
 20
-10.211333
 30
0.0
  0
VERTEX
  8
1
  6
CONTINUOUS
 62
   140
  5
383
 10
0.78125
 20
-10.07175
 30
0.0
  0
VERTEX
  8
1
  6
CONTINUOUS
 62
   140
  5
384
 10
0.784514
 20
-10.071364
 30
0.0
 42
0.105969
  0
VERTEX
  8
1
  6
CONTINUOUS
 62
   140
  5
385
 10
0.941788
 20
-10.007506
 30
0.0
  0
VERTEX
  8
1
  6
CONTINUOUS
 62
   140
  5
386
 10
0.9395
 20
-10.011917
 30
0.0
  0
VERTEX
  8
1
  6
CONTINUOUS
 62
   140
  5
387
 10
2.411083
 20
-9.002667
 30
0.0
  0
VERTEX
  8
1
  6
CONTINUOUS
 62
   140
  5
388
 10
2.415979
 20
-9.005779
 30
0.0
 42
0.52647
  0
VERTEX
  8
1
  6
CONTINUOUS
 62
   140
  5
389
 10
2.4228
 20
-7.565275
 30
0.0
  0
VERTEX
  8
1
  6
CONTINUOUS
 62
   140
  5
38A
 10
2.422333
 20
-7.5585
 30
0.0
  0
VERTEX
  8
1
  6
CONTINUOUS
 62
   140
  5
38B
 10
0.481
 20
-6.2215
 30
0.0
  0
VERTEX
  8
1
  6
CONTINUOUS
 62
   140
  5
38C
 10
0.478697
 20
-6.217109
 30
0.0
 42
-0.245912
  0
VERTEX
  8
1
  6
CONTINUOUS
 62
   140
  5
38D
 10
0.142659
 20
-5.575178
 30
0.0
  0
VERTEX
  8
1
  6
CONTINUOUS
 62
   140
  5
38E
 10
0.140833
 20
-5.581
 30
0.0
  0
VERTEX
  8
1
  6
CONTINUOUS
 62
   140
  5
38F
 10
0.140833
 20
-4.639
 30
0.0
  0
VERTEX
  8
1
  6
CONTINUOUS
 62
   140
  5
390
 10
0.142659
 20
-4.637791
 30
0.0
 42
-0.245912
  0
VERTEX
  8
1
  6
CONTINUOUS
 62
   140
  5
391
 10
0.478697
 20
-3.995861
 30
0.0
  0
VERTEX
  8
1
  6
CONTINUOUS
 62
   140
  5
392
 10
0.481
 20
-4.001083
 30
0.0
  0
VERTEX
  8
1
  6
CONTINUOUS
 62
   140
  5
393
 10
2.422333
 20
-2.649083
 30
0.0
  0
VERTEX
  8
1
  6
CONTINUOUS
 62
   140
  5
394
 10
2.4228
 20
-2.647695
 30
0.0
 42
0.52647
  0
VERTEX
  8
1
  6
CONTINUOUS
 62
   140
  5
395
 10
2.415979
 20
-1.20719
 30
0.0
  0
VERTEX
  8
1
  6
CONTINUOUS
 62
   140
  5
396
 10
2.411083
 20
-1.208667
 30
0.0
  0
VERTEX
  8
1
  6
CONTINUOUS
 62
   140
  5
397
 10
0.9395
 20
-0.209333
 30
0.0
  0
VERTEX
  8
1
  6
CONTINUOUS
 62
   140
  5
398
 10
0.941788
 20
-0.205464
 30
0.0
 42
0.105969
  0
VERTEX
  8
1
  6
CONTINUOUS
 62
   140
  5
399
 10
0.784514
 20
-0.141605
 30
0.0
  0
VERTEX
  8
1
  6
CONTINUOUS
 62
   140
  5
39A
 10
0.78125
 20
-0.138333
 30
0.0
  0
VERTEX
  8
1
  6
CONTINUOUS
 62
   140
  5
39B
 10
0.0
 20
0.0
 30
0.0
  0
VERTEX
  8
1
  6
CONTINUOUS
 62
   140
  5
39C
 10
-0.018667
 20
-0.098417
 30
0.0
  0
VERTEX
  8
1
  6
CONTINUOUS
 62
   140
  5
39D
 10
0.771333
 20
-0.22925
 30
0.0
  0
VERTEX
  8
1
  6
CONTINUOUS
 62
   140
  5
39E
 10
0.768452
 20
-0.232688
 30
0.0
 42
-0.105969
  0
VERTEX
  8
1
  6
CONTINUOUS
 62
   140
  5
39F
 10
0.889805
 20
-0.281962
 30
0.0
  0
VERTEX
  8
1
  6
CONTINUOUS
 62
   140
  5
3A0
 10
0.892167
 20
-0.279083
 30
0.0
  0
VERTEX
  8
1
  6
CONTINUOUS
 62
   140
  5
3A1
 10
2.36125
 20
-1.279667
 30
0.0
  0
VERTEX
  8
1
  6
CONTINUOUS
 62
   140
  5
3A2
 10
2.363995
 20
-1.283688
 30
0.0
 42
-0.52647
  0
VERTEX
  8
1
  6
CONTINUOUS
 62
   140
  5
3A3
 10
2.370094
 20
-2.571692
 30
0.0
  0
VERTEX
  8
1
  6
CONTINUOUS
 62
   140
  5
3A4
 10
2.37
 20
-2.571833
 30
0.0
  0
VERTEX
  8
1
  6
CONTINUOUS
 62
   140
  5
3A5
 10
0.419917
 20
-3.920083
 30
0.0
  0
VERTEX
  8
1
  6
CONTINUOUS
 62
   140
  5
3A6
 10
0.425995
 20
-3.919856
 30
0.0
 42
0.245912
  0
VERTEX
  8
1
  6
CONTINUOUS
 62
   140
  5
3A7
 10
0.05017
 20
-4.637791
 30
0.0
  0
VERTEX
  8
1
  6
CONTINUOUS
 62
   140
  5
3A8
 10
0.051083
 20
-4.639
 30
0.0
  0
VERTEX
  8
1
  6
CONTINUOUS
 62
   140
  5
3A9
 10
0.051083
 20
-5.581
 30
0.0
  0
VERTEX
  8
1
  6
CONTINUOUS
 62
   140
  5
3AA
 10
0.05017
 20
-5.575178
 30
0.0
 42
0.245912
  0
VERTEX
  8
1
  6
CONTINUOUS
 62
   140
  5
3AB
 10
0.425995
 20
-6.293113
 30
0.0
  0
VERTEX
  8
1
  6
CONTINUOUS
 62
   140
  5
3AC
 10
0.419917
 20
-6.29125
 30
0.0
  0
VERTEX
  8
1
  6
CONTINUOUS
 62
   140
  5
3AD
 10
2.37
 20
-7.6395
 30
0.0
  0
VERTEX
  8
1
  6
CONTINUOUS
 62
   140
  5
3AE
 10
2.370094
 20
-7.641277
 30
0.0
 42
-0.52647
  0
VERTEX
  8
1
  6
CONTINUOUS
 62
   140
  5
3AF
 10
2.363995
 20
-8.929282
 30
0.0
  0
VERTEX
  8
1
  6
CONTINUOUS
 62
   140
  5
3B0
 10
2.36125
 20
-8.931667
 30
0.0
  0
VERTEX
  8
1
  6
CONTINUOUS
 62
   140
  5
3B1
 10
0.892167
 20
-9.932167
 30
0.0
  0
SEQEND
  8
1
  6
CONTINUOUS
 62
   140
  5
3B2
  0
LINE
  8
1
  6
CONTINUOUS
 62
   140
  5
3B3
 10
0.532083
 20
-10.121583
 30
0.0
 11
1.01175
 21
-9.960833
 31
0.0
  0
LINE
  8
1
  6
CONTINUOUS
 62
   140
  5
3B4
 10
-0.0075
 20
-10.1615
 30
0.0
 11
0.270417
 21
-10.07175
 31
0.0
  0
LINE
  8
1
  6
CONTINUOUS
 62
   140
  5
3B5
 10
1.070333
 20
-9.811333
 30
0.0
 11
1.120167
 21
-9.791417
 31
0.0
  0
LINE
  8
1
  6
CONTINUOUS
 62
   140
  5
3B6
 10
1.8105
 20
-9.302917
 30
0.0
 11
2.122
 21
-9.202
 31
0.0
  0
LINE
  8
1
  6
CONTINUOUS
 62
   140
  5
3B7
 10
2.180583
 20
-9.05125
 30
0.0
 11
2.480833
 21
-8.951583
 31
0.0
  0
LINE
  8
1
  6
CONTINUOUS
 62
   140
  5
3B8
 10
2.492083
 20
-8.82325
 30
0.0
 11
2.650333
 21
-8.770917
 31
0.0
  0
LINE
  8
1
  6
CONTINUOUS
 62
   140
  5
3B9
 10
2.611667
 20
-8.65125
 30
0.0
 11
2.731333
 21
-8.611417
 31
0.0
  0
LINE
  8
1
  6
CONTINUOUS
 62
   140
  5
3BA
 10
2.67025
 20
-8.50175
 30
0.0
 11
2.781167
 21
-8.460667
 31
0.0
  0
LINE
  8
1
  6
CONTINUOUS
 62
   140
  5
3BB
 10
2.703917
 20
-8.362167
 30
0.0
 11
2.802333
 21
-8.331083
 31
0.0
  0
LINE
  8
1
  6
CONTINUOUS
 62
   140
  5
3BC
 10
2.703917
 20
-8.230083
 30
0.0
 11
2.792417
 21
-8.202667
 31
0.0
  0
LINE
  8
1
  6
CONTINUOUS
 62
   140
  5
3BD
 10
2.6815
 20
-8.10175
 30
0.0
 11
2.769917
 21
-8.071833
 31
0.0
  0
LINE
  8
1
  6
CONTINUOUS
 62
   140
  5
3BE
 10
2.641583
 20
-7.980917
 30
0.0
 11
2.731333
 21
-7.951
 31
0.0
  0
LINE
  8
1
  6
CONTINUOUS
 62
   140
  5
3BF
 10
2.5905
 20
-7.87
 30
0.0
 11
2.6815
 21
-7.841333
 31
0.0
  0
LINE
  8
1
  6
CONTINUOUS
 62
   140
  5
3C0
 10
2.51325
 20
-7.760333
 30
0.0
 11
2.603
 21
-7.730417
 31
0.0
  0
LINE
  8
1
  6
CONTINUOUS
 62
   140
  5
3C1
 10
2.402333
 20
-7.671917
 30
0.0
 11
2.51325
 21
-7.632
 31
0.0
  0
LINE
  8
1
  6
CONTINUOUS
 62
   140
  5
3C2
 10
2.28275
 20
-7.580917
 30
0.0
 11
2.392417
 21
-7.539833
 31
0.0
  0
LINE
  8
1
  6
CONTINUOUS
 62
   140
  5
3C3
 10
2.150667
 20
-7.492417
 30
0.0
 11
2.261583
 21
-7.451333
 31
0.0
  0
LINE
  8
1
  6
CONTINUOUS
 62
   140
  5
3C4
 10
2.022333
 20
-7.4015
 30
0.0
 11
2.13075
 21
-7.360333
 31
0.0
  0
LINE
  8
1
  6
CONTINUOUS
 62
   140
  5
3C5
 10
1.8915
 20
-7.3105
 30
0.0
 11
2.002417
 21
-7.269417
 31
0.0
  0
LINE
  8
1
  6
CONTINUOUS
 62
   140
  5
3C6
 10
1.761917
 20
-7.220833
 30
0.0
 11
1.871583
 21
-7.180917
 31
0.0
  0
LINE
  8
1
  6
CONTINUOUS
 62
   140
  5
3C7
 10
0.993083
 20
-6.68125
 30
0.0
 11
1.1015
 21
-6.651417
 31
0.0
  0
LINE
  8
1
  6
CONTINUOUS
 62
   140
  5
3C8
 10
0.861
 20
-6.592833
 30
0.0
 11
0.970667
 21
-6.560417
 31
0.0
  0
LINE
  8
1
  6
CONTINUOUS
 62
   140
  5
3C9
 10
0.731417
 20
-6.500583
 30
0.0
 11
0.841083
 21
-6.470667
 31
0.0
  0
LINE
  8
1
  6
CONTINUOUS
 62
   140
  5
3CA
 10
0.600583
 20
-6.412167
 30
0.0
 11
0.7115
 21
-6.38225
 31
0.0
  0
LINE
  8
1
  6
CONTINUOUS
 62
   140
  5
3CB
 10
0.471
 20
-6.321167
 30
0.0
 11
0.581917
 21
-6.29125
 31
0.0
  0
LINE
  8
1
  6
CONTINUOUS
 62
   140
  5
3CC
 10
0.351417
 20
-6.2315
 30
0.0
 11
0.451083
 21
-6.200333
 31
0.0
  0
LINE
  8
1
  6
CONTINUOUS
 62
   140
  5
3CD
 10
0.251667
 20
-6.13175
 30
0.0
 11
0.351417
 21
-6.100667
 31
0.0
  0
LINE
  8
1
  6
CONTINUOUS
 62
   140
  5
3CE
 10
0.170667
 20
-6.032083
 30
0.0
 11
0.260417
 21
-6.000917
 31
0.0
  0
LINE
  8
1
  6
CONTINUOUS
 62
   140
  5
3CF
 10
0.120833
 20
-5.91
 30
0.0
 11
0.201833
 21
-5.881333
 31
0.0
  0
LINE
  8
1
  6
CONTINUOUS
 62
   140
  5
3D0
 10
0.081
 20
-5.789083
 30
0.0
 11
0.16075
 21
-5.770417
 31
0.0
  0
LINE
  8
1
  6
CONTINUOUS
 62
   140
  5
3D1
 10
0.051083
 20
-5.672
 30
0.0
 11
0.140833
 21
-5.639583
 31
0.0
  0
LINE
  8
1
  6
CONTINUOUS
 62
   140
  5
3D2
 10
0.051083
 20
-5.539917
 30
0.0
 11
0.140833
 21
-5.51
 31
0.0
  0
LINE
  8
1
  6
CONTINUOUS
 62
   140
  5
3D3
 10
0.051083
 20
-4.751167
 30
0.0
 11
0.140833
 21
-4.72
 31
0.0
  0
LINE
  8
1
  6
CONTINUOUS
 62
   140
  5
3D4
 10
0.051083
 20
-4.620333
 30
0.0
 11
0.140833
 21
-4.590417
 31
0.0
  0
LINE
  8
1
  6
CONTINUOUS
 62
   140
  5
3D5
 10
0.059833
 20
-4.49075
 30
0.0
 11
0.16075
 21
-4.449583
 31
0.0
  0
LINE
  8
1
  6
CONTINUOUS
 62
   140
  5
3D6
 10
0.100917
 20
-4.34125
 30
0.0
 11
0.220583
 21
-4.301333
 31
0.0
  0
LINE
  8
1
  6
CONTINUOUS
 62
   140
  5
3D7
 10
0.170667
 20
-4.191667
 30
0.0
 11
0.3215
 21
-4.140583
 31
0.0
  0
LINE
  8
1
  6
CONTINUOUS
 62
   140
  5
3D8
 10
0.3215
 20
-4.011
 30
0.0
 11
0.590583
 21
-3.920083
 31
0.0
  0
LINE
  8
1
  6
CONTINUOUS
 62
   140
  5
3D9
 10
0.6405
 20
-3.7705
 30
0.0
 11
0.9395
 21
-3.672083
 31
0.0
  0
LINE
  8
1
  6
CONTINUOUS
 62
   140
  5
3DA
 10
0.993083
 20
-3.528833
 30
0.0
 11
1.141417
 21
-3.480167
 31
0.0
  0
LINE
  8
1
  6
CONTINUOUS
 62
   140
  5
3DB
 10
1.750667
 20
-3.019167
 30
0.0
 11
2.012333
 21
-2.929417
 31
0.0
  0
LINE
  8
1
  6
CONTINUOUS
 62
   140
  5
3DC
 10
2.062167
 20
-2.779917
 30
0.0
 11
2.37
 21
-2.690167
 31
0.0
  0
LINE
  8
1
  6
CONTINUOUS
 62
   140
  5
3DD
 10
2.411083
 20
-2.539417
 30
0.0
 11
2.603
 21
-2.480833
 31
0.0
  0
LINE
  8
1
  6
CONTINUOUS
 62
   140
  5
3DE
 10
2.581833
 20
-2.34875
 30
0.0
 11
2.711417
 21
-2.308917
 31
0.0
  0
LINE
  8
1
  6
CONTINUOUS
 62
   140
  5
3DF
 10
2.662833
 20
-2.19925
 30
0.0
 11
2.769917
 21
-2.160667
 31
0.0
  0
LINE
  8
1
  6
CONTINUOUS
 62
   140
  5
3E0
 10
2.691417
 20
-2.0485
 30
0.0
 11
2.792417
 21
-2.019833
 31
0.0
  0
LINE
  8
1
  6
CONTINUOUS
 62
   140
  5
3E1
 10
2.703917
 20
-1.920167
 30
0.0
 11
2.802333
 21
-1.889
 31
0.0
  0
LINE
  8
1
  6
CONTINUOUS
 62
   140
  5
3E2
 10
2.691417
 20
-1.790583
 30
0.0
 11
2.781167
 21
-1.759417
 31
0.0
  0
LINE
  8
1
  6
CONTINUOUS
 62
   140
  5
3E3
 10
2.662833
 20
-1.669667
 30
0.0
 11
2.75125
 21
-1.637333
 31
0.0
  0
LINE
  8
1
  6
CONTINUOUS
 62
   140
  5
3E4
 10
2.611667
 20
-1.560083
 30
0.0
 11
2.703917
 21
-1.527667
 31
0.0
  0
LINE
  8
1
  6
CONTINUOUS
 62
   140
  5
3E5
 10
2.541917
 20
-1.449167
 30
0.0
 11
2.630417
 21
-1.4205
 31
0.0
  0
LINE
  8
1
  6
CONTINUOUS
 62
   140
  5
3E6
 10
2.441
 20
-1.34825
 30
0.0
 11
2.541917
 21
-1.308333
 31
0.0
  0
LINE
  8
1
  6
CONTINUOUS
 62
   140
  5
3E7
 10
2.321417
 20
-1.25975
 30
0.0
 11
2.43225
 21
-1.218667
 31
0.0
  0
LINE
  8
1
  6
CONTINUOUS
 62
   140
  5
3E8
 10
2.19175
 20
-1.16875
 30
0.0
 11
2.301417
 21
-1.127667
 31
0.0
  0
LINE
  8
1
  6
CONTINUOUS
 62
   140
  5
3E9
 10
2.062167
 20
-1.079083
 30
0.0
 11
2.170583
 21
-1.040417
 31
0.0
  0
LINE
  8
1
  6
CONTINUOUS
 62
   140
  5
3EA
 10
1.931333
 20
-0.988083
 30
0.0
 11
2.041
 21
-0.9495
 31
0.0
  0
LINE
  8
1
  6
CONTINUOUS
 62
   140
  5
3EB
 10
1.80175
 20
-0.900917
 30
0.0
 11
1.912667
 21
-0.861
 31
0.0
  0
LINE
  8
1
  6
CONTINUOUS
 62
   140
  5
3EC
 10
1.01175
 20
-0.368833
 30
0.0
 11
1.120167
 21
-0.328917
 31
0.0
  0
LINE
  8
1
  6
CONTINUOUS
 62
   140
  5
3ED
 10
0.880917
 20
-0.279083
 30
0.0
 11
0.993083
 21
-0.238
 31
0.0
  0
LINE
  8
1
  6
CONTINUOUS
 62
   140
  5
3EE
 10
0.670333
 20
-0.219333
 30
0.0
 11
0.841083
 21
-0.16075
 31
0.0
  0
LINE
  8
1
  6
CONTINUOUS
 62
   140
  5
3EF
 10
0.40125
 20
-0.1695
 30
0.0
 11
0.590583
 21
-0.108417
 31
0.0
  0
LINE
  8
1
  6
CONTINUOUS
 62
   140
  5
3F0
 10
0.140833
 20
-0.119583
 30
0.0
 11
0.330167
 21
-0.058583
 31
0.0
  0
LINE
  8
1
  6
CONTINUOUS
 62
   140
  5
3F1
 10
-0.0075
 20
-0.039833
 30
0.0
 11
0.07225
 21
-0.019917
 31
0.0
  0
LINE
  8
1
  6
CONTINUOUS
 62
   140
  5
3F2
 10
2.002417
 20
-9.182083
 30
0.0
 11
2.311417
 21
-9.079917
 31
0.0
  0
LINE
  8
1
  6
CONTINUOUS
 62
   140
  5
3F3
 10
0.110917
 20
-10.190167
 30
0.0
 11
0.70025
 21
-9.992
 31
0.0
  0
LINE
  8
1
  6
CONTINUOUS
 62
   140
  5
3F4
 10
0.892167
 20
-9.932167
 30
0.0
 11
1.160083
 21
-9.85125
 31
0.0
  0
LINE
  8
1
  6
CONTINUOUS
 62
   140
  5
3F5
 10
1.769417
 20
-9.381417
 30
0.0
 11
1.931333
 21
-9.331583
 31
0.0
  0
LINE
  8
1
  6
CONTINUOUS
 62
   140
  5
3F6
 10
0.45975
 20
-3.890167
 30
0.0
 11
0.750083
 21
-3.799167
 31
0.0
  0
LINE
  8
1
  6
CONTINUOUS
 62
   140
  5
3F7
 10
0.821167
 20
-3.649667
 30
0.0
 11
1.1015
 21
-3.559917
 31
0.0
  0
LINE
  8
1
  6
CONTINUOUS
 62
   140
  5
3F8
 10
1.8915
 20
-2.9095
 30
0.0
 11
2.180583
 21
-2.809833
 31
0.0
  0
LINE
  8
1
  6
CONTINUOUS
 62
   140
  5
3F9
 10
2.251583
 20
-2.660333
 30
0.0
 11
2.51325
 21
-2.571833
 31
0.0
  0
ENDBLK
  8
1
  6
CONTINUOUS
 62
   140
  5
3FA
  0
BLOCK
  8
1
  6
CONTINUOUS
 62
   140
  5
79A
  2
ARWHD
 70
     0
 10
0.0
 20
0.0
 30
0.0
  3
ARWHD
  0
LINE
  8
1
  6
CONTINUOUS
 62
   140
  5
79B
 10
0.0
 20
0.0
 30
0.0
 11
-0.01
 21
0.0025
 31
0.0
  0
LINE
  8
1
  6
CONTINUOUS
 62
   140
  5
79C
 10
-0.01
 20
0.0025
 30
0.0
 11
-0.0075
 21
0.0
 31
0.0
  0
LINE
  8
1
  6
CONTINUOUS
 62
   140
  5
79D
 10
-0.0075
 20
0.0
 30
0.0
 11
-0.01
 21
-0.002583
 31
0.0
  0
LINE
  8
1
  6
CONTINUOUS
 62
   140
  5
79E
 10
-0.01
 20
-0.002583
 30
0.0
 11
0.0
 21
0.0
 31
0.0
  0
POLYLINE
  8
1
  6
CONTINUOUS
 62
   140
  5
79F
 66
     1
 10
0.0
 20
0.0
 30
0.0
210
0.0
220
0.0
230
1.0
  0
VERTEX
  8
1
  6
CONTINUOUS
 62
   140
  5
7A0
 10
-0.007917
 20
-0.001333
 30
0.0
  0
VERTEX
  8
1
  6
CONTINUOUS
 62
   140
  5
7A1
 10
-0.004167
 20
-0.0005
 30
0.0
  0
VERTEX
  8
1
  6
CONTINUOUS
 62
   140
  5
7A2
 10
-0.007417
 20
-0.0005
 30
0.0
  0
VERTEX
  8
1
  6
CONTINUOUS
 62
   140
  5
7A3
 10
-0.007333
 20
-0.000833
 30
0.0
  0
SEQEND
  8
1
  6
CONTINUOUS
 62
   140
  5
7A4
  0
POLYLINE
  8
1
  6
CONTINUOUS
 62
   140
  5
7A5
 66
     1
 10
0.0
 20
0.0
 30
0.0
210
0.0
220
0.0
230
1.0
  0
VERTEX
  8
1
  6
CONTINUOUS
 62
   140
  5
7A6
 10
-0.008083
 20
0.001667
 30
0.0
  0
VERTEX
  8
1
  6
CONTINUOUS
 62
   140
  5
7A7
 10
-0.004167
 20
0.000417
 30
0.0
  0
VERTEX
  8
1
  6
CONTINUOUS
 62
   140
  5
7A8
 10
-0.007333
 20
0.000833
 30
0.0
  0
SEQEND
  8
1
  6
CONTINUOUS
 62
   140
  5
7A9
  0
ENDBLK
  8
1
  6
CONTINUOUS
 62
   140
  5
7AA
  0
ENDSEC
  0
SECTION
  2
ENTITIES
  0
TEXT
  8
1
  6
CONTINUOUS
 62
   140
  5
2A
 10
13217.952083
 20
3399.220833
 30
0.0
 40
0.208333
  1
W-BEAM TRANSITION
  7
txt
 72
     4
 11
13219.6745
 21
3399.325
 31
0.0
210
0.0
220
0.0
230
1.0
  0
TEXT
  8
1
  6
CONTINUOUS
 62
   140
  5
2B
 10
13218.04775
 20
3398.877583
 30
0.0
 40
0.208333
  1
TO SAFETY SHAPE
  7
txt
 72
     4
 11
13219.5635
 21
3398.98175
 31
0.0
210
0.0
220
0.0
230
1.0
  0
TEXT
  8
1
  6
CONTINUOUS
 62
   140
  5
2C
 10
13217.59625
 20
3398.494917
 30
0.0
 40
0.208333
  1
WOOD POST WITH RUBRAIL
  7
txt
 72
     4
 11
13219.835417
 21
3398.599083
 31
0.0
210
0.0
220
0.0
230
1.0
  0
TEXT
  8
1
  6
CONTINUOUS
 62
   241
  5
2E
 10
13214.616083
 20
3415.12
 30
0.0
 40
0.133
  1
This guardrail  transition is
  7
MONOTXT
210
0.0
220
0.0
230
1.0
  0
TEXT
  8
1
  6
CONTINUOUS
 62
   241
  5
2F
 10
13214.1915
 20
3415.117833
 30
0.0
 40
0.133
  1
1.
  7
MONOTXT
210
0.0
220
0.0
230
1.0
  0
TEXT
  8
1
  6
CONTINUOUS
 62
   241
  5
30
 10
13214.1425
 20
3414.316667
 30
0.0
 40
0.133
  1
2.
  7
MONOTXT
210
0.0
220
0.0
230
1.0
  0
TEXT
  8
1
  6
CONTINUOUS
 62
   241
  5
31
 10
13214.659333
 20
3414.3245
 30
0.0
 40
0.133
  1
Bridge rail  ends and bridge
  7
MONOTXT
210
0.0
220
0.0
230
1.0
  0
TEXT
  8
1
  6
CONTINUOUS
 62
   241
  5
32
 10
13217.538833
 20
3414.337
 30
0.0
 40
0.133
  1
parapets must be of adequate 
  7
MONOTXT
210
0.0
220
0.0
230
1.0
  0
TEXT
  8
1
  6
CONTINUOUS
 62
   241
  5
33
 10
13214.641833
 20
3414.130333
 30
0.0
 40
0.133
  1
strength to accept full  impact loading.
  7
MONOTXT
210
0.0
220
0.0
230
1.0
  0
POINT
  8
3
  6
DASHED
 62
     2
  5
35
 10
13188.83825
 20
3418.596333
 30
0.0
  0
POINT
  8
3
  6
DASHED
 62
     2
  5
36
 10
13222.06325
 20
3397.476333
 30
0.0
  0
LINE
  8
3
  6
DASHED
 62
     4
  5
37
 10
13221.933583
 20
3419.076333
 30
0.0
 11
13186.733583
 21
3419.076333
 31
0.0
  0
LINE
  8
3
  6
DASHED
 62
     4
  5
38
 10
13221.933583
 20
3397.076333
 30
0.0
 11
13186.733583
 21
3397.076333
 31
0.0
  0
LINE
  8
3
  6
DASHED
 62
     4
  5
39
 10
13188.308583
 20
3419.076333
 30
0.0
 11
13188.308583
 21
3397.076333
 31
0.0
  0
LINE
  8
3
  6
CONTINUOUS
 62
   140
  5
3A
 10
13189.35025
 20
3418.576333
 30
0.0
 11
13189.35025
 21
3397.576333
 31
0.0
  0
LINE
  8
3
  6
CONTINUOUS
 62
   140
  5
3B
 10
13221.85025
 20
3418.576333
 30
0.0
 11
13189.35025
 21
3418.576333
 31
0.0
  0
LINE
  8
3
  6
CONTINUOUS
 62
   140
  5
3C
 10
13221.85025
 20
3418.576333
 30
0.0
 11
13221.85025
 21
3397.576333
 31
0.0
  0
LINE
  8
3
  6
CONTINUOUS
 62
   140
  5
3D
 10
13221.85025
 20
3397.576333
 30
0.0
 11
13189.35025
 21
3397.576333
 31
0.0
  0
LINE
  8
3
  6
CONTINUOUS
 62
   140
  5
3E
 10
13189.10025
 20
3414.676333
 30
0.0
 11
13188.70025
 21
3414.676333
 31
0.0
  0
LINE
  8
3
  6
CONTINUOUS
 62
   140
  5
3F
 10
13189.10025
 20
3411.876333
 30
0.0
 11
13188.70025
 21
3411.876333
 31
0.0
  0
LINE
  8
3
  6
CONTINUOUS
 62
   140
  5
40
 10
13189.10025
 20
3404.276333
 30
0.0
 11
13188.70025
 21
3404.276333
 31
0.0
  0
LINE
  8
3
  6
CONTINUOUS
 62
   140
  5
41
 10
13189.10025
 20
3401.476333
 30
0.0
 11
13188.70025
 21
3401.476333
 31
0.0
  0
CIRCLE
  8
3
  6
CONTINUOUS
 62
   140
  5
42
 10
13188.85025
 20
3414.676333
 30
0.0
 40
0.125
210
0.0
220
0.0
230
1.0
  0
CIRCLE
  8
3
  6
CONTINUOUS
 62
   140
  5
43
 10
13188.85025
 20
3411.876333
 30
0.0
 40
0.125
210
0.0
220
0.0
230
1.0
  0
CIRCLE
  8
3
  6
CONTINUOUS
 62
   140
  5
44
 10
13188.85025
 20
3404.276333
 30
0.0
 40
0.125
210
0.0
220
0.0
230
1.0
  0
CIRCLE
  8
3
  6
CONTINUOUS
 62
   140
  5
45
 10
13188.85025
 20
3401.476333
 30
0.0
 40
0.125
210
0.0
220
0.0
230
1.0
  0
TEXT
  8
3
  6
CONTINUOUS
 62
   140
  5
46
 10
13218.306
 20
3397.484583
 30
0.0
 40
0.06
  1
$$$$$$$$$FILENAME$$$$$$$$
  7
txt
 11
13218.306
 21
3397.514583
 31
0.0
210
0.0
220
0.0
230
1.0
 73
     2
  0
TEXT
  8
3
  6
CONTINUOUS
 62
   140
  5
47
 10
13220.030083
 20
3397.484583
 30
0.0
 40
0.06
  1
$USERNAME$
  7
txt
 11
13220.030083
 21
3397.514583
 31
0.0
210
0.0
220
0.0
230
1.0
 73
     2
  0
TEXT
  8
3
  6
CONTINUOUS
 62
   140
  5
48
 10
13220.803667
 20
3397.484583
 30
0.0
 40
0.06
  1
DD-MMM-YYYY HH:MM
  7
txt
 11
13220.803667
 21
3397.514583
 31
0.0
210
0.0
220
0.0
230
1.0
 73
     2
  0
POINT
  8
3
  6
CONTINUOUS
 62
   140
  5
49
 10
13189.35025
 20
3397.576333
 30
0.0
  0
POINT
  8
3
  6
CONTINUOUS
 62
   140
  5
4A
 10
13189.35025
 20
3418.576333
 30
0.0
  0
POINT
  8
3
  6
CONTINUOUS
 62
   140
  5
4B
 10
13221.85025
 20
3418.576333
 30
0.0
  0
POINT
  8
3
  6
CONTINUOUS
 62
   140
  5
4C
 10
13221.85025
 20
3397.576333
 30
0.0
  0
LINE
  8
3
  6
CONTINUOUS
 62
   140
  5
4D
 10
13221.85025
 20
3397.576333
 30
0.0
 11
13221.85025
 21
3400.075333
 31
0.0
  0
LINE
  8
3
  6
CONTINUOUS
 62
   140
  5
4E
 10
13221.85025
 20
3401.066167
 30
0.0
 11
13215.85025
 21
3401.066167
 31
0.0
  0
LINE
  8
3
  6
CONTINUOUS
 62
   140
  5
4F
 10
13221.85025
 20
3397.576333
 30
0.0
 11
13215.85025
 21
3397.576333
 31
0.0
  0
LINE
  8
3
  6
CONTINUOUS
 62
   140
  5
50
 10
13217.388167
 20
3399.475333
 30
0.0
 11
13215.85025
 21
3399.475333
 31
0.0
  0
LINE
  8
3
  6
CONTINUOUS
 62
   140
  5
51
 10
13217.388167
 20
3399.276333
 30
0.0
 11
13215.85025
 21
3399.276333
 31
0.0
  0
LINE
  8
3
  6
CONTINUOUS
 62
   140
  5
52
 10
13217.388167
 20
3399.077333
 30
0.0
 11
13215.85025
 21
3399.077333
 31
0.0
  0
LINE
  8
3
  6
CONTINUOUS
 62
   140
  5
53
 10
13217.388167
 20
3398.878333
 30
0.0
 11
13215.85025
 21
3398.878333
 31
0.0
  0
LINE
  8
3
  6
CONTINUOUS
 62
   140
  5
54
 10
13217.388167
 20
3398.679333
 30
0.0
 11
13215.85025
 21
3398.679333
 31
0.0
  0
LINE
  8
3
  6
CONTINUOUS
 62
   140
  5
55
 10
13217.388167
 20
3398.480333
 30
0.0
 11
13215.85025
 21
3398.480333
 31
0.0
  0
LINE
  8
3
  6
CONTINUOUS
 62
   140
  5
56
 10
13217.388167
 20
3398.281333
 30
0.0
 11
13215.85025
 21
3398.281333
 31
0.0
  0
LINE
  8
3
  6
CONTINUOUS
 62
   140
  5
57
 10
13217.388167
 20
3398.082333
 30
0.0
 11
13215.85025
 21
3398.082333
 31
0.0
  0
LINE
  8
3
  6
CONTINUOUS
 62
   140
  5
58
 10
13217.388167
 20
3397.883333
 30
0.0
 11
13215.85025
 21
3397.883333
 31
0.0
  0
TEXT
  8
3
  6
CONTINUOUS
 62
   140
  5
59
 10
13216.157333
 20
3399.522667
 30
0.0
 40
0.079
  1
REVISION DATE
 41
1.003165
  7
MONOTXT
210
0.0
220
0.0
230
1.0
  0
LINE
  8
3
  6
CONTINUOUS
 62
   140
  5
5A
 10
13215.85025
 20
3398.986333
 30
0.0
 11
13215.85025
 21
3397.576333
 31
0.0
  0
TEXT
  8
3
  6
CONTINUOUS
 62
   140
  5
5C
 10
13216.061583
 20
3400.81125
 30
0.0
 40
0.1875
  1
WEST VIRGINIA DEPARTMENT OF TRANSPORTATION
  7
ROMANT
 72
     4
 11
13218.831917
 21
3400.905
 31
0.0
210
0.0
220
0.0
230
1.0
  0
TEXT
  8
3
  6
CONTINUOUS
 62
   140
  5
5D
 10
13217.634417
 20
3400.602333
 30
0.0
 40
0.1875
  1
DIVISION OF HIGHWAYS
  7
ROMANT
 72
     4
 11
13218.853917
 21
3400.696083
 31
0.0
210
0.0
220
0.0
230
1.0
  0
TEXT
  8
3
  6
CONTINUOUS
 62
   140
  5
5E
 10
13217.801083
 20
3400.404167
 30
0.0
 40
0.1875
  1
STANDARD  DETAIL
  7
ROMANT
 72
     4
 11
13218.842583
 21
3400.497917
 31
0.0
210
0.0
220
0.0
230
1.0
  0
LINE
  8
3
  6
CONTINUOUS
 62
   140
  5
5F
 10
13217.388167
 20
3399.675333
 30
0.0
 11
13215.85025
 21
3399.675333
 31
0.0
  0
LINE
  8
3
  6
CONTINUOUS
 62
   140
  5
60
 10
13217.388167
 20
3397.576333
 30
0.0
 11
13217.388167
 21
3399.675333
 31
0.0
  0
LINE
  8
3
  6
CONTINUOUS
 62
   140
  5
61
 10
13215.85025
 20
3397.576333
 30
0.0
 11
13215.85025
 21
3401.066167
 31
0.0
  0
TEXT
  8
3
  6
CONTINUOUS
 62
     2
  5
63
 10
13215.885333
 20
3399.11375
 30
0.0
 40
0.083333
  1
                  
  7
ROMANS
 72
     4
 11
13216.621417
 21
3399.155417
 31
0.0
210
0.0
220
0.0
230
1.0
  0
TEXT
  8
3
  6
CONTINUOUS
 62
     2
  5
64
 10
13215.885333
 20
3398.91475
 30
0.0
 40
0.083333
  1
                  
  7
ROMANS
 72
     4
 11
13216.621417
 21
3398.956417
 31
0.0
210
0.0
220
0.0
230
1.0
  0
TEXT
  8
3
  6
CONTINUOUS
 62
     2
  5
65
 10
13215.885333
 20
3398.71575
 30
0.0
 40
0.083333
  1
                  
  7
ROMANS
 72
     4
 11
13216.621417
 21
3398.757417
 31
0.0
210
0.0
220
0.0
230
1.0
  0
TEXT
  8
3
  6
CONTINUOUS
 62
     2
  5
66
 10
13215.885333
 20
3398.51675
 30
0.0
 40
0.083333
  1
                  
  7
ROMANS
 72
     4
 11
13216.621417
 21
3398.558417
 31
0.0
210
0.0
220
0.0
230
1.0
  0
TEXT
  8
3
  6
CONTINUOUS
 62
     2
  5
67
 10
13215.885333
 20
3398.31775
 30
0.0
 40
0.083333
  1
                  
  7
ROMANS
 72
     4
 11
13216.621417
 21
3398.359417
 31
0.0
210
0.0
220
0.0
230
1.0
  0
TEXT
  8
3
  6
CONTINUOUS
 62
     2
  5
68
 10
13215.885333
 20
3398.11875
 30
0.0
 40
0.083333
  1
                  
  7
ROMANS
 72
     4
 11
13216.621417
 21
3398.160417
 31
0.0
210
0.0
220
0.0
230
1.0
  0
TEXT
  8
3
  6
CONTINUOUS
 62
     2
  5
69
 10
13215.885333
 20
3397.91975
 30
0.0
 40
0.083333
  1
                  
  7
ROMANS
 72
     4
 11
13216.621417
 21
3397.961417
 31
0.0
210
0.0
220
0.0
230
1.0
  0
TEXT
  8
3
  6
CONTINUOUS
 62
     2
  5
6A
 10
13215.88375
 20
3397.715583
 30
0.0
 40
0.083333
  1
                  
  7
ROMANS
 72
     4
 11
13216.619833
 21
3397.75725
 31
0.0
210
0.0
220
0.0
230
1.0
  0
POINT
  8
3
  6
DASHED
 62
     2
  5
6B
 10
13188.83825
 20
3418.596333
 30
0.0
  0
POINT
  8
3
  6
DASHED
 62
     2
  5
6C
 10
13222.06325
 20
3397.476333
 30
0.0
  0
TEXT
  8
3
  6
CONTINUOUS
 62
   140
  5
6D
 10
13189.39825
 20
3397.455333
 30
0.0
 40
0.06
  1
P5A1G92-STDBOR a
  7
MONOTXT
210
0.0
220
0.0
230
1.0
  0
LINE
  8
1
  6
CONTINUOUS
 62
   140
  5
6E
 10
13196.059167
 20
3402.181583
 30
0.0
 11
13196.263333
 21
3402.465667
 31
0.0
  0
LINE
  8
1
  6
CONTINUOUS
 62
   140
  5
6F
 10
13196.226333
 20
3402.181583
 30
0.0
 11
13196.430583
 21
3402.465667
 31
0.0
  0
LINE
  8
1
  6
CONTINUOUS
 62
   140
  5
70
 10
13196.393667
 20
3402.181583
 30
0.0
 11
13196.59775
 21
3402.465667
 31
0.0
  0
LINE
  8
1
  6
CONTINUOUS
 62
   140
  5
71
 10
13196.742083
 20
3402.217833
 30
0.0
 11
13196.54275
 21
3402.388917
 31
0.0
  0
LINE
  8
1
  6
CONTINUOUS
 62
   140
  5
72
 10
13196.83975
 20
3402.354167
 30
0.0
 11
13196.709917
 21
3402.465667
 31
0.0
  0
LINE
  8
1
  6
CONTINUOUS
 62
   140
  5
73
 10
13196.716
 20
3402.181583
 30
0.0
 11
13196.920167
 21
3402.465667
 31
0.0
  0
LINE
  8
1
  6
CONTINUOUS
 62
   140
  5
74
 10
13196.88325
 20
3402.181583
 30
0.0
 11
13197.0875
 21
3402.465667
 31
0.0
  0
TEXT
  8
1
  6
CONTINUOUS
 62
     2
  5
75
 10
13202.540083
 20
3405.442417
 30
0.0
 40
0.24
  1
PLAN
  7
ROMANS
210
0.0
220
0.0
230
1.0
  0
LINE
  8
1
  6
CONTINUOUS
 62
   140
  5
76
 10
13192.506333
 20
3403.322583
 30
0.0
 11
13192.506333
 21
3403.962167
 31
0.0
  0
CIRCLE
  8
1
  6
CONTINUOUS
 62
   140
  5
77
 10
13192.617853
 20
3403.447901
 30
0.0
 40
0.062546
210
0.0
220
0.0
230
1.0
  0
POLYLINE
  8
1
  6
CONTINUOUS
 62
   140
  5
78
 66
     1
 10
0.0
 20
0.0
 30
0.0
210
0.0
220
0.0
230
1.0
  0
VERTEX
  8
1
  6
CONTINUOUS
 62
   140
  5
79
 10
13192.58125
 20
3403.427
 30
0.0
  0
VERTEX
  8
1
  6
CONTINUOUS
 62
   140
  5
7A
 10
13192.617417
 20
3403.405583
 30
0.0
  0
VERTEX
  8
1
  6
CONTINUOUS
 62
   140
  5
7B
 10
13192.654167
 20
3403.427
 30
0.0
  0
VERTEX
  8
1
  6
CONTINUOUS
 62
   140
  5
7C
 10
13192.654167
 20
3403.469083
 30
0.0
  0
VERTEX
  8
1
  6
CONTINUOUS
 62
   140
  5
7D
 10
13192.617417
 20
3403.48975
 30
0.0
  0
VERTEX
  8
1
  6
CONTINUOUS
 62
   140
  5
7E
 10
13192.58125
 20
3403.469083
 30
0.0
  0
VERTEX
  8
1
  6
CONTINUOUS
 62
   140
  5
7F
 10
13192.58125
 20
3403.427
 30
0.0
  0
SEQEND
  8
1
  6
CONTINUOUS
 62
   140
  5
80
  0
CIRCLE
  8
1
  6
CONTINUOUS
 62
   140
  5
81
 10
13192.617853
 20
3403.447901
 30
0.0
 40
0.036488
210
0.0
220
0.0
230
1.0
  0
CIRCLE
  8
1
  6
CONTINUOUS
 62
   140
  5
82
 10
13192.617853
 20
3403.837076
 30
0.0
 40
0.036488
210
0.0
220
0.0
230
1.0
  0
CIRCLE
  8
1
  6
CONTINUOUS
 62
   140
  5
83
 10
13192.617853
 20
3403.837076
 30
0.0
 40
0.062546
210
0.0
220
0.0
230
1.0
  0
POLYLINE
  8
1
  6
CONTINUOUS
 62
   140
  5
84
 66
     1
 10
0.0
 20
0.0
 30
0.0
210
0.0
220
0.0
230
1.0
  0
VERTEX
  8
1
  6
CONTINUOUS
 62
   140
  5
85
 10
13192.58125
 20
3403.815667
 30
0.0
  0
VERTEX
  8
1
  6
CONTINUOUS
 62
   140
  5
86
 10
13192.617417
 20
3403.794917
 30
0.0
  0
VERTEX
  8
1
  6
CONTINUOUS
 62
   140
  5
87
 10
13192.654167
 20
3403.816417
 30
0.0
  0
VERTEX
  8
1
  6
CONTINUOUS
 62
   140
  5
88
 10
13192.654167
 20
3403.858417
 30
0.0
  0
VERTEX
  8
1
  6
CONTINUOUS
 62
   140
  5
89
 10
13192.617417
 20
3403.879167
 30
0.0
  0
VERTEX
  8
1
  6
CONTINUOUS
 62
   140
  5
8A
 10
13192.58125
 20
3403.858417
 30
0.0
  0
VERTEX
  8
1
  6
CONTINUOUS
 62
   140
  5
8B
 10
13192.58125
 20
3403.815667
 30
0.0
  0
SEQEND
  8
1
  6
CONTINUOUS
 62
   140
  5
8C
  0
CIRCLE
  8
1
  6
CONTINUOUS
 62
   140
  5
8D
 10
13192.840239
 20
3403.642488
 30
0.0
 40
0.062546
210
0.0
220
0.0
230
1.0
  0
POLYLINE
  8
1
  6
CONTINUOUS
 62
   140
  5
8E
 66
     1
 10
0.0
 20
0.0
 30
0.0
210
0.0
220
0.0
230
1.0
  0
VERTEX
  8
1
  6
CONTINUOUS
 62
   140
  5
8F
 10
13192.803333
 20
3403.621667
 30
0.0
  0
VERTEX
  8
1
  6
CONTINUOUS
 62
   140
  5
90
 10
13192.840167
 20
3403.60025
 30
0.0
  0
VERTEX
  8
1
  6
CONTINUOUS
 62
   140
  5
91
 10
13192.877
 20
3403.621667
 30
0.0
  0
VERTEX
  8
1
  6
CONTINUOUS
 62
   140
  5
92
 10
13192.877
 20
3403.663083
 30
0.0
  0
VERTEX
  8
1
  6
CONTINUOUS
 62
   140
  5
93
 10
13192.840167
 20
3403.684583
 30
0.0
  0
VERTEX
  8
1
  6
CONTINUOUS
 62
   140
  5
94
 10
13192.803333
 20
3403.663083
 30
0.0
  0
VERTEX
  8
1
  6
CONTINUOUS
 62
   140
  5
95
 10
13192.803333
 20
3403.621667
 30
0.0
  0
SEQEND
  8
1
  6
CONTINUOUS
 62
   140
  5
96
  0
CIRCLE
  8
1
  6
CONTINUOUS
 62
   140
  5
97
 10
13192.840239
 20
3403.642488
 30
0.0
 40
0.036488
210
0.0
220
0.0
230
1.0
  0
CIRCLE
  8
1
  6
CONTINUOUS
 62
   140
  5
98
 10
13193.062625
 20
3403.642488
 30
0.0
 40
0.062546
210
0.0
220
0.0
230
1.0
  0
CIRCLE
  8
1
  6
CONTINUOUS
 62
   140
  5
99
 10
13193.062625
 20
3403.642488
 30
0.0
 40
0.036488
210
0.0
220
0.0
230
1.0
  0
POLYLINE
  8
1
  6
CONTINUOUS
 62
   140
  5
9A
 66
     1
 10
0.0
 20
0.0
 30
0.0
210
0.0
220
0.0
230
1.0
  0
VERTEX
  8
1
  6
CONTINUOUS
 62
   140
  5
9B
 10
13193.026083
 20
3403.621667
 30
0.0
  0
VERTEX
  8
1
  6
CONTINUOUS
 62
   140
  5
9C
 10
13193.062333
 20
3403.60025
 30
0.0
  0
VERTEX
  8
1
  6
CONTINUOUS
 62
   140
  5
9D
 10
13193.099083
 20
3403.621667
 30
0.0
  0
VERTEX
  8
1
  6
CONTINUOUS
 62
   140
  5
9E
 10
13193.099083
 20
3403.663083
 30
0.0
  0
VERTEX
  8
1
  6
CONTINUOUS
 62
   140
  5
9F
 10
13193.062333
 20
3403.684583
 30
0.0
  0
VERTEX
  8
1
  6
CONTINUOUS
 62
   140
  5
A0
 10
13193.026083
 20
3403.663083
 30
0.0
  0
VERTEX
  8
1
  6
CONTINUOUS
 62
   140
  5
A1
 10
13193.026083
 20
3403.621667
 30
0.0
  0
SEQEND
  8
1
  6
CONTINUOUS
 62
   140
  5
A2
  0
ARC
  8
1
  6
CONTINUOUS
 62
   140
  5
A3
 10
13192.5251
 20
3403.322808
 30
0.0
 40
0.020849
 50
180.0
 51
270.0
210
0.0
220
0.0
230
1.0
  0
ARC
  8
1
  6
CONTINUOUS
 62
   140
  5
A4
 10
13192.5251
 20
3403.962168
 30
0.0
 40
0.020849
 50
90.0
 51
180.0
210
0.0
220
0.0
230
1.0
  0
POLYLINE
  8
1
  6
CONTINUOUS
 62
   140
  5
A5
 66
     1
 10
0.0
 20
0.0
 30
0.0
210
0.0
220
0.0
230
1.0
  0
VERTEX
  8
1
  6
CONTINUOUS
 62
   140
  5
A6
 10
13193.04138
 20
3403.583658
 30
0.0
 42
0.020067
  0
VERTEX
  8
1
  6
CONTINUOUS
 62
   140
  5
A7
 10
13192.978127
 20
3403.579503
 30
0.0
 42
0.021821
  0
VERTEX
  8
1
  6
CONTINUOUS
 62
   140
  5
A8
 10
13192.917991
 20
3403.5705
 30
0.0
 42
0.025353
  0
VERTEX
  8
1
  6
CONTINUOUS
 62
   140
  5
A9
 10
13192.863191
 20
3403.55698
 30
0.0
 42
0.031623
  0
VERTEX
  8
1
  6
CONTINUOUS
 62
   140
  5
AA
 10
13192.815748
 20
3403.539443
 30
0.0
 42
0.042513
  0
VERTEX
  8
1
  6
CONTINUOUS
 62
   140
  5
AB
 10
13192.777413
 20
3403.518535
 30
0.0
 42
0.061159
  0
VERTEX
  8
1
  6
CONTINUOUS
 62
   140
  5
AC
 10
13192.749599
 20
3403.495027
 30
0.0
 42
0.08944
  0
VERTEX
  8
1
  6
CONTINUOUS
 62
   140
  5
AD
 10
13192.733333
 20
3403.469788
 30
0.0
 42
0.114613
  0
VERTEX
  8
1
  6
CONTINUOUS
 62
   140
  5
AE
 10
13192.729215
 20
3403.443747
 30
0.0
 42
0.108515
  0
VERTEX
  8
1
  6
CONTINUOUS
 62
   140
  5
AF
 10
13192.737397
 20
3403.417867
 30
0.0
 42
0.079253
  0
VERTEX
  8
1
  6
CONTINUOUS
 62
   140
  5
B0
 10
13192.757576
 20
3403.3931
 30
0.0
 42
0.053901
  0
VERTEX
  8
1
  6
CONTINUOUS
 62
   140
  5
B1
 10
13192.78901
 20
3403.370362
 30
0.0
 42
0.038224
  0
VERTEX
  8
1
  6
CONTINUOUS
 62
   140
  5
B2
 10
13192.830537
 20
3403.350491
 30
0.0
 42
0.029151
  0
VERTEX
  8
1
  6
CONTINUOUS
 62
   140
  5
B3
 10
13192.880626
 20
3403.33422
 30
0.0
 42
0.023941
  0
VERTEX
  8
1
  6
CONTINUOUS
 62
   140
  5
B4
 10
13192.937429
 20
3403.322149
 30
0.0
 42
0.021073
  0
VERTEX
  8
1
  6
CONTINUOUS
 62
   140
  5
B5
 10
13192.99885
 20
3403.314723
 30
0.0
 42
0.019793
  0
VERTEX
  8
1
  6
CONTINUOUS
 62
   140
  5
B6
 10
13193.062625
 20
3403.312217
 30
0.0
 42
0.019793
  0
SEQEND
  8
1
  6
CONTINUOUS
 62
   140
  5
B7
  0
POLYLINE
  8
1
  6
CONTINUOUS
 62
   140
  5
B8
 66
     1
 10
0.0
 20
0.0
 30
0.0
210
0.0
220
0.0
230
1.0
  0
VERTEX
  8
1
  6
CONTINUOUS
 62
   140
  5
B9
 10
13193.041386
 20
3403.701318
 30
0.0
 42
-0.020317
  0
VERTEX
  8
1
  6
CONTINUOUS
 62
   140
  5
BA
 10
13192.977382
 20
3403.705553
 30
0.0
 42
-0.022134
  0
VERTEX
  8
1
  6
CONTINUOUS
 62
   140
  5
BB
 10
13192.916599
 20
3403.714752
 30
0.0
 42
-0.025807
  0
VERTEX
  8
1
  6
CONTINUOUS
 62
   140
  5
BC
 10
13192.861333
 20
3403.728565
 30
0.0
 42
-0.032364
  0
VERTEX
  8
1
  6
CONTINUOUS
 62
   140
  5
BD
 10
13192.813674
 20
3403.746473
 30
0.0
 42
-0.043827
  0
VERTEX
  8
1
  6
CONTINUOUS
 62
   140
  5
BE
 10
13192.775422
 20
3403.767797
 30
0.0
 42
-0.063528
  0
VERTEX
  8
1
  6
CONTINUOUS
 62
   140
  5
BF
 10
13192.748022
 20
3403.791733
 30
0.0
 42
-0.092996
  0
VERTEX
  8
1
  6
CONTINUOUS
 62
   140
  5
C0
 10
13192.732509
 20
3403.817375
 30
0.0
 42
-0.117013
  0
VERTEX
  8
1
  6
CONTINUOUS
 62
   140
  5
C1
 10
13192.72947
 20
3403.843755
 30
0.0
 42
-0.10728
  0
VERTEX
  8
1
  6
CONTINUOUS
 62
   140
  5
C2
 10
13192.73902
 20
3403.869876
 30
0.0
 42
-0.076784
  0
VERTEX
  8
1
  6
CONTINUOUS
 62
   140
  5
C3
 10
13192.760798
 20
3403.894751
 30
0.0
 42
-0.052053
  0
VERTEX
  8
1
  6
CONTINUOUS
 62
   140
  5
C4
 10
13192.793981
 20
3403.91744
 30
0.0
 42
-0.037094
  0
VERTEX
  8
1
  6
CONTINUOUS
 62
   140
  5
C5
 10
13192.837315
 20
3403.937086
 30
0.0
 42
-0.028509
  0
VERTEX
  8
1
  6
CONTINUOUS
 62
   140
  5
C6
 10
13192.889162
 20
3403.952946
 30
0.0
 42
-0.023624
  0
VERTEX
  8
1
  6
CONTINUOUS
 62
   140
  5
C7
 10
13192.947564
 20
3403.964422
 30
0.0
 42
-0.023624
  0
SEQEND
  8
1
  6
CONTINUOUS
 62
   140
  5
C8
  0
LINE
  8
1
  6
CONTINUOUS
 62
   140
  5
C9
 10
13193.418167
 20
3403.70125
 30
0.0
 11
13193.084417
 21
3403.70125
 31
0.0
  0
LINE
  8
1
  6
CONTINUOUS
 62
   140
  5
CA
 10
13193.418167
 20
3403.584083
 30
0.0
 11
13193.084417
 21
3403.584083
 31
0.0
  0
POLYLINE
  8
1
  6
CONTINUOUS
 62
   140
  5
CB
 66
     1
 10
0.0
 20
0.0
 30
0.0
210
0.0
220
0.0
230
1.0
  0
VERTEX
  8
1
  6
CONTINUOUS
 62
   140
  5
CC
 10
13193.584454
 20
3403.934021
 30
0.0
 42
-0.107797
  0
VERTEX
  8
1
  6
CONTINUOUS
 62
   140
  5
CD
 10
13193.583694
 20
3403.930669
 30
0.0
 42
-0.083254
  0
VERTEX
  8
1
  6
CONTINUOUS
 62
   140
  5
CE
 10
13193.581443
 20
3403.927446
 30
0.0
 42
-0.058242
  0
VERTEX
  8
1
  6
CONTINUOUS
 62
   140
  5
CF
 10
13193.577787
 20
3403.924476
 30
0.0
 42
-0.041681
  0
VERTEX
  8
1
  6
CONTINUOUS
 62
   140
  5
D0
 10
13193.572867
 20
3403.921873
 30
0.0
 42
-0.03183
  0
VERTEX
  8
1
  6
CONTINUOUS
 62
   140
  5
D1
 10
13193.566872
 20
3403.919736
 30
0.0
 42
-0.026114
  0
VERTEX
  8
1
  6
CONTINUOUS
 62
   140
  5
D2
 10
13193.560032
 20
3403.918148
 30
0.0
 42
-0.022956
  0
VERTEX
  8
1
  6
CONTINUOUS
 62
   140
  5
D3
 10
13193.552611
 20
3403.917171
 30
0.0
 42
-0.021545
  0
VERTEX
  8
1
  6
CONTINUOUS
 62
   140
  5
D4
 10
13193.544893
 20
3403.916841
 30
0.0
 42
-0.021545
  0
VERTEX
  8
1
  6
CONTINUOUS
 62
   140
  5
D5
 10
13193.537175
 20
3403.917171
 30
0.0
 42
-0.022956
  0
VERTEX
  8
1
  6
CONTINUOUS
 62
   140
  5
D6
 10
13193.529753
 20
3403.918148
 30
0.0
 42
-0.026114
  0
VERTEX
  8
1
  6
CONTINUOUS
 62
   140
  5
D7
 10
13193.522914
 20
3403.919736
 30
0.0
 42
-0.03183
  0
VERTEX
  8
1
  6
CONTINUOUS
 62
   140
  5
D8
 10
13193.516919
 20
3403.921873
 30
0.0
 42
-0.041681
  0
VERTEX
  8
1
  6
CONTINUOUS
 62
   140
  5
D9
 10
13193.511999
 20
3403.924476
 30
0.0
 42
-0.058242
  0
VERTEX
  8
1
  6
CONTINUOUS
 62
   140
  5
DA
 10
13193.508343
 20
3403.927446
 30
0.0
 42
-0.083254
  0
VERTEX
  8
1
  6
CONTINUOUS
 62
   140
  5
DB
 10
13193.506091
 20
3403.930669
 30
0.0
 42
-0.107797
  0
VERTEX
  8
1
  6
CONTINUOUS
 62
   140
  5
DC
 10
13193.505331
 20
3403.934021
 30
0.0
 42
-0.107797
  0
SEQEND
  8
1
  6
CONTINUOUS
 62
   140
  5
DD
  0
POLYLINE
  8
1
  6
CONTINUOUS
 62
   140
  5
DE
 66
     1
 10
0.0
 20
0.0
 30
0.0
210
0.0
220
0.0
230
1.0
  0
VERTEX
  8
1
  6
CONTINUOUS
 62
   140
  5
DF
 10
13194.052346
 20
3403.934021
 30
0.0
 42
-0.107797
  0
VERTEX
  8
1
  6
CONTINUOUS
 62
   140
  5
E0
 10
13194.051586
 20
3403.930669
 30
0.0
 42
-0.083254
  0
VERTEX
  8
1
  6
CONTINUOUS
 62
   140
  5
E1
 10
13194.049334
 20
3403.927446
 30
0.0
 42
-0.058242
  0
VERTEX
  8
1
  6
CONTINUOUS
 62
   140
  5
E2
 10
13194.045679
 20
3403.924476
 30
0.0
 42
-0.041681
  0
VERTEX
  8
1
  6
CONTINUOUS
 62
   140
  5
E3
 10
13194.040759
 20
3403.921873
 30
0.0
 42
-0.03183
  0
VERTEX
  8
1
  6
CONTINUOUS
 62
   140
  5
E4
 10
13194.034764
 20
3403.919736
 30
0.0
 42
-0.026114
  0
VERTEX
  8
1
  6
CONTINUOUS
 62
   140
  5
E5
 10
13194.027924
 20
3403.918148
 30
0.0
 42
-0.022956
  0
VERTEX
  8
1
  6
CONTINUOUS
 62
   140
  5
E6
 10
13194.020502
 20
3403.917171
 30
0.0
 42
-0.021545
  0
VERTEX
  8
1
  6
CONTINUOUS
 62
   140
  5
E7
 10
13194.012784
 20
3403.916841
 30
0.0
 42
-0.021545
  0
VERTEX
  8
1
  6
CONTINUOUS
 62
   140
  5
E8
 10
13194.005066
 20
3403.917171
 30
0.0
 42
-0.022956
  0
VERTEX
  8
1
  6
CONTINUOUS
 62
   140
  5
E9
 10
13193.997645
 20
3403.918148
 30
0.0
 42
-0.026114
  0
VERTEX
  8
1
  6
CONTINUOUS
 62
   140
  5
EA
 10
13193.990805
 20
3403.919736
 30
0.0
 42
-0.03183
  0
VERTEX
  8
1
  6
CONTINUOUS
 62
   140
  5
EB
 10
13193.98481
 20
3403.921873
 30
0.0
 42
-0.041681
  0
VERTEX
  8
1
  6
CONTINUOUS
 62
   140
  5
EC
 10
13193.97989
 20
3403.924476
 30
0.0
 42
-0.058242
  0
VERTEX
  8
1
  6
CONTINUOUS
 62
   140
  5
ED
 10
13193.976234
 20
3403.927446
 30
0.0
 42
-0.083254
  0
VERTEX
  8
1
  6
CONTINUOUS
 62
   140
  5
EE
 10
13193.973983
 20
3403.930669
 30
0.0
 42
-0.107797
  0
VERTEX
  8
1
  6
CONTINUOUS
 62
   140
  5
EF
 10
13193.973223
 20
3403.934021
 30
0.0
 42
-0.107797
  0
SEQEND
  8
1
  6
CONTINUOUS
 62
   140
  5
F0
  0
POLYLINE
  8
1
  6
CONTINUOUS
 62
   140
  5
F1
 66
     1
 10
0.0
 20
0.0
 30
0.0
210
0.0
220
0.0
230
1.0
  0
VERTEX
  8
1
  6
CONTINUOUS
 62
   140
  5
F2
 10
13193.973223
 20
3403.934021
 30
0.0
 42
-0.071267
  0
VERTEX
  8
1
  6
CONTINUOUS
 62
   140
  5
F3
 10
13193.973983
 20
3403.939269
 30
0.0
 42
-0.065729
  0
VERTEX
  8
1
  6
CONTINUOUS
 62
   140
  5
F4
 10
13193.976234
 20
3403.944315
 30
0.0
 42
-0.057443
  0
VERTEX
  8
1
  6
CONTINUOUS
 62
   140
  5
F5
 10
13193.97989
 20
3403.948966
 30
0.0
 42
-0.049287
  0
VERTEX
  8
1
  6
CONTINUOUS
 62
   140
  5
F6
 10
13193.98481
 20
3403.953042
 30
0.0
 42
-0.042701
  0
VERTEX
  8
1
  6
CONTINUOUS
 62
   140
  5
F7
 10
13193.990805
 20
3403.956388
 30
0.0
 42
-0.037998
  0
VERTEX
  8
1
  6
CONTINUOUS
 62
   140
  5
F8
 10
13193.997645
 20
3403.958874
 30
0.0
 42
-0.03504
  0
VERTEX
  8
1
  6
CONTINUOUS
 62
   140
  5
F9
 10
13194.005066
 20
3403.960405
 30
0.0
 42
-0.033623
  0
VERTEX
  8
1
  6
CONTINUOUS
 62
   140
  5
FA
 10
13194.012784
 20
3403.960922
 30
0.0
 42
-0.033623
  0
VERTEX
  8
1
  6
CONTINUOUS
 62
   140
  5
FB
 10
13194.020502
 20
3403.960405
 30
0.0
 42
-0.03504
  0
VERTEX
  8
1
  6
CONTINUOUS
 62
   140
  5
FC
 10
13194.027924
 20
3403.958874
 30
0.0
 42
-0.037998
  0
VERTEX
  8
1
  6
CONTINUOUS
 62
   140
  5
FD
 10
13194.034764
 20
3403.956388
 30
0.0
 42
-0.042701
  0
VERTEX
  8
1
  6
CONTINUOUS
 62
   140
  5
FE
 10
13194.040759
 20
3403.953042
 30
0.0
 42
-0.049287
  0
VERTEX
  8
1
  6
CONTINUOUS
 62
   140
  5
FF
 10
13194.045679
 20
3403.948966
 30
0.0
 42
-0.057443
  0
VERTEX
  8
1
  6
CONTINUOUS
 62
   140
  5
100
 10
13194.049335
 20
3403.944315
 30
0.0
 42
-0.065729
  0
VERTEX
  8
1
  6
CONTINUOUS
 62
   140
  5
101
 10
13194.051586
 20
3403.939269
 30
0.0
 42
-0.071267
  0
VERTEX
  8
1
  6
CONTINUOUS
 62
   140
  5
102
 10
13194.052346
 20
3403.934021
 30
0.0
 42
-0.071267
  0
SEQEND
  8
1
  6
CONTINUOUS
 62
   140
  5
103
  0
POLYLINE
  8
1
  6
CONTINUOUS
 62
   140
  5
104
 66
     1
 10
0.0
 20
0.0
 30
0.0
210
0.0
220
0.0
230
1.0
  0
VERTEX
  8
1
  6
CONTINUOUS
 62
   140
  5
105
 10
13193.505331
 20
3403.934021
 30
0.0
 42
-0.071267
  0
VERTEX
  8
1
  6
CONTINUOUS
 62
   140
  5
106
 10
13193.506091
 20
3403.939269
 30
0.0
 42
-0.065729
  0
VERTEX
  8
1
  6
CONTINUOUS
 62
   140
  5
107
 10
13193.508343
 20
3403.944315
 30
0.0
 42
-0.057443
  0
VERTEX
  8
1
  6
CONTINUOUS
 62
   140
  5
108
 10
13193.511999
 20
3403.948966
 30
0.0
 42
-0.049287
  0
VERTEX
  8
1
  6
CONTINUOUS
 62
   140
  5
109
 10
13193.516919
 20
3403.953042
 30
0.0
 42
-0.042701
  0
VERTEX
  8
1
  6
CONTINUOUS
 62
   140
  5
10A
 10
13193.522914
 20
3403.956388
 30
0.0
 42
-0.037998
  0
VERTEX
  8
1
  6
CONTINUOUS
 62
   140
  5
10B
 10
13193.529753
 20
3403.958874
 30
0.0
 42
-0.03504
  0
VERTEX
  8
1
  6
CONTINUOUS
 62
   140
  5
10C
 10
13193.537175
 20
3403.960405
 30
0.0
 42
-0.033623
  0
VERTEX
  8
1
  6
CONTINUOUS
 62
   140
  5
10D
 10
13193.544893
 20
3403.960922
 30
0.0
 42
-0.033623
  0
VERTEX
  8
1
  6
CONTINUOUS
 62
   140
  5
10E
 10
13193.552611
 20
3403.960405
 30
0.0
 42
-0.03504
  0
VERTEX
  8
1
  6
CONTINUOUS
 62
   140
  5
10F
 10
13193.560032
 20
3403.958874
 30
0.0
 42
-0.037998
  0
VERTEX
  8
1
  6
CONTINUOUS
 62
   140
  5
110
 10
13193.566872
 20
3403.956388
 30
0.0
 42
-0.042701
  0
VERTEX
  8
1
  6
CONTINUOUS
 62
   140
  5
111
 10
13193.572867
 20
3403.953042
 30
0.0
 42
-0.049287
  0
VERTEX
  8
1
  6
CONTINUOUS
 62
   140
  5
112
 10
13193.577787
 20
3403.948966
 30
0.0
 42
-0.057443
  0
VERTEX
  8
1
  6
CONTINUOUS
 62
   140
  5
113
 10
13193.581443
 20
3403.944315
 30
0.0
 42
-0.065729
  0
VERTEX
  8
1
  6
CONTINUOUS
 62
   140
  5
114
 10
13193.583694
 20
3403.939269
 30
0.0
 42
-0.071267
  0
VERTEX
  8
1
  6
CONTINUOUS
 62
   140
  5
115
 10
13193.584454
 20
3403.934021
 30
0.0
 42
-0.071267
  0
SEQEND
  8
1
  6
CONTINUOUS
 62
   140
  5
116
  0
POLYLINE
  8
1
  6
CONTINUOUS
 62
   140
  5
117
 66
     1
 10
0.0
 20
0.0
 30
0.0
210
0.0
220
0.0
230
1.0
  0
VERTEX
  8
1
  6
CONTINUOUS
 62
   140
  5
118
 10
13193.584454
 20
3403.763956
 30
0.0
 42
-0.069642
  0
VERTEX
  8
1
  6
CONTINUOUS
 62
   140
  5
119
 10
13193.583694
 20
3403.758579
 30
0.0
 42
-0.064663
  0
VERTEX
  8
1
  6
CONTINUOUS
 62
   140
  5
11A
 10
13193.581443
 20
3403.753408
 30
0.0
 42
-0.05709
  0
VERTEX
  8
1
  6
CONTINUOUS
 62
   140
  5
11B
 10
13193.577787
 20
3403.748643
 30
0.0
 42
-0.049486
  0
VERTEX
  8
1
  6
CONTINUOUS
 62
   140
  5
11C
 10
13193.572867
 20
3403.744467
 30
0.0
 42
-0.043232
  0
VERTEX
  8
1
  6
CONTINUOUS
 62
   140
  5
11D
 10
13193.566872
 20
3403.741039
 30
0.0
 42
-0.038702
  0
VERTEX
  8
1
  6
CONTINUOUS
 62
   140
  5
11E
 10
13193.560032
 20
3403.738492
 30
0.0
 42
-0.035825
  0
VERTEX
  8
1
  6
CONTINUOUS
 62
   140
  5
11F
 10
13193.552611
 20
3403.736924
 30
0.0
 42
-0.034439
  0
VERTEX
  8
1
  6
CONTINUOUS
 62
   140
  5
120
 10
13193.544893
 20
3403.736394
 30
0.0
 42
-0.034439
  0
VERTEX
  8
1
  6
CONTINUOUS
 62
   140
  5
121
 10
13193.537175
 20
3403.736924
 30
0.0
 42
-0.035825
  0
VERTEX
  8
1
  6
CONTINUOUS
 62
   140
  5
122
 10
13193.529753
 20
3403.738492
 30
0.0
 42
-0.038702
  0
VERTEX
  8
1
  6
CONTINUOUS
 62
   140
  5
123
 10
13193.522914
 20
3403.741039
 30
0.0
 42
-0.043232
  0
VERTEX
  8
1
  6
CONTINUOUS
 62
   140
  5
124
 10
13193.516919
 20
3403.744467
 30
0.0
 42
-0.049486
  0
VERTEX
  8
1
  6
CONTINUOUS
 62
   140
  5
125
 10
13193.511999
 20
3403.748643
 30
0.0
 42
-0.05709
  0
VERTEX
  8
1
  6
CONTINUOUS
 62
   140
  5
126
 10
13193.508343
 20
3403.753408
 30
0.0
 42
-0.064663
  0
VERTEX
  8
1
  6
CONTINUOUS
 62
   140
  5
127
 10
13193.506091
 20
3403.758579
 30
0.0
 42
-0.069642
  0
VERTEX
  8
1
  6
CONTINUOUS
 62
   140
  5
128
 10
13193.505331
 20
3403.763956
 30
0.0
 42
-0.069642
  0
SEQEND
  8
1
  6
CONTINUOUS
 62
   140
  5
129
  0
POLYLINE
  8
1
  6
CONTINUOUS
 62
   140
  5
12A
 66
     1
 10
0.0
 20
0.0
 30
0.0
210
0.0
220
0.0
230
1.0
  0
VERTEX
  8
1
  6
CONTINUOUS
 62
   140
  5
12B
 10
13193.505331
 20
3403.763956
 30
0.0
 42
-0.105926
  0
VERTEX
  8
1
  6
CONTINUOUS
 62
   140
  5
12C
 10
13193.506091
 20
3403.767374
 30
0.0
 42
-0.082645
  0
VERTEX
  8
1
  6
CONTINUOUS
 62
   140
  5
12D
 10
13193.508343
 20
3403.770661
 30
0.0
 42
-0.058441
  0
VERTEX
  8
1
  6
CONTINUOUS
 62
   140
  5
12E
 10
13193.511999
 20
3403.77369
 30
0.0
 42
-0.042129
  0
VERTEX
  8
1
  6
CONTINUOUS
 62
   140
  5
12F
 10
13193.516919
 20
3403.776345
 30
0.0
 42
-0.032313
  0
VERTEX
  8
1
  6
CONTINUOUS
 62
   140
  5
130
 10
13193.522914
 20
3403.778524
 30
0.0
 42
-0.026577
  0
VERTEX
  8
1
  6
CONTINUOUS
 62
   140
  5
131
 10
13193.529753
 20
3403.780143
 30
0.0
 42
-0.023395
  0
VERTEX
  8
1
  6
CONTINUOUS
 62
   140
  5
132
 10
13193.537175
 20
3403.78114
 30
0.0
 42
-0.021971
  0
VERTEX
  8
1
  6
CONTINUOUS
 62
   140
  5
133
 10
13193.544893
 20
3403.781477
 30
0.0
 42
-0.021971
  0
VERTEX
  8
1
  6
CONTINUOUS
 62
   140
  5
134
 10
13193.552611
 20
3403.78114
 30
0.0
 42
-0.023395
  0
VERTEX
  8
1
  6
CONTINUOUS
 62
   140
  5
135
 10
13193.560032
 20
3403.780143
 30
0.0
 42
-0.026577
  0
VERTEX
  8
1
  6
CONTINUOUS
 62
   140
  5
136
 10
13193.566872
 20
3403.778524
 30
0.0
 42
-0.032313
  0
VERTEX
  8
1
  6
CONTINUOUS
 62
   140
  5
137
 10
13193.572867
 20
3403.776345
 30
0.0
 42
-0.042129
  0
VERTEX
  8
1
  6
CONTINUOUS
 62
   140
  5
138
 10
13193.577787
 20
3403.77369
 30
0.0
 42
-0.058441
  0
VERTEX
  8
1
  6
CONTINUOUS
 62
   140
  5
139
 10
13193.581443
 20
3403.770661
 30
0.0
 42
-0.082645
  0
VERTEX
  8
1
  6
CONTINUOUS
 62
   140
  5
13A
 10
13193.583694
 20
3403.767374
 30
0.0
 42
-0.105926
  0
VERTEX
  8
1
  6
CONTINUOUS
 62
   140
  5
13B
 10
13193.584454
 20
3403.763956
 30
0.0
 42
-0.105926
  0
SEQEND
  8
1
  6
CONTINUOUS
 62
   140
  5
13C
  0
POLYLINE
  8
1
  6
CONTINUOUS
 62
   140
  5
13D
 66
     1
 10
0.0
 20
0.0
 30
0.0
210
0.0
220
0.0
230
1.0
  0
VERTEX
  8
1
  6
CONTINUOUS
 62
   140
  5
13E
 10
13193.973223
 20
3403.763956
 30
0.0
 42
-0.105926
  0
VERTEX
  8
1
  6
CONTINUOUS
 62
   140
  5
13F
 10
13193.973983
 20
3403.767374
 30
0.0
 42
-0.082645
  0
VERTEX
  8
1
  6
CONTINUOUS
 62
   140
  5
140
 10
13193.976234
 20
3403.770661
 30
0.0
 42
-0.058441
  0
VERTEX
  8
1
  6
CONTINUOUS
 62
   140
  5
141
 10
13193.97989
 20
3403.77369
 30
0.0
 42
-0.042129
  0
VERTEX
  8
1
  6
CONTINUOUS
 62
   140
  5
142
 10
13193.98481
 20
3403.776345
 30
0.0
 42
-0.032313
  0
VERTEX
  8
1
  6
CONTINUOUS
 62
   140
  5
143
 10
13193.990805
 20
3403.778524
 30
0.0
 42
-0.026577
  0
VERTEX
  8
1
  6
CONTINUOUS
 62
   140
  5
144
 10
13193.997645
 20
3403.780143
 30
0.0
 42
-0.023395
  0
VERTEX
  8
1
  6
CONTINUOUS
 62
   140
  5
145
 10
13194.005066
 20
3403.78114
 30
0.0
 42
-0.021971
  0
VERTEX
  8
1
  6
CONTINUOUS
 62
   140
  5
146
 10
13194.012784
 20
3403.781477
 30
0.0
 42
-0.021971
  0
VERTEX
  8
1
  6
CONTINUOUS
 62
   140
  5
147
 10
13194.020502
 20
3403.78114
 30
0.0
 42
-0.023395
  0
VERTEX
  8
1
  6
CONTINUOUS
 62
   140
  5
148
 10
13194.027924
 20
3403.780143
 30
0.0
 42
-0.026577
  0
VERTEX
  8
1
  6
CONTINUOUS
 62
   140
  5
149
 10
13194.034764
 20
3403.778524
 30
0.0
 42
-0.032313
  0
VERTEX
  8
1
  6
CONTINUOUS
 62
   140
  5
14A
 10
13194.040759
 20
3403.776345
 30
0.0
 42
-0.042129
  0
VERTEX
  8
1
  6
CONTINUOUS
 62
   140
  5
14B
 10
13194.045679
 20
3403.77369
 30
0.0
 42
-0.058441
  0
VERTEX
  8
1
  6
CONTINUOUS
 62
   140
  5
14C
 10
13194.049334
 20
3403.770661
 30
0.0
 42
-0.082645
  0
VERTEX
  8
1
  6
CONTINUOUS
 62
   140
  5
14D
 10
13194.051586
 20
3403.767374
 30
0.0
 42
-0.105926
  0
VERTEX
  8
1
  6
CONTINUOUS
 62
   140
  5
14E
 10
13194.052346
 20
3403.763956
 30
0.0
 42
-0.105926
  0
SEQEND
  8
1
  6
CONTINUOUS
 62
   140
  5
14F
  0
POLYLINE
  8
1
  6
CONTINUOUS
 62
   140
  5
150
 66
     1
 10
0.0
 20
0.0
 30
0.0
210
0.0
220
0.0
230
1.0
  0
VERTEX
  8
1
  6
CONTINUOUS
 62
   140
  5
151
 10
13194.052346
 20
3403.763956
 30
0.0
 42
-0.069642
  0
VERTEX
  8
1
  6
CONTINUOUS
 62
   140
  5
152
 10
13194.051586
 20
3403.758579
 30
0.0
 42
-0.064663
  0
VERTEX
  8
1
  6
CONTINUOUS
 62
   140
  5
153
 10
13194.049334
 20
3403.753408
 30
0.0
 42
-0.05709
  0
VERTEX
  8
1
  6
CONTINUOUS
 62
   140
  5
154
 10
13194.045679
 20
3403.748643
 30
0.0
 42
-0.049486
  0
VERTEX
  8
1
  6
CONTINUOUS
 62
   140
  5
155
 10
13194.040759
 20
3403.744467
 30
0.0
 42
-0.043232
  0
VERTEX
  8
1
  6
CONTINUOUS
 62
   140
  5
156
 10
13194.034764
 20
3403.741039
 30
0.0
 42
-0.038702
  0
VERTEX
  8
1
  6
CONTINUOUS
 62
   140
  5
157
 10
13194.027924
 20
3403.738492
 30
0.0
 42
-0.035825
  0
VERTEX
  8
1
  6
CONTINUOUS
 62
   140
  5
158
 10
13194.020502
 20
3403.736924
 30
0.0
 42
-0.034439
  0
VERTEX
  8
1
  6
CONTINUOUS
 62
   140
  5
159
 10
13194.012784
 20
3403.736394
 30
0.0
 42
-0.034439
  0
VERTEX
  8
1
  6
CONTINUOUS
 62
   140
  5
15A
 10
13194.005066
 20
3403.736924
 30
0.0
 42
-0.035825
  0
VERTEX
  8
1
  6
CONTINUOUS
 62
   140
  5
15B
 10
13193.997645
 20
3403.738492
 30
0.0
 42
-0.038702
  0
VERTEX
  8
1
  6
CONTINUOUS
 62
   140
  5
15C
 10
13193.990805
 20
3403.741039
 30
0.0
 42
-0.043232
  0
VERTEX
  8
1
  6
CONTINUOUS
 62
   140
  5
15D
 10
13193.98481
 20
3403.744467
 30
0.0
 42
-0.049486
  0
VERTEX
  8
1
  6
CONTINUOUS
 62
   140
  5
15E
 10
13193.97989
 20
3403.748643
 30
0.0
 42
-0.05709
  0
VERTEX
  8
1
  6
CONTINUOUS
 62
   140
  5
15F
 10
13193.976234
 20
3403.753408
 30
0.0
 42
-0.064663
  0
VERTEX
  8
1
  6
CONTINUOUS
 62
   140
  5
160
 10
13193.973983
 20
3403.758579
 30
0.0
 42
-0.069642
  0
VERTEX
  8
1
  6
CONTINUOUS
 62
   140
  5
161
 10
13193.973223
 20
3403.763956
 30
0.0
 42
-0.069642
  0
SEQEND
  8
1
  6
CONTINUOUS
 62
   140
  5
162
  0
POLYLINE
  8
1
  6
CONTINUOUS
 62
   140
  5
163
 66
     1
 10
0.0
 20
0.0
 30
0.0
210
0.0
220
0.0
230
1.0
  0
VERTEX
  8
1
  6
CONTINUOUS
 62
   140
  5
164
 10
13193.499859
 20
3403.340946
 30
0.0
 42
0.071267
  0
VERTEX
  8
1
  6
CONTINUOUS
 62
   140
  5
165
 10
13193.500619
 20
3403.335698
 30
0.0
 42
0.065729
  0
VERTEX
  8
1
  6
CONTINUOUS
 62
   140
  5
166
 10
13193.50287
 20
3403.330652
 30
0.0
 42
0.057443
  0
VERTEX
  8
1
  6
CONTINUOUS
 62
   140
  5
167
 10
13193.506526
 20
3403.326001
 30
0.0
 42
0.049287
  0
VERTEX
  8
1
  6
CONTINUOUS
 62
   140
  5
168
 10
13193.511446
 20
3403.321924
 30
0.0
 42
0.042701
  0
VERTEX
  8
1
  6
CONTINUOUS
 62
   140
  5
169
 10
13193.517441
 20
3403.318579
 30
0.0
 42
0.037998
  0
VERTEX
  8
1
  6
CONTINUOUS
 62
   140
  5
16A
 10
13193.524281
 20
3403.316093
 30
0.0
 42
0.03504
  0
VERTEX
  8
1
  6
CONTINUOUS
 62
   140
  5
16B
 10
13193.531702
 20
3403.314562
 30
0.0
 42
0.033623
  0
VERTEX
  8
1
  6
CONTINUOUS
 62
   140
  5
16C
 10
13193.53942
 20
3403.314045
 30
0.0
 42
0.033623
  0
VERTEX
  8
1
  6
CONTINUOUS
 62
   140
  5
16D
 10
13193.547139
 20
3403.314562
 30
0.0
 42
0.03504
  0
VERTEX
  8
1
  6
CONTINUOUS
 62
   140
  5
16E
 10
13193.55456
 20
3403.316093
 30
0.0
 42
0.037998
  0
VERTEX
  8
1
  6
CONTINUOUS
 62
   140
  5
16F
 10
13193.5614
 20
3403.318579
 30
0.0
 42
0.042701
  0
VERTEX
  8
1
  6
CONTINUOUS
 62
   140
  5
170
 10
13193.567395
 20
3403.321924
 30
0.0
 42
0.049287
  0
VERTEX
  8
1
  6
CONTINUOUS
 62
   140
  5
171
 10
13193.572315
 20
3403.326001
 30
0.0
 42
0.057443
  0
VERTEX
  8
1
  6
CONTINUOUS
 62
   140
  5
172
 10
13193.575971
 20
3403.330652
 30
0.0
 42
0.065729
  0
VERTEX
  8
1
  6
CONTINUOUS
 62
   140
  5
173
 10
13193.578222
 20
3403.335698
 30
0.0
 42
0.071267
  0
VERTEX
  8
1
  6
CONTINUOUS
 62
   140
  5
174
 10
13193.578982
 20
3403.340946
 30
0.0
 42
0.071267
  0
SEQEND
  8
1
  6
CONTINUOUS
 62
   140
  5
175
  0
POLYLINE
  8
1
  6
CONTINUOUS
 62
   140
  5
176
 66
     1
 10
0.0
 20
0.0
 30
0.0
210
0.0
220
0.0
230
1.0
  0
VERTEX
  8
1
  6
CONTINUOUS
 62
   140
  5
177
 10
13193.499703
 20
3403.344299
 30
0.0
 42
-0.107797
  0
VERTEX
  8
1
  6
CONTINUOUS
 62
   140
  5
178
 10
13193.500473
 20
3403.347692
 30
0.0
 42
-0.083254
  0
VERTEX
  8
1
  6
CONTINUOUS
 62
   140
  5
179
 10
13193.502752
 20
3403.350954
 30
0.0
 42
-0.058242
  0
VERTEX
  8
1
  6
CONTINUOUS
 62
   140
  5
17A
 10
13193.506453
 20
3403.353961
 30
0.0
 42
-0.041681
  0
VERTEX
  8
1
  6
CONTINUOUS
 62
   140
  5
17B
 10
13193.511434
 20
3403.356597
 30
0.0
 42
-0.03183
  0
VERTEX
  8
1
  6
CONTINUOUS
 62
   140
  5
17C
 10
13193.517503
 20
3403.35876
 30
0.0
 42
-0.026114
  0
VERTEX
  8
1
  6
CONTINUOUS
 62
   140
  5
17D
 10
13193.524427
 20
3403.360367
 30
0.0
 42
-0.022956
  0
VERTEX
  8
1
  6
CONTINUOUS
 62
   140
  5
17E
 10
13193.53194
 20
3403.361357
 30
0.0
 42
-0.021545
  0
VERTEX
  8
1
  6
CONTINUOUS
 62
   140
  5
17F
 10
13193.539753
 20
3403.361691
 30
0.0
 42
-0.021545
  0
VERTEX
  8
1
  6
CONTINUOUS
 62
   140
  5
180
 10
13193.547567
 20
3403.361357
 30
0.0
 42
-0.022956
  0
VERTEX
  8
1
  6
CONTINUOUS
 62
   140
  5
181
 10
13193.55508
 20
3403.360367
 30
0.0
 42
-0.026114
  0
VERTEX
  8
1
  6
CONTINUOUS
 62
   140
  5
182
 10
13193.562004
 20
3403.35876
 30
0.0
 42
-0.03183
  0
VERTEX
  8
1
  6
CONTINUOUS
 62
   140
  5
183
 10
13193.568073
 20
3403.356597
 30
0.0
 42
-0.041681
  0
VERTEX
  8
1
  6
CONTINUOUS
 62
   140
  5
184
 10
13193.573053
 20
3403.353961
 30
0.0
 42
-0.058242
  0
VERTEX
  8
1
  6
CONTINUOUS
 62
   140
  5
185
 10
13193.576754
 20
3403.350954
 30
0.0
 42
-0.083254
  0
VERTEX
  8
1
  6
CONTINUOUS
 62
   140
  5
186
 10
13193.579033
 20
3403.347692
 30
0.0
 42
-0.107797
  0
VERTEX
  8
1
  6
CONTINUOUS
 62
   140
  5
187
 10
13193.579803
 20
3403.344299
 30
0.0
 42
-0.107797
  0
SEQEND
  8
1
  6
CONTINUOUS
 62
   140
  5
188
  0
POLYLINE
  8
1
  6
CONTINUOUS
 62
   140
  5
189
 66
     1
 10
0.0
 20
0.0
 30
0.0
210
0.0
220
0.0
230
1.0
  0
VERTEX
  8
1
  6
CONTINUOUS
 62
   140
  5
18A
 10
13194.046258
 20
3403.515894
 30
0.0
 42
0.069642
  0
VERTEX
  8
1
  6
CONTINUOUS
 62
   140
  5
18B
 10
13194.045498
 20
3403.521271
 30
0.0
 42
0.064663
  0
VERTEX
  8
1
  6
CONTINUOUS
 62
   140
  5
18C
 10
13194.043247
 20
3403.526442
 30
0.0
 42
0.05709
  0
VERTEX
  8
1
  6
CONTINUOUS
 62
   140
  5
18D
 10
13194.039591
 20
3403.531207
 30
0.0
 42
0.049486
  0
VERTEX
  8
1
  6
CONTINUOUS
 62
   140
  5
18E
 10
13194.034671
 20
3403.535383
 30
0.0
 42
0.043232
  0
VERTEX
  8
1
  6
CONTINUOUS
 62
   140
  5
18F
 10
13194.028676
 20
3403.538811
 30
0.0
 42
0.038702
  0
VERTEX
  8
1
  6
CONTINUOUS
 62
   140
  5
190
 10
13194.021836
 20
3403.541358
 30
0.0
 42
0.035825
  0
VERTEX
  8
1
  6
CONTINUOUS
 62
   140
  5
191
 10
13194.014415
 20
3403.542926
 30
0.0
 42
0.034439
  0
VERTEX
  8
1
  6
CONTINUOUS
 62
   140
  5
192
 10
13194.006697
 20
3403.543456
 30
0.0
 42
0.034439
  0
VERTEX
  8
1
  6
CONTINUOUS
 62
   140
  5
193
 10
13193.998979
 20
3403.542926
 30
0.0
 42
0.035825
  0
VERTEX
  8
1
  6
CONTINUOUS
 62
   140
  5
194
 10
13193.991557
 20
3403.541358
 30
0.0
 42
0.038702
  0
VERTEX
  8
1
  6
CONTINUOUS
 62
   140
  5
195
 10
13193.984717
 20
3403.538811
 30
0.0
 42
0.043232
  0
VERTEX
  8
1
  6
CONTINUOUS
 62
   140
  5
196
 10
13193.978722
 20
3403.535383
 30
0.0
 42
0.049486
  0
VERTEX
  8
1
  6
CONTINUOUS
 62
   140
  5
197
 10
13193.973802
 20
3403.531207
 30
0.0
 42
0.05709
  0
VERTEX
  8
1
  6
CONTINUOUS
 62
   140
  5
198
 10
13193.970147
 20
3403.526442
 30
0.0
 42
0.064663
  0
VERTEX
  8
1
  6
CONTINUOUS
 62
   140
  5
199
 10
13193.967895
 20
3403.521271
 30
0.0
 42
0.069642
  0
VERTEX
  8
1
  6
CONTINUOUS
 62
   140
  5
19A
 10
13193.967135
 20
3403.515894
 30
0.0
 42
0.069642
  0
SEQEND
  8
1
  6
CONTINUOUS
 62
   140
  5
19B
  0
POLYLINE
  8
1
  6
CONTINUOUS
 62
   140
  5
19C
 66
     1
 10
0.0
 20
0.0
 30
0.0
210
0.0
220
0.0
230
1.0
  0
VERTEX
  8
1
  6
CONTINUOUS
 62
   140
  5
19D
 10
13193.967135
 20
3403.515894
 30
0.0
 42
0.105926
  0
VERTEX
  8
1
  6
CONTINUOUS
 62
   140
  5
19E
 10
13193.967895
 20
3403.512476
 30
0.0
 42
0.082645
  0
VERTEX
  8
1
  6
CONTINUOUS
 62
   140
  5
19F
 10
13193.970147
 20
3403.509189
 30
0.0
 42
0.058441
  0
VERTEX
  8
1
  6
CONTINUOUS
 62
   140
  5
1A0
 10
13193.973802
 20
3403.50616
 30
0.0
 42
0.042129
  0
VERTEX
  8
1
  6
CONTINUOUS
 62
   140
  5
1A1
 10
13193.978722
 20
3403.503505
 30
0.0
 42
0.032313
  0
VERTEX
  8
1
  6
CONTINUOUS
 62
   140
  5
1A2
 10
13193.984717
 20
3403.501326
 30
0.0
 42
0.026577
  0
VERTEX
  8
1
  6
CONTINUOUS
 62
   140
  5
1A3
 10
13193.991557
 20
3403.499707
 30
0.0
 42
0.023395
  0
VERTEX
  8
1
  6
CONTINUOUS
 62
   140
  5
1A4
 10
13193.998979
 20
3403.49871
 30
0.0
 42
0.021971
  0
VERTEX
  8
1
  6
CONTINUOUS
 62
   140
  5
1A5
 10
13194.006697
 20
3403.498373
 30
0.0
 42
0.021971
  0
VERTEX
  8
1
  6
CONTINUOUS
 62
   140
  5
1A6
 10
13194.014415
 20
3403.49871
 30
0.0
 42
0.023395
  0
VERTEX
  8
1
  6
CONTINUOUS
 62
   140
  5
1A7
 10
13194.021836
 20
3403.499707
 30
0.0
 42
0.026577
  0
VERTEX
  8
1
  6
CONTINUOUS
 62
   140
  5
1A8
 10
13194.028676
 20
3403.501326
 30
0.0
 42
0.032313
  0
VERTEX
  8
1
  6
CONTINUOUS
 62
   140
  5
1A9
 10
13194.034671
 20
3403.503505
 30
0.0
 42
0.042129
  0
VERTEX
  8
1
  6
CONTINUOUS
 62
   140
  5
1AA
 10
13194.039591
 20
3403.50616
 30
0.0
 42
0.058441
  0
VERTEX
  8
1
  6
CONTINUOUS
 62
   140
  5
1AB
 10
13194.043247
 20
3403.509189
 30
0.0
 42
0.082645
  0
VERTEX
  8
1
  6
CONTINUOUS
 62
   140
  5
1AC
 10
13194.045498
 20
3403.512476
 30
0.0
 42
0.105926
  0
VERTEX
  8
1
  6
CONTINUOUS
 62
   140
  5
1AD
 10
13194.046258
 20
3403.515894
 30
0.0
 42
0.105926
  0
SEQEND
  8
1
  6
CONTINUOUS
 62
   140
  5
1AE
  0
POLYLINE
  8
1
  6
CONTINUOUS
 62
   140
  5
1AF
 66
     1
 10
0.0
 20
0.0
 30
0.0
210
0.0
220
0.0
230
1.0
  0
VERTEX
  8
1
  6
CONTINUOUS
 62
   140
  5
1B0
 10
13193.967281
 20
3403.345035
 30
0.0
 42
-0.107797
  0
VERTEX
  8
1
  6
CONTINUOUS
 62
   140
  5
1B1
 10
13193.96805
 20
3403.348428
 30
0.0
 42
-0.083254
  0
VERTEX
  8
1
  6
CONTINUOUS
 62
   140
  5
1B2
 10
13193.970329
 20
3403.35169
 30
0.0
 42
-0.058242
  0
VERTEX
  8
1
  6
CONTINUOUS
 62
   140
  5
1B3
 10
13193.97403
 20
3403.354697
 30
0.0
 42
-0.041681
  0
VERTEX
  8
1
  6
CONTINUOUS
 62
   140
  5
1B4
 10
13193.979011
 20
3403.357333
 30
0.0
 42
-0.03183
  0
VERTEX
  8
1
  6
CONTINUOUS
 62
   140
  5
1B5
 10
13193.98508
 20
3403.359496
 30
0.0
 42
-0.026114
  0
VERTEX
  8
1
  6
CONTINUOUS
 62
   140
  5
1B6
 10
13193.992004
 20
3403.361103
 30
0.0
 42
-0.022956
  0
VERTEX
  8
1
  6
CONTINUOUS
 62
   140
  5
1B7
 10
13193.999517
 20
3403.362092
 30
0.0
 42
-0.021545
  0
VERTEX
  8
1
  6
CONTINUOUS
 62
   140
  5
1B8
 10
13194.007331
 20
3403.362427
 30
0.0
 42
-0.021545
  0
VERTEX
  8
1
  6
CONTINUOUS
 62
   140
  5
1B9
 10
13194.015144
 20
3403.362092
 30
0.0
 42
-0.022956
  0
VERTEX
  8
1
  6
CONTINUOUS
 62
   140
  5
1BA
 10
13194.022657
 20
3403.361103
 30
0.0
 42
-0.026114
  0
VERTEX
  8
1
  6
CONTINUOUS
 62
   140
  5
1BB
 10
13194.029581
 20
3403.359496
 30
0.0
 42
-0.03183
  0
VERTEX
  8
1
  6
CONTINUOUS
 62
   140
  5
1BC
 10
13194.03565
 20
3403.357333
 30
0.0
 42
-0.041681
  0
VERTEX
  8
1
  6
CONTINUOUS
 62
   140
  5
1BD
 10
13194.040631
 20
3403.354697
 30
0.0
 42
-0.058242
  0
VERTEX
  8
1
  6
CONTINUOUS
 62
   140
  5
1BE
 10
13194.044332
 20
3403.35169
 30
0.0
 42
-0.083254
  0
VERTEX
  8
1
  6
CONTINUOUS
 62
   140
  5
1BF
 10
13194.046611
 20
3403.348428
 30
0.0
 42
-0.107797
  0
VERTEX
  8
1
  6
CONTINUOUS
 62
   140
  5
1C0
 10
13194.04738
 20
3403.345035
 30
0.0
 42
-0.107797
  0
SEQEND
  8
1
  6
CONTINUOUS
 62
   140
  5
1C1
  0
POLYLINE
  8
1
  6
CONTINUOUS
 62
   140
  5
1C2
 66
     1
 10
0.0
 20
0.0
 30
0.0
210
0.0
220
0.0
230
1.0
  0
VERTEX
  8
1
  6
CONTINUOUS
 62
   140
  5
1C3
 10
13194.04738
 20
3403.345035
 30
0.0
 42
-0.071267
  0
VERTEX
  8
1
  6
CONTINUOUS
 62
   140
  5
1C4
 10
13194.046611
 20
3403.339722
 30
0.0
 42
-0.065729
  0
VERTEX
  8
1
  6
CONTINUOUS
 62
   140
  5
1C5
 10
13194.044332
 20
3403.334613
 30
0.0
 42
-0.057443
  0
VERTEX
  8
1
  6
CONTINUOUS
 62
   140
  5
1C6
 10
13194.040631
 20
3403.329905
 30
0.0
 42
-0.049287
  0
VERTEX
  8
1
  6
CONTINUOUS
 62
   140
  5
1C7
 10
13194.03565
 20
3403.325778
 30
0.0
 42
-0.042701
  0
VERTEX
  8
1
  6
CONTINUOUS
 62
   140
  5
1C8
 10
13194.029581
 20
3403.322391
 30
0.0
 42
-0.037998
  0
VERTEX
  8
1
  6
CONTINUOUS
 62
   140
  5
1C9
 10
13194.022657
 20
3403.319875
 30
0.0
 42
-0.03504
  0
VERTEX
  8
1
  6
CONTINUOUS
 62
   140
  5
1CA
 10
13194.015144
 20
3403.318325
 30
0.0
 42
-0.033623
  0
VERTEX
  8
1
  6
CONTINUOUS
 62
   140
  5
1CB
 10
13194.007331
 20
3403.317802
 30
0.0
 42
-0.033623
  0
VERTEX
  8
1
  6
CONTINUOUS
 62
   140
  5
1CC
 10
13193.999517
 20
3403.318325
 30
0.0
 42
-0.03504
  0
VERTEX
  8
1
  6
CONTINUOUS
 62
   140
  5
1CD
 10
13193.992004
 20
3403.319875
 30
0.0
 42
-0.037998
  0
VERTEX
  8
1
  6
CONTINUOUS
 62
   140
  5
1CE
 10
13193.98508
 20
3403.322391
 30
0.0
 42
-0.042701
  0
VERTEX
  8
1
  6
CONTINUOUS
 62
   140
  5
1CF
 10
13193.979011
 20
3403.325778
 30
0.0
 42
-0.049287
  0
VERTEX
  8
1
  6
CONTINUOUS
 62
   140
  5
1D0
 10
13193.97403
 20
3403.329905
 30
0.0
 42
-0.057443
  0
VERTEX
  8
1
  6
CONTINUOUS
 62
   140
  5
1D1
 10
13193.970329
 20
3403.334613
 30
0.0
 42
-0.065729
  0
VERTEX
  8
1
  6
CONTINUOUS
 62
   140
  5
1D2
 10
13193.96805
 20
3403.339722
 30
0.0
 42
-0.071267
  0
VERTEX
  8
1
  6
CONTINUOUS
 62
   140
  5
1D3
 10
13193.967281
 20
3403.345035
 30
0.0
 42
-0.071267
  0
SEQEND
  8
1
  6
CONTINUOUS
 62
   140
  5
1D4
  0
LINE
  8
1
  6
CONTINUOUS
 62
   140
  5
1D5
 10
13199.953833
 20
3414.3805
 30
0.0
 11
13200.121083
 21
3414.67025
 31
0.0
  0
LINE
  8
1
  6
CONTINUOUS
 62
   140
  5
1D6
 10
13200.120417
 20
3414.39725
 30
0.0
 11
13200.287667
 21
3414.686917
 31
0.0
  0
LINE
  8
1
  6
CONTINUOUS
 62
   140
  5
1D7
 10
13200.28625
 20
3414.414
 30
0.0
 11
13200.4535
 21
3414.70375
 31
0.0
  0
LINE
  8
1
  6
CONTINUOUS
 62
   140
  5
1D8
 10
13200.6295
 20
3414.48425
 30
0.0
 11
13200.414167
 21
3414.6355
 31
0.0
  0
LINE
  8
1
  6
CONTINUOUS
 62
   140
  5
1D9
 10
13200.713833
 20
3414.6295
 30
0.0
 11
13200.576667
 21
3414.725083
 31
0.0
  0
LINE
  8
1
  6
CONTINUOUS
 62
   140
  5
1DA
 10
13200.6075
 20
3414.446083
 30
0.0
 11
13200.780667
 21
3414.745667
 31
0.0
  0
LINE
  8
1
  6
CONTINUOUS
 62
   140
  5
1DB
 10
13200.773917
 20
3414.462833
 30
0.0
 11
13200.947167
 21
3414.762583
 31
0.0
  0
LINE
  8
1
  6
CONTINUOUS
 62
   140
  5
1DC
 10
13200.947167
 20
3416.481833
 30
0.0
 11
13200.947167
 21
3414.762583
 31
0.0
  0
LINE
  8
1
  6
CONTINUOUS
 62
   140
  5
1DD
 10
13197.180417
 20
3407.675167
 30
0.0
 11
13197.180417
 21
3409.102
 31
0.0
  0
POLYLINE
  8
1
  6
CONTINUOUS
 62
   140
  5
1DE
 66
     1
 10
0.0
 20
0.0
 30
0.0
210
0.0
220
0.0
230
1.0
  0
VERTEX
  8
1
  6
CONTINUOUS
 62
   140
  5
1DF
 10
13200.943917
 20
3416.059667
 30
0.0
  0
VERTEX
  8
1
  6
CONTINUOUS
 62
   140
  5
1E0
 10
13200.9185
 20
3416.059667
 30
0.0
  0
VERTEX
  8
1
  6
CONTINUOUS
 62
   140
  5
1E1
 10
13200.9185
 20
3416.000167
 30
0.0
  0
VERTEX
  8
1
  6
CONTINUOUS
 62
   140
  5
1E2
 10
13200.943917
 20
3416.000167
 30
0.0
  0
SEQEND
  8
1
  6
CONTINUOUS
 62
   140
  5
1E3
  0
POLYLINE
  8
1
  6
CONTINUOUS
 62
   140
  5
1E4
 66
     1
 10
0.0
 20
0.0
 30
0.0
210
0.0
220
0.0
230
1.0
  0
VERTEX
  8
1
  6
CONTINUOUS
 62
   140
  5
1E5
 10
13200.9185
 20
3416.047
 30
0.0
  0
VERTEX
  8
1
  6
CONTINUOUS
 62
   140
  5
1E6
 10
13200.881667
 20
3416.047
 30
0.0
  0
VERTEX
  8
1
  6
CONTINUOUS
 62
   140
  5
1E7
 10
13200.881667
 20
3416.01225
 30
0.0
  0
VERTEX
  8
1
  6
CONTINUOUS
 62
   140
  5
1E8
 10
13200.9185
 20
3416.01225
 30
0.0
  0
SEQEND
  8
1
  6
CONTINUOUS
 62
   140
  5
1E9
  0
LINE
  8
1
  6
CONTINUOUS
 62
   140
  5
1EA
 10
13197.803333
 20
3403.70125
 30
0.0
 11
13211.326417
 21
3403.70125
 31
0.0
  0
LINE
  8
1
  6
CONTINUOUS
 62
   140
  5
1EB
 10
13197.781833
 20
3403.584083
 30
0.0
 11
13211.326417
 21
3403.584083
 31
0.0
  0
LINE
  8
1
  6
HIDDEN
 62
   140
  5
1EC
 10
13198.028667
 20
3399.367
 30
0.0
 11
13197.694333
 21
3399.367
 31
0.0
  0
LINE
  8
1
  6
HIDDEN
 62
   140
  5
1ED
 10
13200.11925
 20
3399.367
 30
0.0
 11
13199.784667
 21
3399.367
 31
0.0
  0
LINE
  8
1
  6
HIDDEN
 62
   140
  5
1EE
 10
13199.074333
 20
3399.367
 30
0.0
 11
13198.739833
 21
3399.367
 31
0.0
  0
LINE
  8
1
  6
HIDDEN
 62
   140
  5
1EF
 10
13210.632083
 20
3400.020583
 30
0.0
 11
13210.297667
 21
3400.020583
 31
0.0
  0
LINE
  8
1
  6
CONTINUOUS
 62
   140
  5
1F0
 10
13199.78075
 20
3402.800167
 30
0.0
 11
13199.78075
 21
3402.461
 31
0.0
  0
LINE
  8
1
  6
CONTINUOUS
 62
   140
  5
1F1
 10
13200.115167
 20
3402.800167
 30
0.0
 11
13200.115167
 21
3402.453
 31
0.0
  0
LINE
  8
1
  6
CONTINUOUS
 62
   140
  5
1F2
 10
13199.069583
 20
3402.800167
 30
0.0
 11
13199.069583
 21
3402.458417
 31
0.0
  0
LINE
  8
1
  6
CONTINUOUS
 62
   140
  5
1F3
 10
13198.735083
 20
3402.465667
 30
0.0
 11
13198.735083
 21
3402.800167
 31
0.0
  0
LINE
  8
1
  6
CONTINUOUS
 62
   140
  5
1F4
 10
13197.69025
 20
3402.800167
 30
0.0
 11
13197.69025
 21
3402.455667
 31
0.0
  0
TEXT
  8
1
  6
CONTINUOUS
 62
     2
  5
1F5
 10
13201.101083
 20
3398.602083
 30
0.0
 40
0.24
  1
ELEVATION
  7
ROMANS
210
0.0
220
0.0
230
1.0
  0
LINE
  8
1
  6
HIDDEN
 62
   140
  5
1F6
 10
13200.94325
 20
3414.762
 30
0.0
 11
13200.94325
 21
3412.465333
 31
0.0
  0
LINE
  8
1
  6
HIDDEN
 62
   140
  5
1F7
 10
13197.179167
 20
3402.499167
 30
0.0
 11
13197.179167
 21
3400.498833
 31
0.0
  0
LINE
  8
1
  6
CONTINUOUS
 62
   140
  5
1F8
 10
13197.697583
 20
3404.04975
 30
0.0
 11
13198.03125
 21
3404.04975
 31
0.0
  0
LINE
  8
1
  6
CONTINUOUS
 62
   140
  5
1F9
 10
13198.03125
 20
3403.987
 30
0.0
 11
13198.03125
 21
3404.04975
 31
0.0
  0
LINE
  8
1
  6
CONTINUOUS
 62
   140
  5
1FA
 10
13197.697583
 20
3403.987
 30
0.0
 11
13197.697583
 21
3404.04975
 31
0.0
  0
LINE
  8
1
  6
CONTINUOUS
 62
   140
  5
1FB
 10
13198.742417
 20
3403.987
 30
0.0
 11
13198.742417
 21
3404.04975
 31
0.0
  0
LINE
  8
1
  6
CONTINUOUS
 62
   140
  5
1FC
 10
13198.742417
 20
3404.04975
 30
0.0
 11
13199.077
 21
3404.04975
 31
0.0
  0
LINE
  8
1
  6
CONTINUOUS
 62
   140
  5
1FD
 10
13199.077
 20
3403.987
 30
0.0
 11
13199.077
 21
3404.04975
 31
0.0
  0
LINE
  8
1
  6
CONTINUOUS
 62
   140
  5
1FE
 10
13198.742417
 20
3404.04975
 30
0.0
 11
13199.077
 21
3404.04975
 31
0.0
  0
LINE
  8
1
  6
CONTINUOUS
 62
   140
  5
1FF
 10
13199.788167
 20
3404.04975
 30
0.0
 11
13200.121833
 21
3404.04975
 31
0.0
  0
LINE
  8
1
  6
CONTINUOUS
 62
   140
  5
200
 10
13200.121833
 20
3403.987
 30
0.0
 11
13200.121833
 21
3404.04975
 31
0.0
  0
LINE
  8
1
  6
CONTINUOUS
 62
   140
  5
201
 10
13199.788167
 20
3403.987
 30
0.0
 11
13199.788167
 21
3404.04975
 31
0.0
  0
LINE
  8
1
  6
CONTINUOUS
 62
   140
  5
202
 10
13191.350333
 20
3408.566917
 30
0.0
 11
13197.180417
 21
3408.566917
 31
0.0
  0
LINE
  8
1
  6
CONTINUOUS
 62
   140
  5
203
 10
13191.350333
 20
3408.06525
 30
0.0
 11
13197.180417
 21
3408.06525
 31
0.0
  0
ARC
  8
1
  6
CONTINUOUS
 62
   140
  5
204
 10
13193.026053
 20
3403.471765
 30
0.0
 40
0.49886
 50
89.599644
 51
99.024544
210
0.0
220
0.0
230
1.0
  0
LINE
  8
1
  6
CONTINUOUS
 62
   140
  5
205
 10
13193.418167
 20
3403.70125
 30
0.0
 11
13193.81475
 21
3403.70125
 31
0.0
  0
LINE
  8
1
  6
CONTINUOUS
 62
   140
  5
206
 10
13193.418167
 20
3403.584083
 30
0.0
 11
13193.795417
 21
3403.584083
 31
0.0
  0
LINE
  8
1
  6
CONTINUOUS
 62
   140
  5
207
 10
13200.115167
 20
3402.62025
 30
0.0
 11
13200.115167
 21
3402.556
 31
0.0
  0
LINE
  8
1
  6
CONTINUOUS
 62
   140
  5
208
 10
13199.78075
 20
3402.62025
 30
0.0
 11
13199.78075
 21
3402.556
 31
0.0
  0
LINE
  8
1
  6
CONTINUOUS
 62
   140
  5
209
 10
13199.069583
 20
3402.62025
 30
0.0
 11
13199.069583
 21
3402.558
 31
0.0
  0
LINE
  8
1
  6
CONTINUOUS
 62
   140
  5
20A
 10
13198.735083
 20
3402.62025
 30
0.0
 11
13198.735083
 21
3402.553333
 31
0.0
  0
LINE
  8
1
  6
CONTINUOUS
 62
   140
  5
20B
 10
13197.69025
 20
3402.62025
 30
0.0
 11
13197.69025
 21
3402.558
 31
0.0
  0
LINE
  8
1
  6
CONTINUOUS
 62
   140
  5
20C
 10
13200.115167
 20
3402.62025
 30
0.0
 11
13200.115167
 21
3402.556
 31
0.0
  0
LINE
  8
1
  6
CONTINUOUS
 62
   140
  5
20D
 10
13199.78075
 20
3402.62025
 30
0.0
 11
13199.78075
 21
3402.556
 31
0.0
  0
LINE
  8
1
  6
CONTINUOUS
 62
   140
  5
20E
 10
13199.069583
 20
3402.62025
 30
0.0
 11
13199.069583
 21
3402.558
 31
0.0
  0
LINE
  8
1
  6
CONTINUOUS
 62
   140
  5
20F
 10
13198.735083
 20
3402.62025
 30
0.0
 11
13198.735083
 21
3402.553333
 31
0.0
  0
LINE
  8
1
  6
CONTINUOUS
 62
   140
  5
210
 10
13197.69025
 20
3402.62025
 30
0.0
 11
13197.69025
 21
3402.558
 31
0.0
  0
POLYLINE
  8
1
  6
CONTINUOUS
 62
   140
  5
211
 66
     1
 10
0.0
 20
0.0
 30
0.0
210
0.0
220
0.0
230
1.0
  0
VERTEX
  8
1
  6
CONTINUOUS
 62
   140
  5
212
 10
13193.579803
 20
3403.516462
 30
0.0
 42
-0.105926
  0
VERTEX
  8
1
  6
CONTINUOUS
 62
   140
  5
213
 10
13193.579033
 20
3403.513002
 30
0.0
 42
-0.082645
  0
VERTEX
  8
1
  6
CONTINUOUS
 62
   140
  5
214
 10
13193.576754
 20
3403.509674
 30
0.0
 42
-0.058441
  0
VERTEX
  8
1
  6
CONTINUOUS
 62
   140
  5
215
 10
13193.573053
 20
3403.506608
 30
0.0
 42
-0.042129
  0
VERTEX
  8
1
  6
CONTINUOUS
 62
   140
  5
216
 10
13193.568073
 20
3403.50392
 30
0.0
 42
-0.032313
  0
VERTEX
  8
1
  6
CONTINUOUS
 62
   140
  5
217
 10
13193.562004
 20
3403.501714
 30
0.0
 42
-0.026577
  0
VERTEX
  8
1
  6
CONTINUOUS
 62
   140
  5
218
 10
13193.55508
 20
3403.500075
 30
0.0
 42
-0.023395
  0
VERTEX
  8
1
  6
CONTINUOUS
 62
   140
  5
219
 10
13193.547567
 20
3403.499066
 30
0.0
 42
-0.021971
  0
VERTEX
  8
1
  6
CONTINUOUS
 62
   140
  5
21A
 10
13193.539753
 20
3403.498725
 30
0.0
 42
-0.021971
  0
VERTEX
  8
1
  6
CONTINUOUS
 62
   140
  5
21B
 10
13193.53194
 20
3403.499066
 30
0.0
 42
-0.023395
  0
VERTEX
  8
1
  6
CONTINUOUS
 62
   140
  5
21C
 10
13193.524427
 20
3403.500075
 30
0.0
 42
-0.026577
  0
VERTEX
  8
1
  6
CONTINUOUS
 62
   140
  5
21D
 10
13193.517503
 20
3403.501714
 30
0.0
 42
-0.032313
  0
VERTEX
  8
1
  6
CONTINUOUS
 62
   140
  5
21E
 10
13193.511434
 20
3403.50392
 30
0.0
 42
-0.042129
  0
VERTEX
  8
1
  6
CONTINUOUS
 62
   140
  5
21F
 10
13193.506453
 20
3403.506608
 30
0.0
 42
-0.058441
  0
VERTEX
  8
1
  6
CONTINUOUS
 62
   140
  5
220
 10
13193.502752
 20
3403.509674
 30
0.0
 42
-0.082645
  0
VERTEX
  8
1
  6
CONTINUOUS
 62
   140
  5
221
 10
13193.500473
 20
3403.513002
 30
0.0
 42
-0.105926
  0
VERTEX
  8
1
  6
CONTINUOUS
 62
   140
  5
222
 10
13193.499703
 20
3403.516462
 30
0.0
 42
-0.105926
  0
SEQEND
  8
1
  6
CONTINUOUS
 62
   140
  5
223
  0
POLYLINE
  8
1
  6
CONTINUOUS
 62
   140
  5
224
 66
     1
 10
0.0
 20
0.0
 30
0.0
210
0.0
220
0.0
230
1.0
  0
VERTEX
  8
1
  6
CONTINUOUS
 62
   140
  5
225
 10
13193.499703
 20
3403.516462
 30
0.0
 42
-0.069642
  0
VERTEX
  8
1
  6
CONTINUOUS
 62
   140
  5
226
 10
13193.500473
 20
3403.521905
 30
0.0
 42
-0.064663
  0
VERTEX
  8
1
  6
CONTINUOUS
 62
   140
  5
227
 10
13193.502752
 20
3403.52714
 30
0.0
 42
-0.05709
  0
VERTEX
  8
1
  6
CONTINUOUS
 62
   140
  5
228
 10
13193.506453
 20
3403.531963
 30
0.0
 42
-0.049486
  0
VERTEX
  8
1
  6
CONTINUOUS
 62
   140
  5
229
 10
13193.511434
 20
3403.536192
 30
0.0
 42
-0.043232
  0
VERTEX
  8
1
  6
CONTINUOUS
 62
   140
  5
22A
 10
13193.517503
 20
3403.539662
 30
0.0
 42
-0.038702
  0
VERTEX
  8
1
  6
CONTINUOUS
 62
   140
  5
22B
 10
13193.524427
 20
3403.54224
 30
0.0
 42
-0.035825
  0
VERTEX
  8
1
  6
CONTINUOUS
 62
   140
  5
22C
 10
13193.53194
 20
3403.543828
 30
0.0
 42
-0.034439
  0
VERTEX
  8
1
  6
CONTINUOUS
 62
   140
  5
22D
 10
13193.539753
 20
3403.544364
 30
0.0
 42
-0.034439
  0
VERTEX
  8
1
  6
CONTINUOUS
 62
   140
  5
22E
 10
13193.547567
 20
3403.543828
 30
0.0
 42
-0.035825
  0
VERTEX
  8
1
  6
CONTINUOUS
 62
   140
  5
22F
 10
13193.55508
 20
3403.54224
 30
0.0
 42
-0.038702
  0
VERTEX
  8
1
  6
CONTINUOUS
 62
   140
  5
230
 10
13193.562004
 20
3403.539662
 30
0.0
 42
-0.043232
  0
VERTEX
  8
1
  6
CONTINUOUS
 62
   140
  5
231
 10
13193.568073
 20
3403.536192
 30
0.0
 42
-0.049486
  0
VERTEX
  8
1
  6
CONTINUOUS
 62
   140
  5
232
 10
13193.573053
 20
3403.531963
 30
0.0
 42
-0.05709
  0
VERTEX
  8
1
  6
CONTINUOUS
 62
   140
  5
233
 10
13193.576754
 20
3403.52714
 30
0.0
 42
-0.064663
  0
VERTEX
  8
1
  6
CONTINUOUS
 62
   140
  5
234
 10
13193.579033
 20
3403.521905
 30
0.0
 42
-0.069642
  0
VERTEX
  8
1
  6
CONTINUOUS
 62
   140
  5
235
 10
13193.579803
 20
3403.516462
 30
0.0
 42
-0.069642
  0
SEQEND
  8
1
  6
CONTINUOUS
 62
   140
  5
236
  0
LINE
  8
1
  6
CONTINUOUS
 62
   140
  5
237
 10
13191.350333
 20
3400.190417
 30
0.0
 11
13191.350333
 21
3403.264417
 31
0.0
  0
LINE
  8
1
  6
CONTINUOUS
 62
   140
  5
238
 10
13191.350333
 20
3403.654417
 30
0.0
 11
13191.350333
 21
3405.297333
 31
0.0
  0
LINE
  8
1
  6
CONTINUOUS
 62
   140
  5
239
 10
13191.350333
 20
3407.426333
 30
0.0
 11
13191.350333
 21
3408.247
 31
0.0
  0
LINE
  8
1
  6
CONTINUOUS
 62
   140
  5
23A
 10
13191.350333
 20
3408.43775
 30
0.0
 11
13191.350333
 21
3409.338917
 31
0.0
  0
LINE
  8
1
  6
CONTINUOUS
 62
   140
  5
23B
 10
13191.350333
 20
3403.264417
 30
0.0
 11
13191.66475
 21
3403.444333
 31
0.0
  0
LINE
  8
1
  6
CONTINUOUS
 62
   140
  5
23C
 10
13191.66475
 20
3403.444333
 30
0.0
 11
13191.174333
 21
3403.4745
 31
0.0
  0
LINE
  8
1
  6
CONTINUOUS
 62
   140
  5
23D
 10
13191.174333
 20
3403.4745
 30
0.0
 11
13191.144333
 21
3403.494667
 31
0.0
  0
LINE
  8
1
  6
CONTINUOUS
 62
   140
  5
23E
 10
13191.144333
 20
3403.494667
 30
0.0
 11
13191.350333
 21
3403.654417
 31
0.0
  0
LINE
  8
1
  6
CONTINUOUS
 62
   140
  5
23F
 10
13191.350333
 20
3408.247
 30
0.0
 11
13191.454667
 21
3408.3375
 31
0.0
  0
LINE
  8
1
  6
CONTINUOUS
 62
   140
  5
240
 10
13191.454667
 20
3408.3375
 30
0.0
 11
13191.234
 21
3408.357417
 31
0.0
  0
LINE
  8
1
  6
CONTINUOUS
 62
   140
  5
241
 10
13191.234
 20
3408.357417
 30
0.0
 11
13191.350333
 21
3408.43775
 31
0.0
  0
LINE
  8
1
  6
CONTINUOUS
 62
     2
  5
242
 10
13194.65525
 20
3417.476333
 30
0.0
 11
13192.98725
 21
3417.476333
 31
0.0
  0
POINT
  8
1
  6
CONTINUOUS
 62
   140
  5
243
 10
13191.789667
 20
3417.007667
 30
0.0
  0
POINT
  8
1
  6
CONTINUOUS
 62
   140
  5
244
 10
13191.789667
 20
3416.582833
 30
0.0
  0
LINE
  8
1
  6
CONTINUOUS
 62
     2
  5
245
 10
13192.983833
 20
3415.649083
 30
0.0
 11
13193.765833
 21
3416.100417
 31
0.0
  0
LINE
  8
1
  6
CONTINUOUS
 62
   140
  5
246
 10
13191.789667
 20
3417.182167
 30
0.0
 11
13191.789667
 21
3415.521167
 31
0.0
  0
LINE
  8
1
  6
CONTINUOUS
 62
   140
  5
247
 10
13192.682167
 20
3416.437083
 30
0.0
 11
13192.235833
 21
3416.437083
 31
0.0
  0
LINE
  8
1
  6
CONTINUOUS
 62
     2
  5
248
 10
13192.983833
 20
3416.784917
 30
0.0
 11
13193.765833
 21
3417.2365
 31
0.0
  0
LINE
  8
1
  6
CONTINUOUS
 62
   140
  5
249
 10
13192.682167
 20
3417.182167
 30
0.0
 11
13192.682167
 21
3416.437083
 31
0.0
  0
LINE
  8
1
  6
CONTINUOUS
 62
   140
  5
24A
 10
13191.789667
 20
3417.151417
 30
0.0
 11
13191.789667
 21
3415.50125
 31
0.0
  0
LINE
  8
1
  6
CONTINUOUS
 62
   140
  5
24B
 10
13191.52675
 20
3415.366
 30
0.0
 11
13191.390417
 21
3415.461583
 31
0.0
  0
LINE
  8
1
  6
CONTINUOUS
 62
   140
  5
24C
 10
13191.442417
 20
3415.220167
 30
0.0
 11
13191.227
 21
3415.371333
 31
0.0
  0
LINE
  8
1
  6
CONTINUOUS
 62
   140
  5
24D
 10
13191.1
 20
3415.149833
 30
0.0
 11
13191.267167
 21
3415.439583
 31
0.0
  0
LINE
  8
1
  6
CONTINUOUS
 62
   140
  5
24E
 10
13190.766833
 20
3415.116417
 30
0.0
 11
13190.934083
 21
3415.406167
 31
0.0
  0
LINE
  8
1
  6
CONTINUOUS
 62
   140
  5
24F
 10
13190.933417
 20
3415.133167
 30
0.0
 11
13191.100667
 21
3415.422833
 31
0.0
  0
LINE
  8
1
  6
CONTINUOUS
 62
   140
  5
250
 10
13191.420417
 20
3415.181917
 30
0.0
 11
13191.593667
 21
3415.481667
 31
0.0
  0
LINE
  8
1
  6
CONTINUOUS
 62
   140
  5
251
 10
13191.587083
 20
3415.198833
 30
0.0
 11
13191.760333
 21
3415.4985
 31
0.0
  0
LINE
  8
1
  6
HIDDEN
 62
   140
  5
252
 10
13191.789667
 20
3412.499417
 30
0.0
 11
13192.235833
 21
3412.499417
 31
0.0
  0
LINE
  8
1
  6
CONTINUOUS
 62
   140
  5
253
 10
13192.682167
 20
3417.182167
 30
0.0
 11
13191.789667
 21
3417.182167
 31
0.0
  0
LINE
  8
1
  6
CONTINUOUS
 62
   140
  5
254
 10
13192.235833
 20
3417.182167
 30
0.0
 11
13192.235833
 21
3415.565333
 31
0.0
  0
LINE
  8
1
  6
HIDDEN
 62
   140
  5
255
 10
13191.789667
 20
3415.521167
 30
0.0
 11
13191.789667
 21
3412.499417
 31
0.0
  0
POLYLINE
  8
1
  6
CONTINUOUS
 62
   140
  5
256
 66
     1
 10
0.0
 20
0.0
 30
0.0
210
0.0
220
0.0
230
1.0
  0
VERTEX
  8
1
  6
CONTINUOUS
 62
   140
  5
257
 10
13192.68475
 20
3416.815667
 30
0.0
  0
VERTEX
  8
1
  6
CONTINUOUS
 62
   140
  5
258
 10
13192.710833
 20
3416.815667
 30
0.0
  0
VERTEX
  8
1
  6
CONTINUOUS
 62
   140
  5
259
 10
13192.710833
 20
3416.756083
 30
0.0
  0
VERTEX
  8
1
  6
CONTINUOUS
 62
   140
  5
25A
 10
13192.68475
 20
3416.756083
 30
0.0
  0
SEQEND
  8
1
  6
CONTINUOUS
 62
   140
  5
25B
  0
LINE
  8
1
  6
HIDDEN
 62
   140
  5
25C
 10
13191.789667
 20
3416.801583
 30
0.0
 11
13192.682833
 21
3416.801583
 31
0.0
  0
LINE
  8
1
  6
HIDDEN
 62
   140
  5
25D
 10
13191.789667
 20
3416.76675
 30
0.0
 11
13192.678667
 21
3416.76675
 31
0.0
  0
POINT
  8
1
  6
CONTINUOUS
 62
   140
  5
25E
 10
13192.680083
 20
3416.786833
 30
0.0
  0
LINE
  8
1
  6
CONTINUOUS
 62
   140
  5
25F
 10
13192.91275
 20
3417.0725
 30
0.0
 11
13192.91625
 21
3417.077167
 31
0.0
  0
LINE
  8
1
  6
CONTINUOUS
 62
   140
  5
260
 10
13192.872083
 20
3417.101917
 30
0.0
 11
13192.875417
 21
3417.106667
 31
0.0
  0
LINE
  8
1
  6
CONTINUOUS
 62
   140
  5
261
 10
13192.91275
 20
3416.927333
 30
0.0
 11
13192.916833
 21
3416.922
 31
0.0
  0
LINE
  8
1
  6
CONTINUOUS
 62
   140
  5
262
 10
13192.871417
 20
3416.898667
 30
0.0
 11
13192.875417
 21
3416.89325
 31
0.0
  0
LINE
  8
1
  6
CONTINUOUS
 62
   140
  5
263
 10
13192.91275
 20
3416.646417
 30
0.0
 11
13192.916833
 21
3416.651833
 31
0.0
  0
LINE
  8
1
  6
CONTINUOUS
 62
   140
  5
264
 10
13192.871417
 20
3416.675083
 30
0.0
 11
13192.875417
 21
3416.6805
 31
0.0
  0
LINE
  8
1
  6
CONTINUOUS
 62
   140
  5
265
 10
13192.91275
 20
3416.502667
 30
0.0
 11
13192.916833
 21
3416.49725
 31
0.0
  0
LINE
  8
1
  6
CONTINUOUS
 62
   140
  5
266
 10
13192.871417
 20
3416.47375
 30
0.0
 11
13192.875417
 21
3416.468417
 31
0.0
  0
LINE
  8
1
  6
CONTINUOUS
 62
   140
  5
267
 10
13192.810583
 20
3416.427
 30
0.0
 11
13192.821917
 21
3416.430333
 31
0.0
  0
LINE
  8
1
  6
CONTINUOUS
 62
   140
  5
268
 10
13192.822583
 20
3416.439667
 30
0.0
 11
13192.84275
 21
3416.445667
 31
0.0
  0
LINE
  8
1
  6
CONTINUOUS
 62
   140
  5
269
 10
13192.845833
 20
3416.45575
 30
0.0
 11
13192.866667
 21
3416.4625
 31
0.0
  0
LINE
  8
1
  6
CONTINUOUS
 62
   140
  5
26A
 10
13192.917667
 20
3416.50525
 30
0.0
 11
13192.93825
 21
3416.511833
 31
0.0
  0
LINE
  8
1
  6
CONTINUOUS
 62
   140
  5
26B
 10
13192.941583
 20
3416.522
 30
0.0
 11
13192.961667
 21
3416.528583
 31
0.0
  0
LINE
  8
1
  6
CONTINUOUS
 62
   140
  5
26C
 10
13192.962417
 20
3416.537417
 30
0.0
 11
13192.97375
 21
3416.541333
 31
0.0
  0
LINE
  8
1
  6
CONTINUOUS
 62
   140
  5
26D
 10
13192.971083
 20
3416.549417
 30
0.0
 11
13192.979167
 21
3416.552
 31
0.0
  0
LINE
  8
1
  6
CONTINUOUS
 62
   140
  5
26E
 10
13192.975667
 20
3416.559417
 30
0.0
 11
13192.982417
 21
3416.561333
 31
0.0
  0
LINE
  8
1
  6
CONTINUOUS
 62
   140
  5
26F
 10
13192.977167
 20
3416.56875
 30
0.0
 11
13192.983833
 21
3416.570917
 31
0.0
  0
LINE
  8
1
  6
CONTINUOUS
 62
   140
  5
270
 10
13192.97775
 20
3416.5775
 30
0.0
 11
13192.983833
 21
3416.5795
 31
0.0
  0
LINE
  8
1
  6
CONTINUOUS
 62
   140
  5
271
 10
13192.9765
 20
3416.58625
 30
0.0
 11
13192.982417
 21
3416.588083
 31
0.0
  0
LINE
  8
1
  6
CONTINUOUS
 62
   140
  5
272
 10
13192.97375
 20
3416.594167
 30
0.0
 11
13192.979833
 21
3416.59625
 31
0.0
  0
LINE
  8
1
  6
CONTINUOUS
 62
   140
  5
273
 10
13192.970417
 20
3416.6015
 30
0.0
 11
13192.9765
 21
3416.603583
 31
0.0
  0
LINE
  8
1
  6
CONTINUOUS
 62
   140
  5
274
 10
13192.965167
 20
3416.608917
 30
0.0
 11
13192.971083
 21
3416.610833
 31
0.0
  0
LINE
  8
1
  6
CONTINUOUS
 62
   140
  5
275
 10
13192.958417
 20
3416.615583
 30
0.0
 11
13192.965167
 21
3416.617667
 31
0.0
  0
LINE
  8
1
  6
CONTINUOUS
 62
   140
  5
276
 10
13192.94975
 20
3416.621583
 30
0.0
 11
13192.957167
 21
3416.623667
 31
0.0
  0
LINE
  8
1
  6
CONTINUOUS
 62
   140
  5
277
 10
13192.940917
 20
3416.627583
 30
0.0
 11
13192.948333
 21
3416.62975
 31
0.0
  0
LINE
  8
1
  6
CONTINUOUS
 62
   140
  5
278
 10
13192.93225
 20
3416.633
 30
0.0
 11
13192.939667
 21
3416.635583
 31
0.0
  0
LINE
  8
1
  6
CONTINUOUS
 62
   140
  5
279
 10
13192.923583
 20
3416.639083
 30
0.0
 11
13192.930917
 21
3416.641667
 31
0.0
  0
LINE
  8
1
  6
CONTINUOUS
 62
   140
  5
27A
 10
13192.914917
 20
3416.645167
 30
0.0
 11
13192.92225
 21
3416.647667
 31
0.0
  0
LINE
  8
1
  6
CONTINUOUS
 62
   140
  5
27B
 10
13192.863417
 20
3416.681167
 30
0.0
 11
13192.870833
 21
3416.683917
 31
0.0
  0
LINE
  8
1
  6
CONTINUOUS
 62
   140
  5
27C
 10
13192.854667
 20
3416.687167
 30
0.0
 11
13192.862083
 21
3416.689833
 31
0.0
  0
LINE
  8
1
  6
CONTINUOUS
 62
   140
  5
27D
 10
13192.845833
 20
3416.693167
 30
0.0
 11
13192.853417
 21
3416.695833
 31
0.0
  0
LINE
  8
1
  6
CONTINUOUS
 62
   140
  5
27E
 10
13192.837333
 20
3416.699333
 30
0.0
 11
13192.844583
 21
3416.70125
 31
0.0
  0
LINE
  8
1
  6
CONTINUOUS
 62
   140
  5
27F
 10
13192.828667
 20
3416.70525
 30
0.0
 11
13192.836
 21
3416.70725
 31
0.0
  0
LINE
  8
1
  6
CONTINUOUS
 62
   140
  5
280
 10
13192.8205
 20
3416.711333
 30
0.0
 11
13192.827167
 21
3416.713333
 31
0.0
  0
LINE
  8
1
  6
CONTINUOUS
 62
   140
  5
281
 10
13192.81375
 20
3416.718
 30
0.0
 11
13192.8205
 21
3416.72
 31
0.0
  0
LINE
  8
1
  6
CONTINUOUS
 62
   140
  5
282
 10
13192.8085
 20
3416.72525
 30
0.0
 11
13192.8145
 21
3416.726583
 31
0.0
  0
LINE
  8
1
  6
CONTINUOUS
 62
   140
  5
283
 10
13192.805167
 20
3416.73275
 30
0.0
 11
13192.810583
 21
3416.734583
 31
0.0
  0
LINE
  8
1
  6
CONTINUOUS
 62
   140
  5
284
 10
13192.801833
 20
3416.740667
 30
0.0
 11
13192.807833
 21
3416.742
 31
0.0
  0
LINE
  8
1
  6
CONTINUOUS
 62
   140
  5
285
 10
13192.8005
 20
3416.74875
 30
0.0
 11
13192.806583
 21
3416.750833
 31
0.0
  0
LINE
  8
1
  6
CONTINUOUS
 62
   140
  5
286
 10
13192.799833
 20
3416.757417
 30
0.0
 11
13192.806583
 21
3416.7595
 31
0.0
  0
LINE
  8
1
  6
CONTINUOUS
 62
   140
  5
287
 10
13192.799833
 20
3416.81025
 30
0.0
 11
13192.806583
 21
3416.812417
 31
0.0
  0
LINE
  8
1
  6
CONTINUOUS
 62
   140
  5
288
 10
13192.799833
 20
3416.819
 30
0.0
 11
13192.806583
 21
3416.820917
 31
0.0
  0
LINE
  8
1
  6
CONTINUOUS
 62
   140
  5
289
 10
13192.801167
 20
3416.82775
 30
0.0
 11
13192.807833
 21
3416.830333
 31
0.0
  0
LINE
  8
1
  6
CONTINUOUS
 62
   140
  5
28A
 10
13192.80325
 20
3416.83775
 30
0.0
 11
13192.811167
 21
3416.839667
 31
0.0
  0
LINE
  8
1
  6
CONTINUOUS
 62
   140
  5
28B
 10
13192.807833
 20
3416.84775
 30
0.0
 11
13192.817833
 21
3416.851083
 31
0.0
  0
LINE
  8
1
  6
CONTINUOUS
 62
   140
  5
28C
 10
13192.81725
 20
3416.859833
 30
0.0
 11
13192.834583
 21
3416.86525
 31
0.0
  0
LINE
  8
1
  6
CONTINUOUS
 62
   140
  5
28D
 10
13192.838
 20
3416.87525
 30
0.0
 11
13192.858
 21
3416.881917
 31
0.0
  0
LINE
  8
1
  6
CONTINUOUS
 62
   140
  5
28E
 10
13192.862083
 20
3416.891917
 30
0.0
 11
13192.873333
 21
3416.895167
 31
0.0
  0
LINE
  8
1
  6
CONTINUOUS
 62
   140
  5
28F
 10
13192.909583
 20
3416.924583
 30
0.0
 11
13192.929667
 21
3416.931333
 31
0.0
  0
LINE
  8
1
  6
CONTINUOUS
 62
   140
  5
290
 10
13192.933583
 20
3416.941417
 30
0.0
 11
13192.953667
 21
3416.948167
 31
0.0
  0
LINE
  8
1
  6
CONTINUOUS
 62
   140
  5
291
 10
13192.957167
 20
3416.9575
 30
0.0
 11
13192.970417
 21
3416.962083
 31
0.0
  0
LINE
  8
1
  6
CONTINUOUS
 62
   140
  5
292
 10
13192.969083
 20
3416.970167
 30
0.0
 11
13192.97775
 21
3416.973583
 31
0.0
  0
LINE
  8
1
  6
CONTINUOUS
 62
   140
  5
293
 10
13192.974417
 20
3416.980917
 30
0.0
 11
13192.98175
 21
3416.983583
 31
0.0
  0
LINE
  8
1
  6
CONTINUOUS
 62
   140
  5
294
 10
13192.977167
 20
3416.990917
 30
0.0
 11
13192.983833
 21
3416.992917
 31
0.0
  0
LINE
  8
1
  6
CONTINUOUS
 62
   140
  5
295
 10
13192.97775
 20
3416.999583
 30
0.0
 11
13192.983833
 21
3417.001583
 31
0.0
  0
LINE
  8
1
  6
CONTINUOUS
 62
   140
  5
296
 10
13192.977167
 20
3417.008333
 30
0.0
 11
13192.983167
 21
3417.010333
 31
0.0
  0
LINE
  8
1
  6
CONTINUOUS
 62
   140
  5
297
 10
13192.975
 20
3417.016417
 30
0.0
 11
13192.981083
 21
3417.018333
 31
0.0
  0
LINE
  8
1
  6
CONTINUOUS
 62
   140
  5
298
 10
13192.97175
 20
3417.023583
 30
0.0
 11
13192.97775
 21
3417.02575
 31
0.0
  0
LINE
  8
1
  6
CONTINUOUS
 62
   140
  5
299
 10
13192.967083
 20
3417.031083
 30
0.0
 11
13192.973083
 21
3417.033083
 31
0.0
  0
LINE
  8
1
  6
CONTINUOUS
 62
   140
  5
29A
 10
13192.96025
 20
3417.037667
 30
0.0
 11
13192.967083
 21
3417.040417
 31
0.0
  0
LINE
  8
1
  6
CONTINUOUS
 62
   140
  5
29B
 10
13192.952417
 20
3417.044417
 30
0.0
 11
13192.95975
 21
3417.046417
 31
0.0
  0
LINE
  8
1
  6
CONTINUOUS
 62
   140
  5
29C
 10
13192.944333
 20
3417.0505
 30
0.0
 11
13192.95175
 21
3417.052417
 31
0.0
  0
LINE
  8
1
  6
CONTINUOUS
 62
   140
  5
29D
 10
13192.935667
 20
3417.0565
 30
0.0
 11
13192.943
 21
3417.058333
 31
0.0
  0
LINE
  8
1
  6
CONTINUOUS
 62
   140
  5
29E
 10
13192.926917
 20
3417.062417
 30
0.0
 11
13192.934333
 21
3417.0645
 31
0.0
  0
LINE
  8
1
  6
CONTINUOUS
 62
   140
  5
29F
 10
13192.918917
 20
3417.068417
 30
0.0
 11
13192.926333
 21
3417.0705
 31
0.0
  0
LINE
  8
1
  6
CONTINUOUS
 62
   140
  5
2A0
 10
13192.9155
 20
3417.075833
 30
0.0
 11
13192.917667
 21
3417.0765
 31
0.0
  0
LINE
  8
1
  6
CONTINUOUS
 62
   140
  5
2A1
 10
13192.868083
 20
3417.104583
 30
0.0
 11
13192.875417
 21
3417.106667
 31
0.0
  0
LINE
  8
1
  6
CONTINUOUS
 62
   140
  5
2A2
 10
13192.859333
 20
3417.110667
 30
0.0
 11
13192.866667
 21
3417.112667
 31
0.0
  0
LINE
  8
1
  6
CONTINUOUS
 62
   140
  5
2A3
 10
13192.849417
 20
3417.116
 30
0.0
 11
13192.858
 21
3417.118667
 31
0.0
  0
LINE
  8
1
  6
CONTINUOUS
 62
   140
  5
2A4
 10
13192.831917
 20
3417.119333
 30
0.0
 11
13192.844583
 21
3417.123333
 31
0.0
  0
LINE
  8
1
  6
CONTINUOUS
 62
   140
  5
2A5
 10
13192.8145
 20
3417.122083
 30
0.0
 11
13192.827167
 21
3417.126667
 31
0.0
  0
LINE
  8
1
  6
CONTINUOUS
 62
   140
  5
2A6
 10
13192.797167
 20
3417.125333
 30
0.0
 11
13192.809333
 21
3417.129417
 31
0.0
  0
LINE
  8
1
  6
CONTINUOUS
 62
   140
  5
2A7
 10
13192.85
 20
3416.88325
 30
0.0
 11
13192.870083
 21
3416.889917
 31
0.0
  0
LINE
  8
1
  6
CONTINUOUS
 62
   140
  5
2A8
 10
13192.921583
 20
3416.93275
 30
0.0
 11
13192.941583
 21
3416.9395
 31
0.0
  0
LINE
  8
1
  6
CONTINUOUS
 62
   140
  5
2A9
 10
13192.945083
 20
3416.9495
 30
0.0
 11
13192.964417
 21
3416.955417
 31
0.0
  0
LINE
  8
1
  6
CONTINUOUS
 62
   140
  5
2AA
 10
13192.825917
 20
3416.867167
 30
0.0
 11
13192.846667
 21
3416.873083
 31
0.0
  0
LINE
  8
1
  6
CONTINUOUS
 62
   140
  5
2AB
 10
13192.811917
 20
3416.85375
 30
0.0
 11
13192.823833
 21
3416.857083
 31
0.0
  0
LINE
  8
1
  6
CONTINUOUS
 62
   140
  5
2AC
 10
13192.81525
 20
3416.433
 30
0.0
 11
13192.830667
 21
3416.437583
 31
0.0
  0
LINE
  8
1
  6
CONTINUOUS
 62
   140
  5
2AD
 10
13192.833917
 20
3416.447667
 30
0.0
 11
13192.854667
 21
3416.454333
 31
0.0
  0
LINE
  8
1
  6
CONTINUOUS
 62
   140
  5
2AE
 10
13192.858
 20
3416.464333
 30
0.0
 11
13192.87475
 21
3416.46975
 31
0.0
  0
LINE
  8
1
  6
CONTINUOUS
 62
   140
  5
2AF
 10
13192.914917
 20
3416.499917
 30
0.0
 11
13192.926333
 21
3416.504
 31
0.0
  0
LINE
  8
1
  6
CONTINUOUS
 62
   140
  5
2B0
 10
13192.929667
 20
3416.513833
 30
0.0
 11
13192.950333
 21
3416.520583
 31
0.0
  0
LINE
  8
1
  6
CONTINUOUS
 62
   140
  5
2B1
 10
13192.953667
 20
3416.53
 30
0.0
 11
13192.969083
 21
3416.535333
 31
0.0
  0
LINE
  8
1
  6
CONTINUOUS
 62
   140
  5
2B2
 10
13192.828667
 20
3416.436333
 30
0.0
 11
13192.959
 21
3416.526583
 31
0.0
  0
ARC
  8
1
  6
CONTINUOUS
 62
   140
  5
2B3
 10
13192.925521
 20
3416.574522
 30
0.0
 40
0.058428
 50
304.740428
 51
55.259572
210
0.0
220
0.0
230
1.0
  0
LINE
  8
1
  6
CONTINUOUS
 62
   140
  5
2B4
 10
13192.959
 20
3416.622333
 30
0.0
 11
13192.828667
 21
3416.712583
 31
0.0
  0
ARC
  8
1
  6
CONTINUOUS
 62
   140
  5
2B5
 10
13192.858567
 20
3416.75563
 30
0.0
 40
0.052242
 50
180.0
 51
235.262328
210
0.0
220
0.0
230
1.0
  0
LINE
  8
1
  6
CONTINUOUS
 62
   140
  5
2B6
 10
13192.806583
 20
3416.755417
 30
0.0
 11
13192.806583
 21
3416.818417
 31
0.0
  0
ARC
  8
1
  6
CONTINUOUS
 62
   140
  5
2B7
 10
13192.858567
 20
3416.81832
 30
0.0
 40
0.052242
 50
124.737672
 51
180.0
210
0.0
220
0.0
230
1.0
  0
LINE
  8
1
  6
CONTINUOUS
 62
   140
  5
2B8
 10
13192.828667
 20
3416.861083
 30
0.0
 11
13192.959
 21
3416.9515
 31
0.0
  0
ARC
  8
1
  6
CONTINUOUS
 62
   140
  5
2B9
 10
13192.925521
 20
3416.999428
 30
0.0
 40
0.058428
 50
304.740428
 51
54.510603
210
0.0
220
0.0
230
1.0
  0
LINE
  8
1
  6
CONTINUOUS
 62
   140
  5
2BA
 10
13192.95975
 20
3417.047167
 30
0.0
 11
13192.86
 21
3417.117917
 31
0.0
  0
ARC
  8
1
  6
CONTINUOUS
 62
   140
  5
2BB
 10
13192.844239
 20
3417.095884
 30
0.0
 40
0.027082
 50
54.508819
 51
79.998417
210
0.0
220
0.0
230
1.0
  0
ARC
  8
1
  6
CONTINUOUS
 62
   140
  5
2BC
 10
13192.844239
 20
3417.095884
 30
0.0
 40
0.020897
 50
54.508819
 51
79.998417
210
0.0
220
0.0
230
1.0
  0
LINE
  8
1
  6
CONTINUOUS
 62
   140
  5
2BD
 10
13192.856083
 20
3417.112667
 30
0.0
 11
13192.955667
 21
3417.04175
 31
0.0
  0
ARC
  8
1
  6
CONTINUOUS
 62
   140
  5
2BE
 10
13192.925521
 20
3416.999428
 30
0.0
 40
0.052242
 50
304.740428
 51
54.507792
210
0.0
220
0.0
230
1.0
  0
LINE
  8
1
  6
CONTINUOUS
 62
   140
  5
2BF
 10
13192.955083
 20
3416.956667
 30
0.0
 11
13192.82525
 21
3416.8665
 31
0.0
  0
ARC
  8
1
  6
CONTINUOUS
 62
   140
  5
2C0
 10
13192.858567
 20
3416.81832
 30
0.0
 40
0.058428
 50
124.737672
 51
180.0
210
0.0
220
0.0
230
1.0
  0
LINE
  8
1
  6
CONTINUOUS
 62
   140
  5
2C1
 10
13192.799833
 20
3416.818417
 30
0.0
 11
13192.799833
 21
3416.755417
 31
0.0
  0
ARC
  8
1
  6
CONTINUOUS
 62
   140
  5
2C2
 10
13192.858567
 20
3416.75563
 30
0.0
 40
0.058428
 50
180.0
 51
235.262328
210
0.0
220
0.0
230
1.0
  0
LINE
  8
1
  6
CONTINUOUS
 62
   140
  5
2C3
 10
13192.82525
 20
3416.70725
 30
0.0
 11
13192.955083
 21
3416.617667
 31
0.0
  0
ARC
  8
1
  6
CONTINUOUS
 62
   140
  5
2C4
 10
13192.925521
 20
3416.574522
 30
0.0
 40
0.052242
 50
304.737672
 51
55.262328
210
0.0
220
0.0
230
1.0
  0
LINE
  8
1
  6
CONTINUOUS
 62
   140
  5
2C5
 10
13192.955083
 20
3416.531333
 30
0.0
 11
13192.82525
 21
3416.44175
 31
0.0
  0
LINE
  8
1
  6
CONTINUOUS
 62
   140
  5
2C6
 10
13192.799833
 20
3416.76625
 30
0.0
 11
13192.806583
 21
3416.76625
 31
0.0
  0
LINE
  8
1
  6
CONTINUOUS
 62
   140
  5
2C7
 10
13192.799833
 20
3416.807583
 30
0.0
 11
13192.806583
 21
3416.807583
 31
0.0
  0
POINT
  8
1
  6
CONTINUOUS
 62
   140
  5
2C8
 10
13192.795833
 20
3417.132083
 30
0.0
  0
LINE
  8
1
  6
CONTINUOUS
 62
   140
  5
2C9
 10
13192.796583
 20
3417.132083
 30
0.0
 11
13192.848583
 21
3417.12275
 31
0.0
  0
LINE
  8
1
  6
CONTINUOUS
 62
   140
  5
2CA
 10
13192.796583
 20
3417.132083
 30
0.0
 11
13192.795833
 21
3417.125333
 31
0.0
  0
LINE
  8
1
  6
CONTINUOUS
 62
   140
  5
2CB
 10
13192.795833
 20
3417.125333
 30
0.0
 11
13192.848
 21
3417.116667
 31
0.0
  0
LINE
  8
1
  6
CONTINUOUS
 62
   140
  5
2CC
 10
13192.785083
 20
3417.0725
 30
0.0
 11
13192.789167
 21
3417.077167
 31
0.0
  0
LINE
  8
1
  6
CONTINUOUS
 62
   140
  5
2CD
 10
13192.744333
 20
3417.101917
 30
0.0
 11
13192.747667
 21
3417.106667
 31
0.0
  0
LINE
  8
1
  6
CONTINUOUS
 62
   140
  5
2CE
 10
13192.78575
 20
3416.927333
 30
0.0
 11
13192.789167
 21
3416.922
 31
0.0
  0
LINE
  8
1
  6
CONTINUOUS
 62
   140
  5
2CF
 10
13192.744333
 20
3416.898667
 30
0.0
 11
13192.747667
 21
3416.89325
 31
0.0
  0
LINE
  8
1
  6
CONTINUOUS
 62
   140
  5
2D0
 10
13192.78575
 20
3416.646417
 30
0.0
 11
13192.789167
 21
3416.651833
 31
0.0
  0
LINE
  8
1
  6
CONTINUOUS
 62
   140
  5
2D1
 10
13192.744333
 20
3416.675083
 30
0.0
 11
13192.747667
 21
3416.6805
 31
0.0
  0
LINE
  8
1
  6
CONTINUOUS
 62
   140
  5
2D2
 10
13192.78575
 20
3416.502667
 30
0.0
 11
13192.789167
 21
3416.49725
 31
0.0
  0
LINE
  8
1
  6
CONTINUOUS
 62
   140
  5
2D3
 10
13192.744333
 20
3416.47375
 30
0.0
 11
13192.747667
 21
3416.468417
 31
0.0
  0
LINE
  8
1
  6
CONTINUOUS
 62
   140
  5
2D4
 10
13192.694917
 20
3416.439667
 30
0.0
 11
13192.714917
 21
3416.445667
 31
0.0
  0
LINE
  8
1
  6
CONTINUOUS
 62
   140
  5
2D5
 10
13192.718167
 20
3416.45575
 30
0.0
 11
13192.739
 21
3416.4625
 31
0.0
  0
LINE
  8
1
  6
CONTINUOUS
 62
   140
  5
2D6
 10
13192.78975
 20
3416.50525
 30
0.0
 11
13192.810583
 21
3416.511833
 31
0.0
  0
LINE
  8
1
  6
CONTINUOUS
 62
   140
  5
2D7
 10
13192.81375
 20
3416.522
 30
0.0
 11
13192.833917
 21
3416.528583
 31
0.0
  0
LINE
  8
1
  6
CONTINUOUS
 62
   140
  5
2D8
 10
13192.834583
 20
3416.537417
 30
0.0
 11
13192.845833
 21
3416.541333
 31
0.0
  0
LINE
  8
1
  6
CONTINUOUS
 62
   140
  5
2D9
 10
13192.843333
 20
3416.549417
 30
0.0
 11
13192.852083
 21
3416.552
 31
0.0
  0
LINE
  8
1
  6
CONTINUOUS
 62
   140
  5
2DA
 10
13192.848
 20
3416.559417
 30
0.0
 11
13192.854667
 21
3416.561333
 31
0.0
  0
LINE
  8
1
  6
CONTINUOUS
 62
   140
  5
2DB
 10
13192.85
 20
3416.56875
 30
0.0
 11
13192.856083
 21
3416.570917
 31
0.0
  0
LINE
  8
1
  6
CONTINUOUS
 62
   140
  5
2DC
 10
13192.85
 20
3416.5775
 30
0.0
 11
13192.856083
 21
3416.5795
 31
0.0
  0
LINE
  8
1
  6
CONTINUOUS
 62
   140
  5
2DD
 10
13192.848583
 20
3416.58625
 30
0.0
 11
13192.854667
 21
3416.588083
 31
0.0
  0
LINE
  8
1
  6
CONTINUOUS
 62
   140
  5
2DE
 10
13192.845833
 20
3416.594167
 30
0.0
 11
13192.852083
 21
3416.59625
 31
0.0
  0
LINE
  8
1
  6
CONTINUOUS
 62
   140
  5
2DF
 10
13192.84275
 20
3416.6015
 30
0.0
 11
13192.848583
 21
3416.603583
 31
0.0
  0
LINE
  8
1
  6
CONTINUOUS
 62
   140
  5
2E0
 10
13192.837333
 20
3416.608917
 30
0.0
 11
13192.843333
 21
3416.610833
 31
0.0
  0
LINE
  8
1
  6
CONTINUOUS
 62
   140
  5
2E1
 10
13192.830667
 20
3416.615583
 30
0.0
 11
13192.837333
 21
3416.617667
 31
0.0
  0
LINE
  8
1
  6
CONTINUOUS
 62
   140
  5
2E2
 10
13192.821917
 20
3416.621583
 30
0.0
 11
13192.82925
 21
3416.623667
 31
0.0
  0
LINE
  8
1
  6
CONTINUOUS
 62
   140
  5
2E3
 10
13192.81325
 20
3416.627583
 30
0.0
 11
13192.8205
 21
3416.62975
 31
0.0
  0
LINE
  8
1
  6
CONTINUOUS
 62
   140
  5
2E4
 10
13192.8045
 20
3416.633
 30
0.0
 11
13192.811917
 21
3416.635583
 31
0.0
  0
LINE
  8
1
  6
CONTINUOUS
 62
   140
  5
2E5
 10
13192.795833
 20
3416.639083
 30
0.0
 11
13192.80325
 21
3416.641667
 31
0.0
  0
LINE
  8
1
  6
CONTINUOUS
 62
   140
  5
2E6
 10
13192.787
 20
3416.645167
 30
0.0
 11
13192.795167
 21
3416.647667
 31
0.0
  0
LINE
  8
1
  6
CONTINUOUS
 62
   140
  5
2E7
 10
13192.735583
 20
3416.681167
 30
0.0
 11
13192.742917
 21
3416.683917
 31
0.0
  0
LINE
  8
1
  6
CONTINUOUS
 62
   140
  5
2E8
 10
13192.726917
 20
3416.687167
 30
0.0
 11
13192.73425
 21
3416.689833
 31
0.0
  0
LINE
  8
1
  6
CONTINUOUS
 62
   140
  5
2E9
 10
13192.718167
 20
3416.693167
 30
0.0
 11
13192.725583
 21
3416.695833
 31
0.0
  0
LINE
  8
1
  6
CONTINUOUS
 62
   140
  5
2EA
 10
13192.7095
 20
3416.699333
 30
0.0
 11
13192.716917
 21
3416.70125
 31
0.0
  0
LINE
  8
1
  6
CONTINUOUS
 62
   140
  5
2EB
 10
13192.700833
 20
3416.70525
 30
0.0
 11
13192.708833
 21
3416.70725
 31
0.0
  0
LINE
  8
1
  6
CONTINUOUS
 62
   140
  5
2EC
 10
13192.69275
 20
3416.711333
 30
0.0
 11
13192.700083
 21
3416.713333
 31
0.0
  0
LINE
  8
1
  6
CONTINUOUS
 62
   140
  5
2ED
 10
13192.686083
 20
3416.718
 30
0.0
 11
13192.69275
 21
3416.72
 31
0.0
  0
LINE
  8
1
  6
CONTINUOUS
 62
   140
  5
2EE
 10
13192.681417
 20
3416.72525
 30
0.0
 11
13192.6875
 21
3416.726583
 31
0.0
  0
LINE
  8
1
  6
CONTINUOUS
 62
   140
  5
2EF
 10
13192.677417
 20
3416.73275
 30
0.0
 11
13192.683417
 21
3416.734583
 31
0.0
  0
LINE
  8
1
  6
CONTINUOUS
 62
   140
  5
2F0
 10
13192.67475
 20
3416.740667
 30
0.0
 11
13192.680083
 21
3416.742
 31
0.0
  0
LINE
  8
1
  6
CONTINUOUS
 62
   140
  5
2F1
 10
13192.672583
 20
3416.74875
 30
0.0
 11
13192.678667
 21
3416.750833
 31
0.0
  0
LINE
  8
1
  6
CONTINUOUS
 62
   140
  5
2F2
 10
13192.672583
 20
3416.757417
 30
0.0
 11
13192.678667
 21
3416.7595
 31
0.0
  0
LINE
  8
1
  6
CONTINUOUS
 62
   140
  5
2F3
 10
13192.672583
 20
3416.81025
 30
0.0
 11
13192.678667
 21
3416.812417
 31
0.0
  0
LINE
  8
1
  6
CONTINUOUS
 62
   140
  5
2F4
 10
13192.672583
 20
3416.819
 30
0.0
 11
13192.678667
 21
3416.820917
 31
0.0
  0
LINE
  8
1
  6
CONTINUOUS
 62
   140
  5
2F5
 10
13192.673417
 20
3416.82775
 30
0.0
 11
13192.680083
 21
3416.830333
 31
0.0
  0
LINE
  8
1
  6
CONTINUOUS
 62
   140
  5
2F6
 10
13192.676083
 20
3416.83775
 30
0.0
 11
13192.683417
 21
3416.839667
 31
0.0
  0
LINE
  8
1
  6
CONTINUOUS
 62
   140
  5
2F7
 10
13192.68075
 20
3416.84775
 30
0.0
 11
13192.690167
 21
3416.851083
 31
0.0
  0
LINE
  8
1
  6
CONTINUOUS
 62
   140
  5
2F8
 10
13192.6895
 20
3416.859833
 30
0.0
 11
13192.706917
 21
3416.86525
 31
0.0
  0
LINE
  8
1
  6
CONTINUOUS
 62
   140
  5
2F9
 10
13192.710167
 20
3416.87525
 30
0.0
 11
13192.730917
 21
3416.881917
 31
0.0
  0
LINE
  8
1
  6
CONTINUOUS
 62
   140
  5
2FA
 10
13192.73425
 20
3416.891917
 30
0.0
 11
13192.74625
 21
3416.895167
 31
0.0
  0
LINE
  8
1
  6
CONTINUOUS
 62
   140
  5
2FB
 10
13192.781833
 20
3416.924583
 30
0.0
 11
13192.802583
 21
3416.931333
 31
0.0
  0
LINE
  8
1
  6
CONTINUOUS
 62
   140
  5
2FC
 10
13192.82925
 20
3416.9575
 30
0.0
 11
13192.84275
 21
3416.962083
 31
0.0
  0
LINE
  8
1
  6
CONTINUOUS
 62
   140
  5
2FD
 10
13192.84125
 20
3416.970167
 30
0.0
 11
13192.85
 21
3416.973583
 31
0.0
  0
LINE
  8
1
  6
CONTINUOUS
 62
   140
  5
2FE
 10
13192.846667
 20
3416.980917
 30
0.0
 11
13192.853917
 21
3416.983583
 31
0.0
  0
LINE
  8
1
  6
CONTINUOUS
 62
   140
  5
2FF
 10
13192.849417
 20
3416.990917
 30
0.0
 11
13192.856083
 21
3416.992917
 31
0.0
  0
LINE
  8
1
  6
CONTINUOUS
 62
   140
  5
300
 10
13192.85
 20
3416.999583
 30
0.0
 11
13192.856083
 21
3417.001583
 31
0.0
  0
LINE
  8
1
  6
CONTINUOUS
 62
   140
  5
301
 10
13192.849417
 20
3417.008333
 30
0.0
 11
13192.855417
 21
3417.010333
 31
0.0
  0
LINE
  8
1
  6
CONTINUOUS
 62
   140
  5
302
 10
13192.84725
 20
3417.016417
 30
0.0
 11
13192.853417
 21
3417.018333
 31
0.0
  0
LINE
  8
1
  6
CONTINUOUS
 62
   140
  5
303
 10
13192.844
 20
3417.023583
 30
0.0
 11
13192.85
 21
3417.02575
 31
0.0
  0
LINE
  8
1
  6
CONTINUOUS
 62
   140
  5
304
 10
13192.83925
 20
3417.031083
 30
0.0
 11
13192.845333
 21
3417.033083
 31
0.0
  0
LINE
  8
1
  6
CONTINUOUS
 62
   140
  5
305
 10
13192.83325
 20
3417.037667
 30
0.0
 11
13192.84
 21
3417.040417
 31
0.0
  0
LINE
  8
1
  6
CONTINUOUS
 62
   140
  5
306
 10
13192.82525
 20
3417.044417
 30
0.0
 11
13192.832583
 21
3417.046417
 31
0.0
  0
LINE
  8
1
  6
CONTINUOUS
 62
   140
  5
307
 10
13192.8165
 20
3417.0505
 30
0.0
 11
13192.823833
 21
3417.052417
 31
0.0
  0
LINE
  8
1
  6
CONTINUOUS
 62
   140
  5
308
 10
13192.807833
 20
3417.0565
 30
0.0
 11
13192.81525
 21
3417.058333
 31
0.0
  0
LINE
  8
1
  6
CONTINUOUS
 62
   140
  5
309
 10
13192.799833
 20
3417.062417
 30
0.0
 11
13192.807167
 21
3417.0645
 31
0.0
  0
LINE
  8
1
  6
CONTINUOUS
 62
   140
  5
30A
 10
13192.791167
 20
3417.068417
 30
0.0
 11
13192.7985
 21
3417.0705
 31
0.0
  0
LINE
  8
1
  6
CONTINUOUS
 62
   140
  5
30B
 10
13192.787833
 20
3417.075833
 30
0.0
 11
13192.78975
 21
3417.0765
 31
0.0
  0
LINE
  8
1
  6
CONTINUOUS
 62
   140
  5
30C
 10
13192.74025
 20
3417.104583
 30
0.0
 11
13192.747667
 21
3417.106667
 31
0.0
  0
LINE
  8
1
  6
CONTINUOUS
 62
   140
  5
30D
 10
13192.7315
 20
3417.110667
 30
0.0
 11
13192.739
 21
3417.112667
 31
0.0
  0
LINE
  8
1
  6
CONTINUOUS
 62
   140
  5
30E
 10
13192.721583
 20
3417.116
 30
0.0
 11
13192.730917
 21
3417.118667
 31
0.0
  0
LINE
  8
1
  6
CONTINUOUS
 62
   140
  5
30F
 10
13192.70425
 20
3417.119333
 30
0.0
 11
13192.716917
 21
3417.123333
 31
0.0
  0
LINE
  8
1
  6
CONTINUOUS
 62
   140
  5
310
 10
13192.68675
 20
3417.122083
 30
0.0
 11
13192.699417
 21
3417.126667
 31
0.0
  0
LINE
  8
1
  6
CONTINUOUS
 62
   140
  5
311
 10
13192.6695
 20
3417.125333
 30
0.0
 11
13192.681417
 21
3417.129417
 31
0.0
  0
LINE
  8
1
  6
CONTINUOUS
 62
   140
  5
312
 10
13192.722333
 20
3416.88325
 30
0.0
 11
13192.742917
 21
3416.889917
 31
0.0
  0
LINE
  8
1
  6
CONTINUOUS
 62
   140
  5
313
 10
13192.793833
 20
3416.93275
 30
0.0
 11
13192.81375
 21
3416.9395
 31
0.0
  0
LINE
  8
1
  6
CONTINUOUS
 62
   140
  5
314
 10
13192.817833
 20
3416.9495
 30
0.0
 11
13192.836667
 21
3416.955417
 31
0.0
  0
LINE
  8
1
  6
CONTINUOUS
 62
   140
  5
315
 10
13192.698083
 20
3416.867167
 30
0.0
 11
13192.718833
 21
3416.873083
 31
0.0
  0
LINE
  8
1
  6
CONTINUOUS
 62
   140
  5
316
 10
13192.684083
 20
3416.85375
 30
0.0
 11
13192.696167
 21
3416.857083
 31
0.0
  0
LINE
  8
1
  6
CONTINUOUS
 62
   140
  5
317
 10
13192.6875
 20
3416.433
 30
0.0
 11
13192.703417
 21
3416.437583
 31
0.0
  0
LINE
  8
1
  6
CONTINUOUS
 62
   140
  5
318
 10
13192.706917
 20
3416.447667
 30
0.0
 11
13192.726917
 21
3416.454333
 31
0.0
  0
LINE
  8
1
  6
CONTINUOUS
 62
   140
  5
319
 10
13192.730167
 20
3416.464333
 30
0.0
 11
13192.746833
 21
3416.46975
 31
0.0
  0
LINE
  8
1
  6
CONTINUOUS
 62
   140
  5
31A
 10
13192.787
 20
3416.499917
 30
0.0
 11
13192.7985
 21
3416.504
 31
0.0
  0
LINE
  8
1
  6
CONTINUOUS
 62
   140
  5
31B
 10
13192.801833
 20
3416.513833
 30
0.0
 11
13192.822583
 21
3416.520583
 31
0.0
  0
LINE
  8
1
  6
CONTINUOUS
 62
   140
  5
31C
 10
13192.825917
 20
3416.53
 30
0.0
 11
13192.84125
 21
3416.535333
 31
0.0
  0
LINE
  8
1
  6
CONTINUOUS
 62
   140
  5
31D
 10
13192.700833
 20
3416.436333
 30
0.0
 11
13192.831333
 21
3416.526583
 31
0.0
  0
ARC
  8
1
  6
CONTINUOUS
 62
   140
  5
31E
 10
13192.797881
 20
3416.574522
 30
0.0
 40
0.058428
 50
304.740428
 51
55.259572
210
0.0
220
0.0
230
1.0
  0
LINE
  8
1
  6
CONTINUOUS
 62
   140
  5
31F
 10
13192.831333
 20
3416.622333
 30
0.0
 11
13192.700833
 21
3416.712583
 31
0.0
  0
ARC
  8
1
  6
CONTINUOUS
 62
   140
  5
320
 10
13192.730927
 20
3416.75563
 30
0.0
 40
0.052242
 50
180.0
 51
235.262328
210
0.0
220
0.0
230
1.0
  0
LINE
  8
1
  6
CONTINUOUS
 62
   140
  5
321
 10
13192.678667
 20
3416.755417
 30
0.0
 11
13192.678667
 21
3416.818417
 31
0.0
  0
ARC
  8
1
  6
CONTINUOUS
 62
   140
  5
322
 10
13192.730927
 20
3416.81832
 30
0.0
 40
0.052242
 50
124.737672
 51
180.0
210
0.0
220
0.0
230
1.0
  0
LINE
  8
1
  6
CONTINUOUS
 62
   140
  5
323
 10
13192.700833
 20
3416.861083
 30
0.0
 11
13192.831333
 21
3416.9515
 31
0.0
  0
ARC
  8
1
  6
CONTINUOUS
 62
   140
  5
324
 10
13192.797881
 20
3416.999428
 30
0.0
 40
0.058428
 50
304.740428
 51
54.510603
210
0.0
220
0.0
230
1.0
  0
LINE
  8
1
  6
CONTINUOUS
 62
   140
  5
325
 10
13192.831917
 20
3417.047167
 30
0.0
 11
13192.732333
 21
3417.117917
 31
0.0
  0
ARC
  8
1
  6
CONTINUOUS
 62
   140
  5
326
 10
13192.7166
 20
3417.095884
 30
0.0
 40
0.027082
 50
54.508819
 51
79.998417
210
0.0
220
0.0
230
1.0
  0
ARC
  8
1
  6
CONTINUOUS
 62
   140
  5
327
 10
13192.7166
 20
3417.095884
 30
0.0
 40
0.020897
 50
54.508819
 51
79.998417
210
0.0
220
0.0
230
1.0
  0
LINE
  8
1
  6
CONTINUOUS
 62
   140
  5
328
 10
13192.728917
 20
3417.112667
 30
0.0
 11
13192.827917
 21
3417.04175
 31
0.0
  0
ARC
  8
1
  6
CONTINUOUS
 62
   140
  5
329
 10
13192.797881
 20
3416.999428
 30
0.0
 40
0.052242
 50
304.740428
 51
54.507792
210
0.0
220
0.0
230
1.0
  0
LINE
  8
1
  6
CONTINUOUS
 62
   140
  5
32A
 10
13192.827917
 20
3416.956667
 30
0.0
 11
13192.697583
 21
3416.8665
 31
0.0
  0
ARC
  8
1
  6
CONTINUOUS
 62
   140
  5
32B
 10
13192.730927
 20
3416.81832
 30
0.0
 40
0.058428
 50
124.737672
 51
180.0
210
0.0
220
0.0
230
1.0
  0
LINE
  8
1
  6
CONTINUOUS
 62
   140
  5
32C
 10
13192.672583
 20
3416.818417
 30
0.0
 11
13192.672583
 21
3416.755417
 31
0.0
  0
ARC
  8
1
  6
CONTINUOUS
 62
   140
  5
32D
 10
13192.730927
 20
3416.75563
 30
0.0
 40
0.058428
 50
180.0
 51
235.262328
210
0.0
220
0.0
230
1.0
  0
LINE
  8
1
  6
CONTINUOUS
 62
   140
  5
32E
 10
13192.697583
 20
3416.70725
 30
0.0
 11
13192.827917
 21
3416.617667
 31
0.0
  0
ARC
  8
1
  6
CONTINUOUS
 62
   140
  5
32F
 10
13192.797881
 20
3416.574522
 30
0.0
 40
0.052242
 50
304.737672
 51
55.262328
210
0.0
220
0.0
230
1.0
  0
LINE
  8
1
  6
CONTINUOUS
 62
   140
  5
330
 10
13192.827917
 20
3416.531333
 30
0.0
 11
13192.697583
 21
3416.44175
 31
0.0
  0
LINE
  8
1
  6
CONTINUOUS
 62
   140
  5
331
 10
13192.672583
 20
3416.76625
 30
0.0
 11
13192.678667
 21
3416.76625
 31
0.0
  0
LINE
  8
1
  6
CONTINUOUS
 62
   140
  5
332
 10
13192.672583
 20
3416.807583
 30
0.0
 11
13192.678667
 21
3416.807583
 31
0.0
  0
POINT
  8
1
  6
CONTINUOUS
 62
   140
  5
333
 10
13192.668167
 20
3417.132083
 30
0.0
  0
LINE
  8
1
  6
CONTINUOUS
 62
   140
  5
334
 10
13192.668667
 20
3417.132083
 30
0.0
 11
13192.721583
 21
3417.12275
 31
0.0
  0
LINE
  8
1
  6
CONTINUOUS
 62
   140
  5
335
 10
13192.668667
 20
3417.132083
 30
0.0
 11
13192.668167
 21
3417.125333
 31
0.0
  0
LINE
  8
1
  6
CONTINUOUS
 62
   140
  5
336
 10
13192.668167
 20
3417.125333
 30
0.0
 11
13192.720167
 21
3417.116667
 31
0.0
  0
LINE
  8
1
  6
CONTINUOUS
 62
   140
  5
337
 10
13192.805917
 20
3416.941417
 30
0.0
 11
13192.825917
 21
3416.948167
 31
0.0
  0
LINE
  8
1
  6
CONTINUOUS
 62
   140
  5
338
 10
13192.166167
 20
3417.116667
 30
0.0
 11
13192.39625
 21
3417.24975
 31
0.0
  0
LINE
  8
1
  6
CONTINUOUS
 62
   140
  5
339
 10
13192.403667
 20
3417.22775
 30
0.0
 11
13192.381667
 21
3417.2625
 31
0.0
  0
LINE
  8
1
  6
CONTINUOUS
 62
     2
  5
33A
 10
13192.98725
 20
3417.476333
 30
0.0
 11
13192.837417
 21
3417.12475
 31
0.0
  0
LINE
  8
1
  6
CONTINUOUS
 62
     2
  5
33B
 10
13192.983833
 20
3415.649083
 30
0.0
 11
13192.983833
 21
3417.158083
 31
0.0
  0
LINE
  8
1
  6
CONTINUOUS
 62
     2
  5
33C
 10
13193.561167
 20
3415.981333
 30
0.0
 11
13193.561167
 21
3417.11825
 31
0.0
  0
LINE
  8
1
  6
HIDDEN
 62
   140
  5
33D
 10
13191.789667
 20
3416.087667
 30
0.0
 11
13192.504083
 21
3416.087667
 31
0.0
  0
LINE
  8
1
  6
HIDDEN
 62
   140
  5
33E
 10
13191.789667
 20
3416.064417
 30
0.0
 11
13192.504083
 21
3416.064417
 31
0.0
  0
POLYLINE
  8
1
  6
CONTINUOUS
 62
   140
  5
33F
 66
     1
 10
0.0
 20
0.0
 30
0.0
210
0.0
220
0.0
230
1.0
  0
VERTEX
  8
1
  6
CONTINUOUS
 62
   140
  5
340
 10
13192.4125
 20
3416.103083
 30
0.0
  0
VERTEX
  8
1
  6
CONTINUOUS
 62
   140
  5
341
 10
13192.438583
 20
3416.103083
 30
0.0
  0
VERTEX
  8
1
  6
CONTINUOUS
 62
   140
  5
342
 10
13192.438583
 20
3416.043583
 30
0.0
  0
VERTEX
  8
1
  6
CONTINUOUS
 62
   140
  5
343
 10
13192.4125
 20
3416.043583
 30
0.0
  0
SEQEND
  8
1
  6
CONTINUOUS
 62
   140
  5
344
  0
LINE
  8
1
  6
CONTINUOUS
 62
   140
  5
345
 10
13192.409917
 20
3416.277167
 30
0.0
 11
13192.409917
 21
3415.887083
 31
0.0
  0
LINE
  8
1
  6
HIDDEN
 62
   140
  5
346
 10
13192.235833
 20
3415.565333
 30
0.0
 11
13192.235833
 21
3412.499417
 31
0.0
  0
POLYLINE
  8
1
  6
CONTINUOUS
 62
   140
  5
347
 66
     1
 10
0.0
 20
0.0
 30
0.0
210
0.0
220
0.0
230
1.0
  0
VERTEX
  8
1
  6
CONTINUOUS
 62
   140
  5
348
 10
13191.764333
 20
3416.801583
 30
0.0
  0
VERTEX
  8
1
  6
CONTINUOUS
 62
   140
  5
349
 10
13191.727417
 20
3416.801583
 30
0.0
  0
VERTEX
  8
1
  6
CONTINUOUS
 62
   140
  5
34A
 10
13191.727417
 20
3416.76675
 30
0.0
  0
VERTEX
  8
1
  6
CONTINUOUS
 62
   140
  5
34B
 10
13191.764333
 20
3416.76675
 30
0.0
  0
SEQEND
  8
1
  6
CONTINUOUS
 62
   140
  5
34C
  0
POLYLINE
  8
1
  6
CONTINUOUS
 62
   140
  5
34D
 66
     1
 10
0.0
 20
0.0
 30
0.0
210
0.0
220
0.0
230
1.0
  0
VERTEX
  8
1
  6
CONTINUOUS
 62
   140
  5
34E
 10
13191.789667
 20
3416.813667
 30
0.0
  0
VERTEX
  8
1
  6
CONTINUOUS
 62
   140
  5
34F
 10
13191.764333
 20
3416.813667
 30
0.0
  0
VERTEX
  8
1
  6
CONTINUOUS
 62
   140
  5
350
 10
13191.764333
 20
3416.754083
 30
0.0
  0
VERTEX
  8
1
  6
CONTINUOUS
 62
   140
  5
351
 10
13191.789667
 20
3416.754083
 30
0.0
  0
SEQEND
  8
1
  6
CONTINUOUS
 62
   140
  5
352
  0
POLYLINE
  8
1
  6
CONTINUOUS
 62
   140
  5
353
 66
     1
 10
0.0
 20
0.0
 30
0.0
210
0.0
220
0.0
230
1.0
  0
VERTEX
  8
1
  6
CONTINUOUS
 62
   140
  5
354
 10
13191.789667
 20
3416.10525
 30
0.0
  0
VERTEX
  8
1
  6
CONTINUOUS
 62
   140
  5
355
 10
13191.764333
 20
3416.10525
 30
0.0
  0
VERTEX
  8
1
  6
CONTINUOUS
 62
   140
  5
356
 10
13191.764333
 20
3416.046333
 30
0.0
  0
VERTEX
  8
1
  6
CONTINUOUS
 62
   140
  5
357
 10
13191.789667
 20
3416.046333
 30
0.0
  0
SEQEND
  8
1
  6
CONTINUOUS
 62
   140
  5
358
  0
POLYLINE
  8
1
  6
CONTINUOUS
 62
   140
  5
359
 66
     1
 10
0.0
 20
0.0
 30
0.0
210
0.0
220
0.0
230
1.0
  0
VERTEX
  8
1
  6
CONTINUOUS
 62
   140
  5
35A
 10
13191.764333
 20
3416.093083
 30
0.0
  0
VERTEX
  8
1
  6
CONTINUOUS
 62
   140
  5
35B
 10
13191.727417
 20
3416.093083
 30
0.0
  0
VERTEX
  8
1
  6
CONTINUOUS
 62
   140
  5
35C
 10
13191.727417
 20
3416.058333
 30
0.0
  0
VERTEX
  8
1
  6
CONTINUOUS
 62
   140
  5
35D
 10
13191.764333
 20
3416.058333
 30
0.0
  0
SEQEND
  8
1
  6
CONTINUOUS
 62
   140
  5
35E
  0
LINE
  8
1
  6
CONTINUOUS
 62
   140
  5
35F
 10
13192.235833
 20
3416.277167
 30
0.0
 11
13192.409917
 21
3416.277167
 31
0.0
  0
LINE
  8
1
  6
CONTINUOUS
 62
   140
  5
360
 10
13192.235833
 20
3415.887083
 30
0.0
 11
13192.409917
 21
3415.887083
 31
0.0
  0
LINE
  8
1
  6
CONTINUOUS
 62
   140
  5
361
 10
13192.409917
 20
3415.914417
 30
0.0
 11
13192.51675
 21
3415.914417
 31
0.0
  0
LINE
  8
1
  6
CONTINUOUS
 62
   140
  5
362
 10
13192.409917
 20
3416.248917
 30
0.0
 11
13192.51675
 21
3416.248917
 31
0.0
  0
LINE
  8
1
  6
CONTINUOUS
 62
   140
  5
363
 10
13192.51675
 20
3415.914417
 30
0.0
 11
13192.51675
 21
3416.248917
 31
0.0
  0
POLYLINE
  8
1
  6
CONTINUOUS
 62
   140
  5
364
 66
     1
 10
0.0
 20
0.0
 30
0.0
210
0.0
220
0.0
230
1.0
  0
VERTEX
  8
1
  6
CONTINUOUS
 62
   140
  5
365
 10
13192.5195
 20
3416.103083
 30
0.0
  0
VERTEX
  8
1
  6
CONTINUOUS
 62
   140
  5
366
 10
13192.545583
 20
3416.103083
 30
0.0
  0
VERTEX
  8
1
  6
CONTINUOUS
 62
   140
  5
367
 10
13192.545583
 20
3416.043583
 30
0.0
  0
VERTEX
  8
1
  6
CONTINUOUS
 62
   140
  5
368
 10
13192.5195
 20
3416.043583
 30
0.0
  0
SEQEND
  8
1
  6
CONTINUOUS
 62
   140
  5
369
  0
LINE
  8
1
  6
CONTINUOUS
 62
   140
  5
36A
 10
13194.2675
 20
3415.768667
 30
0.0
 11
13190.573417
 21
3415.3995
 31
0.0
  0
LINE
  8
1
  6
CONTINUOUS
 62
   140
  5
36B
 10
13203.680083
 20
3415.0355
 30
0.0
 11
13200.003417
 21
3414.66825
 31
0.0
  0
LINE
  8
1
  6
CONTINUOUS
 62
     2
  5
36C
 10
13203.11025
 20
3415.122333
 30
0.0
 11
13203.931
 21
3415.204667
 31
0.0
  0
LINE
  8
1
  6
CONTINUOUS
 62
     2
  5
36D
 10
13202.030833
 20
3416.04575
 30
0.0
 11
13202.813
 21
3416.49725
 31
0.0
  0
LINE
  8
1
  6
CONTINUOUS
 62
   140
  5
36E
 10
13201.387583
 20
3416.481833
 30
0.0
 11
13201.387583
 21
3414.806667
 31
0.0
  0
LINE
  8
1
  6
CONTINUOUS
 62
   140
  5
36F
 10
13201.833667
 20
3415.62825
 30
0.0
 11
13201.387583
 21
3415.62825
 31
0.0
  0
LINE
  8
1
  6
CONTINUOUS
 62
     2
  5
370
 10
13202.030833
 20
3414.862333
 30
0.0
 11
13202.813
 21
3415.31375
 31
0.0
  0
INSERT
  8
1
  6
CONTINUOUS
 62
   140
  5
3FB
  2
WSEC
 10
13201.83825
 20
3416.383417
 30
0.0
 41
0.066878
 42
0.066878
210
0.0
220
0.0
230
1.0
  0
LINE
  8
1
  6
CONTINUOUS
 62
   140
  5
3FC
 10
13201.836333
 20
3416.481833
 30
0.0
 11
13201.836333
 21
3415.62825
 31
0.0
  0
POLYLINE
  8
1
  6
CONTINUOUS
 62
   140
  5
3FD
 66
     1
 10
0.0
 20
0.0
 30
0.0
210
0.0
220
0.0
230
1.0
  0
VERTEX
  8
1
  6
CONTINUOUS
 62
   140
  5
3FE
 10
13201.853
 20
3416.067083
 30
0.0
  0
VERTEX
  8
1
  6
CONTINUOUS
 62
   140
  5
3FF
 10
13201.878417
 20
3416.067083
 30
0.0
  0
VERTEX
  8
1
  6
CONTINUOUS
 62
   140
  5
400
 10
13201.878417
 20
3416.0075
 30
0.0
  0
VERTEX
  8
1
  6
CONTINUOUS
 62
   140
  5
401
 10
13201.853
 20
3416.0075
 30
0.0
  0
SEQEND
  8
1
  6
CONTINUOUS
 62
   140
  5
402
  0
LINE
  8
1
  6
CONTINUOUS
 62
   140
  5
403
 10
13201.836333
 20
3416.481833
 30
0.0
 11
13200.947167
 21
3416.481833
 31
0.0
  0
LINE
  8
1
  6
HIDDEN
 62
   140
  5
404
 10
13200.947167
 20
3416.053667
 30
0.0
 11
13201.843083
 21
3416.053667
 31
0.0
  0
LINE
  8
1
  6
HIDDEN
 62
   140
  5
405
 10
13200.947167
 20
3416.004083
 30
0.0
 11
13201.830333
 21
3416.004083
 31
0.0
  0
LINE
  8
1
  6
HIDDEN
 62
   140
  5
406
 10
13201.388833
 20
3414.806667
 30
0.0
 11
13201.388833
 21
3412.476667
 31
0.0
  0
LINE
  8
1
  6
HIDDEN
 62
   140
  5
407
 10
13200.94325
 20
3412.465333
 30
0.0
 11
13201.3815
 21
3412.465333
 31
0.0
  0
LINE
  8
1
  6
CONTINUOUS
 62
   140
  5
408
 10
13201.299417
 20
3416.416333
 30
0.0
 11
13201.5295
 21
3416.549417
 31
0.0
  0
LINE
  8
1
  6
CONTINUOUS
 62
   140
  5
409
 10
13201.536833
 20
3416.528
 30
0.0
 11
13201.514833
 21
3416.562833
 31
0.0
  0
LINE
  8
1
  6
CONTINUOUS
 62
     2
  5
40A
 10
13201.156083
 20
3417.230917
 30
0.0
 11
13200.55925
 21
3417.230917
 31
0.0
  0
LINE
  8
1
  6
CONTINUOUS
 62
     2
  5
40B
 10
13200.55925
 20
3417.230917
 30
0.0
 11
13201.426833
 21
3416.502667
 31
0.0
  0
LINE
  8
1
  6
CONTINUOUS
 62
     2
  5
40C
 10
13201.969417
 20
3414.14775
 30
0.0
 11
13201.76125
 21
3414.14775
 31
0.0
  0
LINE
  8
1
  6
CONTINUOUS
 62
     2
  5
40D
 10
13201.76125
 20
3414.14775
 30
0.0
 11
13201.655
 21
3415.608083
 31
0.0
  0
LINE
  8
1
  6
CONTINUOUS
 62
     2
  5
40E
 10
13202.20225
 20
3413.019167
 30
0.0
 11
13201.994167
 21
3413.019167
 31
0.0
  0
LINE
  8
1
  6
CONTINUOUS
 62
     2
  5
40F
 10
13201.994167
 20
3413.019167
 30
0.0
 11
13201.382167
 21
3412.6935
 31
0.0
  0
LINE
  8
1
  6
CONTINUOUS
 62
     2
  5
410
 10
13202.030833
 20
3414.862333
 30
0.0
 11
13202.030833
 21
3416.383417
 31
0.0
  0
LINE
  8
1
  6
CONTINUOUS
 62
     2
  5
411
 10
13202.607667
 20
3415.200083
 30
0.0
 11
13202.607667
 21
3416.37075
 31
0.0
  0
LINE
  8
1
  6
CONTINUOUS
 62
   140
  5
412
 10
13192.525
 20
3403.986167
 30
0.0
 11
13205.893167
 21
3403.986167
 31
0.0
  0
LINE
  8
1
  6
CONTINUOUS
 62
   140
  5
413
 10
13211.326417
 20
3403.313833
 30
0.0
 11
13193.062833
 21
3403.313833
 31
0.0
  0
LINE
  8
1
  6
CONTINUOUS
 62
   140
  5
414
 10
13206.773417
 20
3402.19075
 30
0.0
 11
13206.96875
 21
3402.462333
 31
0.0
  0
LINE
  8
1
  6
CONTINUOUS
 62
   140
  5
415
 10
13206.94075
 20
3402.19075
 30
0.0
 11
13207.136167
 21
3402.462333
 31
0.0
  0
LINE
  8
1
  6
CONTINUOUS
 62
   140
  5
416
 10
13207.108083
 20
3402.19075
 30
0.0
 11
13207.303333
 21
3402.462333
 31
0.0
  0
LINE
  8
1
  6
CONTINUOUS
 62
   140
  5
417
 10
13207.4565
 20
3402.226083
 30
0.0
 11
13207.25725
 21
3402.398083
 31
0.0
  0
LINE
  8
1
  6
CONTINUOUS
 62
   140
  5
418
 10
13207.554833
 20
3402.362583
 30
0.0
 11
13207.428417
 21
3402.47175
 31
0.0
  0
LINE
  8
1
  6
CONTINUOUS
 62
   140
  5
419
 10
13207.431083
 20
3402.19075
 30
0.0
 11
13207.6325
 21
3402.47175
 31
0.0
  0
LINE
  8
1
  6
CONTINUOUS
 62
   140
  5
41A
 10
13207.598333
 20
3402.19075
 30
0.0
 11
13207.800333
 21
3402.47175
 31
0.0
  0
CIRCLE
  8
1
  6
CONTINUOUS
 62
   140
  5
41B
 10
13202.056895
 20
3402.962364
 30
0.0
 40
0.040071
210
0.0
220
0.0
230
1.0
  0
LINE
  8
1
  6
HIDDEN
 62
   140
  5
41C
 10
13202.209833
 20
3399.367
 30
0.0
 11
13201.87525
 21
3399.367
 31
0.0
  0
LINE
  8
1
  6
HIDDEN
 62
   140
  5
41D
 10
13204.300333
 20
3400.034
 30
0.0
 11
13203.96575
 21
3400.034
 31
0.0
  0
LINE
  8
1
  6
HIDDEN
 62
   140
  5
41E
 10
13206.387417
 20
3400.015167
 30
0.0
 11
13206.052917
 21
3400.015167
 31
0.0
  0
LINE
  8
1
  6
CONTINUOUS
 62
   140
  5
41F
 10
13206.382833
 20
3403.299167
 30
0.0
 11
13206.382833
 21
3402.465667
 31
0.0
  0
LINE
  8
1
  6
CONTINUOUS
 62
   140
  5
420
 10
13206.049
 20
3403.299167
 30
0.0
 11
13206.049
 21
3402.465667
 31
0.0
  0
LINE
  8
1
  6
CONTINUOUS
 62
   140
  5
421
 10
13208.132833
 20
3403.3045
 30
0.0
 11
13208.132833
 21
3402.465667
 31
0.0
  0
LINE
  8
1
  6
CONTINUOUS
 62
   140
  5
422
 10
13206.382833
 20
3403.299167
 30
0.0
 11
13206.382833
 21
3402.601417
 31
0.0
  0
LINE
  8
1
  6
CONTINUOUS
 62
   140
  5
423
 10
13206.049
 20
3403.299167
 30
0.0
 11
13206.049
 21
3402.601417
 31
0.0
  0
LINE
  8
1
  6
HIDDEN
 62
   140
  5
424
 10
13208.47125
 20
3400.020583
 30
0.0
 11
13208.13675
 21
3400.020583
 31
0.0
  0
LINE
  8
1
  6
CONTINUOUS
 62
   140
  5
425
 10
13208.467333
 20
3403.3045
 30
0.0
 11
13208.467333
 21
3402.465667
 31
0.0
  0
LINE
  8
1
  6
CONTINUOUS
 62
   140
  5
426
 10
13208.132833
 20
3403.3045
 30
0.0
 11
13208.132833
 21
3402.60675
 31
0.0
  0
LINE
  8
1
  6
CONTINUOUS
 62
   140
  5
427
 10
13210.627333
 20
3403.3045
 30
0.0
 11
13210.627333
 21
3402.465667
 31
0.0
  0
LINE
  8
1
  6
CONTINUOUS
 62
   140
  5
428
 10
13210.292917
 20
3403.3045
 30
0.0
 11
13210.292917
 21
3402.465667
 31
0.0
  0
LINE
  8
1
  6
HIDDEN
 62
   140
  5
429
 10
13210.632083
 20
3402.465667
 30
0.0
 11
13210.632083
 21
3400.020583
 31
0.0
  0
LINE
  8
1
  6
HIDDEN
 62
   140
  5
42A
 10
13210.297667
 20
3400.020583
 30
0.0
 11
13210.297667
 21
3402.465667
 31
0.0
  0
LINE
  8
1
  6
CONTINUOUS
 62
   140
  5
42B
 10
13204.295583
 20
3403.300583
 30
0.0
 11
13204.295583
 21
3402.465667
 31
0.0
  0
LINE
  8
1
  6
CONTINUOUS
 62
   140
  5
42C
 10
13202.205
 20
3402.800167
 30
0.0
 11
13202.205
 21
3402.455667
 31
0.0
  0
LINE
  8
1
  6
CONTINUOUS
 62
   140
  5
42D
 10
13201.870667
 20
3402.465667
 30
0.0
 11
13201.870667
 21
3402.800167
 31
0.0
  0
LINE
  8
1
  6
CONTINUOUS
 62
   140
  5
42E
 10
13201.878
 20
3403.987
 30
0.0
 11
13201.878
 21
3404.04975
 31
0.0
  0
LINE
  8
1
  6
CONTINUOUS
 62
   140
  5
42F
 10
13201.878
 20
3404.04975
 30
0.0
 11
13202.212333
 21
3404.04975
 31
0.0
  0
LINE
  8
1
  6
CONTINUOUS
 62
   140
  5
430
 10
13202.211083
 20
3403.987
 30
0.0
 11
13202.211083
 21
3404.04975
 31
0.0
  0
LINE
  8
1
  6
CONTINUOUS
 62
   140
  5
431
 10
13203.975833
 20
3403.981583
 30
0.0
 11
13203.975833
 21
3404.044417
 31
0.0
  0
LINE
  8
1
  6
CONTINUOUS
 62
   140
  5
432
 10
13203.977167
 20
3404.047667
 30
0.0
 11
13204.31175
 21
3404.047667
 31
0.0
  0
LINE
  8
1
  6
CONTINUOUS
 62
   140
  5
433
 10
13204.310333
 20
3403.981583
 30
0.0
 11
13204.310333
 21
3404.044417
 31
0.0
  0
LINE
  8
1
  6
CONTINUOUS
 62
   140
  5
434
 10
13206.055583
 20
3404.0485
 30
0.0
 11
13206.390167
 21
3404.0485
 31
0.0
  0
LINE
  8
1
  6
CONTINUOUS
 62
   140
  5
435
 10
13206.390167
 20
3403.985583
 30
0.0
 11
13206.390167
 21
3404.0485
 31
0.0
  0
LINE
  8
1
  6
CONTINUOUS
 62
   140
  5
436
 10
13206.055583
 20
3403.985583
 30
0.0
 11
13206.055583
 21
3404.0485
 31
0.0
  0
LINE
  8
1
  6
CONTINUOUS
 62
   140
  5
437
 10
13208.139417
 20
3404.053833
 30
0.0
 11
13208.474
 21
3404.053833
 31
0.0
  0
LINE
  8
1
  6
CONTINUOUS
 62
   140
  5
438
 10
13208.474
 20
3403.990917
 30
0.0
 11
13208.474
 21
3404.053833
 31
0.0
  0
LINE
  8
1
  6
CONTINUOUS
 62
   140
  5
439
 10
13208.139417
 20
3403.990917
 30
0.0
 11
13208.139417
 21
3404.053833
 31
0.0
  0
LINE
  8
1
  6
CONTINUOUS
 62
   140
  5
43A
 10
13210.285583
 20
3404.054333
 30
0.0
 11
13210.62
 21
3404.054333
 31
0.0
  0
LINE
  8
1
  6
CONTINUOUS
 62
   140
  5
43B
 10
13210.612667
 20
3403.990917
 30
0.0
 11
13210.612667
 21
3404.053833
 31
0.0
  0
LINE
  8
1
  6
CONTINUOUS
 62
   140
  5
43C
 10
13210.285583
 20
3403.991583
 30
0.0
 11
13210.285583
 21
3404.054333
 31
0.0
  0
LINE
  8
1
  6
CONTINUOUS
 62
   140
  5
43D
 10
13211.320333
 20
3402.465667
 30
0.0
 11
13191.350333
 21
3402.465667
 31
0.0
  0
LINE
  8
1
  6
CONTINUOUS
 62
   140
  5
43E
 10
13211.320333
 20
3403.9755
 30
0.0
 11
13205.858333
 21
3403.9755
 31
0.0
  0
LINE
  8
1
  6
CONTINUOUS
 62
   140
  5
43F
 10
13205.858333
 20
3403.985583
 30
0.0
 11
13211.320333
 21
3403.985583
 31
0.0
  0
LINE
  8
1
  6
CONTINUOUS
 62
   140
  5
440
 10
13201.870667
 20
3402.62025
 30
0.0
 11
13201.870667
 21
3402.560583
 31
0.0
  0
LINE
  8
1
  6
CONTINUOUS
 62
   140
  5
441
 10
13202.205
 20
3402.62025
 30
0.0
 11
13202.205
 21
3402.560583
 31
0.0
  0
LINE
  8
1
  6
CONTINUOUS
 62
   140
  5
442
 10
13201.870667
 20
3402.62025
 30
0.0
 11
13201.870667
 21
3402.560583
 31
0.0
  0
LINE
  8
1
  6
CONTINUOUS
 62
   140
  5
443
 10
13202.205
 20
3402.62025
 30
0.0
 11
13202.205
 21
3402.560583
 31
0.0
  0
LINE
  8
1
  6
CONTINUOUS
 62
   140
  5
444
 10
13211.575917
 20
3403.051583
 30
0.0
 11
13211.326417
 21
3403.219667
 31
0.0
  0
LINE
  8
1
  6
CONTINUOUS
 62
   140
  5
445
 10
13211.026833
 20
3403.057
 30
0.0
 11
13211.575917
 21
3403.051583
 31
0.0
  0
LINE
  8
1
  6
CONTINUOUS
 62
   140
  5
446
 10
13211.326417
 20
3402.90375
 30
0.0
 11
13211.026833
 21
3403.057
 31
0.0
  0
LINE
  8
1
  6
CONTINUOUS
 62
   140
  5
447
 10
13211.326417
 20
3402.90375
 30
0.0
 11
13211.326417
 21
3401.569167
 31
0.0
  0
LINE
  8
1
  6
CONTINUOUS
 62
     2
  5
448
 10
13202.958
 20
3405.033583
 30
0.0
 11
13203.292417
 21
3405.033583
 31
0.0
  0
LINE
  8
1
  6
CONTINUOUS
 62
   140
  5
449
 10
13211.326417
 20
3404.100583
 30
0.0
 11
13211.326417
 21
3403.219667
 31
0.0
  0
LINE
  8
1
  6
HIDDEN
 62
   140
  5
44A
 10
13201.164083
 20
3399.367
 30
0.0
 11
13200.829667
 21
3399.367
 31
0.0
  0
LINE
  8
1
  6
CONTINUOUS
 62
   140
  5
44B
 10
13201.1595
 20
3402.800167
 30
0.0
 11
13201.1595
 21
3402.455667
 31
0.0
  0
LINE
  8
1
  6
CONTINUOUS
 62
   140
  5
44C
 10
13200.825
 20
3402.800167
 30
0.0
 11
13200.825
 21
3402.457583
 31
0.0
  0
LINE
  8
1
  6
CONTINUOUS
 62
   140
  5
44D
 10
13200.825
 20
3402.62025
 30
0.0
 11
13200.825
 21
3402.560583
 31
0.0
  0
LINE
  8
1
  6
CONTINUOUS
 62
   140
  5
44E
 10
13201.1595
 20
3402.62025
 30
0.0
 11
13201.1595
 21
3402.560583
 31
0.0
  0
LINE
  8
1
  6
CONTINUOUS
 62
   140
  5
44F
 10
13200.825
 20
3402.62025
 30
0.0
 11
13200.825
 21
3402.560583
 31
0.0
  0
LINE
  8
1
  6
CONTINUOUS
 62
   140
  5
450
 10
13201.1595
 20
3402.62025
 30
0.0
 11
13201.1595
 21
3402.560583
 31
0.0
  0
LINE
  8
1
  6
CONTINUOUS
 62
   140
  5
451
 10
13201.68525
 20
3403.297917
 30
0.0
 11
13201.68525
 21
3403.986167
 31
0.0
  0
CIRCLE
  8
1
  6
CONTINUOUS
 62
   140
  5
452
 10
13202.048599
 20
3403.636486
 30
0.0
 40
0.040071
210
0.0
220
0.0
230
1.0
  0
LINE
  8
1
  6
HIDDEN
 62
   140
  5
453
 10
13202.416417
 20
3403.299917
 30
0.0
 11
13202.416417
 21
3403.986167
 31
0.0
  0
POLYLINE
  8
1
  6
CONTINUOUS
 62
   140
  5
454
 66
     1
 10
0.0
 20
0.0
 30
0.0
210
0.0
220
0.0
230
1.0
  0
VERTEX
  8
1
  6
CONTINUOUS
 62
   140
  5
455
 10
13202.23021
 20
3403.937281
 30
0.0
 42
0.107797
  0
VERTEX
  8
1
  6
CONTINUOUS
 62
   140
  5
456
 10
13202.230979
 20
3403.933889
 30
0.0
 42
0.083254
  0
VERTEX
  8
1
  6
CONTINUOUS
 62
   140
  5
457
 10
13202.233259
 20
3403.930626
 30
0.0
 42
0.058242
  0
VERTEX
  8
1
  6
CONTINUOUS
 62
   140
  5
458
 10
13202.23696
 20
3403.927619
 30
0.0
 42
0.041681
  0
VERTEX
  8
1
  6
CONTINUOUS
 62
   140
  5
459
 10
13202.24194
 20
3403.924984
 30
0.0
 42
0.03183
  0
VERTEX
  8
1
  6
CONTINUOUS
 62
   140
  5
45A
 10
13202.248009
 20
3403.922821
 30
0.0
 42
0.026114
  0
VERTEX
  8
1
  6
CONTINUOUS
 62
   140
  5
45B
 10
13202.254933
 20
3403.921214
 30
0.0
 42
0.022956
  0
VERTEX
  8
1
  6
CONTINUOUS
 62
   140
  5
45C
 10
13202.262446
 20
3403.920224
 30
0.0
 42
0.021545
  0
VERTEX
  8
1
  6
CONTINUOUS
 62
   140
  5
45D
 10
13202.27026
 20
3403.91989
 30
0.0
 42
0.021545
  0
VERTEX
  8
1
  6
CONTINUOUS
 62
   140
  5
45E
 10
13202.278073
 20
3403.920224
 30
0.0
 42
0.022956
  0
VERTEX
  8
1
  6
CONTINUOUS
 62
   140
  5
45F
 10
13202.285586
 20
3403.921214
 30
0.0
 42
0.026114
  0
VERTEX
  8
1
  6
CONTINUOUS
 62
   140
  5
460
 10
13202.29251
 20
3403.922821
 30
0.0
 42
0.03183
  0
VERTEX
  8
1
  6
CONTINUOUS
 62
   140
  5
461
 10
13202.298579
 20
3403.924984
 30
0.0
 42
0.041681
  0
VERTEX
  8
1
  6
CONTINUOUS
 62
   140
  5
462
 10
13202.30356
 20
3403.927619
 30
0.0
 42
0.058242
  0
VERTEX
  8
1
  6
CONTINUOUS
 62
   140
  5
463
 10
13202.307261
 20
3403.930626
 30
0.0
 42
0.083254
  0
VERTEX
  8
1
  6
CONTINUOUS
 62
   140
  5
464
 10
13202.30954
 20
3403.933889
 30
0.0
 42
0.107797
  0
VERTEX
  8
1
  6
CONTINUOUS
 62
   140
  5
465
 10
13202.310309
 20
3403.937281
 30
0.0
 42
0.107797
  0
SEQEND
  8
1
  6
CONTINUOUS
 62
   140
  5
466
  0
POLYLINE
  8
1
  6
CONTINUOUS
 62
   140
  5
467
 66
     1
 10
0.0
 20
0.0
 30
0.0
210
0.0
220
0.0
230
1.0
  0
VERTEX
  8
1
  6
CONTINUOUS
 62
   140
  5
468
 10
13201.836645
 20
3403.937281
 30
0.0
 42
0.071267
  0
VERTEX
  8
1
  6
CONTINUOUS
 62
   140
  5
469
 10
13201.835875
 20
3403.942594
 30
0.0
 42
0.065729
  0
VERTEX
  8
1
  6
CONTINUOUS
 62
   140
  5
46A
 10
13201.833596
 20
3403.947703
 30
0.0
 42
0.057443
  0
VERTEX
  8
1
  6
CONTINUOUS
 62
   140
  5
46B
 10
13201.829895
 20
3403.952411
 30
0.0
 42
0.049287
  0
VERTEX
  8
1
  6
CONTINUOUS
 62
   140
  5
46C
 10
13201.824914
 20
3403.956538
 30
0.0
 42
0.042701
  0
VERTEX
  8
1
  6
CONTINUOUS
 62
   140
  5
46D
 10
13201.818845
 20
3403.959925
 30
0.0
 42
0.037998
  0
VERTEX
  8
1
  6
CONTINUOUS
 62
   140
  5
46E
 10
13201.811921
 20
3403.962441
 30
0.0
 42
0.03504
  0
VERTEX
  8
1
  6
CONTINUOUS
 62
   140
  5
46F
 10
13201.804408
 20
3403.963991
 30
0.0
 42
0.033623
  0
VERTEX
  8
1
  6
CONTINUOUS
 62
   140
  5
470
 10
13201.796595
 20
3403.964514
 30
0.0
 42
0.033623
  0
VERTEX
  8
1
  6
CONTINUOUS
 62
   140
  5
471
 10
13201.788781
 20
3403.963991
 30
0.0
 42
0.03504
  0
VERTEX
  8
1
  6
CONTINUOUS
 62
   140
  5
472
 10
13201.781268
 20
3403.962441
 30
0.0
 42
0.037998
  0
VERTEX
  8
1
  6
CONTINUOUS
 62
   140
  5
473
 10
13201.774344
 20
3403.959925
 30
0.0
 42
0.042701
  0
VERTEX
  8
1
  6
CONTINUOUS
 62
   140
  5
474
 10
13201.768275
 20
3403.956538
 30
0.0
 42
0.049287
  0
VERTEX
  8
1
  6
CONTINUOUS
 62
   140
  5
475
 10
13201.763295
 20
3403.952411
 30
0.0
 42
0.057443
  0
VERTEX
  8
1
  6
CONTINUOUS
 62
   140
  5
476
 10
13201.759594
 20
3403.947703
 30
0.0
 42
0.065729
  0
VERTEX
  8
1
  6
CONTINUOUS
 62
   140
  5
477
 10
13201.757315
 20
3403.942594
 30
0.0
 42
0.071267
  0
VERTEX
  8
1
  6
CONTINUOUS
 62
   140
  5
478
 10
13201.756545
 20
3403.937281
 30
0.0
 42
0.071267
  0
SEQEND
  8
1
  6
CONTINUOUS
 62
   140
  5
479
  0
POLYLINE
  8
1
  6
CONTINUOUS
 62
   140
  5
47A
 66
     1
 10
0.0
 20
0.0
 30
0.0
210
0.0
220
0.0
230
1.0
  0
VERTEX
  8
1
  6
CONTINUOUS
 62
   140
  5
47B
 10
13201.756545
 20
3403.937281
 30
0.0
 42
0.107797
  0
VERTEX
  8
1
  6
CONTINUOUS
 62
   140
  5
47C
 10
13201.757315
 20
3403.933889
 30
0.0
 42
0.083254
  0
VERTEX
  8
1
  6
CONTINUOUS
 62
   140
  5
47D
 10
13201.759594
 20
3403.930626
 30
0.0
 42
0.058242
  0
VERTEX
  8
1
  6
CONTINUOUS
 62
   140
  5
47E
 10
13201.763295
 20
3403.927619
 30
0.0
 42
0.041681
  0
VERTEX
  8
1
  6
CONTINUOUS
 62
   140
  5
47F
 10
13201.768275
 20
3403.924984
 30
0.0
 42
0.03183
  0
VERTEX
  8
1
  6
CONTINUOUS
 62
   140
  5
480
 10
13201.774344
 20
3403.922821
 30
0.0
 42
0.026114
  0
VERTEX
  8
1
  6
CONTINUOUS
 62
   140
  5
481
 10
13201.781268
 20
3403.921214
 30
0.0
 42
0.022956
  0
VERTEX
  8
1
  6
CONTINUOUS
 62
   140
  5
482
 10
13201.788781
 20
3403.920224
 30
0.0
 42
0.021545
  0
VERTEX
  8
1
  6
CONTINUOUS
 62
   140
  5
483
 10
13201.796595
 20
3403.91989
 30
0.0
 42
0.021545
  0
VERTEX
  8
1
  6
CONTINUOUS
 62
   140
  5
484
 10
13201.804408
 20
3403.920224
 30
0.0
 42
0.022956
  0
VERTEX
  8
1
  6
CONTINUOUS
 62
   140
  5
485
 10
13201.811921
 20
3403.921214
 30
0.0
 42
0.026114
  0
VERTEX
  8
1
  6
CONTINUOUS
 62
   140
  5
486
 10
13201.818845
 20
3403.922821
 30
0.0
 42
0.03183
  0
VERTEX
  8
1
  6
CONTINUOUS
 62
   140
  5
487
 10
13201.824914
 20
3403.924984
 30
0.0
 42
0.041681
  0
VERTEX
  8
1
  6
CONTINUOUS
 62
   140
  5
488
 10
13201.829895
 20
3403.927619
 30
0.0
 42
0.058242
  0
VERTEX
  8
1
  6
CONTINUOUS
 62
   140
  5
489
 10
13201.833596
 20
3403.930626
 30
0.0
 42
0.083254
  0
VERTEX
  8
1
  6
CONTINUOUS
 62
   140
  5
48A
 10
13201.835875
 20
3403.933889
 30
0.0
 42
0.107797
  0
VERTEX
  8
1
  6
CONTINUOUS
 62
   140
  5
48B
 10
13201.836645
 20
3403.937281
 30
0.0
 42
0.107797
  0
SEQEND
  8
1
  6
CONTINUOUS
 62
   140
  5
48C
  0
POLYLINE
  8
1
  6
CONTINUOUS
 62
   140
  5
48D
 66
     1
 10
0.0
 20
0.0
 30
0.0
210
0.0
220
0.0
230
1.0
  0
VERTEX
  8
1
  6
CONTINUOUS
 62
   140
  5
48E
 10
13202.310309
 20
3403.937281
 30
0.0
 42
0.071267
  0
VERTEX
  8
1
  6
CONTINUOUS
 62
   140
  5
48F
 10
13202.30954
 20
3403.942594
 30
0.0
 42
0.065729
  0
VERTEX
  8
1
  6
CONTINUOUS
 62
   140
  5
490
 10
13202.307261
 20
3403.947703
 30
0.0
 42
0.057443
  0
VERTEX
  8
1
  6
CONTINUOUS
 62
   140
  5
491
 10
13202.30356
 20
3403.952411
 30
0.0
 42
0.049287
  0
VERTEX
  8
1
  6
CONTINUOUS
 62
   140
  5
492
 10
13202.298579
 20
3403.956538
 30
0.0
 42
0.042701
  0
VERTEX
  8
1
  6
CONTINUOUS
 62
   140
  5
493
 10
13202.29251
 20
3403.959925
 30
0.0
 42
0.037998
  0
VERTEX
  8
1
  6
CONTINUOUS
 62
   140
  5
494
 10
13202.285586
 20
3403.962441
 30
0.0
 42
0.03504
  0
VERTEX
  8
1
  6
CONTINUOUS
 62
   140
  5
495
 10
13202.278073
 20
3403.963991
 30
0.0
 42
0.033623
  0
VERTEX
  8
1
  6
CONTINUOUS
 62
   140
  5
496
 10
13202.27026
 20
3403.964514
 30
0.0
 42
0.033623
  0
VERTEX
  8
1
  6
CONTINUOUS
 62
   140
  5
497
 10
13202.262446
 20
3403.963991
 30
0.0
 42
0.03504
  0
VERTEX
  8
1
  6
CONTINUOUS
 62
   140
  5
498
 10
13202.254933
 20
3403.962441
 30
0.0
 42
0.037998
  0
VERTEX
  8
1
  6
CONTINUOUS
 62
   140
  5
499
 10
13202.248009
 20
3403.959925
 30
0.0
 42
0.042701
  0
VERTEX
  8
1
  6
CONTINUOUS
 62
   140
  5
49A
 10
13202.24194
 20
3403.956538
 30
0.0
 42
0.049287
  0
VERTEX
  8
1
  6
CONTINUOUS
 62
   140
  5
49B
 10
13202.23696
 20
3403.952411
 30
0.0
 42
0.057443
  0
VERTEX
  8
1
  6
CONTINUOUS
 62
   140
  5
49C
 10
13202.233259
 20
3403.947703
 30
0.0
 42
0.065729
  0
VERTEX
  8
1
  6
CONTINUOUS
 62
   140
  5
49D
 10
13202.230979
 20
3403.942594
 30
0.0
 42
0.071267
  0
VERTEX
  8
1
  6
CONTINUOUS
 62
   140
  5
49E
 10
13202.23021
 20
3403.937281
 30
0.0
 42
0.071267
  0
SEQEND
  8
1
  6
CONTINUOUS
 62
   140
  5
49F
  0
POLYLINE
  8
1
  6
CONTINUOUS
 62
   140
  5
4A0
 66
     1
 10
0.0
 20
0.0
 30
0.0
210
0.0
220
0.0
230
1.0
  0
VERTEX
  8
1
  6
CONTINUOUS
 62
   140
  5
4A1
 10
13201.836645
 20
3403.765118
 30
0.0
 42
0.105926
  0
VERTEX
  8
1
  6
CONTINUOUS
 62
   140
  5
4A2
 10
13201.835875
 20
3403.768579
 30
0.0
 42
0.082645
  0
VERTEX
  8
1
  6
CONTINUOUS
 62
   140
  5
4A3
 10
13201.833596
 20
3403.771906
 30
0.0
 42
0.058441
  0
VERTEX
  8
1
  6
CONTINUOUS
 62
   140
  5
4A4
 10
13201.829895
 20
3403.774973
 30
0.0
 42
0.042129
  0
VERTEX
  8
1
  6
CONTINUOUS
 62
   140
  5
4A5
 10
13201.824914
 20
3403.77766
 30
0.0
 42
0.032313
  0
VERTEX
  8
1
  6
CONTINUOUS
 62
   140
  5
4A6
 10
13201.818845
 20
3403.779866
 30
0.0
 42
0.026577
  0
VERTEX
  8
1
  6
CONTINUOUS
 62
   140
  5
4A7
 10
13201.811921
 20
3403.781505
 30
0.0
 42
0.023395
  0
VERTEX
  8
1
  6
CONTINUOUS
 62
   140
  5
4A8
 10
13201.804408
 20
3403.782515
 30
0.0
 42
0.021971
  0
VERTEX
  8
1
  6
CONTINUOUS
 62
   140
  5
4A9
 10
13201.796595
 20
3403.782856
 30
0.0
 42
0.021971
  0
VERTEX
  8
1
  6
CONTINUOUS
 62
   140
  5
4AA
 10
13201.788781
 20
3403.782515
 30
0.0
 42
0.023395
  0
VERTEX
  8
1
  6
CONTINUOUS
 62
   140
  5
4AB
 10
13201.781268
 20
3403.781505
 30
0.0
 42
0.026577
  0
VERTEX
  8
1
  6
CONTINUOUS
 62
   140
  5
4AC
 10
13201.774344
 20
3403.779866
 30
0.0
 42
0.032313
  0
VERTEX
  8
1
  6
CONTINUOUS
 62
   140
  5
4AD
 10
13201.768275
 20
3403.77766
 30
0.0
 42
0.042129
  0
VERTEX
  8
1
  6
CONTINUOUS
 62
   140
  5
4AE
 10
13201.763295
 20
3403.774973
 30
0.0
 42
0.058441
  0
VERTEX
  8
1
  6
CONTINUOUS
 62
   140
  5
4AF
 10
13201.759594
 20
3403.771906
 30
0.0
 42
0.082645
  0
VERTEX
  8
1
  6
CONTINUOUS
 62
   140
  5
4B0
 10
13201.757315
 20
3403.768579
 30
0.0
 42
0.105926
  0
VERTEX
  8
1
  6
CONTINUOUS
 62
   140
  5
4B1
 10
13201.756545
 20
3403.765118
 30
0.0
 42
0.105926
  0
SEQEND
  8
1
  6
CONTINUOUS
 62
   140
  5
4B2
  0
POLYLINE
  8
1
  6
CONTINUOUS
 62
   140
  5
4B3
 66
     1
 10
0.0
 20
0.0
 30
0.0
210
0.0
220
0.0
230
1.0
  0
VERTEX
  8
1
  6
CONTINUOUS
 62
   140
  5
4B4
 10
13201.756545
 20
3403.765118
 30
0.0
 42
0.069642
  0
VERTEX
  8
1
  6
CONTINUOUS
 62
   140
  5
4B5
 10
13201.757315
 20
3403.759675
 30
0.0
 42
0.064663
  0
VERTEX
  8
1
  6
CONTINUOUS
 62
   140
  5
4B6
 10
13201.759594
 20
3403.754441
 30
0.0
 42
0.05709
  0
VERTEX
  8
1
  6
CONTINUOUS
 62
   140
  5
4B7
 10
13201.763295
 20
3403.749617
 30
0.0
 42
0.049486
  0
VERTEX
  8
1
  6
CONTINUOUS
 62
   140
  5
4B8
 10
13201.768275
 20
3403.745389
 30
0.0
 42
0.043232
  0
VERTEX
  8
1
  6
CONTINUOUS
 62
   140
  5
4B9
 10
13201.774344
 20
3403.741919
 30
0.0
 42
0.038702
  0
VERTEX
  8
1
  6
CONTINUOUS
 62
   140
  5
4BA
 10
13201.781268
 20
3403.73934
 30
0.0
 42
0.035825
  0
VERTEX
  8
1
  6
CONTINUOUS
 62
   140
  5
4BB
 10
13201.788781
 20
3403.737753
 30
0.0
 42
0.034439
  0
VERTEX
  8
1
  6
CONTINUOUS
 62
   140
  5
4BC
 10
13201.796595
 20
3403.737217
 30
0.0
 42
0.034439
  0
VERTEX
  8
1
  6
CONTINUOUS
 62
   140
  5
4BD
 10
13201.804408
 20
3403.737753
 30
0.0
 42
0.035825
  0
VERTEX
  8
1
  6
CONTINUOUS
 62
   140
  5
4BE
 10
13201.811921
 20
3403.73934
 30
0.0
 42
0.038702
  0
VERTEX
  8
1
  6
CONTINUOUS
 62
   140
  5
4BF
 10
13201.818845
 20
3403.741919
 30
0.0
 42
0.043232
  0
VERTEX
  8
1
  6
CONTINUOUS
 62
   140
  5
4C0
 10
13201.824914
 20
3403.745389
 30
0.0
 42
0.049486
  0
VERTEX
  8
1
  6
CONTINUOUS
 62
   140
  5
4C1
 10
13201.829895
 20
3403.749617
 30
0.0
 42
0.05709
  0
VERTEX
  8
1
  6
CONTINUOUS
 62
   140
  5
4C2
 10
13201.833596
 20
3403.754441
 30
0.0
 42
0.064663
  0
VERTEX
  8
1
  6
CONTINUOUS
 62
   140
  5
4C3
 10
13201.835875
 20
3403.759675
 30
0.0
 42
0.069642
  0
VERTEX
  8
1
  6
CONTINUOUS
 62
   140
  5
4C4
 10
13201.836645
 20
3403.765118
 30
0.0
 42
0.069642
  0
SEQEND
  8
1
  6
CONTINUOUS
 62
   140
  5
4C5
  0
POLYLINE
  8
1
  6
CONTINUOUS
 62
   140
  5
4C6
 66
     1
 10
0.0
 20
0.0
 30
0.0
210
0.0
220
0.0
230
1.0
  0
VERTEX
  8
1
  6
CONTINUOUS
 62
   140
  5
4C7
 10
13202.23021
 20
3403.765118
 30
0.0
 42
0.069642
  0
VERTEX
  8
1
  6
CONTINUOUS
 62
   140
  5
4C8
 10
13202.230979
 20
3403.759675
 30
0.0
 42
0.064663
  0
VERTEX
  8
1
  6
CONTINUOUS
 62
   140
  5
4C9
 10
13202.233259
 20
3403.754441
 30
0.0
 42
0.05709
  0
VERTEX
  8
1
  6
CONTINUOUS
 62
   140
  5
4CA
 10
13202.23696
 20
3403.749617
 30
0.0
 42
0.049486
  0
VERTEX
  8
1
  6
CONTINUOUS
 62
   140
  5
4CB
 10
13202.24194
 20
3403.745389
 30
0.0
 42
0.043232
  0
VERTEX
  8
1
  6
CONTINUOUS
 62
   140
  5
4CC
 10
13202.248009
 20
3403.741919
 30
0.0
 42
0.038702
  0
VERTEX
  8
1
  6
CONTINUOUS
 62
   140
  5
4CD
 10
13202.254933
 20
3403.73934
 30
0.0
 42
0.035825
  0
VERTEX
  8
1
  6
CONTINUOUS
 62
   140
  5
4CE
 10
13202.262446
 20
3403.737753
 30
0.0
 42
0.034439
  0
VERTEX
  8
1
  6
CONTINUOUS
 62
   140
  5
4CF
 10
13202.27026
 20
3403.737217
 30
0.0
 42
0.034439
  0
VERTEX
  8
1
  6
CONTINUOUS
 62
   140
  5
4D0
 10
13202.278073
 20
3403.737753
 30
0.0
 42
0.035825
  0
VERTEX
  8
1
  6
CONTINUOUS
 62
   140
  5
4D1
 10
13202.285586
 20
3403.73934
 30
0.0
 42
0.038702
  0
VERTEX
  8
1
  6
CONTINUOUS
 62
   140
  5
4D2
 10
13202.29251
 20
3403.741919
 30
0.0
 42
0.043232
  0
VERTEX
  8
1
  6
CONTINUOUS
 62
   140
  5
4D3
 10
13202.298579
 20
3403.745389
 30
0.0
 42
0.049486
  0
VERTEX
  8
1
  6
CONTINUOUS
 62
   140
  5
4D4
 10
13202.30356
 20
3403.749617
 30
0.0
 42
0.05709
  0
VERTEX
  8
1
  6
CONTINUOUS
 62
   140
  5
4D5
 10
13202.307261
 20
3403.754441
 30
0.0
 42
0.064663
  0
VERTEX
  8
1
  6
CONTINUOUS
 62
   140
  5
4D6
 10
13202.30954
 20
3403.759675
 30
0.0
 42
0.069642
  0
VERTEX
  8
1
  6
CONTINUOUS
 62
   140
  5
4D7
 10
13202.310309
 20
3403.765118
 30
0.0
 42
0.069642
  0
SEQEND
  8
1
  6
CONTINUOUS
 62
   140
  5
4D8
  0
POLYLINE
  8
1
  6
CONTINUOUS
 62
   140
  5
4D9
 66
     1
 10
0.0
 20
0.0
 30
0.0
210
0.0
220
0.0
230
1.0
  0
VERTEX
  8
1
  6
CONTINUOUS
 62
   140
  5
4DA
 10
13202.310309
 20
3403.765118
 30
0.0
 42
0.105926
  0
VERTEX
  8
1
  6
CONTINUOUS
 62
   140
  5
4DB
 10
13202.30954
 20
3403.768579
 30
0.0
 42
0.082645
  0
VERTEX
  8
1
  6
CONTINUOUS
 62
   140
  5
4DC
 10
13202.307261
 20
3403.771906
 30
0.0
 42
0.058441
  0
VERTEX
  8
1
  6
CONTINUOUS
 62
   140
  5
4DD
 10
13202.30356
 20
3403.774973
 30
0.0
 42
0.042129
  0
VERTEX
  8
1
  6
CONTINUOUS
 62
   140
  5
4DE
 10
13202.298579
 20
3403.77766
 30
0.0
 42
0.032313
  0
VERTEX
  8
1
  6
CONTINUOUS
 62
   140
  5
4DF
 10
13202.29251
 20
3403.779866
 30
0.0
 42
0.026577
  0
VERTEX
  8
1
  6
CONTINUOUS
 62
   140
  5
4E0
 10
13202.285586
 20
3403.781505
 30
0.0
 42
0.023395
  0
VERTEX
  8
1
  6
CONTINUOUS
 62
   140
  5
4E1
 10
13202.278073
 20
3403.782515
 30
0.0
 42
0.021971
  0
VERTEX
  8
1
  6
CONTINUOUS
 62
   140
  5
4E2
 10
13202.27026
 20
3403.782856
 30
0.0
 42
0.021971
  0
VERTEX
  8
1
  6
CONTINUOUS
 62
   140
  5
4E3
 10
13202.262446
 20
3403.782515
 30
0.0
 42
0.023395
  0
VERTEX
  8
1
  6
CONTINUOUS
 62
   140
  5
4E4
 10
13202.254933
 20
3403.781505
 30
0.0
 42
0.026577
  0
VERTEX
  8
1
  6
CONTINUOUS
 62
   140
  5
4E5
 10
13202.248009
 20
3403.779866
 30
0.0
 42
0.032313
  0
VERTEX
  8
1
  6
CONTINUOUS
 62
   140
  5
4E6
 10
13202.24194
 20
3403.77766
 30
0.0
 42
0.042129
  0
VERTEX
  8
1
  6
CONTINUOUS
 62
   140
  5
4E7
 10
13202.23696
 20
3403.774973
 30
0.0
 42
0.058441
  0
VERTEX
  8
1
  6
CONTINUOUS
 62
   140
  5
4E8
 10
13202.233259
 20
3403.771906
 30
0.0
 42
0.082645
  0
VERTEX
  8
1
  6
CONTINUOUS
 62
   140
  5
4E9
 10
13202.230979
 20
3403.768579
 30
0.0
 42
0.105926
  0
VERTEX
  8
1
  6
CONTINUOUS
 62
   140
  5
4EA
 10
13202.23021
 20
3403.765118
 30
0.0
 42
0.105926
  0
SEQEND
  8
1
  6
CONTINUOUS
 62
   140
  5
4EB
  0
POLYLINE
  8
1
  6
CONTINUOUS
 62
   140
  5
4EC
 66
     1
 10
0.0
 20
0.0
 30
0.0
210
0.0
220
0.0
230
1.0
  0
VERTEX
  8
1
  6
CONTINUOUS
 62
   140
  5
4ED
 10
13202.23021
 20
3403.513251
 30
0.0
 42
-0.069642
  0
VERTEX
  8
1
  6
CONTINUOUS
 62
   140
  5
4EE
 10
13202.230979
 20
3403.518694
 30
0.0
 42
-0.064663
  0
VERTEX
  8
1
  6
CONTINUOUS
 62
   140
  5
4EF
 10
13202.233259
 20
3403.523929
 30
0.0
 42
-0.05709
  0
VERTEX
  8
1
  6
CONTINUOUS
 62
   140
  5
4F0
 10
13202.23696
 20
3403.528752
 30
0.0
 42
-0.049486
  0
VERTEX
  8
1
  6
CONTINUOUS
 62
   140
  5
4F1
 10
13202.24194
 20
3403.532981
 30
0.0
 42
-0.043232
  0
VERTEX
  8
1
  6
CONTINUOUS
 62
   140
  5
4F2
 10
13202.248009
 20
3403.53645
 30
0.0
 42
-0.038702
  0
VERTEX
  8
1
  6
CONTINUOUS
 62
   140
  5
4F3
 10
13202.254933
 20
3403.539029
 30
0.0
 42
-0.035825
  0
VERTEX
  8
1
  6
CONTINUOUS
 62
   140
  5
4F4
 10
13202.262446
 20
3403.540617
 30
0.0
 42
-0.034439
  0
VERTEX
  8
1
  6
CONTINUOUS
 62
   140
  5
4F5
 10
13202.27026
 20
3403.541153
 30
0.0
 42
-0.034439
  0
VERTEX
  8
1
  6
CONTINUOUS
 62
   140
  5
4F6
 10
13202.278073
 20
3403.540617
 30
0.0
 42
-0.035825
  0
VERTEX
  8
1
  6
CONTINUOUS
 62
   140
  5
4F7
 10
13202.285586
 20
3403.539029
 30
0.0
 42
-0.038702
  0
VERTEX
  8
1
  6
CONTINUOUS
 62
   140
  5
4F8
 10
13202.29251
 20
3403.53645
 30
0.0
 42
-0.043232
  0
VERTEX
  8
1
  6
CONTINUOUS
 62
   140
  5
4F9
 10
13202.298579
 20
3403.532981
 30
0.0
 42
-0.049486
  0
VERTEX
  8
1
  6
CONTINUOUS
 62
   140
  5
4FA
 10
13202.30356
 20
3403.528752
 30
0.0
 42
-0.05709
  0
VERTEX
  8
1
  6
CONTINUOUS
 62
   140
  5
4FB
 10
13202.307261
 20
3403.523929
 30
0.0
 42
-0.064663
  0
VERTEX
  8
1
  6
CONTINUOUS
 62
   140
  5
4FC
 10
13202.30954
 20
3403.518694
 30
0.0
 42
-0.069642
  0
VERTEX
  8
1
  6
CONTINUOUS
 62
   140
  5
4FD
 10
13202.310309
 20
3403.513251
 30
0.0
 42
-0.069642
  0
SEQEND
  8
1
  6
CONTINUOUS
 62
   140
  5
4FE
  0
POLYLINE
  8
1
  6
CONTINUOUS
 62
   140
  5
4FF
 66
     1
 10
0.0
 20
0.0
 30
0.0
210
0.0
220
0.0
230
1.0
  0
VERTEX
  8
1
  6
CONTINUOUS
 62
   140
  5
500
 10
13202.310309
 20
3403.513251
 30
0.0
 42
-0.105926
  0
VERTEX
  8
1
  6
CONTINUOUS
 62
   140
  5
501
 10
13202.30954
 20
3403.509791
 30
0.0
 42
-0.082645
  0
VERTEX
  8
1
  6
CONTINUOUS
 62
   140
  5
502
 10
13202.307261
 20
3403.506463
 30
0.0
 42
-0.058441
  0
VERTEX
  8
1
  6
CONTINUOUS
 62
   140
  5
503
 10
13202.30356
 20
3403.503397
 30
0.0
 42
-0.042129
  0
VERTEX
  8
1
  6
CONTINUOUS
 62
   140
  5
504
 10
13202.298579
 20
3403.500709
 30
0.0
 42
-0.032313
  0
VERTEX
  8
1
  6
CONTINUOUS
 62
   140
  5
505
 10
13202.29251
 20
3403.498503
 30
0.0
 42
-0.026577
  0
VERTEX
  8
1
  6
CONTINUOUS
 62
   140
  5
506
 10
13202.285586
 20
3403.496864
 30
0.0
 42
-0.023395
  0
VERTEX
  8
1
  6
CONTINUOUS
 62
   140
  5
507
 10
13202.278073
 20
3403.495855
 30
0.0
 42
-0.021971
  0
VERTEX
  8
1
  6
CONTINUOUS
 62
   140
  5
508
 10
13202.27026
 20
3403.495514
 30
0.0
 42
-0.021971
  0
VERTEX
  8
1
  6
CONTINUOUS
 62
   140
  5
509
 10
13202.262446
 20
3403.495855
 30
0.0
 42
-0.023395
  0
VERTEX
  8
1
  6
CONTINUOUS
 62
   140
  5
50A
 10
13202.254933
 20
3403.496864
 30
0.0
 42
-0.026577
  0
VERTEX
  8
1
  6
CONTINUOUS
 62
   140
  5
50B
 10
13202.248009
 20
3403.498503
 30
0.0
 42
-0.032313
  0
VERTEX
  8
1
  6
CONTINUOUS
 62
   140
  5
50C
 10
13202.24194
 20
3403.500709
 30
0.0
 42
-0.042129
  0
VERTEX
  8
1
  6
CONTINUOUS
 62
   140
  5
50D
 10
13202.23696
 20
3403.503397
 30
0.0
 42
-0.058441
  0
VERTEX
  8
1
  6
CONTINUOUS
 62
   140
  5
50E
 10
13202.233259
 20
3403.506463
 30
0.0
 42
-0.082645
  0
VERTEX
  8
1
  6
CONTINUOUS
 62
   140
  5
50F
 10
13202.230979
 20
3403.509791
 30
0.0
 42
-0.105926
  0
VERTEX
  8
1
  6
CONTINUOUS
 62
   140
  5
510
 10
13202.23021
 20
3403.513251
 30
0.0
 42
-0.105926
  0
SEQEND
  8
1
  6
CONTINUOUS
 62
   140
  5
511
  0
POLYLINE
  8
1
  6
CONTINUOUS
 62
   140
  5
512
 66
     1
 10
0.0
 20
0.0
 30
0.0
210
0.0
220
0.0
230
1.0
  0
VERTEX
  8
1
  6
CONTINUOUS
 62
   140
  5
513
 10
13201.836645
 20
3403.513251
 30
0.0
 42
-0.105926
  0
VERTEX
  8
1
  6
CONTINUOUS
 62
   140
  5
514
 10
13201.835875
 20
3403.509791
 30
0.0
 42
-0.082645
  0
VERTEX
  8
1
  6
CONTINUOUS
 62
   140
  5
515
 10
13201.833596
 20
3403.506463
 30
0.0
 42
-0.058441
  0
VERTEX
  8
1
  6
CONTINUOUS
 62
   140
  5
516
 10
13201.829895
 20
3403.503397
 30
0.0
 42
-0.042129
  0
VERTEX
  8
1
  6
CONTINUOUS
 62
   140
  5
517
 10
13201.824914
 20
3403.500709
 30
0.0
 42
-0.032313
  0
VERTEX
  8
1
  6
CONTINUOUS
 62
   140
  5
518
 10
13201.818845
 20
3403.498503
 30
0.0
 42
-0.026577
  0
VERTEX
  8
1
  6
CONTINUOUS
 62
   140
  5
519
 10
13201.811921
 20
3403.496864
 30
0.0
 42
-0.023395
  0
VERTEX
  8
1
  6
CONTINUOUS
 62
   140
  5
51A
 10
13201.804408
 20
3403.495855
 30
0.0
 42
-0.021971
  0
VERTEX
  8
1
  6
CONTINUOUS
 62
   140
  5
51B
 10
13201.796595
 20
3403.495514
 30
0.0
 42
-0.021971
  0
VERTEX
  8
1
  6
CONTINUOUS
 62
   140
  5
51C
 10
13201.788781
 20
3403.495855
 30
0.0
 42
-0.023395
  0
VERTEX
  8
1
  6
CONTINUOUS
 62
   140
  5
51D
 10
13201.781268
 20
3403.496864
 30
0.0
 42
-0.026577
  0
VERTEX
  8
1
  6
CONTINUOUS
 62
   140
  5
51E
 10
13201.774344
 20
3403.498503
 30
0.0
 42
-0.032313
  0
VERTEX
  8
1
  6
CONTINUOUS
 62
   140
  5
51F
 10
13201.768275
 20
3403.500709
 30
0.0
 42
-0.042129
  0
VERTEX
  8
1
  6
CONTINUOUS
 62
   140
  5
520
 10
13201.763295
 20
3403.503397
 30
0.0
 42
-0.058441
  0
VERTEX
  8
1
  6
CONTINUOUS
 62
   140
  5
521
 10
13201.759594
 20
3403.506463
 30
0.0
 42
-0.082645
  0
VERTEX
  8
1
  6
CONTINUOUS
 62
   140
  5
522
 10
13201.757315
 20
3403.509791
 30
0.0
 42
-0.105926
  0
VERTEX
  8
1
  6
CONTINUOUS
 62
   140
  5
523
 10
13201.756545
 20
3403.513251
 30
0.0
 42
-0.105926
  0
SEQEND
  8
1
  6
CONTINUOUS
 62
   140
  5
524
  0
POLYLINE
  8
1
  6
CONTINUOUS
 62
   140
  5
525
 66
     1
 10
0.0
 20
0.0
 30
0.0
210
0.0
220
0.0
230
1.0
  0
VERTEX
  8
1
  6
CONTINUOUS
 62
   140
  5
526
 10
13201.756545
 20
3403.513251
 30
0.0
 42
-0.069642
  0
VERTEX
  8
1
  6
CONTINUOUS
 62
   140
  5
527
 10
13201.757315
 20
3403.518694
 30
0.0
 42
-0.064663
  0
VERTEX
  8
1
  6
CONTINUOUS
 62
   140
  5
528
 10
13201.759594
 20
3403.523929
 30
0.0
 42
-0.05709
  0
VERTEX
  8
1
  6
CONTINUOUS
 62
   140
  5
529
 10
13201.763295
 20
3403.528752
 30
0.0
 42
-0.049486
  0
VERTEX
  8
1
  6
CONTINUOUS
 62
   140
  5
52A
 10
13201.768275
 20
3403.532981
 30
0.0
 42
-0.043232
  0
VERTEX
  8
1
  6
CONTINUOUS
 62
   140
  5
52B
 10
13201.774344
 20
3403.53645
 30
0.0
 42
-0.038702
  0
VERTEX
  8
1
  6
CONTINUOUS
 62
   140
  5
52C
 10
13201.781268
 20
3403.539029
 30
0.0
 42
-0.035825
  0
VERTEX
  8
1
  6
CONTINUOUS
 62
   140
  5
52D
 10
13201.788781
 20
3403.540617
 30
0.0
 42
-0.034439
  0
VERTEX
  8
1
  6
CONTINUOUS
 62
   140
  5
52E
 10
13201.796595
 20
3403.541153
 30
0.0
 42
-0.034439
  0
VERTEX
  8
1
  6
CONTINUOUS
 62
   140
  5
52F
 10
13201.804408
 20
3403.540617
 30
0.0
 42
-0.035825
  0
VERTEX
  8
1
  6
CONTINUOUS
 62
   140
  5
530
 10
13201.811921
 20
3403.539029
 30
0.0
 42
-0.038702
  0
VERTEX
  8
1
  6
CONTINUOUS
 62
   140
  5
531
 10
13201.818845
 20
3403.53645
 30
0.0
 42
-0.043232
  0
VERTEX
  8
1
  6
CONTINUOUS
 62
   140
  5
532
 10
13201.824914
 20
3403.532981
 30
0.0
 42
-0.049486
  0
VERTEX
  8
1
  6
CONTINUOUS
 62
   140
  5
533
 10
13201.829895
 20
3403.528752
 30
0.0
 42
-0.05709
  0
VERTEX
  8
1
  6
CONTINUOUS
 62
   140
  5
534
 10
13201.833596
 20
3403.523929
 30
0.0
 42
-0.064663
  0
VERTEX
  8
1
  6
CONTINUOUS
 62
   140
  5
535
 10
13201.835875
 20
3403.518694
 30
0.0
 42
-0.069642
  0
VERTEX
  8
1
  6
CONTINUOUS
 62
   140
  5
536
 10
13201.836645
 20
3403.513251
 30
0.0
 42
-0.069642
  0
SEQEND
  8
1
  6
CONTINUOUS
 62
   140
  5
537
  0
POLYLINE
  8
1
  6
CONTINUOUS
 62
   140
  5
538
 66
     1
 10
0.0
 20
0.0
 30
0.0
210
0.0
220
0.0
230
1.0
  0
VERTEX
  8
1
  6
CONTINUOUS
 62
   140
  5
539
 10
13201.836645
 20
3403.341088
 30
0.0
 42
-0.071267
  0
VERTEX
  8
1
  6
CONTINUOUS
 62
   140
  5
53A
 10
13201.835875
 20
3403.335775
 30
0.0
 42
-0.065729
  0
VERTEX
  8
1
  6
CONTINUOUS
 62
   140
  5
53B
 10
13201.833596
 20
3403.330666
 30
0.0
 42
-0.057443
  0
VERTEX
  8
1
  6
CONTINUOUS
 62
   140
  5
53C
 10
13201.829895
 20
3403.325958
 30
0.0
 42
-0.049287
  0
VERTEX
  8
1
  6
CONTINUOUS
 62
   140
  5
53D
 10
13201.824914
 20
3403.321831
 30
0.0
 42
-0.042701
  0
VERTEX
  8
1
  6
CONTINUOUS
 62
   140
  5
53E
 10
13201.818845
 20
3403.318444
 30
0.0
 42
-0.037998
  0
VERTEX
  8
1
  6
CONTINUOUS
 62
   140
  5
53F
 10
13201.811921
 20
3403.315928
 30
0.0
 42
-0.03504
  0
VERTEX
  8
1
  6
CONTINUOUS
 62
   140
  5
540
 10
13201.804408
 20
3403.314378
 30
0.0
 42
-0.033623
  0
VERTEX
  8
1
  6
CONTINUOUS
 62
   140
  5
541
 10
13201.796595
 20
3403.313855
 30
0.0
 42
-0.033623
  0
VERTEX
  8
1
  6
CONTINUOUS
 62
   140
  5
542
 10
13201.788781
 20
3403.314378
 30
0.0
 42
-0.03504
  0
VERTEX
  8
1
  6
CONTINUOUS
 62
   140
  5
543
 10
13201.781268
 20
3403.315928
 30
0.0
 42
-0.037998
  0
VERTEX
  8
1
  6
CONTINUOUS
 62
   140
  5
544
 10
13201.774344
 20
3403.318444
 30
0.0
 42
-0.042701
  0
VERTEX
  8
1
  6
CONTINUOUS
 62
   140
  5
545
 10
13201.768275
 20
3403.321831
 30
0.0
 42
-0.049287
  0
VERTEX
  8
1
  6
CONTINUOUS
 62
   140
  5
546
 10
13201.763295
 20
3403.325958
 30
0.0
 42
-0.057443
  0
VERTEX
  8
1
  6
CONTINUOUS
 62
   140
  5
547
 10
13201.759594
 20
3403.330666
 30
0.0
 42
-0.065729
  0
VERTEX
  8
1
  6
CONTINUOUS
 62
   140
  5
548
 10
13201.757315
 20
3403.335775
 30
0.0
 42
-0.071267
  0
VERTEX
  8
1
  6
CONTINUOUS
 62
   140
  5
549
 10
13201.756545
 20
3403.341088
 30
0.0
 42
-0.071267
  0
SEQEND
  8
1
  6
CONTINUOUS
 62
   140
  5
54A
  0
POLYLINE
  8
1
  6
CONTINUOUS
 62
   140
  5
54B
 66
     1
 10
0.0
 20
0.0
 30
0.0
210
0.0
220
0.0
230
1.0
  0
VERTEX
  8
1
  6
CONTINUOUS
 62
   140
  5
54C
 10
13201.756545
 20
3403.341088
 30
0.0
 42
-0.107797
  0
VERTEX
  8
1
  6
CONTINUOUS
 62
   140
  5
54D
 10
13201.757315
 20
3403.344481
 30
0.0
 42
-0.083254
  0
VERTEX
  8
1
  6
CONTINUOUS
 62
   140
  5
54E
 10
13201.759594
 20
3403.347743
 30
0.0
 42
-0.058242
  0
VERTEX
  8
1
  6
CONTINUOUS
 62
   140
  5
54F
 10
13201.763295
 20
3403.35075
 30
0.0
 42
-0.041681
  0
VERTEX
  8
1
  6
CONTINUOUS
 62
   140
  5
550
 10
13201.768275
 20
3403.353386
 30
0.0
 42
-0.03183
  0
VERTEX
  8
1
  6
CONTINUOUS
 62
   140
  5
551
 10
13201.774344
 20
3403.355549
 30
0.0
 42
-0.026114
  0
VERTEX
  8
1
  6
CONTINUOUS
 62
   140
  5
552
 10
13201.781268
 20
3403.357156
 30
0.0
 42
-0.022956
  0
VERTEX
  8
1
  6
CONTINUOUS
 62
   140
  5
553
 10
13201.788781
 20
3403.358145
 30
0.0
 42
-0.021545
  0
VERTEX
  8
1
  6
CONTINUOUS
 62
   140
  5
554
 10
13201.796595
 20
3403.35848
 30
0.0
 42
-0.021545
  0
VERTEX
  8
1
  6
CONTINUOUS
 62
   140
  5
555
 10
13201.804408
 20
3403.358145
 30
0.0
 42
-0.022956
  0
VERTEX
  8
1
  6
CONTINUOUS
 62
   140
  5
556
 10
13201.811921
 20
3403.357156
 30
0.0
 42
-0.026114
  0
VERTEX
  8
1
  6
CONTINUOUS
 62
   140
  5
557
 10
13201.818845
 20
3403.355549
 30
0.0
 42
-0.03183
  0
VERTEX
  8
1
  6
CONTINUOUS
 62
   140
  5
558
 10
13201.824914
 20
3403.353386
 30
0.0
 42
-0.041681
  0
VERTEX
  8
1
  6
CONTINUOUS
 62
   140
  5
559
 10
13201.829895
 20
3403.35075
 30
0.0
 42
-0.058242
  0
VERTEX
  8
1
  6
CONTINUOUS
 62
   140
  5
55A
 10
13201.833596
 20
3403.347743
 30
0.0
 42
-0.083254
  0
VERTEX
  8
1
  6
CONTINUOUS
 62
   140
  5
55B
 10
13201.835875
 20
3403.344481
 30
0.0
 42
-0.107797
  0
VERTEX
  8
1
  6
CONTINUOUS
 62
   140
  5
55C
 10
13201.836645
 20
3403.341088
 30
0.0
 42
-0.107797
  0
SEQEND
  8
1
  6
CONTINUOUS
 62
   140
  5
55D
  0
POLYLINE
  8
1
  6
CONTINUOUS
 62
   140
  5
55E
 66
     1
 10
0.0
 20
0.0
 30
0.0
210
0.0
220
0.0
230
1.0
  0
VERTEX
  8
1
  6
CONTINUOUS
 62
   140
  5
55F
 10
13202.23021
 20
3403.341088
 30
0.0
 42
-0.107797
  0
VERTEX
  8
1
  6
CONTINUOUS
 62
   140
  5
560
 10
13202.230979
 20
3403.344481
 30
0.0
 42
-0.083254
  0
VERTEX
  8
1
  6
CONTINUOUS
 62
   140
  5
561
 10
13202.233259
 20
3403.347743
 30
0.0
 42
-0.058242
  0
VERTEX
  8
1
  6
CONTINUOUS
 62
   140
  5
562
 10
13202.23696
 20
3403.35075
 30
0.0
 42
-0.041681
  0
VERTEX
  8
1
  6
CONTINUOUS
 62
   140
  5
563
 10
13202.24194
 20
3403.353386
 30
0.0
 42
-0.03183
  0
VERTEX
  8
1
  6
CONTINUOUS
 62
   140
  5
564
 10
13202.248009
 20
3403.355549
 30
0.0
 42
-0.026114
  0
VERTEX
  8
1
  6
CONTINUOUS
 62
   140
  5
565
 10
13202.254933
 20
3403.357156
 30
0.0
 42
-0.022956
  0
VERTEX
  8
1
  6
CONTINUOUS
 62
   140
  5
566
 10
13202.262446
 20
3403.358145
 30
0.0
 42
-0.021545
  0
VERTEX
  8
1
  6
CONTINUOUS
 62
   140
  5
567
 10
13202.27026
 20
3403.35848
 30
0.0
 42
-0.021545
  0
VERTEX
  8
1
  6
CONTINUOUS
 62
   140
  5
568
 10
13202.278073
 20
3403.358145
 30
0.0
 42
-0.022956
  0
VERTEX
  8
1
  6
CONTINUOUS
 62
   140
  5
569
 10
13202.285586
 20
3403.357156
 30
0.0
 42
-0.026114
  0
VERTEX
  8
1
  6
CONTINUOUS
 62
   140
  5
56A
 10
13202.29251
 20
3403.355549
 30
0.0
 42
-0.03183
  0
VERTEX
  8
1
  6
CONTINUOUS
 62
   140
  5
56B
 10
13202.298579
 20
3403.353386
 30
0.0
 42
-0.041681
  0
VERTEX
  8
1
  6
CONTINUOUS
 62
   140
  5
56C
 10
13202.30356
 20
3403.35075
 30
0.0
 42
-0.058242
  0
VERTEX
  8
1
  6
CONTINUOUS
 62
   140
  5
56D
 10
13202.307261
 20
3403.347743
 30
0.0
 42
-0.083254
  0
VERTEX
  8
1
  6
CONTINUOUS
 62
   140
  5
56E
 10
13202.30954
 20
3403.344481
 30
0.0
 42
-0.107797
  0
VERTEX
  8
1
  6
CONTINUOUS
 62
   140
  5
56F
 10
13202.310309
 20
3403.341088
 30
0.0
 42
-0.107797
  0
SEQEND
  8
1
  6
CONTINUOUS
 62
   140
  5
570
  0
POLYLINE
  8
1
  6
CONTINUOUS
 62
   140
  5
571
 66
     1
 10
0.0
 20
0.0
 30
0.0
210
0.0
220
0.0
230
1.0
  0
VERTEX
  8
1
  6
CONTINUOUS
 62
   140
  5
572
 10
13202.310309
 20
3403.341088
 30
0.0
 42
-0.071267
  0
VERTEX
  8
1
  6
CONTINUOUS
 62
   140
  5
573
 10
13202.30954
 20
3403.335775
 30
0.0
 42
-0.065729
  0
VERTEX
  8
1
  6
CONTINUOUS
 62
   140
  5
574
 10
13202.307261
 20
3403.330666
 30
0.0
 42
-0.057443
  0
VERTEX
  8
1
  6
CONTINUOUS
 62
   140
  5
575
 10
13202.30356
 20
3403.325958
 30
0.0
 42
-0.049287
  0
VERTEX
  8
1
  6
CONTINUOUS
 62
   140
  5
576
 10
13202.298579
 20
3403.321831
 30
0.0
 42
-0.042701
  0
VERTEX
  8
1
  6
CONTINUOUS
 62
   140
  5
577
 10
13202.29251
 20
3403.318444
 30
0.0
 42
-0.037998
  0
VERTEX
  8
1
  6
CONTINUOUS
 62
   140
  5
578
 10
13202.285586
 20
3403.315928
 30
0.0
 42
-0.03504
  0
VERTEX
  8
1
  6
CONTINUOUS
 62
   140
  5
579
 10
13202.278073
 20
3403.314378
 30
0.0
 42
-0.033623
  0
VERTEX
  8
1
  6
CONTINUOUS
 62
   140
  5
57A
 10
13202.27026
 20
3403.313855
 30
0.0
 42
-0.033623
  0
VERTEX
  8
1
  6
CONTINUOUS
 62
   140
  5
57B
 10
13202.262446
 20
3403.314378
 30
0.0
 42
-0.03504
  0
VERTEX
  8
1
  6
CONTINUOUS
 62
   140
  5
57C
 10
13202.254933
 20
3403.315928
 30
0.0
 42
-0.037998
  0
VERTEX
  8
1
  6
CONTINUOUS
 62
   140
  5
57D
 10
13202.248009
 20
3403.318444
 30
0.0
 42
-0.042701
  0
VERTEX
  8
1
  6
CONTINUOUS
 62
   140
  5
57E
 10
13202.24194
 20
3403.321831
 30
0.0
 42
-0.049287
  0
VERTEX
  8
1
  6
CONTINUOUS
 62
   140
  5
57F
 10
13202.23696
 20
3403.325958
 30
0.0
 42
-0.057443
  0
VERTEX
  8
1
  6
CONTINUOUS
 62
   140
  5
580
 10
13202.233259
 20
3403.330666
 30
0.0
 42
-0.065729
  0
VERTEX
  8
1
  6
CONTINUOUS
 62
   140
  5
581
 10
13202.230979
 20
3403.335775
 30
0.0
 42
-0.071267
  0
VERTEX
  8
1
  6
CONTINUOUS
 62
   140
  5
582
 10
13202.23021
 20
3403.341088
 30
0.0
 42
-0.071267
  0
SEQEND
  8
1
  6
CONTINUOUS
 62
   140
  5
583
  0
LINE
  8
1
  6
CONTINUOUS
 62
   140
  5
584
 10
13210.114417
 20
3403.300583
 30
0.0
 11
13210.114417
 21
3403.985583
 31
0.0
  0
CIRCLE
  8
1
  6
CONTINUOUS
 62
   140
  5
585
 10
13210.477634
 20
3403.636486
 30
0.0
 40
0.040071
210
0.0
220
0.0
230
1.0
  0
LINE
  8
1
  6
HIDDEN
 62
   140
  5
586
 10
13210.8455
 20
3403.299917
 30
0.0
 11
13210.8455
 21
3403.986167
 31
0.0
  0
POLYLINE
  8
1
  6
CONTINUOUS
 62
   140
  5
587
 66
     1
 10
0.0
 20
0.0
 30
0.0
210
0.0
220
0.0
230
1.0
  0
VERTEX
  8
1
  6
CONTINUOUS
 62
   140
  5
588
 10
13210.659245
 20
3403.937281
 30
0.0
 42
0.107797
  0
VERTEX
  8
1
  6
CONTINUOUS
 62
   140
  5
589
 10
13210.660014
 20
3403.933889
 30
0.0
 42
0.083254
  0
VERTEX
  8
1
  6
CONTINUOUS
 62
   140
  5
58A
 10
13210.662293
 20
3403.930626
 30
0.0
 42
0.058242
  0
VERTEX
  8
1
  6
CONTINUOUS
 62
   140
  5
58B
 10
13210.665994
 20
3403.927619
 30
0.0
 42
0.041681
  0
VERTEX
  8
1
  6
CONTINUOUS
 62
   140
  5
58C
 10
13210.670975
 20
3403.924984
 30
0.0
 42
0.03183
  0
VERTEX
  8
1
  6
CONTINUOUS
 62
   140
  5
58D
 10
13210.677044
 20
3403.922821
 30
0.0
 42
0.026114
  0
VERTEX
  8
1
  6
CONTINUOUS
 62
   140
  5
58E
 10
13210.683968
 20
3403.921214
 30
0.0
 42
0.022956
  0
VERTEX
  8
1
  6
CONTINUOUS
 62
   140
  5
58F
 10
13210.691481
 20
3403.920224
 30
0.0
 42
0.021545
  0
VERTEX
  8
1
  6
CONTINUOUS
 62
   140
  5
590
 10
13210.699294
 20
3403.91989
 30
0.0
 42
0.021545
  0
VERTEX
  8
1
  6
CONTINUOUS
 62
   140
  5
591
 10
13210.707108
 20
3403.920224
 30
0.0
 42
0.022956
  0
VERTEX
  8
1
  6
CONTINUOUS
 62
   140
  5
592
 10
13210.714621
 20
3403.921214
 30
0.0
 42
0.026114
  0
VERTEX
  8
1
  6
CONTINUOUS
 62
   140
  5
593
 10
13210.721545
 20
3403.922821
 30
0.0
 42
0.03183
  0
VERTEX
  8
1
  6
CONTINUOUS
 62
   140
  5
594
 10
13210.727614
 20
3403.924984
 30
0.0
 42
0.041681
  0
VERTEX
  8
1
  6
CONTINUOUS
 62
   140
  5
595
 10
13210.732595
 20
3403.927619
 30
0.0
 42
0.058242
  0
VERTEX
  8
1
  6
CONTINUOUS
 62
   140
  5
596
 10
13210.736296
 20
3403.930626
 30
0.0
 42
0.083254
  0
VERTEX
  8
1
  6
CONTINUOUS
 62
   140
  5
597
 10
13210.738575
 20
3403.933889
 30
0.0
 42
0.107797
  0
VERTEX
  8
1
  6
CONTINUOUS
 62
   140
  5
598
 10
13210.739344
 20
3403.937281
 30
0.0
 42
0.107797
  0
SEQEND
  8
1
  6
CONTINUOUS
 62
   140
  5
599
  0
POLYLINE
  8
1
  6
CONTINUOUS
 62
   140
  5
59A
 66
     1
 10
0.0
 20
0.0
 30
0.0
210
0.0
220
0.0
230
1.0
  0
VERTEX
  8
1
  6
CONTINUOUS
 62
   140
  5
59B
 10
13210.265679
 20
3403.937281
 30
0.0
 42
0.071267
  0
VERTEX
  8
1
  6
CONTINUOUS
 62
   140
  5
59C
 10
13210.26491
 20
3403.942594
 30
0.0
 42
0.065729
  0
VERTEX
  8
1
  6
CONTINUOUS
 62
   140
  5
59D
 10
13210.262631
 20
3403.947703
 30
0.0
 42
0.057443
  0
VERTEX
  8
1
  6
CONTINUOUS
 62
   140
  5
59E
 10
13210.25893
 20
3403.952411
 30
0.0
 42
0.049287
  0
VERTEX
  8
1
  6
CONTINUOUS
 62
   140
  5
59F
 10
13210.253949
 20
3403.956538
 30
0.0
 42
0.042701
  0
VERTEX
  8
1
  6
CONTINUOUS
 62
   140
  5
5A0
 10
13210.24788
 20
3403.959925
 30
0.0
 42
0.037998
  0
VERTEX
  8
1
  6
CONTINUOUS
 62
   140
  5
5A1
 10
13210.240956
 20
3403.962441
 30
0.0
 42
0.03504
  0
VERTEX
  8
1
  6
CONTINUOUS
 62
   140
  5
5A2
 10
13210.233443
 20
3403.963991
 30
0.0
 42
0.033623
  0
VERTEX
  8
1
  6
CONTINUOUS
 62
   140
  5
5A3
 10
13210.225629
 20
3403.964514
 30
0.0
 42
0.033623
  0
VERTEX
  8
1
  6
CONTINUOUS
 62
   140
  5
5A4
 10
13210.217816
 20
3403.963991
 30
0.0
 42
0.03504
  0
VERTEX
  8
1
  6
CONTINUOUS
 62
   140
  5
5A5
 10
13210.210303
 20
3403.962441
 30
0.0
 42
0.037998
  0
VERTEX
  8
1
  6
CONTINUOUS
 62
   140
  5
5A6
 10
13210.203379
 20
3403.959925
 30
0.0
 42
0.042701
  0
VERTEX
  8
1
  6
CONTINUOUS
 62
   140
  5
5A7
 10
13210.19731
 20
3403.956538
 30
0.0
 42
0.049287
  0
VERTEX
  8
1
  6
CONTINUOUS
 62
   140
  5
5A8
 10
13210.192329
 20
3403.952411
 30
0.0
 42
0.057443
  0
VERTEX
  8
1
  6
CONTINUOUS
 62
   140
  5
5A9
 10
13210.188628
 20
3403.947703
 30
0.0
 42
0.065729
  0
VERTEX
  8
1
  6
CONTINUOUS
 62
   140
  5
5AA
 10
13210.186349
 20
3403.942594
 30
0.0
 42
0.071267
  0
VERTEX
  8
1
  6
CONTINUOUS
 62
   140
  5
5AB
 10
13210.18558
 20
3403.937281
 30
0.0
 42
0.071267
  0
SEQEND
  8
1
  6
CONTINUOUS
 62
   140
  5
5AC
  0
POLYLINE
  8
1
  6
CONTINUOUS
 62
   140
  5
5AD
 66
     1
 10
0.0
 20
0.0
 30
0.0
210
0.0
220
0.0
230
1.0
  0
VERTEX
  8
1
  6
CONTINUOUS
 62
   140
  5
5AE
 10
13210.18558
 20
3403.937281
 30
0.0
 42
0.107797
  0
VERTEX
  8
1
  6
CONTINUOUS
 62
   140
  5
5AF
 10
13210.186349
 20
3403.933889
 30
0.0
 42
0.083254
  0
VERTEX
  8
1
  6
CONTINUOUS
 62
   140
  5
5B0
 10
13210.188628
 20
3403.930626
 30
0.0
 42
0.058242
  0
VERTEX
  8
1
  6
CONTINUOUS
 62
   140
  5
5B1
 10
13210.192329
 20
3403.927619
 30
0.0
 42
0.041681
  0
VERTEX
  8
1
  6
CONTINUOUS
 62
   140
  5
5B2
 10
13210.19731
 20
3403.924984
 30
0.0
 42
0.03183
  0
VERTEX
  8
1
  6
CONTINUOUS
 62
   140
  5
5B3
 10
13210.203379
 20
3403.922821
 30
0.0
 42
0.026114
  0
VERTEX
  8
1
  6
CONTINUOUS
 62
   140
  5
5B4
 10
13210.210303
 20
3403.921214
 30
0.0
 42
0.022956
  0
VERTEX
  8
1
  6
CONTINUOUS
 62
   140
  5
5B5
 10
13210.217816
 20
3403.920224
 30
0.0
 42
0.021545
  0
VERTEX
  8
1
  6
CONTINUOUS
 62
   140
  5
5B6
 10
13210.225629
 20
3403.91989
 30
0.0
 42
0.021545
  0
VERTEX
  8
1
  6
CONTINUOUS
 62
   140
  5
5B7
 10
13210.233443
 20
3403.920224
 30
0.0
 42
0.022956
  0
VERTEX
  8
1
  6
CONTINUOUS
 62
   140
  5
5B8
 10
13210.240956
 20
3403.921214
 30
0.0
 42
0.026114
  0
VERTEX
  8
1
  6
CONTINUOUS
 62
   140
  5
5B9
 10
13210.24788
 20
3403.922821
 30
0.0
 42
0.03183
  0
VERTEX
  8
1
  6
CONTINUOUS
 62
   140
  5
5BA
 10
13210.253949
 20
3403.924984
 30
0.0
 42
0.041681
  0
VERTEX
  8
1
  6
CONTINUOUS
 62
   140
  5
5BB
 10
13210.25893
 20
3403.927619
 30
0.0
 42
0.058242
  0
VERTEX
  8
1
  6
CONTINUOUS
 62
   140
  5
5BC
 10
13210.262631
 20
3403.930626
 30
0.0
 42
0.083254
  0
VERTEX
  8
1
  6
CONTINUOUS
 62
   140
  5
5BD
 10
13210.26491
 20
3403.933889
 30
0.0
 42
0.107797
  0
VERTEX
  8
1
  6
CONTINUOUS
 62
   140
  5
5BE
 10
13210.265679
 20
3403.937281
 30
0.0
 42
0.107797
  0
SEQEND
  8
1
  6
CONTINUOUS
 62
   140
  5
5BF
  0
POLYLINE
  8
1
  6
CONTINUOUS
 62
   140
  5
5C0
 66
     1
 10
0.0
 20
0.0
 30
0.0
210
0.0
220
0.0
230
1.0
  0
VERTEX
  8
1
  6
CONTINUOUS
 62
   140
  5
5C1
 10
13210.739344
 20
3403.937281
 30
0.0
 42
0.071267
  0
VERTEX
  8
1
  6
CONTINUOUS
 62
   140
  5
5C2
 10
13210.738575
 20
3403.942594
 30
0.0
 42
0.065729
  0
VERTEX
  8
1
  6
CONTINUOUS
 62
   140
  5
5C3
 10
13210.736296
 20
3403.947703
 30
0.0
 42
0.057443
  0
VERTEX
  8
1
  6
CONTINUOUS
 62
   140
  5
5C4
 10
13210.732595
 20
3403.952411
 30
0.0
 42
0.049287
  0
VERTEX
  8
1
  6
CONTINUOUS
 62
   140
  5
5C5
 10
13210.727614
 20
3403.956538
 30
0.0
 42
0.042701
  0
VERTEX
  8
1
  6
CONTINUOUS
 62
   140
  5
5C6
 10
13210.721545
 20
3403.959925
 30
0.0
 42
0.037998
  0
VERTEX
  8
1
  6
CONTINUOUS
 62
   140
  5
5C7
 10
13210.714621
 20
3403.962441
 30
0.0
 42
0.03504
  0
VERTEX
  8
1
  6
CONTINUOUS
 62
   140
  5
5C8
 10
13210.707108
 20
3403.963991
 30
0.0
 42
0.033623
  0
VERTEX
  8
1
  6
CONTINUOUS
 62
   140
  5
5C9
 10
13210.699294
 20
3403.964514
 30
0.0
 42
0.033623
  0
VERTEX
  8
1
  6
CONTINUOUS
 62
   140
  5
5CA
 10
13210.691481
 20
3403.963991
 30
0.0
 42
0.03504
  0
VERTEX
  8
1
  6
CONTINUOUS
 62
   140
  5
5CB
 10
13210.683968
 20
3403.962441
 30
0.0
 42
0.037998
  0
VERTEX
  8
1
  6
CONTINUOUS
 62
   140
  5
5CC
 10
13210.677044
 20
3403.959925
 30
0.0
 42
0.042701
  0
VERTEX
  8
1
  6
CONTINUOUS
 62
   140
  5
5CD
 10
13210.670975
 20
3403.956538
 30
0.0
 42
0.049287
  0
VERTEX
  8
1
  6
CONTINUOUS
 62
   140
  5
5CE
 10
13210.665994
 20
3403.952411
 30
0.0
 42
0.057443
  0
VERTEX
  8
1
  6
CONTINUOUS
 62
   140
  5
5CF
 10
13210.662293
 20
3403.947703
 30
0.0
 42
0.065729
  0
VERTEX
  8
1
  6
CONTINUOUS
 62
   140
  5
5D0
 10
13210.660014
 20
3403.942594
 30
0.0
 42
0.071267
  0
VERTEX
  8
1
  6
CONTINUOUS
 62
   140
  5
5D1
 10
13210.659245
 20
3403.937281
 30
0.0
 42
0.071267
  0
SEQEND
  8
1
  6
CONTINUOUS
 62
   140
  5
5D2
  0
POLYLINE
  8
1
  6
CONTINUOUS
 62
   140
  5
5D3
 66
     1
 10
0.0
 20
0.0
 30
0.0
210
0.0
220
0.0
230
1.0
  0
VERTEX
  8
1
  6
CONTINUOUS
 62
   140
  5
5D4
 10
13210.265679
 20
3403.765118
 30
0.0
 42
0.105926
  0
VERTEX
  8
1
  6
CONTINUOUS
 62
   140
  5
5D5
 10
13210.26491
 20
3403.768579
 30
0.0
 42
0.082645
  0
VERTEX
  8
1
  6
CONTINUOUS
 62
   140
  5
5D6
 10
13210.262631
 20
3403.771906
 30
0.0
 42
0.058441
  0
VERTEX
  8
1
  6
CONTINUOUS
 62
   140
  5
5D7
 10
13210.25893
 20
3403.774973
 30
0.0
 42
0.042129
  0
VERTEX
  8
1
  6
CONTINUOUS
 62
   140
  5
5D8
 10
13210.253949
 20
3403.77766
 30
0.0
 42
0.032313
  0
VERTEX
  8
1
  6
CONTINUOUS
 62
   140
  5
5D9
 10
13210.24788
 20
3403.779866
 30
0.0
 42
0.026577
  0
VERTEX
  8
1
  6
CONTINUOUS
 62
   140
  5
5DA
 10
13210.240956
 20
3403.781505
 30
0.0
 42
0.023395
  0
VERTEX
  8
1
  6
CONTINUOUS
 62
   140
  5
5DB
 10
13210.233443
 20
3403.782515
 30
0.0
 42
0.021971
  0
VERTEX
  8
1
  6
CONTINUOUS
 62
   140
  5
5DC
 10
13210.225629
 20
3403.782856
 30
0.0
 42
0.021971
  0
VERTEX
  8
1
  6
CONTINUOUS
 62
   140
  5
5DD
 10
13210.217816
 20
3403.782515
 30
0.0
 42
0.023395
  0
VERTEX
  8
1
  6
CONTINUOUS
 62
   140
  5
5DE
 10
13210.210303
 20
3403.781505
 30
0.0
 42
0.026577
  0
VERTEX
  8
1
  6
CONTINUOUS
 62
   140
  5
5DF
 10
13210.203379
 20
3403.779866
 30
0.0
 42
0.032313
  0
VERTEX
  8
1
  6
CONTINUOUS
 62
   140
  5
5E0
 10
13210.19731
 20
3403.77766
 30
0.0
 42
0.042129
  0
VERTEX
  8
1
  6
CONTINUOUS
 62
   140
  5
5E1
 10
13210.192329
 20
3403.774973
 30
0.0
 42
0.058441
  0
VERTEX
  8
1
  6
CONTINUOUS
 62
   140
  5
5E2
 10
13210.188628
 20
3403.771906
 30
0.0
 42
0.082645
  0
VERTEX
  8
1
  6
CONTINUOUS
 62
   140
  5
5E3
 10
13210.186349
 20
3403.768579
 30
0.0
 42
0.105926
  0
VERTEX
  8
1
  6
CONTINUOUS
 62
   140
  5
5E4
 10
13210.18558
 20
3403.765118
 30
0.0
 42
0.105926
  0
SEQEND
  8
1
  6
CONTINUOUS
 62
   140
  5
5E5
  0
POLYLINE
  8
1
  6
CONTINUOUS
 62
   140
  5
5E6
 66
     1
 10
0.0
 20
0.0
 30
0.0
210
0.0
220
0.0
230
1.0
  0
VERTEX
  8
1
  6
CONTINUOUS
 62
   140
  5
5E7
 10
13210.18558
 20
3403.765118
 30
0.0
 42
0.069642
  0
VERTEX
  8
1
  6
CONTINUOUS
 62
   140
  5
5E8
 10
13210.186349
 20
3403.759675
 30
0.0
 42
0.064663
  0
VERTEX
  8
1
  6
CONTINUOUS
 62
   140
  5
5E9
 10
13210.188628
 20
3403.754441
 30
0.0
 42
0.05709
  0
VERTEX
  8
1
  6
CONTINUOUS
 62
   140
  5
5EA
 10
13210.192329
 20
3403.749617
 30
0.0
 42
0.049486
  0
VERTEX
  8
1
  6
CONTINUOUS
 62
   140
  5
5EB
 10
13210.19731
 20
3403.745389
 30
0.0
 42
0.043232
  0
VERTEX
  8
1
  6
CONTINUOUS
 62
   140
  5
5EC
 10
13210.203379
 20
3403.741919
 30
0.0
 42
0.038702
  0
VERTEX
  8
1
  6
CONTINUOUS
 62
   140
  5
5ED
 10
13210.210303
 20
3403.73934
 30
0.0
 42
0.035825
  0
VERTEX
  8
1
  6
CONTINUOUS
 62
   140
  5
5EE
 10
13210.217816
 20
3403.737753
 30
0.0
 42
0.034439
  0
VERTEX
  8
1
  6
CONTINUOUS
 62
   140
  5
5EF
 10
13210.225629
 20
3403.737217
 30
0.0
 42
0.034439
  0
VERTEX
  8
1
  6
CONTINUOUS
 62
   140
  5
5F0
 10
13210.233443
 20
3403.737753
 30
0.0
 42
0.035825
  0
VERTEX
  8
1
  6
CONTINUOUS
 62
   140
  5
5F1
 10
13210.240956
 20
3403.73934
 30
0.0
 42
0.038702
  0
VERTEX
  8
1
  6
CONTINUOUS
 62
   140
  5
5F2
 10
13210.24788
 20
3403.741919
 30
0.0
 42
0.043232
  0
VERTEX
  8
1
  6
CONTINUOUS
 62
   140
  5
5F3
 10
13210.253949
 20
3403.745389
 30
0.0
 42
0.049486
  0
VERTEX
  8
1
  6
CONTINUOUS
 62
   140
  5
5F4
 10
13210.25893
 20
3403.749617
 30
0.0
 42
0.05709
  0
VERTEX
  8
1
  6
CONTINUOUS
 62
   140
  5
5F5
 10
13210.262631
 20
3403.754441
 30
0.0
 42
0.064663
  0
VERTEX
  8
1
  6
CONTINUOUS
 62
   140
  5
5F6
 10
13210.26491
 20
3403.759675
 30
0.0
 42
0.069642
  0
VERTEX
  8
1
  6
CONTINUOUS
 62
   140
  5
5F7
 10
13210.265679
 20
3403.765118
 30
0.0
 42
0.069642
  0
SEQEND
  8
1
  6
CONTINUOUS
 62
   140
  5
5F8
  0
POLYLINE
  8
1
  6
CONTINUOUS
 62
   140
  5
5F9
 66
     1
 10
0.0
 20
0.0
 30
0.0
210
0.0
220
0.0
230
1.0
  0
VERTEX
  8
1
  6
CONTINUOUS
 62
   140
  5
5FA
 10
13210.659245
 20
3403.765118
 30
0.0
 42
0.069642
  0
VERTEX
  8
1
  6
CONTINUOUS
 62
   140
  5
5FB
 10
13210.660014
 20
3403.759675
 30
0.0
 42
0.064663
  0
VERTEX
  8
1
  6
CONTINUOUS
 62
   140
  5
5FC
 10
13210.662293
 20
3403.754441
 30
0.0
 42
0.05709
  0
VERTEX
  8
1
  6
CONTINUOUS
 62
   140
  5
5FD
 10
13210.665994
 20
3403.749617
 30
0.0
 42
0.049486
  0
VERTEX
  8
1
  6
CONTINUOUS
 62
   140
  5
5FE
 10
13210.670975
 20
3403.745389
 30
0.0
 42
0.043232
  0
VERTEX
  8
1
  6
CONTINUOUS
 62
   140
  5
5FF
 10
13210.677044
 20
3403.741919
 30
0.0
 42
0.038702
  0
VERTEX
  8
1
  6
CONTINUOUS
 62
   140
  5
600
 10
13210.683968
 20
3403.73934
 30
0.0
 42
0.035825
  0
VERTEX
  8
1
  6
CONTINUOUS
 62
   140
  5
601
 10
13210.691481
 20
3403.737753
 30
0.0
 42
0.034439
  0
VERTEX
  8
1
  6
CONTINUOUS
 62
   140
  5
602
 10
13210.699294
 20
3403.737217
 30
0.0
 42
0.034439
  0
VERTEX
  8
1
  6
CONTINUOUS
 62
   140
  5
603
 10
13210.707108
 20
3403.737753
 30
0.0
 42
0.035825
  0
VERTEX
  8
1
  6
CONTINUOUS
 62
   140
  5
604
 10
13210.714621
 20
3403.73934
 30
0.0
 42
0.038702
  0
VERTEX
  8
1
  6
CONTINUOUS
 62
   140
  5
605
 10
13210.721545
 20
3403.741919
 30
0.0
 42
0.043232
  0
VERTEX
  8
1
  6
CONTINUOUS
 62
   140
  5
606
 10
13210.727614
 20
3403.745389
 30
0.0
 42
0.049486
  0
VERTEX
  8
1
  6
CONTINUOUS
 62
   140
  5
607
 10
13210.732595
 20
3403.749617
 30
0.0
 42
0.05709
  0
VERTEX
  8
1
  6
CONTINUOUS
 62
   140
  5
608
 10
13210.736296
 20
3403.754441
 30
0.0
 42
0.064663
  0
VERTEX
  8
1
  6
CONTINUOUS
 62
   140
  5
609
 10
13210.738575
 20
3403.759675
 30
0.0
 42
0.069642
  0
VERTEX
  8
1
  6
CONTINUOUS
 62
   140
  5
60A
 10
13210.739344
 20
3403.765118
 30
0.0
 42
0.069642
  0
SEQEND
  8
1
  6
CONTINUOUS
 62
   140
  5
60B
  0
POLYLINE
  8
1
  6
CONTINUOUS
 62
   140
  5
60C
 66
     1
 10
0.0
 20
0.0
 30
0.0
210
0.0
220
0.0
230
1.0
  0
VERTEX
  8
1
  6
CONTINUOUS
 62
   140
  5
60D
 10
13210.739344
 20
3403.765118
 30
0.0
 42
0.105926
  0
VERTEX
  8
1
  6
CONTINUOUS
 62
   140
  5
60E
 10
13210.738575
 20
3403.768579
 30
0.0
 42
0.082645
  0
VERTEX
  8
1
  6
CONTINUOUS
 62
   140
  5
60F
 10
13210.736296
 20
3403.771906
 30
0.0
 42
0.058441
  0
VERTEX
  8
1
  6
CONTINUOUS
 62
   140
  5
610
 10
13210.732595
 20
3403.774973
 30
0.0
 42
0.042129
  0
VERTEX
  8
1
  6
CONTINUOUS
 62
   140
  5
611
 10
13210.727614
 20
3403.77766
 30
0.0
 42
0.032313
  0
VERTEX
  8
1
  6
CONTINUOUS
 62
   140
  5
612
 10
13210.721545
 20
3403.779866
 30
0.0
 42
0.026577
  0
VERTEX
  8
1
  6
CONTINUOUS
 62
   140
  5
613
 10
13210.714621
 20
3403.781505
 30
0.0
 42
0.023395
  0
VERTEX
  8
1
  6
CONTINUOUS
 62
   140
  5
614
 10
13210.707108
 20
3403.782515
 30
0.0
 42
0.021971
  0
VERTEX
  8
1
  6
CONTINUOUS
 62
   140
  5
615
 10
13210.699294
 20
3403.782856
 30
0.0
 42
0.021971
  0
VERTEX
  8
1
  6
CONTINUOUS
 62
   140
  5
616
 10
13210.691481
 20
3403.782515
 30
0.0
 42
0.023395
  0
VERTEX
  8
1
  6
CONTINUOUS
 62
   140
  5
617
 10
13210.683968
 20
3403.781505
 30
0.0
 42
0.026577
  0
VERTEX
  8
1
  6
CONTINUOUS
 62
   140
  5
618
 10
13210.677044
 20
3403.779866
 30
0.0
 42
0.032313
  0
VERTEX
  8
1
  6
CONTINUOUS
 62
   140
  5
619
 10
13210.670975
 20
3403.77766
 30
0.0
 42
0.042129
  0
VERTEX
  8
1
  6
CONTINUOUS
 62
   140
  5
61A
 10
13210.665994
 20
3403.774973
 30
0.0
 42
0.058441
  0
VERTEX
  8
1
  6
CONTINUOUS
 62
   140
  5
61B
 10
13210.662293
 20
3403.771906
 30
0.0
 42
0.082645
  0
VERTEX
  8
1
  6
CONTINUOUS
 62
   140
  5
61C
 10
13210.660014
 20
3403.768579
 30
0.0
 42
0.105926
  0
VERTEX
  8
1
  6
CONTINUOUS
 62
   140
  5
61D
 10
13210.659245
 20
3403.765118
 30
0.0
 42
0.105926
  0
SEQEND
  8
1
  6
CONTINUOUS
 62
   140
  5
61E
  0
POLYLINE
  8
1
  6
CONTINUOUS
 62
   140
  5
61F
 66
     1
 10
0.0
 20
0.0
 30
0.0
210
0.0
220
0.0
230
1.0
  0
VERTEX
  8
1
  6
CONTINUOUS
 62
   140
  5
620
 10
13210.659245
 20
3403.513251
 30
0.0
 42
-0.069642
  0
VERTEX
  8
1
  6
CONTINUOUS
 62
   140
  5
621
 10
13210.660014
 20
3403.518694
 30
0.0
 42
-0.064663
  0
VERTEX
  8
1
  6
CONTINUOUS
 62
   140
  5
622
 10
13210.662293
 20
3403.523929
 30
0.0
 42
-0.05709
  0
VERTEX
  8
1
  6
CONTINUOUS
 62
   140
  5
623
 10
13210.665994
 20
3403.528752
 30
0.0
 42
-0.049486
  0
VERTEX
  8
1
  6
CONTINUOUS
 62
   140
  5
624
 10
13210.670975
 20
3403.532981
 30
0.0
 42
-0.043232
  0
VERTEX
  8
1
  6
CONTINUOUS
 62
   140
  5
625
 10
13210.677044
 20
3403.53645
 30
0.0
 42
-0.038702
  0
VERTEX
  8
1
  6
CONTINUOUS
 62
   140
  5
626
 10
13210.683968
 20
3403.539029
 30
0.0
 42
-0.035825
  0
VERTEX
  8
1
  6
CONTINUOUS
 62
   140
  5
627
 10
13210.691481
 20
3403.540617
 30
0.0
 42
-0.034439
  0
VERTEX
  8
1
  6
CONTINUOUS
 62
   140
  5
628
 10
13210.699294
 20
3403.541153
 30
0.0
 42
-0.034439
  0
VERTEX
  8
1
  6
CONTINUOUS
 62
   140
  5
629
 10
13210.707108
 20
3403.540617
 30
0.0
 42
-0.035825
  0
VERTEX
  8
1
  6
CONTINUOUS
 62
   140
  5
62A
 10
13210.714621
 20
3403.539029
 30
0.0
 42
-0.038702
  0
VERTEX
  8
1
  6
CONTINUOUS
 62
   140
  5
62B
 10
13210.721545
 20
3403.53645
 30
0.0
 42
-0.043232
  0
VERTEX
  8
1
  6
CONTINUOUS
 62
   140
  5
62C
 10
13210.727614
 20
3403.532981
 30
0.0
 42
-0.049486
  0
VERTEX
  8
1
  6
CONTINUOUS
 62
   140
  5
62D
 10
13210.732595
 20
3403.528752
 30
0.0
 42
-0.05709
  0
VERTEX
  8
1
  6
CONTINUOUS
 62
   140
  5
62E
 10
13210.736296
 20
3403.523929
 30
0.0
 42
-0.064663
  0
VERTEX
  8
1
  6
CONTINUOUS
 62
   140
  5
62F
 10
13210.738575
 20
3403.518694
 30
0.0
 42
-0.069642
  0
VERTEX
  8
1
  6
CONTINUOUS
 62
   140
  5
630
 10
13210.739344
 20
3403.513251
 30
0.0
 42
-0.069642
  0
SEQEND
  8
1
  6
CONTINUOUS
 62
   140
  5
631
  0
POLYLINE
  8
1
  6
CONTINUOUS
 62
   140
  5
632
 66
     1
 10
0.0
 20
0.0
 30
0.0
210
0.0
220
0.0
230
1.0
  0
VERTEX
  8
1
  6
CONTINUOUS
 62
   140
  5
633
 10
13210.739344
 20
3403.513251
 30
0.0
 42
-0.105926
  0
VERTEX
  8
1
  6
CONTINUOUS
 62
   140
  5
634
 10
13210.738575
 20
3403.509791
 30
0.0
 42
-0.082645
  0
VERTEX
  8
1
  6
CONTINUOUS
 62
   140
  5
635
 10
13210.736296
 20
3403.506463
 30
0.0
 42
-0.058441
  0
VERTEX
  8
1
  6
CONTINUOUS
 62
   140
  5
636
 10
13210.732595
 20
3403.503397
 30
0.0
 42
-0.042129
  0
VERTEX
  8
1
  6
CONTINUOUS
 62
   140
  5
637
 10
13210.727614
 20
3403.500709
 30
0.0
 42
-0.032313
  0
VERTEX
  8
1
  6
CONTINUOUS
 62
   140
  5
638
 10
13210.721545
 20
3403.498503
 30
0.0
 42
-0.026577
  0
VERTEX
  8
1
  6
CONTINUOUS
 62
   140
  5
639
 10
13210.714621
 20
3403.496864
 30
0.0
 42
-0.023395
  0
VERTEX
  8
1
  6
CONTINUOUS
 62
   140
  5
63A
 10
13210.707108
 20
3403.495855
 30
0.0
 42
-0.021971
  0
VERTEX
  8
1
  6
CONTINUOUS
 62
   140
  5
63B
 10
13210.699294
 20
3403.495514
 30
0.0
 42
-0.021971
  0
VERTEX
  8
1
  6
CONTINUOUS
 62
   140
  5
63C
 10
13210.691481
 20
3403.495855
 30
0.0
 42
-0.023395
  0
VERTEX
  8
1
  6
CONTINUOUS
 62
   140
  5
63D
 10
13210.683968
 20
3403.496864
 30
0.0
 42
-0.026577
  0
VERTEX
  8
1
  6
CONTINUOUS
 62
   140
  5
63E
 10
13210.677044
 20
3403.498503
 30
0.0
 42
-0.032313
  0
VERTEX
  8
1
  6
CONTINUOUS
 62
   140
  5
63F
 10
13210.670975
 20
3403.500709
 30
0.0
 42
-0.042129
  0
VERTEX
  8
1
  6
CONTINUOUS
 62
   140
  5
640
 10
13210.665994
 20
3403.503397
 30
0.0
 42
-0.058441
  0
VERTEX
  8
1
  6
CONTINUOUS
 62
   140
  5
641
 10
13210.662293
 20
3403.506463
 30
0.0
 42
-0.082645
  0
VERTEX
  8
1
  6
CONTINUOUS
 62
   140
  5
642
 10
13210.660014
 20
3403.509791
 30
0.0
 42
-0.105926
  0
VERTEX
  8
1
  6
CONTINUOUS
 62
   140
  5
643
 10
13210.659245
 20
3403.513251
 30
0.0
 42
-0.105926
  0
SEQEND
  8
1
  6
CONTINUOUS
 62
   140
  5
644
  0
POLYLINE
  8
1
  6
CONTINUOUS
 62
   140
  5
645
 66
     1
 10
0.0
 20
0.0
 30
0.0
210
0.0
220
0.0
230
1.0
  0
VERTEX
  8
1
  6
CONTINUOUS
 62
   140
  5
646
 10
13210.265679
 20
3403.513251
 30
0.0
 42
-0.105926
  0
VERTEX
  8
1
  6
CONTINUOUS
 62
   140
  5
647
 10
13210.26491
 20
3403.509791
 30
0.0
 42
-0.082645
  0
VERTEX
  8
1
  6
CONTINUOUS
 62
   140
  5
648
 10
13210.262631
 20
3403.506463
 30
0.0
 42
-0.058441
  0
VERTEX
  8
1
  6
CONTINUOUS
 62
   140
  5
649
 10
13210.25893
 20
3403.503397
 30
0.0
 42
-0.042129
  0
VERTEX
  8
1
  6
CONTINUOUS
 62
   140
  5
64A
 10
13210.253949
 20
3403.500709
 30
0.0
 42
-0.032313
  0
VERTEX
  8
1
  6
CONTINUOUS
 62
   140
  5
64B
 10
13210.24788
 20
3403.498503
 30
0.0
 42
-0.026577
  0
VERTEX
  8
1
  6
CONTINUOUS
 62
   140
  5
64C
 10
13210.240956
 20
3403.496864
 30
0.0
 42
-0.023395
  0
VERTEX
  8
1
  6
CONTINUOUS
 62
   140
  5
64D
 10
13210.233443
 20
3403.495855
 30
0.0
 42
-0.021971
  0
VERTEX
  8
1
  6
CONTINUOUS
 62
   140
  5
64E
 10
13210.225629
 20
3403.495514
 30
0.0
 42
-0.021971
  0
VERTEX
  8
1
  6
CONTINUOUS
 62
   140
  5
64F
 10
13210.217816
 20
3403.495855
 30
0.0
 42
-0.023395
  0
VERTEX
  8
1
  6
CONTINUOUS
 62
   140
  5
650
 10
13210.210303
 20
3403.496864
 30
0.0
 42
-0.026577
  0
VERTEX
  8
1
  6
CONTINUOUS
 62
   140
  5
651
 10
13210.203379
 20
3403.498503
 30
0.0
 42
-0.032313
  0
VERTEX
  8
1
  6
CONTINUOUS
 62
   140
  5
652
 10
13210.19731
 20
3403.500709
 30
0.0
 42
-0.042129
  0
VERTEX
  8
1
  6
CONTINUOUS
 62
   140
  5
653
 10
13210.192329
 20
3403.503397
 30
0.0
 42
-0.058441
  0
VERTEX
  8
1
  6
CONTINUOUS
 62
   140
  5
654
 10
13210.188628
 20
3403.506463
 30
0.0
 42
-0.082645
  0
VERTEX
  8
1
  6
CONTINUOUS
 62
   140
  5
655
 10
13210.186349
 20
3403.509791
 30
0.0
 42
-0.105926
  0
VERTEX
  8
1
  6
CONTINUOUS
 62
   140
  5
656
 10
13210.18558
 20
3403.513251
 30
0.0
 42
-0.105926
  0
SEQEND
  8
1
  6
CONTINUOUS
 62
   140
  5
657
  0
POLYLINE
  8
1
  6
CONTINUOUS
 62
   140
  5
658
 66
     1
 10
0.0
 20
0.0
 30
0.0
210
0.0
220
0.0
230
1.0
  0
VERTEX
  8
1
  6
CONTINUOUS
 62
   140
  5
659
 10
13210.18558
 20
3403.513251
 30
0.0
 42
-0.069642
  0
VERTEX
  8
1
  6
CONTINUOUS
 62
   140
  5
65A
 10
13210.186349
 20
3403.518694
 30
0.0
 42
-0.064663
  0
VERTEX
  8
1
  6
CONTINUOUS
 62
   140
  5
65B
 10
13210.188628
 20
3403.523929
 30
0.0
 42
-0.05709
  0
VERTEX
  8
1
  6
CONTINUOUS
 62
   140
  5
65C
 10
13210.192329
 20
3403.528752
 30
0.0
 42
-0.049486
  0
VERTEX
  8
1
  6
CONTINUOUS
 62
   140
  5
65D
 10
13210.19731
 20
3403.532981
 30
0.0
 42
-0.043232
  0
VERTEX
  8
1
  6
CONTINUOUS
 62
   140
  5
65E
 10
13210.203379
 20
3403.53645
 30
0.0
 42
-0.038702
  0
VERTEX
  8
1
  6
CONTINUOUS
 62
   140
  5
65F
 10
13210.210303
 20
3403.539029
 30
0.0
 42
-0.035825
  0
VERTEX
  8
1
  6
CONTINUOUS
 62
   140
  5
660
 10
13210.217816
 20
3403.540617
 30
0.0
 42
-0.034439
  0
VERTEX
  8
1
  6
CONTINUOUS
 62
   140
  5
661
 10
13210.225629
 20
3403.541153
 30
0.0
 42
-0.034439
  0
VERTEX
  8
1
  6
CONTINUOUS
 62
   140
  5
662
 10
13210.233443
 20
3403.540617
 30
0.0
 42
-0.035825
  0
VERTEX
  8
1
  6
CONTINUOUS
 62
   140
  5
663
 10
13210.240956
 20
3403.539029
 30
0.0
 42
-0.038702
  0
VERTEX
  8
1
  6
CONTINUOUS
 62
   140
  5
664
 10
13210.24788
 20
3403.53645
 30
0.0
 42
-0.043232
  0
VERTEX
  8
1
  6
CONTINUOUS
 62
   140
  5
665
 10
13210.253949
 20
3403.532981
 30
0.0
 42
-0.049486
  0
VERTEX
  8
1
  6
CONTINUOUS
 62
   140
  5
666
 10
13210.25893
 20
3403.528752
 30
0.0
 42
-0.05709
  0
VERTEX
  8
1
  6
CONTINUOUS
 62
   140
  5
667
 10
13210.262631
 20
3403.523929
 30
0.0
 42
-0.064663
  0
VERTEX
  8
1
  6
CONTINUOUS
 62
   140
  5
668
 10
13210.26491
 20
3403.518694
 30
0.0
 42
-0.069642
  0
VERTEX
  8
1
  6
CONTINUOUS
 62
   140
  5
669
 10
13210.265679
 20
3403.513251
 30
0.0
 42
-0.069642
  0
SEQEND
  8
1
  6
CONTINUOUS
 62
   140
  5
66A
  0
POLYLINE
  8
1
  6
CONTINUOUS
 62
   140
  5
66B
 66
     1
 10
0.0
 20
0.0
 30
0.0
210
0.0
220
0.0
230
1.0
  0
VERTEX
  8
1
  6
CONTINUOUS
 62
   140
  5
66C
 10
13210.265679
 20
3403.341088
 30
0.0
 42
-0.071267
  0
VERTEX
  8
1
  6
CONTINUOUS
 62
   140
  5
66D
 10
13210.26491
 20
3403.335775
 30
0.0
 42
-0.065729
  0
VERTEX
  8
1
  6
CONTINUOUS
 62
   140
  5
66E
 10
13210.262631
 20
3403.330666
 30
0.0
 42
-0.057443
  0
VERTEX
  8
1
  6
CONTINUOUS
 62
   140
  5
66F
 10
13210.25893
 20
3403.325958
 30
0.0
 42
-0.049287
  0
VERTEX
  8
1
  6
CONTINUOUS
 62
   140
  5
670
 10
13210.253949
 20
3403.321831
 30
0.0
 42
-0.042701
  0
VERTEX
  8
1
  6
CONTINUOUS
 62
   140
  5
671
 10
13210.24788
 20
3403.318444
 30
0.0
 42
-0.037998
  0
VERTEX
  8
1
  6
CONTINUOUS
 62
   140
  5
672
 10
13210.240956
 20
3403.315928
 30
0.0
 42
-0.03504
  0
VERTEX
  8
1
  6
CONTINUOUS
 62
   140
  5
673
 10
13210.233443
 20
3403.314378
 30
0.0
 42
-0.033623
  0
VERTEX
  8
1
  6
CONTINUOUS
 62
   140
  5
674
 10
13210.225629
 20
3403.313855
 30
0.0
 42
-0.033623
  0
VERTEX
  8
1
  6
CONTINUOUS
 62
   140
  5
675
 10
13210.217816
 20
3403.314378
 30
0.0
 42
-0.03504
  0
VERTEX
  8
1
  6
CONTINUOUS
 62
   140
  5
676
 10
13210.210303
 20
3403.315928
 30
0.0
 42
-0.037998
  0
VERTEX
  8
1
  6
CONTINUOUS
 62
   140
  5
677
 10
13210.203379
 20
3403.318444
 30
0.0
 42
-0.042701
  0
VERTEX
  8
1
  6
CONTINUOUS
 62
   140
  5
678
 10
13210.19731
 20
3403.321831
 30
0.0
 42
-0.049287
  0
VERTEX
  8
1
  6
CONTINUOUS
 62
   140
  5
679
 10
13210.192329
 20
3403.325958
 30
0.0
 42
-0.057443
  0
VERTEX
  8
1
  6
CONTINUOUS
 62
   140
  5
67A
 10
13210.188628
 20
3403.330666
 30
0.0
 42
-0.065729
  0
VERTEX
  8
1
  6
CONTINUOUS
 62
   140
  5
67B
 10
13210.186349
 20
3403.335775
 30
0.0
 42
-0.071267
  0
VERTEX
  8
1
  6
CONTINUOUS
 62
   140
  5
67C
 10
13210.18558
 20
3403.341088
 30
0.0
 42
-0.071267
  0
SEQEND
  8
1
  6
CONTINUOUS
 62
   140
  5
67D
  0
POLYLINE
  8
1
  6
CONTINUOUS
 62
   140
  5
67E
 66
     1
 10
0.0
 20
0.0
 30
0.0
210
0.0
220
0.0
230
1.0
  0
VERTEX
  8
1
  6
CONTINUOUS
 62
   140
  5
67F
 10
13210.18558
 20
3403.341088
 30
0.0
 42
-0.107797
  0
VERTEX
  8
1
  6
CONTINUOUS
 62
   140
  5
680
 10
13210.186349
 20
3403.344481
 30
0.0
 42
-0.083254
  0
VERTEX
  8
1
  6
CONTINUOUS
 62
   140
  5
681
 10
13210.188628
 20
3403.347743
 30
0.0
 42
-0.058242
  0
VERTEX
  8
1
  6
CONTINUOUS
 62
   140
  5
682
 10
13210.192329
 20
3403.35075
 30
0.0
 42
-0.041681
  0
VERTEX
  8
1
  6
CONTINUOUS
 62
   140
  5
683
 10
13210.19731
 20
3403.353386
 30
0.0
 42
-0.03183
  0
VERTEX
  8
1
  6
CONTINUOUS
 62
   140
  5
684
 10
13210.203379
 20
3403.355549
 30
0.0
 42
-0.026114
  0
VERTEX
  8
1
  6
CONTINUOUS
 62
   140
  5
685
 10
13210.210303
 20
3403.357156
 30
0.0
 42
-0.022956
  0
VERTEX
  8
1
  6
CONTINUOUS
 62
   140
  5
686
 10
13210.217816
 20
3403.358145
 30
0.0
 42
-0.021545
  0
VERTEX
  8
1
  6
CONTINUOUS
 62
   140
  5
687
 10
13210.225629
 20
3403.35848
 30
0.0
 42
-0.021545
  0
VERTEX
  8
1
  6
CONTINUOUS
 62
   140
  5
688
 10
13210.233443
 20
3403.358145
 30
0.0
 42
-0.022956
  0
VERTEX
  8
1
  6
CONTINUOUS
 62
   140
  5
689
 10
13210.240956
 20
3403.357156
 30
0.0
 42
-0.026114
  0
VERTEX
  8
1
  6
CONTINUOUS
 62
   140
  5
68A
 10
13210.24788
 20
3403.355549
 30
0.0
 42
-0.03183
  0
VERTEX
  8
1
  6
CONTINUOUS
 62
   140
  5
68B
 10
13210.253949
 20
3403.353386
 30
0.0
 42
-0.041681
  0
VERTEX
  8
1
  6
CONTINUOUS
 62
   140
  5
68C
 10
13210.25893
 20
3403.35075
 30
0.0
 42
-0.058242
  0
VERTEX
  8
1
  6
CONTINUOUS
 62
   140
  5
68D
 10
13210.262631
 20
3403.347743
 30
0.0
 42
-0.083254
  0
VERTEX
  8
1
  6
CONTINUOUS
 62
   140
  5
68E
 10
13210.26491
 20
3403.344481
 30
0.0
 42
-0.107797
  0
VERTEX
  8
1
  6
CONTINUOUS
 62
   140
  5
68F
 10
13210.265679
 20
3403.341088
 30
0.0
 42
-0.107797
  0
SEQEND
  8
1
  6
CONTINUOUS
 62
   140
  5
690
  0
POLYLINE
  8
1
  6
CONTINUOUS
 62
   140
  5
691
 66
     1
 10
0.0
 20
0.0
 30
0.0
210
0.0
220
0.0
230
1.0
  0
VERTEX
  8
1
  6
CONTINUOUS
 62
   140
  5
692
 10
13210.659245
 20
3403.341088
 30
0.0
 42
-0.107797
  0
VERTEX
  8
1
  6
CONTINUOUS
 62
   140
  5
693
 10
13210.660014
 20
3403.344481
 30
0.0
 42
-0.083254
  0
VERTEX
  8
1
  6
CONTINUOUS
 62
   140
  5
694
 10
13210.662293
 20
3403.347743
 30
0.0
 42
-0.058242
  0
VERTEX
  8
1
  6
CONTINUOUS
 62
   140
  5
695
 10
13210.665994
 20
3403.35075
 30
0.0
 42
-0.041681
  0
VERTEX
  8
1
  6
CONTINUOUS
 62
   140
  5
696
 10
13210.670975
 20
3403.353386
 30
0.0
 42
-0.03183
  0
VERTEX
  8
1
  6
CONTINUOUS
 62
   140
  5
697
 10
13210.677044
 20
3403.355549
 30
0.0
 42
-0.026114
  0
VERTEX
  8
1
  6
CONTINUOUS
 62
   140
  5
698
 10
13210.683968
 20
3403.357156
 30
0.0
 42
-0.022956
  0
VERTEX
  8
1
  6
CONTINUOUS
 62
   140
  5
699
 10
13210.691481
 20
3403.358145
 30
0.0
 42
-0.021545
  0
VERTEX
  8
1
  6
CONTINUOUS
 62
   140
  5
69A
 10
13210.699294
 20
3403.35848
 30
0.0
 42
-0.021545
  0
VERTEX
  8
1
  6
CONTINUOUS
 62
   140
  5
69B
 10
13210.707108
 20
3403.358145
 30
0.0
 42
-0.022956
  0
VERTEX
  8
1
  6
CONTINUOUS
 62
   140
  5
69C
 10
13210.714621
 20
3403.357156
 30
0.0
 42
-0.026114
  0
VERTEX
  8
1
  6
CONTINUOUS
 62
   140
  5
69D
 10
13210.721545
 20
3403.355549
 30
0.0
 42
-0.03183
  0
VERTEX
  8
1
  6
CONTINUOUS
 62
   140
  5
69E
 10
13210.727614
 20
3403.353386
 30
0.0
 42
-0.041681
  0
VERTEX
  8
1
  6
CONTINUOUS
 62
   140
  5
69F
 10
13210.732595
 20
3403.35075
 30
0.0
 42
-0.058242
  0
VERTEX
  8
1
  6
CONTINUOUS
 62
   140
  5
6A0
 10
13210.736296
 20
3403.347743
 30
0.0
 42
-0.083254
  0
VERTEX
  8
1
  6
CONTINUOUS
 62
   140
  5
6A1
 10
13210.738575
 20
3403.344481
 30
0.0
 42
-0.107797
  0
VERTEX
  8
1
  6
CONTINUOUS
 62
   140
  5
6A2
 10
13210.739344
 20
3403.341088
 30
0.0
 42
-0.107797
  0
SEQEND
  8
1
  6
CONTINUOUS
 62
   140
  5
6A3
  0
POLYLINE
  8
1
  6
CONTINUOUS
 62
   140
  5
6A4
 66
     1
 10
0.0
 20
0.0
 30
0.0
210
0.0
220
0.0
230
1.0
  0
VERTEX
  8
1
  6
CONTINUOUS
 62
   140
  5
6A5
 10
13210.739344
 20
3403.341088
 30
0.0
 42
-0.071267
  0
VERTEX
  8
1
  6
CONTINUOUS
 62
   140
  5
6A6
 10
13210.738575
 20
3403.335775
 30
0.0
 42
-0.065729
  0
VERTEX
  8
1
  6
CONTINUOUS
 62
   140
  5
6A7
 10
13210.736296
 20
3403.330666
 30
0.0
 42
-0.057443
  0
VERTEX
  8
1
  6
CONTINUOUS
 62
   140
  5
6A8
 10
13210.732595
 20
3403.325958
 30
0.0
 42
-0.049287
  0
VERTEX
  8
1
  6
CONTINUOUS
 62
   140
  5
6A9
 10
13210.727614
 20
3403.321831
 30
0.0
 42
-0.042701
  0
VERTEX
  8
1
  6
CONTINUOUS
 62
   140
  5
6AA
 10
13210.721545
 20
3403.318444
 30
0.0
 42
-0.037998
  0
VERTEX
  8
1
  6
CONTINUOUS
 62
   140
  5
6AB
 10
13210.714621
 20
3403.315928
 30
0.0
 42
-0.03504
  0
VERTEX
  8
1
  6
CONTINUOUS
 62
   140
  5
6AC
 10
13210.707108
 20
3403.314378
 30
0.0
 42
-0.033623
  0
VERTEX
  8
1
  6
CONTINUOUS
 62
   140
  5
6AD
 10
13210.699294
 20
3403.313855
 30
0.0
 42
-0.033623
  0
VERTEX
  8
1
  6
CONTINUOUS
 62
   140
  5
6AE
 10
13210.691481
 20
3403.314378
 30
0.0
 42
-0.03504
  0
VERTEX
  8
1
  6
CONTINUOUS
 62
   140
  5
6AF
 10
13210.683968
 20
3403.315928
 30
0.0
 42
-0.037998
  0
VERTEX
  8
1
  6
CONTINUOUS
 62
   140
  5
6B0
 10
13210.677044
 20
3403.318444
 30
0.0
 42
-0.042701
  0
VERTEX
  8
1
  6
CONTINUOUS
 62
   140
  5
6B1
 10
13210.670975
 20
3403.321831
 30
0.0
 42
-0.049287
  0
VERTEX
  8
1
  6
CONTINUOUS
 62
   140
  5
6B2
 10
13210.665994
 20
3403.325958
 30
0.0
 42
-0.057443
  0
VERTEX
  8
1
  6
CONTINUOUS
 62
   140
  5
6B3
 10
13210.662293
 20
3403.330666
 30
0.0
 42
-0.065729
  0
VERTEX
  8
1
  6
CONTINUOUS
 62
   140
  5
6B4
 10
13210.660014
 20
3403.335775
 30
0.0
 42
-0.071267
  0
VERTEX
  8
1
  6
CONTINUOUS
 62
   140
  5
6B5
 10
13210.659245
 20
3403.341088
 30
0.0
 42
-0.071267
  0
SEQEND
  8
1
  6
CONTINUOUS
 62
   140
  5
6B6
  0
LINE
  8
1
  6
CONTINUOUS
 62
   140
  5
6B7
 10
13200.832333
 20
3404.04975
 30
0.0
 11
13201.166833
 21
3404.04975
 31
0.0
  0
LINE
  8
1
  6
CONTINUOUS
 62
   140
  5
6B8
 10
13201.1655
 20
3403.987
 30
0.0
 11
13201.1655
 21
3404.04975
 31
0.0
  0
LINE
  8
1
  6
CONTINUOUS
 62
   140
  5
6B9
 10
13200.832333
 20
3403.987
 30
0.0
 11
13200.832333
 21
3404.04975
 31
0.0
  0
CIRCLE
  8
1
  6
CONTINUOUS
 62
   140
  5
6BA
 10
13199.965691
 20
3402.962364
 30
0.0
 40
0.040071
210
0.0
220
0.0
230
1.0
  0
LINE
  8
1
  6
CONTINUOUS
 62
   140
  5
6BB
 10
13203.961167
 20
3403.300583
 30
0.0
 11
13203.961167
 21
3402.465667
 31
0.0
  0
LINE
  8
1
  6
CONTINUOUS
 62
   140
  5
6BC
 10
13194.499917
 20
3402.800167
 30
0.0
 11
13203.961167
 21
3402.800167
 31
0.0
  0
CIRCLE
  8
1
  6
CONTINUOUS
 62
   140
  5
6BD
 10
13197.875157
 20
3403.631335
 30
0.0
 40
0.040071
210
0.0
220
0.0
230
1.0
  0
LINE
  8
1
  6
CONTINUOUS
 62
   140
  5
6BE
 10
13211.326417
 20
3403.300583
 30
0.0
 11
13192.525
 21
3403.300583
 31
0.0
  0
LINE
  8
1
  6
CONTINUOUS
 62
   140
  5
6BF
 10
13193.81475
 20
3403.70125
 30
0.0
 11
13194.08175
 21
3403.70125
 31
0.0
  0
LINE
  8
1
  6
CONTINUOUS
 62
   140
  5
6C0
 10
13194.014917
 20
3403.70125
 30
0.0
 11
13197.803333
 21
3403.70125
 31
0.0
  0
LINE
  8
1
  6
CONTINUOUS
 62
   140
  5
6C1
 10
13193.795417
 20
3403.584083
 30
0.0
 11
13194.08175
 21
3403.584083
 31
0.0
  0
LINE
  8
1
  6
CONTINUOUS
 62
   140
  5
6C2
 10
13194.014917
 20
3403.584083
 30
0.0
 11
13197.781833
 21
3403.584083
 31
0.0
  0
LINE
  8
1
  6
CONTINUOUS
 62
   140
  5
6C3
 10
13194.499917
 20
3403.134667
 30
0.0
 11
13203.961167
 21
3403.134667
 31
0.0
  0
LINE
  8
1
  6
CONTINUOUS
 62
   241
  5
6C4
 10
13193.345833
 20
3403.986167
 30
0.0
 11
13193.345833
 21
3403.300583
 31
0.0
  0
LINE
  8
1
  6
CONTINUOUS
 62
   140
  5
6C5
 10
13194.499917
 20
3403.134667
 30
0.0
 11
13194.499917
 21
3402.800167
 31
0.0
  0
LINE
  8
1
  6
CONTINUOUS
 62
   140
  5
6C6
 10
13194.946083
 20
3402.800167
 30
0.0
 11
13194.946083
 21
3403.134667
 31
0.0
  0
LINE
  8
1
  6
CONTINUOUS
 62
   140
  5
6C7
 10
13195.225
 20
3402.800167
 30
0.0
 11
13195.225
 21
3403.134667
 31
0.0
  0
LINE
  8
1
  6
CONTINUOUS
 62
   140
  5
6C8
 10
13197.69025
 20
3403.299167
 30
0.0
 11
13197.69025
 21
3403.134667
 31
0.0
  0
CIRCLE
  8
1
  6
CONTINUOUS
 62
   140
  5
6C9
 10
13194.751062
 20
3402.967715
 30
0.0
 40
0.040071
210
0.0
220
0.0
230
1.0
  0
CIRCLE
  8
1
  6
CONTINUOUS
 62
   140
  5
6CA
 10
13194.611916
 20
3402.884094
 30
0.0
 40
0.040071
210
0.0
220
0.0
230
1.0
  0
CIRCLE
  8
1
  6
CONTINUOUS
 62
   140
  5
6CB
 10
13194.611916
 20
3403.051337
 30
0.0
 40
0.040071
210
0.0
220
0.0
230
1.0
  0
LINE
  8
1
  6
DASHED
 62
   140
  5
6CC
 10
13198.011917
 20
3403.134667
 30
0.0
 11
13198.011917
 21
3402.800167
 31
0.0
  0
CIRCLE
  8
1
  6
CONTINUOUS
 62
   140
  5
6CD
 10
13197.928675
 20
3402.967715
 30
0.0
 40
0.040071
210
0.0
220
0.0
230
1.0
  0
CIRCLE
  8
1
  6
CONTINUOUS
 62
   140
  5
6CE
 10
13197.789529
 20
3402.884094
 30
0.0
 40
0.040071
210
0.0
220
0.0
230
1.0
  0
CIRCLE
  8
1
  6
CONTINUOUS
 62
   140
  5
6CF
 10
13197.789529
 20
3403.051337
 30
0.0
 40
0.040071
210
0.0
220
0.0
230
1.0
  0
LINE
  8
1
  6
CONTINUOUS
 62
   140
  5
6D0
 10
13197.6775
 20
3402.800167
 30
0.0
 11
13197.6775
 21
3403.134667
 31
0.0
  0
LINE
  8
1
  6
CONTINUOUS
 62
   140
  5
6D1
 10
13199.77675
 20
3403.300583
 30
0.0
 11
13199.77675
 21
3403.134667
 31
0.0
  0
LINE
  8
1
  6
CONTINUOUS
 62
   140
  5
6D2
 10
13200.111167
 20
3403.300583
 30
0.0
 11
13200.111167
 21
3403.134667
 31
0.0
  0
LINE
  8
1
  6
CONTINUOUS
 62
   140
  5
6D3
 10
13199.065583
 20
3403.300583
 30
0.0
 11
13199.065583
 21
3403.134667
 31
0.0
  0
LINE
  8
1
  6
CONTINUOUS
 62
   140
  5
6D4
 10
13198.731167
 20
3403.134667
 30
0.0
 11
13198.731167
 21
3403.300583
 31
0.0
  0
LINE
  8
1
  6
CONTINUOUS
 62
   140
  5
6D5
 10
13200.111167
 20
3403.289083
 30
0.0
 11
13200.111167
 21
3403.224833
 31
0.0
  0
LINE
  8
1
  6
CONTINUOUS
 62
   140
  5
6D6
 10
13199.77675
 20
3403.289083
 30
0.0
 11
13199.77675
 21
3403.224833
 31
0.0
  0
LINE
  8
1
  6
CONTINUOUS
 62
   140
  5
6D7
 10
13199.065583
 20
3403.289083
 30
0.0
 11
13199.065583
 21
3403.227
 31
0.0
  0
LINE
  8
1
  6
CONTINUOUS
 62
   140
  5
6D8
 10
13198.731167
 20
3403.289083
 30
0.0
 11
13198.731167
 21
3403.222167
 31
0.0
  0
LINE
  8
1
  6
CONTINUOUS
 62
   140
  5
6D9
 10
13200.111167
 20
3403.289083
 30
0.0
 11
13200.111167
 21
3403.224833
 31
0.0
  0
LINE
  8
1
  6
CONTINUOUS
 62
   140
  5
6DA
 10
13199.77675
 20
3403.289083
 30
0.0
 11
13199.77675
 21
3403.224833
 31
0.0
  0
LINE
  8
1
  6
CONTINUOUS
 62
   140
  5
6DB
 10
13199.065583
 20
3403.289083
 30
0.0
 11
13199.065583
 21
3403.227
 31
0.0
  0
LINE
  8
1
  6
CONTINUOUS
 62
   140
  5
6DC
 10
13198.731167
 20
3403.289083
 30
0.0
 11
13198.731167
 21
3403.222167
 31
0.0
  0
LINE
  8
1
  6
CONTINUOUS
 62
   140
  5
6DD
 10
13201.866583
 20
3403.134667
 30
0.0
 11
13201.866583
 21
3403.299167
 31
0.0
  0
LINE
  8
1
  6
CONTINUOUS
 62
   140
  5
6DE
 10
13201.866583
 20
3403.289083
 30
0.0
 11
13201.866583
 21
3403.229583
 31
0.0
  0
LINE
  8
1
  6
CONTINUOUS
 62
   140
  5
6DF
 10
13202.201083
 20
3403.299167
 30
0.0
 11
13202.201083
 21
3403.134667
 31
0.0
  0
LINE
  8
1
  6
CONTINUOUS
 62
   140
  5
6E0
 10
13201.866583
 20
3403.289083
 30
0.0
 11
13201.866583
 21
3403.229583
 31
0.0
  0
LINE
  8
1
  6
CONTINUOUS
 62
   140
  5
6E1
 10
13202.201083
 20
3403.289083
 30
0.0
 11
13202.201083
 21
3403.229583
 31
0.0
  0
LINE
  8
1
  6
CONTINUOUS
 62
   140
  5
6E2
 10
13201.155417
 20
3403.300583
 30
0.0
 11
13201.155417
 21
3403.134667
 31
0.0
  0
LINE
  8
1
  6
CONTINUOUS
 62
   140
  5
6E3
 10
13200.820833
 20
3403.300583
 30
0.0
 11
13200.820833
 21
3403.134667
 31
0.0
  0
LINE
  8
1
  6
CONTINUOUS
 62
   140
  5
6E4
 10
13200.820833
 20
3403.289083
 30
0.0
 11
13200.820833
 21
3403.229583
 31
0.0
  0
LINE
  8
1
  6
CONTINUOUS
 62
   140
  5
6E5
 10
13201.155417
 20
3403.289083
 30
0.0
 11
13201.155417
 21
3403.229583
 31
0.0
  0
LINE
  8
1
  6
CONTINUOUS
 62
   140
  5
6E6
 10
13200.820833
 20
3403.289083
 30
0.0
 11
13200.820833
 21
3403.229583
 31
0.0
  0
LINE
  8
1
  6
CONTINUOUS
 62
   140
  5
6E7
 10
13201.155417
 20
3403.289083
 30
0.0
 11
13201.155417
 21
3403.229583
 31
0.0
  0
LINE
  8
1
  6
CONTINUOUS
 62
   140
  5
6E8
 10
13198.024667
 20
3403.299167
 30
0.0
 11
13198.024667
 21
3403.134667
 31
0.0
  0
LINE
  8
1
  6
CONTINUOUS
 62
   140
  5
6E9
 10
13198.024667
 20
3402.800167
 30
0.0
 11
13198.024667
 21
3402.465667
 31
0.0
  0
LINE
  8
1
  6
CONTINUOUS
 62
   140
  5
6EA
 10
13202.304667
 20
3402.800167
 30
0.0
 11
13202.304667
 21
3403.134667
 31
0.0
  0
CIRCLE
  8
1
  6
CONTINUOUS
 62
   140
  5
6EB
 10
13196.8717
 20
3403.631335
 30
0.0
 40
0.040071
210
0.0
220
0.0
230
1.0
  0
CIRCLE
  8
1
  6
CONTINUOUS
 62
   140
  5
6EC
 10
13196.925218
 20
3402.967715
 30
0.0
 40
0.040071
210
0.0
220
0.0
230
1.0
  0
LINE
  8
1
  6
HIDDEN
 62
   140
  5
6ED
 10
13196.704083
 20
3403.881833
 30
0.0
 11
13197.038667
 21
3403.881833
 31
0.0
  0
LINE
  8
1
  6
HIDDEN
 62
   140
  5
6EE
 10
13197.038667
 20
3403.881833
 30
0.0
 11
13197.038667
 21
3403.38025
 31
0.0
  0
LINE
  8
1
  6
HIDDEN
 62
   140
  5
6EF
 10
13196.704083
 20
3403.881833
 30
0.0
 11
13196.704083
 21
3403.38025
 31
0.0
  0
LINE
  8
1
  6
HIDDEN
 62
   140
  5
6F0
 10
13196.704083
 20
3403.38025
 30
0.0
 11
13197.038667
 21
3403.38025
 31
0.0
  0
LINE
  8
1
  6
CONTINUOUS
 62
   140
  5
6F1
 10
13196.6185
 20
3404.209083
 30
0.0
 11
13191.350333
 21
3404.209083
 31
0.0
  0
LINE
  8
1
  6
CONTINUOUS
 62
   140
  5
6F2
 10
13197.17575
 20
3403.986167
 30
0.0
 11
13197.17575
 21
3404.04975
 31
0.0
  0
LINE
  8
1
  6
CONTINUOUS
 62
   140
  5
6F3
 10
13197.17575
 20
3404.04975
 30
0.0
 11
13196.6185
 21
3404.209083
 31
0.0
  0
LINE
  8
1
  6
CONTINUOUS
 62
   140
  5
6F4
 10
13197.17575
 20
3403.299167
 30
0.0
 11
13197.17575
 21
3403.134667
 31
0.0
  0
LINE
  8
1
  6
CONTINUOUS
 62
   140
  5
6F5
 10
13197.17575
 20
3402.800167
 30
0.0
 11
13197.17575
 21
3402.465667
 31
0.0
  0
TEXT
  8
1
  6
CONTINUOUS
 62
   241
  5
6F6
 10
13195.514917
 20
3401.804667
 30
0.0
 40
0.133
  1
4'-0"
  7
MONOTXT
210
0.0
220
0.0
230
1.0
  0
LINE
  8
1
  6
CONTINUOUS
 62
     2
  5
6F7
 10
13194.499917
 20
3402.749167
 30
0.0
 11
13194.499917
 21
3401.55375
 31
0.0
  0
LINE
  8
1
  6
CONTINUOUS
 62
     2
  5
6F8
 10
13194.499917
 20
3401.693
 30
0.0
 11
13197.179167
 21
3401.693
 31
0.0
  0
LINE
  8
1
  6
CONTINUOUS
 62
     2
  5
6F9
 10
13197.17575
 20
3404.515417
 30
0.0
 11
13197.17575
 21
3405.172417
 31
0.0
  0
LINE
  8
1
  6
CONTINUOUS
 62
     2
  5
6FA
 10
13192.618
 20
3404.0635
 30
0.0
 11
13192.618
 21
3405.172417
 31
0.0
  0
LINE
  8
1
  6
CONTINUOUS
 62
     2
  5
6FB
 10
13192.618
 20
3404.995
 30
0.0
 11
13197.17575
 21
3404.995
 31
0.0
  0
LINE
  8
1
  6
HIDDEN
 62
   140
  5
6FC
 10
13196.827167
 20
3403.092417
 30
0.0
 11
13197.0225
 21
3403.092417
 31
0.0
  0
LINE
  8
1
  6
HIDDEN
 62
   140
  5
6FD
 10
13196.827167
 20
3402.841583
 30
0.0
 11
13197.0225
 21
3402.841583
 31
0.0
  0
LINE
  8
1
  6
HIDDEN
 62
   140
  5
6FE
 10
13197.0225
 20
3402.841583
 30
0.0
 11
13197.0225
 21
3403.092417
 31
0.0
  0
LINE
  8
1
  6
HIDDEN
 62
   140
  5
6FF
 10
13196.827167
 20
3403.092417
 30
0.0
 11
13196.827167
 21
3402.841583
 31
0.0
  0
LINE
  8
1
  6
CONTINUOUS
 62
     2
  5
700
 10
13196.517
 20
3407.14175
 30
0.0
 11
13196.313583
 21
3407.14175
 31
0.0
  0
LINE
  8
1
  6
CONTINUOUS
 62
     2
  5
701
 10
13201.9685
 20
3404.391833
 30
0.0
 11
13199.267667
 21
3404.391833
 31
0.0
  0
LINE
  8
1
  6
CONTINUOUS
 62
     2
  5
702
 10
13201.9685
 20
3404.391833
 30
0.0
 11
13202.044417
 21
3403.676333
 31
0.0
  0
POLYLINE
  8
1
  6
CONTINUOUS
 62
   140
  5
703
 66
     1
 10
0.0
 20
0.0
 30
0.0
210
0.0
220
0.0
230
1.0
  0
VERTEX
  8
1
  6
CONTINUOUS
 62
   140
  5
704
 10
13192.587917
 20
3408.063083
 30
0.0
  0
VERTEX
  8
1
  6
CONTINUOUS
 62
   140
  5
705
 10
13192.587917
 20
3408.03775
 30
0.0
  0
VERTEX
  8
1
  6
CONTINUOUS
 62
   140
  5
706
 10
13192.6475
 20
3408.03775
 30
0.0
  0
VERTEX
  8
1
  6
CONTINUOUS
 62
   140
  5
707
 10
13192.6475
 20
3408.063083
 30
0.0
  0
SEQEND
  8
1
  6
CONTINUOUS
 62
   140
  5
708
  0
LINE
  8
1
  6
CONTINUOUS
 62
   140
  5
709
 10
13192.553167
 20
3408.590167
 30
0.0
 11
13193.091
 21
3408.590167
 31
0.0
  0
LINE
  8
1
  6
CONTINUOUS
 62
   140
  5
70A
 10
13193.091
 20
3408.590167
 30
0.0
 11
13193.091
 21
3408.566917
 31
0.0
  0
LINE
  8
1
  6
CONTINUOUS
 62
   140
  5
70B
 10
13192.553167
 20
3408.590167
 30
0.0
 11
13192.553167
 21
3408.566917
 31
0.0
  0
POLYLINE
  8
1
  6
CONTINUOUS
 62
   140
  5
70C
 66
     1
 10
0.0
 20
0.0
 30
0.0
210
0.0
220
0.0
230
1.0
  0
VERTEX
  8
1
  6
CONTINUOUS
 62
   140
  5
70D
 10
13192.65275
 20
3408.595583
 30
0.0
  0
VERTEX
  8
1
  6
CONTINUOUS
 62
   140
  5
70E
 10
13192.65275
 20
3408.621
 30
0.0
  0
VERTEX
  8
1
  6
CONTINUOUS
 62
   140
  5
70F
 10
13192.593333
 20
3408.621
 30
0.0
  0
VERTEX
  8
1
  6
CONTINUOUS
 62
   140
  5
710
 10
13192.593333
 20
3408.595583
 30
0.0
  0
SEQEND
  8
1
  6
CONTINUOUS
 62
   140
  5
711
  0
POLYLINE
  8
1
  6
CONTINUOUS
 62
   140
  5
712
 66
     1
 10
0.0
 20
0.0
 30
0.0
210
0.0
220
0.0
230
1.0
  0
VERTEX
  8
1
  6
CONTINUOUS
 62
   140
  5
713
 10
13192.862917
 20
3408.592917
 30
0.0
  0
VERTEX
  8
1
  6
CONTINUOUS
 62
   140
  5
714
 10
13192.862917
 20
3408.619083
 30
0.0
  0
VERTEX
  8
1
  6
CONTINUOUS
 62
   140
  5
715
 10
13192.803333
 20
3408.619083
 30
0.0
  0
VERTEX
  8
1
  6
CONTINUOUS
 62
   140
  5
716
 10
13192.803333
 20
3408.592917
 30
0.0
  0
SEQEND
  8
1
  6
CONTINUOUS
 62
   140
  5
717
  0
POLYLINE
  8
1
  6
CONTINUOUS
 62
   140
  5
718
 66
     1
 10
0.0
 20
0.0
 30
0.0
210
0.0
220
0.0
230
1.0
  0
VERTEX
  8
1
  6
CONTINUOUS
 62
   140
  5
719
 10
13193.058917
 20
3408.592333
 30
0.0
  0
VERTEX
  8
1
  6
CONTINUOUS
 62
   140
  5
71A
 10
13193.058917
 20
3408.617667
 30
0.0
  0
VERTEX
  8
1
  6
CONTINUOUS
 62
   140
  5
71B
 10
13193.000083
 20
3408.617667
 30
0.0
  0
VERTEX
  8
1
  6
CONTINUOUS
 62
   140
  5
71C
 10
13193.000083
 20
3408.592333
 30
0.0
  0
SEQEND
  8
1
  6
CONTINUOUS
 62
   140
  5
71D
  0
LINE
  8
1
  6
HIDDEN
 62
   140
  5
71E
 10
13193.048833
 20
3408.060417
 30
0.0
 11
13193.048833
 21
3408.562917
 31
0.0
  0
LINE
  8
1
  6
HIDDEN
 62
   140
  5
71F
 10
13193.013417
 20
3408.067083
 30
0.0
 11
13193.013417
 21
3408.566917
 31
0.0
  0
LINE
  8
1
  6
HIDDEN
 62
   140
  5
720
 10
13192.846167
 20
3408.06525
 30
0.0
 11
13192.846167
 21
3408.567583
 31
0.0
  0
LINE
  8
1
  6
HIDDEN
 62
   140
  5
721
 10
13192.810667
 20
3408.071167
 30
0.0
 11
13192.810667
 21
3408.5715
 31
0.0
  0
LINE
  8
1
  6
HIDDEN
 62
   140
  5
722
 10
13192.6355
 20
3408.063083
 30
0.0
 11
13192.6355
 21
3408.565667
 31
0.0
  0
LINE
  8
1
  6
HIDDEN
 62
   140
  5
723
 10
13192.59925
 20
3408.06925
 30
0.0
 11
13192.59925
 21
3408.569583
 31
0.0
  0
LINE
  8
1
  6
CONTINUOUS
 62
   140
  5
724
 10
13192.506333
 20
3408.063083
 30
0.0
 11
13192.6735
 21
3408.063083
 31
0.0
  0
POLYLINE
  8
1
  6
CONTINUOUS
 62
   140
  5
725
 66
     1
 10
0.0
 20
0.0
 30
0.0
210
0.0
220
0.0
230
1.0
  0
VERTEX
  8
1
  6
CONTINUOUS
 62
   140
  5
726
 10
13192.673596
 20
3408.063203
 30
0.0
 42
0.039162
  0
VERTEX
  8
1
  6
CONTINUOUS
 62
   140
  5
727
 10
13192.912517
 20
3407.963444
 30
0.0
 42
0.039294
  0
VERTEX
  8
1
  6
CONTINUOUS
 62
   140
  5
728
 10
13193.163665
 20
3407.902336
 30
0.0
 42
0.039294
  0
SEQEND
  8
1
  6
CONTINUOUS
 62
   140
  5
729
  0
LINE
  8
1
  6
CONTINUOUS
 62
     2
  5
72A
 10
13194.809333
 20
3409.436333
 30
0.0
 11
13195.128583
 21
3409.436333
 31
0.0
  0
LINE
  8
1
  6
CONTINUOUS
 62
     2
  5
72B
 10
13195.128583
 20
3409.436333
 30
0.0
 11
13193.058917
 21
3408.617667
 31
0.0
  0
TEXT
  8
1
  6
CONTINUOUS
 62
   140
  5
72C
 10
13197.41125
 20
3408.38575
 30
0.0
 40
0.133
  1
1
  7
MONOTXT
210
0.0
220
0.0
230
1.0
  0
LINE
  8
1
  6
CONTINUOUS
 62
   140
  5
72D
 10
13191.350333
 20
3409.102
 30
0.0
 11
13197.180417
 21
3409.102
 31
0.0
  0
LINE
  8
1
  6
CONTINUOUS
 62
   140
  5
72E
 10
13191.350333
 20
3407.53
 30
0.0
 11
13196.594417
 21
3407.53
 31
0.0
  0
CIRCLE
  8
1
  6
CONTINUOUS
 62
   140
  5
72F
 10
13196.871366
 20
3407.842395
 30
0.0
 40
0.167243
210
0.0
220
0.0
230
1.0
  0
LINE
  8
1
  6
CONTINUOUS
 62
   140
  5
730
 10
13196.890167
 20
3407.673167
 30
0.0
 11
13193.281083
 21
3408.06525
 31
0.0
  0
LINE
  8
1
  6
CONTINUOUS
 62
   140
  5
731
 10
13211.326417
 20
3407.675167
 30
0.0
 11
13196.871333
 21
3407.675167
 31
0.0
  0
LINE
  8
1
  6
CONTINUOUS
 62
   140
  5
732
 10
13198.076833
 20
3408.573
 30
0.0
 11
13197.742333
 21
3408.12675
 31
0.0
  0
LINE
  8
1
  6
CONTINUOUS
 62
   140
  5
733
 10
13197.742333
 20
3408.573
 30
0.0
 11
13198.076833
 21
3408.12675
 31
0.0
  0
POLYLINE
  8
1
  6
CONTINUOUS
 62
   140
  5
734
 66
     1
 10
0.0
 20
0.0
 30
0.0
210
0.0
220
0.0
230
1.0
  0
VERTEX
  8
1
  6
CONTINUOUS
 62
   140
  5
735
 10
13197.93975
 20
3408.573
 30
0.0
  0
VERTEX
  8
1
  6
CONTINUOUS
 62
   140
  5
736
 10
13197.93975
 20
3408.59825
 30
0.0
  0
VERTEX
  8
1
  6
CONTINUOUS
 62
   140
  5
737
 10
13197.880167
 20
3408.59825
 30
0.0
  0
VERTEX
  8
1
  6
CONTINUOUS
 62
   140
  5
738
 10
13197.880167
 20
3408.573
 30
0.0
  0
SEQEND
  8
1
  6
CONTINUOUS
 62
   140
  5
739
  0
POLYLINE
  8
1
  6
CONTINUOUS
 62
   140
  5
73A
 66
     1
 10
0.0
 20
0.0
 30
0.0
210
0.0
220
0.0
230
1.0
  0
VERTEX
  8
1
  6
CONTINUOUS
 62
   140
  5
73B
 10
13197.927083
 20
3408.59825
 30
0.0
  0
VERTEX
  8
1
  6
CONTINUOUS
 62
   140
  5
73C
 10
13197.927083
 20
3408.63575
 30
0.0
  0
VERTEX
  8
1
  6
CONTINUOUS
 62
   140
  5
73D
 10
13197.892333
 20
3408.63575
 30
0.0
  0
VERTEX
  8
1
  6
CONTINUOUS
 62
   140
  5
73E
 10
13197.892333
 20
3408.59825
 30
0.0
  0
SEQEND
  8
1
  6
CONTINUOUS
 62
   140
  5
73F
  0
POLYLINE
  8
1
  6
CONTINUOUS
 62
   140
  5
740
 66
     1
 10
0.0
 20
0.0
 30
0.0
210
0.0
220
0.0
230
1.0
  0
VERTEX
  8
1
  6
CONTINUOUS
 62
   140
  5
741
 10
13197.9095
 20
3408.12675
 30
0.0
  0
VERTEX
  8
1
  6
CONTINUOUS
 62
   140
  5
742
 10
13197.9585
 20
3408.12675
 30
0.0
  0
VERTEX
  8
1
  6
CONTINUOUS
 62
   140
  5
743
 10
13198.076833
 20
3408.12675
 30
0.0
  0
VERTEX
  8
1
  6
CONTINUOUS
 62
   140
  5
744
 10
13198.076833
 20
3408.573
 30
0.0
  0
VERTEX
  8
1
  6
CONTINUOUS
 62
   140
  5
745
 10
13197.742333
 20
3408.573
 30
0.0
  0
VERTEX
  8
1
  6
CONTINUOUS
 62
   140
  5
746
 10
13197.742333
 20
3408.12675
 30
0.0
  0
VERTEX
  8
1
  6
CONTINUOUS
 62
   140
  5
747
 10
13197.9095
 20
3408.12675
 30
0.0
  0
SEQEND
  8
1
  6
CONTINUOUS
 62
   140
  5
748
  0
LINE
  8
1
  6
CONTINUOUS
 62
   140
  5
749
 10
13198.076833
 20
3408.12675
 30
0.0
 11
13197.742333
 21
3407.6805
 31
0.0
  0
LINE
  8
1
  6
CONTINUOUS
 62
   140
  5
74A
 10
13198.076833
 20
3407.6805
 30
0.0
 11
13197.742333
 21
3408.12675
 31
0.0
  0
POLYLINE
  8
1
  6
CONTINUOUS
 62
   140
  5
74B
 66
     1
 10
0.0
 20
0.0
 30
0.0
210
0.0
220
0.0
230
1.0
  0
VERTEX
  8
1
  6
CONTINUOUS
 62
   140
  5
74C
 10
13197.9095
 20
3407.6805
 30
0.0
  0
VERTEX
  8
1
  6
CONTINUOUS
 62
   140
  5
74D
 10
13197.9585
 20
3407.6805
 30
0.0
  0
VERTEX
  8
1
  6
CONTINUOUS
 62
   140
  5
74E
 10
13198.076833
 20
3407.6805
 30
0.0
  0
VERTEX
  8
1
  6
CONTINUOUS
 62
   140
  5
74F
 10
13198.076833
 20
3408.12675
 30
0.0
  0
VERTEX
  8
1
  6
CONTINUOUS
 62
   140
  5
750
 10
13197.742333
 20
3408.12675
 30
0.0
  0
VERTEX
  8
1
  6
CONTINUOUS
 62
   140
  5
751
 10
13197.742333
 20
3407.6805
 30
0.0
  0
VERTEX
  8
1
  6
CONTINUOUS
 62
   140
  5
752
 10
13197.9095
 20
3407.6805
 30
0.0
  0
SEQEND
  8
1
  6
CONTINUOUS
 62
   140
  5
753
  0
POLYLINE
  8
1
  6
CONTINUOUS
 62
   140
  5
754
 66
     1
 10
0.0
 20
0.0
 30
0.0
210
0.0
220
0.0
230
1.0
  0
VERTEX
  8
1
  6
CONTINUOUS
 62
   140
  5
755
 10
13198.955167
 20
3408.12675
 30
0.0
  0
VERTEX
  8
1
  6
CONTINUOUS
 62
   140
  5
756
 10
13199.004
 20
3408.12675
 30
0.0
  0
VERTEX
  8
1
  6
CONTINUOUS
 62
   140
  5
757
 10
13199.1225
 20
3408.12675
 30
0.0
  0
VERTEX
  8
1
  6
CONTINUOUS
 62
   140
  5
758
 10
13199.1225
 20
3408.573
 30
0.0
  0
VERTEX
  8
1
  6
CONTINUOUS
 62
   140
  5
759
 10
13198.788
 20
3408.573
 30
0.0
  0
VERTEX
  8
1
  6
CONTINUOUS
 62
   140
  5
75A
 10
13198.788
 20
3408.12675
 30
0.0
  0
VERTEX
  8
1
  6
CONTINUOUS
 62
   140
  5
75B
 10
13198.955167
 20
3408.12675
 30
0.0
  0
SEQEND
  8
1
  6
CONTINUOUS
 62
   140
  5
75C
  0
POLYLINE
  8
1
  6
CONTINUOUS
 62
   140
  5
75D
 66
     1
 10
0.0
 20
0.0
 30
0.0
210
0.0
220
0.0
230
1.0
  0
VERTEX
  8
1
  6
CONTINUOUS
 62
   140
  5
75E
 10
13198.984667
 20
3408.573
 30
0.0
  0
VERTEX
  8
1
  6
CONTINUOUS
 62
   140
  5
75F
 10
13198.984667
 20
3408.59825
 30
0.0
  0
VERTEX
  8
1
  6
CONTINUOUS
 62
   140
  5
760
 10
13198.925
 20
3408.59825
 30
0.0
  0
VERTEX
  8
1
  6
CONTINUOUS
 62
   140
  5
761
 10
13198.925
 20
3408.573
 30
0.0
  0
SEQEND
  8
1
  6
CONTINUOUS
 62
   140
  5
762
  0
POLYLINE
  8
1
  6
CONTINUOUS
 62
   140
  5
763
 66
     1
 10
0.0
 20
0.0
 30
0.0
210
0.0
220
0.0
230
1.0
  0
VERTEX
  8
1
  6
CONTINUOUS
 62
   140
  5
764
 10
13198.972583
 20
3408.59825
 30
0.0
  0
VERTEX
  8
1
  6
CONTINUOUS
 62
   140
  5
765
 10
13198.972583
 20
3408.63575
 30
0.0
  0
VERTEX
  8
1
  6
CONTINUOUS
 62
   140
  5
766
 10
13198.937667
 20
3408.63575
 30
0.0
  0
VERTEX
  8
1
  6
CONTINUOUS
 62
   140
  5
767
 10
13198.937667
 20
3408.59825
 30
0.0
  0
SEQEND
  8
1
  6
CONTINUOUS
 62
   140
  5
768
  0
LINE
  8
1
  6
CONTINUOUS
 62
   140
  5
769
 10
13199.1225
 20
3408.573
 30
0.0
 11
13198.788
 21
3408.12675
 31
0.0
  0
LINE
  8
1
  6
CONTINUOUS
 62
   140
  5
76A
 10
13198.788
 20
3408.573
 30
0.0
 11
13199.1225
 21
3408.12675
 31
0.0
  0
LINE
  8
1
  6
CONTINUOUS
 62
   140
  5
76B
 10
13199.1225
 20
3408.12675
 30
0.0
 11
13198.788
 21
3407.6805
 31
0.0
  0
LINE
  8
1
  6
CONTINUOUS
 62
   140
  5
76C
 10
13199.1225
 20
3407.6805
 30
0.0
 11
13198.788
 21
3408.12675
 31
0.0
  0
POLYLINE
  8
1
  6
CONTINUOUS
 62
   140
  5
76D
 66
     1
 10
0.0
 20
0.0
 30
0.0
210
0.0
220
0.0
230
1.0
  0
VERTEX
  8
1
  6
CONTINUOUS
 62
   140
  5
76E
 10
13198.955167
 20
3407.6805
 30
0.0
  0
VERTEX
  8
1
  6
CONTINUOUS
 62
   140
  5
76F
 10
13199.004
 20
3407.6805
 30
0.0
  0
VERTEX
  8
1
  6
CONTINUOUS
 62
   140
  5
770
 10
13199.1225
 20
3407.6805
 30
0.0
  0
VERTEX
  8
1
  6
CONTINUOUS
 62
   140
  5
771
 10
13199.1225
 20
3408.12675
 30
0.0
  0
VERTEX
  8
1
  6
CONTINUOUS
 62
   140
  5
772
 10
13198.788
 20
3408.12675
 30
0.0
  0
VERTEX
  8
1
  6
CONTINUOUS
 62
   140
  5
773
 10
13198.788
 20
3407.6805
 30
0.0
  0
VERTEX
  8
1
  6
CONTINUOUS
 62
   140
  5
774
 10
13198.955167
 20
3407.6805
 30
0.0
  0
SEQEND
  8
1
  6
CONTINUOUS
 62
   140
  5
775
  0
POLYLINE
  8
1
  6
CONTINUOUS
 62
   140
  5
776
 66
     1
 10
0.0
 20
0.0
 30
0.0
210
0.0
220
0.0
230
1.0
  0
VERTEX
  8
1
  6
CONTINUOUS
 62
   140
  5
777
 10
13200.0175
 20
3408.59825
 30
0.0
  0
VERTEX
  8
1
  6
CONTINUOUS
 62
   140
  5
778
 10
13200.0175
 20
3408.63575
 30
0.0
  0
VERTEX
  8
1
  6
CONTINUOUS
 62
   140
  5
779
 10
13199.982667
 20
3408.63575
 30
0.0
  0
VERTEX
  8
1
  6
CONTINUOUS
 62
   140
  5
77A
 10
13199.982667
 20
3408.59825
 30
0.0
  0
SEQEND
  8
1
  6
CONTINUOUS
 62
   140
  5
77B
  0
POLYLINE
  8
1
  6
CONTINUOUS
 62
   140
  5
77C
 66
     1
 10
0.0
 20
0.0
 30
0.0
210
0.0
220
0.0
230
1.0
  0
VERTEX
  8
1
  6
CONTINUOUS
 62
   140
  5
77D
 10
13200.03025
 20
3408.573
 30
0.0
  0
VERTEX
  8
1
  6
CONTINUOUS
 62
   140
  5
77E
 10
13200.03025
 20
3408.59825
 30
0.0
  0
VERTEX
  8
1
  6
CONTINUOUS
 62
   140
  5
77F
 10
13199.97075
 20
3408.59825
 30
0.0
  0
VERTEX
  8
1
  6
CONTINUOUS
 62
   140
  5
780
 10
13199.97075
 20
3408.573
 30
0.0
  0
SEQEND
  8
1
  6
CONTINUOUS
 62
   140
  5
781
  0
LINE
  8
1
  6
CONTINUOUS
 62
   140
  5
782
 10
13200.167417
 20
3408.573
 30
0.0
 11
13199.832917
 21
3408.12675
 31
0.0
  0
LINE
  8
1
  6
CONTINUOUS
 62
   140
  5
783
 10
13199.832917
 20
3408.573
 30
0.0
 11
13200.167417
 21
3408.12675
 31
0.0
  0
POLYLINE
  8
1
  6
CONTINUOUS
 62
   140
  5
784
 66
     1
 10
0.0
 20
0.0
 30
0.0
210
0.0
220
0.0
230
1.0
  0
VERTEX
  8
1
  6
CONTINUOUS
 62
   140
  5
785
 10
13200.000083
 20
3408.12675
 30
0.0
  0
VERTEX
  8
1
  6
CONTINUOUS
 62
   140
  5
786
 10
13200.049
 20
3408.12675
 30
0.0
  0
VERTEX
  8
1
  6
CONTINUOUS
 62
   140
  5
787
 10
13200.167417
 20
3408.12675
 30
0.0
  0
VERTEX
  8
1
  6
CONTINUOUS
 62
   140
  5
788
 10
13200.167417
 20
3408.573
 30
0.0
  0
VERTEX
  8
1
  6
CONTINUOUS
 62
   140
  5
789
 10
13199.832917
 20
3408.573
 30
0.0
  0
VERTEX
  8
1
  6
CONTINUOUS
 62
   140
  5
78A
 10
13199.832917
 20
3408.12675
 30
0.0
  0
VERTEX
  8
1
  6
CONTINUOUS
 62
   140
  5
78B
 10
13200.000083
 20
3408.12675
 30
0.0
  0
SEQEND
  8
1
  6
CONTINUOUS
 62
   140
  5
78C
  0
LINE
  8
1
  6
CONTINUOUS
 62
   140
  5
78D
 10
13200.167417
 20
3408.12675
 30
0.0
 11
13199.832917
 21
3407.6805
 31
0.0
  0
LINE
  8
1
  6
CONTINUOUS
 62
   140
  5
78E
 10
13200.167417
 20
3407.6805
 30
0.0
 11
13199.832917
 21
3408.12675
 31
0.0
  0
POLYLINE
  8
1
  6
CONTINUOUS
 62
   140
  5
78F
 66
     1
 10
0.0
 20
0.0
 30
0.0
210
0.0
220
0.0
230
1.0
  0
VERTEX
  8
1
  6
CONTINUOUS
 62
   140
  5
790
 10
13200.000083
 20
3407.6805
 30
0.0
  0
VERTEX
  8
1
  6
CONTINUOUS
 62
   140
  5
791
 10
13200.049
 20
3407.6805
 30
0.0
  0
VERTEX
  8
1
  6
CONTINUOUS
 62
   140
  5
792
 10
13200.167417
 20
3407.6805
 30
0.0
  0
VERTEX
  8
1
  6
CONTINUOUS
 62
   140
  5
793
 10
13200.167417
 20
3408.12675
 30
0.0
  0
VERTEX
  8
1
  6
CONTINUOUS
 62
   140
  5
794
 10
13199.832917
 20
3408.12675
 30
0.0
  0
VERTEX
  8
1
  6
CONTINUOUS
 62
   140
  5
795
 10
13199.832917
 20
3407.6805
 30
0.0
  0
VERTEX
  8
1
  6
CONTINUOUS
 62
   140
  5
796
 10
13200.000083
 20
3407.6805
 30
0.0
  0
SEQEND
  8
1
  6
CONTINUOUS
 62
   140
  5
797
  0
LINE
  8
1
  6
CONTINUOUS
 62
   140
  5
798
 10
13197.257583
 20
3409.34275
 30
0.0
 11
13197.79275
 21
3409.34275
 31
0.0
  0
INSERT
  8
1
  6
CONTINUOUS
 62
   140
  5
7AB
  2
ARWHD
 10
13197.79275
 20
3409.34275
 30
0.0
 41
16.055344
 42
16.055344
210
0.0
220
0.0
230
1.0
  0
LINE
  8
1
  6
CONTINUOUS
 62
   140
  5
7AC
 10
13197.257583
 20
3407.168583
 30
0.0
 11
13197.79275
 21
3407.168583
 31
0.0
  0
INSERT
  8
1
  6
CONTINUOUS
 62
   140
  5
7AD
  2
ARWHD
 10
13197.79275
 20
3407.168583
 30
0.0
 41
16.055344
 42
16.055344
210
0.0
220
0.0
230
1.0
  0
LINE
  8
1
  6
CONTINUOUS
 62
   140
  5
7AE
 10
13197.257583
 20
3407.168583
 30
0.0
 11
13197.257583
 21
3409.34275
 31
0.0
  0
LINE
  8
1
  6
CONTINUOUS
 62
   140
  5
7AF
 10
13197.907667
 20
3408.125333
 30
0.0
 11
13197.505917
 21
3408.125333
 31
0.0
  0
LINE
  8
1
  6
CONTINUOUS
 62
   140
  5
7B0
 10
13198.951167
 20
3408.128667
 30
0.0
 11
13198.64425
 21
3408.128667
 31
0.0
  0
LINE
  8
1
  6
CONTINUOUS
 62
   140
  5
7B1
 10
13200.002167
 20
3408.128
 30
0.0
 11
13199.68375
 21
3408.128
 31
0.0
  0
LINE
  8
1
  6
CONTINUOUS
 62
   140
  5
7B2
 10
13199.729333
 20
3408.131333
 30
0.0
 11
13199.729333
 21
3408.315417
 31
0.0
  0
LINE
  8
1
  6
CONTINUOUS
 62
   140
  5
7B3
 10
13199.724417
 20
3407.7535
 30
0.0
 11
13199.724417
 21
3407.954083
 31
0.0
  0
LINE
  8
1
  6
CONTINUOUS
 62
   140
  5
7B4
 10
13198.699667
 20
3408.128667
 30
0.0
 11
13198.699667
 21
3407.871167
 31
0.0
  0
LINE
  8
1
  6
CONTINUOUS
 62
   140
  5
7B5
 10
13197.555833
 20
3408.125333
 30
0.0
 11
13197.555833
 21
3407.77675
 31
0.0
  0
ARC
  8
1
  6
CONTINUOUS
 62
   140
  5
7B6
 10
13199.74788
 20
3408.337454
 30
0.0
 40
0.308814
 50
199.446942
 51
265.087811
210
0.0
220
0.0
230
1.0
  0
CIRCLE
  8
1
  6
CONTINUOUS
 62
   140
  5
7B7
 10
13197.461199
 20
3408.44583
 30
0.0
 40
0.181832
210
0.0
220
0.0
230
1.0
  0
TEXT
  8
1
  6
CONTINUOUS
 62
   140
  5
7B8
 10
13198.370667
 20
3408.35075
 30
0.0
 40
0.133
  1
2
  7
MONOTXT
210
0.0
220
0.0
230
1.0
  0
CIRCLE
  8
1
  6
CONTINUOUS
 62
   140
  5
7B9
 10
13198.399003
 20
3408.42898
 30
0.0
 40
0.181832
210
0.0
220
0.0
230
1.0
  0
TEXT
  8
1
  6
CONTINUOUS
 62
   140
  5
7BA
 10
13199.438917
 20
3408.3195
 30
0.0
 40
0.133
  1
3
  7
MONOTXT
210
0.0
220
0.0
230
1.0
  0
CIRCLE
  8
1
  6
CONTINUOUS
 62
   140
  5
7BB
 10
13199.493707
 20
3408.426159
 30
0.0
 40
0.181832
210
0.0
220
0.0
230
1.0
  0
LINE
  8
1
  6
CONTINUOUS
 62
   140
  5
7BC
 10
13199.8335
 20
3407.689083
 30
0.0
 11
13199.836167
 21
3407.689833
 31
0.0
  0
LINE
  8
1
  6
CONTINUOUS
 62
     2
  5
7BD
 10
13193.345833
 20
3407.782167
 30
0.0
 11
13193.345833
 21
3406.223417
 31
0.0
  0
LINE
  8
1
  6
CONTINUOUS
 62
   140
  5
7BE
 10
13211.326417
 20
3407.364083
 30
0.0
 11
13211.326417
 21
3407.5575
 31
0.0
  0
LINE
  8
1
  6
CONTINUOUS
 62
   140
  5
7BF
 10
13211.326417
 20
3407.620333
 30
0.0
 11
13211.326417
 21
3407.834333
 31
0.0
  0
LINE
  8
1
  6
CONTINUOUS
 62
   140
  5
7C0
 10
13211.326417
 20
3407.5575
 30
0.0
 11
13211.360667
 21
3407.588833
 31
0.0
  0
LINE
  8
1
  6
CONTINUOUS
 62
   140
  5
7C1
 10
13211.360667
 20
3407.588833
 30
0.0
 11
13211.266917
 21
3407.594167
 31
0.0
  0
LINE
  8
1
  6
CONTINUOUS
 62
   140
  5
7C2
 10
13211.266917
 20
3407.594167
 30
0.0
 11
13211.326417
 21
3407.620333
 31
0.0
  0
LINE
  8
1
  6
CONTINUOUS
 62
     2
  5
7C3
 10
13202.416417
 20
3406.223417
 30
0.0
 11
13202.416417
 21
3407.388917
 31
0.0
  0
TEXT
  8
1
  6
CONTINUOUS
 62
   241
  5
7C4
 10
13199.553833
 20
3410.1225
 30
0.0
 40
0.133
  1
5 spaces @ 1'-6 3/4 "
  7
MONOTXT
210
0.0
220
0.0
230
1.0
  0
LINE
  8
1
  6
CONTINUOUS
 62
     2
  5
7C5
 10
13196.871333
 20
3409.97375
 30
0.0
 11
13202.097333
 21
3409.97375
 31
0.0
  0
LINE
  8
1
  6
CONTINUOUS
 62
     2
  5
7C6
 10
13202.097333
 20
3409.97375
 30
0.0
 11
13210.456167
 21
3409.97375
 31
0.0
  0
LINE
  8
1
  6
CONTINUOUS
 62
   140
  5
7C7
 10
13209.08275
 20
3406.78875
 30
0.0
 11
13209.08275
 21
3408.962917
 31
0.0
  0
LINE
  8
1
  6
CONTINUOUS
 62
   140
  5
7C8
 10
13209.08275
 20
3408.962917
 30
0.0
 11
13209.617917
 21
3408.962917
 31
0.0
  0
INSERT
  8
1
  6
CONTINUOUS
 62
   140
  5
7C9
  2
ARWHD
 10
13209.617917
 20
3408.962917
 30
0.0
 41
16.055344
 42
16.055344
210
0.0
220
0.0
230
1.0
  0
INSERT
  8
1
  6
CONTINUOUS
 62
   140
  5
7CA
  2
ARWHD
 10
13209.617917
 20
3406.78875
 30
0.0
 41
16.055344
 42
16.055344
210
0.0
220
0.0
230
1.0
  0
LINE
  8
1
  6
CONTINUOUS
 62
   140
  5
7CB
 10
13209.08275
 20
3406.78875
 30
0.0
 11
13209.617917
 21
3406.78875
 31
0.0
  0
POLYLINE
  8
1
  6
CONTINUOUS
 62
   140
  5
7CC
 66
     1
 10
0.0
 20
0.0
 30
0.0
210
0.0
220
0.0
230
1.0
  0
VERTEX
  8
1
  6
CONTINUOUS
 62
   140
  5
7CD
 10
13202.108167
 20
3408.59825
 30
0.0
  0
VERTEX
  8
1
  6
CONTINUOUS
 62
   140
  5
7CE
 10
13202.108167
 20
3408.63575
 30
0.0
  0
VERTEX
  8
1
  6
CONTINUOUS
 62
   140
  5
7CF
 10
13202.07325
 20
3408.63575
 30
0.0
  0
VERTEX
  8
1
  6
CONTINUOUS
 62
   140
  5
7D0
 10
13202.07325
 20
3408.59825
 30
0.0
  0
SEQEND
  8
1
  6
CONTINUOUS
 62
   140
  5
7D1
  0
POLYLINE
  8
1
  6
CONTINUOUS
 62
   140
  5
7D2
 66
     1
 10
0.0
 20
0.0
 30
0.0
210
0.0
220
0.0
230
1.0
  0
VERTEX
  8
1
  6
CONTINUOUS
 62
   140
  5
7D3
 10
13202.12025
 20
3408.573
 30
0.0
  0
VERTEX
  8
1
  6
CONTINUOUS
 62
   140
  5
7D4
 10
13202.12025
 20
3408.59825
 30
0.0
  0
VERTEX
  8
1
  6
CONTINUOUS
 62
   140
  5
7D5
 10
13202.060583
 20
3408.59825
 30
0.0
  0
VERTEX
  8
1
  6
CONTINUOUS
 62
   140
  5
7D6
 10
13202.060583
 20
3408.573
 30
0.0
  0
SEQEND
  8
1
  6
CONTINUOUS
 62
   140
  5
7D7
  0
LINE
  8
1
  6
CONTINUOUS
 62
   140
  5
7D8
 10
13201.923417
 20
3408.573
 30
0.0
 11
13202.257917
 21
3408.12675
 31
0.0
  0
LINE
  8
1
  6
CONTINUOUS
 62
   140
  5
7D9
 10
13202.257917
 20
3408.573
 30
0.0
 11
13201.923417
 21
3408.12675
 31
0.0
  0
POLYLINE
  8
1
  6
CONTINUOUS
 62
   140
  5
7DA
 66
     1
 10
0.0
 20
0.0
 30
0.0
210
0.0
220
0.0
230
1.0
  0
VERTEX
  8
1
  6
CONTINUOUS
 62
   140
  5
7DB
 10
13202.090667
 20
3408.12675
 30
0.0
  0
VERTEX
  8
1
  6
CONTINUOUS
 62
   140
  5
7DC
 10
13202.139583
 20
3408.12675
 30
0.0
  0
VERTEX
  8
1
  6
CONTINUOUS
 62
   140
  5
7DD
 10
13202.257917
 20
3408.12675
 30
0.0
  0
VERTEX
  8
1
  6
CONTINUOUS
 62
   140
  5
7DE
 10
13202.257917
 20
3408.573
 30
0.0
  0
VERTEX
  8
1
  6
CONTINUOUS
 62
   140
  5
7DF
 10
13201.923417
 20
3408.573
 30
0.0
  0
VERTEX
  8
1
  6
CONTINUOUS
 62
   140
  5
7E0
 10
13201.923417
 20
3408.12675
 30
0.0
  0
VERTEX
  8
1
  6
CONTINUOUS
 62
   140
  5
7E1
 10
13202.090667
 20
3408.12675
 30
0.0
  0
SEQEND
  8
1
  6
CONTINUOUS
 62
   140
  5
7E2
  0
LINE
  8
1
  6
CONTINUOUS
 62
   140
  5
7E3
 10
13202.257917
 20
3407.6805
 30
0.0
 11
13201.923417
 21
3408.12675
 31
0.0
  0
LINE
  8
1
  6
CONTINUOUS
 62
   140
  5
7E4
 10
13202.257917
 20
3408.12675
 30
0.0
 11
13201.923417
 21
3407.6805
 31
0.0
  0
POLYLINE
  8
1
  6
CONTINUOUS
 62
   140
  5
7E5
 66
     1
 10
0.0
 20
0.0
 30
0.0
210
0.0
220
0.0
230
1.0
  0
VERTEX
  8
1
  6
CONTINUOUS
 62
   140
  5
7E6
 10
13202.090667
 20
3407.6805
 30
0.0
  0
VERTEX
  8
1
  6
CONTINUOUS
 62
   140
  5
7E7
 10
13202.139583
 20
3407.6805
 30
0.0
  0
VERTEX
  8
1
  6
CONTINUOUS
 62
   140
  5
7E8
 10
13202.257917
 20
3407.6805
 30
0.0
  0
VERTEX
  8
1
  6
CONTINUOUS
 62
   140
  5
7E9
 10
13202.257917
 20
3408.12675
 30
0.0
  0
VERTEX
  8
1
  6
CONTINUOUS
 62
   140
  5
7EA
 10
13201.923417
 20
3408.12675
 30
0.0
  0
VERTEX
  8
1
  6
CONTINUOUS
 62
   140
  5
7EB
 10
13201.923417
 20
3407.6805
 30
0.0
  0
VERTEX
  8
1
  6
CONTINUOUS
 62
   140
  5
7EC
 10
13202.090667
 20
3407.6805
 30
0.0
  0
SEQEND
  8
1
  6
CONTINUOUS
 62
   140
  5
7ED
  0
POLYLINE
  8
1
  6
CONTINUOUS
 62
   140
  5
7EE
 66
     1
 10
0.0
 20
0.0
 30
0.0
210
0.0
220
0.0
230
1.0
  0
VERTEX
  8
1
  6
CONTINUOUS
 62
   140
  5
7EF
 10
13204.197333
 20
3408.59825
 30
0.0
  0
VERTEX
  8
1
  6
CONTINUOUS
 62
   140
  5
7F0
 10
13204.197333
 20
3408.63575
 30
0.0
  0
VERTEX
  8
1
  6
CONTINUOUS
 62
   140
  5
7F1
 10
13204.1625
 20
3408.63575
 30
0.0
  0
VERTEX
  8
1
  6
CONTINUOUS
 62
   140
  5
7F2
 10
13204.1625
 20
3408.59825
 30
0.0
  0
SEQEND
  8
1
  6
CONTINUOUS
 62
   140
  5
7F3
  0
POLYLINE
  8
1
  6
CONTINUOUS
 62
   140
  5
7F4
 66
     1
 10
0.0
 20
0.0
 30
0.0
210
0.0
220
0.0
230
1.0
  0
VERTEX
  8
1
  6
CONTINUOUS
 62
   140
  5
7F5
 10
13204.181167
 20
3408.12675
 30
0.0
  0
VERTEX
  8
1
  6
CONTINUOUS
 62
   140
  5
7F6
 10
13204.230083
 20
3408.12675
 30
0.0
  0
VERTEX
  8
1
  6
CONTINUOUS
 62
   140
  5
7F7
 10
13204.348417
 20
3408.12675
 30
0.0
  0
VERTEX
  8
1
  6
CONTINUOUS
 62
   140
  5
7F8
 10
13204.348417
 20
3408.573
 30
0.0
  0
VERTEX
  8
1
  6
CONTINUOUS
 62
   140
  5
7F9
 10
13204.014
 20
3408.573
 30
0.0
  0
VERTEX
  8
1
  6
CONTINUOUS
 62
   140
  5
7FA
 10
13204.014
 20
3408.12675
 30
0.0
  0
VERTEX
  8
1
  6
CONTINUOUS
 62
   140
  5
7FB
 10
13204.181167
 20
3408.12675
 30
0.0
  0
SEQEND
  8
1
  6
CONTINUOUS
 62
   140
  5
7FC
  0
LINE
  8
1
  6
CONTINUOUS
 62
   140
  5
7FD
 10
13204.014
 20
3408.573
 30
0.0
 11
13204.348417
 21
3408.12675
 31
0.0
  0
LINE
  8
1
  6
CONTINUOUS
 62
   140
  5
7FE
 10
13204.348417
 20
3408.573
 30
0.0
 11
13204.014
 21
3408.12675
 31
0.0
  0
POLYLINE
  8
1
  6
CONTINUOUS
 62
   140
  5
7FF
 66
     1
 10
0.0
 20
0.0
 30
0.0
210
0.0
220
0.0
230
1.0
  0
VERTEX
  8
1
  6
CONTINUOUS
 62
   140
  5
800
 10
13204.209333
 20
3408.573
 30
0.0
  0
VERTEX
  8
1
  6
CONTINUOUS
 62
   140
  5
801
 10
13204.209333
 20
3408.59825
 30
0.0
  0
VERTEX
  8
1
  6
CONTINUOUS
 62
   140
  5
802
 10
13204.149833
 20
3408.59825
 30
0.0
  0
VERTEX
  8
1
  6
CONTINUOUS
 62
   140
  5
803
 10
13204.149833
 20
3408.573
 30
0.0
  0
SEQEND
  8
1
  6
CONTINUOUS
 62
   140
  5
804
  0
LINE
  8
1
  6
CONTINUOUS
 62
   140
  5
805
 10
13204.348417
 20
3407.6805
 30
0.0
 11
13204.014
 21
3408.12675
 31
0.0
  0
LINE
  8
1
  6
CONTINUOUS
 62
   140
  5
806
 10
13204.348417
 20
3408.12675
 30
0.0
 11
13204.014
 21
3407.6805
 31
0.0
  0
POLYLINE
  8
1
  6
CONTINUOUS
 62
   140
  5
807
 66
     1
 10
0.0
 20
0.0
 30
0.0
210
0.0
220
0.0
230
1.0
  0
VERTEX
  8
1
  6
CONTINUOUS
 62
   140
  5
808
 10
13204.181167
 20
3407.6805
 30
0.0
  0
VERTEX
  8
1
  6
CONTINUOUS
 62
   140
  5
809
 10
13204.230083
 20
3407.6805
 30
0.0
  0
VERTEX
  8
1
  6
CONTINUOUS
 62
   140
  5
80A
 10
13204.348417
 20
3407.6805
 30
0.0
  0
VERTEX
  8
1
  6
CONTINUOUS
 62
   140
  5
80B
 10
13204.348417
 20
3408.12675
 30
0.0
  0
VERTEX
  8
1
  6
CONTINUOUS
 62
   140
  5
80C
 10
13204.014
 20
3408.12675
 30
0.0
  0
VERTEX
  8
1
  6
CONTINUOUS
 62
   140
  5
80D
 10
13204.014
 20
3407.6805
 30
0.0
  0
VERTEX
  8
1
  6
CONTINUOUS
 62
   140
  5
80E
 10
13204.181167
 20
3407.6805
 30
0.0
  0
SEQEND
  8
1
  6
CONTINUOUS
 62
   140
  5
80F
  0
LINE
  8
1
  6
CONTINUOUS
 62
   140
  5
810
 10
13206.104417
 20
3408.573
 30
0.0
 11
13206.438917
 21
3408.12675
 31
0.0
  0
LINE
  8
1
  6
CONTINUOUS
 62
   140
  5
811
 10
13206.438917
 20
3408.573
 30
0.0
 11
13206.104417
 21
3408.12675
 31
0.0
  0
POLYLINE
  8
1
  6
CONTINUOUS
 62
   140
  5
812
 66
     1
 10
0.0
 20
0.0
 30
0.0
210
0.0
220
0.0
230
1.0
  0
VERTEX
  8
1
  6
CONTINUOUS
 62
   140
  5
813
 10
13206.27175
 20
3408.12675
 30
0.0
  0
VERTEX
  8
1
  6
CONTINUOUS
 62
   140
  5
814
 10
13206.320583
 20
3408.12675
 30
0.0
  0
VERTEX
  8
1
  6
CONTINUOUS
 62
   140
  5
815
 10
13206.438917
 20
3408.12675
 30
0.0
  0
VERTEX
  8
1
  6
CONTINUOUS
 62
   140
  5
816
 10
13206.438917
 20
3408.573
 30
0.0
  0
VERTEX
  8
1
  6
CONTINUOUS
 62
   140
  5
817
 10
13206.104417
 20
3408.573
 30
0.0
  0
VERTEX
  8
1
  6
CONTINUOUS
 62
   140
  5
818
 10
13206.104417
 20
3408.12675
 30
0.0
  0
VERTEX
  8
1
  6
CONTINUOUS
 62
   140
  5
819
 10
13206.27175
 20
3408.12675
 30
0.0
  0
SEQEND
  8
1
  6
CONTINUOUS
 62
   140
  5
81A
  0
LINE
  8
1
  6
CONTINUOUS
 62
   140
  5
81B
 10
13206.438917
 20
3408.12675
 30
0.0
 11
13206.104417
 21
3407.6805
 31
0.0
  0
LINE
  8
1
  6
CONTINUOUS
 62
   140
  5
81C
 10
13206.438917
 20
3407.6805
 30
0.0
 11
13206.104417
 21
3408.12675
 31
0.0
  0
POLYLINE
  8
1
  6
CONTINUOUS
 62
   140
  5
81D
 66
     1
 10
0.0
 20
0.0
 30
0.0
210
0.0
220
0.0
230
1.0
  0
VERTEX
  8
1
  6
CONTINUOUS
 62
   140
  5
81E
 10
13206.27175
 20
3407.6805
 30
0.0
  0
VERTEX
  8
1
  6
CONTINUOUS
 62
   140
  5
81F
 10
13206.320583
 20
3407.6805
 30
0.0
  0
VERTEX
  8
1
  6
CONTINUOUS
 62
   140
  5
820
 10
13206.438917
 20
3407.6805
 30
0.0
  0
VERTEX
  8
1
  6
CONTINUOUS
 62
   140
  5
821
 10
13206.438917
 20
3408.12675
 30
0.0
  0
VERTEX
  8
1
  6
CONTINUOUS
 62
   140
  5
822
 10
13206.104417
 20
3408.12675
 30
0.0
  0
VERTEX
  8
1
  6
CONTINUOUS
 62
   140
  5
823
 10
13206.104417
 20
3407.6805
 30
0.0
  0
VERTEX
  8
1
  6
CONTINUOUS
 62
   140
  5
824
 10
13206.27175
 20
3407.6805
 30
0.0
  0
SEQEND
  8
1
  6
CONTINUOUS
 62
   140
  5
825
  0
POLYLINE
  8
1
  6
CONTINUOUS
 62
   140
  5
826
 66
     1
 10
0.0
 20
0.0
 30
0.0
210
0.0
220
0.0
230
1.0
  0
VERTEX
  8
1
  6
CONTINUOUS
 62
   140
  5
827
 10
13208.379667
 20
3408.59825
 30
0.0
  0
VERTEX
  8
1
  6
CONTINUOUS
 62
   140
  5
828
 10
13208.379667
 20
3408.63575
 30
0.0
  0
VERTEX
  8
1
  6
CONTINUOUS
 62
   140
  5
829
 10
13208.344833
 20
3408.63575
 30
0.0
  0
VERTEX
  8
1
  6
CONTINUOUS
 62
   140
  5
82A
 10
13208.344833
 20
3408.59825
 30
0.0
  0
SEQEND
  8
1
  6
CONTINUOUS
 62
   140
  5
82B
  0
POLYLINE
  8
1
  6
CONTINUOUS
 62
   140
  5
82C
 66
     1
 10
0.0
 20
0.0
 30
0.0
210
0.0
220
0.0
230
1.0
  0
VERTEX
  8
1
  6
CONTINUOUS
 62
   140
  5
82D
 10
13208.391833
 20
3408.573
 30
0.0
  0
VERTEX
  8
1
  6
CONTINUOUS
 62
   140
  5
82E
 10
13208.391833
 20
3408.59825
 30
0.0
  0
VERTEX
  8
1
  6
CONTINUOUS
 62
   140
  5
82F
 10
13208.332917
 20
3408.59825
 30
0.0
  0
VERTEX
  8
1
  6
CONTINUOUS
 62
   140
  5
830
 10
13208.332917
 20
3408.573
 30
0.0
  0
SEQEND
  8
1
  6
CONTINUOUS
 62
   140
  5
831
  0
LINE
  8
1
  6
CONTINUOUS
 62
   140
  5
832
 10
13208.195
 20
3408.573
 30
0.0
 11
13208.5295
 21
3408.12675
 31
0.0
  0
LINE
  8
1
  6
CONTINUOUS
 62
   140
  5
833
 10
13208.5295
 20
3408.573
 30
0.0
 11
13208.195
 21
3408.12675
 31
0.0
  0
POLYLINE
  8
1
  6
CONTINUOUS
 62
   140
  5
834
 66
     1
 10
0.0
 20
0.0
 30
0.0
210
0.0
220
0.0
230
1.0
  0
VERTEX
  8
1
  6
CONTINUOUS
 62
   140
  5
835
 10
13208.36225
 20
3408.12675
 30
0.0
  0
VERTEX
  8
1
  6
CONTINUOUS
 62
   140
  5
836
 10
13208.411167
 20
3408.12675
 30
0.0
  0
VERTEX
  8
1
  6
CONTINUOUS
 62
   140
  5
837
 10
13208.5295
 20
3408.12675
 30
0.0
  0
VERTEX
  8
1
  6
CONTINUOUS
 62
   140
  5
838
 10
13208.5295
 20
3408.573
 30
0.0
  0
VERTEX
  8
1
  6
CONTINUOUS
 62
   140
  5
839
 10
13208.195
 20
3408.573
 30
0.0
  0
VERTEX
  8
1
  6
CONTINUOUS
 62
   140
  5
83A
 10
13208.195
 20
3408.12675
 30
0.0
  0
VERTEX
  8
1
  6
CONTINUOUS
 62
   140
  5
83B
 10
13208.36225
 20
3408.12675
 30
0.0
  0
SEQEND
  8
1
  6
CONTINUOUS
 62
   140
  5
83C
  0
LINE
  8
1
  6
CONTINUOUS
 62
   140
  5
83D
 10
13208.5295
 20
3407.6805
 30
0.0
 11
13208.195
 21
3408.12675
 31
0.0
  0
LINE
  8
1
  6
CONTINUOUS
 62
   140
  5
83E
 10
13208.5295
 20
3408.12675
 30
0.0
 11
13208.195
 21
3407.6805
 31
0.0
  0
POLYLINE
  8
1
  6
CONTINUOUS
 62
   140
  5
83F
 66
     1
 10
0.0
 20
0.0
 30
0.0
210
0.0
220
0.0
230
1.0
  0
VERTEX
  8
1
  6
CONTINUOUS
 62
   140
  5
840
 10
13208.36225
 20
3407.6805
 30
0.0
  0
VERTEX
  8
1
  6
CONTINUOUS
 62
   140
  5
841
 10
13208.411167
 20
3407.6805
 30
0.0
  0
VERTEX
  8
1
  6
CONTINUOUS
 62
   140
  5
842
 10
13208.5295
 20
3407.6805
 30
0.0
  0
VERTEX
  8
1
  6
CONTINUOUS
 62
   140
  5
843
 10
13208.5295
 20
3408.12675
 30
0.0
  0
VERTEX
  8
1
  6
CONTINUOUS
 62
   140
  5
844
 10
13208.195
 20
3408.12675
 30
0.0
  0
VERTEX
  8
1
  6
CONTINUOUS
 62
   140
  5
845
 10
13208.195
 20
3407.6805
 30
0.0
  0
VERTEX
  8
1
  6
CONTINUOUS
 62
   140
  5
846
 10
13208.36225
 20
3407.6805
 30
0.0
  0
SEQEND
  8
1
  6
CONTINUOUS
 62
   140
  5
847
  0
POLYLINE
  8
1
  6
CONTINUOUS
 62
   140
  5
848
 66
     1
 10
0.0
 20
0.0
 30
0.0
210
0.0
220
0.0
230
1.0
  0
VERTEX
  8
1
  6
CONTINUOUS
 62
   140
  5
849
 10
13210.47025
 20
3408.59825
 30
0.0
  0
VERTEX
  8
1
  6
CONTINUOUS
 62
   140
  5
84A
 10
13210.47025
 20
3408.63575
 30
0.0
  0
VERTEX
  8
1
  6
CONTINUOUS
 62
   140
  5
84B
 10
13210.435417
 20
3408.63575
 30
0.0
  0
VERTEX
  8
1
  6
CONTINUOUS
 62
   140
  5
84C
 10
13210.435417
 20
3408.59825
 30
0.0
  0
SEQEND
  8
1
  6
CONTINUOUS
 62
   140
  5
84D
  0
POLYLINE
  8
1
  6
CONTINUOUS
 62
   140
  5
84E
 66
     1
 10
0.0
 20
0.0
 30
0.0
210
0.0
220
0.0
230
1.0
  0
VERTEX
  8
1
  6
CONTINUOUS
 62
   140
  5
84F
 10
13210.482333
 20
3408.573
 30
0.0
  0
VERTEX
  8
1
  6
CONTINUOUS
 62
   140
  5
850
 10
13210.482333
 20
3408.59825
 30
0.0
  0
VERTEX
  8
1
  6
CONTINUOUS
 62
   140
  5
851
 10
13210.4235
 20
3408.59825
 30
0.0
  0
VERTEX
  8
1
  6
CONTINUOUS
 62
   140
  5
852
 10
13210.4235
 20
3408.573
 30
0.0
  0
SEQEND
  8
1
  6
CONTINUOUS
 62
   140
  5
853
  0
LINE
  8
1
  6
CONTINUOUS
 62
   140
  5
854
 10
13210.285583
 20
3408.573
 30
0.0
 11
13210.62
 21
3408.12675
 31
0.0
  0
LINE
  8
1
  6
CONTINUOUS
 62
   140
  5
855
 10
13210.62
 20
3408.573
 30
0.0
 11
13210.285583
 21
3408.12675
 31
0.0
  0
POLYLINE
  8
1
  6
CONTINUOUS
 62
   140
  5
856
 66
     1
 10
0.0
 20
0.0
 30
0.0
210
0.0
220
0.0
230
1.0
  0
VERTEX
  8
1
  6
CONTINUOUS
 62
   140
  5
857
 10
13210.452833
 20
3408.12675
 30
0.0
  0
VERTEX
  8
1
  6
CONTINUOUS
 62
   140
  5
858
 10
13210.501667
 20
3408.12675
 30
0.0
  0
VERTEX
  8
1
  6
CONTINUOUS
 62
   140
  5
859
 10
13210.62
 20
3408.12675
 30
0.0
  0
VERTEX
  8
1
  6
CONTINUOUS
 62
   140
  5
85A
 10
13210.62
 20
3408.573
 30
0.0
  0
VERTEX
  8
1
  6
CONTINUOUS
 62
   140
  5
85B
 10
13210.285583
 20
3408.573
 30
0.0
  0
VERTEX
  8
1
  6
CONTINUOUS
 62
   140
  5
85C
 10
13210.285583
 20
3408.12675
 30
0.0
  0
VERTEX
  8
1
  6
CONTINUOUS
 62
   140
  5
85D
 10
13210.452833
 20
3408.12675
 30
0.0
  0
SEQEND
  8
1
  6
CONTINUOUS
 62
   140
  5
85E
  0
LINE
  8
1
  6
CONTINUOUS
 62
   140
  5
85F
 10
13210.62
 20
3407.6805
 30
0.0
 11
13210.285583
 21
3408.12675
 31
0.0
  0
LINE
  8
1
  6
CONTINUOUS
 62
   140
  5
860
 10
13210.62
 20
3408.12675
 30
0.0
 11
13210.285583
 21
3407.6805
 31
0.0
  0
POLYLINE
  8
1
  6
CONTINUOUS
 62
   140
  5
861
 66
     1
 10
0.0
 20
0.0
 30
0.0
210
0.0
220
0.0
230
1.0
  0
VERTEX
  8
1
  6
CONTINUOUS
 62
   140
  5
862
 10
13210.452833
 20
3407.6805
 30
0.0
  0
VERTEX
  8
1
  6
CONTINUOUS
 62
   140
  5
863
 10
13210.501667
 20
3407.6805
 30
0.0
  0
VERTEX
  8
1
  6
CONTINUOUS
 62
   140
  5
864
 10
13210.62
 20
3407.6805
 30
0.0
  0
VERTEX
  8
1
  6
CONTINUOUS
 62
   140
  5
865
 10
13210.62
 20
3408.12675
 30
0.0
  0
VERTEX
  8
1
  6
CONTINUOUS
 62
   140
  5
866
 10
13210.285583
 20
3408.12675
 30
0.0
  0
VERTEX
  8
1
  6
CONTINUOUS
 62
   140
  5
867
 10
13210.285583
 20
3407.6805
 30
0.0
  0
VERTEX
  8
1
  6
CONTINUOUS
 62
   140
  5
868
 10
13210.452833
 20
3407.6805
 30
0.0
  0
SEQEND
  8
1
  6
CONTINUOUS
 62
   140
  5
869
  0
LINE
  8
1
  6
CONTINUOUS
 62
   140
  5
86A
 10
13200.75475
 20
3407.835083
 30
0.0
 11
13200.75475
 21
3408.044417
 31
0.0
  0
LINE
  8
1
  6
CONTINUOUS
 62
   140
  5
86B
 10
13204.347083
 20
3408.12675
 30
0.0
 11
13204.348417
 21
3408.12675
 31
0.0
  0
TEXT
  8
1
  6
CONTINUOUS
 62
   241
  5
86C
 10
13211.428
 20
3409.987
 30
0.0
 40
0.133
  1
Guardrail
  7
MONOTXT
210
0.0
220
0.0
230
1.0
  0
TEXT
  8
1
  6
CONTINUOUS
 62
   241
  5
86D
 10
13211.514333
 20
3409.78975
 30
0.0
 40
0.133
  1
Section
  7
MONOTXT
210
0.0
220
0.0
230
1.0
  0
POLYLINE
  8
1
  6
CONTINUOUS
 62
   140
  5
86E
 66
     1
 10
0.0
 20
0.0
 30
0.0
210
0.0
220
0.0
230
1.0
  0
VERTEX
  8
1
  6
CONTINUOUS
 62
   140
  5
86F
 10
13206.293833
 20
3408.581
 30
0.0
  0
VERTEX
  8
1
  6
CONTINUOUS
 62
   140
  5
870
 10
13206.293833
 20
3408.607083
 30
0.0
  0
VERTEX
  8
1
  6
CONTINUOUS
 62
   140
  5
871
 10
13206.23425
 20
3408.607083
 30
0.0
  0
VERTEX
  8
1
  6
CONTINUOUS
 62
   140
  5
872
 10
13206.23425
 20
3408.581
 30
0.0
  0
SEQEND
  8
1
  6
CONTINUOUS
 62
   140
  5
873
  0
POLYLINE
  8
1
  6
CONTINUOUS
 62
   140
  5
874
 66
     1
 10
0.0
 20
0.0
 30
0.0
210
0.0
220
0.0
230
1.0
  0
VERTEX
  8
1
  6
CONTINUOUS
 62
   140
  5
875
 10
13206.281167
 20
3408.607083
 30
0.0
  0
VERTEX
  8
1
  6
CONTINUOUS
 62
   140
  5
876
 10
13206.281167
 20
3408.643833
 30
0.0
  0
VERTEX
  8
1
  6
CONTINUOUS
 62
   140
  5
877
 10
13206.246333
 20
3408.643833
 30
0.0
  0
VERTEX
  8
1
  6
CONTINUOUS
 62
   140
  5
878
 10
13206.246333
 20
3408.607083
 30
0.0
  0
SEQEND
  8
1
  6
CONTINUOUS
 62
   140
  5
879
  0
LINE
  8
1
  6
CONTINUOUS
 62
     2
  5
87A
 10
13202.097333
 20
3408.730833
 30
0.0
 11
13202.097333
 21
3410.124167
 31
0.0
  0
TEXT
  8
1
  6
CONTINUOUS
 62
   241
  5
87B
 10
13206.199583
 20
3410.078167
 30
0.0
 40
0.133
  1
4 spaces @ 3'-1  1/2 "
  7
MONOTXT
210
0.0
220
0.0
230
1.0
  0
LINE
  8
1
  6
CONTINUOUS
 62
     2
  5
87C
 10
13210.456167
 20
3408.730833
 30
0.0
 11
13210.456167
 21
3410.124167
 31
0.0
  0
POLYLINE
  8
1
  6
CONTINUOUS
 62
   140
  5
87D
 66
     1
 10
0.0
 20
0.0
 30
0.0
210
0.0
220
0.0
230
1.0
  0
VERTEX
  8
1
  6
CONTINUOUS
 62
   140
  5
87E
 10
13201.0625
 20
3408.59825
 30
0.0
  0
VERTEX
  8
1
  6
CONTINUOUS
 62
   140
  5
87F
 10
13201.0625
 20
3408.63575
 30
0.0
  0
VERTEX
  8
1
  6
CONTINUOUS
 62
   140
  5
880
 10
13201.027667
 20
3408.63575
 30
0.0
  0
VERTEX
  8
1
  6
CONTINUOUS
 62
   140
  5
881
 10
13201.027667
 20
3408.59825
 30
0.0
  0
SEQEND
  8
1
  6
CONTINUOUS
 62
   140
  5
882
  0
POLYLINE
  8
1
  6
CONTINUOUS
 62
   140
  5
883
 66
     1
 10
0.0
 20
0.0
 30
0.0
210
0.0
220
0.0
230
1.0
  0
VERTEX
  8
1
  6
CONTINUOUS
 62
   140
  5
884
 10
13201.074417
 20
3408.573
 30
0.0
  0
VERTEX
  8
1
  6
CONTINUOUS
 62
   140
  5
885
 10
13201.074417
 20
3408.59825
 30
0.0
  0
VERTEX
  8
1
  6
CONTINUOUS
 62
   140
  5
886
 10
13201.014917
 20
3408.59825
 30
0.0
  0
VERTEX
  8
1
  6
CONTINUOUS
 62
   140
  5
887
 10
13201.014917
 20
3408.573
 30
0.0
  0
SEQEND
  8
1
  6
CONTINUOUS
 62
   140
  5
888
  0
LINE
  8
1
  6
CONTINUOUS
 62
   140
  5
889
 10
13200.877917
 20
3408.573
 30
0.0
 11
13201.212417
 21
3408.12675
 31
0.0
  0
LINE
  8
1
  6
CONTINUOUS
 62
   140
  5
88A
 10
13201.212417
 20
3408.573
 30
0.0
 11
13200.877917
 21
3408.12675
 31
0.0
  0
POLYLINE
  8
1
  6
CONTINUOUS
 62
   140
  5
88B
 66
     1
 10
0.0
 20
0.0
 30
0.0
210
0.0
220
0.0
230
1.0
  0
VERTEX
  8
1
  6
CONTINUOUS
 62
   140
  5
88C
 10
13201.045083
 20
3408.12675
 30
0.0
  0
VERTEX
  8
1
  6
CONTINUOUS
 62
   140
  5
88D
 10
13201.093917
 20
3408.12675
 30
0.0
  0
VERTEX
  8
1
  6
CONTINUOUS
 62
   140
  5
88E
 10
13201.212417
 20
3408.12675
 30
0.0
  0
VERTEX
  8
1
  6
CONTINUOUS
 62
   140
  5
88F
 10
13201.212417
 20
3408.573
 30
0.0
  0
VERTEX
  8
1
  6
CONTINUOUS
 62
   140
  5
890
 10
13200.877917
 20
3408.573
 30
0.0
  0
VERTEX
  8
1
  6
CONTINUOUS
 62
   140
  5
891
 10
13200.877917
 20
3408.12675
 30
0.0
  0
VERTEX
  8
1
  6
CONTINUOUS
 62
   140
  5
892
 10
13201.045083
 20
3408.12675
 30
0.0
  0
SEQEND
  8
1
  6
CONTINUOUS
 62
   140
  5
893
  0
LINE
  8
1
  6
CONTINUOUS
 62
   140
  5
894
 10
13201.212417
 20
3407.6805
 30
0.0
 11
13200.877917
 21
3408.12675
 31
0.0
  0
LINE
  8
1
  6
CONTINUOUS
 62
   140
  5
895
 10
13201.212417
 20
3408.12675
 30
0.0
 11
13200.877917
 21
3407.6805
 31
0.0
  0
POLYLINE
  8
1
  6
CONTINUOUS
 62
   140
  5
896
 66
     1
 10
0.0
 20
0.0
 30
0.0
210
0.0
220
0.0
230
1.0
  0
VERTEX
  8
1
  6
CONTINUOUS
 62
   140
  5
897
 10
13201.045083
 20
3407.6805
 30
0.0
  0
VERTEX
  8
1
  6
CONTINUOUS
 62
   140
  5
898
 10
13201.093917
 20
3407.6805
 30
0.0
  0
VERTEX
  8
1
  6
CONTINUOUS
 62
   140
  5
899
 10
13201.212417
 20
3407.6805
 30
0.0
  0
VERTEX
  8
1
  6
CONTINUOUS
 62
   140
  5
89A
 10
13201.212417
 20
3408.12675
 30
0.0
  0
VERTEX
  8
1
  6
CONTINUOUS
 62
   140
  5
89B
 10
13200.877917
 20
3408.12675
 30
0.0
  0
VERTEX
  8
1
  6
CONTINUOUS
 62
   140
  5
89C
 10
13200.877917
 20
3407.6805
 30
0.0
  0
VERTEX
  8
1
  6
CONTINUOUS
 62
   140
  5
89D
 10
13201.045083
 20
3407.6805
 30
0.0
  0
SEQEND
  8
1
  6
CONTINUOUS
 62
   140
  5
89E
  0
LINE
  8
1
  6
CONTINUOUS
 62
   140
  5
89F
 10
13201.069083
 20
3408.128
 30
0.0
 11
13200.755417
 21
3408.128
 31
0.0
  0
LINE
  8
1
  6
CONTINUOUS
 62
   140
  5
8A0
 10
13200.755417
 20
3408.128
 30
0.0
 11
13200.755417
 21
3408.296667
 31
0.0
  0
ARC
  8
1
  6
CONTINUOUS
 62
   140
  5
8A1
 10
13200.810126
 20
3408.451479
 30
0.0
 40
0.365991
 50
216.999683
 51
270.718344
210
0.0
220
0.0
230
1.0
  0
TEXT
  8
1
  6
CONTINUOUS
 62
   140
  5
8A2
 10
13200.435417
 20
3408.337583
 30
0.0
 40
0.133
  1
4
  7
MONOTXT
210
0.0
220
0.0
230
1.0
  0
CIRCLE
  8
1
  6
CONTINUOUS
 62
   140
  5
8A3
 10
13200.499503
 20
3408.409313
 30
0.0
 40
0.181832
210
0.0
220
0.0
230
1.0
  0
LINE
  8
1
  6
CONTINUOUS
 62
   140
  5
8A4
 10
13197.505917
 20
3407.77675
 30
0.0
 11
13197.907667
 21
3407.77675
 31
0.0
  0
LINE
  8
1
  6
CONTINUOUS
 62
   140
  5
8A5
 10
13198.64425
 20
3407.871167
 30
0.0
 11
13198.955167
 21
3407.871167
 31
0.0
  0
LINE
  8
1
  6
CONTINUOUS
 62
   140
  5
8A6
 10
13199.68375
 20
3407.954083
 30
0.0
 11
13200.000083
 21
3407.954083
 31
0.0
  0
LINE
  8
1
  6
CONTINUOUS
 62
   140
  5
8A7
 10
13200.755417
 20
3408.044417
 30
0.0
 11
13201.045083
 21
3408.044417
 31
0.0
  0
LINE
  8
1
  6
CONTINUOUS
 62
   140
  5
8A8
 10
13198.076833
 20
3407.792167
 30
0.0
 11
13198.788
 21
3407.85575
 31
0.0
  0
LINE
  8
1
  6
CONTINUOUS
 62
   140
  5
8A9
 10
13199.1225
 20
3407.884417
 30
0.0
 11
13199.832917
 21
3407.940833
 31
0.0
  0
LINE
  8
1
  6
CONTINUOUS
 62
   140
  5
8AA
 10
13200.167417
 20
3407.968917
 30
0.0
 11
13200.877917
 21
3408.029667
 31
0.0
  0
ARC
  8
1
  6
CONTINUOUS
 62
   140
  5
8AB
 10
13198.673153
 20
3408.273669
 30
0.0
 40
0.278661
 50
189.270103
 51
275.322031
210
0.0
220
0.0
230
1.0
  0
LINE
  8
1
  6
CONTINUOUS
 62
     2
  5
8AC
 10
13196.871333
 20
3408.135333
 30
0.0
 11
13196.871333
 21
3410.044667
 31
0.0
  0
ARC
  8
1
  6
CONTINUOUS
 62
   140
  5
8AD
 10
13197.584234
 20
3408.14915
 30
0.0
 40
0.203645
 50
152.786072
 51
260.810908
210
0.0
220
0.0
230
1.0
  0
LINE
  8
1
  6
CONTINUOUS
 62
     2
  5
8AE
 10
13196.70075
 20
3407.675167
 30
0.0
 11
13196.237917
 21
3407.675167
 31
0.0
  0
LINE
  8
1
  6
CONTINUOUS
 62
     2
  5
8AF
 10
13196.342167
 20
3407.675167
 30
0.0
 11
13196.342167
 21
3407.4075
 31
0.0
  0
LINE
  8
1
  6
CONTINUOUS
 62
     2
  5
8B0
 10
13196.342167
 20
3408.332833
 30
0.0
 11
13196.342167
 21
3408.06525
 31
0.0
  0
TEXT
  8
1
  6
CONTINUOUS
 62
   140
  5
8B1
 10
13196.056083
 20
3408.283833
 30
0.0
 40
0.133
  1
7"
  7
MONOTXT
210
0.0
220
0.0
230
1.0
  0
LINE
  8
1
  6
CONTINUOUS
 62
   140
  5
8B2
 10
13197.742333
 20
3407.7535
 30
0.0
 11
13197.180417
 21
3407.675167
 31
0.0
  0
LINE
  8
1
  6
CONTINUOUS
 62
   140
  5
8B3
 10
13198.076833
 20
3407.685167
 30
0.0
 11
13198.788
 21
3407.748667
 31
0.0
  0
LINE
  8
1
  6
CONTINUOUS
 62
   140
  5
8B4
 10
13199.1225
 20
3407.77675
 30
0.0
 11
13199.832917
 21
3407.833
 31
0.0
  0
LINE
  8
1
  6
CONTINUOUS
 62
   140
  5
8B5
 10
13200.167417
 20
3407.861833
 30
0.0
 11
13200.877917
 21
3407.92275
 31
0.0
  0
LINE
  8
1
  6
CONTINUOUS
 62
   140
  5
8B6
 10
13202.330917
 20
3408.025083
 30
0.0
 11
13202.304667
 21
3408.13
 31
0.0
  0
LINE
  8
1
  6
CONTINUOUS
 62
   140
  5
8B7
 10
13201.212417
 20
3407.948167
 30
0.0
 11
13201.923417
 21
3407.996167
 31
0.0
  0
LINE
  8
1
  6
CONTINUOUS
 62
   140
  5
8B8
 10
13202.330917
 20
3408.025083
 30
0.0
 11
13202.257917
 21
3408.018417
 31
0.0
  0
LINE
  8
1
  6
CONTINUOUS
 62
   140
  5
8B9
 10
13201.212417
 20
3408.055833
 30
0.0
 11
13201.923417
 21
3408.104
 31
0.0
  0
LINE
  8
1
  6
CONTINUOUS
 62
   140
  5
8BA
 10
13202.257917
 20
3408.12675
 30
0.0
 11
13202.304667
 21
3408.13
 31
0.0
  0
LINE
  8
1
  6
CONTINUOUS
 62
   140
  5
8BB
 10
13202.330917
 20
3408.025083
 30
0.0
 11
13204.1625
 21
3408.62125
 31
0.0
  0
LINE
  8
1
  6
CONTINUOUS
 62
   140
  5
8BC
 10
13191.350333
 20
3402.636917
 30
0.0
 11
13197.17575
 21
3402.636917
 31
0.0
  0
LINE
  8
1
  6
CONTINUOUS
 62
   140
  5
8BD
 10
13211.326417
 20
3407.493833
 30
0.0
 11
13196.871333
 21
3407.493833
 31
0.0
  0
LINE
  8
1
  6
CONTINUOUS
 62
   140
  5
8BE
 10
13196.871333
 20
3407.493833
 30
0.0
 11
13193.163917
 21
3407.902583
 31
0.0
  0
LINE
  8
1
  6
CONTINUOUS
 62
   140
  5
8BF
 10
13205.893167
 20
3403.976167
 30
0.0
 11
13193.305
 21
3403.976167
 31
0.0
  0
LINE
  8
1
  6
CONTINUOUS
 62
   140
  5
8C0
 10
13193.305
 20
3403.976167
 30
0.0
 11
13193.029417
 21
3403.970917
 31
0.0
  0
LINE
  8
1
  6
CONTINUOUS
 62
   140
  5
8C1
 10
13201.68525
 20
3407.493833
 30
0.0
 11
13201.68525
 21
3407.675167
 31
0.0
  0
LINE
  8
1
  6
CONTINUOUS
 62
   140
  5
8C2
 10
13210.114417
 20
3407.493833
 30
0.0
 11
13210.114417
 21
3407.675167
 31
0.0
  0
LINE
  8
1
  6
HIDDEN
 62
   140
  5
8C3
 10
13210.8455
 20
3407.493833
 30
0.0
 11
13210.8455
 21
3407.675167
 31
0.0
  0
LINE
  8
1
  6
HIDDEN
 62
   140
  5
8C4
 10
13193.345833
 20
3408.057833
 30
0.0
 11
13193.345833
 21
3407.882583
 31
0.0
  0
LINE
  8
1
  6
CONTINUOUS
 62
     2
  5
8C5
 10
13193.345833
 20
3406.35325
 30
0.0
 11
13202.416417
 21
3406.35325
 31
0.0
  0
LINE
  8
1
  6
DASHED
 62
   140
  5
8C6
 10
13197.17575
 20
3403.134667
 30
0.0
 11
13197.17575
 21
3402.800167
 31
0.0
  0
LINE
  8
1
  6
CONTINUOUS
 62
     2
  5
8C7
 10
13202.958
 20
3405.033583
 30
0.0
 11
13202.085083
 21
3402.990917
 31
0.0
  0
TEXT
  8
1
  6
CONTINUOUS
 62
     2
  5
8C8
 10
13190.6735
 20
3411.925833
 30
0.0
 40
0.24
  1
SECTION A-A
  7
ROMANS
210
0.0
220
0.0
230
1.0
  0
TEXT
  8
1
  6
CONTINUOUS
 62
   140
  5
8C9
 10
13197.94325
 20
3409.367417
 30
0.0
 40
0.133
  1
A
  7
MONOTXT
210
0.0
220
0.0
230
1.0
  0
TEXT
  8
1
  6
CONTINUOUS
 62
     2
  5
8CA
 10
13199.7335
 20
3411.772333
 30
0.0
 40
0.24
  1
SECTION B-B
  7
ROMANS
210
0.0
220
0.0
230
1.0
  0
TEXT
  8
1
  6
CONTINUOUS
 62
   140
  5
8CB
 10
13209.65675
 20
3408.903
 30
0.0
 40
0.133
  1
B
  7
MONOTXT
210
0.0
220
0.0
230
1.0
  0
TEXT
  8
1
  6
CONTINUOUS
 62
   140
  5
8CC
 10
13209.723083
 20
3406.715583
 30
0.0
 40
0.133
  1
B
  7
MONOTXT
210
0.0
220
0.0
230
1.0
  0
TEXT
  8
1
  6
CONTINUOUS
 62
   140
  5
8CD
 10
13197.89775
 20
3407.128083
 30
0.0
 40
0.133
  1
A
  7
MONOTXT
210
0.0
220
0.0
230
1.0
  0
TEXT
  8
1
  6
CONTINUOUS
 62
   241
  5
8CE
 10
13194.6565
 20
3405.125417
 30
0.0
 40
0.133
  1
6'-9 3/4 "
  7
MONOTXT
210
0.0
220
0.0
230
1.0
  0
CIRCLE
  8
1
  6
CONTINUOUS
 62
   140
  5
8CF
 10
13206.22231
 20
3403.643175
 30
0.0
 40
0.040071
210
0.0
220
0.0
230
1.0
  0
LINE
  8
1
  6
CONTINUOUS
 62
     2
  5
8D0
 10
13192.811
 20
3413.922917
 30
0.0
 11
13193.019
 21
3413.922917
 31
0.0
  0
LINE
  8
1
  6
CONTINUOUS
 62
     2
  5
8D1
 10
13192.811
 20
3413.922917
 30
0.0
 11
13192.235833
 21
3413.666
 31
0.0
  0
LINE
  8
1
  6
HIDDEN
 62
   140
  5
8D2
 10
13200.11925
 20
3402.465667
 30
0.0
 11
13200.11925
 21
3401.382167
 31
0.0
  0
LINE
  8
1
  6
HIDDEN
 62
   140
  5
8D3
 10
13199.784667
 20
3401.382167
 30
0.0
 11
13199.784667
 21
3402.465667
 31
0.0
  0
LINE
  8
1
  6
HIDDEN
 62
   140
  5
8D4
 10
13199.074333
 20
3402.465667
 30
0.0
 11
13199.074333
 21
3401.382167
 31
0.0
  0
LINE
  8
1
  6
HIDDEN
 62
   140
  5
8D5
 10
13198.739833
 20
3401.382167
 30
0.0
 11
13198.739833
 21
3402.465667
 31
0.0
  0
LINE
  8
1
  6
HIDDEN
 62
   140
  5
8D6
 10
13198.028667
 20
3402.465667
 30
0.0
 11
13198.028667
 21
3401.382167
 31
0.0
  0
LINE
  8
1
  6
HIDDEN
 62
   140
  5
8D7
 10
13197.694333
 20
3401.382167
 30
0.0
 11
13197.694333
 21
3402.465667
 31
0.0
  0
LINE
  8
1
  6
HIDDEN
 62
   140
  5
8D8
 10
13206.052917
 20
3401.388583
 30
0.0
 11
13206.052917
 21
3402.465667
 31
0.0
  0
LINE
  8
1
  6
HIDDEN
 62
   140
  5
8D9
 10
13206.387417
 20
3402.465667
 30
0.0
 11
13206.387417
 21
3401.388583
 31
0.0
  0
LINE
  8
1
  6
HIDDEN
 62
   140
  5
8DA
 10
13208.47125
 20
3402.465667
 30
0.0
 11
13208.47125
 21
3401.4725
 31
0.0
  0
LINE
  8
1
  6
HIDDEN
 62
   140
  5
8DB
 10
13208.13675
 20
3401.388583
 30
0.0
 11
13208.13675
 21
3402.465667
 31
0.0
  0
LINE
  8
1
  6
HIDDEN
 62
   140
  5
8DC
 10
13204.300333
 20
3402.465667
 30
0.0
 11
13204.300333
 21
3401.4485
 31
0.0
  0
LINE
  8
1
  6
HIDDEN
 62
   140
  5
8DD
 10
13203.96575
 20
3401.96025
 30
0.0
 11
13203.96575
 21
3402.465667
 31
0.0
  0
LINE
  8
1
  6
HIDDEN
 62
   140
  5
8DE
 10
13202.209833
 20
3402.465667
 30
0.0
 11
13202.209833
 21
3401.96025
 31
0.0
  0
LINE
  8
1
  6
HIDDEN
 62
   140
  5
8DF
 10
13201.87525
 20
3401.96025
 30
0.0
 11
13201.87525
 21
3402.465667
 31
0.0
  0
LINE
  8
1
  6
HIDDEN
 62
   140
  5
8E0
 10
13201.164083
 20
3402.465667
 30
0.0
 11
13201.164083
 21
3401.96025
 31
0.0
  0
LINE
  8
1
  6
HIDDEN
 62
   140
  5
8E1
 10
13200.829667
 20
3401.96025
 30
0.0
 11
13200.829667
 21
3402.465667
 31
0.0
  0
LINE
  8
1
  6
HIDDEN
 62
   140
  5
8E2
 10
13200.11925
 20
3400.94475
 30
0.0
 11
13200.11925
 21
3399.40925
 31
0.0
  0
LINE
  8
1
  6
HIDDEN
 62
   140
  5
8E3
 10
13199.784667
 20
3399.40925
 30
0.0
 11
13199.784667
 21
3400.812833
 31
0.0
  0
LINE
  8
1
  6
HIDDEN
 62
   140
  5
8E4
 10
13199.074333
 20
3400.836833
 30
0.0
 11
13199.074333
 21
3399.40925
 31
0.0
  0
LINE
  8
1
  6
HIDDEN
 62
   140
  5
8E5
 10
13198.739833
 20
3399.40925
 30
0.0
 11
13198.739833
 21
3400.836833
 31
0.0
  0
LINE
  8
1
  6
HIDDEN
 62
   140
  5
8E6
 10
13198.028667
 20
3400.824833
 30
0.0
 11
13198.028667
 21
3399.40925
 31
0.0
  0
LINE
  8
1
  6
HIDDEN
 62
   140
  5
8E7
 10
13197.694333
 20
3399.40925
 30
0.0
 11
13197.694333
 21
3400.860833
 31
0.0
  0
LINE
  8
1
  6
HIDDEN
 62
   140
  5
8E8
 10
13206.052917
 20
3400.015167
 30
0.0
 11
13206.052917
 21
3400.936417
 31
0.0
  0
LINE
  8
1
  6
HIDDEN
 62
   140
  5
8E9
 10
13206.387417
 20
3400.936417
 30
0.0
 11
13206.387417
 21
3400.015167
 31
0.0
  0
LINE
  8
1
  6
HIDDEN
 62
   140
  5
8EA
 10
13208.47125
 20
3400.936417
 30
0.0
 11
13208.47125
 21
3400.020583
 31
0.0
  0
LINE
  8
1
  6
HIDDEN
 62
   140
  5
8EB
 10
13208.13675
 20
3400.020583
 30
0.0
 11
13208.13675
 21
3400.936417
 31
0.0
  0
LINE
  8
1
  6
HIDDEN
 62
   140
  5
8EC
 10
13204.300333
 20
3400.936417
 30
0.0
 11
13204.300333
 21
3400.034
 31
0.0
  0
LINE
  8
1
  6
HIDDEN
 62
   140
  5
8ED
 10
13203.96575
 20
3400.034
 30
0.0
 11
13203.96575
 21
3400.936417
 31
0.0
  0
LINE
  8
1
  6
HIDDEN
 62
   140
  5
8EE
 10
13202.209833
 20
3400.896833
 30
0.0
 11
13202.209833
 21
3399.40925
 31
0.0
  0
LINE
  8
1
  6
HIDDEN
 62
   140
  5
8EF
 10
13201.87525
 20
3399.40925
 30
0.0
 11
13201.87525
 21
3400.872833
 31
0.0
  0
LINE
  8
1
  6
HIDDEN
 62
   140
  5
8F0
 10
13201.164083
 20
3400.920833
 30
0.0
 11
13201.164083
 21
3399.40925
 31
0.0
  0
LINE
  8
1
  6
HIDDEN
 62
   140
  5
8F1
 10
13200.829667
 20
3399.40925
 30
0.0
 11
13200.829667
 21
3400.896833
 31
0.0
  0
INSERT
  8
1
  6
CONTINUOUS
 62
     2
  5
8F2
  2
ARWHD
 10
13192.235833
 20
3413.666
 30
0.0
 41
10.703617
 42
10.703617
 50
204.069683
210
0.0
220
0.0
230
1.0
  0
INSERT
  8
1
  6
CONTINUOUS
 62
     2
  5
8F3
  2
ARWHD
 10
13193.561167
 20
3415.981333
 30
0.0
 41
10.70362
 42
10.70362
 50
270.0
210
0.0
220
0.0
230
1.0
  0
INSERT
  8
1
  6
CONTINUOUS
 62
     2
  5
8F4
  2
ARWHD
 10
13193.561167
 20
3417.11825
 30
0.0
 41
10.70362
 42
10.70362
 50
90.0
210
0.0
220
0.0
230
1.0
  0
INSERT
  8
1
  6
CONTINUOUS
 62
     2
  5
8F5
  2
ARWHD
 10
13192.837417
 20
3417.12475
 30
0.0
 41
10.703615
 42
10.703615
 50
246.925667
210
0.0
220
0.0
230
1.0
  0
INSERT
  8
1
  6
CONTINUOUS
 62
     2
  5
8F6
  2
ARWHD
 10
13192.235833
 20
3413.666
 30
0.0
 41
10.703617
 42
10.703617
 50
204.069683
210
0.0
220
0.0
230
1.0
  0
INSERT
  8
1
  6
CONTINUOUS
 62
     2
  5
8F7
  2
ARWHD
 10
13201.42925
 20
3416.494083
 30
0.0
 41
10.703615
 42
10.703615
 50
316.133428
210
0.0
220
0.0
230
1.0
  0
INSERT
  8
1
  6
CONTINUOUS
 62
     2
  5
8F8
  2
ARWHD
 10
13202.607667
 20
3416.37075
 30
0.0
 41
10.70362
 42
10.70362
 50
90.0
210
0.0
220
0.0
230
1.0
  0
INSERT
  8
1
  6
CONTINUOUS
 62
     2
  5
8F9
  2
ARWHD
 10
13202.607667
 20
3415.200083
 30
0.0
 41
10.70362
 42
10.70362
 50
270.0
210
0.0
220
0.0
230
1.0
  0
INSERT
  8
1
  6
CONTINUOUS
 62
     2
  5
8FA
  2
ARWHD
 10
13203.11025
 20
3415.122333
 30
0.0
 41
10.703615
 42
10.703615
 50
185.724465
210
0.0
220
0.0
230
1.0
  0
INSERT
  8
1
  6
CONTINUOUS
 62
     2
  5
8FB
  2
ARWHD
 10
13201.655
 20
3415.608083
 30
0.0
 41
10.703619
 42
10.703619
 50
94.165462
210
0.0
220
0.0
230
1.0
  0
INSERT
  8
1
  6
CONTINUOUS
 62
     2
  5
8FC
  2
ARWHD
 10
13201.382167
 20
3412.6935
 30
0.0
 41
10.703614
 42
10.703614
 50
208.024062
210
0.0
220
0.0
230
1.0
  0
INSERT
  8
1
  6
CONTINUOUS
 62
     2
  5
8FD
  2
ARWHD
 10
13196.871333
 20
3409.97375
 30
0.0
 41
10.70362
 42
10.70362
 50
180.0
210
0.0
220
0.0
230
1.0
  0
INSERT
  8
1
  6
CONTINUOUS
 62
     2
  5
8FE
  2
ARWHD
 10
13202.097333
 20
3409.97375
 30
0.0
 41
10.70362
 42
10.70362
210
0.0
220
0.0
230
1.0
  0
INSERT
  8
1
  6
CONTINUOUS
 62
     2
  5
8FF
  2
ARWHD
 10
13202.097333
 20
3409.97375
 30
0.0
 41
10.70362
 42
10.70362
 50
180.0
210
0.0
220
0.0
230
1.0
  0
INSERT
  8
1
  6
CONTINUOUS
 62
     2
  5
900
  2
ARWHD
 10
13202.416417
 20
3406.35325
 30
0.0
 41
10.70362
 42
10.70362
210
0.0
220
0.0
230
1.0
  0
INSERT
  8
1
  6
CONTINUOUS
 62
     2
  5
901
  2
ARWHD
 10
13193.345833
 20
3406.35325
 30
0.0
 41
10.70362
 42
10.70362
 50
180.0
210
0.0
220
0.0
230
1.0
  0
INSERT
  8
1
  6
CONTINUOUS
 62
     2
  5
902
  2
ARWHD
 10
13192.618
 20
3404.995
 30
0.0
 41
10.70362
 42
10.70362
 50
180.0
210
0.0
220
0.0
230
1.0
  0
INSERT
  8
1
  6
CONTINUOUS
 62
     2
  5
903
  2
ARWHD
 10
13196.342167
 20
3408.06525
 30
0.0
 41
10.70362
 42
10.70362
 50
270.0
210
0.0
220
0.0
230
1.0
  0
INSERT
  8
1
  6
CONTINUOUS
 62
     2
  5
904
  2
ARWHD
 10
13196.342167
 20
3407.675167
 30
0.0
 41
10.70362
 42
10.70362
 50
90.0
210
0.0
220
0.0
230
1.0
  0
INSERT
  8
1
  6
CONTINUOUS
 62
   140
  5
905
  2
ARWHD
 10
13197.555833
 20
3408.125333
 30
0.0
 41
10.70362
 42
10.70362
 50
90.0
210
0.0
220
0.0
230
1.0
  0
INSERT
  8
1
  6
CONTINUOUS
 62
   140
  5
906
  2
ARWHD
 10
13197.555833
 20
3407.77675
 30
0.0
 41
10.70362
 42
10.70362
 50
270.0
210
0.0
220
0.0
230
1.0
  0
INSERT
  8
1
  6
CONTINUOUS
 62
   140
  5
907
  2
ARWHD
 10
13198.699667
 20
3408.128667
 30
0.0
 41
10.70362
 42
10.70362
 50
90.0
210
0.0
220
0.0
230
1.0
  0
INSERT
  8
1
  6
CONTINUOUS
 62
   140
  5
908
  2
ARWHD
 10
13198.699667
 20
3407.871167
 30
0.0
 41
10.70362
 42
10.70362
 50
270.0
210
0.0
220
0.0
230
1.0
  0
INSERT
  8
1
  6
CONTINUOUS
 62
   140
  5
909
  2
ARWHD
 10
13199.729333
 20
3408.131333
 30
0.0
 41
10.70362
 42
10.70362
 50
270.0
210
0.0
220
0.0
230
1.0
  0
INSERT
  8
1
  6
CONTINUOUS
 62
   140
  5
90A
  2
ARWHD
 10
13199.724417
 20
3407.954083
 30
0.0
 41
10.70362
 42
10.70362
 50
90.0
210
0.0
220
0.0
230
1.0
  0
INSERT
  8
1
  6
CONTINUOUS
 62
   140
  5
90B
  2
ARWHD
 10
13200.755417
 20
3408.128
 30
0.0
 41
10.70362
 42
10.70362
 50
270.0
210
0.0
220
0.0
230
1.0
  0
INSERT
  8
1
  6
CONTINUOUS
 62
   140
  5
90C
  2
ARWHD
 10
13200.75475
 20
3408.044417
 30
0.0
 41
10.70362
 42
10.70362
 50
90.0
210
0.0
220
0.0
230
1.0
  0
INSERT
  8
1
  6
CONTINUOUS
 62
     2
  5
90D
  2
ARWHD
 10
13211.291667
 20
3409.97375
 30
0.0
 41
10.70362
 42
10.70362
210
0.0
220
0.0
230
1.0
  0
LINE
  8
1
  6
CONTINUOUS
 62
     2
  5
90E
 10
13211.291667
 20
3409.97375
 30
0.0
 11
13211.0635
 21
3409.97375
 31
0.0
  0
LINE
  8
1
  6
CONTINUOUS
 62
     2
  5
90F
 10
13210.456167
 20
3409.97375
 30
0.0
 11
13211.0635
 21
3409.97375
 31
0.0
  0
INSERT
  8
1
  6
CONTINUOUS
 62
     2
  5
910
  2
ARWHD
 10
13210.456167
 20
3409.97375
 30
0.0
 41
10.70362
 42
10.70362
210
0.0
220
0.0
230
1.0
  0
INSERT
  8
1
  6
CONTINUOUS
 62
     2
  5
911
  2
ARWHD
 10
13211.0635
 20
3409.97375
 30
0.0
 41
10.70362
 42
10.70362
210
0.0
220
0.0
230
1.0
  0
INSERT
  8
1
  6
CONTINUOUS
 62
     2
  5
912
  2
ARWHD
 10
13197.17575
 20
3404.995
 30
0.0
 41
10.70362
 42
10.70362
210
0.0
220
0.0
230
1.0
  0
INSERT
  8
1
  6
CONTINUOUS
 62
   140
  5
913
  2
ARWHD
 10
13197.179167
 20
3401.693
 30
0.0
 41
10.70362
 42
10.70362
210
0.0
220
0.0
230
1.0
  0
INSERT
  8
1
  6
CONTINUOUS
 62
     2
  5
914
  2
ARWHD
 10
13194.499917
 20
3401.693
 30
0.0
 41
10.70362
 42
10.70362
 50
180.0
210
0.0
220
0.0
230
1.0
  0
TEXT
  8
1
  6
CONTINUOUS
 62
   140
  5
915
 10
13195.03525
 20
3407.065417
 30
0.0
 40
0.133
  1
See Note 6
  7
MONOTXT
 72
     4
 11
13195.614917
 21
3407.131917
 31
0.0
210
0.0
220
0.0
230
1.0
  0
INSERT
  8
1
  6
CONTINUOUS
 62
     2
  5
916
  2
ARWHD
 10
13192.507917
 20
3403.973833
 30
0.0
 41
10.703617
 42
10.703617
 50
298.181253
210
0.0
220
0.0
230
1.0
  0
INSERT
  8
1
  6
CONTINUOUS
 62
     2
  5
917
  2
ARWHD
 10
13193.058917
 20
3408.617667
 30
0.0
 41
10.703617
 42
10.703617
 50
201.580488
210
0.0
220
0.0
230
1.0
  0
LINE
  8
1
  6
CONTINUOUS
 62
     2
  5
918
 10
13196.517
 20
3407.14175
 30
0.0
 11
13196.79575
 21
3407.693083
 31
0.0
  0
INSERT
  8
1
  6
CONTINUOUS
 62
     2
  5
919
  2
ARWHD
 10
13196.79575
 20
3407.693083
 30
0.0
 41
10.703619
 42
10.703619
 50
63.174542
210
0.0
220
0.0
230
1.0
  0
LINE
  8
1
  6
DASHED
 62
   140
  5
91A
 10
13197.17575
 20
3403.300583
 30
0.0
 11
13197.17575
 21
3403.986167
 31
0.0
  0
POLYLINE
  8
1
  6
CONTINUOUS
 62
   140
  5
91B
 66
     1
 10
0.0
 20
0.0
 30
0.0
210
0.0
220
0.0
230
1.0
  0
VERTEX
  8
1
  6
CONTINUOUS
 62
   140
  5
91C
 10
13196.887417
 20
3407.703833
 30
0.0
  0
VERTEX
  8
1
  6
CONTINUOUS
 62
   140
  5
91D
 10
13196.887417
 20
3407.739917
 30
0.0
  0
VERTEX
  8
1
  6
CONTINUOUS
 62
   140
  5
91E
 10
13196.852583
 20
3407.739917
 30
0.0
  0
VERTEX
  8
1
  6
CONTINUOUS
 62
   140
  5
91F
 10
13196.852583
 20
3407.703833
 30
0.0
  0
SEQEND
  8
1
  6
CONTINUOUS
 62
   140
  5
920
  0
POLYLINE
  8
1
  6
CONTINUOUS
 62
   140
  5
921
 66
     1
 10
0.0
 20
0.0
 30
0.0
210
0.0
220
0.0
230
1.0
  0
VERTEX
  8
1
  6
CONTINUOUS
 62
   140
  5
922
 10
13196.899583
 20
3407.67775
 30
0.0
  0
VERTEX
  8
1
  6
CONTINUOUS
 62
   140
  5
923
 10
13196.899583
 20
3407.703833
 30
0.0
  0
VERTEX
  8
1
  6
CONTINUOUS
 62
   140
  5
924
 10
13196.839917
 20
3407.703833
 30
0.0
  0
VERTEX
  8
1
  6
CONTINUOUS
 62
   140
  5
925
 10
13196.839917
 20
3407.67775
 30
0.0
  0
SEQEND
  8
1
  6
CONTINUOUS
 62
   140
  5
926
  0
LINE
  8
1
  6
CONTINUOUS
 62
   140
  5
927
 10
13202.304667
 20
3408.13
 30
0.0
 11
13204.240583
 21
3408.760167
 31
0.0
  0
LINE
  8
1
  6
CONTINUOUS
 62
   140
  5
928
 10
13204.240583
 20
3408.760167
 30
0.0
 11
13204.273917
 21
3408.657583
 31
0.0
  0
LINE
  8
1
  6
CONTINUOUS
 62
   140
  5
929
 10
13204.273917
 20
3408.657583
 30
0.0
 11
13204.197333
 21
3408.632417
 31
0.0
  0
INSERT
  8
1
  6
CONTINUOUS
 62
     2
  5
92A
  2
ARWHD
 10
13202.044417
 20
3403.676333
 30
0.0
 41
10.703621
 42
10.703621
 50
276.047569
210
0.0
220
0.0
230
1.0
  0
INSERT
  8
1
  6
CONTINUOUS
 62
     2
  5
92B
  2
ARWHD
 10
13202.085083
 20
3402.990917
 30
0.0
 41
10.70362
 42
10.70362
 50
246.861584
210
0.0
220
0.0
230
1.0
  0
LINE
  8
1
  6
HIDDEN
 62
   140
  5
92C
 10
13202.416417
 20
3407.675167
 30
0.0
 11
13202.416417
 21
3407.493833
 31
0.0
  0
LINE
  8
1
  6
DASHED
 62
   241
  5
92D
 10
13194.219583
 20
3403.300583
 30
0.0
 11
13194.219583
 21
3403.986167
 31
0.0
  0
TEXT
  8
1
  6
CONTINUOUS
 62
   241
  5
92E
 10
13194.93675
 20
3404.606833
 30
0.0
 40
0.133
  1
See Note 6
  7
MONOTXT
210
0.0
220
0.0
230
1.0
  0
TEXT
  8
1
  6
CONTINUOUS
 62
   241
  5
92F
 10
13195.312417
 20
3401.199
 30
0.0
 40
0.133
  1
See Note 7
  7
MONOTXT
210
0.0
220
0.0
230
1.0
  0
LINE
  8
5
  6
CONTINUOUS
 62
     2
  5
931
 10
13200.57275
 20
3401.733083
 30
0.0
 11
13200.349833
 21
3401.733083
 31
0.0
  0
LINE
  8
5
  6
CONTINUOUS
 62
     2
  5
932
 10
13200.349833
 20
3401.733083
 30
0.0
 11
13199.39575
 21
3402.798083
 31
0.0
  0
INSERT
  8
5
  6
CONTINUOUS
 62
     2
  5
933
  2
ARWHD
 10
13199.39575
 20
3402.798083
 30
0.0
 41
10.703615
 42
10.703615
 50
131.858237
210
0.0
220
0.0
230
1.0
  0
LINE
  8
5
  6
CONTINUOUS
 62
     2
  5
934
 10
13196.628167
 20
3401.231917
 30
0.0
 11
13196.85125
 21
3401.231917
 31
0.0
  0
LINE
  8
5
  6
CONTINUOUS
 62
     2
  5
935
 10
13196.85125
 20
3401.231917
 30
0.0
 11
13196.928667
 21
3402.823083
 31
0.0
  0
INSERT
  8
5
  6
CONTINUOUS
 62
     2
  5
936
  2
ARWHD
 10
13196.928667
 20
3402.823083
 30
0.0
 41
10.70362
 42
10.70362
 50
87.209837
210
0.0
220
0.0
230
1.0
  0
LINE
  8
1
  6
HIDDEN
 62
   140
  5
937
 10
13197.179167
 20
3400.498833
 30
0.0
 11
13196.578083
 21
3400.498833
 31
0.0
  0
LINE
  8
1
  6
HIDDEN
 62
   140
  5
938
 10
13192.207667
 20
3400.498833
 30
0.0
 11
13191.350333
 21
3400.498833
 31
0.0
  0
LINE
  8
5
  6
CONTINUOUS
 62
     2
  5
939
 10
13192.705333
 20
3400.768333
 30
0.0
 11
13191.79925
 21
3400.768333
 31
0.0
  0
LINE
  8
5
  6
CONTINUOUS
 62
     2
  5
93A
 10
13191.79925
 20
3400.768333
 30
0.0
 11
13194.536917
 21
3403.011
 31
0.0
  0
INSERT
  8
5
  6
CONTINUOUS
 62
     2
  5
93B
  2
ARWHD
 10
13194.536917
 20
3403.011
 30
0.0
 41
10.703616
 42
10.703616
 50
39.324657
210
0.0
220
0.0
230
1.0
  0
LINE
  8
5
  6
CONTINUOUS
 62
     2
  5
93C
 10
13196.233667
 20
3404.652167
 30
0.0
 11
13196.456833
 21
3404.652167
 31
0.0
  0
LINE
  8
5
  6
CONTINUOUS
 62
     2
  5
93D
 10
13196.456833
 20
3404.652167
 30
0.0
 11
13196.847333
 21
3403.925583
 31
0.0
  0
INSERT
  8
5
  6
CONTINUOUS
 62
     2
  5
93E
  2
ARWHD
 10
13196.847333
 20
3403.925583
 30
0.0
 41
10.703619
 42
10.703619
 50
298.259608
210
0.0
220
0.0
230
1.0
  0
POLYLINE
  8
5
  6
CONTINUOUS
 62
   241
  5
93F
 66
     1
 10
0.0
 20
0.0
 30
0.0
 70
     1
210
0.0
220
0.0
230
1.0
  0
VERTEX
  8
5
  6
CONTINUOUS
 62
   241
  5
940
 10
13199.8765
 20
3402.902333
 30
0.0
  0
VERTEX
  8
5
  6
CONTINUOUS
 62
   241
  5
941
 10
13200.065167
 20
3402.902333
 30
0.0
  0
VERTEX
  8
5
  6
CONTINUOUS
 62
   241
  5
942
 10
13200.065167
 20
3403.009333
 30
0.0
  0
VERTEX
  8
5
  6
CONTINUOUS
 62
   241
  5
943
 10
13199.8765
 20
3403.009333
 30
0.0
  0
SEQEND
  8
5
  6
CONTINUOUS
 62
   241
  5
944
  0
POLYLINE
  8
5
  6
CONTINUOUS
 62
   241
  5
945
 66
     1
 10
0.0
 20
0.0
 30
0.0
 70
     1
210
0.0
220
0.0
230
1.0
  0
VERTEX
  8
5
  6
CONTINUOUS
 62
   241
  5
946
 10
13201.960667
 20
3402.905083
 30
0.0
  0
VERTEX
  8
5
  6
CONTINUOUS
 62
   241
  5
947
 10
13202.149333
 20
3402.905083
 30
0.0
  0
VERTEX
  8
5
  6
CONTINUOUS
 62
   241
  5
948
 10
13202.149333
 20
3403.01225
 30
0.0
  0
VERTEX
  8
5
  6
CONTINUOUS
 62
   241
  5
949
 10
13201.960667
 20
3403.01225
 30
0.0
  0
SEQEND
  8
5
  6
CONTINUOUS
 62
   241
  5
94A
  0
LINE
  8
5
  6
CONTINUOUS
 62
     2
  5
94B
 10
13203.284333
 20
3409.548333
 30
0.0
 11
13203.723917
 21
3409.548333
 31
0.0
  0
LINE
  8
5
  6
CONTINUOUS
 62
     2
  5
94C
 10
13203.284333
 20
3409.548333
 30
0.0
 11
13202.3975
 21
3408.270333
 31
0.0
  0
CIRCLE
  8
5
  6
CONTINUOUS
 62
   140
  5
94D
 10
13202.331104
 20
3408.082849
 30
0.0
 40
0.177633
210
0.0
220
0.0
230
1.0
  0
LINE
  8
1
  6
CONTINUOUS
 62
   140
  5
94E
 10
13191.350333
 20
3408.784167
 30
0.0
 11
13197.180417
 21
3408.784167
 31
0.0
  0
LINE
  8
1
  6
CONTINUOUS
 62
   140
  5
94F
 10
13191.350333
 20
3407.821
 30
0.0
 11
13193.809083
 21
3407.821
 31
0.0
  0
LINE
  8
1
  6
CONTINUOUS
 62
   140
  5
950
 10
13195.515333
 20
3407.821
 30
0.0
 11
13197.127083
 21
3407.821
 31
0.0
  0
LINE
  8
1
  6
CONTINUOUS
 62
   140
  5
951
 10
13191.350333
 20
3403.198833
 30
0.0
 11
13197.17575
 21
3403.198833
 31
0.0
  0
TEXT
  8
1
  6
CONTINUOUS
 62
   241
  5
952
 10
13194.754833
 20
3417.4325
 30
0.0
 40
0.133
  1
Two sections of W-beam
  7
MONOTXT
 72
     4
 11
13196.031667
 21
3417.499
 31
0.0
210
0.0
220
0.0
230
1.0
  0
TEXT
  8
1
  6
CONTINUOUS
 62
   241
  5
953
 10
13194.809
 20
3417.216417
 30
0.0
 40
0.133
  1
one set inside the other
  7
MONOTXT
 72
     4
 11
13196.056167
 21
3417.282917
 31
0.0
210
0.0
220
0.0
230
1.0
  0
TEXT
  8
1
  6
CONTINUOUS
 62
   241
  5
954
 10
13193.696917
 20
3416.526
 30
0.0
 40
0.133
  1
1'-10 3/8 "
  7
MONOTXT
210
0.0
220
0.0
230
1.0
  0
TEXT
  8
1
  6
CONTINUOUS
 62
   241
  5
955
 10
13193.212417
 20
3413.858
 30
0.0
 40
0.133
  1
6"x8"x7'-0"  wood post
  7
MONOTXT
 72
     4
 11
13194.452167
 21
3413.9245
 31
0.0
210
0.0
220
0.0
230
1.0
  0
TEXT
  8
1
  6
CONTINUOUS
 62
   241
  5
956
 10
13201.436167
 20
3417.324833
 30
0.0
 40
0.133
  1
Secure block from rotation with
  7
MONOTXT
 72
     4
 11
13203.124
 21
3417.391333
 31
0.0
210
0.0
220
0.0
230
1.0
  0
TEXT
  8
1
  6
CONTINUOUS
 62
   241
  5
957
 10
13201.825667
 20
3417.052
 30
0.0
 40
0.133
  1
10d galvanized nail
  7
MONOTXT
 72
     4
 11
13202.783833
 21
3417.1185
 31
0.0
210
0.0
220
0.0
230
1.0
  0
TEXT
  8
1
  6
CONTINUOUS
 62
   241
  5
958
 10
13204.036667
 20
3415.185333
 30
0.0
 40
0.133
  1
Slope = 10: 1
  7
MONOTXT
210
0.0
220
0.0
230
1.0
  0
TEXT
  8
1
  6
CONTINUOUS
 62
   241
  5
959
 10
13204.045167
 20
3414.956083
 30
0.0
 40
0.133
  1
or flatter
  7
MONOTXT
 72
     4
 11
13204.501167
 21
3415.022583
 31
0.0
210
0.0
220
0.0
230
1.0
  0
TEXT
  8
1
  6
CONTINUOUS
 62
   241
  5
95A
 10
13202.07325
 20
3414.1005
 30
0.0
 40
0.133
  1
6" x 8" x 1' - 2" Wood Block
  7
MONOTXT
210
0.0
220
0.0
230
1.0
  0
TEXT
  8
1
  6
CONTINUOUS
 62
   132
  5
95B
 10
13208.635333
 20
3415.648333
 30
0.0
 40
0.113833
  1
POST
 41
1.002196
  7
MONOTXT
210
0.0
220
0.0
230
1.0
  0
TEXT
  8
1
  6
CONTINUOUS
 62
   132
  5
95C
 10
13209.348833
 20
3415.64025
 30
0.0
 40
0.113833
  1
THICKNESS
 41
1.002196
  7
MONOTXT
210
0.0
220
0.0
230
1.0
  0
LINE
  8
1
  6
CONTINUOUS
 62
   241
  5
95D
 10
13208.502667
 20
3415.85925
 30
0.0
 11
13210.473917
 21
3415.85925
 31
0.0
  0
LINE
  8
1
  6
CONTINUOUS
 62
   241
  5
95E
 10
13210.473917
 20
3415.85925
 30
0.0
 11
13210.473917
 21
3413.584
 31
0.0
  0
LINE
  8
1
  6
CONTINUOUS
 62
   241
  5
95F
 10
13210.473917
 20
3413.584
 30
0.0
 11
13208.499667
 21
3413.584
 31
0.0
  0
LINE
  8
1
  6
CONTINUOUS
 62
   241
  5
960
 10
13208.502667
 20
3415.85925
 30
0.0
 11
13208.499667
 21
3413.584
 31
0.0
  0
LINE
  8
1
  6
CONTINUOUS
 62
   241
  5
961
 10
13209.21275
 20
3415.85825
 30
0.0
 11
13209.20975
 21
3413.583
 31
0.0
  0
LINE
  8
1
  6
CONTINUOUS
 62
   241
  5
962
 10
13210.473917
 20
3415.560833
 30
0.0
 11
13208.499667
 21
3415.560833
 31
0.0
  0
LINE
  8
1
  6
CONTINUOUS
 62
   241
  5
963
 10
13210.473917
 20
3414.584
 30
0.0
 11
13208.499667
 21
3414.584
 31
0.0
  0
LINE
  8
1
  6
CONTINUOUS
 62
   241
  5
964
 10
13210.473917
 20
3415.084
 30
0.0
 11
13208.499667
 21
3415.084
 31
0.0
  0
TEXT
  8
1
  6
CONTINUOUS
 62
   132
  5
965
 10
13208.784
 20
3415.215333
 30
0.0
 40
0.15
  1
1
  7
MONOTXT
210
0.0
220
0.0
230
1.0
  0
TEXT
  8
1
  6
CONTINUOUS
 62
   132
  5
966
 10
13208.804417
 20
3414.73775
 30
0.0
 40
0.15
  1
2
  7
MONOTXT
210
0.0
220
0.0
230
1.0
  0
TEXT
  8
1
  6
CONTINUOUS
 62
   132
  5
967
 10
13208.79425
 20
3414.23975
 30
0.0
 40
0.15
  1
3
  7
MONOTXT
210
0.0
220
0.0
230
1.0
  0
TEXT
  8
1
  6
CONTINUOUS
 62
   132
  5
968
 10
13208.79425
 20
3413.752083
 30
0.0
 40
0.15
  1
4
  7
MONOTXT
210
0.0
220
0.0
230
1.0
  0
LINE
  8
1
  6
CONTINUOUS
 62
   241
  5
969
 10
13210.473917
 20
3414.084
 30
0.0
 11
13208.499667
 21
3414.084
 31
0.0
  0
LINE
  8
1
  6
CONTINUOUS
 62
   241
  5
96A
 10
13210.467083
 20
3414.064833
 30
0.0
 11
13208.492833
 21
3414.064833
 31
0.0
  0
TEXT
  8
1
  6
CONTINUOUS
 62
   241
  5
96B
 10
13192.066917
 20
3409.982667
 30
0.0
 40
0.133
  1
 7/8 " Dia. High - Strength
  7
MONOTXT
210
0.0
220
0.0
230
1.0
  0
TEXT
  8
1
  6
CONTINUOUS
 62
   241
  5
96C
 10
13192.249667
 20
3409.729083
 30
0.0
 40
0.133
  1
Hex Through Bolts with
  7
MONOTXT
210
0.0
220
0.0
230
1.0
  0
TEXT
  8
1
  6
CONTINUOUS
 62
   241
  5
96D
 10
13192.634083
 20
3409.460417
 30
0.0
 40
0.133
  1
 1/4 " Bearing Plate.
  7
MONOTXT
210
0.0
220
0.0
230
1.0
  0
TEXT
  8
1
  6
CONTINUOUS
 62
   241
  5
96E
 10
13196.4105
 20
3406.09775
 30
0.0
 40
0.133
  1
one set inside the other
  7
MONOTXT
 72
     4
 11
13197.657667
 21
3406.16425
 31
0.0
210
0.0
220
0.0
230
1.0
  0
TEXT
  8
1
  6
CONTINUOUS
 62
   241
  5
96F
 10
13196.3145
 20
3406.438917
 30
0.0
 40
0.133
  1
Two sections of W-beam
  7
MONOTXT
 72
     4
 11
13197.591333
 21
3406.505417
 31
0.0
210
0.0
220
0.0
230
1.0
  0
TEXT
  8
1
  6
CONTINUOUS
 62
   241
  5
970
 10
13198.029083
 20
3404.96675
 30
0.0
 40
0.133
  1
 5/8 " Dia. Block Bolt,
  7
MONOTXT
210
0.0
220
0.0
230
1.0
  0
TEXT
  8
1
  6
CONTINUOUS
 62
   241
  5
971
 10
13197.884417
 20
3404.673167
 30
0.0
 40
0.133
  1
2" Long, with Circular
  7
MONOTXT
210
0.0
220
0.0
230
1.0
  0
TEXT
  8
1
  6
CONTINUOUS
 62
   241
  5
972
 10
13198.428417
 20
3404.333667
 30
0.0
 40
0.133
  1
Washer
  7
MONOTXT
210
0.0
220
0.0
230
1.0
  0
LINE
  8
1
  6
CONTINUOUS
 62
   241
  5
973
 10
13198.775833
 20
3404.789
 30
0.0
 11
13198.799667
 21
3404.789
 31
0.0
  0
TEXT
  8
1
  6
CONTINUOUS
 62
   241
  5
974
 10
13203.38425
 20
3405.050417
 30
0.0
 40
0.133
  1
 5/8 " Dia. Post
  7
MONOTXT
210
0.0
220
0.0
230
1.0
  0
TEXT
  8
1
  6
CONTINUOUS
 62
   241
  5
975
 10
13203.415833
 20
3404.819833
 30
0.0
 40
0.133
  1
Bolt, 14" Long
  7
MONOTXT
210
0.0
220
0.0
230
1.0
  0
TEXT
  8
5
  6
CONTINUOUS
 62
   241
  5
976
 10
13192.752333
 20
3399.874167
 30
0.0
 40
0.133
  1
w/bearing plate and 
  7
MONOTXT
 72
     4
 11
13193.82975
 21
3399.940667
 31
0.0
210
0.0
220
0.0
230
1.0
  0
TEXT
  8
5
  6
CONTINUOUS
 62
   241
  5
977
 10
13192.5335
 20
3400.478333
 30
0.0
 40
0.133
  1
bolt 6" long or  5/8 " grade
  7
MONOTXT
 72
     4
 11
13193.829917
 21
3400.544833
 31
0.0
210
0.0
220
0.0
230
1.0
  0
TEXT
  8
5
  6
CONTINUOUS
 62
   241
  5
978
 10
13192.771583
 20
3400.14975
 30
0.0
 40
0.133
  1
5 hex through bolts 
  7
MONOTXT
 72
     4
 11
13193.856417
 21
3400.21625
 31
0.0
210
0.0
220
0.0
230
1.0
  0
TEXT
  8
5
  6
CONTINUOUS
 62
   241
  5
979
 10
13193.205417
 20
3399.585333
 30
0.0
 40
0.133
  1
washers
  7
MONOTXT
 72
     4
 11
13193.590667
 21
3399.651833
 31
0.0
210
0.0
220
0.0
230
1.0
  0
TEXT
  8
1
  6
CONTINUOUS
 62
   241
  5
97A
 10
13197.8245
 20
3400.775583
 30
0.0
 40
0.133
  1
1
  7
MONOTXT
 72
     4
 11
13197.840167
 21
3400.842083
 31
0.0
210
0.0
220
0.0
230
1.0
  0
TEXT
  8
1
  6
CONTINUOUS
 62
   241
  5
97B
 10
13197.677667
 20
3400.999667
 30
0.0
 40
0.133
  1
Post
  7
MONOTXT
 72
     4
 11
13197.888667
 21
3401.066167
 31
0.0
210
0.0
220
0.0
230
1.0
  0
TEXT
  8
1
  6
CONTINUOUS
 62
   241
  5
97C
 10
13198.839917
 20
3400.8355
 30
0.0
 40
0.133
  1
2
  7
MONOTXT
 72
     4
 11
13198.884417
 21
3400.902
 31
0.0
210
0.0
220
0.0
230
1.0
  0
TEXT
  8
1
  6
CONTINUOUS
 62
   241
  5
97D
 10
13198.721417
 20
3401.035667
 30
0.0
 40
0.133
  1
Post
  7
MONOTXT
 72
     4
 11
13198.932417
 21
3401.102167
 31
0.0
210
0.0
220
0.0
230
1.0
  0
TEXT
  8
1
  6
CONTINUOUS
 62
   241
  5
97E
 10
13199.865667
 20
3400.859583
 30
0.0
 40
0.133
  1
3
  7
MONOTXT
 72
     4
 11
13199.910167
 21
3400.926083
 31
0.0
210
0.0
220
0.0
230
1.0
  0
TEXT
  8
1
  6
CONTINUOUS
 62
   241
  5
97F
 10
13199.735083
 20
3401.0955
 30
0.0
 40
0.133
  1
Post
  7
MONOTXT
 72
     4
 11
13199.946083
 21
3401.162
 31
0.0
210
0.0
220
0.0
230
1.0
  0
TEXT
  8
1
  6
CONTINUOUS
 62
   241
  5
980
 10
13200.980917
 20
3400.8715
 30
0.0
 40
0.133
  1
4
  7
MONOTXT
 72
     4
 11
13201.028583
 21
3400.938
 31
0.0
210
0.0
220
0.0
230
1.0
  0
TEXT
  8
1
  6
CONTINUOUS
 62
   241
  5
981
 10
13200.853667
 20
3401.083667
 30
0.0
 40
0.133
  1
Post
  7
MONOTXT
 72
     4
 11
13201.064667
 21
3401.150167
 31
0.0
210
0.0
220
0.0
230
1.0
  0
TEXT
  8
1
  6
CONTINUOUS
 62
   241
  5
982
 10
13202.006583
 20
3400.883583
 30
0.0
 40
0.133
  1
5
  7
MONOTXT
 72
     4
 11
13202.051083
 21
3400.950083
 31
0.0
210
0.0
220
0.0
230
1.0
  0
TEXT
  8
1
  6
CONTINUOUS
 62
   241
  5
983
 10
13201.864167
 20
3401.095667
 30
0.0
 40
0.133
  1
Post
  7
MONOTXT
 72
     4
 11
13202.075167
 21
3401.162167
 31
0.0
210
0.0
220
0.0
230
1.0
  0
TEXT
  8
1
  6
CONTINUOUS
 62
   241
  5
984
 10
13204.085083
 20
3400.955917
 30
0.0
 40
0.133
  1
6
  7
MONOTXT
 72
     4
 11
13204.126417
 21
3401.022417
 31
0.0
210
0.0
220
0.0
230
1.0
  0
TEXT
  8
1
  6
CONTINUOUS
 62
   241
  5
985
 10
13203.963417
 20
3401.18
 30
0.0
 40
0.133
  1
Post
  7
MONOTXT
 72
     4
 11
13204.174417
 21
3401.2465
 31
0.0
210
0.0
220
0.0
230
1.0
  0
TEXT
  8
1
  6
CONTINUOUS
 62
   241
  5
986
 10
13206.119833
 20
3400.872
 30
0.0
 40
0.133
  1
7
  7
MONOTXT
 72
     4
 11
13206.164833
 21
3400.9385
 31
0.0
210
0.0
220
0.0
230
1.0
  0
TEXT
  8
1
  6
CONTINUOUS
 62
   241
  5
987
 10
13206.014333
 20
3401.156
 30
0.0
 40
0.133
  1
Post
  7
MONOTXT
 72
     4
 11
13206.225333
 21
3401.2225
 31
0.0
210
0.0
220
0.0
230
1.0
  0
TEXT
  8
1
  6
CONTINUOUS
 62
   241
  5
988
 10
13208.256333
 20
3400.883917
 30
0.0
 40
0.133
  1
8
  7
MONOTXT
 72
     4
 11
13208.300833
 21
3400.950417
 31
0.0
210
0.0
220
0.0
230
1.0
  0
TEXT
  8
1
  6
CONTINUOUS
 62
   241
  5
989
 10
13208.11375
 20
3401.156
 30
0.0
 40
0.133
  1
Post
  7
MONOTXT
 72
     4
 11
13208.32475
 21
3401.2225
 31
0.0
210
0.0
220
0.0
230
1.0
  0
TEXT
  8
1
  6
CONTINUOUS
 62
   241
  5
98A
 10
13214.135833
 20
3412.709917
 30
0.0
 40
0.133
  1
4.
  7
MONOTXT
210
0.0
220
0.0
230
1.0
  0
TEXT
  8
1
  6
CONTINUOUS
 62
   241
  5
98B
 10
13214.145833
 20
3413.5125
 30
0.0
 40
0.133
  1
3.
  7
MONOTXT
210
0.0
220
0.0
230
1.0
  0
TEXT
  8
5
  6
CONTINUOUS
 62
   241
  5
98C
 10
13214.667167
 20
3413.524333
 30
0.0
 40
0.133
  1
Rubrail wood bocks, located on posts 1
  7
MONOTXT
 72
     4
 11
13216.657167
 21
3413.590833
 31
0.0
210
0.0
220
0.0
230
1.0
  0
TEXT
  8
5
  6
CONTINUOUS
 62
   241
  5
98D
 10
13214.4955
 20
3413.330583
 30
0.0
 40
0.133
  1
 drilled and secured with  5/8 " carriage bolts.
  7
MONOTXT
 72
     4
 11
13216.801833
 21
3413.397083
 31
0.0
210
0.0
220
0.0
230
1.0
  0
TEXT
  8
5
  6
CONTINUOUS
 62
   241
  5
98E
 10
13218.766167
 20
3413.510417
 30
0.0
 40
0.133
  1
through 4 are center 
  7
MONOTXT
 72
     4
 11
13219.930167
 21
3413.576917
 31
0.0
210
0.0
220
0.0
230
1.0
  0
TEXT
  8
5
  6
CONTINUOUS
 62
   241
  5
98F
 10
13214.6585
 20
3412.70725
 30
0.0
 40
0.133
  1
Posts 1 through 5 require an
  7
MONOTXT
 72
     4
 11
13216.1555
 21
3412.77375
 31
0.0
210
0.0
220
0.0
230
1.0
  0
TEXT
  8
5
  6
CONTINUOUS
 62
   241
  5
990
 10
13217.768333
 20
3412.715083
 30
0.0
 40
0.133
  1
additional hole to attach lower blocks
  7
MONOTXT
 72
     4
 11
13219.675167
 21
3412.781583
 31
0.0
210
0.0
220
0.0
230
1.0
  0
TEXT
  8
5
  6
CONTINUOUS
 62
   241
  5
991
 10
13214.64225
 20
3412.518667
 30
0.0
 40
0.133
  1
and/or lower rubrail.
  7
MONOTXT
 72
     4
 11
13215.669917
 21
3412.585167
 31
0.0
210
0.0
220
0.0
230
1.0
  0
TEXT
  8
1
  6
CONTINUOUS
 62
   241
  5
992
 10
13214.134417
 20
3411.911667
 30
0.0
 40
0.133
  1
5.
  7
MONOTXT
210
0.0
220
0.0
230
1.0
  0
TEXT
  8
5
  6
CONTINUOUS
 62
   241
  5
993
 10
13214.626
 20
3411.91375
 30
0.0
 40
0.133
  1
W-beam is not bolted to posts and
  7
MONOTXT
 72
     4
 11
13216.493583
 21
3411.98025
 31
0.0
210
0.0
220
0.0
230
1.0
  0
TEXT
  8
1
  6
CONTINUOUS
 62
   241
  5
994
 10
13217.354
 20
3415.792583
 30
0.0
 40
0.24
  1
NOTES
  7
ROMANS
210
0.0
220
0.0
230
1.0
  0
TEXT
  8
1
  6
CONTINUOUS
 62
   241
  5
995
 10
13217.38075
 20
3415.120417
 30
0.0
 40
0.133
  1
appropriate for connection to a concrete
  7
MONOTXT
210
0.0
220
0.0
230
1.0
  0
TEXT
  8
1
  6
CONTINUOUS
 62
   241
  5
996
 10
13214.530833
 20
3414.9205
 30
0.0
 40
0.133
  1
 safety shape.
  7
MONOTXT
210
0.0
220
0.0
230
1.0
  0
TEXT
  8
5
  6
CONTINUOUS
 62
   241
  5
997
 10
13214.60425
 20
3411.712917
 30
0.0
 40
0.133
  1
and 8. Blocks are bolted directly to posts.
  7
MONOTXT
 72
     4
 11
13216.8405
 21
3411.779417
 31
0.0
210
0.0
220
0.0
230
1.0
  0
TEXT
  8
5
  6
CONTINUOUS
 62
   241
  5
998
 10
13218.534417
 20
3411.916583
 30
0.0
 40
0.133
  1
blocks at posts 2, 3, 4, 6,
  7
MONOTXT
 72
     4
 11
13219.8685
 21
3411.983083
 31
0.0
210
0.0
220
0.0
230
1.0
  0
TEXT
  8
1
  6
CONTINUOUS
 62
   241
  5
999
 10
13214.148583
 20
3411.11825
 30
0.0
 40
0.133
  1
6.
  7
MONOTXT
210
0.0
220
0.0
230
1.0
  0
TEXT
  8
1
  6
CONTINUOUS
 62
   241
  5
99A
 10
13214.130583
 20
3410.3235
 30
0.0
 40
0.133
  1
7.
  7
MONOTXT
210
0.0
220
0.0
230
1.0
  0
TEXT
  8
5
  6
CONTINUOUS
 62
   241
  5
99B
 10
13214.65325
 20
3410.91625
 30
0.0
 40
0.133
  1
attached by a  5/8 " carriage bolt
  7
MONOTXT
 72
     4
 11
13216.313583
 21
3410.98275
 31
0.0
210
0.0
220
0.0
230
1.0
  0
TEXT
  8
5
  6
CONTINUOUS
 62
   241
  5
99C
 10
13214.653667
 20
3411.1225
 30
0.0
 40
0.133
  1
Steel spacer tube, schedule 40 
  7
MONOTXT
 72
     4
 11
13216.274667
 21
3411.189
 31
0.0
210
0.0
220
0.0
230
1.0
  0
TEXT
  8
5
  6
CONTINUOUS
 62
   241
  5
99D
 10
13218.722917
 20
3410.3125
 30
0.0
 40
0.133
  1
attached by a  3/8 " x 3" bolt.
  7
MONOTXT
 72
     4
 11
13220.220417
 21
3410.379
 31
0.0
210
0.0
220
0.0
230
1.0
  0
LINE
  8
5
  6
CONTINUOUS
 62
     2
  5
99E
 10
13192.0895
 20
3404.734417
 30
0.0
 11
13192.48
 21
3404.007833
 31
0.0
  0
LINE
  8
5
  6
CONTINUOUS
 62
     2
  5
99F
 10
13191.872333
 20
3404.7375
 30
0.0
 11
13192.0955
 21
3404.7375
 31
0.0
  0
LINE
  8
5
  6
CONTINUOUS
 62
   241
  5
9A0
 10
13191.872333
 20
3404.7375
 30
0.0
 11
13192.0955
 21
3404.7375
 31
0.0
  0
TEXT
  8
5
  6
CONTINUOUS
 62
   241
  5
9A1
 10
13217.983083
 20
3410.91225
 30
0.0
 40
0.133
  1
, and rectangular plate washer.
  7
MONOTXT
 72
     4
 11
13219.569417
 21
3410.97875
 31
0.0
210
0.0
220
0.0
230
1.0
  0
TEXT
  8
5
  6
CONTINUOUS
 62
   241
  5
9A2
 10
13217.89725
 20
3411.1225
 30
0.0
 40
0.133
  1
galvanized pipe, 6" (I.D.) x 9", 
  7
MONOTXT
 72
     4
 11
13219.474083
 21
3411.189
 31
0.0
210
0.0
220
0.0
230
1.0
  0
TEXT
  8
1
  6
CONTINUOUS
 62
   241
  5
9A3
 10
13208.30675
 20
3415.989
 30
0.0
 40
0.133
  1
 Wood Blocks 7" x 6"
  7
MONOTXT
210
0.0
220
0.0
230
1.0
  0
TEXT
  8
1
  6
CONTINUOUS
 62
   241
  5
9A4
 10
13209.251833
 20
3416.2705
 30
0.0
 40
0.133
  1
Rubrail 
  7
MONOTXT
210
0.0
220
0.0
230
1.0
  0
TEXT
  8
1
  6
CONTINUOUS
 62
   132
  5
9A5
 10
13209.75925
 20
3415.2255
 30
0.0
 40
0.15
  1
6 1/4 "
  7
MONOTXT
210
0.0
220
0.0
230
1.0
  0
TEXT
  8
1
  6
CONTINUOUS
 62
   132
  5
9A6
 10
13209.749
 20
3414.747833
 30
0.0
 40
0.15
  1
4 5/8 "
  7
MONOTXT
210
0.0
220
0.0
230
1.0
  0
TEXT
  8
1
  6
CONTINUOUS
 62
   132
  5
9A7
 10
13209.75925
 20
3414.229667
 30
0.0
 40
0.15
  1
3 1/8 "
  7
MONOTXT
210
0.0
220
0.0
230
1.0
  0
TEXT
  8
1
  6
CONTINUOUS
 62
   132
  5
9A8
 10
13209.75925
 20
3413.731667
 30
0.0
 40
0.15
  1
1 1/2 "
  7
MONOTXT
210
0.0
220
0.0
230
1.0
  0
TEXT
  8
5
  6
CONTINUOUS
 62
   241
  5
9A9
 10
13214.656167
 20
3410.32225
 30
0.0
 40
0.133
  1
See Sheet 3 of 3 for detail.   Block is
  7
MONOTXT
 72
     4
 11
13216.63375
 21
3410.38875
 31
0.0
210
0.0
220
0.0
230
1.0
  0
TEXT
  8
1
  6
CONTINUOUS
 62
     2
  5
9AA
 10
13218.647333
 20
3407.682167
 30
0.0
 40
0.14
  1
1 1/2 "
  7
MONOTXT
 72
     4
 11
13218.831417
 21
3407.752167
 31
0.0
210
0.0
220
0.0
230
1.0
  0
TEXT
  8
1
  6
CONTINUOUS
 62
     2
  5
9AB
 10
13218.647333
 20
3407.467167
 30
0.0
 40
0.14
  1
1 1/2 "
  7
MONOTXT
 72
     4
 11
13218.831417
 21
3407.537167
 31
0.0
210
0.0
220
0.0
230
1.0
  0
TEXT
  8
1
  6
CONTINUOUS
 62
     2
  5
9AC
 10
13218.87625
 20
3407.5525
 30
0.0
 40
0.14
  1
1 1/2 "
  7
MONOTXT
 72
     4
 11
13219.060333
 21
3407.6225
 31
0.0
210
0.0
220
0.0
230
1.0
  0
LINE
  8
1
  6
CONTINUOUS
 62
   233
  5
9AD
 10
13218.570417
 20
3405.381667
 30
0.0
 11
13215.65925
 21
3405.381667
 31
0.0
  0
LINE
  8
1
  6
CONTINUOUS
 62
   233
  5
9AE
 10
13218.570417
 20
3404.06275
 30
0.0
 11
13215.65925
 21
3404.06275
 31
0.0
  0
LINE
  8
1
  6
CONTINUOUS
 62
   233
  5
9AF
 10
13215.54675
 20
3404.17525
 30
0.0
 11
13215.54675
 21
3405.269167
 31
0.0
  0
ARC
  8
1
  6
CONTINUOUS
 62
   233
  5
9B0
 10
13215.659285
 20
3405.269178
 30
0.0
 40
0.1125
 50
90.0
 51
180.0
210
0.0
220
0.0
230
1.0
  0
ARC
  8
1
  6
CONTINUOUS
 62
   233
  5
9B1
 10
13215.659285
 20
3404.175256
 30
0.0
 40
0.1125
 50
180.0
 51
270.0
210
0.0
220
0.0
230
1.0
  0
LINE
  8
1
  6
CONTINUOUS
 62
   233
  5
9B2
 10
13218.570417
 20
3404.06275
 30
0.0
 11
13218.570417
 21
3405.381667
 31
0.0
  0
LINE
  8
1
  6
CONTINUOUS
 62
   233
  5
9B3
 10
13216.587167
 20
3404.858417
 30
0.0
 11
13218.570417
 21
3404.858417
 31
0.0
  0
LINE
  8
1
  6
CONTINUOUS
 62
   233
  5
9B4
 10
13216.587167
 20
3404.596833
 30
0.0
 11
13218.570417
 21
3404.596833
 31
0.0
  0
LINE
  8
1
  6
CONTINUOUS
 62
   233
  5
9B5
 10
13216.587167
 20
3404.139083
 30
0.0
 11
13218.570417
 21
3404.139083
 31
0.0
  0
LINE
  8
1
  6
CONTINUOUS
 62
   233
  5
9B6
 10
13216.587167
 20
3405.305417
 30
0.0
 11
13218.570417
 21
3405.305417
 31
0.0
  0
ARC
  8
1
  6
CONTINUOUS
 62
   233
  5
9B7
 10
13215.948092
 20
3405.090313
 30
0.0
 40
0.081228
 50
108.800503
 51
263.205067
210
0.0
220
0.0
230
1.0
  0
ARC
  8
1
  6
CONTINUOUS
 62
   233
  5
9B8
 10
13215.948092
 20
3404.364397
 30
0.0
 40
0.081228
 50
108.800503
 51
263.205067
210
0.0
220
0.0
230
1.0
  0
LINE
  8
1
  6
CONTINUOUS
 62
   233
  5
9B9
 10
13215.9385
 20
3404.28375
 30
0.0
 11
13216.587167
 21
3404.139083
 31
0.0
  0
LINE
  8
1
  6
CONTINUOUS
 62
   233
  5
9BA
 10
13215.921917
 20
3404.441333
 30
0.0
 11
13216.587167
 21
3404.596833
 31
0.0
  0
LINE
  8
1
  6
CONTINUOUS
 62
   233
  5
9BB
 10
13215.9385
 20
3405.009667
 30
0.0
 11
13216.587167
 21
3404.858417
 31
0.0
  0
LINE
  8
1
  6
CONTINUOUS
 62
   233
  5
9BC
 10
13215.921917
 20
3405.16725
 30
0.0
 11
13216.587167
 21
3405.305417
 31
0.0
  0
LINE
  8
1
  6
CONTINUOUS
 62
   233
  5
9BD
 10
13216.587167
 20
3405.305417
 30
0.0
 11
13216.140333
 21
3405.381667
 31
0.0
  0
LINE
  8
1
  6
CONTINUOUS
 62
   233
  5
9BE
 10
13216.587167
 20
3404.139083
 30
0.0
 11
13216.140333
 21
3404.06275
 31
0.0
  0
CIRCLE
  8
1
  6
CONTINUOUS
 62
   233
  5
9BF
 10
13215.789523
 20
3405.080225
 30
0.0
 40
0.067273
210
0.0
220
0.0
230
1.0
  0
CIRCLE
  8
1
  6
CONTINUOUS
 62
   233
  5
9C0
 10
13215.789523
 20
3404.379519
 30
0.0
 40
0.067273
210
0.0
220
0.0
230
1.0
  0
CIRCLE
  8
1
  6
CONTINUOUS
 62
   233
  5
9C1
 10
13216.270048
 20
3404.742481
 30
0.0
 40
0.072079
210
0.0
220
0.0
230
1.0
  0
CIRCLE
  8
1
  6
CONTINUOUS
 62
   233
  5
9C2
 10
13216.745764
 20
3404.742481
 30
0.0
 40
0.072079
210
0.0
220
0.0
230
1.0
  0
ARC
  8
1
  6
CONTINUOUS
 62
   233
  5
9C3
 10
13217.723651
 20
3404.740709
 30
0.0
 40
0.033404
 50
90.000003
 51
274.449319
210
0.0
220
0.0
230
1.0
  0
ARC
  8
1
  6
CONTINUOUS
 62
   233
  5
9C4
 10
13217.879782
 20
3404.740709
 30
0.0
 40
0.033404
 50
265.550683
 51
90.0
210
0.0
220
0.0
230
1.0
  0
LINE
  8
1
  6
CONTINUOUS
 62
   233
  5
9C5
 10
13217.879833
 20
3404.774167
 30
0.0
 11
13217.723667
 21
3404.774167
 31
0.0
  0
LINE
  8
1
  6
CONTINUOUS
 62
   233
  5
9C6
 10
13217.72625
 20
3404.707417
 30
0.0
 11
13217.877167
 21
3404.707417
 31
0.0
  0
LINE
  8
1
  6
CONTINUOUS
 62
   233
  5
9C7
 10
13217.235167
 20
3404.922833
 30
0.0
 11
13217.462583
 21
3404.922833
 31
0.0
  0
LINE
  8
1
  6
CONTINUOUS
 62
   233
  5
9C8
 10
13217.465167
 20
3404.989583
 30
0.0
 11
13217.232583
 21
3404.989583
 31
0.0
  0
ARC
  8
1
  6
CONTINUOUS
 62
   233
  5
9C9
 10
13217.465164
 20
3404.956119
 30
0.0
 40
0.033404
 50
265.550683
 51
90.0
210
0.0
220
0.0
230
1.0
  0
ARC
  8
1
  6
CONTINUOUS
 62
   233
  5
9CA
 10
13217.232589
 20
3404.956119
 30
0.0
 40
0.033404
 50
90.000003
 51
274.449319
210
0.0
220
0.0
230
1.0
  0
ARC
  8
1
  6
CONTINUOUS
 62
   233
  5
9CB
 10
13217.232589
 20
3404.521138
 30
0.0
 40
0.033404
 50
90.000003
 51
274.449319
210
0.0
220
0.0
230
1.0
  0
ARC
  8
1
  6
CONTINUOUS
 62
   233
  5
9CC
 10
13217.465164
 20
3404.521138
 30
0.0
 40
0.033404
 50
265.550683
 51
90.0
210
0.0
220
0.0
230
1.0
  0
LINE
  8
1
  6
CONTINUOUS
 62
   233
  5
9CD
 10
13217.465167
 20
3404.554583
 30
0.0
 11
13217.232583
 21
3404.554583
 31
0.0
  0
LINE
  8
1
  6
CONTINUOUS
 62
   233
  5
9CE
 10
13217.235167
 20
3404.487917
 30
0.0
 11
13217.462583
 21
3404.487917
 31
0.0
  0
ARC
  8
1
  6
CONTINUOUS
 62
   233
  5
9CF
 10
13217.232589
 20
3405.257881
 30
0.0
 40
0.033404
 50
90.000003
 51
274.449319
210
0.0
220
0.0
230
1.0
  0
ARC
  8
1
  6
CONTINUOUS
 62
   233
  5
9D0
 10
13217.465164
 20
3405.257881
 30
0.0
 40
0.033404
 50
265.550683
 51
90.0
210
0.0
220
0.0
230
1.0
  0
LINE
  8
1
  6
CONTINUOUS
 62
   233
  5
9D1
 10
13217.465167
 20
3405.29125
 30
0.0
 11
13217.232583
 21
3405.29125
 31
0.0
  0
LINE
  8
1
  6
CONTINUOUS
 62
   233
  5
9D2
 10
13217.235167
 20
3405.224583
 30
0.0
 11
13217.462583
 21
3405.224583
 31
0.0
  0
ARC
  8
1
  6
CONTINUOUS
 62
   233
  5
9D3
 10
13217.232589
 20
3404.219375
 30
0.0
 40
0.033404
 50
90.000003
 51
274.449319
210
0.0
220
0.0
230
1.0
  0
ARC
  8
1
  6
CONTINUOUS
 62
   233
  5
9D4
 10
13217.465164
 20
3404.219375
 30
0.0
 40
0.033404
 50
265.550683
 51
90.0
210
0.0
220
0.0
230
1.0
  0
LINE
  8
1
  6
CONTINUOUS
 62
   233
  5
9D5
 10
13217.465167
 20
3404.25275
 30
0.0
 11
13217.232583
 21
3404.25275
 31
0.0
  0
LINE
  8
1
  6
CONTINUOUS
 62
   233
  5
9D6
 10
13217.235167
 20
3404.186083
 30
0.0
 11
13217.462583
 21
3404.186083
 31
0.0
  0
ARC
  8
1
  6
CONTINUOUS
 62
   233
  5
9D7
 10
13218.116239
 20
3404.956119
 30
0.0
 40
0.033404
 50
90.000003
 51
274.449319
210
0.0
220
0.0
230
1.0
  0
ARC
  8
1
  6
CONTINUOUS
 62
   233
  5
9D8
 10
13218.348814
 20
3404.956119
 30
0.0
 40
0.033404
 50
265.550683
 51
90.0
210
0.0
220
0.0
230
1.0
  0
LINE
  8
1
  6
CONTINUOUS
 62
   233
  5
9D9
 10
13218.348833
 20
3404.989583
 30
0.0
 11
13218.11625
 21
3404.989583
 31
0.0
  0
LINE
  8
1
  6
CONTINUOUS
 62
   233
  5
9DA
 10
13218.118833
 20
3404.922833
 30
0.0
 11
13218.34625
 21
3404.922833
 31
0.0
  0
LINE
  8
1
  6
CONTINUOUS
 62
   233
  5
9DB
 10
13218.118833
 20
3404.186083
 30
0.0
 11
13218.34625
 21
3404.186083
 31
0.0
  0
LINE
  8
1
  6
CONTINUOUS
 62
   233
  5
9DC
 10
13218.348833
 20
3404.25275
 30
0.0
 11
13218.11625
 21
3404.25275
 31
0.0
  0
ARC
  8
1
  6
CONTINUOUS
 62
   233
  5
9DD
 10
13218.348814
 20
3404.219375
 30
0.0
 40
0.033404
 50
265.550683
 51
90.0
210
0.0
220
0.0
230
1.0
  0
ARC
  8
1
  6
CONTINUOUS
 62
   233
  5
9DE
 10
13218.116239
 20
3404.219375
 30
0.0
 40
0.033404
 50
90.000003
 51
274.449319
210
0.0
220
0.0
230
1.0
  0
LINE
  8
1
  6
CONTINUOUS
 62
   233
  5
9DF
 10
13218.118833
 20
3404.487917
 30
0.0
 11
13218.34625
 21
3404.487917
 31
0.0
  0
ARC
  8
1
  6
CONTINUOUS
 62
   233
  5
9E0
 10
13218.348814
 20
3404.521138
 30
0.0
 40
0.033404
 50
265.550683
 51
90.0
210
0.0
220
0.0
230
1.0
  0
ARC
  8
1
  6
CONTINUOUS
 62
   233
  5
9E1
 10
13218.116239
 20
3404.521138
 30
0.0
 40
0.033404
 50
90.000003
 51
274.449319
210
0.0
220
0.0
230
1.0
  0
LINE
  8
1
  6
CONTINUOUS
 62
   233
  5
9E2
 10
13218.118833
 20
3405.224583
 30
0.0
 11
13218.34625
 21
3405.224583
 31
0.0
  0
LINE
  8
1
  6
CONTINUOUS
 62
   233
  5
9E3
 10
13218.348833
 20
3405.29125
 30
0.0
 11
13218.11625
 21
3405.29125
 31
0.0
  0
ARC
  8
1
  6
CONTINUOUS
 62
   233
  5
9E4
 10
13218.348814
 20
3405.257881
 30
0.0
 40
0.033404
 50
265.550683
 51
90.0
210
0.0
220
0.0
230
1.0
  0
ARC
  8
1
  6
CONTINUOUS
 62
   233
  5
9E5
 10
13218.116239
 20
3405.257881
 30
0.0
 40
0.033404
 50
90.000003
 51
274.449319
210
0.0
220
0.0
230
1.0
  0
TEXT
  8
3
  6
CONTINUOUS
 62
     2
  5
9E6
 10
13214.305333
 20
3402.706083
 30
0.0
 40
0.24
  1
GUARDRAIL END SHOE DETAIL
  7
ROMANS
210
0.0
220
0.0
230
1.0
  0
TEXT
  8
3
  6
CONTINUOUS
 62
     2
  5
9E7
 10
13218.672917
 20
3404.898917
 30
0.0
 40
0.133
  1
Thickness, 0.135"
  7
MONOTXT
210
0.0
220
0.0
230
1.0
  0
SOLID
  8
3
  6
CONTINUOUS
 62
     2
  5
9E8
 10
13218.635833
 20
3405.191667
 30
0.0
 11
13218.662583
 21
3405.165417
 31
0.0
 12
13218.570417
 22
3405.09825
 32
0.0
 13
13218.570417
 23
3405.09825
 33
0.0
210
0.0
220
0.0
230
1.0
  0
LINE
  8
3
  6
CONTINUOUS
 62
     2
  5
9E9
 10
13218.649167
 20
3405.178583
 30
0.0
 11
13218.93375
 21
3405.468917
 31
0.0
  0
LINE
  8
3
  6
CONTINUOUS
 62
     2
  5
9EA
 10
13218.93375
 20
3405.468917
 30
0.0
 11
13219.0585
 21
3405.468917
 31
0.0
  0
TEXT
  8
3
  6
CONTINUOUS
 62
     2
  5
9EB
 10
13216.0355
 20
3403.6555
 30
0.0
 40
0.133
  1
3/4"x 2 1/2" Post
  7
MONOTXT
210
0.0
220
0.0
230
1.0
  0
TEXT
  8
3
  6
CONTINUOUS
 62
     2
  5
9EC
 10
13216.094083
 20
3403.417667
 30
0.0
 40
0.133
  1
Bolt Slot (Optional)
  7
MONOTXT
210
0.0
220
0.0
230
1.0
  0
SOLID
  8
3
  6
CONTINUOUS
 62
     2
  5
9ED
 10
13217.869083
 20
3404.614333
 30
0.0
 11
13217.8345
 21
3404.6
 31
0.0
 12
13217.808667
 22
3404.711083
 32
0.0
 13
13217.808667
 23
3404.711083
 33
0.0
210
0.0
220
0.0
230
1.0
  0
LINE
  8
3
  6
CONTINUOUS
 62
     2
  5
9EE
 10
13217.85175
 20
3404.607167
 30
0.0
 11
13218.199083
 21
3403.769417
 31
0.0
  0
LINE
  8
3
  6
CONTINUOUS
 62
     2
  5
9EF
 10
13218.192083
 20
3403.784
 30
0.0
 11
13218.046667
 21
3403.784
 31
0.0
  0
SOLID
  8
3
  6
CONTINUOUS
 62
     2
  5
9F0
 10
13216.632583
 20
3404.598833
 30
0.0
 11
13216.6035
 21
3404.6225
 31
0.0
 12
13216.689167
 22
3404.697917
 32
0.0
 13
13216.689167
 23
3404.697917
 33
0.0
210
0.0
220
0.0
230
1.0
  0
LINE
  8
3
  6
CONTINUOUS
 62
     2
  5
9F1
 10
13216.618083
 20
3404.610667
 30
0.0
 11
13215.92675
 21
3403.762833
 31
0.0
  0
LINE
  8
3
  6
CONTINUOUS
 62
     2
  5
9F2
 10
13215.92675
 20
3403.762833
 30
0.0
 11
13215.402417
 21
3403.762833
 31
0.0
  0
SOLID
  8
3
  6
CONTINUOUS
 62
     2
  5
9F3
 10
13215.835
 20
3404.207583
 30
0.0
 11
13215.798583
 21
3404.1985
 31
0.0
 12
13215.789583
 22
3404.31225
 32
0.0
 13
13215.789583
 23
3404.31225
 33
0.0
210
0.0
220
0.0
230
1.0
  0
LINE
  8
3
  6
CONTINUOUS
 62
     2
  5
9F4
 10
13215.81675
 20
3404.203083
 30
0.0
 11
13215.92675
 21
3403.762833
 31
0.0
  0
SOLID
  8
3
  6
CONTINUOUS
 62
     2
  5
9F5
 10
13216.158583
 20
3404.878083
 30
0.0
 11
13216.184917
 21
3404.90475
 31
0.0
 12
13216.251583
 22
3404.812167
 32
0.0
 13
13216.251583
 23
3404.812167
 33
0.0
210
0.0
220
0.0
230
1.0
  0
LINE
  8
3
  6
CONTINUOUS
 62
     2
  5
9F6
 10
13216.17175
 20
3404.891417
 30
0.0
 11
13215.167583
 21
3405.814917
 31
0.0
  0
LINE
  8
3
  6
CONTINUOUS
 62
     2
  5
9F7
 10
13215.167583
 20
3405.814917
 30
0.0
 11
13215.019667
 21
3405.814917
 31
0.0
  0
LINE
  8
1
  6
CONTINUOUS
 62
     2
  5
9F8
 10
13215.733333
 20
3405.08025
 30
0.0
 11
13215.119333
 21
3405.08025
 31
0.0
  0
LINE
  8
1
  6
CONTINUOUS
 62
     2
  5
9F9
 10
13216.213833
 20
3404.7425
 30
0.0
 11
13215.119333
 21
3404.7425
 31
0.0
  0
LINE
  8
1
  6
CONTINUOUS
 62
     2
  5
9FA
 10
13215.281333
 20
3404.96775
 30
0.0
 11
13215.281333
 21
3404.855
 31
0.0
  0
SOLID
  8
1
  6
CONTINUOUS
 62
     2
  5
9FB
 10
13215.262583
 20
3404.96775
 30
0.0
 11
13215.300083
 21
3404.96775
 31
0.0
 12
13215.281333
 22
3405.08025
 32
0.0
 13
13215.281333
 23
3405.08025
 33
0.0
210
0.0
220
0.0
230
1.0
  0
SOLID
  8
1
  6
CONTINUOUS
 62
     2
  5
9FC
 10
13215.262583
 20
3404.855
 30
0.0
 11
13215.300083
 21
3404.855
 31
0.0
 12
13215.281333
 22
3404.7425
 32
0.0
 13
13215.281333
 23
3404.7425
 33
0.0
210
0.0
220
0.0
230
1.0
  0
POINT
  8
6
  6
CONTINUOUS
 62
     7
  5
9FE
 10
13215.789583
 20
3405.08025
 30
0.0
  0
POINT
  8
6
  6
CONTINUOUS
 62
     7
  5
9FF
 10
13216.270083
 20
3404.7425
 30
0.0
  0
POINT
  8
6
  6
CONTINUOUS
 62
     7
  5
A00
 10
13215.281333
 20
3404.7425
 30
0.0
  0
LINE
  8
1
  6
CONTINUOUS
 62
     2
  5
A01
 10
13216.213833
 20
3404.7425
 30
0.0
 11
13215.119333
 21
3404.7425
 31
0.0
  0
LINE
  8
1
  6
CONTINUOUS
 62
     2
  5
A02
 10
13215.733333
 20
3404.3795
 30
0.0
 11
13215.119333
 21
3404.3795
 31
0.0
  0
LINE
  8
1
  6
CONTINUOUS
 62
     2
  5
A03
 10
13215.281333
 20
3404.63
 30
0.0
 11
13215.281333
 21
3404.492
 31
0.0
  0
SOLID
  8
1
  6
CONTINUOUS
 62
     2
  5
A04
 10
13215.262583
 20
3404.63
 30
0.0
 11
13215.300083
 21
3404.63
 31
0.0
 12
13215.281333
 22
3404.7425
 32
0.0
 13
13215.281333
 23
3404.7425
 33
0.0
210
0.0
220
0.0
230
1.0
  0
SOLID
  8
1
  6
CONTINUOUS
 62
     2
  5
A05
 10
13215.262583
 20
3404.492
 30
0.0
 11
13215.300083
 21
3404.492
 31
0.0
 12
13215.281333
 22
3404.3795
 32
0.0
 13
13215.281333
 23
3404.3795
 33
0.0
210
0.0
220
0.0
230
1.0
  0
POINT
  8
6
  6
CONTINUOUS
 62
     7
  5
A06
 10
13216.270083
 20
3404.7425
 30
0.0
  0
POINT
  8
6
  6
CONTINUOUS
 62
     7
  5
A07
 10
13215.789583
 20
3404.3795
 30
0.0
  0
POINT
  8
6
  6
CONTINUOUS
 62
     2
  5
A08
 10
13215.281333
 20
3404.3795
 30
0.0
  0
LINE
  8
1
  6
CONTINUOUS
 62
     2
  5
A09
 10
13215.603
 20
3405.381667
 30
0.0
 11
13214.769833
 21
3405.381667
 31
0.0
  0
LINE
  8
1
  6
CONTINUOUS
 62
     2
  5
A0A
 10
13215.603
 20
3404.06275
 30
0.0
 11
13214.769833
 21
3404.06275
 31
0.0
  0
LINE
  8
1
  6
CONTINUOUS
 62
     2
  5
A0B
 10
13214.931833
 20
3405.269167
 30
0.0
 11
13214.931833
 21
3404.72225
 31
0.0
  0
LINE
  8
1
  6
CONTINUOUS
 62
     2
  5
A0C
 10
13214.931833
 20
3404.17525
 30
0.0
 11
13214.931833
 21
3404.72225
 31
0.0
  0
SOLID
  8
1
  6
CONTINUOUS
 62
     2
  5
A0D
 10
13214.913083
 20
3405.269167
 30
0.0
 11
13214.950583
 21
3405.269167
 31
0.0
 12
13214.931833
 22
3405.381667
 32
0.0
 13
13214.931833
 23
3405.381667
 33
0.0
210
0.0
220
0.0
230
1.0
  0
SOLID
  8
1
  6
CONTINUOUS
 62
     2
  5
A0E
 10
13214.913083
 20
3404.17525
 30
0.0
 11
13214.950583
 21
3404.17525
 31
0.0
 12
13214.931833
 22
3404.06275
 32
0.0
 13
13214.931833
 23
3404.06275
 33
0.0
210
0.0
220
0.0
230
1.0
  0
POINT
  8
6
  6
CONTINUOUS
 62
     7
  5
A0F
 10
13215.65925
 20
3405.381667
 30
0.0
  0
POINT
  8
6
  6
CONTINUOUS
 62
     7
  5
A10
 10
13215.65925
 20
3404.06275
 30
0.0
  0
POINT
  8
6
  6
CONTINUOUS
 62
     7
  5
A11
 10
13214.931833
 20
3404.06275
 30
0.0
  0
TEXT
  8
3
  6
CONTINUOUS
 62
     2
  5
A12
 10
13214.699833
 20
3404.944667
 30
0.0
 40
0.133
  1
12 1/4"
 50
270.0
  7
MONOTXT
210
0.0
220
0.0
230
1.0
  0
SOLID
  8
3
  6
CONTINUOUS
 62
     2
  5
A13
 10
13215.170917
 20
3404.94
 30
0.0
 11
13215.18625
 21
3404.97425
 31
0.0
 12
13215.281333
 22
3404.911333
 32
0.0
 13
13215.281333
 23
3404.911333
 33
0.0
210
0.0
220
0.0
230
1.0
  0
LINE
  8
3
  6
CONTINUOUS
 62
     2
  5
A14
 10
13215.178583
 20
3404.957167
 30
0.0
 11
13214.62975
 21
3405.201667
 31
0.0
  0
LINE
  8
3
  6
CONTINUOUS
 62
     2
  5
A15
 10
13214.62975
 20
3405.201667
 30
0.0
 11
13214.421333
 21
3405.201667
 31
0.0
  0
TEXT
  8
3
  6
CONTINUOUS
 62
     2
  5
A16
 10
13213.733417
 20
3405.164333
 30
0.0
 40
0.133
  1
3 1/2"
  7
MONOTXT
210
0.0
220
0.0
230
1.0
  0
LINE
  8
3
  6
CONTINUOUS
 62
     2
  5
A17
 10
13215.181
 20
3404.589583
 30
0.0
 11
13214.62975
 21
3405.201667
 31
0.0
  0
LINE
  8
3
  6
CONTINUOUS
 62
     2
  5
A18
 10
13218.457917
 20
3405.616417
 30
0.0
 11
13218.345
 21
3405.616417
 31
0.0
  0
SOLID
  8
3
  6
CONTINUOUS
 62
     2
  5
A19
 10
13218.457917
 20
3405.597667
 30
0.0
 11
13218.457917
 21
3405.635167
 31
0.0
 12
13218.570417
 22
3405.616417
 32
0.0
 13
13218.570417
 23
3405.616417
 33
0.0
210
0.0
220
0.0
230
1.0
  0
SOLID
  8
3
  6
CONTINUOUS
 62
     2
  5
A1A
 10
13218.345
 20
3405.597667
 30
0.0
 11
13218.345
 21
3405.635167
 31
0.0
 12
13218.2325
 22
3405.616417
 32
0.0
 13
13218.2325
 23
3405.616417
 33
0.0
210
0.0
220
0.0
230
1.0
  0
TEXT
  8
3
  6
CONTINUOUS
 62
     2
  5
A1B
 10
13218.298083
 20
3405.674167
 30
0.0
 40
0.133
  1
3"
  7
MONOTXT
210
0.0
220
0.0
230
1.0
  0
POINT
  8
6
  6
CONTINUOUS
 62
     7
  5
A1C
 10
13218.570417
 20
3405.381667
 30
0.0
  0
POINT
  8
6
  6
CONTINUOUS
 62
     7
  5
A1D
 10
13218.2325
 20
3404.186083
 30
0.0
  0
POINT
  8
3
  6
CONTINUOUS
 62
     2
  5
A1E
 10
13218.2325
 20
3405.616417
 30
0.0
  0
LINE
  8
3
  6
CONTINUOUS
 62
     2
  5
A1F
 10
13218.12
 20
3405.616417
 30
0.0
 11
13217.91425
 21
3405.616417
 31
0.0
  0
SOLID
  8
3
  6
CONTINUOUS
 62
     2
  5
A20
 10
13218.12
 20
3405.597667
 30
0.0
 11
13218.12
 21
3405.635167
 31
0.0
 12
13218.2325
 22
3405.616417
 32
0.0
 13
13218.2325
 23
3405.616417
 33
0.0
210
0.0
220
0.0
230
1.0
  0
SOLID
  8
3
  6
CONTINUOUS
 62
     2
  5
A21
 10
13217.91425
 20
3405.597667
 30
0.0
 11
13217.91425
 21
3405.635167
 31
0.0
 12
13217.80175
 22
3405.616417
 32
0.0
 13
13217.80175
 23
3405.616417
 33
0.0
210
0.0
220
0.0
230
1.0
  0
POINT
  8
6
  6
CONTINUOUS
 62
     7
  5
A22
 10
13218.2325
 20
3405.29125
 30
0.0
  0
POINT
  8
6
  6
CONTINUOUS
 62
     7
  5
A23
 10
13217.80175
 20
3404.792417
 30
0.0
  0
POINT
  8
6
  6
CONTINUOUS
 62
     7
  5
A24
 10
13217.80175
 20
3405.616417
 30
0.0
  0
TEXT
  8
3
  6
CONTINUOUS
 62
     2
  5
A25
 10
13217.80075
 20
3405.691333
 30
0.0
 40
0.133
  1
4 1/4 "
  7
MONOTXT
210
0.0
220
0.0
230
1.0
  0
LINE
  8
1
  6
CONTINUOUS
 62
     2
  5
A26
 10
13217.68925
 20
3405.616417
 30
0.0
 11
13217.461333
 21
3405.616417
 31
0.0
  0
SOLID
  8
1
  6
CONTINUOUS
 62
     2
  5
A27
 10
13217.68925
 20
3405.597667
 30
0.0
 11
13217.68925
 21
3405.635167
 31
0.0
 12
13217.80175
 22
3405.616417
 32
0.0
 13
13217.80175
 23
3405.616417
 33
0.0
210
0.0
220
0.0
230
1.0
  0
SOLID
  8
1
  6
CONTINUOUS
 62
     2
  5
A28
 10
13217.461333
 20
3405.597667
 30
0.0
 11
13217.461333
 21
3405.635167
 31
0.0
 12
13217.348833
 22
3405.616417
 32
0.0
 13
13217.348833
 23
3405.616417
 33
0.0
210
0.0
220
0.0
230
1.0
  0
POINT
  8
6
  6
CONTINUOUS
 62
     7
  5
A29
 10
13217.80175
 20
3404.792417
 30
0.0
  0
POINT
  8
6
  6
CONTINUOUS
 62
     7
  5
A2A
 10
13217.348833
 20
3404.25275
 30
0.0
  0
POINT
  8
6
  6
CONTINUOUS
 62
     7
  5
A2B
 10
13217.348833
 20
3405.616417
 30
0.0
  0
LINE
  8
1
  6
CONTINUOUS
 62
   140
  5
A2C
 10
13218.570417
 20
3405.437917
 30
0.0
 11
13218.570417
 21
3406.309333
 31
0.0
  0
LINE
  8
1
  6
CONTINUOUS
 62
     2
  5
A2D
 10
13218.457917
 20
3406.147333
 30
0.0
 11
13217.91425
 21
3406.147333
 31
0.0
  0
SOLID
  8
1
  6
CONTINUOUS
 62
     2
  5
A2E
 10
13218.457917
 20
3406.128583
 30
0.0
 11
13218.457917
 21
3406.166083
 31
0.0
 12
13218.570417
 22
3406.147333
 32
0.0
 13
13218.570417
 23
3406.147333
 33
0.0
210
0.0
220
0.0
230
1.0
  0
SOLID
  8
1
  6
CONTINUOUS
 62
     2
  5
A2F
 10
13217.91425
 20
3406.128583
 30
0.0
 11
13217.91425
 21
3406.166083
 31
0.0
 12
13217.80175
 22
3406.147333
 32
0.0
 13
13217.80175
 23
3406.147333
 33
0.0
210
0.0
220
0.0
230
1.0
  0
TEXT
  8
1
  6
CONTINUOUS
 62
   140
  5
A30
 10
13217.840167
 20
3406.20275
 30
0.0
 40
0.133
  1
7 1/4"
  7
MONOTXT
210
0.0
220
0.0
230
1.0
  0
POINT
  8
6
  6
CONTINUOUS
 62
     7
  5
A31
 10
13218.570417
 20
3405.381667
 30
0.0
  0
POINT
  8
6
  6
CONTINUOUS
 62
     7
  5
A32
 10
13217.80175
 20
3404.792417
 30
0.0
  0
POINT
  8
6
  6
CONTINUOUS
 62
     7
  5
A33
 10
13217.80175
 20
3406.147333
 30
0.0
  0
LINE
  8
7
  6
CENTER
 62
     2
  5
A35
 10
13216.270083
 20
3404.7425
 30
0.0
 11
13218.608917
 21
3404.7425
 31
0.0
  0
TEXT
  8
3
  6
CONTINUOUS
 62
     2
  5
A36
 10
13218.489
 20
3403.479
 30
0.0
 40
0.133
  1
29/32" x 3" Slots
  7
MONOTXT
210
0.0
220
0.0
230
1.0
  0
SOLID
  8
3
  6
CONTINUOUS
 62
     2
  5
A37
 10
13217.456
 20
3404.4485
 30
0.0
 11
13217.437417
 21
3404.415917
 31
0.0
 12
13217.348833
 22
3404.487917
 32
0.0
 13
13217.348833
 23
3404.487917
 33
0.0
210
0.0
220
0.0
230
1.0
  0
LINE
  8
3
  6
CONTINUOUS
 62
     2
  5
A38
 10
13217.446667
 20
3404.43225
 30
0.0
 11
13218.7675
 21
3403.681
 31
0.0
  0
LINE
  8
3
  6
CONTINUOUS
 62
     2
  5
A39
 10
13218.7675
 20
3403.681
 30
0.0
 11
13218.85925
 21
3403.681
 31
0.0
  0
SOLID
  8
3
  6
CONTINUOUS
 62
     2
  5
A3A
 10
13218.310333
 20
3404.4045
 30
0.0
 11
13218.279083
 21
3404.383667
 31
0.0
 12
13218.2325
 22
3404.487917
 32
0.0
 13
13218.2325
 23
3404.487917
 33
0.0
210
0.0
220
0.0
230
1.0
  0
LINE
  8
3
  6
CONTINUOUS
 62
     2
  5
A3B
 10
13218.294667
 20
3404.394083
 30
0.0
 11
13218.7675
 21
3403.681
 31
0.0
  0
LINE
  8
1
  6
CONTINUOUS
 62
   233
  5
A3C
 10
13218.348833
 20
3407.300667
 30
0.0
 11
13218.11625
 21
3407.300667
 31
0.0
  0
ARC
  8
1
  6
CONTINUOUS
 62
   233
  5
A3D
 10
13218.348814
 20
3407.267253
 30
0.0
 40
0.033404
 50
265.550683
 51
90.0
210
0.0
220
0.0
230
1.0
  0
ARC
  8
1
  6
CONTINUOUS
 62
   233
  5
A3E
 10
13218.116239
 20
3407.267253
 30
0.0
 40
0.033404
 50
90.000003
 51
274.449319
210
0.0
220
0.0
230
1.0
  0
LINE
  8
1
  6
CONTINUOUS
 62
   233
  5
A3F
 10
13218.118833
 20
3407.233917
 30
0.0
 11
13218.34625
 21
3407.233917
 31
0.0
  0
LINE
  8
1
  6
CONTINUOUS
 62
   233
  5
A40
 10
13217.465167
 20
3407.300667
 30
0.0
 11
13217.232583
 21
3407.300667
 31
0.0
  0
ARC
  8
1
  6
CONTINUOUS
 62
   233
  5
A41
 10
13217.465164
 20
3407.267253
 30
0.0
 40
0.033404
 50
265.550683
 51
90.0
210
0.0
220
0.0
230
1.0
  0
ARC
  8
1
  6
CONTINUOUS
 62
   233
  5
A42
 10
13217.232589
 20
3407.267253
 30
0.0
 40
0.033404
 50
90.000003
 51
274.449319
210
0.0
220
0.0
230
1.0
  0
LINE
  8
1
  6
CONTINUOUS
 62
   233
  5
A43
 10
13215.54675
 20
3407.431167
 30
0.0
 11
13218.570417
 21
3407.431167
 31
0.0
  0
LINE
  8
1
  6
CONTINUOUS
 62
   233
  5
A44
 10
13216.655167
 20
3407.082333
 30
0.0
 11
13218.570417
 21
3407.082333
 31
0.0
  0
LINE
  8
1
  6
CONTINUOUS
 62
   233
  5
A45
 10
13216.655167
 20
3407.082333
 30
0.0
 11
13216.481583
 21
3407.115083
 31
0.0
  0
LINE
  8
1
  6
CONTINUOUS
 62
   233
  5
A46
 10
13216.481583
 20
3407.115083
 30
0.0
 11
13216.097083
 21
3407.245833
 31
0.0
  0
LINE
  8
1
  6
CONTINUOUS
 62
   233
  5
A47
 10
13216.097083
 20
3407.245833
 30
0.0
 11
13215.930833
 21
3407.31125
 31
0.0
  0
LINE
  8
1
  6
CONTINUOUS
 62
   233
  5
A48
 10
13215.930833
 20
3407.31125
 30
0.0
 11
13215.826917
 21
3407.354167
 31
0.0
  0
LINE
  8
1
  6
CONTINUOUS
 62
   233
  5
A49
 10
13215.826917
 20
3407.354167
 30
0.0
 11
13215.54675
 21
3407.354167
 31
0.0
  0
LINE
  8
1
  6
CONTINUOUS
 62
   233
  5
A4A
 10
13215.54675
 20
3407.354167
 30
0.0
 11
13215.54675
 21
3407.431167
 31
0.0
  0
LINE
  8
1
  6
CONTINUOUS
 62
   233
  5
A4B
 10
13218.570417
 20
3407.082333
 30
0.0
 11
13218.570417
 21
3407.431167
 31
0.0
  0
LINE
  8
7
  6
CENTER
 62
     2
  5
A4C
 10
13218.674083
 20
3407.26725
 30
0.0
 11
13215.847667
 21
3407.26725
 31
0.0
  0
TEXT
  8
3
  6
CONTINUOUS
 62
     2
  5
A4D
 10
13216.269083
 20
3407.621917
 30
0.0
 40
0.133
  1
Neutral Axis
  7
MONOTXT
210
0.0
220
0.0
230
1.0
  0
SOLID
  8
3
  6
CONTINUOUS
 62
     2
  5
A4E
 10
13217.805583
 20
3407.34975
 30
0.0
 11
13217.8365
 21
3407.370833
 31
0.0
 12
13217.884333
 22
3407.26725
 32
0.0
 13
13217.884333
 23
3407.26725
 33
0.0
210
0.0
220
0.0
230
1.0
  0
LINE
  8
3
  6
CONTINUOUS
 62
     2
  5
A4F
 10
13217.821083
 20
3407.360333
 30
0.0
 11
13217.624583
 21
3407.649167
 31
0.0
  0
LINE
  8
3
  6
CONTINUOUS
 62
     2
  5
A50
 10
13217.624583
 20
3407.649167
 30
0.0
 11
13217.479083
 21
3407.649167
 31
0.0
  0
LINE
  8
1
  6
CONTINUOUS
 62
   140
  5
A51
 10
13218.626667
 20
3407.431167
 30
0.0
 11
13218.960667
 21
3407.431167
 31
0.0
  0
LINE
  8
1
  6
CONTINUOUS
 62
   140
  5
A52
 10
13218.626667
 20
3407.082333
 30
0.0
 11
13218.960667
 21
3407.082333
 31
0.0
  0
LINE
  8
1
  6
CONTINUOUS
 62
     2
  5
A53
 10
13218.798667
 20
3406.969833
 30
0.0
 11
13218.798667
 21
3406.857333
 31
0.0
  0
LINE
  8
1
  6
CONTINUOUS
 62
     2
  5
A54
 10
13218.798667
 20
3407.543667
 30
0.0
 11
13218.798667
 21
3407.656167
 31
0.0
  0
LINE
  8
1
  6
CONTINUOUS
 62
     2
  5
A55
 10
13218.798667
 20
3406.857333
 30
0.0
 11
13218.911167
 21
3406.857333
 31
0.0
  0
SOLID
  8
1
  6
CONTINUOUS
 62
     2
  5
A56
 10
13218.779917
 20
3406.969833
 30
0.0
 11
13218.817417
 21
3406.969833
 31
0.0
 12
13218.798667
 22
3407.082333
 32
0.0
 13
13218.798667
 23
3407.082333
 33
0.0
210
0.0
220
0.0
230
1.0
  0
SOLID
  8
1
  6
CONTINUOUS
 62
     2
  5
A57
 10
13218.779917
 20
3407.543667
 30
0.0
 11
13218.817417
 21
3407.543667
 31
0.0
 12
13218.798667
 22
3407.431167
 32
0.0
 13
13218.798667
 23
3407.431167
 33
0.0
210
0.0
220
0.0
230
1.0
  0
POINT
  8
6
  6
CONTINUOUS
 62
     7
  5
A58
 10
13218.570417
 20
3407.431167
 30
0.0
  0
POINT
  8
6
  6
CONTINUOUS
 62
     7
  5
A59
 10
13218.570417
 20
3407.082333
 30
0.0
  0
POINT
  8
6
  6
CONTINUOUS
 62
     7
  5
A5A
 10
13218.798667
 20
3407.082333
 30
0.0
  0
LINE
  8
1
  6
CONTINUOUS
 62
   140
  5
A5B
 10
13215.54675
 20
3407.276833
 30
0.0
 11
13215.54675
 21
3406.833167
 31
0.0
  0
LINE
  8
1
  6
CONTINUOUS
 62
   140
  5
A5C
 10
13215.826917
 20
3407.276833
 30
0.0
 11
13215.826917
 21
3406.833167
 31
0.0
  0
LINE
  8
1
  6
CONTINUOUS
 62
     2
  5
A5D
 10
13215.65925
 20
3406.995167
 30
0.0
 11
13215.714417
 21
3406.995167
 31
0.0
  0
SOLID
  8
1
  6
CONTINUOUS
 62
     2
  5
A5E
 10
13215.65925
 20
3406.976417
 30
0.0
 11
13215.65925
 21
3407.013917
 31
0.0
 12
13215.54675
 22
3406.995167
 32
0.0
 13
13215.54675
 23
3406.995167
 33
0.0
210
0.0
220
0.0
230
1.0
  0
SOLID
  8
1
  6
CONTINUOUS
 62
     2
  5
A5F
 10
13215.714417
 20
3406.976417
 30
0.0
 11
13215.714417
 21
3407.013917
 31
0.0
 12
13215.826917
 22
3406.995167
 32
0.0
 13
13215.826917
 23
3406.995167
 33
0.0
210
0.0
220
0.0
230
1.0
  0
POINT
  8
6
  6
CONTINUOUS
 62
     7
  5
A60
 10
13215.54675
 20
3407.333083
 30
0.0
  0
POINT
  8
6
  6
CONTINUOUS
 62
     7
  5
A61
 10
13215.826917
 20
3407.333083
 30
0.0
  0
POINT
  8
6
  6
CONTINUOUS
 62
     7
  5
A62
 10
13215.826917
 20
3406.995167
 30
0.0
  0
LINE
  8
1
  6
CONTINUOUS
 62
   140
  5
A63
 10
13215.54675
 20
3407.276833
 30
0.0
 11
13215.54675
 21
3406.491167
 31
0.0
  0
LINE
  8
1
  6
CONTINUOUS
 62
   140
  5
A64
 10
13218.570417
 20
3407.026083
 30
0.0
 11
13218.570417
 21
3406.491167
 31
0.0
  0
LINE
  8
1
  6
CONTINUOUS
 62
     2
  5
A65
 10
13215.65925
 20
3406.653167
 30
0.0
 11
13218.457917
 21
3406.653167
 31
0.0
  0
SOLID
  8
1
  6
CONTINUOUS
 62
     2
  5
A66
 10
13215.65925
 20
3406.634417
 30
0.0
 11
13215.65925
 21
3406.671917
 31
0.0
 12
13215.54675
 22
3406.653167
 32
0.0
 13
13215.54675
 23
3406.653167
 33
0.0
210
0.0
220
0.0
230
1.0
  0
SOLID
  8
1
  6
CONTINUOUS
 62
     2
  5
A67
 10
13218.457917
 20
3406.634417
 30
0.0
 11
13218.457917
 21
3406.671917
 31
0.0
 12
13218.570417
 22
3406.653167
 32
0.0
 13
13218.570417
 23
3406.653167
 33
0.0
210
0.0
220
0.0
230
1.0
  0
TEXT
  8
1
  6
CONTINUOUS
 62
   140
  5
A68
 10
13216.757833
 20
3406.696833
 30
0.0
 40
0.133
  1
2'-6"
  7
MONOTXT
210
0.0
220
0.0
230
1.0
  0
POINT
  8
6
  6
CONTINUOUS
 62
     7
  5
A69
 10
13215.54675
 20
3407.333083
 30
0.0
  0
POINT
  8
6
  6
CONTINUOUS
 62
     7
  5
A6A
 10
13218.570417
 20
3407.082333
 30
0.0
  0
POINT
  8
6
  6
CONTINUOUS
 62
     7
  5
A6B
 10
13218.570417
 20
3406.653167
 30
0.0
  0
TEXT
  8
3
  6
CONTINUOUS
 62
     2
  5
A6C
 10
13215.573917
 20
3407.081583
 30
0.0
 40
0.133
  1
3"
  7
MONOTXT
210
0.0
220
0.0
230
1.0
  0
TEXT
  8
3
  6
CONTINUOUS
 62
     2
  5
A6D
 10
13218.972083
 20
3406.788583
 30
0.0
 40
0.133
  1
3 3/8"
  7
MONOTXT
210
0.0
220
0.0
230
1.0
  0
LINE
  8
2
  6
HIDDEN
 62
     2
  5
A6F
 10
13215.826917
 20
3407.354167
 30
0.0
 11
13218.570417
 21
3407.35575
 31
0.0
  0
LINE
  8
1
  6
CONTINUOUS
 62
   233
  5
A70
 10
13217.46775
 20
3407.233917
 30
0.0
 11
13217.235167
 21
3407.233917
 31
0.0
  0
LINE
  8
1
  6
CONTINUOUS
 62
     2
  5
A71
 10
13215.789583
 20
3405.1365
 30
0.0
 11
13215.789583
 21
3405.879167
 31
0.0
  0
LINE
  8
3
  6
CONTINUOUS
 62
     2
  5
A72
 10
13216.745833
 20
3404.79875
 30
0.0
 11
13216.745833
 21
3405.879167
 31
0.0
  0
LINE
  8
3
  6
CONTINUOUS
 62
     2
  5
A73
 10
13215.902083
 20
3405.717167
 30
0.0
 11
13216.633333
 21
3405.717167
 31
0.0
  0
SOLID
  8
3
  6
CONTINUOUS
 62
     2
  5
A74
 10
13215.902083
 20
3405.698417
 30
0.0
 11
13215.902083
 21
3405.735917
 31
0.0
 12
13215.789583
 22
3405.717167
 32
0.0
 13
13215.789583
 23
3405.717167
 33
0.0
210
0.0
220
0.0
230
1.0
  0
SOLID
  8
3
  6
CONTINUOUS
 62
     2
  5
A75
 10
13216.633333
 20
3405.698417
 30
0.0
 11
13216.633333
 21
3405.735917
 31
0.0
 12
13216.745833
 22
3405.717167
 32
0.0
 13
13216.745833
 23
3405.717167
 33
0.0
210
0.0
220
0.0
230
1.0
  0
POINT
  8
6
  6
CONTINUOUS
 62
     7
  5
A76
 10
13215.789583
 20
3405.08025
 30
0.0
  0
POINT
  8
6
  6
CONTINUOUS
 62
     7
  5
A77
 10
13216.745833
 20
3404.7425
 30
0.0
  0
POINT
  8
3
  6
CONTINUOUS
 62
     2
  5
A78
 10
13216.745833
 20
3405.717167
 30
0.0
  0
LINE
  8
3
  6
CONTINUOUS
 62
     2
  5
A79
 10
13217.68925
 20
3406.147333
 30
0.0
 11
13215.65925
 21
3406.147333
 31
0.0
  0
SOLID
  8
1
  6
CONTINUOUS
 62
     2
  5
A7A
 10
13217.68925
 20
3406.128583
 30
0.0
 11
13217.68925
 21
3406.166083
 31
0.0
 12
13217.80175
 22
3406.147333
 32
0.0
 13
13217.80175
 23
3406.147333
 33
0.0
210
0.0
220
0.0
230
1.0
  0
SOLID
  8
1
  6
CONTINUOUS
 62
     2
  5
A7B
 10
13215.65925
 20
3406.128583
 30
0.0
 11
13215.65925
 21
3406.166083
 31
0.0
 12
13215.54675
 22
3406.147333
 32
0.0
 13
13215.54675
 23
3406.147333
 33
0.0
210
0.0
220
0.0
230
1.0
  0
TEXT
  8
3
  6
CONTINUOUS
 62
     2
  5
A7C
 10
13216.240583
 20
3406.205417
 30
0.0
 40
0.133
  1
1'-10 3/4"
  7
MONOTXT
210
0.0
220
0.0
230
1.0
  0
POINT
  8
6
  6
CONTINUOUS
 62
     7
  5
A7D
 10
13217.80175
 20
3404.792417
 30
0.0
  0
POINT
  8
6
  6
CONTINUOUS
 62
     7
  5
A7E
 10
13215.54675
 20
3405.269167
 30
0.0
  0
POINT
  8
6
  6
CONTINUOUS
 62
     7
  5
A7F
 10
13215.54675
 20
3406.147333
 30
0.0
  0
LINE
  8
3
  6
CONTINUOUS
 62
     2
  5
A80
 10
13215.65925
 20
3405.717167
 30
0.0
 11
13215.677083
 21
3405.717167
 31
0.0
  0
SOLID
  8
3
  6
CONTINUOUS
 62
     2
  5
A81
 10
13215.65925
 20
3405.698417
 30
0.0
 11
13215.65925
 21
3405.735917
 31
0.0
 12
13215.54675
 22
3405.717167
 32
0.0
 13
13215.54675
 23
3405.717167
 33
0.0
210
0.0
220
0.0
230
1.0
  0
SOLID
  8
3
  6
CONTINUOUS
 62
     2
  5
A82
 10
13215.677083
 20
3405.698417
 30
0.0
 11
13215.677083
 21
3405.735917
 31
0.0
 12
13215.789583
 22
3405.717167
 32
0.0
 13
13215.789583
 23
3405.717167
 33
0.0
210
0.0
220
0.0
230
1.0
  0
TEXT
  8
3
  6
CONTINUOUS
 62
     2
  5
A83
 10
13215.555833
 20
3405.783333
 30
0.0
 40
0.133
  1
2"
  7
MONOTXT
210
0.0
220
0.0
230
1.0
  0
POINT
  8
6
  6
CONTINUOUS
 62
     7
  5
A84
 10
13215.54675
 20
3405.269167
 30
0.0
  0
POINT
  8
6
  6
CONTINUOUS
 62
     7
  5
A85
 10
13215.789583
 20
3405.08025
 30
0.0
  0
POINT
  8
3
  6
CONTINUOUS
 62
     2
  5
A86
 10
13215.789583
 20
3405.717167
 30
0.0
  0
TEXT
  8
3
  6
CONTINUOUS
 62
     2
  5
A87
 10
13217.331333
 20
3405.683333
 30
0.0
 40
0.133
  1
4 1/4 "
  7
MONOTXT
210
0.0
220
0.0
230
1.0
  0
TEXT
  8
3
  6
CONTINUOUS
 62
     2
  5
A88
 10
13216.149833
 20
3405.77325
 30
0.0
 40
0.133
  1
8"
  7
MONOTXT
210
0.0
220
0.0
230
1.0
  0
LINE
  8
1
  6
CONTINUOUS
 62
   233
  5
A89
 10
13218.348833
 20
3404.5545
 30
0.0
 11
13218.11625
 21
3404.5545
 31
0.0
  0
LINE
  8
3
  6
CONTINUOUS
 62
     2
  5
A8A
 10
13215.54675
 20
3405.325417
 30
0.0
 11
13215.54675
 21
3405.813417
 31
0.0
  0
LINE
  8
3
  6
CONTINUOUS
 62
     2
  5
A8B
 10
13215.54675
 20
3406.006583
 30
0.0
 11
13215.54675
 21
3406.309333
 31
0.0
  0
LINE
  8
1
  6
CONTINUOUS
 62
     2
  5
A8C
 10
13217.80175
 20
3404.848667
 30
0.0
 11
13217.80175
 21
3405.657333
 31
0.0
  0
LINE
  8
1
  6
CONTINUOUS
 62
   140
  5
A8D
 10
13217.80175
 20
3405.91
 30
0.0
 11
13217.80175
 21
3406.309333
 31
0.0
  0
LINE
  8
3
  6
CONTINUOUS
 62
     2
  5
A8E
 10
13217.80175
 20
3406.1255
 30
0.0
 11
13217.80175
 21
3406.309333
 31
0.0
  0
LINE
  8
3
  6
CONTINUOUS
 62
     2
  5
A8F
 10
13218.2325
 20
3404.242333
 30
0.0
 11
13218.2325
 21
3405.66475
 31
0.0
  0
LINE
  8
1
  6
CONTINUOUS
 62
     2
  5
A90
 10
13217.348833
 20
3404.309
 30
0.0
 11
13217.348833
 21
3405.743667
 31
0.0
  0
SOLID
  8
3
  6
CONTINUOUS
 62
     2
  5
A91
 10
13215.175333
 20
3404.57475
 30
0.0
 11
13215.190667
 21
3404.609
 31
0.0
 12
13215.28575
 22
3404.546083
 32
0.0
 13
13215.28575
 23
3404.546083
 33
0.0
210
0.0
220
0.0
230
1.0
  0
TEXT
  8
3
  6
CONTINUOUS
 62
     2
  5
A92
 10
13219.055417
 20
3405.12975
 30
0.0
 40
0.133
  1
 Nominal
  7
MONOTXT
210
0.0
220
0.0
230
1.0
  0
TEXT
  8
3
  6
CONTINUOUS
 62
     2
  5
A93
 10
13219.117
 20
3405.40675
 30
0.0
 40
0.133
  1
Base Metal 
  7
MONOTXT
210
0.0
220
0.0
230
1.0
  0
TEXT
  8
3
  6
CONTINUOUS
 62
     2
  5
A94
 10
13214.303
 20
3403.675583
 30
0.0
 40
0.133
  1
1" Holes 
  7
MONOTXT
210
0.0
220
0.0
230
1.0
  0
TEXT
  8
3
  6
CONTINUOUS
 62
     2
  5
A95
 10
13214.199
 20
3405.771083
 30
0.0
 40
0.133
  1
1" Holes 
  7
MONOTXT
210
0.0
220
0.0
230
1.0
  0
LINE
  8
3
  6
CONTINUOUS
 62
     2
  5
A96
 10
13215.74675
 20
3405.12525
 30
0.0
 11
13215.167583
 21
3405.814917
 31
0.0
  0
SOLID
  8
3
  6
CONTINUOUS
 62
     2
  5
A97
 10
13215.65825
 20
3405.194667
 30
0.0
 11
13215.684583
 21
3405.221333
 31
0.0
 12
13215.75125
 22
3405.12875
 32
0.0
 13
13215.75125
 23
3405.12875
 33
0.0
210
0.0
220
0.0
230
1.0
  0
TEXT
  8
1
  6
CONTINUOUS
 62
   241
  5
A98
 10
13211.431417
 20
3410.179583
 30
0.0
 40
0.133
  1
Standard
  7
MONOTXT
210
0.0
220
0.0
230
1.0
  0
TEXT
  8
5
  6
CONTINUOUS
 62
   241
  5
A99
 10
13203.799167
 20
3409.502583
 30
0.0
 40
0.133
  1
For detail, see Sheet 3 of 3
  7
MONOTXT
210
0.0
220
0.0
230
1.0
  0
TEXT
  8
1
  6
CONTINUOUS
 62
   241
  5
A9A
 10
13200.68375
 20
3401.647333
 30
0.0
 40
0.133
  1
(C6x8.2 Rubrail And Splice Plate)
  7
MONOTXT
210
0.0
220
0.0
230
1.0
  0
TEXT
  8
1
  6
CONTINUOUS
 62
   241
  5
A9B
 10
13202.254833
 20
3413.088083
 30
0.0
 40
0.133
  1
6" x 8" x 6'-0"
  7
MONOTXT
210
0.0
220
0.0
230
1.0
  0
TEXT
  8
1
  6
CONTINUOUS
 62
   241
  5
A9C
 10
13202.2885
 20
3412.844333
 30
0.0
 40
0.133
  1
 Wood Post
  7
MONOTXT
210
0.0
220
0.0
230
1.0
  0
TEXT
  8
1
  6
CONTINUOUS
 62
   241
  5
A9D
 10
13202.8335
 20
3415.796083
 30
0.0
 40
0.133
  1
1'-10 3/8 "
  7
MONOTXT
210
0.0
220
0.0
230
1.0
  0
LINE
  8
1
  6
CONTINUOUS
 62
     2
  5
A9E
 10
13192.53875
 20
3416.055083
 30
0.0
 11
13192.85475
 21
3416.237583
 31
0.0
  0
LINE
  8
1
  6
CONTINUOUS
 62
     2
  5
A9F
 10
13192.28175
 20
3415.58225
 30
0.0
 11
13192.930583
 21
3415.956917
 31
0.0
  0
LINE
  8
1
  6
CONTINUOUS
 62
     2
  5
AA0
 10
13192.739833
 20
3415.855417
 30
0.0
 11
13192.739833
 21
3416.167583
 31
0.0
  0
INSERT
  8
1
  6
CONTINUOUS
 62
     2
  5
AA1
  2
ARWHD
 10
13192.740333
 20
3415.845333
 30
0.0
 41
10.70362
 42
10.70362
 50
270.0
210
0.0
220
0.0
230
1.0
  0
INSERT
  8
1
  6
CONTINUOUS
 62
     2
  5
AA2
  2
ARWHD
 10
13192.739833
 20
3416.172667
 30
0.0
 41
10.70362
 42
10.70362
 50
90.0
210
0.0
220
0.0
230
1.0
  0
TEXT
  8
1
  6
CONTINUOUS
 62
   241
  5
AA3
 10
13192.792917
 20
3415.965917
 30
0.0
 40
0.133
  1
9"
  7
MONOTXT
210
0.0
220
0.0
230
1.0
  0
TEXT
  8
1
  6
CONTINUOUS
 62
   241
  5
AA4
 10
13191.41475
 20
3404.792833
 30
0.0
 40
0.133
  1
End Shoe
  7
MONOTXT
210
0.0
220
0.0
230
1.0
  0
TEXT
  8
1
  6
CONTINUOUS
 62
   241
  5
AA5
 10
13191.454167
 20
3404.978583
 30
0.0
 40
0.133
  1
Guardrail
  7
MONOTXT
210
0.0
220
0.0
230
1.0
  0
TEXT
  8
3
  6
CONTINUOUS
 62
   241
  5
AA6
 10
13214.148583
 20
3409.715167
 30
0.0
 40
0.133
  1
8.    There is no separate pay item for this connection and all  comp-
  7
MONOTXT
 72
     4
 11
13217.818917
 21
3409.781667
 31
0.0
210
0.0
220
0.0
230
1.0
  0
TEXT
  8
3
  6
CONTINUOUS
 62
   241
  5
AA7
 10
13214.660833
 20
3409.519833
 30
0.0
 40
0.133
  1
onents as detailed herein shall be included in the contract price 
  7
MONOTXT
 72
     4
 11
13218.026417
 21
3409.586333
 31
0.0
210
0.0
220
0.0
230
1.0
  0
TEXT
  8
3
  6
CONTINUOUS
 62
   241
  5
AA8
 10
13214.639833
 20
3409.3195
 30
0.0
 40
0.133
  1
for guardrail.
  7
MONOTXT
 72
     4
 11
13215.283833
 21
3409.386
 31
0.0
210
0.0
220
0.0
230
1.0
  0
TEXT
  8
5
  6
CONTINUOUS
 62
   241
  5
AA9
 10
13192.613667
 20
3400.807083
 30
0.0
 40
0.133
  1
3 -  5/8 " expansion anchor
  7
MONOTXT
 72
     4
 11
13193.937333
 21
3400.873583
 31
0.0
210
0.0
220
0.0
230
1.0
  0
TEXT
  8
3
  6
CONTINUOUS
 62
     2
  5
AAA
 10
13218.58725
 20
3398.0585
 30
0.0
 40
0.166667
  1
 SHEET  2 OF 3      
  7
txt
 72
     4
 11
13220.213917
 21
3398.141833
 31
0.0
210
0.0
220
0.0
230
1.0
  0
TEXT
  8
3
  6
CONTINUOUS
 62
     2
  5
AAB
 10
13218.427167
 20
3397.696417
 30
0.0
 40
0.166667
  1
STANDARD SHEET GR10
  7
txt
 72
     4
 11
13219.9705
 21
3397.77975
 31
0.0
210
0.0
220
0.0
230
1.0
  0
TEXT
  8
1
  6
CONTINUOUS
 62
   241
  5
AAC
 10
13216.001417
 20
3399.715417
 30
0.0
 40
0.081417
  1
PREPARED 7-1-99     
  7
ROMANS
 72
     4
 11
13216.802
 21
3399.756083
 31
0.0
210
0.0
220
0.0
230
1.0
  0
ENDSEC
  0
EOF
