  0
SECTION
  2
HEADER
  9
$ACADVER
  1
AC1009
  9
$INSBASE
 10
0.0
 20
0.0
 30
0.0
  9
$EXTMIN
 10
-0.149917
 20
-0.024917
 30
-0.135
  9
$EXTMAX
 10
13262.94425
 20
3419.076333
 30
0.135
  9
$LIMMIN
 10
0.0
 20
0.0
  9
$LIMMAX
 10
12.0
 20
9.0
  9
$ORTHOMODE
 70
     0
  9
$REGENMODE
 70
     1
  9
$FILLMODE
 70
     1
  9
$QTEXTMODE
 70
     0
  9
$MIRRTEXT
 70
     1
  9
$DRAGMODE
 70
     2
  9
$LTSCALE
 40
1.0
  9
$OSMODE
 70
     0
  9
$ATTMODE
 70
     1
  9
$TEXTSIZE
 40
0.2
  9
$TRACEWID
 40
0.05
  9
$TEXTSTYLE
  7
STANDARD
  9
$CLAYER
  8
0
  9
$CELTYPE
  6
CONTINUOUS
  9
$CECOLOR
 62
   256
  9
$DIMSCALE
 40
1.0
  9
$DIMASZ
 40
0.18
  9
$DIMEXO
 40
0.0625
  9
$DIMDLI
 40
0.38
  9
$DIMRND
 40
0.0
  9
$DIMDLE
 40
0.0
  9
$DIMEXE
 40
0.18
  9
$DIMTP
 40
0.0
  9
$DIMTM
 40
0.0
  9
$DIMTXT
 40
0.18
  9
$DIMCEN
 40
0.09
  9
$DIMTSZ
 40
0.0
  9
$DIMTOL
 70
     0
  9
$DIMLIM
 70
     0
  9
$DIMTIH
 70
     1
  9
$DIMTOH
 70
     1
  9
$DIMSE1
 70
     0
  9
$DIMSE2
 70
     0
  9
$DIMTAD
 70
     0
  9
$DIMZIN
 70
     0
  9
$DIMBLK
  1

  9
$DIMASO
 70
     1
  9
$DIMSHO
 70
     1
  9
$DIMPOST
  1

  9
$DIMAPOST
  1

  9
$DIMALT
 70
     0
  9
$DIMALTD
 70
     2
  9
$DIMALTF
 40
25.4
  9
$DIMLFAC
 40
1.0
  9
$DIMTOFL
 70
     0
  9
$DIMTVP
 40
0.0
  9
$DIMTIX
 70
     0
  9
$DIMSOXD
 70
     0
  9
$DIMSAH
 70
     0
  9
$DIMBLK1
  1

  9
$DIMBLK2
  1

  9
$DIMSTYLE
  2
STANDARD
  9
$DIMCLRD
 70
     0
  9
$DIMCLRE
 70
     0
  9
$DIMCLRT
 70
     0
  9
$DIMTFAC
 40
1.0
  9
$DIMGAP
 40
0.09
  9
$LUNITS
 70
     2
  9
$LUPREC
 70
     4
  9
$AXISMODE
 70
     0
  9
$AXISUNIT
 10
0.0
 20
0.0
  9
$SKETCHINC
 40
0.1
  9
$FILLETRAD
 40
0.0
  9
$AUNITS
 70
     0
  9
$AUPREC
 70
     0
  9
$MENU
  1
acad
  9
$ELEVATION
 40
0.0
  9
$PELEVATION
 40
0.0
  9
$THICKNESS
 40
0.0
  9
$LIMCHECK
 70
     0
  9
$BLIPMODE
 70
     1
  9
$CHAMFERA
 40
0.0
  9
$CHAMFERB
 40
0.0
  9
$SKPOLY
 70
     0
  9
$TDCREATE
 40
2451568.397430555
  9
$TDUPDATE
 40
2451568.397430555
  9
$TDINDWG
 40
0.0000000000
  9
$TDUSRTIMER
 40
0.0000000000
  9
$USRTIMER
 70
     1
  9
$ANGBASE
 50
0.0
  9
$ANGDIR
 70
     0
  9
$PDMODE
 70
     0
  9
$PDSIZE
 40
0.0
  9
$PLINEWID
 40
0.0
  9
$COORDS
 70
     0
  9
$SPLFRAME
 70
     0
  9
$SPLINETYPE
 70
     6
  9
$SPLINESEGS
 70
    10
  9
$ATTDIA
 70
     0
  9
$ATTREQ
 70
     1
  9
$HANDLING
 70
     1
  9
$HANDSEED
  5
334
  9
$SURFTAB1
 70
     6
  9
$SURFTAB2
 70
     6
  9
$SURFTYPE
 70
     6
  9
$SURFU
 70
     6
  9
$SURFV
 70
     6
  9
$UCSNAME
  2

  9
$UCSORG
 10
0.0
 20
0.0
 30
0.0
  9
$UCSXDIR
 10
1.0
 20
0.0
 30
0.0
  9
$UCSYDIR
 10
0.0
 20
1.0
 30
0.0
  9
$PUCSNAME
  2

  9
$PUCSORG
 10
0.0
 20
0.0
 30
0.0
  9
$PUCSXDIR
 10
1.0
 20
0.0
 30
0.0
  9
$PUCSYDIR
 10
0.0
 20
1.0
 30
0.0
  9
$USERI1
 70
     0
  9
$USERI2
 70
     0
  9
$USERI3
 70
     0
  9
$USERI4
 70
     0
  9
$USERI5
 70
     0
  9
$USERR1
 40
0.0
  9
$USERR2
 40
0.0
  9
$USERR3
 40
0.0
  9
$USERR4
 40
0.0
  9
$USERR5
 40
0.0
  9
$WORLDVIEW
 70
     1
  9
$SHADEDGE
 70
     3
  9
$SHADEDIF
 70
    70
  9
$TILEMODE
 70
     1
  9
$MAXACTVP
 70
    16
  9
$PINSBASE
 10
0.0
 20
0.0
 30
0.0
  9
$PLIMCHECK
 70
     0
  9
$PEXTMIN
 10
-1.000000E+20
 20
-1.000000E+20
 30
-1.000000E+20
  9
$PEXTMAX
 10
-1.000000E+20
 20
-1.000000E+20
 30
-1.000000E+20
  9
$PLIMMIN
 10
0.0
 20
0.0
  9
$PLIMMAX
 10
12.0
 20
9.0
  9
$UNITMODE
 70
     0
  9
$VISRETAIN
 70
     0
  9
$PLINEGEN
 70
     1
  9
$PSLTSCALE
 70
     0
  9
$TREEDEPTH
 70
  3020
  9
$DWGCODEPAGE
  3
ansi_1252
  0
ENDSEC
  0
SECTION
  2
TABLES
  0
TABLE
  2
VPORT
 70
     1
  0
VPORT
  2
*ACTIVE
 70
     0
 10
0.0
 20
0.0
 11
1.0
 21
1.0
 12
0.0
 22
0.0
 13
0.0
 23
0.0
 14
0.0
 24
0.0
 15
0.0
 25
0.0
 16
0.0
 26
0.0
 36
1.0
 17
13241.353865
 27
3408.076333
 37
0.0
 40
22.55
 41
1.641651
 42
50.0
 43
50.218083
 44
-50.218083
 50
0.0
 51
0.0
 71
    22
 72
   100
 73
     1
 74
     0
 75
     0
 76
     0
 77
     0
 78
     0
  0
ENDTAB
  0
TABLE
  2
LTYPE
 70
     7
  0
LTYPE
  2
CONTINUOUS
 70
     0
  3
Solid line
 72
    65
 73
     0
 40
0.0
  0
LTYPE
  2
DOT
 70
    64
  3
. . . . . . . . . . . . . . . . . . . . . . . . . . . . . . . . .
 72
    65
 73
     2
 40
0.25
 49
0.0
 49
-0.25
  0
LTYPE
  2
HIDDEN
 70
    64
  3
__ __ __ __ __ __ __ __ __ __ __ __ __ __ __ __ __ __ __ __ __ 
 72
    65
 73
     2
 40
0.375
 49
0.25
 49
-0.125
  0
LTYPE
  2
DASHED
 70
    64
  3
__ __ __ __ __ __ __ __ __ __ __ __ __ __ __ __ __ __ __ __ __
 72
    65
 73
     2
 40
0.75
 49
0.5
 49
-0.25
  0
LTYPE
  2
DASHDOT
 70
    64
  3
__ . __ . __ . __ . __ . __ . __ . __ . __ . __ . __ . __ . _
 72
    65
 73
     4
 40
1.0
 49
0.5
 49
-0.25
 49
0.0
 49
-0.25
  0
LTYPE
  2
DIVIDE
 70
    64
  3
____ . . ____ . . ____ . . ____ . . ____ . . ____ . . ____ . .
 72
    65
 73
     6
 40
1.25
 49
0.5
 49
-0.25
 49
0.0
 49
-0.25
 49
0.0
 49
-0.25
  0
LTYPE
  2
CENTER
 70
    64
  3
____ _ ____ _ ____ _ ____ _ ____ _ ____ _ ____ _ ____ _ ____ _
 72
    65
 73
     4
 40
2.0
 49
1.25
 49
-0.25
 49
0.25
 49
-0.25
  0
ENDTAB
  0
TABLE
  2
LAYER
 70
     6
  0
LAYER
  2
0
 70
     0
 62
     7
  6
CONTINUOUS
  0
LAYER
  2
CONSTRUCTION_CLASS
 70
     0
 62
     7
  6
CONTINUOUS
  0
LAYER
  2
PATTERN_CLASS
 70
     0
 62
     7
  6
CONTINUOUS
  0
LAYER
  2
3
 70
    64
 62
     7
  6
CONTINUOUS
  0
LAYER
  2
5
 70
    64
 62
     7
  6
CONTINUOUS
  0
LAYER
  2
1
 70
    64
 62
     7
  6
CONTINUOUS
  0
ENDTAB
  0
TABLE
  2
STYLE
 70
     5
  0
STYLE
  2
STANDARD
 70
     0
 40
0.0
 41
1.0
 50
0.0
 71
     0
 42
0.0
  3
txt
  4

  0
STYLE
  2
txt
 70
     0
 40
0.2
 41
1.0
 50
0.0
 71
     0
 42
0.2
  3
TXT
  4

  0
STYLE
  2
MONOTXT
 70
     0
 40
0.2
 41
1.0
 50
0.0
 71
     0
 42
0.2
  3
MONOTXT
  4

  0
STYLE
  2
ROMANT
 70
     0
 40
0.2
 41
1.0
 50
0.0
 71
     0
 42
0.2
  3
ROMANT
  4

  0
STYLE
  2
ROMANS
 70
     0
 40
0.2
 41
1.0
 50
0.0
 71
     0
 42
0.2
  3
ROMANS
  4

  0
ENDTAB
  0
TABLE
  2
VIEW
 70
     0
  0
ENDTAB
  0
TABLE
  2
UCS
 70
     0
  0
ENDTAB
  0
TABLE
  2
APPID
 70
     1
  0
APPID
  2
ACAD
 70
     0
  0
ENDTAB
  0
TABLE
  2
DIMSTYLE
 70
     1
  0
DIMSTYLE
  2
STANDARD
 70
     0
  3

  4

  5

  6

  7

 40
1.0
 41
0.18
 42
0.0625
 43
0.38
 44
0.18
 45
0.0
 46
0.0
 47
0.0
 48
0.0
140
0.18
141
0.09
142
0.0
143
25.4
144
1.0
145
0.0
146
1.0
147
0.09
 71
     0
 72
     0
 73
     1
 74
     1
 75
     0
 76
     0
 77
     0
 78
     0
170
     0
171
     2
172
     0
173
     0
174
     0
175
     0
176
     0
177
     0
178
     0
  0
ENDTAB
  0
ENDSEC
  0
SECTION
  2
BLOCKS
  0
BLOCK
  8
5
  6
CONTINUOUS
 62
   241
  5
11D
  2
ARWHD
 70
     0
 10
0.0
 20
0.0
 30
0.0
  3
ARWHD
  0
LINE
  8
5
  6
CONTINUOUS
 62
   241
  5
11E
 10
0.0
 20
0.0
 30
0.0
 11
-0.01
 21
0.0025
 31
0.0
  0
LINE
  8
5
  6
CONTINUOUS
 62
   241
  5
11F
 10
-0.01
 20
0.0025
 30
0.0
 11
-0.0075
 21
0.0
 31
0.0
  0
LINE
  8
5
  6
CONTINUOUS
 62
   241
  5
120
 10
-0.0075
 20
0.0
 30
0.0
 11
-0.01
 21
-0.002583
 31
0.0
  0
LINE
  8
5
  6
CONTINUOUS
 62
   241
  5
121
 10
-0.01
 20
-0.002583
 30
0.0
 11
0.0
 21
0.0
 31
0.0
  0
ENDBLK
  8
5
  6
CONTINUOUS
 62
   241
  5
122
  0
BLOCK
  8
1
  6
CONTINUOUS
 62
   241
  5
2DD
  2
ARROW
 70
     0
 10
0.0
 20
0.0
 30
0.0
  3
ARROW
  0
SOLID
  8
1
  6
CONTINUOUS
 62
   241
  5
2DE
 10
-0.15
 20
0.025
 30
0.0
 11
0.0
 21
0.0
 31
0.0
 12
-0.15
 22
-0.025
 32
0.0
 13
-0.15
 23
-0.025
 33
0.0
210
0.0
220
0.0
230
1.0
  0
ENDBLK
  8
1
  6
CONTINUOUS
 62
   241
  5
2DF
  0
ENDSEC
  0
SECTION
  2
ENTITIES
  0
POINT
  8
3
  6
DASHED
 62
     2
  5
29
 10
13229.71925
 20
3418.596333
 30
0.0
  0
POINT
  8
3
  6
DASHED
 62
     2
  5
2A
 10
13262.94425
 20
3397.476333
 30
0.0
  0
LINE
  8
3
  6
DASHED
 62
     4
  5
2B
 10
13262.814583
 20
3419.076333
 30
0.0
 11
13227.614583
 21
3419.076333
 31
0.0
  0
LINE
  8
3
  6
DASHED
 62
     4
  5
2C
 10
13262.814583
 20
3397.076333
 30
0.0
 11
13227.614583
 21
3397.076333
 31
0.0
  0
LINE
  8
3
  6
DASHED
 62
     4
  5
2D
 10
13229.189583
 20
3419.076333
 30
0.0
 11
13229.189583
 21
3397.076333
 31
0.0
  0
LINE
  8
3
  6
CONTINUOUS
 62
   140
  5
2E
 10
13230.23125
 20
3418.576333
 30
0.0
 11
13230.23125
 21
3397.576333
 31
0.0
  0
LINE
  8
3
  6
CONTINUOUS
 62
   140
  5
2F
 10
13262.73125
 20
3418.576333
 30
0.0
 11
13230.23125
 21
3418.576333
 31
0.0
  0
LINE
  8
3
  6
CONTINUOUS
 62
   140
  5
30
 10
13262.73125
 20
3418.576333
 30
0.0
 11
13262.73125
 21
3397.576333
 31
0.0
  0
LINE
  8
3
  6
CONTINUOUS
 62
   140
  5
31
 10
13262.73125
 20
3397.576333
 30
0.0
 11
13230.23125
 21
3397.576333
 31
0.0
  0
LINE
  8
3
  6
CONTINUOUS
 62
   140
  5
32
 10
13229.98125
 20
3414.676333
 30
0.0
 11
13229.58125
 21
3414.676333
 31
0.0
  0
LINE
  8
3
  6
CONTINUOUS
 62
   140
  5
33
 10
13229.98125
 20
3411.876333
 30
0.0
 11
13229.58125
 21
3411.876333
 31
0.0
  0
LINE
  8
3
  6
CONTINUOUS
 62
   140
  5
34
 10
13229.98125
 20
3404.276333
 30
0.0
 11
13229.58125
 21
3404.276333
 31
0.0
  0
LINE
  8
3
  6
CONTINUOUS
 62
   140
  5
35
 10
13229.98125
 20
3401.476333
 30
0.0
 11
13229.58125
 21
3401.476333
 31
0.0
  0
CIRCLE
  8
3
  6
CONTINUOUS
 62
   140
  5
36
 10
13229.73125
 20
3414.676333
 30
0.0
 40
0.125
210
0.0
220
0.0
230
1.0
  0
CIRCLE
  8
3
  6
CONTINUOUS
 62
   140
  5
37
 10
13229.73125
 20
3411.876333
 30
0.0
 40
0.125
210
0.0
220
0.0
230
1.0
  0
CIRCLE
  8
3
  6
CONTINUOUS
 62
   140
  5
38
 10
13229.73125
 20
3404.276333
 30
0.0
 40
0.125
210
0.0
220
0.0
230
1.0
  0
CIRCLE
  8
3
  6
CONTINUOUS
 62
   140
  5
39
 10
13229.73125
 20
3401.476333
 30
0.0
 40
0.125
210
0.0
220
0.0
230
1.0
  0
TEXT
  8
3
  6
CONTINUOUS
 62
   140
  5
3B
 10
13259.187
 20
3397.484583
 30
0.0
 40
0.06
  1
$$$$$$$$$FILENAME$$$$$$$$
  7
txt
 11
13259.187
 21
3397.514583
 31
0.0
210
0.0
220
0.0
230
1.0
 73
     2
  0
TEXT
  8
3
  6
CONTINUOUS
 62
   140
  5
3C
 10
13260.911083
 20
3397.484583
 30
0.0
 40
0.06
  1
$USERNAME$
  7
txt
 11
13260.911083
 21
3397.514583
 31
0.0
210
0.0
220
0.0
230
1.0
 73
     2
  0
TEXT
  8
3
  6
CONTINUOUS
 62
   140
  5
3D
 10
13261.684667
 20
3397.484583
 30
0.0
 40
0.06
  1
DD-MMM-YYYY HH:MM
  7
txt
 11
13261.684667
 21
3397.514583
 31
0.0
210
0.0
220
0.0
230
1.0
 73
     2
  0
POINT
  8
3
  6
CONTINUOUS
 62
   140
  5
3E
 10
13230.23125
 20
3397.576333
 30
0.0
  0
POINT
  8
3
  6
CONTINUOUS
 62
   140
  5
3F
 10
13230.23125
 20
3418.576333
 30
0.0
  0
POINT
  8
3
  6
CONTINUOUS
 62
   140
  5
40
 10
13262.73125
 20
3418.576333
 30
0.0
  0
POINT
  8
3
  6
CONTINUOUS
 62
   140
  5
41
 10
13262.73125
 20
3397.576333
 30
0.0
  0
LINE
  8
3
  6
CONTINUOUS
 62
   140
  5
42
 10
13262.73125
 20
3397.576333
 30
0.0
 11
13262.73125
 21
3400.075333
 31
0.0
  0
LINE
  8
3
  6
CONTINUOUS
 62
   140
  5
43
 10
13262.73125
 20
3401.066167
 30
0.0
 11
13256.73125
 21
3401.066167
 31
0.0
  0
LINE
  8
3
  6
CONTINUOUS
 62
   140
  5
44
 10
13262.73125
 20
3397.576333
 30
0.0
 11
13256.73125
 21
3397.576333
 31
0.0
  0
LINE
  8
3
  6
CONTINUOUS
 62
   140
  5
45
 10
13258.269167
 20
3399.475333
 30
0.0
 11
13256.73125
 21
3399.475333
 31
0.0
  0
LINE
  8
3
  6
CONTINUOUS
 62
   140
  5
46
 10
13258.269167
 20
3399.276333
 30
0.0
 11
13256.73125
 21
3399.276333
 31
0.0
  0
LINE
  8
3
  6
CONTINUOUS
 62
   140
  5
47
 10
13258.269167
 20
3399.077333
 30
0.0
 11
13256.73125
 21
3399.077333
 31
0.0
  0
LINE
  8
3
  6
CONTINUOUS
 62
   140
  5
48
 10
13258.269167
 20
3398.878333
 30
0.0
 11
13256.73125
 21
3398.878333
 31
0.0
  0
LINE
  8
3
  6
CONTINUOUS
 62
   140
  5
49
 10
13258.269167
 20
3398.679333
 30
0.0
 11
13256.73125
 21
3398.679333
 31
0.0
  0
LINE
  8
3
  6
CONTINUOUS
 62
   140
  5
4A
 10
13258.269167
 20
3398.480333
 30
0.0
 11
13256.73125
 21
3398.480333
 31
0.0
  0
LINE
  8
3
  6
CONTINUOUS
 62
   140
  5
4B
 10
13258.269167
 20
3398.281333
 30
0.0
 11
13256.73125
 21
3398.281333
 31
0.0
  0
LINE
  8
3
  6
CONTINUOUS
 62
   140
  5
4C
 10
13258.269167
 20
3398.082333
 30
0.0
 11
13256.73125
 21
3398.082333
 31
0.0
  0
LINE
  8
3
  6
CONTINUOUS
 62
   140
  5
4D
 10
13258.269167
 20
3397.883333
 30
0.0
 11
13256.73125
 21
3397.883333
 31
0.0
  0
TEXT
  8
3
  6
CONTINUOUS
 62
   140
  5
4F
 10
13257.038333
 20
3399.522667
 30
0.0
 40
0.079
  1
REVISION DATE
 41
1.003165
  7
MONOTXT
210
0.0
220
0.0
230
1.0
  0
LINE
  8
3
  6
CONTINUOUS
 62
   140
  5
50
 10
13256.73125
 20
3398.986333
 30
0.0
 11
13256.73125
 21
3397.576333
 31
0.0
  0
TEXT
  8
3
  6
CONTINUOUS
 62
   140
  5
52
 10
13256.942583
 20
3400.81125
 30
0.0
 40
0.1875
  1
WEST VIRGINIA DEPARTMENT OF TRANSPORTATION
  7
ROMANT
 72
     4
 11
13259.712917
 21
3400.905
 31
0.0
210
0.0
220
0.0
230
1.0
  0
TEXT
  8
3
  6
CONTINUOUS
 62
   140
  5
53
 10
13258.515417
 20
3400.602333
 30
0.0
 40
0.1875
  1
DIVISION OF HIGHWAYS
  7
ROMANT
 72
     4
 11
13259.734917
 21
3400.696083
 31
0.0
210
0.0
220
0.0
230
1.0
  0
LINE
  8
3
  6
CONTINUOUS
 62
   140
  5
54
 10
13258.269167
 20
3399.675333
 30
0.0
 11
13256.73125
 21
3399.675333
 31
0.0
  0
LINE
  8
3
  6
CONTINUOUS
 62
   140
  5
55
 10
13258.269167
 20
3397.576333
 30
0.0
 11
13258.269167
 21
3399.675333
 31
0.0
  0
LINE
  8
3
  6
CONTINUOUS
 62
   140
  5
56
 10
13256.73125
 20
3397.576333
 30
0.0
 11
13256.73125
 21
3401.066167
 31
0.0
  0
TEXT
  8
3
  6
CONTINUOUS
 62
     2
  5
58
 10
13256.766333
 20
3399.11375
 30
0.0
 40
0.083333
  1
                  
  7
ROMANS
 72
     4
 11
13257.502417
 21
3399.155417
 31
0.0
210
0.0
220
0.0
230
1.0
  0
TEXT
  8
3
  6
CONTINUOUS
 62
     2
  5
59
 10
13256.766333
 20
3398.91475
 30
0.0
 40
0.083333
  1
                  
  7
ROMANS
 72
     4
 11
13257.502417
 21
3398.956417
 31
0.0
210
0.0
220
0.0
230
1.0
  0
TEXT
  8
3
  6
CONTINUOUS
 62
     2
  5
5A
 10
13256.766333
 20
3398.71575
 30
0.0
 40
0.083333
  1
                  
  7
ROMANS
 72
     4
 11
13257.502417
 21
3398.757417
 31
0.0
210
0.0
220
0.0
230
1.0
  0
TEXT
  8
3
  6
CONTINUOUS
 62
     2
  5
5B
 10
13256.766333
 20
3398.51675
 30
0.0
 40
0.083333
  1
                  
  7
ROMANS
 72
     4
 11
13257.502417
 21
3398.558417
 31
0.0
210
0.0
220
0.0
230
1.0
  0
TEXT
  8
3
  6
CONTINUOUS
 62
     2
  5
5C
 10
13256.766333
 20
3398.31775
 30
0.0
 40
0.083333
  1
                  
  7
ROMANS
 72
     4
 11
13257.502417
 21
3398.359417
 31
0.0
210
0.0
220
0.0
230
1.0
  0
TEXT
  8
3
  6
CONTINUOUS
 62
     2
  5
5D
 10
13256.766333
 20
3398.11875
 30
0.0
 40
0.083333
  1
                  
  7
ROMANS
 72
     4
 11
13257.502417
 21
3398.160417
 31
0.0
210
0.0
220
0.0
230
1.0
  0
TEXT
  8
3
  6
CONTINUOUS
 62
     2
  5
5E
 10
13256.766333
 20
3397.91975
 30
0.0
 40
0.083333
  1
                  
  7
ROMANS
 72
     4
 11
13257.502417
 21
3397.961417
 31
0.0
210
0.0
220
0.0
230
1.0
  0
TEXT
  8
3
  6
CONTINUOUS
 62
     2
  5
5F
 10
13256.76475
 20
3397.715583
 30
0.0
 40
0.083333
  1
                  
  7
ROMANS
 72
     4
 11
13257.500833
 21
3397.75725
 31
0.0
210
0.0
220
0.0
230
1.0
  0
POINT
  8
3
  6
DASHED
 62
     2
  5
60
 10
13229.71925
 20
3418.596333
 30
0.0
  0
POINT
  8
3
  6
DASHED
 62
     2
  5
61
 10
13262.94425
 20
3397.476333
 30
0.0
  0
TEXT
  8
3
  6
CONTINUOUS
 62
   140
  5
62
 10
13230.27925
 20
3397.455333
 30
0.0
 40
0.06
  1
P5A1G92-STDBOR a
  7
MONOTXT
210
0.0
220
0.0
230
1.0
  0
LINE
  8
5
  6
CONTINUOUS
 62
   241
  5
64
 10
13234.4945
 20
3401.860167
 30
0.0
 11
13241.518917
 21
3401.860167
 31
0.0
  0
LINE
  8
5
  6
CONTINUOUS
 62
   241
  5
65
 10
13241.518917
 20
3401.860167
 30
0.0
 11
13241.518917
 21
3402.529167
 31
0.0
  0
LINE
  8
5
  6
CONTINUOUS
 62
   241
  5
66
 10
13241.518917
 20
3402.529167
 30
0.0
 11
13234.4945
 21
3402.529167
 31
0.0
  0
LINE
  8
5
  6
CONTINUOUS
 62
   241
  5
67
 10
13234.4945
 20
3402.529167
 30
0.0
 11
13234.4945
 21
3401.860167
 31
0.0
  0
CIRCLE
  8
5
  6
CONTINUOUS
 62
   241
  5
68
 10
13235.052444
 20
3402.194694
 30
0.0
 40
0.041812
210
0.0
220
0.0
230
1.0
  0
CIRCLE
  8
5
  6
CONTINUOUS
 62
   241
  5
69
 10
13234.717951
 20
3402.361941
 30
0.0
 40
0.041812
210
0.0
220
0.0
230
1.0
  0
CIRCLE
  8
5
  6
CONTINUOUS
 62
   241
  5
6A
 10
13234.717951
 20
3402.027448
 30
0.0
 40
0.041812
210
0.0
220
0.0
230
1.0
  0
LINE
  8
5
  6
CONTINUOUS
 62
   241
  5
6B
 10
13235.386833
 20
3401.860167
 30
0.0
 11
13235.386833
 21
3402.529167
 31
0.0
  0
LINE
  8
5
  6
CONTINUOUS
 62
   241
  5
6C
 10
13235.943583
 20
3401.860167
 30
0.0
 11
13235.943583
 21
3402.529167
 31
0.0
  0
LINE
  8
5
  6
CONTINUOUS
 62
   241
  5
6D
 10
13239.400917
 20
3401.107583
 30
0.0
 11
13239.400917
 21
3401.811
 31
0.0
  0
CIRCLE
  8
5
  6
CONTINUOUS
 62
   241
  5
6E
 10
13241.407811
 20
3402.194694
 30
0.0
 40
0.041812
210
0.0
220
0.0
230
1.0
  0
CIRCLE
  8
5
  6
CONTINUOUS
 62
   241
  5
6F
 10
13241.073318
 20
3402.027448
 30
0.0
 40
0.041812
210
0.0
220
0.0
230
1.0
  0
CIRCLE
  8
5
  6
CONTINUOUS
 62
   241
  5
70
 10
13241.073318
 20
3402.361941
 30
0.0
 40
0.041812
210
0.0
220
0.0
230
1.0
  0
LINE
  8
5
  6
CONTINUOUS
 62
   241
  5
71
 10
13241.518917
 20
3405.249667
 30
0.0
 11
13239.177417
 21
3405.249667
 31
0.0
  0
LINE
  8
5
  6
CONTINUOUS
 62
   241
  5
72
 10
13241.518917
 20
3405.46375
 30
0.0
 11
13239.177417
 21
3405.46375
 31
0.0
  0
LINE
  8
5
  6
CONTINUOUS
 62
   241
  5
73
 10
13241.518917
 20
3405.249667
 30
0.0
 11
13241.518917
 21
3405.46375
 31
0.0
  0
LINE
  8
5
  6
CONTINUOUS
 62
   241
  5
74
 10
13235.943583
 20
3405.789
 30
0.0
 11
13239.177417
 21
3405.249667
 31
0.0
  0
LINE
  8
5
  6
CONTINUOUS
 62
   241
  5
75
 10
13235.3855
 20
3406.092667
 30
0.0
 11
13239.177417
 21
3405.46375
 31
0.0
  0
LINE
  8
5
  6
CONTINUOUS
 62
   241
  5
76
 10
13235.943583
 20
3405.789
 30
0.0
 11
13235.386833
 21
3406.069833
 31
0.0
  0
LINE
  8
5
  6
CONTINUOUS
 62
   241
  5
77
 10
13239.177417
 20
3405.249667
 30
0.0
 11
13239.177417
 21
3405.46375
 31
0.0
  0
LINE
  8
5
  6
CONTINUOUS
 62
   241
  5
78
 10
13235.3855
 20
3406.092667
 30
0.0
 11
13234.493167
 21
3406.092667
 31
0.0
  0
LINE
  8
5
  6
CONTINUOUS
 62
   241
  5
79
 10
13234.493167
 20
3406.092667
 30
0.0
 11
13234.493167
 21
3406.069833
 31
0.0
  0
LINE
  8
5
  6
CONTINUOUS
 62
   241
  5
7A
 10
13235.386833
 20
3406.069833
 30
0.0
 11
13234.493167
 21
3406.069833
 31
0.0
  0
LINE
  8
5
  6
CONTINUOUS
 62
   241
  5
7B
 10
13235.943583
 20
3405.811667
 30
0.0
 11
13235.3855
 21
3406.092667
 31
0.0
  0
LINE
  8
5
  6
DASHED
 62
   241
  5
7C
 10
13235.943583
 20
3405.811667
 30
0.0
 11
13239.177417
 21
3405.273833
 31
0.0
  0
LINE
  8
5
  6
DASHED
 62
   241
  5
7D
 10
13241.518917
 20
3405.2725
 30
0.0
 11
13239.177417
 21
3405.2725
 31
0.0
  0
CIRCLE
  8
5
  6
CONTINUOUS
 62
   241
  5
7E
 10
13239.400853
 20
3402.194694
 30
0.0
 40
0.02787
210
0.0
220
0.0
230
1.0
  0
CIRCLE
  8
5
  6
CONTINUOUS
 62
   241
  5
7F
 10
13239.204874
 20
3405.3878
 30
0.0
 40
0.434841
210
0.0
220
0.0
230
1.0
  0
CIRCLE
  8
5
  6
CONTINUOUS
 62
   241
  5
80
 10
13238.648913
 20
3406.807119
 30
0.0
 40
0.668986
210
0.0
220
0.0
230
1.0
  0
LINE
  8
5
  6
CONTINUOUS
 62
   241
  5
81
 10
13237.996
 20
3406.659833
 30
0.0
 11
13239.301917
 21
3406.659833
 31
0.0
  0
LINE
  8
5
  6
DASHED
 62
   241
  5
82
 10
13237.986667
 20
3406.704
 30
0.0
 11
13239.311167
 21
3406.704
 31
0.0
  0
LINE
  8
5
  6
CONTINUOUS
 62
   241
  5
83
 10
13238.6315
 20
3406.659833
 30
0.0
 11
13238.6315
 21
3407.890833
 31
0.0
  0
LINE
  8
5
  6
CONTINUOUS
 62
   241
  5
84
 10
13234.573917
 20
3411.493667
 30
0.0
 11
13246.750667
 21
3411.493667
 31
0.0
  0
LINE
  8
5
  6
CONTINUOUS
 62
   241
  5
85
 10
13234.573917
 20
3410.8245
 30
0.0
 11
13246.750667
 21
3410.8245
 31
0.0
  0
LINE
  8
5
  6
CONTINUOUS
 62
   241
  5
86
 10
13233.6025
 20
3414.570833
 30
0.0
 11
13242.857333
 21
3414.570833
 31
0.0
  0
LINE
  8
5
  6
DASHED
 62
   241
  5
87
 10
13233.6025
 20
3414.592333
 30
0.0
 11
13242.857333
 21
3414.592333
 31
0.0
  0
LINE
  8
5
  6
CONTINUOUS
 62
   241
  5
88
 10
13233.6025
 20
3414.905333
 30
0.0
 11
13242.857333
 21
3414.905333
 31
0.0
  0
LINE
  8
5
  6
CONTINUOUS
 62
   241
  5
89
 10
13246.750667
 20
3415.545
 30
0.0
 11
13242.857333
 21
3414.570833
 31
0.0
  0
LINE
  8
5
  6
DASHED
 62
   241
  5
8A
 10
13246.744083
 20
3415.565083
 30
0.0
 11
13242.857333
 21
3414.592333
 31
0.0
  0
LINE
  8
5
  6
CONTINUOUS
 62
   241
  5
8B
 10
13246.672
 20
3415.8595
 30
0.0
 11
13242.857333
 21
3414.905333
 31
0.0
  0
LINE
  8
5
  6
CONTINUOUS
 62
   241
  5
8C
 10
13246.750667
 20
3415.545
 30
0.0
 11
13246.672
 21
3415.8595
 31
0.0
  0
LINE
  8
5
  6
CONTINUOUS
 62
   241
  5
8D
 10
13246.750667
 20
3411.493667
 30
0.0
 11
13246.750667
 21
3410.8245
 31
0.0
  0
LINE
  8
5
  6
CONTINUOUS
 62
   241
  5
8E
 10
13242.857333
 20
3414.905333
 30
0.0
 11
13242.857333
 21
3414.592333
 31
0.0
  0
LINE
  8
5
  6
CONTINUOUS
 62
   241
  5
8F
 10
13233.6025
 20
3414.905333
 30
0.0
 11
13233.6025
 21
3414.570833
 31
0.0
  0
LINE
  8
5
  6
CONTINUOUS
 62
   241
  5
90
 10
13233.6025
 20
3410.803167
 30
0.0
 11
13233.6025
 21
3411.515
 31
0.0
  0
CIRCLE
  8
5
  6
CONTINUOUS
 62
   241
  5
91
 10
13242.874688
 20
3414.759568
 30
0.0
 40
0.44521
210
0.0
220
0.0
230
1.0
  0
CIRCLE
  8
5
  6
CONTINUOUS
 62
   241
  5
92
 10
13248.566195
 20
3414.061397
 30
0.0
 40
0.668986
210
0.0
220
0.0
230
1.0
  0
LINE
  8
5
  6
CONTINUOUS
 62
   241
  5
93
 10
13248.548833
 20
3415.198667
 30
0.0
 11
13248.548833
 21
3413.882083
 31
0.0
  0
LINE
  8
5
  6
CONTINUOUS
 62
   241
  5
94
 10
13249.207
 20
3413.8675
 30
0.0
 11
13247.925333
 21
3413.8675
 31
0.0
  0
LINE
  8
5
  6
DASHED
 62
   241
  5
95
 10
13249.213667
 20
3413.882083
 30
0.0
 11
13247.918583
 21
3413.882083
 31
0.0
  0
LINE
  8
5
  6
CONTINUOUS
 62
   241
  5
96
 10
13234.1605
 20
3409.911
 30
0.0
 11
13234.1605
 21
3410.7255
 31
0.0
  0
LINE
  8
5
  6
CONTINUOUS
 62
   241
  5
97
 10
13233.826083
 20
3409.911
 30
0.0
 11
13233.826083
 21
3410.7255
 31
0.0
  0
LINE
  8
5
  6
CENTER
 62
   241
  5
98
 10
13233.826083
 20
3411.4615
 30
0.0
 11
13233.826083
 21
3410.867333
 31
0.0
  0
LINE
  8
5
  6
CONTINUOUS
 62
   241
  5
99
 10
13233.811167
 20
3411.048083
 30
0.0
 11
13233.832833
 21
3411.048083
 31
0.0
  0
LINE
  8
5
  6
CONTINUOUS
 62
   241
  5
9A
 10
13233.819333
 20
3411.27025
 30
0.0
 11
13233.832833
 21
3411.27025
 31
0.0
  0
LINE
  8
5
  6
CONTINUOUS
 62
   241
  5
9B
 10
13233.819333
 20
3410.937083
 30
0.0
 11
13233.840667
 21
3410.937083
 31
0.0
  0
LINE
  8
5
  6
CONTINUOUS
 62
   241
  5
9C
 10
13233.811167
 20
3411.381167
 30
0.0
 11
13233.840667
 21
3411.381167
 31
0.0
  0
ARC
  8
5
  6
CONTINUOUS
 62
   241
  5
9D
 10
13233.818851
 20
3410.992752
 30
0.0
 40
0.055753
 50
97.324214
 51
270.453736
210
0.0
220
0.0
230
1.0
  0
ARC
  8
5
  6
CONTINUOUS
 62
   241
  5
9E
 10
13233.833114
 20
3410.992297
 30
0.0
 40
0.055753
 50
277.324214
 51
90.453736
210
0.0
220
0.0
230
1.0
  0
ARC
  8
5
  6
CONTINUOUS
 62
   241
  5
9F
 10
13233.818851
 20
3411.325907
 30
0.0
 40
0.055753
 50
97.324214
 51
270.453736
210
0.0
220
0.0
230
1.0
  0
ARC
  8
5
  6
CONTINUOUS
 62
   241
  5
A0
 10
13233.833114
 20
3411.325907
 30
0.0
 40
0.055753
 50
269.546264
 51
82.675786
210
0.0
220
0.0
230
1.0
  0
LINE
  8
5
  6
CONTINUOUS
 62
   241
  5
A1
 10
13234.0695
 20
3411.21525
 30
0.0
 11
13234.2435
 21
3411.21525
 31
0.0
  0
LINE
  8
5
  6
CONTINUOUS
 62
   241
  5
A2
 10
13234.0775
 20
3411.10425
 30
0.0
 11
13234.2515
 21
3411.10425
 31
0.0
  0
ARC
  8
5
  6
CONTINUOUS
 62
   241
  5
A3
 10
13234.07708
 20
3411.159999
 30
0.0
 40
0.055753
 50
82.675783
 51
270.453736
210
0.0
220
0.0
230
1.0
  0
ARC
  8
5
  6
CONTINUOUS
 62
   241
  5
A4
 10
13234.243872
 20
3411.159544
 30
0.0
 40
0.055753
 50
277.324214
 51
90.453736
210
0.0
220
0.0
230
1.0
  0
LINE
  8
5
  6
CONTINUOUS
 62
   241
  5
A5
 10
13238.341667
 20
3409.911
 30
0.0
 11
13238.341667
 21
3410.7255
 31
0.0
  0
LINE
  8
5
  6
CONTINUOUS
 62
   241
  5
A6
 10
13242.522833
 20
3409.911
 30
0.0
 11
13242.522833
 21
3410.7255
 31
0.0
  0
LINE
  8
5
  6
CONTINUOUS
 62
   241
  5
A7
 10
13238.250667
 20
3411.21525
 30
0.0
 11
13238.432583
 21
3411.21525
 31
0.0
  0
LINE
  8
5
  6
CONTINUOUS
 62
   241
  5
A8
 10
13242.613833
 20
3411.21525
 30
0.0
 11
13242.431833
 21
3411.21525
 31
0.0
  0
LINE
  8
5
  6
CONTINUOUS
 62
   241
  5
A9
 10
13238.258667
 20
3411.10425
 30
0.0
 11
13238.424583
 21
3411.10425
 31
0.0
  0
ARC
  8
5
  6
CONTINUOUS
 62
   241
  5
AA
 10
13238.425034
 20
3411.159999
 30
0.0
 40
0.055753
 50
269.546264
 51
97.324217
210
0.0
220
0.0
230
1.0
  0
ARC
  8
5
  6
CONTINUOUS
 62
   241
  5
AB
 10
13238.258242
 20
3411.159999
 30
0.0
 40
0.055753
 50
82.675783
 51
270.453736
210
0.0
220
0.0
230
1.0
  0
LINE
  8
5
  6
CONTINUOUS
 62
   241
  5
AC
 10
13242.605833
 20
3411.10425
 30
0.0
 11
13242.439833
 21
3411.10425
 31
0.0
  0
ARC
  8
5
  6
CONTINUOUS
 62
   241
  5
AD
 10
13242.439405
 20
3411.159999
 30
0.0
 40
0.055753
 50
82.675786
 51
270.453739
210
0.0
220
0.0
230
1.0
  0
ARC
  8
5
  6
CONTINUOUS
 62
   241
  5
AE
 10
13242.606196
 20
3411.159999
 30
0.0
 40
0.055753
 50
269.546261
 51
97.324214
210
0.0
220
0.0
230
1.0
  0
LINE
  8
5
  6
CONTINUOUS
 62
   241
  5
AF
 10
13247.773667
 20
3401.751083
 30
0.0
 11
13248.2755
 21
3401.751083
 31
0.0
  0
LINE
  8
5
  6
CONTINUOUS
 62
   241
  5
B0
 10
13247.773667
 20
3401.751083
 30
0.0
 11
13247.773667
 21
3402.754583
 31
0.0
  0
LINE
  8
5
  6
CONTINUOUS
 62
   241
  5
B1
 10
13247.773667
 20
3402.754583
 30
0.0
 11
13249.000667
 21
3402.754583
 31
0.0
  0
LINE
  8
5
  6
CONTINUOUS
 62
   241
  5
B2
 10
13249.000667
 20
3402.754583
 30
0.0
 11
13248.2755
 21
3401.751083
 31
0.0
  0
POLYLINE
  8
5
  6
CONTINUOUS
 62
   241
  5
B3
 66
     1
 10
0.0
 20
0.0
 30
0.0
210
0.0
220
0.0
230
1.0
  0
VERTEX
  8
5
  6
CONTINUOUS
 62
   241
  5
B4
 10
13247.773667
 20
3402.511167
 30
0.0
  0
VERTEX
  8
5
  6
CONTINUOUS
 62
   241
  5
B5
 10
13247.856833
 20
3402.53525
 30
0.0
  0
VERTEX
  8
5
  6
CONTINUOUS
 62
   241
  5
B6
 10
13247.951667
 20
3402.618083
 30
0.0
  0
VERTEX
  8
5
  6
CONTINUOUS
 62
   241
  5
B7
 10
13247.9945
 20
3402.697083
 30
0.0
  0
VERTEX
  8
5
  6
CONTINUOUS
 62
   241
  5
B8
 10
13248.024
 20
3402.755833
 30
0.0
  0
SEQEND
  8
5
  6
CONTINUOUS
 62
   241
  5
B9
  0
POLYLINE
  8
5
  6
CONTINUOUS
 62
   241
  5
BA
 66
     1
 10
0.0
 20
0.0
 30
0.0
210
0.0
220
0.0
230
1.0
  0
VERTEX
  8
5
  6
CONTINUOUS
 62
   241
  5
BB
 10
13247.772417
 20
3402.382667
 30
0.0
  0
VERTEX
  8
5
  6
CONTINUOUS
 62
   241
  5
BC
 10
13247.8635
 20
3402.394667
 30
0.0
  0
VERTEX
  8
5
  6
CONTINUOUS
 62
   241
  5
BD
 10
13247.959667
 20
3402.445583
 30
0.0
  0
VERTEX
  8
5
  6
CONTINUOUS
 62
   241
  5
BE
 10
13248.001167
 20
3402.500333
 30
0.0
  0
VERTEX
  8
5
  6
CONTINUOUS
 62
   241
  5
BF
 10
13248.060167
 20
3402.6035
 30
0.0
  0
VERTEX
  8
5
  6
CONTINUOUS
 62
   241
  5
C0
 10
13248.092333
 20
3402.697083
 30
0.0
  0
VERTEX
  8
5
  6
CONTINUOUS
 62
   241
  5
C1
 10
13248.124333
 20
3402.754583
 30
0.0
  0
SEQEND
  8
5
  6
CONTINUOUS
 62
   241
  5
C2
  0
POLYLINE
  8
5
  6
CONTINUOUS
 62
   241
  5
C3
 66
     1
 10
0.0
 20
0.0
 30
0.0
210
0.0
220
0.0
230
1.0
  0
VERTEX
  8
5
  6
CONTINUOUS
 62
   241
  5
C4
 10
13247.773667
 20
3402.278333
 30
0.0
  0
VERTEX
  8
5
  6
CONTINUOUS
 62
   241
  5
C5
 10
13247.886083
 20
3402.298333
 30
0.0
  0
VERTEX
  8
5
  6
CONTINUOUS
 62
   241
  5
C6
 10
13248.010583
 20
3402.321083
 30
0.0
  0
VERTEX
  8
5
  6
CONTINUOUS
 62
   241
  5
C7
 10
13248.097583
 20
3402.424083
 30
0.0
  0
VERTEX
  8
5
  6
CONTINUOUS
 62
   241
  5
C8
 10
13248.173833
 20
3402.549833
 30
0.0
  0
VERTEX
  8
5
  6
CONTINUOUS
 62
   241
  5
C9
 10
13248.276917
 20
3402.685
 30
0.0
  0
VERTEX
  8
5
  6
CONTINUOUS
 62
   241
  5
CA
 10
13248.303583
 20
3402.755833
 30
0.0
  0
SEQEND
  8
5
  6
CONTINUOUS
 62
   241
  5
CB
  0
POLYLINE
  8
5
  6
CONTINUOUS
 62
   241
  5
CC
 66
     1
 10
0.0
 20
0.0
 30
0.0
210
0.0
220
0.0
230
1.0
  0
VERTEX
  8
5
  6
CONTINUOUS
 62
   241
  5
CD
 10
13247.773667
 20
3402.131083
 30
0.0
  0
VERTEX
  8
5
  6
CONTINUOUS
 62
   241
  5
CE
 10
13247.912917
 20
3402.139167
 30
0.0
  0
VERTEX
  8
5
  6
CONTINUOUS
 62
   241
  5
CF
 10
13248.041417
 20
3402.172583
 30
0.0
  0
VERTEX
  8
5
  6
CONTINUOUS
 62
   241
  5
D0
 10
13248.156417
 20
3402.263583
 30
0.0
  0
VERTEX
  8
5
  6
CONTINUOUS
 62
   241
  5
D1
 10
13248.2475
 20
3402.386667
 30
0.0
  0
VERTEX
  8
5
  6
CONTINUOUS
 62
   241
  5
D2
 10
13248.341083
 20
3402.52175
 30
0.0
  0
VERTEX
  8
5
  6
CONTINUOUS
 62
   241
  5
D3
 10
13248.422667
 20
3402.691667
 30
0.0
  0
VERTEX
  8
5
  6
CONTINUOUS
 62
   241
  5
D4
 10
13248.438667
 20
3402.7505
 30
0.0
  0
SEQEND
  8
5
  6
CONTINUOUS
 62
   241
  5
D5
  0
POLYLINE
  8
5
  6
CONTINUOUS
 62
   241
  5
D6
 66
     1
 10
0.0
 20
0.0
 30
0.0
210
0.0
220
0.0
230
1.0
  0
VERTEX
  8
5
  6
CONTINUOUS
 62
   241
  5
D7
 10
13247.773667
 20
3401.998583
 30
0.0
  0
VERTEX
  8
5
  6
CONTINUOUS
 62
   241
  5
D8
 10
13247.965083
 20
3402.013333
 30
0.0
  0
VERTEX
  8
5
  6
CONTINUOUS
 62
   241
  5
D9
 10
13248.144333
 20
3402.054833
 30
0.0
  0
VERTEX
  8
5
  6
CONTINUOUS
 62
   241
  5
DA
 10
13248.223333
 20
3402.175167
 30
0.0
  0
VERTEX
  8
5
  6
CONTINUOUS
 62
   241
  5
DB
 10
13248.329
 20
3402.275583
 30
0.0
  0
VERTEX
  8
5
  6
CONTINUOUS
 62
   241
  5
DC
 10
13248.461417
 20
3402.50575
 30
0.0
  0
VERTEX
  8
5
  6
CONTINUOUS
 62
   241
  5
DD
 10
13248.561833
 20
3402.647583
 30
0.0
  0
VERTEX
  8
5
  6
CONTINUOUS
 62
   241
  5
DE
 10
13248.579333
 20
3402.755833
 30
0.0
  0
SEQEND
  8
5
  6
CONTINUOUS
 62
   241
  5
DF
  0
POLYLINE
  8
5
  6
CONTINUOUS
 62
   241
  5
E0
 66
     1
 10
0.0
 20
0.0
 30
0.0
210
0.0
220
0.0
230
1.0
  0
VERTEX
  8
5
  6
CONTINUOUS
 62
   241
  5
E1
 10
13247.773667
 20
3401.8635
 30
0.0
  0
VERTEX
  8
5
  6
CONTINUOUS
 62
   241
  5
E2
 10
13247.974417
 20
3401.884833
 30
0.0
  0
VERTEX
  8
5
  6
CONTINUOUS
 62
   241
  5
E3
 10
13248.141667
 20
3401.917083
 30
0.0
  0
VERTEX
  8
5
  6
CONTINUOUS
 62
   241
  5
E4
 10
13248.2675
 20
3402.002583
 30
0.0
  0
VERTEX
  8
5
  6
CONTINUOUS
 62
   241
  5
E5
 10
13248.3585
 20
3402.153833
 30
0.0
  0
VERTEX
  8
5
  6
CONTINUOUS
 62
   241
  5
E6
 10
13248.488333
 20
3402.3065
 30
0.0
  0
VERTEX
  8
5
  6
CONTINUOUS
 62
   241
  5
E7
 10
13248.631417
 20
3402.445583
 30
0.0
  0
VERTEX
  8
5
  6
CONTINUOUS
 62
   241
  5
E8
 10
13248.713
 20
3402.63275
 30
0.0
  0
VERTEX
  8
5
  6
CONTINUOUS
 62
   241
  5
E9
 10
13248.741167
 20
3402.754583
 30
0.0
  0
SEQEND
  8
5
  6
CONTINUOUS
 62
   241
  5
EA
  0
POLYLINE
  8
5
  6
CONTINUOUS
 62
   241
  5
EB
 66
     1
 10
0.0
 20
0.0
 30
0.0
210
0.0
220
0.0
230
1.0
  0
VERTEX
  8
5
  6
CONTINUOUS
 62
   241
  5
EC
 10
13247.906167
 20
3401.751083
 30
0.0
  0
VERTEX
  8
5
  6
CONTINUOUS
 62
   241
  5
ED
 10
13248.068083
 20
3401.77375
 30
0.0
  0
VERTEX
  8
5
  6
CONTINUOUS
 62
   241
  5
EE
 10
13248.23
 20
3401.82075
 30
0.0
  0
VERTEX
  8
5
  6
CONTINUOUS
 62
   241
  5
EF
 10
13248.347833
 20
3401.94375
 30
0.0
  0
VERTEX
  8
5
  6
CONTINUOUS
 62
   241
  5
F0
 10
13248.488333
 20
3402.09225
 30
0.0
  0
VERTEX
  8
5
  6
CONTINUOUS
 62
   241
  5
F1
 10
13248.650167
 20
3402.27025
 30
0.0
  0
SEQEND
  8
5
  6
CONTINUOUS
 62
   241
  5
F2
  0
POLYLINE
  8
5
  6
CONTINUOUS
 62
   241
  5
F3
 66
     1
 10
0.0
 20
0.0
 30
0.0
210
0.0
220
0.0
230
1.0
  0
VERTEX
  8
5
  6
CONTINUOUS
 62
   241
  5
F4
 10
13248.792
 20
3402.465583
 30
0.0
  0
VERTEX
  8
5
  6
CONTINUOUS
 62
   241
  5
F5
 10
13248.866917
 20
3402.6115
 30
0.0
  0
VERTEX
  8
5
  6
CONTINUOUS
 62
   241
  5
F6
 10
13248.874917
 20
3402.754583
 30
0.0
  0
SEQEND
  8
5
  6
CONTINUOUS
 62
   241
  5
F7
  0
LINE
  8
5
  6
DASHED
 62
   241
  5
F8
 10
13235.386833
 20
3401.899
 30
0.0
 11
13241.518917
 21
3401.899
 31
0.0
  0
LINE
  8
5
  6
DASHED
 62
   241
  5
F9
 10
13241.518917
 20
3402.490333
 30
0.0
 11
13235.386833
 21
3402.490333
 31
0.0
  0
LINE
  8
5
  6
CONTINUOUS
 62
   241
  5
FA
 10
13234.718
 20
3401.107583
 30
0.0
 11
13234.718
 21
3401.811
 31
0.0
  0
LINE
  8
5
  6
CONTINUOUS
 62
   241
  5
FB
 10
13234.718
 20
3402.01275
 30
0.0
 11
13234.718
 21
3402.042083
 31
0.0
  0
LINE
  8
5
  6
CENTER
 62
   241
  5
FC
 10
13234.718
 20
3402.055583
 30
0.0
 11
13234.718
 21
3402.333833
 31
0.0
  0
LINE
  8
5
  6
CONTINUOUS
 62
   241
  5
FD
 10
13234.718
 20
3402.3445
 30
0.0
 11
13234.718
 21
3402.376583
 31
0.0
  0
LINE
  8
5
  6
CONTINUOUS
 62
   241
  5
FE
 10
13234.718
 20
3402.390083
 30
0.0
 11
13234.718
 21
3402.4355
 31
0.0
  0
LINE
  8
5
  6
CONTINUOUS
 62
   241
  5
FF
 10
13234.213583
 20
3402.362
 30
0.0
 11
13234.440667
 21
3402.362
 31
0.0
  0
LINE
  8
5
  6
CONTINUOUS
 62
   241
  5
100
 10
13234.213583
 20
3402.0275
 30
0.0
 11
13234.440667
 21
3402.0275
 31
0.0
  0
LINE
  8
5
  6
CONTINUOUS
 62
   241
  5
101
 10
13235.052417
 20
3401.107583
 30
0.0
 11
13235.052417
 21
3401.811
 31
0.0
  0
LINE
  8
5
  6
CENTER
 62
   241
  5
102
 10
13234.528833
 20
3402.362
 30
0.0
 11
13234.845417
 21
3402.362
 31
0.0
  0
LINE
  8
5
  6
CENTER
 62
   241
  5
103
 10
13234.528833
 20
3402.0275
 30
0.0
 11
13234.845417
 21
3402.0275
 31
0.0
  0
LINE
  8
5
  6
CONTINUOUS
 62
   241
  5
104
 10
13233.731917
 20
3402.529167
 30
0.0
 11
13233.731917
 21
3401.860167
 31
0.0
  0
LINE
  8
5
  6
CONTINUOUS
 62
   241
  5
105
 10
13234.4945
 20
3400.584667
 30
0.0
 11
13241.518917
 21
3400.584667
 31
0.0
  0
LINE
  8
5
  6
CONTINUOUS
 62
   241
  5
106
 10
13241.518917
 20
3400.45325
 30
0.0
 11
13241.518917
 21
3401.811
 31
0.0
  0
LINE
  8
5
  6
CONTINUOUS
 62
   241
  5
107
 10
13234.718
 20
3401.5325
 30
0.0
 11
13234.9965
 21
3401.5325
 31
0.0
  0
TEXT
  8
5
  6
CONTINUOUS
 62
   241
  5
108
 10
13233.9095
 20
3401.517667
 30
0.0
 40
0.133
  1
2"
  7
MONOTXT
210
0.0
220
0.0
230
1.0
  0
TEXT
  8
5
  6
CONTINUOUS
 62
   241
  5
109
 10
13233.991
 20
3401.1705
 30
0.0
 40
0.133
  1
3"
  7
MONOTXT
210
0.0
220
0.0
230
1.0
  0
LINE
  8
5
  6
CONTINUOUS
 62
   241
  5
10A
 10
13235.943583
 20
3404.99525
 30
0.0
 11
13235.943583
 21
3405.69175
 31
0.0
  0
LINE
  8
5
  6
CONTINUOUS
 62
   241
  5
10B
 10
13235.386833
 20
3404.99525
 30
0.0
 11
13235.386833
 21
3405.961833
 31
0.0
  0
LINE
  8
5
  6
CONTINUOUS
 62
   241
  5
10C
 10
13234.4945
 20
3404.99525
 30
0.0
 11
13234.4945
 21
3405.961833
 31
0.0
  0
LINE
  8
5
  6
CONTINUOUS
 62
   241
  5
10D
 10
13234.4945
 20
3405.14675
 30
0.0
 11
13235.943583
 21
3405.14675
 31
0.0
  0
TEXT
  8
5
  6
CONTINUOUS
 62
   241
  5
10E
 10
13234.866167
 20
3405.250667
 30
0.0
 40
0.133
  1
8"
  7
MONOTXT
210
0.0
220
0.0
230
1.0
  0
TEXT
  8
5
  6
CONTINUOUS
 62
   241
  5
10F
 10
13235.610083
 20
3405.2715
 30
0.0
 40
0.133
  1
5"
  7
MONOTXT
210
0.0
220
0.0
230
1.0
  0
LINE
  8
5
  6
CONTINUOUS
 62
   241
  5
110
 10
13239.177417
 20
3404.414
 30
0.0
 11
13239.177417
 21
3405.135333
 31
0.0
  0
LINE
  8
5
  6
CONTINUOUS
 62
   241
  5
111
 10
13239.177417
 20
3404.5985
 30
0.0
 11
13241.518917
 21
3404.5985
 31
0.0
  0
LINE
  8
5
  6
CONTINUOUS
 62
   241
  5
112
 10
13241.518917
 20
3404.414
 30
0.0
 11
13241.518917
 21
3405.135333
 31
0.0
  0
LINE
  8
5
  6
CONTINUOUS
 62
   241
  5
113
 10
13240.241917
 20
3403.202833
 30
0.0
 11
13240.585583
 21
3403.202833
 31
0.0
  0
LINE
  8
5
  6
CONTINUOUS
 62
   241
  5
114
 10
13240.241917
 20
3403.202833
 30
0.0
 11
13239.418667
 21
3402.216
 31
0.0
  0
LINE
  8
5
  6
CONTINUOUS
 62
   241
  5
115
 10
13247.773667
 20
3401.710833
 30
0.0
 11
13247.773667
 21
3401.323083
 31
0.0
  0
LINE
  8
5
  6
CONTINUOUS
 62
   241
  5
116
 10
13247.773667
 20
3401.3765
 30
0.0
 11
13248.2755
 21
3401.3765
 31
0.0
  0
LINE
  8
5
  6
CONTINUOUS
 62
   241
  5
117
 10
13248.2755
 20
3401.323083
 30
0.0
 11
13248.2755
 21
3401.710833
 31
0.0
  0
LINE
  8
5
  6
CONTINUOUS
 62
   241
  5
118
 10
13247.399167
 20
3401.751083
 30
0.0
 11
13247.399167
 21
3402.754583
 31
0.0
  0
LINE
  8
5
  6
CONTINUOUS
 62
   241
  5
119
 10
13247.773667
 20
3402.79475
 30
0.0
 11
13247.773667
 21
3403.182667
 31
0.0
  0
LINE
  8
5
  6
CONTINUOUS
 62
   241
  5
11A
 10
13247.773667
 20
3403.12925
 30
0.0
 11
13249.000667
 21
3403.12925
 31
0.0
  0
LINE
  8
5
  6
CONTINUOUS
 62
   241
  5
11B
 10
13249.000667
 20
3403.182667
 30
0.0
 11
13249.000667
 21
3402.79475
 31
0.0
  0
INSERT
  8
5
  6
CONTINUOUS
 62
   241
  5
123
  2
ARWHD
 10
13234.718
 20
3401.5325
 30
0.0
 41
10.703825
 42
10.703825
 50
180.0
210
0.0
220
0.0
230
1.0
  0
INSERT
  8
5
  6
CONTINUOUS
 62
   241
  5
124
  2
ARWHD
 10
13234.4945
 20
3400.584667
 30
0.0
 41
10.703825
 42
10.703825
 50
180.0
210
0.0
220
0.0
230
1.0
  0
INSERT
  8
5
  6
CONTINUOUS
 62
   241
  5
125
  2
ARWHD
 10
13233.731917
 20
3402.529167
 30
0.0
 41
10.703825
 42
10.703825
 50
90.0
210
0.0
220
0.0
230
1.0
  0
INSERT
  8
5
  6
CONTINUOUS
 62
   241
  5
126
  2
ARWHD
 10
13233.731917
 20
3401.860167
 30
0.0
 41
10.703825
 42
10.703825
 50
270.0
210
0.0
220
0.0
230
1.0
  0
TEXT
  8
5
  6
CONTINUOUS
 62
   241
  5
127
 10
13233.466583
 20
3402.09575
 30
0.0
 40
0.133
  1
6"
  7
MONOTXT
210
0.0
220
0.0
230
1.0
  0
INSERT
  8
5
  6
CONTINUOUS
 62
   241
  5
128
  2
ARWHD
 10
13234.718
 20
3401.175667
 30
0.0
 41
10.703825
 42
10.703825
210
0.0
220
0.0
230
1.0
  0
INSERT
  8
5
  6
CONTINUOUS
 62
   241
  5
129
  2
ARWHD
 10
13235.052417
 20
3401.175667
 30
0.0
 41
10.703825
 42
10.703825
 50
180.0
210
0.0
220
0.0
230
1.0
  0
LINE
  8
5
  6
CONTINUOUS
 62
   241
  5
12A
 10
13234.4945
 20
3401.5325
 30
0.0
 11
13234.144
 21
3401.5325
 31
0.0
  0
INSERT
  8
5
  6
CONTINUOUS
 62
   241
  5
12B
  2
ARWHD
 10
13234.4945
 20
3401.5325
 30
0.0
 41
10.703825
 42
10.703825
210
0.0
220
0.0
230
1.0
  0
LINE
  8
5
  6
CONTINUOUS
 62
   241
  5
12C
 10
13234.267
 20
3402.362
 30
0.0
 11
13234.267
 21
3402.0275
 31
0.0
  0
INSERT
  8
5
  6
CONTINUOUS
 62
   241
  5
12D
  2
ARWHD
 10
13234.267
 20
3402.362
 30
0.0
 41
10.703825
 42
10.703825
 50
90.0
210
0.0
220
0.0
230
1.0
  0
INSERT
  8
5
  6
CONTINUOUS
 62
   241
  5
12E
  2
ARWHD
 10
13234.267
 20
3402.0275
 30
0.0
 41
10.703825
 42
10.703825
 50
270.0
210
0.0
220
0.0
230
1.0
  0
LINE
  8
5
  6
CONTINUOUS
 62
   241
  5
12F
 10
13234.267
 20
3402.529167
 30
0.0
 11
13234.267
 21
3403.0805
 31
0.0
  0
INSERT
  8
5
  6
CONTINUOUS
 62
   241
  5
130
  2
ARWHD
 10
13234.267
 20
3402.529167
 30
0.0
 41
10.703825
 42
10.703825
 50
270.0
210
0.0
220
0.0
230
1.0
  0
INSERT
  8
5
  6
CONTINUOUS
 62
   241
  5
131
  2
ARWHD
 10
13234.4945
 20
3405.14675
 30
0.0
 41
10.703825
 42
10.703825
 50
180.0
210
0.0
220
0.0
230
1.0
  0
INSERT
  8
5
  6
CONTINUOUS
 62
   241
  5
132
  2
ARWHD
 10
13235.943583
 20
3405.14675
 30
0.0
 41
10.703825
 42
10.703825
210
0.0
220
0.0
230
1.0
  0
POINT
  8
5
  6
CONTINUOUS
 62
   241
  5
133
 10
13235.386833
 20
3405.14675
 30
0.0
  0
INSERT
  8
5
  6
CONTINUOUS
 62
   241
  5
134
  2
ARWHD
 10
13235.386833
 20
3405.14675
 30
0.0
 41
10.703825
 42
10.703825
 50
180.0
210
0.0
220
0.0
230
1.0
  0
INSERT
  8
5
  6
CONTINUOUS
 62
   241
  5
135
  2
ARWHD
 10
13235.386833
 20
3405.14675
 30
0.0
 41
10.703825
 42
10.703825
210
0.0
220
0.0
230
1.0
  0
INSERT
  8
5
  6
CONTINUOUS
 62
   241
  5
136
  2
ARWHD
 10
13241.518917
 20
3400.584667
 30
0.0
 41
10.703825
 42
10.703825
210
0.0
220
0.0
230
1.0
  0
POINT
  8
5
  6
CONTINUOUS
 62
   241
  5
137
 10
13239.400917
 20
3401.175667
 30
0.0
  0
INSERT
  8
5
  6
CONTINUOUS
 62
   241
  5
138
  2
ARWHD
 10
13239.400917
 20
3401.175667
 30
0.0
 41
10.703825
 42
10.703825
210
0.0
220
0.0
230
1.0
  0
INSERT
  8
5
  6
CONTINUOUS
 62
   241
  5
139
  2
ARWHD
 10
13239.400917
 20
3401.175667
 30
0.0
 41
10.703825
 42
10.703825
 50
180.0
210
0.0
220
0.0
230
1.0
  0
LINE
  8
5
  6
CONTINUOUS
 62
   241
  5
13A
 10
13241.407833
 20
3401.43425
 30
0.0
 11
13241.407833
 21
3401.811
 31
0.0
  0
INSERT
  8
5
  6
CONTINUOUS
 62
   241
  5
13B
  2
ARWHD
 10
13239.177417
 20
3404.5985
 30
0.0
 41
10.703825
 42
10.703825
 50
180.0
210
0.0
220
0.0
230
1.0
  0
INSERT
  8
5
  6
CONTINUOUS
 62
   241
  5
13C
  2
ARWHD
 10
13241.518917
 20
3404.5985
 30
0.0
 41
10.703825
 42
10.703825
210
0.0
220
0.0
230
1.0
  0
LINE
  8
5
  6
CONTINUOUS
 62
   241
  5
13D
 10
13236.969333
 20
3405.51425
 30
0.0
 11
13238.109083
 21
3405.323
 31
0.0
  0
LINE
  8
5
  6
CONTINUOUS
 62
   241
  5
13E
 10
13236.969333
 20
3405.51425
 30
0.0
 11
13236.969333
 21
3405.323
 31
0.0
  0
LINE
  8
5
  6
CONTINUOUS
 62
   241
  5
13F
 10
13236.969333
 20
3405.323
 30
0.0
 11
13238.109083
 21
3405.323
 31
0.0
  0
TEXT
  8
5
  6
CONTINUOUS
 62
   241
  5
140
 10
13237.499083
 20
3405.068667
 30
0.0
 40
0.133
  1
12
  7
MONOTXT
210
0.0
220
0.0
230
1.0
  0
TEXT
  8
5
  6
CONTINUOUS
 62
   241
  5
141
 10
13236.802417
 20
3405.37175
 30
0.0
 40
0.133
  1
1
  7
MONOTXT
210
0.0
220
0.0
230
1.0
  0
LINE
  8
5
  6
CONTINUOUS
 62
   241
  5
142
 10
13235.061083
 20
3403.4145
 30
0.0
 11
13234.726583
 21
3403.4145
 31
0.0
  0
LINE
  8
5
  6
CONTINUOUS
 62
   241
  5
143
 10
13234.726583
 20
3403.4145
 30
0.0
 11
13234.729917
 21
3402.402083
 31
0.0
  0
INSERT
  8
5
  6
CONTINUOUS
 62
   241
  5
144
  2
ARWHD
 10
13234.729917
 20
3402.402083
 30
0.0
 41
10.703854
 42
10.703854
 50
269.942072
210
0.0
220
0.0
230
1.0
  0
LINE
  8
5
  6
CONTINUOUS
 62
   241
  5
145
 10
13239.178833
 20
3405.294
 30
0.0
 11
13239.970167
 21
3406.1135
 31
0.0
  0
LINE
  8
5
  6
CONTINUOUS
 62
   241
  5
146
 10
13240.662667
 20
3406.1135
 30
0.0
 11
13239.970167
 21
3406.1135
 31
0.0
  0
INSERT
  8
5
  6
CONTINUOUS
 62
   241
  5
147
  2
ARWHD
 10
13239.178833
 20
3405.294
 30
0.0
 41
10.703991
 42
10.703991
 50
225.976604
210
0.0
220
0.0
230
1.0
  0
LINE
  8
5
  6
CONTINUOUS
 62
   241
  5
148
 10
13240.518167
 20
3406.1095
 30
0.0
 11
13240.518167
 21
3405.840667
 31
0.0
  0
LINE
  8
5
  6
CONTINUOUS
 62
   241
  5
149
 10
13240.585083
 20
3406.1095
 30
0.0
 11
13240.585083
 21
3405.840667
 31
0.0
  0
TEXT
  8
5
  6
CONTINUOUS
 62
   241
  5
14A
 10
13240.240833
 20
3405.798333
 30
0.0
 40
0.133
  1
 1/4 
  7
MONOTXT
210
0.0
220
0.0
230
1.0
  0
LINE
  8
5
  6
CONTINUOUS
 62
   241
  5
14B
 10
13238.0415
 20
3407.088083
 30
0.0
 11
13238.588667
 21
3407.088083
 31
0.0
  0
LINE
  8
5
  6
CONTINUOUS
 62
   241
  5
14C
 10
13238.673083
 20
3407.088083
 30
0.0
 11
13239.256333
 21
3407.088083
 31
0.0
  0
LINE
  8
5
  6
CONTINUOUS
 62
   241
  5
14D
 10
13238.673083
 20
3407.088083
 30
0.0
 11
13238.644917
 21
3406.704
 31
0.0
  0
LINE
  8
5
  6
CONTINUOUS
 62
   241
  5
14E
 10
13238.644917
 20
3406.704
 30
0.0
 11
13238.616833
 21
3406.704
 31
0.0
  0
LINE
  8
5
  6
CONTINUOUS
 62
   241
  5
14F
 10
13238.616833
 20
3406.704
 30
0.0
 11
13238.588667
 21
3407.088083
 31
0.0
  0
LINE
  8
5
  6
CONTINUOUS
 62
   241
  5
150
 10
13238.616833
 20
3406.689333
 30
0.0
 11
13238.616833
 21
3406.522167
 31
0.0
  0
LINE
  8
5
  6
CONTINUOUS
 62
   241
  5
151
 10
13238.644917
 20
3406.689333
 30
0.0
 11
13238.644917
 21
3406.522167
 31
0.0
  0
TEXT
  8
5
  6
CONTINUOUS
 62
   241
  5
152
 10
13237.51625
 20
3406.516333
 30
0.0
 40
0.133
  1
 1/8 "
  7
MONOTXT
210
0.0
220
0.0
230
1.0
  0
LINE
  8
5
  6
CONTINUOUS
 62
   241
  5
153
 10
13238.644917
 20
3406.522167
 30
0.0
 11
13238.883083
 21
3406.522167
 31
0.0
  0
LINE
  8
5
  6
CONTINUOUS
 62
   241
  5
154
 10
13238.616833
 20
3406.522167
 30
0.0
 11
13237.865917
 21
3406.522167
 31
0.0
  0
INSERT
  8
5
  6
CONTINUOUS
 62
   241
  5
155
  2
ARWHD
 10
13238.616833
 20
3406.522167
 30
0.0
 41
10.703825
 42
10.703825
210
0.0
220
0.0
230
1.0
  0
INSERT
  8
5
  6
CONTINUOUS
 62
   241
  5
156
  2
ARWHD
 10
13238.644917
 20
3406.522167
 30
0.0
 41
10.703825
 42
10.703825
 50
180.0
210
0.0
220
0.0
230
1.0
  0
LINE
  8
5
  6
CONTINUOUS
 62
   241
  5
157
 10
13238.673083
 20
3407.128167
 30
0.0
 11
13238.673083
 21
3407.703583
 31
0.0
  0
LINE
  8
5
  6
CONTINUOUS
 62
   241
  5
158
 10
13238.588667
 20
3407.128167
 30
0.0
 11
13238.588667
 21
3407.890833
 31
0.0
  0
LINE
  8
5
  6
CONTINUOUS
 62
   241
  5
159
 10
13238.673083
 20
3407.703583
 30
0.0
 11
13239.0485
 21
3407.703583
 31
0.0
  0
LINE
  8
5
  6
CONTINUOUS
 62
   241
  5
15A
 10
13238.6315
 20
3407.890833
 30
0.0
 11
13238.818833
 21
3407.890833
 31
0.0
  0
LINE
  8
5
  6
CONTINUOUS
 62
   241
  5
15B
 10
13238.588667
 20
3407.890833
 30
0.0
 11
13238.180417
 21
3407.890833
 31
0.0
  0
LINE
  8
5
  6
CONTINUOUS
 62
   241
  5
15C
 10
13238.6315
 20
3407.703583
 30
0.0
 11
13238.438917
 21
3407.703583
 31
0.0
  0
INSERT
  8
5
  6
CONTINUOUS
 62
   241
  5
15D
  2
ARWHD
 10
13238.6315
 20
3407.890833
 30
0.0
 41
10.703825
 42
10.703825
 50
180.0
210
0.0
220
0.0
230
1.0
  0
INSERT
  8
5
  6
CONTINUOUS
 62
   241
  5
15E
  2
ARWHD
 10
13238.588667
 20
3407.890833
 30
0.0
 41
10.703825
 42
10.703825
210
0.0
220
0.0
230
1.0
  0
INSERT
  8
5
  6
CONTINUOUS
 62
   241
  5
15F
  2
ARWHD
 10
13238.6315
 20
3407.703583
 30
0.0
 41
10.703825
 42
10.703825
210
0.0
220
0.0
230
1.0
  0
INSERT
  8
5
  6
CONTINUOUS
 62
   241
  5
160
  2
ARWHD
 10
13238.673083
 20
3407.703583
 30
0.0
 41
10.703825
 42
10.703825
 50
180.0
210
0.0
220
0.0
230
1.0
  0
TEXT
  8
5
  6
CONTINUOUS
 62
   241
  5
161
 10
13239.1405
 20
3407.71275
 30
0.0
 40
0.133
  1
 3/16 "
  7
MONOTXT
210
0.0
220
0.0
230
1.0
  0
TEXT
  8
5
  6
CONTINUOUS
 62
   241
  5
162
 10
13237.880583
 20
3407.86825
 30
0.0
 40
0.133
  1
 3/16 "
  7
MONOTXT
210
0.0
220
0.0
230
1.0
  0
LINE
  8
5
  6
CONTINUOUS
 62
   241
  5
163
 10
13240.167417
 20
3407.066667
 30
0.0
 11
13239.865167
 21
3407.066667
 31
0.0
  0
LINE
  8
5
  6
CONTINUOUS
 62
   241
  5
164
 10
13239.865167
 20
3407.066667
 30
0.0
 11
13239.177417
 21
3405.46375
 31
0.0
  0
LINE
  8
5
  6
CONTINUOUS
 62
   241
  5
165
 10
13238.835083
 20
3406.1645
 30
0.0
 11
13239.023333
 21
3405.782833
 31
0.0
  0
LINE
  8
5
  6
CONTINUOUS
 62
   241
  5
166
 10
13240.662667
 20
3406.1135
 30
0.0
 11
13240.910167
 21
3406.361083
 31
0.0
  0
LINE
  8
5
  6
CONTINUOUS
 62
   241
  5
167
 10
13240.662667
 20
3406.1135
 30
0.0
 11
13240.896917
 21
3405.879333
 31
0.0
  0
LINE
  8
5
  6
CONTINUOUS
 62
   241
  5
168
 10
13235.172667
 20
3407.307833
 30
0.0
 11
13236.046417
 21
3407.307833
 31
0.0
  0
LINE
  8
5
  6
CONTINUOUS
 62
   241
  5
169
 10
13236.046417
 20
3407.307833
 30
0.0
 11
13235.6305
 21
3405.970833
 31
0.0
  0
INSERT
  8
5
  6
CONTINUOUS
 62
   241
  5
16A
  2
ARWHD
 10
13249.000667
 20
3403.12925
 30
0.0
 41
10.704351
 42
10.704351
210
0.0
220
0.0
230
1.0
  0
INSERT
  8
5
  6
CONTINUOUS
 62
   241
  5
16B
  2
ARWHD
 10
13247.773667
 20
3403.12925
 30
0.0
 41
10.704351
 42
10.704351
 50
180.0
210
0.0
220
0.0
230
1.0
  0
INSERT
  8
5
  6
CONTINUOUS
 62
   241
  5
16C
  2
ARWHD
 10
13247.399167
 20
3402.754583
 30
0.0
 41
10.704351
 42
10.704351
 50
90.0
210
0.0
220
0.0
230
1.0
  0
INSERT
  8
5
  6
CONTINUOUS
 62
   241
  5
16D
  2
ARWHD
 10
13247.399167
 20
3401.751083
 30
0.0
 41
10.704351
 42
10.704351
 50
270.0
210
0.0
220
0.0
230
1.0
  0
INSERT
  8
5
  6
CONTINUOUS
 62
   241
  5
16E
  2
ARWHD
 10
13247.773667
 20
3401.3765
 30
0.0
 41
10.704351
 42
10.704351
 50
180.0
210
0.0
220
0.0
230
1.0
  0
INSERT
  8
5
  6
CONTINUOUS
 62
   241
  5
16F
  2
ARWHD
 10
13248.2755
 20
3401.3765
 30
0.0
 41
10.704351
 42
10.704351
210
0.0
220
0.0
230
1.0
  0
TEXT
  8
5
  6
CONTINUOUS
 62
   241
  5
170
 10
13247.743667
 20
3400.972583
 30
0.0
 40
0.133
  1
2 1/4 "
  7
MONOTXT
210
0.0
220
0.0
230
1.0
  0
TEXT
  8
5
  6
CONTINUOUS
 62
   241
  5
171
 10
13248.245917
 20
3403.238167
 30
0.0
 40
0.133
  1
5 1/2 "
  7
MONOTXT
210
0.0
220
0.0
230
1.0
  0
TEXT
  8
5
  6
CONTINUOUS
 62
   241
  5
172
 10
13246.952583
 20
3402.157667
 30
0.0
 40
0.133
  1
4 1/2 "
  7
MONOTXT
210
0.0
220
0.0
230
1.0
  0
LINE
  8
5
  6
CONTINUOUS
 62
   241
  5
173
 10
13248.435
 20
3414.536333
 30
0.0
 11
13248.532667
 21
3413.882083
 31
0.0
  0
LINE
  8
5
  6
CONTINUOUS
 62
   241
  5
174
 10
13249.037167
 20
3414.536333
 30
0.0
 11
13248.659917
 21
3414.536333
 31
0.0
  0
LINE
  8
5
  6
CONTINUOUS
 62
   241
  5
175
 10
13248.435
 20
3414.536333
 30
0.0
 11
13248.095333
 21
3414.536333
 31
0.0
  0
LINE
  8
5
  6
CONTINUOUS
 62
   241
  5
176
 10
13242.173417
 20
3415.5805
 30
0.0
 11
13241.502417
 21
3415.5805
 31
0.0
  0
TEXT
  8
5
  6
CONTINUOUS
 62
   241
  5
177
 10
13241.655833
 20
3415.26725
 30
0.0
 40
0.133
  1
 1/4 "
  7
MONOTXT
210
0.0
220
0.0
230
1.0
  0
LINE
  8
5
  6
CONTINUOUS
 62
   241
  5
178
 10
13242.284333
 20
3416.2055
 30
0.0
 11
13241.550833
 21
3416.2055
 31
0.0
  0
LINE
  8
5
  6
CONTINUOUS
 62
   241
  5
179
 10
13242.284333
 20
3416.2055
 30
0.0
 11
13242.857333
 21
3414.905333
 31
0.0
  0
INSERT
  8
5
  6
CONTINUOUS
 62
   241
  5
17A
  2
ARWHD
 10
13242.857333
 20
3414.905333
 30
0.0
 41
10.703843
 42
-10.703843
 50
293.778538
210
0.0
220
0.0
230
1.0
  0
LINE
  8
5
  6
CONTINUOUS
 62
   241
  5
17B
 10
13243.109
 20
3413.56675
 30
0.0
 11
13242.886917
 21
3414.451583
 31
0.0
  0
LINE
  8
5
  6
CONTINUOUS
 62
   241
  5
17C
 10
13242.857333
 20
3413.5365
 30
0.0
 11
13242.857333
 21
3414.448167
 31
0.0
  0
LINE
  8
5
  6
CONTINUOUS
 62
   241
  5
17D
 10
13247.001667
 20
3414.54425
 30
0.0
 11
13246.7795
 21
3415.429083
 31
0.0
  0
LINE
  8
5
  6
CONTINUOUS
 62
   241
  5
17E
 10
13248.659917
 20
3414.536333
 30
0.0
 11
13248.562167
 21
3413.882083
 31
0.0
  0
LINE
  8
5
  6
CONTINUOUS
 62
   241
  5
17F
 10
13248.562167
 20
3413.882083
 30
0.0
 11
13248.532667
 21
3413.882083
 31
0.0
  0
LINE
  8
5
  6
CONTINUOUS
 62
   241
  5
180
 10
13248.532667
 20
3413.842083
 30
0.0
 11
13248.532667
 21
3413.680083
 31
0.0
  0
LINE
  8
5
  6
CONTINUOUS
 62
   241
  5
181
 10
13248.562167
 20
3413.842083
 30
0.0
 11
13248.562167
 21
3413.680083
 31
0.0
  0
TEXT
  8
5
  6
CONTINUOUS
 62
   241
  5
182
 10
13249.737333
 20
3413.679167
 30
0.0
 40
0.133
  1
 1/8 "
  7
MONOTXT
210
0.0
220
0.0
230
1.0
  0
LINE
  8
5
  6
CONTINUOUS
 62
   241
  5
183
 10
13248.562167
 20
3413.733583
 30
0.0
 11
13249.667417
 21
3413.733583
 31
0.0
  0
LINE
  8
5
  6
CONTINUOUS
 62
   241
  5
184
 10
13248.532667
 20
3413.733583
 30
0.0
 11
13248.265167
 21
3413.733583
 31
0.0
  0
INSERT
  8
5
  6
CONTINUOUS
 62
   241
  5
185
  2
ARWHD
 10
13248.532667
 20
3413.733583
 30
0.0
 41
10.704351
 42
10.704351
210
0.0
220
0.0
230
1.0
  0
INSERT
  8
5
  6
CONTINUOUS
 62
   241
  5
186
  2
ARWHD
 10
13248.562167
 20
3413.733583
 30
0.0
 41
10.704351
 42
10.704351
 50
180.0
210
0.0
220
0.0
230
1.0
  0
LINE
  8
5
  6
CONTINUOUS
 62
   241
  5
187
 10
13248.435
 20
3414.5765
 30
0.0
 11
13248.435
 21
3415.198667
 31
0.0
  0
LINE
  8
5
  6
CONTINUOUS
 62
   241
  5
188
 10
13248.659917
 20
3414.5765
 30
0.0
 11
13248.659917
 21
3415.031333
 31
0.0
  0
LINE
  8
5
  6
CONTINUOUS
 62
   241
  5
189
 10
13248.435
 20
3415.145167
 30
0.0
 11
13248.104167
 21
3415.145167
 31
0.0
  0
LINE
  8
5
  6
CONTINUOUS
 62
   241
  5
18A
 10
13248.548833
 20
3415.145167
 30
0.0
 11
13248.785667
 21
3415.145167
 31
0.0
  0
LINE
  8
5
  6
CONTINUOUS
 62
   241
  5
18B
 10
13248.659917
 20
3414.977833
 30
0.0
 11
13249.059667
 21
3414.977833
 31
0.0
  0
LINE
  8
5
  6
CONTINUOUS
 62
   241
  5
18C
 10
13248.548833
 20
3414.977833
 30
0.0
 11
13248.291917
 21
3414.977833
 31
0.0
  0
INSERT
  8
5
  6
CONTINUOUS
 62
   241
  5
18D
  2
ARWHD
 10
13248.659917
 20
3414.977833
 30
0.0
 41
10.704351
 42
10.704351
 50
180.0
210
0.0
220
0.0
230
1.0
  0
INSERT
  8
5
  6
CONTINUOUS
 62
   241
  5
18E
  2
ARWHD
 10
13248.548833
 20
3414.977833
 30
0.0
 41
10.704351
 42
10.704351
210
0.0
220
0.0
230
1.0
  0
INSERT
  8
5
  6
CONTINUOUS
 62
   241
  5
18F
  2
ARWHD
 10
13248.548833
 20
3415.145167
 30
0.0
 41
10.704351
 42
10.704351
 50
180.0
210
0.0
220
0.0
230
1.0
  0
INSERT
  8
5
  6
CONTINUOUS
 62
   241
  5
190
  2
ARWHD
 10
13248.435
 20
3415.145167
 30
0.0
 41
10.704351
 42
10.704351
210
0.0
220
0.0
230
1.0
  0
TEXT
  8
5
  6
CONTINUOUS
 62
   241
  5
191
 10
13249.151833
 20
3414.906417
 30
0.0
 40
0.133
  1
 1/2 "
  7
MONOTXT
210
0.0
220
0.0
230
1.0
  0
TEXT
  8
5
  6
CONTINUOUS
 62
   241
  5
192
 10
13247.814417
 20
3415.120083
 30
0.0
 40
0.133
  1
 1/2 "
  7
MONOTXT
210
0.0
220
0.0
230
1.0
  0
LINE
  8
5
  6
CONTINUOUS
 62
   241
  5
193
 10
13241.502417
 20
3415.5805
 30
0.0
 11
13241.254917
 21
3415.826667
 31
0.0
  0
LINE
  8
5
  6
CONTINUOUS
 62
   241
  5
194
 10
13241.510417
 20
3415.56975
 30
0.0
 11
13241.278917
 21
3415.33825
 31
0.0
  0
LINE
  8
5
  6
CONTINUOUS
 62
   241
  5
195
 10
13233.6025
 20
3413.5365
 30
0.0
 11
13233.6025
 21
3414.448167
 31
0.0
  0
LINE
  8
5
  6
CONTINUOUS
 62
   241
  5
196
 10
13233.371917
 20
3410.070833
 30
0.0
 11
13233.826083
 21
3410.070833
 31
0.0
  0
INSERT
  8
5
  6
CONTINUOUS
 62
   241
  5
197
  2
ARWHD
 10
13233.826083
 20
3410.070833
 30
0.0
 41
10.704351
 42
10.704351
210
0.0
220
0.0
230
1.0
  0
INSERT
  8
5
  6
CONTINUOUS
 62
   241
  5
198
  2
ARWHD
 10
13238.341667
 20
3410.070833
 30
0.0
 41
10.704351
 42
10.704351
210
0.0
220
0.0
230
1.0
  0
INSERT
  8
5
  6
CONTINUOUS
 62
   241
  5
199
  2
ARWHD
 10
13242.522833
 20
3410.070833
 30
0.0
 41
10.704351
 42
10.704351
210
0.0
220
0.0
230
1.0
  0
LINE
  8
5
  6
CONTINUOUS
 62
   241
  5
19A
 10
13243.061833
 20
3413.753167
 30
0.0
 11
13246.955333
 21
3414.72725
 31
0.0
  0
LINE
  8
5
  6
CONTINUOUS
 62
   241
  5
19B
 10
13233.6025
 20
3413.728083
 30
0.0
 11
13242.857333
 21
3413.728083
 31
0.0
  0
INSERT
  8
5
  6
CONTINUOUS
 62
   241
  5
19C
  2
ARWHD
 10
13246.955333
 20
3414.72725
 30
0.0
 41
10.704322
 42
10.704322
 50
14.041013
210
0.0
220
0.0
230
1.0
  0
INSERT
  8
5
  6
CONTINUOUS
 62
   241
  5
19D
  2
ARWHD
 10
13243.061833
 20
3413.753167
 30
0.0
 41
10.704322
 42
10.704322
 50
194.041013
210
0.0
220
0.0
230
1.0
  0
INSERT
  8
5
  6
CONTINUOUS
 62
   241
  5
19E
  2
ARWHD
 10
13242.857333
 20
3413.728083
 30
0.0
 41
10.704351
 42
10.704351
210
0.0
220
0.0
230
1.0
  0
INSERT
  8
5
  6
CONTINUOUS
 62
   241
  5
19F
  2
ARWHD
 10
13233.6025
 20
3413.728083
 30
0.0
 41
10.704351
 42
10.704351
 50
180.0
210
0.0
220
0.0
230
1.0
  0
TEXT
  8
5
  6
CONTINUOUS
 62
   241
  5
1A0
 10
13233.083583
 20
3409.984667
 30
0.0
 40
0.133
  1
3"
  7
MONOTXT
210
0.0
220
0.0
230
1.0
  0
LINE
  8
5
  6
CONTINUOUS
 62
   241
  5
1A1
 10
13234.121
 20
3410.481167
 30
0.0
 11
13233.826083
 21
3410.481167
 31
0.0
  0
INSERT
  8
5
  6
CONTINUOUS
 62
   241
  5
1A2
  2
ARWHD
 10
13233.6025
 20
3410.481167
 30
0.0
 41
10.704351
 42
10.704351
210
0.0
220
0.0
230
1.0
  0
TEXT
  8
5
  6
CONTINUOUS
 62
   241
  5
1A3
 10
13232.951167
 20
3410.340833
 30
0.0
 40
0.133
  1
2"
  7
MONOTXT
210
0.0
220
0.0
230
1.0
  0
INSERT
  8
5
  6
CONTINUOUS
 62
   241
  5
1A4
  2
ARWHD
 10
13238.341667
 20
3410.070833
 30
0.0
 41
10.704351
 42
10.704351
 50
180.0
210
0.0
220
0.0
230
1.0
  0
INSERT
  8
5
  6
CONTINUOUS
 62
   241
  5
1A5
  2
ARWHD
 10
13234.1605
 20
3410.070833
 30
0.0
 41
10.704351
 42
10.704351
 50
180.0
210
0.0
220
0.0
230
1.0
  0
LINE
  8
5
  6
CONTINUOUS
 62
   241
  5
1A6
 10
13246.309333
 20
3415.892833
 30
0.0
 11
13245.102417
 21
3415.892833
 31
0.0
  0
LINE
  8
5
  6
CONTINUOUS
 62
   241
  5
1A7
 10
13245.102417
 20
3415.892833
 30
0.0
 11
13245.102417
 21
3415.59175
 31
0.0
  0
LINE
  8
5
  6
CONTINUOUS
 62
   241
  5
1A8
 10
13245.102417
 20
3415.59175
 30
0.0
 11
13246.309333
 21
3415.892833
 31
0.0
  0
TEXT
  8
5
  6
CONTINUOUS
 62
   241
  5
1A9
 10
13245.521333
 20
3416.008833
 30
0.0
 40
0.133
  1
4
  7
MONOTXT
210
0.0
220
0.0
230
1.0
  0
TEXT
  8
5
  6
CONTINUOUS
 62
   241
  5
1AA
 10
13244.92875
 20
3415.77975
 30
0.0
 40
0.133
  1
1
  7
MONOTXT
210
0.0
220
0.0
230
1.0
  0
LINE
  8
5
  6
CONTINUOUS
 62
   241
  5
1AB
 10
13238.341667
 20
3410.874667
 30
0.0
 11
13238.341667
 21
3411.255333
 31
0.0
  0
LINE
  8
5
  6
CENTER
 62
   241
  5
1AC
 10
13246.943583
 20
3411.159167
 30
0.0
 11
13233.878667
 21
3411.159167
 31
0.0
  0
LINE
  8
5
  6
CONTINUOUS
 62
   241
  5
1AD
 10
13238.614667
 20
3411.159167
 30
0.0
 11
13238.614667
 21
3410.887833
 31
0.0
  0
INSERT
  8
5
  6
CONTINUOUS
 62
   241
  5
1AE
  2
ARWHD
 10
13238.614667
 20
3411.159167
 30
0.0
 41
10.704351
 42
10.704351
 50
90.0
210
0.0
220
0.0
230
1.0
  0
LINE
  8
5
  6
CONTINUOUS
 62
   241
  5
1AF
 10
13234.1605
 20
3410.871333
 30
0.0
 11
13234.1605
 21
3411.29775
 31
0.0
  0
TEXT
  8
5
  6
CONTINUOUS
 62
   241
  5
1B0
 10
13238.6035
 20
3411.286417
 30
0.0
 40
0.133
  1
3"
  7
MONOTXT
210
0.0
220
0.0
230
1.0
  0
LINE
  8
5
  6
CONTINUOUS
 62
   241
  5
1B1
 10
13233.775083
 20
3410.99175
 30
0.0
 11
13233.274833
 21
3410.99175
 31
0.0
  0
LINE
  8
5
  6
CONTINUOUS
 62
   241
  5
1B2
 10
13233.826083
 20
3410.9705
 30
0.0
 11
13233.826083
 21
3411.014583
 31
0.0
  0
LINE
  8
5
  6
CONTINUOUS
 62
   241
  5
1B3
 10
13233.776417
 20
3411.326333
 30
0.0
 11
13233.274833
 21
3411.326333
 31
0.0
  0
LINE
  8
5
  6
CONTINUOUS
 62
   241
  5
1B4
 10
13233.562417
 20
3410.803167
 30
0.0
 11
13232.639167
 21
3410.803167
 31
0.0
  0
LINE
  8
5
  6
CONTINUOUS
 62
   241
  5
1B5
 10
13233.562417
 20
3411.515
 30
0.0
 11
13232.639167
 21
3411.515
 31
0.0
  0
LINE
  8
5
  6
CONTINUOUS
 62
   241
  5
1B6
 10
13233.6025
 20
3410.803167
 30
0.0
 11
13234.373167
 21
3410.803167
 31
0.0
  0
LINE
  8
5
  6
CONTINUOUS
 62
   241
  5
1B7
 10
13233.6025
 20
3411.515
 30
0.0
 11
13234.373167
 21
3411.515
 31
0.0
  0
LINE
  8
5
  6
CONTINUOUS
 62
   241
  5
1B8
 10
13234.446833
 20
3410.809833
 30
0.0
 11
13234.498917
 21
3410.817833
 31
0.0
  0
LINE
  8
5
  6
CONTINUOUS
 62
   241
  5
1B9
 10
13234.448083
 20
3411.50825
 30
0.0
 11
13234.500167
 21
3411.500333
 31
0.0
  0
LINE
  8
5
  6
CONTINUOUS
 62
   241
  5
1BA
 10
13233.328333
 20
3411.326333
 30
0.0
 11
13233.328333
 21
3410.99175
 31
0.0
  0
INSERT
  8
5
  6
CONTINUOUS
 62
   241
  5
1BB
  2
ARWHD
 10
13233.328333
 20
3411.326333
 30
0.0
 41
10.704351
 42
10.704351
 50
90.0
210
0.0
220
0.0
230
1.0
  0
INSERT
  8
5
  6
CONTINUOUS
 62
   241
  5
1BC
  2
ARWHD
 10
13233.328333
 20
3410.99175
 30
0.0
 41
10.704351
 42
10.704351
 50
270.0
210
0.0
220
0.0
230
1.0
  0
LINE
  8
5
  6
CONTINUOUS
 62
   241
  5
1BD
 10
13233.328333
 20
3411.515
 30
0.0
 11
13233.328333
 21
3411.7945
 31
0.0
  0
INSERT
  8
5
  6
CONTINUOUS
 62
   241
  5
1BE
  2
ARWHD
 10
13233.328333
 20
3411.515
 30
0.0
 41
10.704351
 42
10.704351
 50
270.0
210
0.0
220
0.0
230
1.0
  0
TEXT
  8
5
  6
CONTINUOUS
 62
   241
  5
1BF
 10
13233.02
 20
3411.044333
 30
0.0
 40
0.133
  1
3"
  7
MONOTXT
210
0.0
220
0.0
230
1.0
  0
LINE
  8
5
  6
CONTINUOUS
 62
   241
  5
1C0
 10
13232.692667
 20
3411.515
 30
0.0
 11
13232.692667
 21
3410.803167
 31
0.0
  0
INSERT
  8
5
  6
CONTINUOUS
 62
   241
  5
1C1
  2
ARWHD
 10
13232.692667
 20
3411.515
 30
0.0
 41
10.704351
 42
10.704351
 50
90.0
210
0.0
220
0.0
230
1.0
  0
INSERT
  8
5
  6
CONTINUOUS
 62
   241
  5
1C2
  2
ARWHD
 10
13232.692667
 20
3410.803167
 30
0.0
 41
10.704351
 42
10.704351
 50
270.0
210
0.0
220
0.0
230
1.0
  0
TEXT
  8
5
  6
CONTINUOUS
 62
   241
  5
1C3
 10
13232.196833
 20
3411.059333
 30
0.0
 40
0.133
  1
6 3/8 "
  7
MONOTXT
210
0.0
220
0.0
230
1.0
  0
LINE
  8
5
  6
CONTINUOUS
 62
   241
  5
1C4
 10
13234.277083
 20
3412.45725
 30
0.0
 11
13233.847417
 21
3411.379833
 31
0.0
  0
INSERT
  8
5
  6
CONTINUOUS
 62
   241
  5
1C5
  2
ARWHD
 10
13233.847417
 20
3411.379833
 30
0.0
 41
10.704325
 42
10.704325
 50
248.256344
210
0.0
220
0.0
230
1.0
  0
LINE
  8
5
  6
CONTINUOUS
 62
   241
  5
1C6
 10
13243.773667
 20
3412.048583
 30
0.0
 11
13243.019667
 21
3412.048583
 31
0.0
  0
LINE
  8
5
  6
CONTINUOUS
 62
   241
  5
1C7
 10
13243.019667
 20
3412.048583
 30
0.0
 11
13242.599083
 21
3411.21525
 31
0.0
  0
INSERT
  8
5
  6
CONTINUOUS
 62
   241
  5
1C8
  2
ARWHD
 10
13242.599083
 20
3411.21525
 30
0.0
 41
10.704374
 42
10.704374
 50
243.216406
210
0.0
220
0.0
230
1.0
  0
INSERT
  8
5
  6
CONTINUOUS
 62
   241
  5
1C9
  2
ARWHD
 10
13239.177417
 20
3405.46375
 30
0.0
 41
10.704527
 42
10.704527
 50
246.78121
210
0.0
220
0.0
230
1.0
  0
INSERT
  8
5
  6
CONTINUOUS
 62
   241
  5
1CA
  2
ARWHD
 10
13235.6305
 20
3405.970833
 30
0.0
 41
10.704311
 42
10.704311
 50
252.67774
210
0.0
220
0.0
230
1.0
  0
ARC
  8
5
  6
CONTINUOUS
 62
   241
  5
1CB
 10
13234.574128
 20
3410.378663
 30
0.0
 40
0.445946
 50
89.999997
 51
99.659892
210
0.0
220
0.0
230
1.0
  0
ARC
  8
5
  6
CONTINUOUS
 62
   241
  5
1CC
 10
13234.373769
 20
3411.249148
 30
0.0
 40
0.445946
 50
270.0
 51
279.462322
210
0.0
220
0.0
230
1.0
  0
ARC
  8
5
  6
CONTINUOUS
 62
   241
  5
1CD
 10
13234.372995
 20
3411.069057
 30
0.0
 40
0.445946
 50
80.340106
 51
90.0
210
0.0
220
0.0
230
1.0
  0
ARC
  8
5
  6
CONTINUOUS
 62
   241
  5
1CE
 10
13234.573354
 20
3411.939541
 30
0.0
 40
0.445946
 50
260.537678
 51
270.0
210
0.0
220
0.0
230
1.0
  0
LINE
  8
5
  6
DASHED
 62
   241
  5
1CF
 10
13234.573917
 20
3410.846083
 30
0.0
 11
13246.750667
 21
3410.846083
 31
0.0
  0
ARC
  8
5
  6
DASHED
 62
   241
  5
1D0
 10
13234.574128
 20
3410.378663
 30
0.0
 40
0.466859
 50
89.999997
 51
99.659892
210
0.0
220
0.0
230
1.0
  0
LINE
  8
5
  6
DASHED
 62
   241
  5
1D1
 10
13234.444083
 20
3410.829833
 30
0.0
 11
13234.496333
 21
3410.838
 31
0.0
  0
ARC
  8
5
  6
DASHED
 62
   241
  5
1D2
 10
13234.373769
 20
3411.249148
 30
0.0
 40
0.425034
 50
270.0
 51
279.462322
210
0.0
220
0.0
230
1.0
  0
LINE
  8
5
  6
DASHED
 62
   241
  5
1D3
 10
13233.6025
 20
3410.8245
 30
0.0
 11
13234.373167
 21
3410.8245
 31
0.0
  0
LINE
  8
5
  6
DASHED
 62
   241
  5
1D4
 10
13233.6025
 20
3411.493667
 30
0.0
 11
13234.373167
 21
3411.493667
 31
0.0
  0
ARC
  8
5
  6
DASHED
 62
   241
  5
1D5
 10
13234.372995
 20
3411.069057
 30
0.0
 40
0.425034
 50
80.340106
 51
90.0
210
0.0
220
0.0
230
1.0
  0
ARC
  8
5
  6
DASHED
 62
   241
  5
1D6
 10
13234.573354
 20
3411.939541
 30
0.0
 40
0.466859
 50
260.537678
 51
270.0
210
0.0
220
0.0
230
1.0
  0
LINE
  8
5
  6
DASHED
 62
   241
  5
1D7
 10
13234.4455
 20
3411.48825
 30
0.0
 11
13234.497583
 21
3411.480167
 31
0.0
  0
LINE
  8
5
  6
DASHED
 62
   241
  5
1D8
 10
13234.573917
 20
3411.472167
 30
0.0
 11
13246.750667
 21
3411.472167
 31
0.0
  0
LINE
  8
5
  6
CONTINUOUS
 62
   241
  5
1D9
 10
13235.195667
 20
3402.529167
 30
0.0
 11
13235.195667
 21
3403.0805
 31
0.0
  0
LINE
  8
5
  6
CONTINUOUS
 62
   241
  5
1DA
 10
13235.195667
 20
3402.194667
 30
0.0
 11
13235.195667
 21
3401.96325
 31
0.0
  0
INSERT
  8
5
  6
CONTINUOUS
 62
   241
  5
1DB
  2
ARWHD
 10
13235.195667
 20
3402.194667
 30
0.0
 41
10.703825
 42
10.703825
 50
90.0
210
0.0
220
0.0
230
1.0
  0
INSERT
  8
5
  6
CONTINUOUS
 62
   241
  5
1DC
  2
ARWHD
 10
13235.195667
 20
3402.529167
 30
0.0
 41
10.703825
 42
10.703825
 50
270.0
210
0.0
220
0.0
230
1.0
  0
TEXT
  8
5
  6
CONTINUOUS
 62
   241
  5
1DD
 10
13233.965083
 20
3402.08175
 30
0.0
 40
0.133
  1
3"
  7
MONOTXT
210
0.0
220
0.0
230
1.0
  0
TEXT
  8
5
  6
CONTINUOUS
 62
   241
  5
1DE
 10
13235.126
 20
3402.301917
 30
0.0
 40
0.133
  1
3"
  7
MONOTXT
210
0.0
220
0.0
230
1.0
  0
LINE
  8
5
  6
CONTINUOUS
 62
   241
  5
1DF
 10
13236.006417
 20
3407.884167
 30
0.0
 11
13237.100583
 21
3407.884167
 31
0.0
  0
TEXT
  8
5
  6
CONTINUOUS
 62
   241
  5
1E0
 10
13236.226083
 20
3407.604083
 30
0.0
 40
0.133
  1
 1/4 
  7
MONOTXT
210
0.0
220
0.0
230
1.0
  0
LINE
  8
5
  6
CONTINUOUS
 62
   241
  5
1E1
 10
13236.006417
 20
3407.884167
 30
0.0
 11
13235.758917
 21
3408.131667
 31
0.0
  0
LINE
  8
5
  6
CONTINUOUS
 62
   241
  5
1E2
 10
13236.006417
 20
3407.884167
 30
0.0
 11
13235.772333
 21
3407.65
 31
0.0
  0
LINE
  8
5
  6
CONTINUOUS
 62
   241
  5
1E3
 10
13237.100583
 20
3407.884167
 30
0.0
 11
13235.823083
 21
3405.871833
 31
0.0
  0
LINE
  8
5
  6
CONTINUOUS
 62
   241
  5
1E4
 10
13236.572
 20
3407.884167
 30
0.0
 11
13236.572
 21
3407.54425
 31
0.0
  0
LINE
  8
5
  6
CONTINUOUS
 62
   241
  5
1E5
 10
13236.572
 20
3407.54425
 30
0.0
 11
13236.802083
 21
3407.884167
 31
0.0
  0
LINE
  8
5
  6
CONTINUOUS
 62
   241
  5
1E6
 10
13238.614667
 20
3411.493667
 30
0.0
 11
13238.614667
 21
3412.02875
 31
0.0
  0
INSERT
  8
5
  6
CONTINUOUS
 62
   241
  5
1E7
  2
ARWHD
 10
13238.614667
 20
3411.493667
 30
0.0
 41
10.704351
 42
10.704351
 50
270.0
210
0.0
220
0.0
230
1.0
  0
LINE
  8
5
  6
CONTINUOUS
 62
   241
  5
1E8
 10
13242.522833
 20
3411.306167
 30
0.0
 11
13242.522833
 21
3410.893583
 31
0.0
  0
LINE
  8
5
  6
CONTINUOUS
 62
   241
  5
1E9
 10
13242.173417
 20
3415.5805
 30
0.0
 11
13242.857333
 21
3414.706083
 31
0.0
  0
INSERT
  8
5
  6
CONTINUOUS
 62
   241
  5
1EA
  2
ARWHD
 10
13242.857333
 20
3414.706083
 30
0.0
 41
10.704364
 42
10.704364
 50
308.027297
210
0.0
220
0.0
230
1.0
  0
LINE
  8
5
  6
CONTINUOUS
 62
   241
  5
1EB
 10
13244.609417
 20
3401.751083
 30
0.0
 11
13246.170417
 21
3401.751083
 31
0.0
  0
LINE
  8
5
  6
CONTINUOUS
 62
   241
  5
1EC
 10
13244.609417
 20
3401.751083
 30
0.0
 11
13244.609417
 21
3402.754583
 31
0.0
  0
LINE
  8
5
  6
CONTINUOUS
 62
   241
  5
1ED
 10
13244.609417
 20
3402.79475
 30
0.0
 11
13244.609417
 21
3403.182667
 31
0.0
  0
LINE
  8
5
  6
CONTINUOUS
 62
   241
  5
1EE
 10
13244.609417
 20
3403.12925
 30
0.0
 11
13246.170833
 21
3403.12925
 31
0.0
  0
LINE
  8
5
  6
CONTINUOUS
 62
   241
  5
1EF
 10
13246.170833
 20
3403.182667
 30
0.0
 11
13246.170833
 21
3402.79475
 31
0.0
  0
INSERT
  8
5
  6
CONTINUOUS
 62
   241
  5
1F0
  2
ARWHD
 10
13246.170833
 20
3403.12925
 30
0.0
 41
10.704351
 42
10.704351
210
0.0
220
0.0
230
1.0
  0
INSERT
  8
5
  6
CONTINUOUS
 62
   241
  5
1F1
  2
ARWHD
 10
13244.609417
 20
3403.12925
 30
0.0
 41
10.704351
 42
10.704351
 50
180.0
210
0.0
220
0.0
230
1.0
  0
LINE
  8
5
  6
CONTINUOUS
 62
   241
  5
1F2
 10
13244.609417
 20
3402.754583
 30
0.0
 11
13246.170417
 21
3402.754583
 31
0.0
  0
LINE
  8
5
  6
CONTINUOUS
 62
   241
  5
1F3
 10
13246.170417
 20
3401.751083
 30
0.0
 11
13246.170417
 21
3402.754583
 31
0.0
  0
TEXT
  8
5
  6
CONTINUOUS
 62
   241
  5
1F4
 10
13245.331083
 20
3403.18475
 30
0.0
 40
0.133
  1
7"
  7
MONOTXT
210
0.0
220
0.0
230
1.0
  0
TEXT
  8
5
  6
CONTINUOUS
 62
   241
  5
1F5
 10
13244.82775
 20
3400.319833
 30
0.0
 40
0.24
  1
Front
  7
ROMANS
 72
     1
 11
13245.388417
 21
3400.559833
 31
0.0
210
0.0
220
0.0
230
1.0
 73
     3
  0
TEXT
  8
5
  6
CONTINUOUS
 62
   241
  5
1F6
 10
13247.916833
 20
3400.319833
 30
0.0
 40
0.24
  1
Side
  7
ROMANS
 72
     1
 11
13248.359333
 21
3400.559833
 31
0.0
210
0.0
220
0.0
230
1.0
 73
     3
  0
TEXT
  8
5
  6
CONTINUOUS
 62
   241
  5
1F7
 10
13240.667833
 20
3403.186083
 30
0.0
 40
0.133
  1
Drill   1/2 " dia.  hole
  7
MONOTXT
210
0.0
220
0.0
230
1.0
  0
TEXT
  8
5
  6
CONTINUOUS
 62
   241
  5
1F8
 10
13235.165417
 20
3403.326917
 30
0.0
 40
0.133
  1
Drill  3/4 " dia.  hole (typ.)
  7
MONOTXT
210
0.0
220
0.0
230
1.0
  0
TEXT
  8
5
  6
CONTINUOUS
 62
   241
  5
1F9
 10
13233.72775
 20
3402.7845
 30
0.0
 40
0.133
  1
1  1/2 "
  7
MONOTXT
210
0.0
220
0.0
230
1.0
  0
LINE
  8
5
  6
CENTER
 62
   241
  5
1FA
 10
13234.934083
 20
3402.194667
 30
0.0
 11
13241.643833
 21
3402.194667
 31
0.0
  0
LINE
  8
5
  6
CENTER
 62
   241
  5
1FB
 10
13241.407833
 20
3402.31075
 30
0.0
 11
13241.407833
 21
3401.879833
 31
0.0
  0
LINE
  8
5
  6
CENTER
 62
   241
  5
1FC
 10
13239.400917
 20
3402.253667
 30
0.0
 11
13239.400917
 21
3401.883667
 31
0.0
  0
LINE
  8
5
  6
CENTER
 62
   241
  5
1FD
 10
13235.052417
 20
3402.31075
 30
0.0
 11
13235.052417
 21
3401.888333
 31
0.0
  0
LINE
  8
5
  6
CENTER
 62
   241
  5
1FE
 10
13234.718
 20
3401.9995
 30
0.0
 11
13234.718
 21
3401.891083
 31
0.0
  0
LINE
  8
5
  6
CONTINUOUS
 62
   241
  5
1FF
 10
13234.4945
 20
3401.811
 30
0.0
 11
13234.4945
 21
3400.45325
 31
0.0
  0
LINE
  8
5
  6
CONTINUOUS
 62
   241
  5
200
 10
13234.440667
 20
3401.860167
 30
0.0
 11
13233.678333
 21
3401.860167
 31
0.0
  0
LINE
  8
5
  6
CONTINUOUS
 62
   241
  5
201
 10
13234.440667
 20
3402.529167
 30
0.0
 11
13233.678333
 21
3402.529167
 31
0.0
  0
TEXT
  8
5
  6
CONTINUOUS
 62
   241
  5
202
 10
13238.01
 20
3400.683
 30
0.0
 40
0.133
  1
5'-6"
  7
MONOTXT
210
0.0
220
0.0
230
1.0
  0
TEXT
  8
5
  6
CONTINUOUS
 62
   241
  5
203
 10
13237.468083
 20
3401.292667
 30
0.0
 40
0.133
  1
3'-3"
  7
MONOTXT
210
0.0
220
0.0
230
1.0
  0
TEXT
  8
5
  6
CONTINUOUS
 62
   241
  5
204
 10
13240.051083
 20
3401.23525
 30
0.0
 40
0.133
  1
1'-6"
  7
MONOTXT
210
0.0
220
0.0
230
1.0
  0
TEXT
  8
5
  6
CONTINUOUS
 62
   241
  5
205
 10
13240.0855
 20
3404.67575
 30
0.0
 40
0.133
  1
1'-9"
  7
MONOTXT
210
0.0
220
0.0
230
1.0
  0
LINE
  8
5
  6
CENTER
 62
   241
  5
206
 10
13241.073417
 20
3402.452083
 30
0.0
 11
13241.073417
 21
3401.8815
 31
0.0
  0
LINE
  8
5
  6
CONTINUOUS
 62
   241
  5
207
 10
13241.073417
 20
3401.107583
 30
0.0
 11
13241.073417
 21
3401.811
 31
0.0
  0
INSERT
  8
5
  6
CONTINUOUS
 62
   241
  5
208
  2
ARWHD
 10
13241.073417
 20
3401.175667
 30
0.0
 41
10.70362
 42
10.70362
210
0.0
220
0.0
230
1.0
  0
TEXT
  8
5
  6
CONTINUOUS
 62
   241
  5
209
 10
13241.17375
 20
3401.50775
 30
0.0
 40
0.133
  1
3"
  7
MONOTXT
210
0.0
220
0.0
230
1.0
  0
TEXT
  8
5
  6
CONTINUOUS
 62
   241
  5
20A
 10
13234.073583
 20
3407.839583
 30
0.0
 40
0.133
  1
Typ.  each flange
  7
MONOTXT
210
0.0
220
0.0
230
1.0
  0
TEXT
  8
5
  6
CONTINUOUS
 62
   241
  5
20B
 10
13240.793167
 20
3406.033167
 30
0.0
 40
0.133
  1
Typ.  each flange
  7
MONOTXT
210
0.0
220
0.0
230
1.0
  0
LINE
  8
5
  6
CENTER
 62
   241
  5
20C
 10
13240.979667
 20
3402.362
 30
0.0
 11
13241.1765
 21
3402.362
 31
0.0
  0
LINE
  8
5
  6
CENTER
 62
   241
  5
20D
 10
13240.979667
 20
3402.0275
 30
0.0
 11
13241.1765
 21
3402.0275
 31
0.0
  0
TEXT
  8
5
  6
CONTINUOUS
 62
   241
  5
20E
 10
13239.5615
 20
3415.620583
 30
0.0
 40
0.133
  1
Typ.  each flange
  7
MONOTXT
210
0.0
220
0.0
230
1.0
  0
LINE
  8
5
  6
DASHED
 62
   241
  5
20F
 10
13242.857333
 20
3410.8245
 30
0.0
 11
13242.857333
 21
3411.493667
 31
0.0
  0
LINE
  8
5
  6
CONTINUOUS
 62
   241
  5
210
 10
13244.609417
 20
3401.83575
 30
0.0
 11
13245.392833
 21
3401.751083
 31
0.0
  0
POLYLINE
  8
5
  6
CONTINUOUS
 62
   241
  5
211
 66
     1
 10
0.0
 20
0.0
 30
0.0
210
0.0
220
0.0
230
1.0
  0
VERTEX
  8
5
  6
CONTINUOUS
 62
   241
  5
212
 10
13244.609417
 20
3402.640833
 30
0.0
  0
VERTEX
  8
5
  6
CONTINUOUS
 62
   241
  5
213
 10
13244.942167
 20
3402.5915
 30
0.0
  0
VERTEX
  8
5
  6
CONTINUOUS
 62
   241
  5
214
 10
13245.378583
 20
3402.571833
 30
0.0
  0
VERTEX
  8
5
  6
CONTINUOUS
 62
   241
  5
215
 10
13245.802167
 20
3402.585
 30
0.0
  0
VERTEX
  8
5
  6
CONTINUOUS
 62
   241
  5
216
 10
13246.170417
 20
3402.609
 30
0.0
  0
SEQEND
  8
5
  6
CONTINUOUS
 62
   241
  5
217
  0
POLYLINE
  8
5
  6
CONTINUOUS
 62
   241
  5
218
 66
     1
 10
0.0
 20
0.0
 30
0.0
210
0.0
220
0.0
230
1.0
  0
VERTEX
  8
5
  6
CONTINUOUS
 62
   241
  5
219
 10
13244.609417
 20
3402.498833
 30
0.0
  0
VERTEX
  8
5
  6
CONTINUOUS
 62
   241
  5
21A
 10
13245.271
 20
3402.416083
 30
0.0
  0
VERTEX
  8
5
  6
CONTINUOUS
 62
   241
  5
21B
 10
13245.739083
 20
3402.429083
 30
0.0
  0
VERTEX
  8
5
  6
CONTINUOUS
 62
   241
  5
21C
 10
13246.158417
 20
3402.429667
 30
0.0
  0
VERTEX
  8
5
  6
CONTINUOUS
 62
   241
  5
21D
 10
13246.170417
 20
3402.43425
 30
0.0
  0
SEQEND
  8
5
  6
CONTINUOUS
 62
   241
  5
21E
  0
POLYLINE
  8
5
  6
CONTINUOUS
 62
   241
  5
21F
 66
     1
 10
0.0
 20
0.0
 30
0.0
210
0.0
220
0.0
230
1.0
  0
VERTEX
  8
5
  6
CONTINUOUS
 62
   241
  5
220
 10
13244.609417
 20
3401.974667
 30
0.0
  0
VERTEX
  8
5
  6
CONTINUOUS
 62
   241
  5
221
 10
13245.441667
 20
3401.90975
 30
0.0
  0
VERTEX
  8
5
  6
CONTINUOUS
 62
   241
  5
222
 10
13245.935
 20
3401.89025
 30
0.0
  0
VERTEX
  8
5
  6
CONTINUOUS
 62
   241
  5
223
 10
13246.170417
 20
3401.922583
 30
0.0
  0
SEQEND
  8
5
  6
CONTINUOUS
 62
   241
  5
224
  0
POLYLINE
  8
5
  6
CONTINUOUS
 62
   241
  5
225
 66
     1
 10
0.0
 20
0.0
 30
0.0
210
0.0
220
0.0
230
1.0
  0
VERTEX
  8
5
  6
CONTINUOUS
 62
   241
  5
226
 10
13244.609417
 20
3402.160167
 30
0.0
  0
VERTEX
  8
5
  6
CONTINUOUS
 62
   241
  5
227
 10
13244.9485
 20
3402.104583
 30
0.0
  0
VERTEX
  8
5
  6
CONTINUOUS
 62
   241
  5
228
 10
13245.429167
 20
3402.072083
 30
0.0
  0
VERTEX
  8
5
  6
CONTINUOUS
 62
   241
  5
229
 10
13245.739083
 20
3402.072083
 30
0.0
  0
VERTEX
  8
5
  6
CONTINUOUS
 62
   241
  5
22A
 10
13246.170417
 20
3402.077083
 30
0.0
  0
SEQEND
  8
5
  6
CONTINUOUS
 62
   241
  5
22B
  0
TEXT
  8
5
  6
CONTINUOUS
 62
   241
  5
22C
 10
13237.74
 20
3416.252833
 30
0.0
 40
0.133
  1
Cut flange,  bend and weld as shown
  7
MONOTXT
210
0.0
220
0.0
230
1.0
  0
TEXT
  8
5
  6
CONTINUOUS
 62
   241
  5
22D
 10
13234.965083
 20
3412.426167
 30
0.0
 40
0.133
  1
Splice bolt slots  3/4 " x 1  1/8 " (typ.)
  7
MONOTXT
210
0.0
220
0.0
230
1.0
  0
TEXT
  8
5
  6
CONTINUOUS
 62
   241
  5
22E
 10
13243.848667
 20
3411.982
 30
0.0
 40
0.133
  1
Post bolt slots  3/4 " x 2 1/2 " (typ.)
  7
MONOTXT
210
0.0
220
0.0
230
1.0
  0
LINE
  8
5
  6
CONTINUOUS
 62
   241
  5
22F
 10
13234.837417
 20
3412.45725
 30
0.0
 11
13234.277083
 21
3412.45725
 31
0.0
  0
TEXT
  8
5
  6
CONTINUOUS
 62
   241
  5
230
 10
13237.82325
 20
3413.836417
 30
0.0
 40
0.133
  1
6'-1 1"
  7
MONOTXT
210
0.0
220
0.0
230
1.0
  0
TEXT
  8
5
  6
CONTINUOUS
 62
   241
  5
231
 10
13245.003833
 20
3414.356917
 30
0.0
 40
0.133
  1
3'-0"
 50
14.022144
  7
MONOTXT
210
0.0
220
0.0
230
1.0
  0
POLYLINE
  8
5
  6
CONTINUOUS
 62
   241
  5
232
 66
     1
 10
0.0
 20
0.0
 30
0.0
210
0.0
220
0.0
230
1.0
  0
VERTEX
  8
5
  6
CONTINUOUS
 62
   241
  5
233
 10
13247.8985
 20
3414.020833
 30
0.0
  0
VERTEX
  8
5
  6
CONTINUOUS
 62
   241
  5
234
 10
13244.178667
 20
3413.492083
 30
0.0
  0
VERTEX
  8
5
  6
CONTINUOUS
 62
   241
  5
235
 10
13243.178833
 20
3414.434333
 30
0.0
  0
SEQEND
  8
5
  6
CONTINUOUS
 62
   241
  5
236
  0
TEXT
  8
5
  6
CONTINUOUS
 62
   241
  5
237
 10
13233.272583
 20
3411.904333
 30
0.0
 40
0.133
  1
1  11/16 "
  7
MONOTXT
210
0.0
220
0.0
230
1.0
  0
LINE
  8
5
  6
CONTINUOUS
 62
   241
  5
238
 10
13238.341667
 20
3410.777
 30
0.0
 11
13238.341667
 21
3410.7955
 31
0.0
  0
LINE
  8
5
  6
CONTINUOUS
 62
   241
  5
239
 10
13242.522833
 20
3410.777
 30
0.0
 11
13242.522833
 21
3410.787083
 31
0.0
  0
LINE
  8
5
  6
CONTINUOUS
 62
   241
  5
23A
 10
13233.6025
 20
3410.7255
 30
0.0
 11
13233.6025
 21
3410.36275
 31
0.0
  0
LINE
  8
5
  6
CONTINUOUS
 62
   241
  5
23B
 10
13246.581667
 20
3410.777
 30
0.0
 11
13246.581667
 21
3410.787083
 31
0.0
  0
TEXT
  8
5
  6
CONTINUOUS
 62
   241
  5
23C
 10
13236.2895
 20
3410.252083
 30
0.0
 40
0.133
  1
3'-1  1/2 "
  7
MONOTXT
210
0.0
220
0.0
230
1.0
  0
TEXT
  8
5
  6
CONTINUOUS
 62
   241
  5
23D
 10
13240.606917
 20
3410.292667
 30
0.0
 40
0.133
  1
3'-1  1/2 "
  7
MONOTXT
210
0.0
220
0.0
230
1.0
  0
LINE
  8
5
  6
CONTINUOUS
 62
   241
  5
23E
 10
13233.6025
 20
3410.481167
 30
0.0
 11
13233.219833
 21
3410.481167
 31
0.0
  0
INSERT
  8
5
  6
CONTINUOUS
 62
   241
  5
23F
  2
ARWHD
 10
13233.826083
 20
3410.481167
 30
0.0
 41
10.70362
 42
10.70362
 50
180.0
210
0.0
220
0.0
230
1.0
  0
LINE
  8
5
  6
CONTINUOUS
 62
   241
  5
240
 10
13242.522833
 20
3410.070833
 30
0.0
 11
13234.1605
 21
3410.070833
 31
0.0
  0
LINE
  8
5
  6
CONTINUOUS
 62
   241
  5
241
 10
13236.970417
 20
3404.651583
 30
0.0
 11
13236.668083
 21
3404.651583
 31
0.0
  0
LINE
  8
5
  6
CONTINUOUS
 62
   241
  5
242
 10
13236.970417
 20
3404.651583
 30
0.0
 11
13237.099
 21
3405.323
 31
0.0
  0
INSERT
  8
5
  6
CONTINUOUS
 62
   241
  5
243
  2
ARWHD
 10
13237.099
 20
3405.323
 30
0.0
 41
10.703611
 42
10.703611
 50
79.163222
210
0.0
220
0.0
230
1.0
  0
INSERT
  8
5
  6
CONTINUOUS
 62
   241
  5
244
  2
ARWHD
 10
13235.823083
 20
3405.871833
 30
0.0
 41
10.703616
 42
10.703616
 50
237.590635
210
0.0
220
0.0
230
1.0
  0
LINE
  8
5
  6
CONTINUOUS
 62
   241
  5
245
 10
13241.073417
 20
3401.175667
 30
0.0
 11
13235.052417
 21
3401.175667
 31
0.0
  0
LINE
  8
5
  6
CONTINUOUS
 62
   241
  5
246
 10
13234.255667
 20
3401.175667
 30
0.0
 11
13234.718
 21
3401.175667
 31
0.0
  0
LINE
  8
5
  6
CONTINUOUS
 62
   241
  5
247
 10
13241.7745
 20
3401.5325
 30
0.0
 11
13241.407833
 21
3401.5325
 31
0.0
  0
LINE
  8
5
  6
CONTINUOUS
 62
   241
  5
248
 10
13240.74
 20
3401.5325
 30
0.0
 11
13241.073417
 21
3401.5325
 31
0.0
  0
INSERT
  8
5
  6
CONTINUOUS
 62
   241
  5
249
  2
ARWHD
 10
13241.073417
 20
3401.5325
 30
0.0
 41
10.70362
 42
10.70362
210
0.0
220
0.0
230
1.0
  0
INSERT
  8
5
  6
CONTINUOUS
 62
   241
  5
24A
  2
ARWHD
 10
13241.407833
 20
3401.5325
 30
0.0
 41
10.70362
 42
10.70362
 50
180.0
210
0.0
220
0.0
230
1.0
  0
INSERT
  8
5
  6
CONTINUOUS
 62
   241
  5
24B
  2
ARWHD
 10
13239.418667
 20
3402.216
 30
0.0
 41
10.70362
 42
10.70362
 50
230.161314
210
0.0
220
0.0
230
1.0
  0
LINE
  8
5
  6
CONTINUOUS
 62
   241
  5
24C
 10
13247.710667
 20
3405.77725
 30
0.0
 11
13247.959
 21
3406.1225
 31
0.0
  0
LINE
  8
5
  6
CONTINUOUS
 62
   241
  5
24D
 10
13247.928083
 20
3405.77725
 30
0.0
 11
13248.176333
 21
3406.1225
 31
0.0
  0
LINE
  8
5
  6
CONTINUOUS
 62
   241
  5
24E
 10
13248.145417
 20
3405.77725
 30
0.0
 11
13248.393833
 21
3406.1225
 31
0.0
  0
LINE
  8
5
  6
CONTINUOUS
 62
   241
  5
24F
 10
13248.5985
 20
3405.823333
 30
0.0
 11
13248.339333
 21
3406.046833
 31
0.0
  0
LINE
  8
5
  6
CONTINUOUS
 62
   241
  5
250
 10
13248.726333
 20
3406.00075
 30
0.0
 11
13248.585167
 21
3406.1225
 31
0.0
  0
LINE
  8
5
  6
CONTINUOUS
 62
   241
  5
251
 10
13248.5655
 20
3405.77725
 30
0.0
 11
13248.813833
 21
3406.1225
 31
0.0
  0
LINE
  8
5
  6
CONTINUOUS
 62
   241
  5
252
 10
13248.782917
 20
3405.77725
 30
0.0
 11
13249.031167
 21
3406.1225
 31
0.0
  0
LINE
  8
5
  6
CONTINUOUS
 62
   241
  5
253
 10
13250.152583
 20
3408.550583
 30
0.0
 11
13250.892833
 21
3408.261
 31
0.0
  0
LINE
  8
5
  6
CONTINUOUS
 62
   241
  5
254
 10
13247.412417
 20
3406.563333
 30
0.0
 11
13247.412417
 21
3406.99825
 31
0.0
  0
LINE
  8
5
  6
CONTINUOUS
 62
   241
  5
255
 10
13247.412417
 20
3406.99825
 30
0.0
 11
13252.106833
 21
3406.99825
 31
0.0
  0
LINE
  8
5
  6
CONTINUOUS
 62
   241
  5
256
 10
13247.412417
 20
3406.563333
 30
0.0
 11
13252.106833
 21
3406.563333
 31
0.0
  0
CIRCLE
  8
5
  6
CONTINUOUS
 62
   241
  5
257
 10
13247.554078
 20
3406.890371
 30
0.0
 40
0.027177
210
0.0
220
0.0
230
1.0
  0
CIRCLE
  8
5
  6
CONTINUOUS
 62
   241
  5
258
 10
13247.561905
 20
3406.671216
 30
0.0
 40
0.027177
210
0.0
220
0.0
230
1.0
  0
CIRCLE
  8
5
  6
CONTINUOUS
 62
   241
  5
259
 10
13247.777581
 20
3406.783403
 30
0.0
 40
0.027177
210
0.0
220
0.0
230
1.0
  0
LINE
  8
5
  6
CONTINUOUS
 62
   241
  5
25A
 10
13250.892833
 20
3408.261
 30
0.0
 11
13250.892833
 21
3408.175667
 31
0.0
  0
LINE
  8
5
  6
CONTINUOUS
 62
   241
  5
25B
 10
13250.892833
 20
3408.261
 30
0.0
 11
13250.892833
 21
3406.99825
 31
0.0
  0
LINE
  8
5
  6
HIDDEN
 62
   241
  5
25C
 10
13250.469167
 20
3406.938167
 30
0.0
 11
13250.469167
 21
3406.612083
 31
0.0
  0
LINE
  8
5
  6
HIDDEN
 62
   241
  5
25D
 10
13250.469167
 20
3406.938167
 30
0.0
 11
13250.723
 21
3406.938167
 31
0.0
  0
LINE
  8
5
  6
HIDDEN
 62
   241
  5
25E
 10
13250.723
 20
3406.938167
 30
0.0
 11
13250.723
 21
3406.612083
 31
0.0
  0
LINE
  8
5
  6
HIDDEN
 62
   241
  5
25F
 10
13250.469167
 20
3406.612083
 30
0.0
 11
13250.723
 21
3406.612083
 31
0.0
  0
LINE
  8
5
  6
CONTINUOUS
 62
   241
  5
260
 10
13250.892833
 20
3406.546
 30
0.0
 11
13250.892833
 21
3406.105083
 31
0.0
  0
LINE
  8
5
  6
CONTINUOUS
 62
   241
  5
261
 10
13249.191583
 20
3406.1225
 30
0.0
 11
13252.106833
 21
3406.1225
 31
0.0
  0
LINE
  8
5
  6
CONTINUOUS
 62
   241
  5
262
 10
13247.959
 20
3406.1225
 30
0.0
 11
13249.191583
 21
3406.1225
 31
0.0
  0
LINE
  8
5
  6
CONTINUOUS
 62
   241
  5
263
 10
13247.915667
 20
3406.563333
 30
0.0
 11
13247.915667
 21
3406.99825
 31
0.0
  0
LINE
  8
5
  6
CONTINUOUS
 62
   241
  5
264
 10
13248.223167
 20
3406.563333
 30
0.0
 11
13248.223167
 21
3406.99825
 31
0.0
  0
CIRCLE
  8
5
  6
CONTINUOUS
 62
   241
  5
265
 10
13250.602246
 20
3406.779054
 30
0.0
 40
0.027177
210
0.0
220
0.0
230
1.0
  0
LINE
  8
5
  6
CONTINUOUS
 62
   241
  5
266
 10
13245.6195
 20
3406.1225
 30
0.0
 11
13247.959
 21
3406.1225
 31
0.0
  0
LINE
  8
5
  6
CONTINUOUS
 62
   241
  5
267
 10
13245.6195
 20
3408.550583
 30
0.0
 11
13250.152583
 21
3408.550583
 31
0.0
  0
LINE
  8
5
  6
CONTINUOUS
 62
   241
  5
268
 10
13245.6195
 20
3406.36425
 30
0.0
 11
13250.878833
 21
3406.36425
 31
0.0
  0
LINE
  8
5
  6
CENTER
 62
   241
  5
269
 10
13247.462
 20
3406.7835
 30
0.0
 11
13251.166583
 21
3406.7835
 31
0.0
  0
TEXT
  8
5
  6
CONTINUOUS
 62
   241
  5
26A
 10
13246.658417
 20
3406.542917
 30
0.0
 40
0.133
  1
9"
  7
MONOTXT
210
0.0
220
0.0
230
1.0
  0
LINE
  8
5
  6
CONTINUOUS
 62
   241
  5
26B
 10
13245.6195
 20
3408.89275
 30
0.0
 11
13245.6195
 21
3407.59925
 31
0.0
  0
LINE
  8
5
  6
CONTINUOUS
 62
   241
  5
26C
 10
13245.6195
 20
3407.120167
 30
0.0
 11
13245.6195
 21
3405.683
 31
0.0
  0
LINE
  8
5
  6
CONTINUOUS
 62
   241
  5
26D
 10
13245.6195
 20
3407.120167
 30
0.0
 11
13245.896833
 21
3407.120167
 31
0.0
  0
LINE
  8
5
  6
CONTINUOUS
 62
   241
  5
26E
 10
13245.342
 20
3407.59925
 30
0.0
 11
13245.6195
 21
3407.59925
 31
0.0
  0
LINE
  8
5
  6
CONTINUOUS
 62
   241
  5
26F
 10
13245.342
 20
3407.59925
 30
0.0
 11
13245.896833
 21
3407.120167
 31
0.0
  0
LINE
  8
5
  6
CONTINUOUS
 62
   241
  5
270
 10
13252.106833
 20
3407.558083
 30
0.0
 11
13252.106833
 21
3406.895833
 31
0.0
  0
LINE
  8
5
  6
CONTINUOUS
 62
   241
  5
271
 10
13252.106833
 20
3406.650583
 30
0.0
 11
13252.106833
 21
3405.914667
 31
0.0
  0
LINE
  8
5
  6
CONTINUOUS
 62
   241
  5
272
 10
13252.106833
 20
3406.650583
 30
0.0
 11
13252.248917
 21
3406.650583
 31
0.0
  0
LINE
  8
5
  6
CONTINUOUS
 62
   241
  5
273
 10
13251.964667
 20
3406.895833
 30
0.0
 11
13252.106833
 21
3406.895833
 31
0.0
  0
LINE
  8
5
  6
CONTINUOUS
 62
   241
  5
274
 10
13251.964667
 20
3406.895833
 30
0.0
 11
13252.248917
 21
3406.650583
 31
0.0
  0
LINE
  8
5
  6
CONTINUOUS
 62
   241
  5
275
 10
13250.579833
 20
3406.938167
 30
0.0
 11
13250.163417
 21
3407.934583
 31
0.0
  0
INSERT
  8
5
  6
CONTINUOUS
 62
   241
  5
276
  2
ARWHD
 10
13250.579833
 20
3406.938167
 30
0.0
 41
10.703614
 42
10.703614
 50
292.68212
210
0.0
220
0.0
230
1.0
  0
LINE
  8
5
  6
CONTINUOUS
 62
   241
  5
277
 10
13247.348083
 20
3406.7835
 30
0.0
 11
13246.907667
 21
3406.7835
 31
0.0
  0
LINE
  8
5
  6
CONTINUOUS
 62
   241
  5
278
 10
13247.046417
 20
3406.1225
 30
0.0
 11
13247.046417
 21
3406.7835
 31
0.0
  0
INSERT
  8
5
  6
CONTINUOUS
 62
   241
  5
279
  2
ARWHD
 10
13247.046417
 20
3406.7835
 30
0.0
 41
10.70362
 42
10.70362
 50
90.0
210
0.0
220
0.0
230
1.0
  0
INSERT
  8
5
  6
CONTINUOUS
 62
   241
  5
27A
  2
ARWHD
 10
13247.046417
 20
3406.1225
 30
0.0
 41
10.70362
 42
10.70362
 50
270.0
210
0.0
220
0.0
230
1.0
  0
LINE
  8
5
  6
DASHED
 62
   241
  5
27B
 10
13247.915667
 20
3406.9715
 30
0.0
 11
13252.106833
 21
3406.9715
 31
0.0
  0
LINE
  8
5
  6
DASHED
 62
   241
  5
27C
 10
13247.915667
 20
3406.590167
 30
0.0
 11
13252.106833
 21
3406.590167
 31
0.0
  0
CIRCLE
  8
5
  6
CONTINUOUS
 62
   241
  5
27D
 10
13245.389874
 20
3402.252852
 30
0.0
 40
0.035679
210
0.0
220
0.0
230
1.0
  0
POLYLINE
  8
5
  6
CONTINUOUS
 62
   241
  5
27E
 66
     1
 10
0.0
 20
0.0
 30
0.0
210
0.0
220
0.0
230
1.0
  0
VERTEX
  8
5
  6
CONTINUOUS
 62
   241
  5
27F
 10
13244.609417
 20
3402.340167
 30
0.0
  0
VERTEX
  8
5
  6
CONTINUOUS
 62
   241
  5
280
 10
13244.973917
 20
3402.29925
 30
0.0
  0
VERTEX
  8
5
  6
CONTINUOUS
 62
   241
  5
281
 10
13245.331
 20
3402.2485
 30
0.0
  0
SEQEND
  8
5
  6
CONTINUOUS
 62
   241
  5
282
  0
POLYLINE
  8
5
  6
CONTINUOUS
 62
   241
  5
283
 66
     1
 10
0.0
 20
0.0
 30
0.0
210
0.0
220
0.0
230
1.0
  0
VERTEX
  8
5
  6
CONTINUOUS
 62
   241
  5
284
 10
13245.427167
 20
3402.234667
 30
0.0
  0
VERTEX
  8
5
  6
CONTINUOUS
 62
   241
  5
285
 10
13245.429167
 20
3402.234333
 30
0.0
  0
VERTEX
  8
5
  6
CONTINUOUS
 62
   241
  5
286
 10
13245.675833
 20
3402.227833
 30
0.0
  0
VERTEX
  8
5
  6
CONTINUOUS
 62
   241
  5
287
 10
13245.960417
 20
3402.253833
 30
0.0
  0
VERTEX
  8
5
  6
CONTINUOUS
 62
   241
  5
288
 10
13246.170417
 20
3402.258333
 30
0.0
  0
SEQEND
  8
5
  6
CONTINUOUS
 62
   241
  5
289
  0
LINE
  8
5
  6
CONTINUOUS
 62
   241
  5
28A
 10
13246.4555
 20
3401.751083
 30
0.0
 11
13246.4555
 21
3402.754583
 31
0.0
  0
INSERT
  8
5
  6
CONTINUOUS
 62
   241
  5
28B
  2
ARWHD
 10
13246.4555
 20
3402.754583
 30
0.0
 41
10.704351
 42
10.704351
 50
90.0
210
0.0
220
0.0
230
1.0
  0
INSERT
  8
5
  6
CONTINUOUS
 62
   241
  5
28C
  2
ARWHD
 10
13246.4555
 20
3401.751083
 30
0.0
 41
10.704351
 42
10.704351
 50
270.0
210
0.0
220
0.0
230
1.0
  0
LINE
  8
5
  6
CONTINUOUS
 62
   241
  5
28D
 10
13246.226583
 20
3402.754583
 30
0.0
 11
13246.514417
 21
3402.754583
 31
0.0
  0
LINE
  8
5
  6
CONTINUOUS
 62
   241
  5
28E
 10
13247.339
 20
3402.754583
 30
0.0
 11
13247.733667
 21
3402.754583
 31
0.0
  0
LINE
  8
5
  6
CONTINUOUS
 62
   241
  5
28F
 10
13247.733667
 20
3401.751083
 30
0.0
 11
13247.325917
 21
3401.751083
 31
0.0
  0
LINE
  8
5
  6
CONTINUOUS
 62
   241
  5
290
 10
13246.514417
 20
3401.751083
 30
0.0
 11
13246.226583
 21
3401.751083
 31
0.0
  0
LINE
  8
5
  6
DASHED
 62
   241
  5
291
 10
13247.773667
 20
3402.2885
 30
0.0
 11
13248.663833
 21
3402.2885
 31
0.0
  0
LINE
  8
5
  6
DASHED
 62
   241
  5
292
 10
13247.773667
 20
3402.21725
 30
0.0
 11
13248.612417
 21
3402.21725
 31
0.0
  0
LINE
  8
5
  6
CONTINUOUS
 62
   241
  5
293
 10
13244.138917
 20
3402.252833
 30
0.0
 11
13244.138917
 21
3402.754583
 31
0.0
  0
LINE
  8
5
  6
CONTINUOUS
 62
   241
  5
294
 10
13244.609417
 20
3401.524333
 30
0.0
 11
13245.389917
 21
3401.524333
 31
0.0
  0
LINE
  8
5
  6
CONTINUOUS
 62
   241
  5
295
 10
13244.544667
 20
3402.754583
 30
0.0
 11
13244.08
 21
3402.754583
 31
0.0
  0
LINE
  8
5
  6
CONTINUOUS
 62
   241
  5
296
 10
13244.609417
 20
3401.684833
 30
0.0
 11
13244.609417
 21
3401.4425
 31
0.0
  0
LINE
  8
5
  6
CONTINUOUS
 62
   241
  5
297
 10
13245.389917
 20
3402.156167
 30
0.0
 11
13245.389917
 21
3401.4425
 31
0.0
  0
LINE
  8
5
  6
CONTINUOUS
 62
   241
  5
298
 10
13245.257917
 20
3402.252833
 30
0.0
 11
13244.08
 21
3402.252833
 31
0.0
  0
INSERT
  8
5
  6
CONTINUOUS
 62
   241
  5
299
  2
ARWHD
 10
13244.138917
 20
3402.754583
 30
0.0
 41
10.704351
 42
10.704351
 50
90.0
210
0.0
220
0.0
230
1.0
  0
INSERT
  8
5
  6
CONTINUOUS
 62
   241
  5
29A
  2
ARWHD
 10
13244.138917
 20
3402.252833
 30
0.0
 41
10.704351
 42
10.704351
 50
270.0
210
0.0
220
0.0
230
1.0
  0
INSERT
  8
5
  6
CONTINUOUS
 62
   241
  5
29B
  2
ARWHD
 10
13244.609417
 20
3401.524333
 30
0.0
 41
10.704351
 42
10.704351
 50
180.0
210
0.0
220
0.0
230
1.0
  0
INSERT
  8
5
  6
CONTINUOUS
 62
   241
  5
29C
  2
ARWHD
 10
13245.389917
 20
3401.524333
 30
0.0
 41
10.704351
 42
10.704351
210
0.0
220
0.0
230
1.0
  0
TEXT
  8
5
  6
CONTINUOUS
 62
   241
  5
29D
 10
13243.616417
 20
3402.385417
 30
0.0
 40
0.133
  1
2 1/4 "
  7
MONOTXT
210
0.0
220
0.0
230
1.0
  0
TEXT
  8
5
  6
CONTINUOUS
 62
   241
  5
29E
 10
13244.826
 20
3401.18625
 30
0.0
 40
0.133
  1
3 1/2 "
  7
MONOTXT
210
0.0
220
0.0
230
1.0
  0
TEXT
  8
5
  6
CONTINUOUS
 62
   241
  5
29F
 10
13246.231667
 20
3401.2545
 30
0.0
 40
0.133
  1
 1/4 "O
  7
MONOTXT
210
0.0
220
0.0
230
1.0
  0
LINE
  8
5
  6
CONTINUOUS
 62
   241
  5
2A0
 10
13247.031417
 20
3401.47525
 30
0.0
 11
13246.769583
 21
3401.0825
 31
0.0
  0
LINE
  8
5
  6
CONTINUOUS
 62
   241
  5
2A1
 10
13246.102167
 20
3401.28525
 30
0.0
 11
13245.879167
 21
3401.28525
 31
0.0
  0
LINE
  8
5
  6
CONTINUOUS
 62
   241
  5
2A2
 10
13245.879167
 20
3401.28525
 30
0.0
 11
13245.415
 21
3402.208667
 31
0.0
  0
INSERT
  8
5
  6
CONTINUOUS
 62
   241
  5
2A3
  2
ARWHD
 10
13245.415
 20
3402.208667
 30
0.0
 41
10.703614
 42
10.703614
 50
116.69181
210
0.0
220
0.0
230
1.0
  0
TEXT
  8
5
  6
CONTINUOUS
 62
   241
  5
2A4
 10
13255.101417
 20
3413.7055
 30
0.0
 40
0.133
  1
1.
  7
MONOTXT
210
0.0
220
0.0
230
1.0
  0
TEXT
  8
5
  6
CONTINUOUS
 62
   241
  5
2A5
 10
13255.102833
 20
3412.11625
 30
0.0
 40
0.133
  1
2.
  7
MONOTXT
210
0.0
220
0.0
230
1.0
  0
TEXT
  8
5
  6
CONTINUOUS
 62
   241
  5
2A6
 10
13255.5835
 20
3413.72525
 30
0.0
 40
0.133
  1
Rubrail end must be attached flush with sloped toe of safety
  7
MONOTXT
210
0.0
220
0.0
230
1.0
  0
TEXT
  8
5
  6
CONTINUOUS
 62
   241
  5
2A7
 10
13255.458917
 20
3413.519333
 30
0.0
 40
0.133
  1
 shape.   Installation can be 
  7
MONOTXT
210
0.0
220
0.0
230
1.0
  0
TEXT
  8
5
  6
CONTINUOUS
 62
   241
  5
2A8
 10
13255.563417
 20
3413.330083
 30
0.0
 40
0.133
  1
or shop twisting the rubrail end to be consistent with the
  7
MONOTXT
210
0.0
220
0.0
230
1.0
  0
TEXT
  8
5
  6
CONTINUOUS
 62
   241
  5
2A9
 10
13258.375583
 20
3413.501583
 30
0.0
 40
0.133
  1
greatly simplified by fabricating 
  7
MONOTXT
210
0.0
220
0.0
230
1.0
  0
TEXT
  8
5
  6
CONTINUOUS
 62
   241
  5
2AA
 10
13255.5945
 20
3413.104917
 30
0.0
 40
0.133
  1
the slope of safety shape.  Rubrail ends twisted both
  7
MONOTXT
210
0.0
220
0.0
230
1.0
  0
TEXT
  8
5
  6
CONTINUOUS
 62
   241
  5
2AB
 10
13255.446
 20
3412.9205
 30
0.0
 40
0.133
  1
 clockwise and counterclockwise may be required in most
  7
MONOTXT
210
0.0
220
0.0
230
1.0
  0
TEXT
  8
5
  6
CONTINUOUS
 62
   241
  5
2AC
 10
13255.448167
 20
3412.723667
 30
0.0
 40
0.133
  1
 situations.
  7
MONOTXT
210
0.0
220
0.0
230
1.0
  0
TEXT
  8
5
  6
CONTINUOUS
 62
   241
  5
2AD
 10
13255.561333
 20
3412.110083
 30
0.0
 40
0.133
  1
The rubrail end attachment to the concrete safety shope 
  7
MONOTXT
210
0.0
220
0.0
230
1.0
  0
TEXT
  8
5
  6
CONTINUOUS
 62
   241
  5
2AE
 10
13255.552083
 20
3411.711083
 30
0.0
 40
0.133
  1
anchors should be used to reduce the risk of splitting
  7
MONOTXT
210
0.0
220
0.0
230
1.0
  0
TEXT
  8
5
  6
CONTINUOUS
 62
   241
  5
2AF
 10
13255.561333
 20
3411.5115
 30
0.0
 40
0.133
  1
the concrete.
  7
MONOTXT
210
0.0
220
0.0
230
1.0
  0
TEXT
  8
5
  6
CONTINUOUS
 62
   215
  5
2B0
 10
13259.08125
 20
3399.481583
 30
0.0
 40
0.208333
  1
W-BEAM TRANSITION
  7
txt
 72
     4
 11
13260.803667
 21
3399.58575
 31
0.0
210
0.0
220
0.0
230
1.0
  0
TEXT
  8
5
  6
CONTINUOUS
 62
   215
  5
2B1
 10
13259.257917
 20
3399.038083
 30
0.0
 40
0.208333
  1
TO SAFETY SHAPE
  7
txt
 72
     4
 11
13260.773667
 21
3399.14225
 31
0.0
210
0.0
220
0.0
230
1.0
  0
TEXT
  8
5
  6
CONTINUOUS
 62
   215
  5
2B2
 10
13259.38225
 20
3398.64675
 30
0.0
 40
0.208333
  1
RUBRAIL DETAILS
  7
txt
 72
     4
 11
13260.898
 21
3398.750917
 31
0.0
210
0.0
220
0.0
230
1.0
  0
TEXT
  8
3
  6
CONTINUOUS
 62
   140
  5
2B3
 10
13258.653417
 20
3400.395833
 30
0.0
 40
0.1875
  1
STANDARD  DETAIL
  7
ROMANT
 72
     4
 11
13259.694917
 21
3400.489583
 31
0.0
210
0.0
220
0.0
230
1.0
  0
TEXT
  8
5
  6
CONTINUOUS
 62
   241
  5
2B4
 10
13240.261167
 20
3407.091417
 30
0.0
 40
0.133
  1
Cut flange,  bend
  7
MONOTXT
210
0.0
220
0.0
230
1.0
  0
TEXT
  8
5
  6
CONTINUOUS
 62
   241
  5
2B5
 10
13240.154417
 20
3406.854167
 30
0.0
 40
0.133
  1
and weld as shown
  7
MONOTXT
210
0.0
220
0.0
230
1.0
  0
TEXT
  8
5
  6
CONTINUOUS
 62
   241
  5
2B6
 10
13248.16875
 20
3407.847
 30
0.0
 40
0.133
  1
Wood blockout
  7
MONOTXT
210
0.0
220
0.0
230
1.0
  0
TEXT
  8
5
  6
CONTINUOUS
 62
   241
  5
2B7
 10
13248.506333
 20
3407.574167
 30
0.0
 40
0.133
  1
(See Detail)
  7
MONOTXT
210
0.0
220
0.0
230
1.0
  0
LINE
  8
5
  6
CONTINUOUS
 62
   241
  5
2B8
 10
13249.715417
 20
3407.916833
 30
0.0
 11
13249.738833
 21
3407.916833
 31
0.0
  0
LINE
  8
5
  6
CONTINUOUS
 62
   241
  5
2B9
 10
13249.756583
 20
3407.934583
 30
0.0
 11
13250.163417
 21
3407.934583
 31
0.0
  0
TEXT
  8
5
  6
CONTINUOUS
 62
   241
  5
2BA
 10
13233.848417
 20
3407.244667
 30
0.0
 40
0.133
  1
bend web as
  7
MONOTXT
210
0.0
220
0.0
230
1.0
  0
TEXT
  8
5
  6
CONTINUOUS
 62
   241
  5
2BB
 10
13232.427
 20
3407.251
 30
0.0
 40
0.133
  1
Trim flanges,
  7
MONOTXT
210
0.0
220
0.0
230
1.0
  0
TEXT
  8
5
  6
CONTINUOUS
 62
   241
  5
2BC
 10
13232.995583
 20
3406.972083
 30
0.0
 40
0.133
  1
shown and weld
  7
MONOTXT
210
0.0
220
0.0
230
1.0
  0
TEXT
  8
5
  6
CONTINUOUS
 62
   241
  5
2BD
 10
13237.040833
 20
3409.24225
 30
0.0
 40
0.24
  1
BENT PLATE RUBRAIL DETAIL
  7
ROMANS
 72
     4
 11
13239.990833
 21
3409.36225
 31
0.0
210
0.0
220
0.0
230
1.0
  0
LINE
  8
1
  6
CONTINUOUS
 62
   241
  5
2BF
 10
13252.803333
 20
3403.122917
 30
0.0
 11
13252.803333
 21
3400.849583
 31
0.0
  0
LINE
  8
1
  6
CONTINUOUS
 62
   241
  5
2C0
 10
13252.803333
 20
3400.849583
 30
0.0
 11
13255.243333
 21
3400.849583
 31
0.0
  0
LINE
  8
1
  6
CONTINUOUS
 62
   241
  5
2C1
 10
13255.243333
 20
3400.849583
 30
0.0
 11
13255.243333
 21
3403.122917
 31
0.0
  0
LINE
  8
1
  6
CONTINUOUS
 62
   241
  5
2C2
 10
13255.243333
 20
3403.122917
 30
0.0
 11
13252.803333
 21
3403.122917
 31
0.0
  0
CIRCLE
  8
1
  6
CONTINUOUS
 62
   241
  5
2C3
 10
13253.184575
 20
3402.726233
 30
0.0
 40
0.10789
210
0.0
220
0.0
230
1.0
  0
CIRCLE
  8
1
  6
CONTINUOUS
 62
   241
  5
2C4
 10
13253.184575
 20
3401.261558
 30
0.0
 40
0.10789
210
0.0
220
0.0
230
1.0
  0
CIRCLE
  8
1
  6
CONTINUOUS
 62
   241
  5
2C5
 10
13253.97755
 20
3402.009158
 30
0.0
 40
0.10789
210
0.0
220
0.0
230
1.0
  0
CIRCLE
  8
1
  6
CONTINUOUS
 62
   241
  5
2C6
 10
13254.816275
 20
3402.009158
 30
0.0
 40
0.10789
210
0.0
220
0.0
230
1.0
  0
LINE
  8
1
  6
CONTINUOUS
 62
   241
  5
2C7
 10
13254.816333
 20
3402.238
 30
0.0
 11
13254.816333
 21
3403.550083
 31
0.0
  0
LINE
  8
1
  6
CONTINUOUS
 62
   241
  5
2C8
 10
13253.977667
 20
3402.25325
 30
0.0
 11
13253.977667
 21
3403.550083
 31
0.0
  0
LINE
  8
1
  6
CONTINUOUS
 62
   241
  5
2C9
 10
13253.184583
 20
3402.955083
 30
0.0
 11
13253.184583
 21
3403.550083
 31
0.0
  0
LINE
  8
1
  6
CONTINUOUS
 62
   241
  5
2CA
 10
13252.925417
 20
3401.261583
 30
0.0
 11
13252.356333
 21
3401.261583
 31
0.0
  0
LINE
  8
1
  6
CONTINUOUS
 62
   241
  5
2CB
 10
13252.925417
 20
3402.72625
 30
0.0
 11
13252.356333
 21
3402.72625
 31
0.0
  0
LINE
  8
1
  6
CONTINUOUS
 62
   241
  5
2CC
 10
13253.718333
 20
3401.993833
 30
0.0
 11
13252.356333
 21
3401.993833
 31
0.0
  0
LINE
  8
1
  6
CONTINUOUS
 62
   241
  5
2CD
 10
13252.681417
 20
3400.864917
 30
0.0
 11
13252.112417
 21
3400.864917
 31
0.0
  0
LINE
  8
1
  6
CONTINUOUS
 62
   241
  5
2CE
 10
13252.681417
 20
3403.122917
 30
0.0
 11
13252.112417
 21
3403.122917
 31
0.0
  0
LINE
  8
1
  6
CONTINUOUS
 62
   241
  5
2CF
 10
13252.803333
 20
3403.2145
 30
0.0
 11
13252.803333
 21
3403.8095
 31
0.0
  0
LINE
  8
1
  6
CONTINUOUS
 62
   241
  5
2D0
 10
13255.228083
 20
3403.2145
 30
0.0
 11
13255.228083
 21
3403.8095
 31
0.0
  0
LINE
  8
1
  6
CONTINUOUS
 62
   241
  5
2D1
 10
13252.208583
 20
3403.122917
 30
0.0
 11
13252.208583
 21
3402.277333
 31
0.0
  0
LINE
  8
1
  6
CONTINUOUS
 62
   241
  5
2D2
 10
13252.208583
 20
3401.775833
 30
0.0
 11
13252.208583
 21
3400.849583
 31
0.0
  0
LINE
  8
1
  6
CONTINUOUS
 62
   241
  5
2D3
 10
13252.422083
 20
3403.473833
 30
0.0
 11
13252.422083
 21
3403.122917
 31
0.0
  0
LINE
  8
1
  6
CONTINUOUS
 62
   241
  5
2D4
 10
13252.315333
 20
3403.38225
 30
0.0
 11
13252.788167
 21
3403.38225
 31
0.0
  0
TEXT
  8
1
  6
CONTINUOUS
 62
   241
  5
2D5
 10
13252.391583
 20
3402.87875
 30
0.0
 40
0.133
  1
2"
  7
MONOTXT
210
0.0
220
0.0
230
1.0
  0
LINE
  8
1
  6
CONTINUOUS
 62
   241
  5
2D6
 10
13252.422083
 20
3402.247583
 30
0.0
 11
13252.422083
 21
3401.993833
 31
0.0
  0
LINE
  8
1
  6
CONTINUOUS
 62
   241
  5
2D7
 10
13252.422083
 20
3401.993833
 30
0.0
 11
13252.422083
 21
3401.807917
 31
0.0
  0
LINE
  8
1
  6
CONTINUOUS
 62
   241
  5
2D8
 10
13252.422083
 20
3401.454917
 30
0.0
 11
13252.422083
 21
3401.261583
 31
0.0
  0
TEXT
  8
1
  6
CONTINUOUS
 62
   241
  5
2D9
 10
13252.3
 20
3402.3315
 30
0.0
 40
0.133
  1
3 1/2 "
  7
MONOTXT
210
0.0
220
0.0
230
1.0
  0
TEXT
  8
1
  6
CONTINUOUS
 62
   241
  5
2DA
 10
13252.307667
 20
3401.019417
 30
0.0
 40
0.133
  1
2 1/2 "
  7
MONOTXT
210
0.0
220
0.0
230
1.0
  0
TEXT
  8
1
  6
CONTINUOUS
 62
   241
  5
2DB
 10
13252.307667
 20
3401.561
 30
0.0
 40
0.133
  1
3 1/2 "
  7
MONOTXT
210
0.0
220
0.0
230
1.0
  0
INSERT
  8
1
  6
CONTINUOUS
 62
   241
  5
2E0
  2
ARROW
 10
13252.422083
 20
3403.122917
 30
0.0
 41
0.899999
 42
0.899999
 50
270.0
210
0.0
220
0.0
230
1.0
  0
INSERT
  8
1
  6
CONTINUOUS
 62
   241
  5
2E1
  2
ARROW
 10
13252.788167
 20
3403.38225
 30
0.0
 41
0.899999
 42
0.899999
210
0.0
220
0.0
230
1.0
  0
INSERT
  8
1
  6
CONTINUOUS
 62
   241
  5
2E2
  2
ARROW
 10
13252.422083
 20
3402.72625
 30
0.0
 41
0.899999
 42
0.899999
 50
90.0
210
0.0
220
0.0
230
1.0
  0
INSERT
  8
1
  6
CONTINUOUS
 62
   241
  5
2E3
  2
ARROW
 10
13252.422083
 20
3401.993833
 30
0.0
 41
0.899999
 42
0.899999
 50
270.0
210
0.0
220
0.0
230
1.0
  0
INSERT
  8
1
  6
CONTINUOUS
 62
   241
  5
2E4
  2
ARROW
 10
13252.422083
 20
3401.993833
 30
0.0
 41
0.899999
 42
0.899999
 50
90.0
210
0.0
220
0.0
230
1.0
  0
INSERT
  8
1
  6
CONTINUOUS
 62
   241
  5
2E5
  2
ARROW
 10
13252.422083
 20
3401.261583
 30
0.0
 41
0.899999
 42
0.899999
 50
270.0
210
0.0
220
0.0
230
1.0
  0
INSERT
  8
1
  6
CONTINUOUS
 62
   241
  5
2E6
  2
ARROW
 10
13252.429667
 20
3400.842
 30
0.0
 41
0.899999
 42
0.899999
 50
90.0
210
0.0
220
0.0
230
1.0
  0
TEXT
  8
1
  6
CONTINUOUS
 62
   241
  5
2E7
 10
13252.017917
 20
3401.94875
 30
0.0
 40
0.133
  1
12"
  7
MONOTXT
210
0.0
220
0.0
230
1.0
  0
INSERT
  8
1
  6
CONTINUOUS
 62
   241
  5
2E8
  2
ARROW
 10
13252.208583
 20
3403.122917
 30
0.0
 41
0.899999
 42
0.899999
 50
90.0
210
0.0
220
0.0
230
1.0
  0
INSERT
  8
1
  6
CONTINUOUS
 62
   241
  5
2E9
  2
ARROW
 10
13252.208583
 20
3400.849583
 30
0.0
 41
0.899999
 42
0.899999
 50
270.0
210
0.0
220
0.0
230
1.0
  0
TEXT
  8
1
  6
CONTINUOUS
 62
   241
  5
2EA
 10
13252.932917
 20
3403.3385
 30
0.0
 40
0.133
  1
2"
  7
MONOTXT
210
0.0
220
0.0
230
1.0
  0
TEXT
  8
1
  6
CONTINUOUS
 62
   241
  5
2EB
 10
13254.968833
 20
3403.346083
 30
0.0
 40
0.133
  1
2"
  7
MONOTXT
210
0.0
220
0.0
230
1.0
  0
LINE
  8
1
  6
CONTINUOUS
 62
   241
  5
2EC
 10
13253.977667
 20
3403.38225
 30
0.0
 11
13254.267333
 21
3403.38225
 31
0.0
  0
LINE
  8
1
  6
CONTINUOUS
 62
   241
  5
2ED
 10
13254.511333
 20
3403.38225
 30
0.0
 11
13254.816333
 21
3403.38225
 31
0.0
  0
LINE
  8
1
  6
CONTINUOUS
 62
   241
  5
2EE
 10
13253.184583
 20
3403.38225
 30
0.0
 11
13253.436167
 21
3403.38225
 31
0.0
  0
LINE
  8
1
  6
CONTINUOUS
 62
   241
  5
2EF
 10
13253.703083
 20
3403.38225
 30
0.0
 11
13253.977667
 21
3403.38225
 31
0.0
  0
TEXT
  8
1
  6
CONTINUOUS
 62
   241
  5
2F0
 10
13253.5125
 20
3403.35375
 30
0.0
 40
0.133
  1
4"
  7
MONOTXT
210
0.0
220
0.0
230
1.0
  0
TEXT
  8
1
  6
CONTINUOUS
 62
   241
  5
2F1
 10
13254.336
 20
3403.35375
 30
0.0
 40
0.133
  1
4"
  7
MONOTXT
210
0.0
220
0.0
230
1.0
  0
LINE
  8
1
  6
CONTINUOUS
 62
   241
  5
2F2
 10
13255.228083
 20
3403.38225
 30
0.0
 11
13255.700917
 21
3403.38225
 31
0.0
  0
INSERT
  8
1
  6
CONTINUOUS
 62
   241
  5
2F3
  2
ARROW
 10
13255.228083
 20
3403.38225
 30
0.0
 41
0.899999
 42
0.899999
 50
180.0
210
0.0
220
0.0
230
1.0
  0
INSERT
  8
1
  6
CONTINUOUS
 62
   241
  5
2F4
  2
ARROW
 10
13254.816333
 20
3403.38225
 30
0.0
 41
0.899999
 42
0.899999
210
0.0
220
0.0
230
1.0
  0
INSERT
  8
1
  6
CONTINUOUS
 62
   241
  5
2F5
  2
ARROW
 10
13253.977667
 20
3403.38225
 30
0.0
 41
0.899999
 42
0.899999
 50
180.0
210
0.0
220
0.0
230
1.0
  0
INSERT
  8
1
  6
CONTINUOUS
 62
   241
  5
2F6
  2
ARROW
 10
13253.977667
 20
3403.38225
 30
0.0
 41
0.899999
 42
0.899999
210
0.0
220
0.0
230
1.0
  0
INSERT
  8
1
  6
CONTINUOUS
 62
   241
  5
2F7
  2
ARROW
 10
13253.184583
 20
3403.38225
 30
0.0
 41
0.899999
 42
0.899999
 50
180.0
210
0.0
220
0.0
230
1.0
  0
TEXT
  8
1
  6
CONTINUOUS
 62
   241
  5
2F8
 10
13255.418917
 20
3403.110583
 30
0.0
 40
0.14
  1

  7
MONOTXT
 72
     4
 11
13255.418917
 21
3403.110583
 31
0.0
210
0.0
220
0.0
230
1.0
  0
TEXT
  8
1
  6
CONTINUOUS
 62
   241
  5
2F9
 10
13255.418917
 20
3402.895583
 30
0.0
 40
0.14
  1

  7
MONOTXT
 72
     4
 11
13255.418917
 21
3402.895583
 31
0.0
210
0.0
220
0.0
230
1.0
  0
TEXT
  8
1
  6
CONTINUOUS
 62
   241
  5
2FA
 10
13255.418917
 20
3402.680583
 30
0.0
 40
0.14
  1

  7
MONOTXT
 72
     4
 11
13255.418917
 21
3402.680583
 31
0.0
210
0.0
220
0.0
230
1.0
  0
TEXT
  8
1
  6
CONTINUOUS
 62
   241
  5
2FB
 10
13255.418917
 20
3402.465583
 30
0.0
 40
0.14
  1

  7
MONOTXT
 72
     4
 11
13255.418917
 21
3402.465583
 31
0.0
210
0.0
220
0.0
230
1.0
  0
TEXT
  8
1
  6
CONTINUOUS
 62
   241
  5
2FC
 10
13255.418917
 20
3402.250583
 30
0.0
 40
0.14
  1

  7
MONOTXT
 72
     4
 11
13255.418917
 21
3402.250583
 31
0.0
210
0.0
220
0.0
230
1.0
  0
TEXT
  8
1
  6
CONTINUOUS
 62
   241
  5
2FD
 10
13255.418917
 20
3402.035583
 30
0.0
 40
0.14
  1

  7
MONOTXT
 72
     4
 11
13255.418917
 21
3402.035583
 31
0.0
210
0.0
220
0.0
230
1.0
  0
TEXT
  8
1
  6
CONTINUOUS
 62
   241
  5
2FE
 10
13255.463833
 20
3401.804667
 30
0.0
 40
0.14
  1

  7
MONOTXT
 72
     4
 11
13255.463833
 21
3401.804667
 31
0.0
210
0.0
220
0.0
230
1.0
  0
TEXT
  8
1
  6
CONTINUOUS
 62
   241
  5
2FF
 10
13255.463833
 20
3401.374667
 30
0.0
 40
0.14
  1

  7
MONOTXT
 72
     4
 11
13255.463833
 21
3401.374667
 31
0.0
210
0.0
220
0.0
230
1.0
  0
TEXT
  8
1
  6
CONTINUOUS
 62
   241
  5
300
 10
13255.463833
 20
3401.159667
 30
0.0
 40
0.14
  1

  7
MONOTXT
 72
     4
 11
13255.463833
 21
3401.159667
 31
0.0
210
0.0
220
0.0
230
1.0
  0
TEXT
  8
1
  6
CONTINUOUS
 62
   241
  5
301
 10
13255.463833
 20
3400.944667
 30
0.0
 40
0.14
  1

  7
MONOTXT
 72
     4
 11
13255.463833
 21
3400.944667
 31
0.0
210
0.0
220
0.0
230
1.0
  0
TEXT
  8
1
  6
CONTINUOUS
 62
   241
  5
302
 10
13255.463833
 20
3400.729667
 30
0.0
 40
0.14
  1

  7
MONOTXT
 72
     4
 11
13255.463833
 21
3400.729667
 31
0.0
210
0.0
220
0.0
230
1.0
  0
TEXT
  8
1
  6
CONTINUOUS
 62
   241
  5
303
 10
13255.463833
 20
3400.514667
 30
0.0
 40
0.14
  1

  7
MONOTXT
 72
     4
 11
13255.463833
 21
3400.514667
 31
0.0
210
0.0
220
0.0
230
1.0
  0
TEXT
  8
1
  6
CONTINUOUS
 62
   241
  5
304
 10
13255.423333
 20
3399.263417
 30
0.0
 40
0.14
  1

  7
MONOTXT
 72
     4
 11
13255.423333
 21
3399.263417
 31
0.0
210
0.0
220
0.0
230
1.0
  0
TEXT
  8
1
  6
CONTINUOUS
 62
   241
  5
305
 10
13255.423333
 20
3399.048417
 30
0.0
 40
0.14
  1

  7
MONOTXT
 72
     4
 11
13255.423333
 21
3399.048417
 31
0.0
210
0.0
220
0.0
230
1.0
  0
TEXT
  8
1
  6
CONTINUOUS
 62
   241
  5
306
 10
13255.423333
 20
3398.833417
 30
0.0
 40
0.14
  1

  7
MONOTXT
 72
     4
 11
13255.423333
 21
3398.833417
 31
0.0
210
0.0
220
0.0
230
1.0
  0
TEXT
  8
1
  6
CONTINUOUS
 62
   241
  5
307
 10
13254.011833
 20
3403.611
 30
0.0
 40
0.126
  1

  7
MONOTXT
 72
     4
 11
13254.011833
 21
3403.611
 31
0.0
210
0.0
220
0.0
230
1.0
  0
TEXT
  8
1
  6
CONTINUOUS
 62
   241
  5
308
 10
13254.011833
 20
3403.4175
 30
0.0
 40
0.126
  1

  7
MONOTXT
 72
     4
 11
13254.011833
 21
3403.4175
 31
0.0
210
0.0
220
0.0
230
1.0
  0
TEXT
  8
1
  6
CONTINUOUS
 62
   241
  5
309
 10
13254.011833
 20
3403.224
 30
0.0
 40
0.126
  1

  7
MONOTXT
 72
     4
 11
13254.011833
 21
3403.224
 31
0.0
210
0.0
220
0.0
230
1.0
  0
TEXT
  8
1
  6
CONTINUOUS
 62
   241
  5
30A
 10
13254.011833
 20
3403.0305
 30
0.0
 40
0.126
  1

  7
MONOTXT
 72
     4
 11
13254.011833
 21
3403.0305
 31
0.0
210
0.0
220
0.0
230
1.0
  0
TEXT
  8
1
  6
CONTINUOUS
 62
   241
  5
30B
 10
13254.011833
 20
3402.837
 30
0.0
 40
0.126
  1

  7
MONOTXT
 72
     4
 11
13254.011833
 21
3402.837
 31
0.0
210
0.0
220
0.0
230
1.0
  0
TEXT
  8
1
  6
CONTINUOUS
 62
   241
  5
30C
 10
13254.011833
 20
3402.6435
 30
0.0
 40
0.126
  1

  7
MONOTXT
 72
     4
 11
13254.011833
 21
3402.6435
 31
0.0
210
0.0
220
0.0
230
1.0
  0
TEXT
  8
1
  6
CONTINUOUS
 62
   241
  5
30D
 10
13254.011833
 20
3402.45
 30
0.0
 40
0.126
  1

  7
MONOTXT
 72
     4
 11
13254.011833
 21
3402.45
 31
0.0
210
0.0
220
0.0
230
1.0
  0
TEXT
  8
1
  6
CONTINUOUS
 62
   241
  5
30E
 10
13254.011833
 20
3402.2565
 30
0.0
 40
0.126
  1

  7
MONOTXT
 72
     4
 11
13254.011833
 21
3402.2565
 31
0.0
210
0.0
220
0.0
230
1.0
  0
TEXT
  8
1
  6
CONTINUOUS
 62
   241
  5
30F
 10
13254.011833
 20
3402.063
 30
0.0
 40
0.126
  1

  7
MONOTXT
 72
     4
 11
13254.011833
 21
3402.063
 31
0.0
210
0.0
220
0.0
230
1.0
  0
TEXT
  8
1
  6
CONTINUOUS
 62
   241
  5
310
 10
13254.011833
 20
3401.8695
 30
0.0
 40
0.126
  1

  7
MONOTXT
 72
     4
 11
13254.011833
 21
3401.8695
 31
0.0
210
0.0
220
0.0
230
1.0
  0
TEXT
  8
1
  6
CONTINUOUS
 62
   241
  5
311
 10
13254.011833
 20
3401.676
 30
0.0
 40
0.126
  1

  7
MONOTXT
 72
     4
 11
13254.011833
 21
3401.676
 31
0.0
210
0.0
220
0.0
230
1.0
  0
TEXT
  8
1
  6
CONTINUOUS
 62
   241
  5
312
 10
13254.011833
 20
3401.4825
 30
0.0
 40
0.126
  1

  7
MONOTXT
 72
     4
 11
13254.011833
 21
3401.4825
 31
0.0
210
0.0
220
0.0
230
1.0
  0
TEXT
  8
1
  6
CONTINUOUS
 62
   241
  5
313
 10
13254.011833
 20
3400.3215
 30
0.0
 40
0.126
  1

  7
MONOTXT
 72
     4
 11
13254.011833
 21
3400.3215
 31
0.0
210
0.0
220
0.0
230
1.0
  0
TEXT
  8
1
  6
CONTINUOUS
 62
   241
  5
314
 10
13255.369917
 20
3404.111583
 30
0.0
 40
0.094833
  1

 41
1.002636
  7
MONOTXT
210
0.0
220
0.0
230
1.0
  0
TEXT
  8
1
  6
CONTINUOUS
 62
   241
  5
315
 10
13255.651
 20
3403.879583
 30
0.0
 40
0.094833
  1

 41
1.002636
  7
MONOTXT
210
0.0
220
0.0
230
1.0
  0
TEXT
  8
1
  6
CONTINUOUS
 62
   241
  5
316
 10
13255.695917
 20
3402.345833
 30
0.0
 40
0.094833
  1

 41
1.002636
  7
MONOTXT
210
0.0
220
0.0
230
1.0
  0
TEXT
  8
1
  6
CONTINUOUS
 62
   241
  5
317
 10
13255.695917
 20
3402.674833
 30
0.0
 40
0.094833
  1

 41
1.002636
  7
MONOTXT
210
0.0
220
0.0
230
1.0
  0
TEXT
  8
1
  6
CONTINUOUS
 62
   241
  5
318
 10
13255.695917
 20
3401.9955
 30
0.0
 40
0.094833
  1

 41
1.002636
  7
MONOTXT
210
0.0
220
0.0
230
1.0
  0
TEXT
  8
1
  6
CONTINUOUS
 62
   241
  5
319
 10
13255.695917
 20
3401.146333
 30
0.0
 40
0.094833
  1

 41
1.002636
  7
MONOTXT
210
0.0
220
0.0
230
1.0
  0
TEXT
  8
1
  6
CONTINUOUS
 62
   241
  5
31A
 10
13255.695917
 20
3401.089
 30
0.0
 40
0.094833
  1

 41
1.002636
  7
MONOTXT
210
0.0
220
0.0
230
1.0
  0
TEXT
  8
1
  6
CONTINUOUS
 62
   241
  5
31B
 10
13255.687
 20
3399.167833
 30
0.0
 40
0.094833
  1
  
 41
1.002636
  7
MONOTXT
210
0.0
220
0.0
230
1.0
  0
TEXT
  8
1
  6
CONTINUOUS
 62
   241
  5
31C
 10
13253.278417
 20
3401.695833
 30
0.0
 40
0.133
  1
All Holes 1" Dia.
  7
MONOTXT
210
0.0
220
0.0
230
1.0
  0
TEXT
  8
1
  6
CONTINUOUS
 62
   241
  5
31D
 10
13253.020833
 20
3401.456083
 30
0.0
 40
0.133
  1
 1/4 " Thick Steel Plate
  7
MONOTXT
210
0.0
220
0.0
230
1.0
  0
TEXT
  8
1
  6
CONTINUOUS
 62
   241
  5
31E
 10
13252.889167
 20
3400.439917
 30
0.0
 40
0.133
  1
M-111, after Fabrication)
  7
MONOTXT
210
0.0
220
0.0
230
1.0
  0
TEXT
  8
1
  6
CONTINUOUS
 62
   241
  5
31F
 10
13252.781
 20
3400.636
 30
0.0
 40
0.133
  1
(Galvanized, per AASHTO 
  7
MONOTXT
210
0.0
220
0.0
230
1.0
  0
TEXT
  8
3
  6
CONTINUOUS
 62
   241
  5
320
 10
13255.561583
 20
3410.516
 30
0.0
 40
0.133
  1
contract price for guardrail.
  7
MONOTXT
 72
     4
 11
13256.992583
 21
3410.5825
 31
0.0
210
0.0
220
0.0
230
1.0
  0
TEXT
  8
3
  6
CONTINUOUS
 62
   241
  5
321
 10
13255.562833
 20
3410.724333
 30
0.0
 40
0.133
  1
components as detailed herein shall be included in the 
  7
MONOTXT
 72
     4
 11
13258.41375
 21
3410.790833
 31
0.0
210
0.0
220
0.0
230
1.0
  0
TEXT
  8
3
  6
CONTINUOUS
 62
   241
  5
322
 10
13258.22
 20
3414.19725
 30
0.0
 40
0.24
  1
NOTES 
  7
ROMANS
 72
     4
 11
13258.9
 21
3414.31725
 31
0.0
210
0.0
220
0.0
230
1.0
  0
TEXT
  8
3
  6
CONTINUOUS
 62
   241
  5
323
 10
13255.086917
 20
3410.912083
 30
0.0
 40
0.133
  1
3.    There is no separate pay item for this connection and all
  7
MONOTXT
 72
     4
 11
13258.411083
 21
3410.978583
 31
0.0
210
0.0
220
0.0
230
1.0
  0
TEXT
  8
5
  6
CONTINUOUS
 62
   241
  5
324
 10
13235.348583
 20
3404.567167
 30
0.0
 40
0.133
  1
See Note 1 
  7
MONOTXT
210
0.0
220
0.0
230
1.0
  0
TEXT
  8
5
  6
CONTINUOUS
 62
   241
  5
325
 10
13253.070833
 20
3399.0595
 30
0.0
 40
0.24
  1
DETAIL
  7
ROMANS
 72
     4
 11
13253.740833
 21
3399.1795
 31
0.0
210
0.0
220
0.0
230
1.0
  0
TEXT
  8
5
  6
CONTINUOUS
 62
   241
  5
326
 10
13252.279
 20
3399.635167
 30
0.0
 40
0.24
  1
BEARING PLATE
  7
ROMANS
 72
     4
 11
13253.794
 21
3399.755167
 31
0.0
210
0.0
220
0.0
230
1.0
  0
TEXT
  8
5
  6
CONTINUOUS
 62
   241
  5
327
 10
13246.226167
 20
3398.972333
 30
0.0
 40
0.24
  1
DETAIL
  7
ROMANS
 72
     4
 11
13246.896167
 21
3399.092333
 31
0.0
210
0.0
220
0.0
230
1.0
  0
TEXT
  8
5
  6
CONTINUOUS
 62
   241
  5
328
 10
13243.932417
 20
3399.579583
 30
0.0
 40
0.24
  1
WOOD BLOCKOUT FOR RUBRAIL
  7
ROMANS
 72
     4
 11
13246.882417
 21
3399.699583
 31
0.0
210
0.0
220
0.0
230
1.0
  0
TEXT
  8
5
  6
CONTINUOUS
 62
   241
  5
329
 10
13237.33325
 20
3398.975333
 30
0.0
 40
0.24
  1
DETAIL
  7
ROMANS
 72
     4
 11
13238.00325
 21
3399.095333
 31
0.0
210
0.0
220
0.0
230
1.0
  0
TEXT
  8
5
  6
CONTINUOUS
 62
   241
  5
32A
 10
13236.443917
 20
3399.520417
 30
0.0
 40
0.24
  1
C6X8.2 RUBRAIL
  7
ROMANS
 72
     4
 11
13238.073917
 21
3399.640417
 31
0.0
210
0.0
220
0.0
230
1.0
  0
TEXT
  8
5
  6
CONTINUOUS
 62
   241
  5
32B
 10
13247.101333
 20
3404.395667
 30
0.0
 40
0.24
  1
TO SAFETY SHAPE
  7
ROMANS
 72
     4
 11
13248.856333
 21
3404.515667
 31
0.0
210
0.0
220
0.0
230
1.0
  0
TEXT
  8
5
  6
CONTINUOUS
 62
   241
  5
32C
 10
13246.955417
 20
3404.990167
 30
0.0
 40
0.24
  1
RUBRAIL ATTACHMENT
  7
ROMANS
 72
     4
 11
13249.075417
 21
3405.110167
 31
0.0
210
0.0
220
0.0
230
1.0
  0
TEXT
  8
3
  6
CONTINUOUS
 62
     2
  5
32D
 10
13259.46625
 20
3398.142917
 30
0.0
 40
0.166667
  1
 SHEET  3 OF 3      
  7
txt
 72
     4
 11
13261.092917
 21
3398.22625
 31
0.0
210
0.0
220
0.0
230
1.0
  0
TEXT
  8
3
  6
CONTINUOUS
 62
     2
  5
32E
 10
13259.375667
 20
3397.725083
 30
0.0
 40
0.166667
  1
STANDARD SHEET GR10
  7
txt
 72
     4
 11
13260.919
 21
3397.808417
 31
0.0
210
0.0
220
0.0
230
1.0
  0
TEXT
  8
1
  6
CONTINUOUS
 62
   241
  5
32F
 10
13256.87275
 20
3399.729333
 30
0.0
 40
0.081417
  1
PREPARED 7-1-99     
  7
ROMANS
 72
     4
 11
13257.673333
 21
3399.77
 31
0.0
210
0.0
220
0.0
230
1.0
  0
TEXT
  8
5
  6
CONTINUOUS
 62
   241
  5
330
 10
13255.589
 20
3411.901333
 30
0.0
 40
0.133
  1
requires three closely drilled holes. appropriate epoxy bolt 
  7
MONOTXT
210
0.0
220
0.0
230
1.0
  0
ENDSEC
  0
EOF
