  0
SECTION
  2
HEADER
  9
$ACADVER
  1
AC1009
  9
$INSBASE
 10
0.0
 20
0.0
 30
0.0
  9
$EXTMIN
 10
-1.551583
 20
-31.052
 30
0.0
  9
$EXTMAX
 10
84.886333
 20
0.6725
 30
0.0
  9
$LIMMIN
 10
0.0
 20
0.0
  9
$LIMMAX
 10
12.0
 20
9.0
  9
$ORTHOMODE
 70
     0
  9
$REGENMODE
 70
     1
  9
$FILLMODE
 70
     1
  9
$QTEXTMODE
 70
     0
  9
$MIRRTEXT
 70
     1
  9
$DRAGMODE
 70
     2
  9
$LTSCALE
 40
1.0
  9
$OSMODE
 70
     0
  9
$ATTMODE
 70
     1
  9
$TEXTSIZE
 40
0.2
  9
$TRACEWID
 40
0.05
  9
$TEXTSTYLE
  7
STANDARD
  9
$CLAYER
  8
0
  9
$CELTYPE
  6
CONTINUOUS
  9
$CECOLOR
 62
   256
  9
$DIMSCALE
 40
1.0
  9
$DIMASZ
 40
0.18
  9
$DIMEXO
 40
0.0625
  9
$DIMDLI
 40
0.38
  9
$DIMRND
 40
0.0
  9
$DIMDLE
 40
0.0
  9
$DIMEXE
 40
0.18
  9
$DIMTP
 40
0.0
  9
$DIMTM
 40
0.0
  9
$DIMTXT
 40
0.18
  9
$DIMCEN
 40
0.09
  9
$DIMTSZ
 40
0.0
  9
$DIMTOL
 70
     0
  9
$DIMLIM
 70
     0
  9
$DIMTIH
 70
     1
  9
$DIMTOH
 70
     1
  9
$DIMSE1
 70
     0
  9
$DIMSE2
 70
     0
  9
$DIMTAD
 70
     0
  9
$DIMZIN
 70
     0
  9
$DIMBLK
  1

  9
$DIMASO
 70
     1
  9
$DIMSHO
 70
     1
  9
$DIMPOST
  1

  9
$DIMAPOST
  1

  9
$DIMALT
 70
     0
  9
$DIMALTD
 70
     2
  9
$DIMALTF
 40
25.4
  9
$DIMLFAC
 40
1.0
  9
$DIMTOFL
 70
     0
  9
$DIMTVP
 40
0.0
  9
$DIMTIX
 70
     0
  9
$DIMSOXD
 70
     0
  9
$DIMSAH
 70
     0
  9
$DIMBLK1
  1

  9
$DIMBLK2
  1

  9
$DIMSTYLE
  2
STANDARD
  9
$DIMCLRD
 70
     0
  9
$DIMCLRE
 70
     0
  9
$DIMCLRT
 70
     0
  9
$DIMTFAC
 40
1.0
  9
$DIMGAP
 40
0.09
  9
$LUNITS
 70
     2
  9
$LUPREC
 70
     4
  9
$AXISMODE
 70
     0
  9
$AXISUNIT
 10
0.0
 20
0.0
  9
$SKETCHINC
 40
0.1
  9
$FILLETRAD
 40
0.0
  9
$AUNITS
 70
     0
  9
$AUPREC
 70
     0
  9
$MENU
  1
acad
  9
$ELEVATION
 40
0.0
  9
$PELEVATION
 40
0.0
  9
$THICKNESS
 40
0.0
  9
$LIMCHECK
 70
     0
  9
$BLIPMODE
 70
     1
  9
$CHAMFERA
 40
0.0
  9
$CHAMFERB
 40
0.0
  9
$SKPOLY
 70
     0
  9
$TDCREATE
 40
2451568.575636574
  9
$TDUPDATE
 40
2451568.575636574
  9
$TDINDWG
 40
0.0000000000
  9
$TDUSRTIMER
 40
0.0000000000
  9
$USRTIMER
 70
     1
  9
$ANGBASE
 50
0.0
  9
$ANGDIR
 70
     0
  9
$PDMODE
 70
     0
  9
$PDSIZE
 40
0.0
  9
$PLINEWID
 40
0.0
  9
$COORDS
 70
     0
  9
$SPLFRAME
 70
     0
  9
$SPLINETYPE
 70
     6
  9
$SPLINESEGS
 70
    10
  9
$ATTDIA
 70
     0
  9
$ATTREQ
 70
     1
  9
$HANDLING
 70
     1
  9
$HANDSEED
  5
45F
  9
$SURFTAB1
 70
     6
  9
$SURFTAB2
 70
     6
  9
$SURFTYPE
 70
     6
  9
$SURFU
 70
     6
  9
$SURFV
 70
     6
  9
$UCSNAME
  2

  9
$UCSORG
 10
0.0
 20
0.0
 30
0.0
  9
$UCSXDIR
 10
1.0
 20
0.0
 30
0.0
  9
$UCSYDIR
 10
0.0
 20
1.0
 30
0.0
  9
$PUCSNAME
  2

  9
$PUCSORG
 10
0.0
 20
0.0
 30
0.0
  9
$PUCSXDIR
 10
1.0
 20
0.0
 30
0.0
  9
$PUCSYDIR
 10
0.0
 20
1.0
 30
0.0
  9
$USERI1
 70
     0
  9
$USERI2
 70
     0
  9
$USERI3
 70
     0
  9
$USERI4
 70
     0
  9
$USERI5
 70
     0
  9
$USERR1
 40
0.0
  9
$USERR2
 40
0.0
  9
$USERR3
 40
0.0
  9
$USERR4
 40
0.0
  9
$USERR5
 40
0.0
  9
$WORLDVIEW
 70
     1
  9
$SHADEDGE
 70
     3
  9
$SHADEDIF
 70
    70
  9
$TILEMODE
 70
     1
  9
$MAXACTVP
 70
    16
  9
$PINSBASE
 10
0.0
 20
0.0
 30
0.0
  9
$PLIMCHECK
 70
     0
  9
$PEXTMIN
 10
-1.000000E+20
 20
-1.000000E+20
 30
-1.000000E+20
  9
$PEXTMAX
 10
-1.000000E+20
 20
-1.000000E+20
 30
-1.000000E+20
  9
$PLIMMIN
 10
0.0
 20
0.0
  9
$PLIMMAX
 10
12.0
 20
9.0
  9
$UNITMODE
 70
     0
  9
$VISRETAIN
 70
     0
  9
$PLINEGEN
 70
     1
  9
$PSLTSCALE
 70
     0
  9
$TREEDEPTH
 70
  3020
  9
$DWGCODEPAGE
  3
ansi_1252
  0
ENDSEC
  0
SECTION
  2
TABLES
  0
TABLE
  2
VPORT
 70
     1
  0
VPORT
  2
*ACTIVE
 70
     0
 10
0.0
 20
0.0
 11
1.0
 21
1.0
 12
0.0
 22
0.0
 13
0.0
 23
0.0
 14
0.0
 24
0.0
 15
0.0
 25
0.0
 16
0.0
 26
0.0
 36
1.0
 17
65.026806
 27
-20.052
 37
0.0
 40
22.55
 41
1.577899
 42
50.0
 43
0.0
 44
0.0
 50
0.0
 51
0.0
 71
     0
 72
   100
 73
     1
 74
     0
 75
     0
 76
     0
 77
     0
 78
     0
  0
ENDTAB
  0
TABLE
  2
LTYPE
 70
     7
  0
LTYPE
  2
CONTINUOUS
 70
     0
  3
Solid line
 72
    65
 73
     0
 40
0.0
  0
LTYPE
  2
DOT
 70
    64
  3
. . . . . . . . . . . . . . . . . . . . . . . . . . . . . . . . .
 72
    65
 73
     2
 40
0.25
 49
0.0
 49
-0.25
  0
LTYPE
  2
HIDDEN
 70
    64
  3
__ __ __ __ __ __ __ __ __ __ __ __ __ __ __ __ __ __ __ __ __ 
 72
    65
 73
     2
 40
0.375
 49
0.25
 49
-0.125
  0
LTYPE
  2
DASHED
 70
    64
  3
__ __ __ __ __ __ __ __ __ __ __ __ __ __ __ __ __ __ __ __ __
 72
    65
 73
     2
 40
0.75
 49
0.5
 49
-0.25
  0
LTYPE
  2
DASHDOT
 70
    64
  3
__ . __ . __ . __ . __ . __ . __ . __ . __ . __ . __ . __ . _
 72
    65
 73
     4
 40
1.0
 49
0.5
 49
-0.25
 49
0.0
 49
-0.25
  0
LTYPE
  2
DIVIDE
 70
    64
  3
____ . . ____ . . ____ . . ____ . . ____ . . ____ . . ____ . .
 72
    65
 73
     6
 40
1.25
 49
0.5
 49
-0.25
 49
0.0
 49
-0.25
 49
0.0
 49
-0.25
  0
LTYPE
  2
CENTER
 70
    64
  3
____ _ ____ _ ____ _ ____ _ ____ _ ____ _ ____ _ ____ _ ____ _
 72
    65
 73
     4
 40
2.0
 49
1.25
 49
-0.25
 49
0.25
 49
-0.25
  0
ENDTAB
  0
TABLE
  2
LAYER
 70
     8
  0
LAYER
  2
0
 70
     0
 62
     7
  6
CONTINUOUS
  0
LAYER
  2
CONSTRUCTION_CLASS
 70
     1
 62
     7
  6
CONTINUOUS
  0
LAYER
  2
PATTERN_CLASS
 70
     0
 62
     7
  6
CONTINUOUS
  0
LAYER
  2
1
 70
    64
 62
     7
  6
CONTINUOUS
  0
LAYER
  2
2
 70
    64
 62
     7
  6
CONTINUOUS
  0
LAYER
  2
5
 70
    64
 62
     7
  6
CONTINUOUS
  0
LAYER
  2
DEFPOINTS
 70
    64
 62
     7
  6
CONTINUOUS
  0
LAYER
  2
10
 70
    64
 62
     7
  6
CONTINUOUS
  0
ENDTAB
  0
TABLE
  2
STYLE
 70
     6
  0
STYLE
  2
STANDARD
 70
     0
 40
0.0
 41
1.0
 50
0.0
 71
     0
 42
0.0
  3
txt
  4

  0
STYLE
  2
txt
 70
     0
 40
0.2
 41
1.0
 50
0.0
 71
     0
 42
0.2
  3
TXT
  4

  0
STYLE
  2
MONOTXT
 70
     0
 40
0.2
 41
1.0
 50
0.0
 71
     0
 42
0.2
  3
MONOTXT
  4

  0
STYLE
  2
ROMANT
 70
     0
 40
0.2
 41
1.0
 50
0.0
 71
     0
 42
0.2
  3
ROMANT
  4

  0
STYLE
  2
ROMANS
 70
     0
 40
0.2
 41
1.0
 50
0.0
 71
     0
 42
0.2
  3
ROMANS
  4

  0
STYLE
  2
ITALICT
 70
     0
 40
0.2
 41
1.0
 50
0.0
 71
     0
 42
0.2
  3
ITALICT
  4

  0
ENDTAB
  0
TABLE
  2
VIEW
 70
     0
  0
ENDTAB
  0
TABLE
  2
UCS
 70
     0
  0
ENDTAB
  0
TABLE
  2
APPID
 70
     1
  0
APPID
  2
ACAD
 70
     0
  0
ENDTAB
  0
TABLE
  2
DIMSTYLE
 70
     2
  0
DIMSTYLE
  2
STANDARD
 70
     0
  3

  4

  5

  6

  7

 40
1.0
 41
0.18
 42
0.0625
 43
0.38
 44
0.18
 45
0.0
 46
0.0
 47
0.0
 48
0.0
140
0.18
141
0.09
142
0.0
143
25.4
144
1.0
145
0.0
146
1.0
147
0.09
 71
     0
 72
     0
 73
     1
 74
     1
 75
     0
 76
     0
 77
     0
 78
     0
170
     0
171
     2
172
     0
173
     0
174
     0
175
     0
176
     0
177
     0
178
     0
  0
DIMSTYLE
  2
MSADIM
 70
     0
  3

  4

  5

  6

  7

 40
1.0
 41
0.12
 42
0.06
 43
0.0
 44
0.06
 45
0.0
 46
0.0
 47
0.0
 48
0.0
140
0.12
141
0.06
142
0.0
143
25.4
144
1.0
145
0.06
146
1.0
147
0.06
 71
     0
 72
     0
 73
     1
 74
     1
 75
     1
 76
     1
 77
     0
 78
     2
170
     0
171
     2
172
     0
173
     1
174
     0
175
     0
176
     0
177
     0
178
     0
  0
ENDTAB
  0
ENDSEC
  0
SECTION
  2
BLOCKS
  0
BLOCK
  8
5
  6
CONTINUOUS
 62
     2
  5
199
  2
*D0
 70
     1
 10
0.0
 20
0.0
 30
0.0
  3
*N0
  0
SOLID
  8
5
  6
CONTINUOUS
 62
     2
  5
19A
 10
0.123167
 20
-0.011167
 30
0.0
 11
0.0
 21
0.0
 31
0.0
 12
0.113917
 22
0.048167
 32
0.0
 13
0.113917
 23
0.048167
 33
0.0
  0
LINE
  8
5
  6
CONTINUOUS
 62
     2
  5
19B
 10
0.0
 20
0.0
 30
0.0
 11
2.750667
 21
0.429
 31
0.0
  0
ENDBLK
  8
5
  6
CONTINUOUS
 62
     2
  5
19C
  0
BLOCK
  8
5
  6
CONTINUOUS
 62
     2
  5
1A0
  2
*D1
 70
     1
 10
0.0
 20
0.0
 30
0.0
  3
*N1
  0
SOLID
  8
5
  6
CONTINUOUS
 62
     2
  5
1A1
 10
0.122
 20
0.020417
 30
0.0
 11
0.0
 21
0.0
 31
0.0
 12
0.098083
 22
0.075417
 32
0.0
 13
0.098083
 23
0.075417
 33
0.0
  0
LINE
  8
5
  6
CONTINUOUS
 62
     2
  5
1A2
 10
0.0
 20
0.0
 30
0.0
 11
1.512833
 21
0.6585
 31
0.0
  0
ENDBLK
  8
5
  6
CONTINUOUS
 62
     2
  5
1A3
  0
BLOCK
  8
5
  6
CONTINUOUS
 62
     2
  5
1A6
  2
*D2
 70
     1
 10
0.0
 20
0.0
 30
0.0
  3
*N2
  0
SOLID
  8
5
  6
CONTINUOUS
 62
     2
  5
1A7
 10
-0.0975
 20
0.076167
 30
0.0
 11
0.0
 21
0.0
 31
0.0
 12
-0.121833
 22
0.021333
 32
0.0
 13
-0.121833
 23
0.021333
 33
0.0
  0
LINE
  8
5
  6
CONTINUOUS
 62
     2
  5
1A8
 10
0.0
 20
0.0
 30
0.0
 11
-1.512917
 21
0.6725
 31
0.0
  0
ENDBLK
  8
5
  6
CONTINUOUS
 62
     2
  5
1A9
  0
BLOCK
  8
5
  6
CONTINUOUS
 62
     2
  5
202
  2
*D3
 70
     1
 10
0.0
 20
0.0
 30
0.0
  3
*N3
  0
SOLID
  8
5
  6
CONTINUOUS
 62
     2
  5
203
 10
-0.103833
 20
0.06725
 30
0.0
 11
0.0
 21
0.0
 31
0.0
 12
-0.12325
 22
0.0105
 32
0.0
 13
-0.12325
 23
0.0105
 33
0.0
  0
LINE
  8
5
  6
CONTINUOUS
 62
     2
  5
204
 10
0.0
 20
0.0
 30
0.0
 11
-1.551583
 21
0.531
 31
0.0
  0
ENDBLK
  8
5
  6
CONTINUOUS
 62
     2
  5
205
  0
BLOCK
  8
5
  6
CONTINUOUS
 62
     2
  5
208
  2
*D4
 70
     1
 10
0.0
 20
0.0
 30
0.0
  3
*N4
  0
SOLID
  8
5
  6
CONTINUOUS
 62
     2
  5
209
 10
-0.1105
 20
-0.055583
 30
0.0
 11
0.0
 21
0.0
 31
0.0
 12
-0.071417
 22
-0.101
 32
0.0
 13
-0.071417
 23
-0.101
 33
0.0
  0
LINE
  8
5
  6
CONTINUOUS
 62
     2
  5
20A
 10
0.0
 20
0.0
 30
0.0
 11
-1.504
 21
-1.2945
 31
0.0
  0
ENDBLK
  8
5
  6
CONTINUOUS
 62
     2
  5
20B
  0
ENDSEC
  0
SECTION
  2
ENTITIES
  0
POINT
  8
1
  6
DASHED
 62
     2
  5
29
 10
51.661333
 20
-9.532
 30
0.0
  0
POINT
  8
1
  6
DASHED
 62
     2
  5
2A
 10
84.886333
 20
-30.652
 30
0.0
  0
LINE
  8
1
  6
DASHED
 62
     4
  5
2B
 10
84.756667
 20
-9.052
 30
0.0
 11
49.556667
 21
-9.052
 31
0.0
  0
LINE
  8
1
  6
DASHED
 62
     4
  5
2C
 10
84.756667
 20
-31.052
 30
0.0
 11
49.556667
 21
-31.052
 31
0.0
  0
LINE
  8
1
  6
DASHED
 62
     4
  5
2D
 10
51.131667
 20
-9.052
 30
0.0
 11
51.131667
 21
-31.052
 31
0.0
  0
LINE
  8
1
  6
CONTINUOUS
 62
   140
  5
2E
 10
52.173333
 20
-9.552
 30
0.0
 11
52.173333
 21
-30.552
 31
0.0
  0
LINE
  8
1
  6
CONTINUOUS
 62
   140
  5
2F
 10
84.673333
 20
-9.552
 30
0.0
 11
52.173333
 21
-9.552
 31
0.0
  0
LINE
  8
1
  6
CONTINUOUS
 62
   140
  5
30
 10
84.673333
 20
-9.552
 30
0.0
 11
84.673333
 21
-30.552
 31
0.0
  0
LINE
  8
1
  6
CONTINUOUS
 62
   140
  5
31
 10
84.673333
 20
-30.552
 30
0.0
 11
52.173333
 21
-30.552
 31
0.0
  0
LINE
  8
1
  6
CONTINUOUS
 62
   140
  5
32
 10
51.923333
 20
-13.452
 30
0.0
 11
51.523333
 21
-13.452
 31
0.0
  0
LINE
  8
1
  6
CONTINUOUS
 62
   140
  5
33
 10
51.923333
 20
-16.252
 30
0.0
 11
51.523333
 21
-16.252
 31
0.0
  0
LINE
  8
1
  6
CONTINUOUS
 62
   140
  5
34
 10
51.923333
 20
-23.852
 30
0.0
 11
51.523333
 21
-23.852
 31
0.0
  0
LINE
  8
1
  6
CONTINUOUS
 62
   140
  5
35
 10
51.923333
 20
-26.652
 30
0.0
 11
51.523333
 21
-26.652
 31
0.0
  0
CIRCLE
  8
1
  6
CONTINUOUS
 62
   140
  5
36
 10
51.673333
 20
-13.452
 30
0.0
 40
0.125
210
0.0
220
0.0
230
1.0
  0
CIRCLE
  8
1
  6
CONTINUOUS
 62
   140
  5
37
 10
51.673333
 20
-16.252
 30
0.0
 40
0.125
210
0.0
220
0.0
230
1.0
  0
CIRCLE
  8
1
  6
CONTINUOUS
 62
   140
  5
38
 10
51.673333
 20
-23.852
 30
0.0
 40
0.125
210
0.0
220
0.0
230
1.0
  0
CIRCLE
  8
1
  6
CONTINUOUS
 62
   140
  5
39
 10
51.673333
 20
-26.652
 30
0.0
 40
0.125
210
0.0
220
0.0
230
1.0
  0
TEXT
  8
1
  6
CONTINUOUS
 62
   140
  5
3B
 10
81.129083
 20
-30.64375
 30
0.0
 40
0.06
  1
$$$$$$$$$FILENAME$$$$$$$$
  7
txt
 11
81.129083
 21
-30.61375
 31
0.0
210
0.0
220
0.0
230
1.0
 73
     2
  0
TEXT
  8
1
  6
CONTINUOUS
 62
   140
  5
3C
 10
82.853167
 20
-30.64375
 30
0.0
 40
0.06
  1
$USERNAME$
  7
txt
 11
82.853167
 21
-30.61375
 31
0.0
210
0.0
220
0.0
230
1.0
 73
     2
  0
TEXT
  8
1
  6
CONTINUOUS
 62
   140
  5
3D
 10
83.62675
 20
-30.64375
 30
0.0
 40
0.06
  1
DD-MMM-YYYY HH:MM
  7
txt
 11
83.62675
 21
-30.61375
 31
0.0
210
0.0
220
0.0
230
1.0
 73
     2
  0
POINT
  8
1
  6
CONTINUOUS
 62
   140
  5
3E
 10
52.173333
 20
-30.552
 30
0.0
  0
POINT
  8
1
  6
CONTINUOUS
 62
   140
  5
3F
 10
52.173333
 20
-9.552
 30
0.0
  0
POINT
  8
1
  6
CONTINUOUS
 62
   140
  5
40
 10
84.673333
 20
-9.552
 30
0.0
  0
POINT
  8
1
  6
CONTINUOUS
 62
   140
  5
41
 10
84.673333
 20
-30.552
 30
0.0
  0
LINE
  8
1
  6
CONTINUOUS
 62
   140
  5
42
 10
84.673333
 20
-30.552
 30
0.0
 11
84.673333
 21
-28.053
 31
0.0
  0
LINE
  8
1
  6
CONTINUOUS
 62
   140
  5
43
 10
84.673333
 20
-27.062167
 30
0.0
 11
78.673333
 21
-27.062167
 31
0.0
  0
LINE
  8
1
  6
CONTINUOUS
 62
   140
  5
44
 10
84.673333
 20
-30.552
 30
0.0
 11
78.673333
 21
-30.552
 31
0.0
  0
LINE
  8
1
  6
CONTINUOUS
 62
   140
  5
45
 10
80.21125
 20
-28.653
 30
0.0
 11
78.673333
 21
-28.653
 31
0.0
  0
LINE
  8
1
  6
CONTINUOUS
 62
   140
  5
46
 10
80.21125
 20
-28.852
 30
0.0
 11
78.673333
 21
-28.852
 31
0.0
  0
LINE
  8
1
  6
CONTINUOUS
 62
   140
  5
47
 10
80.21125
 20
-29.051
 30
0.0
 11
78.673333
 21
-29.051
 31
0.0
  0
LINE
  8
1
  6
CONTINUOUS
 62
   140
  5
48
 10
80.21125
 20
-29.25
 30
0.0
 11
78.673333
 21
-29.25
 31
0.0
  0
LINE
  8
1
  6
CONTINUOUS
 62
   140
  5
49
 10
80.21125
 20
-29.449
 30
0.0
 11
78.673333
 21
-29.449
 31
0.0
  0
LINE
  8
1
  6
CONTINUOUS
 62
   140
  5
4A
 10
80.21125
 20
-29.648
 30
0.0
 11
78.673333
 21
-29.648
 31
0.0
  0
LINE
  8
1
  6
CONTINUOUS
 62
   140
  5
4B
 10
80.21125
 20
-29.847
 30
0.0
 11
78.673333
 21
-29.847
 31
0.0
  0
LINE
  8
1
  6
CONTINUOUS
 62
   140
  5
4C
 10
80.21125
 20
-30.046
 30
0.0
 11
78.673333
 21
-30.046
 31
0.0
  0
LINE
  8
1
  6
CONTINUOUS
 62
   140
  5
4D
 10
80.21125
 20
-30.245
 30
0.0
 11
78.673333
 21
-30.245
 31
0.0
  0
TEXT
  8
1
  6
CONTINUOUS
 62
   140
  5
4F
 10
78.980417
 20
-28.605667
 30
0.0
 40
0.079
  1
REVISION DATE
 41
1.003165
  7
MONOTXT
210
0.0
220
0.0
230
1.0
  0
LINE
  8
1
  6
CONTINUOUS
 62
   140
  5
50
 10
78.673333
 20
-29.142
 30
0.0
 11
78.673333
 21
-30.552
 31
0.0
  0
TEXT
  8
1
  6
CONTINUOUS
 62
   140
  5
52
 10
78.884667
 20
-27.317083
 30
0.0
 40
0.1875
  1
WEST VIRGINIA DEPARTMENT OF TRANSPORTATION
  7
ROMANT
 72
     4
 11
81.655
 21
-27.223333
 31
0.0
210
0.0
220
0.0
230
1.0
  0
TEXT
  8
1
  6
CONTINUOUS
 62
   140
  5
53
 10
80.4575
 20
-27.526
 30
0.0
 40
0.1875
  1
DIVISION OF HIGHWAYS
  7
ROMANT
 72
     4
 11
81.677
 21
-27.43225
 31
0.0
210
0.0
220
0.0
230
1.0
  0
TEXT
  8
1
  6
CONTINUOUS
 62
   140
  5
54
 10
80.687583
 20
-27.724167
 30
0.0
 40
0.1875
  1
STANDARD DETAIL
  7
ROMANT
 72
     4
 11
81.665667
 21
-27.630417
 31
0.0
210
0.0
220
0.0
230
1.0
  0
LINE
  8
1
  6
CONTINUOUS
 62
   140
  5
55
 10
80.21125
 20
-28.453
 30
0.0
 11
78.673333
 21
-28.453
 31
0.0
  0
LINE
  8
1
  6
CONTINUOUS
 62
   140
  5
56
 10
80.21125
 20
-30.552
 30
0.0
 11
80.21125
 21
-28.453
 31
0.0
  0
LINE
  8
1
  6
CONTINUOUS
 62
   140
  5
57
 10
78.673333
 20
-30.552
 30
0.0
 11
78.673333
 21
-27.062167
 31
0.0
  0
TEXT
  8
1
  6
CONTINUOUS
 62
     2
  5
58
 10
80.696083
 20
-30.334917
 30
0.0
 40
0.166667
  1
STANDARD SHEET GR13      
  7
txt
 72
     4
 11
82.735417
 21
-30.251583
 31
0.0
210
0.0
220
0.0
230
1.0
  0
TEXT
  8
1
  6
CONTINUOUS
 62
     2
  5
59
 10
79.938917
 20
-28.189917
 30
0.0
 40
0.208333
  1
                        
  7
txt
 72
     4
 11
82.404167
 21
-28.08575
 31
0.0
210
0.0
220
0.0
230
1.0
  0
TEXT
  8
1
  6
CONTINUOUS
 62
     2
  5
5A
 10
80.2075
 20
-28.5615
 30
0.0
 40
0.208333
  1
   TEMPORARY CONCRETE   
  7
txt
 72
     4
 11
82.655833
 21
-28.457333
 31
0.0
210
0.0
220
0.0
230
1.0
  0
TEXT
  8
1
  6
CONTINUOUS
 62
     2
  5
5B
 10
80.20675
 20
-28.936833
 30
0.0
 40
0.208333
  1
         BARRIER        
  7
txt
 72
     4
 11
82.66
 21
-28.832667
 31
0.0
210
0.0
220
0.0
230
1.0
  0
TEXT
  8
1
  6
CONTINUOUS
 62
     2
  5
5C
 10
79.9445
 20
-29.287167
 30
0.0
 40
0.208333
  1
                        
  7
txt
 72
     4
 11
82.40975
 21
-29.183
 31
0.0
210
0.0
220
0.0
230
1.0
  0
TEXT
  8
1
  6
CONTINUOUS
 62
     2
  5
5D
 10
79.9445
 20
-29.6375
 30
0.0
 40
0.208333
  1
                        
  7
txt
 72
     4
 11
82.40975
 21
-29.533333
 31
0.0
210
0.0
220
0.0
230
1.0
  0
TEXT
  8
1
  6
CONTINUOUS
 62
     2
  5
5F
 10
78.592583
 20
-28.352333
 30
0.0
 40
0.083333
  1
  PREDARED 7-1-99 
  7
ROMANS
 72
     4
 11
79.328667
 21
-28.310667
 31
0.0
210
0.0
220
0.0
230
1.0
  0
TEXT
  8
1
  6
CONTINUOUS
 62
     2
  5
60
 10
78.708417
 20
-29.014583
 30
0.0
 40
0.083333
  1
                  
  7
ROMANS
 72
     4
 11
79.4445
 21
-28.972917
 31
0.0
210
0.0
220
0.0
230
1.0
  0
TEXT
  8
1
  6
CONTINUOUS
 62
     2
  5
61
 10
78.708417
 20
-29.213583
 30
0.0
 40
0.083333
  1
                  
  7
ROMANS
 72
     4
 11
79.4445
 21
-29.171917
 31
0.0
210
0.0
220
0.0
230
1.0
  0
TEXT
  8
1
  6
CONTINUOUS
 62
     2
  5
62
 10
78.708417
 20
-29.412583
 30
0.0
 40
0.083333
  1
                  
  7
ROMANS
 72
     4
 11
79.4445
 21
-29.370917
 31
0.0
210
0.0
220
0.0
230
1.0
  0
TEXT
  8
1
  6
CONTINUOUS
 62
     2
  5
63
 10
78.708417
 20
-29.611583
 30
0.0
 40
0.083333
  1
                  
  7
ROMANS
 72
     4
 11
79.4445
 21
-29.569917
 31
0.0
210
0.0
220
0.0
230
1.0
  0
TEXT
  8
1
  6
CONTINUOUS
 62
     2
  5
64
 10
78.708417
 20
-29.810583
 30
0.0
 40
0.083333
  1
                  
  7
ROMANS
 72
     4
 11
79.4445
 21
-29.768917
 31
0.0
210
0.0
220
0.0
230
1.0
  0
TEXT
  8
1
  6
CONTINUOUS
 62
     2
  5
65
 10
78.708417
 20
-30.009583
 30
0.0
 40
0.083333
  1
                  
  7
ROMANS
 72
     4
 11
79.4445
 21
-29.967917
 31
0.0
210
0.0
220
0.0
230
1.0
  0
TEXT
  8
1
  6
CONTINUOUS
 62
     2
  5
66
 10
78.708417
 20
-30.208583
 30
0.0
 40
0.083333
  1
                  
  7
ROMANS
 72
     4
 11
79.4445
 21
-30.166917
 31
0.0
210
0.0
220
0.0
230
1.0
  0
TEXT
  8
1
  6
CONTINUOUS
 62
     2
  5
67
 10
78.706833
 20
-30.41275
 30
0.0
 40
0.083333
  1
                  
  7
ROMANS
 72
     4
 11
79.442917
 21
-30.371083
 31
0.0
210
0.0
220
0.0
230
1.0
  0
POINT
  8
1
  6
DASHED
 62
     2
  5
68
 10
51.661333
 20
-9.532
 30
0.0
  0
POINT
  8
1
  6
DASHED
 62
     2
  5
69
 10
84.886333
 20
-30.652
 30
0.0
  0
TEXT
  8
1
  6
CONTINUOUS
 62
   140
  5
6A
 10
52.221333
 20
-30.673
 30
0.0
 40
0.06
  1
P5A1G92-STDBOR a
  7
MONOTXT
210
0.0
220
0.0
230
1.0
  0
LINE
  8
2
  6
CONTINUOUS
 62
     7
  5
6C
 10
68.994917
 20
-27.991417
 30
0.0
 11
73.73275
 21
-27.991417
 31
0.0
  0
LINE
  8
2
  6
CONTINUOUS
 62
     7
  5
6D
 10
70.23625
 20
-27.691417
 30
0.0
 11
70.788
 21
-26.903083
 31
0.0
  0
LINE
  8
2
  6
CONTINUOUS
 62
     7
  5
6E
 10
70.963333
 20
-26.434417
 30
0.0
 11
71.126833
 21
-24.881
 31
0.0
  0
LINE
  8
2
  6
CONTINUOUS
 62
     7
  5
6F
 10
71.74575
 20
-24.880917
 30
0.0
 11
71.90925
 21
-26.434333
 31
0.0
  0
LINE
  8
2
  6
CONTINUOUS
 62
     7
  5
70
 10
72.0845
 20
-26.903167
 30
0.0
 11
72.63625
 21
-27.691417
 31
0.0
  0
LINE
  8
2
  6
CONTINUOUS
 62
     7
  5
71
 10
70.23625
 20
-27.991417
 30
0.0
 11
70.23625
 21
-27.691417
 31
0.0
  0
LINE
  8
2
  6
CONTINUOUS
 62
     7
  5
72
 10
72.63625
 20
-27.991417
 30
0.0
 11
72.63625
 21
-27.691417
 31
0.0
  0
LINE
  8
2
  6
CONTINUOUS
 62
     7
  5
73
 10
71.22625
 20
-24.791417
 30
0.0
 11
71.64625
 21
-24.791417
 31
0.0
  0
ARC
  8
2
  6
CONTINUOUS
 62
     7
  5
74
 10
69.96877
 20
-26.32969
 30
0.0
 40
1.0
 50
325.010103
 51
353.990317
210
0.0
220
0.0
230
1.0
  0
ARC
  8
2
  6
CONTINUOUS
 62
     7
  5
75
 10
72.903699
 20
-26.329699
 30
0.0
 40
1.0
 50
186.002139
 51
214.995181
210
0.0
220
0.0
230
1.0
  0
ARC
  8
2
  6
CONTINUOUS
 62
     7
  5
76
 10
71.22626
 20
-24.8914
 30
0.0
 40
0.1
 50
90.0
 51
174.0018
210
0.0
220
0.0
230
1.0
  0
ARC
  8
2
  6
CONTINUOUS
 62
     7
  5
77
 10
71.646226
 20
-24.8914
 30
0.0
 40
0.1
 50
6.031197
 51
90.0
210
0.0
220
0.0
230
1.0
  0
LINE
  8
2
  6
CONTINUOUS
 62
     7
  5
78
 10
70.3645
 20
-26.440417
 30
0.0
 11
70.3645
 21
-25.040417
 31
0.0
  0
LINE
  8
2
  6
CONTINUOUS
 62
     7
  5
79
 10
70.9645
 20
-26.440417
 30
0.0
 11
70.3645
 21
-26.440417
 31
0.0
  0
LINE
  8
2
  6
CONTINUOUS
 62
     7
  5
7A
 10
71.11
 20
-25.040417
 30
0.0
 11
70.3645
 21
-25.040417
 31
0.0
  0
POLYLINE
  8
2
  6
CONTINUOUS
 62
     7
  5
7B
 66
     1
 10
0.0
 20
0.0
 30
0.0
  0
VERTEX
  8
2
  6
CONTINUOUS
 62
     7
  5
7C
 10
70.347917
 20
-25.686833
 30
0.0
  0
VERTEX
  8
2
  6
CONTINUOUS
 62
     7
  5
7D
 10
70.317083
 20
-25.686833
 30
0.0
  0
VERTEX
  8
2
  6
CONTINUOUS
 62
     7
  5
7E
 10
70.317083
 20
-25.794
 30
0.0
  0
VERTEX
  8
2
  6
CONTINUOUS
 62
     7
  5
7F
 10
70.347917
 20
-25.794
 30
0.0
  0
SEQEND
  8
2
  6
CONTINUOUS
 62
     7
  5
80
  0
POLYLINE
  8
2
  6
CONTINUOUS
 62
     7
  5
81
 66
     1
 10
0.0
 20
0.0
 30
0.0
  0
VERTEX
  8
2
  6
CONTINUOUS
 62
     7
  5
82
 10
70.36475
 20
-25.3055
 30
0.0
  0
VERTEX
  8
2
  6
CONTINUOUS
 62
     7
  5
83
 10
70.333917
 20
-25.3055
 30
0.0
  0
VERTEX
  8
2
  6
CONTINUOUS
 62
     7
  5
84
 10
70.333917
 20
-25.412667
 30
0.0
  0
VERTEX
  8
2
  6
CONTINUOUS
 62
     7
  5
85
 10
70.36475
 20
-25.412667
 30
0.0
  0
SEQEND
  8
2
  6
CONTINUOUS
 62
     7
  5
86
  0
POLYLINE
  8
2
  6
CONTINUOUS
 62
     7
  5
87
 66
     1
 10
0.0
 20
0.0
 30
0.0
  0
VERTEX
  8
2
  6
CONTINUOUS
 62
     7
  5
88
 10
70.36475
 20
-26.068
 30
0.0
  0
VERTEX
  8
2
  6
CONTINUOUS
 62
     7
  5
89
 10
70.333917
 20
-26.068
 30
0.0
  0
VERTEX
  8
2
  6
CONTINUOUS
 62
     7
  5
8A
 10
70.333917
 20
-26.175167
 30
0.0
  0
VERTEX
  8
2
  6
CONTINUOUS
 62
     7
  5
8B
 10
70.36475
 20
-26.175167
 30
0.0
  0
SEQEND
  8
2
  6
CONTINUOUS
 62
     7
  5
8C
  0
LINE
  8
2
  6
CONTINUOUS
 62
     7
  5
8D
 10
70.347583
 20
-25.040417
 30
0.0
 11
70.135583
 21
-25.253167
 31
0.0
  0
ARC
  8
2
  6
CONTINUOUS
 62
     7
  5
8E
 10
70.241857
 20
-25.359095
 30
0.0
 40
0.15
 50
135.107364
 51
224.895128
210
0.0
220
0.0
230
1.0
  0
LINE
  8
2
  6
CONTINUOUS
 62
     7
  5
8F
 10
70.135583
 20
-25.465
 30
0.0
 11
70.347583
 21
-25.677833
 31
0.0
  0
LINE
  8
2
  6
CONTINUOUS
 62
     7
  5
90
 10
70.347583
 20
-25.802833
 30
0.0
 11
70.135417
 21
-26.015833
 31
0.0
  0
ARC
  8
2
  6
CONTINUOUS
 62
     7
  5
91
 10
70.241744
 20
-26.121603
 30
0.0
 40
0.15
 50
135.135964
 51
224.8626
210
0.0
220
0.0
230
1.0
  0
LINE
  8
2
  6
CONTINUOUS
 62
     7
  5
92
 10
70.135417
 20
-26.227417
 30
0.0
 11
70.347583
 21
-26.440417
 31
0.0
  0
LINE
  8
2
  6
CONTINUOUS
 62
     7
  5
93
 10
70.361917
 20
-25.054583
 30
0.0
 11
70.149917
 21
-25.267417
 31
0.0
  0
ARC
  8
2
  6
CONTINUOUS
 62
     7
  5
94
 10
70.241857
 20
-25.359095
 30
0.0
 40
0.129861
 50
135.107364
 51
224.895128
210
0.0
220
0.0
230
1.0
  0
LINE
  8
2
  6
CONTINUOUS
 62
     7
  5
95
 10
70.149917
 20
-25.450667
 30
0.0
 11
70.361917
 21
-25.6635
 31
0.0
  0
LINE
  8
2
  6
CONTINUOUS
 62
     7
  5
96
 10
70.361917
 20
-25.817
 30
0.0
 11
70.14975
 21
-26.03
 31
0.0
  0
ARC
  8
2
  6
CONTINUOUS
 62
     7
  5
97
 10
70.241744
 20
-26.121603
 30
0.0
 40
0.129861
 50
135.135964
 51
224.8626
210
0.0
220
0.0
230
1.0
  0
LINE
  8
2
  6
CONTINUOUS
 62
     7
  5
98
 10
70.14975
 20
-26.213083
 30
0.0
 11
70.361917
 21
-26.426083
 31
0.0
  0
LINE
  8
2
  6
CONTINUOUS
 62
     7
  5
99
 10
70.347583
 20
-25.040417
 30
0.0
 11
70.361917
 21
-25.054583
 31
0.0
  0
LINE
  8
2
  6
CONTINUOUS
 62
     7
  5
9A
 10
70.347583
 20
-26.440417
 30
0.0
 11
70.361917
 21
-26.426083
 31
0.0
  0
LINE
  8
2
  6
CONTINUOUS
 62
     7
  5
9B
 10
71.773
 20
-25.140417
 30
0.0
 11
71.79175
 21
-25.140417
 31
0.0
  0
LINE
  8
2
  6
CONTINUOUS
 62
     7
  5
9C
 10
71.899333
 20
-26.340417
 30
0.0
 11
71.918
 21
-26.340417
 31
0.0
  0
LINE
  8
2
  6
CONTINUOUS
 62
     7
  5
9D
 10
71.79175
 20
-25.140417
 30
0.0
 11
71.918
 21
-26.340417
 31
0.0
  0
LINE
  8
2
  6
HIDDEN
 62
     7
  5
9E
 10
70.3645
 20
-25.327833
 30
0.0
 11
71.79275
 21
-25.327833
 31
0.0
  0
LINE
  8
2
  6
HIDDEN
 62
     7
  5
9F
 10
70.3645
 20
-25.390333
 30
0.0
 11
71.799333
 21
-25.390333
 31
0.0
  0
LINE
  8
2
  6
HIDDEN
 62
     7
  5
A0
 10
70.347583
 20
-25.709083
 30
0.0
 11
71.83625
 21
-25.709083
 31
0.0
  0
LINE
  8
2
  6
HIDDEN
 62
     7
  5
A1
 10
70.347583
 20
-25.771583
 30
0.0
 11
71.83625
 21
-25.771583
 31
0.0
  0
LINE
  8
2
  6
HIDDEN
 62
     7
  5
A2
 10
70.3645
 20
-26.090333
 30
0.0
 11
71.876333
 21
-26.090333
 31
0.0
  0
LINE
  8
2
  6
HIDDEN
 62
     7
  5
A3
 10
70.3645
 20
-26.152833
 30
0.0
 11
71.876333
 21
-26.152833
 31
0.0
  0
LINE
  8
2
  6
DASHED
 62
     7
  5
A4
 10
70.3645
 20
-25.3215
 30
0.0
 11
71.792083
 21
-25.3215
 31
0.0
  0
LINE
  8
2
  6
DASHED
 62
     7
  5
A5
 10
70.3645
 20
-25.3965
 30
0.0
 11
71.8
 21
-25.3965
 31
0.0
  0
LINE
  8
2
  6
DASHED
 62
     7
  5
A6
 10
70.347583
 20
-25.702833
 30
0.0
 11
71.83625
 21
-25.702833
 31
0.0
  0
LINE
  8
2
  6
DASHED
 62
     7
  5
A7
 10
70.347583
 20
-25.777833
 30
0.0
 11
71.83625
 21
-25.777833
 31
0.0
  0
LINE
  8
2
  6
DASHED
 62
     7
  5
A8
 10
70.3645
 20
-26.084
 30
0.0
 11
71.876333
 21
-26.084
 31
0.0
  0
LINE
  8
2
  6
DASHED
 62
     7
  5
A9
 10
70.3645
 20
-26.159
 30
0.0
 11
71.876333
 21
-26.159
 31
0.0
  0
LINE
  8
2
  6
CONTINUOUS
 62
     7
  5
AA
 10
70.347583
 20
-25.677833
 30
0.0
 11
70.347583
 21
-25.802833
 31
0.0
  0
POLYLINE
  8
2
  6
CONTINUOUS
 62
     7
  5
AB
 66
     1
 10
0.0
 20
0.0
 30
0.0
  0
VERTEX
  8
2
  6
CONTINUOUS
 62
     7
  5
AC
 10
71.808583
 20
-25.300667
 30
0.0
  0
VERTEX
  8
2
  6
CONTINUOUS
 62
     7
  5
AD
 10
71.817
 20
-25.299833
 30
0.0
  0
VERTEX
  8
2
  6
CONTINUOUS
 62
     7
  5
AE
 10
71.829417
 20
-25.418417
 30
0.0
  0
VERTEX
  8
2
  6
CONTINUOUS
 62
     7
  5
AF
 10
71.821083
 20
-25.419333
 30
0.0
  0
SEQEND
  8
2
  6
CONTINUOUS
 62
     7
  5
B0
  0
POLYLINE
  8
2
  6
CONTINUOUS
 62
     7
  5
B1
 66
     1
 10
0.0
 20
0.0
 30
0.0
  0
VERTEX
  8
2
  6
CONTINUOUS
 62
     7
  5
B2
 10
71.818833
 20
-25.317333
 30
0.0
  0
VERTEX
  8
2
  6
CONTINUOUS
 62
     7
  5
B3
 10
71.835583
 20
-25.3155
 30
0.0
  0
VERTEX
  8
2
  6
CONTINUOUS
 62
     7
  5
B4
 10
71.844833
 20
-25.402667
 30
0.0
  0
VERTEX
  8
2
  6
CONTINUOUS
 62
     7
  5
B5
 10
71.827917
 20
-25.4045
 30
0.0
  0
SEQEND
  8
2
  6
CONTINUOUS
 62
     7
  5
B6
  0
POLYLINE
  8
2
  6
CONTINUOUS
 62
     7
  5
B7
 66
     1
 10
0.0
 20
0.0
 30
0.0
  0
VERTEX
  8
2
  6
CONTINUOUS
 62
     7
  5
B8
 10
71.84875
 20
-25.682
 30
0.0
  0
VERTEX
  8
2
  6
CONTINUOUS
 62
     7
  5
B9
 10
71.857083
 20
-25.681083
 30
0.0
  0
VERTEX
  8
2
  6
CONTINUOUS
 62
     7
  5
BA
 10
71.8695
 20
-25.799667
 30
0.0
  0
VERTEX
  8
2
  6
CONTINUOUS
 62
     7
  5
BB
 10
71.86125
 20
-25.800583
 30
0.0
  0
SEQEND
  8
2
  6
CONTINUOUS
 62
     7
  5
BC
  0
POLYLINE
  8
2
  6
CONTINUOUS
 62
     7
  5
BD
 66
     1
 10
0.0
 20
0.0
 30
0.0
  0
VERTEX
  8
2
  6
CONTINUOUS
 62
     7
  5
BE
 10
71.858917
 20
-25.698583
 30
0.0
  0
VERTEX
  8
2
  6
CONTINUOUS
 62
     7
  5
BF
 10
71.87575
 20
-25.696833
 30
0.0
  0
VERTEX
  8
2
  6
CONTINUOUS
 62
     7
  5
C0
 10
71.884917
 20
-25.784
 30
0.0
  0
VERTEX
  8
2
  6
CONTINUOUS
 62
     7
  5
C1
 10
71.868
 20
-25.785833
 30
0.0
  0
SEQEND
  8
2
  6
CONTINUOUS
 62
     7
  5
C2
  0
POLYLINE
  8
2
  6
CONTINUOUS
 62
     7
  5
C3
 66
     1
 10
0.0
 20
0.0
 30
0.0
  0
VERTEX
  8
2
  6
CONTINUOUS
 62
     7
  5
C4
 10
71.888917
 20
-26.063167
 30
0.0
  0
VERTEX
  8
2
  6
CONTINUOUS
 62
     7
  5
C5
 10
71.897333
 20
-26.062333
 30
0.0
  0
VERTEX
  8
2
  6
CONTINUOUS
 62
     7
  5
C6
 10
71.90975
 20
-26.180917
 30
0.0
  0
VERTEX
  8
2
  6
CONTINUOUS
 62
     7
  5
C7
 10
71.901417
 20
-26.181833
 30
0.0
  0
SEQEND
  8
2
  6
CONTINUOUS
 62
     7
  5
C8
  0
POLYLINE
  8
2
  6
CONTINUOUS
 62
     7
  5
C9
 66
     1
 10
0.0
 20
0.0
 30
0.0
  0
VERTEX
  8
2
  6
CONTINUOUS
 62
     7
  5
CA
 10
71.899083
 20
-26.079833
 30
0.0
  0
VERTEX
  8
2
  6
CONTINUOUS
 62
     7
  5
CB
 10
71.915917
 20
-26.078
 30
0.0
  0
VERTEX
  8
2
  6
CONTINUOUS
 62
     7
  5
CC
 10
71.925083
 20
-26.165167
 30
0.0
  0
VERTEX
  8
2
  6
CONTINUOUS
 62
     7
  5
CD
 10
71.90825
 20
-26.167
 30
0.0
  0
SEQEND
  8
2
  6
CONTINUOUS
 62
     7
  5
CE
  0
LINE
  8
2
  6
CONTINUOUS
 62
     7
  5
CF
 10
70.333917
 20
-25.359083
 30
0.0
 11
69.583083
 21
-25.359083
 31
0.0
  0
LINE
  8
2
  6
CONTINUOUS
 62
     7
  5
D0
 10
70.317083
 20
-25.740417
 30
0.0
 11
69.583083
 21
-25.740417
 31
0.0
  0
LINE
  8
2
  6
CONTINUOUS
 62
     7
  5
D1
 10
70.333917
 20
-26.121583
 30
0.0
 11
69.583083
 21
-26.121583
 31
0.0
  0
LINE
  8
2
  6
CONTINUOUS
 62
     7
  5
D2
 10
69.708417
 20
-26.661167
 30
0.0
 11
69.708417
 21
-26.121583
 31
0.0
  0
LINE
  8
2
  6
CONTINUOUS
 62
     7
  5
D3
 10
69.708417
 20
-25.740417
 30
0.0
 11
69.708417
 21
-25.359083
 31
0.0
  0
LINE
  8
2
  6
CONTINUOUS
 62
     7
  5
D4
 10
69.708417
 20
-25.359083
 30
0.0
 11
69.708417
 21
-24.789417
 31
0.0
  0
POLYLINE
  8
2
  6
CONTINUOUS
 62
     7
  5
D5
 66
     1
 10
0.0
 20
0.0
 30
0.0
  0
VERTEX
  8
2
  6
CONTINUOUS
 62
     7
  5
D6
 10
71.242917
 20
-25.329833
 30
0.0
  0
VERTEX
  8
2
  6
CONTINUOUS
 62
     7
  5
D7
 10
71.462083
 20
-24.186417
 30
0.0
  0
VERTEX
  8
2
  6
CONTINUOUS
 62
     7
  5
D8
 10
73.112417
 20
-24.186417
 30
0.0
  0
SEQEND
  8
2
  6
CONTINUOUS
 62
     7
  5
D9
  0
POLYLINE
  8
2
  6
CONTINUOUS
 62
     7
  5
DA
 66
     1
 10
0.0
 20
0.0
 30
0.0
  0
VERTEX
  8
2
  6
CONTINUOUS
 62
     7
  5
DB
 10
71.831333
 20
-25.414083
 30
0.0
  0
VERTEX
  8
2
  6
CONTINUOUS
 62
     7
  5
DC
 10
72.409417
 20
-25.588333
 30
0.0
  0
VERTEX
  8
2
  6
CONTINUOUS
 62
     7
  5
DD
 10
73.505417
 20
-25.588333
 30
0.0
  0
SEQEND
  8
2
  6
CONTINUOUS
 62
     7
  5
DE
  0
POLYLINE
  8
2
  6
CONTINUOUS
 62
     7
  5
DF
 66
     1
 10
0.0
 20
0.0
 30
0.0
  0
VERTEX
  8
2
  6
CONTINUOUS
 62
     7
  5
E0
 10
71.86325
 20
-25.678667
 30
0.0
  0
VERTEX
  8
2
  6
CONTINUOUS
 62
     7
  5
E1
 10
72.409417
 20
-25.588333
 30
0.0
  0
VERTEX
  8
2
  6
CONTINUOUS
 62
     7
  5
E2
 10
71.89975
 20
-26.0595
 30
0.0
  0
SEQEND
  8
2
  6
CONTINUOUS
 62
     7
  5
E3
  0
POLYLINE
  8
2
  6
CONTINUOUS
 62
     7
  5
E4
 66
     1
 10
0.0
 20
0.0
 30
0.0
  0
VERTEX
  8
2
  6
CONTINUOUS
 62
     7
  5
E5
 10
71.917917
 20
-26.273917
 30
0.0
  0
VERTEX
  8
2
  6
CONTINUOUS
 62
     7
  5
E6
 10
72.785083
 20
-26.716083
 30
0.0
  0
VERTEX
  8
2
  6
CONTINUOUS
 62
     7
  5
E7
 10
75.39575
 20
-26.716083
 30
0.0
  0
SEQEND
  8
2
  6
CONTINUOUS
 62
     7
  5
E8
  0
SOLID
  8
2
  6
CONTINUOUS
 62
     7
  5
E9
 10
71.290417
 20
-25.2015
 30
0.0
 11
71.242917
 21
-25.329833
 31
0.0
 12
71.24625
 22
-25.193
 32
0.0
 13
71.24625
 23
-25.193
 33
0.0
  0
SOLID
  8
2
  6
CONTINUOUS
 62
     7
  5
EA
 10
71.954083
 20
-25.474583
 30
0.0
 11
71.831333
 21
-25.414083
 31
0.0
 12
71.967083
 22
-25.4315
 32
0.0
 13
71.967083
 23
-25.4315
 33
0.0
  0
SOLID
  8
2
  6
CONTINUOUS
 62
     7
  5
EB
 10
72.000083
 20
-25.678917
 30
0.0
 11
71.86325
 21
-25.678667
 31
0.0
 12
71.99275
 22
-25.6345
 32
0.0
 13
71.99275
 23
-25.6345
 33
0.0
  0
SOLID
  8
2
  6
CONTINUOUS
 62
     7
  5
EC
 10
72.014083
 20
-25.984417
 30
0.0
 11
71.89975
 21
-26.0595
 31
0.0
 12
71.983583
 22
-25.951333
 32
0.0
 13
71.983583
 23
-25.951333
 33
0.0
  0
SOLID
  8
2
  6
CONTINUOUS
 62
     7
  5
ED
 10
72.027917
 20
-26.355333
 30
0.0
 11
71.917917
 21
-26.273917
 31
0.0
 12
72.048417
 22
-26.315167
 32
0.0
 13
72.048417
 23
-26.315167
 33
0.0
  0
POLYLINE
  8
2
  6
CONTINUOUS
 62
     7
  5
EE
 66
     1
 10
0.0
 20
0.0
 30
0.0
  0
VERTEX
  8
2
  6
CONTINUOUS
 62
     7
  5
EF
 10
70.883083
 20
-25.034833
 30
0.0
  0
VERTEX
  8
2
  6
CONTINUOUS
 62
     7
  5
F0
 10
70.490417
 20
-23.997417
 30
0.0
  0
VERTEX
  8
2
  6
CONTINUOUS
 62
     7
  5
F1
 10
68.561583
 20
-23.997417
 30
0.0
  0
SEQEND
  8
2
  6
CONTINUOUS
 62
     7
  5
F2
  0
SOLID
  8
2
  6
CONTINUOUS
 62
     7
  5
F3
 10
70.856333
 20
-24.900583
 30
0.0
 11
70.883083
 21
-25.034833
 31
0.0
 12
70.814333
 22
-24.9165
 32
0.0
 13
70.814333
 23
-24.9165
 33
0.0
  0
LINE
  8
2
  6
CONTINUOUS
 62
     7
  5
F4
 10
55.75975
 20
-20.599167
 30
0.0
 11
56.35975
 21
-20.599167
 31
0.0
  0
LINE
  8
2
  6
CONTINUOUS
 62
     7
  5
F5
 10
54.44725
 20
-19.599167
 30
0.0
 11
55.453833
 21
-19.599167
 31
0.0
  0
LINE
  8
2
  6
CONTINUOUS
 62
     7
  5
F6
 10
55.55975
 20
-19.263667
 30
0.0
 11
55.55975
 21
-18.6205
 31
0.0
  0
LINE
  8
2
  6
CONTINUOUS
 62
     7
  5
F7
 10
56.35975
 20
-17.699167
 30
0.0
 11
56.35975
 21
-17.2325
 31
0.0
  0
LINE
  8
2
  6
CONTINUOUS
 62
     7
  5
F8
 10
55.75975
 20
-17.699167
 30
0.0
 11
55.75975
 21
-17.2325
 31
0.0
  0
LINE
  8
2
  6
CONTINUOUS
 62
     7
  5
F9
 10
56.35975
 20
-20.899167
 30
0.0
 11
56.35975
 21
-20.599167
 31
0.0
  0
LINE
  8
2
  6
CONTINUOUS
 62
     7
  5
FA
 10
55.75975
 20
-20.899167
 30
0.0
 11
55.75975
 21
-20.599167
 31
0.0
  0
LINE
  8
2
  6
CONTINUOUS
 62
     7
  5
FB
 10
54.85975
 20
-20.899167
 30
0.0
 11
55.75975
 21
-20.899167
 31
0.0
  0
LINE
  8
2
  6
CONTINUOUS
 62
     7
  5
FC
 10
56.35975
 20
-20.899167
 30
0.0
 11
57.25975
 21
-20.899167
 31
0.0
  0
LINE
  8
2
  6
CONTINUOUS
 62
     7
  5
FD
 10
54.85975
 20
-20.599167
 30
0.0
 11
55.411583
 21
-19.810917
 31
0.0
  0
LINE
  8
2
  6
CONTINUOUS
 62
     7
  5
FE
 10
55.586833
 20
-19.342167
 30
0.0
 11
55.750333
 21
-17.788833
 31
0.0
  0
LINE
  8
2
  6
CONTINUOUS
 62
     7
  5
FF
 10
56.36925
 20
-17.788667
 30
0.0
 11
56.53275
 21
-19.342083
 31
0.0
  0
LINE
  8
2
  6
CONTINUOUS
 62
     7
  5
100
 10
56.708083
 20
-19.811
 30
0.0
 11
57.25975
 21
-20.599167
 31
0.0
  0
LINE
  8
2
  6
CONTINUOUS
 62
     7
  5
101
 10
54.85975
 20
-20.899167
 30
0.0
 11
54.85975
 21
-20.599167
 31
0.0
  0
LINE
  8
2
  6
CONTINUOUS
 62
     7
  5
102
 10
57.25975
 20
-20.899167
 30
0.0
 11
57.25975
 21
-20.599167
 31
0.0
  0
LINE
  8
2
  6
CONTINUOUS
 62
     7
  5
103
 10
54.100417
 20
-17.699167
 30
0.0
 11
55.733083
 21
-17.699167
 31
0.0
  0
LINE
  8
2
  6
CONTINUOUS
 62
     7
  5
104
 10
55.84975
 20
-17.699167
 30
0.0
 11
56.26975
 21
-17.699167
 31
0.0
  0
ARC
  8
2
  6
CONTINUOUS
 62
     7
  5
105
 10
54.592303
 20
-19.23749
 30
0.0
 40
1.0
 50
325.010103
 51
353.990317
210
0.0
220
0.0
230
1.0
  0
ARC
  8
2
  6
CONTINUOUS
 62
     7
  5
106
 10
57.527232
 20
-19.237499
 30
0.0
 40
1.0
 50
186.002139
 51
214.995181
210
0.0
220
0.0
230
1.0
  0
ARC
  8
2
  6
CONTINUOUS
 62
     7
  5
107
 10
55.849793
 20
-17.7992
 30
0.0
 40
0.1
 50
90.0
 51
174.0018
210
0.0
220
0.0
230
1.0
  0
ARC
  8
2
  6
CONTINUOUS
 62
     7
  5
108
 10
56.269759
 20
-17.7992
 30
0.0
 40
0.1
 50
6.031197
 51
90.0
210
0.0
220
0.0
230
1.0
  0
LINE
  8
2
  6
CONTINUOUS
 62
     7
  5
109
 10
54.819417
 20
-20.899167
 30
0.0
 11
54.100417
 21
-20.899167
 31
0.0
  0
LINE
  8
2
  6
CONTINUOUS
 62
     7
  5
10A
 10
54.819417
 20
-20.599167
 30
0.0
 11
54.44725
 21
-20.599167
 31
0.0
  0
LINE
  8
2
  6
CONTINUOUS
 62
     7
  5
10B
 10
54.85975
 20
-20.516333
 30
0.0
 11
54.85975
 21
-18.6205
 31
0.0
  0
LINE
  8
2
  6
CONTINUOUS
 62
     7
  5
10C
 10
54.85975
 20
-18.713583
 30
0.0
 11
55.55975
 21
-18.713583
 31
0.0
  0
LINE
  8
2
  6
CONTINUOUS
 62
     7
  5
10D
 10
54.55525
 20
-21.252583
 30
0.0
 11
54.55525
 21
-20.899167
 31
0.0
  0
LINE
  8
2
  6
CONTINUOUS
 62
     7
  5
10E
 10
54.55525
 20
-20.899167
 30
0.0
 11
54.55525
 21
-20.599167
 31
0.0
  0
LINE
  8
2
  6
CONTINUOUS
 62
     7
  5
10F
 10
54.85975
 20
-20.959167
 30
0.0
 11
54.85975
 21
-21.900417
 31
0.0
  0
LINE
  8
2
  6
CONTINUOUS
 62
     7
  5
110
 10
57.25975
 20
-20.959167
 30
0.0
 11
57.25975
 21
-21.900417
 31
0.0
  0
LINE
  8
2
  6
CONTINUOUS
 62
     7
  5
111
 10
54.85975
 20
-21.391
 30
0.0
 11
55.75975
 21
-21.391
 31
0.0
  0
SOLID
  8
2
  6
CONTINUOUS
 62
     7
  5
112
 10
55.89475
 20
-17.365
 30
0.0
 11
55.75975
 21
-17.3425
 31
0.0
 12
55.89475
 22
-17.32
 32
0.0
 13
55.89475
 23
-17.32
 33
0.0
  0
SOLID
  8
2
  6
CONTINUOUS
 62
     7
  5
113
 10
56.22475
 20
-17.32
 30
0.0
 11
56.35975
 21
-17.3425
 31
0.0
 12
56.22475
 22
-17.365
 32
0.0
 13
56.22475
 23
-17.365
 33
0.0
  0
SOLID
  8
2
  6
CONTINUOUS
 62
     7
  5
114
 10
54.194333
 20
-17.834167
 30
0.0
 11
54.216833
 21
-17.699167
 31
0.0
 12
54.239333
 22
-17.834167
 32
0.0
 13
54.239333
 23
-17.834167
 33
0.0
  0
SOLID
  8
2
  6
CONTINUOUS
 62
     7
  5
115
 10
54.239333
 20
-20.764167
 30
0.0
 11
54.216833
 21
-20.899167
 31
0.0
 12
54.194333
 22
-20.764167
 32
0.0
 13
54.194333
 23
-20.764167
 33
0.0
  0
SOLID
  8
2
  6
CONTINUOUS
 62
     7
  5
116
 10
54.57775
 20
-20.464167
 30
0.0
 11
54.55525
 21
-20.599167
 31
0.0
 12
54.53275
 22
-20.464167
 32
0.0
 13
54.53275
 23
-20.464167
 33
0.0
  0
SOLID
  8
2
  6
CONTINUOUS
 62
     7
  5
117
 10
54.53275
 20
-19.734167
 30
0.0
 11
54.55525
 21
-19.599167
 31
0.0
 12
54.57775
 22
-19.734167
 32
0.0
 13
54.57775
 23
-19.734167
 33
0.0
  0
SOLID
  8
2
  6
CONTINUOUS
 62
     7
  5
118
 10
54.99475
 20
-18.736083
 30
0.0
 11
54.85975
 21
-18.713583
 31
0.0
 12
54.99475
 22
-18.691083
 32
0.0
 13
54.99475
 23
-18.691083
 33
0.0
  0
SOLID
  8
2
  6
CONTINUOUS
 62
     7
  5
119
 10
55.42475
 20
-18.691083
 30
0.0
 11
55.55975
 21
-18.713583
 31
0.0
 12
55.42475
 22
-18.736083
 32
0.0
 13
55.42475
 23
-18.736083
 33
0.0
  0
SOLID
  8
2
  6
CONTINUOUS
 62
     7
  5
11A
 10
54.53275
 20
-21.034167
 30
0.0
 11
54.55525
 21
-20.899167
 31
0.0
 12
54.57775
 22
-21.034167
 32
0.0
 13
54.57775
 23
-21.034167
 33
0.0
  0
SOLID
  8
2
  6
CONTINUOUS
 62
     7
  5
11B
 10
54.99475
 20
-21.4135
 30
0.0
 11
54.85975
 21
-21.391
 31
0.0
 12
54.99475
 22
-21.3685
 32
0.0
 13
54.99475
 23
-21.3685
 33
0.0
  0
SOLID
  8
2
  6
CONTINUOUS
 62
     7
  5
11C
 10
55.62475
 20
-21.3685
 30
0.0
 11
55.75975
 21
-21.391
 31
0.0
 12
55.62475
 22
-21.4135
 32
0.0
 13
55.62475
 23
-21.4135
 33
0.0
  0
SOLID
  8
2
  6
CONTINUOUS
 62
     7
  5
11D
 10
55.89475
 20
-21.4135
 30
0.0
 11
55.75975
 21
-21.391
 31
0.0
 12
55.89475
 22
-21.3685
 32
0.0
 13
55.89475
 23
-21.3685
 33
0.0
  0
SOLID
  8
2
  6
CONTINUOUS
 62
     7
  5
11E
 10
56.22475
 20
-21.3685
 30
0.0
 11
56.35975
 21
-21.391
 31
0.0
 12
56.22475
 22
-21.4135
 32
0.0
 13
56.22475
 23
-21.4135
 33
0.0
  0
SOLID
  8
2
  6
CONTINUOUS
 62
     7
  5
11F
 10
54.99475
 20
-21.804417
 30
0.0
 11
54.85975
 21
-21.781917
 31
0.0
 12
54.99475
 22
-21.759417
 32
0.0
 13
54.99475
 23
-21.759417
 33
0.0
  0
LINE
  8
2
  6
CONTINUOUS
 62
     7
  5
120
 10
56.595417
 20
-19.600583
 30
0.0
 11
56.828833
 21
-19.324167
 31
0.0
  0
SOLID
  8
2
  6
CONTINUOUS
 62
     7
  5
121
 10
56.700333
 20
-19.512667
 30
0.0
 11
56.595417
 21
-19.600583
 31
0.0
 12
56.666167
 22
-19.483417
 32
0.0
 13
56.666167
 23
-19.483417
 33
0.0
  0
LINE
  8
2
  6
CONTINUOUS
 62
     7
  5
122
 10
56.05975
 20
-20.774917
 30
0.0
 11
56.05975
 21
-19.5515
 31
0.0
  0
LINE
  8
2
  6
CONTINUOUS
 62
     7
  5
123
 10
56.05975
 20
-19.500667
 30
0.0
 11
56.05975
 21
-19.323
 31
0.0
  0
LINE
  8
2
  6
CONTINUOUS
 62
     7
  5
124
 10
56.05975
 20
-19.272167
 30
0.0
 11
56.05975
 21
-17.510417
 31
0.0
  0
LINE
  8
2
  6
CONTINUOUS
 62
     7
  5
125
 10
55.75975
 20
-20.959167
 30
0.0
 11
55.75975
 21
-21.464
 31
0.0
  0
LINE
  8
2
  6
CONTINUOUS
 62
     7
  5
126
 10
56.35975
 20
-20.959167
 30
0.0
 11
56.35975
 21
-21.464
 31
0.0
  0
SOLID
  8
2
  6
CONTINUOUS
 62
     7
  5
127
 10
57.12475
 20
-21.3685
 30
0.0
 11
57.25975
 21
-21.391
 31
0.0
 12
57.12475
 22
-21.4135
 32
0.0
 13
57.12475
 23
-21.4135
 33
0.0
  0
LINE
  8
2
  6
CONTINUOUS
 62
     7
  5
128
 10
55.75975
 20
-21.391
 30
0.0
 11
56.35975
 21
-21.391
 31
0.0
  0
LINE
  8
2
  6
CONTINUOUS
 62
     7
  5
129
 10
56.35975
 20
-21.391
 30
0.0
 11
57.25975
 21
-21.391
 31
0.0
  0
SOLID
  8
2
  6
CONTINUOUS
 62
     7
  5
12A
 10
56.49475
 20
-21.4135
 30
0.0
 11
56.35975
 21
-21.391
 31
0.0
 12
56.49475
 22
-21.3685
 32
0.0
 13
56.49475
 23
-21.3685
 33
0.0
  0
LINE
  8
2
  6
DASHED
 62
     7
  5
12B
 10
54.85975
 20
-20.749167
 30
0.0
 11
55.75975
 21
-20.749167
 31
0.0
  0
LINE
  8
2
  6
DASHED
 62
     7
  5
12C
 10
56.35975
 20
-20.749167
 30
0.0
 11
57.25975
 21
-20.749167
 31
0.0
  0
SOLID
  8
2
  6
CONTINUOUS
 62
     7
  5
12D
 10
57.741417
 20
-18.435
 30
0.0
 11
57.763917
 21
-18.3
 31
0.0
 12
57.786417
 22
-18.435
 32
0.0
 13
57.786417
 23
-18.435
 33
0.0
  0
SOLID
  8
2
  6
CONTINUOUS
 62
     7
  5
12E
 10
57.741417
 20
-20.034583
 30
0.0
 11
57.763917
 21
-19.899583
 31
0.0
 12
57.786417
 22
-20.034583
 32
0.0
 13
57.786417
 23
-20.034583
 33
0.0
  0
SOLID
  8
2
  6
CONTINUOUS
 62
     7
  5
12F
 10
57.786417
 20
-19.764583
 30
0.0
 11
57.763917
 21
-19.899583
 31
0.0
 12
57.741417
 22
-19.764583
 32
0.0
 13
57.741417
 23
-19.764583
 33
0.0
  0
SOLID
  8
2
  6
CONTINUOUS
 62
     7
  5
130
 10
57.786417
 20
-20.764167
 30
0.0
 11
57.763917
 21
-20.899167
 31
0.0
 12
57.741417
 22
-20.764167
 32
0.0
 13
57.741417
 23
-20.764167
 33
0.0
  0
SOLID
  8
2
  6
CONTINUOUS
 62
     7
  5
131
 10
55.969167
 20
-18.262333
 30
0.0
 11
56.151583
 21
-18.262333
 31
0.0
 12
55.969167
 22
-18.334667
 32
0.0
 13
56.151583
 23
-18.334667
 33
0.0
  0
SOLID
  8
2
  6
CONTINUOUS
 62
     7
  5
132
 10
55.969167
 20
-19.863667
 30
0.0
 11
56.151583
 21
-19.863667
 31
0.0
 12
55.969167
 22
-19.936083
 32
0.0
 13
56.151583
 23
-19.936083
 33
0.0
  0
LINE
  8
2
  6
CONTINUOUS
 62
     7
  5
133
 10
53.614
 20
-15.046
 30
0.0
 11
53.614
 21
-11.846
 31
0.0
  0
LINE
  8
2
  6
CONTINUOUS
 62
     7
  5
134
 10
53.614
 20
-11.846
 30
0.0
 11
65.614
 21
-11.846
 31
0.0
  0
LINE
  8
2
  6
CONTINUOUS
 62
     7
  5
135
 10
65.614
 20
-15.046
 30
0.0
 11
65.614
 21
-11.846
 31
0.0
  0
LINE
  8
2
  6
CONTINUOUS
 62
     7
  5
136
 10
53.614
 20
-15.111583
 30
0.0
 11
53.614
 21
-16.065583
 31
0.0
  0
LINE
  8
2
  6
CONTINUOUS
 62
     7
  5
137
 10
57.814
 20
-15.111583
 30
0.0
 11
57.814
 21
-15.687167
 31
0.0
  0
LINE
  8
2
  6
CONTINUOUS
 62
     7
  5
138
 10
61.414
 20
-15.111583
 30
0.0
 11
61.414
 21
-15.687167
 31
0.0
  0
POINT
  8
2
  6
CONTINUOUS
 62
   215
  5
139
 10
57.814
 20
-15.046
 30
0.0
  0
POINT
  8
2
  6
CONTINUOUS
 62
   215
  5
13A
 10
61.414
 20
-15.046
 30
0.0
  0
LINE
  8
2
  6
CONTINUOUS
 62
     7
  5
13B
 10
53.614
 20
-15.046
 30
0.0
 11
57.739
 21
-15.046
 31
0.0
  0
ARC
  8
2
  6
CONTINUOUS
 62
     7
  5
13C
 10
57.814
 20
-15.046
 30
0.0
 40
0.075
 50
0.0
 51
180.0
210
0.0
220
0.0
230
1.0
  0
ARC
  8
2
  6
CONTINUOUS
 62
     7
  5
13D
 10
61.414
 20
-15.046
 30
0.0
 40
0.075
 50
0.0
 51
180.0
210
0.0
220
0.0
230
1.0
  0
LINE
  8
2
  6
CONTINUOUS
 62
     7
  5
13E
 10
57.889
 20
-15.046
 30
0.0
 11
61.339
 21
-15.046
 31
0.0
  0
LINE
  8
2
  6
CONTINUOUS
 62
     7
  5
13F
 10
61.489
 20
-15.046
 30
0.0
 11
65.614
 21
-15.046
 31
0.0
  0
LINE
  8
2
  6
CONTINUOUS
 62
     7
  5
140
 10
65.614
 20
-15.111583
 30
0.0
 11
65.614
 21
-16.065583
 31
0.0
  0
LINE
  8
2
  6
CONTINUOUS
 62
     7
  5
141
 10
55.75975
 20
-17.3425
 30
0.0
 11
56.35975
 21
-17.3425
 31
0.0
  0
LINE
  8
2
  6
CONTINUOUS
 62
     7
  5
142
 10
54.85975
 20
-21.781917
 30
0.0
 11
57.25975
 21
-21.781917
 31
0.0
  0
SOLID
  8
2
  6
CONTINUOUS
 62
     7
  5
143
 10
57.12475
 20
-21.759417
 30
0.0
 11
57.25975
 21
-21.781917
 31
0.0
 12
57.12475
 22
-21.804417
 32
0.0
 13
57.12475
 23
-21.804417
 33
0.0
  0
SOLID
  8
2
  6
CONTINUOUS
 62
     7
  5
144
 10
57.679
 20
-15.546167
 30
0.0
 11
57.814
 21
-15.568667
 31
0.0
 12
57.679
 22
-15.591167
 32
0.0
 13
57.679
 23
-15.591167
 33
0.0
  0
SOLID
  8
2
  6
CONTINUOUS
 62
     7
  5
145
 10
53.749
 20
-15.591167
 30
0.0
 11
53.614
 21
-15.568667
 31
0.0
 12
53.749
 22
-15.546167
 32
0.0
 13
53.749
 23
-15.546167
 33
0.0
  0
SOLID
  8
2
  6
CONTINUOUS
 62
     7
  5
146
 10
61.279
 20
-15.546167
 30
0.0
 11
61.414
 21
-15.568667
 31
0.0
 12
61.279
 22
-15.591167
 32
0.0
 13
61.279
 23
-15.591167
 33
0.0
  0
SOLID
  8
2
  6
CONTINUOUS
 62
     7
  5
147
 10
57.949
 20
-15.591167
 30
0.0
 11
57.814
 21
-15.568667
 31
0.0
 12
57.949
 22
-15.546167
 32
0.0
 13
57.949
 23
-15.546167
 33
0.0
  0
LINE
  8
2
  6
CONTINUOUS
 62
     7
  5
148
 10
53.614
 20
-15.568667
 30
0.0
 11
57.814
 21
-15.568667
 31
0.0
  0
LINE
  8
2
  6
CONTINUOUS
 62
     7
  5
149
 10
57.814
 20
-15.568667
 30
0.0
 11
65.614
 21
-15.568667
 31
0.0
  0
SOLID
  8
2
  6
CONTINUOUS
 62
     7
  5
14A
 10
61.549
 20
-15.591167
 30
0.0
 11
61.414
 21
-15.568667
 31
0.0
 12
61.549
 22
-15.546167
 32
0.0
 13
61.549
 23
-15.546167
 33
0.0
  0
SOLID
  8
2
  6
CONTINUOUS
 62
     7
  5
14B
 10
65.479
 20
-15.546167
 30
0.0
 11
65.614
 21
-15.568667
 31
0.0
 12
65.479
 22
-15.591167
 32
0.0
 13
65.479
 23
-15.591167
 33
0.0
  0
LINE
  8
2
  6
CONTINUOUS
 62
     7
  5
14C
 10
53.614
 20
-15.957583
 30
0.0
 11
65.614
 21
-15.957583
 31
0.0
  0
SOLID
  8
2
  6
CONTINUOUS
 62
     7
  5
14D
 10
53.749
 20
-15.980083
 30
0.0
 11
53.614
 21
-15.957583
 31
0.0
 12
53.749
 22
-15.935083
 32
0.0
 13
53.749
 23
-15.935083
 33
0.0
  0
SOLID
  8
2
  6
CONTINUOUS
 62
     7
  5
14E
 10
65.479
 20
-15.935083
 30
0.0
 11
65.614
 21
-15.957583
 31
0.0
 12
65.479
 22
-15.980083
 32
0.0
 13
65.479
 23
-15.980083
 33
0.0
  0
LINE
  8
2
  6
CONTINUOUS
 62
     7
  5
14F
 10
54.900083
 20
-20.599167
 30
0.0
 11
55.718667
 21
-20.599167
 31
0.0
  0
LINE
  8
2
  6
CONTINUOUS
 62
     7
  5
150
 10
57.871917
 20
-20.899167
 30
0.0
 11
57.314917
 21
-20.899167
 31
0.0
  0
LINE
  8
2
  6
CONTINUOUS
 62
     7
  5
151
 10
57.871917
 20
-19.899583
 30
0.0
 11
56.271583
 21
-19.899583
 31
0.0
  0
LINE
  8
2
  6
CONTINUOUS
 62
     7
  5
152
 10
57.871917
 20
-18.3
 30
0.0
 11
56.271583
 21
-18.3
 31
0.0
  0
LINE
  8
2
  6
CONTINUOUS
 62
     7
  5
153
 10
72.058917
 20
-20.881167
 30
0.0
 11
71.405583
 21
-20.881167
 31
0.0
  0
LINE
  8
2
  6
CONTINUOUS
 62
     7
  5
154
 10
72.02725
 20
-17.83325
 30
0.0
 11
71.430083
 21
-17.83325
 31
0.0
  0
LINE
  8
2
  6
CONTINUOUS
 62
     7
  5
155
 10
71.636083
 20
-19.973167
 30
0.0
 11
71.361417
 21
-19.973167
 31
0.0
  0
SOLID
  8
2
  6
CONTINUOUS
 62
     7
  5
156
 10
71.484
 20
-19.992833
 30
0.0
 11
71.349
 21
-19.970333
 31
0.0
 12
71.484
 22
-19.947833
 32
0.0
 13
71.484
 23
-19.947833
 33
0.0
  0
SOLID
  8
2
  6
CONTINUOUS
 62
     7
  5
157
 10
71.07125
 20
-19.946583
 30
0.0
 11
71.20625
 21
-19.969083
 31
0.0
 12
71.07125
 22
-19.991583
 32
0.0
 13
71.07125
 23
-19.991583
 33
0.0
  0
TEXT
  8
5
  6
CONTINUOUS
 62
     2
  5
159
 10
55.967333
 20
-17.2525
 30
0.0
 40
0.144
  1
6"
  7
txt
 72
     1
 11
56.086333
 21
-17.2525
 31
0.0
210
0.0
220
0.0
230
1.0
  0
TEXT
  8
5
  6
CONTINUOUS
 62
     2
  5
15A
 10
55.122083
 20
-18.623583
 30
0.0
 40
0.144
  1
7"
  7
txt
 72
     1
 11
55.241083
 21
-18.623583
 31
0.0
210
0.0
220
0.0
230
1.0
  0
TEXT
  8
5
  6
CONTINUOUS
 62
     2
  5
15B
 10
55.23775
 20
-21.301
 30
0.0
 40
0.144
  1
9"
  7
txt
 72
     1
 11
55.35675
 21
-21.301
 31
0.0
210
0.0
220
0.0
230
1.0
  0
TEXT
  8
5
  6
CONTINUOUS
 62
     2
  5
15C
 10
56.741583
 20
-21.301
 30
0.0
 40
0.144
  1
9"
  7
txt
 72
     1
 11
56.860583
 21
-21.301
 31
0.0
210
0.0
220
0.0
230
1.0
  0
TEXT
  8
5
  6
CONTINUOUS
 62
     2
  5
15D
 10
55.997083
 20
-21.301
 30
0.0
 40
0.144
  1
6"
  7
txt
 72
     1
 11
56.116083
 21
-21.301
 31
0.0
210
0.0
220
0.0
230
1.0
  0
TEXT
  8
5
  6
CONTINUOUS
 62
     2
  5
15E
 10
55.939833
 20
-21.691917
 30
0.0
 40
0.144
  1
24"
  7
txt
 72
     1
 11
56.130333
 21
-21.691917
 31
0.0
210
0.0
220
0.0
230
1.0
  0
TEXT
  8
5
  6
CONTINUOUS
 62
     2
  5
15F
 10
55.939833
 20
-21.691917
 30
0.0
 40
0.144
  1
24"
  7
txt
 72
     1
 11
56.130333
 21
-21.691917
 31
0.0
210
0.0
220
0.0
230
1.0
  0
TEXT
  8
5
  6
CONTINUOUS
 62
     2
  5
160
 10
54.087333
 20
-19.342167
 30
0.0
 40
0.144
  1
32"
  7
txt
 72
     1
 11
54.277833
 21
-19.342167
 31
0.0
210
0.0
220
0.0
230
1.0
  0
TEXT
  8
5
  6
CONTINUOUS
 62
     2
  5
161
 10
54.383583
 20
-20.171083
 30
0.0
 40
0.144
  1
10"
  7
txt
 72
     1
 11
54.574083
 21
-20.171083
 31
0.0
210
0.0
220
0.0
230
1.0
  0
TEXT
  8
5
  6
CONTINUOUS
 62
     2
  5
162
 10
54.049667
 20
-21.313583
 30
0.0
 40
0.144
  1
3"
  7
txt
 72
     1
 11
54.168667
 21
-21.313583
 31
0.0
210
0.0
220
0.0
230
1.0
  0
TEXT
  8
5
  6
CONTINUOUS
 62
     2
  5
163
 10
56.980167
 20
-19.4085
 30
0.0
 40
0.144
  1
10"R
  7
txt
 72
     1
 11
57.242083
 21
-19.4085
 31
0.0
210
0.0
220
0.0
230
1.0
  0
TEXT
  8
5
  6
CONTINUOUS
 62
     2
  5
164
 10
57.632667
 20
-19.119083
 30
0.0
 40
0.144
  1
14"
  7
txt
 72
     1
 11
57.823167
 21
-19.119083
 31
0.0
210
0.0
220
0.0
230
1.0
  0
TEXT
  8
5
  6
CONTINUOUS
 62
     2
  5
165
 10
57.592833
 20
-20.491417
 30
0.0
 40
0.144
  1
10"
  7
txt
 72
     1
 11
57.783333
 21
-20.491417
 31
0.0
210
0.0
220
0.0
230
1.0
  0
LINE
  8
2
  6
CONTINUOUS
 62
     7
  5
166
 10
54.216833
 20
-20.899167
 30
0.0
 11
54.216833
 21
-19.450167
 31
0.0
  0
LINE
  8
2
  6
CONTINUOUS
 62
     7
  5
167
 10
54.216833
 20
-19.117667
 30
0.0
 11
54.216833
 21
-17.699167
 31
0.0
  0
LINE
  8
2
  6
CONTINUOUS
 62
     7
  5
168
 10
54.55525
 20
-20.599167
 30
0.0
 11
54.55525
 21
-20.248167
 31
0.0
  0
LINE
  8
2
  6
CONTINUOUS
 62
     7
  5
169
 10
54.55525
 20
-19.957333
 30
0.0
 11
54.55525
 21
-19.599167
 31
0.0
  0
LINE
  8
2
  6
CONTINUOUS
 62
     7
  5
16A
 10
57.763917
 20
-20.899167
 30
0.0
 11
57.763917
 21
-20.555833
 31
0.0
  0
LINE
  8
2
  6
CONTINUOUS
 62
     7
  5
16B
 10
57.763917
 20
-20.273083
 30
0.0
 11
57.763917
 21
-19.899583
 31
0.0
  0
LINE
  8
2
  6
CONTINUOUS
 62
     7
  5
16C
 10
57.763917
 20
-19.899583
 30
0.0
 11
57.763917
 21
-19.221417
 31
0.0
  0
LINE
  8
2
  6
CONTINUOUS
 62
     7
  5
16D
 10
56.828833
 20
-19.324167
 30
0.0
 11
56.93625
 21
-19.324
 31
0.0
  0
TEXT
  8
5
  6
CONTINUOUS
 62
     2
  5
16E
 10
55.501917
 20
-15.478667
 30
0.0
 40
0.144
  1
42"
  7
txt
 72
     1
 11
55.692417
 21
-15.478667
 31
0.0
210
0.0
220
0.0
230
1.0
  0
TEXT
  8
5
  6
CONTINUOUS
 62
     2
  5
16F
 10
63.418833
 20
-15.478667
 30
0.0
 40
0.144
  1
42"
  7
txt
 72
     1
 11
63.609333
 21
-15.478667
 31
0.0
210
0.0
220
0.0
230
1.0
  0
TEXT
  8
5
  6
CONTINUOUS
 62
     2
  5
170
 10
71.7445
 20
-19.255583
 30
0.0
 40
0.144
  1
30"
  7
txt
 72
     1
 11
71.935
 21
-19.255583
 31
0.0
210
0.0
220
0.0
230
1.0
  0
LINE
  8
2
  6
CONTINUOUS
 62
     7
  5
171
 10
71.91575
 20
-20.879083
 30
0.0
 11
71.91575
 21
-19.3695
 31
0.0
  0
LINE
  8
2
  6
CONTINUOUS
 62
     7
  5
172
 10
71.91575
 20
-19.04175
 30
0.0
 11
71.91575
 21
-17.843083
 31
0.0
  0
SOLID
  8
2
  6
CONTINUOUS
 62
     7
  5
173
 10
71.892333
 20
-17.979833
 30
0.0
 11
71.914833
 21
-17.844833
 31
0.0
 12
71.937333
 22
-17.979833
 32
0.0
 13
71.937333
 23
-17.979833
 33
0.0
  0
TEXT
  8
5
  6
CONTINUOUS
 62
     2
  5
174
 10
72.471917
 20
-25.520833
 30
0.0
 40
0.144
  1
Circular
  7
txt
 72
     1
 11
73.019583
 21
-25.520833
 31
0.0
210
0.0
220
0.0
230
1.0
  0
TEXT
  8
5
  6
CONTINUOUS
 62
     2
  5
175
 10
72.511083
 20
-25.7935
 30
0.0
 40
0.144
  1
Washers
  7
txt
 72
     1
 11
72.98725
 21
-25.7935
 31
0.0
210
0.0
220
0.0
230
1.0
  0
TEXT
  8
5
  6
CONTINUOUS
 62
     2
  5
176
 10
72.961083
 20
-26.636417
 30
0.0
 40
0.144
  1
0.187" x 4" x 12"
  7
txt
 72
     1
 11
74.151583
 21
-26.636417
 31
0.0
210
0.0
220
0.0
230
1.0
  0
TEXT
  8
5
  6
CONTINUOUS
 62
     2
  5
177
 10
73.182083
 20
-26.950833
 30
0.0
 40
0.144
  1
Steel Plate
  7
txt
 72
     1
 11
73.944
 21
-26.950833
 31
0.0
210
0.0
220
0.0
230
1.0
  0
TEXT
  8
5
  6
CONTINUOUS
 62
     2
  5
178
 10
68.675583
 20
-23.923083
 30
0.0
 40
0.144
  1
6" x 6" x 14"
  7
txt
 72
     1
 11
69.580417
 21
-23.923083
 31
0.0
210
0.0
220
0.0
230
1.0
  0
TEXT
  8
5
  6
CONTINUOUS
 62
     2
  5
179
 10
68.760583
 20
-24.218167
 30
0.0
 40
0.144
  1
Wood Block
  7
txt
 72
     1
 11
69.451083
 21
-24.218167
 31
0.0
210
0.0
220
0.0
230
1.0
  0
LINE
  8
2
  6
CONTINUOUS
 62
     7
  5
17A
 10
69.516083
 20
-24.789417
 30
0.0
 11
69.708417
 21
-24.789417
 31
0.0
  0
LINE
  8
2
  6
CONTINUOUS
 62
     7
  5
17B
 10
69.516083
 20
-26.661167
 30
0.0
 11
69.708417
 21
-26.661167
 31
0.0
  0
LINE
  8
2
  6
CONTINUOUS
 62
     7
  5
17C
 10
69.708417
 20
-26.121583
 30
0.0
 11
69.708417
 21
-25.740417
 31
0.0
  0
SOLID
  8
2
  6
CONTINUOUS
 62
     7
  5
17D
 10
69.685917
 20
-25.875417
 30
0.0
 11
69.708417
 21
-25.740417
 31
0.0
 12
69.730917
 22
-25.875417
 32
0.0
 13
69.730917
 23
-25.875417
 33
0.0
  0
SOLID
  8
2
  6
CONTINUOUS
 62
     7
  5
17E
 10
69.730917
 20
-25.605417
 30
0.0
 11
69.708417
 21
-25.740417
 31
0.0
 12
69.685917
 22
-25.605417
 32
0.0
 13
69.685917
 23
-25.605417
 33
0.0
  0
SOLID
  8
2
  6
CONTINUOUS
 62
     7
  5
17F
 10
69.730917
 20
-25.986583
 30
0.0
 11
69.708417
 21
-26.121583
 31
0.0
 12
69.685917
 22
-25.986583
 32
0.0
 13
69.685917
 23
-25.986583
 33
0.0
  0
SOLID
  8
2
  6
CONTINUOUS
 62
     7
  5
180
 10
69.685917
 20
-25.494083
 30
0.0
 11
69.708417
 21
-25.359083
 31
0.0
 12
69.730917
 22
-25.494083
 32
0.0
 13
69.730917
 23
-25.494083
 33
0.0
  0
TEXT
  8
5
  6
CONTINUOUS
 62
     2
  5
181
 10
68.339333
 20
-29.045667
 30
0.0
 40
0.24
  1
GUARDRAIL TIE TO TEMPORARY
  7
ROMANS
 72
     4
 11
71.416833
 21
-28.925667
 31
0.0
210
0.0
220
0.0
230
1.0
  0
TEXT
  8
5
  6
CONTINUOUS
 62
     2
  5
182
 10
69.531833
 20
-29.465667
 30
0.0
 40
0.24
  1
CONCRETE BARRIER
  7
ROMANS
 72
     4
 11
71.4075
 21
-29.345667
 31
0.0
210
0.0
220
0.0
230
1.0
  0
TEXT
  8
5
  6
CONTINUOUS
 62
     2
  5
183
 10
70.166
 20
-21.933417
 30
0.0
 40
0.24
  1
PIN DETAIL
  7
ROMANS
 72
     1
 11
71.316
 21
-21.933417
 31
0.0
210
0.0
220
0.0
230
1.0
  0
TEXT
  8
5
  6
CONTINUOUS
 62
     2
  5
184
 10
62.4395
 20
-22.289583
 30
0.0
 40
0.24
  1
RIGHT END
  7
ROMANS
 72
     1
 11
63.475833
 21
-22.289583
 31
0.0
210
0.0
220
0.0
230
1.0
  0
TEXT
  8
5
  6
CONTINUOUS
 62
     2
  5
185
 10
55.029917
 20
-22.29475
 30
0.0
 40
0.24
  1
LEFT END
  7
ROMANS
 72
     1
 11
55.94625
 21
-22.29475
 31
0.0
210
0.0
220
0.0
230
1.0
  0
TEXT
  8
5
  6
CONTINUOUS
 62
     2
  5
186
 10
80.373917
 20
-13.6665
 30
0.0
 40
0.24
  1
NOTES
  7
ROMANS
 72
     1
 11
80.929333
 21
-13.6665
 31
0.0
210
0.0
220
0.0
230
1.0
  0
LINE
  8
5
  6
CONTINUOUS
 62
     2
  5
187
 10
62.189833
 20
-22.433167
 30
0.0
 11
64.53525
 21
-22.433167
 31
0.0
  0
LINE
  8
5
  6
CONTINUOUS
 62
     2
  5
188
 10
54.787583
 20
-22.4215
 30
0.0
 11
56.936167
 21
-22.4215
 31
0.0
  0
LINE
  8
5
  6
CONTINUOUS
 62
     2
  5
189
 10
69.255083
 20
-16.208
 30
0.0
 11
72.943333
 21
-16.208
 31
0.0
  0
LINE
  8
5
  6
CONTINUOUS
 62
     2
  5
18A
 10
69.364
 20
-29.667417
 30
0.0
 11
73.486
 21
-29.667417
 31
0.0
  0
TEXT
  8
5
  6
CONTINUOUS
 62
     2
  5
18B
 10
68.243917
 20
-24.831417
 30
0.0
 40
0.144
  1
3 13/16 "
  7
txt
 72
     1
 11
68.863
 21
-24.831417
 31
0.0
210
0.0
220
0.0
230
1.0
  0
TEXT
  8
5
  6
CONTINUOUS
 62
     2
  5
18C
 10
71.4845
 20
-24.099167
 30
0.0
 40
0.144
  1
 5/8 " Bolt
  7
txt
 72
     1
 11
72.247
 21
-24.099167
 31
0.0
210
0.0
220
0.0
230
1.0
  0
TEXT
  8
5
  6
CONTINUOUS
 62
     2
  5
18D
 10
68.282083
 20
-26.679
 30
0.0
 40
0.144
  1
3 13/16 "
  7
txt
 72
     1
 11
68.901167
 21
-26.679
 31
0.0
210
0.0
220
0.0
230
1.0
  0
TEXT
  8
5
  6
CONTINUOUS
 62
     2
  5
18E
 10
59.398083
 20
-19.54875
 30
0.0
 40
0.144
  1
See Detail 'A'
  7
txt
 11
59.398083
 21
-19.47675
 31
0.0
210
0.0
220
0.0
230
1.0
 73
     2
  0
SOLID
  8
5
  6
CONTINUOUS
 62
     2
  5
18F
 10
71.042
 20
-17.94875
 30
0.0
 11
71.169833
 21
-17.87325
 31
0.0
 12
71.092667
 22
-18.000083
 32
0.0
 13
71.092667
 23
-18.000083
 33
0.0
  0
LINE
  8
5
  6
CONTINUOUS
 62
     2
  5
190
 10
71.145333
 20
-17.90275
 30
0.0
 11
70.679
 21
-18.363083
 31
0.0
  0
LINE
  8
5
  6
CONTINUOUS
 62
     2
  5
191
 10
70.679
 20
-18.363083
 30
0.0
 11
70.391
 21
-18.363083
 31
0.0
  0
TEXT
  8
5
  6
CONTINUOUS
 62
     2
  5
192
 10
68.413167
 20
-18.324917
 30
0.0
 40
0.144
  1
2" O.D. Washer
  7
txt
 11
68.413167
 21
-18.252917
 31
0.0
210
0.0
220
0.0
230
1.0
 73
     2
  0
LINE
  8
2
  6
CONTINUOUS
 62
     7
  5
193
 10
54.356167
 20
-21.252583
 30
0.0
 11
54.55525
 21
-21.252583
 31
0.0
  0
TEXT
  8
5
  6
CONTINUOUS
 62
     2
  5
194
 10
71.62175
 20
-24.431417
 30
0.0
 40
0.144
  1
L=15 1/2 "
  7
txt
 72
     1
 11
72.31225
 21
-24.431417
 31
0.0
210
0.0
220
0.0
230
1.0
  0
INSERT
  8
5
  6
CONTINUOUS
 62
     2
  5
19D
  2
*D0
 10
56.067167
 20
-19.916583
 30
0.0
 70
     0
 71
     0
  0
TEXT
  8
5
  6
CONTINUOUS
 62
     2
  5
19E
 10
58.501667
 20
-15.867583
 30
0.0
 40
0.144
  1
144" MAX.
  7
txt
 72
     1
 11
59.12075
 21
-15.867583
 31
0.0
210
0.0
220
0.0
230
1.0
  0
INSERT
  8
5
  6
CONTINUOUS
 62
     2
  5
1A4
  2
*D1
 10
57.7845
 20
-15.046
 30
0.0
 70
     0
 71
     0
  0
INSERT
  8
5
  6
CONTINUOUS
 62
     2
  5
1AA
  2
*D2
 10
61.397833
 20
-15.046
 30
0.0
 70
     0
 71
     0
  0
LINE
  8
5
  6
CONTINUOUS
 62
     2
  5
1AB
 10
58.817833
 20
-19.487583
 30
0.0
 11
59.361083
 21
-19.487583
 31
0.0
  0
LINE
  8
2
  6
CONTINUOUS
 62
     7
  5
1AC
 10
57.763917
 20
-18.873583
 30
0.0
 11
57.763917
 21
-18.3
 31
0.0
  0
SOLID
  8
5
  6
CONTINUOUS
 62
     2
  5
1AD
 10
56.16425
 20
-18.32325
 30
0.0
 11
56.067167
 21
-18.246583
 31
0.0
 12
56.188917
 22
-18.268583
 32
0.0
 13
56.188917
 23
-18.268583
 33
0.0
  0
LINE
  8
5
  6
CONTINUOUS
 62
     2
  5
1AE
 10
57.941917
 20
-19.092417
 30
0.0
 11
58.817833
 21
-19.487583
 31
0.0
  0
LINE
  8
5
  6
CONTINUOUS
 62
     2
  5
1AF
 10
56.067167
 20
-18.246583
 30
0.0
 11
57.615833
 21
-18.945333
 31
0.0
  0
TEXT
  8
10
  6
CONTINUOUS
 62
   241
  5
1B1
 10
77.612417
 20
-14.322167
 30
0.0
 40
0.12
  1
The materials used in manufacturing temporary 
  7
ROMANS
 72
     1
 11
80.352417
 21
-14.322167
 31
0.0
210
0.0
220
0.0
230
1.0
  0
TEXT
  8
10
  6
CONTINUOUS
 62
   241
  5
1B2
 10
77.6035
 20
-14.516917
 30
0.0
 40
0.12
  1
concrete barrier are to provide minimum strength
  7
ROMANS
 72
     1
 11
80.464167
 21
-14.516917
 31
0.0
210
0.0
220
0.0
230
1.0
  0
TEXT
  8
10
  6
CONTINUOUS
 62
   241
  5
1B3
 10
77.598833
 20
-14.698583
 30
0.0
 40
0.12
  1
of 3000 p.s.i.
  7
ROMANS
 72
     1
 11
78.398667
 21
-14.698583
 31
0.0
210
0.0
220
0.0
230
1.0
  0
TEXT
  8
10
  6
CONTINUOUS
 62
   241
  5
1B4
 10
77.589417
 20
-15.049
 30
0.0
 40
0.12
  1
The cost of all materials detailed herein are to 
  7
ROMANS
 72
     1
 11
80.509417
 21
-15.049
 31
0.0
210
0.0
220
0.0
230
1.0
  0
TEXT
  8
10
  6
CONTINUOUS
 62
   241
  5
1B5
 10
77.584333
 20
-15.230583
 30
0.0
 40
0.12
  1
be included in the unit bid price for temporary
  7
ROMANS
 72
     1
 11
80.385583
 21
-15.230583
 31
0.0
210
0.0
220
0.0
230
1.0
  0
TEXT
  8
10
  6
CONTINUOUS
 62
   241
  5
1B6
 10
77.588917
 20
-15.39925
 30
0.0
 40
0.12
  1
concrete barrier.
  7
ROMANS
 72
     1
 11
78.56875
 21
-15.39925
 31
0.0
210
0.0
220
0.0
230
1.0
  0
TEXT
  8
10
  6
CONTINUOUS
 62
   241
  5
1B7
 10
77.594083
 20
-15.762667
 30
0.0
 40
0.12
  1
The finished surface of the barrier shall be 
  7
ROMANS
 72
     1
 11
80.274083
 21
-15.762667
 31
0.0
210
0.0
220
0.0
230
1.0
  0
TEXT
  8
10
  6
CONTINUOUS
 62
   241
  5
1B8
 10
77.589583
 20
-15.944417
 30
0.0
 40
0.12
  1
smooth, dense, unpitted and free from air bubble
  7
ROMANS
 72
     1
 11
80.450833
 21
-15.944417
 31
0.0
210
0.0
220
0.0
230
1.0
  0
TEXT
  8
10
  6
CONTINUOUS
 62
   241
  5
1B9
 10
77.599333
 20
-16.139083
 30
0.0
 40
0.12
  1
pockets, depressions and honeycombs.
  7
ROMANS
 72
     1
 11
79.719167
 21
-16.139083
 31
0.0
210
0.0
220
0.0
230
1.0
  0
TEXT
  8
10
  6
CONTINUOUS
 62
   241
  5
1BA
 10
77.561333
 20
-16.489417
 30
0.0
 40
0.12
  1
The materials utilized for detail 'A'shall provide
  7
ROMANS
 72
     1
 11
80.542583
 21
-16.489417
 31
0.0
210
0.0
220
0.0
230
1.0
  0
TEXT
  8
10
  6
CONTINUOUS
 62
   241
  5
1BB
 10
77.589333
 20
-16.684083
 30
0.0
 40
0.12
  1
a minimum safe working load of 4500lbs.
  7
ROMANS
 72
     1
 11
79.889167
 21
-16.684083
 31
0.0
210
0.0
220
0.0
230
1.0
  0
TEXT
  8
10
  6
CONTINUOUS
 62
   241
  5
1BC
 10
77.595833
 20
-17.0345
 30
0.0
 40
0.12
  1
An approved equal pin and eye detail, as approved
  7
ROMANS
 72
     1
 11
80.516167
 21
-17.0345
 31
0.0
210
0.0
220
0.0
230
1.0
  0
TEXT
  8
10
  6
CONTINUOUS
 62
   241
  5
1BD
 10
77.607083
 20
-17.229167
 30
0.0
 40
0.12
  1
by the Engineer, may be substituted for this 
  7
ROMANS
 72
     1
 11
80.287083
 21
-17.229167
 31
0.0
210
0.0
220
0.0
230
1.0
  0
TEXT
  8
10
  6
CONTINUOUS
 62
   241
  5
1BE
 10
77.589333
 20
-17.41075
 30
0.0
 40
0.12
  1
detail. Shop drawings will be required.
  7
ROMANS
 72
     1
 11
79.889167
 21
-17.41075
 31
0.0
210
0.0
220
0.0
230
1.0
  0
TEXT
  8
10
  6
CONTINUOUS
 62
   241
  5
1BF
 10
77.591833
 20
-17.761167
 30
0.0
 40
0.12
  1
All corners to have 1" radius unless otherwise 
  7
ROMANS
 72
     1
 11
80.391833
 21
-17.761167
 31
0.0
210
0.0
220
0.0
230
1.0
  0
TEXT
  8
10
  6
CONTINUOUS
 62
   241
  5
1C0
 10
77.6035
 20
-17.942917
 30
0.0
 40
0.12
  1
specified.
  7
ROMANS
 72
     1
 11
78.163333
 21
-17.942917
 31
0.0
210
0.0
220
0.0
230
1.0
  0
TEXT
  8
10
  6
CONTINUOUS
 62
   241
  5
1C1
 10
77.594083
 20
-18.28025
 30
0.0
 40
0.12
  1
For additional guardrail details see the GR  
  7
ROMANS
 72
     1
 11
80.274083
 21
-18.28025
 31
0.0
210
0.0
220
0.0
230
1.0
  0
TEXT
  8
10
  6
CONTINUOUS
 62
   241
  5
1C2
 10
77.59025
 20
-18.475
 30
0.0
 40
0.12
  1
series of Standard Details.
  7
ROMANS
 72
     1
 11
79.170083
 21
-18.475
 31
0.0
210
0.0
220
0.0
230
1.0
  0
LINE
  8
5
  6
CONTINUOUS
 62
     2
  5
1C3
 10
70.096
 20
-22.094583
 30
0.0
 11
72.441417
 21
-22.094583
 31
0.0
  0
LINE
  8
2
  6
CONTINUOUS
 62
     7
  5
1C4
 10
63.729583
 20
-20.599167
 30
0.0
 11
63.129583
 21
-20.599167
 31
0.0
  0
LINE
  8
2
  6
CONTINUOUS
 62
     7
  5
1C5
 10
63.129583
 20
-20.899167
 30
0.0
 11
63.129583
 21
-20.599167
 31
0.0
  0
LINE
  8
2
  6
CONTINUOUS
 62
     7
  5
1C6
 10
63.729583
 20
-20.899167
 30
0.0
 11
63.729583
 21
-20.599167
 31
0.0
  0
LINE
  8
2
  6
CONTINUOUS
 62
     7
  5
1C7
 10
64.629583
 20
-20.899167
 30
0.0
 11
63.729583
 21
-20.899167
 31
0.0
  0
LINE
  8
2
  6
CONTINUOUS
 62
     7
  5
1C8
 10
63.129583
 20
-20.899167
 30
0.0
 11
62.229583
 21
-20.899167
 31
0.0
  0
LINE
  8
2
  6
CONTINUOUS
 62
     7
  5
1C9
 10
64.629583
 20
-20.599167
 30
0.0
 11
64.07775
 21
-19.810917
 31
0.0
  0
LINE
  8
2
  6
CONTINUOUS
 62
     7
  5
1CA
 10
63.9025
 20
-19.342167
 30
0.0
 11
63.739
 21
-17.788833
 31
0.0
  0
LINE
  8
2
  6
CONTINUOUS
 62
     7
  5
1CB
 10
63.120083
 20
-17.788667
 30
0.0
 11
62.956583
 21
-19.342083
 31
0.0
  0
LINE
  8
2
  6
CONTINUOUS
 62
     7
  5
1CC
 10
62.78125
 20
-19.811
 30
0.0
 11
62.229583
 21
-20.599167
 31
0.0
  0
LINE
  8
2
  6
CONTINUOUS
 62
     7
  5
1CD
 10
64.629583
 20
-20.899167
 30
0.0
 11
64.629583
 21
-20.599167
 31
0.0
  0
LINE
  8
2
  6
CONTINUOUS
 62
     7
  5
1CE
 10
62.229583
 20
-20.899167
 30
0.0
 11
62.229583
 21
-20.599167
 31
0.0
  0
LINE
  8
2
  6
CONTINUOUS
 62
     7
  5
1CF
 10
65.388917
 20
-17.699167
 30
0.0
 11
63.75625
 21
-17.699167
 31
0.0
  0
LINE
  8
2
  6
CONTINUOUS
 62
     7
  5
1D0
 10
63.639583
 20
-17.699167
 30
0.0
 11
63.219583
 21
-17.699167
 31
0.0
  0
ARC
  8
2
  6
CONTINUOUS
 62
     7
  5
1D1
 10
64.89703
 20
-19.23749
 30
0.0
 40
1.0
 50
186.009683
 51
214.989897
210
0.0
220
0.0
230
1.0
  0
ARC
  8
2
  6
CONTINUOUS
 62
     7
  5
1D2
 10
61.962101
 20
-19.237499
 30
0.0
 40
1.0
 50
325.004819
 51
353.997861
210
0.0
220
0.0
230
1.0
  0
ARC
  8
2
  6
CONTINUOUS
 62
     7
  5
1D3
 10
63.63954
 20
-17.7992
 30
0.0
 40
0.1
 50
5.9982
 51
90.0
210
0.0
220
0.0
230
1.0
  0
ARC
  8
2
  6
CONTINUOUS
 62
     7
  5
1D4
 10
63.219574
 20
-17.7992
 30
0.0
 40
0.1
 50
90.0
 51
173.968803
210
0.0
220
0.0
230
1.0
  0
LINE
  8
2
  6
CONTINUOUS
 62
     7
  5
1D5
 10
64.669917
 20
-20.899167
 30
0.0
 11
65.388917
 21
-20.899167
 31
0.0
  0
LINE
  8
2
  6
CONTINUOUS
 62
     7
  5
1D6
 10
64.629583
 20
-20.959167
 30
0.0
 11
64.629583
 21
-21.900417
 31
0.0
  0
LINE
  8
2
  6
CONTINUOUS
 62
     7
  5
1D7
 10
62.229583
 20
-20.959167
 30
0.0
 11
62.229583
 21
-21.900417
 31
0.0
  0
LINE
  8
2
  6
CONTINUOUS
 62
     7
  5
1D8
 10
64.629583
 20
-21.391
 30
0.0
 11
63.729583
 21
-21.391
 31
0.0
  0
SOLID
  8
2
  6
CONTINUOUS
 62
     7
  5
1D9
 10
65.295
 20
-17.834167
 30
0.0
 11
65.2725
 21
-17.699167
 31
0.0
 12
65.25
 22
-17.834167
 32
0.0
 13
65.25
 23
-17.834167
 33
0.0
  0
SOLID
  8
2
  6
CONTINUOUS
 62
     7
  5
1DA
 10
65.25
 20
-20.764167
 30
0.0
 11
65.2725
 21
-20.899167
 31
0.0
 12
65.295
 22
-20.764167
 32
0.0
 13
65.295
 23
-20.764167
 33
0.0
  0
SOLID
  8
2
  6
CONTINUOUS
 62
     7
  5
1DB
 10
64.494583
 20
-21.4135
 30
0.0
 11
64.629583
 21
-21.391
 31
0.0
 12
64.494583
 22
-21.3685
 32
0.0
 13
64.494583
 23
-21.3685
 33
0.0
  0
SOLID
  8
2
  6
CONTINUOUS
 62
     7
  5
1DC
 10
63.864583
 20
-21.3685
 30
0.0
 11
63.729583
 21
-21.391
 31
0.0
 12
63.864583
 22
-21.4135
 32
0.0
 13
63.864583
 23
-21.4135
 33
0.0
  0
SOLID
  8
2
  6
CONTINUOUS
 62
     7
  5
1DD
 10
63.594583
 20
-21.4135
 30
0.0
 11
63.729583
 21
-21.391
 31
0.0
 12
63.594583
 22
-21.3685
 32
0.0
 13
63.594583
 23
-21.3685
 33
0.0
  0
SOLID
  8
2
  6
CONTINUOUS
 62
     7
  5
1DE
 10
63.264583
 20
-21.3685
 30
0.0
 11
63.129583
 21
-21.391
 31
0.0
 12
63.264583
 22
-21.4135
 32
0.0
 13
63.264583
 23
-21.4135
 33
0.0
  0
SOLID
  8
2
  6
CONTINUOUS
 62
     7
  5
1DF
 10
64.494583
 20
-21.804417
 30
0.0
 11
64.629583
 21
-21.781917
 31
0.0
 12
64.494583
 22
-21.759417
 32
0.0
 13
64.494583
 23
-21.759417
 33
0.0
  0
LINE
  8
2
  6
CONTINUOUS
 62
     7
  5
1E0
 10
63.429583
 20
-20.774917
 30
0.0
 11
63.429583
 21
-19.5515
 31
0.0
  0
LINE
  8
2
  6
CONTINUOUS
 62
     7
  5
1E1
 10
63.429583
 20
-19.500667
 30
0.0
 11
63.429583
 21
-19.323
 31
0.0
  0
LINE
  8
2
  6
CONTINUOUS
 62
     7
  5
1E2
 10
63.429583
 20
-19.272167
 30
0.0
 11
63.429583
 21
-17.6165
 31
0.0
  0
LINE
  8
2
  6
CONTINUOUS
 62
     7
  5
1E3
 10
63.729583
 20
-20.959167
 30
0.0
 11
63.729583
 21
-21.464
 31
0.0
  0
LINE
  8
2
  6
CONTINUOUS
 62
     7
  5
1E4
 10
63.129583
 20
-20.959167
 30
0.0
 11
63.129583
 21
-21.464
 31
0.0
  0
SOLID
  8
2
  6
CONTINUOUS
 62
     7
  5
1E5
 10
62.364583
 20
-21.3685
 30
0.0
 11
62.229583
 21
-21.391
 31
0.0
 12
62.364583
 22
-21.4135
 32
0.0
 13
62.364583
 23
-21.4135
 33
0.0
  0
LINE
  8
2
  6
CONTINUOUS
 62
     7
  5
1E6
 10
63.729583
 20
-21.391
 30
0.0
 11
63.129583
 21
-21.391
 31
0.0
  0
LINE
  8
2
  6
CONTINUOUS
 62
     7
  5
1E7
 10
63.129583
 20
-21.391
 30
0.0
 11
62.229583
 21
-21.391
 31
0.0
  0
SOLID
  8
2
  6
CONTINUOUS
 62
     7
  5
1E8
 10
62.994583
 20
-21.4135
 30
0.0
 11
63.129583
 21
-21.391
 31
0.0
 12
62.994583
 22
-21.3685
 32
0.0
 13
62.994583
 23
-21.3685
 33
0.0
  0
LINE
  8
2
  6
DASHED
 62
     7
  5
1E9
 10
64.629583
 20
-20.749167
 30
0.0
 11
63.729583
 21
-20.749167
 31
0.0
  0
LINE
  8
2
  6
DASHED
 62
     7
  5
1EA
 10
63.129583
 20
-20.749167
 30
0.0
 11
62.229583
 21
-20.749167
 31
0.0
  0
SOLID
  8
2
  6
CONTINUOUS
 62
     7
  5
1EB
 10
63.520167
 20
-18.160417
 30
0.0
 11
63.33775
 21
-18.160417
 31
0.0
 12
63.520167
 22
-18.23275
 32
0.0
 13
63.33775
 23
-18.23275
 33
0.0
  0
SOLID
  8
2
  6
CONTINUOUS
 62
     7
  5
1EC
 10
63.534333
 20
-19.962833
 30
0.0
 11
63.351917
 21
-19.962833
 31
0.0
 12
63.534333
 22
-20.03525
 32
0.0
 13
63.351917
 23
-20.03525
 33
0.0
  0
LINE
  8
2
  6
CONTINUOUS
 62
     7
  5
1ED
 10
64.629583
 20
-21.781917
 30
0.0
 11
62.229583
 21
-21.781917
 31
0.0
  0
SOLID
  8
2
  6
CONTINUOUS
 62
     7
  5
1EE
 10
62.364583
 20
-21.759417
 30
0.0
 11
62.229583
 21
-21.781917
 31
0.0
 12
62.364583
 22
-21.804417
 32
0.0
 13
62.364583
 23
-21.804417
 33
0.0
  0
LINE
  8
2
  6
CONTINUOUS
 62
     7
  5
1EF
 10
64.58925
 20
-20.599167
 30
0.0
 11
63.770667
 21
-20.599167
 31
0.0
  0
TEXT
  8
5
  6
CONTINUOUS
 62
     2
  5
1F0
 10
64.005667
 20
-21.301
 30
0.0
 40
0.144
  1
9"
  7
txt
 72
     1
 11
64.124667
 21
-21.301
 31
0.0
210
0.0
220
0.0
230
1.0
  0
TEXT
  8
5
  6
CONTINUOUS
 62
     2
  5
1F1
 10
62.501833
 20
-21.301
 30
0.0
 40
0.144
  1
9"
  7
txt
 72
     1
 11
62.620833
 21
-21.301
 31
0.0
210
0.0
220
0.0
230
1.0
  0
TEXT
  8
5
  6
CONTINUOUS
 62
     2
  5
1F2
 10
63.246333
 20
-21.301
 30
0.0
 40
0.144
  1
6"
  7
txt
 72
     1
 11
63.365333
 21
-21.301
 31
0.0
210
0.0
220
0.0
230
1.0
  0
TEXT
  8
5
  6
CONTINUOUS
 62
     2
  5
1F3
 10
63.160833
 20
-21.691917
 30
0.0
 40
0.144
  1
24"
  7
txt
 72
     1
 11
63.351333
 21
-21.691917
 31
0.0
210
0.0
220
0.0
230
1.0
  0
TEXT
  8
5
  6
CONTINUOUS
 62
     2
  5
1F4
 10
63.160833
 20
-21.691917
 30
0.0
 40
0.144
  1
24"
  7
txt
 72
     1
 11
63.351333
 21
-21.691917
 31
0.0
210
0.0
220
0.0
230
1.0
  0
TEXT
  8
5
  6
CONTINUOUS
 62
     2
  5
1F5
 10
65.013333
 20
-19.342167
 30
0.0
 40
0.144
  1
18"
  7
txt
 72
     1
 11
65.203833
 21
-19.342167
 31
0.0
210
0.0
220
0.0
230
1.0
  0
LINE
  8
2
  6
CONTINUOUS
 62
     7
  5
1F6
 10
65.2725
 20
-20.899167
 30
0.0
 11
65.2725
 21
-19.450167
 31
0.0
  0
LINE
  8
2
  6
CONTINUOUS
 62
     7
  5
1F7
 10
65.2725
 20
-19.117667
 30
0.0
 11
65.2725
 21
-17.699167
 31
0.0
  0
LINE
  8
2
  6
CONTINUOUS
 62
     7
  5
1F8
 10
65.388917
 20
-18.211667
 30
0.0
 11
63.75625
 21
-18.211667
 31
0.0
  0
LINE
  8
2
  6
CONTINUOUS
 62
     7
  5
1F9
 10
65.388917
 20
-19.997417
 30
0.0
 11
63.75625
 21
-19.997417
 31
0.0
  0
SOLID
  8
2
  6
CONTINUOUS
 62
     7
  5
1FA
 10
65.295
 20
-18.121333
 30
0.0
 11
65.2725
 21
-18.256333
 31
0.0
 12
65.25
 22
-18.121333
 32
0.0
 13
65.25
 23
-18.121333
 33
0.0
  0
SOLID
  8
2
  6
CONTINUOUS
 62
     7
  5
1FB
 10
65.295
 20
-20.101667
 30
0.0
 11
65.2725
 21
-19.966667
 31
0.0
 12
65.25
 22
-20.101667
 32
0.0
 13
65.25
 23
-20.101667
 33
0.0
  0
SOLID
  8
2
  6
CONTINUOUS
 62
     7
  5
1FC
 10
65.295
 20
-19.878833
 30
0.0
 11
65.2725
 21
-20.013833
 31
0.0
 12
65.25
 22
-19.878833
 32
0.0
 13
65.25
 23
-19.878833
 33
0.0
  0
SOLID
  8
2
  6
CONTINUOUS
 62
     7
  5
1FD
 10
65.295
 20
-18.344167
 30
0.0
 11
65.2725
 21
-18.209167
 31
0.0
 12
65.25
 22
-18.344167
 32
0.0
 13
65.25
 23
-18.344167
 33
0.0
  0
TEXT
  8
5
  6
CONTINUOUS
 62
     2
  5
1FE
 10
64.70225
 20
-18.009917
 30
0.0
 40
0.144
  1
6"
  7
txt
 72
     1
 11
64.82125
 21
-18.009917
 31
0.0
210
0.0
220
0.0
230
1.0
  0
TEXT
  8
5
  6
CONTINUOUS
 62
     2
  5
1FF
 10
64.82975
 20
-20.490167
 30
0.0
 40
0.144
  1
8"
  7
txt
 72
     1
 11
64.94875
 21
-20.490167
 31
0.0
210
0.0
220
0.0
230
1.0
  0
LINE
  8
5
  6
CONTINUOUS
 62
     2
  5
200
 10
61.890833
 20
-19.487583
 30
0.0
 11
61.347583
 21
-19.487583
 31
0.0
  0
INSERT
  8
5
  6
CONTINUOUS
 62
     2
  5
206
  2
*D3
 10
63.442417
 20
-20.018583
 30
0.0
 70
     0
 71
     0
  0
INSERT
  8
5
  6
CONTINUOUS
 62
     2
  5
20C
  2
*D4
 10
63.394833
 20
-18.193083
 30
0.0
 70
     0
 71
     0
  0
TEXT
  8
5
  6
CONTINUOUS
 62
     2
  5
20D
 10
70.325167
 20
-20.041167
 30
0.0
 40
0.144
  1
1"
  7
txt
 72
     1
 11
70.444167
 21
-20.041167
 31
0.0
210
0.0
220
0.0
230
1.0
  0
LINE
  8
2
  6
CONTINUOUS
 62
     7
  5
20E
 10
71.350083
 20
-20.881167
 30
0.0
 11
71.207167
 21
-20.881167
 31
0.0
  0
POLYLINE
  8
10
  6
CONTINUOUS
 62
   215
  5
20F
 66
     1
 10
0.0
 20
0.0
 30
0.0
  0
VERTEX
  8
10
  6
CONTINUOUS
 62
   215
  5
210
 10
67.3295
 20
-15.0295
 30
0.0
  0
VERTEX
  8
10
  6
CONTINUOUS
 62
   215
  5
211
 10
71.1155
 20
-15.0295
 30
0.0
  0
VERTEX
  8
10
  6
CONTINUOUS
 62
   215
  5
212
 10
71.1155
 20
-13.477083
 30
0.0
  0
VERTEX
  8
10
  6
CONTINUOUS
 62
   215
  5
213
 10
67.466583
 20
-13.477083
 30
0.0
  0
SEQEND
  8
10
  6
CONTINUOUS
 62
   215
  5
214
  0
POLYLINE
  8
10
  6
CONTINUOUS
 62
   215
  5
215
 66
     1
 10
0.0
 20
0.0
 30
0.0
  0
VERTEX
  8
10
  6
CONTINUOUS
 62
   215
  5
216
 10
75.237667
 20
-15.018
 30
0.0
  0
VERTEX
  8
10
  6
CONTINUOUS
 62
   215
  5
217
 10
71.451667
 20
-15.018
 30
0.0
  0
VERTEX
  8
10
  6
CONTINUOUS
 62
   215
  5
218
 10
71.451667
 20
-13.465583
 30
0.0
  0
VERTEX
  8
10
  6
CONTINUOUS
 62
   215
  5
219
 10
75.1005
 20
-13.465583
 30
0.0
  0
SEQEND
  8
10
  6
CONTINUOUS
 62
   215
  5
21A
  0
LINE
  8
2
  6
CONTINUOUS
 62
   215
  5
21B
 10
71.701333
 20
-14.511083
 30
0.0
 11
71.388667
 21
-14.511083
 31
0.0
  0
POLYLINE
  8
10
  6
CONTINUOUS
 62
   215
  5
21C
 66
     1
 10
0.0
 20
0.0
 30
0.0
  0
VERTEX
  8
10
  6
CONTINUOUS
 62
   215
  5
21D
 10
71.349917
 20
-13.922667
 30
0.0
  0
VERTEX
  8
10
  6
CONTINUOUS
 62
   215
  5
21E
 10
71.211917
 20
-13.922667
 30
0.0
  0
SEQEND
  8
10
  6
CONTINUOUS
 62
   215
  5
21F
  0
POLYLINE
  8
10
  6
CONTINUOUS
 62
   215
  5
220
 66
     1
 10
0.0
 20
0.0
 30
0.0
210
0.0
220
0.0
230
1.0
  0
VERTEX
  8
10
  6
CONTINUOUS
 62
   215
  5
221
 10
71.211885
 20
-13.922653
 30
0.0
 42
-0.03056
  0
VERTEX
  8
10
  6
CONTINUOUS
 62
   215
  5
222
 10
71.204728
 20
-13.92279
 30
0.0
 42
-0.032055
  0
VERTEX
  8
10
  6
CONTINUOUS
 62
   215
  5
223
 10
71.197777
 20
-13.922055
 30
0.0
 42
-0.035239
  0
VERTEX
  8
10
  6
CONTINUOUS
 62
   215
  5
224
 10
71.191299
 20
-13.920477
 30
0.0
 42
-0.040486
  0
VERTEX
  8
10
  6
CONTINUOUS
 62
   215
  5
225
 10
71.185542
 20
-13.918117
 30
0.0
 42
-0.048239
  0
VERTEX
  8
10
  6
CONTINUOUS
 62
   215
  5
226
 10
71.180729
 20
-13.915065
 30
0.0
 42
-0.058554
  0
VERTEX
  8
10
  6
CONTINUOUS
 62
   215
  5
227
 10
71.177043
 20
-13.911438
 30
0.0
 42
-0.069925
  0
VERTEX
  8
10
  6
CONTINUOUS
 62
   215
  5
228
 10
71.174627
 20
-13.907376
 30
0.0
 42
-0.078075
  0
VERTEX
  8
10
  6
CONTINUOUS
 62
   215
  5
229
 10
71.173574
 20
-13.903035
 30
0.0
 42
-0.078075
  0
VERTEX
  8
10
  6
CONTINUOUS
 62
   215
  5
22A
 10
71.173923
 20
-13.898581
 30
0.0
 42
-0.069925
  0
VERTEX
  8
10
  6
CONTINUOUS
 62
   215
  5
22B
 10
71.175662
 20
-13.894186
 30
0.0
 42
-0.058554
  0
VERTEX
  8
10
  6
CONTINUOUS
 62
   215
  5
22C
 10
71.178724
 20
-13.89002
 30
0.0
 42
-0.048239
  0
VERTEX
  8
10
  6
CONTINUOUS
 62
   215
  5
22D
 10
71.182991
 20
-13.88624
 30
0.0
 42
-0.040486
  0
VERTEX
  8
10
  6
CONTINUOUS
 62
   215
  5
22E
 10
71.188299
 20
-13.882994
 30
0.0
 42
-0.035239
  0
VERTEX
  8
10
  6
CONTINUOUS
 62
   215
  5
22F
 10
71.194443
 20
-13.880406
 30
0.0
 42
-0.032055
  0
VERTEX
  8
10
  6
CONTINUOUS
 62
   215
  5
230
 10
71.201189
 20
-13.878575
 30
0.0
 42
-0.03056
  0
VERTEX
  8
10
  6
CONTINUOUS
 62
   215
  5
231
 10
71.208277
 20
-13.877572
 30
0.0
 42
-0.03056
  0
SEQEND
  8
10
  6
CONTINUOUS
 62
   215
  5
232
  0
POLYLINE
  8
10
  6
CONTINUOUS
 62
   215
  5
233
 66
     1
 10
0.0
 20
0.0
 30
0.0
  0
VERTEX
  8
10
  6
CONTINUOUS
 62
   215
  5
234
 10
71.211917
 20
-13.8775
 30
0.0
  0
VERTEX
  8
10
  6
CONTINUOUS
 62
   215
  5
235
 10
71.349917
 20
-13.8775
 30
0.0
  0
SEQEND
  8
10
  6
CONTINUOUS
 62
   215
  5
236
  0
POLYLINE
  8
10
  6
CONTINUOUS
 62
   215
  5
237
 66
     1
 10
0.0
 20
0.0
 30
0.0
210
0.0
220
0.0
230
1.0
  0
VERTEX
  8
10
  6
CONTINUOUS
 62
   215
  5
238
 10
71.353557
 20
-13.877572
 30
0.0
 42
-0.03056
  0
VERTEX
  8
10
  6
CONTINUOUS
 62
   215
  5
239
 10
71.360644
 20
-13.878575
 30
0.0
 42
-0.032055
  0
VERTEX
  8
10
  6
CONTINUOUS
 62
   215
  5
23A
 10
71.36739
 20
-13.880406
 30
0.0
 42
-0.035239
  0
VERTEX
  8
10
  6
CONTINUOUS
 62
   215
  5
23B
 10
71.373535
 20
-13.882994
 30
0.0
 42
-0.040486
  0
VERTEX
  8
10
  6
CONTINUOUS
 62
   215
  5
23C
 10
71.378842
 20
-13.88624
 30
0.0
 42
-0.048239
  0
VERTEX
  8
10
  6
CONTINUOUS
 62
   215
  5
23D
 10
71.383109
 20
-13.89002
 30
0.0
 42
-0.058554
  0
VERTEX
  8
10
  6
CONTINUOUS
 62
   215
  5
23E
 10
71.386171
 20
-13.894186
 30
0.0
 42
-0.069925
  0
VERTEX
  8
10
  6
CONTINUOUS
 62
   215
  5
23F
 10
71.38791
 20
-13.898581
 30
0.0
 42
-0.078075
  0
VERTEX
  8
10
  6
CONTINUOUS
 62
   215
  5
240
 10
71.388259
 20
-13.903035
 30
0.0
 42
-0.078075
  0
VERTEX
  8
10
  6
CONTINUOUS
 62
   215
  5
241
 10
71.387206
 20
-13.907376
 30
0.0
 42
-0.069925
  0
VERTEX
  8
10
  6
CONTINUOUS
 62
   215
  5
242
 10
71.38479
 20
-13.911438
 30
0.0
 42
-0.058554
  0
VERTEX
  8
10
  6
CONTINUOUS
 62
   215
  5
243
 10
71.381104
 20
-13.915065
 30
0.0
 42
-0.048239
  0
VERTEX
  8
10
  6
CONTINUOUS
 62
   215
  5
244
 10
71.376291
 20
-13.918117
 30
0.0
 42
-0.040486
  0
VERTEX
  8
10
  6
CONTINUOUS
 62
   215
  5
245
 10
71.370534
 20
-13.920477
 30
0.0
 42
-0.035239
  0
VERTEX
  8
10
  6
CONTINUOUS
 62
   215
  5
246
 10
71.364056
 20
-13.922055
 30
0.0
 42
-0.032055
  0
VERTEX
  8
10
  6
CONTINUOUS
 62
   215
  5
247
 10
71.357105
 20
-13.92279
 30
0.0
 42
-0.03056
  0
VERTEX
  8
10
  6
CONTINUOUS
 62
   215
  5
248
 10
71.349948
 20
-13.922653
 30
0.0
 42
-0.03056
  0
SEQEND
  8
10
  6
CONTINUOUS
 62
   215
  5
249
  0
POLYLINE
  8
10
  6
CONTINUOUS
 62
   215
  5
24A
 66
     1
 10
0.0
 20
0.0
 30
0.0
  0
VERTEX
  8
10
  6
CONTINUOUS
 62
   215
  5
24B
 10
71.349917
 20
-13.824417
 30
0.0
  0
VERTEX
  8
10
  6
CONTINUOUS
 62
   215
  5
24C
 10
71.211917
 20
-13.824417
 30
0.0
  0
SEQEND
  8
10
  6
CONTINUOUS
 62
   215
  5
24D
  0
POLYLINE
  8
10
  6
CONTINUOUS
 62
   215
  5
24E
 66
     1
 10
0.0
 20
0.0
 30
0.0
210
0.0
220
0.0
230
1.0
  0
VERTEX
  8
10
  6
CONTINUOUS
 62
   215
  5
24F
 10
71.211885
 20
-13.824431
 30
0.0
 42
0.03056
  0
VERTEX
  8
10
  6
CONTINUOUS
 62
   215
  5
250
 10
71.204728
 20
-13.824294
 30
0.0
 42
0.032055
  0
VERTEX
  8
10
  6
CONTINUOUS
 62
   215
  5
251
 10
71.197777
 20
-13.825028
 30
0.0
 42
0.035239
  0
VERTEX
  8
10
  6
CONTINUOUS
 62
   215
  5
252
 10
71.191299
 20
-13.826606
 30
0.0
 42
0.040486
  0
VERTEX
  8
10
  6
CONTINUOUS
 62
   215
  5
253
 10
71.185542
 20
-13.828966
 30
0.0
 42
0.048239
  0
VERTEX
  8
10
  6
CONTINUOUS
 62
   215
  5
254
 10
71.180729
 20
-13.832018
 30
0.0
 42
0.058554
  0
VERTEX
  8
10
  6
CONTINUOUS
 62
   215
  5
255
 10
71.177043
 20
-13.835645
 30
0.0
 42
0.069925
  0
VERTEX
  8
10
  6
CONTINUOUS
 62
   215
  5
256
 10
71.174627
 20
-13.839707
 30
0.0
 42
0.078075
  0
VERTEX
  8
10
  6
CONTINUOUS
 62
   215
  5
257
 10
71.173574
 20
-13.844049
 30
0.0
 42
0.078075
  0
VERTEX
  8
10
  6
CONTINUOUS
 62
   215
  5
258
 10
71.173923
 20
-13.848502
 30
0.0
 42
0.069925
  0
VERTEX
  8
10
  6
CONTINUOUS
 62
   215
  5
259
 10
71.175662
 20
-13.852897
 30
0.0
 42
0.058554
  0
VERTEX
  8
10
  6
CONTINUOUS
 62
   215
  5
25A
 10
71.178724
 20
-13.857064
 30
0.0
 42
0.048239
  0
VERTEX
  8
10
  6
CONTINUOUS
 62
   215
  5
25B
 10
71.182991
 20
-13.860843
 30
0.0
 42
0.040486
  0
VERTEX
  8
10
  6
CONTINUOUS
 62
   215
  5
25C
 10
71.188299
 20
-13.864089
 30
0.0
 42
0.035239
  0
VERTEX
  8
10
  6
CONTINUOUS
 62
   215
  5
25D
 10
71.194443
 20
-13.866677
 30
0.0
 42
0.032055
  0
VERTEX
  8
10
  6
CONTINUOUS
 62
   215
  5
25E
 10
71.201189
 20
-13.868508
 30
0.0
 42
0.03056
  0
VERTEX
  8
10
  6
CONTINUOUS
 62
   215
  5
25F
 10
71.208277
 20
-13.869511
 30
0.0
 42
0.03056
  0
SEQEND
  8
10
  6
CONTINUOUS
 62
   215
  5
260
  0
POLYLINE
  8
10
  6
CONTINUOUS
 62
   215
  5
261
 66
     1
 10
0.0
 20
0.0
 30
0.0
  0
VERTEX
  8
10
  6
CONTINUOUS
 62
   215
  5
262
 10
71.211917
 20
-13.8695
 30
0.0
  0
VERTEX
  8
10
  6
CONTINUOUS
 62
   215
  5
263
 10
71.349917
 20
-13.8695
 30
0.0
  0
SEQEND
  8
10
  6
CONTINUOUS
 62
   215
  5
264
  0
POLYLINE
  8
10
  6
CONTINUOUS
 62
   215
  5
265
 66
     1
 10
0.0
 20
0.0
 30
0.0
210
0.0
220
0.0
230
1.0
  0
VERTEX
  8
10
  6
CONTINUOUS
 62
   215
  5
266
 10
71.353557
 20
-13.869511
 30
0.0
 42
0.03056
  0
VERTEX
  8
10
  6
CONTINUOUS
 62
   215
  5
267
 10
71.360644
 20
-13.868508
 30
0.0
 42
0.032055
  0
VERTEX
  8
10
  6
CONTINUOUS
 62
   215
  5
268
 10
71.36739
 20
-13.866677
 30
0.0
 42
0.035239
  0
VERTEX
  8
10
  6
CONTINUOUS
 62
   215
  5
269
 10
71.373535
 20
-13.864089
 30
0.0
 42
0.040486
  0
VERTEX
  8
10
  6
CONTINUOUS
 62
   215
  5
26A
 10
71.378842
 20
-13.860843
 30
0.0
 42
0.048239
  0
VERTEX
  8
10
  6
CONTINUOUS
 62
   215
  5
26B
 10
71.383109
 20
-13.857064
 30
0.0
 42
0.058554
  0
VERTEX
  8
10
  6
CONTINUOUS
 62
   215
  5
26C
 10
71.386171
 20
-13.852897
 30
0.0
 42
0.069925
  0
VERTEX
  8
10
  6
CONTINUOUS
 62
   215
  5
26D
 10
71.38791
 20
-13.848502
 30
0.0
 42
0.078075
  0
VERTEX
  8
10
  6
CONTINUOUS
 62
   215
  5
26E
 10
71.388259
 20
-13.844049
 30
0.0
 42
0.078075
  0
VERTEX
  8
10
  6
CONTINUOUS
 62
   215
  5
26F
 10
71.387206
 20
-13.839707
 30
0.0
 42
0.069925
  0
VERTEX
  8
10
  6
CONTINUOUS
 62
   215
  5
270
 10
71.38479
 20
-13.835645
 30
0.0
 42
0.058554
  0
VERTEX
  8
10
  6
CONTINUOUS
 62
   215
  5
271
 10
71.381104
 20
-13.832018
 30
0.0
 42
0.048239
  0
VERTEX
  8
10
  6
CONTINUOUS
 62
   215
  5
272
 10
71.376291
 20
-13.828966
 30
0.0
 42
0.040486
  0
VERTEX
  8
10
  6
CONTINUOUS
 62
   215
  5
273
 10
71.370534
 20
-13.826606
 30
0.0
 42
0.035239
  0
VERTEX
  8
10
  6
CONTINUOUS
 62
   215
  5
274
 10
71.364056
 20
-13.825028
 30
0.0
 42
0.032055
  0
VERTEX
  8
10
  6
CONTINUOUS
 62
   215
  5
275
 10
71.357105
 20
-13.824294
 30
0.0
 42
0.03056
  0
VERTEX
  8
10
  6
CONTINUOUS
 62
   215
  5
276
 10
71.349948
 20
-13.824431
 30
0.0
 42
0.03056
  0
SEQEND
  8
10
  6
CONTINUOUS
 62
   215
  5
277
  0
POLYLINE
  8
10
  6
CONTINUOUS
 62
   215
  5
278
 66
     1
 10
0.0
 20
0.0
 30
0.0
  0
VERTEX
  8
10
  6
CONTINUOUS
 62
   215
  5
279
 10
71.349917
 20
-14.485667
 30
0.0
  0
VERTEX
  8
10
  6
CONTINUOUS
 62
   215
  5
27A
 10
71.211917
 20
-14.485667
 30
0.0
  0
SEQEND
  8
10
  6
CONTINUOUS
 62
   215
  5
27B
  0
POLYLINE
  8
10
  6
CONTINUOUS
 62
   215
  5
27C
 66
     1
 10
0.0
 20
0.0
 30
0.0
210
0.0
220
0.0
230
1.0
  0
VERTEX
  8
10
  6
CONTINUOUS
 62
   215
  5
27D
 10
71.211885
 20
-14.485653
 30
0.0
 42
-0.03056
  0
VERTEX
  8
10
  6
CONTINUOUS
 62
   215
  5
27E
 10
71.204728
 20
-14.48579
 30
0.0
 42
-0.032055
  0
VERTEX
  8
10
  6
CONTINUOUS
 62
   215
  5
27F
 10
71.197777
 20
-14.485055
 30
0.0
 42
-0.035239
  0
VERTEX
  8
10
  6
CONTINUOUS
 62
   215
  5
280
 10
71.191299
 20
-14.483477
 30
0.0
 42
-0.040486
  0
VERTEX
  8
10
  6
CONTINUOUS
 62
   215
  5
281
 10
71.185542
 20
-14.481117
 30
0.0
 42
-0.048239
  0
VERTEX
  8
10
  6
CONTINUOUS
 62
   215
  5
282
 10
71.180729
 20
-14.478065
 30
0.0
 42
-0.058554
  0
VERTEX
  8
10
  6
CONTINUOUS
 62
   215
  5
283
 10
71.177043
 20
-14.474438
 30
0.0
 42
-0.069925
  0
VERTEX
  8
10
  6
CONTINUOUS
 62
   215
  5
284
 10
71.174627
 20
-14.470376
 30
0.0
 42
-0.078075
  0
VERTEX
  8
10
  6
CONTINUOUS
 62
   215
  5
285
 10
71.173574
 20
-14.466035
 30
0.0
 42
-0.078075
  0
VERTEX
  8
10
  6
CONTINUOUS
 62
   215
  5
286
 10
71.173923
 20
-14.461581
 30
0.0
 42
-0.069925
  0
VERTEX
  8
10
  6
CONTINUOUS
 62
   215
  5
287
 10
71.175662
 20
-14.457186
 30
0.0
 42
-0.058554
  0
VERTEX
  8
10
  6
CONTINUOUS
 62
   215
  5
288
 10
71.178724
 20
-14.45302
 30
0.0
 42
-0.048239
  0
VERTEX
  8
10
  6
CONTINUOUS
 62
   215
  5
289
 10
71.182991
 20
-14.44924
 30
0.0
 42
-0.040486
  0
VERTEX
  8
10
  6
CONTINUOUS
 62
   215
  5
28A
 10
71.188299
 20
-14.445994
 30
0.0
 42
-0.035239
  0
VERTEX
  8
10
  6
CONTINUOUS
 62
   215
  5
28B
 10
71.194443
 20
-14.443406
 30
0.0
 42
-0.032055
  0
VERTEX
  8
10
  6
CONTINUOUS
 62
   215
  5
28C
 10
71.201189
 20
-14.441575
 30
0.0
 42
-0.03056
  0
VERTEX
  8
10
  6
CONTINUOUS
 62
   215
  5
28D
 10
71.208277
 20
-14.440572
 30
0.0
 42
-0.03056
  0
SEQEND
  8
10
  6
CONTINUOUS
 62
   215
  5
28E
  0
POLYLINE
  8
10
  6
CONTINUOUS
 62
   215
  5
28F
 66
     1
 10
0.0
 20
0.0
 30
0.0
  0
VERTEX
  8
10
  6
CONTINUOUS
 62
   215
  5
290
 10
71.211917
 20
-14.440583
 30
0.0
  0
VERTEX
  8
10
  6
CONTINUOUS
 62
   215
  5
291
 10
71.349917
 20
-14.440583
 30
0.0
  0
SEQEND
  8
10
  6
CONTINUOUS
 62
   215
  5
292
  0
POLYLINE
  8
10
  6
CONTINUOUS
 62
   215
  5
293
 66
     1
 10
0.0
 20
0.0
 30
0.0
210
0.0
220
0.0
230
1.0
  0
VERTEX
  8
10
  6
CONTINUOUS
 62
   215
  5
294
 10
71.353557
 20
-14.440572
 30
0.0
 42
-0.03056
  0
VERTEX
  8
10
  6
CONTINUOUS
 62
   215
  5
295
 10
71.360644
 20
-14.441575
 30
0.0
 42
-0.032055
  0
VERTEX
  8
10
  6
CONTINUOUS
 62
   215
  5
296
 10
71.36739
 20
-14.443406
 30
0.0
 42
-0.035239
  0
VERTEX
  8
10
  6
CONTINUOUS
 62
   215
  5
297
 10
71.373535
 20
-14.445994
 30
0.0
 42
-0.040486
  0
VERTEX
  8
10
  6
CONTINUOUS
 62
   215
  5
298
 10
71.378842
 20
-14.44924
 30
0.0
 42
-0.048239
  0
VERTEX
  8
10
  6
CONTINUOUS
 62
   215
  5
299
 10
71.383109
 20
-14.45302
 30
0.0
 42
-0.058554
  0
VERTEX
  8
10
  6
CONTINUOUS
 62
   215
  5
29A
 10
71.386171
 20
-14.457186
 30
0.0
 42
-0.069925
  0
VERTEX
  8
10
  6
CONTINUOUS
 62
   215
  5
29B
 10
71.38791
 20
-14.461581
 30
0.0
 42
-0.078075
  0
VERTEX
  8
10
  6
CONTINUOUS
 62
   215
  5
29C
 10
71.388259
 20
-14.466035
 30
0.0
 42
-0.078075
  0
VERTEX
  8
10
  6
CONTINUOUS
 62
   215
  5
29D
 10
71.387206
 20
-14.470376
 30
0.0
 42
-0.069925
  0
VERTEX
  8
10
  6
CONTINUOUS
 62
   215
  5
29E
 10
71.38479
 20
-14.474438
 30
0.0
 42
-0.058554
  0
VERTEX
  8
10
  6
CONTINUOUS
 62
   215
  5
29F
 10
71.381104
 20
-14.478065
 30
0.0
 42
-0.048239
  0
VERTEX
  8
10
  6
CONTINUOUS
 62
   215
  5
2A0
 10
71.376291
 20
-14.481117
 30
0.0
 42
-0.040486
  0
VERTEX
  8
10
  6
CONTINUOUS
 62
   215
  5
2A1
 10
71.370534
 20
-14.483477
 30
0.0
 42
-0.035239
  0
VERTEX
  8
10
  6
CONTINUOUS
 62
   215
  5
2A2
 10
71.364056
 20
-14.485055
 30
0.0
 42
-0.032055
  0
VERTEX
  8
10
  6
CONTINUOUS
 62
   215
  5
2A3
 10
71.357105
 20
-14.48579
 30
0.0
 42
-0.03056
  0
VERTEX
  8
10
  6
CONTINUOUS
 62
   215
  5
2A4
 10
71.349948
 20
-14.485653
 30
0.0
 42
-0.03056
  0
SEQEND
  8
10
  6
CONTINUOUS
 62
   215
  5
2A5
  0
POLYLINE
  8
10
  6
CONTINUOUS
 62
   215
  5
2A6
 66
     1
 10
0.0
 20
0.0
 30
0.0
  0
VERTEX
  8
10
  6
CONTINUOUS
 62
   215
  5
2A7
 10
71.349917
 20
-14.491917
 30
0.0
  0
VERTEX
  8
10
  6
CONTINUOUS
 62
   215
  5
2A8
 10
71.211917
 20
-14.491917
 30
0.0
  0
SEQEND
  8
10
  6
CONTINUOUS
 62
   215
  5
2A9
  0
POLYLINE
  8
10
  6
CONTINUOUS
 62
   215
  5
2AA
 66
     1
 10
0.0
 20
0.0
 30
0.0
210
0.0
220
0.0
230
1.0
  0
VERTEX
  8
10
  6
CONTINUOUS
 62
   215
  5
2AB
 10
71.211885
 20
-14.491931
 30
0.0
 42
0.03056
  0
VERTEX
  8
10
  6
CONTINUOUS
 62
   215
  5
2AC
 10
71.204728
 20
-14.491794
 30
0.0
 42
0.032055
  0
VERTEX
  8
10
  6
CONTINUOUS
 62
   215
  5
2AD
 10
71.197777
 20
-14.492528
 30
0.0
 42
0.035239
  0
VERTEX
  8
10
  6
CONTINUOUS
 62
   215
  5
2AE
 10
71.191299
 20
-14.494106
 30
0.0
 42
0.040486
  0
VERTEX
  8
10
  6
CONTINUOUS
 62
   215
  5
2AF
 10
71.185542
 20
-14.496466
 30
0.0
 42
0.048239
  0
VERTEX
  8
10
  6
CONTINUOUS
 62
   215
  5
2B0
 10
71.180729
 20
-14.499518
 30
0.0
 42
0.058554
  0
VERTEX
  8
10
  6
CONTINUOUS
 62
   215
  5
2B1
 10
71.177043
 20
-14.503145
 30
0.0
 42
0.069925
  0
VERTEX
  8
10
  6
CONTINUOUS
 62
   215
  5
2B2
 10
71.174627
 20
-14.507207
 30
0.0
 42
0.078075
  0
VERTEX
  8
10
  6
CONTINUOUS
 62
   215
  5
2B3
 10
71.173574
 20
-14.511549
 30
0.0
 42
0.078075
  0
VERTEX
  8
10
  6
CONTINUOUS
 62
   215
  5
2B4
 10
71.173923
 20
-14.516002
 30
0.0
 42
0.069925
  0
VERTEX
  8
10
  6
CONTINUOUS
 62
   215
  5
2B5
 10
71.175662
 20
-14.520397
 30
0.0
 42
0.058554
  0
VERTEX
  8
10
  6
CONTINUOUS
 62
   215
  5
2B6
 10
71.178724
 20
-14.524564
 30
0.0
 42
0.048239
  0
VERTEX
  8
10
  6
CONTINUOUS
 62
   215
  5
2B7
 10
71.182991
 20
-14.528343
 30
0.0
 42
0.040486
  0
VERTEX
  8
10
  6
CONTINUOUS
 62
   215
  5
2B8
 10
71.188299
 20
-14.531589
 30
0.0
 42
0.035239
  0
VERTEX
  8
10
  6
CONTINUOUS
 62
   215
  5
2B9
 10
71.194443
 20
-14.534177
 30
0.0
 42
0.032055
  0
VERTEX
  8
10
  6
CONTINUOUS
 62
   215
  5
2BA
 10
71.201189
 20
-14.536008
 30
0.0
 42
0.03056
  0
VERTEX
  8
10
  6
CONTINUOUS
 62
   215
  5
2BB
 10
71.208277
 20
-14.537011
 30
0.0
 42
0.03056
  0
SEQEND
  8
10
  6
CONTINUOUS
 62
   215
  5
2BC
  0
POLYLINE
  8
10
  6
CONTINUOUS
 62
   215
  5
2BD
 66
     1
 10
0.0
 20
0.0
 30
0.0
  0
VERTEX
  8
10
  6
CONTINUOUS
 62
   215
  5
2BE
 10
71.211917
 20
-14.537083
 30
0.0
  0
VERTEX
  8
10
  6
CONTINUOUS
 62
   215
  5
2BF
 10
71.349917
 20
-14.537083
 30
0.0
  0
SEQEND
  8
10
  6
CONTINUOUS
 62
   215
  5
2C0
  0
POLYLINE
  8
10
  6
CONTINUOUS
 62
   215
  5
2C1
 66
     1
 10
0.0
 20
0.0
 30
0.0
210
0.0
220
0.0
230
1.0
  0
VERTEX
  8
10
  6
CONTINUOUS
 62
   215
  5
2C2
 10
71.353557
 20
-14.537011
 30
0.0
 42
0.03056
  0
VERTEX
  8
10
  6
CONTINUOUS
 62
   215
  5
2C3
 10
71.360644
 20
-14.536008
 30
0.0
 42
0.032055
  0
VERTEX
  8
10
  6
CONTINUOUS
 62
   215
  5
2C4
 10
71.36739
 20
-14.534177
 30
0.0
 42
0.035239
  0
VERTEX
  8
10
  6
CONTINUOUS
 62
   215
  5
2C5
 10
71.373535
 20
-14.531589
 30
0.0
 42
0.040486
  0
VERTEX
  8
10
  6
CONTINUOUS
 62
   215
  5
2C6
 10
71.378842
 20
-14.528343
 30
0.0
 42
0.048239
  0
VERTEX
  8
10
  6
CONTINUOUS
 62
   215
  5
2C7
 10
71.383109
 20
-14.524564
 30
0.0
 42
0.058554
  0
VERTEX
  8
10
  6
CONTINUOUS
 62
   215
  5
2C8
 10
71.386171
 20
-14.520397
 30
0.0
 42
0.069925
  0
VERTEX
  8
10
  6
CONTINUOUS
 62
   215
  5
2C9
 10
71.38791
 20
-14.516002
 30
0.0
 42
0.078075
  0
VERTEX
  8
10
  6
CONTINUOUS
 62
   215
  5
2CA
 10
71.388259
 20
-14.511549
 30
0.0
 42
0.078075
  0
VERTEX
  8
10
  6
CONTINUOUS
 62
   215
  5
2CB
 10
71.387206
 20
-14.507207
 30
0.0
 42
0.069925
  0
VERTEX
  8
10
  6
CONTINUOUS
 62
   215
  5
2CC
 10
71.38479
 20
-14.503145
 30
0.0
 42
0.058554
  0
VERTEX
  8
10
  6
CONTINUOUS
 62
   215
  5
2CD
 10
71.381104
 20
-14.499518
 30
0.0
 42
0.048239
  0
VERTEX
  8
10
  6
CONTINUOUS
 62
   215
  5
2CE
 10
71.376291
 20
-14.496466
 30
0.0
 42
0.040486
  0
VERTEX
  8
10
  6
CONTINUOUS
 62
   215
  5
2CF
 10
71.370534
 20
-14.494106
 30
0.0
 42
0.035239
  0
VERTEX
  8
10
  6
CONTINUOUS
 62
   215
  5
2D0
 10
71.364056
 20
-14.492528
 30
0.0
 42
0.032055
  0
VERTEX
  8
10
  6
CONTINUOUS
 62
   215
  5
2D1
 10
71.357105
 20
-14.491794
 30
0.0
 42
0.03056
  0
VERTEX
  8
10
  6
CONTINUOUS
 62
   215
  5
2D2
 10
71.349948
 20
-14.491931
 30
0.0
 42
0.03056
  0
SEQEND
  8
10
  6
CONTINUOUS
 62
   215
  5
2D3
  0
LINE
  8
2
  6
CONTINUOUS
 62
   215
  5
2D4
 10
71.173583
 20
-14.466083
 30
0.0
 11
70.832667
 21
-14.466083
 31
0.0
  0
LINE
  8
2
  6
CONTINUOUS
 62
   215
  5
2D5
 10
71.701333
 20
-13.83975
 30
0.0
 11
71.388667
 21
-13.83975
 31
0.0
  0
LINE
  8
2
  6
CONTINUOUS
 62
   215
  5
2D6
 10
71.173583
 20
-13.8985
 30
0.0
 11
70.832667
 21
-13.8985
 31
0.0
  0
POLYLINE
  8
10
  6
CONTINUOUS
 62
   215
  5
2D7
 66
     1
 10
0.0
 20
0.0
 30
0.0
  0
VERTEX
  8
10
  6
CONTINUOUS
 62
   215
  5
2D8
 10
71.129583
 20
-13.770167
 30
0.0
  0
VERTEX
  8
10
  6
CONTINUOUS
 62
   215
  5
2D9
 10
71.129583
 20
-13.809333
 30
0.0
  0
VERTEX
  8
10
  6
CONTINUOUS
 62
   215
  5
2DA
 10
71.429583
 20
-13.809333
 30
0.0
  0
VERTEX
  8
10
  6
CONTINUOUS
 62
   215
  5
2DB
 10
71.429583
 20
-13.770167
 30
0.0
  0
VERTEX
  8
10
  6
CONTINUOUS
 62
   215
  5
2DC
 10
71.129583
 20
-13.770167
 30
0.0
  0
SEQEND
  8
10
  6
CONTINUOUS
 62
   215
  5
2DD
  0
POLYLINE
  8
10
  6
CONTINUOUS
 62
   215
  5
2DE
 66
     1
 10
0.0
 20
0.0
 30
0.0
  0
VERTEX
  8
10
  6
CONTINUOUS
 62
   215
  5
2DF
 10
71.18775
 20
-13.76975
 30
0.0
  0
VERTEX
  8
10
  6
CONTINUOUS
 62
   215
  5
2E0
 10
71.187708
 20
-13.662817
 30
0.0
 42
-0.88
  0
VERTEX
  8
10
  6
CONTINUOUS
 62
   215
  5
2E1
 10
71.24775
 20
-13.66275
 30
0.0
  0
VERTEX
  8
10
  6
CONTINUOUS
 62
   215
  5
2E2
 10
71.24775
 20
-13.76975
 30
0.0
  0
VERTEX
  8
10
  6
CONTINUOUS
 62
   215
  5
2E3
 10
71.247708
 20
-13.662817
 30
0.0
 42
-0.88
  0
VERTEX
  8
10
  6
CONTINUOUS
 62
   215
  5
2E4
 10
71.30775
 20
-13.66275
 30
0.0
  0
VERTEX
  8
10
  6
CONTINUOUS
 62
   215
  5
2E5
 10
71.30775
 20
-13.76975
 30
0.0
  0
VERTEX
  8
10
  6
CONTINUOUS
 62
   215
  5
2E6
 10
71.307708
 20
-13.662817
 30
0.0
 42
-0.88
  0
VERTEX
  8
10
  6
CONTINUOUS
 62
   215
  5
2E7
 10
71.36775
 20
-13.66275
 30
0.0
  0
VERTEX
  8
10
  6
CONTINUOUS
 62
   215
  5
2E8
 10
71.36775
 20
-13.76975
 30
0.0
  0
SEQEND
  8
10
  6
CONTINUOUS
 62
   215
  5
2E9
  0
LINE
  8
2
  6
CONTINUOUS
 62
   215
  5
2EA
 10
71.367667
 20
-13.626333
 30
0.0
 11
71.18775
 21
-13.626333
 31
0.0
  0
POLYLINE
  8
10
  6
CONTINUOUS
 62
   215
  5
2EB
 66
     1
 10
0.0
 20
0.0
 30
0.0
  0
VERTEX
  8
10
  6
CONTINUOUS
 62
   215
  5
2EC
 10
71.190583
 20
-14.86925
 30
0.0
  0
VERTEX
  8
10
  6
CONTINUOUS
 62
   215
  5
2ED
 10
71.190542
 20
-14.976183
 30
0.0
 42
0.88
  0
VERTEX
  8
10
  6
CONTINUOUS
 62
   215
  5
2EE
 10
71.250583
 20
-14.97625
 30
0.0
  0
VERTEX
  8
10
  6
CONTINUOUS
 62
   215
  5
2EF
 10
71.250583
 20
-14.86925
 30
0.0
  0
VERTEX
  8
10
  6
CONTINUOUS
 62
   215
  5
2F0
 10
71.250542
 20
-14.976183
 30
0.0
 42
0.88
  0
VERTEX
  8
10
  6
CONTINUOUS
 62
   215
  5
2F1
 10
71.310583
 20
-14.97625
 30
0.0
  0
VERTEX
  8
10
  6
CONTINUOUS
 62
   215
  5
2F2
 10
71.310583
 20
-14.86925
 30
0.0
  0
VERTEX
  8
10
  6
CONTINUOUS
 62
   215
  5
2F3
 10
71.310542
 20
-14.976183
 30
0.0
 42
0.88
  0
VERTEX
  8
10
  6
CONTINUOUS
 62
   215
  5
2F4
 10
71.370583
 20
-14.97625
 30
0.0
  0
VERTEX
  8
10
  6
CONTINUOUS
 62
   215
  5
2F5
 10
71.370583
 20
-14.86925
 30
0.0
  0
SEQEND
  8
10
  6
CONTINUOUS
 62
   215
  5
2F6
  0
POLYLINE
  8
10
  6
CONTINUOUS
 62
   215
  5
2F7
 66
     1
 10
0.0
 20
0.0
 30
0.0
  0
VERTEX
  8
10
  6
CONTINUOUS
 62
   215
  5
2F8
 10
71.134583
 20
-14.82775
 30
0.0
  0
VERTEX
  8
10
  6
CONTINUOUS
 62
   215
  5
2F9
 10
71.134583
 20
-14.866917
 30
0.0
  0
VERTEX
  8
10
  6
CONTINUOUS
 62
   215
  5
2FA
 10
71.434583
 20
-14.866917
 30
0.0
  0
VERTEX
  8
10
  6
CONTINUOUS
 62
   215
  5
2FB
 10
71.434583
 20
-14.82775
 30
0.0
  0
VERTEX
  8
10
  6
CONTINUOUS
 62
   215
  5
2FC
 10
71.134583
 20
-14.82775
 30
0.0
  0
SEQEND
  8
10
  6
CONTINUOUS
 62
   215
  5
2FD
  0
LINE
  8
10
  6
CONTINUOUS
 62
   215
  5
2FE
 10
71.18875
 20
-14.870083
 30
0.0
 11
71.36875
 21
-14.870083
 31
0.0
  0
LINE
  8
10
  6
CONTINUOUS
 62
   215
  5
2FF
 10
71.350083
 20
-15.021167
 30
0.0
 11
71.207167
 21
-15.021167
 31
0.0
  0
LINE
  8
10
  6
CONTINUOUS
 62
   215
  5
300
 10
71.34875
 20
-15.016583
 30
0.0
 11
71.205833
 21
-15.016583
 31
0.0
  0
LINE
  8
10
  6
CONTINUOUS
 62
   215
  5
301
 10
71.349417
 20
-15.011417
 30
0.0
 11
71.2065
 21
-15.011417
 31
0.0
  0
LINE
  8
10
  6
CONTINUOUS
 62
   215
  5
302
 10
71.350083
 20
-15.006833
 30
0.0
 11
71.207167
 21
-15.006833
 31
0.0
  0
POLYLINE
  8
10
  6
CONTINUOUS
 62
   215
  5
303
 66
     1
 10
0.0
 20
0.0
 30
0.0
  0
VERTEX
  8
10
  6
CONTINUOUS
 62
   215
  5
304
 10
75.214667
 20
-15.018
 30
0.0
  0
VERTEX
  8
10
  6
CONTINUOUS
 62
   215
  5
305
 10
75.27625
 20
-14.900083
 30
0.0
  0
VERTEX
  8
10
  6
CONTINUOUS
 62
   215
  5
306
 10
75.320083
 20
-14.768583
 30
0.0
  0
VERTEX
  8
10
  6
CONTINUOUS
 62
   215
  5
307
 10
75.2325
 20
-14.622583
 30
0.0
  0
VERTEX
  8
10
  6
CONTINUOUS
 62
   215
  5
308
 10
75.115583
 20
-14.388917
 30
0.0
  0
VERTEX
  8
10
  6
CONTINUOUS
 62
   215
  5
309
 10
75.057083
 20
-14.213667
 30
0.0
  0
VERTEX
  8
10
  6
CONTINUOUS
 62
   215
  5
30A
 10
75.057083
 20
-14.082167
 30
0.0
  0
VERTEX
  8
10
  6
CONTINUOUS
 62
   215
  5
30B
 10
75.20325
 20
-13.81925
 30
0.0
  0
VERTEX
  8
10
  6
CONTINUOUS
 62
   215
  5
30C
 10
75.159333
 20
-13.687917
 30
0.0
  0
VERTEX
  8
10
  6
CONTINUOUS
 62
   215
  5
30D
 10
75.115583
 20
-13.6295
 30
0.0
  0
VERTEX
  8
10
  6
CONTINUOUS
 62
   215
  5
30E
 10
75.077583
 20
-13.465583
 30
0.0
  0
VERTEX
  8
10
  6
CONTINUOUS
 62
   215
  5
30F
 10
75.1005
 20
-13.465583
 30
0.0
  0
SEQEND
  8
10
  6
CONTINUOUS
 62
   215
  5
310
  0
TEXT
  8
5
  6
CONTINUOUS
 62
     2
  5
311
 10
69.873417
 20
-20.749083
 30
0.0
 40
0.144
  1
Hex Nut
  7
txt
 72
     1
 11
70.349583
 21
-20.749083
 31
0.0
210
0.0
220
0.0
230
1.0
  0
LINE
  8
2
  6
CONTINUOUS
 62
     7
  5
312
 10
71.20625
 20
-19.969083
 30
0.0
 11
70.931583
 21
-19.969083
 31
0.0
  0
SOLID
  8
2
  6
CONTINUOUS
 62
     7
  5
313
 10
71.05975
 20
-20.67775
 30
0.0
 11
71.19475
 21
-20.70025
 31
0.0
 12
71.05975
 22
-20.72275
 32
0.0
 13
71.05975
 23
-20.72275
 33
0.0
  0
LINE
  8
2
  6
CONTINUOUS
 62
     7
  5
314
 10
71.18175
 20
-20.700833
 30
0.0
 11
70.907083
 21
-20.700833
 31
0.0
  0
LINE
  8
10
  6
CONTINUOUS
 62
   215
  5
315
 10
71.091333
 20
-12.7775
 30
0.0
 11
71.091333
 21
-13.218167
 31
0.0
  0
LINE
  8
10
  6
CONTINUOUS
 62
   215
  5
316
 10
71.207167
 20
-13.7605
 30
0.0
 11
71.207167
 21
-15.021167
 31
0.0
  0
LINE
  8
10
  6
CONTINUOUS
 62
   215
  5
317
 10
71.350083
 20
-13.768667
 30
0.0
 11
71.350083
 21
-15.021167
 31
0.0
  0
SOLID
  8
2
  6
CONTINUOUS
 62
     7
  5
318
 10
70.9575
 20
-12.948167
 30
0.0
 11
71.0925
 21
-12.970667
 31
0.0
 12
70.9575
 22
-12.993167
 32
0.0
 13
70.9575
 23
-12.993167
 33
0.0
  0
LINE
  8
10
  6
CONTINUOUS
 62
   215
  5
319
 10
71.449
 20
-12.773667
 30
0.0
 11
71.449
 21
-13.218167
 31
0.0
  0
POLYLINE
  8
10
  6
CONTINUOUS
 62
   215
  5
31A
 66
     1
 10
0.0
 20
0.0
 30
0.0
  0
VERTEX
  8
10
  6
CONTINUOUS
 62
   215
  5
31B
 10
67.353667
 20
-15.0295
 30
0.0
  0
VERTEX
  8
10
  6
CONTINUOUS
 62
   215
  5
31C
 10
67.292083
 20
-14.911583
 30
0.0
  0
VERTEX
  8
10
  6
CONTINUOUS
 62
   215
  5
31D
 10
67.24825
 20
-14.780083
 30
0.0
  0
VERTEX
  8
10
  6
CONTINUOUS
 62
   215
  5
31E
 10
67.335833
 20
-14.634083
 30
0.0
  0
VERTEX
  8
10
  6
CONTINUOUS
 62
   215
  5
31F
 10
67.45275
 20
-14.400417
 30
0.0
  0
VERTEX
  8
10
  6
CONTINUOUS
 62
   215
  5
320
 10
67.51125
 20
-14.225167
 30
0.0
  0
VERTEX
  8
10
  6
CONTINUOUS
 62
   215
  5
321
 10
67.51125
 20
-14.093667
 30
0.0
  0
VERTEX
  8
10
  6
CONTINUOUS
 62
   215
  5
322
 10
67.365083
 20
-13.83075
 30
0.0
  0
VERTEX
  8
10
  6
CONTINUOUS
 62
   215
  5
323
 10
67.409
 20
-13.699417
 30
0.0
  0
VERTEX
  8
10
  6
CONTINUOUS
 62
   215
  5
324
 10
67.45275
 20
-13.641
 30
0.0
  0
VERTEX
  8
10
  6
CONTINUOUS
 62
   215
  5
325
 10
67.49075
 20
-13.477083
 30
0.0
  0
VERTEX
  8
10
  6
CONTINUOUS
 62
   215
  5
326
 10
67.467833
 20
-13.477083
 30
0.0
  0
SEQEND
  8
10
  6
CONTINUOUS
 62
   215
  5
327
  0
LINE
  8
10
  6
CONTINUOUS
 62
   215
  5
328
 10
71.350083
 20
-20.881167
 30
0.0
 11
71.350083
 21
-17.868333
 31
0.0
  0
LINE
  8
10
  6
CONTINUOUS
 62
   215
  5
329
 10
71.207167
 20
-20.881167
 30
0.0
 11
71.207167
 21
-17.868333
 31
0.0
  0
POLYLINE
  8
10
  6
CONTINUOUS
 62
   215
  5
32A
 66
     1
 10
0.0
 20
0.0
 30
0.0
  0
VERTEX
  8
10
  6
CONTINUOUS
 62
   215
  5
32B
 10
71.191833
 20
-20.606167
 30
0.0
  0
VERTEX
  8
10
  6
CONTINUOUS
 62
   215
  5
32C
 10
71.191792
 20
-20.7131
 30
0.0
 42
0.88
  0
VERTEX
  8
10
  6
CONTINUOUS
 62
   215
  5
32D
 10
71.251833
 20
-20.713167
 30
0.0
  0
VERTEX
  8
10
  6
CONTINUOUS
 62
   215
  5
32E
 10
71.251833
 20
-20.606167
 30
0.0
  0
VERTEX
  8
10
  6
CONTINUOUS
 62
   215
  5
32F
 10
71.251792
 20
-20.7131
 30
0.0
 42
0.88
  0
VERTEX
  8
10
  6
CONTINUOUS
 62
   215
  5
330
 10
71.311833
 20
-20.713167
 30
0.0
  0
VERTEX
  8
10
  6
CONTINUOUS
 62
   215
  5
331
 10
71.311833
 20
-20.606167
 30
0.0
  0
VERTEX
  8
10
  6
CONTINUOUS
 62
   215
  5
332
 10
71.311792
 20
-20.7131
 30
0.0
 42
0.88
  0
VERTEX
  8
10
  6
CONTINUOUS
 62
   215
  5
333
 10
71.371833
 20
-20.713167
 30
0.0
  0
VERTEX
  8
10
  6
CONTINUOUS
 62
   215
  5
334
 10
71.371833
 20
-20.606167
 30
0.0
  0
SEQEND
  8
10
  6
CONTINUOUS
 62
   215
  5
335
  0
POLYLINE
  8
10
  6
CONTINUOUS
 62
   215
  5
336
 66
     1
 10
0.0
 20
0.0
 30
0.0
  0
VERTEX
  8
10
  6
CONTINUOUS
 62
   215
  5
337
 10
71.182833
 20
-17.817667
 30
0.0
  0
VERTEX
  8
10
  6
CONTINUOUS
 62
   215
  5
338
 10
71.182792
 20
-17.710733
 30
0.0
 42
-0.88
  0
VERTEX
  8
10
  6
CONTINUOUS
 62
   215
  5
339
 10
71.242833
 20
-17.710667
 30
0.0
  0
VERTEX
  8
10
  6
CONTINUOUS
 62
   215
  5
33A
 10
71.242833
 20
-17.817667
 30
0.0
  0
VERTEX
  8
10
  6
CONTINUOUS
 62
   215
  5
33B
 10
71.242792
 20
-17.710733
 30
0.0
 42
-0.88
  0
VERTEX
  8
10
  6
CONTINUOUS
 62
   215
  5
33C
 10
71.302833
 20
-17.710667
 30
0.0
  0
VERTEX
  8
10
  6
CONTINUOUS
 62
   215
  5
33D
 10
71.302833
 20
-17.817667
 30
0.0
  0
VERTEX
  8
10
  6
CONTINUOUS
 62
   215
  5
33E
 10
71.302792
 20
-17.710733
 30
0.0
 42
-0.88
  0
VERTEX
  8
10
  6
CONTINUOUS
 62
   215
  5
33F
 10
71.362833
 20
-17.710667
 30
0.0
  0
VERTEX
  8
10
  6
CONTINUOUS
 62
   215
  5
340
 10
71.362833
 20
-17.817667
 30
0.0
  0
SEQEND
  8
10
  6
CONTINUOUS
 62
   215
  5
341
  0
POLYLINE
  8
10
  6
CONTINUOUS
 62
   215
  5
342
 66
     1
 10
0.0
 20
0.0
 30
0.0
  0
VERTEX
  8
10
  6
CONTINUOUS
 62
   215
  5
343
 10
71.129583
 20
-17.858583
 30
0.0
  0
VERTEX
  8
10
  6
CONTINUOUS
 62
   215
  5
344
 10
71.129583
 20
-17.819417
 30
0.0
  0
VERTEX
  8
10
  6
CONTINUOUS
 62
   215
  5
345
 10
71.429583
 20
-17.819417
 30
0.0
  0
VERTEX
  8
10
  6
CONTINUOUS
 62
   215
  5
346
 10
71.429583
 20
-17.858583
 30
0.0
  0
VERTEX
  8
10
  6
CONTINUOUS
 62
   215
  5
347
 10
71.129583
 20
-17.858583
 30
0.0
  0
SEQEND
  8
10
  6
CONTINUOUS
 62
   215
  5
348
  0
SOLID
  8
2
  6
CONTINUOUS
 62
     7
  5
349
 10
71.892333
 20
-20.749333
 30
0.0
 11
71.914833
 21
-20.884333
 31
0.0
 12
71.937333
 22
-20.749333
 32
0.0
 13
71.937333
 23
-20.749333
 33
0.0
  0
LINE
  8
2
  6
CONTINUOUS
 62
     7
  5
34A
 10
71.371833
 20
-20.606167
 30
0.0
 11
71.191833
 21
-20.606167
 31
0.0
  0
LINE
  8
2
  6
CONTINUOUS
 62
     7
  5
34B
 10
71.350083
 20
-20.866583
 30
0.0
 11
71.207167
 21
-20.866583
 31
0.0
  0
LINE
  8
2
  6
CONTINUOUS
 62
     7
  5
34C
 10
71.350083
 20
-20.857583
 30
0.0
 11
71.207167
 21
-20.857583
 31
0.0
  0
LINE
  8
2
  6
CONTINUOUS
 62
     7
  5
34D
 10
71.350083
 20
-20.848583
 30
0.0
 11
71.207167
 21
-20.848583
 31
0.0
  0
LINE
  8
2
  6
CONTINUOUS
 62
     7
  5
34E
 10
71.350083
 20
-20.839583
 30
0.0
 11
71.207167
 21
-20.839583
 31
0.0
  0
LINE
  8
2
  6
CONTINUOUS
 62
     7
  5
34F
 10
71.350083
 20
-20.830583
 30
0.0
 11
71.207167
 21
-20.830583
 31
0.0
  0
LINE
  8
2
  6
CONTINUOUS
 62
     7
  5
350
 10
71.350083
 20
-20.821583
 30
0.0
 11
71.207167
 21
-20.821583
 31
0.0
  0
LINE
  8
2
  6
CONTINUOUS
 62
     7
  5
351
 10
71.350083
 20
-20.812583
 30
0.0
 11
71.207167
 21
-20.812583
 31
0.0
  0
LINE
  8
2
  6
CONTINUOUS
 62
     7
  5
352
 10
71.350083
 20
-20.803583
 30
0.0
 11
71.207167
 21
-20.803583
 31
0.0
  0
LINE
  8
2
  6
CONTINUOUS
 62
     7
  5
353
 10
71.350083
 20
-20.794583
 30
0.0
 11
71.207167
 21
-20.794583
 31
0.0
  0
LINE
  8
2
  6
CONTINUOUS
 62
     7
  5
354
 10
71.350083
 20
-20.785583
 30
0.0
 11
71.207167
 21
-20.785583
 31
0.0
  0
LINE
  8
2
  6
CONTINUOUS
 62
     7
  5
355
 10
71.350083
 20
-20.776583
 30
0.0
 11
71.207167
 21
-20.776583
 31
0.0
  0
LINE
  8
2
  6
CONTINUOUS
 62
     7
  5
356
 10
71.350083
 20
-20.767583
 30
0.0
 11
71.207167
 21
-20.767583
 31
0.0
  0
LINE
  8
2
  6
CONTINUOUS
 62
     7
  5
357
 10
71.350083
 20
-20.758583
 30
0.0
 11
71.207167
 21
-20.758583
 31
0.0
  0
LINE
  8
2
  6
CONTINUOUS
 62
     7
  5
358
 10
71.350083
 20
-20.749583
 30
0.0
 11
71.207167
 21
-20.749583
 31
0.0
  0
LINE
  8
2
  6
CONTINUOUS
 62
     7
  5
359
 10
71.350083
 20
-20.740583
 30
0.0
 11
71.207167
 21
-20.740583
 31
0.0
  0
LINE
  8
2
  6
CONTINUOUS
 62
     7
  5
35A
 10
71.349333
 20
-20.604333
 30
0.0
 11
71.206417
 21
-20.604333
 31
0.0
  0
LINE
  8
2
  6
CONTINUOUS
 62
     7
  5
35B
 10
71.349333
 20
-20.595333
 30
0.0
 11
71.206417
 21
-20.595333
 31
0.0
  0
LINE
  8
2
  6
CONTINUOUS
 62
     7
  5
35C
 10
71.349333
 20
-20.586333
 30
0.0
 11
71.206417
 21
-20.586333
 31
0.0
  0
LINE
  8
2
  6
CONTINUOUS
 62
     7
  5
35D
 10
71.349333
 20
-20.577333
 30
0.0
 11
71.206417
 21
-20.577333
 31
0.0
  0
LINE
  8
2
  6
CONTINUOUS
 62
     7
  5
35E
 10
71.349333
 20
-20.568333
 30
0.0
 11
71.206417
 21
-20.568333
 31
0.0
  0
LINE
  8
2
  6
CONTINUOUS
 62
     7
  5
35F
 10
71.349333
 20
-20.559333
 30
0.0
 11
71.206417
 21
-20.559333
 31
0.0
  0
LINE
  8
2
  6
CONTINUOUS
 62
     7
  5
360
 10
71.349333
 20
-20.550333
 30
0.0
 11
71.206417
 21
-20.550333
 31
0.0
  0
LINE
  8
2
  6
CONTINUOUS
 62
     7
  5
361
 10
71.349333
 20
-20.541333
 30
0.0
 11
71.206417
 21
-20.541333
 31
0.0
  0
LINE
  8
2
  6
CONTINUOUS
 62
     7
  5
362
 10
71.349333
 20
-20.532333
 30
0.0
 11
71.206417
 21
-20.532333
 31
0.0
  0
LINE
  8
2
  6
CONTINUOUS
 62
     7
  5
363
 10
71.349333
 20
-20.523333
 30
0.0
 11
71.206417
 21
-20.523333
 31
0.0
  0
LINE
  8
2
  6
CONTINUOUS
 62
     7
  5
364
 10
71.349333
 20
-20.514333
 30
0.0
 11
71.206417
 21
-20.514333
 31
0.0
  0
LINE
  8
2
  6
CONTINUOUS
 62
     7
  5
365
 10
71.349333
 20
-20.505333
 30
0.0
 11
71.206417
 21
-20.505333
 31
0.0
  0
LINE
  8
2
  6
CONTINUOUS
 62
     7
  5
366
 10
71.349333
 20
-20.496333
 30
0.0
 11
71.206417
 21
-20.496333
 31
0.0
  0
LINE
  8
2
  6
CONTINUOUS
 62
     7
  5
367
 10
71.349333
 20
-20.487333
 30
0.0
 11
71.206417
 21
-20.487333
 31
0.0
  0
LINE
  8
2
  6
CONTINUOUS
 62
     7
  5
368
 10
71.349333
 20
-20.478333
 30
0.0
 11
71.206417
 21
-20.478333
 31
0.0
  0
LINE
  8
2
  6
CONTINUOUS
 62
     7
  5
369
 10
71.349333
 20
-20.469333
 30
0.0
 11
71.206417
 21
-20.469333
 31
0.0
  0
LINE
  8
2
  6
CONTINUOUS
 62
     7
  5
36A
 10
71.349333
 20
-20.460333
 30
0.0
 11
71.206417
 21
-20.460333
 31
0.0
  0
LINE
  8
2
  6
CONTINUOUS
 62
     7
  5
36B
 10
71.349333
 20
-20.451333
 30
0.0
 11
71.206417
 21
-20.451333
 31
0.0
  0
LINE
  8
2
  6
CONTINUOUS
 62
     7
  5
36C
 10
53.493167
 20
-11.813333
 30
0.0
 11
52.773833
 21
-11.813333
 31
0.0
  0
LINE
  8
2
  6
CONTINUOUS
 62
     7
  5
36D
 10
53.493167
 20
-15.043833
 30
0.0
 11
52.773833
 21
-15.043833
 31
0.0
  0
LINE
  8
2
  6
CONTINUOUS
 62
     7
  5
36E
 10
53.129833
 20
-13.264417
 30
0.0
 11
53.129833
 21
-11.845917
 31
0.0
  0
SOLID
  8
2
  6
CONTINUOUS
 62
     7
  5
36F
 10
53.104833
 20
-11.966417
 30
0.0
 11
53.127333
 21
-11.831417
 31
0.0
 12
53.149833
 22
-11.966417
 32
0.0
 13
53.149833
 23
-11.966417
 33
0.0
  0
TEXT
  8
5
  6
CONTINUOUS
 62
     2
  5
370
 10
52.968417
 20
-13.472917
 30
0.0
 40
0.144
  1
32"
  7
txt
 72
     1
 11
53.158917
 21
-13.472917
 31
0.0
210
0.0
220
0.0
230
1.0
  0
LINE
  8
2
  6
CONTINUOUS
 62
     7
  5
371
 10
53.129833
 20
-13.610083
 30
0.0
 11
53.129833
 21
-15.028583
 31
0.0
  0
SOLID
  8
2
  6
CONTINUOUS
 62
     7
  5
372
 10
53.104833
 20
-14.908083
 30
0.0
 11
53.127333
 21
-15.043083
 31
0.0
 12
53.149833
 22
-14.908083
 32
0.0
 13
53.149833
 23
-14.908083
 33
0.0
  0
TEXT
  8
5
  6
CONTINUOUS
 62
     2
  5
373
 10
68.967333
 20
-15.936833
 30
0.0
 40
0.24
  1
TYPICAL CONNECTION
  7
ROMANS
 72
     1
 11
71.083
 21
-15.936833
 31
0.0
210
0.0
220
0.0
230
1.0
  0
LINE
  8
2
  6
CONTINUOUS
 62
     7
  5
374
 10
71.07575
 20
-12.97225
 30
0.0
 11
70.783417
 21
-12.97225
 31
0.0
  0
SOLID
  8
2
  6
CONTINUOUS
 62
     7
  5
375
 10
71.585833
 20
-12.948167
 30
0.0
 11
71.450833
 21
-12.970667
 31
0.0
 12
71.585833
 22
-12.993167
 32
0.0
 13
71.585833
 23
-12.993167
 33
0.0
  0
LINE
  8
2
  6
CONTINUOUS
 62
     7
  5
376
 10
71.490583
 20
-12.97225
 30
0.0
 11
71.782917
 21
-12.97225
 31
0.0
  0
TEXT
  8
5
  6
CONTINUOUS
 62
     2
  5
377
 10
63.36225
 20
-17.2525
 30
0.0
 40
0.144
  1
6"
  7
txt
 72
     1
 11
63.48125
 21
-17.2525
 31
0.0
210
0.0
220
0.0
230
1.0
  0
LINE
  8
2
  6
CONTINUOUS
 62
     7
  5
378
 10
63.109083
 20
-17.699167
 30
0.0
 11
63.109083
 21
-17.2325
 31
0.0
  0
LINE
  8
2
  6
CONTINUOUS
 62
     7
  5
379
 10
63.768917
 20
-17.699167
 30
0.0
 11
63.768917
 21
-17.2325
 31
0.0
  0
SOLID
  8
2
  6
CONTINUOUS
 62
     7
  5
37A
 10
63.258583
 20
-17.32
 30
0.0
 11
63.123583
 21
-17.3425
 31
0.0
 12
63.258583
 22
-17.365
 32
0.0
 13
63.258583
 23
-17.365
 33
0.0
  0
SOLID
  8
2
  6
CONTINUOUS
 62
     7
  5
37B
 10
63.61925
 20
-17.365
 30
0.0
 11
63.75425
 21
-17.3425
 31
0.0
 12
63.61925
 22
-17.32
 32
0.0
 13
63.61925
 23
-17.32
 33
0.0
  0
LINE
  8
2
  6
CONTINUOUS
 62
     7
  5
37C
 10
63.723583
 20
-17.3425
 30
0.0
 11
63.123583
 21
-17.3425
 31
0.0
  0
TEXT
  8
5
  6
CONTINUOUS
 62
     2
  5
37D
 10
72.037667
 20
-12.982833
 30
0.0
 40
0.144
  1
2 1/4" Approx.
  7
txt
 72
     1
 11
73.013917
 21
-12.982833
 31
0.0
210
0.0
220
0.0
230
1.0
  0
LINE
  8
2
  6
CONTINUOUS
 62
     7
  5
37E
 10
55.5355
 20
-26.113333
 30
0.0
 11
55.5355
 21
-25.068667
 31
0.0
  0
LINE
  8
2
  6
CONTINUOUS
 62
     7
  5
37F
 10
55.751833
 20
-26.203333
 30
0.0
 11
56.396
 21
-26.203333
 31
0.0
  0
LINE
  8
2
  6
CONTINUOUS
 62
     7
  5
380
 10
55.751833
 20
-26.653333
 30
0.0
 11
56.396
 21
-26.653333
 31
0.0
  0
LINE
  8
2
  6
CONTINUOUS
 62
     7
  5
381
 10
55.5355
 20
-25.230667
 30
0.0
 11
53.7305
 21
-25.230667
 31
0.0
  0
SOLID
  8
2
  6
CONTINUOUS
 62
     7
  5
382
 10
53.933
 20
-25.264333
 30
0.0
 11
53.7305
 21
-25.230667
 31
0.0
 12
53.933
 22
-25.196833
 32
0.0
 13
53.933
 23
-25.196833
 33
0.0
  0
SOLID
  8
2
  6
CONTINUOUS
 62
     7
  5
383
 10
55.333833
 20
-25.19625
 30
0.0
 11
55.536333
 21
-25.230083
 31
0.0
 12
55.333833
 22
-25.26375
 32
0.0
 13
55.333833
 23
-25.26375
 33
0.0
  0
LINE
  8
2
  6
CONTINUOUS
 62
     7
  5
384
 10
53.7305
 20
-26.203333
 30
0.0
 11
55.5305
 21
-26.203333
 31
0.0
  0
SOLID
  8
2
  6
CONTINUOUS
 62
     7
  5
385
 10
56.242333
 20
-26.000833
 30
0.0
 11
56.276
 21
-26.203333
 31
0.0
 12
56.309833
 22
-26.000833
 32
0.0
 13
56.309833
 23
-26.000833
 33
0.0
  0
SOLID
  8
2
  6
CONTINUOUS
 62
     7
  5
386
 10
56.309833
 20
-26.855833
 30
0.0
 11
56.276
 21
-26.653333
 31
0.0
 12
56.242333
 22
-26.855833
 32
0.0
 13
56.242333
 23
-26.855833
 33
0.0
  0
LINE
  8
2
  6
CONTINUOUS
 62
     7
  5
387
 10
56.276
 20
-26.203333
 30
0.0
 11
56.276
 21
-25.77825
 31
0.0
  0
LINE
  8
2
  6
CONTINUOUS
 62
     7
  5
388
 10
56.276
 20
-27.145333
 30
0.0
 11
56.276
 21
-26.653333
 31
0.0
  0
LINE
  8
2
  6
CONTINUOUS
 62
     7
  5
389
 10
55.661833
 20
-26.653333
 30
0.0
 11
55.661833
 21
-26.334667
 31
0.0
  0
LINE
  8
2
  6
CONTINUOUS
 62
     7
  5
38A
 10
53.7305
 20
-26.334667
 30
0.0
 11
55.399333
 21
-26.334667
 31
0.0
  0
LINE
  8
2
  6
CONTINUOUS
 62
     7
  5
38B
 10
55.5305
 20
-26.653333
 30
0.0
 11
55.5305
 21
-26.465833
 31
0.0
  0
LINE
  8
2
  6
CONTINUOUS
 62
     7
  5
38C
 10
55.5305
 20
-26.653333
 30
0.0
 11
55.661833
 21
-26.653333
 31
0.0
  0
ARC
  8
2
  6
CONTINUOUS
 62
     7
  5
38D
 10
55.54722
 20
-26.317963
 30
0.0
 40
0.115772
 50
351.712853
 51
98.28715
210
0.0
220
0.0
230
1.0
  0
ARC
  8
2
  6
CONTINUOUS
 62
     7
  5
38E
 10
55.41597
 20
-26.449213
 30
0.0
 40
0.115772
 50
351.712853
 51
98.28715
210
0.0
220
0.0
230
1.0
  0
LINE
  8
2
  6
CONTINUOUS
 62
     7
  5
38F
 10
59.878
 20
-26.2405
 30
0.0
 11
59.878
 21
-25.315667
 31
0.0
  0
LINE
  8
2
  6
CONTINUOUS
 62
     7
  5
390
 10
58.978
 20
-26.3365
 30
0.0
 11
59.878
 21
-26.3365
 31
0.0
  0
LINE
  8
2
  6
CONTINUOUS
 62
     7
  5
391
 10
58.978
 20
-26.48675
 30
0.0
 11
59.878
 21
-26.48675
 31
0.0
  0
LINE
  8
2
  6
CONTINUOUS
 62
     7
  5
392
 10
58.978
 20
-26.2405
 30
0.0
 11
58.978
 21
-25.315667
 31
0.0
  0
LINE
  8
2
  6
CONTINUOUS
 62
     7
  5
393
 10
59.878
 20
-26.48675
 30
0.0
 11
59.878
 21
-26.3365
 31
0.0
  0
LINE
  8
2
  6
CONTINUOUS
 62
     7
  5
394
 10
59.878
 20
-25.477667
 30
0.0
 11
58.978
 21
-25.477667
 31
0.0
  0
SOLID
  8
2
  6
CONTINUOUS
 62
     7
  5
395
 10
59.1805
 20
-25.511417
 30
0.0
 11
58.978
 21
-25.477667
 31
0.0
 12
59.1805
 22
-25.443917
 32
0.0
 13
59.1805
 23
-25.443917
 33
0.0
  0
SOLID
  8
2
  6
CONTINUOUS
 62
     7
  5
396
 10
59.6755
 20
-25.443917
 30
0.0
 11
59.878
 21
-25.477667
 31
0.0
 12
59.6755
 22
-25.511417
 32
0.0
 13
59.6755
 23
-25.511417
 33
0.0
  0
LINE
  8
2
  6
CONTINUOUS
 62
     7
  5
397
 10
61.221583
 20
-27.654833
 30
0.0
 11
61.221583
 21
-26.651917
 31
0.0
  0
LINE
  8
2
  6
CONTINUOUS
 62
     7
  5
398
 10
63.471583
 20
-27.654833
 30
0.0
 11
63.471583
 21
-26.670333
 31
0.0
  0
LINE
  8
2
  6
CONTINUOUS
 62
     7
  5
399
 10
62.121583
 20
-27.19175
 30
0.0
 11
62.121583
 21
-26.651917
 31
0.0
  0
LINE
  8
2
  6
CONTINUOUS
 62
     7
  5
39A
 10
63.471583
 20
-27.594917
 30
0.0
 11
61.221583
 21
-27.594917
 31
0.0
  0
LINE
  8
2
  6
CONTINUOUS
 62
     7
  5
39B
 10
62.121583
 20
-27.02975
 30
0.0
 11
61.221583
 21
-27.02975
 31
0.0
  0
SOLID
  8
2
  6
CONTINUOUS
 62
     7
  5
39C
 10
61.424083
 20
-27.628583
 30
0.0
 11
61.221583
 21
-27.594917
 31
0.0
 12
61.424083
 22
-27.561083
 32
0.0
 13
61.424083
 23
-27.561083
 33
0.0
  0
SOLID
  8
2
  6
CONTINUOUS
 62
     7
  5
39D
 10
61.424083
 20
-27.0635
 30
0.0
 11
61.221583
 21
-27.02975
 31
0.0
 12
61.424083
 22
-26.996
 32
0.0
 13
61.424083
 23
-26.996
 33
0.0
  0
SOLID
  8
2
  6
CONTINUOUS
 62
     7
  5
39E
 10
63.269083
 20
-27.561083
 30
0.0
 11
63.471583
 21
-27.594917
 31
0.0
 12
63.269083
 22
-27.628583
 32
0.0
 13
63.269083
 23
-27.628583
 33
0.0
  0
LINE
  8
2
  6
CONTINUOUS
 62
     7
  5
39F
 10
62.2715
 20
-26.561917
 30
0.0
 11
61.221583
 21
-26.561917
 31
0.0
  0
SOLID
  8
2
  6
CONTINUOUS
 62
     7
  5
3A0
 10
61.919083
 20
-26.996
 30
0.0
 11
62.121583
 21
-27.02975
 31
0.0
 12
61.919083
 22
-27.0635
 32
0.0
 13
61.919083
 23
-27.0635
 33
0.0
  0
LINE
  8
2
  6
CONTINUOUS
 62
     7
  5
3A1
 10
61.221583
 20
-26.561917
 30
0.0
 11
61.221583
 21
-26.48675
 31
0.0
  0
LINE
  8
2
  6
CONTINUOUS
 62
     7
  5
3A2
 10
61.221583
 20
-26.3365
 30
0.0
 11
61.221583
 21
-26.2615
 31
0.0
  0
LINE
  8
2
  6
CONTINUOUS
 62
     7
  5
3A3
 10
62.2715
 20
-26.2615
 30
0.0
 11
61.221583
 21
-26.2615
 31
0.0
  0
LINE
  8
2
  6
CONTINUOUS
 62
     7
  5
3A4
 10
62.2715
 20
-26.3365
 30
0.0
 11
61.221583
 21
-26.3365
 31
0.0
  0
LINE
  8
2
  6
CONTINUOUS
 62
     7
  5
3A5
 10
62.2715
 20
-26.48675
 30
0.0
 11
61.221583
 21
-26.48675
 31
0.0
  0
SOLID
  8
1
  6
CONTINUOUS
 62
     7
  5
3A6
 10
61.2705
 20
-26.3365
 30
0.0
 11
62.121583
 21
-26.3365
 31
0.0
 12
61.2705
 22
-26.48675
 32
0.0
 13
62.121583
 23
-26.48675
 33
0.0
  0
LINE
  8
2
  6
CONTINUOUS
 62
     7
  5
3A7
 10
63.435583
 20
-25.88675
 30
0.0
 11
64.399167
 21
-25.88675
 31
0.0
  0
LINE
  8
2
  6
CONTINUOUS
 62
     7
  5
3A8
 10
63.435583
 20
-26.93675
 30
0.0
 11
64.399167
 21
-26.93675
 31
0.0
  0
LINE
  8
1
  6
CONTINUOUS
 62
     7
  5
3A9
 10
62.2715
 20
-26.2615
 30
0.0
 11
63.33625
 21
-25.88925
 31
0.0
  0
LINE
  8
1
  6
CONTINUOUS
 62
     7
  5
3AA
 10
62.2715
 20
-26.561917
 30
0.0
 11
63.321583
 21
-26.93675
 31
0.0
  0
LINE
  8
1
  6
CONTINUOUS
 62
     7
  5
3AB
 10
62.2715
 20
-26.3365
 30
0.0
 11
63.256083
 21
-25.98975
 31
0.0
  0
LINE
  8
1
  6
CONTINUOUS
 62
     7
  5
3AC
 10
62.2715
 20
-26.48675
 30
0.0
 11
63.2465
 21
-26.83475
 31
0.0
  0
POLYLINE
  8
1
  6
CONTINUOUS
 62
     7
  5
3AD
 66
     1
 10
0.0
 20
0.0
 30
0.0
210
0.0
220
0.0
230
1.0
  0
VERTEX
  8
1
  6
CONTINUOUS
 62
     7
  5
3AE
 10
63.246417
 20
-26.834733
 30
0.0
 42
0.137653
  0
VERTEX
  8
1
  6
CONTINUOUS
 62
     7
  5
3AF
 10
63.272152
 20
-26.826967
 30
0.0
 42
0.089028
  0
VERTEX
  8
1
  6
CONTINUOUS
 62
     7
  5
3B0
 10
63.296942
 20
-26.803952
 30
0.0
 42
0.052985
  0
VERTEX
  8
1
  6
CONTINUOUS
 62
     7
  5
3B1
 10
63.319876
 20
-26.766535
 30
0.0
 42
0.0344
  0
VERTEX
  8
1
  6
CONTINUOUS
 62
     7
  5
3B2
 10
63.340113
 20
-26.716089
 30
0.0
 42
0.024826
  0
VERTEX
  8
1
  6
CONTINUOUS
 62
     7
  5
3B3
 10
63.35691
 20
-26.654466
 30
0.0
 42
0.019669
  0
VERTEX
  8
1
  6
CONTINUOUS
 62
     7
  5
3B4
 10
63.369649
 20
-26.58393
 30
0.0
 42
0.01689
  0
VERTEX
  8
1
  6
CONTINUOUS
 62
     7
  5
3B5
 10
63.377862
 20
-26.507071
 30
0.0
 42
0.015589
  0
VERTEX
  8
1
  6
CONTINUOUS
 62
     7
  5
3B6
 10
63.381249
 20
-26.426711
 30
0.0
 42
0.015398
  0
VERTEX
  8
1
  6
CONTINUOUS
 62
     7
  5
3B7
 10
63.379685
 20
-26.345801
 30
0.0
 42
0.016266
  0
VERTEX
  8
1
  6
CONTINUOUS
 62
     7
  5
3B8
 10
63.373227
 20
-26.267311
 30
0.0
 42
0.01843
  0
VERTEX
  8
1
  6
CONTINUOUS
 62
     7
  5
3B9
 10
63.362112
 20
-26.194126
 30
0.0
 42
0.022553
  0
VERTEX
  8
1
  6
CONTINUOUS
 62
     7
  5
3BA
 10
63.346749
 20
-26.128931
 30
0.0
 42
0.030142
  0
VERTEX
  8
1
  6
CONTINUOUS
 62
     7
  5
3BB
 10
63.327701
 20
-26.074121
 30
0.0
 42
0.044612
  0
VERTEX
  8
1
  6
CONTINUOUS
 62
     7
  5
3BC
 10
63.305668
 20
-26.031709
 30
0.0
 42
0.073154
  0
VERTEX
  8
1
  6
CONTINUOUS
 62
     7
  5
3BD
 10
63.28146
 20
-26.003251
 30
0.0
 42
0.121013
  0
VERTEX
  8
1
  6
CONTINUOUS
 62
     7
  5
3BE
 10
63.255965
 20
-25.989794
 30
0.0
 42
0.121013
  0
SEQEND
  8
1
  6
CONTINUOUS
 62
     7
  5
3BF
  0
POLYLINE
  8
1
  6
CONTINUOUS
 62
     7
  5
3C0
 66
     1
 10
0.0
 20
0.0
 30
0.0
210
0.0
220
0.0
230
1.0
  0
VERTEX
  8
1
  6
CONTINUOUS
 62
     7
  5
3C1
 10
63.321567
 20
-26.936733
 30
0.0
 42
0.157279
  0
VERTEX
  8
1
  6
CONTINUOUS
 62
     7
  5
3C2
 10
63.35179
 20
-26.925966
 30
0.0
 42
0.090215
  0
VERTEX
  8
1
  6
CONTINUOUS
 62
     7
  5
3C3
 10
63.380773
 20
-26.894106
 30
0.0
 42
0.049495
  0
VERTEX
  8
1
  6
CONTINUOUS
 62
     7
  5
3C4
 10
63.407328
 20
-26.842461
 30
0.0
 42
0.031081
  0
VERTEX
  8
1
  6
CONTINUOUS
 62
     7
  5
3C5
 10
63.430365
 20
-26.773147
 30
0.0
 42
0.022238
  0
VERTEX
  8
1
  6
CONTINUOUS
 62
     7
  5
3C6
 10
63.44894
 20
-26.68901
 30
0.0
 42
0.017706
  0
VERTEX
  8
1
  6
CONTINUOUS
 62
     7
  5
3C7
 10
63.46229
 20
-26.593499
 30
0.0
 42
0.015427
  0
VERTEX
  8
1
  6
CONTINUOUS
 62
     7
  5
3C8
 10
63.469867
 20
-26.490532
 30
0.0
 42
0.014571
  0
VERTEX
  8
1
  6
CONTINUOUS
 62
     7
  5
3C9
 10
63.471362
 20
-26.384334
 30
0.0
 42
0.014861
  0
VERTEX
  8
1
  6
CONTINUOUS
 62
     7
  5
3CA
 10
63.466713
 20
-26.279259
 30
0.0
 42
0.016388
  0
VERTEX
  8
1
  6
CONTINUOUS
 62
     7
  5
3CB
 10
63.45611
 20
-26.179618
 30
0.0
 42
0.019669
  0
VERTEX
  8
1
  6
CONTINUOUS
 62
     7
  5
3CC
 10
63.439988
 20
-26.089498
 30
0.0
 42
0.026034
  0
VERTEX
  8
1
  6
CONTINUOUS
 62
     7
  5
3CD
 10
63.419009
 20
-26.012595
 30
0.0
 42
0.038796
  0
VERTEX
  8
1
  6
CONTINUOUS
 62
     7
  5
3CE
 10
63.394033
 20
-25.952064
 30
0.0
 42
0.066495
  0
VERTEX
  8
1
  6
CONTINUOUS
 62
     7
  5
3CF
 10
63.366085
 20
-25.910388
 30
0.0
 42
0.124279
  0
VERTEX
  8
1
  6
CONTINUOUS
 62
     7
  5
3D0
 10
63.33631
 20
-25.889275
 30
0.0
 42
0.124279
  0
SEQEND
  8
1
  6
CONTINUOUS
 62
     7
  5
3D1
  0
SOLID
  8
2
  6
CONTINUOUS
 62
     7
  5
3D2
 10
64.2035
 20
-26.73425
 30
0.0
 11
64.237167
 21
-26.93675
 31
0.0
 12
64.271
 22
-26.73425
 32
0.0
 13
64.271
 23
-26.73425
 33
0.0
  0
SOLID
  8
2
  6
CONTINUOUS
 62
     7
  5
3D3
 10
64.271
 20
-26.08925
 30
0.0
 11
64.237167
 21
-25.88675
 31
0.0
 12
64.2035
 22
-26.08925
 32
0.0
 13
64.2035
 23
-26.08925
 33
0.0
  0
LINE
  8
2
  6
CONTINUOUS
 62
     7
  5
3D4
 10
56.4835
 20
-25.77825
 30
0.0
 11
56.276
 21
-25.77825
 31
0.0
  0
LINE
  8
2
  6
CONTINUOUS
 62
     7
  5
3D5
 10
64.237167
 20
-26.93675
 30
0.0
 11
64.237167
 21
-26.55825
 31
0.0
  0
LINE
  8
2
  6
CONTINUOUS
 62
     7
  5
3D6
 10
64.237167
 20
-26.27775
 30
0.0
 11
64.237167
 21
-25.88675
 31
0.0
  0
TEXT
  8
5
  6
CONTINUOUS
 62
     2
  5
3D7
 10
56.627667
 20
-29.59475
 30
0.0
 40
0.24
  1
DETAIL 'A'
  7
ROMANS
 72
     1
 11
57.747667
 21
-29.59475
 31
0.0
210
0.0
220
0.0
230
1.0
  0
TEXT
  8
5
  6
CONTINUOUS
 62
     2
  5
3D8
 10
53.659
 20
-27.279167
 30
0.0
 40
0.156
  1
0.75" Eye Bolt
  7
txt
 72
     1
 11
54.716583
 21
-27.279167
 31
0.0
210
0.0
220
0.0
230
1.0
  0
TEXT
  8
5
  6
CONTINUOUS
 62
     2
  5
3D9
 10
59.455667
 20
-28.152417
 30
0.0
 40
0.156
  1
Coil Loop (Optional)
  7
txt
 72
     1
 11
60.9775
 21
-28.152417
 31
0.0
210
0.0
220
0.0
230
1.0
  0
TEXT
  8
5
  6
CONTINUOUS
 62
     2
  5
3DA
 10
59.457667
 20
-28.527083
 30
0.0
 40
0.156
  1
0.75" Threaded Bolt
  7
txt
 72
     1
 11
60.902167
 21
-28.527083
 31
0.0
210
0.0
220
0.0
230
1.0
  0
LINE
  8
5
  6
CONTINUOUS
 62
     2
  5
3DB
 10
56.421
 20
-29.762083
 30
0.0
 11
59.067917
 21
-29.762083
 31
0.0
  0
LINE
  8
2
  6
CONTINUOUS
 62
     7
  5
3DC
 10
58.978
 20
-26.320417
 30
0.0
 11
58.848417
 21
-26.33525
 31
0.0
  0
LINE
  8
2
  6
CONTINUOUS
 62
     7
  5
3DD
 10
58.848417
 20
-26.488
 30
0.0
 11
58.978
 21
-26.502833
 31
0.0
  0
LINE
  8
2
  6
CONTINUOUS
 62
     7
  5
3DE
 10
58.978
 20
-26.502833
 30
0.0
 11
58.978
 21
-26.320417
 31
0.0
  0
CIRCLE
  8
2
  6
CONTINUOUS
 62
     7
  5
3DF
 10
58.738167
 20
-26.411583
 30
0.0
 40
0.134164
210
0.0
220
0.0
230
1.0
  0
POINT
  8
2
  6
CONTINUOUS
 62
   215
  5
3E0
 10
58.978
 20
-26.411583
 30
0.0
  0
POINT
  8
2
  6
CONTINUOUS
 62
     7
  5
3E1
 10
58.872333
 20
-26.411667
 30
0.0
  0
LINE
  8
2
  6
CONTINUOUS
 62
     7
  5
3E2
 10
53.7305
 20
-26.177833
 30
0.0
 11
53.600917
 21
-26.192667
 31
0.0
  0
LINE
  8
2
  6
CONTINUOUS
 62
     7
  5
3E3
 10
53.600917
 20
-26.345417
 30
0.0
 11
53.7305
 21
-26.36025
 31
0.0
  0
LINE
  8
2
  6
CONTINUOUS
 62
     7
  5
3E4
 10
53.7305
 20
-26.36025
 30
0.0
 11
53.7305
 21
-26.177833
 31
0.0
  0
POINT
  8
2
  6
CONTINUOUS
 62
   215
  5
3E5
 10
53.7305
 20
-26.269
 30
0.0
  0
POINT
  8
2
  6
CONTINUOUS
 62
   110
  5
3E6
 10
53.7305
 20
-26.269
 30
0.0
  0
POINT
  8
2
  6
CONTINUOUS
 62
     2
  5
3E7
 10
58.979667
 20
-26.48675
 30
0.0
  0
POINT
  8
2
  6
CONTINUOUS
 62
     2
  5
3E8
 10
59.002667
 20
-26.48675
 30
0.0
  0
POINT
  8
2
  6
CONTINUOUS
 62
     2
  5
3E9
 10
59.02575
 20
-26.48675
 30
0.0
  0
POINT
  8
2
  6
CONTINUOUS
 62
     2
  5
3EA
 10
59.04875
 20
-26.48675
 30
0.0
  0
POINT
  8
2
  6
CONTINUOUS
 62
     2
  5
3EB
 10
59.07175
 20
-26.48675
 30
0.0
  0
POINT
  8
2
  6
CONTINUOUS
 62
     2
  5
3EC
 10
59.09475
 20
-26.48675
 30
0.0
  0
POINT
  8
2
  6
CONTINUOUS
 62
     2
  5
3ED
 10
59.117833
 20
-26.48675
 30
0.0
  0
POINT
  8
2
  6
CONTINUOUS
 62
     2
  5
3EE
 10
59.140833
 20
-26.48675
 30
0.0
  0
POINT
  8
2
  6
CONTINUOUS
 62
     2
  5
3EF
 10
59.163833
 20
-26.48675
 30
0.0
  0
POINT
  8
2
  6
CONTINUOUS
 62
     2
  5
3F0
 10
59.186917
 20
-26.48675
 30
0.0
  0
POINT
  8
2
  6
CONTINUOUS
 62
     2
  5
3F1
 10
59.209917
 20
-26.48675
 30
0.0
  0
POINT
  8
2
  6
CONTINUOUS
 62
     2
  5
3F2
 10
59.232917
 20
-26.48675
 30
0.0
  0
POINT
  8
2
  6
CONTINUOUS
 62
     2
  5
3F3
 10
59.255917
 20
-26.48675
 30
0.0
  0
POINT
  8
2
  6
CONTINUOUS
 62
     2
  5
3F4
 10
59.279
 20
-26.48675
 30
0.0
  0
POINT
  8
2
  6
CONTINUOUS
 62
     2
  5
3F5
 10
59.302
 20
-26.48675
 30
0.0
  0
POINT
  8
2
  6
CONTINUOUS
 62
     2
  5
3F6
 10
59.325
 20
-26.48675
 30
0.0
  0
POINT
  8
2
  6
CONTINUOUS
 62
     2
  5
3F7
 10
59.348083
 20
-26.48675
 30
0.0
  0
POINT
  8
2
  6
CONTINUOUS
 62
     2
  5
3F8
 10
59.371083
 20
-26.48675
 30
0.0
  0
POINT
  8
2
  6
CONTINUOUS
 62
     2
  5
3F9
 10
59.394083
 20
-26.48675
 30
0.0
  0
POINT
  8
2
  6
CONTINUOUS
 62
     2
  5
3FA
 10
59.417083
 20
-26.48675
 30
0.0
  0
POINT
  8
2
  6
CONTINUOUS
 62
     2
  5
3FB
 10
59.440167
 20
-26.48675
 30
0.0
  0
POINT
  8
2
  6
CONTINUOUS
 62
     2
  5
3FC
 10
59.463167
 20
-26.48675
 30
0.0
  0
POINT
  8
2
  6
CONTINUOUS
 62
     2
  5
3FD
 10
59.486167
 20
-26.48675
 30
0.0
  0
POINT
  8
2
  6
CONTINUOUS
 62
     2
  5
3FE
 10
59.509167
 20
-26.48675
 30
0.0
  0
POINT
  8
2
  6
CONTINUOUS
 62
     2
  5
3FF
 10
59.53225
 20
-26.48675
 30
0.0
  0
POINT
  8
2
  6
CONTINUOUS
 62
     2
  5
400
 10
59.55525
 20
-26.48675
 30
0.0
  0
POINT
  8
2
  6
CONTINUOUS
 62
     2
  5
401
 10
59.57825
 20
-26.48675
 30
0.0
  0
POINT
  8
2
  6
CONTINUOUS
 62
     2
  5
402
 10
59.601333
 20
-26.48675
 30
0.0
  0
POINT
  8
2
  6
CONTINUOUS
 62
     2
  5
403
 10
59.624333
 20
-26.48675
 30
0.0
  0
POINT
  8
2
  6
CONTINUOUS
 62
     2
  5
404
 10
59.647333
 20
-26.48675
 30
0.0
  0
POINT
  8
2
  6
CONTINUOUS
 62
     2
  5
405
 10
59.670333
 20
-26.48675
 30
0.0
  0
POINT
  8
2
  6
CONTINUOUS
 62
     2
  5
406
 10
59.693417
 20
-26.48675
 30
0.0
  0
POINT
  8
2
  6
CONTINUOUS
 62
     2
  5
407
 10
59.716417
 20
-26.48675
 30
0.0
  0
POINT
  8
2
  6
CONTINUOUS
 62
     2
  5
408
 10
59.739417
 20
-26.48675
 30
0.0
  0
POINT
  8
2
  6
CONTINUOUS
 62
     2
  5
409
 10
59.7625
 20
-26.48675
 30
0.0
  0
POINT
  8
2
  6
CONTINUOUS
 62
     2
  5
40A
 10
59.7855
 20
-26.48675
 30
0.0
  0
POINT
  8
2
  6
CONTINUOUS
 62
     2
  5
40B
 10
59.8085
 20
-26.48675
 30
0.0
  0
POINT
  8
2
  6
CONTINUOUS
 62
     2
  5
40C
 10
59.8315
 20
-26.48675
 30
0.0
  0
POINT
  8
2
  6
CONTINUOUS
 62
     2
  5
40D
 10
59.854583
 20
-26.48675
 30
0.0
  0
POINT
  8
2
  6
CONTINUOUS
 62
     2
  5
40E
 10
59.877583
 20
-26.48675
 30
0.0
  0
POINT
  8
2
  6
CONTINUOUS
 62
     2
  5
40F
 10
58.980583
 20
-26.3365
 30
0.0
  0
POINT
  8
2
  6
CONTINUOUS
 62
     2
  5
410
 10
59.003583
 20
-26.3365
 30
0.0
  0
POINT
  8
2
  6
CONTINUOUS
 62
     2
  5
411
 10
59.0265
 20
-26.3365
 30
0.0
  0
POINT
  8
2
  6
CONTINUOUS
 62
     2
  5
412
 10
59.0495
 20
-26.3365
 30
0.0
  0
POINT
  8
2
  6
CONTINUOUS
 62
     2
  5
413
 10
59.072417
 20
-26.3365
 30
0.0
  0
POINT
  8
2
  6
CONTINUOUS
 62
     2
  5
414
 10
59.095417
 20
-26.3365
 30
0.0
  0
POINT
  8
2
  6
CONTINUOUS
 62
     2
  5
415
 10
59.118333
 20
-26.3365
 30
0.0
  0
POINT
  8
2
  6
CONTINUOUS
 62
     2
  5
416
 10
59.141333
 20
-26.3365
 30
0.0
  0
POINT
  8
2
  6
CONTINUOUS
 62
     2
  5
417
 10
59.164333
 20
-26.3365
 30
0.0
  0
POINT
  8
2
  6
CONTINUOUS
 62
     2
  5
418
 10
59.18725
 20
-26.3365
 30
0.0
  0
POINT
  8
2
  6
CONTINUOUS
 62
     2
  5
419
 10
59.21025
 20
-26.3365
 30
0.0
  0
POINT
  8
2
  6
CONTINUOUS
 62
     2
  5
41A
 10
59.233167
 20
-26.3365
 30
0.0
  0
POINT
  8
2
  6
CONTINUOUS
 62
     2
  5
41B
 10
59.256167
 20
-26.3365
 30
0.0
  0
POINT
  8
2
  6
CONTINUOUS
 62
     2
  5
41C
 10
59.279083
 20
-26.3365
 30
0.0
  0
POINT
  8
2
  6
CONTINUOUS
 62
     2
  5
41D
 10
59.302083
 20
-26.3365
 30
0.0
  0
POINT
  8
2
  6
CONTINUOUS
 62
     2
  5
41E
 10
59.325
 20
-26.3365
 30
0.0
  0
POINT
  8
2
  6
CONTINUOUS
 62
     2
  5
41F
 10
59.348
 20
-26.3365
 30
0.0
  0
POINT
  8
2
  6
CONTINUOUS
 62
     2
  5
420
 10
59.371
 20
-26.3365
 30
0.0
  0
POINT
  8
2
  6
CONTINUOUS
 62
     2
  5
421
 10
59.393917
 20
-26.3365
 30
0.0
  0
POINT
  8
2
  6
CONTINUOUS
 62
     2
  5
422
 10
59.416917
 20
-26.3365
 30
0.0
  0
POINT
  8
2
  6
CONTINUOUS
 62
     2
  5
423
 10
59.439833
 20
-26.3365
 30
0.0
  0
POINT
  8
2
  6
CONTINUOUS
 62
     2
  5
424
 10
59.462833
 20
-26.3365
 30
0.0
  0
POINT
  8
2
  6
CONTINUOUS
 62
     2
  5
425
 10
59.48575
 20
-26.3365
 30
0.0
  0
POINT
  8
2
  6
CONTINUOUS
 62
     2
  5
426
 10
59.50875
 20
-26.3365
 30
0.0
  0
POINT
  8
2
  6
CONTINUOUS
 62
     2
  5
427
 10
59.53175
 20
-26.3365
 30
0.0
  0
POINT
  8
2
  6
CONTINUOUS
 62
     2
  5
428
 10
59.554667
 20
-26.3365
 30
0.0
  0
POINT
  8
2
  6
CONTINUOUS
 62
     2
  5
429
 10
59.577667
 20
-26.3365
 30
0.0
  0
POINT
  8
2
  6
CONTINUOUS
 62
     2
  5
42A
 10
59.600583
 20
-26.3365
 30
0.0
  0
POINT
  8
2
  6
CONTINUOUS
 62
     2
  5
42B
 10
59.623583
 20
-26.3365
 30
0.0
  0
POINT
  8
2
  6
CONTINUOUS
 62
     2
  5
42C
 10
59.6465
 20
-26.3365
 30
0.0
  0
POINT
  8
2
  6
CONTINUOUS
 62
     2
  5
42D
 10
59.6695
 20
-26.3365
 30
0.0
  0
POINT
  8
2
  6
CONTINUOUS
 62
     2
  5
42E
 10
59.692417
 20
-26.3365
 30
0.0
  0
POINT
  8
2
  6
CONTINUOUS
 62
     2
  5
42F
 10
59.715417
 20
-26.3365
 30
0.0
  0
POINT
  8
2
  6
CONTINUOUS
 62
     2
  5
430
 10
59.738417
 20
-26.3365
 30
0.0
  0
POINT
  8
2
  6
CONTINUOUS
 62
     2
  5
431
 10
59.761333
 20
-26.3365
 30
0.0
  0
POINT
  8
2
  6
CONTINUOUS
 62
     2
  5
432
 10
59.784333
 20
-26.3365
 30
0.0
  0
POINT
  8
2
  6
CONTINUOUS
 62
     2
  5
433
 10
59.80725
 20
-26.3365
 30
0.0
  0
POINT
  8
2
  6
CONTINUOUS
 62
     2
  5
434
 10
59.83025
 20
-26.3365
 30
0.0
  0
POINT
  8
2
  6
CONTINUOUS
 62
     2
  5
435
 10
59.853167
 20
-26.3365
 30
0.0
  0
POINT
  8
2
  6
CONTINUOUS
 62
     2
  5
436
 10
59.876167
 20
-26.3365
 30
0.0
  0
LINE
  8
2
  6
CONTINUOUS
 62
   215
  5
437
 10
59.8085
 20
-26.48675
 30
0.0
 11
59.83025
 21
-26.3365
 31
0.0
  0
LINE
  8
2
  6
CONTINUOUS
 62
   215
  5
438
 10
59.854583
 20
-26.48675
 30
0.0
 11
59.878
 21
-26.3365
 31
0.0
  0
LINE
  8
2
  6
CONTINUOUS
 62
   215
  5
439
 10
59.0495
 20
-26.3365
 30
0.0
 11
59.02575
 21
-26.48675
 31
0.0
  0
LINE
  8
2
  6
CONTINUOUS
 62
   215
  5
43A
 10
59.003583
 20
-26.3365
 30
0.0
 11
58.979667
 21
-26.48675
 31
0.0
  0
LINE
  8
2
  6
CONTINUOUS
 62
   215
  5
43B
 10
59.095417
 20
-26.3365
 30
0.0
 11
59.07175
 21
-26.48675
 31
0.0
  0
LINE
  8
2
  6
CONTINUOUS
 62
   215
  5
43C
 10
59.141333
 20
-26.3365
 30
0.0
 11
59.117833
 21
-26.48675
 31
0.0
  0
LINE
  8
2
  6
CONTINUOUS
 62
   215
  5
43D
 10
59.163833
 20
-26.48675
 30
0.0
 11
59.18725
 21
-26.3365
 31
0.0
  0
LINE
  8
2
  6
CONTINUOUS
 62
   215
  5
43E
 10
59.209917
 20
-26.48675
 30
0.0
 11
59.233167
 21
-26.3365
 31
0.0
  0
LINE
  8
2
  6
CONTINUOUS
 62
   215
  5
43F
 10
59.255917
 20
-26.48675
 30
0.0
 11
59.279083
 21
-26.3365
 31
0.0
  0
LINE
  8
2
  6
CONTINUOUS
 62
   215
  5
440
 10
59.325
 20
-26.3365
 30
0.0
 11
59.302
 21
-26.48675
 31
0.0
  0
LINE
  8
2
  6
CONTINUOUS
 62
   215
  5
441
 10
59.371
 20
-26.3365
 30
0.0
 11
59.348083
 21
-26.48675
 31
0.0
  0
LINE
  8
2
  6
CONTINUOUS
 62
   215
  5
442
 10
59.416917
 20
-26.3365
 30
0.0
 11
59.394083
 21
-26.48675
 31
0.0
  0
LINE
  8
2
  6
CONTINUOUS
 62
   215
  5
443
 10
59.440167
 20
-26.48675
 30
0.0
 11
59.462833
 21
-26.3365
 31
0.0
  0
LINE
  8
2
  6
CONTINUOUS
 62
   215
  5
444
 10
59.48625
 20
-26.48675
 30
0.0
 11
59.50875
 21
-26.3365
 31
0.0
  0
LINE
  8
2
  6
CONTINUOUS
 62
   215
  5
445
 10
59.53225
 20
-26.48675
 30
0.0
 11
59.554667
 21
-26.3365
 31
0.0
  0
LINE
  8
2
  6
CONTINUOUS
 62
   215
  5
446
 10
59.57825
 20
-26.48675
 30
0.0
 11
59.600583
 21
-26.3365
 31
0.0
  0
LINE
  8
2
  6
CONTINUOUS
 62
   215
  5
447
 10
59.646583
 20
-26.3365
 30
0.0
 11
59.624333
 21
-26.48675
 31
0.0
  0
LINE
  8
2
  6
CONTINUOUS
 62
   215
  5
448
 10
59.692417
 20
-26.3365
 30
0.0
 11
59.670333
 21
-26.48675
 31
0.0
  0
LINE
  8
2
  6
CONTINUOUS
 62
   215
  5
449
 10
59.738417
 20
-26.3365
 30
0.0
 11
59.716417
 21
-26.48675
 31
0.0
  0
LINE
  8
2
  6
CONTINUOUS
 62
   215
  5
44A
 10
59.784333
 20
-26.3365
 30
0.0
 11
59.7625
 21
-26.48675
 31
0.0
  0
LINE
  8
2
  6
CONTINUOUS
 62
   110
  5
44B
 10
53.41725
 20
-26.203333
 30
0.0
 11
53.600917
 21
-26.203333
 31
0.0
  0
LINE
  8
2
  6
CONTINUOUS
 62
   110
  5
44C
 10
53.41725
 20
-26.334667
 30
0.0
 11
53.600917
 21
-26.334667
 31
0.0
  0
LINE
  8
1
  6
CONTINUOUS
 62
    40
  5
44D
 10
53.600917
 20
-26.203333
 30
0.0
 11
53.600917
 21
-26.192667
 31
0.0
  0
LINE
  8
2
  6
CONTINUOUS
 62
     7
  5
44E
 10
53.7305
 20
-26.113333
 30
0.0
 11
53.7305
 21
-25.068667
 31
0.0
  0
ARC
  8
2
  6
CONTINUOUS
 62
   110
  5
44F
 10
53.41725
 20
-26.269
 30
0.0
 40
0.065667
 50
90.0
 51
270.0
210
0.0
220
0.0
230
1.0
  0
ARC
  8
2
  6
CONTINUOUS
 62
   110
  5
450
 10
53.600917
 20
-26.269
 30
0.0
 40
0.065667
 50
270.0
 51
90.0
210
0.0
220
0.0
230
1.0
  0
LINE
  8
1
  6
CONTINUOUS
 62
    40
  5
451
 10
53.600917
 20
-26.345417
 30
0.0
 11
53.600917
 21
-26.334667
 31
0.0
  0
LINE
  8
2
  6
DOT
 62
     7
  5
452
 10
61.20025
 20
-26.415417
 30
0.0
 11
59.962167
 21
-26.415417
 31
0.0
  0
TEXT
  8
5
  6
CONTINUOUS
 62
     2
  5
453
 10
54.480667
 20
-25.140667
 30
0.0
 40
0.156
  1
12"
  7
txt
 72
     1
 11
54.687
 21
-25.140667
 31
0.0
210
0.0
220
0.0
230
1.0
  0
TEXT
  8
5
  6
CONTINUOUS
 62
     2
  5
454
 10
56.474
 20
-25.68675
 30
0.0
 40
0.156
  1
3"
  7
txt
 72
     1
 11
56.603
 21
-25.68675
 31
0.0
210
0.0
220
0.0
230
1.0
  0
TEXT
  8
5
  6
CONTINUOUS
 62
     2
  5
455
 10
53.959917
 20
-27.593667
 30
0.0
 40
0.156
  1
1.5" Eye
  7
txt
 72
     1
 11
54.553167
 21
-27.593667
 31
0.0
210
0.0
220
0.0
230
1.0
  0
TEXT
  8
5
  6
CONTINUOUS
 62
     2
  5
456
 10
59.293333
 20
-25.2485
 30
0.0
 40
0.156
  1
6"
  7
txt
 72
     1
 11
59.422333
 21
-25.2485
 31
0.0
210
0.0
220
0.0
230
1.0
  0
TEXT
  8
5
  6
CONTINUOUS
 62
     2
  5
457
 10
61.534167
 20
-26.93975
 30
0.0
 40
0.156
  1
6"
  7
txt
 72
     1
 11
61.663167
 21
-26.93975
 31
0.0
210
0.0
220
0.0
230
1.0
  0
TEXT
  8
5
  6
CONTINUOUS
 62
     2
  5
458
 10
62.2265
 20
-27.504917
 30
0.0
 40
0.156
  1
15"
  7
txt
 72
     1
 11
62.432833
 21
-27.504917
 31
0.0
210
0.0
220
0.0
230
1.0
  0
TEXT
  8
5
  6
CONTINUOUS
 62
     2
  5
459
 10
64.072083
 20
-26.52525
 30
0.0
 40
0.156
  1
7"
  7
txt
 72
     1
 11
64.201083
 21
-26.52525
 31
0.0
210
0.0
220
0.0
230
1.0
  0
TEXT
  8
5
  6
CONTINUOUS
 62
     2
  5
45A
 10
60.118
 20
-28.838583
 30
0.0
 40
0.156
  1
1.5" eye
  7
txt
 72
     1
 11
60.71125
 21
-28.838583
 31
0.0
210
0.0
220
0.0
230
1.0
  0
TEXT
  8
5
  6
CONTINUOUS
 62
     2
  5
45B
 10
57.819167
 20
-14.26075
 30
0.0
 40
0.144
  1
1.5" RADIUS DRAINAGE SLOTS
  7
txt
 11
57.819167
 21
-14.18875
 31
0.0
210
0.0
220
0.0
230
1.0
 73
     2
  0
ENDSEC
  0
EOF
