  0
SECTION
  2
HEADER
  9
$ACADVER
  1
AC1009
  9
$INSBASE
 10
0.0
 20
0.0
 30
0.0
  9
$EXTMIN
 10
-317.275167
 20
170.126083
 30
0.0
  9
$EXTMAX
 10
-281.953917
 20
192.126083
 30
0.0
  9
$LIMMIN
 10
0.0
 20
0.0
  9
$LIMMAX
 10
12.0
 20
9.0
  9
$ORTHOMODE
 70
     0
  9
$REGENMODE
 70
     1
  9
$FILLMODE
 70
     1
  9
$QTEXTMODE
 70
     0
  9
$MIRRTEXT
 70
     1
  9
$DRAGMODE
 70
     2
  9
$LTSCALE
 40
1.0
  9
$OSMODE
 70
     0
  9
$ATTMODE
 70
     1
  9
$TEXTSIZE
 40
0.2
  9
$TRACEWID
 40
0.05
  9
$TEXTSTYLE
  7
STANDARD
  9
$CLAYER
  8
0
  9
$CELTYPE
  6
CONTINUOUS
  9
$CECOLOR
 62
   256
  9
$DIMSCALE
 40
1.0
  9
$DIMASZ
 40
0.18
  9
$DIMEXO
 40
0.0625
  9
$DIMDLI
 40
0.38
  9
$DIMRND
 40
0.0
  9
$DIMDLE
 40
0.0
  9
$DIMEXE
 40
0.18
  9
$DIMTP
 40
0.0
  9
$DIMTM
 40
0.0
  9
$DIMTXT
 40
0.18
  9
$DIMCEN
 40
0.09
  9
$DIMTSZ
 40
0.0
  9
$DIMTOL
 70
     0
  9
$DIMLIM
 70
     0
  9
$DIMTIH
 70
     1
  9
$DIMTOH
 70
     1
  9
$DIMSE1
 70
     0
  9
$DIMSE2
 70
     0
  9
$DIMTAD
 70
     0
  9
$DIMZIN
 70
     0
  9
$DIMBLK
  1

  9
$DIMASO
 70
     1
  9
$DIMSHO
 70
     1
  9
$DIMPOST
  1

  9
$DIMAPOST
  1

  9
$DIMALT
 70
     0
  9
$DIMALTD
 70
     2
  9
$DIMALTF
 40
25.4
  9
$DIMLFAC
 40
1.0
  9
$DIMTOFL
 70
     0
  9
$DIMTVP
 40
0.0
  9
$DIMTIX
 70
     0
  9
$DIMSOXD
 70
     0
  9
$DIMSAH
 70
     0
  9
$DIMBLK1
  1

  9
$DIMBLK2
  1

  9
$DIMSTYLE
  2
STANDARD
  9
$DIMCLRD
 70
     0
  9
$DIMCLRE
 70
     0
  9
$DIMCLRT
 70
     0
  9
$DIMTFAC
 40
1.0
  9
$DIMGAP
 40
0.09
  9
$LUNITS
 70
     2
  9
$LUPREC
 70
     4
  9
$AXISMODE
 70
     0
  9
$AXISUNIT
 10
0.0
 20
0.0
  9
$SKETCHINC
 40
0.1
  9
$FILLETRAD
 40
0.0
  9
$AUNITS
 70
     0
  9
$AUPREC
 70
     0
  9
$MENU
  1
acad
  9
$ELEVATION
 40
0.0
  9
$PELEVATION
 40
0.0
  9
$THICKNESS
 40
0.0
  9
$LIMCHECK
 70
     0
  9
$BLIPMODE
 70
     1
  9
$CHAMFERA
 40
0.0
  9
$CHAMFERB
 40
0.0
  9
$SKPOLY
 70
     0
  9
$TDCREATE
 40
2451562.619953704
  9
$TDUPDATE
 40
2451562.619953704
  9
$TDINDWG
 40
0.0000000000
  9
$TDUSRTIMER
 40
0.0000000000
  9
$USRTIMER
 70
     1
  9
$ANGBASE
 50
0.0
  9
$ANGDIR
 70
     0
  9
$PDMODE
 70
     0
  9
$PDSIZE
 40
0.0
  9
$PLINEWID
 40
0.0
  9
$COORDS
 70
     0
  9
$SPLFRAME
 70
     0
  9
$SPLINETYPE
 70
     6
  9
$SPLINESEGS
 70
    10
  9
$ATTDIA
 70
     0
  9
$ATTREQ
 70
     1
  9
$HANDLING
 70
     1
  9
$HANDSEED
  5
629
  9
$SURFTAB1
 70
     6
  9
$SURFTAB2
 70
     6
  9
$SURFTYPE
 70
     6
  9
$SURFU
 70
     6
  9
$SURFV
 70
     6
  9
$UCSNAME
  2

  9
$UCSORG
 10
0.0
 20
0.0
 30
0.0
  9
$UCSXDIR
 10
1.0
 20
0.0
 30
0.0
  9
$UCSYDIR
 10
0.0
 20
1.0
 30
0.0
  9
$PUCSNAME
  2

  9
$PUCSORG
 10
0.0
 20
0.0
 30
0.0
  9
$PUCSXDIR
 10
1.0
 20
0.0
 30
0.0
  9
$PUCSYDIR
 10
0.0
 20
1.0
 30
0.0
  9
$USERI1
 70
     0
  9
$USERI2
 70
     0
  9
$USERI3
 70
     0
  9
$USERI4
 70
     0
  9
$USERI5
 70
     0
  9
$USERR1
 40
0.0
  9
$USERR2
 40
0.0
  9
$USERR3
 40
0.0
  9
$USERR4
 40
0.0
  9
$USERR5
 40
0.0
  9
$WORLDVIEW
 70
     1
  9
$SHADEDGE
 70
     3
  9
$SHADEDIF
 70
    70
  9
$TILEMODE
 70
     1
  9
$MAXACTVP
 70
    16
  9
$PINSBASE
 10
0.0
 20
0.0
 30
0.0
  9
$PLIMCHECK
 70
     0
  9
$PEXTMIN
 10
-1.000000E+20
 20
-1.000000E+20
 30
-1.000000E+20
  9
$PEXTMAX
 10
-1.000000E+20
 20
-1.000000E+20
 30
-1.000000E+20
  9
$PLIMMIN
 10
0.0
 20
0.0
  9
$PLIMMAX
 10
12.0
 20
9.0
  9
$UNITMODE
 70
     0
  9
$VISRETAIN
 70
     0
  9
$PLINEGEN
 70
     1
  9
$PSLTSCALE
 70
     0
  9
$TREEDEPTH
 70
  3020
  9
$DWGCODEPAGE
  3
ansi_1252
  0
ENDSEC
  0
SECTION
  2
TABLES
  0
TABLE
  2
VPORT
 70
     1
  0
VPORT
  2
*ACTIVE
 70
     0
 10
0.0
 20
0.0
 11
1.0
 21
1.0
 12
0.0
 22
0.0
 13
0.0
 23
0.0
 14
0.0
 24
0.0
 15
0.0
 25
0.0
 16
0.0
 26
0.0
 36
1.0
 17
-300.600508
 27
181.651583
 37
0.0
 40
23.601
 41
1.577899
 42
50.0
 43
0.000333
 44
0.0
 50
0.0
 51
0.0
 71
     0
 72
   100
 73
     1
 74
     0
 75
     0
 76
     0
 77
     0
 78
     0
  0
ENDTAB
  0
TABLE
  2
LTYPE
 70
     7
  0
LTYPE
  2
CONTINUOUS
 70
     0
  3
Solid line
 72
    65
 73
     0
 40
0.0
  0
LTYPE
  2
DOT
 70
    64
  3
. . . . . . . . . . . . . . . . . . . . . . . . . . . . . . . . .
 72
    65
 73
     2
 40
0.25
 49
0.0
 49
-0.25
  0
LTYPE
  2
HIDDEN
 70
    64
  3
__ __ __ __ __ __ __ __ __ __ __ __ __ __ __ __ __ __ __ __ __ 
 72
    65
 73
     2
 40
0.375
 49
0.25
 49
-0.125
  0
LTYPE
  2
DASHED
 70
    64
  3
__ __ __ __ __ __ __ __ __ __ __ __ __ __ __ __ __ __ __ __ __
 72
    65
 73
     2
 40
0.75
 49
0.5
 49
-0.25
  0
LTYPE
  2
DASHDOT
 70
    64
  3
__ . __ . __ . __ . __ . __ . __ . __ . __ . __ . __ . __ . _
 72
    65
 73
     4
 40
1.0
 49
0.5
 49
-0.25
 49
0.0
 49
-0.25
  0
LTYPE
  2
DIVIDE
 70
    64
  3
____ . . ____ . . ____ . . ____ . . ____ . . ____ . . ____ . .
 72
    65
 73
     6
 40
1.25
 49
0.5
 49
-0.25
 49
0.0
 49
-0.25
 49
0.0
 49
-0.25
  0
LTYPE
  2
CENTER
 70
    64
  3
____ _ ____ _ ____ _ ____ _ ____ _ ____ _ ____ _ ____ _ ____ _
 72
    65
 73
     4
 40
2.0
 49
1.25
 49
-0.25
 49
0.25
 49
-0.25
  0
ENDTAB
  0
TABLE
  2
LAYER
 70
     7
  0
LAYER
  2
0
 70
     0
 62
     7
  6
CONTINUOUS
  0
LAYER
  2
CONSTRUCTION_CLASS
 70
     1
 62
     7
  6
CONTINUOUS
  0
LAYER
  2
PATTERN_CLASS
 70
     0
 62
     7
  6
CONTINUOUS
  0
LAYER
  2
1
 70
    64
 62
     7
  6
CONTINUOUS
  0
LAYER
  2
2
 70
    64
 62
     7
  6
CONTINUOUS
  0
LAYER
  2
8
 70
    64
 62
     7
  6
CONTINUOUS
  0
LAYER
  2
3
 70
    64
 62
     7
  6
CONTINUOUS
  0
ENDTAB
  0
TABLE
  2
STYLE
 70
     5
  0
STYLE
  2
STANDARD
 70
     0
 40
0.0
 41
1.0
 50
0.0
 71
     0
 42
0.0
  3
txt
  4

  0
STYLE
  2
txt
 70
     0
 40
0.2
 41
1.0
 50
0.0
 71
     0
 42
0.2
  3
TXT
  4

  0
STYLE
  2
MONOTXT
 70
     0
 40
0.2
 41
1.0
 50
0.0
 71
     0
 42
0.2
  3
MONOTXT
  4

  0
STYLE
  2
ROMANT
 70
     0
 40
0.2
 41
1.0
 50
0.0
 71
     0
 42
0.2
  3
ROMANT
  4

  0
STYLE
  2
ROMANS
 70
     0
 40
0.2
 41
1.0
 50
0.0
 71
     0
 42
0.2
  3
ROMANS
  4

  0
ENDTAB
  0
TABLE
  2
VIEW
 70
     0
  0
ENDTAB
  0
TABLE
  2
UCS
 70
     0
  0
ENDTAB
  0
TABLE
  2
APPID
 70
     1
  0
APPID
  2
ACAD
 70
     0
  0
ENDTAB
  0
TABLE
  2
DIMSTYLE
 70
     1
  0
DIMSTYLE
  2
STANDARD
 70
     0
  3

  4

  5

  6

  7

 40
1.0
 41
0.18
 42
0.0625
 43
0.38
 44
0.18
 45
0.0
 46
0.0
 47
0.0
 48
0.0
140
0.18
141
0.09
142
0.0
143
25.4
144
1.0
145
0.0
146
1.0
147
0.09
 71
     0
 72
     0
 73
     1
 74
     1
 75
     0
 76
     0
 77
     0
 78
     0
170
     0
171
     2
172
     0
173
     0
174
     0
175
     0
176
     0
177
     0
178
     0
  0
ENDTAB
  0
ENDSEC
  0
SECTION
  2
BLOCKS
  0
ENDSEC
  0
SECTION
  2
ENTITIES
  0
POINT
  8
1
  6
DASHED
 62
     2
  5
29
 10
-315.1705
 20
191.646083
 30
0.0
  0
LINE
  8
1
  6
DASHED
 62
     2
  5
2A
 10
-282.075167
 20
192.126083
 30
0.0
 11
-317.275167
 21
192.126083
 31
0.0
  0
LINE
  8
1
  6
DASHED
 62
     2
  5
2B
 10
-282.075167
 20
170.126083
 30
0.0
 11
-317.275167
 21
170.126083
 31
0.0
  0
LINE
  8
1
  6
DASHED
 62
     2
  5
2C
 10
-315.700167
 20
192.126083
 30
0.0
 11
-315.700167
 21
170.126083
 31
0.0
  0
LINE
  8
1
  6
CONTINUOUS
 62
     2
  5
2D
 10
-314.6585
 20
191.626083
 30
0.0
 11
-314.6585
 21
170.626083
 31
0.0
  0
LINE
  8
1
  6
CONTINUOUS
 62
     2
  5
2E
 10
-282.1585
 20
191.626083
 30
0.0
 11
-314.6585
 21
191.626083
 31
0.0
  0
LINE
  8
1
  6
CONTINUOUS
 62
     2
  5
2F
 10
-282.1585
 20
191.626083
 30
0.0
 11
-282.1585
 21
170.626083
 31
0.0
  0
LINE
  8
1
  6
CONTINUOUS
 62
     2
  5
30
 10
-282.1585
 20
170.626083
 30
0.0
 11
-314.6585
 21
170.626083
 31
0.0
  0
LINE
  8
1
  6
CONTINUOUS
 62
     2
  5
31
 10
-314.9085
 20
187.726083
 30
0.0
 11
-315.3085
 21
187.726083
 31
0.0
  0
LINE
  8
1
  6
CONTINUOUS
 62
     2
  5
32
 10
-314.9085
 20
184.926083
 30
0.0
 11
-315.3085
 21
184.926083
 31
0.0
  0
LINE
  8
1
  6
CONTINUOUS
 62
     2
  5
33
 10
-314.9085
 20
177.326083
 30
0.0
 11
-315.3085
 21
177.326083
 31
0.0
  0
LINE
  8
1
  6
CONTINUOUS
 62
     2
  5
34
 10
-314.9085
 20
174.526083
 30
0.0
 11
-315.3085
 21
174.526083
 31
0.0
  0
CIRCLE
  8
1
  6
CONTINUOUS
 62
     2
  5
35
 10
-315.1585
 20
187.726083
 30
0.0
 40
0.125
210
0.0
220
0.0
230
1.0
  0
CIRCLE
  8
1
  6
CONTINUOUS
 62
     2
  5
36
 10
-315.1585
 20
184.926083
 30
0.0
 40
0.125
210
0.0
220
0.0
230
1.0
  0
CIRCLE
  8
1
  6
CONTINUOUS
 62
     2
  5
37
 10
-315.1585
 20
177.326083
 30
0.0
 40
0.125
210
0.0
220
0.0
230
1.0
  0
CIRCLE
  8
1
  6
CONTINUOUS
 62
     2
  5
38
 10
-315.1585
 20
174.526083
 30
0.0
 40
0.125
210
0.0
220
0.0
230
1.0
  0
TEXT
  8
1
  6
CONTINUOUS
 62
     2
  5
3A
 10
-285.70275
 20
170.534333
 30
0.0
 40
0.06
  1
$$$$$$$$$FILENAME$$$$$$$$
  7
txt
 11
-285.70275
 21
170.564333
 31
0.0
210
0.0
220
0.0
230
1.0
 73
     2
  0
TEXT
  8
1
  6
CONTINUOUS
 62
     2
  5
3B
 10
-283.978667
 20
170.534333
 30
0.0
 40
0.06
  1
$USERNAME$
  7
txt
 11
-283.978667
 21
170.564333
 31
0.0
210
0.0
220
0.0
230
1.0
 73
     2
  0
TEXT
  8
1
  6
CONTINUOUS
 62
     2
  5
3C
 10
-283.205083
 20
170.534333
 30
0.0
 40
0.06
  1
DD-MMM-YYYY HH:MM
  7
txt
 11
-283.205083
 21
170.564333
 31
0.0
210
0.0
220
0.0
230
1.0
 73
     2
  0
POINT
  8
1
  6
CONTINUOUS
 62
     2
  5
3D
 10
-314.6585
 20
170.626083
 30
0.0
  0
POINT
  8
1
  6
CONTINUOUS
 62
     2
  5
3E
 10
-314.6585
 20
191.626083
 30
0.0
  0
POINT
  8
1
  6
CONTINUOUS
 62
     2
  5
3F
 10
-282.1585
 20
191.626083
 30
0.0
  0
POINT
  8
1
  6
CONTINUOUS
 62
     2
  5
40
 10
-282.1585
 20
170.626083
 30
0.0
  0
LINE
  8
1
  6
CONTINUOUS
 62
     2
  5
41
 10
-282.1585
 20
170.626083
 30
0.0
 11
-282.1585
 21
173.125083
 31
0.0
  0
LINE
  8
1
  6
CONTINUOUS
 62
     2
  5
42
 10
-282.1585
 20
174.115917
 30
0.0
 11
-288.1585
 21
174.115917
 31
0.0
  0
LINE
  8
1
  6
CONTINUOUS
 62
     2
  5
43
 10
-282.1585
 20
170.626083
 30
0.0
 11
-288.1585
 21
170.626083
 31
0.0
  0
LINE
  8
1
  6
CONTINUOUS
 62
     2
  5
44
 10
-286.620583
 20
172.525083
 30
0.0
 11
-288.1585
 21
172.525083
 31
0.0
  0
LINE
  8
1
  6
CONTINUOUS
 62
     2
  5
45
 10
-286.620583
 20
172.326083
 30
0.0
 11
-288.1585
 21
172.326083
 31
0.0
  0
LINE
  8
1
  6
CONTINUOUS
 62
     2
  5
46
 10
-286.620583
 20
172.127083
 30
0.0
 11
-288.1585
 21
172.127083
 31
0.0
  0
LINE
  8
1
  6
CONTINUOUS
 62
     2
  5
47
 10
-286.620583
 20
171.928083
 30
0.0
 11
-288.1585
 21
171.928083
 31
0.0
  0
LINE
  8
1
  6
CONTINUOUS
 62
     2
  5
48
 10
-286.620583
 20
171.729083
 30
0.0
 11
-288.1585
 21
171.729083
 31
0.0
  0
LINE
  8
1
  6
CONTINUOUS
 62
     2
  5
49
 10
-286.620583
 20
171.530083
 30
0.0
 11
-288.1585
 21
171.530083
 31
0.0
  0
LINE
  8
1
  6
CONTINUOUS
 62
     2
  5
4A
 10
-286.620583
 20
171.331083
 30
0.0
 11
-288.1585
 21
171.331083
 31
0.0
  0
LINE
  8
1
  6
CONTINUOUS
 62
     2
  5
4B
 10
-286.620583
 20
171.132083
 30
0.0
 11
-288.1585
 21
171.132083
 31
0.0
  0
LINE
  8
1
  6
CONTINUOUS
 62
     2
  5
4C
 10
-286.620583
 20
170.933083
 30
0.0
 11
-288.1585
 21
170.933083
 31
0.0
  0
TEXT
  8
1
  6
CONTINUOUS
 62
     2
  5
4E
 10
-287.851417
 20
172.572417
 30
0.0
 40
0.079
  1
REVISION DATE
 41
1.003165
  7
MONOTXT
210
0.0
220
0.0
230
1.0
  0
LINE
  8
1
  6
CONTINUOUS
 62
     2
  5
4F
 10
-288.1585
 20
172.036083
 30
0.0
 11
-288.1585
 21
170.626083
 31
0.0
  0
TEXT
  8
1
  6
CONTINUOUS
 62
     2
  5
51
 10
-287.947167
 20
173.861
 30
0.0
 40
0.1875
  1
WEST VIRGINIA DEPARTMENT OF TRANSPORTATION
  7
ROMANT
 72
     4
 11
-285.176833
 21
173.95475
 31
0.0
210
0.0
220
0.0
230
1.0
  0
TEXT
  8
1
  6
CONTINUOUS
 62
     2
  5
52
 10
-286.374333
 20
173.652083
 30
0.0
 40
0.1875
  1
DIVISION OF HIGHWAYS
  7
ROMANT
 72
     4
 11
-285.154833
 21
173.745833
 31
0.0
210
0.0
220
0.0
230
1.0
  0
TEXT
  8
1
  6
CONTINUOUS
 62
     2
  5
53
 10
-286.14425
 20
173.453917
 30
0.0
 40
0.1875
  1
STANDARD DETAIL
  7
ROMANT
 72
     4
 11
-285.166167
 21
173.547667
 31
0.0
210
0.0
220
0.0
230
1.0
  0
LINE
  8
1
  6
CONTINUOUS
 62
     2
  5
54
 10
-286.620583
 20
172.725083
 30
0.0
 11
-288.1585
 21
172.725083
 31
0.0
  0
LINE
  8
1
  6
CONTINUOUS
 62
     2
  5
55
 10
-286.620583
 20
170.626083
 30
0.0
 11
-286.620583
 21
172.725083
 31
0.0
  0
LINE
  8
1
  6
CONTINUOUS
 62
     2
  5
56
 10
-288.1585
 20
170.626083
 30
0.0
 11
-288.1585
 21
174.115917
 31
0.0
  0
TEXT
  8
1
  6
CONTINUOUS
 62
     2
  5
57
 10
-286.135833
 20
170.843167
 30
0.0
 40
0.166667
  1
STANDARD SHEET GR14      
  7
txt
 72
     4
 11
-284.0965
 21
170.9265
 31
0.0
210
0.0
220
0.0
230
1.0
  0
TEXT
  8
1
  6
CONTINUOUS
 62
   241
  5
58
 10
-286.503333
 20
172.616583
 30
0.0
 40
0.208333
  1
     STEEL GUARDRAIL    
  7
txt
 72
     4
 11
-284.053333
 21
172.72075
 31
0.0
210
0.0
220
0.0
230
1.0
  0
TEXT
  8
1
  6
CONTINUOUS
 62
   241
  5
59
 10
-286.526833
 20
172.24125
 30
0.0
 40
0.208333
  1
     POST AND BLOCK     
  7
txt
 72
     4
 11
-284.076833
 21
172.345417
 31
0.0
210
0.0
220
0.0
230
1.0
  0
TEXT
  8
1
  6
CONTINUOUS
 62
   241
  5
5A
 10
-286.143917
 20
171.890917
 30
0.0
 40
0.208333
  1
       ("C" TYPE)       
  7
txt
 72
     4
 11
-283.692333
 21
171.995083
 31
0.0
210
0.0
220
0.0
230
1.0
  0
TEXT
  8
1
  6
CONTINUOUS
 62
     2
  5
5C
 10
-288.123417
 20
172.3625
 30
0.0
 40
0.083333
  1
                  
  7
ROMANS
 72
     4
 11
-287.387333
 21
172.404167
 31
0.0
210
0.0
220
0.0
230
1.0
  0
TEXT
  8
1
  6
CONTINUOUS
 62
     2
  5
5D
 10
-288.123417
 20
172.1635
 30
0.0
 40
0.083333
  1
                  
  7
ROMANS
 72
     4
 11
-287.387333
 21
172.205167
 31
0.0
210
0.0
220
0.0
230
1.0
  0
TEXT
  8
1
  6
CONTINUOUS
 62
     2
  5
5E
 10
-288.123417
 20
171.9645
 30
0.0
 40
0.083333
  1
                  
  7
ROMANS
 72
     4
 11
-287.387333
 21
172.006167
 31
0.0
210
0.0
220
0.0
230
1.0
  0
TEXT
  8
1
  6
CONTINUOUS
 62
     2
  5
5F
 10
-288.123417
 20
171.7655
 30
0.0
 40
0.083333
  1
                  
  7
ROMANS
 72
     4
 11
-287.387333
 21
171.807167
 31
0.0
210
0.0
220
0.0
230
1.0
  0
TEXT
  8
1
  6
CONTINUOUS
 62
     2
  5
60
 10
-288.123417
 20
171.5665
 30
0.0
 40
0.083333
  1
                  
  7
ROMANS
 72
     4
 11
-287.387333
 21
171.608167
 31
0.0
210
0.0
220
0.0
230
1.0
  0
TEXT
  8
1
  6
CONTINUOUS
 62
     2
  5
61
 10
-288.123417
 20
171.3675
 30
0.0
 40
0.083333
  1
                  
  7
ROMANS
 72
     4
 11
-287.387333
 21
171.409167
 31
0.0
210
0.0
220
0.0
230
1.0
  0
TEXT
  8
1
  6
CONTINUOUS
 62
     2
  5
62
 10
-288.123417
 20
171.1685
 30
0.0
 40
0.083333
  1
                  
  7
ROMANS
 72
     4
 11
-287.387333
 21
171.210167
 31
0.0
210
0.0
220
0.0
230
1.0
  0
TEXT
  8
1
  6
CONTINUOUS
 62
     2
  5
63
 10
-288.123417
 20
170.9695
 30
0.0
 40
0.083333
  1
                  
  7
ROMANS
 72
     4
 11
-287.387333
 21
171.011167
 31
0.0
210
0.0
220
0.0
230
1.0
  0
TEXT
  8
1
  6
CONTINUOUS
 62
     2
  5
64
 10
-288.125
 20
170.765333
 30
0.0
 40
0.083333
  1
                  
  7
ROMANS
 72
     4
 11
-287.388917
 21
170.807
 31
0.0
210
0.0
220
0.0
230
1.0
  0
POINT
  8
1
  6
DASHED
 62
     2
  5
65
 10
-315.1705
 20
191.646083
 30
0.0
  0
TEXT
  8
1
  6
CONTINUOUS
 62
     2
  5
66
 10
-314.6105
 20
170.505083
 30
0.0
 40
0.06
  1
P5A1G92-STDBOR a
  7
MONOTXT
210
0.0
220
0.0
230
1.0
  0
LINE
  8
1
  6
CONTINUOUS
 62
     2
  5
67
 10
-294.09575
 20
177.572833
 30
0.0
 11
-293.201167
 21
177.572833
 31
0.0
  0
LINE
  8
1
  6
CONTINUOUS
 62
     2
  5
68
 10
-293.201167
 20
177.572833
 30
0.0
 11
-293.201167
 21
173.58275
 31
0.0
  0
LINE
  8
1
  6
CONTINUOUS
 62
     2
  5
69
 10
-293.201167
 20
173.58275
 30
0.0
 11
-293.449917
 21
173.58275
 31
0.0
  0
LINE
  8
1
  6
CONTINUOUS
 62
     2
  5
6A
 10
-294.09575
 20
173.58275
 30
0.0
 11
-294.09575
 21
177.572833
 31
0.0
  0
LINE
  8
1
  6
CONTINUOUS
 62
     2
  5
6B
 10
-293.861417
 20
173.58275
 30
0.0
 11
-293.737
 21
173.745417
 31
0.0
  0
LINE
  8
1
  6
CONTINUOUS
 62
     2
  5
6C
 10
-293.737
 20
173.745417
 30
0.0
 11
-293.56475
 21
173.4105
 31
0.0
  0
LINE
  8
1
  6
CONTINUOUS
 62
     2
  5
6D
 10
-293.56475
 20
173.4105
 30
0.0
 11
-293.449917
 21
173.58275
 31
0.0
  0
LINE
  8
1
  6
CONTINUOUS
 62
     2
  5
6E
 10
-293.861417
 20
173.58275
 30
0.0
 11
-294.09575
 21
173.58275
 31
0.0
  0
LINE
  8
2
  6
HIDDEN
 62
     2
  5
70
 10
-294.023833
 20
173.58275
 30
0.0
 11
-294.023833
 21
177.572833
 31
0.0
  0
LINE
  8
2
  6
HIDDEN
 62
     2
  5
71
 10
-293.272583
 20
173.58275
 30
0.0
 11
-293.272583
 21
177.572833
 31
0.0
  0
CIRCLE
  8
1
  6
CONTINUOUS
 62
     2
  5
72
 10
-293.929667
 20
176.216167
 30
0.0
 40
0.053477
210
0.0
220
0.0
230
1.0
  0
CIRCLE
  8
1
  6
CONTINUOUS
 62
     2
  5
73
 10
-293.366583
 20
176.216167
 30
0.0
 40
0.053477
210
0.0
220
0.0
230
1.0
  0
CIRCLE
  8
1
  6
CONTINUOUS
 62
     2
  5
74
 10
-299.863
 20
176.669667
 30
0.0
 40
0.053477
210
0.0
220
0.0
230
1.0
  0
CIRCLE
  8
1
  6
CONTINUOUS
 62
     2
  5
75
 10
-300.426083
 20
176.669667
 30
0.0
 40
0.053477
210
0.0
220
0.0
230
1.0
  0
LINE
  8
2
  6
HIDDEN
 62
     2
  5
76
 10
-299.769
 20
173.11925
 30
0.0
 11
-299.769
 21
177.109417
 31
0.0
  0
LINE
  8
2
  6
HIDDEN
 62
     2
  5
77
 10
-300.52025
 20
173.11925
 30
0.0
 11
-300.52025
 21
177.109417
 31
0.0
  0
LINE
  8
1
  6
CONTINUOUS
 62
     2
  5
78
 10
-300.289583
 20
173.11925
 30
0.0
 11
-300.592167
 21
173.11925
 31
0.0
  0
LINE
  8
1
  6
CONTINUOUS
 62
     2
  5
79
 10
-299.993
 20
172.947
 30
0.0
 11
-299.878167
 21
173.11925
 31
0.0
  0
LINE
  8
1
  6
CONTINUOUS
 62
     2
  5
7A
 10
-300.165167
 20
173.281917
 30
0.0
 11
-299.993
 21
172.947
 31
0.0
  0
LINE
  8
1
  6
CONTINUOUS
 62
     2
  5
7B
 10
-300.289583
 20
173.11925
 30
0.0
 11
-300.165167
 21
173.281917
 31
0.0
  0
LINE
  8
1
  6
CONTINUOUS
 62
     2
  5
7C
 10
-300.592167
 20
173.11925
 30
0.0
 11
-300.592167
 21
177.109417
 31
0.0
  0
LINE
  8
1
  6
CONTINUOUS
 62
     2
  5
7D
 10
-299.697583
 20
173.11925
 30
0.0
 11
-299.878167
 21
173.11925
 31
0.0
  0
LINE
  8
1
  6
CONTINUOUS
 62
     2
  5
7E
 10
-299.697583
 20
177.109417
 30
0.0
 11
-299.697583
 21
173.11925
 31
0.0
  0
LINE
  8
1
  6
CONTINUOUS
 62
     2
  5
7F
 10
-300.592167
 20
177.109417
 30
0.0
 11
-299.697583
 21
177.109417
 31
0.0
  0
CIRCLE
  8
1
  6
CONTINUOUS
 62
     2
  5
80
 10
-300.426083
 20
174.640583
 30
0.0
 40
0.053477
210
0.0
220
0.0
230
1.0
  0
CIRCLE
  8
1
  6
CONTINUOUS
 62
     2
  5
81
 10
-299.863
 20
174.640583
 30
0.0
 40
0.053477
210
0.0
220
0.0
230
1.0
  0
CIRCLE
  8
1
  6
CONTINUOUS
 62
     2
  5
82
 10
-300.889833
 20
182.70025
 30
0.0
 40
0.053477
210
0.0
220
0.0
230
1.0
  0
LINE
  8
2
  6
HIDDEN
 62
     2
  5
83
 10
-300.513833
 20
180.1295
 30
0.0
 11
-300.513833
 21
184.119667
 31
0.0
  0
LINE
  8
2
  6
HIDDEN
 62
     2
  5
84
 10
-301.265083
 20
180.1295
 30
0.0
 11
-301.265083
 21
184.119667
 31
0.0
  0
LINE
  8
1
  6
CONTINUOUS
 62
     2
  5
85
 10
-301.102583
 20
180.1295
 30
0.0
 11
-301.337
 21
180.1295
 31
0.0
  0
LINE
  8
1
  6
CONTINUOUS
 62
     2
  5
86
 10
-300.805917
 20
179.95725
 30
0.0
 11
-300.691083
 21
180.1295
 31
0.0
  0
LINE
  8
1
  6
CONTINUOUS
 62
     2
  5
87
 10
-300.978167
 20
180.292167
 30
0.0
 11
-300.805917
 21
179.95725
 31
0.0
  0
LINE
  8
1
  6
CONTINUOUS
 62
     2
  5
88
 10
-301.102583
 20
180.1295
 30
0.0
 11
-300.978167
 21
180.292167
 31
0.0
  0
LINE
  8
1
  6
CONTINUOUS
 62
     2
  5
89
 10
-301.337
 20
180.1295
 30
0.0
 11
-301.337
 21
184.119667
 31
0.0
  0
LINE
  8
1
  6
CONTINUOUS
 62
     2
  5
8A
 10
-300.442333
 20
180.1295
 30
0.0
 11
-300.691083
 21
180.1295
 31
0.0
  0
LINE
  8
1
  6
CONTINUOUS
 62
     2
  5
8B
 10
-300.442333
 20
184.119667
 30
0.0
 11
-300.442333
 21
180.1295
 31
0.0
  0
LINE
  8
1
  6
CONTINUOUS
 62
     2
  5
8C
 10
-301.337
 20
184.119667
 30
0.0
 11
-300.442333
 21
184.119667
 31
0.0
  0
CIRCLE
  8
1
  6
CONTINUOUS
 62
     2
  5
8D
 10
-305.3275
 20
176.146917
 30
0.0
 40
0.053477
210
0.0
220
0.0
230
1.0
  0
CIRCLE
  8
1
  6
CONTINUOUS
 62
     2
  5
8E
 10
-305.720417
 20
176.146917
 30
0.0
 40
0.053477
210
0.0
220
0.0
230
1.0
  0
LINE
  8
2
  6
HIDDEN
 62
     2
  5
8F
 10
-305.152917
 20
173.603
 30
0.0
 11
-305.152917
 21
177.593167
 31
0.0
  0
LINE
  8
2
  6
HIDDEN
 62
     2
  5
90
 10
-305.904167
 20
173.603
 30
0.0
 11
-305.904167
 21
177.593167
 31
0.0
  0
LINE
  8
1
  6
CONTINUOUS
 62
     2
  5
91
 10
-305.670083
 20
173.603
 30
0.0
 11
-305.976083
 21
173.603
 31
0.0
  0
LINE
  8
1
  6
CONTINUOUS
 62
     2
  5
92
 10
-305.445083
 20
173.43075
 30
0.0
 11
-305.33025
 21
173.603
 31
0.0
  0
LINE
  8
1
  6
CONTINUOUS
 62
     2
  5
93
 10
-305.599417
 20
173.720917
 30
0.0
 11
-305.445083
 21
173.43075
 31
0.0
  0
LINE
  8
1
  6
CONTINUOUS
 62
     2
  5
94
 10
-305.670083
 20
173.603
 30
0.0
 11
-305.599417
 21
173.720917
 31
0.0
  0
LINE
  8
1
  6
CONTINUOUS
 62
     2
  5
95
 10
-305.976083
 20
173.603
 30
0.0
 11
-305.976083
 21
177.593167
 31
0.0
  0
LINE
  8
1
  6
CONTINUOUS
 62
     2
  5
96
 10
-305.081417
 20
173.603
 30
0.0
 11
-305.33025
 21
173.603
 31
0.0
  0
LINE
  8
1
  6
CONTINUOUS
 62
     2
  5
97
 10
-305.081417
 20
177.593167
 30
0.0
 11
-305.081417
 21
173.603
 31
0.0
  0
LINE
  8
1
  6
CONTINUOUS
 62
     2
  5
98
 10
-305.976083
 20
177.593167
 30
0.0
 11
-305.081417
 21
177.593167
 31
0.0
  0
CIRCLE
  8
1
  6
CONTINUOUS
 62
     2
  5
99
 10
-305.360667
 20
182.328583
 30
0.0
 40
0.053477
210
0.0
220
0.0
230
1.0
  0
CIRCLE
  8
1
  6
CONTINUOUS
 62
     2
  5
9A
 10
-305.777583
 20
184.102167
 30
0.0
 40
0.053477
210
0.0
220
0.0
230
1.0
  0
LINE
  8
2
  6
HIDDEN
 62
     2
  5
9B
 10
-305.20825
 20
180.542917
 30
0.0
 11
-305.20825
 21
184.533083
 31
0.0
  0
LINE
  8
2
  6
HIDDEN
 62
     2
  5
9C
 10
-305.9595
 20
180.542917
 30
0.0
 11
-305.9595
 21
184.533083
 31
0.0
  0
LINE
  8
1
  6
CONTINUOUS
 62
     2
  5
9D
 10
-305.797
 20
180.542917
 30
0.0
 11
-306.031417
 21
180.542917
 31
0.0
  0
LINE
  8
1
  6
CONTINUOUS
 62
     2
  5
9E
 10
-305.500417
 20
180.37075
 30
0.0
 11
-305.385583
 21
180.542917
 31
0.0
  0
LINE
  8
1
  6
CONTINUOUS
 62
     2
  5
9F
 10
-305.672667
 20
180.705583
 30
0.0
 11
-305.500417
 21
180.37075
 31
0.0
  0
LINE
  8
1
  6
CONTINUOUS
 62
     2
  5
A0
 10
-305.797
 20
180.542917
 30
0.0
 11
-305.672667
 21
180.705583
 31
0.0
  0
LINE
  8
1
  6
CONTINUOUS
 62
     2
  5
A1
 10
-306.031417
 20
180.542917
 30
0.0
 11
-306.031417
 21
184.533083
 31
0.0
  0
LINE
  8
1
  6
CONTINUOUS
 62
     2
  5
A2
 10
-305.13675
 20
180.542917
 30
0.0
 11
-305.385583
 21
180.542917
 31
0.0
  0
LINE
  8
1
  6
CONTINUOUS
 62
     2
  5
A3
 10
-305.13675
 20
184.533083
 30
0.0
 11
-305.13675
 21
180.542917
 31
0.0
  0
LINE
  8
1
  6
CONTINUOUS
 62
     2
  5
A4
 10
-306.031417
 20
184.533083
 30
0.0
 11
-305.13675
 21
184.533083
 31
0.0
  0
LINE
  8
1
  6
CONTINUOUS
 62
     2
  5
A5
 10
-298.287333
 20
189.41475
 30
0.0
 11
-298.287333
 21
186.458333
 31
0.0
  0
LINE
  8
1
  6
CONTINUOUS
 62
     2
  5
A6
 10
-298.287333
 20
186.458333
 30
0.0
 11
-298.227417
 21
186.476333
 31
0.0
  0
LINE
  8
1
  6
CONTINUOUS
 62
     2
  5
A7
 10
-298.227417
 20
186.476333
 30
0.0
 11
-298.197417
 21
186.452333
 31
0.0
  0
LINE
  8
1
  6
CONTINUOUS
 62
     2
  5
A8
 10
-298.197417
 20
186.452333
 30
0.0
 11
-298.149417
 21
186.500333
 31
0.0
  0
LINE
  8
1
  6
CONTINUOUS
 62
     2
  5
A9
 10
-298.149417
 20
186.500333
 30
0.0
 11
-298.113417
 21
186.446333
 31
0.0
  0
LINE
  8
1
  6
CONTINUOUS
 62
     2
  5
AA
 10
-298.113417
 20
186.446333
 30
0.0
 11
-298.0655
 21
186.464333
 31
0.0
  0
LINE
  8
1
  6
CONTINUOUS
 62
     2
  5
AB
 10
-298.0655
 20
186.464333
 30
0.0
 11
-297.9875
 21
186.458333
 31
0.0
  0
LINE
  8
1
  6
CONTINUOUS
 62
     2
  5
AC
 10
-297.9875
 20
186.458333
 30
0.0
 11
-297.963583
 21
186.494333
 31
0.0
  0
LINE
  8
1
  6
CONTINUOUS
 62
     2
  5
AD
 10
-297.963583
 20
186.494333
 30
0.0
 11
-297.915583
 21
186.446333
 31
0.0
  0
LINE
  8
1
  6
CONTINUOUS
 62
     2
  5
AE
 10
-297.915583
 20
186.446333
 30
0.0
 11
-297.873583
 21
186.482333
 31
0.0
  0
LINE
  8
1
  6
CONTINUOUS
 62
     2
  5
AF
 10
-297.873583
 20
186.482333
 30
0.0
 11
-297.813667
 21
186.464333
 31
0.0
  0
LINE
  8
1
  6
CONTINUOUS
 62
     2
  5
B0
 10
-297.813667
 20
186.464333
 30
0.0
 11
-297.795667
 21
186.500333
 31
0.0
  0
LINE
  8
1
  6
CONTINUOUS
 62
     2
  5
B1
 10
-297.795667
 20
186.500333
 30
0.0
 11
-297.741667
 21
186.476333
 31
0.0
  0
LINE
  8
1
  6
CONTINUOUS
 62
     2
  5
B2
 10
-297.741667
 20
186.476333
 30
0.0
 11
-297.67575
 21
186.500333
 31
0.0
  0
LINE
  8
1
  6
CONTINUOUS
 62
     2
  5
B3
 10
-297.67575
 20
186.500333
 30
0.0
 11
-297.62775
 21
186.452333
 31
0.0
  0
LINE
  8
1
  6
CONTINUOUS
 62
     2
  5
B4
 10
-297.62775
 20
186.452333
 30
0.0
 11
-297.59775
 21
186.494333
 31
0.0
  0
LINE
  8
1
  6
CONTINUOUS
 62
     2
  5
B5
 10
-297.59775
 20
186.494333
 30
0.0
 11
-297.54975
 21
186.452333
 31
0.0
  0
LINE
  8
1
  6
CONTINUOUS
 62
     2
  5
B6
 10
-297.54975
 20
186.452333
 30
0.0
 11
-297.54975
 21
189.45675
 31
0.0
  0
LINE
  8
1
  6
CONTINUOUS
 62
     2
  5
B7
 10
-297.54975
 20
189.45675
 30
0.0
 11
-297.60375
 21
189.41475
 31
0.0
  0
LINE
  8
1
  6
CONTINUOUS
 62
     2
  5
B8
 10
-297.60375
 20
189.41475
 30
0.0
 11
-297.63375
 21
189.40875
 31
0.0
  0
LINE
  8
1
  6
CONTINUOUS
 62
     2
  5
B9
 10
-297.63375
 20
189.40875
 30
0.0
 11
-297.64575
 21
189.42675
 31
0.0
  0
LINE
  8
1
  6
CONTINUOUS
 62
     2
  5
BA
 10
-297.64575
 20
189.42675
 30
0.0
 11
-297.687667
 21
189.41475
 31
0.0
  0
LINE
  8
1
  6
CONTINUOUS
 62
     2
  5
BB
 10
-297.687667
 20
189.41475
 30
0.0
 11
-297.729667
 21
189.384833
 31
0.0
  0
LINE
  8
1
  6
CONTINUOUS
 62
     2
  5
BC
 10
-297.729667
 20
189.384833
 30
0.0
 11
-297.723667
 21
189.44475
 31
0.0
  0
LINE
  8
1
  6
CONTINUOUS
 62
     2
  5
BD
 10
-297.723667
 20
189.44475
 30
0.0
 11
-297.753667
 21
189.40875
 31
0.0
  0
LINE
  8
1
  6
CONTINUOUS
 62
     2
  5
BE
 10
-297.753667
 20
189.40875
 30
0.0
 11
-297.789667
 21
189.390833
 31
0.0
  0
LINE
  8
1
  6
CONTINUOUS
 62
     2
  5
BF
 10
-297.789667
 20
189.390833
 30
0.0
 11
-297.801667
 21
189.42075
 31
0.0
  0
LINE
  8
1
  6
CONTINUOUS
 62
     2
  5
C0
 10
-297.801667
 20
189.42075
 30
0.0
 11
-297.825583
 21
189.43875
 31
0.0
  0
LINE
  8
1
  6
CONTINUOUS
 62
     2
  5
C1
 10
-297.825583
 20
189.43875
 30
0.0
 11
-297.855583
 21
189.42075
 31
0.0
  0
LINE
  8
1
  6
CONTINUOUS
 62
     2
  5
C2
 10
-297.855583
 20
189.42075
 30
0.0
 11
-297.879583
 21
189.378833
 31
0.0
  0
LINE
  8
1
  6
CONTINUOUS
 62
     2
  5
C3
 10
-297.879583
 20
189.378833
 30
0.0
 11
-297.897583
 21
189.42075
 31
0.0
  0
LINE
  8
1
  6
CONTINUOUS
 62
     2
  5
C4
 10
-297.897583
 20
189.42075
 30
0.0
 11
-297.909583
 21
189.42075
 31
0.0
  0
LINE
  8
1
  6
CONTINUOUS
 62
     2
  5
C5
 10
-297.909583
 20
189.42075
 30
0.0
 11
-297.933583
 21
189.384833
 31
0.0
  0
LINE
  8
1
  6
CONTINUOUS
 62
     2
  5
C6
 10
-297.933583
 20
189.384833
 30
0.0
 11
-297.945583
 21
189.42675
 31
0.0
  0
LINE
  8
1
  6
CONTINUOUS
 62
     2
  5
C7
 10
-297.945583
 20
189.42675
 30
0.0
 11
-297.9695
 21
189.42075
 31
0.0
  0
LINE
  8
1
  6
CONTINUOUS
 62
     2
  5
C8
 10
-297.9695
 20
189.42075
 30
0.0
 11
-298.0055
 21
189.378833
 31
0.0
  0
LINE
  8
1
  6
CONTINUOUS
 62
     2
  5
C9
 10
-298.0055
 20
189.378833
 30
0.0
 11
-298.0295
 21
189.396833
 31
0.0
  0
LINE
  8
1
  6
CONTINUOUS
 62
     2
  5
CA
 10
-298.0295
 20
189.396833
 30
0.0
 11
-298.0355
 21
189.43875
 31
0.0
  0
LINE
  8
1
  6
CONTINUOUS
 62
     2
  5
CB
 10
-298.0355
 20
189.43875
 30
0.0
 11
-298.0595
 21
189.41475
 31
0.0
  0
LINE
  8
1
  6
CONTINUOUS
 62
     2
  5
CC
 10
-298.0595
 20
189.41475
 30
0.0
 11
-298.0955
 21
189.396833
 31
0.0
  0
LINE
  8
1
  6
CONTINUOUS
 62
     2
  5
CD
 10
-298.0955
 20
189.396833
 30
0.0
 11
-298.125417
 21
189.40875
 31
0.0
  0
LINE
  8
1
  6
CONTINUOUS
 62
     2
  5
CE
 10
-298.125417
 20
189.40875
 30
0.0
 11
-298.119417
 21
189.43275
 31
0.0
  0
LINE
  8
1
  6
CONTINUOUS
 62
     2
  5
CF
 10
-298.119417
 20
189.43275
 30
0.0
 11
-298.161417
 21
189.390833
 31
0.0
  0
LINE
  8
1
  6
CONTINUOUS
 62
     2
  5
D0
 10
-298.161417
 20
189.390833
 30
0.0
 11
-298.191417
 21
189.384833
 31
0.0
  0
LINE
  8
1
  6
CONTINUOUS
 62
     2
  5
D1
 10
-298.191417
 20
189.384833
 30
0.0
 11
-298.209417
 21
189.40875
 31
0.0
  0
LINE
  8
1
  6
CONTINUOUS
 62
     2
  5
D2
 10
-298.209417
 20
189.40875
 30
0.0
 11
-298.221417
 21
189.396833
 31
0.0
  0
LINE
  8
1
  6
CONTINUOUS
 62
     2
  5
D3
 10
-298.221417
 20
189.396833
 30
0.0
 11
-298.245417
 21
189.402833
 31
0.0
  0
LINE
  8
1
  6
CONTINUOUS
 62
     2
  5
D4
 10
-298.245417
 20
189.402833
 30
0.0
 11
-298.257333
 21
189.43275
 31
0.0
  0
LINE
  8
1
  6
CONTINUOUS
 62
     2
  5
D5
 10
-298.257333
 20
189.43275
 30
0.0
 11
-298.287333
 21
189.41475
 31
0.0
  0
LINE
  8
1
  6
CONTINUOUS
 62
     2
  5
D6
 10
-294.015417
 20
189.47475
 30
0.0
 11
-294.045417
 21
189.45675
 31
0.0
  0
LINE
  8
1
  6
CONTINUOUS
 62
     2
  5
D7
 10
-294.003417
 20
189.44475
 30
0.0
 11
-294.015417
 21
189.47475
 31
0.0
  0
LINE
  8
1
  6
CONTINUOUS
 62
     2
  5
D8
 10
-293.979417
 20
189.43875
 30
0.0
 11
-294.003417
 21
189.44475
 31
0.0
  0
LINE
  8
1
  6
CONTINUOUS
 62
     2
  5
D9
 10
-293.967417
 20
189.45075
 30
0.0
 11
-293.979417
 21
189.43875
 31
0.0
  0
LINE
  8
1
  6
CONTINUOUS
 62
     2
  5
DA
 10
-293.9495
 20
189.426833
 30
0.0
 11
-293.967417
 21
189.45075
 31
0.0
  0
LINE
  8
1
  6
CONTINUOUS
 62
     2
  5
DB
 10
-293.9195
 20
189.432833
 30
0.0
 11
-293.9495
 21
189.426833
 31
0.0
  0
LINE
  8
1
  6
CONTINUOUS
 62
     2
  5
DC
 10
-293.8775
 20
189.47475
 30
0.0
 11
-293.9195
 21
189.432833
 31
0.0
  0
LINE
  8
1
  6
CONTINUOUS
 62
     2
  5
DD
 10
-293.8835
 20
189.45075
 30
0.0
 11
-293.8775
 21
189.47475
 31
0.0
  0
LINE
  8
1
  6
CONTINUOUS
 62
     2
  5
DE
 10
-293.8535
 20
189.43875
 30
0.0
 11
-293.8835
 21
189.45075
 31
0.0
  0
LINE
  8
1
  6
CONTINUOUS
 62
     2
  5
DF
 10
-293.8175
 20
189.45675
 30
0.0
 11
-293.8535
 21
189.43875
 31
0.0
  0
LINE
  8
1
  6
CONTINUOUS
 62
     2
  5
E0
 10
-293.793583
 20
189.48075
 30
0.0
 11
-293.8175
 21
189.45675
 31
0.0
  0
LINE
  8
1
  6
CONTINUOUS
 62
     2
  5
E1
 10
-293.787583
 20
189.43875
 30
0.0
 11
-293.793583
 21
189.48075
 31
0.0
  0
LINE
  8
1
  6
CONTINUOUS
 62
     2
  5
E2
 10
-293.763583
 20
189.420833
 30
0.0
 11
-293.787583
 21
189.43875
 31
0.0
  0
LINE
  8
1
  6
CONTINUOUS
 62
     2
  5
E3
 10
-293.727583
 20
189.46275
 30
0.0
 11
-293.763583
 21
189.420833
 31
0.0
  0
LINE
  8
1
  6
CONTINUOUS
 62
     2
  5
E4
 10
-293.703583
 20
189.46875
 30
0.0
 11
-293.727583
 21
189.46275
 31
0.0
  0
LINE
  8
1
  6
CONTINUOUS
 62
     2
  5
E5
 10
-293.691583
 20
189.426833
 30
0.0
 11
-293.703583
 21
189.46875
 31
0.0
  0
LINE
  8
1
  6
CONTINUOUS
 62
     2
  5
E6
 10
-293.667667
 20
189.46275
 30
0.0
 11
-293.691583
 21
189.426833
 31
0.0
  0
LINE
  8
1
  6
CONTINUOUS
 62
     2
  5
E7
 10
-293.655667
 20
189.46275
 30
0.0
 11
-293.667667
 21
189.46275
 31
0.0
  0
LINE
  8
1
  6
CONTINUOUS
 62
     2
  5
E8
 10
-293.637667
 20
189.420833
 30
0.0
 11
-293.655667
 21
189.46275
 31
0.0
  0
LINE
  8
1
  6
CONTINUOUS
 62
     2
  5
E9
 10
-293.613667
 20
189.46275
 30
0.0
 11
-293.637667
 21
189.420833
 31
0.0
  0
LINE
  8
1
  6
CONTINUOUS
 62
     2
  5
EA
 10
-293.583667
 20
189.48075
 30
0.0
 11
-293.613667
 21
189.46275
 31
0.0
  0
LINE
  8
1
  6
CONTINUOUS
 62
     2
  5
EB
 10
-293.559667
 20
189.46275
 30
0.0
 11
-293.583667
 21
189.48075
 31
0.0
  0
LINE
  8
1
  6
CONTINUOUS
 62
     2
  5
EC
 10
-293.547667
 20
189.432833
 30
0.0
 11
-293.559667
 21
189.46275
 31
0.0
  0
LINE
  8
1
  6
CONTINUOUS
 62
     2
  5
ED
 10
-293.51175
 20
189.45075
 30
0.0
 11
-293.547667
 21
189.432833
 31
0.0
  0
LINE
  8
1
  6
CONTINUOUS
 62
     2
  5
EE
 10
-293.48175
 20
189.48675
 30
0.0
 11
-293.51175
 21
189.45075
 31
0.0
  0
LINE
  8
1
  6
CONTINUOUS
 62
     2
  5
EF
 10
-293.48775
 20
189.426833
 30
0.0
 11
-293.48175
 21
189.48675
 31
0.0
  0
LINE
  8
1
  6
CONTINUOUS
 62
     2
  5
F0
 10
-293.44575
 20
189.45675
 30
0.0
 11
-293.48775
 21
189.426833
 31
0.0
  0
LINE
  8
1
  6
CONTINUOUS
 62
     2
  5
F1
 10
-293.40375
 20
189.46875
 30
0.0
 11
-293.44575
 21
189.45675
 31
0.0
  0
LINE
  8
1
  6
CONTINUOUS
 62
     2
  5
F2
 10
-293.39175
 20
189.45075
 30
0.0
 11
-293.40375
 21
189.46875
 31
0.0
  0
LINE
  8
1
  6
CONTINUOUS
 62
     2
  5
F3
 10
-293.361833
 20
189.45675
 30
0.0
 11
-293.39175
 21
189.45075
 31
0.0
  0
LINE
  8
1
  6
CONTINUOUS
 62
     2
  5
F4
 10
-293.307833
 20
189.49875
 30
0.0
 11
-293.361833
 21
189.45675
 31
0.0
  0
LINE
  8
1
  6
CONTINUOUS
 62
     2
  5
F5
 10
-293.307833
 20
186.477583
 30
0.0
 11
-293.307833
 21
189.49875
 31
0.0
  0
LINE
  8
1
  6
CONTINUOUS
 62
     2
  5
F6
 10
-293.355833
 20
186.519583
 30
0.0
 11
-293.307833
 21
186.477583
 31
0.0
  0
LINE
  8
1
  6
CONTINUOUS
 62
     2
  5
F7
 10
-293.38575
 20
186.477583
 30
0.0
 11
-293.355833
 21
186.519583
 31
0.0
  0
LINE
  8
1
  6
CONTINUOUS
 62
     2
  5
F8
 10
-293.43375
 20
186.525583
 30
0.0
 11
-293.38575
 21
186.477583
 31
0.0
  0
LINE
  8
1
  6
CONTINUOUS
 62
     2
  5
F9
 10
-293.49975
 20
186.501583
 30
0.0
 11
-293.43375
 21
186.525583
 31
0.0
  0
LINE
  8
1
  6
CONTINUOUS
 62
     2
  5
FA
 10
-293.553667
 20
186.525583
 30
0.0
 11
-293.49975
 21
186.501583
 31
0.0
  0
LINE
  8
1
  6
CONTINUOUS
 62
     2
  5
FB
 10
-293.571667
 20
186.489583
 30
0.0
 11
-293.553667
 21
186.525583
 31
0.0
  0
LINE
  8
1
  6
CONTINUOUS
 62
     2
  5
FC
 10
-293.631667
 20
186.507583
 30
0.0
 11
-293.571667
 21
186.489583
 31
0.0
  0
LINE
  8
1
  6
CONTINUOUS
 62
     2
  5
FD
 10
-293.673583
 20
186.471583
 30
0.0
 11
-293.631667
 21
186.507583
 31
0.0
  0
LINE
  8
1
  6
CONTINUOUS
 62
     2
  5
FE
 10
-293.721583
 20
186.519583
 30
0.0
 11
-293.673583
 21
186.471583
 31
0.0
  0
LINE
  8
1
  6
CONTINUOUS
 62
     2
  5
FF
 10
-293.745583
 20
186.483583
 30
0.0
 11
-293.721583
 21
186.519583
 31
0.0
  0
LINE
  8
1
  6
CONTINUOUS
 62
     2
  5
100
 10
-293.8235
 20
186.489583
 30
0.0
 11
-293.745583
 21
186.483583
 31
0.0
  0
LINE
  8
1
  6
CONTINUOUS
 62
     2
  5
101
 10
-293.8715
 20
186.471583
 30
0.0
 11
-293.8235
 21
186.489583
 31
0.0
  0
LINE
  8
1
  6
CONTINUOUS
 62
     2
  5
102
 10
-293.9075
 20
186.525583
 30
0.0
 11
-293.8715
 21
186.471583
 31
0.0
  0
LINE
  8
1
  6
CONTINUOUS
 62
     2
  5
103
 10
-293.955417
 20
186.477583
 30
0.0
 11
-293.9075
 21
186.525583
 31
0.0
  0
LINE
  8
1
  6
CONTINUOUS
 62
     2
  5
104
 10
-293.985417
 20
186.501583
 30
0.0
 11
-293.955417
 21
186.477583
 31
0.0
  0
LINE
  8
1
  6
CONTINUOUS
 62
     2
  5
105
 10
-294.045417
 20
186.483583
 30
0.0
 11
-293.985417
 21
186.501583
 31
0.0
  0
LINE
  8
1
  6
CONTINUOUS
 62
     2
  5
106
 10
-294.045417
 20
189.45675
 30
0.0
 11
-294.045417
 21
186.483583
 31
0.0
  0
LINE
  8
1
  6
CONTINUOUS
 62
     2
  5
107
 10
-297.40975
 20
187.68125
 30
0.0
 11
-297.2435
 21
187.68125
 31
0.0
  0
ARC
  8
1
  6
CONTINUOUS
 62
     2
  5
108
 10
-297.40975
 20
187.707917
 30
0.0
 40
0.026621
 50
180.0
 51
270.0
210
0.0
220
0.0
230
1.0
  0
LINE
  8
1
  6
CONTINUOUS
 62
     2
  5
109
 10
-297.436417
 20
188.291167
 30
0.0
 11
-297.436417
 21
187.707917
 31
0.0
  0
ARC
  8
1
  6
CONTINUOUS
 62
     2
  5
10A
 10
-297.40975
 20
188.291167
 30
0.0
 40
0.026621
 50
90.0
 51
180.0
210
0.0
220
0.0
230
1.0
  0
LINE
  8
1
  6
CONTINUOUS
 62
     2
  5
10B
 10
-296.544167
 20
188.31775
 30
0.0
 11
-297.40975
 21
188.31775
 31
0.0
  0
ARC
  8
1
  6
CONTINUOUS
 62
     2
  5
10C
 10
-296.544167
 20
188.291167
 30
0.0
 40
0.026621
 50
0.0
 51
90.0
210
0.0
220
0.0
230
1.0
  0
LINE
  8
1
  6
CONTINUOUS
 62
     2
  5
10D
 10
-296.5175
 20
187.707917
 30
0.0
 11
-296.5175
 21
188.291167
 31
0.0
  0
ARC
  8
1
  6
CONTINUOUS
 62
     2
  5
10E
 10
-296.544167
 20
187.707917
 30
0.0
 40
0.026621
 50
270.0
 51
360.0
210
0.0
220
0.0
230
1.0
  0
LINE
  8
1
  6
CONTINUOUS
 62
     2
  5
10F
 10
-296.720417
 20
187.68125
 30
0.0
 11
-296.544167
 21
187.68125
 31
0.0
  0
LINE
  8
1
  6
CONTINUOUS
 62
     2
  5
110
 10
-296.720417
 20
187.567917
 30
0.0
 11
-296.544167
 21
187.567917
 31
0.0
  0
LINE
  8
1
  6
CONTINUOUS
 62
     2
  5
111
 10
-297.2435
 20
187.68125
 30
0.0
 11
-297.2435
 21
187.567917
 31
0.0
  0
LINE
  8
1
  6
CONTINUOUS
 62
     2
  5
112
 10
-296.720417
 20
187.567917
 30
0.0
 11
-296.720417
 21
187.68125
 31
0.0
  0
ARC
  8
1
  6
CONTINUOUS
 62
     2
  5
113
 10
-296.544167
 20
188.291167
 30
0.0
 40
0.14
 50
0.0
 51
90.0
210
0.0
220
0.0
230
1.0
  0
ARC
  8
1
  6
CONTINUOUS
 62
     2
  5
114
 10
-297.40975
 20
188.291167
 30
0.0
 40
0.14
 50
90.0
 51
180.0
210
0.0
220
0.0
230
1.0
  0
ARC
  8
1
  6
CONTINUOUS
 62
     2
  5
115
 10
-297.40975
 20
187.707917
 30
0.0
 40
0.14
 50
180.0
 51
270.0
210
0.0
220
0.0
230
1.0
  0
ARC
  8
1
  6
CONTINUOUS
 62
     2
  5
116
 10
-296.544167
 20
187.707917
 30
0.0
 40
0.14
 50
270.0
 51
360.0
210
0.0
220
0.0
230
1.0
  0
LINE
  8
1
  6
CONTINUOUS
 62
     2
  5
117
 10
-297.40975
 20
187.567917
 30
0.0
 11
-297.2435
 21
187.567917
 31
0.0
  0
LINE
  8
1
  6
CONTINUOUS
 62
     2
  5
118
 10
-297.54975
 20
188.291167
 30
0.0
 11
-297.54975
 21
187.707917
 31
0.0
  0
LINE
  8
1
  6
CONTINUOUS
 62
     2
  5
119
 10
-296.544167
 20
188.431167
 30
0.0
 11
-297.40975
 21
188.431167
 31
0.0
  0
LINE
  8
1
  6
CONTINUOUS
 62
     2
  5
11A
 10
-296.404167
 20
187.707917
 30
0.0
 11
-296.404167
 21
188.291167
 31
0.0
  0
LINE
  8
1
  6
CONTINUOUS
 62
     2
  5
11B
 10
-295.331
 20
188.31775
 30
0.0
 11
-295.497333
 21
188.31775
 31
0.0
  0
ARC
  8
1
  6
CONTINUOUS
 62
     2
  5
11C
 10
-295.331
 20
188.291167
 30
0.0
 40
0.026621
 50
0.0
 51
90.0
210
0.0
220
0.0
230
1.0
  0
LINE
  8
1
  6
CONTINUOUS
 62
     2
  5
11D
 10
-295.304417
 20
187.707917
 30
0.0
 11
-295.304417
 21
188.291167
 31
0.0
  0
ARC
  8
1
  6
CONTINUOUS
 62
     2
  5
11E
 10
-295.331
 20
187.707917
 30
0.0
 40
0.026621
 50
270.0
 51
360.0
210
0.0
220
0.0
230
1.0
  0
LINE
  8
1
  6
CONTINUOUS
 62
     2
  5
11F
 10
-296.264167
 20
187.68125
 30
0.0
 11
-295.331
 21
187.68125
 31
0.0
  0
ARC
  8
1
  6
CONTINUOUS
 62
     2
  5
120
 10
-296.264167
 20
187.707917
 30
0.0
 40
0.026621
 50
180.0
 51
270.0
210
0.0
220
0.0
230
1.0
  0
LINE
  8
1
  6
CONTINUOUS
 62
     2
  5
121
 10
-296.29075
 20
188.291167
 30
0.0
 11
-296.29075
 21
187.707917
 31
0.0
  0
ARC
  8
1
  6
CONTINUOUS
 62
     2
  5
122
 10
-296.264167
 20
188.291167
 30
0.0
 40
0.026621
 50
90.0
 51
180.0
210
0.0
220
0.0
230
1.0
  0
LINE
  8
1
  6
CONTINUOUS
 62
     2
  5
123
 10
-296.087917
 20
188.31775
 30
0.0
 11
-296.264167
 21
188.31775
 31
0.0
  0
LINE
  8
1
  6
CONTINUOUS
 62
     2
  5
124
 10
-296.087917
 20
188.431167
 30
0.0
 11
-296.264167
 21
188.431167
 31
0.0
  0
LINE
  8
1
  6
CONTINUOUS
 62
     2
  5
125
 10
-295.497333
 20
188.31775
 30
0.0
 11
-295.497333
 21
188.431167
 31
0.0
  0
LINE
  8
1
  6
CONTINUOUS
 62
     2
  5
126
 10
-296.087917
 20
188.431167
 30
0.0
 11
-296.087917
 21
188.31775
 31
0.0
  0
ARC
  8
1
  6
CONTINUOUS
 62
     2
  5
127
 10
-296.264167
 20
187.707917
 30
0.0
 40
0.14
 50
180.0
 51
270.0
210
0.0
220
0.0
230
1.0
  0
ARC
  8
1
  6
CONTINUOUS
 62
     2
  5
128
 10
-295.331
 20
187.707917
 30
0.0
 40
0.14
 50
270.0
 51
360.0
210
0.0
220
0.0
230
1.0
  0
ARC
  8
1
  6
CONTINUOUS
 62
     2
  5
129
 10
-295.331
 20
188.291167
 30
0.0
 40
0.14
 50
0.0
 51
90.0
210
0.0
220
0.0
230
1.0
  0
ARC
  8
1
  6
CONTINUOUS
 62
     2
  5
12A
 10
-296.264167
 20
188.291167
 30
0.0
 40
0.14
 50
90.0
 51
180.0
210
0.0
220
0.0
230
1.0
  0
LINE
  8
1
  6
CONTINUOUS
 62
     2
  5
12B
 10
-295.331
 20
188.431167
 30
0.0
 11
-295.497333
 21
188.431167
 31
0.0
  0
LINE
  8
1
  6
CONTINUOUS
 62
     2
  5
12C
 10
-295.191
 20
187.707917
 30
0.0
 11
-295.191
 21
188.291167
 31
0.0
  0
LINE
  8
1
  6
CONTINUOUS
 62
     2
  5
12D
 10
-296.264167
 20
187.567917
 30
0.0
 11
-295.331
 21
187.567917
 31
0.0
  0
LINE
  8
1
  6
CONTINUOUS
 62
     2
  5
12E
 10
-296.404167
 20
188.291167
 30
0.0
 11
-296.404167
 21
187.707917
 31
0.0
  0
LINE
  8
1
  6
CONTINUOUS
 62
     2
  5
12F
 10
-294.185417
 20
188.31775
 30
0.0
 11
-294.351667
 21
188.31775
 31
0.0
  0
ARC
  8
1
  6
CONTINUOUS
 62
     2
  5
130
 10
-294.185417
 20
188.291167
 30
0.0
 40
0.026621
 50
0.0
 51
90.0
210
0.0
220
0.0
230
1.0
  0
LINE
  8
1
  6
CONTINUOUS
 62
     2
  5
131
 10
-294.15875
 20
187.707917
 30
0.0
 11
-294.15875
 21
188.291167
 31
0.0
  0
ARC
  8
1
  6
CONTINUOUS
 62
     2
  5
132
 10
-294.185417
 20
187.707917
 30
0.0
 40
0.026621
 50
270.0
 51
360.0
210
0.0
220
0.0
230
1.0
  0
LINE
  8
1
  6
CONTINUOUS
 62
     2
  5
133
 10
-295.051
 20
187.68125
 30
0.0
 11
-294.185417
 21
187.68125
 31
0.0
  0
ARC
  8
1
  6
CONTINUOUS
 62
     2
  5
134
 10
-295.051
 20
187.707917
 30
0.0
 40
0.026621
 50
180.0
 51
270.0
210
0.0
220
0.0
230
1.0
  0
LINE
  8
1
  6
CONTINUOUS
 62
     2
  5
135
 10
-295.077667
 20
188.291167
 30
0.0
 11
-295.077667
 21
187.707917
 31
0.0
  0
ARC
  8
1
  6
CONTINUOUS
 62
     2
  5
136
 10
-295.051
 20
188.291167
 30
0.0
 40
0.026621
 50
90.0
 51
180.0
210
0.0
220
0.0
230
1.0
  0
LINE
  8
1
  6
CONTINUOUS
 62
     2
  5
137
 10
-294.87475
 20
188.31775
 30
0.0
 11
-295.051
 21
188.31775
 31
0.0
  0
LINE
  8
1
  6
CONTINUOUS
 62
     2
  5
138
 10
-294.87475
 20
188.431167
 30
0.0
 11
-295.051
 21
188.431167
 31
0.0
  0
LINE
  8
1
  6
CONTINUOUS
 62
     2
  5
139
 10
-294.351667
 20
188.31775
 30
0.0
 11
-294.351667
 21
188.431167
 31
0.0
  0
LINE
  8
1
  6
CONTINUOUS
 62
     2
  5
13A
 10
-294.87475
 20
188.431167
 30
0.0
 11
-294.87475
 21
188.31775
 31
0.0
  0
ARC
  8
1
  6
CONTINUOUS
 62
     2
  5
13B
 10
-295.051
 20
187.707917
 30
0.0
 40
0.14
 50
180.0
 51
270.0
210
0.0
220
0.0
230
1.0
  0
ARC
  8
1
  6
CONTINUOUS
 62
     2
  5
13C
 10
-294.185417
 20
187.707917
 30
0.0
 40
0.14
 50
270.0
 51
360.0
210
0.0
220
0.0
230
1.0
  0
ARC
  8
1
  6
CONTINUOUS
 62
     2
  5
13D
 10
-294.185417
 20
188.291167
 30
0.0
 40
0.14
 50
0.0
 51
90.0
210
0.0
220
0.0
230
1.0
  0
ARC
  8
1
  6
CONTINUOUS
 62
     2
  5
13E
 10
-295.051
 20
188.291167
 30
0.0
 40
0.14
 50
90.0
 51
180.0
210
0.0
220
0.0
230
1.0
  0
LINE
  8
1
  6
CONTINUOUS
 62
     2
  5
13F
 10
-294.185417
 20
188.431167
 30
0.0
 11
-294.351667
 21
188.431167
 31
0.0
  0
LINE
  8
1
  6
CONTINUOUS
 62
     2
  5
140
 10
-294.045417
 20
187.707917
 30
0.0
 11
-294.045417
 21
188.291167
 31
0.0
  0
LINE
  8
1
  6
CONTINUOUS
 62
     2
  5
141
 10
-295.051
 20
187.567917
 30
0.0
 11
-294.185417
 21
187.567917
 31
0.0
  0
LINE
  8
1
  6
CONTINUOUS
 62
     2
  5
142
 10
-295.191
 20
188.291167
 30
0.0
 11
-295.191
 21
187.707917
 31
0.0
  0
LINE
  8
2
  6
HIDDEN
 62
     2
  5
143
 10
-297.54975
 20
187.998333
 30
0.0
 11
-297.436417
 21
187.998333
 31
0.0
  0
LINE
  8
2
  6
HIDDEN
 62
     2
  5
144
 10
-297.54975
 20
187.93075
 30
0.0
 11
-297.436417
 21
187.93075
 31
0.0
  0
LINE
  8
2
  6
HIDDEN
 62
     2
  5
145
 10
-297.54975
 20
187.851917
 30
0.0
 11
-297.436417
 21
187.851917
 31
0.0
  0
LINE
  8
2
  6
HIDDEN
 62
     2
  5
146
 10
-297.54975
 20
187.784333
 30
0.0
 11
-297.436417
 21
187.784333
 31
0.0
  0
LINE
  8
2
  6
HIDDEN
 62
     2
  5
147
 10
-296.5175
 20
188.172917
 30
0.0
 11
-296.29075
 21
188.172917
 31
0.0
  0
LINE
  8
2
  6
HIDDEN
 62
     2
  5
148
 10
-296.5175
 20
188.105333
 30
0.0
 11
-296.29075
 21
188.105333
 31
0.0
  0
LINE
  8
2
  6
HIDDEN
 62
     2
  5
149
 10
-296.5175
 20
187.95325
 30
0.0
 11
-296.29075
 21
187.95325
 31
0.0
  0
LINE
  8
2
  6
HIDDEN
 62
     2
  5
14A
 10
-296.5175
 20
187.885667
 30
0.0
 11
-296.29075
 21
187.885667
 31
0.0
  0
LINE
  8
2
  6
HIDDEN
 62
     2
  5
14B
 10
-294.15875
 20
188.217917
 30
0.0
 11
-294.045417
 21
188.217917
 31
0.0
  0
LINE
  8
2
  6
HIDDEN
 62
     2
  5
14C
 10
-294.15875
 20
188.150333
 30
0.0
 11
-294.045417
 21
188.150333
 31
0.0
  0
LINE
  8
2
  6
HIDDEN
 62
     2
  5
14D
 10
-294.15875
 20
188.0715
 30
0.0
 11
-294.045417
 21
188.0715
 31
0.0
  0
LINE
  8
2
  6
HIDDEN
 62
     2
  5
14E
 10
-294.15875
 20
188.004
 30
0.0
 11
-294.045417
 21
188.004
 31
0.0
  0
LINE
  8
2
  6
HIDDEN
 62
     2
  5
14F
 10
-295.304417
 20
188.105333
 30
0.0
 11
-295.077667
 21
188.105333
 31
0.0
  0
LINE
  8
2
  6
HIDDEN
 62
     2
  5
150
 10
-295.304417
 20
188.172917
 30
0.0
 11
-295.077667
 21
188.172917
 31
0.0
  0
LINE
  8
2
  6
HIDDEN
 62
     2
  5
151
 10
-295.304417
 20
187.95325
 30
0.0
 11
-295.077667
 21
187.95325
 31
0.0
  0
LINE
  8
2
  6
HIDDEN
 62
     2
  5
152
 10
-295.304417
 20
187.885667
 30
0.0
 11
-295.077667
 21
187.885667
 31
0.0
  0
LINE
  8
1
  6
CONTINUOUS
 62
     2
  5
153
 10
-310.774083
 20
189.88875
 30
0.0
 11
-310.774083
 21
189.745083
 31
0.0
  0
ARC
  8
1
  6
CONTINUOUS
 62
     2
  5
154
 10
-310.747417
 20
189.88875
 30
0.0
 40
0.026621
 50
90.0
 51
180.0
210
0.0
220
0.0
230
1.0
  0
LINE
  8
1
  6
CONTINUOUS
 62
     2
  5
155
 10
-310.224583
 20
189.915333
 30
0.0
 11
-310.747417
 21
189.915333
 31
0.0
  0
ARC
  8
1
  6
CONTINUOUS
 62
     2
  5
156
 10
-310.224583
 20
189.88875
 30
0.0
 40
0.026621
 50
0.0
 51
90.0
210
0.0
220
0.0
230
1.0
  0
LINE
  8
1
  6
CONTINUOUS
 62
     2
  5
157
 10
-310.197917
 20
188.97025
 30
0.0
 11
-310.197917
 21
189.88875
 31
0.0
  0
ARC
  8
1
  6
CONTINUOUS
 62
     2
  5
158
 10
-310.224583
 20
188.97025
 30
0.0
 40
0.026621
 50
270.0
 51
360.0
210
0.0
220
0.0
230
1.0
  0
LINE
  8
1
  6
CONTINUOUS
 62
     2
  5
159
 10
-310.747417
 20
188.943667
 30
0.0
 11
-310.224583
 21
188.943667
 31
0.0
  0
ARC
  8
1
  6
CONTINUOUS
 62
     2
  5
15A
 10
-310.747417
 20
188.97025
 30
0.0
 40
0.026621
 50
180.0
 51
270.0
210
0.0
220
0.0
230
1.0
  0
LINE
  8
1
  6
CONTINUOUS
 62
     2
  5
15B
 10
-310.774083
 20
189.131417
 30
0.0
 11
-310.774083
 21
188.97025
 31
0.0
  0
LINE
  8
1
  6
CONTINUOUS
 62
     2
  5
15C
 10
-310.887417
 20
189.131417
 30
0.0
 11
-310.887417
 21
188.97025
 31
0.0
  0
LINE
  8
1
  6
CONTINUOUS
 62
     2
  5
15D
 10
-310.774083
 20
189.745083
 30
0.0
 11
-310.887417
 21
189.745083
 31
0.0
  0
LINE
  8
1
  6
CONTINUOUS
 62
     2
  5
15E
 10
-310.887417
 20
189.131417
 30
0.0
 11
-310.774083
 21
189.131417
 31
0.0
  0
ARC
  8
1
  6
CONTINUOUS
 62
     2
  5
15F
 10
-310.224583
 20
188.97025
 30
0.0
 40
0.14
 50
270.0
 51
360.0
210
0.0
220
0.0
230
1.0
  0
ARC
  8
1
  6
CONTINUOUS
 62
     2
  5
160
 10
-310.224583
 20
189.88875
 30
0.0
 40
0.14
 50
0.0
 51
90.0
210
0.0
220
0.0
230
1.0
  0
ARC
  8
1
  6
CONTINUOUS
 62
     2
  5
161
 10
-310.747417
 20
189.88875
 30
0.0
 40
0.14
 50
90.0
 51
180.0
210
0.0
220
0.0
230
1.0
  0
ARC
  8
1
  6
CONTINUOUS
 62
     2
  5
162
 10
-310.747417
 20
188.97025
 30
0.0
 40
0.14
 50
180.0
 51
270.0
210
0.0
220
0.0
230
1.0
  0
LINE
  8
1
  6
CONTINUOUS
 62
     2
  5
163
 10
-310.887417
 20
189.88875
 30
0.0
 11
-310.887417
 21
189.745083
 31
0.0
  0
LINE
  8
1
  6
CONTINUOUS
 62
     2
  5
164
 10
-310.224583
 20
190.02875
 30
0.0
 11
-310.747417
 21
190.02875
 31
0.0
  0
LINE
  8
1
  6
CONTINUOUS
 62
     2
  5
165
 10
-310.084583
 20
188.97025
 30
0.0
 11
-310.084583
 21
189.88875
 31
0.0
  0
LINE
  8
1
  6
CONTINUOUS
 62
     2
  5
166
 10
-311.736417
 20
188.83025
 30
0.0
 11
-309.229917
 21
188.83025
 31
0.0
  0
LINE
  8
1
  6
CONTINUOUS
 62
     2
  5
167
 10
-310.747417
 20
190.02875
 30
0.0
 11
-310.224583
 21
190.02875
 31
0.0
  0
LINE
  8
1
  6
CONTINUOUS
 62
     2
  5
168
 10
-310.084583
 20
190.16875
 30
0.0
 11
-310.084583
 21
191.08725
 31
0.0
  0
LINE
  8
1
  6
CONTINUOUS
 62
     2
  5
169
 10
-310.224583
 20
191.22725
 30
0.0
 11
-310.747417
 21
191.22725
 31
0.0
  0
LINE
  8
1
  6
CONTINUOUS
 62
     2
  5
16A
 10
-310.887417
 20
191.08725
 30
0.0
 11
-310.887417
 21
190.943583
 31
0.0
  0
ARC
  8
1
  6
CONTINUOUS
 62
     2
  5
16B
 10
-310.747417
 20
190.16875
 30
0.0
 40
0.14
 50
180.0
 51
270.0
210
0.0
220
0.0
230
1.0
  0
ARC
  8
1
  6
CONTINUOUS
 62
     2
  5
16C
 10
-310.747417
 20
191.08725
 30
0.0
 40
0.14
 50
90.0
 51
180.0
210
0.0
220
0.0
230
1.0
  0
ARC
  8
1
  6
CONTINUOUS
 62
     2
  5
16D
 10
-310.224583
 20
191.08725
 30
0.0
 40
0.14
 50
0.0
 51
90.0
210
0.0
220
0.0
230
1.0
  0
ARC
  8
1
  6
CONTINUOUS
 62
     2
  5
16E
 10
-310.224583
 20
190.16875
 30
0.0
 40
0.14
 50
270.0
 51
360.0
210
0.0
220
0.0
230
1.0
  0
LINE
  8
1
  6
CONTINUOUS
 62
     2
  5
16F
 10
-310.887417
 20
190.292083
 30
0.0
 11
-310.774083
 21
190.292083
 31
0.0
  0
LINE
  8
1
  6
CONTINUOUS
 62
     2
  5
170
 10
-310.774083
 20
190.943583
 30
0.0
 11
-310.887417
 21
190.943583
 31
0.0
  0
LINE
  8
1
  6
CONTINUOUS
 62
     2
  5
171
 10
-310.887417
 20
190.292083
 30
0.0
 11
-310.887417
 21
190.16875
 31
0.0
  0
LINE
  8
1
  6
CONTINUOUS
 62
     2
  5
172
 10
-310.774083
 20
190.292083
 30
0.0
 11
-310.774083
 21
190.16875
 31
0.0
  0
ARC
  8
1
  6
CONTINUOUS
 62
     2
  5
173
 10
-310.747417
 20
190.16875
 30
0.0
 40
0.026621
 50
180.0
 51
270.0
210
0.0
220
0.0
230
1.0
  0
LINE
  8
1
  6
CONTINUOUS
 62
     2
  5
174
 10
-310.747417
 20
190.142083
 30
0.0
 11
-310.224583
 21
190.142083
 31
0.0
  0
ARC
  8
1
  6
CONTINUOUS
 62
     2
  5
175
 10
-310.224583
 20
190.16875
 30
0.0
 40
0.026621
 50
270.0
 51
360.0
210
0.0
220
0.0
230
1.0
  0
LINE
  8
1
  6
CONTINUOUS
 62
     2
  5
176
 10
-310.197917
 20
190.16875
 30
0.0
 11
-310.197917
 21
191.08725
 31
0.0
  0
ARC
  8
1
  6
CONTINUOUS
 62
     2
  5
177
 10
-310.224583
 20
191.08725
 30
0.0
 40
0.026621
 50
0.0
 51
90.0
210
0.0
220
0.0
230
1.0
  0
LINE
  8
1
  6
CONTINUOUS
 62
     2
  5
178
 10
-310.224583
 20
191.113833
 30
0.0
 11
-310.747417
 21
191.113833
 31
0.0
  0
ARC
  8
1
  6
CONTINUOUS
 62
     2
  5
179
 10
-310.747417
 20
191.08725
 30
0.0
 40
0.026621
 50
90.0
 51
180.0
210
0.0
220
0.0
230
1.0
  0
LINE
  8
1
  6
CONTINUOUS
 62
     2
  5
17A
 10
-310.774083
 20
191.08725
 30
0.0
 11
-310.774083
 21
190.943583
 31
0.0
  0
LINE
  8
1
  6
CONTINUOUS
 62
     2
  5
17B
 10
-309.229917
 20
188.83025
 30
0.0
 11
-309.262333
 21
188.788
 31
0.0
  0
LINE
  8
1
  6
CONTINUOUS
 62
     2
  5
17C
 10
-309.262333
 20
188.788
 30
0.0
 11
-309.22775
 21
188.753333
 31
0.0
  0
LINE
  8
1
  6
CONTINUOUS
 62
     2
  5
17D
 10
-309.22775
 20
188.753333
 30
0.0
 11
-309.266167
 21
188.741833
 31
0.0
  0
LINE
  8
1
  6
CONTINUOUS
 62
     2
  5
17E
 10
-309.266167
 20
188.741833
 30
0.0
 11
-309.270083
 21
188.711083
 31
0.0
  0
LINE
  8
1
  6
CONTINUOUS
 62
     2
  5
17F
 10
-309.270083
 20
188.711083
 30
0.0
 11
-309.235417
 21
188.6995
 31
0.0
  0
LINE
  8
1
  6
CONTINUOUS
 62
     2
  5
180
 10
-309.235417
 20
188.6995
 30
0.0
 11
-309.22
 21
188.688
 31
0.0
  0
LINE
  8
1
  6
CONTINUOUS
 62
     2
  5
181
 10
-309.22
 20
188.688
 30
0.0
 11
-309.250833
 21
188.672583
 31
0.0
  0
LINE
  8
1
  6
CONTINUOUS
 62
     2
  5
182
 10
-309.250833
 20
188.672583
 30
0.0
 11
-309.254667
 21
188.653333
 31
0.0
  0
LINE
  8
1
  6
CONTINUOUS
 62
     2
  5
183
 10
-309.254667
 20
188.653333
 30
0.0
 11
-309.2585
 21
188.622583
 31
0.0
  0
LINE
  8
1
  6
CONTINUOUS
 62
     2
  5
184
 10
-309.2585
 20
188.622583
 30
0.0
 11
-309.223917
 21
188.5995
 31
0.0
  0
LINE
  8
1
  6
CONTINUOUS
 62
     2
  5
185
 10
-309.223917
 20
188.5995
 30
0.0
 11
-309.250833
 21
188.584167
 31
0.0
  0
LINE
  8
1
  6
CONTINUOUS
 62
     2
  5
186
 10
-309.250833
 20
188.584167
 30
0.0
 11
-309.247
 21
188.56875
 31
0.0
  0
LINE
  8
1
  6
CONTINUOUS
 62
     2
  5
187
 10
-309.247
 20
188.56875
 30
0.0
 11
-309.204667
 21
188.5495
 31
0.0
  0
LINE
  8
1
  6
CONTINUOUS
 62
     2
  5
188
 10
-309.204667
 20
188.5495
 30
0.0
 11
-309.216167
 21
188.541833
 31
0.0
  0
LINE
  8
1
  6
CONTINUOUS
 62
     2
  5
189
 10
-309.216167
 20
188.541833
 30
0.0
 11
-309.247
 21
188.534083
 31
0.0
  0
LINE
  8
1
  6
CONTINUOUS
 62
     2
  5
18A
 10
-309.247
 20
188.534083
 30
0.0
 11
-309.270083
 21
188.503333
 31
0.0
  0
LINE
  8
1
  6
CONTINUOUS
 62
     2
  5
18B
 10
-309.270083
 20
188.503333
 30
0.0
 11
-309.231583
 21
188.48025
 31
0.0
  0
LINE
  8
1
  6
CONTINUOUS
 62
     2
  5
18C
 10
-309.231583
 20
188.48025
 30
0.0
 11
-309.22775
 21
188.461
 31
0.0
  0
LINE
  8
1
  6
CONTINUOUS
 62
     2
  5
18D
 10
-309.22775
 20
188.461
 30
0.0
 11
-309.250833
 21
188.441833
 31
0.0
  0
LINE
  8
1
  6
CONTINUOUS
 62
     2
  5
18E
 10
-309.250833
 20
188.441833
 30
0.0
 11
-309.266167
 21
188.43025
 31
0.0
  0
LINE
  8
1
  6
CONTINUOUS
 62
     2
  5
18F
 10
-309.266167
 20
188.43025
 30
0.0
 11
-309.270083
 21
188.41875
 31
0.0
  0
LINE
  8
1
  6
CONTINUOUS
 62
     2
  5
190
 10
-309.270083
 20
188.41875
 30
0.0
 11
-309.235417
 21
188.3995
 31
0.0
  0
LINE
  8
1
  6
CONTINUOUS
 62
     2
  5
191
 10
-309.235417
 20
188.3995
 30
0.0
 11
-309.22775
 21
188.376417
 31
0.0
  0
LINE
  8
1
  6
CONTINUOUS
 62
     2
  5
192
 10
-309.22775
 20
188.376417
 30
0.0
 11
-309.262333
 21
188.364917
 31
0.0
  0
LINE
  8
1
  6
CONTINUOUS
 62
     2
  5
193
 10
-309.262333
 20
188.364917
 30
0.0
 11
-309.27775
 21
188.341833
 31
0.0
  0
LINE
  8
1
  6
CONTINUOUS
 62
     2
  5
194
 10
-309.27775
 20
188.341833
 30
0.0
 11
-309.254667
 21
188.334083
 31
0.0
  0
LINE
  8
1
  6
CONTINUOUS
 62
     2
  5
195
 10
-309.254667
 20
188.334083
 30
0.0
 11
-309.235417
 21
188.326417
 31
0.0
  0
LINE
  8
1
  6
CONTINUOUS
 62
     2
  5
196
 10
-309.235417
 20
188.326417
 30
0.0
 11
-309.2085
 21
188.311
 31
0.0
  0
LINE
  8
1
  6
CONTINUOUS
 62
     2
  5
197
 10
-309.2085
 20
188.311
 30
0.0
 11
-309.231583
 21
188.303333
 31
0.0
  0
LINE
  8
1
  6
CONTINUOUS
 62
     2
  5
198
 10
-309.231583
 20
188.303333
 30
0.0
 11
-309.262333
 21
188.295667
 31
0.0
  0
LINE
  8
1
  6
CONTINUOUS
 62
     2
  5
199
 10
-309.262333
 20
188.295667
 30
0.0
 11
-309.270083
 21
188.284083
 31
0.0
  0
LINE
  8
1
  6
CONTINUOUS
 62
     2
  5
19A
 10
-309.270083
 20
188.284083
 30
0.0
 11
-309.250833
 21
188.237917
 31
0.0
  0
LINE
  8
1
  6
CONTINUOUS
 62
     2
  5
19B
 10
-309.250833
 20
188.237917
 30
0.0
 11
-309.231583
 21
188.222583
 31
0.0
  0
LINE
  8
1
  6
CONTINUOUS
 62
     2
  5
19C
 10
-309.231583
 20
188.222583
 30
0.0
 11
-309.235417
 21
188.211
 31
0.0
  0
LINE
  8
1
  6
CONTINUOUS
 62
     2
  5
19D
 10
-309.235417
 20
188.211
 30
0.0
 11
-309.254667
 21
188.207167
 31
0.0
  0
LINE
  8
1
  6
CONTINUOUS
 62
     2
  5
19E
 10
-309.254667
 20
188.207167
 30
0.0
 11
-309.262333
 21
188.207167
 31
0.0
  0
LINE
  8
1
  6
CONTINUOUS
 62
     2
  5
19F
 10
-309.262333
 20
188.207167
 30
0.0
 11
-309.23925
 21
188.168667
 31
0.0
  0
LINE
  8
1
  6
CONTINUOUS
 62
     2
  5
1A0
 10
-309.23925
 20
188.168667
 30
0.0
 11
-309.231583
 21
188.153333
 31
0.0
  0
LINE
  8
1
  6
CONTINUOUS
 62
     2
  5
1A1
 10
-309.231583
 20
188.153333
 30
0.0
 11
-309.262333
 21
188.1495
 31
0.0
  0
LINE
  8
1
  6
CONTINUOUS
 62
     2
  5
1A2
 10
-309.262333
 20
188.1495
 30
0.0
 11
-309.243083
 21
188.126417
 31
0.0
  0
LINE
  8
1
  6
CONTINUOUS
 62
     2
  5
1A3
 10
-309.243083
 20
188.126417
 30
0.0
 11
-309.254667
 21
188.118667
 31
0.0
  0
LINE
  8
1
  6
CONTINUOUS
 62
     2
  5
1A4
 10
-309.254667
 20
188.118667
 30
0.0
 11
-309.223917
 21
188.087917
 31
0.0
  0
LINE
  8
1
  6
CONTINUOUS
 62
     2
  5
1A5
 10
-309.223917
 20
188.087917
 30
0.0
 11
-311.724917
 21
188.087917
 31
0.0
  0
LINE
  8
1
  6
CONTINUOUS
 62
     2
  5
1A6
 10
-311.724917
 20
188.087917
 30
0.0
 11
-311.732583
 21
188.14175
 31
0.0
  0
LINE
  8
1
  6
CONTINUOUS
 62
     2
  5
1A7
 10
-311.732583
 20
188.14175
 30
0.0
 11
-311.694083
 21
188.164833
 31
0.0
  0
LINE
  8
1
  6
CONTINUOUS
 62
     2
  5
1A8
 10
-311.694083
 20
188.164833
 30
0.0
 11
-311.72875
 21
188.1995
 31
0.0
  0
LINE
  8
1
  6
CONTINUOUS
 62
     2
  5
1A9
 10
-311.72875
 20
188.1995
 30
0.0
 11
-311.72875
 21
188.237917
 31
0.0
  0
LINE
  8
1
  6
CONTINUOUS
 62
     2
  5
1AA
 10
-311.72875
 20
188.237917
 30
0.0
 11
-311.717167
 21
188.2495
 31
0.0
  0
LINE
  8
1
  6
CONTINUOUS
 62
     2
  5
1AB
 10
-311.717167
 20
188.2495
 30
0.0
 11
-311.732583
 21
188.272583
 31
0.0
  0
LINE
  8
1
  6
CONTINUOUS
 62
     2
  5
1AC
 10
-311.732583
 20
188.272583
 30
0.0
 11
-311.724917
 21
188.28025
 31
0.0
  0
LINE
  8
1
  6
CONTINUOUS
 62
     2
  5
1AD
 10
-311.724917
 20
188.28025
 30
0.0
 11
-311.694083
 21
188.29175
 31
0.0
  0
LINE
  8
1
  6
CONTINUOUS
 62
     2
  5
1AE
 10
-311.694083
 20
188.29175
 30
0.0
 11
-311.7095
 21
188.307167
 31
0.0
  0
LINE
  8
1
  6
CONTINUOUS
 62
     2
  5
1AF
 10
-311.7095
 20
188.307167
 30
0.0
 11
-311.72875
 21
188.361
 31
0.0
  0
LINE
  8
1
  6
CONTINUOUS
 62
     2
  5
1B0
 10
-311.72875
 20
188.361
 30
0.0
 11
-311.701833
 21
188.364917
 31
0.0
  0
LINE
  8
1
  6
CONTINUOUS
 62
     2
  5
1B1
 10
-311.701833
 20
188.364917
 30
0.0
 11
-311.724917
 21
188.376417
 31
0.0
  0
LINE
  8
1
  6
CONTINUOUS
 62
     2
  5
1B2
 10
-311.724917
 20
188.376417
 30
0.0
 11
-311.744167
 21
188.3995
 31
0.0
  0
LINE
  8
1
  6
CONTINUOUS
 62
     2
  5
1B3
 10
-311.744167
 20
188.3995
 30
0.0
 11
-311.724917
 21
188.407167
 31
0.0
  0
LINE
  8
1
  6
CONTINUOUS
 62
     2
  5
1B4
 10
-311.724917
 20
188.407167
 30
0.0
 11
-311.705667
 21
188.414917
 31
0.0
  0
LINE
  8
1
  6
CONTINUOUS
 62
     2
  5
1B5
 10
-311.705667
 20
188.414917
 30
0.0
 11
-311.701833
 21
188.41875
 31
0.0
  0
LINE
  8
1
  6
CONTINUOUS
 62
     2
  5
1B6
 10
-311.701833
 20
188.41875
 30
0.0
 11
-311.7095
 21
188.422583
 31
0.0
  0
LINE
  8
1
  6
CONTINUOUS
 62
     2
  5
1B7
 10
-311.7095
 20
188.422583
 30
0.0
 11
-311.724917
 21
188.437917
 31
0.0
  0
LINE
  8
1
  6
CONTINUOUS
 62
     2
  5
1B8
 10
-311.724917
 20
188.437917
 30
0.0
 11
-311.72875
 21
188.464917
 31
0.0
  0
LINE
  8
1
  6
CONTINUOUS
 62
     2
  5
1B9
 10
-311.72875
 20
188.464917
 30
0.0
 11
-311.701833
 21
188.472583
 31
0.0
  0
LINE
  8
1
  6
CONTINUOUS
 62
     2
  5
1BA
 10
-311.701833
 20
188.472583
 30
0.0
 11
-311.701833
 21
188.491833
 31
0.0
  0
LINE
  8
1
  6
CONTINUOUS
 62
     2
  5
1BB
 10
-311.701833
 20
188.491833
 30
0.0
 11
-311.732583
 21
188.507167
 31
0.0
  0
LINE
  8
1
  6
CONTINUOUS
 62
     2
  5
1BC
 10
-311.732583
 20
188.507167
 30
0.0
 11
-311.744167
 21
188.514917
 31
0.0
  0
LINE
  8
1
  6
CONTINUOUS
 62
     2
  5
1BD
 10
-311.744167
 20
188.514917
 30
0.0
 11
-311.736417
 21
188.53025
 31
0.0
  0
LINE
  8
1
  6
CONTINUOUS
 62
     2
  5
1BE
 10
-311.736417
 20
188.53025
 30
0.0
 11
-311.7095
 21
188.557167
 31
0.0
  0
LINE
  8
1
  6
CONTINUOUS
 62
     2
  5
1BF
 10
-311.7095
 20
188.557167
 30
0.0
 11
-311.705667
 21
188.576417
 31
0.0
  0
LINE
  8
1
  6
CONTINUOUS
 62
     2
  5
1C0
 10
-311.705667
 20
188.576417
 30
0.0
 11
-311.72875
 21
188.588
 31
0.0
  0
LINE
  8
1
  6
CONTINUOUS
 62
     2
  5
1C1
 10
-311.72875
 20
188.588
 30
0.0
 11
-311.72875
 21
188.5995
 31
0.0
  0
LINE
  8
1
  6
CONTINUOUS
 62
     2
  5
1C2
 10
-311.72875
 20
188.5995
 30
0.0
 11
-311.701833
 21
188.622583
 31
0.0
  0
LINE
  8
1
  6
CONTINUOUS
 62
     2
  5
1C3
 10
-311.701833
 20
188.622583
 30
0.0
 11
-311.724917
 21
188.645667
 31
0.0
  0
LINE
  8
1
  6
CONTINUOUS
 62
     2
  5
1C4
 10
-311.724917
 20
188.645667
 30
0.0
 11
-311.736417
 21
188.672583
 31
0.0
  0
LINE
  8
1
  6
CONTINUOUS
 62
     2
  5
1C5
 10
-311.736417
 20
188.672583
 30
0.0
 11
-311.724917
 21
188.70725
 31
0.0
  0
LINE
  8
1
  6
CONTINUOUS
 62
     2
  5
1C6
 10
-311.724917
 20
188.70725
 30
0.0
 11
-311.736417
 21
188.726417
 31
0.0
  0
LINE
  8
1
  6
CONTINUOUS
 62
     2
  5
1C7
 10
-311.736417
 20
188.726417
 30
0.0
 11
-311.751833
 21
188.764917
 31
0.0
  0
LINE
  8
1
  6
CONTINUOUS
 62
     2
  5
1C8
 10
-311.751833
 20
188.764917
 30
0.0
 11
-311.7095
 21
188.780333
 31
0.0
  0
LINE
  8
1
  6
CONTINUOUS
 62
     2
  5
1C9
 10
-311.7095
 20
188.780333
 30
0.0
 11
-311.7095
 21
188.7995
 31
0.0
  0
LINE
  8
1
  6
CONTINUOUS
 62
     2
  5
1CA
 10
-311.7095
 20
188.7995
 30
0.0
 11
-311.736417
 21
188.83025
 31
0.0
  0
LINE
  8
2
  6
HIDDEN
 62
     2
  5
1CB
 10
-310.634167
 20
188.83025
 30
0.0
 11
-310.634167
 21
188.943667
 31
0.0
  0
LINE
  8
2
  6
HIDDEN
 62
     2
  5
1CC
 10
-310.558667
 20
188.83025
 30
0.0
 11
-310.558667
 21
188.943667
 31
0.0
  0
LINE
  8
2
  6
HIDDEN
 62
     2
  5
1CD
 10
-310.611583
 20
189.915333
 30
0.0
 11
-310.611583
 21
190.142083
 31
0.0
  0
LINE
  8
2
  6
HIDDEN
 62
     2
  5
1CE
 10
-310.687083
 20
189.915333
 30
0.0
 11
-310.687083
 21
190.142083
 31
0.0
  0
LINE
  8
2
  6
HIDDEN
 62
     2
  5
1CF
 10
-310.430333
 20
189.915333
 30
0.0
 11
-310.430333
 21
190.142083
 31
0.0
  0
LINE
  8
2
  6
HIDDEN
 62
     2
  5
1D0
 10
-310.354833
 20
189.915333
 30
0.0
 11
-310.354833
 21
190.142083
 31
0.0
  0
LINE
  8
2
  6
HIDDEN
 62
     2
  5
1D1
 10
-310.498333
 20
188.83025
 30
0.0
 11
-310.498333
 21
188.943667
 31
0.0
  0
LINE
  8
2
  6
HIDDEN
 62
     2
  5
1D2
 10
-310.422833
 20
188.83025
 30
0.0
 11
-310.422833
 21
188.943667
 31
0.0
  0
LINE
  8
1
  6
CONTINUOUS
 62
     2
  5
1D3
 10
-304.061417
 20
190.488
 30
0.0
 11
-301.56475
 21
190.488
 31
0.0
  0
LINE
  8
1
  6
CONTINUOUS
 62
     2
  5
1D4
 10
-301.40475
 20
190.328
 30
0.0
 11
-301.40475
 21
186.742417
 31
0.0
  0
LINE
  8
1
  6
CONTINUOUS
 62
     2
  5
1D5
 10
-301.56475
 20
186.582417
 30
0.0
 11
-304.061417
 21
186.582417
 31
0.0
  0
LINE
  8
1
  6
CONTINUOUS
 62
     2
  5
1D6
 10
-304.221417
 20
186.742417
 30
0.0
 11
-304.221417
 21
187.27525
 31
0.0
  0
LINE
  8
1
  6
CONTINUOUS
 62
     2
  5
1D7
 10
-304.221417
 20
189.917
 30
0.0
 11
-304.114833
 21
189.917
 31
0.0
  0
LINE
  8
1
  6
CONTINUOUS
 62
     2
  5
1D8
 10
-304.221417
 20
187.27525
 30
0.0
 11
-304.114833
 21
187.27525
 31
0.0
  0
LINE
  8
1
  6
CONTINUOUS
 62
     2
  5
1D9
 10
-304.221417
 20
189.917
 30
0.0
 11
-304.221417
 21
190.328
 31
0.0
  0
ARC
  8
1
  6
CONTINUOUS
 62
     2
  5
1DA
 10
-304.061417
 20
190.328
 30
0.0
 40
0.16
 50
90.0
 51
180.0
210
0.0
220
0.0
230
1.0
  0
ARC
  8
1
  6
CONTINUOUS
 62
     2
  5
1DB
 10
-301.56475
 20
190.328
 30
0.0
 40
0.16
 50
0.0
 51
90.0
210
0.0
220
0.0
230
1.0
  0
ARC
  8
1
  6
CONTINUOUS
 62
     2
  5
1DC
 10
-301.56475
 20
186.742417
 30
0.0
 40
0.16
 50
270.0
 51
360.0
210
0.0
220
0.0
230
1.0
  0
ARC
  8
1
  6
CONTINUOUS
 62
     2
  5
1DD
 10
-304.061417
 20
186.742417
 30
0.0
 40
0.16
 50
180.0
 51
270.0
210
0.0
220
0.0
230
1.0
  0
LINE
  8
1
  6
CONTINUOUS
 62
     2
  5
1DE
 10
-304.114833
 20
189.917
 30
0.0
 11
-304.114833
 21
190.328
 31
0.0
  0
ARC
  8
1
  6
CONTINUOUS
 62
     2
  5
1DF
 10
-304.061417
 20
190.328
 30
0.0
 40
0.053423
 50
90.0
 51
180.0
210
0.0
220
0.0
230
1.0
  0
LINE
  8
1
  6
CONTINUOUS
 62
     2
  5
1E0
 10
-304.061417
 20
190.381417
 30
0.0
 11
-301.56475
 21
190.381417
 31
0.0
  0
ARC
  8
1
  6
CONTINUOUS
 62
     2
  5
1E1
 10
-301.56475
 20
190.328
 30
0.0
 40
0.053423
 50
0.0
 51
90.0
210
0.0
220
0.0
230
1.0
  0
LINE
  8
1
  6
CONTINUOUS
 62
     2
  5
1E2
 10
-301.511333
 20
190.328
 30
0.0
 11
-301.511333
 21
186.742417
 31
0.0
  0
ARC
  8
1
  6
CONTINUOUS
 62
     2
  5
1E3
 10
-301.56475
 20
186.742417
 30
0.0
 40
0.053423
 50
270.0
 51
360.0
210
0.0
220
0.0
230
1.0
  0
LINE
  8
1
  6
CONTINUOUS
 62
     2
  5
1E4
 10
-301.56475
 20
186.689
 30
0.0
 11
-304.061417
 21
186.689
 31
0.0
  0
ARC
  8
1
  6
CONTINUOUS
 62
     2
  5
1E5
 10
-304.061417
 20
186.742417
 30
0.0
 40
0.053423
 50
180.0
 51
270.0
210
0.0
220
0.0
230
1.0
  0
LINE
  8
1
  6
CONTINUOUS
 62
     2
  5
1E6
 10
-304.114833
 20
186.742417
 30
0.0
 11
-304.114833
 21
187.27525
 31
0.0
  0
LINE
  8
1
  6
CONTINUOUS
 62
     2
  5
1E7
 10
-310.614
 20
177.558583
 30
0.0
 11
-308.348333
 21
177.558583
 31
0.0
  0
LINE
  8
1
  6
CONTINUOUS
 62
     2
  5
1E8
 10
-308.348333
 20
177.558583
 30
0.0
 11
-308.348333
 21
173.570167
 31
0.0
  0
LINE
  8
1
  6
CONTINUOUS
 62
     2
  5
1E9
 10
-308.348333
 20
173.570167
 30
0.0
 11
-308.641
 21
173.570167
 31
0.0
  0
LINE
  8
1
  6
CONTINUOUS
 62
     2
  5
1EA
 10
-309.502083
 20
173.570167
 30
0.0
 11
-309.502083
 21
177.558583
 31
0.0
  0
LINE
  8
1
  6
CONTINUOUS
 62
     2
  5
1EB
 10
-309.502083
 20
174.999917
 30
0.0
 11
-310.614
 21
174.999917
 31
0.0
  0
LINE
  8
1
  6
CONTINUOUS
 62
     2
  5
1EC
 10
-310.614
 20
174.999917
 30
0.0
 11
-310.614
 21
177.558583
 31
0.0
  0
LINE
  8
1
  6
CONTINUOUS
 62
     2
  5
1ED
 10
-309.184417
 20
173.570167
 30
0.0
 11
-309.008833
 21
173.754083
 31
0.0
  0
LINE
  8
1
  6
CONTINUOUS
 62
     2
  5
1EE
 10
-309.008833
 20
173.754083
 30
0.0
 11
-308.74125
 21
173.3945
 31
0.0
  0
LINE
  8
1
  6
CONTINUOUS
 62
     2
  5
1EF
 10
-308.74125
 20
173.3945
 30
0.0
 11
-308.641
 21
173.570167
 31
0.0
  0
LINE
  8
1
  6
CONTINUOUS
 62
     2
  5
1F0
 10
-309.184417
 20
173.570167
 30
0.0
 11
-309.502083
 21
173.570167
 31
0.0
  0
LINE
  8
2
  6
HIDDEN
 62
     2
  5
1F1
 10
-309.435167
 20
173.570167
 30
0.0
 11
-309.435167
 21
177.558583
 31
0.0
  0
LINE
  8
2
  6
HIDDEN
 62
     2
  5
1F2
 10
-309.276333
 20
173.570167
 30
0.0
 11
-309.276333
 21
177.558583
 31
0.0
  0
LINE
  8
2
  6
HIDDEN
 62
     2
  5
1F3
 10
-308.557333
 20
173.570167
 30
0.0
 11
-308.557333
 21
177.558583
 31
0.0
  0
LINE
  8
2
  6
HIDDEN
 62
     2
  5
1F4
 10
-308.406917
 20
173.570167
 30
0.0
 11
-308.406917
 21
177.558583
 31
0.0
  0
POLYLINE
  8
1
  6
CONTINUOUS
 62
     2
  5
1F5
 66
     1
 10
0.0
 20
0.0
 30
0.0
  0
VERTEX
  8
1
  6
CONTINUOUS
 62
     2
  5
1F6
 10
-310.726833
 20
175.11175
 30
0.0
  0
VERTEX
  8
1
  6
CONTINUOUS
 62
     2
  5
1F7
 10
-310.9165
 20
175.248083
 30
0.0
  0
VERTEX
  8
1
  6
CONTINUOUS
 62
     2
  5
1F8
 10
-311.05975
 20
175.353333
 30
0.0
  0
VERTEX
  8
1
  6
CONTINUOUS
 62
     2
  5
1F9
 10
-311.162917
 20
175.431917
 30
0.0
  0
VERTEX
  8
1
  6
CONTINUOUS
 62
     2
  5
1FA
 10
-311.232833
 20
175.488167
 30
0.0
  0
VERTEX
  8
1
  6
CONTINUOUS
 62
     2
  5
1FB
 10
-311.275833
 20
175.526583
 30
0.0
  0
VERTEX
  8
1
  6
CONTINUOUS
 62
     2
  5
1FC
 10
-311.298667
 20
175.551417
 30
0.0
  0
VERTEX
  8
1
  6
CONTINUOUS
 62
     2
  5
1FD
 10
-311.307833
 20
175.566917
 30
0.0
  0
VERTEX
  8
1
  6
CONTINUOUS
 62
     2
  5
1FE
 10
-311.309917
 20
175.5775
 30
0.0
  0
VERTEX
  8
1
  6
CONTINUOUS
 62
     2
  5
1FF
 10
-311.310417
 20
175.58675
 30
0.0
  0
VERTEX
  8
1
  6
CONTINUOUS
 62
     2
  5
200
 10
-311.310417
 20
175.5955
 30
0.0
  0
VERTEX
  8
1
  6
CONTINUOUS
 62
     2
  5
201
 10
-311.31
 20
175.603667
 30
0.0
  0
VERTEX
  8
1
  6
CONTINUOUS
 62
     2
  5
202
 10
-311.309
 20
175.6115
 30
0.0
  0
VERTEX
  8
1
  6
CONTINUOUS
 62
     2
  5
203
 10
-311.307417
 20
175.618833
 30
0.0
  0
VERTEX
  8
1
  6
CONTINUOUS
 62
     2
  5
204
 10
-311.3055
 20
175.625667
 30
0.0
  0
VERTEX
  8
1
  6
CONTINUOUS
 62
     2
  5
205
 10
-311.302833
 20
175.632083
 30
0.0
  0
VERTEX
  8
1
  6
CONTINUOUS
 62
     2
  5
206
 10
-311.299833
 20
175.63825
 30
0.0
  0
VERTEX
  8
1
  6
CONTINUOUS
 62
     2
  5
207
 10
-311.295167
 20
175.64475
 30
0.0
  0
VERTEX
  8
1
  6
CONTINUOUS
 62
     2
  5
208
 10
-311.283583
 20
175.655333
 30
0.0
  0
VERTEX
  8
1
  6
CONTINUOUS
 62
     2
  5
209
 10
-311.259
 20
175.67425
 30
0.0
  0
VERTEX
  8
1
  6
CONTINUOUS
 62
     2
  5
20A
 10
-311.214833
 20
175.706167
 30
0.0
  0
VERTEX
  8
1
  6
CONTINUOUS
 62
     2
  5
20B
 10
-311.144833
 20
175.755333
 30
0.0
  0
VERTEX
  8
1
  6
CONTINUOUS
 62
     2
  5
20C
 10
-311.042833
 20
175.826083
 30
0.0
  0
VERTEX
  8
1
  6
CONTINUOUS
 62
     2
  5
20D
 10
-310.902333
 20
175.923
 30
0.0
  0
VERTEX
  8
1
  6
CONTINUOUS
 62
     2
  5
20E
 10
-310.707417
 20
176.057083
 30
0.0
  0
SEQEND
  8
1
  6
CONTINUOUS
 62
     2
  5
20F
  0
LINE
  8
1
  6
CONTINUOUS
 62
     2
  5
210
 10
-310.726833
 20
175.111833
 30
0.0
 11
-310.661417
 21
175.19275
 31
0.0
  0
POLYLINE
  8
1
  6
CONTINUOUS
 62
     2
  5
211
 66
     1
 10
0.0
 20
0.0
 30
0.0
  0
VERTEX
  8
1
  6
CONTINUOUS
 62
     2
  5
212
 10
-310.661417
 20
175.19275
 30
0.0
  0
VERTEX
  8
1
  6
CONTINUOUS
 62
     2
  5
213
 10
-310.82275
 20
175.31275
 30
0.0
  0
VERTEX
  8
1
  6
CONTINUOUS
 62
     2
  5
214
 10
-310.944083
 20
175.404333
 30
0.0
  0
VERTEX
  8
1
  6
CONTINUOUS
 62
     2
  5
215
 10
-311.031167
 20
175.4715
 30
0.0
  0
VERTEX
  8
1
  6
CONTINUOUS
 62
     2
  5
216
 10
-311.089417
 20
175.518583
 30
0.0
  0
VERTEX
  8
1
  6
CONTINUOUS
 62
     2
  5
217
 10
-311.124583
 20
175.549417
 30
0.0
  0
VERTEX
  8
1
  6
CONTINUOUS
 62
     2
  5
218
 10
-311.14225
 20
175.568083
 30
0.0
  0
VERTEX
  8
1
  6
CONTINUOUS
 62
     2
  5
219
 10
-311.148
 20
175.579
 30
0.0
  0
VERTEX
  8
1
  6
CONTINUOUS
 62
     2
  5
21A
 10
-311.147417
 20
175.586
 30
0.0
  0
VERTEX
  8
1
  6
CONTINUOUS
 62
     2
  5
21B
 10
-311.144167
 20
175.59325
 30
0.0
  0
VERTEX
  8
1
  6
CONTINUOUS
 62
     2
  5
21C
 10
-311.1335
 20
175.6055
 30
0.0
  0
VERTEX
  8
1
  6
CONTINUOUS
 62
     2
  5
21D
 10
-311.108917
 20
175.627583
 30
0.0
  0
VERTEX
  8
1
  6
CONTINUOUS
 62
     2
  5
21E
 10
-311.063583
 20
175.664
 30
0.0
  0
VERTEX
  8
1
  6
CONTINUOUS
 62
     2
  5
21F
 10
-310.990917
 20
175.719917
 30
0.0
  0
VERTEX
  8
1
  6
CONTINUOUS
 62
     2
  5
220
 10
-310.884167
 20
175.799667
 30
0.0
  0
VERTEX
  8
1
  6
CONTINUOUS
 62
     2
  5
221
 10
-310.736833
 20
175.908167
 30
0.0
  0
VERTEX
  8
1
  6
CONTINUOUS
 62
     2
  5
222
 10
-310.614
 20
175.997917
 30
0.0
  0
SEQEND
  8
1
  6
CONTINUOUS
 62
     2
  5
223
  0
LINE
  8
1
  6
CONTINUOUS
 62
     2
  5
224
 10
-310.66175
 20
176.03325
 30
0.0
 11
-310.66175
 21
176.541583
 31
0.0
  0
POLYLINE
  8
1
  6
CONTINUOUS
 62
     2
  5
225
 66
     1
 10
0.0
 20
0.0
 30
0.0
  0
VERTEX
  8
1
  6
CONTINUOUS
 62
     2
  5
226
 10
-310.694333
 20
175.152
 30
0.0
  0
VERTEX
  8
1
  6
CONTINUOUS
 62
     2
  5
227
 10
-310.867583
 20
175.282333
 30
0.0
  0
VERTEX
  8
1
  6
CONTINUOUS
 62
     2
  5
228
 10
-310.998667
 20
175.381833
 30
0.0
  0
VERTEX
  8
1
  6
CONTINUOUS
 62
     2
  5
229
 10
-311.093417
 20
175.45475
 30
0.0
  0
VERTEX
  8
1
  6
CONTINUOUS
 62
     2
  5
22A
 10
-311.157833
 20
175.505583
 30
0.0
  0
VERTEX
  8
1
  6
CONTINUOUS
 62
     2
  5
22B
 10
-311.198
 20
175.538667
 30
0.0
  0
VERTEX
  8
1
  6
CONTINUOUS
 62
     2
  5
22C
 10
-311.21975
 20
175.558167
 30
0.0
  0
VERTEX
  8
1
  6
CONTINUOUS
 62
     2
  5
22D
 10
-311.228917
 20
175.568583
 30
0.0
  0
VERTEX
  8
1
  6
CONTINUOUS
 62
     2
  5
22E
 10
-311.23175
 20
175.57425
 30
0.0
  0
VERTEX
  8
1
  6
CONTINUOUS
 62
     2
  5
22F
 10
-311.233
 20
175.57875
 30
0.0
  0
VERTEX
  8
1
  6
CONTINUOUS
 62
     2
  5
230
 10
-311.233667
 20
175.582917
 30
0.0
  0
VERTEX
  8
1
  6
CONTINUOUS
 62
     2
  5
231
 10
-311.233917
 20
175.586917
 30
0.0
  0
VERTEX
  8
1
  6
CONTINUOUS
 62
     2
  5
232
 10
-311.233583
 20
175.590833
 30
0.0
  0
VERTEX
  8
1
  6
CONTINUOUS
 62
     2
  5
233
 10
-311.232833
 20
175.59475
 30
0.0
  0
VERTEX
  8
1
  6
CONTINUOUS
 62
     2
  5
234
 10
-311.231417
 20
175.598667
 30
0.0
  0
VERTEX
  8
1
  6
CONTINUOUS
 62
     2
  5
235
 10
-311.229583
 20
175.602917
 30
0.0
  0
VERTEX
  8
1
  6
CONTINUOUS
 62
     2
  5
236
 10
-311.22725
 20
175.607333
 30
0.0
  0
VERTEX
  8
1
  6
CONTINUOUS
 62
     2
  5
237
 10
-311.223333
 20
175.613167
 30
0.0
  0
VERTEX
  8
1
  6
CONTINUOUS
 62
     2
  5
238
 10
-311.21225
 20
175.624
 30
0.0
  0
VERTEX
  8
1
  6
CONTINUOUS
 62
     2
  5
239
 10
-311.187417
 20
175.644667
 30
0.0
  0
VERTEX
  8
1
  6
CONTINUOUS
 62
     2
  5
23A
 10
-311.14225
 20
175.679833
 30
0.0
  0
VERTEX
  8
1
  6
CONTINUOUS
 62
     2
  5
23B
 10
-311.07
 20
175.73425
 30
0.0
  0
VERTEX
  8
1
  6
CONTINUOUS
 62
     2
  5
23C
 10
-310.964083
 20
175.812667
 30
0.0
  0
VERTEX
  8
1
  6
CONTINUOUS
 62
     2
  5
23D
 10
-310.817833
 20
175.91975
 30
0.0
  0
VERTEX
  8
1
  6
CONTINUOUS
 62
     2
  5
23E
 10
-310.66175
 20
176.03325
 30
0.0
  0
SEQEND
  8
1
  6
CONTINUOUS
 62
     2
  5
23F
  0
LINE
  8
1
  6
CONTINUOUS
 62
     2
  5
240
 10
-310.707417
 20
176.057083
 30
0.0
 11
-310.707417
 21
176.517667
 31
0.0
  0
POLYLINE
  8
1
  6
CONTINUOUS
 62
     2
  5
241
 66
     1
 10
0.0
 20
0.0
 30
0.0
  0
VERTEX
  8
1
  6
CONTINUOUS
 62
     2
  5
242
 10
-310.661417
 20
177.382083
 30
0.0
  0
VERTEX
  8
1
  6
CONTINUOUS
 62
     2
  5
243
 10
-310.82275
 20
177.262083
 30
0.0
  0
VERTEX
  8
1
  6
CONTINUOUS
 62
     2
  5
244
 10
-310.944083
 20
177.1705
 30
0.0
  0
VERTEX
  8
1
  6
CONTINUOUS
 62
     2
  5
245
 10
-311.031167
 20
177.10325
 30
0.0
  0
VERTEX
  8
1
  6
CONTINUOUS
 62
     2
  5
246
 10
-311.089417
 20
177.05625
 30
0.0
  0
VERTEX
  8
1
  6
CONTINUOUS
 62
     2
  5
247
 10
-311.124583
 20
177.025417
 30
0.0
  0
VERTEX
  8
1
  6
CONTINUOUS
 62
     2
  5
248
 10
-311.14225
 20
177.006583
 30
0.0
  0
VERTEX
  8
1
  6
CONTINUOUS
 62
     2
  5
249
 10
-311.148
 20
176.99575
 30
0.0
  0
VERTEX
  8
1
  6
CONTINUOUS
 62
     2
  5
24A
 10
-311.147417
 20
176.988833
 30
0.0
  0
VERTEX
  8
1
  6
CONTINUOUS
 62
     2
  5
24B
 10
-311.144167
 20
176.9815
 30
0.0
  0
VERTEX
  8
1
  6
CONTINUOUS
 62
     2
  5
24C
 10
-311.1335
 20
176.96925
 30
0.0
  0
VERTEX
  8
1
  6
CONTINUOUS
 62
     2
  5
24D
 10
-311.108917
 20
176.94725
 30
0.0
  0
VERTEX
  8
1
  6
CONTINUOUS
 62
     2
  5
24E
 10
-311.063583
 20
176.91075
 30
0.0
  0
VERTEX
  8
1
  6
CONTINUOUS
 62
     2
  5
24F
 10
-310.990917
 20
176.854917
 30
0.0
  0
VERTEX
  8
1
  6
CONTINUOUS
 62
     2
  5
250
 10
-310.884167
 20
176.775083
 30
0.0
  0
VERTEX
  8
1
  6
CONTINUOUS
 62
     2
  5
251
 10
-310.736833
 20
176.6665
 30
0.0
  0
VERTEX
  8
1
  6
CONTINUOUS
 62
     2
  5
252
 10
-310.614
 20
176.576917
 30
0.0
  0
SEQEND
  8
1
  6
CONTINUOUS
 62
     2
  5
253
  0
POLYLINE
  8
1
  6
CONTINUOUS
 62
     2
  5
254
 66
     1
 10
0.0
 20
0.0
 30
0.0
  0
VERTEX
  8
1
  6
CONTINUOUS
 62
     2
  5
255
 10
-310.694333
 20
177.422833
 30
0.0
  0
VERTEX
  8
1
  6
CONTINUOUS
 62
     2
  5
256
 10
-310.867583
 20
177.292417
 30
0.0
  0
VERTEX
  8
1
  6
CONTINUOUS
 62
     2
  5
257
 10
-310.998667
 20
177.192917
 30
0.0
  0
VERTEX
  8
1
  6
CONTINUOUS
 62
     2
  5
258
 10
-311.093417
 20
177.12
 30
0.0
  0
VERTEX
  8
1
  6
CONTINUOUS
 62
     2
  5
259
 10
-311.157833
 20
177.069167
 30
0.0
  0
VERTEX
  8
1
  6
CONTINUOUS
 62
     2
  5
25A
 10
-311.198
 20
177.036167
 30
0.0
  0
VERTEX
  8
1
  6
CONTINUOUS
 62
     2
  5
25B
 10
-311.21975
 20
177.016667
 30
0.0
  0
VERTEX
  8
1
  6
CONTINUOUS
 62
     2
  5
25C
 10
-311.228917
 20
177.00625
 30
0.0
  0
VERTEX
  8
1
  6
CONTINUOUS
 62
     2
  5
25D
 10
-311.23175
 20
177.000583
 30
0.0
  0
VERTEX
  8
1
  6
CONTINUOUS
 62
     2
  5
25E
 10
-311.233
 20
176.996083
 30
0.0
  0
VERTEX
  8
1
  6
CONTINUOUS
 62
     2
  5
25F
 10
-311.233667
 20
176.991833
 30
0.0
  0
VERTEX
  8
1
  6
CONTINUOUS
 62
     2
  5
260
 10
-311.233917
 20
176.987833
 30
0.0
  0
VERTEX
  8
1
  6
CONTINUOUS
 62
     2
  5
261
 10
-311.233583
 20
176.984
 30
0.0
  0
VERTEX
  8
1
  6
CONTINUOUS
 62
     2
  5
262
 10
-311.232833
 20
176.980083
 30
0.0
  0
VERTEX
  8
1
  6
CONTINUOUS
 62
     2
  5
263
 10
-311.231417
 20
176.976083
 30
0.0
  0
VERTEX
  8
1
  6
CONTINUOUS
 62
     2
  5
264
 10
-311.229583
 20
176.971833
 30
0.0
  0
VERTEX
  8
1
  6
CONTINUOUS
 62
     2
  5
265
 10
-311.22725
 20
176.967333
 30
0.0
  0
VERTEX
  8
1
  6
CONTINUOUS
 62
     2
  5
266
 10
-311.223333
 20
176.961667
 30
0.0
  0
VERTEX
  8
1
  6
CONTINUOUS
 62
     2
  5
267
 10
-311.21225
 20
176.950833
 30
0.0
  0
VERTEX
  8
1
  6
CONTINUOUS
 62
     2
  5
268
 10
-311.187417
 20
176.930167
 30
0.0
  0
VERTEX
  8
1
  6
CONTINUOUS
 62
     2
  5
269
 10
-311.14225
 20
176.894917
 30
0.0
  0
VERTEX
  8
1
  6
CONTINUOUS
 62
     2
  5
26A
 10
-311.07
 20
176.8405
 30
0.0
  0
VERTEX
  8
1
  6
CONTINUOUS
 62
     2
  5
26B
 10
-310.964083
 20
176.762083
 30
0.0
  0
VERTEX
  8
1
  6
CONTINUOUS
 62
     2
  5
26C
 10
-310.817833
 20
176.655083
 30
0.0
  0
VERTEX
  8
1
  6
CONTINUOUS
 62
     2
  5
26D
 10
-310.66175
 20
176.541583
 30
0.0
  0
SEQEND
  8
1
  6
CONTINUOUS
 62
     2
  5
26E
  0
POLYLINE
  8
1
  6
CONTINUOUS
 62
     2
  5
26F
 66
     1
 10
0.0
 20
0.0
 30
0.0
  0
VERTEX
  8
1
  6
CONTINUOUS
 62
     2
  5
270
 10
-310.726833
 20
177.463
 30
0.0
  0
VERTEX
  8
1
  6
CONTINUOUS
 62
     2
  5
271
 10
-310.9165
 20
177.32675
 30
0.0
  0
VERTEX
  8
1
  6
CONTINUOUS
 62
     2
  5
272
 10
-311.05975
 20
177.2215
 30
0.0
  0
VERTEX
  8
1
  6
CONTINUOUS
 62
     2
  5
273
 10
-311.162917
 20
177.142833
 30
0.0
  0
VERTEX
  8
1
  6
CONTINUOUS
 62
     2
  5
274
 10
-311.232833
 20
177.086583
 30
0.0
  0
VERTEX
  8
1
  6
CONTINUOUS
 62
     2
  5
275
 10
-311.275833
 20
177.048167
 30
0.0
  0
VERTEX
  8
1
  6
CONTINUOUS
 62
     2
  5
276
 10
-311.298667
 20
177.023417
 30
0.0
  0
VERTEX
  8
1
  6
CONTINUOUS
 62
     2
  5
277
 10
-311.307833
 20
177.007917
 30
0.0
  0
VERTEX
  8
1
  6
CONTINUOUS
 62
     2
  5
278
 10
-311.309917
 20
176.997333
 30
0.0
  0
VERTEX
  8
1
  6
CONTINUOUS
 62
     2
  5
279
 10
-311.310417
 20
176.988
 30
0.0
  0
VERTEX
  8
1
  6
CONTINUOUS
 62
     2
  5
27A
 10
-311.310417
 20
176.97925
 30
0.0
  0
VERTEX
  8
1
  6
CONTINUOUS
 62
     2
  5
27B
 10
-311.31
 20
176.971083
 30
0.0
  0
VERTEX
  8
1
  6
CONTINUOUS
 62
     2
  5
27C
 10
-311.309
 20
176.963333
 30
0.0
  0
VERTEX
  8
1
  6
CONTINUOUS
 62
     2
  5
27D
 10
-311.307417
 20
176.956
 30
0.0
  0
VERTEX
  8
1
  6
CONTINUOUS
 62
     2
  5
27E
 10
-311.3055
 20
176.949083
 30
0.0
  0
VERTEX
  8
1
  6
CONTINUOUS
 62
     2
  5
27F
 10
-311.302833
 20
176.942667
 30
0.0
  0
VERTEX
  8
1
  6
CONTINUOUS
 62
     2
  5
280
 10
-311.299833
 20
176.936583
 30
0.0
  0
VERTEX
  8
1
  6
CONTINUOUS
 62
     2
  5
281
 10
-311.295167
 20
176.930083
 30
0.0
  0
VERTEX
  8
1
  6
CONTINUOUS
 62
     2
  5
282
 10
-311.283583
 20
176.9195
 30
0.0
  0
VERTEX
  8
1
  6
CONTINUOUS
 62
     2
  5
283
 10
-311.259
 20
176.9005
 30
0.0
  0
VERTEX
  8
1
  6
CONTINUOUS
 62
     2
  5
284
 10
-311.214833
 20
176.868583
 30
0.0
  0
VERTEX
  8
1
  6
CONTINUOUS
 62
     2
  5
285
 10
-311.144833
 20
176.8195
 30
0.0
  0
VERTEX
  8
1
  6
CONTINUOUS
 62
     2
  5
286
 10
-311.042833
 20
176.748667
 30
0.0
  0
VERTEX
  8
1
  6
CONTINUOUS
 62
     2
  5
287
 10
-310.902333
 20
176.65175
 30
0.0
  0
VERTEX
  8
1
  6
CONTINUOUS
 62
     2
  5
288
 10
-310.707417
 20
176.517667
 30
0.0
  0
SEQEND
  8
1
  6
CONTINUOUS
 62
     2
  5
289
  0
LINE
  8
1
  6
CONTINUOUS
 62
     2
  5
28A
 10
-310.726833
 20
177.463
 30
0.0
 11
-310.661417
 21
177.382083
 31
0.0
  0
ARC
  8
1
  6
CONTINUOUS
 62
     2
  5
28B
 10
-310.671333
 20
176.26925
 30
0.0
 40
0.085761
 50
114.866714
 51
245.133281
210
0.0
220
0.0
230
1.0
  0
LINE
  8
2
  6
HIDDEN
 62
     2
  5
28C
 10
-310.614
 20
176.177083
 30
0.0
 11
-309.191583
 21
176.177083
 31
0.0
  0
LINE
  8
2
  6
HIDDEN
 62
     2
  5
28D
 10
-309.191583
 20
176.145
 30
0.0
 11
-309.191583
 21
176.402
 31
0.0
  0
LINE
  8
2
  6
HIDDEN
 62
     2
  5
28E
 10
-310.614
 20
176.219083
 30
0.0
 11
-308.9865
 21
176.219083
 31
0.0
  0
LINE
  8
2
  6
HIDDEN
 62
     2
  5
28F
 10
-310.614
 20
176.318
 30
0.0
 11
-308.9865
 21
176.318
 31
0.0
  0
LINE
  8
2
  6
HIDDEN
 62
     2
  5
290
 10
-310.614
 20
176.36
 30
0.0
 11
-309.191583
 21
176.36
 31
0.0
  0
LINE
  8
2
  6
HIDDEN
 62
     2
  5
291
 10
-309.435167
 20
176.098
 30
0.0
 11
-309.381917
 21
176.098
 31
0.0
  0
LINE
  8
2
  6
HIDDEN
 62
     2
  5
292
 10
-309.381917
 20
176.098
 30
0.0
 11
-309.381917
 21
176.444
 31
0.0
  0
LINE
  8
2
  6
HIDDEN
 62
     2
  5
293
 10
-309.381917
 20
176.444
 30
0.0
 11
-309.435167
 21
176.444
 31
0.0
  0
LINE
  8
2
  6
HIDDEN
 62
     2
  5
294
 10
-309.381917
 20
176.402
 30
0.0
 11
-309.191583
 21
176.402
 31
0.0
  0
LINE
  8
2
  6
HIDDEN
 62
     2
  5
295
 10
-309.381917
 20
176.145
 30
0.0
 11
-309.191583
 21
176.145
 31
0.0
  0
LINE
  8
2
  6
HIDDEN
 62
     2
  5
296
 10
-308.9865
 20
176.318
 30
0.0
 11
-308.9865
 21
176.219083
 31
0.0
  0
LINE
  8
2
  6
HIDDEN
 62
     2
  5
297
 10
-309.124917
 20
176.318
 30
0.0
 11
-309.124917
 21
176.219083
 31
0.0
  0
LINE
  8
2
  6
HIDDEN
 62
     2
  5
298
 10
-309.055667
 20
176.318
 30
0.0
 11
-309.055667
 21
176.219083
 31
0.0
  0
LINE
  8
2
  6
HIDDEN
 62
     2
  5
299
 10
-309.018583
 20
176.288333
 30
0.0
 11
-309.018583
 21
176.25125
 31
0.0
  0
LINE
  8
2
  6
HIDDEN
 62
     2
  5
29A
 10
-309.1595
 20
176.288333
 30
0.0
 11
-309.1595
 21
176.25125
 31
0.0
  0
LINE
  8
2
  6
HIDDEN
 62
     2
  5
29B
 10
-309.087833
 20
176.288333
 30
0.0
 11
-309.087833
 21
176.25125
 31
0.0
  0
ARC
  8
1
  6
CONTINUOUS
 62
     2
  5
29C
 10
-310.714083
 20
183.26975
 30
0.0
 40
0.085761
 50
114.866714
 51
245.133281
210
0.0
220
0.0
230
1.0
  0
LINE
  8
1
  6
CONTINUOUS
 62
     2
  5
29D
 10
-310.769583
 20
184.463417
 30
0.0
 11
-310.704167
 21
184.382583
 31
0.0
  0
POLYLINE
  8
1
  6
CONTINUOUS
 62
     2
  5
29E
 66
     1
 10
0.0
 20
0.0
 30
0.0
  0
VERTEX
  8
1
  6
CONTINUOUS
 62
     2
  5
29F
 10
-310.769583
 20
184.463417
 30
0.0
  0
VERTEX
  8
1
  6
CONTINUOUS
 62
     2
  5
2A0
 10
-310.959333
 20
184.327167
 30
0.0
  0
VERTEX
  8
1
  6
CONTINUOUS
 62
     2
  5
2A1
 10
-311.1025
 20
184.221917
 30
0.0
  0
VERTEX
  8
1
  6
CONTINUOUS
 62
     2
  5
2A2
 10
-311.205667
 20
184.143333
 30
0.0
  0
VERTEX
  8
1
  6
CONTINUOUS
 62
     2
  5
2A3
 10
-311.2755
 20
184.087
 30
0.0
  0
VERTEX
  8
1
  6
CONTINUOUS
 62
     2
  5
2A4
 10
-311.318583
 20
184.048667
 30
0.0
  0
VERTEX
  8
1
  6
CONTINUOUS
 62
     2
  5
2A5
 10
-311.3415
 20
184.023917
 30
0.0
  0
VERTEX
  8
1
  6
CONTINUOUS
 62
     2
  5
2A6
 10
-311.350583
 20
184.008417
 30
0.0
  0
VERTEX
  8
1
  6
CONTINUOUS
 62
     2
  5
2A7
 10
-311.35275
 20
183.997833
 30
0.0
  0
VERTEX
  8
1
  6
CONTINUOUS
 62
     2
  5
2A8
 10
-311.353167
 20
183.9885
 30
0.0
  0
VERTEX
  8
1
  6
CONTINUOUS
 62
     2
  5
2A9
 10
-311.353167
 20
183.97975
 30
0.0
  0
VERTEX
  8
1
  6
CONTINUOUS
 62
     2
  5
2AA
 10
-311.35275
 20
183.9715
 30
0.0
  0
VERTEX
  8
1
  6
CONTINUOUS
 62
     2
  5
2AB
 10
-311.35175
 20
183.96375
 30
0.0
  0
VERTEX
  8
1
  6
CONTINUOUS
 62
     2
  5
2AC
 10
-311.350167
 20
183.9565
 30
0.0
  0
VERTEX
  8
1
  6
CONTINUOUS
 62
     2
  5
2AD
 10
-311.348167
 20
183.949583
 30
0.0
  0
VERTEX
  8
1
  6
CONTINUOUS
 62
     2
  5
2AE
 10
-311.345583
 20
183.943083
 30
0.0
  0
VERTEX
  8
1
  6
CONTINUOUS
 62
     2
  5
2AF
 10
-311.342583
 20
183.937
 30
0.0
  0
VERTEX
  8
1
  6
CONTINUOUS
 62
     2
  5
2B0
 10
-311.337917
 20
183.9305
 30
0.0
  0
VERTEX
  8
1
  6
CONTINUOUS
 62
     2
  5
2B1
 10
-311.326417
 20
183.92
 30
0.0
  0
VERTEX
  8
1
  6
CONTINUOUS
 62
     2
  5
2B2
 10
-311.301667
 20
183.900917
 30
0.0
  0
VERTEX
  8
1
  6
CONTINUOUS
 62
     2
  5
2B3
 10
-311.257583
 20
183.869083
 30
0.0
  0
VERTEX
  8
1
  6
CONTINUOUS
 62
     2
  5
2B4
 10
-311.187583
 20
183.819917
 30
0.0
  0
VERTEX
  8
1
  6
CONTINUOUS
 62
     2
  5
2B5
 10
-311.085583
 20
183.749083
 30
0.0
  0
VERTEX
  8
1
  6
CONTINUOUS
 62
     2
  5
2B6
 10
-310.945083
 20
183.65225
 30
0.0
  0
VERTEX
  8
1
  6
CONTINUOUS
 62
     2
  5
2B7
 10
-310.750167
 20
183.518167
 30
0.0
  0
SEQEND
  8
1
  6
CONTINUOUS
 62
     2
  5
2B8
  0
POLYLINE
  8
1
  6
CONTINUOUS
 62
     2
  5
2B9
 66
     1
 10
0.0
 20
0.0
 30
0.0
  0
VERTEX
  8
1
  6
CONTINUOUS
 62
     2
  5
2BA
 10
-310.737083
 20
184.42325
 30
0.0
  0
VERTEX
  8
1
  6
CONTINUOUS
 62
     2
  5
2BB
 10
-310.910333
 20
184.292917
 30
0.0
  0
VERTEX
  8
1
  6
CONTINUOUS
 62
     2
  5
2BC
 10
-311.041417
 20
184.193417
 30
0.0
  0
VERTEX
  8
1
  6
CONTINUOUS
 62
     2
  5
2BD
 10
-311.136167
 20
184.120417
 30
0.0
  0
VERTEX
  8
1
  6
CONTINUOUS
 62
     2
  5
2BE
 10
-311.200583
 20
184.069667
 30
0.0
  0
VERTEX
  8
1
  6
CONTINUOUS
 62
     2
  5
2BF
 10
-311.240833
 20
184.036667
 30
0.0
  0
VERTEX
  8
1
  6
CONTINUOUS
 62
     2
  5
2C0
 10
-311.262417
 20
184.017083
 30
0.0
  0
VERTEX
  8
1
  6
CONTINUOUS
 62
     2
  5
2C1
 10
-311.271667
 20
184.006667
 30
0.0
  0
VERTEX
  8
1
  6
CONTINUOUS
 62
     2
  5
2C2
 10
-311.2745
 20
184.001083
 30
0.0
  0
VERTEX
  8
1
  6
CONTINUOUS
 62
     2
  5
2C3
 10
-311.27575
 20
183.9965
 30
0.0
  0
VERTEX
  8
1
  6
CONTINUOUS
 62
     2
  5
2C4
 10
-311.276417
 20
183.992333
 30
0.0
  0
VERTEX
  8
1
  6
CONTINUOUS
 62
     2
  5
2C5
 10
-311.276667
 20
183.988333
 30
0.0
  0
VERTEX
  8
1
  6
CONTINUOUS
 62
     2
  5
2C6
 10
-311.276417
 20
183.984417
 30
0.0
  0
VERTEX
  8
1
  6
CONTINUOUS
 62
     2
  5
2C7
 10
-311.2755
 20
183.9805
 30
0.0
  0
VERTEX
  8
1
  6
CONTINUOUS
 62
     2
  5
2C8
 10
-311.27425
 20
183.9765
 30
0.0
  0
VERTEX
  8
1
  6
CONTINUOUS
 62
     2
  5
2C9
 10
-311.272417
 20
183.972333
 30
0.0
  0
VERTEX
  8
1
  6
CONTINUOUS
 62
     2
  5
2CA
 10
-311.27
 20
183.967833
 30
0.0
  0
VERTEX
  8
1
  6
CONTINUOUS
 62
     2
  5
2CB
 10
-311.266083
 20
183.962083
 30
0.0
  0
VERTEX
  8
1
  6
CONTINUOUS
 62
     2
  5
2CC
 10
-311.255
 20
183.95125
 30
0.0
  0
VERTEX
  8
1
  6
CONTINUOUS
 62
     2
  5
2CD
 10
-311.230167
 20
183.930583
 30
0.0
  0
VERTEX
  8
1
  6
CONTINUOUS
 62
     2
  5
2CE
 10
-311.185
 20
183.895417
 30
0.0
  0
VERTEX
  8
1
  6
CONTINUOUS
 62
     2
  5
2CF
 10
-311.11275
 20
183.841
 30
0.0
  0
VERTEX
  8
1
  6
CONTINUOUS
 62
     2
  5
2D0
 10
-311.006833
 20
183.762583
 30
0.0
  0
VERTEX
  8
1
  6
CONTINUOUS
 62
     2
  5
2D1
 10
-310.860583
 20
183.655583
 30
0.0
  0
VERTEX
  8
1
  6
CONTINUOUS
 62
     2
  5
2D2
 10
-310.7045
 20
183.542083
 30
0.0
  0
SEQEND
  8
1
  6
CONTINUOUS
 62
     2
  5
2D3
  0
POLYLINE
  8
1
  6
CONTINUOUS
 62
     2
  5
2D4
 66
     1
 10
0.0
 20
0.0
 30
0.0
  0
VERTEX
  8
1
  6
CONTINUOUS
 62
     2
  5
2D5
 10
-310.704167
 20
184.382583
 30
0.0
  0
VERTEX
  8
1
  6
CONTINUOUS
 62
     2
  5
2D6
 10
-310.8655
 20
184.2625
 30
0.0
  0
VERTEX
  8
1
  6
CONTINUOUS
 62
     2
  5
2D7
 10
-310.986833
 20
184.170917
 30
0.0
  0
VERTEX
  8
1
  6
CONTINUOUS
 62
     2
  5
2D8
 10
-311.073917
 20
184.103667
 30
0.0
  0
VERTEX
  8
1
  6
CONTINUOUS
 62
     2
  5
2D9
 10
-311.132167
 20
184.056667
 30
0.0
  0
VERTEX
  8
1
  6
CONTINUOUS
 62
     2
  5
2DA
 10
-311.167417
 20
184.025833
 30
0.0
  0
VERTEX
  8
1
  6
CONTINUOUS
 62
     2
  5
2DB
 10
-311.185
 20
184.007083
 30
0.0
  0
VERTEX
  8
1
  6
CONTINUOUS
 62
     2
  5
2DC
 10
-311.19075
 20
183.99625
 30
0.0
  0
VERTEX
  8
1
  6
CONTINUOUS
 62
     2
  5
2DD
 10
-311.190167
 20
183.98925
 30
0.0
  0
VERTEX
  8
1
  6
CONTINUOUS
 62
     2
  5
2DE
 10
-311.186917
 20
183.982
 30
0.0
  0
VERTEX
  8
1
  6
CONTINUOUS
 62
     2
  5
2DF
 10
-311.17625
 20
183.96975
 30
0.0
  0
VERTEX
  8
1
  6
CONTINUOUS
 62
     2
  5
2E0
 10
-311.151667
 20
183.947667
 30
0.0
  0
VERTEX
  8
1
  6
CONTINUOUS
 62
     2
  5
2E1
 10
-311.106333
 20
183.911167
 30
0.0
  0
VERTEX
  8
1
  6
CONTINUOUS
 62
     2
  5
2E2
 10
-311.033667
 20
183.855417
 30
0.0
  0
VERTEX
  8
1
  6
CONTINUOUS
 62
     2
  5
2E3
 10
-310.926917
 20
183.775583
 30
0.0
  0
VERTEX
  8
1
  6
CONTINUOUS
 62
     2
  5
2E4
 10
-310.779583
 20
183.667
 30
0.0
  0
VERTEX
  8
1
  6
CONTINUOUS
 62
     2
  5
2E5
 10
-310.65675
 20
183.577417
 30
0.0
  0
SEQEND
  8
1
  6
CONTINUOUS
 62
     2
  5
2E6
  0
LINE
  8
1
  6
CONTINUOUS
 62
     2
  5
2E7
 10
-310.750167
 20
183.057583
 30
0.0
 11
-310.750167
 21
183.518167
 31
0.0
  0
POLYLINE
  8
1
  6
CONTINUOUS
 62
     2
  5
2E8
 66
     1
 10
0.0
 20
0.0
 30
0.0
  0
VERTEX
  8
1
  6
CONTINUOUS
 62
     2
  5
2E9
 10
-310.737083
 20
182.152417
 30
0.0
  0
VERTEX
  8
1
  6
CONTINUOUS
 62
     2
  5
2EA
 10
-310.910333
 20
182.282833
 30
0.0
  0
VERTEX
  8
1
  6
CONTINUOUS
 62
     2
  5
2EB
 10
-311.041417
 20
182.382333
 30
0.0
  0
VERTEX
  8
1
  6
CONTINUOUS
 62
     2
  5
2EC
 10
-311.136167
 20
182.45525
 30
0.0
  0
VERTEX
  8
1
  6
CONTINUOUS
 62
     2
  5
2ED
 10
-311.200583
 20
182.506083
 30
0.0
  0
VERTEX
  8
1
  6
CONTINUOUS
 62
     2
  5
2EE
 10
-311.240833
 20
182.539083
 30
0.0
  0
VERTEX
  8
1
  6
CONTINUOUS
 62
     2
  5
2EF
 10
-311.262417
 20
182.558667
 30
0.0
  0
VERTEX
  8
1
  6
CONTINUOUS
 62
     2
  5
2F0
 10
-311.271667
 20
182.569083
 30
0.0
  0
VERTEX
  8
1
  6
CONTINUOUS
 62
     2
  5
2F1
 10
-311.2745
 20
182.574667
 30
0.0
  0
VERTEX
  8
1
  6
CONTINUOUS
 62
     2
  5
2F2
 10
-311.27575
 20
182.579167
 30
0.0
  0
VERTEX
  8
1
  6
CONTINUOUS
 62
     2
  5
2F3
 10
-311.276417
 20
182.583417
 30
0.0
  0
VERTEX
  8
1
  6
CONTINUOUS
 62
     2
  5
2F4
 10
-311.276667
 20
182.587417
 30
0.0
  0
VERTEX
  8
1
  6
CONTINUOUS
 62
     2
  5
2F5
 10
-311.276417
 20
182.591333
 30
0.0
  0
VERTEX
  8
1
  6
CONTINUOUS
 62
     2
  5
2F6
 10
-311.2755
 20
182.595167
 30
0.0
  0
VERTEX
  8
1
  6
CONTINUOUS
 62
     2
  5
2F7
 10
-311.27425
 20
182.599167
 30
0.0
  0
VERTEX
  8
1
  6
CONTINUOUS
 62
     2
  5
2F8
 10
-311.272417
 20
182.603417
 30
0.0
  0
VERTEX
  8
1
  6
CONTINUOUS
 62
     2
  5
2F9
 10
-311.27
 20
182.607917
 30
0.0
  0
VERTEX
  8
1
  6
CONTINUOUS
 62
     2
  5
2FA
 10
-311.266083
 20
182.613583
 30
0.0
  0
VERTEX
  8
1
  6
CONTINUOUS
 62
     2
  5
2FB
 10
-311.255
 20
182.624417
 30
0.0
  0
VERTEX
  8
1
  6
CONTINUOUS
 62
     2
  5
2FC
 10
-311.230167
 20
182.645083
 30
0.0
  0
VERTEX
  8
1
  6
CONTINUOUS
 62
     2
  5
2FD
 10
-311.185
 20
182.680333
 30
0.0
  0
VERTEX
  8
1
  6
CONTINUOUS
 62
     2
  5
2FE
 10
-311.11275
 20
182.73475
 30
0.0
  0
VERTEX
  8
1
  6
CONTINUOUS
 62
     2
  5
2FF
 10
-311.006833
 20
182.813167
 30
0.0
  0
VERTEX
  8
1
  6
CONTINUOUS
 62
     2
  5
300
 10
-310.860583
 20
182.920167
 30
0.0
  0
VERTEX
  8
1
  6
CONTINUOUS
 62
     2
  5
301
 10
-310.7045
 20
183.033667
 30
0.0
  0
SEQEND
  8
1
  6
CONTINUOUS
 62
     2
  5
302
  0
LINE
  8
1
  6
CONTINUOUS
 62
     2
  5
303
 10
-310.7045
 20
183.033667
 30
0.0
 11
-310.7045
 21
183.542083
 31
0.0
  0
POLYLINE
  8
1
  6
CONTINUOUS
 62
     2
  5
304
 66
     1
 10
0.0
 20
0.0
 30
0.0
  0
VERTEX
  8
1
  6
CONTINUOUS
 62
     2
  5
305
 10
-310.704167
 20
182.193167
 30
0.0
  0
VERTEX
  8
1
  6
CONTINUOUS
 62
     2
  5
306
 10
-310.8655
 20
182.31325
 30
0.0
  0
VERTEX
  8
1
  6
CONTINUOUS
 62
     2
  5
307
 10
-310.986833
 20
182.404833
 30
0.0
  0
VERTEX
  8
1
  6
CONTINUOUS
 62
     2
  5
308
 10
-311.073917
 20
182.472083
 30
0.0
  0
VERTEX
  8
1
  6
CONTINUOUS
 62
     2
  5
309
 10
-311.132167
 20
182.519083
 30
0.0
  0
VERTEX
  8
1
  6
CONTINUOUS
 62
     2
  5
30A
 10
-311.167417
 20
182.549917
 30
0.0
  0
VERTEX
  8
1
  6
CONTINUOUS
 62
     2
  5
30B
 10
-311.185
 20
182.568667
 30
0.0
  0
VERTEX
  8
1
  6
CONTINUOUS
 62
     2
  5
30C
 10
-311.19075
 20
182.5795
 30
0.0
  0
VERTEX
  8
1
  6
CONTINUOUS
 62
     2
  5
30D
 10
-311.190167
 20
182.586417
 30
0.0
  0
VERTEX
  8
1
  6
CONTINUOUS
 62
     2
  5
30E
 10
-311.186917
 20
182.59375
 30
0.0
  0
VERTEX
  8
1
  6
CONTINUOUS
 62
     2
  5
30F
 10
-311.17625
 20
182.606
 30
0.0
  0
VERTEX
  8
1
  6
CONTINUOUS
 62
     2
  5
310
 10
-311.151667
 20
182.628
 30
0.0
  0
VERTEX
  8
1
  6
CONTINUOUS
 62
     2
  5
311
 10
-311.106333
 20
182.664583
 30
0.0
  0
VERTEX
  8
1
  6
CONTINUOUS
 62
     2
  5
312
 10
-311.033667
 20
182.720333
 30
0.0
  0
VERTEX
  8
1
  6
CONTINUOUS
 62
     2
  5
313
 10
-310.926917
 20
182.800167
 30
0.0
  0
VERTEX
  8
1
  6
CONTINUOUS
 62
     2
  5
314
 10
-310.779583
 20
182.90875
 30
0.0
  0
VERTEX
  8
1
  6
CONTINUOUS
 62
     2
  5
315
 10
-310.65675
 20
182.998333
 30
0.0
  0
SEQEND
  8
1
  6
CONTINUOUS
 62
     2
  5
316
  0
LINE
  8
1
  6
CONTINUOUS
 62
     2
  5
317
 10
-310.769583
 20
182.11225
 30
0.0
 11
-310.704167
 21
182.193167
 31
0.0
  0
POLYLINE
  8
1
  6
CONTINUOUS
 62
     2
  5
318
 66
     1
 10
0.0
 20
0.0
 30
0.0
  0
VERTEX
  8
1
  6
CONTINUOUS
 62
     2
  5
319
 10
-310.769583
 20
182.11225
 30
0.0
  0
VERTEX
  8
1
  6
CONTINUOUS
 62
     2
  5
31A
 10
-310.959333
 20
182.2485
 30
0.0
  0
VERTEX
  8
1
  6
CONTINUOUS
 62
     2
  5
31B
 10
-311.1025
 20
182.35375
 30
0.0
  0
VERTEX
  8
1
  6
CONTINUOUS
 62
     2
  5
31C
 10
-311.205667
 20
182.432417
 30
0.0
  0
VERTEX
  8
1
  6
CONTINUOUS
 62
     2
  5
31D
 10
-311.2755
 20
182.48875
 30
0.0
  0
VERTEX
  8
1
  6
CONTINUOUS
 62
     2
  5
31E
 10
-311.318583
 20
182.527083
 30
0.0
  0
VERTEX
  8
1
  6
CONTINUOUS
 62
     2
  5
31F
 10
-311.3415
 20
182.551833
 30
0.0
  0
VERTEX
  8
1
  6
CONTINUOUS
 62
     2
  5
320
 10
-311.350583
 20
182.567333
 30
0.0
  0
VERTEX
  8
1
  6
CONTINUOUS
 62
     2
  5
321
 10
-311.35275
 20
182.577917
 30
0.0
  0
VERTEX
  8
1
  6
CONTINUOUS
 62
     2
  5
322
 10
-311.353167
 20
182.58725
 30
0.0
  0
VERTEX
  8
1
  6
CONTINUOUS
 62
     2
  5
323
 10
-311.353167
 20
182.596
 30
0.0
  0
VERTEX
  8
1
  6
CONTINUOUS
 62
     2
  5
324
 10
-311.35275
 20
182.60425
 30
0.0
  0
VERTEX
  8
1
  6
CONTINUOUS
 62
     2
  5
325
 10
-311.35175
 20
182.612
 30
0.0
  0
VERTEX
  8
1
  6
CONTINUOUS
 62
     2
  5
326
 10
-311.350167
 20
182.61925
 30
0.0
  0
VERTEX
  8
1
  6
CONTINUOUS
 62
     2
  5
327
 10
-311.348167
 20
182.626167
 30
0.0
  0
VERTEX
  8
1
  6
CONTINUOUS
 62
     2
  5
328
 10
-311.345583
 20
182.632583
 30
0.0
  0
VERTEX
  8
1
  6
CONTINUOUS
 62
     2
  5
329
 10
-311.342583
 20
182.63875
 30
0.0
  0
VERTEX
  8
1
  6
CONTINUOUS
 62
     2
  5
32A
 10
-311.337917
 20
182.64525
 30
0.0
  0
VERTEX
  8
1
  6
CONTINUOUS
 62
     2
  5
32B
 10
-311.326417
 20
182.65575
 30
0.0
  0
VERTEX
  8
1
  6
CONTINUOUS
 62
     2
  5
32C
 10
-311.301667
 20
182.67475
 30
0.0
  0
VERTEX
  8
1
  6
CONTINUOUS
 62
     2
  5
32D
 10
-311.257583
 20
182.706667
 30
0.0
  0
VERTEX
  8
1
  6
CONTINUOUS
 62
     2
  5
32E
 10
-311.187583
 20
182.755833
 30
0.0
  0
VERTEX
  8
1
  6
CONTINUOUS
 62
     2
  5
32F
 10
-311.085583
 20
182.826583
 30
0.0
  0
VERTEX
  8
1
  6
CONTINUOUS
 62
     2
  5
330
 10
-310.945083
 20
182.9235
 30
0.0
  0
VERTEX
  8
1
  6
CONTINUOUS
 62
     2
  5
331
 10
-310.750167
 20
183.057583
 30
0.0
  0
SEQEND
  8
1
  6
CONTINUOUS
 62
     2
  5
332
  0
LINE
  8
1
  6
CONTINUOUS
 62
     2
  5
333
 10
-309.252833
 20
180.536417
 30
0.0
 11
-309.579
 21
180.536417
 31
0.0
  0
LINE
  8
1
  6
CONTINUOUS
 62
     2
  5
334
 10
-308.852417
 20
180.360833
 30
0.0
 11
-308.7265
 21
180.536417
 31
0.0
  0
LINE
  8
1
  6
CONTINUOUS
 62
     2
  5
335
 10
-309.111417
 20
180.686167
 30
0.0
 11
-308.852417
 21
180.360833
 31
0.0
  0
LINE
  8
1
  6
CONTINUOUS
 62
     2
  5
336
 10
-309.252833
 20
180.536417
 30
0.0
 11
-309.111417
 21
180.686167
 31
0.0
  0
LINE
  8
1
  6
CONTINUOUS
 62
     2
  5
337
 10
-310.65675
 20
182.000417
 30
0.0
 11
-310.65675
 21
184.559083
 31
0.0
  0
LINE
  8
1
  6
CONTINUOUS
 62
     2
  5
338
 10
-309.579
 20
182.000417
 30
0.0
 11
-310.65675
 21
182.000417
 31
0.0
  0
LINE
  8
1
  6
CONTINUOUS
 62
     2
  5
339
 10
-309.579
 20
180.536417
 30
0.0
 11
-309.579
 21
184.559083
 31
0.0
  0
LINE
  8
1
  6
CONTINUOUS
 62
     2
  5
33A
 10
-308.391083
 20
180.536417
 30
0.0
 11
-308.7265
 21
180.536417
 31
0.0
  0
LINE
  8
1
  6
CONTINUOUS
 62
     2
  5
33B
 10
-308.391083
 20
184.559083
 30
0.0
 11
-308.391083
 21
180.536417
 31
0.0
  0
LINE
  8
1
  6
CONTINUOUS
 62
     2
  5
33C
 10
-310.65675
 20
184.559083
 30
0.0
 11
-308.391083
 21
184.559083
 31
0.0
  0
LINE
  8
2
  6
HIDDEN
 62
     2
  5
33D
 10
-310.588333
 20
182.000417
 30
0.0
 11
-310.588333
 21
184.559083
 31
0.0
  0
LINE
  8
2
  6
HIDDEN
 62
     2
  5
33E
 10
-310.443
 20
182.000417
 30
0.0
 11
-310.443
 21
184.559083
 31
0.0
  0
LINE
  8
2
  6
HIDDEN
 62
     2
  5
33F
 10
-309.827333
 20
182.000417
 30
0.0
 11
-309.827333
 21
184.559083
 31
0.0
  0
LINE
  8
2
  6
HIDDEN
 62
     2
  5
340
 10
-309.63925
 20
182.000417
 30
0.0
 11
-309.63925
 21
184.559083
 31
0.0
  0
LINE
  8
2
  6
HIDDEN
 62
     2
  5
341
 10
-309.519167
 20
180.536417
 30
0.0
 11
-309.519167
 21
184.559083
 31
0.0
  0
LINE
  8
2
  6
HIDDEN
 62
     2
  5
342
 10
-309.36525
 20
180.536417
 30
0.0
 11
-309.36525
 21
184.559083
 31
0.0
  0
LINE
  8
2
  6
HIDDEN
 62
     2
  5
343
 10
-308.6385
 20
180.536417
 30
0.0
 11
-308.6385
 21
184.559083
 31
0.0
  0
LINE
  8
2
  6
HIDDEN
 62
     2
  5
344
 10
-308.51025
 20
180.536417
 30
0.0
 11
-308.51025
 21
184.559083
 31
0.0
  0
LINE
  8
2
  6
HIDDEN
 62
     2
  5
345
 10
-310.65675
 20
183.293333
 30
0.0
 11
-310.20075
 21
183.293333
 31
0.0
  0
LINE
  8
2
  6
HIDDEN
 62
     2
  5
346
 10
-310.20075
 20
183.293333
 30
0.0
 11
-310.20075
 21
183.229667
 31
0.0
  0
LINE
  8
2
  6
HIDDEN
 62
     2
  5
347
 10
-310.20075
 20
183.229667
 30
0.0
 11
-310.65675
 21
183.229667
 31
0.0
  0
LINE
  8
2
  6
HIDDEN
 62
     2
  5
348
 10
-310.588333
 20
183.392417
 30
0.0
 11
-310.512583
 21
183.392417
 31
0.0
  0
LINE
  8
2
  6
HIDDEN
 62
     2
  5
349
 10
-310.512583
 20
183.392417
 30
0.0
 11
-310.512583
 21
183.103667
 31
0.0
  0
LINE
  8
2
  6
HIDDEN
 62
     2
  5
34A
 10
-310.512583
 20
183.103667
 30
0.0
 11
-310.588333
 21
183.103667
 31
0.0
  0
LINE
  8
2
  6
HIDDEN
 62
     2
  5
34B
 10
-310.512583
 20
183.363
 30
0.0
 11
-310.38175
 21
183.363
 31
0.0
  0
LINE
  8
2
  6
HIDDEN
 62
     2
  5
34C
 10
-310.38175
 20
183.363
 30
0.0
 11
-310.38175
 21
183.137917
 31
0.0
  0
LINE
  8
2
  6
HIDDEN
 62
     2
  5
34D
 10
-310.38175
 20
183.137917
 30
0.0
 11
-310.512583
 21
183.137917
 31
0.0
  0
LINE
  8
2
  6
HIDDEN
 62
     2
  5
34E
 10
-310.65675
 20
183.184417
 30
0.0
 11
-310.38175
 21
183.184417
 31
0.0
  0
LINE
  8
2
  6
HIDDEN
 62
     2
  5
34F
 10
-310.65675
 20
183.333667
 30
0.0
 11
-310.38175
 21
183.333667
 31
0.0
  0
LINE
  8
2
  6
HIDDEN
 62
     2
  5
350
 10
-310.249667
 20
183.293333
 30
0.0
 11
-310.249667
 21
183.229667
 31
0.0
  0
LINE
  8
2
  6
HIDDEN
 62
     2
  5
351
 10
-310.309583
 20
183.293333
 30
0.0
 11
-310.309583
 21
183.229667
 31
0.0
  0
LINE
  8
2
  6
HIDDEN
 62
     2
  5
352
 10
-310.345
 20
183.274917
 30
0.0
 11
-310.345
 21
183.24925
 31
0.0
  0
LINE
  8
2
  6
HIDDEN
 62
     2
  5
353
 10
-310.28025
 20
183.274917
 30
0.0
 11
-310.28025
 21
183.24925
 31
0.0
  0
LINE
  8
2
  6
HIDDEN
 62
     2
  5
354
 10
-310.223917
 20
183.274917
 30
0.0
 11
-310.223917
 21
183.24925
 31
0.0
  0
LINE
  8
2
  6
HIDDEN
 62
     2
  5
355
 10
-309.86425
 20
184.283833
 30
0.0
 11
-309.63925
 21
184.283833
 31
0.0
  0
LINE
  8
2
  6
HIDDEN
 62
     2
  5
356
 10
-309.63925
 20
184.283833
 30
0.0
 11
-309.63925
 21
184.042
 31
0.0
  0
LINE
  8
2
  6
HIDDEN
 62
     2
  5
357
 10
-309.63925
 20
184.042
 30
0.0
 11
-309.86425
 21
184.042
 31
0.0
  0
LINE
  8
2
  6
HIDDEN
 62
     2
  5
358
 10
-309.86425
 20
184.042
 30
0.0
 11
-309.86425
 21
184.283833
 31
0.0
  0
LINE
  8
2
  6
HIDDEN
 62
     2
  5
359
 10
-309.519167
 20
184.33275
 30
0.0
 11
-309.455917
 21
184.33275
 31
0.0
  0
LINE
  8
2
  6
HIDDEN
 62
     2
  5
35A
 10
-309.455917
 20
184.33275
 30
0.0
 11
-309.455917
 21
183.998667
 31
0.0
  0
LINE
  8
2
  6
HIDDEN
 62
     2
  5
35B
 10
-309.455917
 20
183.998667
 30
0.0
 11
-309.519167
 21
183.99725
 31
0.0
  0
LINE
  8
2
  6
HIDDEN
 62
     2
  5
35C
 10
-309.519167
 20
183.99725
 30
0.0
 11
-309.519167
 21
184.33275
 31
0.0
  0
LINE
  8
2
  6
HIDDEN
 62
     2
  5
35D
 10
-309.455917
 20
184.288
 30
0.0
 11
-309.253167
 21
184.288
 31
0.0
  0
LINE
  8
2
  6
HIDDEN
 62
     2
  5
35E
 10
-309.253167
 20
184.288
 30
0.0
 11
-309.253167
 21
184.039167
 31
0.0
  0
LINE
  8
2
  6
HIDDEN
 62
     2
  5
35F
 10
-309.253167
 20
184.039167
 30
0.0
 11
-309.455917
 21
184.039167
 31
0.0
  0
LINE
  8
2
  6
HIDDEN
 62
     2
  5
360
 10
-309.86425
 20
184.213917
 30
0.0
 11
-309.253167
 21
184.213917
 31
0.0
  0
LINE
  8
2
  6
HIDDEN
 62
     2
  5
361
 10
-309.86425
 20
184.083917
 30
0.0
 11
-309.253167
 21
184.083917
 31
0.0
  0
LINE
  8
2
  6
HIDDEN
 62
     2
  5
362
 10
-309.63925
 20
184.114667
 30
0.0
 11
-309.10775
 21
184.114667
 31
0.0
  0
LINE
  8
2
  6
HIDDEN
 62
     2
  5
363
 10
-309.10775
 20
184.114667
 30
0.0
 11
-309.10775
 21
184.183167
 31
0.0
  0
LINE
  8
2
  6
HIDDEN
 62
     2
  5
364
 10
-309.10775
 20
184.183167
 30
0.0
 11
-309.63925
 21
184.183167
 31
0.0
  0
LINE
  8
2
  6
HIDDEN
 62
     2
  5
365
 10
-309.1735
 20
184.114667
 30
0.0
 11
-309.1735
 21
184.183167
 31
0.0
  0
LINE
  8
2
  6
HIDDEN
 62
     2
  5
366
 10
-309.141333
 20
184.135667
 30
0.0
 11
-309.141333
 21
184.165
 31
0.0
  0
LINE
  8
2
  6
HIDDEN
 62
     2
  5
367
 10
-309.212583
 20
184.135667
 30
0.0
 11
-309.212583
 21
184.165
 31
0.0
  0
LINE
  8
2
  6
HIDDEN
 62
     2
  5
368
 10
-309.212583
 20
182.383
 30
0.0
 11
-309.212583
 21
182.412333
 31
0.0
  0
LINE
  8
2
  6
HIDDEN
 62
     2
  5
369
 10
-309.141333
 20
182.383
 30
0.0
 11
-309.141333
 21
182.412333
 31
0.0
  0
LINE
  8
2
  6
HIDDEN
 62
     2
  5
36A
 10
-309.1735
 20
182.362083
 30
0.0
 11
-309.1735
 21
182.430583
 31
0.0
  0
LINE
  8
2
  6
HIDDEN
 62
     2
  5
36B
 10
-309.10775
 20
182.430583
 30
0.0
 11
-309.63925
 21
182.430583
 31
0.0
  0
LINE
  8
2
  6
HIDDEN
 62
     2
  5
36C
 10
-309.10775
 20
182.362083
 30
0.0
 11
-309.10775
 21
182.430583
 31
0.0
  0
LINE
  8
2
  6
HIDDEN
 62
     2
  5
36D
 10
-309.63925
 20
182.362083
 30
0.0
 11
-309.10775
 21
182.362083
 31
0.0
  0
LINE
  8
2
  6
HIDDEN
 62
     2
  5
36E
 10
-309.86425
 20
182.331333
 30
0.0
 11
-309.253167
 21
182.331333
 31
0.0
  0
LINE
  8
2
  6
HIDDEN
 62
     2
  5
36F
 10
-309.86425
 20
182.461333
 30
0.0
 11
-309.253167
 21
182.461333
 31
0.0
  0
LINE
  8
2
  6
HIDDEN
 62
     2
  5
370
 10
-309.253167
 20
182.286583
 30
0.0
 11
-309.455917
 21
182.286583
 31
0.0
  0
LINE
  8
2
  6
HIDDEN
 62
     2
  5
371
 10
-309.253167
 20
182.535417
 30
0.0
 11
-309.253167
 21
182.286583
 31
0.0
  0
LINE
  8
2
  6
HIDDEN
 62
     2
  5
372
 10
-309.455917
 20
182.535417
 30
0.0
 11
-309.253167
 21
182.535417
 31
0.0
  0
LINE
  8
2
  6
HIDDEN
 62
     2
  5
373
 10
-309.519167
 20
182.244583
 30
0.0
 11
-309.519167
 21
182.580083
 31
0.0
  0
LINE
  8
2
  6
HIDDEN
 62
     2
  5
374
 10
-309.455917
 20
182.246
 30
0.0
 11
-309.519167
 21
182.244583
 31
0.0
  0
LINE
  8
2
  6
HIDDEN
 62
     2
  5
375
 10
-309.455917
 20
182.580083
 30
0.0
 11
-309.455917
 21
182.246
 31
0.0
  0
LINE
  8
2
  6
HIDDEN
 62
     2
  5
376
 10
-309.519167
 20
182.580083
 30
0.0
 11
-309.455917
 21
182.580083
 31
0.0
  0
LINE
  8
2
  6
HIDDEN
 62
     2
  5
377
 10
-309.86425
 20
182.289333
 30
0.0
 11
-309.86425
 21
182.531167
 31
0.0
  0
LINE
  8
2
  6
HIDDEN
 62
     2
  5
378
 10
-309.63925
 20
182.289333
 30
0.0
 11
-309.86425
 21
182.289333
 31
0.0
  0
LINE
  8
2
  6
HIDDEN
 62
     2
  5
379
 10
-309.63925
 20
182.531167
 30
0.0
 11
-309.63925
 21
182.289333
 31
0.0
  0
LINE
  8
2
  6
HIDDEN
 62
     2
  5
37A
 10
-309.86425
 20
182.531167
 30
0.0
 11
-309.63925
 21
182.531167
 31
0.0
  0
LINE
  8
1
  6
CONTINUOUS
 62
     2
  5
37B
 10
-309.502083
 20
177.621083
 30
0.0
 11
-309.502083
 21
177.97775
 31
0.0
  0
LINE
  8
1
  6
CONTINUOUS
 62
     2
  5
37C
 10
-308.348333
 20
177.621083
 30
0.0
 11
-308.348333
 21
177.97775
 31
0.0
  0
SOLID
  8
1
  6
CONTINUOUS
 62
     2
  5
37D
 10
-309.34525
 20
177.845917
 30
0.0
 11
-309.34525
 21
177.895917
 31
0.0
 12
-309.49525
 22
177.870917
 32
0.0
 13
-309.49525
 23
177.870917
 33
0.0
  0
SOLID
  8
1
  6
CONTINUOUS
 62
     2
  5
37E
 10
-308.448333
 20
177.855083
 30
0.0
 11
-308.448333
 21
177.888417
 31
0.0
 12
-308.348333
 22
177.87175
 32
0.0
 13
-308.348333
 23
177.87175
 33
0.0
  0
TEXT
  8
1
  6
CONTINUOUS
 62
     2
  5
37F
 10
-308.949333
 20
177.817667
 30
0.0
 40
0.159
  1
D
  7
MONOTXT
210
0.0
220
0.0
230
1.0
  0
LINE
  8
8
  6
CONTINUOUS
 62
     2
  5
381
 10
-309.502083
 20
177.558583
 30
0.0
 11
-309.502
 21
177.558583
 31
0.0
  0
LINE
  8
8
  6
CONTINUOUS
 62
     2
  5
382
 10
-308.348333
 20
177.558583
 30
0.0
 11
-308.34825
 21
177.558583
 31
0.0
  0
LINE
  8
8
  6
CONTINUOUS
 62
     2
  5
383
 10
-308.348333
 20
177.87175
 30
0.0
 11
-308.34825
 21
177.87175
 31
0.0
  0
LINE
  8
1
  6
CONTINUOUS
 62
     2
  5
384
 10
-310.614
 20
177.621083
 30
0.0
 11
-310.614
 21
177.97775
 31
0.0
  0
SOLID
  8
1
  6
CONTINUOUS
 62
     2
  5
385
 10
-309.658333
 20
177.846
 30
0.0
 11
-309.658333
 21
177.896
 31
0.0
 12
-309.508333
 22
177.871
 32
0.0
 13
-309.508333
 23
177.871
 33
0.0
  0
SOLID
  8
1
  6
CONTINUOUS
 62
     2
  5
386
 10
-310.451583
 20
177.847833
 30
0.0
 11
-310.451583
 21
177.897833
 31
0.0
 12
-310.601583
 22
177.872833
 32
0.0
 13
-310.601583
 23
177.872833
 33
0.0
  0
TEXT
  8
1
  6
CONTINUOUS
 62
     2
  5
387
 10
-310.073417
 20
177.825083
 30
0.0
 40
0.159
  1
6"
  7
MONOTXT
210
0.0
220
0.0
230
1.0
  0
LINE
  8
8
  6
CONTINUOUS
 62
     2
  5
388
 10
-309.502083
 20
177.558583
 30
0.0
 11
-309.502
 21
177.558583
 31
0.0
  0
LINE
  8
8
  6
CONTINUOUS
 62
     2
  5
389
 10
-310.614
 20
177.558583
 30
0.0
 11
-310.613917
 21
177.558583
 31
0.0
  0
LINE
  8
8
  6
CONTINUOUS
 62
     2
  5
38A
 10
-310.614
 20
177.87175
 30
0.0
 11
-310.613917
 21
177.87175
 31
0.0
  0
LINE
  8
1
  6
CONTINUOUS
 62
     2
  5
38B
 10
-305.976167
 20
177.655667
 30
0.0
 11
-305.976167
 21
177.97775
 31
0.0
  0
LINE
  8
1
  6
CONTINUOUS
 62
     2
  5
38C
 10
-305.0815
 20
177.655667
 30
0.0
 11
-305.0815
 21
177.97775
 31
0.0
  0
SOLID
  8
1
  6
CONTINUOUS
 62
     2
  5
38D
 10
-305.825167
 20
177.847667
 30
0.0
 11
-305.825167
 21
177.897667
 31
0.0
 12
-305.975167
 22
177.872667
 32
0.0
 13
-305.975167
 23
177.872667
 33
0.0
  0
SOLID
  8
1
  6
CONTINUOUS
 62
     2
  5
38E
 10
-305.2395
 20
177.84575
 30
0.0
 11
-305.2395
 21
177.89575
 31
0.0
 12
-305.0895
 22
177.87075
 32
0.0
 13
-305.0895
 23
177.87075
 33
0.0
  0
TEXT
  8
1
  6
CONTINUOUS
 62
     2
  5
38F
 10
-305.588917
 20
177.83375
 30
0.0
 40
0.159
  1
W
  7
MONOTXT
210
0.0
220
0.0
230
1.0
  0
LINE
  8
8
  6
CONTINUOUS
 62
     2
  5
390
 10
-305.976167
 20
177.593167
 30
0.0
 11
-305.976083
 21
177.593167
 31
0.0
  0
LINE
  8
8
  6
CONTINUOUS
 62
     2
  5
391
 10
-305.0815
 20
177.593167
 30
0.0
 11
-305.081417
 21
177.593167
 31
0.0
  0
LINE
  8
8
  6
CONTINUOUS
 62
     2
  5
392
 10
-305.0815
 20
177.87175
 30
0.0
 11
-305.081417
 21
177.87175
 31
0.0
  0
LINE
  8
1
  6
CONTINUOUS
 62
     2
  5
393
 10
-310.6765
 20
177.5585
 30
0.0
 11
-312.421417
 21
177.5585
 31
0.0
  0
LINE
  8
1
  6
CONTINUOUS
 62
     2
  5
394
 10
-310.6765
 20
174.999833
 30
0.0
 11
-312.421417
 21
174.999833
 31
0.0
  0
SOLID
  8
1
  6
CONTINUOUS
 62
     2
  5
395
 10
-312.283333
 20
177.406417
 30
0.0
 11
-312.333333
 21
177.406417
 31
0.0
 12
-312.308333
 22
177.556417
 32
0.0
 13
-312.308333
 23
177.556417
 33
0.0
  0
SOLID
  8
1
  6
CONTINUOUS
 62
     2
  5
396
 10
-312.288917
 20
175.157083
 30
0.0
 11
-312.338917
 21
175.157083
 31
0.0
 12
-312.313917
 22
175.007
 32
0.0
 13
-312.313917
 23
175.007
 33
0.0
  0
TEXT
  8
1
  6
CONTINUOUS
 62
     2
  5
397
 10
-312.27175
 20
176.111917
 30
0.0
 40
0.159
  1
14"
 50
90.0
  7
MONOTXT
210
0.0
220
0.0
230
1.0
  0
LINE
  8
8
  6
CONTINUOUS
 62
     2
  5
398
 10
-310.614
 20
177.5585
 30
0.0
 11
-310.613917
 21
177.5585
 31
0.0
  0
LINE
  8
8
  6
CONTINUOUS
 62
     2
  5
399
 10
-310.614
 20
174.999833
 30
0.0
 11
-310.613917
 21
174.999833
 31
0.0
  0
LINE
  8
8
  6
CONTINUOUS
 62
     2
  5
39A
 10
-312.314333
 20
174.999833
 30
0.0
 11
-312.31425
 21
174.999833
 31
0.0
  0
LINE
  8
1
  6
CONTINUOUS
 62
     2
  5
39B
 10
-305.327583
 20
176.209417
 30
0.0
 11
-305.327583
 21
176.66275
 31
0.0
  0
LINE
  8
1
  6
CONTINUOUS
 62
     2
  5
39C
 10
-305.434333
 20
176.54975
 30
0.0
 11
-305.584333
 21
176.54975
 31
0.0
  0
LINE
  8
1
  6
CONTINUOUS
 62
     2
  5
39D
 10
-304.99275
 20
176.547417
 30
0.0
 11
-304.5855
 21
176.547417
 31
0.0
  0
SOLID
  8
1
  6
CONTINUOUS
 62
     2
  5
39E
 10
-304.965667
 20
176.521
 30
0.0
 11
-304.965667
 21
176.571
 31
0.0
 12
-305.1155
 22
176.546
 32
0.0
 13
-305.1155
 23
176.546
 33
0.0
  0
SOLID
  8
1
  6
CONTINUOUS
 62
     2
  5
39F
 10
-305.441917
 20
176.517167
 30
0.0
 11
-305.441917
 21
176.567167
 31
0.0
 12
-305.291917
 22
176.542167
 32
0.0
 13
-305.291917
 23
176.542167
 33
0.0
  0
TEXT
  8
1
  6
CONTINUOUS
 62
     2
  5
3A0
 10
-304.490667
 20
176.497917
 30
0.0
 40
0.159
  1
1 1/8"
  7
MONOTXT
210
0.0
220
0.0
230
1.0
  0
LINE
  8
8
  6
CONTINUOUS
 62
     2
  5
3A1
 10
-305.327583
 20
176.146917
 30
0.0
 11
-305.3275
 21
176.146917
 31
0.0
  0
LINE
  8
8
  6
CONTINUOUS
 62
     2
  5
3A2
 10
-305.0815
 20
176.146917
 30
0.0
 11
-305.081417
 21
176.146917
 31
0.0
  0
LINE
  8
8
  6
CONTINUOUS
 62
     2
  5
3A3
 10
-305.0815
 20
176.547417
 30
0.0
 11
-305.081417
 21
176.547417
 31
0.0
  0
LINE
  8
8
  6
CONTINUOUS
 62
     2
  5
3A4
 10
-310.614
 20
174.999917
 30
0.0
 11
-310.613917
 21
174.999917
 31
0.0
  0
LINE
  8
3
  6
CONTINUOUS
 62
     2
  5
3A6
 10
-311.623917
 20
175.111833
 30
0.0
 11
-311.623833
 21
175.111833
 31
0.0
  0
LINE
  8
1
  6
CONTINUOUS
 62
     2
  5
3A7
 10
-308.924
 20
176.2685
 30
0.0
 11
-308.6925
 21
176.2685
 31
0.0
  0
LINE
  8
1
  6
CONTINUOUS
 62
     2
  5
3A8
 10
-308.924
 20
177.558583
 30
0.0
 11
-308.602833
 21
177.558583
 31
0.0
  0
SOLID
  8
1
  6
CONTINUOUS
 62
     2
  5
3A9
 10
-308.752583
 20
176.41375
 30
0.0
 11
-308.802583
 21
176.41375
 31
0.0
 12
-308.777583
 22
176.26375
 32
0.0
 13
-308.777583
 23
176.26375
 33
0.0
  0
SOLID
  8
1
  6
CONTINUOUS
 62
     2
  5
3AA
 10
-308.750083
 20
177.399833
 30
0.0
 11
-308.800083
 21
177.399833
 31
0.0
 12
-308.775083
 22
177.549833
 32
0.0
 13
-308.775083
 23
177.549833
 33
0.0
  0
TEXT
  8
1
  6
CONTINUOUS
 62
     2
  5
3AB
 10
-308.727167
 20
176.873417
 30
0.0
 40
0.159
  1
7"
 50
90.0
  7
MONOTXT
210
0.0
220
0.0
230
1.0
  0
LINE
  8
8
  6
CONTINUOUS
 62
     2
  5
3AC
 10
-308.9865
 20
176.2685
 30
0.0
 11
-308.986417
 21
176.2685
 31
0.0
  0
LINE
  8
8
  6
CONTINUOUS
 62
     2
  5
3AD
 10
-308.9865
 20
177.558583
 30
0.0
 11
-308.986417
 21
177.558583
 31
0.0
  0
LINE
  8
8
  6
CONTINUOUS
 62
     2
  5
3AE
 10
-308.782833
 20
177.558583
 30
0.0
 11
-308.78275
 21
177.558583
 31
0.0
  0
LINE
  8
1
  6
CONTINUOUS
 62
     2
  5
3AF
 10
-300.59225
 20
177.171917
 30
0.0
 11
-300.59225
 21
177.604417
 31
0.0
  0
LINE
  8
1
  6
CONTINUOUS
 62
     2
  5
3B0
 10
-299.697583
 20
177.171917
 30
0.0
 11
-299.697583
 21
177.604417
 31
0.0
  0
SOLID
  8
1
  6
CONTINUOUS
 62
     2
  5
3B1
 10
-300.437417
 20
177.47375
 30
0.0
 11
-300.437417
 21
177.52375
 31
0.0
 12
-300.587333
 22
177.49875
 32
0.0
 13
-300.587333
 23
177.49875
 33
0.0
  0
SOLID
  8
1
  6
CONTINUOUS
 62
     2
  5
3B2
 10
-299.846417
 20
177.469417
 30
0.0
 11
-299.846417
 21
177.519417
 31
0.0
 12
-299.69625
 22
177.494417
 32
0.0
 13
-299.69625
 23
177.494417
 33
0.0
  0
TEXT
  8
1
  6
CONTINUOUS
 62
     2
  5
3B3
 10
-300.21075
 20
177.462417
 30
0.0
 40
0.159
  1
W
  7
MONOTXT
210
0.0
220
0.0
230
1.0
  0
LINE
  8
8
  6
CONTINUOUS
 62
     2
  5
3B4
 10
-300.59225
 20
177.109417
 30
0.0
 11
-300.592167
 21
177.109417
 31
0.0
  0
LINE
  8
8
  6
CONTINUOUS
 62
     2
  5
3B5
 10
-299.697583
 20
177.109417
 30
0.0
 11
-299.6975
 21
177.109417
 31
0.0
  0
LINE
  8
8
  6
CONTINUOUS
 62
     2
  5
3B6
 10
-299.697583
 20
177.505167
 30
0.0
 11
-299.6975
 21
177.505167
 31
0.0
  0
LINE
  8
1
  6
CONTINUOUS
 62
     2
  5
3B7
 10
-294.09575
 20
177.635333
 30
0.0
 11
-294.09575
 21
178.066083
 31
0.0
  0
LINE
  8
1
  6
CONTINUOUS
 62
     2
  5
3B8
 10
-293.201167
 20
177.635333
 30
0.0
 11
-293.201167
 21
178.066083
 31
0.0
  0
SOLID
  8
1
  6
CONTINUOUS
 62
     2
  5
3B9
 10
-293.99575
 20
177.948417
 30
0.0
 11
-293.99575
 21
177.98175
 31
0.0
 12
-294.09575
 22
177.965083
 32
0.0
 13
-294.09575
 23
177.965083
 33
0.0
  0
SOLID
  8
1
  6
CONTINUOUS
 62
     2
  5
3BA
 10
-293.301167
 20
177.948417
 30
0.0
 11
-293.301167
 21
177.98175
 31
0.0
 12
-293.201167
 22
177.965083
 32
0.0
 13
-293.201167
 23
177.965083
 33
0.0
  0
TEXT
  8
1
  6
CONTINUOUS
 62
     2
  5
3BB
 10
-293.72325
 20
177.892417
 30
0.0
 40
0.159
  1
W
  7
MONOTXT
210
0.0
220
0.0
230
1.0
  0
LINE
  8
8
  6
CONTINUOUS
 62
     2
  5
3BC
 10
-294.09575
 20
177.572833
 30
0.0
 11
-294.095667
 21
177.572833
 31
0.0
  0
LINE
  8
8
  6
CONTINUOUS
 62
     2
  5
3BD
 10
-293.201167
 20
177.572833
 30
0.0
 11
-293.201083
 21
177.572833
 31
0.0
  0
LINE
  8
8
  6
CONTINUOUS
 62
     2
  5
3BE
 10
-293.201167
 20
177.965083
 30
0.0
 11
-293.201083
 21
177.965083
 31
0.0
  0
LINE
  8
1
  6
CONTINUOUS
 62
     2
  5
3BF
 10
-300.426
 20
174.578
 30
0.0
 11
-300.426
 21
174.0225
 31
0.0
  0
LINE
  8
1
  6
CONTINUOUS
 62
     2
  5
3C0
 10
-300.326
 20
174.2025
 30
0.0
 11
-300.226
 21
174.2025
 31
0.0
  0
SOLID
  8
1
  6
CONTINUOUS
 62
     2
  5
3C1
 10
-300.752
 20
174.1815
 30
0.0
 11
-300.752
 21
174.231583
 31
0.0
 12
-300.602
 22
174.2065
 32
0.0
 13
-300.602
 23
174.2065
 33
0.0
  0
SOLID
  8
1
  6
CONTINUOUS
 62
     2
  5
3C2
 10
-300.240333
 20
174.169
 30
0.0
 11
-300.240333
 21
174.219083
 31
0.0
 12
-300.390333
 22
174.194
 32
0.0
 13
-300.390333
 23
174.194
 33
0.0
  0
TEXT
  8
1
  6
CONTINUOUS
 62
     2
  5
3C3
 10
-301.874167
 20
174.157917
 30
0.0
 40
0.159
  1
1 1/8"
  7
MONOTXT
210
0.0
220
0.0
230
1.0
  0
LINE
  8
8
  6
CONTINUOUS
 62
     2
  5
3C4
 10
-300.426
 20
174.6405
 30
0.0
 11
-300.425917
 21
174.6405
 31
0.0
  0
LINE
  8
8
  6
CONTINUOUS
 62
     2
  5
3C5
 10
-300.592167
 20
174.182167
 30
0.0
 11
-300.592083
 21
174.182167
 31
0.0
  0
LINE
  8
8
  6
CONTINUOUS
 62
     2
  5
3C6
 10
-300.592167
 20
174.2025
 30
0.0
 11
-300.592083
 21
174.2025
 31
0.0
  0
LINE
  8
1
  6
CONTINUOUS
 62
     2
  5
3C7
 10
-293.929667
 20
176.153667
 30
0.0
 11
-293.929667
 21
175.569833
 31
0.0
  0
LINE
  8
1
  6
CONTINUOUS
 62
     2
  5
3C8
 10
-293.829667
 20
175.749833
 30
0.0
 11
-293.729667
 21
175.749833
 31
0.0
  0
LINE
  8
1
  6
CONTINUOUS
 62
     2
  5
3C9
 10
-294.180333
 20
175.749833
 30
0.0
 11
-294.57375
 21
175.749833
 31
0.0
  0
SOLID
  8
1
  6
CONTINUOUS
 62
     2
  5
3CA
 10
-294.19575
 20
175.733167
 30
0.0
 11
-294.19575
 21
175.766417
 31
0.0
 12
-294.09575
 22
175.749833
 32
0.0
 13
-294.09575
 23
175.749833
 33
0.0
  0
SOLID
  8
1
  6
CONTINUOUS
 62
     2
  5
3CB
 10
-293.829667
 20
175.733167
 30
0.0
 11
-293.829667
 21
175.766417
 31
0.0
 12
-293.929667
 22
175.749833
 32
0.0
 13
-293.929667
 23
175.749833
 33
0.0
  0
TEXT
  8
1
  6
CONTINUOUS
 62
     2
  5
3CC
 10
-295.42725
 20
175.69425
 30
0.0
 40
0.159
  1
1 1/8"
  7
MONOTXT
210
0.0
220
0.0
230
1.0
  0
LINE
  8
8
  6
CONTINUOUS
 62
     2
  5
3CD
 10
-293.929667
 20
176.216167
 30
0.0
 11
-293.929583
 21
176.216167
 31
0.0
  0
LINE
  8
8
  6
CONTINUOUS
 62
     2
  5
3CE
 10
-294.09575
 20
175.76
 30
0.0
 11
-294.095667
 21
175.76
 31
0.0
  0
LINE
  8
8
  6
CONTINUOUS
 62
     2
  5
3CF
 10
-294.09575
 20
175.749833
 30
0.0
 11
-294.095667
 21
175.749833
 31
0.0
  0
LINE
  8
1
  6
CONTINUOUS
 62
     2
  5
3D0
 10
-299.925417
 20
174.640583
 30
0.0
 11
-300.338
 21
174.640583
 31
0.0
  0
LINE
  8
1
  6
CONTINUOUS
 62
     2
  5
3D1
 10
-299.925417
 20
176.669667
 30
0.0
 11
-300.338
 21
176.669667
 31
0.0
  0
SOLID
  8
1
  6
CONTINUOUS
 62
     2
  5
3D2
 10
-300.136417
 20
174.763417
 30
0.0
 11
-300.186417
 21
174.763417
 31
0.0
 12
-300.161417
 22
174.613417
 32
0.0
 13
-300.161417
 23
174.613417
 33
0.0
  0
SOLID
  8
1
  6
CONTINUOUS
 62
     2
  5
3D3
 10
-300.131167
 20
176.54625
 30
0.0
 11
-300.181167
 21
176.54625
 31
0.0
 12
-300.156167
 22
176.69625
 32
0.0
 13
-300.156167
 23
176.69625
 33
0.0
  0
TEXT
  8
1
  6
CONTINUOUS
 62
     2
  5
3D4
 10
-300.121167
 20
175.6135
 30
0.0
 40
0.159
  1
10"
 50
90.0
  7
MONOTXT
210
0.0
220
0.0
230
1.0
  0
LINE
  8
8
  6
CONTINUOUS
 62
     2
  5
3D5
 10
-299.862917
 20
174.640583
 30
0.0
 11
-299.862833
 21
174.640583
 31
0.0
  0
LINE
  8
8
  6
CONTINUOUS
 62
     2
  5
3D6
 10
-299.862917
 20
176.669667
 30
0.0
 11
-299.862833
 21
176.669667
 31
0.0
  0
LINE
  8
8
  6
CONTINUOUS
 62
     2
  5
3D7
 10
-300.158
 20
176.669667
 30
0.0
 11
-300.157917
 21
176.669667
 31
0.0
  0
LINE
  8
1
  6
CONTINUOUS
 62
     2
  5
3D8
 10
-300.0955
 20
176.669667
 30
0.0
 11
-299.978
 21
176.669667
 31
0.0
  0
SOLID
  8
1
  6
CONTINUOUS
 62
     2
  5
3D9
 10
-300.135333
 20
176.815
 30
0.0
 11
-300.185333
 21
176.815
 31
0.0
 12
-300.160333
 22
176.665
 32
0.0
 13
-300.160333
 23
176.665
 33
0.0
  0
SOLID
  8
1
  6
CONTINUOUS
 62
     2
  5
3DA
 10
-300.13325
 20
176.991
 30
0.0
 11
-300.18325
 21
176.991
 31
0.0
 12
-300.15825
 22
177.141
 32
0.0
 13
-300.15825
 23
177.141
 33
0.0
  0
TEXT
  8
1
  6
CONTINUOUS
 62
     2
  5
3DB
 10
-299.908917
 20
176.786833
 30
0.0
 40
0.159
  1
2"
 50
90.0
  7
MONOTXT
210
0.0
220
0.0
230
1.0
  0
LINE
  8
8
  6
CONTINUOUS
 62
     2
  5
3DC
 10
-300.158
 20
176.669667
 30
0.0
 11
-300.157917
 21
176.669667
 31
0.0
  0
LINE
  8
8
  6
CONTINUOUS
 62
     2
  5
3DD
 10
-300.158
 20
177.109417
 30
0.0
 11
-300.157917
 21
177.109417
 31
0.0
  0
LINE
  8
8
  6
CONTINUOUS
 62
     2
  5
3DE
 10
-300.158
 20
177.109417
 30
0.0
 11
-300.157917
 21
177.109417
 31
0.0
  0
LINE
  8
1
  6
CONTINUOUS
 62
     2
  5
3DF
 10
-293.429
 20
176.216167
 30
0.0
 11
-293.828417
 21
176.216167
 31
0.0
  0
SOLID
  8
1
  6
CONTINUOUS
 62
     2
  5
3E0
 10
-293.63175
 20
176.316167
 30
0.0
 11
-293.665083
 21
176.316167
 31
0.0
 12
-293.648417
 22
176.216167
 32
0.0
 13
-293.648417
 23
176.216167
 33
0.0
  0
SOLID
  8
1
  6
CONTINUOUS
 62
     2
  5
3E1
 10
-293.63175
 20
177.472833
 30
0.0
 11
-293.665083
 21
177.472833
 31
0.0
 12
-293.648417
 22
177.572833
 32
0.0
 13
-293.648417
 23
177.572833
 33
0.0
  0
TEXT
  8
1
  6
CONTINUOUS
 62
     2
  5
3E2
 10
-293.581417
 20
176.829167
 30
0.0
 40
0.159
  1
7"
 50
90.0
  7
MONOTXT
210
0.0
220
0.0
230
1.0
  0
LINE
  8
8
  6
CONTINUOUS
 62
     2
  5
3E3
 10
-293.3665
 20
176.216167
 30
0.0
 11
-293.366417
 21
176.216167
 31
0.0
  0
LINE
  8
8
  6
CONTINUOUS
 62
     2
  5
3E4
 10
-293.648417
 20
177.572833
 30
0.0
 11
-293.648333
 21
177.572833
 31
0.0
  0
LINE
  8
8
  6
CONTINUOUS
 62
     2
  5
3E5
 10
-293.648417
 20
177.572833
 30
0.0
 11
-293.648333
 21
177.572833
 31
0.0
  0
LINE
  8
1
  6
CONTINUOUS
 62
     2
  5
3E6
 10
-299.863
 20
176.607167
 30
0.0
 11
-299.863
 21
175.936083
 31
0.0
  0
LINE
  8
1
  6
CONTINUOUS
 62
     2
  5
3E7
 10
-299.597583
 20
176.041833
 30
0.0
 11
-299.497583
 21
176.041833
 31
0.0
  0
LINE
  8
1
  6
CONTINUOUS
 62
     2
  5
3E8
 10
-299.963
 20
176.041833
 30
0.0
 11
-300.063
 21
176.041833
 31
0.0
  0
SOLID
  8
1
  6
CONTINUOUS
 62
     2
  5
3E9
 10
-299.55125
 20
176.017417
 30
0.0
 11
-299.55125
 21
176.067417
 31
0.0
 12
-299.70125
 22
176.042417
 32
0.0
 13
-299.70125
 23
176.042417
 33
0.0
  0
SOLID
  8
1
  6
CONTINUOUS
 62
     2
  5
3EA
 10
-300.0055
 20
176.015333
 30
0.0
 11
-300.0055
 21
176.065333
 31
0.0
 12
-299.8555
 22
176.040333
 32
0.0
 13
-299.8555
 23
176.040333
 33
0.0
  0
TEXT
  8
1
  6
CONTINUOUS
 62
     2
  5
3EB
 10
-299.16675
 20
175.996333
 30
0.0
 40
0.159
  1
1 1/8"
  7
MONOTXT
210
0.0
220
0.0
230
1.0
  0
LINE
  8
8
  6
CONTINUOUS
 62
     2
  5
3EC
 10
-299.863
 20
176.669667
 30
0.0
 11
-299.862917
 21
176.669667
 31
0.0
  0
LINE
  8
8
  6
CONTINUOUS
 62
     2
  5
3ED
 10
-299.697583
 20
176.669667
 30
0.0
 11
-299.6975
 21
176.669667
 31
0.0
  0
LINE
  8
8
  6
CONTINUOUS
 62
     2
  5
3EE
 10
-299.697583
 20
176.041833
 30
0.0
 11
-299.6975
 21
176.041833
 31
0.0
  0
TEXT
  8
3
  6
CONTINUOUS
 62
     2
  5
3EF
 10
-303.072333
 20
175.5705
 30
0.0
 40
0.159
  1
13/16" Dia.
  7
MONOTXT
210
0.0
220
0.0
230
1.0
  0
TEXT
  8
3
  6
CONTINUOUS
 62
     2
  5
3F0
 10
-303.000167
 20
175.223
 30
0.0
 40
0.159
  1
Bolt Holes
  7
MONOTXT
210
0.0
220
0.0
230
1.0
  0
SOLID
  8
3
  6
CONTINUOUS
 62
     2
  5
3F1
 10
-300.52375
 20
176.606667
 30
0.0
 11
-300.486917
 21
176.572917
 31
0.0
 12
-300.404
 22
176.700417
 32
0.0
 13
-300.404
 23
176.700417
 33
0.0
  0
LINE
  8
3
  6
CONTINUOUS
 62
     2
  5
3F2
 10
-300.493583
 20
176.595917
 30
0.0
 11
-301.519
 21
175.476667
 31
0.0
  0
LINE
  8
3
  6
CONTINUOUS
 62
     2
  5
3F3
 10
-301.519
 20
175.476667
 30
0.0
 11
-302.770083
 21
175.476667
 31
0.0
  0
SOLID
  8
3
  6
CONTINUOUS
 62
     2
  5
3F4
 10
-299.96475
 20
176.633083
 30
0.0
 11
-299.9355
 21
176.592417
 31
0.0
 12
-299.828417
 22
176.700417
 32
0.0
 13
-299.828417
 23
176.700417
 33
0.0
  0
LINE
  8
3
  6
CONTINUOUS
 62
     2
  5
3F5
 10
-299.944167
 20
176.61125
 30
0.0
 11
-301.519
 21
175.476667
 31
0.0
  0
SOLID
  8
3
  6
CONTINUOUS
 62
     2
  5
3F6
 10
-299.956167
 20
174.707417
 30
0.0
 11
-299.978667
 21
174.662833
 31
0.0
 12
-299.833583
 22
174.617583
 32
0.0
 13
-299.833583
 23
174.617583
 33
0.0
  0
LINE
  8
3
  6
CONTINUOUS
 62
     2
  5
3F7
 10
-299.95225
 20
174.685583
 30
0.0
 11
-301.519
 21
175.476667
 31
0.0
  0
SOLID
  8
3
  6
CONTINUOUS
 62
     2
  5
3F8
 10
-300.502583
 20
174.7305
 30
0.0
 11
-300.533
 21
174.69075
 31
0.0
 12
-300.39875
 22
174.619667
 32
0.0
 13
-300.39875
 23
174.619667
 33
0.0
  0
LINE
  8
3
  6
CONTINUOUS
 62
     2
  5
3F9
 10
-300.5055
 20
174.701333
 30
0.0
 11
-301.519
 21
175.476667
 31
0.0
  0
TEXT
  8
3
  6
CONTINUOUS
 62
     2
  5
3FA
 10
-301.9435
 20
171.975917
 30
0.0
 40
0.25
  1
SECTIONS A-A
  7
ROMANS
210
0.0
220
0.0
230
1.0
  0
TEXT
  8
3
  6
CONTINUOUS
 62
     2
  5
3FB
 10
-303.423083
 20
171.520833
 30
0.0
 40
0.25
  1
STEEL "C" GUARDRAIL POST
  7
ROMANS
210
0.0
220
0.0
230
1.0
  0
TEXT
  8
3
  6
CONTINUOUS
 62
     2
  5
3FC
 10
-301.239583
 20
171.18325
 30
0.0
 40
0.15
  1
(Steel "C" Block)
  7
ROMANS
210
0.0
220
0.0
230
1.0
  0
TEXT
  8
3
  6
CONTINUOUS
 62
     2
  5
3FD
 10
-296.63375
 20
171.9685
 30
0.0
 40
0.25
  1
STEEL "C" GUARDRAIL POST
  7
ROMANS
210
0.0
220
0.0
230
1.0
  0
TEXT
  8
3
  6
CONTINUOUS
 62
     2
  5
3FE
 10
-295.129917
 20
172.423583
 30
0.0
 40
0.25
  1
SECTIONS A-A
  7
ROMANS
210
0.0
220
0.0
230
1.0
  0
TEXT
  8
3
  6
CONTINUOUS
 62
     2
  5
3FF
 10
-294.362333
 20
171.645417
 30
0.0
 40
0.15
  1
(Wood Block)
  7
ROMANS
210
0.0
220
0.0
230
1.0
  0
SOLID
  8
3
  6
CONTINUOUS
 62
     2
  5
400
 10
-299.903667
 20
178.0105
 30
0.0
 11
-299.903667
 21
177.9605
 31
0.0
 12
-299.753667
 22
177.9855
 32
0.0
 13
-299.753667
 23
177.9855
 33
0.0
  0
LINE
  8
3
  6
CONTINUOUS
 62
     2
  5
401
 10
-299.793667
 20
177.989667
 30
0.0
 11
-300.5915
 21
177.989667
 31
0.0
  0
TEXT
  8
3
  6
CONTINUOUS
 62
     2
  5
402
 10
-300.53875
 20
178.053
 30
0.0
 40
0.159
  1
Traffic
  7
MONOTXT
210
0.0
220
0.0
230
1.0
  0
TEXT
  8
3
  6
CONTINUOUS
 62
     2
  5
403
 10
-294.060833
 20
178.514
 30
0.0
 40
0.159
  1
Traffic
  7
MONOTXT
210
0.0
220
0.0
230
1.0
  0
LINE
  8
3
  6
CONTINUOUS
 62
     2
  5
404
 10
-293.301167
 20
178.449583
 30
0.0
 11
-294.099
 21
178.449583
 31
0.0
  0
SOLID
  8
3
  6
CONTINUOUS
 62
     2
  5
405
 10
-293.343
 20
178.468833
 30
0.0
 11
-293.343
 21
178.418833
 31
0.0
 12
-293.193
 22
178.443833
 32
0.0
 13
-293.193
 23
178.443833
 33
0.0
  0
SOLID
  8
3
  6
CONTINUOUS
 62
     2
  5
406
 10
-293.439833
 20
176.146083
 30
0.0
 11
-293.413167
 21
176.126083
 31
0.0
 12
-293.366667
 22
176.216167
 32
0.0
 13
-293.366667
 23
176.216167
 33
0.0
  0
LINE
  8
3
  6
CONTINUOUS
 62
     2
  5
407
 10
-293.4265
 20
176.136083
 30
0.0
 11
-294.288667
 21
174.984583
 31
0.0
  0
LINE
  8
3
  6
CONTINUOUS
 62
     2
  5
408
 10
-294.288667
 20
174.984583
 30
0.0
 11
-295.521833
 21
174.984583
 31
0.0
  0
SOLID
  8
3
  6
CONTINUOUS
 62
     2
  5
409
 10
-293.980167
 20
176.304
 30
0.0
 11
-294.006
 21
176.282917
 31
0.0
 12
-293.929667
 22
176.216167
 32
0.0
 13
-293.929667
 23
176.216167
 33
0.0
  0
LINE
  8
3
  6
CONTINUOUS
 62
     2
  5
40A
 10
-293.993083
 20
176.2935
 30
0.0
 11
-294.288667
 21
176.653833
 31
0.0
  0
LINE
  8
3
  6
CONTINUOUS
 62
     2
  5
40B
 10
-294.288667
 20
176.653833
 30
0.0
 11
-295.417917
 21
176.653833
 31
0.0
  0
TEXT
  8
3
  6
CONTINUOUS
 62
     2
  5
40C
 10
-295.78025
 20
176.727833
 30
0.0
 40
0.159
  1
13/16"Dia.
  7
MONOTXT
210
0.0
220
0.0
230
1.0
  0
TEXT
  8
3
  6
CONTINUOUS
 62
     2
  5
40D
 10
-295.653583
 20
176.406833
 30
0.0
 40
0.159
  1
Bolt Hole
  7
MONOTXT
210
0.0
220
0.0
230
1.0
  0
TEXT
  8
3
  6
CONTINUOUS
 62
     2
  5
40E
 10
-295.965
 20
175.091167
 30
0.0
 40
0.159
  1
"Block Stop"
  7
MONOTXT
210
0.0
220
0.0
230
1.0
  0
TEXT
  8
3
  6
CONTINUOUS
 62
     2
  5
40F
 10
-295.38075
 20
174.740667
 30
0.0
 40
0.159
  1
Hole
  7
MONOTXT
210
0.0
220
0.0
230
1.0
  0
LINE
  8
1
  6
CONTINUOUS
 62
     2
  5
410
 10
-310.789417
 20
177.463
 30
0.0
 11
-311.7435
 21
177.463
 31
0.0
  0
LINE
  8
1
  6
CONTINUOUS
 62
     2
  5
411
 10
-311.5635
 20
177.363
 30
0.0
 11
-311.5635
 21
177.263
 31
0.0
  0
LINE
  8
1
  6
CONTINUOUS
 62
     2
  5
412
 10
-311.586167
 20
177.67275
 30
0.0
 11
-311.586167
 21
177.89775
 31
0.0
  0
LINE
  8
1
  6
CONTINUOUS
 62
     2
  5
413
 10
-311.5635
 20
177.263
 30
0.0
 11
-311.6635
 21
177.263
 31
0.0
  0
SOLID
  8
1
  6
CONTINUOUS
 62
     2
  5
414
 10
-311.539917
 20
177.317583
 30
0.0
 11
-311.589917
 21
177.317583
 31
0.0
 12
-311.565083
 22
177.467583
 32
0.0
 13
-311.565083
 23
177.467583
 33
0.0
  0
SOLID
  8
1
  6
CONTINUOUS
 62
     2
  5
415
 10
-311.55775
 20
177.722833
 30
0.0
 11
-311.60775
 21
177.722833
 31
0.0
 12
-311.582833
 22
177.572833
 32
0.0
 13
-311.582833
 23
177.572833
 33
0.0
  0
TEXT
  8
1
  6
CONTINUOUS
 62
     2
  5
416
 10
-312.238083
 20
177.123417
 30
0.0
 40
0.159
  1
7/8"
  7
MONOTXT
210
0.0
220
0.0
230
1.0
  0
LINE
  8
8
  6
CONTINUOUS
 62
     2
  5
417
 10
-310.614083
 20
177.558583
 30
0.0
 11
-310.614
 21
177.558583
 31
0.0
  0
LINE
  8
8
  6
CONTINUOUS
 62
     2
  5
418
 10
-311.5635
 20
177.463
 30
0.0
 11
-311.563417
 21
177.463
 31
0.0
  0
LINE
  8
3
  6
CONTINUOUS
 62
     2
  5
419
 10
-310.789333
 20
175.111833
 30
0.0
 11
-311.743417
 21
175.111833
 31
0.0
  0
LINE
  8
3
  6
CONTINUOUS
 62
     2
  5
41A
 10
-311.563417
 20
175.211833
 30
0.0
 11
-311.563417
 21
175.311833
 31
0.0
  0
LINE
  8
3
  6
CONTINUOUS
 62
     2
  5
41B
 10
-311.563417
 20
174.899917
 30
0.0
 11
-311.563417
 21
174.799917
 31
0.0
  0
LINE
  8
3
  6
CONTINUOUS
 62
     2
  5
41C
 10
-311.563417
 20
175.311833
 30
0.0
 11
-311.663417
 21
175.311833
 31
0.0
  0
SOLID
  8
3
  6
CONTINUOUS
 62
     2
  5
41D
 10
-311.53725
 20
175.2565
 30
0.0
 11
-311.58725
 21
175.2565
 31
0.0
 12
-311.562417
 22
175.106333
 32
0.0
 13
-311.562417
 23
175.106333
 33
0.0
  0
SOLID
  8
3
  6
CONTINUOUS
 62
     2
  5
41E
 10
-311.53725
 20
174.882667
 30
0.0
 11
-311.58725
 21
174.882667
 31
0.0
 12
-311.562417
 22
175.032583
 32
0.0
 13
-311.562417
 23
175.032583
 33
0.0
  0
TEXT
  8
3
  6
CONTINUOUS
 62
     2
  5
41F
 10
-312.214333
 20
175.239333
 30
0.0
 40
0.159
  1
7/8"
  7
MONOTXT
210
0.0
220
0.0
230
1.0
  0
LINE
  8
8
  6
CONTINUOUS
 62
     2
  5
420
 10
-310.614
 20
174.999917
 30
0.0
 11
-310.613917
 21
174.999917
 31
0.0
  0
LINE
  8
8
  6
CONTINUOUS
 62
     2
  5
421
 10
-310.726833
 20
175.111833
 30
0.0
 11
-310.72675
 21
175.111833
 31
0.0
  0
LINE
  8
3
  6
CONTINUOUS
 62
     2
  5
422
 10
-311.563417
 20
175.111833
 30
0.0
 11
-311.563333
 21
175.111833
 31
0.0
  0
TEXT
  8
3
  6
CONTINUOUS
 62
     2
  5
423
 10
-310.788833
 20
175.56025
 30
0.0
 40
0.159
  1
  (min.)
  7
MONOTXT
210
0.0
220
0.0
230
1.0
  0
TEXT
  8
3
  6
CONTINUOUS
 62
     2
  5
424
 10
-307.695333
 20
175.553333
 30
0.0
 40
0.159
  1
13/16"Dia.
  7
MONOTXT
210
0.0
220
0.0
230
1.0
  0
TEXT
  8
3
  6
CONTINUOUS
 62
     2
  5
425
 10
-307.24975
 20
175.19825
 30
0.0
 40
0.159
  1
Hole
  7
MONOTXT
210
0.0
220
0.0
230
1.0
  0
TEXT
  8
3
  6
CONTINUOUS
 62
     2
  5
426
 10
-307.946
 20
176.6345
 30
0.0
 40
0.159
  1
"Block Stop"
  7
MONOTXT
210
0.0
220
0.0
230
1.0
  0
TEXT
  8
3
  6
CONTINUOUS
 62
     2
  5
427
 10
-307.354
 20
176.292167
 30
0.0
 40
0.159
  1
Hole
  7
MONOTXT
210
0.0
220
0.0
230
1.0
  0
SOLID
  8
3
  6
CONTINUOUS
 62
     2
  5
428
 10
-305.4665
 20
176.065667
 30
0.0
 11
-305.43575
 21
176.026333
 31
0.0
 12
-305.33275
 22
176.138167
 32
0.0
 13
-305.33275
 23
176.138167
 33
0.0
  0
LINE
  8
3
  6
CONTINUOUS
 62
     2
  5
429
 10
-305.406417
 20
176.0855
 30
0.0
 11
-306.2885
 21
175.433833
 31
0.0
  0
SOLID
  8
3
  6
CONTINUOUS
 62
     2
  5
42A
 10
-305.813917
 20
176.238167
 30
0.0
 11
-305.843
 21
176.197417
 31
0.0
 12
-305.706
 22
176.131167
 32
0.0
 13
-305.706
 23
176.131167
 33
0.0
  0
LINE
  8
3
  6
CONTINUOUS
 62
     2
  5
42B
 10
-305.802
 20
176.204667
 30
0.0
 11
-306.277083
 21
176.54125
 31
0.0
  0
LINE
  8
3
  6
CONTINUOUS
 62
     2
  5
42C
 10
-306.277083
 20
176.54125
 30
0.0
 11
-307.438333
 21
176.54125
 31
0.0
  0
SOLID
  8
3
  6
CONTINUOUS
 62
     2
  5
42D
 10
-309.60225
 20
176.106667
 30
0.0
 11
-309.585583
 21
176.153917
 31
0.0
 12
-309.735583
 22
176.180083
 32
0.0
 13
-309.735583
 23
176.180083
 33
0.0
  0
LINE
  8
3
  6
CONTINUOUS
 62
     2
  5
42E
 10
-309.635667
 20
176.143917
 30
0.0
 11
-307.61725
 21
175.433833
 31
0.0
  0
LINE
  8
3
  6
CONTINUOUS
 62
     2
  5
42F
 10
-307.61725
 20
175.433833
 30
0.0
 11
-306.2885
 21
175.433833
 31
0.0
  0
SOLID
  8
3
  6
CONTINUOUS
 62
     2
  5
430
 10
-309.343667
 20
176.002
 30
0.0
 11
-309.304
 21
176.0325
 31
0.0
 12
-309.41525
 22
176.136083
 32
0.0
 13
-309.41525
 23
176.136083
 33
0.0
  0
LINE
  8
3
  6
CONTINUOUS
 62
     2
  5
431
 10
-309.374167
 20
176.080417
 30
0.0
 11
-308.138417
 21
174.47525
 31
0.0
  0
LINE
  8
3
  6
CONTINUOUS
 62
     2
  5
432
 10
-308.138417
 20
174.47525
 30
0.0
 11
-307.943
 21
174.47525
 31
0.0
  0
TEXT
  8
3
  6
CONTINUOUS
 62
     2
  5
433
 10
-308.197667
 20
174.607667
 30
0.0
 40
0.159
  1
Circular Washer
  7
MONOTXT
210
0.0
220
0.0
230
1.0
  0
SOLID
  8
3
  6
CONTINUOUS
 62
     2
  5
434
 10
-310.082167
 20
174.849667
 30
0.0
 11
-310.032167
 21
174.849667
 31
0.0
 12
-310.057167
 22
174.999583
 32
0.0
 13
-310.057167
 23
174.999583
 33
0.0
  0
LINE
  8
3
  6
CONTINUOUS
 62
     2
  5
435
 10
-310.058083
 20
174.899917
 30
0.0
 11
-310.058083
 21
174.230833
 31
0.0
  0
LINE
  8
3
  6
CONTINUOUS
 62
     2
  5
436
 10
-310.058083
 20
174.230833
 30
0.0
 11
-312.88775
 21
174.230833
 31
0.0
  0
TEXT
  8
3
  6
CONTINUOUS
 62
     2
  5
437
 10
-313.833417
 20
174.3165
 30
0.0
 40
0.159
  1
8"x6" or 6"x6" Wood Block
  7
MONOTXT
210
0.0
220
0.0
230
1.0
  0
TEXT
  8
3
  6
CONTINUOUS
 62
     2
  5
438
 10
-313.136833
 20
173.960333
 30
0.0
 40
0.159
  1
with "Block Stop"
  7
MONOTXT
210
0.0
220
0.0
230
1.0
  0
SOLID
  8
3
  6
CONTINUOUS
 62
     2
  5
439
 10
-309.636
 20
173.835333
 30
0.0
 11
-309.60475
 21
173.796333
 31
0.0
 12
-309.50325
 22
173.909583
 32
0.0
 13
-309.50325
 23
173.909583
 33
0.0
  0
LINE
  8
3
  6
CONTINUOUS
 62
     2
  5
43A
 10
-309.580167
 20
173.845083
 30
0.0
 11
-309.8975
 21
173.591167
 31
0.0
  0
LINE
  8
3
  6
CONTINUOUS
 62
     2
  5
43B
 10
-309.8975
 20
173.591167
 30
0.0
 11
-310.065
 21
173.591167
 31
0.0
  0
TEXT
  8
3
  6
CONTINUOUS
 62
     2
  5
43C
 10
-311.663083
 20
173.565
 30
0.0
 40
0.159
  1
6" "C" Post
  7
MONOTXT
210
0.0
220
0.0
230
1.0
  0
SOLID
  8
3
  6
CONTINUOUS
 62
     2
  5
43D
 10
-310.7525
 20
177.6145
 30
0.0
 11
-310.799417
 21
177.597333
 31
0.0
 12
-310.7245
 22
177.465
 32
0.0
 13
-310.7245
 23
177.465
 33
0.0
  0
LINE
  8
3
  6
CONTINUOUS
 62
     2
  5
43E
 10
-310.726833
 20
177.463
 30
0.0
 11
-310.9205
 21
178.02075
 31
0.0
  0
LINE
  8
3
  6
CONTINUOUS
 62
     2
  5
43F
 10
-310.9205
 20
178.02075
 30
0.0
 11
-313.7345
 21
178.02075
 31
0.0
  0
TEXT
  8
3
  6
CONTINUOUS
 62
     2
  5
440
 10
-314.486833
 20
178.104833
 30
0.0
 40
0.159
  1
Splice Section or Rail and 
  7
MONOTXT
210
0.0
220
0.0
230
1.0
  0
TEXT
  8
3
  6
CONTINUOUS
 62
     2
  5
441
 10
-313.789333
 20
177.778417
 30
0.0
 40
0.159
  1
Offset Section
  7
MONOTXT
210
0.0
220
0.0
230
1.0
  0
TEXT
  8
3
  6
CONTINUOUS
 62
     2
  5
442
 10
-311.749583
 20
178.94225
 30
0.0
 40
0.159
  1
8" When 8"x6" Wood Blocks are used. Also,
  7
MONOTXT
210
0.0
220
0.0
230
1.0
  0
TEXT
  8
3
  6
CONTINUOUS
 62
     2
  5
443
 10
-311.734417
 20
178.688083
 30
0.0
 40
0.159
  1
Minimum Bolt Length (L) will increase 2".
  7
MONOTXT
210
0.0
220
0.0
230
1.0
  0
TEXT
  8
3
  6
CONTINUOUS
 62
     2
  5
444
 10
-306.046833
 20
178.5135
 30
0.0
 40
0.159
  1
Traffic
  7
MONOTXT
210
0.0
220
0.0
230
1.0
  0
LINE
  8
3
  6
CONTINUOUS
 62
     2
  5
445
 10
-305.17975
 20
178.449
 30
0.0
 11
-305.977583
 21
178.449
 31
0.0
  0
SOLID
  8
3
  6
CONTINUOUS
 62
     2
  5
446
 10
-305.87625
 20
178.470833
 30
0.0
 11
-305.87625
 21
178.420833
 31
0.0
 12
-306.02625
 22
178.445833
 32
0.0
 13
-306.02625
 23
178.445833
 33
0.0
  0
TEXT
  8
3
  6
CONTINUOUS
 62
     2
  5
447
 10
-310.55975
 20
172.38675
 30
0.0
 40
0.25
  1
STEEL "C" GUARDRAIL POST
  7
ROMANS
210
0.0
220
0.0
230
1.0
  0
TEXT
  8
3
  6
CONTINUOUS
 62
     2
  5
448
 10
-308.352333
 20
172.046583
 30
0.0
 40
0.15
  1
(Wood Block)
  7
ROMANS
210
0.0
220
0.0
230
1.0
  0
TEXT
  8
3
  6
CONTINUOUS
 62
     2
  5
449
 10
-297.75925
 20
190.728667
 30
0.0
 40
0.159
  1
"C" Blocks shown, but 8"x6" or 6"x6" Wood
  7
MONOTXT
210
0.0
220
0.0
230
1.0
  0
TEXT
  8
3
  6
CONTINUOUS
 62
     2
  5
44A
 10
-297.554833
 20
190.40025
 30
0.0
 40
0.159
  1
Blocks may be used.
  7
MONOTXT
210
0.0
220
0.0
230
1.0
  0
TEXT
  8
3
  6
CONTINUOUS
 62
     2
  5
44B
 10
-298.002083
 20
190.804167
 30
0.0
 40
0.318
  1
*
  7
MONOTXT
210
0.0
220
0.0
230
1.0
  0
TEXT
  8
3
  6
CONTINUOUS
 62
     2
  5
44C
 10
-297.90925
 20
189.657083
 30
0.0
 40
0.159
  1
Alternative Holes for Rail Bolts
  7
MONOTXT
210
0.0
220
0.0
230
1.0
  0
TEXT
  8
3
  6
CONTINUOUS
 62
     2
  5
44D
 10
-297.357833
 20
189.1775
 30
0.0
 40
0.159
  1
        Holes for
  7
MONOTXT
210
0.0
220
0.0
230
1.0
  0
TEXT
  8
3
  6
CONTINUOUS
 62
     2
  5
44E
 10
-297.723
 20
188.952583
 30
0.0
 40
0.159
  1
          Post Bolts
  7
MONOTXT
210
0.0
220
0.0
230
1.0
  0
SOLID
  8
3
  6
CONTINUOUS
 62
     2
  5
44F
 10
-297.259833
 20
187.791667
 30
0.0
 11
-297.259833
 21
187.841667
 31
0.0
 12
-297.409833
 22
187.816667
 32
0.0
 13
-297.409833
 23
187.816667
 33
0.0
  0
LINE
  8
3
  6
CONTINUOUS
 62
     2
  5
450
 10
-297.336417
 20
187.814083
 30
0.0
 11
-297.115333
 21
187.814083
 31
0.0
  0
LINE
  8
3
  6
CONTINUOUS
 62
     2
  5
451
 10
-297.115333
 20
187.814083
 30
0.0
 11
-297.5575
 21
189.590833
 31
0.0
  0
LINE
  8
3
  6
CONTINUOUS
 62
     2
  5
452
 10
-297.5575
 20
189.590833
 30
0.0
 11
-294.192333
 21
189.590833
 31
0.0
  0
SOLID
  8
3
  6
CONTINUOUS
 62
     2
  5
453
 10
-297.259833
 20
187.930833
 30
0.0
 11
-297.259833
 21
187.980833
 31
0.0
 12
-297.409833
 22
187.955833
 32
0.0
 13
-297.409833
 23
187.955833
 33
0.0
  0
LINE
  8
3
  6
CONTINUOUS
 62
     2
  5
454
 10
-297.336417
 20
187.96325
 30
0.0
 11
-297.147333
 21
187.96325
 31
0.0
  0
LINE
  8
3
  6
CONTINUOUS
 62
     2
  5
455
 10
-294.25875
 20
188.184083
 30
0.0
 11
-294.400583
 21
188.184083
 31
0.0
  0
SOLID
  8
3
  6
CONTINUOUS
 62
     2
  5
456
 10
-294.279083
 20
188.009083
 30
0.0
 11
-294.279083
 21
188.059083
 31
0.0
 12
-294.129083
 22
188.034083
 32
0.0
 13
-294.129083
 23
188.034083
 33
0.0
  0
SOLID
  8
3
  6
CONTINUOUS
 62
     2
  5
457
 10
-294.279083
 20
188.158
 30
0.0
 11
-294.279083
 21
188.208
 31
0.0
 12
-294.129083
 22
188.183
 32
0.0
 13
-294.129083
 23
188.183
 33
0.0
  0
LINE
  8
3
  6
CONTINUOUS
 62
     2
  5
458
 10
-294.25875
 20
188.034917
 30
0.0
 11
-294.4325
 21
188.034917
 31
0.0
  0
LINE
  8
3
  6
CONTINUOUS
 62
     2
  5
459
 10
-294.4325
 20
188.034917
 30
0.0
 11
-294.03125
 21
189.590833
 31
0.0
  0
LINE
  8
3
  6
CONTINUOUS
 62
     2
  5
45A
 10
-294.03125
 20
189.590833
 30
0.0
 11
-294.192333
 21
189.590833
 31
0.0
  0
SOLID
  8
3
  6
CONTINUOUS
 62
     2
  5
45B
 10
-296.162417
 20
188.102583
 30
0.0
 11
-296.162417
 21
188.152583
 31
0.0
 12
-296.312417
 22
188.127583
 32
0.0
 13
-296.312417
 23
188.127583
 33
0.0
  0
LINE
  8
3
  6
CONTINUOUS
 62
     2
  5
45C
 10
-296.19075
 20
188.136333
 30
0.0
 11
-295.304417
 21
188.136333
 31
0.0
  0
SOLID
  8
3
  6
CONTINUOUS
 62
     2
  5
45D
 10
-295.408917
 20
188.092833
 30
0.0
 11
-295.408917
 21
188.142833
 31
0.0
 12
-295.258917
 22
188.117833
 32
0.0
 13
-295.258917
 23
188.117833
 33
0.0
  0
LINE
  8
3
  6
CONTINUOUS
 62
     2
  5
45E
 10
-296.19075
 20
187.915583
 30
0.0
 11
-295.304417
 21
187.915583
 31
0.0
  0
SOLID
  8
3
  6
CONTINUOUS
 62
     2
  5
45F
 10
-296.188417
 20
187.882083
 30
0.0
 11
-296.188417
 21
187.932083
 31
0.0
 12
-296.338417
 22
187.907083
 32
0.0
 13
-296.338417
 23
187.907083
 33
0.0
  0
SOLID
  8
3
  6
CONTINUOUS
 62
     2
  5
460
 10
-295.425167
 20
187.891917
 30
0.0
 11
-295.425167
 21
187.941917
 31
0.0
 12
-295.275167
 22
187.916917
 32
0.0
 13
-295.275167
 23
187.916917
 33
0.0
  0
LINE
  8
3
  6
CONTINUOUS
 62
     2
  5
461
 10
-295.7905
 20
187.915583
 30
0.0
 11
-295.7905
 21
188.882333
 31
0.0
  0
LINE
  8
3
  6
CONTINUOUS
 62
     2
  5
462
 10
-295.56375
 20
188.882333
 30
0.0
 11
-296.02325
 21
188.882333
 31
0.0
  0
SOLID
  8
3
  6
CONTINUOUS
 62
     2
  5
463
 10
-295.814083
 20
187.460167
 30
0.0
 11
-295.763917
 21
187.460167
 31
0.0
 12
-295.788917
 22
187.610167
 32
0.0
 13
-295.788917
 23
187.610167
 33
0.0
  0
LINE
  8
3
  6
CONTINUOUS
 62
     2
  5
464
 10
-295.7965
 20
187.467917
 30
0.0
 11
-295.7965
 21
186.9995
 31
0.0
  0
LINE
  8
3
  6
CONTINUOUS
 62
     2
  5
465
 10
-295.7965
 20
186.9995
 30
0.0
 11
-295.9875
 21
186.9995
 31
0.0
  0
SOLID
  8
3
  6
CONTINUOUS
 62
     2
  5
466
 10
-297.399083
 20
187.417833
 30
0.0
 11
-297.349083
 21
187.417833
 31
0.0
 12
-297.374167
 22
187.567833
 32
0.0
 13
-297.374167
 23
187.567833
 33
0.0
  0
LINE
  8
3
  6
CONTINUOUS
 62
     2
  5
467
 10
-297.377917
 20
187.467917
 30
0.0
 11
-297.377917
 21
186.531083
 31
0.0
  0
LINE
  8
3
  6
CONTINUOUS
 62
     2
  5
468
 10
-294.394083
 20
186.531083
 30
0.0
 11
-294.394083
 21
187.567917
 31
0.0
  0
SOLID
  8
3
  6
CONTINUOUS
 62
     2
  5
469
 10
-294.416
 20
187.408167
 30
0.0
 11
-294.366
 21
187.408167
 31
0.0
 12
-294.391167
 22
187.558167
 32
0.0
 13
-294.391167
 23
187.558167
 33
0.0
  0
LINE
  8
3
  6
CONTINUOUS
 62
     2
  5
46A
 10
-296.273917
 20
188.61375
 30
0.0
 11
-296.405167
 21
188.61375
 31
0.0
  0
LINE
  8
3
  6
CONTINUOUS
 62
     2
  5
46B
 10
-296.405167
 20
188.61375
 30
0.0
 11
-296.405167
 21
188.387
 31
0.0
  0
SOLID
  8
3
  6
CONTINUOUS
 62
     2
  5
46C
 10
-296.385167
 20
188.640917
 30
0.0
 11
-296.385167
 21
188.590917
 31
0.0
 12
-296.235167
 22
188.615917
 32
0.0
 13
-296.235167
 23
188.615917
 33
0.0
  0
LINE
  8
3
  6
CONTINUOUS
 62
     2
  5
46D
 10
-295.19
 20
188.61375
 30
0.0
 11
-295.19
 21
188.387
 31
0.0
  0
SOLID
  8
3
  6
CONTINUOUS
 62
     2
  5
46E
 10
-295.21875
 20
188.634417
 30
0.0
 11
-295.21875
 21
188.584417
 31
0.0
 12
-295.36875
 22
188.609417
 32
0.0
 13
-295.36875
 23
188.609417
 33
0.0
  0
LINE
  8
3
  6
CONTINUOUS
 62
     2
  5
46F
 10
-295.32125
 20
188.61375
 30
0.0
 11
-295.19
 21
188.61375
 31
0.0
  0
LINE
  8
3
  6
CONTINUOUS
 62
     2
  5
470
 10
-295.32125
 20
187.38525
 30
0.0
 11
-295.19
 21
187.38525
 31
0.0
  0
SOLID
  8
3
  6
CONTINUOUS
 62
     2
  5
471
 10
-295.2415
 20
187.350167
 30
0.0
 11
-295.2415
 21
187.400167
 31
0.0
 12
-295.3915
 22
187.375167
 32
0.0
 13
-295.3915
 23
187.375167
 33
0.0
  0
SOLID
  8
3
  6
CONTINUOUS
 62
     2
  5
472
 10
-296.355833
 20
187.350167
 30
0.0
 11
-296.355833
 21
187.400167
 31
0.0
 12
-296.205833
 22
187.375167
 32
0.0
 13
-296.205833
 23
187.375167
 33
0.0
  0
LINE
  8
3
  6
CONTINUOUS
 62
     2
  5
473
 10
-296.273917
 20
187.38525
 30
0.0
 11
-296.405167
 21
187.38525
 31
0.0
  0
LINE
  8
3
  6
CONTINUOUS
 62
     2
  5
474
 10
-295.19
 20
187.38525
 30
0.0
 11
-295.19
 21
187.612
 31
0.0
  0
LINE
  8
3
  6
CONTINUOUS
 62
     2
  5
475
 10
-296.405167
 20
187.38525
 30
0.0
 11
-296.405167
 21
187.612
 31
0.0
  0
TEXT
  8
3
  6
CONTINUOUS
 62
     2
  5
476
 10
-296.181833
 20
188.569333
 30
0.0
 40
0.15
  1
A
  7
ROMANS
210
0.0
220
0.0
230
1.0
  0
TEXT
  8
3
  6
CONTINUOUS
 62
     2
  5
477
 10
-295.501
 20
188.557083
 30
0.0
 40
0.15
  1
A
  7
ROMANS
210
0.0
220
0.0
230
1.0
  0
TEXT
  8
3
  6
CONTINUOUS
 62
     2
  5
478
 10
-296.172917
 20
187.340917
 30
0.0
 40
0.15
  1
A
  7
ROMANS
210
0.0
220
0.0
230
1.0
  0
TEXT
  8
3
  6
CONTINUOUS
 62
     2
  5
479
 10
-295.496917
 20
187.332
 30
0.0
 40
0.15
  1
A
  7
ROMANS
210
0.0
220
0.0
230
1.0
  0
TEXT
  8
3
  6
CONTINUOUS
 62
     2
  5
47A
 10
-297.161917
 20
186.92975
 30
0.0
 40
0.159
  1
"C" Post
  7
MONOTXT
210
0.0
220
0.0
230
1.0
  0
TEXT
  8
3
  6
CONTINUOUS
 62
     2
  5
47B
 10
-296.333417
 20
186.473667
 30
0.0
 40
0.159
  1
"C" Blocks
  7
MONOTXT
210
0.0
220
0.0
230
1.0
  0
TEXT
  8
3
  6
CONTINUOUS
 62
     2
  5
47C
 10
-296.658833
 20
186.373083
 30
0.0
 40
0.318
  1
*
  7
MONOTXT
210
0.0
220
0.0
230
1.0
  0
TEXT
  8
3
  6
CONTINUOUS
 62
     2
  5
47D
 10
-297.868583
 20
187.020167
 30
0.0
 40
0.159
  1
Rail
 50
90.0
  7
MONOTXT
210
0.0
220
0.0
230
1.0
  0
TEXT
  8
3
  6
CONTINUOUS
 62
     2
  5
47E
 10
-297.866583
 20
187.689667
 30
0.0
 40
0.159
  1
Element
 50
90.0
  7
MONOTXT
210
0.0
220
0.0
230
1.0
  0
TEXT
  8
3
  6
CONTINUOUS
 62
     2
  5
47F
 10
-293.566583
 20
187.13775
 30
0.0
 40
0.159
  1
Rail
 50
90.0
  7
MONOTXT
210
0.0
220
0.0
230
1.0
  0
TEXT
  8
3
  6
CONTINUOUS
 62
     2
  5
480
 10
-293.5475
 20
187.824583
 30
0.0
 40
0.159
  1
Element
 50
90.0
  7
MONOTXT
210
0.0
220
0.0
230
1.0
  0
TEXT
  8
3
  6
CONTINUOUS
 62
     2
  5
481
 10
-298.4625
 20
185.93425
 30
0.0
 40
0.25
  1
PLAN VIEW-DOUBLE-FACED,
  7
ROMANS
210
0.0
220
0.0
230
1.0
  0
TEXT
  8
3
  6
CONTINUOUS
 62
     2
  5
482
 10
-297.736167
 20
185.457917
 30
0.0
 40
0.25
  1
TYPE 5 GUARDRAIL
  7
ROMANS
210
0.0
220
0.0
230
1.0
  0
TEXT
  8
3
  6
CONTINUOUS
 62
     2
  5
483
 10
-297.3755
 20
185.094
 30
0.0
 40
0.159
  1
("C" Post and Blocks)
  7
MONOTXT
210
0.0
220
0.0
230
1.0
  0
TEXT
  8
3
  6
CONTINUOUS
 62
     2
  5
484
 10
-299.277083
 20
187.931833
 30
0.0
 40
0.159
  1
Traffic
 50
90.0
  7
MONOTXT
210
0.0
220
0.0
230
1.0
  0
LINE
  8
3
  6
CONTINUOUS
 62
     2
  5
485
 10
-299.214333
 20
187.840833
 30
0.0
 11
-299.214333
 21
188.638667
 31
0.0
  0
SOLID
  8
3
  6
CONTINUOUS
 62
     2
  5
486
 10
-299.181417
 20
187.893
 30
0.0
 11
-299.231417
 21
187.893
 31
0.0
 12
-299.206417
 22
187.743
 32
0.0
 13
-299.206417
 23
187.743
 33
0.0
  0
SOLID
  8
3
  6
CONTINUOUS
 62
     2
  5
487
 10
-292.6125
 20
188.483833
 30
0.0
 11
-292.5625
 21
188.483833
 31
0.0
 12
-292.5875
 22
188.633833
 32
0.0
 13
-292.5875
 23
188.633833
 33
0.0
  0
LINE
  8
3
  6
CONTINUOUS
 62
     2
  5
488
 10
-292.586083
 20
188.519083
 30
0.0
 11
-292.586083
 21
187.72125
 31
0.0
  0
TEXT
  8
3
  6
CONTINUOUS
 62
     2
  5
489
 10
-292.6555
 20
187.773083
 30
0.0
 40
0.159
  1
Traffic
 50
90.0
  7
MONOTXT
210
0.0
220
0.0
230
1.0
  0
LINE
  8
1
  6
CONTINUOUS
 62
     2
  5
48A
 10
-301.337
 20
184.182167
 30
0.0
 11
-301.337
 21
184.617
 31
0.0
  0
LINE
  8
1
  6
CONTINUOUS
 62
     2
  5
48B
 10
-300.442333
 20
184.182167
 30
0.0
 11
-300.442333
 21
184.617
 31
0.0
  0
SOLID
  8
1
  6
CONTINUOUS
 62
     2
  5
48C
 10
-301.168
 20
184.510417
 30
0.0
 11
-301.168
 21
184.560417
 31
0.0
 12
-301.318
 22
184.535417
 32
0.0
 13
-301.318
 23
184.535417
 33
0.0
  0
SOLID
  8
1
  6
CONTINUOUS
 62
     2
  5
48D
 10
-300.563667
 20
184.501667
 30
0.0
 11
-300.563667
 21
184.551667
 31
0.0
 12
-300.413667
 22
184.526667
 32
0.0
 13
-300.413667
 23
184.526667
 33
0.0
  0
TEXT
  8
1
  6
CONTINUOUS
 62
     2
  5
48E
 10
-300.946083
 20
184.475417
 30
0.0
 40
0.159
  1
W
  7
MONOTXT
210
0.0
220
0.0
230
1.0
  0
LINE
  8
8
  6
CONTINUOUS
 62
     2
  5
48F
 10
-301.337
 20
184.119667
 30
0.0
 11
-301.336917
 21
184.119667
 31
0.0
  0
LINE
  8
8
  6
CONTINUOUS
 62
     2
  5
490
 10
-300.442333
 20
184.119667
 30
0.0
 11
-300.44225
 21
184.119667
 31
0.0
  0
LINE
  8
8
  6
CONTINUOUS
 62
     2
  5
491
 10
-300.442333
 20
184.536583
 30
0.0
 11
-300.44225
 21
184.536583
 31
0.0
  0
LINE
  8
1
  6
CONTINUOUS
 62
     2
  5
492
 10
-300.379833
 20
184.119667
 30
0.0
 11
-299.983
 21
184.119667
 31
0.0
  0
LINE
  8
1
  6
CONTINUOUS
 62
     2
  5
493
 10
-300.827333
 20
182.70025
 30
0.0
 11
-299.983
 21
182.70025
 31
0.0
  0
SOLID
  8
1
  6
CONTINUOUS
 62
     2
  5
494
 10
-300.046833
 20
183.932333
 30
0.0
 11
-300.096833
 21
183.932333
 31
0.0
 12
-300.071833
 22
184.082333
 32
0.0
 13
-300.071833
 23
184.082333
 33
0.0
  0
SOLID
  8
1
  6
CONTINUOUS
 62
     2
  5
495
 10
-300.041
 20
182.86225
 30
0.0
 11
-300.091
 21
182.86225
 31
0.0
 12
-300.066
 22
182.71225
 32
0.0
 13
-300.066
 23
182.71225
 33
0.0
  0
TEXT
  8
1
  6
CONTINUOUS
 62
     2
  5
496
 10
-300.021
 20
183.289417
 30
0.0
 40
0.159
  1
7"
 50
90.0
  7
MONOTXT
210
0.0
220
0.0
230
1.0
  0
LINE
  8
8
  6
CONTINUOUS
 62
     2
  5
497
 10
-300.442333
 20
184.119667
 30
0.0
 11
-300.44225
 21
184.119667
 31
0.0
  0
LINE
  8
8
  6
CONTINUOUS
 62
     2
  5
498
 10
-300.889833
 20
182.70025
 30
0.0
 11
-300.88975
 21
182.70025
 31
0.0
  0
LINE
  8
8
  6
CONTINUOUS
 62
     2
  5
499
 10
-300.074417
 20
182.70025
 30
0.0
 11
-300.074333
 21
182.70025
 31
0.0
  0
LINE
  8
1
  6
CONTINUOUS
 62
     2
  5
49A
 10
-300.889833
 20
182.63775
 30
0.0
 11
-300.889833
 21
182.21725
 31
0.0
  0
LINE
  8
1
  6
CONTINUOUS
 62
     2
  5
49B
 10
-300.789833
 20
182.317333
 30
0.0
 11
-300.689833
 21
182.317333
 31
0.0
  0
SOLID
  8
1
  6
CONTINUOUS
 62
     2
  5
49C
 10
-301.45625
 20
182.293917
 30
0.0
 11
-301.45625
 21
182.343917
 31
0.0
 12
-301.30625
 22
182.318917
 32
0.0
 13
-301.30625
 23
182.318917
 33
0.0
  0
SOLID
  8
1
  6
CONTINUOUS
 62
     2
  5
49D
 10
-300.72475
 20
182.288083
 30
0.0
 11
-300.72475
 21
182.338083
 31
0.0
 12
-300.87475
 22
182.313083
 32
0.0
 13
-300.87475
 23
182.313083
 33
0.0
  0
TEXT
  8
1
  6
CONTINUOUS
 62
     2
  5
49E
 10
-302.619833
 20
182.26175
 30
0.0
 40
0.159
  1
1/2 W
  7
MONOTXT
210
0.0
220
0.0
230
1.0
  0
LINE
  8
8
  6
CONTINUOUS
 62
     2
  5
49F
 10
-300.889833
 20
182.70025
 30
0.0
 11
-300.88975
 21
182.70025
 31
0.0
  0
LINE
  8
8
  6
CONTINUOUS
 62
     2
  5
4A0
 10
-301.337
 20
182.317333
 30
0.0
 11
-301.336917
 21
182.317333
 31
0.0
  0
LINE
  8
8
  6
CONTINUOUS
 62
     2
  5
4A1
 10
-301.337
 20
182.317333
 30
0.0
 11
-301.336917
 21
182.317333
 31
0.0
  0
SOLID
  8
3
  6
CONTINUOUS
 62
     2
  5
4A2
 10
-301.01225
 20
182.788167
 30
0.0
 11
-301.036167
 21
182.744167
 31
0.0
 12
-300.89225
 22
182.694833
 32
0.0
 13
-300.89225
 23
182.694833
 33
0.0
  0
LINE
  8
3
  6
CONTINUOUS
 62
     2
  5
4A3
 10
-300.97775
 20
182.747833
 30
0.0
 11
-301.762083
 21
183.172667
 31
0.0
  0
LINE
  8
3
  6
CONTINUOUS
 62
     2
  5
4A4
 10
-301.762083
 20
183.172667
 30
0.0
 11
-302.960917
 21
183.172667
 31
0.0
  0
TEXT
  8
3
  6
CONTINUOUS
 62
     2
  5
4A5
 10
-303.101
 20
183.259
 30
0.0
 40
0.159
  1
13/16"Dia.
  7
MONOTXT
210
0.0
220
0.0
230
1.0
  0
TEXT
  8
3
  6
CONTINUOUS
 62
     2
  5
4A6
 10
-303.0605
 20
182.9785
 30
0.0
 40
0.159
  1
Bolt Hole
  7
MONOTXT
210
0.0
220
0.0
230
1.0
  0
LINE
  8
1
  6
CONTINUOUS
 62
     2
  5
4A7
 10
-301.453833
 20
190.488
 30
0.0
 11
-300.80025
 21
190.488
 31
0.0
  0
LINE
  8
1
  6
CONTINUOUS
 62
     2
  5
4A8
 10
-301.445083
 20
186.582417
 30
0.0
 11
-300.80025
 21
186.582417
 31
0.0
  0
LINE
  8
1
  6
CONTINUOUS
 62
     2
  5
4A9
 10
-300.910583
 20
190.388
 30
0.0
 11
-300.910583
 21
186.682417
 31
0.0
  0
SOLID
  8
1
  6
CONTINUOUS
 62
     2
  5
4AA
 10
-300.880333
 20
190.32575
 30
0.0
 11
-300.930333
 21
190.32575
 31
0.0
 12
-300.905333
 22
190.47575
 32
0.0
 13
-300.905333
 23
190.47575
 33
0.0
  0
SOLID
  8
1
  6
CONTINUOUS
 62
     2
  5
4AB
 10
-300.893917
 20
186.682417
 30
0.0
 11
-300.92725
 21
186.682417
 31
0.0
 12
-300.910583
 22
186.582417
 32
0.0
 13
-300.910583
 23
186.582417
 33
0.0
  0
TEXT
  8
1
  6
CONTINUOUS
 62
     2
  5
4AC
 10
-300.97425
 20
188.468417
 30
0.0
 40
0.15
  1
D
 50
90.0
  7
ROMANS
210
0.0
220
0.0
230
1.0
  0
LINE
  8
8
  6
CONTINUOUS
 62
     2
  5
4AD
 10
-301.56475
 20
190.488
 30
0.0
 11
-301.564667
 21
190.488
 31
0.0
  0
LINE
  8
8
  6
CONTINUOUS
 62
     2
  5
4AE
 10
-301.56475
 20
186.582417
 30
0.0
 11
-301.564667
 21
186.582417
 31
0.0
  0
LINE
  8
8
  6
CONTINUOUS
 62
     2
  5
4AF
 10
-300.910583
 20
186.582417
 30
0.0
 11
-300.9105
 21
186.582417
 31
0.0
  0
LINE
  8
1
  6
CONTINUOUS
 62
     2
  5
4B0
 10
-304.221417
 20
190.427833
 30
0.0
 11
-304.221417
 21
191.06425
 31
0.0
  0
LINE
  8
1
  6
CONTINUOUS
 62
     2
  5
4B1
 10
-301.40475
 20
190.427833
 30
0.0
 11
-301.40475
 21
191.06425
 31
0.0
  0
LINE
  8
1
  6
CONTINUOUS
 62
     2
  5
4B2
 10
-304.121417
 20
190.974667
 30
0.0
 11
-301.50475
 21
190.974667
 31
0.0
  0
SOLID
  8
1
  6
CONTINUOUS
 62
     2
  5
4B3
 10
-304.073417
 20
190.954
 30
0.0
 11
-304.073417
 21
191.004
 31
0.0
 12
-304.223417
 22
190.978917
 32
0.0
 13
-304.223417
 23
190.978917
 33
0.0
  0
SOLID
  8
1
  6
CONTINUOUS
 62
     2
  5
4B4
 10
-301.518667
 20
190.945
 30
0.0
 11
-301.518667
 21
190.995
 31
0.0
 12
-301.368667
 22
190.969833
 32
0.0
 13
-301.368667
 23
190.969833
 33
0.0
  0
TEXT
  8
1
  6
CONTINUOUS
 62
     2
  5
4B5
 10
-302.863083
 20
191.024667
 30
0.0
 40
0.15
  1
W
  7
ROMANS
210
0.0
220
0.0
230
1.0
  0
LINE
  8
8
  6
CONTINUOUS
 62
     2
  5
4B6
 10
-304.221417
 20
190.328
 30
0.0
 11
-304.221333
 21
190.328
 31
0.0
  0
LINE
  8
8
  6
CONTINUOUS
 62
     2
  5
4B7
 10
-301.40475
 20
190.328
 30
0.0
 11
-301.404667
 21
190.328
 31
0.0
  0
LINE
  8
8
  6
CONTINUOUS
 62
     2
  5
4B8
 10
-301.40475
 20
190.974667
 30
0.0
 11
-301.404667
 21
190.974667
 31
0.0
  0
LINE
  8
1
  6
CONTINUOUS
 62
     2
  5
4B9
 10
-304.221417
 20
189.8545
 30
0.0
 11
-304.221417
 21
189.40775
 31
0.0
  0
LINE
  8
1
  6
CONTINUOUS
 62
     2
  5
4BA
 10
-304.114833
 20
189.8545
 30
0.0
 11
-304.114833
 21
189.40775
 31
0.0
  0
LINE
  8
1
  6
CONTINUOUS
 62
     2
  5
4BB
 10
-304.321417
 20
189.512083
 30
0.0
 11
-304.421417
 21
189.512083
 31
0.0
  0
LINE
  8
1
  6
CONTINUOUS
 62
     2
  5
4BC
 10
-304.033333
 20
189.512083
 30
0.0
 11
-303.498167
 21
189.512083
 31
0.0
  0
SOLID
  8
1
  6
CONTINUOUS
 62
     2
  5
4BD
 10
-303.957417
 20
189.49175
 30
0.0
 11
-303.957417
 21
189.54175
 31
0.0
 12
-304.107417
 22
189.51675
 32
0.0
 13
-304.107417
 23
189.51675
 33
0.0
  0
SOLID
  8
1
  6
CONTINUOUS
 62
     2
  5
4BE
 10
-304.375
 20
189.485667
 30
0.0
 11
-304.375
 21
189.535667
 31
0.0
 12
-304.225
 22
189.510667
 32
0.0
 13
-304.225
 23
189.510667
 33
0.0
  0
TEXT
  8
1
  6
CONTINUOUS
 62
     2
  5
4BF
 10
-302.920917
 20
189.535833
 30
0.0
 40
0.159
  1
0.17"
  7
MONOTXT
210
0.0
220
0.0
230
1.0
  0
LINE
  8
8
  6
CONTINUOUS
 62
     2
  5
4C0
 10
-304.221417
 20
189.917
 30
0.0
 11
-304.221333
 21
189.917
 31
0.0
  0
LINE
  8
8
  6
CONTINUOUS
 62
     2
  5
4C1
 10
-304.114833
 20
189.917
 30
0.0
 11
-304.11475
 21
189.917
 31
0.0
  0
LINE
  8
8
  6
CONTINUOUS
 62
     2
  5
4C2
 10
-304.114833
 20
189.512083
 30
0.0
 11
-304.11475
 21
189.512083
 31
0.0
  0
LINE
  8
1
  6
CONTINUOUS
 62
     2
  5
4C3
 10
-304.17275
 20
190.488
 30
0.0
 11
-304.756667
 21
190.488
 31
0.0
  0
LINE
  8
1
  6
CONTINUOUS
 62
     2
  5
4C4
 10
-304.283917
 20
189.917
 30
0.0
 11
-304.756667
 21
189.917
 31
0.0
  0
LINE
  8
1
  6
CONTINUOUS
 62
     2
  5
4C5
 10
-304.654167
 20
189.817
 30
0.0
 11
-304.654167
 21
189.717
 31
0.0
  0
LINE
  8
1
  6
CONTINUOUS
 62
     2
  5
4C6
 10
-304.654167
 20
190.588
 30
0.0
 11
-304.654167
 21
190.688
 31
0.0
  0
LINE
  8
1
  6
CONTINUOUS
 62
     2
  5
4C7
 10
-304.654167
 20
189.717
 30
0.0
 11
-304.754167
 21
189.717
 31
0.0
  0
SOLID
  8
1
  6
CONTINUOUS
 62
     2
  5
4C8
 10
-304.633
 20
189.7535
 30
0.0
 11
-304.683
 21
189.7535
 31
0.0
 12
-304.658
 22
189.9035
 32
0.0
 13
-304.658
 23
189.9035
 33
0.0
  0
SOLID
  8
1
  6
CONTINUOUS
 62
     2
  5
4C9
 10
-304.625583
 20
190.64225
 30
0.0
 11
-304.675583
 21
190.64225
 31
0.0
 12
-304.650583
 22
190.492417
 32
0.0
 13
-304.650583
 23
190.492417
 33
0.0
  0
TEXT
  8
1
  6
CONTINUOUS
 62
     2
  5
4CA
 10
-306.278333
 20
189.684417
 30
0.0
 40
0.159
  1
3/4" TO 1"
  7
MONOTXT
210
0.0
220
0.0
230
1.0
  0
LINE
  8
8
  6
CONTINUOUS
 62
     2
  5
4CB
 10
-304.061417
 20
190.488
 30
0.0
 11
-304.061333
 21
190.488
 31
0.0
  0
LINE
  8
8
  6
CONTINUOUS
 62
     2
  5
4CC
 10
-304.221417
 20
189.917
 30
0.0
 11
-304.221333
 21
189.917
 31
0.0
  0
LINE
  8
8
  6
CONTINUOUS
 62
     2
  5
4CD
 10
-304.654167
 20
189.917
 30
0.0
 11
-304.654083
 21
189.917
 31
0.0
  0
LINE
  8
1
  6
CONTINUOUS
 62
     2
  5
4CE
 10
-304.283917
 20
187.27525
 30
0.0
 11
-304.756667
 21
187.27525
 31
0.0
  0
LINE
  8
1
  6
CONTINUOUS
 62
     2
  5
4CF
 10
-304.198917
 20
186.582417
 30
0.0
 11
-304.756667
 21
186.582417
 31
0.0
  0
LINE
  8
1
  6
CONTINUOUS
 62
     2
  5
4D0
 10
-304.66175
 20
186.482417
 30
0.0
 11
-304.66175
 21
186.382417
 31
0.0
  0
LINE
  8
1
  6
CONTINUOUS
 62
     2
  5
4D1
 10
-304.66175
 20
187.37525
 30
0.0
 11
-304.66175
 21
187.47525
 31
0.0
  0
LINE
  8
1
  6
CONTINUOUS
 62
     2
  5
4D2
 10
-304.66175
 20
187.47525
 30
0.0
 11
-304.76175
 21
187.47525
 31
0.0
  0
SOLID
  8
1
  6
CONTINUOUS
 62
     2
  5
4D3
 10
-304.642667
 20
186.440167
 30
0.0
 11
-304.692667
 21
186.440167
 31
0.0
 12
-304.667667
 22
186.590167
 32
0.0
 13
-304.667667
 23
186.590167
 33
0.0
  0
SOLID
  8
1
  6
CONTINUOUS
 62
     2
  5
4D4
 10
-304.63475
 20
187.40325
 30
0.0
 11
-304.68475
 21
187.40325
 31
0.0
 12
-304.65975
 22
187.253333
 32
0.0
 13
-304.65975
 23
187.253333
 33
0.0
  0
TEXT
  8
1
  6
CONTINUOUS
 62
     2
  5
4D5
 10
-306.170917
 20
187.432833
 30
0.0
 40
0.159
  1
3/4" TO 1"
  7
MONOTXT
210
0.0
220
0.0
230
1.0
  0
LINE
  8
8
  6
CONTINUOUS
 62
     2
  5
4D6
 10
-304.221417
 20
187.27525
 30
0.0
 11
-304.221333
 21
187.27525
 31
0.0
  0
LINE
  8
8
  6
CONTINUOUS
 62
     2
  5
4D7
 10
-304.061417
 20
186.582417
 30
0.0
 11
-304.061333
 21
186.582417
 31
0.0
  0
LINE
  8
8
  6
CONTINUOUS
 62
     2
  5
4D8
 10
-304.66175
 20
186.582417
 30
0.0
 11
-304.661667
 21
186.582417
 31
0.0
  0
ARC
  8
3
  6
CONTINUOUS
 62
     2
  5
4D9
 10
-301.532167
 20
186.687167
 30
0.0
 40
0.596605
 50
99.614914
 51
170.385083
210
0.0
220
0.0
230
1.0
  0
SOLID
  8
3
  6
CONTINUOUS
 62
     2
  5
4DA
 10
-301.65575
 20
187.240333
 30
0.0
 11
-301.66
 21
187.290333
 31
0.0
 12
-301.508417
 22
187.278
 32
0.0
 13
-301.508417
 23
187.278
 33
0.0
  0
SOLID
  8
3
  6
CONTINUOUS
 62
     2
  5
4DB
 10
-302.077083
 20
186.831333
 30
0.0
 11
-302.126833
 21
186.8355
 31
0.0
 12
-302.114583
 22
186.684
 32
0.0
 13
-302.114583
 23
186.684
 33
0.0
  0
TEXT
  8
3
  6
CONTINUOUS
 62
     2
  5
4DC
 10
-302.600333
 20
187.192
 30
0.0
 40
0.159
  1
90+1.5
  7
MONOTXT
210
0.0
220
0.0
230
1.0
  0
LINE
  8
8
  6
CONTINUOUS
 62
     2
  5
4DD
 10
-301.511333
 20
190.328
 30
0.0
 11
-301.51125
 21
190.328
 31
0.0
  0
LINE
  8
8
  6
CONTINUOUS
 62
     2
  5
4DE
 10
-301.511333
 20
186.742417
 30
0.0
 11
-301.51125
 21
186.742417
 31
0.0
  0
LINE
  8
8
  6
CONTINUOUS
 62
     2
  5
4DF
 10
-301.56475
 20
186.689
 30
0.0
 11
-301.564667
 21
186.689
 31
0.0
  0
LINE
  8
8
  6
CONTINUOUS
 62
     2
  5
4E0
 10
-304.061417
 20
186.689
 30
0.0
 11
-304.061333
 21
186.689
 31
0.0
  0
SOLID
  8
3
  6
CONTINUOUS
 62
     2
  5
4E1
 10
-301.636167
 20
190.329083
 30
0.0
 11
-301.606417
 21
190.288917
 31
0.0
 12
-301.500667
 22
190.398333
 32
0.0
 13
-301.500667
 23
190.398333
 33
0.0
  0
LINE
  8
3
  6
CONTINUOUS
 62
     2
  5
4E2
 10
-301.607417
 20
190.306333
 30
0.0
 11
-301.963917
 21
190.042583
 31
0.0
  0
LINE
  8
3
  6
CONTINUOUS
 62
     2
  5
4E3
 10
-301.963917
 20
190.042583
 30
0.0
 11
-302.13825
 21
190.042583
 31
0.0
  0
TEXT
  8
3
  6
CONTINUOUS
 62
     2
  5
4E4
 10
-303.897083
 20
190.07675
 30
0.0
 40
0.159
  1
1/4" TO 3/8"R
  7
MONOTXT
210
0.0
220
0.0
230
1.0
  0
TEXT
  8
3
  6
CONTINUOUS
 62
     2
  5
4E5
 10
-304.552333
 20
186.098833
 30
0.0
 40
0.25
  1
DETAIL OF STEEL
  7
ROMANS
210
0.0
220
0.0
230
1.0
  0
TEXT
  8
3
  6
CONTINUOUS
 62
     2
  5
4E6
 10
-304.974583
 20
185.638333
 30
0.0
 40
0.25
  1
"C" POST AND BLOCK
  7
ROMANS
210
0.0
220
0.0
230
1.0
  0
LINE
  8
3
  6
CONTINUOUS
 62
     2
  5
4E7
 10
-301.511333
 20
188.775167
 30
0.0
 11
-301.511333
 21
188.657667
 31
0.0
  0
LINE
  8
3
  6
CONTINUOUS
 62
     2
  5
4E8
 10
-301.40475
 20
188.892583
 30
0.0
 11
-301.40475
 21
189.017667
 31
0.0
  0
LINE
  8
3
  6
CONTINUOUS
 62
     2
  5
4E9
 10
-301.30475
 20
188.837667
 30
0.0
 11
-301.20475
 21
188.837667
 31
0.0
  0
LINE
  8
3
  6
CONTINUOUS
 62
     2
  5
4EA
 10
-301.611333
 20
188.837667
 30
0.0
 11
-302.161
 21
188.837667
 31
0.0
  0
SOLID
  8
3
  6
CONTINUOUS
 62
     2
  5
4EB
 10
-301.261
 20
188.815583
 30
0.0
 11
-301.261
 21
188.865583
 31
0.0
 12
-301.411
 22
188.840583
 32
0.0
 13
-301.411
 23
188.840583
 33
0.0
  0
SOLID
  8
3
  6
CONTINUOUS
 62
     2
  5
4EC
 10
-301.654333
 20
188.809583
 30
0.0
 11
-301.654333
 21
188.859583
 31
0.0
 12
-301.504333
 22
188.834583
 32
0.0
 13
-301.504333
 23
188.834583
 33
0.0
  0
TEXT
  8
3
  6
CONTINUOUS
 62
     2
  5
4ED
 10
-302.81125
 20
188.786917
 30
0.0
 40
0.159
  1
0.17"
  7
MONOTXT
210
0.0
220
0.0
230
1.0
  0
LINE
  8
3
  6
CONTINUOUS
 62
     2
  5
4EE
 10
-301.511333
 20
188.837667
 30
0.0
 11
-301.51125
 21
188.837667
 31
0.0
  0
LINE
  8
3
  6
CONTINUOUS
 62
     2
  5
4EF
 10
-301.40475
 20
188.830083
 30
0.0
 11
-301.404667
 21
188.830083
 31
0.0
  0
LINE
  8
3
  6
CONTINUOUS
 62
     2
  5
4F0
 10
-301.40475
 20
188.837667
 30
0.0
 11
-301.404667
 21
188.837667
 31
0.0
  0
TEXT
  8
3
  6
CONTINUOUS
 62
     2
  5
4F1
 10
-303.79475
 20
179.400917
 30
0.0
 40
0.25
  1
STEEL "C" POST FOR TYPE 1,
  7
ROMANS
210
0.0
220
0.0
230
1.0
  0
TEXT
  8
3
  6
CONTINUOUS
 62
     2
  5
4F2
 10
-302.907417
 20
178.898833
 30
0.0
 40
0.25
  1
CLASS III GUARDRAIL
  7
ROMANS
210
0.0
220
0.0
230
1.0
  0
TEXT
  8
3
  6
CONTINUOUS
 62
     2
  5
4F3
 10
-301.397833
 20
178.534
 30
0.0
 40
0.159
  1
(No Blocks)
  7
MONOTXT
210
0.0
220
0.0
230
1.0
  0
SOLID
  8
3
  6
CONTINUOUS
 62
     2
  5
4F4
 10
-310.626583
 20
190.283
 30
0.0
 11
-310.676583
 21
190.283
 31
0.0
 12
-310.651583
 22
190.133
 32
0.0
 13
-310.651583
 23
190.133
 33
0.0
  0
LINE
  8
3
  6
CONTINUOUS
 62
     2
  5
4F5
 10
-310.653167
 20
190.242083
 30
0.0
 11
-310.653167
 21
190.507
 31
0.0
  0
LINE
  8
3
  6
CONTINUOUS
 62
     2
  5
4F6
 10
-310.653167
 20
190.507
 30
0.0
 11
-312.25775
 21
190.507
 31
0.0
  0
LINE
  8
3
  6
CONTINUOUS
 62
     2
  5
4F7
 10
-310.386667
 20
190.507
 30
0.0
 11
-310.709667
 21
190.507
 31
0.0
  0
LINE
  8
3
  6
CONTINUOUS
 62
     2
  5
4F8
 10
-310.386667
 20
190.242083
 30
0.0
 11
-310.386667
 21
190.507
 31
0.0
  0
SOLID
  8
3
  6
CONTINUOUS
 62
     2
  5
4F9
 10
-310.365833
 20
190.287583
 30
0.0
 11
-310.415833
 21
190.287583
 31
0.0
 12
-310.390833
 22
190.137583
 32
0.0
 13
-310.390833
 23
190.137583
 33
0.0
  0
LINE
  8
3
  6
CONTINUOUS
 62
     2
  5
4FA
 10
-310.459333
 20
189.311833
 30
0.0
 11
-310.782333
 21
189.311833
 31
0.0
  0
LINE
  8
3
  6
CONTINUOUS
 62
     2
  5
4FB
 10
-310.596667
 20
189.047
 30
0.0
 11
-310.596667
 21
189.311833
 31
0.0
  0
SOLID
  8
3
  6
CONTINUOUS
 62
     2
  5
4FC
 10
-310.575167
 20
189.088917
 30
0.0
 11
-310.625167
 21
189.088917
 31
0.0
 12
-310.600167
 22
188.938917
 32
0.0
 13
-310.600167
 23
188.938917
 33
0.0
  0
LINE
  8
3
  6
CONTINUOUS
 62
     2
  5
4FD
 10
-310.459333
 20
189.047
 30
0.0
 11
-310.459333
 21
189.311833
 31
0.0
  0
SOLID
  8
3
  6
CONTINUOUS
 62
     2
  5
4FE
 10
-310.437083
 20
189.095
 30
0.0
 11
-310.487083
 21
189.095
 31
0.0
 12
-310.462083
 22
188.945
 32
0.0
 13
-310.462083
 23
188.945
 33
0.0
  0
LINE
  8
3
  6
CONTINUOUS
 62
     2
  5
4FF
 10
-310.653167
 20
189.311833
 30
0.0
 11
-312.783167
 21
189.311833
 31
0.0
  0
SOLID
  8
3
  6
CONTINUOUS
 62
     2
  5
500
 10
-309.943333
 20
190.594
 30
0.0
 11
-309.943333
 21
190.644
 31
0.0
 12
-310.093333
 22
190.618833
 32
0.0
 13
-310.093333
 23
190.618833
 33
0.0
  0
LINE
  8
3
  6
CONTINUOUS
 62
     2
  5
501
 10
-309.984583
 20
190.62
 30
0.0
 11
-309.393417
 21
190.62
 31
0.0
  0
TEXT
  8
3
  6
CONTINUOUS
 62
     2
  5
502
 10
-309.27625
 20
190.564583
 30
0.0
 40
0.159
  1
"C" Post
  7
MONOTXT
210
0.0
220
0.0
230
1.0
  0
SOLID
  8
3
  6
CONTINUOUS
 62
     2
  5
503
 10
-309.928167
 20
189.37375
 30
0.0
 11
-309.928167
 21
189.42375
 31
0.0
 12
-310.078167
 22
189.39875
 32
0.0
 13
-310.078167
 23
189.39875
 33
0.0
  0
LINE
  8
3
  6
CONTINUOUS
 62
     2
  5
504
 10
-309.984583
 20
189.400667
 30
0.0
 11
-309.393417
 21
189.400667
 31
0.0
  0
TEXT
  8
3
  6
CONTINUOUS
 62
     2
  5
505
 10
-309.324
 20
189.331167
 30
0.0
 40
0.159
  1
"C" Block
  7
MONOTXT
210
0.0
220
0.0
230
1.0
  0
TEXT
  8
3
  6
CONTINUOUS
 62
     2
  5
506
 10
-312.418833
 20
190.604167
 30
0.0
 40
0.159
  1
Holes for 
  7
MONOTXT
210
0.0
220
0.0
230
1.0
  0
TEXT
  8
3
  6
CONTINUOUS
 62
     2
  5
507
 10
-312.48025
 20
190.24725
 30
0.0
 40
0.159
  1
Post Bolts
  7
MONOTXT
210
0.0
220
0.0
230
1.0
  0
TEXT
  8
3
  6
CONTINUOUS
 62
     2
  5
508
 10
-313.139667
 20
189.380917
 30
0.0
 40
0.159
  1
Alternative Hole
  7
MONOTXT
210
0.0
220
0.0
230
1.0
  0
TEXT
  8
3
  6
CONTINUOUS
 62
     2
  5
509
 10
-312.942
 20
189.050417
 30
0.0
 40
0.159
  1
for Rail Bolt
  7
MONOTXT
210
0.0
220
0.0
230
1.0
  0
TEXT
  8
3
  6
CONTINUOUS
 62
     2
  5
50A
 10
-310.671417
 20
188.508833
 30
0.0
 40
0.159
  1
Rail
  7
MONOTXT
210
0.0
220
0.0
230
1.0
  0
TEXT
  8
3
  6
CONTINUOUS
 62
     2
  5
50B
 10
-310.80525
 20
188.289
 30
0.0
 40
0.159
  1
Element
  7
MONOTXT
210
0.0
220
0.0
230
1.0
  0
TEXT
  8
3
  6
CONTINUOUS
 62
     2
  5
50C
 10
-314.0965
 20
186.80125
 30
0.0
 40
0.25
  1
PLAN VIEW-SINGLE-FACED,TYPE 1
  7
ROMANS
210
0.0
220
0.0
230
1.0
  0
TEXT
  8
3
  6
CONTINUOUS
 62
     2
  5
50D
 10
-313.511
 20
186.35975
 30
0.0
 40
0.25
  1
(CLASS I OR II)GUARDRAIL
  7
ROMANS
210
0.0
220
0.0
230
1.0
  0
TEXT
  8
3
  6
CONTINUOUS
 62
     2
  5
50E
 10
-311.68625
 20
185.984
 30
0.0
 40
0.159
  1
("C" Post and Block)
  7
MONOTXT
210
0.0
220
0.0
230
1.0
  0
TEXT
  8
3
  6
CONTINUOUS
 62
     2
  5
50F
 10
-313.665583
 20
184.773667
 30
0.0
 40
0.159
  1
Offset Section
  7
MONOTXT
210
0.0
220
0.0
230
1.0
  0
TEXT
  8
3
  6
CONTINUOUS
 62
     2
  5
510
 10
-313.74475
 20
185.108667
 30
0.0
 40
0.159
  1
Splice Section or Rail and 
  7
MONOTXT
210
0.0
220
0.0
230
1.0
  0
LINE
  8
3
  6
CONTINUOUS
 62
     2
  5
511
 10
-311.606167
 20
182.11225
 30
0.0
 11
-311.606083
 21
182.11225
 31
0.0
  0
TEXT
  8
3
  6
CONTINUOUS
 62
     2
  5
512
 10
-312.148167
 20
182.27875
 30
0.0
 40
0.159
  1
7/8"
  7
MONOTXT
210
0.0
220
0.0
230
1.0
  0
SOLID
  8
3
  6
CONTINUOUS
 62
     2
  5
513
 10
-311.580833
 20
181.845333
 30
0.0
 11
-311.630833
 21
181.845333
 31
0.0
 12
-311.605833
 22
181.995333
 32
0.0
 13
-311.605833
 23
181.995333
 33
0.0
  0
SOLID
  8
3
  6
CONTINUOUS
 62
     2
  5
514
 10
-311.580833
 20
182.2665
 30
0.0
 11
-311.630833
 21
182.2665
 31
0.0
 12
-311.605833
 22
182.1165
 32
0.0
 13
-311.605833
 23
182.1165
 33
0.0
  0
LINE
  8
3
  6
CONTINUOUS
 62
     2
  5
515
 10
-311.606167
 20
182.31225
 30
0.0
 11
-311.706167
 21
182.31225
 31
0.0
  0
LINE
  8
3
  6
CONTINUOUS
 62
     2
  5
516
 10
-311.606167
 20
181.900417
 30
0.0
 11
-311.606167
 21
181.800417
 31
0.0
  0
LINE
  8
3
  6
CONTINUOUS
 62
     2
  5
517
 10
-311.606167
 20
182.21225
 30
0.0
 11
-311.606167
 21
182.31225
 31
0.0
  0
LINE
  8
3
  6
CONTINUOUS
 62
     2
  5
518
 10
-311.666667
 20
182.11225
 30
0.0
 11
-311.666583
 21
182.11225
 31
0.0
  0
TEXT
  8
3
  6
CONTINUOUS
 62
     2
  5
519
 10
-312.327917
 20
181.339583
 30
0.0
 40
0.159
  1
6" "C" Block
  7
MONOTXT
210
0.0
220
0.0
230
1.0
  0
LINE
  8
1
  6
CONTINUOUS
 62
     2
  5
51A
 10
-310.71925
 20
184.559083
 30
0.0
 11
-312.43875
 21
184.559083
 31
0.0
  0
LINE
  8
1
  6
CONTINUOUS
 62
     2
  5
51B
 10
-310.71925
 20
182.000417
 30
0.0
 11
-312.43875
 21
182.000417
 31
0.0
  0
SOLID
  8
1
  6
CONTINUOUS
 62
     2
  5
51C
 10
-312.33375
 20
184.39875
 30
0.0
 11
-312.38375
 21
184.39875
 31
0.0
 12
-312.35875
 22
184.54875
 32
0.0
 13
-312.35875
 23
184.54875
 33
0.0
  0
SOLID
  8
1
  6
CONTINUOUS
 62
     2
  5
51D
 10
-312.336667
 20
182.165833
 30
0.0
 11
-312.386667
 21
182.165833
 31
0.0
 12
-312.361667
 22
182.01575
 32
0.0
 13
-312.361667
 23
182.01575
 33
0.0
  0
TEXT
  8
1
  6
CONTINUOUS
 62
     2
  5
51E
 10
-312.308667
 20
183.230333
 30
0.0
 40
0.159
  1
14"
 50
90.0
  7
MONOTXT
210
0.0
220
0.0
230
1.0
  0
LINE
  8
8
  6
CONTINUOUS
 62
     2
  5
51F
 10
-310.65675
 20
184.559083
 30
0.0
 11
-310.656667
 21
184.559083
 31
0.0
  0
LINE
  8
8
  6
CONTINUOUS
 62
     2
  5
520
 10
-310.65675
 20
182.000417
 30
0.0
 11
-310.656667
 21
182.000417
 31
0.0
  0
LINE
  8
8
  6
CONTINUOUS
 62
     2
  5
521
 10
-312.357083
 20
182.000417
 30
0.0
 11
-312.357
 21
182.000417
 31
0.0
  0
LINE
  8
3
  6
CONTINUOUS
 62
     2
  5
522
 10
-310.829083
 20
184.543833
 30
0.0
 11
-311.196667
 21
185.04
 31
0.0
  0
LINE
  8
3
  6
CONTINUOUS
 62
     2
  5
523
 10
-311.196667
 20
185.04
 30
0.0
 11
-313.754333
 21
185.04
 31
0.0
  0
LINE
  8
1
  6
CONTINUOUS
 62
     2
  5
524
 10
-310.832083
 20
184.463417
 30
0.0
 11
-311.786167
 21
184.463417
 31
0.0
  0
LINE
  8
1
  6
CONTINUOUS
 62
     2
  5
525
 10
-311.606167
 20
184.363417
 30
0.0
 11
-311.606167
 21
184.263417
 31
0.0
  0
LINE
  8
1
  6
CONTINUOUS
 62
     2
  5
526
 10
-311.606167
 20
184.659
 30
0.0
 11
-311.606167
 21
184.759
 31
0.0
  0
LINE
  8
1
  6
CONTINUOUS
 62
     2
  5
527
 10
-311.606167
 20
184.263417
 30
0.0
 11
-311.706167
 21
184.263417
 31
0.0
  0
SOLID
  8
1
  6
CONTINUOUS
 62
     2
  5
528
 10
-311.58375
 20
184.342833
 30
0.0
 11
-311.63375
 21
184.342833
 31
0.0
 12
-311.608917
 22
184.492833
 32
0.0
 13
-311.608917
 23
184.492833
 33
0.0
  0
SOLID
  8
1
  6
CONTINUOUS
 62
     2
  5
529
 10
-311.580917
 20
184.698583
 30
0.0
 11
-311.630917
 21
184.698583
 31
0.0
 12
-311.606
 22
184.548583
 32
0.0
 13
-311.606
 23
184.548583
 33
0.0
  0
TEXT
  8
1
  6
CONTINUOUS
 62
     2
  5
52A
 10
-312.273
 20
184.020417
 30
0.0
 40
0.159
  1
7/8"
  7
MONOTXT
210
0.0
220
0.0
230
1.0
  0
LINE
  8
8
  6
CONTINUOUS
 62
     2
  5
52B
 10
-310.65675
 20
184.559
 30
0.0
 11
-310.656667
 21
184.559
 31
0.0
  0
LINE
  8
8
  6
CONTINUOUS
 62
     2
  5
52C
 10
-310.769583
 20
184.463417
 30
0.0
 11
-310.7695
 21
184.463417
 31
0.0
  0
LINE
  8
8
  6
CONTINUOUS
 62
     2
  5
52D
 10
-311.606167
 20
184.463417
 30
0.0
 11
-311.606083
 21
184.463417
 31
0.0
  0
LINE
  8
3
  6
CONTINUOUS
 62
     2
  5
52E
 10
-310.832083
 20
182.11225
 30
0.0
 11
-311.786167
 21
182.11225
 31
0.0
  0
LINE
  8
3
  6
CONTINUOUS
 62
     2
  5
52F
 10
-310.100833
 20
181.40125
 30
0.0
 11
-310.480083
 21
181.40125
 31
0.0
  0
LINE
  8
3
  6
CONTINUOUS
 62
     2
  5
530
 10
-310.100833
 20
181.900417
 30
0.0
 11
-310.100833
 21
181.40125
 31
0.0
  0
SOLID
  8
3
  6
CONTINUOUS
 62
     2
  5
531
 10
-310.81575
 20
184.55375
 30
0.0
 11
-310.8425
 21
184.533917
 31
0.0
 12
-310.769583
 22
184.463417
 32
0.0
 13
-310.769583
 23
184.463417
 33
0.0
  0
LINE
  8
3
  6
CONTINUOUS
 62
     2
  5
532
 10
-309.622917
 20
180.845583
 30
0.0
 11
-309.94025
 21
180.591583
 31
0.0
  0
LINE
  8
3
  6
CONTINUOUS
 62
     2
  5
533
 10
-309.94025
 20
180.591583
 30
0.0
 11
-310.10775
 21
180.591583
 31
0.0
  0
TEXT
  8
3
  6
CONTINUOUS
 62
     2
  5
534
 10
-311.81125
 20
180.537583
 30
0.0
 40
0.159
  1
6" "C" Post
  7
MONOTXT
210
0.0
220
0.0
230
1.0
  0
SOLID
  8
3
  6
CONTINUOUS
 62
     2
  5
535
 10
-309.633417
 20
180.858583
 30
0.0
 11
-309.6125
 21
180.832583
 31
0.0
 12
-309.544833
 22
180.907917
 32
0.0
 13
-309.544833
 23
180.907917
 33
0.0
  0
SOLID
  8
3
  6
CONTINUOUS
 62
     2
  5
536
 10
-310.131583
 20
181.836583
 30
0.0
 11
-310.081583
 21
181.836583
 31
0.0
 12
-310.106583
 22
181.986583
 32
0.0
 13
-310.106583
 23
181.986583
 33
0.0
  0
LINE
  8
1
  6
CONTINUOUS
 62
     2
  5
537
 10
-310.65675
 20
184.621583
 30
0.0
 11
-310.65675
 21
184.971
 31
0.0
  0
LINE
  8
1
  6
CONTINUOUS
 62
     2
  5
538
 10
-309.579
 20
184.621583
 30
0.0
 11
-309.579
 21
184.971
 31
0.0
  0
SOLID
  8
1
  6
CONTINUOUS
 62
     2
  5
539
 10
-310.5395
 20
184.84275
 30
0.0
 11
-310.5395
 21
184.89275
 31
0.0
 12
-310.6895
 22
184.86775
 32
0.0
 13
-310.6895
 23
184.86775
 33
0.0
  0
SOLID
  8
1
  6
CONTINUOUS
 62
     2
  5
53A
 10
-309.701417
 20
184.84275
 30
0.0
 11
-309.701417
 21
184.89275
 31
0.0
 12
-309.551417
 22
184.86775
 32
0.0
 13
-309.551417
 23
184.86775
 33
0.0
  0
TEXT
  8
1
  6
CONTINUOUS
 62
     2
  5
53B
 10
-310.166583
 20
184.8285
 30
0.0
 40
0.159
  1
D
  7
MONOTXT
210
0.0
220
0.0
230
1.0
  0
LINE
  8
8
  6
CONTINUOUS
 62
     2
  5
53C
 10
-310.65675
 20
184.559083
 30
0.0
 11
-310.656667
 21
184.559083
 31
0.0
  0
LINE
  8
8
  6
CONTINUOUS
 62
     2
  5
53D
 10
-309.579
 20
184.559083
 30
0.0
 11
-309.578917
 21
184.559083
 31
0.0
  0
LINE
  8
8
  6
CONTINUOUS
 62
     2
  5
53E
 10
-309.579
 20
184.871
 30
0.0
 11
-309.578917
 21
184.871
 31
0.0
  0
LINE
  8
1
  6
CONTINUOUS
 62
     2
  5
53F
 10
-308.391083
 20
184.621583
 30
0.0
 11
-308.391083
 21
184.971
 31
0.0
  0
SOLID
  8
1
  6
CONTINUOUS
 62
     2
  5
540
 10
-309.486
 20
184.857333
 30
0.0
 11
-309.486
 21
184.907333
 31
0.0
 12
-309.636
 22
184.882333
 32
0.0
 13
-309.636
 23
184.882333
 33
0.0
  0
SOLID
  8
1
  6
CONTINUOUS
 62
     2
  5
541
 10
-308.491083
 20
184.854333
 30
0.0
 11
-308.491083
 21
184.887667
 31
0.0
 12
-308.391083
 22
184.871
 32
0.0
 13
-308.391083
 23
184.871
 33
0.0
  0
TEXT
  8
1
  6
CONTINUOUS
 62
     2
  5
542
 10
-309.019
 20
184.826083
 30
0.0
 40
0.159
  1
D
  7
MONOTXT
210
0.0
220
0.0
230
1.0
  0
LINE
  8
8
  6
CONTINUOUS
 62
     2
  5
543
 10
-309.579
 20
184.559083
 30
0.0
 11
-309.578917
 21
184.559083
 31
0.0
  0
LINE
  8
8
  6
CONTINUOUS
 62
     2
  5
544
 10
-308.391083
 20
184.559083
 30
0.0
 11
-308.391
 21
184.559083
 31
0.0
  0
LINE
  8
8
  6
CONTINUOUS
 62
     2
  5
545
 10
-308.391083
 20
184.871
 30
0.0
 11
-308.391
 21
184.871
 31
0.0
  0
LINE
  8
1
  6
CONTINUOUS
 62
     2
  5
546
 10
-310.161417
 20
183.262083
 30
0.0
 11
-309.897083
 21
183.262083
 31
0.0
  0
SOLID
  8
1
  6
CONTINUOUS
 62
     2
  5
547
 10
-310.048833
 20
183.40725
 30
0.0
 11
-310.098833
 21
183.40725
 31
0.0
 12
-310.073833
 22
183.25725
 32
0.0
 13
-310.073833
 23
183.25725
 33
0.0
  0
SOLID
  8
1
  6
CONTINUOUS
 62
     2
  5
548
 10
-310.048833
 20
184.392917
 30
0.0
 11
-310.098833
 21
184.392917
 31
0.0
 12
-310.073833
 22
184.542917
 32
0.0
 13
-310.073833
 23
184.542917
 33
0.0
  0
TEXT
  8
1
  6
CONTINUOUS
 62
     2
  5
549
 10
-310.028333
 20
183.838833
 30
0.0
 40
0.159
  1
7"
 50
90.0
  7
MONOTXT
210
0.0
220
0.0
230
1.0
  0
LINE
  8
8
  6
CONTINUOUS
 62
     2
  5
54A
 10
-310.223917
 20
183.262083
 30
0.0
 11
-310.223833
 21
183.262083
 31
0.0
  0
LINE
  8
8
  6
CONTINUOUS
 62
     2
  5
54B
 10
-310.223917
 20
184.559083
 30
0.0
 11
-310.223833
 21
184.559083
 31
0.0
  0
LINE
  8
8
  6
CONTINUOUS
 62
     2
  5
54C
 10
-310.077083
 20
184.559083
 30
0.0
 11
-310.077
 21
184.559083
 31
0.0
  0
LINE
  8
1
  6
CONTINUOUS
 62
     2
  5
54D
 10
-309.04525
 20
182.396333
 30
0.0
 11
-308.81425
 21
182.396333
 31
0.0
  0
LINE
  8
1
  6
CONTINUOUS
 62
     2
  5
54E
 10
-309.04525
 20
184.148917
 30
0.0
 11
-308.81425
 21
184.148917
 31
0.0
  0
SOLID
  8
1
  6
CONTINUOUS
 62
     2
  5
54F
 10
-308.862167
 20
182.552417
 30
0.0
 11
-308.912167
 21
182.552417
 31
0.0
 12
-308.887167
 22
182.402417
 32
0.0
 13
-308.887167
 23
182.402417
 33
0.0
  0
TEXT
  8
1
  6
CONTINUOUS
 62
     2
  5
550
 10
-308.835833
 20
183.244333
 30
0.0
 40
0.159
  1
10"
 50
90.0
  7
MONOTXT
210
0.0
220
0.0
230
1.0
  0
LINE
  8
8
  6
CONTINUOUS
 62
     2
  5
551
 10
-309.10775
 20
182.396333
 30
0.0
 11
-309.107667
 21
182.396333
 31
0.0
  0
LINE
  8
8
  6
CONTINUOUS
 62
     2
  5
552
 10
-309.10775
 20
184.148917
 30
0.0
 11
-309.107667
 21
184.148917
 31
0.0
  0
LINE
  8
8
  6
CONTINUOUS
 62
     2
  5
553
 10
-308.893
 20
184.148917
 30
0.0
 11
-308.892917
 21
184.148917
 31
0.0
  0
LINE
  8
1
  6
CONTINUOUS
 62
     2
  5
554
 10
-308.8305
 20
184.148917
 30
0.0
 11
-308.81425
 21
184.148917
 31
0.0
  0
SOLID
  8
1
  6
CONTINUOUS
 62
     2
  5
555
 10
-308.865083
 20
184.302417
 30
0.0
 11
-308.915083
 21
184.302417
 31
0.0
 12
-308.890083
 22
184.152417
 32
0.0
 13
-308.890083
 23
184.152417
 33
0.0
  0
SOLID
  8
1
  6
CONTINUOUS
 62
     2
  5
556
 10
-308.865083
 20
184.410417
 30
0.0
 11
-308.915083
 21
184.410417
 31
0.0
 12
-308.890083
 22
184.560417
 32
0.0
 13
-308.890083
 23
184.560417
 33
0.0
  0
TEXT
  8
1
  6
CONTINUOUS
 62
     2
  5
557
 10
-308.952333
 20
184.236417
 30
0.0
 40
0.159
  1
2"
 50
90.0
  7
MONOTXT
210
0.0
220
0.0
230
1.0
  0
LINE
  8
8
  6
CONTINUOUS
 62
     2
  5
558
 10
-308.893
 20
184.148917
 30
0.0
 11
-308.892917
 21
184.148917
 31
0.0
  0
LINE
  8
8
  6
CONTINUOUS
 62
     2
  5
559
 10
-308.893
 20
184.559083
 30
0.0
 11
-308.892917
 21
184.559083
 31
0.0
  0
LINE
  8
8
  6
CONTINUOUS
 62
     2
  5
55A
 10
-308.893
 20
184.559083
 30
0.0
 11
-308.892917
 21
184.559083
 31
0.0
  0
TEXT
  8
3
  6
CONTINUOUS
 62
     2
  5
55B
 10
-307.96725
 20
185.4925
 30
0.0
 40
0.159
  1
Traffic
  7
MONOTXT
210
0.0
220
0.0
230
1.0
  0
LINE
  8
3
  6
CONTINUOUS
 62
     2
  5
55C
 10
-307.257667
 20
185.414917
 30
0.0
 11
-308.0555
 21
185.414917
 31
0.0
  0
SOLID
  8
3
  6
CONTINUOUS
 62
     2
  5
55D
 10
-308.007833
 20
185.428417
 30
0.0
 11
-308.007833
 21
185.395083
 31
0.0
 12
-308.107833
 22
185.41175
 32
0.0
 13
-308.107833
 23
185.41175
 33
0.0
  0
LINE
  8
1
  6
CONTINUOUS
 62
     2
  5
55E
 10
-306.031417
 20
184.595583
 30
0.0
 11
-306.031417
 21
184.963
 31
0.0
  0
LINE
  8
1
  6
CONTINUOUS
 62
     2
  5
55F
 10
-305.13675
 20
184.595583
 30
0.0
 11
-305.13675
 21
184.963
 31
0.0
  0
SOLID
  8
1
  6
CONTINUOUS
 62
     2
  5
560
 10
-305.86575
 20
184.845667
 30
0.0
 11
-305.86575
 21
184.895667
 31
0.0
 12
-306.01575
 22
184.870667
 32
0.0
 13
-306.01575
 23
184.870667
 33
0.0
  0
SOLID
  8
1
  6
CONTINUOUS
 62
     2
  5
561
 10
-305.287833
 20
184.84275
 30
0.0
 11
-305.287833
 21
184.89275
 31
0.0
 12
-305.137667
 22
184.86775
 32
0.0
 13
-305.137667
 23
184.86775
 33
0.0
  0
TEXT
  8
1
  6
CONTINUOUS
 62
     2
  5
562
 10
-305.646417
 20
184.80225
 30
0.0
 40
0.15
  1
W
  7
ROMANS
210
0.0
220
0.0
230
1.0
  0
LINE
  8
8
  6
CONTINUOUS
 62
     2
  5
563
 10
-306.031417
 20
184.533083
 30
0.0
 11
-306.031333
 21
184.533083
 31
0.0
  0
LINE
  8
8
  6
CONTINUOUS
 62
     2
  5
564
 10
-305.13675
 20
184.533083
 30
0.0
 11
-305.136667
 21
184.533083
 31
0.0
  0
LINE
  8
8
  6
CONTINUOUS
 62
     2
  5
565
 10
-305.13675
 20
184.871
 30
0.0
 11
-305.136667
 21
184.871
 31
0.0
  0
SOLID
  8
3
  6
CONTINUOUS
 62
     2
  5
566
 10
-309.381583
 20
182.148083
 30
0.0
 11
-309.346667
 21
182.184
 31
0.0
 12
-309.471833
 22
182.270333
 32
0.0
 13
-309.471833
 23
182.270333
 33
0.0
  0
LINE
  8
3
  6
CONTINUOUS
 62
     2
  5
567
 10
-309.384083
 20
182.176417
 30
0.0
 11
-308.280417
 21
181.10725
 31
0.0
  0
LINE
  8
3
  6
CONTINUOUS
 62
     2
  5
568
 10
-308.280417
 20
181.10725
 30
0.0
 11
-308.05475
 21
181.10725
 31
0.0
  0
TEXT
  8
3
  6
CONTINUOUS
 62
     2
  5
569
 10
-310.596667
 20
182.8225
 30
0.0
 40
0.159
  1
5/8"x2"
  7
MONOTXT
210
0.0
220
0.0
230
1.0
  0
TEXT
  8
3
  6
CONTINUOUS
 62
     2
  5
56A
 10
-310.386583
 20
182.56575
 30
0.0
 40
0.159
  1
Bolt
  7
MONOTXT
210
0.0
220
0.0
230
1.0
  0
SOLID
  8
3
  6
CONTINUOUS
 62
     2
  5
56B
 10
-310.234167
 20
183.147833
 30
0.0
 11
-310.201667
 21
183.186
 31
0.0
 12
-310.332167
 22
183.264083
 32
0.0
 13
-310.332167
 23
183.264083
 33
0.0
  0
LINE
  8
3
  6
CONTINUOUS
 62
     2
  5
56C
 10
-310.22175
 20
183.164917
 30
0.0
 11
-310.080583
 21
183.044833
 31
0.0
  0
TEXT
  8
3
  6
CONTINUOUS
 62
     2
  5
56D
 10
-308.282833
 20
181.197833
 30
0.0
 40
0.159
  1
Circular Washer
  7
MONOTXT
210
0.0
220
0.0
230
1.0
  0
TEXT
  8
3
  6
CONTINUOUS
 62
     2
  5
56E
 10
-308.18625
 20
183.413667
 30
0.0
 40
0.159
  1
5/8"x1 1/2"
  7
MONOTXT
210
0.0
220
0.0
230
1.0
  0
TEXT
  8
3
  6
CONTINUOUS
 62
     2
  5
56F
 10
-308.178
 20
183.0615
 30
0.0
 40
0.159
  1
Hex Bolts
  7
MONOTXT
210
0.0
220
0.0
230
1.0
  0
TEXT
  8
3
  6
CONTINUOUS
 62
     2
  5
570
 10
-309.094917
 20
182.747
 30
0.0
 40
0.159
  1
          13/16"
  7
MONOTXT
210
0.0
220
0.0
230
1.0
  0
SOLID
  8
3
  6
CONTINUOUS
 62
     2
  5
571
 10
-305.84475
 20
184.012417
 30
0.0
 11
-305.800167
 21
183.989833
 31
0.0
 12
-305.75475
 22
184.134917
 32
0.0
 13
-305.75475
 23
184.134917
 33
0.0
  0
LINE
  8
3
  6
CONTINUOUS
 62
     2
  5
572
 10
-305.822833
 20
184.013
 30
0.0
 11
-306.497833
 21
182.681583
 31
0.0
  0
LINE
  8
3
  6
CONTINUOUS
 62
     2
  5
573
 10
-306.497833
 20
182.681583
 30
0.0
 11
-307.612083
 21
182.681583
 31
0.0
  0
SOLID
  8
3
  6
CONTINUOUS
 62
     2
  5
574
 10
-305.46075
 20
182.383417
 30
0.0
 11
-305.475667
 21
182.3355
 31
0.0
 12
-305.32475
 22
182.315417
 32
0.0
 13
-305.32475
 23
182.315417
 33
0.0
  0
LINE
  8
3
  6
CONTINUOUS
 62
     2
  5
575
 10
-305.360667
 20
182.328583
 30
0.0
 11
-306.497833
 21
182.681583
 31
0.0
  0
SOLID
  8
3
  6
CONTINUOUS
 62
     2
  5
576
 10
-309.04725
 20
182.503583
 30
0.0
 11
-309.08075
 21
182.54075
 31
0.0
 12
-309.1755
 22
182.42175
 32
0.0
 13
-309.1755
 23
182.42175
 33
0.0
  0
LINE
  8
3
  6
CONTINUOUS
 62
     2
  5
577
 10
-309.08675
 20
182.4975
 30
0.0
 11
-308.182917
 21
183.312333
 31
0.0
  0
LINE
  8
3
  6
CONTINUOUS
 62
     2
  5
578
 10
-308.182917
 20
183.312333
 30
0.0
 11
-307.048
 21
183.312333
 31
0.0
  0
SOLID
  8
3
  6
CONTINUOUS
 62
     2
  5
579
 10
-309.08625
 20
184.038083
 30
0.0
 11
-309.065083
 21
184.06375
 31
0.0
 12
-309.152667
 22
184.114667
 32
0.0
 13
-309.152667
 23
184.114667
 33
0.0
  0
LINE
  8
3
  6
CONTINUOUS
 62
     2
  5
57A
 10
-309.075583
 20
184.050917
 30
0.0
 11
-308.182917
 21
183.312333
 31
0.0
  0
LINE
  8
1
  6
CONTINUOUS
 62
     2
  5
57B
 10
-305.777583
 20
184.164667
 30
0.0
 11
-305.777583
 21
184.410667
 31
0.0
  0
LINE
  8
1
  6
CONTINUOUS
 62
     2
  5
57C
 10
-306.031417
 20
184.269833
 30
0.0
 11
-306.031417
 21
184.152333
 31
0.0
  0
LINE
  8
1
  6
CONTINUOUS
 62
     2
  5
57D
 10
-305.677583
 20
184.332333
 30
0.0
 11
-305.577583
 21
184.332333
 31
0.0
  0
SOLID
  8
1
  6
CONTINUOUS
 62
     2
  5
57E
 10
-306.192
 20
184.300417
 30
0.0
 11
-306.192
 21
184.350417
 31
0.0
 12
-306.042
 22
184.325417
 32
0.0
 13
-306.042
 23
184.325417
 33
0.0
  0
SOLID
  8
1
  6
CONTINUOUS
 62
     2
  5
57F
 10
-305.6105
 20
184.30625
 30
0.0
 11
-305.6105
 21
184.35625
 31
0.0
 12
-305.760583
 22
184.33125
 32
0.0
 13
-305.760583
 23
184.33125
 33
0.0
  0
TEXT
  8
1
  6
CONTINUOUS
 62
     2
  5
580
 10
-307.315333
 20
184.298333
 30
0.0
 40
0.159
  1
1 1/8"
  7
MONOTXT
210
0.0
220
0.0
230
1.0
  0
LINE
  8
8
  6
CONTINUOUS
 62
     2
  5
581
 10
-305.777583
 20
184.102167
 30
0.0
 11
-305.7775
 21
184.102167
 31
0.0
  0
LINE
  8
8
  6
CONTINUOUS
 62
     2
  5
582
 10
-306.031417
 20
184.332333
 30
0.0
 11
-306.031333
 21
184.332333
 31
0.0
  0
LINE
  8
8
  6
CONTINUOUS
 62
     2
  5
583
 10
-306.031417
 20
184.332333
 30
0.0
 11
-306.031333
 21
184.332333
 31
0.0
  0
LINE
  8
1
  6
CONTINUOUS
 62
     2
  5
584
 10
-305.360667
 20
182.391083
 30
0.0
 11
-305.360667
 21
182.947583
 31
0.0
  0
LINE
  8
1
  6
CONTINUOUS
 62
     2
  5
585
 10
-305.03675
 20
182.8525
 30
0.0
 11
-304.84925
 21
182.8525
 31
0.0
  0
LINE
  8
1
  6
CONTINUOUS
 62
     2
  5
586
 10
-305.460667
 20
182.8525
 30
0.0
 11
-305.560667
 21
182.8525
 31
0.0
  0
SOLID
  8
1
  6
CONTINUOUS
 62
     2
  5
587
 10
-304.984833
 20
182.82225
 30
0.0
 11
-304.984833
 21
182.87225
 31
0.0
 12
-305.134833
 22
182.84725
 32
0.0
 13
-305.134833
 23
182.84725
 33
0.0
  0
SOLID
  8
1
  6
CONTINUOUS
 62
     2
  5
588
 10
-305.506833
 20
182.825083
 30
0.0
 11
-305.506833
 21
182.875083
 31
0.0
 12
-305.356833
 22
182.850083
 32
0.0
 13
-305.356833
 23
182.850083
 33
0.0
  0
TEXT
  8
1
  6
CONTINUOUS
 62
     2
  5
589
 10
-305.01225
 20
182.582833
 30
0.0
 40
0.159
  1
1 1/8"
  7
MONOTXT
210
0.0
220
0.0
230
1.0
  0
LINE
  8
8
  6
CONTINUOUS
 62
     2
  5
58A
 10
-305.360667
 20
182.328583
 30
0.0
 11
-305.360583
 21
182.328583
 31
0.0
  0
LINE
  8
8
  6
CONTINUOUS
 62
     2
  5
58B
 10
-305.13675
 20
182.827417
 30
0.0
 11
-305.136667
 21
182.827417
 31
0.0
  0
LINE
  8
8
  6
CONTINUOUS
 62
     2
  5
58C
 10
-305.13675
 20
182.8525
 30
0.0
 11
-305.136667
 21
182.8525
 31
0.0
  0
LINE
  8
1
  6
CONTINUOUS
 62
     2
  5
58D
 10
-305.298167
 20
182.328583
 30
0.0
 11
-303.99125
 21
182.328583
 31
0.0
  0
LINE
  8
1
  6
CONTINUOUS
 62
     2
  5
58E
 10
-305.715083
 20
184.102167
 30
0.0
 11
-303.99125
 21
184.102167
 31
0.0
  0
SOLID
  8
1
  6
CONTINUOUS
 62
     2
  5
58F
 10
-304.059917
 20
182.468333
 30
0.0
 11
-304.109917
 21
182.468333
 31
0.0
 12
-304.084917
 22
182.318333
 32
0.0
 13
-304.084917
 23
182.318333
 33
0.0
  0
SOLID
  8
1
  6
CONTINUOUS
 62
     2
  5
590
 10
-304.057
 20
183.941167
 30
0.0
 11
-304.107
 21
183.941167
 31
0.0
 12
-304.082
 22
184.091167
 32
0.0
 13
-304.082
 23
184.091167
 33
0.0
  0
TEXT
  8
1
  6
CONTINUOUS
 62
     2
  5
591
 10
-304.0595
 20
183.070333
 30
0.0
 40
0.159
  1
10"
 50
90.0
  7
MONOTXT
210
0.0
220
0.0
230
1.0
  0
LINE
  8
8
  6
CONTINUOUS
 62
     2
  5
592
 10
-305.360667
 20
182.328583
 30
0.0
 11
-305.360583
 21
182.328583
 31
0.0
  0
LINE
  8
8
  6
CONTINUOUS
 62
     2
  5
593
 10
-305.777583
 20
184.102167
 30
0.0
 11
-305.7775
 21
184.102167
 31
0.0
  0
LINE
  8
8
  6
CONTINUOUS
 62
     2
  5
594
 10
-304.086667
 20
184.102167
 30
0.0
 11
-304.086583
 21
184.102167
 31
0.0
  0
TEXT
  8
3
  6
CONTINUOUS
 62
     2
  5
595
 10
-309.988417
 20
179.766083
 30
0.0
 40
0.25
  1
STEEL "C" GUARDRAIL POST
  7
ROMANS
210
0.0
220
0.0
230
1.0
  0
TEXT
  8
3
  6
CONTINUOUS
 62
     2
  5
596
 10
-307.93625
 20
179.44525
 30
0.0
 40
0.159
  1
(Steel "C" Block)
  7
MONOTXT
210
0.0
220
0.0
230
1.0
  0
TEXT
  8
3
  6
CONTINUOUS
 62
     2
  5
597
 10
-297.710167
 20
182.961333
 30
0.0
 40
0.1
  1
TABLE OF DIMENSIONS AND TOLERANCES
  7
ROMANS
210
0.0
220
0.0
230
1.0
  0
TEXT
  8
3
  6
CONTINUOUS
 62
     2
  5
598
 10
-297.495833
 20
182.791083
 30
0.0
 40
0.1
  1
FOR STEEL "C" POSTS AND BLOCKS
  7
ROMANS
210
0.0
220
0.0
230
1.0
  0
LINE
  8
3
  6
CONTINUOUS
 62
     2
  5
599
 10
-298.505167
 20
183.207
 30
0.0
 11
-293.656583
 21
183.207
 31
0.0
  0
LINE
  8
3
  6
CONTINUOUS
 62
     2
  5
59A
 10
-293.656583
 20
183.207
 30
0.0
 11
-293.656583
 21
181.467
 31
0.0
  0
LINE
  8
3
  6
CONTINUOUS
 62
     2
  5
59B
 10
-293.656583
 20
182.70875
 30
0.0
 11
-298.505167
 21
182.70875
 31
0.0
  0
LINE
  8
3
  6
CONTINUOUS
 62
     2
  5
59C
 10
-298.505167
 20
183.207
 30
0.0
 11
-298.505167
 21
181.467
 31
0.0
  0
LINE
  8
3
  6
CONTINUOUS
 62
     2
  5
59D
 10
-293.656583
 20
182.210417
 30
0.0
 11
-298.505167
 21
182.210417
 31
0.0
  0
LINE
  8
3
  6
CONTINUOUS
 62
     2
  5
59E
 10
-293.656583
 20
181.822917
 30
0.0
 11
-298.505167
 21
181.822917
 31
0.0
  0
LINE
  8
3
  6
CONTINUOUS
 62
     2
  5
59F
 10
-293.656583
 20
181.467
 30
0.0
 11
-298.505167
 21
181.467
 31
0.0
  0
LINE
  8
3
  6
CONTINUOUS
 62
     2
  5
5A0
 10
-293.656583
 20
182.257917
 30
0.0
 11
-298.505167
 21
182.257917
 31
0.0
  0
LINE
  8
3
  6
CONTINUOUS
 62
     2
  5
5A1
 10
-296.080833
 20
182.70875
 30
0.0
 11
-296.080833
 21
182.257917
 31
0.0
  0
LINE
  8
3
  6
CONTINUOUS
 62
     2
  5
5A2
 10
-297.639
 20
182.70875
 30
0.0
 11
-297.639
 21
182.257917
 31
0.0
  0
LINE
  8
3
  6
CONTINUOUS
 62
     2
  5
5A3
 10
-294.839083
 20
182.48725
 30
0.0
 11
-294.839083
 21
182.257917
 31
0.0
  0
LINE
  8
3
  6
CONTINUOUS
 62
     2
  5
5A4
 10
-296.080833
 20
182.210417
 30
0.0
 11
-296.080833
 21
181.467
 31
0.0
  0
LINE
  8
3
  6
CONTINUOUS
 62
     2
  5
5A5
 10
-297.639
 20
182.210417
 30
0.0
 11
-297.639
 21
181.467
 31
0.0
  0
TEXT
  8
3
  6
CONTINUOUS
 62
     2
  5
5A6
 10
-297.350833
 20
182.5135
 30
0.0
 40
0.1
  1
DIMENSIONS
  7
ROMANS
210
0.0
220
0.0
230
1.0
  0
TEXT
  8
3
  6
CONTINUOUS
 62
     2
  5
5A7
 10
-297.249917
 20
182.349417
 30
0.0
 40
0.1
  1
(INCHES)
  7
ROMANS
210
0.0
220
0.0
230
1.0
  0
TEXT
  8
3
  6
CONTINUOUS
 62
     2
  5
5A8
 10
-295.787083
 20
182.545
 30
0.0
 40
0.1
  1
TOLERANCES (INCHES)
  7
ROMANS
210
0.0
220
0.0
230
1.0
  0
TEXT
  8
3
  6
CONTINUOUS
 62
     2
  5
5A9
 10
-295.635833
 20
182.30525
 30
0.0
 40
0.1
  1
PLUS 
  7
ROMANS
210
0.0
220
0.0
230
1.0
  0
TEXT
  8
3
  6
CONTINUOUS
 62
     2
  5
5AA
 10
-294.532417
 20
182.299
 30
0.0
 40
0.1
  1
MINUS
  7
ROMANS
210
0.0
220
0.0
230
1.0
  0
LINE
  8
3
  6
CONTINUOUS
 62
     2
  5
5AB
 10
-296.080833
 20
182.48725
 30
0.0
 11
-293.656583
 21
182.48725
 31
0.0
  0
LINE
  8
3
  6
CONTINUOUS
 62
     2
  5
5AC
 10
-294.839083
 20
182.210417
 30
0.0
 11
-294.839083
 21
181.467
 31
0.0
  0
TEXT
  8
3
  6
CONTINUOUS
 62
     2
  5
5AD
 10
-298.14775
 20
181.963167
 30
0.0
 40
0.159
  1
W
  7
MONOTXT
210
0.0
220
0.0
230
1.0
  0
TEXT
  8
3
  6
CONTINUOUS
 62
     2
  5
5AE
 10
-298.128667
 20
181.595167
 30
0.0
 40
0.159
  1
D
  7
MONOTXT
210
0.0
220
0.0
230
1.0
  0
TEXT
  8
3
  6
CONTINUOUS
 62
     2
  5
5AF
 10
-297.083333
 20
181.963167
 30
0.0
 40
0.159
  1
4.340
  7
MONOTXT
210
0.0
220
0.0
230
1.0
  0
TEXT
  8
3
  6
CONTINUOUS
 62
     2
  5
5B0
 10
-297.074333
 20
181.60025
 30
0.0
 40
0.159
  1
5.875
  7
MONOTXT
210
0.0
220
0.0
230
1.0
  0
TEXT
  8
3
  6
CONTINUOUS
 62
     2
  5
5B1
 10
-295.669333
 20
181.9625
 30
0.0
 40
0.159
  1
0.125
  7
MONOTXT
210
0.0
220
0.0
230
1.0
  0
TEXT
  8
3
  6
CONTINUOUS
 62
     2
  5
5B2
 10
-295.664333
 20
181.599417
 30
0.0
 40
0.159
  1
0.125
  7
MONOTXT
210
0.0
220
0.0
230
1.0
  0
TEXT
  8
3
  6
CONTINUOUS
 62
     2
  5
5B3
 10
-294.4635
 20
181.9625
 30
0.0
 40
0.15
  1
0.063
  7
ROMANS
210
0.0
220
0.0
230
1.0
  0
TEXT
  8
3
  6
CONTINUOUS
 62
     2
  5
5B4
 10
-294.4685
 20
181.594333
 30
0.0
 40
0.159
  1
0.063
  7
MONOTXT
210
0.0
220
0.0
230
1.0
  0
TEXT
  8
3
  6
CONTINUOUS
 62
     2
  5
5B5
 10
-286.96975
 20
187.45175
 30
0.0
 40
0.25
  1
NOTES
  7
MONOTXT
210
0.0
220
0.0
230
1.0
  0
TEXT
  8
3
  6
CONTINUOUS
 62
     2
  5
5B6
 10
-313.811583
 20
182.641917
 30
0.0
 40
0.159
  1
Circular
  7
MONOTXT
210
0.0
220
0.0
230
1.0
  0
TEXT
  8
3
  6
CONTINUOUS
 62
     2
  5
5B7
 10
-313.46425
 20
182.41075
 30
0.0
 40
0.159
  1
Washer
  7
MONOTXT
210
0.0
220
0.0
230
1.0
  0
SOLID
  8
3
  6
CONTINUOUS
 62
     2
  5
5B8
 10
-310.72075
 20
183.135667
 30
0.0
 11
-310.707917
 21
183.087333
 31
0.0
 12
-310.569417
 22
183.150167
 32
0.0
 13
-310.569417
 23
183.150167
 33
0.0
  0
LINE
  8
3
  6
CONTINUOUS
 62
     2
  5
5B9
 10
-310.685
 20
183.11825
 30
0.0
 11
-312.58525
 21
182.611667
 31
0.0
  0
LINE
  8
3
  6
CONTINUOUS
 62
     2
  5
5BA
 10
-312.58525
 20
182.611667
 30
0.0
 11
-312.7735
 21
182.611667
 31
0.0
  0
SOLID
  8
3
  6
CONTINUOUS
 62
     2
  5
5BB
 10
-310.868833
 20
187.527167
 30
0.0
 11
-310.868833
 21
187.49375
 31
0.0
 12
-310.968833
 22
187.5105
 32
0.0
 13
-310.968833
 23
187.5105
 33
0.0
  0
LINE
  8
3
  6
CONTINUOUS
 62
     2
  5
5BC
 10
-310.071
 20
187.5105
 30
0.0
 11
-310.868833
 21
187.5105
 31
0.0
  0
TEXT
  8
3
  6
CONTINUOUS
 62
     2
  5
5BD
 10
-310.81475
 20
187.571833
 30
0.0
 40
0.159
  1
Traffic
  7
MONOTXT
210
0.0
220
0.0
230
1.0
  0
LINE
  8
1
  6
CONTINUOUS
 62
     2
  5
5BE
 10
-312.357083
 20
184.459083
 30
0.0
 11
-312.357083
 21
183.506
 31
0.0
  0
LINE
  8
1
  6
CONTINUOUS
 62
     2
  5
5BF
 10
-312.357083
 20
183.190333
 30
0.0
 11
-312.357083
 21
182.100417
 31
0.0
  0
LINE
  8
1
  6
CONTINUOUS
 62
     2
  5
5C0
 10
-310.077083
 20
183.362083
 30
0.0
 11
-310.077083
 21
183.769667
 31
0.0
  0
LINE
  8
1
  6
CONTINUOUS
 62
     2
  5
5C1
 10
-310.077083
 20
183.975667
 30
0.0
 11
-310.077083
 21
184.459083
 31
0.0
  0
LINE
  8
1
  6
CONTINUOUS
 62
     2
  5
5C2
 10
-308.893
 20
182.496333
 30
0.0
 11
-308.893
 21
183.214583
 31
0.0
  0
LINE
  8
1
  6
CONTINUOUS
 62
     2
  5
5C3
 10
-308.893
 20
183.53025
 30
0.0
 11
-308.893
 21
184.048917
 31
0.0
  0
LINE
  8
1
  6
CONTINUOUS
 62
     2
  5
5C4
 10
-306.125083
 20
184.332333
 30
0.0
 11
-306.534167
 21
184.332333
 31
0.0
  0
LINE
  8
1
  6
CONTINUOUS
 62
     2
  5
5C5
 10
-304.086667
 20
182.428583
 30
0.0
 11
-304.086667
 21
183.059583
 31
0.0
  0
LINE
  8
1
  6
CONTINUOUS
 62
     2
  5
5C6
 10
-304.086667
 20
183.402917
 30
0.0
 11
-304.086667
 21
184.002167
 31
0.0
  0
LINE
  8
1
  6
CONTINUOUS
 62
     2
  5
5C7
 10
-301.429667
 20
182.317333
 30
0.0
 11
-301.881083
 21
182.317333
 31
0.0
  0
LINE
  8
1
  6
CONTINUOUS
 62
     2
  5
5C8
 10
-300.074417
 20
184.019667
 30
0.0
 11
-300.074417
 21
183.473833
 31
0.0
  0
LINE
  8
1
  6
CONTINUOUS
 62
     2
  5
5C9
 10
-300.074417
 20
183.268333
 30
0.0
 11
-300.074417
 21
182.80025
 31
0.0
  0
LINE
  8
3
  6
CONTINUOUS
 62
     2
  5
5CA
 10
-297.377917
 20
186.531083
 30
0.0
 11
-296.681167
 21
186.531083
 31
0.0
  0
LINE
  8
3
  6
CONTINUOUS
 62
     2
  5
5CB
 10
-294.838417
 20
186.531083
 30
0.0
 11
-294.394083
 21
186.531083
 31
0.0
  0
LINE
  8
1
  6
CONTINUOUS
 62
     2
  5
5CC
 10
-312.314333
 20
177.4585
 30
0.0
 11
-312.314333
 21
176.4095
 31
0.0
  0
LINE
  8
1
  6
CONTINUOUS
 62
     2
  5
5CD
 10
-312.314333
 20
176.087917
 30
0.0
 11
-312.314333
 21
175.099833
 31
0.0
  0
LINE
  8
1
  6
CONTINUOUS
 62
     2
  5
5CE
 10
-308.782833
 20
177.04875
 30
0.0
 11
-308.782833
 21
177.458583
 31
0.0
  0
LINE
  8
1
  6
CONTINUOUS
 62
     2
  5
5CF
 10
-299.497583
 20
176.041833
 30
0.0
 11
-299.235417
 21
176.041833
 31
0.0
  0
LINE
  8
1
  6
CONTINUOUS
 62
     2
  5
5D0
 10
-300.704
 20
174.2025
 30
0.0
 11
-301.147833
 21
174.2025
 31
0.0
  0
LINE
  8
1
  6
CONTINUOUS
 62
     2
  5
5D1
 10
-300.158
 20
174.740583
 30
0.0
 11
-300.158
 21
175.600333
 31
0.0
  0
LINE
  8
1
  6
CONTINUOUS
 62
     2
  5
5D2
 10
-300.158
 20
175.936083
 30
0.0
 11
-300.158
 21
176.569667
 31
0.0
  0
LINE
  8
1
  6
CONTINUOUS
 62
     2
  5
5D3
 10
-293.648417
 20
176.316167
 30
0.0
 11
-293.648417
 21
176.79225
 31
0.0
  0
LINE
  8
1
  6
CONTINUOUS
 62
     2
  5
5D4
 10
-293.648417
 20
177.000167
 30
0.0
 11
-293.648417
 21
177.472833
 31
0.0
  0
LINE
  8
1
  6
CONTINUOUS
 62
     2
  5
5D5
 10
-301.237
 20
184.536583
 30
0.0
 11
-300.979417
 21
184.536583
 31
0.0
  0
LINE
  8
1
  6
CONTINUOUS
 62
     2
  5
5D6
 10
-300.824417
 20
184.536583
 30
0.0
 11
-300.542333
 21
184.536583
 31
0.0
  0
LINE
  8
1
  6
CONTINUOUS
 62
     2
  5
5D7
 10
-305.931417
 20
184.871
 30
0.0
 11
-305.6625
 21
184.871
 31
0.0
  0
LINE
  8
1
  6
CONTINUOUS
 62
     2
  5
5D8
 10
-305.505833
 20
184.871
 30
0.0
 11
-305.23675
 21
184.871
 31
0.0
  0
LINE
  8
1
  6
CONTINUOUS
 62
     2
  5
5D9
 10
-310.55675
 20
184.871
 30
0.0
 11
-310.20575
 21
184.871
 31
0.0
  0
LINE
  8
1
  6
CONTINUOUS
 62
     2
  5
5DA
 10
-310.06825
 20
184.871
 30
0.0
 11
-309.679
 21
184.871
 31
0.0
  0
LINE
  8
1
  6
CONTINUOUS
 62
     2
  5
5DB
 10
-309.479
 20
184.871
 30
0.0
 11
-309.065083
 21
184.871
 31
0.0
  0
LINE
  8
1
  6
CONTINUOUS
 62
     2
  5
5DC
 10
-308.911333
 20
184.871
 30
0.0
 11
-308.491083
 21
184.871
 31
0.0
  0
LINE
  8
1
  6
CONTINUOUS
 62
     2
  5
5DD
 10
-308.893
 20
184.248917
 30
0.0
 11
-308.893
 21
184.27325
 31
0.0
  0
LINE
  8
1
  6
CONTINUOUS
 62
     2
  5
5DE
 10
-308.893
 20
184.193333
 30
0.0
 11
-308.893
 21
184.459083
 31
0.0
  0
LINE
  8
1
  6
CONTINUOUS
 62
     2
  5
5DF
 10
-310.161333
 20
177.926
 30
0.0
 11
-310.161333
 21
178.093083
 31
0.0
  0
LINE
  8
1
  6
CONTINUOUS
 62
     2
  5
5E0
 10
-310.194083
 20
178.036833
 30
0.0
 11
-310.11525
 21
178.036833
 31
0.0
  0
LINE
  8
1
  6
CONTINUOUS
 62
     2
  5
5E1
 10
-311.856583
 20
179.096667
 30
0.0
 11
-311.856583
 21
179.26375
 31
0.0
  0
LINE
  8
1
  6
CONTINUOUS
 62
     2
  5
5E2
 10
-311.894167
 20
179.192417
 30
0.0
 11
-311.815333
 21
179.192417
 31
0.0
  0
LINE
  8
1
  6
CONTINUOUS
 62
     2
  5
5E3
 10
-309.602083
 20
177.87175
 30
0.0
 11
-309.880333
 21
177.87175
 31
0.0
  0
LINE
  8
1
  6
CONTINUOUS
 62
     2
  5
5E4
 10
-310.201583
 20
177.87175
 30
0.0
 11
-310.514
 21
177.87175
 31
0.0
  0
LINE
  8
1
  6
CONTINUOUS
 62
     2
  5
5E5
 10
-309.402083
 20
177.87175
 30
0.0
 11
-309.004083
 21
177.87175
 31
0.0
  0
LINE
  8
1
  6
CONTINUOUS
 62
     2
  5
5E6
 10
-308.828833
 20
177.87175
 30
0.0
 11
-308.448333
 21
177.87175
 31
0.0
  0
LINE
  8
1
  6
CONTINUOUS
 62
     2
  5
5E7
 10
-308.782833
 20
176.3685
 30
0.0
 11
-308.782833
 21
176.828333
 31
0.0
  0
LINE
  8
1
  6
CONTINUOUS
 62
     2
  5
5E8
 10
-305.876167
 20
177.87175
 30
0.0
 11
-305.635333
 21
177.87175
 31
0.0
  0
LINE
  8
1
  6
CONTINUOUS
 62
     2
  5
5E9
 10
-305.36875
 20
177.87175
 30
0.0
 11
-305.1815
 21
177.87175
 31
0.0
  0
LINE
  8
1
  6
CONTINUOUS
 62
     2
  5
5EA
 10
-300.158
 20
176.769667
 30
0.0
 11
-300.158
 21
176.7965
 31
0.0
  0
LINE
  8
1
  6
CONTINUOUS
 62
     2
  5
5EB
 10
-300.158
 20
176.79175
 30
0.0
 11
-300.158
 21
177.009417
 31
0.0
  0
LINE
  8
1
  6
CONTINUOUS
 62
     2
  5
5EC
 10
-300.49225
 20
177.505167
 30
0.0
 11
-300.232
 21
177.505167
 31
0.0
  0
LINE
  8
1
  6
CONTINUOUS
 62
     2
  5
5ED
 10
-300.009083
 20
177.505167
 30
0.0
 11
-299.797583
 21
177.505167
 31
0.0
  0
LINE
  8
1
  6
CONTINUOUS
 62
     2
  5
5EE
 10
-293.99575
 20
177.965083
 30
0.0
 11
-293.718833
 21
177.965083
 31
0.0
  0
LINE
  8
1
  6
CONTINUOUS
 62
     2
  5
5EF
 10
-293.572
 20
177.965083
 30
0.0
 11
-293.301167
 21
177.965083
 31
0.0
  0
LINE
  8
1
  6
CONTINUOUS
 62
     2
  5
5F0
 10
-314.119583
 20
186.726083
 30
0.0
 11
-307.01025
 21
186.726083
 31
0.0
  0
LINE
  8
1
  6
CONTINUOUS
 62
     2
  5
5F1
 10
-313.48025
 20
186.292583
 30
0.0
 11
-307.624
 21
186.292583
 31
0.0
  0
LINE
  8
1
  6
CONTINUOUS
 62
     2
  5
5F2
 10
-304.565917
 20
186.01175
 30
0.0
 11
-300.9265
 21
186.01175
 31
0.0
  0
LINE
  8
1
  6
CONTINUOUS
 62
     2
  5
5F3
 10
-304.957583
 20
185.54725
 30
0.0
 11
-300.5995
 21
185.54725
 31
0.0
  0
LINE
  8
1
  6
CONTINUOUS
 62
     2
  5
5F4
 10
-309.986083
 20
179.69075
 30
0.0
 11
-304.08675
 21
179.69075
 31
0.0
  0
LINE
  8
1
  6
CONTINUOUS
 62
     2
  5
5F5
 10
-310.57875
 20
172.320667
 30
0.0
 11
-304.668333
 21
172.320667
 31
0.0
  0
LINE
  8
1
  6
CONTINUOUS
 62
     2
  5
5F6
 10
-301.961667
 20
171.887167
 30
0.0
 11
-299.02925
 21
171.887167
 31
0.0
  0
LINE
  8
1
  6
CONTINUOUS
 62
     2
  5
5F7
 10
-303.43875
 20
171.429083
 30
0.0
 11
-297.535167
 21
171.429083
 31
0.0
  0
LINE
  8
1
  6
CONTINUOUS
 62
     2
  5
5F8
 10
-295.129417
 20
172.351667
 30
0.0
 11
-292.214083
 21
172.351667
 31
0.0
  0
LINE
  8
1
  6
CONTINUOUS
 62
     2
  5
5F9
 10
-296.66
 20
171.881333
 30
0.0
 11
-290.74425
 21
171.881333
 31
0.0
  0
LINE
  8
1
  6
CONTINUOUS
 62
     2
  5
5FA
 10
-298.479417
 20
185.86875
 30
0.0
 11
-292.896583
 21
185.86875
 31
0.0
  0
LINE
  8
1
  6
CONTINUOUS
 62
     2
  5
5FB
 10
-297.73425
 20
185.3755
 30
0.0
 11
-293.854667
 21
185.3755
 31
0.0
  0
LINE
  8
1
  6
CONTINUOUS
 62
     2
  5
5FC
 10
-303.790583
 20
179.319167
 30
0.0
 11
-297.474
 21
179.319167
 31
0.0
  0
LINE
  8
1
  6
CONTINUOUS
 62
     2
  5
5FD
 10
-302.903833
 20
178.82375
 30
0.0
 11
-298.287833
 21
178.82375
 31
0.0
  0
TEXT
  8
3
  6
CONTINUOUS
 62
     2
  5
5FE
 10
-289.970583
 20
185.731667
 30
0.0
 40
0.159
  1
     Steel "C" post and blocks may be used in place of
  7
MONOTXT
210
0.0
220
0.0
230
1.0
  0
TEXT
  8
3
  6
CONTINUOUS
 62
     2
  5
5FF
 10
-289.9505
 20
183.59975
 30
0.0
 40
0.159
  1
     Steel "C" posts and blocks shall conform to the 
  7
MONOTXT
210
0.0
220
0.0
230
1.0
  0
TEXT
  8
3
  6
CONTINUOUS
 62
     2
  5
600
 10
-290.343667
 20
183.276
 30
0.0
 40
0.159
  1
requirements of ASTM A570 with mechanical properties equal to 
  7
MONOTXT
210
0.0
220
0.0
230
1.0
  0
TEXT
  8
3
  6
CONTINUOUS
 62
     2
  5
601
 10
-290.346417
 20
182.926417
 30
0.0
 40
0.159
  1
AASHTO M-183. The weight of galvanizing for posts and blocks
  7
MONOTXT
210
0.0
220
0.0
230
1.0
  0
TEXT
  8
3
  6
CONTINUOUS
 62
     2
  5
602
 10
-289.675083
 20
181.253333
 30
0.0
 40
0.159
  1
     For "C" posts used in double-faced guardrail 
  7
MONOTXT
210
0.0
220
0.0
230
1.0
  0
TEXT
  8
3
  6
CONTINUOUS
 62
     2
  5
603
 10
-290.45725
 20
180.91325
 30
0.0
 40
0.159
  1
 installations, the " closed" side of the post may be located 
  7
MONOTXT
210
0.0
220
0.0
230
1.0
  0
TEXT
  8
3
  6
CONTINUOUS
 62
     2
  5
604
 10
-290.261583
 20
180.0655
 30
0.0
 40
0.159
  1
Regardless of the positioning of the posts, the closed side of
  7
MONOTXT
210
0.0
220
0.0
230
1.0
  0
TEXT
  8
3
  6
CONTINUOUS
 62
     2
  5
605
 10
-290.24425
 20
179.754667
 30
0.0
 40
0.159
  1
"C" blocks, used in double-faced guardrail installations, shall
  7
MONOTXT
210
0.0
220
0.0
230
1.0
  0
TEXT
  8
3
  6
CONTINUOUS
 62
     2
  5
606
 10
-289.538583
 20
178.386333
 30
0.0
 40
0.159
  1
     Double-faced guardrail details shown herein 
  7
MONOTXT
210
0.0
220
0.0
230
1.0
  0
TEXT
  8
3
  6
CONTINUOUS
 62
     2
  5
607
 10
-290.43325
 20
178.049917
 30
0.0
 40
0.159
  1
 are for deep beam
  7
MONOTXT
210
0.0
220
0.0
230
1.0
  0
TEXT
  8
3
  6
CONTINUOUS
 62
     2
  5
608
 10
-287.799083
 20
178.046
 30
0.0
 40
0.159
  1
rails at the same elevation. When the rails 
  7
MONOTXT
210
0.0
220
0.0
230
1.0
  0
TEXT
  8
3
  6
CONTINUOUS
 62
     2
  5
609
 10
-290.29625
 20
177.698083
 30
0.0
 40
0.159
  1
on opposite sides of the post
  7
MONOTXT
210
0.0
220
0.0
230
1.0
  0
TEXT
  8
3
  6
CONTINUOUS
 62
     2
  5
60A
 10
-286.456083
 20
177.686583
 30
0.0
 40
0.159
  1
are at different elevations, the
  7
MONOTXT
210
0.0
220
0.0
230
1.0
  0
TEXT
  8
3
  6
CONTINUOUS
 62
     2
  5
60B
 10
-290.272417
 20
177.329167
 30
0.0
 40
0.159
  1
bolting of the blocks to the post
  7
MONOTXT
210
0.0
220
0.0
230
1.0
  0
TEXT
  8
3
  6
CONTINUOUS
 62
     2
  5
60C
 10
-290.414917
 20
176.985667
 30
0.0
 40
0.159
  1
 manner but vertically located on the post as required.
  7
MONOTXT
210
0.0
220
0.0
230
1.0
  0
TEXT
  8
3
  6
CONTINUOUS
 62
     2
  5
60D
 10
-310.522333
 20
176.515583
 30
0.0
 40
0.159
  1
 5/8 "
  7
MONOTXT
210
0.0
220
0.0
230
1.0
  0
TEXT
  8
3
  6
CONTINUOUS
 62
     2
  5
60E
 10
-310.142083
 20
176.5055
 30
0.0
 40
0.159
  1
Bolt
  7
MONOTXT
210
0.0
220
0.0
230
1.0
  0
TEXT
  8
3
  6
CONTINUOUS
 62
     2
  5
60F
 10
-310.51975
 20
175.8915
 30
0.0
 40
0.159
  1
L=7  3/4 "
  7
MONOTXT
210
0.0
220
0.0
230
1.0
  0
TEXT
  8
3
  6
CONTINUOUS
 62
     2
  5
610
 10
-290.349333
 20
186.549333
 30
0.0
 40
0.159
  1
shall be applicable to this Standard Sheet, except as otherwise
  7
MONOTXT
210
0.0
220
0.0
230
1.0
  0
TEXT
  8
3
  6
CONTINUOUS
 62
     2
  5
611
 10
-290.359417
 20
186.26625
 30
0.0
 40
0.159
  1
modified herein.
  7
MONOTXT
210
0.0
220
0.0
230
1.0
  0
TEXT
  8
3
  6
CONTINUOUS
 62
     2
  5
612
 10
-290.368917
 20
185.388417
 30
0.0
 40
0.159
  1
Steel wideflange post and blocks for all guardrail installations.
  7
MONOTXT
210
0.0
220
0.0
230
1.0
  0
TEXT
  8
3
  6
CONTINUOUS
 62
     2
  5
613
 10
-290.397167
 20
185.060417
 30
0.0
 40
0.159
  1
Mixing of steel post and/or steel block types is not  permitted
  7
MONOTXT
210
0.0
220
0.0
230
1.0
  0
TEXT
  8
3
  6
CONTINUOUS
 62
     2
  5
614
 10
-290.3615
 20
184.745417
 30
0.0
 40
0.159
  1
within a particular run of Guardrail. Only one type of steelpost
  7
MONOTXT
210
0.0
220
0.0
230
1.0
  0
TEXT
  8
3
  6
CONTINUOUS
 62
     2
  5
615
 10
-290.556167
 20
184.428333
 30
0.0
 40
0.159
  1
 and block shall be used throughout any  project.
  7
MONOTXT
210
0.0
220
0.0
230
1.0
  0
TEXT
  8
3
  6
CONTINUOUS
 62
     2
  5
616
 10
-290.43975
 20
180.339583
 30
0.0
 40
0.159
  1
 selected shall be used for the entire run of the guardrail. 
  7
MONOTXT
210
0.0
220
0.0
230
1.0
  0
TEXT
  8
3
  6
CONTINUOUS
 62
     2
  5
617
 10
-290.273167
 20
179.480083
 30
0.0
 40
0.159
  1
face approaching traffic, as shown in the "Plan-View-Double-
  7
MONOTXT
210
0.0
220
0.0
230
1.0
  0
TEXT
  8
3
  6
CONTINUOUS
 62
     2
  5
618
 10
-290.309583
 20
179.137417
 30
0.0
 40
0.159
  1
Faced, Type 5 Guardrail ("C" Post And Blocks)" Detail herein.
  7
MONOTXT
210
0.0
220
0.0
230
1.0
  0
TEXT
  8
3
  6
CONTINUOUS
 62
     2
  5
619
 10
-302.29525
 20
187.107667
 30
0.0
 40
0.159
  1
-
  7
MONOTXT
210
0.0
220
0.0
230
1.0
  0
TEXT
  8
3
  6
CONTINUOUS
 62
     2
  5
61A
 10
-307.59425
 20
191.175
 30
0.0
 40
0.159
  1
 Ungalvanized Thickness
  7
MONOTXT
210
0.0
220
0.0
230
1.0
  0
TEXT
  8
3
  6
CONTINUOUS
 62
     2
  5
61B
 10
-303.519667
 20
188.854
 30
0.0
 40
0.318
  1
**
  7
MONOTXT
210
0.0
220
0.0
230
1.0
  0
TEXT
  8
3
  6
CONTINUOUS
 62
     2
  5
61C
 10
-303.38775
 20
189.59475
 30
0.0
 40
0.318
  1
**
  7
MONOTXT
210
0.0
220
0.0
230
1.0
  0
TEXT
  8
3
  6
CONTINUOUS
 62
     2
  5
61D
 10
-307.8665
 20
191.215583
 30
0.0
 40
0.318
  1
**
  7
MONOTXT
210
0.0
220
0.0
230
1.0
  0
SOLID
  8
1
  6
CONTINUOUS
 62
     2
  5
61E
 10
-308.865083
 20
183.992917
 30
0.0
 11
-308.915083
 21
183.992917
 31
0.0
 12
-308.890083
 22
184.142917
 32
0.0
 13
-308.890083
 23
184.142917
 33
0.0
  0
POINT
  8
1
  6
DASHED
 62
     2
  5
61F
 10
-281.953917
 20
170.528417
 30
0.0
  0
TEXT
  8
3
  6
CONTINUOUS
 62
     2
  5
620
 10
-290.082583
 20
186.863
 30
0.0
 40
0.159
  1
     Details and Notes of Standard Sheets in the GR Series
  7
MONOTXT
210
0.0
220
0.0
230
1.0
  0
TEXT
  8
3
  6
CONTINUOUS
 62
     2
  5
621
 10
-290.332
 20
182.341167
 30
0.0
 40
0.159
  1
to the requirements of AASHTO M-111.
  7
MONOTXT
210
0.0
220
0.0
230
1.0
  0
TEXT
  8
3
  6
CONTINUOUS
 62
     2
  5
622
 10
-290.330167
 20
182.642167
 30
0.0
 40
0.159
  1
shall be two ounces per square foot; galvanizing shall conform 
  7
MONOTXT
210
0.0
220
0.0
230
1.0
  0
TEXT
  8
3
  6
CONTINUOUS
 62
     2
  5
623
 10
-290.281917
 20
180.662167
 30
0.0
 40
0.159
  1
facing either direction of traffic; however, the direction 
  7
MONOTXT
210
0.0
220
0.0
230
1.0
  0
TEXT
  8
3
  6
CONTINUOUS
 62
     2
  5
624
 10
-285.928
 20
177.329417
 30
0.0
 40
0.159
  1
shall be done in a similar
  7
MONOTXT
210
0.0
220
0.0
230
1.0
  0
TEXT
  8
1
  6
CONTINUOUS
 62
     2
  5
625
 10
-287.957917
 20
172.7855
 30
0.0
 40
0.083333
  1
PREPARED 7-1-99
  7
ROMANS
 72
     4
 11
-287.35025
 21
172.827167
 31
0.0
210
0.0
220
0.0
230
1.0
  0
ENDSEC
  0
EOF
