  0
SECTION
  2
HEADER
  9
$ACADVER
  1
AC1009
  9
$INSBASE
 10
0.0
 20
0.0
 30
0.0
  9
$EXTMIN
 10
-0.179917
 20
-0.03
 30
0.0
  9
$EXTMAX
 10
70.417583
 20
82.176667
 30
0.0
  9
$LIMMIN
 10
0.0
 20
0.0
  9
$LIMMAX
 10
12.0
 20
9.0
  9
$ORTHOMODE
 70
     0
  9
$REGENMODE
 70
     1
  9
$FILLMODE
 70
     1
  9
$QTEXTMODE
 70
     0
  9
$MIRRTEXT
 70
     1
  9
$DRAGMODE
 70
     2
  9
$LTSCALE
 40
1.0
  9
$OSMODE
 70
     0
  9
$ATTMODE
 70
     1
  9
$TEXTSIZE
 40
0.2
  9
$TRACEWID
 40
0.05
  9
$TEXTSTYLE
  7
STANDARD
  9
$CLAYER
  8
0
  9
$CELTYPE
  6
CONTINUOUS
  9
$CECOLOR
 62
   256
  9
$DIMSCALE
 40
1.0
  9
$DIMASZ
 40
0.18
  9
$DIMEXO
 40
0.0625
  9
$DIMDLI
 40
0.38
  9
$DIMRND
 40
0.0
  9
$DIMDLE
 40
0.0
  9
$DIMEXE
 40
0.18
  9
$DIMTP
 40
0.0
  9
$DIMTM
 40
0.0
  9
$DIMTXT
 40
0.18
  9
$DIMCEN
 40
0.09
  9
$DIMTSZ
 40
0.0
  9
$DIMTOL
 70
     0
  9
$DIMLIM
 70
     0
  9
$DIMTIH
 70
     1
  9
$DIMTOH
 70
     1
  9
$DIMSE1
 70
     0
  9
$DIMSE2
 70
     0
  9
$DIMTAD
 70
     0
  9
$DIMZIN
 70
     0
  9
$DIMBLK
  1

  9
$DIMASO
 70
     1
  9
$DIMSHO
 70
     1
  9
$DIMPOST
  1

  9
$DIMAPOST
  1

  9
$DIMALT
 70
     0
  9
$DIMALTD
 70
     2
  9
$DIMALTF
 40
25.4
  9
$DIMLFAC
 40
1.0
  9
$DIMTOFL
 70
     0
  9
$DIMTVP
 40
0.0
  9
$DIMTIX
 70
     0
  9
$DIMSOXD
 70
     0
  9
$DIMSAH
 70
     0
  9
$DIMBLK1
  1

  9
$DIMBLK2
  1

  9
$DIMSTYLE
  2
STANDARD
  9
$DIMCLRD
 70
     0
  9
$DIMCLRE
 70
     0
  9
$DIMCLRT
 70
     0
  9
$DIMTFAC
 40
1.0
  9
$DIMGAP
 40
0.09
  9
$LUNITS
 70
     2
  9
$LUPREC
 70
     4
  9
$AXISMODE
 70
     0
  9
$AXISUNIT
 10
0.0
 20
0.0
  9
$SKETCHINC
 40
0.1
  9
$FILLETRAD
 40
0.0
  9
$AUNITS
 70
     0
  9
$AUPREC
 70
     0
  9
$MENU
  1
acad
  9
$ELEVATION
 40
0.0
  9
$PELEVATION
 40
0.0
  9
$THICKNESS
 40
0.0
  9
$LIMCHECK
 70
     0
  9
$BLIPMODE
 70
     1
  9
$CHAMFERA
 40
0.0
  9
$CHAMFERB
 40
0.0
  9
$SKPOLY
 70
     0
  9
$TDCREATE
 40
2451569.409351852
  9
$TDUPDATE
 40
2451569.409351852
  9
$TDINDWG
 40
0.0000000000
  9
$TDUSRTIMER
 40
0.0000000000
  9
$USRTIMER
 70
     1
  9
$ANGBASE
 50
0.0
  9
$ANGDIR
 70
     0
  9
$PDMODE
 70
     0
  9
$PDSIZE
 40
0.0
  9
$PLINEWID
 40
0.0
  9
$COORDS
 70
     0
  9
$SPLFRAME
 70
     0
  9
$SPLINETYPE
 70
     6
  9
$SPLINESEGS
 70
    10
  9
$ATTDIA
 70
     0
  9
$ATTREQ
 70
     1
  9
$HANDLING
 70
     1
  9
$HANDSEED
  5
631
  9
$SURFTAB1
 70
     6
  9
$SURFTAB2
 70
     6
  9
$SURFTYPE
 70
     6
  9
$SURFU
 70
     6
  9
$SURFV
 70
     6
  9
$UCSNAME
  2

  9
$UCSORG
 10
0.0
 20
0.0
 30
0.0
  9
$UCSXDIR
 10
1.0
 20
0.0
 30
0.0
  9
$UCSYDIR
 10
0.0
 20
1.0
 30
0.0
  9
$PUCSNAME
  2

  9
$PUCSORG
 10
0.0
 20
0.0
 30
0.0
  9
$PUCSXDIR
 10
1.0
 20
0.0
 30
0.0
  9
$PUCSYDIR
 10
0.0
 20
1.0
 30
0.0
  9
$USERI1
 70
     0
  9
$USERI2
 70
     0
  9
$USERI3
 70
     0
  9
$USERI4
 70
     0
  9
$USERI5
 70
     0
  9
$USERR1
 40
0.0
  9
$USERR2
 40
0.0
  9
$USERR3
 40
0.0
  9
$USERR4
 40
0.0
  9
$USERR5
 40
0.0
  9
$WORLDVIEW
 70
     1
  9
$SHADEDGE
 70
     3
  9
$SHADEDIF
 70
    70
  9
$TILEMODE
 70
     1
  9
$MAXACTVP
 70
    16
  9
$PINSBASE
 10
0.0
 20
0.0
 30
0.0
  9
$PLIMCHECK
 70
     0
  9
$PEXTMIN
 10
-1.000000E+20
 20
-1.000000E+20
 30
-1.000000E+20
  9
$PEXTMAX
 10
-1.000000E+20
 20
-1.000000E+20
 30
-1.000000E+20
  9
$PLIMMIN
 10
0.0
 20
0.0
  9
$PLIMMAX
 10
12.0
 20
9.0
  9
$UNITMODE
 70
     0
  9
$VISRETAIN
 70
     0
  9
$PLINEGEN
 70
     1
  9
$PSLTSCALE
 70
     0
  9
$TREEDEPTH
 70
  3020
  9
$DWGCODEPAGE
  3
ansi_1252
  0
ENDSEC
  0
SECTION
  2
TABLES
  0
TABLE
  2
VPORT
 70
     1
  0
VPORT
  2
*ACTIVE
 70
     0
 10
0.0
 20
0.0
 11
1.0
 21
1.0
 12
0.0
 22
0.0
 13
0.0
 23
0.0
 14
0.0
 24
0.0
 15
0.0
 25
0.0
 16
0.0
 26
0.0
 36
1.0
 17
50.545513
 27
71.176667
 37
0.0
 40
22.55
 41
1.573741
 42
50.0
 43
0.0
 44
0.0
 50
0.0
 51
0.0
 71
     0
 72
   100
 73
     1
 74
     0
 75
     0
 76
     0
 77
     0
 78
     0
  0
ENDTAB
  0
TABLE
  2
LTYPE
 70
     7
  0
LTYPE
  2
CONTINUOUS
 70
     0
  3
Solid line
 72
    65
 73
     0
 40
0.0
  0
LTYPE
  2
DOT
 70
    64
  3
. . . . . . . . . . . . . . . . . . . . . . . . . . . . . . . . .
 72
    65
 73
     2
 40
0.25
 49
0.0
 49
-0.25
  0
LTYPE
  2
HIDDEN
 70
    64
  3
__ __ __ __ __ __ __ __ __ __ __ __ __ __ __ __ __ __ __ __ __ 
 72
    65
 73
     2
 40
0.375
 49
0.25
 49
-0.125
  0
LTYPE
  2
DASHED
 70
    64
  3
__ __ __ __ __ __ __ __ __ __ __ __ __ __ __ __ __ __ __ __ __
 72
    65
 73
     2
 40
0.75
 49
0.5
 49
-0.25
  0
LTYPE
  2
DASHDOT
 70
    64
  3
__ . __ . __ . __ . __ . __ . __ . __ . __ . __ . __ . __ . _
 72
    65
 73
     4
 40
1.0
 49
0.5
 49
-0.25
 49
0.0
 49
-0.25
  0
LTYPE
  2
DIVIDE
 70
    64
  3
____ . . ____ . . ____ . . ____ . . ____ . . ____ . . ____ . .
 72
    65
 73
     6
 40
1.25
 49
0.5
 49
-0.25
 49
0.0
 49
-0.25
 49
0.0
 49
-0.25
  0
LTYPE
  2
CENTER
 70
    64
  3
____ _ ____ _ ____ _ ____ _ ____ _ ____ _ ____ _ ____ _ ____ _
 72
    65
 73
     4
 40
2.0
 49
1.25
 49
-0.25
 49
0.25
 49
-0.25
  0
ENDTAB
  0
TABLE
  2
LAYER
 70
     6
  0
LAYER
  2
0
 70
     0
 62
     7
  6
CONTINUOUS
  0
LAYER
  2
CONSTRUCTION_CLASS
 70
     1
 62
     7
  6
CONTINUOUS
  0
LAYER
  2
PATTERN_CLASS
 70
     0
 62
     7
  6
CONTINUOUS
  0
LAYER
  2
2
 70
    64
 62
     7
  6
CONTINUOUS
  0
LAYER
  2
1
 70
    64
 62
     7
  6
CONTINUOUS
  0
LAYER
  2
3
 70
    64
 62
     7
  6
CONTINUOUS
  0
ENDTAB
  0
TABLE
  2
STYLE
 70
     5
  0
STYLE
  2
STANDARD
 70
     0
 40
0.0
 41
1.0
 50
0.0
 71
     0
 42
0.0
  3
txt
  4

  0
STYLE
  2
MONOTXT
 70
     0
 40
0.2
 41
1.0
 50
0.0
 71
     0
 42
0.2
  3
MONOTXT
  4

  0
STYLE
  2
txt
 70
     0
 40
0.2
 41
1.0
 50
0.0
 71
     0
 42
0.2
  3
TXT
  4

  0
STYLE
  2
ROMANT
 70
     0
 40
0.2
 41
1.0
 50
0.0
 71
     0
 42
0.2
  3
ROMANT
  4

  0
STYLE
  2
ROMANS
 70
     0
 40
0.2
 41
1.0
 50
0.0
 71
     0
 42
0.2
  3
ROMANS
  4

  0
ENDTAB
  0
TABLE
  2
VIEW
 70
     0
  0
ENDTAB
  0
TABLE
  2
UCS
 70
     0
  0
ENDTAB
  0
TABLE
  2
APPID
 70
     1
  0
APPID
  2
ACAD
 70
     0
  0
ENDTAB
  0
TABLE
  2
DIMSTYLE
 70
     1
  0
DIMSTYLE
  2
STANDARD
 70
     0
  3

  4

  5

  6

  7

 40
1.0
 41
0.18
 42
0.0625
 43
0.38
 44
0.18
 45
0.0
 46
0.0
 47
0.0
 48
0.0
140
0.18
141
0.09
142
0.0
143
25.4
144
1.0
145
0.0
146
1.0
147
0.09
 71
     0
 72
     0
 73
     1
 74
     1
 75
     0
 76
     0
 77
     0
 78
     0
170
     0
171
     2
172
     0
173
     0
174
     0
175
     0
176
     0
177
     0
178
     0
  0
ENDTAB
  0
ENDSEC
  0
SECTION
  2
BLOCKS
  0
BLOCK
  8
2
  6
CONTINUOUS
 62
     2
  5
60
  2
ARR
 70
     0
 10
0.0
 20
0.0
 30
0.0
  3
ARR
  0
SOLID
  8
2
  6
CONTINUOUS
 62
     2
  5
61
 10
-0.18
 20
0.03
 30
0.0
 11
-0.18
 21
-0.03
 31
0.0
 12
0.0
 22
0.0
 32
0.0
 13
0.0
 23
0.0
 33
0.0
  0
ENDBLK
  8
2
  6
CONTINUOUS
 62
     2
  5
62
  0
ENDSEC
  0
SECTION
  2
ENTITIES
  0
TEXT
  8
2
  6
CONTINUOUS
 62
     2
  5
2A
 10
67.492417
 20
62.748667
 30
0.0
 40
0.3025
  1
^A
  7
MONOTXT
210
0.0
220
0.0
230
1.0
  0
TEXT
  8
2
  6
CONTINUOUS
 62
     2
  5
2B
 10
67.528
 20
62.250333
 30
0.0
 40
0.3025
  1
^A
  7
MONOTXT
210
0.0
220
0.0
230
1.0
  0
TEXT
  8
2
  6
CONTINUOUS
 62
     2
  5
2C
 10
67.528
 20
61.7875
 30
0.0
 40
0.3025
  1
^A
  7
MONOTXT
210
0.0
220
0.0
230
1.0
  0
TEXT
  8
2
  6
CONTINUOUS
 62
     2
  5
2D
 10
67.528
 20
61.32475
 30
0.0
 40
0.3025
  1
^A
  7
MONOTXT
210
0.0
220
0.0
230
1.0
  0
LINE
  8
1
  6
CONTINUOUS
 62
   132
  5
2F
 10
41.64075
 20
79.867417
 30
0.0
 11
44.299083
 21
79.867417
 31
0.0
  0
LINE
  8
1
  6
CONTINUOUS
 62
   132
  5
30
 10
44.299083
 20
79.867417
 30
0.0
 11
44.299083
 21
75.929167
 31
0.0
  0
LINE
  8
1
  6
CONTINUOUS
 62
   132
  5
31
 10
44.299083
 20
75.929167
 30
0.0
 11
44.037583
 21
75.929167
 31
0.0
  0
LINE
  8
1
  6
CONTINUOUS
 62
   132
  5
32
 10
44.037583
 20
75.929167
 30
0.0
 11
43.928667
 21
75.722167
 31
0.0
  0
LINE
  8
1
  6
CONTINUOUS
 62
   132
  5
33
 10
43.928667
 20
75.722167
 30
0.0
 11
43.198667
 21
76.081667
 31
0.0
  0
LINE
  8
1
  6
CONTINUOUS
 62
   233
  5
34
 10
43.188083
 20
76.08875
 30
0.0
 11
43.100917
 21
75.925333
 31
0.0
  0
LINE
  8
1
  6
CONTINUOUS
 62
   132
  5
35
 10
43.1115
 20
75.91825
 30
0.0
 11
42.77375
 21
75.91825
 31
0.0
  0
LINE
  8
1
  6
CONTINUOUS
 62
   132
  5
36
 10
42.77375
 20
75.91825
 30
0.0
 11
42.77375
 21
79.867417
 31
0.0
  0
LINE
  8
1
  6
CONTINUOUS
 62
   132
  5
37
 10
41.64075
 20
79.867417
 30
0.0
 11
41.64075
 21
77.367333
 31
0.0
  0
LINE
  8
1
  6
CONTINUOUS
 62
   132
  5
38
 10
41.64075
 20
77.367333
 30
0.0
 11
42.77375
 21
77.367333
 31
0.0
  0
LINE
  8
3
  6
HIDDEN
 62
     7
  5
3A
 10
41.64075
 20
78.682667
 30
0.0
 11
44.299083
 21
78.682667
 31
0.0
  0
LINE
  8
3
  6
HIDDEN
 62
     7
  5
3B
 10
41.64075
 20
78.632167
 30
0.0
 11
44.299083
 21
78.632167
 31
0.0
  0
LINE
  8
3
  6
HIDDEN
 62
     7
  5
3C
 10
41.64075
 20
78.550917
 30
0.0
 11
44.299083
 21
78.550917
 31
0.0
  0
LINE
  8
3
  6
HIDDEN
 62
     7
  5
3D
 10
41.64075
 20
78.506083
 30
0.0
 11
44.299083
 21
78.506083
 31
0.0
  0
LINE
  8
1
  6
CONTINUOUS
 62
   233
  5
3E
 10
44.299083
 20
78.775667
 30
0.0
 11
44.3785
 21
78.775667
 31
0.0
  0
LINE
  8
1
  6
CONTINUOUS
 62
   233
  5
3F
 10
44.3785
 20
78.775667
 30
0.0
 11
44.3785
 21
78.440417
 31
0.0
  0
LINE
  8
1
  6
CONTINUOUS
 62
   233
  5
40
 10
44.3785
 20
78.440417
 30
0.0
 11
44.299083
 21
78.440417
 31
0.0
  0
LINE
  8
1
  6
CONTINUOUS
 62
   233
  5
41
 10
44.3785
 20
78.743917
 30
0.0
 11
44.521917
 21
78.743917
 31
0.0
  0
LINE
  8
1
  6
CONTINUOUS
 62
   233
  5
42
 10
44.521917
 20
78.743917
 30
0.0
 11
44.521917
 21
78.4705
 31
0.0
  0
LINE
  8
1
  6
CONTINUOUS
 62
   233
  5
43
 10
44.521917
 20
78.4705
 30
0.0
 11
44.3785
 21
78.4705
 31
0.0
  0
LINE
  8
1
  6
CONTINUOUS
 62
   233
  5
44
 10
44.3785
 20
78.69225
 30
0.0
 11
44.521917
 21
78.69225
 31
0.0
  0
LINE
  8
1
  6
CONTINUOUS
 62
   233
  5
45
 10
44.3785
 20
78.65225
 30
0.0
 11
44.521917
 21
78.65225
 31
0.0
  0
LINE
  8
1
  6
CONTINUOUS
 62
   233
  5
46
 10
44.3785
 20
78.567167
 30
0.0
 11
44.521917
 21
78.567167
 31
0.0
  0
LINE
  8
1
  6
CONTINUOUS
 62
   233
  5
47
 10
44.3785
 20
78.518833
 30
0.0
 11
44.521917
 21
78.518833
 31
0.0
  0
LINE
  8
1
  6
CONTINUOUS
 62
   233
  5
48
 10
44.521917
 20
78.65225
 30
0.0
 11
44.670417
 21
78.65225
 31
0.0
  0
LINE
  8
1
  6
CONTINUOUS
 62
   233
  5
49
 10
44.670417
 20
78.65225
 30
0.0
 11
44.670417
 21
78.567167
 31
0.0
  0
LINE
  8
1
  6
CONTINUOUS
 62
   233
  5
4A
 10
44.521917
 20
78.567167
 30
0.0
 11
44.670417
 21
78.567167
 31
0.0
  0
LINE
  8
1
  6
CONTINUOUS
 62
   233
  5
4B
 10
44.545333
 20
78.635917
 30
0.0
 11
44.545333
 21
78.583083
 31
0.0
  0
LINE
  8
1
  6
CONTINUOUS
 62
   233
  5
4C
 10
44.575333
 20
78.635917
 30
0.0
 11
44.575333
 21
78.583083
 31
0.0
  0
LINE
  8
1
  6
CONTINUOUS
 62
   233
  5
4D
 10
44.612
 20
78.635917
 30
0.0
 11
44.612
 21
78.583083
 31
0.0
  0
LINE
  8
1
  6
CONTINUOUS
 62
   233
  5
4E
 10
44.642
 20
78.635917
 30
0.0
 11
44.642
 21
78.583083
 31
0.0
  0
LINE
  8
1
  6
CONTINUOUS
 62
   132
  5
4F
 10
46.454
 20
75.92725
 30
0.0
 11
46.7375
 21
75.92725
 31
0.0
  0
LINE
  8
1
  6
CONTINUOUS
 62
   132
  5
50
 10
46.7375
 20
75.92725
 30
0.0
 11
46.880083
 21
76.121583
 31
0.0
  0
LINE
  8
1
  6
CONTINUOUS
 62
   132
  5
51
 10
46.880083
 20
76.121583
 30
0.0
 11
47.165167
 21
75.668083
 31
0.0
  0
LINE
  8
1
  6
CONTINUOUS
 62
   132
  5
52
 10
47.165167
 20
75.668083
 30
0.0
 11
47.333667
 21
75.92725
 31
0.0
  0
LINE
  8
1
  6
CONTINUOUS
 62
   132
  5
53
 10
47.333667
 20
75.92725
 30
0.0
 11
47.579917
 21
75.92725
 31
0.0
  0
LINE
  8
1
  6
CONTINUOUS
 62
   132
  5
54
 10
47.579917
 20
75.92725
 30
0.0
 11
47.579917
 21
79.866
 31
0.0
  0
LINE
  8
1
  6
CONTINUOUS
 62
   132
  5
55
 10
46.454
 20
79.866
 30
0.0
 11
47.579917
 21
79.866
 31
0.0
  0
LINE
  8
1
  6
CONTINUOUS
 62
   132
  5
56
 10
46.454
 20
79.866
 30
0.0
 11
46.454
 21
75.92725
 31
0.0
  0
CIRCLE
  8
1
  6
CONTINUOUS
 62
   233
  5
57
 10
47.025417
 20
78.631083
 30
0.0
 40
0.071957
210
0.0
220
0.0
230
1.0
  0
LINE
  8
2
  6
CONTINUOUS
 62
     2
  5
58
 10
47.0315
 20
78.504167
 30
0.0
 11
47.0315
 21
78.1615
 31
0.0
  0
LINE
  8
2
  6
CONTINUOUS
 62
     2
  5
59
 10
46.454
 20
78.323667
 30
0.0
 11
47.0315
 21
78.323667
 31
0.0
  0
LINE
  8
2
  6
CONTINUOUS
 62
     2
  5
5A
 10
44.297917
 20
79.97175
 30
0.0
 11
44.297917
 21
80.657083
 31
0.0
  0
LINE
  8
2
  6
CONTINUOUS
 62
     2
  5
5B
 10
42.769167
 20
79.959167
 30
0.0
 11
42.769167
 21
80.657083
 31
0.0
  0
LINE
  8
2
  6
CONTINUOUS
 62
     2
  5
5C
 10
41.635167
 20
79.959167
 30
0.0
 11
41.635167
 21
80.657083
 31
0.0
  0
LINE
  8
2
  6
CONTINUOUS
 62
     2
  5
5D
 10
41.635167
 20
80.366417
 30
0.0
 11
42.062917
 21
80.366417
 31
0.0
  0
LINE
  8
2
  6
CONTINUOUS
 62
     2
  5
5E
 10
42.589167
 20
80.366417
 30
0.0
 11
42.410083
 21
80.366417
 31
0.0
  0
INSERT
  8
2
  6
CONTINUOUS
 62
     2
  5
63
  2
ARR
 10
42.769167
 20
80.366333
 30
0.0
210
0.0
220
0.0
230
1.0
  0
INSERT
  8
2
  6
CONTINUOUS
 62
     2
  5
64
  2
ARR
 10
44.297917
 20
80.366333
 30
0.0
210
0.0
220
0.0
230
1.0
  0
INSERT
  8
2
  6
CONTINUOUS
 62
     2
  5
65
  2
ARR
 10
42.769167
 20
80.366333
 30
0.0
 50
180.0
210
0.0
220
0.0
230
1.0
  0
INSERT
  8
2
  6
CONTINUOUS
 62
     2
  5
66
  2
ARR
 10
41.635167
 20
80.366333
 30
0.0
 50
180.0
210
0.0
220
0.0
230
1.0
  0
LINE
  8
2
  6
CONTINUOUS
 62
     2
  5
67
 10
46.453667
 20
80.354833
 30
0.0
 11
47.5705
 21
80.354833
 31
0.0
  0
LINE
  8
2
  6
CONTINUOUS
 62
     2
  5
68
 10
47.5705
 20
79.92325
 30
0.0
 11
47.5705
 21
80.608583
 31
0.0
  0
LINE
  8
2
  6
CONTINUOUS
 62
     2
  5
69
 10
46.453667
 20
79.97175
 30
0.0
 11
46.453667
 21
80.657083
 31
0.0
  0
INSERT
  8
2
  6
CONTINUOUS
 62
     2
  5
6A
  2
ARR
 10
47.580083
 20
80.358083
 30
0.0
210
0.0
220
0.0
230
1.0
  0
INSERT
  8
2
  6
CONTINUOUS
 62
     2
  5
6B
  2
ARR
 10
46.453667
 20
80.354833
 30
0.0
 50
180.0
210
0.0
220
0.0
230
1.0
  0
LINE
  8
2
  6
CONTINUOUS
 62
     2
  5
6C
 10
44.942417
 20
78.6135
 30
0.0
 11
44.942417
 21
79.086417
 31
0.0
  0
LINE
  8
2
  6
CONTINUOUS
 62
     2
  5
6D
 10
44.433667
 20
79.862667
 30
0.0
 11
45.19175
 21
79.862667
 31
0.0
  0
LINE
  8
2
  6
CONTINUOUS
 62
     2
  5
6E
 10
44.738917
 20
78.6135
 30
0.0
 11
45.19175
 21
78.6135
 31
0.0
  0
INSERT
  8
2
  6
CONTINUOUS
 62
     2
  5
6F
  2
ARR
 10
44.942417
 20
79.862583
 30
0.0
 50
90.0
210
0.0
220
0.0
230
1.0
  0
INSERT
  8
2
  6
CONTINUOUS
 62
     2
  5
70
  2
ARR
 10
44.942417
 20
78.6135
 30
0.0
 50
270.0
210
0.0
220
0.0
230
1.0
  0
ARC
  8
1
  6
CONTINUOUS
 62
   132
  5
71
 10
41.108167
 20
77.91575
 30
0.0
 40
0.04791
 50
134.286572
 51
179.552286
210
0.0
220
0.0
230
1.0
  0
ARC
  8
1
  6
CONTINUOUS
 62
   233
  5
72
 10
41.109667
 20
77.920583
 30
0.0
 40
0.086203
 50
120.03825
 51
182.987283
210
0.0
220
0.0
230
1.0
  0
ARC
  8
1
  6
CONTINUOUS
 62
   132
  5
73
 10
41.110083
 20
77.918
 30
0.0
 40
0.122406
 50
133.542117
 51
180.876203
210
0.0
220
0.0
230
1.0
  0
ARC
  8
1
  6
CONTINUOUS
 62
   132
  5
74
 10
41.514167
 20
78.434583
 30
0.0
 40
0.067563
 50
300.232697
 51
359.852675
210
0.0
220
0.0
230
1.0
  0
ARC
  8
1
  6
CONTINUOUS
 62
   233
  5
75
 10
41.513833
 20
78.43425
 30
0.0
 40
0.096292
 50
300.055728
 51
0.020269
210
0.0
220
0.0
230
1.0
  0
ARC
  8
1
  6
CONTINUOUS
 62
   132
  5
76
 10
41.513833
 20
78.431417
 30
0.0
 40
0.127251
 50
314.7944
 51
1.245628
210
0.0
220
0.0
230
1.0
  0
LINE
  8
1
  6
CONTINUOUS
 62
   132
  5
77
 10
41.07475
 20
77.950083
 30
0.0
 11
41.6035
 21
78.341083
 31
0.0
  0
LINE
  8
1
  6
CONTINUOUS
 62
   233
  5
78
 10
41.066583
 20
77.99525
 30
0.0
 11
41.562
 21
78.350917
 31
0.0
  0
LINE
  8
1
  6
CONTINUOUS
 62
   132
  5
79
 10
41.02575
 20
78.00675
 30
0.0
 11
41.548167
 21
78.376167
 31
0.0
  0
LINE
  8
1
  6
CONTINUOUS
 62
   132
  5
7A
 10
41.07475
 20
77.882167
 30
0.0
 11
41.582417
 21
77.50675
 31
0.0
  0
ARC
  8
1
  6
CONTINUOUS
 62
   233
  5
7B
 10
41.109667
 20
77.911667
 30
0.0
 40
0.086203
 50
177.012711
 51
239.961744
210
0.0
220
0.0
230
1.0
  0
ARC
  8
1
  6
CONTINUOUS
 62
   132
  5
7C
 10
41.108167
 20
77.9165
 30
0.0
 40
0.04791
 50
180.447711
 51
225.713425
210
0.0
220
0.0
230
1.0
  0
ARC
  8
1
  6
CONTINUOUS
 62
   132
  5
7D
 10
41.110083
 20
77.91425
 30
0.0
 40
0.122406
 50
179.123794
 51
226.457881
210
0.0
220
0.0
230
1.0
  0
LINE
  8
1
  6
CONTINUOUS
 62
   132
  5
7E
 10
41.02575
 20
77.8255
 30
0.0
 11
41.582417
 21
77.431833
 31
0.0
  0
LINE
  8
1
  6
CONTINUOUS
 62
   233
  5
7F
 10
41.066583
 20
77.837
 30
0.0
 11
41.582417
 21
77.46675
 31
0.0
  0
LINE
  8
1
  6
CONTINUOUS
 62
   233
  5
80
 10
41.066583
 20
79.353917
 30
0.0
 11
41.611667
 21
79.74525
 31
0.0
  0
LINE
  8
1
  6
CONTINUOUS
 62
   132
  5
81
 10
41.02575
 20
79.365417
 30
0.0
 11
41.592583
 21
79.766333
 31
0.0
  0
ARC
  8
1
  6
CONTINUOUS
 62
   132
  5
82
 10
41.110083
 20
79.276667
 30
0.0
 40
0.122406
 50
133.542117
 51
180.876203
210
0.0
220
0.0
230
1.0
  0
ARC
  8
1
  6
CONTINUOUS
 62
   132
  5
83
 10
41.108167
 20
79.274417
 30
0.0
 40
0.04791
 50
134.286572
 51
179.552286
210
0.0
220
0.0
230
1.0
  0
ARC
  8
1
  6
CONTINUOUS
 62
   233
  5
84
 10
41.109667
 20
79.279333
 30
0.0
 40
0.086203
 50
120.03825
 51
182.987283
210
0.0
220
0.0
230
1.0
  0
LINE
  8
1
  6
CONTINUOUS
 62
   132
  5
85
 10
41.07475
 20
79.30875
 30
0.0
 11
41.633083
 21
79.721667
 31
0.0
  0
LINE
  8
1
  6
CONTINUOUS
 62
   132
  5
86
 10
41.02575
 20
79.18425
 30
0.0
 11
41.548167
 21
78.81475
 31
0.0
  0
LINE
  8
1
  6
CONTINUOUS
 62
   233
  5
87
 10
41.066583
 20
79.195667
 30
0.0
 11
41.562
 21
78.84
 31
0.0
  0
LINE
  8
1
  6
CONTINUOUS
 62
   132
  5
88
 10
41.07475
 20
79.240917
 30
0.0
 11
41.6035
 21
78.849833
 31
0.0
  0
ARC
  8
1
  6
CONTINUOUS
 62
   132
  5
89
 10
41.513833
 20
78.7595
 30
0.0
 40
0.127251
 50
358.754367
 51
45.205594
210
0.0
220
0.0
230
1.0
  0
ARC
  8
1
  6
CONTINUOUS
 62
   233
  5
8A
 10
41.513833
 20
78.756667
 30
0.0
 40
0.096292
 50
359.979728
 51
59.944269
210
0.0
220
0.0
230
1.0
  0
ARC
  8
1
  6
CONTINUOUS
 62
   132
  5
8B
 10
41.514167
 20
78.756417
 30
0.0
 40
0.067563
 50
0.147319
 51
59.767297
210
0.0
220
0.0
230
1.0
  0
ARC
  8
1
  6
CONTINUOUS
 62
   132
  5
8C
 10
41.110083
 20
79.272917
 30
0.0
 40
0.122406
 50
179.123794
 51
226.457881
210
0.0
220
0.0
230
1.0
  0
ARC
  8
1
  6
CONTINUOUS
 62
   233
  5
8D
 10
41.109667
 20
79.270333
 30
0.0
 40
0.086203
 50
177.012711
 51
239.961744
210
0.0
220
0.0
230
1.0
  0
ARC
  8
1
  6
CONTINUOUS
 62
   132
  5
8E
 10
41.108167
 20
79.275167
 30
0.0
 40
0.04791
 50
180.447711
 51
225.713425
210
0.0
220
0.0
230
1.0
  0
LINE
  8
1
  6
CONTINUOUS
 62
   233
  5
8F
 10
41.610083
 20
78.756667
 30
0.0
 11
41.610083
 21
78.43425
 31
0.0
  0
ARC
  8
1
  6
CONTINUOUS
 62
   233
  5
90
 10
41.65075
 20
78.590833
 30
0.0
 40
0.135846
 50
123.837981
 51
236.162017
210
0.0
220
0.0
230
1.0
  0
LINE
  8
1
  6
CONTINUOUS
 62
   132
  5
91
 10
41.582417
 20
77.50675
 30
0.0
 11
41.582417
 21
77.431833
 31
0.0
  0
LINE
  8
2
  6
CONTINUOUS
 62
     2
  5
92
 10
41.495417
 20
79.782917
 30
0.0
 11
40.700917
 21
79.782917
 31
0.0
  0
LINE
  8
2
  6
CONTINUOUS
 62
     2
  5
93
 10
41.561667
 20
79.865583
 30
0.0
 11
40.105083
 21
79.865583
 31
0.0
  0
LINE
  8
2
  6
CONTINUOUS
 62
     2
  5
94
 10
41.495417
 20
77.431333
 30
0.0
 11
40.700917
 21
77.431333
 31
0.0
  0
LINE
  8
2
  6
CONTINUOUS
 62
     2
  5
95
 10
41.561667
 20
77.364333
 30
0.0
 11
40.105083
 21
77.364333
 31
0.0
  0
LINE
  8
2
  6
CONTINUOUS
 62
     2
  5
96
 10
40.426667
 20
77.364333
 30
0.0
 11
40.426667
 21
78.486083
 31
0.0
  0
LINE
  8
2
  6
CONTINUOUS
 62
     2
  5
97
 10
41.117083
 20
79.518417
 30
0.0
 11
41.117083
 21
79.782917
 31
0.0
  0
INSERT
  8
2
  6
CONTINUOUS
 62
     2
  5
98
  2
ARR
 10
41.117083
 20
79.782917
 30
0.0
 50
90.0
210
0.0
220
0.0
230
1.0
  0
INSERT
  8
2
  6
CONTINUOUS
 62
     2
  5
99
  2
ARR
 10
41.117083
 20
79.865583
 30
0.0
 50
270.0
210
0.0
220
0.0
230
1.0
  0
INSERT
  8
2
  6
CONTINUOUS
 62
     2
  5
9A
  2
ARR
 10
40.426667
 20
79.865583
 30
0.0
 50
90.0
210
0.0
220
0.0
230
1.0
  0
INSERT
  8
2
  6
CONTINUOUS
 62
     2
  5
9B
  2
ARR
 10
40.426667
 20
77.364333
 30
0.0
 50
270.0
210
0.0
220
0.0
230
1.0
  0
LINE
  8
2
  6
CONTINUOUS
 62
     2
  5
9C
 10
41.13625
 20
77.689583
 30
0.0
 11
41.13625
 21
77.431333
 31
0.0
  0
LINE
  8
2
  6
CONTINUOUS
 62
     2
  5
9D
 10
41.13625
 20
77.364333
 30
0.0
 11
41.13625
 21
77.070917
 31
0.0
  0
INSERT
  8
2
  6
CONTINUOUS
 62
     2
  5
9E
  2
ARR
 10
41.13625
 20
77.431333
 30
0.0
 50
270.0
210
0.0
220
0.0
230
1.0
  0
INSERT
  8
2
  6
CONTINUOUS
 62
     2
  5
9F
  2
ARR
 10
41.13625
 20
77.364333
 30
0.0
 50
90.0
210
0.0
220
0.0
230
1.0
  0
TEXT
  8
2
  6
CONTINUOUS
 62
    40
  5
A0
 10
38.662083
 20
76.611083
 30
0.0
 40
0.125
  1
8" x 6", Wood Block
  7
MONOTXT
210
0.0
220
0.0
230
1.0
  0
TEXT
  8
2
  6
CONTINUOUS
 62
    40
  5
A1
 10
43.479083
 20
80.314333
 30
0.0
 40
0.125
  1
8"
  7
MONOTXT
210
0.0
220
0.0
230
1.0
  0
TEXT
  8
2
  6
CONTINUOUS
 62
    40
  5
A2
 10
40.914167
 20
80.296
 30
0.0
 40
0.125
  1
7/8"
  7
MONOTXT
210
0.0
220
0.0
230
1.0
  0
LINE
  8
2
  6
CONTINUOUS
 62
     2
  5
A3
 10
43.366667
 20
80.366417
 30
0.0
 11
43.379833
 21
80.366417
 31
0.0
  0
LINE
  8
2
  6
CONTINUOUS
 62
     2
  5
A4
 10
42.410083
 20
80.366417
 30
0.0
 11
43.405667
 21
80.366417
 31
0.0
  0
LINE
  8
2
  6
CONTINUOUS
 62
     2
  5
A5
 10
43.67975
 20
80.366417
 30
0.0
 11
44.297917
 21
80.366417
 31
0.0
  0
TEXT
  8
2
  6
CONTINUOUS
 62
    40
  5
A6
 10
44.847083
 20
77.11875
 30
0.0
 40
0.125
  1
Circular
  7
MONOTXT
210
0.0
220
0.0
230
1.0
  0
TEXT
  8
2
  6
CONTINUOUS
 62
    40
  5
A7
 10
44.847083
 20
76.904417
 30
0.0
 40
0.125
  1
Washer
  7
MONOTXT
210
0.0
220
0.0
230
1.0
  0
SOLID
  8
2
  6
CONTINUOUS
 62
     2
  5
A8
 10
46.77225
 20
78.657
 30
0.0
 11
46.775583
 21
78.597083
 31
0.0
 12
46.953667
 22
78.636917
 32
0.0
 13
46.953667
 23
78.636917
 33
0.0
  0
LINE
  8
2
  6
CONTINUOUS
 62
     2
  5
A9
 10
46.773917
 20
78.627083
 30
0.0
 11
46.40925
 21
78.607
 31
0.0
  0
LINE
  8
2
  6
CONTINUOUS
 62
     2
  5
AA
 10
46.40925
 20
78.607
 30
0.0
 11
45.997583
 21
77.912417
 31
0.0
  0
TEXT
  8
2
  6
CONTINUOUS
 62
    40
  5
AB
 10
46.680167
 20
78.342083
 30
0.0
 40
0.125
  1
3"
  7
MONOTXT
210
0.0
220
0.0
230
1.0
  0
INSERT
  8
2
  6
CONTINUOUS
 62
     2
  5
AC
  2
ARR
 10
47.0315
 20
78.323667
 30
0.0
210
0.0
220
0.0
230
1.0
  0
INSERT
  8
2
  6
CONTINUOUS
 62
     2
  5
AD
  2
ARR
 10
46.454
 20
78.323667
 30
0.0
 50
180.0
210
0.0
220
0.0
230
1.0
  0
SOLID
  8
2
  6
CONTINUOUS
 62
     2
  5
AE
 10
44.35
 20
78.257917
 30
0.0
 11
44.409417
 21
78.266583
 31
0.0
 12
44.354
 22
78.440417
 32
0.0
 13
44.354
 23
78.440417
 33
0.0
  0
LINE
  8
2
  6
CONTINUOUS
 62
     2
  5
AF
 10
44.379667
 20
78.262333
 30
0.0
 11
44.543
 21
77.1305
 31
0.0
  0
LINE
  8
2
  6
CONTINUOUS
 62
     2
  5
B0
 10
44.543
 20
77.1305
 30
0.0
 11
44.785083
 21
77.1305
 31
0.0
  0
SOLID
  8
2
  6
CONTINUOUS
 62
     2
  5
B1
 10
42.6595
 20
78.323583
 30
0.0
 11
42.718667
 21
78.333167
 31
0.0
 12
42.660167
 22
78.506083
 32
0.0
 13
42.660167
 23
78.506083
 33
0.0
  0
LINE
  8
2
  6
CONTINUOUS
 62
     2
  5
B2
 10
42.689083
 20
78.328417
 30
0.0
 11
42.733083
 21
78.058083
 31
0.0
  0
LINE
  8
2
  6
CONTINUOUS
 62
     2
  5
B3
 10
42.733083
 20
78.058083
 30
0.0
 11
44.502333
 21
78.058083
 31
0.0
  0
TEXT
  8
2
  6
CONTINUOUS
 62
    40
  5
B4
 10
41.79975
 20
79.111333
 30
0.0
 40
0.125
  1
5/8"
  7
MONOTXT
210
0.0
220
0.0
230
1.0
  0
TEXT
  8
2
  6
CONTINUOUS
 62
    40
  5
B5
 10
41.79975
 20
78.897083
 30
0.0
 40
0.125
  1
Bolt
  7
MONOTXT
210
0.0
220
0.0
230
1.0
  0
SOLID
  8
2
  6
CONTINUOUS
 62
     2
  5
B6
 10
42.440417
 20
78.834167
 30
0.0
 11
42.385833
 21
78.859
 31
0.0
 12
42.33875
 22
78.682667
 32
0.0
 13
42.33875
 23
78.682667
 33
0.0
  0
LINE
  8
2
  6
CONTINUOUS
 62
     2
  5
B7
 10
42.413083
 20
78.846583
 30
0.0
 11
42.493417
 21
79.023667
 31
0.0
  0
LINE
  8
2
  6
CONTINUOUS
 62
     2
  5
B8
 10
42.493417
 20
79.023667
 30
0.0
 11
42.1925
 21
79.023667
 31
0.0
  0
SOLID
  8
2
  6
CONTINUOUS
 62
     2
  5
B9
 10
41.67175
 20
77.245083
 30
0.0
 11
41.71875
 21
77.20775
 31
0.0
 12
41.807167
 22
77.367333
 32
0.0
 13
41.807167
 23
77.367333
 33
0.0
  0
LINE
  8
2
  6
CONTINUOUS
 62
     2
  5
BA
 10
41.69525
 20
77.226417
 30
0.0
 11
41.24775
 21
76.662833
 31
0.0
  0
TEXT
  8
2
  6
CONTINUOUS
 62
    40
  5
BB
 10
40.29125
 20
78.584583
 30
0.0
 40
0.125
  1
14"
  7
MONOTXT
210
0.0
220
0.0
230
1.0
  0
TEXT
  8
2
  6
CONTINUOUS
 62
    40
  5
BC
 10
40.9255
 20
76.86725
 30
0.0
 40
0.125
  1
7/8"
  7
MONOTXT
210
0.0
220
0.0
230
1.0
  0
TEXT
  8
2
  6
CONTINUOUS
 62
    40
  5
BD
 10
41.938833
 20
77.893333
 30
0.0
 40
0.125
  1
(Min.)
  7
MONOTXT
210
0.0
220
0.0
230
1.0
  0
LINE
  8
2
  6
CONTINUOUS
 62
     2
  5
BE
 10
40.426667
 20
78.825417
 30
0.0
 11
40.426667
 21
79.865583
 31
0.0
  0
LINE
  8
2
  6
CONTINUOUS
 62
     2
  5
BF
 10
50.570917
 20
78.832
 30
0.0
 11
50.570917
 21
79.869167
 31
0.0
  0
TEXT
  8
2
  6
CONTINUOUS
 62
    40
  5
C0
 10
51.06975
 20
76.938
 30
0.0
 40
0.125
  1
7/8"
  7
MONOTXT
210
0.0
220
0.0
230
1.0
  0
TEXT
  8
2
  6
CONTINUOUS
 62
    40
  5
C1
 10
50.4355
 20
78.591083
 30
0.0
 40
0.125
  1
14"
  7
MONOTXT
210
0.0
220
0.0
230
1.0
  0
LINE
  8
3
  6
HIDDEN
 62
     7
  5
C2
 10
52.673583
 20
77.290083
 30
0.0
 11
52.700083
 21
77.2665
 31
0.0
  0
ARC
  8
3
  6
HIDDEN
 62
     7
  5
C3
 10
53.037667
 20
77.79425
 30
0.0
 40
0.098114
 50
313.618881
 51
347.728547
210
0.0
220
0.0
230
1.0
  0
ARC
  8
3
  6
HIDDEN
 62
     7
  5
C4
 10
53.147917
 20
77.669917
 30
0.0
 40
0.104458
 50
97.922961
 51
131.538544
210
0.0
220
0.0
230
1.0
  0
LINE
  8
3
  6
HIDDEN
 62
     7
  5
C5
 10
52.700083
 20
77.2665
 30
0.0
 11
52.674583
 21
77.238
 31
0.0
  0
LINE
  8
3
  6
HIDDEN
 62
     7
  5
C6
 10
52.616167
 20
77.341167
 30
0.0
 11
52.590917
 21
77.314417
 31
0.0
  0
LINE
  8
3
  6
HIDDEN
 62
     7
  5
C7
 10
53.105333
 20
77.72325
 30
0.0
 11
52.673583
 21
77.290083
 31
0.0
  0
LINE
  8
3
  6
HIDDEN
 62
     7
  5
C8
 10
52.616167
 20
77.341167
 30
0.0
 11
52.64325
 21
77.317
 31
0.0
  0
LINE
  8
3
  6
HIDDEN
 62
     7
  5
C9
 10
52.590917
 20
77.314417
 30
0.0
 11
52.674583
 21
77.238
 31
0.0
  0
LINE
  8
3
  6
HIDDEN
 62
     7
  5
CA
 10
53.078667
 20
77.748083
 30
0.0
 11
52.65175
 21
77.32475
 31
0.0
  0
LINE
  8
2
  6
CONTINUOUS
 62
     2
  5
CB
 10
52.637667
 20
79.04225
 30
0.0
 11
52.33675
 21
79.04225
 31
0.0
  0
LINE
  8
2
  6
CONTINUOUS
 62
     2
  5
CC
 10
52.557333
 20
78.86525
 30
0.0
 11
52.637667
 21
79.04225
 31
0.0
  0
SOLID
  8
2
  6
CONTINUOUS
 62
     2
  5
CD
 10
52.584583
 20
78.852833
 30
0.0
 11
52.530083
 21
78.877583
 31
0.0
 12
52.483
 22
78.70125
 32
0.0
 13
52.483
 23
78.70125
 33
0.0
  0
TEXT
  8
2
  6
CONTINUOUS
 62
    40
  5
CE
 10
51.944
 20
78.915667
 30
0.0
 40
0.125
  1
Bolt
  7
MONOTXT
210
0.0
220
0.0
230
1.0
  0
TEXT
  8
2
  6
CONTINUOUS
 62
    40
  5
CF
 10
51.944
 20
79.13
 30
0.0
 40
0.125
  1
5/8"
  7
MONOTXT
210
0.0
220
0.0
230
1.0
  0
LINE
  8
2
  6
CONTINUOUS
 62
     2
  5
D0
 10
52.833333
 20
78.334917
 30
0.0
 11
52.8895
 21
77.989833
 31
0.0
  0
SOLID
  8
2
  6
CONTINUOUS
 62
     2
  5
D1
 10
52.80375
 20
78.330083
 30
0.0
 11
52.862917
 21
78.33975
 31
0.0
 12
52.804417
 22
78.512583
 32
0.0
 13
52.804417
 23
78.512583
 33
0.0
  0
TEXT
  8
2
  6
CONTINUOUS
 62
    40
  5
D2
 10
54.61025
 20
76.362833
 30
0.0
 40
0.125
  1
Washer
  7
MONOTXT
210
0.0
220
0.0
230
1.0
  0
TEXT
  8
2
  6
CONTINUOUS
 62
    40
  5
D3
 10
54.61025
 20
76.577083
 30
0.0
 40
0.125
  1
Circular
  7
MONOTXT
210
0.0
220
0.0
230
1.0
  0
LINE
  8
2
  6
CONTINUOUS
 62
     2
  5
D4
 10
53.787
 20
80.372917
 30
0.0
 11
54.06225
 21
80.372917
 31
0.0
  0
LINE
  8
2
  6
CONTINUOUS
 62
     2
  5
D5
 10
52.554333
 20
80.372917
 30
0.0
 11
53.190417
 21
80.372917
 31
0.0
  0
TEXT
  8
2
  6
CONTINUOUS
 62
    40
  5
D6
 10
51.058417
 20
80.2995
 30
0.0
 40
0.125
  1
7/8"
  7
MONOTXT
210
0.0
220
0.0
230
1.0
  0
INSERT
  8
2
  6
CONTINUOUS
 62
     2
  5
D7
  2
ARR
 10
51.2805
 20
77.370833
 30
0.0
 50
90.0
210
0.0
220
0.0
230
1.0
  0
INSERT
  8
2
  6
CONTINUOUS
 62
     2
  5
D8
  2
ARR
 10
51.2805
 20
77.437833
 30
0.0
 50
270.0
210
0.0
220
0.0
230
1.0
  0
LINE
  8
2
  6
CONTINUOUS
 62
     2
  5
D9
 10
51.2805
 20
77.370833
 30
0.0
 11
51.2805
 21
77.0775
 31
0.0
  0
LINE
  8
2
  6
CONTINUOUS
 62
     2
  5
DA
 10
51.2805
 20
77.696167
 30
0.0
 11
51.2805
 21
77.437833
 31
0.0
  0
INSERT
  8
2
  6
CONTINUOUS
 62
     2
  5
DB
  2
ARR
 10
50.570917
 20
77.370833
 30
0.0
 50
270.0
210
0.0
220
0.0
230
1.0
  0
INSERT
  8
2
  6
CONTINUOUS
 62
     2
  5
DC
  2
ARR
 10
50.570917
 20
79.869167
 30
0.0
 50
90.0
210
0.0
220
0.0
230
1.0
  0
INSERT
  8
2
  6
CONTINUOUS
 62
     2
  5
DD
  2
ARR
 10
51.261333
 20
79.869667
 30
0.0
 50
270.0
210
0.0
220
0.0
230
1.0
  0
INSERT
  8
2
  6
CONTINUOUS
 62
     2
  5
DE
  2
ARR
 10
51.261333
 20
79.7885
 30
0.0
 50
90.0
210
0.0
220
0.0
230
1.0
  0
LINE
  8
2
  6
CONTINUOUS
 62
     2
  5
DF
 10
51.261333
 20
79.49325
 30
0.0
 11
51.261333
 21
79.7885
 31
0.0
  0
LINE
  8
2
  6
CONTINUOUS
 62
     2
  5
E0
 10
50.570917
 20
77.370833
 30
0.0
 11
50.570917
 21
78.492583
 31
0.0
  0
LINE
  8
2
  6
CONTINUOUS
 62
     2
  5
E1
 10
51.705917
 20
77.370833
 30
0.0
 11
50.249333
 21
77.370833
 31
0.0
  0
LINE
  8
2
  6
CONTINUOUS
 62
     2
  5
E2
 10
51.639667
 20
77.437833
 30
0.0
 11
50.845167
 21
77.437833
 31
0.0
  0
LINE
  8
2
  6
CONTINUOUS
 62
     2
  5
E3
 10
51.705917
 20
79.869167
 30
0.0
 11
50.249333
 21
79.869167
 31
0.0
  0
LINE
  8
2
  6
CONTINUOUS
 62
     2
  5
E4
 10
51.639667
 20
79.7885
 30
0.0
 11
50.845167
 21
79.7885
 31
0.0
  0
LINE
  8
1
  6
CONTINUOUS
 62
   132
  5
E5
 10
51.726667
 20
77.51325
 30
0.0
 11
51.726667
 21
77.438333
 31
0.0
  0
ARC
  8
1
  6
CONTINUOUS
 62
   233
  5
E6
 10
51.802917
 20
78.600083
 30
0.0
 40
0.135846
 50
123.837981
 51
236.162017
210
0.0
220
0.0
230
1.0
  0
LINE
  8
1
  6
CONTINUOUS
 62
   233
  5
E7
 10
51.754333
 20
78.763167
 30
0.0
 11
51.754333
 21
78.440833
 31
0.0
  0
ARC
  8
1
  6
CONTINUOUS
 62
   132
  5
E8
 10
51.252417
 20
79.28175
 30
0.0
 40
0.04791
 50
180.447711
 51
225.713425
210
0.0
220
0.0
230
1.0
  0
ARC
  8
1
  6
CONTINUOUS
 62
   233
  5
E9
 10
51.253917
 20
79.276833
 30
0.0
 40
0.086203
 50
177.012711
 51
239.961744
210
0.0
220
0.0
230
1.0
  0
ARC
  8
1
  6
CONTINUOUS
 62
   132
  5
EA
 10
51.254333
 20
79.2795
 30
0.0
 40
0.122406
 50
179.123794
 51
226.457881
210
0.0
220
0.0
230
1.0
  0
ARC
  8
1
  6
CONTINUOUS
 62
   233
  5
EB
 10
51.658417
 20
78.762917
 30
0.0
 40
0.067563
 50
0.147319
 51
59.767297
210
0.0
220
0.0
230
1.0
  0
ARC
  8
1
  6
CONTINUOUS
 62
   233
  5
EC
 10
51.658083
 20
78.76325
 30
0.0
 40
0.096292
 50
359.979728
 51
59.944269
210
0.0
220
0.0
230
1.0
  0
ARC
  8
1
  6
CONTINUOUS
 62
   132
  5
ED
 10
51.658083
 20
78.766083
 30
0.0
 40
0.127251
 50
358.754367
 51
45.205594
210
0.0
220
0.0
230
1.0
  0
LINE
  8
1
  6
CONTINUOUS
 62
   132
  5
EE
 10
51.219
 20
79.247417
 30
0.0
 11
51.74775
 21
78.856333
 31
0.0
  0
LINE
  8
1
  6
CONTINUOUS
 62
   233
  5
EF
 10
51.210833
 20
79.20225
 30
0.0
 11
51.70625
 21
78.846583
 31
0.0
  0
LINE
  8
1
  6
CONTINUOUS
 62
   132
  5
F0
 10
51.17
 20
79.19075
 30
0.0
 11
51.692417
 21
78.82125
 31
0.0
  0
LINE
  8
1
  6
CONTINUOUS
 62
   132
  5
F1
 10
51.219
 20
79.31525
 30
0.0
 11
51.785
 21
79.733833
 31
0.0
  0
ARC
  8
1
  6
CONTINUOUS
 62
   233
  5
F2
 10
51.253917
 20
79.285833
 30
0.0
 40
0.086203
 50
120.03825
 51
182.987283
210
0.0
220
0.0
230
1.0
  0
ARC
  8
1
  6
CONTINUOUS
 62
   233
  5
F3
 10
51.252417
 20
79.281
 30
0.0
 40
0.04791
 50
134.286572
 51
179.552286
210
0.0
220
0.0
230
1.0
  0
ARC
  8
1
  6
CONTINUOUS
 62
   132
  5
F4
 10
51.254333
 20
79.283167
 30
0.0
 40
0.122406
 50
133.542117
 51
180.876203
210
0.0
220
0.0
230
1.0
  0
LINE
  8
1
  6
CONTINUOUS
 62
   132
  5
F5
 10
51.17
 20
79.371917
 30
0.0
 11
51.7435
 21
79.777583
 31
0.0
  0
LINE
  8
1
  6
CONTINUOUS
 62
   233
  5
F6
 10
51.210833
 20
79.360417
 30
0.0
 11
51.763083
 21
79.756917
 31
0.0
  0
LINE
  8
1
  6
CONTINUOUS
 62
   233
  5
F7
 10
51.210833
 20
77.8435
 30
0.0
 11
51.726667
 21
77.47325
 31
0.0
  0
LINE
  8
1
  6
CONTINUOUS
 62
   132
  5
F8
 10
51.17
 20
77.832
 30
0.0
 11
51.726667
 21
77.438333
 31
0.0
  0
ARC
  8
1
  6
CONTINUOUS
 62
   132
  5
F9
 10
51.254333
 20
77.92075
 30
0.0
 40
0.122406
 50
179.123794
 51
226.457881
210
0.0
220
0.0
230
1.0
  0
ARC
  8
1
  6
CONTINUOUS
 62
   132
  5
FA
 10
51.252417
 20
77.923
 30
0.0
 40
0.04791
 50
180.447711
 51
225.713425
210
0.0
220
0.0
230
1.0
  0
ARC
  8
1
  6
CONTINUOUS
 62
   233
  5
FB
 10
51.253917
 20
77.918167
 30
0.0
 40
0.086203
 50
177.012711
 51
239.961744
210
0.0
220
0.0
230
1.0
  0
LINE
  8
1
  6
CONTINUOUS
 62
   132
  5
FC
 10
51.219
 20
77.88875
 30
0.0
 11
51.726667
 21
77.51325
 31
0.0
  0
LINE
  8
1
  6
CONTINUOUS
 62
   132
  5
FD
 10
51.17
 20
78.01325
 30
0.0
 11
51.692417
 21
78.382667
 31
0.0
  0
LINE
  8
1
  6
CONTINUOUS
 62
   233
  5
FE
 10
51.210833
 20
78.00175
 30
0.0
 11
51.70625
 21
78.357417
 31
0.0
  0
LINE
  8
1
  6
CONTINUOUS
 62
   132
  5
FF
 10
51.219
 20
77.956583
 30
0.0
 11
51.74775
 21
78.347583
 31
0.0
  0
ARC
  8
1
  6
CONTINUOUS
 62
   132
  5
100
 10
51.658083
 20
78.437917
 30
0.0
 40
0.127251
 50
314.7944
 51
1.245628
210
0.0
220
0.0
230
1.0
  0
ARC
  8
1
  6
CONTINUOUS
 62
   132
  5
101
 10
51.658083
 20
78.44075
 30
0.0
 40
0.096292
 50
300.055728
 51
0.020269
210
0.0
220
0.0
230
1.0
  0
ARC
  8
1
  6
CONTINUOUS
 62
   132
  5
102
 10
51.254333
 20
77.9245
 30
0.0
 40
0.122406
 50
133.542117
 51
180.876203
210
0.0
220
0.0
230
1.0
  0
ARC
  8
1
  6
CONTINUOUS
 62
   233
  5
103
 10
51.253917
 20
77.927167
 30
0.0
 40
0.086203
 50
120.03825
 51
182.987283
210
0.0
220
0.0
230
1.0
  0
ARC
  8
1
  6
CONTINUOUS
 62
   132
  5
104
 10
51.252417
 20
77.92225
 30
0.0
 40
0.04791
 50
134.286572
 51
179.552286
210
0.0
220
0.0
230
1.0
  0
INSERT
  8
2
  6
CONTINUOUS
 62
     2
  5
105
  2
ARR
 10
54.705667
 20
78.59275
 30
0.0
 50
270.0
210
0.0
220
0.0
230
1.0
  0
INSERT
  8
2
  6
CONTINUOUS
 62
     2
  5
106
  2
ARR
 10
54.705667
 20
79.873917
 30
0.0
 50
90.0
210
0.0
220
0.0
230
1.0
  0
LINE
  8
2
  6
CONTINUOUS
 62
     2
  5
107
 10
54.502083
 20
78.59275
 30
0.0
 11
54.954917
 21
78.59275
 31
0.0
  0
LINE
  8
2
  6
CONTINUOUS
 62
     2
  5
108
 10
54.196833
 20
79.873917
 30
0.0
 11
54.954917
 21
79.873917
 31
0.0
  0
LINE
  8
2
  6
CONTINUOUS
 62
     2
  5
109
 10
54.705667
 20
78.59275
 30
0.0
 11
54.705667
 21
79.095833
 31
0.0
  0
INSERT
  8
2
  6
CONTINUOUS
 62
     2
  5
10A
  2
ARR
 10
51.779333
 20
80.372917
 30
0.0
 50
180.0
210
0.0
220
0.0
230
1.0
  0
LINE
  8
2
  6
CONTINUOUS
 62
     2
  5
10B
 10
52.733417
 20
80.372917
 30
0.0
 11
52.554333
 21
80.372917
 31
0.0
  0
LINE
  8
2
  6
CONTINUOUS
 62
     2
  5
10C
 10
51.779417
 20
80.372917
 30
0.0
 11
52.207167
 21
80.372917
 31
0.0
  0
LINE
  8
1
  6
CONTINUOUS
 62
   233
  5
10D
 10
54.40525
 20
78.611417
 30
0.0
 11
54.40525
 21
78.566083
 31
0.0
  0
LINE
  8
1
  6
CONTINUOUS
 62
   233
  5
10E
 10
54.37525
 20
78.611417
 30
0.0
 11
54.37525
 21
78.566083
 31
0.0
  0
LINE
  8
1
  6
CONTINUOUS
 62
   233
  5
10F
 10
54.3385
 20
78.611417
 30
0.0
 11
54.3385
 21
78.566083
 31
0.0
  0
LINE
  8
1
  6
CONTINUOUS
 62
   233
  5
110
 10
54.3085
 20
78.611417
 30
0.0
 11
54.3085
 21
78.566083
 31
0.0
  0
LINE
  8
1
  6
CONTINUOUS
 62
   233
  5
111
 10
54.285167
 20
78.5465
 30
0.0
 11
54.433583
 21
78.5465
 31
0.0
  0
LINE
  8
1
  6
CONTINUOUS
 62
   233
  5
112
 10
54.433583
 20
78.6315
 30
0.0
 11
54.433583
 21
78.5465
 31
0.0
  0
LINE
  8
1
  6
CONTINUOUS
 62
   233
  5
113
 10
54.285167
 20
78.6315
 30
0.0
 11
54.433583
 21
78.6315
 31
0.0
  0
LINE
  8
1
  6
CONTINUOUS
 62
   233
  5
114
 10
54.14175
 20
78.498167
 30
0.0
 11
54.285167
 21
78.498167
 31
0.0
  0
LINE
  8
1
  6
CONTINUOUS
 62
   233
  5
115
 10
54.14175
 20
78.5465
 30
0.0
 11
54.285167
 21
78.5465
 31
0.0
  0
LINE
  8
1
  6
CONTINUOUS
 62
   233
  5
116
 10
54.14175
 20
78.6315
 30
0.0
 11
54.285167
 21
78.6315
 31
0.0
  0
LINE
  8
1
  6
CONTINUOUS
 62
   233
  5
117
 10
54.14175
 20
78.671583
 30
0.0
 11
54.285167
 21
78.671583
 31
0.0
  0
LINE
  8
1
  6
CONTINUOUS
 62
   233
  5
118
 10
54.285167
 20
78.44975
 30
0.0
 11
54.14175
 21
78.44975
 31
0.0
  0
LINE
  8
1
  6
CONTINUOUS
 62
   233
  5
119
 10
54.285167
 20
78.72325
 30
0.0
 11
54.285167
 21
78.44975
 31
0.0
  0
LINE
  8
1
  6
CONTINUOUS
 62
   233
  5
11A
 10
54.14175
 20
78.72325
 30
0.0
 11
54.285167
 21
78.72325
 31
0.0
  0
LINE
  8
1
  6
CONTINUOUS
 62
   233
  5
11B
 10
54.14175
 20
78.41975
 30
0.0
 11
54.06225
 21
78.41975
 31
0.0
  0
LINE
  8
1
  6
CONTINUOUS
 62
   233
  5
11C
 10
54.14175
 20
78.754917
 30
0.0
 11
54.14175
 21
78.41975
 31
0.0
  0
LINE
  8
1
  6
CONTINUOUS
 62
   233
  5
11D
 10
54.06225
 20
78.754917
 30
0.0
 11
54.14175
 21
78.754917
 31
0.0
  0
LINE
  8
3
  6
HIDDEN
 62
     7
  5
11E
 10
51.785
 20
78.512583
 30
0.0
 11
54.06225
 21
78.512583
 31
0.0
  0
LINE
  8
3
  6
HIDDEN
 62
     7
  5
11F
 10
51.785
 20
78.5615
 30
0.0
 11
54.06225
 21
78.5615
 31
0.0
  0
LINE
  8
3
  6
HIDDEN
 62
     7
  5
120
 10
51.785
 20
78.63875
 30
0.0
 11
54.06225
 21
78.63875
 31
0.0
  0
LINE
  8
3
  6
HIDDEN
 62
     7
  5
121
 10
51.785
 20
78.70125
 30
0.0
 11
54.06225
 21
78.70125
 31
0.0
  0
LINE
  8
1
  6
CONTINUOUS
 62
   132
  5
122
 10
51.785
 20
77.373833
 30
0.0
 11
52.918
 21
77.373833
 31
0.0
  0
LINE
  8
1
  6
CONTINUOUS
 62
   132
  5
123
 10
51.785
 20
79.870917
 30
0.0
 11
51.785
 21
77.373833
 31
0.0
  0
LINE
  8
1
  6
CONTINUOUS
 62
   132
  5
124
 10
54.06225
 20
79.870917
 30
0.0
 11
54.06225
 21
75.9085
 31
0.0
  0
LINE
  8
1
  6
CONTINUOUS
 62
   132
  5
125
 10
51.785
 20
79.870917
 30
0.0
 11
54.06225
 21
79.870917
 31
0.0
  0
LINE
  8
2
  6
CONTINUOUS
 62
     2
  5
126
 10
51.779417
 20
79.96575
 30
0.0
 11
51.779417
 21
80.663583
 31
0.0
  0
TEXT
  8
2
  6
CONTINUOUS
 62
     2
  5
127
 10
54.641917
 20
79.176667
 30
0.0
 40
0.125
  1
7"
  7
MONOTXT
210
0.0
220
0.0
230
1.0
  0
LINE
  8
2
  6
CONTINUOUS
 62
     2
  5
128
 10
54.705667
 20
79.376833
 30
0.0
 11
54.705667
 21
79.839
 31
0.0
  0
LINE
  8
1
  6
CONTINUOUS
 62
   132
  5
129
 10
54.06225
 20
75.9085
 30
0.0
 11
53.7815
 21
75.9085
 31
0.0
  0
LINE
  8
1
  6
CONTINUOUS
 62
   132
  5
12A
 10
53.7815
 20
75.9085
 30
0.0
 11
53.6545
 21
75.674583
 31
0.0
  0
LINE
  8
1
  6
CONTINUOUS
 62
   132
  5
12B
 10
53.6545
 20
75.674583
 30
0.0
 11
53.17575
 21
76.089833
 31
0.0
  0
LINE
  8
1
  6
CONTINUOUS
 62
   132
  5
12C
 10
53.17575
 20
76.089833
 30
0.0
 11
53.073083
 21
75.918833
 31
0.0
  0
LINE
  8
1
  6
CONTINUOUS
 62
   132
  5
12D
 10
53.073083
 20
75.918833
 30
0.0
 11
52.750667
 21
75.918833
 31
0.0
  0
LINE
  8
1
  6
CONTINUOUS
 62
   132
  5
12E
 10
52.750667
 20
75.918833
 30
0.0
 11
52.750667
 21
77.373833
 31
0.0
  0
LINE
  8
1
  6
CONTINUOUS
 62
   233
  5
12F
 10
53.556833
 20
75.83575
 30
0.0
 11
53.556833
 21
76.729917
 31
0.0
  0
LINE
  8
1
  6
CONTINUOUS
 62
   233
  5
130
 10
53.32225
 20
75.96275
 30
0.0
 11
53.32225
 21
77.076833
 31
0.0
  0
LINE
  8
1
  6
CONTINUOUS
 62
   233
  5
131
 10
52.965667
 20
75.94325
 30
0.0
 11
52.965667
 21
76.324417
 31
0.0
  0
LINE
  8
1
  6
CONTINUOUS
 62
   233
  5
132
 10
52.96075
 20
76.4075
 30
0.0
 11
52.96075
 21
76.95475
 31
0.0
  0
LINE
  8
1
  6
CONTINUOUS
 62
   233
  5
133
 10
53.07525
 20
75.922417
 30
0.0
 11
53.07525
 21
76.236417
 31
0.0
  0
LINE
  8
1
  6
CONTINUOUS
 62
   233
  5
134
 10
53.073083
 20
76.573583
 30
0.0
 11
53.073083
 21
76.827667
 31
0.0
  0
LINE
  8
1
  6
CONTINUOUS
 62
   233
  5
135
 10
53.830417
 20
75.9085
 30
0.0
 11
53.830417
 21
76.573583
 31
0.0
  0
LINE
  8
1
  6
CONTINUOUS
 62
   233
  5
136
 10
53.8255
 20
76.686
 30
0.0
 11
53.8255
 21
77.5215
 31
0.0
  0
LINE
  8
1
  6
CONTINUOUS
 62
   233
  5
137
 10
52.88725
 20
76.001833
 30
0.0
 11
52.88725
 21
76.43675
 31
0.0
  0
LINE
  8
1
  6
CONTINUOUS
 62
   233
  5
138
 10
52.88725
 20
76.593083
 30
0.0
 11
52.88725
 21
76.754333
 31
0.0
  0
LINE
  8
1
  6
CONTINUOUS
 62
   233
  5
139
 10
52.892083
 20
76.891167
 30
0.0
 11
52.892083
 21
76.954667
 31
0.0
  0
LINE
  8
1
  6
CONTINUOUS
 62
   233
  5
13A
 10
52.88725
 20
77.0475
 30
0.0
 11
52.88725
 21
77.257583
 31
0.0
  0
LINE
  8
1
  6
CONTINUOUS
 62
   233
  5
13B
 10
54.006
 20
75.9085
 30
0.0
 11
54.006
 21
76.67125
 31
0.0
  0
LINE
  8
1
  6
CONTINUOUS
 62
   233
  5
13C
 10
54.001167
 20
76.86675
 30
0.0
 11
54.001167
 21
76.988917
 31
0.0
  0
LINE
  8
1
  6
CONTINUOUS
 62
   233
  5
13D
 10
53.918083
 20
76.089833
 30
0.0
 11
53.918083
 21
76.299917
 31
0.0
  0
LINE
  8
1
  6
CONTINUOUS
 62
   233
  5
13E
 10
53.918083
 20
76.387917
 30
0.0
 11
53.918083
 21
77.140333
 31
0.0
  0
LINE
  8
1
  6
CONTINUOUS
 62
   233
  5
13F
 10
52.813917
 20
75.98725
 30
0.0
 11
52.813917
 21
76.270583
 31
0.0
  0
LINE
  8
1
  6
CONTINUOUS
 62
   233
  5
140
 10
52.813917
 20
76.598
 30
0.0
 11
52.813917
 21
76.803167
 31
0.0
  0
LINE
  8
1
  6
CONTINUOUS
 62
   233
  5
141
 10
52.813917
 20
77.008417
 30
0.0
 11
52.809083
 21
77.373833
 31
0.0
  0
LINE
  8
1
  6
CONTINUOUS
 62
   233
  5
142
 10
53.556583
 20
76.871583
 30
0.0
 11
53.556583
 21
76.97425
 31
0.0
  0
LINE
  8
1
  6
CONTINUOUS
 62
   233
  5
143
 10
53.556583
 20
77.0475
 30
0.0
 11
53.556583
 21
77.770667
 31
0.0
  0
LINE
  8
1
  6
CONTINUOUS
 62
   132
  5
144
 10
52.918
 20
77.373833
 30
0.0
 11
52.918
 21
79.870917
 31
0.0
  0
LINE
  8
2
  6
CONTINUOUS
 62
     2
  5
145
 10
52.8895
 20
77.989833
 30
0.0
 11
54.206583
 21
77.989833
 31
0.0
  0
TEXT
  8
2
  6
CONTINUOUS
 62
    40
  5
146
 10
54.34425
 20
77.239667
 30
0.0
 40
0.125
  1
1/2 Post Dia.
  7
MONOTXT
210
0.0
220
0.0
230
1.0
  0
LINE
  8
1
  6
CONTINUOUS
 62
   233
  5
147
 10
53.085417
 20
77.59525
 30
0.0
 11
53.085417
 21
77.670417
 31
0.0
  0
LINE
  8
1
  6
CONTINUOUS
 62
   233
  5
148
 10
53.079167
 20
77.858333
 30
0.0
 11
53.079167
 21
78.083833
 31
0.0
  0
LINE
  8
1
  6
CONTINUOUS
 62
   233
  5
149
 10
53.079167
 20
78.29675
 30
0.0
 11
53.079167
 21
79.417917
 31
0.0
  0
LINE
  8
1
  6
CONTINUOUS
 62
   233
  5
14A
 10
53.329667
 20
77.59525
 30
0.0
 11
53.329667
 21
78.434583
 31
0.0
  0
LINE
  8
1
  6
CONTINUOUS
 62
   233
  5
14B
 10
53.329667
 20
78.8605
 30
0.0
 11
53.329667
 21
79.870917
 31
0.0
  0
LINE
  8
1
  6
CONTINUOUS
 62
   233
  5
14C
 10
53.561417
 20
78.1715
 30
0.0
 11
53.561417
 21
78.484667
 31
0.0
  0
LINE
  8
1
  6
CONTINUOUS
 62
   233
  5
14D
 10
53.561417
 20
78.772833
 30
0.0
 11
53.561417
 21
79.380333
 31
0.0
  0
LINE
  8
1
  6
CONTINUOUS
 62
   233
  5
14E
 10
53.818167
 20
78.791583
 30
0.0
 11
53.818167
 21
79.870917
 31
0.0
  0
LINE
  8
1
  6
CONTINUOUS
 62
   233
  5
14F
 10
53.924667
 20
78.766583
 30
0.0
 11
53.924667
 21
79.136083
 31
0.0
  0
LINE
  8
1
  6
CONTINUOUS
 62
   233
  5
150
 10
54.012333
 20
78.779083
 30
0.0
 11
54.012333
 21
79.42425
 31
0.0
  0
LINE
  8
1
  6
CONTINUOUS
 62
   233
  5
151
 10
53.918333
 20
79.380333
 30
0.0
 11
53.918333
 21
79.870917
 31
0.0
  0
LINE
  8
1
  6
CONTINUOUS
 62
   233
  5
152
 10
53.561417
 20
79.599583
 30
0.0
 11
53.561417
 21
79.870917
 31
0.0
  0
LINE
  8
1
  6
CONTINUOUS
 62
   233
  5
153
 10
53.085417
 20
79.699833
 30
0.0
 11
53.085417
 21
79.870917
 31
0.0
  0
LINE
  8
2
  6
CONTINUOUS
 62
     2
  5
154
 10
52.918
 20
79.96575
 30
0.0
 11
52.918
 21
80.663583
 31
0.0
  0
LINE
  8
2
  6
CONTINUOUS
 62
     2
  5
155
 10
54.06225
 20
79.96575
 30
0.0
 11
54.06225
 21
80.663583
 31
0.0
  0
INSERT
  8
2
  6
CONTINUOUS
 62
     2
  5
156
  2
ARR
 10
54.06225
 20
80.372917
 30
0.0
210
0.0
220
0.0
230
1.0
  0
INSERT
  8
2
  6
CONTINUOUS
 62
     2
  5
157
  2
ARR
 10
52.918
 20
80.372917
 30
0.0
 50
180.0
210
0.0
220
0.0
230
1.0
  0
INSERT
  8
2
  6
CONTINUOUS
 62
     2
  5
158
  2
ARR
 10
52.918
 20
80.372917
 30
0.0
210
0.0
220
0.0
230
1.0
  0
LINE
  8
1
  6
CONTINUOUS
 62
   233
  5
159
 10
53.993167
 20
79.870917
 30
0.0
 11
53.993167
 21
79.697417
 31
0.0
  0
TEXT
  8
2
  6
CONTINUOUS
 62
    40
  5
15A
 10
52.082333
 20
77.945333
 30
0.0
 40
0.125
  1
(Min.)
  7
MONOTXT
210
0.0
220
0.0
230
1.0
  0
TEXT
  8
2
  6
CONTINUOUS
 62
    40
  5
15B
 10
52.02375
 20
77.65325
 30
0.0
 40
0.125
  1
1 " Notch
  7
MONOTXT
210
0.0
220
0.0
230
1.0
  0
LINE
  8
2
  6
CONTINUOUS
 62
     2
  5
15C
 10
52.482417
 20
77.844333
 30
0.0
 11
52.750167
 21
77.844333
 31
0.0
  0
LINE
  8
2
  6
CONTINUOUS
 62
     2
  5
15D
 10
52.750167
 20
77.457583
 30
0.0
 11
52.750167
 21
77.97825
 31
0.0
  0
LINE
  8
2
  6
CONTINUOUS
 62
     2
  5
15E
 10
52.918
 20
77.844333
 30
0.0
 11
53.151917
 21
77.844333
 31
0.0
  0
INSERT
  8
2
  6
CONTINUOUS
 62
     2
  5
15F
  2
ARR
 10
52.750167
 20
77.844333
 30
0.0
210
0.0
220
0.0
230
1.0
  0
INSERT
  8
2
  6
CONTINUOUS
 62
     2
  5
160
  2
ARR
 10
52.918
 20
77.844333
 30
0.0
 50
180.0
210
0.0
220
0.0
230
1.0
  0
TEXT
  8
2
  6
CONTINUOUS
 62
    40
  5
161
 10
50.88725
 20
76.41225
 30
0.0
 40
0.125
  1
Block
  7
MONOTXT
210
0.0
220
0.0
230
1.0
  0
SOLID
  8
2
  6
CONTINUOUS
 62
     2
  5
162
 10
52.287083
 20
77.211583
 30
0.0
 11
52.34425
 21
77.19325
 31
0.0
 12
52.3705
 22
77.373833
 32
0.0
 13
52.3705
 23
77.373833
 33
0.0
  0
LINE
  8
2
  6
CONTINUOUS
 62
     2
  5
163
 10
52.315667
 20
77.202417
 30
0.0
 11
52.08475
 21
76.480083
 31
0.0
  0
LINE
  8
2
  6
CONTINUOUS
 62
     2
  5
164
 10
52.08475
 20
76.480083
 30
0.0
 11
51.472417
 21
76.480083
 31
0.0
  0
LINE
  8
1
  6
CONTINUOUS
 62
   132
  5
165
 10
56.044667
 20
79.870917
 30
0.0
 11
57.364667
 21
79.870917
 31
0.0
  0
LINE
  8
1
  6
CONTINUOUS
 62
   132
  5
166
 10
56.044667
 20
79.870917
 30
0.0
 11
56.044667
 21
75.922333
 31
0.0
  0
LINE
  8
1
  6
CONTINUOUS
 62
   132
  5
167
 10
56.044667
 20
75.922333
 30
0.0
 11
56.316833
 21
75.922333
 31
0.0
  0
LINE
  8
1
  6
CONTINUOUS
 62
   233
  5
168
 10
56.316833
 20
75.922333
 30
0.0
 11
56.3985
 21
76.09925
 31
0.0
  0
LINE
  8
1
  6
CONTINUOUS
 62
   132
  5
169
 10
56.3985
 20
76.09925
 30
0.0
 11
56.97
 21
75.704583
 31
0.0
  0
LINE
  8
1
  6
CONTINUOUS
 62
   132
  5
16A
 10
56.97
 20
75.704583
 30
0.0
 11
57.0925
 21
75.922333
 31
0.0
  0
LINE
  8
1
  6
CONTINUOUS
 62
   132
  5
16B
 10
57.0925
 20
75.922333
 30
0.0
 11
57.364667
 21
75.922333
 31
0.0
  0
LINE
  8
1
  6
CONTINUOUS
 62
   132
  5
16C
 10
57.364667
 20
75.922333
 30
0.0
 11
57.364667
 21
79.870917
 31
0.0
  0
LINE
  8
2
  6
CONTINUOUS
 62
     2
  5
16D
 10
56.044667
 20
79.96575
 30
0.0
 11
56.044667
 21
80.663583
 31
0.0
  0
LINE
  8
2
  6
CONTINUOUS
 62
     2
  5
16E
 10
57.364667
 20
79.96575
 30
0.0
 11
57.364667
 21
80.663583
 31
0.0
  0
LINE
  8
2
  6
CONTINUOUS
 62
     2
  5
16F
 10
56.044667
 20
80.366917
 30
0.0
 11
56.409083
 21
80.366917
 31
0.0
  0
INSERT
  8
2
  6
CONTINUOUS
 62
     2
  5
170
  2
ARR
 10
57.364667
 20
80.366917
 30
0.0
210
0.0
220
0.0
230
1.0
  0
INSERT
  8
2
  6
CONTINUOUS
 62
     2
  5
171
  2
ARR
 10
56.044667
 20
80.366917
 30
0.0
 50
180.0
210
0.0
220
0.0
230
1.0
  0
LINE
  8
2
  6
CONTINUOUS
 62
     2
  5
172
 10
56.992333
 20
80.366917
 30
0.0
 11
57.364667
 21
80.366917
 31
0.0
  0
LINE
  8
1
  6
CONTINUOUS
 62
   233
  5
173
 10
57.1655
 20
79.870917
 30
0.0
 11
57.1655
 21
77.364833
 31
0.0
  0
LINE
  8
1
  6
CONTINUOUS
 62
   233
  5
174
 10
56.249667
 20
79.870917
 30
0.0
 11
56.249667
 21
77.364833
 31
0.0
  0
LINE
  8
1
  6
CONTINUOUS
 62
   233
  5
175
 10
56.249667
 20
77.364833
 30
0.0
 11
57.1655
 21
77.364833
 31
0.0
  0
CIRCLE
  8
1
  6
CONTINUOUS
 62
   233
  5
176
 10
56.717583
 20
78.62525
 30
0.0
 40
0.06444
210
0.0
220
0.0
230
1.0
  0
LINE
  8
1
  6
CONTINUOUS
 62
   233
  5
177
 10
57.224917
 20
79.870917
 30
0.0
 11
57.224917
 21
79.168083
 31
0.0
  0
LINE
  8
1
  6
CONTINUOUS
 62
   233
  5
178
 10
57.218083
 20
79.079
 30
0.0
 11
57.218083
 21
78.5445
 31
0.0
  0
LINE
  8
1
  6
CONTINUOUS
 62
   233
  5
179
 10
57.218083
 20
78.421083
 30
0.0
 11
57.218083
 21
77.824917
 31
0.0
  0
LINE
  8
1
  6
CONTINUOUS
 62
   233
  5
17A
 10
57.272917
 20
79.870917
 30
0.0
 11
57.272917
 21
79.037917
 31
0.0
  0
LINE
  8
1
  6
CONTINUOUS
 62
   233
  5
17B
 10
57.314
 20
79.870917
 30
0.0
 11
57.314
 21
78.873417
 31
0.0
  0
LINE
  8
1
  6
CONTINUOUS
 62
   233
  5
17C
 10
57.279417
 20
78.718083
 30
0.0
 11
57.279417
 21
78.27925
 31
0.0
  0
LINE
  8
1
  6
CONTINUOUS
 62
   233
  5
17D
 10
57.275167
 20
78.07475
 30
0.0
 11
57.275167
 21
77.589
 31
0.0
  0
LINE
  8
1
  6
CONTINUOUS
 62
   233
  5
17E
 10
57.31775
 20
78.735083
 30
0.0
 11
57.31775
 21
77.9
 31
0.0
  0
LINE
  8
1
  6
CONTINUOUS
 62
   233
  5
17F
 10
57.31775
 20
77.806333
 30
0.0
 11
57.31775
 21
77.572
 31
0.0
  0
LINE
  8
1
  6
CONTINUOUS
 62
   233
  5
180
 10
56.084083
 20
79.837083
 30
0.0
 11
56.084083
 21
79.298583
 31
0.0
  0
LINE
  8
1
  6
CONTINUOUS
 62
   233
  5
181
 10
56.133
 20
79.79625
 30
0.0
 11
56.133
 21
79.09875
 31
0.0
  0
LINE
  8
1
  6
CONTINUOUS
 62
   233
  5
182
 10
56.186083
 20
79.812583
 30
0.0
 11
56.186083
 21
79.172167
 31
0.0
  0
LINE
  8
1
  6
CONTINUOUS
 62
   233
  5
183
 10
56.088167
 20
79.184417
 30
0.0
 11
56.088167
 21
78.613333
 31
0.0
  0
LINE
  8
1
  6
CONTINUOUS
 62
   233
  5
184
 10
56.133
 20
78.951917
 30
0.0
 11
56.133
 21
78.35225
 31
0.0
  0
LINE
  8
1
  6
CONTINUOUS
 62
   233
  5
185
 10
56.186083
 20
79.02125
 30
0.0
 11
56.186083
 21
78.360417
 31
0.0
  0
LINE
  8
1
  6
CONTINUOUS
 62
   233
  5
186
 10
56.190833
 20
78.086
 30
0.0
 11
56.190833
 21
77.363167
 31
0.0
  0
LINE
  8
1
  6
CONTINUOUS
 62
   233
  5
187
 10
56.134333
 20
78.131167
 30
0.0
 11
56.134333
 21
77.32175
 31
0.0
  0
LINE
  8
1
  6
CONTINUOUS
 62
   233
  5
188
 10
56.085417
 20
78.519
 30
0.0
 11
56.085417
 21
78.093583
 31
0.0
  0
LINE
  8
1
  6
CONTINUOUS
 62
   233
  5
189
 10
56.085417
 20
77.943
 30
0.0
 11
56.085417
 21
77.30675
 31
0.0
  0
LINE
  8
1
  6
CONTINUOUS
 62
   233
  5
18A
 10
56.880917
 20
77.364833
 30
0.0
 11
56.880917
 21
76.964167
 31
0.0
  0
LINE
  8
1
  6
CONTINUOUS
 62
   233
  5
18B
 10
56.880917
 20
76.883583
 30
0.0
 11
56.880917
 21
76.404833
 31
0.0
  0
LINE
  8
1
  6
CONTINUOUS
 62
   233
  5
18C
 10
56.880917
 20
76.262667
 30
0.0
 11
56.880917
 21
75.766167
 31
0.0
  0
LINE
  8
1
  6
CONTINUOUS
 62
   233
  5
18D
 10
57.08475
 20
77.364833
 30
0.0
 11
57.08475
 21
76.940417
 31
0.0
  0
LINE
  8
1
  6
CONTINUOUS
 62
   233
  5
18E
 10
57.08475
 20
76.821917
 30
0.0
 11
57.08475
 21
76.33375
 31
0.0
  0
LINE
  8
1
  6
CONTINUOUS
 62
   233
  5
18F
 10
57.08475
 20
76.238917
 30
0.0
 11
57.08475
 21
75.9085
 31
0.0
  0
LINE
  8
1
  6
CONTINUOUS
 62
   233
  5
190
 10
57.160583
 20
77.338583
 30
0.0
 11
57.160583
 21
76.845667
 31
0.0
  0
LINE
  8
1
  6
CONTINUOUS
 62
   233
  5
191
 10
57.155833
 20
76.77925
 30
0.0
 11
57.155833
 21
76.182083
 31
0.0
  0
LINE
  8
1
  6
CONTINUOUS
 62
   233
  5
192
 10
57.155833
 20
76.110917
 30
0.0
 11
57.155833
 21
75.922333
 31
0.0
  0
LINE
  8
1
  6
CONTINUOUS
 62
   233
  5
193
 10
56.544333
 20
77.364833
 30
0.0
 11
56.544333
 21
76.893
 31
0.0
  0
LINE
  8
1
  6
CONTINUOUS
 62
   233
  5
194
 10
56.549083
 20
76.760333
 30
0.0
 11
56.549083
 21
76.44275
 31
0.0
  0
LINE
  8
1
  6
CONTINUOUS
 62
   233
  5
195
 10
56.539583
 20
76.281583
 30
0.0
 11
56.539583
 21
76.001833
 31
0.0
  0
LINE
  8
1
  6
CONTINUOUS
 62
   233
  5
196
 10
56.364167
 20
77.364833
 30
0.0
 11
56.364167
 21
76.888333
 31
0.0
  0
LINE
  8
1
  6
CONTINUOUS
 62
   233
  5
197
 10
56.364167
 20
76.722417
 30
0.0
 11
56.364167
 21
76.295833
 31
0.0
  0
LINE
  8
1
  6
CONTINUOUS
 62
   233
  5
198
 10
56.364167
 20
76.22
 30
0.0
 11
56.364167
 21
76.024917
 31
0.0
  0
LINE
  8
1
  6
CONTINUOUS
 62
   233
  5
199
 10
56.283583
 20
77.364833
 30
0.0
 11
56.283583
 21
77.068417
 31
0.0
  0
LINE
  8
1
  6
CONTINUOUS
 62
   233
  5
19A
 10
56.278833
 20
76.973583
 30
0.0
 11
56.278833
 21
76.390583
 31
0.0
  0
LINE
  8
1
  6
CONTINUOUS
 62
   233
  5
19B
 10
56.278833
 20
76.286333
 30
0.0
 11
56.278833
 21
75.922333
 31
0.0
  0
LINE
  8
1
  6
CONTINUOUS
 62
   233
  5
19C
 10
56.1935
 20
77.00675
 30
0.0
 11
56.1935
 21
76.352667
 31
0.0
  0
LINE
  8
1
  6
CONTINUOUS
 62
   233
  5
19D
 10
56.188833
 20
76.243667
 30
0.0
 11
56.188833
 21
75.922333
 31
0.0
  0
LINE
  8
1
  6
CONTINUOUS
 62
   233
  5
19E
 10
56.136667
 20
77.120583
 30
0.0
 11
56.136667
 21
76.362167
 31
0.0
  0
LINE
  8
1
  6
CONTINUOUS
 62
   233
  5
19F
 10
56.136667
 20
76.182083
 30
0.0
 11
56.136667
 21
75.922333
 31
0.0
  0
LINE
  8
1
  6
CONTINUOUS
 62
   233
  5
1A0
 10
56.094
 20
77.054167
 30
0.0
 11
56.094
 21
76.201
 31
0.0
  0
LINE
  8
2
  6
CONTINUOUS
 62
     2
  5
1A1
 10
57.485333
 20
79.870917
 30
0.0
 11
58.527
 21
79.870917
 31
0.0
  0
LINE
  8
2
  6
CONTINUOUS
 62
     2
  5
1A2
 10
57.485333
 20
77.358917
 30
0.0
 11
58.527
 21
77.358917
 31
0.0
  0
LINE
  8
2
  6
CONTINUOUS
 62
     2
  5
1A3
 10
58.040417
 20
79.870917
 30
0.0
 11
58.040417
 21
78.744
 31
0.0
  0
INSERT
  8
2
  6
CONTINUOUS
 62
     2
  5
1A4
  2
ARR
 10
58.040417
 20
79.870917
 30
0.0
 50
90.0
210
0.0
220
0.0
230
1.0
  0
INSERT
  8
2
  6
CONTINUOUS
 62
     2
  5
1A5
  2
ARR
 10
58.040417
 20
77.358917
 30
0.0
 50
270.0
210
0.0
220
0.0
230
1.0
  0
SOLID
  8
2
  6
CONTINUOUS
 62
     2
  5
1A6
 10
54.07475
 20
78.2375
 30
0.0
 11
54.134333
 21
78.2445
 31
0.0
 12
54.083583
 22
78.41975
 32
0.0
 13
54.083583
 23
78.41975
 33
0.0
  0
LINE
  8
2
  6
CONTINUOUS
 62
     2
  5
1A7
 10
54.104583
 20
78.241
 30
0.0
 11
54.298167
 21
76.592917
 31
0.0
  0
LINE
  8
2
  6
CONTINUOUS
 62
     2
  5
1A8
 10
54.298167
 20
76.592917
 30
0.0
 11
54.476167
 21
76.592917
 31
0.0
  0
LINE
  8
2
  6
CONTINUOUS
 62
     2
  5
1A9
 10
56.718833
 20
78.495667
 30
0.0
 11
56.718833
 21
78.019333
 31
0.0
  0
LINE
  8
2
  6
CONTINUOUS
 62
     2
  5
1AA
 10
56.718833
 20
78.272833
 30
0.0
 11
56.044667
 21
78.272833
 31
0.0
  0
INSERT
  8
2
  6
CONTINUOUS
 62
     2
  5
1AB
  2
ARR
 10
56.71875
 20
78.272833
 30
0.0
210
0.0
220
0.0
230
1.0
  0
INSERT
  8
2
  6
CONTINUOUS
 62
     2
  5
1AC
  2
ARR
 10
56.044667
 20
78.272833
 30
0.0
 50
180.0
210
0.0
220
0.0
230
1.0
  0
LINE
  8
2
  6
CONTINUOUS
 62
     2
  5
1AD
 10
56.653167
 20
78.6285
 30
0.0
 11
55.9005
 21
78.6285
 31
0.0
  0
LINE
  8
2
  6
CONTINUOUS
 62
     2
  5
1AE
 10
56.78175
 20
78.631
 30
0.0
 11
57.12175
 21
78.631
 31
0.0
  0
INSERT
  8
2
  6
CONTINUOUS
 62
     2
  5
1AF
  2
ARR
 10
56.653167
 20
78.6285
 30
0.0
210
0.0
220
0.0
230
1.0
  0
INSERT
  8
2
  6
CONTINUOUS
 62
     2
  5
1B0
  2
ARR
 10
56.78175
 20
78.631
 30
0.0
 50
180.0
210
0.0
220
0.0
230
1.0
  0
SOLID
  8
2
  6
CONTINUOUS
 62
     2
  5
1B1
 10
56.250167
 20
78.129917
 30
0.0
 11
56.302667
 21
78.100833
 31
0.0
 12
56.363667
 22
78.272833
 32
0.0
 13
56.363667
 23
78.272833
 33
0.0
  0
LINE
  8
2
  6
CONTINUOUS
 62
     2
  5
1B2
 10
56.276417
 20
78.115417
 30
0.0
 11
55.822417
 21
77.295917
 31
0.0
  0
LINE
  8
2
  6
CONTINUOUS
 62
     2
  5
1B3
 10
55.822417
 20
77.295917
 30
0.0
 11
55.6625
 21
77.295917
 31
0.0
  0
TEXT
  8
2
  6
CONTINUOUS
 62
    40
  5
1B4
 10
54.2575
 20
77.909667
 30
0.0
 40
0.125
  1
13/16" Dia.
  7
MONOTXT
210
0.0
220
0.0
230
1.0
  0
TEXT
  8
2
  6
CONTINUOUS
 62
    40
  5
1B5
 10
54.94475
 20
77.695417
 30
0.0
 40
0.125
  1
Hole
  7
MONOTXT
210
0.0
220
0.0
230
1.0
  0
LINE
  8
2
  6
CONTINUOUS
 62
     2
  5
1B6
 10
55.9005
 20
78.6285
 30
0.0
 11
55.636417
 21
77.864333
 31
0.0
  0
LINE
  8
2
  6
CONTINUOUS
 62
     2
  5
1B7
 10
55.636417
 20
77.864333
 30
0.0
 11
55.312833
 21
77.864333
 31
0.0
  0
LINE
  8
1
  6
CONTINUOUS
 62
   233
  5
1B8
 10
57.232
 20
77.642
 30
0.0
 11
57.232
 21
77.14425
 31
0.0
  0
LINE
  8
1
  6
CONTINUOUS
 62
   233
  5
1B9
 10
57.22825
 20
77.03875
 30
0.0
 11
57.22825
 21
76.473417
 31
0.0
  0
LINE
  8
1
  6
CONTINUOUS
 62
   233
  5
1BA
 10
57.238833
 20
76.352833
 30
0.0
 11
57.238833
 21
75.922333
 31
0.0
  0
LINE
  8
1
  6
CONTINUOUS
 62
   233
  5
1BB
 10
57.281083
 20
76.062167
 30
0.0
 11
57.281083
 21
76.60525
 31
0.0
  0
LINE
  8
1
  6
CONTINUOUS
 62
   233
  5
1BC
 10
57.277583
 20
76.756083
 30
0.0
 11
57.277583
 21
77.29125
 31
0.0
  0
LINE
  8
1
  6
CONTINUOUS
 62
   233
  5
1BD
 10
57.3125
 20
77.513417
 30
0.0
 11
57.3125
 21
77.07975
 31
0.0
  0
LINE
  8
1
  6
CONTINUOUS
 62
   233
  5
1BE
 10
57.323083
 20
76.99325
 30
0.0
 11
57.323083
 21
76.296083
 31
0.0
  0
LINE
  8
1
  6
CONTINUOUS
 62
   233
  5
1BF
 10
57.323083
 20
76.201833
 30
0.0
 11
57.323083
 21
75.922333
 31
0.0
  0
TEXT
  8
2
  6
CONTINUOUS
 62
    40
  5
1C0
 10
57.903833
 20
78.541333
 30
0.0
 40
0.125
  1
14"
  7
MONOTXT
210
0.0
220
0.0
230
1.0
  0
LINE
  8
2
  6
CONTINUOUS
 62
     2
  5
1C1
 10
58.040417
 20
78.465
 30
0.0
 11
58.040417
 21
77.358917
 31
0.0
  0
LINE
  8
1
  6
CONTINUOUS
 62
   132
  5
1C2
 10
41.592583
 20
79.766333
 30
0.0
 11
41.633083
 21
79.721667
 31
0.0
  0
LINE
  8
1
  6
CONTINUOUS
 62
   132
  5
1C3
 10
51.785
 20
79.733833
 30
0.0
 11
51.7435
 21
79.777583
 31
0.0
  0
LINE
  8
1
  6
CONTINUOUS
 62
   233
  5
1C4
 10
41.79775
 20
73.272667
 30
0.0
 11
41.75625
 21
73.316333
 31
0.0
  0
INSERT
  8
2
  6
CONTINUOUS
 62
     2
  5
1C5
  2
ARR
 10
42.93075
 20
73.911667
 30
0.0
210
0.0
220
0.0
230
1.0
  0
INSERT
  8
2
  6
CONTINUOUS
 62
     2
  5
1C6
  2
ARR
 10
42.93075
 20
73.911667
 30
0.0
 50
180.0
210
0.0
220
0.0
230
1.0
  0
INSERT
  8
2
  6
CONTINUOUS
 62
     2
  5
1C7
  2
ARR
 10
44.075
 20
73.911667
 30
0.0
210
0.0
220
0.0
230
1.0
  0
LINE
  8
2
  6
CONTINUOUS
 62
     2
  5
1C8
 10
44.075
 20
73.5045
 30
0.0
 11
44.075
 21
74.202417
 31
0.0
  0
LINE
  8
2
  6
CONTINUOUS
 62
     2
  5
1C9
 10
42.93075
 20
73.5045
 30
0.0
 11
42.93075
 21
74.202417
 31
0.0
  0
LINE
  8
2
  6
CONTINUOUS
 62
     2
  5
1CA
 10
41.792167
 20
73.5045
 30
0.0
 11
41.792167
 21
74.202417
 31
0.0
  0
LINE
  8
1
  6
CONTINUOUS
 62
   132
  5
1CB
 10
41.79775
 20
73.39475
 30
0.0
 11
44.075
 21
73.39475
 31
0.0
  0
LINE
  8
1
  6
CONTINUOUS
 62
   132
  5
1CC
 10
43.1115
 20
73.39475
 30
0.0
 11
43.1115
 21
70.912667
 31
0.0
  0
LINE
  8
1
  6
CONTINUOUS
 62
   132
  5
1CD
 10
41.79775
 20
70.912667
 30
0.0
 11
43.1115
 21
70.912667
 31
0.0
  0
LINE
  8
1
  6
CONTINUOUS
 62
   233
  5
1CE
 10
43.044333
 20
72.29375
 30
0.0
 11
43.139583
 21
72.29375
 31
0.0
  0
LINE
  8
1
  6
CONTINUOUS
 62
   233
  5
1CF
 10
43.139583
 20
72.29375
 30
0.0
 11
43.139583
 21
71.958583
 31
0.0
  0
LINE
  8
1
  6
CONTINUOUS
 62
   233
  5
1D0
 10
43.139583
 20
71.958583
 30
0.0
 11
43.044333
 21
71.958583
 31
0.0
  0
LINE
  8
1
  6
CONTINUOUS
 62
   233
  5
1D1
 10
43.139583
 20
72.262083
 30
0.0
 11
43.283
 21
72.262083
 31
0.0
  0
LINE
  8
1
  6
CONTINUOUS
 62
   233
  5
1D2
 10
43.283
 20
72.262083
 30
0.0
 11
43.283
 21
71.988583
 31
0.0
  0
LINE
  8
1
  6
CONTINUOUS
 62
   233
  5
1D3
 10
43.283
 20
71.988583
 30
0.0
 11
43.139583
 21
71.988583
 31
0.0
  0
LINE
  8
1
  6
CONTINUOUS
 62
   233
  5
1D4
 10
43.139583
 20
72.210333
 30
0.0
 11
43.283
 21
72.210333
 31
0.0
  0
LINE
  8
1
  6
CONTINUOUS
 62
   233
  5
1D5
 10
43.139583
 20
72.170333
 30
0.0
 11
43.283
 21
72.170333
 31
0.0
  0
LINE
  8
1
  6
CONTINUOUS
 62
   233
  5
1D6
 10
43.139583
 20
72.085333
 30
0.0
 11
43.283
 21
72.085333
 31
0.0
  0
LINE
  8
1
  6
CONTINUOUS
 62
   233
  5
1D7
 10
43.139583
 20
72.036917
 30
0.0
 11
43.283
 21
72.036917
 31
0.0
  0
LINE
  8
1
  6
CONTINUOUS
 62
   233
  5
1D8
 10
43.283
 20
72.170333
 30
0.0
 11
43.431417
 21
72.170333
 31
0.0
  0
LINE
  8
1
  6
CONTINUOUS
 62
   233
  5
1D9
 10
43.431417
 20
72.170333
 30
0.0
 11
43.431417
 21
72.085333
 31
0.0
  0
LINE
  8
1
  6
CONTINUOUS
 62
   233
  5
1DA
 10
43.283
 20
72.085333
 30
0.0
 11
43.431417
 21
72.085333
 31
0.0
  0
LINE
  8
1
  6
CONTINUOUS
 62
   233
  5
1DB
 10
43.306333
 20
72.153083
 30
0.0
 11
43.306333
 21
72.099333
 31
0.0
  0
LINE
  8
1
  6
CONTINUOUS
 62
   233
  5
1DC
 10
43.336333
 20
72.153083
 30
0.0
 11
43.336333
 21
72.099333
 31
0.0
  0
LINE
  8
1
  6
CONTINUOUS
 62
   233
  5
1DD
 10
43.373083
 20
72.153083
 30
0.0
 11
43.373083
 21
72.099333
 31
0.0
  0
LINE
  8
1
  6
CONTINUOUS
 62
   233
  5
1DE
 10
43.403083
 20
72.153083
 30
0.0
 11
43.403083
 21
72.099333
 31
0.0
  0
LINE
  8
2
  6
CONTINUOUS
 62
     2
  5
1DF
 10
41.792167
 20
73.91175
 30
0.0
 11
42.219917
 21
73.91175
 31
0.0
  0
LINE
  8
2
  6
CONTINUOUS
 62
     2
  5
1E0
 10
42.746167
 20
73.91175
 30
0.0
 11
42.567083
 21
73.91175
 31
0.0
  0
INSERT
  8
2
  6
CONTINUOUS
 62
     2
  5
1E1
  2
ARR
 10
41.792083
 20
73.911667
 30
0.0
 50
180.0
210
0.0
220
0.0
230
1.0
  0
ARC
  8
1
  6
CONTINUOUS
 62
   132
  5
1E2
 10
41.265167
 20
71.461083
 30
0.0
 40
0.04791
 50
134.286572
 51
179.552286
210
0.0
220
0.0
230
1.0
  0
ARC
  8
1
  6
CONTINUOUS
 62
   233
  5
1E3
 10
41.266667
 20
71.465917
 30
0.0
 40
0.086203
 50
120.03825
 51
182.987283
210
0.0
220
0.0
230
1.0
  0
ARC
  8
1
  6
CONTINUOUS
 62
   132
  5
1E4
 10
41.267083
 20
71.463333
 30
0.0
 40
0.122406
 50
133.542117
 51
180.876203
210
0.0
220
0.0
230
1.0
  0
ARC
  8
1
  6
CONTINUOUS
 62
   132
  5
1E5
 10
41.671167
 20
71.979917
 30
0.0
 40
0.067563
 50
300.232697
 51
359.852675
210
0.0
220
0.0
230
1.0
  0
ARC
  8
1
  6
CONTINUOUS
 62
   233
  5
1E6
 10
41.670833
 20
71.979583
 30
0.0
 40
0.096292
 50
300.055728
 51
0.020269
210
0.0
220
0.0
230
1.0
  0
ARC
  8
1
  6
CONTINUOUS
 62
   132
  5
1E7
 10
41.670833
 20
71.97675
 30
0.0
 40
0.127251
 50
314.7944
 51
1.245628
210
0.0
220
0.0
230
1.0
  0
LINE
  8
1
  6
CONTINUOUS
 62
   132
  5
1E8
 10
41.23175
 20
71.495417
 30
0.0
 11
41.7605
 21
71.886417
 31
0.0
  0
LINE
  8
1
  6
CONTINUOUS
 62
   233
  5
1E9
 10
41.223583
 20
71.540583
 30
0.0
 11
41.719
 21
71.89625
 31
0.0
  0
LINE
  8
1
  6
CONTINUOUS
 62
   132
  5
1EA
 10
41.18275
 20
71.552083
 30
0.0
 11
41.705167
 21
71.9215
 31
0.0
  0
LINE
  8
1
  6
CONTINUOUS
 62
   132
  5
1EB
 10
41.23175
 20
71.4275
 30
0.0
 11
41.739417
 21
71.052083
 31
0.0
  0
ARC
  8
1
  6
CONTINUOUS
 62
   233
  5
1EC
 10
41.266667
 20
71.457
 30
0.0
 40
0.086203
 50
177.012711
 51
239.961744
210
0.0
220
0.0
230
1.0
  0
ARC
  8
1
  6
CONTINUOUS
 62
   132
  5
1ED
 10
41.265167
 20
71.461833
 30
0.0
 40
0.04791
 50
180.447711
 51
225.713425
210
0.0
220
0.0
230
1.0
  0
ARC
  8
1
  6
CONTINUOUS
 62
   132
  5
1EE
 10
41.267083
 20
71.459583
 30
0.0
 40
0.122406
 50
179.123794
 51
226.457881
210
0.0
220
0.0
230
1.0
  0
LINE
  8
1
  6
CONTINUOUS
 62
   132
  5
1EF
 10
41.18275
 20
71.370833
 30
0.0
 11
41.739417
 21
70.977167
 31
0.0
  0
LINE
  8
1
  6
CONTINUOUS
 62
   233
  5
1F0
 10
41.223583
 20
71.382333
 30
0.0
 11
41.739417
 21
71.012083
 31
0.0
  0
LINE
  8
1
  6
CONTINUOUS
 62
   233
  5
1F1
 10
41.223583
 20
72.89925
 30
0.0
 11
41.775833
 21
73.29575
 31
0.0
  0
LINE
  8
1
  6
CONTINUOUS
 62
   132
  5
1F2
 10
41.18275
 20
72.91075
 30
0.0
 11
41.75625
 21
73.316333
 31
0.0
  0
ARC
  8
1
  6
CONTINUOUS
 62
   132
  5
1F3
 10
41.267083
 20
72.822
 30
0.0
 40
0.122406
 50
133.542117
 51
180.876203
210
0.0
220
0.0
230
1.0
  0
ARC
  8
1
  6
CONTINUOUS
 62
   132
  5
1F4
 10
41.265167
 20
72.81975
 30
0.0
 40
0.04791
 50
134.286572
 51
179.552286
210
0.0
220
0.0
230
1.0
  0
ARC
  8
1
  6
CONTINUOUS
 62
   233
  5
1F5
 10
41.266667
 20
72.824667
 30
0.0
 40
0.086203
 50
120.03825
 51
182.987283
210
0.0
220
0.0
230
1.0
  0
LINE
  8
1
  6
CONTINUOUS
 62
   132
  5
1F6
 10
41.23175
 20
72.854083
 30
0.0
 11
41.79775
 21
73.272667
 31
0.0
  0
LINE
  8
1
  6
CONTINUOUS
 62
   132
  5
1F7
 10
41.18275
 20
72.729583
 30
0.0
 11
41.705167
 21
72.360083
 31
0.0
  0
LINE
  8
1
  6
CONTINUOUS
 62
   233
  5
1F8
 10
41.223583
 20
72.741
 30
0.0
 11
41.719
 21
72.385333
 31
0.0
  0
LINE
  8
1
  6
CONTINUOUS
 62
   132
  5
1F9
 10
41.23175
 20
72.78625
 30
0.0
 11
41.7605
 21
72.395167
 31
0.0
  0
ARC
  8
1
  6
CONTINUOUS
 62
   132
  5
1FA
 10
41.670833
 20
72.304833
 30
0.0
 40
0.127251
 50
358.754367
 51
45.205594
210
0.0
220
0.0
230
1.0
  0
ARC
  8
1
  6
CONTINUOUS
 62
   233
  5
1FB
 10
41.670833
 20
72.302
 30
0.0
 40
0.096292
 50
359.979728
 51
59.944269
210
0.0
220
0.0
230
1.0
  0
ARC
  8
1
  6
CONTINUOUS
 62
   132
  5
1FC
 10
41.671167
 20
72.30175
 30
0.0
 40
0.067563
 50
0.147319
 51
59.767297
210
0.0
220
0.0
230
1.0
  0
ARC
  8
1
  6
CONTINUOUS
 62
   132
  5
1FD
 10
41.267083
 20
72.81825
 30
0.0
 40
0.122406
 50
179.123794
 51
226.457881
210
0.0
220
0.0
230
1.0
  0
ARC
  8
1
  6
CONTINUOUS
 62
   233
  5
1FE
 10
41.266667
 20
72.815667
 30
0.0
 40
0.086203
 50
177.012711
 51
239.961744
210
0.0
220
0.0
230
1.0
  0
ARC
  8
1
  6
CONTINUOUS
 62
   132
  5
1FF
 10
41.265167
 20
72.8205
 30
0.0
 40
0.04791
 50
180.447711
 51
225.713425
210
0.0
220
0.0
230
1.0
  0
LINE
  8
1
  6
CONTINUOUS
 62
   233
  5
200
 10
41.767083
 20
72.302
 30
0.0
 11
41.767083
 21
71.979583
 31
0.0
  0
LINE
  8
1
  6
CONTINUOUS
 62
   233
  5
201
 10
41.73875
 20
72.301917
 30
0.0
 11
41.73875
 21
71.980083
 31
0.0
  0
ARC
  8
1
  6
CONTINUOUS
 62
   233
  5
202
 10
41.8125
 20
72.130333
 30
0.0
 40
0.135846
 50
123.837981
 51
236.162017
210
0.0
220
0.0
230
1.0
  0
LINE
  8
1
  6
CONTINUOUS
 62
   132
  5
203
 10
41.739417
 20
71.052083
 30
0.0
 11
41.739417
 21
70.977167
 31
0.0
  0
LINE
  8
2
  6
CONTINUOUS
 62
     2
  5
204
 10
41.652417
 20
73.326083
 30
0.0
 11
40.857917
 21
73.326083
 31
0.0
  0
LINE
  8
2
  6
CONTINUOUS
 62
     2
  5
205
 10
41.718667
 20
73.391167
 30
0.0
 11
40.262083
 21
73.391167
 31
0.0
  0
LINE
  8
2
  6
CONTINUOUS
 62
     2
  5
206
 10
41.652417
 20
70.976667
 30
0.0
 11
40.857917
 21
70.976667
 31
0.0
  0
LINE
  8
2
  6
CONTINUOUS
 62
     2
  5
207
 10
41.718667
 20
70.909667
 30
0.0
 11
40.262083
 21
70.909667
 31
0.0
  0
LINE
  8
2
  6
CONTINUOUS
 62
     2
  5
208
 10
40.583667
 20
70.909667
 30
0.0
 11
40.583667
 21
72.031417
 31
0.0
  0
LINE
  8
2
  6
CONTINUOUS
 62
     2
  5
209
 10
41.274083
 20
73.014167
 30
0.0
 11
41.274083
 21
73.326083
 31
0.0
  0
INSERT
  8
2
  6
CONTINUOUS
 62
     2
  5
20A
  2
ARR
 10
41.274083
 20
73.326083
 30
0.0
 50
90.0
210
0.0
220
0.0
230
1.0
  0
INSERT
  8
2
  6
CONTINUOUS
 62
     2
  5
20B
  2
ARR
 10
41.274083
 20
73.391167
 30
0.0
 50
270.0
210
0.0
220
0.0
230
1.0
  0
INSERT
  8
2
  6
CONTINUOUS
 62
     2
  5
20C
  2
ARR
 10
40.583667
 20
73.391167
 30
0.0
 50
90.0
210
0.0
220
0.0
230
1.0
  0
INSERT
  8
2
  6
CONTINUOUS
 62
     2
  5
20D
  2
ARR
 10
40.583667
 20
70.909667
 30
0.0
 50
270.0
210
0.0
220
0.0
230
1.0
  0
LINE
  8
2
  6
CONTINUOUS
 62
     2
  5
20E
 10
41.29325
 20
71.234917
 30
0.0
 11
41.29325
 21
70.976667
 31
0.0
  0
LINE
  8
2
  6
CONTINUOUS
 62
     2
  5
20F
 10
41.29325
 20
70.909667
 30
0.0
 11
41.29325
 21
70.61625
 31
0.0
  0
INSERT
  8
2
  6
CONTINUOUS
 62
     2
  5
210
  2
ARR
 10
41.29325
 20
70.976667
 30
0.0
 50
270.0
210
0.0
220
0.0
230
1.0
  0
INSERT
  8
2
  6
CONTINUOUS
 62
     2
  5
211
  2
ARR
 10
41.29325
 20
70.909667
 30
0.0
 50
90.0
210
0.0
220
0.0
230
1.0
  0
TEXT
  8
2
  6
CONTINUOUS
 62
    40
  5
212
 10
41.071167
 20
73.821583
 30
0.0
 40
0.125
  1
7/8"
  7
MONOTXT
210
0.0
220
0.0
230
1.0
  0
TEXT
  8
2
  6
CONTINUOUS
 62
     2
  5
213
 10
42.253417
 20
73.861
 30
0.0
 40
0.125
  1
7 5/8 "
  7
MONOTXT
210
0.0
220
0.0
230
1.0
  0
LINE
  8
2
  6
CONTINUOUS
 62
     2
  5
214
 10
42.567083
 20
73.91175
 30
0.0
 11
43.203167
 21
73.91175
 31
0.0
  0
LINE
  8
2
  6
CONTINUOUS
 62
     2
  5
215
 10
43.79975
 20
73.91175
 30
0.0
 11
44.075
 21
73.91175
 31
0.0
  0
TEXT
  8
2
  6
CONTINUOUS
 62
    40
  5
216
 10
41.95675
 20
72.637083
 30
0.0
 40
0.125
  1
5/8"
  7
MONOTXT
210
0.0
220
0.0
230
1.0
  0
TEXT
  8
2
  6
CONTINUOUS
 62
    40
  5
217
 10
41.95675
 20
72.42275
 30
0.0
 40
0.125
  1
Bolt
  7
MONOTXT
210
0.0
220
0.0
230
1.0
  0
TEXT
  8
2
  6
CONTINUOUS
 62
    40
  5
218
 10
40.44825
 20
72.129917
 30
0.0
 40
0.125
  1
14"
  7
MONOTXT
210
0.0
220
0.0
230
1.0
  0
TEXT
  8
2
  6
CONTINUOUS
 62
    40
  5
219
 10
41.0825
 20
70.424333
 30
0.0
 40
0.125
  1
7/8"
  7
MONOTXT
210
0.0
220
0.0
230
1.0
  0
LINE
  8
2
  6
CONTINUOUS
 62
     2
  5
21A
 10
40.583667
 20
72.37075
 30
0.0
 11
40.583667
 21
73.391167
 31
0.0
  0
LINE
  8
3
  6
HIDDEN
 62
     7
  5
21B
 10
41.79775
 20
72.226167
 30
0.0
 11
43.170833
 21
72.226167
 31
0.0
  0
LINE
  8
3
  6
HIDDEN
 62
     7
  5
21C
 10
41.79775
 20
72.1075
 30
0.0
 11
43.170833
 21
72.1075
 31
0.0
  0
LINE
  8
3
  6
HIDDEN
 62
     7
  5
21D
 10
41.79775
 20
72.16125
 30
0.0
 11
43.170833
 21
72.16125
 31
0.0
  0
LINE
  8
3
  6
HIDDEN
 62
     7
  5
21E
 10
41.79775
 20
72.042667
 30
0.0
 11
43.170833
 21
72.042667
 31
0.0
  0
LINE
  8
2
  6
CONTINUOUS
 62
     2
  5
21F
 10
41.274083
 20
73.391167
 30
0.0
 11
41.274083
 21
73.755333
 31
0.0
  0
LINE
  8
2
  6
CONTINUOUS
 62
     2
  5
220
 10
41.117083
 20
79.865583
 30
0.0
 11
41.117083
 21
80.22975
 31
0.0
  0
TEXT
  8
2
  6
CONTINUOUS
 62
    40
  5
221
 10
44.686167
 20
77.992667
 30
0.0
 40
0.125
  1
13/16" Dia.
  7
MONOTXT
210
0.0
220
0.0
230
1.0
  0
TEXT
  8
2
  6
CONTINUOUS
 62
    40
  5
222
 10
44.686167
 20
77.778417
 30
0.0
 40
0.125
  1
Hole
  7
MONOTXT
210
0.0
220
0.0
230
1.0
  0
LINE
  8
2
  6
CONTINUOUS
 62
     2
  5
223
 10
45.997583
 20
77.912417
 30
0.0
 11
45.75025
 21
77.912417
 31
0.0
  0
LINE
  8
2
  6
CONTINUOUS
 62
     2
  5
224
 10
51.261333
 20
79.869167
 30
0.0
 11
51.261333
 21
80.203083
 31
0.0
  0
LINE
  8
2
  6
CONTINUOUS
 62
     2
  5
225
 10
41.24775
 20
76.662833
 30
0.0
 11
40.722667
 21
76.662833
 31
0.0
  0
LINE
  8
1
  6
CONTINUOUS
 62
   132
  5
226
 10
44.075
 20
73.39475
 30
0.0
 11
44.075
 21
69.463833
 31
0.0
  0
LINE
  8
1
  6
CONTINUOUS
 62
   132
  5
227
 10
44.075
 20
69.463833
 30
0.0
 11
43.80125
 21
69.463833
 31
0.0
  0
LINE
  8
1
  6
CONTINUOUS
 62
   132
  5
228
 10
43.80125
 20
69.463833
 30
0.0
 11
43.695
 21
69.251583
 31
0.0
  0
LINE
  8
1
  6
CONTINUOUS
 62
   132
  5
229
 10
43.695
 20
69.251583
 30
0.0
 11
43.41175
 21
69.638417
 31
0.0
  0
LINE
  8
1
  6
CONTINUOUS
 62
   132
  5
22A
 10
43.41175
 20
69.638417
 30
0.0
 11
43.305417
 21
69.449083
 31
0.0
  0
LINE
  8
1
  6
CONTINUOUS
 62
   132
  5
22B
 10
43.305417
 20
69.449083
 30
0.0
 11
42.93075
 21
69.449083
 31
0.0
  0
LINE
  8
1
  6
CONTINUOUS
 62
   132
  5
22C
 10
44.005333
 20
73.39475
 30
0.0
 11
44.005333
 21
69.463833
 31
0.0
  0
TEXT
  8
2
  6
CONTINUOUS
 62
    40
  5
22D
 10
43.2475
 20
70.900417
 30
0.0
 40
0.125
  1
Circular
  7
MONOTXT
210
0.0
220
0.0
230
1.0
  0
TEXT
  8
2
  6
CONTINUOUS
 62
    40
  5
22E
 10
43.2475
 20
70.64025
 30
0.0
 40
0.125
  1
Washer
  7
MONOTXT
210
0.0
220
0.0
230
1.0
  0
TEXT
  8
2
  6
CONTINUOUS
 62
    40
  5
22F
 10
41.979083
 20
71.607333
 30
0.0
 40
0.125
  1
(Min.)
  7
MONOTXT
210
0.0
220
0.0
230
1.0
  0
TEXT
  8
2
  6
CONTINUOUS
 62
    40
  5
230
 10
44.237833
 20
71.586
 30
0.0
 40
0.125
  1
13/16" Dia. Hole
  7
MONOTXT
210
0.0
220
0.0
230
1.0
  0
TEXT
  8
2
  6
CONTINUOUS
 62
    40
  5
231
 10
44.2845
 20
73.176917
 30
0.0
 40
0.125
  1
Additional Hole (to
  7
MONOTXT
210
0.0
220
0.0
230
1.0
  0
TEXT
  8
2
  6
CONTINUOUS
 62
    40
  5
232
 10
44.2845
 20
72.962667
 30
0.0
 40
0.125
  1
facilitate erection)
  7
MONOTXT
210
0.0
220
0.0
230
1.0
  0
TEXT
  8
2
  6
CONTINUOUS
 62
    40
  5
233
 10
44.322083
 20
72.653
 30
0.0
 40
0.125
  1
Optional Holes (to
  7
MONOTXT
210
0.0
220
0.0
230
1.0
  0
TEXT
  8
2
  6
CONTINUOUS
 62
    40
  5
234
 10
44.322083
 20
72.43875
 30
0.0
 40
0.125
  1
facilitate erection)
  7
MONOTXT
210
0.0
220
0.0
230
1.0
  0
LINE
  8
2
  6
CONTINUOUS
 62
     2
  5
235
 10
43.431417
 20
72.127833
 30
0.0
 11
43.816667
 21
72.127833
 31
0.0
  0
LINE
  8
2
  6
CONTINUOUS
 62
     2
  5
236
 10
43.600833
 20
73.39475
 30
0.0
 11
43.600833
 21
72.888
 31
0.0
  0
INSERT
  8
2
  6
CONTINUOUS
 62
     2
  5
237
  2
ARR
 10
43.600833
 20
73.39475
 30
0.0
 50
90.0
210
0.0
220
0.0
230
1.0
  0
INSERT
  8
2
  6
CONTINUOUS
 62
     2
  5
238
  2
ARR
 10
43.600833
 20
72.127833
 30
0.0
 50
270.0
210
0.0
220
0.0
230
1.0
  0
TEXT
  8
2
  6
CONTINUOUS
 62
    40
  5
239
 10
43.525667
 20
72.684167
 30
0.0
 40
0.125
  1
7"
  7
MONOTXT
210
0.0
220
0.0
230
1.0
  0
LINE
  8
2
  6
CONTINUOUS
 62
     2
  5
23A
 10
43.600833
 20
72.626583
 30
0.0
 11
43.600833
 21
72.127833
 31
0.0
  0
LINE
  8
1
  6
CONTINUOUS
 62
   233
  5
23B
 10
44.005333
 20
72.165
 30
0.0
 11
44.075
 21
72.165
 31
0.0
  0
LINE
  8
1
  6
CONTINUOUS
 62
   233
  5
23C
 10
44.005333
 20
72.0835
 30
0.0
 11
44.075
 21
72.0835
 31
0.0
  0
SOLID
  8
2
  6
CONTINUOUS
 62
     2
  5
23D
 10
44.138167
 20
72.320333
 30
0.0
 11
44.082667
 21
72.343
 31
0.0
 12
44.042417
 22
72.165
 32
0.0
 13
44.042417
 23
72.165
 33
0.0
  0
LINE
  8
1
  6
CONTINUOUS
 62
   233
  5
23E
 10
44.110417
 20
72.331667
 30
0.0
 11
44.214167
 21
72.585833
 31
0.0
  0
LINE
  8
2
  6
CONTINUOUS
 62
     2
  5
23F
 10
44.214167
 20
72.585833
 30
0.0
 11
44.291
 21
72.585833
 31
0.0
  0
SOLID
  8
2
  6
CONTINUOUS
 62
     2
  5
240
 10
42.819417
 20
71.925083
 30
0.0
 11
42.878417
 21
71.936167
 31
0.0
 12
42.81575
 22
72.1075
 32
0.0
 13
42.81575
 23
72.1075
 33
0.0
  0
LINE
  8
2
  6
CONTINUOUS
 62
     2
  5
241
 10
42.848917
 20
71.930583
 30
0.0
 11
42.902417
 21
71.645833
 31
0.0
  0
SOLID
  8
2
  6
CONTINUOUS
 62
     2
  5
242
 10
43.07525
 20
71.777
 30
0.0
 11
43.135167
 21
71.780833
 31
0.0
 12
43.09375
 22
71.958583
 32
0.0
 13
43.09375
 23
71.958583
 33
0.0
  0
LINE
  8
2
  6
CONTINUOUS
 62
     2
  5
243
 10
43.10525
 20
71.778917
 30
0.0
 11
43.16575
 21
70.830583
 31
0.0
  0
LINE
  8
2
  6
CONTINUOUS
 62
     2
  5
244
 10
43.16575
 20
70.830583
 30
0.0
 11
43.3015
 21
70.830583
 31
0.0
  0
LINE
  8
2
  6
CONTINUOUS
 62
     2
  5
245
 10
41.684917
 20
69.696333
 30
0.0
 11
42.93075
 21
69.696333
 31
0.0
  0
INSERT
  8
2
  6
CONTINUOUS
 62
     2
  5
246
  2
ARR
 10
42.93075
 20
69.69625
 30
0.0
210
0.0
220
0.0
230
1.0
  0
LINE
  8
1
  6
CONTINUOUS
 62
   132
  5
247
 10
46.354583
 20
73.39475
 30
0.0
 11
47.115083
 21
73.39475
 31
0.0
  0
LINE
  8
1
  6
CONTINUOUS
 62
   132
  5
248
 10
46.354583
 20
73.39475
 30
0.0
 11
46.354583
 21
69.463833
 31
0.0
  0
LINE
  8
1
  6
CONTINUOUS
 62
   132
  5
249
 10
47.115083
 20
73.39475
 30
0.0
 11
47.115083
 21
69.463833
 31
0.0
  0
LINE
  8
3
  6
HIDDEN
 62
     7
  5
24A
 10
46.71275
 20
73.39475
 30
0.0
 11
46.71275
 21
69.5105
 31
0.0
  0
LINE
  8
3
  6
HIDDEN
 62
     7
  5
24B
 10
46.810917
 20
73.39475
 30
0.0
 11
46.810917
 21
69.404667
 31
0.0
  0
LINE
  8
1
  6
CONTINUOUS
 62
   132
  5
24C
 10
46.354583
 20
69.463833
 30
0.0
 11
46.51975
 21
69.463833
 31
0.0
  0
LINE
  8
1
  6
CONTINUOUS
 62
   132
  5
24D
 10
46.51975
 20
69.463833
 30
0.0
 11
46.611333
 21
69.619917
 31
0.0
  0
LINE
  8
1
  6
CONTINUOUS
 62
   132
  5
24E
 10
46.611333
 20
69.619917
 30
0.0
 11
46.871417
 21
69.339333
 31
0.0
  0
LINE
  8
1
  6
CONTINUOUS
 62
   132
  5
24F
 10
46.871417
 20
69.339333
 30
0.0
 11
46.953167
 21
69.466417
 31
0.0
  0
LINE
  8
1
  6
CONTINUOUS
 62
   132
  5
250
 10
46.953167
 20
69.466417
 30
0.0
 11
47.115083
 21
69.466417
 31
0.0
  0
CIRCLE
  8
1
  6
CONTINUOUS
 62
   233
  5
251
 10
46.5525
 20
72.196917
 30
0.0
 40
0.063702
210
0.0
220
0.0
230
1.0
  0
CIRCLE
  8
1
  6
CONTINUOUS
 62
   233
  5
252
 10
46.981
 20
72.196917
 30
0.0
 40
0.063702
210
0.0
220
0.0
230
1.0
  0
SOLID
  8
1
  6
CONTINUOUS
 62
   233
  5
253
 10
46.554833
 20
72.442167
 30
0.0
 11
46.495167
 21
72.435917
 31
0.0
 12
46.543667
 22
72.26
 32
0.0
 13
46.543667
 23
72.26
 33
0.0
  0
LINE
  8
1
  6
CONTINUOUS
 62
   233
  5
254
 10
46.525
 20
72.439
 30
0.0
 11
46.454333
 21
73.11825
 31
0.0
  0
LINE
  8
1
  6
CONTINUOUS
 62
   233
  5
255
 10
46.454333
 20
73.11825
 30
0.0
 11
46.128917
 21
73.11825
 31
0.0
  0
SOLID
  8
1
  6
CONTINUOUS
 62
   233
  5
256
 10
46.7475
 20
72.119
 30
0.0
 11
46.775167
 21
72.06575
 31
0.0
 12
46.921
 22
72.1755
 32
0.0
 13
46.921
 23
72.1755
 33
0.0
  0
LINE
  8
1
  6
CONTINUOUS
 62
   233
  5
257
 10
46.761333
 20
72.092417
 30
0.0
 11
45.903333
 21
71.645833
 31
0.0
  0
LINE
  8
2
  6
CONTINUOUS
 62
     2
  5
258
 10
46.6735
 20
72.4025
 30
0.0
 11
46.976083
 21
72.4025
 31
0.0
  0
LINE
  8
2
  6
CONTINUOUS
 62
     2
  5
259
 10
46.976083
 20
72.530833
 30
0.0
 11
46.976083
 21
72.30425
 31
0.0
  0
INSERT
  8
2
  6
CONTINUOUS
 62
     2
  5
25A
  2
ARR
 10
46.976083
 20
72.4025
 30
0.0
210
0.0
220
0.0
230
1.0
  0
INSERT
  8
2
  6
CONTINUOUS
 62
     2
  5
25B
  2
ARR
 10
47.115083
 20
72.4025
 30
0.0
 50
180.0
210
0.0
220
0.0
230
1.0
  0
LINE
  8
2
  6
CONTINUOUS
 62
     2
  5
25C
 10
47.115083
 20
72.4025
 30
0.0
 11
47.49775
 21
72.4025
 31
0.0
  0
TEXT
  8
2
  6
CONTINUOUS
 62
    40
  5
25D
 10
47.550083
 20
72.358167
 30
0.0
 40
0.125
  1
7/8"
  7
MONOTXT
210
0.0
220
0.0
230
1.0
  0
LINE
  8
2
  6
CONTINUOUS
 62
     2
  5
25E
 10
46.354583
 20
73.5055
 30
0.0
 11
46.354583
 21
74.064167
 31
0.0
  0
LINE
  8
2
  6
CONTINUOUS
 62
     2
  5
25F
 10
47.115083
 20
73.5055
 30
0.0
 11
47.115083
 21
74.064167
 31
0.0
  0
LINE
  8
2
  6
CONTINUOUS
 62
     2
  5
260
 10
47.115083
 20
73.79925
 30
0.0
 11
46.835417
 21
73.79925
 31
0.0
  0
INSERT
  8
2
  6
CONTINUOUS
 62
     2
  5
261
  2
ARR
 10
47.115083
 20
73.79925
 30
0.0
210
0.0
220
0.0
230
1.0
  0
INSERT
  8
2
  6
CONTINUOUS
 62
     2
  5
262
  2
ARR
 10
46.354583
 20
73.79925
 30
0.0
 50
180.0
210
0.0
220
0.0
230
1.0
  0
TEXT
  8
2
  6
CONTINUOUS
 62
    40
  5
263
 10
46.670333
 20
73.7525
 30
0.0
 40
0.125
  1
4"
  7
MONOTXT
210
0.0
220
0.0
230
1.0
  0
LINE
  8
2
  6
CONTINUOUS
 62
     2
  5
264
 10
46.621167
 20
73.79925
 30
0.0
 11
46.354583
 21
73.79925
 31
0.0
  0
LINE
  8
2
  6
CONTINUOUS
 62
     2
  5
265
 10
46.094583
 20
74.224833
 30
0.0
 11
46.485417
 21
74.224833
 31
0.0
  0
INSERT
  8
2
  6
CONTINUOUS
 62
     2
  5
266
  2
ARR
 10
46.094583
 20
74.224833
 30
0.0
 50
180.0
210
0.0
220
0.0
230
1.0
  0
TEXT
  8
2
  6
CONTINUOUS
 62
    40
  5
267
 10
46.5705
 20
74.181667
 30
0.0
 40
0.125
  1
Traffic
  7
MONOTXT
210
0.0
220
0.0
230
1.0
  0
LINE
  8
1
  6
CONTINUOUS
 62
   132
  5
268
 10
57.82575
 20
72.61625
 30
0.0
 11
57.82575
 21
67.57825
 31
0.0
  0
LINE
  8
1
  6
CONTINUOUS
 62
   132
  5
269
 10
56.35275
 20
72.61625
 30
0.0
 11
56.35275
 21
67.57825
 31
0.0
  0
LINE
  8
1
  6
CONTINUOUS
 62
   132
  5
26A
 10
56.35275
 20
71.487083
 30
0.0
 11
53.670167
 21
71.487083
 31
0.0
  0
LINE
  8
1
  6
CONTINUOUS
 62
   132
  5
26B
 10
53.670167
 20
68.89225
 30
0.0
 11
56.35275
 21
68.89225
 31
0.0
  0
LINE
  8
1
  6
CONTINUOUS
 62
   233
  5
26C
 10
53.902667
 20
71.060083
 30
0.0
 11
53.729917
 21
71.060083
 31
0.0
  0
LINE
  8
1
  6
CONTINUOUS
 62
   233
  5
26D
 10
53.729917
 20
71.060083
 30
0.0
 11
53.729917
 21
70.29975
 31
0.0
  0
LINE
  8
1
  6
CONTINUOUS
 62
   132
  5
26E
 10
53.729917
 20
70.29975
 30
0.0
 11
51.59175
 21
70.29975
 31
0.0
  0
LINE
  8
1
  6
CONTINUOUS
 62
   132
  5
26F
 10
51.59175
 20
70.29975
 30
0.0
 11
51.59175
 21
71.09025
 31
0.0
  0
LINE
  8
1
  6
CONTINUOUS
 62
   132
  5
270
 10
51.59175
 20
71.09025
 30
0.0
 11
51.370167
 21
71.09025
 31
0.0
  0
LINE
  8
1
  6
CONTINUOUS
 62
   132
  5
271
 10
51.370167
 20
71.09025
 30
0.0
 11
51.370167
 21
70.189583
 31
0.0
  0
LINE
  8
1
  6
CONTINUOUS
 62
   132
  5
272
 10
51.370167
 20
69.288833
 30
0.0
 11
51.370167
 21
70.189583
 31
0.0
  0
LINE
  8
1
  6
CONTINUOUS
 62
   132
  5
273
 10
51.59175
 20
70.079417
 30
0.0
 11
51.59175
 21
69.288833
 31
0.0
  0
LINE
  8
1
  6
CONTINUOUS
 62
   132
  5
274
 10
51.59175
 20
69.288833
 30
0.0
 11
51.370167
 21
69.288833
 31
0.0
  0
LINE
  8
1
  6
CONTINUOUS
 62
   132
  5
275
 10
53.729917
 20
70.079417
 30
0.0
 11
51.59175
 21
70.079417
 31
0.0
  0
LINE
  8
1
  6
CONTINUOUS
 62
   233
  5
276
 10
53.729917
 20
69.31925
 30
0.0
 11
53.729917
 21
70.079417
 31
0.0
  0
LINE
  8
1
  6
CONTINUOUS
 62
   233
  5
277
 10
53.902667
 20
69.31925
 30
0.0
 11
53.729917
 21
69.31925
 31
0.0
  0
LINE
  8
3
  6
HIDDEN
 62
     7
  5
278
 10
51.370167
 20
70.489833
 30
0.0
 11
51.59175
 21
70.489833
 31
0.0
  0
LINE
  8
3
  6
HIDDEN
 62
     7
  5
279
 10
51.370167
 20
69.776417
 30
0.0
 11
51.59175
 21
69.776417
 31
0.0
  0
LINE
  8
3
  6
HIDDEN
 62
     7
  5
27A
 10
51.370167
 20
69.564333
 30
0.0
 11
51.59175
 21
69.564333
 31
0.0
  0
LINE
  8
1
  6
CONTINUOUS
 62
   233
  5
27B
 10
53.729917
 20
70.864417
 30
0.0
 11
53.598417
 21
70.864417
 31
0.0
  0
LINE
  8
1
  6
CONTINUOUS
 62
   233
  5
27C
 10
53.598417
 20
70.864417
 30
0.0
 11
53.598417
 21
70.29975
 31
0.0
  0
LINE
  8
1
  6
CONTINUOUS
 62
   233
  5
27D
 10
53.598417
 20
70.776333
 30
0.0
 11
53.42175
 21
70.776333
 31
0.0
  0
LINE
  8
1
  6
CONTINUOUS
 62
   233
  5
27E
 10
53.42175
 20
70.776333
 30
0.0
 11
53.42175
 21
70.41275
 31
0.0
  0
LINE
  8
1
  6
CONTINUOUS
 62
   233
  5
27F
 10
53.42175
 20
70.41275
 30
0.0
 11
53.598417
 21
70.41275
 31
0.0
  0
LINE
  8
1
  6
CONTINUOUS
 62
   233
  5
280
 10
53.42175
 20
70.671417
 30
0.0
 11
53.219
 21
70.671417
 31
0.0
  0
LINE
  8
1
  6
CONTINUOUS
 62
   233
  5
281
 10
53.219
 20
70.671417
 30
0.0
 11
53.219
 21
70.500833
 31
0.0
  0
LINE
  8
1
  6
CONTINUOUS
 62
   233
  5
282
 10
53.42175
 20
70.500833
 30
0.0
 11
53.219
 21
70.500833
 31
0.0
  0
TEXT
  8
2
  6
CONTINUOUS
 62
    40
  5
283
 10
58.696
 20
72.9265
 30
0.0
 40
0.125
  1
Traffic
  7
MONOTXT
210
0.0
220
0.0
230
1.0
  0
TEXT
  8
2
  6
CONTINUOUS
 62
    40
  5
284
 10
49.935667
 20
70.320333
 30
0.0
 40
0.125
  1
C
  7
MONOTXT
210
0.0
220
0.0
230
1.0
  0
TEXT
  8
2
  6
CONTINUOUS
 62
    40
  5
285
 10
49.985833
 20
70.276167
 30
0.0
 40
0.125
  1
L
  7
MONOTXT
210
0.0
220
0.0
230
1.0
  0
TEXT
  8
2
  6
CONTINUOUS
 62
    40
  5
286
 10
50.212
 20
70.27575
 30
0.0
 40
0.125
  1
Posts
  7
MONOTXT
210
0.0
220
0.0
230
1.0
  0
TEXT
  8
2
  6
CONTINUOUS
 62
    40
  5
287
 10
49.929583
 20
70.007917
 30
0.0
 40
0.125
  1
and Blocks
  7
MONOTXT
210
0.0
220
0.0
230
1.0
  0
TEXT
  8
2
  6
CONTINUOUS
 62
    40
  5
288
 10
49.064083
 20
72.1505
 30
0.0
 40
0.125
  1
Steel Post
  7
MONOTXT
210
0.0
220
0.0
230
1.0
  0
LINE
  8
1
  6
CONTINUOUS
 62
   132
  5
289
 10
56.35275
 20
72.61625
 30
0.0
 11
56.721
 21
72.61625
 31
0.0
  0
LINE
  8
1
  6
CONTINUOUS
 62
   132
  5
28A
 10
56.721
 20
72.61625
 30
0.0
 11
56.916417
 21
72.90825
 31
0.0
  0
LINE
  8
1
  6
CONTINUOUS
 62
   132
  5
28B
 10
56.916417
 20
72.90825
 30
0.0
 11
57.45375
 21
72.310667
 31
0.0
  0
LINE
  8
1
  6
CONTINUOUS
 62
   132
  5
28C
 10
57.45375
 20
72.310667
 30
0.0
 11
57.668083
 21
72.61625
 31
0.0
  0
POINT
  8
1
  6
CONTINUOUS
 62
   132
  5
28D
 10
57.82575
 20
72.61625
 30
0.0
  0
LINE
  8
1
  6
CONTINUOUS
 62
   132
  5
28E
 10
56.35275
 20
67.57825
 30
0.0
 11
56.672083
 21
67.57825
 31
0.0
  0
LINE
  8
1
  6
CONTINUOUS
 62
   132
  5
28F
 10
56.672083
 20
67.57825
 30
0.0
 11
56.81125
 21
67.853667
 31
0.0
  0
LINE
  8
1
  6
CONTINUOUS
 62
   132
  5
290
 10
56.81125
 20
67.853667
 30
0.0
 11
57.389917
 21
67.28625
 31
0.0
  0
LINE
  8
1
  6
CONTINUOUS
 62
   132
  5
291
 10
57.389917
 20
67.28625
 30
0.0
 11
57.604083
 21
67.57825
 31
0.0
  0
LINE
  8
1
  6
CONTINUOUS
 62
   132
  5
292
 10
57.604083
 20
67.57825
 30
0.0
 11
57.82575
 21
67.57825
 31
0.0
  0
LINE
  8
3
  6
HIDDEN
 62
     7
  5
293
 10
53.738583
 20
70.65225
 30
0.0
 11
56.361417
 21
70.65225
 31
0.0
  0
LINE
  8
3
  6
HIDDEN
 62
     7
  5
294
 10
53.738583
 20
70.746167
 30
0.0
 11
56.361417
 21
70.746167
 31
0.0
  0
LINE
  8
3
  6
HIDDEN
 62
     7
  5
295
 10
53.738583
 20
70.528417
 30
0.0
 11
56.361417
 21
70.528417
 31
0.0
  0
LINE
  8
3
  6
HIDDEN
 62
     7
  5
296
 10
53.738583
 20
70.434667
 30
0.0
 11
56.361417
 21
70.434667
 31
0.0
  0
ARC
  8
1
  6
CONTINUOUS
 62
   233
  5
297
 10
56.288843
 20
70.59361
 30
0.0
 40
0.17172
 50
288.401919
 51
71.598075
210
0.0
220
0.0
230
1.0
  0
SOLID
  8
1
  6
CONTINUOUS
 62
   233
  5
298
 10
59.01225
 20
71.072167
 30
0.0
 11
58.95225
 21
71.072167
 31
0.0
 12
58.98225
 22
70.89225
 32
0.0
 13
58.98225
 23
70.89225
 33
0.0
  0
LINE
  8
1
  6
CONTINUOUS
 62
   233
  5
299
 10
58.98225
 20
70.89225
 30
0.0
 11
58.98225
 21
72.797833
 31
0.0
  0
LINE
  8
2
  6
CONTINUOUS
 62
     2
  5
29A
 10
56.608667
 20
70.591083
 30
0.0
 11
56.982917
 21
70.591083
 31
0.0
  0
LINE
  8
2
  6
CONTINUOUS
 62
     2
  5
29B
 10
56.59575
 20
70.189583
 30
0.0
 11
56.982917
 21
70.189583
 31
0.0
  0
LINE
  8
1
  6
CONTINUOUS
 62
   132
  5
29C
 10
56.359583
 20
70.189583
 30
0.0
 11
50.103917
 21
70.189583
 31
0.0
  0
LINE
  8
2
  6
CONTINUOUS
 62
     2
  5
29D
 10
56.822083
 20
70.917167
 30
0.0
 11
56.822083
 21
70.591083
 31
0.0
  0
INSERT
  8
2
  6
CONTINUOUS
 62
     2
  5
29E
  2
ARR
 10
56.822083
 20
70.189583
 30
0.0
 50
90.0
210
0.0
220
0.0
230
1.0
  0
INSERT
  8
2
  6
CONTINUOUS
 62
     2
  5
29F
  2
ARR
 10
56.822083
 20
70.591083
 30
0.0
 50
270.0
210
0.0
220
0.0
230
1.0
  0
LINE
  8
2
  6
CONTINUOUS
 62
     2
  5
2A0
 10
56.822083
 20
70.189583
 30
0.0
 11
56.822083
 21
69.891667
 31
0.0
  0
TEXT
  8
2
  6
CONTINUOUS
 62
    40
  5
2A1
 10
59.337833
 20
66.895417
 30
0.0
 40
0.125
  1
Rail Element
  7
MONOTXT
210
0.0
220
0.0
230
1.0
  0
SOLID
  8
2
  6
CONTINUOUS
 62
     2
  5
2A2
 10
57.6975
 20
67.413
 30
0.0
 11
57.670083
 21
67.359583
 31
0.0
 12
57.523583
 22
67.468417
 32
0.0
 13
57.523583
 23
67.468417
 33
0.0
  0
LINE
  8
2
  6
CONTINUOUS
 62
     2
  5
2A3
 10
57.523583
 20
67.468417
 30
0.0
 11
58.53525
 21
66.949417
 31
0.0
  0
LINE
  8
2
  6
CONTINUOUS
 62
     2
  5
2A4
 10
59.238
 20
66.949417
 30
0.0
 11
58.53525
 21
66.949417
 31
0.0
  0
SOLID
  8
2
  6
CONTINUOUS
 62
   132
  5
2A5
 10
51.2905
 20
70.943917
 30
0.0
 11
51.241583
 21
70.90925
 31
0.0
 12
51.370167
 22
70.779833
 32
0.0
 13
51.370167
 23
70.779833
 33
0.0
  0
LINE
  8
2
  6
CONTINUOUS
 62
     2
  5
2A6
 10
51.370167
 20
70.779833
 30
0.0
 11
50.5485
 21
72.183083
 31
0.0
  0
LINE
  8
2
  6
CONTINUOUS
 62
     2
  5
2A7
 10
50.5485
 20
72.183083
 30
0.0
 11
50.075
 21
72.183083
 31
0.0
  0
SOLID
  8
2
  6
CONTINUOUS
 62
     2
  5
2A8
 10
55.08575
 20
71.651917
 30
0.0
 11
55.028
 21
71.668417
 31
0.0
 12
55.007417
 22
71.487083
 32
0.0
 13
55.007417
 23
71.487083
 33
0.0
  0
LINE
  8
2
  6
CONTINUOUS
 62
     2
  5
2A9
 10
55.007417
 20
71.487083
 30
0.0
 11
55.322333
 21
72.58975
 31
0.0
  0
LINE
  8
2
  6
CONTINUOUS
 62
     2
  5
2AA
 10
55.322333
 20
72.58975
 30
0.0
 11
55.111667
 21
72.58975
 31
0.0
  0
SOLID
  8
2
  6
CONTINUOUS
 62
     2
  5
2AB
 10
55.622083
 20
70.913917
 30
0.0
 11
55.56375
 21
70.92825
 31
0.0
 12
55.549917
 22
70.746167
 32
0.0
 13
55.549917
 23
70.746167
 33
0.0
  0
LINE
  8
2
  6
CONTINUOUS
 62
     2
  5
2AC
 10
55.549917
 20
70.746167
 30
0.0
 11
56.186667
 21
73.337417
 31
0.0
  0
LINE
  8
2
  6
CONTINUOUS
 62
     2
  5
2AD
 10
56.186667
 20
73.337417
 30
0.0
 11
55.957917
 21
73.337417
 31
0.0
  0
TEXT
  8
2
  6
CONTINUOUS
 62
     2
  5
2AE
 10
42.14025
 20
75.088333
 30
0.0
 40
0.16
  1
WOOD GUARDRAIL POST (RECTANGULAR)
  7
MONOTXT
210
0.0
220
0.0
230
1.0
  0
TEXT
  8
2
  6
CONTINUOUS
 62
     2
  5
2AF
 10
51.813833
 20
75.133833
 30
0.0
 40
0.16
  1
WOOD GUARDRAIL POST (ROUND)
  7
MONOTXT
210
0.0
220
0.0
230
1.0
  0
TEXT
  8
2
  6
CONTINUOUS
 62
     2
  5
2B0
 10
42.817167
 20
68.457167
 30
0.0
 40
0.16
  1
STEEL GUARDRAIL POST
  7
MONOTXT
210
0.0
220
0.0
230
1.0
  0
TEXT
  8
2
  6
CONTINUOUS
 62
     2
  5
2B1
 10
43.396167
 20
68.064167
 30
0.0
 40
0.16
  1
(WOOD BLOCK)
  7
MONOTXT
210
0.0
220
0.0
230
1.0
  0
TEXT
  8
2
  6
CONTINUOUS
 62
    40
  5
2B2
 10
61.883417
 20
71.805417
 30
0.0
 40
0.133
  1
Blocks shall be centered on their posts and the center
  7
MONOTXT
210
0.0
220
0.0
230
1.0
  0
TEXT
  8
2
  6
CONTINUOUS
 62
     2
  5
2B3
 10
61.879333
 20
75.78275
 30
0.0
 40
0.25
  1
WOOD POSTS:
  7
MONOTXT
210
0.0
220
0.0
230
1.0
  0
TEXT
  8
2
  6
CONTINUOUS
 62
     2
  5
2B4
 10
61.88675
 20
72.299583
 30
0.0
 40
0.25
  1
STEEL POSTS:
  7
MONOTXT
210
0.0
220
0.0
230
1.0
  0
TEXT
  8
2
  6
CONTINUOUS
 62
     2
  5
2B5
 10
61.873917
 20
69.7795
 30
0.0
 40
0.25
  1
WOOD BLOCKS:
  7
MONOTXT
210
0.0
220
0.0
230
1.0
  0
TEXT
  8
2
  6
CONTINUOUS
 62
    40
  5
2B6
 10
44.903667
 20
79.145333
 30
0.0
 40
0.125
  1
7"
  7
MONOTXT
210
0.0
220
0.0
230
1.0
  0
LINE
  8
2
  6
CONTINUOUS
 62
     2
  5
2B7
 10
44.942417
 20
79.3525
 30
0.0
 11
44.942417
 21
79.862667
 31
0.0
  0
TEXT
  8
2
  6
CONTINUOUS
 62
    40
  5
2B8
 10
53.39525
 20
80.367167
 30
0.0
 40
0.125
  1
6"
  7
MONOTXT
210
0.0
220
0.0
230
1.0
  0
TEXT
  8
2
  6
CONTINUOUS
 62
    40
  5
2B9
 10
43.452667
 20
73.852
 30
0.0
 40
0.125
  1
6"
  7
MONOTXT
210
0.0
220
0.0
230
1.0
  0
TEXT
  8
2
  6
CONTINUOUS
 62
    40
  5
2BA
 10
66.67225
 20
71.851167
 30
0.0
 40
0.125
  1
,
  7
MONOTXT
210
0.0
220
0.0
230
1.0
  0
LINE
  8
2
  6
CONTINUOUS
 62
     2
  5
2BB
 10
42.902417
 20
71.645833
 30
0.0
 11
44.185917
 21
71.645833
 31
0.0
  0
LINE
  8
2
  6
CONTINUOUS
 62
     2
  5
2BC
 10
45.751667
 20
71.645833
 30
0.0
 11
45.903333
 21
71.645833
 31
0.0
  0
TEXT
  8
2
  6
CONTINUOUS
 62
     2
  5
2BD
 10
67.492417
 20
62.748667
 30
0.0
 40
0.3025
  1
^A
  7
MONOTXT
210
0.0
220
0.0
230
1.0
  0
TEXT
  8
2
  6
CONTINUOUS
 62
     2
  5
2BE
 10
67.528
 20
62.250333
 30
0.0
 40
0.3025
  1
^A
  7
MONOTXT
210
0.0
220
0.0
230
1.0
  0
TEXT
  8
2
  6
CONTINUOUS
 62
     2
  5
2BF
 10
67.528
 20
61.7875
 30
0.0
 40
0.3025
  1
^A
  7
MONOTXT
210
0.0
220
0.0
230
1.0
  0
TEXT
  8
2
  6
CONTINUOUS
 62
     2
  5
2C0
 10
67.528
 20
61.32475
 30
0.0
 40
0.3025
  1
^A
  7
MONOTXT
210
0.0
220
0.0
230
1.0
  0
LINE
  8
1
  6
CONTINUOUS
 62
   233
  5
2C1
 10
41.64075
 20
79.867417
 30
0.0
 11
44.299083
 21
79.867417
 31
0.0
  0
LINE
  8
1
  6
CONTINUOUS
 62
   132
  5
2C2
 10
44.299083
 20
79.867417
 30
0.0
 11
44.299083
 21
75.929167
 31
0.0
  0
LINE
  8
1
  6
CONTINUOUS
 62
   233
  5
2C3
 10
44.299083
 20
75.929167
 30
0.0
 11
44.037583
 21
75.929167
 31
0.0
  0
LINE
  8
1
  6
CONTINUOUS
 62
   233
  5
2C4
 10
44.037583
 20
75.929167
 30
0.0
 11
43.928667
 21
75.722167
 31
0.0
  0
LINE
  8
1
  6
CONTINUOUS
 62
   132
  5
2C5
 10
43.928667
 20
75.722167
 30
0.0
 11
43.198667
 21
76.081667
 31
0.0
  0
LINE
  8
1
  6
CONTINUOUS
 62
   233
  5
2C6
 10
43.198667
 20
76.081667
 30
0.0
 11
43.1115
 21
75.91825
 31
0.0
  0
LINE
  8
1
  6
CONTINUOUS
 62
   132
  5
2C7
 10
43.1115
 20
75.91825
 30
0.0
 11
42.77375
 21
75.91825
 31
0.0
  0
LINE
  8
1
  6
CONTINUOUS
 62
   132
  5
2C8
 10
42.77375
 20
75.91825
 30
0.0
 11
42.77375
 21
79.867417
 31
0.0
  0
LINE
  8
1
  6
CONTINUOUS
 62
   233
  5
2C9
 10
41.64075
 20
79.867417
 30
0.0
 11
41.64075
 21
77.367333
 31
0.0
  0
LINE
  8
1
  6
CONTINUOUS
 62
   233
  5
2CA
 10
41.64075
 20
77.367333
 30
0.0
 11
42.77375
 21
77.367333
 31
0.0
  0
LINE
  8
3
  6
HIDDEN
 62
     7
  5
2CB
 10
41.64075
 20
78.682667
 30
0.0
 11
44.299083
 21
78.682667
 31
0.0
  0
LINE
  8
3
  6
HIDDEN
 62
     7
  5
2CC
 10
41.64075
 20
78.632167
 30
0.0
 11
44.299083
 21
78.632167
 31
0.0
  0
LINE
  8
3
  6
HIDDEN
 62
     7
  5
2CD
 10
41.64075
 20
78.550917
 30
0.0
 11
44.299083
 21
78.550917
 31
0.0
  0
LINE
  8
3
  6
HIDDEN
 62
     7
  5
2CE
 10
41.64075
 20
78.506083
 30
0.0
 11
44.299083
 21
78.506083
 31
0.0
  0
LINE
  8
1
  6
CONTINUOUS
 62
   233
  5
2CF
 10
44.299083
 20
78.775667
 30
0.0
 11
44.3785
 21
78.775667
 31
0.0
  0
LINE
  8
1
  6
CONTINUOUS
 62
   233
  5
2D0
 10
44.3785
 20
78.775667
 30
0.0
 11
44.3785
 21
78.440417
 31
0.0
  0
LINE
  8
1
  6
CONTINUOUS
 62
   233
  5
2D1
 10
44.3785
 20
78.440417
 30
0.0
 11
44.299083
 21
78.440417
 31
0.0
  0
LINE
  8
1
  6
CONTINUOUS
 62
   233
  5
2D2
 10
44.3785
 20
78.743917
 30
0.0
 11
44.521917
 21
78.743917
 31
0.0
  0
LINE
  8
1
  6
CONTINUOUS
 62
   233
  5
2D3
 10
44.521917
 20
78.743917
 30
0.0
 11
44.521917
 21
78.4705
 31
0.0
  0
LINE
  8
1
  6
CONTINUOUS
 62
   233
  5
2D4
 10
44.521917
 20
78.4705
 30
0.0
 11
44.3785
 21
78.4705
 31
0.0
  0
LINE
  8
1
  6
CONTINUOUS
 62
   233
  5
2D5
 10
44.3785
 20
78.69225
 30
0.0
 11
44.521917
 21
78.69225
 31
0.0
  0
LINE
  8
1
  6
CONTINUOUS
 62
   233
  5
2D6
 10
44.3785
 20
78.65225
 30
0.0
 11
44.521917
 21
78.65225
 31
0.0
  0
LINE
  8
1
  6
CONTINUOUS
 62
   233
  5
2D7
 10
44.3785
 20
78.567167
 30
0.0
 11
44.521917
 21
78.567167
 31
0.0
  0
LINE
  8
1
  6
CONTINUOUS
 62
   233
  5
2D8
 10
44.3785
 20
78.518833
 30
0.0
 11
44.521917
 21
78.518833
 31
0.0
  0
LINE
  8
1
  6
CONTINUOUS
 62
   233
  5
2D9
 10
44.521917
 20
78.65225
 30
0.0
 11
44.670417
 21
78.65225
 31
0.0
  0
LINE
  8
1
  6
CONTINUOUS
 62
   233
  5
2DA
 10
44.670417
 20
78.65225
 30
0.0
 11
44.670417
 21
78.567167
 31
0.0
  0
LINE
  8
1
  6
CONTINUOUS
 62
   233
  5
2DB
 10
44.521917
 20
78.567167
 30
0.0
 11
44.670417
 21
78.567167
 31
0.0
  0
LINE
  8
1
  6
CONTINUOUS
 62
   233
  5
2DC
 10
44.545333
 20
78.635917
 30
0.0
 11
44.545333
 21
78.583083
 31
0.0
  0
LINE
  8
1
  6
CONTINUOUS
 62
   233
  5
2DD
 10
44.575333
 20
78.635917
 30
0.0
 11
44.575333
 21
78.583083
 31
0.0
  0
LINE
  8
1
  6
CONTINUOUS
 62
   233
  5
2DE
 10
44.612
 20
78.635917
 30
0.0
 11
44.612
 21
78.583083
 31
0.0
  0
LINE
  8
1
  6
CONTINUOUS
 62
   233
  5
2DF
 10
44.642
 20
78.635917
 30
0.0
 11
44.642
 21
78.583083
 31
0.0
  0
LINE
  8
1
  6
CONTINUOUS
 62
   233
  5
2E0
 10
46.454
 20
75.92725
 30
0.0
 11
46.7375
 21
75.92725
 31
0.0
  0
LINE
  8
1
  6
CONTINUOUS
 62
   233
  5
2E1
 10
46.7375
 20
75.92725
 30
0.0
 11
46.880083
 21
76.121583
 31
0.0
  0
LINE
  8
1
  6
CONTINUOUS
 62
   132
  5
2E2
 10
46.880083
 20
76.121583
 30
0.0
 11
47.165167
 21
75.668083
 31
0.0
  0
LINE
  8
1
  6
CONTINUOUS
 62
   132
  5
2E3
 10
46.454
 20
79.866
 30
0.0
 11
47.579917
 21
79.866
 31
0.0
  0
LINE
  8
1
  6
CONTINUOUS
 62
   132
  5
2E4
 10
46.454
 20
79.866
 30
0.0
 11
46.454
 21
75.92725
 31
0.0
  0
CIRCLE
  8
1
  6
CONTINUOUS
 62
   233
  5
2E5
 10
47.025417
 20
78.631083
 30
0.0
 40
0.071957
210
0.0
220
0.0
230
1.0
  0
LINE
  8
2
  6
CONTINUOUS
 62
     2
  5
2E6
 10
47.0315
 20
78.504167
 30
0.0
 11
47.0315
 21
78.1615
 31
0.0
  0
LINE
  8
2
  6
CONTINUOUS
 62
     2
  5
2E7
 10
46.454
 20
78.323667
 30
0.0
 11
47.0315
 21
78.323667
 31
0.0
  0
LINE
  8
2
  6
CONTINUOUS
 62
     2
  5
2E8
 10
44.297917
 20
79.97175
 30
0.0
 11
44.297917
 21
80.657083
 31
0.0
  0
LINE
  8
2
  6
CONTINUOUS
 62
     2
  5
2E9
 10
42.769167
 20
79.959167
 30
0.0
 11
42.769167
 21
80.657083
 31
0.0
  0
LINE
  8
2
  6
CONTINUOUS
 62
     2
  5
2EA
 10
41.635167
 20
79.959167
 30
0.0
 11
41.635167
 21
80.657083
 31
0.0
  0
LINE
  8
2
  6
CONTINUOUS
 62
     2
  5
2EB
 10
41.635167
 20
80.366417
 30
0.0
 11
42.062917
 21
80.366417
 31
0.0
  0
LINE
  8
2
  6
CONTINUOUS
 62
     2
  5
2EC
 10
42.589167
 20
80.366417
 30
0.0
 11
42.410083
 21
80.366417
 31
0.0
  0
INSERT
  8
2
  6
CONTINUOUS
 62
     2
  5
2ED
  2
ARR
 10
42.769167
 20
80.366333
 30
0.0
210
0.0
220
0.0
230
1.0
  0
INSERT
  8
2
  6
CONTINUOUS
 62
     2
  5
2EE
  2
ARR
 10
44.297917
 20
80.366333
 30
0.0
210
0.0
220
0.0
230
1.0
  0
INSERT
  8
2
  6
CONTINUOUS
 62
     2
  5
2EF
  2
ARR
 10
42.769167
 20
80.366333
 30
0.0
 50
180.0
210
0.0
220
0.0
230
1.0
  0
INSERT
  8
2
  6
CONTINUOUS
 62
     2
  5
2F0
  2
ARR
 10
41.635167
 20
80.366333
 30
0.0
 50
180.0
210
0.0
220
0.0
230
1.0
  0
LINE
  8
2
  6
CONTINUOUS
 62
     2
  5
2F1
 10
46.453667
 20
80.354833
 30
0.0
 11
46.908
 21
80.354833
 31
0.0
  0
LINE
  8
2
  6
CONTINUOUS
 62
     2
  5
2F2
 10
46.453667
 20
79.97175
 30
0.0
 11
46.453667
 21
80.657083
 31
0.0
  0
INSERT
  8
2
  6
CONTINUOUS
 62
     2
  5
2F3
  2
ARR
 10
46.453667
 20
80.354833
 30
0.0
 50
180.0
210
0.0
220
0.0
230
1.0
  0
LINE
  8
2
  6
CONTINUOUS
 62
     2
  5
2F4
 10
44.942417
 20
78.6135
 30
0.0
 11
44.942417
 21
79.086417
 31
0.0
  0
LINE
  8
2
  6
CONTINUOUS
 62
     2
  5
2F5
 10
44.433667
 20
79.862667
 30
0.0
 11
45.19175
 21
79.862667
 31
0.0
  0
LINE
  8
2
  6
CONTINUOUS
 62
     2
  5
2F6
 10
44.738917
 20
78.6135
 30
0.0
 11
45.19175
 21
78.6135
 31
0.0
  0
INSERT
  8
2
  6
CONTINUOUS
 62
     2
  5
2F7
  2
ARR
 10
44.942417
 20
79.862583
 30
0.0
 50
90.0
210
0.0
220
0.0
230
1.0
  0
INSERT
  8
2
  6
CONTINUOUS
 62
     2
  5
2F8
  2
ARR
 10
44.942417
 20
78.6135
 30
0.0
 50
270.0
210
0.0
220
0.0
230
1.0
  0
ARC
  8
1
  6
CONTINUOUS
 62
   132
  5
2F9
 10
41.108167
 20
77.91575
 30
0.0
 40
0.04791
 50
134.286572
 51
179.552286
210
0.0
220
0.0
230
1.0
  0
ARC
  8
1
  6
CONTINUOUS
 62
   233
  5
2FA
 10
41.109667
 20
77.920583
 30
0.0
 40
0.086203
 50
120.03825
 51
182.987283
210
0.0
220
0.0
230
1.0
  0
ARC
  8
1
  6
CONTINUOUS
 62
   132
  5
2FB
 10
41.110083
 20
77.918
 30
0.0
 40
0.122406
 50
133.542117
 51
180.876203
210
0.0
220
0.0
230
1.0
  0
ARC
  8
1
  6
CONTINUOUS
 62
   233
  5
2FC
 10
41.514167
 20
78.434583
 30
0.0
 40
0.067563
 50
300.232697
 51
359.852675
210
0.0
220
0.0
230
1.0
  0
ARC
  8
1
  6
CONTINUOUS
 62
   233
  5
2FD
 10
41.513833
 20
78.43425
 30
0.0
 40
0.096292
 50
300.055728
 51
0.020269
210
0.0
220
0.0
230
1.0
  0
ARC
  8
1
  6
CONTINUOUS
 62
   233
  5
2FE
 10
41.513833
 20
78.431417
 30
0.0
 40
0.127251
 50
314.7944
 51
1.245628
210
0.0
220
0.0
230
1.0
  0
LINE
  8
1
  6
CONTINUOUS
 62
   132
  5
2FF
 10
41.07475
 20
77.950083
 30
0.0
 11
41.6035
 21
78.341083
 31
0.0
  0
LINE
  8
1
  6
CONTINUOUS
 62
   233
  5
300
 10
41.066583
 20
77.99525
 30
0.0
 11
41.562
 21
78.350917
 31
0.0
  0
LINE
  8
1
  6
CONTINUOUS
 62
   233
  5
301
 10
41.02575
 20
78.00675
 30
0.0
 11
41.548167
 21
78.376167
 31
0.0
  0
LINE
  8
1
  6
CONTINUOUS
 62
   132
  5
302
 10
41.07475
 20
77.882167
 30
0.0
 11
41.582417
 21
77.50675
 31
0.0
  0
ARC
  8
1
  6
CONTINUOUS
 62
   233
  5
303
 10
41.109667
 20
77.911667
 30
0.0
 40
0.086203
 50
177.012711
 51
239.961744
210
0.0
220
0.0
230
1.0
  0
ARC
  8
1
  6
CONTINUOUS
 62
   233
  5
304
 10
41.108167
 20
77.9165
 30
0.0
 40
0.04791
 50
180.447711
 51
225.713425
210
0.0
220
0.0
230
1.0
  0
ARC
  8
1
  6
CONTINUOUS
 62
   132
  5
305
 10
41.110083
 20
77.91425
 30
0.0
 40
0.122406
 50
179.123794
 51
226.457881
210
0.0
220
0.0
230
1.0
  0
LINE
  8
1
  6
CONTINUOUS
 62
   233
  5
306
 10
41.02575
 20
77.8255
 30
0.0
 11
41.582417
 21
77.431833
 31
0.0
  0
LINE
  8
1
  6
CONTINUOUS
 62
   233
  5
307
 10
41.066583
 20
77.837
 30
0.0
 11
41.582417
 21
77.46675
 31
0.0
  0
LINE
  8
1
  6
CONTINUOUS
 62
   233
  5
308
 10
41.066583
 20
79.353917
 30
0.0
 11
41.611667
 21
79.74525
 31
0.0
  0
LINE
  8
1
  6
CONTINUOUS
 62
   233
  5
309
 10
41.02575
 20
79.365417
 30
0.0
 11
41.592583
 21
79.766333
 31
0.0
  0
ARC
  8
1
  6
CONTINUOUS
 62
   233
  5
30A
 10
41.110083
 20
79.276667
 30
0.0
 40
0.122406
 50
133.542117
 51
180.876203
210
0.0
220
0.0
230
1.0
  0
ARC
  8
1
  6
CONTINUOUS
 62
   132
  5
30B
 10
41.108167
 20
79.274417
 30
0.0
 40
0.04791
 50
134.286572
 51
179.552286
210
0.0
220
0.0
230
1.0
  0
ARC
  8
1
  6
CONTINUOUS
 62
   233
  5
30C
 10
41.109667
 20
79.279333
 30
0.0
 40
0.086203
 50
120.03825
 51
182.987283
210
0.0
220
0.0
230
1.0
  0
LINE
  8
1
  6
CONTINUOUS
 62
   233
  5
30D
 10
41.07475
 20
79.30875
 30
0.0
 11
41.633083
 21
79.721667
 31
0.0
  0
LINE
  8
1
  6
CONTINUOUS
 62
   233
  5
30E
 10
41.02575
 20
79.18425
 30
0.0
 11
41.548167
 21
78.81475
 31
0.0
  0
LINE
  8
1
  6
CONTINUOUS
 62
   233
  5
30F
 10
41.066583
 20
79.195667
 30
0.0
 11
41.562
 21
78.84
 31
0.0
  0
LINE
  8
1
  6
CONTINUOUS
 62
   132
  5
310
 10
41.07475
 20
79.240917
 30
0.0
 11
41.6035
 21
78.849833
 31
0.0
  0
ARC
  8
1
  6
CONTINUOUS
 62
   233
  5
311
 10
41.513833
 20
78.7595
 30
0.0
 40
0.127251
 50
358.754367
 51
45.205594
210
0.0
220
0.0
230
1.0
  0
ARC
  8
1
  6
CONTINUOUS
 62
   233
  5
312
 10
41.513833
 20
78.756667
 30
0.0
 40
0.096292
 50
359.979728
 51
59.944269
210
0.0
220
0.0
230
1.0
  0
ARC
  8
1
  6
CONTINUOUS
 62
   233
  5
313
 10
41.514167
 20
78.756417
 30
0.0
 40
0.067563
 50
0.147319
 51
59.767297
210
0.0
220
0.0
230
1.0
  0
ARC
  8
1
  6
CONTINUOUS
 62
   233
  5
314
 10
41.110083
 20
79.272917
 30
0.0
 40
0.122406
 50
179.123794
 51
226.457881
210
0.0
220
0.0
230
1.0
  0
ARC
  8
1
  6
CONTINUOUS
 62
   233
  5
315
 10
41.109667
 20
79.270333
 30
0.0
 40
0.086203
 50
177.012711
 51
239.961744
210
0.0
220
0.0
230
1.0
  0
ARC
  8
1
  6
CONTINUOUS
 62
   233
  5
316
 10
41.108167
 20
79.275167
 30
0.0
 40
0.04791
 50
180.447711
 51
225.713425
210
0.0
220
0.0
230
1.0
  0
LINE
  8
1
  6
CONTINUOUS
 62
   233
  5
317
 10
41.610083
 20
78.756667
 30
0.0
 11
41.610083
 21
78.43425
 31
0.0
  0
LINE
  8
1
  6
CONTINUOUS
 62
   233
  5
318
 10
41.582417
 20
77.50675
 30
0.0
 11
41.582417
 21
77.431833
 31
0.0
  0
LINE
  8
2
  6
CONTINUOUS
 62
     2
  5
319
 10
41.495417
 20
79.782917
 30
0.0
 11
40.700917
 21
79.782917
 31
0.0
  0
LINE
  8
2
  6
CONTINUOUS
 62
     2
  5
31A
 10
41.561667
 20
79.865583
 30
0.0
 11
40.105083
 21
79.865583
 31
0.0
  0
LINE
  8
2
  6
CONTINUOUS
 62
     2
  5
31B
 10
41.495417
 20
77.431333
 30
0.0
 11
40.700917
 21
77.431333
 31
0.0
  0
LINE
  8
2
  6
CONTINUOUS
 62
     2
  5
31C
 10
41.561667
 20
77.364333
 30
0.0
 11
40.105083
 21
77.364333
 31
0.0
  0
LINE
  8
2
  6
CONTINUOUS
 62
     2
  5
31D
 10
40.426667
 20
77.364333
 30
0.0
 11
40.426667
 21
78.486083
 31
0.0
  0
LINE
  8
2
  6
CONTINUOUS
 62
     2
  5
31E
 10
41.117083
 20
79.518417
 30
0.0
 11
41.117083
 21
79.782917
 31
0.0
  0
INSERT
  8
2
  6
CONTINUOUS
 62
     2
  5
31F
  2
ARR
 10
41.117083
 20
79.782917
 30
0.0
 50
90.0
210
0.0
220
0.0
230
1.0
  0
INSERT
  8
2
  6
CONTINUOUS
 62
     2
  5
320
  2
ARR
 10
41.117083
 20
79.865583
 30
0.0
 50
270.0
210
0.0
220
0.0
230
1.0
  0
INSERT
  8
2
  6
CONTINUOUS
 62
     2
  5
321
  2
ARR
 10
40.426667
 20
79.865583
 30
0.0
 50
90.0
210
0.0
220
0.0
230
1.0
  0
INSERT
  8
2
  6
CONTINUOUS
 62
     2
  5
322
  2
ARR
 10
40.426667
 20
77.364333
 30
0.0
 50
270.0
210
0.0
220
0.0
230
1.0
  0
LINE
  8
2
  6
CONTINUOUS
 62
     2
  5
323
 10
41.13625
 20
77.689583
 30
0.0
 11
41.13625
 21
77.431333
 31
0.0
  0
LINE
  8
2
  6
CONTINUOUS
 62
     2
  5
324
 10
41.13625
 20
77.364333
 30
0.0
 11
41.13625
 21
77.070917
 31
0.0
  0
INSERT
  8
2
  6
CONTINUOUS
 62
     2
  5
325
  2
ARR
 10
41.13625
 20
77.431333
 30
0.0
 50
270.0
210
0.0
220
0.0
230
1.0
  0
INSERT
  8
2
  6
CONTINUOUS
 62
     2
  5
326
  2
ARR
 10
41.13625
 20
77.364333
 30
0.0
 50
90.0
210
0.0
220
0.0
230
1.0
  0
TEXT
  8
2
  6
CONTINUOUS
 62
    40
  5
327
 10
38.662083
 20
76.611083
 30
0.0
 40
0.125
  1
6" x 6", Wood Block
  7
MONOTXT
210
0.0
220
0.0
230
1.0
  0
TEXT
  8
2
  6
CONTINUOUS
 62
    40
  5
328
 10
43.460667
 20
80.314333
 30
0.0
 40
0.125
  1
8"
  7
MONOTXT
210
0.0
220
0.0
230
1.0
  0
TEXT
  8
2
  6
CONTINUOUS
 62
     2
  5
329
 10
40.914167
 20
80.296
 30
0.0
 40
0.125
  1
7/8"
  7
MONOTXT
210
0.0
220
0.0
230
1.0
  0
LINE
  8
2
  6
CONTINUOUS
 62
     2
  5
32A
 10
43.366667
 20
80.366417
 30
0.0
 11
43.379833
 21
80.366417
 31
0.0
  0
LINE
  8
2
  6
CONTINUOUS
 62
     2
  5
32B
 10
42.410083
 20
80.366417
 30
0.0
 11
43.405667
 21
80.366417
 31
0.0
  0
LINE
  8
2
  6
CONTINUOUS
 62
     2
  5
32C
 10
43.405667
 20
80.366417
 30
0.0
 11
43.432333
 21
80.366417
 31
0.0
  0
LINE
  8
2
  6
CONTINUOUS
 62
     2
  5
32D
 10
43.67975
 20
80.366417
 30
0.0
 11
44.297917
 21
80.366417
 31
0.0
  0
TEXT
  8
2
  6
CONTINUOUS
 62
    40
  5
32E
 10
44.847083
 20
77.11875
 30
0.0
 40
0.125
  1
Circular
  7
MONOTXT
210
0.0
220
0.0
230
1.0
  0
TEXT
  8
2
  6
CONTINUOUS
 62
    40
  5
32F
 10
44.847083
 20
76.904417
 30
0.0
 40
0.125
  1
Washer
  7
MONOTXT
210
0.0
220
0.0
230
1.0
  0
SOLID
  8
2
  6
CONTINUOUS
 62
     2
  5
330
 10
46.77225
 20
78.657
 30
0.0
 11
46.775583
 21
78.597083
 31
0.0
 12
46.953667
 22
78.636917
 32
0.0
 13
46.953667
 23
78.636917
 33
0.0
  0
LINE
  8
2
  6
CONTINUOUS
 62
     2
  5
331
 10
46.773917
 20
78.627083
 30
0.0
 11
46.40925
 21
78.607
 31
0.0
  0
LINE
  8
2
  6
CONTINUOUS
 62
     2
  5
332
 10
46.40925
 20
78.607
 30
0.0
 11
45.997583
 21
77.912417
 31
0.0
  0
TEXT
  8
2
  6
CONTINUOUS
 62
    40
  5
333
 10
46.680167
 20
78.342083
 30
0.0
 40
0.125
  1
3"
  7
MONOTXT
210
0.0
220
0.0
230
1.0
  0
INSERT
  8
2
  6
CONTINUOUS
 62
     2
  5
334
  2
ARR
 10
47.0315
 20
78.323667
 30
0.0
210
0.0
220
0.0
230
1.0
  0
INSERT
  8
2
  6
CONTINUOUS
 62
     2
  5
335
  2
ARR
 10
46.454
 20
78.323667
 30
0.0
 50
180.0
210
0.0
220
0.0
230
1.0
  0
SOLID
  8
2
  6
CONTINUOUS
 62
     2
  5
336
 10
44.35
 20
78.257917
 30
0.0
 11
44.409417
 21
78.266583
 31
0.0
 12
44.354
 22
78.440417
 32
0.0
 13
44.354
 23
78.440417
 33
0.0
  0
LINE
  8
2
  6
CONTINUOUS
 62
     2
  5
337
 10
44.379667
 20
78.262333
 30
0.0
 11
44.543
 21
77.1305
 31
0.0
  0
LINE
  8
2
  6
CONTINUOUS
 62
     2
  5
338
 10
44.543
 20
77.1305
 30
0.0
 11
44.785083
 21
77.1305
 31
0.0
  0
SOLID
  8
2
  6
CONTINUOUS
 62
     2
  5
339
 10
42.6595
 20
78.323583
 30
0.0
 11
42.718667
 21
78.333167
 31
0.0
 12
42.660167
 22
78.506083
 32
0.0
 13
42.660167
 23
78.506083
 33
0.0
  0
LINE
  8
2
  6
CONTINUOUS
 62
     2
  5
33A
 10
42.689083
 20
78.328417
 30
0.0
 11
42.733083
 21
78.058083
 31
0.0
  0
LINE
  8
2
  6
CONTINUOUS
 62
     2
  5
33B
 10
42.733083
 20
78.058083
 30
0.0
 11
44.502333
 21
78.058083
 31
0.0
  0
TEXT
  8
2
  6
CONTINUOUS
 62
    40
  5
33C
 10
41.79975
 20
79.111333
 30
0.0
 40
0.125
  1
5/8"
  7
MONOTXT
210
0.0
220
0.0
230
1.0
  0
TEXT
  8
2
  6
CONTINUOUS
 62
    40
  5
33D
 10
41.79975
 20
78.897083
 30
0.0
 40
0.125
  1
Bolt
  7
MONOTXT
210
0.0
220
0.0
230
1.0
  0
SOLID
  8
2
  6
CONTINUOUS
 62
     2
  5
33E
 10
42.440417
 20
78.834167
 30
0.0
 11
42.385833
 21
78.859
 31
0.0
 12
42.33875
 22
78.682667
 32
0.0
 13
42.33875
 23
78.682667
 33
0.0
  0
LINE
  8
2
  6
CONTINUOUS
 62
     2
  5
33F
 10
42.413083
 20
78.846583
 30
0.0
 11
42.493417
 21
79.023667
 31
0.0
  0
LINE
  8
2
  6
CONTINUOUS
 62
     2
  5
340
 10
42.493417
 20
79.023667
 30
0.0
 11
42.1925
 21
79.023667
 31
0.0
  0
LINE
  8
3
  6
HIDDEN
 62
     7
  5
341
 10
42.471917
 20
77.334667
 30
0.0
 11
42.499
 21
77.3105
 31
0.0
  0
LINE
  8
3
  6
HIDDEN
 62
     7
  5
342
 10
42.471917
 20
77.334667
 30
0.0
 11
42.446667
 21
77.307917
 31
0.0
  0
ARC
  8
3
  6
HIDDEN
 62
     7
  5
343
 10
42.893417
 20
77.78775
 30
0.0
 40
0.098114
 50
313.618881
 51
347.728547
210
0.0
220
0.0
230
1.0
  0
LINE
  8
3
  6
HIDDEN
 62
     7
  5
344
 10
42.529333
 20
77.283583
 30
0.0
 11
42.555833
 21
77.259917
 31
0.0
  0
SOLID
  8
2
  6
CONTINUOUS
 62
     2
  5
345
 10
41.67175
 20
77.245083
 30
0.0
 11
41.71875
 21
77.20775
 31
0.0
 12
41.807167
 22
77.367333
 32
0.0
 13
41.807167
 23
77.367333
 33
0.0
  0
LINE
  8
2
  6
CONTINUOUS
 62
     2
  5
346
 10
41.69525
 20
77.226417
 30
0.0
 11
41.24775
 21
76.662833
 31
0.0
  0
TEXT
  8
2
  6
CONTINUOUS
 62
    40
  5
347
 10
40.29125
 20
78.584583
 30
0.0
 40
0.125
  1
14"
  7
MONOTXT
210
0.0
220
0.0
230
1.0
  0
TEXT
  8
2
  6
CONTINUOUS
 62
    40
  5
348
 10
40.9255
 20
76.86725
 30
0.0
 40
0.125
  1
7/8"
  7
MONOTXT
210
0.0
220
0.0
230
1.0
  0
LINE
  8
2
  6
CONTINUOUS
 62
     2
  5
349
 10
40.426667
 20
78.825417
 30
0.0
 11
40.426667
 21
79.865583
 31
0.0
  0
LINE
  8
2
  6
CONTINUOUS
 62
     2
  5
34A
 10
50.570917
 20
78.832
 30
0.0
 11
50.570917
 21
79.869167
 31
0.0
  0
TEXT
  8
2
  6
CONTINUOUS
 62
    40
  5
34B
 10
51.06975
 20
76.938
 30
0.0
 40
0.125
  1
7/8"
  7
MONOTXT
210
0.0
220
0.0
230
1.0
  0
TEXT
  8
2
  6
CONTINUOUS
 62
    40
  5
34C
 10
50.4355
 20
78.591083
 30
0.0
 40
0.125
  1
14"
  7
MONOTXT
210
0.0
220
0.0
230
1.0
  0
LINE
  8
3
  6
HIDDEN
 62
     7
  5
34D
 10
52.673583
 20
77.290083
 30
0.0
 11
52.700083
 21
77.2665
 31
0.0
  0
ARC
  8
3
  6
HIDDEN
 62
     7
  5
34E
 10
53.037667
 20
77.79425
 30
0.0
 40
0.098114
 50
313.618881
 51
347.728547
210
0.0
220
0.0
230
1.0
  0
ARC
  8
3
  6
HIDDEN
 62
     7
  5
34F
 10
53.147917
 20
77.669917
 30
0.0
 40
0.104458
 50
97.922961
 51
131.538544
210
0.0
220
0.0
230
1.0
  0
LINE
  8
3
  6
HIDDEN
 62
     7
  5
350
 10
52.700083
 20
77.2665
 30
0.0
 11
52.674583
 21
77.238
 31
0.0
  0
LINE
  8
3
  6
HIDDEN
 62
     7
  5
351
 10
52.616167
 20
77.341167
 30
0.0
 11
52.590917
 21
77.314417
 31
0.0
  0
LINE
  8
3
  6
HIDDEN
 62
     7
  5
352
 10
53.105333
 20
77.72325
 30
0.0
 11
52.673583
 21
77.290083
 31
0.0
  0
LINE
  8
3
  6
HIDDEN
 62
     7
  5
353
 10
52.616167
 20
77.341167
 30
0.0
 11
52.64325
 21
77.317
 31
0.0
  0
LINE
  8
3
  6
HIDDEN
 62
     7
  5
354
 10
52.590917
 20
77.314417
 30
0.0
 11
52.674583
 21
77.238
 31
0.0
  0
LINE
  8
3
  6
HIDDEN
 62
     7
  5
355
 10
53.078667
 20
77.748083
 30
0.0
 11
52.65175
 21
77.32475
 31
0.0
  0
LINE
  8
2
  6
CONTINUOUS
 62
     2
  5
356
 10
52.637667
 20
79.04225
 30
0.0
 11
52.33675
 21
79.04225
 31
0.0
  0
LINE
  8
2
  6
CONTINUOUS
 62
     2
  5
357
 10
52.557333
 20
78.86525
 30
0.0
 11
52.637667
 21
79.04225
 31
0.0
  0
SOLID
  8
2
  6
CONTINUOUS
 62
     2
  5
358
 10
52.584583
 20
78.852833
 30
0.0
 11
52.530083
 21
78.877583
 31
0.0
 12
52.483
 22
78.70125
 32
0.0
 13
52.483
 23
78.70125
 33
0.0
  0
TEXT
  8
2
  6
CONTINUOUS
 62
     2
  5
359
 10
51.944
 20
78.915667
 30
0.0
 40
0.125
  1
Bolt
  7
MONOTXT
210
0.0
220
0.0
230
1.0
  0
TEXT
  8
2
  6
CONTINUOUS
 62
     2
  5
35A
 10
51.944
 20
79.13
 30
0.0
 40
0.125
  1
5/8"
  7
MONOTXT
210
0.0
220
0.0
230
1.0
  0
LINE
  8
2
  6
CONTINUOUS
 62
     2
  5
35B
 10
52.833333
 20
78.334917
 30
0.0
 11
52.8895
 21
77.989833
 31
0.0
  0
SOLID
  8
2
  6
CONTINUOUS
 62
     2
  5
35C
 10
52.80375
 20
78.330083
 30
0.0
 11
52.862917
 21
78.33975
 31
0.0
 12
52.804417
 22
78.512583
 32
0.0
 13
52.804417
 23
78.512583
 33
0.0
  0
TEXT
  8
2
  6
CONTINUOUS
 62
    40
  5
35D
 10
54.61025
 20
76.362833
 30
0.0
 40
0.125
  1
Washer
  7
MONOTXT
210
0.0
220
0.0
230
1.0
  0
TEXT
  8
2
  6
CONTINUOUS
 62
    40
  5
35E
 10
54.61025
 20
76.577083
 30
0.0
 40
0.125
  1
Circular
  7
MONOTXT
210
0.0
220
0.0
230
1.0
  0
LINE
  8
2
  6
CONTINUOUS
 62
     2
  5
35F
 10
53.787
 20
80.372917
 30
0.0
 11
54.06225
 21
80.372917
 31
0.0
  0
LINE
  8
2
  6
CONTINUOUS
 62
     2
  5
360
 10
52.554333
 20
80.372917
 30
0.0
 11
53.190417
 21
80.372917
 31
0.0
  0
TEXT
  8
2
  6
CONTINUOUS
 62
    40
  5
361
 10
51.058417
 20
80.2995
 30
0.0
 40
0.125
  1
7/8"
  7
MONOTXT
210
0.0
220
0.0
230
1.0
  0
INSERT
  8
2
  6
CONTINUOUS
 62
     2
  5
362
  2
ARR
 10
51.2805
 20
77.370833
 30
0.0
 50
90.0
210
0.0
220
0.0
230
1.0
  0
INSERT
  8
2
  6
CONTINUOUS
 62
     2
  5
363
  2
ARR
 10
51.2805
 20
77.437833
 30
0.0
 50
270.0
210
0.0
220
0.0
230
1.0
  0
LINE
  8
2
  6
CONTINUOUS
 62
     2
  5
364
 10
51.2805
 20
77.370833
 30
0.0
 11
51.2805
 21
77.0775
 31
0.0
  0
LINE
  8
2
  6
CONTINUOUS
 62
     2
  5
365
 10
51.2805
 20
77.696167
 30
0.0
 11
51.2805
 21
77.437833
 31
0.0
  0
INSERT
  8
2
  6
CONTINUOUS
 62
     2
  5
366
  2
ARR
 10
50.570917
 20
77.370833
 30
0.0
 50
270.0
210
0.0
220
0.0
230
1.0
  0
INSERT
  8
2
  6
CONTINUOUS
 62
     2
  5
367
  2
ARR
 10
50.570917
 20
79.869167
 30
0.0
 50
90.0
210
0.0
220
0.0
230
1.0
  0
INSERT
  8
2
  6
CONTINUOUS
 62
     2
  5
368
  2
ARR
 10
51.261333
 20
79.869667
 30
0.0
 50
270.0
210
0.0
220
0.0
230
1.0
  0
INSERT
  8
2
  6
CONTINUOUS
 62
     2
  5
369
  2
ARR
 10
51.261333
 20
79.7885
 30
0.0
 50
90.0
210
0.0
220
0.0
230
1.0
  0
LINE
  8
2
  6
CONTINUOUS
 62
     2
  5
36A
 10
51.261333
 20
79.49325
 30
0.0
 11
51.261333
 21
79.7885
 31
0.0
  0
LINE
  8
2
  6
CONTINUOUS
 62
     2
  5
36B
 10
50.570917
 20
77.370833
 30
0.0
 11
50.570917
 21
78.492583
 31
0.0
  0
LINE
  8
2
  6
CONTINUOUS
 62
     2
  5
36C
 10
51.705917
 20
77.370833
 30
0.0
 11
50.249333
 21
77.370833
 31
0.0
  0
LINE
  8
2
  6
CONTINUOUS
 62
     2
  5
36D
 10
51.639667
 20
77.437833
 30
0.0
 11
50.845167
 21
77.437833
 31
0.0
  0
LINE
  8
2
  6
CONTINUOUS
 62
     2
  5
36E
 10
51.705917
 20
79.869167
 30
0.0
 11
50.249333
 21
79.869167
 31
0.0
  0
LINE
  8
2
  6
CONTINUOUS
 62
     2
  5
36F
 10
51.639667
 20
79.7885
 30
0.0
 11
50.845167
 21
79.7885
 31
0.0
  0
LINE
  8
1
  6
CONTINUOUS
 62
   233
  5
370
 10
51.726667
 20
77.51325
 30
0.0
 11
51.726667
 21
77.438333
 31
0.0
  0
LINE
  8
1
  6
CONTINUOUS
 62
   233
  5
371
 10
51.754333
 20
78.763167
 30
0.0
 11
51.754333
 21
78.440833
 31
0.0
  0
ARC
  8
1
  6
CONTINUOUS
 62
   233
  5
372
 10
51.252417
 20
79.28175
 30
0.0
 40
0.04791
 50
180.447711
 51
225.713425
210
0.0
220
0.0
230
1.0
  0
ARC
  8
1
  6
CONTINUOUS
 62
   233
  5
373
 10
51.253917
 20
79.276833
 30
0.0
 40
0.086203
 50
177.012711
 51
239.961744
210
0.0
220
0.0
230
1.0
  0
ARC
  8
1
  6
CONTINUOUS
 62
   233
  5
374
 10
51.254333
 20
79.2795
 30
0.0
 40
0.122406
 50
179.123794
 51
226.457881
210
0.0
220
0.0
230
1.0
  0
ARC
  8
1
  6
CONTINUOUS
 62
   233
  5
375
 10
51.658417
 20
78.762917
 30
0.0
 40
0.067563
 50
0.147319
 51
59.767297
210
0.0
220
0.0
230
1.0
  0
ARC
  8
1
  6
CONTINUOUS
 62
   233
  5
376
 10
51.658083
 20
78.76325
 30
0.0
 40
0.096292
 50
359.979728
 51
59.944269
210
0.0
220
0.0
230
1.0
  0
ARC
  8
1
  6
CONTINUOUS
 62
   233
  5
377
 10
51.658083
 20
78.766083
 30
0.0
 40
0.127251
 50
358.754367
 51
45.205594
210
0.0
220
0.0
230
1.0
  0
LINE
  8
1
  6
CONTINUOUS
 62
   132
  5
378
 10
51.219
 20
79.247417
 30
0.0
 11
51.74775
 21
78.856333
 31
0.0
  0
LINE
  8
1
  6
CONTINUOUS
 62
   233
  5
379
 10
51.210833
 20
79.20225
 30
0.0
 11
51.70625
 21
78.846583
 31
0.0
  0
LINE
  8
1
  6
CONTINUOUS
 62
   132
  5
37A
 10
51.17
 20
79.19075
 30
0.0
 11
51.692417
 21
78.82125
 31
0.0
  0
LINE
  8
1
  6
CONTINUOUS
 62
   132
  5
37B
 10
51.219
 20
79.31525
 30
0.0
 11
51.785
 21
79.733833
 31
0.0
  0
ARC
  8
1
  6
CONTINUOUS
 62
   233
  5
37C
 10
51.253917
 20
79.285833
 30
0.0
 40
0.086203
 50
120.03825
 51
182.987283
210
0.0
220
0.0
230
1.0
  0
ARC
  8
1
  6
CONTINUOUS
 62
   233
  5
37D
 10
51.252417
 20
79.281
 30
0.0
 40
0.04791
 50
134.286572
 51
179.552286
210
0.0
220
0.0
230
1.0
  0
ARC
  8
1
  6
CONTINUOUS
 62
   132
  5
37E
 10
51.254333
 20
79.283167
 30
0.0
 40
0.122406
 50
133.542117
 51
180.876203
210
0.0
220
0.0
230
1.0
  0
LINE
  8
1
  6
CONTINUOUS
 62
   132
  5
37F
 10
51.17
 20
79.371917
 30
0.0
 11
51.7435
 21
79.777583
 31
0.0
  0
LINE
  8
1
  6
CONTINUOUS
 62
   233
  5
380
 10
51.210833
 20
79.360417
 30
0.0
 11
51.763083
 21
79.756917
 31
0.0
  0
LINE
  8
1
  6
CONTINUOUS
 62
   132
  5
381
 10
51.210833
 20
77.8435
 30
0.0
 11
51.726667
 21
77.47325
 31
0.0
  0
LINE
  8
1
  6
CONTINUOUS
 62
   132
  5
382
 10
51.17
 20
77.832
 30
0.0
 11
51.726667
 21
77.438333
 31
0.0
  0
ARC
  8
1
  6
CONTINUOUS
 62
   132
  5
383
 10
51.254333
 20
77.92075
 30
0.0
 40
0.122406
 50
179.123794
 51
226.457881
210
0.0
220
0.0
230
1.0
  0
ARC
  8
1
  6
CONTINUOUS
 62
   132
  5
384
 10
51.252417
 20
77.923
 30
0.0
 40
0.04791
 50
180.447711
 51
225.713425
210
0.0
220
0.0
230
1.0
  0
ARC
  8
1
  6
CONTINUOUS
 62
   233
  5
385
 10
51.253917
 20
77.918167
 30
0.0
 40
0.086203
 50
177.012711
 51
239.961744
210
0.0
220
0.0
230
1.0
  0
LINE
  8
1
  6
CONTINUOUS
 62
   132
  5
386
 10
51.219
 20
77.88875
 30
0.0
 11
51.726667
 21
77.51325
 31
0.0
  0
LINE
  8
1
  6
CONTINUOUS
 62
   132
  5
387
 10
51.17
 20
78.01325
 30
0.0
 11
51.692417
 21
78.382667
 31
0.0
  0
LINE
  8
1
  6
CONTINUOUS
 62
   233
  5
388
 10
51.210833
 20
78.00175
 30
0.0
 11
51.70625
 21
78.357417
 31
0.0
  0
LINE
  8
1
  6
CONTINUOUS
 62
   132
  5
389
 10
51.219
 20
77.956583
 30
0.0
 11
51.74775
 21
78.347583
 31
0.0
  0
ARC
  8
1
  6
CONTINUOUS
 62
   132
  5
38A
 10
51.658083
 20
78.437917
 30
0.0
 40
0.127251
 50
314.7944
 51
1.245628
210
0.0
220
0.0
230
1.0
  0
ARC
  8
1
  6
CONTINUOUS
 62
   233
  5
38B
 10
51.658083
 20
78.44075
 30
0.0
 40
0.096292
 50
300.055728
 51
0.020269
210
0.0
220
0.0
230
1.0
  0
ARC
  8
1
  6
CONTINUOUS
 62
   132
  5
38C
 10
51.254333
 20
77.9245
 30
0.0
 40
0.122406
 50
133.542117
 51
180.876203
210
0.0
220
0.0
230
1.0
  0
ARC
  8
1
  6
CONTINUOUS
 62
   233
  5
38D
 10
51.253917
 20
77.927167
 30
0.0
 40
0.086203
 50
120.03825
 51
182.987283
210
0.0
220
0.0
230
1.0
  0
ARC
  8
1
  6
CONTINUOUS
 62
   233
  5
38E
 10
51.252417
 20
77.92225
 30
0.0
 40
0.04791
 50
134.286572
 51
179.552286
210
0.0
220
0.0
230
1.0
  0
INSERT
  8
2
  6
CONTINUOUS
 62
     2
  5
38F
  2
ARR
 10
54.705667
 20
78.59275
 30
0.0
 50
270.0
210
0.0
220
0.0
230
1.0
  0
INSERT
  8
2
  6
CONTINUOUS
 62
     2
  5
390
  2
ARR
 10
54.705667
 20
79.873917
 30
0.0
 50
90.0
210
0.0
220
0.0
230
1.0
  0
LINE
  8
2
  6
CONTINUOUS
 62
     2
  5
391
 10
54.502083
 20
78.59275
 30
0.0
 11
54.954917
 21
78.59275
 31
0.0
  0
LINE
  8
2
  6
CONTINUOUS
 62
     2
  5
392
 10
54.196833
 20
79.873917
 30
0.0
 11
54.954917
 21
79.873917
 31
0.0
  0
LINE
  8
2
  6
CONTINUOUS
 62
     2
  5
393
 10
54.705667
 20
78.59275
 30
0.0
 11
54.705667
 21
79.095833
 31
0.0
  0
INSERT
  8
2
  6
CONTINUOUS
 62
     2
  5
394
  2
ARR
 10
51.779333
 20
80.372917
 30
0.0
 50
180.0
210
0.0
220
0.0
230
1.0
  0
LINE
  8
2
  6
CONTINUOUS
 62
     2
  5
395
 10
52.733417
 20
80.372917
 30
0.0
 11
52.554333
 21
80.372917
 31
0.0
  0
LINE
  8
2
  6
CONTINUOUS
 62
     2
  5
396
 10
51.779417
 20
80.372917
 30
0.0
 11
52.207167
 21
80.372917
 31
0.0
  0
LINE
  8
1
  6
CONTINUOUS
 62
   233
  5
397
 10
54.40525
 20
78.611417
 30
0.0
 11
54.40525
 21
78.566083
 31
0.0
  0
LINE
  8
1
  6
CONTINUOUS
 62
   233
  5
398
 10
54.37525
 20
78.611417
 30
0.0
 11
54.37525
 21
78.566083
 31
0.0
  0
LINE
  8
1
  6
CONTINUOUS
 62
   233
  5
399
 10
54.3385
 20
78.611417
 30
0.0
 11
54.3385
 21
78.566083
 31
0.0
  0
LINE
  8
1
  6
CONTINUOUS
 62
   233
  5
39A
 10
54.3085
 20
78.611417
 30
0.0
 11
54.3085
 21
78.566083
 31
0.0
  0
LINE
  8
1
  6
CONTINUOUS
 62
   233
  5
39B
 10
54.285167
 20
78.5465
 30
0.0
 11
54.433583
 21
78.5465
 31
0.0
  0
LINE
  8
1
  6
CONTINUOUS
 62
   233
  5
39C
 10
54.433583
 20
78.6315
 30
0.0
 11
54.433583
 21
78.5465
 31
0.0
  0
LINE
  8
1
  6
CONTINUOUS
 62
   233
  5
39D
 10
54.285167
 20
78.6315
 30
0.0
 11
54.433583
 21
78.6315
 31
0.0
  0
LINE
  8
1
  6
CONTINUOUS
 62
   233
  5
39E
 10
54.14175
 20
78.498167
 30
0.0
 11
54.285167
 21
78.498167
 31
0.0
  0
LINE
  8
1
  6
CONTINUOUS
 62
   233
  5
39F
 10
54.14175
 20
78.5465
 30
0.0
 11
54.285167
 21
78.5465
 31
0.0
  0
LINE
  8
1
  6
CONTINUOUS
 62
   233
  5
3A0
 10
54.14175
 20
78.6315
 30
0.0
 11
54.285167
 21
78.6315
 31
0.0
  0
LINE
  8
1
  6
CONTINUOUS
 62
   233
  5
3A1
 10
54.14175
 20
78.671583
 30
0.0
 11
54.285167
 21
78.671583
 31
0.0
  0
LINE
  8
1
  6
CONTINUOUS
 62
   233
  5
3A2
 10
54.285167
 20
78.44975
 30
0.0
 11
54.14175
 21
78.44975
 31
0.0
  0
LINE
  8
1
  6
CONTINUOUS
 62
   233
  5
3A3
 10
54.285167
 20
78.72325
 30
0.0
 11
54.285167
 21
78.44975
 31
0.0
  0
LINE
  8
1
  6
CONTINUOUS
 62
   233
  5
3A4
 10
54.14175
 20
78.72325
 30
0.0
 11
54.285167
 21
78.72325
 31
0.0
  0
LINE
  8
1
  6
CONTINUOUS
 62
   233
  5
3A5
 10
54.14175
 20
78.41975
 30
0.0
 11
54.06225
 21
78.41975
 31
0.0
  0
LINE
  8
1
  6
CONTINUOUS
 62
   233
  5
3A6
 10
54.14175
 20
78.754917
 30
0.0
 11
54.14175
 21
78.41975
 31
0.0
  0
LINE
  8
1
  6
CONTINUOUS
 62
   233
  5
3A7
 10
54.06225
 20
78.754917
 30
0.0
 11
54.14175
 21
78.754917
 31
0.0
  0
LINE
  8
3
  6
HIDDEN
 62
     7
  5
3A8
 10
51.785
 20
78.512583
 30
0.0
 11
54.06225
 21
78.512583
 31
0.0
  0
LINE
  8
3
  6
HIDDEN
 62
     7
  5
3A9
 10
51.785
 20
78.5615
 30
0.0
 11
54.06225
 21
78.5615
 31
0.0
  0
LINE
  8
3
  6
HIDDEN
 62
     7
  5
3AA
 10
51.785
 20
78.63875
 30
0.0
 11
54.06225
 21
78.63875
 31
0.0
  0
LINE
  8
3
  6
HIDDEN
 62
     7
  5
3AB
 10
51.785
 20
78.70125
 30
0.0
 11
54.06225
 21
78.70125
 31
0.0
  0
LINE
  8
1
  6
CONTINUOUS
 62
   132
  5
3AC
 10
51.785
 20
77.373833
 30
0.0
 11
52.918
 21
77.373833
 31
0.0
  0
LINE
  8
1
  6
CONTINUOUS
 62
   132
  5
3AD
 10
51.785
 20
79.870917
 30
0.0
 11
51.785
 21
77.373833
 31
0.0
  0
LINE
  8
1
  6
CONTINUOUS
 62
   233
  5
3AE
 10
54.06225
 20
79.870917
 30
0.0
 11
54.06225
 21
75.9085
 31
0.0
  0
LINE
  8
1
  6
CONTINUOUS
 62
   233
  5
3AF
 10
51.785
 20
79.870917
 30
0.0
 11
54.06225
 21
79.870917
 31
0.0
  0
LINE
  8
2
  6
CONTINUOUS
 62
     2
  5
3B0
 10
51.779417
 20
79.96575
 30
0.0
 11
51.779417
 21
80.663583
 31
0.0
  0
TEXT
  8
2
  6
CONTINUOUS
 62
     2
  5
3B1
 10
54.641917
 20
79.176667
 30
0.0
 40
0.125
  1
7"
  7
MONOTXT
210
0.0
220
0.0
230
1.0
  0
LINE
  8
2
  6
CONTINUOUS
 62
     2
  5
3B2
 10
54.705667
 20
79.376833
 30
0.0
 11
54.705667
 21
79.839
 31
0.0
  0
LINE
  8
1
  6
CONTINUOUS
 62
   233
  5
3B3
 10
54.06225
 20
75.9085
 30
0.0
 11
53.7815
 21
75.9085
 31
0.0
  0
LINE
  8
1
  6
CONTINUOUS
 62
   233
  5
3B4
 10
53.7815
 20
75.9085
 30
0.0
 11
53.6545
 21
75.674583
 31
0.0
  0
LINE
  8
1
  6
CONTINUOUS
 62
   233
  5
3B5
 10
53.6545
 20
75.674583
 30
0.0
 11
53.17575
 21
76.089833
 31
0.0
  0
LINE
  8
1
  6
CONTINUOUS
 62
   233
  5
3B6
 10
53.17575
 20
76.089833
 30
0.0
 11
53.073083
 21
75.918833
 31
0.0
  0
LINE
  8
1
  6
CONTINUOUS
 62
   233
  5
3B7
 10
53.073083
 20
75.918833
 30
0.0
 11
52.750667
 21
75.918833
 31
0.0
  0
LINE
  8
1
  6
CONTINUOUS
 62
   233
  5
3B8
 10
52.750667
 20
75.918833
 30
0.0
 11
52.750667
 21
77.373833
 31
0.0
  0
LINE
  8
1
  6
CONTINUOUS
 62
   233
  5
3B9
 10
53.556833
 20
75.83575
 30
0.0
 11
53.556833
 21
76.729917
 31
0.0
  0
LINE
  8
1
  6
CONTINUOUS
 62
   233
  5
3BA
 10
53.32225
 20
75.96275
 30
0.0
 11
53.32225
 21
77.076833
 31
0.0
  0
LINE
  8
1
  6
CONTINUOUS
 62
   233
  5
3BB
 10
52.965667
 20
75.94325
 30
0.0
 11
52.965667
 21
76.324417
 31
0.0
  0
LINE
  8
1
  6
CONTINUOUS
 62
   233
  5
3BC
 10
52.96075
 20
76.4075
 30
0.0
 11
52.96075
 21
76.95475
 31
0.0
  0
LINE
  8
1
  6
CONTINUOUS
 62
   233
  5
3BD
 10
53.07525
 20
75.922417
 30
0.0
 11
53.07525
 21
76.236417
 31
0.0
  0
LINE
  8
1
  6
CONTINUOUS
 62
   233
  5
3BE
 10
53.073083
 20
76.573583
 30
0.0
 11
53.073083
 21
76.827667
 31
0.0
  0
LINE
  8
1
  6
CONTINUOUS
 62
   233
  5
3BF
 10
53.830417
 20
75.9085
 30
0.0
 11
53.830417
 21
76.573583
 31
0.0
  0
LINE
  8
1
  6
CONTINUOUS
 62
   233
  5
3C0
 10
53.8255
 20
76.686
 30
0.0
 11
53.8255
 21
77.5215
 31
0.0
  0
LINE
  8
1
  6
CONTINUOUS
 62
   233
  5
3C1
 10
52.88725
 20
76.001833
 30
0.0
 11
52.88725
 21
76.43675
 31
0.0
  0
LINE
  8
1
  6
CONTINUOUS
 62
   233
  5
3C2
 10
52.88725
 20
76.593083
 30
0.0
 11
52.88725
 21
76.754333
 31
0.0
  0
LINE
  8
1
  6
CONTINUOUS
 62
   233
  5
3C3
 10
52.892083
 20
76.891167
 30
0.0
 11
52.892083
 21
76.954667
 31
0.0
  0
LINE
  8
1
  6
CONTINUOUS
 62
   233
  5
3C4
 10
52.88725
 20
77.0475
 30
0.0
 11
52.88725
 21
77.257583
 31
0.0
  0
LINE
  8
1
  6
CONTINUOUS
 62
   233
  5
3C5
 10
54.006
 20
75.9085
 30
0.0
 11
54.006
 21
76.67125
 31
0.0
  0
LINE
  8
1
  6
CONTINUOUS
 62
   233
  5
3C6
 10
54.001167
 20
76.86675
 30
0.0
 11
54.001167
 21
76.988917
 31
0.0
  0
LINE
  8
1
  6
CONTINUOUS
 62
   233
  5
3C7
 10
53.918083
 20
76.089833
 30
0.0
 11
53.918083
 21
76.299917
 31
0.0
  0
LINE
  8
1
  6
CONTINUOUS
 62
   233
  5
3C8
 10
53.918083
 20
76.387917
 30
0.0
 11
53.918083
 21
77.140333
 31
0.0
  0
LINE
  8
1
  6
CONTINUOUS
 62
   233
  5
3C9
 10
52.813917
 20
75.98725
 30
0.0
 11
52.813917
 21
76.270583
 31
0.0
  0
LINE
  8
1
  6
CONTINUOUS
 62
   233
  5
3CA
 10
52.813917
 20
76.598
 30
0.0
 11
52.813917
 21
76.803167
 31
0.0
  0
LINE
  8
1
  6
CONTINUOUS
 62
   233
  5
3CB
 10
52.813917
 20
77.008417
 30
0.0
 11
52.809083
 21
77.373833
 31
0.0
  0
LINE
  8
1
  6
CONTINUOUS
 62
   233
  5
3CC
 10
53.556583
 20
76.871583
 30
0.0
 11
53.556583
 21
76.97425
 31
0.0
  0
LINE
  8
1
  6
CONTINUOUS
 62
   233
  5
3CD
 10
53.556583
 20
77.0475
 30
0.0
 11
53.556583
 21
77.770667
 31
0.0
  0
LINE
  8
1
  6
CONTINUOUS
 62
   233
  5
3CE
 10
52.918
 20
77.373833
 30
0.0
 11
52.918
 21
79.870917
 31
0.0
  0
LINE
  8
2
  6
CONTINUOUS
 62
     2
  5
3CF
 10
52.8895
 20
77.989833
 30
0.0
 11
54.206583
 21
77.989833
 31
0.0
  0
TEXT
  8
2
  6
CONTINUOUS
 62
    40
  5
3D0
 10
54.34425
 20
77.239667
 30
0.0
 40
0.125
  1
1/2 Post Dia.
  7
MONOTXT
210
0.0
220
0.0
230
1.0
  0
LINE
  8
1
  6
CONTINUOUS
 62
   233
  5
3D1
 10
53.085417
 20
77.59525
 30
0.0
 11
53.085417
 21
77.670417
 31
0.0
  0
LINE
  8
1
  6
CONTINUOUS
 62
   233
  5
3D2
 10
53.079167
 20
77.858333
 30
0.0
 11
53.079167
 21
78.083833
 31
0.0
  0
LINE
  8
1
  6
CONTINUOUS
 62
   233
  5
3D3
 10
53.079167
 20
78.29675
 30
0.0
 11
53.079167
 21
79.417917
 31
0.0
  0
LINE
  8
1
  6
CONTINUOUS
 62
   233
  5
3D4
 10
53.329667
 20
77.59525
 30
0.0
 11
53.329667
 21
78.434583
 31
0.0
  0
LINE
  8
1
  6
CONTINUOUS
 62
   233
  5
3D5
 10
53.329667
 20
78.8605
 30
0.0
 11
53.329667
 21
79.870917
 31
0.0
  0
LINE
  8
1
  6
CONTINUOUS
 62
   233
  5
3D6
 10
53.561417
 20
78.1715
 30
0.0
 11
53.561417
 21
78.484667
 31
0.0
  0
LINE
  8
1
  6
CONTINUOUS
 62
   233
  5
3D7
 10
53.561417
 20
78.772833
 30
0.0
 11
53.561417
 21
79.380333
 31
0.0
  0
LINE
  8
1
  6
CONTINUOUS
 62
   233
  5
3D8
 10
53.818167
 20
78.791583
 30
0.0
 11
53.818167
 21
79.870917
 31
0.0
  0
LINE
  8
1
  6
CONTINUOUS
 62
   233
  5
3D9
 10
53.924667
 20
78.766583
 30
0.0
 11
53.924667
 21
79.136083
 31
0.0
  0
LINE
  8
1
  6
CONTINUOUS
 62
   233
  5
3DA
 10
54.012333
 20
78.779083
 30
0.0
 11
54.012333
 21
79.42425
 31
0.0
  0
LINE
  8
1
  6
CONTINUOUS
 62
   233
  5
3DB
 10
53.918333
 20
79.380333
 30
0.0
 11
53.918333
 21
79.870917
 31
0.0
  0
LINE
  8
1
  6
CONTINUOUS
 62
   233
  5
3DC
 10
53.561417
 20
79.599583
 30
0.0
 11
53.561417
 21
79.870917
 31
0.0
  0
LINE
  8
1
  6
CONTINUOUS
 62
   233
  5
3DD
 10
53.085417
 20
79.699833
 30
0.0
 11
53.085417
 21
79.870917
 31
0.0
  0
LINE
  8
2
  6
CONTINUOUS
 62
     2
  5
3DE
 10
52.918
 20
79.96575
 30
0.0
 11
52.918
 21
80.663583
 31
0.0
  0
LINE
  8
2
  6
CONTINUOUS
 62
     2
  5
3DF
 10
54.06225
 20
79.96575
 30
0.0
 11
54.06225
 21
80.663583
 31
0.0
  0
INSERT
  8
2
  6
CONTINUOUS
 62
     2
  5
3E0
  2
ARR
 10
54.06225
 20
80.372917
 30
0.0
210
0.0
220
0.0
230
1.0
  0
INSERT
  8
2
  6
CONTINUOUS
 62
     2
  5
3E1
  2
ARR
 10
52.918
 20
80.372917
 30
0.0
 50
180.0
210
0.0
220
0.0
230
1.0
  0
INSERT
  8
2
  6
CONTINUOUS
 62
     2
  5
3E2
  2
ARR
 10
52.918
 20
80.372917
 30
0.0
210
0.0
220
0.0
230
1.0
  0
LINE
  8
1
  6
CONTINUOUS
 62
   233
  5
3E3
 10
53.993167
 20
79.870917
 30
0.0
 11
53.993167
 21
79.697417
 31
0.0
  0
TEXT
  8
2
  6
CONTINUOUS
 62
    40
  5
3E4
 10
52.02375
 20
77.65325
 30
0.0
 40
0.125
  1
1 " Notch
  7
MONOTXT
210
0.0
220
0.0
230
1.0
  0
TEXT
  8
2
  6
CONTINUOUS
 62
    40
  5
3E5
 10
52.274
 20
77.439
 30
0.0
 40
0.125
  1
Min.
  7
MONOTXT
210
0.0
220
0.0
230
1.0
  0
LINE
  8
2
  6
CONTINUOUS
 62
     2
  5
3E6
 10
52.482417
 20
77.844333
 30
0.0
 11
52.750167
 21
77.844333
 31
0.0
  0
LINE
  8
2
  6
CONTINUOUS
 62
     2
  5
3E7
 10
52.750167
 20
77.457583
 30
0.0
 11
52.750167
 21
77.97825
 31
0.0
  0
LINE
  8
2
  6
CONTINUOUS
 62
     2
  5
3E8
 10
52.918
 20
77.844333
 30
0.0
 11
53.151917
 21
77.844333
 31
0.0
  0
INSERT
  8
2
  6
CONTINUOUS
 62
     2
  5
3E9
  2
ARR
 10
52.750167
 20
77.844333
 30
0.0
210
0.0
220
0.0
230
1.0
  0
INSERT
  8
2
  6
CONTINUOUS
 62
     2
  5
3EA
  2
ARR
 10
52.918
 20
77.844333
 30
0.0
 50
180.0
210
0.0
220
0.0
230
1.0
  0
TEXT
  8
2
  6
CONTINUOUS
 62
    40
  5
3EB
 10
50.88725
 20
76.41225
 30
0.0
 40
0.125
  1
Block
  7
MONOTXT
210
0.0
220
0.0
230
1.0
  0
SOLID
  8
2
  6
CONTINUOUS
 62
     2
  5
3EC
 10
52.287083
 20
77.211583
 30
0.0
 11
52.34425
 21
77.19325
 31
0.0
 12
52.3705
 22
77.373833
 32
0.0
 13
52.3705
 23
77.373833
 33
0.0
  0
LINE
  8
2
  6
CONTINUOUS
 62
     2
  5
3ED
 10
52.315667
 20
77.202417
 30
0.0
 11
52.08475
 21
76.480083
 31
0.0
  0
LINE
  8
2
  6
CONTINUOUS
 62
     2
  5
3EE
 10
52.08475
 20
76.480083
 30
0.0
 11
51.472417
 21
76.480083
 31
0.0
  0
LINE
  8
1
  6
CONTINUOUS
 62
   233
  5
3EF
 10
56.044667
 20
79.870917
 30
0.0
 11
57.364667
 21
79.870917
 31
0.0
  0
LINE
  8
1
  6
CONTINUOUS
 62
   233
  5
3F0
 10
56.044667
 20
79.870917
 30
0.0
 11
56.044667
 21
75.922333
 31
0.0
  0
LINE
  8
1
  6
CONTINUOUS
 62
   233
  5
3F1
 10
56.044667
 20
75.922333
 30
0.0
 11
56.316833
 21
75.922333
 31
0.0
  0
LINE
  8
1
  6
CONTINUOUS
 62
   233
  5
3F2
 10
56.316833
 20
75.922333
 30
0.0
 11
56.3985
 21
76.09925
 31
0.0
  0
LINE
  8
1
  6
CONTINUOUS
 62
   233
  5
3F3
 10
56.3985
 20
76.09925
 30
0.0
 11
56.97
 21
75.704583
 31
0.0
  0
LINE
  8
1
  6
CONTINUOUS
 62
   233
  5
3F4
 10
56.97
 20
75.704583
 30
0.0
 11
57.0925
 21
75.922333
 31
0.0
  0
LINE
  8
1
  6
CONTINUOUS
 62
   233
  5
3F5
 10
57.0925
 20
75.922333
 30
0.0
 11
57.364667
 21
75.922333
 31
0.0
  0
LINE
  8
1
  6
CONTINUOUS
 62
   233
  5
3F6
 10
57.364667
 20
75.922333
 30
0.0
 11
57.364667
 21
79.870917
 31
0.0
  0
LINE
  8
2
  6
CONTINUOUS
 62
     2
  5
3F7
 10
56.044667
 20
79.96575
 30
0.0
 11
56.044667
 21
80.663583
 31
0.0
  0
LINE
  8
2
  6
CONTINUOUS
 62
     2
  5
3F8
 10
57.364667
 20
79.96575
 30
0.0
 11
57.364667
 21
80.663583
 31
0.0
  0
LINE
  8
2
  6
CONTINUOUS
 62
     2
  5
3F9
 10
56.044667
 20
80.366917
 30
0.0
 11
56.409083
 21
80.366917
 31
0.0
  0
INSERT
  8
2
  6
CONTINUOUS
 62
     2
  5
3FA
  2
ARR
 10
57.364667
 20
80.366917
 30
0.0
210
0.0
220
0.0
230
1.0
  0
INSERT
  8
2
  6
CONTINUOUS
 62
     2
  5
3FB
  2
ARR
 10
56.044667
 20
80.366917
 30
0.0
 50
180.0
210
0.0
220
0.0
230
1.0
  0
LINE
  8
2
  6
CONTINUOUS
 62
     2
  5
3FC
 10
56.992333
 20
80.366917
 30
0.0
 11
57.364667
 21
80.366917
 31
0.0
  0
LINE
  8
1
  6
CONTINUOUS
 62
   233
  5
3FD
 10
57.1655
 20
79.870917
 30
0.0
 11
57.1655
 21
77.364833
 31
0.0
  0
LINE
  8
1
  6
CONTINUOUS
 62
   233
  5
3FE
 10
56.249667
 20
79.870917
 30
0.0
 11
56.249667
 21
77.364833
 31
0.0
  0
LINE
  8
1
  6
CONTINUOUS
 62
   233
  5
3FF
 10
56.249667
 20
77.364833
 30
0.0
 11
57.1655
 21
77.364833
 31
0.0
  0
CIRCLE
  8
1
  6
CONTINUOUS
 62
   233
  5
400
 10
56.717583
 20
78.62525
 30
0.0
 40
0.06444
210
0.0
220
0.0
230
1.0
  0
LINE
  8
1
  6
CONTINUOUS
 62
   233
  5
401
 10
57.224917
 20
79.870917
 30
0.0
 11
57.224917
 21
79.168083
 31
0.0
  0
LINE
  8
1
  6
CONTINUOUS
 62
   233
  5
402
 10
57.218083
 20
79.079
 30
0.0
 11
57.218083
 21
78.5445
 31
0.0
  0
LINE
  8
1
  6
CONTINUOUS
 62
   233
  5
403
 10
57.218083
 20
78.421083
 30
0.0
 11
57.218083
 21
77.824917
 31
0.0
  0
LINE
  8
1
  6
CONTINUOUS
 62
   233
  5
404
 10
57.272917
 20
79.870917
 30
0.0
 11
57.272917
 21
79.037917
 31
0.0
  0
LINE
  8
1
  6
CONTINUOUS
 62
   233
  5
405
 10
57.314
 20
79.870917
 30
0.0
 11
57.314
 21
78.873417
 31
0.0
  0
LINE
  8
1
  6
CONTINUOUS
 62
   233
  5
406
 10
57.279417
 20
78.718083
 30
0.0
 11
57.279417
 21
78.27925
 31
0.0
  0
LINE
  8
1
  6
CONTINUOUS
 62
   233
  5
407
 10
57.275167
 20
78.07475
 30
0.0
 11
57.275167
 21
77.589
 31
0.0
  0
LINE
  8
1
  6
CONTINUOUS
 62
   233
  5
408
 10
57.31775
 20
78.735083
 30
0.0
 11
57.31775
 21
77.9
 31
0.0
  0
LINE
  8
1
  6
CONTINUOUS
 62
   233
  5
409
 10
57.31775
 20
77.806333
 30
0.0
 11
57.31775
 21
77.572
 31
0.0
  0
LINE
  8
1
  6
CONTINUOUS
 62
   233
  5
40A
 10
56.084083
 20
79.837083
 30
0.0
 11
56.084083
 21
79.298583
 31
0.0
  0
LINE
  8
1
  6
CONTINUOUS
 62
   233
  5
40B
 10
56.133
 20
79.79625
 30
0.0
 11
56.133
 21
79.09875
 31
0.0
  0
LINE
  8
1
  6
CONTINUOUS
 62
   233
  5
40C
 10
56.186083
 20
79.812583
 30
0.0
 11
56.186083
 21
79.172167
 31
0.0
  0
LINE
  8
1
  6
CONTINUOUS
 62
   233
  5
40D
 10
56.088167
 20
79.184417
 30
0.0
 11
56.088167
 21
78.613333
 31
0.0
  0
LINE
  8
1
  6
CONTINUOUS
 62
   233
  5
40E
 10
56.133
 20
78.951917
 30
0.0
 11
56.133
 21
78.35225
 31
0.0
  0
LINE
  8
1
  6
CONTINUOUS
 62
   233
  5
40F
 10
56.186083
 20
79.02125
 30
0.0
 11
56.186083
 21
78.360417
 31
0.0
  0
LINE
  8
1
  6
CONTINUOUS
 62
   233
  5
410
 10
56.190833
 20
78.086
 30
0.0
 11
56.190833
 21
77.363167
 31
0.0
  0
LINE
  8
1
  6
CONTINUOUS
 62
   233
  5
411
 10
56.134333
 20
78.131167
 30
0.0
 11
56.134333
 21
77.32175
 31
0.0
  0
LINE
  8
1
  6
CONTINUOUS
 62
   233
  5
412
 10
56.085417
 20
78.519
 30
0.0
 11
56.085417
 21
78.093583
 31
0.0
  0
LINE
  8
1
  6
CONTINUOUS
 62
   233
  5
413
 10
56.085417
 20
77.943
 30
0.0
 11
56.085417
 21
77.30675
 31
0.0
  0
LINE
  8
1
  6
CONTINUOUS
 62
   233
  5
414
 10
56.880917
 20
77.364833
 30
0.0
 11
56.880917
 21
76.964167
 31
0.0
  0
LINE
  8
1
  6
CONTINUOUS
 62
   233
  5
415
 10
56.880917
 20
76.883583
 30
0.0
 11
56.880917
 21
76.404833
 31
0.0
  0
LINE
  8
1
  6
CONTINUOUS
 62
   233
  5
416
 10
56.880917
 20
76.262667
 30
0.0
 11
56.880917
 21
75.766167
 31
0.0
  0
LINE
  8
1
  6
CONTINUOUS
 62
   233
  5
417
 10
57.08475
 20
77.364833
 30
0.0
 11
57.08475
 21
76.940417
 31
0.0
  0
LINE
  8
1
  6
CONTINUOUS
 62
   233
  5
418
 10
57.08475
 20
76.821917
 30
0.0
 11
57.08475
 21
76.33375
 31
0.0
  0
LINE
  8
1
  6
CONTINUOUS
 62
   233
  5
419
 10
57.08475
 20
76.238917
 30
0.0
 11
57.08475
 21
75.9085
 31
0.0
  0
LINE
  8
1
  6
CONTINUOUS
 62
   233
  5
41A
 10
57.160583
 20
77.338583
 30
0.0
 11
57.160583
 21
76.845667
 31
0.0
  0
LINE
  8
1
  6
CONTINUOUS
 62
   233
  5
41B
 10
57.155833
 20
76.77925
 30
0.0
 11
57.155833
 21
76.182083
 31
0.0
  0
LINE
  8
1
  6
CONTINUOUS
 62
   233
  5
41C
 10
57.155833
 20
76.110917
 30
0.0
 11
57.155833
 21
75.922333
 31
0.0
  0
LINE
  8
1
  6
CONTINUOUS
 62
   233
  5
41D
 10
56.544333
 20
77.364833
 30
0.0
 11
56.544333
 21
76.893
 31
0.0
  0
LINE
  8
1
  6
CONTINUOUS
 62
   233
  5
41E
 10
56.549083
 20
76.760333
 30
0.0
 11
56.549083
 21
76.44275
 31
0.0
  0
LINE
  8
1
  6
CONTINUOUS
 62
   233
  5
41F
 10
56.539583
 20
76.281583
 30
0.0
 11
56.539583
 21
76.001833
 31
0.0
  0
LINE
  8
1
  6
CONTINUOUS
 62
   233
  5
420
 10
56.364167
 20
77.364833
 30
0.0
 11
56.364167
 21
76.888333
 31
0.0
  0
LINE
  8
1
  6
CONTINUOUS
 62
   233
  5
421
 10
56.364167
 20
76.722417
 30
0.0
 11
56.364167
 21
76.295833
 31
0.0
  0
LINE
  8
1
  6
CONTINUOUS
 62
   233
  5
422
 10
56.364167
 20
76.22
 30
0.0
 11
56.364167
 21
76.024917
 31
0.0
  0
LINE
  8
1
  6
CONTINUOUS
 62
   233
  5
423
 10
56.283583
 20
77.364833
 30
0.0
 11
56.283583
 21
77.068417
 31
0.0
  0
LINE
  8
1
  6
CONTINUOUS
 62
   233
  5
424
 10
56.278833
 20
76.973583
 30
0.0
 11
56.278833
 21
76.390583
 31
0.0
  0
LINE
  8
1
  6
CONTINUOUS
 62
   233
  5
425
 10
56.278833
 20
76.286333
 30
0.0
 11
56.278833
 21
75.922333
 31
0.0
  0
LINE
  8
1
  6
CONTINUOUS
 62
   233
  5
426
 10
56.1935
 20
77.00675
 30
0.0
 11
56.1935
 21
76.352667
 31
0.0
  0
LINE
  8
1
  6
CONTINUOUS
 62
   233
  5
427
 10
56.188833
 20
76.243667
 30
0.0
 11
56.188833
 21
75.922333
 31
0.0
  0
LINE
  8
1
  6
CONTINUOUS
 62
   233
  5
428
 10
56.136667
 20
77.120583
 30
0.0
 11
56.136667
 21
76.362167
 31
0.0
  0
LINE
  8
1
  6
CONTINUOUS
 62
   233
  5
429
 10
56.136667
 20
76.182083
 30
0.0
 11
56.136667
 21
75.922333
 31
0.0
  0
LINE
  8
1
  6
CONTINUOUS
 62
   233
  5
42A
 10
56.094
 20
77.054167
 30
0.0
 11
56.094
 21
76.201
 31
0.0
  0
LINE
  8
2
  6
CONTINUOUS
 62
     2
  5
42B
 10
57.485333
 20
79.870917
 30
0.0
 11
58.527
 21
79.870917
 31
0.0
  0
LINE
  8
2
  6
CONTINUOUS
 62
     2
  5
42C
 10
57.485333
 20
77.358917
 30
0.0
 11
58.527
 21
77.358917
 31
0.0
  0
LINE
  8
2
  6
CONTINUOUS
 62
     2
  5
42D
 10
58.040417
 20
79.870917
 30
0.0
 11
58.040417
 21
78.744
 31
0.0
  0
INSERT
  8
2
  6
CONTINUOUS
 62
     2
  5
42E
  2
ARR
 10
58.040417
 20
79.870917
 30
0.0
 50
90.0
210
0.0
220
0.0
230
1.0
  0
INSERT
  8
2
  6
CONTINUOUS
 62
     2
  5
42F
  2
ARR
 10
58.040417
 20
77.358917
 30
0.0
 50
270.0
210
0.0
220
0.0
230
1.0
  0
SOLID
  8
2
  6
CONTINUOUS
 62
     2
  5
430
 10
54.07475
 20
78.2375
 30
0.0
 11
54.134333
 21
78.2445
 31
0.0
 12
54.083583
 22
78.41975
 32
0.0
 13
54.083583
 23
78.41975
 33
0.0
  0
LINE
  8
2
  6
CONTINUOUS
 62
     2
  5
431
 10
54.104583
 20
78.241
 30
0.0
 11
54.298167
 21
76.592917
 31
0.0
  0
LINE
  8
2
  6
CONTINUOUS
 62
     2
  5
432
 10
54.298167
 20
76.592917
 30
0.0
 11
54.476167
 21
76.592917
 31
0.0
  0
LINE
  8
2
  6
CONTINUOUS
 62
     2
  5
433
 10
56.718833
 20
78.495667
 30
0.0
 11
56.718833
 21
78.019333
 31
0.0
  0
LINE
  8
2
  6
CONTINUOUS
 62
     2
  5
434
 10
56.718833
 20
78.272833
 30
0.0
 11
56.044667
 21
78.272833
 31
0.0
  0
INSERT
  8
2
  6
CONTINUOUS
 62
     2
  5
435
  2
ARR
 10
56.71875
 20
78.272833
 30
0.0
210
0.0
220
0.0
230
1.0
  0
INSERT
  8
2
  6
CONTINUOUS
 62
     2
  5
436
  2
ARR
 10
56.044667
 20
78.272833
 30
0.0
 50
180.0
210
0.0
220
0.0
230
1.0
  0
LINE
  8
2
  6
CONTINUOUS
 62
     2
  5
437
 10
56.653167
 20
78.6285
 30
0.0
 11
55.9005
 21
78.6285
 31
0.0
  0
LINE
  8
2
  6
CONTINUOUS
 62
     2
  5
438
 10
56.78175
 20
78.631
 30
0.0
 11
57.12175
 21
78.631
 31
0.0
  0
INSERT
  8
2
  6
CONTINUOUS
 62
     2
  5
439
  2
ARR
 10
56.653167
 20
78.6285
 30
0.0
210
0.0
220
0.0
230
1.0
  0
INSERT
  8
2
  6
CONTINUOUS
 62
     2
  5
43A
  2
ARR
 10
56.78175
 20
78.631
 30
0.0
 50
180.0
210
0.0
220
0.0
230
1.0
  0
SOLID
  8
2
  6
CONTINUOUS
 62
     2
  5
43B
 10
56.250167
 20
78.129917
 30
0.0
 11
56.302667
 21
78.100833
 31
0.0
 12
56.363667
 22
78.272833
 32
0.0
 13
56.363667
 23
78.272833
 33
0.0
  0
LINE
  8
2
  6
CONTINUOUS
 62
     2
  5
43C
 10
56.276417
 20
78.115417
 30
0.0
 11
55.822417
 21
77.295917
 31
0.0
  0
LINE
  8
2
  6
CONTINUOUS
 62
     2
  5
43D
 10
55.822417
 20
77.295917
 30
0.0
 11
55.6625
 21
77.295917
 31
0.0
  0
TEXT
  8
2
  6
CONTINUOUS
 62
    40
  5
43E
 10
54.2575
 20
77.909667
 30
0.0
 40
0.125
  1
13/16" Dia.
  7
MONOTXT
210
0.0
220
0.0
230
1.0
  0
TEXT
  8
2
  6
CONTINUOUS
 62
     2
  5
43F
 10
54.94475
 20
77.695417
 30
0.0
 40
0.125
  1
Hole
  7
MONOTXT
210
0.0
220
0.0
230
1.0
  0
LINE
  8
2
  6
CONTINUOUS
 62
     2
  5
440
 10
55.9005
 20
78.6285
 30
0.0
 11
55.636417
 21
77.864333
 31
0.0
  0
LINE
  8
2
  6
CONTINUOUS
 62
     2
  5
441
 10
55.636417
 20
77.864333
 30
0.0
 11
55.312833
 21
77.864333
 31
0.0
  0
LINE
  8
1
  6
CONTINUOUS
 62
   233
  5
442
 10
57.232
 20
77.642
 30
0.0
 11
57.232
 21
77.14425
 31
0.0
  0
LINE
  8
1
  6
CONTINUOUS
 62
   233
  5
443
 10
57.22825
 20
77.03875
 30
0.0
 11
57.22825
 21
76.473417
 31
0.0
  0
LINE
  8
1
  6
CONTINUOUS
 62
   233
  5
444
 10
57.238833
 20
76.352833
 30
0.0
 11
57.238833
 21
75.922333
 31
0.0
  0
LINE
  8
1
  6
CONTINUOUS
 62
   233
  5
445
 10
57.281083
 20
76.062167
 30
0.0
 11
57.281083
 21
76.60525
 31
0.0
  0
LINE
  8
1
  6
CONTINUOUS
 62
   233
  5
446
 10
57.277583
 20
76.756083
 30
0.0
 11
57.277583
 21
77.29125
 31
0.0
  0
LINE
  8
1
  6
CONTINUOUS
 62
   233
  5
447
 10
57.3125
 20
77.513417
 30
0.0
 11
57.3125
 21
77.07975
 31
0.0
  0
LINE
  8
1
  6
CONTINUOUS
 62
   233
  5
448
 10
57.323083
 20
76.99325
 30
0.0
 11
57.323083
 21
76.296083
 31
0.0
  0
LINE
  8
1
  6
CONTINUOUS
 62
   233
  5
449
 10
57.323083
 20
76.201833
 30
0.0
 11
57.323083
 21
75.922333
 31
0.0
  0
TEXT
  8
2
  6
CONTINUOUS
 62
    40
  5
44A
 10
57.903833
 20
78.541333
 30
0.0
 40
0.125
  1
14"
  7
MONOTXT
210
0.0
220
0.0
230
1.0
  0
LINE
  8
2
  6
CONTINUOUS
 62
     2
  5
44B
 10
58.040417
 20
78.465
 30
0.0
 11
58.040417
 21
77.358917
 31
0.0
  0
LINE
  8
1
  6
CONTINUOUS
 62
   233
  5
44C
 10
41.592583
 20
79.766333
 30
0.0
 11
41.633083
 21
79.721667
 31
0.0
  0
LINE
  8
1
  6
CONTINUOUS
 62
   233
  5
44D
 10
51.785
 20
79.733833
 30
0.0
 11
51.7435
 21
79.777583
 31
0.0
  0
LINE
  8
1
  6
CONTINUOUS
 62
   233
  5
44E
 10
41.79775
 20
73.272667
 30
0.0
 11
41.75625
 21
73.316333
 31
0.0
  0
INSERT
  8
2
  6
CONTINUOUS
 62
     2
  5
44F
  2
ARR
 10
42.93075
 20
73.911667
 30
0.0
210
0.0
220
0.0
230
1.0
  0
INSERT
  8
2
  6
CONTINUOUS
 62
     2
  5
450
  2
ARR
 10
42.93075
 20
73.911667
 30
0.0
 50
180.0
210
0.0
220
0.0
230
1.0
  0
INSERT
  8
2
  6
CONTINUOUS
 62
     2
  5
451
  2
ARR
 10
44.075
 20
73.911667
 30
0.0
210
0.0
220
0.0
230
1.0
  0
LINE
  8
2
  6
CONTINUOUS
 62
     2
  5
452
 10
44.075
 20
73.5045
 30
0.0
 11
44.075
 21
74.202417
 31
0.0
  0
LINE
  8
2
  6
CONTINUOUS
 62
     2
  5
453
 10
42.93075
 20
73.5045
 30
0.0
 11
42.93075
 21
74.202417
 31
0.0
  0
LINE
  8
2
  6
CONTINUOUS
 62
     2
  5
454
 10
41.792167
 20
73.5045
 30
0.0
 11
41.792167
 21
74.202417
 31
0.0
  0
LINE
  8
1
  6
CONTINUOUS
 62
   132
  5
455
 10
41.79775
 20
73.39475
 30
0.0
 11
44.075
 21
73.39475
 31
0.0
  0
LINE
  8
1
  6
CONTINUOUS
 62
   132
  5
456
 10
41.79775
 20
73.39475
 30
0.0
 11
41.79775
 21
70.912667
 31
0.0
  0
LINE
  8
1
  6
CONTINUOUS
 62
   132
  5
457
 10
41.79775
 20
70.912667
 30
0.0
 11
42.93075
 21
70.912667
 31
0.0
  0
LINE
  8
1
  6
CONTINUOUS
 62
   233
  5
458
 10
43.044333
 20
72.29375
 30
0.0
 11
43.139583
 21
72.29375
 31
0.0
  0
LINE
  8
1
  6
CONTINUOUS
 62
   233
  5
459
 10
43.139583
 20
72.29375
 30
0.0
 11
43.139583
 21
71.958583
 31
0.0
  0
LINE
  8
1
  6
CONTINUOUS
 62
   233
  5
45A
 10
43.139583
 20
71.958583
 30
0.0
 11
43.044333
 21
71.958583
 31
0.0
  0
LINE
  8
1
  6
CONTINUOUS
 62
   233
  5
45B
 10
43.139583
 20
72.262083
 30
0.0
 11
43.283
 21
72.262083
 31
0.0
  0
LINE
  8
1
  6
CONTINUOUS
 62
   233
  5
45C
 10
43.283
 20
72.262083
 30
0.0
 11
43.283
 21
71.988583
 31
0.0
  0
LINE
  8
1
  6
CONTINUOUS
 62
   233
  5
45D
 10
43.283
 20
71.988583
 30
0.0
 11
43.139583
 21
71.988583
 31
0.0
  0
LINE
  8
1
  6
CONTINUOUS
 62
   233
  5
45E
 10
43.139583
 20
72.210333
 30
0.0
 11
43.283
 21
72.210333
 31
0.0
  0
LINE
  8
1
  6
CONTINUOUS
 62
   233
  5
45F
 10
43.139583
 20
72.170333
 30
0.0
 11
43.283
 21
72.170333
 31
0.0
  0
LINE
  8
1
  6
CONTINUOUS
 62
   233
  5
460
 10
43.139583
 20
72.085333
 30
0.0
 11
43.283
 21
72.085333
 31
0.0
  0
LINE
  8
1
  6
CONTINUOUS
 62
   233
  5
461
 10
43.139583
 20
72.036917
 30
0.0
 11
43.283
 21
72.036917
 31
0.0
  0
LINE
  8
1
  6
CONTINUOUS
 62
   233
  5
462
 10
43.283
 20
72.170333
 30
0.0
 11
43.431417
 21
72.170333
 31
0.0
  0
LINE
  8
1
  6
CONTINUOUS
 62
   233
  5
463
 10
43.431417
 20
72.170333
 30
0.0
 11
43.431417
 21
72.085333
 31
0.0
  0
LINE
  8
1
  6
CONTINUOUS
 62
   233
  5
464
 10
43.283
 20
72.085333
 30
0.0
 11
43.431417
 21
72.085333
 31
0.0
  0
LINE
  8
1
  6
CONTINUOUS
 62
   233
  5
465
 10
43.306333
 20
72.153083
 30
0.0
 11
43.306333
 21
72.099333
 31
0.0
  0
LINE
  8
1
  6
CONTINUOUS
 62
   233
  5
466
 10
43.336333
 20
72.153083
 30
0.0
 11
43.336333
 21
72.099333
 31
0.0
  0
LINE
  8
1
  6
CONTINUOUS
 62
   233
  5
467
 10
43.373083
 20
72.153083
 30
0.0
 11
43.373083
 21
72.099333
 31
0.0
  0
LINE
  8
1
  6
CONTINUOUS
 62
   233
  5
468
 10
43.403083
 20
72.153083
 30
0.0
 11
43.403083
 21
72.099333
 31
0.0
  0
LINE
  8
2
  6
CONTINUOUS
 62
     2
  5
469
 10
41.792167
 20
73.91175
 30
0.0
 11
42.219917
 21
73.91175
 31
0.0
  0
LINE
  8
2
  6
CONTINUOUS
 62
     2
  5
46A
 10
42.746167
 20
73.91175
 30
0.0
 11
42.567083
 21
73.91175
 31
0.0
  0
INSERT
  8
2
  6
CONTINUOUS
 62
     2
  5
46B
  2
ARR
 10
41.792083
 20
73.911667
 30
0.0
 50
180.0
210
0.0
220
0.0
230
1.0
  0
ARC
  8
1
  6
CONTINUOUS
 62
   132
  5
46C
 10
41.265167
 20
71.461083
 30
0.0
 40
0.04791
 50
134.286572
 51
179.552286
210
0.0
220
0.0
230
1.0
  0
ARC
  8
1
  6
CONTINUOUS
 62
   233
  5
46D
 10
41.266667
 20
71.465917
 30
0.0
 40
0.086203
 50
120.03825
 51
182.987283
210
0.0
220
0.0
230
1.0
  0
ARC
  8
1
  6
CONTINUOUS
 62
   233
  5
46E
 10
41.267083
 20
71.463333
 30
0.0
 40
0.122406
 50
133.542117
 51
180.876203
210
0.0
220
0.0
230
1.0
  0
ARC
  8
1
  6
CONTINUOUS
 62
   233
  5
46F
 10
41.671167
 20
71.979917
 30
0.0
 40
0.067563
 50
300.232697
 51
359.852675
210
0.0
220
0.0
230
1.0
  0
ARC
  8
1
  6
CONTINUOUS
 62
   233
  5
470
 10
41.670833
 20
71.979583
 30
0.0
 40
0.096292
 50
300.055728
 51
0.020269
210
0.0
220
0.0
230
1.0
  0
ARC
  8
1
  6
CONTINUOUS
 62
   233
  5
471
 10
41.670833
 20
71.97675
 30
0.0
 40
0.127251
 50
314.7944
 51
1.245628
210
0.0
220
0.0
230
1.0
  0
LINE
  8
1
  6
CONTINUOUS
 62
   132
  5
472
 10
41.23175
 20
71.495417
 30
0.0
 11
41.7605
 21
71.886417
 31
0.0
  0
LINE
  8
1
  6
CONTINUOUS
 62
   233
  5
473
 10
41.223583
 20
71.540583
 30
0.0
 11
41.719
 21
71.89625
 31
0.0
  0
LINE
  8
1
  6
CONTINUOUS
 62
   132
  5
474
 10
41.18275
 20
71.552083
 30
0.0
 11
41.705167
 21
71.9215
 31
0.0
  0
LINE
  8
1
  6
CONTINUOUS
 62
   233
  5
475
 10
41.23175
 20
71.4275
 30
0.0
 11
41.739417
 21
71.052083
 31
0.0
  0
ARC
  8
1
  6
CONTINUOUS
 62
   233
  5
476
 10
41.266667
 20
71.457
 30
0.0
 40
0.086203
 50
177.012711
 51
239.961744
210
0.0
220
0.0
230
1.0
  0
ARC
  8
1
  6
CONTINUOUS
 62
   233
  5
477
 10
41.265167
 20
71.461833
 30
0.0
 40
0.04791
 50
180.447711
 51
225.713425
210
0.0
220
0.0
230
1.0
  0
ARC
  8
1
  6
CONTINUOUS
 62
   233
  5
478
 10
41.267083
 20
71.459583
 30
0.0
 40
0.122406
 50
179.123794
 51
226.457881
210
0.0
220
0.0
230
1.0
  0
LINE
  8
1
  6
CONTINUOUS
 62
   132
  5
479
 10
41.18275
 20
71.370833
 30
0.0
 11
41.739417
 21
70.977167
 31
0.0
  0
LINE
  8
1
  6
CONTINUOUS
 62
   233
  5
47A
 10
41.223583
 20
71.382333
 30
0.0
 11
41.739417
 21
71.012083
 31
0.0
  0
LINE
  8
1
  6
CONTINUOUS
 62
   233
  5
47B
 10
41.223583
 20
72.89925
 30
0.0
 11
41.775833
 21
73.29575
 31
0.0
  0
LINE
  8
1
  6
CONTINUOUS
 62
   132
  5
47C
 10
41.18275
 20
72.91075
 30
0.0
 11
41.75625
 21
73.316333
 31
0.0
  0
ARC
  8
1
  6
CONTINUOUS
 62
   233
  5
47D
 10
41.267083
 20
72.822
 30
0.0
 40
0.122406
 50
133.542117
 51
180.876203
210
0.0
220
0.0
230
1.0
  0
ARC
  8
1
  6
CONTINUOUS
 62
   233
  5
47E
 10
41.265167
 20
72.81975
 30
0.0
 40
0.04791
 50
134.286572
 51
179.552286
210
0.0
220
0.0
230
1.0
  0
ARC
  8
1
  6
CONTINUOUS
 62
   233
  5
47F
 10
41.266667
 20
72.824667
 30
0.0
 40
0.086203
 50
120.03825
 51
182.987283
210
0.0
220
0.0
230
1.0
  0
LINE
  8
1
  6
CONTINUOUS
 62
   132
  5
480
 10
41.23175
 20
72.854083
 30
0.0
 11
41.79775
 21
73.272667
 31
0.0
  0
LINE
  8
1
  6
CONTINUOUS
 62
   233
  5
481
 10
41.18275
 20
72.729583
 30
0.0
 11
41.705167
 21
72.360083
 31
0.0
  0
LINE
  8
1
  6
CONTINUOUS
 62
   233
  5
482
 10
41.223583
 20
72.741
 30
0.0
 11
41.719
 21
72.385333
 31
0.0
  0
LINE
  8
1
  6
CONTINUOUS
 62
   132
  5
483
 10
41.23175
 20
72.78625
 30
0.0
 11
41.7605
 21
72.395167
 31
0.0
  0
ARC
  8
1
  6
CONTINUOUS
 62
   233
  5
484
 10
41.670833
 20
72.304833
 30
0.0
 40
0.127251
 50
358.754367
 51
45.205594
210
0.0
220
0.0
230
1.0
  0
ARC
  8
1
  6
CONTINUOUS
 62
   233
  5
485
 10
41.670833
 20
72.302
 30
0.0
 40
0.096292
 50
359.979728
 51
59.944269
210
0.0
220
0.0
230
1.0
  0
ARC
  8
1
  6
CONTINUOUS
 62
   233
  5
486
 10
41.671167
 20
72.30175
 30
0.0
 40
0.067563
 50
0.147319
 51
59.767297
210
0.0
220
0.0
230
1.0
  0
ARC
  8
1
  6
CONTINUOUS
 62
   233
  5
487
 10
41.267083
 20
72.81825
 30
0.0
 40
0.122406
 50
179.123794
 51
226.457881
210
0.0
220
0.0
230
1.0
  0
ARC
  8
1
  6
CONTINUOUS
 62
   233
  5
488
 10
41.266667
 20
72.815667
 30
0.0
 40
0.086203
 50
177.012711
 51
239.961744
210
0.0
220
0.0
230
1.0
  0
ARC
  8
1
  6
CONTINUOUS
 62
   132
  5
489
 10
41.265167
 20
72.8205
 30
0.0
 40
0.04791
 50
180.447711
 51
225.713425
210
0.0
220
0.0
230
1.0
  0
LINE
  8
1
  6
CONTINUOUS
 62
   233
  5
48A
 10
41.767083
 20
72.302
 30
0.0
 11
41.767083
 21
71.979583
 31
0.0
  0
LINE
  8
1
  6
CONTINUOUS
 62
   233
  5
48B
 10
41.739417
 20
71.052083
 30
0.0
 11
41.739417
 21
70.977167
 31
0.0
  0
LINE
  8
2
  6
CONTINUOUS
 62
     2
  5
48C
 10
41.652417
 20
73.326083
 30
0.0
 11
40.857917
 21
73.326083
 31
0.0
  0
LINE
  8
2
  6
CONTINUOUS
 62
     2
  5
48D
 10
41.718667
 20
73.391167
 30
0.0
 11
40.262083
 21
73.391167
 31
0.0
  0
LINE
  8
2
  6
CONTINUOUS
 62
     2
  5
48E
 10
41.652417
 20
70.976667
 30
0.0
 11
40.857917
 21
70.976667
 31
0.0
  0
LINE
  8
2
  6
CONTINUOUS
 62
     2
  5
48F
 10
41.718667
 20
70.909667
 30
0.0
 11
40.262083
 21
70.909667
 31
0.0
  0
LINE
  8
2
  6
CONTINUOUS
 62
     2
  5
490
 10
40.583667
 20
70.909667
 30
0.0
 11
40.583667
 21
72.031417
 31
0.0
  0
LINE
  8
2
  6
CONTINUOUS
 62
     2
  5
491
 10
41.274083
 20
73.014167
 30
0.0
 11
41.274083
 21
73.326083
 31
0.0
  0
INSERT
  8
2
  6
CONTINUOUS
 62
     2
  5
492
  2
ARR
 10
41.274083
 20
73.326083
 30
0.0
 50
90.0
210
0.0
220
0.0
230
1.0
  0
INSERT
  8
2
  6
CONTINUOUS
 62
     2
  5
493
  2
ARR
 10
41.274083
 20
73.391167
 30
0.0
 50
270.0
210
0.0
220
0.0
230
1.0
  0
INSERT
  8
2
  6
CONTINUOUS
 62
     2
  5
494
  2
ARR
 10
40.583667
 20
73.391167
 30
0.0
 50
90.0
210
0.0
220
0.0
230
1.0
  0
INSERT
  8
2
  6
CONTINUOUS
 62
     2
  5
495
  2
ARR
 10
40.583667
 20
70.909667
 30
0.0
 50
270.0
210
0.0
220
0.0
230
1.0
  0
LINE
  8
2
  6
CONTINUOUS
 62
     2
  5
496
 10
41.29325
 20
71.234917
 30
0.0
 11
41.29325
 21
70.976667
 31
0.0
  0
LINE
  8
2
  6
CONTINUOUS
 62
     2
  5
497
 10
41.29325
 20
70.909667
 30
0.0
 11
41.29325
 21
70.61625
 31
0.0
  0
INSERT
  8
2
  6
CONTINUOUS
 62
     2
  5
498
  2
ARR
 10
41.29325
 20
70.976667
 30
0.0
 50
270.0
210
0.0
220
0.0
230
1.0
  0
INSERT
  8
2
  6
CONTINUOUS
 62
     2
  5
499
  2
ARR
 10
41.29325
 20
70.909667
 30
0.0
 50
90.0
210
0.0
220
0.0
230
1.0
  0
TEXT
  8
2
  6
CONTINUOUS
 62
    40
  5
49A
 10
41.071167
 20
73.821583
 30
0.0
 40
0.125
  1
7/8"
  7
MONOTXT
210
0.0
220
0.0
230
1.0
  0
LINE
  8
2
  6
CONTINUOUS
 62
     2
  5
49B
 10
42.567083
 20
73.91175
 30
0.0
 11
43.203167
 21
73.91175
 31
0.0
  0
LINE
  8
2
  6
CONTINUOUS
 62
     2
  5
49C
 10
43.79975
 20
73.91175
 30
0.0
 11
44.075
 21
73.91175
 31
0.0
  0
TEXT
  8
2
  6
CONTINUOUS
 62
    40
  5
49D
 10
41.95675
 20
72.637083
 30
0.0
 40
0.125
  1
5/8"
  7
MONOTXT
210
0.0
220
0.0
230
1.0
  0
TEXT
  8
2
  6
CONTINUOUS
 62
    40
  5
49E
 10
41.95675
 20
72.42275
 30
0.0
 40
0.125
  1
Bolt
  7
MONOTXT
210
0.0
220
0.0
230
1.0
  0
TEXT
  8
2
  6
CONTINUOUS
 62
    40
  5
49F
 10
40.44825
 20
72.129917
 30
0.0
 40
0.125
  1
14"
  7
MONOTXT
210
0.0
220
0.0
230
1.0
  0
TEXT
  8
2
  6
CONTINUOUS
 62
    40
  5
4A0
 10
41.0825
 20
70.424333
 30
0.0
 40
0.125
  1
7/8"
  7
MONOTXT
210
0.0
220
0.0
230
1.0
  0
LINE
  8
2
  6
CONTINUOUS
 62
     2
  5
4A1
 10
40.583667
 20
72.37075
 30
0.0
 11
40.583667
 21
73.391167
 31
0.0
  0
LINE
  8
3
  6
HIDDEN
 62
     7
  5
4A2
 10
41.79775
 20
72.226167
 30
0.0
 11
43.170833
 21
72.226167
 31
0.0
  0
LINE
  8
3
  6
HIDDEN
 62
     7
  5
4A3
 10
41.79775
 20
72.1075
 30
0.0
 11
43.170833
 21
72.1075
 31
0.0
  0
LINE
  8
3
  6
HIDDEN
 62
     7
  5
4A4
 10
41.79775
 20
72.16125
 30
0.0
 11
43.170833
 21
72.16125
 31
0.0
  0
LINE
  8
3
  6
HIDDEN
 62
     7
  5
4A5
 10
41.79775
 20
72.042667
 30
0.0
 11
43.170833
 21
72.042667
 31
0.0
  0
LINE
  8
2
  6
CONTINUOUS
 62
     2
  5
4A6
 10
41.274083
 20
73.391167
 30
0.0
 11
41.274083
 21
73.755333
 31
0.0
  0
LINE
  8
2
  6
CONTINUOUS
 62
     2
  5
4A7
 10
41.117083
 20
79.865583
 30
0.0
 11
41.117083
 21
80.22975
 31
0.0
  0
TEXT
  8
2
  6
CONTINUOUS
 62
    40
  5
4A8
 10
44.686167
 20
77.992667
 30
0.0
 40
0.125
  1
13/16" Dia.
  7
MONOTXT
210
0.0
220
0.0
230
1.0
  0
TEXT
  8
2
  6
CONTINUOUS
 62
    40
  5
4A9
 10
44.686167
 20
77.778417
 30
0.0
 40
0.125
  1
Hole
  7
MONOTXT
210
0.0
220
0.0
230
1.0
  0
LINE
  8
2
  6
CONTINUOUS
 62
     2
  5
4AA
 10
45.997583
 20
77.912417
 30
0.0
 11
45.75025
 21
77.912417
 31
0.0
  0
LINE
  8
2
  6
CONTINUOUS
 62
     2
  5
4AB
 10
51.261333
 20
79.869167
 30
0.0
 11
51.261333
 21
80.203083
 31
0.0
  0
LINE
  8
2
  6
CONTINUOUS
 62
     2
  5
4AC
 10
41.24775
 20
76.662833
 30
0.0
 11
40.722667
 21
76.662833
 31
0.0
  0
LINE
  8
1
  6
CONTINUOUS
 62
   132
  5
4AD
 10
44.075
 20
73.39475
 30
0.0
 11
44.075
 21
69.463833
 31
0.0
  0
LINE
  8
1
  6
CONTINUOUS
 62
   233
  5
4AE
 10
44.075
 20
69.463833
 30
0.0
 11
43.80125
 21
69.463833
 31
0.0
  0
LINE
  8
1
  6
CONTINUOUS
 62
   233
  5
4AF
 10
43.80125
 20
69.463833
 30
0.0
 11
43.695
 21
69.251583
 31
0.0
  0
LINE
  8
1
  6
CONTINUOUS
 62
   132
  5
4B0
 10
43.695
 20
69.251583
 30
0.0
 11
43.41175
 21
69.638417
 31
0.0
  0
LINE
  8
1
  6
CONTINUOUS
 62
   132
  5
4B1
 10
43.41175
 20
69.638417
 30
0.0
 11
43.305417
 21
69.449083
 31
0.0
  0
LINE
  8
1
  6
CONTINUOUS
 62
   233
  5
4B2
 10
43.305417
 20
69.449083
 30
0.0
 11
42.93075
 21
69.449083
 31
0.0
  0
LINE
  8
1
  6
CONTINUOUS
 62
   132
  5
4B3
 10
44.005333
 20
73.39475
 30
0.0
 11
44.005333
 21
69.463833
 31
0.0
  0
TEXT
  8
2
  6
CONTINUOUS
 62
    40
  5
4B4
 10
43.2475
 20
70.64025
 30
0.0
 40
0.125
  1
Washer
  7
MONOTXT
210
0.0
220
0.0
230
1.0
  0
TEXT
  8
2
  6
CONTINUOUS
 62
    40
  5
4B5
 10
44.237833
 20
71.586
 30
0.0
 40
0.125
  1
13/16" Dia. Hole
  7
MONOTXT
210
0.0
220
0.0
230
1.0
  0
TEXT
  8
2
  6
CONTINUOUS
 62
    40
  5
4B6
 10
44.2845
 20
73.176917
 30
0.0
 40
0.125
  1
Additional Hole (to
  7
MONOTXT
210
0.0
220
0.0
230
1.0
  0
TEXT
  8
2
  6
CONTINUOUS
 62
    40
  5
4B7
 10
44.2845
 20
72.962667
 30
0.0
 40
0.125
  1
facilitate erection)
  7
MONOTXT
210
0.0
220
0.0
230
1.0
  0
TEXT
  8
2
  6
CONTINUOUS
 62
     2
  5
4B8
 10
44.322083
 20
72.653
 30
0.0
 40
0.125
  1
Optional Holes (to
  7
MONOTXT
210
0.0
220
0.0
230
1.0
  0
TEXT
  8
2
  6
CONTINUOUS
 62
    40
  5
4B9
 10
44.322083
 20
72.43875
 30
0.0
 40
0.125
  1
facilitate erection)
  7
MONOTXT
210
0.0
220
0.0
230
1.0
  0
LINE
  8
2
  6
CONTINUOUS
 62
     2
  5
4BA
 10
43.431417
 20
72.127833
 30
0.0
 11
43.816667
 21
72.127833
 31
0.0
  0
LINE
  8
2
  6
CONTINUOUS
 62
     2
  5
4BB
 10
43.600833
 20
73.39475
 30
0.0
 11
43.600833
 21
72.888
 31
0.0
  0
INSERT
  8
2
  6
CONTINUOUS
 62
     2
  5
4BC
  2
ARR
 10
43.600833
 20
73.39475
 30
0.0
 50
90.0
210
0.0
220
0.0
230
1.0
  0
INSERT
  8
2
  6
CONTINUOUS
 62
     2
  5
4BD
  2
ARR
 10
43.600833
 20
72.127833
 30
0.0
 50
270.0
210
0.0
220
0.0
230
1.0
  0
TEXT
  8
2
  6
CONTINUOUS
 62
    40
  5
4BE
 10
43.525667
 20
72.684167
 30
0.0
 40
0.125
  1
7"
  7
MONOTXT
210
0.0
220
0.0
230
1.0
  0
LINE
  8
2
  6
CONTINUOUS
 62
     2
  5
4BF
 10
43.600833
 20
72.626583
 30
0.0
 11
43.600833
 21
72.127833
 31
0.0
  0
LINE
  8
1
  6
CONTINUOUS
 62
   233
  5
4C0
 10
44.005333
 20
72.165
 30
0.0
 11
44.075
 21
72.165
 31
0.0
  0
LINE
  8
1
  6
CONTINUOUS
 62
   233
  5
4C1
 10
44.005333
 20
72.0835
 30
0.0
 11
44.075
 21
72.0835
 31
0.0
  0
SOLID
  8
2
  6
CONTINUOUS
 62
     2
  5
4C2
 10
44.138167
 20
72.320333
 30
0.0
 11
44.082667
 21
72.343
 31
0.0
 12
44.042417
 22
72.165
 32
0.0
 13
44.042417
 23
72.165
 33
0.0
  0
LINE
  8
1
  6
CONTINUOUS
 62
   233
  5
4C3
 10
44.110417
 20
72.331667
 30
0.0
 11
44.214167
 21
72.585833
 31
0.0
  0
LINE
  8
2
  6
CONTINUOUS
 62
     2
  5
4C4
 10
44.214167
 20
72.585833
 30
0.0
 11
44.291
 21
72.585833
 31
0.0
  0
SOLID
  8
2
  6
CONTINUOUS
 62
     2
  5
4C5
 10
42.819417
 20
71.925083
 30
0.0
 11
42.878417
 21
71.936167
 31
0.0
 12
42.81575
 22
72.1075
 32
0.0
 13
42.81575
 23
72.1075
 33
0.0
  0
LINE
  8
2
  6
CONTINUOUS
 62
     2
  5
4C6
 10
42.848917
 20
71.930583
 30
0.0
 11
42.902417
 21
71.645833
 31
0.0
  0
SOLID
  8
2
  6
CONTINUOUS
 62
     2
  5
4C7
 10
43.07525
 20
71.777
 30
0.0
 11
43.135167
 21
71.780833
 31
0.0
 12
43.09375
 22
71.958583
 32
0.0
 13
43.09375
 23
71.958583
 33
0.0
  0
LINE
  8
2
  6
CONTINUOUS
 62
     2
  5
4C8
 10
43.10525
 20
71.778917
 30
0.0
 11
43.16575
 21
70.830583
 31
0.0
  0
LINE
  8
2
  6
CONTINUOUS
 62
     2
  5
4C9
 10
43.16575
 20
70.830583
 30
0.0
 11
43.3015
 21
70.830583
 31
0.0
  0
LINE
  8
2
  6
CONTINUOUS
 62
     2
  5
4CA
 10
42.634167
 20
69.696333
 30
0.0
 11
42.93075
 21
69.696333
 31
0.0
  0
INSERT
  8
2
  6
CONTINUOUS
 62
     2
  5
4CB
  2
ARR
 10
42.93075
 20
69.69625
 30
0.0
210
0.0
220
0.0
230
1.0
  0
LINE
  8
1
  6
CONTINUOUS
 62
   132
  5
4CC
 10
46.354583
 20
73.39475
 30
0.0
 11
47.115083
 21
73.39475
 31
0.0
  0
LINE
  8
1
  6
CONTINUOUS
 62
   132
  5
4CD
 10
46.354583
 20
73.39475
 30
0.0
 11
46.354583
 21
69.463833
 31
0.0
  0
LINE
  8
1
  6
CONTINUOUS
 62
   132
  5
4CE
 10
47.115083
 20
73.39475
 30
0.0
 11
47.115083
 21
69.463833
 31
0.0
  0
LINE
  8
3
  6
HIDDEN
 62
     7
  5
4CF
 10
46.71275
 20
73.39475
 30
0.0
 11
46.71275
 21
69.5105
 31
0.0
  0
LINE
  8
3
  6
HIDDEN
 62
     7
  5
4D0
 10
46.810917
 20
73.39475
 30
0.0
 11
46.810917
 21
69.404667
 31
0.0
  0
LINE
  8
1
  6
CONTINUOUS
 62
   132
  5
4D1
 10
46.354583
 20
69.463833
 30
0.0
 11
46.51975
 21
69.463833
 31
0.0
  0
LINE
  8
1
  6
CONTINUOUS
 62
   132
  5
4D2
 10
46.51975
 20
69.463833
 30
0.0
 11
46.611333
 21
69.619917
 31
0.0
  0
LINE
  8
1
  6
CONTINUOUS
 62
   132
  5
4D3
 10
46.611333
 20
69.619917
 30
0.0
 11
46.871417
 21
69.339333
 31
0.0
  0
LINE
  8
1
  6
CONTINUOUS
 62
   132
  5
4D4
 10
46.871417
 20
69.339333
 30
0.0
 11
46.953167
 21
69.466417
 31
0.0
  0
LINE
  8
1
  6
CONTINUOUS
 62
   132
  5
4D5
 10
46.953167
 20
69.466417
 30
0.0
 11
47.115083
 21
69.466417
 31
0.0
  0
CIRCLE
  8
1
  6
CONTINUOUS
 62
   233
  5
4D6
 10
46.5525
 20
72.196917
 30
0.0
 40
0.063702
210
0.0
220
0.0
230
1.0
  0
CIRCLE
  8
1
  6
CONTINUOUS
 62
   233
  5
4D7
 10
46.981
 20
72.196917
 30
0.0
 40
0.063702
210
0.0
220
0.0
230
1.0
  0
SOLID
  8
1
  6
CONTINUOUS
 62
   233
  5
4D8
 10
46.554833
 20
72.442167
 30
0.0
 11
46.495167
 21
72.435917
 31
0.0
 12
46.543667
 22
72.26
 32
0.0
 13
46.543667
 23
72.26
 33
0.0
  0
LINE
  8
1
  6
CONTINUOUS
 62
   233
  5
4D9
 10
46.525
 20
72.439
 30
0.0
 11
46.454333
 21
73.11825
 31
0.0
  0
LINE
  8
1
  6
CONTINUOUS
 62
   233
  5
4DA
 10
46.454333
 20
73.11825
 30
0.0
 11
46.128917
 21
73.11825
 31
0.0
  0
SOLID
  8
1
  6
CONTINUOUS
 62
   233
  5
4DB
 10
46.7475
 20
72.119
 30
0.0
 11
46.775167
 21
72.06575
 31
0.0
 12
46.921
 22
72.1755
 32
0.0
 13
46.921
 23
72.1755
 33
0.0
  0
LINE
  8
1
  6
CONTINUOUS
 62
   233
  5
4DC
 10
46.761333
 20
72.092417
 30
0.0
 11
45.903333
 21
71.645833
 31
0.0
  0
LINE
  8
2
  6
CONTINUOUS
 62
     2
  5
4DD
 10
46.6735
 20
72.4025
 30
0.0
 11
46.976083
 21
72.4025
 31
0.0
  0
LINE
  8
2
  6
CONTINUOUS
 62
     2
  5
4DE
 10
46.976083
 20
72.530833
 30
0.0
 11
46.976083
 21
72.30425
 31
0.0
  0
INSERT
  8
2
  6
CONTINUOUS
 62
     2
  5
4DF
  2
ARR
 10
46.976083
 20
72.4025
 30
0.0
210
0.0
220
0.0
230
1.0
  0
INSERT
  8
2
  6
CONTINUOUS
 62
     2
  5
4E0
  2
ARR
 10
47.115083
 20
72.4025
 30
0.0
 50
180.0
210
0.0
220
0.0
230
1.0
  0
LINE
  8
2
  6
CONTINUOUS
 62
     2
  5
4E1
 10
47.115083
 20
72.4025
 30
0.0
 11
47.49775
 21
72.4025
 31
0.0
  0
TEXT
  8
2
  6
CONTINUOUS
 62
    40
  5
4E2
 10
47.550083
 20
72.358167
 30
0.0
 40
0.125
  1
7/8"
  7
MONOTXT
210
0.0
220
0.0
230
1.0
  0
LINE
  8
2
  6
CONTINUOUS
 62
     2
  5
4E3
 10
46.354583
 20
73.5055
 30
0.0
 11
46.354583
 21
74.064167
 31
0.0
  0
LINE
  8
2
  6
CONTINUOUS
 62
     2
  5
4E4
 10
47.115083
 20
73.5055
 30
0.0
 11
47.115083
 21
74.064167
 31
0.0
  0
LINE
  8
2
  6
CONTINUOUS
 62
     2
  5
4E5
 10
47.115083
 20
73.79925
 30
0.0
 11
46.835417
 21
73.79925
 31
0.0
  0
INSERT
  8
2
  6
CONTINUOUS
 62
     2
  5
4E6
  2
ARR
 10
47.115083
 20
73.79925
 30
0.0
210
0.0
220
0.0
230
1.0
  0
INSERT
  8
2
  6
CONTINUOUS
 62
     2
  5
4E7
  2
ARR
 10
46.354583
 20
73.79925
 30
0.0
 50
180.0
210
0.0
220
0.0
230
1.0
  0
TEXT
  8
2
  6
CONTINUOUS
 62
    40
  5
4E8
 10
46.670333
 20
73.7525
 30
0.0
 40
0.125
  1
4"
  7
MONOTXT
210
0.0
220
0.0
230
1.0
  0
LINE
  8
2
  6
CONTINUOUS
 62
     2
  5
4E9
 10
46.621167
 20
73.79925
 30
0.0
 11
46.354583
 21
73.79925
 31
0.0
  0
LINE
  8
2
  6
CONTINUOUS
 62
     2
  5
4EA
 10
46.094583
 20
74.224833
 30
0.0
 11
46.485417
 21
74.224833
 31
0.0
  0
INSERT
  8
2
  6
CONTINUOUS
 62
     2
  5
4EB
  2
ARR
 10
46.094583
 20
74.224833
 30
0.0
 50
180.0
210
0.0
220
0.0
230
1.0
  0
TEXT
  8
2
  6
CONTINUOUS
 62
    40
  5
4EC
 10
46.5705
 20
74.181667
 30
0.0
 40
0.125
  1
Traffic
  7
MONOTXT
210
0.0
220
0.0
230
1.0
  0
LINE
  8
1
  6
CONTINUOUS
 62
   132
  5
4ED
 10
57.82575
 20
72.61625
 30
0.0
 11
57.82575
 21
67.57825
 31
0.0
  0
LINE
  8
1
  6
CONTINUOUS
 62
   132
  5
4EE
 10
56.35275
 20
72.61625
 30
0.0
 11
56.35275
 21
67.57825
 31
0.0
  0
LINE
  8
1
  6
CONTINUOUS
 62
   132
  5
4EF
 10
56.35275
 20
71.487083
 30
0.0
 11
53.902667
 21
71.487083
 31
0.0
  0
LINE
  8
1
  6
CONTINUOUS
 62
   233
  5
4F0
 10
53.902667
 20
71.060083
 30
0.0
 11
53.902667
 21
69.31925
 31
0.0
  0
LINE
  8
1
  6
CONTINUOUS
 62
   132
  5
4F1
 10
53.902667
 20
68.89225
 30
0.0
 11
56.35275
 21
68.89225
 31
0.0
  0
LINE
  8
1
  6
CONTINUOUS
 62
   233
  5
4F2
 10
53.902667
 20
71.060083
 30
0.0
 11
53.729917
 21
71.060083
 31
0.0
  0
LINE
  8
1
  6
CONTINUOUS
 62
   233
  5
4F3
 10
53.729917
 20
71.060083
 30
0.0
 11
53.729917
 21
70.29975
 31
0.0
  0
LINE
  8
1
  6
CONTINUOUS
 62
   132
  5
4F4
 10
53.729917
 20
70.29975
 30
0.0
 11
51.59175
 21
70.29975
 31
0.0
  0
LINE
  8
1
  6
CONTINUOUS
 62
   233
  5
4F5
 10
51.59175
 20
70.29975
 30
0.0
 11
51.59175
 21
71.09025
 31
0.0
  0
LINE
  8
1
  6
CONTINUOUS
 62
   233
  5
4F6
 10
51.59175
 20
71.09025
 30
0.0
 11
51.370167
 21
71.09025
 31
0.0
  0
LINE
  8
1
  6
CONTINUOUS
 62
   233
  5
4F7
 10
51.370167
 20
71.09025
 30
0.0
 11
51.370167
 21
70.189583
 31
0.0
  0
LINE
  8
1
  6
CONTINUOUS
 62
   233
  5
4F8
 10
51.370167
 20
69.288833
 30
0.0
 11
51.370167
 21
70.189583
 31
0.0
  0
LINE
  8
1
  6
CONTINUOUS
 62
   233
  5
4F9
 10
51.59175
 20
70.079417
 30
0.0
 11
51.59175
 21
69.288833
 31
0.0
  0
LINE
  8
1
  6
CONTINUOUS
 62
   233
  5
4FA
 10
51.59175
 20
69.288833
 30
0.0
 11
51.370167
 21
69.288833
 31
0.0
  0
LINE
  8
1
  6
CONTINUOUS
 62
   233
  5
4FB
 10
53.729917
 20
70.079417
 30
0.0
 11
51.59175
 21
70.079417
 31
0.0
  0
LINE
  8
1
  6
CONTINUOUS
 62
   233
  5
4FC
 10
53.729917
 20
69.31925
 30
0.0
 11
53.729917
 21
70.079417
 31
0.0
  0
LINE
  8
1
  6
CONTINUOUS
 62
   233
  5
4FD
 10
53.902667
 20
69.31925
 30
0.0
 11
53.729917
 21
69.31925
 31
0.0
  0
LINE
  8
3
  6
HIDDEN
 62
     7
  5
4FE
 10
51.370167
 20
70.660583
 30
0.0
 11
51.59175
 21
70.660583
 31
0.0
  0
LINE
  8
3
  6
HIDDEN
 62
     7
  5
4FF
 10
51.370167
 20
70.489833
 30
0.0
 11
51.59175
 21
70.489833
 31
0.0
  0
LINE
  8
3
  6
HIDDEN
 62
     7
  5
500
 10
51.370167
 20
69.776417
 30
0.0
 11
51.59175
 21
69.776417
 31
0.0
  0
LINE
  8
3
  6
HIDDEN
 62
     7
  5
501
 10
51.370167
 20
69.564333
 30
0.0
 11
51.59175
 21
69.564333
 31
0.0
  0
LINE
  8
1
  6
CONTINUOUS
 62
   233
  5
502
 10
53.729917
 20
70.864417
 30
0.0
 11
53.598417
 21
70.864417
 31
0.0
  0
LINE
  8
1
  6
CONTINUOUS
 62
   233
  5
503
 10
53.598417
 20
70.864417
 30
0.0
 11
53.598417
 21
70.29975
 31
0.0
  0
LINE
  8
1
  6
CONTINUOUS
 62
   233
  5
504
 10
53.598417
 20
70.776333
 30
0.0
 11
53.42175
 21
70.776333
 31
0.0
  0
LINE
  8
1
  6
CONTINUOUS
 62
   233
  5
505
 10
53.42175
 20
70.776333
 30
0.0
 11
53.42175
 21
70.41275
 31
0.0
  0
LINE
  8
1
  6
CONTINUOUS
 62
   233
  5
506
 10
53.42175
 20
70.41275
 30
0.0
 11
53.598417
 21
70.41275
 31
0.0
  0
LINE
  8
1
  6
CONTINUOUS
 62
   233
  5
507
 10
53.42175
 20
70.671417
 30
0.0
 11
53.219
 21
70.671417
 31
0.0
  0
LINE
  8
1
  6
CONTINUOUS
 62
   233
  5
508
 10
53.219
 20
70.671417
 30
0.0
 11
53.219
 21
70.500833
 31
0.0
  0
LINE
  8
1
  6
CONTINUOUS
 62
   233
  5
509
 10
53.42175
 20
70.500833
 30
0.0
 11
53.219
 21
70.500833
 31
0.0
  0
TEXT
  8
2
  6
CONTINUOUS
 62
    40
  5
50A
 10
55.014833
 20
73.294083
 30
0.0
 40
0.125
  1
Post Bolt
  7
MONOTXT
210
0.0
220
0.0
230
1.0
  0
TEXT
  8
2
  6
CONTINUOUS
 62
     2
  5
50B
 10
49.935667
 20
70.320333
 30
0.0
 40
0.125
  1
C
  7
MONOTXT
210
0.0
220
0.0
230
1.0
  0
TEXT
  8
2
  6
CONTINUOUS
 62
     2
  5
50C
 10
49.985833
 20
70.276167
 30
0.0
 40
0.125
  1
L
  7
MONOTXT
210
0.0
220
0.0
230
1.0
  0
LINE
  8
1
  6
CONTINUOUS
 62
   233
  5
50D
 10
56.35275
 20
72.61625
 30
0.0
 11
56.721
 21
72.61625
 31
0.0
  0
LINE
  8
1
  6
CONTINUOUS
 62
   233
  5
50E
 10
56.721
 20
72.61625
 30
0.0
 11
56.916417
 21
72.90825
 31
0.0
  0
LINE
  8
1
  6
CONTINUOUS
 62
   233
  5
50F
 10
56.916417
 20
72.90825
 30
0.0
 11
57.45375
 21
72.310667
 31
0.0
  0
LINE
  8
1
  6
CONTINUOUS
 62
   233
  5
510
 10
57.45375
 20
72.310667
 30
0.0
 11
57.668083
 21
72.61625
 31
0.0
  0
LINE
  8
1
  6
CONTINUOUS
 62
   233
  5
511
 10
57.668083
 20
72.61625
 30
0.0
 11
57.82575
 21
72.61625
 31
0.0
  0
LINE
  8
1
  6
CONTINUOUS
 62
   233
  5
512
 10
56.35275
 20
67.57825
 30
0.0
 11
56.672083
 21
67.57825
 31
0.0
  0
LINE
  8
1
  6
CONTINUOUS
 62
   233
  5
513
 10
56.672083
 20
67.57825
 30
0.0
 11
56.81125
 21
67.853667
 31
0.0
  0
LINE
  8
1
  6
CONTINUOUS
 62
   233
  5
514
 10
56.81125
 20
67.853667
 30
0.0
 11
57.389917
 21
67.28625
 31
0.0
  0
LINE
  8
1
  6
CONTINUOUS
 62
   233
  5
515
 10
57.389917
 20
67.28625
 30
0.0
 11
57.604083
 21
67.57825
 31
0.0
  0
LINE
  8
1
  6
CONTINUOUS
 62
   233
  5
516
 10
57.604083
 20
67.57825
 30
0.0
 11
57.82575
 21
67.57825
 31
0.0
  0
LINE
  8
3
  6
HIDDEN
 62
     7
  5
517
 10
53.738583
 20
70.65225
 30
0.0
 11
56.361417
 21
70.65225
 31
0.0
  0
LINE
  8
3
  6
HIDDEN
 62
     7
  5
518
 10
53.738583
 20
70.746167
 30
0.0
 11
56.361417
 21
70.746167
 31
0.0
  0
LINE
  8
3
  6
HIDDEN
 62
     7
  5
519
 10
53.738583
 20
70.528417
 30
0.0
 11
56.361417
 21
70.528417
 31
0.0
  0
LINE
  8
3
  6
HIDDEN
 62
     7
  5
51A
 10
53.738583
 20
70.434667
 30
0.0
 11
56.361417
 21
70.434667
 31
0.0
  0
LINE
  8
1
  6
CONTINUOUS
 62
   233
  5
51B
 10
58.98225
 20
70.89225
 30
0.0
 11
58.98225
 21
72.797833
 31
0.0
  0
LINE
  8
2
  6
CONTINUOUS
 62
     2
  5
51C
 10
56.608667
 20
70.591083
 30
0.0
 11
56.982917
 21
70.591083
 31
0.0
  0
LINE
  8
2
  6
CONTINUOUS
 62
     2
  5
51D
 10
56.59575
 20
70.189583
 30
0.0
 11
56.982917
 21
70.189583
 31
0.0
  0
LINE
  8
2
  6
CONTINUOUS
 62
     2
  5
51E
 10
56.822083
 20
70.919333
 30
0.0
 11
56.822083
 21
70.591083
 31
0.0
  0
LINE
  8
2
  6
CONTINUOUS
 62
     2
  5
51F
 10
56.822083
 20
70.189583
 30
0.0
 11
56.822083
 21
69.870083
 31
0.0
  0
TEXT
  8
2
  6
CONTINUOUS
 62
     2
  5
520
 10
42.14025
 20
75.088333
 30
0.0
 40
0.16
  1
WOOD GUARDRAIL POST (RECTANGULAR)
  7
MONOTXT
210
0.0
220
0.0
230
1.0
  0
TEXT
  8
2
  6
CONTINUOUS
 62
     2
  5
521
 10
51.813833
 20
75.133833
 30
0.0
 40
0.16
  1
WOOD GUARDRAIL POST (ROUND)
  7
MONOTXT
210
0.0
220
0.0
230
1.0
  0
TEXT
  8
2
  6
CONTINUOUS
 62
    40
  5
522
 10
61.887917
 20
76.5395
 30
0.0
 40
0.125
  1
The circular washers shall be made of steel and galvanized
  7
MONOTXT
210
0.0
220
0.0
230
1.0
  0
TEXT
  8
2
  6
CONTINUOUS
 62
     2
  5
523
 10
61.868667
 20
68.29675
 30
0.0
 40
0.133
  1
of wood blocks to be erected on steel posts.
  7
MONOTXT
210
0.0
220
0.0
230
1.0
  0
TEXT
  8
2
  6
CONTINUOUS
 62
     2
  5
524
 10
65.705167
 20
79.500917
 30
0.0
 40
0.3125
  1
NOTES
  7
MONOTXT
210
0.0
220
0.0
230
1.0
  0
TEXT
  8
2
  6
CONTINUOUS
 62
     2
  5
525
 10
61.9015
 20
79.125917
 30
0.0
 40
0.25
  1
GENERAL:
  7
MONOTXT
210
0.0
220
0.0
230
1.0
  0
TEXT
  8
2
  6
CONTINUOUS
 62
     2
  5
526
 10
44.903667
 20
79.145333
 30
0.0
 40
0.125
  1
7"
  7
MONOTXT
210
0.0
220
0.0
230
1.0
  0
LINE
  8
2
  6
CONTINUOUS
 62
     2
  5
527
 10
44.942417
 20
79.3525
 30
0.0
 11
44.942417
 21
79.862667
 31
0.0
  0
TEXT
  8
2
  6
CONTINUOUS
 62
    40
  5
528
 10
43.452667
 20
73.852
 30
0.0
 40
0.125
  1
6"
  7
MONOTXT
210
0.0
220
0.0
230
1.0
  0
TEXT
  8
2
  6
CONTINUOUS
 62
    40
  5
529
 10
66.67225
 20
71.851167
 30
0.0
 40
0.125
  1
,
  7
MONOTXT
210
0.0
220
0.0
230
1.0
  0
LINE
  8
2
  6
CONTINUOUS
 62
     2
  5
52A
 10
42.902417
 20
71.645833
 30
0.0
 11
44.185917
 21
71.645833
 31
0.0
  0
LINE
  8
2
  6
CONTINUOUS
 62
     2
  5
52B
 10
45.751667
 20
71.645833
 30
0.0
 11
45.903333
 21
71.645833
 31
0.0
  0
LINE
  8
1
  6
CONTINUOUS
 62
   233
  5
52C
 10
51.785
 20
79.870917
 30
0.0
 11
51.785
 21
77.370833
 31
0.0
  0
LINE
  8
2
  6
CONTINUOUS
 62
     2
  5
52D
 10
42.76425
 20
68.334
 30
0.0
 11
45.868167
 21
68.334
 31
0.0
  0
LINE
  8
2
  6
CONTINUOUS
 62
     2
  5
52E
 10
51.80975
 20
74.996
 30
0.0
 11
55.842917
 21
74.996
 31
0.0
  0
LINE
  8
2
  6
CONTINUOUS
 62
     2
  5
52F
 10
42.08275
 20
74.956417
 30
0.0
 11
47.213167
 21
74.956417
 31
0.0
  0
LINE
  8
2
  6
CONTINUOUS
 62
     2
  5
530
 10
51.68125
 20
74.956417
 30
0.0
 11
55.971417
 21
74.956417
 31
0.0
  0
TEXT
  8
2
  6
CONTINUOUS
 62
    40
  5
531
 10
61.861667
 20
78.807583
 30
0.0
 40
0.133
  1
Only one type of block, steel or wood, shall be used throughout
  7
MONOTXT
210
0.0
220
0.0
230
1.0
  0
POINT
  8
1
  6
DASHED
 62
     2
  5
532
 10
36.93675
 20
81.696667
 30
0.0
  0
POINT
  8
1
  6
DASHED
 62
     2
  5
533
 10
70.16175
 20
60.576667
 30
0.0
  0
LINE
  8
1
  6
DASHED
 62
     4
  5
534
 10
70.032083
 20
82.176667
 30
0.0
 11
34.832083
 21
82.176667
 31
0.0
  0
LINE
  8
1
  6
DASHED
 62
     4
  5
535
 10
70.032083
 20
60.176667
 30
0.0
 11
34.832083
 21
60.176667
 31
0.0
  0
LINE
  8
1
  6
DASHED
 62
     4
  5
536
 10
36.407083
 20
82.176667
 30
0.0
 11
36.407083
 21
60.176667
 31
0.0
  0
LINE
  8
1
  6
CONTINUOUS
 62
   140
  5
537
 10
37.44875
 20
81.676667
 30
0.0
 11
37.44875
 21
60.676667
 31
0.0
  0
LINE
  8
1
  6
CONTINUOUS
 62
   140
  5
538
 10
69.94875
 20
81.676667
 30
0.0
 11
37.44875
 21
81.676667
 31
0.0
  0
LINE
  8
1
  6
CONTINUOUS
 62
   140
  5
539
 10
69.94875
 20
81.676667
 30
0.0
 11
69.94875
 21
60.676667
 31
0.0
  0
LINE
  8
1
  6
CONTINUOUS
 62
   140
  5
53A
 10
69.94875
 20
60.676667
 30
0.0
 11
37.44875
 21
60.676667
 31
0.0
  0
LINE
  8
1
  6
CONTINUOUS
 62
   140
  5
53B
 10
37.19875
 20
77.776667
 30
0.0
 11
36.79875
 21
77.776667
 31
0.0
  0
LINE
  8
1
  6
CONTINUOUS
 62
   140
  5
53C
 10
37.19875
 20
74.976667
 30
0.0
 11
36.79875
 21
74.976667
 31
0.0
  0
LINE
  8
1
  6
CONTINUOUS
 62
   140
  5
53D
 10
37.19875
 20
67.376667
 30
0.0
 11
36.79875
 21
67.376667
 31
0.0
  0
LINE
  8
1
  6
CONTINUOUS
 62
   140
  5
53E
 10
37.19875
 20
64.576667
 30
0.0
 11
36.79875
 21
64.576667
 31
0.0
  0
CIRCLE
  8
1
  6
CONTINUOUS
 62
   140
  5
53F
 10
36.94875
 20
77.776667
 30
0.0
 40
0.125
210
0.0
220
0.0
230
1.0
  0
CIRCLE
  8
1
  6
CONTINUOUS
 62
   140
  5
540
 10
36.94875
 20
74.976667
 30
0.0
 40
0.125
210
0.0
220
0.0
230
1.0
  0
CIRCLE
  8
1
  6
CONTINUOUS
 62
   140
  5
541
 10
36.94875
 20
67.376667
 30
0.0
 40
0.125
210
0.0
220
0.0
230
1.0
  0
CIRCLE
  8
1
  6
CONTINUOUS
 62
   140
  5
542
 10
36.94875
 20
64.576667
 30
0.0
 40
0.125
210
0.0
220
0.0
230
1.0
  0
TEXT
  8
1
  6
CONTINUOUS
 62
   140
  5
544
 10
66.4045
 20
60.584917
 30
0.0
 40
0.06
  1
$$$$$$$$$FILENAME$$$$$$$$
  7
txt
 11
66.4045
 21
60.614917
 31
0.0
210
0.0
220
0.0
230
1.0
 73
     2
  0
TEXT
  8
1
  6
CONTINUOUS
 62
   140
  5
545
 10
68.128583
 20
60.584917
 30
0.0
 40
0.06
  1
$USERNAME$
  7
txt
 11
68.128583
 21
60.614917
 31
0.0
210
0.0
220
0.0
230
1.0
 73
     2
  0
TEXT
  8
1
  6
CONTINUOUS
 62
   140
  5
546
 10
68.902167
 20
60.584917
 30
0.0
 40
0.06
  1
DD-MMM-YYYY HH:MM
  7
txt
 11
68.902167
 21
60.614917
 31
0.0
210
0.0
220
0.0
230
1.0
 73
     2
  0
POINT
  8
1
  6
CONTINUOUS
 62
   140
  5
547
 10
37.44875
 20
60.676667
 30
0.0
  0
POINT
  8
1
  6
CONTINUOUS
 62
   140
  5
548
 10
37.44875
 20
81.676667
 30
0.0
  0
POINT
  8
1
  6
CONTINUOUS
 62
   140
  5
549
 10
69.94875
 20
81.676667
 30
0.0
  0
POINT
  8
1
  6
CONTINUOUS
 62
   140
  5
54A
 10
69.94875
 20
60.676667
 30
0.0
  0
LINE
  8
1
  6
CONTINUOUS
 62
   140
  5
54B
 10
69.94875
 20
60.676667
 30
0.0
 11
69.94875
 21
63.175667
 31
0.0
  0
LINE
  8
1
  6
CONTINUOUS
 62
   140
  5
54C
 10
69.94875
 20
64.1665
 30
0.0
 11
63.94875
 21
64.1665
 31
0.0
  0
LINE
  8
1
  6
CONTINUOUS
 62
   140
  5
54D
 10
69.94875
 20
60.676667
 30
0.0
 11
63.94875
 21
60.676667
 31
0.0
  0
LINE
  8
1
  6
CONTINUOUS
 62
   140
  5
54E
 10
65.486667
 20
62.575667
 30
0.0
 11
63.94875
 21
62.575667
 31
0.0
  0
LINE
  8
1
  6
CONTINUOUS
 62
   140
  5
54F
 10
65.486667
 20
62.376667
 30
0.0
 11
63.94875
 21
62.376667
 31
0.0
  0
LINE
  8
1
  6
CONTINUOUS
 62
   140
  5
550
 10
65.486667
 20
62.177667
 30
0.0
 11
63.94875
 21
62.177667
 31
0.0
  0
LINE
  8
1
  6
CONTINUOUS
 62
   140
  5
551
 10
65.486667
 20
61.978667
 30
0.0
 11
63.94875
 21
61.978667
 31
0.0
  0
LINE
  8
1
  6
CONTINUOUS
 62
   140
  5
552
 10
65.486667
 20
61.779667
 30
0.0
 11
63.94875
 21
61.779667
 31
0.0
  0
LINE
  8
1
  6
CONTINUOUS
 62
   140
  5
553
 10
65.486667
 20
61.580667
 30
0.0
 11
63.94875
 21
61.580667
 31
0.0
  0
LINE
  8
1
  6
CONTINUOUS
 62
   140
  5
554
 10
65.486667
 20
61.381667
 30
0.0
 11
63.94875
 21
61.381667
 31
0.0
  0
LINE
  8
1
  6
CONTINUOUS
 62
   140
  5
555
 10
65.486667
 20
61.182667
 30
0.0
 11
63.94875
 21
61.182667
 31
0.0
  0
LINE
  8
1
  6
CONTINUOUS
 62
   140
  5
556
 10
65.486667
 20
60.983667
 30
0.0
 11
63.94875
 21
60.983667
 31
0.0
  0
TEXT
  8
1
  6
CONTINUOUS
 62
   140
  5
557
 10
64.255833
 20
62.623
 30
0.0
 40
0.079
  1
REVISION DATE
 41
1.003165
  7
MONOTXT
210
0.0
220
0.0
230
1.0
  0
LINE
  8
1
  6
CONTINUOUS
 62
   140
  5
558
 10
63.94875
 20
62.086667
 30
0.0
 11
63.94875
 21
60.676667
 31
0.0
  0
TEXT
  8
1
  6
CONTINUOUS
 62
   140
  5
55A
 10
64.160083
 20
63.911583
 30
0.0
 40
0.1875
  1
WEST VIRGINIA DEPARTMENT OF TRANSPORTATION
  7
ROMANT
 72
     4
 11
66.930417
 21
64.005333
 31
0.0
210
0.0
220
0.0
230
1.0
  0
TEXT
  8
1
  6
CONTINUOUS
 62
   140
  5
55B
 10
65.732917
 20
63.702667
 30
0.0
 40
0.1875
  1
DIVISION OF HIGHWAYS
  7
ROMANT
 72
     4
 11
66.952417
 21
63.796417
 31
0.0
210
0.0
220
0.0
230
1.0
  0
TEXT
  8
1
  6
CONTINUOUS
 62
   140
  5
55C
 10
65.963
 20
63.5045
 30
0.0
 40
0.1875
  1
STANDARD DETAIL
  7
ROMANT
 72
     4
 11
66.941083
 21
63.59825
 31
0.0
210
0.0
220
0.0
230
1.0
  0
LINE
  8
1
  6
CONTINUOUS
 62
   140
  5
55D
 10
65.486667
 20
62.775667
 30
0.0
 11
63.94875
 21
62.775667
 31
0.0
  0
LINE
  8
1
  6
CONTINUOUS
 62
   140
  5
55E
 10
65.486667
 20
60.676667
 30
0.0
 11
65.486667
 21
62.775667
 31
0.0
  0
LINE
  8
1
  6
CONTINUOUS
 62
   140
  5
55F
 10
63.94875
 20
60.676667
 30
0.0
 11
63.94875
 21
64.1665
 31
0.0
  0
TEXT
  8
1
  6
CONTINUOUS
 62
     2
  5
560
 10
65.952833
 20
60.89375
 30
0.0
 40
0.166667
  1
STANDARD SHEET GR2       
  7
txt
 72
     4
 11
67.992167
 21
60.977083
 31
0.0
210
0.0
220
0.0
230
1.0
  0
TEXT
  8
1
  6
CONTINUOUS
 62
     2
  5
561
 10
65.214333
 20
63.03875
 30
0.0
 40
0.208333
  1
                        
  7
txt
 72
     4
 11
67.679583
 21
63.142917
 31
0.0
210
0.0
220
0.0
230
1.0
  0
TEXT
  8
1
  6
CONTINUOUS
 62
     2
  5
562
 10
65.22
 20
62.667167
 30
0.0
 40
0.208333
  1
                        
  7
txt
 72
     4
 11
67.68525
 21
62.771333
 31
0.0
210
0.0
220
0.0
230
1.0
  0
TEXT
  8
1
  6
CONTINUOUS
 62
     2
  5
563
 10
65.517667
 20
62.291833
 30
0.0
 40
0.208333
  1
     GUARDRAIL POSTS    
  7
txt
 72
     4
 11
67.967667
 21
62.396
 31
0.0
210
0.0
220
0.0
230
1.0
  0
TEXT
  8
1
  6
CONTINUOUS
 62
     2
  5
564
 10
65.219917
 20
61.9415
 30
0.0
 40
0.208333
  1
                        
  7
txt
 72
     4
 11
67.685167
 21
62.045667
 31
0.0
210
0.0
220
0.0
230
1.0
  0
TEXT
  8
1
  6
CONTINUOUS
 62
     2
  5
565
 10
65.219917
 20
61.591167
 30
0.0
 40
0.208333
  1
                        
  7
txt
 72
     4
 11
67.685167
 21
61.695333
 31
0.0
210
0.0
220
0.0
230
1.0
  0
TEXT
  8
1
  6
CONTINUOUS
 62
     2
  5
567
 10
63.983833
 20
62.015083
 30
0.0
 40
0.083333
  1
                  
  7
ROMANS
 72
     4
 11
64.719917
 21
62.05675
 31
0.0
210
0.0
220
0.0
230
1.0
  0
TEXT
  8
1
  6
CONTINUOUS
 62
     2
  5
568
 10
63.983833
 20
61.816083
 30
0.0
 40
0.083333
  1
                  
  7
ROMANS
 72
     4
 11
64.719917
 21
61.85775
 31
0.0
210
0.0
220
0.0
230
1.0
  0
TEXT
  8
1
  6
CONTINUOUS
 62
     2
  5
569
 10
63.983833
 20
61.617083
 30
0.0
 40
0.083333
  1
                  
  7
ROMANS
 72
     4
 11
64.719917
 21
61.65875
 31
0.0
210
0.0
220
0.0
230
1.0
  0
TEXT
  8
1
  6
CONTINUOUS
 62
     2
  5
56A
 10
63.983833
 20
61.418083
 30
0.0
 40
0.083333
  1
                  
  7
ROMANS
 72
     4
 11
64.719917
 21
61.45975
 31
0.0
210
0.0
220
0.0
230
1.0
  0
TEXT
  8
1
  6
CONTINUOUS
 62
     2
  5
56B
 10
63.983833
 20
61.219083
 30
0.0
 40
0.083333
  1
                  
  7
ROMANS
 72
     4
 11
64.719917
 21
61.26075
 31
0.0
210
0.0
220
0.0
230
1.0
  0
TEXT
  8
1
  6
CONTINUOUS
 62
     2
  5
56C
 10
63.983833
 20
61.020083
 30
0.0
 40
0.083333
  1
                  
  7
ROMANS
 72
     4
 11
64.719917
 21
61.06175
 31
0.0
210
0.0
220
0.0
230
1.0
  0
TEXT
  8
1
  6
CONTINUOUS
 62
     2
  5
56D
 10
63.98225
 20
60.815917
 30
0.0
 40
0.083333
  1
                  
  7
ROMANS
 72
     4
 11
64.718333
 21
60.857583
 31
0.0
210
0.0
220
0.0
230
1.0
  0
POINT
  8
1
  6
DASHED
 62
     2
  5
56E
 10
36.93675
 20
81.696667
 30
0.0
  0
POINT
  8
1
  6
DASHED
 62
     2
  5
56F
 10
70.16175
 20
60.576667
 30
0.0
  0
TEXT
  8
1
  6
CONTINUOUS
 62
   140
  5
570
 10
37.49675
 20
60.555667
 30
0.0
 40
0.06
  1
P5A1G92-STDBOR a
  7
MONOTXT
210
0.0
220
0.0
230
1.0
  0
TEXT
  8
2
  6
CONTINUOUS
 62
    40
  5
571
 10
56.11025
 20
80.465333
 30
0.0
 40
0.125
  1
7" +  1/4 " Dia.
  7
MONOTXT
210
0.0
220
0.0
230
1.0
  0
TEXT
  8
2
  6
CONTINUOUS
 62
    40
  5
572
 10
56.430333
 20
80.404583
 30
0.0
 40
0.125
  1
-
  7
MONOTXT
210
0.0
220
0.0
230
1.0
  0
TEXT
  8
2
  6
CONTINUOUS
 62
    40
  5
573
 10
46.760583
 20
80.439333
 30
0.0
 40
0.125
  1
6"+  1/4 "
  7
MONOTXT
210
0.0
220
0.0
230
1.0
  0
TEXT
  8
2
  6
CONTINUOUS
 62
    40
  5
574
 10
46.984083
 20
80.364667
 30
0.0
 40
0.125
  1
-
  7
MONOTXT
210
0.0
220
0.0
230
1.0
  0
TEXT
  8
2
  6
CONTINUOUS
 62
    40
  5
575
 10
53.237917
 20
80.125917
 30
0.0
 40
0.125
  1
Min.
  7
MONOTXT
210
0.0
220
0.0
230
1.0
  0
TEXT
  8
2
  6
CONTINUOUS
 62
    40
  5
576
 10
42.193167
 20
80.31575
 30
0.0
 40
0.125
  1
8"
  7
MONOTXT
210
0.0
220
0.0
230
1.0
  0
TEXT
  8
2
  6
CONTINUOUS
 62
    40
  5
577
 10
52.302333
 20
80.313167
 30
0.0
 40
0.125
  1
8"
  7
MONOTXT
210
0.0
220
0.0
230
1.0
  0
TEXT
  8
2
  6
CONTINUOUS
 62
    40
  5
578
 10
64.56125
 20
78.55875
 30
0.0
 40
0.133
  1
" Blocks for  block-outs"
  7
MONOTXT
210
0.0
220
0.0
230
1.0
  0
TEXT
  8
2
  6
CONTINUOUS
 62
    40
  5
579
 10
67.15725
 20
78.555833
 30
0.0
 40
0.133
  1
 shall be used on all posts
  7
MONOTXT
210
0.0
220
0.0
230
1.0
  0
TEXT
  8
2
  6
CONTINUOUS
 62
    40
  5
57A
 10
61.89975
 20
78.306083
 30
0.0
 40
0.133
  1
except when otherwise noted on plans.
  7
MONOTXT
210
0.0
220
0.0
230
1.0
  0
TEXT
  8
2
  6
CONTINUOUS
 62
    40
  5
57B
 10
65.937083
 20
78.308417
 30
0.0
 40
0.133
  1
 When blocks are not
  7
MONOTXT
210
0.0
220
0.0
230
1.0
  0
TEXT
  8
2
  6
CONTINUOUS
 62
    40
  5
57C
 10
64.927417
 20
78.035833
 30
0.0
 40
0.125
  1
herein, except the  5/8 "
  7
MONOTXT
210
0.0
220
0.0
230
1.0
  0
TEXT
  8
2
  6
CONTINUOUS
 62
    40
  5
57D
 10
63.0405
 20
77.789333
 30
0.0
 40
0.125
  1
required, the 1" minimum
  7
MONOTXT
210
0.0
220
0.0
230
1.0
  0
TEXT
  8
2
  6
CONTINUOUS
 62
    40
  5
57E
 10
65.5265
 20
77.79525
 30
0.0
 40
0.125
  1
notch for the wood guardrail post
  7
MONOTXT
210
0.0
220
0.0
230
1.0
  0
TEXT
  8
2
  6
CONTINUOUS
 62
    40
  5
57F
 10
66.776
 20
77.554
 30
0.0
 40
0.125
  1
 needed. For steel posts
  7
MONOTXT
210
0.0
220
0.0
230
1.0
  0
TEXT
  8
2
  6
CONTINUOUS
 62
    40
  5
580
 10
63.196667
 20
77.035333
 30
0.0
 40
0.125
  1
 herein, with the additional
  7
MONOTXT
210
0.0
220
0.0
230
1.0
  0
TEXT
  8
2
  6
CONTINUOUS
 62
    40
  5
581
 10
65.876083
 20
77.0395
 30
0.0
 40
0.125
  1
holes (to facilitate erection) being
  7
MONOTXT
210
0.0
220
0.0
230
1.0
  0
TEXT
  8
2
  6
CONTINUOUS
 62
    40
  5
582
 10
61.893417
 20
76.7985
 30
0.0
 40
0.125
  1
optional.
  7
MONOTXT
210
0.0
220
0.0
230
1.0
  0
TEXT
  8
2
  6
CONTINUOUS
 62
    40
  5
583
 10
61.881333
 20
75.049083
 30
0.0
 40
0.125
  1
Wood posts shall be pressure-treated after notching, in accordance 
  7
MONOTXT
210
0.0
220
0.0
230
1.0
  0
TEXT
  8
2
  6
CONTINUOUS
 62
    40
  5
584
 10
67.771083
 20
70.753417
 30
0.0
 40
0.125
  1
-
  7
MONOTXT
210
0.0
220
0.0
230
1.0
  0
TEXT
  8
2
  6
CONTINUOUS
 62
   132
  5
585
 10
64.989667
 20
73.559167
 30
0.0
 40
0.125
  1
out to the surface of the post.
  7
MONOTXT
210
0.0
220
0.0
230
1.0
  0
TEXT
  8
2
  6
CONTINUOUS
 62
   132
  5
586
 10
61.864
 20
73.55775
 30
0.0
 40
0.125
  1
the top 14", is angularly sliced
  7
MONOTXT
210
0.0
220
0.0
230
1.0
  0
TEXT
  8
2
  6
CONTINUOUS
 62
   132
  5
587
 10
61.878333
 20
74.555833
 30
0.0
 40
0.125
  1
The 1" (minimum) notch dimension as shown for round wooden 
  7
MONOTXT
210
0.0
220
0.0
230
1.0
  0
ARC
  8
1
  6
CONTINUOUS
 62
     7
  5
588
 10
51.658417
 20
78.441083
 30
0.0
 40
0.067563
 50
300.232697
 51
359.852675
210
0.0
220
0.0
230
1.0
  0
ARC
  8
1
  6
CONTINUOUS
 62
     7
  5
589
 10
51.658417
 20
78.441083
 30
0.0
 40
0.067563
 50
300.232697
 51
359.852675
210
0.0
220
0.0
230
1.0
  0
LINE
  8
1
  6
CONTINUOUS
 62
     7
  5
58A
 10
51.726
 20
78.44075
 30
0.0
 11
51.726
 21
78.763083
 31
0.0
  0
LINE
  8
1
  6
CONTINUOUS
 62
   233
  5
58B
 10
41.58175
 20
78.756583
 30
0.0
 11
41.58175
 21
78.434167
 31
0.0
  0
TEXT
  8
2
  6
CONTINUOUS
 62
     2
  5
58C
 10
67.744333
 20
69.299833
 30
0.0
 40
0.133
  1
the types (species) 
  7
MONOTXT
210
0.0
220
0.0
230
1.0
  0
TEXT
  8
2
  6
CONTINUOUS
 62
     2
  5
58D
 10
61.775083
 20
69.050917
 30
0.0
 40
0.133
  1
 permitted by specifications for wood posts.
  7
MONOTXT
210
0.0
220
0.0
230
1.0
  0
TEXT
  8
2
  6
CONTINUOUS
 62
     2
  5
58E
 10
66.5485
 20
69.042583
 30
0.0
 40
0.133
  1
Wood blocks shall be pressure-
  7
MONOTXT
210
0.0
220
0.0
230
1.0
  0
TEXT
  8
2
  6
CONTINUOUS
 62
     2
  5
58F
 10
61.868667
 20
68.817833
 30
0.0
 40
0.133
  1
-treated in conformance
  7
MONOTXT
210
0.0
220
0.0
230
1.0
  0
TEXT
  8
2
  6
CONTINUOUS
 62
     2
  5
590
 10
64.526917
 20
68.800167
 30
0.0
 40
0.133
  1
with the requirements for wood posts. However, 
  7
MONOTXT
210
0.0
220
0.0
230
1.0
  0
TEXT
  8
2
  6
CONTINUOUS
 62
     2
  5
591
 10
61.747083
 20
68.547333
 30
0.0
 40
0.133
  1
 creosote oil
  7
MONOTXT
210
0.0
220
0.0
230
1.0
  0
TEXT
  8
2
  6
CONTINUOUS
 62
     2
  5
592
 10
63.216583
 20
68.548333
 30
0.0
 40
0.133
  1
is not permitted as a preservative in the pressure treatment
  7
MONOTXT
210
0.0
220
0.0
230
1.0
  0
TEXT
  8
2
  6
CONTINUOUS
 62
     2
  5
593
 10
61.877833
 20
68.036583
 30
0.0
 40
0.125
  1
be positioned so that the 6" x 14" faces of the 
  7
MONOTXT
210
0.0
220
0.0
230
1.0
  0
TEXT
  8
2
  6
CONTINUOUS
 62
    40
  5
594
 10
67.68275
 20
71.797
 30
0.0
 40
0.133
  1
of the block holes,
  7
MONOTXT
210
0.0
220
0.0
230
1.0
  0
TEXT
  8
2
  6
CONTINUOUS
 62
    40
  5
595
 10
61.86575
 20
71.557
 30
0.0
 40
0.133
  1
for bolts connecting rails to blocks, shall be
  7
MONOTXT
210
0.0
220
0.0
230
1.0
  0
TEXT
  8
2
  6
CONTINUOUS
 62
    40
  5
596
 10
66.550833
 20
71.552667
 30
0.0
 40
0.133
  1
horizontally offset 1-1/8" from 
  7
MONOTXT
210
0.0
220
0.0
230
1.0
  0
TEXT
  8
2
  6
CONTINUOUS
 62
    40
  5
597
 10
61.708333
 20
71.305167
 30
0.0
 40
0.133
  1
 the center of the steel posts toward
  7
MONOTXT
210
0.0
220
0.0
230
1.0
  0
TEXT
  8
2
  6
CONTINUOUS
 62
    40
  5
598
 10
65.74125
 20
71.308417
 30
0.0
 40
0.133
  1
the post edge facing approaching 
  7
MONOTXT
210
0.0
220
0.0
230
1.0
  0
TEXT
  8
2
  6
CONTINUOUS
 62
    40
  5
599
 10
61.72325
 20
71.045917
 30
0.0
 40
0.133
  1
 traffic for both steel and wood
  7
MONOTXT
210
0.0
220
0.0
230
1.0
  0
TEXT
  8
2
  6
CONTINUOUS
 62
    40
  5
59A
 10
65.216583
 20
71.049167
 30
0.0
 40
0.133
  1
blocks, as shown for wood blocks on the
  7
MONOTXT
210
0.0
220
0.0
230
1.0
  0
TEXT
  8
2
  6
CONTINUOUS
 62
    40
  5
59B
 10
61.745833
 20
70.801667
 30
0.0
 40
0.133
  1
 Plan view of the Block 
  7
MONOTXT
210
0.0
220
0.0
230
1.0
  0
TEXT
  8
2
  6
CONTINUOUS
 62
    40
  5
59C
 10
64.206667
 20
70.803417
 30
0.0
 40
0.133
  1
 Stop Detail. Post length will be 6' +  1/2 " unless other-
  7
MONOTXT
210
0.0
220
0.0
230
1.0
  0
TEXT
  8
1
  6
CONTINUOUS
 62
     2
  5
59D
 10
61.89725
 20
70.559833
 30
0.0
 40
0.133
  1
wise noted.
  7
MONOTXT
210
0.0
220
0.0
230
1.0
  0
TEXT
  8
2
  6
CONTINUOUS
 62
    40
  5
59E
 10
68.356583
 20
78.80625
 30
0.0
 40
0.133
  1
 any project,  
  7
MONOTXT
210
0.0
220
0.0
230
1.0
  0
TEXT
  8
2
  6
CONTINUOUS
 62
    40
  5
59F
 10
61.872333
 20
78.55125
 30
0.0
 40
0.133
  1
unless otherwise specifed.
  7
MONOTXT
210
0.0
220
0.0
230
1.0
  0
TEXT
  8
2
  6
CONTINUOUS
 62
    40
  5
5A0
 10
68.234583
 20
78.308833
 30
0.0
 40
0.133
  1
provided, the 
  7
MONOTXT
210
0.0
220
0.0
230
1.0
  0
TEXT
  8
2
  6
CONTINUOUS
 62
    40
  5
5A1
 10
61.90775
 20
78.038833
 30
0.0
 40
0.133
  1
post details will be as shown
  7
MONOTXT
210
0.0
220
0.0
230
1.0
  0
TEXT
  8
2
  6
CONTINUOUS
 62
    40
  5
5A2
 10
67.163167
 20
78.055
 30
0.0
 40
0.125
  1
bolt minimum length will be
  7
MONOTXT
210
0.0
220
0.0
230
1.0
  0
TEXT
  8
2
  6
CONTINUOUS
 62
    40
  5
5A3
 10
67.163167
 20
78.055
 30
0.0
 40
0.125
  1
bolt minimum length will be
  7
MONOTXT
210
0.0
220
0.0
230
1.0
  0
TEXT
  8
2
  6
CONTINUOUS
 62
    40
  5
5A4
 10
61.90075
 20
77.8
 30
0.0
 40
0.125
  1
reduced as 
  7
MONOTXT
210
0.0
220
0.0
230
1.0
  0
TEXT
  8
2
  6
CONTINUOUS
 62
    40
  5
5A5
 10
68.860333
 20
77.7945
 30
0.0
 40
0.125
  1
(round) will 
  7
MONOTXT
210
0.0
220
0.0
230
1.0
  0
TEXT
  8
2
  6
CONTINUOUS
 62
    40
  5
5A6
 10
61.881333
 20
77.5545
 30
0.0
 40
0.125
  1
not be used, and
  7
MONOTXT
210
0.0
220
0.0
230
1.0
  0
TEXT
  8
2
  6
CONTINUOUS
 62
    40
  5
5A7
 10
63.5765
 20
77.559
 30
0.0
 40
0.125
  1
nails for block stability will not be 
  7
MONOTXT
210
0.0
220
0.0
230
1.0
  0
TEXT
  8
2
  6
CONTINUOUS
 62
    40
  5
5A8
 10
69.17325
 20
77.541417
 30
0.0
 40
0.125
  1
without 
  7
MONOTXT
210
0.0
220
0.0
230
1.0
  0
TEXT
  8
2
  6
CONTINUOUS
 62
    40
  5
5A9
 10
61.8645
 20
77.293917
 30
0.0
 40
0.125
  1
blocks, details of the posts shall 
  7
MONOTXT
210
0.0
220
0.0
230
1.0
  0
TEXT
  8
2
  6
CONTINUOUS
 62
    40
  5
5AA
 10
65.076417
 20
77.300167
 30
0.0
 40
0.125
  1
conform to the  "Steel
  7
MONOTXT
210
0.0
220
0.0
230
1.0
  0
TEXT
  8
2
  6
CONTINUOUS
 62
    40
  5
5AB
 10
67.566
 20
77.297333
 30
0.0
 40
0.125
  1
Guardrail Post (Wood 
  7
MONOTXT
210
0.0
220
0.0
230
1.0
  0
TEXT
  8
2
  6
CONTINUOUS
 62
    40
  5
5AC
 10
61.756333
 20
77.057333
 30
0.0
 40
0.125
  1
 Block)" details 
  7
MONOTXT
210
0.0
220
0.0
230
1.0
  0
TEXT
  8
2
  6
CONTINUOUS
 62
    40
  5
5AD
 10
68.597583
 20
75.057667
 30
0.0
 40
0.125
  1
with Section 
  7
MONOTXT
210
0.0
220
0.0
230
1.0
  0
TEXT
  8
2
  6
CONTINUOUS
 62
    40
  5
5AE
 10
61.895917
 20
74.825167
 30
0.0
 40
0.125
  1
710.5 of the specifications.
  7
MONOTXT
210
0.0
220
0.0
230
1.0
  0
TEXT
  8
2
  6
CONTINUOUS
 62
   132
  5
5AF
 10
68.1005
 20
74.56175
 30
0.0
 40
0.125
  1
posts shall be 
  7
MONOTXT
210
0.0
220
0.0
230
1.0
  0
TEXT
  8
2
  6
CONTINUOUS
 62
   132
  5
5B0
 10
61.878667
 20
74.29925
 30
0.0
 40
0.125
  1
located along the vertical centerline for the entire upper
  7
MONOTXT
210
0.0
220
0.0
230
1.0
  0
TEXT
  8
2
  6
CONTINUOUS
 62
   132
  5
5B1
 10
67.392833
 20
74.302833
 30
0.0
 40
0.125
  1
 14" of the post and 
  7
MONOTXT
210
0.0
220
0.0
230
1.0
  0
TEXT
  8
2
  6
CONTINUOUS
 62
   132
  5
5B2
 10
61.755667
 20
74.062917
 30
0.0
 40
0.125
  1
 shall apply regardless of whether the post is
  7
MONOTXT
210
0.0
220
0.0
230
1.0
  0
TEXT
  8
2
  6
CONTINUOUS
 62
   132
  5
5B3
 10
66.1755
 20
74.05075
 30
0.0
 40
0.125
  1
 notched (as shown) or otherwise 
  7
MONOTXT
210
0.0
220
0.0
230
1.0
  0
TEXT
  8
2
  6
CONTINUOUS
 62
   132
  5
5B4
 10
61.87275
 20
73.81075
 30
0.0
 40
0.125
  1
cut or sawed to form a vertical flat
  7
MONOTXT
210
0.0
220
0.0
230
1.0
  0
TEXT
  8
2
  6
CONTINUOUS
 62
   132
  5
5B5
 10
65.44375
 20
73.810167
 30
0.0
 40
0.125
  1
 plane and then, at some location below 
  7
MONOTXT
210
0.0
220
0.0
230
1.0
  0
TEXT
  8
2
  6
CONTINUOUS
 62
    40
  5
5B6
 10
64.038083
 20
73.262083
 30
0.0
 40
0.125
  1
-
  7
MONOTXT
210
0.0
220
0.0
230
1.0
  0
TEXT
  8
1
  6
CONTINUOUS
 62
     2
  5
5B7
 10
64.08675
 20
62.839667
 30
0.0
 40
0.083333
  1
  PREPARED 7-1-99
  7
ROMANS
 72
     4
 11
64.77775
 21
62.881333
 31
0.0
210
0.0
220
0.0
230
1.0
  0
TEXT
  8
2
  6
CONTINUOUS
 62
    40
  5
5B8
 10
61.747833
 20
73.323417
 30
0.0
 40
0.133
  1
 Post length will be 6' +  1/2 " unless otherwise noted.
  7
MONOTXT
210
0.0
220
0.0
230
1.0
  0
POLYLINE
  8
1
  6
DOT
 62
     2
  5
5B9
 66
     1
 10
0.0
 20
0.0
 30
0.0
  0
VERTEX
  8
1
  6
DOT
 62
     2
  5
5BA
 10
42.446667
 20
77.307917
 30
0.0
  0
VERTEX
  8
1
  6
DOT
 62
     2
  5
5BB
 10
42.530333
 20
77.2315
 30
0.0
  0
VERTEX
  8
1
  6
DOT
 62
     2
  5
5BC
 10
42.555833
 20
77.259917
 30
0.0
  0
VERTEX
  8
1
  6
DOT
 62
     2
  5
5BD
 10
42.529333
 20
77.283583
 30
0.0
  0
VERTEX
  8
1
  6
DOT
 62
     2
  5
5BE
 10
42.961101
 20
77.716721
 30
0.0
 42
0.14994
  0
VERTEX
  8
1
  6
DOT
 62
     2
  5
5BF
 10
42.989268
 20
77.766878
 30
0.0
 42
0.147737
  0
VERTEX
  8
1
  6
DOT
 62
     2
  5
5C0
 10
42.934417
 20
77.741583
 30
0.0
  0
VERTEX
  8
1
  6
DOT
 62
     2
  5
5C1
 10
42.5075
 20
77.31825
 30
0.0
  0
VERTEX
  8
1
  6
DOT
 62
     2
  5
5C2
 10
42.499
 20
77.3105
 30
0.0
  0
VERTEX
  8
1
  6
DOT
 62
     2
  5
5C3
 10
42.471917
 20
77.334667
 30
0.0
  0
VERTEX
  8
1
  6
DOT
 62
     2
  5
5C4
 10
42.446667
 20
77.307917
 30
0.0
  0
VERTEX
  8
1
  6
DOT
 62
     2
  5
5C5
 10
42.530333
 20
77.2315
 30
0.0
  0
SEQEND
  8
1
  6
DOT
 62
     2
  5
5C6
  0
POLYLINE
  8
1
  6
DOT
 62
     2
  5
5C7
 66
     1
 10
0.0
 20
0.0
 30
0.0
  0
VERTEX
  8
1
  6
DOT
 62
     2
  5
5C8
 10
42.446667
 20
79.922917
 30
0.0
  0
VERTEX
  8
1
  6
DOT
 62
     2
  5
5C9
 10
42.530333
 20
79.999333
 30
0.0
  0
VERTEX
  8
1
  6
DOT
 62
     2
  5
5CA
 10
42.555833
 20
79.970917
 30
0.0
  0
VERTEX
  8
1
  6
DOT
 62
     2
  5
5CB
 10
42.529333
 20
79.94725
 30
0.0
  0
VERTEX
  8
1
  6
DOT
 62
     2
  5
5CC
 10
42.961101
 20
79.514112
 30
0.0
 42
-0.14994
  0
VERTEX
  8
1
  6
DOT
 62
     2
  5
5CD
 10
42.989268
 20
79.463956
 30
0.0
 42
-0.147737
  0
VERTEX
  8
1
  6
DOT
 62
     2
  5
5CE
 10
42.934417
 20
79.48925
 30
0.0
  0
VERTEX
  8
1
  6
DOT
 62
     2
  5
5CF
 10
42.5075
 20
79.912583
 30
0.0
  0
VERTEX
  8
1
  6
DOT
 62
     2
  5
5D0
 10
42.499
 20
79.920333
 30
0.0
  0
VERTEX
  8
1
  6
DOT
 62
     2
  5
5D1
 10
42.471917
 20
79.896167
 30
0.0
  0
VERTEX
  8
1
  6
DOT
 62
     2
  5
5D2
 10
42.446667
 20
79.922917
 30
0.0
  0
VERTEX
  8
1
  6
DOT
 62
     2
  5
5D3
 10
42.530333
 20
79.999333
 30
0.0
  0
SEQEND
  8
1
  6
DOT
 62
     2
  5
5D4
  0
POLYLINE
  8
1
  6
DOT
 62
     2
  5
5D5
 66
     1
 10
0.0
 20
0.0
 30
0.0
  0
VERTEX
  8
1
  6
DOT
 62
     2
  5
5D6
 10
52.508
 20
79.92225
 30
0.0
  0
VERTEX
  8
1
  6
DOT
 62
     2
  5
5D7
 10
52.591667
 20
79.998667
 30
0.0
  0
VERTEX
  8
1
  6
DOT
 62
     2
  5
5D8
 10
52.617167
 20
79.97025
 30
0.0
  0
VERTEX
  8
1
  6
DOT
 62
     2
  5
5D9
 10
52.590667
 20
79.946583
 30
0.0
  0
VERTEX
  8
1
  6
DOT
 62
     2
  5
5DA
 10
53.022435
 20
79.513446
 30
0.0
 42
-0.14994
  0
VERTEX
  8
1
  6
DOT
 62
     2
  5
5DB
 10
53.050601
 20
79.463289
 30
0.0
 42
-0.147737
  0
VERTEX
  8
1
  6
DOT
 62
     2
  5
5DC
 10
52.99575
 20
79.488583
 30
0.0
  0
VERTEX
  8
1
  6
DOT
 62
     2
  5
5DD
 10
52.568833
 20
79.911917
 30
0.0
  0
VERTEX
  8
1
  6
DOT
 62
     2
  5
5DE
 10
52.560333
 20
79.919667
 30
0.0
  0
VERTEX
  8
1
  6
DOT
 62
     2
  5
5DF
 10
52.53325
 20
79.8955
 30
0.0
  0
VERTEX
  8
1
  6
DOT
 62
     2
  5
5E0
 10
52.508
 20
79.92225
 30
0.0
  0
VERTEX
  8
1
  6
DOT
 62
     2
  5
5E1
 10
52.591667
 20
79.998667
 30
0.0
  0
SEQEND
  8
1
  6
DOT
 62
     2
  5
5E2
  0
TEXT
  8
1
  6
CONTINUOUS
 62
     2
  5
5E3
 10
66.98775
 20
61.928833
 30
0.0
 40
0.208333
  1
AND BLOCKS
  7
txt
 72
     4
 11
67.98675
 21
62.033
 31
0.0
210
0.0
220
0.0
230
1.0
  0
LINE
  8
1
  6
CONTINUOUS
 62
   132
  5
5E4
 10
42.93075
 20
69.449083
 30
0.0
 11
42.93075
 21
70.912667
 31
0.0
  0
LINE
  8
1
  6
DASHED
 62
   132
  5
5E5
 10
42.93075
 20
70.912667
 30
0.0
 11
42.93075
 21
73.39475
 31
0.0
  0
LINE
  8
1
  6
DASHED
 62
   132
  5
5E6
 10
43.044333
 20
73.39475
 30
0.0
 11
43.044333
 21
70.912667
 31
0.0
  0
LINE
  8
1
  6
CONTINUOUS
 62
   132
  5
5E7
 10
43.044333
 20
70.912667
 30
0.0
 11
43.044333
 21
69.449083
 31
0.0
  0
TEXT
  8
2
  6
CONTINUOUS
 62
    40
  5
5E8
 10
40.088917
 20
70.094333
 30
0.0
 40
0.125
  1
8"X6",  Wood Block
  7
MONOTXT
210
0.0
220
0.0
230
1.0
  0
LINE
  8
3
  6
HIDDEN
 62
     7
  5
5E9
 10
53.729917
 20
69.776417
 30
0.0
 11
53.902667
 21
69.776417
 31
0.0
  0
LINE
  8
3
  6
HIDDEN
 62
     7
  5
5EA
 10
53.729917
 20
69.564333
 30
0.0
 11
53.902667
 21
69.564333
 31
0.0
  0
LINE
  8
1
  6
CONTINUOUS
 62
   132
  5
5EB
 10
53.670167
 20
71.487083
 30
0.0
 11
53.670167
 21
71.096083
 31
0.0
  0
LINE
  8
1
  6
CONTINUOUS
 62
   132
  5
5EC
 10
53.670167
 20
69.28325
 30
0.0
 11
53.670167
 21
68.89225
 31
0.0
  0
LINE
  8
1
  6
CONTINUOUS
 62
   132
  5
5ED
 10
53.938667
 20
71.096083
 30
0.0
 11
53.670167
 21
71.096083
 31
0.0
  0
LINE
  8
1
  6
CONTINUOUS
 62
   132
  5
5EE
 10
53.938667
 20
69.28325
 30
0.0
 11
53.670167
 21
69.28325
 31
0.0
  0
LINE
  8
1
  6
CONTINUOUS
 62
   132
  5
5EF
 10
53.938667
 20
71.096083
 30
0.0
 11
53.938667
 21
69.28325
 31
0.0
  0
LINE
  8
2
  6
CONTINUOUS
 62
     2
  5
5F0
 10
53.670167
 20
67.071083
 30
0.0
 11
53.670167
 21
68.732583
 31
0.0
  0
INSERT
  8
2
  6
CONTINUOUS
 62
     2
  5
5F1
  2
ARR
 10
53.670167
 20
67.280083
 30
0.0
 50
180.0
210
0.0
220
0.0
230
1.0
  0
INSERT
  8
2
  6
CONTINUOUS
 62
     2
  5
5F2
  2
ARR
 10
56.35275
 20
67.280083
 30
0.0
210
0.0
220
0.0
230
1.0
  0
LINE
  8
2
  6
CONTINUOUS
 62
     2
  5
5F3
 10
53.938667
 20
67.976417
 30
0.0
 11
53.938667
 21
68.732583
 31
0.0
  0
LINE
  8
2
  6
CONTINUOUS
 62
     2
  5
5F4
 10
56.35275
 20
67.071083
 30
0.0
 11
56.35275
 21
67.57825
 31
0.0
  0
INSERT
  8
2
  6
CONTINUOUS
 62
     2
  5
5F5
  2
ARR
 10
56.35275
 20
68.155583
 30
0.0
210
0.0
220
0.0
230
1.0
  0
INSERT
  8
2
  6
CONTINUOUS
 62
     2
  5
5F6
  2
ARR
 10
53.938667
 20
68.155583
 30
0.0
 50
180.0
210
0.0
220
0.0
230
1.0
  0
TEXT
  8
2
  6
CONTINUOUS
 62
    40
  5
5F7
 10
54.901417
 20
68.096417
 30
0.0
 40
0.125
  1
7 5/8 "
  7
MONOTXT
210
0.0
220
0.0
230
1.0
  0
TEXT
  8
2
  6
CONTINUOUS
 62
    40
  5
5F8
 10
54.923667
 20
67.2195
 30
0.0
 40
0.125
  1
8"
  7
MONOTXT
210
0.0
220
0.0
230
1.0
  0
TEXT
  8
2
  6
CONTINUOUS
 62
    40
  5
5F9
 10
52.94525
 20
72.532
 30
0.0
 40
0.125
  1
8" x 6"  Wood Block
  7
MONOTXT
210
0.0
220
0.0
230
1.0
  0
LINE
  8
2
  6
CONTINUOUS
 62
     2
  5
5FA
 10
53.670167
 20
68.89225
 30
0.0
 11
52.003083
 21
68.89225
 31
0.0
  0
LINE
  8
2
  6
CONTINUOUS
 62
     2
  5
5FB
 10
53.670167
 20
69.28325
 30
0.0
 11
52.480167
 21
69.28325
 31
0.0
  0
LINE
  8
2
  6
CONTINUOUS
 62
     2
  5
5FC
 10
53.670167
 20
71.096083
 30
0.0
 11
52.480167
 21
71.096083
 31
0.0
  0
LINE
  8
2
  6
CONTINUOUS
 62
     2
  5
5FD
 10
53.670167
 20
71.487083
 30
0.0
 11
52.003083
 21
71.487083
 31
0.0
  0
INSERT
  8
2
  6
CONTINUOUS
 62
     2
  5
5FE
  2
ARR
 10
52.181917
 20
68.89225
 30
0.0
 50
270.0
210
0.0
220
0.0
230
1.0
  0
INSERT
  8
2
  6
CONTINUOUS
 62
     2
  5
5FF
  2
ARR
 10
52.69375
 20
68.89225
 30
0.0
 50
90.0
210
0.0
220
0.0
230
1.0
  0
LINE
  8
2
  6
CONTINUOUS
 62
     2
  5
600
 10
52.69375
 20
68.89225
 30
0.0
 11
52.69375
 21
68.561083
 31
0.0
  0
LINE
  8
2
  6
CONTINUOUS
 62
     2
  5
601
 10
52.69375
 20
71.802
 30
0.0
 11
52.69375
 21
71.487083
 31
0.0
  0
TEXT
  8
2
  6
CONTINUOUS
 62
    40
  5
602
 10
52.603833
 20
71.946333
 30
0.0
 40
0.125
  1
 3/4 "
  7
MONOTXT
210
0.0
220
0.0
230
1.0
  0
TEXT
  8
2
  6
CONTINUOUS
 62
    40
  5
603
 10
52.581833
 20
68.33725
 30
0.0
 40
0.125
  1
 3/4 "
  7
MONOTXT
210
0.0
220
0.0
230
1.0
  0
TEXT
  8
2
  6
CONTINUOUS
 62
    40
  5
604
 10
52.50125
 20
69.834333
 30
0.0
 40
0.125
  1
4 1/2 "
  7
MONOTXT
210
0.0
220
0.0
230
1.0
  0
TEXT
  8
2
  6
CONTINUOUS
 62
    40
  5
605
 10
56.713667
 20
69.654583
 30
0.0
 40
0.125
  1
1 1/8 "
  7
MONOTXT
210
0.0
220
0.0
230
1.0
  0
INSERT
  8
2
  6
CONTINUOUS
 62
     2
  5
606
  2
ARR
 10
52.181917
 20
71.487083
 30
0.0
 50
90.0
210
0.0
220
0.0
230
1.0
  0
TEXT
  8
2
  6
CONTINUOUS
 62
    40
  5
607
 10
52.112333
 20
70.46925
 30
0.0
 40
0.125
  1
6"
  7
MONOTXT
210
0.0
220
0.0
230
1.0
  0
TEXT
  8
2
  6
CONTINUOUS
 62
    40
  5
608
 10
49.650917
 20
76.405417
 30
0.0
 40
0.125
  1
8"x6" Wood
  7
MONOTXT
210
0.0
220
0.0
230
1.0
  0
TEXT
  8
2
  6
CONTINUOUS
 62
     2
  5
609
 10
66.745083
 20
68.288417
 30
0.0
 40
0.133
  1
 8" x 6" wood blocks shall
  7
MONOTXT
210
0.0
220
0.0
230
1.0
  0
TEXT
  8
2
  6
CONTINUOUS
 62
     2
  5
60A
 10
66.598667
 20
68.041833
 30
0.0
 40
0.125
  1
 blocks are the
  7
MONOTXT
210
0.0
220
0.0
230
1.0
  0
TEXT
  8
2
  6
CONTINUOUS
 62
     2
  5
60B
 10
68.218333
 20
68.033833
 30
0.0
 40
0.133
  1
contact faces
  7
MONOTXT
210
0.0
220
0.0
230
1.0
  0
TEXT
  8
2
  6
CONTINUOUS
 62
     2
  5
60C
 10
54.566083
 20
66.341333
 30
0.0
 40
0.14
  1
PLAN
  7
ROMANS
210
0.0
220
0.0
230
1.0
  0
LINE
  8
2
  6
CONTINUOUS
 62
     2
  5
60D
 10
54.4355
 20
66.241
 30
0.0
 11
55.222167
 21
66.241
 31
0.0
  0
LINE
  8
2
  6
CONTINUOUS
 62
     2
  5
60E
 10
52.69375
 20
69.28325
 30
0.0
 11
52.69375
 21
68.89225
 31
0.0
  0
INSERT
  8
2
  6
CONTINUOUS
 62
     2
  5
60F
  2
ARR
 10
52.69375
 20
71.487083
 30
0.0
 50
270.0
210
0.0
220
0.0
230
1.0
  0
LINE
  8
2
  6
CONTINUOUS
 62
     2
  5
610
 10
52.69375
 20
71.487083
 30
0.0
 11
52.69375
 21
71.096083
 31
0.0
  0
INSERT
  8
2
  6
CONTINUOUS
 62
     2
  5
611
  2
ARR
 10
52.69375
 20
71.096083
 30
0.0
 50
90.0
210
0.0
220
0.0
230
1.0
  0
INSERT
  8
2
  6
CONTINUOUS
 62
     2
  5
612
  2
ARR
 10
52.69375
 20
69.28325
 30
0.0
 50
270.0
210
0.0
220
0.0
230
1.0
  0
LINE
  8
2
  6
CONTINUOUS
 62
     2
  5
613
 10
52.69375
 20
71.096083
 30
0.0
 11
52.69375
 21
70.12975
 31
0.0
  0
LINE
  8
2
  6
CONTINUOUS
 62
     2
  5
614
 10
52.69375
 20
69.687167
 30
0.0
 11
52.69375
 21
69.28325
 31
0.0
  0
LINE
  8
2
  6
CONTINUOUS
 62
     2
  5
615
 10
52.181917
 20
71.487083
 30
0.0
 11
52.181917
 21
70.784167
 31
0.0
  0
LINE
  8
2
  6
CONTINUOUS
 62
     2
  5
616
 10
52.181917
 20
70.390667
 30
0.0
 11
52.181917
 21
68.89225
 31
0.0
  0
LINE
  8
2
  6
CONTINUOUS
 62
     2
  5
617
 10
56.35275
 20
68.155583
 30
0.0
 11
55.404
 21
68.155583
 31
0.0
  0
LINE
  8
2
  6
CONTINUOUS
 62
     2
  5
618
 10
54.831917
 20
68.155583
 30
0.0
 11
53.938667
 21
68.155583
 31
0.0
  0
LINE
  8
2
  6
CONTINUOUS
 62
     2
  5
619
 10
56.35275
 20
67.280083
 30
0.0
 11
55.179833
 21
67.280083
 31
0.0
  0
LINE
  8
2
  6
CONTINUOUS
 62
     2
  5
61A
 10
54.82225
 20
67.280083
 30
0.0
 11
53.670167
 21
67.280083
 31
0.0
  0
TEXT
  8
2
  6
CONTINUOUS
 62
     2
  5
61B
 10
61.728417
 20
67.785083
 30
0.0
 40
0.133
  1
 for the rail elements and the posts in order to achieve the blockout 
  7
MONOTXT
210
0.0
220
0.0
230
1.0
  0
TEXT
  8
2
  6
CONTINUOUS
 62
     2
  5
61C
 10
61.8665
 20
67.520667
 30
0.0
 40
0.133
  1
dimension shown. When wood block is 
  7
MONOTXT
210
0.0
220
0.0
230
1.0
  0
TEXT
  8
1
  6
CONTINUOUS
 62
     2
  5
61D
 10
65.86475
 20
67.525583
 30
0.0
 40
0.133
  1
used adjacent to a wood post, the
  7
MONOTXT
210
0.0
220
0.0
230
1.0
  0
TEXT
  8
1
  6
CONTINUOUS
 62
     2
  5
61E
 10
61.848917
 20
67.276917
 30
0.0
 40
0.133
  1
block shall be nailed to the post with a 
  7
MONOTXT
210
0.0
220
0.0
230
1.0
  0
TEXT
  8
1
  6
CONTINUOUS
 62
     2
  5
61F
 10
66.006917
 20
67.281917
 30
0.0
 40
0.133
  1
galvanized steel  10d common nail.  
  7
MONOTXT
210
0.0
220
0.0
230
1.0
  0
TEXT
  8
1
  6
CONTINUOUS
 62
     2
  5
620
 10
61.867
 20
67.023917
 30
0.0
 40
0.133
  1
The nail is to be driven into the center of
  7
MONOTXT
210
0.0
220
0.0
230
1.0
  0
TEXT
  8
1
  6
CONTINUOUS
 62
     2
  5
621
 10
66.37575
 20
67.02475
 30
0.0
 40
0.133
  1
the top or bottom of the block.
  7
MONOTXT
210
0.0
220
0.0
230
1.0
  0
TEXT
  8
2
  6
CONTINUOUS
 62
    40
  5
622
 10
49.05775
 20
72.364917
 30
0.0
 40
0.125
  1
W6 x 9
  7
MONOTXT
210
0.0
220
0.0
230
1.0
  0
TEXT
  8
2
  6
CONTINUOUS
 62
    40
  5
623
 10
41.9515
 20
71.821667
 30
0.0
 40
0.125
  1
L=9 3/8 "
  7
MONOTXT
210
0.0
220
0.0
230
1.0
  0
TEXT
  8
2
  6
CONTINUOUS
 62
    40
  5
624
 10
40.896917
 20
69.636417
 30
0.0
 40
0.125
  1
W6 x 9 
  7
MONOTXT
210
0.0
220
0.0
230
1.0
  0
LINE
  8
2
  6
CONTINUOUS
 62
     2
  5
625
 10
42.44225
 20
70.909667
 30
0.0
 11
42.44225
 21
70.135083
 31
0.0
  0
INSERT
  8
2
  6
CONTINUOUS
 62
     2
  5
626
  2
ARR
 10
42.44225
 20
70.909667
 30
0.0
 50
90.0
210
0.0
220
0.0
230
1.0
  0
LINE
  8
2
  6
CONTINUOUS
 62
     2
  5
627
 10
41.979
 20
70.135083
 30
0.0
 11
42.44225
 21
70.135083
 31
0.0
  0
TEXT
  8
2
  6
CONTINUOUS
 62
    40
  5
628
 10
41.829917
 20
78.16525
 30
0.0
 40
0.125
  1
L=17 1/2 "
  7
MONOTXT
210
0.0
220
0.0
230
1.0
  0
TEXT
  8
2
  6
CONTINUOUS
 62
    40
  5
629
 10
51.866083
 20
78.17525
 30
0.0
 40
0.125
  1
L=15  1/2 "
  7
MONOTXT
210
0.0
220
0.0
230
1.0
  0
TEXT
  8
2
  6
CONTINUOUS
 62
    40
  5
62A
 10
67.65525
 20
76.535583
 30
0.0
 40
0.125
  1
in accordance with
  7
MONOTXT
210
0.0
220
0.0
230
1.0
  0
TEXT
  8
2
  6
CONTINUOUS
 62
    40
  5
62B
 10
61.883167
 20
76.295583
 30
0.0
 40
0.125
  1
the requirements of AASHTO M232.
  7
MONOTXT
210
0.0
220
0.0
230
1.0
  0
TEXT
  8
2
  6
CONTINUOUS
 62
    40
  5
62C
 10
61.873833
 20
75.308333
 30
0.0
 40
0.125
  1
Posts and blocks shall be the same type of wood.
  7
MONOTXT
210
0.0
220
0.0
230
1.0
  0
TEXT
  8
2
  6
CONTINUOUS
 62
     2
  5
62D
 10
61.85
 20
69.302583
 30
0.0
 40
0.133
  1
The type (species) of wood for blocks is to be one of
  7
MONOTXT
210
0.0
220
0.0
230
1.0
  0
ENDSEC
  0
EOF
