  0
SECTION
  2
HEADER
  9
$ACADVER
  1
AC1009
  9
$INSBASE
 10
0.0
 20
0.0
 30
0.0
  9
$EXTMIN
 10
-0.74675
 20
-1.173333
 30
0.0
  9
$EXTMAX
 10
35.915083
 20
46.059167
 30
0.0
  9
$LIMMIN
 10
0.0
 20
0.0
  9
$LIMMAX
 10
12.0
 20
9.0
  9
$ORTHOMODE
 70
     0
  9
$REGENMODE
 70
     1
  9
$FILLMODE
 70
     1
  9
$QTEXTMODE
 70
     0
  9
$MIRRTEXT
 70
     1
  9
$DRAGMODE
 70
     2
  9
$LTSCALE
 40
1.0
  9
$OSMODE
 70
     0
  9
$ATTMODE
 70
     1
  9
$TEXTSIZE
 40
0.2
  9
$TRACEWID
 40
0.05
  9
$TEXTSTYLE
  7
STANDARD
  9
$CLAYER
  8
0
  9
$CELTYPE
  6
CONTINUOUS
  9
$CECOLOR
 62
   256
  9
$DIMSCALE
 40
1.0
  9
$DIMASZ
 40
0.18
  9
$DIMEXO
 40
0.0625
  9
$DIMDLI
 40
0.38
  9
$DIMRND
 40
0.0
  9
$DIMDLE
 40
0.0
  9
$DIMEXE
 40
0.18
  9
$DIMTP
 40
0.0
  9
$DIMTM
 40
0.0
  9
$DIMTXT
 40
0.18
  9
$DIMCEN
 40
0.09
  9
$DIMTSZ
 40
0.0
  9
$DIMTOL
 70
     0
  9
$DIMLIM
 70
     0
  9
$DIMTIH
 70
     1
  9
$DIMTOH
 70
     1
  9
$DIMSE1
 70
     0
  9
$DIMSE2
 70
     0
  9
$DIMTAD
 70
     0
  9
$DIMZIN
 70
     0
  9
$DIMBLK
  1

  9
$DIMASO
 70
     1
  9
$DIMSHO
 70
     1
  9
$DIMPOST
  1

  9
$DIMAPOST
  1

  9
$DIMALT
 70
     0
  9
$DIMALTD
 70
     2
  9
$DIMALTF
 40
25.4
  9
$DIMLFAC
 40
1.0
  9
$DIMTOFL
 70
     0
  9
$DIMTVP
 40
0.0
  9
$DIMTIX
 70
     0
  9
$DIMSOXD
 70
     0
  9
$DIMSAH
 70
     0
  9
$DIMBLK1
  1

  9
$DIMBLK2
  1

  9
$DIMSTYLE
  2
STANDARD
  9
$DIMCLRD
 70
     0
  9
$DIMCLRE
 70
     0
  9
$DIMCLRT
 70
     0
  9
$DIMTFAC
 40
1.0
  9
$DIMGAP
 40
0.09
  9
$LUNITS
 70
     2
  9
$LUPREC
 70
     4
  9
$AXISMODE
 70
     0
  9
$AXISUNIT
 10
0.0
 20
0.0
  9
$SKETCHINC
 40
0.1
  9
$FILLETRAD
 40
0.0
  9
$AUNITS
 70
     0
  9
$AUPREC
 70
     0
  9
$MENU
  1
acad
  9
$ELEVATION
 40
0.0
  9
$PELEVATION
 40
0.0
  9
$THICKNESS
 40
0.0
  9
$LIMCHECK
 70
     0
  9
$BLIPMODE
 70
     1
  9
$CHAMFERA
 40
0.0
  9
$CHAMFERB
 40
0.0
  9
$SKPOLY
 70
     0
  9
$TDCREATE
 40
2451562.620671297
  9
$TDUPDATE
 40
2451562.620671297
  9
$TDINDWG
 40
0.0000000000
  9
$TDUSRTIMER
 40
0.0000000000
  9
$USRTIMER
 70
     1
  9
$ANGBASE
 50
0.0
  9
$ANGDIR
 70
     0
  9
$PDMODE
 70
     0
  9
$PDSIZE
 40
0.0
  9
$PLINEWID
 40
0.0
  9
$COORDS
 70
     0
  9
$SPLFRAME
 70
     0
  9
$SPLINETYPE
 70
     6
  9
$SPLINESEGS
 70
    10
  9
$ATTDIA
 70
     0
  9
$ATTREQ
 70
     1
  9
$HANDLING
 70
     1
  9
$HANDSEED
  5
7B4
  9
$SURFTAB1
 70
     6
  9
$SURFTAB2
 70
     6
  9
$SURFTYPE
 70
     6
  9
$SURFU
 70
     6
  9
$SURFV
 70
     6
  9
$UCSNAME
  2

  9
$UCSORG
 10
0.0
 20
0.0
 30
0.0
  9
$UCSXDIR
 10
1.0
 20
0.0
 30
0.0
  9
$UCSYDIR
 10
0.0
 20
1.0
 30
0.0
  9
$PUCSNAME
  2

  9
$PUCSORG
 10
0.0
 20
0.0
 30
0.0
  9
$PUCSXDIR
 10
1.0
 20
0.0
 30
0.0
  9
$PUCSYDIR
 10
0.0
 20
1.0
 30
0.0
  9
$USERI1
 70
     0
  9
$USERI2
 70
     0
  9
$USERI3
 70
     0
  9
$USERI4
 70
     0
  9
$USERI5
 70
     0
  9
$USERR1
 40
0.0
  9
$USERR2
 40
0.0
  9
$USERR3
 40
0.0
  9
$USERR4
 40
0.0
  9
$USERR5
 40
0.0
  9
$WORLDVIEW
 70
     1
  9
$SHADEDGE
 70
     3
  9
$SHADEDIF
 70
    70
  9
$TILEMODE
 70
     1
  9
$MAXACTVP
 70
    16
  9
$PINSBASE
 10
0.0
 20
0.0
 30
0.0
  9
$PLIMCHECK
 70
     0
  9
$PEXTMIN
 10
-1.000000E+20
 20
-1.000000E+20
 30
-1.000000E+20
  9
$PEXTMAX
 10
-1.000000E+20
 20
-1.000000E+20
 30
-1.000000E+20
  9
$PLIMMIN
 10
0.0
 20
0.0
  9
$PLIMMAX
 10
12.0
 20
9.0
  9
$UNITMODE
 70
     0
  9
$VISRETAIN
 70
     0
  9
$PLINEGEN
 70
     1
  9
$PSLTSCALE
 70
     0
  9
$TREEDEPTH
 70
  3020
  9
$DWGCODEPAGE
  3
ansi_1252
  0
ENDSEC
  0
SECTION
  2
TABLES
  0
TABLE
  2
VPORT
 70
     1
  0
VPORT
  2
*ACTIVE
 70
     0
 10
0.0
 20
0.0
 11
1.0
 21
1.0
 12
0.0
 22
0.0
 13
0.0
 23
0.0
 14
0.0
 24
0.0
 15
0.0
 25
0.0
 16
0.0
 26
0.0
 36
1.0
 17
17.235159
 27
35.584667
 37
0.0
 40
23.601
 41
1.577899
 42
50.0
 43
0.000333
 44
0.0
 50
0.0
 51
0.0
 71
     0
 72
   100
 73
     1
 74
     0
 75
     0
 76
     0
 77
     0
 78
     0
  0
ENDTAB
  0
TABLE
  2
LTYPE
 70
     7
  0
LTYPE
  2
CONTINUOUS
 70
     0
  3
Solid line
 72
    65
 73
     0
 40
0.0
  0
LTYPE
  2
DOT
 70
    64
  3
. . . . . . . . . . . . . . . . . . . . . . . . . . . . . . . . .
 72
    65
 73
     2
 40
0.25
 49
0.0
 49
-0.25
  0
LTYPE
  2
HIDDEN
 70
    64
  3
__ __ __ __ __ __ __ __ __ __ __ __ __ __ __ __ __ __ __ __ __ 
 72
    65
 73
     2
 40
0.375
 49
0.25
 49
-0.125
  0
LTYPE
  2
DASHED
 70
    64
  3
__ __ __ __ __ __ __ __ __ __ __ __ __ __ __ __ __ __ __ __ __
 72
    65
 73
     2
 40
0.75
 49
0.5
 49
-0.25
  0
LTYPE
  2
DASHDOT
 70
    64
  3
__ . __ . __ . __ . __ . __ . __ . __ . __ . __ . __ . __ . _
 72
    65
 73
     4
 40
1.0
 49
0.5
 49
-0.25
 49
0.0
 49
-0.25
  0
LTYPE
  2
DIVIDE
 70
    64
  3
____ . . ____ . . ____ . . ____ . . ____ . . ____ . . ____ . .
 72
    65
 73
     6
 40
1.25
 49
0.5
 49
-0.25
 49
0.0
 49
-0.25
 49
0.0
 49
-0.25
  0
LTYPE
  2
CENTER
 70
    64
  3
____ _ ____ _ ____ _ ____ _ ____ _ ____ _ ____ _ ____ _ ____ _
 72
    65
 73
     4
 40
2.0
 49
1.25
 49
-0.25
 49
0.25
 49
-0.25
  0
ENDTAB
  0
TABLE
  2
LAYER
 70
     6
  0
LAYER
  2
0
 70
    64
 62
     7
  6
CONTINUOUS
  0
LAYER
  2
CONSTRUCTION_CLASS
 70
     0
 62
     7
  6
CONTINUOUS
  0
LAYER
  2
PATTERN_CLASS
 70
     0
 62
     7
  6
CONTINUOUS
  0
LAYER
  2
1
 70
    64
 62
     7
  6
CONTINUOUS
  0
LAYER
  2
2
 70
    64
 62
     7
  6
CONTINUOUS
  0
LAYER
  2
3
 70
    64
 62
     7
  6
CONTINUOUS
  0
ENDTAB
  0
TABLE
  2
STYLE
 70
     5
  0
STYLE
  2
STANDARD
 70
     0
 40
0.0
 41
1.0
 50
0.0
 71
     0
 42
0.0
  3
txt
  4

  0
STYLE
  2
txt
 70
     0
 40
0.2
 41
1.0
 50
0.0
 71
     0
 42
0.2
  3
TXT
  4

  0
STYLE
  2
ROMANS
 70
     0
 40
0.2
 41
1.0
 50
0.0
 71
     0
 42
0.2
  3
ROMANS
  4

  0
STYLE
  2
MONOTXT
 70
     0
 40
0.2
 41
1.0
 50
0.0
 71
     0
 42
0.2
  3
MONOTXT
  4

  0
STYLE
  2
ROMANT
 70
     0
 40
0.2
 41
1.0
 50
0.0
 71
     0
 42
0.2
  3
ROMANT
  4

  0
ENDTAB
  0
TABLE
  2
VIEW
 70
     0
  0
ENDTAB
  0
TABLE
  2
UCS
 70
     0
  0
ENDTAB
  0
TABLE
  2
APPID
 70
     1
  0
APPID
  2
ACAD
 70
     0
  0
ENDTAB
  0
TABLE
  2
DIMSTYLE
 70
     1
  0
DIMSTYLE
  2
STANDARD
 70
     0
  3

  4

  5

  6

  7

 40
1.0
 41
0.18
 42
0.0625
 43
0.38
 44
0.18
 45
0.0
 46
0.0
 47
0.0
 48
0.0
140
0.18
141
0.09
142
0.0
143
25.4
144
1.0
145
0.0
146
1.0
147
0.09
 71
     0
 72
     0
 73
     1
 74
     1
 75
     0
 76
     0
 77
     0
 78
     0
170
     0
171
     2
172
     0
173
     0
174
     0
175
     0
176
     0
177
     0
178
     0
  0
ENDTAB
  0
ENDSEC
  0
SECTION
  2
BLOCKS
  0
BLOCK
  8
1
  6
CONTINUOUS
 62
   215
  5
1E1
  2
W
 70
     0
 10
0.0
 20
0.0
 30
0.0
  3
W
  0
LINE
  8
1
  6
CONTINUOUS
 62
   215
  5
1E2
 10
0.021083
 20
0.23975
 30
0.0
 11
0.544167
 21
0.611167
 31
0.0
  0
LINE
  8
1
  6
CONTINUOUS
 62
   215
  5
1E3
 10
0.545083
 20
0.692
 30
0.0
 11
0.010833
 21
1.089833
 31
0.0
  0
ARC
  8
1
  6
CONTINUOUS
 62
   215
  5
1E4
 10
0.515241
 20
0.651936
 30
0.0
 40
0.05
 50
305.3835
 51
53.331331
210
0.0
220
0.0
230
1.0
  0
LINE
  8
1
  6
CONTINUOUS
 62
   215
  5
1E5
 10
0.031417
 20
0.207167
 30
0.0
 11
0.5865
 21
0.616167
 31
0.0
  0
LINE
  8
1
  6
CONTINUOUS
 62
   215
  5
1E6
 10
0.586667
 20
0.6965
 30
0.0
 11
0.033667
 21
1.10775
 31
0.0
  0
ARC
  8
1
  6
CONTINUOUS
 62
   215
  5
1E7
 10
0.556825
 20
0.656436
 30
0.0
 40
0.05
 50
306.390222
 51
53.359986
210
0.0
220
0.0
230
1.0
  0
LINE
  8
1
  6
CONTINUOUS
 62
   215
  5
1E8
 10
0.060167
 20
0.202
 30
0.0
 11
0.609417
 21
0.583417
 31
0.0
  0
LINE
  8
1
  6
CONTINUOUS
 62
   215
  5
1E9
 10
0.608667
 20
0.748167
 30
0.0
 11
0.056167
 21
1.125333
 31
0.0
  0
ARC
  8
1
  6
CONTINUOUS
 62
   215
  5
1EA
 10
0.552325
 20
0.665519
 30
0.0
 40
0.1
 50
304.779856
 51
55.675203
210
0.0
220
0.0
230
1.0
  0
ARC
  8
1
  6
CONTINUOUS
 62
   215
  5
1EB
 10
0.088657
 20
0.160935
 30
0.0
 40
0.05
 50
124.779856
 51
179.999997
210
0.0
220
0.0
230
1.0
  0
ARC
  8
1
  6
CONTINUOUS
 62
   215
  5
1EC
 10
0.061074
 20
0.166852
 30
0.0
 40
0.05
 50
126.390222
 51
179.999997
210
0.0
220
0.0
230
1.0
  0
ARC
  8
1
  6
CONTINUOUS
 62
   215
  5
1ED
 10
0.050074
 20
0.198935
 30
0.0
 40
0.05
 50
125.3835
 51
179.999997
210
0.0
220
0.0
230
1.0
  0
ARC
  8
1
  6
CONTINUOUS
 62
   215
  5
1EE
 10
0.054491
 20
1.10427
 30
0.0
 40
0.02114
 50
85.295936
 51
170.450139
210
0.0
220
0.0
230
1.0
  0
ARC
  8
1
  6
CONTINUOUS
 62
   215
  5
1EF
 10
0.033657
 20
1.10777
 30
0.0
 40
0.0
 50
180.0
 51
340.900283
210
0.0
220
0.0
230
1.0
  0
ARC
  8
1
  6
CONTINUOUS
 62
   215
  5
1F0
 10
0.028241
 20
1.091186
 30
0.0
 40
0.017456
 50
71.860889
 51
184.764025
210
0.0
220
0.0
230
1.0
  0
LINE
  8
1
  6
CONTINUOUS
 62
   215
  5
1F1
 10
0.000083
 20
-0.263583
 30
0.0
 11
0.000083
 21
0.199
 31
0.0
  0
LINE
  8
1
  6
CONTINUOUS
 62
   215
  5
1F2
 10
0.011083
 20
-0.235833
 30
0.0
 11
0.011083
 21
0.166833
 31
0.0
  0
LINE
  8
1
  6
CONTINUOUS
 62
   215
  5
1F3
 10
0.038667
 20
-0.208
 30
0.0
 11
0.038667
 21
0.160917
 31
0.0
  0
ARC
  8
1
  6
CONTINUOUS
 62
   215
  5
1F4
 10
0.050074
 20
-0.263648
 30
0.0
 40
0.05
 50
180.0
 51
234.188183
210
0.0
220
0.0
230
1.0
  0
ARC
  8
1
  6
CONTINUOUS
 62
   215
  5
1F5
 10
0.061074
 20
-0.235815
 30
0.0
 40
0.05
 50
180.0
 51
235.131153
210
0.0
220
0.0
230
1.0
  0
ARC
  8
1
  6
CONTINUOUS
 62
   215
  5
1F6
 10
0.088657
 20
-0.207982
 30
0.0
 40
0.05
 50
180.0
 51
235.583503
210
0.0
220
0.0
230
1.0
  0
LINE
  8
1
  6
CONTINUOUS
 62
   215
  5
1F7
 10
0.032833
 20
-1.148
 30
0.0
 11
0.538
 21
-0.756417
 31
0.0
  0
LINE
  8
1
  6
CONTINUOUS
 62
   215
  5
1F8
 10
0.536583
 20
-0.676417
 30
0.0
 11
0.020833
 21
-0.304167
 31
0.0
  0
ARC
  8
1
  6
CONTINUOUS
 62
   215
  5
1F9
 10
0.507325
 20
-0.716899
 30
0.0
 40
0.05
 50
307.779992
 51
54.188183
210
0.0
220
0.0
230
1.0
  0
LINE
  8
1
  6
CONTINUOUS
 62
   215
  5
1FA
 10
0.061167
 20
-1.165167
 30
0.0
 11
0.595083
 21
-0.747667
 31
0.0
  0
LINE
  8
1
  6
CONTINUOUS
 62
   215
  5
1FB
 10
0.592833
 20
-0.667333
 30
0.0
 11
0.0325
 21
-0.276833
 31
0.0
  0
ARC
  8
1
  6
CONTINUOUS
 62
   215
  5
1FC
 10
0.564241
 20
-0.708316
 30
0.0
 40
0.05
 50
308.025283
 51
55.13115
210
0.0
220
0.0
230
1.0
  0
LINE
  8
1
  6
CONTINUOUS
 62
   215
  5
1FD
 10
0.096417
 20
-1.170167
 30
0.0
 11
0.606
 21
-0.782333
 31
0.0
  0
LINE
  8
1
  6
CONTINUOUS
 62
   215
  5
1FE
 10
0.601917
 20
-0.620167
 30
0.0
 11
0.060333
 21
-0.24925
 31
0.0
  0
ARC
  8
1
  6
CONTINUOUS
 62
   215
  5
1FF
 10
0.545408
 20
-0.702732
 30
0.0
 40
0.1
 50
307.27405
 51
55.583503
210
0.0
220
0.0
230
1.0
  0
ARC
  8
1
  6
CONTINUOUS
 62
   215
  5
200
 10
0.056157
 20
-1.141399
 30
0.0
 40
0.024291
 50
195.840603
 51
282.156847
210
0.0
220
0.0
230
1.0
  0
ARC
  8
1
  6
CONTINUOUS
 62
   215
  5
201
 10
0.082491
 20
-1.141816
 30
0.0
 40
0.031539
 50
227.640314
 51
296.1006
210
0.0
220
0.0
230
1.0
  0
ENDBLK
  8
1
  6
CONTINUOUS
 62
   215
  5
202
  0
BLOCK
  8
1
  6
HIDDEN
 62
   215
  5
223
  2
NAIL
 70
     0
 10
0.0
 20
0.0
 30
0.0
  3
NAIL
  0
ARC
  8
1
  6
HIDDEN
 62
   215
  5
224
 10
-0.010009
 20
-0.060139
 30
0.0
 40
0.01
 50
270.0
 51
360.0
210
0.0
220
0.0
230
1.0
  0
ARC
  8
1
  6
HIDDEN
 62
   215
  5
225
 10
-0.010009
 20
0.060195
 30
0.0
 40
0.01
 50
360.0
 51
90.0
210
0.0
220
0.0
230
1.0
  0
ARC
  8
1
  6
HIDDEN
 62
   215
  5
226
 10
-0.047259
 20
-0.029556
 30
0.0
 40
0.01
 50
360.0
 51
90.0
210
0.0
220
0.0
230
1.0
  0
ARC
  8
1
  6
HIDDEN
 62
   215
  5
227
 10
-0.027259
 20
-0.060139
 30
0.0
 40
0.01
 50
180.0
 51
270.0
210
0.0
220
0.0
230
1.0
  0
ARC
  8
1
  6
HIDDEN
 62
   215
  5
228
 10
-0.026676
 20
0.060195
 30
0.0
 40
0.01
 50
90.0
 51
180.0
210
0.0
220
0.0
230
1.0
  0
ARC
  8
1
  6
HIDDEN
 62
   215
  5
229
 10
-0.046676
 20
0.034778
 30
0.0
 40
0.01
 50
270.0
 51
360.0
210
0.0
220
0.0
230
1.0
  0
LINE
  8
1
  6
HIDDEN
 62
   215
  5
22A
 10
-0.412333
 20
-0.0195
 30
0.0
 11
-0.50775
 21
0.006417
 31
0.0
  0
LINE
  8
1
  6
HIDDEN
 62
   215
  5
22B
 10
-0.04725
 20
-0.0195
 30
0.0
 11
-0.412333
 21
-0.0195
 31
0.0
  0
LINE
  8
1
  6
HIDDEN
 62
   215
  5
22C
 10
-0.03725
 20
-0.060167
 30
0.0
 11
-0.03725
 21
-0.0295
 31
0.0
  0
LINE
  8
1
  6
HIDDEN
 62
   215
  5
22D
 10
-0.01
 20
-0.070167
 30
0.0
 11
-0.02725
 21
-0.070167
 31
0.0
  0
LINE
  8
1
  6
HIDDEN
 62
   215
  5
22E
 10
0.0
 20
0.060167
 30
0.0
 11
0.0
 21
-0.060167
 31
0.0
  0
LINE
  8
1
  6
HIDDEN
 62
   215
  5
22F
 10
-0.026667
 20
0.070167
 30
0.0
 11
-0.01
 21
0.070167
 31
0.0
  0
LINE
  8
1
  6
HIDDEN
 62
   215
  5
230
 10
-0.036667
 20
0.034833
 30
0.0
 11
-0.036667
 21
0.060167
 31
0.0
  0
LINE
  8
1
  6
HIDDEN
 62
   215
  5
231
 10
-0.412333
 20
0.024833
 30
0.0
 11
-0.046667
 21
0.024833
 31
0.0
  0
LINE
  8
1
  6
HIDDEN
 62
   215
  5
232
 10
-0.50775
 20
0.006417
 30
0.0
 11
-0.412333
 21
0.024833
 31
0.0
  0
ENDBLK
  8
1
  6
HIDDEN
 62
   215
  5
233
  0
BLOCK
  8
1
  6
CONTINUOUS
 62
   215
  5
515
  2
$D35
 70
     0
 10
0.0
 20
0.0
 30
0.0
  3
$N35
  0
LINE
  8
1
  6
CONTINUOUS
 62
   215
  5
516
 10
-0.746833
 20
0.053083
 30
0.0
 11
-0.746833
 21
0.18
 31
0.0
  0
LINE
  8
1
  6
CONTINUOUS
 62
   215
  5
517
 10
0.0
 20
0.053083
 30
0.0
 11
0.0
 21
0.18
 31
0.0
  0
LINE
  8
1
  6
CONTINUOUS
 62
   215
  5
518
 10
-0.621833
 20
0.0
 30
0.0
 11
-0.373417
 21
0.0
 31
0.0
  0
LINE
  8
1
  6
CONTINUOUS
 62
   215
  5
519
 10
-0.125
 20
0.0
 30
0.0
 11
-0.373417
 21
0.0
 31
0.0
  0
SOLID
  8
1
  6
CONTINUOUS
 62
   215
  5
51A
 10
-0.621833
 20
-0.020833
 30
0.0
 11
-0.621833
 21
0.020833
 31
0.0
 12
-0.746833
 22
0.0
 32
0.0
 13
-0.746833
 23
0.0
 33
0.0
  0
SOLID
  8
1
  6
CONTINUOUS
 62
   215
  5
51B
 10
-0.125
 20
-0.020833
 30
0.0
 11
-0.125
 21
0.020833
 31
0.0
 12
0.0
 22
0.0
 32
0.0
 13
0.0
 23
0.0
 33
0.0
  0
LINE
  8
3
  6
CONTINUOUS
 62
     7
  5
51C
 10
-0.746833
 20
-0.009417
 30
0.0
 11
-0.74675
 21
-0.009417
 31
0.0
  0
LINE
  8
3
  6
CONTINUOUS
 62
     7
  5
51D
 10
0.0
 20
-0.009417
 30
0.0
 11
0.000083
 21
-0.009417
 31
0.0
  0
LINE
  8
3
  6
CONTINUOUS
 62
     7
  5
51E
 10
0.0
 20
0.0
 30
0.0
 11
0.000083
 21
0.0
 31
0.0
  0
ENDBLK
  8
3
  6
CONTINUOUS
 62
     7
  5
51F
  0
BLOCK
  8
1
  6
CONTINUOUS
 62
   215
  5
581
  2
$D44
 70
     0
 10
0.0
 20
0.0
 30
0.0
  3
$N44
  0
LINE
  8
1
  6
CONTINUOUS
 62
   215
  5
582
 10
0.766083
 20
-0.015333
 30
0.0
 11
0.766083
 21
-0.18
 31
0.0
  0
LINE
  8
1
  6
CONTINUOUS
 62
   215
  5
583
 10
0.0
 20
-0.0625
 30
0.0
 11
0.0
 21
-0.18
 31
0.0
  0
LINE
  8
1
  6
CONTINUOUS
 62
   215
  5
584
 10
0.641083
 20
0.0
 30
0.0
 11
0.621167
 21
0.0
 31
0.0
  0
LINE
  8
1
  6
CONTINUOUS
 62
   215
  5
585
 10
0.125
 20
0.0
 30
0.0
 11
0.145
 21
0.0
 31
0.0
  0
SOLID
  8
1
  6
CONTINUOUS
 62
   215
  5
586
 10
0.641083
 20
-0.020833
 30
0.0
 11
0.641083
 21
0.020833
 31
0.0
 12
0.766083
 22
0.0
 32
0.0
 13
0.766083
 23
0.0
 33
0.0
  0
SOLID
  8
1
  6
CONTINUOUS
 62
   215
  5
587
 10
0.125
 20
-0.020833
 30
0.0
 11
0.125
 21
0.020833
 31
0.0
 12
0.0
 22
0.0
 32
0.0
 13
0.0
 23
0.0
 33
0.0
  0
TEXT
  8
1
  6
CONTINUOUS
 62
   215
  5
588
 10
0.27
 20
-0.0625
 30
0.0
 40
0.125
  1
  
  7
MONOTXT
210
0.0
220
0.0
230
1.0
  0
LINE
  8
3
  6
CONTINUOUS
 62
     7
  5
589
 10
0.766083
 20
0.047167
 30
0.0
 11
0.766167
 21
0.047167
 31
0.0
  0
LINE
  8
3
  6
CONTINUOUS
 62
     7
  5
58A
 10
0.0
 20
0.0
 30
0.0
 11
0.000083
 21
0.0
 31
0.0
  0
LINE
  8
3
  6
CONTINUOUS
 62
     7
  5
58B
 10
0.0
 20
0.0
 30
0.0
 11
0.000083
 21
0.0
 31
0.0
  0
ENDBLK
  8
3
  6
CONTINUOUS
 62
     7
  5
58C
  0
ENDSEC
  0
SECTION
  2
ENTITIES
  0
POINT
  8
1
  6
DASHED
 62
     2
  5
29
 10
2.631917
 20
45.579167
 30
0.0
  0
POINT
  8
1
  6
DASHED
 62
     2
  5
2A
 10
35.856917
 20
24.459167
 30
0.0
  0
LINE
  8
1
  6
DASHED
 62
     4
  5
2B
 10
35.72725
 20
46.059167
 30
0.0
 11
0.52725
 21
46.059167
 31
0.0
  0
LINE
  8
1
  6
DASHED
 62
     4
  5
2C
 10
35.72725
 20
24.059167
 30
0.0
 11
0.52725
 21
24.059167
 31
0.0
  0
LINE
  8
1
  6
DASHED
 62
     4
  5
2D
 10
2.10225
 20
46.059167
 30
0.0
 11
2.10225
 21
24.059167
 31
0.0
  0
LINE
  8
1
  6
CONTINUOUS
 62
   140
  5
2E
 10
3.143917
 20
45.559167
 30
0.0
 11
3.143917
 21
24.559167
 31
0.0
  0
LINE
  8
1
  6
CONTINUOUS
 62
   140
  5
2F
 10
35.643917
 20
45.559167
 30
0.0
 11
3.143917
 21
45.559167
 31
0.0
  0
LINE
  8
1
  6
CONTINUOUS
 62
   140
  5
30
 10
35.643917
 20
45.559167
 30
0.0
 11
35.643917
 21
24.559167
 31
0.0
  0
LINE
  8
1
  6
CONTINUOUS
 62
   140
  5
31
 10
35.643917
 20
24.559167
 30
0.0
 11
3.143917
 21
24.559167
 31
0.0
  0
LINE
  8
1
  6
CONTINUOUS
 62
   140
  5
32
 10
2.893917
 20
41.659167
 30
0.0
 11
2.493917
 21
41.659167
 31
0.0
  0
LINE
  8
1
  6
CONTINUOUS
 62
   140
  5
33
 10
2.893917
 20
38.859167
 30
0.0
 11
2.493917
 21
38.859167
 31
0.0
  0
LINE
  8
1
  6
CONTINUOUS
 62
   140
  5
34
 10
2.893917
 20
31.259167
 30
0.0
 11
2.493917
 21
31.259167
 31
0.0
  0
LINE
  8
1
  6
CONTINUOUS
 62
   140
  5
35
 10
2.893917
 20
28.459167
 30
0.0
 11
2.493917
 21
28.459167
 31
0.0
  0
CIRCLE
  8
1
  6
CONTINUOUS
 62
   140
  5
36
 10
2.643917
 20
41.659167
 30
0.0
 40
0.125
210
0.0
220
0.0
230
1.0
  0
CIRCLE
  8
1
  6
CONTINUOUS
 62
   140
  5
37
 10
2.643917
 20
38.859167
 30
0.0
 40
0.125
210
0.0
220
0.0
230
1.0
  0
CIRCLE
  8
1
  6
CONTINUOUS
 62
   140
  5
38
 10
2.643917
 20
31.259167
 30
0.0
 40
0.125
210
0.0
220
0.0
230
1.0
  0
CIRCLE
  8
1
  6
CONTINUOUS
 62
   140
  5
39
 10
2.643917
 20
28.459167
 30
0.0
 40
0.125
210
0.0
220
0.0
230
1.0
  0
TEXT
  8
1
  6
CONTINUOUS
 62
   140
  5
3B
 10
32.099667
 20
24.467417
 30
0.0
 40
0.06
  1
$$$$$$$$$FILENAME$$$$$$$$
  7
txt
 11
32.099667
 21
24.497417
 31
0.0
210
0.0
220
0.0
230
1.0
 73
     2
  0
TEXT
  8
1
  6
CONTINUOUS
 62
   140
  5
3C
 10
33.82375
 20
24.467417
 30
0.0
 40
0.06
  1
$USERNAME$
  7
txt
 11
33.82375
 21
24.497417
 31
0.0
210
0.0
220
0.0
230
1.0
 73
     2
  0
TEXT
  8
1
  6
CONTINUOUS
 62
   140
  5
3D
 10
34.597333
 20
24.467417
 30
0.0
 40
0.06
  1
DD-MMM-YYYY HH:MM
  7
txt
 11
34.597333
 21
24.497417
 31
0.0
210
0.0
220
0.0
230
1.0
 73
     2
  0
TEXT
  8
0
  6
CONTINUOUS
 62
   140
  5
3F
 10
30.649417
 20
44.443167
 30
0.0
 40
0.12
  1
  
 41
0.833333
  7
ROMANS
 72
     4
 11
30.73275
 21
44.503167
 31
0.0
210
0.0
220
0.0
230
1.0
  0
TEXT
  8
0
  6
CONTINUOUS
 62
   140
  5
40
 10
31.03375
 20
44.600583
 30
0.0
 40
0.1
  1
       
 41
0.8
  7
ROMANS
 72
     4
 11
31.300417
 21
44.650583
 31
0.0
210
0.0
220
0.0
230
1.0
  0
TEXT
  8
0
  6
CONTINUOUS
 62
   140
  5
41
 10
31.032667
 20
44.454167
 30
0.0
 40
0.1
  1
       
 41
0.8
  7
ROMANS
 72
     4
 11
31.299333
 21
44.504167
 31
0.0
210
0.0
220
0.0
230
1.0
  0
TEXT
  8
0
  6
CONTINUOUS
 62
   140
  5
42
 10
31.032667
 20
44.304417
 30
0.0
 40
0.1
  1
       
 41
0.8
  7
ROMANS
 72
     4
 11
31.299333
 21
44.354417
 31
0.0
210
0.0
220
0.0
230
1.0
  0
TEXT
  8
0
  6
CONTINUOUS
 62
   140
  5
43
 10
31.770833
 20
44.543917
 30
0.0
 40
0.1
  1
         
  7
ROMANS
 72
     4
 11
32.204167
 21
44.593917
 31
0.0
210
0.0
220
0.0
230
1.0
  0
TEXT
  8
0
  6
CONTINUOUS
 62
   140
  5
44
 10
33.338333
 20
44.454167
 30
0.0
 40
0.1
  1
          
  7
ROMANS
 72
     4
 11
33.821667
 21
44.504167
 31
0.0
210
0.0
220
0.0
230
1.0
  0
TEXT
  8
0
  6
CONTINUOUS
 62
   140
  5
45
 10
34.391417
 20
44.454167
 30
0.0
 40
0.1
  1
     
  7
ROMANS
 72
     4
 11
34.62475
 21
44.504167
 31
0.0
210
0.0
220
0.0
230
1.0
  0
TEXT
  8
0
  6
CONTINUOUS
 62
   140
  5
46
 10
34.993583
 20
44.454167
 30
0.0
 40
0.1
  1
   
  7
ROMANS
 72
     4
 11
35.126917
 21
44.504167
 31
0.0
210
0.0
220
0.0
230
1.0
  0
POINT
  8
1
  6
CONTINUOUS
 62
   140
  5
47
 10
3.143917
 20
24.559167
 30
0.0
  0
POINT
  8
1
  6
CONTINUOUS
 62
   140
  5
48
 10
3.143917
 20
45.559167
 30
0.0
  0
POINT
  8
1
  6
CONTINUOUS
 62
   140
  5
49
 10
35.643917
 20
45.559167
 30
0.0
  0
POINT
  8
1
  6
CONTINUOUS
 62
   140
  5
4A
 10
35.643917
 20
24.559167
 30
0.0
  0
LINE
  8
1
  6
CONTINUOUS
 62
   140
  5
4B
 10
35.643917
 20
24.559167
 30
0.0
 11
35.643917
 21
27.058167
 31
0.0
  0
LINE
  8
1
  6
CONTINUOUS
 62
   140
  5
4C
 10
35.643917
 20
28.049
 30
0.0
 11
29.643917
 21
28.049
 31
0.0
  0
LINE
  8
1
  6
CONTINUOUS
 62
   140
  5
4D
 10
35.643917
 20
24.559167
 30
0.0
 11
29.643917
 21
24.559167
 31
0.0
  0
LINE
  8
1
  6
CONTINUOUS
 62
   140
  5
4E
 10
31.181833
 20
26.458167
 30
0.0
 11
29.643917
 21
26.458167
 31
0.0
  0
LINE
  8
1
  6
CONTINUOUS
 62
   140
  5
4F
 10
31.181833
 20
26.259167
 30
0.0
 11
29.643917
 21
26.259167
 31
0.0
  0
LINE
  8
1
  6
CONTINUOUS
 62
   140
  5
50
 10
31.181833
 20
26.060167
 30
0.0
 11
29.643917
 21
26.060167
 31
0.0
  0
LINE
  8
1
  6
CONTINUOUS
 62
   140
  5
51
 10
31.181833
 20
25.861167
 30
0.0
 11
29.643917
 21
25.861167
 31
0.0
  0
LINE
  8
1
  6
CONTINUOUS
 62
   140
  5
52
 10
31.181833
 20
25.662167
 30
0.0
 11
29.643917
 21
25.662167
 31
0.0
  0
LINE
  8
1
  6
CONTINUOUS
 62
   140
  5
53
 10
31.181833
 20
25.463167
 30
0.0
 11
29.643917
 21
25.463167
 31
0.0
  0
LINE
  8
1
  6
CONTINUOUS
 62
   140
  5
54
 10
31.181833
 20
25.264167
 30
0.0
 11
29.643917
 21
25.264167
 31
0.0
  0
LINE
  8
1
  6
CONTINUOUS
 62
   140
  5
55
 10
31.181833
 20
25.065167
 30
0.0
 11
29.643917
 21
25.065167
 31
0.0
  0
LINE
  8
1
  6
CONTINUOUS
 62
   140
  5
56
 10
31.181833
 20
24.866167
 30
0.0
 11
29.643917
 21
24.866167
 31
0.0
  0
TEXT
  8
1
  6
CONTINUOUS
 62
   140
  5
58
 10
29.951
 20
26.5055
 30
0.0
 40
0.079
  1
REVISION DATE
 41
1.003165
  7
MONOTXT
210
0.0
220
0.0
230
1.0
  0
LINE
  8
1
  6
CONTINUOUS
 62
   140
  5
59
 10
29.643917
 20
25.969167
 30
0.0
 11
29.643917
 21
24.559167
 31
0.0
  0
TEXT
  8
1
  6
CONTINUOUS
 62
   140
  5
5B
 10
29.85525
 20
27.794083
 30
0.0
 40
0.1875
  1
WEST VIRGINIA DEPARTMENT OF TRANSPORTATION
  7
ROMANT
 72
     4
 11
32.625583
 21
27.887833
 31
0.0
210
0.0
220
0.0
230
1.0
  0
TEXT
  8
1
  6
CONTINUOUS
 62
   140
  5
5C
 10
31.428083
 20
27.585167
 30
0.0
 40
0.1875
  1
DIVISION OF HIGHWAYS
  7
ROMANT
 72
     4
 11
32.647583
 21
27.678917
 31
0.0
210
0.0
220
0.0
230
1.0
  0
TEXT
  8
1
  6
CONTINUOUS
 62
   140
  5
5D
 10
31.658167
 20
27.387
 30
0.0
 40
0.1875
  1
STANDARD DETAIL
  7
ROMANT
 72
     4
 11
32.63625
 21
27.48075
 31
0.0
210
0.0
220
0.0
230
1.0
  0
LINE
  8
1
  6
CONTINUOUS
 62
   140
  5
5E
 10
31.181833
 20
26.658167
 30
0.0
 11
29.643917
 21
26.658167
 31
0.0
  0
LINE
  8
1
  6
CONTINUOUS
 62
   140
  5
5F
 10
31.181833
 20
24.559167
 30
0.0
 11
31.181833
 21
26.658167
 31
0.0
  0
LINE
  8
1
  6
CONTINUOUS
 62
   140
  5
60
 10
29.643917
 20
24.559167
 30
0.0
 11
29.643917
 21
28.049
 31
0.0
  0
TEXT
  8
1
  6
CONTINUOUS
 62
     2
  5
61
 10
31.648
 20
24.77625
 30
0.0
 40
0.166667
  1
STANDARD SHEET GR3       
  7
txt
 72
     4
 11
33.687333
 21
24.859583
 31
0.0
210
0.0
220
0.0
230
1.0
  0
TEXT
  8
1
  6
CONTINUOUS
 62
     2
  5
62
 10
30.9095
 20
26.92125
 30
0.0
 40
0.208333
  1
                        
  7
txt
 72
     4
 11
33.37475
 21
27.025417
 31
0.0
210
0.0
220
0.0
230
1.0
  0
TEXT
  8
1
  6
CONTINUOUS
 62
     2
  5
63
 10
31.129333
 20
26.549667
 30
0.0
 40
0.208333
  1
      DOUBLE-FACED      
  7
txt
 72
     4
 11
33.580167
 21
26.653833
 31
0.0
210
0.0
220
0.0
230
1.0
  0
TEXT
  8
1
  6
CONTINUOUS
 62
     2
  5
64
 10
31.212833
 20
26.174333
 30
0.0
 40
0.208333
  1
     GUARDRAIL POSTS    
  7
txt
 72
     4
 11
33.662833
 21
26.2785
 31
0.0
210
0.0
220
0.0
230
1.0
  0
TEXT
  8
1
  6
CONTINUOUS
 62
     2
  5
65
 10
30.915083
 20
25.824
 30
0.0
 40
0.208333
  1
                        
  7
txt
 72
     4
 11
33.380333
 21
25.928167
 31
0.0
210
0.0
220
0.0
230
1.0
  0
TEXT
  8
1
  6
CONTINUOUS
 62
     2
  5
66
 10
30.915083
 20
25.473667
 30
0.0
 40
0.208333
  1
                        
  7
txt
 72
     4
 11
33.380333
 21
25.577833
 31
0.0
210
0.0
220
0.0
230
1.0
  0
TEXT
  8
1
  6
CONTINUOUS
 62
     2
  5
67
 10
29.679
 20
26.096583
 30
0.0
 40
0.083333
  1
                  
  7
ROMANS
 72
     4
 11
30.415083
 21
26.13825
 31
0.0
210
0.0
220
0.0
230
1.0
  0
TEXT
  8
1
  6
CONTINUOUS
 62
     2
  5
68
 10
29.679
 20
25.897583
 30
0.0
 40
0.083333
  1
                  
  7
ROMANS
 72
     4
 11
30.415083
 21
25.93925
 31
0.0
210
0.0
220
0.0
230
1.0
  0
TEXT
  8
1
  6
CONTINUOUS
 62
     2
  5
69
 10
29.679
 20
25.698583
 30
0.0
 40
0.083333
  1
                  
  7
ROMANS
 72
     4
 11
30.415083
 21
25.74025
 31
0.0
210
0.0
220
0.0
230
1.0
  0
TEXT
  8
1
  6
CONTINUOUS
 62
     2
  5
6A
 10
29.679
 20
25.499583
 30
0.0
 40
0.083333
  1
                  
  7
ROMANS
 72
     4
 11
30.415083
 21
25.54125
 31
0.0
210
0.0
220
0.0
230
1.0
  0
TEXT
  8
1
  6
CONTINUOUS
 62
     2
  5
6B
 10
29.679
 20
25.300583
 30
0.0
 40
0.083333
  1
                  
  7
ROMANS
 72
     4
 11
30.415083
 21
25.34225
 31
0.0
210
0.0
220
0.0
230
1.0
  0
TEXT
  8
1
  6
CONTINUOUS
 62
     2
  5
6C
 10
29.679
 20
25.101583
 30
0.0
 40
0.083333
  1
                  
  7
ROMANS
 72
     4
 11
30.415083
 21
25.14325
 31
0.0
210
0.0
220
0.0
230
1.0
  0
TEXT
  8
1
  6
CONTINUOUS
 62
     2
  5
6D
 10
29.679
 20
24.902583
 30
0.0
 40
0.083333
  1
                  
  7
ROMANS
 72
     4
 11
30.415083
 21
24.94425
 31
0.0
210
0.0
220
0.0
230
1.0
  0
TEXT
  8
1
  6
CONTINUOUS
 62
     2
  5
6E
 10
29.677417
 20
24.698417
 30
0.0
 40
0.083333
  1
                  
  7
ROMANS
 72
     4
 11
30.4135
 21
24.740083
 31
0.0
210
0.0
220
0.0
230
1.0
  0
POINT
  8
1
  6
DASHED
 62
     2
  5
6F
 10
2.631917
 20
45.579167
 30
0.0
  0
POINT
  8
1
  6
DASHED
 62
     2
  5
70
 10
35.856917
 20
24.459167
 30
0.0
  0
TEXT
  8
1
  6
CONTINUOUS
 62
   140
  5
71
 10
3.191917
 20
24.438167
 30
0.0
 40
0.06
  1
P5A1G92-STDBOR a
  7
MONOTXT
210
0.0
220
0.0
230
1.0
  0
LINE
  8
1
  6
CONTINUOUS
 62
     2
  5
72
 10
6.8695
 20
43.129667
 30
0.0
 11
9.297833
 21
43.129667
 31
0.0
  0
LINE
  8
1
  6
CONTINUOUS
 62
     2
  5
73
 10
9.297833
 20
43.129667
 30
0.0
 11
9.297833
 21
39.5685
 31
0.0
  0
LINE
  8
1
  6
CONTINUOUS
 62
     2
  5
74
 10
9.297833
 20
39.5685
 30
0.0
 11
9.06475
 21
39.5685
 31
0.0
  0
LINE
  8
1
  6
CONTINUOUS
 62
     2
  5
75
 10
9.06475
 20
39.5685
 30
0.0
 11
8.941667
 21
39.40025
 31
0.0
  0
LINE
  8
1
  6
CONTINUOUS
 62
     2
  5
76
 10
8.941667
 20
39.40025
 30
0.0
 11
8.281167
 21
39.711
 31
0.0
  0
LINE
  8
1
  6
CONTINUOUS
 62
     2
  5
77
 10
8.281167
 20
39.711
 30
0.0
 11
8.177583
 21
39.5685
 31
0.0
  0
LINE
  8
1
  6
CONTINUOUS
 62
     2
  5
78
 10
8.177583
 20
39.5685
 30
0.0
 11
7.912083
 21
39.5685
 31
0.0
  0
LINE
  8
1
  6
CONTINUOUS
 62
     2
  5
79
 10
7.912083
 20
39.5685
 30
0.0
 11
7.912083
 21
43.129667
 31
0.0
  0
LINE
  8
1
  6
CONTINUOUS
 62
     2
  5
7A
 10
6.8695
 20
43.129667
 30
0.0
 11
6.8695
 21
40.844
 31
0.0
  0
LINE
  8
1
  6
CONTINUOUS
 62
     2
  5
7B
 10
6.8695
 20
40.844
 30
0.0
 11
7.912083
 21
40.844
 31
0.0
  0
LINE
  8
1
  6
CONTINUOUS
 62
     2
  5
7C
 10
9.297833
 20
40.170667
 30
0.0
 11
10.346917
 21
40.170667
 31
0.0
  0
LINE
  8
1
  6
CONTINUOUS
 62
     2
  5
7D
 10
10.346917
 20
40.170667
 30
0.0
 11
10.346917
 21
42.3915
 31
0.0
  0
LINE
  8
1
  6
CONTINUOUS
 62
     2
  5
7E
 10
10.346917
 20
42.3915
 30
0.0
 11
9.297833
 21
42.3915
 31
0.0
  0
LINE
  8
1
  6
CONTINUOUS
 62
   150
  5
7F
 10
6.840083
 20
43.01275
 30
0.0
 11
6.385333
 21
42.660333
 31
0.0
  0
LINE
  8
1
  6
CONTINUOUS
 62
   150
  5
80
 10
6.386583
 20
42.58825
 30
0.0
 11
6.850833
 21
42.25325
 31
0.0
  0
LINE
  8
1
  6
CONTINUOUS
 62
   215
  5
81
 10
6.8695
 20
42.21675
 30
0.0
 11
6.8695
 21
41.800417
 31
0.0
  0
LINE
  8
1
  6
CONTINUOUS
 62
   150
  5
82
 10
6.850583
 20
41.76375
 30
0.0
 11
6.37975
 21
41.429417
 31
0.0
  0
LINE
  8
1
  6
CONTINUOUS
 62
   150
  5
83
 10
6.378917
 20
41.356583
 30
0.0
 11
6.85975
 21
40.998583
 31
0.0
  0
ARC
  8
1
  6
CONTINUOUS
 62
   150
  5
84
 10
6.405867
 20
41.392733
 30
0.0
 40
0.045
 50
125.3835
 51
233.331331
210
0.0
220
0.0
230
1.0
  0
ARC
  8
1
  6
CONTINUOUS
 62
   150
  5
85
 10
6.412917
 20
42.624758
 30
0.0
 40
0.045
 50
127.779992
 51
234.188183
210
0.0
220
0.0
230
1.0
  0
LINE
  8
1
  6
CONTINUOUS
 62
   150
  5
86
 10
6.814417
 20
43.028083
 30
0.0
 11
6.333917
 21
42.652417
 31
0.0
  0
LINE
  8
1
  6
CONTINUOUS
 62
   215
  5
87
 10
6.336
 20
42.580083
 30
0.0
 11
6.84025
 21
42.228667
 31
0.0
  0
LINE
  8
1
  6
CONTINUOUS
 62
   215
  5
88
 10
6.859583
 20
42.19175
 30
0.0
 11
6.859583
 21
41.829333
 31
0.0
  0
LINE
  8
1
  6
CONTINUOUS
 62
   215
  5
89
 10
6.84125
 20
41.793083
 30
0.0
 11
6.341667
 21
41.424917
 31
0.0
  0
LINE
  8
1
  6
CONTINUOUS
 62
   215
  5
8A
 10
6.3415
 20
41.352583
 30
0.0
 11
6.83925
 21
40.982417
 31
0.0
  0
ARC
  8
1
  6
CONTINUOUS
 62
   215
  5
8B
 10
6.368367
 20
41.388683
 30
0.0
 40
0.045
 50
126.390222
 51
233.359986
210
0.0
220
0.0
230
1.0
  0
ARC
  8
1
  6
CONTINUOUS
 62
   215
  5
8C
 10
6.361692
 20
42.617033
 30
0.0
 40
0.045
 50
128.025283
 51
235.13115
210
0.0
220
0.0
230
1.0
  0
LINE
  8
1
  6
CONTINUOUS
 62
   150
  5
8D
 10
6.78275
 20
43.032583
 30
0.0
 11
6.324083
 21
42.683583
 31
0.0
  0
LINE
  8
1
  6
CONTINUOUS
 62
   150
  5
8E
 10
6.327833
 20
42.53775
 30
0.0
 11
6.815167
 21
42.203833
 31
0.0
  0
LINE
  8
1
  6
CONTINUOUS
 62
   150
  5
8F
 10
6.83475
 20
42.16675
 30
0.0
 11
6.83475
 21
41.834667
 31
0.0
  0
LINE
  8
1
  6
CONTINUOUS
 62
   150
  5
90
 10
6.815333
 20
41.797667
 30
0.0
 11
6.321083
 21
41.454417
 31
0.0
  0
LINE
  8
1
  6
CONTINUOUS
 62
   150
  5
91
 10
6.321667
 20
41.306083
 30
0.0
 11
6.818917
 21
40.966583
 31
0.0
  0
ARC
  8
1
  6
CONTINUOUS
 62
   150
  5
92
 10
6.372417
 20
41.380433
 30
0.0
 40
0.09
 50
124.779856
 51
235.675203
210
0.0
220
0.0
230
1.0
  0
ARC
  8
1
  6
CONTINUOUS
 62
   150
  5
93
 10
6.378642
 20
42.612008
 30
0.0
 40
0.09
 50
127.27405
 51
235.583503
210
0.0
220
0.0
230
1.0
  0
ARC
  8
1
  6
CONTINUOUS
 62
   150
  5
94
 10
6.789717
 20
42.166733
 30
0.0
 40
0.045
 50
0.0
 51
55.583503
210
0.0
220
0.0
230
1.0
  0
ARC
  8
1
  6
CONTINUOUS
 62
   215
  5
95
 10
6.814542
 20
42.191783
 30
0.0
 40
0.045
 50
0.0
 51
55.131153
210
0.0
220
0.0
230
1.0
  0
ARC
  8
1
  6
CONTINUOUS
 62
   150
  5
96
 10
6.824517
 20
42.216758
 30
0.0
 40
0.045
 50
0.0
 51
54.188183
210
0.0
220
0.0
230
1.0
  0
ARC
  8
1
  6
CONTINUOUS
 62
   150
  5
97
 10
6.789717
 20
41.834633
 30
0.0
 40
0.045
 50
304.779856
 51
359.999997
210
0.0
220
0.0
230
1.0
  0
ARC
  8
1
  6
CONTINUOUS
 62
   215
  5
98
 10
6.814542
 20
41.829308
 30
0.0
 40
0.045
 50
306.390222
 51
359.999997
210
0.0
220
0.0
230
1.0
  0
ARC
  8
1
  6
CONTINUOUS
 62
   150
  5
99
 10
6.824517
 20
41.800433
 30
0.0
 40
0.045
 50
305.3835
 51
359.999997
210
0.0
220
0.0
230
1.0
  0
LINE
  8
1
  6
CONTINUOUS
 62
   215
  5
9A
 10
6.859917
 20
42.10925
 30
0.0
 11
6.6135
 21
42.10925
 31
0.0
  0
LINE
  8
1
  6
CONTINUOUS
 62
   215
  5
9B
 10
6.6135
 20
42.10925
 30
0.0
 11
6.6135
 21
41.883417
 31
0.0
  0
LINE
  8
1
  6
CONTINUOUS
 62
   215
  5
9C
 10
6.6135
 20
41.883417
 30
0.0
 11
6.859917
 21
41.883417
 31
0.0
  0
LINE
  8
1
  6
HIDDEN
 62
   215
  5
9D
 10
6.6135
 20
41.92625
 30
0.0
 11
6.832917
 21
41.92625
 31
0.0
  0
LINE
  8
1
  6
HIDDEN
 62
   215
  5
9E
 10
6.6135
 20
41.957917
 30
0.0
 11
6.832917
 21
41.957917
 31
0.0
  0
LINE
  8
1
  6
HIDDEN
 62
   215
  5
9F
 10
6.6135
 20
42.030167
 30
0.0
 11
6.832917
 21
42.030167
 31
0.0
  0
LINE
  8
1
  6
HIDDEN
 62
   215
  5
A0
 10
6.6135
 20
42.061833
 30
0.0
 11
6.841917
 21
42.061833
 31
0.0
  0
LINE
  8
1
  6
CONTINUOUS
 62
   215
  5
A1
 10
6.6135
 20
42.030167
 30
0.0
 11
6.489333
 21
42.030167
 31
0.0
  0
LINE
  8
1
  6
CONTINUOUS
 62
   215
  5
A2
 10
6.489333
 20
42.030167
 30
0.0
 11
6.489333
 21
41.957917
 31
0.0
  0
LINE
  8
1
  6
CONTINUOUS
 62
   215
  5
A3
 10
6.6135
 20
41.957917
 30
0.0
 11
6.489333
 21
41.957917
 31
0.0
  0
LINE
  8
1
  6
HIDDEN
 62
   215
  5
A4
 10
6.8695
 20
42.030167
 30
0.0
 11
9.297833
 21
42.030167
 31
0.0
  0
LINE
  8
1
  6
HIDDEN
 62
   215
  5
A5
 10
6.8695
 20
42.061833
 30
0.0
 11
9.297833
 21
42.061833
 31
0.0
  0
LINE
  8
1
  6
HIDDEN
 62
   215
  5
A6
 10
6.8695
 20
41.957917
 30
0.0
 11
9.297833
 21
41.957917
 31
0.0
  0
LINE
  8
1
  6
HIDDEN
 62
   215
  5
A7
 10
6.8695
 20
41.92625
 30
0.0
 11
9.297833
 21
41.92625
 31
0.0
  0
LINE
  8
1
  6
CONTINUOUS
 62
   215
  5
A8
 10
6.561583
 20
42.030167
 30
0.0
 11
6.561583
 21
41.957917
 31
0.0
  0
LINE
  8
1
  6
CONTINUOUS
 62
   215
  5
A9
 10
6.53225
 20
42.005333
 30
0.0
 11
6.53225
 21
41.98275
 31
0.0
  0
LINE
  8
1
  6
CONTINUOUS
 62
   215
  5
AA
 10
6.588667
 20
42.005333
 30
0.0
 11
6.588667
 21
41.9805
 31
0.0
  0
LINE
  8
1
  6
HIDDEN
 62
   215
  5
AB
 10
7.912083
 20
41.671083
 30
0.0
 11
7.807917
 21
41.671083
 31
0.0
  0
LINE
  8
1
  6
HIDDEN
 62
   215
  5
AC
 10
7.807917
 20
41.671083
 30
0.0
 11
7.807917
 21
41.190083
 31
0.0
  0
LINE
  8
1
  6
HIDDEN
 62
   215
  5
AD
 10
7.807917
 20
41.190083
 30
0.0
 11
10.346917
 21
41.190083
 31
0.0
  0
LINE
  8
1
  6
HIDDEN
 62
   215
  5
AE
 10
7.912083
 20
41.6395
 30
0.0
 11
7.8665
 21
41.6395
 31
0.0
  0
LINE
  8
1
  6
HIDDEN
 62
   215
  5
AF
 10
7.8395
 20
41.6125
 30
0.0
 11
7.8395
 21
41.246417
 31
0.0
  0
LINE
  8
1
  6
HIDDEN
 62
   215
  5
B0
 10
7.8665
 20
41.219417
 30
0.0
 11
10.346917
 21
41.219417
 31
0.0
  0
LINE
  8
1
  6
HIDDEN
 62
   215
  5
B1
 10
7.912083
 20
41.29175
 30
0.0
 11
10.346917
 21
41.29175
 31
0.0
  0
LINE
  8
1
  6
HIDDEN
 62
   215
  5
B2
 10
7.912083
 20
41.327833
 30
0.0
 11
10.346917
 21
41.327833
 31
0.0
  0
ARC
  8
1
  6
HIDDEN
 62
   215
  5
B3
 10
7.866492
 20
41.246408
 30
0.0
 40
0.027
 50
180.0
 51
270.0
210
0.0
220
0.0
230
1.0
  0
ARC
  8
1
  6
HIDDEN
 62
   215
  5
B4
 10
7.866492
 20
41.612483
 30
0.0
 40
0.027
 50
90.0
 51
180.0
210
0.0
220
0.0
230
1.0
  0
ARC
  8
1
  6
CONTINUOUS
 62
   150
  5
B5
 10
6.795267
 20
43.007183
 30
0.0
 40
0.028385
 50
47.640314
 51
116.100603
210
0.0
220
0.0
230
1.0
  0
ARC
  8
1
  6
CONTINUOUS
 62
   150
  5
B6
 10
6.818967
 20
43.006733
 30
0.0
 40
0.021862
 50
15.840603
 51
102.156847
210
0.0
220
0.0
230
1.0
  0
ARC
  8
1
  6
CONTINUOUS
 62
   215
  5
B7
 10
6.820467
 20
40.985558
 30
0.0
 40
0.019026
 50
265.295936
 51
350.450139
210
0.0
220
0.0
230
1.0
  0
ARC
  8
1
  6
CONTINUOUS
 62
   215
  5
B8
 10
6.839217
 20
40.982408
 30
0.0
 40
0.0
 50
0.0
 51
160.900283
210
0.0
220
0.0
230
1.0
  0
ARC
  8
1
  6
CONTINUOUS
 62
   215
  5
B9
 10
6.844092
 20
40.997333
 30
0.0
 40
0.01571
 50
251.860889
 51
4.764025
210
0.0
220
0.0
230
1.0
  0
LINE
  8
1
  6
HIDDEN
 62
   215
  5
BA
 10
9.297833
 20
42.061833
 30
0.0
 11
9.433167
 21
42.061833
 31
0.0
  0
LINE
  8
1
  6
HIDDEN
 62
   215
  5
BB
 10
9.433167
 20
42.061833
 30
0.0
 11
9.433167
 21
41.620583
 31
0.0
  0
LINE
  8
1
  6
HIDDEN
 62
   215
  5
BC
 10
9.433167
 20
41.620583
 30
0.0
 11
9.297833
 21
41.620583
 31
0.0
  0
LINE
  8
1
  6
HIDDEN
 62
   215
  5
BD
 10
9.297833
 20
42.030167
 30
0.0
 11
9.382167
 21
42.030167
 31
0.0
  0
LINE
  8
1
  6
HIDDEN
 62
   215
  5
BE
 10
9.409167
 20
42.003167
 30
0.0
 11
9.409167
 21
41.680083
 31
0.0
  0
LINE
  8
1
  6
HIDDEN
 62
   215
  5
BF
 10
9.382167
 20
41.653083
 30
0.0
 11
9.297833
 21
41.653083
 31
0.0
  0
ARC
  8
1
  6
HIDDEN
 62
   215
  5
C0
 10
9.382167
 20
41.680058
 30
0.0
 40
0.027
 50
270.0
 51
360.0
210
0.0
220
0.0
230
1.0
  0
ARC
  8
1
  6
HIDDEN
 62
   215
  5
C1
 10
9.382167
 20
42.003158
 30
0.0
 40
0.027
 50
0.0
 51
90.0
210
0.0
220
0.0
230
1.0
  0
ARC
  8
1
  6
CONTINUOUS
 62
   215
  5
C2
 10
10.372392
 20
42.263258
 30
0.0
 40
0.01571
 50
71.860889
 51
184.764025
210
0.0
220
0.0
230
1.0
  0
ARC
  8
1
  6
CONTINUOUS
 62
   215
  5
C3
 10
10.377267
 20
42.278183
 30
0.0
 40
0.0
 50
180.0
 51
340.900283
210
0.0
220
0.0
230
1.0
  0
ARC
  8
1
  6
CONTINUOUS
 62
   215
  5
C4
 10
10.396017
 20
42.275033
 30
0.0
 40
0.019026
 50
85.295936
 51
170.450139
210
0.0
220
0.0
230
1.0
  0
ARC
  8
1
  6
CONTINUOUS
 62
   150
  5
C5
 10
10.397517
 20
40.253858
 30
0.0
 40
0.021862
 50
195.840603
 51
282.156847
210
0.0
220
0.0
230
1.0
  0
ARC
  8
1
  6
CONTINUOUS
 62
   150
  5
C6
 10
10.421217
 20
40.253408
 30
0.0
 40
0.028385
 50
227.640314
 51
296.100603
210
0.0
220
0.0
230
1.0
  0
LINE
  8
1
  6
CONTINUOUS
 62
   215
  5
C7
 10
10.627833
 20
41.25525
 30
0.0
 11
10.627833
 21
41.280083
 31
0.0
  0
LINE
  8
1
  6
CONTINUOUS
 62
   215
  5
C8
 10
10.68425
 20
41.25525
 30
0.0
 11
10.68425
 21
41.277833
 31
0.0
  0
LINE
  8
1
  6
CONTINUOUS
 62
   215
  5
C9
 10
10.654917
 20
41.230417
 30
0.0
 11
10.654917
 21
41.302667
 31
0.0
  0
LINE
  8
1
  6
CONTINUOUS
 62
   215
  5
CA
 10
10.603
 20
41.302667
 30
0.0
 11
10.727167
 21
41.302667
 31
0.0
  0
LINE
  8
1
  6
CONTINUOUS
 62
   215
  5
CB
 10
10.727167
 20
41.230417
 30
0.0
 11
10.727167
 21
41.302667
 31
0.0
  0
LINE
  8
1
  6
CONTINUOUS
 62
   215
  5
CC
 10
10.603
 20
41.230417
 30
0.0
 11
10.727167
 21
41.230417
 31
0.0
  0
LINE
  8
1
  6
HIDDEN
 62
   215
  5
CD
 10
10.603
 20
41.19875
 30
0.0
 11
10.383
 21
41.19875
 31
0.0
  0
LINE
  8
1
  6
HIDDEN
 62
   215
  5
CE
 10
10.603
 20
41.230417
 30
0.0
 11
10.38175
 21
41.230417
 31
0.0
  0
LINE
  8
1
  6
HIDDEN
 62
   215
  5
CF
 10
10.603
 20
41.302667
 30
0.0
 11
10.380417
 21
41.302667
 31
0.0
  0
LINE
  8
1
  6
HIDDEN
 62
   215
  5
D0
 10
10.603
 20
41.334333
 30
0.0
 11
10.38175
 21
41.334333
 31
0.0
  0
LINE
  8
1
  6
CONTINUOUS
 62
   215
  5
D1
 10
10.603
 20
41.37725
 30
0.0
 11
10.380417
 21
41.37725
 31
0.0
  0
LINE
  8
1
  6
CONTINUOUS
 62
   215
  5
D2
 10
10.603
 20
41.151417
 30
0.0
 11
10.603
 21
41.37725
 31
0.0
  0
LINE
  8
1
  6
CONTINUOUS
 62
   215
  5
D3
 10
10.383
 20
41.151417
 30
0.0
 11
10.603
 21
41.151417
 31
0.0
  0
ARC
  8
1
  6
CONTINUOUS
 62
   150
  5
D4
 10
10.391967
 20
41.460158
 30
0.0
 40
0.045
 50
125.3835
 51
179.999997
210
0.0
220
0.0
230
1.0
  0
ARC
  8
1
  6
CONTINUOUS
 62
   215
  5
D5
 10
10.401942
 20
41.431283
 30
0.0
 40
0.045
 50
126.390222
 51
179.999997
210
0.0
220
0.0
230
1.0
  0
ARC
  8
1
  6
CONTINUOUS
 62
   150
  5
D6
 10
10.426767
 20
41.425958
 30
0.0
 40
0.045
 50
124.779856
 51
179.999997
210
0.0
220
0.0
230
1.0
  0
ARC
  8
1
  6
CONTINUOUS
 62
   150
  5
D7
 10
10.391967
 20
41.043758
 30
0.0
 40
0.045
 50
180.0
 51
234.188183
210
0.0
220
0.0
230
1.0
  0
ARC
  8
1
  6
CONTINUOUS
 62
   150
  5
D8
 10
10.401942
 20
41.068808
 30
0.0
 40
0.045
 50
180.0
 51
235.131153
210
0.0
220
0.0
230
1.0
  0
ARC
  8
1
  6
CONTINUOUS
 62
   150
  5
D9
 10
10.426767
 20
41.093858
 30
0.0
 40
0.045
 50
180.0
 51
235.583503
210
0.0
220
0.0
230
1.0
  0
ARC
  8
1
  6
CONTINUOUS
 62
   150
  5
DA
 10
10.837842
 20
40.648583
 30
0.0
 40
0.09
 50
307.27405
 51
55.583503
210
0.0
220
0.0
230
1.0
  0
ARC
  8
1
  6
CONTINUOUS
 62
   150
  5
DB
 10
10.844067
 20
41.880158
 30
0.0
 40
0.09
 50
304.779856
 51
55.675203
210
0.0
220
0.0
230
1.0
  0
LINE
  8
1
  6
CONTINUOUS
 62
   150
  5
DC
 10
10.894833
 20
41.9545
 30
0.0
 11
10.397583
 21
42.293917
 31
0.0
  0
LINE
  8
1
  6
CONTINUOUS
 62
   150
  5
DD
 10
10.401083
 20
41.462917
 30
0.0
 11
10.895417
 21
41.80625
 31
0.0
  0
LINE
  8
1
  6
CONTINUOUS
 62
   150
  5
DE
 10
10.38175
 20
41.093833
 30
0.0
 11
10.38175
 21
41.426
 31
0.0
  0
LINE
  8
1
  6
CONTINUOUS
 62
   150
  5
DF
 10
10.888667
 20
40.722833
 30
0.0
 11
10.401333
 21
41.05675
 31
0.0
  0
LINE
  8
1
  6
CONTINUOUS
 62
   150
  5
E0
 10
10.43375
 20
40.227917
 30
0.0
 11
10.892333
 21
40.577
 31
0.0
  0
ARC
  8
1
  6
CONTINUOUS
 62
   215
  5
E1
 10
10.854792
 20
40.643558
 30
0.0
 40
0.045
 50
308.025283
 51
55.13115
210
0.0
220
0.0
230
1.0
  0
ARC
  8
1
  6
CONTINUOUS
 62
   215
  5
E2
 10
10.848117
 20
41.871908
 30
0.0
 40
0.045
 50
306.390222
 51
53.359986
210
0.0
220
0.0
230
1.0
  0
LINE
  8
1
  6
CONTINUOUS
 62
   215
  5
E3
 10
10.875
 20
41.908
 30
0.0
 11
10.37725
 21
42.278167
 31
0.0
  0
LINE
  8
1
  6
CONTINUOUS
 62
   215
  5
E4
 10
10.37525
 20
41.4675
 30
0.0
 11
10.874833
 21
41.835667
 31
0.0
  0
LINE
  8
1
  6
CONTINUOUS
 62
   215
  5
E5
 10
10.356917
 20
41.068833
 30
0.0
 11
10.356917
 21
41.43125
 31
0.0
  0
LINE
  8
1
  6
CONTINUOUS
 62
   215
  5
E6
 10
10.8805
 20
40.6805
 30
0.0
 11
10.37625
 21
41.031917
 31
0.0
  0
LINE
  8
1
  6
CONTINUOUS
 62
   215
  5
E7
 10
10.402083
 20
40.2325
 30
0.0
 11
10.882583
 21
40.608167
 31
0.0
  0
ARC
  8
1
  6
CONTINUOUS
 62
   150
  5
E8
 10
10.803567
 20
40.635833
 30
0.0
 40
0.045
 50
307.779992
 51
54.188183
210
0.0
220
0.0
230
1.0
  0
ARC
  8
1
  6
CONTINUOUS
 62
   150
  5
E9
 10
10.810617
 20
41.867858
 30
0.0
 40
0.045
 50
305.3835
 51
53.331331
210
0.0
220
0.0
230
1.0
  0
LINE
  8
1
  6
CONTINUOUS
 62
   150
  5
EA
 10
10.837583
 20
41.903917
 30
0.0
 11
10.35675
 21
42.261917
 31
0.0
  0
LINE
  8
1
  6
CONTINUOUS
 62
   150
  5
EB
 10
10.365917
 20
41.496833
 30
0.0
 11
10.83675
 21
41.831167
 31
0.0
  0
LINE
  8
1
  6
CONTINUOUS
 62
   215
  5
EC
 10
10.347
 20
41.04375
 30
0.0
 11
10.347
 21
41.460167
 31
0.0
  0
LINE
  8
1
  6
CONTINUOUS
 62
   150
  5
ED
 10
10.829917
 20
40.672333
 30
0.0
 11
10.365667
 21
41.007333
 31
0.0
  0
LINE
  8
1
  6
CONTINUOUS
 62
   150
  5
EE
 10
10.376417
 20
40.247833
 30
0.0
 11
10.831167
 21
40.60025
 31
0.0
  0
LINE
  8
1
  6
CONTINUOUS
 62
   150
  5
EF
 10
10.0575
 20
34.223417
 30
0.0
 11
10.512083
 21
34.575833
 31
0.0
  0
LINE
  8
1
  6
CONTINUOUS
 62
   150
  5
F0
 10
10.510833
 20
34.647917
 30
0.0
 11
10.046667
 21
34.982833
 31
0.0
  0
LINE
  8
1
  6
CONTINUOUS
 62
   215
  5
F1
 10
10.028
 20
35.019333
 30
0.0
 11
10.028
 21
35.43575
 31
0.0
  0
LINE
  8
1
  6
CONTINUOUS
 62
   150
  5
F2
 10
10.046917
 20
35.472417
 30
0.0
 11
10.517667
 21
35.80675
 31
0.0
  0
LINE
  8
1
  6
CONTINUOUS
 62
   150
  5
F3
 10
10.5185
 20
35.879583
 30
0.0
 11
10.037667
 21
36.2375
 31
0.0
  0
ARC
  8
1
  6
CONTINUOUS
 62
   150
  5
F4
 10
10.491642
 20
35.843408
 30
0.0
 40
0.045
 50
305.3835
 51
53.331331
210
0.0
220
0.0
230
1.0
  0
ARC
  8
1
  6
CONTINUOUS
 62
   150
  5
F5
 10
10.484517
 20
34.611383
 30
0.0
 40
0.045
 50
307.779992
 51
54.188183
210
0.0
220
0.0
230
1.0
  0
LINE
  8
1
  6
CONTINUOUS
 62
   215
  5
F6
 10
10.083083
 20
34.208
 30
0.0
 11
10.5635
 21
34.58375
 31
0.0
  0
LINE
  8
1
  6
CONTINUOUS
 62
   215
  5
F7
 10
10.5615
 20
34.656083
 30
0.0
 11
10.057167
 21
35.0075
 31
0.0
  0
LINE
  8
1
  6
CONTINUOUS
 62
   215
  5
F8
 10
10.037917
 20
35.044333
 30
0.0
 11
10.037917
 21
35.406833
 31
0.0
  0
LINE
  8
1
  6
CONTINUOUS
 62
   215
  5
F9
 10
10.056167
 20
35.443083
 30
0.0
 11
10.55575
 21
35.81125
 31
0.0
  0
LINE
  8
1
  6
CONTINUOUS
 62
   215
  5
FA
 10
10.555917
 20
35.8835
 30
0.0
 11
10.05825
 21
36.25375
 31
0.0
  0
ARC
  8
1
  6
CONTINUOUS
 62
   215
  5
FB
 10
10.529067
 20
35.847458
 30
0.0
 40
0.045
 50
306.390222
 51
53.359986
210
0.0
220
0.0
230
1.0
  0
ARC
  8
1
  6
CONTINUOUS
 62
   215
  5
FC
 10
10.535742
 20
34.619108
 30
0.0
 40
0.045
 50
308.025283
 51
55.13115
210
0.0
220
0.0
230
1.0
  0
LINE
  8
1
  6
CONTINUOUS
 62
   150
  5
FD
 10
10.114667
 20
34.2035
 30
0.0
 11
10.573333
 21
34.5525
 31
0.0
  0
LINE
  8
1
  6
CONTINUOUS
 62
   150
  5
FE
 10
10.569667
 20
34.698417
 30
0.0
 11
10.082333
 21
35.03225
 31
0.0
  0
LINE
  8
1
  6
CONTINUOUS
 62
   150
  5
FF
 10
10.062833
 20
35.069417
 30
0.0
 11
10.062833
 21
35.4015
 31
0.0
  0
LINE
  8
1
  6
CONTINUOUS
 62
   150
  5
100
 10
10.082083
 20
35.4385
 30
0.0
 11
10.576417
 21
35.78175
 31
0.0
  0
LINE
  8
1
  6
CONTINUOUS
 62
   150
  5
101
 10
10.575833
 20
35.93
 30
0.0
 11
10.078583
 21
36.269583
 31
0.0
  0
ARC
  8
1
  6
CONTINUOUS
 62
   150
  5
102
 10
10.525092
 20
35.855708
 30
0.0
 40
0.09
 50
304.779856
 51
55.675203
210
0.0
220
0.0
230
1.0
  0
ARC
  8
1
  6
CONTINUOUS
 62
   150
  5
103
 10
10.518792
 20
34.624133
 30
0.0
 40
0.09
 50
307.27405
 51
55.583503
210
0.0
220
0.0
230
1.0
  0
ARC
  8
1
  6
CONTINUOUS
 62
   150
  5
104
 10
10.107792
 20
35.069408
 30
0.0
 40
0.045
 50
180.0
 51
235.583503
210
0.0
220
0.0
230
1.0
  0
ARC
  8
1
  6
CONTINUOUS
 62
   215
  5
105
 10
10.082892
 20
35.044358
 30
0.0
 40
0.045
 50
180.0
 51
235.131153
210
0.0
220
0.0
230
1.0
  0
ARC
  8
1
  6
CONTINUOUS
 62
   150
  5
106
 10
10.072992
 20
35.019308
 30
0.0
 40
0.045
 50
180.0
 51
234.188183
210
0.0
220
0.0
230
1.0
  0
ARC
  8
1
  6
CONTINUOUS
 62
   150
  5
107
 10
10.107792
 20
35.401508
 30
0.0
 40
0.045
 50
124.779856
 51
179.999997
210
0.0
220
0.0
230
1.0
  0
ARC
  8
1
  6
CONTINUOUS
 62
   215
  5
108
 10
10.082892
 20
35.406833
 30
0.0
 40
0.045
 50
126.390222
 51
179.999997
210
0.0
220
0.0
230
1.0
  0
ARC
  8
1
  6
CONTINUOUS
 62
   150
  5
109
 10
10.072992
 20
35.435708
 30
0.0
 40
0.045
 50
125.3835
 51
179.999997
210
0.0
220
0.0
230
1.0
  0
ARC
  8
1
  6
CONTINUOUS
 62
   215
  5
10A
 10
10.098942
 20
35.402483
 30
0.0
 40
0.0045
 50
0.0
 51
90.0
210
0.0
220
0.0
230
1.0
  0
LINE
  8
1
  6
CONTINUOUS
 62
   215
  5
10B
 10
10.07075
 20
35.126917
 30
0.0
 11
10.284
 21
35.126917
 31
0.0
  0
LINE
  8
1
  6
CONTINUOUS
 62
   215
  5
10C
 10
10.284
 20
35.126917
 30
0.0
 11
10.284
 21
35.35275
 31
0.0
  0
LINE
  8
1
  6
CONTINUOUS
 62
   215
  5
10D
 10
10.284
 20
35.35275
 30
0.0
 11
10.05675
 21
35.35275
 31
0.0
  0
LINE
  8
1
  6
HIDDEN
 62
   215
  5
10E
 10
10.284
 20
35.309833
 30
0.0
 11
10.066083
 21
35.309833
 31
0.0
  0
LINE
  8
1
  6
HIDDEN
 62
   215
  5
10F
 10
10.284
 20
35.27825
 30
0.0
 11
10.073083
 21
35.27825
 31
0.0
  0
LINE
  8
1
  6
HIDDEN
 62
   215
  5
110
 10
10.284
 20
35.206
 30
0.0
 11
10.061417
 21
35.206
 31
0.0
  0
LINE
  8
1
  6
HIDDEN
 62
   215
  5
111
 10
10.284
 20
35.174333
 30
0.0
 11
10.068417
 21
35.174333
 31
0.0
  0
LINE
  8
1
  6
CONTINUOUS
 62
   215
  5
112
 10
10.284
 20
35.206
 30
0.0
 11
10.408167
 21
35.206
 31
0.0
  0
LINE
  8
1
  6
CONTINUOUS
 62
   215
  5
113
 10
10.408167
 20
35.206
 30
0.0
 11
10.408167
 21
35.27825
 31
0.0
  0
LINE
  8
1
  6
CONTINUOUS
 62
   215
  5
114
 10
10.284
 20
35.27825
 30
0.0
 11
10.408167
 21
35.27825
 31
0.0
  0
LINE
  8
1
  6
CONTINUOUS
 62
   215
  5
115
 10
10.335917
 20
35.206
 30
0.0
 11
10.335917
 21
35.27825
 31
0.0
  0
LINE
  8
1
  6
CONTINUOUS
 62
   215
  5
116
 10
10.36525
 20
35.230833
 30
0.0
 11
10.36525
 21
35.253417
 31
0.0
  0
LINE
  8
1
  6
CONTINUOUS
 62
   215
  5
117
 10
10.308833
 20
35.230833
 30
0.0
 11
10.308833
 21
35.255667
 31
0.0
  0
ARC
  8
1
  6
CONTINUOUS
 62
   150
  5
118
 10
10.102242
 20
34.228958
 30
0.0
 40
0.028385
 50
227.640314
 51
296.100603
210
0.0
220
0.0
230
1.0
  0
ARC
  8
1
  6
CONTINUOUS
 62
   150
  5
119
 10
10.078467
 20
34.229408
 30
0.0
 40
0.021862
 50
195.840603
 51
282.156847
210
0.0
220
0.0
230
1.0
  0
ARC
  8
1
  6
CONTINUOUS
 62
   150
  5
11A
 10
10.077042
 20
36.250583
 30
0.0
 40
0.019026
 50
85.295936
 51
170.450139
210
0.0
220
0.0
230
1.0
  0
ARC
  8
1
  6
CONTINUOUS
 62
   215
  5
11B
 10
10.058217
 20
36.253733
 30
0.0
 40
0.0
 50
180.0
 51
340.900283
210
0.0
220
0.0
230
1.0
  0
ARC
  8
1
  6
CONTINUOUS
 62
   150
  5
11C
 10
10.053342
 20
36.238808
 30
0.0
 40
0.01571
 50
71.860889
 51
184.764025
210
0.0
220
0.0
230
1.0
  0
ARC
  8
1
  6
HIDDEN
 62
   215
  5
11D
 10
9.068667
 20
35.978708
 30
0.0
 40
0.027
 50
0.0
 51
90.0
210
0.0
220
0.0
230
1.0
  0
ARC
  8
1
  6
HIDDEN
 62
   215
  5
11E
 10
9.068667
 20
35.655608
 30
0.0
 40
0.027
 50
270.0
 51
360.0
210
0.0
220
0.0
230
1.0
  0
LINE
  8
1
  6
HIDDEN
 62
   215
  5
11F
 10
9.068667
 20
35.628583
 30
0.0
 11
8.984333
 21
35.628583
 31
0.0
  0
LINE
  8
1
  6
HIDDEN
 62
   215
  5
120
 10
9.095667
 20
35.97875
 30
0.0
 11
9.095667
 21
35.655583
 31
0.0
  0
LINE
  8
1
  6
HIDDEN
 62
   215
  5
121
 10
8.984333
 20
36.00575
 30
0.0
 11
9.068667
 21
36.00575
 31
0.0
  0
LINE
  8
1
  6
HIDDEN
 62
   215
  5
122
 10
9.11975
 20
35.596167
 30
0.0
 11
8.984333
 21
35.596167
 31
0.0
  0
LINE
  8
1
  6
HIDDEN
 62
   215
  5
123
 10
9.11975
 20
36.037333
 30
0.0
 11
9.11975
 21
35.596167
 31
0.0
  0
LINE
  8
1
  6
HIDDEN
 62
   215
  5
124
 10
8.984333
 20
36.037333
 30
0.0
 11
9.11975
 21
36.037333
 31
0.0
  0
ARC
  8
1
  6
CONTINUOUS
 62
   150
  5
125
 10
6.886767
 20
34.972883
 30
0.0
 40
0.01571
 50
251.860889
 51
4.764025
210
0.0
220
0.0
230
1.0
  0
ARC
  8
1
  6
CONTINUOUS
 62
   215
  5
126
 10
6.881892
 20
34.957958
 30
0.0
 40
0.0
 50
0.0
 51
160.900283
210
0.0
220
0.0
230
1.0
  0
ARC
  8
1
  6
CONTINUOUS
 62
   150
  5
127
 10
6.863142
 20
34.961108
 30
0.0
 40
0.019026
 50
265.295936
 51
350.450139
210
0.0
220
0.0
230
1.0
  0
ARC
  8
1
  6
CONTINUOUS
 62
   150
  5
128
 10
6.861642
 20
36.982283
 30
0.0
 40
0.021862
 50
15.840603
 51
102.156847
210
0.0
220
0.0
230
1.0
  0
ARC
  8
1
  6
CONTINUOUS
 62
   150
  5
129
 10
6.837942
 20
36.982733
 30
0.0
 40
0.028385
 50
47.640314
 51
116.100603
210
0.0
220
0.0
230
1.0
  0
ARC
  8
1
  6
HIDDEN
 62
   215
  5
12A
 10
7.909167
 20
35.588033
 30
0.0
 40
0.027
 50
90.0
 51
180.0
210
0.0
220
0.0
230
1.0
  0
ARC
  8
1
  6
HIDDEN
 62
   215
  5
12B
 10
7.909167
 20
35.221958
 30
0.0
 40
0.027
 50
180.0
 51
270.0
210
0.0
220
0.0
230
1.0
  0
LINE
  8
1
  6
HIDDEN
 62
   215
  5
12C
 10
7.95475
 20
35.303417
 30
0.0
 11
10.027917
 21
35.303417
 31
0.0
  0
LINE
  8
1
  6
HIDDEN
 62
   215
  5
12D
 10
7.95475
 20
35.26725
 30
0.0
 11
10.027917
 21
35.26725
 31
0.0
  0
LINE
  8
1
  6
HIDDEN
 62
   215
  5
12E
 10
7.909167
 20
35.195
 30
0.0
 11
10.027917
 21
35.195
 31
0.0
  0
LINE
  8
1
  6
HIDDEN
 62
   215
  5
12F
 10
7.882167
 20
35.588
 30
0.0
 11
7.882167
 21
35.222
 31
0.0
  0
LINE
  8
1
  6
HIDDEN
 62
   215
  5
130
 10
7.95475
 20
35.615
 30
0.0
 11
7.909167
 21
35.615
 31
0.0
  0
LINE
  8
1
  6
HIDDEN
 62
   215
  5
131
 10
7.850583
 20
35.165667
 30
0.0
 11
10.027917
 21
35.165667
 31
0.0
  0
LINE
  8
1
  6
HIDDEN
 62
   215
  5
132
 10
7.850583
 20
35.646667
 30
0.0
 11
7.850583
 21
35.165667
 31
0.0
  0
LINE
  8
1
  6
HIDDEN
 62
   215
  5
133
 10
7.95475
 20
35.646667
 30
0.0
 11
7.850583
 21
35.646667
 31
0.0
  0
LINE
  8
1
  6
CONTINUOUS
 62
   215
  5
134
 10
6.631333
 20
35.980917
 30
0.0
 11
6.631333
 21
35.956083
 31
0.0
  0
LINE
  8
1
  6
CONTINUOUS
 62
   215
  5
135
 10
6.574917
 20
35.980917
 30
0.0
 11
6.574917
 21
35.958333
 31
0.0
  0
LINE
  8
1
  6
CONTINUOUS
 62
   215
  5
136
 10
6.60425
 20
36.00575
 30
0.0
 11
6.60425
 21
35.9335
 31
0.0
  0
LINE
  8
1
  6
HIDDEN
 62
   215
  5
137
 10
6.912167
 20
35.901833
 30
0.0
 11
8.984333
 21
35.901833
 31
0.0
  0
LINE
  8
1
  6
HIDDEN
 62
   215
  5
138
 10
6.912167
 20
35.9335
 30
0.0
 11
8.984333
 21
35.9335
 31
0.0
  0
LINE
  8
1
  6
HIDDEN
 62
   215
  5
139
 10
6.912167
 20
36.037333
 30
0.0
 11
8.984333
 21
36.037333
 31
0.0
  0
LINE
  8
1
  6
HIDDEN
 62
   215
  5
13A
 10
6.912167
 20
36.00575
 30
0.0
 11
8.984333
 21
36.00575
 31
0.0
  0
LINE
  8
1
  6
CONTINUOUS
 62
   215
  5
13B
 10
6.656167
 20
35.9335
 30
0.0
 11
6.532
 21
35.9335
 31
0.0
  0
LINE
  8
1
  6
CONTINUOUS
 62
   215
  5
13C
 10
6.532
 20
36.00575
 30
0.0
 11
6.532
 21
35.9335
 31
0.0
  0
LINE
  8
1
  6
CONTINUOUS
 62
   215
  5
13D
 10
6.656167
 20
36.00575
 30
0.0
 11
6.532
 21
36.00575
 31
0.0
  0
LINE
  8
1
  6
HIDDEN
 62
   215
  5
13E
 10
6.656167
 20
36.037333
 30
0.0
 11
6.875417
 21
36.037333
 31
0.0
  0
LINE
  8
1
  6
HIDDEN
 62
   215
  5
13F
 10
6.656167
 20
36.00575
 30
0.0
 11
6.874083
 21
36.00575
 31
0.0
  0
LINE
  8
1
  6
HIDDEN
 62
   215
  5
140
 10
6.656167
 20
35.9335
 30
0.0
 11
6.874083
 21
35.9335
 31
0.0
  0
LINE
  8
1
  6
HIDDEN
 62
   215
  5
141
 10
6.656167
 20
35.901833
 30
0.0
 11
6.88075
 21
35.901833
 31
0.0
  0
LINE
  8
1
  6
CONTINUOUS
 62
   215
  5
142
 10
6.656167
 20
35.858917
 30
0.0
 11
6.875417
 21
35.858917
 31
0.0
  0
LINE
  8
1
  6
CONTINUOUS
 62
   215
  5
143
 10
6.656167
 20
36.08475
 30
0.0
 11
6.656167
 21
35.858917
 31
0.0
  0
LINE
  8
1
  6
CONTINUOUS
 62
   215
  5
144
 10
6.88075
 20
36.08475
 30
0.0
 11
6.656167
 21
36.08475
 31
0.0
  0
ARC
  8
1
  6
CONTINUOUS
 62
   150
  5
145
 10
6.867192
 20
35.775983
 30
0.0
 40
0.045
 50
305.3835
 51
359.999997
210
0.0
220
0.0
230
1.0
  0
ARC
  8
1
  6
CONTINUOUS
 62
   215
  5
146
 10
6.857217
 20
35.804858
 30
0.0
 40
0.045
 50
306.390222
 51
359.999997
210
0.0
220
0.0
230
1.0
  0
ARC
  8
1
  6
CONTINUOUS
 62
   150
  5
147
 10
6.832392
 20
35.810183
 30
0.0
 40
0.045
 50
304.779856
 51
359.999997
210
0.0
220
0.0
230
1.0
  0
ARC
  8
1
  6
CONTINUOUS
 62
   150
  5
148
 10
6.867192
 20
36.192308
 30
0.0
 40
0.045
 50
0.0
 51
54.188183
210
0.0
220
0.0
230
1.0
  0
ARC
  8
1
  6
CONTINUOUS
 62
   215
  5
149
 10
6.857217
 20
36.167333
 30
0.0
 40
0.045
 50
0.0
 51
55.131153
210
0.0
220
0.0
230
1.0
  0
ARC
  8
1
  6
CONTINUOUS
 62
   150
  5
14A
 10
6.832392
 20
36.142283
 30
0.0
 40
0.045
 50
0.0
 51
55.583503
210
0.0
220
0.0
230
1.0
  0
ARC
  8
1
  6
CONTINUOUS
 62
   150
  5
14B
 10
6.421317
 20
36.587558
 30
0.0
 40
0.09
 50
127.27405
 51
235.583503
210
0.0
220
0.0
230
1.0
  0
ARC
  8
1
  6
CONTINUOUS
 62
   150
  5
14C
 10
6.415092
 20
35.355983
 30
0.0
 40
0.09
 50
124.779856
 51
235.675203
210
0.0
220
0.0
230
1.0
  0
LINE
  8
1
  6
CONTINUOUS
 62
   150
  5
14D
 10
6.364333
 20
35.281667
 30
0.0
 11
6.861583
 21
34.942167
 31
0.0
  0
LINE
  8
1
  6
CONTINUOUS
 62
   150
  5
14E
 10
6.858083
 20
35.77325
 30
0.0
 11
6.36375
 21
35.429917
 31
0.0
  0
LINE
  8
1
  6
CONTINUOUS
 62
   150
  5
14F
 10
6.877417
 20
36.14225
 30
0.0
 11
6.877417
 21
35.810167
 31
0.0
  0
LINE
  8
1
  6
CONTINUOUS
 62
   150
  5
150
 10
6.3705
 20
36.513333
 30
0.0
 11
6.857833
 21
36.179417
 31
0.0
  0
LINE
  8
1
  6
CONTINUOUS
 62
   150
  5
151
 10
6.825417
 20
37.008167
 30
0.0
 11
6.366833
 21
36.659083
 31
0.0
  0
ARC
  8
1
  6
CONTINUOUS
 62
   215
  5
152
 10
6.404367
 20
36.592583
 30
0.0
 40
0.045
 50
128.025283
 51
235.13115
210
0.0
220
0.0
230
1.0
  0
ARC
  8
1
  6
CONTINUOUS
 62
   215
  5
153
 10
6.411042
 20
35.364233
 30
0.0
 40
0.045
 50
126.390222
 51
233.359986
210
0.0
220
0.0
230
1.0
  0
LINE
  8
1
  6
CONTINUOUS
 62
   215
  5
154
 10
6.384167
 20
35.328167
 30
0.0
 11
6.881917
 21
34.958
 31
0.0
  0
LINE
  8
1
  6
CONTINUOUS
 62
   215
  5
155
 10
6.883917
 20
35.768667
 30
0.0
 11
6.384333
 21
35.4005
 31
0.0
  0
LINE
  8
1
  6
CONTINUOUS
 62
   215
  5
156
 10
6.90225
 20
36.167333
 30
0.0
 11
6.90225
 21
35.804833
 31
0.0
  0
LINE
  8
1
  6
CONTINUOUS
 62
   215
  5
157
 10
6.378667
 20
36.555583
 30
0.0
 11
6.882917
 21
36.20425
 31
0.0
  0
LINE
  8
1
  6
CONTINUOUS
 62
   215
  5
158
 10
6.857083
 20
37.003667
 30
0.0
 11
6.376667
 21
36.628
 31
0.0
  0
ARC
  8
1
  6
CONTINUOUS
 62
   150
  5
159
 10
6.455592
 20
36.600308
 30
0.0
 40
0.045
 50
127.779992
 51
234.188183
210
0.0
220
0.0
230
1.0
  0
ARC
  8
1
  6
CONTINUOUS
 62
   150
  5
15A
 10
6.448542
 20
35.368283
 30
0.0
 40
0.045
 50
125.3835
 51
233.331331
210
0.0
220
0.0
230
1.0
  0
LINE
  8
1
  6
CONTINUOUS
 62
   150
  5
15B
 10
6.421583
 20
35.332167
 30
0.0
 11
6.902417
 21
34.97425
 31
0.0
  0
LINE
  8
1
  6
CONTINUOUS
 62
   150
  5
15C
 10
6.89325
 20
35.739333
 30
0.0
 11
6.422417
 21
35.405
 31
0.0
  0
LINE
  8
1
  6
CONTINUOUS
 62
   215
  5
15D
 10
6.912167
 20
36.192333
 30
0.0
 11
6.912167
 21
35.776
 31
0.0
  0
LINE
  8
1
  6
CONTINUOUS
 62
   150
  5
15E
 10
6.42925
 20
36.56375
 30
0.0
 11
6.8935
 21
36.228833
 31
0.0
  0
LINE
  8
1
  6
CONTINUOUS
 62
   150
  5
15F
 10
6.88275
 20
36.98825
 30
0.0
 11
6.428083
 21
36.635833
 31
0.0
  0
LINE
  8
1
  6
CONTINUOUS
 62
   150
  5
160
 10
10.027917
 20
36.367167
 30
0.0
 11
8.984333
 21
36.367167
 31
0.0
  0
LINE
  8
1
  6
CONTINUOUS
 62
   150
  5
161
 10
10.027917
 20
34.105583
 30
0.0
 11
10.027917
 21
36.367167
 31
0.0
  0
LINE
  8
1
  6
CONTINUOUS
 62
   150
  5
162
 10
8.984333
 20
34.105583
 30
0.0
 11
10.027917
 21
34.105583
 31
0.0
  0
LINE
  8
1
  6
CONTINUOUS
 62
   150
  5
163
 10
6.912167
 20
34.819667
 30
0.0
 11
7.95475
 21
34.819667
 31
0.0
  0
LINE
  8
1
  6
CONTINUOUS
 62
   150
  5
164
 10
6.912167
 20
37.10525
 30
0.0
 11
6.912167
 21
34.819667
 31
0.0
  0
LINE
  8
1
  6
CONTINUOUS
 62
   150
  5
165
 10
7.778333
 20
33.51025
 30
0.0
 11
7.778333
 21
34.819667
 31
0.0
  0
LINE
  8
1
  6
CONTINUOUS
 62
   150
  5
166
 10
8.070833
 20
33.51025
 30
0.0
 11
7.778333
 21
33.51025
 31
0.0
  0
LINE
  8
1
  6
CONTINUOUS
 62
   150
  5
167
 10
8.152
 20
33.62175
 30
0.0
 11
8.070833
 21
33.51025
 31
0.0
  0
LINE
  8
1
  6
CONTINUOUS
 62
   150
  5
168
 10
8.746917
 20
33.341833
 30
0.0
 11
8.152
 21
33.62175
 31
0.0
  0
LINE
  8
1
  6
CONTINUOUS
 62
   150
  5
169
 10
8.87
 20
33.51025
 30
0.0
 11
8.746917
 21
33.341833
 31
0.0
  0
LINE
  8
1
  6
CONTINUOUS
 62
   150
  5
16A
 10
9.159833
 20
33.51025
 30
0.0
 11
8.87
 21
33.51025
 31
0.0
  0
LINE
  8
1
  6
CONTINUOUS
 62
   150
  5
16B
 10
8.984333
 20
37.10525
 30
0.0
 11
8.984333
 21
34.105583
 31
0.0
  0
LINE
  8
1
  6
CONTINUOUS
 62
   150
  5
16C
 10
6.912167
 20
37.10525
 30
0.0
 11
8.984333
 21
37.10525
 31
0.0
  0
LINE
  8
1
  6
CONTINUOUS
 62
   150
  5
16D
 10
7.95475
 20
34.819667
 30
0.0
 11
7.95475
 21
37.10525
 31
0.0
  0
LINE
  8
1
  6
CONTINUOUS
 62
   150
  5
16E
 10
9.159833
 20
33.51025
 30
0.0
 11
9.159833
 21
34.105583
 31
0.0
  0
LINE
  8
1
  6
CONTINUOUS
 62
   215
  5
16F
 10
8.94325
 20
37.10525
 30
0.0
 11
8.94325
 21
33.51025
 31
0.0
  0
LINE
  8
1
  6
CONTINUOUS
 62
   215
  5
170
 10
8.984333
 20
34.105583
 30
0.0
 11
8.984333
 21
33.51025
 31
0.0
  0
LINE
  8
1
  6
CONTINUOUS
 62
   215
  5
171
 10
9.031333
 20
34.105583
 30
0.0
 11
9.031333
 21
33.51025
 31
0.0
  0
LINE
  8
1
  6
CONTINUOUS
 62
   215
  5
172
 10
9.07325
 20
34.105583
 30
0.0
 11
9.07325
 21
33.51025
 31
0.0
  0
LINE
  8
1
  6
CONTINUOUS
 62
   215
  5
173
 10
9.119333
 20
34.105583
 30
0.0
 11
9.119333
 21
33.51025
 31
0.0
  0
LINE
  8
1
  6
CONTINUOUS
 62
   215
  5
174
 10
8.901333
 20
37.10525
 30
0.0
 11
8.901333
 21
36.903
 31
0.0
  0
LINE
  8
1
  6
CONTINUOUS
 62
   215
  5
175
 10
8.884583
 20
36.311833
 30
0.0
 11
8.884583
 21
36.056083
 31
0.0
  0
LINE
  8
1
  6
CONTINUOUS
 62
   215
  5
176
 10
8.88875
 20
35.8255
 30
0.0
 11
8.88875
 21
35.423
 31
0.0
  0
LINE
  8
1
  6
CONTINUOUS
 62
   215
  5
177
 10
8.905583
 20
35.133667
 30
0.0
 11
8.905583
 21
33.51025
 31
0.0
  0
LINE
  8
1
  6
CONTINUOUS
 62
   215
  5
178
 10
8.867833
 20
36.965917
 30
0.0
 11
8.867833
 21
36.387333
 31
0.0
  0
LINE
  8
1
  6
CONTINUOUS
 62
   215
  5
179
 10
8.8385
 20
37.10525
 30
0.0
 11
8.8385
 21
34.529917
 31
0.0
  0
LINE
  8
1
  6
CONTINUOUS
 62
   215
  5
17A
 10
8.8385
 20
34.383167
 30
0.0
 11
8.8385
 21
33.467083
 31
0.0
  0
LINE
  8
1
  6
CONTINUOUS
 62
   215
  5
17B
 10
8.791
 20
33.402167
 30
0.0
 11
8.791
 21
37.10525
 31
0.0
  0
LINE
  8
1
  6
CONTINUOUS
 62
   215
  5
17C
 10
8.7185
 20
33.35525
 30
0.0
 11
8.7185
 21
37.10525
 31
0.0
  0
LINE
  8
1
  6
CONTINUOUS
 62
   215
  5
17D
 10
8.628833
 20
36.986917
 30
0.0
 11
8.628833
 21
36.88625
 31
0.0
  0
LINE
  8
1
  6
CONTINUOUS
 62
   215
  5
17E
 10
8.628833
 20
36.492167
 30
0.0
 11
8.628833
 21
36.248917
 31
0.0
  0
LINE
  8
1
  6
CONTINUOUS
 62
   215
  5
17F
 10
8.628833
 20
36.056083
 30
0.0
 11
8.628833
 21
33.397417
 31
0.0
  0
LINE
  8
1
  6
CONTINUOUS
 62
   215
  5
180
 10
8.545917
 20
33.436417
 30
0.0
 11
8.545917
 21
33.833833
 31
0.0
  0
LINE
  8
1
  6
CONTINUOUS
 62
   215
  5
181
 10
8.54075
 20
34.664083
 30
0.0
 11
8.54075
 21
34.991083
 31
0.0
  0
LINE
  8
1
  6
CONTINUOUS
 62
   215
  5
182
 10
8.532417
 20
35.213333
 30
0.0
 11
8.532417
 21
37.10525
 31
0.0
  0
LINE
  8
1
  6
CONTINUOUS
 62
   215
  5
183
 10
8.462333
 20
33.475833
 30
0.0
 11
8.462333
 21
37.10525
 31
0.0
  0
LINE
  8
1
  6
CONTINUOUS
 62
   215
  5
184
 10
8.352083
 20
37.100083
 30
0.0
 11
8.352083
 21
36.643083
 31
0.0
  0
LINE
  8
1
  6
CONTINUOUS
 62
   215
  5
185
 10
8.352083
 20
36.01
 30
0.0
 11
8.352083
 21
35.708083
 31
0.0
  0
LINE
  8
1
  6
CONTINUOUS
 62
   215
  5
186
 10
8.3605
 20
35.523583
 30
0.0
 11
8.3605
 21
35.133667
 31
0.0
  0
LINE
  8
1
  6
CONTINUOUS
 62
   215
  5
187
 10
8.3605
 20
33.62425
 30
0.0
 11
8.3605
 21
34.5005
 31
0.0
  0
LINE
  8
1
  6
CONTINUOUS
 62
   215
  5
188
 10
8.276667
 20
33.683
 30
0.0
 11
8.276667
 21
36.991083
 31
0.0
  0
LINE
  8
1
  6
CONTINUOUS
 62
   215
  5
189
 10
8.217917
 20
37.10525
 30
0.0
 11
8.217917
 21
36.5215
 31
0.0
  0
LINE
  8
1
  6
CONTINUOUS
 62
   215
  5
18A
 10
8.205333
 20
36.420833
 30
0.0
 11
8.205333
 21
33.59675
 31
0.0
  0
LINE
  8
1
  6
CONTINUOUS
 62
   215
  5
18B
 10
8.1425
 20
33.758417
 30
0.0
 11
8.1425
 21
35.435583
 31
0.0
  0
LINE
  8
1
  6
CONTINUOUS
 62
   215
  5
18C
 10
8.146667
 20
36.051917
 30
0.0
 11
8.146667
 21
36.92825
 31
0.0
  0
LINE
  8
1
  6
CONTINUOUS
 62
   215
  5
18D
 10
8.09275
 20
33.540333
 30
0.0
 11
8.09275
 21
37.10525
 31
0.0
  0
LINE
  8
1
  6
CONTINUOUS
 62
   215
  5
18E
 10
8.054417
 20
37.012083
 30
0.0
 11
8.054417
 21
35.91775
 31
0.0
  0
LINE
  8
1
  6
CONTINUOUS
 62
   215
  5
18F
 10
8.05025
 20
34.571833
 30
0.0
 11
8.05025
 21
33.51025
 31
0.0
  0
LINE
  8
1
  6
CONTINUOUS
 62
   215
  5
190
 10
7.999917
 20
33.51025
 30
0.0
 11
7.999917
 21
37.10525
 31
0.0
  0
LINE
  8
1
  6
CONTINUOUS
 62
   215
  5
191
 10
7.95475
 20
34.819667
 30
0.0
 11
7.95475
 21
33.51025
 31
0.0
  0
LINE
  8
1
  6
CONTINUOUS
 62
   215
  5
192
 10
7.93375
 20
34.819667
 30
0.0
 11
7.93375
 21
33.51025
 31
0.0
  0
LINE
  8
1
  6
CONTINUOUS
 62
   215
  5
193
 10
7.904417
 20
34.819667
 30
0.0
 11
7.904417
 21
33.51025
 31
0.0
  0
LINE
  8
1
  6
CONTINUOUS
 62
   215
  5
194
 10
7.879333
 20
34.819667
 30
0.0
 11
7.879333
 21
33.51025
 31
0.0
  0
LINE
  8
1
  6
CONTINUOUS
 62
   215
  5
195
 10
7.849917
 20
34.819667
 30
0.0
 11
7.849917
 21
33.51025
 31
0.0
  0
LINE
  8
1
  6
CONTINUOUS
 62
   215
  5
196
 10
7.833167
 20
34.819667
 30
0.0
 11
7.833167
 21
33.51025
 31
0.0
  0
LINE
  8
1
  6
CONTINUOUS
 62
   215
  5
197
 10
7.808
 20
34.819667
 30
0.0
 11
7.808
 21
33.51025
 31
0.0
  0
LINE
  8
1
  6
CONTINUOUS
 62
   215
  5
198
 10
7.79125
 20
34.819667
 30
0.0
 11
7.79125
 21
33.51025
 31
0.0
  0
LINE
  8
1
  6
CONTINUOUS
 62
     2
  5
199
 10
12.570917
 20
43.200833
 30
0.0
 11
13.581417
 21
43.200833
 31
0.0
  0
LINE
  8
1
  6
CONTINUOUS
 62
     2
  5
19A
 10
13.581417
 20
43.200833
 30
0.0
 11
13.581417
 21
39.53625
 31
0.0
  0
LINE
  8
1
  6
CONTINUOUS
 62
     2
  5
19B
 10
13.581417
 20
39.53625
 30
0.0
 11
13.334083
 21
39.53625
 31
0.0
  0
LINE
  8
1
  6
CONTINUOUS
 62
     2
  5
19C
 10
13.334083
 20
39.53625
 30
0.0
 11
13.20825
 21
39.322417
 31
0.0
  0
LINE
  8
1
  6
CONTINUOUS
 62
     2
  5
19D
 10
13.20825
 20
39.322417
 30
0.0
 11
12.960833
 21
39.750167
 31
0.0
  0
LINE
  8
1
  6
CONTINUOUS
 62
     2
  5
19E
 10
12.960833
 20
39.750167
 30
0.0
 11
12.8225
 21
39.544667
 31
0.0
  0
LINE
  8
1
  6
CONTINUOUS
 62
     2
  5
19F
 10
12.8225
 20
39.544667
 30
0.0
 11
12.575167
 21
39.544667
 31
0.0
  0
LINE
  8
1
  6
CONTINUOUS
 62
     2
  5
1A0
 10
12.575167
 20
39.544667
 30
0.0
 11
12.575167
 21
43.200833
 31
0.0
  0
CIRCLE
  8
1
  6
CONTINUOUS
 62
   215
  5
1A1
 10
13.078242
 20
42.014258
 30
0.0
 40
0.0587
210
0.0
220
0.0
230
1.0
  0
CIRCLE
  8
1
  6
CONTINUOUS
 62
   215
  5
1A2
 10
13.078242
 20
41.259533
 30
0.0
 40
0.0587
210
0.0
220
0.0
230
1.0
  0
LINE
  8
1
  6
CONTINUOUS
 62
   215
  5
1A3
 10
12.586917
 20
37.146333
 30
0.0
 11
13.9885
 21
37.146333
 31
0.0
  0
LINE
  8
1
  6
CONTINUOUS
 62
   215
  5
1A4
 10
13.9885
 20
37.146333
 30
0.0
 11
13.9885
 21
33.485333
 31
0.0
  0
LINE
  8
1
  6
CONTINUOUS
 62
   215
  5
1A5
 10
13.9885
 20
33.485333
 30
0.0
 11
13.686083
 21
33.485333
 31
0.0
  0
LINE
  8
1
  6
CONTINUOUS
 62
   215
  5
1A6
 10
13.686083
 20
33.485333
 30
0.0
 11
13.584
 21
33.321917
 31
0.0
  0
LINE
  8
1
  6
CONTINUOUS
 62
   215
  5
1A7
 10
13.584
 20
33.321917
 30
0.0
 11
12.966917
 21
33.616083
 31
0.0
  0
LINE
  8
1
  6
CONTINUOUS
 62
   215
  5
1A8
 10
12.966917
 20
33.616083
 30
0.0
 11
12.877
 21
33.48125
 31
0.0
  0
LINE
  8
1
  6
CONTINUOUS
 62
   215
  5
1A9
 10
12.877
 20
33.48125
 30
0.0
 11
12.586917
 21
33.48125
 31
0.0
  0
LINE
  8
1
  6
CONTINUOUS
 62
   215
  5
1AA
 10
12.586917
 20
33.48125
 30
0.0
 11
12.586917
 21
37.146333
 31
0.0
  0
LINE
  8
1
  6
CONTINUOUS
 62
   215
  5
1AB
 10
13.78825
 20
37.146333
 30
0.0
 11
13.78825
 21
34.88275
 31
0.0
  0
LINE
  8
1
  6
HIDDEN
 62
   215
  5
1AC
 10
13.78825
 20
34.10225
 30
0.0
 11
12.7545
 21
34.10225
 31
0.0
  0
LINE
  8
1
  6
HIDDEN
 62
   215
  5
1AD
 10
12.7545
 20
34.10225
 30
0.0
 11
12.7545
 21
34.88275
 31
0.0
  0
LINE
  8
1
  6
CONTINUOUS
 62
   215
  5
1AE
 10
12.7545
 20
34.88275
 30
0.0
 11
13.78825
 21
34.88275
 31
0.0
  0
LINE
  8
1
  6
HIDDEN
 62
   215
  5
1AF
 10
13.78825
 20
34.88275
 30
0.0
 11
13.78825
 21
34.10225
 31
0.0
  0
LINE
  8
1
  6
CONTINUOUS
 62
   215
  5
1B0
 10
12.7545
 20
34.88275
 30
0.0
 11
12.7545
 21
37.146333
 31
0.0
  0
LINE
  8
1
  6
CONTINUOUS
 62
   215
  5
1B1
 10
13.959833
 20
37.146333
 30
0.0
 11
13.959833
 21
33.485333
 31
0.0
  0
LINE
  8
1
  6
CONTINUOUS
 62
   215
  5
1B2
 10
13.9395
 20
37.146333
 30
0.0
 11
13.9395
 21
33.485333
 31
0.0
  0
LINE
  8
1
  6
CONTINUOUS
 62
   215
  5
1B3
 10
13.919
 20
37.146333
 30
0.0
 11
13.919
 21
33.485333
 31
0.0
  0
LINE
  8
1
  6
CONTINUOUS
 62
   215
  5
1B4
 10
13.890417
 20
37.146333
 30
0.0
 11
13.890417
 21
33.485333
 31
0.0
  0
LINE
  8
1
  6
CONTINUOUS
 62
   215
  5
1B5
 10
13.849583
 20
37.146333
 30
0.0
 11
13.849583
 21
33.485333
 31
0.0
  0
LINE
  8
1
  6
CONTINUOUS
 62
   215
  5
1B6
 10
13.829167
 20
37.146333
 30
0.0
 11
13.829167
 21
33.485333
 31
0.0
  0
LINE
  8
1
  6
CONTINUOUS
 62
   215
  5
1B7
 10
13.865917
 20
37.146333
 30
0.0
 11
13.865917
 21
33.485333
 31
0.0
  0
LINE
  8
1
  6
CONTINUOUS
 62
   215
  5
1B8
 10
13.796417
 20
37.146333
 30
0.0
 11
13.796417
 21
33.485333
 31
0.0
  0
LINE
  8
1
  6
CONTINUOUS
 62
   215
  5
1B9
 10
13.767833
 20
37.146333
 30
0.0
 11
13.767833
 21
33.485333
 31
0.0
  0
LINE
  8
1
  6
CONTINUOUS
 62
   215
  5
1BA
 10
13.73925
 20
37.146333
 30
0.0
 11
13.73925
 21
33.485333
 31
0.0
  0
LINE
  8
1
  6
CONTINUOUS
 62
   215
  5
1BB
 10
12.725917
 20
37.146333
 30
0.0
 11
12.725917
 21
33.485333
 31
0.0
  0
LINE
  8
1
  6
CONTINUOUS
 62
   215
  5
1BC
 10
12.709583
 20
37.146333
 30
0.0
 11
12.709583
 21
33.485333
 31
0.0
  0
LINE
  8
1
  6
CONTINUOUS
 62
   215
  5
1BD
 10
12.69725
 20
37.146333
 30
0.0
 11
12.69725
 21
33.485333
 31
0.0
  0
LINE
  8
1
  6
CONTINUOUS
 62
   215
  5
1BE
 10
12.67275
 20
37.146333
 30
0.0
 11
12.67275
 21
33.485333
 31
0.0
  0
LINE
  8
1
  6
CONTINUOUS
 62
   215
  5
1BF
 10
12.656333
 20
37.146333
 30
0.0
 11
12.656333
 21
33.485333
 31
0.0
  0
LINE
  8
1
  6
CONTINUOUS
 62
   215
  5
1C0
 10
12.627833
 20
37.146333
 30
0.0
 11
12.627833
 21
33.485333
 31
0.0
  0
LINE
  8
1
  6
CONTINUOUS
 62
   215
  5
1C1
 10
12.59925
 20
37.146333
 30
0.0
 11
12.59925
 21
33.485333
 31
0.0
  0
LINE
  8
1
  6
CONTINUOUS
 62
   215
  5
1C2
 10
12.746333
 20
37.146333
 30
0.0
 11
12.746333
 21
33.485333
 31
0.0
  0
LINE
  8
1
  6
CONTINUOUS
 62
   215
  5
1C3
 10
12.8035
 20
34.090083
 30
0.0
 11
12.8035
 21
33.48125
 31
0.0
  0
LINE
  8
1
  6
CONTINUOUS
 62
   215
  5
1C4
 10
12.856583
 20
34.10225
 30
0.0
 11
12.856583
 21
33.48125
 31
0.0
  0
LINE
  8
1
  6
CONTINUOUS
 62
   215
  5
1C5
 10
12.938333
 20
34.10225
 30
0.0
 11
12.938333
 21
33.573167
 31
0.0
  0
LINE
  8
1
  6
CONTINUOUS
 62
   215
  5
1C6
 10
13.011833
 20
34.10225
 30
0.0
 11
13.011833
 21
33.594667
 31
0.0
  0
LINE
  8
1
  6
CONTINUOUS
 62
   215
  5
1C7
 10
13.056833
 20
33.992
 30
0.0
 11
13.056833
 21
33.71825
 31
0.0
  0
LINE
  8
1
  6
CONTINUOUS
 62
   215
  5
1C8
 10
13.093583
 20
34.10225
 30
0.0
 11
13.093583
 21
33.555667
 31
0.0
  0
LINE
  8
1
  6
CONTINUOUS
 62
   215
  5
1C9
 10
13.14675
 20
34.10225
 30
0.0
 11
13.14675
 21
33.612
 31
0.0
  0
LINE
  8
1
  6
CONTINUOUS
 62
   215
  5
1CA
 10
13.19175
 20
33.959333
 30
0.0
 11
13.19175
 21
33.509
 31
0.0
  0
LINE
  8
1
  6
CONTINUOUS
 62
   215
  5
1CB
 10
13.302083
 20
34.10225
 30
0.0
 11
13.302083
 21
33.746833
 31
0.0
  0
LINE
  8
1
  6
CONTINUOUS
 62
   215
  5
1CC
 10
13.404167
 20
33.79175
 30
0.0
 11
13.404167
 21
33.407667
 31
0.0
  0
LINE
  8
1
  6
CONTINUOUS
 62
   215
  5
1CD
 10
13.473667
 20
33.518
 30
0.0
 11
13.473667
 21
34.02875
 31
0.0
  0
LINE
  8
1
  6
CONTINUOUS
 62
   215
  5
1CE
 10
13.543083
 20
34.10225
 30
0.0
 11
13.543083
 21
33.341417
 31
0.0
  0
LINE
  8
1
  6
CONTINUOUS
 62
   215
  5
1CF
 10
13.575833
 20
33.677417
 30
0.0
 11
13.575833
 21
33.501667
 31
0.0
  0
LINE
  8
1
  6
CONTINUOUS
 62
   215
  5
1D0
 10
13.637083
 20
34.10225
 30
0.0
 11
13.637083
 21
34.000167
 31
0.0
  0
CIRCLE
  8
1
  6
CONTINUOUS
 62
   215
  5
1D1
 10
13.285692
 20
35.258633
 30
0.0
 40
0.061288
210
0.0
220
0.0
230
1.0
  0
CIRCLE
  8
1
  6
CONTINUOUS
 62
   215
  5
1D2
 10
13.285692
 20
35.977733
 30
0.0
 40
0.061288
210
0.0
220
0.0
230
1.0
  0
LINE
  8
1
  6
CONTINUOUS
 62
   150
  5
1D3
 10
6.887583
 20
31.248917
 30
0.0
 11
8.952583
 21
31.248917
 31
0.0
  0
LINE
  8
1
  6
CONTINUOUS
 62
   150
  5
1D4
 10
8.952583
 20
31.248917
 30
0.0
 11
8.952583
 21
27.630167
 31
0.0
  0
LINE
  8
1
  6
CONTINUOUS
 62
   150
  5
1D5
 10
8.952583
 20
27.630167
 30
0.0
 11
8.675333
 21
27.630167
 31
0.0
  0
LINE
  8
1
  6
CONTINUOUS
 62
   150
  5
1D6
 10
8.675333
 20
27.630167
 30
0.0
 11
8.560583
 21
27.458
 31
0.0
  0
LINE
  8
1
  6
CONTINUOUS
 62
   150
  5
1D7
 10
8.560583
 20
27.458
 30
0.0
 11
8.331083
 21
27.76875
 31
0.0
  0
LINE
  8
1
  6
CONTINUOUS
 62
   150
  5
1D8
 10
8.331083
 20
27.76875
 30
0.0
 11
8.226
 21
27.635
 31
0.0
  0
LINE
  8
1
  6
CONTINUOUS
 62
   150
  5
1D9
 10
8.226
 20
27.635
 30
0.0
 11
7.915333
 21
27.635
 31
0.0
  0
LINE
  8
1
  6
CONTINUOUS
 62
   150
  5
1DA
 10
8.880833
 20
27.630167
 30
0.0
 11
8.880833
 21
31.248917
 31
0.0
  0
LINE
  8
1
  6
CONTINUOUS
 62
   150
  5
1DB
 10
8.952583
 20
30.503167
 30
0.0
 11
10.01375
 21
30.503167
 31
0.0
  0
LINE
  8
1
  6
CONTINUOUS
 62
   150
  5
1DC
 10
10.01375
 20
30.503167
 30
0.0
 11
10.01375
 21
28.251583
 31
0.0
  0
LINE
  8
1
  6
CONTINUOUS
 62
   150
  5
1DD
 10
10.01375
 20
28.251583
 30
0.0
 11
8.952583
 21
28.251583
 31
0.0
  0
LINE
  8
1
  6
CONTINUOUS
 62
   150
  5
1DE
 10
8.072417
 20
28.987833
 30
0.0
 11
6.882833
 21
28.987833
 31
0.0
  0
LINE
  8
1
  6
CONTINUOUS
 62
   150
  5
1DF
 10
6.882833
 20
28.987833
 30
0.0
 11
6.882833
 21
31.248917
 31
0.0
  0
INSERT
  8
1
  6
CONTINUOUS
 62
   215
  5
203
  2
W
 10
10.01375
 20
29.379667
 30
0.0
 41
0.899999
 42
0.899999
210
0.0
220
0.0
230
1.0
  0
INSERT
  8
1
  6
CONTINUOUS
 62
   215
  5
204
  2
W
 10
6.88275
 20
30.118333
 30
0.0
 41
0.899999
 42
0.899999
 50
180.0
210
0.0
220
0.0
230
1.0
  0
ARC
  8
1
  6
CONTINUOUS
 62
   215
  5
205
 10
6.87665
 20
30.096925
 30
0.0
 40
0.079561
 50
118.654161
 51
241.345833
210
0.0
220
0.0
230
1.0
  0
LINE
  8
1
  6
HIDDEN
 62
   215
  5
206
 10
6.88275
 20
30.174083
 30
0.0
 11
8.238167
 21
30.174083
 31
0.0
  0
LINE
  8
1
  6
HIDDEN
 62
   215
  5
207
 10
8.238167
 20
30.039333
 30
0.0
 11
6.88275
 21
30.039333
 31
0.0
  0
LINE
  8
1
  6
HIDDEN
 62
   215
  5
208
 10
6.88275
 20
30.063667
 30
0.0
 11
8.321
 21
30.063667
 31
0.0
  0
LINE
  8
1
  6
HIDDEN
 62
   215
  5
209
 10
8.321
 20
30.063667
 30
0.0
 11
8.321
 21
30.14325
 31
0.0
  0
LINE
  8
1
  6
HIDDEN
 62
   215
  5
20A
 10
8.321
 20
30.14325
 30
0.0
 11
6.882833
 21
30.14325
 31
0.0
  0
LINE
  8
1
  6
HIDDEN
 62
   215
  5
20B
 10
8.001333
 20
29.935417
 30
0.0
 11
8.06275
 21
29.935417
 31
0.0
  0
LINE
  8
1
  6
HIDDEN
 62
   215
  5
20C
 10
8.06275
 20
29.935417
 30
0.0
 11
8.06275
 21
30.28125
 31
0.0
  0
LINE
  8
1
  6
HIDDEN
 62
   215
  5
20D
 10
8.06275
 20
30.28125
 30
0.0
 11
8.001333
 21
30.28125
 31
0.0
  0
LINE
  8
1
  6
HIDDEN
 62
   215
  5
20E
 10
8.06275
 20
30.2195
 30
0.0
 11
8.236583
 21
30.2195
 31
0.0
  0
LINE
  8
1
  6
HIDDEN
 62
   215
  5
20F
 10
8.236583
 20
30.2195
 30
0.0
 11
8.236583
 21
29.990667
 31
0.0
  0
LINE
  8
1
  6
HIDDEN
 62
   215
  5
210
 10
8.236583
 20
29.990667
 30
0.0
 11
8.06275
 21
29.990667
 31
0.0
  0
LINE
  8
1
  6
HIDDEN
 62
   215
  5
211
 10
7.648
 20
29.378667
 30
0.0
 11
7.734
 21
29.39525
 31
0.0
  0
LINE
  8
1
  6
HIDDEN
 62
   215
  5
212
 10
7.734
 20
29.39525
 30
0.0
 11
8.063
 21
29.39525
 31
0.0
  0
LINE
  8
1
  6
HIDDEN
 62
   215
  5
213
 10
8.072
 20
29.40425
 30
0.0
 11
8.072
 21
29.427083
 31
0.0
  0
LINE
  8
1
  6
HIDDEN
 62
   215
  5
214
 10
8.081
 20
29.436083
 30
0.0
 11
8.096083
 21
29.436083
 31
0.0
  0
LINE
  8
1
  6
HIDDEN
 62
   215
  5
215
 10
8.105083
 20
29.427083
 30
0.0
 11
8.105083
 21
29.31875
 31
0.0
  0
LINE
  8
1
  6
HIDDEN
 62
   215
  5
216
 10
8.096083
 20
29.30975
 30
0.0
 11
8.080583
 21
29.30975
 31
0.0
  0
LINE
  8
1
  6
HIDDEN
 62
   215
  5
217
 10
8.071583
 20
29.31875
 30
0.0
 11
8.071583
 21
29.34625
 31
0.0
  0
LINE
  8
1
  6
HIDDEN
 62
   215
  5
218
 10
8.062583
 20
29.35525
 30
0.0
 11
7.734
 21
29.35525
 31
0.0
  0
LINE
  8
1
  6
HIDDEN
 62
   215
  5
219
 10
7.734
 20
29.35525
 30
0.0
 11
7.648
 21
29.378667
 31
0.0
  0
ARC
  8
1
  6
HIDDEN
 62
   215
  5
21A
 10
8.062992
 20
29.404208
 30
0.0
 40
0.009
 50
270.0
 51
360.0
210
0.0
220
0.0
230
1.0
  0
ARC
  8
1
  6
HIDDEN
 62
   215
  5
21B
 10
8.080992
 20
29.427083
 30
0.0
 40
0.009
 50
90.0
 51
180.0
210
0.0
220
0.0
230
1.0
  0
ARC
  8
1
  6
HIDDEN
 62
   215
  5
21C
 10
8.080542
 20
29.318783
 30
0.0
 40
0.009
 50
180.0
 51
270.0
210
0.0
220
0.0
230
1.0
  0
ARC
  8
1
  6
HIDDEN
 62
   215
  5
21D
 10
8.062542
 20
29.346233
 30
0.0
 40
0.009
 50
0.0
 51
90.0
210
0.0
220
0.0
230
1.0
  0
ARC
  8
1
  6
HIDDEN
 62
   215
  5
21E
 10
8.096067
 20
29.427083
 30
0.0
 40
0.009
 50
0.0
 51
90.0
210
0.0
220
0.0
230
1.0
  0
ARC
  8
1
  6
HIDDEN
 62
   215
  5
21F
 10
8.096067
 20
29.318783
 30
0.0
 40
0.009
 50
270.0
 51
360.0
210
0.0
220
0.0
230
1.0
  0
LINE
  8
1
  6
HIDDEN
 62
   215
  5
220
 10
7.915333
 20
29.43775
 30
0.0
 11
8.001333
 21
29.43775
 31
0.0
  0
LINE
  8
1
  6
HIDDEN
 62
   215
  5
221
 10
7.915333
 20
29.3105
 30
0.0
 11
8.001333
 21
29.3105
 31
0.0
  0
INSERT
  8
1
  6
HIDDEN
 62
   215
  5
234
  2
NAIL
 10
8.829333
 20
30.099333
 30
0.0
 41
0.899999
 42
0.899999
 50
180.0
210
0.0
220
0.0
230
1.0
  0
LINE
  8
1
  6
HIDDEN
 62
   215
  5
235
 10
8.880833
 20
30.165667
 30
0.0
 11
8.952583
 21
30.165667
 31
0.0
  0
LINE
  8
1
  6
HIDDEN
 62
   215
  5
236
 10
8.880833
 20
30.036917
 30
0.0
 11
8.952583
 21
30.036917
 31
0.0
  0
ARC
  8
1
  6
CONTINUOUS
 62
   215
  5
237
 10
9.99535
 20
29.354275
 30
0.0
 40
0.103836
 50
307.551553
 51
52.448444
210
0.0
220
0.0
230
1.0
  0
LINE
  8
1
  6
HIDDEN
 62
   215
  5
238
 10
10.013833
 20
29.30525
 30
0.0
 11
8.676833
 21
29.30525
 31
0.0
  0
LINE
  8
1
  6
HIDDEN
 62
   215
  5
239
 10
10.01375
 20
29.43175
 30
0.0
 11
8.678333
 21
29.43175
 31
0.0
  0
LINE
  8
1
  6
HIDDEN
 62
   215
  5
23A
 10
10.01375
 20
29.410333
 30
0.0
 11
8.553333
 21
29.410333
 31
0.0
  0
LINE
  8
1
  6
HIDDEN
 62
   215
  5
23B
 10
8.553333
 20
29.410333
 30
0.0
 11
8.553333
 21
29.343333
 31
0.0
  0
LINE
  8
1
  6
HIDDEN
 62
   215
  5
23C
 10
8.553333
 20
29.343333
 30
0.0
 11
10.01375
 21
29.343333
 31
0.0
  0
LINE
  8
1
  6
HIDDEN
 62
   215
  5
23D
 10
8.880833
 20
29.207667
 30
0.0
 11
8.8385
 21
29.207667
 31
0.0
  0
LINE
  8
1
  6
HIDDEN
 62
   215
  5
23E
 10
8.8385
 20
29.207667
 30
0.0
 11
8.8385
 21
29.530833
 31
0.0
  0
LINE
  8
1
  6
HIDDEN
 62
   215
  5
23F
 10
8.8385
 20
29.530833
 30
0.0
 11
8.880833
 21
29.530833
 31
0.0
  0
LINE
  8
1
  6
HIDDEN
 62
   215
  5
240
 10
8.8385
 20
29.475917
 30
0.0
 11
8.678333
 21
29.475917
 31
0.0
  0
LINE
  8
1
  6
HIDDEN
 62
   215
  5
241
 10
8.678333
 20
29.475917
 30
0.0
 11
8.678333
 21
29.267083
 31
0.0
  0
LINE
  8
1
  6
HIDDEN
 62
   215
  5
242
 10
8.678333
 20
29.267083
 30
0.0
 11
8.8385
 21
29.267083
 31
0.0
  0
LINE
  8
1
  6
HIDDEN
 62
   215
  5
243
 10
8.6205
 20
29.410333
 30
0.0
 11
8.6205
 21
29.343333
 31
0.0
  0
LINE
  8
1
  6
HIDDEN
 62
   215
  5
244
 10
8.585333
 20
29.39825
 30
0.0
 11
8.585333
 21
29.360083
 31
0.0
  0
LINE
  8
1
  6
HIDDEN
 62
   215
  5
245
 10
8.658583
 20
29.396667
 30
0.0
 11
8.658583
 21
29.360083
 31
0.0
  0
LINE
  8
1
  6
CONTINUOUS
 62
   150
  5
246
 10
12.58125
 20
31.218917
 30
0.0
 11
13.279083
 21
31.218917
 31
0.0
  0
LINE
  8
1
  6
CONTINUOUS
 62
   150
  5
247
 10
13.279083
 20
31.218917
 30
0.0
 11
13.279083
 21
27.624
 31
0.0
  0
LINE
  8
1
  6
CONTINUOUS
 62
   150
  5
248
 10
13.279083
 20
27.624
 30
0.0
 11
13.131
 21
27.624
 31
0.0
  0
LINE
  8
1
  6
CONTINUOUS
 62
   150
  5
249
 10
13.131
 20
27.624
 30
0.0
 11
13.044917
 21
27.49025
 31
0.0
  0
LINE
  8
1
  6
CONTINUOUS
 62
   150
  5
24A
 10
13.044917
 20
27.49025
 30
0.0
 11
12.82025
 21
27.72925
 31
0.0
  0
LINE
  8
1
  6
CONTINUOUS
 62
   150
  5
24B
 10
12.82025
 20
27.72925
 30
0.0
 11
12.715083
 21
27.624
 31
0.0
  0
LINE
  8
1
  6
CONTINUOUS
 62
   150
  5
24C
 10
12.715083
 20
27.624
 30
0.0
 11
12.58125
 21
27.624
 31
0.0
  0
LINE
  8
1
  6
CONTINUOUS
 62
   150
  5
24D
 10
12.58125
 20
27.624
 30
0.0
 11
12.58125
 21
31.218917
 31
0.0
  0
LINE
  8
1
  6
HIDDEN
 62
   215
  5
24E
 10
12.901583
 20
31.218917
 30
0.0
 11
12.901583
 21
27.64275
 31
0.0
  0
LINE
  8
1
  6
HIDDEN
 62
   215
  5
24F
 10
12.978
 20
31.218917
 30
0.0
 11
12.978
 21
27.561417
 31
0.0
  0
CIRCLE
  8
1
  6
CONTINUOUS
 62
   215
  5
250
 10
12.753342
 20
30.081158
 30
0.0
 40
0.057364
210
0.0
220
0.0
230
1.0
  0
CIRCLE
  8
1
  6
CONTINUOUS
 62
   215
  5
251
 10
13.121367
 20
30.081158
 30
0.0
 40
0.057364
210
0.0
220
0.0
230
1.0
  0
CIRCLE
  8
1
  6
HIDDEN
 62
   215
  5
252
 10
13.126167
 20
29.354558
 30
0.0
 40
0.057364
210
0.0
220
0.0
230
1.0
  0
CIRCLE
  8
1
  6
HIDDEN
 62
   215
  5
253
 10
12.734217
 20
29.349758
 30
0.0
 40
0.057364
210
0.0
220
0.0
230
1.0
  0
CIRCLE
  8
1
  6
CONTINUOUS
 62
   215
  5
254
 10
24.243867
 20
35.977733
 30
0.0
 40
0.061288
210
0.0
220
0.0
230
1.0
  0
LINE
  8
1
  6
CONTINUOUS
 62
   215
  5
255
 10
24.59525
 20
34.88275
 30
0.0
 11
24.59525
 21
34.000167
 31
0.0
  0
LINE
  8
1
  6
CONTINUOUS
 62
   215
  5
256
 10
24.534
 20
33.677417
 30
0.0
 11
24.534
 21
33.501667
 31
0.0
  0
LINE
  8
1
  6
CONTINUOUS
 62
   215
  5
257
 10
24.50125
 20
34.88275
 30
0.0
 11
24.50125
 21
33.341417
 31
0.0
  0
LINE
  8
1
  6
CONTINUOUS
 62
   215
  5
258
 10
24.431833
 20
33.518
 30
0.0
 11
24.431833
 21
34.02875
 31
0.0
  0
LINE
  8
1
  6
CONTINUOUS
 62
   215
  5
259
 10
24.362333
 20
34.88275
 30
0.0
 11
24.362333
 21
33.407667
 31
0.0
  0
LINE
  8
1
  6
CONTINUOUS
 62
   215
  5
25A
 10
24.26025
 20
34.88275
 30
0.0
 11
24.26025
 21
33.746833
 31
0.0
  0
LINE
  8
1
  6
CONTINUOUS
 62
   215
  5
25B
 10
24.149917
 20
34.88275
 30
0.0
 11
24.149917
 21
33.509
 31
0.0
  0
LINE
  8
1
  6
CONTINUOUS
 62
   215
  5
25C
 10
24.105
 20
34.10225
 30
0.0
 11
24.105
 21
33.612
 31
0.0
  0
LINE
  8
1
  6
CONTINUOUS
 62
   215
  5
25D
 10
24.051833
 20
34.88275
 30
0.0
 11
24.051833
 21
33.555667
 31
0.0
  0
LINE
  8
1
  6
CONTINUOUS
 62
   215
  5
25E
 10
24.015083
 20
33.992
 30
0.0
 11
24.015083
 21
33.71825
 31
0.0
  0
LINE
  8
1
  6
CONTINUOUS
 62
   215
  5
25F
 10
23.970083
 20
34.88275
 30
0.0
 11
23.970083
 21
33.594667
 31
0.0
  0
LINE
  8
1
  6
CONTINUOUS
 62
   215
  5
260
 10
23.896583
 20
34.88275
 30
0.0
 11
23.896583
 21
33.573167
 31
0.0
  0
LINE
  8
1
  6
CONTINUOUS
 62
   215
  5
261
 10
23.814833
 20
34.88275
 30
0.0
 11
23.814833
 21
33.48125
 31
0.0
  0
LINE
  8
1
  6
CONTINUOUS
 62
   215
  5
262
 10
23.761667
 20
34.88275
 30
0.0
 11
23.761667
 21
33.48125
 31
0.0
  0
LINE
  8
1
  6
CONTINUOUS
 62
   215
  5
263
 10
23.7045
 20
37.146333
 30
0.0
 11
23.7045
 21
33.485333
 31
0.0
  0
LINE
  8
1
  6
CONTINUOUS
 62
   215
  5
264
 10
23.557417
 20
37.146333
 30
0.0
 11
23.557417
 21
33.485333
 31
0.0
  0
LINE
  8
1
  6
CONTINUOUS
 62
   215
  5
265
 10
23.586
 20
37.146333
 30
0.0
 11
23.586
 21
33.485333
 31
0.0
  0
LINE
  8
1
  6
CONTINUOUS
 62
   215
  5
266
 10
23.614583
 20
37.146333
 30
0.0
 11
23.614583
 21
33.485333
 31
0.0
  0
LINE
  8
1
  6
CONTINUOUS
 62
   215
  5
267
 10
23.631
 20
37.146333
 30
0.0
 11
23.631
 21
33.485333
 31
0.0
  0
LINE
  8
1
  6
CONTINUOUS
 62
   215
  5
268
 10
23.655417
 20
37.146333
 30
0.0
 11
23.655417
 21
33.485333
 31
0.0
  0
LINE
  8
1
  6
CONTINUOUS
 62
   215
  5
269
 10
23.66775
 20
37.146333
 30
0.0
 11
23.66775
 21
33.485333
 31
0.0
  0
LINE
  8
1
  6
CONTINUOUS
 62
   215
  5
26A
 10
23.684083
 20
37.146333
 30
0.0
 11
23.684083
 21
33.485333
 31
0.0
  0
LINE
  8
1
  6
CONTINUOUS
 62
   215
  5
26B
 10
24.6975
 20
37.146333
 30
0.0
 11
24.6975
 21
33.485333
 31
0.0
  0
LINE
  8
1
  6
CONTINUOUS
 62
   215
  5
26C
 10
24.726083
 20
37.146333
 30
0.0
 11
24.726083
 21
33.485333
 31
0.0
  0
LINE
  8
1
  6
CONTINUOUS
 62
   215
  5
26D
 10
24.754583
 20
37.146333
 30
0.0
 11
24.754583
 21
33.485333
 31
0.0
  0
LINE
  8
1
  6
CONTINUOUS
 62
   215
  5
26E
 10
24.824083
 20
37.146333
 30
0.0
 11
24.824083
 21
33.485333
 31
0.0
  0
LINE
  8
1
  6
CONTINUOUS
 62
   215
  5
26F
 10
24.787333
 20
37.146333
 30
0.0
 11
24.787333
 21
33.485333
 31
0.0
  0
LINE
  8
1
  6
CONTINUOUS
 62
   215
  5
270
 10
24.807833
 20
37.146333
 30
0.0
 11
24.807833
 21
33.485333
 31
0.0
  0
LINE
  8
1
  6
CONTINUOUS
 62
   215
  5
271
 10
24.848583
 20
37.146333
 30
0.0
 11
24.848583
 21
33.485333
 31
0.0
  0
LINE
  8
1
  6
CONTINUOUS
 62
   215
  5
272
 10
24.87725
 20
37.146333
 30
0.0
 11
24.87725
 21
33.485333
 31
0.0
  0
LINE
  8
1
  6
CONTINUOUS
 62
   215
  5
273
 10
24.897667
 20
37.146333
 30
0.0
 11
24.897667
 21
33.485333
 31
0.0
  0
LINE
  8
1
  6
CONTINUOUS
 62
   215
  5
274
 10
24.918083
 20
37.146333
 30
0.0
 11
24.918083
 21
33.485333
 31
0.0
  0
LINE
  8
1
  6
CONTINUOUS
 62
   215
  5
275
 10
23.712667
 20
34.88275
 30
0.0
 11
23.712667
 21
37.146333
 31
0.0
  0
LINE
  8
1
  6
HIDDEN
 62
   215
  5
276
 10
24.746417
 20
34.88275
 30
0.0
 11
24.746417
 21
34.10225
 31
0.0
  0
LINE
  8
1
  6
CONTINUOUS
 62
   215
  5
277
 10
23.712667
 20
34.88275
 30
0.0
 11
24.6975
 21
34.88275
 31
0.0
  0
LINE
  8
1
  6
HIDDEN
 62
   215
  5
278
 10
23.712667
 20
34.10225
 30
0.0
 11
23.712667
 21
34.88275
 31
0.0
  0
LINE
  8
1
  6
CONTINUOUS
 62
   215
  5
279
 10
24.746417
 20
37.146333
 30
0.0
 11
24.746417
 21
34.88275
 31
0.0
  0
LINE
  8
1
  6
CONTINUOUS
 62
   215
  5
27A
 10
23.545083
 20
33.48125
 30
0.0
 11
23.545083
 21
37.146333
 31
0.0
  0
LINE
  8
1
  6
CONTINUOUS
 62
   215
  5
27B
 10
23.83525
 20
33.48125
 30
0.0
 11
23.545083
 21
33.48125
 31
0.0
  0
LINE
  8
1
  6
CONTINUOUS
 62
   215
  5
27C
 10
23.925083
 20
33.616083
 30
0.0
 11
23.83525
 21
33.48125
 31
0.0
  0
LINE
  8
1
  6
CONTINUOUS
 62
   215
  5
27D
 10
24.542167
 20
33.321917
 30
0.0
 11
23.925083
 21
33.616083
 31
0.0
  0
LINE
  8
1
  6
CONTINUOUS
 62
   215
  5
27E
 10
24.644333
 20
33.485333
 30
0.0
 11
24.542167
 21
33.321917
 31
0.0
  0
LINE
  8
1
  6
CONTINUOUS
 62
   215
  5
27F
 10
24.946667
 20
33.485333
 30
0.0
 11
24.644333
 21
33.485333
 31
0.0
  0
LINE
  8
1
  6
CONTINUOUS
 62
   215
  5
280
 10
24.946667
 20
37.146333
 30
0.0
 11
24.946667
 21
33.485333
 31
0.0
  0
LINE
  8
1
  6
CONTINUOUS
 62
   215
  5
281
 10
23.545083
 20
37.146333
 30
0.0
 11
24.946667
 21
37.146333
 31
0.0
  0
LINE
  8
1
  6
CONTINUOUS
 62
   150
  5
282
 10
18.387833
 20
34.844417
 30
0.0
 11
18.387833
 21
33.535
 31
0.0
  0
LINE
  8
1
  6
CONTINUOUS
 62
   215
  5
283
 10
18.404583
 20
34.844417
 30
0.0
 11
18.404583
 21
33.535
 31
0.0
  0
LINE
  8
1
  6
CONTINUOUS
 62
   215
  5
284
 10
18.42975
 20
34.844417
 30
0.0
 11
18.42975
 21
33.535
 31
0.0
  0
LINE
  8
1
  6
CONTINUOUS
 62
   215
  5
285
 10
18.4465
 20
34.844417
 30
0.0
 11
18.4465
 21
33.535
 31
0.0
  0
LINE
  8
1
  6
CONTINUOUS
 62
   215
  5
286
 10
18.475833
 20
34.844417
 30
0.0
 11
18.475833
 21
33.535
 31
0.0
  0
LINE
  8
1
  6
CONTINUOUS
 62
   215
  5
287
 10
18.501083
 20
34.844417
 30
0.0
 11
18.501083
 21
33.535
 31
0.0
  0
LINE
  8
1
  6
CONTINUOUS
 62
   215
  5
288
 10
18.530333
 20
34.844417
 30
0.0
 11
18.530333
 21
33.535
 31
0.0
  0
LINE
  8
1
  6
CONTINUOUS
 62
   215
  5
289
 10
18.551333
 20
34.844417
 30
0.0
 11
18.551333
 21
33.535
 31
0.0
  0
LINE
  8
1
  6
CONTINUOUS
 62
   215
  5
28A
 10
18.5965
 20
33.535
 30
0.0
 11
18.5965
 21
37.13
 31
0.0
  0
LINE
  8
1
  6
CONTINUOUS
 62
   215
  5
28B
 10
18.64675
 20
34.596583
 30
0.0
 11
18.64675
 21
33.535
 31
0.0
  0
LINE
  8
1
  6
CONTINUOUS
 62
   215
  5
28C
 10
18.651
 20
37.036917
 30
0.0
 11
18.651
 21
35.942583
 31
0.0
  0
LINE
  8
1
  6
CONTINUOUS
 62
   215
  5
28D
 10
18.689333
 20
33.565167
 30
0.0
 11
18.689333
 21
37.13
 31
0.0
  0
LINE
  8
1
  6
CONTINUOUS
 62
   215
  5
28E
 10
18.74325
 20
36.07675
 30
0.0
 11
18.74325
 21
36.953
 31
0.0
  0
LINE
  8
1
  6
CONTINUOUS
 62
   215
  5
28F
 10
18.739
 20
33.78325
 30
0.0
 11
18.739
 21
35.460417
 31
0.0
  0
LINE
  8
1
  6
CONTINUOUS
 62
   215
  5
290
 10
18.801917
 20
36.445667
 30
0.0
 11
18.801917
 21
33.6215
 31
0.0
  0
LINE
  8
1
  6
CONTINUOUS
 62
   215
  5
291
 10
18.814583
 20
37.13
 30
0.0
 11
18.814583
 21
36.546333
 31
0.0
  0
LINE
  8
1
  6
CONTINUOUS
 62
   215
  5
292
 10
18.873167
 20
33.70775
 30
0.0
 11
18.873167
 21
37.015917
 31
0.0
  0
LINE
  8
1
  6
CONTINUOUS
 62
   215
  5
293
 10
18.957083
 20
33.649083
 30
0.0
 11
18.957083
 21
34.525333
 31
0.0
  0
LINE
  8
1
  6
CONTINUOUS
 62
   215
  5
294
 10
18.957083
 20
35.548417
 30
0.0
 11
18.957083
 21
35.1585
 31
0.0
  0
LINE
  8
1
  6
CONTINUOUS
 62
   215
  5
295
 10
18.948667
 20
36.034833
 30
0.0
 11
18.948667
 21
35.732833
 31
0.0
  0
LINE
  8
1
  6
CONTINUOUS
 62
   215
  5
296
 10
18.948667
 20
37.124917
 30
0.0
 11
18.948667
 21
36.667917
 31
0.0
  0
LINE
  8
1
  6
CONTINUOUS
 62
   215
  5
297
 10
19.058917
 20
33.500667
 30
0.0
 11
19.058917
 21
37.13
 31
0.0
  0
LINE
  8
1
  6
CONTINUOUS
 62
   215
  5
298
 10
19.128917
 20
35.238167
 30
0.0
 11
19.128917
 21
37.13
 31
0.0
  0
LINE
  8
1
  6
CONTINUOUS
 62
   215
  5
299
 10
19.137333
 20
34.688833
 30
0.0
 11
19.137333
 21
35.015917
 31
0.0
  0
LINE
  8
1
  6
CONTINUOUS
 62
   215
  5
29A
 10
19.142417
 20
33.46125
 30
0.0
 11
19.142417
 21
33.858667
 31
0.0
  0
LINE
  8
1
  6
CONTINUOUS
 62
   215
  5
29B
 10
19.225417
 20
36.080917
 30
0.0
 11
19.225417
 21
33.42225
 31
0.0
  0
LINE
  8
1
  6
CONTINUOUS
 62
   215
  5
29C
 10
19.225417
 20
36.517
 30
0.0
 11
19.225417
 21
36.27375
 31
0.0
  0
LINE
  8
1
  6
CONTINUOUS
 62
   215
  5
29D
 10
19.225417
 20
37.011667
 30
0.0
 11
19.225417
 21
36.911083
 31
0.0
  0
LINE
  8
1
  6
CONTINUOUS
 62
   215
  5
29E
 10
19.315083
 20
33.38
 30
0.0
 11
19.315083
 21
37.13
 31
0.0
  0
LINE
  8
1
  6
CONTINUOUS
 62
   215
  5
29F
 10
19.387583
 20
33.427
 30
0.0
 11
19.387583
 21
37.13
 31
0.0
  0
LINE
  8
1
  6
CONTINUOUS
 62
   215
  5
2A0
 10
19.435
 20
34.408
 30
0.0
 11
19.435
 21
33.491833
 31
0.0
  0
LINE
  8
1
  6
CONTINUOUS
 62
   215
  5
2A1
 10
19.435
 20
37.13
 30
0.0
 11
19.435
 21
34.554667
 31
0.0
  0
LINE
  8
1
  6
CONTINUOUS
 62
   215
  5
2A2
 10
19.464417
 20
36.99075
 30
0.0
 11
19.464417
 21
36.412167
 31
0.0
  0
LINE
  8
1
  6
CONTINUOUS
 62
   215
  5
2A3
 10
19.502167
 20
35.1585
 30
0.0
 11
19.502167
 21
33.535
 31
0.0
  0
LINE
  8
1
  6
CONTINUOUS
 62
   215
  5
2A4
 10
19.485333
 20
35.850333
 30
0.0
 11
19.485333
 21
35.44775
 31
0.0
  0
LINE
  8
1
  6
CONTINUOUS
 62
   215
  5
2A5
 10
19.481167
 20
36.336667
 30
0.0
 11
19.481167
 21
36.080917
 31
0.0
  0
LINE
  8
1
  6
CONTINUOUS
 62
   215
  5
2A6
 10
19.497917
 20
37.13
 30
0.0
 11
19.497917
 21
36.927833
 31
0.0
  0
LINE
  8
1
  6
CONTINUOUS
 62
   215
  5
2A7
 10
19.716
 20
34.829833
 30
0.0
 11
19.716
 21
33.535
 31
0.0
  0
LINE
  8
1
  6
CONTINUOUS
 62
   215
  5
2A8
 10
19.669833
 20
34.829833
 30
0.0
 11
19.669833
 21
33.535
 31
0.0
  0
LINE
  8
1
  6
CONTINUOUS
 62
   215
  5
2A9
 10
19.581
 20
34.130333
 30
0.0
 11
19.581
 21
33.535
 31
0.0
  0
LINE
  8
1
  6
CONTINUOUS
 62
   215
  5
2AA
 10
19.539833
 20
37.13
 30
0.0
 11
19.539833
 21
33.535
 31
0.0
  0
LINE
  8
1
  6
CONTINUOUS
 62
   150
  5
2AB
 10
19.756333
 20
33.535
 30
0.0
 11
19.756333
 21
34.829833
 31
0.0
  0
LINE
  8
1
  6
CONTINUOUS
 62
   150
  5
2AC
 10
18.551333
 20
34.844417
 30
0.0
 11
18.551333
 21
37.13
 31
0.0
  0
LINE
  8
1
  6
CONTINUOUS
 62
   150
  5
2AD
 10
17.50875
 20
37.13
 30
0.0
 11
19.581
 21
37.13
 31
0.0
  0
LINE
  8
1
  6
CONTINUOUS
 62
   215
  5
2AE
 10
19.581
 20
37.13
 30
0.0
 11
19.581
 21
34.130333
 31
0.0
  0
LINE
  8
1
  6
CONTINUOUS
 62
   150
  5
2AF
 10
19.756333
 20
33.535
 30
0.0
 11
19.4665
 21
33.535
 31
0.0
  0
LINE
  8
1
  6
CONTINUOUS
 62
   150
  5
2B0
 10
19.4665
 20
33.535
 30
0.0
 11
19.3435
 21
33.366667
 31
0.0
  0
LINE
  8
1
  6
CONTINUOUS
 62
   150
  5
2B1
 10
19.3435
 20
33.366667
 30
0.0
 11
18.748583
 21
33.646583
 31
0.0
  0
LINE
  8
1
  6
CONTINUOUS
 62
   150
  5
2B2
 10
18.748583
 20
33.646583
 30
0.0
 11
18.6675
 21
33.535
 31
0.0
  0
LINE
  8
1
  6
CONTINUOUS
 62
   150
  5
2B3
 10
18.6675
 20
33.535
 30
0.0
 11
18.375
 21
33.535
 31
0.0
  0
LINE
  8
1
  6
CONTINUOUS
 62
   215
  5
2B4
 10
18.375
 20
33.535
 30
0.0
 11
18.375
 21
34.844417
 31
0.0
  0
LINE
  8
1
  6
CONTINUOUS
 62
   150
  5
2B5
 10
17.50875
 20
37.13
 30
0.0
 11
17.50875
 21
34.844417
 31
0.0
  0
LINE
  8
1
  6
CONTINUOUS
 62
   150
  5
2B6
 10
17.50875
 20
34.844417
 30
0.0
 11
18.551333
 21
34.844417
 31
0.0
  0
LINE
  8
1
  6
CONTINUOUS
 62
   150
  5
2B7
 10
19.581
 20
34.829833
 30
0.0
 11
20.624417
 21
34.829833
 31
0.0
  0
LINE
  8
1
  6
CONTINUOUS
 62
   150
  5
2B8
 10
20.624417
 20
34.829833
 30
0.0
 11
20.624417
 21
37.132583
 31
0.0
  0
LINE
  8
1
  6
CONTINUOUS
 62
   150
  5
2B9
 10
20.624417
 20
37.132583
 30
0.0
 11
19.581
 21
37.132583
 31
0.0
  0
LINE
  8
1
  6
CONTINUOUS
 62
   150
  5
2BA
 10
17.47925
 20
37.013083
 30
0.0
 11
17.024583
 21
36.660667
 31
0.0
  0
LINE
  8
1
  6
CONTINUOUS
 62
   150
  5
2BB
 10
17.025833
 20
36.588583
 30
0.0
 11
17.490083
 21
36.253667
 31
0.0
  0
LINE
  8
1
  6
CONTINUOUS
 62
   215
  5
2BC
 10
17.50875
 20
36.217167
 30
0.0
 11
17.50875
 21
35.800833
 31
0.0
  0
LINE
  8
1
  6
CONTINUOUS
 62
   150
  5
2BD
 10
17.489833
 20
35.764167
 30
0.0
 11
17.019083
 21
35.42975
 31
0.0
  0
LINE
  8
1
  6
CONTINUOUS
 62
   150
  5
2BE
 10
17.01825
 20
35.357
 30
0.0
 11
17.499083
 21
34.999
 31
0.0
  0
ARC
  8
1
  6
CONTINUOUS
 62
   150
  5
2BF
 10
17.045067
 20
35.393033
 30
0.0
 40
0.045
 50
125.3835
 51
233.331331
210
0.0
220
0.0
230
1.0
  0
ARC
  8
1
  6
CONTINUOUS
 62
   150
  5
2C0
 10
17.052192
 20
36.625058
 30
0.0
 40
0.045
 50
127.779992
 51
234.188183
210
0.0
220
0.0
230
1.0
  0
LINE
  8
1
  6
CONTINUOUS
 62
   215
  5
2C1
 10
17.453667
 20
37.0285
 30
0.0
 11
16.97325
 21
36.652833
 31
0.0
  0
LINE
  8
1
  6
CONTINUOUS
 62
   215
  5
2C2
 10
16.97525
 20
36.580417
 30
0.0
 11
17.479583
 21
36.229083
 31
0.0
  0
LINE
  8
1
  6
CONTINUOUS
 62
   215
  5
2C3
 10
17.498833
 20
36.192167
 30
0.0
 11
17.498833
 21
35.829667
 31
0.0
  0
LINE
  8
1
  6
CONTINUOUS
 62
   215
  5
2C4
 10
17.4805
 20
35.7935
 30
0.0
 11
16.980917
 21
35.42525
 31
0.0
  0
LINE
  8
1
  6
CONTINUOUS
 62
   215
  5
2C5
 10
16.980833
 20
35.352917
 30
0.0
 11
17.4785
 21
34.98275
 31
0.0
  0
ARC
  8
1
  6
CONTINUOUS
 62
   215
  5
2C6
 10
17.007642
 20
35.389058
 30
0.0
 40
0.045
 50
126.390222
 51
233.359986
210
0.0
220
0.0
230
1.0
  0
ARC
  8
1
  6
CONTINUOUS
 62
   215
  5
2C7
 10
17.000967
 20
36.617333
 30
0.0
 40
0.045
 50
128.025283
 51
235.13115
210
0.0
220
0.0
230
1.0
  0
LINE
  8
1
  6
CONTINUOUS
 62
   150
  5
2C8
 10
17.422
 20
37.033
 30
0.0
 11
16.963417
 21
36.683917
 31
0.0
  0
LINE
  8
1
  6
CONTINUOUS
 62
   150
  5
2C9
 10
16.967083
 20
36.538083
 30
0.0
 11
17.454417
 21
36.204167
 31
0.0
  0
LINE
  8
1
  6
CONTINUOUS
 62
   150
  5
2CA
 10
17.474
 20
36.167
 30
0.0
 11
17.474
 21
35.835
 31
0.0
  0
LINE
  8
1
  6
CONTINUOUS
 62
   150
  5
2CB
 10
17.454667
 20
35.798
 30
0.0
 11
16.960333
 21
35.45475
 31
0.0
  0
LINE
  8
1
  6
CONTINUOUS
 62
   150
  5
2CC
 10
16.960917
 20
35.3065
 30
0.0
 11
17.458167
 21
34.967
 31
0.0
  0
ARC
  8
1
  6
CONTINUOUS
 62
   150
  5
2CD
 10
17.011692
 20
35.380808
 30
0.0
 40
0.09
 50
124.779856
 51
235.675203
210
0.0
220
0.0
230
1.0
  0
ARC
  8
1
  6
CONTINUOUS
 62
   150
  5
2CE
 10
17.017917
 20
36.612308
 30
0.0
 40
0.09
 50
127.27405
 51
235.583503
210
0.0
220
0.0
230
1.0
  0
ARC
  8
1
  6
CONTINUOUS
 62
   150
  5
2CF
 10
17.428992
 20
36.167033
 30
0.0
 40
0.045
 50
0.0
 51
55.583503
210
0.0
220
0.0
230
1.0
  0
ARC
  8
1
  6
CONTINUOUS
 62
   215
  5
2D0
 10
17.453817
 20
36.192158
 30
0.0
 40
0.045
 50
0.0
 51
55.131153
210
0.0
220
0.0
230
1.0
  0
ARC
  8
1
  6
CONTINUOUS
 62
   150
  5
2D1
 10
17.463717
 20
36.217133
 30
0.0
 40
0.045
 50
0.0
 51
54.188183
210
0.0
220
0.0
230
1.0
  0
ARC
  8
1
  6
CONTINUOUS
 62
   150
  5
2D2
 10
17.428992
 20
35.835008
 30
0.0
 40
0.045
 50
304.779856
 51
359.999997
210
0.0
220
0.0
230
1.0
  0
ARC
  8
1
  6
CONTINUOUS
 62
   215
  5
2D3
 10
17.453817
 20
35.829683
 30
0.0
 40
0.045
 50
306.390222
 51
359.999997
210
0.0
220
0.0
230
1.0
  0
ARC
  8
1
  6
CONTINUOUS
 62
   150
  5
2D4
 10
17.463717
 20
35.800808
 30
0.0
 40
0.045
 50
305.3835
 51
359.999997
210
0.0
220
0.0
230
1.0
  0
LINE
  8
1
  6
CONTINUOUS
 62
   215
  5
2D5
 10
17.473083
 20
36.109583
 30
0.0
 11
17.25275
 21
36.109583
 31
0.0
  0
LINE
  8
1
  6
CONTINUOUS
 62
   215
  5
2D6
 10
17.25275
 20
36.109583
 30
0.0
 11
17.25275
 21
35.88375
 31
0.0
  0
LINE
  8
1
  6
CONTINUOUS
 62
   215
  5
2D7
 10
17.25275
 20
35.88375
 30
0.0
 11
17.48275
 21
35.88375
 31
0.0
  0
LINE
  8
1
  6
HIDDEN
 62
   215
  5
2D8
 10
17.25275
 20
35.926667
 30
0.0
 11
17.46825
 21
35.926667
 31
0.0
  0
LINE
  8
1
  6
HIDDEN
 62
   215
  5
2D9
 10
17.25275
 20
35.95825
 30
0.0
 11
17.473083
 21
35.95825
 31
0.0
  0
LINE
  8
1
  6
HIDDEN
 62
   215
  5
2DA
 10
17.25275
 20
36.0305
 30
0.0
 11
17.477917
 21
36.0305
 31
0.0
  0
LINE
  8
1
  6
HIDDEN
 62
   215
  5
2DB
 10
17.25275
 20
36.062083
 30
0.0
 11
17.463333
 21
36.062083
 31
0.0
  0
LINE
  8
1
  6
CONTINUOUS
 62
   215
  5
2DC
 10
17.25275
 20
36.0305
 30
0.0
 11
17.128583
 21
36.0305
 31
0.0
  0
LINE
  8
1
  6
CONTINUOUS
 62
   215
  5
2DD
 10
17.128583
 20
36.0305
 30
0.0
 11
17.128583
 21
35.95825
 31
0.0
  0
LINE
  8
1
  6
CONTINUOUS
 62
   215
  5
2DE
 10
17.25275
 20
35.95825
 30
0.0
 11
17.128583
 21
35.95825
 31
0.0
  0
LINE
  8
1
  6
HIDDEN
 62
   215
  5
2DF
 10
17.50875
 20
36.0305
 30
0.0
 11
20.624417
 21
36.0305
 31
0.0
  0
LINE
  8
1
  6
HIDDEN
 62
   215
  5
2E0
 10
17.50875
 20
36.062083
 30
0.0
 11
20.624417
 21
36.062083
 31
0.0
  0
LINE
  8
1
  6
HIDDEN
 62
   215
  5
2E1
 10
17.50875
 20
35.95825
 30
0.0
 11
20.624417
 21
35.95825
 31
0.0
  0
LINE
  8
1
  6
HIDDEN
 62
   215
  5
2E2
 10
17.50875
 20
35.926667
 30
0.0
 11
20.624417
 21
35.926667
 31
0.0
  0
LINE
  8
1
  6
CONTINUOUS
 62
   215
  5
2E3
 10
17.200833
 20
36.0305
 30
0.0
 11
17.200833
 21
35.95825
 31
0.0
  0
LINE
  8
1
  6
CONTINUOUS
 62
   215
  5
2E4
 10
17.171417
 20
36.00575
 30
0.0
 11
17.171417
 21
35.983167
 31
0.0
  0
LINE
  8
1
  6
CONTINUOUS
 62
   215
  5
2E5
 10
17.227917
 20
36.00575
 30
0.0
 11
17.227917
 21
35.980833
 31
0.0
  0
ARC
  8
1
  6
CONTINUOUS
 62
   150
  5
2E6
 10
17.434542
 20
37.007483
 30
0.0
 40
0.028385
 50
47.640314
 51
116.100603
210
0.0
220
0.0
230
1.0
  0
ARC
  8
1
  6
CONTINUOUS
 62
   150
  5
2E7
 10
17.458242
 20
37.007108
 30
0.0
 40
0.021862
 50
15.840603
 51
102.156847
210
0.0
220
0.0
230
1.0
  0
ARC
  8
1
  6
CONTINUOUS
 62
   215
  5
2E8
 10
17.459742
 20
34.985933
 30
0.0
 40
0.019026
 50
265.295936
 51
350.450139
210
0.0
220
0.0
230
1.0
  0
ARC
  8
1
  6
CONTINUOUS
 62
   150
  5
2E9
 10
17.478492
 20
34.982783
 30
0.0
 40
0.0
 50
0.0
 51
160.900283
210
0.0
220
0.0
230
1.0
  0
ARC
  8
1
  6
CONTINUOUS
 62
   150
  5
2EA
 10
17.483367
 20
34.997708
 30
0.0
 40
0.01571
 50
251.860889
 51
4.764025
210
0.0
220
0.0
230
1.0
  0
ARC
  8
1
  6
CONTINUOUS
 62
   150
  5
2EB
 10
20.649867
 20
36.991058
 30
0.0
 40
0.01571
 50
71.860889
 51
184.764025
210
0.0
220
0.0
230
1.0
  0
ARC
  8
1
  6
CONTINUOUS
 62
   215
  5
2EC
 10
20.654742
 20
37.005983
 30
0.0
 40
0.0
 50
180.0
 51
340.900283
210
0.0
220
0.0
230
1.0
  0
ARC
  8
1
  6
CONTINUOUS
 62
   150
  5
2ED
 10
20.673492
 20
37.002833
 30
0.0
 40
0.019026
 50
85.295936
 51
170.450139
210
0.0
220
0.0
230
1.0
  0
ARC
  8
1
  6
CONTINUOUS
 62
   150
  5
2EE
 10
20.674992
 20
34.981658
 30
0.0
 40
0.021862
 50
195.840603
 51
282.156847
210
0.0
220
0.0
230
1.0
  0
ARC
  8
1
  6
CONTINUOUS
 62
   150
  5
2EF
 10
20.698692
 20
34.981283
 30
0.0
 40
0.028385
 50
227.640314
 51
296.100603
210
0.0
220
0.0
230
1.0
  0
LINE
  8
1
  6
CONTINUOUS
 62
   215
  5
2F0
 10
20.905333
 20
35.983167
 30
0.0
 11
20.905333
 21
36.008
 31
0.0
  0
LINE
  8
1
  6
CONTINUOUS
 62
   215
  5
2F1
 10
20.96175
 20
35.983167
 30
0.0
 11
20.96175
 21
36.00575
 31
0.0
  0
LINE
  8
1
  6
CONTINUOUS
 62
   215
  5
2F2
 10
20.932417
 20
35.95825
 30
0.0
 11
20.932417
 21
36.0305
 31
0.0
  0
LINE
  8
1
  6
CONTINUOUS
 62
   215
  5
2F3
 10
20.8805
 20
36.0305
 30
0.0
 11
21.004583
 21
36.0305
 31
0.0
  0
LINE
  8
1
  6
CONTINUOUS
 62
   215
  5
2F4
 10
21.004583
 20
35.95825
 30
0.0
 11
21.004583
 21
36.0305
 31
0.0
  0
LINE
  8
1
  6
CONTINUOUS
 62
   215
  5
2F5
 10
20.8805
 20
35.95825
 30
0.0
 11
21.004583
 21
35.95825
 31
0.0
  0
LINE
  8
1
  6
HIDDEN
 62
   215
  5
2F6
 10
20.8805
 20
35.926667
 30
0.0
 11
20.64125
 21
35.926667
 31
0.0
  0
LINE
  8
1
  6
HIDDEN
 62
   215
  5
2F7
 10
20.8805
 20
35.95825
 30
0.0
 11
20.660667
 21
35.95825
 31
0.0
  0
LINE
  8
1
  6
HIDDEN
 62
   215
  5
2F8
 10
20.8805
 20
36.0305
 30
0.0
 11
20.699917
 21
36.0305
 31
0.0
  0
LINE
  8
1
  6
HIDDEN
 62
   215
  5
2F9
 10
20.8805
 20
36.062083
 30
0.0
 11
20.636417
 21
36.062083
 31
0.0
  0
LINE
  8
1
  6
CONTINUOUS
 62
   215
  5
2FA
 10
20.8805
 20
36.105083
 30
0.0
 11
20.660667
 21
36.105083
 31
0.0
  0
LINE
  8
1
  6
CONTINUOUS
 62
   215
  5
2FB
 10
20.8805
 20
35.879167
 30
0.0
 11
20.8805
 21
36.105083
 31
0.0
  0
LINE
  8
1
  6
CONTINUOUS
 62
   215
  5
2FC
 10
20.660667
 20
35.879167
 30
0.0
 11
20.8805
 21
35.879167
 31
0.0
  0
ARC
  8
1
  6
CONTINUOUS
 62
   215
  5
2FD
 10
20.669442
 20
36.187958
 30
0.0
 40
0.045
 50
125.3835
 51
179.999997
210
0.0
220
0.0
230
1.0
  0
ARC
  8
1
  6
CONTINUOUS
 62
   150
  5
2FE
 10
20.679417
 20
36.159083
 30
0.0
 40
0.045
 50
126.390222
 51
179.999997
210
0.0
220
0.0
230
1.0
  0
ARC
  8
1
  6
CONTINUOUS
 62
   150
  5
2FF
 10
20.704242
 20
36.153833
 30
0.0
 40
0.045
 50
124.779856
 51
179.999997
210
0.0
220
0.0
230
1.0
  0
ARC
  8
1
  6
CONTINUOUS
 62
   215
  5
300
 10
20.669442
 20
35.771633
 30
0.0
 40
0.045
 50
180.0
 51
234.188183
210
0.0
220
0.0
230
1.0
  0
ARC
  8
1
  6
CONTINUOUS
 62
   215
  5
301
 10
20.679417
 20
35.796683
 30
0.0
 40
0.045
 50
180.0
 51
235.131153
210
0.0
220
0.0
230
1.0
  0
ARC
  8
1
  6
CONTINUOUS
 62
   150
  5
302
 10
20.704242
 20
35.821733
 30
0.0
 40
0.045
 50
180.0
 51
235.583503
210
0.0
220
0.0
230
1.0
  0
ARC
  8
1
  6
CONTINUOUS
 62
   150
  5
303
 10
21.115317
 20
35.376458
 30
0.0
 40
0.09
 50
307.27405
 51
55.583503
210
0.0
220
0.0
230
1.0
  0
ARC
  8
1
  6
CONTINUOUS
 62
   150
  5
304
 10
21.121542
 20
36.607958
 30
0.0
 40
0.09
 50
304.779856
 51
55.675203
210
0.0
220
0.0
230
1.0
  0
LINE
  8
1
  6
CONTINUOUS
 62
   150
  5
305
 10
21.172333
 20
36.68225
 30
0.0
 11
20.675083
 21
37.021833
 31
0.0
  0
LINE
  8
1
  6
CONTINUOUS
 62
   150
  5
306
 10
20.678583
 20
36.19075
 30
0.0
 11
21.172917
 21
36.534083
 31
0.0
  0
LINE
  8
1
  6
CONTINUOUS
 62
   150
  5
307
 10
20.65925
 20
35.82175
 30
0.0
 11
20.65925
 21
36.153833
 31
0.0
  0
LINE
  8
1
  6
CONTINUOUS
 62
   150
  5
308
 10
21.166167
 20
35.45075
 30
0.0
 11
20.678833
 21
35.784583
 31
0.0
  0
LINE
  8
1
  6
CONTINUOUS
 62
   150
  5
309
 10
20.71125
 20
34.95575
 30
0.0
 11
21.169833
 21
35.304833
 31
0.0
  0
ARC
  8
1
  6
CONTINUOUS
 62
   215
  5
30A
 10
21.132267
 20
35.371433
 30
0.0
 40
0.045
 50
308.025283
 51
55.13115
210
0.0
220
0.0
230
1.0
  0
ARC
  8
1
  6
CONTINUOUS
 62
   215
  5
30B
 10
21.125592
 20
36.599708
 30
0.0
 40
0.045
 50
306.390222
 51
53.359986
210
0.0
220
0.0
230
1.0
  0
LINE
  8
1
  6
CONTINUOUS
 62
   215
  5
30C
 10
21.152417
 20
36.635833
 30
0.0
 11
20.65475
 21
37.006
 31
0.0
  0
LINE
  8
1
  6
CONTINUOUS
 62
   215
  5
30D
 10
20.65275
 20
36.195333
 30
0.0
 11
21.152333
 21
36.5635
 31
0.0
  0
LINE
  8
1
  6
CONTINUOUS
 62
   215
  5
30E
 10
20.634417
 20
35.796667
 30
0.0
 11
20.634417
 21
36.159083
 31
0.0
  0
LINE
  8
1
  6
CONTINUOUS
 62
   215
  5
30F
 10
21.158
 20
35.408333
 30
0.0
 11
20.653667
 21
35.75975
 31
0.0
  0
LINE
  8
1
  6
CONTINUOUS
 62
   215
  5
310
 10
20.679583
 20
34.96025
 30
0.0
 11
21.159917
 21
35.336
 31
0.0
  0
ARC
  8
1
  6
CONTINUOUS
 62
   150
  5
311
 10
21.081042
 20
35.363708
 30
0.0
 40
0.045
 50
307.779992
 51
54.188183
210
0.0
220
0.0
230
1.0
  0
ARC
  8
1
  6
CONTINUOUS
 62
   150
  5
312
 10
21.088092
 20
36.595733
 30
0.0
 40
0.045
 50
305.3835
 51
53.331331
210
0.0
220
0.0
230
1.0
  0
LINE
  8
1
  6
CONTINUOUS
 62
   150
  5
313
 10
21.115
 20
36.631833
 30
0.0
 11
20.634167
 21
36.98975
 31
0.0
  0
LINE
  8
1
  6
CONTINUOUS
 62
   150
  5
314
 10
20.643417
 20
36.22475
 30
0.0
 11
21.114167
 21
36.559083
 31
0.0
  0
LINE
  8
1
  6
CONTINUOUS
 62
   215
  5
315
 10
20.624417
 20
35.771667
 30
0.0
 11
20.624417
 21
36.188
 31
0.0
  0
LINE
  8
1
  6
CONTINUOUS
 62
   150
  5
316
 10
21.107333
 20
35.400167
 30
0.0
 11
20.643083
 21
35.735083
 31
0.0
  0
LINE
  8
1
  6
CONTINUOUS
 62
   150
  5
317
 10
20.653917
 20
34.97575
 30
0.0
 11
21.108583
 21
35.328167
 31
0.0
  0
ARC
  8
1
  6
HIDDEN
 62
   215
  5
318
 10
19.888692
 20
34.688708
 30
0.0
 40
0.009
 50
226.399019
 51
316.399019
210
0.0
220
0.0
230
1.0
  0
ARC
  8
1
  6
HIDDEN
 62
   215
  5
319
 10
19.963392
 20
34.767158
 30
0.0
 40
0.009
 50
316.399019
 51
46.399019
210
0.0
220
0.0
230
1.0
  0
ARC
  8
1
  6
HIDDEN
 62
   215
  5
31A
 10
19.883367
 20
34.731758
 30
0.0
 40
0.009
 50
316.399019
 51
46.399019
210
0.0
220
0.0
230
1.0
  0
ARC
  8
1
  6
HIDDEN
 62
   215
  5
31B
 10
19.877442
 20
34.699433
 30
0.0
 40
0.009
 50
136.399019
 51
226.399019
210
0.0
220
0.0
230
1.0
  0
ARC
  8
1
  6
HIDDEN
 62
   215
  5
31C
 10
19.952517
 20
34.777583
 30
0.0
 40
0.009
 50
46.399019
 51
136.399019
210
0.0
220
0.0
230
1.0
  0
ARC
  8
1
  6
HIDDEN
 62
   215
  5
31D
 10
19.923717
 20
34.773383
 30
0.0
 40
0.009
 50
226.399019
 51
316.399019
210
0.0
220
0.0
230
1.0
  0
LINE
  8
1
  6
HIDDEN
 62
   215
  5
31E
 10
19.466417
 20
35.15
 30
0.0
 11
19.420417
 21
35.22625
 31
0.0
  0
LINE
  8
1
  6
HIDDEN
 62
   215
  5
31F
 10
19.889583
 20
34.73825
 30
0.0
 11
19.466417
 21
35.15
 31
0.0
  0
LINE
  8
1
  6
HIDDEN
 62
   215
  5
320
 10
19.870917
 20
34.705667
 30
0.0
 11
19.889917
 21
34.7255
 31
0.0
  0
LINE
  8
1
  6
HIDDEN
 62
   215
  5
321
 10
19.882583
 20
34.682167
 30
0.0
 11
19.871333
 21
34.692917
 31
0.0
  0
LINE
  8
1
  6
HIDDEN
 62
   215
  5
322
 10
19.969917
 20
34.760917
 30
0.0
 11
19.89525
 21
34.6825
 31
0.0
  0
LINE
  8
1
  6
HIDDEN
 62
   215
  5
323
 10
19.95875
 20
34.784083
 30
0.0
 11
19.969583
 21
34.773667
 31
0.0
  0
LINE
  8
1
  6
HIDDEN
 62
   215
  5
324
 10
19.93025
 20
34.76725
 30
0.0
 11
19.946
 21
34.78375
 31
0.0
  0
LINE
  8
1
  6
HIDDEN
 62
   215
  5
325
 10
19.494
 20
35.179
 30
0.0
 11
19.9175
 21
34.766833
 31
0.0
  0
LINE
  8
1
  6
HIDDEN
 62
   215
  5
326
 10
19.420417
 20
35.22625
 30
0.0
 11
19.494
 21
35.179
 31
0.0
  0
CIRCLE
  8
1
  6
CONTINUOUS
 62
   215
  5
327
 10
24.039717
 20
42.030083
 30
0.0
 40
0.0587
210
0.0
220
0.0
230
1.0
  0
LINE
  8
1
  6
CONTINUOUS
 62
   150
  5
328
 10
23.536583
 20
39.5605
 30
0.0
 11
23.536583
 21
43.216667
 31
0.0
  0
LINE
  8
1
  6
CONTINUOUS
 62
   150
  5
329
 10
23.784
 20
39.5605
 30
0.0
 11
23.536583
 21
39.5605
 31
0.0
  0
LINE
  8
1
  6
CONTINUOUS
 62
   150
  5
32A
 10
23.922333
 20
39.766
 30
0.0
 11
23.784
 21
39.5605
 31
0.0
  0
LINE
  8
1
  6
CONTINUOUS
 62
   150
  5
32B
 10
24.169667
 20
39.33825
 30
0.0
 11
23.922333
 21
39.766
 31
0.0
  0
LINE
  8
1
  6
CONTINUOUS
 62
   150
  5
32C
 10
24.2955
 20
39.552083
 30
0.0
 11
24.169667
 21
39.33825
 31
0.0
  0
LINE
  8
1
  6
CONTINUOUS
 62
   150
  5
32D
 10
24.542917
 20
39.552083
 30
0.0
 11
24.2955
 21
39.552083
 31
0.0
  0
LINE
  8
1
  6
CONTINUOUS
 62
   150
  5
32E
 10
24.542917
 20
43.216667
 30
0.0
 11
24.542917
 21
39.552083
 31
0.0
  0
LINE
  8
1
  6
CONTINUOUS
 62
   150
  5
32F
 10
23.532417
 20
43.216667
 30
0.0
 11
24.542917
 21
43.216667
 31
0.0
  0
LINE
  8
1
  6
CONTINUOUS
 62
   150
  5
330
 10
21.024833
 20
41.07025
 30
0.0
 11
21.4795
 21
41.422667
 31
0.0
  0
LINE
  8
1
  6
CONTINUOUS
 62
   150
  5
331
 10
21.478333
 20
41.49475
 30
0.0
 11
21.014083
 21
41.829667
 31
0.0
  0
LINE
  8
1
  6
CONTINUOUS
 62
   215
  5
332
 10
20.995417
 20
41.86625
 30
0.0
 11
20.995417
 21
42.2825
 31
0.0
  0
LINE
  8
1
  6
CONTINUOUS
 62
   150
  5
333
 10
21.014333
 20
42.31925
 30
0.0
 11
21.485167
 21
42.653583
 31
0.0
  0
LINE
  8
1
  6
CONTINUOUS
 62
   150
  5
334
 10
21.485917
 20
42.726417
 30
0.0
 11
21.005167
 21
43.08425
 31
0.0
  0
ARC
  8
1
  6
CONTINUOUS
 62
   150
  5
335
 10
21.459042
 20
42.690233
 30
0.0
 40
0.045
 50
305.3835
 51
53.331331
210
0.0
220
0.0
230
1.0
  0
ARC
  8
1
  6
CONTINUOUS
 62
   150
  5
336
 10
21.451992
 20
41.458208
 30
0.0
 40
0.045
 50
307.779992
 51
54.188183
210
0.0
220
0.0
230
1.0
  0
LINE
  8
1
  6
CONTINUOUS
 62
   215
  5
337
 10
21.0505
 20
41.054833
 30
0.0
 11
21.530917
 21
41.4305
 31
0.0
  0
LINE
  8
1
  6
CONTINUOUS
 62
   215
  5
338
 10
21.528917
 20
41.502917
 30
0.0
 11
21.024667
 21
41.85425
 31
0.0
  0
LINE
  8
1
  6
CONTINUOUS
 62
   215
  5
339
 10
21.005333
 20
41.891167
 30
0.0
 11
21.005333
 21
42.253667
 31
0.0
  0
LINE
  8
1
  6
CONTINUOUS
 62
   215
  5
33A
 10
21.023667
 20
42.289917
 30
0.0
 11
21.52325
 21
42.658083
 31
0.0
  0
LINE
  8
1
  6
CONTINUOUS
 62
   215
  5
33B
 10
21.523417
 20
42.730333
 30
0.0
 11
21.025667
 21
43.100583
 31
0.0
  0
ARC
  8
1
  6
CONTINUOUS
 62
   215
  5
33C
 10
21.496542
 20
42.694283
 30
0.0
 40
0.045
 50
306.390222
 51
53.359986
210
0.0
220
0.0
230
1.0
  0
ARC
  8
1
  6
CONTINUOUS
 62
   215
  5
33D
 10
21.503217
 20
41.465933
 30
0.0
 40
0.045
 50
308.025283
 51
55.13115
210
0.0
220
0.0
230
1.0
  0
LINE
  8
1
  6
CONTINUOUS
 62
   150
  5
33E
 10
21.082083
 20
41.050333
 30
0.0
 11
21.54075
 21
41.399417
 31
0.0
  0
LINE
  8
1
  6
CONTINUOUS
 62
   150
  5
33F
 10
21.537083
 20
41.54525
 30
0.0
 11
21.04975
 21
41.879083
 31
0.0
  0
LINE
  8
1
  6
CONTINUOUS
 62
   150
  5
340
 10
21.030167
 20
41.91625
 30
0.0
 11
21.030167
 21
42.248333
 31
0.0
  0
LINE
  8
1
  6
CONTINUOUS
 62
   150
  5
341
 10
21.049583
 20
42.285333
 30
0.0
 11
21.543833
 21
42.628583
 31
0.0
  0
LINE
  8
1
  6
CONTINUOUS
 62
   150
  5
342
 10
21.54325
 20
42.776833
 30
0.0
 11
21.046
 21
43.116417
 31
0.0
  0
ARC
  8
1
  6
CONTINUOUS
 62
   150
  5
343
 10
21.492492
 20
42.702533
 30
0.0
 40
0.09
 50
304.779856
 51
55.675203
210
0.0
220
0.0
230
1.0
  0
ARC
  8
1
  6
CONTINUOUS
 62
   150
  5
344
 10
21.486267
 20
41.470958
 30
0.0
 40
0.09
 50
307.27405
 51
55.583503
210
0.0
220
0.0
230
1.0
  0
ARC
  8
1
  6
CONTINUOUS
 62
   150
  5
345
 10
21.075192
 20
41.916233
 30
0.0
 40
0.045
 50
180.0
 51
235.583503
210
0.0
220
0.0
230
1.0
  0
ARC
  8
1
  6
CONTINUOUS
 62
   215
  5
346
 10
21.050367
 20
41.891183
 30
0.0
 40
0.045
 50
180.0
 51
235.131153
210
0.0
220
0.0
230
1.0
  0
ARC
  8
1
  6
CONTINUOUS
 62
   150
  5
347
 10
21.040392
 20
41.866208
 30
0.0
 40
0.045
 50
180.0
 51
234.188183
210
0.0
220
0.0
230
1.0
  0
ARC
  8
1
  6
CONTINUOUS
 62
   150
  5
348
 10
21.075192
 20
42.248333
 30
0.0
 40
0.045
 50
124.779856
 51
179.999997
210
0.0
220
0.0
230
1.0
  0
ARC
  8
1
  6
CONTINUOUS
 62
   215
  5
349
 10
21.050367
 20
42.253658
 30
0.0
 40
0.045
 50
126.390222
 51
179.999997
210
0.0
220
0.0
230
1.0
  0
ARC
  8
1
  6
CONTINUOUS
 62
   150
  5
34A
 10
21.040392
 20
42.282533
 30
0.0
 40
0.045
 50
125.3835
 51
179.999997
210
0.0
220
0.0
230
1.0
  0
ARC
  8
1
  6
CONTINUOUS
 62
   215
  5
34B
 10
21.066342
 20
41.926433
 30
0.0
 40
0.0045
 50
270.0
 51
360.0
210
0.0
220
0.0
230
1.0
  0
ARC
  8
1
  6
CONTINUOUS
 62
   215
  5
34C
 10
21.066342
 20
42.249308
 30
0.0
 40
0.0045
 50
0.0
 51
90.0
210
0.0
220
0.0
230
1.0
  0
LINE
  8
1
  6
CONTINUOUS
 62
   215
  5
34D
 10
21.0285
 20
41.97375
 30
0.0
 11
21.251417
 21
41.97375
 31
0.0
  0
LINE
  8
1
  6
CONTINUOUS
 62
   215
  5
34E
 10
21.251417
 20
41.97375
 30
0.0
 11
21.251417
 21
42.199583
 31
0.0
  0
LINE
  8
1
  6
CONTINUOUS
 62
   215
  5
34F
 10
21.251417
 20
42.199583
 30
0.0
 11
21.038667
 21
42.199583
 31
0.0
  0
LINE
  8
1
  6
HIDDEN
 62
   215
  5
350
 10
21.251417
 20
42.156667
 30
0.0
 11
21.0265
 21
42.156667
 31
0.0
  0
LINE
  8
1
  6
HIDDEN
 62
   215
  5
351
 10
21.251417
 20
42.125
 30
0.0
 11
21.04275
 21
42.125
 31
0.0
  0
LINE
  8
1
  6
HIDDEN
 62
   215
  5
352
 10
21.251417
 20
42.052833
 30
0.0
 11
21.04075
 21
42.052833
 31
0.0
  0
LINE
  8
1
  6
HIDDEN
 62
   215
  5
353
 10
21.251417
 20
42.021167
 30
0.0
 11
21.038667
 21
42.021167
 31
0.0
  0
LINE
  8
1
  6
CONTINUOUS
 62
   215
  5
354
 10
21.251417
 20
42.052833
 30
0.0
 11
21.375583
 21
42.052833
 31
0.0
  0
LINE
  8
1
  6
CONTINUOUS
 62
   215
  5
355
 10
21.375583
 20
42.052833
 30
0.0
 11
21.375583
 21
42.125
 31
0.0
  0
LINE
  8
1
  6
CONTINUOUS
 62
   215
  5
356
 10
21.251417
 20
42.125
 30
0.0
 11
21.375583
 21
42.125
 31
0.0
  0
LINE
  8
1
  6
CONTINUOUS
 62
   215
  5
357
 10
21.303333
 20
42.052833
 30
0.0
 11
21.303333
 21
42.125
 31
0.0
  0
LINE
  8
1
  6
CONTINUOUS
 62
   215
  5
358
 10
21.332667
 20
42.077667
 30
0.0
 11
21.332667
 21
42.10025
 31
0.0
  0
LINE
  8
1
  6
CONTINUOUS
 62
   215
  5
359
 10
21.27625
 20
42.077667
 30
0.0
 11
21.27625
 21
42.1025
 31
0.0
  0
ARC
  8
1
  6
CONTINUOUS
 62
   215
  5
35A
 10
21.069642
 20
41.075783
 30
0.0
 40
0.028385
 50
227.640314
 51
296.100603
210
0.0
220
0.0
230
1.0
  0
ARC
  8
1
  6
CONTINUOUS
 62
   215
  5
35B
 10
21.045942
 20
41.076233
 30
0.0
 40
0.021862
 50
195.840603
 51
282.156847
210
0.0
220
0.0
230
1.0
  0
ARC
  8
1
  6
CONTINUOUS
 62
   215
  5
35C
 10
21.044442
 20
43.097408
 30
0.0
 40
0.019026
 50
85.295936
 51
170.450139
210
0.0
220
0.0
230
1.0
  0
ARC
  8
1
  6
CONTINUOUS
 62
   215
  5
35D
 10
21.025692
 20
43.100558
 30
0.0
 40
0.0
 50
180.0
 51
340.900283
210
0.0
220
0.0
230
1.0
  0
ARC
  8
1
  6
CONTINUOUS
 62
   215
  5
35E
 10
21.020817
 20
43.085633
 30
0.0
 40
0.01571
 50
71.860889
 51
184.764025
210
0.0
220
0.0
230
1.0
  0
ARC
  8
1
  6
CONTINUOUS
 62
   215
  5
35F
 10
17.441742
 20
41.092208
 30
0.0
 40
0.01571
 50
251.860889
 51
4.764025
210
0.0
220
0.0
230
1.0
  0
ARC
  8
1
  6
CONTINUOUS
 62
   215
  5
360
 10
17.436867
 20
41.077283
 30
0.0
 40
0.0
 50
0.0
 51
160.900283
210
0.0
220
0.0
230
1.0
  0
ARC
  8
1
  6
CONTINUOUS
 62
   215
  5
361
 10
17.418117
 20
41.080508
 30
0.0
 40
0.019026
 50
265.295936
 51
350.450139
210
0.0
220
0.0
230
1.0
  0
ARC
  8
1
  6
CONTINUOUS
 62
   215
  5
362
 10
17.416617
 20
43.101683
 30
0.0
 40
0.021862
 50
15.840603
 51
102.156847
210
0.0
220
0.0
230
1.0
  0
ARC
  8
1
  6
CONTINUOUS
 62
   215
  5
363
 10
17.392917
 20
43.102058
 30
0.0
 40
0.028385
 50
47.640314
 51
116.100603
210
0.0
220
0.0
230
1.0
  0
LINE
  8
1
  6
HIDDEN
 62
   215
  5
364
 10
17.467167
 20
42.021167
 30
0.0
 11
20.995333
 21
42.021167
 31
0.0
  0
LINE
  8
1
  6
HIDDEN
 62
   215
  5
365
 10
17.467167
 20
42.052833
 30
0.0
 11
20.995333
 21
42.052833
 31
0.0
  0
LINE
  8
1
  6
HIDDEN
 62
   215
  5
366
 10
17.467167
 20
42.156667
 30
0.0
 11
20.995333
 21
42.156667
 31
0.0
  0
LINE
  8
1
  6
HIDDEN
 62
   215
  5
367
 10
17.467167
 20
42.125
 30
0.0
 11
20.995333
 21
42.125
 31
0.0
  0
ARC
  8
1
  6
CONTINUOUS
 62
   150
  5
368
 10
17.422167
 20
41.895308
 30
0.0
 40
0.045
 50
305.3835
 51
359.999997
210
0.0
220
0.0
230
1.0
  0
ARC
  8
1
  6
CONTINUOUS
 62
   215
  5
369
 10
17.412192
 20
41.924183
 30
0.0
 40
0.045
 50
306.390222
 51
359.999997
210
0.0
220
0.0
230
1.0
  0
ARC
  8
1
  6
CONTINUOUS
 62
   150
  5
36A
 10
17.387367
 20
41.929508
 30
0.0
 40
0.045
 50
304.779856
 51
359.999997
210
0.0
220
0.0
230
1.0
  0
ARC
  8
1
  6
CONTINUOUS
 62
   150
  5
36B
 10
17.422167
 20
42.311708
 30
0.0
 40
0.045
 50
0.0
 51
54.188183
210
0.0
220
0.0
230
1.0
  0
ARC
  8
1
  6
CONTINUOUS
 62
   215
  5
36C
 10
17.412192
 20
42.286658
 30
0.0
 40
0.045
 50
0.0
 51
55.131153
210
0.0
220
0.0
230
1.0
  0
ARC
  8
1
  6
CONTINUOUS
 62
   150
  5
36D
 10
17.387367
 20
42.261608
 30
0.0
 40
0.045
 50
0.0
 51
55.583503
210
0.0
220
0.0
230
1.0
  0
ARC
  8
1
  6
CONTINUOUS
 62
   150
  5
36E
 10
16.976292
 20
42.706883
 30
0.0
 40
0.09
 50
127.27405
 51
235.583503
210
0.0
220
0.0
230
1.0
  0
ARC
  8
1
  6
CONTINUOUS
 62
   150
  5
36F
 10
16.970067
 20
41.475383
 30
0.0
 40
0.09
 50
124.779856
 51
235.675203
210
0.0
220
0.0
230
1.0
  0
LINE
  8
1
  6
CONTINUOUS
 62
   150
  5
370
 10
16.919333
 20
41.401
 30
0.0
 11
17.416583
 21
41.0615
 31
0.0
  0
LINE
  8
1
  6
CONTINUOUS
 62
   150
  5
371
 10
17.413
 20
41.8925
 30
0.0
 11
16.91875
 21
41.54925
 31
0.0
  0
LINE
  8
1
  6
CONTINUOUS
 62
   150
  5
372
 10
17.432333
 20
42.261583
 30
0.0
 11
17.432333
 21
41.9295
 31
0.0
  0
LINE
  8
1
  6
CONTINUOUS
 62
   150
  5
373
 10
16.925417
 20
42.632667
 30
0.0
 11
17.412833
 21
42.29875
 31
0.0
  0
LINE
  8
1
  6
CONTINUOUS
 62
   150
  5
374
 10
17.3805
 20
43.127583
 30
0.0
 11
16.921833
 21
42.7785
 31
0.0
  0
ARC
  8
1
  6
CONTINUOUS
 62
   215
  5
375
 10
16.959342
 20
42.711908
 30
0.0
 40
0.045
 50
128.025283
 51
235.13115
210
0.0
220
0.0
230
1.0
  0
ARC
  8
1
  6
CONTINUOUS
 62
   215
  5
376
 10
16.966017
 20
41.483558
 30
0.0
 40
0.045
 50
126.390222
 51
233.359986
210
0.0
220
0.0
230
1.0
  0
LINE
  8
1
  6
CONTINUOUS
 62
   215
  5
377
 10
16.939167
 20
41.4475
 30
0.0
 11
17.436833
 21
41.07725
 31
0.0
  0
LINE
  8
1
  6
CONTINUOUS
 62
   215
  5
378
 10
17.438917
 20
41.888
 30
0.0
 11
16.939333
 21
41.51975
 31
0.0
  0
LINE
  8
1
  6
CONTINUOUS
 62
   215
  5
379
 10
17.457167
 20
42.286667
 30
0.0
 11
17.457167
 21
41.924167
 31
0.0
  0
LINE
  8
1
  6
CONTINUOUS
 62
   215
  5
37A
 10
16.933583
 20
42.675
 30
0.0
 11
17.437917
 21
42.323583
 31
0.0
  0
LINE
  8
1
  6
CONTINUOUS
 62
   215
  5
37B
 10
17.412083
 20
43.123083
 30
0.0
 11
16.931667
 21
42.747417
 31
0.0
  0
ARC
  8
1
  6
CONTINUOUS
 62
   150
  5
37C
 10
17.010567
 20
42.719633
 30
0.0
 40
0.045
 50
127.779992
 51
234.188183
210
0.0
220
0.0
230
1.0
  0
ARC
  8
1
  6
CONTINUOUS
 62
   150
  5
37D
 10
17.003517
 20
41.487608
 30
0.0
 40
0.045
 50
125.3835
 51
233.331331
210
0.0
220
0.0
230
1.0
  0
LINE
  8
1
  6
CONTINUOUS
 62
   150
  5
37E
 10
16.976667
 20
41.4515
 30
0.0
 11
17.457417
 21
41.093583
 31
0.0
  0
LINE
  8
1
  6
CONTINUOUS
 62
   150
  5
37F
 10
17.448167
 20
41.858667
 30
0.0
 11
16.9775
 21
41.52425
 31
0.0
  0
LINE
  8
1
  6
CONTINUOUS
 62
   215
  5
380
 10
17.467167
 20
42.31175
 30
0.0
 11
17.467167
 21
41.895333
 31
0.0
  0
LINE
  8
1
  6
CONTINUOUS
 62
   150
  5
381
 10
16.98425
 20
42.683083
 30
0.0
 11
17.4485
 21
42.348167
 31
0.0
  0
LINE
  8
1
  6
CONTINUOUS
 62
   150
  5
382
 10
17.437667
 20
43.107583
 30
0.0
 11
16.983083
 21
42.755167
 31
0.0
  0
LINE
  8
1
  6
CONTINUOUS
 62
   150
  5
383
 10
20.995333
 20
43.2425
 30
0.0
 11
17.467167
 21
43.2435
 31
0.0
  0
LINE
  8
1
  6
CONTINUOUS
 62
   150
  5
384
 10
20.995333
 20
40.9355
 30
0.0
 11
20.995333
 21
43.2425
 31
0.0
  0
LINE
  8
1
  6
CONTINUOUS
 62
   150
  5
385
 10
19.941167
 20
40.9355
 30
0.0
 11
20.995333
 21
40.9355
 31
0.0
  0
LINE
  8
1
  6
CONTINUOUS
 62
   150
  5
386
 10
17.467167
 20
40.939
 30
0.0
 11
18.555417
 21
40.939
 31
0.0
  0
LINE
  8
1
  6
CONTINUOUS
 62
   150
  5
387
 10
17.467167
 20
43.2435
 30
0.0
 11
17.467167
 21
40.939
 31
0.0
  0
LINE
  8
1
  6
CONTINUOUS
 62
   150
  5
388
 10
18.555417
 20
39.627917
 30
0.0
 11
18.555417
 21
43.24325
 31
0.0
  0
LINE
  8
1
  6
CONTINUOUS
 62
   150
  5
389
 10
18.820917
 20
39.627917
 30
0.0
 11
18.555417
 21
39.627917
 31
0.0
  0
LINE
  8
1
  6
CONTINUOUS
 62
   150
  5
38A
 10
18.9245
 20
39.770333
 30
0.0
 11
18.820917
 21
39.627917
 31
0.0
  0
LINE
  8
1
  6
CONTINUOUS
 62
   150
  5
38B
 10
19.585
 20
39.459583
 30
0.0
 11
18.9245
 21
39.770333
 31
0.0
  0
LINE
  8
1
  6
CONTINUOUS
 62
   150
  5
38C
 10
19.708083
 20
39.627917
 30
0.0
 11
19.585
 21
39.459583
 31
0.0
  0
LINE
  8
1
  6
CONTINUOUS
 62
   150
  5
38D
 10
19.941167
 20
39.627917
 30
0.0
 11
19.708083
 21
39.627917
 31
0.0
  0
LINE
  8
1
  6
CONTINUOUS
 62
   150
  5
38E
 10
19.941167
 20
43.242833
 30
0.0
 11
19.941167
 21
39.627917
 31
0.0
  0
LINE
  8
1
  6
HIDDEN
 62
   215
  5
38F
 10
20.14175
 20
40.930833
 30
0.0
 11
20.152583
 21
40.920417
 31
0.0
  0
LINE
  8
1
  6
HIDDEN
 62
   215
  5
390
 10
18.763333
 20
41.2075
 30
0.0
 11
18.80875
 21
41.284083
 31
0.0
  0
LINE
  8
1
  6
HIDDEN
 62
   215
  5
391
 10
18.80875
 20
41.284083
 30
0.0
 11
18.7355
 21
41.23625
 31
0.0
  0
LINE
  8
1
  6
HIDDEN
 62
   215
  5
392
 10
18.7355
 20
41.23625
 30
0.0
 11
18.384417
 21
40.89875
 31
0.0
  0
LINE
  8
1
  6
HIDDEN
 62
   215
  5
393
 10
18.412583
 20
40.87025
 30
0.0
 11
18.763333
 21
41.2075
 31
0.0
  0
LINE
  8
1
  6
HIDDEN
 62
   215
  5
394
 10
18.371667
 20
40.898917
 30
0.0
 11
18.35575
 21
40.915333
 31
0.0
  0
LINE
  8
1
  6
HIDDEN
 62
   215
  5
395
 10
18.343083
 20
40.915583
 30
0.0
 11
18.33225
 21
40.905167
 31
0.0
  0
LINE
  8
1
  6
HIDDEN
 62
   215
  5
396
 10
18.332
 20
40.892417
 30
0.0
 11
18.407333
 21
40.8145
 31
0.0
  0
LINE
  8
1
  6
HIDDEN
 62
   215
  5
397
 10
18.420083
 20
40.814333
 30
0.0
 11
18.43125
 21
40.825167
 31
0.0
  0
LINE
  8
1
  6
HIDDEN
 62
   215
  5
398
 10
18.431417
 20
40.837833
 30
0.0
 11
18.412333
 21
40.857583
 31
0.0
  0
ARC
  8
1
  6
HIDDEN
 62
   215
  5
399
 10
18.378192
 20
40.905158
 30
0.0
 40
0.009
 50
224.031028
 51
314.031028
210
0.0
220
0.0
230
1.0
  0
ARC
  8
1
  6
HIDDEN
 62
   215
  5
39A
 10
18.349317
 20
40.909133
 30
0.0
 40
0.009
 50
44.031028
 51
134.031028
210
0.0
220
0.0
230
1.0
  0
ARC
  8
1
  6
HIDDEN
 62
   215
  5
39B
 10
18.424917
 20
40.831583
 30
0.0
 40
0.009
 50
314.031028
 51
44.031028
210
0.0
220
0.0
230
1.0
  0
ARC
  8
1
  6
HIDDEN
 62
   215
  5
39C
 10
18.418767
 20
40.863833
 30
0.0
 40
0.009
 50
134.031028
 51
224.031028
210
0.0
220
0.0
230
1.0
  0
ARC
  8
1
  6
HIDDEN
 62
   215
  5
39D
 10
18.338442
 20
40.898633
 30
0.0
 40
0.009
 50
134.031028
 51
224.031028
210
0.0
220
0.0
230
1.0
  0
ARC
  8
1
  6
HIDDEN
 62
   215
  5
39E
 10
18.413742
 20
40.820783
 30
0.0
 40
0.009
 50
224.031028
 51
314.031028
210
0.0
220
0.0
230
1.0
  0
TEXT
  8
2
  6
CONTINUOUS
 62
   132
  5
3A0
 10
18.1455
 20
38.918833
 30
0.0
 40
0.1125
  1
WOOD GUARDRAIL POST (RECTANGULAR)
  7
MONOTXT
210
0.0
220
0.0
230
1.0
  0
TEXT
  8
2
  6
CONTINUOUS
 62
   132
  5
3A1
 10
18.608833
 20
38.726
 30
0.0
 40
0.1125
  1
(BEAMS AT SAME ELEVATION)
  7
MONOTXT
210
0.0
220
0.0
230
1.0
  0
TEXT
  8
2
  6
CONTINUOUS
 62
   132
  5
3A2
 10
27.964667
 20
36.5265
 30
0.0
 40
0.133
  1
out to the surface of the post.
  7
MONOTXT
210
0.0
220
0.0
230
1.0
  0
TEXT
  8
2
  6
CONTINUOUS
 62
   132
  5
3A3
 10
8.2655
 20
38.803667
 30
0.0
 40
0.1125
  1
WOOD GUARDRAIL POST (RECTANGULAR)
  7
MONOTXT
210
0.0
220
0.0
230
1.0
  0
TEXT
  8
2
  6
CONTINUOUS
 62
   132
  5
3A4
 10
8.46375
 20
38.61075
 30
0.0
 40
0.1125
  1
(BEAMS AT DIFFERENT ELEVATIONS)
  7
MONOTXT
210
0.0
220
0.0
230
1.0
  0
TEXT
  8
2
  6
CONTINUOUS
 62
   132
  5
3A5
 10
8.422083
 20
32.816167
 30
0.0
 40
0.1125
  1
WOOD GUARDRAIL POST (ROUND)
  7
MONOTXT
210
0.0
220
0.0
230
1.0
  0
TEXT
  8
2
  6
CONTINUOUS
 62
   132
  5
3A6
 10
8.333167
 20
32.63275
 30
0.0
 40
0.1125
  1
(BEAMS AT DIFFERENT ELEVATIONS)
  7
MONOTXT
210
0.0
220
0.0
230
1.0
  0
TEXT
  8
2
  6
CONTINUOUS
 62
   132
  5
3A7
 10
8.145167
 20
26.855333
 30
0.0
 40
0.1125
  1
STEEL GUARDRAIL POST (WOOD BLOCK)
  7
MONOTXT
210
0.0
220
0.0
230
1.0
  0
TEXT
  8
2
  6
CONTINUOUS
 62
   132
  5
3A8
 10
8.311333
 20
26.662417
 30
0.0
 40
0.1125
  1
(BEAMS AT DIFFERENT ELEVATIONS)
  7
MONOTXT
210
0.0
220
0.0
230
1.0
  0
TEXT
  8
2
  6
CONTINUOUS
 62
   132
  5
3A9
 10
19.15625
 20
32.875083
 30
0.0
 40
0.1125
  1
WOOD GUARDRAIL POST (ROUND)
  7
MONOTXT
210
0.0
220
0.0
230
1.0
  0
TEXT
  8
2
  6
CONTINUOUS
 62
   132
  5
3AA
 10
19.3035
 20
32.682167
 30
0.0
 40
0.1125
  1
(BEAMS AT SAME ELEVATION)
  7
MONOTXT
210
0.0
220
0.0
230
1.0
  0
LINE
  8
1
  6
CONTINUOUS
 62
   215
  5
3AB
 10
6.81325
 20
43.129667
 30
0.0
 11
5.21275
 21
43.129667
 31
0.0
  0
LINE
  8
1
  6
CONTINUOUS
 62
   215
  5
3AC
 10
6.81325
 20
40.844
 30
0.0
 11
5.21275
 21
40.844
 31
0.0
  0
LINE
  8
1
  6
CONTINUOUS
 62
   215
  5
3AD
 10
5.37475
 20
43.017167
 30
0.0
 11
5.37475
 21
42.155667
 31
0.0
  0
LINE
  8
1
  6
CONTINUOUS
 62
   215
  5
3AE
 10
5.37475
 20
40.9565
 30
0.0
 11
5.37475
 21
41.818167
 31
0.0
  0
SOLID
  8
1
  6
CONTINUOUS
 62
   215
  5
3AF
 10
5.3935
 20
43.017167
 30
0.0
 11
5.356
 21
43.017167
 31
0.0
 12
5.37475
 22
43.129667
 32
0.0
 13
5.37475
 23
43.129667
 33
0.0
  0
SOLID
  8
1
  6
CONTINUOUS
 62
   215
  5
3B0
 10
5.3935
 20
40.9565
 30
0.0
 11
5.356
 21
40.9565
 31
0.0
 12
5.37475
 22
40.844
 32
0.0
 13
5.37475
 23
40.844
 33
0.0
  0
TEXT
  8
1
  6
CONTINUOUS
 62
   132
  5
3B1
 10
5.256917
 20
41.930667
 30
0.0
 40
0.1125
  1
14"
  7
MONOTXT
210
0.0
220
0.0
230
1.0
  0
LINE
  8
3
  6
CONTINUOUS
 62
     7
  5
3B3
 10
6.8695
 20
43.129667
 30
0.0
 11
6.869583
 21
43.129667
 31
0.0
  0
LINE
  8
3
  6
CONTINUOUS
 62
     7
  5
3B4
 10
6.8695
 20
40.844
 30
0.0
 11
6.869583
 21
40.844
 31
0.0
  0
LINE
  8
3
  6
CONTINUOUS
 62
     7
  5
3B5
 10
5.37475
 20
40.844
 30
0.0
 11
5.374833
 21
40.844
 31
0.0
  0
LINE
  8
1
  6
CONTINUOUS
 62
     2
  5
3B6
 10
6.81325
 20
43.129667
 30
0.0
 11
6.12625
 21
43.129667
 31
0.0
  0
LINE
  8
1
  6
CONTINUOUS
 62
     2
  5
3B7
 10
6.7265
 20
43.032583
 30
0.0
 11
6.12625
 21
43.032583
 31
0.0
  0
LINE
  8
1
  6
CONTINUOUS
 62
     2
  5
3B8
 10
6.28825
 20
42.920083
 30
0.0
 11
6.28825
 21
42.807583
 31
0.0
  0
LINE
  8
1
  6
CONTINUOUS
 62
     2
  5
3B9
 10
6.28825
 20
43.242167
 30
0.0
 11
6.28825
 21
43.354667
 31
0.0
  0
SOLID
  8
1
  6
CONTINUOUS
 62
     2
  5
3BA
 10
6.307
 20
42.920083
 30
0.0
 11
6.2695
 21
42.920083
 31
0.0
 12
6.288167
 22
43.032583
 32
0.0
 13
6.288167
 23
43.032583
 33
0.0
  0
SOLID
  8
1
  6
CONTINUOUS
 62
     2
  5
3BB
 10
6.307
 20
43.242167
 30
0.0
 11
6.2695
 21
43.242167
 31
0.0
 12
6.288167
 22
43.129667
 32
0.0
 13
6.288167
 23
43.129667
 33
0.0
  0
TEXT
  8
1
  6
CONTINUOUS
 62
   132
  5
3BC
 10
6.148833
 20
43.442333
 30
0.0
 40
0.1125
  1
7/8"
  7
MONOTXT
210
0.0
220
0.0
230
1.0
  0
LINE
  8
3
  6
CONTINUOUS
 62
     7
  5
3BD
 10
6.8695
 20
43.129667
 30
0.0
 11
6.869583
 21
43.129667
 31
0.0
  0
LINE
  8
3
  6
CONTINUOUS
 62
   150
  5
3BE
 10
6.78275
 20
43.032583
 30
0.0
 11
6.782833
 21
43.032583
 31
0.0
  0
LINE
  8
3
  6
CONTINUOUS
 62
     2
  5
3BF
 10
6.28825
 20
43.032583
 30
0.0
 11
6.288333
 21
43.032583
 31
0.0
  0
LINE
  8
1
  6
CONTINUOUS
 62
   215
  5
3C0
 10
6.8695
 20
43.185833
 30
0.0
 11
6.8695
 21
43.617667
 31
0.0
  0
LINE
  8
1
  6
CONTINUOUS
 62
   215
  5
3C1
 10
7.912083
 20
43.185833
 30
0.0
 11
7.912083
 21
43.617667
 31
0.0
  0
LINE
  8
1
  6
CONTINUOUS
 62
   215
  5
3C2
 10
6.982
 20
43.455667
 30
0.0
 11
7.20325
 21
43.455667
 31
0.0
  0
LINE
  8
1
  6
CONTINUOUS
 62
   215
  5
3C3
 10
7.799583
 20
43.455667
 30
0.0
 11
7.57825
 21
43.455667
 31
0.0
  0
SOLID
  8
1
  6
CONTINUOUS
 62
   215
  5
3C4
 10
6.982
 20
43.436917
 30
0.0
 11
6.982
 21
43.474417
 31
0.0
 12
6.8695
 22
43.455583
 32
0.0
 13
6.8695
 23
43.455583
 33
0.0
  0
SOLID
  8
1
  6
CONTINUOUS
 62
   215
  5
3C5
 10
7.799583
 20
43.436917
 30
0.0
 11
7.799583
 21
43.474417
 31
0.0
 12
7.912083
 22
43.455583
 32
0.0
 13
7.912083
 23
43.455583
 33
0.0
  0
TEXT
  8
1
  6
CONTINUOUS
 62
   132
  5
3C6
 10
7.315667
 20
43.399333
 30
0.0
 40
0.1125
  1
8"
  7
MONOTXT
210
0.0
220
0.0
230
1.0
  0
LINE
  8
3
  6
CONTINUOUS
 62
     7
  5
3C7
 10
6.8695
 20
43.129583
 30
0.0
 11
6.869583
 21
43.129583
 31
0.0
  0
LINE
  8
3
  6
CONTINUOUS
 62
     7
  5
3C8
 10
7.912083
 20
43.129583
 30
0.0
 11
7.912167
 21
43.129583
 31
0.0
  0
LINE
  8
3
  6
CONTINUOUS
 62
     7
  5
3C9
 10
7.912083
 20
43.455667
 30
0.0
 11
7.912167
 21
43.455667
 31
0.0
  0
LINE
  8
1
  6
CONTINUOUS
 62
   215
  5
3CA
 10
7.912083
 20
43.185917
 30
0.0
 11
7.912083
 21
43.633167
 31
0.0
  0
LINE
  8
1
  6
CONTINUOUS
 62
   215
  5
3CB
 10
9.297833
 20
43.185917
 30
0.0
 11
9.297833
 21
43.633167
 31
0.0
  0
LINE
  8
1
  6
CONTINUOUS
 62
   215
  5
3CC
 10
8.024583
 20
43.471167
 30
0.0
 11
8.417417
 21
43.471167
 31
0.0
  0
LINE
  8
1
  6
CONTINUOUS
 62
   215
  5
3CD
 10
9.185333
 20
43.471167
 30
0.0
 11
8.792417
 21
43.471167
 31
0.0
  0
SOLID
  8
1
  6
CONTINUOUS
 62
   215
  5
3CE
 10
8.024583
 20
43.452333
 30
0.0
 11
8.024583
 21
43.489917
 31
0.0
 12
7.912083
 22
43.471167
 32
0.0
 13
7.912083
 23
43.471167
 33
0.0
  0
SOLID
  8
1
  6
CONTINUOUS
 62
   215
  5
3CF
 10
9.185333
 20
43.452333
 30
0.0
 11
9.185333
 21
43.489917
 31
0.0
 12
9.297833
 22
43.471167
 32
0.0
 13
9.297833
 23
43.471167
 33
0.0
  0
TEXT
  8
1
  6
CONTINUOUS
 62
   132
  5
3D0
 10
8.529917
 20
43.414917
 30
0.0
 40
0.1125
  1
8"
  7
MONOTXT
210
0.0
220
0.0
230
1.0
  0
LINE
  8
3
  6
CONTINUOUS
 62
     7
  5
3D1
 10
7.912083
 20
43.129667
 30
0.0
 11
7.912167
 21
43.129667
 31
0.0
  0
LINE
  8
3
  6
CONTINUOUS
 62
     7
  5
3D2
 10
9.297833
 20
43.129667
 30
0.0
 11
9.297917
 21
43.129667
 31
0.0
  0
LINE
  8
3
  6
CONTINUOUS
 62
     7
  5
3D3
 10
9.297833
 20
43.471167
 30
0.0
 11
9.297917
 21
43.471167
 31
0.0
  0
LINE
  8
3
  6
CONTINUOUS
 62
     7
  5
3D4
 10
9.297833
 20
43.129667
 30
0.0
 11
9.297917
 21
43.129667
 31
0.0
  0
LINE
  8
3
  6
CONTINUOUS
 62
     7
  5
3D5
 10
10.346917
 20
42.3915
 30
0.0
 11
10.347
 21
42.3915
 31
0.0
  0
LINE
  8
3
  6
CONTINUOUS
 62
     2
  5
3D6
 10
11.22425
 20
42.3915
 30
0.0
 11
11.224333
 21
42.3915
 31
0.0
  0
LINE
  8
1
  6
CONTINUOUS
 62
     2
  5
3D7
 10
9.354083
 20
43.129667
 30
0.0
 11
11.378583
 21
43.129667
 31
0.0
  0
LINE
  8
1
  6
CONTINUOUS
 62
     2
  5
3D8
 10
10.403167
 20
42.3915
 30
0.0
 11
11.378583
 21
42.3915
 31
0.0
  0
LINE
  8
1
  6
CONTINUOUS
 62
     2
  5
3D9
 10
11.216583
 20
42.279
 30
0.0
 11
11.216583
 21
42.1665
 31
0.0
  0
LINE
  8
1
  6
CONTINUOUS
 62
     2
  5
3DA
 10
11.216583
 20
43.242167
 30
0.0
 11
11.216583
 21
43.354667
 31
0.0
  0
SOLID
  8
1
  6
CONTINUOUS
 62
     2
  5
3DB
 10
11.23525
 20
42.279
 30
0.0
 11
11.197833
 21
42.279
 31
0.0
 12
11.216583
 22
42.3915
 32
0.0
 13
11.216583
 23
42.3915
 33
0.0
  0
SOLID
  8
1
  6
CONTINUOUS
 62
     2
  5
3DC
 10
11.23525
 20
43.242167
 30
0.0
 11
11.197833
 21
43.242167
 31
0.0
 12
11.216583
 22
43.129667
 32
0.0
 13
11.216583
 23
43.129667
 33
0.0
  0
TEXT
  8
1
  6
CONTINUOUS
 62
   132
  5
3DD
 10
11.365083
 20
43.307167
 30
0.0
 40
0.1125
  1
VARIES
  7
MONOTXT
210
0.0
220
0.0
230
1.0
  0
LINE
  8
3
  6
CONTINUOUS
 62
     7
  5
3DE
 10
9.297833
 20
43.129667
 30
0.0
 11
9.297917
 21
43.129667
 31
0.0
  0
LINE
  8
3
  6
CONTINUOUS
 62
     7
  5
3DF
 10
10.346917
 20
42.3915
 30
0.0
 11
10.347
 21
42.3915
 31
0.0
  0
LINE
  8
3
  6
CONTINUOUS
 62
     2
  5
3E0
 10
11.216583
 20
42.3915
 30
0.0
 11
11.216667
 21
42.3915
 31
0.0
  0
LINE
  8
1
  6
CONTINUOUS
 62
     2
  5
3E1
 10
9.489417
 20
42.061833
 30
0.0
 11
9.705083
 21
42.061833
 31
0.0
  0
LINE
  8
1
  6
CONTINUOUS
 62
     2
  5
3E2
 10
9.489417
 20
41.620583
 30
0.0
 11
9.705083
 21
41.620583
 31
0.0
  0
LINE
  8
1
  6
CONTINUOUS
 62
     2
  5
3E3
 10
9.543083
 20
41.733083
 30
0.0
 11
9.543083
 21
41.845583
 31
0.0
  0
SOLID
  8
1
  6
CONTINUOUS
 62
     2
  5
3E4
 10
9.561833
 20
41.733083
 30
0.0
 11
9.524333
 21
41.733083
 31
0.0
 12
9.543083
 22
41.620583
 32
0.0
 13
9.543083
 23
41.620583
 33
0.0
  0
TEXT
  8
1
  6
CONTINUOUS
 62
   132
  5
3E5
 10
9.598
 20
41.777
 30
0.0
 40
0.1125
  1
3"
  7
MONOTXT
210
0.0
220
0.0
230
1.0
  0
LINE
  8
3
  6
CONTINUOUS
 62
     7
  5
3E6
 10
9.433167
 20
42.061833
 30
0.0
 11
9.43325
 21
42.061833
 31
0.0
  0
LINE
  8
3
  6
CONTINUOUS
 62
     7
  5
3E7
 10
9.433167
 20
41.620583
 30
0.0
 11
9.43325
 21
41.620583
 31
0.0
  0
LINE
  8
3
  6
CONTINUOUS
 62
     2
  5
3E8
 10
9.543083
 20
41.620583
 30
0.0
 11
9.543167
 21
41.620583
 31
0.0
  0
SOLID
  8
1
  6
CONTINUOUS
 62
     2
  5
3E9
 10
9.561833
 20
41.949333
 30
0.0
 11
9.524333
 21
41.949333
 31
0.0
 12
9.543083
 22
42.061833
 32
0.0
 13
9.543083
 23
42.061833
 33
0.0
  0
LINE
  8
1
  6
CONTINUOUS
 62
     2
  5
3EA
 10
9.543083
 20
41.949333
 30
0.0
 11
9.543083
 21
41.836833
 31
0.0
  0
LINE
  8
1
  6
CONTINUOUS
 62
     2
  5
3EB
 10
7.67775
 20
41.53475
 30
0.0
 11
7.67775
 21
41.42225
 31
0.0
  0
SOLID
  8
1
  6
CONTINUOUS
 62
     2
  5
3EC
 10
7.6965
 20
41.53475
 30
0.0
 11
7.659
 21
41.53475
 31
0.0
 12
7.67775
 22
41.64725
 32
0.0
 13
7.67775
 23
41.64725
 33
0.0
  0
LINE
  8
3
  6
CONTINUOUS
 62
     2
  5
3ED
 10
7.67775
 20
41.206083
 30
0.0
 11
7.677833
 21
41.206083
 31
0.0
  0
TEXT
  8
1
  6
CONTINUOUS
 62
   132
  5
3EE
 10
7.479167
 20
41.339167
 30
0.0
 40
0.1125
  1
3"
  7
MONOTXT
210
0.0
220
0.0
230
1.0
  0
SOLID
  8
1
  6
CONTINUOUS
 62
     2
  5
3EF
 10
7.6965
 20
41.318583
 30
0.0
 11
7.659
 21
41.318583
 31
0.0
 12
7.67775
 22
41.206083
 32
0.0
 13
7.67775
 23
41.206083
 33
0.0
  0
LINE
  8
1
  6
CONTINUOUS
 62
     2
  5
3F0
 10
7.67775
 20
41.318583
 30
0.0
 11
7.67775
 21
41.431083
 31
0.0
  0
LINE
  8
1
  6
CONTINUOUS
 62
     2
  5
3F1
 10
7.624083
 20
41.206083
 30
0.0
 11
7.769833
 21
41.206083
 31
0.0
  0
LINE
  8
1
  6
CONTINUOUS
 62
     2
  5
3F2
 10
7.624083
 20
41.64725
 30
0.0
 11
7.785167
 21
41.64725
 31
0.0
  0
SOLID
  8
2
  6
CONTINUOUS
 62
     2
  5
3F3
 10
8.002833
 20
41.722833
 30
0.0
 11
7.977083
 21
41.750083
 31
0.0
 12
7.908083
 22
41.659333
 32
0.0
 13
7.908083
 23
41.659333
 33
0.0
  0
LINE
  8
2
  6
CONTINUOUS
 62
     2
  5
3F4
 10
7.989917
 20
41.7365
 30
0.0
 11
10.1035
 21
43.7245
 31
0.0
  0
LINE
  8
2
  6
CONTINUOUS
 62
     2
  5
3F5
 10
10.1035
 20
43.7245
 30
0.0
 11
10.216
 21
43.7245
 31
0.0
  0
TEXT
  8
2
  6
CONTINUOUS
 62
   132
  5
3F6
 10
10.3285
 20
43.668167
 30
0.0
 40
0.1125
  1
3/4" x 3/4" x 3 1/4" NOTCH
  7
MONOTXT
210
0.0
220
0.0
230
1.0
  0
SOLID
  8
2
  6
CONTINUOUS
 62
     2
  5
3F7
 10
9.42875
 20
42.131083
 30
0.0
 11
9.394417
 21
42.146083
 31
0.0
 12
9.366583
 22
42.035583
 32
0.0
 13
9.366583
 23
42.035583
 33
0.0
  0
LINE
  8
2
  6
CONTINUOUS
 62
     2
  5
3F8
 10
9.411583
 20
42.138583
 30
0.0
 11
10.1035
 21
43.7245
 31
0.0
  0
LINE
  8
2
  6
CONTINUOUS
 62
     2
  5
3F9
 10
10.1035
 20
43.7245
 30
0.0
 11
10.216
 21
43.7245
 31
0.0
  0
SOLID
  8
2
  6
CONTINUOUS
 62
     2
  5
3FA
 10
8.71225
 20
41.819
 30
0.0
 11
8.736083
 21
41.848083
 31
0.0
 12
8.63725
 22
41.905083
 32
0.0
 13
8.63725
 23
41.905083
 33
0.0
  0
LINE
  8
2
  6
CONTINUOUS
 62
     2
  5
3FB
 10
8.724167
 20
41.833583
 30
0.0
 11
9.11325
 21
41.5135
 31
0.0
  0
LINE
  8
2
  6
CONTINUOUS
 62
     2
  5
3FC
 10
9.11325
 20
41.5135
 30
0.0
 11
10.794417
 21
41.5135
 31
0.0
  0
TEXT
  8
2
  6
CONTINUOUS
 62
   132
  5
3FD
 10
10.830083
 20
41.45725
 30
0.0
 40
0.1125
  1
13/16" Dia Holes
  7
MONOTXT
210
0.0
220
0.0
230
1.0
  0
SOLID
  8
2
  6
CONTINUOUS
 62
     2
  5
3FE
 10
8.873917
 20
41.348
 30
0.0
 11
8.854583
 21
41.38025
 31
0.0
 12
8.76775
 22
41.30625
 32
0.0
 13
8.76775
 23
41.30625
 33
0.0
  0
LINE
  8
2
  6
CONTINUOUS
 62
     2
  5
3FF
 10
8.86425
 20
41.364083
 30
0.0
 11
9.11325
 21
41.5135
 31
0.0
  0
LINE
  8
2
  6
CONTINUOUS
 62
     2
  5
400
 10
9.11325
 20
41.5135
 30
0.0
 11
9.22575
 21
41.5135
 31
0.0
  0
SOLID
  8
2
  6
CONTINUOUS
 62
     2
  5
401
 10
7.3435
 20
40.739333
 30
0.0
 11
7.38025
 21
40.732167
 31
0.0
 12
7.383667
 22
40.846167
 32
0.0
 13
7.383667
 23
40.846167
 33
0.0
  0
LINE
  8
2
  6
CONTINUOUS
 62
     2
  5
402
 10
7.378333
 20
40.801583
 30
0.0
 11
7.284917
 21
40.3285
 31
0.0
  0
LINE
  8
2
  6
CONTINUOUS
 62
     2
  5
403
 10
7.284917
 20
40.3285
 30
0.0
 11
6.832
 21
40.3285
 31
0.0
  0
LINE
  8
1
  6
CONTINUOUS
 62
   215
  5
404
 10
6.592833
 20
40.945417
 30
0.0
 11
6.23375
 21
40.945417
 31
0.0
  0
LINE
  8
1
  6
CONTINUOUS
 62
   215
  5
405
 10
6.592833
 20
40.844
 30
0.0
 11
6.23375
 21
40.844
 31
0.0
  0
LINE
  8
1
  6
CONTINUOUS
 62
   215
  5
406
 10
6.39575
 20
40.7315
 30
0.0
 11
6.39575
 21
40.619
 31
0.0
  0
LINE
  8
1
  6
CONTINUOUS
 62
   215
  5
407
 10
6.39575
 20
41.057917
 30
0.0
 11
6.39575
 21
41.170417
 31
0.0
  0
LINE
  8
1
  6
CONTINUOUS
 62
   215
  5
408
 10
6.39575
 20
40.619
 30
0.0
 11
6.28325
 21
40.619
 31
0.0
  0
SOLID
  8
1
  6
CONTINUOUS
 62
   215
  5
409
 10
6.414417
 20
40.7315
 30
0.0
 11
6.377
 21
40.7315
 31
0.0
 12
6.39575
 22
40.844
 32
0.0
 13
6.39575
 23
40.844
 33
0.0
  0
SOLID
  8
1
  6
CONTINUOUS
 62
   215
  5
40A
 10
6.414417
 20
41.057917
 30
0.0
 11
6.377
 21
41.057917
 31
0.0
 12
6.39575
 22
40.945417
 32
0.0
 13
6.39575
 23
40.945417
 33
0.0
  0
TEXT
  8
1
  6
CONTINUOUS
 62
   132
  5
40B
 10
5.87075
 20
40.56275
 30
0.0
 40
0.1125
  1
7/8
  7
MONOTXT
210
0.0
220
0.0
230
1.0
  0
LINE
  8
3
  6
CONTINUOUS
 62
     7
  5
40C
 10
6.649083
 20
40.945417
 30
0.0
 11
6.649167
 21
40.945417
 31
0.0
  0
LINE
  8
3
  6
CONTINUOUS
 62
     7
  5
40D
 10
6.649083
 20
40.844
 30
0.0
 11
6.649167
 21
40.844
 31
0.0
  0
LINE
  8
3
  6
CONTINUOUS
 62
     7
  5
40E
 10
6.39575
 20
40.844
 30
0.0
 11
6.395833
 21
40.844
 31
0.0
  0
LINE
  8
1
  6
CONTINUOUS
 62
     2
  5
40F
 10
6.487833
 20
42.091833
 30
0.0
 11
6.487833
 21
42.788667
 31
0.0
  0
LINE
  8
1
  6
CONTINUOUS
 62
     2
  5
410
 10
6.8695
 20
42.626667
 30
0.0
 11
6.487833
 21
42.626667
 31
0.0
  0
SOLID
  8
1
  6
CONTINUOUS
 62
     2
  5
411
 10
6.600333
 20
42.607917
 30
0.0
 11
6.600333
 21
42.645417
 31
0.0
 12
6.487833
 22
42.626667
 32
0.0
 13
6.487833
 23
42.626667
 33
0.0
  0
SOLID
  8
1
  6
CONTINUOUS
 62
     2
  5
412
 10
6.757
 20
42.607917
 30
0.0
 11
6.757
 21
42.645417
 31
0.0
 12
6.8695
 22
42.626667
 32
0.0
 13
6.8695
 23
42.626667
 33
0.0
  0
TEXT
  8
1
  6
CONTINUOUS
 62
   132
  5
413
 10
6.937
 20
42.79925
 30
0.0
 40
0.1125
  1
1 1/4"
  7
MONOTXT
210
0.0
220
0.0
230
1.0
  0
LINE
  8
3
  6
CONTINUOUS
 62
     7
  5
414
 10
6.487833
 20
42.035583
 30
0.0
 11
6.487917
 21
42.035583
 31
0.0
  0
POINT
  8
3
  6
CONTINUOUS
 62
     7
  5
415
 10
6.864083
 20
42.158333
 30
0.0
  0
POINT
  8
3
  6
CONTINUOUS
 62
     7
  5
416
 10
6.864083
 20
42.626667
 30
0.0
  0
TEXT
  8
2
  6
CONTINUOUS
 62
   132
  5
417
 10
7.004083
 20
42.623667
 30
0.0
 40
0.1125
  1
MAX
  7
MONOTXT
210
0.0
220
0.0
230
1.0
  0
LINE
  8
1
  6
CONTINUOUS
 62
     2
  5
418
 10
10.3645
 20
41.48525
 30
0.0
 11
10.3645
 21
42.036333
 31
0.0
  0
LINE
  8
1
  6
CONTINUOUS
 62
     2
  5
419
 10
10.740667
 20
41.35475
 30
0.0
 11
10.740667
 21
42.036333
 31
0.0
  0
LINE
  8
1
  6
CONTINUOUS
 62
     2
  5
41A
 10
10.853167
 20
41.874333
 30
0.0
 11
10.965667
 21
41.874333
 31
0.0
  0
LINE
  8
1
  6
CONTINUOUS
 62
     2
  5
41B
 10
10.252
 20
41.874333
 30
0.0
 11
10.1395
 21
41.874333
 31
0.0
  0
SOLID
  8
1
  6
CONTINUOUS
 62
     2
  5
41C
 10
10.853167
 20
41.855583
 30
0.0
 11
10.853167
 21
41.893083
 31
0.0
 12
10.740667
 22
41.87425
 32
0.0
 13
10.740667
 23
41.87425
 33
0.0
  0
SOLID
  8
1
  6
CONTINUOUS
 62
     2
  5
41D
 10
10.252
 20
41.855583
 30
0.0
 11
10.252
 21
41.893083
 31
0.0
 12
10.3645
 22
41.87425
 32
0.0
 13
10.3645
 23
41.87425
 33
0.0
  0
LINE
  8
3
  6
CONTINUOUS
 62
     7
  5
41E
 10
10.3645
 20
41.429
 30
0.0
 11
10.364583
 21
41.429
 31
0.0
  0
LINE
  8
3
  6
CONTINUOUS
 62
     7
  5
41F
 10
10.740667
 20
41.2985
 30
0.0
 11
10.74075
 21
41.2985
 31
0.0
  0
LINE
  8
3
  6
CONTINUOUS
 62
     7
  5
420
 10
10.740667
 20
41.874333
 30
0.0
 11
10.74075
 21
41.874333
 31
0.0
  0
LINE
  8
1
  6
CONTINUOUS
 62
   215
  5
421
 10
5.809833
 20
43.129667
 30
0.0
 11
5.58125
 21
43.129667
 31
0.0
  0
LINE
  8
1
  6
CONTINUOUS
 62
   215
  5
422
 10
6.423917
 20
41.966417
 30
0.0
 11
5.58125
 21
41.966417
 31
0.0
  0
LINE
  8
1
  6
CONTINUOUS
 62
   215
  5
423
 10
5.74325
 20
43.017167
 30
0.0
 11
5.74325
 21
42.71675
 31
0.0
  0
LINE
  8
1
  6
CONTINUOUS
 62
   215
  5
424
 10
5.74325
 20
42.078917
 30
0.0
 11
5.74325
 21
42.37925
 31
0.0
  0
SOLID
  8
1
  6
CONTINUOUS
 62
   215
  5
425
 10
5.762
 20
43.017167
 30
0.0
 11
5.7245
 21
43.017167
 31
0.0
 12
5.74325
 22
43.129667
 32
0.0
 13
5.74325
 23
43.129667
 33
0.0
  0
SOLID
  8
1
  6
CONTINUOUS
 62
   215
  5
426
 10
5.762
 20
42.078917
 30
0.0
 11
5.7245
 21
42.078917
 31
0.0
 12
5.74325
 22
41.966417
 32
0.0
 13
5.74325
 23
41.966417
 33
0.0
  0
TEXT
  8
1
  6
CONTINUOUS
 62
   132
  5
427
 10
5.66825
 20
42.49175
 30
0.0
 40
0.1125
  1
7"
  7
MONOTXT
210
0.0
220
0.0
230
1.0
  0
LINE
  8
3
  6
CONTINUOUS
 62
     7
  5
428
 10
5.866083
 20
43.129667
 30
0.0
 11
5.866167
 21
43.129667
 31
0.0
  0
LINE
  8
3
  6
CONTINUOUS
 62
     7
  5
429
 10
6.480167
 20
41.966417
 30
0.0
 11
6.48025
 21
41.966417
 31
0.0
  0
LINE
  8
3
  6
CONTINUOUS
 62
     7
  5
42A
 10
5.74325
 20
41.966417
 30
0.0
 11
5.743333
 21
41.966417
 31
0.0
  0
TEXT
  8
2
  6
CONTINUOUS
 62
   132
  5
42B
 10
7.154917
 20
41.551
 30
0.0
 40
0.1125
  1
(Min)
  7
MONOTXT
210
0.0
220
0.0
230
1.0
  0
SOLID
  8
2
  6
CONTINUOUS
 62
     2
  5
42C
 10
7.747583
 20
42.079583
 30
0.0
 11
7.714583
 21
42.097417
 31
0.0
 12
7.67775
 22
41.989417
 32
0.0
 13
7.67775
 23
41.989417
 33
0.0
  0
LINE
  8
2
  6
CONTINUOUS
 62
     2
  5
42D
 10
7.731083
 20
42.0885
 30
0.0
 11
7.839
 21
42.288833
 31
0.0
  0
LINE
  8
2
  6
CONTINUOUS
 62
     2
  5
42E
 10
7.839
 20
42.288833
 30
0.0
 11
7.70075
 21
42.288833
 31
0.0
  0
TEXT
  8
2
  6
CONTINUOUS
 62
   132
  5
42F
 10
7.196833
 20
42.335333
 30
0.0
 40
0.1125
  1
5/8"
  7
MONOTXT
210
0.0
220
0.0
230
1.0
  0
TEXT
  8
2
  6
CONTINUOUS
 62
   132
  5
430
 10
7.245667
 20
42.134
 30
0.0
 40
0.1125
  1
Bolt
  7
MONOTXT
210
0.0
220
0.0
230
1.0
  0
SOLID
  8
2
  6
CONTINUOUS
 62
     2
  5
431
 10
12.92725
 20
41.914167
 30
0.0
 11
12.949667
 21
41.884083
 31
0.0
 12
13.028583
 22
41.966417
 32
0.0
 13
13.028583
 23
41.966417
 33
0.0
  0
LINE
  8
2
  6
CONTINUOUS
 62
     2
  5
432
 10
12.938417
 20
41.899167
 30
0.0
 11
12.422167
 21
41.5135
 31
0.0
  0
LINE
  8
2
  6
CONTINUOUS
 62
     2
  5
433
 10
12.422167
 20
41.5135
 30
0.0
 11
12.309667
 21
41.5135
 31
0.0
  0
SOLID
  8
2
  6
CONTINUOUS
 62
     2
  5
434
 10
12.922
 20
41.347667
 30
0.0
 11
12.908917
 21
41.312417
 31
0.0
 12
13.020917
 22
41.290917
 32
0.0
 13
13.020917
 23
41.290917
 33
0.0
  0
LINE
  8
2
  6
CONTINUOUS
 62
     2
  5
435
 10
12.9155
 20
41.330083
 30
0.0
 11
12.422167
 21
41.5135
 31
0.0
  0
LINE
  8
2
  6
CONTINUOUS
 62
     2
  5
436
 10
12.422167
 20
41.5135
 30
0.0
 11
12.309667
 21
41.5135
 31
0.0
  0
LINE
  8
2
  6
CONTINUOUS
 62
     2
  5
437
 10
13.082333
 20
41.889667
 30
0.0
 11
13.082333
 21
41.352333
 31
0.0
  0
LINE
  8
1
  6
CONTINUOUS
 62
   215
  5
438
 10
12.575083
 20
41.613833
 30
0.0
 11
12.575083
 21
41.734917
 31
0.0
  0
LINE
  8
1
  6
CONTINUOUS
 62
   215
  5
439
 10
13.081667
 20
41.613833
 30
0.0
 11
13.081667
 21
41.734917
 31
0.0
  0
TEXT
  8
1
  6
CONTINUOUS
 62
   132
  5
43A
 10
12.753417
 20
41.516667
 30
0.0
 40
0.1125
  1
3"
  7
MONOTXT
210
0.0
220
0.0
230
1.0
  0
LINE
  8
3
  6
CONTINUOUS
 62
     7
  5
43B
 10
12.575083
 20
41.557583
 30
0.0
 11
12.575167
 21
41.557583
 31
0.0
  0
LINE
  8
3
  6
CONTINUOUS
 62
     7
  5
43C
 10
13.081667
 20
41.557583
 30
0.0
 11
13.08175
 21
41.557583
 31
0.0
  0
LINE
  8
3
  6
CONTINUOUS
 62
     7
  5
43D
 10
13.081667
 20
41.572917
 30
0.0
 11
13.08175
 21
41.572917
 31
0.0
  0
SOLID
  8
2
  6
CONTINUOUS
 62
     2
  5
43E
 10
12.9675
 20
41.595333
 30
0.0
 11
12.9675
 21
41.557833
 31
0.0
 12
13.08
 22
41.5765
 32
0.0
 13
13.08
 23
41.5765
 33
0.0
  0
SOLID
  8
2
  6
CONTINUOUS
 62
     2
  5
43F
 10
12.688083
 20
41.556167
 30
0.0
 11
12.688083
 21
41.593667
 31
0.0
 12
12.575583
 22
41.574833
 32
0.0
 13
12.575583
 23
41.574833
 33
0.0
  0
LINE
  8
1
  6
CONTINUOUS
 62
   215
  5
440
 10
12.575167
 20
43.257083
 30
0.0
 11
12.575167
 21
43.610083
 31
0.0
  0
LINE
  8
1
  6
CONTINUOUS
 62
   215
  5
441
 10
13.581417
 20
43.257083
 30
0.0
 11
13.581417
 21
43.610083
 31
0.0
  0
LINE
  8
1
  6
CONTINUOUS
 62
   215
  5
442
 10
12.687667
 20
43.448083
 30
0.0
 11
12.89075
 21
43.448083
 31
0.0
  0
LINE
  8
1
  6
CONTINUOUS
 62
   215
  5
443
 10
13.468917
 20
43.448083
 30
0.0
 11
13.26575
 21
43.448083
 31
0.0
  0
SOLID
  8
1
  6
CONTINUOUS
 62
   215
  5
444
 10
12.687667
 20
43.429333
 30
0.0
 11
12.687667
 21
43.466833
 31
0.0
 12
12.575167
 22
43.448083
 32
0.0
 13
12.575167
 23
43.448083
 33
0.0
  0
SOLID
  8
1
  6
CONTINUOUS
 62
   215
  5
445
 10
13.468917
 20
43.429333
 30
0.0
 11
13.468917
 21
43.466833
 31
0.0
 12
13.581417
 22
43.448083
 32
0.0
 13
13.581417
 23
43.448083
 33
0.0
  0
TEXT
  8
1
  6
CONTINUOUS
 62
   132
  5
446
 10
13.00325
 20
43.391833
 30
0.0
 40
0.1125
  1
6"
  7
MONOTXT
210
0.0
220
0.0
230
1.0
  0
LINE
  8
3
  6
CONTINUOUS
 62
     7
  5
447
 10
12.575167
 20
43.200833
 30
0.0
 11
12.57525
 21
43.200833
 31
0.0
  0
LINE
  8
3
  6
CONTINUOUS
 62
     7
  5
448
 10
13.581417
 20
43.200833
 30
0.0
 11
13.5815
 21
43.200833
 31
0.0
  0
LINE
  8
3
  6
CONTINUOUS
 62
     7
  5
449
 10
13.581417
 20
43.448083
 30
0.0
 11
13.5815
 21
43.448083
 31
0.0
  0
LINE
  8
1
  6
CONTINUOUS
 62
   215
  5
44A
 10
17.467167
 20
43.299667
 30
0.0
 11
17.467167
 21
43.64075
 31
0.0
  0
LINE
  8
1
  6
CONTINUOUS
 62
   215
  5
44B
 10
18.555417
 20
43.299417
 30
0.0
 11
18.555417
 21
43.64075
 31
0.0
  0
LINE
  8
1
  6
CONTINUOUS
 62
   215
  5
44C
 10
17.579667
 20
43.47875
 30
0.0
 11
17.823833
 21
43.47875
 31
0.0
  0
LINE
  8
1
  6
CONTINUOUS
 62
   215
  5
44D
 10
18.442917
 20
43.47875
 30
0.0
 11
18.198833
 21
43.47875
 31
0.0
  0
SOLID
  8
1
  6
CONTINUOUS
 62
   215
  5
44E
 10
17.579667
 20
43.46
 30
0.0
 11
17.579667
 21
43.4975
 31
0.0
 12
17.467167
 22
43.478667
 32
0.0
 13
17.467167
 23
43.478667
 33
0.0
  0
SOLID
  8
1
  6
CONTINUOUS
 62
   215
  5
44F
 10
18.442917
 20
43.46
 30
0.0
 11
18.442917
 21
43.4975
 31
0.0
 12
18.555417
 22
43.478667
 32
0.0
 13
18.555417
 23
43.478667
 33
0.0
  0
TEXT
  8
1
  6
CONTINUOUS
 62
   132
  5
450
 10
17.93625
 20
43.422417
 30
0.0
 40
0.1125
  1
8"
  7
MONOTXT
210
0.0
220
0.0
230
1.0
  0
LINE
  8
3
  6
CONTINUOUS
 62
     7
  5
451
 10
17.467167
 20
43.243417
 30
0.0
 11
17.46725
 21
43.243417
 31
0.0
  0
LINE
  8
3
  6
CONTINUOUS
 62
     7
  5
452
 10
18.555417
 20
43.243167
 30
0.0
 11
18.5555
 21
43.243167
 31
0.0
  0
LINE
  8
3
  6
CONTINUOUS
 62
     7
  5
453
 10
18.555417
 20
43.47875
 30
0.0
 11
18.5555
 21
43.47875
 31
0.0
  0
LINE
  8
1
  6
CONTINUOUS
 62
   215
  5
454
 10
18.555417
 20
43.2995
 30
0.0
 11
18.555417
 21
43.633167
 31
0.0
  0
LINE
  8
1
  6
CONTINUOUS
 62
   215
  5
455
 10
19.941167
 20
43.299083
 30
0.0
 11
19.941167
 21
43.633167
 31
0.0
  0
LINE
  8
1
  6
CONTINUOUS
 62
   215
  5
456
 10
18.667917
 20
43.471167
 30
0.0
 11
19.06075
 21
43.471167
 31
0.0
  0
LINE
  8
1
  6
CONTINUOUS
 62
   215
  5
457
 10
19.828667
 20
43.471167
 30
0.0
 11
19.43575
 21
43.471167
 31
0.0
  0
SOLID
  8
1
  6
CONTINUOUS
 62
   215
  5
458
 10
18.667917
 20
43.452333
 30
0.0
 11
18.667917
 21
43.489917
 31
0.0
 12
18.555417
 22
43.471167
 32
0.0
 13
18.555417
 23
43.471167
 33
0.0
  0
SOLID
  8
1
  6
CONTINUOUS
 62
   215
  5
459
 10
19.828667
 20
43.452333
 30
0.0
 11
19.828667
 21
43.489917
 31
0.0
 12
19.941167
 22
43.471167
 32
0.0
 13
19.941167
 23
43.471167
 33
0.0
  0
TEXT
  8
1
  6
CONTINUOUS
 62
   132
  5
45A
 10
19.17325
 20
43.414917
 30
0.0
 40
0.1125
  1
8"
  7
MONOTXT
210
0.0
220
0.0
230
1.0
  0
LINE
  8
3
  6
CONTINUOUS
 62
     7
  5
45B
 10
18.555417
 20
43.24325
 30
0.0
 11
18.5555
 21
43.24325
 31
0.0
  0
LINE
  8
3
  6
CONTINUOUS
 62
     7
  5
45C
 10
19.941167
 20
43.242833
 30
0.0
 11
19.94125
 21
43.242833
 31
0.0
  0
LINE
  8
3
  6
CONTINUOUS
 62
     7
  5
45D
 10
19.941167
 20
43.471167
 30
0.0
 11
19.94125
 21
43.471167
 31
0.0
  0
LINE
  8
1
  6
CONTINUOUS
 62
   215
  5
45E
 10
17.410917
 20
43.2435
 30
0.0
 11
16.39775
 21
43.2435
 31
0.0
  0
LINE
  8
1
  6
CONTINUOUS
 62
   215
  5
45F
 10
17.410917
 20
40.939
 30
0.0
 11
16.39775
 21
40.939
 31
0.0
  0
LINE
  8
1
  6
CONTINUOUS
 62
   215
  5
460
 10
16.55975
 20
43.131
 30
0.0
 11
16.55975
 21
42.26
 31
0.0
  0
LINE
  8
1
  6
CONTINUOUS
 62
   215
  5
461
 10
16.55975
 20
41.0515
 30
0.0
 11
16.55975
 21
41.9225
 31
0.0
  0
SOLID
  8
1
  6
CONTINUOUS
 62
   215
  5
462
 10
16.5785
 20
43.131
 30
0.0
 11
16.541
 21
43.131
 31
0.0
 12
16.55975
 22
43.2435
 32
0.0
 13
16.55975
 23
43.2435
 33
0.0
  0
SOLID
  8
1
  6
CONTINUOUS
 62
   215
  5
463
 10
16.5785
 20
41.0515
 30
0.0
 11
16.541
 21
41.0515
 31
0.0
 12
16.55975
 22
40.939
 32
0.0
 13
16.55975
 23
40.939
 33
0.0
  0
TEXT
  8
1
  6
CONTINUOUS
 62
   132
  5
464
 10
16.441917
 20
42.034917
 30
0.0
 40
0.1125
  1
14"
  7
MONOTXT
210
0.0
220
0.0
230
1.0
  0
LINE
  8
3
  6
CONTINUOUS
 62
     7
  5
465
 10
17.467167
 20
43.2435
 30
0.0
 11
17.46725
 21
43.2435
 31
0.0
  0
LINE
  8
3
  6
CONTINUOUS
 62
     7
  5
466
 10
17.467167
 20
40.939
 30
0.0
 11
17.46725
 21
40.939
 31
0.0
  0
LINE
  8
3
  6
CONTINUOUS
 62
     7
  5
467
 10
16.55975
 20
40.939
 30
0.0
 11
16.559833
 21
40.939
 31
0.0
  0
TEXT
  8
2
  6
CONTINUOUS
 62
   132
  5
468
 10
17.675167
 20
42.40625
 30
0.0
 40
0.1125
  1
5/8"
  7
MONOTXT
210
0.0
220
0.0
230
1.0
  0
TEXT
  8
2
  6
CONTINUOUS
 62
   132
  5
469
 10
17.675167
 20
42.225
 30
0.0
 40
0.1125
  1
Bolt
  7
MONOTXT
210
0.0
220
0.0
230
1.0
  0
SOLID
  8
2
  6
CONTINUOUS
 62
     2
  5
46A
 10
18.160083
 20
42.182417
 30
0.0
 11
18.127083
 21
42.200167
 31
0.0
 12
18.090333
 22
42.09225
 32
0.0
 13
18.090333
 23
42.09225
 33
0.0
  0
LINE
  8
2
  6
CONTINUOUS
 62
     2
  5
46B
 10
18.143583
 20
42.19125
 30
0.0
 11
18.2515
 21
42.391583
 31
0.0
  0
LINE
  8
2
  6
CONTINUOUS
 62
     2
  5
46C
 10
18.2515
 20
42.391583
 30
0.0
 11
18.113333
 21
42.391583
 31
0.0
  0
LINE
  8
1
  6
CONTINUOUS
 62
     2
  5
46D
 10
17.22025
 20
43.128583
 30
0.0
 11
16.8075
 21
43.128583
 31
0.0
  0
LINE
  8
1
  6
CONTINUOUS
 62
     2
  5
46E
 10
17.410917
 20
43.2435
 30
0.0
 11
16.8075
 21
43.2435
 31
0.0
  0
LINE
  8
1
  6
CONTINUOUS
 62
     2
  5
46F
 10
16.9695
 20
43.356
 30
0.0
 11
16.9695
 21
43.4685
 31
0.0
  0
LINE
  8
1
  6
CONTINUOUS
 62
     2
  5
470
 10
16.9695
 20
43.016083
 30
0.0
 11
16.9695
 21
42.903583
 31
0.0
  0
SOLID
  8
1
  6
CONTINUOUS
 62
     2
  5
471
 10
16.98825
 20
43.356
 30
0.0
 11
16.95075
 21
43.356
 31
0.0
 12
16.9695
 22
43.2435
 32
0.0
 13
16.9695
 23
43.2435
 33
0.0
  0
SOLID
  8
1
  6
CONTINUOUS
 62
     2
  5
472
 10
16.98825
 20
43.016083
 30
0.0
 11
16.95075
 21
43.016083
 31
0.0
 12
16.9695
 22
43.128583
 32
0.0
 13
16.9695
 23
43.128583
 33
0.0
  0
TEXT
  8
1
  6
CONTINUOUS
 62
   132
  5
473
 10
16.825917
 20
43.56575
 30
0.0
 40
0.1125
  1
7/8"
  7
MONOTXT
210
0.0
220
0.0
230
1.0
  0
LINE
  8
3
  6
CONTINUOUS
 62
     7
  5
474
 10
17.2765
 20
43.128583
 30
0.0
 11
17.276583
 21
43.128583
 31
0.0
  0
LINE
  8
3
  6
CONTINUOUS
 62
     7
  5
475
 10
17.467167
 20
43.2435
 30
0.0
 11
17.46725
 21
43.2435
 31
0.0
  0
LINE
  8
3
  6
CONTINUOUS
 62
     7
  5
476
 10
16.9695
 20
43.2435
 30
0.0
 11
16.969583
 21
43.2435
 31
0.0
  0
TEXT
  8
2
  6
CONTINUOUS
 62
   132
  5
477
 10
17.738083
 20
41.661417
 30
0.0
 40
0.1125
  1
(Min)
  7
MONOTXT
210
0.0
220
0.0
230
1.0
  0
SOLID
  8
2
  6
CONTINUOUS
 62
     2
  5
478
 10
18.129
 20
40.8315
 30
0.0
 11
18.165833
 21
40.824833
 31
0.0
 12
18.167167
 22
40.939
 32
0.0
 13
18.167167
 23
40.939
 33
0.0
  0
LINE
  8
2
  6
CONTINUOUS
 62
     2
  5
479
 10
18.147417
 20
40.82825
 30
0.0
 11
18.059583
 21
40.33425
 31
0.0
  0
LINE
  8
2
  6
CONTINUOUS
 62
     2
  5
47A
 10
18.059583
 20
40.33425
 30
0.0
 11
17.614333
 21
40.33425
 31
0.0
  0
ARC
  8
1
  6
CONTINUOUS
 62
   215
  5
47B
 10
17.47725
 20
42.094558
 30
0.0
 40
0.083814
 50
121.605083
 51
238.394911
210
0.0
220
0.0
230
1.0
  0
LINE
  8
1
  6
CONTINUOUS
 62
     2
  5
47C
 10
17.22025
 20
41.08225
 30
0.0
 11
16.8075
 21
41.08225
 31
0.0
  0
SOLID
  8
1
  6
CONTINUOUS
 62
     2
  5
47D
 10
16.98825
 20
41.19475
 30
0.0
 11
16.95075
 21
41.19475
 31
0.0
 12
16.9695
 22
41.08225
 32
0.0
 13
16.9695
 23
41.08225
 33
0.0
  0
LINE
  8
1
  6
CONTINUOUS
 62
     2
  5
47E
 10
16.9695
 20
41.19475
 30
0.0
 11
16.9695
 21
41.30725
 31
0.0
  0
SOLID
  8
1
  6
CONTINUOUS
 62
     2
  5
47F
 10
16.98825
 20
40.854833
 30
0.0
 11
16.95075
 21
40.854833
 31
0.0
 12
16.9695
 22
40.967333
 32
0.0
 13
16.9695
 23
40.967333
 33
0.0
  0
LINE
  8
1
  6
CONTINUOUS
 62
     2
  5
480
 10
16.9695
 20
40.854833
 30
0.0
 11
16.9695
 21
40.742333
 31
0.0
  0
TEXT
  8
2
  6
CONTINUOUS
 62
   132
  5
481
 10
16.87725
 20
40.580167
 30
0.0
 40
0.1125
  1
7/8
  7
MONOTXT
210
0.0
220
0.0
230
1.0
  0
SOLID
  8
1
  6
CONTINUOUS
 62
     2
  5
482
 10
20.883833
 20
42.826417
 30
0.0
 11
20.883833
 21
42.863917
 31
0.0
 12
20.996333
 22
42.845167
 32
0.0
 13
20.996333
 23
42.845167
 33
0.0
  0
LINE
  8
1
  6
CONTINUOUS
 62
     2
  5
483
 10
20.883833
 20
42.845167
 30
0.0
 11
20.771333
 21
42.845167
 31
0.0
  0
SOLID
  8
1
  6
CONTINUOUS
 62
     2
  5
484
 10
21.495417
 20
42.826417
 30
0.0
 11
21.495417
 21
42.863917
 31
0.0
 12
21.382917
 22
42.845167
 32
0.0
 13
21.382917
 23
42.845167
 33
0.0
  0
LINE
  8
1
  6
CONTINUOUS
 62
     2
  5
485
 10
21.495417
 20
42.845167
 30
0.0
 11
21.607917
 21
42.845167
 31
0.0
  0
LINE
  8
1
  6
CONTINUOUS
 62
     2
  5
486
 10
21.382917
 20
42.433167
 30
0.0
 11
21.382917
 21
43.007167
 31
0.0
  0
SOLID
  8
2
  6
CONTINUOUS
 62
     2
  5
487
 10
20.598083
 20
41.910667
 30
0.0
 11
20.623917
 21
41.937833
 31
0.0
 12
20.529583
 22
42.001833
 32
0.0
 13
20.529583
 23
42.001833
 33
0.0
  0
LINE
  8
2
  6
CONTINUOUS
 62
     2
  5
488
 10
20.611
 20
41.92425
 30
0.0
 11
20.70675
 21
41.833083
 31
0.0
  0
LINE
  8
2
  6
CONTINUOUS
 62
     2
  5
489
 10
20.70675
 20
41.833083
 30
0.0
 11
21.533667
 21
41.833083
 31
0.0
  0
TEXT
  8
2
  6
CONTINUOUS
 62
   132
  5
48A
 10
21.646167
 20
41.776833
 30
0.0
 40
0.1125
  1
13/16" Dia. Hole
  7
MONOTXT
210
0.0
220
0.0
230
1.0
  0
LINE
  8
1
  6
CONTINUOUS
 62
   215
  5
48B
 10
17.508667
 20
37.18625
 30
0.0
 11
17.508667
 21
37.5485
 31
0.0
  0
LINE
  8
1
  6
CONTINUOUS
 62
   215
  5
48C
 10
18.55125
 20
37.18625
 30
0.0
 11
18.55125
 21
37.5485
 31
0.0
  0
LINE
  8
1
  6
CONTINUOUS
 62
   215
  5
48D
 10
17.621167
 20
37.3865
 30
0.0
 11
17.8425
 21
37.3865
 31
0.0
  0
LINE
  8
1
  6
CONTINUOUS
 62
   215
  5
48E
 10
18.43875
 20
37.3865
 30
0.0
 11
18.2175
 21
37.3865
 31
0.0
  0
SOLID
  8
1
  6
CONTINUOUS
 62
   215
  5
48F
 10
17.621167
 20
37.36775
 30
0.0
 11
17.621167
 21
37.40525
 31
0.0
 12
17.508667
 22
37.3865
 32
0.0
 13
17.508667
 23
37.3865
 33
0.0
  0
SOLID
  8
1
  6
CONTINUOUS
 62
   215
  5
490
 10
18.438667
 20
37.36775
 30
0.0
 11
18.438667
 21
37.40525
 31
0.0
 12
18.551167
 22
37.3865
 32
0.0
 13
18.551167
 23
37.3865
 33
0.0
  0
TEXT
  8
1
  6
CONTINUOUS
 62
   132
  5
491
 10
17.955
 20
37.33025
 30
0.0
 40
0.1125
  1
8"
  7
MONOTXT
210
0.0
220
0.0
230
1.0
  0
LINE
  8
3
  6
CONTINUOUS
 62
     7
  5
492
 10
17.508667
 20
37.13
 30
0.0
 11
17.50875
 21
37.13
 31
0.0
  0
LINE
  8
3
  6
CONTINUOUS
 62
     7
  5
493
 10
18.55125
 20
37.13
 30
0.0
 11
18.551333
 21
37.13
 31
0.0
  0
LINE
  8
3
  6
CONTINUOUS
 62
     7
  5
494
 10
18.55125
 20
37.3865
 30
0.0
 11
18.551333
 21
37.3865
 31
0.0
  0
LINE
  8
1
  6
CONTINUOUS
 62
   215
  5
495
 10
18.551333
 20
37.18625
 30
0.0
 11
18.551333
 21
37.540167
 31
0.0
  0
LINE
  8
1
  6
CONTINUOUS
 62
   215
  5
496
 10
19.581
 20
37.18625
 30
0.0
 11
19.581
 21
37.540167
 31
0.0
  0
LINE
  8
1
  6
CONTINUOUS
 62
   215
  5
497
 10
18.663833
 20
37.378167
 30
0.0
 11
18.74475
 21
37.378167
 31
0.0
  0
LINE
  8
1
  6
CONTINUOUS
 62
   215
  5
498
 10
19.4685
 20
37.378167
 30
0.0
 11
19.387583
 21
37.378167
 31
0.0
  0
SOLID
  8
1
  6
CONTINUOUS
 62
   215
  5
499
 10
18.66375
 20
37.359417
 30
0.0
 11
18.66375
 21
37.396917
 31
0.0
 12
18.55125
 22
37.378167
 32
0.0
 13
18.55125
 23
37.378167
 33
0.0
  0
SOLID
  8
1
  6
CONTINUOUS
 62
   215
  5
49A
 10
19.4685
 20
37.359417
 30
0.0
 11
19.4685
 21
37.396917
 31
0.0
 12
19.581
 22
37.378167
 32
0.0
 13
19.581
 23
37.378167
 33
0.0
  0
TEXT
  8
1
  6
CONTINUOUS
 62
   132
  5
49B
 10
18.85725
 20
37.321917
 30
0.0
 40
0.1125
  1
6"Min
  7
MONOTXT
210
0.0
220
0.0
230
1.0
  0
POINT
  8
3
  6
CONTINUOUS
 62
     7
  5
49C
 10
18.551333
 20
37.13
 30
0.0
  0
LINE
  8
3
  6
CONTINUOUS
 62
     7
  5
49D
 10
19.581
 20
37.13
 30
0.0
 11
19.581083
 21
37.13
 31
0.0
  0
LINE
  8
3
  6
CONTINUOUS
 62
     7
  5
49E
 10
19.581
 20
37.378167
 30
0.0
 11
19.581083
 21
37.378167
 31
0.0
  0
SOLID
  8
2
  6
CONTINUOUS
 62
     2
  5
49F
 10
23.859167
 20
42.011
 30
0.0
 11
23.870583
 21
41.97525
 31
0.0
 12
23.972167
 22
42.027083
 32
0.0
 13
23.972167
 23
42.027083
 33
0.0
  0
LINE
  8
2
  6
CONTINUOUS
 62
     2
  5
4A0
 10
23.864917
 20
41.993083
 30
0.0
 11
23.440583
 21
41.858417
 31
0.0
  0
LINE
  8
2
  6
CONTINUOUS
 62
     2
  5
4A1
 10
23.440583
 20
41.858417
 30
0.0
 11
23.1115
 21
41.858417
 31
0.0
  0
LINE
  8
2
  6
CONTINUOUS
 62
     2
  5
4A2
 10
24.048083
 20
41.951167
 30
0.0
 11
24.048083
 21
41.622167
 31
0.0
  0
LINE
  8
1
  6
CONTINUOUS
 62
   215
  5
4A3
 10
23.56625
 20
41.827833
 30
0.0
 11
23.56625
 21
41.950417
 31
0.0
  0
LINE
  8
1
  6
CONTINUOUS
 62
   215
  5
4A4
 10
24.080917
 20
41.827833
 30
0.0
 11
24.080917
 21
41.950417
 31
0.0
  0
LINE
  8
1
  6
CONTINUOUS
 62
   215
  5
4A5
 10
24.199
 20
41.880917
 30
0.0
 11
24.3115
 21
41.880917
 31
0.0
  0
LINE
  8
1
  6
CONTINUOUS
 62
   215
  5
4A6
 10
23.483333
 20
41.895667
 30
0.0
 11
23.370833
 21
41.895667
 31
0.0
  0
SOLID
  8
1
  6
CONTINUOUS
 62
   215
  5
4A7
 10
24.197083
 20
41.860333
 30
0.0
 11
24.197083
 21
41.897833
 31
0.0
 12
24.084583
 22
41.879083
 32
0.0
 13
24.084583
 23
41.879083
 33
0.0
  0
SOLID
  8
1
  6
CONTINUOUS
 62
   215
  5
4A8
 10
23.4575
 20
41.875083
 30
0.0
 11
23.4575
 21
41.912583
 31
0.0
 12
23.57
 22
41.893833
 32
0.0
 13
23.57
 23
41.893833
 33
0.0
  0
TEXT
  8
1
  6
CONTINUOUS
 62
   132
  5
4A9
 10
24.294583
 20
41.628667
 30
0.0
 40
0.1125
  1
3"
  7
MONOTXT
210
0.0
220
0.0
230
1.0
  0
POINT
  8
3
  6
CONTINUOUS
 62
     7
  5
4AA
 10
24.080917
 20
41.788417
 30
0.0
  0
LINE
  8
1
  6
CONTINUOUS
 62
   215
  5
4AB
 10
23.536583
 20
43.272833
 30
0.0
 11
23.536583
 21
43.6235
 31
0.0
  0
LINE
  8
1
  6
CONTINUOUS
 62
   215
  5
4AC
 10
24.542917
 20
43.272833
 30
0.0
 11
24.542917
 21
43.6235
 31
0.0
  0
LINE
  8
1
  6
CONTINUOUS
 62
   215
  5
4AD
 10
23.649083
 20
43.4615
 30
0.0
 11
23.85225
 21
43.4615
 31
0.0
  0
LINE
  8
1
  6
CONTINUOUS
 62
   215
  5
4AE
 10
24.430417
 20
43.4615
 30
0.0
 11
24.22725
 21
43.4615
 31
0.0
  0
SOLID
  8
1
  6
CONTINUOUS
 62
   215
  5
4AF
 10
23.649083
 20
43.44275
 30
0.0
 11
23.649083
 21
43.48025
 31
0.0
 12
23.536583
 22
43.461417
 32
0.0
 13
23.536583
 23
43.461417
 33
0.0
  0
SOLID
  8
1
  6
CONTINUOUS
 62
   215
  5
4B0
 10
24.430417
 20
43.44275
 30
0.0
 11
24.430417
 21
43.48025
 31
0.0
 12
24.542917
 22
43.461417
 32
0.0
 13
24.542917
 23
43.461417
 33
0.0
  0
TEXT
  8
1
  6
CONTINUOUS
 62
   132
  5
4B1
 10
23.96475
 20
43.405167
 30
0.0
 40
0.1125
  1
6"
  7
MONOTXT
210
0.0
220
0.0
230
1.0
  0
LINE
  8
3
  6
CONTINUOUS
 62
     7
  5
4B2
 10
23.536583
 20
43.216583
 30
0.0
 11
23.536667
 21
43.216583
 31
0.0
  0
LINE
  8
3
  6
CONTINUOUS
 62
     7
  5
4B3
 10
24.542917
 20
43.216583
 30
0.0
 11
24.543
 21
43.216583
 31
0.0
  0
LINE
  8
3
  6
CONTINUOUS
 62
     7
  5
4B4
 10
24.542917
 20
43.4615
 30
0.0
 11
24.543
 21
43.4615
 31
0.0
  0
TEXT
  8
2
  6
CONTINUOUS
 62
   132
  5
4B5
 10
7.215583
 20
36.361083
 30
0.0
 40
0.1125
  1
5/8"
  7
MONOTXT
210
0.0
220
0.0
230
1.0
  0
TEXT
  8
2
  6
CONTINUOUS
 62
   132
  5
4B6
 10
7.224083
 20
36.187167
 30
0.0
 40
0.1125
  1
Bolt
  7
MONOTXT
210
0.0
220
0.0
230
1.0
  0
SOLID
  8
2
  6
CONTINUOUS
 62
     2
  5
4B7
 10
7.629917
 20
36.070167
 30
0.0
 11
7.596917
 21
36.087917
 31
0.0
 12
7.560167
 22
35.98
 32
0.0
 13
7.560167
 23
35.98
 33
0.0
  0
LINE
  8
2
  6
CONTINUOUS
 62
     2
  5
4B8
 10
7.613417
 20
36.079
 30
0.0
 11
7.721333
 21
36.279333
 31
0.0
  0
LINE
  8
2
  6
CONTINUOUS
 62
     2
  5
4B9
 10
7.721333
 20
36.279333
 30
0.0
 11
7.583167
 21
36.279333
 31
0.0
  0
TEXT
  8
1
  6
CONTINUOUS
 62
   132
  5
4BA
 10
10.088333
 20
35.8295
 30
0.0
 40
0.1125
  1
1/4"
  7
MONOTXT
210
0.0
220
0.0
230
1.0
  0
TEXT
  8
2
  6
CONTINUOUS
 62
   132
  5
4BB
 10
10.09625
 20
35.693917
 30
0.0
 40
0.1125
  1
MAX
  7
MONOTXT
210
0.0
220
0.0
230
1.0
  0
LINE
  8
1
  6
CONTINUOUS
 62
     2
  5
4BC
 10
10.050417
 20
35.351
 30
0.0
 11
10.050417
 21
36.04775
 31
0.0
  0
SOLID
  8
1
  6
CONTINUOUS
 62
     2
  5
4BD
 10
9.937917
 20
35.867
 30
0.0
 11
9.937917
 21
35.9045
 31
0.0
 12
10.050417
 22
35.88575
 32
0.0
 13
10.050417
 23
35.88575
 33
0.0
  0
LINE
  8
1
  6
CONTINUOUS
 62
     2
  5
4BE
 10
9.937917
 20
35.88575
 30
0.0
 11
9.825417
 21
35.88575
 31
0.0
  0
LINE
  8
1
  6
CONTINUOUS
 62
     2
  5
4BF
 10
10.4265
 20
35.473833
 30
0.0
 11
10.4265
 21
36.04775
 31
0.0
  0
SOLID
  8
1
  6
CONTINUOUS
 62
     2
  5
4C0
 10
10.539
 20
35.867
 30
0.0
 11
10.539
 21
35.9045
 31
0.0
 12
10.4265
 22
35.88575
 32
0.0
 13
10.4265
 23
35.88575
 33
0.0
  0
LINE
  8
1
  6
CONTINUOUS
 62
     2
  5
4C1
 10
10.539
 20
35.88575
 30
0.0
 11
10.6515
 21
35.88575
 31
0.0
  0
SOLID
  8
2
  6
CONTINUOUS
 62
     2
  5
4C2
 10
6.951667
 20
34.718583
 30
0.0
 11
6.9875
 21
34.707417
 31
0.0
 12
7.002917
 22
34.8205
 32
0.0
 13
7.002917
 23
34.8205
 33
0.0
  0
LINE
  8
2
  6
CONTINUOUS
 62
     2
  5
4C3
 10
6.991333
 20
34.779667
 30
0.0
 11
6.836667
 21
34.280417
 31
0.0
  0
LINE
  8
2
  6
CONTINUOUS
 62
     2
  5
4C4
 10
6.836667
 20
34.280417
 30
0.0
 11
6.67425
 21
34.280417
 31
0.0
  0
LINE
  8
1
  6
CONTINUOUS
 62
   215
  5
4C5
 10
6.912167
 20
37.1615
 30
0.0
 11
6.912167
 21
37.551917
 31
0.0
  0
LINE
  8
1
  6
CONTINUOUS
 62
   215
  5
4C6
 10
7.95475
 20
37.1615
 30
0.0
 11
7.95475
 21
37.551917
 31
0.0
  0
LINE
  8
1
  6
CONTINUOUS
 62
   215
  5
4C7
 10
7.024667
 20
37.389917
 30
0.0
 11
7.245917
 21
37.389917
 31
0.0
  0
LINE
  8
1
  6
CONTINUOUS
 62
   215
  5
4C8
 10
7.84225
 20
37.389917
 30
0.0
 11
7.620917
 21
37.389917
 31
0.0
  0
SOLID
  8
1
  6
CONTINUOUS
 62
   215
  5
4C9
 10
7.024583
 20
37.371167
 30
0.0
 11
7.024583
 21
37.408667
 31
0.0
 12
6.912083
 22
37.389917
 32
0.0
 13
6.912083
 23
37.389917
 33
0.0
  0
SOLID
  8
1
  6
CONTINUOUS
 62
   215
  5
4CA
 10
7.84225
 20
37.371167
 30
0.0
 11
7.84225
 21
37.408667
 31
0.0
 12
7.95475
 22
37.389917
 32
0.0
 13
7.95475
 23
37.389917
 33
0.0
  0
TEXT
  8
1
  6
CONTINUOUS
 62
   132
  5
4CB
 10
7.358417
 20
37.333667
 30
0.0
 40
0.1125
  1
8"
  7
MONOTXT
210
0.0
220
0.0
230
1.0
  0
LINE
  8
3
  6
CONTINUOUS
 62
     7
  5
4CC
 10
6.912167
 20
37.10525
 30
0.0
 11
6.91225
 21
37.10525
 31
0.0
  0
LINE
  8
3
  6
CONTINUOUS
 62
     7
  5
4CD
 10
7.95475
 20
37.10525
 30
0.0
 11
7.954833
 21
37.10525
 31
0.0
  0
LINE
  8
3
  6
CONTINUOUS
 62
     7
  5
4CE
 10
7.95475
 20
37.389917
 30
0.0
 11
7.954833
 21
37.389917
 31
0.0
  0
LINE
  8
1
  6
CONTINUOUS
 62
   215
  5
4CF
 10
7.95475
 20
37.1615
 30
0.0
 11
7.95475
 21
37.543333
 31
0.0
  0
LINE
  8
1
  6
CONTINUOUS
 62
   215
  5
4D0
 10
8.984333
 20
37.1615
 30
0.0
 11
8.984333
 21
37.543333
 31
0.0
  0
LINE
  8
1
  6
CONTINUOUS
 62
   215
  5
4D1
 10
8.06725
 20
37.381333
 30
0.0
 11
8.148083
 21
37.381333
 31
0.0
  0
LINE
  8
1
  6
CONTINUOUS
 62
   215
  5
4D2
 10
8.871833
 20
37.381333
 30
0.0
 11
8.791
 21
37.381333
 31
0.0
  0
SOLID
  8
1
  6
CONTINUOUS
 62
   215
  5
4D3
 10
8.06725
 20
37.362583
 30
0.0
 11
8.06725
 21
37.400083
 31
0.0
 12
7.95475
 22
37.381333
 32
0.0
 13
7.95475
 23
37.381333
 33
0.0
  0
SOLID
  8
1
  6
CONTINUOUS
 62
   215
  5
4D4
 10
8.871833
 20
37.362583
 30
0.0
 11
8.871833
 21
37.400083
 31
0.0
 12
8.984333
 22
37.381333
 32
0.0
 13
8.984333
 23
37.381333
 33
0.0
  0
TEXT
  8
1
  6
CONTINUOUS
 62
   132
  5
4D5
 10
8.260583
 20
37.325083
 30
0.0
 40
0.1125
  1
6"Min
  7
MONOTXT
210
0.0
220
0.0
230
1.0
  0
LINE
  8
3
  6
CONTINUOUS
 62
     7
  5
4D6
 10
7.95475
 20
37.10525
 30
0.0
 11
7.954833
 21
37.10525
 31
0.0
  0
LINE
  8
3
  6
CONTINUOUS
 62
     7
  5
4D7
 10
8.984333
 20
37.10525
 30
0.0
 11
8.984417
 21
37.10525
 31
0.0
  0
LINE
  8
3
  6
CONTINUOUS
 62
     7
  5
4D8
 10
8.984333
 20
37.381333
 30
0.0
 11
8.984417
 21
37.381333
 31
0.0
  0
SOLID
  8
2
  6
CONTINUOUS
 62
     2
  5
4D9
 10
7.985
 20
35.7155
 30
0.0
 11
7.955333
 21
35.7385
 31
0.0
 12
7.901167
 22
35.638167
 32
0.0
 13
7.901167
 23
35.638167
 33
0.0
  0
LINE
  8
2
  6
CONTINUOUS
 62
     2
  5
4DA
 10
7.97025
 20
35.727
 30
0.0
 11
9.302583
 21
37.44125
 31
0.0
  0
LINE
  8
2
  6
CONTINUOUS
 62
     2
  5
4DB
 10
9.302583
 20
37.44125
 30
0.0
 11
9.550417
 21
37.44125
 31
0.0
  0
TEXT
  8
2
  6
CONTINUOUS
 62
   132
  5
4DC
 10
9.662917
 20
37.385
 30
0.0
 40
0.1125
  1
3/4" x 3/4" x 3 1/4" Notch
  7
MONOTXT
210
0.0
220
0.0
230
1.0
  0
LINE
  8
1
  6
CONTINUOUS
 62
   215
  5
4DD
 10
9.040583
 20
37.10525
 30
0.0
 11
10.686583
 21
37.10525
 31
0.0
  0
LINE
  8
1
  6
CONTINUOUS
 62
   215
  5
4DE
 10
9.040583
 20
36.367167
 30
0.0
 11
10.686583
 21
36.367167
 31
0.0
  0
LINE
  8
1
  6
CONTINUOUS
 62
   215
  5
4DF
 10
10.524583
 20
36.99275
 30
0.0
 11
10.524583
 21
36.904917
 31
0.0
  0
LINE
  8
1
  6
CONTINUOUS
 62
   215
  5
4E0
 10
10.524583
 20
36.479667
 30
0.0
 11
10.524583
 21
36.567417
 31
0.0
  0
SOLID
  8
1
  6
CONTINUOUS
 62
   215
  5
4E1
 10
10.543333
 20
36.99275
 30
0.0
 11
10.505833
 21
36.99275
 31
0.0
 12
10.524583
 22
37.10525
 32
0.0
 13
10.524583
 23
37.10525
 33
0.0
  0
SOLID
  8
1
  6
CONTINUOUS
 62
   215
  5
4E2
 10
10.543333
 20
36.479667
 30
0.0
 11
10.505833
 21
36.479667
 31
0.0
 12
10.524583
 22
36.367167
 32
0.0
 13
10.524583
 23
36.367167
 33
0.0
  0
TEXT
  8
1
  6
CONTINUOUS
 62
   132
  5
4E3
 10
10.246
 20
36.679917
 30
0.0
 40
0.1125
  1
VARIES
  7
MONOTXT
210
0.0
220
0.0
230
1.0
  0
LINE
  8
3
  6
CONTINUOUS
 62
     7
  5
4E4
 10
8.984333
 20
37.10525
 30
0.0
 11
8.984417
 21
37.10525
 31
0.0
  0
LINE
  8
3
  6
CONTINUOUS
 62
     7
  5
4E5
 10
8.984333
 20
36.367167
 30
0.0
 11
8.984417
 21
36.367167
 31
0.0
  0
LINE
  8
3
  6
CONTINUOUS
 62
     7
  5
4E6
 10
10.524583
 20
36.367167
 30
0.0
 11
10.524667
 21
36.367167
 31
0.0
  0
SOLID
  8
2
  6
CONTINUOUS
 62
     2
  5
4E7
 10
9.084833
 20
36.138583
 30
0.0
 11
9.047917
 21
36.14525
 31
0.0
 12
9.04625
 22
36.03125
 32
0.0
 13
9.04625
 23
36.03125
 33
0.0
  0
LINE
  8
2
  6
CONTINUOUS
 62
     2
  5
4E8
 10
9.066333
 20
36.141917
 30
0.0
 11
9.302583
 21
37.44125
 31
0.0
  0
LINE
  8
1
  6
CONTINUOUS
 62
     2
  5
4E9
 10
7.794333
 20
35.646667
 30
0.0
 11
7.525583
 21
35.646667
 31
0.0
  0
LINE
  8
1
  6
CONTINUOUS
 62
     2
  5
4EA
 10
7.794333
 20
35.165667
 30
0.0
 11
7.525583
 21
35.165667
 31
0.0
  0
LINE
  8
1
  6
CONTINUOUS
 62
     2
  5
4EB
 10
7.58025
 20
35.646667
 30
0.0
 11
7.58025
 21
35.165667
 31
0.0
  0
SOLID
  8
1
  6
CONTINUOUS
 62
     2
  5
4EC
 10
7.599
 20
35.278167
 30
0.0
 11
7.5615
 21
35.278167
 31
0.0
 12
7.58025
 22
35.165667
 32
0.0
 13
7.58025
 23
35.165667
 33
0.0
  0
SOLID
  8
1
  6
CONTINUOUS
 62
     2
  5
4ED
 10
7.599
 20
35.534167
 30
0.0
 11
7.5615
 21
35.534167
 31
0.0
 12
7.58025
 22
35.646667
 32
0.0
 13
7.58025
 23
35.646667
 33
0.0
  0
TEXT
  8
1
  6
CONTINUOUS
 62
   132
  5
4EE
 10
7.62125
 20
35.334
 30
0.0
 40
0.1125
  1
3"
  7
MONOTXT
210
0.0
220
0.0
230
1.0
  0
LINE
  8
3
  6
CONTINUOUS
 62
     7
  5
4EF
 10
7.850583
 20
35.646667
 30
0.0
 11
7.850667
 21
35.646667
 31
0.0
  0
LINE
  8
3
  6
CONTINUOUS
 62
     7
  5
4F0
 10
7.850583
 20
35.165667
 30
0.0
 11
7.850667
 21
35.165667
 31
0.0
  0
LINE
  8
3
  6
CONTINUOUS
 62
     2
  5
4F1
 10
7.591583
 20
35.183833
 30
0.0
 11
7.591667
 21
35.183833
 31
0.0
  0
LINE
  8
1
  6
CONTINUOUS
 62
     2
  5
4F2
 10
9.409417
 20
36.04825
 30
0.0
 11
9.140583
 21
36.04825
 31
0.0
  0
SOLID
  8
1
  6
CONTINUOUS
 62
     2
  5
4F3
 10
9.321333
 20
35.93575
 30
0.0
 11
9.283833
 21
35.93575
 31
0.0
 12
9.302583
 22
36.04825
 32
0.0
 13
9.302583
 23
36.04825
 33
0.0
  0
LINE
  8
1
  6
CONTINUOUS
 62
     2
  5
4F4
 10
9.302583
 20
35.67975
 30
0.0
 11
9.302583
 21
36.04825
 31
0.0
  0
SOLID
  8
1
  6
CONTINUOUS
 62
     2
  5
4F5
 10
9.321333
 20
35.67975
 30
0.0
 11
9.283833
 21
35.67975
 31
0.0
 12
9.302583
 22
35.56725
 32
0.0
 13
9.302583
 23
35.56725
 33
0.0
  0
LINE
  8
1
  6
CONTINUOUS
 62
     2
  5
4F6
 10
9.409417
 20
35.56725
 30
0.0
 11
9.140583
 21
35.56725
 31
0.0
  0
TEXT
  8
1
  6
CONTINUOUS
 62
   132
  5
4F7
 10
9.37575
 20
35.753083
 30
0.0
 40
0.1125
  1
3"
  7
MONOTXT
210
0.0
220
0.0
230
1.0
  0
TEXT
  8
2
  6
CONTINUOUS
 62
   132
  5
4F8
 10
7.1165
 20
35.558167
 30
0.0
 40
0.10125
  1
(Min)
  7
MONOTXT
210
0.0
220
0.0
230
1.0
  0
TEXT
  8
2
  6
CONTINUOUS
 62
   132
  5
4F9
 10
6.979333
 20
35.016167
 30
0.0
 40
0.10125
  1
1"
  7
MONOTXT
210
0.0
220
0.0
230
1.0
  0
TEXT
  8
2
  6
CONTINUOUS
 62
   132
  5
4FA
 10
7.199333
 20
35.021917
 30
0.0
 40
0.10125
  1
Notch
  7
MONOTXT
210
0.0
220
0.0
230
1.0
  0
TEXT
  8
2
  6
CONTINUOUS
 62
   132
  5
4FB
 10
7.209
 20
34.84575
 30
0.0
 40
0.10125
  1
Min.
  7
MONOTXT
210
0.0
220
0.0
230
1.0
  0
LINE
  8
1
  6
CONTINUOUS
 62
   215
  5
4FC
 10
7.95475
 20
35.019417
 30
0.0
 11
7.95475
 21
35.15075
 31
0.0
  0
LINE
  8
1
  6
CONTINUOUS
 62
   215
  5
4FD
 10
7.764417
 20
34.9595
 30
0.0
 11
7.764417
 21
35.15075
 31
0.0
  0
LINE
  8
1
  6
CONTINUOUS
 62
   215
  5
4FE
 10
7.651917
 20
34.98875
 30
0.0
 11
7.000417
 21
34.98875
 31
0.0
  0
LINE
  8
1
  6
CONTINUOUS
 62
   215
  5
4FF
 10
8.06725
 20
34.98875
 30
0.0
 11
8.17975
 21
34.98875
 31
0.0
  0
SOLID
  8
1
  6
CONTINUOUS
 62
   215
  5
500
 10
7.651917
 20
34.97
 30
0.0
 11
7.651917
 21
35.0075
 31
0.0
 12
7.764417
 22
34.98875
 32
0.0
 13
7.764417
 23
34.98875
 33
0.0
  0
SOLID
  8
1
  6
CONTINUOUS
 62
   215
  5
501
 10
8.06725
 20
34.97
 30
0.0
 11
8.06725
 21
35.0075
 31
0.0
 12
7.95475
 22
34.98875
 32
0.0
 13
7.95475
 23
34.98875
 33
0.0
  0
TEXT
  8
1
  6
CONTINUOUS
 62
   215
  5
502
 10
7.121583
 20
34.9325
 30
0.0
 40
0.1125
  1
   
  7
MONOTXT
210
0.0
220
0.0
230
1.0
  0
LINE
  8
3
  6
CONTINUOUS
 62
     7
  5
503
 10
7.95475
 20
34.963167
 30
0.0
 11
7.954833
 21
34.963167
 31
0.0
  0
LINE
  8
3
  6
CONTINUOUS
 62
     7
  5
504
 10
7.764417
 20
34.90325
 30
0.0
 11
7.7645
 21
34.90325
 31
0.0
  0
LINE
  8
3
  6
CONTINUOUS
 62
     7
  5
505
 10
7.764417
 20
34.98875
 30
0.0
 11
7.7645
 21
34.98875
 31
0.0
  0
SOLID
  8
2
  6
CONTINUOUS
 62
     2
  5
506
 10
8.405417
 20
35.78025
 30
0.0
 11
8.437417
 21
35.799917
 31
0.0
 12
8.362583
 22
35.886
 32
0.0
 13
8.362583
 23
35.886
 33
0.0
  0
LINE
  8
2
  6
CONTINUOUS
 62
     2
  5
507
 10
8.421417
 20
35.790083
 30
0.0
 11
8.593333
 21
35.51
 31
0.0
  0
LINE
  8
2
  6
CONTINUOUS
 62
     2
  5
508
 10
8.593333
 20
35.51
 30
0.0
 11
10.584417
 21
35.51
 31
0.0
  0
TEXT
  8
2
  6
CONTINUOUS
 62
   132
  5
509
 10
10.696917
 20
35.45375
 30
0.0
 40
0.1125
  1
13/16" Dia.Holes
  7
MONOTXT
210
0.0
220
0.0
230
1.0
  0
SOLID
  8
2
  6
CONTINUOUS
 62
     2
  5
50A
 10
8.457833
 20
35.359083
 30
0.0
 11
8.432417
 21
35.386583
 31
0.0
 12
8.362583
 22
35.296333
 32
0.0
 13
8.362583
 23
35.296333
 33
0.0
  0
LINE
  8
2
  6
CONTINUOUS
 62
     2
  5
50B
 10
8.445083
 20
35.37275
 30
0.0
 11
8.593333
 21
35.51
 31
0.0
  0
SOLID
  8
2
  6
CONTINUOUS
 62
     2
  5
50C
 10
13.095333
 20
35.973083
 30
0.0
 11
13.095333
 21
35.935583
 31
0.0
 12
13.207833
 22
35.954333
 32
0.0
 13
13.207833
 23
35.954333
 33
0.0
  0
LINE
  8
2
  6
CONTINUOUS
 62
     2
  5
50D
 10
13.095333
 20
35.954333
 30
0.0
 11
12.455833
 21
35.954333
 31
0.0
  0
LINE
  8
2
  6
CONTINUOUS
 62
     2
  5
50E
 10
12.455833
 20
35.954333
 30
0.0
 11
12.293417
 21
35.51
 31
0.0
  0
LINE
  8
2
  6
CONTINUOUS
 62
     2
  5
50F
 10
12.293417
 20
35.51
 30
0.0
 11
12.139667
 21
35.51
 31
0.0
  0
SOLID
  8
2
  6
CONTINUOUS
 62
     2
  5
510
 10
13.086833
 20
35.263833
 30
0.0
 11
13.086833
 21
35.226333
 31
0.0
 12
13.199333
 22
35.245083
 32
0.0
 13
13.199333
 23
35.245083
 33
0.0
  0
LINE
  8
2
  6
CONTINUOUS
 62
     2
  5
511
 10
13.086833
 20
35.245083
 30
0.0
 11
12.464333
 21
35.245083
 31
0.0
  0
LINE
  8
2
  6
CONTINUOUS
 62
     2
  5
512
 10
12.464333
 20
35.245083
 30
0.0
 11
12.293417
 21
35.51
 31
0.0
  0
LINE
  8
2
  6
CONTINUOUS
 62
     2
  5
513
 10
13.259083
 20
35.8945
 30
0.0
 11
13.259083
 21
35.339083
 31
0.0
  0
INSERT
  8
1
  6
CONTINUOUS
 62
   215
  5
520
  2
$D35
 10
13.259083
 20
35.621083
 30
0.0
 41
0.899999
 42
0.899999
210
0.0
220
0.0
230
1.0
  0
SOLID
  8
2
  6
CONTINUOUS
 62
     2
  5
521
 10
12.91725
 20
35.529833
 30
0.0
 11
12.9505
 21
35.512583
 31
0.0
 12
12.985583
 22
35.621083
 32
0.0
 13
12.985583
 23
35.621083
 33
0.0
  0
LINE
  8
2
  6
CONTINUOUS
 62
     2
  5
522
 10
12.933833
 20
35.52125
 30
0.0
 11
12.213833
 21
34.132333
 31
0.0
  0
LINE
  8
2
  6
CONTINUOUS
 62
     2
  5
523
 10
12.213833
 20
34.132333
 30
0.0
 11
12.034333
 21
34.132333
 31
0.0
  0
TEXT
  8
2
  6
CONTINUOUS
 62
   132
  5
524
 10
10.838583
 20
34.095167
 30
0.0
 40
0.1125
  1
1/2 Post Dia.
  7
MONOTXT
210
0.0
220
0.0
230
1.0
  0
LINE
  8
1
  6
CONTINUOUS
 62
   215
  5
525
 10
12.586917
 20
37.202583
 30
0.0
 11
12.586917
 21
37.52625
 31
0.0
  0
LINE
  8
1
  6
CONTINUOUS
 62
   215
  5
526
 10
13.9885
 20
37.202583
 30
0.0
 11
13.9885
 21
37.52625
 31
0.0
  0
LINE
  8
1
  6
CONTINUOUS
 62
   215
  5
527
 10
12.699417
 20
37.36425
 30
0.0
 11
12.96625
 21
37.36425
 31
0.0
  0
LINE
  8
1
  6
CONTINUOUS
 62
   215
  5
528
 10
13.876
 20
37.36425
 30
0.0
 11
13.609167
 21
37.36425
 31
0.0
  0
SOLID
  8
1
  6
CONTINUOUS
 62
   215
  5
529
 10
12.699417
 20
37.3455
 30
0.0
 11
12.699417
 21
37.383
 31
0.0
 12
12.586917
 22
37.36425
 32
0.0
 13
12.586917
 23
37.36425
 33
0.0
  0
SOLID
  8
1
  6
CONTINUOUS
 62
   215
  5
52A
 10
13.876
 20
37.3455
 30
0.0
 11
13.876
 21
37.383
 31
0.0
 12
13.9885
 22
37.36425
 32
0.0
 13
13.9885
 23
37.36425
 33
0.0
  0
TEXT
  8
1
  6
CONTINUOUS
 62
   132
  5
52B
 10
13.07875
 20
37.308
 30
0.0
 40
0.1125
  1
8"Min
  7
MONOTXT
210
0.0
220
0.0
230
1.0
  0
LINE
  8
3
  6
CONTINUOUS
 62
     7
  5
52C
 10
12.586917
 20
37.146333
 30
0.0
 11
12.587
 21
37.146333
 31
0.0
  0
LINE
  8
3
  6
CONTINUOUS
 62
     7
  5
52D
 10
13.9885
 20
37.146333
 30
0.0
 11
13.988583
 21
37.146333
 31
0.0
  0
LINE
  8
3
  6
CONTINUOUS
 62
     7
  5
52E
 10
13.9885
 20
37.36425
 30
0.0
 11
13.988583
 21
37.36425
 31
0.0
  0
LINE
  8
1
  6
CONTINUOUS
 62
   215
  5
52F
 10
14.04475
 20
37.146333
 30
0.0
 11
14.403833
 21
37.146333
 31
0.0
  0
LINE
  8
1
  6
CONTINUOUS
 62
   215
  5
530
 10
14.04475
 20
34.852
 30
0.0
 11
14.403833
 21
34.852
 31
0.0
  0
LINE
  8
1
  6
CONTINUOUS
 62
   215
  5
531
 10
14.241833
 20
37.033833
 30
0.0
 11
14.241833
 21
36.167917
 31
0.0
  0
LINE
  8
1
  6
CONTINUOUS
 62
   215
  5
532
 10
14.241833
 20
34.9645
 30
0.0
 11
14.241833
 21
35.830417
 31
0.0
  0
SOLID
  8
1
  6
CONTINUOUS
 62
   215
  5
533
 10
14.260583
 20
37.033833
 30
0.0
 11
14.223083
 21
37.033833
 31
0.0
 12
14.241833
 22
37.146333
 32
0.0
 13
14.241833
 23
37.146333
 33
0.0
  0
SOLID
  8
1
  6
CONTINUOUS
 62
   215
  5
534
 10
14.260583
 20
34.9645
 30
0.0
 11
14.223083
 21
34.9645
 31
0.0
 12
14.241833
 22
34.852
 32
0.0
 13
14.241833
 23
34.852
 33
0.0
  0
TEXT
  8
1
  6
CONTINUOUS
 62
   132
  5
535
 10
14.124
 20
35.942917
 30
0.0
 40
0.1125
  1
14"
  7
MONOTXT
210
0.0
220
0.0
230
1.0
  0
LINE
  8
3
  6
CONTINUOUS
 62
     7
  5
536
 10
13.9885
 20
37.146333
 30
0.0
 11
13.988583
 21
37.146333
 31
0.0
  0
LINE
  8
3
  6
CONTINUOUS
 62
     7
  5
537
 10
13.9885
 20
34.852
 30
0.0
 11
13.988583
 21
34.852
 31
0.0
  0
POINT
  8
3
  6
CONTINUOUS
 62
     7
  5
538
 10
14.241833
 20
34.852
 30
0.0
  0
LINE
  8
1
  6
CONTINUOUS
 62
   215
  5
539
 10
17.4525
 20
37.13
 30
0.0
 11
16.34225
 21
37.13
 31
0.0
  0
LINE
  8
1
  6
CONTINUOUS
 62
   215
  5
53A
 10
17.4525
 20
34.844417
 30
0.0
 11
16.34225
 21
34.844417
 31
0.0
  0
LINE
  8
1
  6
CONTINUOUS
 62
   215
  5
53B
 10
16.50425
 20
37.0175
 30
0.0
 11
16.50425
 21
36.156
 31
0.0
  0
LINE
  8
1
  6
CONTINUOUS
 62
   215
  5
53C
 10
16.50425
 20
34.956917
 30
0.0
 11
16.50425
 21
35.8185
 31
0.0
  0
SOLID
  8
1
  6
CONTINUOUS
 62
   215
  5
53D
 10
16.523
 20
37.0175
 30
0.0
 11
16.4855
 21
37.0175
 31
0.0
 12
16.50425
 22
37.13
 32
0.0
 13
16.50425
 23
37.13
 33
0.0
  0
SOLID
  8
1
  6
CONTINUOUS
 62
   215
  5
53E
 10
16.523
 20
34.956917
 30
0.0
 11
16.4855
 21
34.956917
 31
0.0
 12
16.50425
 22
34.844417
 32
0.0
 13
16.50425
 23
34.844417
 33
0.0
  0
TEXT
  8
1
  6
CONTINUOUS
 62
   132
  5
53F
 10
16.386417
 20
35.931
 30
0.0
 40
0.1125
  1
14"
  7
MONOTXT
210
0.0
220
0.0
230
1.0
  0
LINE
  8
3
  6
CONTINUOUS
 62
     7
  5
540
 10
17.50875
 20
37.13
 30
0.0
 11
17.508833
 21
37.13
 31
0.0
  0
LINE
  8
3
  6
CONTINUOUS
 62
     7
  5
541
 10
17.50875
 20
34.844417
 30
0.0
 11
17.508833
 21
34.844417
 31
0.0
  0
LINE
  8
3
  6
CONTINUOUS
 62
     7
  5
542
 10
16.50425
 20
34.844417
 30
0.0
 11
16.504333
 21
34.844417
 31
0.0
  0
LINE
  8
1
  6
CONTINUOUS
 62
   215
  5
543
 10
17.359
 20
37.036917
 30
0.0
 11
16.74375
 21
37.036917
 31
0.0
  0
LINE
  8
1
  6
CONTINUOUS
 62
   215
  5
544
 10
16.85975
 20
37.13
 30
0.0
 11
16.74375
 21
37.13
 31
0.0
  0
LINE
  8
1
  6
CONTINUOUS
 62
   215
  5
545
 10
16.90575
 20
37.2425
 30
0.0
 11
16.90575
 21
37.355
 31
0.0
  0
LINE
  8
1
  6
CONTINUOUS
 62
   215
  5
546
 10
16.90575
 20
36.924417
 30
0.0
 11
16.90575
 21
36.811917
 31
0.0
  0
LINE
  8
1
  6
CONTINUOUS
 62
   215
  5
547
 10
16.90575
 20
37.355
 30
0.0
 11
17.01825
 21
37.355
 31
0.0
  0
SOLID
  8
1
  6
CONTINUOUS
 62
   215
  5
548
 10
16.9245
 20
37.2425
 30
0.0
 11
16.887
 21
37.2425
 31
0.0
 12
16.90575
 22
37.13
 32
0.0
 13
16.90575
 23
37.13
 33
0.0
  0
SOLID
  8
1
  6
CONTINUOUS
 62
   215
  5
549
 10
16.9245
 20
36.924417
 30
0.0
 11
16.887
 21
36.924417
 31
0.0
 12
16.90575
 22
37.036917
 32
0.0
 13
16.90575
 23
37.036917
 33
0.0
  0
TEXT
  8
1
  6
CONTINUOUS
 62
   132
  5
54A
 10
17.024583
 20
37.4435
 30
0.0
 40
0.1125
  1
7/8"
  7
MONOTXT
210
0.0
220
0.0
230
1.0
  0
LINE
  8
3
  6
CONTINUOUS
 62
     7
  5
54B
 10
17.41525
 20
37.036917
 30
0.0
 11
17.415333
 21
37.036917
 31
0.0
  0
LINE
  8
3
  6
CONTINUOUS
 62
     7
  5
54C
 10
16.916
 20
37.13
 30
0.0
 11
16.916083
 21
37.13
 31
0.0
  0
LINE
  8
3
  6
CONTINUOUS
 62
     7
  5
54D
 10
16.90575
 20
37.13
 30
0.0
 11
16.905833
 21
37.13
 31
0.0
  0
LINE
  8
1
  6
CONTINUOUS
 62
   215
  5
54E
 10
17.400167
 20
34.962833
 30
0.0
 11
16.733333
 21
34.962833
 31
0.0
  0
LINE
  8
1
  6
CONTINUOUS
 62
   215
  5
54F
 10
16.951583
 20
34.844417
 30
0.0
 11
17.057333
 21
34.844417
 31
0.0
  0
LINE
  8
1
  6
CONTINUOUS
 62
   215
  5
550
 10
16.895333
 20
34.731917
 30
0.0
 11
16.895333
 21
34.619417
 31
0.0
  0
LINE
  8
1
  6
CONTINUOUS
 62
   215
  5
551
 10
16.895333
 20
35.075333
 30
0.0
 11
16.895333
 21
35.187833
 31
0.0
  0
LINE
  8
1
  6
CONTINUOUS
 62
   215
  5
552
 10
16.895333
 20
34.619417
 30
0.0
 11
16.782833
 21
34.619417
 31
0.0
  0
SOLID
  8
1
  6
CONTINUOUS
 62
   215
  5
553
 10
16.914083
 20
34.731917
 30
0.0
 11
16.876583
 21
34.731917
 31
0.0
 12
16.895333
 22
34.844417
 32
0.0
 13
16.895333
 23
34.844417
 33
0.0
  0
SOLID
  8
1
  6
CONTINUOUS
 62
   215
  5
554
 10
16.914083
 20
35.075333
 30
0.0
 11
16.876583
 21
35.075333
 31
0.0
 12
16.895333
 22
34.962833
 32
0.0
 13
16.895333
 23
34.962833
 33
0.0
  0
TEXT
  8
1
  6
CONTINUOUS
 62
   132
  5
555
 10
16.295333
 20
34.563167
 30
0.0
 40
0.1125
  1
7/8"
  7
MONOTXT
210
0.0
220
0.0
230
1.0
  0
LINE
  8
3
  6
CONTINUOUS
 62
     7
  5
556
 10
17.456417
 20
34.962833
 30
0.0
 11
17.4565
 21
34.962833
 31
0.0
  0
LINE
  8
3
  6
CONTINUOUS
 62
     7
  5
557
 10
16.895333
 20
34.844417
 30
0.0
 11
16.895417
 21
34.844417
 31
0.0
  0
LINE
  8
3
  6
CONTINUOUS
 62
     7
  5
558
 10
16.895333
 20
34.844417
 30
0.0
 11
16.895417
 21
34.844417
 31
0.0
  0
TEXT
  8
2
  6
CONTINUOUS
 62
   132
  5
559
 10
17.815583
 20
36.310083
 30
0.0
 40
0.1125
  1
5/8"
  7
MONOTXT
210
0.0
220
0.0
230
1.0
  0
TEXT
  8
2
  6
CONTINUOUS
 62
   132
  5
55A
 10
17.82025
 20
36.145917
 30
0.0
 40
0.1125
  1
Bolt
  7
MONOTXT
210
0.0
220
0.0
230
1.0
  0
SOLID
  8
2
  6
CONTINUOUS
 62
     2
  5
55B
 10
18.300833
 20
36.08225
 30
0.0
 11
18.267833
 21
36.100083
 31
0.0
 12
18.231083
 22
35.992167
 32
0.0
 13
18.231083
 23
35.992167
 33
0.0
  0
LINE
  8
2
  6
CONTINUOUS
 62
     2
  5
55C
 10
18.284333
 20
36.091167
 30
0.0
 11
18.392333
 21
36.2915
 31
0.0
  0
LINE
  8
2
  6
CONTINUOUS
 62
     2
  5
55D
 10
18.392333
 20
36.2915
 30
0.0
 11
18.254083
 21
36.2915
 31
0.0
  0
TEXT
  8
2
  6
CONTINUOUS
 62
   132
  5
55E
 10
17.81025
 20
35.579417
 30
0.0
 40
0.1125
  1
(Min)
  7
MONOTXT
210
0.0
220
0.0
230
1.0
  0
TEXT
  8
2
  6
CONTINUOUS
 62
   132
  5
55F
 10
17.546083
 20
35.2725
 30
0.0
 40
0.10125
  1
1"
  7
MONOTXT
210
0.0
220
0.0
230
1.0
  0
TEXT
  8
2
  6
CONTINUOUS
 62
   132
  5
560
 10
17.728833
 20
35.274833
 30
0.0
 40
0.10125
  1
Notch
  7
MONOTXT
210
0.0
220
0.0
230
1.0
  0
TEXT
  8
2
  6
CONTINUOUS
 62
   132
  5
561
 10
17.730083
 20
35.121333
 30
0.0
 40
0.10125
  1
Min.
  7
MONOTXT
210
0.0
220
0.0
230
1.0
  0
LINE
  8
1
  6
CONTINUOUS
 62
   215
  5
562
 10
18.547583
 20
35.411
 30
0.0
 11
18.547583
 21
35.3
 31
0.0
  0
LINE
  8
1
  6
CONTINUOUS
 62
   215
  5
563
 10
18.37775
 20
35.065333
 30
0.0
 11
18.37775
 21
35.624
 31
0.0
  0
LINE
  8
1
  6
CONTINUOUS
 62
   215
  5
564
 10
18.26175
 20
35.30975
 30
0.0
 11
18.17875
 21
35.30975
 31
0.0
  0
LINE
  8
1
  6
CONTINUOUS
 62
   215
  5
565
 10
18.6565
 20
35.30975
 30
0.0
 11
18.769
 21
35.30975
 31
0.0
  0
SOLID
  8
1
  6
CONTINUOUS
 62
   215
  5
566
 10
18.26175
 20
35.291
 30
0.0
 11
18.26175
 21
35.3285
 31
0.0
 12
18.37425
 22
35.30975
 32
0.0
 13
18.37425
 23
35.30975
 33
0.0
  0
SOLID
  8
1
  6
CONTINUOUS
 62
   215
  5
567
 10
18.6565
 20
35.291
 30
0.0
 11
18.6565
 21
35.3285
 31
0.0
 12
18.544
 22
35.30975
 32
0.0
 13
18.544
 23
35.30975
 33
0.0
  0
POINT
  8
3
  6
CONTINUOUS
 62
     7
  5
568
 10
18.547583
 20
35.46725
 30
0.0
  0
LINE
  8
3
  6
CONTINUOUS
 62
     7
  5
569
 10
18.37775
 20
35.009083
 30
0.0
 11
18.377833
 21
35.009083
 31
0.0
  0
LINE
  8
3
  6
CONTINUOUS
 62
     7
  5
56A
 10
18.37775
 20
35.462
 30
0.0
 11
18.377833
 21
35.462
 31
0.0
  0
SOLID
  8
2
  6
CONTINUOUS
 62
     2
  5
56B
 10
18.0475
 20
34.73025
 30
0.0
 11
18.08375
 21
34.720667
 31
0.0
 12
18.094583
 22
34.834167
 32
0.0
 13
18.094583
 23
34.834167
 33
0.0
  0
LINE
  8
2
  6
CONTINUOUS
 62
     2
  5
56C
 10
18.065667
 20
34.7255
 30
0.0
 11
17.950583
 21
34.29375
 31
0.0
  0
LINE
  8
2
  6
CONTINUOUS
 62
     2
  5
56D
 10
17.950583
 20
34.29375
 30
0.0
 11
17.646833
 21
34.29375
 31
0.0
  0
SOLID
  8
2
  6
CONTINUOUS
 62
     2
  5
56E
 10
20.003333
 20
35.82775
 30
0.0
 11
20.021
 21
35.86075
 31
0.0
 12
19.913
 22
35.897333
 32
0.0
 13
19.913
 23
35.897333
 33
0.0
  0
LINE
  8
2
  6
CONTINUOUS
 62
     2
  5
56F
 10
20.012167
 20
35.84425
 30
0.0
 11
20.3685
 21
35.653667
 31
0.0
  0
LINE
  8
2
  6
CONTINUOUS
 62
     2
  5
570
 10
20.3685
 20
35.653667
 30
0.0
 11
21.459417
 21
35.653667
 31
0.0
  0
TEXT
  8
2
  6
CONTINUOUS
 62
   132
  5
571
 10
21.571917
 20
35.597417
 30
0.0
 40
0.1125
  1
13/16" Dia.Hole
  7
MONOTXT
210
0.0
220
0.0
230
1.0
  0
SOLID
  8
2
  6
CONTINUOUS
 62
     2
  5
572
 10
24.036917
 20
35.912917
 30
0.0
 11
24.04825
 21
35.87725
 31
0.0
 12
24.149833
 22
35.929083
 32
0.0
 13
24.149833
 23
35.929083
 33
0.0
  0
LINE
  8
2
  6
CONTINUOUS
 62
     2
  5
573
 10
24.042667
 20
35.895083
 30
0.0
 11
23.281333
 21
35.653667
 31
0.0
  0
LINE
  8
2
  6
CONTINUOUS
 62
     2
  5
574
 10
23.281333
 20
35.653667
 30
0.0
 11
22.99525
 21
35.653667
 31
0.0
  0
LINE
  8
1
  6
CONTINUOUS
 62
   215
  5
575
 10
25.002917
 20
37.146333
 30
0.0
 11
25.487583
 21
37.146333
 31
0.0
  0
LINE
  8
1
  6
CONTINUOUS
 62
   215
  5
576
 10
25.002917
 20
34.816833
 30
0.0
 11
25.487583
 21
34.816833
 31
0.0
  0
LINE
  8
1
  6
CONTINUOUS
 62
   215
  5
577
 10
25.325583
 20
37.033833
 30
0.0
 11
25.325583
 21
36.150333
 31
0.0
  0
LINE
  8
1
  6
CONTINUOUS
 62
   215
  5
578
 10
25.325583
 20
34.929333
 30
0.0
 11
25.325583
 21
35.812833
 31
0.0
  0
SOLID
  8
1
  6
CONTINUOUS
 62
   215
  5
579
 10
25.344333
 20
37.033833
 30
0.0
 11
25.306833
 21
37.033833
 31
0.0
 12
25.325583
 22
37.146333
 32
0.0
 13
25.325583
 23
37.146333
 33
0.0
  0
SOLID
  8
1
  6
CONTINUOUS
 62
   215
  5
57A
 10
25.344333
 20
34.929333
 30
0.0
 11
25.306833
 21
34.929333
 31
0.0
 12
25.325583
 22
34.816833
 32
0.0
 13
25.325583
 23
34.816833
 33
0.0
  0
TEXT
  8
1
  6
CONTINUOUS
 62
   132
  5
57B
 10
25.207667
 20
35.925333
 30
0.0
 40
0.1125
  1
14"
  7
MONOTXT
210
0.0
220
0.0
230
1.0
  0
LINE
  8
3
  6
CONTINUOUS
 62
     7
  5
57C
 10
24.946667
 20
37.146333
 30
0.0
 11
24.94675
 21
37.146333
 31
0.0
  0
LINE
  8
3
  6
CONTINUOUS
 62
     7
  5
57D
 10
24.946667
 20
34.816833
 30
0.0
 11
24.94675
 21
34.816833
 31
0.0
  0
LINE
  8
3
  6
CONTINUOUS
 62
     7
  5
57E
 10
25.325583
 20
34.816833
 30
0.0
 11
25.325667
 21
34.816833
 31
0.0
  0
LINE
  8
2
  6
CONTINUOUS
 62
     2
  5
57F
 10
24.234583
 20
35.844333
 30
0.0
 11
24.234583
 21
35.018083
 31
0.0
  0
INSERT
  8
1
  6
CONTINUOUS
 62
   215
  5
58D
  2
$D44
 10
23.545083
 20
35.37825
 30
0.0
 41
0.899999
 42
0.899999
210
0.0
220
0.0
230
1.0
  0
LINE
  8
2
  6
CONTINUOUS
 62
     2
  5
58E
 10
23.662583
 20
35.37825
 30
0.0
 11
24.171083
 21
35.37825
 31
0.0
  0
SOLID
  8
2
  6
CONTINUOUS
 62
     2
  5
58F
 10
23.776667
 20
35.29375
 30
0.0
 11
23.80825
 21
35.273417
 31
0.0
 12
23.85325
 22
35.37825
 32
0.0
 13
23.85325
 23
35.37825
 33
0.0
  0
LINE
  8
2
  6
CONTINUOUS
 62
     2
  5
590
 10
23.7925
 20
35.2835
 30
0.0
 11
23.136417
 21
34.26125
 31
0.0
  0
LINE
  8
2
  6
CONTINUOUS
 62
     2
  5
591
 10
23.136417
 20
34.26125
 30
0.0
 11
22.71275
 21
34.26125
 31
0.0
  0
TEXT
  8
2
  6
CONTINUOUS
 62
   132
  5
592
 10
21.472917
 20
34.2185
 30
0.0
 40
0.1125
  1
1/2 Post Dia.
  7
MONOTXT
210
0.0
220
0.0
230
1.0
  0
TEXT
  8
2
  6
CONTINUOUS
 62
   132
  5
593
 10
7.081333
 20
30.47075
 30
0.0
 40
0.1125
  1
5/8"
  7
MONOTXT
210
0.0
220
0.0
230
1.0
  0
TEXT
  8
2
  6
CONTINUOUS
 62
   132
  5
594
 10
7.09025
 20
30.28775
 30
0.0
 40
0.1125
  1
Bolt
  7
MONOTXT
210
0.0
220
0.0
230
1.0
  0
SOLID
  8
2
  6
CONTINUOUS
 62
     2
  5
595
 10
7.570583
 20
30.22475
 30
0.0
 11
7.537583
 21
30.242583
 31
0.0
 12
7.500833
 22
30.134667
 32
0.0
 13
7.500833
 23
30.134667
 33
0.0
  0
LINE
  8
2
  6
CONTINUOUS
 62
     2
  5
596
 10
7.554083
 20
30.233667
 30
0.0
 11
7.662083
 21
30.434
 31
0.0
  0
LINE
  8
2
  6
CONTINUOUS
 62
     2
  5
597
 10
7.662083
 20
30.434
 30
0.0
 11
7.523833
 21
30.434
 31
0.0
  0
TEXT
  8
2
  6
CONTINUOUS
 62
   132
  5
598
 10
7.141
 20
29.628917
 30
0.0
 40
0.1125
  1
(Min)
  7
MONOTXT
210
0.0
220
0.0
230
1.0
  0
LINE
  8
1
  6
CONTINUOUS
 62
   215
  5
599
 10
6.887583
 20
31.305167
 30
0.0
 11
6.887583
 21
31.6955
 31
0.0
  0
LINE
  8
1
  6
CONTINUOUS
 62
   215
  5
59A
 10
7.915333
 20
31.305167
 30
0.0
 11
7.915333
 21
31.6955
 31
0.0
  0
LINE
  8
1
  6
CONTINUOUS
 62
   215
  5
59B
 10
7.000083
 20
31.5335
 30
0.0
 11
7.213917
 21
31.5335
 31
0.0
  0
LINE
  8
1
  6
CONTINUOUS
 62
   215
  5
59C
 10
7.802833
 20
31.5335
 30
0.0
 11
7.588917
 21
31.5335
 31
0.0
  0
SOLID
  8
1
  6
CONTINUOUS
 62
   215
  5
59D
 10
7.000083
 20
31.51475
 30
0.0
 11
7.000083
 21
31.55225
 31
0.0
 12
6.887583
 22
31.5335
 32
0.0
 13
6.887583
 23
31.5335
 33
0.0
  0
SOLID
  8
1
  6
CONTINUOUS
 62
   215
  5
59E
 10
7.802833
 20
31.51475
 30
0.0
 11
7.802833
 21
31.55225
 31
0.0
 12
7.915333
 22
31.5335
 32
0.0
 13
7.915333
 23
31.5335
 33
0.0
  0
LINE
  8
3
  6
CONTINUOUS
 62
     7
  5
59F
 10
6.887583
 20
31.248917
 30
0.0
 11
6.887667
 21
31.248917
 31
0.0
  0
LINE
  8
3
  6
CONTINUOUS
 62
     7
  5
5A0
 10
7.915333
 20
31.248917
 30
0.0
 11
7.915417
 21
31.248917
 31
0.0
  0
LINE
  8
3
  6
CONTINUOUS
 62
     7
  5
5A1
 10
7.915333
 20
31.5335
 30
0.0
 11
7.915417
 21
31.5335
 31
0.0
  0
LINE
  8
1
  6
CONTINUOUS
 62
   215
  5
5A2
 10
7.915333
 20
31.305167
 30
0.0
 11
7.915333
 21
31.6955
 31
0.0
  0
LINE
  8
1
  6
CONTINUOUS
 62
   215
  5
5A3
 10
8.952583
 20
31.305167
 30
0.0
 11
8.952583
 21
31.6955
 31
0.0
  0
LINE
  8
1
  6
CONTINUOUS
 62
   215
  5
5A4
 10
8.027833
 20
31.5335
 30
0.0
 11
8.246417
 21
31.5335
 31
0.0
  0
LINE
  8
1
  6
CONTINUOUS
 62
   215
  5
5A5
 10
8.840083
 20
31.5335
 30
0.0
 11
8.621417
 21
31.5335
 31
0.0
  0
SOLID
  8
1
  6
CONTINUOUS
 62
   215
  5
5A6
 10
8.027833
 20
31.51475
 30
0.0
 11
8.027833
 21
31.55225
 31
0.0
 12
7.915333
 22
31.5335
 32
0.0
 13
7.915333
 23
31.5335
 33
0.0
  0
SOLID
  8
1
  6
CONTINUOUS
 62
   215
  5
5A7
 10
8.840083
 20
31.51475
 30
0.0
 11
8.840083
 21
31.55225
 31
0.0
 12
8.952583
 22
31.5335
 32
0.0
 13
8.952583
 23
31.5335
 33
0.0
  0
TEXT
  8
1
  6
CONTINUOUS
 62
   132
  5
5A8
 10
8.358917
 20
31.47725
 30
0.0
 40
0.1125
  1
6"
  7
MONOTXT
210
0.0
220
0.0
230
1.0
  0
LINE
  8
3
  6
CONTINUOUS
 62
     7
  5
5A9
 10
7.915333
 20
31.248917
 30
0.0
 11
7.915417
 21
31.248917
 31
0.0
  0
LINE
  8
3
  6
CONTINUOUS
 62
     7
  5
5AA
 10
8.952583
 20
31.248917
 30
0.0
 11
8.952667
 21
31.248917
 31
0.0
  0
LINE
  8
3
  6
CONTINUOUS
 62
     7
  5
5AB
 10
8.952583
 20
31.5335
 30
0.0
 11
8.952667
 21
31.5335
 31
0.0
  0
LINE
  8
1
  6
CONTINUOUS
 62
   215
  5
5AC
 10
8.612333
 20
31.248917
 30
0.0
 11
8.736417
 21
31.248917
 31
0.0
  0
LINE
  8
1
  6
CONTINUOUS
 62
   215
  5
5AD
 10
8.381
 20
30.102417
 30
0.0
 11
8.736417
 21
30.102417
 31
0.0
  0
LINE
  8
1
  6
CONTINUOUS
 62
   215
  5
5AE
 10
8.574417
 20
31.136417
 30
0.0
 11
8.574417
 21
30.844333
 31
0.0
  0
LINE
  8
1
  6
CONTINUOUS
 62
   215
  5
5AF
 10
8.574417
 20
30.214917
 30
0.0
 11
8.574417
 21
30.506833
 31
0.0
  0
SOLID
  8
1
  6
CONTINUOUS
 62
   215
  5
5B0
 10
8.593167
 20
31.136417
 30
0.0
 11
8.555667
 21
31.136417
 31
0.0
 12
8.574417
 22
31.248917
 32
0.0
 13
8.574417
 23
31.248917
 33
0.0
  0
SOLID
  8
1
  6
CONTINUOUS
 62
   215
  5
5B1
 10
8.593167
 20
30.214917
 30
0.0
 11
8.555667
 21
30.214917
 31
0.0
 12
8.574417
 22
30.102417
 32
0.0
 13
8.574417
 23
30.102417
 33
0.0
  0
TEXT
  8
1
  6
CONTINUOUS
 62
   132
  5
5B2
 10
8.499417
 20
30.619333
 30
0.0
 40
0.1125
  1
7"
  7
MONOTXT
210
0.0
220
0.0
230
1.0
  0
LINE
  8
3
  6
CONTINUOUS
 62
     7
  5
5B3
 10
8.556083
 20
31.248917
 30
0.0
 11
8.556167
 21
31.248917
 31
0.0
  0
LINE
  8
3
  6
CONTINUOUS
 62
     7
  5
5B4
 10
8.32475
 20
30.102417
 30
0.0
 11
8.324833
 21
30.102417
 31
0.0
  0
LINE
  8
3
  6
CONTINUOUS
 62
     7
  5
5B5
 10
8.574417
 20
30.102417
 30
0.0
 11
8.5745
 21
30.102417
 31
0.0
  0
SOLID
  8
2
  6
CONTINUOUS
 62
     2
  5
5B6
 10
7.770083
 20
29.922833
 30
0.0
 11
7.807583
 21
29.922833
 31
0.0
 12
7.788833
 22
30.035333
 32
0.0
 13
7.788833
 23
30.035333
 33
0.0
  0
LINE
  8
2
  6
CONTINUOUS
 62
     2
  5
5B7
 10
7.788833
 20
29.922833
 30
0.0
 11
7.788833
 21
29.712583
 31
0.0
  0
LINE
  8
2
  6
CONTINUOUS
 62
     2
  5
5B8
 10
7.788833
 20
29.712583
 30
0.0
 11
10.425833
 21
29.712583
 31
0.0
  0
TEXT
  8
2
  6
CONTINUOUS
 62
   132
  5
5B9
 10
10.538333
 20
29.656333
 30
0.0
 40
0.1125
  1
13/16" Dia.Holes
  7
MONOTXT
210
0.0
220
0.0
230
1.0
  0
SOLID
  8
2
  6
CONTINUOUS
 62
     2
  5
5BA
 10
8.011833
 20
29.52875
 30
0.0
 11
7.980417
 21
29.549167
 31
0.0
 12
7.934917
 22
29.444667
 32
0.0
 13
7.934917
 23
29.444667
 33
0.0
  0
LINE
  8
2
  6
CONTINUOUS
 62
     2
  5
5BB
 10
7.996167
 20
29.539
 30
0.0
 11
9.384417
 21
31.67975
 31
0.0
  0
LINE
  8
2
  6
CONTINUOUS
 62
     2
  5
5BC
 10
9.384417
 20
31.67975
 30
0.0
 11
9.664583
 21
31.67975
 31
0.0
  0
TEXT
  8
2
  6
CONTINUOUS
 62
   132
  5
5BD
 10
9.777083
 20
31.6235
 30
0.0
 40
0.1125
  1
Additional Holes (to facilitate erection)
  7
MONOTXT
210
0.0
220
0.0
230
1.0
  0
LINE
  8
1
  6
CONTINUOUS
 62
   215
  5
5BE
 10
9.349333
 20
31.229
 30
0.0
 11
9.643917
 21
31.229
 31
0.0
  0
LINE
  8
1
  6
CONTINUOUS
 62
   215
  5
5BF
 10
9.43175
 20
30.503167
 30
0.0
 11
9.319917
 21
30.503167
 31
0.0
  0
LINE
  8
1
  6
CONTINUOUS
 62
   215
  5
5C0
 10
9.481917
 20
31.1165
 30
0.0
 11
9.481917
 21
31.034833
 31
0.0
  0
LINE
  8
1
  6
CONTINUOUS
 62
   215
  5
5C1
 10
9.481917
 20
30.615667
 30
0.0
 11
9.481917
 21
30.697333
 31
0.0
  0
SOLID
  8
1
  6
CONTINUOUS
 62
   215
  5
5C2
 10
9.500667
 20
31.1165
 30
0.0
 11
9.463167
 21
31.1165
 31
0.0
 12
9.481917
 22
31.229
 32
0.0
 13
9.481917
 23
31.229
 33
0.0
  0
SOLID
  8
1
  6
CONTINUOUS
 62
   215
  5
5C3
 10
9.500667
 20
30.615667
 30
0.0
 11
9.463167
 21
30.615667
 31
0.0
 12
9.481917
 22
30.503167
 32
0.0
 13
9.481917
 23
30.503167
 33
0.0
  0
TEXT
  8
1
  6
CONTINUOUS
 62
   132
  5
5C4
 10
9.203333
 20
30.809833
 30
0.0
 40
0.1125
  1
VARIES
  7
MONOTXT
210
0.0
220
0.0
230
1.0
  0
LINE
  8
3
  6
CONTINUOUS
 62
     7
  5
5C5
 10
9.293083
 20
31.229
 30
0.0
 11
9.293167
 21
31.229
 31
0.0
  0
LINE
  8
3
  6
CONTINUOUS
 62
     7
  5
5C6
 10
9.488
 20
30.503167
 30
0.0
 11
9.488083
 21
30.503167
 31
0.0
  0
LINE
  8
3
  6
CONTINUOUS
 62
     7
  5
5C7
 10
9.481917
 20
30.503167
 30
0.0
 11
9.482
 21
30.503167
 31
0.0
  0
SOLID
  8
2
  6
CONTINUOUS
 62
     2
  5
5C8
 10
8.219333
 20
29.408083
 30
0.0
 11
8.211167
 21
29.44475
 31
0.0
 12
8.105417
 22
29.401917
 32
0.0
 13
8.105417
 23
29.401917
 33
0.0
  0
SOLID
  8
2
  6
CONTINUOUS
 62
     2
  5
5C9
 10
9.201083
 20
30.154167
 30
0.0
 11
9.184333
 21
30.18775
 31
0.0
 12
9.092083
 22
30.120583
 32
0.0
 13
9.092083
 23
30.120583
 33
0.0
  0
POLYLINE
  8
2
  6
CONTINUOUS
 62
     2
  5
5CA
 66
     1
 10
0.0
 20
0.0
 30
0.0
  0
VERTEX
  8
2
  6
CONTINUOUS
 62
     2
  5
5CB
 10
9.19275
 20
30.170917
 30
0.0
  0
VERTEX
  8
2
  6
CONTINUOUS
 62
     2
  5
5CC
 10
9.272333
 20
30.210833
 30
0.0
  0
VERTEX
  8
2
  6
CONTINUOUS
 62
     2
  5
5CD
 10
9.333417
 20
30.241917
 30
0.0
  0
VERTEX
  8
2
  6
CONTINUOUS
 62
     2
  5
5CE
 10
9.38025
 20
30.266667
 30
0.0
  0
VERTEX
  8
2
  6
CONTINUOUS
 62
     2
  5
5CF
 10
9.416833
 20
30.287583
 30
0.0
  0
VERTEX
  8
2
  6
CONTINUOUS
 62
     2
  5
5D0
 10
9.44725
 20
30.307167
 30
0.0
  0
VERTEX
  8
2
  6
CONTINUOUS
 62
     2
  5
5D1
 10
9.475583
 20
30.327833
 30
0.0
  0
VERTEX
  8
2
  6
CONTINUOUS
 62
     2
  5
5D2
 10
9.506167
 20
30.352167
 30
0.0
  0
VERTEX
  8
2
  6
CONTINUOUS
 62
     2
  5
5D3
 10
9.542833
 20
30.3825
 30
0.0
  0
SEQEND
  8
2
  6
CONTINUOUS
 62
     2
  5
5D4
  0
POLYLINE
  8
2
  6
CONTINUOUS
 62
     2
  5
5D5
 66
     1
 10
0.0
 20
0.0
 30
0.0
  0
VERTEX
  8
2
  6
CONTINUOUS
 62
     2
  5
5D6
 10
8.21525
 20
29.426417
 30
0.0
  0
VERTEX
  8
2
  6
CONTINUOUS
 62
     2
  5
5D7
 10
8.310583
 20
29.448333
 30
0.0
  0
VERTEX
  8
2
  6
CONTINUOUS
 62
     2
  5
5D8
 10
8.392417
 20
29.469
 30
0.0
  0
VERTEX
  8
2
  6
CONTINUOUS
 62
     2
  5
5D9
 10
8.462667
 20
29.488333
 30
0.0
  0
VERTEX
  8
2
  6
CONTINUOUS
 62
     2
  5
5DA
 10
8.523167
 20
29.506917
 30
0.0
  0
VERTEX
  8
2
  6
CONTINUOUS
 62
     2
  5
5DB
 10
8.575917
 20
29.524833
 30
0.0
  0
VERTEX
  8
2
  6
CONTINUOUS
 62
     2
  5
5DC
 10
8.622833
 20
29.542333
 30
0.0
  0
VERTEX
  8
2
  6
CONTINUOUS
 62
     2
  5
5DD
 10
8.665583
 20
29.559917
 30
0.0
  0
VERTEX
  8
2
  6
CONTINUOUS
 62
     2
  5
5DE
 10
8.706333
 20
29.577583
 30
0.0
  0
VERTEX
  8
2
  6
CONTINUOUS
 62
     2
  5
5DF
 10
8.746583
 20
29.595667
 30
0.0
  0
VERTEX
  8
2
  6
CONTINUOUS
 62
     2
  5
5E0
 10
8.7865
 20
29.614333
 30
0.0
  0
VERTEX
  8
2
  6
CONTINUOUS
 62
     2
  5
5E1
 10
8.825917
 20
29.633667
 30
0.0
  0
VERTEX
  8
2
  6
CONTINUOUS
 62
     2
  5
5E2
 10
8.86475
 20
29.653417
 30
0.0
  0
VERTEX
  8
2
  6
CONTINUOUS
 62
     2
  5
5E3
 10
8.90275
 20
29.674
 30
0.0
  0
VERTEX
  8
2
  6
CONTINUOUS
 62
     2
  5
5E4
 10
8.939917
 20
29.69525
 30
0.0
  0
VERTEX
  8
2
  6
CONTINUOUS
 62
     2
  5
5E5
 10
8.976
 20
29.717167
 30
0.0
  0
VERTEX
  8
2
  6
CONTINUOUS
 62
     2
  5
5E6
 10
9.010917
 20
29.74
 30
0.0
  0
VERTEX
  8
2
  6
CONTINUOUS
 62
     2
  5
5E7
 10
9.0445
 20
29.763583
 30
0.0
  0
VERTEX
  8
2
  6
CONTINUOUS
 62
     2
  5
5E8
 10
9.076833
 20
29.788083
 30
0.0
  0
VERTEX
  8
2
  6
CONTINUOUS
 62
     2
  5
5E9
 10
9.107917
 20
29.813167
 30
0.0
  0
VERTEX
  8
2
  6
CONTINUOUS
 62
     2
  5
5EA
 10
9.13775
 20
29.839
 30
0.0
  0
VERTEX
  8
2
  6
CONTINUOUS
 62
     2
  5
5EB
 10
9.166583
 20
29.865333
 30
0.0
  0
VERTEX
  8
2
  6
CONTINUOUS
 62
     2
  5
5EC
 10
9.194167
 20
29.892167
 30
0.0
  0
VERTEX
  8
2
  6
CONTINUOUS
 62
     2
  5
5ED
 10
9.22075
 20
29.9195
 30
0.0
  0
VERTEX
  8
2
  6
CONTINUOUS
 62
     2
  5
5EE
 10
9.246417
 20
29.947083
 30
0.0
  0
VERTEX
  8
2
  6
CONTINUOUS
 62
     2
  5
5EF
 10
9.271083
 20
29.975
 30
0.0
  0
VERTEX
  8
2
  6
CONTINUOUS
 62
     2
  5
5F0
 10
9.295167
 20
30.00375
 30
0.0
  0
VERTEX
  8
2
  6
CONTINUOUS
 62
     2
  5
5F1
 10
9.318833
 20
30.0335
 30
0.0
  0
VERTEX
  8
2
  6
CONTINUOUS
 62
     2
  5
5F2
 10
9.342583
 20
30.064833
 30
0.0
  0
VERTEX
  8
2
  6
CONTINUOUS
 62
     2
  5
5F3
 10
9.366583
 20
30.098
 30
0.0
  0
VERTEX
  8
2
  6
CONTINUOUS
 62
     2
  5
5F4
 10
9.391167
 20
30.1335
 30
0.0
  0
VERTEX
  8
2
  6
CONTINUOUS
 62
     2
  5
5F5
 10
9.416583
 20
30.171667
 30
0.0
  0
VERTEX
  8
2
  6
CONTINUOUS
 62
     2
  5
5F6
 10
9.443333
 20
30.213
 30
0.0
  0
VERTEX
  8
2
  6
CONTINUOUS
 62
     2
  5
5F7
 10
9.471417
 20
30.257583
 30
0.0
  0
VERTEX
  8
2
  6
CONTINUOUS
 62
     2
  5
5F8
 10
9.500417
 20
30.304583
 30
0.0
  0
VERTEX
  8
2
  6
CONTINUOUS
 62
     2
  5
5F9
 10
9.53
 20
30.353
 30
0.0
  0
VERTEX
  8
2
  6
CONTINUOUS
 62
     2
  5
5FA
 10
9.559417
 20
30.401667
 30
0.0
  0
VERTEX
  8
2
  6
CONTINUOUS
 62
     2
  5
5FB
 10
9.588167
 20
30.4495
 30
0.0
  0
VERTEX
  8
2
  6
CONTINUOUS
 62
     2
  5
5FC
 10
9.615833
 20
30.4955
 30
0.0
  0
VERTEX
  8
2
  6
CONTINUOUS
 62
     2
  5
5FD
 10
9.641917
 20
30.538417
 30
0.0
  0
VERTEX
  8
2
  6
CONTINUOUS
 62
     2
  5
5FE
 10
9.665583
 20
30.577417
 30
0.0
  0
VERTEX
  8
2
  6
CONTINUOUS
 62
     2
  5
5FF
 10
9.68675
 20
30.6115
 30
0.0
  0
VERTEX
  8
2
  6
CONTINUOUS
 62
     2
  5
600
 10
9.7055
 20
30.641
 30
0.0
  0
VERTEX
  8
2
  6
CONTINUOUS
 62
     2
  5
601
 10
9.72225
 20
30.666417
 30
0.0
  0
VERTEX
  8
2
  6
CONTINUOUS
 62
     2
  5
602
 10
9.737333
 20
30.688417
 30
0.0
  0
VERTEX
  8
2
  6
CONTINUOUS
 62
     2
  5
603
 10
9.751083
 20
30.7075
 30
0.0
  0
VERTEX
  8
2
  6
CONTINUOUS
 62
     2
  5
604
 10
9.764
 20
30.72425
 30
0.0
  0
VERTEX
  8
2
  6
CONTINUOUS
 62
     2
  5
605
 10
9.776333
 20
30.73925
 30
0.0
  0
VERTEX
  8
2
  6
CONTINUOUS
 62
     2
  5
606
 10
9.788417
 20
30.753
 30
0.0
  0
VERTEX
  8
2
  6
CONTINUOUS
 62
     2
  5
607
 10
9.80075
 20
30.766
 30
0.0
  0
VERTEX
  8
2
  6
CONTINUOUS
 62
     2
  5
608
 10
9.813333
 20
30.778333
 30
0.0
  0
VERTEX
  8
2
  6
CONTINUOUS
 62
     2
  5
609
 10
9.8265
 20
30.79025
 30
0.0
  0
VERTEX
  8
2
  6
CONTINUOUS
 62
     2
  5
60A
 10
9.840167
 20
30.801583
 30
0.0
  0
VERTEX
  8
2
  6
CONTINUOUS
 62
     2
  5
60B
 10
9.854833
 20
30.812583
 30
0.0
  0
VERTEX
  8
2
  6
CONTINUOUS
 62
     2
  5
60C
 10
9.870167
 20
30.823083
 30
0.0
  0
VERTEX
  8
2
  6
CONTINUOUS
 62
     2
  5
60D
 10
9.886833
 20
30.833333
 30
0.0
  0
VERTEX
  8
2
  6
CONTINUOUS
 62
     2
  5
60E
 10
9.904667
 20
30.843333
 30
0.0
  0
VERTEX
  8
2
  6
CONTINUOUS
 62
     2
  5
60F
 10
9.923917
 20
30.853167
 30
0.0
  0
VERTEX
  8
2
  6
CONTINUOUS
 62
     2
  5
610
 10
9.944917
 20
30.862417
 30
0.0
  0
VERTEX
  8
2
  6
CONTINUOUS
 62
     2
  5
611
 10
9.968083
 20
30.871
 30
0.0
  0
VERTEX
  8
2
  6
CONTINUOUS
 62
     2
  5
612
 10
9.993833
 20
30.878667
 30
0.0
  0
VERTEX
  8
2
  6
CONTINUOUS
 62
     2
  5
613
 10
10.022417
 20
30.885
 30
0.0
  0
VERTEX
  8
2
  6
CONTINUOUS
 62
     2
  5
614
 10
10.054583
 20
30.889917
 30
0.0
  0
VERTEX
  8
2
  6
CONTINUOUS
 62
     2
  5
615
 10
10.090417
 20
30.893
 30
0.0
  0
VERTEX
  8
2
  6
CONTINUOUS
 62
     2
  5
616
 10
10.130333
 20
30.894083
 30
0.0
  0
SEQEND
  8
2
  6
CONTINUOUS
 62
     2
  5
617
  0
SOLID
  8
2
  6
CONTINUOUS
 62
     2
  5
618
 10
8.978083
 20
30.265583
 30
0.0
 11
8.942167
 21
30.276417
 31
0.0
 12
8.927667
 22
30.16325
 32
0.0
 13
8.927667
 23
30.16325
 33
0.0
  0
LINE
  8
2
  6
CONTINUOUS
 62
     2
  5
619
 10
8.960167
 20
30.271
 30
0.0
 11
9.384417
 21
31.67975
 31
0.0
  0
SOLID
  8
2
  6
CONTINUOUS
 62
     2
  5
61A
 10
8.116417
 20
29.825
 30
0.0
 11
8.146167
 21
29.847917
 31
0.0
 12
8.062833
 22
29.92575
 32
0.0
 13
8.062833
 23
29.92575
 33
0.0
  0
LINE
  8
2
  6
CONTINUOUS
 62
     2
  5
61B
 10
8.131333
 20
29.836417
 30
0.0
 11
9.104333
 21
28.567583
 31
0.0
  0
LINE
  8
2
  6
CONTINUOUS
 62
     2
  5
61C
 10
9.104333
 20
28.567583
 30
0.0
 11
9.216833
 21
28.567583
 31
0.0
  0
SOLID
  8
2
  6
CONTINUOUS
 62
     2
  5
61D
 10
8.862833
 20
29.090083
 30
0.0
 11
8.897417
 21
29.10475
 31
0.0
 12
8.836333
 22
29.201
 32
0.0
 13
8.836333
 23
29.201
 33
0.0
  0
LINE
  8
2
  6
CONTINUOUS
 62
     2
  5
61E
 10
8.880083
 20
29.097417
 30
0.0
 11
9.104333
 21
28.567583
 31
0.0
  0
SOLID
  8
2
  6
CONTINUOUS
 62
     2
  5
61F
 10
7.54825
 20
28.87875
 30
0.0
 11
7.585417
 21
28.873833
 31
0.0
 12
7.58175
 22
28.987833
 32
0.0
 13
7.58175
 23
28.987833
 33
0.0
  0
LINE
  8
2
  6
CONTINUOUS
 62
     2
  5
620
 10
7.566833
 20
28.87625
 30
0.0
 11
7.48425
 21
28.257
 31
0.0
  0
LINE
  8
2
  6
CONTINUOUS
 62
     2
  5
621
 10
7.48425
 20
28.257
 30
0.0
 11
7.37175
 21
28.257
 31
0.0
  0
SOLID
  8
2
  6
CONTINUOUS
 62
     2
  5
622
 10
9.076083
 20
28.378167
 30
0.0
 11
9.0785
 21
28.34075
 31
0.0
 12
9.189583
 22
28.366667
 32
0.0
 13
9.189583
 23
28.366667
 33
0.0
  0
LINE
  8
2
  6
CONTINUOUS
 62
     2
  5
623
 10
9.077333
 20
28.359417
 30
0.0
 11
7.48425
 21
28.257
 31
0.0
  0
TEXT
  8
2
  6
CONTINUOUS
 62
   132
  5
624
 10
10.145667
 20
31.156
 30
0.0
 40
0.1125
  1
Galvanized Steel 10d
  7
MONOTXT
210
0.0
220
0.0
230
1.0
  0
TEXT
  8
2
  6
CONTINUOUS
 62
   132
  5
625
 10
10.145667
 20
30.963083
 30
0.0
 40
0.1125
  1
Common Nails (Thru
  7
MONOTXT
210
0.0
220
0.0
230
1.0
  0
TEXT
  8
2
  6
CONTINUOUS
 62
   132
  5
626
 10
10.145667
 20
30.77025
 30
0.0
 40
0.1125
  1
Additional Post Holes).
  7
MONOTXT
210
0.0
220
0.0
230
1.0
  0
TEXT
  8
2
  6
CONTINUOUS
 62
   132
  5
627
 10
10.145667
 20
30.577417
 30
0.0
 40
0.1125
  1
Drive Nails after
  7
MONOTXT
210
0.0
220
0.0
230
1.0
  0
TEXT
  8
2
  6
CONTINUOUS
 62
   132
  5
628
 10
10.145667
 20
30.3845
 30
0.0
 40
0.1125
  1
Post Bolts are installed.
  7
MONOTXT
210
0.0
220
0.0
230
1.0
  0
TEXT
  8
2
  6
CONTINUOUS
 62
   132
  5
629
 10
9.256583
 20
28.57375
 30
0.0
 40
0.1125
  1
Circular
  7
MONOTXT
210
0.0
220
0.0
230
1.0
  0
TEXT
  8
2
  6
CONTINUOUS
 62
   132
  5
62A
 10
9.256583
 20
28.380833
 30
0.0
 40
0.1125
  1
Washer
  7
MONOTXT
210
0.0
220
0.0
230
1.0
  0
SOLID
  8
2
  6
CONTINUOUS
 62
     2
  5
62B
 10
9.019583
 20
27.848083
 30
0.0
 11
9.045917
 21
27.874833
 31
0.0
 12
8.952583
 22
27.94025
 32
0.0
 13
8.952583
 23
27.94025
 33
0.0
  0
LINE
  8
2
  6
CONTINUOUS
 62
     2
  5
62C
 10
9.03275
 20
27.8615
 30
0.0
 11
9.280917
 21
27.617583
 31
0.0
  0
SOLID
  8
2
  6
CONTINUOUS
 62
     2
  5
62D
 10
9.531083
 20
29.54425
 30
0.0
 11
9.493583
 21
29.54425
 31
0.0
 12
9.512333
 22
29.43175
 32
0.0
 13
9.512333
 23
29.43175
 33
0.0
  0
LINE
  8
2
  6
CONTINUOUS
 62
     2
  5
62E
 10
9.512333
 20
29.54425
 30
0.0
 11
9.512333
 21
29.712583
 31
0.0
  0
SOLID
  8
2
  6
CONTINUOUS
 62
     2
  5
62F
 10
12.822
 20
29.493917
 30
0.0
 11
12.786833
 21
29.507167
 31
0.0
 12
12.764583
 22
29.39525
 32
0.0
 13
12.764583
 23
29.39525
 33
0.0
  0
LINE
  8
2
  6
CONTINUOUS
 62
     2
  5
630
 10
12.804417
 20
29.500583
 30
0.0
 11
13.629417
 21
31.679167
 31
0.0
  0
LINE
  8
2
  6
CONTINUOUS
 62
     2
  5
631
 10
13.629417
 20
31.679167
 30
0.0
 11
13.2335
 21
31.679167
 31
0.0
  0
SOLID
  8
2
  6
CONTINUOUS
 62
     2
  5
632
 10
13.205
 20
30.21625
 30
0.0
 11
13.169083
 21
30.227083
 31
0.0
 12
13.154333
 22
30.114
 32
0.0
 13
13.154333
 23
30.114
 33
0.0
  0
LINE
  8
2
  6
CONTINUOUS
 62
     2
  5
633
 10
13.187
 20
30.221667
 30
0.0
 11
13.629417
 21
31.679167
 31
0.0
  0
LINE
  8
1
  6
CONTINUOUS
 62
   132
  5
634
 10
13.123917
 20
29.08325
 30
0.0
 11
13.123917
 21
28.9775
 31
0.0
  0
LINE
  8
1
  6
CONTINUOUS
 62
   132
  5
635
 10
13.279083
 20
29.089333
 30
0.0
 11
13.279083
 21
28.9775
 31
0.0
  0
LINE
  8
1
  6
CONTINUOUS
 62
   132
  5
636
 10
13.391583
 20
29.1395
 30
0.0
 11
13.504083
 21
29.1395
 31
0.0
  0
LINE
  8
1
  6
CONTINUOUS
 62
   132
  5
637
 10
13.011417
 20
29.1395
 30
0.0
 11
12.898917
 21
29.1395
 31
0.0
  0
SOLID
  8
1
  6
CONTINUOUS
 62
   132
  5
638
 10
13.391583
 20
29.12075
 30
0.0
 11
13.391583
 21
29.15825
 31
0.0
 12
13.279083
 22
29.1395
 32
0.0
 13
13.279083
 23
29.1395
 33
0.0
  0
SOLID
  8
1
  6
CONTINUOUS
 62
   132
  5
639
 10
13.011417
 20
29.12075
 30
0.0
 11
13.011417
 21
29.15825
 31
0.0
 12
13.123917
 22
29.1395
 32
0.0
 13
13.123917
 23
29.1395
 33
0.0
  0
TEXT
  8
1
  6
CONTINUOUS
 62
   132
  5
63A
 10
13.616583
 20
29.08325
 30
0.0
 40
0.1125
  1
7/8"
  7
MONOTXT
210
0.0
220
0.0
230
1.0
  0
LINE
  8
3
  6
CONTINUOUS
 62
   132
  5
63B
 10
13.123917
 20
29.1395
 30
0.0
 11
13.124
 21
29.1395
 31
0.0
  0
LINE
  8
3
  6
CONTINUOUS
 62
   132
  5
63C
 10
13.279083
 20
29.145583
 30
0.0
 11
13.279167
 21
29.145583
 31
0.0
  0
LINE
  8
3
  6
CONTINUOUS
 62
   132
  5
63D
 10
13.279083
 20
29.1395
 30
0.0
 11
13.279167
 21
29.1395
 31
0.0
  0
SOLID
  8
2
  6
CONTINUOUS
 62
     2
  5
63E
 10
12.5485
 20
30.09625
 30
0.0
 11
12.5485
 21
30.05875
 31
0.0
 12
12.661
 22
30.0775
 32
0.0
 13
12.661
 23
30.0775
 33
0.0
  0
LINE
  8
2
  6
CONTINUOUS
 62
     2
  5
63F
 10
12.5485
 20
30.0775
 30
0.0
 11
12.399083
 21
30.0775
 31
0.0
  0
LINE
  8
2
  6
CONTINUOUS
 62
     2
  5
640
 10
12.399083
 20
30.0775
 30
0.0
 11
12.167667
 21
29.699833
 31
0.0
  0
LINE
  8
2
  6
CONTINUOUS
 62
     2
  5
641
 10
12.167667
 20
29.699833
 30
0.0
 11
12.03375
 21
29.699833
 31
0.0
  0
SOLID
  8
2
  6
CONTINUOUS
 62
     2
  5
642
 10
12.93225
 20
29.371417
 30
0.0
 11
12.93225
 21
29.333833
 31
0.0
 12
13.04475
 22
29.352667
 32
0.0
 13
13.04475
 23
29.352667
 33
0.0
  0
LINE
  8
2
  6
CONTINUOUS
 62
     2
  5
643
 10
12.93225
 20
29.352667
 30
0.0
 11
12.453917
 21
29.352667
 31
0.0
  0
LINE
  8
2
  6
CONTINUOUS
 62
     2
  5
644
 10
12.453917
 20
29.352667
 30
0.0
 11
12.167667
 21
29.699833
 31
0.0
  0
LINE
  8
1
  6
CONTINUOUS
 62
   215
  5
645
 10
12.732083
 20
30.178917
 30
0.0
 11
12.732083
 21
30.29075
 31
0.0
  0
LINE
  8
1
  6
CONTINUOUS
 62
   215
  5
646
 10
12.58125
 20
30.328583
 30
0.0
 11
12.58125
 21
30.440417
 31
0.0
  0
LINE
  8
1
  6
CONTINUOUS
 62
   215
  5
647
 10
12.466833
 20
30.21525
 30
0.0
 11
12.354333
 21
30.21525
 31
0.0
  0
LINE
  8
1
  6
CONTINUOUS
 62
   215
  5
648
 10
12.84475
 20
30.21525
 30
0.0
 11
12.95725
 21
30.21525
 31
0.0
  0
SOLID
  8
1
  6
CONTINUOUS
 62
   215
  5
649
 10
12.466833
 20
30.1965
 30
0.0
 11
12.466833
 21
30.234
 31
0.0
 12
12.579333
 22
30.21525
 32
0.0
 13
12.579333
 23
30.21525
 33
0.0
  0
SOLID
  8
1
  6
CONTINUOUS
 62
   215
  5
64A
 10
12.84475
 20
30.1965
 30
0.0
 11
12.84475
 21
30.234
 31
0.0
 12
12.73225
 22
30.21525
 32
0.0
 13
12.73225
 23
30.21525
 33
0.0
  0
TEXT
  8
1
  6
CONTINUOUS
 62
   132
  5
64B
 10
11.94175
 20
30.159
 30
0.0
 40
0.1125
  1
7/8
  7
MONOTXT
210
0.0
220
0.0
230
1.0
  0
LINE
  8
3
  6
CONTINUOUS
 62
     7
  5
64C
 10
12.734167
 20
30.272333
 30
0.0
 11
12.73425
 21
30.272333
 31
0.0
  0
LINE
  8
3
  6
CONTINUOUS
 62
     7
  5
64D
 10
12.58125
 20
30.272333
 30
0.0
 11
12.581333
 21
30.272333
 31
0.0
  0
LINE
  8
3
  6
CONTINUOUS
 62
     7
  5
64E
 10
12.58125
 20
30.278417
 30
0.0
 11
12.581333
 21
30.278417
 31
0.0
  0
SOLID
  8
2
  6
CONTINUOUS
 62
     2
  5
64F
 10
11.780833
 20
31.3985
 30
0.0
 11
11.780833
 21
31.436
 31
0.0
 12
11.668333
 22
31.41725
 32
0.0
 13
11.668333
 23
31.41725
 33
0.0
  0
LINE
  8
2
  6
CONTINUOUS
 62
     2
  5
650
 10
11.780833
 20
31.41725
 30
0.0
 11
12.228667
 21
31.41725
 31
0.0
  0
TEXT
  8
2
  6
CONTINUOUS
 62
   132
  5
651
 10
12.341167
 20
31.361
 30
0.0
 40
0.1125
  1
Traffic Flow
  7
MONOTXT
210
0.0
220
0.0
230
1.0
  0
SOLID
  8
2
  6
CONTINUOUS
 62
     2
  5
652
 10
6.731583
 20
42.716833
 30
0.0
 11
6.6985
 21
42.734667
 31
0.0
 12
6.661833
 22
42.626667
 32
0.0
 13
6.661833
 23
42.626667
 33
0.0
  0
LINE
  8
2
  6
CONTINUOUS
 62
     2
  5
653
 10
6.715083
 20
42.72575
 30
0.0
 11
6.780417
 21
42.8475
 31
0.0
  0
LINE
  8
2
  6
CONTINUOUS
 62
     2
  5
654
 10
6.780417
 20
42.8475
 30
0.0
 11
6.902333
 21
42.8475
 31
0.0
  0
TEXT
  8
2
  6
CONTINUOUS
 62
   132
  5
655
 10
21.665417
 20
42.76475
 30
0.0
 40
0.1125
  1
1 1/4"
  7
MONOTXT
210
0.0
220
0.0
230
1.0
  0
TEXT
  8
2
  6
CONTINUOUS
 62
   132
  5
656
 10
21.665417
 20
42.571833
 30
0.0
 40
0.1125
  1
Max.
  7
MONOTXT
210
0.0
220
0.0
230
1.0
  0
LINE
  8
1
  6
CONTINUOUS
 62
   215
  5
657
 10
21.051583
 20
43.2425
 30
0.0
 11
22.541917
 21
43.2425
 31
0.0
  0
LINE
  8
1
  6
CONTINUOUS
 62
   215
  5
658
 10
21.438
 20
42.07775
 30
0.0
 11
22.541917
 21
42.07775
 31
0.0
  0
LINE
  8
1
  6
CONTINUOUS
 62
   215
  5
659
 10
22.39075
 20
43.13
 30
0.0
 11
22.39075
 21
42.828917
 31
0.0
  0
LINE
  8
1
  6
CONTINUOUS
 62
   215
  5
65A
 10
22.39075
 20
42.19025
 30
0.0
 11
22.39075
 21
42.491417
 31
0.0
  0
SOLID
  8
1
  6
CONTINUOUS
 62
   215
  5
65B
 10
22.4095
 20
43.13
 30
0.0
 11
22.372
 21
43.13
 31
0.0
 12
22.39075
 22
43.2425
 32
0.0
 13
22.39075
 23
43.2425
 33
0.0
  0
SOLID
  8
1
  6
CONTINUOUS
 62
   215
  5
65C
 10
22.4095
 20
42.19025
 30
0.0
 11
22.372
 21
42.19025
 31
0.0
 12
22.39075
 22
42.07775
 32
0.0
 13
22.39075
 23
42.07775
 33
0.0
  0
TEXT
  8
1
  6
CONTINUOUS
 62
   132
  5
65D
 10
22.31575
 20
42.603917
 30
0.0
 40
0.1125
  1
7"
  7
MONOTXT
210
0.0
220
0.0
230
1.0
  0
LINE
  8
3
  6
CONTINUOUS
 62
     7
  5
65E
 10
20.995333
 20
43.2425
 30
0.0
 11
20.995417
 21
43.2425
 31
0.0
  0
LINE
  8
3
  6
CONTINUOUS
 62
     7
  5
65F
 10
21.38175
 20
42.07775
 30
0.0
 11
21.381833
 21
42.07775
 31
0.0
  0
LINE
  8
3
  6
CONTINUOUS
 62
     7
  5
660
 10
22.39075
 20
42.07775
 30
0.0
 11
22.390833
 21
42.07775
 31
0.0
  0
TEXT
  8
2
  6
CONTINUOUS
 62
   132
  5
661
 10
11.023917
 20
41.83325
 30
0.0
 40
0.1125
  1
1 1/4 Max.
  7
MONOTXT
210
0.0
220
0.0
230
1.0
  0
LINE
  8
1
  6
CONTINUOUS
 62
   215
  5
662
 10
23.545083
 20
37.202583
 30
0.0
 11
23.545083
 21
37.542333
 31
0.0
  0
LINE
  8
1
  6
CONTINUOUS
 62
   215
  5
663
 10
24.946667
 20
37.202583
 30
0.0
 11
24.946667
 21
37.542333
 31
0.0
  0
LINE
  8
1
  6
CONTINUOUS
 62
   215
  5
664
 10
23.657583
 20
37.380333
 30
0.0
 11
23.924417
 21
37.380333
 31
0.0
  0
LINE
  8
1
  6
CONTINUOUS
 62
   215
  5
665
 10
24.834167
 20
37.380333
 30
0.0
 11
24.567333
 21
37.380333
 31
0.0
  0
SOLID
  8
1
  6
CONTINUOUS
 62
   215
  5
666
 10
23.657583
 20
37.361583
 30
0.0
 11
23.657583
 21
37.399083
 31
0.0
 12
23.545083
 22
37.380333
 32
0.0
 13
23.545083
 23
37.380333
 33
0.0
  0
SOLID
  8
1
  6
CONTINUOUS
 62
   215
  5
667
 10
24.834167
 20
37.361583
 30
0.0
 11
24.834167
 21
37.399083
 31
0.0
 12
24.946667
 22
37.380333
 32
0.0
 13
24.946667
 23
37.380333
 33
0.0
  0
TEXT
  8
1
  6
CONTINUOUS
 62
   132
  5
668
 10
24.036917
 20
37.324083
 30
0.0
 40
0.1125
  1
8" Min
  7
MONOTXT
210
0.0
220
0.0
230
1.0
  0
LINE
  8
3
  6
CONTINUOUS
 62
     7
  5
669
 10
23.545083
 20
37.146333
 30
0.0
 11
23.545167
 21
37.146333
 31
0.0
  0
LINE
  8
3
  6
CONTINUOUS
 62
     7
  5
66A
 10
24.946667
 20
37.146333
 30
0.0
 11
24.94675
 21
37.146333
 31
0.0
  0
LINE
  8
3
  6
CONTINUOUS
 62
     7
  5
66B
 10
24.946667
 20
37.380333
 30
0.0
 11
24.94675
 21
37.380333
 31
0.0
  0
LINE
  8
1
  6
CONTINUOUS
 62
   215
  5
66C
 10
20.680667
 20
37.132583
 30
0.0
 11
22.260833
 21
37.132583
 31
0.0
  0
LINE
  8
1
  6
CONTINUOUS
 62
   215
  5
66D
 10
21.092
 20
35.992667
 30
0.0
 11
22.260833
 21
35.992667
 31
0.0
  0
LINE
  8
1
  6
CONTINUOUS
 62
   215
  5
66E
 10
22.15625
 20
37.020083
 30
0.0
 11
22.15625
 21
36.731333
 31
0.0
  0
LINE
  8
1
  6
CONTINUOUS
 62
   215
  5
66F
 10
22.15625
 20
36.105167
 30
0.0
 11
22.15625
 21
36.393833
 31
0.0
  0
SOLID
  8
1
  6
CONTINUOUS
 62
   215
  5
670
 10
22.175
 20
37.020083
 30
0.0
 11
22.1375
 21
37.020083
 31
0.0
 12
22.15625
 22
37.132583
 32
0.0
 13
22.15625
 23
37.132583
 33
0.0
  0
SOLID
  8
1
  6
CONTINUOUS
 62
   215
  5
671
 10
22.175
 20
36.105167
 30
0.0
 11
22.1375
 21
36.105167
 31
0.0
 12
22.15625
 22
35.992667
 32
0.0
 13
22.15625
 23
35.992667
 33
0.0
  0
TEXT
  8
1
  6
CONTINUOUS
 62
   132
  5
672
 10
22.08125
 20
36.506333
 30
0.0
 40
0.1125
  1
7"
  7
MONOTXT
210
0.0
220
0.0
230
1.0
  0
LINE
  8
3
  6
CONTINUOUS
 62
     7
  5
673
 10
20.624417
 20
37.132583
 30
0.0
 11
20.6245
 21
37.132583
 31
0.0
  0
LINE
  8
3
  6
CONTINUOUS
 62
     7
  5
674
 10
21.03575
 20
35.992667
 30
0.0
 11
21.035833
 21
35.992667
 31
0.0
  0
LINE
  8
3
  6
CONTINUOUS
 62
     7
  5
675
 10
22.15625
 20
35.992667
 30
0.0
 11
22.156333
 21
35.992667
 31
0.0
  0
LINE
  8
1
  6
CONTINUOUS
 62
     2
  5
676
 10
20.644417
 20
36.153
 30
0.0
 11
20.644417
 21
36.849917
 31
0.0
  0
SOLID
  8
1
  6
CONTINUOUS
 62
     2
  5
677
 10
20.531833
 20
36.669167
 30
0.0
 11
20.531833
 21
36.706667
 31
0.0
 12
20.644333
 22
36.687917
 32
0.0
 13
20.644333
 23
36.687917
 33
0.0
  0
LINE
  8
1
  6
CONTINUOUS
 62
     2
  5
678
 10
20.531917
 20
36.687917
 30
0.0
 11
20.419417
 21
36.687917
 31
0.0
  0
LINE
  8
1
  6
CONTINUOUS
 62
     2
  5
679
 10
21.0205
 20
36.275833
 30
0.0
 11
21.0205
 21
36.849917
 31
0.0
  0
SOLID
  8
1
  6
CONTINUOUS
 62
     2
  5
67A
 10
21.132917
 20
36.669167
 30
0.0
 11
21.132917
 21
36.706667
 31
0.0
 12
21.020417
 22
36.687917
 32
0.0
 13
21.020417
 23
36.687917
 33
0.0
  0
LINE
  8
1
  6
CONTINUOUS
 62
     2
  5
67B
 10
21.133
 20
36.687917
 30
0.0
 11
21.2455
 21
36.687917
 31
0.0
  0
TEXT
  8
2
  6
CONTINUOUS
 62
   132
  5
67C
 10
21.285667
 20
36.620333
 30
0.0
 40
0.1125
  1
1 1/4
  7
MONOTXT
210
0.0
220
0.0
230
1.0
  0
TEXT
  8
2
  6
CONTINUOUS
 62
   132
  5
67D
 10
21.285667
 20
36.4275
 30
0.0
 40
0.1125
  1
Max.
  7
MONOTXT
210
0.0
220
0.0
230
1.0
  0
LINE
  8
2
  6
CONTINUOUS
 62
     2
  5
67E
 10
11.3345
 20
43.354667
 30
0.0
 11
11.216583
 21
43.354667
 31
0.0
  0
TEXT
  8
2
  6
CONTINUOUS
 62
   132
  5
67F
 10
30.775667
 20
40.647583
 30
0.0
 40
0.3125
  1
NOTES
  7
MONOTXT
210
0.0
220
0.0
230
1.0
  0
TEXT
  8
2
  6
CONTINUOUS
 62
   132
  5
680
 10
28.0585
 20
40.220417
 30
0.0
 40
0.133
  1
      The blocks shall be bolted to the steel posts in the same
  7
MONOTXT
210
0.0
220
0.0
230
1.0
  0
TEXT
  8
2
  6
CONTINUOUS
 62
   132
  5
681
 10
28.071583
 20
38.466667
 30
0.0
 40
0.133
  1
shall apply to this sheet.
  7
MONOTXT
210
0.0
220
0.0
230
1.0
  0
POLYLINE
  8
1
  6
DOT
 62
     2
  5
682
 66
     1
 10
0.0
 20
0.0
 30
0.0
  0
VERTEX
  8
1
  6
DOT
 62
     2
  5
683
 10
18.22475
 20
34.72425
 30
0.0
  0
VERTEX
  8
1
  6
DOT
 62
     2
  5
684
 10
18.154022
 20
34.80636
 30
0.0
 42
-0.414214
  0
VERTEX
  8
1
  6
DOT
 62
     2
  5
685
 10
18.155
 20
34.819083
 30
0.0
  0
VERTEX
  8
1
  6
DOT
 62
     2
  5
686
 10
18.166443
 20
34.828878
 30
0.0
 42
-0.414214
  0
VERTEX
  8
1
  6
DOT
 62
     2
  5
687
 10
18.179083
 20
34.827917
 30
0.0
  0
VERTEX
  8
1
  6
DOT
 62
     2
  5
688
 10
18.194083
 20
34.810583
 30
0.0
  0
VERTEX
  8
1
  6
DOT
 62
     2
  5
689
 10
18.193997
 20
34.810635
 30
0.0
 42
0.414214
  0
VERTEX
  8
1
  6
DOT
 62
     2
  5
68A
 10
18.20675
 20
34.809667
 30
0.0
  0
VERTEX
  8
1
  6
DOT
 62
     2
  5
68B
 10
18.650333
 20
35.200083
 30
0.0
  0
VERTEX
  8
1
  6
DOT
 62
     2
  5
68C
 10
18.726083
 20
35.243667
 30
0.0
  0
VERTEX
  8
1
  6
DOT
 62
     2
  5
68D
 10
18.676417
 20
35.169833
 30
0.0
  0
VERTEX
  8
1
  6
DOT
 62
     2
  5
68E
 10
18.233118
 20
34.779678
 30
0.0
 42
0.414214
  0
VERTEX
  8
1
  6
DOT
 62
     2
  5
68F
 10
18.23225
 20
34.767
 30
0.0
  0
VERTEX
  8
1
  6
DOT
 62
     2
  5
690
 10
18.250161
 20
34.746182
 30
0.0
 42
-0.414214
  0
VERTEX
  8
1
  6
DOT
 62
     2
  5
691
 10
18.249167
 20
34.7335
 30
0.0
  0
VERTEX
  8
1
  6
DOT
 62
     2
  5
692
 10
18.23744
 20
34.723364
 30
0.0
 42
-0.414214
  0
VERTEX
  8
1
  6
DOT
 62
     2
  5
693
 10
18.224747
 20
34.72431
 30
0.0
  0
SEQEND
  8
1
  6
DOT
 62
     2
  5
694
  0
POLYLINE
  8
1
  6
DOT
 62
     2
  5
695
 66
     1
 10
0.0
 20
0.0
 30
0.0
  0
VERTEX
  8
1
  6
DOT
 62
     2
  5
696
 10
7.5585
 20
40.576333
 30
0.0
  0
VERTEX
  8
1
  6
DOT
 62
     2
  5
697
 10
7.487772
 20
40.658443
 30
0.0
 42
-0.414214
  0
VERTEX
  8
1
  6
DOT
 62
     2
  5
698
 10
7.48875
 20
40.671167
 30
0.0
  0
VERTEX
  8
1
  6
DOT
 62
     2
  5
699
 10
7.500193
 20
40.680961
 30
0.0
 42
-0.414214
  0
VERTEX
  8
1
  6
DOT
 62
     2
  5
69A
 10
7.512833
 20
40.68
 30
0.0
  0
VERTEX
  8
1
  6
DOT
 62
     2
  5
69B
 10
7.527833
 20
40.662667
 30
0.0
  0
VERTEX
  8
1
  6
DOT
 62
     2
  5
69C
 10
7.527747
 20
40.662718
 30
0.0
 42
0.414214
  0
VERTEX
  8
1
  6
DOT
 62
     2
  5
69D
 10
7.5405
 20
40.66175
 30
0.0
  0
VERTEX
  8
1
  6
DOT
 62
     2
  5
69E
 10
7.984083
 20
41.052167
 30
0.0
  0
VERTEX
  8
1
  6
DOT
 62
     2
  5
69F
 10
8.059833
 20
41.09575
 30
0.0
  0
VERTEX
  8
1
  6
DOT
 62
     2
  5
6A0
 10
8.010167
 20
41.021917
 30
0.0
  0
VERTEX
  8
1
  6
DOT
 62
     2
  5
6A1
 10
7.566868
 20
40.631761
 30
0.0
 42
0.414214
  0
VERTEX
  8
1
  6
DOT
 62
     2
  5
6A2
 10
7.566
 20
40.619083
 30
0.0
  0
VERTEX
  8
1
  6
DOT
 62
     2
  5
6A3
 10
7.583911
 20
40.598265
 30
0.0
 42
-0.414214
  0
VERTEX
  8
1
  6
DOT
 62
     2
  5
6A4
 10
7.582917
 20
40.585583
 30
0.0
  0
VERTEX
  8
1
  6
DOT
 62
     2
  5
6A5
 10
7.57119
 20
40.575447
 30
0.0
 42
-0.414214
  0
VERTEX
  8
1
  6
DOT
 62
     2
  5
6A6
 10
7.558497
 20
40.576393
 30
0.0
  0
SEQEND
  8
1
  6
DOT
 62
     2
  5
6A7
  0
POLYLINE
  8
1
  6
DOT
 62
     2
  5
6A8
 66
     1
 10
0.0
 20
0.0
 30
0.0
  0
VERTEX
  8
1
  6
DOT
 62
     2
  5
6A9
 10
9.654917
 20
40.017333
 30
0.0
  0
VERTEX
  8
1
  6
DOT
 62
     2
  5
6AA
 10
9.725644
 20
40.099443
 30
0.0
 42
0.414214
  0
VERTEX
  8
1
  6
DOT
 62
     2
  5
6AB
 10
9.724667
 20
40.112167
 30
0.0
  0
VERTEX
  8
1
  6
DOT
 62
     2
  5
6AC
 10
9.713223
 20
40.121961
 30
0.0
 42
0.414214
  0
VERTEX
  8
1
  6
DOT
 62
     2
  5
6AD
 10
9.700583
 20
40.121
 30
0.0
  0
VERTEX
  8
1
  6
DOT
 62
     2
  5
6AE
 10
9.685583
 20
40.103667
 30
0.0
  0
VERTEX
  8
1
  6
DOT
 62
     2
  5
6AF
 10
9.685669
 20
40.103718
 30
0.0
 42
-0.414214
  0
VERTEX
  8
1
  6
DOT
 62
     2
  5
6B0
 10
9.672917
 20
40.10275
 30
0.0
  0
VERTEX
  8
1
  6
DOT
 62
     2
  5
6B1
 10
9.229333
 20
40.493167
 30
0.0
  0
VERTEX
  8
1
  6
DOT
 62
     2
  5
6B2
 10
9.153583
 20
40.53675
 30
0.0
  0
VERTEX
  8
1
  6
DOT
 62
     2
  5
6B3
 10
9.20325
 20
40.462917
 30
0.0
  0
VERTEX
  8
1
  6
DOT
 62
     2
  5
6B4
 10
9.646548
 20
40.072761
 30
0.0
 42
-0.414214
  0
VERTEX
  8
1
  6
DOT
 62
     2
  5
6B5
 10
9.647417
 20
40.060083
 30
0.0
  0
VERTEX
  8
1
  6
DOT
 62
     2
  5
6B6
 10
9.629506
 20
40.039265
 30
0.0
 42
0.414214
  0
VERTEX
  8
1
  6
DOT
 62
     2
  5
6B7
 10
9.6305
 20
40.026583
 30
0.0
  0
VERTEX
  8
1
  6
DOT
 62
     2
  5
6B8
 10
9.642227
 20
40.016447
 30
0.0
 42
0.414214
  0
VERTEX
  8
1
  6
DOT
 62
     2
  5
6B9
 10
9.654919
 20
40.017393
 30
0.0
  0
SEQEND
  8
1
  6
DOT
 62
     2
  5
6BA
  0
POLYLINE
  8
1
  6
DOT
 62
     2
  5
6BB
 66
     1
 10
0.0
 20
0.0
 30
0.0
  0
VERTEX
  8
1
  6
DOT
 62
     2
  5
6BC
 10
9.375667
 20
34.0035
 30
0.0
  0
VERTEX
  8
1
  6
DOT
 62
     2
  5
6BD
 10
9.446394
 20
34.08561
 30
0.0
 42
0.414214
  0
VERTEX
  8
1
  6
DOT
 62
     2
  5
6BE
 10
9.445417
 20
34.098333
 30
0.0
  0
VERTEX
  8
1
  6
DOT
 62
     2
  5
6BF
 10
9.433973
 20
34.108128
 30
0.0
 42
0.414214
  0
VERTEX
  8
1
  6
DOT
 62
     2
  5
6C0
 10
9.421333
 20
34.107167
 30
0.0
  0
VERTEX
  8
1
  6
DOT
 62
     2
  5
6C1
 10
9.406333
 20
34.089833
 30
0.0
  0
VERTEX
  8
1
  6
DOT
 62
     2
  5
6C2
 10
9.406419
 20
34.089885
 30
0.0
 42
-0.414214
  0
VERTEX
  8
1
  6
DOT
 62
     2
  5
6C3
 10
9.393667
 20
34.088917
 30
0.0
  0
VERTEX
  8
1
  6
DOT
 62
     2
  5
6C4
 10
8.950083
 20
34.479333
 30
0.0
  0
VERTEX
  8
1
  6
DOT
 62
     2
  5
6C5
 10
8.874333
 20
34.522917
 30
0.0
  0
VERTEX
  8
1
  6
DOT
 62
     2
  5
6C6
 10
8.924
 20
34.449083
 30
0.0
  0
VERTEX
  8
1
  6
DOT
 62
     2
  5
6C7
 10
9.367298
 20
34.058928
 30
0.0
 42
-0.414214
  0
VERTEX
  8
1
  6
DOT
 62
     2
  5
6C8
 10
9.368167
 20
34.04625
 30
0.0
  0
VERTEX
  8
1
  6
DOT
 62
     2
  5
6C9
 10
9.350256
 20
34.025432
 30
0.0
 42
0.414214
  0
VERTEX
  8
1
  6
DOT
 62
     2
  5
6CA
 10
9.35125
 20
34.01275
 30
0.0
  0
VERTEX
  8
1
  6
DOT
 62
     2
  5
6CB
 10
9.362977
 20
34.002614
 30
0.0
 42
0.414214
  0
VERTEX
  8
1
  6
DOT
 62
     2
  5
6CC
 10
9.375669
 20
34.00356
 30
0.0
  0
SEQEND
  8
1
  6
DOT
 62
     2
  5
6CD
  0
POLYLINE
  8
1
  6
DOT
 62
     2
  5
6CE
 66
     1
 10
0.0
 20
0.0
 30
0.0
  0
VERTEX
  8
1
  6
DOT
 62
     2
  5
6CF
 10
7.573167
 20
34.6655
 30
0.0
  0
VERTEX
  8
1
  6
DOT
 62
     2
  5
6D0
 10
7.502439
 20
34.74761
 30
0.0
 42
-0.414214
  0
VERTEX
  8
1
  6
DOT
 62
     2
  5
6D1
 10
7.503417
 20
34.760333
 30
0.0
  0
VERTEX
  8
1
  6
DOT
 62
     2
  5
6D2
 10
7.51486
 20
34.770128
 30
0.0
 42
-0.414214
  0
VERTEX
  8
1
  6
DOT
 62
     2
  5
6D3
 10
7.5275
 20
34.769167
 30
0.0
  0
VERTEX
  8
1
  6
DOT
 62
     2
  5
6D4
 10
7.5425
 20
34.751833
 30
0.0
  0
VERTEX
  8
1
  6
DOT
 62
     2
  5
6D5
 10
7.542414
 20
34.751885
 30
0.0
 42
0.414214
  0
VERTEX
  8
1
  6
DOT
 62
     2
  5
6D6
 10
7.555167
 20
34.750917
 30
0.0
  0
VERTEX
  8
1
  6
DOT
 62
     2
  5
6D7
 10
7.99875
 20
35.141333
 30
0.0
  0
VERTEX
  8
1
  6
DOT
 62
     2
  5
6D8
 10
8.0745
 20
35.184917
 30
0.0
  0
VERTEX
  8
1
  6
DOT
 62
     2
  5
6D9
 10
8.024833
 20
35.111083
 30
0.0
  0
VERTEX
  8
1
  6
DOT
 62
     2
  5
6DA
 10
7.581535
 20
34.720928
 30
0.0
 42
0.414214
  0
VERTEX
  8
1
  6
DOT
 62
     2
  5
6DB
 10
7.580667
 20
34.70825
 30
0.0
  0
VERTEX
  8
1
  6
DOT
 62
     2
  5
6DC
 10
7.598578
 20
34.687432
 30
0.0
 42
-0.414214
  0
VERTEX
  8
1
  6
DOT
 62
     2
  5
6DD
 10
7.597583
 20
34.67475
 30
0.0
  0
VERTEX
  8
1
  6
DOT
 62
     2
  5
6DE
 10
7.585857
 20
34.664614
 30
0.0
 42
-0.414214
  0
VERTEX
  8
1
  6
DOT
 62
     2
  5
6DF
 10
7.573164
 20
34.66556
 30
0.0
  0
SEQEND
  8
1
  6
DOT
 62
     2
  5
6E0
  0
TEXT
  8
2
  6
CONTINUOUS
 62
   132
  5
6E1
 10
28.0585
 20
40.006083
 30
0.0
 40
0.133
  1
manner when the beams are at the same elevation as they would
  7
MONOTXT
210
0.0
220
0.0
230
1.0
  0
TEXT
  8
2
  6
CONTINUOUS
 62
   132
  5
6E2
 10
28.0585
 20
39.791833
 30
0.0
 40
0.133
  1
when the beams are at different elevations.
  7
MONOTXT
210
0.0
220
0.0
230
1.0
  0
TEXT
  8
2
  6
CONTINUOUS
 62
   132
  5
6E3
 10
28.0585
 20
39.434333
 30
0.0
 40
0.133
  1
      The standard bolt shall be used for wood guardrail post when
  7
MONOTXT
210
0.0
220
0.0
230
1.0
  0
TEXT
  8
2
  6
CONTINUOUS
 62
   132
  5
6E4
 10
28.0585
 20
39.220083
 30
0.0
 40
0.133
  1
possible.
  7
MONOTXT
210
0.0
220
0.0
230
1.0
  0
TEXT
  8
2
  6
CONTINUOUS
 62
   132
  5
6E5
 10
32.096833
 20
36.805
 30
0.0
 40
0.133
  1
the top 14", is angularly sliced
  7
MONOTXT
210
0.0
220
0.0
230
1.0
  0
TEXT
  8
2
  6
CONTINUOUS
 62
   132
  5
6E6
 10
28.931417
 20
37.913417
 30
0.0
 40
0.133
  1
The 1" (minimum) notch dimension as shown for round Wooden 
  7
MONOTXT
210
0.0
220
0.0
230
1.0
  0
TEXT
  8
2
  6
CONTINUOUS
 62
   132
  5
6E7
 10
28.023
 20
37.66275
 30
0.0
 40
0.133
  1
Posts shall be located along the vertical centerline for the entire upper
  7
MONOTXT
210
0.0
220
0.0
230
1.0
  0
TEXT
  8
2
  6
CONTINUOUS
 62
   132
  5
6E8
 10
27.807583
 20
37.36625
 30
0.0
 40
0.133
  1
 14" of the post and shall apply regardless of whether the Post is
  7
MONOTXT
210
0.0
220
0.0
230
1.0
  0
TEXT
  8
2
  6
CONTINUOUS
 62
   132
  5
6E9
 10
27.835917
 20
37.090333
 30
0.0
 40
0.133
  1
 notched (as shown) or otherwise cut or sawed to farm a vertical flat
  7
MONOTXT
210
0.0
220
0.0
230
1.0
  0
TEXT
  8
2
  6
CONTINUOUS
 62
   132
  5
6EA
 10
27.813583
 20
36.80975
 30
0.0
 40
0.133
  1
 plane and then, at some location below 
  7
MONOTXT
210
0.0
220
0.0
230
1.0
  0
TEXT
  8
2
  6
CONTINUOUS
 62
   132
  5
6EB
 10
28.071583
 20
38.680917
 30
0.0
 40
0.133
  1
      The applicable details and notes of Standard Sheet GR2
  7
MONOTXT
210
0.0
220
0.0
230
1.0
  0
TEXT
  8
1
  6
CONTINUOUS
 62
   150
  5
6EC
 10
28.989583
 20
35.945583
 30
0.0
 40
0.133
  1
When a wood block is used adjacent to a wood post, the
  7
MONOTXT
210
0.0
220
0.0
230
1.0
  0
TEXT
  8
1
  6
CONTINUOUS
 62
   150
  5
6ED
 10
28.989583
 20
35.945583
 30
0.0
 40
0.133
  1
When a wood block is used adjacent to a wood post, the
  7
MONOTXT
210
0.0
220
0.0
230
1.0
  0
TEXT
  8
1
  6
CONTINUOUS
 62
   150
  5
6EE
 10
28.010417
 20
35.647
 30
0.0
 40
0.133
  1
block shall be nailed to the post with a galvanized steel 10d common 
  7
MONOTXT
210
0.0
220
0.0
230
1.0
  0
TEXT
  8
1
  6
CONTINUOUS
 62
   150
  5
6EF
 10
27.99175
 20
35.049917
 30
0.0
 40
0.133
  1
block.
  7
MONOTXT
210
0.0
220
0.0
230
1.0
  0
TEXT
  8
1
  6
CONTINUOUS
 62
   150
  5
6F0
 10
27.99175
 20
35.3485
 30
0.0
 40
0.133
  1
nail. The nail is to be driven in the center of the top or bottom of the 
  7
MONOTXT
210
0.0
220
0.0
230
1.0
  0
TEXT
  8
1
  6
CONTINUOUS
 62
     2
  5
6F1
 10
29.748083
 20
26.712
 30
0.0
 40
0.083333
  1
 PREPARED 7-1-99 
  7
ROMANS
 72
     4
 11
30.4425
 21
26.753667
 31
0.0
210
0.0
220
0.0
230
1.0
  0
POLYLINE
  8
1
  6
DOT
 62
   150
  5
6F2
 66
     1
 10
0.0
 20
0.0
 30
0.0
  0
VERTEX
  8
1
  6
DOT
 62
   150
  5
6F3
 10
20.15275
 20
40.907667
 30
0.0
  0
VERTEX
  8
1
  6
DOT
 62
   150
  5
6F4
 10
20.077487
 20
40.829753
 30
0.0
 42
-0.414214
  0
VERTEX
  8
1
  6
DOT
 62
   150
  5
6F5
 10
20.064833
 20
40.829583
 30
0.0
  0
VERTEX
  8
1
  6
DOT
 62
   150
  5
6F6
 10
20.053583
 20
40.84025
 30
0.0
  0
VERTEX
  8
1
  6
DOT
 62
   150
  5
6F7
 10
20.053586
 20
40.840338
 30
0.0
 42
-0.414214
  0
VERTEX
  8
1
  6
DOT
 62
   150
  5
6F8
 10
20.053417
 20
40.853
 30
0.0
  0
VERTEX
  8
1
  6
DOT
 62
   150
  5
6F9
 10
20.072462
 20
40.872803
 30
0.0
 42
0.414214
  0
VERTEX
  8
1
  6
DOT
 62
   150
  5
6FA
 10
20.072247
 20
40.885529
 30
0.0
  0
VERTEX
  8
1
  6
DOT
 62
   150
  5
6FB
 10
20.072333
 20
40.8855
 30
0.0
  0
VERTEX
  8
1
  6
DOT
 62
   150
  5
6FC
 10
19.7215
 20
41.22275
 30
0.0
  0
VERTEX
  8
1
  6
DOT
 62
   150
  5
6FD
 10
19.676
 20
41.29925
 30
0.0
  0
VERTEX
  8
1
  6
DOT
 62
   150
  5
6FE
 10
19.74925
 20
41.251417
 30
0.0
  0
VERTEX
  8
1
  6
DOT
 62
   150
  5
6FF
 10
20.100386
 20
40.913913
 30
0.0
 42
0.414214
  0
VERTEX
  8
1
  6
DOT
 62
   150
  5
700
 10
20.113083
 20
40.914167
 30
0.0
  0
VERTEX
  8
1
  6
DOT
 62
   150
  5
701
 10
20.128971
 20
40.930614
 30
0.0
 42
-0.414214
  0
VERTEX
  8
1
  6
DOT
 62
   150
  5
702
 10
20.141697
 20
40.930829
 30
0.0
  0
VERTEX
  8
1
  6
DOT
 62
   150
  5
703
 10
20.152572
 20
40.920329
 30
0.0
 42
-0.414214
  0
VERTEX
  8
1
  6
DOT
 62
   150
  5
704
 10
20.152787
 20
40.907603
 30
0.0
  0
SEQEND
  8
1
  6
DOT
 62
   150
  5
705
  0
POLYLINE
  8
1
  6
DOT
 62
   150
  5
706
 66
     1
 10
0.0
 20
0.0
 30
0.0
  0
VERTEX
  8
1
  6
DOT
 62
   150
  5
707
 10
20.15275
 20
43.289167
 30
0.0
  0
VERTEX
  8
1
  6
DOT
 62
   150
  5
708
 10
20.077487
 20
43.36708
 30
0.0
 42
0.414214
  0
VERTEX
  8
1
  6
DOT
 62
   150
  5
709
 10
20.064833
 20
43.36725
 30
0.0
  0
VERTEX
  8
1
  6
DOT
 62
   150
  5
70A
 10
20.053583
 20
43.356583
 30
0.0
  0
VERTEX
  8
1
  6
DOT
 62
   150
  5
70B
 10
20.053586
 20
43.356496
 30
0.0
 42
0.414214
  0
VERTEX
  8
1
  6
DOT
 62
   150
  5
70C
 10
20.053417
 20
43.343833
 30
0.0
  0
VERTEX
  8
1
  6
DOT
 62
   150
  5
70D
 10
20.072462
 20
43.32403
 30
0.0
 42
-0.414214
  0
VERTEX
  8
1
  6
DOT
 62
   150
  5
70E
 10
20.072247
 20
43.311304
 30
0.0
  0
VERTEX
  8
1
  6
DOT
 62
   150
  5
70F
 10
20.072333
 20
43.311333
 30
0.0
  0
VERTEX
  8
1
  6
DOT
 62
   150
  5
710
 10
19.7215
 20
42.974083
 30
0.0
  0
VERTEX
  8
1
  6
DOT
 62
   150
  5
711
 10
19.676
 20
42.897583
 30
0.0
  0
VERTEX
  8
1
  6
DOT
 62
   150
  5
712
 10
19.74925
 20
42.945417
 30
0.0
  0
VERTEX
  8
1
  6
DOT
 62
   150
  5
713
 10
20.100386
 20
43.282921
 30
0.0
 42
-0.414214
  0
VERTEX
  8
1
  6
DOT
 62
   150
  5
714
 10
20.113083
 20
43.282667
 30
0.0
  0
VERTEX
  8
1
  6
DOT
 62
   150
  5
715
 10
20.128971
 20
43.26622
 30
0.0
 42
0.414214
  0
VERTEX
  8
1
  6
DOT
 62
   150
  5
716
 10
20.141697
 20
43.266004
 30
0.0
  0
VERTEX
  8
1
  6
DOT
 62
   150
  5
717
 10
20.152572
 20
43.276504
 30
0.0
 42
0.414214
  0
VERTEX
  8
1
  6
DOT
 62
   150
  5
718
 10
20.152787
 20
43.28923
 30
0.0
  0
SEQEND
  8
1
  6
DOT
 62
   150
  5
719
  0
POLYLINE
  8
1
  6
DOT
 62
   150
  5
71A
 66
     1
 10
0.0
 20
0.0
 30
0.0
  0
VERTEX
  8
1
  6
DOT
 62
   150
  5
71B
 10
18.26825
 20
43.289167
 30
0.0
  0
VERTEX
  8
1
  6
DOT
 62
   150
  5
71C
 10
18.343513
 20
43.36708
 30
0.0
 42
-0.414214
  0
VERTEX
  8
1
  6
DOT
 62
   150
  5
71D
 10
18.356167
 20
43.36725
 30
0.0
  0
VERTEX
  8
1
  6
DOT
 62
   150
  5
71E
 10
18.367417
 20
43.356583
 30
0.0
  0
VERTEX
  8
1
  6
DOT
 62
   150
  5
71F
 10
18.367414
 20
43.356496
 30
0.0
 42
-0.414214
  0
VERTEX
  8
1
  6
DOT
 62
   150
  5
720
 10
18.367583
 20
43.343833
 30
0.0
  0
VERTEX
  8
1
  6
DOT
 62
   150
  5
721
 10
18.348538
 20
43.32403
 30
0.0
 42
0.414214
  0
VERTEX
  8
1
  6
DOT
 62
   150
  5
722
 10
18.348753
 20
43.311304
 30
0.0
  0
VERTEX
  8
1
  6
DOT
 62
   150
  5
723
 10
18.348667
 20
43.311333
 30
0.0
  0
VERTEX
  8
1
  6
DOT
 62
   150
  5
724
 10
18.6995
 20
42.974083
 30
0.0
  0
VERTEX
  8
1
  6
DOT
 62
   150
  5
725
 10
18.745
 20
42.897583
 30
0.0
  0
VERTEX
  8
1
  6
DOT
 62
   150
  5
726
 10
18.67175
 20
42.945417
 30
0.0
  0
VERTEX
  8
1
  6
DOT
 62
   150
  5
727
 10
18.320614
 20
43.282921
 30
0.0
 42
0.414214
  0
VERTEX
  8
1
  6
DOT
 62
   150
  5
728
 10
18.307917
 20
43.282667
 30
0.0
  0
VERTEX
  8
1
  6
DOT
 62
   150
  5
729
 10
18.292029
 20
43.26622
 30
0.0
 42
-0.414214
  0
VERTEX
  8
1
  6
DOT
 62
   150
  5
72A
 10
18.279303
 20
43.266004
 30
0.0
  0
VERTEX
  8
1
  6
DOT
 62
   150
  5
72B
 10
18.268428
 20
43.276504
 30
0.0
 42
-0.414214
  0
VERTEX
  8
1
  6
DOT
 62
   150
  5
72C
 10
18.268213
 20
43.28923
 30
0.0
  0
SEQEND
  8
1
  6
DOT
 62
   150
  5
72D
  0
POLYLINE
  8
1
  6
DOT
 62
     2
  5
72E
 66
     1
 10
0.0
 20
0.0
 30
0.0
  0
VERTEX
  8
1
  6
DOT
 62
     2
  5
72F
 10
9.654917
 20
42.603667
 30
0.0
  0
VERTEX
  8
1
  6
DOT
 62
     2
  5
730
 10
9.725644
 20
42.521557
 30
0.0
 42
-0.414214
  0
VERTEX
  8
1
  6
DOT
 62
     2
  5
731
 10
9.724667
 20
42.508833
 30
0.0
  0
VERTEX
  8
1
  6
DOT
 62
     2
  5
732
 10
9.713223
 20
42.499039
 30
0.0
 42
-0.414214
  0
VERTEX
  8
1
  6
DOT
 62
     2
  5
733
 10
9.700583
 20
42.5
 30
0.0
  0
VERTEX
  8
1
  6
DOT
 62
     2
  5
734
 10
9.685583
 20
42.517333
 30
0.0
  0
VERTEX
  8
1
  6
DOT
 62
     2
  5
735
 10
9.685669
 20
42.517282
 30
0.0
 42
0.414214
  0
VERTEX
  8
1
  6
DOT
 62
     2
  5
736
 10
9.672917
 20
42.51825
 30
0.0
  0
VERTEX
  8
1
  6
DOT
 62
     2
  5
737
 10
9.229333
 20
42.127833
 30
0.0
  0
VERTEX
  8
1
  6
DOT
 62
     2
  5
738
 10
9.153583
 20
42.08425
 30
0.0
  0
VERTEX
  8
1
  6
DOT
 62
     2
  5
739
 10
9.20325
 20
42.158083
 30
0.0
  0
VERTEX
  8
1
  6
DOT
 62
     2
  5
73A
 10
9.646548
 20
42.548239
 30
0.0
 42
0.414214
  0
VERTEX
  8
1
  6
DOT
 62
     2
  5
73B
 10
9.647417
 20
42.560917
 30
0.0
  0
VERTEX
  8
1
  6
DOT
 62
     2
  5
73C
 10
9.629506
 20
42.581735
 30
0.0
 42
-0.414214
  0
VERTEX
  8
1
  6
DOT
 62
     2
  5
73D
 10
9.6305
 20
42.594417
 30
0.0
  0
VERTEX
  8
1
  6
DOT
 62
     2
  5
73E
 10
9.642227
 20
42.604553
 30
0.0
 42
-0.414214
  0
VERTEX
  8
1
  6
DOT
 62
     2
  5
73F
 10
9.654919
 20
42.603607
 30
0.0
  0
SEQEND
  8
1
  6
DOT
 62
     2
  5
740
  0
POLYLINE
  8
1
  6
DOT
 62
     2
  5
741
 66
     1
 10
0.0
 20
0.0
 30
0.0
  0
VERTEX
  8
1
  6
DOT
 62
     2
  5
742
 10
7.5585
 20
43.2715
 30
0.0
  0
VERTEX
  8
1
  6
DOT
 62
     2
  5
743
 10
7.487772
 20
43.18939
 30
0.0
 42
0.414214
  0
VERTEX
  8
1
  6
DOT
 62
     2
  5
744
 10
7.48875
 20
43.176667
 30
0.0
  0
VERTEX
  8
1
  6
DOT
 62
     2
  5
745
 10
7.500193
 20
43.166872
 30
0.0
 42
0.414214
  0
VERTEX
  8
1
  6
DOT
 62
     2
  5
746
 10
7.512833
 20
43.167833
 30
0.0
  0
VERTEX
  8
1
  6
DOT
 62
     2
  5
747
 10
7.527833
 20
43.185167
 30
0.0
  0
VERTEX
  8
1
  6
DOT
 62
     2
  5
748
 10
7.527747
 20
43.185115
 30
0.0
 42
-0.414214
  0
VERTEX
  8
1
  6
DOT
 62
     2
  5
749
 10
7.5405
 20
43.186083
 30
0.0
  0
VERTEX
  8
1
  6
DOT
 62
     2
  5
74A
 10
7.984083
 20
42.795667
 30
0.0
  0
VERTEX
  8
1
  6
DOT
 62
     2
  5
74B
 10
8.059833
 20
42.752083
 30
0.0
  0
VERTEX
  8
1
  6
DOT
 62
     2
  5
74C
 10
8.010167
 20
42.825917
 30
0.0
  0
VERTEX
  8
1
  6
DOT
 62
     2
  5
74D
 10
7.566868
 20
43.216072
 30
0.0
 42
-0.414214
  0
VERTEX
  8
1
  6
DOT
 62
     2
  5
74E
 10
7.566
 20
43.22875
 30
0.0
  0
VERTEX
  8
1
  6
DOT
 62
     2
  5
74F
 10
7.583911
 20
43.249568
 30
0.0
 42
0.414214
  0
VERTEX
  8
1
  6
DOT
 62
     2
  5
750
 10
7.582917
 20
43.26225
 30
0.0
  0
VERTEX
  8
1
  6
DOT
 62
     2
  5
751
 10
7.57119
 20
43.272386
 30
0.0
 42
0.414214
  0
VERTEX
  8
1
  6
DOT
 62
     2
  5
752
 10
7.558497
 20
43.27144
 30
0.0
  0
SEQEND
  8
1
  6
DOT
 62
     2
  5
753
  0
POLYLINE
  8
1
  6
DOT
 62
     2
  5
754
 66
     1
 10
0.0
 20
0.0
 30
0.0
  0
VERTEX
  8
1
  6
DOT
 62
     2
  5
755
 10
9.375667
 20
36.510833
 30
0.0
  0
VERTEX
  8
1
  6
DOT
 62
     2
  5
756
 10
9.446394
 20
36.428723
 30
0.0
 42
-0.414214
  0
VERTEX
  8
1
  6
DOT
 62
     2
  5
757
 10
9.445417
 20
36.416
 30
0.0
  0
VERTEX
  8
1
  6
DOT
 62
     2
  5
758
 10
9.433973
 20
36.406206
 30
0.0
 42
-0.414214
  0
VERTEX
  8
1
  6
DOT
 62
     2
  5
759
 10
9.421333
 20
36.407167
 30
0.0
  0
VERTEX
  8
1
  6
DOT
 62
     2
  5
75A
 10
9.406333
 20
36.4245
 30
0.0
  0
VERTEX
  8
1
  6
DOT
 62
     2
  5
75B
 10
9.406419
 20
36.424448
 30
0.0
 42
0.414214
  0
VERTEX
  8
1
  6
DOT
 62
     2
  5
75C
 10
9.393667
 20
36.425417
 30
0.0
  0
VERTEX
  8
1
  6
DOT
 62
     2
  5
75D
 10
8.950083
 20
36.035
 30
0.0
  0
VERTEX
  8
1
  6
DOT
 62
     2
  5
75E
 10
8.874333
 20
35.991417
 30
0.0
  0
VERTEX
  8
1
  6
DOT
 62
     2
  5
75F
 10
8.924
 20
36.06525
 30
0.0
  0
VERTEX
  8
1
  6
DOT
 62
     2
  5
760
 10
9.367298
 20
36.455406
 30
0.0
 42
0.414214
  0
VERTEX
  8
1
  6
DOT
 62
     2
  5
761
 10
9.368167
 20
36.468083
 30
0.0
  0
VERTEX
  8
1
  6
DOT
 62
     2
  5
762
 10
9.350256
 20
36.488902
 30
0.0
 42
-0.414214
  0
VERTEX
  8
1
  6
DOT
 62
     2
  5
763
 10
9.35125
 20
36.501583
 30
0.0
  0
VERTEX
  8
1
  6
DOT
 62
     2
  5
764
 10
9.362977
 20
36.511719
 30
0.0
 42
-0.414214
  0
VERTEX
  8
1
  6
DOT
 62
     2
  5
765
 10
9.375669
 20
36.510773
 30
0.0
  0
SEQEND
  8
1
  6
DOT
 62
     2
  5
766
  0
POLYLINE
  8
1
  6
DOT
 62
     2
  5
767
 66
     1
 10
0.0
 20
0.0
 30
0.0
  0
VERTEX
  8
1
  6
DOT
 62
     2
  5
768
 10
7.573167
 20
37.247833
 30
0.0
  0
VERTEX
  8
1
  6
DOT
 62
     2
  5
769
 10
7.502439
 20
37.165723
 30
0.0
 42
0.414214
  0
VERTEX
  8
1
  6
DOT
 62
     2
  5
76A
 10
7.503417
 20
37.153
 30
0.0
  0
VERTEX
  8
1
  6
DOT
 62
     2
  5
76B
 10
7.51486
 20
37.143206
 30
0.0
 42
0.414214
  0
VERTEX
  8
1
  6
DOT
 62
     2
  5
76C
 10
7.5275
 20
37.144167
 30
0.0
  0
VERTEX
  8
1
  6
DOT
 62
     2
  5
76D
 10
7.5425
 20
37.1615
 30
0.0
  0
VERTEX
  8
1
  6
DOT
 62
     2
  5
76E
 10
7.542414
 20
37.161448
 30
0.0
 42
-0.414214
  0
VERTEX
  8
1
  6
DOT
 62
     2
  5
76F
 10
7.555167
 20
37.162417
 30
0.0
  0
VERTEX
  8
1
  6
DOT
 62
     2
  5
770
 10
7.99875
 20
36.772
 30
0.0
  0
VERTEX
  8
1
  6
DOT
 62
     2
  5
771
 10
8.0745
 20
36.728417
 30
0.0
  0
VERTEX
  8
1
  6
DOT
 62
     2
  5
772
 10
8.024833
 20
36.80225
 30
0.0
  0
VERTEX
  8
1
  6
DOT
 62
     2
  5
773
 10
7.581535
 20
37.192406
 30
0.0
 42
-0.414214
  0
VERTEX
  8
1
  6
DOT
 62
     2
  5
774
 10
7.580667
 20
37.205083
 30
0.0
  0
VERTEX
  8
1
  6
DOT
 62
     2
  5
775
 10
7.598578
 20
37.225902
 30
0.0
 42
0.414214
  0
VERTEX
  8
1
  6
DOT
 62
     2
  5
776
 10
7.597583
 20
37.238583
 30
0.0
  0
VERTEX
  8
1
  6
DOT
 62
     2
  5
777
 10
7.585857
 20
37.248719
 30
0.0
 42
0.414214
  0
VERTEX
  8
1
  6
DOT
 62
     2
  5
778
 10
7.573164
 20
37.247773
 30
0.0
  0
SEQEND
  8
1
  6
DOT
 62
     2
  5
779
  0
POLYLINE
  8
1
  6
DOT
 62
     2
  5
77A
 66
     1
 10
0.0
 20
0.0
 30
0.0
  0
VERTEX
  8
1
  6
DOT
 62
     2
  5
77B
 10
18.22475
 20
37.275083
 30
0.0
  0
VERTEX
  8
1
  6
DOT
 62
     2
  5
77C
 10
18.154022
 20
37.192973
 30
0.0
 42
0.414214
  0
VERTEX
  8
1
  6
DOT
 62
     2
  5
77D
 10
18.155
 20
37.18025
 30
0.0
  0
VERTEX
  8
1
  6
DOT
 62
     2
  5
77E
 10
18.166443
 20
37.170456
 30
0.0
 42
0.414214
  0
VERTEX
  8
1
  6
DOT
 62
     2
  5
77F
 10
18.179083
 20
37.171417
 30
0.0
  0
VERTEX
  8
1
  6
DOT
 62
     2
  5
780
 10
18.194083
 20
37.18875
 30
0.0
  0
VERTEX
  8
1
  6
DOT
 62
     2
  5
781
 10
18.193997
 20
37.188698
 30
0.0
 42
-0.414214
  0
VERTEX
  8
1
  6
DOT
 62
     2
  5
782
 10
18.20675
 20
37.189667
 30
0.0
  0
VERTEX
  8
1
  6
DOT
 62
     2
  5
783
 10
18.650333
 20
36.79925
 30
0.0
  0
VERTEX
  8
1
  6
DOT
 62
     2
  5
784
 10
18.726083
 20
36.755667
 30
0.0
  0
VERTEX
  8
1
  6
DOT
 62
     2
  5
785
 10
18.676417
 20
36.8295
 30
0.0
  0
VERTEX
  8
1
  6
DOT
 62
     2
  5
786
 10
18.233118
 20
37.219656
 30
0.0
 42
-0.414214
  0
VERTEX
  8
1
  6
DOT
 62
     2
  5
787
 10
18.23225
 20
37.232333
 30
0.0
  0
VERTEX
  8
1
  6
DOT
 62
     2
  5
788
 10
18.250161
 20
37.253152
 30
0.0
 42
0.414214
  0
VERTEX
  8
1
  6
DOT
 62
     2
  5
789
 10
18.249167
 20
37.265833
 30
0.0
  0
VERTEX
  8
1
  6
DOT
 62
     2
  5
78A
 10
18.23744
 20
37.275969
 30
0.0
 42
0.414214
  0
VERTEX
  8
1
  6
DOT
 62
     2
  5
78B
 10
18.224747
 20
37.275023
 30
0.0
  0
SEQEND
  8
1
  6
DOT
 62
     2
  5
78C
  0
POLYLINE
  8
1
  6
DOT
 62
     2
  5
78D
 66
     1
 10
0.0
 20
0.0
 30
0.0
  0
VERTEX
  8
1
  6
DOT
 62
     2
  5
78E
 10
19.913083
 20
37.275083
 30
0.0
  0
VERTEX
  8
1
  6
DOT
 62
     2
  5
78F
 10
19.983811
 20
37.192973
 30
0.0
 42
-0.414214
  0
VERTEX
  8
1
  6
DOT
 62
     2
  5
790
 10
19.982833
 20
37.18025
 30
0.0
  0
VERTEX
  8
1
  6
DOT
 62
     2
  5
791
 10
19.97139
 20
37.170456
 30
0.0
 42
-0.414214
  0
VERTEX
  8
1
  6
DOT
 62
     2
  5
792
 10
19.95875
 20
37.171417
 30
0.0
  0
VERTEX
  8
1
  6
DOT
 62
     2
  5
793
 10
19.94375
 20
37.18875
 30
0.0
  0
VERTEX
  8
1
  6
DOT
 62
     2
  5
794
 10
19.943836
 20
37.188698
 30
0.0
 42
0.414214
  0
VERTEX
  8
1
  6
DOT
 62
     2
  5
795
 10
19.931083
 20
37.189667
 30
0.0
  0
VERTEX
  8
1
  6
DOT
 62
     2
  5
796
 10
19.4875
 20
36.79925
 30
0.0
  0
VERTEX
  8
1
  6
DOT
 62
     2
  5
797
 10
19.41175
 20
36.755667
 30
0.0
  0
VERTEX
  8
1
  6
DOT
 62
     2
  5
798
 10
19.461417
 20
36.8295
 30
0.0
  0
VERTEX
  8
1
  6
DOT
 62
     2
  5
799
 10
19.904715
 20
37.219656
 30
0.0
 42
0.414214
  0
VERTEX
  8
1
  6
DOT
 62
     2
  5
79A
 10
19.905583
 20
37.232333
 30
0.0
  0
VERTEX
  8
1
  6
DOT
 62
     2
  5
79B
 10
19.887672
 20
37.253152
 30
0.0
 42
-0.414214
  0
VERTEX
  8
1
  6
DOT
 62
     2
  5
79C
 10
19.888667
 20
37.265833
 30
0.0
  0
VERTEX
  8
1
  6
DOT
 62
     2
  5
79D
 10
19.900393
 20
37.275969
 30
0.0
 42
-0.414214
  0
VERTEX
  8
1
  6
DOT
 62
     2
  5
79E
 10
19.913086
 20
37.275023
 30
0.0
  0
SEQEND
  8
1
  6
DOT
 62
     2
  5
79F
  0
TEXT
  8
2
  6
CONTINUOUS
 62
   132
  5
7A0
 10
4.934833
 20
40.277333
 30
0.0
 40
0.1125
  1
8" x 6",  Wood Block
  7
MONOTXT
210
0.0
220
0.0
230
1.0
  0
TEXT
  8
2
  6
CONTINUOUS
 62
   132
  5
7A1
 10
4.775167
 20
34.2375
 30
0.0
 40
0.1125
  1
8" x 6", Wood Block
  7
MONOTXT
210
0.0
220
0.0
230
1.0
  0
TEXT
  8
2
  6
CONTINUOUS
 62
   132
  5
7A2
 10
5.445083
 20
28.222833
 30
0.0
 40
0.1125
  1
8" x 6", Wood Blocks
  7
MONOTXT
210
0.0
220
0.0
230
1.0
  0
TEXT
  8
2
  6
CONTINUOUS
 62
   132
  5
7A3
 10
15.816583
 20
34.251
 30
0.0
 40
0.1125
  1
8" x 6", Wood Block
  7
MONOTXT
210
0.0
220
0.0
230
1.0
  0
TEXT
  8
2
  6
CONTINUOUS
 62
   132
  5
7A4
 10
15.761583
 20
40.29775
 30
0.0
 40
0.1125
  1
8" x 6", Wood Block
  7
MONOTXT
210
0.0
220
0.0
230
1.0
  0
LINE
  8
1
  6
CONTINUOUS
 62
   150
  5
7A5
 10
8.072417
 20
28.987833
 30
0.0
 11
8.072417
 21
31.248917
 31
0.0
  0
LINE
  8
1
  6
CONTINUOUS
 62
   150
  5
7A6
 10
7.915333
 20
27.635
 30
0.0
 11
7.915333
 21
28.987833
 31
0.0
  0
LINE
  8
1
  6
DASHED
 62
   150
  5
7A7
 10
7.915333
 20
28.987833
 30
0.0
 11
7.915333
 21
31.248917
 31
0.0
  0
LINE
  8
1
  6
DASHED
 62
   150
  5
7A8
 10
8.001333
 20
31.248917
 30
0.0
 11
8.001333
 21
28.987833
 31
0.0
  0
LINE
  8
1
  6
CONTINUOUS
 62
   150
  5
7A9
 10
8.001333
 20
28.987833
 30
0.0
 11
8.001333
 21
27.635
 31
0.0
  0
TEXT
  8
2
  6
CONTINUOUS
 62
   132
  5
7AA
 10
9.388583
 20
27.55325
 30
0.0
 40
0.1125
  1
W6 x 9
  7
MONOTXT
210
0.0
220
0.0
230
1.0
  0
TEXT
  8
2
  6
CONTINUOUS
 62
   132
  5
7AB
 10
7.031417
 20
41.743833
 30
0.0
 40
0.1125
  1
L=20 1/8 "
  7
MONOTXT
210
0.0
220
0.0
230
1.0
  0
TEXT
  8
2
  6
CONTINUOUS
 62
   132
  5
7AC
 10
7.069
 20
35.721333
 30
0.0
 40
0.1125
  1
L= 18 1/8 "
  7
MONOTXT
210
0.0
220
0.0
230
1.0
  0
TEXT
  8
1
  6
CONTINUOUS
 62
   132
  5
7AD
 10
7.326417
 20
31.47725
 30
0.0
 40
0.1125
  1
7 5/8 "
  7
MONOTXT
210
0.0
220
0.0
230
1.0
  0
TEXT
  8
2
  6
CONTINUOUS
 62
   132
  5
7AE
 10
7.075917
 20
29.838
 30
0.0
 40
0.1125
  1
L=9 3/8 "
  7
MONOTXT
210
0.0
220
0.0
230
1.0
  0
TEXT
  8
2
  6
CONTINUOUS
 62
   132
  5
7AF
 10
17.610583
 20
35.756667
 30
0.0
 40
0.1125
  1
L= 23 1/2 "
  7
MONOTXT
210
0.0
220
0.0
230
1.0
  0
TEXT
  8
2
  6
CONTINUOUS
 62
   132
  5
7B0
 10
17.545167
 20
41.85425
 30
0.0
 40
0.1125
  1
L=25 1/2 "
  7
MONOTXT
210
0.0
220
0.0
230
1.0
  0
ENDSEC
  0
EOF
