  0
SECTION
  2
HEADER
  9
$ACADVER
  1
AC1009
  9
$INSBASE
 10
0.0
 20
0.0
 30
0.0
  9
$EXTMIN
 10
-1020.900583
 20
-38.808
 30
0.0
  9
$EXTMAX
 10
32.958333
 20
151.743333
 30
0.0
  9
$LIMMIN
 10
0.0
 20
0.0
  9
$LIMMAX
 10
12.0
 20
9.0
  9
$ORTHOMODE
 70
     0
  9
$REGENMODE
 70
     1
  9
$FILLMODE
 70
     1
  9
$QTEXTMODE
 70
     0
  9
$MIRRTEXT
 70
     1
  9
$DRAGMODE
 70
     2
  9
$LTSCALE
 40
1.0
  9
$OSMODE
 70
     0
  9
$ATTMODE
 70
     1
  9
$TEXTSIZE
 40
0.2
  9
$TRACEWID
 40
0.05
  9
$TEXTSTYLE
  7
STANDARD
  9
$CLAYER
  8
0
  9
$CELTYPE
  6
CONTINUOUS
  9
$CECOLOR
 62
   256
  9
$DIMSCALE
 40
1.0
  9
$DIMASZ
 40
0.18
  9
$DIMEXO
 40
0.0625
  9
$DIMDLI
 40
0.38
  9
$DIMRND
 40
0.0
  9
$DIMDLE
 40
0.0
  9
$DIMEXE
 40
0.18
  9
$DIMTP
 40
0.0
  9
$DIMTM
 40
0.0
  9
$DIMTXT
 40
0.18
  9
$DIMCEN
 40
0.09
  9
$DIMTSZ
 40
0.0
  9
$DIMTOL
 70
     0
  9
$DIMLIM
 70
     0
  9
$DIMTIH
 70
     1
  9
$DIMTOH
 70
     1
  9
$DIMSE1
 70
     0
  9
$DIMSE2
 70
     0
  9
$DIMTAD
 70
     0
  9
$DIMZIN
 70
     0
  9
$DIMBLK
  1

  9
$DIMASO
 70
     1
  9
$DIMSHO
 70
     1
  9
$DIMPOST
  1

  9
$DIMAPOST
  1

  9
$DIMALT
 70
     0
  9
$DIMALTD
 70
     2
  9
$DIMALTF
 40
25.4
  9
$DIMLFAC
 40
1.0
  9
$DIMTOFL
 70
     0
  9
$DIMTVP
 40
0.0
  9
$DIMTIX
 70
     0
  9
$DIMSOXD
 70
     0
  9
$DIMSAH
 70
     0
  9
$DIMBLK1
  1

  9
$DIMBLK2
  1

  9
$DIMSTYLE
  2
STANDARD
  9
$DIMCLRD
 70
     0
  9
$DIMCLRE
 70
     0
  9
$DIMCLRT
 70
     0
  9
$DIMTFAC
 40
1.0
  9
$DIMGAP
 40
0.09
  9
$LUNITS
 70
     2
  9
$LUPREC
 70
     4
  9
$AXISMODE
 70
     0
  9
$AXISUNIT
 10
0.0
 20
0.0
  9
$SKETCHINC
 40
0.1
  9
$FILLETRAD
 40
0.0
  9
$AUNITS
 70
     0
  9
$AUPREC
 70
     0
  9
$MENU
  1
acad
  9
$ELEVATION
 40
0.0
  9
$PELEVATION
 40
0.0
  9
$THICKNESS
 40
0.0
  9
$LIMCHECK
 70
     0
  9
$BLIPMODE
 70
     1
  9
$CHAMFERA
 40
0.0
  9
$CHAMFERB
 40
0.0
  9
$SKPOLY
 70
     0
  9
$TDCREATE
 40
2451568.403275463
  9
$TDUPDATE
 40
2451568.403275463
  9
$TDINDWG
 40
0.0000000000
  9
$TDUSRTIMER
 40
0.0000000000
  9
$USRTIMER
 70
     1
  9
$ANGBASE
 50
0.0
  9
$ANGDIR
 70
     0
  9
$PDMODE
 70
     0
  9
$PDSIZE
 40
0.0
  9
$PLINEWID
 40
0.0
  9
$COORDS
 70
     0
  9
$SPLFRAME
 70
     0
  9
$SPLINETYPE
 70
     6
  9
$SPLINESEGS
 70
    10
  9
$ATTDIA
 70
     0
  9
$ATTREQ
 70
     1
  9
$HANDLING
 70
     1
  9
$HANDSEED
  5
A34
  9
$SURFTAB1
 70
     6
  9
$SURFTAB2
 70
     6
  9
$SURFTYPE
 70
     6
  9
$SURFU
 70
     6
  9
$SURFV
 70
     6
  9
$UCSNAME
  2

  9
$UCSORG
 10
0.0
 20
0.0
 30
0.0
  9
$UCSXDIR
 10
1.0
 20
0.0
 30
0.0
  9
$UCSYDIR
 10
0.0
 20
1.0
 30
0.0
  9
$PUCSNAME
  2

  9
$PUCSORG
 10
0.0
 20
0.0
 30
0.0
  9
$PUCSXDIR
 10
1.0
 20
0.0
 30
0.0
  9
$PUCSYDIR
 10
0.0
 20
1.0
 30
0.0
  9
$USERI1
 70
     0
  9
$USERI2
 70
     0
  9
$USERI3
 70
     0
  9
$USERI4
 70
     0
  9
$USERI5
 70
     0
  9
$USERR1
 40
0.0
  9
$USERR2
 40
0.0
  9
$USERR3
 40
0.0
  9
$USERR4
 40
0.0
  9
$USERR5
 40
0.0
  9
$WORLDVIEW
 70
     1
  9
$SHADEDGE
 70
     3
  9
$SHADEDIF
 70
    70
  9
$TILEMODE
 70
     1
  9
$MAXACTVP
 70
    16
  9
$PINSBASE
 10
0.0
 20
0.0
 30
0.0
  9
$PLIMCHECK
 70
     0
  9
$PEXTMIN
 10
-1.000000E+20
 20
-1.000000E+20
 30
-1.000000E+20
  9
$PEXTMAX
 10
-1.000000E+20
 20
-1.000000E+20
 30
-1.000000E+20
  9
$PLIMMIN
 10
0.0
 20
0.0
  9
$PLIMMAX
 10
12.0
 20
9.0
  9
$UNITMODE
 70
     0
  9
$VISRETAIN
 70
     0
  9
$PLINEGEN
 70
     1
  9
$PSLTSCALE
 70
     0
  9
$TREEDEPTH
 70
  3020
  9
$DWGCODEPAGE
  3
ansi_1252
  0
ENDSEC
  0
SECTION
  2
TABLES
  0
TABLE
  2
VPORT
 70
     1
  0
VPORT
  2
*ACTIVE
 70
     0
 10
0.0
 20
0.0
 11
1.0
 21
1.0
 12
0.0
 22
0.0
 13
0.0
 23
0.0
 14
0.0
 24
0.0
 15
0.0
 25
0.0
 16
0.0
 26
0.0
 36
1.0
 17
-900.661155
 27
56.467625
 37
0.0
 40
195.315083
 41
1.573741
 42
50.0
 43
0.0
 44
0.0
 50
0.0
 51
0.0
 71
     0
 72
   100
 73
     1
 74
     0
 75
     0
 76
     0
 77
     0
 78
     0
  0
ENDTAB
  0
TABLE
  2
LTYPE
 70
     7
  0
LTYPE
  2
CONTINUOUS
 70
     0
  3
Solid line
 72
    65
 73
     0
 40
0.0
  0
LTYPE
  2
DOT
 70
    64
  3
. . . . . . . . . . . . . . . . . . . . . . . . . . . . . . . . .
 72
    65
 73
     2
 40
0.25
 49
0.0
 49
-0.25
  0
LTYPE
  2
HIDDEN
 70
    64
  3
__ __ __ __ __ __ __ __ __ __ __ __ __ __ __ __ __ __ __ __ __ 
 72
    65
 73
     2
 40
0.375
 49
0.25
 49
-0.125
  0
LTYPE
  2
DASHED
 70
    64
  3
__ __ __ __ __ __ __ __ __ __ __ __ __ __ __ __ __ __ __ __ __
 72
    65
 73
     2
 40
0.75
 49
0.5
 49
-0.25
  0
LTYPE
  2
DASHDOT
 70
    64
  3
__ . __ . __ . __ . __ . __ . __ . __ . __ . __ . __ . __ . _
 72
    65
 73
     4
 40
1.0
 49
0.5
 49
-0.25
 49
0.0
 49
-0.25
  0
LTYPE
  2
DIVIDE
 70
    64
  3
____ . . ____ . . ____ . . ____ . . ____ . . ____ . . ____ . .
 72
    65
 73
     6
 40
1.25
 49
0.5
 49
-0.25
 49
0.0
 49
-0.25
 49
0.0
 49
-0.25
  0
LTYPE
  2
CENTER
 70
    64
  3
____ _ ____ _ ____ _ ____ _ ____ _ ____ _ ____ _ ____ _ ____ _
 72
    65
 73
     4
 40
2.0
 49
1.25
 49
-0.25
 49
0.25
 49
-0.25
  0
ENDTAB
  0
TABLE
  2
LAYER
 70
     6
  0
LAYER
  2
0
 70
     0
 62
     7
  6
CONTINUOUS
  0
LAYER
  2
CONSTRUCTION_CLASS
 70
     1
 62
     7
  6
CONTINUOUS
  0
LAYER
  2
PATTERN_CLASS
 70
     0
 62
     7
  6
CONTINUOUS
  0
LAYER
  2
1
 70
    64
 62
     7
  6
CONTINUOUS
  0
LAYER
  2
3
 70
    64
 62
     7
  6
CONTINUOUS
  0
LAYER
  2
DEFPOINTS
 70
    64
 62
     7
  6
CONTINUOUS
  0
ENDTAB
  0
TABLE
  2
STYLE
 70
     5
  0
STYLE
  2
STANDARD
 70
     0
 40
0.0
 41
1.0
 50
0.0
 71
     0
 42
0.0
  3
txt
  4

  0
STYLE
  2
MONOTXT
 70
     0
 40
0.2
 41
1.0
 50
0.0
 71
     0
 42
0.2
  3
MONOTXT
  4

  0
STYLE
  2
ROMANT
 70
     0
 40
0.2
 41
1.0
 50
0.0
 71
     0
 42
0.2
  3
ROMANT
  4

  0
STYLE
  2
ROMANS
 70
     0
 40
0.2
 41
1.0
 50
0.0
 71
     0
 42
0.2
  3
ROMANS
  4

  0
STYLE
  2
txt
 70
     0
 40
0.2
 41
1.0
 50
0.0
 71
     0
 42
0.2
  3
TXT
  4

  0
ENDTAB
  0
TABLE
  2
VIEW
 70
     0
  0
ENDTAB
  0
TABLE
  2
UCS
 70
     0
  0
ENDTAB
  0
TABLE
  2
APPID
 70
     1
  0
APPID
  2
ACAD
 70
     0
  0
ENDTAB
  0
TABLE
  2
DIMSTYLE
 70
     2
  0
DIMSTYLE
  2
STANDARD
 70
     0
  3

  4

  5

  6

  7

 40
1.0
 41
0.18
 42
0.0625
 43
0.38
 44
0.18
 45
0.0
 46
0.0
 47
0.0
 48
0.0
140
0.18
141
0.09
142
0.0
143
25.4
144
1.0
145
0.0
146
1.0
147
0.09
 71
     0
 72
     0
 73
     1
 74
     1
 75
     0
 76
     0
 77
     0
 78
     0
170
     0
171
     2
172
     0
173
     0
174
     0
175
     0
176
     0
177
     0
178
     0
  0
DIMSTYLE
  2
MSADIM
 70
     0
  3

  4

  5

  6

  7

 40
1.0
 41
1.1
 42
0.55
 43
0.0
 44
0.55
 45
0.125
 46
0.0
 47
0.0
 48
0.0
140
1.1
141
0.55
142
0.0
143
25.4
144
1.0
145
0.55
146
1.0
147
0.55
 71
     0
 72
     0
 73
     0
 74
     0
 75
     1
 76
     1
 77
     1
 78
     2
170
     0
171
     2
172
     0
173
     1
174
     0
175
     0
176
     0
177
     0
178
     0
  0
ENDTAB
  0
ENDSEC
  0
SECTION
  2
BLOCKS
  0
BLOCK
  8
3
  6
CONTINUOUS
 62
     2
  5
609
  2
TERM5
 70
     0
 10
0.0
 20
0.0
 30
0.0
  3
TERM5
  0
POLYLINE
  8
3
  6
CONTINUOUS
 62
     2
  5
60A
 66
     1
 10
0.0
 20
0.0
 30
0.0
  0
VERTEX
  8
3
  6
CONTINUOUS
 62
     2
  5
60B
 10
-0.007667
 20
-0.003833
 30
0.0
  0
VERTEX
  8
3
  6
CONTINUOUS
 62
     2
  5
60C
 10
0.0
 20
0.0
 30
0.0
  0
VERTEX
  8
3
  6
CONTINUOUS
 62
     2
  5
60D
 10
-0.007667
 20
0.004
 30
0.0
  0
SEQEND
  8
3
  6
CONTINUOUS
 62
     2
  5
60E
  0
ENDBLK
  8
3
  6
CONTINUOUS
 62
     2
  5
60F
  0
BLOCK
  8
3
  6
CONTINUOUS
 62
     2
  5
616
  2
ARWHD1
 70
     0
 10
0.0
 20
0.0
 30
0.0
  3
ARWHD1
  0
LINE
  8
3
  6
CONTINUOUS
 62
     2
  5
617
 10
0.0
 20
0.0
 30
0.0
 11
-0.011667
 21
0.0015
 31
0.0
  0
LINE
  8
3
  6
CONTINUOUS
 62
     2
  5
618
 10
-0.011667
 20
0.0015
 30
0.0
 11
-0.011667
 21
-0.001833
 31
0.0
  0
LINE
  8
3
  6
CONTINUOUS
 62
     2
  5
619
 10
-0.011667
 20
-0.001833
 30
0.0
 11
0.0
 21
0.0
 31
0.0
  0
LINE
  8
3
  6
CONTINUOUS
 62
     2
  5
61A
 10
-0.011667
 20
0.000667
 30
0.0
 11
-0.002917
 21
0.0
 31
0.0
  0
LINE
  8
3
  6
CONTINUOUS
 62
     2
  5
61B
 10
-0.002917
 20
0.0
 30
0.0
 11
-0.011667
 21
-0.001
 31
0.0
  0
LINE
  8
3
  6
CONTINUOUS
 62
     2
  5
61C
 10
-0.011667
 20
0.00025
 30
0.0
 11
-0.0075
 21
-0.000083
 31
0.0
  0
LINE
  8
3
  6
CONTINUOUS
 62
     2
  5
61D
 10
-0.0075
 20
-0.000083
 30
0.0
 11
-0.011667
 21
-0.000583
 31
0.0
  0
ENDBLK
  8
3
  6
CONTINUOUS
 62
     2
  5
61E
  0
BLOCK
  8
3
  6
CONTINUOUS
 62
     2
  5
7A0
  2
*D2
 70
     1
 10
0.0
 20
0.0
 30
0.0
  3
*N2
  0
POLYLINE
  8
3
  6
CONTINUOUS
 62
     2
  5
7A1
 66
     1
 10
0.0
 20
0.0
 30
0.0
  0
VERTEX
  8
3
  6
CONTINUOUS
 62
     2
  5
7A2
 10
0.9105
 20
0.67575
 30
0.0
  0
VERTEX
  8
3
  6
CONTINUOUS
 62
     2
  5
7A3
 10
0.0
 20
0.0
 30
0.0
  0
VERTEX
  8
3
  6
CONTINUOUS
 62
     2
  5
7A4
 10
0.485333
 20
1.02475
 30
0.0
  0
SEQEND
  8
3
  6
CONTINUOUS
 62
     2
  5
7A5
  0
LINE
  8
3
  6
CONTINUOUS
 62
     2
  5
7A6
 10
0.0
 20
0.0
 30
0.0
 11
3.518167
 21
4.286167
 31
0.0
  0
ENDBLK
  8
3
  6
CONTINUOUS
 62
     2
  5
7A7
  0
BLOCK
  8
1
  6
CONTINUOUS
 62
   140
  5
7AA
  2
TRANS
 70
     0
 10
0.0
 20
0.0
 30
0.0
  3
TRANS
  0
TEXT
  8
1
  6
CONTINUOUS
 62
   140
  5
7AC
 10
32.59225
 20
-20.986667
 30
0.0
 40
0.06
  1
$$$$$$$$$FILENAME$$$$$$$$
 50
90.0
  7
txt
 11
32.56225
 21
-20.986667
 31
0.0
210
0.0
220
0.0
230
1.0
 73
     2
  0
TEXT
  8
1
  6
CONTINUOUS
 62
   140
  5
7AD
 10
32.59225
 20
-19.262583
 30
0.0
 40
0.06
  1
$USERNAME$
 50
90.0
  7
txt
 11
32.56225
 21
-19.262583
 31
0.0
210
0.0
220
0.0
230
1.0
 73
     2
  0
TEXT
  8
1
  6
CONTINUOUS
 62
   140
  5
7AE
 10
32.59225
 20
-18.489
 30
0.0
 40
0.06
  1
DD-MMM-YYYY HH:MM
 50
90.0
  7
txt
 11
32.56225
 21
-18.489
 31
0.0
210
0.0
220
0.0
230
1.0
 73
     2
  0
POINT
  8
1
  6
CONTINUOUS
 62
     7
  5
7AF
 10
32.958333
 20
1.4095
 30
0.0
  0
POINT
  8
1
  6
CONTINUOUS
 62
     7
  5
7B0
 10
-1.805417
 20
-22.409417
 30
0.0
  0
POINT
  8
1
  6
CONTINUOUS
 62
     2
  5
7B1
 10
-0.707083
 20
0.011833
 30
0.0
  0
POINT
  8
1
  6
CONTINUOUS
 62
     2
  5
7B2
 10
32.6
 20
-21.011833
 30
0.0
  0
POINT
  8
1
  6
CONTINUOUS
 62
   110
  5
7B3
 10
32.8
 20
0.3075
 30
0.0
  0
POINT
  8
1
  6
CONTINUOUS
 62
   110
  5
7B4
 10
-0.88
 20
-21.3
 30
0.0
  0
ENDBLK
  8
1
  6
CONTINUOUS
 62
   110
  5
7B5
  0
BLOCK
  8
3
  6
CONTINUOUS
 62
     2
  5
7DB
  2
DIMARO
 70
     0
 10
0.0
 20
0.0
 30
0.0
  3
DIMARO
  0
POLYLINE
  8
3
  6
CONTINUOUS
 62
     2
  5
7DC
 66
     1
 10
0.0
 20
0.0
 30
0.0
  0
VERTEX
  8
3
  6
CONTINUOUS
 62
     2
  5
7DD
 10
-0.055417
 20
-0.027667
 30
0.0
  0
VERTEX
  8
3
  6
CONTINUOUS
 62
     2
  5
7DE
 10
0.0
 20
0.0
 30
0.0
  0
VERTEX
  8
3
  6
CONTINUOUS
 62
     2
  5
7DF
 10
-0.055417
 20
0.027667
 30
0.0
  0
SEQEND
  8
3
  6
CONTINUOUS
 62
     2
  5
7E0
  0
ENDBLK
  8
3
  6
CONTINUOUS
 62
     2
  5
7E1
  0
BLOCK
  8
3
  6
CONTINUOUS
 62
     7
  5
88B
  2
TMB6X8
 70
     0
 10
0.0
 20
0.0
 30
0.0
  3
TMB6X8
  0
LINE
  8
3
  6
CONTINUOUS
 62
     7
  5
88C
 10
0.036917
 20
1.110833
 30
0.0
 11
-0.000333
 21
1.111
 31
0.0
  0
POLYLINE
  8
3
  6
CONTINUOUS
 62
     2
  5
88D
 66
     1
 10
0.0
 20
0.0
 30
0.0
  0
VERTEX
  8
3
  6
CONTINUOUS
 62
     2
  5
88E
 10
0.02
 20
1.14275
 30
0.0
  0
VERTEX
  8
3
  6
CONTINUOUS
 62
     2
  5
88F
 10
0.020167
 20
1.189333
 30
0.0
  0
VERTEX
  8
3
  6
CONTINUOUS
 62
     2
  5
890
 10
-0.023167
 20
1.188833
 30
0.0
  0
VERTEX
  8
3
  6
CONTINUOUS
 62
     2
  5
891
 10
-0.023167
 20
1.143083
 30
0.0
  0
SEQEND
  8
3
  6
CONTINUOUS
 62
     2
  5
892
  0
POLYLINE
  8
3
  6
CONTINUOUS
 62
     2
  5
893
 66
     1
 10
0.0
 20
0.0
 30
0.0
  0
VERTEX
  8
3
  6
CONTINUOUS
 62
     2
  5
894
 10
0.035333
 20
1.111083
 30
0.0
  0
VERTEX
  8
3
  6
CONTINUOUS
 62
     2
  5
895
 10
0.03525
 20
1.143417
 30
0.0
  0
VERTEX
  8
3
  6
CONTINUOUS
 62
     2
  5
896
 10
-0.039167
 20
1.143583
 30
0.0
  0
VERTEX
  8
3
  6
CONTINUOUS
 62
     2
  5
897
 10
-0.039083
 20
1.111333
 30
0.0
  0
SEQEND
  8
3
  6
CONTINUOUS
 62
     2
  5
898
  0
LINE
  8
3
  6
CONTINUOUS
 62
     7
  5
899
 10
-0.207917
 20
1.111083
 30
0.0
 11
0.208417
 21
0.555667
 31
0.0
  0
LINE
  8
3
  6
CONTINUOUS
 62
     7
  5
89A
 10
0.20825
 20
1.111583
 30
0.0
 11
-0.208583
 21
0.555333
 31
0.0
  0
LINE
  8
3
  6
CONTINUOUS
 62
     7
  5
89B
 10
0.208417
 20
0.555667
 30
0.0
 11
-0.20825
 21
0.00025
 31
0.0
  0
LINE
  8
3
  6
CONTINUOUS
 62
     7
  5
89C
 10
0.2085
 20
-0.00025
 30
0.0
 11
-0.208583
 21
0.555333
 31
0.0
  0
POLYLINE
  8
3
  6
CONTINUOUS
 62
     7
  5
89D
 66
     1
 10
0.0
 20
0.0
 30
0.0
  0
VERTEX
  8
3
  6
CONTINUOUS
 62
     7
  5
89E
 10
0.0
 20
0.0
 30
0.0
  0
VERTEX
  8
3
  6
CONTINUOUS
 62
     7
  5
89F
 10
0.061083
 20
-0.00025
 30
0.0
  0
VERTEX
  8
3
  6
CONTINUOUS
 62
     7
  5
8A0
 10
0.2085
 20
-0.00025
 30
0.0
  0
VERTEX
  8
3
  6
CONTINUOUS
 62
     7
  5
8A1
 10
0.208417
 20
0.555667
 30
0.0
  0
VERTEX
  8
3
  6
CONTINUOUS
 62
     7
  5
8A2
 10
-0.208583
 20
0.555333
 30
0.0
  0
VERTEX
  8
3
  6
CONTINUOUS
 62
     7
  5
8A3
 10
-0.20825
 20
0.00025
 30
0.0
  0
VERTEX
  8
3
  6
CONTINUOUS
 62
     7
  5
8A4
 10
0.0
 20
0.0
 30
0.0
  0
SEQEND
  8
3
  6
CONTINUOUS
 62
     7
  5
8A5
  0
POLYLINE
  8
3
  6
CONTINUOUS
 62
     7
  5
8A6
 66
     1
 10
0.0
 20
0.0
 30
0.0
  0
VERTEX
  8
3
  6
CONTINUOUS
 62
     7
  5
8A7
 10
0.0
 20
0.555917
 30
0.0
  0
VERTEX
  8
3
  6
CONTINUOUS
 62
     7
  5
8A8
 10
0.061
 20
0.555667
 30
0.0
  0
VERTEX
  8
3
  6
CONTINUOUS
 62
     7
  5
8A9
 10
0.208417
 20
0.555667
 30
0.0
  0
VERTEX
  8
3
  6
CONTINUOUS
 62
     7
  5
8AA
 10
0.20825
 20
1.111583
 30
0.0
  0
VERTEX
  8
3
  6
CONTINUOUS
 62
     7
  5
8AB
 10
-0.207917
 20
1.111083
 30
0.0
  0
VERTEX
  8
3
  6
CONTINUOUS
 62
     7
  5
8AC
 10
-0.208583
 20
0.555333
 30
0.0
  0
VERTEX
  8
3
  6
CONTINUOUS
 62
     7
  5
8AD
 10
0.0
 20
0.555917
 30
0.0
  0
SEQEND
  8
3
  6
CONTINUOUS
 62
     7
  5
8AE
  0
ENDBLK
  8
3
  6
CONTINUOUS
 62
     7
  5
8AF
  0
ENDSEC
  0
SECTION
  2
ENTITIES
  0
LINE
  8
1
  6
CONTINUOUS
 62
   140
  5
29
 10
-1006.45725
 20
140.467333
 30
0.0
 11
-1006.45725
 21
-27.532667
 31
0.0
  0
LINE
  8
1
  6
CONTINUOUS
 62
   140
  5
2A
 10
-746.45725
 20
140.467333
 30
0.0
 11
-1006.45725
 21
140.467333
 31
0.0
  0
LINE
  8
1
  6
CONTINUOUS
 62
   140
  5
2B
 10
-746.45725
 20
140.467333
 30
0.0
 11
-746.45725
 21
-27.532667
 31
0.0
  0
LINE
  8
1
  6
CONTINUOUS
 62
   140
  5
2C
 10
-746.45725
 20
-27.532667
 30
0.0
 11
-1006.45725
 21
-27.532667
 31
0.0
  0
POINT
  8
1
  6
CONTINUOUS
 62
   140
  5
2D
 10
-1006.45725
 20
-27.532667
 30
0.0
  0
POINT
  8
1
  6
CONTINUOUS
 62
   140
  5
2E
 10
-746.45725
 20
138.047917
 30
0.0
  0
POINT
  8
1
  6
CONTINUOUS
 62
   140
  5
2F
 10
-746.45725
 20
-27.532667
 30
0.0
  0
LINE
  8
1
  6
CONTINUOUS
 62
   140
  5
30
 10
-746.45725
 20
-27.532667
 30
0.0
 11
-746.45725
 21
-7.540667
 31
0.0
  0
LINE
  8
1
  6
CONTINUOUS
 62
   140
  5
31
 10
-746.45725
 20
0.386
 30
0.0
 11
-794.45725
 21
0.386
 31
0.0
  0
LINE
  8
1
  6
CONTINUOUS
 62
   140
  5
32
 10
-746.45725
 20
-27.532667
 30
0.0
 11
-794.45725
 21
-27.532667
 31
0.0
  0
LINE
  8
1
  6
CONTINUOUS
 62
   140
  5
33
 10
-782.153917
 20
-12.340667
 30
0.0
 11
-794.45725
 21
-12.340667
 31
0.0
  0
LINE
  8
1
  6
CONTINUOUS
 62
   140
  5
34
 10
-782.153917
 20
-13.932667
 30
0.0
 11
-794.45725
 21
-13.932667
 31
0.0
  0
LINE
  8
1
  6
CONTINUOUS
 62
   140
  5
35
 10
-782.153917
 20
-15.524667
 30
0.0
 11
-794.45725
 21
-15.524667
 31
0.0
  0
LINE
  8
1
  6
CONTINUOUS
 62
   140
  5
36
 10
-782.153917
 20
-17.116667
 30
0.0
 11
-794.45725
 21
-17.116667
 31
0.0
  0
LINE
  8
1
  6
CONTINUOUS
 62
   140
  5
37
 10
-782.153917
 20
-18.708667
 30
0.0
 11
-794.45725
 21
-18.708667
 31
0.0
  0
LINE
  8
1
  6
CONTINUOUS
 62
   140
  5
38
 10
-782.153917
 20
-20.300667
 30
0.0
 11
-794.45725
 21
-20.300667
 31
0.0
  0
LINE
  8
1
  6
CONTINUOUS
 62
   140
  5
39
 10
-782.153917
 20
-21.892667
 30
0.0
 11
-794.45725
 21
-21.892667
 31
0.0
  0
LINE
  8
1
  6
CONTINUOUS
 62
   140
  5
3A
 10
-782.153917
 20
-23.484667
 30
0.0
 11
-794.45725
 21
-23.484667
 31
0.0
  0
LINE
  8
1
  6
CONTINUOUS
 62
   140
  5
3B
 10
-782.153917
 20
-25.076667
 30
0.0
 11
-794.45725
 21
-25.076667
 31
0.0
  0
TEXT
  8
1
  6
CONTINUOUS
 62
   140
  5
3D
 10
-792.000583
 20
-11.962
 30
0.0
 40
0.632
  1
REVISION DATE
 41
1.003165
  7
MONOTXT
210
0.0
220
0.0
230
1.0
  0
LINE
  8
1
  6
CONTINUOUS
 62
   140
  5
3E
 10
-794.45725
 20
-16.252667
 30
0.0
 11
-794.45725
 21
-27.532667
 31
0.0
  0
TEXT
  8
1
  6
HIDDEN
 62
   140
  5
40
 10
-792.766583
 20
-1.653333
 30
0.0
 40
1.5
  1
WEST VIRGINIA DEPARTMENT OF TRANSPORTATION
  7
ROMANT
 72
     4
 11
-770.60325
 21
-0.903333
 31
0.0
210
0.0
220
0.0
230
1.0
  0
TEXT
  8
1
  6
HIDDEN
 62
   140
  5
41
 10
-780.183917
 20
-3.324667
 30
0.0
 40
1.5
  1
DIVISION OF HIGHWAYS
  7
ROMANT
 72
     4
 11
-770.428083
 21
-2.574667
 31
0.0
210
0.0
220
0.0
230
1.0
  0
LINE
  8
1
  6
CONTINUOUS
 62
   140
  5
42
 10
-782.153917
 20
-10.740667
 30
0.0
 11
-794.45725
 21
-10.740667
 31
0.0
  0
LINE
  8
1
  6
CONTINUOUS
 62
   140
  5
43
 10
-782.153917
 20
-27.532667
 30
0.0
 11
-782.153917
 21
-10.740667
 31
0.0
  0
LINE
  8
1
  6
CONTINUOUS
 62
   140
  5
44
 10
-794.45725
 20
-27.532667
 30
0.0
 11
-794.45725
 21
0.386
 31
0.0
  0
TEXT
  8
1
  6
CONTINUOUS
 62
     2
  5
46
 10
-794.176583
 20
-20.009333
 30
0.0
 40
0.666667
  1
                  
  7
ROMANS
 72
     4
 11
-788.28775
 21
-19.676
 31
0.0
210
0.0
220
0.0
230
1.0
  0
TEXT
  8
1
  6
CONTINUOUS
 62
     2
  5
47
 10
-794.176583
 20
-21.601333
 30
0.0
 40
0.666667
  1
                  
  7
ROMANS
 72
     4
 11
-788.28775
 21
-21.268
 31
0.0
210
0.0
220
0.0
230
1.0
  0
TEXT
  8
1
  6
CONTINUOUS
 62
     2
  5
48
 10
-794.176583
 20
-23.193333
 30
0.0
 40
0.666667
  1
                  
  7
ROMANS
 72
     4
 11
-788.28775
 21
-22.86
 31
0.0
210
0.0
220
0.0
230
1.0
  0
TEXT
  8
1
  6
CONTINUOUS
 62
     2
  5
49
 10
-794.176583
 20
-24.785333
 30
0.0
 40
0.666667
  1
                  
  7
ROMANS
 72
     4
 11
-788.28775
 21
-24.452
 31
0.0
210
0.0
220
0.0
230
1.0
  0
TEXT
  8
1
  6
CONTINUOUS
 62
     2
  5
4A
 10
-794.18925
 20
-26.418667
 30
0.0
 40
0.666667
  1
                  
  7
ROMANS
 72
     4
 11
-788.300417
 21
-26.085333
 31
0.0
210
0.0
220
0.0
230
1.0
  0
TEXT
  8
1
  6
CONTINUOUS
 62
   140
  5
4B
 10
-1006.07325
 20
-28.500667
 30
0.0
 40
0.48
  1
P5A1G92-STDBOR a
  7
MONOTXT
210
0.0
220
0.0
230
1.0
  0
TEXT
  8
1
  6
CONTINUOUS
 62
     7
  5
4C
 10
-906.86
 20
-4.227667
 30
0.0
 40
1.9
  1
ELEVATION
  7
MONOTXT
 72
     4
 11
-899.305333
 21
-3.277667
 31
0.0
210
0.0
220
0.0
230
1.0
  0
LINE
  8
3
  6
CONTINUOUS
 62
     7
  5
4E
 10
-969.9515
 20
33.711833
 30
0.0
 11
-969.9515
 21
29.977833
 31
0.0
  0
LINE
  8
3
  6
CONTINUOUS
 62
     7
  5
4F
 10
-968.3515
 20
33.711833
 30
0.0
 11
-968.3515
 21
29.977833
 31
0.0
  0
LINE
  8
3
  6
CONTINUOUS
 62
     7
  5
50
 10
-869.952167
 20
33.711833
 30
0.0
 11
-869.952167
 21
29.977833
 31
0.0
  0
LINE
  8
3
  6
CONTINUOUS
 62
     7
  5
51
 10
-868.352167
 20
33.711833
 30
0.0
 11
-868.352167
 21
29.977833
 31
0.0
  0
POINT
  8
3
  6
CONTINUOUS
 62
     2
  5
52
 10
-849.1515
 20
35.591167
 30
0.0
  0
LINE
  8
3
  6
CONTINUOUS
 62
     7
  5
53
 10
-848.352167
 20
37.209167
 30
0.0
 11
-848.352167
 21
37.4425
 31
0.0
  0
LINE
  8
3
  6
CONTINUOUS
 62
     7
  5
54
 10
-849.952167
 20
29.977833
 30
0.0
 11
-849.952167
 21
33.929167
 31
0.0
  0
LINE
  8
3
  6
CONTINUOUS
 62
     7
  5
55
 10
-849.952167
 20
37.209167
 30
0.0
 11
-849.952167
 21
37.4425
 31
0.0
  0
LINE
  8
3
  6
CONTINUOUS
 62
     7
  5
56
 10
-849.952167
 20
37.4425
 30
0.0
 11
-848.352167
 21
37.4425
 31
0.0
  0
LINE
  8
3
  6
CONTINUOUS
 62
     7
  5
57
 10
-821.037417
 20
37.699167
 30
0.0
 11
-826.010167
 21
37.699167
 31
0.0
  0
LINE
  8
3
  6
CONTINUOUS
 62
     7
  5
58
 10
-821.037417
 20
33.429833
 30
0.0
 11
-826.010167
 21
33.429833
 31
0.0
  0
LINE
  8
3
  6
CONTINUOUS
 62
     7
  5
59
 10
-826.9955
 20
37.193167
 30
0.0
 11
-830.880167
 21
37.193167
 31
0.0
  0
LINE
  8
3
  6
CONTINUOUS
 62
     7
  5
5A
 10
-826.010167
 20
37.699167
 30
0.0
 11
-826.9955
 21
37.193167
 31
0.0
  0
LINE
  8
3
  6
CONTINUOUS
 62
     7
  5
5B
 10
-826.010167
 20
37.699167
 30
0.0
 11
-827.136167
 21
36.5725
 31
0.0
  0
LINE
  8
3
  6
CONTINUOUS
 62
     7
  5
5C
 10
-827.008167
 20
33.929167
 30
0.0
 11
-830.880167
 21
33.929167
 31
0.0
  0
LINE
  8
3
  6
CONTINUOUS
 62
     7
  5
5D
 10
-826.010167
 20
33.429833
 30
0.0
 11
-827.008167
 21
33.929167
 31
0.0
  0
LINE
  8
3
  6
CONTINUOUS
 62
     7
  5
5E
 10
-826.010167
 20
33.429833
 30
0.0
 11
-827.1235
 21
34.543833
 31
0.0
  0
LINE
  8
3
  6
CONTINUOUS
 62
     7
  5
5F
 10
-830.880167
 20
33.929167
 30
0.0
 11
-830.880167
 21
37.193167
 31
0.0
  0
LINE
  8
3
  6
CONTINUOUS
 62
     7
  5
60
 10
-831.820833
 20
35.7985
 30
0.0
 11
-830.8735
 21
36.5725
 31
0.0
  0
LINE
  8
3
  6
CONTINUOUS
 62
     7
  5
61
 10
-831.820833
 20
35.317833
 30
0.0
 11
-830.8735
 21
34.543833
 31
0.0
  0
LINE
  8
3
  6
CONTINUOUS
 62
     7
  5
62
 10
-827.136167
 20
36.565833
 30
0.0
 11
-830.8735
 21
36.5725
 31
0.0
  0
LINE
  8
3
  6
CONTINUOUS
 62
     7
  5
63
 10
-827.1235
 20
34.537167
 30
0.0
 11
-830.8735
 21
34.543833
 31
0.0
  0
LINE
  8
3
  6
CONTINUOUS
 62
     7
  5
64
 10
-831.820833
 20
35.317833
 30
0.0
 11
-831.820833
 21
35.7985
 31
0.0
  0
LINE
  8
3
  6
CONTINUOUS
 62
     7
  5
65
 10
-821.037417
 20
37.699167
 30
0.0
 11
-821.037417
 21
33.429833
 31
0.0
  0
POINT
  8
3
  6
CONTINUOUS
 62
     2
  5
66
 10
-849.014167
 20
36.597833
 30
0.0
  0
POINT
  8
3
  6
CONTINUOUS
 62
     2
  5
67
 10
-869.078833
 20
34.565833
 30
0.0
  0
POINT
  8
3
  6
CONTINUOUS
 62
     2
  5
68
 10
-868.726833
 20
36.627167
 30
0.0
  0
POINT
  8
3
  6
CONTINUOUS
 62
     2
  5
69
 10
-858.8035
 20
36.7165
 30
0.0
  0
POINT
  8
3
  6
CONTINUOUS
 62
     2
  5
6A
 10
-848.966167
 20
36.627167
 30
0.0
  0
POINT
  8
3
  6
CONTINUOUS
 62
     2
  5
6B
 10
-869.4115
 20
35.577167
 30
0.0
  0
POINT
  8
3
  6
CONTINUOUS
 62
     2
  5
6C
 10
-849.344167
 20
35.587167
 30
0.0
  0
POINT
  8
3
  6
CONTINUOUS
 62
     2
  5
6D
 10
-849.344167
 20
35.587167
 30
0.0
  0
POLYLINE
  8
3
  6
CONTINUOUS
 62
   110
  5
6E
 66
     1
 10
0.0
 20
0.0
 30
0.0
210
0.0
220
0.0
230
1.0
  0
VERTEX
  8
3
  6
CONTINUOUS
 62
   110
  5
6F
 10
-870.094528
 20
34.974991
 30
0.0
 42
-0.105926
  0
VERTEX
  8
3
  6
CONTINUOUS
 62
   110
  5
70
 10
-870.098209
 20
34.958438
 30
0.0
 42
-0.082645
  0
VERTEX
  8
3
  6
CONTINUOUS
 62
   110
  5
71
 10
-870.109111
 20
34.942522
 30
0.0
 42
-0.058441
  0
VERTEX
  8
3
  6
CONTINUOUS
 62
   110
  5
72
 10
-870.126814
 20
34.927853
 30
0.0
 42
-0.042129
  0
VERTEX
  8
3
  6
CONTINUOUS
 62
   110
  5
73
 10
-870.150639
 20
34.914996
 30
0.0
 42
-0.032313
  0
VERTEX
  8
3
  6
CONTINUOUS
 62
   110
  5
74
 10
-870.17967
 20
34.904444
 30
0.0
 42
-0.026577
  0
VERTEX
  8
3
  6
CONTINUOUS
 62
   110
  5
75
 10
-870.21279
 20
34.896604
 30
0.0
 42
-0.023395
  0
VERTEX
  8
3
  6
CONTINUOUS
 62
   110
  5
76
 10
-870.248729
 20
34.891776
 30
0.0
 42
-0.021971
  0
VERTEX
  8
3
  6
CONTINUOUS
 62
   110
  5
77
 10
-870.286103
 20
34.890145
 30
0.0
 42
-0.021971
  0
VERTEX
  8
3
  6
CONTINUOUS
 62
   110
  5
78
 10
-870.323478
 20
34.891776
 30
0.0
 42
-0.023395
  0
VERTEX
  8
3
  6
CONTINUOUS
 62
   110
  5
79
 10
-870.359416
 20
34.896604
 30
0.0
 42
-0.026577
  0
VERTEX
  8
3
  6
CONTINUOUS
 62
   110
  5
7A
 10
-870.392537
 20
34.904444
 30
0.0
 42
-0.032313
  0
VERTEX
  8
3
  6
CONTINUOUS
 62
   110
  5
7B
 10
-870.421567
 20
34.914996
 30
0.0
 42
-0.042129
  0
VERTEX
  8
3
  6
CONTINUOUS
 62
   110
  5
7C
 10
-870.445392
 20
34.927853
 30
0.0
 42
-0.058441
  0
VERTEX
  8
3
  6
CONTINUOUS
 62
   110
  5
7D
 10
-870.463095
 20
34.942522
 30
0.0
 42
-0.082645
  0
VERTEX
  8
3
  6
CONTINUOUS
 62
   110
  5
7E
 10
-870.473997
 20
34.958438
 30
0.0
 42
-0.105926
  0
VERTEX
  8
3
  6
CONTINUOUS
 62
   110
  5
7F
 10
-870.477678
 20
34.974991
 30
0.0
 42
-0.105926
  0
SEQEND
  8
3
  6
CONTINUOUS
 62
   110
  5
80
  0
POLYLINE
  8
3
  6
CONTINUOUS
 62
   110
  5
81
 66
     1
 10
0.0
 20
0.0
 30
0.0
210
0.0
220
0.0
230
1.0
  0
VERTEX
  8
3
  6
CONTINUOUS
 62
   110
  5
82
 10
-870.477678
 20
34.974991
 30
0.0
 42
-0.069642
  0
VERTEX
  8
3
  6
CONTINUOUS
 62
   110
  5
83
 10
-870.473997
 20
35.001029
 30
0.0
 42
-0.064663
  0
VERTEX
  8
3
  6
CONTINUOUS
 62
   110
  5
84
 10
-870.463095
 20
35.026066
 30
0.0
 42
-0.05709
  0
VERTEX
  8
3
  6
CONTINUOUS
 62
   110
  5
85
 10
-870.445392
 20
35.04914
 30
0.0
 42
-0.049486
  0
VERTEX
  8
3
  6
CONTINUOUS
 62
   110
  5
86
 10
-870.421567
 20
35.069365
 30
0.0
 42
-0.043232
  0
VERTEX
  8
3
  6
CONTINUOUS
 62
   110
  5
87
 10
-870.392537
 20
35.085963
 30
0.0
 42
-0.038702
  0
VERTEX
  8
3
  6
CONTINUOUS
 62
   110
  5
88
 10
-870.359416
 20
35.098297
 30
0.0
 42
-0.035825
  0
VERTEX
  8
3
  6
CONTINUOUS
 62
   110
  5
89
 10
-870.323478
 20
35.105892
 30
0.0
 42
-0.034439
  0
VERTEX
  8
3
  6
CONTINUOUS
 62
   110
  5
8A
 10
-870.286103
 20
35.108456
 30
0.0
 42
-0.034439
  0
VERTEX
  8
3
  6
CONTINUOUS
 62
   110
  5
8B
 10
-870.248729
 20
35.105892
 30
0.0
 42
-0.035825
  0
VERTEX
  8
3
  6
CONTINUOUS
 62
   110
  5
8C
 10
-870.21279
 20
35.098297
 30
0.0
 42
-0.038702
  0
VERTEX
  8
3
  6
CONTINUOUS
 62
   110
  5
8D
 10
-870.17967
 20
35.085963
 30
0.0
 42
-0.043232
  0
VERTEX
  8
3
  6
CONTINUOUS
 62
   110
  5
8E
 10
-870.150639
 20
35.069365
 30
0.0
 42
-0.049486
  0
VERTEX
  8
3
  6
CONTINUOUS
 62
   110
  5
8F
 10
-870.126814
 20
35.04914
 30
0.0
 42
-0.05709
  0
VERTEX
  8
3
  6
CONTINUOUS
 62
   110
  5
90
 10
-870.109111
 20
35.026066
 30
0.0
 42
-0.064663
  0
VERTEX
  8
3
  6
CONTINUOUS
 62
   110
  5
91
 10
-870.098209
 20
35.001029
 30
0.0
 42
-0.069642
  0
VERTEX
  8
3
  6
CONTINUOUS
 62
   110
  5
92
 10
-870.094528
 20
34.974991
 30
0.0
 42
-0.069642
  0
SEQEND
  8
3
  6
CONTINUOUS
 62
   110
  5
93
  0
POLYLINE
  8
3
  6
CONTINUOUS
 62
   110
  5
94
 66
     1
 10
0.0
 20
0.0
 30
0.0
210
0.0
220
0.0
230
1.0
  0
VERTEX
  8
3
  6
CONTINUOUS
 62
   110
  5
95
 10
-870.094528
 20
36.179779
 30
0.0
 42
0.105926
  0
VERTEX
  8
3
  6
CONTINUOUS
 62
   110
  5
96
 10
-870.098209
 20
36.196332
 30
0.0
 42
0.082645
  0
VERTEX
  8
3
  6
CONTINUOUS
 62
   110
  5
97
 10
-870.109111
 20
36.212248
 30
0.0
 42
0.058441
  0
VERTEX
  8
3
  6
CONTINUOUS
 62
   110
  5
98
 10
-870.126814
 20
36.226917
 30
0.0
 42
0.042129
  0
VERTEX
  8
3
  6
CONTINUOUS
 62
   110
  5
99
 10
-870.150639
 20
36.239774
 30
0.0
 42
0.032313
  0
VERTEX
  8
3
  6
CONTINUOUS
 62
   110
  5
9A
 10
-870.17967
 20
36.250326
 30
0.0
 42
0.026577
  0
VERTEX
  8
3
  6
CONTINUOUS
 62
   110
  5
9B
 10
-870.21279
 20
36.258166
 30
0.0
 42
0.023395
  0
VERTEX
  8
3
  6
CONTINUOUS
 62
   110
  5
9C
 10
-870.248729
 20
36.262994
 30
0.0
 42
0.021971
  0
VERTEX
  8
3
  6
CONTINUOUS
 62
   110
  5
9D
 10
-870.286103
 20
36.264625
 30
0.0
 42
0.021971
  0
VERTEX
  8
3
  6
CONTINUOUS
 62
   110
  5
9E
 10
-870.323478
 20
36.262994
 30
0.0
 42
0.023395
  0
VERTEX
  8
3
  6
CONTINUOUS
 62
   110
  5
9F
 10
-870.359416
 20
36.258166
 30
0.0
 42
0.026577
  0
VERTEX
  8
3
  6
CONTINUOUS
 62
   110
  5
A0
 10
-870.392537
 20
36.250326
 30
0.0
 42
0.032313
  0
VERTEX
  8
3
  6
CONTINUOUS
 62
   110
  5
A1
 10
-870.421567
 20
36.239774
 30
0.0
 42
0.042129
  0
VERTEX
  8
3
  6
CONTINUOUS
 62
   110
  5
A2
 10
-870.445392
 20
36.226917
 30
0.0
 42
0.058441
  0
VERTEX
  8
3
  6
CONTINUOUS
 62
   110
  5
A3
 10
-870.463095
 20
36.212248
 30
0.0
 42
0.082645
  0
VERTEX
  8
3
  6
CONTINUOUS
 62
   110
  5
A4
 10
-870.473997
 20
36.196332
 30
0.0
 42
0.105926
  0
VERTEX
  8
3
  6
CONTINUOUS
 62
   110
  5
A5
 10
-870.477678
 20
36.179779
 30
0.0
 42
0.105926
  0
SEQEND
  8
3
  6
CONTINUOUS
 62
   110
  5
A6
  0
POLYLINE
  8
3
  6
CONTINUOUS
 62
   110
  5
A7
 66
     1
 10
0.0
 20
0.0
 30
0.0
210
0.0
220
0.0
230
1.0
  0
VERTEX
  8
3
  6
CONTINUOUS
 62
   110
  5
A8
 10
-870.477678
 20
36.179779
 30
0.0
 42
0.069642
  0
VERTEX
  8
3
  6
CONTINUOUS
 62
   110
  5
A9
 10
-870.473997
 20
36.153741
 30
0.0
 42
0.064663
  0
VERTEX
  8
3
  6
CONTINUOUS
 62
   110
  5
AA
 10
-870.463095
 20
36.128704
 30
0.0
 42
0.05709
  0
VERTEX
  8
3
  6
CONTINUOUS
 62
   110
  5
AB
 10
-870.445392
 20
36.10563
 30
0.0
 42
0.049486
  0
VERTEX
  8
3
  6
CONTINUOUS
 62
   110
  5
AC
 10
-870.421567
 20
36.085405
 30
0.0
 42
0.043232
  0
VERTEX
  8
3
  6
CONTINUOUS
 62
   110
  5
AD
 10
-870.392537
 20
36.068807
 30
0.0
 42
0.038702
  0
VERTEX
  8
3
  6
CONTINUOUS
 62
   110
  5
AE
 10
-870.359416
 20
36.056473
 30
0.0
 42
0.035825
  0
VERTEX
  8
3
  6
CONTINUOUS
 62
   110
  5
AF
 10
-870.323478
 20
36.048878
 30
0.0
 42
0.034439
  0
VERTEX
  8
3
  6
CONTINUOUS
 62
   110
  5
B0
 10
-870.286103
 20
36.046314
 30
0.0
 42
0.034439
  0
VERTEX
  8
3
  6
CONTINUOUS
 62
   110
  5
B1
 10
-870.248729
 20
36.048878
 30
0.0
 42
0.035825
  0
VERTEX
  8
3
  6
CONTINUOUS
 62
   110
  5
B2
 10
-870.21279
 20
36.056473
 30
0.0
 42
0.038702
  0
VERTEX
  8
3
  6
CONTINUOUS
 62
   110
  5
B3
 10
-870.17967
 20
36.068807
 30
0.0
 42
0.043232
  0
VERTEX
  8
3
  6
CONTINUOUS
 62
   110
  5
B4
 10
-870.150639
 20
36.085405
 30
0.0
 42
0.049486
  0
VERTEX
  8
3
  6
CONTINUOUS
 62
   110
  5
B5
 10
-870.126814
 20
36.10563
 30
0.0
 42
0.05709
  0
VERTEX
  8
3
  6
CONTINUOUS
 62
   110
  5
B6
 10
-870.109111
 20
36.128704
 30
0.0
 42
0.064663
  0
VERTEX
  8
3
  6
CONTINUOUS
 62
   110
  5
B7
 10
-870.098209
 20
36.153741
 30
0.0
 42
0.069642
  0
VERTEX
  8
3
  6
CONTINUOUS
 62
   110
  5
B8
 10
-870.094528
 20
36.179779
 30
0.0
 42
0.069642
  0
SEQEND
  8
3
  6
CONTINUOUS
 62
   110
  5
B9
  0
POLYLINE
  8
3
  6
CONTINUOUS
 62
   110
  5
BA
 66
     1
 10
0.0
 20
0.0
 30
0.0
210
0.0
220
0.0
230
1.0
  0
VERTEX
  8
3
  6
CONTINUOUS
 62
   110
  5
BB
 10
-867.828786
 20
34.974991
 30
0.0
 42
-0.105926
  0
VERTEX
  8
3
  6
CONTINUOUS
 62
   110
  5
BC
 10
-867.832467
 20
34.958438
 30
0.0
 42
-0.082645
  0
VERTEX
  8
3
  6
CONTINUOUS
 62
   110
  5
BD
 10
-867.843368
 20
34.942522
 30
0.0
 42
-0.058441
  0
VERTEX
  8
3
  6
CONTINUOUS
 62
   110
  5
BE
 10
-867.861072
 20
34.927853
 30
0.0
 42
-0.042129
  0
VERTEX
  8
3
  6
CONTINUOUS
 62
   110
  5
BF
 10
-867.884897
 20
34.914996
 30
0.0
 42
-0.032313
  0
VERTEX
  8
3
  6
CONTINUOUS
 62
   110
  5
C0
 10
-867.913927
 20
34.904444
 30
0.0
 42
-0.026577
  0
VERTEX
  8
3
  6
CONTINUOUS
 62
   110
  5
C1
 10
-867.947048
 20
34.896604
 30
0.0
 42
-0.023395
  0
VERTEX
  8
3
  6
CONTINUOUS
 62
   110
  5
C2
 10
-867.982986
 20
34.891776
 30
0.0
 42
-0.021971
  0
VERTEX
  8
3
  6
CONTINUOUS
 62
   110
  5
C3
 10
-868.020361
 20
34.890145
 30
0.0
 42
-0.021971
  0
VERTEX
  8
3
  6
CONTINUOUS
 62
   110
  5
C4
 10
-868.057735
 20
34.891776
 30
0.0
 42
-0.023395
  0
VERTEX
  8
3
  6
CONTINUOUS
 62
   110
  5
C5
 10
-868.093673
 20
34.896604
 30
0.0
 42
-0.026577
  0
VERTEX
  8
3
  6
CONTINUOUS
 62
   110
  5
C6
 10
-868.126794
 20
34.904444
 30
0.0
 42
-0.032313
  0
VERTEX
  8
3
  6
CONTINUOUS
 62
   110
  5
C7
 10
-868.155825
 20
34.914996
 30
0.0
 42
-0.042129
  0
VERTEX
  8
3
  6
CONTINUOUS
 62
   110
  5
C8
 10
-868.17965
 20
34.927853
 30
0.0
 42
-0.058441
  0
VERTEX
  8
3
  6
CONTINUOUS
 62
   110
  5
C9
 10
-868.197353
 20
34.942522
 30
0.0
 42
-0.082645
  0
VERTEX
  8
3
  6
CONTINUOUS
 62
   110
  5
CA
 10
-868.208255
 20
34.958438
 30
0.0
 42
-0.105926
  0
VERTEX
  8
3
  6
CONTINUOUS
 62
   110
  5
CB
 10
-868.211936
 20
34.974991
 30
0.0
 42
-0.105926
  0
SEQEND
  8
3
  6
CONTINUOUS
 62
   110
  5
CC
  0
POLYLINE
  8
3
  6
CONTINUOUS
 62
   110
  5
CD
 66
     1
 10
0.0
 20
0.0
 30
0.0
210
0.0
220
0.0
230
1.0
  0
VERTEX
  8
3
  6
CONTINUOUS
 62
   110
  5
CE
 10
-867.828786
 20
36.179779
 30
0.0
 42
0.105926
  0
VERTEX
  8
3
  6
CONTINUOUS
 62
   110
  5
CF
 10
-867.832467
 20
36.196332
 30
0.0
 42
0.082645
  0
VERTEX
  8
3
  6
CONTINUOUS
 62
   110
  5
D0
 10
-867.843368
 20
36.212248
 30
0.0
 42
0.058441
  0
VERTEX
  8
3
  6
CONTINUOUS
 62
   110
  5
D1
 10
-867.861072
 20
36.226917
 30
0.0
 42
0.042129
  0
VERTEX
  8
3
  6
CONTINUOUS
 62
   110
  5
D2
 10
-867.884897
 20
36.239774
 30
0.0
 42
0.032313
  0
VERTEX
  8
3
  6
CONTINUOUS
 62
   110
  5
D3
 10
-867.913927
 20
36.250326
 30
0.0
 42
0.026577
  0
VERTEX
  8
3
  6
CONTINUOUS
 62
   110
  5
D4
 10
-867.947048
 20
36.258166
 30
0.0
 42
0.023395
  0
VERTEX
  8
3
  6
CONTINUOUS
 62
   110
  5
D5
 10
-867.982986
 20
36.262994
 30
0.0
 42
0.021971
  0
VERTEX
  8
3
  6
CONTINUOUS
 62
   110
  5
D6
 10
-868.020361
 20
36.264625
 30
0.0
 42
0.021971
  0
VERTEX
  8
3
  6
CONTINUOUS
 62
   110
  5
D7
 10
-868.057735
 20
36.262994
 30
0.0
 42
0.023395
  0
VERTEX
  8
3
  6
CONTINUOUS
 62
   110
  5
D8
 10
-868.093673
 20
36.258166
 30
0.0
 42
0.026577
  0
VERTEX
  8
3
  6
CONTINUOUS
 62
   110
  5
D9
 10
-868.126794
 20
36.250326
 30
0.0
 42
0.032313
  0
VERTEX
  8
3
  6
CONTINUOUS
 62
   110
  5
DA
 10
-868.155825
 20
36.239774
 30
0.0
 42
0.042129
  0
VERTEX
  8
3
  6
CONTINUOUS
 62
   110
  5
DB
 10
-868.17965
 20
36.226917
 30
0.0
 42
0.058441
  0
VERTEX
  8
3
  6
CONTINUOUS
 62
   110
  5
DC
 10
-868.197353
 20
36.212248
 30
0.0
 42
0.082645
  0
VERTEX
  8
3
  6
CONTINUOUS
 62
   110
  5
DD
 10
-868.208255
 20
36.196332
 30
0.0
 42
0.105926
  0
VERTEX
  8
3
  6
CONTINUOUS
 62
   110
  5
DE
 10
-868.211936
 20
36.179779
 30
0.0
 42
0.105926
  0
SEQEND
  8
3
  6
CONTINUOUS
 62
   110
  5
DF
  0
POLYLINE
  8
3
  6
CONTINUOUS
 62
   110
  5
E0
 66
     1
 10
0.0
 20
0.0
 30
0.0
210
0.0
220
0.0
230
1.0
  0
VERTEX
  8
3
  6
CONTINUOUS
 62
   110
  5
E1
 10
-868.211936
 20
36.179779
 30
0.0
 42
0.069642
  0
VERTEX
  8
3
  6
CONTINUOUS
 62
   110
  5
E2
 10
-868.208255
 20
36.153741
 30
0.0
 42
0.064663
  0
VERTEX
  8
3
  6
CONTINUOUS
 62
   110
  5
E3
 10
-868.197353
 20
36.128704
 30
0.0
 42
0.05709
  0
VERTEX
  8
3
  6
CONTINUOUS
 62
   110
  5
E4
 10
-868.17965
 20
36.10563
 30
0.0
 42
0.049486
  0
VERTEX
  8
3
  6
CONTINUOUS
 62
   110
  5
E5
 10
-868.155825
 20
36.085405
 30
0.0
 42
0.043232
  0
VERTEX
  8
3
  6
CONTINUOUS
 62
   110
  5
E6
 10
-868.126794
 20
36.068807
 30
0.0
 42
0.038702
  0
VERTEX
  8
3
  6
CONTINUOUS
 62
   110
  5
E7
 10
-868.093673
 20
36.056473
 30
0.0
 42
0.035825
  0
VERTEX
  8
3
  6
CONTINUOUS
 62
   110
  5
E8
 10
-868.057735
 20
36.048878
 30
0.0
 42
0.034439
  0
VERTEX
  8
3
  6
CONTINUOUS
 62
   110
  5
E9
 10
-868.020361
 20
36.046314
 30
0.0
 42
0.034439
  0
VERTEX
  8
3
  6
CONTINUOUS
 62
   110
  5
EA
 10
-867.982986
 20
36.048878
 30
0.0
 42
0.035825
  0
VERTEX
  8
3
  6
CONTINUOUS
 62
   110
  5
EB
 10
-867.947048
 20
36.056473
 30
0.0
 42
0.038702
  0
VERTEX
  8
3
  6
CONTINUOUS
 62
   110
  5
EC
 10
-867.913927
 20
36.068807
 30
0.0
 42
0.043232
  0
VERTEX
  8
3
  6
CONTINUOUS
 62
   110
  5
ED
 10
-867.884897
 20
36.085405
 30
0.0
 42
0.049486
  0
VERTEX
  8
3
  6
CONTINUOUS
 62
   110
  5
EE
 10
-867.861072
 20
36.10563
 30
0.0
 42
0.05709
  0
VERTEX
  8
3
  6
CONTINUOUS
 62
   110
  5
EF
 10
-867.843368
 20
36.128704
 30
0.0
 42
0.064663
  0
VERTEX
  8
3
  6
CONTINUOUS
 62
   110
  5
F0
 10
-867.832467
 20
36.153741
 30
0.0
 42
0.069642
  0
VERTEX
  8
3
  6
CONTINUOUS
 62
   110
  5
F1
 10
-867.828786
 20
36.179779
 30
0.0
 42
0.069642
  0
SEQEND
  8
3
  6
CONTINUOUS
 62
   110
  5
F2
  0
POLYLINE
  8
3
  6
CONTINUOUS
 62
   110
  5
F3
 66
     1
 10
0.0
 20
0.0
 30
0.0
210
0.0
220
0.0
230
1.0
  0
VERTEX
  8
3
  6
CONTINUOUS
 62
   110
  5
F4
 10
-868.211936
 20
34.974991
 30
0.0
 42
-0.069642
  0
VERTEX
  8
3
  6
CONTINUOUS
 62
   110
  5
F5
 10
-868.208255
 20
35.001029
 30
0.0
 42
-0.064663
  0
VERTEX
  8
3
  6
CONTINUOUS
 62
   110
  5
F6
 10
-868.197353
 20
35.026066
 30
0.0
 42
-0.05709
  0
VERTEX
  8
3
  6
CONTINUOUS
 62
   110
  5
F7
 10
-868.17965
 20
35.04914
 30
0.0
 42
-0.049486
  0
VERTEX
  8
3
  6
CONTINUOUS
 62
   110
  5
F8
 10
-868.155825
 20
35.069365
 30
0.0
 42
-0.043232
  0
VERTEX
  8
3
  6
CONTINUOUS
 62
   110
  5
F9
 10
-868.126794
 20
35.085963
 30
0.0
 42
-0.038702
  0
VERTEX
  8
3
  6
CONTINUOUS
 62
   110
  5
FA
 10
-868.093673
 20
35.098297
 30
0.0
 42
-0.035825
  0
VERTEX
  8
3
  6
CONTINUOUS
 62
   110
  5
FB
 10
-868.057735
 20
35.105892
 30
0.0
 42
-0.034439
  0
VERTEX
  8
3
  6
CONTINUOUS
 62
   110
  5
FC
 10
-868.020361
 20
35.108456
 30
0.0
 42
-0.034439
  0
VERTEX
  8
3
  6
CONTINUOUS
 62
   110
  5
FD
 10
-867.982986
 20
35.105892
 30
0.0
 42
-0.035825
  0
VERTEX
  8
3
  6
CONTINUOUS
 62
   110
  5
FE
 10
-867.947048
 20
35.098297
 30
0.0
 42
-0.038702
  0
VERTEX
  8
3
  6
CONTINUOUS
 62
   110
  5
FF
 10
-867.913927
 20
35.085963
 30
0.0
 42
-0.043232
  0
VERTEX
  8
3
  6
CONTINUOUS
 62
   110
  5
100
 10
-867.884897
 20
35.069365
 30
0.0
 42
-0.049486
  0
VERTEX
  8
3
  6
CONTINUOUS
 62
   110
  5
101
 10
-867.861072
 20
35.04914
 30
0.0
 42
-0.05709
  0
VERTEX
  8
3
  6
CONTINUOUS
 62
   110
  5
102
 10
-867.843368
 20
35.026066
 30
0.0
 42
-0.064663
  0
VERTEX
  8
3
  6
CONTINUOUS
 62
   110
  5
103
 10
-867.832467
 20
35.001029
 30
0.0
 42
-0.069642
  0
VERTEX
  8
3
  6
CONTINUOUS
 62
   110
  5
104
 10
-867.828786
 20
34.974991
 30
0.0
 42
-0.069642
  0
SEQEND
  8
3
  6
CONTINUOUS
 62
   110
  5
105
  0
LINE
  8
3
  6
CONTINUOUS
 62
     2
  5
106
 10
-870.8195
 20
33.945167
 30
0.0
 11
-870.8195
 21
37.209167
 31
0.0
  0
CIRCLE
  8
3
  6
DASHED
 62
     7
  5
107
 10
-829.152329
 20
35.577274
 30
0.0
 40
0.191679
210
0.0
220
0.0
230
1.0
  0
POLYLINE
  8
3
  6
CONTINUOUS
 62
   110
  5
108
 66
     1
 10
0.0
 20
0.0
 30
0.0
210
0.0
220
0.0
230
1.0
  0
VERTEX
  8
3
  6
CONTINUOUS
 62
   110
  5
109
 10
-870.094528
 20
37.00331
 30
0.0
 42
0.071267
  0
VERTEX
  8
3
  6
CONTINUOUS
 62
   110
  5
10A
 10
-870.098209
 20
37.028724
 30
0.0
 42
0.065729
  0
VERTEX
  8
3
  6
CONTINUOUS
 62
   110
  5
10B
 10
-870.109111
 20
37.053161
 30
0.0
 42
0.057443
  0
VERTEX
  8
3
  6
CONTINUOUS
 62
   110
  5
10C
 10
-870.126814
 20
37.075682
 30
0.0
 42
0.049287
  0
VERTEX
  8
3
  6
CONTINUOUS
 62
   110
  5
10D
 10
-870.150639
 20
37.095423
 30
0.0
 42
0.042701
  0
VERTEX
  8
3
  6
CONTINUOUS
 62
   110
  5
10E
 10
-870.17967
 20
37.111623
 30
0.0
 42
0.037998
  0
VERTEX
  8
3
  6
CONTINUOUS
 62
   110
  5
10F
 10
-870.21279
 20
37.123661
 30
0.0
 42
0.03504
  0
VERTEX
  8
3
  6
CONTINUOUS
 62
   110
  5
110
 10
-870.248729
 20
37.131074
 30
0.0
 42
0.033623
  0
VERTEX
  8
3
  6
CONTINUOUS
 62
   110
  5
111
 10
-870.286103
 20
37.133577
 30
0.0
 42
0.033623
  0
VERTEX
  8
3
  6
CONTINUOUS
 62
   110
  5
112
 10
-870.323478
 20
37.131074
 30
0.0
 42
0.03504
  0
VERTEX
  8
3
  6
CONTINUOUS
 62
   110
  5
113
 10
-870.359416
 20
37.123661
 30
0.0
 42
0.037998
  0
VERTEX
  8
3
  6
CONTINUOUS
 62
   110
  5
114
 10
-870.392537
 20
37.111623
 30
0.0
 42
0.042701
  0
VERTEX
  8
3
  6
CONTINUOUS
 62
   110
  5
115
 10
-870.421567
 20
37.095423
 30
0.0
 42
0.049287
  0
VERTEX
  8
3
  6
CONTINUOUS
 62
   110
  5
116
 10
-870.445392
 20
37.075682
 30
0.0
 42
0.057443
  0
VERTEX
  8
3
  6
CONTINUOUS
 62
   110
  5
117
 10
-870.463095
 20
37.053161
 30
0.0
 42
0.065729
  0
VERTEX
  8
3
  6
CONTINUOUS
 62
   110
  5
118
 10
-870.473997
 20
37.028724
 30
0.0
 42
0.071267
  0
VERTEX
  8
3
  6
CONTINUOUS
 62
   110
  5
119
 10
-870.477678
 20
37.00331
 30
0.0
 42
0.071267
  0
SEQEND
  8
3
  6
CONTINUOUS
 62
   110
  5
11A
  0
POLYLINE
  8
3
  6
CONTINUOUS
 62
   110
  5
11B
 66
     1
 10
0.0
 20
0.0
 30
0.0
210
0.0
220
0.0
230
1.0
  0
VERTEX
  8
3
  6
CONTINUOUS
 62
   110
  5
11C
 10
-870.477678
 20
37.00331
 30
0.0
 42
0.107797
  0
VERTEX
  8
3
  6
CONTINUOUS
 62
   110
  5
11D
 10
-870.473997
 20
36.98708
 30
0.0
 42
0.083254
  0
VERTEX
  8
3
  6
CONTINUOUS
 62
   110
  5
11E
 10
-870.463095
 20
36.971473
 30
0.0
 42
0.058242
  0
VERTEX
  8
3
  6
CONTINUOUS
 62
   110
  5
11F
 10
-870.445392
 20
36.957091
 30
0.0
 42
0.041681
  0
VERTEX
  8
3
  6
CONTINUOUS
 62
   110
  5
120
 10
-870.421567
 20
36.944484
 30
0.0
 42
0.03183
  0
VERTEX
  8
3
  6
CONTINUOUS
 62
   110
  5
121
 10
-870.392537
 20
36.934138
 30
0.0
 42
0.026114
  0
VERTEX
  8
3
  6
CONTINUOUS
 62
   110
  5
122
 10
-870.359416
 20
36.92645
 30
0.0
 42
0.022956
  0
VERTEX
  8
3
  6
CONTINUOUS
 62
   110
  5
123
 10
-870.323478
 20
36.921716
 30
0.0
 42
0.021545
  0
VERTEX
  8
3
  6
CONTINUOUS
 62
   110
  5
124
 10
-870.286103
 20
36.920117
 30
0.0
 42
0.021545
  0
VERTEX
  8
3
  6
CONTINUOUS
 62
   110
  5
125
 10
-870.248729
 20
36.921716
 30
0.0
 42
0.022956
  0
VERTEX
  8
3
  6
CONTINUOUS
 62
   110
  5
126
 10
-870.21279
 20
36.92645
 30
0.0
 42
0.026114
  0
VERTEX
  8
3
  6
CONTINUOUS
 62
   110
  5
127
 10
-870.17967
 20
36.934138
 30
0.0
 42
0.03183
  0
VERTEX
  8
3
  6
CONTINUOUS
 62
   110
  5
128
 10
-870.150639
 20
36.944484
 30
0.0
 42
0.041681
  0
VERTEX
  8
3
  6
CONTINUOUS
 62
   110
  5
129
 10
-870.126814
 20
36.957091
 30
0.0
 42
0.058242
  0
VERTEX
  8
3
  6
CONTINUOUS
 62
   110
  5
12A
 10
-870.109111
 20
36.971473
 30
0.0
 42
0.083254
  0
VERTEX
  8
3
  6
CONTINUOUS
 62
   110
  5
12B
 10
-870.098209
 20
36.98708
 30
0.0
 42
0.107797
  0
VERTEX
  8
3
  6
CONTINUOUS
 62
   110
  5
12C
 10
-870.094528
 20
37.00331
 30
0.0
 42
0.107797
  0
SEQEND
  8
3
  6
CONTINUOUS
 62
   110
  5
12D
  0
POLYLINE
  8
3
  6
CONTINUOUS
 62
   110
  5
12E
 66
     1
 10
0.0
 20
0.0
 30
0.0
210
0.0
220
0.0
230
1.0
  0
VERTEX
  8
3
  6
CONTINUOUS
 62
   110
  5
12F
 10
-867.828786
 20
37.00331
 30
0.0
 42
0.071267
  0
VERTEX
  8
3
  6
CONTINUOUS
 62
   110
  5
130
 10
-867.832467
 20
37.028724
 30
0.0
 42
0.065729
  0
VERTEX
  8
3
  6
CONTINUOUS
 62
   110
  5
131
 10
-867.843368
 20
37.053161
 30
0.0
 42
0.057443
  0
VERTEX
  8
3
  6
CONTINUOUS
 62
   110
  5
132
 10
-867.861072
 20
37.075682
 30
0.0
 42
0.049287
  0
VERTEX
  8
3
  6
CONTINUOUS
 62
   110
  5
133
 10
-867.884897
 20
37.095423
 30
0.0
 42
0.042701
  0
VERTEX
  8
3
  6
CONTINUOUS
 62
   110
  5
134
 10
-867.913927
 20
37.111623
 30
0.0
 42
0.037998
  0
VERTEX
  8
3
  6
CONTINUOUS
 62
   110
  5
135
 10
-867.947048
 20
37.123661
 30
0.0
 42
0.03504
  0
VERTEX
  8
3
  6
CONTINUOUS
 62
   110
  5
136
 10
-867.982986
 20
37.131074
 30
0.0
 42
0.033623
  0
VERTEX
  8
3
  6
CONTINUOUS
 62
   110
  5
137
 10
-868.020361
 20
37.133577
 30
0.0
 42
0.033623
  0
VERTEX
  8
3
  6
CONTINUOUS
 62
   110
  5
138
 10
-868.057735
 20
37.131074
 30
0.0
 42
0.03504
  0
VERTEX
  8
3
  6
CONTINUOUS
 62
   110
  5
139
 10
-868.093673
 20
37.123661
 30
0.0
 42
0.037998
  0
VERTEX
  8
3
  6
CONTINUOUS
 62
   110
  5
13A
 10
-868.126794
 20
37.111623
 30
0.0
 42
0.042701
  0
VERTEX
  8
3
  6
CONTINUOUS
 62
   110
  5
13B
 10
-868.155825
 20
37.095423
 30
0.0
 42
0.049287
  0
VERTEX
  8
3
  6
CONTINUOUS
 62
   110
  5
13C
 10
-868.17965
 20
37.075682
 30
0.0
 42
0.057443
  0
VERTEX
  8
3
  6
CONTINUOUS
 62
   110
  5
13D
 10
-868.197353
 20
37.053161
 30
0.0
 42
0.065729
  0
VERTEX
  8
3
  6
CONTINUOUS
 62
   110
  5
13E
 10
-868.208255
 20
37.028724
 30
0.0
 42
0.071267
  0
VERTEX
  8
3
  6
CONTINUOUS
 62
   110
  5
13F
 10
-868.211936
 20
37.00331
 30
0.0
 42
0.071267
  0
SEQEND
  8
3
  6
CONTINUOUS
 62
   110
  5
140
  0
POLYLINE
  8
3
  6
CONTINUOUS
 62
   110
  5
141
 66
     1
 10
0.0
 20
0.0
 30
0.0
210
0.0
220
0.0
230
1.0
  0
VERTEX
  8
3
  6
CONTINUOUS
 62
   110
  5
142
 10
-868.211936
 20
37.00331
 30
0.0
 42
0.107797
  0
VERTEX
  8
3
  6
CONTINUOUS
 62
   110
  5
143
 10
-868.208255
 20
36.98708
 30
0.0
 42
0.083254
  0
VERTEX
  8
3
  6
CONTINUOUS
 62
   110
  5
144
 10
-868.197353
 20
36.971473
 30
0.0
 42
0.058242
  0
VERTEX
  8
3
  6
CONTINUOUS
 62
   110
  5
145
 10
-868.17965
 20
36.957091
 30
0.0
 42
0.041681
  0
VERTEX
  8
3
  6
CONTINUOUS
 62
   110
  5
146
 10
-868.155825
 20
36.944484
 30
0.0
 42
0.03183
  0
VERTEX
  8
3
  6
CONTINUOUS
 62
   110
  5
147
 10
-868.126794
 20
36.934138
 30
0.0
 42
0.026114
  0
VERTEX
  8
3
  6
CONTINUOUS
 62
   110
  5
148
 10
-868.093673
 20
36.92645
 30
0.0
 42
0.022956
  0
VERTEX
  8
3
  6
CONTINUOUS
 62
   110
  5
149
 10
-868.057735
 20
36.921716
 30
0.0
 42
0.021545
  0
VERTEX
  8
3
  6
CONTINUOUS
 62
   110
  5
14A
 10
-868.020361
 20
36.920117
 30
0.0
 42
0.021545
  0
VERTEX
  8
3
  6
CONTINUOUS
 62
   110
  5
14B
 10
-867.982986
 20
36.921716
 30
0.0
 42
0.022956
  0
VERTEX
  8
3
  6
CONTINUOUS
 62
   110
  5
14C
 10
-867.947048
 20
36.92645
 30
0.0
 42
0.026114
  0
VERTEX
  8
3
  6
CONTINUOUS
 62
   110
  5
14D
 10
-867.913927
 20
36.934138
 30
0.0
 42
0.03183
  0
VERTEX
  8
3
  6
CONTINUOUS
 62
   110
  5
14E
 10
-867.884897
 20
36.944484
 30
0.0
 42
0.041681
  0
VERTEX
  8
3
  6
CONTINUOUS
 62
   110
  5
14F
 10
-867.861072
 20
36.957091
 30
0.0
 42
0.058242
  0
VERTEX
  8
3
  6
CONTINUOUS
 62
   110
  5
150
 10
-867.843368
 20
36.971473
 30
0.0
 42
0.083254
  0
VERTEX
  8
3
  6
CONTINUOUS
 62
   110
  5
151
 10
-867.832467
 20
36.98708
 30
0.0
 42
0.107797
  0
VERTEX
  8
3
  6
CONTINUOUS
 62
   110
  5
152
 10
-867.828786
 20
37.00331
 30
0.0
 42
0.107797
  0
SEQEND
  8
3
  6
CONTINUOUS
 62
   110
  5
153
  0
POLYLINE
  8
3
  6
CONTINUOUS
 62
   110
  5
154
 66
     1
 10
0.0
 20
0.0
 30
0.0
210
0.0
220
0.0
230
1.0
  0
VERTEX
  8
3
  6
CONTINUOUS
 62
   110
  5
155
 10
-868.211936
 20
34.15146
 30
0.0
 42
-0.107797
  0
VERTEX
  8
3
  6
CONTINUOUS
 62
   110
  5
156
 10
-868.208255
 20
34.16769
 30
0.0
 42
-0.083254
  0
VERTEX
  8
3
  6
CONTINUOUS
 62
   110
  5
157
 10
-868.197353
 20
34.183297
 30
0.0
 42
-0.058242
  0
VERTEX
  8
3
  6
CONTINUOUS
 62
   110
  5
158
 10
-868.17965
 20
34.19768
 30
0.0
 42
-0.041681
  0
VERTEX
  8
3
  6
CONTINUOUS
 62
   110
  5
159
 10
-868.155825
 20
34.210286
 30
0.0
 42
-0.03183
  0
VERTEX
  8
3
  6
CONTINUOUS
 62
   110
  5
15A
 10
-868.126794
 20
34.220632
 30
0.0
 42
-0.026114
  0
VERTEX
  8
3
  6
CONTINUOUS
 62
   110
  5
15B
 10
-868.093673
 20
34.22832
 30
0.0
 42
-0.022956
  0
VERTEX
  8
3
  6
CONTINUOUS
 62
   110
  5
15C
 10
-868.057735
 20
34.233054
 30
0.0
 42
-0.021545
  0
VERTEX
  8
3
  6
CONTINUOUS
 62
   110
  5
15D
 10
-868.020361
 20
34.234653
 30
0.0
 42
-0.021545
  0
VERTEX
  8
3
  6
CONTINUOUS
 62
   110
  5
15E
 10
-867.982986
 20
34.233054
 30
0.0
 42
-0.022956
  0
VERTEX
  8
3
  6
CONTINUOUS
 62
   110
  5
15F
 10
-867.947048
 20
34.22832
 30
0.0
 42
-0.026114
  0
VERTEX
  8
3
  6
CONTINUOUS
 62
   110
  5
160
 10
-867.913927
 20
34.220632
 30
0.0
 42
-0.03183
  0
VERTEX
  8
3
  6
CONTINUOUS
 62
   110
  5
161
 10
-867.884897
 20
34.210286
 30
0.0
 42
-0.041681
  0
VERTEX
  8
3
  6
CONTINUOUS
 62
   110
  5
162
 10
-867.861072
 20
34.19768
 30
0.0
 42
-0.058242
  0
VERTEX
  8
3
  6
CONTINUOUS
 62
   110
  5
163
 10
-867.843368
 20
34.183297
 30
0.0
 42
-0.083254
  0
VERTEX
  8
3
  6
CONTINUOUS
 62
   110
  5
164
 10
-867.832467
 20
34.16769
 30
0.0
 42
-0.107797
  0
VERTEX
  8
3
  6
CONTINUOUS
 62
   110
  5
165
 10
-867.828786
 20
34.15146
 30
0.0
 42
-0.107797
  0
SEQEND
  8
3
  6
CONTINUOUS
 62
   110
  5
166
  0
POLYLINE
  8
3
  6
CONTINUOUS
 62
   110
  5
167
 66
     1
 10
0.0
 20
0.0
 30
0.0
210
0.0
220
0.0
230
1.0
  0
VERTEX
  8
3
  6
CONTINUOUS
 62
   110
  5
168
 10
-867.828786
 20
34.15146
 30
0.0
 42
-0.071267
  0
VERTEX
  8
3
  6
CONTINUOUS
 62
   110
  5
169
 10
-867.832467
 20
34.126046
 30
0.0
 42
-0.065729
  0
VERTEX
  8
3
  6
CONTINUOUS
 62
   110
  5
16A
 10
-867.843368
 20
34.101609
 30
0.0
 42
-0.057443
  0
VERTEX
  8
3
  6
CONTINUOUS
 62
   110
  5
16B
 10
-867.861072
 20
34.079088
 30
0.0
 42
-0.049287
  0
VERTEX
  8
3
  6
CONTINUOUS
 62
   110
  5
16C
 10
-867.884897
 20
34.059348
 30
0.0
 42
-0.042701
  0
VERTEX
  8
3
  6
CONTINUOUS
 62
   110
  5
16D
 10
-867.913927
 20
34.043147
 30
0.0
 42
-0.037998
  0
VERTEX
  8
3
  6
CONTINUOUS
 62
   110
  5
16E
 10
-867.947048
 20
34.031109
 30
0.0
 42
-0.03504
  0
VERTEX
  8
3
  6
CONTINUOUS
 62
   110
  5
16F
 10
-867.982986
 20
34.023696
 30
0.0
 42
-0.033623
  0
VERTEX
  8
3
  6
CONTINUOUS
 62
   110
  5
170
 10
-868.020361
 20
34.021193
 30
0.0
 42
-0.033623
  0
VERTEX
  8
3
  6
CONTINUOUS
 62
   110
  5
171
 10
-868.057735
 20
34.023696
 30
0.0
 42
-0.03504
  0
VERTEX
  8
3
  6
CONTINUOUS
 62
   110
  5
172
 10
-868.093673
 20
34.031109
 30
0.0
 42
-0.037998
  0
VERTEX
  8
3
  6
CONTINUOUS
 62
   110
  5
173
 10
-868.126794
 20
34.043147
 30
0.0
 42
-0.042701
  0
VERTEX
  8
3
  6
CONTINUOUS
 62
   110
  5
174
 10
-868.155825
 20
34.059348
 30
0.0
 42
-0.049287
  0
VERTEX
  8
3
  6
CONTINUOUS
 62
   110
  5
175
 10
-868.17965
 20
34.079088
 30
0.0
 42
-0.057443
  0
VERTEX
  8
3
  6
CONTINUOUS
 62
   110
  5
176
 10
-868.197353
 20
34.101609
 30
0.0
 42
-0.065729
  0
VERTEX
  8
3
  6
CONTINUOUS
 62
   110
  5
177
 10
-868.208255
 20
34.126046
 30
0.0
 42
-0.071267
  0
VERTEX
  8
3
  6
CONTINUOUS
 62
   110
  5
178
 10
-868.211936
 20
34.15146
 30
0.0
 42
-0.071267
  0
SEQEND
  8
3
  6
CONTINUOUS
 62
   110
  5
179
  0
POLYLINE
  8
3
  6
CONTINUOUS
 62
   110
  5
17A
 66
     1
 10
0.0
 20
0.0
 30
0.0
210
0.0
220
0.0
230
1.0
  0
VERTEX
  8
3
  6
CONTINUOUS
 62
   110
  5
17B
 10
-870.477678
 20
34.15146
 30
0.0
 42
-0.107797
  0
VERTEX
  8
3
  6
CONTINUOUS
 62
   110
  5
17C
 10
-870.473997
 20
34.16769
 30
0.0
 42
-0.083254
  0
VERTEX
  8
3
  6
CONTINUOUS
 62
   110
  5
17D
 10
-870.463095
 20
34.183297
 30
0.0
 42
-0.058242
  0
VERTEX
  8
3
  6
CONTINUOUS
 62
   110
  5
17E
 10
-870.445392
 20
34.19768
 30
0.0
 42
-0.041681
  0
VERTEX
  8
3
  6
CONTINUOUS
 62
   110
  5
17F
 10
-870.421567
 20
34.210286
 30
0.0
 42
-0.03183
  0
VERTEX
  8
3
  6
CONTINUOUS
 62
   110
  5
180
 10
-870.392537
 20
34.220632
 30
0.0
 42
-0.026114
  0
VERTEX
  8
3
  6
CONTINUOUS
 62
   110
  5
181
 10
-870.359416
 20
34.22832
 30
0.0
 42
-0.022956
  0
VERTEX
  8
3
  6
CONTINUOUS
 62
   110
  5
182
 10
-870.323478
 20
34.233054
 30
0.0
 42
-0.021545
  0
VERTEX
  8
3
  6
CONTINUOUS
 62
   110
  5
183
 10
-870.286103
 20
34.234653
 30
0.0
 42
-0.021545
  0
VERTEX
  8
3
  6
CONTINUOUS
 62
   110
  5
184
 10
-870.248729
 20
34.233054
 30
0.0
 42
-0.022956
  0
VERTEX
  8
3
  6
CONTINUOUS
 62
   110
  5
185
 10
-870.21279
 20
34.22832
 30
0.0
 42
-0.026114
  0
VERTEX
  8
3
  6
CONTINUOUS
 62
   110
  5
186
 10
-870.17967
 20
34.220632
 30
0.0
 42
-0.03183
  0
VERTEX
  8
3
  6
CONTINUOUS
 62
   110
  5
187
 10
-870.150639
 20
34.210286
 30
0.0
 42
-0.041681
  0
VERTEX
  8
3
  6
CONTINUOUS
 62
   110
  5
188
 10
-870.126814
 20
34.19768
 30
0.0
 42
-0.058242
  0
VERTEX
  8
3
  6
CONTINUOUS
 62
   110
  5
189
 10
-870.109111
 20
34.183297
 30
0.0
 42
-0.083254
  0
VERTEX
  8
3
  6
CONTINUOUS
 62
   110
  5
18A
 10
-870.098209
 20
34.16769
 30
0.0
 42
-0.107797
  0
VERTEX
  8
3
  6
CONTINUOUS
 62
   110
  5
18B
 10
-870.094528
 20
34.15146
 30
0.0
 42
-0.107797
  0
SEQEND
  8
3
  6
CONTINUOUS
 62
   110
  5
18C
  0
POLYLINE
  8
3
  6
CONTINUOUS
 62
   110
  5
18D
 66
     1
 10
0.0
 20
0.0
 30
0.0
210
0.0
220
0.0
230
1.0
  0
VERTEX
  8
3
  6
CONTINUOUS
 62
   110
  5
18E
 10
-870.094528
 20
34.15146
 30
0.0
 42
-0.071267
  0
VERTEX
  8
3
  6
CONTINUOUS
 62
   110
  5
18F
 10
-870.098209
 20
34.126046
 30
0.0
 42
-0.065729
  0
VERTEX
  8
3
  6
CONTINUOUS
 62
   110
  5
190
 10
-870.109111
 20
34.101609
 30
0.0
 42
-0.057443
  0
VERTEX
  8
3
  6
CONTINUOUS
 62
   110
  5
191
 10
-870.126814
 20
34.079088
 30
0.0
 42
-0.049287
  0
VERTEX
  8
3
  6
CONTINUOUS
 62
   110
  5
192
 10
-870.150639
 20
34.059348
 30
0.0
 42
-0.042701
  0
VERTEX
  8
3
  6
CONTINUOUS
 62
   110
  5
193
 10
-870.17967
 20
34.043147
 30
0.0
 42
-0.037998
  0
VERTEX
  8
3
  6
CONTINUOUS
 62
   110
  5
194
 10
-870.21279
 20
34.031109
 30
0.0
 42
-0.03504
  0
VERTEX
  8
3
  6
CONTINUOUS
 62
   110
  5
195
 10
-870.248729
 20
34.023696
 30
0.0
 42
-0.033623
  0
VERTEX
  8
3
  6
CONTINUOUS
 62
   110
  5
196
 10
-870.286103
 20
34.021193
 30
0.0
 42
-0.033623
  0
VERTEX
  8
3
  6
CONTINUOUS
 62
   110
  5
197
 10
-870.323478
 20
34.023696
 30
0.0
 42
-0.03504
  0
VERTEX
  8
3
  6
CONTINUOUS
 62
   110
  5
198
 10
-870.359416
 20
34.031109
 30
0.0
 42
-0.037998
  0
VERTEX
  8
3
  6
CONTINUOUS
 62
   110
  5
199
 10
-870.392537
 20
34.043147
 30
0.0
 42
-0.042701
  0
VERTEX
  8
3
  6
CONTINUOUS
 62
   110
  5
19A
 10
-870.421567
 20
34.059348
 30
0.0
 42
-0.049287
  0
VERTEX
  8
3
  6
CONTINUOUS
 62
   110
  5
19B
 10
-870.445392
 20
34.079088
 30
0.0
 42
-0.057443
  0
VERTEX
  8
3
  6
CONTINUOUS
 62
   110
  5
19C
 10
-870.463095
 20
34.101609
 30
0.0
 42
-0.065729
  0
VERTEX
  8
3
  6
CONTINUOUS
 62
   110
  5
19D
 10
-870.473997
 20
34.126046
 30
0.0
 42
-0.071267
  0
VERTEX
  8
3
  6
CONTINUOUS
 62
   110
  5
19E
 10
-870.477678
 20
34.15146
 30
0.0
 42
-0.071267
  0
SEQEND
  8
3
  6
CONTINUOUS
 62
   110
  5
19F
  0
POLYLINE
  8
3
  6
CONTINUOUS
 62
   110
  5
1A0
 66
     1
 10
0.0
 20
0.0
 30
0.0
210
0.0
220
0.0
230
1.0
  0
VERTEX
  8
3
  6
CONTINUOUS
 62
   110
  5
1A1
 10
-830.09484
 20
37.00331
 30
0.0
 42
0.071267
  0
VERTEX
  8
3
  6
CONTINUOUS
 62
   110
  5
1A2
 10
-830.098521
 20
37.028724
 30
0.0
 42
0.065729
  0
VERTEX
  8
3
  6
CONTINUOUS
 62
   110
  5
1A3
 10
-830.109423
 20
37.053161
 30
0.0
 42
0.057443
  0
VERTEX
  8
3
  6
CONTINUOUS
 62
   110
  5
1A4
 10
-830.127127
 20
37.075682
 30
0.0
 42
0.049287
  0
VERTEX
  8
3
  6
CONTINUOUS
 62
   110
  5
1A5
 10
-830.150951
 20
37.095423
 30
0.0
 42
0.042701
  0
VERTEX
  8
3
  6
CONTINUOUS
 62
   110
  5
1A6
 10
-830.179982
 20
37.111623
 30
0.0
 42
0.037998
  0
VERTEX
  8
3
  6
CONTINUOUS
 62
   110
  5
1A7
 10
-830.213103
 20
37.123661
 30
0.0
 42
0.03504
  0
VERTEX
  8
3
  6
CONTINUOUS
 62
   110
  5
1A8
 10
-830.249041
 20
37.131074
 30
0.0
 42
0.033623
  0
VERTEX
  8
3
  6
CONTINUOUS
 62
   110
  5
1A9
 10
-830.286415
 20
37.133577
 30
0.0
 42
0.033623
  0
VERTEX
  8
3
  6
CONTINUOUS
 62
   110
  5
1AA
 10
-830.32379
 20
37.131074
 30
0.0
 42
0.03504
  0
VERTEX
  8
3
  6
CONTINUOUS
 62
   110
  5
1AB
 10
-830.359728
 20
37.123661
 30
0.0
 42
0.037998
  0
VERTEX
  8
3
  6
CONTINUOUS
 62
   110
  5
1AC
 10
-830.392849
 20
37.111623
 30
0.0
 42
0.042701
  0
VERTEX
  8
3
  6
CONTINUOUS
 62
   110
  5
1AD
 10
-830.42188
 20
37.095423
 30
0.0
 42
0.049287
  0
VERTEX
  8
3
  6
CONTINUOUS
 62
   110
  5
1AE
 10
-830.445704
 20
37.075682
 30
0.0
 42
0.057443
  0
VERTEX
  8
3
  6
CONTINUOUS
 62
   110
  5
1AF
 10
-830.463408
 20
37.053161
 30
0.0
 42
0.065729
  0
VERTEX
  8
3
  6
CONTINUOUS
 62
   110
  5
1B0
 10
-830.47431
 20
37.028724
 30
0.0
 42
0.071267
  0
VERTEX
  8
3
  6
CONTINUOUS
 62
   110
  5
1B1
 10
-830.477991
 20
37.00331
 30
0.0
 42
0.071267
  0
SEQEND
  8
3
  6
CONTINUOUS
 62
   110
  5
1B2
  0
POLYLINE
  8
3
  6
CONTINUOUS
 62
   110
  5
1B3
 66
     1
 10
0.0
 20
0.0
 30
0.0
210
0.0
220
0.0
230
1.0
  0
VERTEX
  8
3
  6
CONTINUOUS
 62
   110
  5
1B4
 10
-830.477991
 20
37.00331
 30
0.0
 42
0.107797
  0
VERTEX
  8
3
  6
CONTINUOUS
 62
   110
  5
1B5
 10
-830.47431
 20
36.98708
 30
0.0
 42
0.083254
  0
VERTEX
  8
3
  6
CONTINUOUS
 62
   110
  5
1B6
 10
-830.463408
 20
36.971473
 30
0.0
 42
0.058242
  0
VERTEX
  8
3
  6
CONTINUOUS
 62
   110
  5
1B7
 10
-830.445704
 20
36.957091
 30
0.0
 42
0.041681
  0
VERTEX
  8
3
  6
CONTINUOUS
 62
   110
  5
1B8
 10
-830.42188
 20
36.944484
 30
0.0
 42
0.03183
  0
VERTEX
  8
3
  6
CONTINUOUS
 62
   110
  5
1B9
 10
-830.392849
 20
36.934138
 30
0.0
 42
0.026114
  0
VERTEX
  8
3
  6
CONTINUOUS
 62
   110
  5
1BA
 10
-830.359728
 20
36.92645
 30
0.0
 42
0.022956
  0
VERTEX
  8
3
  6
CONTINUOUS
 62
   110
  5
1BB
 10
-830.32379
 20
36.921716
 30
0.0
 42
0.021545
  0
VERTEX
  8
3
  6
CONTINUOUS
 62
   110
  5
1BC
 10
-830.286415
 20
36.920117
 30
0.0
 42
0.021545
  0
VERTEX
  8
3
  6
CONTINUOUS
 62
   110
  5
1BD
 10
-830.249041
 20
36.921716
 30
0.0
 42
0.022956
  0
VERTEX
  8
3
  6
CONTINUOUS
 62
   110
  5
1BE
 10
-830.213103
 20
36.92645
 30
0.0
 42
0.026114
  0
VERTEX
  8
3
  6
CONTINUOUS
 62
   110
  5
1BF
 10
-830.179982
 20
36.934138
 30
0.0
 42
0.03183
  0
VERTEX
  8
3
  6
CONTINUOUS
 62
   110
  5
1C0
 10
-830.150951
 20
36.944484
 30
0.0
 42
0.041681
  0
VERTEX
  8
3
  6
CONTINUOUS
 62
   110
  5
1C1
 10
-830.127127
 20
36.957091
 30
0.0
 42
0.058242
  0
VERTEX
  8
3
  6
CONTINUOUS
 62
   110
  5
1C2
 10
-830.109423
 20
36.971473
 30
0.0
 42
0.083254
  0
VERTEX
  8
3
  6
CONTINUOUS
 62
   110
  5
1C3
 10
-830.098521
 20
36.98708
 30
0.0
 42
0.107797
  0
VERTEX
  8
3
  6
CONTINUOUS
 62
   110
  5
1C4
 10
-830.09484
 20
37.00331
 30
0.0
 42
0.107797
  0
SEQEND
  8
3
  6
CONTINUOUS
 62
   110
  5
1C5
  0
POLYLINE
  8
3
  6
CONTINUOUS
 62
   110
  5
1C6
 66
     1
 10
0.0
 20
0.0
 30
0.0
210
0.0
220
0.0
230
1.0
  0
VERTEX
  8
3
  6
CONTINUOUS
 62
   110
  5
1C7
 10
-827.829098
 20
37.00331
 30
0.0
 42
0.071267
  0
VERTEX
  8
3
  6
CONTINUOUS
 62
   110
  5
1C8
 10
-827.832779
 20
37.028724
 30
0.0
 42
0.065729
  0
VERTEX
  8
3
  6
CONTINUOUS
 62
   110
  5
1C9
 10
-827.843681
 20
37.053161
 30
0.0
 42
0.057443
  0
VERTEX
  8
3
  6
CONTINUOUS
 62
   110
  5
1CA
 10
-827.861384
 20
37.075682
 30
0.0
 42
0.049287
  0
VERTEX
  8
3
  6
CONTINUOUS
 62
   110
  5
1CB
 10
-827.885209
 20
37.095423
 30
0.0
 42
0.042701
  0
VERTEX
  8
3
  6
CONTINUOUS
 62
   110
  5
1CC
 10
-827.91424
 20
37.111623
 30
0.0
 42
0.037998
  0
VERTEX
  8
3
  6
CONTINUOUS
 62
   110
  5
1CD
 10
-827.947361
 20
37.123661
 30
0.0
 42
0.03504
  0
VERTEX
  8
3
  6
CONTINUOUS
 62
   110
  5
1CE
 10
-827.983299
 20
37.131074
 30
0.0
 42
0.033623
  0
VERTEX
  8
3
  6
CONTINUOUS
 62
   110
  5
1CF
 10
-828.020673
 20
37.133577
 30
0.0
 42
0.033623
  0
VERTEX
  8
3
  6
CONTINUOUS
 62
   110
  5
1D0
 10
-828.058048
 20
37.131074
 30
0.0
 42
0.03504
  0
VERTEX
  8
3
  6
CONTINUOUS
 62
   110
  5
1D1
 10
-828.093986
 20
37.123661
 30
0.0
 42
0.037998
  0
VERTEX
  8
3
  6
CONTINUOUS
 62
   110
  5
1D2
 10
-828.127107
 20
37.111623
 30
0.0
 42
0.042701
  0
VERTEX
  8
3
  6
CONTINUOUS
 62
   110
  5
1D3
 10
-828.156137
 20
37.095423
 30
0.0
 42
0.049287
  0
VERTEX
  8
3
  6
CONTINUOUS
 62
   110
  5
1D4
 10
-828.179962
 20
37.075682
 30
0.0
 42
0.057443
  0
VERTEX
  8
3
  6
CONTINUOUS
 62
   110
  5
1D5
 10
-828.197666
 20
37.053161
 30
0.0
 42
0.065729
  0
VERTEX
  8
3
  6
CONTINUOUS
 62
   110
  5
1D6
 10
-828.208567
 20
37.028724
 30
0.0
 42
0.071267
  0
VERTEX
  8
3
  6
CONTINUOUS
 62
   110
  5
1D7
 10
-828.212248
 20
37.00331
 30
0.0
 42
0.071267
  0
SEQEND
  8
3
  6
CONTINUOUS
 62
   110
  5
1D8
  0
POLYLINE
  8
3
  6
CONTINUOUS
 62
   110
  5
1D9
 66
     1
 10
0.0
 20
0.0
 30
0.0
210
0.0
220
0.0
230
1.0
  0
VERTEX
  8
3
  6
CONTINUOUS
 62
   110
  5
1DA
 10
-828.212248
 20
34.15146
 30
0.0
 42
-0.107797
  0
VERTEX
  8
3
  6
CONTINUOUS
 62
   110
  5
1DB
 10
-828.208567
 20
34.16769
 30
0.0
 42
-0.083254
  0
VERTEX
  8
3
  6
CONTINUOUS
 62
   110
  5
1DC
 10
-828.197666
 20
34.183297
 30
0.0
 42
-0.058242
  0
VERTEX
  8
3
  6
CONTINUOUS
 62
   110
  5
1DD
 10
-828.179962
 20
34.19768
 30
0.0
 42
-0.041681
  0
VERTEX
  8
3
  6
CONTINUOUS
 62
   110
  5
1DE
 10
-828.156137
 20
34.210286
 30
0.0
 42
-0.03183
  0
VERTEX
  8
3
  6
CONTINUOUS
 62
   110
  5
1DF
 10
-828.127107
 20
34.220632
 30
0.0
 42
-0.026114
  0
VERTEX
  8
3
  6
CONTINUOUS
 62
   110
  5
1E0
 10
-828.093986
 20
34.22832
 30
0.0
 42
-0.022956
  0
VERTEX
  8
3
  6
CONTINUOUS
 62
   110
  5
1E1
 10
-828.058048
 20
34.233054
 30
0.0
 42
-0.021545
  0
VERTEX
  8
3
  6
CONTINUOUS
 62
   110
  5
1E2
 10
-828.020673
 20
34.234653
 30
0.0
 42
-0.021545
  0
VERTEX
  8
3
  6
CONTINUOUS
 62
   110
  5
1E3
 10
-827.983299
 20
34.233054
 30
0.0
 42
-0.022956
  0
VERTEX
  8
3
  6
CONTINUOUS
 62
   110
  5
1E4
 10
-827.947361
 20
34.22832
 30
0.0
 42
-0.026114
  0
VERTEX
  8
3
  6
CONTINUOUS
 62
   110
  5
1E5
 10
-827.91424
 20
34.220632
 30
0.0
 42
-0.03183
  0
VERTEX
  8
3
  6
CONTINUOUS
 62
   110
  5
1E6
 10
-827.885209
 20
34.210286
 30
0.0
 42
-0.041681
  0
VERTEX
  8
3
  6
CONTINUOUS
 62
   110
  5
1E7
 10
-827.861384
 20
34.19768
 30
0.0
 42
-0.058242
  0
VERTEX
  8
3
  6
CONTINUOUS
 62
   110
  5
1E8
 10
-827.843681
 20
34.183297
 30
0.0
 42
-0.083254
  0
VERTEX
  8
3
  6
CONTINUOUS
 62
   110
  5
1E9
 10
-827.832779
 20
34.16769
 30
0.0
 42
-0.107797
  0
VERTEX
  8
3
  6
CONTINUOUS
 62
   110
  5
1EA
 10
-827.829098
 20
34.15146
 30
0.0
 42
-0.107797
  0
SEQEND
  8
3
  6
CONTINUOUS
 62
   110
  5
1EB
  0
POLYLINE
  8
3
  6
CONTINUOUS
 62
   110
  5
1EC
 66
     1
 10
0.0
 20
0.0
 30
0.0
210
0.0
220
0.0
230
1.0
  0
VERTEX
  8
3
  6
CONTINUOUS
 62
   110
  5
1ED
 10
-827.829098
 20
34.15146
 30
0.0
 42
-0.071267
  0
VERTEX
  8
3
  6
CONTINUOUS
 62
   110
  5
1EE
 10
-827.832779
 20
34.126046
 30
0.0
 42
-0.065729
  0
VERTEX
  8
3
  6
CONTINUOUS
 62
   110
  5
1EF
 10
-827.843681
 20
34.101609
 30
0.0
 42
-0.057443
  0
VERTEX
  8
3
  6
CONTINUOUS
 62
   110
  5
1F0
 10
-827.861384
 20
34.079088
 30
0.0
 42
-0.049287
  0
VERTEX
  8
3
  6
CONTINUOUS
 62
   110
  5
1F1
 10
-827.885209
 20
34.059348
 30
0.0
 42
-0.042701
  0
VERTEX
  8
3
  6
CONTINUOUS
 62
   110
  5
1F2
 10
-827.91424
 20
34.043147
 30
0.0
 42
-0.037998
  0
VERTEX
  8
3
  6
CONTINUOUS
 62
   110
  5
1F3
 10
-827.947361
 20
34.031109
 30
0.0
 42
-0.03504
  0
VERTEX
  8
3
  6
CONTINUOUS
 62
   110
  5
1F4
 10
-827.983299
 20
34.023696
 30
0.0
 42
-0.033623
  0
VERTEX
  8
3
  6
CONTINUOUS
 62
   110
  5
1F5
 10
-828.020673
 20
34.021193
 30
0.0
 42
-0.033623
  0
VERTEX
  8
3
  6
CONTINUOUS
 62
   110
  5
1F6
 10
-828.058048
 20
34.023696
 30
0.0
 42
-0.03504
  0
VERTEX
  8
3
  6
CONTINUOUS
 62
   110
  5
1F7
 10
-828.093986
 20
34.031109
 30
0.0
 42
-0.037998
  0
VERTEX
  8
3
  6
CONTINUOUS
 62
   110
  5
1F8
 10
-828.127107
 20
34.043147
 30
0.0
 42
-0.042701
  0
VERTEX
  8
3
  6
CONTINUOUS
 62
   110
  5
1F9
 10
-828.156137
 20
34.059348
 30
0.0
 42
-0.049287
  0
VERTEX
  8
3
  6
CONTINUOUS
 62
   110
  5
1FA
 10
-828.179962
 20
34.079088
 30
0.0
 42
-0.057443
  0
VERTEX
  8
3
  6
CONTINUOUS
 62
   110
  5
1FB
 10
-828.197666
 20
34.101609
 30
0.0
 42
-0.065729
  0
VERTEX
  8
3
  6
CONTINUOUS
 62
   110
  5
1FC
 10
-828.208567
 20
34.126046
 30
0.0
 42
-0.071267
  0
VERTEX
  8
3
  6
CONTINUOUS
 62
   110
  5
1FD
 10
-828.212248
 20
34.15146
 30
0.0
 42
-0.071267
  0
SEQEND
  8
3
  6
CONTINUOUS
 62
   110
  5
1FE
  0
POLYLINE
  8
3
  6
CONTINUOUS
 62
   110
  5
1FF
 66
     1
 10
0.0
 20
0.0
 30
0.0
210
0.0
220
0.0
230
1.0
  0
VERTEX
  8
3
  6
CONTINUOUS
 62
   110
  5
200
 10
-830.477991
 20
34.15146
 30
0.0
 42
-0.107797
  0
VERTEX
  8
3
  6
CONTINUOUS
 62
   110
  5
201
 10
-830.47431
 20
34.16769
 30
0.0
 42
-0.083254
  0
VERTEX
  8
3
  6
CONTINUOUS
 62
   110
  5
202
 10
-830.463408
 20
34.183297
 30
0.0
 42
-0.058242
  0
VERTEX
  8
3
  6
CONTINUOUS
 62
   110
  5
203
 10
-830.445704
 20
34.19768
 30
0.0
 42
-0.041681
  0
VERTEX
  8
3
  6
CONTINUOUS
 62
   110
  5
204
 10
-830.42188
 20
34.210286
 30
0.0
 42
-0.03183
  0
VERTEX
  8
3
  6
CONTINUOUS
 62
   110
  5
205
 10
-830.392849
 20
34.220632
 30
0.0
 42
-0.026114
  0
VERTEX
  8
3
  6
CONTINUOUS
 62
   110
  5
206
 10
-830.359728
 20
34.22832
 30
0.0
 42
-0.022956
  0
VERTEX
  8
3
  6
CONTINUOUS
 62
   110
  5
207
 10
-830.32379
 20
34.233054
 30
0.0
 42
-0.021545
  0
VERTEX
  8
3
  6
CONTINUOUS
 62
   110
  5
208
 10
-830.286415
 20
34.234653
 30
0.0
 42
-0.021545
  0
VERTEX
  8
3
  6
CONTINUOUS
 62
   110
  5
209
 10
-830.249041
 20
34.233054
 30
0.0
 42
-0.022956
  0
VERTEX
  8
3
  6
CONTINUOUS
 62
   110
  5
20A
 10
-830.213103
 20
34.22832
 30
0.0
 42
-0.026114
  0
VERTEX
  8
3
  6
CONTINUOUS
 62
   110
  5
20B
 10
-830.179982
 20
34.220632
 30
0.0
 42
-0.03183
  0
VERTEX
  8
3
  6
CONTINUOUS
 62
   110
  5
20C
 10
-830.150951
 20
34.210286
 30
0.0
 42
-0.041681
  0
VERTEX
  8
3
  6
CONTINUOUS
 62
   110
  5
20D
 10
-830.127127
 20
34.19768
 30
0.0
 42
-0.058242
  0
VERTEX
  8
3
  6
CONTINUOUS
 62
   110
  5
20E
 10
-830.109423
 20
34.183297
 30
0.0
 42
-0.083254
  0
VERTEX
  8
3
  6
CONTINUOUS
 62
   110
  5
20F
 10
-830.098521
 20
34.16769
 30
0.0
 42
-0.107797
  0
VERTEX
  8
3
  6
CONTINUOUS
 62
   110
  5
210
 10
-830.09484
 20
34.15146
 30
0.0
 42
-0.107797
  0
SEQEND
  8
3
  6
CONTINUOUS
 62
   110
  5
211
  0
POLYLINE
  8
3
  6
CONTINUOUS
 62
   110
  5
212
 66
     1
 10
0.0
 20
0.0
 30
0.0
210
0.0
220
0.0
230
1.0
  0
VERTEX
  8
3
  6
CONTINUOUS
 62
   110
  5
213
 10
-830.09484
 20
34.15146
 30
0.0
 42
-0.071267
  0
VERTEX
  8
3
  6
CONTINUOUS
 62
   110
  5
214
 10
-830.098521
 20
34.126046
 30
0.0
 42
-0.065729
  0
VERTEX
  8
3
  6
CONTINUOUS
 62
   110
  5
215
 10
-830.109423
 20
34.101609
 30
0.0
 42
-0.057443
  0
VERTEX
  8
3
  6
CONTINUOUS
 62
   110
  5
216
 10
-830.127127
 20
34.079088
 30
0.0
 42
-0.049287
  0
VERTEX
  8
3
  6
CONTINUOUS
 62
   110
  5
217
 10
-830.150951
 20
34.059348
 30
0.0
 42
-0.042701
  0
VERTEX
  8
3
  6
CONTINUOUS
 62
   110
  5
218
 10
-830.179982
 20
34.043147
 30
0.0
 42
-0.037998
  0
VERTEX
  8
3
  6
CONTINUOUS
 62
   110
  5
219
 10
-830.213103
 20
34.031109
 30
0.0
 42
-0.03504
  0
VERTEX
  8
3
  6
CONTINUOUS
 62
   110
  5
21A
 10
-830.249041
 20
34.023696
 30
0.0
 42
-0.033623
  0
VERTEX
  8
3
  6
CONTINUOUS
 62
   110
  5
21B
 10
-830.286415
 20
34.021193
 30
0.0
 42
-0.033623
  0
VERTEX
  8
3
  6
CONTINUOUS
 62
   110
  5
21C
 10
-830.32379
 20
34.023696
 30
0.0
 42
-0.03504
  0
VERTEX
  8
3
  6
CONTINUOUS
 62
   110
  5
21D
 10
-830.359728
 20
34.031109
 30
0.0
 42
-0.037998
  0
VERTEX
  8
3
  6
CONTINUOUS
 62
   110
  5
21E
 10
-830.392849
 20
34.043147
 30
0.0
 42
-0.042701
  0
VERTEX
  8
3
  6
CONTINUOUS
 62
   110
  5
21F
 10
-830.42188
 20
34.059348
 30
0.0
 42
-0.049287
  0
VERTEX
  8
3
  6
CONTINUOUS
 62
   110
  5
220
 10
-830.445704
 20
34.079088
 30
0.0
 42
-0.057443
  0
VERTEX
  8
3
  6
CONTINUOUS
 62
   110
  5
221
 10
-830.463408
 20
34.101609
 30
0.0
 42
-0.065729
  0
VERTEX
  8
3
  6
CONTINUOUS
 62
   110
  5
222
 10
-830.47431
 20
34.126046
 30
0.0
 42
-0.071267
  0
VERTEX
  8
3
  6
CONTINUOUS
 62
   110
  5
223
 10
-830.477991
 20
34.15146
 30
0.0
 42
-0.071267
  0
SEQEND
  8
3
  6
CONTINUOUS
 62
   110
  5
224
  0
POINT
  8
3
  6
CONTINUOUS
 62
     2
  5
225
 10
-829.152167
 20
35.577167
 30
0.0
  0
LINE
  8
3
  6
CONTINUOUS
 62
     7
  5
226
 10
-828.352167
 20
29.977833
 30
0.0
 11
-828.352167
 21
33.929167
 31
0.0
  0
LINE
  8
3
  6
CONTINUOUS
 62
     7
  5
227
 10
-828.352167
 20
37.209167
 30
0.0
 11
-828.352167
 21
37.4425
 31
0.0
  0
LINE
  8
3
  6
CONTINUOUS
 62
     7
  5
228
 10
-829.952167
 20
29.977833
 30
0.0
 11
-829.952167
 21
33.929167
 31
0.0
  0
LINE
  8
3
  6
CONTINUOUS
 62
     7
  5
229
 10
-829.952167
 20
37.209167
 30
0.0
 11
-829.952167
 21
37.4425
 31
0.0
  0
LINE
  8
3
  6
CONTINUOUS
 62
     7
  5
22A
 10
-829.952167
 20
37.4425
 30
0.0
 11
-828.352167
 21
37.4425
 31
0.0
  0
LINE
  8
3
  6
CONTINUOUS
 62
     7
  5
22B
 10
-909.9515
 20
33.711833
 30
0.0
 11
-909.9515
 21
29.977833
 31
0.0
  0
LINE
  8
3
  6
CONTINUOUS
 62
     7
  5
22C
 10
-908.3515
 20
33.711833
 30
0.0
 11
-908.3515
 21
29.977833
 31
0.0
  0
LINE
  8
3
  6
CONTINUOUS
 62
     7
  5
22D
 10
-896.6175
 20
33.711833
 30
0.0
 11
-896.6175
 21
29.977833
 31
0.0
  0
LINE
  8
3
  6
CONTINUOUS
 62
     7
  5
22E
 10
-895.0175
 20
33.711833
 30
0.0
 11
-895.0175
 21
29.977833
 31
0.0
  0
LINE
  8
3
  6
CONTINUOUS
 62
     7
  5
22F
 10
-883.282833
 20
33.711833
 30
0.0
 11
-883.282833
 21
29.977833
 31
0.0
  0
LINE
  8
3
  6
CONTINUOUS
 62
     7
  5
230
 10
-881.682833
 20
33.711833
 30
0.0
 11
-881.682833
 21
29.977833
 31
0.0
  0
LINE
  8
3
  6
CONTINUOUS
 62
     7
  5
231
 10
-847.9075
 20
25.647833
 30
0.0
 11
-847.9075
 21
26.0925
 31
0.0
  0
ARC
  8
3
  6
CONTINUOUS
 62
     7
  5
232
 10
-850.531043
 20
25.661915
 30
0.0
 40
0.07074
 50
84.319108
 51
272.209481
210
0.0
220
0.0
230
1.0
  0
ARC
  8
3
  6
CONTINUOUS
 62
     7
  5
233
 10
-850.477463
 20
25.852013
 30
0.0
 40
0.128447
 50
111.2609
 51
248.7391
210
0.0
220
0.0
230
1.0
  0
ARC
  8
3
  6
CONTINUOUS
 62
     7
  5
234
 10
-850.510265
 20
26.061496
 30
0.0
 40
0.090829
 50
98.723381
 51
261.276619
210
0.0
220
0.0
230
1.0
  0
LINE
  8
3
  6
CONTINUOUS
 62
     7
  5
235
 10
-850.602167
 20
25.673167
 30
0.0
 11
-850.602167
 21
26.073167
 31
0.0
  0
POLYLINE
  8
3
  6
CONTINUOUS
 62
     7
  5
236
 66
     1
 10
0.0
 20
0.0
 30
0.0
 70
     1
  0
VERTEX
  8
3
  6
CONTINUOUS
 62
     7
  5
237
 10
-850.602167
 20
25.967833
 30
0.0
  0
VERTEX
  8
3
  6
CONTINUOUS
 62
     7
  5
238
 10
-850.602167
 20
25.731167
 30
0.0
  0
VERTEX
  8
3
  6
CONTINUOUS
 62
     7
  5
239
 10
-850.684833
 20
25.731167
 30
0.0
  0
VERTEX
  8
3
  6
CONTINUOUS
 62
     7
  5
23A
 10
-850.684833
 20
25.967833
 30
0.0
  0
SEQEND
  8
3
  6
CONTINUOUS
 62
     7
  5
23B
  0
POLYLINE
  8
3
  6
DASHED
 62
     7
  5
23C
 66
     1
 10
0.0
 20
0.0
 30
0.0
  0
VERTEX
  8
3
  6
DASHED
 62
     7
  5
23D
 10
-850.220833
 20
29.263833
 30
0.0
  0
VERTEX
  8
3
  6
DASHED
 62
     7
  5
23E
 10
-850.220833
 20
29.263833
 30
0.0
  0
VERTEX
  8
3
  6
DASHED
 62
     7
  5
23F
 10
-850.336167
 20
29.263833
 30
0.0
  0
VERTEX
  8
3
  6
DASHED
 62
     7
  5
240
 10
-850.336167
 20
22.7905
 30
0.0
  0
VERTEX
  8
3
  6
DASHED
 62
     7
  5
241
 10
-850.220833
 20
22.7905
 30
0.0
  0
VERTEX
  8
3
  6
DASHED
 62
     7
  5
242
 10
-850.220833
 20
22.797167
 30
0.0
  0
SEQEND
  8
3
  6
DASHED
 62
     7
  5
243
  0
LINE
  8
3
  6
CONTINUOUS
 62
     7
  5
244
 10
-850.336167
 20
25.971167
 30
0.0
 11
-850.5155
 21
25.971167
 31
0.0
  0
LINE
  8
3
  6
CONTINUOUS
 62
     7
  5
245
 10
-850.326167
 20
25.731167
 30
0.0
 11
-850.512167
 21
25.731167
 31
0.0
  0
LINE
  8
3
  6
HIDDEN
 62
     7
  5
246
 10
-850.1375
 20
25.737167
 30
0.0
 11
-850.326167
 21
25.737167
 31
0.0
  0
LINE
  8
3
  6
HIDDEN
 62
     7
  5
247
 10
-850.3455
 20
25.7185
 30
0.0
 11
-850.348833
 21
25.7185
 31
0.0
  0
POLYLINE
  8
3
  6
CONTINUOUS
 62
     7
  5
248
 66
     1
 10
0.0
 20
0.0
 30
0.0
  0
VERTEX
  8
3
  6
CONTINUOUS
 62
     7
  5
249
 10
-850.524833
 20
26.1465
 30
0.0
  0
VERTEX
  8
3
  6
CONTINUOUS
 62
     7
  5
24A
 10
-850.524833
 20
26.1505
 30
0.0
  0
VERTEX
  8
3
  6
CONTINUOUS
 62
     7
  5
24B
 10
-850.332833
 20
26.1505
 30
0.0
  0
VERTEX
  8
3
  6
CONTINUOUS
 62
     7
  5
24C
 10
-850.332833
 20
26.1465
 30
0.0
  0
SEQEND
  8
3
  6
CONTINUOUS
 62
     7
  5
24D
  0
LINE
  8
3
  6
CONTINUOUS
 62
     7
  5
24E
 10
-850.332833
 20
25.5905
 30
0.0
 11
-850.524833
 21
25.5905
 31
0.0
  0
POLYLINE
  8
3
  6
HIDDEN
 62
     7
  5
24F
 66
     1
 10
0.0
 20
0.0
 30
0.0
  0
VERTEX
  8
3
  6
HIDDEN
 62
     7
  5
250
 10
-850.336167
 20
25.977167
 30
0.0
  0
VERTEX
  8
3
  6
HIDDEN
 62
     7
  5
251
 10
-850.1375
 20
25.977167
 30
0.0
  0
VERTEX
  8
3
  6
HIDDEN
 62
     7
  5
252
 10
-848.146833
 20
25.977167
 30
0.0
  0
SEQEND
  8
3
  6
HIDDEN
 62
     7
  5
253
  0
POLYLINE
  8
3
  6
HIDDEN
 62
     7
  5
254
 66
     1
 10
0.0
 20
0.0
 30
0.0
  0
VERTEX
  8
3
  6
HIDDEN
 62
     7
  5
255
 10
-848.146833
 20
25.737167
 30
0.0
  0
VERTEX
  8
3
  6
HIDDEN
 62
     7
  5
256
 10
-850.1375
 20
25.737167
 30
0.0
  0
VERTEX
  8
3
  6
HIDDEN
 62
     7
  5
257
 10
-850.1375
 20
25.731167
 30
0.0
  0
SEQEND
  8
3
  6
HIDDEN
 62
     7
  5
258
  0
ARC
  8
3
  6
CONTINUOUS
 62
     7
  5
259
 10
-847.978178
 20
25.640392
 30
0.0
 40
0.070573
 50
268.264297
 51
81.384353
210
0.0
220
0.0
230
1.0
  0
LINE
  8
3
  6
CONTINUOUS
 62
     7
  5
25A
 10
-848.146833
 20
25.977167
 30
0.0
 11
-848.150833
 21
25.977167
 31
0.0
  0
LINE
  8
3
  6
CONTINUOUS
 62
     7
  5
25B
 10
-848.146833
 20
25.603167
 30
0.0
 11
-848.146833
 21
26.1185
 31
0.0
  0
POLYLINE
  8
3
  6
CONTINUOUS
 62
     7
  5
25C
 66
     1
 10
0.0
 20
0.0
 30
0.0
  0
VERTEX
  8
3
  6
CONTINUOUS
 62
     7
  5
25D
 10
-847.968167
 20
26.1465
 30
0.0
  0
VERTEX
  8
3
  6
CONTINUOUS
 62
     7
  5
25E
 10
-848.146833
 20
26.1465
 30
0.0
  0
VERTEX
  8
3
  6
CONTINUOUS
 62
     7
  5
25F
 10
-848.146833
 20
25.603167
 30
0.0
  0
SEQEND
  8
3
  6
CONTINUOUS
 62
     7
  5
260
  0
LINE
  8
3
  6
CONTINUOUS
 62
     7
  5
261
 10
-848.146833
 20
26.1185
 30
0.0
 11
-848.146833
 21
25.5745
 31
0.0
  0
ARC
  8
3
  6
CONTINUOUS
 62
     7
  5
262
 10
-847.98169
 20
26.074321
 30
0.0
 40
0.074052
 50
281.055081
 51
78.944919
210
0.0
220
0.0
230
1.0
  0
ARC
  8
3
  6
CONTINUOUS
 62
     7
  5
263
 10
-848.113457
 20
25.856288
 30
0.0
 40
0.205996
 50
315.120117
 51
44.879883
210
0.0
220
0.0
230
1.0
  0
LINE
  8
3
  6
CONTINUOUS
 62
     7
  5
264
 10
-848.146833
 20
25.711833
 30
0.0
 11
-847.9615
 21
25.711833
 31
0.0
  0
LINE
  8
3
  6
CONTINUOUS
 62
     7
  5
265
 10
-848.146833
 20
25.571167
 30
0.0
 11
-847.9715
 21
25.571167
 31
0.0
  0
LINE
  8
3
  6
CONTINUOUS
 62
     7
  5
266
 10
-848.146833
 20
26.003167
 30
0.0
 11
-847.9615
 21
26.003167
 31
0.0
  0
POLYLINE
  8
3
  6
HIDDEN
 62
     7
  5
267
 66
     1
 10
0.0
 20
0.0
 30
0.0
  0
VERTEX
  8
3
  6
HIDDEN
 62
     7
  5
268
 10
-848.352167
 20
26.015833
 30
0.0
  0
VERTEX
  8
3
  6
HIDDEN
 62
     7
  5
269
 10
-848.352167
 20
30.5725
 30
0.0
  0
VERTEX
  8
3
  6
HIDDEN
 62
     7
  5
26A
 10
-848.368167
 20
30.5725
 30
0.0
  0
SEQEND
  8
3
  6
HIDDEN
 62
     7
  5
26B
  0
POLYLINE
  8
3
  6
HIDDEN
 62
     7
  5
26C
 66
     1
 10
0.0
 20
0.0
 30
0.0
  0
VERTEX
  8
3
  6
HIDDEN
 62
     7
  5
26D
 10
-849.954833
 20
30.5725
 30
0.0
  0
VERTEX
  8
3
  6
HIDDEN
 62
     7
  5
26E
 10
-849.984167
 20
30.5725
 30
0.0
  0
VERTEX
  8
3
  6
HIDDEN
 62
     7
  5
26F
 10
-849.984167
 20
26.015833
 30
0.0
  0
SEQEND
  8
3
  6
HIDDEN
 62
     7
  5
270
  0
POLYLINE
  8
3
  6
HIDDEN
 62
     7
  5
271
 66
     1
 10
0.0
 20
0.0
 30
0.0
  0
VERTEX
  8
3
  6
HIDDEN
 62
     7
  5
272
 10
-849.984167
 20
26.0285
 30
0.0
  0
VERTEX
  8
3
  6
HIDDEN
 62
     7
  5
273
 10
-849.984167
 20
26.009167
 30
0.0
  0
VERTEX
  8
3
  6
HIDDEN
 62
     7
  5
274
 10
-848.352167
 20
26.009167
 30
0.0
  0
VERTEX
  8
3
  6
HIDDEN
 62
     7
  5
275
 10
-848.352167
 20
26.0285
 30
0.0
  0
SEQEND
  8
3
  6
HIDDEN
 62
     7
  5
276
  0
LINE
  8
3
  6
HIDDEN
 62
     7
  5
277
 10
-848.364833
 20
31.071833
 30
0.0
 11
-849.952167
 21
31.071833
 31
0.0
  0
LINE
  8
3
  6
HIDDEN
 62
     7
  5
278
 10
-848.364833
 20
30.799833
 30
0.0
 11
-849.952167
 21
30.799833
 31
0.0
  0
CIRCLE
  8
3
  6
CONTINUOUS
 62
     7
  5
279
 10
-849.177363
 20
30.263985
 30
0.0
 40
0.170203
210
0.0
220
0.0
230
1.0
  0
POLYLINE
  8
3
  6
CONTINUOUS
 62
     7
  5
27A
 66
     1
 10
0.0
 20
0.0
 30
0.0
 70
     1
  0
VERTEX
  8
3
  6
CONTINUOUS
 62
     7
  5
27B
 10
-834.892833
 20
35.9645
 30
0.0
  0
VERTEX
  8
3
  6
CONTINUOUS
 62
     7
  5
27C
 10
-834.374167
 20
35.9645
 30
0.0
  0
VERTEX
  8
3
  6
CONTINUOUS
 62
     7
  5
27D
 10
-834.374167
 20
35.151833
 30
0.0
  0
VERTEX
  8
3
  6
CONTINUOUS
 62
     7
  5
27E
 10
-834.892833
 20
35.151833
 30
0.0
  0
SEQEND
  8
3
  6
CONTINUOUS
 62
     7
  5
27F
  0
CIRCLE
  8
3
  6
CONTINUOUS
 62
     7
  5
280
 10
-834.63427
 20
35.556641
 30
0.0
 40
0.081341
210
0.0
220
0.0
230
1.0
  0
CIRCLE
  8
3
  6
CONTINUOUS
 62
     7
  5
281
 10
-829.152482
 20
30.263985
 30
0.0
 40
0.122422
210
0.0
220
0.0
230
1.0
  0
POLYLINE
  8
3
  6
DASHED
 62
     7
  5
282
 66
     1
 10
0.0
 20
0.0
 30
0.0
 70
     1
  0
VERTEX
  8
3
  6
DASHED
 62
     7
  5
283
 10
-830.156833
 20
29.2285
 30
0.0
  0
VERTEX
  8
3
  6
DASHED
 62
     7
  5
284
 10
-830.156833
 20
22.765167
 30
0.0
  0
VERTEX
  8
3
  6
DASHED
 62
     7
  5
285
 10
-830.272167
 20
22.765167
 30
0.0
  0
VERTEX
  8
3
  6
DASHED
 62
     7
  5
286
 10
-830.272167
 20
29.2285
 30
0.0
  0
SEQEND
  8
3
  6
DASHED
 62
     7
  5
287
  0
LINE
  8
3
  6
CONTINUOUS
 62
     7
  5
288
 10
-829.9775
 20
30.5665
 30
0.0
 11
-829.990833
 21
30.5665
 31
0.0
  0
ARC
  8
3
  6
CONTINUOUS
 62
     7
  5
289
 10
-827.952025
 20
26.216891
 30
0.0
 40
0.069283
 50
288.723875
 51
74.971344
210
0.0
220
0.0
230
1.0
  0
ARC
  8
3
  6
CONTINUOUS
 62
     7
  5
28A
 10
-828.028764
 20
26.038175
 30
0.0
 40
0.150294
 50
313.394464
 51
48.808947
210
0.0
220
0.0
230
1.0
  0
LINE
  8
3
  6
CONTINUOUS
 62
     7
  5
28B
 10
-827.882167
 20
25.853167
 30
0.0
 11
-827.882167
 21
26.223833
 31
0.0
  0
ARC
  8
3
  6
CONTINUOUS
 62
     7
  5
28C
 10
-830.334237
 20
26.025157
 30
0.0
 40
0.126464
 50
124.082642
 51
235.917361
210
0.0
220
0.0
230
1.0
  0
ARC
  8
3
  6
CONTINUOUS
 62
     7
  5
28D
 10
-830.395444
 20
26.194419
 30
0.0
 40
0.06524
 50
102.334961
 51
261.483344
210
0.0
220
0.0
230
1.0
  0
POLYLINE
  8
3
  6
CONTINUOUS
 62
     7
  5
28E
 66
     1
 10
0.0
 20
0.0
 30
0.0
  0
VERTEX
  8
3
  6
CONTINUOUS
 62
     7
  5
28F
 10
-830.412833
 20
26.259167
 30
0.0
  0
VERTEX
  8
3
  6
CONTINUOUS
 62
     7
  5
290
 10
-830.2755
 20
26.259167
 30
0.0
  0
VERTEX
  8
3
  6
CONTINUOUS
 62
     7
  5
291
 10
-830.2755
 20
25.807833
 30
0.0
  0
VERTEX
  8
3
  6
CONTINUOUS
 62
     7
  5
292
 10
-830.412833
 20
25.807833
 30
0.0
  0
SEQEND
  8
3
  6
CONTINUOUS
 62
     7
  5
293
  0
LINE
  8
3
  6
CONTINUOUS
 62
     7
  5
294
 10
-830.460833
 20
25.855833
 30
0.0
 11
-830.460833
 21
26.211167
 31
0.0
  0
LINE
  8
3
  6
CONTINUOUS
 62
     7
  5
295
 10
-830.422833
 20
26.1305
 30
0.0
 11
-830.288167
 21
26.1305
 31
0.0
  0
LINE
  8
3
  6
CONTINUOUS
 62
     7
  5
296
 10
-830.288167
 20
25.919833
 30
0.0
 11
-830.418833
 21
25.919833
 31
0.0
  0
POLYLINE
  8
3
  6
CONTINUOUS
 62
     7
  5
297
 66
     1
 10
0.0
 20
0.0
 30
0.0
  0
VERTEX
  8
3
  6
CONTINUOUS
 62
     7
  5
298
 10
-830.460833
 20
25.919833
 30
0.0
  0
VERTEX
  8
3
  6
CONTINUOUS
 62
     7
  5
299
 10
-830.5535
 20
25.919833
 30
0.0
  0
VERTEX
  8
3
  6
CONTINUOUS
 62
     7
  5
29A
 10
-830.5535
 20
26.1305
 30
0.0
  0
VERTEX
  8
3
  6
CONTINUOUS
 62
     7
  5
29B
 10
-830.4575
 20
26.1305
 30
0.0
  0
SEQEND
  8
3
  6
CONTINUOUS
 62
     7
  5
29C
  0
ARC
  8
3
  6
CONTINUOUS
 62
     7
  5
29D
 10
-830.405198
 20
25.864759
 30
0.0
 40
0.055656
 50
89.905497
 51
265.689306
210
0.0
220
0.0
230
1.0
  0
LINE
  8
3
  6
HIDDEN
 62
     7
  5
29E
 10
-828.352167
 20
26.1725
 30
0.0
 11
-828.352167
 21
29.977833
 31
0.0
  0
LINE
  8
3
  6
DASHED
 62
     7
  5
29F
 10
-830.1695
 20
22.351833
 30
0.0
 11
-830.1695
 21
14.509167
 31
0.0
  0
LINE
  8
3
  6
CONTINUOUS
 62
     7
  5
2A0
 10
-830.1535
 20
22.751833
 30
0.0
 11
-830.1535
 21
22.319833
 31
0.0
  0
POLYLINE
  8
3
  6
HIDDEN
 62
     7
  5
2A1
 66
     1
 10
0.0
 20
0.0
 30
0.0
  0
VERTEX
  8
3
  6
HIDDEN
 62
     7
  5
2A2
 10
-828.106167
 20
26.1245
 30
0.0
  0
VERTEX
  8
3
  6
HIDDEN
 62
     7
  5
2A3
 10
-830.144167
 20
26.1245
 30
0.0
  0
VERTEX
  8
3
  6
HIDDEN
 62
     7
  5
2A4
 10
-830.144167
 20
25.933167
 30
0.0
  0
VERTEX
  8
3
  6
HIDDEN
 62
     7
  5
2A5
 10
-828.106167
 20
25.933167
 30
0.0
  0
SEQEND
  8
3
  6
HIDDEN
 62
     7
  5
2A6
  0
ARC
  8
3
  6
CONTINUOUS
 62
     7
  5
2A7
 10
-827.942331
 20
25.86752
 30
0.0
 40
0.059594
 50
282.153086
 51
73.604722
210
0.0
220
0.0
230
1.0
  0
POINT
  8
3
  6
CONTINUOUS
 62
     7
  5
2A8
 10
-828.016167
 20
26.1565
 30
0.0
  0
POLYLINE
  8
3
  6
CONTINUOUS
 62
     7
  5
2A9
 66
     1
 10
0.0
 20
0.0
 30
0.0
  0
VERTEX
  8
3
  6
CONTINUOUS
 62
     7
  5
2AA
 10
-827.9395
 20
26.2845
 30
0.0
  0
VERTEX
  8
3
  6
CONTINUOUS
 62
     7
  5
2AB
 10
-828.0995
 20
26.2845
 30
0.0
  0
VERTEX
  8
3
  6
CONTINUOUS
 62
     7
  5
2AC
 10
-828.0995
 20
26.2785
 30
0.0
  0
SEQEND
  8
3
  6
CONTINUOUS
 62
     7
  5
2AD
  0
LINE
  8
3
  6
CONTINUOUS
 62
     7
  5
2AE
 10
-828.0995
 20
25.807833
 30
0.0
 11
-827.930167
 21
25.807833
 31
0.0
  0
LINE
  8
3
  6
CONTINUOUS
 62
     7
  5
2AF
 10
-828.0995
 20
25.9265
 30
0.0
 11
-827.930167
 21
25.9265
 31
0.0
  0
LINE
  8
3
  6
CONTINUOUS
 62
     7
  5
2B0
 10
-828.0995
 20
26.1505
 30
0.0
 11
-827.930167
 21
26.1505
 31
0.0
  0
LINE
  8
3
  6
CONTINUOUS
 62
     7
  5
2B1
 10
-828.118167
 20
30.5665
 30
0.0
 11
-830.156833
 21
30.5665
 31
0.0
  0
POLYLINE
  8
3
  6
HIDDEN
 62
     7
  5
2B2
 66
     1
 10
0.0
 20
0.0
 30
0.0
  0
VERTEX
  8
3
  6
HIDDEN
 62
     7
  5
2B3
 10
-828.3395
 20
26.1505
 30
0.0
  0
VERTEX
  8
3
  6
HIDDEN
 62
     7
  5
2B4
 10
-829.990833
 20
26.1505
 30
0.0
  0
VERTEX
  8
3
  6
HIDDEN
 62
     7
  5
2B5
 10
-829.990833
 20
26.163167
 30
0.0
  0
SEQEND
  8
3
  6
HIDDEN
 62
     7
  5
2B6
  0
LINE
  8
3
  6
HIDDEN
 62
     7
  5
2B7
 10
-829.952167
 20
26.1725
 30
0.0
 11
-829.952167
 21
29.977833
 31
0.0
  0
POLYLINE
  8
3
  6
DASHED
 62
     7
  5
2B8
 66
     1
 10
0.0
 20
0.0
 30
0.0
  0
VERTEX
  8
3
  6
DASHED
 62
     7
  5
2B9
 10
-828.752167
 20
35.8105
 30
0.0
  0
VERTEX
  8
3
  6
DASHED
 62
     7
  5
2BA
 10
-829.552167
 20
35.8105
 30
0.0
  0
VERTEX
  8
3
  6
DASHED
 62
     7
  5
2BB
 10
-829.552167
 20
35.343833
 30
0.0
  0
VERTEX
  8
3
  6
DASHED
 62
     7
  5
2BC
 10
-828.752167
 20
35.343833
 30
0.0
  0
VERTEX
  8
3
  6
DASHED
 62
     7
  5
2BD
 10
-828.752167
 20
35.8105
 30
0.0
  0
SEQEND
  8
3
  6
DASHED
 62
     7
  5
2BE
  0
LINE
  8
3
  6
DASHED
 62
     7
  5
2BF
 10
-848.146833
 20
26.1185
 30
0.0
 11
-848.146833
 21
29.9805
 31
0.0
  0
POLYLINE
  8
3
  6
CONTINUOUS
 62
     7
  5
2C0
 66
     1
 10
0.0
 20
0.0
 30
0.0
  0
VERTEX
  8
3
  6
CONTINUOUS
 62
     7
  5
2C1
 10
-848.146833
 20
29.9805
 30
0.0
  0
VERTEX
  8
3
  6
CONTINUOUS
 62
     7
  5
2C2
 10
-848.146833
 20
30.5085
 30
0.0
  0
VERTEX
  8
3
  6
CONTINUOUS
 62
     7
  5
2C3
 10
-850.210833
 20
30.5085
 30
0.0
  0
VERTEX
  8
3
  6
CONTINUOUS
 62
     7
  5
2C4
 10
-850.210833
 20
29.9805
 30
0.0
  0
SEQEND
  8
3
  6
CONTINUOUS
 62
     7
  5
2C5
  0
LINE
  8
3
  6
DASHED
 62
     7
  5
2C6
 10
-828.112167
 20
29.973833
 30
0.0
 11
-828.112167
 21
14.509167
 31
0.0
  0
LINE
  8
3
  6
DASHED
 62
     7
  5
2C7
 10
-969.9515
 20
29.977833
 30
0.0
 11
-969.9515
 21
18.243167
 31
0.0
  0
LINE
  8
3
  6
DASHED
 62
     7
  5
2C8
 10
-968.3515
 20
29.977833
 30
0.0
 11
-968.3515
 21
18.243167
 31
0.0
  0
LINE
  8
3
  6
DASHED
 62
     7
  5
2C9
 10
-969.9515
 20
18.243167
 30
0.0
 11
-968.3515
 21
18.243167
 31
0.0
  0
LINE
  8
3
  6
DASHED
 62
     7
  5
2CA
 10
-909.9515
 20
29.977833
 30
0.0
 11
-909.9515
 21
18.243167
 31
0.0
  0
LINE
  8
3
  6
DASHED
 62
     7
  5
2CB
 10
-908.3515
 20
29.977833
 30
0.0
 11
-908.3515
 21
18.243167
 31
0.0
  0
LINE
  8
3
  6
DASHED
 62
     7
  5
2CC
 10
-909.9515
 20
18.243167
 30
0.0
 11
-908.3515
 21
18.243167
 31
0.0
  0
LINE
  8
3
  6
DASHED
 62
     7
  5
2CD
 10
-896.6175
 20
29.977833
 30
0.0
 11
-896.6175
 21
18.243167
 31
0.0
  0
LINE
  8
3
  6
DASHED
 62
     7
  5
2CE
 10
-895.0175
 20
29.977833
 30
0.0
 11
-895.0175
 21
18.243167
 31
0.0
  0
LINE
  8
3
  6
DASHED
 62
     7
  5
2CF
 10
-896.6175
 20
18.243167
 30
0.0
 11
-895.0175
 21
18.243167
 31
0.0
  0
LINE
  8
3
  6
DASHED
 62
     7
  5
2D0
 10
-883.282833
 20
29.977833
 30
0.0
 11
-883.282833
 21
18.243167
 31
0.0
  0
LINE
  8
3
  6
DASHED
 62
     7
  5
2D1
 10
-881.682833
 20
29.977833
 30
0.0
 11
-881.682833
 21
18.243167
 31
0.0
  0
LINE
  8
3
  6
DASHED
 62
     7
  5
2D2
 10
-883.282833
 20
18.243167
 30
0.0
 11
-881.682833
 21
18.243167
 31
0.0
  0
LINE
  8
3
  6
DASHED
 62
     7
  5
2D3
 10
-869.952167
 20
29.977833
 30
0.0
 11
-869.952167
 21
18.243167
 31
0.0
  0
LINE
  8
3
  6
DASHED
 62
     7
  5
2D4
 10
-868.352167
 20
29.977833
 30
0.0
 11
-868.352167
 21
18.243167
 31
0.0
  0
LINE
  8
3
  6
DASHED
 62
     7
  5
2D5
 10
-869.952167
 20
18.243167
 30
0.0
 11
-868.352167
 21
18.243167
 31
0.0
  0
LINE
  8
3
  6
DASHED
 62
     7
  5
2D6
 10
-848.146833
 20
30.5085
 30
0.0
 11
-848.146833
 21
14.509167
 31
0.0
  0
LINE
  8
3
  6
DASHED
 62
     7
  5
2D7
 10
-848.146833
 20
14.509167
 30
0.0
 11
-850.210833
 21
14.509167
 31
0.0
  0
LINE
  8
3
  6
DASHED
 62
     7
  5
2D8
 10
-850.210833
 20
14.509167
 30
0.0
 11
-850.210833
 21
29.9805
 31
0.0
  0
LINE
  8
3
  6
DASHED
 62
     7
  5
2D9
 10
-830.1695
 20
14.509167
 30
0.0
 11
-828.112167
 21
14.509167
 31
0.0
  0
LINE
  8
3
  6
CONTINUOUS
 62
     7
  5
2DA
 10
-1000.626167
 20
29.977833
 30
0.0
 11
-820.5155
 21
29.977833
 31
0.0
  0
LINE
  8
3
  6
CONTINUOUS
 62
     2
  5
2DB
 10
-989.1515
 20
10.207833
 30
0.0
 11
-969.1515
 21
10.207833
 31
0.0
  0
POLYLINE
  8
3
  6
CONTINUOUS
 62
     2
  5
2DC
 66
     1
 10
0.0
 20
0.0
 30
0.0
  0
VERTEX
  8
3
  6
CONTINUOUS
 62
     2
  5
2DD
 10
-970.006167
 20
9.7825
 30
0.0
  0
VERTEX
  8
3
  6
CONTINUOUS
 62
     2
  5
2DE
 10
-969.1515
 20
10.207833
 30
0.0
  0
VERTEX
  8
3
  6
CONTINUOUS
 62
     2
  5
2DF
 10
-970.006167
 20
10.633833
 30
0.0
  0
SEQEND
  8
3
  6
CONTINUOUS
 62
     2
  5
2E0
  0
LINE
  8
3
  6
CONTINUOUS
 62
     2
  5
2E1
 10
-969.1515
 20
17.603167
 30
0.0
 11
-969.1515
 21
9.567833
 31
0.0
  0
LINE
  8
3
  6
CONTINUOUS
 62
     2
  5
2E2
 10
-929.1515
 20
10.207833
 30
0.0
 11
-909.1515
 21
10.207833
 31
0.0
  0
POLYLINE
  8
3
  6
CONTINUOUS
 62
     2
  5
2E3
 66
     1
 10
0.0
 20
0.0
 30
0.0
  0
VERTEX
  8
3
  6
CONTINUOUS
 62
     2
  5
2E4
 10
-968.296833
 20
9.7825
 30
0.0
  0
VERTEX
  8
3
  6
CONTINUOUS
 62
     2
  5
2E5
 10
-969.1515
 20
10.207833
 30
0.0
  0
VERTEX
  8
3
  6
CONTINUOUS
 62
     2
  5
2E6
 10
-968.296833
 20
10.633833
 30
0.0
  0
SEQEND
  8
3
  6
CONTINUOUS
 62
     2
  5
2E7
  0
LINE
  8
3
  6
CONTINUOUS
 62
     2
  5
2E8
 10
-909.1515
 20
10.207833
 30
0.0
 11
-869.152167
 21
10.207833
 31
0.0
  0
POLYLINE
  8
3
  6
CONTINUOUS
 62
     2
  5
2E9
 66
     1
 10
0.0
 20
0.0
 30
0.0
  0
VERTEX
  8
3
  6
CONTINUOUS
 62
     2
  5
2EA
 10
-870.006167
 20
9.7825
 30
0.0
  0
VERTEX
  8
3
  6
CONTINUOUS
 62
     2
  5
2EB
 10
-869.152167
 20
10.207833
 30
0.0
  0
VERTEX
  8
3
  6
CONTINUOUS
 62
     2
  5
2EC
 10
-870.006167
 20
10.633833
 30
0.0
  0
SEQEND
  8
3
  6
CONTINUOUS
 62
     2
  5
2ED
  0
LINE
  8
3
  6
CONTINUOUS
 62
     2
  5
2EE
 10
-869.152167
 20
17.603167
 30
0.0
 11
-869.152167
 21
3.79725
 31
0.0
  0
LINE
  8
3
  6
CONTINUOUS
 62
     2
  5
2EF
 10
-869.152167
 20
10.207833
 30
0.0
 11
-848.880167
 21
10.207833
 31
0.0
  0
POLYLINE
  8
3
  6
CONTINUOUS
 62
     2
  5
2F0
 66
     1
 10
0.0
 20
0.0
 30
0.0
  0
VERTEX
  8
3
  6
CONTINUOUS
 62
     2
  5
2F1
 10
-868.2975
 20
9.7825
 30
0.0
  0
VERTEX
  8
3
  6
CONTINUOUS
 62
     2
  5
2F2
 10
-869.152167
 20
10.207833
 30
0.0
  0
VERTEX
  8
3
  6
CONTINUOUS
 62
     2
  5
2F3
 10
-868.2975
 20
10.633833
 30
0.0
  0
SEQEND
  8
3
  6
CONTINUOUS
 62
     2
  5
2F4
  0
LINE
  8
3
  6
CONTINUOUS
 62
     2
  5
2F5
 10
-848.880167
 20
10.207833
 30
0.0
 11
-829.142833
 21
10.207833
 31
0.0
  0
POLYLINE
  8
3
  6
CONTINUOUS
 62
     2
  5
2F6
 66
     1
 10
0.0
 20
0.0
 30
0.0
  0
VERTEX
  8
3
  6
CONTINUOUS
 62
     2
  5
2F7
 10
-829.996833
 20
9.7825
 30
0.0
  0
VERTEX
  8
3
  6
CONTINUOUS
 62
     2
  5
2F8
 10
-829.142833
 20
10.207833
 30
0.0
  0
VERTEX
  8
3
  6
CONTINUOUS
 62
     2
  5
2F9
 10
-829.996833
 20
10.633833
 30
0.0
  0
SEQEND
  8
3
  6
CONTINUOUS
 62
     2
  5
2FA
  0
TEXT
  8
3
  6
CONTINUOUS
 62
     7
  5
2FB
 10
-980.833417
 20
10.89725
 30
0.0
 40
1.064
  1
6'-3"
  7
MONOTXT
210
0.0
220
0.0
230
1.0
  0
TEXT
  8
3
  6
CONTINUOUS
 62
     7
  5
2FC
 10
-851.2205
 20
11.17025
 30
0.0
 40
1.064
  1
12'-6"
  7
MONOTXT
210
0.0
220
0.0
230
1.0
  0
POINT
  8
3
  6
CONTINUOUS
 62
     2
  5
2FD
 10
-889.014167
 20
36.597833
 30
0.0
  0
POINT
  8
3
  6
CONTINUOUS
 62
     2
  5
2FE
 10
-989.0775
 20
34.565833
 30
0.0
  0
POINT
  8
3
  6
CONTINUOUS
 62
     2
  5
2FF
 10
-988.7255
 20
36.627167
 30
0.0
  0
POINT
  8
3
  6
CONTINUOUS
 62
     2
  5
300
 10
-898.8035
 20
36.7165
 30
0.0
  0
POINT
  8
3
  6
CONTINUOUS
 62
     2
  5
301
 10
-888.966167
 20
36.627167
 30
0.0
  0
POLYLINE
  8
3
  6
CONTINUOUS
 62
   110
  5
302
 66
     1
 10
0.0
 20
0.0
 30
0.0
210
0.0
220
0.0
230
1.0
  0
VERTEX
  8
3
  6
CONTINUOUS
 62
   110
  5
303
 10
-990.093716
 20
37.00331
 30
0.0
 42
0.071267
  0
VERTEX
  8
3
  6
CONTINUOUS
 62
   110
  5
304
 10
-990.097397
 20
37.028724
 30
0.0
 42
0.065729
  0
VERTEX
  8
3
  6
CONTINUOUS
 62
   110
  5
305
 10
-990.108298
 20
37.053161
 30
0.0
 42
0.057443
  0
VERTEX
  8
3
  6
CONTINUOUS
 62
   110
  5
306
 10
-990.126002
 20
37.075682
 30
0.0
 42
0.049287
  0
VERTEX
  8
3
  6
CONTINUOUS
 62
   110
  5
307
 10
-990.149827
 20
37.095423
 30
0.0
 42
0.042701
  0
VERTEX
  8
3
  6
CONTINUOUS
 62
   110
  5
308
 10
-990.178857
 20
37.111623
 30
0.0
 42
0.037998
  0
VERTEX
  8
3
  6
CONTINUOUS
 62
   110
  5
309
 10
-990.211978
 20
37.123661
 30
0.0
 42
0.03504
  0
VERTEX
  8
3
  6
CONTINUOUS
 62
   110
  5
30A
 10
-990.247916
 20
37.131074
 30
0.0
 42
0.033623
  0
VERTEX
  8
3
  6
CONTINUOUS
 62
   110
  5
30B
 10
-990.285291
 20
37.133577
 30
0.0
 42
0.033623
  0
VERTEX
  8
3
  6
CONTINUOUS
 62
   110
  5
30C
 10
-990.322665
 20
37.131074
 30
0.0
 42
0.03504
  0
VERTEX
  8
3
  6
CONTINUOUS
 62
   110
  5
30D
 10
-990.358603
 20
37.123661
 30
0.0
 42
0.037998
  0
VERTEX
  8
3
  6
CONTINUOUS
 62
   110
  5
30E
 10
-990.391724
 20
37.111623
 30
0.0
 42
0.042701
  0
VERTEX
  8
3
  6
CONTINUOUS
 62
   110
  5
30F
 10
-990.420755
 20
37.095423
 30
0.0
 42
0.049287
  0
VERTEX
  8
3
  6
CONTINUOUS
 62
   110
  5
310
 10
-990.44458
 20
37.075682
 30
0.0
 42
0.057443
  0
VERTEX
  8
3
  6
CONTINUOUS
 62
   110
  5
311
 10
-990.462283
 20
37.053161
 30
0.0
 42
0.065729
  0
VERTEX
  8
3
  6
CONTINUOUS
 62
   110
  5
312
 10
-990.473185
 20
37.028724
 30
0.0
 42
0.071267
  0
VERTEX
  8
3
  6
CONTINUOUS
 62
   110
  5
313
 10
-990.476866
 20
37.00331
 30
0.0
 42
0.071267
  0
SEQEND
  8
3
  6
CONTINUOUS
 62
   110
  5
314
  0
POLYLINE
  8
3
  6
CONTINUOUS
 62
   110
  5
315
 66
     1
 10
0.0
 20
0.0
 30
0.0
210
0.0
220
0.0
230
1.0
  0
VERTEX
  8
3
  6
CONTINUOUS
 62
   110
  5
316
 10
-990.476866
 20
34.15146
 30
0.0
 42
-0.107797
  0
VERTEX
  8
3
  6
CONTINUOUS
 62
   110
  5
317
 10
-990.473185
 20
34.16769
 30
0.0
 42
-0.083254
  0
VERTEX
  8
3
  6
CONTINUOUS
 62
   110
  5
318
 10
-990.462283
 20
34.183297
 30
0.0
 42
-0.058242
  0
VERTEX
  8
3
  6
CONTINUOUS
 62
   110
  5
319
 10
-990.44458
 20
34.19768
 30
0.0
 42
-0.041681
  0
VERTEX
  8
3
  6
CONTINUOUS
 62
   110
  5
31A
 10
-990.420755
 20
34.210286
 30
0.0
 42
-0.03183
  0
VERTEX
  8
3
  6
CONTINUOUS
 62
   110
  5
31B
 10
-990.391724
 20
34.220632
 30
0.0
 42
-0.026114
  0
VERTEX
  8
3
  6
CONTINUOUS
 62
   110
  5
31C
 10
-990.358603
 20
34.22832
 30
0.0
 42
-0.022956
  0
VERTEX
  8
3
  6
CONTINUOUS
 62
   110
  5
31D
 10
-990.322665
 20
34.233054
 30
0.0
 42
-0.021545
  0
VERTEX
  8
3
  6
CONTINUOUS
 62
   110
  5
31E
 10
-990.285291
 20
34.234653
 30
0.0
 42
-0.021545
  0
VERTEX
  8
3
  6
CONTINUOUS
 62
   110
  5
31F
 10
-990.247916
 20
34.233054
 30
0.0
 42
-0.022956
  0
VERTEX
  8
3
  6
CONTINUOUS
 62
   110
  5
320
 10
-990.211978
 20
34.22832
 30
0.0
 42
-0.026114
  0
VERTEX
  8
3
  6
CONTINUOUS
 62
   110
  5
321
 10
-990.178857
 20
34.220632
 30
0.0
 42
-0.03183
  0
VERTEX
  8
3
  6
CONTINUOUS
 62
   110
  5
322
 10
-990.149827
 20
34.210286
 30
0.0
 42
-0.041681
  0
VERTEX
  8
3
  6
CONTINUOUS
 62
   110
  5
323
 10
-990.126002
 20
34.19768
 30
0.0
 42
-0.058242
  0
VERTEX
  8
3
  6
CONTINUOUS
 62
   110
  5
324
 10
-990.108298
 20
34.183297
 30
0.0
 42
-0.083254
  0
VERTEX
  8
3
  6
CONTINUOUS
 62
   110
  5
325
 10
-990.097397
 20
34.16769
 30
0.0
 42
-0.107797
  0
VERTEX
  8
3
  6
CONTINUOUS
 62
   110
  5
326
 10
-990.093716
 20
34.15146
 30
0.0
 42
-0.107797
  0
SEQEND
  8
3
  6
CONTINUOUS
 62
   110
  5
327
  0
POLYLINE
  8
3
  6
CONTINUOUS
 62
   110
  5
328
 66
     1
 10
0.0
 20
0.0
 30
0.0
210
0.0
220
0.0
230
1.0
  0
VERTEX
  8
3
  6
CONTINUOUS
 62
   110
  5
329
 10
-988.211124
 20
37.00331
 30
0.0
 42
0.107797
  0
VERTEX
  8
3
  6
CONTINUOUS
 62
   110
  5
32A
 10
-988.207443
 20
36.98708
 30
0.0
 42
0.083254
  0
VERTEX
  8
3
  6
CONTINUOUS
 62
   110
  5
32B
 10
-988.196541
 20
36.971473
 30
0.0
 42
0.058242
  0
VERTEX
  8
3
  6
CONTINUOUS
 62
   110
  5
32C
 10
-988.178837
 20
36.957091
 30
0.0
 42
0.041681
  0
VERTEX
  8
3
  6
CONTINUOUS
 62
   110
  5
32D
 10
-988.155013
 20
36.944484
 30
0.0
 42
0.03183
  0
VERTEX
  8
3
  6
CONTINUOUS
 62
   110
  5
32E
 10
-988.125982
 20
36.934138
 30
0.0
 42
0.026114
  0
VERTEX
  8
3
  6
CONTINUOUS
 62
   110
  5
32F
 10
-988.092861
 20
36.92645
 30
0.0
 42
0.022956
  0
VERTEX
  8
3
  6
CONTINUOUS
 62
   110
  5
330
 10
-988.056923
 20
36.921716
 30
0.0
 42
0.021545
  0
VERTEX
  8
3
  6
CONTINUOUS
 62
   110
  5
331
 10
-988.019549
 20
36.920117
 30
0.0
 42
0.021545
  0
VERTEX
  8
3
  6
CONTINUOUS
 62
   110
  5
332
 10
-987.982174
 20
36.921716
 30
0.0
 42
0.022956
  0
VERTEX
  8
3
  6
CONTINUOUS
 62
   110
  5
333
 10
-987.946236
 20
36.92645
 30
0.0
 42
0.026114
  0
VERTEX
  8
3
  6
CONTINUOUS
 62
   110
  5
334
 10
-987.913115
 20
36.934138
 30
0.0
 42
0.03183
  0
VERTEX
  8
3
  6
CONTINUOUS
 62
   110
  5
335
 10
-987.884084
 20
36.944484
 30
0.0
 42
0.041681
  0
VERTEX
  8
3
  6
CONTINUOUS
 62
   110
  5
336
 10
-987.86026
 20
36.957091
 30
0.0
 42
0.058242
  0
VERTEX
  8
3
  6
CONTINUOUS
 62
   110
  5
337
 10
-987.842556
 20
36.971473
 30
0.0
 42
0.083254
  0
VERTEX
  8
3
  6
CONTINUOUS
 62
   110
  5
338
 10
-987.831654
 20
36.98708
 30
0.0
 42
0.107797
  0
VERTEX
  8
3
  6
CONTINUOUS
 62
   110
  5
339
 10
-987.827973
 20
37.00331
 30
0.0
 42
0.107797
  0
SEQEND
  8
3
  6
CONTINUOUS
 62
   110
  5
33A
  0
POLYLINE
  8
3
  6
CONTINUOUS
 62
   110
  5
33B
 66
     1
 10
0.0
 20
0.0
 30
0.0
210
0.0
220
0.0
230
1.0
  0
VERTEX
  8
3
  6
CONTINUOUS
 62
   110
  5
33C
 10
-987.827973
 20
34.15146
 30
0.0
 42
-0.071267
  0
VERTEX
  8
3
  6
CONTINUOUS
 62
   110
  5
33D
 10
-987.831654
 20
34.126046
 30
0.0
 42
-0.065729
  0
VERTEX
  8
3
  6
CONTINUOUS
 62
   110
  5
33E
 10
-987.842556
 20
34.101609
 30
0.0
 42
-0.057443
  0
VERTEX
  8
3
  6
CONTINUOUS
 62
   110
  5
33F
 10
-987.86026
 20
34.079088
 30
0.0
 42
-0.049287
  0
VERTEX
  8
3
  6
CONTINUOUS
 62
   110
  5
340
 10
-987.884084
 20
34.059348
 30
0.0
 42
-0.042701
  0
VERTEX
  8
3
  6
CONTINUOUS
 62
   110
  5
341
 10
-987.913115
 20
34.043147
 30
0.0
 42
-0.037998
  0
VERTEX
  8
3
  6
CONTINUOUS
 62
   110
  5
342
 10
-987.946236
 20
34.031109
 30
0.0
 42
-0.03504
  0
VERTEX
  8
3
  6
CONTINUOUS
 62
   110
  5
343
 10
-987.982174
 20
34.023696
 30
0.0
 42
-0.033623
  0
VERTEX
  8
3
  6
CONTINUOUS
 62
   110
  5
344
 10
-988.019549
 20
34.021193
 30
0.0
 42
-0.033623
  0
VERTEX
  8
3
  6
CONTINUOUS
 62
   110
  5
345
 10
-988.056923
 20
34.023696
 30
0.0
 42
-0.03504
  0
VERTEX
  8
3
  6
CONTINUOUS
 62
   110
  5
346
 10
-988.092861
 20
34.031109
 30
0.0
 42
-0.037998
  0
VERTEX
  8
3
  6
CONTINUOUS
 62
   110
  5
347
 10
-988.125982
 20
34.043147
 30
0.0
 42
-0.042701
  0
VERTEX
  8
3
  6
CONTINUOUS
 62
   110
  5
348
 10
-988.155013
 20
34.059348
 30
0.0
 42
-0.049287
  0
VERTEX
  8
3
  6
CONTINUOUS
 62
   110
  5
349
 10
-988.178837
 20
34.079088
 30
0.0
 42
-0.057443
  0
VERTEX
  8
3
  6
CONTINUOUS
 62
   110
  5
34A
 10
-988.196541
 20
34.101609
 30
0.0
 42
-0.065729
  0
VERTEX
  8
3
  6
CONTINUOUS
 62
   110
  5
34B
 10
-988.207443
 20
34.126046
 30
0.0
 42
-0.071267
  0
VERTEX
  8
3
  6
CONTINUOUS
 62
   110
  5
34C
 10
-988.211124
 20
34.15146
 30
0.0
 42
-0.071267
  0
SEQEND
  8
3
  6
CONTINUOUS
 62
   110
  5
34D
  0
POINT
  8
3
  6
CONTINUOUS
 62
     2
  5
34E
 10
-989.410167
 20
35.577167
 30
0.0
  0
POINT
  8
3
  6
CONTINUOUS
 62
     2
  5
34F
 10
-889.3435
 20
35.587167
 30
0.0
  0
POINT
  8
3
  6
CONTINUOUS
 62
     2
  5
350
 10
-889.3435
 20
35.587167
 30
0.0
  0
POLYLINE
  8
3
  6
CONTINUOUS
 62
   110
  5
351
 66
     1
 10
0.0
 20
0.0
 30
0.0
210
0.0
220
0.0
230
1.0
  0
VERTEX
  8
3
  6
CONTINUOUS
 62
   110
  5
352
 10
-990.093716
 20
34.974991
 30
0.0
 42
-0.105926
  0
VERTEX
  8
3
  6
CONTINUOUS
 62
   110
  5
353
 10
-990.097397
 20
34.958438
 30
0.0
 42
-0.082645
  0
VERTEX
  8
3
  6
CONTINUOUS
 62
   110
  5
354
 10
-990.108298
 20
34.942522
 30
0.0
 42
-0.058441
  0
VERTEX
  8
3
  6
CONTINUOUS
 62
   110
  5
355
 10
-990.126002
 20
34.927853
 30
0.0
 42
-0.042129
  0
VERTEX
  8
3
  6
CONTINUOUS
 62
   110
  5
356
 10
-990.149827
 20
34.914996
 30
0.0
 42
-0.032313
  0
VERTEX
  8
3
  6
CONTINUOUS
 62
   110
  5
357
 10
-990.178857
 20
34.904444
 30
0.0
 42
-0.026577
  0
VERTEX
  8
3
  6
CONTINUOUS
 62
   110
  5
358
 10
-990.211978
 20
34.896604
 30
0.0
 42
-0.023395
  0
VERTEX
  8
3
  6
CONTINUOUS
 62
   110
  5
359
 10
-990.247916
 20
34.891776
 30
0.0
 42
-0.021971
  0
VERTEX
  8
3
  6
CONTINUOUS
 62
   110
  5
35A
 10
-990.285291
 20
34.890145
 30
0.0
 42
-0.021971
  0
VERTEX
  8
3
  6
CONTINUOUS
 62
   110
  5
35B
 10
-990.322665
 20
34.891776
 30
0.0
 42
-0.023395
  0
VERTEX
  8
3
  6
CONTINUOUS
 62
   110
  5
35C
 10
-990.358603
 20
34.896604
 30
0.0
 42
-0.026577
  0
VERTEX
  8
3
  6
CONTINUOUS
 62
   110
  5
35D
 10
-990.391724
 20
34.904444
 30
0.0
 42
-0.032313
  0
VERTEX
  8
3
  6
CONTINUOUS
 62
   110
  5
35E
 10
-990.420755
 20
34.914996
 30
0.0
 42
-0.042129
  0
VERTEX
  8
3
  6
CONTINUOUS
 62
   110
  5
35F
 10
-990.44458
 20
34.927853
 30
0.0
 42
-0.058441
  0
VERTEX
  8
3
  6
CONTINUOUS
 62
   110
  5
360
 10
-990.462283
 20
34.942522
 30
0.0
 42
-0.082645
  0
VERTEX
  8
3
  6
CONTINUOUS
 62
   110
  5
361
 10
-990.473185
 20
34.958438
 30
0.0
 42
-0.105926
  0
VERTEX
  8
3
  6
CONTINUOUS
 62
   110
  5
362
 10
-990.476866
 20
34.974991
 30
0.0
 42
-0.105926
  0
SEQEND
  8
3
  6
CONTINUOUS
 62
   110
  5
363
  0
POLYLINE
  8
3
  6
CONTINUOUS
 62
   110
  5
364
 66
     1
 10
0.0
 20
0.0
 30
0.0
210
0.0
220
0.0
230
1.0
  0
VERTEX
  8
3
  6
CONTINUOUS
 62
   110
  5
365
 10
-990.476866
 20
34.974991
 30
0.0
 42
-0.069642
  0
VERTEX
  8
3
  6
CONTINUOUS
 62
   110
  5
366
 10
-990.473185
 20
35.001029
 30
0.0
 42
-0.064663
  0
VERTEX
  8
3
  6
CONTINUOUS
 62
   110
  5
367
 10
-990.462283
 20
35.026066
 30
0.0
 42
-0.05709
  0
VERTEX
  8
3
  6
CONTINUOUS
 62
   110
  5
368
 10
-990.44458
 20
35.04914
 30
0.0
 42
-0.049486
  0
VERTEX
  8
3
  6
CONTINUOUS
 62
   110
  5
369
 10
-990.420755
 20
35.069365
 30
0.0
 42
-0.043232
  0
VERTEX
  8
3
  6
CONTINUOUS
 62
   110
  5
36A
 10
-990.391724
 20
35.085963
 30
0.0
 42
-0.038702
  0
VERTEX
  8
3
  6
CONTINUOUS
 62
   110
  5
36B
 10
-990.358603
 20
35.098297
 30
0.0
 42
-0.035825
  0
VERTEX
  8
3
  6
CONTINUOUS
 62
   110
  5
36C
 10
-990.322665
 20
35.105892
 30
0.0
 42
-0.034439
  0
VERTEX
  8
3
  6
CONTINUOUS
 62
   110
  5
36D
 10
-990.285291
 20
35.108456
 30
0.0
 42
-0.034439
  0
VERTEX
  8
3
  6
CONTINUOUS
 62
   110
  5
36E
 10
-990.247916
 20
35.105892
 30
0.0
 42
-0.035825
  0
VERTEX
  8
3
  6
CONTINUOUS
 62
   110
  5
36F
 10
-990.211978
 20
35.098297
 30
0.0
 42
-0.038702
  0
VERTEX
  8
3
  6
CONTINUOUS
 62
   110
  5
370
 10
-990.178857
 20
35.085963
 30
0.0
 42
-0.043232
  0
VERTEX
  8
3
  6
CONTINUOUS
 62
   110
  5
371
 10
-990.149827
 20
35.069365
 30
0.0
 42
-0.049486
  0
VERTEX
  8
3
  6
CONTINUOUS
 62
   110
  5
372
 10
-990.126002
 20
35.04914
 30
0.0
 42
-0.05709
  0
VERTEX
  8
3
  6
CONTINUOUS
 62
   110
  5
373
 10
-990.108298
 20
35.026066
 30
0.0
 42
-0.064663
  0
VERTEX
  8
3
  6
CONTINUOUS
 62
   110
  5
374
 10
-990.097397
 20
35.001029
 30
0.0
 42
-0.069642
  0
VERTEX
  8
3
  6
CONTINUOUS
 62
   110
  5
375
 10
-990.093716
 20
34.974991
 30
0.0
 42
-0.069642
  0
SEQEND
  8
3
  6
CONTINUOUS
 62
   110
  5
376
  0
POLYLINE
  8
3
  6
CONTINUOUS
 62
   110
  5
377
 66
     1
 10
0.0
 20
0.0
 30
0.0
210
0.0
220
0.0
230
1.0
  0
VERTEX
  8
3
  6
CONTINUOUS
 62
   110
  5
378
 10
-990.093716
 20
36.179779
 30
0.0
 42
0.105926
  0
VERTEX
  8
3
  6
CONTINUOUS
 62
   110
  5
379
 10
-990.097397
 20
36.196332
 30
0.0
 42
0.082645
  0
VERTEX
  8
3
  6
CONTINUOUS
 62
   110
  5
37A
 10
-990.108298
 20
36.212248
 30
0.0
 42
0.058441
  0
VERTEX
  8
3
  6
CONTINUOUS
 62
   110
  5
37B
 10
-990.126002
 20
36.226917
 30
0.0
 42
0.042129
  0
VERTEX
  8
3
  6
CONTINUOUS
 62
   110
  5
37C
 10
-990.149827
 20
36.239774
 30
0.0
 42
0.032313
  0
VERTEX
  8
3
  6
CONTINUOUS
 62
   110
  5
37D
 10
-990.178857
 20
36.250326
 30
0.0
 42
0.026577
  0
VERTEX
  8
3
  6
CONTINUOUS
 62
   110
  5
37E
 10
-990.211978
 20
36.258166
 30
0.0
 42
0.023395
  0
VERTEX
  8
3
  6
CONTINUOUS
 62
   110
  5
37F
 10
-990.247916
 20
36.262994
 30
0.0
 42
0.021971
  0
VERTEX
  8
3
  6
CONTINUOUS
 62
   110
  5
380
 10
-990.285291
 20
36.264625
 30
0.0
 42
0.021971
  0
VERTEX
  8
3
  6
CONTINUOUS
 62
   110
  5
381
 10
-990.322665
 20
36.262994
 30
0.0
 42
0.023395
  0
VERTEX
  8
3
  6
CONTINUOUS
 62
   110
  5
382
 10
-990.358603
 20
36.258166
 30
0.0
 42
0.026577
  0
VERTEX
  8
3
  6
CONTINUOUS
 62
   110
  5
383
 10
-990.391724
 20
36.250326
 30
0.0
 42
0.032313
  0
VERTEX
  8
3
  6
CONTINUOUS
 62
   110
  5
384
 10
-990.420755
 20
36.239774
 30
0.0
 42
0.042129
  0
VERTEX
  8
3
  6
CONTINUOUS
 62
   110
  5
385
 10
-990.44458
 20
36.226917
 30
0.0
 42
0.058441
  0
VERTEX
  8
3
  6
CONTINUOUS
 62
   110
  5
386
 10
-990.462283
 20
36.212248
 30
0.0
 42
0.082645
  0
VERTEX
  8
3
  6
CONTINUOUS
 62
   110
  5
387
 10
-990.473185
 20
36.196332
 30
0.0
 42
0.105926
  0
VERTEX
  8
3
  6
CONTINUOUS
 62
   110
  5
388
 10
-990.476866
 20
36.179779
 30
0.0
 42
0.105926
  0
SEQEND
  8
3
  6
CONTINUOUS
 62
   110
  5
389
  0
POLYLINE
  8
3
  6
CONTINUOUS
 62
   110
  5
38A
 66
     1
 10
0.0
 20
0.0
 30
0.0
210
0.0
220
0.0
230
1.0
  0
VERTEX
  8
3
  6
CONTINUOUS
 62
   110
  5
38B
 10
-990.476866
 20
36.179779
 30
0.0
 42
0.069642
  0
VERTEX
  8
3
  6
CONTINUOUS
 62
   110
  5
38C
 10
-990.473185
 20
36.153741
 30
0.0
 42
0.064663
  0
VERTEX
  8
3
  6
CONTINUOUS
 62
   110
  5
38D
 10
-990.462283
 20
36.128704
 30
0.0
 42
0.05709
  0
VERTEX
  8
3
  6
CONTINUOUS
 62
   110
  5
38E
 10
-990.44458
 20
36.10563
 30
0.0
 42
0.049486
  0
VERTEX
  8
3
  6
CONTINUOUS
 62
   110
  5
38F
 10
-990.420755
 20
36.085405
 30
0.0
 42
0.043232
  0
VERTEX
  8
3
  6
CONTINUOUS
 62
   110
  5
390
 10
-990.391724
 20
36.068807
 30
0.0
 42
0.038702
  0
VERTEX
  8
3
  6
CONTINUOUS
 62
   110
  5
391
 10
-990.358603
 20
36.056473
 30
0.0
 42
0.035825
  0
VERTEX
  8
3
  6
CONTINUOUS
 62
   110
  5
392
 10
-990.322665
 20
36.048878
 30
0.0
 42
0.034439
  0
VERTEX
  8
3
  6
CONTINUOUS
 62
   110
  5
393
 10
-990.285291
 20
36.046314
 30
0.0
 42
0.034439
  0
VERTEX
  8
3
  6
CONTINUOUS
 62
   110
  5
394
 10
-990.247916
 20
36.048878
 30
0.0
 42
0.035825
  0
VERTEX
  8
3
  6
CONTINUOUS
 62
   110
  5
395
 10
-990.211978
 20
36.056473
 30
0.0
 42
0.038702
  0
VERTEX
  8
3
  6
CONTINUOUS
 62
   110
  5
396
 10
-990.178857
 20
36.068807
 30
0.0
 42
0.043232
  0
VERTEX
  8
3
  6
CONTINUOUS
 62
   110
  5
397
 10
-990.149827
 20
36.085405
 30
0.0
 42
0.049486
  0
VERTEX
  8
3
  6
CONTINUOUS
 62
   110
  5
398
 10
-990.126002
 20
36.10563
 30
0.0
 42
0.05709
  0
VERTEX
  8
3
  6
CONTINUOUS
 62
   110
  5
399
 10
-990.108298
 20
36.128704
 30
0.0
 42
0.064663
  0
VERTEX
  8
3
  6
CONTINUOUS
 62
   110
  5
39A
 10
-990.097397
 20
36.153741
 30
0.0
 42
0.069642
  0
VERTEX
  8
3
  6
CONTINUOUS
 62
   110
  5
39B
 10
-990.093716
 20
36.179779
 30
0.0
 42
0.069642
  0
SEQEND
  8
3
  6
CONTINUOUS
 62
   110
  5
39C
  0
POLYLINE
  8
3
  6
CONTINUOUS
 62
   110
  5
39D
 66
     1
 10
0.0
 20
0.0
 30
0.0
210
0.0
220
0.0
230
1.0
  0
VERTEX
  8
3
  6
CONTINUOUS
 62
   110
  5
39E
 10
-990.476866
 20
37.00331
 30
0.0
 42
0.107797
  0
VERTEX
  8
3
  6
CONTINUOUS
 62
   110
  5
39F
 10
-990.473185
 20
36.98708
 30
0.0
 42
0.083254
  0
VERTEX
  8
3
  6
CONTINUOUS
 62
   110
  5
3A0
 10
-990.462283
 20
36.971473
 30
0.0
 42
0.058242
  0
VERTEX
  8
3
  6
CONTINUOUS
 62
   110
  5
3A1
 10
-990.44458
 20
36.957091
 30
0.0
 42
0.041681
  0
VERTEX
  8
3
  6
CONTINUOUS
 62
   110
  5
3A2
 10
-990.420755
 20
36.944484
 30
0.0
 42
0.03183
  0
VERTEX
  8
3
  6
CONTINUOUS
 62
   110
  5
3A3
 10
-990.391724
 20
36.934138
 30
0.0
 42
0.026114
  0
VERTEX
  8
3
  6
CONTINUOUS
 62
   110
  5
3A4
 10
-990.358603
 20
36.92645
 30
0.0
 42
0.022956
  0
VERTEX
  8
3
  6
CONTINUOUS
 62
   110
  5
3A5
 10
-990.322665
 20
36.921716
 30
0.0
 42
0.021545
  0
VERTEX
  8
3
  6
CONTINUOUS
 62
   110
  5
3A6
 10
-990.285291
 20
36.920117
 30
0.0
 42
0.021545
  0
VERTEX
  8
3
  6
CONTINUOUS
 62
   110
  5
3A7
 10
-990.247916
 20
36.921716
 30
0.0
 42
0.022956
  0
VERTEX
  8
3
  6
CONTINUOUS
 62
   110
  5
3A8
 10
-990.211978
 20
36.92645
 30
0.0
 42
0.026114
  0
VERTEX
  8
3
  6
CONTINUOUS
 62
   110
  5
3A9
 10
-990.178857
 20
36.934138
 30
0.0
 42
0.03183
  0
VERTEX
  8
3
  6
CONTINUOUS
 62
   110
  5
3AA
 10
-990.149827
 20
36.944484
 30
0.0
 42
0.041681
  0
VERTEX
  8
3
  6
CONTINUOUS
 62
   110
  5
3AB
 10
-990.126002
 20
36.957091
 30
0.0
 42
0.058242
  0
VERTEX
  8
3
  6
CONTINUOUS
 62
   110
  5
3AC
 10
-990.108298
 20
36.971473
 30
0.0
 42
0.083254
  0
VERTEX
  8
3
  6
CONTINUOUS
 62
   110
  5
3AD
 10
-990.097397
 20
36.98708
 30
0.0
 42
0.107797
  0
VERTEX
  8
3
  6
CONTINUOUS
 62
   110
  5
3AE
 10
-990.093716
 20
37.00331
 30
0.0
 42
0.107797
  0
SEQEND
  8
3
  6
CONTINUOUS
 62
   110
  5
3AF
  0
POLYLINE
  8
3
  6
CONTINUOUS
 62
   110
  5
3B0
 66
     1
 10
0.0
 20
0.0
 30
0.0
210
0.0
220
0.0
230
1.0
  0
VERTEX
  8
3
  6
CONTINUOUS
 62
   110
  5
3B1
 10
-990.093716
 20
34.15146
 30
0.0
 42
-0.071267
  0
VERTEX
  8
3
  6
CONTINUOUS
 62
   110
  5
3B2
 10
-990.097397
 20
34.126046
 30
0.0
 42
-0.065729
  0
VERTEX
  8
3
  6
CONTINUOUS
 62
   110
  5
3B3
 10
-990.108298
 20
34.101609
 30
0.0
 42
-0.057443
  0
VERTEX
  8
3
  6
CONTINUOUS
 62
   110
  5
3B4
 10
-990.126002
 20
34.079088
 30
0.0
 42
-0.049287
  0
VERTEX
  8
3
  6
CONTINUOUS
 62
   110
  5
3B5
 10
-990.149827
 20
34.059348
 30
0.0
 42
-0.042701
  0
VERTEX
  8
3
  6
CONTINUOUS
 62
   110
  5
3B6
 10
-990.178857
 20
34.043147
 30
0.0
 42
-0.037998
  0
VERTEX
  8
3
  6
CONTINUOUS
 62
   110
  5
3B7
 10
-990.211978
 20
34.031109
 30
0.0
 42
-0.03504
  0
VERTEX
  8
3
  6
CONTINUOUS
 62
   110
  5
3B8
 10
-990.247916
 20
34.023696
 30
0.0
 42
-0.033623
  0
VERTEX
  8
3
  6
CONTINUOUS
 62
   110
  5
3B9
 10
-990.285291
 20
34.021193
 30
0.0
 42
-0.033623
  0
VERTEX
  8
3
  6
CONTINUOUS
 62
   110
  5
3BA
 10
-990.322665
 20
34.023696
 30
0.0
 42
-0.03504
  0
VERTEX
  8
3
  6
CONTINUOUS
 62
   110
  5
3BB
 10
-990.358603
 20
34.031109
 30
0.0
 42
-0.037998
  0
VERTEX
  8
3
  6
CONTINUOUS
 62
   110
  5
3BC
 10
-990.391724
 20
34.043147
 30
0.0
 42
-0.042701
  0
VERTEX
  8
3
  6
CONTINUOUS
 62
   110
  5
3BD
 10
-990.420755
 20
34.059348
 30
0.0
 42
-0.049287
  0
VERTEX
  8
3
  6
CONTINUOUS
 62
   110
  5
3BE
 10
-990.44458
 20
34.079088
 30
0.0
 42
-0.057443
  0
VERTEX
  8
3
  6
CONTINUOUS
 62
   110
  5
3BF
 10
-990.462283
 20
34.101609
 30
0.0
 42
-0.065729
  0
VERTEX
  8
3
  6
CONTINUOUS
 62
   110
  5
3C0
 10
-990.473185
 20
34.126046
 30
0.0
 42
-0.071267
  0
VERTEX
  8
3
  6
CONTINUOUS
 62
   110
  5
3C1
 10
-990.476866
 20
34.15146
 30
0.0
 42
-0.071267
  0
SEQEND
  8
3
  6
CONTINUOUS
 62
   110
  5
3C2
  0
POLYLINE
  8
3
  6
CONTINUOUS
 62
   110
  5
3C3
 66
     1
 10
0.0
 20
0.0
 30
0.0
210
0.0
220
0.0
230
1.0
  0
VERTEX
  8
3
  6
CONTINUOUS
 62
   110
  5
3C4
 10
-987.827973
 20
34.974991
 30
0.0
 42
-0.105926
  0
VERTEX
  8
3
  6
CONTINUOUS
 62
   110
  5
3C5
 10
-987.831654
 20
34.958438
 30
0.0
 42
-0.082645
  0
VERTEX
  8
3
  6
CONTINUOUS
 62
   110
  5
3C6
 10
-987.842556
 20
34.942522
 30
0.0
 42
-0.058441
  0
VERTEX
  8
3
  6
CONTINUOUS
 62
   110
  5
3C7
 10
-987.86026
 20
34.927853
 30
0.0
 42
-0.042129
  0
VERTEX
  8
3
  6
CONTINUOUS
 62
   110
  5
3C8
 10
-987.884084
 20
34.914996
 30
0.0
 42
-0.032313
  0
VERTEX
  8
3
  6
CONTINUOUS
 62
   110
  5
3C9
 10
-987.913115
 20
34.904444
 30
0.0
 42
-0.026577
  0
VERTEX
  8
3
  6
CONTINUOUS
 62
   110
  5
3CA
 10
-987.946236
 20
34.896604
 30
0.0
 42
-0.023395
  0
VERTEX
  8
3
  6
CONTINUOUS
 62
   110
  5
3CB
 10
-987.982174
 20
34.891776
 30
0.0
 42
-0.021971
  0
VERTEX
  8
3
  6
CONTINUOUS
 62
   110
  5
3CC
 10
-988.019549
 20
34.890145
 30
0.0
 42
-0.021971
  0
VERTEX
  8
3
  6
CONTINUOUS
 62
   110
  5
3CD
 10
-988.056923
 20
34.891776
 30
0.0
 42
-0.023395
  0
VERTEX
  8
3
  6
CONTINUOUS
 62
   110
  5
3CE
 10
-988.092861
 20
34.896604
 30
0.0
 42
-0.026577
  0
VERTEX
  8
3
  6
CONTINUOUS
 62
   110
  5
3CF
 10
-988.125982
 20
34.904444
 30
0.0
 42
-0.032313
  0
VERTEX
  8
3
  6
CONTINUOUS
 62
   110
  5
3D0
 10
-988.155013
 20
34.914996
 30
0.0
 42
-0.042129
  0
VERTEX
  8
3
  6
CONTINUOUS
 62
   110
  5
3D1
 10
-988.178837
 20
34.927853
 30
0.0
 42
-0.058441
  0
VERTEX
  8
3
  6
CONTINUOUS
 62
   110
  5
3D2
 10
-988.196541
 20
34.942522
 30
0.0
 42
-0.082645
  0
VERTEX
  8
3
  6
CONTINUOUS
 62
   110
  5
3D3
 10
-988.207443
 20
34.958438
 30
0.0
 42
-0.105926
  0
VERTEX
  8
3
  6
CONTINUOUS
 62
   110
  5
3D4
 10
-988.211124
 20
34.974991
 30
0.0
 42
-0.105926
  0
SEQEND
  8
3
  6
CONTINUOUS
 62
   110
  5
3D5
  0
POLYLINE
  8
3
  6
CONTINUOUS
 62
   110
  5
3D6
 66
     1
 10
0.0
 20
0.0
 30
0.0
210
0.0
220
0.0
230
1.0
  0
VERTEX
  8
3
  6
CONTINUOUS
 62
   110
  5
3D7
 10
-987.827973
 20
36.179779
 30
0.0
 42
0.105926
  0
VERTEX
  8
3
  6
CONTINUOUS
 62
   110
  5
3D8
 10
-987.831654
 20
36.196332
 30
0.0
 42
0.082645
  0
VERTEX
  8
3
  6
CONTINUOUS
 62
   110
  5
3D9
 10
-987.842556
 20
36.212248
 30
0.0
 42
0.058441
  0
VERTEX
  8
3
  6
CONTINUOUS
 62
   110
  5
3DA
 10
-987.86026
 20
36.226917
 30
0.0
 42
0.042129
  0
VERTEX
  8
3
  6
CONTINUOUS
 62
   110
  5
3DB
 10
-987.884084
 20
36.239774
 30
0.0
 42
0.032313
  0
VERTEX
  8
3
  6
CONTINUOUS
 62
   110
  5
3DC
 10
-987.913115
 20
36.250326
 30
0.0
 42
0.026577
  0
VERTEX
  8
3
  6
CONTINUOUS
 62
   110
  5
3DD
 10
-987.946236
 20
36.258166
 30
0.0
 42
0.023395
  0
VERTEX
  8
3
  6
CONTINUOUS
 62
   110
  5
3DE
 10
-987.982174
 20
36.262994
 30
0.0
 42
0.021971
  0
VERTEX
  8
3
  6
CONTINUOUS
 62
   110
  5
3DF
 10
-988.019549
 20
36.264625
 30
0.0
 42
0.021971
  0
VERTEX
  8
3
  6
CONTINUOUS
 62
   110
  5
3E0
 10
-988.056923
 20
36.262994
 30
0.0
 42
0.023395
  0
VERTEX
  8
3
  6
CONTINUOUS
 62
   110
  5
3E1
 10
-988.092861
 20
36.258166
 30
0.0
 42
0.026577
  0
VERTEX
  8
3
  6
CONTINUOUS
 62
   110
  5
3E2
 10
-988.125982
 20
36.250326
 30
0.0
 42
0.032313
  0
VERTEX
  8
3
  6
CONTINUOUS
 62
   110
  5
3E3
 10
-988.155013
 20
36.239774
 30
0.0
 42
0.042129
  0
VERTEX
  8
3
  6
CONTINUOUS
 62
   110
  5
3E4
 10
-988.178837
 20
36.226917
 30
0.0
 42
0.058441
  0
VERTEX
  8
3
  6
CONTINUOUS
 62
   110
  5
3E5
 10
-988.196541
 20
36.212248
 30
0.0
 42
0.082645
  0
VERTEX
  8
3
  6
CONTINUOUS
 62
   110
  5
3E6
 10
-988.207443
 20
36.196332
 30
0.0
 42
0.105926
  0
VERTEX
  8
3
  6
CONTINUOUS
 62
   110
  5
3E7
 10
-988.211124
 20
36.179779
 30
0.0
 42
0.105926
  0
SEQEND
  8
3
  6
CONTINUOUS
 62
   110
  5
3E8
  0
POLYLINE
  8
3
  6
CONTINUOUS
 62
   110
  5
3E9
 66
     1
 10
0.0
 20
0.0
 30
0.0
210
0.0
220
0.0
230
1.0
  0
VERTEX
  8
3
  6
CONTINUOUS
 62
   110
  5
3EA
 10
-988.211124
 20
36.179779
 30
0.0
 42
0.069642
  0
VERTEX
  8
3
  6
CONTINUOUS
 62
   110
  5
3EB
 10
-988.207443
 20
36.153741
 30
0.0
 42
0.064663
  0
VERTEX
  8
3
  6
CONTINUOUS
 62
   110
  5
3EC
 10
-988.196541
 20
36.128704
 30
0.0
 42
0.05709
  0
VERTEX
  8
3
  6
CONTINUOUS
 62
   110
  5
3ED
 10
-988.178837
 20
36.10563
 30
0.0
 42
0.049486
  0
VERTEX
  8
3
  6
CONTINUOUS
 62
   110
  5
3EE
 10
-988.155013
 20
36.085405
 30
0.0
 42
0.043232
  0
VERTEX
  8
3
  6
CONTINUOUS
 62
   110
  5
3EF
 10
-988.125982
 20
36.068807
 30
0.0
 42
0.038702
  0
VERTEX
  8
3
  6
CONTINUOUS
 62
   110
  5
3F0
 10
-988.092861
 20
36.056473
 30
0.0
 42
0.035825
  0
VERTEX
  8
3
  6
CONTINUOUS
 62
   110
  5
3F1
 10
-988.056923
 20
36.048878
 30
0.0
 42
0.034439
  0
VERTEX
  8
3
  6
CONTINUOUS
 62
   110
  5
3F2
 10
-988.019549
 20
36.046314
 30
0.0
 42
0.034439
  0
VERTEX
  8
3
  6
CONTINUOUS
 62
   110
  5
3F3
 10
-987.982174
 20
36.048878
 30
0.0
 42
0.035825
  0
VERTEX
  8
3
  6
CONTINUOUS
 62
   110
  5
3F4
 10
-987.946236
 20
36.056473
 30
0.0
 42
0.038702
  0
VERTEX
  8
3
  6
CONTINUOUS
 62
   110
  5
3F5
 10
-987.913115
 20
36.068807
 30
0.0
 42
0.043232
  0
VERTEX
  8
3
  6
CONTINUOUS
 62
   110
  5
3F6
 10
-987.884084
 20
36.085405
 30
0.0
 42
0.049486
  0
VERTEX
  8
3
  6
CONTINUOUS
 62
   110
  5
3F7
 10
-987.86026
 20
36.10563
 30
0.0
 42
0.05709
  0
VERTEX
  8
3
  6
CONTINUOUS
 62
   110
  5
3F8
 10
-987.842556
 20
36.128704
 30
0.0
 42
0.064663
  0
VERTEX
  8
3
  6
CONTINUOUS
 62
   110
  5
3F9
 10
-987.831654
 20
36.153741
 30
0.0
 42
0.069642
  0
VERTEX
  8
3
  6
CONTINUOUS
 62
   110
  5
3FA
 10
-987.827973
 20
36.179779
 30
0.0
 42
0.069642
  0
SEQEND
  8
3
  6
CONTINUOUS
 62
   110
  5
3FB
  0
POLYLINE
  8
3
  6
CONTINUOUS
 62
   110
  5
3FC
 66
     1
 10
0.0
 20
0.0
 30
0.0
210
0.0
220
0.0
230
1.0
  0
VERTEX
  8
3
  6
CONTINUOUS
 62
   110
  5
3FD
 10
-987.827973
 20
37.00331
 30
0.0
 42
0.071267
  0
VERTEX
  8
3
  6
CONTINUOUS
 62
   110
  5
3FE
 10
-987.831654
 20
37.028724
 30
0.0
 42
0.065729
  0
VERTEX
  8
3
  6
CONTINUOUS
 62
   110
  5
3FF
 10
-987.842556
 20
37.053161
 30
0.0
 42
0.057443
  0
VERTEX
  8
3
  6
CONTINUOUS
 62
   110
  5
400
 10
-987.86026
 20
37.075682
 30
0.0
 42
0.049287
  0
VERTEX
  8
3
  6
CONTINUOUS
 62
   110
  5
401
 10
-987.884084
 20
37.095423
 30
0.0
 42
0.042701
  0
VERTEX
  8
3
  6
CONTINUOUS
 62
   110
  5
402
 10
-987.913115
 20
37.111623
 30
0.0
 42
0.037998
  0
VERTEX
  8
3
  6
CONTINUOUS
 62
   110
  5
403
 10
-987.946236
 20
37.123661
 30
0.0
 42
0.03504
  0
VERTEX
  8
3
  6
CONTINUOUS
 62
   110
  5
404
 10
-987.982174
 20
37.131074
 30
0.0
 42
0.033623
  0
VERTEX
  8
3
  6
CONTINUOUS
 62
   110
  5
405
 10
-988.019549
 20
37.133577
 30
0.0
 42
0.033623
  0
VERTEX
  8
3
  6
CONTINUOUS
 62
   110
  5
406
 10
-988.056923
 20
37.131074
 30
0.0
 42
0.03504
  0
VERTEX
  8
3
  6
CONTINUOUS
 62
   110
  5
407
 10
-988.092861
 20
37.123661
 30
0.0
 42
0.037998
  0
VERTEX
  8
3
  6
CONTINUOUS
 62
   110
  5
408
 10
-988.125982
 20
37.111623
 30
0.0
 42
0.042701
  0
VERTEX
  8
3
  6
CONTINUOUS
 62
   110
  5
409
 10
-988.155013
 20
37.095423
 30
0.0
 42
0.049287
  0
VERTEX
  8
3
  6
CONTINUOUS
 62
   110
  5
40A
 10
-988.178837
 20
37.075682
 30
0.0
 42
0.057443
  0
VERTEX
  8
3
  6
CONTINUOUS
 62
   110
  5
40B
 10
-988.196541
 20
37.053161
 30
0.0
 42
0.065729
  0
VERTEX
  8
3
  6
CONTINUOUS
 62
   110
  5
40C
 10
-988.207443
 20
37.028724
 30
0.0
 42
0.071267
  0
VERTEX
  8
3
  6
CONTINUOUS
 62
   110
  5
40D
 10
-988.211124
 20
37.00331
 30
0.0
 42
0.071267
  0
SEQEND
  8
3
  6
CONTINUOUS
 62
   110
  5
40E
  0
POLYLINE
  8
3
  6
CONTINUOUS
 62
   110
  5
40F
 66
     1
 10
0.0
 20
0.0
 30
0.0
210
0.0
220
0.0
230
1.0
  0
VERTEX
  8
3
  6
CONTINUOUS
 62
   110
  5
410
 10
-988.211124
 20
34.15146
 30
0.0
 42
-0.107797
  0
VERTEX
  8
3
  6
CONTINUOUS
 62
   110
  5
411
 10
-988.207443
 20
34.16769
 30
0.0
 42
-0.083254
  0
VERTEX
  8
3
  6
CONTINUOUS
 62
   110
  5
412
 10
-988.196541
 20
34.183297
 30
0.0
 42
-0.058242
  0
VERTEX
  8
3
  6
CONTINUOUS
 62
   110
  5
413
 10
-988.178837
 20
34.19768
 30
0.0
 42
-0.041681
  0
VERTEX
  8
3
  6
CONTINUOUS
 62
   110
  5
414
 10
-988.155013
 20
34.210286
 30
0.0
 42
-0.03183
  0
VERTEX
  8
3
  6
CONTINUOUS
 62
   110
  5
415
 10
-988.125982
 20
34.220632
 30
0.0
 42
-0.026114
  0
VERTEX
  8
3
  6
CONTINUOUS
 62
   110
  5
416
 10
-988.092861
 20
34.22832
 30
0.0
 42
-0.022956
  0
VERTEX
  8
3
  6
CONTINUOUS
 62
   110
  5
417
 10
-988.056923
 20
34.233054
 30
0.0
 42
-0.021545
  0
VERTEX
  8
3
  6
CONTINUOUS
 62
   110
  5
418
 10
-988.019549
 20
34.234653
 30
0.0
 42
-0.021545
  0
VERTEX
  8
3
  6
CONTINUOUS
 62
   110
  5
419
 10
-987.982174
 20
34.233054
 30
0.0
 42
-0.022956
  0
VERTEX
  8
3
  6
CONTINUOUS
 62
   110
  5
41A
 10
-987.946236
 20
34.22832
 30
0.0
 42
-0.026114
  0
VERTEX
  8
3
  6
CONTINUOUS
 62
   110
  5
41B
 10
-987.913115
 20
34.220632
 30
0.0
 42
-0.03183
  0
VERTEX
  8
3
  6
CONTINUOUS
 62
   110
  5
41C
 10
-987.884084
 20
34.210286
 30
0.0
 42
-0.041681
  0
VERTEX
  8
3
  6
CONTINUOUS
 62
   110
  5
41D
 10
-987.86026
 20
34.19768
 30
0.0
 42
-0.058242
  0
VERTEX
  8
3
  6
CONTINUOUS
 62
   110
  5
41E
 10
-987.842556
 20
34.183297
 30
0.0
 42
-0.083254
  0
VERTEX
  8
3
  6
CONTINUOUS
 62
   110
  5
41F
 10
-987.831654
 20
34.16769
 30
0.0
 42
-0.107797
  0
VERTEX
  8
3
  6
CONTINUOUS
 62
   110
  5
420
 10
-987.827973
 20
34.15146
 30
0.0
 42
-0.107797
  0
SEQEND
  8
3
  6
CONTINUOUS
 62
   110
  5
421
  0
POLYLINE
  8
3
  6
CONTINUOUS
 62
   110
  5
422
 66
     1
 10
0.0
 20
0.0
 30
0.0
210
0.0
220
0.0
230
1.0
  0
VERTEX
  8
3
  6
CONTINUOUS
 62
   110
  5
423
 10
-988.211124
 20
34.974991
 30
0.0
 42
-0.069642
  0
VERTEX
  8
3
  6
CONTINUOUS
 62
   110
  5
424
 10
-988.207443
 20
35.001029
 30
0.0
 42
-0.064663
  0
VERTEX
  8
3
  6
CONTINUOUS
 62
   110
  5
425
 10
-988.196541
 20
35.026066
 30
0.0
 42
-0.05709
  0
VERTEX
  8
3
  6
CONTINUOUS
 62
   110
  5
426
 10
-988.178837
 20
35.04914
 30
0.0
 42
-0.049486
  0
VERTEX
  8
3
  6
CONTINUOUS
 62
   110
  5
427
 10
-988.155013
 20
35.069365
 30
0.0
 42
-0.043232
  0
VERTEX
  8
3
  6
CONTINUOUS
 62
   110
  5
428
 10
-988.125982
 20
35.085963
 30
0.0
 42
-0.038702
  0
VERTEX
  8
3
  6
CONTINUOUS
 62
   110
  5
429
 10
-988.092861
 20
35.098297
 30
0.0
 42
-0.035825
  0
VERTEX
  8
3
  6
CONTINUOUS
 62
   110
  5
42A
 10
-988.056923
 20
35.105892
 30
0.0
 42
-0.034439
  0
VERTEX
  8
3
  6
CONTINUOUS
 62
   110
  5
42B
 10
-988.019549
 20
35.108456
 30
0.0
 42
-0.034439
  0
VERTEX
  8
3
  6
CONTINUOUS
 62
   110
  5
42C
 10
-987.982174
 20
35.105892
 30
0.0
 42
-0.035825
  0
VERTEX
  8
3
  6
CONTINUOUS
 62
   110
  5
42D
 10
-987.946236
 20
35.098297
 30
0.0
 42
-0.038702
  0
VERTEX
  8
3
  6
CONTINUOUS
 62
   110
  5
42E
 10
-987.913115
 20
35.085963
 30
0.0
 42
-0.043232
  0
VERTEX
  8
3
  6
CONTINUOUS
 62
   110
  5
42F
 10
-987.884084
 20
35.069365
 30
0.0
 42
-0.049486
  0
VERTEX
  8
3
  6
CONTINUOUS
 62
   110
  5
430
 10
-987.86026
 20
35.04914
 30
0.0
 42
-0.05709
  0
VERTEX
  8
3
  6
CONTINUOUS
 62
   110
  5
431
 10
-987.842556
 20
35.026066
 30
0.0
 42
-0.064663
  0
VERTEX
  8
3
  6
CONTINUOUS
 62
   110
  5
432
 10
-987.831654
 20
35.001029
 30
0.0
 42
-0.069642
  0
VERTEX
  8
3
  6
CONTINUOUS
 62
   110
  5
433
 10
-987.827973
 20
34.974991
 30
0.0
 42
-0.069642
  0
SEQEND
  8
3
  6
CONTINUOUS
 62
   110
  5
434
  0
POINT
  8
3
  6
CONTINUOUS
 62
     2
  5
435
 10
-896.076833
 20
35.577167
 30
0.0
  0
POINT
  8
3
  6
CONTINUOUS
 62
     2
  5
436
 10
-882.742167
 20
35.577167
 30
0.0
  0
LINE
  8
3
  6
CONTINUOUS
 62
     2
  5
437
 10
-990.818833
 20
33.945167
 30
0.0
 11
-990.818833
 21
37.209167
 31
0.0
  0
LINE
  8
3
  6
DASHED
 62
     7
  5
438
 10
-907.484833
 20
33.945167
 30
0.0
 11
-907.484833
 21
37.209167
 31
0.0
  0
LINE
  8
3
  6
DASHED
 62
     7
  5
439
 10
-867.484833
 20
33.945167
 30
0.0
 11
-867.484833
 21
37.209167
 31
0.0
  0
LINE
  8
3
  6
DASHED
 62
     7
  5
43A
 10
-987.484167
 20
33.945167
 30
0.0
 11
-987.484167
 21
37.209167
 31
0.0
  0
LINE
  8
3
  6
CONTINUOUS
 62
     7
  5
43B
 10
-1000.626167
 20
31.7085
 30
0.0
 11
-1000.626167
 21
27.5745
 31
0.0
  0
POLYLINE
  8
3
  6
CONTINUOUS
 62
     7
  5
43C
 66
     1
 10
0.0
 20
0.0
 30
0.0
  0
VERTEX
  8
3
  6
CONTINUOUS
 62
     7
  5
43D
 10
-1000.626167
 20
40.073167
 30
0.0
  0
VERTEX
  8
3
  6
CONTINUOUS
 62
     7
  5
43E
 10
-1000.626167
 20
33.151833
 30
0.0
  0
VERTEX
  8
3
  6
CONTINUOUS
 62
     7
  5
43F
 10
-1000.098833
 20
32.6685
 30
0.0
  0
VERTEX
  8
3
  6
CONTINUOUS
 62
     7
  5
440
 10
-1001.346833
 20
32.3805
 30
0.0
  0
VERTEX
  8
3
  6
CONTINUOUS
 62
     7
  5
441
 10
-1000.626167
 20
31.7085
 30
0.0
  0
VERTEX
  8
3
  6
CONTINUOUS
 62
     7
  5
442
 10
-1000.626167
 20
27.5745
 30
0.0
  0
SEQEND
  8
3
  6
CONTINUOUS
 62
     7
  5
443
  0
LINE
  8
3
  6
CONTINUOUS
 62
   241
  5
444
 10
-848.146833
 20
30.5085
 30
0.0
 11
-830.156833
 21
30.5085
 31
0.0
  0
LINE
  8
3
  6
CONTINUOUS
 62
   241
  5
445
 10
-848.146833
 20
30.0925
 30
0.0
 11
-830.156833
 21
30.0925
 31
0.0
  0
LINE
  8
3
  6
CONTINUOUS
 62
   241
  5
446
 10
-989.9515
 20
33.711833
 30
0.0
 11
-989.9515
 21
29.977833
 31
0.0
  0
LINE
  8
3
  6
CONTINUOUS
 62
   241
  5
447
 10
-988.3515
 20
33.711833
 30
0.0
 11
-988.3515
 21
29.977833
 31
0.0
  0
LINE
  8
3
  6
DASHED
 62
     7
  5
448
 10
-989.9515
 20
29.977833
 30
0.0
 11
-989.9515
 21
18.265167
 31
0.0
  0
LINE
  8
3
  6
DASHED
 62
     7
  5
449
 10
-988.3515
 20
29.977833
 30
0.0
 11
-988.3515
 21
18.265167
 31
0.0
  0
LINE
  8
3
  6
DASHED
 62
     7
  5
44A
 10
-989.9515
 20
18.265167
 30
0.0
 11
-988.3515
 21
18.265167
 31
0.0
  0
LINE
  8
3
  6
CONTINUOUS
 62
     2
  5
44B
 10
-949.1515
 20
-0.3165
 30
0.0
 11
-829.142833
 21
-0.3165
 31
0.0
  0
POLYLINE
  8
3
  6
CONTINUOUS
 62
     2
  5
44C
 66
     1
 10
0.0
 20
0.0
 30
0.0
  0
VERTEX
  8
3
  6
CONTINUOUS
 62
     2
  5
44D
 10
-829.996833
 20
-0.7425
 30
0.0
  0
VERTEX
  8
3
  6
CONTINUOUS
 62
     2
  5
44E
 10
-829.142833
 20
-0.3165
 30
0.0
  0
VERTEX
  8
3
  6
CONTINUOUS
 62
     2
  5
44F
 10
-829.996833
 20
0.108833
 30
0.0
  0
SEQEND
  8
3
  6
CONTINUOUS
 62
     2
  5
450
  0
LINE
  8
3
  6
CONTINUOUS
 62
     2
  5
451
 10
-1000.626167
 20
35.727833
 30
0.0
 11
-831.820833
 21
35.727833
 31
0.0
  0
LINE
  8
3
  6
CONTINUOUS
 62
     2
  5
452
 10
-1000.626167
 20
35.427167
 30
0.0
 11
-831.820833
 21
35.427167
 31
0.0
  0
LINE
  8
3
  6
CONTINUOUS
 62
     2
  5
453
 10
-1000.626167
 20
35.221833
 30
0.0
 11
-831.7035
 21
35.221833
 31
0.0
  0
LINE
  8
3
  6
CONTINUOUS
 62
     2
  5
454
 10
-1000.626167
 20
34.789833
 30
0.0
 11
-831.174833
 21
34.789833
 31
0.0
  0
LINE
  8
3
  6
CONTINUOUS
 62
     2
  5
455
 10
-1000.626167
 20
34.329167
 30
0.0
 11
-830.886833
 21
34.329167
 31
0.0
  0
LINE
  8
3
  6
CONTINUOUS
 62
     2
  5
456
 10
-830.880167
 20
34.003167
 30
0.0
 11
-1000.626167
 21
34.003167
 31
0.0
  0
LINE
  8
3
  6
CONTINUOUS
 62
     2
  5
457
 10
-1000.626167
 20
35.9325
 30
0.0
 11
-831.656167
 21
35.9325
 31
0.0
  0
LINE
  8
3
  6
CONTINUOUS
 62
     2
  5
458
 10
-1000.626167
 20
36.3645
 30
0.0
 11
-831.128167
 21
36.3645
 31
0.0
  0
LINE
  8
3
  6
CONTINUOUS
 62
     2
  5
459
 10
-1000.626167
 20
36.825167
 30
0.0
 11
-830.880167
 21
36.825167
 31
0.0
  0
LINE
  8
3
  6
CONTINUOUS
 62
     2
  5
45A
 10
-830.880167
 20
37.161167
 30
0.0
 11
-1000.626167
 21
37.161167
 31
0.0
  0
LINE
  8
3
  6
CONTINUOUS
 62
     2
  5
45B
 10
-1000.626167
 20
33.929167
 30
0.0
 11
-830.880167
 21
33.929167
 31
0.0
  0
LINE
  8
3
  6
CONTINUOUS
 62
     2
  5
45C
 10
-1000.626167
 20
37.193167
 30
0.0
 11
-830.880167
 21
37.193167
 31
0.0
  0
LINE
  8
3
  6
CONTINUOUS
 62
     7
  5
45D
 10
-830.156833
 20
30.5665
 30
0.0
 11
-830.156833
 21
29.977833
 31
0.0
  0
LINE
  8
3
  6
DASHED
 62
     7
  5
45E
 10
-830.156833
 20
29.977833
 30
0.0
 11
-830.156833
 21
29.2285
 31
0.0
  0
POINT
  8
3
  6
CONTINUOUS
 62
     2
  5
45F
 10
-909.078167
 20
34.565833
 30
0.0
  0
POINT
  8
3
  6
CONTINUOUS
 62
     2
  5
460
 10
-908.726167
 20
36.627167
 30
0.0
  0
POLYLINE
  8
3
  6
CONTINUOUS
 62
   110
  5
461
 66
     1
 10
0.0
 20
0.0
 30
0.0
210
0.0
220
0.0
230
1.0
  0
VERTEX
  8
3
  6
CONTINUOUS
 62
   110
  5
462
 10
-910.094216
 20
37.00331
 30
0.0
 42
0.071267
  0
VERTEX
  8
3
  6
CONTINUOUS
 62
   110
  5
463
 10
-910.097897
 20
37.028724
 30
0.0
 42
0.065729
  0
VERTEX
  8
3
  6
CONTINUOUS
 62
   110
  5
464
 10
-910.108798
 20
37.053161
 30
0.0
 42
0.057443
  0
VERTEX
  8
3
  6
CONTINUOUS
 62
   110
  5
465
 10
-910.126502
 20
37.075682
 30
0.0
 42
0.049287
  0
VERTEX
  8
3
  6
CONTINUOUS
 62
   110
  5
466
 10
-910.150327
 20
37.095423
 30
0.0
 42
0.042701
  0
VERTEX
  8
3
  6
CONTINUOUS
 62
   110
  5
467
 10
-910.179357
 20
37.111623
 30
0.0
 42
0.037998
  0
VERTEX
  8
3
  6
CONTINUOUS
 62
   110
  5
468
 10
-910.212478
 20
37.123661
 30
0.0
 42
0.03504
  0
VERTEX
  8
3
  6
CONTINUOUS
 62
   110
  5
469
 10
-910.248416
 20
37.131074
 30
0.0
 42
0.033623
  0
VERTEX
  8
3
  6
CONTINUOUS
 62
   110
  5
46A
 10
-910.285791
 20
37.133577
 30
0.0
 42
0.033623
  0
VERTEX
  8
3
  6
CONTINUOUS
 62
   110
  5
46B
 10
-910.323165
 20
37.131074
 30
0.0
 42
0.03504
  0
VERTEX
  8
3
  6
CONTINUOUS
 62
   110
  5
46C
 10
-910.359103
 20
37.123661
 30
0.0
 42
0.037998
  0
VERTEX
  8
3
  6
CONTINUOUS
 62
   110
  5
46D
 10
-910.392224
 20
37.111623
 30
0.0
 42
0.042701
  0
VERTEX
  8
3
  6
CONTINUOUS
 62
   110
  5
46E
 10
-910.421255
 20
37.095423
 30
0.0
 42
0.049287
  0
VERTEX
  8
3
  6
CONTINUOUS
 62
   110
  5
46F
 10
-910.44508
 20
37.075682
 30
0.0
 42
0.057443
  0
VERTEX
  8
3
  6
CONTINUOUS
 62
   110
  5
470
 10
-910.462783
 20
37.053161
 30
0.0
 42
0.065729
  0
VERTEX
  8
3
  6
CONTINUOUS
 62
   110
  5
471
 10
-910.473685
 20
37.028724
 30
0.0
 42
0.071267
  0
VERTEX
  8
3
  6
CONTINUOUS
 62
   110
  5
472
 10
-910.477366
 20
37.00331
 30
0.0
 42
0.071267
  0
SEQEND
  8
3
  6
CONTINUOUS
 62
   110
  5
473
  0
POLYLINE
  8
3
  6
CONTINUOUS
 62
   110
  5
474
 66
     1
 10
0.0
 20
0.0
 30
0.0
210
0.0
220
0.0
230
1.0
  0
VERTEX
  8
3
  6
CONTINUOUS
 62
   110
  5
475
 10
-910.477366
 20
34.15146
 30
0.0
 42
-0.107797
  0
VERTEX
  8
3
  6
CONTINUOUS
 62
   110
  5
476
 10
-910.473685
 20
34.16769
 30
0.0
 42
-0.083254
  0
VERTEX
  8
3
  6
CONTINUOUS
 62
   110
  5
477
 10
-910.462783
 20
34.183297
 30
0.0
 42
-0.058242
  0
VERTEX
  8
3
  6
CONTINUOUS
 62
   110
  5
478
 10
-910.44508
 20
34.19768
 30
0.0
 42
-0.041681
  0
VERTEX
  8
3
  6
CONTINUOUS
 62
   110
  5
479
 10
-910.421255
 20
34.210286
 30
0.0
 42
-0.03183
  0
VERTEX
  8
3
  6
CONTINUOUS
 62
   110
  5
47A
 10
-910.392224
 20
34.220632
 30
0.0
 42
-0.026114
  0
VERTEX
  8
3
  6
CONTINUOUS
 62
   110
  5
47B
 10
-910.359103
 20
34.22832
 30
0.0
 42
-0.022956
  0
VERTEX
  8
3
  6
CONTINUOUS
 62
   110
  5
47C
 10
-910.323165
 20
34.233054
 30
0.0
 42
-0.021545
  0
VERTEX
  8
3
  6
CONTINUOUS
 62
   110
  5
47D
 10
-910.285791
 20
34.234653
 30
0.0
 42
-0.021545
  0
VERTEX
  8
3
  6
CONTINUOUS
 62
   110
  5
47E
 10
-910.248416
 20
34.233054
 30
0.0
 42
-0.022956
  0
VERTEX
  8
3
  6
CONTINUOUS
 62
   110
  5
47F
 10
-910.212478
 20
34.22832
 30
0.0
 42
-0.026114
  0
VERTEX
  8
3
  6
CONTINUOUS
 62
   110
  5
480
 10
-910.179357
 20
34.220632
 30
0.0
 42
-0.03183
  0
VERTEX
  8
3
  6
CONTINUOUS
 62
   110
  5
481
 10
-910.150327
 20
34.210286
 30
0.0
 42
-0.041681
  0
VERTEX
  8
3
  6
CONTINUOUS
 62
   110
  5
482
 10
-910.126502
 20
34.19768
 30
0.0
 42
-0.058242
  0
VERTEX
  8
3
  6
CONTINUOUS
 62
   110
  5
483
 10
-910.108798
 20
34.183297
 30
0.0
 42
-0.083254
  0
VERTEX
  8
3
  6
CONTINUOUS
 62
   110
  5
484
 10
-910.097897
 20
34.16769
 30
0.0
 42
-0.107797
  0
VERTEX
  8
3
  6
CONTINUOUS
 62
   110
  5
485
 10
-910.094216
 20
34.15146
 30
0.0
 42
-0.107797
  0
SEQEND
  8
3
  6
CONTINUOUS
 62
   110
  5
486
  0
POLYLINE
  8
3
  6
CONTINUOUS
 62
   110
  5
487
 66
     1
 10
0.0
 20
0.0
 30
0.0
210
0.0
220
0.0
230
1.0
  0
VERTEX
  8
3
  6
CONTINUOUS
 62
   110
  5
488
 10
-908.211624
 20
37.00331
 30
0.0
 42
0.107797
  0
VERTEX
  8
3
  6
CONTINUOUS
 62
   110
  5
489
 10
-908.207943
 20
36.98708
 30
0.0
 42
0.083254
  0
VERTEX
  8
3
  6
CONTINUOUS
 62
   110
  5
48A
 10
-908.197041
 20
36.971473
 30
0.0
 42
0.058242
  0
VERTEX
  8
3
  6
CONTINUOUS
 62
   110
  5
48B
 10
-908.179337
 20
36.957091
 30
0.0
 42
0.041681
  0
VERTEX
  8
3
  6
CONTINUOUS
 62
   110
  5
48C
 10
-908.155513
 20
36.944484
 30
0.0
 42
0.03183
  0
VERTEX
  8
3
  6
CONTINUOUS
 62
   110
  5
48D
 10
-908.126482
 20
36.934138
 30
0.0
 42
0.026114
  0
VERTEX
  8
3
  6
CONTINUOUS
 62
   110
  5
48E
 10
-908.093361
 20
36.92645
 30
0.0
 42
0.022956
  0
VERTEX
  8
3
  6
CONTINUOUS
 62
   110
  5
48F
 10
-908.057423
 20
36.921716
 30
0.0
 42
0.021545
  0
VERTEX
  8
3
  6
CONTINUOUS
 62
   110
  5
490
 10
-908.020048
 20
36.920117
 30
0.0
 42
0.021545
  0
VERTEX
  8
3
  6
CONTINUOUS
 62
   110
  5
491
 10
-907.982674
 20
36.921716
 30
0.0
 42
0.022956
  0
VERTEX
  8
3
  6
CONTINUOUS
 62
   110
  5
492
 10
-907.946736
 20
36.92645
 30
0.0
 42
0.026114
  0
VERTEX
  8
3
  6
CONTINUOUS
 62
   110
  5
493
 10
-907.913615
 20
36.934138
 30
0.0
 42
0.03183
  0
VERTEX
  8
3
  6
CONTINUOUS
 62
   110
  5
494
 10
-907.884584
 20
36.944484
 30
0.0
 42
0.041681
  0
VERTEX
  8
3
  6
CONTINUOUS
 62
   110
  5
495
 10
-907.860759
 20
36.957091
 30
0.0
 42
0.058242
  0
VERTEX
  8
3
  6
CONTINUOUS
 62
   110
  5
496
 10
-907.843056
 20
36.971473
 30
0.0
 42
0.083254
  0
VERTEX
  8
3
  6
CONTINUOUS
 62
   110
  5
497
 10
-907.832154
 20
36.98708
 30
0.0
 42
0.107797
  0
VERTEX
  8
3
  6
CONTINUOUS
 62
   110
  5
498
 10
-907.828473
 20
37.00331
 30
0.0
 42
0.107797
  0
SEQEND
  8
3
  6
CONTINUOUS
 62
   110
  5
499
  0
POLYLINE
  8
3
  6
CONTINUOUS
 62
   110
  5
49A
 66
     1
 10
0.0
 20
0.0
 30
0.0
210
0.0
220
0.0
230
1.0
  0
VERTEX
  8
3
  6
CONTINUOUS
 62
   110
  5
49B
 10
-907.828473
 20
34.15146
 30
0.0
 42
-0.071267
  0
VERTEX
  8
3
  6
CONTINUOUS
 62
   110
  5
49C
 10
-907.832154
 20
34.126046
 30
0.0
 42
-0.065729
  0
VERTEX
  8
3
  6
CONTINUOUS
 62
   110
  5
49D
 10
-907.843056
 20
34.101609
 30
0.0
 42
-0.057443
  0
VERTEX
  8
3
  6
CONTINUOUS
 62
   110
  5
49E
 10
-907.860759
 20
34.079088
 30
0.0
 42
-0.049287
  0
VERTEX
  8
3
  6
CONTINUOUS
 62
   110
  5
49F
 10
-907.884584
 20
34.059348
 30
0.0
 42
-0.042701
  0
VERTEX
  8
3
  6
CONTINUOUS
 62
   110
  5
4A0
 10
-907.913615
 20
34.043147
 30
0.0
 42
-0.037998
  0
VERTEX
  8
3
  6
CONTINUOUS
 62
   110
  5
4A1
 10
-907.946736
 20
34.031109
 30
0.0
 42
-0.03504
  0
VERTEX
  8
3
  6
CONTINUOUS
 62
   110
  5
4A2
 10
-907.982674
 20
34.023696
 30
0.0
 42
-0.033623
  0
VERTEX
  8
3
  6
CONTINUOUS
 62
   110
  5
4A3
 10
-908.020048
 20
34.021193
 30
0.0
 42
-0.033623
  0
VERTEX
  8
3
  6
CONTINUOUS
 62
   110
  5
4A4
 10
-908.057423
 20
34.023696
 30
0.0
 42
-0.03504
  0
VERTEX
  8
3
  6
CONTINUOUS
 62
   110
  5
4A5
 10
-908.093361
 20
34.031109
 30
0.0
 42
-0.037998
  0
VERTEX
  8
3
  6
CONTINUOUS
 62
   110
  5
4A6
 10
-908.126482
 20
34.043147
 30
0.0
 42
-0.042701
  0
VERTEX
  8
3
  6
CONTINUOUS
 62
   110
  5
4A7
 10
-908.155513
 20
34.059348
 30
0.0
 42
-0.049287
  0
VERTEX
  8
3
  6
CONTINUOUS
 62
   110
  5
4A8
 10
-908.179337
 20
34.079088
 30
0.0
 42
-0.057443
  0
VERTEX
  8
3
  6
CONTINUOUS
 62
   110
  5
4A9
 10
-908.197041
 20
34.101609
 30
0.0
 42
-0.065729
  0
VERTEX
  8
3
  6
CONTINUOUS
 62
   110
  5
4AA
 10
-908.207943
 20
34.126046
 30
0.0
 42
-0.071267
  0
VERTEX
  8
3
  6
CONTINUOUS
 62
   110
  5
4AB
 10
-908.211624
 20
34.15146
 30
0.0
 42
-0.071267
  0
SEQEND
  8
3
  6
CONTINUOUS
 62
   110
  5
4AC
  0
POINT
  8
3
  6
CONTINUOUS
 62
     2
  5
4AD
 10
-909.410833
 20
35.577167
 30
0.0
  0
POLYLINE
  8
3
  6
CONTINUOUS
 62
   110
  5
4AE
 66
     1
 10
0.0
 20
0.0
 30
0.0
210
0.0
220
0.0
230
1.0
  0
VERTEX
  8
3
  6
CONTINUOUS
 62
   110
  5
4AF
 10
-910.094216
 20
34.974991
 30
0.0
 42
-0.105926
  0
VERTEX
  8
3
  6
CONTINUOUS
 62
   110
  5
4B0
 10
-910.097897
 20
34.958438
 30
0.0
 42
-0.082645
  0
VERTEX
  8
3
  6
CONTINUOUS
 62
   110
  5
4B1
 10
-910.108798
 20
34.942522
 30
0.0
 42
-0.058441
  0
VERTEX
  8
3
  6
CONTINUOUS
 62
   110
  5
4B2
 10
-910.126502
 20
34.927853
 30
0.0
 42
-0.042129
  0
VERTEX
  8
3
  6
CONTINUOUS
 62
   110
  5
4B3
 10
-910.150327
 20
34.914996
 30
0.0
 42
-0.032313
  0
VERTEX
  8
3
  6
CONTINUOUS
 62
   110
  5
4B4
 10
-910.179357
 20
34.904444
 30
0.0
 42
-0.026577
  0
VERTEX
  8
3
  6
CONTINUOUS
 62
   110
  5
4B5
 10
-910.212478
 20
34.896604
 30
0.0
 42
-0.023395
  0
VERTEX
  8
3
  6
CONTINUOUS
 62
   110
  5
4B6
 10
-910.248416
 20
34.891776
 30
0.0
 42
-0.021971
  0
VERTEX
  8
3
  6
CONTINUOUS
 62
   110
  5
4B7
 10
-910.285791
 20
34.890145
 30
0.0
 42
-0.021971
  0
VERTEX
  8
3
  6
CONTINUOUS
 62
   110
  5
4B8
 10
-910.323165
 20
34.891776
 30
0.0
 42
-0.023395
  0
VERTEX
  8
3
  6
CONTINUOUS
 62
   110
  5
4B9
 10
-910.359103
 20
34.896604
 30
0.0
 42
-0.026577
  0
VERTEX
  8
3
  6
CONTINUOUS
 62
   110
  5
4BA
 10
-910.392224
 20
34.904444
 30
0.0
 42
-0.032313
  0
VERTEX
  8
3
  6
CONTINUOUS
 62
   110
  5
4BB
 10
-910.421255
 20
34.914996
 30
0.0
 42
-0.042129
  0
VERTEX
  8
3
  6
CONTINUOUS
 62
   110
  5
4BC
 10
-910.44508
 20
34.927853
 30
0.0
 42
-0.058441
  0
VERTEX
  8
3
  6
CONTINUOUS
 62
   110
  5
4BD
 10
-910.462783
 20
34.942522
 30
0.0
 42
-0.082645
  0
VERTEX
  8
3
  6
CONTINUOUS
 62
   110
  5
4BE
 10
-910.473685
 20
34.958438
 30
0.0
 42
-0.105926
  0
VERTEX
  8
3
  6
CONTINUOUS
 62
   110
  5
4BF
 10
-910.477366
 20
34.974991
 30
0.0
 42
-0.105926
  0
SEQEND
  8
3
  6
CONTINUOUS
 62
   110
  5
4C0
  0
POLYLINE
  8
3
  6
CONTINUOUS
 62
   110
  5
4C1
 66
     1
 10
0.0
 20
0.0
 30
0.0
210
0.0
220
0.0
230
1.0
  0
VERTEX
  8
3
  6
CONTINUOUS
 62
   110
  5
4C2
 10
-910.477366
 20
34.974991
 30
0.0
 42
-0.069642
  0
VERTEX
  8
3
  6
CONTINUOUS
 62
   110
  5
4C3
 10
-910.473685
 20
35.001029
 30
0.0
 42
-0.064663
  0
VERTEX
  8
3
  6
CONTINUOUS
 62
   110
  5
4C4
 10
-910.462783
 20
35.026066
 30
0.0
 42
-0.05709
  0
VERTEX
  8
3
  6
CONTINUOUS
 62
   110
  5
4C5
 10
-910.44508
 20
35.04914
 30
0.0
 42
-0.049486
  0
VERTEX
  8
3
  6
CONTINUOUS
 62
   110
  5
4C6
 10
-910.421255
 20
35.069365
 30
0.0
 42
-0.043232
  0
VERTEX
  8
3
  6
CONTINUOUS
 62
   110
  5
4C7
 10
-910.392224
 20
35.085963
 30
0.0
 42
-0.038702
  0
VERTEX
  8
3
  6
CONTINUOUS
 62
   110
  5
4C8
 10
-910.359103
 20
35.098297
 30
0.0
 42
-0.035825
  0
VERTEX
  8
3
  6
CONTINUOUS
 62
   110
  5
4C9
 10
-910.323165
 20
35.105892
 30
0.0
 42
-0.034439
  0
VERTEX
  8
3
  6
CONTINUOUS
 62
   110
  5
4CA
 10
-910.285791
 20
35.108456
 30
0.0
 42
-0.034439
  0
VERTEX
  8
3
  6
CONTINUOUS
 62
   110
  5
4CB
 10
-910.248416
 20
35.105892
 30
0.0
 42
-0.035825
  0
VERTEX
  8
3
  6
CONTINUOUS
 62
   110
  5
4CC
 10
-910.212478
 20
35.098297
 30
0.0
 42
-0.038702
  0
VERTEX
  8
3
  6
CONTINUOUS
 62
   110
  5
4CD
 10
-910.179357
 20
35.085963
 30
0.0
 42
-0.043232
  0
VERTEX
  8
3
  6
CONTINUOUS
 62
   110
  5
4CE
 10
-910.150327
 20
35.069365
 30
0.0
 42
-0.049486
  0
VERTEX
  8
3
  6
CONTINUOUS
 62
   110
  5
4CF
 10
-910.126502
 20
35.04914
 30
0.0
 42
-0.05709
  0
VERTEX
  8
3
  6
CONTINUOUS
 62
   110
  5
4D0
 10
-910.108798
 20
35.026066
 30
0.0
 42
-0.064663
  0
VERTEX
  8
3
  6
CONTINUOUS
 62
   110
  5
4D1
 10
-910.097897
 20
35.001029
 30
0.0
 42
-0.069642
  0
VERTEX
  8
3
  6
CONTINUOUS
 62
   110
  5
4D2
 10
-910.094216
 20
34.974991
 30
0.0
 42
-0.069642
  0
SEQEND
  8
3
  6
CONTINUOUS
 62
   110
  5
4D3
  0
POLYLINE
  8
3
  6
CONTINUOUS
 62
   110
  5
4D4
 66
     1
 10
0.0
 20
0.0
 30
0.0
210
0.0
220
0.0
230
1.0
  0
VERTEX
  8
3
  6
CONTINUOUS
 62
   110
  5
4D5
 10
-910.094216
 20
36.179779
 30
0.0
 42
0.105926
  0
VERTEX
  8
3
  6
CONTINUOUS
 62
   110
  5
4D6
 10
-910.097897
 20
36.196332
 30
0.0
 42
0.082645
  0
VERTEX
  8
3
  6
CONTINUOUS
 62
   110
  5
4D7
 10
-910.108798
 20
36.212248
 30
0.0
 42
0.058441
  0
VERTEX
  8
3
  6
CONTINUOUS
 62
   110
  5
4D8
 10
-910.126502
 20
36.226917
 30
0.0
 42
0.042129
  0
VERTEX
  8
3
  6
CONTINUOUS
 62
   110
  5
4D9
 10
-910.150327
 20
36.239774
 30
0.0
 42
0.032313
  0
VERTEX
  8
3
  6
CONTINUOUS
 62
   110
  5
4DA
 10
-910.179357
 20
36.250326
 30
0.0
 42
0.026577
  0
VERTEX
  8
3
  6
CONTINUOUS
 62
   110
  5
4DB
 10
-910.212478
 20
36.258166
 30
0.0
 42
0.023395
  0
VERTEX
  8
3
  6
CONTINUOUS
 62
   110
  5
4DC
 10
-910.248416
 20
36.262994
 30
0.0
 42
0.021971
  0
VERTEX
  8
3
  6
CONTINUOUS
 62
   110
  5
4DD
 10
-910.285791
 20
36.264625
 30
0.0
 42
0.021971
  0
VERTEX
  8
3
  6
CONTINUOUS
 62
   110
  5
4DE
 10
-910.323165
 20
36.262994
 30
0.0
 42
0.023395
  0
VERTEX
  8
3
  6
CONTINUOUS
 62
   110
  5
4DF
 10
-910.359103
 20
36.258166
 30
0.0
 42
0.026577
  0
VERTEX
  8
3
  6
CONTINUOUS
 62
   110
  5
4E0
 10
-910.392224
 20
36.250326
 30
0.0
 42
0.032313
  0
VERTEX
  8
3
  6
CONTINUOUS
 62
   110
  5
4E1
 10
-910.421255
 20
36.239774
 30
0.0
 42
0.042129
  0
VERTEX
  8
3
  6
CONTINUOUS
 62
   110
  5
4E2
 10
-910.44508
 20
36.226917
 30
0.0
 42
0.058441
  0
VERTEX
  8
3
  6
CONTINUOUS
 62
   110
  5
4E3
 10
-910.462783
 20
36.212248
 30
0.0
 42
0.082645
  0
VERTEX
  8
3
  6
CONTINUOUS
 62
   110
  5
4E4
 10
-910.473685
 20
36.196332
 30
0.0
 42
0.105926
  0
VERTEX
  8
3
  6
CONTINUOUS
 62
   110
  5
4E5
 10
-910.477366
 20
36.179779
 30
0.0
 42
0.105926
  0
SEQEND
  8
3
  6
CONTINUOUS
 62
   110
  5
4E6
  0
POLYLINE
  8
3
  6
CONTINUOUS
 62
   110
  5
4E7
 66
     1
 10
0.0
 20
0.0
 30
0.0
210
0.0
220
0.0
230
1.0
  0
VERTEX
  8
3
  6
CONTINUOUS
 62
   110
  5
4E8
 10
-910.477366
 20
36.179779
 30
0.0
 42
0.069642
  0
VERTEX
  8
3
  6
CONTINUOUS
 62
   110
  5
4E9
 10
-910.473685
 20
36.153741
 30
0.0
 42
0.064663
  0
VERTEX
  8
3
  6
CONTINUOUS
 62
   110
  5
4EA
 10
-910.462783
 20
36.128704
 30
0.0
 42
0.05709
  0
VERTEX
  8
3
  6
CONTINUOUS
 62
   110
  5
4EB
 10
-910.44508
 20
36.10563
 30
0.0
 42
0.049486
  0
VERTEX
  8
3
  6
CONTINUOUS
 62
   110
  5
4EC
 10
-910.421255
 20
36.085405
 30
0.0
 42
0.043232
  0
VERTEX
  8
3
  6
CONTINUOUS
 62
   110
  5
4ED
 10
-910.392224
 20
36.068807
 30
0.0
 42
0.038702
  0
VERTEX
  8
3
  6
CONTINUOUS
 62
   110
  5
4EE
 10
-910.359103
 20
36.056473
 30
0.0
 42
0.035825
  0
VERTEX
  8
3
  6
CONTINUOUS
 62
   110
  5
4EF
 10
-910.323165
 20
36.048878
 30
0.0
 42
0.034439
  0
VERTEX
  8
3
  6
CONTINUOUS
 62
   110
  5
4F0
 10
-910.285791
 20
36.046314
 30
0.0
 42
0.034439
  0
VERTEX
  8
3
  6
CONTINUOUS
 62
   110
  5
4F1
 10
-910.248416
 20
36.048878
 30
0.0
 42
0.035825
  0
VERTEX
  8
3
  6
CONTINUOUS
 62
   110
  5
4F2
 10
-910.212478
 20
36.056473
 30
0.0
 42
0.038702
  0
VERTEX
  8
3
  6
CONTINUOUS
 62
   110
  5
4F3
 10
-910.179357
 20
36.068807
 30
0.0
 42
0.043232
  0
VERTEX
  8
3
  6
CONTINUOUS
 62
   110
  5
4F4
 10
-910.150327
 20
36.085405
 30
0.0
 42
0.049486
  0
VERTEX
  8
3
  6
CONTINUOUS
 62
   110
  5
4F5
 10
-910.126502
 20
36.10563
 30
0.0
 42
0.05709
  0
VERTEX
  8
3
  6
CONTINUOUS
 62
   110
  5
4F6
 10
-910.108798
 20
36.128704
 30
0.0
 42
0.064663
  0
VERTEX
  8
3
  6
CONTINUOUS
 62
   110
  5
4F7
 10
-910.097897
 20
36.153741
 30
0.0
 42
0.069642
  0
VERTEX
  8
3
  6
CONTINUOUS
 62
   110
  5
4F8
 10
-910.094216
 20
36.179779
 30
0.0
 42
0.069642
  0
SEQEND
  8
3
  6
CONTINUOUS
 62
   110
  5
4F9
  0
POLYLINE
  8
3
  6
CONTINUOUS
 62
   110
  5
4FA
 66
     1
 10
0.0
 20
0.0
 30
0.0
210
0.0
220
0.0
230
1.0
  0
VERTEX
  8
3
  6
CONTINUOUS
 62
   110
  5
4FB
 10
-910.477366
 20
37.00331
 30
0.0
 42
0.107797
  0
VERTEX
  8
3
  6
CONTINUOUS
 62
   110
  5
4FC
 10
-910.473685
 20
36.98708
 30
0.0
 42
0.083254
  0
VERTEX
  8
3
  6
CONTINUOUS
 62
   110
  5
4FD
 10
-910.462783
 20
36.971473
 30
0.0
 42
0.058242
  0
VERTEX
  8
3
  6
CONTINUOUS
 62
   110
  5
4FE
 10
-910.44508
 20
36.957091
 30
0.0
 42
0.041681
  0
VERTEX
  8
3
  6
CONTINUOUS
 62
   110
  5
4FF
 10
-910.421255
 20
36.944484
 30
0.0
 42
0.03183
  0
VERTEX
  8
3
  6
CONTINUOUS
 62
   110
  5
500
 10
-910.392224
 20
36.934138
 30
0.0
 42
0.026114
  0
VERTEX
  8
3
  6
CONTINUOUS
 62
   110
  5
501
 10
-910.359103
 20
36.92645
 30
0.0
 42
0.022956
  0
VERTEX
  8
3
  6
CONTINUOUS
 62
   110
  5
502
 10
-910.323165
 20
36.921716
 30
0.0
 42
0.021545
  0
VERTEX
  8
3
  6
CONTINUOUS
 62
   110
  5
503
 10
-910.285791
 20
36.920117
 30
0.0
 42
0.021545
  0
VERTEX
  8
3
  6
CONTINUOUS
 62
   110
  5
504
 10
-910.248416
 20
36.921716
 30
0.0
 42
0.022956
  0
VERTEX
  8
3
  6
CONTINUOUS
 62
   110
  5
505
 10
-910.212478
 20
36.92645
 30
0.0
 42
0.026114
  0
VERTEX
  8
3
  6
CONTINUOUS
 62
   110
  5
506
 10
-910.179357
 20
36.934138
 30
0.0
 42
0.03183
  0
VERTEX
  8
3
  6
CONTINUOUS
 62
   110
  5
507
 10
-910.150327
 20
36.944484
 30
0.0
 42
0.041681
  0
VERTEX
  8
3
  6
CONTINUOUS
 62
   110
  5
508
 10
-910.126502
 20
36.957091
 30
0.0
 42
0.058242
  0
VERTEX
  8
3
  6
CONTINUOUS
 62
   110
  5
509
 10
-910.108798
 20
36.971473
 30
0.0
 42
0.083254
  0
VERTEX
  8
3
  6
CONTINUOUS
 62
   110
  5
50A
 10
-910.097897
 20
36.98708
 30
0.0
 42
0.107797
  0
VERTEX
  8
3
  6
CONTINUOUS
 62
   110
  5
50B
 10
-910.094216
 20
37.00331
 30
0.0
 42
0.107797
  0
SEQEND
  8
3
  6
CONTINUOUS
 62
   110
  5
50C
  0
POLYLINE
  8
3
  6
CONTINUOUS
 62
   110
  5
50D
 66
     1
 10
0.0
 20
0.0
 30
0.0
210
0.0
220
0.0
230
1.0
  0
VERTEX
  8
3
  6
CONTINUOUS
 62
   110
  5
50E
 10
-910.094216
 20
34.15146
 30
0.0
 42
-0.071267
  0
VERTEX
  8
3
  6
CONTINUOUS
 62
   110
  5
50F
 10
-910.097897
 20
34.126046
 30
0.0
 42
-0.065729
  0
VERTEX
  8
3
  6
CONTINUOUS
 62
   110
  5
510
 10
-910.108798
 20
34.101609
 30
0.0
 42
-0.057443
  0
VERTEX
  8
3
  6
CONTINUOUS
 62
   110
  5
511
 10
-910.126502
 20
34.079088
 30
0.0
 42
-0.049287
  0
VERTEX
  8
3
  6
CONTINUOUS
 62
   110
  5
512
 10
-910.150327
 20
34.059348
 30
0.0
 42
-0.042701
  0
VERTEX
  8
3
  6
CONTINUOUS
 62
   110
  5
513
 10
-910.179357
 20
34.043147
 30
0.0
 42
-0.037998
  0
VERTEX
  8
3
  6
CONTINUOUS
 62
   110
  5
514
 10
-910.212478
 20
34.031109
 30
0.0
 42
-0.03504
  0
VERTEX
  8
3
  6
CONTINUOUS
 62
   110
  5
515
 10
-910.248416
 20
34.023696
 30
0.0
 42
-0.033623
  0
VERTEX
  8
3
  6
CONTINUOUS
 62
   110
  5
516
 10
-910.285791
 20
34.021193
 30
0.0
 42
-0.033623
  0
VERTEX
  8
3
  6
CONTINUOUS
 62
   110
  5
517
 10
-910.323165
 20
34.023696
 30
0.0
 42
-0.03504
  0
VERTEX
  8
3
  6
CONTINUOUS
 62
   110
  5
518
 10
-910.359103
 20
34.031109
 30
0.0
 42
-0.037998
  0
VERTEX
  8
3
  6
CONTINUOUS
 62
   110
  5
519
 10
-910.392224
 20
34.043147
 30
0.0
 42
-0.042701
  0
VERTEX
  8
3
  6
CONTINUOUS
 62
   110
  5
51A
 10
-910.421255
 20
34.059348
 30
0.0
 42
-0.049287
  0
VERTEX
  8
3
  6
CONTINUOUS
 62
   110
  5
51B
 10
-910.44508
 20
34.079088
 30
0.0
 42
-0.057443
  0
VERTEX
  8
3
  6
CONTINUOUS
 62
   110
  5
51C
 10
-910.462783
 20
34.101609
 30
0.0
 42
-0.065729
  0
VERTEX
  8
3
  6
CONTINUOUS
 62
   110
  5
51D
 10
-910.473685
 20
34.126046
 30
0.0
 42
-0.071267
  0
VERTEX
  8
3
  6
CONTINUOUS
 62
   110
  5
51E
 10
-910.477366
 20
34.15146
 30
0.0
 42
-0.071267
  0
SEQEND
  8
3
  6
CONTINUOUS
 62
   110
  5
51F
  0
POLYLINE
  8
3
  6
CONTINUOUS
 62
   110
  5
520
 66
     1
 10
0.0
 20
0.0
 30
0.0
210
0.0
220
0.0
230
1.0
  0
VERTEX
  8
3
  6
CONTINUOUS
 62
   110
  5
521
 10
-907.828473
 20
34.974991
 30
0.0
 42
-0.105926
  0
VERTEX
  8
3
  6
CONTINUOUS
 62
   110
  5
522
 10
-907.832154
 20
34.958438
 30
0.0
 42
-0.082645
  0
VERTEX
  8
3
  6
CONTINUOUS
 62
   110
  5
523
 10
-907.843056
 20
34.942522
 30
0.0
 42
-0.058441
  0
VERTEX
  8
3
  6
CONTINUOUS
 62
   110
  5
524
 10
-907.860759
 20
34.927853
 30
0.0
 42
-0.042129
  0
VERTEX
  8
3
  6
CONTINUOUS
 62
   110
  5
525
 10
-907.884584
 20
34.914996
 30
0.0
 42
-0.032313
  0
VERTEX
  8
3
  6
CONTINUOUS
 62
   110
  5
526
 10
-907.913615
 20
34.904444
 30
0.0
 42
-0.026577
  0
VERTEX
  8
3
  6
CONTINUOUS
 62
   110
  5
527
 10
-907.946736
 20
34.896604
 30
0.0
 42
-0.023395
  0
VERTEX
  8
3
  6
CONTINUOUS
 62
   110
  5
528
 10
-907.982674
 20
34.891776
 30
0.0
 42
-0.021971
  0
VERTEX
  8
3
  6
CONTINUOUS
 62
   110
  5
529
 10
-908.020048
 20
34.890145
 30
0.0
 42
-0.021971
  0
VERTEX
  8
3
  6
CONTINUOUS
 62
   110
  5
52A
 10
-908.057423
 20
34.891776
 30
0.0
 42
-0.023395
  0
VERTEX
  8
3
  6
CONTINUOUS
 62
   110
  5
52B
 10
-908.093361
 20
34.896604
 30
0.0
 42
-0.026577
  0
VERTEX
  8
3
  6
CONTINUOUS
 62
   110
  5
52C
 10
-908.126482
 20
34.904444
 30
0.0
 42
-0.032313
  0
VERTEX
  8
3
  6
CONTINUOUS
 62
   110
  5
52D
 10
-908.155513
 20
34.914996
 30
0.0
 42
-0.042129
  0
VERTEX
  8
3
  6
CONTINUOUS
 62
   110
  5
52E
 10
-908.179337
 20
34.927853
 30
0.0
 42
-0.058441
  0
VERTEX
  8
3
  6
CONTINUOUS
 62
   110
  5
52F
 10
-908.197041
 20
34.942522
 30
0.0
 42
-0.082645
  0
VERTEX
  8
3
  6
CONTINUOUS
 62
   110
  5
530
 10
-908.207943
 20
34.958438
 30
0.0
 42
-0.105926
  0
VERTEX
  8
3
  6
CONTINUOUS
 62
   110
  5
531
 10
-908.211624
 20
34.974991
 30
0.0
 42
-0.105926
  0
SEQEND
  8
3
  6
CONTINUOUS
 62
   110
  5
532
  0
POLYLINE
  8
3
  6
CONTINUOUS
 62
   110
  5
533
 66
     1
 10
0.0
 20
0.0
 30
0.0
210
0.0
220
0.0
230
1.0
  0
VERTEX
  8
3
  6
CONTINUOUS
 62
   110
  5
534
 10
-907.828473
 20
36.179779
 30
0.0
 42
0.105926
  0
VERTEX
  8
3
  6
CONTINUOUS
 62
   110
  5
535
 10
-907.832154
 20
36.196332
 30
0.0
 42
0.082645
  0
VERTEX
  8
3
  6
CONTINUOUS
 62
   110
  5
536
 10
-907.843056
 20
36.212248
 30
0.0
 42
0.058441
  0
VERTEX
  8
3
  6
CONTINUOUS
 62
   110
  5
537
 10
-907.860759
 20
36.226917
 30
0.0
 42
0.042129
  0
VERTEX
  8
3
  6
CONTINUOUS
 62
   110
  5
538
 10
-907.884584
 20
36.239774
 30
0.0
 42
0.032313
  0
VERTEX
  8
3
  6
CONTINUOUS
 62
   110
  5
539
 10
-907.913615
 20
36.250326
 30
0.0
 42
0.026577
  0
VERTEX
  8
3
  6
CONTINUOUS
 62
   110
  5
53A
 10
-907.946736
 20
36.258166
 30
0.0
 42
0.023395
  0
VERTEX
  8
3
  6
CONTINUOUS
 62
   110
  5
53B
 10
-907.982674
 20
36.262994
 30
0.0
 42
0.021971
  0
VERTEX
  8
3
  6
CONTINUOUS
 62
   110
  5
53C
 10
-908.020048
 20
36.264625
 30
0.0
 42
0.021971
  0
VERTEX
  8
3
  6
CONTINUOUS
 62
   110
  5
53D
 10
-908.057423
 20
36.262994
 30
0.0
 42
0.023395
  0
VERTEX
  8
3
  6
CONTINUOUS
 62
   110
  5
53E
 10
-908.093361
 20
36.258166
 30
0.0
 42
0.026577
  0
VERTEX
  8
3
  6
CONTINUOUS
 62
   110
  5
53F
 10
-908.126482
 20
36.250326
 30
0.0
 42
0.032313
  0
VERTEX
  8
3
  6
CONTINUOUS
 62
   110
  5
540
 10
-908.155513
 20
36.239774
 30
0.0
 42
0.042129
  0
VERTEX
  8
3
  6
CONTINUOUS
 62
   110
  5
541
 10
-908.179337
 20
36.226917
 30
0.0
 42
0.058441
  0
VERTEX
  8
3
  6
CONTINUOUS
 62
   110
  5
542
 10
-908.197041
 20
36.212248
 30
0.0
 42
0.082645
  0
VERTEX
  8
3
  6
CONTINUOUS
 62
   110
  5
543
 10
-908.207943
 20
36.196332
 30
0.0
 42
0.105926
  0
VERTEX
  8
3
  6
CONTINUOUS
 62
   110
  5
544
 10
-908.211624
 20
36.179779
 30
0.0
 42
0.105926
  0
SEQEND
  8
3
  6
CONTINUOUS
 62
   110
  5
545
  0
POLYLINE
  8
3
  6
CONTINUOUS
 62
   110
  5
546
 66
     1
 10
0.0
 20
0.0
 30
0.0
210
0.0
220
0.0
230
1.0
  0
VERTEX
  8
3
  6
CONTINUOUS
 62
   110
  5
547
 10
-908.211624
 20
36.179779
 30
0.0
 42
0.069642
  0
VERTEX
  8
3
  6
CONTINUOUS
 62
   110
  5
548
 10
-908.207943
 20
36.153741
 30
0.0
 42
0.064663
  0
VERTEX
  8
3
  6
CONTINUOUS
 62
   110
  5
549
 10
-908.197041
 20
36.128704
 30
0.0
 42
0.05709
  0
VERTEX
  8
3
  6
CONTINUOUS
 62
   110
  5
54A
 10
-908.179337
 20
36.10563
 30
0.0
 42
0.049486
  0
VERTEX
  8
3
  6
CONTINUOUS
 62
   110
  5
54B
 10
-908.155513
 20
36.085405
 30
0.0
 42
0.043232
  0
VERTEX
  8
3
  6
CONTINUOUS
 62
   110
  5
54C
 10
-908.126482
 20
36.068807
 30
0.0
 42
0.038702
  0
VERTEX
  8
3
  6
CONTINUOUS
 62
   110
  5
54D
 10
-908.093361
 20
36.056473
 30
0.0
 42
0.035825
  0
VERTEX
  8
3
  6
CONTINUOUS
 62
   110
  5
54E
 10
-908.057423
 20
36.048878
 30
0.0
 42
0.034439
  0
VERTEX
  8
3
  6
CONTINUOUS
 62
   110
  5
54F
 10
-908.020048
 20
36.046314
 30
0.0
 42
0.034439
  0
VERTEX
  8
3
  6
CONTINUOUS
 62
   110
  5
550
 10
-907.982674
 20
36.048878
 30
0.0
 42
0.035825
  0
VERTEX
  8
3
  6
CONTINUOUS
 62
   110
  5
551
 10
-907.946736
 20
36.056473
 30
0.0
 42
0.038702
  0
VERTEX
  8
3
  6
CONTINUOUS
 62
   110
  5
552
 10
-907.913615
 20
36.068807
 30
0.0
 42
0.043232
  0
VERTEX
  8
3
  6
CONTINUOUS
 62
   110
  5
553
 10
-907.884584
 20
36.085405
 30
0.0
 42
0.049486
  0
VERTEX
  8
3
  6
CONTINUOUS
 62
   110
  5
554
 10
-907.860759
 20
36.10563
 30
0.0
 42
0.05709
  0
VERTEX
  8
3
  6
CONTINUOUS
 62
   110
  5
555
 10
-907.843056
 20
36.128704
 30
0.0
 42
0.064663
  0
VERTEX
  8
3
  6
CONTINUOUS
 62
   110
  5
556
 10
-907.832154
 20
36.153741
 30
0.0
 42
0.069642
  0
VERTEX
  8
3
  6
CONTINUOUS
 62
   110
  5
557
 10
-907.828473
 20
36.179779
 30
0.0
 42
0.069642
  0
SEQEND
  8
3
  6
CONTINUOUS
 62
   110
  5
558
  0
POLYLINE
  8
3
  6
CONTINUOUS
 62
   110
  5
559
 66
     1
 10
0.0
 20
0.0
 30
0.0
210
0.0
220
0.0
230
1.0
  0
VERTEX
  8
3
  6
CONTINUOUS
 62
   110
  5
55A
 10
-907.828473
 20
37.00331
 30
0.0
 42
0.071267
  0
VERTEX
  8
3
  6
CONTINUOUS
 62
   110
  5
55B
 10
-907.832154
 20
37.028724
 30
0.0
 42
0.065729
  0
VERTEX
  8
3
  6
CONTINUOUS
 62
   110
  5
55C
 10
-907.843056
 20
37.053161
 30
0.0
 42
0.057443
  0
VERTEX
  8
3
  6
CONTINUOUS
 62
   110
  5
55D
 10
-907.860759
 20
37.075682
 30
0.0
 42
0.049287
  0
VERTEX
  8
3
  6
CONTINUOUS
 62
   110
  5
55E
 10
-907.884584
 20
37.095423
 30
0.0
 42
0.042701
  0
VERTEX
  8
3
  6
CONTINUOUS
 62
   110
  5
55F
 10
-907.913615
 20
37.111623
 30
0.0
 42
0.037998
  0
VERTEX
  8
3
  6
CONTINUOUS
 62
   110
  5
560
 10
-907.946736
 20
37.123661
 30
0.0
 42
0.03504
  0
VERTEX
  8
3
  6
CONTINUOUS
 62
   110
  5
561
 10
-907.982674
 20
37.131074
 30
0.0
 42
0.033623
  0
VERTEX
  8
3
  6
CONTINUOUS
 62
   110
  5
562
 10
-908.020048
 20
37.133577
 30
0.0
 42
0.033623
  0
VERTEX
  8
3
  6
CONTINUOUS
 62
   110
  5
563
 10
-908.057423
 20
37.131074
 30
0.0
 42
0.03504
  0
VERTEX
  8
3
  6
CONTINUOUS
 62
   110
  5
564
 10
-908.093361
 20
37.123661
 30
0.0
 42
0.037998
  0
VERTEX
  8
3
  6
CONTINUOUS
 62
   110
  5
565
 10
-908.126482
 20
37.111623
 30
0.0
 42
0.042701
  0
VERTEX
  8
3
  6
CONTINUOUS
 62
   110
  5
566
 10
-908.155513
 20
37.095423
 30
0.0
 42
0.049287
  0
VERTEX
  8
3
  6
CONTINUOUS
 62
   110
  5
567
 10
-908.179337
 20
37.075682
 30
0.0
 42
0.057443
  0
VERTEX
  8
3
  6
CONTINUOUS
 62
   110
  5
568
 10
-908.197041
 20
37.053161
 30
0.0
 42
0.065729
  0
VERTEX
  8
3
  6
CONTINUOUS
 62
   110
  5
569
 10
-908.207943
 20
37.028724
 30
0.0
 42
0.071267
  0
VERTEX
  8
3
  6
CONTINUOUS
 62
   110
  5
56A
 10
-908.211624
 20
37.00331
 30
0.0
 42
0.071267
  0
SEQEND
  8
3
  6
CONTINUOUS
 62
   110
  5
56B
  0
POLYLINE
  8
3
  6
CONTINUOUS
 62
   110
  5
56C
 66
     1
 10
0.0
 20
0.0
 30
0.0
210
0.0
220
0.0
230
1.0
  0
VERTEX
  8
3
  6
CONTINUOUS
 62
   110
  5
56D
 10
-908.211624
 20
34.15146
 30
0.0
 42
-0.107797
  0
VERTEX
  8
3
  6
CONTINUOUS
 62
   110
  5
56E
 10
-908.207943
 20
34.16769
 30
0.0
 42
-0.083254
  0
VERTEX
  8
3
  6
CONTINUOUS
 62
   110
  5
56F
 10
-908.197041
 20
34.183297
 30
0.0
 42
-0.058242
  0
VERTEX
  8
3
  6
CONTINUOUS
 62
   110
  5
570
 10
-908.179337
 20
34.19768
 30
0.0
 42
-0.041681
  0
VERTEX
  8
3
  6
CONTINUOUS
 62
   110
  5
571
 10
-908.155513
 20
34.210286
 30
0.0
 42
-0.03183
  0
VERTEX
  8
3
  6
CONTINUOUS
 62
   110
  5
572
 10
-908.126482
 20
34.220632
 30
0.0
 42
-0.026114
  0
VERTEX
  8
3
  6
CONTINUOUS
 62
   110
  5
573
 10
-908.093361
 20
34.22832
 30
0.0
 42
-0.022956
  0
VERTEX
  8
3
  6
CONTINUOUS
 62
   110
  5
574
 10
-908.057423
 20
34.233054
 30
0.0
 42
-0.021545
  0
VERTEX
  8
3
  6
CONTINUOUS
 62
   110
  5
575
 10
-908.020048
 20
34.234653
 30
0.0
 42
-0.021545
  0
VERTEX
  8
3
  6
CONTINUOUS
 62
   110
  5
576
 10
-907.982674
 20
34.233054
 30
0.0
 42
-0.022956
  0
VERTEX
  8
3
  6
CONTINUOUS
 62
   110
  5
577
 10
-907.946736
 20
34.22832
 30
0.0
 42
-0.026114
  0
VERTEX
  8
3
  6
CONTINUOUS
 62
   110
  5
578
 10
-907.913615
 20
34.220632
 30
0.0
 42
-0.03183
  0
VERTEX
  8
3
  6
CONTINUOUS
 62
   110
  5
579
 10
-907.884584
 20
34.210286
 30
0.0
 42
-0.041681
  0
VERTEX
  8
3
  6
CONTINUOUS
 62
   110
  5
57A
 10
-907.860759
 20
34.19768
 30
0.0
 42
-0.058242
  0
VERTEX
  8
3
  6
CONTINUOUS
 62
   110
  5
57B
 10
-907.843056
 20
34.183297
 30
0.0
 42
-0.083254
  0
VERTEX
  8
3
  6
CONTINUOUS
 62
   110
  5
57C
 10
-907.832154
 20
34.16769
 30
0.0
 42
-0.107797
  0
VERTEX
  8
3
  6
CONTINUOUS
 62
   110
  5
57D
 10
-907.828473
 20
34.15146
 30
0.0
 42
-0.107797
  0
SEQEND
  8
3
  6
CONTINUOUS
 62
   110
  5
57E
  0
POLYLINE
  8
3
  6
CONTINUOUS
 62
   110
  5
57F
 66
     1
 10
0.0
 20
0.0
 30
0.0
210
0.0
220
0.0
230
1.0
  0
VERTEX
  8
3
  6
CONTINUOUS
 62
   110
  5
580
 10
-908.211624
 20
34.974991
 30
0.0
 42
-0.069642
  0
VERTEX
  8
3
  6
CONTINUOUS
 62
   110
  5
581
 10
-908.207943
 20
35.001029
 30
0.0
 42
-0.064663
  0
VERTEX
  8
3
  6
CONTINUOUS
 62
   110
  5
582
 10
-908.197041
 20
35.026066
 30
0.0
 42
-0.05709
  0
VERTEX
  8
3
  6
CONTINUOUS
 62
   110
  5
583
 10
-908.179337
 20
35.04914
 30
0.0
 42
-0.049486
  0
VERTEX
  8
3
  6
CONTINUOUS
 62
   110
  5
584
 10
-908.155513
 20
35.069365
 30
0.0
 42
-0.043232
  0
VERTEX
  8
3
  6
CONTINUOUS
 62
   110
  5
585
 10
-908.126482
 20
35.085963
 30
0.0
 42
-0.038702
  0
VERTEX
  8
3
  6
CONTINUOUS
 62
   110
  5
586
 10
-908.093361
 20
35.098297
 30
0.0
 42
-0.035825
  0
VERTEX
  8
3
  6
CONTINUOUS
 62
   110
  5
587
 10
-908.057423
 20
35.105892
 30
0.0
 42
-0.034439
  0
VERTEX
  8
3
  6
CONTINUOUS
 62
   110
  5
588
 10
-908.020048
 20
35.108456
 30
0.0
 42
-0.034439
  0
VERTEX
  8
3
  6
CONTINUOUS
 62
   110
  5
589
 10
-907.982674
 20
35.105892
 30
0.0
 42
-0.035825
  0
VERTEX
  8
3
  6
CONTINUOUS
 62
   110
  5
58A
 10
-907.946736
 20
35.098297
 30
0.0
 42
-0.038702
  0
VERTEX
  8
3
  6
CONTINUOUS
 62
   110
  5
58B
 10
-907.913615
 20
35.085963
 30
0.0
 42
-0.043232
  0
VERTEX
  8
3
  6
CONTINUOUS
 62
   110
  5
58C
 10
-907.884584
 20
35.069365
 30
0.0
 42
-0.049486
  0
VERTEX
  8
3
  6
CONTINUOUS
 62
   110
  5
58D
 10
-907.860759
 20
35.04914
 30
0.0
 42
-0.05709
  0
VERTEX
  8
3
  6
CONTINUOUS
 62
   110
  5
58E
 10
-907.843056
 20
35.026066
 30
0.0
 42
-0.064663
  0
VERTEX
  8
3
  6
CONTINUOUS
 62
   110
  5
58F
 10
-907.832154
 20
35.001029
 30
0.0
 42
-0.069642
  0
VERTEX
  8
3
  6
CONTINUOUS
 62
   110
  5
590
 10
-907.828473
 20
34.974991
 30
0.0
 42
-0.069642
  0
SEQEND
  8
3
  6
CONTINUOUS
 62
   110
  5
591
  0
LINE
  8
3
  6
CONTINUOUS
 62
     2
  5
592
 10
-910.818833
 20
33.945167
 30
0.0
 11
-910.818833
 21
37.209167
 31
0.0
  0
LINE
  8
3
  6
CONTINUOUS
 62
     7
  5
593
 10
-969.9515
 20
33.711833
 30
0.0
 11
-968.3515
 21
33.711833
 31
0.0
  0
LINE
  8
3
  6
CONTINUOUS
 62
     7
  5
594
 10
-968.3515
 20
33.711833
 30
0.0
 11
-968.3515
 21
33.945167
 31
0.0
  0
LINE
  8
3
  6
CONTINUOUS
 62
     7
  5
595
 10
-968.3515
 20
37.209167
 30
0.0
 11
-968.3515
 21
37.4425
 31
0.0
  0
LINE
  8
3
  6
CONTINUOUS
 62
     7
  5
596
 10
-969.9515
 20
33.711833
 30
0.0
 11
-969.9515
 21
33.945167
 31
0.0
  0
LINE
  8
3
  6
CONTINUOUS
 62
     7
  5
597
 10
-969.9515
 20
37.209167
 30
0.0
 11
-969.9515
 21
37.4425
 31
0.0
  0
LINE
  8
3
  6
CONTINUOUS
 62
     7
  5
598
 10
-969.9515
 20
37.4425
 30
0.0
 11
-968.3515
 21
37.4425
 31
0.0
  0
ARC
  8
3
  6
CONTINUOUS
 62
     7
  5
599
 10
-895.583822
 20
35.577379
 30
0.0
 40
0.099969
 50
270.0
 51
90.0
210
0.0
220
0.0
230
1.0
  0
ARC
  8
3
  6
CONTINUOUS
 62
     7
  5
59A
 10
-896.050676
 20
35.577379
 30
0.0
 40
0.099969
 50
90.0
 51
270.0
210
0.0
220
0.0
230
1.0
  0
POINT
  8
3
  6
CONTINUOUS
 62
     7
  5
59B
 10
-895.8175
 20
35.577167
 30
0.0
  0
POINT
  8
3
  6
CONTINUOUS
 62
     2
  5
59C
 10
-895.8175
 20
35.577167
 30
0.0
  0
LINE
  8
3
  6
CONTINUOUS
 62
     7
  5
59D
 10
-896.6175
 20
33.711833
 30
0.0
 11
-895.0175
 21
33.711833
 31
0.0
  0
LINE
  8
3
  6
CONTINUOUS
 62
     7
  5
59E
 10
-895.0175
 20
33.711833
 30
0.0
 11
-895.0175
 21
33.945167
 31
0.0
  0
LINE
  8
3
  6
CONTINUOUS
 62
     7
  5
59F
 10
-895.0175
 20
37.209167
 30
0.0
 11
-895.0175
 21
37.4425
 31
0.0
  0
LINE
  8
3
  6
CONTINUOUS
 62
     7
  5
5A0
 10
-896.6175
 20
33.711833
 30
0.0
 11
-896.6175
 21
33.945167
 31
0.0
  0
LINE
  8
3
  6
CONTINUOUS
 62
     7
  5
5A1
 10
-896.6175
 20
37.209167
 30
0.0
 11
-896.6175
 21
37.4425
 31
0.0
  0
LINE
  8
3
  6
CONTINUOUS
 62
     7
  5
5A2
 10
-896.6175
 20
37.4425
 30
0.0
 11
-895.0175
 21
37.4425
 31
0.0
  0
ARC
  8
3
  6
DASHED
 62
     7
  5
5A3
 10
-895.817249
 20
35.577379
 30
0.0
 40
0.191679
 50
211.528989
 51
328.549178
210
0.0
220
0.0
230
1.0
  0
ARC
  8
3
  6
CONTINUOUS
 62
     7
  5
5A4
 10
-895.817249
 20
35.577379
 30
0.0
 40
0.191679
 50
328.549178
 51
31.578167
210
0.0
220
0.0
230
1.0
  0
ARC
  8
3
  6
DASHED
 62
     7
  5
5A5
 10
-895.817249
 20
35.577379
 30
0.0
 40
0.191679
 50
31.578167
 51
148.549178
210
0.0
220
0.0
230
1.0
  0
ARC
  8
3
  6
CONTINUOUS
 62
     7
  5
5A6
 10
-895.817249
 20
35.577379
 30
0.0
 40
0.191679
 50
148.549178
 51
211.578167
210
0.0
220
0.0
230
1.0
  0
LINE
  8
3
  6
CONTINUOUS
 62
     7
  5
5A7
 10
-896.050833
 20
35.677167
 30
0.0
 11
-895.5835
 21
35.677167
 31
0.0
  0
LINE
  8
3
  6
CONTINUOUS
 62
     7
  5
5A8
 10
-896.050833
 20
35.477167
 30
0.0
 11
-895.5835
 21
35.477167
 31
0.0
  0
ARC
  8
3
  6
CONTINUOUS
 62
     7
  5
5A9
 10
-882.249489
 20
35.577379
 30
0.0
 40
0.099969
 50
270.0
 51
90.0
210
0.0
220
0.0
230
1.0
  0
ARC
  8
3
  6
CONTINUOUS
 62
     7
  5
5AA
 10
-882.716343
 20
35.577379
 30
0.0
 40
0.099969
 50
90.0
 51
270.0
210
0.0
220
0.0
230
1.0
  0
POINT
  8
3
  6
CONTINUOUS
 62
     7
  5
5AB
 10
-882.482833
 20
35.577167
 30
0.0
  0
ARC
  8
3
  6
DASHED
 62
     7
  5
5AC
 10
-882.482916
 20
35.577379
 30
0.0
 40
0.191679
 50
211.528989
 51
328.549178
210
0.0
220
0.0
230
1.0
  0
ARC
  8
3
  6
CONTINUOUS
 62
     7
  5
5AD
 10
-882.482916
 20
35.577379
 30
0.0
 40
0.191679
 50
328.549178
 51
31.578167
210
0.0
220
0.0
230
1.0
  0
ARC
  8
3
  6
DASHED
 62
     7
  5
5AE
 10
-882.482916
 20
35.577379
 30
0.0
 40
0.191679
 50
31.578167
 51
148.549178
210
0.0
220
0.0
230
1.0
  0
ARC
  8
3
  6
CONTINUOUS
 62
     7
  5
5AF
 10
-882.482916
 20
35.577379
 30
0.0
 40
0.191679
 50
148.549178
 51
211.578167
210
0.0
220
0.0
230
1.0
  0
LINE
  8
3
  6
CONTINUOUS
 62
     7
  5
5B0
 10
-882.716167
 20
35.677167
 30
0.0
 11
-882.2495
 21
35.677167
 31
0.0
  0
LINE
  8
3
  6
CONTINUOUS
 62
     7
  5
5B1
 10
-882.716167
 20
35.477167
 30
0.0
 11
-882.2495
 21
35.477167
 31
0.0
  0
ARC
  8
3
  6
CONTINUOUS
 62
     7
  5
5B2
 10
-868.918655
 20
35.577379
 30
0.0
 40
0.099969
 50
270.0
 51
90.0
210
0.0
220
0.0
230
1.0
  0
ARC
  8
3
  6
CONTINUOUS
 62
     7
  5
5B3
 10
-869.385509
 20
35.577379
 30
0.0
 40
0.099969
 50
90.0
 51
270.0
210
0.0
220
0.0
230
1.0
  0
POINT
  8
3
  6
CONTINUOUS
 62
     7
  5
5B4
 10
-869.152167
 20
35.577167
 30
0.0
  0
ARC
  8
3
  6
DASHED
 62
     7
  5
5B5
 10
-869.152082
 20
35.577379
 30
0.0
 40
0.191679
 50
211.528989
 51
328.549178
210
0.0
220
0.0
230
1.0
  0
ARC
  8
3
  6
CONTINUOUS
 62
     7
  5
5B6
 10
-869.152082
 20
35.577379
 30
0.0
 40
0.191679
 50
328.549178
 51
31.578167
210
0.0
220
0.0
230
1.0
  0
ARC
  8
3
  6
DASHED
 62
     7
  5
5B7
 10
-869.152082
 20
35.577379
 30
0.0
 40
0.191679
 50
31.578167
 51
148.549178
210
0.0
220
0.0
230
1.0
  0
ARC
  8
3
  6
CONTINUOUS
 62
     7
  5
5B8
 10
-869.152082
 20
35.577379
 30
0.0
 40
0.191679
 50
148.549178
 51
211.578167
210
0.0
220
0.0
230
1.0
  0
LINE
  8
3
  6
CONTINUOUS
 62
     7
  5
5B9
 10
-869.3855
 20
35.677167
 30
0.0
 11
-868.918833
 21
35.677167
 31
0.0
  0
LINE
  8
3
  6
CONTINUOUS
 62
     7
  5
5BA
 10
-869.3855
 20
35.477167
 30
0.0
 11
-868.918833
 21
35.477167
 31
0.0
  0
ARC
  8
3
  6
CONTINUOUS
 62
     7
  5
5BB
 10
-848.918405
 20
35.577379
 30
0.0
 40
0.099969
 50
270.0
 51
90.0
210
0.0
220
0.0
230
1.0
  0
ARC
  8
3
  6
CONTINUOUS
 62
     7
  5
5BC
 10
-849.385259
 20
35.577379
 30
0.0
 40
0.099969
 50
90.0
 51
270.0
210
0.0
220
0.0
230
1.0
  0
POINT
  8
3
  6
CONTINUOUS
 62
     7
  5
5BD
 10
-849.1515
 20
35.591167
 30
0.0
  0
ARC
  8
3
  6
DASHED
 62
     7
  5
5BE
 10
-849.151832
 20
35.577379
 30
0.0
 40
0.191679
 50
211.528989
 51
328.549178
210
0.0
220
0.0
230
1.0
  0
ARC
  8
3
  6
CONTINUOUS
 62
     7
  5
5BF
 10
-849.151832
 20
35.577379
 30
0.0
 40
0.191679
 50
328.549178
 51
31.578167
210
0.0
220
0.0
230
1.0
  0
ARC
  8
3
  6
DASHED
 62
     7
  5
5C0
 10
-849.151832
 20
35.577379
 30
0.0
 40
0.191679
 50
31.578167
 51
148.549178
210
0.0
220
0.0
230
1.0
  0
ARC
  8
3
  6
CONTINUOUS
 62
     7
  5
5C1
 10
-849.151832
 20
35.577379
 30
0.0
 40
0.191679
 50
148.549178
 51
211.578167
210
0.0
220
0.0
230
1.0
  0
LINE
  8
3
  6
CONTINUOUS
 62
     7
  5
5C2
 10
-849.3855
 20
35.677167
 30
0.0
 11
-848.918167
 21
35.677167
 31
0.0
  0
LINE
  8
3
  6
CONTINUOUS
 62
     7
  5
5C3
 10
-849.3855
 20
35.477167
 30
0.0
 11
-848.918167
 21
35.477167
 31
0.0
  0
ARC
  8
3
  6
CONTINUOUS
 62
     7
  5
5C4
 10
-908.918155
 20
35.577379
 30
0.0
 40
0.099969
 50
270.0
 51
90.0
210
0.0
220
0.0
230
1.0
  0
ARC
  8
3
  6
CONTINUOUS
 62
     7
  5
5C5
 10
-909.385009
 20
35.577379
 30
0.0
 40
0.099969
 50
90.0
 51
270.0
210
0.0
220
0.0
230
1.0
  0
POINT
  8
3
  6
CONTINUOUS
 62
     7
  5
5C6
 10
-909.1515
 20
35.577167
 30
0.0
  0
ARC
  8
3
  6
DASHED
 62
     7
  5
5C7
 10
-909.151582
 20
35.577379
 30
0.0
 40
0.191679
 50
211.528989
 51
328.549178
210
0.0
220
0.0
230
1.0
  0
ARC
  8
3
  6
CONTINUOUS
 62
     7
  5
5C8
 10
-909.151582
 20
35.577379
 30
0.0
 40
0.191679
 50
328.549178
 51
31.578167
210
0.0
220
0.0
230
1.0
  0
ARC
  8
3
  6
DASHED
 62
     7
  5
5C9
 10
-909.151582
 20
35.577379
 30
0.0
 40
0.191679
 50
31.578167
 51
148.549178
210
0.0
220
0.0
230
1.0
  0
ARC
  8
3
  6
CONTINUOUS
 62
     7
  5
5CA
 10
-909.151582
 20
35.577379
 30
0.0
 40
0.191679
 50
148.549178
 51
211.578167
210
0.0
220
0.0
230
1.0
  0
LINE
  8
3
  6
CONTINUOUS
 62
     7
  5
5CB
 10
-909.384833
 20
35.677167
 30
0.0
 11
-908.918167
 21
35.677167
 31
0.0
  0
LINE
  8
3
  6
CONTINUOUS
 62
     7
  5
5CC
 10
-909.384833
 20
35.477167
 30
0.0
 11
-908.918167
 21
35.477167
 31
0.0
  0
POINT
  8
3
  6
CONTINUOUS
 62
     2
  5
5CD
 10
-882.4835
 20
35.577167
 30
0.0
  0
LINE
  8
3
  6
CONTINUOUS
 62
     7
  5
5CE
 10
-883.282833
 20
33.711833
 30
0.0
 11
-881.682833
 21
33.711833
 31
0.0
  0
LINE
  8
3
  6
CONTINUOUS
 62
     7
  5
5CF
 10
-881.682833
 20
33.711833
 30
0.0
 11
-881.682833
 21
33.945167
 31
0.0
  0
LINE
  8
3
  6
CONTINUOUS
 62
     7
  5
5D0
 10
-881.682833
 20
37.209167
 30
0.0
 11
-881.682833
 21
37.4425
 31
0.0
  0
LINE
  8
3
  6
CONTINUOUS
 62
     7
  5
5D1
 10
-883.282833
 20
33.711833
 30
0.0
 11
-883.282833
 21
33.945167
 31
0.0
  0
LINE
  8
3
  6
CONTINUOUS
 62
     7
  5
5D2
 10
-883.282833
 20
37.209167
 30
0.0
 11
-883.282833
 21
37.4425
 31
0.0
  0
LINE
  8
3
  6
CONTINUOUS
 62
     7
  5
5D3
 10
-883.282833
 20
37.4425
 30
0.0
 11
-881.682833
 21
37.4425
 31
0.0
  0
POINT
  8
3
  6
CONTINUOUS
 62
     2
  5
5D4
 10
-869.152167
 20
35.577167
 30
0.0
  0
LINE
  8
3
  6
CONTINUOUS
 62
     7
  5
5D5
 10
-869.952167
 20
33.711833
 30
0.0
 11
-868.352167
 21
33.711833
 31
0.0
  0
LINE
  8
3
  6
CONTINUOUS
 62
     7
  5
5D6
 10
-868.352167
 20
33.711833
 30
0.0
 11
-868.352167
 21
33.945167
 31
0.0
  0
LINE
  8
3
  6
CONTINUOUS
 62
     7
  5
5D7
 10
-868.352167
 20
37.209167
 30
0.0
 11
-868.352167
 21
37.4425
 31
0.0
  0
LINE
  8
3
  6
CONTINUOUS
 62
     7
  5
5D8
 10
-869.952167
 20
33.711833
 30
0.0
 11
-869.952167
 21
33.945167
 31
0.0
  0
LINE
  8
3
  6
CONTINUOUS
 62
     7
  5
5D9
 10
-869.952167
 20
37.209167
 30
0.0
 11
-869.952167
 21
37.4425
 31
0.0
  0
LINE
  8
3
  6
CONTINUOUS
 62
     7
  5
5DA
 10
-869.952167
 20
37.4425
 30
0.0
 11
-868.352167
 21
37.4425
 31
0.0
  0
POINT
  8
3
  6
CONTINUOUS
 62
     2
  5
5DB
 10
-909.1515
 20
35.577167
 30
0.0
  0
LINE
  8
3
  6
CONTINUOUS
 62
     7
  5
5DC
 10
-909.9515
 20
33.711833
 30
0.0
 11
-908.3515
 21
33.711833
 31
0.0
  0
LINE
  8
3
  6
CONTINUOUS
 62
     7
  5
5DD
 10
-908.3515
 20
33.711833
 30
0.0
 11
-908.3515
 21
33.945167
 31
0.0
  0
LINE
  8
3
  6
CONTINUOUS
 62
     7
  5
5DE
 10
-908.3515
 20
37.209167
 30
0.0
 11
-908.3515
 21
37.4425
 31
0.0
  0
LINE
  8
3
  6
CONTINUOUS
 62
     7
  5
5DF
 10
-909.9515
 20
33.711833
 30
0.0
 11
-909.9515
 21
33.945167
 31
0.0
  0
LINE
  8
3
  6
CONTINUOUS
 62
     7
  5
5E0
 10
-909.9515
 20
37.209167
 30
0.0
 11
-909.9515
 21
37.4425
 31
0.0
  0
LINE
  8
3
  6
CONTINUOUS
 62
     7
  5
5E1
 10
-909.9515
 20
37.4425
 30
0.0
 11
-908.3515
 21
37.4425
 31
0.0
  0
ARC
  8
3
  6
CONTINUOUS
 62
     7
  5
5E2
 10
-968.918405
 20
35.577379
 30
0.0
 40
0.099969
 50
270.0
 51
90.0
210
0.0
220
0.0
230
1.0
  0
ARC
  8
3
  6
CONTINUOUS
 62
     7
  5
5E3
 10
-969.385259
 20
35.577379
 30
0.0
 40
0.099969
 50
90.0
 51
270.0
210
0.0
220
0.0
230
1.0
  0
POINT
  8
3
  6
CONTINUOUS
 62
     7
  5
5E4
 10
-969.1515
 20
35.577167
 30
0.0
  0
ARC
  8
3
  6
DASHED
 62
     7
  5
5E5
 10
-969.151832
 20
35.577379
 30
0.0
 40
0.191679
 50
211.528989
 51
328.549178
210
0.0
220
0.0
230
1.0
  0
ARC
  8
3
  6
CONTINUOUS
 62
     7
  5
5E6
 10
-969.151832
 20
35.577379
 30
0.0
 40
0.191679
 50
328.549178
 51
31.578167
210
0.0
220
0.0
230
1.0
  0
ARC
  8
3
  6
DASHED
 62
     7
  5
5E7
 10
-969.151832
 20
35.577379
 30
0.0
 40
0.191679
 50
31.578167
 51
148.549178
210
0.0
220
0.0
230
1.0
  0
ARC
  8
3
  6
CONTINUOUS
 62
     7
  5
5E8
 10
-969.151832
 20
35.577379
 30
0.0
 40
0.191679
 50
148.549178
 51
211.578167
210
0.0
220
0.0
230
1.0
  0
LINE
  8
3
  6
CONTINUOUS
 62
     7
  5
5E9
 10
-969.3855
 20
35.677167
 30
0.0
 11
-968.918167
 21
35.677167
 31
0.0
  0
LINE
  8
3
  6
CONTINUOUS
 62
     7
  5
5EA
 10
-969.3855
 20
35.477167
 30
0.0
 11
-968.918167
 21
35.477167
 31
0.0
  0
ARC
  8
3
  6
CONTINUOUS
 62
     7
  5
5EB
 10
-988.917655
 20
35.577379
 30
0.0
 40
0.099969
 50
270.0
 51
90.0
210
0.0
220
0.0
230
1.0
  0
ARC
  8
3
  6
CONTINUOUS
 62
     7
  5
5EC
 10
-989.384509
 20
35.577379
 30
0.0
 40
0.099969
 50
90.0
 51
270.0
210
0.0
220
0.0
230
1.0
  0
POINT
  8
3
  6
CONTINUOUS
 62
     7
  5
5ED
 10
-989.150833
 20
35.577167
 30
0.0
  0
ARC
  8
3
  6
DASHED
 62
     7
  5
5EE
 10
-989.151082
 20
35.577379
 30
0.0
 40
0.191679
 50
211.528989
 51
328.549178
210
0.0
220
0.0
230
1.0
  0
ARC
  8
3
  6
CONTINUOUS
 62
     7
  5
5EF
 10
-989.151082
 20
35.577379
 30
0.0
 40
0.191679
 50
328.549178
 51
31.578167
210
0.0
220
0.0
230
1.0
  0
ARC
  8
3
  6
DASHED
 62
     7
  5
5F0
 10
-989.151082
 20
35.577379
 30
0.0
 40
0.191679
 50
31.578167
 51
148.549178
210
0.0
220
0.0
230
1.0
  0
ARC
  8
3
  6
CONTINUOUS
 62
     7
  5
5F1
 10
-989.151082
 20
35.577379
 30
0.0
 40
0.191679
 50
148.549178
 51
211.578167
210
0.0
220
0.0
230
1.0
  0
LINE
  8
3
  6
CONTINUOUS
 62
     7
  5
5F2
 10
-989.384167
 20
35.677167
 30
0.0
 11
-988.9175
 21
35.677167
 31
0.0
  0
LINE
  8
3
  6
CONTINUOUS
 62
     7
  5
5F3
 10
-989.384167
 20
35.477167
 30
0.0
 11
-988.9175
 21
35.477167
 31
0.0
  0
POINT
  8
3
  6
CONTINUOUS
 62
     2
  5
5F4
 10
-989.150833
 20
35.577167
 30
0.0
  0
LINE
  8
3
  6
CONTINUOUS
 62
     7
  5
5F5
 10
-989.9515
 20
33.711833
 30
0.0
 11
-988.3515
 21
33.711833
 31
0.0
  0
LINE
  8
3
  6
CONTINUOUS
 62
     7
  5
5F6
 10
-988.3515
 20
33.711833
 30
0.0
 11
-988.3515
 21
33.945167
 31
0.0
  0
LINE
  8
3
  6
CONTINUOUS
 62
     7
  5
5F7
 10
-988.3515
 20
37.209167
 30
0.0
 11
-988.3515
 21
37.4425
 31
0.0
  0
LINE
  8
3
  6
CONTINUOUS
 62
     7
  5
5F8
 10
-989.9515
 20
33.711833
 30
0.0
 11
-989.9515
 21
33.945167
 31
0.0
  0
LINE
  8
3
  6
CONTINUOUS
 62
     7
  5
5F9
 10
-989.9515
 20
37.209167
 30
0.0
 11
-989.9515
 21
37.4425
 31
0.0
  0
LINE
  8
3
  6
CONTINUOUS
 62
     7
  5
5FA
 10
-989.9515
 20
37.4425
 30
0.0
 11
-988.3515
 21
37.4425
 31
0.0
  0
LINE
  8
3
  6
DASHED
 62
     7
  5
5FB
 10
-849.952167
 20
33.929167
 30
0.0
 11
-849.952167
 21
35.863833
 31
0.0
  0
LINE
  8
3
  6
CONTINUOUS
 62
     7
  5
5FC
 10
-849.952167
 20
33.929167
 30
0.0
 11
-848.352833
 21
33.929167
 31
0.0
  0
LINE
  8
3
  6
DASHED
 62
     7
  5
5FD
 10
-849.952167
 20
35.863833
 30
0.0
 11
-848.352833
 21
35.863833
 31
0.0
  0
LINE
  8
3
  6
CONTINUOUS
 62
     7
  5
5FE
 10
-849.952167
 20
33.863167
 30
0.0
 11
-848.352833
 21
33.863167
 31
0.0
  0
POINT
  8
3
  6
CONTINUOUS
 62
     2
  5
5FF
 10
-849.1515
 20
35.591167
 30
0.0
  0
LINE
  8
3
  6
CONTINUOUS
 62
     7
  5
600
 10
-849.952167
 20
33.711833
 30
0.0
 11
-848.352167
 21
33.711833
 31
0.0
  0
LINE
  8
3
  6
CONTINUOUS
 62
     7
  5
601
 10
-848.352167
 20
33.711833
 30
0.0
 11
-848.352167
 21
33.945167
 31
0.0
  0
LINE
  8
3
  6
CONTINUOUS
 62
     7
  5
602
 10
-848.352167
 20
37.209167
 30
0.0
 11
-848.352167
 21
37.4425
 31
0.0
  0
LINE
  8
3
  6
CONTINUOUS
 62
     7
  5
603
 10
-849.952167
 20
33.711833
 30
0.0
 11
-849.952167
 21
33.945167
 31
0.0
  0
LINE
  8
3
  6
CONTINUOUS
 62
     7
  5
604
 10
-849.952167
 20
37.209167
 30
0.0
 11
-849.952167
 21
37.4425
 31
0.0
  0
LINE
  8
3
  6
CONTINUOUS
 62
     7
  5
605
 10
-849.952167
 20
37.4425
 30
0.0
 11
-848.352167
 21
37.4425
 31
0.0
  0
LINE
  8
3
  6
CONTINUOUS
 62
     7
  5
606
 10
-848.352167
 20
29.977833
 30
0.0
 11
-848.352167
 21
33.9245
 31
0.0
  0
LINE
  8
3
  6
DASHED
 62
     7
  5
607
 10
-848.352833
 20
33.929167
 30
0.0
 11
-848.352833
 21
35.863833
 31
0.0
  0
INSERT
  8
3
  6
CONTINUOUS
 62
     2
  5
610
  2
TERM5
 10
-989.1515
 20
10.207833
 30
0.0
 41
108.667648
 42
108.667648
 50
180.0
210
0.0
220
0.0
230
1.0
  0
TEXT
  8
3
  6
CONTINUOUS
 62
     7
  5
611
 10
-826.595333
 20
8.484167
 30
0.0
 40
1.064
  1
of rail.
  7
MONOTXT
 11
-826.595333
 21
9.016167
 31
0.0
210
0.0
220
0.0
230
1.0
 73
     2
  0
LINE
  8
3
  6
CONTINUOUS
 62
     2
  5
612
 10
-989.1515
 20
17.603167
 30
0.0
 11
-989.1515
 21
14.673167
 31
0.0
  0
LINE
  8
3
  6
CONTINUOUS
 62
     2
  5
613
 10
-989.1515
 20
13.231833
 30
0.0
 11
-989.1515
 21
9.567833
 31
0.0
  0
LINE
  8
3
  6
CONTINUOUS
 62
     7
  5
614
 10
-828.352167
 20
37.325833
 30
0.0
 11
-829.3055
 21
37.325833
 31
0.0
  0
INSERT
  8
3
  6
CONTINUOUS
 62
     2
  5
61F
  2
ARWHD1
 10
-821.053667
 20
35.933917
 30
0.0
 41
153.599133
 42
153.599133
 50
237.265459
210
0.0
220
0.0
230
1.0
  0
LINE
  8
3
  6
CONTINUOUS
 62
     2
  5
620
 10
-814.959167
 20
44.1805
 30
0.0
 11
-820.09325
 21
37.338
 31
0.0
  0
LINE
  8
3
  6
CONTINUOUS
 62
     2
  5
621
 10
-828.447667
 20
44.1805
 30
0.0
 11
-814.959167
 21
44.1805
 31
0.0
  0
LINE
  8
3
  6
CONTINUOUS
 62
     2
  5
622
 10
-950.5035
 20
41.773667
 30
0.0
 11
-945.612583
 21
41.773667
 31
0.0
  0
LINE
  8
3
  6
CONTINUOUS
 62
     2
  5
623
 10
-949.1515
 20
10.207833
 30
0.0
 11
-929.1515
 21
10.207833
 31
0.0
  0
TEXT
  8
3
  6
CONTINUOUS
 62
     7
  5
624
 10
-910.23175
 20
10.908
 30
0.0
 40
1.064
  1
25'-0"
  7
MONOTXT
210
0.0
220
0.0
230
1.0
  0
POLYLINE
  8
3
  6
CONTINUOUS
 62
     2
  5
625
 66
     1
 10
0.0
 20
0.0
 30
0.0
  0
VERTEX
  8
3
  6
CONTINUOUS
 62
     2
  5
626
 10
-948.296833
 20
9.7825
 30
0.0
  0
VERTEX
  8
3
  6
CONTINUOUS
 62
     2
  5
627
 10
-949.1515
 20
10.207833
 30
0.0
  0
VERTEX
  8
3
  6
CONTINUOUS
 62
     2
  5
628
 10
-948.296833
 20
10.633833
 30
0.0
  0
SEQEND
  8
3
  6
CONTINUOUS
 62
     2
  5
629
  0
LINE
  8
3
  6
CONTINUOUS
 62
     2
  5
62A
 10
-969.1515
 20
10.207833
 30
0.0
 11
-949.1515
 21
10.207833
 31
0.0
  0
POLYLINE
  8
3
  6
CONTINUOUS
 62
     2
  5
62B
 66
     1
 10
0.0
 20
0.0
 30
0.0
  0
VERTEX
  8
3
  6
CONTINUOUS
 62
     2
  5
62C
 10
-950.006167
 20
9.7825
 30
0.0
  0
VERTEX
  8
3
  6
CONTINUOUS
 62
     2
  5
62D
 10
-949.1515
 20
10.207833
 30
0.0
  0
VERTEX
  8
3
  6
CONTINUOUS
 62
     2
  5
62E
 10
-950.006167
 20
10.633833
 30
0.0
  0
SEQEND
  8
3
  6
CONTINUOUS
 62
     2
  5
62F
  0
TEXT
  8
3
  6
CONTINUOUS
 62
     7
  5
630
 10
-960.808417
 20
11.75475
 30
0.0
 40
1.064
  1
6'-3"
  7
MONOTXT
210
0.0
220
0.0
230
1.0
  0
LINE
  8
3
  6
CONTINUOUS
 62
     2
  5
631
 10
-949.1515
 20
17.603167
 30
0.0
 11
-949.1515
 21
15.291833
 31
0.0
  0
LINE
  8
3
  6
CONTINUOUS
 62
     2
  5
632
 10
-969.1515
 20
17.603167
 30
0.0
 11
-969.1515
 21
9.567833
 31
0.0
  0
POLYLINE
  8
3
  6
CONTINUOUS
 62
     2
  5
633
 66
     1
 10
0.0
 20
0.0
 30
0.0
  0
VERTEX
  8
3
  6
CONTINUOUS
 62
     2
  5
634
 10
-968.296833
 20
9.7825
 30
0.0
  0
VERTEX
  8
3
  6
CONTINUOUS
 62
     2
  5
635
 10
-969.1515
 20
10.207833
 30
0.0
  0
VERTEX
  8
3
  6
CONTINUOUS
 62
     2
  5
636
 10
-968.296833
 20
10.633833
 30
0.0
  0
SEQEND
  8
3
  6
CONTINUOUS
 62
     2
  5
637
  0
POINT
  8
3
  6
CONTINUOUS
 62
     2
  5
638
 10
-949.0775
 20
34.565833
 30
0.0
  0
POINT
  8
3
  6
CONTINUOUS
 62
     2
  5
639
 10
-948.7255
 20
36.627167
 30
0.0
  0
POLYLINE
  8
3
  6
CONTINUOUS
 62
   110
  5
63A
 66
     1
 10
0.0
 20
0.0
 30
0.0
210
0.0
220
0.0
230
1.0
  0
VERTEX
  8
3
  6
CONTINUOUS
 62
   110
  5
63B
 10
-950.093716
 20
37.00331
 30
0.0
 42
0.071267
  0
VERTEX
  8
3
  6
CONTINUOUS
 62
   110
  5
63C
 10
-950.097397
 20
37.028724
 30
0.0
 42
0.065729
  0
VERTEX
  8
3
  6
CONTINUOUS
 62
   110
  5
63D
 10
-950.108298
 20
37.053161
 30
0.0
 42
0.057443
  0
VERTEX
  8
3
  6
CONTINUOUS
 62
   110
  5
63E
 10
-950.126002
 20
37.075682
 30
0.0
 42
0.049287
  0
VERTEX
  8
3
  6
CONTINUOUS
 62
   110
  5
63F
 10
-950.149827
 20
37.095423
 30
0.0
 42
0.042701
  0
VERTEX
  8
3
  6
CONTINUOUS
 62
   110
  5
640
 10
-950.178857
 20
37.111623
 30
0.0
 42
0.037998
  0
VERTEX
  8
3
  6
CONTINUOUS
 62
   110
  5
641
 10
-950.211978
 20
37.123661
 30
0.0
 42
0.03504
  0
VERTEX
  8
3
  6
CONTINUOUS
 62
   110
  5
642
 10
-950.247916
 20
37.131074
 30
0.0
 42
0.033623
  0
VERTEX
  8
3
  6
CONTINUOUS
 62
   110
  5
643
 10
-950.285291
 20
37.133577
 30
0.0
 42
0.033623
  0
VERTEX
  8
3
  6
CONTINUOUS
 62
   110
  5
644
 10
-950.322665
 20
37.131074
 30
0.0
 42
0.03504
  0
VERTEX
  8
3
  6
CONTINUOUS
 62
   110
  5
645
 10
-950.358603
 20
37.123661
 30
0.0
 42
0.037998
  0
VERTEX
  8
3
  6
CONTINUOUS
 62
   110
  5
646
 10
-950.391724
 20
37.111623
 30
0.0
 42
0.042701
  0
VERTEX
  8
3
  6
CONTINUOUS
 62
   110
  5
647
 10
-950.420755
 20
37.095423
 30
0.0
 42
0.049287
  0
VERTEX
  8
3
  6
CONTINUOUS
 62
   110
  5
648
 10
-950.44458
 20
37.075682
 30
0.0
 42
0.057443
  0
VERTEX
  8
3
  6
CONTINUOUS
 62
   110
  5
649
 10
-950.462283
 20
37.053161
 30
0.0
 42
0.065729
  0
VERTEX
  8
3
  6
CONTINUOUS
 62
   110
  5
64A
 10
-950.473185
 20
37.028724
 30
0.0
 42
0.071267
  0
VERTEX
  8
3
  6
CONTINUOUS
 62
   110
  5
64B
 10
-950.476866
 20
37.00331
 30
0.0
 42
0.071267
  0
SEQEND
  8
3
  6
CONTINUOUS
 62
   110
  5
64C
  0
POLYLINE
  8
3
  6
CONTINUOUS
 62
   110
  5
64D
 66
     1
 10
0.0
 20
0.0
 30
0.0
210
0.0
220
0.0
230
1.0
  0
VERTEX
  8
3
  6
CONTINUOUS
 62
   110
  5
64E
 10
-950.476866
 20
34.15146
 30
0.0
 42
-0.107797
  0
VERTEX
  8
3
  6
CONTINUOUS
 62
   110
  5
64F
 10
-950.473185
 20
34.16769
 30
0.0
 42
-0.083254
  0
VERTEX
  8
3
  6
CONTINUOUS
 62
   110
  5
650
 10
-950.462283
 20
34.183297
 30
0.0
 42
-0.058242
  0
VERTEX
  8
3
  6
CONTINUOUS
 62
   110
  5
651
 10
-950.44458
 20
34.19768
 30
0.0
 42
-0.041681
  0
VERTEX
  8
3
  6
CONTINUOUS
 62
   110
  5
652
 10
-950.420755
 20
34.210286
 30
0.0
 42
-0.03183
  0
VERTEX
  8
3
  6
CONTINUOUS
 62
   110
  5
653
 10
-950.391724
 20
34.220632
 30
0.0
 42
-0.026114
  0
VERTEX
  8
3
  6
CONTINUOUS
 62
   110
  5
654
 10
-950.358603
 20
34.22832
 30
0.0
 42
-0.022956
  0
VERTEX
  8
3
  6
CONTINUOUS
 62
   110
  5
655
 10
-950.322665
 20
34.233054
 30
0.0
 42
-0.021545
  0
VERTEX
  8
3
  6
CONTINUOUS
 62
   110
  5
656
 10
-950.285291
 20
34.234653
 30
0.0
 42
-0.021545
  0
VERTEX
  8
3
  6
CONTINUOUS
 62
   110
  5
657
 10
-950.247916
 20
34.233054
 30
0.0
 42
-0.022956
  0
VERTEX
  8
3
  6
CONTINUOUS
 62
   110
  5
658
 10
-950.211978
 20
34.22832
 30
0.0
 42
-0.026114
  0
VERTEX
  8
3
  6
CONTINUOUS
 62
   110
  5
659
 10
-950.178857
 20
34.220632
 30
0.0
 42
-0.03183
  0
VERTEX
  8
3
  6
CONTINUOUS
 62
   110
  5
65A
 10
-950.149827
 20
34.210286
 30
0.0
 42
-0.041681
  0
VERTEX
  8
3
  6
CONTINUOUS
 62
   110
  5
65B
 10
-950.126002
 20
34.19768
 30
0.0
 42
-0.058242
  0
VERTEX
  8
3
  6
CONTINUOUS
 62
   110
  5
65C
 10
-950.108298
 20
34.183297
 30
0.0
 42
-0.083254
  0
VERTEX
  8
3
  6
CONTINUOUS
 62
   110
  5
65D
 10
-950.097397
 20
34.16769
 30
0.0
 42
-0.107797
  0
VERTEX
  8
3
  6
CONTINUOUS
 62
   110
  5
65E
 10
-950.093716
 20
34.15146
 30
0.0
 42
-0.107797
  0
SEQEND
  8
3
  6
CONTINUOUS
 62
   110
  5
65F
  0
POLYLINE
  8
3
  6
CONTINUOUS
 62
   110
  5
660
 66
     1
 10
0.0
 20
0.0
 30
0.0
210
0.0
220
0.0
230
1.0
  0
VERTEX
  8
3
  6
CONTINUOUS
 62
   110
  5
661
 10
-948.211124
 20
37.00331
 30
0.0
 42
0.107797
  0
VERTEX
  8
3
  6
CONTINUOUS
 62
   110
  5
662
 10
-948.207443
 20
36.98708
 30
0.0
 42
0.083254
  0
VERTEX
  8
3
  6
CONTINUOUS
 62
   110
  5
663
 10
-948.196541
 20
36.971473
 30
0.0
 42
0.058242
  0
VERTEX
  8
3
  6
CONTINUOUS
 62
   110
  5
664
 10
-948.178837
 20
36.957091
 30
0.0
 42
0.041681
  0
VERTEX
  8
3
  6
CONTINUOUS
 62
   110
  5
665
 10
-948.155013
 20
36.944484
 30
0.0
 42
0.03183
  0
VERTEX
  8
3
  6
CONTINUOUS
 62
   110
  5
666
 10
-948.125982
 20
36.934138
 30
0.0
 42
0.026114
  0
VERTEX
  8
3
  6
CONTINUOUS
 62
   110
  5
667
 10
-948.092861
 20
36.92645
 30
0.0
 42
0.022956
  0
VERTEX
  8
3
  6
CONTINUOUS
 62
   110
  5
668
 10
-948.056923
 20
36.921716
 30
0.0
 42
0.021545
  0
VERTEX
  8
3
  6
CONTINUOUS
 62
   110
  5
669
 10
-948.019549
 20
36.920117
 30
0.0
 42
0.021545
  0
VERTEX
  8
3
  6
CONTINUOUS
 62
   110
  5
66A
 10
-947.982174
 20
36.921716
 30
0.0
 42
0.022956
  0
VERTEX
  8
3
  6
CONTINUOUS
 62
   110
  5
66B
 10
-947.946236
 20
36.92645
 30
0.0
 42
0.026114
  0
VERTEX
  8
3
  6
CONTINUOUS
 62
   110
  5
66C
 10
-947.913115
 20
36.934138
 30
0.0
 42
0.03183
  0
VERTEX
  8
3
  6
CONTINUOUS
 62
   110
  5
66D
 10
-947.884084
 20
36.944484
 30
0.0
 42
0.041681
  0
VERTEX
  8
3
  6
CONTINUOUS
 62
   110
  5
66E
 10
-947.86026
 20
36.957091
 30
0.0
 42
0.058242
  0
VERTEX
  8
3
  6
CONTINUOUS
 62
   110
  5
66F
 10
-947.842556
 20
36.971473
 30
0.0
 42
0.083254
  0
VERTEX
  8
3
  6
CONTINUOUS
 62
   110
  5
670
 10
-947.831654
 20
36.98708
 30
0.0
 42
0.107797
  0
VERTEX
  8
3
  6
CONTINUOUS
 62
   110
  5
671
 10
-947.827973
 20
37.00331
 30
0.0
 42
0.107797
  0
SEQEND
  8
3
  6
CONTINUOUS
 62
   110
  5
672
  0
POLYLINE
  8
3
  6
CONTINUOUS
 62
   110
  5
673
 66
     1
 10
0.0
 20
0.0
 30
0.0
210
0.0
220
0.0
230
1.0
  0
VERTEX
  8
3
  6
CONTINUOUS
 62
   110
  5
674
 10
-947.827973
 20
34.15146
 30
0.0
 42
-0.071267
  0
VERTEX
  8
3
  6
CONTINUOUS
 62
   110
  5
675
 10
-947.831654
 20
34.126046
 30
0.0
 42
-0.065729
  0
VERTEX
  8
3
  6
CONTINUOUS
 62
   110
  5
676
 10
-947.842556
 20
34.101609
 30
0.0
 42
-0.057443
  0
VERTEX
  8
3
  6
CONTINUOUS
 62
   110
  5
677
 10
-947.86026
 20
34.079088
 30
0.0
 42
-0.049287
  0
VERTEX
  8
3
  6
CONTINUOUS
 62
   110
  5
678
 10
-947.884084
 20
34.059348
 30
0.0
 42
-0.042701
  0
VERTEX
  8
3
  6
CONTINUOUS
 62
   110
  5
679
 10
-947.913115
 20
34.043147
 30
0.0
 42
-0.037998
  0
VERTEX
  8
3
  6
CONTINUOUS
 62
   110
  5
67A
 10
-947.946236
 20
34.031109
 30
0.0
 42
-0.03504
  0
VERTEX
  8
3
  6
CONTINUOUS
 62
   110
  5
67B
 10
-947.982174
 20
34.023696
 30
0.0
 42
-0.033623
  0
VERTEX
  8
3
  6
CONTINUOUS
 62
   110
  5
67C
 10
-948.019549
 20
34.021193
 30
0.0
 42
-0.033623
  0
VERTEX
  8
3
  6
CONTINUOUS
 62
   110
  5
67D
 10
-948.056923
 20
34.023696
 30
0.0
 42
-0.03504
  0
VERTEX
  8
3
  6
CONTINUOUS
 62
   110
  5
67E
 10
-948.092861
 20
34.031109
 30
0.0
 42
-0.037998
  0
VERTEX
  8
3
  6
CONTINUOUS
 62
   110
  5
67F
 10
-948.125982
 20
34.043147
 30
0.0
 42
-0.042701
  0
VERTEX
  8
3
  6
CONTINUOUS
 62
   110
  5
680
 10
-948.155013
 20
34.059348
 30
0.0
 42
-0.049287
  0
VERTEX
  8
3
  6
CONTINUOUS
 62
   110
  5
681
 10
-948.178837
 20
34.079088
 30
0.0
 42
-0.057443
  0
VERTEX
  8
3
  6
CONTINUOUS
 62
   110
  5
682
 10
-948.196541
 20
34.101609
 30
0.0
 42
-0.065729
  0
VERTEX
  8
3
  6
CONTINUOUS
 62
   110
  5
683
 10
-948.207443
 20
34.126046
 30
0.0
 42
-0.071267
  0
VERTEX
  8
3
  6
CONTINUOUS
 62
   110
  5
684
 10
-948.211124
 20
34.15146
 30
0.0
 42
-0.071267
  0
SEQEND
  8
3
  6
CONTINUOUS
 62
   110
  5
685
  0
POINT
  8
3
  6
CONTINUOUS
 62
     2
  5
686
 10
-949.410167
 20
35.577167
 30
0.0
  0
POLYLINE
  8
3
  6
CONTINUOUS
 62
   110
  5
687
 66
     1
 10
0.0
 20
0.0
 30
0.0
210
0.0
220
0.0
230
1.0
  0
VERTEX
  8
3
  6
CONTINUOUS
 62
   110
  5
688
 10
-950.093716
 20
34.974991
 30
0.0
 42
-0.105926
  0
VERTEX
  8
3
  6
CONTINUOUS
 62
   110
  5
689
 10
-950.097397
 20
34.958438
 30
0.0
 42
-0.082645
  0
VERTEX
  8
3
  6
CONTINUOUS
 62
   110
  5
68A
 10
-950.108298
 20
34.942522
 30
0.0
 42
-0.058441
  0
VERTEX
  8
3
  6
CONTINUOUS
 62
   110
  5
68B
 10
-950.126002
 20
34.927853
 30
0.0
 42
-0.042129
  0
VERTEX
  8
3
  6
CONTINUOUS
 62
   110
  5
68C
 10
-950.149827
 20
34.914996
 30
0.0
 42
-0.032313
  0
VERTEX
  8
3
  6
CONTINUOUS
 62
   110
  5
68D
 10
-950.178857
 20
34.904444
 30
0.0
 42
-0.026577
  0
VERTEX
  8
3
  6
CONTINUOUS
 62
   110
  5
68E
 10
-950.211978
 20
34.896604
 30
0.0
 42
-0.023395
  0
VERTEX
  8
3
  6
CONTINUOUS
 62
   110
  5
68F
 10
-950.247916
 20
34.891776
 30
0.0
 42
-0.021971
  0
VERTEX
  8
3
  6
CONTINUOUS
 62
   110
  5
690
 10
-950.285291
 20
34.890145
 30
0.0
 42
-0.021971
  0
VERTEX
  8
3
  6
CONTINUOUS
 62
   110
  5
691
 10
-950.322665
 20
34.891776
 30
0.0
 42
-0.023395
  0
VERTEX
  8
3
  6
CONTINUOUS
 62
   110
  5
692
 10
-950.358603
 20
34.896604
 30
0.0
 42
-0.026577
  0
VERTEX
  8
3
  6
CONTINUOUS
 62
   110
  5
693
 10
-950.391724
 20
34.904444
 30
0.0
 42
-0.032313
  0
VERTEX
  8
3
  6
CONTINUOUS
 62
   110
  5
694
 10
-950.420755
 20
34.914996
 30
0.0
 42
-0.042129
  0
VERTEX
  8
3
  6
CONTINUOUS
 62
   110
  5
695
 10
-950.44458
 20
34.927853
 30
0.0
 42
-0.058441
  0
VERTEX
  8
3
  6
CONTINUOUS
 62
   110
  5
696
 10
-950.462283
 20
34.942522
 30
0.0
 42
-0.082645
  0
VERTEX
  8
3
  6
CONTINUOUS
 62
   110
  5
697
 10
-950.473185
 20
34.958438
 30
0.0
 42
-0.105926
  0
VERTEX
  8
3
  6
CONTINUOUS
 62
   110
  5
698
 10
-950.476866
 20
34.974991
 30
0.0
 42
-0.105926
  0
SEQEND
  8
3
  6
CONTINUOUS
 62
   110
  5
699
  0
POLYLINE
  8
3
  6
CONTINUOUS
 62
   110
  5
69A
 66
     1
 10
0.0
 20
0.0
 30
0.0
210
0.0
220
0.0
230
1.0
  0
VERTEX
  8
3
  6
CONTINUOUS
 62
   110
  5
69B
 10
-950.476866
 20
34.974991
 30
0.0
 42
-0.069642
  0
VERTEX
  8
3
  6
CONTINUOUS
 62
   110
  5
69C
 10
-950.473185
 20
35.001029
 30
0.0
 42
-0.064663
  0
VERTEX
  8
3
  6
CONTINUOUS
 62
   110
  5
69D
 10
-950.462283
 20
35.026066
 30
0.0
 42
-0.05709
  0
VERTEX
  8
3
  6
CONTINUOUS
 62
   110
  5
69E
 10
-950.44458
 20
35.04914
 30
0.0
 42
-0.049486
  0
VERTEX
  8
3
  6
CONTINUOUS
 62
   110
  5
69F
 10
-950.420755
 20
35.069365
 30
0.0
 42
-0.043232
  0
VERTEX
  8
3
  6
CONTINUOUS
 62
   110
  5
6A0
 10
-950.391724
 20
35.085963
 30
0.0
 42
-0.038702
  0
VERTEX
  8
3
  6
CONTINUOUS
 62
   110
  5
6A1
 10
-950.358603
 20
35.098297
 30
0.0
 42
-0.035825
  0
VERTEX
  8
3
  6
CONTINUOUS
 62
   110
  5
6A2
 10
-950.322665
 20
35.105892
 30
0.0
 42
-0.034439
  0
VERTEX
  8
3
  6
CONTINUOUS
 62
   110
  5
6A3
 10
-950.285291
 20
35.108456
 30
0.0
 42
-0.034439
  0
VERTEX
  8
3
  6
CONTINUOUS
 62
   110
  5
6A4
 10
-950.247916
 20
35.105892
 30
0.0
 42
-0.035825
  0
VERTEX
  8
3
  6
CONTINUOUS
 62
   110
  5
6A5
 10
-950.211978
 20
35.098297
 30
0.0
 42
-0.038702
  0
VERTEX
  8
3
  6
CONTINUOUS
 62
   110
  5
6A6
 10
-950.178857
 20
35.085963
 30
0.0
 42
-0.043232
  0
VERTEX
  8
3
  6
CONTINUOUS
 62
   110
  5
6A7
 10
-950.149827
 20
35.069365
 30
0.0
 42
-0.049486
  0
VERTEX
  8
3
  6
CONTINUOUS
 62
   110
  5
6A8
 10
-950.126002
 20
35.04914
 30
0.0
 42
-0.05709
  0
VERTEX
  8
3
  6
CONTINUOUS
 62
   110
  5
6A9
 10
-950.108298
 20
35.026066
 30
0.0
 42
-0.064663
  0
VERTEX
  8
3
  6
CONTINUOUS
 62
   110
  5
6AA
 10
-950.097397
 20
35.001029
 30
0.0
 42
-0.069642
  0
VERTEX
  8
3
  6
CONTINUOUS
 62
   110
  5
6AB
 10
-950.093716
 20
34.974991
 30
0.0
 42
-0.069642
  0
SEQEND
  8
3
  6
CONTINUOUS
 62
   110
  5
6AC
  0
POLYLINE
  8
3
  6
CONTINUOUS
 62
   110
  5
6AD
 66
     1
 10
0.0
 20
0.0
 30
0.0
210
0.0
220
0.0
230
1.0
  0
VERTEX
  8
3
  6
CONTINUOUS
 62
   110
  5
6AE
 10
-950.093716
 20
36.179779
 30
0.0
 42
0.105926
  0
VERTEX
  8
3
  6
CONTINUOUS
 62
   110
  5
6AF
 10
-950.097397
 20
36.196332
 30
0.0
 42
0.082645
  0
VERTEX
  8
3
  6
CONTINUOUS
 62
   110
  5
6B0
 10
-950.108298
 20
36.212248
 30
0.0
 42
0.058441
  0
VERTEX
  8
3
  6
CONTINUOUS
 62
   110
  5
6B1
 10
-950.126002
 20
36.226917
 30
0.0
 42
0.042129
  0
VERTEX
  8
3
  6
CONTINUOUS
 62
   110
  5
6B2
 10
-950.149827
 20
36.239774
 30
0.0
 42
0.032313
  0
VERTEX
  8
3
  6
CONTINUOUS
 62
   110
  5
6B3
 10
-950.178857
 20
36.250326
 30
0.0
 42
0.026577
  0
VERTEX
  8
3
  6
CONTINUOUS
 62
   110
  5
6B4
 10
-950.211978
 20
36.258166
 30
0.0
 42
0.023395
  0
VERTEX
  8
3
  6
CONTINUOUS
 62
   110
  5
6B5
 10
-950.247916
 20
36.262994
 30
0.0
 42
0.021971
  0
VERTEX
  8
3
  6
CONTINUOUS
 62
   110
  5
6B6
 10
-950.285291
 20
36.264625
 30
0.0
 42
0.021971
  0
VERTEX
  8
3
  6
CONTINUOUS
 62
   110
  5
6B7
 10
-950.322665
 20
36.262994
 30
0.0
 42
0.023395
  0
VERTEX
  8
3
  6
CONTINUOUS
 62
   110
  5
6B8
 10
-950.358603
 20
36.258166
 30
0.0
 42
0.026577
  0
VERTEX
  8
3
  6
CONTINUOUS
 62
   110
  5
6B9
 10
-950.391724
 20
36.250326
 30
0.0
 42
0.032313
  0
VERTEX
  8
3
  6
CONTINUOUS
 62
   110
  5
6BA
 10
-950.420755
 20
36.239774
 30
0.0
 42
0.042129
  0
VERTEX
  8
3
  6
CONTINUOUS
 62
   110
  5
6BB
 10
-950.44458
 20
36.226917
 30
0.0
 42
0.058441
  0
VERTEX
  8
3
  6
CONTINUOUS
 62
   110
  5
6BC
 10
-950.462283
 20
36.212248
 30
0.0
 42
0.082645
  0
VERTEX
  8
3
  6
CONTINUOUS
 62
   110
  5
6BD
 10
-950.473185
 20
36.196332
 30
0.0
 42
0.105926
  0
VERTEX
  8
3
  6
CONTINUOUS
 62
   110
  5
6BE
 10
-950.476866
 20
36.179779
 30
0.0
 42
0.105926
  0
SEQEND
  8
3
  6
CONTINUOUS
 62
   110
  5
6BF
  0
POLYLINE
  8
3
  6
CONTINUOUS
 62
   110
  5
6C0
 66
     1
 10
0.0
 20
0.0
 30
0.0
210
0.0
220
0.0
230
1.0
  0
VERTEX
  8
3
  6
CONTINUOUS
 62
   110
  5
6C1
 10
-950.476866
 20
36.179779
 30
0.0
 42
0.069642
  0
VERTEX
  8
3
  6
CONTINUOUS
 62
   110
  5
6C2
 10
-950.473185
 20
36.153741
 30
0.0
 42
0.064663
  0
VERTEX
  8
3
  6
CONTINUOUS
 62
   110
  5
6C3
 10
-950.462283
 20
36.128704
 30
0.0
 42
0.05709
  0
VERTEX
  8
3
  6
CONTINUOUS
 62
   110
  5
6C4
 10
-950.44458
 20
36.10563
 30
0.0
 42
0.049486
  0
VERTEX
  8
3
  6
CONTINUOUS
 62
   110
  5
6C5
 10
-950.420755
 20
36.085405
 30
0.0
 42
0.043232
  0
VERTEX
  8
3
  6
CONTINUOUS
 62
   110
  5
6C6
 10
-950.391724
 20
36.068807
 30
0.0
 42
0.038702
  0
VERTEX
  8
3
  6
CONTINUOUS
 62
   110
  5
6C7
 10
-950.358603
 20
36.056473
 30
0.0
 42
0.035825
  0
VERTEX
  8
3
  6
CONTINUOUS
 62
   110
  5
6C8
 10
-950.322665
 20
36.048878
 30
0.0
 42
0.034439
  0
VERTEX
  8
3
  6
CONTINUOUS
 62
   110
  5
6C9
 10
-950.285291
 20
36.046314
 30
0.0
 42
0.034439
  0
VERTEX
  8
3
  6
CONTINUOUS
 62
   110
  5
6CA
 10
-950.247916
 20
36.048878
 30
0.0
 42
0.035825
  0
VERTEX
  8
3
  6
CONTINUOUS
 62
   110
  5
6CB
 10
-950.211978
 20
36.056473
 30
0.0
 42
0.038702
  0
VERTEX
  8
3
  6
CONTINUOUS
 62
   110
  5
6CC
 10
-950.178857
 20
36.068807
 30
0.0
 42
0.043232
  0
VERTEX
  8
3
  6
CONTINUOUS
 62
   110
  5
6CD
 10
-950.149827
 20
36.085405
 30
0.0
 42
0.049486
  0
VERTEX
  8
3
  6
CONTINUOUS
 62
   110
  5
6CE
 10
-950.126002
 20
36.10563
 30
0.0
 42
0.05709
  0
VERTEX
  8
3
  6
CONTINUOUS
 62
   110
  5
6CF
 10
-950.108298
 20
36.128704
 30
0.0
 42
0.064663
  0
VERTEX
  8
3
  6
CONTINUOUS
 62
   110
  5
6D0
 10
-950.097397
 20
36.153741
 30
0.0
 42
0.069642
  0
VERTEX
  8
3
  6
CONTINUOUS
 62
   110
  5
6D1
 10
-950.093716
 20
36.179779
 30
0.0
 42
0.069642
  0
SEQEND
  8
3
  6
CONTINUOUS
 62
   110
  5
6D2
  0
POLYLINE
  8
3
  6
CONTINUOUS
 62
   110
  5
6D3
 66
     1
 10
0.0
 20
0.0
 30
0.0
210
0.0
220
0.0
230
1.0
  0
VERTEX
  8
3
  6
CONTINUOUS
 62
   110
  5
6D4
 10
-950.476866
 20
37.00331
 30
0.0
 42
0.107797
  0
VERTEX
  8
3
  6
CONTINUOUS
 62
   110
  5
6D5
 10
-950.473185
 20
36.98708
 30
0.0
 42
0.083254
  0
VERTEX
  8
3
  6
CONTINUOUS
 62
   110
  5
6D6
 10
-950.462283
 20
36.971473
 30
0.0
 42
0.058242
  0
VERTEX
  8
3
  6
CONTINUOUS
 62
   110
  5
6D7
 10
-950.44458
 20
36.957091
 30
0.0
 42
0.041681
  0
VERTEX
  8
3
  6
CONTINUOUS
 62
   110
  5
6D8
 10
-950.420755
 20
36.944484
 30
0.0
 42
0.03183
  0
VERTEX
  8
3
  6
CONTINUOUS
 62
   110
  5
6D9
 10
-950.391724
 20
36.934138
 30
0.0
 42
0.026114
  0
VERTEX
  8
3
  6
CONTINUOUS
 62
   110
  5
6DA
 10
-950.358603
 20
36.92645
 30
0.0
 42
0.022956
  0
VERTEX
  8
3
  6
CONTINUOUS
 62
   110
  5
6DB
 10
-950.322665
 20
36.921716
 30
0.0
 42
0.021545
  0
VERTEX
  8
3
  6
CONTINUOUS
 62
   110
  5
6DC
 10
-950.285291
 20
36.920117
 30
0.0
 42
0.021545
  0
VERTEX
  8
3
  6
CONTINUOUS
 62
   110
  5
6DD
 10
-950.247916
 20
36.921716
 30
0.0
 42
0.022956
  0
VERTEX
  8
3
  6
CONTINUOUS
 62
   110
  5
6DE
 10
-950.211978
 20
36.92645
 30
0.0
 42
0.026114
  0
VERTEX
  8
3
  6
CONTINUOUS
 62
   110
  5
6DF
 10
-950.178857
 20
36.934138
 30
0.0
 42
0.03183
  0
VERTEX
  8
3
  6
CONTINUOUS
 62
   110
  5
6E0
 10
-950.149827
 20
36.944484
 30
0.0
 42
0.041681
  0
VERTEX
  8
3
  6
CONTINUOUS
 62
   110
  5
6E1
 10
-950.126002
 20
36.957091
 30
0.0
 42
0.058242
  0
VERTEX
  8
3
  6
CONTINUOUS
 62
   110
  5
6E2
 10
-950.108298
 20
36.971473
 30
0.0
 42
0.083254
  0
VERTEX
  8
3
  6
CONTINUOUS
 62
   110
  5
6E3
 10
-950.097397
 20
36.98708
 30
0.0
 42
0.107797
  0
VERTEX
  8
3
  6
CONTINUOUS
 62
   110
  5
6E4
 10
-950.093716
 20
37.00331
 30
0.0
 42
0.107797
  0
SEQEND
  8
3
  6
CONTINUOUS
 62
   110
  5
6E5
  0
POLYLINE
  8
3
  6
CONTINUOUS
 62
   110
  5
6E6
 66
     1
 10
0.0
 20
0.0
 30
0.0
210
0.0
220
0.0
230
1.0
  0
VERTEX
  8
3
  6
CONTINUOUS
 62
   110
  5
6E7
 10
-950.093716
 20
34.15146
 30
0.0
 42
-0.071267
  0
VERTEX
  8
3
  6
CONTINUOUS
 62
   110
  5
6E8
 10
-950.097397
 20
34.126046
 30
0.0
 42
-0.065729
  0
VERTEX
  8
3
  6
CONTINUOUS
 62
   110
  5
6E9
 10
-950.108298
 20
34.101609
 30
0.0
 42
-0.057443
  0
VERTEX
  8
3
  6
CONTINUOUS
 62
   110
  5
6EA
 10
-950.126002
 20
34.079088
 30
0.0
 42
-0.049287
  0
VERTEX
  8
3
  6
CONTINUOUS
 62
   110
  5
6EB
 10
-950.149827
 20
34.059348
 30
0.0
 42
-0.042701
  0
VERTEX
  8
3
  6
CONTINUOUS
 62
   110
  5
6EC
 10
-950.178857
 20
34.043147
 30
0.0
 42
-0.037998
  0
VERTEX
  8
3
  6
CONTINUOUS
 62
   110
  5
6ED
 10
-950.211978
 20
34.031109
 30
0.0
 42
-0.03504
  0
VERTEX
  8
3
  6
CONTINUOUS
 62
   110
  5
6EE
 10
-950.247916
 20
34.023696
 30
0.0
 42
-0.033623
  0
VERTEX
  8
3
  6
CONTINUOUS
 62
   110
  5
6EF
 10
-950.285291
 20
34.021193
 30
0.0
 42
-0.033623
  0
VERTEX
  8
3
  6
CONTINUOUS
 62
   110
  5
6F0
 10
-950.322665
 20
34.023696
 30
0.0
 42
-0.03504
  0
VERTEX
  8
3
  6
CONTINUOUS
 62
   110
  5
6F1
 10
-950.358603
 20
34.031109
 30
0.0
 42
-0.037998
  0
VERTEX
  8
3
  6
CONTINUOUS
 62
   110
  5
6F2
 10
-950.391724
 20
34.043147
 30
0.0
 42
-0.042701
  0
VERTEX
  8
3
  6
CONTINUOUS
 62
   110
  5
6F3
 10
-950.420755
 20
34.059348
 30
0.0
 42
-0.049287
  0
VERTEX
  8
3
  6
CONTINUOUS
 62
   110
  5
6F4
 10
-950.44458
 20
34.079088
 30
0.0
 42
-0.057443
  0
VERTEX
  8
3
  6
CONTINUOUS
 62
   110
  5
6F5
 10
-950.462283
 20
34.101609
 30
0.0
 42
-0.065729
  0
VERTEX
  8
3
  6
CONTINUOUS
 62
   110
  5
6F6
 10
-950.473185
 20
34.126046
 30
0.0
 42
-0.071267
  0
VERTEX
  8
3
  6
CONTINUOUS
 62
   110
  5
6F7
 10
-950.476866
 20
34.15146
 30
0.0
 42
-0.071267
  0
SEQEND
  8
3
  6
CONTINUOUS
 62
   110
  5
6F8
  0
POLYLINE
  8
3
  6
CONTINUOUS
 62
   110
  5
6F9
 66
     1
 10
0.0
 20
0.0
 30
0.0
210
0.0
220
0.0
230
1.0
  0
VERTEX
  8
3
  6
CONTINUOUS
 62
   110
  5
6FA
 10
-947.827973
 20
34.974991
 30
0.0
 42
-0.105926
  0
VERTEX
  8
3
  6
CONTINUOUS
 62
   110
  5
6FB
 10
-947.831654
 20
34.958438
 30
0.0
 42
-0.082645
  0
VERTEX
  8
3
  6
CONTINUOUS
 62
   110
  5
6FC
 10
-947.842556
 20
34.942522
 30
0.0
 42
-0.058441
  0
VERTEX
  8
3
  6
CONTINUOUS
 62
   110
  5
6FD
 10
-947.86026
 20
34.927853
 30
0.0
 42
-0.042129
  0
VERTEX
  8
3
  6
CONTINUOUS
 62
   110
  5
6FE
 10
-947.884084
 20
34.914996
 30
0.0
 42
-0.032313
  0
VERTEX
  8
3
  6
CONTINUOUS
 62
   110
  5
6FF
 10
-947.913115
 20
34.904444
 30
0.0
 42
-0.026577
  0
VERTEX
  8
3
  6
CONTINUOUS
 62
   110
  5
700
 10
-947.946236
 20
34.896604
 30
0.0
 42
-0.023395
  0
VERTEX
  8
3
  6
CONTINUOUS
 62
   110
  5
701
 10
-947.982174
 20
34.891776
 30
0.0
 42
-0.021971
  0
VERTEX
  8
3
  6
CONTINUOUS
 62
   110
  5
702
 10
-948.019549
 20
34.890145
 30
0.0
 42
-0.021971
  0
VERTEX
  8
3
  6
CONTINUOUS
 62
   110
  5
703
 10
-948.056923
 20
34.891776
 30
0.0
 42
-0.023395
  0
VERTEX
  8
3
  6
CONTINUOUS
 62
   110
  5
704
 10
-948.092861
 20
34.896604
 30
0.0
 42
-0.026577
  0
VERTEX
  8
3
  6
CONTINUOUS
 62
   110
  5
705
 10
-948.125982
 20
34.904444
 30
0.0
 42
-0.032313
  0
VERTEX
  8
3
  6
CONTINUOUS
 62
   110
  5
706
 10
-948.155013
 20
34.914996
 30
0.0
 42
-0.042129
  0
VERTEX
  8
3
  6
CONTINUOUS
 62
   110
  5
707
 10
-948.178837
 20
34.927853
 30
0.0
 42
-0.058441
  0
VERTEX
  8
3
  6
CONTINUOUS
 62
   110
  5
708
 10
-948.196541
 20
34.942522
 30
0.0
 42
-0.082645
  0
VERTEX
  8
3
  6
CONTINUOUS
 62
   110
  5
709
 10
-948.207443
 20
34.958438
 30
0.0
 42
-0.105926
  0
VERTEX
  8
3
  6
CONTINUOUS
 62
   110
  5
70A
 10
-948.211124
 20
34.974991
 30
0.0
 42
-0.105926
  0
SEQEND
  8
3
  6
CONTINUOUS
 62
   110
  5
70B
  0
POLYLINE
  8
3
  6
CONTINUOUS
 62
   110
  5
70C
 66
     1
 10
0.0
 20
0.0
 30
0.0
210
0.0
220
0.0
230
1.0
  0
VERTEX
  8
3
  6
CONTINUOUS
 62
   110
  5
70D
 10
-947.827973
 20
36.179779
 30
0.0
 42
0.105926
  0
VERTEX
  8
3
  6
CONTINUOUS
 62
   110
  5
70E
 10
-947.831654
 20
36.196332
 30
0.0
 42
0.082645
  0
VERTEX
  8
3
  6
CONTINUOUS
 62
   110
  5
70F
 10
-947.842556
 20
36.212248
 30
0.0
 42
0.058441
  0
VERTEX
  8
3
  6
CONTINUOUS
 62
   110
  5
710
 10
-947.86026
 20
36.226917
 30
0.0
 42
0.042129
  0
VERTEX
  8
3
  6
CONTINUOUS
 62
   110
  5
711
 10
-947.884084
 20
36.239774
 30
0.0
 42
0.032313
  0
VERTEX
  8
3
  6
CONTINUOUS
 62
   110
  5
712
 10
-947.913115
 20
36.250326
 30
0.0
 42
0.026577
  0
VERTEX
  8
3
  6
CONTINUOUS
 62
   110
  5
713
 10
-947.946236
 20
36.258166
 30
0.0
 42
0.023395
  0
VERTEX
  8
3
  6
CONTINUOUS
 62
   110
  5
714
 10
-947.982174
 20
36.262994
 30
0.0
 42
0.021971
  0
VERTEX
  8
3
  6
CONTINUOUS
 62
   110
  5
715
 10
-948.019549
 20
36.264625
 30
0.0
 42
0.021971
  0
VERTEX
  8
3
  6
CONTINUOUS
 62
   110
  5
716
 10
-948.056923
 20
36.262994
 30
0.0
 42
0.023395
  0
VERTEX
  8
3
  6
CONTINUOUS
 62
   110
  5
717
 10
-948.092861
 20
36.258166
 30
0.0
 42
0.026577
  0
VERTEX
  8
3
  6
CONTINUOUS
 62
   110
  5
718
 10
-948.125982
 20
36.250326
 30
0.0
 42
0.032313
  0
VERTEX
  8
3
  6
CONTINUOUS
 62
   110
  5
719
 10
-948.155013
 20
36.239774
 30
0.0
 42
0.042129
  0
VERTEX
  8
3
  6
CONTINUOUS
 62
   110
  5
71A
 10
-948.178837
 20
36.226917
 30
0.0
 42
0.058441
  0
VERTEX
  8
3
  6
CONTINUOUS
 62
   110
  5
71B
 10
-948.196541
 20
36.212248
 30
0.0
 42
0.082645
  0
VERTEX
  8
3
  6
CONTINUOUS
 62
   110
  5
71C
 10
-948.207443
 20
36.196332
 30
0.0
 42
0.105926
  0
VERTEX
  8
3
  6
CONTINUOUS
 62
   110
  5
71D
 10
-948.211124
 20
36.179779
 30
0.0
 42
0.105926
  0
SEQEND
  8
3
  6
CONTINUOUS
 62
   110
  5
71E
  0
POLYLINE
  8
3
  6
CONTINUOUS
 62
   110
  5
71F
 66
     1
 10
0.0
 20
0.0
 30
0.0
210
0.0
220
0.0
230
1.0
  0
VERTEX
  8
3
  6
CONTINUOUS
 62
   110
  5
720
 10
-948.211124
 20
36.179779
 30
0.0
 42
0.069642
  0
VERTEX
  8
3
  6
CONTINUOUS
 62
   110
  5
721
 10
-948.207443
 20
36.153741
 30
0.0
 42
0.064663
  0
VERTEX
  8
3
  6
CONTINUOUS
 62
   110
  5
722
 10
-948.196541
 20
36.128704
 30
0.0
 42
0.05709
  0
VERTEX
  8
3
  6
CONTINUOUS
 62
   110
  5
723
 10
-948.178837
 20
36.10563
 30
0.0
 42
0.049486
  0
VERTEX
  8
3
  6
CONTINUOUS
 62
   110
  5
724
 10
-948.155013
 20
36.085405
 30
0.0
 42
0.043232
  0
VERTEX
  8
3
  6
CONTINUOUS
 62
   110
  5
725
 10
-948.125982
 20
36.068807
 30
0.0
 42
0.038702
  0
VERTEX
  8
3
  6
CONTINUOUS
 62
   110
  5
726
 10
-948.092861
 20
36.056473
 30
0.0
 42
0.035825
  0
VERTEX
  8
3
  6
CONTINUOUS
 62
   110
  5
727
 10
-948.056923
 20
36.048878
 30
0.0
 42
0.034439
  0
VERTEX
  8
3
  6
CONTINUOUS
 62
   110
  5
728
 10
-948.019549
 20
36.046314
 30
0.0
 42
0.034439
  0
VERTEX
  8
3
  6
CONTINUOUS
 62
   110
  5
729
 10
-947.982174
 20
36.048878
 30
0.0
 42
0.035825
  0
VERTEX
  8
3
  6
CONTINUOUS
 62
   110
  5
72A
 10
-947.946236
 20
36.056473
 30
0.0
 42
0.038702
  0
VERTEX
  8
3
  6
CONTINUOUS
 62
   110
  5
72B
 10
-947.913115
 20
36.068807
 30
0.0
 42
0.043232
  0
VERTEX
  8
3
  6
CONTINUOUS
 62
   110
  5
72C
 10
-947.884084
 20
36.085405
 30
0.0
 42
0.049486
  0
VERTEX
  8
3
  6
CONTINUOUS
 62
   110
  5
72D
 10
-947.86026
 20
36.10563
 30
0.0
 42
0.05709
  0
VERTEX
  8
3
  6
CONTINUOUS
 62
   110
  5
72E
 10
-947.842556
 20
36.128704
 30
0.0
 42
0.064663
  0
VERTEX
  8
3
  6
CONTINUOUS
 62
   110
  5
72F
 10
-947.831654
 20
36.153741
 30
0.0
 42
0.069642
  0
VERTEX
  8
3
  6
CONTINUOUS
 62
   110
  5
730
 10
-947.827973
 20
36.179779
 30
0.0
 42
0.069642
  0
SEQEND
  8
3
  6
CONTINUOUS
 62
   110
  5
731
  0
POLYLINE
  8
3
  6
CONTINUOUS
 62
   110
  5
732
 66
     1
 10
0.0
 20
0.0
 30
0.0
210
0.0
220
0.0
230
1.0
  0
VERTEX
  8
3
  6
CONTINUOUS
 62
   110
  5
733
 10
-947.827973
 20
37.00331
 30
0.0
 42
0.071267
  0
VERTEX
  8
3
  6
CONTINUOUS
 62
   110
  5
734
 10
-947.831654
 20
37.028724
 30
0.0
 42
0.065729
  0
VERTEX
  8
3
  6
CONTINUOUS
 62
   110
  5
735
 10
-947.842556
 20
37.053161
 30
0.0
 42
0.057443
  0
VERTEX
  8
3
  6
CONTINUOUS
 62
   110
  5
736
 10
-947.86026
 20
37.075682
 30
0.0
 42
0.049287
  0
VERTEX
  8
3
  6
CONTINUOUS
 62
   110
  5
737
 10
-947.884084
 20
37.095423
 30
0.0
 42
0.042701
  0
VERTEX
  8
3
  6
CONTINUOUS
 62
   110
  5
738
 10
-947.913115
 20
37.111623
 30
0.0
 42
0.037998
  0
VERTEX
  8
3
  6
CONTINUOUS
 62
   110
  5
739
 10
-947.946236
 20
37.123661
 30
0.0
 42
0.03504
  0
VERTEX
  8
3
  6
CONTINUOUS
 62
   110
  5
73A
 10
-947.982174
 20
37.131074
 30
0.0
 42
0.033623
  0
VERTEX
  8
3
  6
CONTINUOUS
 62
   110
  5
73B
 10
-948.019549
 20
37.133577
 30
0.0
 42
0.033623
  0
VERTEX
  8
3
  6
CONTINUOUS
 62
   110
  5
73C
 10
-948.056923
 20
37.131074
 30
0.0
 42
0.03504
  0
VERTEX
  8
3
  6
CONTINUOUS
 62
   110
  5
73D
 10
-948.092861
 20
37.123661
 30
0.0
 42
0.037998
  0
VERTEX
  8
3
  6
CONTINUOUS
 62
   110
  5
73E
 10
-948.125982
 20
37.111623
 30
0.0
 42
0.042701
  0
VERTEX
  8
3
  6
CONTINUOUS
 62
   110
  5
73F
 10
-948.155013
 20
37.095423
 30
0.0
 42
0.049287
  0
VERTEX
  8
3
  6
CONTINUOUS
 62
   110
  5
740
 10
-948.178837
 20
37.075682
 30
0.0
 42
0.057443
  0
VERTEX
  8
3
  6
CONTINUOUS
 62
   110
  5
741
 10
-948.196541
 20
37.053161
 30
0.0
 42
0.065729
  0
VERTEX
  8
3
  6
CONTINUOUS
 62
   110
  5
742
 10
-948.207443
 20
37.028724
 30
0.0
 42
0.071267
  0
VERTEX
  8
3
  6
CONTINUOUS
 62
   110
  5
743
 10
-948.211124
 20
37.00331
 30
0.0
 42
0.071267
  0
SEQEND
  8
3
  6
CONTINUOUS
 62
   110
  5
744
  0
POLYLINE
  8
3
  6
CONTINUOUS
 62
   110
  5
745
 66
     1
 10
0.0
 20
0.0
 30
0.0
210
0.0
220
0.0
230
1.0
  0
VERTEX
  8
3
  6
CONTINUOUS
 62
   110
  5
746
 10
-948.211124
 20
34.15146
 30
0.0
 42
-0.107797
  0
VERTEX
  8
3
  6
CONTINUOUS
 62
   110
  5
747
 10
-948.207443
 20
34.16769
 30
0.0
 42
-0.083254
  0
VERTEX
  8
3
  6
CONTINUOUS
 62
   110
  5
748
 10
-948.196541
 20
34.183297
 30
0.0
 42
-0.058242
  0
VERTEX
  8
3
  6
CONTINUOUS
 62
   110
  5
749
 10
-948.178837
 20
34.19768
 30
0.0
 42
-0.041681
  0
VERTEX
  8
3
  6
CONTINUOUS
 62
   110
  5
74A
 10
-948.155013
 20
34.210286
 30
0.0
 42
-0.03183
  0
VERTEX
  8
3
  6
CONTINUOUS
 62
   110
  5
74B
 10
-948.125982
 20
34.220632
 30
0.0
 42
-0.026114
  0
VERTEX
  8
3
  6
CONTINUOUS
 62
   110
  5
74C
 10
-948.092861
 20
34.22832
 30
0.0
 42
-0.022956
  0
VERTEX
  8
3
  6
CONTINUOUS
 62
   110
  5
74D
 10
-948.056923
 20
34.233054
 30
0.0
 42
-0.021545
  0
VERTEX
  8
3
  6
CONTINUOUS
 62
   110
  5
74E
 10
-948.019549
 20
34.234653
 30
0.0
 42
-0.021545
  0
VERTEX
  8
3
  6
CONTINUOUS
 62
   110
  5
74F
 10
-947.982174
 20
34.233054
 30
0.0
 42
-0.022956
  0
VERTEX
  8
3
  6
CONTINUOUS
 62
   110
  5
750
 10
-947.946236
 20
34.22832
 30
0.0
 42
-0.026114
  0
VERTEX
  8
3
  6
CONTINUOUS
 62
   110
  5
751
 10
-947.913115
 20
34.220632
 30
0.0
 42
-0.03183
  0
VERTEX
  8
3
  6
CONTINUOUS
 62
   110
  5
752
 10
-947.884084
 20
34.210286
 30
0.0
 42
-0.041681
  0
VERTEX
  8
3
  6
CONTINUOUS
 62
   110
  5
753
 10
-947.86026
 20
34.19768
 30
0.0
 42
-0.058242
  0
VERTEX
  8
3
  6
CONTINUOUS
 62
   110
  5
754
 10
-947.842556
 20
34.183297
 30
0.0
 42
-0.083254
  0
VERTEX
  8
3
  6
CONTINUOUS
 62
   110
  5
755
 10
-947.831654
 20
34.16769
 30
0.0
 42
-0.107797
  0
VERTEX
  8
3
  6
CONTINUOUS
 62
   110
  5
756
 10
-947.827973
 20
34.15146
 30
0.0
 42
-0.107797
  0
SEQEND
  8
3
  6
CONTINUOUS
 62
   110
  5
757
  0
POLYLINE
  8
3
  6
CONTINUOUS
 62
   110
  5
758
 66
     1
 10
0.0
 20
0.0
 30
0.0
210
0.0
220
0.0
230
1.0
  0
VERTEX
  8
3
  6
CONTINUOUS
 62
   110
  5
759
 10
-948.211124
 20
34.974991
 30
0.0
 42
-0.069642
  0
VERTEX
  8
3
  6
CONTINUOUS
 62
   110
  5
75A
 10
-948.207443
 20
35.001029
 30
0.0
 42
-0.064663
  0
VERTEX
  8
3
  6
CONTINUOUS
 62
   110
  5
75B
 10
-948.196541
 20
35.026066
 30
0.0
 42
-0.05709
  0
VERTEX
  8
3
  6
CONTINUOUS
 62
   110
  5
75C
 10
-948.178837
 20
35.04914
 30
0.0
 42
-0.049486
  0
VERTEX
  8
3
  6
CONTINUOUS
 62
   110
  5
75D
 10
-948.155013
 20
35.069365
 30
0.0
 42
-0.043232
  0
VERTEX
  8
3
  6
CONTINUOUS
 62
   110
  5
75E
 10
-948.125982
 20
35.085963
 30
0.0
 42
-0.038702
  0
VERTEX
  8
3
  6
CONTINUOUS
 62
   110
  5
75F
 10
-948.092861
 20
35.098297
 30
0.0
 42
-0.035825
  0
VERTEX
  8
3
  6
CONTINUOUS
 62
   110
  5
760
 10
-948.056923
 20
35.105892
 30
0.0
 42
-0.034439
  0
VERTEX
  8
3
  6
CONTINUOUS
 62
   110
  5
761
 10
-948.019549
 20
35.108456
 30
0.0
 42
-0.034439
  0
VERTEX
  8
3
  6
CONTINUOUS
 62
   110
  5
762
 10
-947.982174
 20
35.105892
 30
0.0
 42
-0.035825
  0
VERTEX
  8
3
  6
CONTINUOUS
 62
   110
  5
763
 10
-947.946236
 20
35.098297
 30
0.0
 42
-0.038702
  0
VERTEX
  8
3
  6
CONTINUOUS
 62
   110
  5
764
 10
-947.913115
 20
35.085963
 30
0.0
 42
-0.043232
  0
VERTEX
  8
3
  6
CONTINUOUS
 62
   110
  5
765
 10
-947.884084
 20
35.069365
 30
0.0
 42
-0.049486
  0
VERTEX
  8
3
  6
CONTINUOUS
 62
   110
  5
766
 10
-947.86026
 20
35.04914
 30
0.0
 42
-0.05709
  0
VERTEX
  8
3
  6
CONTINUOUS
 62
   110
  5
767
 10
-947.842556
 20
35.026066
 30
0.0
 42
-0.064663
  0
VERTEX
  8
3
  6
CONTINUOUS
 62
   110
  5
768
 10
-947.831654
 20
35.001029
 30
0.0
 42
-0.069642
  0
VERTEX
  8
3
  6
CONTINUOUS
 62
   110
  5
769
 10
-947.827973
 20
34.974991
 30
0.0
 42
-0.069642
  0
SEQEND
  8
3
  6
CONTINUOUS
 62
   110
  5
76A
  0
LINE
  8
3
  6
CONTINUOUS
 62
     2
  5
76B
 10
-950.818833
 20
33.945167
 30
0.0
 11
-950.818833
 21
37.209167
 31
0.0
  0
LINE
  8
3
  6
DASHED
 62
     7
  5
76C
 10
-947.484167
 20
33.945167
 30
0.0
 11
-947.484167
 21
37.209167
 31
0.0
  0
LINE
  8
3
  6
CONTINUOUS
 62
   241
  5
76D
 10
-949.9515
 20
33.711833
 30
0.0
 11
-949.9515
 21
29.977833
 31
0.0
  0
LINE
  8
3
  6
CONTINUOUS
 62
   241
  5
76E
 10
-948.3515
 20
33.711833
 30
0.0
 11
-948.3515
 21
29.977833
 31
0.0
  0
LINE
  8
3
  6
DASHED
 62
     7
  5
76F
 10
-949.9515
 20
29.977833
 30
0.0
 11
-949.9515
 21
18.265167
 31
0.0
  0
LINE
  8
3
  6
DASHED
 62
     7
  5
770
 10
-948.3515
 20
29.977833
 30
0.0
 11
-948.3515
 21
18.265167
 31
0.0
  0
LINE
  8
3
  6
DASHED
 62
     7
  5
771
 10
-949.9515
 20
18.265167
 30
0.0
 11
-948.3515
 21
18.265167
 31
0.0
  0
ARC
  8
3
  6
CONTINUOUS
 62
     7
  5
772
 10
-948.917655
 20
35.577379
 30
0.0
 40
0.099969
 50
270.0
 51
90.0
210
0.0
220
0.0
230
1.0
  0
ARC
  8
3
  6
CONTINUOUS
 62
     7
  5
773
 10
-949.384509
 20
35.577379
 30
0.0
 40
0.099969
 50
90.0
 51
270.0
210
0.0
220
0.0
230
1.0
  0
POINT
  8
3
  6
CONTINUOUS
 62
     7
  5
774
 10
-949.150833
 20
35.577167
 30
0.0
  0
ARC
  8
3
  6
DASHED
 62
     7
  5
775
 10
-949.151082
 20
35.577379
 30
0.0
 40
0.191679
 50
211.528989
 51
328.549178
210
0.0
220
0.0
230
1.0
  0
ARC
  8
3
  6
CONTINUOUS
 62
     7
  5
776
 10
-949.151082
 20
35.577379
 30
0.0
 40
0.191679
 50
328.549178
 51
31.578167
210
0.0
220
0.0
230
1.0
  0
ARC
  8
3
  6
DASHED
 62
     7
  5
777
 10
-949.151082
 20
35.577379
 30
0.0
 40
0.191679
 50
31.578167
 51
148.549178
210
0.0
220
0.0
230
1.0
  0
ARC
  8
3
  6
CONTINUOUS
 62
     7
  5
778
 10
-949.151082
 20
35.577379
 30
0.0
 40
0.191679
 50
148.549178
 51
211.578167
210
0.0
220
0.0
230
1.0
  0
LINE
  8
3
  6
CONTINUOUS
 62
     7
  5
779
 10
-949.384167
 20
35.677167
 30
0.0
 11
-948.9175
 21
35.677167
 31
0.0
  0
LINE
  8
3
  6
CONTINUOUS
 62
     7
  5
77A
 10
-949.384167
 20
35.477167
 30
0.0
 11
-948.9175
 21
35.477167
 31
0.0
  0
POINT
  8
3
  6
CONTINUOUS
 62
     2
  5
77B
 10
-949.150833
 20
35.577167
 30
0.0
  0
LINE
  8
3
  6
CONTINUOUS
 62
     7
  5
77C
 10
-949.9515
 20
33.711833
 30
0.0
 11
-948.3515
 21
33.711833
 31
0.0
  0
LINE
  8
3
  6
CONTINUOUS
 62
     7
  5
77D
 10
-948.3515
 20
33.711833
 30
0.0
 11
-948.3515
 21
33.945167
 31
0.0
  0
LINE
  8
3
  6
CONTINUOUS
 62
     7
  5
77E
 10
-948.3515
 20
37.209167
 30
0.0
 11
-948.3515
 21
37.4425
 31
0.0
  0
LINE
  8
3
  6
CONTINUOUS
 62
     7
  5
77F
 10
-949.9515
 20
33.711833
 30
0.0
 11
-949.9515
 21
33.945167
 31
0.0
  0
LINE
  8
3
  6
CONTINUOUS
 62
     7
  5
780
 10
-949.9515
 20
37.209167
 30
0.0
 11
-949.9515
 21
37.4425
 31
0.0
  0
LINE
  8
3
  6
CONTINUOUS
 62
     7
  5
781
 10
-949.9515
 20
37.4425
 30
0.0
 11
-948.3515
 21
37.4425
 31
0.0
  0
LINE
  8
3
  6
CONTINUOUS
 62
     7
  5
782
 10
-929.9515
 20
33.711833
 30
0.0
 11
-929.9515
 21
29.977833
 31
0.0
  0
LINE
  8
3
  6
CONTINUOUS
 62
     7
  5
783
 10
-928.3515
 20
33.711833
 30
0.0
 11
-928.3515
 21
29.977833
 31
0.0
  0
LINE
  8
3
  6
DASHED
 62
     7
  5
784
 10
-929.9515
 20
29.977833
 30
0.0
 11
-929.9515
 21
18.243167
 31
0.0
  0
LINE
  8
3
  6
DASHED
 62
     7
  5
785
 10
-928.3515
 20
29.977833
 30
0.0
 11
-928.3515
 21
18.243167
 31
0.0
  0
LINE
  8
3
  6
DASHED
 62
     7
  5
786
 10
-929.9515
 20
18.243167
 30
0.0
 11
-928.3515
 21
18.243167
 31
0.0
  0
LINE
  8
3
  6
CONTINUOUS
 62
     7
  5
787
 10
-929.9515
 20
33.711833
 30
0.0
 11
-928.3515
 21
33.711833
 31
0.0
  0
LINE
  8
3
  6
CONTINUOUS
 62
     7
  5
788
 10
-928.3515
 20
33.711833
 30
0.0
 11
-928.3515
 21
33.945167
 31
0.0
  0
LINE
  8
3
  6
CONTINUOUS
 62
     7
  5
789
 10
-928.3515
 20
37.209167
 30
0.0
 11
-928.3515
 21
37.4425
 31
0.0
  0
LINE
  8
3
  6
CONTINUOUS
 62
     7
  5
78A
 10
-929.9515
 20
33.711833
 30
0.0
 11
-929.9515
 21
33.945167
 31
0.0
  0
LINE
  8
3
  6
CONTINUOUS
 62
     7
  5
78B
 10
-929.9515
 20
37.209167
 30
0.0
 11
-929.9515
 21
37.4425
 31
0.0
  0
LINE
  8
3
  6
CONTINUOUS
 62
     7
  5
78C
 10
-929.9515
 20
37.4425
 30
0.0
 11
-928.3515
 21
37.4425
 31
0.0
  0
ARC
  8
3
  6
CONTINUOUS
 62
     7
  5
78D
 10
-928.918405
 20
35.577379
 30
0.0
 40
0.099969
 50
270.0
 51
90.0
210
0.0
220
0.0
230
1.0
  0
ARC
  8
3
  6
CONTINUOUS
 62
     7
  5
78E
 10
-929.385259
 20
35.577379
 30
0.0
 40
0.099969
 50
90.0
 51
270.0
210
0.0
220
0.0
230
1.0
  0
POINT
  8
3
  6
CONTINUOUS
 62
     7
  5
78F
 10
-929.1515
 20
35.577167
 30
0.0
  0
ARC
  8
3
  6
DASHED
 62
     7
  5
790
 10
-929.151832
 20
35.577379
 30
0.0
 40
0.191679
 50
211.528989
 51
328.549178
210
0.0
220
0.0
230
1.0
  0
ARC
  8
3
  6
CONTINUOUS
 62
     7
  5
791
 10
-929.151832
 20
35.577379
 30
0.0
 40
0.191679
 50
328.549178
 51
31.578167
210
0.0
220
0.0
230
1.0
  0
ARC
  8
3
  6
DASHED
 62
     7
  5
792
 10
-929.151832
 20
35.577379
 30
0.0
 40
0.191679
 50
31.578167
 51
148.549178
210
0.0
220
0.0
230
1.0
  0
ARC
  8
3
  6
CONTINUOUS
 62
     7
  5
793
 10
-929.151832
 20
35.577379
 30
0.0
 40
0.191679
 50
148.549178
 51
211.578167
210
0.0
220
0.0
230
1.0
  0
LINE
  8
3
  6
CONTINUOUS
 62
     7
  5
794
 10
-929.3855
 20
35.677167
 30
0.0
 11
-928.918167
 21
35.677167
 31
0.0
  0
LINE
  8
3
  6
CONTINUOUS
 62
     7
  5
795
 10
-929.3855
 20
35.477167
 30
0.0
 11
-928.918167
 21
35.477167
 31
0.0
  0
TEXT
  8
3
  6
CONTINUOUS
 62
     2
  5
796
 10
-812.51975
 20
51.299667
 30
0.0
 40
1.064
  1
The post offset dimensions are given to the center of the traffic face of
 41
0.950031
  7
MONOTXT
 72
     2
 11
-753.324833
 21
51.831667
 31
0.0
210
0.0
220
0.0
230
1.0
 73
     2
  0
TEXT
  8
3
  6
CONTINUOUS
 62
     2
  5
797
 10
-812.669
 20
49.058
 30
0.0
 40
1.064
  1
the blockouts; except at the first post, where the dimension is to the center
 41
0.950031
  7
MONOTXT
 72
     2
 11
-751.668833
 21
49.59
 31
0.0
210
0.0
220
0.0
230
1.0
 73
     2
  0
TEXT
  8
3
  6
CONTINUOUS
 62
   140
  5
798
 10
-785.914583
 20
63.975667
 30
0.0
 40
2.128
  1
NOTES
 41
0.949992
  7
MONOTXT
 72
     2
 11
-776.379917
 21
65.039667
 31
0.0
210
0.0
220
0.0
230
1.0
 73
     2
  0
TEXT
  8
3
  6
CONTINUOUS
 62
     2
  5
799
 10
-812.605417
 20
56.729417
 30
0.0
 40
1.064
  1
All materials used shall meet the applicable requirements of Section 607 of the
 41
0.950031
  7
MONOTXT
 72
     2
 11
-750.498167
 21
57.261417
 31
0.0
210
0.0
220
0.0
230
1.0
 73
     2
  0
TEXT
  8
3
  6
CONTINUOUS
 62
     2
  5
79A
 10
-812.409333
 20
36.79725
 30
0.0
 40
1.064
  1
When a wood block is used adjacent to a wood post, the block shall be nailed
 41
0.950031
  7
MONOTXT
 72
     2
 11
-750.32
 21
37.32925
 31
0.0
210
0.0
220
0.0
230
1.0
 73
     2
  0
TEXT
  8
3
  6
CONTINUOUS
 62
     2
  5
79B
 10
-812.359
 20
31.855583
 30
0.0
 40
1.064
  1
into the center of the top or bottom of the block.
 41
0.950031
  7
MONOTXT
 72
     2
 11
-771.444917
 21
32.387583
 31
0.0
210
0.0
220
0.0
230
1.0
 73
     2
  0
TEXT
  8
3
  6
CONTINUOUS
 62
     2
  5
79C
 10
-812.47775
 20
34.393167
 30
0.0
 40
1.064
  1
to the post with a galvanized steel 10d common nail. The nail is to be driven
 41
0.950031
  7
MONOTXT
 72
     2
 11
-751.915333
 21
34.925167
 31
0.0
210
0.0
220
0.0
230
1.0
 73
     2
  0
INSERT
  8
3
  6
CONTINUOUS
 62
     2
  5
7A8
  2
*D2
 10
-949.13075
 20
37.4875
 30
0.0
 70
     0
 71
     0
  0
INSERT
  8
1
  6
CONTINUOUS
 62
   140
  5
7B6
  2
TRANS
 10
-1006.45725
 20
140.467333
 30
0.0
 41
8.0
 42
8.0
210
0.0
220
0.0
230
1.0
  0
TEXT
  8
1
  6
CONTINUOUS
 62
     2
  5
7B7
 10
-774.36675
 20
-20.9195
 30
0.0
 40
1.666667
  1
( SHEET 1 OF 2 )
  7
txt
 72
     4
 11
-761.414083
 21
-20.086167
 31
0.0
210
0.0
220
0.0
230
1.0
  0
TEXT
  8
3
  6
CONTINUOUS
 62
     7
  5
7B8
 10
-826.863333
 20
12.329333
 30
0.0
 40
1.064
  1
Measured
  7
MONOTXT
 11
-826.863333
 21
12.861333
 31
0.0
210
0.0
220
0.0
230
1.0
 73
     2
  0
TEXT
  8
3
  6
CONTINUOUS
 62
     7
  5
7B9
 10
-826.863333
 20
10.365333
 30
0.0
 40
1.064
  1
at back
  7
MONOTXT
 11
-826.863333
 21
10.897333
 31
0.0
210
0.0
220
0.0
230
1.0
 73
     2
  0
POLYLINE
  8
3
  6
CONTINUOUS
 62
     2
  5
7BA
 66
     1
 10
0.0
 20
0.0
 30
0.0
  0
VERTEX
  8
3
  6
CONTINUOUS
 62
     2
  5
7BB
 10
-948.296833
 20
-0.741833
 30
0.0
  0
VERTEX
  8
3
  6
CONTINUOUS
 62
     2
  5
7BC
 10
-949.1515
 20
-0.3165
 30
0.0
  0
VERTEX
  8
3
  6
CONTINUOUS
 62
     2
  5
7BD
 10
-948.296833
 20
0.1095
 30
0.0
  0
SEQEND
  8
3
  6
CONTINUOUS
 62
     2
  5
7BE
  0
LINE
  8
3
  6
CONTINUOUS
 62
     2
  5
7BF
 10
-949.1515
 20
5.248917
 30
0.0
 11
-869.152167
 21
5.248917
 31
0.0
  0
POLYLINE
  8
3
  6
CONTINUOUS
 62
     2
  5
7C0
 66
     1
 10
0.0
 20
0.0
 30
0.0
  0
VERTEX
  8
3
  6
CONTINUOUS
 62
     2
  5
7C1
 10
-948.296833
 20
4.823583
 30
0.0
  0
VERTEX
  8
3
  6
CONTINUOUS
 62
     2
  5
7C2
 10
-949.1515
 20
5.248917
 30
0.0
  0
VERTEX
  8
3
  6
CONTINUOUS
 62
     2
  5
7C3
 10
-948.296833
 20
5.674917
 30
0.0
  0
SEQEND
  8
3
  6
CONTINUOUS
 62
     2
  5
7C4
  0
POLYLINE
  8
3
  6
CONTINUOUS
 62
     2
  5
7C5
 66
     1
 10
0.0
 20
0.0
 30
0.0
  0
VERTEX
  8
3
  6
CONTINUOUS
 62
     2
  5
7C6
 10
-870.006167
 20
4.823583
 30
0.0
  0
VERTEX
  8
3
  6
CONTINUOUS
 62
     2
  5
7C7
 10
-869.152167
 20
5.248917
 30
0.0
  0
VERTEX
  8
3
  6
CONTINUOUS
 62
     2
  5
7C8
 10
-870.006167
 20
5.674917
 30
0.0
  0
SEQEND
  8
3
  6
CONTINUOUS
 62
     2
  5
7C9
  0
TEXT
  8
3
  6
CONTINUOUS
 62
     7
  5
7CA
 10
-919.77925
 20
3.529
 30
0.0
 40
1.064
  1
 Length Of Need For Guardrail
  7
MONOTXT
210
0.0
220
0.0
230
1.0
  0
TEXT
  8
3
  6
CONTINUOUS
 62
     2
  5
7CB
 10
-976.540083
 20
43.037667
 30
0.0
 40
1.1
  1
Post and wood blockout
  7
MONOTXT
 11
-976.540083
 21
43.587667
 31
0.0
210
0.0
220
0.0
230
1.0
 73
     2
  0
TEXT
  8
3
  6
CONTINUOUS
 62
     2
  5
7CC
 10
-976.540083
 20
41.31275
 30
0.0
 40
1.1
  1
as per Stand. Detail Sheet GR2
  7
MONOTXT
 11
-976.540083
 21
41.86275
 31
0.0
210
0.0
220
0.0
230
1.0
 73
     2
  0
LINE
  8
3
  6
CONTINUOUS
 62
     7
  5
7CD
 10
-828.118167
 20
30.5665
 30
0.0
 11
-828.118167
 21
29.977833
 31
0.0
  0
LINE
  8
3
  6
CONTINUOUS
 62
     2
  5
7CE
 10
-869.152167
 20
42.566833
 30
0.0
 11
-869.152167
 21
22.425667
 31
0.0
  0
LINE
  8
3
  6
CONTINUOUS
 62
     2
  5
7CF
 10
-869.152167
 20
21.699917
 30
0.0
 11
-869.152167
 21
20.550667
 31
0.0
  0
LINE
  8
3
  6
CONTINUOUS
 62
     2
  5
7D0
 10
-869.152167
 20
19.945833
 30
0.0
 11
-869.152167
 21
17.603167
 31
0.0
  0
POLYLINE
  8
3
  6
CONTINUOUS
 62
     2
  5
7D1
 66
     1
 10
0.0
 20
0.0
 30
0.0
  0
VERTEX
  8
3
  6
CONTINUOUS
 62
     2
  5
7D2
 10
-870.006167
 20
41.083
 30
0.0
  0
VERTEX
  8
3
  6
CONTINUOUS
 62
     2
  5
7D3
 10
-869.152167
 20
41.508333
 30
0.0
  0
VERTEX
  8
3
  6
CONTINUOUS
 62
     2
  5
7D4
 10
-870.006167
 20
41.934333
 30
0.0
  0
SEQEND
  8
3
  6
CONTINUOUS
 62
     2
  5
7D5
  0
LINE
  8
3
  6
CONTINUOUS
 62
     2
  5
7D6
 10
-909.1515
 20
41.508333
 30
0.0
 11
-869.152167
 21
41.508333
 31
0.0
  0
TEXT
  8
3
  6
CONTINUOUS
 62
     7
  5
7D7
 10
-906.968417
 20
42.117667
 30
0.0
 40
1.064
  1
 Length Of Need Terminal Point
  7
MONOTXT
210
0.0
220
0.0
230
1.0
  0
TEXT
  8
3
  6
CONTINUOUS
 62
     7
  5
7D8
 10
-906.001583
 20
39.81925
 30
0.0
 40
1.064
  1
As Shown In The Plans
  7
MONOTXT
210
0.0
220
0.0
230
1.0
  0
LINE
  8
3
  6
CONTINUOUS
 62
     2
  5
7D9
 10
-1000.626167
 20
74.954167
 30
0.0
 11
-1000.626167
 21
77.1315
 31
0.0
  0
INSERT
  8
3
  6
CONTINUOUS
 62
     2
  5
7E2
  2
DIMARO
 10
-820.52925
 20
110.724583
 30
0.0
 41
15.248503
 42
15.248503
 50
70.000004
210
0.0
220
0.0
230
1.0
  0
INSERT
  8
3
  6
CONTINUOUS
 62
     2
  5
7E3
  2
ARWHD1
 10
-859.605667
 20
81.446917
 30
0.0
 41
152.485618
 42
152.485618
 50
83.446209
210
0.0
220
0.0
230
1.0
  0
LINE
  8
3
  6
CONTINUOUS
 62
     7
  5
7E4
 10
-948.094083
 20
80.83075
 30
0.0
 11
-1000.626167
 21
80.83075
 31
0.0
  0
LINE
  8
3
  6
CONTINUOUS
 62
     7
  5
7E5
 10
-948.094083
 20
81.625667
 30
0.0
 11
-1000.04575
 21
81.625667
 31
0.0
  0
LINE
  8
3
  6
HIDDEN
 62
   110
  5
7E6
 10
-948.094417
 20
92.214417
 30
0.0
 11
-1000.626167
 21
92.214417
 31
0.0
  0
LINE
  8
3
  6
CONTINUOUS
 62
     7
  5
7E7
 10
-955.702667
 20
81.625667
 30
0.0
 11
-802.433417
 21
81.625667
 31
0.0
  0
LINE
  8
3
  6
CONTINUOUS
 62
     2
  5
7E8
 10
-905.8525
 20
89.766917
 30
0.0
 11
-907.847833
 21
89.766917
 31
0.0
  0
LINE
  8
3
  6
CONTINUOUS
 62
     2
  5
7E9
 10
-780.276
 20
94.542833
 30
0.0
 11
-780.276
 21
110.235
 31
0.0
  0
INSERT
  8
3
  6
CONTINUOUS
 62
     2
  5
7EA
  2
ARWHD1
 10
-780.276
 20
110.235
 30
0.0
 41
152.485546
 42
152.485546
 50
90.0
210
0.0
220
0.0
230
1.0
  0
POINT
  8
3
  6
CONTINUOUS
 62
   241
  5
7EB
 10
-927.946583
 20
81.889
 30
0.0
  0
POINT
  8
3
  6
CONTINUOUS
 62
   241
  5
7EC
 10
-908.124
 20
82.286167
 30
0.0
  0
POINT
  8
3
  6
CONTINUOUS
 62
   241
  5
7ED
 10
-894.936917
 20
82.68325
 30
0.0
  0
POINT
  8
3
  6
CONTINUOUS
 62
   241
  5
7EE
 10
-881.779
 20
83.744167
 30
0.0
  0
POINT
  8
3
  6
CONTINUOUS
 62
   241
  5
7EF
 10
-868.65875
 20
85.332583
 30
0.0
  0
POINT
  8
3
  6
CONTINUOUS
 62
   241
  5
7F0
 10
-849.115583
 20
88.242583
 30
0.0
  0
ARC
  8
3
  6
CONTINUOUS
 62
   241
  5
7F1
 10
-975.695247
 20
2960.464426
 30
0.0
 40
2878.971518
 50
270.549311
 51
271.344892
210
0.0
220
0.0
230
1.0
  0
ARC
  8
3
  6
CONTINUOUS
 62
   241
  5
7F2
 10
-909.416631
 20
344.365974
 30
0.0
 40
262.083174
 50
270.282614
 51
276.053333
210
0.0
220
0.0
230
1.0
  0
ARC
  8
3
  6
CONTINUOUS
 62
   241
  5
7F3
 10
-947.723885
 20
683.429933
 30
0.0
 40
603.300759
 50
276.275369
 51
279.407119
210
0.0
220
0.0
230
1.0
  0
ARC
  8
3
  6
CONTINUOUS
 62
   241
  5
7F4
 10
-860.369927
 20
155.770556
 30
0.0
 40
68.459578
 50
279.462322
 51
296.797286
210
0.0
220
0.0
230
1.0
  0
ARC
  8
3
  6
CONTINUOUS
 62
   241
  5
7F5
 10
-975.695247
 20
2960.464426
 30
0.0
 40
2879.765713
 50
270.549311
 51
271.344892
210
0.0
220
0.0
230
1.0
  0
ARC
  8
3
  6
CONTINUOUS
 62
   241
  5
7F6
 10
-909.416631
 20
344.365974
 30
0.0
 40
262.877368
 50
270.282614
 51
276.053333
210
0.0
220
0.0
230
1.0
  0
ARC
  8
3
  6
CONTINUOUS
 62
   241
  5
7F7
 10
-947.723885
 20
683.429933
 30
0.0
 40
604.094953
 50
276.275369
 51
279.407119
210
0.0
220
0.0
230
1.0
  0
ARC
  8
3
  6
CONTINUOUS
 62
   241
  5
7F8
 10
-860.369927
 20
155.770556
 30
0.0
 40
69.253773
 50
279.462322
 51
296.797286
210
0.0
220
0.0
230
1.0
  0
LINE
  8
3
  6
CONTINUOUS
 62
     7
  5
7F9
 10
-828.040083
 20
95.406417
 30
0.0
 11
-830.623167
 21
94.17675
 31
0.0
  0
LINE
  8
3
  6
CONTINUOUS
 62
     7
  5
7FA
 10
-831.7795
 20
95.739833
 30
0.0
 11
-832.297917
 21
96.153
 31
0.0
  0
POLYLINE
  8
3
  6
CONTINUOUS
 62
     7
  5
7FB
 66
     1
 10
0.0
 20
0.0
 30
0.0
210
0.0
220
0.0
230
1.0
  0
VERTEX
  8
3
  6
CONTINUOUS
 62
     7
  5
7FC
 10
-833.314004
 20
94.839301
 30
0.0
 42
0.04665
  0
VERTEX
  8
3
  6
CONTINUOUS
 62
     7
  5
7FD
 10
-833.319958
 20
94.840727
 30
0.0
 42
0.043701
  0
VERTEX
  8
3
  6
CONTINUOUS
 62
     7
  5
7FE
 10
-833.326277
 20
94.841064
 30
0.0
 42
0.043701
  0
SEQEND
  8
3
  6
CONTINUOUS
 62
     7
  5
7FF
  0
POLYLINE
  8
3
  6
CONTINUOUS
 62
     7
  5
800
 66
     1
 10
0.0
 20
0.0
 30
0.0
210
0.0
220
0.0
230
1.0
  0
VERTEX
  8
3
  6
CONTINUOUS
 62
     7
  5
801
 10
-833.358252
 20
94.829609
 30
0.0
 42
0.074786
  0
VERTEX
  8
3
  6
CONTINUOUS
 62
     7
  5
802
 10
-833.411051
 20
94.78137
 30
0.0
 42
0.034154
  0
VERTEX
  8
3
  6
CONTINUOUS
 62
     7
  5
803
 10
-833.473171
 20
94.697232
 30
0.0
 42
0.020034
  0
VERTEX
  8
3
  6
CONTINUOUS
 62
     7
  5
804
 10
-833.542249
 20
94.580398
 30
0.0
 42
0.013876
  0
VERTEX
  8
3
  6
CONTINUOUS
 62
     7
  5
805
 10
-833.615657
 20
94.435312
 30
0.0
 42
0.010827
  0
VERTEX
  8
3
  6
CONTINUOUS
 62
     7
  5
806
 10
-833.690603
 20
94.267494
 30
0.0
 42
0.009282
  0
VERTEX
  8
3
  6
CONTINUOUS
 62
     7
  5
807
 10
-833.764233
 20
94.083331
 30
0.0
 42
0.008631
  0
VERTEX
  8
3
  6
CONTINUOUS
 62
     7
  5
808
 10
-833.833748
 20
93.889828
 30
0.0
 42
0.008657
  0
VERTEX
  8
3
  6
CONTINUOUS
 62
     7
  5
809
 10
-833.896501
 20
93.694349
 30
0.0
 42
0.009368
  0
VERTEX
  8
3
  6
CONTINUOUS
 62
     7
  5
80A
 10
-833.950105
 20
93.504332
 30
0.0
 42
0.011004
  0
VERTEX
  8
3
  6
CONTINUOUS
 62
     7
  5
80B
 10
-833.992521
 20
93.327005
 30
0.0
 42
0.014222
  0
VERTEX
  8
3
  6
CONTINUOUS
 62
     7
  5
80C
 10
-834.022135
 20
93.169117
 30
0.0
 42
0.020763
  0
VERTEX
  8
3
  6
CONTINUOUS
 62
     7
  5
80D
 10
-834.03782
 20
93.036675
 30
0.0
 42
0.035984
  0
VERTEX
  8
3
  6
CONTINUOUS
 62
     7
  5
80E
 10
-834.038979
 20
92.934718
 30
0.0
 42
0.080717
  0
VERTEX
  8
3
  6
CONTINUOUS
 62
     7
  5
80F
 10
-834.025568
 20
92.867125
 30
0.0
 42
0.215064
  0
VERTEX
  8
3
  6
CONTINUOUS
 62
     7
  5
810
 10
-833.998097
 20
92.836468
 30
0.0
 42
0.215064
  0
SEQEND
  8
3
  6
CONTINUOUS
 62
     7
  5
811
  0
LINE
  8
3
  6
CONTINUOUS
 62
     7
  5
812
 10
-829.765417
 20
98.36675
 30
0.0
 11
-833.523417
 21
93.4585
 31
0.0
  0
LINE
  8
3
  6
CONTINUOUS
 62
     7
  5
813
 10
-833.504167
 20
93.4745
 30
0.0
 11
-833.977417
 21
92.861583
 31
0.0
  0
LINE
  8
3
  6
CONTINUOUS
 62
     7
  5
814
 10
-833.977417
 20
92.8265
 30
0.0
 11
-834.746583
 21
92.477083
 31
0.0
  0
LINE
  8
3
  6
CONTINUOUS
 62
     7
  5
815
 10
-834.743167
 20
92.483667
 30
0.0
 11
-834.679583
 21
92.334
 31
0.0
  0
POLYLINE
  8
3
  6
CONTINUOUS
 62
     7
  5
816
 66
     1
 10
0.0
 20
0.0
 30
0.0
 70
     1
  0
VERTEX
  8
3
  6
CONTINUOUS
 62
     7
  5
817
 10
-834.361917
 20
92.651667
 30
0.0
  0
VERTEX
  8
3
  6
CONTINUOUS
 62
     7
  5
818
 10
-834.371917
 20
92.671
 30
0.0
  0
VERTEX
  8
3
  6
CONTINUOUS
 62
     7
  5
819
 10
-834.575
 20
92.581583
 30
0.0
  0
VERTEX
  8
3
  6
CONTINUOUS
 62
     7
  5
81A
 10
-834.565833
 20
92.563
 30
0.0
  0
SEQEND
  8
3
  6
CONTINUOUS
 62
     7
  5
81B
  0
LINE
  8
3
  6
CONTINUOUS
 62
     7
  5
81C
 10
-834.4255
 20
92.702583
 30
0.0
 11
-834.561833
 21
92.642417
 31
0.0
  0
LINE
  8
3
  6
CONTINUOUS
 62
     7
  5
81D
 10
-834.534083
 20
92.68075
 30
0.0
 11
-834.504833
 21
92.61325
 31
0.0
  0
LINE
  8
3
  6
CONTINUOUS
 62
     7
  5
81E
 10
-834.473083
 20
92.71525
 30
0.0
 11
-834.444667
 21
92.642417
 31
0.0
  0
POLYLINE
  8
3
  6
CONTINUOUS
 62
     7
  5
81F
 66
     1
 10
0.0
 20
0.0
 30
0.0
210
0.0
220
0.0
230
1.0
  0
VERTEX
  8
3
  6
CONTINUOUS
 62
     7
  5
820
 10
-834.46048
 20
92.686933
 30
0.0
 42
0.068662
  0
VERTEX
  8
3
  6
CONTINUOUS
 62
     7
  5
821
 10
-834.46314
 20
92.691169
 30
0.0
 42
0.064008
  0
VERTEX
  8
3
  6
CONTINUOUS
 62
     7
  5
822
 10
-834.466957
 20
92.694677
 30
0.0
 42
0.056861
  0
VERTEX
  8
3
  6
CONTINUOUS
 62
     7
  5
823
 10
-834.471784
 20
92.697321
 30
0.0
 42
0.049595
  0
VERTEX
  8
3
  6
CONTINUOUS
 62
     7
  5
824
 10
-834.477435
 20
92.699
 30
0.0
 42
0.043551
  0
VERTEX
  8
3
  6
CONTINUOUS
 62
     7
  5
825
 10
-834.483693
 20
92.69965
 30
0.0
 42
0.039135
  0
VERTEX
  8
3
  6
CONTINUOUS
 62
     7
  5
826
 10
-834.490319
 20
92.699245
 30
0.0
 42
0.036313
  0
VERTEX
  8
3
  6
CONTINUOUS
 62
     7
  5
827
 10
-834.497056
 20
92.697801
 30
0.0
 42
0.034948
  0
VERTEX
  8
3
  6
CONTINUOUS
 62
     7
  5
828
 10
-834.503647
 20
92.695374
 30
0.0
 42
0.034948
  0
VERTEX
  8
3
  6
CONTINUOUS
 62
     7
  5
829
 10
-834.509838
 20
92.692057
 30
0.0
 42
0.036313
  0
VERTEX
  8
3
  6
CONTINUOUS
 62
     7
  5
82A
 10
-834.51539
 20
92.687977
 30
0.0
 42
0.039135
  0
VERTEX
  8
3
  6
CONTINUOUS
 62
     7
  5
82B
 10
-834.520092
 20
92.683292
 30
0.0
 42
0.043551
  0
VERTEX
  8
3
  6
CONTINUOUS
 62
     7
  5
82C
 10
-834.523761
 20
92.67818
 30
0.0
 42
0.049595
  0
VERTEX
  8
3
  6
CONTINUOUS
 62
     7
  5
82D
 10
-834.526257
 20
92.672839
 30
0.0
 42
0.056861
  0
VERTEX
  8
3
  6
CONTINUOUS
 62
     7
  5
82E
 10
-834.527484
 20
92.667474
 30
0.0
 42
0.064008
  0
VERTEX
  8
3
  6
CONTINUOUS
 62
     7
  5
82F
 10
-834.527396
 20
92.662291
 30
0.0
 42
0.068662
  0
VERTEX
  8
3
  6
CONTINUOUS
 62
     7
  5
830
 10
-834.525994
 20
92.65749
 30
0.0
 42
0.068662
  0
SEQEND
  8
3
  6
CONTINUOUS
 62
     7
  5
831
  0
POLYLINE
  8
3
  6
CONTINUOUS
 62
     7
  5
832
 66
     1
 10
0.0
 20
0.0
 30
0.0
210
0.0
220
0.0
230
1.0
  0
VERTEX
  8
3
  6
CONTINUOUS
 62
     7
  5
833
 10
-834.425795
 20
92.702521
 30
0.0
 42
0.036814
  0
VERTEX
  8
3
  6
CONTINUOUS
 62
     7
  5
834
 10
-834.428169
 20
92.706911
 30
0.0
 42
0.038084
  0
VERTEX
  8
3
  6
CONTINUOUS
 62
     7
  5
835
 10
-834.431117
 20
92.710832
 30
0.0
 42
0.040677
  0
VERTEX
  8
3
  6
CONTINUOUS
 62
     7
  5
836
 10
-834.434527
 20
92.714134
 30
0.0
 42
0.044642
  0
VERTEX
  8
3
  6
CONTINUOUS
 62
     7
  5
837
 10
-834.438269
 20
92.716691
 30
0.0
 42
0.049896
  0
VERTEX
  8
3
  6
CONTINUOUS
 62
     7
  5
838
 10
-834.442197
 20
92.718403
 30
0.0
 42
0.055965
  0
VERTEX
  8
3
  6
CONTINUOUS
 62
     7
  5
839
 10
-834.446162
 20
92.719206
 30
0.0
 42
0.061687
  0
VERTEX
  8
3
  6
CONTINUOUS
 62
     7
  5
83A
 10
-834.45001
 20
92.719068
 30
0.0
 42
0.06529
  0
VERTEX
  8
3
  6
CONTINUOUS
 62
     7
  5
83B
 10
-834.453594
 20
92.717994
 30
0.0
 42
0.06529
  0
VERTEX
  8
3
  6
CONTINUOUS
 62
     7
  5
83C
 10
-834.456777
 20
92.716027
 30
0.0
 42
0.061687
  0
VERTEX
  8
3
  6
CONTINUOUS
 62
     7
  5
83D
 10
-834.459435
 20
92.713241
 30
0.0
 42
0.055965
  0
VERTEX
  8
3
  6
CONTINUOUS
 62
     7
  5
83E
 10
-834.461467
 20
92.709743
 30
0.0
 42
0.049896
  0
VERTEX
  8
3
  6
CONTINUOUS
 62
     7
  5
83F
 10
-834.462794
 20
92.705668
 30
0.0
 42
0.044642
  0
VERTEX
  8
3
  6
CONTINUOUS
 62
     7
  5
840
 10
-834.463366
 20
92.701173
 30
0.0
 42
0.040677
  0
VERTEX
  8
3
  6
CONTINUOUS
 62
     7
  5
841
 10
-834.463161
 20
92.69643
 30
0.0
 42
0.038084
  0
VERTEX
  8
3
  6
CONTINUOUS
 62
     7
  5
842
 10
-834.462186
 20
92.691622
 30
0.0
 42
0.036814
  0
VERTEX
  8
3
  6
CONTINUOUS
 62
     7
  5
843
 10
-834.46048
 20
92.686933
 30
0.0
 42
0.036814
  0
SEQEND
  8
3
  6
CONTINUOUS
 62
     7
  5
844
  0
POLYLINE
  8
3
  6
CONTINUOUS
 62
     7
  5
845
 66
     1
 10
0.0
 20
0.0
 30
0.0
210
0.0
220
0.0
230
1.0
  0
VERTEX
  8
3
  6
CONTINUOUS
 62
     7
  5
846
 10
-834.525994
 20
92.65749
 30
0.0
 42
0.036814
  0
VERTEX
  8
3
  6
CONTINUOUS
 62
     7
  5
847
 10
-834.528367
 20
92.661879
 30
0.0
 42
0.038084
  0
VERTEX
  8
3
  6
CONTINUOUS
 62
     7
  5
848
 10
-834.531316
 20
92.6658
 30
0.0
 42
0.040677
  0
VERTEX
  8
3
  6
CONTINUOUS
 62
     7
  5
849
 10
-834.534726
 20
92.669102
 30
0.0
 42
0.044642
  0
VERTEX
  8
3
  6
CONTINUOUS
 62
     7
  5
84A
 10
-834.538468
 20
92.671659
 30
0.0
 42
0.049896
  0
VERTEX
  8
3
  6
CONTINUOUS
 62
     7
  5
84B
 10
-834.542396
 20
92.673371
 30
0.0
 42
0.055965
  0
VERTEX
  8
3
  6
CONTINUOUS
 62
     7
  5
84C
 10
-834.546361
 20
92.674174
 30
0.0
 42
0.061687
  0
VERTEX
  8
3
  6
CONTINUOUS
 62
     7
  5
84D
 10
-834.550209
 20
92.674036
 30
0.0
 42
0.06529
  0
VERTEX
  8
3
  6
CONTINUOUS
 62
     7
  5
84E
 10
-834.553793
 20
92.672962
 30
0.0
 42
0.06529
  0
VERTEX
  8
3
  6
CONTINUOUS
 62
     7
  5
84F
 10
-834.556975
 20
92.670995
 30
0.0
 42
0.061687
  0
VERTEX
  8
3
  6
CONTINUOUS
 62
     7
  5
850
 10
-834.559634
 20
92.668209
 30
0.0
 42
0.055965
  0
VERTEX
  8
3
  6
CONTINUOUS
 62
     7
  5
851
 10
-834.561666
 20
92.664711
 30
0.0
 42
0.049896
  0
VERTEX
  8
3
  6
CONTINUOUS
 62
     7
  5
852
 10
-834.562993
 20
92.660637
 30
0.0
 42
0.044642
  0
VERTEX
  8
3
  6
CONTINUOUS
 62
     7
  5
853
 10
-834.563565
 20
92.656142
 30
0.0
 42
0.040677
  0
VERTEX
  8
3
  6
CONTINUOUS
 62
     7
  5
854
 10
-834.56336
 20
92.651399
 30
0.0
 42
0.038084
  0
VERTEX
  8
3
  6
CONTINUOUS
 62
     7
  5
855
 10
-834.562385
 20
92.646591
 30
0.0
 42
0.036814
  0
VERTEX
  8
3
  6
CONTINUOUS
 62
     7
  5
856
 10
-834.560679
 20
92.641902
 30
0.0
 42
0.036814
  0
SEQEND
  8
3
  6
CONTINUOUS
 62
     7
  5
857
  0
POLYLINE
  8
3
  6
CONTINUOUS
 62
     7
  5
858
 66
     1
 10
0.0
 20
0.0
 30
0.0
  0
VERTEX
  8
3
  6
CONTINUOUS
 62
     7
  5
859
 10
-834.4255
 20
92.702583
 30
0.0
  0
VERTEX
  8
3
  6
CONTINUOUS
 62
     7
  5
85A
 10
-834.406833
 20
92.658333
 30
0.0
  0
VERTEX
  8
3
  6
CONTINUOUS
 62
     7
  5
85B
 10
-834.539917
 20
92.5975
 30
0.0
  0
VERTEX
  8
3
  6
CONTINUOUS
 62
     7
  5
85C
 10
-834.561833
 20
92.649167
 30
0.0
  0
SEQEND
  8
3
  6
CONTINUOUS
 62
     7
  5
85D
  0
LINE
  8
3
  6
CONTINUOUS
 62
     7
  5
85E
 10
-834.555833
 20
92.667583
 30
0.0
 11
-834.447917
 21
92.7185
 31
0.0
  0
LINE
  8
3
  6
CONTINUOUS
 62
     7
  5
85F
 10
-833.743083
 20
93.89725
 30
0.0
 11
-833.733167
 21
93.900583
 31
0.0
  0
LINE
  8
3
  6
CONTINUOUS
 62
     7
  5
860
 10
-832.923083
 20
94.291083
 30
0.0
 11
-832.939
 21
94.285083
 31
0.0
  0
LINE
  8
3
  6
CONTINUOUS
 62
     7
  5
861
 10
-828.189667
 20
95.438167
 30
0.0
 11
-826.544917
 21
95.096583
 31
0.0
  0
ARC
  8
3
  6
CONTINUOUS
 62
     7
  5
862
 10
-827.680343
 20
97.723247
 30
0.0
 40
2.767886
 50
334.763789
 51
137.716703
210
0.0
220
0.0
230
1.0
  0
ARC
  8
3
  6
CONTINUOUS
 62
     7
  5
863
 10
-827.680343
 20
97.723247
 30
0.0
 40
2.767886
 50
315.496231
 51
315.822725
210
0.0
220
0.0
230
1.0
  0
LINE
  8
3
  6
DASHED
 62
     7
  5
864
 10
-830.598167
 20
93.283833
 30
0.0
 11
-831.792
 21
93.51
 31
0.0
  0
ARC
  8
3
  6
CONTINUOUS
 62
     7
  5
865
 10
-828.308407
 20
98.113616
 30
0.0
 40
3.499204
 50
302.161867
 51
333.246086
210
0.0
220
0.0
230
1.0
  0
LINE
  8
3
  6
CONTINUOUS
 62
     7
  5
866
 10
-829.625917
 20
99.716833
 30
0.0
 11
-833.393
 21
94.799417
 31
0.0
  0
LINE
  8
3
  6
CONTINUOUS
 62
     7
  5
867
 10
-829.794
 20
98.293917
 30
0.0
 11
-829.746417
 21
98.862333
 31
0.0
  0
LINE
  8
3
  6
CONTINUOUS
 62
     7
  5
868
 10
-829.73975
 20
98.910083
 30
0.0
 11
-829.689333
 21
99.587167
 31
0.0
  0
POLYLINE
  8
3
  6
CONTINUOUS
 62
     7
  5
869
 66
     1
 10
0.0
 20
0.0
 30
0.0
  0
VERTEX
  8
3
  6
CONTINUOUS
 62
     7
  5
86A
 10
-829.73975
 20
97.039083
 30
0.0
  0
VERTEX
  8
3
  6
CONTINUOUS
 62
     7
  5
86B
 10
-829.5525
 20
97.125083
 30
0.0
  0
VERTEX
  8
3
  6
CONTINUOUS
 62
     7
  5
86C
 10
-828.704667
 20
95.234917
 30
0.0
  0
SEQEND
  8
3
  6
CONTINUOUS
 62
     7
  5
86D
  0
POLYLINE
  8
3
  6
CONTINUOUS
 62
     7
  5
86E
 66
     1
 10
0.0
 20
0.0
 30
0.0
  0
VERTEX
  8
3
  6
CONTINUOUS
 62
     7
  5
86F
 10
-829.209583
 20
95.94625
 30
0.0
  0
VERTEX
  8
3
  6
CONTINUOUS
 62
     7
  5
870
 10
-829.707917
 20
97.051417
 30
0.0
  0
VERTEX
  8
3
  6
CONTINUOUS
 62
     7
  5
871
 10
-831.210917
 20
96.378583
 30
0.0
  0
VERTEX
  8
3
  6
CONTINUOUS
 62
     7
  5
872
 10
-830.359167
 20
94.47575
 30
0.0
  0
VERTEX
  8
3
  6
CONTINUOUS
 62
     7
  5
873
 10
-828.8535
 20
95.152167
 30
0.0
  0
VERTEX
  8
3
  6
CONTINUOUS
 62
     7
  5
874
 10
-829.212083
 20
95.955667
 30
0.0
  0
SEQEND
  8
3
  6
CONTINUOUS
 62
     7
  5
875
  0
LINE
  8
3
  6
CONTINUOUS
 62
     7
  5
876
 10
-832.570417
 20
94.697417
 30
0.0
 11
-832.643083
 21
94.665667
 31
0.0
  0
LINE
  8
3
  6
CONTINUOUS
 62
     7
  5
877
 10
-832.846833
 20
94.332833
 30
0.0
 11
-832.859667
 21
94.326083
 31
0.0
  0
LINE
  8
3
  6
DASHED
 62
     7
  5
878
 10
-832.51925
 20
94.500833
 30
0.0
 11
-832.526083
 21
94.497583
 31
0.0
  0
POLYLINE
  8
3
  6
DASHED
 62
     7
  5
879
 66
     1
 10
0.0
 20
0.0
 30
0.0
  0
VERTEX
  8
3
  6
DASHED
 62
     7
  5
87A
 10
-830.886583
 20
95.498167
 30
0.0
  0
VERTEX
  8
3
  6
DASHED
 62
     7
  5
87B
 10
-830.886583
 20
95.498167
 30
0.0
  0
VERTEX
  8
3
  6
DASHED
 62
     7
  5
87C
 10
-830.88325
 20
95.498167
 30
0.0
  0
SEQEND
  8
3
  6
DASHED
 62
     7
  5
87D
  0
LINE
  8
3
  6
CONTINUOUS
 62
     7
  5
87E
 10
-833.774833
 20
94.075333
 30
0.0
 11
-833.860333
 21
94.033667
 31
0.0
  0
LINE
  8
3
  6
DASHED
 62
     7
  5
87F
 10
-832.89475
 20
94.291083
 30
0.0
 11
-833.850417
 21
93.81775
 31
0.0
  0
LINE
  8
3
  6
CONTINUOUS
 62
     7
  5
880
 10
-829.939417
 20
93.569667
 30
0.0
 11
-829.952917
 21
93.563833
 31
0.0
  0
LINE
  8
3
  6
CONTINUOUS
 62
     7
  5
881
 10
-826.677333
 20
95.028417
 30
0.0
 11
-830.58225
 21
93.2745
 31
0.0
  0
LINE
  8
3
  6
CONTINUOUS
 62
     7
  5
882
 10
-828.192333
 20
95.447417
 30
0.0
 11
-828.850833
 21
95.152167
 31
0.0
  0
LINE
  8
3
  6
CONTINUOUS
 62
     7
  5
883
 10
-829.6225
 20
94.806
 30
0.0
 11
-829.638417
 21
94.799417
 31
0.0
  0
LINE
  8
3
  6
CONTINUOUS
 62
     7
  5
884
 10
-833.987333
 20
92.808
 30
0.0
 11
-833.923833
 21
92.658333
 31
0.0
  0
POLYLINE
  8
3
  6
CONTINUOUS
 62
     7
  5
885
 66
     1
 10
0.0
 20
0.0
 30
0.0
210
0.0
220
0.0
230
1.0
  0
VERTEX
  8
3
  6
CONTINUOUS
 62
     7
  5
886
 10
-845.34698
 20
89.135634
 30
0.0
 42
0.01971
  0
VERTEX
  8
3
  6
CONTINUOUS
 62
     7
  5
887
 10
-845.345201
 20
89.132402
 30
0.0
 42
0.019569
  0
VERTEX
  8
3
  6
CONTINUOUS
 62
     7
  5
888
 10
-845.343165
 20
89.129308
 30
0.0
 42
0.019569
  0
SEQEND
  8
3
  6
CONTINUOUS
 62
     7
  5
889
  0
INSERT
  8
3
  6
CONTINUOUS
 62
     7
  5
8B0
  2
TMB6X8
 10
-849.115583
 20
88.242583
 30
0.0
 41
3.812066
 42
3.812066
 50
10.436646
210
0.0
220
0.0
230
1.0
  0
LINE
  8
3
  6
CONTINUOUS
 62
     7
  5
8B1
 10
-869.183
 20
89.517083
 30
0.0
 11
-869.322917
 21
89.498417
 31
0.0
  0
POLYLINE
  8
3
  6
CONTINUOUS
 62
     2
  5
8B2
 66
     1
 10
0.0
 20
0.0
 30
0.0
  0
VERTEX
  8
3
  6
CONTINUOUS
 62
     2
  5
8B3
 10
-869.26575
 20
89.632167
 30
0.0
  0
VERTEX
  8
3
  6
CONTINUOUS
 62
     2
  5
8B4
 10
-869.28775
 20
89.8035
 30
0.0
  0
VERTEX
  8
3
  6
CONTINUOUS
 62
     2
  5
8B5
 10
-869.45325
 20
89.781167
 30
0.0
  0
VERTEX
  8
3
  6
CONTINUOUS
 62
     2
  5
8B6
 10
-869.430667
 20
89.60625
 30
0.0
  0
SEQEND
  8
3
  6
CONTINUOUS
 62
     2
  5
8B7
  0
POLYLINE
  8
3
  6
CONTINUOUS
 62
     2
  5
8B8
 66
     1
 10
0.0
 20
0.0
 30
0.0
  0
VERTEX
  8
3
  6
CONTINUOUS
 62
     2
  5
8B9
 10
-869.192417
 20
89.517083
 30
0.0
  0
VERTEX
  8
3
  6
CONTINUOUS
 62
     2
  5
8BA
 10
-869.20825
 20
89.638167
 30
0.0
  0
VERTEX
  8
3
  6
CONTINUOUS
 62
     2
  5
8BB
 10
-869.48825
 20
89.600417
 30
0.0
  0
VERTEX
  8
3
  6
CONTINUOUS
 62
     2
  5
8BC
 10
-869.47225
 20
89.479333
 30
0.0
  0
SEQEND
  8
3
  6
CONTINUOUS
 62
     2
  5
8BD
  0
LINE
  8
3
  6
CONTINUOUS
 62
     7
  5
8BE
 10
-870.1105
 20
89.390083
 30
0.0
 11
-868.248667
 21
87.50625
 31
0.0
  0
LINE
  8
3
  6
CONTINUOUS
 62
     7
  5
8BF
 10
-868.535167
 20
89.60625
 30
0.0
 11
-869.825083
 21
87.293833
 31
0.0
  0
LINE
  8
3
  6
CONTINUOUS
 62
     7
  5
8C0
 10
-868.248667
 20
87.50625
 30
0.0
 11
-869.53925
 21
85.194083
 31
0.0
  0
LINE
  8
3
  6
CONTINUOUS
 62
     7
  5
8C1
 10
-867.963583
 20
85.410167
 30
0.0
 11
-869.825083
 21
87.293833
 31
0.0
  0
POLYLINE
  8
3
  6
CONTINUOUS
 62
     7
  5
8C2
 66
     1
 10
0.0
 20
0.0
 30
0.0
  0
VERTEX
  8
3
  6
CONTINUOUS
 62
     7
  5
8C3
 10
-868.750917
 20
85.301833
 30
0.0
  0
VERTEX
  8
3
  6
CONTINUOUS
 62
     7
  5
8C4
 10
-868.521917
 20
85.333583
 30
0.0
  0
VERTEX
  8
3
  6
CONTINUOUS
 62
     7
  5
8C5
 10
-867.9635
 20
85.41025
 30
0.0
  0
VERTEX
  8
3
  6
CONTINUOUS
 62
     7
  5
8C6
 10
-868.248667
 20
87.50625
 30
0.0
  0
VERTEX
  8
3
  6
CONTINUOUS
 62
     7
  5
8C7
 10
-869.825083
 20
87.293833
 30
0.0
  0
VERTEX
  8
3
  6
CONTINUOUS
 62
     7
  5
8C8
 10
-869.53925
 20
85.194083
 30
0.0
  0
VERTEX
  8
3
  6
CONTINUOUS
 62
     7
  5
8C9
 10
-868.750917
 20
85.301833
 30
0.0
  0
SEQEND
  8
3
  6
CONTINUOUS
 62
     7
  5
8CA
  0
POLYLINE
  8
3
  6
CONTINUOUS
 62
     7
  5
8CB
 66
     1
 10
0.0
 20
0.0
 30
0.0
  0
VERTEX
  8
3
  6
CONTINUOUS
 62
     7
  5
8CC
 10
-869.037083
 20
87.40175
 30
0.0
  0
VERTEX
  8
3
  6
CONTINUOUS
 62
     7
  5
8CD
 10
-868.808
 20
87.430417
 30
0.0
  0
VERTEX
  8
3
  6
CONTINUOUS
 62
     7
  5
8CE
 10
-868.248667
 20
87.50625
 30
0.0
  0
VERTEX
  8
3
  6
CONTINUOUS
 62
     7
  5
8CF
 10
-868.535167
 20
89.60625
 30
0.0
  0
VERTEX
  8
3
  6
CONTINUOUS
 62
     7
  5
8D0
 10
-870.1105
 20
89.390083
 30
0.0
  0
VERTEX
  8
3
  6
CONTINUOUS
 62
     7
  5
8D1
 10
-869.825083
 20
87.293833
 30
0.0
  0
VERTEX
  8
3
  6
CONTINUOUS
 62
     7
  5
8D2
 10
-869.037083
 20
87.40175
 30
0.0
  0
SEQEND
  8
3
  6
CONTINUOUS
 62
     7
  5
8D3
  0
LINE
  8
3
  6
CONTINUOUS
 62
     7
  5
8D4
 10
-882.457333
 20
87.938417
 30
0.0
 11
-882.597083
 21
87.9225
 31
0.0
  0
POLYLINE
  8
3
  6
CONTINUOUS
 62
     2
  5
8D5
 66
     1
 10
0.0
 20
0.0
 30
0.0
  0
VERTEX
  8
3
  6
CONTINUOUS
 62
     2
  5
8D6
 10
-882.536083
 20
88.052917
 30
0.0
  0
VERTEX
  8
3
  6
CONTINUOUS
 62
     2
  5
8D7
 10
-882.558583
 20
88.22775
 30
0.0
  0
VERTEX
  8
3
  6
CONTINUOUS
 62
     2
  5
8D8
 10
-882.72075
 20
88.208583
 30
0.0
  0
VERTEX
  8
3
  6
CONTINUOUS
 62
     2
  5
8D9
 10
-882.7015
 20
88.03375
 30
0.0
  0
SEQEND
  8
3
  6
CONTINUOUS
 62
     2
  5
8DA
  0
POLYLINE
  8
3
  6
CONTINUOUS
 62
     2
  5
8DB
 66
     1
 10
0.0
 20
0.0
 30
0.0
  0
VERTEX
  8
3
  6
CONTINUOUS
 62
     2
  5
8DC
 10
-882.466583
 20
87.938417
 30
0.0
  0
VERTEX
  8
3
  6
CONTINUOUS
 62
     2
  5
8DD
 10
-882.479083
 20
88.059583
 30
0.0
  0
VERTEX
  8
3
  6
CONTINUOUS
 62
     2
  5
8DE
 10
-882.7585
 20
88.027917
 30
0.0
  0
VERTEX
  8
3
  6
CONTINUOUS
 62
     2
  5
8DF
 10
-882.7465
 20
87.903333
 30
0.0
  0
SEQEND
  8
3
  6
CONTINUOUS
 62
     2
  5
8E0
  0
LINE
  8
3
  6
CONTINUOUS
 62
     7
  5
8E1
 10
-883.388
 20
87.830667
 30
0.0
 11
-881.567167
 21
85.908833
 31
0.0
  0
LINE
  8
3
  6
CONTINUOUS
 62
     7
  5
8E2
 10
-881.80875
 20
88.012
 30
0.0
 11
-883.14625
 21
85.727333
 31
0.0
  0
LINE
  8
3
  6
CONTINUOUS
 62
     7
  5
8E3
 10
-881.567167
 20
85.908833
 30
0.0
 11
-882.905333
 21
83.624833
 31
0.0
  0
LINE
  8
3
  6
CONTINUOUS
 62
     7
  5
8E4
 10
-881.329
 20
83.801917
 30
0.0
 11
-883.14625
 21
85.727333
 31
0.0
  0
POLYLINE
  8
3
  6
CONTINUOUS
 62
     7
  5
8E5
 66
     1
 10
0.0
 20
0.0
 30
0.0
  0
VERTEX
  8
3
  6
CONTINUOUS
 62
     7
  5
8E6
 10
-882.117083
 20
83.713417
 30
0.0
  0
VERTEX
  8
3
  6
CONTINUOUS
 62
     7
  5
8E7
 10
-881.88825
 20
83.7385
 30
0.0
  0
VERTEX
  8
3
  6
CONTINUOUS
 62
     7
  5
8E8
 10
-881.328917
 20
83.802
 30
0.0
  0
VERTEX
  8
3
  6
CONTINUOUS
 62
     7
  5
8E9
 10
-881.567167
 20
85.908833
 30
0.0
  0
VERTEX
  8
3
  6
CONTINUOUS
 62
     7
  5
8EA
 10
-883.14625
 20
85.727333
 30
0.0
  0
VERTEX
  8
3
  6
CONTINUOUS
 62
     7
  5
8EB
 10
-882.905333
 20
83.624833
 30
0.0
  0
VERTEX
  8
3
  6
CONTINUOUS
 62
     7
  5
8EC
 10
-882.117083
 20
83.713417
 30
0.0
  0
SEQEND
  8
3
  6
CONTINUOUS
 62
     7
  5
8ED
  0
POLYLINE
  8
3
  6
CONTINUOUS
 62
     7
  5
8EE
 66
     1
 10
0.0
 20
0.0
 30
0.0
  0
VERTEX
  8
3
  6
CONTINUOUS
 62
     7
  5
8EF
 10
-882.358083
 20
85.816583
 30
0.0
  0
VERTEX
  8
3
  6
CONTINUOUS
 62
     7
  5
8F0
 10
-882.126333
 20
85.84525
 30
0.0
  0
VERTEX
  8
3
  6
CONTINUOUS
 62
     7
  5
8F1
 10
-881.567167
 20
85.908833
 30
0.0
  0
VERTEX
  8
3
  6
CONTINUOUS
 62
     7
  5
8F2
 10
-881.80875
 20
88.012
 30
0.0
  0
VERTEX
  8
3
  6
CONTINUOUS
 62
     7
  5
8F3
 10
-883.388
 20
87.830667
 30
0.0
  0
VERTEX
  8
3
  6
CONTINUOUS
 62
     7
  5
8F4
 10
-883.14625
 20
85.727333
 30
0.0
  0
VERTEX
  8
3
  6
CONTINUOUS
 62
     7
  5
8F5
 10
-882.358083
 20
85.816583
 30
0.0
  0
SEQEND
  8
3
  6
CONTINUOUS
 62
     7
  5
8F6
  0
LINE
  8
3
  6
CONTINUOUS
 62
     7
  5
8F7
 10
-895.832417
 20
86.89025
 30
0.0
 11
-895.975417
 21
86.880833
 31
0.0
  0
POLYLINE
  8
3
  6
CONTINUOUS
 62
     2
  5
8F8
 66
     1
 10
0.0
 20
0.0
 30
0.0
  0
VERTEX
  8
3
  6
CONTINUOUS
 62
     2
  5
8F9
 10
-895.90925
 20
87.007917
 30
0.0
  0
VERTEX
  8
3
  6
CONTINUOUS
 62
     2
  5
8FA
 10
-895.918583
 20
87.182833
 30
0.0
  0
VERTEX
  8
3
  6
CONTINUOUS
 62
     2
  5
8FB
 10
-896.083833
 20
87.1735
 30
0.0
  0
VERTEX
  8
3
  6
CONTINUOUS
 62
     2
  5
8FC
 10
-896.074083
 20
86.99475
 30
0.0
  0
SEQEND
  8
3
  6
CONTINUOUS
 62
     2
  5
8FD
  0
POLYLINE
  8
3
  6
CONTINUOUS
 62
     2
  5
8FE
 66
     1
 10
0.0
 20
0.0
 30
0.0
  0
VERTEX
  8
3
  6
CONTINUOUS
 62
     2
  5
8FF
 10
-895.842333
 20
86.887417
 30
0.0
  0
VERTEX
  8
3
  6
CONTINUOUS
 62
     2
  5
900
 10
-895.84825
 20
87.010583
 30
0.0
  0
VERTEX
  8
3
  6
CONTINUOUS
 62
     2
  5
901
 10
-896.1315
 20
86.992
 30
0.0
  0
VERTEX
  8
3
  6
CONTINUOUS
 62
     2
  5
902
 10
-896.121667
 20
86.871583
 30
0.0
  0
SEQEND
  8
3
  6
CONTINUOUS
 62
     2
  5
903
  0
LINE
  8
3
  6
CONTINUOUS
 62
     7
  5
904
 10
-896.76625
 20
86.829917
 30
0.0
 11
-895.048083
 21
84.815417
 31
0.0
  0
LINE
  8
3
  6
CONTINUOUS
 62
     7
  5
905
 10
-895.181833
 20
86.93125
 30
0.0
 11
-896.63325
 21
84.714083
 31
0.0
  0
LINE
  8
3
  6
CONTINUOUS
 62
     7
  5
906
 10
-895.048083
 20
84.815417
 30
0.0
 11
-896.49675
 21
82.6015
 31
0.0
  0
LINE
  8
3
  6
CONTINUOUS
 62
     7
  5
907
 10
-894.916417
 20
82.705667
 30
0.0
 11
-896.63325
 21
84.714083
 31
0.0
  0
POLYLINE
  8
3
  6
CONTINUOUS
 62
     7
  5
908
 66
     1
 10
0.0
 20
0.0
 30
0.0
  0
VERTEX
  8
3
  6
CONTINUOUS
 62
     7
  5
909
 10
-895.70525
 20
82.6525
 30
0.0
  0
VERTEX
  8
3
  6
CONTINUOUS
 62
     7
  5
90A
 10
-895.47375
 20
82.668417
 30
0.0
  0
VERTEX
  8
3
  6
CONTINUOUS
 62
     7
  5
90B
 10
-894.914417
 20
82.703417
 30
0.0
  0
VERTEX
  8
3
  6
CONTINUOUS
 62
     7
  5
90C
 10
-895.048083
 20
84.815417
 30
0.0
  0
VERTEX
  8
3
  6
CONTINUOUS
 62
     7
  5
90D
 10
-896.63325
 20
84.714083
 30
0.0
  0
VERTEX
  8
3
  6
CONTINUOUS
 62
     7
  5
90E
 10
-896.49675
 20
82.6015
 30
0.0
  0
VERTEX
  8
3
  6
CONTINUOUS
 62
     7
  5
90F
 10
-895.70525
 20
82.6525
 30
0.0
  0
SEQEND
  8
3
  6
CONTINUOUS
 62
     7
  5
910
  0
POLYLINE
  8
3
  6
CONTINUOUS
 62
     7
  5
911
 66
     1
 10
0.0
 20
0.0
 30
0.0
  0
VERTEX
  8
3
  6
CONTINUOUS
 62
     7
  5
912
 10
-895.839
 20
84.765
 30
0.0
  0
VERTEX
  8
3
  6
CONTINUOUS
 62
     7
  5
913
 10
-895.61075
 20
84.780917
 30
0.0
  0
VERTEX
  8
3
  6
CONTINUOUS
 62
     7
  5
914
 10
-895.048083
 20
84.815417
 30
0.0
  0
VERTEX
  8
3
  6
CONTINUOUS
 62
     7
  5
915
 10
-895.181833
 20
86.93125
 30
0.0
  0
VERTEX
  8
3
  6
CONTINUOUS
 62
     7
  5
916
 10
-896.76625
 20
86.829917
 30
0.0
  0
VERTEX
  8
3
  6
CONTINUOUS
 62
     7
  5
917
 10
-896.63325
 20
84.714083
 30
0.0
  0
VERTEX
  8
3
  6
CONTINUOUS
 62
     7
  5
918
 10
-895.839
 20
84.765
 30
0.0
  0
SEQEND
  8
3
  6
CONTINUOUS
 62
     7
  5
919
  0
INSERT
  8
3
  6
CONTINUOUS
 62
     7
  5
91A
  2
TMB6X8
 10
-909.169
 20
82.286167
 30
0.0
 41
3.812168
 42
3.812168
 50
0.517496
210
0.0
220
0.0
230
1.0
  0
LINE
  8
3
  6
CONTINUOUS
 62
     7
  5
91B
 10
-929.02275
 20
86.118833
 30
0.0
 11
-929.162417
 21
86.115583
 31
0.0
  0
POLYLINE
  8
3
  6
CONTINUOUS
 62
     2
  5
91C
 66
     1
 10
0.0
 20
0.0
 30
0.0
  0
VERTEX
  8
3
  6
CONTINUOUS
 62
     2
  5
91D
 10
-929.063917
 20
86.239917
 30
0.0
  0
VERTEX
  8
3
  6
CONTINUOUS
 62
     2
  5
91E
 10
-929.067333
 20
86.414833
 30
0.0
  0
VERTEX
  8
3
  6
CONTINUOUS
 62
     2
  5
91F
 10
-929.23275
 20
86.410667
 30
0.0
  0
VERTEX
  8
3
  6
CONTINUOUS
 62
     2
  5
920
 10
-929.229417
 20
86.236167
 30
0.0
  0
SEQEND
  8
3
  6
CONTINUOUS
 62
     2
  5
921
  0
POLYLINE
  8
3
  6
CONTINUOUS
 62
     2
  5
922
 66
     1
 10
0.0
 20
0.0
 30
0.0
  0
VERTEX
  8
3
  6
CONTINUOUS
 62
     2
  5
923
 10
-929.003583
 20
86.1095
 30
0.0
  0
VERTEX
  8
3
  6
CONTINUOUS
 62
     2
  5
924
 10
-929.007083
 20
86.230583
 30
0.0
  0
VERTEX
  8
3
  6
CONTINUOUS
 62
     2
  5
925
 10
-929.289583
 20
86.226833
 30
0.0
  0
VERTEX
  8
3
  6
CONTINUOUS
 62
     2
  5
926
 10
-929.286167
 20
86.103583
 30
0.0
  0
SEQEND
  8
3
  6
CONTINUOUS
 62
     2
  5
927
  0
LINE
  8
3
  6
CONTINUOUS
 62
     7
  5
928
 10
-929.956583
 20
86.09975
 30
0.0
 11
-928.329667
 21
84.013
 31
0.0
  0
LINE
  8
3
  6
CONTINUOUS
 62
     7
  5
929
 10
-928.368
 20
86.1315
 30
0.0
 11
-929.918167
 21
83.98375
 31
0.0
  0
LINE
  8
3
  6
CONTINUOUS
 62
     7
  5
92A
 10
-928.329667
 20
84.013
 30
0.0
 11
-929.877167
 21
81.865417
 31
0.0
  0
LINE
  8
3
  6
CONTINUOUS
 62
     7
  5
92B
 10
-928.288583
 20
81.897
 30
0.0
 11
-929.918167
 21
83.98375
 31
0.0
  0
POLYLINE
  8
3
  6
CONTINUOUS
 62
     7
  5
92C
 66
     1
 10
0.0
 20
0.0
 30
0.0
  0
VERTEX
  8
3
  6
CONTINUOUS
 62
     7
  5
92D
 10
-929.08225
 20
81.881167
 30
0.0
  0
VERTEX
  8
3
  6
CONTINUOUS
 62
     7
  5
92E
 10
-928.850583
 20
81.884667
 30
0.0
  0
VERTEX
  8
3
  6
CONTINUOUS
 62
     7
  5
92F
 10
-928.288583
 20
81.897
 30
0.0
  0
VERTEX
  8
3
  6
CONTINUOUS
 62
     7
  5
930
 10
-928.329667
 20
84.013
 30
0.0
  0
VERTEX
  8
3
  6
CONTINUOUS
 62
     7
  5
931
 10
-929.918167
 20
83.98375
 30
0.0
  0
VERTEX
  8
3
  6
CONTINUOUS
 62
     7
  5
932
 10
-929.877167
 20
81.865417
 30
0.0
  0
VERTEX
  8
3
  6
CONTINUOUS
 62
     7
  5
933
 10
-929.08225
 20
81.881167
 30
0.0
  0
SEQEND
  8
3
  6
CONTINUOUS
 62
     7
  5
934
  0
POLYLINE
  8
3
  6
CONTINUOUS
 62
     7
  5
935
 66
     1
 10
0.0
 20
0.0
 30
0.0
  0
VERTEX
  8
3
  6
CONTINUOUS
 62
     7
  5
936
 10
-929.124
 20
83.999667
 30
0.0
  0
VERTEX
  8
3
  6
CONTINUOUS
 62
     7
  5
937
 10
-928.891583
 20
84.003583
 30
0.0
  0
VERTEX
  8
3
  6
CONTINUOUS
 62
     7
  5
938
 10
-928.329667
 20
84.013
 30
0.0
  0
VERTEX
  8
3
  6
CONTINUOUS
 62
     7
  5
939
 10
-928.368083
 20
86.131583
 30
0.0
  0
VERTEX
  8
3
  6
CONTINUOUS
 62
     7
  5
93A
 10
-929.956583
 20
86.09975
 30
0.0
  0
VERTEX
  8
3
  6
CONTINUOUS
 62
     7
  5
93B
 10
-929.918167
 20
83.98375
 30
0.0
  0
VERTEX
  8
3
  6
CONTINUOUS
 62
     7
  5
93C
 10
-929.124
 20
83.999667
 30
0.0
  0
SEQEND
  8
3
  6
CONTINUOUS
 62
     7
  5
93D
  0
INSERT
  8
3
  6
CONTINUOUS
 62
     2
  5
93E
  2
TMB6X8
 10
-949.1495
 20
81.633
 30
0.0
 41
3.812166
 42
3.812166
210
0.0
220
0.0
230
1.0
  0
LINE
  8
3
  6
CONTINUOUS
 62
   241
  5
93F
 10
-831.144
 20
96.228917
 30
0.0
 11
-849.052
 21
92.324917
 31
0.0
  0
LINE
  8
3
  6
CONTINUOUS
 62
   241
  5
940
 10
-830.482917
 20
94.748417
 30
0.0
 11
-848.715083
 21
90.774667
 31
0.0
  0
ARC
  8
3
  6
HIDDEN
 62
   110
  5
941
 10
-975.695247
 20
2960.464426
 30
0.0
 40
2868.383143
 50
270.551333
 51
271.327981
210
0.0
220
0.0
230
1.0
  0
INSERT
  8
3
  6
CONTINUOUS
 62
     2
  5
942
  2
DIMARO
 10
-829.1265
 20
97.131667
 30
0.0
 41
15.248505
 42
15.248505
 50
270.0
210
0.0
220
0.0
230
1.0
  0
LINE
  8
3
  6
CONTINUOUS
 62
   241
  5
943
 10
-831.623333
 20
97.064333
 30
0.0
 11
-829.453917
 21
99.857167
 31
0.0
  0
LINE
  8
3
  6
CONTINUOUS
 62
   241
  5
944
 10
-831.017
 20
96.591083
 30
0.0
 11
-830.550417
 21
97.191333
 31
0.0
  0
ARC
  8
3
  6
CONTINUOUS
 62
   241
  5
945
 10
-830.027848
 20
96.787112
 30
0.0
 40
0.661723
 50
39.121108
 51
142.071403
210
0.0
220
0.0
230
1.0
  0
LINE
  8
3
  6
CONTINUOUS
 62
   241
  5
946
 10
-829.514583
 20
97.2045
 30
0.0
 11
-828.555083
 21
96.025833
 31
0.0
  0
LINE
  8
3
  6
CONTINUOUS
 62
   241
  5
947
 10
-831.061333
 20
97.429917
 30
0.0
 11
-830.537167
 21
98.099917
 31
0.0
  0
ARC
  8
3
  6
CONTINUOUS
 62
   241
  5
948
 10
-830.982418
 20
97.368068
 30
0.0
 40
0.10006
 50
141.902703
 51
321.789239
210
0.0
220
0.0
230
1.0
  0
ARC
  8
3
  6
CONTINUOUS
 62
   241
  5
949
 10
-829.070487
 20
95.609965
 30
0.0
 40
0.661723
 50
296.170814
 51
39.121108
210
0.0
220
0.0
230
1.0
  0
LINE
  8
3
  6
CONTINUOUS
 62
   241
  5
94A
 10
-829.463833
 20
94.679083
 30
0.0
 11
-828.777417
 21
95.015167
 31
0.0
  0
LINE
  8
3
  6
CONTINUOUS
 62
   241
  5
94B
 10
-829.123333
 20
93.98925
 30
0.0
 11
-829.463833
 21
94.679083
 31
0.0
  0
LINE
  8
3
  6
CONTINUOUS
 62
   241
  5
94C
 10
-828.738917
 20
94.646667
 30
0.0
 11
-827.973833
 21
95.028417
 31
0.0
  0
LINE
  8
3
  6
CONTINUOUS
 62
   241
  5
94D
 10
-828.653667
 20
94.469167
 30
0.0
 11
-827.884583
 21
94.84375
 31
0.0
  0
ARC
  8
3
  6
CONTINUOUS
 62
   241
  5
94E
 10
-827.932036
 20
94.935224
 30
0.0
 40
0.100266
 50
297.016447
 51
115.768408
210
0.0
220
0.0
230
1.0
  0
LINE
  8
3
  6
CONTINUOUS
 62
   241
  5
94F
 10
-829.123333
 20
93.98925
 30
0.0
 11
-825.950167
 21
95.542667
 31
0.0
  0
ARC
  8
3
  6
CONTINUOUS
 62
   241
  5
950
 10
-828.696238
 20
94.55704
 30
0.0
 40
0.10006
 50
116.452978
 51
296.339514
210
0.0
220
0.0
230
1.0
  0
ARC
  8
3
  6
CONTINUOUS
 62
   241
  5
951
 10
-827.751743
 20
97.660366
 30
0.0
 40
2.779681
 50
310.430497
 51
337.647978
210
0.0
220
0.0
230
1.0
  0
ARC
  8
3
  6
CONTINUOUS
 62
   241
  5
952
 10
-825.045493
 20
96.985091
 30
0.0
 40
0.094986
 50
84.121108
 51
174.121108
210
0.0
220
0.0
230
1.0
  0
LINE
  8
3
  6
CONTINUOUS
 62
   140
  5
953
 10
-825.031417
 20
97.077417
 30
0.0
 11
-825.035333
 21
97.080167
 31
0.0
  0
LINE
  8
3
  6
CONTINUOUS
 62
   140
  5
954
 10
-824.971833
 20
97.6745
 30
0.0
 11
-824.974417
 21
97.677583
 31
0.0
  0
LINE
  8
3
  6
CONTINUOUS
 62
   241
  5
955
 10
-825.0605
 20
97.77575
 30
0.0
 11
-825.019583
 21
98.170167
 31
0.0
  0
ARC
  8
3
  6
CONTINUOUS
 62
   241
  5
956
 10
-827.751743
 20
97.660366
 30
0.0
 40
2.779681
 50
10.594239
 51
22.653956
210
0.0
220
0.0
230
1.0
  0
ARC
  8
3
  6
CONTINUOUS
 62
   241
  5
957
 10
-825.361913
 20
99.096649
 30
0.0
 40
0.094986
 50
129.121108
 51
219.121108
210
0.0
220
0.0
230
1.0
  0
LINE
  8
3
  6
CONTINUOUS
 62
   241
  5
958
 10
-825.7945
 20
99.637417
 30
0.0
 11
-825.41925
 21
99.17075
 31
0.0
  0
LINE
  8
3
  6
CONTINUOUS
 62
   241
  5
959
 10
-825.93075
 20
99.64725
 30
0.0
 11
-826.1815
 21
99.955083
 31
0.0
  0
LINE
  8
3
  6
CONTINUOUS
 62
   241
  5
95A
 10
-827.08725
 20
100.272833
 30
0.0
 11
-826.696417
 21
100.231667
 31
0.0
  0
ARC
  8
3
  6
CONTINUOUS
 62
   241
  5
95B
 10
-827.078005
 20
100.367062
 30
0.0
 40
0.095272
 50
174.121108
 51
264.121108
210
0.0
220
0.0
230
1.0
  0
LINE
  8
3
  6
CONTINUOUS
 62
   140
  5
95C
 10
-827.173
 20
100.381333
 30
0.0
 11
-827.173
 21
100.374667
 31
0.0
  0
LINE
  8
3
  6
CONTINUOUS
 62
   140
  5
95D
 10
-827.764083
 20
100.441583
 30
0.0
 11
-827.764083
 21
100.438167
 31
0.0
  0
ARC
  8
3
  6
CONTINUOUS
 62
   241
  5
95E
 10
-827.861384
 20
100.447437
 30
0.0
 40
0.094986
 50
264.121108
 51
354.121108
210
0.0
220
0.0
230
1.0
  0
LINE
  8
3
  6
CONTINUOUS
 62
   241
  5
95F
 10
-827.868667
 20
100.355583
 30
0.0
 11
-828.262667
 21
100.393833
 31
0.0
  0
ARC
  8
3
  6
CONTINUOUS
 62
   241
  5
960
 10
-827.751743
 20
97.660366
 30
0.0
 40
2.779681
 50
100.594239
 51
127.811719
210
0.0
220
0.0
230
1.0
  0
LINE
  8
3
  6
CONTINUOUS
 62
   241
  5
961
 10
-825.435167
 20
99.0345
 30
0.0
 11
-825.187583
 21
98.7295
 31
0.0
  0
LINE
  8
3
  6
CONTINUOUS
 62
   241
  5
962
 10
-824.971833
 20
97.6745
 30
0.0
 11
-825.031417
 21
97.077417
 31
0.0
  0
ARC
  8
3
  6
CONTINUOUS
 62
   241
  5
963
 10
-824.964549
 20
97.768411
 30
0.0
 40
0.095272
 50
174.121108
 51
264.121108
210
0.0
220
0.0
230
1.0
  0
LINE
  8
3
  6
CONTINUOUS
 62
   241
  5
964
 10
-825.14
 20
96.998083
 30
0.0
 11
-825.181167
 21
96.603417
 31
0.0
  0
ARC
  8
3
  6
CONTINUOUS
 62
   241
  5
965
 10
-827.751743
 20
97.660366
 30
0.0
 40
2.779681
 50
55.588261
 51
67.647978
210
0.0
220
0.0
230
1.0
  0
LINE
  8
3
  6
CONTINUOUS
 62
   241
  5
966
 10
-831.623333
 20
97.064333
 30
0.0
 11
-831.017
 21
96.591083
 31
0.0
  0
ARC
  8
3
  6
CONTINUOUS
 62
   241
  5
967
 10
-825.858568
 20
99.707776
 30
0.0
 40
0.095272
 50
219.121108
 51
309.121108
210
0.0
220
0.0
230
1.0
  0
LINE
  8
3
  6
CONTINUOUS
 62
   241
  5
968
 10
-830.902333
 20
97.30575
 30
0.0
 11
-830.3785
 21
97.9795
 31
0.0
  0
ARC
  8
3
  6
CONTINUOUS
 62
   241
  5
969
 10
-830.456445
 20
98.039171
 30
0.0
 40
0.100266
 50
322.473808
 51
141.225769
210
0.0
220
0.0
230
1.0
  0
LINE
  8
3
  6
CONTINUOUS
 62
   241
  5
96A
 10
-827.173
 20
100.381333
 30
0.0
 11
-827.764083
 21
100.441583
 31
0.0
  0
CIRCLE
  8
3
  6
CONTINUOUS
 62
   241
  5
96B
 10
-827.032083
 20
98.245658
 30
0.0
 40
0.794195
210
0.0
220
0.0
230
1.0
  0
LINE
  8
3
  6
CONTINUOUS
 62
     2
  5
96C
 10
-907.847833
 20
89.766917
 30
0.0
 11
-906.92475
 21
93.047333
 31
0.0
  0
INSERT
  8
3
  6
CONTINUOUS
 62
     2
  5
96D
  2
ARWHD1
 10
-906.92475
 20
93.047333
 30
0.0
 41
152.485639
 42
152.485639
 50
74.999989
210
0.0
220
0.0
230
1.0
  0
ARC
  8
3
  6
CONTINUOUS
 62
     7
  5
96E
 10
-827.250163
 20
96.508391
 30
0.0
 40
1.578011
 50
291.284233
 51
300.811517
210
0.0
220
0.0
230
1.0
  0
LINE
  8
3
  6
DASHED
 62
     7
  5
96F
 10
-832.445417
 20
94.86675
 30
0.0
 11
-832.297917
 21
96.153
 31
0.0
  0
LINE
  8
3
  6
CONTINUOUS
 62
     7
  5
970
 10
-830.598167
 20
93.283833
 30
0.0
 11
-830.926333
 21
93.966167
 31
0.0
  0
LINE
  8
3
  6
CONTINUOUS
 62
     7
  5
971
 10
-816.052167
 20
109.9315
 30
0.0
 11
-816.052167
 21
119.005333
 31
0.0
  0
INSERT
  8
3
  6
CONTINUOUS
 62
     7
  5
972
  2
ARWHD1
 10
-816.052167
 20
117.529333
 30
0.0
 41
152.485546
 42
152.485546
 50
90.0
210
0.0
220
0.0
230
1.0
  0
TEXT
  8
3
  6
CONTINUOUS
 62
     7
  5
973
 10
-811.989333
 20
98.891
 30
0.0
 40
1.05625
  1
(Max.)
  7
MONOTXT
 72
     4
 11
-809.752083
 21
99.419167
 31
0.0
210
0.0
220
0.0
230
1.0
  0
INSERT
  8
3
  6
CONTINUOUS
 62
     2
  5
974
  2
DIMARO
 10
-929.144917
 20
92.307167
 30
0.0
 41
15.248505
 42
15.248505
 50
90.0
210
0.0
220
0.0
230
1.0
  0
LINE
  8
3
  6
CONTINUOUS
 62
     2
  5
975
 10
-929.144917
 20
86.414833
 30
0.0
 11
-929.144917
 21
92.285333
 31
0.0
  0
INSERT
  8
3
  6
CONTINUOUS
 62
     2
  5
976
  2
DIMARO
 10
-929.144917
 20
86.414833
 30
0.0
 41
15.248505
 42
15.248505
 50
270.0
210
0.0
220
0.0
230
1.0
  0
POLYLINE
  8
3
  6
CONTINUOUS
 62
     7
  5
977
 66
     1
 10
0.0
 20
0.0
 30
0.0
  0
VERTEX
  8
3
  6
CONTINUOUS
 62
     7
  5
978
 10
-1000.626167
 20
93.29575
 30
0.0
  0
VERTEX
  8
3
  6
CONTINUOUS
 62
     7
  5
979
 10
-1000.626167
 20
85.329333
 30
0.0
  0
VERTEX
  8
3
  6
CONTINUOUS
 62
     7
  5
97A
 10
-998.756417
 20
83.132667
 30
0.0
  0
VERTEX
  8
3
  6
CONTINUOUS
 62
     7
  5
97B
 10
-1000.626167
 20
80.94725
 30
0.0
  0
VERTEX
  8
3
  6
CONTINUOUS
 62
     7
  5
97C
 10
-1000.626167
 20
77.1315
 30
0.0
  0
SEQEND
  8
3
  6
CONTINUOUS
 62
     7
  5
97D
  0
LINE
  8
3
  6
CONTINUOUS
 62
     7
  5
97E
 10
-1000.626167
 20
78.4455
 30
0.0
 11
-1000.626167
 21
77.612167
 31
0.0
  0
TEXT
  8
3
  6
CONTINUOUS
 62
     7
  5
97F
 10
-854.7775
 20
75.596833
 30
0.0
 40
1.05625
  1
Tangent line projected from the face of the last two
  7
MONOTXT
 72
     4
 11
-832.478333
 21
76.125
 31
0.0
210
0.0
220
0.0
230
1.0
  0
TEXT
  8
3
  6
CONTINUOUS
 62
     7
  5
980
 10
-849.48375
 20
73.640583
 30
0.0
 40
1.05625
  1
post blocks in the standard post section.
  7
MONOTXT
 72
     4
 11
-832.514083
 21
74.16875
 31
0.0
210
0.0
220
0.0
230
1.0
  0
LINE
  8
3
  6
CONTINUOUS
 62
     2
  5
981
 10
-907.847833
 20
89.766917
 30
0.0
 11
-911.1255
 21
92.304417
 31
0.0
  0
INSERT
  8
3
  6
CONTINUOUS
 62
     2
  5
982
  2
ARWHD1
 10
-911.1255
 20
92.304417
 30
0.0
 41
152.485641
 42
-152.485641
 50
143.00001
210
0.0
220
0.0
230
1.0
  0
TEXT
  8
3
  6
CONTINUOUS
 62
     7
  5
983
 10
-834.811333
 20
104.982167
 30
0.0
 40
1.05625
  1
 break point
  7
MONOTXT
 11
-834.811333
 21
105.510333
 31
0.0
210
0.0
220
0.0
230
1.0
 73
     2
  0
INSERT
  8
3
  6
CONTINUOUS
 62
     2
  5
984
  2
TMB6X8
 10
-969.1495
 20
81.633
 30
0.0
 41
3.812166
 42
3.812166
210
0.0
220
0.0
230
1.0
  0
INSERT
  8
3
  6
CONTINUOUS
 62
     2
  5
985
  2
TMB6X8
 10
-989.1495
 20
81.633
 30
0.0
 41
3.812166
 42
3.812166
210
0.0
220
0.0
230
1.0
  0
ARC
  8
3
  6
CONTINUOUS
 62
     2
  5
986
 10
-856.200705
 20
78.715225
 30
0.0
 40
3.681617
 50
164.644544
 51
284.419408
210
0.0
220
0.0
230
1.0
  0
LINE
  8
3
  6
HIDDEN
 62
   110
  5
987
 10
-829.142833
 20
112.48075
 30
0.0
 11
-802.433417
 21
107.097583
 31
0.0
  0
LINE
  8
3
  6
CONTINUOUS
 62
     2
  5
988
 10
-909.228
 20
118.543917
 30
0.0
 11
-829.142833
 21
118.543917
 31
0.0
  0
POLYLINE
  8
3
  6
CONTINUOUS
 62
     2
  5
989
 66
     1
 10
0.0
 20
0.0
 30
0.0
  0
VERTEX
  8
3
  6
CONTINUOUS
 62
     2
  5
98A
 10
-769.7885
 20
120.415583
 30
0.0
  0
VERTEX
  8
3
  6
CONTINUOUS
 62
     2
  5
98B
 10
-768.946333
 20
120.837417
 30
0.0
  0
VERTEX
  8
3
  6
CONTINUOUS
 62
     2
  5
98C
 10
-769.7885
 20
121.264583
 30
0.0
  0
SEQEND
  8
3
  6
CONTINUOUS
 62
     2
  5
98D
  0
POLYLINE
  8
3
  6
CONTINUOUS
 62
     2
  5
98E
 66
     1
 10
0.0
 20
0.0
 30
0.0
  0
VERTEX
  8
3
  6
CONTINUOUS
 62
     2
  5
98F
 10
-908.384917
 20
118.122083
 30
0.0
  0
VERTEX
  8
3
  6
CONTINUOUS
 62
     2
  5
990
 10
-909.228
 20
118.543917
 30
0.0
  0
VERTEX
  8
3
  6
CONTINUOUS
 62
     2
  5
991
 10
-908.384917
 20
118.968083
 30
0.0
  0
SEQEND
  8
3
  6
CONTINUOUS
 62
     2
  5
992
  0
LINE
  8
3
  6
CONTINUOUS
 62
     2
  5
993
 10
-909.228
 20
95.29575
 30
0.0
 11
-909.228
 21
120.416083
 31
0.0
  0
TEXT
  8
3
  6
CONTINUOUS
 62
   110
  5
994
 10
-808.04175
 20
108.895583
 30
0.0
 40
1.052583
  1
15:1
 50
347.0
  7
MONOTXT
 72
     4
 11
-806.736243
 21
109.134361
 31
0.0
210
0.0
220
0.0
230
1.0
  0
LINE
  8
3
  6
HIDDEN
 62
   110
  5
995
 10
-768.946333
 20
92.214417
 30
0.0
 11
-748.849917
 21
92.214417
 31
0.0
  0
LINE
  8
3
  6
CONTINUOUS
 62
     2
  5
996
 10
-768.946333
 20
95.30975
 30
0.0
 11
-768.946333
 21
122.4155
 31
0.0
  0
LINE
  8
3
  6
CONTINUOUS
 62
     2
  5
997
 10
-829.142833
 20
120.837417
 30
0.0
 11
-768.946333
 21
120.837417
 31
0.0
  0
POLYLINE
  8
3
  6
CONTINUOUS
 62
     2
  5
998
 66
     1
 10
0.0
 20
0.0
 30
0.0
  0
VERTEX
  8
3
  6
CONTINUOUS
 62
     2
  5
999
 10
-750.326667
 20
111.13225
 30
0.0
  0
VERTEX
  8
3
  6
CONTINUOUS
 62
     2
  5
99A
 10
-749.484333
 20
111.554167
 30
0.0
  0
VERTEX
  8
3
  6
CONTINUOUS
 62
     2
  5
99B
 10
-750.326667
 20
111.981333
 30
0.0
  0
SEQEND
  8
3
  6
CONTINUOUS
 62
     2
  5
99C
  0
POLYLINE
  8
3
  6
CONTINUOUS
 62
     2
  5
99D
 66
     1
 10
0.0
 20
0.0
 30
0.0
  0
VERTEX
  8
3
  6
CONTINUOUS
 62
     2
  5
99E
 10
-828.299667
 20
120.415583
 30
0.0
  0
VERTEX
  8
3
  6
CONTINUOUS
 62
     2
  5
99F
 10
-829.142833
 20
120.837417
 30
0.0
  0
VERTEX
  8
3
  6
CONTINUOUS
 62
     2
  5
9A0
 10
-828.299667
 20
121.261583
 30
0.0
  0
SEQEND
  8
3
  6
CONTINUOUS
 62
     2
  5
9A1
  0
LINE
  8
3
  6
CONTINUOUS
 62
     2
  5
9A2
 10
-768.946333
 20
111.554167
 30
0.0
 11
-748.570417
 21
111.554167
 31
0.0
  0
TEXT
  8
3
  6
CONTINUOUS
 62
   110
  5
9A3
 10
-878.605
 20
105.746167
 30
0.0
 40
1.052583
  1
4:1  Slope
  7
MONOTXT
 72
     1
 11
-874.921167
 21
105.746167
 31
0.0
210
0.0
220
0.0
230
1.0
  0
POLYLINE
  8
3
  6
CONTINUOUS
 62
     2
  5
9A4
 66
     1
 10
0.0
 20
0.0
 30
0.0
  0
VERTEX
  8
3
  6
CONTINUOUS
 62
     2
  5
9A5
 10
-829.985833
 20
118.122083
 30
0.0
  0
VERTEX
  8
3
  6
CONTINUOUS
 62
     2
  5
9A6
 10
-829.142833
 20
118.543917
 30
0.0
  0
VERTEX
  8
3
  6
CONTINUOUS
 62
     2
  5
9A7
 10
-829.985833
 20
118.968083
 30
0.0
  0
SEQEND
  8
3
  6
CONTINUOUS
 62
     2
  5
9A8
  0
LINE
  8
3
  6
HIDDEN
 62
   110
  5
9A9
 10
-796.146417
 20
97.695833
 30
0.0
 11
-768.946333
 21
92.214417
 31
0.0
  0
TEXT
  8
3
  6
CONTINUOUS
 62
   110
  5
9AA
 10
-792.46675
 20
97.699167
 30
0.0
 40
1.052583
  1
15:1
 50
347.0
  7
MONOTXT
 72
     4
 11
-791.161243
 21
97.937945
 31
0.0
210
0.0
220
0.0
230
1.0
  0
POLYLINE
  8
3
  6
CONTINUOUS
 62
     7
  5
9AB
 66
     1
 10
0.0
 20
0.0
 30
0.0
  0
VERTEX
  8
3
  6
CONTINUOUS
 62
     7
  5
9AC
 10
-802.433417
 20
113.12525
 30
0.0
  0
VERTEX
  8
3
  6
CONTINUOUS
 62
     7
  5
9AD
 10
-802.433417
 20
97.150167
 30
0.0
  0
VERTEX
  8
3
  6
CONTINUOUS
 62
     7
  5
9AE
 10
-801.910833
 20
96.672083
 30
0.0
  0
VERTEX
  8
3
  6
CONTINUOUS
 62
     7
  5
9AF
 10
-803.14775
 20
96.386333
 30
0.0
  0
VERTEX
  8
3
  6
CONTINUOUS
 62
     7
  5
9B0
 10
-802.433417
 20
95.719417
 30
0.0
  0
VERTEX
  8
3
  6
CONTINUOUS
 62
     7
  5
9B1
 10
-802.433417
 20
79.56275
 30
0.0
  0
SEQEND
  8
3
  6
CONTINUOUS
 62
     7
  5
9B2
  0
POLYLINE
  8
3
  6
CONTINUOUS
 62
     7
  5
9B3
 66
     1
 10
0.0
 20
0.0
 30
0.0
  0
VERTEX
  8
3
  6
CONTINUOUS
 62
     7
  5
9B4
 10
-796.213833
 20
102.699417
 30
0.0
  0
VERTEX
  8
3
  6
CONTINUOUS
 62
     7
  5
9B5
 10
-796.213833
 20
91.719417
 30
0.0
  0
VERTEX
  8
3
  6
CONTINUOUS
 62
     7
  5
9B6
 10
-795.69125
 20
91.241167
 30
0.0
  0
VERTEX
  8
3
  6
CONTINUOUS
 62
     7
  5
9B7
 10
-796.928167
 20
90.955333
 30
0.0
  0
VERTEX
  8
3
  6
CONTINUOUS
 62
     7
  5
9B8
 10
-796.213833
 20
90.2885
 30
0.0
  0
VERTEX
  8
3
  6
CONTINUOUS
 62
     7
  5
9B9
 10
-796.213833
 20
78.991417
 30
0.0
  0
SEQEND
  8
3
  6
CONTINUOUS
 62
     7
  5
9BA
  0
LINE
  8
3
  6
CONTINUOUS
 62
     7
  5
9BB
 10
-796.213833
 20
81.625667
 30
0.0
 11
-748.4865
 21
81.625667
 31
0.0
  0
TEXT
  8
3
  6
HIDDEN
 62
   110
  5
9BC
 10
-765.509333
 20
112.2225
 30
0.0
 40
1.047417
  1
Grade to match
  7
MONOTXT
 72
     4
 11
-759.105833
 21
112.746167
 31
0.0
210
0.0
220
0.0
230
1.0
  0
TEXT
  8
3
  6
HIDDEN
 62
   110
  5
9BD
 10
-764.436833
 20
109.931667
 30
0.0
 40
1.047417
  1
existing slope
  7
MONOTXT
 72
     4
 11
-759.117667
 21
110.455333
 31
0.0
210
0.0
220
0.0
230
1.0
  0
TEXT
  8
3
  6
CONTINUOUS
 62
   110
  5
9BE
 10
-820.526667
 20
121.445583
 30
0.0
 40
1.052583
  1
Transition back to existing shoulder break point
  7
MONOTXT
 72
     1
 11
-800.87675
 21
121.445583
 31
0.0
210
0.0
220
0.0
230
1.0
  0
TEXT
  8
3
  6
CONTINUOUS
 62
   110
  5
9BF
 10
-760.929167
 20
82.2745
 30
0.0
 40
1.047417
  1
Face of Post
  7
MONOTXT
 11
-760.929167
 21
82.798167
 31
0.0
210
0.0
220
0.0
230
1.0
 73
     2
  0
LINE
  8
1
  6
HIDDEN
 62
   110
  5
9C0
 10
-829.142833
 20
112.48075
 30
0.0
 11
-909.218833
 21
92.851667
 31
0.0
  0
TEXT
  8
3
  6
CONTINUOUS
 62
     7
  5
9C1
 10
-905.537667
 20
90.290417
 30
0.0
 40
1.05625
  1
shoulder
  7
MONOTXT
 72
     1
 11
-902.369167
 21
91.346667
 31
0.0
210
0.0
220
0.0
230
1.0
 73
     3
  0
TEXT
  8
3
  6
CONTINUOUS
 62
     7
  5
9C2
 10
-906.860083
 20
88.334167
 30
0.0
 40
1.05625
  1
break point
  7
MONOTXT
 72
     1
 11
-902.36925
 21
89.390417
 31
0.0
210
0.0
220
0.0
230
1.0
 73
     3
  0
LINE
  8
3
  6
CONTINUOUS
 62
     2
  5
9C3
 10
-812.389583
 20
81.830083
 30
0.0
 11
-812.389583
 21
108.856083
 31
0.0
  0
LINE
  8
3
  6
CONTINUOUS
 62
     2
  5
9C4
 10
-785.41175
 20
81.597333
 30
0.0
 11
-785.41175
 21
95.494417
 31
0.0
  0
INSERT
  8
3
  6
CONTINUOUS
 62
     7
  5
9C5
  2
ARWHD1
 10
-812.389583
 20
108.856083
 30
0.0
 41
152.485546
 42
152.485546
 50
90.0
210
0.0
220
0.0
230
1.0
  0
INSERT
  8
3
  6
CONTINUOUS
 62
     7
  5
9C6
  2
ARWHD1
 10
-785.41175
 20
95.494417
 30
0.0
 41
152.485546
 42
152.485546
 50
90.0
210
0.0
220
0.0
230
1.0
  0
INSERT
  8
3
  6
CONTINUOUS
 62
     2
  5
9C7
  2
ARWHD1
 10
-780.276
 20
107.516083
 30
0.0
 41
152.485546
 42
152.485546
 50
90.0
210
0.0
220
0.0
230
1.0
  0
TEXT
  8
3
  6
CONTINUOUS
 62
     7
  5
9C8
 10
-784.861833
 20
86.474583
 30
0.0
 40
1.05625
  1
(Max.)
  7
MONOTXT
 72
     4
 11
-782.624583
 21
87.00275
 31
0.0
210
0.0
220
0.0
230
1.0
  0
INSERT
  8
3
  6
CONTINUOUS
 62
     7
  5
9C9
  2
ARWHD1
 10
-816.052167
 20
119.005333
 30
0.0
 41
152.485546
 42
152.485546
 50
90.0
210
0.0
220
0.0
230
1.0
  0
LINE
  8
3
  6
CONTINUOUS
 62
     7
  5
9CA
 10
-875.844667
 20
101.4435
 30
0.0
 11
-875.844667
 21
112.009667
 31
0.0
  0
INSERT
  8
3
  6
CONTINUOUS
 62
     7
  5
9CB
  2
ARWHD1
 10
-875.844667
 20
109.52375
 30
0.0
 41
152.485546
 42
152.485546
 50
90.0
210
0.0
220
0.0
230
1.0
  0
INSERT
  8
3
  6
CONTINUOUS
 62
     7
  5
9CC
  2
ARWHD1
 10
-875.844667
 20
112.009667
 30
0.0
 41
152.485546
 42
152.485546
 50
90.0
210
0.0
220
0.0
230
1.0
  0
TEXT
  8
3
  6
CONTINUOUS
 62
     7
  5
9CD
 10
-824.048
 20
113.946667
 30
0.0
 40
1.052583
  1
Slope 4:1  or flatter
  7
MONOTXT
 72
     1
 11
-816.1085
 21
113.946667
 31
0.0
210
0.0
220
0.0
230
1.0
  0
TEXT
  8
3
  6
CONTINUOUS
 62
     7
  5
9CE
 10
-812.114833
 20
100.522833
 30
0.0
 40
1.05625
  1
10:1  slope
  7
MONOTXT
 72
     4
 11
-808.227
 21
101.051
 31
0.0
210
0.0
220
0.0
230
1.0
  0
TEXT
  8
3
  6
CONTINUOUS
 62
     7
  5
9CF
 10
-788.829
 20
88.391917
 30
0.0
 40
1.05625
  1
10:1  slope
  7
MONOTXT
 72
     4
 11
-784.941167
 21
88.920083
 31
0.0
210
0.0
220
0.0
230
1.0
  0
TEXT
  8
3
  6
CONTINUOUS
 62
     7
  5
9D0
 10
-788.25
 20
103.385083
 30
0.0
 40
1.052583
  1
Slope 4:1  or flatter
  7
MONOTXT
 72
     1
 11
-780.3105
 21
103.385083
 31
0.0
210
0.0
220
0.0
230
1.0
  0
POLYLINE
  8
3
  6
CONTINUOUS
 62
     2
  5
9D1
 66
     1
 10
0.0
 20
0.0
 30
0.0
  0
VERTEX
  8
3
  6
CONTINUOUS
 62
     2
  5
9D2
 10
-749.41275
 20
111.13225
 30
0.0
  0
VERTEX
  8
3
  6
CONTINUOUS
 62
     2
  5
9D3
 10
-748.570417
 20
111.554167
 30
0.0
  0
VERTEX
  8
3
  6
CONTINUOUS
 62
     2
  5
9D4
 10
-749.41275
 20
111.981333
 30
0.0
  0
SEQEND
  8
3
  6
CONTINUOUS
 62
     2
  5
9D5
  0
TEXT
  8
3
  6
CONTINUOUS
 62
     7
  5
9D6
 10
-858.262333
 20
98.19575
 30
0.0
 40
1.05625
  1
(Max.)
  7
MONOTXT
 72
     4
 11
-856.025083
 21
98.723917
 31
0.0
210
0.0
220
0.0
230
1.0
  0
TEXT
  8
3
  6
CONTINUOUS
 62
     7
  5
9D7
 10
-862.074
 20
100.1905
 30
0.0
 40
1.05625
  1
10:1  slope
  7
MONOTXT
 72
     4
 11
-858.186167
 21
100.718667
 31
0.0
210
0.0
220
0.0
230
1.0
  0
LINE
  8
3
  6
CONTINUOUS
 62
     7
  5
9D8
 10
-858.751333
 20
93.720917
 30
0.0
 11
-858.751333
 21
104.947083
 31
0.0
  0
INSERT
  8
3
  6
CONTINUOUS
 62
     7
  5
9D9
  2
ARWHD1
 10
-858.751333
 20
104.947083
 30
0.0
 41
152.485546
 42
152.485546
 50
90.0
210
0.0
220
0.0
230
1.0
  0
LINE
  8
3
  6
CONTINUOUS
 62
     2
  5
9DA
 10
-909.228
 20
111.554167
 30
0.0
 11
-929.603917
 21
111.554167
 31
0.0
  0
POLYLINE
  8
3
  6
CONTINUOUS
 62
     2
  5
9DB
 66
     1
 10
0.0
 20
0.0
 30
0.0
  0
VERTEX
  8
3
  6
CONTINUOUS
 62
     2
  5
9DC
 10
-927.847667
 20
111.13225
 30
0.0
  0
VERTEX
  8
3
  6
CONTINUOUS
 62
     2
  5
9DD
 10
-928.69
 20
111.554167
 30
0.0
  0
VERTEX
  8
3
  6
CONTINUOUS
 62
     2
  5
9DE
 10
-927.847667
 20
111.981333
 30
0.0
  0
SEQEND
  8
3
  6
CONTINUOUS
 62
     2
  5
9DF
  0
TEXT
  8
3
  6
HIDDEN
 62
   110
  5
9E0
 10
-925.448333
 20
112.2225
 30
0.0
 40
1.047417
  1
Grade to match
  7
MONOTXT
 72
     4
 11
-919.044833
 21
112.746167
 31
0.0
210
0.0
220
0.0
230
1.0
  0
TEXT
  8
3
  6
HIDDEN
 62
   110
  5
9E1
 10
-924.3765
 20
109.931667
 30
0.0
 40
1.047417
  1
existing slope
  7
MONOTXT
 72
     4
 11
-919.057333
 21
110.455333
 31
0.0
210
0.0
220
0.0
230
1.0
  0
POLYLINE
  8
3
  6
CONTINUOUS
 62
     2
  5
9E2
 66
     1
 10
0.0
 20
0.0
 30
0.0
  0
VERTEX
  8
3
  6
CONTINUOUS
 62
     2
  5
9E3
 10
-928.761583
 20
111.13225
 30
0.0
  0
VERTEX
  8
3
  6
CONTINUOUS
 62
     2
  5
9E4
 10
-929.603917
 20
111.554167
 30
0.0
  0
VERTEX
  8
3
  6
CONTINUOUS
 62
     2
  5
9E5
 10
-928.761583
 20
111.981333
 30
0.0
  0
SEQEND
  8
3
  6
CONTINUOUS
 62
     2
  5
9E6
  0
TEXT
  8
3
  6
CONTINUOUS
 62
     2
  5
9E7
 10
-812.847583
 20
46.64075
 30
0.0
 40
1.064
  1
of the traffic face of the post. Offset points are to be located by 
 41
0.950031
  7
MONOTXT
 72
     2
 11
-758.346333
 21
47.17275
 31
0.0
210
0.0
220
0.0
230
1.0
 73
     2
  0
TEXT
  8
3
  6
CONTINUOUS
 62
     2
  5
9E8
 10
-812.613667
 20
44.538417
 30
0.0
 40
1.064
  1
measurements at the back of rail equal to the nominal  post spacings shown on
 41
0.950031
  7
MONOTXT
 72
     2
 11
-750.736583
 21
45.070417
 31
0.0
210
0.0
220
0.0
230
1.0
 73
     2
  0
TEXT
  8
3
  6
CONTINUOUS
 62
     2
  5
9E9
 10
-812.453417
 20
42.427667
 30
0.0
 40
1.064
  1
pre-approved shop drawings. Posts are to be set approximately radial  to the 
 41
0.950031
  7
MONOTXT
 72
     2
 11
-749.962583
 21
42.959667
 31
0.0
210
0.0
220
0.0
230
1.0
 73
     2
  0
TEXT
  8
3
  6
CONTINUOUS
 62
     2
  5
9EA
 10
-812.478333
 20
40.26725
 30
0.0
 40
1.064
  1
railing at each location. 
 41
0.950031
  7
MONOTXT
 72
     2
 11
-793.70625
 21
40.79925
 31
0.0
210
0.0
220
0.0
230
1.0
 73
     2
  0
TEXT
  8
3
  6
CONTINUOUS
 62
     2
  5
9EB
 10
-813.19325
 20
24.301
 30
0.0
 40
1.064
  1
 miscellaneous hardware and parts as detailed on the pre-approved shop 
 41
0.950031
  7
MONOTXT
 72
     2
 11
-753.527833
 21
24.833
 31
0.0
210
0.0
220
0.0
230
1.0
 73
     2
  0
TEXT
  8
3
  6
CONTINUOUS
 62
     7
  5
9EC
 10
-943.274917
 20
98.715417
 30
0.0
 40
1.05625
  1
Terminal Post is included
  7
MONOTXT
 11
-943.274917
 21
99.771667
 31
0.0
210
0.0
220
0.0
230
1.0
 73
     3
  0
TEXT
  8
3
  6
CONTINUOUS
 62
     7
  5
9ED
 10
-943.214417
 20
96.840167
 30
0.0
 40
1.05625
  1
for payment with guardrail.
  7
MONOTXT
 11
-943.214417
 21
97.896417
 31
0.0
210
0.0
220
0.0
230
1.0
 73
     3
  0
INSERT
  8
3
  6
CONTINUOUS
 62
     2
  5
9EE
  2
DIMARO
 10
-948.69375
 20
85.93725
 30
0.0
 41
15.248504
 42
15.248504
 50
255.000003
210
0.0
220
0.0
230
1.0
  0
LINE
  8
3
  6
CONTINUOUS
 62
     2
  5
9EF
 10
-948.69375
 20
85.93725
 30
0.0
 11
-944.977417
 21
99.289167
 31
0.0
  0
LINE
  8
3
  6
CONTINUOUS
 62
     2
  5
9F0
 10
-944.977417
 20
99.289167
 30
0.0
 11
-944.112667
 21
99.289167
 31
0.0
  0
TEXT
  8
3
  6
CONTINUOUS
 62
     7
  5
9F1
 10
-913.714583
 20
71.570667
 30
0.0
 40
1.9
  1
PARABOLIC LAYOUT PLAN
  7
MONOTXT
 72
     4
 11
-894.805167
 21
72.520667
 31
0.0
210
0.0
220
0.0
230
1.0
  0
TEXT
  8
3
  6
CONTINUOUS
 62
     7
  5
9F2
 10
-918.52775
 20
6.069333
 30
0.0
 40
1.064
  1
Deduct 25'-0" From The 
  7
MONOTXT
210
0.0
220
0.0
230
1.0
  0
LINE
  8
3
  6
CONTINUOUS
 62
     2
  5
9F3
 10
-949.1515
 20
90.7645
 30
0.0
 11
-949.1515
 21
70.684
 31
0.0
  0
LINE
  8
3
  6
CONTINUOUS
 62
     2
  5
9F4
 10
-949.1515
 20
69.232417
 30
0.0
 11
-949.1515
 21
67.024833
 31
0.0
  0
LINE
  8
3
  6
CONTINUOUS
 62
     2
  5
9F5
 10
-949.1515
 20
65.573167
 30
0.0
 11
-949.1515
 21
26.5915
 31
0.0
  0
LINE
  8
3
  6
CONTINUOUS
 62
     2
  5
9F6
 10
-949.1515
 20
25.502833
 30
0.0
 11
-949.1515
 21
23.74875
 31
0.0
  0
LINE
  8
3
  6
CONTINUOUS
 62
     2
  5
9F7
 10
-949.1515
 20
22.720583
 30
0.0
 11
-949.1515
 21
-1.64625
 31
0.0
  0
TEXT
  8
3
  6
CONTINUOUS
 62
     7
  5
9F8
 10
-910.052833
 20
0.583167
 30
0.0
 40
1.064
  1
37'-6" Flared Terminal Per Pre-Approved Shop Drawing
  7
MONOTXT
210
0.0
220
0.0
230
1.0
  0
LINE
  8
3
  6
CONTINUOUS
 62
     2
  5
9F9
 10
-829.142833
 20
120.837417
 30
0.0
 11
-829.142833
 21
113.969917
 31
0.0
  0
LINE
  8
3
  6
CONTINUOUS
 62
     2
  5
9FA
 10
-829.003917
 20
97.085583
 30
0.0
 11
-816.804917
 21
97.085583
 31
0.0
  0
LINE
  8
3
  6
CONTINUOUS
 62
     2
  5
9FB
 10
-829.003917
 20
94.772083
 30
0.0
 11
-816.804917
 21
94.772083
 31
0.0
  0
LINE
  8
3
  6
CONTINUOUS
 62
     2
  5
9FC
 10
-829.142833
 20
112.48075
 30
0.0
 11
-816.804917
 21
112.48075
 31
0.0
  0
INSERT
  8
3
  6
CONTINUOUS
 62
     2
  5
9FD
  2
DIMARO
 10
-817.409167
 20
112.48075
 30
0.0
 41
15.248505
 42
15.248505
 50
90.0
210
0.0
220
0.0
230
1.0
  0
INSERT
  8
3
  6
CONTINUOUS
 62
     2
  5
9FE
  2
DIMARO
 10
-817.409167
 20
94.772083
 30
0.0
 41
15.248505
 42
15.248505
 50
90.0
210
0.0
220
0.0
230
1.0
  0
INSERT
  8
3
  6
CONTINUOUS
 62
     2
  5
9FF
  2
DIMARO
 10
-817.409167
 20
97.085583
 30
0.0
 41
15.248505
 42
15.248505
 50
270.0
210
0.0
220
0.0
230
1.0
  0
INSERT
  8
3
  6
CONTINUOUS
 62
     2
  5
A00
  2
DIMARO
 10
-817.409167
 20
81.769583
 30
0.0
 41
15.248505
 42
15.248505
 50
270.0
210
0.0
220
0.0
230
1.0
  0
LINE
  8
3
  6
CONTINUOUS
 62
     2
  5
A01
 10
-817.409167
 20
81.769583
 30
0.0
 11
-817.409167
 21
94.772083
 31
0.0
  0
LINE
  8
3
  6
CONTINUOUS
 62
     2
  5
A02
 10
-817.409167
 20
97.085583
 30
0.0
 11
-817.409167
 21
112.48075
 31
0.0
  0
TEXT
  8
3
  6
CONTINUOUS
 62
     7
  5
A03
 10
-817.856083
 20
86.076667
 30
0.0
 40
1.064
  1
4'-0"
 50
90.0
  7
MONOTXT
210
0.0
220
0.0
230
1.0
  0
TEXT
  8
3
  6
CONTINUOUS
 62
     7
  5
A04
 10
-818.037417
 20
98.77825
 30
0.0
 40
1.064
  1
3'-0" (min.)
 50
90.0
  7
MONOTXT
210
0.0
220
0.0
230
1.0
  0
TEXT
  8
3
  6
CONTINUOUS
 62
     7
  5
A05
 10
-840.922167
 20
104.9535
 30
0.0
 40
1.05625
  1
shoulder
  7
MONOTXT
 11
-840.922167
 21
105.481667
 31
0.0
210
0.0
220
0.0
230
1.0
 73
     2
  0
LINE
  8
3
  6
CONTINUOUS
 62
     2
  5
A06
 10
-820.52925
 20
110.724583
 30
0.0
 11
-822.99475
 21
105.44475
 31
0.0
  0
LINE
  8
3
  6
CONTINUOUS
 62
     2
  5
A07
 10
-822.99475
 20
105.44475
 30
0.0
 11
-824.0945
 21
105.44475
 31
0.0
  0
TEXT
  8
3
  6
CONTINUOUS
 62
     7
  5
A08
 10
-929.7125
 20
87.57025
 30
0.0
 40
1.05625
  1
1'-0"
 50
90.0
  7
MONOTXT
 11
-930.76875
 21
87.57025
 31
0.0
210
0.0
220
0.0
230
1.0
 73
     3
  0
TEXT
  8
3
  6
CONTINUOUS
 62
   110
  5
A09
 10
-874.606417
 20
119.399667
 30
0.0
 40
1.052583
  1
26'-0"
  7
MONOTXT
 72
     1
 11
-872.190583
 21
119.399667
 31
0.0
210
0.0
220
0.0
230
1.0
  0
TEXT
  8
1
  6
CONTINUOUS
 62
     2
  5
A0A
 10
-775.842583
 20
-16.577083
 30
0.0
 40
1.666667
  1
PARABOLIC LAYOUT
  7
txt
 72
     4
 11
-762.889917
 21
-15.74375
 31
0.0
210
0.0
220
0.0
230
1.0
  0
TEXT
  8
3
  6
CONTINUOUS
 62
     2
  5
A0B
 10
-812.853917
 20
54.626583
 30
0.0
 40
1.064
  1
Standard Specifications Road and Bridges.
 41
0.950031
  7
MONOTXT
 72
     2
 11
-779.57
 21
55.158583
 31
0.0
210
0.0
220
0.0
230
1.0
 73
     2
  0
TEXT
  8
3
  6
CONTINUOUS
 62
     2
  5
A0C
 10
-812.063083
 20
17.955167
 30
0.0
 40
1.064
  1
Yellow reflective sheeting shall cover the entire nose of those terminals
 41
0.950031
  7
MONOTXT
 72
     2
 11
-754.9145
 21
18.487167
 31
0.0
210
0.0
220
0.0
230
1.0
 73
     2
  0
TEXT
  8
3
  6
CONTINUOUS
 62
     2
  5
A0D
 10
-812.06725
 20
16.019833
 30
0.0
 40
1.064
  1
with a flat impact head. Those terminals with a rounded impact head shall
 41
0.950031
  7
MONOTXT
 72
     2
 11
-753.34325
 21
16.551833
 31
0.0
210
0.0
220
0.0
230
1.0
 73
     2
  0
TEXT
  8
3
  6
CONTINUOUS
 62
     2
  5
A0E
 10
-811.738333
 20
14.20525
 30
0.0
 40
1.064
  1
be covered with a 1'-0" X 3'-0" yellow reflective sheet.
 41
0.950031
  7
MONOTXT
 72
     2
 11
-766.87925
 21
14.73725
 31
0.0
210
0.0
220
0.0
230
1.0
 73
     2
  0
TEXT
  8
3
  6
CONTINUOUS
 62
   110
  5
A0F
 10
-851.157333
 20
46.263917
 30
0.0
 40
1.064
  1
Yellow reflective adhesive sheeting
  7
MONOTXT
 11
-851.157333
 21
46.795917
 31
0.0
210
0.0
220
0.0
230
1.0
 73
     2
  0
TEXT
  8
3
  6
CONTINUOUS
 62
   110
  5
A10
 10
-848.252417
 20
43.961
 30
0.0
 40
1.064
  1
to be applied to nose.
  7
MONOTXT
 11
-848.252417
 21
44.493
 31
0.0
210
0.0
220
0.0
230
1.0
 73
     2
  0
LINE
  8
3
  6
CONTINUOUS
 62
     2
  5
A11
 10
-829.142833
 20
64.50425
 30
0.0
 11
-829.142833
 21
-1.64625
 31
0.0
  0
LINE
  8
3
  6
CONTINUOUS
 62
     2
  5
A12
 10
-829.142833
 20
112.48075
 30
0.0
 11
-829.142833
 21
70.618667
 31
0.0
  0
LINE
  8
3
  6
CONTINUOUS
 62
     2
  5
A13
 10
-829.142833
 20
68.5805
 30
0.0
 11
-829.142833
 21
66.072083
 31
0.0
  0
TEXT
  8
3
  6
CONTINUOUS
 62
     2
  5
A14
 10
-812.76
 20
59.879417
 30
0.0
 40
1.064
  1
For details of Flared End Terminal see pre approved shop drawings.
 41
0.950031
  7
MONOTXT
 72
     2
 11
-759.040083
 21
60.411417
 31
0.0
210
0.0
220
0.0
230
1.0
 73
     2
  0
TEXT
  8
3
  6
CONTINUOUS
 62
     2
  5
A15
 10
-812.376667
 20
26.436333
 30
0.0
 40
1.064
  1
The cost of furnishing and installing the Flared End Terminal, complete with all
 41
0.950031
  7
MONOTXT
 72
     2
 11
-749.942167
 21
26.968333
 31
0.0
210
0.0
220
0.0
230
1.0
 73
     2
  0
TEXT
  8
1
  6
CONTINUOUS
 62
     2
  5
A16
 10
-778.806333
 20
-12.948083
 30
0.0
 40
1.666667
  1
FLARED END TERMINAL
  7
txt
 72
     4
 11
-763.373333
 21
-12.11475
 31
0.0
210
0.0
220
0.0
230
1.0
  0
TEXT
  8
3
  6
CONTINUOUS
 62
     2
  5
A17
 10
-812.312417
 20
21.892
 30
0.0
 40
1.064
  1
drawings , is to be included in the unit price bid for "Flared End Terminal".
 41
0.950031
  7
MONOTXT
 72
     2
 11
-752.54375
 21
22.424
 31
0.0
210
0.0
220
0.0
230
1.0
 73
     2
  0
TEXT
  8
1
  6
HIDDEN
 62
   140
  5
A18
 10
-778.34325
 20
-4.91
 30
0.0
 40
1.5
  1
STANDARD DETAIL
  7
ROMANT
 72
     4
 11
-770.518417
 21
-4.16
 31
0.0
210
0.0
220
0.0
230
1.0
  0
TEXT
  8
1
  6
CONTINUOUS
 62
     2
  5
A19
 10
-776.255
 20
-25.796
 30
0.0
 40
1.333333
  1
STANDARD SHEET GR5
  7
txt
 72
     4
 11
-764.57
 21
-25.129333
 31
0.0
210
0.0
220
0.0
230
1.0
  0
LINE
  8
3
  6
CONTINUOUS
 62
     2
  5
A1A
 10
-949.1515
 20
129.826167
 30
0.0
 11
-949.1515
 21
90.7645
 31
0.0
  0
LINE
  8
3
  6
CONTINUOUS
 62
     2
  5
A1B
 10
-949.1515
 20
128.261083
 30
0.0
 11
-829.142833
 21
128.261083
 31
0.0
  0
POLYLINE
  8
3
  6
CONTINUOUS
 62
     2
  5
A1C
 66
     1
 10
0.0
 20
0.0
 30
0.0
  0
VERTEX
  8
3
  6
CONTINUOUS
 62
     2
  5
A1D
 10
-948.308417
 20
127.83925
 30
0.0
  0
VERTEX
  8
3
  6
CONTINUOUS
 62
     2
  5
A1E
 10
-949.1515
 20
128.261083
 30
0.0
  0
VERTEX
  8
3
  6
CONTINUOUS
 62
     2
  5
A1F
 10
-948.308417
 20
128.68525
 30
0.0
  0
SEQEND
  8
3
  6
CONTINUOUS
 62
     2
  5
A20
  0
POLYLINE
  8
3
  6
CONTINUOUS
 62
     2
  5
A21
 66
     1
 10
0.0
 20
0.0
 30
0.0
  0
VERTEX
  8
3
  6
CONTINUOUS
 62
     2
  5
A22
 10
-829.985833
 20
127.83925
 30
0.0
  0
VERTEX
  8
3
  6
CONTINUOUS
 62
     2
  5
A23
 10
-829.142833
 20
128.261083
 30
0.0
  0
VERTEX
  8
3
  6
CONTINUOUS
 62
     2
  5
A24
 10
-829.985833
 20
128.68525
 30
0.0
  0
SEQEND
  8
3
  6
CONTINUOUS
 62
     2
  5
A25
  0
TEXT
  8
3
  6
CONTINUOUS
 62
   110
  5
A26
 10
-896.82125
 20
126.364417
 30
0.0
 40
1.052583
  1
"FLARED END TERMINAL"
  7
MONOTXT
 72
     1
 11
-886.739417
 21
126.364417
 31
0.0
210
0.0
220
0.0
230
1.0
  0
LINE
  8
3
  6
CONTINUOUS
 62
     2
  5
A27
 10
-949.1515
 20
128.261083
 30
0.0
 11
-969.527417
 21
128.261083
 31
0.0
  0
POLYLINE
  8
3
  6
CONTINUOUS
 62
     2
  5
A28
 66
     1
 10
0.0
 20
0.0
 30
0.0
  0
VERTEX
  8
3
  6
CONTINUOUS
 62
     2
  5
A29
 10
-949.9945
 20
127.83925
 30
0.0
  0
VERTEX
  8
3
  6
CONTINUOUS
 62
     2
  5
A2A
 10
-949.1515
 20
128.261083
 30
0.0
  0
VERTEX
  8
3
  6
CONTINUOUS
 62
     2
  5
A2B
 10
-949.9945
 20
128.68525
 30
0.0
  0
SEQEND
  8
3
  6
CONTINUOUS
 62
     2
  5
A2C
  0
TEXT
  8
3
  6
CONTINUOUS
 62
   110
  5
A2D
 10
-968.906167
 20
128.94675
 30
0.0
 40
1.052583
  1
GUARDRAIL PAY LIMIT
  7
MONOTXT
 72
     1
 11
-960.1875
 21
128.94675
 31
0.0
210
0.0
220
0.0
230
1.0
  0
LINE
  8
3
  6
CONTINUOUS
 62
     2
  5
A2E
 10
-829.142833
 20
120.837417
 30
0.0
 11
-829.142833
 21
129.826167
 31
0.0
  0
TEXT
  8
1
  6
CONTINUOUS
 62
     2
  5
A2F
 10
-794.1015
 20
-10.176833
 30
0.0
 40
0.666667
  1
  PREPARED 7-1-99 
  7
ROMANS
 72
     4
 11
-788.212667
 21
-9.8435
 31
0.0
210
0.0
220
0.0
230
1.0
  0
TEXT
  8
3
  6
CONTINUOUS
 62
   110
  5
A30
 10
-899.111833
 20
128.94675
 30
0.0
 40
1.052583
  1
PAY LIMITS ITEM 607065-001
  7
MONOTXT
 72
     1
 11
-886.895833
 21
128.94675
 31
0.0
210
0.0
220
0.0
230
1.0
  0
ENDSEC
  0
EOF
