  0
SECTION
  2
HEADER
  9
$ACADVER
  1
AC1009
  9
$INSBASE
 10
0.0
 20
0.0
 30
0.0
  9
$EXTMIN
 10
-42.9125
 20
-1.323833
 30
0.0
  9
$EXTMAX
 10
4.80375
 20
20.676167
 30
0.0
  9
$LIMMIN
 10
0.0
 20
0.0
  9
$LIMMAX
 10
12.0
 20
9.0
  9
$ORTHOMODE
 70
     0
  9
$REGENMODE
 70
     1
  9
$FILLMODE
 70
     1
  9
$QTEXTMODE
 70
     0
  9
$MIRRTEXT
 70
     1
  9
$DRAGMODE
 70
     2
  9
$LTSCALE
 40
1.0
  9
$OSMODE
 70
     0
  9
$ATTMODE
 70
     1
  9
$TEXTSIZE
 40
0.2
  9
$TRACEWID
 40
0.05
  9
$TEXTSTYLE
  7
STANDARD
  9
$CLAYER
  8
0
  9
$CELTYPE
  6
CONTINUOUS
  9
$CECOLOR
 62
   256
  9
$DIMSCALE
 40
1.0
  9
$DIMASZ
 40
0.18
  9
$DIMEXO
 40
0.0625
  9
$DIMDLI
 40
0.38
  9
$DIMRND
 40
0.0
  9
$DIMDLE
 40
0.0
  9
$DIMEXE
 40
0.18
  9
$DIMTP
 40
0.0
  9
$DIMTM
 40
0.0
  9
$DIMTXT
 40
0.18
  9
$DIMCEN
 40
0.09
  9
$DIMTSZ
 40
0.0
  9
$DIMTOL
 70
     0
  9
$DIMLIM
 70
     0
  9
$DIMTIH
 70
     1
  9
$DIMTOH
 70
     1
  9
$DIMSE1
 70
     0
  9
$DIMSE2
 70
     0
  9
$DIMTAD
 70
     0
  9
$DIMZIN
 70
     0
  9
$DIMBLK
  1

  9
$DIMASO
 70
     1
  9
$DIMSHO
 70
     1
  9
$DIMPOST
  1

  9
$DIMAPOST
  1

  9
$DIMALT
 70
     0
  9
$DIMALTD
 70
     2
  9
$DIMALTF
 40
25.4
  9
$DIMLFAC
 40
1.0
  9
$DIMTOFL
 70
     0
  9
$DIMTVP
 40
0.0
  9
$DIMTIX
 70
     0
  9
$DIMSOXD
 70
     0
  9
$DIMSAH
 70
     0
  9
$DIMBLK1
  1

  9
$DIMBLK2
  1

  9
$DIMSTYLE
  2
STANDARD
  9
$DIMCLRD
 70
     0
  9
$DIMCLRE
 70
     0
  9
$DIMCLRT
 70
     0
  9
$DIMTFAC
 40
1.0
  9
$DIMGAP
 40
0.09
  9
$LUNITS
 70
     2
  9
$LUPREC
 70
     4
  9
$AXISMODE
 70
     0
  9
$AXISUNIT
 10
0.0
 20
0.0
  9
$SKETCHINC
 40
0.1
  9
$FILLETRAD
 40
0.0
  9
$AUNITS
 70
     0
  9
$AUPREC
 70
     0
  9
$MENU
  1
acad
  9
$ELEVATION
 40
0.0
  9
$PELEVATION
 40
0.0
  9
$THICKNESS
 40
0.0
  9
$LIMCHECK
 70
     0
  9
$BLIPMODE
 70
     1
  9
$CHAMFERA
 40
0.0
  9
$CHAMFERB
 40
0.0
  9
$SKPOLY
 70
     0
  9
$TDCREATE
 40
2451562.629270834
  9
$TDUPDATE
 40
2451562.629270834
  9
$TDINDWG
 40
0.0000000000
  9
$TDUSRTIMER
 40
0.0000000000
  9
$USRTIMER
 70
     1
  9
$ANGBASE
 50
0.0
  9
$ANGDIR
 70
     0
  9
$PDMODE
 70
     0
  9
$PDSIZE
 40
0.0
  9
$PLINEWID
 40
0.0
  9
$COORDS
 70
     0
  9
$SPLFRAME
 70
     0
  9
$SPLINETYPE
 70
     6
  9
$SPLINESEGS
 70
    10
  9
$ATTDIA
 70
     0
  9
$ATTREQ
 70
     1
  9
$HANDLING
 70
     1
  9
$HANDSEED
  5
7B4
  9
$SURFTAB1
 70
     6
  9
$SURFTAB2
 70
     6
  9
$SURFTYPE
 70
     6
  9
$SURFU
 70
     6
  9
$SURFV
 70
     6
  9
$UCSNAME
  2

  9
$UCSORG
 10
0.0
 20
0.0
 30
0.0
  9
$UCSXDIR
 10
1.0
 20
0.0
 30
0.0
  9
$UCSYDIR
 10
0.0
 20
1.0
 30
0.0
  9
$PUCSNAME
  2

  9
$PUCSORG
 10
0.0
 20
0.0
 30
0.0
  9
$PUCSXDIR
 10
1.0
 20
0.0
 30
0.0
  9
$PUCSYDIR
 10
0.0
 20
1.0
 30
0.0
  9
$USERI1
 70
     0
  9
$USERI2
 70
     0
  9
$USERI3
 70
     0
  9
$USERI4
 70
     0
  9
$USERI5
 70
     0
  9
$USERR1
 40
0.0
  9
$USERR2
 40
0.0
  9
$USERR3
 40
0.0
  9
$USERR4
 40
0.0
  9
$USERR5
 40
0.0
  9
$WORLDVIEW
 70
     1
  9
$SHADEDGE
 70
     3
  9
$SHADEDIF
 70
    70
  9
$TILEMODE
 70
     1
  9
$MAXACTVP
 70
    16
  9
$PINSBASE
 10
0.0
 20
0.0
 30
0.0
  9
$PLIMCHECK
 70
     0
  9
$PEXTMIN
 10
-1.000000E+20
 20
-1.000000E+20
 30
-1.000000E+20
  9
$PEXTMAX
 10
-1.000000E+20
 20
-1.000000E+20
 30
-1.000000E+20
  9
$PLIMMIN
 10
0.0
 20
0.0
  9
$PLIMMAX
 10
12.0
 20
9.0
  9
$UNITMODE
 70
     0
  9
$VISRETAIN
 70
     0
  9
$PLINEGEN
 70
     1
  9
$PSLTSCALE
 70
     0
  9
$TREEDEPTH
 70
  3020
  9
$DWGCODEPAGE
  3
ansi_1252
  0
ENDSEC
  0
SECTION
  2
TABLES
  0
TABLE
  2
VPORT
 70
     1
  0
VPORT
  2
*ACTIVE
 70
     0
 10
0.0
 20
0.0
 11
1.0
 21
1.0
 12
0.0
 22
0.0
 13
0.0
 23
0.0
 14
0.0
 24
0.0
 15
0.0
 25
0.0
 16
0.0
 26
0.0
 36
1.0
 17
-27.283281
 27
9.685458
 37
0.0
 40
22.568583
 41
1.573741
 42
50.0
 43
0.000333
 44
0.0
 50
0.0
 51
0.0
 71
     0
 72
   100
 73
     1
 74
     0
 75
     0
 76
     0
 77
     0
 78
     0
  0
ENDTAB
  0
TABLE
  2
LTYPE
 70
     7
  0
LTYPE
  2
CONTINUOUS
 70
     0
  3
Solid line
 72
    65
 73
     0
 40
0.0
  0
LTYPE
  2
DOT
 70
    64
  3
. . . . . . . . . . . . . . . . . . . . . . . . . . . . . . . . .
 72
    65
 73
     2
 40
0.25
 49
0.0
 49
-0.25
  0
LTYPE
  2
HIDDEN
 70
    64
  3
__ __ __ __ __ __ __ __ __ __ __ __ __ __ __ __ __ __ __ __ __ 
 72
    65
 73
     2
 40
0.375
 49
0.25
 49
-0.125
  0
LTYPE
  2
DASHED
 70
    64
  3
__ __ __ __ __ __ __ __ __ __ __ __ __ __ __ __ __ __ __ __ __
 72
    65
 73
     2
 40
0.75
 49
0.5
 49
-0.25
  0
LTYPE
  2
DASHDOT
 70
    64
  3
__ . __ . __ . __ . __ . __ . __ . __ . __ . __ . __ . __ . _
 72
    65
 73
     4
 40
1.0
 49
0.5
 49
-0.25
 49
0.0
 49
-0.25
  0
LTYPE
  2
DIVIDE
 70
    64
  3
____ . . ____ . . ____ . . ____ . . ____ . . ____ . . ____ . .
 72
    65
 73
     6
 40
1.25
 49
0.5
 49
-0.25
 49
0.0
 49
-0.25
 49
0.0
 49
-0.25
  0
LTYPE
  2
CENTER
 70
    64
  3
____ _ ____ _ ____ _ ____ _ ____ _ ____ _ ____ _ ____ _ ____ _
 72
    65
 73
     4
 40
2.0
 49
1.25
 49
-0.25
 49
0.25
 49
-0.25
  0
ENDTAB
  0
TABLE
  2
LAYER
 70
     6
  0
LAYER
  2
0
 70
     0
 62
     7
  6
CONTINUOUS
  0
LAYER
  2
CONSTRUCTION_CLASS
 70
     1
 62
     7
  6
CONTINUOUS
  0
LAYER
  2
PATTERN_CLASS
 70
     0
 62
     7
  6
CONTINUOUS
  0
LAYER
  2
1
 70
    64
 62
     7
  6
CONTINUOUS
  0
LAYER
  2
DEFPOINTS
 70
    64
 62
     7
  6
CONTINUOUS
  0
LAYER
  2
3
 70
    64
 62
     7
  6
CONTINUOUS
  0
ENDTAB
  0
TABLE
  2
STYLE
 70
     5
  0
STYLE
  2
STANDARD
 70
     0
 40
0.0
 41
1.0
 50
0.0
 71
     0
 42
0.0
  3
txt
  4

  0
STYLE
  2
txt
 70
     0
 40
0.2
 41
1.0
 50
0.0
 71
     0
 42
0.2
  3
TXT
  4

  0
STYLE
  2
MONOTXT
 70
     0
 40
0.2
 41
1.0
 50
0.0
 71
     0
 42
0.2
  3
MONOTXT
  4

  0
STYLE
  2
ROMANT
 70
     0
 40
0.2
 41
1.0
 50
0.0
 71
     0
 42
0.2
  3
ROMANT
  4

  0
STYLE
  2
ROMANS
 70
     0
 40
0.2
 41
1.0
 50
0.0
 71
     0
 42
0.2
  3
ROMANS
  4

  0
ENDTAB
  0
TABLE
  2
VIEW
 70
     0
  0
ENDTAB
  0
TABLE
  2
UCS
 70
     0
  0
ENDTAB
  0
TABLE
  2
APPID
 70
     1
  0
APPID
  2
ACAD
 70
     0
  0
ENDTAB
  0
TABLE
  2
DIMSTYLE
 70
     2
  0
DIMSTYLE
  2
STANDARD
 70
     0
  3

  4

  5

  6

  7

 40
1.0
 41
0.18
 42
0.0625
 43
0.38
 44
0.18
 45
0.0
 46
0.0
 47
0.0
 48
0.0
140
0.18
141
0.09
142
0.0
143
25.4
144
1.0
145
0.0
146
1.0
147
0.09
 71
     0
 72
     0
 73
     1
 74
     1
 75
     0
 76
     0
 77
     0
 78
     0
170
     0
171
     2
172
     0
173
     0
174
     0
175
     0
176
     0
177
     0
178
     0
  0
DIMSTYLE
  2
MSADIM
 70
     0
  3

  4

  5

  6

  7

 40
1.0
 41
0.12
 42
0.06
 43
0.0
 44
0.06
 45
0.0
 46
0.0
 47
0.0
 48
0.0
140
0.12
141
0.06
142
0.0
143
25.4
144
1.0
145
0.06
146
1.0
147
0.06
 71
     0
 72
     0
 73
     1
 74
     1
 75
     1
 76
     1
 77
     0
 78
     2
170
     0
171
     2
172
     0
173
     1
174
     0
175
     0
176
     0
177
     0
178
     0
  0
ENDTAB
  0
ENDSEC
  0
SECTION
  2
BLOCKS
  0
BLOCK
  8
1
  6
CONTINUOUS
 62
     2
  5
568
  2
ARROW
 70
     0
 10
0.0
 20
0.0
 30
0.0
  3
ARROW
  0
SOLID
  8
1
  6
CONTINUOUS
 62
     2
  5
569
 10
-0.15
 20
0.025
 30
0.0
 11
0.0
 21
0.0
 31
0.0
 12
-0.15
 22
-0.025
 32
0.0
 13
-0.15
 23
-0.025
 33
0.0
  0
ENDBLK
  8
1
  6
CONTINUOUS
 62
     2
  5
56A
  0
BLOCK
  8
1
  6
CONTINUOUS
 62
     2
  5
56F
  2
*D1
 70
     1
 10
0.0
 20
0.0
 30
0.0
  3
*N1
  0
SOLID
  8
1
  6
CONTINUOUS
 62
     2
  5
570
 10
0.08975
 20
0.085167
 30
0.0
 11
0.0
 21
0.0
 31
0.0
 12
0.039083
 22
0.117333
 32
0.0
 13
0.039083
 23
0.117333
 33
0.0
  0
POLYLINE
  8
1
  6
CONTINUOUS
 62
     2
  5
571
 66
     1
 10
0.0
 20
0.0
 30
0.0
  0
VERTEX
  8
1
  6
CONTINUOUS
 62
     2
  5
572
 10
0.0
 20
0.0
 30
0.0
  0
VERTEX
  8
1
  6
CONTINUOUS
 62
     2
  5
573
 10
0.798083
 20
1.254583
 30
0.0
  0
VERTEX
  8
1
  6
CONTINUOUS
 62
     2
  5
574
 10
1.545417
 20
1.254583
 30
0.0
  0
SEQEND
  8
1
  6
CONTINUOUS
 62
     2
  5
575
  0
LINE
  8
1
  6
CONTINUOUS
 62
     2
  5
576
 10
1.545417
 20
1.254583
 30
0.0
 11
1.785417
 21
1.254583
 31
0.0
  0
TEXT
  8
1
  6
CONTINUOUS
 62
     2
  5
577
 10
1.845417
 20
1.194583
 30
0.0
 40
0.12
  1
Surface of ramp
  7
ROMANS
 11
1.845417
 21
1.254583
 31
0.0
210
0.0
220
0.0
230
1.0
 73
     2
  0
ENDBLK
  8
1
  6
CONTINUOUS
 62
     2
  5
578
  0
BLOCK
  8
1
  6
CONTINUOUS
 62
     2
  5
57D
  2
*D2
 70
     1
 10
0.0
 20
0.0
 30
0.0
  3
*N2
  0
SOLID
  8
1
  6
CONTINUOUS
 62
     2
  5
57E
 10
0.1005
 20
-0.072083
 30
0.0
 11
0.0
 21
0.0
 31
0.0
 12
0.122583
 22
-0.016333
 32
0.0
 13
0.122583
 23
-0.016333
 33
0.0
  0
POLYLINE
  8
1
  6
CONTINUOUS
 62
     2
  5
57F
 66
     1
 10
0.0
 20
0.0
 30
0.0
  0
VERTEX
  8
1
  6
CONTINUOUS
 62
     2
  5
580
 10
0.0
 20
0.0
 30
0.0
  0
VERTEX
  8
1
  6
CONTINUOUS
 62
     2
  5
581
 10
1.387667
 20
-0.54975
 30
0.0
  0
VERTEX
  8
1
  6
CONTINUOUS
 62
     2
  5
582
 10
1.483833
 20
-0.591
 30
0.0
  0
SEQEND
  8
1
  6
CONTINUOUS
 62
     2
  5
583
  0
LINE
  8
1
  6
CONTINUOUS
 62
     2
  5
584
 10
1.483833
 20
-0.591
 30
0.0
 11
1.723833
 21
-0.591
 31
0.0
  0
TEXT
  8
1
  6
CONTINUOUS
 62
     2
  5
585
 10
1.783833
 20
-0.651
 30
0.0
 40
0.12
  1
 1/4 " Expansion Joint Filler
  7
ROMANS
 11
1.783833
 21
-0.591
 31
0.0
210
0.0
220
0.0
230
1.0
 73
     2
  0
ENDBLK
  8
1
  6
CONTINUOUS
 62
     2
  5
586
  0
BLOCK
  8
1
  6
CONTINUOUS
 62
     2
  5
594
  2
*D3
 70
     1
 10
0.0
 20
0.0
 30
0.0
  3
*N3
  0
SOLID
  8
1
  6
CONTINUOUS
 62
     2
  5
595
 10
-0.12
 20
0.03
 30
0.0
 11
0.0
 21
0.0
 31
0.0
 12
-0.12
 22
-0.03
 32
0.0
 13
-0.12
 23
-0.03
 33
0.0
  0
POLYLINE
  8
1
  6
CONTINUOUS
 62
     2
  5
596
 66
     1
 10
0.0
 20
0.0
 30
0.0
  0
VERTEX
  8
1
  6
CONTINUOUS
 62
     2
  5
597
 10
0.0
 20
0.0
 30
0.0
  0
VERTEX
  8
1
  6
CONTINUOUS
 62
     2
  5
598
 10
-0.173083
 20
0.0
 30
0.0
  0
VERTEX
  8
1
  6
CONTINUOUS
 62
     2
  5
599
 10
-0.173083
 20
0.0
 30
0.0
  0
SEQEND
  8
1
  6
CONTINUOUS
 62
     2
  5
59A
  0
LINE
  8
1
  6
CONTINUOUS
 62
     2
  5
59B
 10
-0.173083
 20
0.0
 30
0.0
 11
-0.413083
 21
0.0
 31
0.0
  0
TEXT
  8
1
  6
CONTINUOUS
 62
     2
  5
59C
 10
-3.553
 20
-0.06
 30
0.0
 40
0.12
  1
Edge of Pavement or Gutter
  7
ROMANS
 11
-3.553
 21
0.0
 31
0.0
210
0.0
220
0.0
230
1.0
 73
     2
  0
ENDBLK
  8
1
  6
CONTINUOUS
 62
     2
  5
59D
  0
BLOCK
  8
1
  6
CONTINUOUS
 62
     2
  5
5A0
  2
*D4
 70
     1
 10
0.0
 20
0.0
 30
0.0
  3
*N4
  0
SOLID
  8
1
  6
CONTINUOUS
 62
     2
  5
5A1
 10
-0.12
 20
0.03
 30
0.0
 11
0.0
 21
0.0
 31
0.0
 12
-0.12
 22
-0.03
 32
0.0
 13
-0.12
 23
-0.03
 33
0.0
  0
POLYLINE
  8
1
  6
CONTINUOUS
 62
     2
  5
5A2
 66
     1
 10
0.0
 20
0.0
 30
0.0
  0
VERTEX
  8
1
  6
CONTINUOUS
 62
     2
  5
5A3
 10
0.0
 20
0.0
 30
0.0
  0
VERTEX
  8
1
  6
CONTINUOUS
 62
     2
  5
5A4
 10
-1.230333
 20
0.0
 30
0.0
  0
VERTEX
  8
1
  6
CONTINUOUS
 62
     2
  5
5A5
 10
-1.230333
 20
0.0
 30
0.0
  0
SEQEND
  8
1
  6
CONTINUOUS
 62
     2
  5
5A6
  0
LINE
  8
1
  6
CONTINUOUS
 62
     2
  5
5A7
 10
-1.230333
 20
0.0
 30
0.0
 11
-1.470333
 21
0.0
 31
0.0
  0
TEXT
  8
1
  6
CONTINUOUS
 62
     2
  5
5A8
 10
-1.970917
 20
-0.06
 30
0.0
 40
0.12
  1
Curb
  7
ROMANS
 11
-1.970917
 21
0.0
 31
0.0
210
0.0
220
0.0
230
1.0
 73
     2
  0
ENDBLK
  8
1
  6
CONTINUOUS
 62
     2
  5
5A9
  0
BLOCK
  8
1
  6
CONTINUOUS
 62
     2
  5
623
  2
*D5
 70
     1
 10
0.0
 20
0.0
 30
0.0
  3
*N5
  0
SOLID
  8
1
  6
CONTINUOUS
 62
     2
  5
624
 10
0.02925
 20
-0.120167
 30
0.0
 11
0.0
 21
0.0
 31
0.0
 12
0.082417
 22
-0.09225
 32
0.0
 13
0.082417
 23
-0.09225
 33
0.0
  0
POLYLINE
  8
1
  6
CONTINUOUS
 62
     2
  5
625
 66
     1
 10
0.0
 20
0.0
 30
0.0
  0
VERTEX
  8
1
  6
CONTINUOUS
 62
     2
  5
626
 10
0.0
 20
0.0
 30
0.0
  0
VERTEX
  8
1
  6
CONTINUOUS
 62
     2
  5
627
 10
0.515917
 20
-0.98175
 30
0.0
  0
VERTEX
  8
1
  6
CONTINUOUS
 62
     2
  5
628
 10
0.424917
 20
-0.98175
 30
0.0
  0
SEQEND
  8
1
  6
CONTINUOUS
 62
     2
  5
629
  0
LINE
  8
1
  6
CONTINUOUS
 62
     2
  5
62A
 10
0.424917
 20
-0.98175
 30
0.0
 11
0.184917
 21
-0.98175
 31
0.0
  0
TEXT
  8
1
  6
CONTINUOUS
 62
     2
  5
62B
 10
-1.156917
 20
-1.04175
 30
0.0
 40
0.12
  1
Obstruction
  7
ROMANS
 11
-1.156917
 21
-0.98175
 31
0.0
210
0.0
220
0.0
230
1.0
 73
     2
  0
ENDBLK
  8
1
  6
CONTINUOUS
 62
     2
  5
62C
  0
BLOCK
  8
1
  6
CONTINUOUS
 62
     2
  5
62F
  2
*D6
 70
     1
 10
0.0
 20
0.0
 30
0.0
  3
*N6
  0
SOLID
  8
1
  6
CONTINUOUS
 62
     2
  5
630
 10
-0.028
 20
0.1205
 30
0.0
 11
0.0
 21
0.0
 31
0.0
 12
-0.081417
 22
0.093083
 32
0.0
 13
-0.081417
 23
0.093083
 33
0.0
  0
LINE
  8
1
  6
CONTINUOUS
 62
     2
  5
631
 10
0.0
 20
0.0
 30
0.0
 11
-0.3225
 21
0.6295
 31
0.0
  0
LINE
  8
1
  6
CONTINUOUS
 62
     2
  5
632
 10
-0.3225
 20
0.6295
 30
0.0
 11
-0.5625
 21
0.6295
 31
0.0
  0
TEXT
  8
1
  6
CONTINUOUS
 62
     2
  5
633
 10
-1.904333
 20
0.5695
 30
0.0
 40
0.12
  1
Obstruction
  7
ROMANS
 11
-1.904333
 21
0.6295
 31
0.0
210
0.0
220
0.0
230
1.0
 73
     2
  0
ENDBLK
  8
1
  6
CONTINUOUS
 62
     2
  5
634
  0
BLOCK
  8
1
  6
CONTINUOUS
 62
     2
  5
637
  2
*D7
 70
     1
 10
0.0
 20
0.0
 30
0.0
  3
*N7
  0
SOLID
  8
1
  6
CONTINUOUS
 62
     2
  5
638
 10
-0.00075
 20
0.123667
 30
0.0
 11
0.0
 21
0.0
 31
0.0
 12
-0.058833
 22
0.10875
 32
0.0
 13
-0.058833
 23
0.10875
 33
0.0
  0
LINE
  8
1
  6
CONTINUOUS
 62
     2
  5
639
 10
0.0
 20
0.0
 30
0.0
 11
-0.314667
 21
1.227417
 31
0.0
  0
LINE
  8
1
  6
CONTINUOUS
 62
     2
  5
63A
 10
-0.314667
 20
1.227417
 30
0.0
 11
-0.554667
 21
1.227417
 31
0.0
  0
TEXT
  8
1
  6
CONTINUOUS
 62
     2
  5
63B
 10
-1.8965
 20
1.167417
 30
0.0
 40
0.12
  1
Obstruction
  7
ROMANS
 11
-1.8965
 21
1.227417
 31
0.0
210
0.0
220
0.0
230
1.0
 73
     2
  0
ENDBLK
  8
1
  6
CONTINUOUS
 62
     2
  5
63C
  0
BLOCK
  8
1
  6
CONTINUOUS
 62
     2
  5
63F
  2
*D8
 70
     1
 10
0.0
 20
0.0
 30
0.0
  3
*N8
  0
SOLID
  8
1
  6
CONTINUOUS
 62
     2
  5
640
 10
-0.08925
 20
-0.085583
 30
0.0
 11
0.0
 21
0.0
 31
0.0
 12
-0.0385
 22
-0.117583
 32
0.0
 13
-0.0385
 23
-0.117583
 33
0.0
  0
LINE
  8
1
  6
CONTINUOUS
 62
     2
  5
641
 10
0.0
 20
0.0
 30
0.0
 11
-0.4405
 21
-0.700333
 31
0.0
  0
LINE
  8
1
  6
CONTINUOUS
 62
     2
  5
642
 10
-0.4405
 20
-0.700333
 30
0.0
 11
-0.6805
 21
-0.700333
 31
0.0
  0
TEXT
  8
1
  6
CONTINUOUS
 62
     2
  5
643
 10
-2.022333
 20
-0.760333
 30
0.0
 40
0.12
  1
Obstruction
  7
ROMANS
 11
-2.022333
 21
-0.700333
 31
0.0
210
0.0
220
0.0
230
1.0
 73
     2
  0
ENDBLK
  8
1
  6
CONTINUOUS
 62
     2
  5
644
  0
BLOCK
  8
1
  6
CONTINUOUS
 62
     2
  5
64A
  2
*D9
 70
     1
 10
0.0
 20
0.0
 30
0.0
  3
*N9
  0
SOLID
  8
1
  6
CONTINUOUS
 62
     2
  5
64B
 10
-0.07925
 20
-0.095
 30
0.0
 11
0.0
 21
0.0
 31
0.0
 12
-0.025167
 22
-0.121083
 32
0.0
 13
-0.025167
 23
-0.121083
 33
0.0
  0
LINE
  8
1
  6
CONTINUOUS
 62
     2
  5
64C
 10
0.0
 20
0.0
 30
0.0
 11
-0.361
 21
-0.747167
 31
0.0
  0
LINE
  8
1
  6
CONTINUOUS
 62
     2
  5
64D
 10
-0.361
 20
-0.747167
 30
0.0
 11
-0.601
 21
-0.747167
 31
0.0
  0
TEXT
  8
1
  6
CONTINUOUS
 62
     2
  5
64E
 10
-1.221583
 20
-0.807167
 30
0.0
 40
0.12
  1
Inlet
  7
ROMANS
 11
-1.221583
 21
-0.747167
 31
0.0
210
0.0
220
0.0
230
1.0
 73
     2
  0
ENDBLK
  8
1
  6
CONTINUOUS
 62
     2
  5
64F
  0
BLOCK
  8
1
  6
CONTINUOUS
 62
     2
  5
652
  2
*D10
 70
     1
 10
0.0
 20
0.0
 30
0.0
  3
*N10
  0
SOLID
  8
1
  6
CONTINUOUS
 62
     2
  5
653
 10
0.0515
 20
-0.112417
 30
0.0
 11
0.0
 21
0.0
 31
0.0
 12
0.098417
 22
-0.075
 32
0.0
 13
0.098417
 23
-0.075
 33
0.0
  0
LINE
  8
1
  6
CONTINUOUS
 62
     2
  5
654
 10
0.0
 20
0.0
 30
0.0
 11
0.776917
 21
-0.9715
 31
0.0
  0
LINE
  8
1
  6
CONTINUOUS
 62
     2
  5
655
 10
0.776917
 20
-0.9715
 30
0.0
 11
1.016917
 21
-0.9715
 31
0.0
  0
TEXT
  8
1
  6
CONTINUOUS
 62
     2
  5
656
 10
1.076917
 20
-1.0315
 30
0.0
 40
0.12
  1
Obstruction
  7
ROMANS
 11
1.076917
 21
-0.9715
 31
0.0
210
0.0
220
0.0
230
1.0
 73
     2
  0
ENDBLK
  8
1
  6
CONTINUOUS
 62
     2
  5
657
  0
BLOCK
  8
1
  6
CONTINUOUS
 62
     2
  5
65A
  2
*D11
 70
     1
 10
0.0
 20
0.0
 30
0.0
  3
*N11
  0
SOLID
  8
1
  6
CONTINUOUS
 62
     2
  5
65B
 10
-0.075333
 20
0.098083
 30
0.0
 11
0.0
 21
0.0
 31
0.0
 12
-0.112667
 22
0.051083
 32
0.0
 13
-0.112667
 23
0.051083
 33
0.0
  0
LINE
  8
1
  6
CONTINUOUS
 62
     2
  5
65C
 10
0.0
 20
0.0
 30
0.0
 11
-0.6035
 21
0.47875
 31
0.0
  0
TEXT
  8
1
  6
CONTINUOUS
 62
     2
  5
65D
 10
-0.56625
 20
0.52575
 30
0.0
 40
0.12
  1
12:1
 50
321.575414
  7
ROMANS
 11
-0.528961
 21
0.572756
 31
0.0
210
0.0
220
0.0
230
1.0
 73
     2
  0
ENDBLK
  8
1
  6
CONTINUOUS
 62
     2
  5
65E
  0
BLOCK
  8
1
  6
CONTINUOUS
 62
     2
  5
661
  2
*D12
 70
     1
 10
0.0
 20
0.0
 30
0.0
  3
*N12
  0
SOLID
  8
1
  6
CONTINUOUS
 62
     2
  5
662
 10
0.11325
 20
0.049833
 30
0.0
 11
0.0
 21
0.0
 31
0.0
 12
0.076417
 22
0.09725
 32
0.0
 13
0.076417
 23
0.09725
 33
0.0
  0
LINE
  8
1
  6
CONTINUOUS
 62
     2
  5
663
 10
0.0
 20
0.0
 30
0.0
 11
0.554917
 21
0.43025
 31
0.0
  0
TEXT
  8
1
  6
CONTINUOUS
 62
     2
  5
664
 10
0.202
 20
0.232583
 30
0.0
 40
0.12
  1
12:1
 50
37.787911
  7
ROMANS
 11
0.165236
 21
0.28
 31
0.0
210
0.0
220
0.0
230
1.0
 73
     2
  0
ENDBLK
  8
1
  6
CONTINUOUS
 62
     2
  5
665
  0
BLOCK
  8
1
  6
CONTINUOUS
 62
     2
  5
668
  2
*D13
 70
     1
 10
0.0
 20
0.0
 30
0.0
  3
*N13
  0
SOLID
  8
1
  6
CONTINUOUS
 62
     2
  5
669
 10
-0.07875
 20
0.095417
 30
0.0
 11
0.0
 21
0.0
 31
0.0
 12
-0.114417
 22
0.047083
 32
0.0
 13
-0.114417
 23
0.047083
 33
0.0
  0
LINE
  8
1
  6
CONTINUOUS
 62
     2
  5
66A
 10
0.0
 20
0.0
 30
0.0
 11
-0.554917
 21
0.409333
 31
0.0
  0
TEXT
  8
1
  6
CONTINUOUS
 62
     2
  5
66B
 10
-0.519333
 20
0.457583
 30
0.0
 40
0.12
  1
12:1
 50
323.585722
  7
ROMANS
 11
-0.483716
 21
0.505868
 31
0.0
210
0.0
220
0.0
230
1.0
 73
     2
  0
ENDBLK
  8
1
  6
CONTINUOUS
 62
     2
  5
66C
  0
BLOCK
  8
1
  6
CONTINUOUS
 62
     2
  5
66F
  2
*D14
 70
     1
 10
0.0
 20
0.0
 30
0.0
  3
*N14
  0
SOLID
  8
1
  6
CONTINUOUS
 62
     2
  5
670
 10
0.113083
 20
0.050167
 30
0.0
 11
0.0
 21
0.0
 31
0.0
 12
0.076167
 22
0.097417
 32
0.0
 13
0.076167
 23
0.097417
 33
0.0
  0
LINE
  8
1
  6
CONTINUOUS
 62
     2
  5
671
 10
0.0
 20
0.0
 30
0.0
 11
0.471667
 21
0.36775
 31
0.0
  0
TEXT
  8
1
  6
CONTINUOUS
 62
     2
  5
672
 10
0.119333
 20
0.169083
 30
0.0
 40
0.12
  1
12:1
 50
37.9429
  7
ROMANS
 11
0.082441
 21
0.216401
 31
0.0
210
0.0
220
0.0
230
1.0
 73
     2
  0
ENDBLK
  8
1
  6
CONTINUOUS
 62
     2
  5
673
  0
BLOCK
  8
1
  6
CONTINUOUS
 62
     2
  5
676
  2
*D15
 70
     1
 10
0.0
 20
0.0
 30
0.0
  3
*N15
  0
SOLID
  8
1
  6
CONTINUOUS
 62
     2
  5
677
 10
0.111417
 20
0.053833
 30
0.0
 11
0.0
 21
0.0
 31
0.0
 12
0.073
 22
0.099917
 32
0.0
 13
0.073
 23
0.099917
 33
0.0
  0
LINE
  8
1
  6
CONTINUOUS
 62
     2
  5
678
 10
0.0
 20
0.0
 30
0.0
 11
0.467833
 21
0.39
 31
0.0
  0
TEXT
  8
1
  6
CONTINUOUS
 62
     2
  5
679
 10
0.122167
 20
0.18
 30
0.0
 40
0.12
  1
12:1
 50
39.815608
  7
ROMANS
 11
0.083748
 21
0.226087
 31
0.0
210
0.0
220
0.0
230
1.0
 73
     2
  0
ENDBLK
  8
1
  6
CONTINUOUS
 62
     2
  5
67A
  0
BLOCK
  8
1
  6
CONTINUOUS
 62
     2
  5
67D
  2
*D16
 70
     1
 10
0.0
 20
0.0
 30
0.0
  3
*N16
  0
SOLID
  8
1
  6
CONTINUOUS
 62
     2
  5
67E
 10
-0.076167
 20
0.0975
 30
0.0
 11
0.0
 21
0.0
 31
0.0
 12
-0.113083
 22
0.050167
 32
0.0
 13
-0.113083
 23
0.050167
 33
0.0
  0
LINE
  8
1
  6
CONTINUOUS
 62
     2
  5
67F
 10
0.0
 20
0.0
 30
0.0
 11
-0.43325
 21
0.338
 31
0.0
  0
TEXT
  8
1
  6
CONTINUOUS
 62
     2
  5
680
 10
-0.396333
 20
0.385333
 30
0.0
 40
0.12
  1
12:1
 50
322.040425
  7
ROMANS
 11
-0.359427
 21
0.43264
 31
0.0
210
0.0
220
0.0
230
1.0
 73
     2
  0
ENDBLK
  8
1
  6
CONTINUOUS
 62
     2
  5
681
  0
BLOCK
  8
1
  6
CONTINUOUS
 62
     2
  5
684
  2
*D17
 70
     1
 10
0.0
 20
0.0
 30
0.0
  3
*N17
  0
SOLID
  8
1
  6
CONTINUOUS
 62
     2
  5
685
 10
0.114167
 20
0.047667
 30
0.0
 11
0.0
 21
0.0
 31
0.0
 12
0.07825
 22
0.09575
 32
0.0
 13
0.07825
 23
0.09575
 33
0.0
  0
LINE
  8
1
  6
CONTINUOUS
 62
     2
  5
686
 10
0.0
 20
0.0
 30
0.0
 11
0.441833
 21
0.329333
 31
0.0
  0
TEXT
  8
1
  6
CONTINUOUS
 62
     2
  5
687
 10
0.08525
 20
0.138417
 30
0.0
 40
0.12
  1
12:1
 50
36.700078
  7
ROMANS
 11
0.049392
 21
0.186523
 31
0.0
210
0.0
220
0.0
230
1.0
 73
     2
  0
ENDBLK
  8
1
  6
CONTINUOUS
 62
     2
  5
688
  0
BLOCK
  8
1
  6
CONTINUOUS
 62
     2
  5
68B
  2
*D18
 70
     1
 10
0.0
 20
0.0
 30
0.0
  3
*N18
  0
SOLID
  8
1
  6
CONTINUOUS
 62
     2
  5
68C
 10
-0.075917
 20
0.097667
 30
0.0
 11
0.0
 21
0.0
 31
0.0
 12
-0.112917
 22
0.0505
 32
0.0
 13
-0.112917
 23
0.0505
 33
0.0
  0
LINE
  8
1
  6
CONTINUOUS
 62
     2
  5
68D
 10
0.0
 20
0.0
 30
0.0
 11
-0.441833
 21
0.346667
 31
0.0
  0
TEXT
  8
1
  6
CONTINUOUS
 62
     2
  5
68E
 10
-0.404833
 20
0.393833
 30
0.0
 40
0.12
  1
12:1
 50
321.881931
  7
ROMANS
 11
-0.367796
 21
0.441038
 31
0.0
210
0.0
220
0.0
230
1.0
 73
     2
  0
ENDBLK
  8
1
  6
CONTINUOUS
 62
     2
  5
68F
  0
BLOCK
  8
1
  6
CONTINUOUS
 62
     2
  5
692
  2
*D19
 70
     1
 10
0.0
 20
0.0
 30
0.0
  3
*N19
  0
SOLID
  8
1
  6
CONTINUOUS
 62
     2
  5
693
 10
-0.070833
 20
0.101417
 30
0.0
 11
0.0
 21
0.0
 31
0.0
 12
-0.110167
 22
0.056167
 32
0.0
 13
-0.110167
 23
0.056167
 33
0.0
  0
LINE
  8
1
  6
CONTINUOUS
 62
     2
  5
694
 10
0.0
 20
0.0
 30
0.0
 11
-0.56575
 21
0.4925
 31
0.0
  0
TEXT
  8
1
  6
CONTINUOUS
 62
     2
  5
695
 10
-0.526333
 20
0.53775
 30
0.0
 40
0.12
  1
12:1
 50
318.959586
  7
ROMANS
 11
-0.486938
 21
0.583005
 31
0.0
210
0.0
220
0.0
230
1.0
 73
     2
  0
ENDBLK
  8
1
  6
CONTINUOUS
 62
     2
  5
696
  0
BLOCK
  8
1
  6
CONTINUOUS
 62
     2
  5
699
  2
*D20
 70
     1
 10
0.0
 20
0.0
 30
0.0
  3
*N20
  0
SOLID
  8
1
  6
CONTINUOUS
 62
     2
  5
69A
 10
0.108167
 20
0.06
 30
0.0
 11
0.0
 21
0.0
 31
0.0
 12
0.067167
 22
0.103833
 32
0.0
 13
0.067167
 23
0.103833
 33
0.0
  0
LINE
  8
1
  6
CONTINUOUS
 62
     2
  5
69B
 10
0.0
 20
0.0
 30
0.0
 11
0.44825
 21
0.418917
 31
0.0
  0
TEXT
  8
1
  6
CONTINUOUS
 62
     2
  5
69C
 10
0.115
 20
0.189667
 30
0.0
 40
0.12
  1
12:1
 50
43.062614
  7
ROMANS
 11
0.074032
 21
0.233503
 31
0.0
210
0.0
220
0.0
230
1.0
 73
     2
  0
ENDBLK
  8
1
  6
CONTINUOUS
 62
     2
  5
69D
  0
BLOCK
  8
1
  6
CONTINUOUS
 62
     2
  5
6D3
  2
*D21
 70
     1
 10
0.0
 20
0.0
 30
0.0
  3
*N21
  0
SOLID
  8
1
  6
CONTINUOUS
 62
     2
  5
6D4
 10
-0.067083
 20
0.103917
 30
0.0
 11
0.0
 21
0.0
 31
0.0
 12
-0.108083
 22
0.060167
 32
0.0
 13
-0.108083
 23
0.060167
 33
0.0
  0
POLYLINE
  8
1
  6
CONTINUOUS
 62
     2
  5
6D5
 66
     1
 10
0.0
 20
0.0
 30
0.0
  0
VERTEX
  8
1
  6
CONTINUOUS
 62
     2
  5
6D6
 10
0.0
 20
0.0
 30
0.0
  0
VERTEX
  8
1
  6
CONTINUOUS
 62
     2
  5
6D7
 10
-0.379667
 20
0.35575
 30
0.0
  0
VERTEX
  8
1
  6
CONTINUOUS
 62
     2
  5
6D8
 10
-0.778583
 20
0.35575
 30
0.0
  0
SEQEND
  8
1
  6
CONTINUOUS
 62
     2
  5
6D9
  0
LINE
  8
1
  6
CONTINUOUS
 62
     2
  5
6DA
 10
-0.778583
 20
0.35575
 30
0.0
 11
-1.018583
 21
0.35575
 31
0.0
  0
TEXT
  8
1
  6
CONTINUOUS
 62
     2
  5
6DB
 10
-1.519167
 20
0.29575
 30
0.0
 40
0.12
  1
Curb
  7
ROMANS
 11
-1.519167
 21
0.35575
 31
0.0
210
0.0
220
0.0
230
1.0
 73
     2
  0
ENDBLK
  8
1
  6
CONTINUOUS
 62
     2
  5
6DC
  0
ENDSEC
  0
SECTION
  2
ENTITIES
  0
POINT
  8
1
  6
DASHED
 62
     2
  5
29
 10
-40.807833
 20
20.196167
 30
0.0
  0
POINT
  8
1
  6
DASHED
 62
     2
  5
2A
 10
-7.582833
 20
-0.923833
 30
0.0
  0
LINE
  8
1
  6
DASHED
 62
     4
  5
2B
 10
-7.7125
 20
20.676167
 30
0.0
 11
-42.9125
 21
20.676167
 31
0.0
  0
LINE
  8
1
  6
DASHED
 62
     4
  5
2C
 10
-7.7125
 20
-1.323833
 30
0.0
 11
-42.9125
 21
-1.323833
 31
0.0
  0
LINE
  8
1
  6
DASHED
 62
     4
  5
2D
 10
-41.3375
 20
20.676167
 30
0.0
 11
-41.3375
 21
-1.323833
 31
0.0
  0
LINE
  8
1
  6
CONTINUOUS
 62
   140
  5
2E
 10
-40.295833
 20
20.176167
 30
0.0
 11
-40.295833
 21
-0.823833
 31
0.0
  0
LINE
  8
1
  6
CONTINUOUS
 62
   140
  5
2F
 10
-7.795833
 20
20.176167
 30
0.0
 11
-40.295833
 21
20.176167
 31
0.0
  0
LINE
  8
1
  6
CONTINUOUS
 62
   140
  5
30
 10
-7.795833
 20
20.176167
 30
0.0
 11
-7.795833
 21
-0.823833
 31
0.0
  0
LINE
  8
1
  6
CONTINUOUS
 62
   140
  5
31
 10
-7.795833
 20
-0.823833
 30
0.0
 11
-40.295833
 21
-0.823833
 31
0.0
  0
LINE
  8
1
  6
CONTINUOUS
 62
   140
  5
32
 10
-40.545833
 20
16.276167
 30
0.0
 11
-40.945833
 21
16.276167
 31
0.0
  0
LINE
  8
1
  6
CONTINUOUS
 62
   140
  5
33
 10
-40.545833
 20
13.476167
 30
0.0
 11
-40.945833
 21
13.476167
 31
0.0
  0
LINE
  8
1
  6
CONTINUOUS
 62
   140
  5
34
 10
-40.545833
 20
5.876167
 30
0.0
 11
-40.945833
 21
5.876167
 31
0.0
  0
LINE
  8
1
  6
CONTINUOUS
 62
   140
  5
35
 10
-40.545833
 20
3.076167
 30
0.0
 11
-40.945833
 21
3.076167
 31
0.0
  0
CIRCLE
  8
1
  6
CONTINUOUS
 62
   140
  5
36
 10
-40.795833
 20
16.276167
 30
0.0
 40
0.125
210
0.0
220
0.0
230
1.0
  0
CIRCLE
  8
1
  6
CONTINUOUS
 62
   140
  5
37
 10
-40.795833
 20
13.476167
 30
0.0
 40
0.125
210
0.0
220
0.0
230
1.0
  0
CIRCLE
  8
1
  6
CONTINUOUS
 62
   140
  5
38
 10
-40.795833
 20
5.876167
 30
0.0
 40
0.125
210
0.0
220
0.0
230
1.0
  0
CIRCLE
  8
1
  6
CONTINUOUS
 62
   140
  5
39
 10
-40.795833
 20
3.076167
 30
0.0
 40
0.125
210
0.0
220
0.0
230
1.0
  0
TEXT
  8
1
  6
CONTINUOUS
 62
   140
  5
3B
 10
-11.340083
 20
-0.915583
 30
0.0
 40
0.06
  1
$$$$$$$$$FILENAME$$$$$$$$
  7
txt
 11
-11.340083
 21
-0.885583
 31
0.0
210
0.0
220
0.0
230
1.0
 73
     2
  0
TEXT
  8
1
  6
CONTINUOUS
 62
   140
  5
3C
 10
-9.616
 20
-0.915583
 30
0.0
 40
0.06
  1
$USERNAME$
  7
txt
 11
-9.616
 21
-0.885583
 31
0.0
210
0.0
220
0.0
230
1.0
 73
     2
  0
TEXT
  8
1
  6
CONTINUOUS
 62
   140
  5
3D
 10
-8.842417
 20
-0.915583
 30
0.0
 40
0.06
  1
DD-MMM-YYYY HH:MM
  7
txt
 11
-8.842417
 21
-0.885583
 31
0.0
210
0.0
220
0.0
230
1.0
 73
     2
  0
POINT
  8
1
  6
CONTINUOUS
 62
   140
  5
3E
 10
-40.295833
 20
-0.823833
 30
0.0
  0
POINT
  8
1
  6
CONTINUOUS
 62
   140
  5
3F
 10
-40.295833
 20
20.176167
 30
0.0
  0
POINT
  8
1
  6
CONTINUOUS
 62
   140
  5
40
 10
-7.795833
 20
20.176167
 30
0.0
  0
POINT
  8
1
  6
CONTINUOUS
 62
   140
  5
41
 10
-7.795833
 20
-0.823833
 30
0.0
  0
LINE
  8
1
  6
CONTINUOUS
 62
   140
  5
42
 10
-7.795833
 20
-0.823833
 30
0.0
 11
-7.795833
 21
1.675167
 31
0.0
  0
LINE
  8
1
  6
CONTINUOUS
 62
   140
  5
43
 10
-7.795833
 20
2.666
 30
0.0
 11
-13.795833
 21
2.666
 31
0.0
  0
LINE
  8
1
  6
CONTINUOUS
 62
   140
  5
44
 10
-7.795833
 20
-0.823833
 30
0.0
 11
-13.795833
 21
-0.823833
 31
0.0
  0
LINE
  8
1
  6
CONTINUOUS
 62
   140
  5
45
 10
-12.257917
 20
1.075167
 30
0.0
 11
-13.795833
 21
1.075167
 31
0.0
  0
LINE
  8
1
  6
CONTINUOUS
 62
   140
  5
46
 10
-12.257917
 20
0.876167
 30
0.0
 11
-13.795833
 21
0.876167
 31
0.0
  0
LINE
  8
1
  6
CONTINUOUS
 62
   140
  5
47
 10
-12.257917
 20
0.677167
 30
0.0
 11
-13.795833
 21
0.677167
 31
0.0
  0
LINE
  8
1
  6
CONTINUOUS
 62
   140
  5
48
 10
-12.257917
 20
0.478167
 30
0.0
 11
-13.795833
 21
0.478167
 31
0.0
  0
LINE
  8
1
  6
CONTINUOUS
 62
   140
  5
49
 10
-12.257917
 20
0.279167
 30
0.0
 11
-13.795833
 21
0.279167
 31
0.0
  0
LINE
  8
1
  6
CONTINUOUS
 62
   140
  5
4A
 10
-12.257917
 20
0.080167
 30
0.0
 11
-13.795833
 21
0.080167
 31
0.0
  0
LINE
  8
1
  6
CONTINUOUS
 62
   140
  5
4B
 10
-12.257917
 20
-0.118833
 30
0.0
 11
-13.795833
 21
-0.118833
 31
0.0
  0
LINE
  8
1
  6
CONTINUOUS
 62
   140
  5
4C
 10
-12.257917
 20
-0.317833
 30
0.0
 11
-13.795833
 21
-0.317833
 31
0.0
  0
LINE
  8
1
  6
CONTINUOUS
 62
   140
  5
4D
 10
-12.257917
 20
-0.516833
 30
0.0
 11
-13.795833
 21
-0.516833
 31
0.0
  0
TEXT
  8
1
  6
CONTINUOUS
 62
   140
  5
4F
 10
-13.48875
 20
1.1225
 30
0.0
 40
0.079
  1
REVISION DATE
 41
1.003165
  7
MONOTXT
210
0.0
220
0.0
230
1.0
  0
LINE
  8
1
  6
CONTINUOUS
 62
   140
  5
50
 10
-13.795833
 20
0.586167
 30
0.0
 11
-13.795833
 21
-0.823833
 31
0.0
  0
TEXT
  8
1
  6
CONTINUOUS
 62
   140
  5
52
 10
-13.5845
 20
2.411083
 30
0.0
 40
0.1875
  1
WEST VIRGINIA DEPARTMENT OF TRANSPORTATION
  7
ROMANT
 72
     4
 11
-10.814167
 21
2.504833
 31
0.0
210
0.0
220
0.0
230
1.0
  0
TEXT
  8
1
  6
CONTINUOUS
 62
   140
  5
53
 10
-12.011667
 20
2.202167
 30
0.0
 40
0.1875
  1
DIVISION OF HIGHWAYS
  7
ROMANT
 72
     4
 11
-10.792167
 21
2.295917
 31
0.0
210
0.0
220
0.0
230
1.0
  0
TEXT
  8
1
  6
CONTINUOUS
 62
   140
  5
54
 10
-11.781583
 20
2.004
 30
0.0
 40
0.1875
  1
STANDARD DETAIL
  7
ROMANT
 72
     4
 11
-10.8035
 21
2.09775
 31
0.0
210
0.0
220
0.0
230
1.0
  0
LINE
  8
1
  6
CONTINUOUS
 62
   140
  5
55
 10
-12.257917
 20
1.275167
 30
0.0
 11
-13.795833
 21
1.275167
 31
0.0
  0
LINE
  8
1
  6
CONTINUOUS
 62
   140
  5
56
 10
-12.257917
 20
-0.823833
 30
0.0
 11
-12.257917
 21
1.275167
 31
0.0
  0
LINE
  8
1
  6
CONTINUOUS
 62
   140
  5
57
 10
-13.795833
 20
-0.823833
 30
0.0
 11
-13.795833
 21
2.666
 31
0.0
  0
TEXT
  8
1
  6
CONTINUOUS
 62
     2
  5
58
 10
-11.71975
 20
-0.60675
 30
0.0
 40
0.166667
  1
STANDARD SHEET PVT7      
  7
txt
 72
     4
 11
-9.680417
 21
-0.523417
 31
0.0
210
0.0
220
0.0
230
1.0
  0
TEXT
  8
1
  6
CONTINUOUS
 62
     2
  5
59
 10
-12.53025
 20
1.53825
 30
0.0
 40
0.208333
  1
                        
  7
txt
 72
     4
 11
-10.065
 21
1.642417
 31
0.0
210
0.0
220
0.0
230
1.0
  0
TEXT
  8
1
  6
CONTINUOUS
 62
     2
  5
5A
 10
-12.524583
 20
1.166667
 30
0.0
 40
0.208333
  1
     SIDEWALK RAMPS     
  7
txt
 72
     4
 11
-10.074583
 21
1.270833
 31
0.0
210
0.0
220
0.0
230
1.0
  0
TEXT
  8
1
  6
CONTINUOUS
 62
     2
  5
5B
 10
-12.589417
 20
0.159833
 30
0.0
 40
0.208333
  1
      (SHEET 2 OF 2)    
  7
txt
 72
     4
 11
-10.138583
 21
0.264
 31
0.0
210
0.0
220
0.0
230
1.0
  0
TEXT
  8
1
  6
CONTINUOUS
 62
     2
  5
5C
 10
-12.524667
 20
0.441
 30
0.0
 40
0.208333
  1
                        
  7
txt
 72
     4
 11
-10.059417
 21
0.545167
 31
0.0
210
0.0
220
0.0
230
1.0
  0
TEXT
  8
1
  6
CONTINUOUS
 62
     2
  5
5D
 10
-12.524667
 20
0.090667
 30
0.0
 40
0.208333
  1
                        
  7
txt
 72
     4
 11
-10.059417
 21
0.194833
 31
0.0
210
0.0
220
0.0
230
1.0
  0
TEXT
  8
1
  6
CONTINUOUS
 62
     2
  5
5F
 10
-13.847333
 20
1.339417
 30
0.0
 40
0.083333
  1
  PREPARED 7-1-99 
  7
ROMANS
 72
     4
 11
-13.11125
 21
1.381083
 31
0.0
210
0.0
220
0.0
230
1.0
  0
TEXT
  8
1
  6
CONTINUOUS
 62
     2
  5
60
 10
-13.76075
 20
0.713583
 30
0.0
 40
0.083333
  1
                  
  7
ROMANS
 72
     4
 11
-13.024667
 21
0.75525
 31
0.0
210
0.0
220
0.0
230
1.0
  0
TEXT
  8
1
  6
CONTINUOUS
 62
     2
  5
61
 10
-13.76075
 20
0.514583
 30
0.0
 40
0.083333
  1
                  
  7
ROMANS
 72
     4
 11
-13.024667
 21
0.55625
 31
0.0
210
0.0
220
0.0
230
1.0
  0
TEXT
  8
1
  6
CONTINUOUS
 62
     2
  5
62
 10
-13.76075
 20
0.315583
 30
0.0
 40
0.083333
  1
                  
  7
ROMANS
 72
     4
 11
-13.024667
 21
0.35725
 31
0.0
210
0.0
220
0.0
230
1.0
  0
TEXT
  8
1
  6
CONTINUOUS
 62
     2
  5
63
 10
-13.76075
 20
0.116583
 30
0.0
 40
0.083333
  1
                  
  7
ROMANS
 72
     4
 11
-13.024667
 21
0.15825
 31
0.0
210
0.0
220
0.0
230
1.0
  0
TEXT
  8
1
  6
CONTINUOUS
 62
     2
  5
64
 10
-13.76075
 20
-0.082417
 30
0.0
 40
0.083333
  1
                  
  7
ROMANS
 72
     4
 11
-13.024667
 21
-0.04075
 31
0.0
210
0.0
220
0.0
230
1.0
  0
TEXT
  8
1
  6
CONTINUOUS
 62
     2
  5
65
 10
-13.76075
 20
-0.281417
 30
0.0
 40
0.083333
  1
                  
  7
ROMANS
 72
     4
 11
-13.024667
 21
-0.23975
 31
0.0
210
0.0
220
0.0
230
1.0
  0
TEXT
  8
1
  6
CONTINUOUS
 62
     2
  5
66
 10
-13.76075
 20
-0.480417
 30
0.0
 40
0.083333
  1
                  
  7
ROMANS
 72
     4
 11
-13.024667
 21
-0.43875
 31
0.0
210
0.0
220
0.0
230
1.0
  0
TEXT
  8
1
  6
CONTINUOUS
 62
     2
  5
67
 10
-13.762333
 20
-0.684583
 30
0.0
 40
0.083333
  1
                  
  7
ROMANS
 72
     4
 11
-13.02625
 21
-0.642917
 31
0.0
210
0.0
220
0.0
230
1.0
  0
POINT
  8
1
  6
DASHED
 62
     2
  5
68
 10
-40.807833
 20
20.196167
 30
0.0
  0
POINT
  8
1
  6
DASHED
 62
     2
  5
69
 10
-7.582833
 20
-0.923833
 30
0.0
  0
TEXT
  8
1
  6
CONTINUOUS
 62
   140
  5
6A
 10
-40.247833
 20
-0.944833
 30
0.0
 40
0.06
  1
P5A1G92-STDBOR a
  7
MONOTXT
210
0.0
220
0.0
230
1.0
  0
LINE
  8
1
  6
CONTINUOUS
 62
     2
  5
6B
 10
-31.43725
 20
1.058
 30
0.0
 11
-31.43725
 21
3.987583
 31
0.0
  0
LINE
  8
1
  6
CONTINUOUS
 62
     2
  5
6C
 10
-30.652083
 20
9.858167
 30
0.0
 11
-30.652083
 21
12.044917
 31
0.0
  0
LINE
  8
1
  6
CONTINUOUS
 62
   215
  5
6D
 10
-37.03075
 20
4.908083
 30
0.0
 11
-37.03075
 21
8.295667
 31
0.0
  0
LINE
  8
1
  6
CONTINUOUS
 62
   215
  5
6E
 10
-37.117833
 20
4.899917
 30
0.0
 11
-37.117833
 21
6.463417
 31
0.0
  0
LINE
  8
1
  6
CONTINUOUS
 62
   215
  5
6F
 10
-36.306667
 20
4.908083
 30
0.0
 11
-36.306667
 21
8.295667
 31
0.0
  0
LINE
  8
1
  6
CONTINUOUS
 62
   215
  5
70
 10
-31.220083
 20
4.908083
 30
0.0
 11
-31.220083
 21
8.295667
 31
0.0
  0
LINE
  8
1
  6
CONTINUOUS
 62
   215
  5
71
 10
-30.548
 20
4.908083
 30
0.0
 11
-30.548
 21
8.295667
 31
0.0
  0
LINE
  8
1
  6
CONTINUOUS
 62
   215
  5
72
 10
-30.491833
 20
6.698083
 30
0.0
 11
-30.491833
 21
8.2395
 31
0.0
  0
LINE
  8
1
  6
CONTINUOUS
 62
     2
  5
73
 10
-39.105083
 20
3.8855
 30
0.0
 11
-37.162667
 21
3.8855
 31
0.0
  0
LINE
  8
1
  6
CONTINUOUS
 62
     2
  5
74
 10
-36.532417
 20
3.642667
 30
0.0
 11
-35.727417
 21
3.642667
 31
0.0
  0
LINE
  8
1
  6
CONTINUOUS
 62
     2
  5
75
 10
-30.277667
 20
9.492583
 30
0.0
 11
-28.16875
 21
9.492583
 31
0.0
  0
LINE
  8
1
  6
CONTINUOUS
 62
     2
  5
76
 10
-31.041917
 20
4.400583
 30
0.0
 11
-28.121583
 21
4.400583
 31
0.0
  0
LINE
  8
1
  6
CONTINUOUS
 62
     2
  5
77
 10
-30.652083
 20
9.858167
 30
0.0
 11
-30.277667
 21
9.492583
 31
0.0
  0
LINE
  8
1
  6
CONTINUOUS
 62
     2
  5
78
 10
-31.43725
 20
3.987583
 30
0.0
 11
-31.041917
 21
4.400583
 31
0.0
  0
LINE
  8
1
  6
CONTINUOUS
 62
     2
  5
79
 10
-31.43725
 20
3.0385
 30
0.0
 11
-30.1705
 21
4.400583
 31
0.0
  0
LINE
  8
1
  6
CONTINUOUS
 62
     2
  5
7A
 10
-37.162667
 20
3.8855
 30
0.0
 11
-36.893417
 21
3.58675
 31
0.0
  0
LINE
  8
1
  6
CONTINUOUS
 62
     2
  5
7B
 10
-31.818833
 20
1.081
 30
0.0
 11
-31.818833
 21
4.119083
 31
0.0
  0
LINE
  8
1
  6
CONTINUOUS
 62
     2
  5
7C
 10
-31.818833
 20
9.128583
 30
0.0
 11
-31.818833
 21
12.050167
 31
0.0
  0
LINE
  8
1
  6
CONTINUOUS
 62
     2
  5
7D
 10
-39.100833
 20
4.839417
 30
0.0
 11
-36.44775
 21
4.839417
 31
0.0
  0
LINE
  8
1
  6
CONTINUOUS
 62
     2
  5
7E
 10
-31.0985
 20
4.839417
 30
0.0
 11
-28.131917
 21
4.839417
 31
0.0
  0
LINE
  8
1
  6
CONTINUOUS
 62
     2
  5
7F
 10
-39.219083
 20
8.387917
 30
0.0
 11
-36.44775
 21
8.387917
 31
0.0
  0
LINE
  8
1
  6
CONTINUOUS
 62
     2
  5
80
 10
-31.038833
 20
8.387917
 30
0.0
 11
-28.170583
 21
8.387917
 31
0.0
  0
LINE
  8
1
  6
CONTINUOUS
 62
     2
  5
81
 10
-35.727417
 20
1.047667
 30
0.0
 11
-35.727417
 21
4.119083
 31
0.0
  0
LINE
  8
1
  6
CONTINUOUS
 62
     2
  5
82
 10
-35.727417
 20
9.10825
 30
0.0
 11
-35.727417
 21
12.038667
 31
0.0
  0
LINE
  8
1
  6
CONTINUOUS
 62
     2
  5
83
 10
-36.532417
 20
1.031833
 30
0.0
 11
-36.532417
 21
4.839417
 31
0.0
  0
ARC
  8
1
  6
CONTINUOUS
 62
     2
  5
84
 10
-31.098871
 20
9.105736
 30
0.0
 40
0.720325
 50
178.18235
 51
274.780997
210
0.0
220
0.0
230
1.0
  0
ARC
  8
1
  6
CONTINUOUS
 62
     2
  5
85
 10
-36.44775
 20
9.10825
 30
0.0
 40
0.720333
 50
270.0
 51
360.0
210
0.0
220
0.0
230
1.0
  0
ARC
  8
1
  6
CONTINUOUS
 62
     2
  5
86
 10
-36.44775
 20
9.10825
 30
0.0
 40
0.670333
 50
267.035594
 51
357.812769
210
0.0
220
0.0
230
1.0
  0
ARC
  8
1
  6
CONTINUOUS
 62
     2
  5
87
 10
-31.0985
 20
9.10825
 30
0.0
 40
0.670333
 50
182.536544
 51
270.170947
210
0.0
220
0.0
230
1.0
  0
LINE
  8
1
  6
CONTINUOUS
 62
     2
  5
88
 10
-39.100833
 20
4.789417
 30
0.0
 11
-36.95425
 21
4.789417
 31
0.0
  0
LINE
  8
1
  6
CONTINUOUS
 62
   215
  5
89
 10
-36.482417
 20
4.789417
 30
0.0
 11
-36.44775
 21
4.789417
 31
0.0
  0
LINE
  8
1
  6
CONTINUOUS
 62
     2
  5
8A
 10
-35.777417
 20
1.047667
 30
0.0
 11
-35.777417
 21
3.592667
 31
0.0
  0
LINE
  8
1
  6
CONTINUOUS
 62
     2
  5
8B
 10
-35.777417
 20
4.077833
 30
0.0
 11
-35.777417
 21
4.119083
 31
0.0
  0
LINE
  8
1
  6
CONTINUOUS
 62
     2
  5
8C
 10
-36.532417
 20
4.027833
 30
0.0
 11
-35.727417
 21
4.027833
 31
0.0
  0
LINE
  8
1
  6
CONTINUOUS
 62
     2
  5
8D
 10
-36.532417
 20
3.592667
 30
0.0
 11
-35.777417
 21
3.592667
 31
0.0
  0
LINE
  8
1
  6
CONTINUOUS
 62
     2
  5
8E
 10
-36.482417
 20
4.077833
 30
0.0
 11
-35.777417
 21
4.077833
 31
0.0
  0
LINE
  8
1
  6
CONTINUOUS
 62
     2
  5
8F
 10
-36.90425
 20
4.237167
 30
0.0
 11
-36.90425
 21
4.839417
 31
0.0
  0
LINE
  8
1
  6
CONTINUOUS
 62
     2
  5
90
 10
-36.95425
 20
4.237167
 30
0.0
 11
-36.95425
 21
4.789417
 31
0.0
  0
LINE
  8
1
  6
CONTINUOUS
 62
     2
  5
91
 10
-36.482417
 20
4.077833
 30
0.0
 11
-36.482417
 21
4.789417
 31
0.0
  0
LINE
  8
1
  6
CONTINUOUS
 62
     2
  5
92
 10
-36.893417
 20
1.031833
 30
0.0
 11
-36.893417
 21
3.58675
 31
0.0
  0
LINE
  8
1
  6
CONTINUOUS
 62
     2
  5
93
 10
-36.95425
 20
4.237167
 30
0.0
 11
-36.532417
 21
4.237167
 31
0.0
  0
LINE
  8
1
  6
CONTINUOUS
 62
   215
  5
94
 10
-35.623667
 20
4.24825
 30
0.0
 11
-31.884
 21
4.24825
 31
0.0
  0
LINE
  8
1
  6
CONTINUOUS
 62
   215
  5
95
 10
-33.583
 20
3.40275
 30
0.0
 11
-31.909667
 21
3.40275
 31
0.0
  0
LINE
  8
1
  6
CONTINUOUS
 62
   215
  5
96
 10
-35.603667
 20
9.693
 30
0.0
 11
-34.28675
 21
9.693
 31
0.0
  0
LINE
  8
1
  6
CONTINUOUS
 62
   215
  5
97
 10
-35.623667
 20
3.478333
 30
0.0
 11
-31.884
 21
3.478333
 31
0.0
  0
LINE
  8
1
  6
CONTINUOUS
 62
   215
  5
98
 10
-35.623667
 20
8.975333
 30
0.0
 11
-31.884
 21
8.975333
 31
0.0
  0
LINE
  8
1
  6
CONTINUOUS
 62
   215
  5
99
 10
-35.623667
 20
9.626833
 30
0.0
 11
-31.884
 21
9.626833
 31
0.0
  0
LINE
  8
1
  6
CONTINUOUS
 62
     2
  5
9A
 10
-35.777417
 20
9.553
 30
0.0
 11
-35.777417
 21
12.038667
 31
0.0
  0
LINE
  8
1
  6
CONTINUOUS
 62
     2
  5
9B
 10
-39.219083
 20
8.437917
 30
0.0
 11
-36.95425
 21
8.437917
 31
0.0
  0
LINE
  8
1
  6
CONTINUOUS
 62
     2
  5
9C
 10
-36.532417
 20
8.387917
 30
0.0
 11
-36.532417
 21
11.989417
 31
0.0
  0
LINE
  8
1
  6
CONTINUOUS
 62
     2
  5
9D
 10
-36.90425
 20
8.387917
 30
0.0
 11
-36.90425
 21
9.132667
 31
0.0
  0
LINE
  8
1
  6
CONTINUOUS
 62
     2
  5
9E
 10
-36.90425
 20
9.503
 30
0.0
 11
-36.90425
 21
12.006083
 31
0.0
  0
LINE
  8
1
  6
CONTINUOUS
 62
     2
  5
9F
 10
-39.25575
 20
9.503
 30
0.0
 11
-36.90425
 21
9.503
 31
0.0
  0
LINE
  8
1
  6
CONTINUOUS
 62
     2
  5
A0
 10
-39.23775
 20
9.132667
 30
0.0
 11
-35.727417
 21
9.132667
 31
0.0
  0
LINE
  8
1
  6
CONTINUOUS
 62
     2
  5
A1
 10
-36.532417
 20
9.132667
 30
0.0
 11
-35.736333
 21
9.132667
 31
0.0
  0
LINE
  8
1
  6
CONTINUOUS
 62
     2
  5
A2
 10
-36.482417
 20
9.553
 30
0.0
 11
-35.777417
 21
9.553
 31
0.0
  0
LINE
  8
1
  6
CONTINUOUS
 62
     2
  5
A3
 10
-36.482417
 20
9.553
 30
0.0
 11
-36.482417
 21
11.989417
 31
0.0
  0
LINE
  8
1
  6
CONTINUOUS
 62
     2
  5
A4
 10
-36.482417
 20
9.082667
 30
0.0
 11
-35.777917
 21
9.082667
 31
0.0
  0
LINE
  8
1
  6
CONTINUOUS
 62
     2
  5
A5
 10
-36.482417
 20
8.438833
 30
0.0
 11
-36.482417
 21
9.082667
 31
0.0
  0
LINE
  8
1
  6
CONTINUOUS
 62
     2
  5
A6
 10
-36.95425
 20
8.437917
 30
0.0
 11
-36.95425
 21
9.00275
 31
0.0
  0
LINE
  8
1
  6
CONTINUOUS
 62
     2
  5
A7
 10
-36.532417
 20
9.503
 30
0.0
 11
-35.727417
 21
9.503
 31
0.0
  0
LINE
  8
1
  6
CONTINUOUS
 62
     2
  5
A8
 10
-36.95425
 20
9.00275
 30
0.0
 11
-36.90425
 21
9.00275
 31
0.0
  0
LINE
  8
1
  6
CONTINUOUS
 62
     2
  5
A9
 10
-31.818833
 20
9.128583
 30
0.0
 11
-31.0465
 21
9.128583
 31
0.0
  0
LINE
  8
1
  6
CONTINUOUS
 62
     2
  5
AA
 10
-31.0465
 20
8.387917
 30
0.0
 11
-31.0465
 21
9.50475
 31
0.0
  0
LINE
  8
1
  6
CONTINUOUS
 62
     2
  5
AB
 10
-31.0465
 20
9.50475
 30
0.0
 11
-31.768833
 21
10.070167
 31
0.0
  0
LINE
  8
1
  6
CONTINUOUS
 62
     2
  5
AC
 10
-30.671583
 20
8.387917
 30
0.0
 11
-30.671583
 21
9.078583
 31
0.0
  0
LINE
  8
1
  6
CONTINUOUS
 62
     2
  5
AD
 10
-31.818833
 20
9.493917
 30
0.0
 11
-31.043917
 21
9.493917
 31
0.0
  0
LINE
  8
1
  6
CONTINUOUS
 62
     2
  5
AE
 10
-30.671583
 20
9.075417
 30
0.0
 11
-30.183083
 21
8.437917
 31
0.0
  0
LINE
  8
1
  6
CONTINUOUS
 62
     2
  5
AF
 10
-31.0965
 20
8.437917
 30
0.0
 11
-31.0965
 21
9.078583
 31
0.0
  0
LINE
  8
1
  6
CONTINUOUS
 62
     2
  5
B0
 10
-31.768833
 20
9.128583
 30
0.0
 11
-31.768833
 21
12.050167
 31
0.0
  0
LINE
  8
1
  6
CONTINUOUS
 62
     2
  5
B1
 10
-31.0465
 20
8.437917
 30
0.0
 11
-28.170583
 21
8.437917
 31
0.0
  0
LINE
  8
1
  6
CONTINUOUS
 62
     2
  5
B2
 10
-30.183083
 20
8.437917
 30
0.0
 11
-30.183083
 21
8.387917
 31
0.0
  0
LINE
  8
1
  6
CONTINUOUS
 62
     2
  5
B3
 10
-31.768833
 20
10.070167
 30
0.0
 11
-31.818833
 21
10.070167
 31
0.0
  0
LINE
  8
1
  6
CONTINUOUS
 62
     2
  5
B4
 10
-31.768167
 20
9.078583
 30
0.0
 11
-31.0965
 21
9.078583
 31
0.0
  0
LINE
  8
1
  6
CONTINUOUS
 62
     2
  5
B5
 10
-31.0465
 20
9.078583
 30
0.0
 11
-30.671583
 21
9.078583
 31
0.0
  0
LINE
  8
1
  6
CONTINUOUS
 62
     2
  5
B6
 10
-31.43725
 20
3.0385
 30
0.0
 11
-31.818833
 21
3.0385
 31
0.0
  0
LINE
  8
1
  6
CONTINUOUS
 62
     2
  5
B7
 10
-30.1705
 20
4.400583
 30
0.0
 11
-30.1705
 21
4.839417
 31
0.0
  0
LINE
  8
1
  6
CONTINUOUS
 62
     2
  5
B8
 10
-30.693333
 20
4.400583
 30
0.0
 11
-30.693333
 21
4.839417
 31
0.0
  0
LINE
  8
1
  6
CONTINUOUS
 62
     2
  5
B9
 10
-31.041917
 20
4.400583
 30
0.0
 11
-31.041917
 21
4.839417
 31
0.0
  0
LINE
  8
1
  6
CONTINUOUS
 62
     2
  5
BA
 10
-31.43725
 20
3.987583
 30
0.0
 11
-31.818833
 21
3.987583
 31
0.0
  0
LINE
  8
1
  6
CONTINUOUS
 62
     2
  5
BB
 10
-31.43725
 20
3.629
 30
0.0
 11
-31.818833
 21
3.629
 31
0.0
  0
LINE
  8
1
  6
CONTINUOUS
 62
     2
  5
BC
 10
-31.091917
 20
4.420583
 30
0.0
 11
-31.091917
 21
4.789417
 31
0.0
  0
LINE
  8
1
  6
CONTINUOUS
 62
     2
  5
BD
 10
-31.4585
 20
4.037583
 30
0.0
 11
-31.091917
 21
4.420583
 31
0.0
  0
LINE
  8
1
  6
CONTINUOUS
 62
     2
  5
BE
 10
-31.4585
 20
4.037583
 30
0.0
 11
-31.768833
 21
4.037583
 31
0.0
  0
LINE
  8
1
  6
CONTINUOUS
 62
     2
  5
BF
 10
-31.768833
 20
1.081
 30
0.0
 11
-31.768833
 21
3.987583
 31
0.0
  0
LINE
  8
1
  6
CONTINUOUS
 62
     2
  5
C0
 10
-31.768833
 20
4.037583
 30
0.0
 11
-31.768833
 21
4.119083
 31
0.0
  0
LINE
  8
1
  6
CONTINUOUS
 62
     2
  5
C1
 10
-31.041917
 20
4.789417
 30
0.0
 11
-28.131917
 21
4.789417
 31
0.0
  0
POLYLINE
  8
1
  6
CONTINUOUS
 62
   215
  5
C2
 66
     1
 10
0.0
 20
0.0
 30
0.0
 70
     1
  0
VERTEX
  8
1
  6
CONTINUOUS
 62
   215
  5
C3
 10
-37.11125
 20
4.427917
 30
0.0
  0
VERTEX
  8
1
  6
CONTINUOUS
 62
   215
  5
C4
 10
-37.025917
 20
4.427917
 30
0.0
  0
VERTEX
  8
1
  6
CONTINUOUS
 62
   215
  5
C5
 10
-37.025917
 20
4.356417
 30
0.0
  0
VERTEX
  8
1
  6
CONTINUOUS
 62
   215
  5
C6
 10
-37.11125
 20
4.356417
 30
0.0
  0
SEQEND
  8
1
  6
CONTINUOUS
 62
   215
  5
C7
  0
POLYLINE
  8
1
  6
CONTINUOUS
 62
     2
  5
C8
 66
     1
 10
0.0
 20
0.0
 30
0.0
 70
     1
  0
VERTEX
  8
1
  6
CONTINUOUS
 62
     2
  5
C9
 10
-31.7
 20
4.17
 30
0.0
  0
VERTEX
  8
1
  6
CONTINUOUS
 62
     2
  5
CA
 10
-31.614667
 20
4.17
 30
0.0
  0
VERTEX
  8
1
  6
CONTINUOUS
 62
     2
  5
CB
 10
-31.614667
 20
4.0985
 30
0.0
  0
VERTEX
  8
1
  6
CONTINUOUS
 62
     2
  5
CC
 10
-31.7
 20
4.0985
 30
0.0
  0
SEQEND
  8
1
  6
CONTINUOUS
 62
     2
  5
CD
  0
POLYLINE
  8
1
  6
CONTINUOUS
 62
     2
  5
CE
 66
     1
 10
0.0
 20
0.0
 30
0.0
 70
     1
  0
VERTEX
  8
1
  6
CONTINUOUS
 62
     2
  5
CF
 10
-31.446
 20
8.68525
 30
0.0
  0
VERTEX
  8
1
  6
CONTINUOUS
 62
     2
  5
D0
 10
-31.385667
 20
8.745583
 30
0.0
  0
VERTEX
  8
1
  6
CONTINUOUS
 62
     2
  5
D1
 10
-31.335083
 20
8.695
 30
0.0
  0
VERTEX
  8
1
  6
CONTINUOUS
 62
     2
  5
D2
 10
-31.395417
 20
8.634667
 30
0.0
  0
SEQEND
  8
1
  6
CONTINUOUS
 62
     2
  5
D3
  0
LINE
  8
1
  6
CONTINUOUS
 62
     2
  5
D4
 10
-36.46575
 20
9.1595
 30
0.0
 11
-36.46575
 21
9.475917
 31
0.0
  0
LINE
  8
1
  6
CONTINUOUS
 62
     2
  5
D5
 10
-36.399083
 20
9.1595
 30
0.0
 11
-36.399083
 21
9.475917
 31
0.0
  0
LINE
  8
1
  6
CONTINUOUS
 62
     2
  5
D6
 10
-36.332417
 20
9.1595
 30
0.0
 11
-36.332417
 21
9.475917
 31
0.0
  0
LINE
  8
1
  6
CONTINUOUS
 62
     2
  5
D7
 10
-36.26575
 20
9.1595
 30
0.0
 11
-36.26575
 21
9.475917
 31
0.0
  0
LINE
  8
1
  6
CONTINUOUS
 62
     2
  5
D8
 10
-36.199083
 20
9.1595
 30
0.0
 11
-36.199083
 21
9.475917
 31
0.0
  0
LINE
  8
1
  6
CONTINUOUS
 62
     2
  5
D9
 10
-36.132417
 20
9.1595
 30
0.0
 11
-36.132417
 21
9.475917
 31
0.0
  0
LINE
  8
1
  6
CONTINUOUS
 62
     2
  5
DA
 10
-36.06575
 20
9.1595
 30
0.0
 11
-36.06575
 21
9.475917
 31
0.0
  0
LINE
  8
1
  6
CONTINUOUS
 62
     2
  5
DB
 10
-35.999083
 20
9.1595
 30
0.0
 11
-35.999083
 21
9.475917
 31
0.0
  0
LINE
  8
1
  6
CONTINUOUS
 62
     2
  5
DC
 10
-35.932417
 20
9.1595
 30
0.0
 11
-35.932417
 21
9.475917
 31
0.0
  0
LINE
  8
1
  6
CONTINUOUS
 62
     2
  5
DD
 10
-35.86575
 20
9.1595
 30
0.0
 11
-35.86575
 21
9.475917
 31
0.0
  0
LINE
  8
1
  6
CONTINUOUS
 62
     2
  5
DE
 10
-35.799083
 20
9.1595
 30
0.0
 11
-35.799083
 21
9.475917
 31
0.0
  0
LINE
  8
1
  6
CONTINUOUS
 62
     2
  5
DF
 10
-36.880083
 20
9.066
 30
0.0
 11
-36.555167
 21
9.066
 31
0.0
  0
LINE
  8
1
  6
CONTINUOUS
 62
     2
  5
E0
 10
-36.880083
 20
8.999333
 30
0.0
 11
-36.555167
 21
8.999333
 31
0.0
  0
LINE
  8
1
  6
CONTINUOUS
 62
     2
  5
E1
 10
-36.880083
 20
8.932667
 30
0.0
 11
-36.555167
 21
8.932667
 31
0.0
  0
LINE
  8
1
  6
CONTINUOUS
 62
     2
  5
E2
 10
-36.880083
 20
8.866
 30
0.0
 11
-36.555167
 21
8.866
 31
0.0
  0
LINE
  8
1
  6
CONTINUOUS
 62
     2
  5
E3
 10
-36.880083
 20
8.799333
 30
0.0
 11
-36.555167
 21
8.799333
 31
0.0
  0
LINE
  8
1
  6
CONTINUOUS
 62
     2
  5
E4
 10
-36.880083
 20
8.732667
 30
0.0
 11
-36.555167
 21
8.732667
 31
0.0
  0
LINE
  8
1
  6
CONTINUOUS
 62
     2
  5
E5
 10
-36.880083
 20
8.666
 30
0.0
 11
-36.555167
 21
8.666
 31
0.0
  0
LINE
  8
1
  6
CONTINUOUS
 62
     2
  5
E6
 10
-36.880083
 20
8.599333
 30
0.0
 11
-36.555167
 21
8.599333
 31
0.0
  0
LINE
  8
1
  6
CONTINUOUS
 62
     2
  5
E7
 10
-36.880083
 20
8.532667
 30
0.0
 11
-36.555167
 21
8.532667
 31
0.0
  0
LINE
  8
1
  6
CONTINUOUS
 62
     2
  5
E8
 10
-36.880083
 20
8.466
 30
0.0
 11
-36.555167
 21
8.466
 31
0.0
  0
LINE
  8
1
  6
CONTINUOUS
 62
     2
  5
E9
 10
-36.46575
 20
3.669333
 30
0.0
 11
-36.46575
 21
4.001583
 31
0.0
  0
LINE
  8
1
  6
CONTINUOUS
 62
     2
  5
EA
 10
-36.883083
 20
4.303833
 30
0.0
 11
-36.560833
 21
4.303833
 31
0.0
  0
LINE
  8
1
  6
CONTINUOUS
 62
     2
  5
EB
 10
-36.883083
 20
4.3705
 30
0.0
 11
-36.560833
 21
4.3705
 31
0.0
  0
LINE
  8
1
  6
CONTINUOUS
 62
     2
  5
EC
 10
-36.883083
 20
4.437167
 30
0.0
 11
-36.560833
 21
4.437167
 31
0.0
  0
LINE
  8
1
  6
CONTINUOUS
 62
     2
  5
ED
 10
-36.883083
 20
4.503833
 30
0.0
 11
-36.560833
 21
4.503833
 31
0.0
  0
LINE
  8
1
  6
CONTINUOUS
 62
     2
  5
EE
 10
-36.883083
 20
4.5705
 30
0.0
 11
-36.560833
 21
4.5705
 31
0.0
  0
LINE
  8
1
  6
CONTINUOUS
 62
     2
  5
EF
 10
-36.883083
 20
4.637167
 30
0.0
 11
-36.560833
 21
4.637167
 31
0.0
  0
LINE
  8
1
  6
CONTINUOUS
 62
     2
  5
F0
 10
-36.883083
 20
4.703833
 30
0.0
 11
-36.560833
 21
4.703833
 31
0.0
  0
LINE
  8
1
  6
CONTINUOUS
 62
     2
  5
F1
 10
-36.883083
 20
4.7705
 30
0.0
 11
-36.560833
 21
4.7705
 31
0.0
  0
LINE
  8
1
  6
CONTINUOUS
 62
     2
  5
F2
 10
-36.399083
 20
3.669333
 30
0.0
 11
-36.399083
 21
4.001583
 31
0.0
  0
LINE
  8
1
  6
CONTINUOUS
 62
     2
  5
F3
 10
-36.332417
 20
3.669333
 30
0.0
 11
-36.332417
 21
4.001583
 31
0.0
  0
LINE
  8
1
  6
CONTINUOUS
 62
     2
  5
F4
 10
-36.26575
 20
3.669333
 30
0.0
 11
-36.26575
 21
4.001583
 31
0.0
  0
LINE
  8
1
  6
CONTINUOUS
 62
     2
  5
F5
 10
-36.199083
 20
3.669333
 30
0.0
 11
-36.199083
 21
4.001583
 31
0.0
  0
LINE
  8
1
  6
CONTINUOUS
 62
     2
  5
F6
 10
-36.132417
 20
3.669333
 30
0.0
 11
-36.132417
 21
4.001583
 31
0.0
  0
LINE
  8
1
  6
CONTINUOUS
 62
     2
  5
F7
 10
-36.06575
 20
3.669333
 30
0.0
 11
-36.06575
 21
4.001583
 31
0.0
  0
LINE
  8
1
  6
CONTINUOUS
 62
     2
  5
F8
 10
-35.999083
 20
3.669333
 30
0.0
 11
-35.999083
 21
4.001583
 31
0.0
  0
LINE
  8
1
  6
CONTINUOUS
 62
     2
  5
F9
 10
-35.932417
 20
3.669333
 30
0.0
 11
-35.932417
 21
4.001583
 31
0.0
  0
LINE
  8
1
  6
CONTINUOUS
 62
     2
  5
FA
 10
-35.86575
 20
3.669333
 30
0.0
 11
-35.86575
 21
4.001583
 31
0.0
  0
LINE
  8
1
  6
CONTINUOUS
 62
     2
  5
FB
 10
-35.799083
 20
3.669333
 30
0.0
 11
-35.799083
 21
4.001583
 31
0.0
  0
LINE
  8
1
  6
CONTINUOUS
 62
     2
  5
FC
 10
-31.474333
 20
3.105167
 30
0.0
 11
-31.73475
 21
3.105167
 31
0.0
  0
LINE
  8
1
  6
CONTINUOUS
 62
     2
  5
FD
 10
-30.237167
 20
4.427917
 30
0.0
 11
-30.237167
 21
4.761
 31
0.0
  0
LINE
  8
1
  6
CONTINUOUS
 62
     2
  5
FE
 10
-31.015083
 20
4.46725
 30
0.0
 11
-30.71975
 21
4.46725
 31
0.0
  0
LINE
  8
1
  6
CONTINUOUS
 62
     2
  5
FF
 10
-31.503917
 20
3.662333
 30
0.0
 11
-31.503917
 21
3.952417
 31
0.0
  0
LINE
  8
1
  6
CONTINUOUS
 62
     2
  5
100
 10
-30.303833
 20
4.427917
 30
0.0
 11
-30.303833
 21
4.761
 31
0.0
  0
LINE
  8
1
  6
CONTINUOUS
 62
     2
  5
101
 10
-30.3705
 20
4.427917
 30
0.0
 11
-30.3705
 21
4.761
 31
0.0
  0
LINE
  8
1
  6
CONTINUOUS
 62
     2
  5
102
 10
-30.437167
 20
4.427917
 30
0.0
 11
-30.437167
 21
4.761
 31
0.0
  0
LINE
  8
1
  6
CONTINUOUS
 62
     2
  5
103
 10
-30.503833
 20
4.427917
 30
0.0
 11
-30.503833
 21
4.761
 31
0.0
  0
LINE
  8
1
  6
CONTINUOUS
 62
     2
  5
104
 10
-30.5705
 20
4.427917
 30
0.0
 11
-30.5705
 21
4.761
 31
0.0
  0
LINE
  8
1
  6
CONTINUOUS
 62
     2
  5
105
 10
-30.637167
 20
4.427917
 30
0.0
 11
-30.637167
 21
4.761
 31
0.0
  0
LINE
  8
1
  6
CONTINUOUS
 62
     2
  5
106
 10
-31.015083
 20
4.533917
 30
0.0
 11
-30.71975
 21
4.533917
 31
0.0
  0
LINE
  8
1
  6
CONTINUOUS
 62
     2
  5
107
 10
-31.015083
 20
4.600583
 30
0.0
 11
-30.71975
 21
4.600583
 31
0.0
  0
LINE
  8
1
  6
CONTINUOUS
 62
     2
  5
108
 10
-31.015083
 20
4.66725
 30
0.0
 11
-30.71975
 21
4.66725
 31
0.0
  0
LINE
  8
1
  6
CONTINUOUS
 62
     2
  5
109
 10
-31.015083
 20
4.733917
 30
0.0
 11
-30.71975
 21
4.733917
 31
0.0
  0
LINE
  8
1
  6
CONTINUOUS
 62
     2
  5
10A
 10
-31.570583
 20
3.662333
 30
0.0
 11
-31.570583
 21
3.952417
 31
0.0
  0
LINE
  8
1
  6
CONTINUOUS
 62
     2
  5
10B
 10
-31.63725
 20
3.662333
 30
0.0
 11
-31.63725
 21
3.952417
 31
0.0
  0
LINE
  8
1
  6
CONTINUOUS
 62
     2
  5
10C
 10
-31.703917
 20
3.662333
 30
0.0
 11
-31.703917
 21
3.952417
 31
0.0
  0
LINE
  8
1
  6
CONTINUOUS
 62
     2
  5
10D
 10
-31.474333
 20
3.171833
 30
0.0
 11
-31.73475
 21
3.171833
 31
0.0
  0
LINE
  8
1
  6
CONTINUOUS
 62
     2
  5
10E
 10
-31.474333
 20
3.2385
 30
0.0
 11
-31.73475
 21
3.2385
 31
0.0
  0
LINE
  8
1
  6
CONTINUOUS
 62
     2
  5
10F
 10
-31.474333
 20
3.305167
 30
0.0
 11
-31.73475
 21
3.305167
 31
0.0
  0
LINE
  8
1
  6
CONTINUOUS
 62
     2
  5
110
 10
-31.474333
 20
3.371833
 30
0.0
 11
-31.73475
 21
3.371833
 31
0.0
  0
LINE
  8
1
  6
CONTINUOUS
 62
     2
  5
111
 10
-31.474333
 20
3.4385
 30
0.0
 11
-31.73475
 21
3.4385
 31
0.0
  0
LINE
  8
1
  6
CONTINUOUS
 62
     2
  5
112
 10
-31.474333
 20
3.505167
 30
0.0
 11
-31.73475
 21
3.505167
 31
0.0
  0
LINE
  8
1
  6
CONTINUOUS
 62
     2
  5
113
 10
-31.474333
 20
3.571833
 30
0.0
 11
-31.73475
 21
3.571833
 31
0.0
  0
LINE
  8
1
  6
CONTINUOUS
 62
     2
  5
114
 10
-31.183
 20
9.527
 30
0.0
 11
-31.737917
 21
9.961333
 31
0.0
  0
LINE
  8
1
  6
CONTINUOUS
 62
     2
  5
115
 10
-30.636917
 20
8.920583
 30
0.0
 11
-30.297
 21
8.476917
 31
0.0
  0
LINE
  8
1
  6
CONTINUOUS
 62
     2
  5
116
 10
-31.113167
 20
9.163417
 30
0.0
 11
-31.113167
 21
9.460583
 31
0.0
  0
LINE
  8
1
  6
CONTINUOUS
 62
     2
  5
117
 10
-31.0145
 20
9.011917
 30
0.0
 11
-30.702333
 21
9.011917
 31
0.0
  0
LINE
  8
1
  6
CONTINUOUS
 62
     2
  5
118
 10
-31.284917
 20
9.522083
 30
0.0
 11
-31.733667
 21
9.873333
 31
0.0
  0
LINE
  8
1
  6
CONTINUOUS
 62
     2
  5
119
 10
-31.391417
 20
9.520833
 30
0.0
 11
-31.731583
 21
9.787083
 31
0.0
  0
LINE
  8
1
  6
CONTINUOUS
 62
     2
  5
11A
 10
-31.502083
 20
9.52275
 30
0.0
 11
-31.738167
 21
9.707583
 31
0.0
  0
LINE
  8
1
  6
CONTINUOUS
 62
     2
  5
11B
 10
-31.600917
 20
9.5155
 30
0.0
 11
-31.7395
 21
9.624
 31
0.0
  0
LINE
  8
1
  6
CONTINUOUS
 62
     2
  5
11C
 10
-31.714917
 20
9.520083
 30
0.0
 11
-31.740667
 21
9.54025
 31
0.0
  0
LINE
  8
1
  6
CONTINUOUS
 62
     2
  5
11D
 10
-30.631333
 20
8.803667
 30
0.0
 11
-30.377667
 21
8.472583
 31
0.0
  0
LINE
  8
1
  6
CONTINUOUS
 62
     2
  5
11E
 10
-30.643333
 20
8.709667
 30
0.0
 11
-30.458417
 21
8.468333
 31
0.0
  0
LINE
  8
1
  6
CONTINUOUS
 62
     2
  5
11F
 10
-30.642833
 20
8.599417
 30
0.0
 11
-30.540333
 21
8.465667
 31
0.0
  0
LINE
  8
1
  6
CONTINUOUS
 62
     2
  5
120
 10
-30.648917
 20
8.49775
 30
0.0
 11
-30.619417
 21
8.45925
 31
0.0
  0
LINE
  8
1
  6
CONTINUOUS
 62
     2
  5
121
 10
-31.0145
 20
8.94525
 30
0.0
 11
-30.702333
 21
8.94525
 31
0.0
  0
LINE
  8
1
  6
CONTINUOUS
 62
     2
  5
122
 10
-31.0145
 20
8.878583
 30
0.0
 11
-30.702333
 21
8.878583
 31
0.0
  0
LINE
  8
1
  6
CONTINUOUS
 62
     2
  5
123
 10
-31.0145
 20
8.811917
 30
0.0
 11
-30.702333
 21
8.811917
 31
0.0
  0
LINE
  8
1
  6
CONTINUOUS
 62
     2
  5
124
 10
-31.0145
 20
8.74525
 30
0.0
 11
-30.702333
 21
8.74525
 31
0.0
  0
LINE
  8
1
  6
CONTINUOUS
 62
     2
  5
125
 10
-31.0145
 20
8.678583
 30
0.0
 11
-30.702333
 21
8.678583
 31
0.0
  0
LINE
  8
1
  6
CONTINUOUS
 62
     2
  5
126
 10
-31.0145
 20
8.611917
 30
0.0
 11
-30.702333
 21
8.611917
 31
0.0
  0
LINE
  8
1
  6
CONTINUOUS
 62
     2
  5
127
 10
-31.0145
 20
8.54525
 30
0.0
 11
-30.702333
 21
8.54525
 31
0.0
  0
LINE
  8
1
  6
CONTINUOUS
 62
     2
  5
128
 10
-31.0145
 20
8.478583
 30
0.0
 11
-30.702333
 21
8.478583
 31
0.0
  0
LINE
  8
1
  6
CONTINUOUS
 62
     2
  5
129
 10
-31.179833
 20
9.163417
 30
0.0
 11
-31.179833
 21
9.460583
 31
0.0
  0
LINE
  8
1
  6
CONTINUOUS
 62
     2
  5
12A
 10
-31.2465
 20
9.163417
 30
0.0
 11
-31.2465
 21
9.460583
 31
0.0
  0
LINE
  8
1
  6
CONTINUOUS
 62
     2
  5
12B
 10
-31.313167
 20
9.163417
 30
0.0
 11
-31.313167
 21
9.460583
 31
0.0
  0
LINE
  8
1
  6
CONTINUOUS
 62
     2
  5
12C
 10
-31.379833
 20
9.163417
 30
0.0
 11
-31.379833
 21
9.460583
 31
0.0
  0
LINE
  8
1
  6
CONTINUOUS
 62
     2
  5
12D
 10
-31.4465
 20
9.163417
 30
0.0
 11
-31.4465
 21
9.460583
 31
0.0
  0
LINE
  8
1
  6
CONTINUOUS
 62
     2
  5
12E
 10
-31.513167
 20
9.163417
 30
0.0
 11
-31.513167
 21
9.460583
 31
0.0
  0
LINE
  8
1
  6
CONTINUOUS
 62
     2
  5
12F
 10
-31.579833
 20
9.163417
 30
0.0
 11
-31.579833
 21
9.460583
 31
0.0
  0
LINE
  8
1
  6
CONTINUOUS
 62
     2
  5
130
 10
-31.6465
 20
9.163417
 30
0.0
 11
-31.6465
 21
9.460583
 31
0.0
  0
LINE
  8
1
  6
CONTINUOUS
 62
     2
  5
131
 10
-31.713167
 20
9.163417
 30
0.0
 11
-31.713167
 21
9.460583
 31
0.0
  0
LINE
  8
1
  6
CONTINUOUS
 62
   215
  5
132
 10
-35.926583
 20
15.0815
 30
0.0
 11
-38.553833
 21
16.598333
 31
0.0
  0
LINE
  8
1
  6
CONTINUOUS
 62
     2
  5
133
 10
-32.586833
 20
15.081333
 30
0.0
 11
-29.86925
 21
16.6505
 31
0.0
  0
ARC
  8
1
  6
CONTINUOUS
 62
   215
  5
134
 10
-34.256594
 20
17.973731
 30
0.0
 40
3.33975
 50
239.998022
 51
299.997347
210
0.0
220
0.0
230
1.0
  0
LINE
  8
1
  6
CONTINUOUS
 62
   215
  5
135
 10
-35.588
 20
15.365333
 30
0.0
 11
-33.570083
 21
16.530417
 31
0.0
  0
LINE
  8
1
  6
CONTINUOUS
 62
   215
  5
136
 10
-36.97475
 20
16.108333
 30
0.0
 11
-35.479667
 21
16.971583
 31
0.0
  0
LINE
  8
1
  6
CONTINUOUS
 62
   215
  5
137
 10
-34.27125
 20
16.273917
 30
0.0
 11
-35.479667
 21
16.971583
 31
0.0
  0
LINE
  8
1
  6
CONTINUOUS
 62
     2
  5
138
 10
-30.983583
 20
16.354083
 30
0.0
 11
-32.558083
 21
17.263167
 31
0.0
  0
LINE
  8
1
  6
CONTINUOUS
 62
     2
  5
139
 10
-33.647833
 20
17.892333
 30
0.0
 11
-35.991083
 21
19.24525
 31
0.0
  0
ARC
  8
1
  6
CONTINUOUS
 62
   215
  5
13A
 10
-34.256594
 20
17.973731
 30
0.0
 40
3.12565
 50
243.689669
 51
299.997347
210
0.0
220
0.0
230
1.0
  0
ARC
  8
1
  6
CONTINUOUS
 62
   215
  5
13B
 10
-34.256594
 20
17.973731
 30
0.0
 40
2.99645
 50
243.671922
 51
299.997347
210
0.0
220
0.0
230
1.0
  0
LINE
  8
1
  6
CONTINUOUS
 62
     2
  5
13C
 10
-32.2325
 20
15.758083
 30
0.0
 11
-33.570083
 21
16.530417
 31
0.0
  0
LINE
  8
1
  6
CONTINUOUS
 62
     2
  5
13D
 10
-30.918917
 20
16.466
 30
0.0
 11
-32.428917
 21
17.33775
 31
0.0
  0
LINE
  8
1
  6
CONTINUOUS
 62
     2
  5
13E
 10
-36.92075
 20
16.002583
 30
0.0
 11
-34.659917
 21
17.308
 31
0.0
  0
LINE
  8
1
  6
CONTINUOUS
 62
     2
  5
13F
 10
-33.647833
 20
17.892333
 30
0.0
 11
-31.35175
 21
19.218083
 31
0.0
  0
LINE
  8
1
  6
CONTINUOUS
 62
     2
  5
140
 10
-35.651833
 20
15.47675
 30
0.0
 11
-29.43975
 21
19.063583
 31
0.0
  0
LINE
  8
1
  6
CONTINUOUS
 62
     2
  5
141
 10
-32.168667
 20
15.869583
 30
0.0
 11
-33.570083
 21
16.67875
 31
0.0
  0
LINE
  8
1
  6
CONTINUOUS
 62
     2
  5
142
 10
-34.659917
 20
17.308
 30
0.0
 11
-37.273
 21
18.816667
 31
0.0
  0
LINE
  8
1
  6
CONTINUOUS
 62
     2
  5
143
 10
-32.758417
 20
15.378583
 30
0.0
 11
-32.2325
 21
15.68225
 31
0.0
  0
LINE
  8
1
  6
CONTINUOUS
 62
     2
  5
144
 10
-30.875167
 20
16.466
 30
0.0
 11
-30.040833
 21
16.94775
 31
0.0
  0
LINE
  8
1
  6
CONTINUOUS
 62
     2
  5
145
 10
-32.693833
 20
15.266667
 30
0.0
 11
-32.168667
 21
15.569917
 31
0.0
  0
LINE
  8
1
  6
CONTINUOUS
 62
     2
  5
146
 10
-30.8105
 20
16.354083
 30
0.0
 11
-29.97625
 21
16.835833
 31
0.0
  0
LINE
  8
1
  6
CONTINUOUS
 62
   215
  5
147
 10
-37.018583
 20
16.108333
 30
0.0
 11
-38.472167
 21
16.94775
 31
0.0
  0
LINE
  8
1
  6
CONTINUOUS
 62
   215
  5
148
 10
-37.09375
 20
16.002583
 30
0.0
 11
-38.53675
 21
16.835833
 31
0.0
  0
ARC
  8
1
  6
CONTINUOUS
 62
     2
  5
149
 10
-32.254432
 20
15.720155
 30
0.0
 40
0.0438
 50
300.008011
 51
60.007019
210
0.0
220
0.0
230
1.0
  0
ARC
  8
1
  6
CONTINUOUS
 62
     2
  5
14A
 10
-32.255206
 20
15.71978
 30
0.0
 40
0.173
 50
299.999178
 51
59.990747
210
0.0
220
0.0
230
1.0
  0
ARC
  8
1
  6
CONTINUOUS
 62
   215
  5
14B
 10
-35.565305
 20
15.326957
 30
0.0
 40
0.173
 50
120.001883
 51
243.689669
210
0.0
220
0.0
230
1.0
  0
ARC
  8
1
  6
CONTINUOUS
 62
   215
  5
14C
 10
-37.007269
 20
16.152427
 30
0.0
 40
0.173
 50
240.004883
 51
300.003903
210
0.0
220
0.0
230
1.0
  0
ARC
  8
1
  6
CONTINUOUS
 62
     2
  5
14D
 10
-30.897048
 20
16.503924
 30
0.0
 40
0.173
 50
239.992544
 51
300.002933
210
0.0
220
0.0
230
1.0
  0
ARC
  8
1
  6
CONTINUOUS
 62
   215
  5
14E
 10
-35.566125
 20
15.327362
 30
0.0
 40
0.0438
 50
120.001347
 51
243.671922
210
0.0
220
0.0
230
1.0
  0
ARC
  8
1
  6
CONTINUOUS
 62
   215
  5
14F
 10
-36.996659
 20
16.146284
 30
0.0
 40
0.0438
 50
240.0052
 51
300.002642
210
0.0
220
0.0
230
1.0
  0
ARC
  8
1
  6
CONTINUOUS
 62
     2
  5
150
 10
-30.897052
 20
16.503893
 30
0.0
 40
0.0438
 50
239.995831
 51
299.993847
210
0.0
220
0.0
230
1.0
  0
ARC
  8
1
  6
CONTINUOUS
 62
     2
  5
151
 10
-30.897048
 20
16.503924
 30
0.0
 40
0.387
 50
232.493133
 51
300.002933
210
0.0
220
0.0
230
1.0
  0
ARC
  8
1
  6
CONTINUOUS
 62
   215
  5
152
 10
-37.007269
 20
16.152427
 30
0.0
 40
0.387
 50
240.004883
 51
307.539064
210
0.0
220
0.0
230
1.0
  0
LINE
  8
1
  6
CONTINUOUS
 62
     2
  5
153
 10
-31.129333
 20
16.194417
 30
0.0
 11
-32.556333
 21
17.265417
 31
0.0
  0
LINE
  8
1
  6
CONTINUOUS
 62
     2
  5
154
 10
-32.081333
 20
15.473
 30
0.0
 11
-32.081333
 21
15.729833
 31
0.0
  0
LINE
  8
1
  6
CONTINUOUS
 62
   215
  5
155
 10
-36.775333
 20
15.842667
 30
0.0
 11
-35.36025
 21
16.902083
 31
0.0
  0
LINE
  8
1
  6
CONTINUOUS
 62
   215
  5
156
 10
-35.7385
 20
15.090167
 30
0.0
 11
-35.7385
 21
15.327833
 31
0.0
  0
LINE
  8
1
  6
CONTINUOUS
 62
   215
  5
157
 10
-34.570917
 20
16.199833
 30
0.0
 11
-35.43625
 21
16.699417
 31
0.0
  0
LINE
  8
1
  6
CONTINUOUS
 62
   215
  5
158
 10
-33.272583
 20
16.603333
 30
0.0
 11
-32.47675
 21
17.062833
 31
0.0
  0
LINE
  8
1
  6
CONTINUOUS
 62
   215
  5
159
 10
-34.757167
 20
16.060333
 30
0.0
 11
-35.622583
 21
16.559917
 31
0.0
  0
LINE
  8
1
  6
CONTINUOUS
 62
   215
  5
15A
 10
-35.555167
 20
15.532583
 30
0.0
 11
-36.368
 21
16.001833
 31
0.0
  0
LINE
  8
1
  6
CONTINUOUS
 62
   215
  5
15B
 10
-35.728167
 20
15.385333
 30
0.0
 11
-36.554333
 21
15.862333
 31
0.0
  0
LINE
  8
1
  6
CONTINUOUS
 62
   215
  5
15C
 10
-35.812833
 20
15.187083
 30
0.0
 11
-36.74075
 21
15.722833
 31
0.0
  0
LINE
  8
1
  6
CONTINUOUS
 62
   215
  5
15D
 10
-33.0865
 20
16.463667
 30
0.0
 11
-32.290667
 21
16.923167
 31
0.0
  0
LINE
  8
1
  6
CONTINUOUS
 62
   215
  5
15E
 10
-32.100583
 20
15.797333
 30
0.0
 11
-31.360167
 21
16.224833
 31
0.0
  0
LINE
  8
1
  6
CONTINUOUS
 62
   215
  5
15F
 10
-32.00675
 20
15.604333
 30
0.0
 11
-31.174083
 21
16.085167
 31
0.0
  0
LINE
  8
1
  6
CONTINUOUS
 62
   215
  5
160
 10
-34.659917
 20
17.308
 30
0.0
 11
-33.570083
 21
16.67875
 31
0.0
  0
LINE
  8
1
  6
CONTINUOUS
 62
   215
  5
161
 10
-33.647833
 20
17.892333
 30
0.0
 11
-34.659917
 21
17.308
 31
0.0
  0
LINE
  8
1
  6
CONTINUOUS
 62
    82
  5
162
 10
-35.1725
 20
15.289833
 30
0.0
 11
-35.191583
 21
15.335667
 31
0.0
  0
LINE
  8
1
  6
CONTINUOUS
 62
    82
  5
163
 10
-35.038917
 20
15.251667
 30
0.0
 11
-35.008333
 21
15.308917
 31
0.0
  0
LINE
  8
1
  6
CONTINUOUS
 62
    82
  5
164
 10
-34.912917
 20
15.240167
 30
0.0
 11
-34.905333
 21
15.293667
 31
0.0
  0
LINE
  8
1
  6
CONTINUOUS
 62
    82
  5
165
 10
-34.691583
 20
15.148583
 30
0.0
 11
-34.67625
 21
15.198167
 31
0.0
  0
LINE
  8
1
  6
CONTINUOUS
 62
    82
  5
166
 10
-34.798417
 20
15.140917
 30
0.0
 11
-34.813667
 21
15.190583
 31
0.0
  0
LINE
  8
1
  6
CONTINUOUS
 62
    82
  5
167
 10
-34.756417
 20
15.247833
 30
0.0
 11
-34.745
 21
15.2975
 31
0.0
  0
LINE
  8
1
  6
CONTINUOUS
 62
    82
  5
168
 10
-34.996917
 20
15.385333
 30
0.0
 11
-35.03125
 21
15.431083
 31
0.0
  0
LINE
  8
1
  6
CONTINUOUS
 62
    82
  5
169
 10
-34.611333
 20
15.622
 30
0.0
 11
-34.60375
 21
15.6755
 31
0.0
  0
LINE
  8
1
  6
CONTINUOUS
 62
    82
  5
16A
 10
-33.660833
 20
15.80525
 30
0.0
 11
-33.65325
 21
15.85875
 31
0.0
  0
LINE
  8
1
  6
CONTINUOUS
 62
    82
  5
16B
 10
-33.546333
 20
16.1795
 30
0.0
 11
-33.53875
 21
16.233
 31
0.0
  0
LINE
  8
1
  6
CONTINUOUS
 62
    82
  5
16C
 10
-34.05025
 20
16.045833
 30
0.0
 11
-34.042667
 21
16.099333
 31
0.0
  0
LINE
  8
1
  6
CONTINUOUS
 62
    82
  5
16D
 10
-32.836333
 20
15.893083
 30
0.0
 11
-32.82875
 21
15.946583
 31
0.0
  0
LINE
  8
1
  6
CONTINUOUS
 62
    82
  5
16E
 10
-32.672167
 20
15.51125
 30
0.0
 11
-32.664583
 21
15.56475
 31
0.0
  0
LINE
  8
1
  6
CONTINUOUS
 62
    82
  5
16F
 10
-33.176083
 20
15.408167
 30
0.0
 11
-33.1685
 21
15.461667
 31
0.0
  0
LINE
  8
1
  6
CONTINUOUS
 62
    82
  5
170
 10
-33.847917
 20
15.263
 30
0.0
 11
-33.840333
 21
15.3165
 31
0.0
  0
LINE
  8
1
  6
CONTINUOUS
 62
    82
  5
171
 10
-33.603583
 20
15.1485
 30
0.0
 11
-33.596
 21
15.202
 31
0.0
  0
LINE
  8
1
  6
CONTINUOUS
 62
    82
  5
172
 10
-34.199083
 20
15.45775
 30
0.0
 11
-34.1915
 21
15.51125
 31
0.0
  0
LINE
  8
1
  6
CONTINUOUS
 62
    82
  5
173
 10
-34.439583
 20
15.075917
 30
0.0
 11
-34.432
 21
15.129417
 31
0.0
  0
LINE
  8
1
  6
CONTINUOUS
 62
    82
  5
174
 10
-34.012083
 20
15.072083
 30
0.0
 11
-34.0045
 21
15.125583
 31
0.0
  0
LINE
  8
1
  6
CONTINUOUS
 62
    82
  5
175
 10
-33.588333
 20
15.534167
 30
0.0
 11
-33.58075
 21
15.587667
 31
0.0
  0
LINE
  8
1
  6
CONTINUOUS
 62
    82
  5
176
 10
-33.24475
 20
15.835833
 30
0.0
 11
-33.237167
 21
15.889333
 31
0.0
  0
LINE
  8
1
  6
CONTINUOUS
 62
    82
  5
177
 10
-34.042583
 20
15.770917
 30
0.0
 11
-34.035
 21
15.824417
 31
0.0
  0
LINE
  8
1
  6
CONTINUOUS
 62
    82
  5
178
 10
-33.989167
 20
15.530333
 30
0.0
 11
-33.981583
 21
15.583833
 31
0.0
  0
LINE
  8
1
  6
CONTINUOUS
 62
    82
  5
179
 10
-34.538833
 20
15.38525
 30
0.0
 11
-34.53125
 21
15.43875
 31
0.0
  0
LINE
  8
1
  6
CONTINUOUS
 62
    82
  5
17A
 10
-34.84425
 20
15.58375
 30
0.0
 11
-34.836667
 21
15.63725
 31
0.0
  0
LINE
  8
1
  6
CONTINUOUS
 62
    82
  5
17B
 10
-34.84425
 20
15.38525
 30
0.0
 11
-34.836667
 21
15.43875
 31
0.0
  0
LINE
  8
1
  6
CONTINUOUS
 62
    82
  5
17C
 10
-35.416833
 20
15.312667
 30
0.0
 11
-35.40925
 21
15.366167
 31
0.0
  0
LINE
  8
1
  6
CONTINUOUS
 62
    82
  5
17D
 10
-32.98525
 20
15.63725
 30
0.0
 11
-32.977667
 21
15.69075
 31
0.0
  0
LINE
  8
1
  6
CONTINUOUS
 62
    82
  5
17E
 10
-33.317333
 20
16.103083
 30
0.0
 11
-33.30975
 21
16.156583
 31
0.0
  0
LINE
  8
1
  6
CONTINUOUS
 62
    82
  5
17F
 10
-33.489083
 20
15.893083
 30
0.0
 11
-33.4815
 21
15.946583
 31
0.0
  0
LINE
  8
1
  6
CONTINUOUS
 62
    82
  5
180
 10
-33.790667
 20
16.145083
 30
0.0
 11
-33.783083
 21
16.198583
 31
0.0
  0
LINE
  8
1
  6
CONTINUOUS
 62
    82
  5
181
 10
-32.53475
 20
15.725083
 30
0.0
 11
-32.527167
 21
15.778583
 31
0.0
  0
LINE
  8
1
  6
CONTINUOUS
 62
    82
  5
182
 10
-32.82875
 20
15.396667
 30
0.0
 11
-32.821167
 21
15.450167
 31
0.0
  0
LINE
  8
1
  6
CONTINUOUS
 62
    82
  5
183
 10
-34.439667
 20
15.805333
 30
0.0
 11
-34.409083
 21
15.862583
 31
0.0
  0
LINE
  8
1
  6
CONTINUOUS
 62
    82
  5
184
 10
-34.09225
 20
15.629667
 30
0.0
 11
-34.061667
 21
15.686917
 31
0.0
  0
LINE
  8
1
  6
CONTINUOUS
 62
    82
  5
185
 10
-34.409083
 20
15.629667
 30
0.0
 11
-34.3785
 21
15.686917
 31
0.0
  0
LINE
  8
1
  6
CONTINUOUS
 62
    82
  5
186
 10
-33.901417
 20
15.965667
 30
0.0
 11
-33.870833
 21
16.022917
 31
0.0
  0
LINE
  8
1
  6
CONTINUOUS
 62
    82
  5
187
 10
-33.764
 20
15.671667
 30
0.0
 11
-33.733417
 21
15.728917
 31
0.0
  0
LINE
  8
1
  6
CONTINUOUS
 62
    82
  5
188
 10
-33.386083
 20
15.61825
 30
0.0
 11
-33.3555
 21
15.6755
 31
0.0
  0
LINE
  8
1
  6
CONTINUOUS
 62
    82
  5
189
 10
-33.15325
 20
16.023
 30
0.0
 11
-33.122667
 21
16.08025
 31
0.0
  0
LINE
  8
1
  6
CONTINUOUS
 62
    82
  5
18A
 10
-32.679917
 20
15.713667
 30
0.0
 11
-32.649333
 21
15.770917
 31
0.0
  0
LINE
  8
1
  6
CONTINUOUS
 62
    82
  5
18B
 10
-32.84025
 20
15.568583
 30
0.0
 11
-32.809667
 21
15.625833
 31
0.0
  0
LINE
  8
1
  6
CONTINUOUS
 62
    82
  5
18C
 10
-33.050167
 20
15.320417
 30
0.0
 11
-33.019583
 21
15.377667
 31
0.0
  0
LINE
  8
1
  6
CONTINUOUS
 62
    82
  5
18D
 10
-33.378417
 20
15.335667
 30
0.0
 11
-33.347833
 21
15.392917
 31
0.0
  0
LINE
  8
1
  6
CONTINUOUS
 62
    82
  5
18E
 10
-33.588417
 20
15.35475
 30
0.0
 11
-33.557833
 21
15.412
 31
0.0
  0
LINE
  8
1
  6
CONTINUOUS
 62
    82
  5
18F
 10
-33.7525
 20
15.179083
 30
0.0
 11
-33.721917
 21
15.236333
 31
0.0
  0
LINE
  8
1
  6
CONTINUOUS
 62
    82
  5
190
 10
-34.073167
 20
15.27075
 30
0.0
 11
-34.042583
 21
15.328
 31
0.0
  0
LINE
  8
1
  6
CONTINUOUS
 62
    82
  5
191
 10
-34.409083
 20
15.259333
 30
0.0
 11
-34.3785
 21
15.316583
 31
0.0
  0
LINE
  8
1
  6
CONTINUOUS
 62
    82
  5
192
 10
-34.2335
 20
15.305083
 30
0.0
 11
-34.202917
 21
15.362333
 31
0.0
  0
LINE
  8
1
  6
CONTINUOUS
 62
    82
  5
193
 10
-34.245
 20
15.14475
 30
0.0
 11
-34.214417
 21
15.202
 31
0.0
  0
LINE
  8
1
  6
CONTINUOUS
 62
    82
  5
194
 10
-34.199167
 20
15.881667
 30
0.0
 11
-34.168583
 21
15.938917
 31
0.0
  0
LINE
  8
1
  6
CONTINUOUS
 62
    82
  5
195
 10
-33.702833
 20
15.530417
 30
0.0
 11
-33.737167
 21
15.576167
 31
0.0
  0
LINE
  8
1
  6
CONTINUOUS
 62
    82
  5
196
 10
-33.912833
 20
15.400667
 30
0.0
 11
-33.947167
 21
15.446417
 31
0.0
  0
LINE
  8
1
  6
CONTINUOUS
 62
    82
  5
197
 10
-33.309667
 20
15.2555
 30
0.0
 11
-33.344
 21
15.30125
 31
0.0
  0
LINE
  8
1
  6
CONTINUOUS
 62
    82
  5
198
 10
-33.283
 20
15.561
 30
0.0
 11
-33.317333
 21
15.60675
 31
0.0
  0
LINE
  8
1
  6
CONTINUOUS
 62
    82
  5
199
 10
-33.1265
 20
15.687
 30
0.0
 11
-33.160833
 21
15.73275
 31
0.0
  0
LINE
  8
1
  6
CONTINUOUS
 62
    82
  5
19A
 10
-33.4395
 20
15.729
 30
0.0
 11
-33.473833
 21
15.77475
 31
0.0
  0
LINE
  8
1
  6
CONTINUOUS
 62
    82
  5
19B
 10
-33.28675
 20
15.988667
 30
0.0
 11
-33.321083
 21
16.034417
 31
0.0
  0
LINE
  8
1
  6
CONTINUOUS
 62
    82
  5
19C
 10
-33.58075
 20
16.01925
 30
0.0
 11
-33.615083
 21
16.065
 31
0.0
  0
LINE
  8
1
  6
CONTINUOUS
 62
    82
  5
19D
 10
-33.859333
 20
15.83975
 30
0.0
 11
-33.893667
 21
15.8855
 31
0.0
  0
LINE
  8
1
  6
CONTINUOUS
 62
    82
  5
19E
 10
-33.596
 20
16.290333
 30
0.0
 11
-33.630333
 21
16.336083
 31
0.0
  0
LINE
  8
1
  6
CONTINUOUS
 62
    82
  5
19F
 10
-33.450917
 20
16.35525
 30
0.0
 11
-33.48525
 21
16.401
 31
0.0
  0
LINE
  8
1
  6
CONTINUOUS
 62
    82
  5
1A0
 10
-33.1875
 20
16.198667
 30
0.0
 11
-33.221833
 21
16.244417
 31
0.0
  0
LINE
  8
1
  6
CONTINUOUS
 62
    82
  5
1A1
 10
-32.996667
 20
15.870333
 30
0.0
 11
-33.031
 21
15.916083
 31
0.0
  0
LINE
  8
1
  6
CONTINUOUS
 62
    82
  5
1A2
 10
-32.573
 20
15.832083
 30
0.0
 11
-32.607333
 21
15.877833
 31
0.0
  0
LINE
  8
1
  6
CONTINUOUS
 62
    82
  5
1A3
 10
-32.523333
 20
15.603
 30
0.0
 11
-32.557667
 21
15.64875
 31
0.0
  0
LINE
  8
1
  6
CONTINUOUS
 62
    82
  5
1A4
 10
-32.317167
 20
15.70225
 30
0.0
 11
-32.3515
 21
15.748
 31
0.0
  0
LINE
  8
1
  6
CONTINUOUS
 62
    82
  5
1A5
 10
-33.420417
 20
15.186833
 30
0.0
 11
-33.45475
 21
15.232583
 31
0.0
  0
LINE
  8
1
  6
CONTINUOUS
 62
    82
  5
1A6
 10
-33.748667
 20
15.347167
 30
0.0
 11
-33.783
 21
15.392917
 31
0.0
  0
LINE
  8
1
  6
CONTINUOUS
 62
    82
  5
1A7
 10
-34.397583
 20
15.480833
 30
0.0
 11
-34.431917
 21
15.526583
 31
0.0
  0
LINE
  8
1
  6
CONTINUOUS
 62
    82
  5
1A8
 10
-34.680083
 20
15.488417
 30
0.0
 11
-34.714417
 21
15.534167
 31
0.0
  0
LINE
  8
1
  6
CONTINUOUS
 62
    82
  5
1A9
 10
-34.683917
 20
15.717583
 30
0.0
 11
-34.71825
 21
15.763333
 31
0.0
  0
LINE
  8
1
  6
CONTINUOUS
 62
    82
  5
1AA
 10
-35.008333
 20
15.530417
 30
0.0
 11
-35.042667
 21
15.576167
 31
0.0
  0
LINE
  8
1
  6
CONTINUOUS
 62
    82
  5
1AB
 10
-35.180167
 20
15.446417
 30
0.0
 11
-35.2145
 21
15.492167
 31
0.0
  0
LINE
  8
1
  6
CONTINUOUS
 62
    82
  5
1AC
 10
-34.508333
 20
15.183
 30
0.0
 11
-34.542667
 21
15.22875
 31
0.0
  0
LINE
  8
1
  6
CONTINUOUS
 62
    82
  5
1AD
 10
-33.52725
 20
15.698417
 30
0.0
 11
-33.5425
 21
15.748083
 31
0.0
  0
LINE
  8
1
  6
CONTINUOUS
 62
    82
  5
1AE
 10
-33.794417
 20
15.698417
 30
0.0
 11
-33.809667
 21
15.748083
 31
0.0
  0
LINE
  8
1
  6
CONTINUOUS
 62
    82
  5
1AF
 10
-33.870833
 20
15.522833
 30
0.0
 11
-33.886083
 21
15.5725
 31
0.0
  0
LINE
  8
1
  6
CONTINUOUS
 62
    82
  5
1B0
 10
-33.947167
 20
15.7175
 30
0.0
 11
-33.962417
 21
15.767167
 31
0.0
  0
LINE
  8
1
  6
CONTINUOUS
 62
    82
  5
1B1
 10
-33.733417
 20
15.9505
 30
0.0
 11
-33.748667
 21
16.000167
 31
0.0
  0
LINE
  8
1
  6
CONTINUOUS
 62
    82
  5
1B2
 10
-33.439417
 20
16.095583
 30
0.0
 11
-33.454667
 21
16.14525
 31
0.0
  0
LINE
  8
1
  6
CONTINUOUS
 62
    82
  5
1B3
 10
-33.737167
 20
16.317
 30
0.0
 11
-33.752417
 21
16.366667
 31
0.0
  0
LINE
  8
1
  6
CONTINUOUS
 62
    82
  5
1B4
 10
-33.916583
 20
16.179583
 30
0.0
 11
-33.931833
 21
16.22925
 31
0.0
  0
LINE
  8
1
  6
CONTINUOUS
 62
    82
  5
1B5
 10
-33.95475
 20
16.023
 30
0.0
 11
-33.97
 21
16.072667
 31
0.0
  0
LINE
  8
1
  6
CONTINUOUS
 62
    82
  5
1B6
 10
-34.191417
 20
15.683167
 30
0.0
 11
-34.206667
 21
15.732833
 31
0.0
  0
LINE
  8
1
  6
CONTINUOUS
 62
    82
  5
1B7
 10
-34.290667
 20
15.973333
 30
0.0
 11
-34.305917
 21
16.023
 31
0.0
  0
LINE
  8
1
  6
CONTINUOUS
 62
    82
  5
1B8
 10
-34.18
 20
16.045917
 30
0.0
 11
-34.19525
 21
16.095583
 31
0.0
  0
LINE
  8
1
  6
CONTINUOUS
 62
    82
  5
1B9
 10
-32.97375
 20
16.003917
 30
0.0
 11
-32.989
 21
16.053583
 31
0.0
  0
LINE
  8
1
  6
CONTINUOUS
 62
    82
  5
1BA
 10
-32.866833
 20
15.793917
 30
0.0
 11
-32.882083
 21
15.843583
 31
0.0
  0
LINE
  8
1
  6
CONTINUOUS
 62
    82
  5
1BB
 10
-32.76
 20
15.82825
 30
0.0
 11
-32.77525
 21
15.877917
 31
0.0
  0
LINE
  8
1
  6
CONTINUOUS
 62
    82
  5
1BC
 10
-32.908833
 20
15.48075
 30
0.0
 11
-32.924083
 21
15.530417
 31
0.0
  0
LINE
  8
1
  6
CONTINUOUS
 62
    82
  5
1BD
 10
-33.038667
 20
15.488417
 30
0.0
 11
-33.053917
 21
15.538083
 31
0.0
  0
LINE
  8
1
  6
CONTINUOUS
 62
    82
  5
1BE
 10
-33.790667
 20
15.1295
 30
0.0
 11
-33.805917
 21
15.179167
 31
0.0
  0
LINE
  8
1
  6
CONTINUOUS
 62
    82
  5
1BF
 10
-34.130333
 20
15.4235
 30
0.0
 11
-34.145583
 21
15.473167
 31
0.0
  0
LINE
  8
1
  6
CONTINUOUS
 62
    82
  5
1C0
 10
-34.59225
 20
15.389167
 30
0.0
 11
-34.6075
 21
15.438833
 31
0.0
  0
LINE
  8
1
  6
CONTINUOUS
 62
    82
  5
1C1
 10
-34.496833
 20
15.851167
 30
0.0
 11
-34.512083
 21
15.900833
 31
0.0
  0
LINE
  8
1
  6
CONTINUOUS
 62
    82
  5
1C2
 10
-34.27925
 20
15.767167
 30
0.0
 11
-34.2945
 21
15.816833
 31
0.0
  0
LINE
  8
1
  6
CONTINUOUS
 62
    82
  5
1C3
 10
-34.05025
 20
15.897
 30
0.0
 11
-34.0655
 21
15.946667
 31
0.0
  0
LINE
  8
1
  6
CONTINUOUS
 62
    82
  5
1C4
 10
-34.13425
 20
15.068333
 30
0.0
 11
-34.118917
 21
15.117917
 31
0.0
  0
LINE
  8
1
  6
CONTINUOUS
 62
    82
  5
1C5
 10
-33.634167
 20
15.427333
 30
0.0
 11
-33.618833
 21
15.476917
 31
0.0
  0
LINE
  8
1
  6
CONTINUOUS
 62
    82
  5
1C6
 10
-33.416583
 20
15.496
 30
0.0
 11
-33.40125
 21
15.545583
 31
0.0
  0
LINE
  8
1
  6
CONTINUOUS
 62
    82
  5
1C7
 10
-33.321167
 20
15.813
 30
0.0
 11
-33.305833
 21
15.862583
 31
0.0
  0
LINE
  8
1
  6
CONTINUOUS
 62
    82
  5
1C8
 10
-33.626583
 20
15.64875
 30
0.0
 11
-33.61125
 21
15.698333
 31
0.0
  0
LINE
  8
1
  6
CONTINUOUS
 62
    82
  5
1C9
 10
-33.764
 20
15.862583
 30
0.0
 11
-33.748667
 21
15.912167
 31
0.0
  0
LINE
  8
1
  6
CONTINUOUS
 62
    82
  5
1CA
 10
-33.569333
 20
15.908417
 30
0.0
 11
-33.554
 21
15.958
 31
0.0
  0
LINE
  8
1
  6
CONTINUOUS
 62
    82
  5
1CB
 10
-33.676167
 20
16.149
 30
0.0
 11
-33.660833
 21
16.198583
 31
0.0
  0
LINE
  8
1
  6
CONTINUOUS
 62
    82
  5
1CC
 10
-33.77925
 20
16.065
 30
0.0
 11
-33.763917
 21
16.114583
 31
0.0
  0
LINE
  8
1
  6
CONTINUOUS
 62
    82
  5
1CD
 10
-33.374667
 20
16.24825
 30
0.0
 11
-33.359333
 21
16.297833
 31
0.0
  0
LINE
  8
1
  6
CONTINUOUS
 62
    82
  5
1CE
 10
-34.283167
 20
15.58
 30
0.0
 11
-34.275583
 21
15.6335
 31
0.0
  0
LINE
  8
1
  6
CONTINUOUS
 62
    82
  5
1CF
 10
-34.2755
 20
15.404333
 30
0.0
 11
-34.267917
 21
15.457833
 31
0.0
  0
LINE
  8
1
  6
CONTINUOUS
 62
    82
  5
1D0
 10
-33.4815
 20
15.320333
 30
0.0
 11
-33.473917
 21
15.373833
 31
0.0
  0
LINE
  8
1
  6
CONTINUOUS
 62
    82
  5
1D1
 10
-33.531167
 20
15.1485
 30
0.0
 11
-33.523583
 21
15.202
 31
0.0
  0
LINE
  8
1
  6
CONTINUOUS
 62
    82
  5
1D2
 10
-34.565583
 20
15.079833
 30
0.0
 11
-34.558
 21
15.133333
 31
0.0
  0
LINE
  8
1
  6
CONTINUOUS
 62
    82
  5
1D3
 10
-35.073333
 20
15.1485
 30
0.0
 11
-35.06575
 21
15.202
 31
0.0
  0
LINE
  8
1
  6
CONTINUOUS
 62
    82
  5
1D4
 10
-34.974083
 20
15.114167
 30
0.0
 11
-34.9665
 21
15.167667
 31
0.0
  0
LINE
  8
1
  6
CONTINUOUS
 62
    82
  5
1D5
 10
-33.202833
 20
15.282167
 30
0.0
 11
-33.19525
 21
15.335667
 31
0.0
  0
LINE
  8
1
  6
CONTINUOUS
 62
    82
  5
1D6
 10
-33.187583
 20
15.572417
 30
0.0
 11
-33.18
 21
15.625917
 31
0.0
  0
LINE
  8
1
  6
CONTINUOUS
 62
    82
  5
1D7
 10
-33.061583
 20
15.751833
 30
0.0
 11
-33.054
 21
15.805333
 31
0.0
  0
LINE
  8
1
  6
CONTINUOUS
 62
    82
  5
1D8
 10
-32.782917
 20
15.686917
 30
0.0
 11
-32.775333
 21
15.740417
 31
0.0
  0
LINE
  8
1
  6
CONTINUOUS
 62
    82
  5
1D9
 10
-33.138
 20
15.904583
 30
0.0
 11
-33.130417
 21
15.958083
 31
0.0
  0
LINE
  8
1
  6
CONTINUOUS
 62
    82
  5
1DA
 10
-33.256333
 20
15.702167
 30
0.0
 11
-33.24875
 21
15.755667
 31
0.0
  0
LINE
  8
1
  6
CONTINUOUS
 62
    82
  5
1DB
 10
-33.389917
 20
15.931333
 30
0.0
 11
-33.382333
 21
15.984833
 31
0.0
  0
LINE
  8
1
  6
CONTINUOUS
 62
    82
  5
1DC
 10
-33.065417
 20
16.126083
 30
0.0
 11
-33.057833
 21
16.179583
 31
0.0
  0
LINE
  8
1
  6
CONTINUOUS
 62
    82
  5
1DD
 10
-32.7295
 20
15.94275
 30
0.0
 11
-32.721917
 21
15.99625
 31
0.0
  0
LINE
  8
1
  6
CONTINUOUS
 62
    82
  5
1DE
 10
-32.44325
 20
15.686917
 30
0.0
 11
-32.435667
 21
15.740417
 31
0.0
  0
LINE
  8
1
  6
CONTINUOUS
 62
    82
  5
1DF
 10
-33.939583
 20
15.236333
 30
0.0
 11
-33.932
 21
15.289833
 31
0.0
  0
LINE
  8
1
  6
CONTINUOUS
 62
    82
  5
1E0
 10
-33.882333
 20
15.09125
 30
0.0
 11
-33.87475
 21
15.14475
 31
0.0
  0
LINE
  8
1
  6
CONTINUOUS
 62
    82
  5
1E1
 10
-34.550333
 20
15.55325
 30
0.0
 11
-34.54275
 21
15.60675
 31
0.0
  0
LINE
  8
1
  6
CONTINUOUS
 62
    82
  5
1E2
 10
-34.306
 20
15.1065
 30
0.0
 11
-34.298417
 21
15.16
 31
0.0
  0
LINE
  8
1
  6
CONTINUOUS
 62
    82
  5
1E3
 10
-34.42425
 20
15.377667
 30
0.0
 11
-34.4395
 21
15.427333
 31
0.0
  0
LINE
  8
1
  6
CONTINUOUS
 62
    82
  5
1E4
 10
-35.256417
 20
15.263167
 30
0.0
 11
-35.271667
 21
15.312833
 31
0.0
  0
LINE
  8
1
  6
CONTINUOUS
 62
    82
  5
1E5
 10
-35.313667
 20
15.373917
 30
0.0
 11
-35.328917
 21
15.423583
 31
0.0
  0
LINE
  8
1
  6
CONTINUOUS
 62
    82
  5
1E6
 10
-33.263833
 20
15.446417
 30
0.0
 11
-33.279083
 21
15.496083
 31
0.0
  0
LINE
  8
1
  6
CONTINUOUS
 62
    82
  5
1E7
 10
-33.7715
 20
15.469333
 30
0.0
 11
-33.78675
 21
15.519
 31
0.0
  0
LINE
  8
1
  6
CONTINUOUS
 62
    82
  5
1E8
 10
-33.48525
 20
16.026833
 30
0.0
 11
-33.5005
 21
16.0765
 31
0.0
  0
LINE
  8
1
  6
CONTINUOUS
 62
    82
  5
1E9
 10
-33.282917
 20
16.194833
 30
0.0
 11
-33.298167
 21
16.2445
 31
0.0
  0
LINE
  8
1
  6
CONTINUOUS
 62
    82
  5
1EA
 10
-32.866833
 20
15.67175
 30
0.0
 11
-32.882083
 21
15.721417
 31
0.0
  0
LINE
  8
1
  6
CONTINUOUS
 62
    82
  5
1EB
 10
-34.02725
 20
15.431167
 30
0.0
 11
-34.0425
 21
15.480833
 31
0.0
  0
LINE
  8
1
  6
CONTINUOUS
 62
    82
  5
1EC
 10
-34.1265
 20
15.205833
 30
0.0
 11
-34.14175
 21
15.2555
 31
0.0
  0
LINE
  8
1
  6
CONTINUOUS
 62
    82
  5
1ED
 10
-34.596
 20
15.293667
 30
0.0
 11
-34.61125
 21
15.343333
 31
0.0
  0
LINE
  8
1
  6
CONTINUOUS
 62
    82
  5
1EE
 10
-34.70675
 20
15.400583
 30
0.0
 11
-34.722
 21
15.45025
 31
0.0
  0
LINE
  8
1
  6
CONTINUOUS
 62
    82
  5
1EF
 10
-34.909083
 20
15.484583
 30
0.0
 11
-34.924333
 21
15.53425
 31
0.0
  0
LINE
  8
1
  6
CONTINUOUS
 62
    82
  5
1F0
 10
-34.725833
 20
15.603
 30
0.0
 11
-34.741083
 21
15.652667
 31
0.0
  0
LINE
  8
1
  6
CONTINUOUS
 62
    82
  5
1F1
 10
-34.4815
 20
15.7175
 30
0.0
 11
-34.49675
 21
15.767167
 31
0.0
  0
LINE
  8
1
  6
CONTINUOUS
 62
    82
  5
1F2
 10
-34.35175
 20
15.946667
 30
0.0
 11
-34.367
 21
15.996333
 31
0.0
  0
LINE
  8
1
  6
CONTINUOUS
 62
    82
  5
1F3
 10
-34.573167
 20
15.8015
 30
0.0
 11
-34.588417
 21
15.851167
 31
0.0
  0
LINE
  8
1
  6
CONTINUOUS
 62
    82
  5
1F4
 10
-31.896333
 20
17.291167
 30
0.0
 11
-31.915417
 21
17.337
 31
0.0
  0
LINE
  8
1
  6
CONTINUOUS
 62
    82
  5
1F5
 10
-31.76275
 20
17.253
 30
0.0
 11
-31.732167
 21
17.31025
 31
0.0
  0
LINE
  8
1
  6
CONTINUOUS
 62
    82
  5
1F6
 10
-31.63675
 20
17.2415
 30
0.0
 11
-31.629167
 21
17.295
 31
0.0
  0
LINE
  8
1
  6
CONTINUOUS
 62
    82
  5
1F7
 10
-31.415417
 20
17.149917
 30
0.0
 11
-31.400083
 21
17.1995
 31
0.0
  0
LINE
  8
1
  6
CONTINUOUS
 62
    82
  5
1F8
 10
-31.52225
 20
17.14225
 30
0.0
 11
-31.5375
 21
17.191917
 31
0.0
  0
LINE
  8
1
  6
CONTINUOUS
 62
    82
  5
1F9
 10
-31.48025
 20
17.249167
 30
0.0
 11
-31.468833
 21
17.298833
 31
0.0
  0
LINE
  8
1
  6
CONTINUOUS
 62
    82
  5
1FA
 10
-31.72075
 20
17.386667
 30
0.0
 11
-31.755083
 21
17.432417
 31
0.0
  0
LINE
  8
1
  6
CONTINUOUS
 62
    82
  5
1FB
 10
-31.335167
 20
17.623333
 30
0.0
 11
-31.327583
 21
17.676833
 31
0.0
  0
LINE
  8
1
  6
CONTINUOUS
 62
    82
  5
1FC
 10
-30.384667
 20
17.806583
 30
0.0
 11
-30.377083
 21
17.860083
 31
0.0
  0
LINE
  8
1
  6
CONTINUOUS
 62
    82
  5
1FD
 10
-30.270167
 20
18.180833
 30
0.0
 11
-30.262583
 21
18.234333
 31
0.0
  0
LINE
  8
1
  6
CONTINUOUS
 62
    82
  5
1FE
 10
-30.774083
 20
18.047167
 30
0.0
 11
-30.7665
 21
18.100667
 31
0.0
  0
LINE
  8
1
  6
CONTINUOUS
 62
    82
  5
1FF
 10
-29.560167
 20
17.894417
 30
0.0
 11
-29.552583
 21
17.947917
 31
0.0
  0
LINE
  8
1
  6
CONTINUOUS
 62
    82
  5
200
 10
-29.396
 20
17.512583
 30
0.0
 11
-29.388417
 21
17.566083
 31
0.0
  0
LINE
  8
1
  6
CONTINUOUS
 62
    82
  5
201
 10
-29.899917
 20
17.4095
 30
0.0
 11
-29.892333
 21
17.463
 31
0.0
  0
LINE
  8
1
  6
CONTINUOUS
 62
    82
  5
202
 10
-30.57175
 20
17.264333
 30
0.0
 11
-30.564167
 21
17.317833
 31
0.0
  0
LINE
  8
1
  6
CONTINUOUS
 62
    82
  5
203
 10
-30.327417
 20
17.149833
 30
0.0
 11
-30.319833
 21
17.203333
 31
0.0
  0
LINE
  8
1
  6
CONTINUOUS
 62
    82
  5
204
 10
-30.922917
 20
17.459083
 30
0.0
 11
-30.915333
 21
17.512583
 31
0.0
  0
LINE
  8
1
  6
CONTINUOUS
 62
    82
  5
205
 10
-31.163417
 20
17.07725
 30
0.0
 11
-31.155833
 21
17.13075
 31
0.0
  0
LINE
  8
1
  6
CONTINUOUS
 62
    82
  5
206
 10
-30.735917
 20
17.073417
 30
0.0
 11
-30.728333
 21
17.126917
 31
0.0
  0
LINE
  8
1
  6
CONTINUOUS
 62
    82
  5
207
 10
-30.312167
 20
17.5355
 30
0.0
 11
-30.304583
 21
17.589
 31
0.0
  0
LINE
  8
1
  6
CONTINUOUS
 62
    82
  5
208
 10
-29.968583
 20
17.837167
 30
0.0
 11
-29.961
 21
17.890667
 31
0.0
  0
LINE
  8
1
  6
CONTINUOUS
 62
    82
  5
209
 10
-30.766417
 20
17.77225
 30
0.0
 11
-30.758833
 21
17.82575
 31
0.0
  0
LINE
  8
1
  6
CONTINUOUS
 62
    82
  5
20A
 10
-30.713
 20
17.531667
 30
0.0
 11
-30.705417
 21
17.585167
 31
0.0
  0
LINE
  8
1
  6
CONTINUOUS
 62
    82
  5
20B
 10
-31.262667
 20
17.386583
 30
0.0
 11
-31.255083
 21
17.440083
 31
0.0
  0
LINE
  8
1
  6
CONTINUOUS
 62
    82
  5
20C
 10
-31.568083
 20
17.585083
 30
0.0
 11
-31.5605
 21
17.638583
 31
0.0
  0
LINE
  8
1
  6
CONTINUOUS
 62
    82
  5
20D
 10
-31.568083
 20
17.386583
 30
0.0
 11
-31.5605
 21
17.440083
 31
0.0
  0
LINE
  8
1
  6
CONTINUOUS
 62
    82
  5
20E
 10
-32.140667
 20
17.314
 30
0.0
 11
-32.133083
 21
17.3675
 31
0.0
  0
LINE
  8
1
  6
CONTINUOUS
 62
    82
  5
20F
 10
-29.709083
 20
17.638583
 30
0.0
 11
-29.7015
 21
17.692083
 31
0.0
  0
LINE
  8
1
  6
CONTINUOUS
 62
    82
  5
210
 10
-30.041167
 20
18.104417
 30
0.0
 11
-30.033583
 21
18.157917
 31
0.0
  0
LINE
  8
1
  6
CONTINUOUS
 62
    82
  5
211
 10
-30.212917
 20
17.894417
 30
0.0
 11
-30.205333
 21
17.947917
 31
0.0
  0
LINE
  8
1
  6
CONTINUOUS
 62
    82
  5
212
 10
-30.5145
 20
18.146417
 30
0.0
 11
-30.506917
 21
18.199917
 31
0.0
  0
LINE
  8
1
  6
CONTINUOUS
 62
    82
  5
213
 10
-29.258583
 20
17.726417
 30
0.0
 11
-29.251
 21
17.779917
 31
0.0
  0
LINE
  8
1
  6
CONTINUOUS
 62
    82
  5
214
 10
-29.552583
 20
17.398
 30
0.0
 11
-29.545
 21
17.4515
 31
0.0
  0
LINE
  8
1
  6
CONTINUOUS
 62
    82
  5
215
 10
-31.1635
 20
17.806667
 30
0.0
 11
-31.132917
 21
17.863917
 31
0.0
  0
LINE
  8
1
  6
CONTINUOUS
 62
    82
  5
216
 10
-30.816083
 20
17.631
 30
0.0
 11
-30.7855
 21
17.68825
 31
0.0
  0
LINE
  8
1
  6
CONTINUOUS
 62
    82
  5
217
 10
-31.132917
 20
17.631
 30
0.0
 11
-31.102333
 21
17.68825
 31
0.0
  0
LINE
  8
1
  6
CONTINUOUS
 62
    82
  5
218
 10
-30.62525
 20
17.967
 30
0.0
 11
-30.594667
 21
18.02425
 31
0.0
  0
LINE
  8
1
  6
CONTINUOUS
 62
    82
  5
219
 10
-30.487833
 20
17.673
 30
0.0
 11
-30.45725
 21
17.73025
 31
0.0
  0
LINE
  8
1
  6
CONTINUOUS
 62
    82
  5
21A
 10
-30.109917
 20
17.619583
 30
0.0
 11
-30.079333
 21
17.676833
 31
0.0
  0
LINE
  8
1
  6
CONTINUOUS
 62
    82
  5
21B
 10
-29.877083
 20
18.024333
 30
0.0
 11
-29.8465
 21
18.081583
 31
0.0
  0
LINE
  8
1
  6
CONTINUOUS
 62
    82
  5
21C
 10
-29.40375
 20
17.715
 30
0.0
 11
-29.373167
 21
17.77225
 31
0.0
  0
LINE
  8
1
  6
CONTINUOUS
 62
    82
  5
21D
 10
-29.564083
 20
17.569917
 30
0.0
 11
-29.5335
 21
17.627167
 31
0.0
  0
LINE
  8
1
  6
CONTINUOUS
 62
    82
  5
21E
 10
-29.774
 20
17.32175
 30
0.0
 11
-29.743417
 21
17.379
 31
0.0
  0
LINE
  8
1
  6
CONTINUOUS
 62
    82
  5
21F
 10
-30.10225
 20
17.337
 30
0.0
 11
-30.071667
 21
17.39425
 31
0.0
  0
LINE
  8
1
  6
CONTINUOUS
 62
    82
  5
220
 10
-30.31225
 20
17.356083
 30
0.0
 11
-30.281667
 21
17.413333
 31
0.0
  0
LINE
  8
1
  6
CONTINUOUS
 62
    82
  5
221
 10
-30.476333
 20
17.180417
 30
0.0
 11
-30.44575
 21
17.237667
 31
0.0
  0
LINE
  8
1
  6
CONTINUOUS
 62
    82
  5
222
 10
-30.797
 20
17.272083
 30
0.0
 11
-30.766417
 21
17.329333
 31
0.0
  0
LINE
  8
1
  6
CONTINUOUS
 62
    82
  5
223
 10
-31.132917
 20
17.260667
 30
0.0
 11
-31.102333
 21
17.317917
 31
0.0
  0
LINE
  8
1
  6
CONTINUOUS
 62
    82
  5
224
 10
-30.957333
 20
17.306417
 30
0.0
 11
-30.92675
 21
17.363667
 31
0.0
  0
LINE
  8
1
  6
CONTINUOUS
 62
    82
  5
225
 10
-30.968833
 20
17.146083
 30
0.0
 11
-30.93825
 21
17.203333
 31
0.0
  0
LINE
  8
1
  6
CONTINUOUS
 62
    82
  5
226
 10
-30.923
 20
17.883
 30
0.0
 11
-30.892417
 21
17.94025
 31
0.0
  0
LINE
  8
1
  6
CONTINUOUS
 62
    82
  5
227
 10
-30.426667
 20
17.53175
 30
0.0
 11
-30.461
 21
17.5775
 31
0.0
  0
LINE
  8
1
  6
CONTINUOUS
 62
    82
  5
228
 10
-30.636667
 20
17.402
 30
0.0
 11
-30.671
 21
17.44775
 31
0.0
  0
LINE
  8
1
  6
CONTINUOUS
 62
    82
  5
229
 10
-30.0335
 20
17.256833
 30
0.0
 11
-30.067833
 21
17.302583
 31
0.0
  0
LINE
  8
1
  6
CONTINUOUS
 62
    82
  5
22A
 10
-30.006833
 20
17.562333
 30
0.0
 11
-30.041167
 21
17.608083
 31
0.0
  0
LINE
  8
1
  6
CONTINUOUS
 62
    82
  5
22B
 10
-29.850333
 20
17.688333
 30
0.0
 11
-29.884667
 21
17.734083
 31
0.0
  0
LINE
  8
1
  6
CONTINUOUS
 62
    82
  5
22C
 10
-30.163333
 20
17.730333
 30
0.0
 11
-30.197667
 21
17.776083
 31
0.0
  0
LINE
  8
1
  6
CONTINUOUS
 62
    82
  5
22D
 10
-30.010583
 20
17.99
 30
0.0
 11
-30.044917
 21
18.03575
 31
0.0
  0
LINE
  8
1
  6
CONTINUOUS
 62
    82
  5
22E
 10
-30.304583
 20
18.020583
 30
0.0
 11
-30.338917
 21
18.066333
 31
0.0
  0
LINE
  8
1
  6
CONTINUOUS
 62
    82
  5
22F
 10
-30.583167
 20
17.841083
 30
0.0
 11
-30.6175
 21
17.886833
 31
0.0
  0
LINE
  8
1
  6
CONTINUOUS
 62
    82
  5
230
 10
-30.319833
 20
18.291667
 30
0.0
 11
-30.354167
 21
18.337417
 31
0.0
  0
LINE
  8
1
  6
CONTINUOUS
 62
    82
  5
231
 10
-30.17475
 20
18.356583
 30
0.0
 11
-30.209083
 21
18.402333
 31
0.0
  0
LINE
  8
1
  6
CONTINUOUS
 62
    82
  5
232
 10
-29.911333
 20
18.2
 30
0.0
 11
-29.945667
 21
18.24575
 31
0.0
  0
LINE
  8
1
  6
CONTINUOUS
 62
    82
  5
233
 10
-29.7205
 20
17.871667
 30
0.0
 11
-29.754833
 21
17.917417
 31
0.0
  0
LINE
  8
1
  6
CONTINUOUS
 62
    82
  5
234
 10
-29.296833
 20
17.833417
 30
0.0
 11
-29.331167
 21
17.879167
 31
0.0
  0
LINE
  8
1
  6
CONTINUOUS
 62
    82
  5
235
 10
-29.247167
 20
17.604333
 30
0.0
 11
-29.2815
 21
17.650083
 31
0.0
  0
LINE
  8
1
  6
CONTINUOUS
 62
    82
  5
236
 10
-29.041
 20
17.703583
 30
0.0
 11
-29.075333
 21
17.749333
 31
0.0
  0
LINE
  8
1
  6
CONTINUOUS
 62
    82
  5
237
 10
-30.14425
 20
17.188167
 30
0.0
 11
-30.178583
 21
17.233917
 31
0.0
  0
LINE
  8
1
  6
CONTINUOUS
 62
    82
  5
238
 10
-30.4725
 20
17.3485
 30
0.0
 11
-30.506833
 21
17.39425
 31
0.0
  0
LINE
  8
1
  6
CONTINUOUS
 62
    82
  5
239
 10
-31.121417
 20
17.482167
 30
0.0
 11
-31.15575
 21
17.527917
 31
0.0
  0
LINE
  8
1
  6
CONTINUOUS
 62
    82
  5
23A
 10
-31.403917
 20
17.48975
 30
0.0
 11
-31.43825
 21
17.5355
 31
0.0
  0
LINE
  8
1
  6
CONTINUOUS
 62
    82
  5
23B
 10
-31.40775
 20
17.718917
 30
0.0
 11
-31.442083
 21
17.764667
 31
0.0
  0
LINE
  8
1
  6
CONTINUOUS
 62
    82
  5
23C
 10
-31.732167
 20
17.53175
 30
0.0
 11
-31.7665
 21
17.5775
 31
0.0
  0
LINE
  8
1
  6
CONTINUOUS
 62
    82
  5
23D
 10
-31.904
 20
17.44775
 30
0.0
 11
-31.938333
 21
17.4935
 31
0.0
  0
LINE
  8
1
  6
CONTINUOUS
 62
    82
  5
23E
 10
-31.232167
 20
17.184333
 30
0.0
 11
-31.2665
 21
17.230083
 31
0.0
  0
LINE
  8
1
  6
CONTINUOUS
 62
    82
  5
23F
 10
-30.251083
 20
17.69975
 30
0.0
 11
-30.266333
 21
17.749417
 31
0.0
  0
LINE
  8
1
  6
CONTINUOUS
 62
    82
  5
240
 10
-30.51825
 20
17.69975
 30
0.0
 11
-30.5335
 21
17.749417
 31
0.0
  0
LINE
  8
1
  6
CONTINUOUS
 62
    82
  5
241
 10
-30.594667
 20
17.524167
 30
0.0
 11
-30.609917
 21
17.573833
 31
0.0
  0
LINE
  8
1
  6
CONTINUOUS
 62
    82
  5
242
 10
-30.671
 20
17.718833
 30
0.0
 11
-30.68625
 21
17.7685
 31
0.0
  0
LINE
  8
1
  6
CONTINUOUS
 62
    82
  5
243
 10
-30.45725
 20
17.951833
 30
0.0
 11
-30.4725
 21
18.0015
 31
0.0
  0
LINE
  8
1
  6
CONTINUOUS
 62
    82
  5
244
 10
-30.16325
 20
18.096917
 30
0.0
 11
-30.1785
 21
18.146583
 31
0.0
  0
LINE
  8
1
  6
CONTINUOUS
 62
    82
  5
245
 10
-30.461
 20
18.318333
 30
0.0
 11
-30.47625
 21
18.368
 31
0.0
  0
LINE
  8
1
  6
CONTINUOUS
 62
    82
  5
246
 10
-30.640417
 20
18.180917
 30
0.0
 11
-30.655667
 21
18.230583
 31
0.0
  0
LINE
  8
1
  6
CONTINUOUS
 62
    82
  5
247
 10
-30.678583
 20
18.024333
 30
0.0
 11
-30.693833
 21
18.074
 31
0.0
  0
LINE
  8
1
  6
CONTINUOUS
 62
    82
  5
248
 10
-30.91525
 20
17.6845
 30
0.0
 11
-30.9305
 21
17.734167
 31
0.0
  0
LINE
  8
1
  6
CONTINUOUS
 62
    82
  5
249
 10
-31.0145
 20
17.974667
 30
0.0
 11
-31.02975
 21
18.024333
 31
0.0
  0
LINE
  8
1
  6
CONTINUOUS
 62
    82
  5
24A
 10
-30.903833
 20
18.04725
 30
0.0
 11
-30.919083
 21
18.096917
 31
0.0
  0
LINE
  8
1
  6
CONTINUOUS
 62
    82
  5
24B
 10
-29.697583
 20
18.00525
 30
0.0
 11
-29.712833
 21
18.054917
 31
0.0
  0
LINE
  8
1
  6
CONTINUOUS
 62
    82
  5
24C
 10
-29.590667
 20
17.79525
 30
0.0
 11
-29.605917
 21
17.844917
 31
0.0
  0
LINE
  8
1
  6
CONTINUOUS
 62
    82
  5
24D
 10
-29.483833
 20
17.829583
 30
0.0
 11
-29.499083
 21
17.87925
 31
0.0
  0
LINE
  8
1
  6
CONTINUOUS
 62
    82
  5
24E
 10
-29.632667
 20
17.482083
 30
0.0
 11
-29.647917
 21
17.53175
 31
0.0
  0
LINE
  8
1
  6
CONTINUOUS
 62
    82
  5
24F
 10
-29.7625
 20
17.48975
 30
0.0
 11
-29.77775
 21
17.539417
 31
0.0
  0
LINE
  8
1
  6
CONTINUOUS
 62
    82
  5
250
 10
-30.5145
 20
17.130833
 30
0.0
 11
-30.52975
 21
17.1805
 31
0.0
  0
LINE
  8
1
  6
CONTINUOUS
 62
    82
  5
251
 10
-30.854167
 20
17.424833
 30
0.0
 11
-30.869417
 21
17.4745
 31
0.0
  0
LINE
  8
1
  6
CONTINUOUS
 62
    82
  5
252
 10
-31.316083
 20
17.3905
 30
0.0
 11
-31.331333
 21
17.440167
 31
0.0
  0
LINE
  8
1
  6
CONTINUOUS
 62
    82
  5
253
 10
-31.220667
 20
17.8525
 30
0.0
 11
-31.235917
 21
17.902167
 31
0.0
  0
LINE
  8
1
  6
CONTINUOUS
 62
    82
  5
254
 10
-31.003083
 20
17.7685
 30
0.0
 11
-31.018333
 21
17.818167
 31
0.0
  0
LINE
  8
1
  6
CONTINUOUS
 62
    82
  5
255
 10
-30.774083
 20
17.898333
 30
0.0
 11
-30.789333
 21
17.948
 31
0.0
  0
LINE
  8
1
  6
CONTINUOUS
 62
    82
  5
256
 10
-30.858083
 20
17.069667
 30
0.0
 11
-30.84275
 21
17.11925
 31
0.0
  0
LINE
  8
1
  6
CONTINUOUS
 62
    82
  5
257
 10
-30.358
 20
17.428667
 30
0.0
 11
-30.342667
 21
17.47825
 31
0.0
  0
LINE
  8
1
  6
CONTINUOUS
 62
    82
  5
258
 10
-30.140417
 20
17.497333
 30
0.0
 11
-30.125083
 21
17.546917
 31
0.0
  0
LINE
  8
1
  6
CONTINUOUS
 62
    82
  5
259
 10
-30.045
 20
17.814333
 30
0.0
 11
-30.029667
 21
17.863917
 31
0.0
  0
LINE
  8
1
  6
CONTINUOUS
 62
    82
  5
25A
 10
-30.350417
 20
17.650083
 30
0.0
 11
-30.335083
 21
17.699667
 31
0.0
  0
LINE
  8
1
  6
CONTINUOUS
 62
    82
  5
25B
 10
-30.487833
 20
17.863917
 30
0.0
 11
-30.4725
 21
17.9135
 31
0.0
  0
LINE
  8
1
  6
CONTINUOUS
 62
    82
  5
25C
 10
-30.293167
 20
17.90975
 30
0.0
 11
-30.277833
 21
17.959333
 31
0.0
  0
LINE
  8
1
  6
CONTINUOUS
 62
    82
  5
25D
 10
-30.4
 20
18.150333
 30
0.0
 11
-30.384667
 21
18.199917
 31
0.0
  0
LINE
  8
1
  6
CONTINUOUS
 62
    82
  5
25E
 10
-30.503083
 20
18.066333
 30
0.0
 11
-30.48775
 21
18.115917
 31
0.0
  0
LINE
  8
1
  6
CONTINUOUS
 62
    82
  5
25F
 10
-30.0985
 20
18.249583
 30
0.0
 11
-30.083167
 21
18.299167
 31
0.0
  0
LINE
  8
1
  6
CONTINUOUS
 62
    82
  5
260
 10
-31.007
 20
17.581333
 30
0.0
 11
-30.999417
 21
17.634833
 31
0.0
  0
LINE
  8
1
  6
CONTINUOUS
 62
    82
  5
261
 10
-30.999333
 20
17.405667
 30
0.0
 11
-30.99175
 21
17.459167
 31
0.0
  0
LINE
  8
1
  6
CONTINUOUS
 62
    82
  5
262
 10
-30.205333
 20
17.321667
 30
0.0
 11
-30.19775
 21
17.375167
 31
0.0
  0
LINE
  8
1
  6
CONTINUOUS
 62
    82
  5
263
 10
-30.255
 20
17.149833
 30
0.0
 11
-30.247417
 21
17.203333
 31
0.0
  0
LINE
  8
1
  6
CONTINUOUS
 62
    82
  5
264
 10
-31.289417
 20
17.081167
 30
0.0
 11
-31.281833
 21
17.134667
 31
0.0
  0
LINE
  8
1
  6
CONTINUOUS
 62
    82
  5
265
 10
-31.797167
 20
17.149833
 30
0.0
 11
-31.789583
 21
17.203333
 31
0.0
  0
LINE
  8
1
  6
CONTINUOUS
 62
    82
  5
266
 10
-31.697917
 20
17.1155
 30
0.0
 11
-31.690333
 21
17.169
 31
0.0
  0
LINE
  8
1
  6
CONTINUOUS
 62
    82
  5
267
 10
-29.926667
 20
17.2835
 30
0.0
 11
-29.919083
 21
17.337
 31
0.0
  0
LINE
  8
1
  6
CONTINUOUS
 62
    82
  5
268
 10
-29.911417
 20
17.57375
 30
0.0
 11
-29.903833
 21
17.62725
 31
0.0
  0
LINE
  8
1
  6
CONTINUOUS
 62
    82
  5
269
 10
-29.785417
 20
17.753167
 30
0.0
 11
-29.777833
 21
17.806667
 31
0.0
  0
LINE
  8
1
  6
CONTINUOUS
 62
    82
  5
26A
 10
-29.50675
 20
17.68825
 30
0.0
 11
-29.499167
 21
17.74175
 31
0.0
  0
LINE
  8
1
  6
CONTINUOUS
 62
    82
  5
26B
 10
-29.861833
 20
17.905917
 30
0.0
 11
-29.85425
 21
17.959417
 31
0.0
  0
LINE
  8
1
  6
CONTINUOUS
 62
    82
  5
26C
 10
-29.980167
 20
17.7035
 30
0.0
 11
-29.972583
 21
17.757
 31
0.0
  0
LINE
  8
1
  6
CONTINUOUS
 62
    82
  5
26D
 10
-30.11375
 20
17.932667
 30
0.0
 11
-30.106167
 21
17.986167
 31
0.0
  0
LINE
  8
1
  6
CONTINUOUS
 62
    82
  5
26E
 10
-29.78925
 20
18.127417
 30
0.0
 11
-29.781667
 21
18.180917
 31
0.0
  0
LINE
  8
1
  6
CONTINUOUS
 62
    82
  5
26F
 10
-29.453333
 20
17.944083
 30
0.0
 11
-29.44575
 21
17.997583
 31
0.0
  0
LINE
  8
1
  6
CONTINUOUS
 62
    82
  5
270
 10
-29.167083
 20
17.68825
 30
0.0
 11
-29.1595
 21
17.74175
 31
0.0
  0
LINE
  8
1
  6
CONTINUOUS
 62
    82
  5
271
 10
-30.663417
 20
17.237667
 30
0.0
 11
-30.655833
 21
17.291167
 31
0.0
  0
LINE
  8
1
  6
CONTINUOUS
 62
    82
  5
272
 10
-30.606167
 20
17.092583
 30
0.0
 11
-30.598583
 21
17.146083
 31
0.0
  0
LINE
  8
1
  6
CONTINUOUS
 62
    82
  5
273
 10
-31.274167
 20
17.554583
 30
0.0
 11
-31.266583
 21
17.608083
 31
0.0
  0
LINE
  8
1
  6
CONTINUOUS
 62
    82
  5
274
 10
-31.029833
 20
17.107833
 30
0.0
 11
-31.02225
 21
17.161333
 31
0.0
  0
LINE
  8
1
  6
CONTINUOUS
 62
    82
  5
275
 10
-31.148083
 20
17.379
 30
0.0
 11
-31.163333
 21
17.428667
 31
0.0
  0
LINE
  8
1
  6
CONTINUOUS
 62
    82
  5
276
 10
-31.98025
 20
17.2645
 30
0.0
 11
-31.9955
 21
17.314167
 31
0.0
  0
LINE
  8
1
  6
CONTINUOUS
 62
    82
  5
277
 10
-32.0375
 20
17.37525
 30
0.0
 11
-32.05275
 21
17.424917
 31
0.0
  0
LINE
  8
1
  6
CONTINUOUS
 62
    82
  5
278
 10
-29.987667
 20
17.44775
 30
0.0
 11
-30.002917
 21
17.497417
 31
0.0
  0
LINE
  8
1
  6
CONTINUOUS
 62
    82
  5
279
 10
-30.495333
 20
17.470667
 30
0.0
 11
-30.510583
 21
17.520333
 31
0.0
  0
LINE
  8
1
  6
CONTINUOUS
 62
    82
  5
27A
 10
-30.209083
 20
18.028167
 30
0.0
 11
-30.224333
 21
18.077833
 31
0.0
  0
LINE
  8
1
  6
CONTINUOUS
 62
    82
  5
27B
 10
-30.00675
 20
18.196167
 30
0.0
 11
-30.022
 21
18.245833
 31
0.0
  0
LINE
  8
1
  6
CONTINUOUS
 62
    82
  5
27C
 10
-29.590667
 20
17.673083
 30
0.0
 11
-29.605917
 21
17.72275
 31
0.0
  0
LINE
  8
1
  6
CONTINUOUS
 62
    82
  5
27D
 10
-30.751083
 20
17.4325
 30
0.0
 11
-30.766333
 21
17.482167
 31
0.0
  0
LINE
  8
1
  6
CONTINUOUS
 62
    82
  5
27E
 10
-30.850333
 20
17.207167
 30
0.0
 11
-30.865583
 21
17.256833
 31
0.0
  0
LINE
  8
1
  6
CONTINUOUS
 62
    82
  5
27F
 10
-31.319833
 20
17.295
 30
0.0
 11
-31.335083
 21
17.344667
 31
0.0
  0
LINE
  8
1
  6
CONTINUOUS
 62
    82
  5
280
 10
-31.430583
 20
17.401917
 30
0.0
 11
-31.445833
 21
17.451583
 31
0.0
  0
LINE
  8
1
  6
CONTINUOUS
 62
    82
  5
281
 10
-31.632917
 20
17.485917
 30
0.0
 11
-31.648167
 21
17.535583
 31
0.0
  0
LINE
  8
1
  6
CONTINUOUS
 62
    82
  5
282
 10
-31.449667
 20
17.604333
 30
0.0
 11
-31.464917
 21
17.654
 31
0.0
  0
LINE
  8
1
  6
CONTINUOUS
 62
    82
  5
283
 10
-31.205333
 20
17.718833
 30
0.0
 11
-31.220583
 21
17.7685
 31
0.0
  0
LINE
  8
1
  6
CONTINUOUS
 62
    82
  5
284
 10
-31.075583
 20
17.948
 30
0.0
 11
-31.090833
 21
17.997667
 31
0.0
  0
LINE
  8
1
  6
CONTINUOUS
 62
    82
  5
285
 10
-31.297
 20
17.802833
 30
0.0
 11
-31.31225
 21
17.8525
 31
0.0
  0
LINE
  8
1
  6
CONTINUOUS
 62
    82
  5
286
 10
-37.8735
 20
16.915917
 30
0.0
 11
-37.892583
 21
16.96175
 31
0.0
  0
LINE
  8
1
  6
CONTINUOUS
 62
    82
  5
287
 10
-37.739917
 20
16.87775
 30
0.0
 11
-37.709333
 21
16.935
 31
0.0
  0
LINE
  8
1
  6
CONTINUOUS
 62
    82
  5
288
 10
-37.613917
 20
16.86625
 30
0.0
 11
-37.606333
 21
16.91975
 31
0.0
  0
LINE
  8
1
  6
CONTINUOUS
 62
    82
  5
289
 10
-37.392583
 20
16.774667
 30
0.0
 11
-37.37725
 21
16.82425
 31
0.0
  0
LINE
  8
1
  6
CONTINUOUS
 62
    82
  5
28A
 10
-37.499417
 20
16.767
 30
0.0
 11
-37.514667
 21
16.816667
 31
0.0
  0
LINE
  8
1
  6
CONTINUOUS
 62
    82
  5
28B
 10
-37.457417
 20
16.873917
 30
0.0
 11
-37.446
 21
16.923583
 31
0.0
  0
LINE
  8
1
  6
CONTINUOUS
 62
    82
  5
28C
 10
-37.697917
 20
17.011417
 30
0.0
 11
-37.73225
 21
17.057167
 31
0.0
  0
LINE
  8
1
  6
CONTINUOUS
 62
    82
  5
28D
 10
-37.312333
 20
17.248083
 30
0.0
 11
-37.30475
 21
17.301583
 31
0.0
  0
LINE
  8
1
  6
CONTINUOUS
 62
    82
  5
28E
 10
-36.361833
 20
17.431333
 30
0.0
 11
-36.35425
 21
17.484833
 31
0.0
  0
LINE
  8
1
  6
CONTINUOUS
 62
    82
  5
28F
 10
-36.247333
 20
17.805583
 30
0.0
 11
-36.23975
 21
17.859083
 31
0.0
  0
LINE
  8
1
  6
CONTINUOUS
 62
    82
  5
290
 10
-36.75125
 20
17.671917
 30
0.0
 11
-36.743667
 21
17.725417
 31
0.0
  0
LINE
  8
1
  6
CONTINUOUS
 62
    82
  5
291
 10
-35.537333
 20
17.519167
 30
0.0
 11
-35.52975
 21
17.572667
 31
0.0
  0
LINE
  8
1
  6
CONTINUOUS
 62
    82
  5
292
 10
-35.373167
 20
17.137333
 30
0.0
 11
-35.365583
 21
17.190833
 31
0.0
  0
LINE
  8
1
  6
CONTINUOUS
 62
    82
  5
293
 10
-35.877083
 20
17.03425
 30
0.0
 11
-35.8695
 21
17.08775
 31
0.0
  0
LINE
  8
1
  6
CONTINUOUS
 62
    82
  5
294
 10
-36.548917
 20
16.889083
 30
0.0
 11
-36.541333
 21
16.942583
 31
0.0
  0
LINE
  8
1
  6
CONTINUOUS
 62
    82
  5
295
 10
-36.304583
 20
16.774583
 30
0.0
 11
-36.297
 21
16.828083
 31
0.0
  0
LINE
  8
1
  6
CONTINUOUS
 62
    82
  5
296
 10
-36.900083
 20
17.083833
 30
0.0
 11
-36.8925
 21
17.137333
 31
0.0
  0
LINE
  8
1
  6
CONTINUOUS
 62
    82
  5
297
 10
-37.140583
 20
16.702
 30
0.0
 11
-37.133
 21
16.7555
 31
0.0
  0
LINE
  8
1
  6
CONTINUOUS
 62
    82
  5
298
 10
-36.713083
 20
16.698167
 30
0.0
 11
-36.7055
 21
16.751667
 31
0.0
  0
LINE
  8
1
  6
CONTINUOUS
 62
    82
  5
299
 10
-36.289333
 20
17.16025
 30
0.0
 11
-36.28175
 21
17.21375
 31
0.0
  0
LINE
  8
1
  6
CONTINUOUS
 62
    82
  5
29A
 10
-35.94575
 20
17.461917
 30
0.0
 11
-35.938167
 21
17.515417
 31
0.0
  0
LINE
  8
1
  6
CONTINUOUS
 62
    82
  5
29B
 10
-36.743583
 20
17.397
 30
0.0
 11
-36.736
 21
17.4505
 31
0.0
  0
LINE
  8
1
  6
CONTINUOUS
 62
    82
  5
29C
 10
-36.690167
 20
17.156417
 30
0.0
 11
-36.682583
 21
17.209917
 31
0.0
  0
LINE
  8
1
  6
CONTINUOUS
 62
    82
  5
29D
 10
-37.239833
 20
17.011333
 30
0.0
 11
-37.23225
 21
17.064833
 31
0.0
  0
LINE
  8
1
  6
CONTINUOUS
 62
    82
  5
29E
 10
-37.54525
 20
17.209833
 30
0.0
 11
-37.537667
 21
17.263333
 31
0.0
  0
LINE
  8
1
  6
CONTINUOUS
 62
    82
  5
29F
 10
-37.54525
 20
17.011333
 30
0.0
 11
-37.537667
 21
17.064833
 31
0.0
  0
LINE
  8
1
  6
CONTINUOUS
 62
    82
  5
2A0
 10
-38.117833
 20
16.93875
 30
0.0
 11
-38.11025
 21
16.99225
 31
0.0
  0
LINE
  8
1
  6
CONTINUOUS
 62
    82
  5
2A1
 10
-35.68625
 20
17.263333
 30
0.0
 11
-35.678667
 21
17.316833
 31
0.0
  0
LINE
  8
1
  6
CONTINUOUS
 62
    82
  5
2A2
 10
-36.018333
 20
17.729167
 30
0.0
 11
-36.01075
 21
17.782667
 31
0.0
  0
LINE
  8
1
  6
CONTINUOUS
 62
    82
  5
2A3
 10
-36.190083
 20
17.519167
 30
0.0
 11
-36.1825
 21
17.572667
 31
0.0
  0
LINE
  8
1
  6
CONTINUOUS
 62
    82
  5
2A4
 10
-36.491667
 20
17.771167
 30
0.0
 11
-36.484083
 21
17.824667
 31
0.0
  0
LINE
  8
1
  6
CONTINUOUS
 62
    82
  5
2A5
 10
-35.23575
 20
17.351167
 30
0.0
 11
-35.228167
 21
17.404667
 31
0.0
  0
LINE
  8
1
  6
CONTINUOUS
 62
    82
  5
2A6
 10
-35.52975
 20
17.02275
 30
0.0
 11
-35.522167
 21
17.07625
 31
0.0
  0
LINE
  8
1
  6
CONTINUOUS
 62
    82
  5
2A7
 10
-37.140667
 20
17.431417
 30
0.0
 11
-37.110083
 21
17.488667
 31
0.0
  0
LINE
  8
1
  6
CONTINUOUS
 62
    82
  5
2A8
 10
-36.79325
 20
17.25575
 30
0.0
 11
-36.762667
 21
17.313
 31
0.0
  0
LINE
  8
1
  6
CONTINUOUS
 62
    82
  5
2A9
 10
-37.110083
 20
17.25575
 30
0.0
 11
-37.0795
 21
17.313
 31
0.0
  0
LINE
  8
1
  6
CONTINUOUS
 62
    82
  5
2AA
 10
-36.602417
 20
17.59175
 30
0.0
 11
-36.571833
 21
17.649
 31
0.0
  0
LINE
  8
1
  6
CONTINUOUS
 62
    82
  5
2AB
 10
-36.465
 20
17.29775
 30
0.0
 11
-36.434417
 21
17.355
 31
0.0
  0
LINE
  8
1
  6
CONTINUOUS
 62
    82
  5
2AC
 10
-36.087083
 20
17.244333
 30
0.0
 11
-36.0565
 21
17.301583
 31
0.0
  0
LINE
  8
1
  6
CONTINUOUS
 62
    82
  5
2AD
 10
-35.85425
 20
17.649083
 30
0.0
 11
-35.823667
 21
17.706333
 31
0.0
  0
LINE
  8
1
  6
CONTINUOUS
 62
    82
  5
2AE
 10
-35.380917
 20
17.33975
 30
0.0
 11
-35.350333
 21
17.397
 31
0.0
  0
LINE
  8
1
  6
CONTINUOUS
 62
    82
  5
2AF
 10
-35.54125
 20
17.194667
 30
0.0
 11
-35.510667
 21
17.251917
 31
0.0
  0
LINE
  8
1
  6
CONTINUOUS
 62
    82
  5
2B0
 10
-35.751167
 20
16.9465
 30
0.0
 11
-35.720583
 21
17.00375
 31
0.0
  0
LINE
  8
1
  6
CONTINUOUS
 62
    82
  5
2B1
 10
-36.079417
 20
16.96175
 30
0.0
 11
-36.048833
 21
17.019
 31
0.0
  0
LINE
  8
1
  6
CONTINUOUS
 62
    82
  5
2B2
 10
-36.289417
 20
16.980833
 30
0.0
 11
-36.258833
 21
17.038083
 31
0.0
  0
LINE
  8
1
  6
CONTINUOUS
 62
    82
  5
2B3
 10
-36.4535
 20
16.805167
 30
0.0
 11
-36.422917
 21
16.862417
 31
0.0
  0
LINE
  8
1
  6
CONTINUOUS
 62
    82
  5
2B4
 10
-36.774167
 20
16.896833
 30
0.0
 11
-36.743583
 21
16.954083
 31
0.0
  0
LINE
  8
1
  6
CONTINUOUS
 62
    82
  5
2B5
 10
-37.110083
 20
16.885417
 30
0.0
 11
-37.0795
 21
16.942667
 31
0.0
  0
LINE
  8
1
  6
CONTINUOUS
 62
    82
  5
2B6
 10
-36.9345
 20
16.931167
 30
0.0
 11
-36.903917
 21
16.988417
 31
0.0
  0
LINE
  8
1
  6
CONTINUOUS
 62
    82
  5
2B7
 10
-36.946
 20
16.770833
 30
0.0
 11
-36.915417
 21
16.828083
 31
0.0
  0
LINE
  8
1
  6
CONTINUOUS
 62
    82
  5
2B8
 10
-36.900167
 20
17.50775
 30
0.0
 11
-36.869583
 21
17.565
 31
0.0
  0
LINE
  8
1
  6
CONTINUOUS
 62
    82
  5
2B9
 10
-36.403833
 20
17.1565
 30
0.0
 11
-36.438167
 21
17.20225
 31
0.0
  0
LINE
  8
1
  6
CONTINUOUS
 62
    82
  5
2BA
 10
-36.613833
 20
17.02675
 30
0.0
 11
-36.648167
 21
17.0725
 31
0.0
  0
LINE
  8
1
  6
CONTINUOUS
 62
    82
  5
2BB
 10
-36.010667
 20
16.881583
 30
0.0
 11
-36.045
 21
16.927333
 31
0.0
  0
LINE
  8
1
  6
CONTINUOUS
 62
    82
  5
2BC
 10
-35.984
 20
17.187083
 30
0.0
 11
-36.018333
 21
17.232833
 31
0.0
  0
LINE
  8
1
  6
CONTINUOUS
 62
    82
  5
2BD
 10
-35.8275
 20
17.313083
 30
0.0
 11
-35.861833
 21
17.358833
 31
0.0
  0
LINE
  8
1
  6
CONTINUOUS
 62
    82
  5
2BE
 10
-36.1405
 20
17.355083
 30
0.0
 11
-36.174833
 21
17.400833
 31
0.0
  0
LINE
  8
1
  6
CONTINUOUS
 62
    82
  5
2BF
 10
-35.98775
 20
17.61475
 30
0.0
 11
-36.022083
 21
17.6605
 31
0.0
  0
LINE
  8
1
  6
CONTINUOUS
 62
    82
  5
2C0
 10
-36.28175
 20
17.645333
 30
0.0
 11
-36.316083
 21
17.691083
 31
0.0
  0
LINE
  8
1
  6
CONTINUOUS
 62
    82
  5
2C1
 10
-36.560333
 20
17.465833
 30
0.0
 11
-36.594667
 21
17.511583
 31
0.0
  0
LINE
  8
1
  6
CONTINUOUS
 62
    82
  5
2C2
 10
-36.297
 20
17.916417
 30
0.0
 11
-36.331333
 21
17.962167
 31
0.0
  0
LINE
  8
1
  6
CONTINUOUS
 62
    82
  5
2C3
 10
-36.151917
 20
17.981333
 30
0.0
 11
-36.18625
 21
18.027083
 31
0.0
  0
LINE
  8
1
  6
CONTINUOUS
 62
    82
  5
2C4
 10
-35.8885
 20
17.82475
 30
0.0
 11
-35.922833
 21
17.8705
 31
0.0
  0
LINE
  8
1
  6
CONTINUOUS
 62
    82
  5
2C5
 10
-35.697667
 20
17.496417
 30
0.0
 11
-35.732
 21
17.542167
 31
0.0
  0
LINE
  8
1
  6
CONTINUOUS
 62
    82
  5
2C6
 10
-35.274
 20
17.458167
 30
0.0
 11
-35.308333
 21
17.503917
 31
0.0
  0
LINE
  8
1
  6
CONTINUOUS
 62
    82
  5
2C7
 10
-35.224333
 20
17.229083
 30
0.0
 11
-35.258667
 21
17.274833
 31
0.0
  0
LINE
  8
1
  6
CONTINUOUS
 62
    82
  5
2C8
 10
-35.018167
 20
17.328333
 30
0.0
 11
-35.0525
 21
17.374083
 31
0.0
  0
LINE
  8
1
  6
CONTINUOUS
 62
    82
  5
2C9
 10
-36.121417
 20
16.812917
 30
0.0
 11
-36.15575
 21
16.858667
 31
0.0
  0
LINE
  8
1
  6
CONTINUOUS
 62
    82
  5
2CA
 10
-36.449667
 20
16.97325
 30
0.0
 11
-36.484
 21
17.019
 31
0.0
  0
LINE
  8
1
  6
CONTINUOUS
 62
    82
  5
2CB
 10
-37.098583
 20
17.106917
 30
0.0
 11
-37.132917
 21
17.152667
 31
0.0
  0
LINE
  8
1
  6
CONTINUOUS
 62
    82
  5
2CC
 10
-37.381083
 20
17.1145
 30
0.0
 11
-37.415417
 21
17.16025
 31
0.0
  0
LINE
  8
1
  6
CONTINUOUS
 62
    82
  5
2CD
 10
-37.384917
 20
17.343667
 30
0.0
 11
-37.41925
 21
17.389417
 31
0.0
  0
LINE
  8
1
  6
CONTINUOUS
 62
    82
  5
2CE
 10
-37.709333
 20
17.1565
 30
0.0
 11
-37.743667
 21
17.20225
 31
0.0
  0
LINE
  8
1
  6
CONTINUOUS
 62
    82
  5
2CF
 10
-37.881167
 20
17.0725
 30
0.0
 11
-37.9155
 21
17.11825
 31
0.0
  0
LINE
  8
1
  6
CONTINUOUS
 62
    82
  5
2D0
 10
-37.209333
 20
16.809083
 30
0.0
 11
-37.243667
 21
16.854833
 31
0.0
  0
LINE
  8
1
  6
CONTINUOUS
 62
    82
  5
2D1
 10
-36.22825
 20
17.3245
 30
0.0
 11
-36.2435
 21
17.374167
 31
0.0
  0
LINE
  8
1
  6
CONTINUOUS
 62
    82
  5
2D2
 10
-36.495417
 20
17.3245
 30
0.0
 11
-36.510667
 21
17.374167
 31
0.0
  0
LINE
  8
1
  6
CONTINUOUS
 62
    82
  5
2D3
 10
-36.571833
 20
17.148917
 30
0.0
 11
-36.587083
 21
17.198583
 31
0.0
  0
LINE
  8
1
  6
CONTINUOUS
 62
    82
  5
2D4
 10
-36.648167
 20
17.343583
 30
0.0
 11
-36.663417
 21
17.39325
 31
0.0
  0
LINE
  8
1
  6
CONTINUOUS
 62
    82
  5
2D5
 10
-36.434417
 20
17.576583
 30
0.0
 11
-36.449667
 21
17.62625
 31
0.0
  0
LINE
  8
1
  6
CONTINUOUS
 62
    82
  5
2D6
 10
-36.140417
 20
17.721667
 30
0.0
 11
-36.155667
 21
17.771333
 31
0.0
  0
LINE
  8
1
  6
CONTINUOUS
 62
    82
  5
2D7
 10
-36.438167
 20
17.943083
 30
0.0
 11
-36.453417
 21
17.99275
 31
0.0
  0
LINE
  8
1
  6
CONTINUOUS
 62
    82
  5
2D8
 10
-36.617583
 20
17.805667
 30
0.0
 11
-36.632833
 21
17.855333
 31
0.0
  0
LINE
  8
1
  6
CONTINUOUS
 62
    82
  5
2D9
 10
-36.65575
 20
17.649083
 30
0.0
 11
-36.671
 21
17.69875
 31
0.0
  0
LINE
  8
1
  6
CONTINUOUS
 62
    82
  5
2DA
 10
-36.892417
 20
17.30925
 30
0.0
 11
-36.907667
 21
17.358917
 31
0.0
  0
LINE
  8
1
  6
CONTINUOUS
 62
    82
  5
2DB
 10
-36.991667
 20
17.599417
 30
0.0
 11
-37.006917
 21
17.649083
 31
0.0
  0
LINE
  8
1
  6
CONTINUOUS
 62
    82
  5
2DC
 10
-36.881
 20
17.672
 30
0.0
 11
-36.89625
 21
17.721667
 31
0.0
  0
LINE
  8
1
  6
CONTINUOUS
 62
    82
  5
2DD
 10
-35.67475
 20
17.63
 30
0.0
 11
-35.69
 21
17.679667
 31
0.0
  0
LINE
  8
1
  6
CONTINUOUS
 62
    82
  5
2DE
 10
-35.567833
 20
17.42
 30
0.0
 11
-35.583083
 21
17.469667
 31
0.0
  0
LINE
  8
1
  6
CONTINUOUS
 62
    82
  5
2DF
 10
-35.461
 20
17.454333
 30
0.0
 11
-35.47625
 21
17.504
 31
0.0
  0
LINE
  8
1
  6
CONTINUOUS
 62
    82
  5
2E0
 10
-35.609833
 20
17.106833
 30
0.0
 11
-35.625083
 21
17.1565
 31
0.0
  0
LINE
  8
1
  6
CONTINUOUS
 62
    82
  5
2E1
 10
-35.739667
 20
17.1145
 30
0.0
 11
-35.754917
 21
17.164167
 31
0.0
  0
LINE
  8
1
  6
CONTINUOUS
 62
    82
  5
2E2
 10
-36.491667
 20
16.755583
 30
0.0
 11
-36.506917
 21
16.80525
 31
0.0
  0
LINE
  8
1
  6
CONTINUOUS
 62
    82
  5
2E3
 10
-36.831333
 20
17.049583
 30
0.0
 11
-36.846583
 21
17.09925
 31
0.0
  0
LINE
  8
1
  6
CONTINUOUS
 62
    82
  5
2E4
 10
-37.29325
 20
17.01525
 30
0.0
 11
-37.3085
 21
17.064917
 31
0.0
  0
LINE
  8
1
  6
CONTINUOUS
 62
    82
  5
2E5
 10
-37.197833
 20
17.47725
 30
0.0
 11
-37.213083
 21
17.526917
 31
0.0
  0
LINE
  8
1
  6
CONTINUOUS
 62
    82
  5
2E6
 10
-36.98025
 20
17.39325
 30
0.0
 11
-36.9955
 21
17.442917
 31
0.0
  0
LINE
  8
1
  6
CONTINUOUS
 62
    82
  5
2E7
 10
-36.75125
 20
17.523083
 30
0.0
 11
-36.7665
 21
17.57275
 31
0.0
  0
LINE
  8
1
  6
CONTINUOUS
 62
    82
  5
2E8
 10
-36.83525
 20
16.694417
 30
0.0
 11
-36.819917
 21
16.744
 31
0.0
  0
LINE
  8
1
  6
CONTINUOUS
 62
    82
  5
2E9
 10
-36.335167
 20
17.053417
 30
0.0
 11
-36.319833
 21
17.103
 31
0.0
  0
LINE
  8
1
  6
CONTINUOUS
 62
    82
  5
2EA
 10
-36.117583
 20
17.122083
 30
0.0
 11
-36.10225
 21
17.171667
 31
0.0
  0
LINE
  8
1
  6
CONTINUOUS
 62
    82
  5
2EB
 10
-36.022167
 20
17.439083
 30
0.0
 11
-36.006833
 21
17.488667
 31
0.0
  0
LINE
  8
1
  6
CONTINUOUS
 62
    82
  5
2EC
 10
-36.327583
 20
17.274833
 30
0.0
 11
-36.31225
 21
17.324417
 31
0.0
  0
LINE
  8
1
  6
CONTINUOUS
 62
    82
  5
2ED
 10
-36.465
 20
17.488667
 30
0.0
 11
-36.449667
 21
17.53825
 31
0.0
  0
LINE
  8
1
  6
CONTINUOUS
 62
    82
  5
2EE
 10
-36.270333
 20
17.5345
 30
0.0
 11
-36.255
 21
17.584083
 31
0.0
  0
LINE
  8
1
  6
CONTINUOUS
 62
    82
  5
2EF
 10
-36.377167
 20
17.775083
 30
0.0
 11
-36.361833
 21
17.824667
 31
0.0
  0
LINE
  8
1
  6
CONTINUOUS
 62
    82
  5
2F0
 10
-36.48025
 20
17.691083
 30
0.0
 11
-36.464917
 21
17.740667
 31
0.0
  0
LINE
  8
1
  6
CONTINUOUS
 62
    82
  5
2F1
 10
-36.075667
 20
17.874333
 30
0.0
 11
-36.060333
 21
17.923917
 31
0.0
  0
LINE
  8
1
  6
CONTINUOUS
 62
    82
  5
2F2
 10
-36.984167
 20
17.206083
 30
0.0
 11
-36.976583
 21
17.259583
 31
0.0
  0
LINE
  8
1
  6
CONTINUOUS
 62
    82
  5
2F3
 10
-36.9765
 20
17.030417
 30
0.0
 11
-36.968917
 21
17.083917
 31
0.0
  0
LINE
  8
1
  6
CONTINUOUS
 62
    82
  5
2F4
 10
-36.1825
 20
16.946417
 30
0.0
 11
-36.174917
 21
16.999917
 31
0.0
  0
LINE
  8
1
  6
CONTINUOUS
 62
    82
  5
2F5
 10
-36.232167
 20
16.774583
 30
0.0
 11
-36.224583
 21
16.828083
 31
0.0
  0
LINE
  8
1
  6
CONTINUOUS
 62
    82
  5
2F6
 10
-37.266583
 20
16.705917
 30
0.0
 11
-37.259
 21
16.759417
 31
0.0
  0
LINE
  8
1
  6
CONTINUOUS
 62
    82
  5
2F7
 10
-37.774333
 20
16.774583
 30
0.0
 11
-37.76675
 21
16.828083
 31
0.0
  0
LINE
  8
1
  6
CONTINUOUS
 62
    82
  5
2F8
 10
-37.675083
 20
16.74025
 30
0.0
 11
-37.6675
 21
16.79375
 31
0.0
  0
LINE
  8
1
  6
CONTINUOUS
 62
    82
  5
2F9
 10
-35.903833
 20
16.90825
 30
0.0
 11
-35.89625
 21
16.96175
 31
0.0
  0
LINE
  8
1
  6
CONTINUOUS
 62
    82
  5
2FA
 10
-35.888583
 20
17.1985
 30
0.0
 11
-35.881
 21
17.252
 31
0.0
  0
LINE
  8
1
  6
CONTINUOUS
 62
    82
  5
2FB
 10
-35.762583
 20
17.377917
 30
0.0
 11
-35.755
 21
17.431417
 31
0.0
  0
LINE
  8
1
  6
CONTINUOUS
 62
    82
  5
2FC
 10
-35.483917
 20
17.313
 30
0.0
 11
-35.476333
 21
17.3665
 31
0.0
  0
LINE
  8
1
  6
CONTINUOUS
 62
    82
  5
2FD
 10
-35.839
 20
17.530667
 30
0.0
 11
-35.831417
 21
17.584167
 31
0.0
  0
LINE
  8
1
  6
CONTINUOUS
 62
    82
  5
2FE
 10
-35.957333
 20
17.32825
 30
0.0
 11
-35.94975
 21
17.38175
 31
0.0
  0
LINE
  8
1
  6
CONTINUOUS
 62
    82
  5
2FF
 10
-36.090917
 20
17.557417
 30
0.0
 11
-36.083333
 21
17.610917
 31
0.0
  0
LINE
  8
1
  6
CONTINUOUS
 62
    82
  5
300
 10
-35.766417
 20
17.752167
 30
0.0
 11
-35.758833
 21
17.805667
 31
0.0
  0
LINE
  8
1
  6
CONTINUOUS
 62
    82
  5
301
 10
-35.4305
 20
17.568833
 30
0.0
 11
-35.422917
 21
17.622333
 31
0.0
  0
LINE
  8
1
  6
CONTINUOUS
 62
    82
  5
302
 10
-35.14425
 20
17.313
 30
0.0
 11
-35.136667
 21
17.3665
 31
0.0
  0
LINE
  8
1
  6
CONTINUOUS
 62
    82
  5
303
 10
-36.640583
 20
16.862417
 30
0.0
 11
-36.633
 21
16.915917
 31
0.0
  0
LINE
  8
1
  6
CONTINUOUS
 62
    82
  5
304
 10
-36.583333
 20
16.717333
 30
0.0
 11
-36.57575
 21
16.770833
 31
0.0
  0
LINE
  8
1
  6
CONTINUOUS
 62
    82
  5
305
 10
-37.251333
 20
17.179333
 30
0.0
 11
-37.24375
 21
17.232833
 31
0.0
  0
LINE
  8
1
  6
CONTINUOUS
 62
    82
  5
306
 10
-37.007
 20
16.732583
 30
0.0
 11
-36.999417
 21
16.786083
 31
0.0
  0
LINE
  8
1
  6
CONTINUOUS
 62
    82
  5
307
 10
-37.12525
 20
17.00375
 30
0.0
 11
-37.1405
 21
17.053417
 31
0.0
  0
LINE
  8
1
  6
CONTINUOUS
 62
    82
  5
308
 10
-37.957417
 20
16.88925
 30
0.0
 11
-37.972667
 21
16.938917
 31
0.0
  0
LINE
  8
1
  6
CONTINUOUS
 62
    82
  5
309
 10
-38.014667
 20
17.0
 30
0.0
 11
-38.029917
 21
17.049667
 31
0.0
  0
LINE
  8
1
  6
CONTINUOUS
 62
    82
  5
30A
 10
-35.964833
 20
17.0725
 30
0.0
 11
-35.980083
 21
17.122167
 31
0.0
  0
LINE
  8
1
  6
CONTINUOUS
 62
    82
  5
30B
 10
-36.4725
 20
17.095417
 30
0.0
 11
-36.48775
 21
17.145083
 31
0.0
  0
LINE
  8
1
  6
CONTINUOUS
 62
    82
  5
30C
 10
-36.18625
 20
17.652917
 30
0.0
 11
-36.2015
 21
17.702583
 31
0.0
  0
LINE
  8
1
  6
CONTINUOUS
 62
    82
  5
30D
 10
-35.983917
 20
17.820917
 30
0.0
 11
-35.999167
 21
17.870583
 31
0.0
  0
LINE
  8
1
  6
CONTINUOUS
 62
    82
  5
30E
 10
-35.567833
 20
17.297833
 30
0.0
 11
-35.583083
 21
17.3475
 31
0.0
  0
LINE
  8
1
  6
CONTINUOUS
 62
    82
  5
30F
 10
-36.72825
 20
17.05725
 30
0.0
 11
-36.7435
 21
17.106917
 31
0.0
  0
LINE
  8
1
  6
CONTINUOUS
 62
    82
  5
310
 10
-36.8275
 20
16.831917
 30
0.0
 11
-36.84275
 21
16.881583
 31
0.0
  0
LINE
  8
1
  6
CONTINUOUS
 62
    82
  5
311
 10
-37.297
 20
16.91975
 30
0.0
 11
-37.31225
 21
16.969417
 31
0.0
  0
LINE
  8
1
  6
CONTINUOUS
 62
    82
  5
312
 10
-37.40775
 20
17.026667
 30
0.0
 11
-37.423
 21
17.076333
 31
0.0
  0
LINE
  8
1
  6
CONTINUOUS
 62
    82
  5
313
 10
-37.610083
 20
17.110667
 30
0.0
 11
-37.625333
 21
17.160333
 31
0.0
  0
LINE
  8
1
  6
CONTINUOUS
 62
    82
  5
314
 10
-37.426833
 20
17.229083
 30
0.0
 11
-37.442083
 21
17.27875
 31
0.0
  0
LINE
  8
1
  6
CONTINUOUS
 62
    82
  5
315
 10
-37.1825
 20
17.343583
 30
0.0
 11
-37.19775
 21
17.39325
 31
0.0
  0
LINE
  8
1
  6
CONTINUOUS
 62
    82
  5
316
 10
-37.05275
 20
17.57275
 30
0.0
 11
-37.068
 21
17.622417
 31
0.0
  0
LINE
  8
1
  6
CONTINUOUS
 62
    82
  5
317
 10
-37.274167
 20
17.427583
 30
0.0
 11
-37.289417
 21
17.47725
 31
0.0
  0
LINE
  8
1
  6
CONTINUOUS
 62
    82
  5
318
 10
-31.290667
 20
16.879917
 30
0.0
 11
-31.305917
 21
16.929583
 31
0.0
  0
LINE
  8
1
  6
CONTINUOUS
 62
    82
  5
319
 10
-30.82275
 20
16.778667
 30
0.0
 11
-30.838
 21
16.828333
 31
0.0
  0
LINE
  8
1
  6
CONTINUOUS
 62
    82
  5
31A
 10
-30.91
 20
16.638917
 30
0.0
 11
-30.92525
 21
16.688583
 31
0.0
  0
LINE
  8
1
  6
CONTINUOUS
 62
    82
  5
31B
 10
-30.522417
 20
16.8275
 30
0.0
 11
-30.537667
 21
16.877167
 31
0.0
  0
LINE
  8
1
  6
CONTINUOUS
 62
    82
  5
31C
 10
-30.246583
 20
16.932333
 30
0.0
 11
-30.261833
 21
16.982
 31
0.0
  0
LINE
  8
1
  6
CONTINUOUS
 62
    82
  5
31D
 10
-30.59225
 20
16.95675
 30
0.0
 11
-30.6075
 21
17.006417
 31
0.0
  0
LINE
  8
1
  6
CONTINUOUS
 62
    82
  5
31E
 10
-31.611917
 20
16.96725
 30
0.0
 11
-31.627167
 21
17.016917
 31
0.0
  0
LINE
  8
1
  6
CONTINUOUS
 62
    82
  5
31F
 10
-31.182417
 20
16.70875
 30
0.0
 11
-31.197667
 21
16.758417
 31
0.0
  0
LINE
  8
1
  6
CONTINUOUS
 62
    82
  5
320
 10
-31.03225
 20
16.897417
 30
0.0
 11
-31.0475
 21
16.947083
 31
0.0
  0
LINE
  8
1
  6
CONTINUOUS
 62
    82
  5
321
 10
-30.81825
 20
16.946833
 30
0.0
 11
-30.852583
 21
16.992583
 31
0.0
  0
LINE
  8
1
  6
CONTINUOUS
 62
    82
  5
322
 10
-30.671583
 20
16.70925
 30
0.0
 11
-30.705917
 21
16.755
 31
0.0
  0
LINE
  8
1
  6
CONTINUOUS
 62
    82
  5
323
 10
-31.052167
 20
16.754667
 30
0.0
 11
-31.0865
 21
16.800417
 31
0.0
  0
LINE
  8
1
  6
CONTINUOUS
 62
    82
  5
324
 10
-31.782
 20
17.037667
 30
0.0
 11
-31.816333
 21
17.083417
 31
0.0
  0
LINE
  8
1
  6
CONTINUOUS
 62
    82
  5
325
 10
-32.057833
 20
17.194833
 30
0.0
 11
-32.092167
 21
17.240583
 31
0.0
  0
LINE
  8
1
  6
CONTINUOUS
 62
    82
  5
326
 10
-32.263833
 20
17.345
 30
0.0
 11
-32.298167
 21
17.39075
 31
0.0
  0
LINE
  8
1
  6
CONTINUOUS
 62
    82
  5
327
 10
-31.5725
 20
17.70475
 30
0.0
 11
-31.606833
 21
17.7505
 31
0.0
  0
LINE
  8
1
  6
CONTINUOUS
 62
    82
  5
328
 10
-30.077917
 20
18.546583
 30
0.0
 11
-30.11225
 21
18.592333
 31
0.0
  0
LINE
  8
1
  6
CONTINUOUS
 62
    82
  5
329
 10
-29.51225
 20
18.874917
 30
0.0
 11
-29.546583
 21
18.920667
 31
0.0
  0
LINE
  8
1
  6
CONTINUOUS
 62
    82
  5
32A
 10
-30.088417
 20
17.041083
 30
0.0
 11
-30.12275
 21
17.086833
 31
0.0
  0
LINE
  8
1
  6
CONTINUOUS
 62
    82
  5
32B
 10
-29.93825
 20
17.152917
 30
0.0
 11
-29.972583
 21
17.198667
 31
0.0
  0
LINE
  8
1
  6
CONTINUOUS
 62
    82
  5
32C
 10
-31.463667
 20
16.967583
 30
0.0
 11
-31.433083
 21
17.024833
 31
0.0
  0
LINE
  8
1
  6
CONTINUOUS
 62
    82
  5
32D
 10
-31.41825
 20
16.845333
 30
0.0
 11
-31.387667
 21
16.902583
 31
0.0
  0
LINE
  8
1
  6
CONTINUOUS
 62
    82
  5
32E
 10
-31.18075
 20
16.922167
 30
0.0
 11
-31.150167
 21
16.979417
 31
0.0
  0
LINE
  8
1
  6
CONTINUOUS
 62
    82
  5
32F
 10
-31.159833
 20
16.813917
 30
0.0
 11
-31.12925
 21
16.871167
 31
0.0
  0
LINE
  8
1
  6
CONTINUOUS
 62
    82
  5
330
 10
-30.98175
 20
16.957167
 30
0.0
 11
-30.951167
 21
17.014417
 31
0.0
  0
LINE
  8
1
  6
CONTINUOUS
 62
    82
  5
331
 10
-30.929333
 20
16.7895
 30
0.0
 11
-30.89875
 21
16.84675
 31
0.0
  0
LINE
  8
1
  6
CONTINUOUS
 62
    82
  5
332
 10
-31.076
 20
16.597333
 30
0.0
 11
-31.045417
 21
16.654583
 31
0.0
  0
LINE
  8
1
  6
CONTINUOUS
 62
    82
  5
333
 10
-30.461417
 20
16.950167
 30
0.0
 11
-30.430833
 21
17.007417
 31
0.0
  0
LINE
  8
1
  6
CONTINUOUS
 62
    82
  5
334
 10
-30.363667
 20
16.831417
 30
0.0
 11
-30.333083
 21
16.888667
 31
0.0
  0
LINE
  8
1
  6
CONTINUOUS
 62
    82
  5
335
 10
-30.698917
 20
16.817417
 30
0.0
 11
-30.668333
 21
16.874667
 31
0.0
  0
LINE
  8
1
  6
CONTINUOUS
 62
    82
  5
336
 10
-30.793167
 20
16.586917
 30
0.0
 11
-30.762583
 21
16.644167
 31
0.0
  0
LINE
  8
1
  6
CONTINUOUS
 62
    82
  5
337
 10
-31.949
 20
17.124833
 30
0.0
 11
-31.918417
 21
17.182083
 31
0.0
  0
LINE
  8
1
  6
CONTINUOUS
 62
    82
  5
338
 10
-31.85125
 20
17.537
 30
0.0
 11
-31.820667
 21
17.59425
 31
0.0
  0
LINE
  8
1
  6
CONTINUOUS
 62
    82
  5
339
 10
-31.379833
 20
17.819917
 30
0.0
 11
-31.34925
 21
17.877167
 31
0.0
  0
LINE
  8
1
  6
CONTINUOUS
 62
    82
  5
33A
 10
-30.76175
 20
18.211083
 30
0.0
 11
-30.731167
 21
18.268333
 31
0.0
  0
LINE
  8
1
  6
CONTINUOUS
 62
    82
  5
33B
 10
-30.55925
 20
18.2775
 30
0.0
 11
-30.528667
 21
18.33475
 31
0.0
  0
LINE
  8
1
  6
CONTINUOUS
 62
    82
  5
33C
 10
-30.276417
 20
18.462583
 30
0.0
 11
-30.245833
 21
18.519833
 31
0.0
  0
LINE
  8
1
  6
CONTINUOUS
 62
    82
  5
33D
 10
-29.766583
 20
18.686167
 30
0.0
 11
-29.736
 21
18.743417
 31
0.0
  0
LINE
  8
1
  6
CONTINUOUS
 62
    82
  5
33E
 10
-29.958583
 20
18.508
 30
0.0
 11
-29.928
 21
18.56525
 31
0.0
  0
LINE
  8
1
  6
CONTINUOUS
 62
    82
  5
33F
 10
-29.798
 20
18.375333
 30
0.0
 11
-29.767417
 21
18.432583
 31
0.0
  0
LINE
  8
1
  6
CONTINUOUS
 62
    82
  5
340
 10
-29.864333
 20
17.170167
 30
0.0
 11
-29.83375
 21
17.227417
 31
0.0
  0
LINE
  8
1
  6
CONTINUOUS
 62
    82
  5
341
 10
-31.309167
 20
16.776
 30
0.0
 11
-31.301583
 21
16.8295
 31
0.0
  0
LINE
  8
1
  6
CONTINUOUS
 62
    82
  5
342
 10
-30.513
 20
16.709667
 30
0.0
 11
-30.505417
 21
16.763167
 31
0.0
  0
LINE
  8
1
  6
CONTINUOUS
 62
    82
  5
343
 10
-30.726083
 20
16.936667
 30
0.0
 11
-30.7185
 21
16.990167
 31
0.0
  0
LINE
  8
1
  6
CONTINUOUS
 62
    82
  5
344
 10
-30.397833
 20
17.083417
 30
0.0
 11
-30.39025
 21
17.136917
 31
0.0
  0
LINE
  8
1
  6
CONTINUOUS
 62
    82
  5
345
 10
-30.331417
 20
16.978583
 30
0.0
 11
-30.323833
 21
17.032083
 31
0.0
  0
LINE
  8
1
  6
CONTINUOUS
 62
    82
  5
346
 10
-30.355917
 20
17.2685
 30
0.0
 11
-30.348333
 21
17.322
 31
0.0
  0
LINE
  8
1
  6
CONTINUOUS
 62
    82
  5
347
 10
-30.19525
 20
17.0485
 30
0.0
 11
-30.187667
 21
17.102
 31
0.0
  0
LINE
  8
1
  6
CONTINUOUS
 62
    82
  5
348
 10
-30.603833
 20
16.685167
 30
0.0
 11
-30.59625
 21
16.738667
 31
0.0
  0
LINE
  8
1
  6
CONTINUOUS
 62
    82
  5
349
 10
-30.914583
 20
16.528
 30
0.0
 11
-30.907
 21
16.5815
 31
0.0
  0
LINE
  8
1
  6
CONTINUOUS
 62
    82
  5
34A
 10
-31.525667
 20
16.90525
 30
0.0
 11
-31.518083
 21
16.95875
 31
0.0
  0
LINE
  8
1
  6
CONTINUOUS
 62
    82
  5
34B
 10
-31.993583
 20
17.485083
 30
0.0
 11
-31.986
 21
17.538583
 31
0.0
  0
LINE
  8
1
  6
CONTINUOUS
 62
    82
  5
34C
 10
-31.522167
 20
17.7645
 30
0.0
 11
-31.514583
 21
17.818
 31
0.0
  0
LINE
  8
1
  6
CONTINUOUS
 62
    82
  5
34D
 10
-30.86225
 20
18.14175
 30
0.0
 11
-30.854667
 21
18.19525
 31
0.0
  0
LINE
  8
1
  6
CONTINUOUS
 62
    82
  5
34E
 10
-29.957833
 20
18.66225
 30
0.0
 11
-29.95025
 21
18.71575
 31
0.0
  0
LINE
  8
1
  6
CONTINUOUS
 62
    82
  5
34F
 10
-29.825167
 20
18.571417
 30
0.0
 11
-29.817583
 21
18.624917
 31
0.0
  0
LINE
  8
1
  6
CONTINUOUS
 62
    82
  5
350
 10
-30.066083
 20
18.431667
 30
0.0
 11
-30.0585
 21
18.485167
 31
0.0
  0
LINE
  8
1
  6
CONTINUOUS
 62
    82
  5
351
 10
-29.915917
 20
18.38975
 30
0.0
 11
-29.908333
 21
18.44325
 31
0.0
  0
LINE
  8
1
  6
CONTINUOUS
 62
    82
  5
352
 10
-29.77975
 20
18.7705
 30
0.0
 11
-29.772167
 21
18.824
 31
0.0
  0
LINE
  8
1
  6
CONTINUOUS
 62
    82
  5
353
 10
-29.622583
 20
18.850833
 30
0.0
 11
-29.615
 21
18.904333
 31
0.0
  0
LINE
  8
1
  6
CONTINUOUS
 62
    82
  5
354
 10
-29.98925
 20
17.045
 30
0.0
 11
-29.981667
 21
17.0985
 31
0.0
  0
LINE
  8
1
  6
CONTINUOUS
 62
    82
  5
355
 10
-31.138083
 20
17.977583
 30
0.0
 11
-31.1305
 21
18.031083
 31
0.0
  0
LINE
  8
1
  6
CONTINUOUS
 62
    82
  5
356
 10
-29.835
 20
18.243583
 30
0.0
 11
-29.85025
 21
18.29325
 31
0.0
  0
LINE
  8
1
  6
CONTINUOUS
 62
    82
  5
357
 10
-29.71625
 20
18.205167
 30
0.0
 11
-29.7315
 21
18.254833
 31
0.0
  0
LINE
  8
1
  6
CONTINUOUS
 62
    82
  5
358
 10
-29.698833
 20
18.537
 30
0.0
 11
-29.714083
 21
18.586667
 31
0.0
  0
LINE
  8
1
  6
CONTINUOUS
 62
    82
  5
359
 10
-29.639417
 20
18.697667
 30
0.0
 11
-29.654667
 21
18.747333
 31
0.0
  0
LINE
  8
1
  6
CONTINUOUS
 62
    82
  5
35A
 10
-29.6045
 20
18.7885
 30
0.0
 11
-29.61975
 21
18.838167
 31
0.0
  0
LINE
  8
1
  6
CONTINUOUS
 62
    82
  5
35B
 10
-29.531167
 20
18.7815
 30
0.0
 11
-29.546417
 21
18.831167
 31
0.0
  0
LINE
  8
1
  6
CONTINUOUS
 62
    82
  5
35C
 10
-37.17775
 20
16.511667
 30
0.0
 11
-37.147167
 21
16.568917
 31
0.0
  0
LINE
  8
1
  6
CONTINUOUS
 62
    82
  5
35D
 10
-36.743833
 20
16.491833
 30
0.0
 11
-36.71325
 21
16.549083
 31
0.0
  0
LINE
  8
1
  6
CONTINUOUS
 62
    82
  5
35E
 10
-36.978667
 20
16.28075
 30
0.0
 11
-36.948083
 21
16.338
 31
0.0
  0
LINE
  8
1
  6
CONTINUOUS
 62
    82
  5
35F
 10
-37.655417
 20
16.571417
 30
0.0
 11
-37.624833
 21
16.628667
 31
0.0
  0
LINE
  8
1
  6
CONTINUOUS
 62
    82
  5
360
 10
-38.069333
 20
16.798417
 30
0.0
 11
-38.03875
 21
16.855667
 31
0.0
  0
LINE
  8
1
  6
CONTINUOUS
 62
    82
  5
361
 10
-37.898167
 20
16.690917
 30
0.0
 11
-37.867583
 21
16.748167
 31
0.0
  0
LINE
  8
1
  6
CONTINUOUS
 62
    82
  5
362
 10
-38.208667
 20
16.882
 30
0.0
 11
-38.178083
 21
16.93925
 31
0.0
  0
LINE
  8
1
  6
CONTINUOUS
 62
    82
  5
363
 10
-35.1955
 20
17.089083
 30
0.0
 11
-35.164917
 21
17.146333
 31
0.0
  0
LINE
  8
1
  6
CONTINUOUS
 62
    82
  5
364
 10
-34.861167
 20
17.252333
 30
0.0
 11
-34.830583
 21
17.309583
 31
0.0
  0
LINE
  8
1
  6
CONTINUOUS
 62
    82
  5
365
 10
-35.123833
 20
17.447417
 30
0.0
 11
-35.09325
 21
17.504667
 31
0.0
  0
LINE
  8
1
  6
CONTINUOUS
 62
    82
  5
366
 10
-35.54575
 20
17.70625
 30
0.0
 11
-35.515167
 21
17.7635
 31
0.0
  0
LINE
  8
1
  6
CONTINUOUS
 62
    82
  5
367
 10
-36.393583
 20
16.627167
 30
0.0
 11
-36.363
 21
16.684417
 31
0.0
  0
LINE
  8
1
  6
CONTINUOUS
 62
    82
  5
368
 10
-36.5275
 20
16.480833
 30
0.0
 11
-36.54275
 21
16.5305
 31
0.0
  0
LINE
  8
1
  6
CONTINUOUS
 62
    82
  5
369
 10
-36.965333
 20
16.433083
 30
0.0
 11
-36.980583
 21
16.48275
 31
0.0
  0
LINE
  8
1
  6
CONTINUOUS
 62
    82
  5
36A
 10
-37.172333
 20
16.29375
 30
0.0
 11
-37.187583
 21
16.343417
 31
0.0
  0
LINE
  8
1
  6
CONTINUOUS
 62
    82
  5
36B
 10
-37.375333
 20
16.60425
 30
0.0
 11
-37.390583
 21
16.653917
 31
0.0
  0
LINE
  8
1
  6
CONTINUOUS
 62
    82
  5
36C
 10
-37.407167
 20
16.480833
 30
0.0
 11
-37.422417
 21
16.5305
 31
0.0
  0
LINE
  8
1
  6
CONTINUOUS
 62
    82
  5
36D
 10
-37.733583
 20
16.66
 30
0.0
 11
-37.748833
 21
16.709667
 31
0.0
  0
LINE
  8
1
  6
CONTINUOUS
 62
    82
  5
36E
 10
-37.940583
 20
16.7835
 30
0.0
 11
-37.955833
 21
16.833167
 31
0.0
  0
LINE
  8
1
  6
CONTINUOUS
 62
    82
  5
36F
 10
-36.105583
 20
16.679917
 30
0.0
 11
-36.120833
 21
16.729583
 31
0.0
  0
LINE
  8
1
  6
CONTINUOUS
 62
    82
  5
370
 10
-35.3095
 20
17.038333
 30
0.0
 11
-35.32475
 21
17.088
 31
0.0
  0
LINE
  8
1
  6
CONTINUOUS
 62
    82
  5
371
 10
-35.06675
 20
17.185583
 30
0.0
 11
-35.082
 21
17.23525
 31
0.0
  0
LINE
  8
1
  6
CONTINUOUS
 62
    82
  5
372
 10
-34.919417
 20
17.348917
 30
0.0
 11
-34.934667
 21
17.398583
 31
0.0
  0
LINE
  8
1
  6
CONTINUOUS
 62
    82
  5
373
 10
-35.253833
 20
17.559917
 30
0.0
 11
-35.269083
 21
17.609583
 31
0.0
  0
LINE
  8
1
  6
CONTINUOUS
 62
    82
  5
374
 10
-35.655833
 20
17.770917
 30
0.0
 11
-35.671083
 21
17.820583
 31
0.0
  0
LINE
  8
1
  6
CONTINUOUS
 62
    82
  5
375
 10
-35.96625
 20
17.954083
 30
0.0
 11
-35.9815
 21
18.00375
 31
0.0
  0
LINE
  8
1
  6
CONTINUOUS
 62
    82
  5
376
 10
-36.71475
 20
16.358917
 30
0.0
 11
-36.707167
 21
16.412417
 31
0.0
  0
LINE
  8
1
  6
CONTINUOUS
 62
    82
  5
377
 10
-36.850083
 20
16.534167
 30
0.0
 11
-36.8425
 21
16.587667
 31
0.0
  0
LINE
  8
1
  6
CONTINUOUS
 62
    82
  5
378
 10
-36.9695
 20
16.61775
 30
0.0
 11
-36.961917
 21
16.67125
 31
0.0
  0
LINE
  8
1
  6
CONTINUOUS
 62
    82
  5
379
 10
-37.307833
 20
16.39475
 30
0.0
 11
-37.30025
 21
16.44825
 31
0.0
  0
LINE
  8
1
  6
CONTINUOUS
 62
    82
  5
37A
 10
-37.502833
 20
16.641667
 30
0.0
 11
-37.49525
 21
16.695167
 31
0.0
  0
LINE
  8
1
  6
CONTINUOUS
 62
    82
  5
37B
 10
-37.550583
 20
16.51825
 30
0.0
 11
-37.543
 21
16.57175
 31
0.0
  0
LINE
  8
1
  6
CONTINUOUS
 62
    82
  5
37C
 10
-35.847
 20
16.824833
 30
0.0
 11
-35.839417
 21
16.878333
 31
0.0
  0
LINE
  8
1
  6
CONTINUOUS
 62
    82
  5
37D
 10
-36.276917
 20
16.589917
 30
0.0
 11
-36.269333
 21
16.643417
 31
0.0
  0
LINE
  8
1
  6
CONTINUOUS
 62
    82
  5
37E
 10
-36.5515
 20
16.609833
 30
0.0
 11
-36.543917
 21
16.663333
 31
0.0
  0
LINE
  8
1
  6
CONTINUOUS
 62
    82
  5
37F
 10
-35.405167
 20
17.023917
 30
0.0
 11
-35.397583
 21
17.077417
 31
0.0
  0
LINE
  8
1
  6
CONTINUOUS
 62
    82
  5
380
 10
-35.425083
 20
17.223
 30
0.0
 11
-35.4175
 21
17.2765
 31
0.0
  0
LINE
  8
1
  6
CONTINUOUS
 62
    82
  5
381
 10
-35.353417
 20
17.585333
 30
0.0
 11
-35.345833
 21
17.638833
 31
0.0
  0
LINE
  8
1
  6
CONTINUOUS
 62
    82
  5
382
 10
-35.807167
 20
17.860083
 30
0.0
 11
-35.799583
 21
17.913583
 31
0.0
  0
LINE
  8
1
  6
CONTINUOUS
 62
    82
  5
383
 10
-34.971333
 20
17.199083
 30
0.0
 11
-34.96375
 21
17.252583
 31
0.0
  0
LINE
  8
1
  6
CONTINUOUS
 62
    82
  5
384
 10
-37.080167
 20
16.402917
 30
0.0
 11
-37.072583
 21
16.456417
 31
0.0
  0
LINE
  8
1
  6
CONTINUOUS
 62
    82
  5
385
 10
-37.06025
 20
16.21575
 30
0.0
 11
-37.052667
 21
16.26925
 31
0.0
  0
LINE
  8
1
  6
CONTINUOUS
 62
    82
  5
386
 10
-36.7975
 20
16.299333
 30
0.0
 11
-36.789917
 21
16.352833
 31
0.0
  0
LINE
  8
1
  6
CONTINUOUS
 62
    82
  5
387
 10
-37.26325
 20
16.582083
 30
0.0
 11
-37.255667
 21
16.635583
 31
0.0
  0
LINE
  8
1
  6
CONTINUOUS
 62
    82
  5
388
 10
-37.020417
 20
16.55025
 30
0.0
 11
-37.012833
 21
16.60375
 31
0.0
  0
LINE
  8
1
  6
CONTINUOUS
 62
    82
  5
389
 10
-36.622417
 20
16.602
 30
0.0
 11
-36.614833
 21
16.6555
 31
0.0
  0
LINE
  8
1
  6
CONTINUOUS
 62
    82
  5
38A
 10
-36.618417
 20
16.406833
 30
0.0
 11
-36.610833
 21
16.460333
 31
0.0
  0
LINE
  8
1
  6
CONTINUOUS
 62
    82
  5
38B
 10
-36.3915
 20
16.514333
 30
0.0
 11
-36.383917
 21
16.567833
 31
0.0
  0
LINE
  8
1
  6
CONTINUOUS
 62
    82
  5
38C
 10
-35.973583
 20
16.773167
 30
0.0
 11
-35.966
 21
16.826667
 31
0.0
  0
LINE
  8
1
  6
CONTINUOUS
 62
    82
  5
38D
 10
-35.611333
 20
16.98425
 30
0.0
 11
-35.60375
 21
17.03775
 31
0.0
  0
LINE
  8
1
  6
CONTINUOUS
 62
    82
  5
38E
 10
-36.833333
 20
16.402917
 30
0.0
 11
-36.82575
 21
16.456417
 31
0.0
  0
LINE
  8
1
  6
CONTINUOUS
 62
    82
  5
38F
 10
-36.865167
 20
16.255583
 30
0.0
 11
-36.857583
 21
16.309083
 31
0.0
  0
LINE
  8
1
  6
CONTINUOUS
 62
    82
  5
390
 10
-36.24825
 20
18.079167
 30
0.0
 11
-36.240667
 21
18.132667
 31
0.0
  0
LINE
  8
1
  6
CONTINUOUS
 62
    82
  5
391
 10
-37.080167
 20
18.4495
 30
0.0
 11
-37.072583
 21
18.503
 31
0.0
  0
LINE
  8
1
  6
CONTINUOUS
 62
    82
  5
392
 10
-36.829333
 20
18.146917
 30
0.0
 11
-36.82175
 21
18.200417
 31
0.0
  0
LINE
  8
1
  6
CONTINUOUS
 62
    82
  5
393
 10
-36.71
 20
18.266333
 30
0.0
 11
-36.702417
 21
18.319833
 31
0.0
  0
LINE
  8
1
  6
CONTINUOUS
 62
    82
  5
394
 10
-36.936833
 20
18.417667
 30
0.0
 11
-36.92925
 21
18.471167
 31
0.0
  0
LINE
  8
1
  6
CONTINUOUS
 62
    82
  5
395
 10
-36.514917
 20
18.162833
 30
0.0
 11
-36.507333
 21
18.216333
 31
0.0
  0
LINE
  8
1
  6
CONTINUOUS
 62
    82
  5
396
 10
-36.5985
 20
17.96775
 30
0.0
 11
-36.590917
 21
18.02125
 31
0.0
  0
LINE
  8
1
  6
CONTINUOUS
 62
    82
  5
397
 10
-36.705083
 20
18.07025
 30
0.0
 11
-36.720333
 21
18.119917
 31
0.0
  0
LINE
  8
1
  6
CONTINUOUS
 62
    82
  5
398
 10
-36.426417
 20
18.102167
 30
0.0
 11
-36.441667
 21
18.151833
 31
0.0
  0
LINE
  8
1
  6
CONTINUOUS
 62
    82
  5
399
 10
-36.57375
 20
18.281333
 30
0.0
 11
-36.589
 21
18.331
 31
0.0
  0
LINE
  8
1
  6
CONTINUOUS
 62
    82
  5
39A
 10
-36.633417
 20
18.134
 30
0.0
 11
-36.648667
 21
18.183667
 31
0.0
  0
LINE
  8
1
  6
CONTINUOUS
 62
    82
  5
39B
 10
-36.681167
 20
17.895083
 30
0.0
 11
-36.696417
 21
17.94475
 31
0.0
  0
LINE
  8
1
  6
CONTINUOUS
 62
    82
  5
39C
 10
-36.76875
 20
18.41275
 30
0.0
 11
-36.784
 21
18.462417
 31
0.0
  0
LINE
  8
1
  6
CONTINUOUS
 62
    82
  5
39D
 10
-36.848333
 20
18.29325
 30
0.0
 11
-36.863583
 21
18.342917
 31
0.0
  0
LINE
  8
1
  6
CONTINUOUS
 62
    82
  5
39E
 10
-36.97575
 20
18.544083
 30
0.0
 11
-36.991
 21
18.59375
 31
0.0
  0
LINE
  8
1
  6
CONTINUOUS
 62
    82
  5
39F
 10
-37.003583
 20
18.376917
 30
0.0
 11
-37.018833
 21
18.426583
 31
0.0
  0
LINE
  8
1
  6
CONTINUOUS
 62
    82
  5
3A0
 10
-36.959833
 20
18.229583
 30
0.0
 11
-36.975083
 21
18.27925
 31
0.0
  0
LINE
  8
1
  6
CONTINUOUS
 62
    82
  5
3A1
 10
-36.912917
 20
18.1265
 30
0.0
 11
-36.905333
 21
18.18
 31
0.0
  0
LINE
  8
1
  6
CONTINUOUS
 62
    82
  5
3A2
 10
-36.857167
 20
17.947333
 30
0.0
 11
-36.849583
 21
18.000833
 31
0.0
  0
LINE
  8
1
  6
CONTINUOUS
 62
    82
  5
3A3
 10
-36.801417
 20
17.85575
 30
0.0
 11
-36.793833
 21
17.90925
 31
0.0
  0
LINE
  8
1
  6
CONTINUOUS
 62
    82
  5
3A4
 10
-36.725833
 20
18.18625
 30
0.0
 11
-36.71825
 21
18.23975
 31
0.0
  0
LINE
  8
1
  6
CONTINUOUS
 62
    82
  5
3A5
 10
-36.566583
 20
17.772083
 30
0.0
 11
-36.559
 21
17.825583
 31
0.0
  0
LINE
  8
1
  6
CONTINUOUS
 62
    82
  5
3A6
 10
-36.315833
 20
18.1225
 30
0.0
 11
-36.30825
 21
18.176
 31
0.0
  0
LINE
  8
1
  6
CONTINUOUS
 62
    82
  5
3A7
 10
-36.081
 20
17.991083
 30
0.0
 11
-36.073417
 21
18.044583
 31
0.0
  0
LINE
  8
1
  6
CONTINUOUS
 62
     2
  5
3A8
 10
-20.1205
 20
14.968417
 30
0.0
 11
-15.934167
 21
17.3855
 31
0.0
  0
LINE
  8
1
  6
CONTINUOUS
 62
     2
  5
3A9
 10
-23.4605
 20
14.9685
 30
0.0
 11
-27.3475
 21
17.212667
 31
0.0
  0
LINE
  8
1
  6
CONTINUOUS
 62
   215
  5
3AA
 10
-21.405333
 20
15.184083
 30
0.0
 11
-21.490667
 21
15.52325
 31
0.0
  0
LINE
  8
1
  6
CONTINUOUS
 62
   215
  5
3AB
 10
-21.405333
 20
15.184083
 30
0.0
 11
-21.713833
 21
15.028333
 31
0.0
  0
LINE
  8
1
  6
CONTINUOUS
 62
   215
  5
3AC
 10
-21.490667
 20
15.52325
 30
0.0
 11
-21.713833
 21
15.410583
 31
0.0
  0
LINE
  8
1
  6
CONTINUOUS
 62
   215
  5
3AD
 10
-21.490667
 20
15.52325
 30
0.0
 11
-21.6055
 21
15.58125
 31
0.0
  0
LINE
  8
1
  6
CONTINUOUS
 62
   215
  5
3AE
 10
-22.022333
 20
15.184083
 30
0.0
 11
-21.937
 21
15.52325
 31
0.0
  0
LINE
  8
1
  6
CONTINUOUS
 62
   215
  5
3AF
 10
-22.022333
 20
15.184083
 30
0.0
 11
-21.713833
 21
15.028333
 31
0.0
  0
LINE
  8
1
  6
CONTINUOUS
 62
   215
  5
3B0
 10
-21.937
 20
15.52325
 30
0.0
 11
-21.713833
 21
15.410583
 31
0.0
  0
LINE
  8
1
  6
CONTINUOUS
 62
   215
  5
3B1
 10
-21.937
 20
15.52325
 30
0.0
 11
-21.822167
 21
15.58125
 31
0.0
  0
LINE
  8
1
  6
CONTINUOUS
 62
   215
  5
3B2
 10
-21.713833
 20
15.028333
 30
0.0
 11
-21.713833
 21
15.410583
 31
0.0
  0
ARC
  8
1
  6
CONTINUOUS
 62
   215
  5
3B3
 10
-21.713833
 20
15.706808
 30
0.0
 40
0.213142
 50
239.451447
 51
300.548556
210
0.0
220
0.0
230
1.0
  0
ARC
  8
1
  6
CONTINUOUS
 62
     2
  5
3B4
 10
-21.790451
 20
17.861014
 30
0.0
 40
3.34
 50
239.999778
 51
299.998769
210
0.0
220
0.0
230
1.0
  0
LINE
  8
1
  6
CONTINUOUS
 62
     2
  5
3B5
 10
-22.8125
 20
16.768667
 30
0.0
 11
-24.334417
 21
15.656917
 31
0.0
  0
LINE
  8
1
  6
CONTINUOUS
 62
     2
  5
3B6
 10
-20.676667
 20
16.768417
 30
0.0
 11
-19.225083
 21
15.6415
 31
0.0
  0
ARC
  8
1
  6
CONTINUOUS
 62
     2
  5
3B7
 10
-21.790451
 20
17.861014
 30
0.0
 40
3.1259
 50
244.584608
 51
296.495433
210
0.0
220
0.0
230
1.0
  0
ARC
  8
1
  6
CONTINUOUS
 62
     2
  5
3B8
 10
-21.790451
 20
17.861014
 30
0.0
 40
2.9967
 50
244.586308
 51
296.495039
210
0.0
220
0.0
230
1.0
  0
LINE
  8
1
  6
CONTINUOUS
 62
     2
  5
3B9
 10
-21.744333
 20
16.00275
 30
0.0
 11
-20.451167
 21
15.256167
 31
0.0
  0
LINE
  8
1
  6
CONTINUOUS
 62
     2
  5
3BA
 10
-21.744333
 20
16.00275
 30
0.0
 11
-23.079583
 21
15.23175
 31
0.0
  0
LINE
  8
1
  6
CONTINUOUS
 62
     2
  5
3BB
 10
-23.694167
 20
17.862667
 30
0.0
 11
-25.537
 21
18.926583
 31
0.0
  0
LINE
  8
1
  6
CONTINUOUS
 62
     2
  5
3BC
 10
-19.735917
 20
17.862667
 30
0.0
 11
-17.411333
 21
19.204833
 31
0.0
  0
LINE
  8
1
  6
CONTINUOUS
 62
     2
  5
3BD
 10
-25.892
 20
16.768667
 30
0.0
 11
-22.8125
 21
16.768667
 31
0.0
  0
LINE
  8
1
  6
CONTINUOUS
 62
     2
  5
3BE
 10
-20.676667
 20
16.768417
 30
0.0
 11
-17.68925
 21
16.768417
 31
0.0
  0
LINE
  8
1
  6
CONTINUOUS
 62
     2
  5
3BF
 10
-26.021167
 20
16.694083
 30
0.0
 11
-25.892
 21
16.768667
 31
0.0
  0
LINE
  8
1
  6
CONTINUOUS
 62
     2
  5
3C0
 10
-17.560083
 20
16.693833
 30
0.0
 11
-17.68925
 21
16.768417
 31
0.0
  0
LINE
  8
1
  6
CONTINUOUS
 62
     2
  5
3C1
 10
-24.463583
 20
15.582333
 30
0.0
 11
-24.334417
 21
15.656917
 31
0.0
  0
LINE
  8
1
  6
CONTINUOUS
 62
     2
  5
3C2
 10
-19.095917
 20
15.566917
 30
0.0
 11
-19.225083
 21
15.6415
 31
0.0
  0
LINE
  8
1
  6
CONTINUOUS
 62
     2
  5
3C3
 10
-17.68925
 20
16.768417
 30
0.0
 11
-16.10575
 21
17.682667
 31
0.0
  0
LINE
  8
1
  6
CONTINUOUS
 62
     2
  5
3C4
 10
-17.560083
 20
16.693833
 30
0.0
 11
-16.041167
 21
17.570833
 31
0.0
  0
LINE
  8
1
  6
CONTINUOUS
 62
     2
  5
3C5
 10
-26.02125
 20
16.694083
 30
0.0
 11
-27.240417
 21
17.398
 31
0.0
  0
LINE
  8
1
  6
CONTINUOUS
 62
     2
  5
3C6
 10
-25.892
 20
16.768667
 30
0.0
 11
-27.17575
 21
17.509833
 31
0.0
  0
LINE
  8
1
  6
CONTINUOUS
 62
     2
  5
3C7
 10
-19.225083
 20
15.6415
 30
0.0
 11
-17.68925
 21
16.768417
 31
0.0
  0
LINE
  8
1
  6
CONTINUOUS
 62
     2
  5
3C8
 10
-19.095917
 20
15.566917
 30
0.0
 11
-17.560083
 21
16.693833
 31
0.0
  0
LINE
  8
1
  6
CONTINUOUS
 62
     2
  5
3C9
 10
-24.334417
 20
15.656917
 30
0.0
 11
-25.892083
 21
16.768667
 31
0.0
  0
LINE
  8
1
  6
CONTINUOUS
 62
     2
  5
3CA
 10
-24.463583
 20
15.582333
 30
0.0
 11
-26.021167
 21
16.694083
 31
0.0
  0
LINE
  8
1
  6
CONTINUOUS
 62
     2
  5
3CB
 10
-19.225083
 20
15.6415
 30
0.0
 11
-20.30075
 21
15.0205
 31
0.0
  0
LINE
  8
1
  6
CONTINUOUS
 62
     2
  5
3CC
 10
-24.334417
 20
15.656917
 30
0.0
 11
-23.2305
 21
15.019583
 31
0.0
  0
LINE
  8
1
  6
CONTINUOUS
 62
     2
  5
3CD
 10
-20.676667
 20
16.768417
 30
0.0
 11
-21.744333
 21
16.151917
 31
0.0
  0
LINE
  8
1
  6
CONTINUOUS
 62
     2
  5
3CE
 10
-21.744333
 20
16.151917
 30
0.0
 11
-23.14425
 21
15.34375
 31
0.0
  0
LINE
  8
1
  6
CONTINUOUS
 62
     2
  5
3CF
 10
-22.8125
 20
16.768667
 30
0.0
 11
-21.74425
 21
16.151917
 31
0.0
  0
LINE
  8
1
  6
CONTINUOUS
 62
     2
  5
3D0
 10
-21.744333
 20
16.151917
 30
0.0
 11
-20.386583
 21
15.368083
 31
0.0
  0
LINE
  8
1
  6
CONTINUOUS
 62
     2
  5
3D1
 10
-23.694167
 20
17.862667
 30
0.0
 11
-21.822167
 21
17.862667
 31
0.0
  0
LINE
  8
1
  6
CONTINUOUS
 62
     2
  5
3D2
 10
-21.6055
 20
17.862667
 30
0.0
 11
-19.735917
 21
17.862667
 31
0.0
  0
ARC
  8
1
  6
CONTINUOUS
 62
     2
  5
3D3
 10
-23.057691
 20
15.193858
 30
0.0
 40
0.0438
 50
120.002378
 51
244.586308
210
0.0
220
0.0
230
1.0
  0
ARC
  8
1
  6
CONTINUOUS
 62
     2
  5
3D4
 10
-20.473102
 20
15.218248
 30
0.0
 40
0.0438
 50
296.495039
 51
60.001136
210
0.0
220
0.0
230
1.0
  0
ARC
  8
1
  6
CONTINUOUS
 62
     2
  5
3D5
 10
-23.05777
 20
15.193895
 30
0.0
 40
0.173
 50
119.998883
 51
244.584608
210
0.0
220
0.0
230
1.0
  0
ARC
  8
1
  6
CONTINUOUS
 62
     2
  5
3D6
 10
-20.473084
 20
15.218257
 30
0.0
 40
0.173
 50
296.495433
 51
60.002489
210
0.0
220
0.0
230
1.0
  0
LINE
  8
1
  6
CONTINUOUS
 62
     2
  5
3D7
 10
-23.2305
 20
14.947833
 30
0.0
 11
-23.2305
 21
15.200333
 31
0.0
  0
LINE
  8
1
  6
CONTINUOUS
 62
     2
  5
3D8
 10
-20.30075
 20
14.980667
 30
0.0
 11
-20.30075
 21
15.231167
 31
0.0
  0
ARC
  8
1
  6
CONTINUOUS
 62
     2
  5
3D9
 10
-23.05777
 20
14.957478
 30
0.0
 40
0.173
 50
176.797242
 51
244.584608
210
0.0
220
0.0
230
1.0
  0
ARC
  8
1
  6
CONTINUOUS
 62
     2
  5
3DA
 10
-20.47375
 20
14.980703
 30
0.0
 40
0.173
 50
294.566972
 51
360.0
210
0.0
220
0.0
230
1.0
  0
ARC
  8
1
  6
CONTINUOUS
 62
     2
  5
3DB
 10
-32.254333
 20
15.473008
 30
0.0
 40
0.173
 50
300.044203
 51
0.0
210
0.0
220
0.0
230
1.0
  0
ARC
  8
1
  6
CONTINUOUS
 62
   215
  5
3DC
 10
-35.5655
 20
15.090145
 30
0.0
 40
0.173
 50
180.0
 51
245.585944
210
0.0
220
0.0
230
1.0
  0
LINE
  8
1
  6
CONTINUOUS
 62
   215
  5
3DD
 10
-22.91375
 20
16.580083
 30
0.0
 11
-22.051667
 21
16.082333
 31
0.0
  0
LINE
  8
1
  6
CONTINUOUS
 62
   215
  5
3DE
 10
-20.579917
 20
16.577167
 30
0.0
 11
-21.444167
 21
16.078083
 31
0.0
  0
LINE
  8
1
  6
CONTINUOUS
 62
   215
  5
3DF
 10
-20.277583
 20
16.554417
 30
0.0
 11
-18.1145
 21
16.554417
 31
0.0
  0
LINE
  8
1
  6
CONTINUOUS
 62
   215
  5
3E0
 10
-19.450583
 20
15.912417
 30
0.0
 11
-18.9895
 21
15.912417
 31
0.0
  0
LINE
  8
1
  6
CONTINUOUS
 62
   215
  5
3E1
 10
-20.397333
 20
16.435417
 30
0.0
 11
-21.261583
 21
15.936333
 31
0.0
  0
LINE
  8
1
  6
CONTINUOUS
 62
   215
  5
3E2
 10
-19.484583
 20
15.726833
 30
0.0
 11
-20.30375
 21
15.253833
 31
0.0
  0
LINE
  8
1
  6
CONTINUOUS
 62
   215
  5
3E3
 10
-23.102667
 20
16.442083
 30
0.0
 11
-22.240583
 21
15.944333
 31
0.0
  0
LINE
  8
1
  6
CONTINUOUS
 62
   215
  5
3E4
 10
-23.291583
 20
16.304
 30
0.0
 11
-22.4295
 21
15.806333
 31
0.0
  0
LINE
  8
1
  6
CONTINUOUS
 62
   215
  5
3E5
 10
-24.047333
 20
15.751917
 30
0.0
 11
-23.213
 21
15.27025
 31
0.0
  0
LINE
  8
1
  6
CONTINUOUS
 62
   215
  5
3E6
 10
-24.834917
 20
16.126667
 30
0.0
 11
-23.818583
 21
16.126667
 31
0.0
  0
LINE
  8
1
  6
CONTINUOUS
 62
   215
  5
3E7
 10
-24.535083
 20
15.912667
 30
0.0
 11
-24.1115
 21
15.912667
 31
0.0
  0
ARC
  8
1
  6
CONTINUOUS
 62
   215
  5
3E8
 10
-21.757052
 20
15.762721
 30
0.0
 40
0.083663
 50
48.623108
 51
139.849683
210
0.0
220
0.0
230
1.0
  0
ARC
  8
1
  6
CONTINUOUS
 62
   215
  5
3E9
 10
-21.659051
 20
15.890046
 30
0.0
 40
0.077391
 50
236.514297
 51
305.448067
210
0.0
220
0.0
230
1.0
  0
ARC
  8
1
  6
CONTINUOUS
 62
   215
  5
3EA
 10
-21.618009
 20
15.839211
 30
0.0
 40
0.012802
 50
287.467975
 51
92.569775
210
0.0
220
0.0
230
1.0
  0
ARC
  8
1
  6
CONTINUOUS
 62
   215
  5
3EB
 10
-21.612169
 20
15.644904
 30
0.0
 40
0.207196
 50
91.774144
 51
117.212214
210
0.0
220
0.0
230
1.0
  0
LINE
  8
1
  6
CONTINUOUS
 62
   215
  5
3EC
 10
-21.6055
 20
15.52325
 30
0.0
 11
-21.6055
 21
15.840583
 31
0.0
  0
LINE
  8
1
  6
CONTINUOUS
 62
   215
  5
3ED
 10
-21.6055
 20
16.321
 30
0.0
 11
-21.6055
 21
18.673667
 31
0.0
  0
LINE
  8
1
  6
CONTINUOUS
 62
   215
  5
3EE
 10
-21.822167
 20
15.52325
 30
0.0
 11
-21.822167
 21
15.816333
 31
0.0
  0
LINE
  8
1
  6
CONTINUOUS
 62
   215
  5
3EF
 10
-21.822167
 20
16.298917
 30
0.0
 11
-21.822167
 21
18.673667
 31
0.0
  0
ARC
  8
1
  6
CONTINUOUS
 62
   215
  5
3F0
 10
-21.670031
 20
16.375862
 30
0.0
 40
0.083663
 50
228.623108
 51
319.849683
210
0.0
220
0.0
230
1.0
  0
ARC
  8
1
  6
CONTINUOUS
 62
   215
  5
3F1
 10
-21.768032
 20
16.248537
 30
0.0
 40
0.077391
 50
56.514297
 51
125.448067
210
0.0
220
0.0
230
1.0
  0
ARC
  8
1
  6
CONTINUOUS
 62
   215
  5
3F2
 10
-21.809074
 20
16.299372
 30
0.0
 40
0.012802
 50
107.467975
 51
272.569775
210
0.0
220
0.0
230
1.0
  0
ARC
  8
1
  6
CONTINUOUS
 62
   215
  5
3F3
 10
-21.814915
 20
16.49368
 30
0.0
 40
0.207196
 50
271.774144
 51
297.212214
210
0.0
220
0.0
230
1.0
  0
LINE
  8
1
  6
CONTINUOUS
 62
     7
  5
3F4
 10
-23.999667
 20
10.15475
 30
0.0
 11
-24.037667
 21
10.205417
 31
0.0
  0
LINE
  8
1
  6
CONTINUOUS
 62
     2
  5
3F5
 10
-24.037667
 20
10.205417
 30
0.0
 11
-23.922833
 21
10.325083
 31
0.0
  0
LINE
  8
1
  6
CONTINUOUS
 62
     2
  5
3F6
 10
-23.922833
 20
10.325083
 30
0.0
 11
-23.993833
 21
10.378333
 31
0.0
  0
LINE
  8
1
  6
CONTINUOUS
 62
     2
  5
3F7
 10
-23.993833
 20
10.378333
 30
0.0
 11
-23.991833
 21
10.614
 31
0.0
  0
LINE
  8
1
  6
CONTINUOUS
 62
     2
  5
3F8
 10
-23.991833
 20
10.614
 30
0.0
 11
-21.532333
 21
10.421667
 31
0.0
  0
LINE
  8
1
  6
CONTINUOUS
 62
     2
  5
3F9
 10
-21.532333
 20
10.421667
 30
0.0
 11
-21.405833
 21
10.880583
 31
0.0
  0
LINE
  8
1
  6
CONTINUOUS
 62
     2
  5
3FA
 10
-24.0005
 20
9.987
 30
0.0
 11
-20.8965
 21
9.720583
 31
0.0
  0
LINE
  8
1
  6
CONTINUOUS
 62
     2
  5
3FB
 10
-20.886083
 20
9.992
 30
0.0
 11
-18.175917
 21
10.23825
 31
0.0
  0
LINE
  8
1
  6
CONTINUOUS
 62
     2
  5
3FC
 10
-18.177833
 20
10.1265
 30
0.0
 11
-18.121083
 21
10.373
 31
0.0
  0
LINE
  8
1
  6
CONTINUOUS
 62
     2
  5
3FD
 10
-18.121083
 20
10.373
 30
0.0
 11
-18.172167
 21
10.457917
 31
0.0
  0
LINE
  8
1
  6
CONTINUOUS
 62
     2
  5
3FE
 10
-18.172167
 20
10.457917
 30
0.0
 11
-17.983667
 21
10.564167
 31
0.0
  0
LINE
  8
1
  6
CONTINUOUS
 62
     7
  5
3FF
 10
-17.983667
 20
10.564167
 30
0.0
 11
-18.056917
 21
10.6035
 31
0.0
  0
LINE
  8
1
  6
CONTINUOUS
 62
     2
  5
400
 10
-18.056917
 20
10.6035
 30
0.0
 11
-17.967833
 21
11.102417
 31
0.0
  0
LINE
  8
1
  6
CONTINUOUS
 62
     2
  5
401
 10
-17.981583
 20
11.0255
 30
0.0
 11
-21.113083
 21
11.05275
 31
0.0
  0
LINE
  8
1
  6
CONTINUOUS
 62
     2
  5
402
 10
-21.532333
 20
10.421667
 30
0.0
 11
-18.0535
 21
10.687333
 31
0.0
  0
LINE
  8
1
  6
CONTINUOUS
 62
     2
  5
403
 10
-17.882083
 20
10.130833
 30
0.0
 11
-17.798167
 21
10.376917
 31
0.0
  0
LINE
  8
1
  6
CONTINUOUS
 62
     2
  5
404
 10
-17.798167
 20
10.376917
 30
0.0
 11
-17.832083
 21
10.4395
 31
0.0
  0
LINE
  8
1
  6
CONTINUOUS
 62
     2
  5
405
 10
-17.832083
 20
10.4395
 30
0.0
 11
-17.694167
 21
10.542667
 31
0.0
  0
LINE
  8
1
  6
CONTINUOUS
 62
     7
  5
406
 10
-17.694167
 20
10.542667
 30
0.0
 11
-17.74975
 21
10.591667
 31
0.0
  0
LINE
  8
1
  6
CONTINUOUS
 62
     2
  5
407
 10
-17.74975
 20
10.591667
 30
0.0
 11
-17.659667
 21
11.094583
 31
0.0
  0
LINE
  8
1
  6
CONTINUOUS
 62
     7
  5
408
 10
-17.668083
 20
11.0475
 30
0.0
 11
-17.674417
 21
11.017667
 31
0.0
  0
LINE
  8
1
  6
CONTINUOUS
 62
     2
  5
409
 10
-17.674417
 20
11.017667
 30
0.0
 11
-14.114917
 21
10.99425
 31
0.0
  0
LINE
  8
1
  6
CONTINUOUS
 62
     2
  5
40A
 10
-14.114917
 20
10.99425
 30
0.0
 11
-17.718417
 21
10.714917
 31
0.0
  0
LINE
  8
1
  6
CONTINUOUS
 62
     2
  5
40B
 10
-14.114917
 20
10.99425
 30
0.0
 11
-14.113917
 21
10.59675
 31
0.0
  0
LINE
  8
1
  6
CONTINUOUS
 62
     2
  5
40C
 10
-14.113917
 20
10.59675
 30
0.0
 11
-17.81925
 21
10.281417
 31
0.0
  0
LINE
  8
1
  6
CONTINUOUS
 62
     7
  5
40D
 10
-21.547667
 20
9.7765
 30
0.0
 11
-21.53425
 21
10.421833
 31
0.0
  0
POLYLINE
  8
1
  6
CONTINUOUS
 62
     2
  5
40E
 66
     1
 10
0.0
 20
0.0
 30
0.0
  0
VERTEX
  8
1
  6
CONTINUOUS
 62
     2
  5
40F
 10
-21.405833
 20
10.880583
 30
0.0
  0
VERTEX
  8
1
  6
CONTINUOUS
 62
     2
  5
410
 10
-21.378917
 20
10.977917
 30
0.0
  0
VERTEX
  8
1
  6
CONTINUOUS
 62
     2
  5
411
 10
-21.371922
 20
10.996951
 30
0.0
  0
VERTEX
  8
1
  6
CONTINUOUS
 62
     2
  5
412
 10
-21.367021
 20
11.006034
 30
0.0
  0
VERTEX
  8
1
  6
CONTINUOUS
 62
     2
  5
413
 10
-21.357744
 20
11.018212
 30
0.0
  0
VERTEX
  8
1
  6
CONTINUOUS
 62
     2
  5
414
 10
-21.34597
 20
11.027693
 30
0.0
  0
VERTEX
  8
1
  6
CONTINUOUS
 62
     2
  5
415
 10
-21.339083
 20
11.031083
 30
0.0
  0
VERTEX
  8
1
  6
CONTINUOUS
 62
     2
  5
416
 10
-21.325348
 20
11.035935
 30
0.0
  0
VERTEX
  8
1
  6
CONTINUOUS
 62
     2
  5
417
 10
-21.297775
 20
11.042529
 30
0.0
  0
VERTEX
  8
1
  6
CONTINUOUS
 62
     2
  5
418
 10
-21.270075
 20
11.046018
 30
0.0
  0
VERTEX
  8
1
  6
CONTINUOUS
 62
     2
  5
419
 10
-21.214333
 20
11.048667
 30
0.0
  0
VERTEX
  8
1
  6
CONTINUOUS
 62
     2
  5
41A
 10
-21.113083
 20
11.05275
 30
0.0
  0
SEQEND
  8
1
  6
CONTINUOUS
 62
     2
  5
41B
  0
LINE
  8
1
  6
CONTINUOUS
 62
   241
  5
41C
 10
-14.2315
 20
10.98525
 30
0.0
 11
-14.22175
 21
10.994917
 31
0.0
  0
LINE
  8
1
  6
CONTINUOUS
 62
   241
  5
41D
 10
-14.35925
 20
10.975333
 30
0.0
 11
-14.338833
 21
10.99575
 31
0.0
  0
LINE
  8
1
  6
CONTINUOUS
 62
   241
  5
41E
 10
-14.487
 20
10.965417
 30
0.0
 11
-14.455917
 21
10.9965
 31
0.0
  0
LINE
  8
1
  6
CONTINUOUS
 62
   241
  5
41F
 10
-18.793667
 20
10.186917
 30
0.0
 11
-18.754833
 21
10.18675
 31
0.0
  0
LINE
  8
1
  6
CONTINUOUS
 62
   241
  5
420
 10
-18.793667
 20
10.186917
 30
0.0
 11
-18.754833
 21
10.18675
 31
0.0
  0
LINE
  8
1
  6
CONTINUOUS
 62
   241
  5
421
 10
-19.264917
 20
10.181417
 30
0.0
 11
-19.264917
 21
10.194667
 31
0.0
  0
LINE
  8
1
  6
CONTINUOUS
 62
   241
  5
422
 10
-19.287667
 20
10.194667
 30
0.0
 11
-19.264917
 21
10.181417
 31
0.0
  0
LINE
  8
1
  6
CONTINUOUS
 62
   241
  5
423
 10
-18.754833
 20
10.18675
 30
0.0
 11
-18.759333
 21
10.194667
 31
0.0
  0
LINE
  8
1
  6
CONTINUOUS
 62
   241
  5
424
 10
-18.789167
 20
10.194667
 30
0.0
 11
-18.793667
 21
10.186917
 31
0.0
  0
LINE
  8
1
  6
CONTINUOUS
 62
   241
  5
425
 10
-18.754833
 20
10.18675
 30
0.0
 11
-18.759333
 21
10.194667
 31
0.0
  0
LINE
  8
1
  6
CONTINUOUS
 62
   241
  5
426
 10
-18.789167
 20
10.194667
 30
0.0
 11
-18.793667
 21
10.186917
 31
0.0
  0
LINE
  8
1
  6
CONTINUOUS
 62
   241
  5
427
 10
-19.777
 20
10.186917
 30
0.0
 11
-19.738167
 21
10.18675
 31
0.0
  0
LINE
  8
1
  6
CONTINUOUS
 62
   241
  5
428
 10
-19.777
 20
10.186917
 30
0.0
 11
-19.738167
 21
10.18675
 31
0.0
  0
LINE
  8
1
  6
CONTINUOUS
 62
   241
  5
429
 10
-20.24825
 20
10.181417
 30
0.0
 11
-20.24825
 21
10.194667
 31
0.0
  0
LINE
  8
1
  6
CONTINUOUS
 62
   241
  5
42A
 10
-20.271
 20
10.194667
 30
0.0
 11
-20.24825
 21
10.181417
 31
0.0
  0
LINE
  8
1
  6
CONTINUOUS
 62
   241
  5
42B
 10
-19.738167
 20
10.18675
 30
0.0
 11
-19.742667
 21
10.194667
 31
0.0
  0
LINE
  8
1
  6
CONTINUOUS
 62
   241
  5
42C
 10
-19.7725
 20
10.194667
 30
0.0
 11
-19.777
 21
10.186917
 31
0.0
  0
LINE
  8
1
  6
CONTINUOUS
 62
   241
  5
42D
 10
-19.738167
 20
10.18675
 30
0.0
 11
-19.742667
 21
10.194667
 31
0.0
  0
LINE
  8
1
  6
CONTINUOUS
 62
   241
  5
42E
 10
-19.7725
 20
10.194667
 30
0.0
 11
-19.777
 21
10.186917
 31
0.0
  0
CIRCLE
  8
1
  6
CONTINUOUS
 62
   241
  5
42F
 10
-20.271833
 20
10.054042
 30
0.0
 40
0.002157
210
0.0
220
0.0
230
1.0
  0
CIRCLE
  8
1
  6
CONTINUOUS
 62
   241
  5
430
 10
-19.561583
 20
10.132192
 30
0.0
 40
0.002157
210
0.0
220
0.0
230
1.0
  0
CIRCLE
  8
1
  6
CONTINUOUS
 62
   241
  5
431
 10
-19.795808
 20
10.121017
 30
0.0
 40
0.002157
210
0.0
220
0.0
230
1.0
  0
CIRCLE
  8
1
  6
CONTINUOUS
 62
   241
  5
432
 10
-20.104508
 20
10.132192
 30
0.0
 40
0.002157
210
0.0
220
0.0
230
1.0
  0
CIRCLE
  8
1
  6
CONTINUOUS
 62
   241
  5
433
 10
-19.427708
 20
10.135867
 30
0.0
 40
0.002157
210
0.0
220
0.0
230
1.0
  0
CIRCLE
  8
1
  6
CONTINUOUS
 62
   241
  5
434
 10
-19.940858
 20
10.139617
 30
0.0
 40
0.002157
210
0.0
220
0.0
230
1.0
  0
LINE
  8
1
  6
CONTINUOUS
 62
   241
  5
435
 10
-20.760333
 20
10.186917
 30
0.0
 11
-20.7215
 21
10.18675
 31
0.0
  0
LINE
  8
1
  6
CONTINUOUS
 62
   241
  5
436
 10
-20.66975
 20
10.015333
 30
0.0
 11
-20.66975
 21
10.038667
 31
0.0
  0
LINE
  8
1
  6
CONTINUOUS
 62
   241
  5
437
 10
-20.66975
 20
10.038667
 30
0.0
 11
-20.70325
 21
10.019333
 31
0.0
  0
LINE
  8
1
  6
CONTINUOUS
 62
   241
  5
438
 10
-20.70325
 20
10.019333
 30
0.0
 11
-20.692917
 21
10.013333
 31
0.0
  0
LINE
  8
1
  6
CONTINUOUS
 62
   241
  5
439
 10
-20.476833
 20
10.031833
 30
0.0
 11
-20.493667
 21
10.061083
 31
0.0
  0
LINE
  8
1
  6
CONTINUOUS
 62
   241
  5
43A
 10
-20.493667
 20
10.061083
 30
0.0
 11
-20.512417
 21
10.028833
 31
0.0
  0
LINE
  8
1
  6
CONTINUOUS
 62
   241
  5
43B
 10
-20.760333
 20
10.186917
 30
0.0
 11
-20.7215
 21
10.18675
 31
0.0
  0
LINE
  8
1
  6
CONTINUOUS
 62
   241
  5
43C
 10
-20.7215
 20
10.18675
 30
0.0
 11
-20.726
 21
10.194667
 31
0.0
  0
LINE
  8
1
  6
CONTINUOUS
 62
   241
  5
43D
 10
-20.755833
 20
10.194667
 30
0.0
 11
-20.760333
 21
10.186917
 31
0.0
  0
LINE
  8
1
  6
CONTINUOUS
 62
   241
  5
43E
 10
-20.7215
 20
10.18675
 30
0.0
 11
-20.726
 21
10.194667
 31
0.0
  0
LINE
  8
1
  6
CONTINUOUS
 62
   241
  5
43F
 10
-20.755833
 20
10.194667
 30
0.0
 11
-20.760333
 21
10.186917
 31
0.0
  0
CIRCLE
  8
1
  6
CONTINUOUS
 62
   241
  5
440
 10
-20.544917
 20
10.132192
 30
0.0
 40
0.002157
210
0.0
220
0.0
230
1.0
  0
CIRCLE
  8
1
  6
CONTINUOUS
 62
   241
  5
441
 10
-20.779142
 20
10.121017
 30
0.0
 40
0.002157
210
0.0
220
0.0
230
1.0
  0
CIRCLE
  8
1
  6
CONTINUOUS
 62
   241
  5
442
 10
-20.842367
 20
10.013167
 30
0.0
 40
0.002157
210
0.0
220
0.0
230
1.0
  0
CIRCLE
  8
1
  6
CONTINUOUS
 62
   241
  5
443
 10
-20.411042
 20
10.135867
 30
0.0
 40
0.002157
210
0.0
220
0.0
230
1.0
  0
LINE
  8
1
  6
CONTINUOUS
 62
   241
  5
444
 10
-18.281583
 20
10.22025
 30
0.0
 11
-18.2825
 21
10.219667
 31
0.0
  0
LINE
  8
1
  6
CONTINUOUS
 62
   241
  5
445
 10
-18.318417
 20
10.442833
 30
0.0
 11
-18.331833
 21
10.47925
 31
0.0
  0
LINE
  8
1
  6
CONTINUOUS
 62
   241
  5
446
 10
-18.239667
 20
10.56925
 30
0.0
 11
-18.259083
 21
10.602917
 31
0.0
  0
LINE
  8
1
  6
CONTINUOUS
 62
   241
  5
447
 10
-18.259083
 20
10.602917
 30
0.0
 11
-18.278583
 21
10.569417
 31
0.0
  0
LINE
  8
1
  6
CONTINUOUS
 62
   241
  5
448
 10
-18.278583
 20
10.569417
 30
0.0
 11
-18.239667
 21
10.56925
 31
0.0
  0
LINE
  8
1
  6
CONTINUOUS
 62
   241
  5
449
 10
-18.331833
 20
10.47925
 30
0.0
 11
-18.333667
 21
10.477
 31
0.0
  0
LINE
  8
1
  6
CONTINUOUS
 62
   241
  5
44A
 10
-18.333667
 20
10.4455
 30
0.0
 11
-18.318417
 21
10.442833
 31
0.0
  0
LINE
  8
1
  6
CONTINUOUS
 62
   241
  5
44B
 10
-18.281583
 20
10.21975
 30
0.0
 11
-18.281583
 21
10.22025
 31
0.0
  0
CIRCLE
  8
1
  6
CONTINUOUS
 62
   241
  5
44C
 10
-18.223342
 20
10.329292
 30
0.0
 40
0.002157
210
0.0
220
0.0
230
1.0
  0
CIRCLE
  8
1
  6
CONTINUOUS
 62
     2
  5
44D
 10
-18.093217
 20
10.597042
 30
0.0
 40
0.002157
210
0.0
220
0.0
230
1.0
  0
CIRCLE
  8
1
  6
CONTINUOUS
 62
   241
  5
44E
 10
-18.275392
 20
10.518967
 30
0.0
 40
0.002157
210
0.0
220
0.0
230
1.0
  0
LINE
  8
1
  6
CONTINUOUS
 62
   241
  5
44F
 10
-19.264917
 20
10.22025
 30
0.0
 11
-19.298417
 21
10.200917
 31
0.0
  0
LINE
  8
1
  6
CONTINUOUS
 62
   241
  5
450
 10
-19.30175
 20
10.442833
 30
0.0
 11
-19.315167
 21
10.47925
 31
0.0
  0
LINE
  8
1
  6
CONTINUOUS
 62
   241
  5
451
 10
-19.223
 20
10.56925
 30
0.0
 11
-19.230083
 21
10.581583
 31
0.0
  0
LINE
  8
1
  6
CONTINUOUS
 62
   241
  5
452
 10
-19.255917
 20
10.579833
 30
0.0
 11
-19.261917
 21
10.569417
 31
0.0
  0
LINE
  8
1
  6
CONTINUOUS
 62
   241
  5
453
 10
-19.261917
 20
10.569417
 30
0.0
 11
-19.223
 21
10.56925
 31
0.0
  0
LINE
  8
1
  6
CONTINUOUS
 62
   241
  5
454
 10
-19.08125
 20
10.4395
 30
0.0
 11
-19.114917
 21
10.459
 31
0.0
  0
LINE
  8
1
  6
CONTINUOUS
 62
   241
  5
455
 10
-19.114917
 20
10.459
 30
0.0
 11
-19.114917
 21
10.420167
 31
0.0
  0
LINE
  8
1
  6
CONTINUOUS
 62
   241
  5
456
 10
-19.114917
 20
10.420167
 30
0.0
 11
-19.08125
 21
10.4395
 31
0.0
  0
LINE
  8
1
  6
CONTINUOUS
 62
   241
  5
457
 10
-19.012
 20
10.227
 30
0.0
 11
-19.00525
 21
10.265167
 31
0.0
  0
LINE
  8
1
  6
CONTINUOUS
 62
   241
  5
458
 10
-19.00525
 20
10.265167
 30
0.0
 11
-19.041667
 21
10.252
 31
0.0
  0
LINE
  8
1
  6
CONTINUOUS
 62
   241
  5
459
 10
-19.041667
 20
10.252
 30
0.0
 11
-19.012
 21
10.227
 31
0.0
  0
LINE
  8
1
  6
CONTINUOUS
 62
   241
  5
45A
 10
-18.878417
 20
10.441
 30
0.0
 11
-18.912083
 21
10.4605
 31
0.0
  0
LINE
  8
1
  6
CONTINUOUS
 62
   241
  5
45B
 10
-18.912083
 20
10.4605
 30
0.0
 11
-18.912083
 21
10.421667
 31
0.0
  0
LINE
  8
1
  6
CONTINUOUS
 62
   241
  5
45C
 10
-18.912083
 20
10.421667
 30
0.0
 11
-18.878417
 21
10.441
 31
0.0
  0
LINE
  8
1
  6
CONTINUOUS
 62
   241
  5
45D
 10
-18.951833
 20
10.597417
 30
0.0
 11
-18.951833
 21
10.601
 31
0.0
  0
LINE
  8
1
  6
CONTINUOUS
 62
   241
  5
45E
 10
-18.957417
 20
10.600667
 30
0.0
 11
-18.951833
 21
10.597417
 31
0.0
  0
LINE
  8
1
  6
CONTINUOUS
 62
   241
  5
45F
 10
-18.5075
 20
10.607417
 30
0.0
 11
-18.545083
 21
10.617417
 31
0.0
  0
LINE
  8
1
  6
CONTINUOUS
 62
   241
  5
460
 10
-18.545083
 20
10.617417
 30
0.0
 11
-18.535083
 21
10.58
 31
0.0
  0
LINE
  8
1
  6
CONTINUOUS
 62
   241
  5
461
 10
-18.535083
 20
10.58
 30
0.0
 11
-18.5075
 21
10.607417
 31
0.0
  0
LINE
  8
1
  6
CONTINUOUS
 62
   241
  5
462
 10
-18.702167
 20
10.540167
 30
0.0
 11
-18.7155
 21
10.576667
 31
0.0
  0
LINE
  8
1
  6
CONTINUOUS
 62
   241
  5
463
 10
-18.7155
 20
10.576667
 30
0.0
 11
-18.740333
 21
10.547
 31
0.0
  0
LINE
  8
1
  6
CONTINUOUS
 62
   241
  5
464
 10
-18.740333
 20
10.547
 30
0.0
 11
-18.702167
 21
10.540167
 31
0.0
  0
LINE
  8
1
  6
CONTINUOUS
 62
   241
  5
465
 10
-18.61425
 20
10.369583
 30
0.0
 11
-18.651833
 21
10.379583
 31
0.0
  0
LINE
  8
1
  6
CONTINUOUS
 62
   241
  5
466
 10
-18.651833
 20
10.379583
 30
0.0
 11
-18.64175
 21
10.342167
 31
0.0
  0
LINE
  8
1
  6
CONTINUOUS
 62
   241
  5
467
 10
-18.64175
 20
10.342167
 30
0.0
 11
-18.61425
 21
10.369583
 31
0.0
  0
LINE
  8
1
  6
CONTINUOUS
 62
   241
  5
468
 10
-18.484917
 20
10.21825
 30
0.0
 11
-18.484917
 21
10.257083
 31
0.0
  0
LINE
  8
1
  6
CONTINUOUS
 62
   241
  5
469
 10
-18.484917
 20
10.257083
 30
0.0
 11
-18.5185
 21
10.23775
 31
0.0
  0
LINE
  8
1
  6
CONTINUOUS
 62
   241
  5
46A
 10
-18.5185
 20
10.23775
 30
0.0
 11
-18.484917
 21
10.21825
 31
0.0
  0
LINE
  8
1
  6
CONTINUOUS
 62
   241
  5
46B
 10
-19.315167
 20
10.47925
 30
0.0
 11
-19.317
 21
10.477
 31
0.0
  0
LINE
  8
1
  6
CONTINUOUS
 62
   241
  5
46C
 10
-19.317
 20
10.4455
 30
0.0
 11
-19.30175
 21
10.442833
 31
0.0
  0
LINE
  8
1
  6
CONTINUOUS
 62
   241
  5
46D
 10
-18.417
 20
10.477
 30
0.0
 11
-18.439917
 21
10.449667
 31
0.0
  0
LINE
  8
1
  6
CONTINUOUS
 62
   241
  5
46E
 10
-18.439917
 20
10.449667
 30
0.0
 11
-18.417
 21
10.4455
 31
0.0
  0
LINE
  8
1
  6
CONTINUOUS
 62
   241
  5
46F
 10
-18.417
 20
10.477
 30
0.0
 11
-18.439917
 21
10.449667
 31
0.0
  0
LINE
  8
1
  6
CONTINUOUS
 62
   241
  5
470
 10
-18.439917
 20
10.449667
 30
0.0
 11
-18.417
 21
10.4455
 31
0.0
  0
LINE
  8
1
  6
CONTINUOUS
 62
   241
  5
471
 10
-19.264917
 20
10.194667
 30
0.0
 11
-19.264917
 21
10.22025
 31
0.0
  0
LINE
  8
1
  6
CONTINUOUS
 62
   241
  5
472
 10
-19.298417
 20
10.200917
 30
0.0
 11
-19.287667
 21
10.194667
 31
0.0
  0
LINE
  8
1
  6
CONTINUOUS
 62
   241
  5
473
 10
-18.759333
 20
10.194667
 30
0.0
 11
-18.77425
 21
10.220417
 31
0.0
  0
LINE
  8
1
  6
CONTINUOUS
 62
   241
  5
474
 10
-18.77425
 20
10.220417
 30
0.0
 11
-18.789167
 21
10.194667
 31
0.0
  0
CIRCLE
  8
1
  6
CONTINUOUS
 62
   241
  5
475
 10
-19.206675
 20
10.329292
 30
0.0
 40
0.002157
210
0.0
220
0.0
230
1.0
  0
CIRCLE
  8
1
  6
CONTINUOUS
 62
   241
  5
476
 10
-18.972375
 20
10.355392
 30
0.0
 40
0.002157
210
0.0
220
0.0
230
1.0
  0
CIRCLE
  8
1
  6
CONTINUOUS
 62
   241
  5
477
 10
-18.73815
 20
10.321867
 30
0.0
 40
0.002157
210
0.0
220
0.0
230
1.0
  0
CIRCLE
  8
1
  6
CONTINUOUS
 62
   241
  5
478
 10
-18.55215
 20
10.481767
 30
0.0
 40
0.002157
210
0.0
220
0.0
230
1.0
  0
CIRCLE
  8
1
  6
CONTINUOUS
 62
   241
  5
479
 10
-18.4704
 20
10.325617
 30
0.0
 40
0.002157
210
0.0
220
0.0
230
1.0
  0
CIRCLE
  8
1
  6
CONTINUOUS
 62
   241
  5
47A
 10
-18.622875
 20
10.262392
 30
0.0
 40
0.002157
210
0.0
220
0.0
230
1.0
  0
CIRCLE
  8
1
  6
CONTINUOUS
 62
   241
  5
47B
 10
-18.831075
 20
10.511542
 30
0.0
 40
0.002157
210
0.0
220
0.0
230
1.0
  0
CIRCLE
  8
1
  6
CONTINUOUS
 62
   241
  5
47C
 10
-19.258725
 20
10.518967
 30
0.0
 40
0.002157
210
0.0
220
0.0
230
1.0
  0
CIRCLE
  8
1
  6
CONTINUOUS
 62
   241
  5
47D
 10
-18.86085
 20
10.292167
 30
0.0
 40
0.002157
210
0.0
220
0.0
230
1.0
  0
LINE
  8
1
  6
CONTINUOUS
 62
   241
  5
47E
 10
-20.24825
 20
10.22025
 30
0.0
 11
-20.28175
 21
10.200917
 31
0.0
  0
LINE
  8
1
  6
CONTINUOUS
 62
   241
  5
47F
 10
-20.285083
 20
10.442833
 30
0.0
 11
-20.2985
 21
10.47925
 31
0.0
  0
LINE
  8
1
  6
CONTINUOUS
 62
   241
  5
480
 10
-20.064583
 20
10.4395
 30
0.0
 11
-20.09825
 21
10.459
 31
0.0
  0
LINE
  8
1
  6
CONTINUOUS
 62
   241
  5
481
 10
-20.09825
 20
10.459
 30
0.0
 11
-20.09825
 21
10.420167
 31
0.0
  0
LINE
  8
1
  6
CONTINUOUS
 62
   241
  5
482
 10
-20.09825
 20
10.420167
 30
0.0
 11
-20.064583
 21
10.4395
 31
0.0
  0
LINE
  8
1
  6
CONTINUOUS
 62
   241
  5
483
 10
-19.995333
 20
10.227
 30
0.0
 11
-19.988583
 21
10.265167
 31
0.0
  0
LINE
  8
1
  6
CONTINUOUS
 62
   241
  5
484
 10
-19.988583
 20
10.265167
 30
0.0
 11
-20.025
 21
10.252
 31
0.0
  0
LINE
  8
1
  6
CONTINUOUS
 62
   241
  5
485
 10
-20.025
 20
10.252
 30
0.0
 11
-19.995333
 21
10.227
 31
0.0
  0
LINE
  8
1
  6
CONTINUOUS
 62
   241
  5
486
 10
-19.86175
 20
10.441
 30
0.0
 11
-19.895417
 21
10.4605
 31
0.0
  0
LINE
  8
1
  6
CONTINUOUS
 62
   241
  5
487
 10
-19.895417
 20
10.4605
 30
0.0
 11
-19.895417
 21
10.421667
 31
0.0
  0
LINE
  8
1
  6
CONTINUOUS
 62
   241
  5
488
 10
-19.895417
 20
10.421667
 30
0.0
 11
-19.86175
 21
10.441
 31
0.0
  0
LINE
  8
1
  6
CONTINUOUS
 62
   241
  5
489
 10
-19.6855
 20
10.540167
 30
0.0
 11
-19.688917
 21
10.5495
 31
0.0
  0
LINE
  8
1
  6
CONTINUOUS
 62
   241
  5
48A
 10
-19.723583
 20
10.547083
 30
0.0
 11
-19.723667
 21
10.547
 31
0.0
  0
LINE
  8
1
  6
CONTINUOUS
 62
   241
  5
48B
 10
-19.723667
 20
10.547
 30
0.0
 11
-19.6855
 21
10.540167
 31
0.0
  0
LINE
  8
1
  6
CONTINUOUS
 62
   241
  5
48C
 10
-19.597583
 20
10.369583
 30
0.0
 11
-19.635167
 21
10.379583
 31
0.0
  0
LINE
  8
1
  6
CONTINUOUS
 62
   241
  5
48D
 10
-19.635167
 20
10.379583
 30
0.0
 11
-19.625083
 21
10.342167
 31
0.0
  0
LINE
  8
1
  6
CONTINUOUS
 62
   241
  5
48E
 10
-19.625083
 20
10.342167
 30
0.0
 11
-19.597583
 21
10.369583
 31
0.0
  0
LINE
  8
1
  6
CONTINUOUS
 62
   241
  5
48F
 10
-19.46825
 20
10.21825
 30
0.0
 11
-19.46825
 21
10.257083
 31
0.0
  0
LINE
  8
1
  6
CONTINUOUS
 62
   241
  5
490
 10
-19.46825
 20
10.257083
 30
0.0
 11
-19.501833
 21
10.23775
 31
0.0
  0
LINE
  8
1
  6
CONTINUOUS
 62
   241
  5
491
 10
-19.501833
 20
10.23775
 30
0.0
 11
-19.46825
 21
10.21825
 31
0.0
  0
LINE
  8
1
  6
CONTINUOUS
 62
   241
  5
492
 10
-20.2985
 20
10.47925
 30
0.0
 11
-20.300333
 21
10.477
 31
0.0
  0
LINE
  8
1
  6
CONTINUOUS
 62
   241
  5
493
 10
-20.300333
 20
10.4455
 30
0.0
 11
-20.285083
 21
10.442833
 31
0.0
  0
LINE
  8
1
  6
CONTINUOUS
 62
   241
  5
494
 10
-19.400333
 20
10.477
 30
0.0
 11
-19.42325
 21
10.449667
 31
0.0
  0
LINE
  8
1
  6
CONTINUOUS
 62
   241
  5
495
 10
-19.42325
 20
10.449667
 30
0.0
 11
-19.400333
 21
10.4455
 31
0.0
  0
LINE
  8
1
  6
CONTINUOUS
 62
   241
  5
496
 10
-19.400333
 20
10.477
 30
0.0
 11
-19.42325
 21
10.449667
 31
0.0
  0
LINE
  8
1
  6
CONTINUOUS
 62
   241
  5
497
 10
-19.42325
 20
10.449667
 30
0.0
 11
-19.400333
 21
10.4455
 31
0.0
  0
LINE
  8
1
  6
CONTINUOUS
 62
   241
  5
498
 10
-20.24825
 20
10.194667
 30
0.0
 11
-20.24825
 21
10.22025
 31
0.0
  0
LINE
  8
1
  6
CONTINUOUS
 62
   241
  5
499
 10
-20.28175
 20
10.200917
 30
0.0
 11
-20.271
 21
10.194667
 31
0.0
  0
LINE
  8
1
  6
CONTINUOUS
 62
   241
  5
49A
 10
-19.742667
 20
10.194667
 30
0.0
 11
-19.757583
 21
10.220417
 31
0.0
  0
LINE
  8
1
  6
CONTINUOUS
 62
   241
  5
49B
 10
-19.757583
 20
10.220417
 30
0.0
 11
-19.7725
 21
10.194667
 31
0.0
  0
CIRCLE
  8
1
  6
CONTINUOUS
 62
   241
  5
49C
 10
-20.190008
 20
10.329292
 30
0.0
 40
0.002157
210
0.0
220
0.0
230
1.0
  0
CIRCLE
  8
1
  6
CONTINUOUS
 62
   241
  5
49D
 10
-19.955708
 20
10.355392
 30
0.0
 40
0.002157
210
0.0
220
0.0
230
1.0
  0
CIRCLE
  8
1
  6
CONTINUOUS
 62
   241
  5
49E
 10
-19.721483
 20
10.321867
 30
0.0
 40
0.002157
210
0.0
220
0.0
230
1.0
  0
CIRCLE
  8
1
  6
CONTINUOUS
 62
   241
  5
49F
 10
-19.535483
 20
10.481767
 30
0.0
 40
0.002157
210
0.0
220
0.0
230
1.0
  0
CIRCLE
  8
1
  6
CONTINUOUS
 62
   241
  5
4A0
 10
-19.453733
 20
10.325617
 30
0.0
 40
0.002157
210
0.0
220
0.0
230
1.0
  0
CIRCLE
  8
1
  6
CONTINUOUS
 62
   241
  5
4A1
 10
-19.606208
 20
10.262392
 30
0.0
 40
0.002157
210
0.0
220
0.0
230
1.0
  0
CIRCLE
  8
1
  6
CONTINUOUS
 62
   241
  5
4A2
 10
-19.814408
 20
10.511542
 30
0.0
 40
0.002157
210
0.0
220
0.0
230
1.0
  0
CIRCLE
  8
1
  6
CONTINUOUS
 62
   241
  5
4A3
 10
-19.844183
 20
10.292167
 30
0.0
 40
0.002157
210
0.0
220
0.0
230
1.0
  0
LINE
  8
1
  6
CONTINUOUS
 62
   241
  5
4A4
 10
-20.845083
 20
10.441
 30
0.0
 11
-20.87875
 21
10.4605
 31
0.0
  0
LINE
  8
1
  6
CONTINUOUS
 62
   241
  5
4A5
 10
-20.87875
 20
10.4605
 30
0.0
 11
-20.87875
 21
10.421667
 31
0.0
  0
LINE
  8
1
  6
CONTINUOUS
 62
   241
  5
4A6
 10
-20.87875
 20
10.421667
 30
0.0
 11
-20.845083
 21
10.441
 31
0.0
  0
LINE
  8
1
  6
CONTINUOUS
 62
   241
  5
4A7
 10
-20.580917
 20
10.369583
 30
0.0
 11
-20.6185
 21
10.379583
 31
0.0
  0
LINE
  8
1
  6
CONTINUOUS
 62
   241
  5
4A8
 10
-20.6185
 20
10.379583
 30
0.0
 11
-20.608417
 21
10.342167
 31
0.0
  0
LINE
  8
1
  6
CONTINUOUS
 62
   241
  5
4A9
 10
-20.608417
 20
10.342167
 30
0.0
 11
-20.580917
 21
10.369583
 31
0.0
  0
LINE
  8
1
  6
CONTINUOUS
 62
   241
  5
4AA
 10
-20.451583
 20
10.21825
 30
0.0
 11
-20.451583
 21
10.257083
 31
0.0
  0
LINE
  8
1
  6
CONTINUOUS
 62
   241
  5
4AB
 10
-20.451583
 20
10.257083
 30
0.0
 11
-20.485167
 21
10.23775
 31
0.0
  0
LINE
  8
1
  6
CONTINUOUS
 62
   241
  5
4AC
 10
-20.485167
 20
10.23775
 30
0.0
 11
-20.451583
 21
10.21825
 31
0.0
  0
LINE
  8
1
  6
CONTINUOUS
 62
   241
  5
4AD
 10
-20.383667
 20
10.477
 30
0.0
 11
-20.406583
 21
10.449667
 31
0.0
  0
LINE
  8
1
  6
CONTINUOUS
 62
   241
  5
4AE
 10
-20.406583
 20
10.449667
 30
0.0
 11
-20.383667
 21
10.4455
 31
0.0
  0
LINE
  8
1
  6
CONTINUOUS
 62
   241
  5
4AF
 10
-20.383667
 20
10.477
 30
0.0
 11
-20.406583
 21
10.449667
 31
0.0
  0
LINE
  8
1
  6
CONTINUOUS
 62
   241
  5
4B0
 10
-20.406583
 20
10.449667
 30
0.0
 11
-20.383667
 21
10.4455
 31
0.0
  0
LINE
  8
1
  6
CONTINUOUS
 62
   241
  5
4B1
 10
-20.726
 20
10.194667
 30
0.0
 11
-20.740917
 21
10.220417
 31
0.0
  0
LINE
  8
1
  6
CONTINUOUS
 62
   241
  5
4B2
 10
-20.740917
 20
10.220417
 30
0.0
 11
-20.755833
 21
10.194667
 31
0.0
  0
CIRCLE
  8
1
  6
CONTINUOUS
 62
   241
  5
4B3
 10
-20.704817
 20
10.321867
 30
0.0
 40
0.002157
210
0.0
220
0.0
230
1.0
  0
CIRCLE
  8
1
  6
CONTINUOUS
 62
   241
  5
4B4
 10
-20.518817
 20
10.481767
 30
0.0
 40
0.002157
210
0.0
220
0.0
230
1.0
  0
CIRCLE
  8
1
  6
CONTINUOUS
 62
   241
  5
4B5
 10
-20.437067
 20
10.325617
 30
0.0
 40
0.002157
210
0.0
220
0.0
230
1.0
  0
CIRCLE
  8
1
  6
CONTINUOUS
 62
   241
  5
4B6
 10
-20.589542
 20
10.262392
 30
0.0
 40
0.002157
210
0.0
220
0.0
230
1.0
  0
CIRCLE
  8
1
  6
CONTINUOUS
 62
   241
  5
4B7
 10
-20.827517
 20
10.292167
 30
0.0
 40
0.002157
210
0.0
220
0.0
230
1.0
  0
LINE
  8
1
  6
CONTINUOUS
 62
   241
  5
4B8
 10
-15.764583
 20
10.465333
 30
0.0
 11
-15.764583
 21
10.478583
 31
0.0
  0
LINE
  8
1
  6
CONTINUOUS
 62
   241
  5
4B9
 10
-15.787333
 20
10.478583
 30
0.0
 11
-15.764583
 21
10.465333
 31
0.0
  0
LINE
  8
1
  6
CONTINUOUS
 62
   241
  5
4BA
 10
-16.276667
 20
10.470833
 30
0.0
 11
-16.237833
 21
10.470667
 31
0.0
  0
LINE
  8
1
  6
CONTINUOUS
 62
   241
  5
4BB
 10
-16.276667
 20
10.470833
 30
0.0
 11
-16.237833
 21
10.470667
 31
0.0
  0
LINE
  8
1
  6
CONTINUOUS
 62
   241
  5
4BC
 10
-16.747917
 20
10.465333
 30
0.0
 11
-16.747917
 21
10.478583
 31
0.0
  0
LINE
  8
1
  6
CONTINUOUS
 62
   241
  5
4BD
 10
-16.770667
 20
10.478583
 30
0.0
 11
-16.747917
 21
10.465333
 31
0.0
  0
LINE
  8
1
  6
CONTINUOUS
 62
   241
  5
4BE
 10
-16.237833
 20
10.470667
 30
0.0
 11
-16.242333
 21
10.478583
 31
0.0
  0
LINE
  8
1
  6
CONTINUOUS
 62
   241
  5
4BF
 10
-16.272167
 20
10.478583
 30
0.0
 11
-16.276667
 21
10.470833
 31
0.0
  0
LINE
  8
1
  6
CONTINUOUS
 62
   241
  5
4C0
 10
-16.237833
 20
10.470667
 30
0.0
 11
-16.242333
 21
10.478583
 31
0.0
  0
LINE
  8
1
  6
CONTINUOUS
 62
   241
  5
4C1
 10
-16.272167
 20
10.478583
 30
0.0
 11
-16.276667
 21
10.470833
 31
0.0
  0
CIRCLE
  8
1
  6
CONTINUOUS
 62
   241
  5
4C2
 10
-16.604175
 20
10.416108
 30
0.0
 40
0.002157
210
0.0
220
0.0
230
1.0
  0
CIRCLE
  8
1
  6
CONTINUOUS
 62
   241
  5
4C3
 10
-16.440525
 20
10.423533
 30
0.0
 40
0.002157
210
0.0
220
0.0
230
1.0
  0
LINE
  8
1
  6
CONTINUOUS
 62
   241
  5
4C4
 10
-17.615
 20
10.30775
 30
0.0
 11
-17.6345
 21
10.341417
 31
0.0
  0
LINE
  8
1
  6
CONTINUOUS
 62
   241
  5
4C5
 10
-17.6345
 20
10.341417
 30
0.0
 11
-17.653917
 21
10.308
 31
0.0
  0
LINE
  8
1
  6
CONTINUOUS
 62
   241
  5
4C6
 10
-17.653917
 20
10.308
 30
0.0
 11
-17.615
 21
10.30775
 31
0.0
  0
LINE
  8
1
  6
CONTINUOUS
 62
   241
  5
4C7
 10
-17.42975
 20
10.315167
 30
0.0
 11
-17.426917
 21
10.331083
 31
0.0
  0
LINE
  8
1
  6
CONTINUOUS
 62
   241
  5
4C8
 10
-17.426917
 20
10.331083
 30
0.0
 11
-17.463417
 21
10.317833
 31
0.0
  0
LINE
  8
1
  6
CONTINUOUS
 62
   241
  5
4C9
 10
-17.463417
 20
10.317833
 30
0.0
 11
-17.457333
 21
10.31275
 31
0.0
  0
LINE
  8
1
  6
CONTINUOUS
 62
   241
  5
4CA
 10
-17.26
 20
10.470833
 30
0.0
 11
-17.221167
 21
10.470667
 31
0.0
  0
LINE
  8
1
  6
CONTINUOUS
 62
   241
  5
4CB
 10
-17.26
 20
10.470833
 30
0.0
 11
-17.221167
 21
10.470667
 31
0.0
  0
LINE
  8
1
  6
CONTINUOUS
 62
   241
  5
4CC
 10
-17.73125
 20
10.465333
 30
0.0
 11
-17.73125
 21
10.478583
 31
0.0
  0
LINE
  8
1
  6
CONTINUOUS
 62
   241
  5
4CD
 10
-17.754
 20
10.478583
 30
0.0
 11
-17.73125
 21
10.465333
 31
0.0
  0
LINE
  8
1
  6
CONTINUOUS
 62
   241
  5
4CE
 10
-17.221167
 20
10.470667
 30
0.0
 11
-17.225667
 21
10.478583
 31
0.0
  0
LINE
  8
1
  6
CONTINUOUS
 62
   241
  5
4CF
 10
-17.2555
 20
10.478583
 30
0.0
 11
-17.26
 21
10.470833
 31
0.0
  0
LINE
  8
1
  6
CONTINUOUS
 62
   241
  5
4D0
 10
-17.221167
 20
10.470667
 30
0.0
 11
-17.225667
 21
10.478583
 31
0.0
  0
LINE
  8
1
  6
CONTINUOUS
 62
   241
  5
4D1
 10
-17.2555
 20
10.478583
 30
0.0
 11
-17.26
 21
10.470833
 31
0.0
  0
CIRCLE
  8
1
  6
CONTINUOUS
 62
   241
  5
4D2
 10
-17.754833
 20
10.337958
 30
0.0
 40
0.002157
210
0.0
220
0.0
230
1.0
  0
CIRCLE
  8
1
  6
CONTINUOUS
 62
   241
  5
4D3
 10
-17.044583
 20
10.416108
 30
0.0
 40
0.002157
210
0.0
220
0.0
230
1.0
  0
CIRCLE
  8
1
  6
CONTINUOUS
 62
   241
  5
4D4
 10
-17.278808
 20
10.404933
 30
0.0
 40
0.002157
210
0.0
220
0.0
230
1.0
  0
CIRCLE
  8
1
  6
CONTINUOUS
 62
   241
  5
4D5
 10
-17.587508
 20
10.416108
 30
0.0
 40
0.002157
210
0.0
220
0.0
230
1.0
  0
CIRCLE
  8
1
  6
CONTINUOUS
 62
   241
  5
4D6
 10
-16.910708
 20
10.419783
 30
0.0
 40
0.002157
210
0.0
220
0.0
230
1.0
  0
CIRCLE
  8
1
  6
CONTINUOUS
 62
   241
  5
4D7
 10
-17.423858
 20
10.423533
 30
0.0
 40
0.002157
210
0.0
220
0.0
230
1.0
  0
LINE
  8
1
  6
CONTINUOUS
 62
   241
  5
4D8
 10
-14.818083
 20
10.72675
 30
0.0
 11
-14.8315
 21
10.763167
 31
0.0
  0
LINE
  8
1
  6
CONTINUOUS
 62
   241
  5
4D9
 10
-14.739333
 20
10.853167
 30
0.0
 11
-14.75875
 21
10.886833
 31
0.0
  0
LINE
  8
1
  6
CONTINUOUS
 62
   241
  5
4DA
 10
-14.75875
 20
10.886833
 30
0.0
 11
-14.77825
 21
10.853333
 31
0.0
  0
LINE
  8
1
  6
CONTINUOUS
 62
   241
  5
4DB
 10
-14.77825
 20
10.853333
 30
0.0
 11
-14.739333
 21
10.853167
 31
0.0
  0
LINE
  8
1
  6
CONTINUOUS
 62
   241
  5
4DC
 10
-14.597583
 20
10.723417
 30
0.0
 11
-14.63125
 21
10.742917
 31
0.0
  0
LINE
  8
1
  6
CONTINUOUS
 62
   241
  5
4DD
 10
-14.63125
 20
10.742917
 30
0.0
 11
-14.63125
 21
10.704083
 31
0.0
  0
LINE
  8
1
  6
CONTINUOUS
 62
   241
  5
4DE
 10
-14.63125
 20
10.704083
 30
0.0
 11
-14.597583
 21
10.723417
 31
0.0
  0
LINE
  8
1
  6
CONTINUOUS
 62
   241
  5
4DF
 10
-14.39475
 20
10.724917
 30
0.0
 11
-14.428417
 21
10.744417
 31
0.0
  0
LINE
  8
1
  6
CONTINUOUS
 62
   241
  5
4E0
 10
-14.428417
 20
10.744417
 30
0.0
 11
-14.428417
 21
10.705583
 31
0.0
  0
LINE
  8
1
  6
CONTINUOUS
 62
   241
  5
4E1
 10
-14.428417
 20
10.705583
 30
0.0
 11
-14.39475
 21
10.724917
 31
0.0
  0
LINE
  8
1
  6
CONTINUOUS
 62
   241
  5
4E2
 10
-14.468167
 20
10.881333
 30
0.0
 11
-14.468167
 21
10.920167
 31
0.0
  0
LINE
  8
1
  6
CONTINUOUS
 62
   241
  5
4E3
 10
-14.468167
 20
10.920167
 30
0.0
 11
-14.501667
 21
10.900833
 31
0.0
  0
LINE
  8
1
  6
CONTINUOUS
 62
   241
  5
4E4
 10
-14.501667
 20
10.900833
 30
0.0
 11
-14.468167
 21
10.881333
 31
0.0
  0
LINE
  8
1
  6
CONTINUOUS
 62
   241
  5
4E5
 10
-14.2185
 20
10.824083
 30
0.0
 11
-14.231833
 21
10.860583
 31
0.0
  0
LINE
  8
1
  6
CONTINUOUS
 62
   241
  5
4E6
 10
-14.231833
 20
10.860583
 30
0.0
 11
-14.256667
 21
10.830917
 31
0.0
  0
LINE
  8
1
  6
CONTINUOUS
 62
   241
  5
4E7
 10
-14.256667
 20
10.830917
 30
0.0
 11
-14.2185
 21
10.824083
 31
0.0
  0
LINE
  8
1
  6
CONTINUOUS
 62
   241
  5
4E8
 10
-14.130583
 20
10.6535
 30
0.0
 11
-14.168167
 21
10.6635
 31
0.0
  0
LINE
  8
1
  6
CONTINUOUS
 62
   241
  5
4E9
 10
-14.168167
 20
10.6635
 30
0.0
 11
-14.158083
 21
10.626083
 31
0.0
  0
LINE
  8
1
  6
CONTINUOUS
 62
   241
  5
4EA
 10
-14.158083
 20
10.626083
 30
0.0
 11
-14.130583
 21
10.6535
 31
0.0
  0
LINE
  8
1
  6
CONTINUOUS
 62
   241
  5
4EB
 10
-14.8315
 20
10.763167
 30
0.0
 11
-14.833333
 21
10.760917
 31
0.0
  0
LINE
  8
1
  6
CONTINUOUS
 62
   241
  5
4EC
 10
-14.833333
 20
10.729417
 30
0.0
 11
-14.818083
 21
10.72675
 31
0.0
  0
CIRCLE
  8
1
  6
CONTINUOUS
 62
   241
  5
4ED
 10
-14.723008
 20
10.613208
 30
0.0
 40
0.002157
210
0.0
220
0.0
230
1.0
  0
CIRCLE
  8
1
  6
CONTINUOUS
 62
   241
  5
4EE
 10
-14.592883
 20
10.880958
 30
0.0
 40
0.002157
210
0.0
220
0.0
230
1.0
  0
CIRCLE
  8
1
  6
CONTINUOUS
 62
   241
  5
4EF
 10
-14.488708
 20
10.639308
 30
0.0
 40
0.002157
210
0.0
220
0.0
230
1.0
  0
CIRCLE
  8
1
  6
CONTINUOUS
 62
   241
  5
4F0
 10
-14.254483
 20
10.605783
 30
0.0
 40
0.002157
210
0.0
220
0.0
230
1.0
  0
CIRCLE
  8
1
  6
CONTINUOUS
 62
   241
  5
4F1
 10
-14.213533
 20
10.933083
 30
0.0
 40
0.002157
210
0.0
220
0.0
230
1.0
  0
CIRCLE
  8
1
  6
CONTINUOUS
 62
   241
  5
4F2
 10
-14.347408
 20
10.795458
 30
0.0
 40
0.002157
210
0.0
220
0.0
230
1.0
  0
CIRCLE
  8
1
  6
CONTINUOUS
 62
   241
  5
4F3
 10
-14.775058
 20
10.802883
 30
0.0
 40
0.002157
210
0.0
220
0.0
230
1.0
  0
LINE
  8
1
  6
CONTINUOUS
 62
   241
  5
4F4
 10
-15.764583
 20
10.504167
 30
0.0
 11
-15.798083
 21
10.484833
 31
0.0
  0
LINE
  8
1
  6
CONTINUOUS
 62
   241
  5
4F5
 10
-15.801417
 20
10.72675
 30
0.0
 11
-15.814833
 21
10.763167
 31
0.0
  0
LINE
  8
1
  6
CONTINUOUS
 62
   241
  5
4F6
 10
-15.722667
 20
10.853167
 30
0.0
 11
-15.736083
 21
10.876333
 31
0.0
  0
LINE
  8
1
  6
CONTINUOUS
 62
   241
  5
4F7
 10
-15.74875
 20
10.875333
 30
0.0
 11
-15.761583
 21
10.853333
 31
0.0
  0
LINE
  8
1
  6
CONTINUOUS
 62
   241
  5
4F8
 10
-15.761583
 20
10.853333
 30
0.0
 11
-15.722667
 21
10.853167
 31
0.0
  0
LINE
  8
1
  6
CONTINUOUS
 62
   241
  5
4F9
 10
-15.580917
 20
10.723417
 30
0.0
 11
-15.614583
 21
10.742917
 31
0.0
  0
LINE
  8
1
  6
CONTINUOUS
 62
   241
  5
4FA
 10
-15.614583
 20
10.742917
 30
0.0
 11
-15.614583
 21
10.704083
 31
0.0
  0
LINE
  8
1
  6
CONTINUOUS
 62
   241
  5
4FB
 10
-15.614583
 20
10.704083
 30
0.0
 11
-15.580917
 21
10.723417
 31
0.0
  0
LINE
  8
1
  6
CONTINUOUS
 62
   241
  5
4FC
 10
-15.511667
 20
10.510917
 30
0.0
 11
-15.504917
 21
10.549083
 31
0.0
  0
LINE
  8
1
  6
CONTINUOUS
 62
   241
  5
4FD
 10
-15.504917
 20
10.549083
 30
0.0
 11
-15.541333
 21
10.535917
 31
0.0
  0
LINE
  8
1
  6
CONTINUOUS
 62
   241
  5
4FE
 10
-15.541333
 20
10.535917
 30
0.0
 11
-15.511667
 21
10.510917
 31
0.0
  0
LINE
  8
1
  6
CONTINUOUS
 62
   241
  5
4FF
 10
-15.378083
 20
10.724917
 30
0.0
 11
-15.41175
 21
10.744417
 31
0.0
  0
LINE
  8
1
  6
CONTINUOUS
 62
   241
  5
500
 10
-15.41175
 20
10.744417
 30
0.0
 11
-15.41175
 21
10.705583
 31
0.0
  0
LINE
  8
1
  6
CONTINUOUS
 62
   241
  5
501
 10
-15.41175
 20
10.705583
 30
0.0
 11
-15.378083
 21
10.724917
 31
0.0
  0
LINE
  8
1
  6
CONTINUOUS
 62
   241
  5
502
 10
-15.4515
 20
10.881333
 30
0.0
 11
-15.4515
 21
10.89975
 31
0.0
  0
LINE
  8
1
  6
CONTINUOUS
 62
   241
  5
503
 10
-15.47925
 20
10.8975
 30
0.0
 11
-15.4515
 21
10.881333
 31
0.0
  0
LINE
  8
1
  6
CONTINUOUS
 62
   241
  5
504
 10
-15.007167
 20
10.891333
 30
0.0
 11
-15.04475
 21
10.901333
 31
0.0
  0
LINE
  8
1
  6
CONTINUOUS
 62
   241
  5
505
 10
-15.04475
 20
10.901333
 30
0.0
 11
-15.03475
 21
10.863917
 31
0.0
  0
LINE
  8
1
  6
CONTINUOUS
 62
   241
  5
506
 10
-15.03475
 20
10.863917
 30
0.0
 11
-15.007167
 21
10.891333
 31
0.0
  0
LINE
  8
1
  6
CONTINUOUS
 62
   241
  5
507
 10
-15.201833
 20
10.824083
 30
0.0
 11
-15.215167
 21
10.860583
 31
0.0
  0
LINE
  8
1
  6
CONTINUOUS
 62
   241
  5
508
 10
-15.215167
 20
10.860583
 30
0.0
 11
-15.24
 21
10.830917
 31
0.0
  0
LINE
  8
1
  6
CONTINUOUS
 62
   241
  5
509
 10
-15.24
 20
10.830917
 30
0.0
 11
-15.201833
 21
10.824083
 31
0.0
  0
LINE
  8
1
  6
CONTINUOUS
 62
   241
  5
50A
 10
-15.113917
 20
10.6535
 30
0.0
 11
-15.1515
 21
10.6635
 31
0.0
  0
LINE
  8
1
  6
CONTINUOUS
 62
   241
  5
50B
 10
-15.1515
 20
10.6635
 30
0.0
 11
-15.141417
 21
10.626083
 31
0.0
  0
LINE
  8
1
  6
CONTINUOUS
 62
   241
  5
50C
 10
-15.141417
 20
10.626083
 30
0.0
 11
-15.113917
 21
10.6535
 31
0.0
  0
LINE
  8
1
  6
CONTINUOUS
 62
   241
  5
50D
 10
-14.984583
 20
10.535333
 30
0.0
 11
-14.984583
 21
10.541
 31
0.0
  0
LINE
  8
1
  6
CONTINUOUS
 62
   241
  5
50E
 10
-14.984583
 20
10.541
 30
0.0
 11
-14.99625
 21
10.534333
 31
0.0
  0
LINE
  8
1
  6
CONTINUOUS
 62
   241
  5
50F
 10
-15.814833
 20
10.763167
 30
0.0
 11
-15.816667
 21
10.760917
 31
0.0
  0
LINE
  8
1
  6
CONTINUOUS
 62
   241
  5
510
 10
-15.816667
 20
10.729417
 30
0.0
 11
-15.801417
 21
10.72675
 31
0.0
  0
LINE
  8
1
  6
CONTINUOUS
 62
   241
  5
511
 10
-14.916667
 20
10.760917
 30
0.0
 11
-14.939583
 21
10.733583
 31
0.0
  0
LINE
  8
1
  6
CONTINUOUS
 62
   241
  5
512
 10
-14.939583
 20
10.733583
 30
0.0
 11
-14.916667
 21
10.729417
 31
0.0
  0
LINE
  8
1
  6
CONTINUOUS
 62
   241
  5
513
 10
-14.916667
 20
10.760917
 30
0.0
 11
-14.939583
 21
10.733583
 31
0.0
  0
LINE
  8
1
  6
CONTINUOUS
 62
   241
  5
514
 10
-14.939583
 20
10.733583
 30
0.0
 11
-14.916667
 21
10.729417
 31
0.0
  0
LINE
  8
1
  6
CONTINUOUS
 62
   241
  5
515
 10
-15.764583
 20
10.478583
 30
0.0
 11
-15.764583
 21
10.504167
 31
0.0
  0
LINE
  8
1
  6
CONTINUOUS
 62
   241
  5
516
 10
-15.798083
 20
10.484833
 30
0.0
 11
-15.787333
 21
10.478583
 31
0.0
  0
CIRCLE
  8
1
  6
CONTINUOUS
 62
   241
  5
517
 10
-15.706342
 20
10.613208
 30
0.0
 40
0.002157
210
0.0
220
0.0
230
1.0
  0
CIRCLE
  8
1
  6
CONTINUOUS
 62
   241
  5
518
 10
-15.576217
 20
10.880958
 30
0.0
 40
0.002157
210
0.0
220
0.0
230
1.0
  0
CIRCLE
  8
1
  6
CONTINUOUS
 62
   241
  5
519
 10
-15.472042
 20
10.639308
 30
0.0
 40
0.002157
210
0.0
220
0.0
230
1.0
  0
CIRCLE
  8
1
  6
CONTINUOUS
 62
   241
  5
51A
 10
-15.237817
 20
10.605783
 30
0.0
 40
0.002157
210
0.0
220
0.0
230
1.0
  0
CIRCLE
  8
1
  6
CONTINUOUS
 62
   241
  5
51B
 10
-15.051817
 20
10.765683
 30
0.0
 40
0.002157
210
0.0
220
0.0
230
1.0
  0
CIRCLE
  8
1
  6
CONTINUOUS
 62
   241
  5
51C
 10
-14.970067
 20
10.609533
 30
0.0
 40
0.002157
210
0.0
220
0.0
230
1.0
  0
CIRCLE
  8
1
  6
CONTINUOUS
 62
   241
  5
51D
 10
-15.122542
 20
10.546308
 30
0.0
 40
0.002157
210
0.0
220
0.0
230
1.0
  0
CIRCLE
  8
1
  6
CONTINUOUS
 62
   241
  5
51E
 10
-15.330742
 20
10.795458
 30
0.0
 40
0.002157
210
0.0
220
0.0
230
1.0
  0
CIRCLE
  8
1
  6
CONTINUOUS
 62
   241
  5
51F
 10
-15.758392
 20
10.802883
 30
0.0
 40
0.002157
210
0.0
220
0.0
230
1.0
  0
CIRCLE
  8
1
  6
CONTINUOUS
 62
   241
  5
520
 10
-15.360517
 20
10.576083
 30
0.0
 40
0.002157
210
0.0
220
0.0
230
1.0
  0
LINE
  8
1
  6
CONTINUOUS
 62
   241
  5
521
 10
-16.747917
 20
10.504167
 30
0.0
 11
-16.781417
 21
10.484833
 31
0.0
  0
LINE
  8
1
  6
CONTINUOUS
 62
   241
  5
522
 10
-16.78475
 20
10.72675
 30
0.0
 11
-16.798167
 21
10.763167
 31
0.0
  0
LINE
  8
1
  6
CONTINUOUS
 62
   241
  5
523
 10
-16.56425
 20
10.723417
 30
0.0
 11
-16.597917
 21
10.742917
 31
0.0
  0
LINE
  8
1
  6
CONTINUOUS
 62
   241
  5
524
 10
-16.597917
 20
10.742917
 30
0.0
 11
-16.597917
 21
10.704083
 31
0.0
  0
LINE
  8
1
  6
CONTINUOUS
 62
   241
  5
525
 10
-16.597917
 20
10.704083
 30
0.0
 11
-16.56425
 21
10.723417
 31
0.0
  0
LINE
  8
1
  6
CONTINUOUS
 62
   241
  5
526
 10
-16.495
 20
10.510917
 30
0.0
 11
-16.48825
 21
10.549083
 31
0.0
  0
LINE
  8
1
  6
CONTINUOUS
 62
   241
  5
527
 10
-16.48825
 20
10.549083
 30
0.0
 11
-16.524667
 21
10.535917
 31
0.0
  0
LINE
  8
1
  6
CONTINUOUS
 62
   241
  5
528
 10
-16.524667
 20
10.535917
 30
0.0
 11
-16.495
 21
10.510917
 31
0.0
  0
LINE
  8
1
  6
CONTINUOUS
 62
   241
  5
529
 10
-16.361417
 20
10.724917
 30
0.0
 11
-16.395083
 21
10.744417
 31
0.0
  0
LINE
  8
1
  6
CONTINUOUS
 62
   241
  5
52A
 10
-16.395083
 20
10.744417
 30
0.0
 11
-16.395083
 21
10.705583
 31
0.0
  0
LINE
  8
1
  6
CONTINUOUS
 62
   241
  5
52B
 10
-16.395083
 20
10.705583
 30
0.0
 11
-16.361417
 21
10.724917
 31
0.0
  0
LINE
  8
1
  6
CONTINUOUS
 62
   241
  5
52C
 10
-16.185167
 20
10.824083
 30
0.0
 11
-16.190583
 21
10.839
 31
0.0
  0
LINE
  8
1
  6
CONTINUOUS
 62
   241
  5
52D
 10
-16.2185
 20
10.83675
 30
0.0
 11
-16.223333
 21
10.830917
 31
0.0
  0
LINE
  8
1
  6
CONTINUOUS
 62
   241
  5
52E
 10
-16.223333
 20
10.830917
 30
0.0
 11
-16.185167
 21
10.824083
 31
0.0
  0
LINE
  8
1
  6
CONTINUOUS
 62
   241
  5
52F
 10
-16.09725
 20
10.6535
 30
0.0
 11
-16.134833
 21
10.6635
 31
0.0
  0
LINE
  8
1
  6
CONTINUOUS
 62
   241
  5
530
 10
-16.134833
 20
10.6635
 30
0.0
 11
-16.12475
 21
10.626083
 31
0.0
  0
LINE
  8
1
  6
CONTINUOUS
 62
   241
  5
531
 10
-16.12475
 20
10.626083
 30
0.0
 11
-16.09725
 21
10.6535
 31
0.0
  0
LINE
  8
1
  6
CONTINUOUS
 62
   241
  5
532
 10
-15.967917
 20
10.502167
 30
0.0
 11
-15.967917
 21
10.541
 31
0.0
  0
LINE
  8
1
  6
CONTINUOUS
 62
   241
  5
533
 10
-15.967917
 20
10.541
 30
0.0
 11
-16.0015
 21
10.521667
 31
0.0
  0
LINE
  8
1
  6
CONTINUOUS
 62
   241
  5
534
 10
-16.0015
 20
10.521667
 30
0.0
 11
-15.967917
 21
10.502167
 31
0.0
  0
LINE
  8
1
  6
CONTINUOUS
 62
   241
  5
535
 10
-16.798167
 20
10.763167
 30
0.0
 11
-16.8
 21
10.760917
 31
0.0
  0
LINE
  8
1
  6
CONTINUOUS
 62
   241
  5
536
 10
-16.8
 20
10.729417
 30
0.0
 11
-16.78475
 21
10.72675
 31
0.0
  0
LINE
  8
1
  6
CONTINUOUS
 62
   241
  5
537
 10
-15.9
 20
10.760917
 30
0.0
 11
-15.922917
 21
10.733583
 31
0.0
  0
LINE
  8
1
  6
CONTINUOUS
 62
   241
  5
538
 10
-15.922917
 20
10.733583
 30
0.0
 11
-15.9
 21
10.729417
 31
0.0
  0
LINE
  8
1
  6
CONTINUOUS
 62
   241
  5
539
 10
-15.9
 20
10.760917
 30
0.0
 11
-15.922917
 21
10.733583
 31
0.0
  0
LINE
  8
1
  6
CONTINUOUS
 62
   241
  5
53A
 10
-15.922917
 20
10.733583
 30
0.0
 11
-15.9
 21
10.729417
 31
0.0
  0
LINE
  8
1
  6
CONTINUOUS
 62
   241
  5
53B
 10
-16.747917
 20
10.478583
 30
0.0
 11
-16.747917
 21
10.504167
 31
0.0
  0
LINE
  8
1
  6
CONTINUOUS
 62
   241
  5
53C
 10
-16.781417
 20
10.484833
 30
0.0
 11
-16.770667
 21
10.478583
 31
0.0
  0
LINE
  8
1
  6
CONTINUOUS
 62
   241
  5
53D
 10
-16.242333
 20
10.478583
 30
0.0
 11
-16.25725
 21
10.504333
 31
0.0
  0
LINE
  8
1
  6
CONTINUOUS
 62
   241
  5
53E
 10
-16.25725
 20
10.504333
 30
0.0
 11
-16.272167
 21
10.478583
 31
0.0
  0
CIRCLE
  8
1
  6
CONTINUOUS
 62
   241
  5
53F
 10
-16.689675
 20
10.613208
 30
0.0
 40
0.002157
210
0.0
220
0.0
230
1.0
  0
CIRCLE
  8
1
  6
CONTINUOUS
 62
   241
  5
540
 10
-16.455375
 20
10.639308
 30
0.0
 40
0.002157
210
0.0
220
0.0
230
1.0
  0
CIRCLE
  8
1
  6
CONTINUOUS
 62
   241
  5
541
 10
-16.22115
 20
10.605783
 30
0.0
 40
0.002157
210
0.0
220
0.0
230
1.0
  0
CIRCLE
  8
1
  6
CONTINUOUS
 62
   241
  5
542
 10
-16.03515
 20
10.765683
 30
0.0
 40
0.002157
210
0.0
220
0.0
230
1.0
  0
CIRCLE
  8
1
  6
CONTINUOUS
 62
   241
  5
543
 10
-15.9534
 20
10.609533
 30
0.0
 40
0.002157
210
0.0
220
0.0
230
1.0
  0
CIRCLE
  8
1
  6
CONTINUOUS
 62
   241
  5
544
 10
-16.105875
 20
10.546308
 30
0.0
 40
0.002157
210
0.0
220
0.0
230
1.0
  0
CIRCLE
  8
1
  6
CONTINUOUS
 62
   241
  5
545
 10
-16.314075
 20
10.795458
 30
0.0
 40
0.002157
210
0.0
220
0.0
230
1.0
  0
CIRCLE
  8
1
  6
CONTINUOUS
 62
   241
  5
546
 10
-16.34385
 20
10.576083
 30
0.0
 40
0.002157
210
0.0
220
0.0
230
1.0
  0
LINE
  8
1
  6
CONTINUOUS
 62
   241
  5
547
 10
-17.73125
 20
10.504167
 30
0.0
 11
-17.76475
 21
10.484833
 31
0.0
  0
LINE
  8
1
  6
CONTINUOUS
 62
   241
  5
548
 10
-17.547583
 20
10.723417
 30
0.0
 11
-17.553667
 21
10.726917
 31
0.0
  0
LINE
  8
1
  6
CONTINUOUS
 62
   241
  5
549
 10
-17.58125
 20
10.724667
 30
0.0
 11
-17.58125
 21
10.704083
 31
0.0
  0
LINE
  8
1
  6
CONTINUOUS
 62
   241
  5
54A
 10
-17.58125
 20
10.704083
 30
0.0
 11
-17.547583
 21
10.723417
 31
0.0
  0
LINE
  8
1
  6
CONTINUOUS
 62
   241
  5
54B
 10
-17.478333
 20
10.510917
 30
0.0
 11
-17.471583
 21
10.549083
 31
0.0
  0
LINE
  8
1
  6
CONTINUOUS
 62
   241
  5
54C
 10
-17.471583
 20
10.549083
 30
0.0
 11
-17.508
 21
10.535917
 31
0.0
  0
LINE
  8
1
  6
CONTINUOUS
 62
   241
  5
54D
 10
-17.508
 20
10.535917
 30
0.0
 11
-17.478333
 21
10.510917
 31
0.0
  0
LINE
  8
1
  6
CONTINUOUS
 62
   241
  5
54E
 10
-17.34475
 20
10.724917
 30
0.0
 11
-17.37375
 21
10.74175
 31
0.0
  0
LINE
  8
1
  6
CONTINUOUS
 62
   241
  5
54F
 10
-17.378417
 20
10.741333
 30
0.0
 11
-17.378417
 21
10.705583
 31
0.0
  0
LINE
  8
1
  6
CONTINUOUS
 62
   241
  5
550
 10
-17.378417
 20
10.705583
 30
0.0
 11
-17.34475
 21
10.724917
 31
0.0
  0
LINE
  8
1
  6
CONTINUOUS
 62
   241
  5
551
 10
-17.080583
 20
10.6535
 30
0.0
 11
-17.118167
 21
10.6635
 31
0.0
  0
LINE
  8
1
  6
CONTINUOUS
 62
   241
  5
552
 10
-17.118167
 20
10.6635
 30
0.0
 11
-17.108083
 21
10.626083
 31
0.0
  0
LINE
  8
1
  6
CONTINUOUS
 62
   241
  5
553
 10
-17.108083
 20
10.626083
 30
0.0
 11
-17.080583
 21
10.6535
 31
0.0
  0
LINE
  8
1
  6
CONTINUOUS
 62
   241
  5
554
 10
-16.95125
 20
10.502167
 30
0.0
 11
-16.95125
 21
10.541
 31
0.0
  0
LINE
  8
1
  6
CONTINUOUS
 62
   241
  5
555
 10
-16.95125
 20
10.541
 30
0.0
 11
-16.984833
 21
10.521667
 31
0.0
  0
LINE
  8
1
  6
CONTINUOUS
 62
   241
  5
556
 10
-16.984833
 20
10.521667
 30
0.0
 11
-16.95125
 21
10.502167
 31
0.0
  0
LINE
  8
1
  6
CONTINUOUS
 62
   241
  5
557
 10
-16.883333
 20
10.760917
 30
0.0
 11
-16.90625
 21
10.733583
 31
0.0
  0
LINE
  8
1
  6
CONTINUOUS
 62
   241
  5
558
 10
-16.90625
 20
10.733583
 30
0.0
 11
-16.883333
 21
10.729417
 31
0.0
  0
LINE
  8
1
  6
CONTINUOUS
 62
   241
  5
559
 10
-16.883333
 20
10.760917
 30
0.0
 11
-16.90625
 21
10.733583
 31
0.0
  0
LINE
  8
1
  6
CONTINUOUS
 62
   241
  5
55A
 10
-16.90625
 20
10.733583
 30
0.0
 11
-16.883333
 21
10.729417
 31
0.0
  0
LINE
  8
1
  6
CONTINUOUS
 62
   241
  5
55B
 10
-17.73125
 20
10.478583
 30
0.0
 11
-17.73125
 21
10.504167
 31
0.0
  0
LINE
  8
1
  6
CONTINUOUS
 62
   241
  5
55C
 10
-17.76475
 20
10.484833
 30
0.0
 11
-17.754
 21
10.478583
 31
0.0
  0
LINE
  8
1
  6
CONTINUOUS
 62
   241
  5
55D
 10
-17.225667
 20
10.478583
 30
0.0
 11
-17.240583
 21
10.504333
 31
0.0
  0
LINE
  8
1
  6
CONTINUOUS
 62
   241
  5
55E
 10
-17.240583
 20
10.504333
 30
0.0
 11
-17.2555
 21
10.478583
 31
0.0
  0
CIRCLE
  8
1
  6
CONTINUOUS
 62
   241
  5
55F
 10
-17.673008
 20
10.613208
 30
0.0
 40
0.002157
210
0.0
220
0.0
230
1.0
  0
CIRCLE
  8
1
  6
CONTINUOUS
 62
   241
  5
560
 10
-17.438708
 20
10.639308
 30
0.0
 40
0.002157
210
0.0
220
0.0
230
1.0
  0
CIRCLE
  8
1
  6
CONTINUOUS
 62
   241
  5
561
 10
-17.204483
 20
10.605783
 30
0.0
 40
0.002157
210
0.0
220
0.0
230
1.0
  0
CIRCLE
  8
1
  6
CONTINUOUS
 62
   241
  5
562
 10
-17.018483
 20
10.765683
 30
0.0
 40
0.002157
210
0.0
220
0.0
230
1.0
  0
CIRCLE
  8
1
  6
CONTINUOUS
 62
   241
  5
563
 10
-16.936733
 20
10.609533
 30
0.0
 40
0.002157
210
0.0
220
0.0
230
1.0
  0
CIRCLE
  8
1
  6
CONTINUOUS
 62
   241
  5
564
 10
-17.089208
 20
10.546308
 30
0.0
 40
0.002157
210
0.0
220
0.0
230
1.0
  0
CIRCLE
  8
1
  6
CONTINUOUS
 62
   241
  5
565
 10
-17.327183
 20
10.576083
 30
0.0
 40
0.002157
210
0.0
220
0.0
230
1.0
  0
TEXT
  8
1
  6
CONTINUOUS
 62
     2
  5
566
 10
-20.535583
 20
8.912083
 30
0.0
 40
0.2
  1
Typical Ramp Section
  7
ROMANS
210
0.0
220
0.0
230
1.0
  0
INSERT
  8
1
  6
CONTINUOUS
 62
     2
  5
56B
  2
ARROW
 10
-17.718417
 20
10.714917
 30
0.0
 41
1.000001
 42
1.000001
 50
184.432572
210
0.0
220
0.0
230
1.0
  0
INSERT
  8
1
  6
CONTINUOUS
 62
     2
  5
579
  2
*D1
 10
-17.205333
 20
10.758417
 30
0.0
 70
     0
 71
     0
  0
TEXT
  8
1
  6
CONTINUOUS
 62
     2
  5
57A
 10
-20.248333
 20
10.345083
 30
0.0
 40
0.12
  1
Ramp Slope
 50
4.367008
  7
ROMANS
 11
-20.257471
 21
10.464735
 31
0.0
210
0.0
220
0.0
230
1.0
 73
     3
  0
TEXT
  8
1
  6
CONTINUOUS
 62
     2
  5
57B
 10
-20.644917
 20
10.545167
 30
0.0
 40
0.12
  1
12:1 Slope (Max.)
 50
4.367008
  7
ROMANS
210
0.0
220
0.0
230
1.0
  0
INSERT
  8
1
  6
CONTINUOUS
 62
     2
  5
587
  2
*D2
 10
-21.350917
 20
10.138167
 30
0.0
 70
     0
 71
     0
  0
TEXT
  8
1
  6
CONTINUOUS
 62
     2
  5
588
 10
-26.067583
 20
10.401667
 30
0.0
 40
0.12
  1
Pavement type
  7
ROMANS
210
0.0
220
0.0
230
1.0
  0
TEXT
  8
1
  6
CONTINUOUS
 62
     2
  5
589
 10
-26.106083
 20
10.209333
 30
0.0
 40
0.12
  1
& thickness as
  7
ROMANS
210
0.0
220
0.0
230
1.0
  0
TEXT
  8
1
  6
CONTINUOUS
 62
     2
  5
58A
 10
-26.048417
 20
10.0555
 30
0.0
 40
0.12
  1
shown on plans
  7
ROMANS
210
0.0
220
0.0
230
1.0
  0
LINE
  8
1
  6
CONTINUOUS
 62
     2
  5
58B
 10
-24.077833
 20
10.613833
 30
0.0
 11
-24.529667
 21
10.613167
 31
0.0
  0
LINE
  8
1
  6
CONTINUOUS
 62
     2
  5
58C
 10
-24.116333
 20
9.98725
 30
0.0
 11
-24.577667
 21
9.988167
 31
0.0
  0
LINE
  8
1
  6
CONTINUOUS
 62
     2
  5
58D
 10
-24.289333
 20
10.5555
 30
0.0
 11
-24.289333
 21
10.0555
 31
0.0
  0
INSERT
  8
1
  6
CONTINUOUS
 62
     2
  5
58E
  2
ARROW
 10
-24.289333
 20
10.5555
 30
0.0
 50
90.0
210
0.0
220
0.0
230
1.0
  0
INSERT
  8
1
  6
CONTINUOUS
 62
     2
  5
58F
  2
ARROW
 10
-24.289333
 20
10.0555
 30
0.0
 50
270.0
210
0.0
220
0.0
230
1.0
  0
INSERT
  8
1
  6
CONTINUOUS
 62
     2
  5
590
  2
ARROW
 10
-24.289333
 20
10.5555
 30
0.0
 50
90.0
210
0.0
220
0.0
230
1.0
  0
LINE
  8
1
  6
CONTINUOUS
 62
     2
  5
591
 10
-24.0005
 20
9.987
 30
0.0
 11
-23.999667
 21
10.15475
 31
0.0
  0
LINE
  8
1
  6
CONTINUOUS
 62
     2
  5
592
 10
-21.532333
 20
10.421667
 30
0.0
 11
-21.530583
 21
11.776667
 31
0.0
  0
INSERT
  8
1
  6
CONTINUOUS
 62
     2
  5
59E
  2
*D3
 10
-21.520917
 20
11.392083
 30
0.0
 70
     0
 71
     0
  0
INSERT
  8
1
  6
CONTINUOUS
 62
     2
  5
5AA
  2
*D4
 10
-21.396
 20
10.920917
 30
0.0
 70
     0
 71
     0
  0
LINE
  8
1
  6
CONTINUOUS
 62
     2
  5
5AB
 10
-13.97525
 20
10.995
 30
0.0
 11
-13.592917
 21
10.997083
 31
0.0
  0
LINE
  8
1
  6
CONTINUOUS
 62
     2
  5
5AC
 10
-13.97525
 20
10.596167
 30
0.0
 11
-13.59075
 21
10.594667
 31
0.0
  0
LINE
  8
1
  6
CONTINUOUS
 62
     2
  5
5AD
 10
-13.811833
 20
10.969
 30
0.0
 11
-13.811833
 21
10.632417
 31
0.0
  0
INSERT
  8
1
  6
CONTINUOUS
 62
     2
  5
5AE
  2
ARROW
 10
-13.811833
 20
10.969
 30
0.0
 50
90.0
210
0.0
220
0.0
230
1.0
  0
INSERT
  8
1
  6
CONTINUOUS
 62
     2
  5
5AF
  2
ARROW
 10
-13.811833
 20
10.632417
 30
0.0
 50
270.0
210
0.0
220
0.0
230
1.0
  0
TEXT
  8
1
  6
CONTINUOUS
 62
     2
  5
5B0
 10
-13.67725
 20
10.8055
 30
0.0
 40
0.12
  1
4" or as called
  7
ROMANS
210
0.0
220
0.0
230
1.0
  0
TEXT
  8
1
  6
CONTINUOUS
 62
     2
  5
5B1
 10
-13.658
 20
10.642083
 30
0.0
 40
0.12
  1
on plans
  7
ROMANS
210
0.0
220
0.0
230
1.0
  0
LINE
  8
1
  6
CONTINUOUS
 62
   215
  5
5B2
 10
-22.239083
 20
3.110417
 30
0.0
 11
-21.6795
 21
3.4335
 31
0.0
  0
LINE
  8
1
  6
CONTINUOUS
 62
   215
  5
5B3
 10
-25.25925
 20
4.554583
 30
0.0
 11
-24.22625
 21
5.151083
 31
0.0
  0
LINE
  8
1
  6
CONTINUOUS
 62
   215
  5
5B4
 10
-22.456167
 20
2.689083
 30
0.0
 11
-26.67675
 21
5.125833
 31
0.0
  0
LINE
  8
1
  6
CONTINUOUS
 62
   215
  5
5B5
 10
-24.22625
 20
5.151083
 30
0.0
 11
-25.99375
 21
6.1715
 31
0.0
  0
LINE
  8
1
  6
CONTINUOUS
 62
   215
  5
5B6
 10
-23.700583
 20
3.4075
 30
0.0
 11
-25.25925
 21
4.554583
 31
0.0
  0
LINE
  8
1
  6
CONTINUOUS
 62
   215
  5
5B7
 10
-25.25925
 20
4.554583
 30
0.0
 11
-26.569667
 21
5.311167
 31
0.0
  0
LINE
  8
1
  6
CONTINUOUS
 62
   215
  5
5B8
 10
-23.571417
 20
3.482083
 30
0.0
 11
-25.130083
 21
4.629167
 31
0.0
  0
LINE
  8
1
  6
CONTINUOUS
 62
   215
  5
5B9
 10
-25.130083
 20
4.629167
 30
0.0
 11
-26.505
 21
5.423
 31
0.0
  0
LINE
  8
1
  6
CONTINUOUS
 62
   215
  5
5BA
 10
-22.325667
 20
2.762833
 30
0.0
 11
-23.571417
 21
3.482083
 31
0.0
  0
LINE
  8
1
  6
CONTINUOUS
 62
   215
  5
5BB
 10
-23.700583
 20
3.4075
 30
0.0
 11
-22.667583
 21
4.099917
 31
0.0
  0
LINE
  8
1
  6
CONTINUOUS
 62
   215
  5
5BC
 10
-21.6795
 20
3.4335
 30
0.0
 11
-24.22625
 21
5.151083
 31
0.0
  0
LINE
  8
1
  6
CONTINUOUS
 62
   215
  5
5BD
 10
-22.174417
 20
2.9985
 30
0.0
 11
-21.655
 21
3.298417
 31
0.0
  0
ARC
  8
1
  6
CONTINUOUS
 62
   215
  5
5BE
 10
-22.152488
 20
2.960584
 30
0.0
 40
0.0438
 50
120.002258
 51
239.998842
210
0.0
220
0.0
230
1.0
  0
ARC
  8
1
  6
CONTINUOUS
 62
   215
  5
5BF
 10
-21.633122
 20
3.26045
 30
0.0
 40
0.0438
 50
90.0
 51
119.990083
210
0.0
220
0.0
230
1.0
  0
ARC
  8
1
  6
CONTINUOUS
 62
   215
  5
5C0
 10
-22.152557
 20
2.960599
 30
0.0
 40
0.173
 50
120.008008
 51
239.997031
210
0.0
220
0.0
230
1.0
  0
LINE
  8
1
  6
CONTINUOUS
 62
   215
  5
5C1
 10
-22.325667
 20
2.713583
 30
0.0
 11
-22.325667
 21
2.96225
 31
0.0
  0
ARC
  8
1
  6
CONTINUOUS
 62
   215
  5
5C2
 10
-22.152667
 20
2.713572
 30
0.0
 40
0.173
 50
180.0
 51
224.4896
210
0.0
220
0.0
230
1.0
  0
LINE
  8
1
  6
CONTINUOUS
 62
   215
  5
5C3
 10
-19.333083
 20
3.110417
 30
0.0
 11
-19.892667
 21
3.4335
 31
0.0
  0
LINE
  8
1
  6
CONTINUOUS
 62
   215
  5
5C4
 10
-16.312917
 20
4.554583
 30
0.0
 11
-17.345917
 21
5.151083
 31
0.0
  0
LINE
  8
1
  6
CONTINUOUS
 62
   215
  5
5C5
 10
-19.115917
 20
2.689083
 30
0.0
 11
-14.895417
 21
5.125833
 31
0.0
  0
LINE
  8
1
  6
CONTINUOUS
 62
   215
  5
5C6
 10
-17.345917
 20
5.151083
 30
0.0
 11
-15.578417
 21
6.1715
 31
0.0
  0
LINE
  8
1
  6
CONTINUOUS
 62
   215
  5
5C7
 10
-17.871583
 20
3.4075
 30
0.0
 11
-16.312917
 21
4.554583
 31
0.0
  0
LINE
  8
1
  6
CONTINUOUS
 62
   215
  5
5C8
 10
-16.312917
 20
4.554583
 30
0.0
 11
-15.0025
 21
5.311167
 31
0.0
  0
LINE
  8
1
  6
CONTINUOUS
 62
   215
  5
5C9
 10
-18.00075
 20
3.482083
 30
0.0
 11
-16.442083
 21
4.629167
 31
0.0
  0
LINE
  8
1
  6
CONTINUOUS
 62
   215
  5
5CA
 10
-16.442083
 20
4.629167
 30
0.0
 11
-15.067167
 21
5.423
 31
0.0
  0
LINE
  8
1
  6
CONTINUOUS
 62
   215
  5
5CB
 10
-19.2465
 20
2.762833
 30
0.0
 11
-18.00075
 21
3.482083
 31
0.0
  0
LINE
  8
1
  6
CONTINUOUS
 62
   215
  5
5CC
 10
-17.871583
 20
3.4075
 30
0.0
 11
-18.904583
 21
4.099917
 31
0.0
  0
LINE
  8
1
  6
CONTINUOUS
 62
   215
  5
5CD
 10
-19.892667
 20
3.4335
 30
0.0
 11
-17.345917
 21
5.151083
 31
0.0
  0
LINE
  8
1
  6
CONTINUOUS
 62
   215
  5
5CE
 10
-19.39775
 20
2.9985
 30
0.0
 11
-19.917167
 21
3.298417
 31
0.0
  0
ARC
  8
1
  6
CONTINUOUS
 62
   215
  5
5CF
 10
-19.419679
 20
2.960584
 30
0.0
 40
0.0438
 50
300.001158
 51
59.997742
210
0.0
220
0.0
230
1.0
  0
ARC
  8
1
  6
CONTINUOUS
 62
   215
  5
5D0
 10
-19.939044
 20
3.26045
 30
0.0
 40
0.0438
 50
60.009917
 51
90.0
210
0.0
220
0.0
230
1.0
  0
ARC
  8
1
  6
CONTINUOUS
 62
   215
  5
5D1
 10
-19.419609
 20
2.960599
 30
0.0
 40
0.173
 50
300.002969
 51
59.991992
210
0.0
220
0.0
230
1.0
  0
LINE
  8
1
  6
CONTINUOUS
 62
   215
  5
5D2
 10
-19.2465
 20
2.713583
 30
0.0
 11
-19.2465
 21
2.96225
 31
0.0
  0
ARC
  8
1
  6
CONTINUOUS
 62
   215
  5
5D3
 10
-19.4195
 20
2.713572
 30
0.0
 40
0.173
 50
315.458781
 51
0.0
210
0.0
220
0.0
230
1.0
  0
ARC
  8
1
  6
CONTINUOUS
 62
   215
  5
5D4
 10
-20.786026
 20
5.58154
 30
0.0
 40
3.34
 50
239.996831
 51
300.001481
210
0.0
220
0.0
230
1.0
  0
ARC
  8
1
  6
CONTINUOUS
 62
   215
  5
5D5
 10
-20.786132
 20
5.581104
 30
0.0
 40
3.1257
 50
242.460858
 51
297.540822
210
0.0
220
0.0
230
1.0
  0
ARC
  8
1
  6
CONTINUOUS
 62
   215
  5
5D6
 10
-20.786057
 20
5.585185
 30
0.0
 40
3.0
 50
242.497414
 51
297.501672
210
0.0
220
0.0
230
1.0
  0
LINE
  8
1
  6
CONTINUOUS
 62
   215
  5
5D7
 10
-24.853333
 20
4.541833
 30
0.0
 11
-24.1435
 21
4.951667
 31
0.0
  0
LINE
  8
1
  6
CONTINUOUS
 62
   215
  5
5D8
 10
-16.727417
 20
4.546833
 30
0.0
 11
-17.4355
 21
4.955667
 31
0.0
  0
LINE
  8
1
  6
CONTINUOUS
 62
   215
  5
5D9
 10
-19.652083
 20
3.4
 30
0.0
 11
-18.867333
 21
3.929333
 31
0.0
  0
LINE
  8
1
  6
CONTINUOUS
 62
   215
  5
5DA
 10
-24.665083
 20
4.403333
 30
0.0
 11
-23.946083
 21
4.8185
 31
0.0
  0
LINE
  8
1
  6
CONTINUOUS
 62
   215
  5
5DB
 10
-24.477
 20
4.264833
 30
0.0
 11
-23.748667
 21
4.685417
 31
0.0
  0
LINE
  8
1
  6
CONTINUOUS
 62
   215
  5
5DC
 10
-23.9125
 20
3.849417
 30
0.0
 11
-23.1565
 21
4.286
 31
0.0
  0
LINE
  8
1
  6
CONTINUOUS
 62
   215
  5
5DD
 10
-23.724333
 20
3.710917
 30
0.0
 11
-22.959083
 21
4.152833
 31
0.0
  0
LINE
  8
1
  6
CONTINUOUS
 62
   215
  5
5DE
 10
-19.07625
 20
3.014
 30
0.0
 11
-18.291417
 21
3.543333
 31
0.0
  0
LINE
  8
1
  6
CONTINUOUS
 62
   215
  5
5DF
 10
-22.52
 20
3.018
 30
0.0
 11
-23.309917
 21
3.550667
 31
0.0
  0
LINE
  8
1
  6
CONTINUOUS
 62
   215
  5
5E0
 10
-16.915583
 20
4.408333
 30
0.0
 11
-17.632917
 21
4.822583
 31
0.0
  0
LINE
  8
1
  6
CONTINUOUS
 62
   215
  5
5E1
 10
-17.668167
 20
3.8545
 30
0.0
 11
-18.4225
 21
4.290083
 31
0.0
  0
LINE
  8
1
  6
CONTINUOUS
 62
   215
  5
5E2
 10
-17.856417
 20
3.716
 30
0.0
 11
-18.619917
 21
4.156917
 31
0.0
  0
LINE
  8
1
  6
CONTINUOUS
 62
   215
  5
5E3
 10
-19.85525
 20
2.941417
 30
0.0
 11
-19.940583
 21
3.280583
 31
0.0
  0
LINE
  8
1
  6
CONTINUOUS
 62
   215
  5
5E4
 10
-19.85525
 20
2.941417
 30
0.0
 11
-20.16375
 21
2.785667
 31
0.0
  0
LINE
  8
1
  6
CONTINUOUS
 62
   215
  5
5E5
 10
-19.940583
 20
3.280583
 30
0.0
 11
-20.16375
 21
3.167917
 31
0.0
  0
LINE
  8
1
  6
CONTINUOUS
 62
   215
  5
5E6
 10
-19.940583
 20
3.280583
 30
0.0
 11
-20.055417
 21
3.338583
 31
0.0
  0
LINE
  8
1
  6
CONTINUOUS
 62
   215
  5
5E7
 10
-20.47225
 20
2.941417
 30
0.0
 11
-20.386917
 21
3.280583
 31
0.0
  0
LINE
  8
1
  6
CONTINUOUS
 62
   215
  5
5E8
 10
-20.47225
 20
2.941417
 30
0.0
 11
-20.16375
 21
2.785667
 31
0.0
  0
LINE
  8
1
  6
CONTINUOUS
 62
   215
  5
5E9
 10
-20.386917
 20
3.280583
 30
0.0
 11
-20.16375
 21
3.167917
 31
0.0
  0
LINE
  8
1
  6
CONTINUOUS
 62
   215
  5
5EA
 10
-20.386917
 20
3.280583
 30
0.0
 11
-20.272083
 21
3.338583
 31
0.0
  0
LINE
  8
1
  6
CONTINUOUS
 62
   215
  5
5EB
 10
-20.16375
 20
2.785667
 30
0.0
 11
-20.16375
 21
3.167917
 31
0.0
  0
ARC
  8
1
  6
CONTINUOUS
 62
   215
  5
5EC
 10
-20.16375
 20
3.464141
 30
0.0
 40
0.213142
 50
239.451447
 51
300.548556
210
0.0
220
0.0
230
1.0
  0
ARC
  8
1
  6
CONTINUOUS
 62
   215
  5
5ED
 10
-20.206969
 20
3.520055
 30
0.0
 40
0.083663
 50
48.623108
 51
139.849683
210
0.0
220
0.0
230
1.0
  0
ARC
  8
1
  6
CONTINUOUS
 62
   215
  5
5EE
 10
-20.108968
 20
3.64738
 30
0.0
 40
0.077391
 50
236.514297
 51
305.448067
210
0.0
220
0.0
230
1.0
  0
ARC
  8
1
  6
CONTINUOUS
 62
   215
  5
5EF
 10
-20.067926
 20
3.596545
 30
0.0
 40
0.012802
 50
287.467975
 51
92.569775
210
0.0
220
0.0
230
1.0
  0
ARC
  8
1
  6
CONTINUOUS
 62
   215
  5
5F0
 10
-20.062085
 20
3.402237
 30
0.0
 40
0.207196
 50
91.774144
 51
117.212214
210
0.0
220
0.0
230
1.0
  0
LINE
  8
1
  6
CONTINUOUS
 62
   215
  5
5F1
 10
-20.055417
 20
3.280583
 30
0.0
 11
-20.055417
 21
3.597917
 31
0.0
  0
LINE
  8
1
  6
CONTINUOUS
 62
   215
  5
5F2
 10
-20.055417
 20
4.078333
 30
0.0
 11
-20.055417
 21
6.431
 31
0.0
  0
LINE
  8
1
  6
CONTINUOUS
 62
   215
  5
5F3
 10
-20.272083
 20
3.280583
 30
0.0
 11
-20.272083
 21
3.573667
 31
0.0
  0
LINE
  8
1
  6
CONTINUOUS
 62
   215
  5
5F4
 10
-20.272083
 20
4.05625
 30
0.0
 11
-20.272083
 21
6.431
 31
0.0
  0
ARC
  8
1
  6
CONTINUOUS
 62
   215
  5
5F5
 10
-20.119948
 20
4.133195
 30
0.0
 40
0.083663
 50
228.623108
 51
319.849683
210
0.0
220
0.0
230
1.0
  0
ARC
  8
1
  6
CONTINUOUS
 62
   215
  5
5F6
 10
-20.217949
 20
4.00587
 30
0.0
 40
0.077391
 50
56.514297
 51
125.448067
210
0.0
220
0.0
230
1.0
  0
ARC
  8
1
  6
CONTINUOUS
 62
   215
  5
5F7
 10
-20.258991
 20
4.056705
 30
0.0
 40
0.012802
 50
107.467975
 51
272.569775
210
0.0
220
0.0
230
1.0
  0
ARC
  8
1
  6
CONTINUOUS
 62
   215
  5
5F8
 10
-20.264831
 20
4.251013
 30
0.0
 40
0.207196
 50
271.774144
 51
297.212214
210
0.0
220
0.0
230
1.0
  0
LINE
  8
1
  6
CONTINUOUS
 62
   215
  5
5F9
 10
-21.633083
 20
3.30425
 30
0.0
 11
-20.340083
 21
3.30425
 31
0.0
  0
LINE
  8
1
  6
CONTINUOUS
 62
   215
  5
5FA
 10
-19.987417
 20
3.30425
 30
0.0
 11
-19.939083
 21
3.30425
 31
0.0
  0
LINE
  8
1
  6
CONTINUOUS
 62
   215
  5
5FB
 10
-21.6795
 20
3.4335
 30
0.0
 11
-20.272083
 21
3.4335
 31
0.0
  0
LINE
  8
1
  6
CONTINUOUS
 62
   215
  5
5FC
 10
-20.055417
 20
3.4335
 30
0.0
 11
-19.892667
 21
3.4335
 31
0.0
  0
LINE
  8
1
  6
CONTINUOUS
 62
   215
  5
5FD
 10
-19.340833
 20
2.809583
 30
0.0
 11
-19.333083
 21
2.81075
 31
0.0
  0
LINE
  8
1
  6
CONTINUOUS
 62
   215
  5
5FE
 10
-24.22625
 20
5.151083
 30
0.0
 11
-20.272083
 21
5.151083
 31
0.0
  0
LINE
  8
1
  6
CONTINUOUS
 62
   215
  5
5FF
 10
-20.055417
 20
5.151083
 30
0.0
 11
-17.381667
 21
5.151083
 31
0.0
  0
TEXT
  8
1
  6
CONTINUOUS
 62
     2
  5
600
 10
-39.45775
 20
3.074167
 30
0.0
 40
0.2
  1
Type VI RAMP
  7
ROMANS
210
0.0
220
0.0
230
1.0
  0
TEXT
  8
1
  6
CONTINUOUS
 62
     2
  5
601
 10
-39.472333
 20
10.025333
 30
0.0
 40
0.2
  1
Type VI RAMP
  7
ROMANS
210
0.0
220
0.0
230
1.0
  0
TEXT
  8
1
  6
CONTINUOUS
 62
     2
  5
602
 10
-30.197417
 20
9.938083
 30
0.0
 40
0.2
  1
Type IV RAMP
  7
ROMANS
210
0.0
220
0.0
230
1.0
  0
TEXT
  8
1
  6
CONTINUOUS
 62
     2
  5
603
 10
-30.53175
 20
2.826917
 30
0.0
 40
0.2
  1
Type V RAMP
  7
ROMANS
210
0.0
220
0.0
230
1.0
  0
TEXT
  8
1
  6
CONTINUOUS
 62
     2
  5
604
 10
-29.69175
 20
4.527917
 30
0.0
 40
0.12
  1
Sidewalk
  7
ROMANS
210
0.0
220
0.0
230
1.0
  0
TEXT
  8
1
  6
CONTINUOUS
 62
     2
  5
605
 10
-29.619083
 20
8.8615
 30
0.0
 40
0.12
  1
Sidewalk
  7
ROMANS
210
0.0
220
0.0
230
1.0
  0
TEXT
  8
1
  6
CONTINUOUS
 62
     2
  5
606
 10
-38.457833
 20
9.239583
 30
0.0
 40
0.12
  1
Sidewalk
  7
ROMANS
210
0.0
220
0.0
230
1.0
  0
TEXT
  8
1
  6
CONTINUOUS
 62
     2
  5
607
 10
-38.646833
 20
4.266167
 30
0.0
 40
0.12
  1
Sidewalk
  7
ROMANS
210
0.0
220
0.0
230
1.0
  0
TEXT
  8
1
  6
CONTINUOUS
 62
     2
  5
608
 10
-31.229833
 20
3.529583
 30
0.0
 40
0.12
  1
Sidewalk
 50
45.0
  7
ROMANS
210
0.0
220
0.0
230
1.0
  0
TEXT
  8
1
  6
CONTINUOUS
 62
     2
  5
609
 10
-38.385167
 20
8.687
 30
0.0
 40
0.12
  1
Grass
  7
ROMANS
210
0.0
220
0.0
230
1.0
  0
TEXT
  8
1
  6
CONTINUOUS
 62
     2
  5
60A
 10
-36.088917
 20
2.028083
 30
0.0
 40
0.12
  1
Grass
 50
90.0
  7
ROMANS
210
0.0
220
0.0
230
1.0
  0
ARC
  8
1
  6
CONTINUOUS
 62
     2
  5
60B
 10
-36.44775
 20
4.119083
 30
0.0
 40
0.670333
 50
0.0
 51
92.964406
210
0.0
220
0.0
230
1.0
  0
ARC
  8
1
  6
CONTINUOUS
 62
     2
  5
60C
 10
-36.44775
 20
4.119083
 30
0.0
 40
0.720333
 50
0.0
 51
90.0
210
0.0
220
0.0
230
1.0
  0
ARC
  8
1
  6
CONTINUOUS
 62
     2
  5
60D
 10
-31.0985
 20
4.119083
 30
0.0
 40
0.720333
 50
90.0
 51
180.0
210
0.0
220
0.0
230
1.0
  0
ARC
  8
1
  6
CONTINUOUS
 62
     2
  5
60E
 10
-31.0985
 20
4.119083
 30
0.0
 40
0.670333
 50
89.437289
 51
180.0
210
0.0
220
0.0
230
1.0
  0
POLYLINE
  8
1
  6
CONTINUOUS
 62
     2
  5
60F
 66
     1
 10
0.0
 20
0.0
 30
0.0
  0
VERTEX
  8
1
  6
CONTINUOUS
 62
     2
  5
610
 10
-31.546677
 20
4.683013
 30
0.0
 42
-0.12122
  0
VERTEX
  8
1
  6
CONTINUOUS
 62
     2
  5
611
 10
-31.233833
 20
4.826583
 30
0.0
  0
VERTEX
  8
1
  6
CONTINUOUS
 62
     2
  5
612
 10
-31.224494
 20
4.777469
 30
0.0
 42
0.121212
  0
VERTEX
  8
1
  6
CONTINUOUS
 62
     2
  5
613
 10
-31.515583
 20
4.643833
 30
0.0
  0
VERTEX
  8
1
  6
CONTINUOUS
 62
     2
  5
614
 10
-31.546667
 20
4.683
 30
0.0
  0
SEQEND
  8
1
  6
CONTINUOUS
 62
     2
  5
615
  0
POLYLINE
  8
1
  6
CONTINUOUS
 62
   215
  5
616
 66
     1
 10
0.0
 20
0.0
 30
0.0
  0
VERTEX
  8
1
  6
CONTINUOUS
 62
   215
  5
617
 10
-36.312496
 20
4.826605
 30
0.0
 42
-0.121248
  0
VERTEX
  8
1
  6
CONTINUOUS
 62
   215
  5
618
 10
-35.999583
 20
4.683
 30
0.0
  0
VERTEX
  8
1
  6
CONTINUOUS
 62
   215
  5
619
 10
-36.030655
 20
4.643848
 30
0.0
 42
0.121274
  0
VERTEX
  8
1
  6
CONTINUOUS
 62
   215
  5
61A
 10
-36.321917
 20
4.7775
 30
0.0
  0
VERTEX
  8
1
  6
CONTINUOUS
 62
   215
  5
61B
 10
-36.3125
 20
4.826583
 30
0.0
  0
SEQEND
  8
1
  6
CONTINUOUS
 62
   215
  5
61C
  0
TEXT
  8
1
  6
CONTINUOUS
 62
     2
  5
61D
 10
-36.360833
 20
0.362083
 30
0.0
 40
0.2
  1
TYPICAL RAMPS LAYOUT AT
  7
ROMANS
 72
     4
 11
-34.094167
 21
0.462083
 31
0.0
210
0.0
220
0.0
230
1.0
  0
TEXT
  8
1
  6
CONTINUOUS
 62
     2
  5
61E
 10
-35.36475
 20
0.082083
 30
0.0
 40
0.2
  1
INTERSECTIONS
  7
ROMANS
 72
     4
 11
-34.101917
 21
0.182083
 31
0.0
210
0.0
220
0.0
230
1.0
  0
TEXT
  8
1
  6
CONTINUOUS
 62
     2
  5
61F
 10
-35.242417
 20
13.700917
 30
0.0
 40
0.2
  1
Type VI RAMP
  7
ROMANS
 72
     4
 11
-34.079417
 21
13.800917
 31
0.0
210
0.0
220
0.0
230
1.0
  0
TEXT
  8
1
  6
CONTINUOUS
 62
     2
  5
620
 10
-22.920333
 20
13.562167
 30
0.0
 40
0.2
  1
Type IV RAMP
  7
ROMANS
 72
     4
 11
-21.757333
 21
13.662167
 31
0.0
210
0.0
220
0.0
230
1.0
  0
TEXT
  8
1
  6
CONTINUOUS
 62
     2
  5
621
 10
-21.8565
 20
0.843583
 30
0.0
 40
0.2
  1
Type V RAMP
  7
ROMANS
 72
     4
 11
-20.7935
 21
0.943583
 31
0.0
210
0.0
220
0.0
230
1.0
  0
INSERT
  8
1
  6
CONTINUOUS
 62
     2
  5
62D
  2
*D5
 10
-19.99475
 20
2.8435
 30
0.0
 70
     0
 71
     0
  0
INSERT
  8
1
  6
CONTINUOUS
 62
     2
  5
635
  2
*D6
 10
-31.66975
 20
4.168917
 30
0.0
 70
     0
 71
     0
  0
INSERT
  8
1
  6
CONTINUOUS
 62
     2
  5
63D
  2
*D7
 10
-37.081333
 20
4.428583
 30
0.0
 70
     0
 71
     0
  0
INSERT
  8
1
  6
CONTINUOUS
 62
     2
  5
645
  2
*D8
 10
-31.43375
 20
8.653917
 30
0.0
 70
     0
 71
     0
  0
LINE
  8
1
  6
CONTINUOUS
 62
   215
  5
646
 10
-22.091917
 20
2.507417
 30
0.0
 11
-22.091917
 21
2.74125
 31
0.0
  0
LINE
  8
1
  6
CONTINUOUS
 62
   215
  5
647
 10
-21.237
 20
2.272167
 30
0.0
 11
-21.237
 21
2.488083
 31
0.0
  0
ARC
  8
1
  6
CONTINUOUS
 62
   215
  5
648
 10
-20.786026
 20
5.58154
 30
0.0
 40
3.212377
 50
246.013694
 51
261.929803
210
0.0
220
0.0
230
1.0
  0
INSERT
  8
1
  6
CONTINUOUS
 62
     2
  5
650
  2
*D9
 10
-21.660333
 20
2.402583
 30
0.0
 70
     0
 71
     0
  0
INSERT
  8
1
  6
CONTINUOUS
 62
     2
  5
658
  2
*D10
 10
-21.562083
 20
15.143583
 30
0.0
 70
     0
 71
     0
  0
INSERT
  8
1
  6
CONTINUOUS
 62
     2
  5
65F
  2
*D11
 10
-19.793167
 20
15.664
 30
0.0
 70
     0
 71
     0
  0
INSERT
  8
1
  6
CONTINUOUS
 62
     2
  5
666
  2
*D12
 10
-23.65
 20
15.68475
 30
0.0
 70
     0
 71
     0
  0
INSERT
  8
1
  6
CONTINUOUS
 62
     2
  5
66D
  2
*D13
 10
-24.531
 20
16.024833
 30
0.0
 70
     0
 71
     0
  0
INSERT
  8
1
  6
CONTINUOUS
 62
     2
  5
674
  2
*D14
 10
-18.967667
 20
16.03175
 30
0.0
 70
     0
 71
     0
  0
INSERT
  8
1
  6
CONTINUOUS
 62
     2
  5
67B
  2
*D15
 10
-17.668417
 20
3.9305
 30
0.0
 70
     0
 71
     0
  0
INSERT
  8
1
  6
CONTINUOUS
 62
     2
  5
682
  2
*D16
 10
-18.717667
 20
3.295917
 30
0.0
 70
     0
 71
     0
  0
INSERT
  8
1
  6
CONTINUOUS
 62
     2
  5
689
  2
*D17
 10
-22.75725
 20
3.3095
 30
0.0
 70
     0
 71
     0
  0
INSERT
  8
1
  6
CONTINUOUS
 62
     2
  5
690
  2
*D18
 10
-23.63125
 20
4.03825
 30
0.0
 70
     0
 71
     0
  0
INSERT
  8
1
  6
CONTINUOUS
 62
     2
  5
697
  2
*D19
 10
-31.856083
 20
16.095833
 30
0.0
 70
     0
 71
     0
  0
INSERT
  8
1
  6
CONTINUOUS
 62
     2
  5
69E
  2
*D20
 10
-35.941583
 20
15.838583
 30
0.0
 70
     0
 71
     0
  0
LINE
  8
1
  6
CONTINUOUS
 62
     2
  5
69F
 10
-31.960833
 20
15.749583
 30
0.0
 11
-30.930667
 21
15.154833
 31
0.0
  0
LINE
  8
1
  6
CONTINUOUS
 62
     2
  5
6A0
 10
-30.797917
 20
16.246833
 30
0.0
 11
-29.918583
 21
15.739167
 31
0.0
  0
LINE
  8
1
  6
CONTINUOUS
 62
     2
  5
6A1
 10
-31.045583
 20
15.221167
 30
0.0
 11
-30.0335
 21
15.8055
 31
0.0
  0
SOLID
  8
1
  6
CONTINUOUS
 62
     2
  5
6A2
 10
-30.15275
 20
15.772583
 30
0.0
 11
-30.0335
 21
15.8055
 31
0.0
 12
-30.123167
 22
15.720333
 32
0.0
 13
-30.123167
 23
15.720333
 33
0.0
  0
LINE
  8
1
  6
CONTINUOUS
 62
     2
  5
6A3
 10
-37.122417
 20
15.886083
 30
0.0
 11
-37.881417
 21
15.447833
 31
0.0
  0
LINE
  8
1
  6
CONTINUOUS
 62
     2
  5
6A4
 10
-35.86825
 20
15.35175
 30
0.0
 11
-36.791583
 21
14.818667
 31
0.0
  0
LINE
  8
1
  6
CONTINUOUS
 62
     2
  5
6A5
 10
-37.768
 20
15.513333
 30
0.0
 11
-36.678167
 21
14.884167
 31
0.0
  0
SOLID
  8
1
  6
CONTINUOUS
 62
     2
  5
6A6
 10
-30.9275
 20
15.257917
 30
0.0
 11
-31.045583
 21
15.221167
 31
0.0
 12
-30.958667
 22
15.30925
 32
0.0
 13
-30.958667
 23
15.30925
 33
0.0
  0
SOLID
  8
1
  6
CONTINUOUS
 62
     2
  5
6A7
 10
-36.7675
 20
14.96975
 30
0.0
 11
-36.678167
 21
14.884167
 31
0.0
 12
-36.79725
 22
14.917667
 32
0.0
 13
-36.79725
 23
14.917667
 33
0.0
  0
SOLID
  8
1
  6
CONTINUOUS
 62
     2
  5
6A8
 10
-37.679667
 20
15.42675
 30
0.0
 11
-37.768
 21
15.513333
 31
0.0
 12
-37.64925
 22
15.4785
 32
0.0
 13
-37.64925
 23
15.4785
 33
0.0
  0
TEXT
  8
1
  6
CONTINUOUS
 62
     2
  5
6A9
 10
-37.49375
 20
15.447333
 30
0.0
 40
0.12
  1
4' Min.
 50
330.001928
  7
ROMANS
210
0.0
220
0.0
230
1.0
  0
TEXT
  8
1
  6
CONTINUOUS
 62
     2
  5
6AA
 10
-30.96775
 20
15.3585
 30
0.0
 40
0.12
  1
4' Min.
 50
30.000286
  7
ROMANS
210
0.0
220
0.0
230
1.0
  0
LINE
  8
1
  6
CONTINUOUS
 62
     2
  5
6AB
 10
-20.222917
 20
15.020583
 30
0.0
 11
-19.130083
 21
14.389667
 31
0.0
  0
SOLID
  8
1
  6
CONTINUOUS
 62
     2
  5
6AC
 10
-19.126917
 20
14.49275
 30
0.0
 11
-19.245
 21
14.456
 31
0.0
 12
-19.158083
 22
14.544083
 32
0.0
 13
-19.158083
 23
14.544083
 33
0.0
  0
SOLID
  8
1
  6
CONTINUOUS
 62
     2
  5
6AD
 10
-18.352167
 20
15.007417
 30
0.0
 11
-18.232917
 21
15.040333
 31
0.0
 12
-18.322583
 22
14.955167
 32
0.0
 13
-18.322583
 23
14.955167
 33
0.0
  0
LINE
  8
1
  6
CONTINUOUS
 62
     2
  5
6AE
 10
-19.245
 20
14.456
 30
0.0
 11
-18.232917
 21
15.040333
 31
0.0
  0
TEXT
  8
1
  6
CONTINUOUS
 62
     2
  5
6AF
 10
-19.167167
 20
14.593333
 30
0.0
 40
0.12
  1
4' Min.
 50
30.000286
  7
ROMANS
210
0.0
220
0.0
230
1.0
  0
LINE
  8
1
  6
CONTINUOUS
 62
     2
  5
6B0
 10
-18.997333
 20
15.481667
 30
0.0
 11
-18.118
 21
14.974
 31
0.0
  0
LINE
  8
1
  6
CONTINUOUS
 62
     2
  5
6B1
 10
-24.583333
 20
15.504667
 30
0.0
 11
-25.342333
 21
15.066417
 31
0.0
  0
SOLID
  8
1
  6
CONTINUOUS
 62
     2
  5
6B2
 10
-25.140583
 20
15.045333
 30
0.0
 11
-25.228917
 21
15.131917
 31
0.0
 12
-25.110167
 22
15.097083
 32
0.0
 13
-25.110167
 23
15.097083
 33
0.0
  0
SOLID
  8
1
  6
CONTINUOUS
 62
     2
  5
6B3
 10
-24.228417
 20
14.588333
 30
0.0
 11
-24.139083
 21
14.50275
 31
0.0
 12
-24.258167
 22
14.53625
 32
0.0
 13
-24.258167
 23
14.53625
 33
0.0
  0
TEXT
  8
1
  6
CONTINUOUS
 62
     2
  5
6B4
 10
-24.954667
 20
15.065917
 30
0.0
 40
0.12
  1
4' Min.
 50
330.001928
  7
ROMANS
210
0.0
220
0.0
230
1.0
  0
LINE
  8
1
  6
CONTINUOUS
 62
     2
  5
6B5
 10
-23.329167
 20
14.970333
 30
0.0
 11
-24.2525
 21
14.43725
 31
0.0
  0
LINE
  8
1
  6
CONTINUOUS
 62
     2
  5
6B6
 10
-25.228917
 20
15.131917
 30
0.0
 11
-24.139083
 21
14.50275
 31
0.0
  0
LINE
  8
1
  6
CONTINUOUS
 62
     2
  5
6B7
 10
-23.746583
 20
3.34875
 30
0.0
 11
-24.655417
 21
2.824
 31
0.0
  0
SOLID
  8
1
  6
CONTINUOUS
 62
     2
  5
6B8
 10
-24.453667
 20
2.802917
 30
0.0
 11
-24.542
 21
2.8895
 31
0.0
 12
-24.42325
 22
2.854667
 32
0.0
 13
-24.42325
 23
2.854667
 33
0.0
  0
SOLID
  8
1
  6
CONTINUOUS
 62
     2
  5
6B9
 10
-23.473167
 20
2.3065
 30
0.0
 11
-23.383833
 21
2.220917
 31
0.0
 12
-23.502917
 22
2.254417
 32
0.0
 13
-23.502917
 23
2.254417
 33
0.0
  0
LINE
  8
1
  6
CONTINUOUS
 62
     2
  5
6BA
 10
-24.542
 20
2.8895
 30
0.0
 11
-23.383833
 21
2.220917
 31
0.0
  0
LINE
  8
1
  6
CONTINUOUS
 62
     2
  5
6BB
 10
-22.34625
 20
2.817417
 30
0.0
 11
-23.52475
 21
2.137
 31
0.0
  0
TEXT
  8
1
  6
CONTINUOUS
 62
     2
  5
6BC
 10
-24.169083
 20
2.780333
 30
0.0
 40
0.12
  1
4' Min.
 50
330.001928
  7
ROMANS
210
0.0
220
0.0
230
1.0
  0
LINE
  8
1
  6
CONTINUOUS
 62
     2
  5
6BD
 10
-19.167833
 20
2.738583
 30
0.0
 11
-18.063583
 21
2.101
 31
0.0
  0
SOLID
  8
1
  6
CONTINUOUS
 62
     2
  5
6BE
 10
-18.074167
 20
2.212083
 30
0.0
 11
-18.19225
 21
2.175333
 31
0.0
 12
-18.105333
 22
2.263417
 32
0.0
 13
-18.105333
 23
2.263417
 33
0.0
  0
SOLID
  8
1
  6
CONTINUOUS
 62
     2
  5
6BF
 10
-17.11725
 20
2.831833
 30
0.0
 11
-16.998
 21
2.86475
 31
0.0
 12
-17.087667
 22
2.779583
 32
0.0
 13
-17.087667
 23
2.779583
 33
0.0
  0
LINE
  8
1
  6
CONTINUOUS
 62
     2
  5
6C0
 10
-18.19225
 20
2.175333
 30
0.0
 11
-16.998
 21
2.86475
 31
0.0
  0
TEXT
  8
1
  6
CONTINUOUS
 62
     2
  5
6C1
 10
-17.990833
 20
2.368417
 30
0.0
 40
0.12
  1
4' Min.
 50
30.000286
  7
ROMANS
210
0.0
220
0.0
230
1.0
  0
LINE
  8
1
  6
CONTINUOUS
 62
     2
  5
6C2
 10
-17.762417
 20
3.306083
 30
0.0
 11
-16.883083
 21
2.798417
 31
0.0
  0
LINE
  8
1
  6
CONTINUOUS
 62
   215
  5
6C3
 10
-33.647833
 20
17.892333
 30
0.0
 11
-32.558
 21
17.263083
 31
0.0
  0
TEXT
  8
1
  6
CONTINUOUS
 62
     2
  5
6C4
 10
-35.769167
 20
18.427
 30
0.0
 40
0.12
  1
Sidewalk
 50
329.999961
  7
ROMANS
210
0.0
220
0.0
230
1.0
  0
TEXT
  8
1
  6
CONTINUOUS
 62
     2
  5
6C5
 10
-32.149667
 20
18.073417
 30
0.0
 40
0.12
  1
Sidewalk
 50
30.001978
  7
ROMANS
210
0.0
220
0.0
230
1.0
  0
TEXT
  8
1
  6
CONTINUOUS
 62
     2
  5
6C6
 10
-36.827417
 20
17.17675
 30
0.0
 40
0.12
  1
Grass
  7
ROMANS
210
0.0
220
0.0
230
1.0
  0
TEXT
  8
1
  6
CONTINUOUS
 62
     2
  5
6C7
 10
-30.781833
 20
17.544917
 30
0.0
 40
0.12
  1
Grass
  7
ROMANS
210
0.0
220
0.0
230
1.0
  0
TEXT
  8
1
  6
CONTINUOUS
 62
     2
  5
6C8
 10
-23.26325
 20
17.224083
 30
0.0
 40
0.12
  1
Sidewalk
  7
ROMANS
210
0.0
220
0.0
230
1.0
  0
LINE
  8
1
  6
CONTINUOUS
 62
     2
  5
6C9
 10
-26.563083
 20
17.156083
 30
0.0
 11
-24.51675
 21
18.337583
 31
0.0
  0
SOLID
  8
1
  6
CONTINUOUS
 62
     2
  5
6CA
 10
-24.636
 20
18.304667
 30
0.0
 11
-24.51675
 21
18.337583
 31
0.0
 12
-24.606417
 22
18.252417
 32
0.0
 13
-24.606417
 23
18.252417
 33
0.0
  0
SOLID
  8
1
  6
CONTINUOUS
 62
     2
  5
6CB
 10
-26.445
 20
17.192833
 30
0.0
 11
-26.563083
 21
17.156083
 31
0.0
 12
-26.476167
 22
17.244167
 32
0.0
 13
-26.476167
 23
17.244167
 33
0.0
  0
TEXT
  8
1
  6
CONTINUOUS
 62
     2
  5
6CC
 10
-26.013833
 20
17.557667
 30
0.0
 40
0.12
  1
Variable
 50
30.001028
  7
ROMANS
210
0.0
220
0.0
230
1.0
  0
TEXT
  8
1
  6
CONTINUOUS
 62
     2
  5
6CD
 10
-20.135417
 20
17.251167
 30
0.0
 40
0.12
  1
4' Min.
  7
ROMANS
210
0.0
220
0.0
230
1.0
  0
LINE
  8
1
  6
CONTINUOUS
 62
     2
  5
6CE
 10
-20.2835
 20
16.768417
 30
0.0
 11
-20.2835
 21
17.862667
 31
0.0
  0
SOLID
  8
1
  6
CONTINUOUS
 62
     2
  5
6CF
 10
-20.253167
 20
16.888333
 30
0.0
 11
-20.2835
 21
16.768417
 31
0.0
 12
-20.313167
 22
16.8885
 32
0.0
 13
-20.313167
 23
16.8885
 33
0.0
  0
SOLID
  8
1
  6
CONTINUOUS
 62
     2
  5
6D0
 10
-20.316083
 20
17.743333
 30
0.0
 11
-20.2835
 21
17.862667
 31
0.0
 12
-20.256083
 22
17.742083
 32
0.0
 13
-20.256083
 23
17.742083
 33
0.0
  0
TEXT
  8
1
  6
CONTINUOUS
 62
     2
  5
6D1
 10
-21.855333
 20
4.458167
 30
0.0
 40
0.12
  1
Sidewalk
  7
ROMANS
210
0.0
220
0.0
230
1.0
  0
INSERT
  8
1
  6
CONTINUOUS
 62
     2
  5
6DD
  2
*D21
 10
-19.1755
 20
11.045833
 30
0.0
 70
     0
 71
     0
  0
LINE
  8
1
  6
CONTINUOUS
 62
     7
  5
6DE
 10
-20.8965
 20
9.720583
 30
0.0
 11
-20.886083
 21
9.992
 31
0.0
  0
LINE
  8
1
  6
HIDDEN
 62
     7
  5
6DF
 10
-20.886083
 20
9.992
 30
0.0
 11
-20.8455
 21
11.050417
 31
0.0
  0
LINE
  8
1
  6
CONTINUOUS
 62
   241
  5
6E0
 10
-21.292917
 20
9.971167
 30
0.0
 11
-21.254083
 21
9.971
 31
0.0
  0
LINE
  8
1
  6
CONTINUOUS
 62
   241
  5
6E1
 10
-21.292917
 20
9.971167
 30
0.0
 11
-21.254083
 21
9.971
 31
0.0
  0
LINE
  8
1
  6
CONTINUOUS
 62
   241
  5
6E2
 10
-21.254083
 20
9.971
 30
0.0
 11
-21.258583
 21
9.978917
 31
0.0
  0
LINE
  8
1
  6
CONTINUOUS
 62
   241
  5
6E3
 10
-21.288417
 20
9.978917
 30
0.0
 11
-21.292917
 21
9.971167
 31
0.0
  0
LINE
  8
1
  6
CONTINUOUS
 62
   241
  5
6E4
 10
-21.254083
 20
9.971
 30
0.0
 11
-21.258583
 21
9.978917
 31
0.0
  0
LINE
  8
1
  6
CONTINUOUS
 62
   241
  5
6E5
 10
-21.288417
 20
9.978917
 30
0.0
 11
-21.292917
 21
9.971167
 31
0.0
  0
LINE
  8
1
  6
CONTINUOUS
 62
   241
  5
6E6
 10
-20.817667
 20
10.227083
 30
0.0
 11
-20.831083
 21
10.2635
 31
0.0
  0
LINE
  8
1
  6
CONTINUOUS
 62
   241
  5
6E7
 10
-20.831083
 20
10.2635
 30
0.0
 11
-20.832917
 21
10.26125
 31
0.0
  0
LINE
  8
1
  6
CONTINUOUS
 62
   241
  5
6E8
 10
-20.832917
 20
10.22975
 30
0.0
 11
-20.817667
 21
10.227083
 31
0.0
  0
LINE
  8
1
  6
CONTINUOUS
 62
   241
  5
6E9
 10
-21.51125
 20
10.01125
 30
0.0
 11
-21.5045
 21
10.049417
 31
0.0
  0
LINE
  8
1
  6
CONTINUOUS
 62
   241
  5
6EA
 10
-21.377667
 20
10.22525
 30
0.0
 11
-21.411333
 21
10.24475
 31
0.0
  0
LINE
  8
1
  6
CONTINUOUS
 62
   241
  5
6EB
 10
-21.411333
 20
10.24475
 30
0.0
 11
-21.411333
 21
10.205917
 31
0.0
  0
LINE
  8
1
  6
CONTINUOUS
 62
   241
  5
6EC
 10
-21.411333
 20
10.205917
 30
0.0
 11
-21.377667
 21
10.22525
 31
0.0
  0
LINE
  8
1
  6
CONTINUOUS
 62
   241
  5
6ED
 10
-21.451083
 20
10.381667
 30
0.0
 11
-21.451083
 21
10.38525
 31
0.0
  0
LINE
  8
1
  6
CONTINUOUS
 62
   241
  5
6EE
 10
-21.456667
 20
10.384917
 30
0.0
 11
-21.451083
 21
10.381667
 31
0.0
  0
LINE
  8
1
  6
CONTINUOUS
 62
   241
  5
6EF
 10
-21.00675
 20
10.391667
 30
0.0
 11
-21.044333
 21
10.401667
 31
0.0
  0
LINE
  8
1
  6
CONTINUOUS
 62
   241
  5
6F0
 10
-21.044333
 20
10.401667
 30
0.0
 11
-21.034333
 21
10.36425
 31
0.0
  0
LINE
  8
1
  6
CONTINUOUS
 62
   241
  5
6F1
 10
-21.034333
 20
10.36425
 30
0.0
 11
-21.00675
 21
10.391667
 31
0.0
  0
LINE
  8
1
  6
CONTINUOUS
 62
   241
  5
6F2
 10
-21.201417
 20
10.324417
 30
0.0
 11
-21.21475
 21
10.360917
 31
0.0
  0
LINE
  8
1
  6
CONTINUOUS
 62
   241
  5
6F3
 10
-21.21475
 20
10.360917
 30
0.0
 11
-21.239583
 21
10.33125
 31
0.0
  0
LINE
  8
1
  6
CONTINUOUS
 62
   241
  5
6F4
 10
-21.239583
 20
10.33125
 30
0.0
 11
-21.201417
 21
10.324417
 31
0.0
  0
LINE
  8
1
  6
CONTINUOUS
 62
   241
  5
6F5
 10
-21.1135
 20
10.153833
 30
0.0
 11
-21.151083
 21
10.163833
 31
0.0
  0
LINE
  8
1
  6
CONTINUOUS
 62
   241
  5
6F6
 10
-21.151083
 20
10.163833
 30
0.0
 11
-21.141
 21
10.126417
 31
0.0
  0
LINE
  8
1
  6
CONTINUOUS
 62
   241
  5
6F7
 10
-21.141
 20
10.126417
 30
0.0
 11
-21.1135
 21
10.153833
 31
0.0
  0
LINE
  8
1
  6
CONTINUOUS
 62
   241
  5
6F8
 10
-20.984167
 20
10.0025
 30
0.0
 11
-20.984167
 21
10.041333
 31
0.0
  0
LINE
  8
1
  6
CONTINUOUS
 62
   241
  5
6F9
 10
-20.984167
 20
10.041333
 30
0.0
 11
-21.01775
 21
10.022
 31
0.0
  0
LINE
  8
1
  6
CONTINUOUS
 62
   241
  5
6FA
 10
-21.01775
 20
10.022
 30
0.0
 11
-20.984167
 21
10.0025
 31
0.0
  0
LINE
  8
1
  6
CONTINUOUS
 62
   241
  5
6FB
 10
-20.91625
 20
10.26125
 30
0.0
 11
-20.939167
 21
10.233917
 31
0.0
  0
LINE
  8
1
  6
CONTINUOUS
 62
   241
  5
6FC
 10
-20.939167
 20
10.233917
 30
0.0
 11
-20.91625
 21
10.22975
 31
0.0
  0
LINE
  8
1
  6
CONTINUOUS
 62
   241
  5
6FD
 10
-20.91625
 20
10.26125
 30
0.0
 11
-20.939167
 21
10.233917
 31
0.0
  0
LINE
  8
1
  6
CONTINUOUS
 62
   241
  5
6FE
 10
-20.939167
 20
10.233917
 30
0.0
 11
-20.91625
 21
10.22975
 31
0.0
  0
LINE
  8
1
  6
CONTINUOUS
 62
   241
  5
6FF
 10
-21.258583
 20
9.978917
 30
0.0
 11
-21.2735
 21
10.004667
 31
0.0
  0
LINE
  8
1
  6
CONTINUOUS
 62
   241
  5
700
 10
-21.2735
 20
10.004667
 30
0.0
 11
-21.288417
 21
9.978917
 31
0.0
  0
CIRCLE
  8
1
  6
CONTINUOUS
 62
   241
  5
701
 10
-21.471625
 20
10.139642
 30
0.0
 40
0.002157
210
0.0
220
0.0
230
1.0
  0
CIRCLE
  8
1
  6
CONTINUOUS
 62
   241
  5
702
 10
-21.2374
 20
10.106117
 30
0.0
 40
0.002157
210
0.0
220
0.0
230
1.0
  0
CIRCLE
  8
1
  6
CONTINUOUS
 62
   241
  5
703
 10
-21.0514
 20
10.266017
 30
0.0
 40
0.002157
210
0.0
220
0.0
230
1.0
  0
CIRCLE
  8
1
  6
CONTINUOUS
 62
   241
  5
704
 10
-20.96965
 20
10.109867
 30
0.0
 40
0.002157
210
0.0
220
0.0
230
1.0
  0
CIRCLE
  8
1
  6
CONTINUOUS
 62
   241
  5
705
 10
-21.122125
 20
10.046642
 30
0.0
 40
0.002157
210
0.0
220
0.0
230
1.0
  0
CIRCLE
  8
1
  6
CONTINUOUS
 62
   241
  5
706
 10
-21.330325
 20
10.295792
 30
0.0
 40
0.002157
210
0.0
220
0.0
230
1.0
  0
CIRCLE
  8
1
  6
CONTINUOUS
 62
   241
  5
707
 10
-21.3601
 20
10.076417
 30
0.0
 40
0.002157
210
0.0
220
0.0
230
1.0
  0
LINE
  8
1
  6
CONTINUOUS
 62
   241
  5
708
 10
-21.401667
 20
9.910333
 30
0.0
 11
-21.435333
 21
9.929833
 31
0.0
  0
LINE
  8
1
  6
CONTINUOUS
 62
   241
  5
709
 10
-21.435333
 20
9.929833
 30
0.0
 11
-21.435333
 21
9.891
 31
0.0
  0
LINE
  8
1
  6
CONTINUOUS
 62
   241
  5
70A
 10
-21.435333
 20
9.891
 30
0.0
 11
-21.401667
 21
9.910333
 31
0.0
  0
LINE
  8
1
  6
CONTINUOUS
 62
   241
  5
70B
 10
-21.481417
 20
9.873333
 30
0.0
 11
-21.481417
 21
9.876917
 31
0.0
  0
LINE
  8
1
  6
CONTINUOUS
 62
   241
  5
70C
 10
-21.487
 20
9.876583
 30
0.0
 11
-21.481417
 21
9.873333
 31
0.0
  0
LINE
  8
1
  6
CONTINUOUS
 62
   241
  5
70D
 10
-21.037083
 20
9.883333
 30
0.0
 11
-21.074667
 21
9.893333
 31
0.0
  0
LINE
  8
1
  6
CONTINUOUS
 62
   241
  5
70E
 10
-21.074667
 20
9.893333
 30
0.0
 11
-21.064667
 21
9.855917
 31
0.0
  0
LINE
  8
1
  6
CONTINUOUS
 62
   241
  5
70F
 10
-21.064667
 20
9.855917
 30
0.0
 11
-21.037083
 21
9.883333
 31
0.0
  0
LINE
  8
1
  6
CONTINUOUS
 62
   241
  5
710
 10
-21.23175
 20
9.816083
 30
0.0
 11
-21.245083
 21
9.852583
 31
0.0
  0
LINE
  8
1
  6
CONTINUOUS
 62
   241
  5
711
 10
-21.245083
 20
9.852583
 30
0.0
 11
-21.269917
 21
9.822917
 31
0.0
  0
LINE
  8
1
  6
CONTINUOUS
 62
   241
  5
712
 10
-21.269917
 20
9.822917
 30
0.0
 11
-21.23175
 21
9.816083
 31
0.0
  0
CIRCLE
  8
1
  6
CONTINUOUS
 62
   241
  5
713
 10
-21.081733
 20
9.757683
 30
0.0
 40
0.002157
210
0.0
220
0.0
230
1.0
  0
CIRCLE
  8
1
  6
CONTINUOUS
 62
   241
  5
714
 10
-21.360658
 20
9.787458
 30
0.0
 40
0.002157
210
0.0
220
0.0
230
1.0
  0
TEXT
  8
1
  6
CONTINUOUS
 62
     2
  5
715
 10
-20.385667
 20
8.4875
 30
0.0
 40
0.2
  1
(TYPE VI Ramp Only)
  7
ROMANS
210
0.0
220
0.0
230
1.0
  0
LINE
  8
1
  6
CONTINUOUS
 62
   215
  5
716
 10
-34.659583
 20
16.1275
 30
0.0
 11
-35.529417
 21
16.629667
 31
0.0
  0
LINE
  8
1
  6
CONTINUOUS
 62
   215
  5
717
 10
-33.182167
 20
16.531917
 30
0.0
 11
-32.383667
 21
16.993
 31
0.0
  0
LINE
  8
1
  6
CONTINUOUS
 62
   215
  5
718
 10
-23.00825
 20
16.511083
 30
0.0
 11
-22.148417
 21
16.014667
 31
0.0
  0
LINE
  8
1
  6
CONTINUOUS
 62
   215
  5
719
 10
-20.488583
 20
16.50625
 30
0.0
 11
-21.349083
 21
16.009333
 31
0.0
  0
LINE
  8
1
  6
CONTINUOUS
 62
   215
  5
71A
 10
-16.8215
 20
4.477583
 30
0.0
 11
-17.534167
 21
4.889083
 31
0.0
  0
LINE
  8
1
  6
CONTINUOUS
 62
   215
  5
71B
 10
-24.75925
 20
4.472583
 30
0.0
 11
-24.04475
 21
4.885083
 31
0.0
  0
LINE
  8
1
  6
CONTINUOUS
 62
   215
  5
71C
 10
-34.837
 20
15.982833
 30
0.0
 11
-35.71575
 21
16.490167
 31
0.0
  0
LINE
  8
1
  6
CONTINUOUS
 62
   215
  5
71D
 10
-35.662083
 20
15.470833
 30
0.0
 11
-36.461167
 21
15.932167
 31
0.0
  0
LINE
  8
1
  6
CONTINUOUS
 62
   215
  5
71E
 10
-35.7385
 20
15.267833
 30
0.0
 11
-36.6475
 21
15.792583
 31
0.0
  0
LINE
  8
1
  6
CONTINUOUS
 62
   215
  5
71F
 10
-34.482167
 20
16.272167
 30
0.0
 11
-35.343083
 21
16.769167
 31
0.0
  0
LINE
  8
1
  6
CONTINUOUS
 62
   215
  5
720
 10
-33.362917
 20
16.674583
 30
0.0
 11
-32.569667
 21
17.132583
 31
0.0
  0
LINE
  8
1
  6
CONTINUOUS
 62
   215
  5
721
 10
-33.00125
 20
16.38925
 30
0.0
 11
-32.1975
 21
16.85325
 31
0.0
  0
LINE
  8
1
  6
CONTINUOUS
 62
   215
  5
722
 10
-32.179417
 20
15.87525
 30
0.0
 11
-31.453167
 21
16.294583
 31
0.0
  0
LINE
  8
1
  6
CONTINUOUS
 62
   215
  5
723
 10
-32.097167
 20
15.675667
 30
0.0
 11
-31.267083
 21
16.154917
 31
0.0
  0
LINE
  8
1
  6
CONTINUOUS
 62
   215
  5
724
 10
-25.5845
 20
16.661667
 30
0.0
 11
-23.086167
 21
16.661667
 31
0.0
  0
LINE
  8
1
  6
CONTINUOUS
 62
   215
  5
725
 10
-24.685
 20
16.019667
 30
0.0
 11
-23.965
 21
16.019667
 31
0.0
  0
LINE
  8
1
  6
CONTINUOUS
 62
   215
  5
726
 10
-24.385167
 20
15.805667
 30
0.0
 11
-24.258
 21
15.805667
 31
0.0
  0
LINE
  8
1
  6
CONTINUOUS
 62
   215
  5
727
 10
-22.819333
 20
16.649083
 30
0.0
 11
-21.954917
 21
16.15
 31
0.0
  0
LINE
  8
1
  6
CONTINUOUS
 62
   215
  5
728
 10
-23.197167
 20
16.373
 30
0.0
 11
-22.342
 21
15.879333
 31
0.0
  0
LINE
  8
1
  6
CONTINUOUS
 62
   215
  5
729
 10
-23.952833
 20
15.820917
 30
0.0
 11
-23.135333
 21
15.348917
 31
0.0
  0
LINE
  8
1
  6
CONTINUOUS
 62
   215
  5
72A
 10
-24.141833
 20
15.682917
 30
0.0
 11
-23.2305
 21
15.15675
 31
0.0
  0
LINE
  8
1
  6
CONTINUOUS
 62
   215
  5
72B
 10
-20.671083
 20
16.647917
 30
0.0
 11
-21.539083
 21
16.146667
 31
0.0
  0
LINE
  8
1
  6
CONTINUOUS
 62
   215
  5
72C
 10
-20.306
 20
16.364583
 30
0.0
 11
-21.159
 21
15.872
 31
0.0
  0
LINE
  8
1
  6
CONTINUOUS
 62
   215
  5
72D
 10
-19.393333
 20
15.656
 30
0.0
 11
-20.30075
 21
15.132
 31
0.0
  0
LINE
  8
1
  6
CONTINUOUS
 62
   215
  5
72E
 10
-20.415417
 20
16.661417
 30
0.0
 11
-17.968667
 21
16.661417
 31
0.0
  0
LINE
  8
1
  6
CONTINUOUS
 62
   215
  5
72F
 10
-19.588417
 20
16.019417
 30
0.0
 11
-18.843667
 21
16.019417
 31
0.0
  0
LINE
  8
1
  6
CONTINUOUS
 62
   215
  5
730
 10
-19.31275
 20
15.805417
 30
0.0
 11
-19.135333
 21
15.805417
 31
0.0
  0
LINE
  8
1
  6
CONTINUOUS
 62
   215
  5
731
 10
-24.947333
 20
4.611
 30
0.0
 11
-24.242083
 21
5.018167
 31
0.0
  0
LINE
  8
1
  6
CONTINUOUS
 62
   215
  5
732
 10
-16.633333
 20
4.616083
 30
0.0
 11
-17.336833
 21
5.02225
 31
0.0
  0
LINE
  8
1
  6
CONTINUOUS
 62
   215
  5
733
 10
-17.009667
 20
4.339167
 30
0.0
 11
-17.731583
 21
4.756
 31
0.0
  0
LINE
  8
1
  6
CONTINUOUS
 62
   215
  5
734
 10
-17.762333
 20
3.78525
 30
0.0
 11
-18.52125
 21
4.223417
 31
0.0
  0
LINE
  8
1
  6
CONTINUOUS
 62
   215
  5
735
 10
-17.9505
 20
3.64675
 30
0.0
 11
-18.718667
 21
4.090333
 31
0.0
  0
LINE
  8
1
  6
CONTINUOUS
 62
   215
  5
736
 10
-19.747917
 20
3.46425
 30
0.0
 11
-18.963167
 21
3.993583
 31
0.0
  0
LINE
  8
1
  6
CONTINUOUS
 62
   215
  5
737
 10
-22.424
 20
3.082333
 30
0.0
 11
-23.213917
 21
3.615
 31
0.0
  0
LINE
  8
1
  6
CONTINUOUS
 62
   215
  5
738
 10
-21.848083
 20
3.468333
 30
0.0
 11
-22.638
 21
4.001
 31
0.0
  0
LINE
  8
1
  6
CONTINUOUS
 62
   215
  5
739
 10
-24.571
 20
4.334083
 30
0.0
 11
-23.847333
 21
4.751917
 31
0.0
  0
LINE
  8
1
  6
CONTINUOUS
 62
   215
  5
73A
 10
-23.818417
 20
3.780167
 30
0.0
 11
-23.05775
 21
4.219333
 31
0.0
  0
LINE
  8
1
  6
CONTINUOUS
 62
   215
  5
73B
 10
-23.63025
 20
3.641667
 30
0.0
 11
-22.860333
 21
4.08625
 31
0.0
  0
LINE
  8
1
  6
CONTINUOUS
 62
   215
  5
73C
 10
-25.284667
 20
16.447667
 30
0.0
 11
-25.13575
 21
16.447667
 31
0.0
  0
LINE
  8
1
  6
CONTINUOUS
 62
   215
  5
73D
 10
-24.813417
 20
16.447667
 30
0.0
 11
-23.379167
 21
16.447667
 31
0.0
  0
LINE
  8
1
  6
CONTINUOUS
 62
   215
  5
73E
 10
-24.631667
 20
16.340667
 30
0.0
 11
-23.525583
 21
16.340667
 31
0.0
  0
LINE
  8
1
  6
CONTINUOUS
 62
   215
  5
73F
 10
-23.4805
 20
16.166
 30
0.0
 11
-23.398583
 21
16.11875
 31
0.0
  0
LINE
  8
1
  6
CONTINUOUS
 62
   215
  5
740
 10
-23.202
 20
16.00525
 30
0.0
 11
-22.618417
 21
15.668333
 31
0.0
  0
LINE
  8
1
  6
CONTINUOUS
 62
   215
  5
741
 10
-23.263833
 20
15.917333
 30
0.0
 11
-22.729167
 21
15.608583
 31
0.0
  0
LINE
  8
1
  6
CONTINUOUS
 62
   215
  5
742
 10
-23.386083
 20
16.235
 30
0.0
 11
-23.269333
 21
16.167583
 31
0.0
  0
LINE
  8
1
  6
CONTINUOUS
 62
   215
  5
743
 10
-23.094917
 20
16.066917
 30
0.0
 11
-22.535583
 21
15.743917
 31
0.0
  0
LINE
  8
1
  6
CONTINUOUS
 62
   215
  5
744
 10
-20.1235
 20
16.222833
 30
0.0
 11
-20.15125
 21
16.206833
 31
0.0
  0
LINE
  8
1
  6
CONTINUOUS
 62
   215
  5
745
 10
-20.307917
 20
16.116333
 30
0.0
 11
-20.968917
 21
15.734583
 31
0.0
  0
LINE
  8
1
  6
CONTINUOUS
 62
   215
  5
746
 10
-20.03225
 20
16.151917
 30
0.0
 11
-20.079167
 21
16.124833
 31
0.0
  0
LINE
  8
1
  6
CONTINUOUS
 62
   215
  5
747
 10
-19.940917
 20
16.081167
 30
0.0
 11
-19.981
 21
16.058
 31
0.0
  0
LINE
  8
1
  6
CONTINUOUS
 62
   215
  5
748
 10
-20.001917
 20
16.340417
 30
0.0
 11
-18.857333
 21
16.340417
 31
0.0
  0
LINE
  8
1
  6
CONTINUOUS
 62
   215
  5
749
 10
-19.864083
 20
16.233417
 30
0.0
 11
-18.869917
 21
16.233417
 31
0.0
  0
LINE
  8
1
  6
CONTINUOUS
 62
   215
  5
74A
 10
-20.13975
 20
16.447417
 30
0.0
 11
-18.703333
 21
16.447417
 31
0.0
  0
LINE
  8
1
  6
CONTINUOUS
 62
   215
  5
74B
 10
-18.440833
 20
16.447417
 30
0.0
 11
-18.260333
 21
16.447417
 31
0.0
  0
LINE
  8
1
  6
CONTINUOUS
 62
   215
  5
74C
 10
-19.667167
 20
15.8685
 30
0.0
 11
-19.822083
 21
15.779083
 31
0.0
  0
LINE
  8
1
  6
CONTINUOUS
 62
   215
  5
74D
 10
-19.93325
 20
15.714833
 30
0.0
 11
-20.46025
 21
15.410583
 31
0.0
  0
LINE
  8
1
  6
CONTINUOUS
 62
   215
  5
74E
 10
-19.575833
 20
15.797667
 30
0.0
 11
-19.760583
 21
15.691
 31
0.0
  0
LINE
  8
1
  6
CONTINUOUS
 62
   215
  5
74F
 10
-19.82675
 20
15.65275
 30
0.0
 11
-20.357
 21
15.346583
 31
0.0
  0
LINE
  8
1
  6
CONTINUOUS
 62
   215
  5
750
 10
-19.72625
 20
16.126417
 30
0.0
 11
-18.9355
 21
16.126417
 31
0.0
  0
LINE
  8
1
  6
CONTINUOUS
 62
   215
  5
751
 10
-18.763917
 20
16.126417
 30
0.0
 11
-18.697833
 21
16.126417
 31
0.0
  0
LINE
  8
1
  6
CONTINUOUS
 62
   215
  5
752
 10
-18.529167
 20
16.340417
 30
0.0
 11
-18.406167
 21
16.340417
 31
0.0
  0
LINE
  8
1
  6
CONTINUOUS
 62
   215
  5
753
 10
-18.630167
 20
16.233417
 30
0.0
 11
-18.552
 21
16.233417
 31
0.0
  0
LINE
  8
1
  6
CONTINUOUS
 62
   215
  5
754
 10
-19.849667
 20
16.01025
 30
0.0
 11
-19.965083
 21
15.943583
 31
0.0
  0
LINE
  8
1
  6
CONTINUOUS
 62
   215
  5
755
 10
-20.104167
 20
15.863333
 30
0.0
 11
-20.67425
 21
15.534167
 31
0.0
  0
LINE
  8
1
  6
CONTINUOUS
 62
   215
  5
756
 10
-20.18
 20
15.943083
 30
0.0
 11
-20.781167
 21
15.595917
 31
0.0
  0
LINE
  8
1
  6
CONTINUOUS
 62
   215
  5
757
 10
-20.294583
 20
16.0005
 30
0.0
 11
-20.88825
 21
15.657667
 31
0.0
  0
LINE
  8
1
  6
CONTINUOUS
 62
   215
  5
758
 10
-19.758417
 20
15.939417
 30
0.0
 11
-19.895083
 21
15.8605
 31
0.0
  0
LINE
  8
1
  6
CONTINUOUS
 62
   215
  5
759
 10
-20.002583
 20
15.798417
 30
0.0
 11
-20.567167
 21
15.472333
 31
0.0
  0
LINE
  8
1
  6
CONTINUOUS
 62
   215
  5
75A
 10
-20.21475
 20
16.293667
 30
0.0
 11
-20.257583
 21
16.268917
 31
0.0
  0
LINE
  8
1
  6
CONTINUOUS
 62
   215
  5
75B
 10
-20.371583
 20
16.203083
 30
0.0
 11
-21.079083
 21
15.794583
 31
0.0
  0
LINE
  8
1
  6
CONTINUOUS
 62
   215
  5
75C
 10
-24.56475
 20
16.233667
 30
0.0
 11
-23.672083
 21
16.233667
 31
0.0
  0
LINE
  8
1
  6
CONTINUOUS
 62
   215
  5
75D
 10
-24.984833
 20
16.233667
 30
0.0
 11
-24.904167
 21
16.233667
 31
0.0
  0
LINE
  8
1
  6
CONTINUOUS
 62
   215
  5
75E
 10
-25.13475
 20
16.340667
 30
0.0
 11
-25.045667
 21
16.340667
 31
0.0
  0
LINE
  8
1
  6
CONTINUOUS
 62
   215
  5
75F
 10
-25.434583
 20
16.554667
 30
0.0
 11
-25.127
 21
16.554667
 31
0.0
  0
LINE
  8
1
  6
CONTINUOUS
 62
   215
  5
760
 10
-24.840583
 20
16.554667
 30
0.0
 11
-23.232667
 21
16.554667
 31
0.0
  0
LINE
  8
1
  6
CONTINUOUS
 62
   215
  5
761
 10
-23.6695
 20
16.028
 30
0.0
 11
-23.527167
 21
15.945833
 31
0.0
  0
LINE
  8
1
  6
CONTINUOUS
 62
   215
  5
762
 10
-23.32725
 20
15.830417
 30
0.0
 11
-22.81425
 21
15.53425
 31
0.0
  0
LINE
  8
1
  6
CONTINUOUS
 62
   215
  5
763
 10
-23.763917
 20
15.958917
 30
0.0
 11
-23.59275
 21
15.860083
 31
0.0
  0
LINE
  8
1
  6
CONTINUOUS
 62
   215
  5
764
 10
-23.413083
 20
15.756333
 30
0.0
 11
-22.921333
 21
15.472417
 31
0.0
  0
LINE
  8
1
  6
CONTINUOUS
 62
   215
  5
765
 10
-23.858417
 20
15.889917
 30
0.0
 11
-23.659917
 21
15.775333
 31
0.0
  0
LINE
  8
1
  6
CONTINUOUS
 62
   215
  5
766
 10
-23.451667
 20
15.655083
 30
0.0
 11
-23.028333
 21
15.410667
 31
0.0
  0
LINE
  8
1
  6
CONTINUOUS
 62
   215
  5
767
 10
-23.575
 20
16.097
 30
0.0
 11
-23.506333
 21
16.057333
 31
0.0
  0
LINE
  8
1
  6
CONTINUOUS
 62
   215
  5
768
 10
-32.928
 20
16.308
 30
0.0
 11
-32.433667
 21
16.5935
 31
0.0
  0
LINE
  8
1
  6
CONTINUOUS
 62
   215
  5
769
 10
-32.244
 20
16.703
 30
0.0
 11
-32.104583
 21
16.7835
 31
0.0
  0
LINE
  8
1
  6
CONTINUOUS
 62
   215
  5
76A
 10
-32.820917
 20
16.24625
 30
0.0
 11
-32.364583
 21
16.50975
 31
0.0
  0
LINE
  8
1
  6
CONTINUOUS
 62
   215
  5
76B
 10
-32.124083
 20
16.648583
 30
0.0
 11
-32.011417
 21
16.713583
 31
0.0
  0
LINE
  8
1
  6
CONTINUOUS
 62
   215
  5
76C
 10
-32.714
 20
16.1845
 30
0.0
 11
-32.275917
 21
16.437417
 31
0.0
  0
LINE
  8
1
  6
CONTINUOUS
 62
   215
  5
76D
 10
-32.07125
 20
16.555667
 30
0.0
 11
-31.9185
 21
16.643833
 31
0.0
  0
LINE
  8
1
  6
CONTINUOUS
 62
   215
  5
76E
 10
-32.607
 20
16.122667
 30
0.0
 11
-32.209917
 21
16.351917
 31
0.0
  0
LINE
  8
1
  6
CONTINUOUS
 62
   215
  5
76F
 10
-31.990167
 20
16.47875
 30
0.0
 11
-31.825333
 21
16.573917
 31
0.0
  0
LINE
  8
1
  6
CONTINUOUS
 62
   215
  5
770
 10
-32.5
 20
16.060917
 30
0.0
 11
-32.134083
 21
16.27225
 31
0.0
  0
LINE
  8
1
  6
CONTINUOUS
 62
   215
  5
771
 10
-31.919333
 20
16.396167
 30
0.0
 11
-31.732333
 21
16.504167
 31
0.0
  0
LINE
  8
1
  6
CONTINUOUS
 62
   215
  5
772
 10
-32.393
 20
15.999083
 30
0.0
 11
-32.063667
 21
16.18925
 31
0.0
  0
LINE
  8
1
  6
CONTINUOUS
 62
   215
  5
773
 10
-31.83925
 20
16.31875
 30
0.0
 11
-31.63925
 21
16.43425
 31
0.0
  0
LINE
  8
1
  6
CONTINUOUS
 62
   215
  5
774
 10
-32.286
 20
15.937333
 30
0.0
 11
-31.992417
 21
16.106833
 31
0.0
  0
LINE
  8
1
  6
CONTINUOUS
 62
   215
  5
775
 10
-31.7795
 20
16.229833
 30
0.0
 11
-31.54625
 21
16.3645
 31
0.0
  0
LINE
  8
1
  6
CONTINUOUS
 62
   215
  5
776
 10
-35.448083
 20
15.594417
 30
0.0
 11
-35.817583
 21
15.807667
 31
0.0
  0
LINE
  8
1
  6
CONTINUOUS
 62
   215
  5
777
 10
-36.055417
 20
15.945
 30
0.0
 11
-36.274833
 21
16.071667
 31
0.0
  0
LINE
  8
1
  6
CONTINUOUS
 62
   215
  5
778
 10
-35.341167
 20
15.656083
 30
0.0
 11
-35.728417
 21
15.879667
 31
0.0
  0
LINE
  8
1
  6
CONTINUOUS
 62
   215
  5
779
 10
-35.234083
 20
15.717917
 30
0.0
 11
-35.655417
 21
15.961167
 31
0.0
  0
LINE
  8
1
  6
CONTINUOUS
 62
   215
  5
77A
 10
-35.90575
 20
16.10575
 30
0.0
 11
-36.088417
 21
16.211167
 31
0.0
  0
LINE
  8
1
  6
CONTINUOUS
 62
   215
  5
77B
 10
-35.127167
 20
15.779667
 30
0.0
 11
-35.580833
 21
16.041583
 31
0.0
  0
LINE
  8
1
  6
CONTINUOUS
 62
   215
  5
77C
 10
-35.84025
 20
16.191333
 30
0.0
 11
-35.995333
 21
16.280917
 31
0.0
  0
LINE
  8
1
  6
CONTINUOUS
 62
   215
  5
77D
 10
-35.014417
 20
15.838167
 30
0.0
 11
-35.507583
 21
16.122917
 31
0.0
  0
LINE
  8
1
  6
CONTINUOUS
 62
   215
  5
77E
 10
-35.771083
 20
16.275083
 30
0.0
 11
-35.902083
 21
16.350667
 31
0.0
  0
LINE
  8
1
  6
CONTINUOUS
 62
   215
  5
77F
 10
-34.943583
 20
15.920833
 30
0.0
 11
-35.390833
 21
16.179083
 31
0.0
  0
LINE
  8
1
  6
CONTINUOUS
 62
   215
  5
780
 10
-35.667917
 20
16.339
 30
0.0
 11
-35.808917
 21
16.420417
 31
0.0
  0
LINE
  8
1
  6
CONTINUOUS
 62
   215
  5
781
 10
-36.031583
 20
16.054667
 30
0.0
 11
-36.181667
 21
16.141333
 31
0.0
  0
LINE
  8
1
  6
CONTINUOUS
 62
   215
  5
782
 10
-17.291917
 20
4.131417
 30
0.0
 11
-17.350833
 21
4.165417
 31
0.0
  0
LINE
  8
1
  6
CONTINUOUS
 62
   215
  5
783
 10
-17.594833
 20
4.306333
 30
0.0
 11
-18.02775
 21
4.556333
 31
0.0
  0
LINE
  8
1
  6
CONTINUOUS
 62
   215
  5
784
 10
-17.197833
 20
4.200667
 30
0.0
 11
-17.256583
 21
4.234583
 31
0.0
  0
LINE
  8
1
  6
CONTINUOUS
 62
   215
  5
785
 10
-17.471083
 20
4.358417
 30
0.0
 11
-17.929
 21
4.622833
 31
0.0
  0
LINE
  8
1
  6
CONTINUOUS
 62
   215
  5
786
 10
-17.10375
 20
4.269917
 30
0.0
 11
-17.162333
 21
4.30375
 31
0.0
  0
LINE
  8
1
  6
CONTINUOUS
 62
   215
  5
787
 10
-17.372333
 20
4.425
 30
0.0
 11
-17.830333
 21
4.689417
 31
0.0
  0
LINE
  8
1
  6
CONTINUOUS
 62
   215
  5
788
 10
-17.386
 20
4.062167
 30
0.0
 11
-17.438917
 21
4.092667
 31
0.0
  0
LINE
  8
1
  6
CONTINUOUS
 62
   215
  5
789
 10
-17.64475
 20
4.211583
 30
0.0
 11
-18.126417
 21
4.489667
 31
0.0
  0
LINE
  8
1
  6
CONTINUOUS
 62
   215
  5
78A
 10
-17.480083
 20
3.992917
 30
0.0
 11
-17.522083
 21
4.017167
 31
0.0
  0
LINE
  8
1
  6
CONTINUOUS
 62
   215
  5
78B
 10
-17.69375
 20
4.116333
 30
0.0
 11
-18.225083
 21
4.423167
 31
0.0
  0
LINE
  8
1
  6
CONTINUOUS
 62
   215
  5
78C
 10
-17.574167
 20
3.92375
 30
0.0
 11
-17.612167
 21
3.945667
 31
0.0
  0
LINE
  8
1
  6
CONTINUOUS
 62
   215
  5
78D
 10
-17.767917
 20
4.035583
 30
0.0
 11
-18.323833
 21
4.356583
 31
0.0
  0
LINE
  8
1
  6
CONTINUOUS
 62
   215
  5
78E
 10
-19.556
 20
3.335583
 30
0.0
 11
-19.236417
 21
3.551083
 31
0.0
  0
LINE
  8
1
  6
CONTINUOUS
 62
   215
  5
78F
 10
-18.941417
 20
3.750167
 30
0.0
 11
-18.77125
 21
3.864917
 31
0.0
  0
LINE
  8
1
  6
CONTINUOUS
 62
   215
  5
790
 10
-19.460083
 20
3.271333
 30
0.0
 11
-19.122333
 21
3.499167
 31
0.0
  0
LINE
  8
1
  6
CONTINUOUS
 62
   215
  5
791
 10
-18.858583
 20
3.677
 30
0.0
 11
-18.675333
 21
3.800583
 31
0.0
  0
LINE
  8
1
  6
CONTINUOUS
 62
   215
  5
792
 10
-19.364083
 20
3.206917
 30
0.0
 11
-19.041167
 21
3.42475
 31
0.0
  0
LINE
  8
1
  6
CONTINUOUS
 62
   215
  5
793
 10
-18.73725
 20
3.629667
 30
0.0
 11
-18.57925
 21
3.73625
 31
0.0
  0
LINE
  8
1
  6
CONTINUOUS
 62
   215
  5
794
 10
-19.268167
 20
3.142667
 30
0.0
 11
-18.946167
 21
3.359833
 31
0.0
  0
LINE
  8
1
  6
CONTINUOUS
 62
   215
  5
795
 10
-18.649167
 20
3.560167
 30
0.0
 11
-18.483417
 21
3.671917
 31
0.0
  0
LINE
  8
1
  6
CONTINUOUS
 62
   215
  5
796
 10
-19.172083
 20
3.07825
 30
0.0
 11
-18.877083
 21
3.27725
 31
0.0
  0
LINE
  8
1
  6
CONTINUOUS
 62
   215
  5
797
 10
-18.5575
 20
3.49275
 30
0.0
 11
-18.387333
 21
3.607583
 31
0.0
  0
LINE
  8
1
  6
CONTINUOUS
 62
   215
  5
798
 10
-21.944083
 20
3.404
 30
0.0
 11
-22.256417
 21
3.614667
 31
0.0
  0
LINE
  8
1
  6
CONTINUOUS
 62
   215
  5
799
 10
-22.54125
 20
3.80675
 30
0.0
 11
-22.734
 21
3.936667
 31
0.0
  0
LINE
  8
1
  6
CONTINUOUS
 62
   215
  5
79A
 10
-22.040083
 20
3.339667
 30
0.0
 11
-22.332417
 21
3.536833
 31
0.0
  0
LINE
  8
1
  6
CONTINUOUS
 62
   215
  5
79B
 10
-22.645917
 20
3.748167
 30
0.0
 11
-22.83
 21
3.872333
 31
0.0
  0
LINE
  8
1
  6
CONTINUOUS
 62
   215
  5
79C
 10
-22.136083
 20
3.275333
 30
0.0
 11
-22.398667
 21
3.452417
 31
0.0
  0
LINE
  8
1
  6
CONTINUOUS
 62
   215
  5
79D
 10
-22.71575
 20
3.66625
 30
0.0
 11
-22.926
 21
3.808
 31
0.0
  0
LINE
  8
1
  6
CONTINUOUS
 62
   215
  5
79E
 10
-22.232083
 20
3.211
 30
0.0
 11
-22.511167
 21
3.39925
 31
0.0
  0
LINE
  8
1
  6
CONTINUOUS
 62
   215
  5
79F
 10
-22.829833
 20
3.614083
 30
0.0
 11
-23.021917
 21
3.743667
 31
0.0
  0
LINE
  8
1
  6
CONTINUOUS
 62
   215
  5
7A0
 10
-22.328083
 20
3.146667
 30
0.0
 11
-22.629667
 21
3.35
 31
0.0
  0
LINE
  8
1
  6
CONTINUOUS
 62
   215
  5
7A1
 10
-22.90225
 20
3.533917
 30
0.0
 11
-23.117917
 21
3.679333
 31
0.0
  0
LINE
  8
1
  6
CONTINUOUS
 62
   215
  5
7A2
 10
-24.382833
 20
4.195583
 30
0.0
 11
-24.160667
 21
4.323833
 31
0.0
  0
LINE
  8
1
  6
CONTINUOUS
 62
   215
  5
7A3
 10
-23.8385
 20
4.509833
 30
0.0
 11
-23.649917
 21
4.61875
 31
0.0
  0
LINE
  8
1
  6
CONTINUOUS
 62
   215
  5
7A4
 10
-24.288833
 20
4.126333
 30
0.0
 11
-24.079167
 21
4.247417
 31
0.0
  0
LINE
  8
1
  6
CONTINUOUS
 62
   215
  5
7A5
 10
-23.713083
 20
4.458833
 30
0.0
 11
-23.55125
 21
4.55225
 31
0.0
  0
LINE
  8
1
  6
CONTINUOUS
 62
   215
  5
7A6
 10
-24.19475
 20
4.057083
 30
0.0
 11
-23.990333
 21
4.175083
 31
0.0
  0
LINE
  8
1
  6
CONTINUOUS
 62
   215
  5
7A7
 10
-23.625833
 20
4.385583
 30
0.0
 11
-23.4525
 21
4.485667
 31
0.0
  0
LINE
  8
1
  6
CONTINUOUS
 62
   215
  5
7A8
 10
-24.100667
 20
3.987917
 30
0.0
 11
-23.879083
 21
4.115917
 31
0.0
  0
LINE
  8
1
  6
CONTINUOUS
 62
   215
  5
7A9
 10
-23.548
 20
4.307083
 30
0.0
 11
-23.353917
 21
4.419167
 31
0.0
  0
LINE
  8
1
  6
CONTINUOUS
 62
   215
  5
7AA
 10
-24.006583
 20
3.918667
 30
0.0
 11
-23.788583
 21
4.0445
 31
0.0
  0
LINE
  8
1
  6
CONTINUOUS
 62
   215
  5
7AB
 10
-23.480333
 20
4.222417
 30
0.0
 11
-23.255083
 21
4.3525
 31
0.0
  0
TEXT
  8
3
  6
HIDDEN
 62
     2
  5
7AD
 10
-10.685667
 20
14.124667
 30
0.0
 40
0.15
  1
NOTES
  7
ROMANS
210
0.0
220
0.0
230
1.0
  0
TEXT
  8
3
  6
HIDDEN
 62
     2
  5
7AE
 10
-12.072833
 20
13.591583
 30
0.0
 40
0.12
  1
The appropriate details and notes
  7
ROMANS
210
0.0
220
0.0
230
1.0
  0
TEXT
  8
3
  6
HIDDEN
 62
     2
  5
7AF
 10
-12.535167
 20
13.340667
 30
0.0
 40
0.12
  1
of Standard Sheet PVT7, sheet 1 of 2, 
  7
ROMANS
210
0.0
220
0.0
230
1.0
  0
TEXT
  8
3
  6
HIDDEN
 62
     2
  5
7B0
 10
-12.550833
 20
13.097583
 30
0.0
 40
0.12
  1
shall apply to this Standard Sheet.
  7
ROMANS
210
0.0
220
0.0
230
1.0
  0
ENDSEC
  0
EOF
