  0
SECTION
  2
HEADER
  9
$ACADVER
  1
AC1009
  9
$INSBASE
 10
0.0
 20
0.0
 30
0.0
  9
$EXTMIN
 10
-45.9195
 20
-346.7435
 30
0.0
  9
$EXTMAX
 10
614.411917
 20
76.3965
 30
0.0
  9
$LIMMIN
 10
0.0
 20
0.0
  9
$LIMMAX
 10
12.0
 20
9.0
  9
$ORTHOMODE
 70
     0
  9
$REGENMODE
 70
     1
  9
$FILLMODE
 70
     1
  9
$QTEXTMODE
 70
     0
  9
$MIRRTEXT
 70
     1
  9
$DRAGMODE
 70
     2
  9
$LTSCALE
 40
1.0
  9
$OSMODE
 70
     0
  9
$ATTMODE
 70
     1
  9
$TEXTSIZE
 40
0.2
  9
$TRACEWID
 40
0.05
  9
$TEXTSTYLE
  7
STANDARD
  9
$CLAYER
  8
0
  9
$CELTYPE
  6
CONTINUOUS
  9
$CECOLOR
 62
   256
  9
$DIMSCALE
 40
1.0
  9
$DIMASZ
 40
0.18
  9
$DIMEXO
 40
0.0625
  9
$DIMDLI
 40
0.38
  9
$DIMRND
 40
0.0
  9
$DIMDLE
 40
0.0
  9
$DIMEXE
 40
0.18
  9
$DIMTP
 40
0.0
  9
$DIMTM
 40
0.0
  9
$DIMTXT
 40
0.18
  9
$DIMCEN
 40
0.09
  9
$DIMTSZ
 40
0.0
  9
$DIMTOL
 70
     0
  9
$DIMLIM
 70
     0
  9
$DIMTIH
 70
     1
  9
$DIMTOH
 70
     1
  9
$DIMSE1
 70
     0
  9
$DIMSE2
 70
     0
  9
$DIMTAD
 70
     0
  9
$DIMZIN
 70
     0
  9
$DIMBLK
  1

  9
$DIMASO
 70
     1
  9
$DIMSHO
 70
     1
  9
$DIMPOST
  1

  9
$DIMAPOST
  1

  9
$DIMALT
 70
     0
  9
$DIMALTD
 70
     2
  9
$DIMALTF
 40
25.4
  9
$DIMLFAC
 40
1.0
  9
$DIMTOFL
 70
     0
  9
$DIMTVP
 40
0.0
  9
$DIMTIX
 70
     0
  9
$DIMSOXD
 70
     0
  9
$DIMSAH
 70
     0
  9
$DIMBLK1
  1

  9
$DIMBLK2
  1

  9
$DIMSTYLE
  2
STANDARD
  9
$DIMCLRD
 70
     0
  9
$DIMCLRE
 70
     0
  9
$DIMCLRT
 70
     0
  9
$DIMTFAC
 40
1.0
  9
$DIMGAP
 40
0.09
  9
$LUNITS
 70
     2
  9
$LUPREC
 70
     4
  9
$AXISMODE
 70
     0
  9
$AXISUNIT
 10
0.0
 20
0.0
  9
$SKETCHINC
 40
0.1
  9
$FILLETRAD
 40
0.0
  9
$AUNITS
 70
     0
  9
$AUPREC
 70
     0
  9
$MENU
  1
acad
  9
$ELEVATION
 40
0.0
  9
$PELEVATION
 40
0.0
  9
$THICKNESS
 40
0.0
  9
$LIMCHECK
 70
     0
  9
$BLIPMODE
 70
     1
  9
$CHAMFERA
 40
0.0
  9
$CHAMFERB
 40
0.0
  9
$SKPOLY
 70
     0
  9
$TDCREATE
 40
2451803.386192130
  9
$TDUPDATE
 40
2451803.386192130
  9
$TDINDWG
 40
0.0000000000
  9
$TDUSRTIMER
 40
0.0000000000
  9
$USRTIMER
 70
     1
  9
$ANGBASE
 50
0.0
  9
$ANGDIR
 70
     0
  9
$PDMODE
 70
     0
  9
$PDSIZE
 40
0.0
  9
$PLINEWID
 40
0.0
  9
$COORDS
 70
     0
  9
$SPLFRAME
 70
     0
  9
$SPLINETYPE
 70
     6
  9
$SPLINESEGS
 70
    10
  9
$ATTDIA
 70
     0
  9
$ATTREQ
 70
     1
  9
$HANDLING
 70
     1
  9
$HANDSEED
  5
47B
  9
$SURFTAB1
 70
     6
  9
$SURFTAB2
 70
     6
  9
$SURFTYPE
 70
     6
  9
$SURFU
 70
     6
  9
$SURFV
 70
     6
  9
$UCSNAME
  2

  9
$UCSORG
 10
0.0
 20
0.0
 30
0.0
  9
$UCSXDIR
 10
1.0
 20
0.0
 30
0.0
  9
$UCSYDIR
 10
0.0
 20
1.0
 30
0.0
  9
$PUCSNAME
  2

  9
$PUCSORG
 10
0.0
 20
0.0
 30
0.0
  9
$PUCSXDIR
 10
1.0
 20
0.0
 30
0.0
  9
$PUCSYDIR
 10
0.0
 20
1.0
 30
0.0
  9
$USERI1
 70
     0
  9
$USERI2
 70
     0
  9
$USERI3
 70
     0
  9
$USERI4
 70
     0
  9
$USERI5
 70
     0
  9
$USERR1
 40
0.0
  9
$USERR2
 40
0.0
  9
$USERR3
 40
0.0
  9
$USERR4
 40
0.0
  9
$USERR5
 40
0.0
  9
$WORLDVIEW
 70
     1
  9
$SHADEDGE
 70
     3
  9
$SHADEDIF
 70
    70
  9
$TILEMODE
 70
     1
  9
$MAXACTVP
 70
    16
  9
$PINSBASE
 10
0.0
 20
0.0
 30
0.0
  9
$PLIMCHECK
 70
     0
  9
$PEXTMIN
 10
-1.000000E+20
 20
-1.000000E+20
 30
-1.000000E+20
  9
$PEXTMAX
 10
-1.000000E+20
 20
-1.000000E+20
 30
-1.000000E+20
  9
$PLIMMIN
 10
0.0
 20
0.0
  9
$PLIMMAX
 10
12.0
 20
9.0
  9
$UNITMODE
 70
     0
  9
$VISRETAIN
 70
     0
  9
$PLINEGEN
 70
     1
  9
$PSLTSCALE
 70
     0
  9
$TREEDEPTH
 70
  3020
  9
$DWGCODEPAGE
  3
ansi_1252
  0
ENDSEC
  0
SECTION
  2
TABLES
  0
TABLE
  2
VPORT
 70
     1
  0
VPORT
  2
*ACTIVE
 70
     0
 10
0.0
 20
0.0
 11
1.0
 21
1.0
 12
0.0
 22
0.0
 13
0.0
 23
0.0
 14
0.0
 24
0.0
 15
0.0
 25
0.0
 16
0.0
 26
0.0
 36
1.0
 17
239.378967
 27
-133.6235
 37
0.0
 40
451.041
 41
1.795122
 42
50.0
 43
0.0
 44
0.0
 50
0.0
 51
0.0
 71
     0
 72
   100
 73
     1
 74
     0
 75
     0
 76
     0
 77
     0
 78
     0
  0
ENDTAB
  0
TABLE
  2
LTYPE
 70
     7
  0
LTYPE
  2
CONTINUOUS
 70
     0
  3
Solid line
 72
    65
 73
     0
 40
0.0
  0
LTYPE
  2
DOT
 70
    64
  3
. . . . . . . . . . . . . . . . . . . . . . . . . . . . . . . . .
 72
    65
 73
     2
 40
0.25
 49
0.0
 49
-0.25
  0
LTYPE
  2
HIDDEN
 70
    64
  3
__ __ __ __ __ __ __ __ __ __ __ __ __ __ __ __ __ __ __ __ __ 
 72
    65
 73
     2
 40
0.375
 49
0.25
 49
-0.125
  0
LTYPE
  2
DASHED
 70
    64
  3
__ __ __ __ __ __ __ __ __ __ __ __ __ __ __ __ __ __ __ __ __
 72
    65
 73
     2
 40
0.75
 49
0.5
 49
-0.25
  0
LTYPE
  2
DASHDOT
 70
    64
  3
__ . __ . __ . __ . __ . __ . __ . __ . __ . __ . __ . __ . _
 72
    65
 73
     4
 40
1.0
 49
0.5
 49
-0.25
 49
0.0
 49
-0.25
  0
LTYPE
  2
DIVIDE
 70
    64
  3
____ . . ____ . . ____ . . ____ . . ____ . . ____ . . ____ . .
 72
    65
 73
     6
 40
1.25
 49
0.5
 49
-0.25
 49
0.0
 49
-0.25
 49
0.0
 49
-0.25
  0
LTYPE
  2
CENTER
 70
    64
  3
____ _ ____ _ ____ _ ____ _ ____ _ ____ _ ____ _ ____ _ ____ _
 72
    65
 73
     4
 40
2.0
 49
1.25
 49
-0.25
 49
0.25
 49
-0.25
  0
ENDTAB
  0
TABLE
  2
LAYER
 70
     5
  0
LAYER
  2
0
 70
     0
 62
     7
  6
CONTINUOUS
  0
LAYER
  2
CONSTRUCTION_CLASS
 70
     0
 62
     7
  6
CONTINUOUS
  0
LAYER
  2
PATTERN_CLASS
 70
     0
 62
     7
  6
CONTINUOUS
  0
LAYER
  2
61
 70
    64
 62
     7
  6
CONTINUOUS
  0
LAYER
  2
1
 70
    64
 62
     7
  6
CONTINUOUS
  0
ENDTAB
  0
TABLE
  2
STYLE
 70
     4
  0
STYLE
  2
STANDARD
 70
     0
 40
0.0
 41
1.0
 50
0.0
 71
     0
 42
0.0
  3
txt
  4

  0
STYLE
  2
MONOTXT
 70
     0
 40
0.2
 41
1.0
 50
0.0
 71
     0
 42
0.2
  3
MONOTXT
  4

  0
STYLE
  2
txt
 70
     0
 40
0.2
 41
1.0
 50
0.0
 71
     0
 42
0.2
  3
TXT
  4

  0
STYLE
  2
ROMANT
 70
     0
 40
0.2
 41
1.0
 50
0.0
 71
     0
 42
0.2
  3
ROMANT
  4

  0
ENDTAB
  0
TABLE
  2
VIEW
 70
     0
  0
ENDTAB
  0
TABLE
  2
UCS
 70
     0
  0
ENDTAB
  0
TABLE
  2
APPID
 70
     1
  0
APPID
  2
ACAD
 70
     0
  0
ENDTAB
  0
TABLE
  2
DIMSTYLE
 70
     1
  0
DIMSTYLE
  2
STANDARD
 70
     0
  3

  4

  5

  6

  7

 40
1.0
 41
0.18
 42
0.0625
 43
0.38
 44
0.18
 45
0.0
 46
0.0
 47
0.0
 48
0.0
140
0.18
141
0.09
142
0.0
143
25.4
144
1.0
145
0.0
146
1.0
147
0.09
 71
     0
 72
     0
 73
     1
 74
     1
 75
     0
 76
     0
 77
     0
 78
     0
170
     0
171
     2
172
     0
173
     0
174
     0
175
     0
176
     0
177
     0
178
     0
  0
ENDTAB
  0
ENDSEC
  0
SECTION
  2
BLOCKS
  0
BLOCK
  8
1
  6
CONTINUOUS
 62
     1
  5
213
  2
LDR
 70
     0
 10
0.0
 20
0.0
 30
0.0
  3
LNR
  0
POLYLINE
  8
1
  6
CONTINUOUS
 62
     1
  5
214
 66
     1
 10
0.0
 20
0.0
 30
0.0
210
0.0
220
0.0
230
1.0
  0
VERTEX
  8
1
  6
CONTINUOUS
 62
     1
  5
215
 10
-0.011987
 20
-0.001802
 30
0.0
 42
-0.265147
  0
VERTEX
  8
1
  6
CONTINUOUS
 62
     1
  5
216
 10
-0.011848
 20
-0.001604
 30
0.0
 42
-0.064653
  0
VERTEX
  8
1
  6
CONTINUOUS
 62
     1
  5
217
 10
-0.011407
 20
-0.001387
 30
0.0
 42
-0.025822
  0
VERTEX
  8
1
  6
CONTINUOUS
 62
     1
  5
218
 10
-0.010681
 20
-0.00116
 30
0.0
 42
-0.014504
  0
VERTEX
  8
1
  6
CONTINUOUS
 62
     1
  5
219
 10
-0.0097
 20
-0.000933
 30
0.0
 42
-0.009896
  0
VERTEX
  8
1
  6
CONTINUOUS
 62
     1
  5
21A
 10
-0.008505
 20
-0.000715
 30
0.0
 42
-0.007708
  0
VERTEX
  8
1
  6
CONTINUOUS
 62
     1
  5
21B
 10
-0.007145
 20
-0.000515
 30
0.0
 42
-0.006655
  0
VERTEX
  8
1
  6
CONTINUOUS
 62
     1
  5
21C
 10
-0.005678
 20
-0.000342
 30
0.0
 42
-0.006278
  0
VERTEX
  8
1
  6
CONTINUOUS
 62
     1
  5
21D
 10
-0.004164
 20
-0.000202
 30
0.0
 42
-0.006439
  0
VERTEX
  8
1
  6
CONTINUOUS
 62
     1
  5
21E
 10
-0.002666
 20
-0.000101
 30
0.0
 42
-0.007196
  0
VERTEX
  8
1
  6
CONTINUOUS
 62
     1
  5
21F
 10
-0.001245
 20
-0.000044
 30
0.0
 42
-0.008852
  0
VERTEX
  8
1
  6
CONTINUOUS
 62
     1
  5
220
 10
0.000038
 20
-0.000034
 30
0.0
 42
-0.008852
  0
SEQEND
  8
1
  6
CONTINUOUS
 62
     1
  5
221
  0
POLYLINE
  8
1
  6
CONTINUOUS
 62
     1
  5
222
 66
     1
 10
0.0
 20
0.0
 30
0.0
210
0.0
220
0.0
230
1.0
  0
VERTEX
  8
1
  6
CONTINUOUS
 62
     1
  5
223
 10
0.000039
 20
0.000014
 30
0.0
 42
-0.005019
  0
VERTEX
  8
1
  6
CONTINUOUS
 62
     1
  5
224
 10
-0.001103
 20
0.000071
 30
0.0
 42
-0.004038
  0
VERTEX
  8
1
  6
CONTINUOUS
 62
     1
  5
225
 10
-0.002372
 20
0.000158
 30
0.0
 42
-0.003548
  0
VERTEX
  8
1
  6
CONTINUOUS
 62
     1
  5
226
 10
-0.003725
 20
0.00027
 30
0.0
 42
-0.003367
  0
VERTEX
  8
1
  6
CONTINUOUS
 62
     1
  5
227
 10
-0.005111
 20
0.000405
 30
0.0
 42
-0.003436
  0
VERTEX
  8
1
  6
CONTINUOUS
 62
     1
  5
228
 10
-0.006481
 20
0.000556
 30
0.0
 42
-0.003778
  0
VERTEX
  8
1
  6
CONTINUOUS
 62
     1
  5
229
 10
-0.007786
 20
0.00072
 30
0.0
 42
-0.00451
  0
VERTEX
  8
1
  6
CONTINUOUS
 62
     1
  5
22A
 10
-0.008979
 20
0.000889
 30
0.0
 42
-0.00594
  0
VERTEX
  8
1
  6
CONTINUOUS
 62
     1
  5
22B
 10
-0.010017
 20
0.001058
 30
0.0
 42
-0.008921
  0
VERTEX
  8
1
  6
CONTINUOUS
 62
     1
  5
22C
 10
-0.010864
 20
0.00122
 30
0.0
 42
-0.016392
  0
VERTEX
  8
1
  6
CONTINUOUS
 62
     1
  5
22D
 10
-0.011488
 20
0.001371
 30
0.0
 42
-0.04458
  0
VERTEX
  8
1
  6
CONTINUOUS
 62
     1
  5
22E
 10
-0.011866
 20
0.001503
 30
0.0
 42
-0.317392
  0
VERTEX
  8
1
  6
CONTINUOUS
 62
     1
  5
22F
 10
-0.011987
 20
0.001614
 30
0.0
 42
-0.317392
  0
SEQEND
  8
1
  6
CONTINUOUS
 62
     1
  5
230
  0
ENDBLK
  8
1
  6
CONTINUOUS
 62
     1
  5
231
  0
ENDSEC
  0
SECTION
  2
ENTITIES
  0
LINE
  8
61
  6
CONTINUOUS
 62
     1
  5
29
 10
614.202667
 20
76.3965
 30
0.0
 11
-24.837333
 21
76.3965
 31
0.0
  0
LINE
  8
61
  6
CONTINUOUS
 62
     1
  5
2A
 10
-24.837333
 20
76.3965
 30
0.0
 11
-24.837333
 21
-343.6235
 31
0.0
  0
LINE
  8
61
  6
CONTINUOUS
 62
     1
  5
2B
 10
614.222667
 20
-343.6435
 30
0.0
 11
-24.837333
 21
-343.6235
 31
0.0
  0
LINE
  8
61
  6
CONTINUOUS
 62
     1
  5
2C
 10
614.202667
 20
76.3965
 30
0.0
 11
614.222667
 21
-343.6435
 31
0.0
  0
LINE
  8
61
  6
CONTINUOUS
 62
     1
  5
2D
 10
608.102667
 20
71.6565
 30
0.0
 11
500.122667
 21
71.6365
 31
0.0
  0
LINE
  8
61
  6
CONTINUOUS
 62
     1
  5
2E
 10
500.122667
 20
71.6365
 30
0.0
 11
500.122667
 21
51.6365
 31
0.0
  0
LINE
  8
61
  6
CONTINUOUS
 62
     1
  5
2F
 10
608.102667
 20
71.6565
 30
0.0
 11
608.102667
 21
51.6565
 31
0.0
  0
LINE
  8
61
  6
CONTINUOUS
 62
     1
  5
30
 10
608.102667
 20
51.6565
 30
0.0
 11
500.122667
 21
51.6365
 31
0.0
  0
LINE
  8
61
  6
CONTINUOUS
 62
     1
  5
31
 10
608.122667
 20
61.6165
 30
0.0
 11
500.102667
 21
61.6365
 31
0.0
  0
LINE
  8
61
  6
CONTINUOUS
 62
     1
  5
32
 10
510.122667
 20
71.6365
 30
0.0
 11
510.122667
 21
51.6365
 31
0.0
  0
LINE
  8
61
  6
CONTINUOUS
 62
     1
  5
33
 10
520.122667
 20
71.6365
 30
0.0
 11
520.122667
 21
51.6365
 31
0.0
  0
LINE
  8
61
  6
CONTINUOUS
 62
     1
  5
34
 10
533.802667
 20
71.6365
 30
0.0
 11
533.802667
 21
51.6365
 31
0.0
  0
LINE
  8
61
  6
CONTINUOUS
 62
     1
  5
35
 10
598.102667
 20
71.6565
 30
0.0
 11
598.102667
 21
51.6565
 31
0.0
  0
LINE
  8
61
  6
CONTINUOUS
 62
     1
  5
36
 10
588.102667
 20
71.6565
 30
0.0
 11
588.102667
 21
51.6565
 31
0.0
  0
LINE
  8
61
  6
CONTINUOUS
 62
     1
  5
37
 10
566.122667
 20
71.6365
 30
0.0
 11
566.122667
 21
51.6365
 31
0.0
  0
LINE
  8
61
  6
CONTINUOUS
 62
     1
  5
38
 10
556.122667
 20
71.6365
 30
0.0
 11
556.122667
 21
51.6365
 31
0.0
  0
TEXT
  8
61
  6
CONTINUOUS
 62
     1
  5
3A
 10
502.162667
 20
68.6165
 30
0.0
 40
1.20075
  1
PUBLIC
 50
0.033272
 41
1.001804
  7
MONOTXT
210
0.0
220
0.0
230
1.0
  0
TEXT
  8
61
  6
CONTINUOUS
 62
     1
  5
3B
 10
502.242667
 20
66.0965
 30
0.0
 40
1.20075
  1
ROADS
 50
0.124322
 41
0.996877
  7
MONOTXT
210
0.0
220
0.0
230
1.0
  0
TEXT
  8
61
  6
CONTINUOUS
 62
     1
  5
3C
 10
503.442667
 20
63.5965
 30
0.0
 40
1.20075
  1
DIV.
 50
359.931522
 41
0.994864
  7
MONOTXT
210
0.0
220
0.0
230
1.0
  0
TEXT
  8
61
  6
CONTINUOUS
 62
     1
  5
3D
 10
512.322667
 20
68.6765
 30
0.0
 40
1.20075
  1
STATE
 50
0.058969
 41
0.998196
  7
MONOTXT
210
0.0
220
0.0
230
1.0
  0
TEXT
  8
61
  6
CONTINUOUS
 62
     1
  5
3E
 10
513.202667
 20
66.1765
 30
0.0
 40
1.20075
  1
DIST.
 50
0.055889
 41
0.999584
  7
MONOTXT
210
0.0
220
0.0
230
1.0
  0
TEXT
  8
61
  6
CONTINUOUS
 62
     1
  5
3F
 10
513.782667
 20
63.6565
 30
0.0
 40
1.20075
  1
NO.
 50
359.852072
 41
0.997779
  7
MONOTXT
210
0.0
220
0.0
230
1.0
  0
TEXT
  8
61
  6
CONTINUOUS
 62
     1
  5
40
 10
524.322667
 20
68.6165
 30
0.0
 40
1.20075
  1
STATE
 50
0.058969
 41
0.998196
  7
MONOTXT
210
0.0
220
0.0
230
1.0
  0
TEXT
  8
61
  6
CONTINUOUS
 62
     1
  5
41
 10
523.242667
 20
66.1965
 30
0.0
 40
1.20075
  1
PROJECT
 50
359.908431
 41
1.000069
  7
MONOTXT
210
0.0
220
0.0
230
1.0
  0
TEXT
  8
61
  6
CONTINUOUS
 62
     1
  5
42
 10
525.982667
 20
63.6565
 30
0.0
 40
1.20075
  1
NO.
 50
0.225453
 41
0.993546
  7
MONOTXT
210
0.0
220
0.0
230
1.0
  0
TEXT
  8
61
  6
CONTINUOUS
 62
     1
  5
43
 10
541.622667
 20
67.4965
 30
0.0
 40
1.20075
  1
FEDERAL
 50
0.006714
 41
0.998543
  7
MONOTXT
210
0.0
220
0.0
230
1.0
  0
TEXT
  8
61
  6
CONTINUOUS
 62
     1
  5
44
 10
540.082667
 20
64.8365
 30
0.0
 40
1.20075
  1
PROJECT NO.
 50
359.921531
 41
1.000694
  7
MONOTXT
210
0.0
220
0.0
230
1.0
  0
TEXT
  8
61
  6
CONTINUOUS
 62
     1
  5
45
 10
558.362667
 20
67.4365
 30
0.0
 40
1.20075
  1
FISCAL
 50
359.941939
 41
0.998959
  7
MONOTXT
210
0.0
220
0.0
230
1.0
  0
TEXT
  8
61
  6
CONTINUOUS
 62
     1
  5
46
 10
558.882667
 20
64.5365
 30
0.0
 40
1.20075
  1
YEAR
 50
0.104606
 41
0.993268
  7
MONOTXT
210
0.0
220
0.0
230
1.0
  0
TEXT
  8
61
  6
CONTINUOUS
 62
     1
  5
47
 10
572.982667
 20
65.8965
 30
0.0
 40
1.20075
  1
COUNTY
 50
0.068575
 41
1.001874
  7
MONOTXT
210
0.0
220
0.0
230
1.0
  0
TEXT
  8
61
  6
CONTINUOUS
 62
     1
  5
48
 10
590.622667
 20
67.5565
 30
0.0
 40
1.20075
  1
SHEET
 50
0.058969
 41
0.997571
  7
MONOTXT
210
0.0
220
0.0
230
1.0
  0
TEXT
  8
61
  6
CONTINUOUS
 62
     1
  5
49
 10
592.042667
 20
64.8365
 30
0.0
 40
1.20075
  1
NO.
 50
359.852072
 41
0.997779
  7
MONOTXT
210
0.0
220
0.0
230
1.0
  0
TEXT
  8
61
  6
CONTINUOUS
 62
     1
  5
4A
 10
600.362667
 20
67.4165
 30
0.0
 40
1.20075
  1
TOTAL
 50
359.926039
 41
0.998543
  7
MONOTXT
210
0.0
220
0.0
230
1.0
  0
TEXT
  8
61
  6
CONTINUOUS
 62
     1
  5
4B
 10
599.902667
 20
64.7165
 30
0.0
 40
1.20075
  1
SHEETS
 50
359.958675
  7
MONOTXT
210
0.0
220
0.0
230
1.0
  0
TEXT
  8
61
  6
CONTINUOUS
 62
     1
  5
4C
 10
512.722667
 20
55.8365
 30
0.0
 40
2.401333
  1
  
 50
0.029406
 41
0.996495
  7
MONOTXT
210
0.0
220
0.0
230
1.0
  0
TEXT
  8
61
  6
CONTINUOUS
 62
     1
  5
4D
 10
589.902667
 20
55.5565
 30
0.0
 40
2.401333
  1
   
 50
0.011508
 41
1.001006
  7
MONOTXT
210
0.0
220
0.0
230
1.0
  0
TEXT
  8
61
  6
CONTINUOUS
 62
     1
  5
4E
 10
599.782667
 20
55.5365
 30
0.0
 40
2.401333
  1
   
 50
359.922128
 41
1.000555
  7
MONOTXT
210
0.0
220
0.0
230
1.0
  0
TEXT
  8
61
  6
CONTINUOUS
 62
     1
  5
4F
 10
523.162667
 20
58.9365
 30
0.0
 40
2.00675
  1
    
 50
0.054383
 41
0.993729
  7
MONOTXT
210
0.0
220
0.0
230
1.0
  0
TEXT
  8
61
  6
CONTINUOUS
 62
     1
  5
50
 10
520.242667
 20
55.9165
 30
0.0
 40
1.989583
  1
       
 50
0.064678
 41
1.000963
  7
MONOTXT
210
0.0
220
0.0
230
1.0
  0
TEXT
  8
61
  6
CONTINUOUS
 62
     1
  5
51
 10
521.202667
 20
53.0165
 30
0.0
 40
1.989583
  1
      
 50
359.958053
 41
1.000293
  7
MONOTXT
210
0.0
220
0.0
230
1.0
  0
TEXT
  8
61
  6
CONTINUOUS
 62
     1
  5
52
 10
532.162667
 20
57.6565
 30
0.0
 40
2.401333
  1
           
 50
0.011508
 41
0.998751
  7
MONOTXT
210
0.0
220
0.0
230
1.0
  0
TEXT
  8
61
  6
CONTINUOUS
 62
     1
  5
53
 10
532.042667
 20
53.9965
 30
0.0
 40
2.401333
  1
           
 50
0.011508
 41
0.999584
  7
MONOTXT
210
0.0
220
0.0
230
1.0
  0
TEXT
  8
61
  6
CONTINUOUS
 62
     1
  5
54
 10
567.382667
 20
55.7365
 30
0.0
 40
2.00675
  1
          
 50
0.009222
 41
0.992774
  7
MONOTXT
210
0.0
220
0.0
230
1.0
  0
ARC
  8
61
  6
CONTINUOUS
 62
     1
  5
55
 10
-43.139577
 20
-12.362205
 30
0.0
 40
2.499998
 50
323.130094
 51
316.232156
210
0.0
220
0.0
230
1.0
  0
ARC
  8
61
  6
CONTINUOUS
 62
     1
  5
56
 10
-43.139577
 20
-67.362205
 30
0.0
 40
2.499998
 50
323.130094
 51
315.375767
210
0.0
220
0.0
230
1.0
  0
ARC
  8
61
  6
CONTINUOUS
 62
     1
  5
57
 10
-43.419577
 20
-215.802205
 30
0.0
 40
2.499998
 50
322.671753
 51
321.716147
210
0.0
220
0.0
230
1.0
  0
ARC
  8
61
  6
CONTINUOUS
 62
     1
  5
58
 10
-43.419577
 20
-270.802205
 30
0.0
 40
2.499998
 50
323.130094
 51
312.314392
210
0.0
220
0.0
230
1.0
  0
LINE
  8
61
  6
CONTINUOUS
 62
     1
  5
59
 10
-41.117333
 20
-12.3635
 30
0.0
 11
-33.137333
 21
-12.3435
 31
0.0
  0
LINE
  8
61
  6
CONTINUOUS
 62
     1
  5
5A
 10
-41.137333
 20
-67.3635
 30
0.0
 11
-33.137333
 21
-67.3635
 31
0.0
  0
LINE
  8
61
  6
CONTINUOUS
 62
     1
  5
5B
 10
-41.417333
 20
-215.7835
 30
0.0
 11
-33.417333
 21
-215.7835
 31
0.0
  0
LINE
  8
61
  6
CONTINUOUS
 62
     1
  5
5C
 10
-41.397333
 20
-270.8035
 30
0.0
 11
-33.417333
 21
-270.8035
 31
0.0
  0
TEXT
  8
61
  6
CONTINUOUS
 62
     1
  5
5D
 10
587.642667
 20
43.8165
 30
0.0
 40
2.401333
  1
     
 41
1.001388
  7
MONOTXT
210
0.0
220
0.0
230
1.0
  0
TEXT
  8
1
  6
CONTINUOUS
 62
     1
  5
60
 10
579.942667
 20
-346.1435
 30
0.0
 40
1.2
  1
TRAFFIC ENGINEERING DIVISION
  7
txt
210
0.0
220
0.0
230
1.0
  0
LINE
  8
1
  6
CONTINUOUS
 62
     1
  5
61
 10
442.562667
 20
-343.6435
 30
0.0
 11
442.562667
 21
-252.0635
 31
0.0
  0
LINE
  8
1
  6
CONTINUOUS
 62
     1
  5
62
 10
442.562667
 20
-252.0635
 30
0.0
 11
614.222667
 21
-252.0635
 31
0.0
  0
LINE
  8
1
  6
CONTINUOUS
 62
     1
  5
63
 10
477.562667
 20
-343.6835
 30
0.0
 11
477.562667
 21
-298.7235
 31
0.0
  0
LINE
  8
1
  6
CONTINUOUS
 62
     1
  5
64
 10
477.562667
 20
-298.7235
 30
0.0
 11
442.582667
 21
-298.7235
 31
0.0
  0
LINE
  8
1
  6
CONTINUOUS
 62
     1
  5
65
 10
477.562667
 20
-303.2035
 30
0.0
 11
442.582667
 21
-303.2035
 31
0.0
  0
LINE
  8
1
  6
CONTINUOUS
 62
     1
  5
66
 10
477.562667
 20
-307.7035
 30
0.0
 11
442.582667
 21
-307.7035
 31
0.0
  0
LINE
  8
1
  6
CONTINUOUS
 62
     1
  5
67
 10
477.562667
 20
-312.2035
 30
0.0
 11
442.582667
 21
-312.2035
 31
0.0
  0
LINE
  8
1
  6
CONTINUOUS
 62
     1
  5
68
 10
477.562667
 20
-316.7235
 30
0.0
 11
442.582667
 21
-316.7235
 31
0.0
  0
LINE
  8
1
  6
CONTINUOUS
 62
     1
  5
69
 10
477.562667
 20
-321.2035
 30
0.0
 11
442.582667
 21
-321.2035
 31
0.0
  0
LINE
  8
1
  6
CONTINUOUS
 62
     1
  5
6A
 10
477.562667
 20
-325.6835
 30
0.0
 11
442.582667
 21
-325.6835
 31
0.0
  0
LINE
  8
1
  6
CONTINUOUS
 62
     1
  5
6B
 10
477.562667
 20
-330.1835
 30
0.0
 11
442.582667
 21
-330.1835
 31
0.0
  0
LINE
  8
1
  6
CONTINUOUS
 62
     1
  5
6C
 10
477.562667
 20
-334.6835
 30
0.0
 11
442.582667
 21
-334.6835
 31
0.0
  0
LINE
  8
1
  6
CONTINUOUS
 62
     1
  5
6D
 10
477.562667
 20
-339.2035
 30
0.0
 11
442.582667
 21
-339.2035
 31
0.0
  0
TEXT
  8
1
  6
CONTINUOUS
 62
     1
  5
6E
 10
452.842667
 20
-301.7235
 30
0.0
 40
1.99775
  1
REVISIONS
  7
MONOTXT
210
0.0
220
0.0
230
1.0
  0
TEXT
  8
1
  6
CONTINUOUS
 62
     1
  5
6F
 10
444.522667
 20
-297.7235
 30
0.0
 40
1.99775
  1
PREPARED:   /  /  
  7
MONOTXT
210
0.0
220
0.0
230
1.0
  0
TEXT
  8
1
  6
CONTINUOUS
 62
     1
  5
71
 10
475.182667
 20
-260.6635
 30
0.0
 40
4.794833
  1
WEST VIRGINIA DIVISION OF HIGHWAYS
  7
ROMANT
 72
     1
 11
529.152917
 21
-255.868667
 31
0.0
210
0.0
220
0.0
230
1.0
 73
     3
  0
TEXT
  8
1
  6
CONTINUOUS
 62
     1
  5
72
 10
485.942667
 20
-271.8235
 30
0.0
 40
6.992667
  1
STANDARD DETAIL
  7
txt
 72
     1
 11
530.43275
 21
-264.830833
 31
0.0
210
0.0
220
0.0
230
1.0
 73
     3
  0
TEXT
  8
1
  6
CONTINUOUS
 62
     1
  5
73
 10
481.402667
 20
-339.6035
 30
0.0
 40
6.992667
  1
STANDARD SHEET TE12-1
  7
txt
210
0.0
220
0.0
230
1.0
  0
TEXT
  8
1
  6
CONTINUOUS
 62
     1
  5
74
 10
452.209083
 20
-306.7835
 30
0.0
 40
2.0
  1
04-22-75
  7
MONOTXT
 72
     1
 11
459.539917
 21
-304.7835
 31
0.0
210
0.0
220
0.0
230
1.0
 73
     3
  0
TEXT
  8
1
  6
CONTINUOUS
 62
     1
  5
75
 10
453.559167
 20
-311.1835
 30
0.0
 40
2.0
  1
11-15-76
  7
MONOTXT
 72
     1
 11
459.519833
 21
-309.1835
 31
0.0
210
0.0
220
0.0
230
1.0
 73
     3
  0
TEXT
  8
1
  6
CONTINUOUS
 62
     1
  5
76
 10
452.287833
 20
-315.5835
 30
0.0
 40
2.0
  1
09-30-77
  7
MONOTXT
 72
     1
 11
459.532
 21
-313.5835
 31
0.0
210
0.0
220
0.0
230
1.0
 73
     3
  0
TEXT
  8
1
  6
CONTINUOUS
 62
     1
  5
77
 10
451.862667
 20
-319.9835
 30
0.0
 40
2.0
  1
        
  7
MONOTXT
 72
     1
 11
459.5295
 21
-317.9835
 31
0.0
210
0.0
220
0.0
230
1.0
 73
     3
  0
TEXT
  8
1
  6
CONTINUOUS
 62
     1
  5
78
 10
451.702667
 20
-324.5835
 30
0.0
 40
2.0
  1
        
  7
MONOTXT
 72
     1
 11
459.3695
 21
-322.5835
 31
0.0
210
0.0
220
0.0
230
1.0
 73
     3
  0
TEXT
  8
1
  6
CONTINUOUS
 62
     1
  5
79
 10
451.862667
 20
-329.0635
 30
0.0
 40
2.0
  1
        
  7
MONOTXT
 72
     1
 11
459.5295
 21
-327.0635
 31
0.0
210
0.0
220
0.0
230
1.0
 73
     3
  0
TEXT
  8
1
  6
CONTINUOUS
 62
     1
  5
7A
 10
451.762667
 20
-333.6635
 30
0.0
 40
2.0
  1
        
  7
MONOTXT
 72
     1
 11
459.4295
 21
-331.6635
 31
0.0
210
0.0
220
0.0
230
1.0
 73
     3
  0
TEXT
  8
1
  6
CONTINUOUS
 62
     1
  5
7B
 10
451.862667
 20
-338.2435
 30
0.0
 40
2.0
  1
        
  7
MONOTXT
 72
     1
 11
459.5295
 21
-336.2435
 31
0.0
210
0.0
220
0.0
230
1.0
 73
     3
  0
TEXT
  8
1
  6
CONTINUOUS
 62
     1
  5
7C
 10
451.862667
 20
-342.2635
 30
0.0
 40
2.0
  1
        
  7
MONOTXT
 72
     1
 11
459.5295
 21
-340.2635
 31
0.0
210
0.0
220
0.0
230
1.0
 73
     3
  0
TEXT
  8
1
  6
CONTINUOUS
 62
     1
  5
7D
 10
494.682667
 20
-346.0435
 30
0.0
 40
1.2
  1
CATALOG:dt standa  FILENAME:te121.dgn    DATE:03/10/93
  7
MONOTXT
210
0.0
220
0.0
230
1.0
  0
TEXT
  8
1
  6
CONTINUOUS
 62
     1
  5
7E
 10
486.838
 20
-290.44825
 30
0.0
 40
6.992667
  1
FOR GUIDE SIGNS
  7
txt
 72
     1
 11
530.266667
 21
-283.455583
 31
0.0
210
0.0
220
0.0
230
1.0
 73
     3
  0
TEXT
  8
1
  6
CONTINUOUS
 62
     1
  5
7F
 10
492.092
 20
-280.969583
 30
0.0
 40
6.992667
  1
SHIELD DETAILS
  7
txt
 72
     1
 11
530.433
 21
-273.976917
 31
0.0
210
0.0
220
0.0
230
1.0
 73
     3
  0
POLYLINE
  8
1
  6
CONTINUOUS
 62
     7
  5
80
 66
     1
 10
0.0
 20
0.0
 30
0.0
  0
VERTEX
  8
1
  6
CONTINUOUS
 62
     7
  5
81
 10
447.521583
 20
-308.180417
 30
0.0
  0
VERTEX
  8
1
  6
CONTINUOUS
 62
     7
  5
82
 10
445.521583
 20
-311.6445
 30
0.0
  0
VERTEX
  8
1
  6
CONTINUOUS
 62
     7
  5
83
 10
449.521583
 20
-311.6445
 30
0.0
  0
VERTEX
  8
1
  6
CONTINUOUS
 62
     7
  5
84
 10
447.521583
 20
-308.180417
 30
0.0
  0
SEQEND
  8
1
  6
CONTINUOUS
 62
     7
  5
85
  0
POLYLINE
  8
1
  6
CONTINUOUS
 62
     7
  5
86
 66
     1
 10
0.0
 20
0.0
 30
0.0
  0
VERTEX
  8
1
  6
CONTINUOUS
 62
     7
  5
87
 10
447.446833
 20
-312.688583
 30
0.0
  0
VERTEX
  8
1
  6
CONTINUOUS
 62
     7
  5
88
 10
445.446833
 20
-316.152667
 30
0.0
  0
VERTEX
  8
1
  6
CONTINUOUS
 62
     7
  5
89
 10
449.446833
 20
-316.152667
 30
0.0
  0
VERTEX
  8
1
  6
CONTINUOUS
 62
     7
  5
8A
 10
447.446833
 20
-312.688583
 30
0.0
  0
SEQEND
  8
1
  6
CONTINUOUS
 62
     7
  5
8B
  0
TEXT
  8
1
  6
CONTINUOUS
 62
     7
  5
8C
 10
447.240583
 20
-310.955333
 30
0.0
 40
1.5
  1
1
  7
MONOTXT
210
0.0
220
0.0
230
1.0
  0
TEXT
  8
1
  6
CONTINUOUS
 62
     7
  5
8D
 10
446.984417
 20
-315.5125
 30
0.0
 40
1.5
  1
2
  7
MONOTXT
210
0.0
220
0.0
230
1.0
  0
POLYLINE
  8
1
  6
CONTINUOUS
 62
     7
  5
8E
 66
     1
 10
0.0
 20
0.0
 30
0.0
  0
VERTEX
  8
1
  6
CONTINUOUS
 62
     7
  5
8F
 10
445.104917
 20
-245.776583
 30
0.0
  0
VERTEX
  8
1
  6
CONTINUOUS
 62
     7
  5
90
 10
443.104917
 20
-249.240667
 30
0.0
  0
VERTEX
  8
1
  6
CONTINUOUS
 62
     7
  5
91
 10
447.104917
 20
-249.240667
 30
0.0
  0
VERTEX
  8
1
  6
CONTINUOUS
 62
     7
  5
92
 10
445.104917
 20
-245.776583
 30
0.0
  0
SEQEND
  8
1
  6
CONTINUOUS
 62
     7
  5
93
  0
POLYLINE
  8
1
  6
CONTINUOUS
 62
     7
  5
94
 66
     1
 10
0.0
 20
0.0
 30
0.0
  0
VERTEX
  8
1
  6
CONTINUOUS
 62
     7
  5
95
 10
445.179667
 20
-241.268417
 30
0.0
  0
VERTEX
  8
1
  6
CONTINUOUS
 62
     7
  5
96
 10
443.179667
 20
-244.7325
 30
0.0
  0
VERTEX
  8
1
  6
CONTINUOUS
 62
     7
  5
97
 10
447.179667
 20
-244.7325
 30
0.0
  0
VERTEX
  8
1
  6
CONTINUOUS
 62
     7
  5
98
 10
445.179667
 20
-241.268417
 30
0.0
  0
SEQEND
  8
1
  6
CONTINUOUS
 62
     7
  5
99
  0
TEXT
  8
1
  6
CONTINUOUS
 62
     7
  5
9A
 10
444.898667
 20
-244.043333
 30
0.0
 40
1.5
  1
1
  7
MONOTXT
210
0.0
220
0.0
230
1.0
  0
TEXT
  8
1
  6
CONTINUOUS
 62
     7
  5
9B
 10
444.6425
 20
-248.6005
 30
0.0
 40
1.5
  1
2
  7
MONOTXT
210
0.0
220
0.0
230
1.0
  0
TEXT
  8
1
  6
CONTINUOUS
 62
     7
  5
9C
 10
448.388583
 20
-243.787167
 30
0.0
 40
1.5
  1
SIGNATURE BLOCK
  7
MONOTXT
210
0.0
220
0.0
230
1.0
  0
TEXT
  8
1
  6
CONTINUOUS
 62
     7
  5
9D
 10
448.388583
 20
-248.307083
 30
0.0
 40
1.5
  1
ADDED DETAIL (OVAL) SHIELD
  7
MONOTXT
210
0.0
220
0.0
230
1.0
  0
POINT
  8
1
  6
CONTINUOUS
 62
     2
  5
9E
 10
71.784
 20
-85.0825
 30
0.0
  0
POINT
  8
1
  6
CONTINUOUS
 62
     2
  5
9F
 10
99.6935
 20
-85.0825
 30
0.0
  0
POINT
  8
1
  6
CONTINUOUS
 62
     2
  5
A0
 10
85.73875
 20
-85.042833
 30
0.0
  0
POLYLINE
  8
1
  6
CONTINUOUS
 62
     2
  5
A1
 66
     1
 10
0.0
 20
0.0
 30
0.0
  0
VERTEX
  8
1
  6
CONTINUOUS
 62
     2
  5
A2
 10
62.230803
 20
-24.02492
 30
0.0
 42
-0.618034
  0
VERTEX
  8
1
  6
CONTINUOUS
 62
     2
  5
A3
 10
48.113128
 20
18.328105
 30
0.0
  0
VERTEX
  8
1
  6
CONTINUOUS
 62
     2
  5
A4
 10
48.113128
 20
18.328105
 30
0.0
 42
0.125
  0
VERTEX
  8
1
  6
CONTINUOUS
 62
     2
  5
A5
 10
62.230804
 20
18.328105
 30
0.0
  0
VERTEX
  8
1
  6
CONTINUOUS
 62
     2
  5
A6
 10
62.230803
 20
18.328105
 30
0.0
 42
0.125
  0
VERTEX
  8
1
  6
CONTINUOUS
 62
     2
  5
A7
 10
76.348479
 20
18.328105
 30
0.0
  0
VERTEX
  8
1
  6
CONTINUOUS
 62
     2
  5
A8
 10
76.348478
 20
18.328105
 30
0.0
 42
-0.618034
  0
VERTEX
  8
1
  6
CONTINUOUS
 62
     2
  5
A9
 10
62.230803
 20
-24.02492
 30
0.0
  0
SEQEND
  8
1
  6
CONTINUOUS
 62
     2
  5
AA
  0
LINE
  8
1
  6
CONTINUOUS
 62
     2
  5
AB
 10
82.092167
 20
7.73975
 30
0.0
 11
42.369333
 21
7.73975
 31
0.0
  0
ARC
  8
1
  6
CONTINUOUS
 62
     2
  5
AC
 10
65.760222
 20
0.681011
 30
0.0
 40
24.432641
 50
135.692364
 51
163.20725
210
0.0
220
0.0
230
1.0
  0
ARC
  8
1
  6
CONTINUOUS
 62
     2
  5
AD
 10
55.171966
 20
46.122278
 30
0.0
 40
29.200646
 50
256.340497
 51
283.988964
210
0.0
220
0.0
230
1.0
  0
ARC
  8
1
  6
CONTINUOUS
 62
     2
  5
AE
 10
69.289641
 20
46.122278
 30
0.0
 40
29.200646
 50
256.011036
 51
283.659503
210
0.0
220
0.0
230
1.0
  0
ARC
  8
1
  6
CONTINUOUS
 62
     2
  5
AF
 10
58.701384
 20
0.681011
 30
0.0
 40
24.432641
 50
16.79275
 51
44.307636
210
0.0
220
0.0
230
1.0
  0
LINE
  8
1
  6
CONTINUOUS
 62
     2
  5
B0
 10
42.217833
 20
7.215667
 30
0.0
 11
82.243833
 21
7.215667
 31
0.0
  0
ARC
  8
1
  6
CONTINUOUS
 62
     2
  5
B1
 10
58.701384
 20
0.681011
 30
0.0
 40
24.432641
 50
278.130103
 51
15.513144
210
0.0
220
0.0
230
1.0
  0
ARC
  8
1
  6
CONTINUOUS
 62
     2
  5
B2
 10
65.760222
 20
0.681011
 30
0.0
 40
24.432641
 50
164.486856
 51
261.869897
210
0.0
220
0.0
230
1.0
  0
TEXT
  8
1
  6
CONTINUOUS
 62
     1
  5
B3
 10
47.086167
 20
10.568083
 30
0.0
 40
3.529417
  1
INTERSTATE
 41
0.900007
  7
txt
 72
     4
 11
62.243333
 21
12.33275
 31
0.0
210
0.0
220
0.0
230
1.0
  0
POINT
  8
1
  6
CONTINUOUS
 62
     2
  5
B4
 10
279.2965
 20
-80.188833
 30
0.0
  0
POINT
  8
1
  6
CONTINUOUS
 62
     2
  5
B5
 10
314.182333
 20
-80.188833
 30
0.0
  0
POINT
  8
1
  6
CONTINUOUS
 62
     2
  5
B6
 10
296.7395
 20
-80.149167
 30
0.0
  0
POLYLINE
  8
1
  6
CONTINUOUS
 62
     2
  5
B7
 66
     1
 10
0.0
 20
0.0
 30
0.0
210
0.0
220
0.0
230
1.0
  0
VERTEX
  8
1
  6
CONTINUOUS
 62
     2
  5
B8
 10
187.230854
 20
-24.024933
 30
0.0
 42
-0.041186
  0
VERTEX
  8
1
  6
CONTINUOUS
 62
     2
  5
B9
 10
181.145368
 20
-22.820407
 30
0.0
 42
-0.043198
  0
VERTEX
  8
1
  6
CONTINUOUS
 62
     2
  5
BA
 10
175.483808
 20
-20.666802
 30
0.0
 42
-0.04636
  0
VERTEX
  8
1
  6
CONTINUOUS
 62
     2
  5
BB
 10
170.474817
 20
-17.651093
 30
0.0
 42
-0.050514
  0
VERTEX
  8
1
  6
CONTINUOUS
 62
     2
  5
BC
 10
166.320683
 20
-13.895068
 30
0.0
 42
-0.055207
  0
VERTEX
  8
1
  6
CONTINUOUS
 62
     2
  5
BD
 10
163.189169
 20
-9.550415
 30
0.0
 42
-0.059561
  0
VERTEX
  8
1
  6
CONTINUOUS
 62
     2
  5
BE
 10
161.206743
 20
-4.792591
 30
0.0
 42
-0.06237
  0
VERTEX
  8
1
  6
CONTINUOUS
 62
     2
  5
BF
 10
160.453464
 20
0.186258
 30
0.0
 42
-0.062643
  0
VERTEX
  8
1
  6
CONTINUOUS
 62
     2
  5
C0
 10
160.959752
 20
5.185063
 30
0.0
 42
-0.060275
  0
VERTEX
  8
1
  6
CONTINUOUS
 62
     2
  5
C1
 10
162.705163
 20
10.001946
 30
0.0
 42
-0.056126
  0
VERTEX
  8
1
  6
CONTINUOUS
 62
     2
  5
C2
 10
165.619208
 20
14.442378
 30
0.0
 42
-0.051415
  0
VERTEX
  8
1
  6
CONTINUOUS
 62
     2
  5
C3
 10
169.584202
 20
18.327033
 30
0.0
 42
-0.051415
  0
SEQEND
  8
1
  6
CONTINUOUS
 62
     2
  5
C4
  0
POLYLINE
  8
1
  6
CONTINUOUS
 62
     2
  5
C5
 66
     1
 10
0.0
 20
0.0
 30
0.0
210
0.0
220
0.0
230
1.0
  0
VERTEX
  8
1
  6
CONTINUOUS
 62
     2
  5
C6
 10
169.584201
 20
18.327033
 30
0.0
 42
0.03353
  0
VERTEX
  8
1
  6
CONTINUOUS
 62
     2
  5
C7
 10
175.439281
 20
17.543188
 30
0.0
 42
0.033201
  0
VERTEX
  8
1
  6
CONTINUOUS
 62
     2
  5
C8
 10
181.375776
 20
17.543188
 30
0.0
 42
0.03353
  0
VERTEX
  8
1
  6
CONTINUOUS
 62
     2
  5
C9
 10
187.230855
 20
18.327033
 30
0.0
 42
0.03353
  0
SEQEND
  8
1
  6
CONTINUOUS
 62
     2
  5
CA
  0
POLYLINE
  8
1
  6
CONTINUOUS
 62
     2
  5
CB
 66
     1
 10
0.0
 20
0.0
 30
0.0
210
0.0
220
0.0
230
1.0
  0
VERTEX
  8
1
  6
CONTINUOUS
 62
     2
  5
CC
 10
187.230854
 20
18.327033
 30
0.0
 42
0.03353
  0
VERTEX
  8
1
  6
CONTINUOUS
 62
     2
  5
CD
 10
193.085933
 20
17.543188
 30
0.0
 42
0.033201
  0
VERTEX
  8
1
  6
CONTINUOUS
 62
     2
  5
CE
 10
199.022428
 20
17.543188
 30
0.0
 42
0.03353
  0
VERTEX
  8
1
  6
CONTINUOUS
 62
     2
  5
CF
 10
204.877507
 20
18.327033
 30
0.0
 42
0.03353
  0
SEQEND
  8
1
  6
CONTINUOUS
 62
     2
  5
D0
  0
POLYLINE
  8
1
  6
CONTINUOUS
 62
     2
  5
D1
 66
     1
 10
0.0
 20
0.0
 30
0.0
210
0.0
220
0.0
230
1.0
  0
VERTEX
  8
1
  6
CONTINUOUS
 62
     2
  5
D2
 10
204.877507
 20
18.327033
 30
0.0
 42
-0.051415
  0
VERTEX
  8
1
  6
CONTINUOUS
 62
     2
  5
D3
 10
208.842501
 20
14.442378
 30
0.0
 42
-0.056126
  0
VERTEX
  8
1
  6
CONTINUOUS
 62
     2
  5
D4
 10
211.756546
 20
10.001946
 30
0.0
 42
-0.060275
  0
VERTEX
  8
1
  6
CONTINUOUS
 62
     2
  5
D5
 10
213.501956
 20
5.185063
 30
0.0
 42
-0.062643
  0
VERTEX
  8
1
  6
CONTINUOUS
 62
     2
  5
D6
 10
214.008245
 20
0.186258
 30
0.0
 42
-0.06237
  0
VERTEX
  8
1
  6
CONTINUOUS
 62
     2
  5
D7
 10
213.254966
 20
-4.792591
 30
0.0
 42
-0.059561
  0
VERTEX
  8
1
  6
CONTINUOUS
 62
     2
  5
D8
 10
211.272539
 20
-9.550415
 30
0.0
 42
-0.055207
  0
VERTEX
  8
1
  6
CONTINUOUS
 62
     2
  5
D9
 10
208.141026
 20
-13.895068
 30
0.0
 42
-0.050514
  0
VERTEX
  8
1
  6
CONTINUOUS
 62
     2
  5
DA
 10
203.986891
 20
-17.651093
 30
0.0
 42
-0.04636
  0
VERTEX
  8
1
  6
CONTINUOUS
 62
     2
  5
DB
 10
198.977901
 20
-20.666802
 30
0.0
 42
-0.043198
  0
VERTEX
  8
1
  6
CONTINUOUS
 62
     2
  5
DC
 10
193.316341
 20
-22.820407
 30
0.0
 42
-0.041186
  0
VERTEX
  8
1
  6
CONTINUOUS
 62
     2
  5
DD
 10
187.230855
 20
-24.024933
 30
0.0
 42
-0.041186
  0
SEQEND
  8
1
  6
CONTINUOUS
 62
     2
  5
DE
  0
LINE
  8
1
  6
CONTINUOUS
 62
     2
  5
DF
 10
212.057167
 20
7.739417
 30
0.0
 11
162.404417
 21
7.739417
 31
0.0
  0
POLYLINE
  8
1
  6
CONTINUOUS
 62
     2
  5
E0
 66
     1
 10
0.0
 20
0.0
 30
0.0
210
0.0
220
0.0
230
1.0
  0
VERTEX
  8
1
  6
CONTINUOUS
 62
     2
  5
E1
 10
162.404828
 20
7.739054
 30
0.0
 42
-0.068837
  0
VERTEX
  8
1
  6
CONTINUOUS
 62
     2
  5
E2
 10
165.34192
 20
13.09901
 30
0.0
 42
-0.06223
  0
VERTEX
  8
1
  6
CONTINUOUS
 62
     2
  5
E3
 10
169.788078
 20
17.746414
 30
0.0
 42
-0.06223
  0
SEQEND
  8
1
  6
CONTINUOUS
 62
     2
  5
E4
  0
POLYLINE
  8
1
  6
CONTINUOUS
 62
     2
  5
E5
 66
     1
 10
0.0
 20
0.0
 30
0.0
210
0.0
220
0.0
230
1.0
  0
VERTEX
  8
1
  6
CONTINUOUS
 62
     2
  5
E6
 10
169.788027
 20
17.746477
 30
0.0
 42
0.048619
  0
VERTEX
  8
1
  6
CONTINUOUS
 62
     2
  5
E7
 10
178.512468
 20
16.920715
 30
0.0
 42
0.048644
  0
VERTEX
  8
1
  6
CONTINUOUS
 62
     2
  5
E8
 10
187.23083
 20
17.786597
 30
0.0
 42
0.048644
  0
SEQEND
  8
1
  6
CONTINUOUS
 62
     2
  5
E9
  0
POLYLINE
  8
1
  6
CONTINUOUS
 62
     2
  5
EA
 66
     1
 10
0.0
 20
0.0
 30
0.0
210
0.0
220
0.0
230
1.0
  0
VERTEX
  8
1
  6
CONTINUOUS
 62
     2
  5
EB
 10
187.230879
 20
17.786597
 30
0.0
 42
0.048644
  0
VERTEX
  8
1
  6
CONTINUOUS
 62
     2
  5
EC
 10
195.94924
 20
16.920715
 30
0.0
 42
0.048619
  0
VERTEX
  8
1
  6
CONTINUOUS
 62
     2
  5
ED
 10
204.673682
 20
17.746477
 30
0.0
 42
0.048619
  0
SEQEND
  8
1
  6
CONTINUOUS
 62
     2
  5
EE
  0
POLYLINE
  8
1
  6
CONTINUOUS
 62
     2
  5
EF
 66
     1
 10
0.0
 20
0.0
 30
0.0
210
0.0
220
0.0
230
1.0
  0
VERTEX
  8
1
  6
CONTINUOUS
 62
     2
  5
F0
 10
204.673631
 20
17.746414
 30
0.0
 42
-0.06223
  0
VERTEX
  8
1
  6
CONTINUOUS
 62
     2
  5
F1
 10
209.119789
 20
13.09901
 30
0.0
 42
-0.068837
  0
VERTEX
  8
1
  6
CONTINUOUS
 62
     2
  5
F2
 10
212.056881
 20
7.739054
 30
0.0
 42
-0.068837
  0
SEQEND
  8
1
  6
CONTINUOUS
 62
     2
  5
F3
  0
LINE
  8
1
  6
CONTINUOUS
 62
     2
  5
F4
 10
162.215333
 20
7.214833
 30
0.0
 11
212.24625
 21
7.214833
 31
0.0
  0
POLYLINE
  8
1
  6
CONTINUOUS
 62
     2
  5
F5
 66
     1
 10
0.0
 20
0.0
 30
0.0
210
0.0
220
0.0
230
1.0
  0
VERTEX
  8
1
  6
CONTINUOUS
 62
     2
  5
F6
 10
212.246628
 20
7.214957
 30
0.0
 42
-0.057994
  0
VERTEX
  8
1
  6
CONTINUOUS
 62
     2
  5
F7
 10
213.256848
 20
2.679247
 30
0.0
 42
-0.058981
  0
VERTEX
  8
1
  6
CONTINUOUS
 62
     2
  5
F8
 10
213.184746
 20
-1.92754
 30
0.0
 42
-0.057702
  0
VERTEX
  8
1
  6
CONTINUOUS
 62
     2
  5
F9
 10
212.032886
 20
-6.441593
 30
0.0
 42
-0.05459
  0
VERTEX
  8
1
  6
CONTINUOUS
 62
     2
  5
FA
 10
209.842227
 20
-10.702398
 30
0.0
 42
-0.05055
  0
VERTEX
  8
1
  6
CONTINUOUS
 62
     2
  5
FB
 10
206.690664
 20
-14.558447
 30
0.0
 42
-0.046475
  0
VERTEX
  8
1
  6
CONTINUOUS
 62
     2
  5
FC
 10
202.690265
 20
-17.872624
 30
0.0
 42
-0.042959
  0
VERTEX
  8
1
  6
CONTINUOUS
 62
     2
  5
FD
 10
197.983277
 20
-20.527081
 30
0.0
 42
-0.040296
  0
VERTEX
  8
1
  6
CONTINUOUS
 62
     2
  5
FE
 10
192.737074
 20
-22.427429
 30
0.0
 42
-0.03859
  0
VERTEX
  8
1
  6
CONTINUOUS
 62
     2
  5
FF
 10
187.138205
 20
-23.506095
 30
0.0
 42
-0.03859
  0
SEQEND
  8
1
  6
CONTINUOUS
 62
     2
  5
100
  0
POLYLINE
  8
1
  6
CONTINUOUS
 62
     2
  5
101
 66
     1
 10
0.0
 20
0.0
 30
0.0
210
0.0
220
0.0
230
1.0
  0
VERTEX
  8
1
  6
CONTINUOUS
 62
     2
  5
102
 10
187.323504
 20
-23.506095
 30
0.0
 42
-0.03859
  0
VERTEX
  8
1
  6
CONTINUOUS
 62
     2
  5
103
 10
181.724635
 20
-22.427429
 30
0.0
 42
-0.040296
  0
VERTEX
  8
1
  6
CONTINUOUS
 62
     2
  5
104
 10
176.478432
 20
-20.527081
 30
0.0
 42
-0.042959
  0
VERTEX
  8
1
  6
CONTINUOUS
 62
     2
  5
105
 10
171.771444
 20
-17.872624
 30
0.0
 42
-0.046475
  0
VERTEX
  8
1
  6
CONTINUOUS
 62
     2
  5
106
 10
167.771045
 20
-14.558447
 30
0.0
 42
-0.05055
  0
VERTEX
  8
1
  6
CONTINUOUS
 62
     2
  5
107
 10
164.619482
 20
-10.702398
 30
0.0
 42
-0.05459
  0
VERTEX
  8
1
  6
CONTINUOUS
 62
     2
  5
108
 10
162.428823
 20
-6.441593
 30
0.0
 42
-0.057702
  0
VERTEX
  8
1
  6
CONTINUOUS
 62
     2
  5
109
 10
161.276963
 20
-1.92754
 30
0.0
 42
-0.058981
  0
VERTEX
  8
1
  6
CONTINUOUS
 62
     2
  5
10A
 10
161.204861
 20
2.679247
 30
0.0
 42
-0.057994
  0
VERTEX
  8
1
  6
CONTINUOUS
 62
     2
  5
10B
 10
162.215081
 20
7.214957
 30
0.0
 42
-0.057994
  0
SEQEND
  8
1
  6
CONTINUOUS
 62
     2
  5
10C
  0
TEXT
  8
1
  6
CONTINUOUS
 62
     1
  5
10D
 10
168.3005
 20
10.567417
 30
0.0
 40
3.529417
  1
INTERSTATE
 41
1.124973
  7
txt
 72
     4
 11
187.246333
 21
12.332083
 31
0.0
210
0.0
220
0.0
230
1.0
  0
TEXT
  8
1
  6
CONTINUOUS
 62
     1
  5
10E
 10
281.04275
 20
-113.466083
 30
0.0
 40
11.343333
  1
   
 41
1.000015
  7
txt
 72
     1
 11
297.924
 21
-113.466083
 31
0.0
210
0.0
220
0.0
230
1.0
  0
POINT
  8
1
  6
CONTINUOUS
 62
     2
  5
10F
 10
109.389917
 20
-191.706083
 30
0.0
  0
POINT
  8
1
  6
CONTINUOUS
 62
     2
  5
110
 10
121.490333
 20
-191.706083
 30
0.0
  0
POINT
  8
1
  6
CONTINUOUS
 62
     2
  5
111
 10
131.320833
 20
-181.875583
 30
0.0
  0
POLYLINE
  8
1
  6
CONTINUOUS
 62
     2
  5
112
 66
     1
 10
0.0
 20
0.0
 30
0.0
  0
VERTEX
  8
1
  6
CONTINUOUS
 62
     2
  5
113
 10
62.191095
 20
-78.168174
 30
0.0
 42
0.204691
  0
VERTEX
  8
1
  6
CONTINUOUS
 62
     2
  5
114
 10
56.18076
 20
-75.60005
 30
0.0
  0
VERTEX
  8
1
  6
CONTINUOUS
 62
     2
  5
115
 10
56.18076
 20
-75.600312
 30
0.0
 42
-0.512515
  0
VERTEX
  8
1
  6
CONTINUOUS
 62
     2
  5
116
 10
46.860745
 20
-62.641434
 30
0.0
  0
VERTEX
  8
1
  6
CONTINUOUS
 62
     2
  5
117
 10
46.860701
 20
-62.641294
 30
0.0
 42
0.234298
  0
VERTEX
  8
1
  6
CONTINUOUS
 62
     2
  5
118
 10
45.121619
 20
-50.575628
 30
0.0
  0
VERTEX
  8
1
  6
CONTINUOUS
 62
     2
  5
119
 10
45.026083
 20
-50.641583
 30
0.0
  0
VERTEX
  8
1
  6
CONTINUOUS
 62
     2
  5
11A
 10
51.642417
 20
-44.025167
 30
0.0
  0
VERTEX
  8
1
  6
CONTINUOUS
 62
     2
  5
11B
 10
51.642579
 20
-44.024949
 30
0.0
 42
0.333276
  0
VERTEX
  8
1
  6
CONTINUOUS
 62
     2
  5
11C
 10
62.230835
 20
-44.024949
 30
0.0
  0
VERTEX
  8
1
  6
CONTINUOUS
 62
     2
  5
11D
 10
62.230836
 20
-44.024949
 30
0.0
 42
0.333276
  0
VERTEX
  8
1
  6
CONTINUOUS
 62
     2
  5
11E
 10
72.819092
 20
-44.024949
 30
0.0
  0
VERTEX
  8
1
  6
CONTINUOUS
 62
     2
  5
11F
 10
72.818917
 20
-44.025167
 30
0.0
  0
VERTEX
  8
1
  6
CONTINUOUS
 62
     2
  5
120
 10
79.435833
 20
-50.641583
 30
0.0
  0
VERTEX
  8
1
  6
CONTINUOUS
 62
     2
  5
121
 10
79.340052
 20
-50.575628
 30
0.0
 42
0.234298
  0
VERTEX
  8
1
  6
CONTINUOUS
 62
     2
  5
122
 10
77.60097
 20
-62.641294
 30
0.0
  0
VERTEX
  8
1
  6
CONTINUOUS
 62
     2
  5
123
 10
77.600926
 20
-62.641434
 30
0.0
 42
-0.512515
  0
VERTEX
  8
1
  6
CONTINUOUS
 62
     2
  5
124
 10
68.280911
 20
-75.600312
 30
0.0
  0
VERTEX
  8
1
  6
CONTINUOUS
 62
     2
  5
125
 10
68.280911
 20
-75.60005
 30
0.0
 42
0.204691
  0
VERTEX
  8
1
  6
CONTINUOUS
 62
     2
  5
126
 10
62.270576
 20
-78.168174
 30
0.0
  0
SEQEND
  8
1
  6
CONTINUOUS
 62
     2
  5
127
  0
LINE
  8
1
  6
CONTINUOUS
 62
     2
  5
128
 10
44.041083
 20
-134.468167
 30
0.0
 11
44.041083
 21
-98.168167
 31
0.0
  0
LINE
  8
1
  6
CONTINUOUS
 62
     2
  5
129
 10
44.041083
 20
-98.168167
 30
0.0
 11
80.341083
 21
-98.168167
 31
0.0
  0
LINE
  8
1
  6
CONTINUOUS
 62
     2
  5
12A
 10
80.341083
 20
-98.168167
 30
0.0
 11
80.341083
 21
-134.468167
 31
0.0
  0
LINE
  8
1
  6
CONTINUOUS
 62
     2
  5
12B
 10
80.341083
 20
-134.468167
 30
0.0
 11
44.041083
 21
-134.468167
 31
0.0
  0
POINT
  8
1
  6
CONTINUOUS
 62
     2
  5
12C
 10
256.380417
 20
-204.446917
 30
0.0
  0
POINT
  8
1
  6
CONTINUOUS
 62
     2
  5
12D
 10
271.50575
 20
-204.446917
 30
0.0
  0
POINT
  8
1
  6
CONTINUOUS
 62
     2
  5
12E
 10
283.793
 20
-194.616833
 30
0.0
  0
POLYLINE
  8
1
  6
CONTINUOUS
 62
     2
  5
12F
 66
     1
 10
0.0
 20
0.0
 30
0.0
210
0.0
220
0.0
230
1.0
  0
VERTEX
  8
1
  6
CONTINUOUS
 62
     2
  5
130
 10
187.181177
 20
-78.167274
 30
0.0
 42
0.047681
  0
VERTEX
  8
1
  6
CONTINUOUS
 62
     2
  5
131
 10
185.587496
 20
-77.078812
 30
0.0
 42
0.044169
  0
VERTEX
  8
1
  6
CONTINUOUS
 62
     2
  5
132
 10
183.753348
 20
-76.268129
 30
0.0
 42
0.04179
  0
VERTEX
  8
1
  6
CONTINUOUS
 62
     2
  5
133
 10
181.753246
 20
-75.768159
 30
0.0
 42
0.0406
  0
VERTEX
  8
1
  6
CONTINUOUS
 62
     2
  5
134
 10
179.668446
 20
-75.599215
 30
0.0
 42
0.0406
  0
SEQEND
  8
1
  6
CONTINUOUS
 62
     2
  5
135
  0
POLYLINE
  8
1
  6
CONTINUOUS
 62
     2
  5
136
 66
     1
 10
0.0
 20
0.0
 30
0.0
210
0.0
220
0.0
230
1.0
  0
VERTEX
  8
1
  6
CONTINUOUS
 62
     2
  5
137
 10
179.668446
 20
-75.599476
 30
0.0
 42
-0.038071
  0
VERTEX
  8
1
  6
CONTINUOUS
 62
     2
  5
138
 10
177.354279
 20
-75.423435
 30
0.0
 42
-0.039054
  0
VERTEX
  8
1
  6
CONTINUOUS
 62
     2
  5
139
 10
175.122953
 20
-74.901914
 30
0.0
 42
-0.04102
  0
VERTEX
  8
1
  6
CONTINUOUS
 62
     2
  5
13A
 10
173.054308
 20
-74.053573
 30
0.0
 42
-0.043937
  0
VERTEX
  8
1
  6
CONTINUOUS
 62
     2
  5
13B
 10
171.222365
 20
-72.908769
 30
0.0
 42
-0.047661
  0
VERTEX
  8
1
  6
CONTINUOUS
 62
     2
  5
13C
 10
169.692674
 20
-71.508463
 30
0.0
 42
-0.051825
  0
VERTEX
  8
1
  6
CONTINUOUS
 62
     2
  5
13D
 10
168.519969
 20
-69.902763
 30
0.0
 42
-0.055736
  0
VERTEX
  8
1
  6
CONTINUOUS
 62
     2
  5
13E
 10
167.746212
 20
-68.149121
 30
0.0
 42
-0.058446
  0
VERTEX
  8
1
  6
CONTINUOUS
 62
     2
  5
13F
 10
167.399089
 20
-66.310287
 30
0.0
 42
-0.05912
  0
VERTEX
  8
1
  6
CONTINUOUS
 62
     2
  5
140
 10
167.491021
 20
-64.452057
 30
0.0
 42
-0.057523
  0
VERTEX
  8
1
  6
CONTINUOUS
 62
     2
  5
141
 10
168.018718
 20
-62.640923
 30
0.0
 42
-0.057523
  0
SEQEND
  8
1
  6
CONTINUOUS
 62
     2
  5
142
  0
POLYLINE
  8
1
  6
CONTINUOUS
 62
     2
  5
143
 66
     1
 10
0.0
 20
0.0
 30
0.0
210
0.0
220
0.0
230
1.0
  0
VERTEX
  8
1
  6
CONTINUOUS
 62
     2
  5
144
 10
168.018663
 20
-62.640783
 30
0.0
 42
0.055958
  0
VERTEX
  8
1
  6
CONTINUOUS
 62
     2
  5
145
 10
168.722469
 20
-60.181709
 30
0.0
 42
0.057455
  0
VERTEX
  8
1
  6
CONTINUOUS
 62
     2
  5
146
 10
168.851623
 20
-57.661116
 30
0.0
 42
0.056865
  0
VERTEX
  8
1
  6
CONTINUOUS
 62
     2
  5
147
 10
168.40176
 20
-55.164209
 30
0.0
 42
0.054381
  0
VERTEX
  8
1
  6
CONTINUOUS
 62
     2
  5
148
 10
167.388085
 20
-52.775393
 30
0.0
 42
0.050738
  0
VERTEX
  8
1
  6
CONTINUOUS
 62
     2
  5
149
 10
165.844866
 20
-50.575418
 30
0.0
 42
0.050738
  0
SEQEND
  8
1
  6
CONTINUOUS
 62
     2
  5
14A
  0
POLYLINE
  8
1
  6
CONTINUOUS
 62
     2
  5
14B
 66
     1
 10
0.0
 20
0.0
 30
0.0
  0
VERTEX
  8
1
  6
CONTINUOUS
 62
     2
  5
14C
 10
165.725167
 20
-50.641167
 30
0.0
  0
VERTEX
  8
1
  6
CONTINUOUS
 62
     2
  5
14D
 10
173.9955
 20
-44.02525
 30
0.0
  0
SEQEND
  8
1
  6
CONTINUOUS
 62
     2
  5
14E
  0
POLYLINE
  8
1
  6
CONTINUOUS
 62
     2
  5
14F
 66
     1
 10
0.0
 20
0.0
 30
0.0
210
0.0
220
0.0
230
1.0
  0
VERTEX
  8
1
  6
CONTINUOUS
 62
     2
  5
150
 10
173.995862
 20
-44.024903
 30
0.0
 42
0.040856
  0
VERTEX
  8
1
  6
CONTINUOUS
 62
     2
  5
151
 10
175.72056
 20
-44.87366
 30
0.0
 42
0.038615
  0
VERTEX
  8
1
  6
CONTINUOUS
 62
     2
  5
152
 10
177.610134
 20
-45.455905
 30
0.0
 42
0.037268
  0
VERTEX
  8
1
  6
CONTINUOUS
 62
     2
  5
153
 10
179.60091
 20
-45.752016
 30
0.0
 42
0.03682
  0
VERTEX
  8
1
  6
CONTINUOUS
 62
     2
  5
154
 10
181.625803
 20
-45.752016
 30
0.0
 42
0.037268
  0
VERTEX
  8
1
  6
CONTINUOUS
 62
     2
  5
155
 10
183.616579
 20
-45.455905
 30
0.0
 42
0.038615
  0
VERTEX
  8
1
  6
CONTINUOUS
 62
     2
  5
156
 10
185.506153
 20
-44.87366
 30
0.0
 42
0.040856
  0
VERTEX
  8
1
  6
CONTINUOUS
 62
     2
  5
157
 10
187.230851
 20
-44.024903
 30
0.0
 42
0.040856
  0
SEQEND
  8
1
  6
CONTINUOUS
 62
     2
  5
158
  0
POLYLINE
  8
1
  6
CONTINUOUS
 62
     2
  5
159
 66
     1
 10
0.0
 20
0.0
 30
0.0
210
0.0
220
0.0
230
1.0
  0
VERTEX
  8
1
  6
CONTINUOUS
 62
     2
  5
15A
 10
187.230852
 20
-44.024903
 30
0.0
 42
0.040856
  0
VERTEX
  8
1
  6
CONTINUOUS
 62
     2
  5
15B
 10
188.95555
 20
-44.87366
 30
0.0
 42
0.038615
  0
VERTEX
  8
1
  6
CONTINUOUS
 62
     2
  5
15C
 10
190.845124
 20
-45.455905
 30
0.0
 42
0.037268
  0
VERTEX
  8
1
  6
CONTINUOUS
 62
     2
  5
15D
 10
192.8359
 20
-45.752016
 30
0.0
 42
0.03682
  0
VERTEX
  8
1
  6
CONTINUOUS
 62
     2
  5
15E
 10
194.860793
 20
-45.752016
 30
0.0
 42
0.037268
  0
VERTEX
  8
1
  6
CONTINUOUS
 62
     2
  5
15F
 10
196.851569
 20
-45.455905
 30
0.0
 42
0.038615
  0
VERTEX
  8
1
  6
CONTINUOUS
 62
     2
  5
160
 10
198.741143
 20
-44.87366
 30
0.0
 42
0.040856
  0
VERTEX
  8
1
  6
CONTINUOUS
 62
     2
  5
161
 10
200.465841
 20
-44.024903
 30
0.0
 42
0.040856
  0
SEQEND
  8
1
  6
CONTINUOUS
 62
     2
  5
162
  0
POLYLINE
  8
1
  6
CONTINUOUS
 62
     2
  5
163
 66
     1
 10
0.0
 20
0.0
 30
0.0
  0
VERTEX
  8
1
  6
CONTINUOUS
 62
     2
  5
164
 10
200.465833
 20
-44.02525
 30
0.0
  0
VERTEX
  8
1
  6
CONTINUOUS
 62
     2
  5
165
 10
208.736417
 20
-50.641167
 30
0.0
  0
SEQEND
  8
1
  6
CONTINUOUS
 62
     2
  5
166
  0
POLYLINE
  8
1
  6
CONTINUOUS
 62
     2
  5
167
 66
     1
 10
0.0
 20
0.0
 30
0.0
210
0.0
220
0.0
230
1.0
  0
VERTEX
  8
1
  6
CONTINUOUS
 62
     2
  5
168
 10
208.616837
 20
-50.575418
 30
0.0
 42
0.050738
  0
VERTEX
  8
1
  6
CONTINUOUS
 62
     2
  5
169
 10
207.073617
 20
-52.775393
 30
0.0
 42
0.054381
  0
VERTEX
  8
1
  6
CONTINUOUS
 62
     2
  5
16A
 10
206.059943
 20
-55.164209
 30
0.0
 42
0.056865
  0
VERTEX
  8
1
  6
CONTINUOUS
 62
     2
  5
16B
 10
205.610079
 20
-57.661116
 30
0.0
 42
0.057455
  0
VERTEX
  8
1
  6
CONTINUOUS
 62
     2
  5
16C
 10
205.739233
 20
-60.181709
 30
0.0
 42
0.055958
  0
VERTEX
  8
1
  6
CONTINUOUS
 62
     2
  5
16D
 10
206.443039
 20
-62.640783
 30
0.0
 42
0.055958
  0
SEQEND
  8
1
  6
CONTINUOUS
 62
     2
  5
16E
  0
POLYLINE
  8
1
  6
CONTINUOUS
 62
     2
  5
16F
 66
     1
 10
0.0
 20
0.0
 30
0.0
210
0.0
220
0.0
230
1.0
  0
VERTEX
  8
1
  6
CONTINUOUS
 62
     2
  5
170
 10
206.442985
 20
-62.640923
 30
0.0
 42
-0.057523
  0
VERTEX
  8
1
  6
CONTINUOUS
 62
     2
  5
171
 10
206.970682
 20
-64.452057
 30
0.0
 42
-0.05912
  0
VERTEX
  8
1
  6
CONTINUOUS
 62
     2
  5
172
 10
207.062614
 20
-66.310287
 30
0.0
 42
-0.058446
  0
VERTEX
  8
1
  6
CONTINUOUS
 62
     2
  5
173
 10
206.715491
 20
-68.149121
 30
0.0
 42
-0.055736
  0
VERTEX
  8
1
  6
CONTINUOUS
 62
     2
  5
174
 10
205.941734
 20
-69.902763
 30
0.0
 42
-0.051825
  0
VERTEX
  8
1
  6
CONTINUOUS
 62
     2
  5
175
 10
204.769029
 20
-71.508463
 30
0.0
 42
-0.047661
  0
VERTEX
  8
1
  6
CONTINUOUS
 62
     2
  5
176
 10
203.239337
 20
-72.908769
 30
0.0
 42
-0.043937
  0
VERTEX
  8
1
  6
CONTINUOUS
 62
     2
  5
177
 10
201.407394
 20
-74.053573
 30
0.0
 42
-0.04102
  0
VERTEX
  8
1
  6
CONTINUOUS
 62
     2
  5
178
 10
199.33875
 20
-74.901914
 30
0.0
 42
-0.039054
  0
VERTEX
  8
1
  6
CONTINUOUS
 62
     2
  5
179
 10
197.107424
 20
-75.423435
 30
0.0
 42
-0.038071
  0
VERTEX
  8
1
  6
CONTINUOUS
 62
     2
  5
17A
 10
194.793257
 20
-75.599476
 30
0.0
 42
-0.038071
  0
SEQEND
  8
1
  6
CONTINUOUS
 62
     2
  5
17B
  0
POLYLINE
  8
1
  6
CONTINUOUS
 62
     2
  5
17C
 66
     1
 10
0.0
 20
0.0
 30
0.0
210
0.0
220
0.0
230
1.0
  0
VERTEX
  8
1
  6
CONTINUOUS
 62
     2
  5
17D
 10
194.793257
 20
-75.599215
 30
0.0
 42
0.0406
  0
VERTEX
  8
1
  6
CONTINUOUS
 62
     2
  5
17E
 10
192.708457
 20
-75.768159
 30
0.0
 42
0.04179
  0
VERTEX
  8
1
  6
CONTINUOUS
 62
     2
  5
17F
 10
190.708355
 20
-76.268129
 30
0.0
 42
0.044169
  0
VERTEX
  8
1
  6
CONTINUOUS
 62
     2
  5
180
 10
188.874206
 20
-77.078812
 30
0.0
 42
0.047681
  0
VERTEX
  8
1
  6
CONTINUOUS
 62
     2
  5
181
 10
187.280526
 20
-78.167274
 30
0.0
 42
0.047681
  0
SEQEND
  8
1
  6
CONTINUOUS
 62
     2
  5
182
  0
LINE
  8
1
  6
CONTINUOUS
 62
     2
  5
183
 10
164.493833
 20
-134.466083
 30
0.0
 11
164.493833
 21
-98.16725
 31
0.0
  0
LINE
  8
1
  6
CONTINUOUS
 62
     2
  5
184
 10
164.493833
 20
-98.16725
 30
0.0
 11
209.868
 21
-98.16725
 31
0.0
  0
LINE
  8
1
  6
CONTINUOUS
 62
     2
  5
185
 10
209.868
 20
-98.16725
 30
0.0
 11
209.868
 21
-134.466083
 31
0.0
  0
LINE
  8
1
  6
CONTINUOUS
 62
     2
  5
186
 10
209.868
 20
-134.466083
 30
0.0
 11
164.493833
 21
-134.466083
 31
0.0
  0
LINE
  8
1
  6
CONTINUOUS
 62
     7
  5
187
 10
40.803833
 20
5.8185
 30
0.0
 11
40.803833
 21
25.8185
 31
0.0
  0
LINE
  8
1
  6
CONTINUOUS
 62
     7
  5
188
 10
77.3485
 20
18.328083
 30
0.0
 11
109.3485
 21
18.328083
 31
0.0
  0
LINE
  8
1
  6
CONTINUOUS
 62
     7
  5
189
 10
65.230833
 20
-24.024917
 30
0.0
 11
109.3485
 21
-24.024917
 31
0.0
  0
LINE
  8
1
  6
CONTINUOUS
 62
     7
  5
18A
 10
83.65775
 20
5.8185
 30
0.0
 11
83.65775
 21
17.328083
 31
0.0
  0
LINE
  8
1
  6
CONTINUOUS
 62
     7
  5
18B
 10
83.65775
 20
19.328083
 30
0.0
 11
83.65775
 21
25.8185
 31
0.0
  0
LINE
  8
1
  6
CONTINUOUS
 62
     7
  5
18C
 10
84.64975
 20
1.328083
 30
0.0
 11
97.3485
 21
1.328083
 31
0.0
  0
LINE
  8
1
  6
CONTINUOUS
 62
     7
  5
18D
 10
80.7855
 20
-12.671917
 30
0.0
 11
97.3485
 21
-12.671917
 31
0.0
  0
TEXT
  8
1
  6
CONTINUOUS
 62
     7
  5
18E
 10
51.4885
 20
-12.0055
 30
0.0
 40
14.0
  1
8
  7
txt
210
0.0
220
0.0
230
1.0
  0
TEXT
  8
1
  6
CONTINUOUS
 62
     7
  5
18F
 10
62.528833
 20
-12.0055
 30
0.0
 40
14.0
  1
0
  7
txt
210
0.0
220
0.0
230
1.0
  0
LINE
  8
1
  6
CONTINUOUS
 62
     7
  5
190
 10
205.8775
 20
18.327
 30
0.0
 11
237.8775
 21
18.327
 31
0.0
  0
LINE
  8
1
  6
CONTINUOUS
 62
     7
  5
191
 10
192.759833
 20
-24.026
 30
0.0
 11
237.8775
 21
-24.026
 31
0.0
  0
LINE
  8
1
  6
CONTINUOUS
 62
     7
  5
192
 10
214.01225
 20
5.387917
 30
0.0
 11
214.01225
 21
17.327
 31
0.0
  0
LINE
  8
1
  6
CONTINUOUS
 62
     7
  5
193
 10
214.01225
 20
19.327
 30
0.0
 11
214.01225
 21
25.817417
 31
0.0
  0
LINE
  8
1
  6
CONTINUOUS
 62
     7
  5
194
 10
215.003917
 20
1.327
 30
0.0
 11
225.8775
 21
1.327
 31
0.0
  0
LINE
  8
1
  6
CONTINUOUS
 62
     7
  5
195
 10
210.173
 20
-12.673
 30
0.0
 11
225.8775
 21
-12.673
 31
0.0
  0
LINE
  8
1
  6
CONTINUOUS
 62
     7
  5
196
 10
160.4495
 20
5.387917
 30
0.0
 11
160.4495
 21
25.817417
 31
0.0
  0
LINE
  8
1
  6
CONTINUOUS
 62
     7
  5
197
 10
45.121583
 20
-49.575667
 30
0.0
 11
45.121583
 21
-29.641583
 31
0.0
  0
LINE
  8
1
  6
CONTINUOUS
 62
     7
  5
198
 10
63.270583
 20
-78.168167
 30
0.0
 11
109.30875
 21
-78.168167
 31
0.0
  0
LINE
  8
1
  6
CONTINUOUS
 62
     7
  5
199
 10
73.819083
 20
-44.024917
 30
0.0
 11
109.30875
 21
-44.024917
 31
0.0
  0
LINE
  8
1
  6
CONTINUOUS
 62
     7
  5
19A
 10
189.2805
 20
-78.16725
 30
0.0
 11
234.318667
 21
-78.16725
 31
0.0
  0
LINE
  8
1
  6
CONTINUOUS
 62
     7
  5
19B
 10
201.829
 20
-44.024
 30
0.0
 11
234.318667
 21
-44.024
 31
0.0
  0
LINE
  8
1
  6
CONTINUOUS
 62
     7
  5
19C
 10
165.725167
 20
-49.641167
 30
0.0
 11
165.725167
 21
-30.641167
 31
0.0
  0
LINE
  8
1
  6
CONTINUOUS
 62
     7
  5
19D
 10
79.435833
 20
-49.641583
 30
0.0
 11
79.435833
 21
-45.024917
 31
0.0
  0
LINE
  8
1
  6
CONTINUOUS
 62
     7
  5
19E
 10
79.435833
 20
-43.024917
 30
0.0
 11
79.435833
 21
-29.641583
 31
0.0
  0
LINE
  8
1
  6
CONTINUOUS
 62
     7
  5
19F
 10
208.736417
 20
-49.641167
 30
0.0
 11
208.736417
 21
-45.024
 31
0.0
  0
LINE
  8
1
  6
CONTINUOUS
 62
     7
  5
1A0
 10
208.736417
 20
-43.024
 30
0.0
 11
208.736417
 21
-30.641167
 31
0.0
  0
LINE
  8
1
  6
CONTINUOUS
 62
     7
  5
1A1
 10
44.041083
 20
-97.168167
 30
0.0
 11
44.041083
 21
-87.168167
 31
0.0
  0
LINE
  8
1
  6
CONTINUOUS
 62
     7
  5
1A2
 10
80.341083
 20
-97.168167
 30
0.0
 11
80.341083
 21
-87.168167
 31
0.0
  0
LINE
  8
1
  6
CONTINUOUS
 62
     7
  5
1A3
 10
81.341083
 20
-98.168167
 30
0.0
 11
109.30875
 21
-98.168167
 31
0.0
  0
LINE
  8
1
  6
CONTINUOUS
 62
     7
  5
1A4
 10
81.341083
 20
-134.468167
 30
0.0
 11
109.30875
 21
-134.468167
 31
0.0
  0
LINE
  8
1
  6
CONTINUOUS
 62
     7
  5
1A5
 10
97.404167
 20
-53.20725
 30
0.0
 11
78.921833
 21
-53.20725
 31
0.0
  0
LINE
  8
1
  6
CONTINUOUS
 62
     7
  5
1A6
 10
97.404167
 20
-67.20725
 30
0.0
 11
79.005833
 21
-67.20725
 31
0.0
  0
LINE
  8
1
  6
CONTINUOUS
 62
     7
  5
1A7
 10
207.844
 20
-53.20725
 30
0.0
 11
222.358417
 21
-53.20725
 31
0.0
  0
LINE
  8
1
  6
CONTINUOUS
 62
     7
  5
1A8
 10
207.948917
 20
-67.20725
 30
0.0
 11
222.358417
 21
-67.20725
 31
0.0
  0
LINE
  8
1
  6
CONTINUOUS
 62
     7
  5
1A9
 10
81.341083
 20
-109.318167
 30
0.0
 11
97.404167
 21
-109.318167
 31
0.0
  0
LINE
  8
1
  6
CONTINUOUS
 62
     7
  5
1AA
 10
81.341083
 20
-123.318167
 30
0.0
 11
97.404167
 21
-123.318167
 31
0.0
  0
LINE
  8
1
  6
CONTINUOUS
 62
     7
  5
1AB
 10
210.868
 20
-134.466083
 30
0.0
 11
238.835667
 21
-134.466083
 31
0.0
  0
LINE
  8
1
  6
CONTINUOUS
 62
     7
  5
1AC
 10
209.868
 20
-97.166083
 30
0.0
 11
209.868
 21
-87.166083
 31
0.0
  0
LINE
  8
1
  6
CONTINUOUS
 62
     7
  5
1AD
 10
210.868
 20
-98.166083
 30
0.0
 11
238.835667
 21
-98.166083
 31
0.0
  0
LINE
  8
1
  6
CONTINUOUS
 62
     7
  5
1AE
 10
210.868
 20
-109.316083
 30
0.0
 11
226.931083
 21
-109.316083
 31
0.0
  0
LINE
  8
1
  6
CONTINUOUS
 62
     7
  5
1AF
 10
210.868
 20
-123.316083
 30
0.0
 11
226.931083
 21
-123.316083
 31
0.0
  0
LINE
  8
1
  6
CONTINUOUS
 62
     7
  5
1B0
 10
164.493833
 20
-97.16725
 30
0.0
 11
164.493833
 21
-87.16725
 31
0.0
  0
TEXT
  8
1
  6
CONTINUOUS
 62
     7
  5
1B1
 10
51.716333
 20
-66.673333
 30
0.0
 40
14.0
  1
2
  7
txt
210
0.0
220
0.0
230
1.0
  0
TEXT
  8
1
  6
CONTINUOUS
 62
     7
  5
1B2
 10
62.529333
 20
-66.673333
 30
0.0
 40
14.0
  1
2
  7
txt
210
0.0
220
0.0
230
1.0
  0
TEXT
  8
1
  6
CONTINUOUS
 62
     7
  5
1B3
 10
51.870667
 20
-122.7125
 30
0.0
 40
14.0
  1
7
  7
txt
210
0.0
220
0.0
230
1.0
  0
TEXT
  8
1
  6
CONTINUOUS
 62
     7
  5
1B4
 10
62.288833
 20
-122.657667
 30
0.0
 40
14.0
  1
6
  7
txt
210
0.0
220
0.0
230
1.0
  0
TEXT
  8
1
  6
CONTINUOUS
 62
     7
  5
1B5
 10
171.323083
 20
-12.027333
 30
0.0
 40
14.0
  1
6
  7
txt
210
0.0
220
0.0
230
1.0
  0
TEXT
  8
1
  6
CONTINUOUS
 62
     7
  5
1B6
 10
192.861417
 20
-12.070083
 30
0.0
 40
14.0
  1
0
  7
txt
210
0.0
220
0.0
230
1.0
  0
TEXT
  8
1
  6
CONTINUOUS
 62
     7
  5
1B7
 10
182.177667
 20
-12.070083
 30
0.0
 40
14.0
  1
8
  7
txt
210
0.0
220
0.0
230
1.0
  0
TEXT
  8
1
  6
CONTINUOUS
 62
     7
  5
1B8
 10
171.23875
 20
-66.553667
 30
0.0
 40
14.0
  1
3
  7
txt
210
0.0
220
0.0
230
1.0
  0
TEXT
  8
1
  6
CONTINUOUS
 62
     7
  5
1B9
 10
192.920667
 20
-66.7075
 30
0.0
 40
14.0
  1
2
  7
txt
210
0.0
220
0.0
230
1.0
  0
TEXT
  8
1
  6
CONTINUOUS
 62
     7
  5
1BA
 10
181.69525
 20
-66.669083
 30
0.0
 40
14.0
  1
2
  7
txt
210
0.0
220
0.0
230
1.0
  0
TEXT
  8
1
  6
CONTINUOUS
 62
     7
  5
1BB
 10
171.18125
 20
-122.68275
 30
0.0
 40
14.0
  1
3
  7
txt
210
0.0
220
0.0
230
1.0
  0
TEXT
  8
1
  6
CONTINUOUS
 62
     7
  5
1BC
 10
192.808333
 20
-122.68275
 30
0.0
 40
14.0
  1
6
  7
txt
210
0.0
220
0.0
230
1.0
  0
TEXT
  8
1
  6
CONTINUOUS
 62
     7
  5
1BD
 10
182.287083
 20
-122.735917
 30
0.0
 40
14.0
  1
7
  7
txt
210
0.0
220
0.0
230
1.0
  0
CIRCLE
  8
1
  6
CONTINUOUS
 62
     3
  5
1BE
 10
392.230833
 20
-4.024917
 30
0.0
 40
20.0
210
0.0
220
0.0
230
1.0
  0
CIRCLE
  8
1
  6
CONTINUOUS
 62
     3
  5
1BF
 10
515.230833
 20
-4.024917
 30
0.0
 40
20.0
210
0.0
220
0.0
230
1.0
  0
CIRCLE
  8
1
  6
CONTINUOUS
 62
     3
  5
1C0
 10
392.181167
 20
-58.16725
 30
0.0
 40
20.0
210
0.0
220
0.0
230
1.0
  0
CIRCLE
  8
1
  6
CONTINUOUS
 62
     3
  5
1C1
 10
392.180917
 20
-114.466083
 30
0.0
 40
20.0
210
0.0
220
0.0
230
1.0
  0
CIRCLE
  8
1
  6
CONTINUOUS
 62
     3
  5
1C2
 10
515.180917
 20
-114.466083
 30
0.0
 40
20.0
210
0.0
220
0.0
230
1.0
  0
POLYLINE
  8
1
  6
CONTINUOUS
 62
     3
  5
1C3
 66
     1
 10
0.0
 20
0.0
 30
0.0
 70
     1
210
0.0
220
0.0
230
1.0
  0
VERTEX
  8
1
  6
CONTINUOUS
 62
     3
  5
1C4
 10
541.730833
 20
-58.16725
 30
0.0
 42
0.061559
  0
VERTEX
  8
1
  6
CONTINUOUS
 62
     3
  5
1C5
 10
541.221643
 20
-54.070353
 30
0.0
 42
0.058997
  0
VERTEX
  8
1
  6
CONTINUOUS
 62
     3
  5
1C6
 10
539.713641
 20
-50.130898
 30
0.0
 42
0.054775
  0
VERTEX
  8
1
  6
CONTINUOUS
 62
     3
  5
1C7
 10
537.264778
 20
-46.500275
 30
0.0
 42
0.05008
  0
VERTEX
  8
1
  6
CONTINUOUS
 62
     3
  5
1C8
 10
533.969163
 20
-43.318008
 30
0.0
 42
0.04582
  0
VERTEX
  8
1
  6
CONTINUOUS
 62
     3
  5
1C9
 10
529.953445
 20
-40.706388
 30
0.0
 42
0.042477
  0
VERTEX
  8
1
  6
CONTINUOUS
 62
     3
  5
1CA
 10
525.371944
 20
-38.76578
 30
0.0
 42
0.040227
  0
VERTEX
  8
1
  6
CONTINUOUS
 62
     3
  5
1CB
 10
520.400727
 20
-37.570759
 30
0.0
 42
0.039105
  0
VERTEX
  8
1
  6
CONTINUOUS
 62
     3
  5
1CC
 10
515.230833
 20
-37.16725
 30
0.0
 42
0.039105
  0
VERTEX
  8
1
  6
CONTINUOUS
 62
     3
  5
1CD
 10
510.06094
 20
-37.570759
 30
0.0
 42
0.040227
  0
VERTEX
  8
1
  6
CONTINUOUS
 62
     3
  5
1CE
 10
505.089722
 20
-38.76578
 30
0.0
 42
0.042477
  0
VERTEX
  8
1
  6
CONTINUOUS
 62
     3
  5
1CF
 10
500.508222
 20
-40.706388
 30
0.0
 42
0.04582
  0
VERTEX
  8
1
  6
CONTINUOUS
 62
     3
  5
1D0
 10
496.492504
 20
-43.318008
 30
0.0
 42
0.05008
  0
VERTEX
  8
1
  6
CONTINUOUS
 62
     3
  5
1D1
 10
493.196889
 20
-46.500275
 30
0.0
 42
0.054775
  0
VERTEX
  8
1
  6
CONTINUOUS
 62
     3
  5
1D2
 10
490.748026
 20
-50.130898
 30
0.0
 42
0.058997
  0
VERTEX
  8
1
  6
CONTINUOUS
 62
     3
  5
1D3
 10
489.240023
 20
-54.070353
 30
0.0
 42
0.061559
  0
VERTEX
  8
1
  6
CONTINUOUS
 62
     3
  5
1D4
 10
488.730833
 20
-58.16725
 30
0.0
 42
0.061559
  0
VERTEX
  8
1
  6
CONTINUOUS
 62
     3
  5
1D5
 10
489.240023
 20
-62.264147
 30
0.0
 42
0.058997
  0
VERTEX
  8
1
  6
CONTINUOUS
 62
     3
  5
1D6
 10
490.748026
 20
-66.203602
 30
0.0
 42
0.054775
  0
VERTEX
  8
1
  6
CONTINUOUS
 62
     3
  5
1D7
 10
493.196889
 20
-69.834225
 30
0.0
 42
0.05008
  0
VERTEX
  8
1
  6
CONTINUOUS
 62
     3
  5
1D8
 10
496.492504
 20
-73.016492
 30
0.0
 42
0.04582
  0
VERTEX
  8
1
  6
CONTINUOUS
 62
     3
  5
1D9
 10
500.508222
 20
-75.628112
 30
0.0
 42
0.042477
  0
VERTEX
  8
1
  6
CONTINUOUS
 62
     3
  5
1DA
 10
505.089722
 20
-77.56872
 30
0.0
 42
0.040227
  0
VERTEX
  8
1
  6
CONTINUOUS
 62
     3
  5
1DB
 10
510.06094
 20
-78.763741
 30
0.0
 42
0.039105
  0
VERTEX
  8
1
  6
CONTINUOUS
 62
     3
  5
1DC
 10
515.230833
 20
-79.16725
 30
0.0
 42
0.039105
  0
VERTEX
  8
1
  6
CONTINUOUS
 62
     3
  5
1DD
 10
520.400727
 20
-78.763741
 30
0.0
 42
0.040227
  0
VERTEX
  8
1
  6
CONTINUOUS
 62
     3
  5
1DE
 10
525.371944
 20
-77.56872
 30
0.0
 42
0.042477
  0
VERTEX
  8
1
  6
CONTINUOUS
 62
     3
  5
1DF
 10
529.953445
 20
-75.628112
 30
0.0
 42
0.04582
  0
VERTEX
  8
1
  6
CONTINUOUS
 62
     3
  5
1E0
 10
533.969163
 20
-73.016492
 30
0.0
 42
0.05008
  0
VERTEX
  8
1
  6
CONTINUOUS
 62
     3
  5
1E1
 10
537.264778
 20
-69.834225
 30
0.0
 42
0.054775
  0
VERTEX
  8
1
  6
CONTINUOUS
 62
     3
  5
1E2
 10
539.713641
 20
-66.203602
 30
0.0
 42
0.058997
  0
VERTEX
  8
1
  6
CONTINUOUS
 62
     3
  5
1E3
 10
541.221643
 20
-62.264147
 30
0.0
 42
0.061559
  0
SEQEND
  8
1
  6
CONTINUOUS
 62
     3
  5
1E4
  0
LINE
  8
1
  6
CONTINUOUS
 62
     7
  5
1E5
 10
372.230833
 20
3.975083
 30
0.0
 11
372.230833
 21
23.975083
 31
0.0
  0
LINE
  8
1
  6
CONTINUOUS
 62
     7
  5
1E6
 10
412.230833
 20
3.975083
 30
0.0
 11
412.230833
 21
23.975083
 31
0.0
  0
LINE
  8
1
  6
CONTINUOUS
 62
     7
  5
1E7
 10
412.230833
 20
2.975083
 30
0.0
 11
421.965833
 21
2.975083
 31
0.0
  0
LINE
  8
1
  6
CONTINUOUS
 62
     7
  5
1E8
 10
412.230833
 20
-11.024917
 30
0.0
 11
421.965833
 21
-11.024917
 31
0.0
  0
LINE
  8
1
  6
CONTINUOUS
 62
     7
  5
1E9
 10
495.230833
 20
3.975083
 30
0.0
 11
495.230833
 21
23.975083
 31
0.0
  0
LINE
  8
1
  6
CONTINUOUS
 62
     7
  5
1EA
 10
535.230833
 20
3.975083
 30
0.0
 11
535.230833
 21
23.975083
 31
0.0
  0
LINE
  8
1
  6
CONTINUOUS
 62
     7
  5
1EB
 10
535.230833
 20
2.975083
 30
0.0
 11
544.965833
 21
2.975083
 31
0.0
  0
LINE
  8
1
  6
CONTINUOUS
 62
     7
  5
1EC
 10
535.230833
 20
-11.024917
 30
0.0
 11
544.965833
 21
-11.024917
 31
0.0
  0
LINE
  8
1
  6
CONTINUOUS
 62
     7
  5
1ED
 10
372.181167
 20
-58.16725
 30
0.0
 11
372.181167
 21
-30.16725
 31
0.0
  0
LINE
  8
1
  6
CONTINUOUS
 62
     7
  5
1EE
 10
412.181167
 20
-50.16725
 30
0.0
 11
412.181167
 21
-30.16725
 31
0.0
  0
LINE
  8
1
  6
CONTINUOUS
 62
     7
  5
1EF
 10
412.181167
 20
-51.16725
 30
0.0
 11
421.916167
 21
-51.16725
 31
0.0
  0
LINE
  8
1
  6
CONTINUOUS
 62
     7
  5
1F0
 10
412.181167
 20
-65.16725
 30
0.0
 11
421.916167
 21
-65.16725
 31
0.0
  0
LINE
  8
1
  6
CONTINUOUS
 62
     7
  5
1F1
 10
541.730833
 20
-50.16725
 30
0.0
 11
541.730833
 21
-30.16725
 31
0.0
  0
LINE
  8
1
  6
CONTINUOUS
 62
     7
  5
1F2
 10
506.230833
 20
-37.16725
 30
0.0
 11
473.642667
 21
-37.16725
 31
0.0
  0
LINE
  8
1
  6
CONTINUOUS
 62
     7
  5
1F3
 10
506.230833
 20
-79.16725
 30
0.0
 11
473.642667
 21
-79.16725
 31
0.0
  0
LINE
  8
1
  6
CONTINUOUS
 62
     7
  5
1F4
 10
542.730833
 20
-51.16725
 30
0.0
 11
552.9055
 21
-51.16725
 31
0.0
  0
LINE
  8
1
  6
CONTINUOUS
 62
     7
  5
1F5
 10
542.21525
 20
-65.16725
 30
0.0
 11
552.9055
 21
-65.16725
 31
0.0
  0
LINE
  8
1
  6
CONTINUOUS
 62
     7
  5
1F6
 10
488.730833
 20
-50.16725
 30
0.0
 11
488.730833
 21
-38.16725
 31
0.0
  0
LINE
  8
1
  6
CONTINUOUS
 62
     7
  5
1F7
 10
488.730833
 20
-36.16725
 30
0.0
 11
488.730833
 21
-30.16725
 31
0.0
  0
LINE
  8
1
  6
CONTINUOUS
 62
     7
  5
1F8
 10
372.180917
 20
-106.466083
 30
0.0
 11
372.180917
 21
-86.466083
 31
0.0
  0
LINE
  8
1
  6
CONTINUOUS
 62
     7
  5
1F9
 10
412.180917
 20
-106.466083
 30
0.0
 11
412.180917
 21
-86.466083
 31
0.0
  0
LINE
  8
1
  6
CONTINUOUS
 62
     7
  5
1FA
 10
407.93725
 20
-100.966083
 30
0.0
 11
421.916167
 21
-100.966083
 31
0.0
  0
LINE
  8
1
  6
CONTINUOUS
 62
     7
  5
1FB
 10
412.668083
 20
-109.966083
 30
0.0
 11
421.916167
 21
-109.966083
 31
0.0
  0
LINE
  8
1
  6
CONTINUOUS
 62
     7
  5
1FC
 10
412.668083
 20
-118.966083
 30
0.0
 11
421.916167
 21
-118.966083
 31
0.0
  0
LINE
  8
1
  6
CONTINUOUS
 62
     7
  5
1FD
 10
407.93725
 20
-127.966083
 30
0.0
 11
421.916167
 21
-127.966083
 31
0.0
  0
LINE
  8
1
  6
CONTINUOUS
 62
     7
  5
1FE
 10
413.155917
 20
-113.466083
 30
0.0
 11
421.916167
 21
-113.466083
 31
0.0
  0
LINE
  8
1
  6
CONTINUOUS
 62
     7
  5
1FF
 10
413.155917
 20
-115.466083
 30
0.0
 11
421.916167
 21
-115.466083
 31
0.0
  0
LINE
  8
1
  6
CONTINUOUS
 62
     7
  5
200
 10
378.680917
 20
-116.466083
 30
0.0
 11
378.680917
 21
-118.466083
 31
0.0
  0
LINE
  8
1
  6
CONTINUOUS
 62
     7
  5
201
 10
405.680917
 20
-116.466083
 30
0.0
 11
405.680917
 21
-118.466083
 31
0.0
  0
LINE
  8
1
  6
CONTINUOUS
 62
     7
  5
202
 10
372.281167
 20
-117.466083
 30
0.0
 11
364.281167
 21
-117.466083
 31
0.0
  0
LINE
  8
1
  6
CONTINUOUS
 62
     7
  5
203
 10
495.180917
 20
-106.466083
 30
0.0
 11
495.180917
 21
-86.466083
 31
0.0
  0
LINE
  8
1
  6
CONTINUOUS
 62
     7
  5
204
 10
535.180917
 20
-106.466083
 30
0.0
 11
535.180917
 21
-86.466083
 31
0.0
  0
LINE
  8
1
  6
CONTINUOUS
 62
     7
  5
205
 10
530.93725
 20
-100.966083
 30
0.0
 11
544.916167
 21
-100.966083
 31
0.0
  0
LINE
  8
1
  6
CONTINUOUS
 62
     7
  5
206
 10
535.668083
 20
-109.966083
 30
0.0
 11
544.916167
 21
-109.966083
 31
0.0
  0
LINE
  8
1
  6
CONTINUOUS
 62
     7
  5
207
 10
535.668083
 20
-118.966083
 30
0.0
 11
544.916167
 21
-118.966083
 31
0.0
  0
LINE
  8
1
  6
CONTINUOUS
 62
     7
  5
208
 10
530.93725
 20
-127.966083
 30
0.0
 11
544.916167
 21
-127.966083
 31
0.0
  0
LINE
  8
1
  6
CONTINUOUS
 62
     7
  5
209
 10
536.155917
 20
-113.466083
 30
0.0
 11
544.916167
 21
-113.466083
 31
0.0
  0
LINE
  8
1
  6
CONTINUOUS
 62
     7
  5
20A
 10
536.155917
 20
-115.466083
 30
0.0
 11
544.916167
 21
-115.466083
 31
0.0
  0
LINE
  8
1
  6
CONTINUOUS
 62
     7
  5
20B
 10
501.680917
 20
-116.466083
 30
0.0
 11
501.680917
 21
-118.466083
 31
0.0
  0
LINE
  8
1
  6
CONTINUOUS
 62
     7
  5
20C
 10
528.680917
 20
-116.466083
 30
0.0
 11
528.680917
 21
-118.466083
 31
0.0
  0
LINE
  8
1
  6
CONTINUOUS
 62
     7
  5
20D
 10
495.281167
 20
-117.466083
 30
0.0
 11
487.281167
 21
-117.466083
 31
0.0
  0
LINE
  8
1
  6
CONTINUOUS
 62
     7
  5
20E
 10
420.916167
 20
-109.966083
 30
0.0
 11
420.916167
 21
-113.466083
 31
0.0
  0
LINE
  8
1
  6
CONTINUOUS
 62
     7
  5
20F
 10
420.916167
 20
-115.466083
 30
0.0
 11
420.916167
 21
-118.966083
 31
0.0
  0
LINE
  8
1
  6
CONTINUOUS
 62
     7
  5
210
 10
543.916167
 20
-109.966083
 30
0.0
 11
543.916167
 21
-113.466083
 31
0.0
  0
LINE
  8
1
  6
CONTINUOUS
 62
     7
  5
211
 10
543.916167
 20
-115.466083
 30
0.0
 11
543.916167
 21
-118.966083
 31
0.0
  0
INSERT
  8
1
  6
CONTINUOUS
 62
     1
  5
232
  2
LDR
 10
543.912167
 20
-115.470583
 30
0.0
 41
120.0
 42
120.0
 50
90.0
210
0.0
220
0.0
230
1.0
  0
INSERT
  8
1
  6
CONTINUOUS
 62
     1
  5
233
  2
LDR
 10
543.912167
 20
-109.970583
 30
0.0
 41
120.0
 42
120.0
 50
90.0
210
0.0
220
0.0
230
1.0
  0
INSERT
  8
1
  6
CONTINUOUS
 62
     1
  5
234
  2
LDR
 10
543.912167
 20
-113.461583
 30
0.0
 41
120.0
 42
-120.0
 50
270.0
210
0.0
220
0.0
230
1.0
  0
INSERT
  8
1
  6
CONTINUOUS
 62
     1
  5
235
  2
LDR
 10
543.912167
 20
-118.961583
 30
0.0
 41
120.0
 42
-120.0
 50
270.0
210
0.0
220
0.0
230
1.0
  0
INSERT
  8
1
  6
CONTINUOUS
 62
     1
  5
236
  2
LDR
 10
420.912167
 20
-113.461583
 30
0.0
 41
120.0
 42
-120.0
 50
270.0
210
0.0
220
0.0
230
1.0
  0
INSERT
  8
1
  6
CONTINUOUS
 62
     1
  5
237
  2
LDR
 10
420.912167
 20
-118.961583
 30
0.0
 41
120.0
 42
-120.0
 50
270.0
210
0.0
220
0.0
230
1.0
  0
INSERT
  8
1
  6
CONTINUOUS
 62
     1
  5
238
  2
LDR
 10
420.912167
 20
-109.970583
 30
0.0
 41
120.0
 42
120.0
 50
90.0
210
0.0
220
0.0
230
1.0
  0
INSERT
  8
1
  6
CONTINUOUS
 62
     1
  5
239
  2
LDR
 10
420.912167
 20
-115.470583
 30
0.0
 41
120.0
 42
120.0
 50
90.0
210
0.0
220
0.0
230
1.0
  0
TEXT
  8
1
  6
CONTINUOUS
 62
     7
  5
23A
 10
387.038417
 20
-10.45925
 30
0.0
 40
14.0
  1
2
  7
txt
210
0.0
220
0.0
230
1.0
  0
TEXT
  8
1
  6
CONTINUOUS
 62
     7
  5
23B
 10
377.528
 20
-64.645917
 30
0.0
 40
14.0
  1
2
  7
txt
210
0.0
220
0.0
230
1.0
  0
TEXT
  8
1
  6
CONTINUOUS
 62
     7
  5
23C
 10
396.648417
 20
-64.585417
 30
0.0
 40
14.0
  1
2
  7
txt
210
0.0
220
0.0
230
1.0
  0
TEXT
  8
1
  6
CONTINUOUS
 62
     7
  5
23D
 10
388.842917
 20
-64.645917
 30
0.0
 40
14.0
  1
1
  7
txt
210
0.0
220
0.0
230
1.0
  0
TEXT
  8
1
  6
CONTINUOUS
 62
     7
  5
23E
 10
504.404833
 20
-10.405583
 30
0.0
 40
14.0
  1
2
  7
txt
210
0.0
220
0.0
230
1.0
  0
TEXT
  8
1
  6
CONTINUOUS
 62
     7
  5
23F
 10
515.852417
 20
-10.405583
 30
0.0
 40
14.0
  1
2
  7
txt
210
0.0
220
0.0
230
1.0
  0
TEXT
  8
1
  6
CONTINUOUS
 62
     7
  5
240
 10
499.389333
 20
-64.622167
 30
0.0
 40
14.0
  1
2
  7
txt
210
0.0
220
0.0
230
1.0
  0
TEXT
  8
1
  6
CONTINUOUS
 62
     7
  5
241
 10
520.807417
 20
-64.622167
 30
0.0
 40
14.0
  1
2
  7
txt
210
0.0
220
0.0
230
1.0
  0
TEXT
  8
1
  6
CONTINUOUS
 62
     7
  5
242
 10
511.697917
 20
-64.567917
 30
0.0
 40
14.0
  1
1
  7
txt
210
0.0
220
0.0
230
1.0
  0
TEXT
  8
1
  6
CONTINUOUS
 62
     7
  5
243
 10
386.473917
 20
-109.590833
 30
0.0
 40
9.0
  1
2
  7
txt
210
0.0
220
0.0
230
1.0
  0
TEXT
  8
1
  6
CONTINUOUS
 62
     7
  5
244
 10
393.4165
 20
-109.52
 30
0.0
 40
9.0
  1
1
  7
txt
210
0.0
220
0.0
230
1.0
  0
TEXT
  8
1
  6
CONTINUOUS
 62
     7
  5
245
 10
388.953417
 20
-127.590833
 30
0.0
 40
9.0
  1
2
  7
txt
210
0.0
220
0.0
230
1.0
  0
POLYLINE
  8
1
  6
CONTINUOUS
 62
     7
  5
246
 66
     1
 10
0.0
 20
0.0
 30
0.0
 70
     1
  0
VERTEX
  8
1
  6
CONTINUOUS
 62
     7
  5
247
 10
405.680917
 20
-113.466083
 30
0.0
  0
VERTEX
  8
1
  6
CONTINUOUS
 62
     7
  5
248
 10
378.680917
 20
-113.466083
 30
0.0
  0
VERTEX
  8
1
  6
CONTINUOUS
 62
     7
  5
249
 10
378.680917
 20
-115.466083
 30
0.0
  0
VERTEX
  8
1
  6
CONTINUOUS
 62
     7
  5
24A
 10
405.680917
 20
-115.466083
 30
0.0
  0
VERTEX
  8
1
  6
CONTINUOUS
 62
     7
  5
24B
 10
405.680917
 20
-113.466083
 30
0.0
  0
SEQEND
  8
1
  6
CONTINUOUS
 62
     7
  5
24C
  0
POLYLINE
  8
1
  6
CONTINUOUS
 62
     7
  5
24D
 66
     1
 10
0.0
 20
0.0
 30
0.0
 70
     1
  0
VERTEX
  8
1
  6
CONTINUOUS
 62
     7
  5
24E
 10
528.680917
 20
-113.466083
 30
0.0
  0
VERTEX
  8
1
  6
CONTINUOUS
 62
     7
  5
24F
 10
501.666417
 20
-113.466083
 30
0.0
  0
VERTEX
  8
1
  6
CONTINUOUS
 62
     7
  5
250
 10
501.666417
 20
-115.466083
 30
0.0
  0
VERTEX
  8
1
  6
CONTINUOUS
 62
     7
  5
251
 10
528.680917
 20
-115.466083
 30
0.0
  0
VERTEX
  8
1
  6
CONTINUOUS
 62
     7
  5
252
 10
528.680917
 20
-113.466083
 30
0.0
  0
SEQEND
  8
1
  6
CONTINUOUS
 62
     7
  5
253
  0
TEXT
  8
1
  6
CONTINUOUS
 62
     7
  5
254
 10
517.34425
 20
-109.60575
 30
0.0
 40
9.0
  1
9
  7
txt
210
0.0
220
0.0
230
1.0
  0
TEXT
  8
1
  6
CONTINUOUS
 62
     7
  5
255
 10
506.544
 20
-109.544333
 30
0.0
 40
9.0
  1
1
  7
txt
210
0.0
220
0.0
230
1.0
  0
TEXT
  8
1
  6
CONTINUOUS
 62
     7
  5
256
 10
511.88275
 20
-109.667083
 30
0.0
 40
9.0
  1
1
  7
txt
210
0.0
220
0.0
230
1.0
  0
TEXT
  8
1
  6
CONTINUOUS
 62
     7
  5
257
 10
512.80325
 20
-127.5915
 30
0.0
 40
9.0
  1
1
  7
txt
210
0.0
220
0.0
230
1.0
  0
INSERT
  8
1
  6
CONTINUOUS
 62
     1
  5
258
  2
LDR
 10
40.803833
 20
24.8185
 30
0.0
 41
240.0
 42
240.0
 50
180.0
210
0.0
220
0.0
230
1.0
  0
INSERT
  8
1
  6
CONTINUOUS
 62
     1
  5
259
  2
LDR
 10
83.65775
 20
24.8185
 30
0.0
 41
240.0
 42
240.0
210
0.0
220
0.0
230
1.0
  0
INSERT
  8
1
  6
CONTINUOUS
 62
     1
  5
25A
  2
LDR
 10
83.65775
 20
24.8185
 30
0.0
 41
240.0
 42
240.0
210
0.0
220
0.0
230
1.0
  0
INSERT
  8
1
  6
CONTINUOUS
 62
     1
  5
25B
  2
LDR
 10
108.3485
 20
18.328083
 30
0.0
 41
240.0
 42
240.0
 50
90.0
210
0.0
220
0.0
230
1.0
  0
INSERT
  8
1
  6
CONTINUOUS
 62
     1
  5
25C
  2
LDR
 10
108.3485
 20
18.328083
 30
0.0
 41
240.0
 42
240.0
 50
90.0
210
0.0
220
0.0
230
1.0
  0
INSERT
  8
1
  6
CONTINUOUS
 62
     1
  5
25D
  2
LDR
 10
108.3485
 20
-24.024917
 30
0.0
 41
240.0
 42
240.0
 50
270.0
210
0.0
220
0.0
230
1.0
  0
INSERT
  8
1
  6
CONTINUOUS
 62
     1
  5
25E
  2
LDR
 10
108.3485
 20
-24.024917
 30
0.0
 41
240.0
 42
240.0
 50
270.0
210
0.0
220
0.0
230
1.0
  0
INSERT
  8
1
  6
CONTINUOUS
 62
     1
  5
25F
  2
LDR
 10
96.3485
 20
18.328083
 30
0.0
 41
240.0
 42
240.0
 50
90.0
210
0.0
220
0.0
230
1.0
  0
INSERT
  8
1
  6
CONTINUOUS
 62
     1
  5
260
  2
LDR
 10
96.3485
 20
18.328083
 30
0.0
 41
240.0
 42
240.0
 50
90.0
210
0.0
220
0.0
230
1.0
  0
INSERT
  8
1
  6
CONTINUOUS
 62
     1
  5
261
  2
LDR
 10
96.3485
 20
1.328083
 30
0.0
 41
240.0
 42
240.0
 50
270.0
210
0.0
220
0.0
230
1.0
  0
INSERT
  8
1
  6
CONTINUOUS
 62
     1
  5
262
  2
LDR
 10
96.3485
 20
1.328083
 30
0.0
 41
240.0
 42
240.0
 50
270.0
210
0.0
220
0.0
230
1.0
  0
INSERT
  8
1
  6
CONTINUOUS
 62
     1
  5
263
  2
LDR
 10
96.3485
 20
1.328083
 30
0.0
 41
240.0
 42
240.0
 50
90.0
210
0.0
220
0.0
230
1.0
  0
INSERT
  8
1
  6
CONTINUOUS
 62
     1
  5
264
  2
LDR
 10
96.3485
 20
1.328083
 30
0.0
 41
240.0
 42
240.0
 50
90.0
210
0.0
220
0.0
230
1.0
  0
INSERT
  8
1
  6
CONTINUOUS
 62
     1
  5
265
  2
LDR
 10
96.3485
 20
-12.671917
 30
0.0
 41
240.0
 42
240.0
 50
270.0
210
0.0
220
0.0
230
1.0
  0
INSERT
  8
1
  6
CONTINUOUS
 62
     1
  5
266
  2
LDR
 10
96.3485
 20
-12.671917
 30
0.0
 41
240.0
 42
240.0
 50
270.0
210
0.0
220
0.0
230
1.0
  0
INSERT
  8
1
  6
CONTINUOUS
 62
     1
  5
267
  2
LDR
 10
96.3485
 20
-12.671917
 30
0.0
 41
240.0
 42
240.0
 50
90.0
210
0.0
220
0.0
230
1.0
  0
INSERT
  8
1
  6
CONTINUOUS
 62
     1
  5
268
  2
LDR
 10
96.3485
 20
-12.671917
 30
0.0
 41
240.0
 42
240.0
 50
90.0
210
0.0
220
0.0
230
1.0
  0
INSERT
  8
1
  6
CONTINUOUS
 62
     1
  5
269
  2
LDR
 10
96.3485
 20
-24.024917
 30
0.0
 41
240.0
 42
240.0
 50
270.0
210
0.0
220
0.0
230
1.0
  0
INSERT
  8
1
  6
CONTINUOUS
 62
     1
  5
26A
  2
LDR
 10
96.3485
 20
-24.024917
 30
0.0
 41
240.0
 42
240.0
 50
270.0
210
0.0
220
0.0
230
1.0
  0
INSERT
  8
1
  6
CONTINUOUS
 62
     1
  5
26B
  2
LDR
 10
45.121583
 20
-30.641583
 30
0.0
 41
240.0
 42
240.0
 50
180.0
210
0.0
220
0.0
230
1.0
  0
INSERT
  8
1
  6
CONTINUOUS
 62
     1
  5
26C
  2
LDR
 10
45.121583
 20
-30.641583
 30
0.0
 41
240.0
 42
240.0
 50
180.0
210
0.0
220
0.0
230
1.0
  0
INSERT
  8
1
  6
CONTINUOUS
 62
     1
  5
26D
  2
LDR
 10
79.435833
 20
-30.641583
 30
0.0
 41
240.0
 42
240.0
210
0.0
220
0.0
230
1.0
  0
INSERT
  8
1
  6
CONTINUOUS
 62
     1
  5
26E
  2
LDR
 10
96.3485
 20
-44.024917
 30
0.0
 41
240.0
 42
240.0
 50
90.0
210
0.0
220
0.0
230
1.0
  0
INSERT
  8
1
  6
CONTINUOUS
 62
     1
  5
26F
  2
LDR
 10
96.3485
 20
-44.024917
 30
0.0
 41
240.0
 42
240.0
 50
90.0
210
0.0
220
0.0
230
1.0
  0
INSERT
  8
1
  6
CONTINUOUS
 62
     1
  5
270
  2
LDR
 10
96.3485
 20
-53.20725
 30
0.0
 41
240.0
 42
240.0
 50
270.0
210
0.0
220
0.0
230
1.0
  0
INSERT
  8
1
  6
CONTINUOUS
 62
     1
  5
271
  2
LDR
 10
96.3485
 20
-53.20725
 30
0.0
 41
240.0
 42
240.0
 50
270.0
210
0.0
220
0.0
230
1.0
  0
INSERT
  8
1
  6
CONTINUOUS
 62
     1
  5
272
  2
LDR
 10
96.3485
 20
-53.20725
 30
0.0
 41
240.0
 42
240.0
 50
90.0
210
0.0
220
0.0
230
1.0
  0
INSERT
  8
1
  6
CONTINUOUS
 62
     1
  5
273
  2
LDR
 10
96.3485
 20
-53.20725
 30
0.0
 41
240.0
 42
240.0
 50
90.0
210
0.0
220
0.0
230
1.0
  0
INSERT
  8
1
  6
CONTINUOUS
 62
     1
  5
274
  2
LDR
 10
96.3485
 20
-67.20725
 30
0.0
 41
240.0
 42
240.0
 50
270.0
210
0.0
220
0.0
230
1.0
  0
INSERT
  8
1
  6
CONTINUOUS
 62
     1
  5
275
  2
LDR
 10
96.3485
 20
-67.20725
 30
0.0
 41
240.0
 42
240.0
 50
270.0
210
0.0
220
0.0
230
1.0
  0
INSERT
  8
1
  6
CONTINUOUS
 62
     1
  5
276
  2
LDR
 10
96.3485
 20
-67.20725
 30
0.0
 41
240.0
 42
240.0
 50
90.0
210
0.0
220
0.0
230
1.0
  0
INSERT
  8
1
  6
CONTINUOUS
 62
     1
  5
277
  2
LDR
 10
96.3485
 20
-67.20725
 30
0.0
 41
240.0
 42
240.0
 50
90.0
210
0.0
220
0.0
230
1.0
  0
INSERT
  8
1
  6
CONTINUOUS
 62
     1
  5
278
  2
LDR
 10
96.3485
 20
-78.168167
 30
0.0
 41
240.0
 42
240.0
 50
270.0
210
0.0
220
0.0
230
1.0
  0
INSERT
  8
1
  6
CONTINUOUS
 62
     1
  5
279
  2
LDR
 10
96.3485
 20
-78.168167
 30
0.0
 41
240.0
 42
240.0
 50
270.0
210
0.0
220
0.0
230
1.0
  0
INSERT
  8
1
  6
CONTINUOUS
 62
     1
  5
27A
  2
LDR
 10
108.30875
 20
-44.024917
 30
0.0
 41
240.0
 42
240.0
 50
90.0
210
0.0
220
0.0
230
1.0
  0
INSERT
  8
1
  6
CONTINUOUS
 62
     1
  5
27B
  2
LDR
 10
108.30875
 20
-78.168167
 30
0.0
 41
240.0
 42
240.0
 50
270.0
210
0.0
220
0.0
230
1.0
  0
INSERT
  8
1
  6
CONTINUOUS
 62
     1
  5
27C
  2
LDR
 10
44.041083
 20
-88.168167
 30
0.0
 41
240.0
 42
240.0
 50
180.0
210
0.0
220
0.0
230
1.0
  0
INSERT
  8
1
  6
CONTINUOUS
 62
     1
  5
27D
  2
LDR
 10
44.041083
 20
-88.168167
 30
0.0
 41
240.0
 42
240.0
 50
180.0
210
0.0
220
0.0
230
1.0
  0
INSERT
  8
1
  6
CONTINUOUS
 62
     1
  5
27E
  2
LDR
 10
80.341083
 20
-88.168167
 30
0.0
 41
240.0
 42
240.0
210
0.0
220
0.0
230
1.0
  0
INSERT
  8
1
  6
CONTINUOUS
 62
     1
  5
27F
  2
LDR
 10
80.341083
 20
-88.168167
 30
0.0
 41
240.0
 42
240.0
210
0.0
220
0.0
230
1.0
  0
INSERT
  8
1
  6
CONTINUOUS
 62
     1
  5
280
  2
LDR
 10
96.404167
 20
-98.168167
 30
0.0
 41
240.0
 42
240.0
 50
90.0
210
0.0
220
0.0
230
1.0
  0
INSERT
  8
1
  6
CONTINUOUS
 62
     1
  5
281
  2
LDR
 10
96.404167
 20
-98.168167
 30
0.0
 41
240.0
 42
240.0
 50
90.0
210
0.0
220
0.0
230
1.0
  0
INSERT
  8
1
  6
CONTINUOUS
 62
     1
  5
282
  2
LDR
 10
96.404167
 20
-109.318167
 30
0.0
 41
240.0
 42
240.0
 50
270.0
210
0.0
220
0.0
230
1.0
  0
INSERT
  8
1
  6
CONTINUOUS
 62
     1
  5
283
  2
LDR
 10
96.404167
 20
-109.318167
 30
0.0
 41
240.0
 42
240.0
 50
270.0
210
0.0
220
0.0
230
1.0
  0
INSERT
  8
1
  6
CONTINUOUS
 62
     1
  5
284
  2
LDR
 10
96.404167
 20
-109.318167
 30
0.0
 41
240.0
 42
240.0
 50
90.0
210
0.0
220
0.0
230
1.0
  0
INSERT
  8
1
  6
CONTINUOUS
 62
     1
  5
285
  2
LDR
 10
96.404167
 20
-109.318167
 30
0.0
 41
240.0
 42
240.0
 50
90.0
210
0.0
220
0.0
230
1.0
  0
INSERT
  8
1
  6
CONTINUOUS
 62
     1
  5
286
  2
LDR
 10
96.404167
 20
-123.318167
 30
0.0
 41
240.0
 42
240.0
 50
270.0
210
0.0
220
0.0
230
1.0
  0
INSERT
  8
1
  6
CONTINUOUS
 62
     1
  5
287
  2
LDR
 10
96.404167
 20
-123.318167
 30
0.0
 41
240.0
 42
240.0
 50
270.0
210
0.0
220
0.0
230
1.0
  0
INSERT
  8
1
  6
CONTINUOUS
 62
     1
  5
288
  2
LDR
 10
96.404167
 20
-123.318167
 30
0.0
 41
240.0
 42
240.0
 50
90.0
210
0.0
220
0.0
230
1.0
  0
INSERT
  8
1
  6
CONTINUOUS
 62
     1
  5
289
  2
LDR
 10
96.404167
 20
-123.318167
 30
0.0
 41
240.0
 42
240.0
 50
90.0
210
0.0
220
0.0
230
1.0
  0
INSERT
  8
1
  6
CONTINUOUS
 62
     1
  5
28A
  2
LDR
 10
96.404167
 20
-134.468167
 30
0.0
 41
240.0
 42
240.0
 50
270.0
210
0.0
220
0.0
230
1.0
  0
INSERT
  8
1
  6
CONTINUOUS
 62
     1
  5
28B
  2
LDR
 10
96.404167
 20
-134.468167
 30
0.0
 41
240.0
 42
240.0
 50
270.0
210
0.0
220
0.0
230
1.0
  0
INSERT
  8
1
  6
CONTINUOUS
 62
     1
  5
28C
  2
LDR
 10
108.30875
 20
-98.168167
 30
0.0
 41
240.0
 42
240.0
 50
90.0
210
0.0
220
0.0
230
1.0
  0
INSERT
  8
1
  6
CONTINUOUS
 62
     1
  5
28D
  2
LDR
 10
108.30875
 20
-98.168167
 30
0.0
 41
240.0
 42
240.0
 50
90.0
210
0.0
220
0.0
230
1.0
  0
INSERT
  8
1
  6
CONTINUOUS
 62
     1
  5
28E
  2
LDR
 10
108.30875
 20
-134.468167
 30
0.0
 41
240.0
 42
240.0
 50
270.0
210
0.0
220
0.0
230
1.0
  0
INSERT
  8
1
  6
CONTINUOUS
 62
     1
  5
28F
  2
LDR
 10
160.4495
 20
24.817417
 30
0.0
 41
240.0
 42
240.0
 50
180.0
210
0.0
220
0.0
230
1.0
  0
INSERT
  8
1
  6
CONTINUOUS
 62
     1
  5
290
  2
LDR
 10
160.4495
 20
24.817417
 30
0.0
 41
240.0
 42
240.0
 50
180.0
210
0.0
220
0.0
230
1.0
  0
INSERT
  8
1
  6
CONTINUOUS
 62
     1
  5
291
  2
LDR
 10
214.01225
 20
24.817417
 30
0.0
 41
240.0
 42
240.0
210
0.0
220
0.0
230
1.0
  0
INSERT
  8
1
  6
CONTINUOUS
 62
     1
  5
292
  2
LDR
 10
214.01225
 20
24.817417
 30
0.0
 41
240.0
 42
240.0
210
0.0
220
0.0
230
1.0
  0
INSERT
  8
1
  6
CONTINUOUS
 62
     1
  5
293
  2
LDR
 10
236.8775
 20
18.327
 30
0.0
 41
240.0
 42
240.0
 50
90.0
210
0.0
220
0.0
230
1.0
  0
INSERT
  8
1
  6
CONTINUOUS
 62
     1
  5
294
  2
LDR
 10
236.8775
 20
18.327
 30
0.0
 41
240.0
 42
240.0
 50
90.0
210
0.0
220
0.0
230
1.0
  0
INSERT
  8
1
  6
CONTINUOUS
 62
     1
  5
295
  2
LDR
 10
236.8775
 20
-24.026
 30
0.0
 41
240.0
 42
240.0
 50
270.0
210
0.0
220
0.0
230
1.0
  0
INSERT
  8
1
  6
CONTINUOUS
 62
     1
  5
296
  2
LDR
 10
236.8775
 20
-24.026
 30
0.0
 41
240.0
 42
240.0
 50
270.0
210
0.0
220
0.0
230
1.0
  0
INSERT
  8
1
  6
CONTINUOUS
 62
     1
  5
297
  2
LDR
 10
224.8775
 20
-24.026
 30
0.0
 41
240.0
 42
240.0
 50
270.0
210
0.0
220
0.0
230
1.0
  0
INSERT
  8
1
  6
CONTINUOUS
 62
     1
  5
298
  2
LDR
 10
224.8775
 20
-24.026
 30
0.0
 41
240.0
 42
240.0
 50
270.0
210
0.0
220
0.0
230
1.0
  0
INSERT
  8
1
  6
CONTINUOUS
 62
     1
  5
299
  2
LDR
 10
224.8775
 20
-12.673
 30
0.0
 41
240.0
 42
240.0
 50
90.0
210
0.0
220
0.0
230
1.0
  0
INSERT
  8
1
  6
CONTINUOUS
 62
     1
  5
29A
  2
LDR
 10
224.8775
 20
-12.673
 30
0.0
 41
240.0
 42
240.0
 50
90.0
210
0.0
220
0.0
230
1.0
  0
INSERT
  8
1
  6
CONTINUOUS
 62
     1
  5
29B
  2
LDR
 10
224.8775
 20
-12.673
 30
0.0
 41
240.0
 42
240.0
 50
270.0
210
0.0
220
0.0
230
1.0
  0
INSERT
  8
1
  6
CONTINUOUS
 62
     1
  5
29C
  2
LDR
 10
224.8775
 20
-12.673
 30
0.0
 41
240.0
 42
240.0
 50
270.0
210
0.0
220
0.0
230
1.0
  0
INSERT
  8
1
  6
CONTINUOUS
 62
     1
  5
29D
  2
LDR
 10
224.8775
 20
1.327
 30
0.0
 41
240.0
 42
240.0
 50
90.0
210
0.0
220
0.0
230
1.0
  0
INSERT
  8
1
  6
CONTINUOUS
 62
     1
  5
29E
  2
LDR
 10
224.8775
 20
1.327
 30
0.0
 41
240.0
 42
240.0
 50
90.0
210
0.0
220
0.0
230
1.0
  0
INSERT
  8
1
  6
CONTINUOUS
 62
     1
  5
29F
  2
LDR
 10
224.8775
 20
1.327
 30
0.0
 41
240.0
 42
240.0
 50
270.0
210
0.0
220
0.0
230
1.0
  0
INSERT
  8
1
  6
CONTINUOUS
 62
     1
  5
2A0
  2
LDR
 10
224.8775
 20
1.327
 30
0.0
 41
240.0
 42
240.0
 50
270.0
210
0.0
220
0.0
230
1.0
  0
INSERT
  8
1
  6
CONTINUOUS
 62
     1
  5
2A1
  2
LDR
 10
224.8775
 20
18.327
 30
0.0
 41
240.0
 42
240.0
 50
90.0
210
0.0
220
0.0
230
1.0
  0
INSERT
  8
1
  6
CONTINUOUS
 62
     1
  5
2A2
  2
LDR
 10
165.725167
 20
-31.640667
 30
0.0
 41
240.0
 42
240.0
 50
180.0
210
0.0
220
0.0
230
1.0
  0
INSERT
  8
1
  6
CONTINUOUS
 62
     1
  5
2A3
  2
LDR
 10
165.725167
 20
-31.640667
 30
0.0
 41
240.0
 42
240.0
 50
180.0
210
0.0
220
0.0
230
1.0
  0
INSERT
  8
1
  6
CONTINUOUS
 62
     1
  5
2A4
  2
LDR
 10
208.736417
 20
-31.640667
 30
0.0
 41
240.0
 42
240.0
210
0.0
220
0.0
230
1.0
  0
INSERT
  8
1
  6
CONTINUOUS
 62
     1
  5
2A5
  2
LDR
 10
208.736417
 20
-31.640667
 30
0.0
 41
240.0
 42
240.0
210
0.0
220
0.0
230
1.0
  0
INSERT
  8
1
  6
CONTINUOUS
 62
     1
  5
2A6
  2
LDR
 10
233.318667
 20
-44.024
 30
0.0
 41
240.0
 42
240.0
 50
90.0
210
0.0
220
0.0
230
1.0
  0
INSERT
  8
1
  6
CONTINUOUS
 62
     1
  5
2A7
  2
LDR
 10
233.318667
 20
-44.024
 30
0.0
 41
240.0
 42
240.0
 50
90.0
210
0.0
220
0.0
230
1.0
  0
INSERT
  8
1
  6
CONTINUOUS
 62
     1
  5
2A8
  2
LDR
 10
233.318667
 20
-78.16725
 30
0.0
 41
240.0
 42
240.0
 50
270.0
210
0.0
220
0.0
230
1.0
  0
INSERT
  8
1
  6
CONTINUOUS
 62
     1
  5
2A9
  2
LDR
 10
233.318667
 20
-78.16725
 30
0.0
 41
240.0
 42
240.0
 50
270.0
210
0.0
220
0.0
230
1.0
  0
INSERT
  8
1
  6
CONTINUOUS
 62
     1
  5
2AA
  2
LDR
 10
221.358417
 20
-44.024
 30
0.0
 41
240.0
 42
240.0
 50
90.0
210
0.0
220
0.0
230
1.0
  0
INSERT
  8
1
  6
CONTINUOUS
 62
     1
  5
2AB
  2
LDR
 10
221.358417
 20
-44.024
 30
0.0
 41
240.0
 42
240.0
 50
90.0
210
0.0
220
0.0
230
1.0
  0
INSERT
  8
1
  6
CONTINUOUS
 62
     1
  5
2AC
  2
LDR
 10
221.358417
 20
-53.20725
 30
0.0
 41
240.0
 42
240.0
 50
270.0
210
0.0
220
0.0
230
1.0
  0
INSERT
  8
1
  6
CONTINUOUS
 62
     1
  5
2AD
  2
LDR
 10
221.358417
 20
-53.20725
 30
0.0
 41
240.0
 42
240.0
 50
270.0
210
0.0
220
0.0
230
1.0
  0
INSERT
  8
1
  6
CONTINUOUS
 62
     1
  5
2AE
  2
LDR
 10
221.358417
 20
-53.20725
 30
0.0
 41
240.0
 42
240.0
 50
90.0
210
0.0
220
0.0
230
1.0
  0
INSERT
  8
1
  6
CONTINUOUS
 62
     1
  5
2AF
  2
LDR
 10
221.358417
 20
-53.20725
 30
0.0
 41
240.0
 42
240.0
 50
90.0
210
0.0
220
0.0
230
1.0
  0
INSERT
  8
1
  6
CONTINUOUS
 62
     1
  5
2B0
  2
LDR
 10
221.358417
 20
-67.20725
 30
0.0
 41
240.0
 42
240.0
 50
270.0
210
0.0
220
0.0
230
1.0
  0
INSERT
  8
1
  6
CONTINUOUS
 62
     1
  5
2B1
  2
LDR
 10
221.358417
 20
-67.20725
 30
0.0
 41
240.0
 42
240.0
 50
270.0
210
0.0
220
0.0
230
1.0
  0
INSERT
  8
1
  6
CONTINUOUS
 62
     1
  5
2B2
  2
LDR
 10
221.358417
 20
-67.20725
 30
0.0
 41
240.0
 42
240.0
 50
90.0
210
0.0
220
0.0
230
1.0
  0
INSERT
  8
1
  6
CONTINUOUS
 62
     1
  5
2B3
  2
LDR
 10
221.358417
 20
-67.20725
 30
0.0
 41
240.0
 42
240.0
 50
90.0
210
0.0
220
0.0
230
1.0
  0
INSERT
  8
1
  6
CONTINUOUS
 62
     1
  5
2B4
  2
LDR
 10
221.358417
 20
-78.16725
 30
0.0
 41
240.0
 42
240.0
 50
270.0
210
0.0
220
0.0
230
1.0
  0
INSERT
  8
1
  6
CONTINUOUS
 62
     1
  5
2B5
  2
LDR
 10
164.493833
 20
-88.166083
 30
0.0
 41
240.0
 42
240.0
 50
180.0
210
0.0
220
0.0
230
1.0
  0
INSERT
  8
1
  6
CONTINUOUS
 62
     1
  5
2B6
  2
LDR
 10
164.493833
 20
-88.166083
 30
0.0
 41
240.0
 42
240.0
 50
180.0
210
0.0
220
0.0
230
1.0
  0
INSERT
  8
1
  6
CONTINUOUS
 62
     1
  5
2B7
  2
LDR
 10
209.868
 20
-88.166083
 30
0.0
 41
240.0
 42
240.0
210
0.0
220
0.0
230
1.0
  0
INSERT
  8
1
  6
CONTINUOUS
 62
     1
  5
2B8
  2
LDR
 10
209.868
 20
-88.166083
 30
0.0
 41
240.0
 42
240.0
210
0.0
220
0.0
230
1.0
  0
INSERT
  8
1
  6
CONTINUOUS
 62
     1
  5
2B9
  2
LDR
 10
225.931083
 20
-98.166083
 30
0.0
 41
240.0
 42
240.0
 50
90.0
210
0.0
220
0.0
230
1.0
  0
INSERT
  8
1
  6
CONTINUOUS
 62
     1
  5
2BA
  2
LDR
 10
225.931083
 20
-98.166083
 30
0.0
 41
240.0
 42
240.0
 50
90.0
210
0.0
220
0.0
230
1.0
  0
INSERT
  8
1
  6
CONTINUOUS
 62
     1
  5
2BB
  2
LDR
 10
225.931083
 20
-109.316083
 30
0.0
 41
240.0
 42
240.0
 50
270.0
210
0.0
220
0.0
230
1.0
  0
INSERT
  8
1
  6
CONTINUOUS
 62
     1
  5
2BC
  2
LDR
 10
225.931083
 20
-109.316083
 30
0.0
 41
240.0
 42
240.0
 50
270.0
210
0.0
220
0.0
230
1.0
  0
INSERT
  8
1
  6
CONTINUOUS
 62
     1
  5
2BD
  2
LDR
 10
225.931083
 20
-109.316083
 30
0.0
 41
240.0
 42
240.0
 50
90.0
210
0.0
220
0.0
230
1.0
  0
INSERT
  8
1
  6
CONTINUOUS
 62
     1
  5
2BE
  2
LDR
 10
225.931083
 20
-109.316083
 30
0.0
 41
240.0
 42
240.0
 50
90.0
210
0.0
220
0.0
230
1.0
  0
INSERT
  8
1
  6
CONTINUOUS
 62
     1
  5
2BF
  2
LDR
 10
225.931083
 20
-123.316083
 30
0.0
 41
240.0
 42
240.0
 50
270.0
210
0.0
220
0.0
230
1.0
  0
INSERT
  8
1
  6
CONTINUOUS
 62
     1
  5
2C0
  2
LDR
 10
225.931083
 20
-123.316083
 30
0.0
 41
240.0
 42
240.0
 50
270.0
210
0.0
220
0.0
230
1.0
  0
INSERT
  8
1
  6
CONTINUOUS
 62
     1
  5
2C1
  2
LDR
 10
225.931083
 20
-123.316083
 30
0.0
 41
240.0
 42
240.0
 50
90.0
210
0.0
220
0.0
230
1.0
  0
INSERT
  8
1
  6
CONTINUOUS
 62
     1
  5
2C2
  2
LDR
 10
225.931083
 20
-123.316083
 30
0.0
 41
240.0
 42
240.0
 50
90.0
210
0.0
220
0.0
230
1.0
  0
INSERT
  8
1
  6
CONTINUOUS
 62
     1
  5
2C3
  2
LDR
 10
225.931083
 20
-134.466083
 30
0.0
 41
240.0
 42
240.0
 50
270.0
210
0.0
220
0.0
230
1.0
  0
INSERT
  8
1
  6
CONTINUOUS
 62
     1
  5
2C4
  2
LDR
 10
225.931083
 20
-134.466083
 30
0.0
 41
240.0
 42
240.0
 50
270.0
210
0.0
220
0.0
230
1.0
  0
INSERT
  8
1
  6
CONTINUOUS
 62
     1
  5
2C5
  2
LDR
 10
237.835667
 20
-98.166083
 30
0.0
 41
240.0
 42
240.0
 50
90.0
210
0.0
220
0.0
230
1.0
  0
INSERT
  8
1
  6
CONTINUOUS
 62
     1
  5
2C6
  2
LDR
 10
237.835667
 20
-98.166083
 30
0.0
 41
240.0
 42
240.0
 50
90.0
210
0.0
220
0.0
230
1.0
  0
INSERT
  8
1
  6
CONTINUOUS
 62
     1
  5
2C7
  2
LDR
 10
237.835667
 20
-134.466083
 30
0.0
 41
240.0
 42
240.0
 50
270.0
210
0.0
220
0.0
230
1.0
  0
INSERT
  8
1
  6
CONTINUOUS
 62
     1
  5
2C8
  2
LDR
 10
237.835667
 20
-134.466083
 30
0.0
 41
240.0
 42
240.0
 50
270.0
210
0.0
220
0.0
230
1.0
  0
INSERT
  8
1
  6
CONTINUOUS
 62
     1
  5
2C9
  2
LDR
 10
372.230833
 20
22.975083
 30
0.0
 41
240.0
 42
240.0
 50
180.0
210
0.0
220
0.0
230
1.0
  0
INSERT
  8
1
  6
CONTINUOUS
 62
     1
  5
2CA
  2
LDR
 10
372.230833
 20
22.975083
 30
0.0
 41
240.0
 42
240.0
 50
180.0
210
0.0
220
0.0
230
1.0
  0
INSERT
  8
1
  6
CONTINUOUS
 62
     1
  5
2CB
  2
LDR
 10
412.230833
 20
22.975083
 30
0.0
 41
240.0
 42
240.0
210
0.0
220
0.0
230
1.0
  0
INSERT
  8
1
  6
CONTINUOUS
 62
     1
  5
2CC
  2
LDR
 10
412.230833
 20
22.975083
 30
0.0
 41
240.0
 42
240.0
210
0.0
220
0.0
230
1.0
  0
INSERT
  8
1
  6
CONTINUOUS
 62
     1
  5
2CD
  2
LDR
 10
420.965833
 20
2.975083
 30
0.0
 41
240.0
 42
240.0
 50
90.0
210
0.0
220
0.0
230
1.0
  0
INSERT
  8
1
  6
CONTINUOUS
 62
     1
  5
2CE
  2
LDR
 10
420.965833
 20
2.975083
 30
0.0
 41
240.0
 42
240.0
 50
90.0
210
0.0
220
0.0
230
1.0
  0
INSERT
  8
1
  6
CONTINUOUS
 62
     1
  5
2CF
  2
LDR
 10
420.965833
 20
-11.024917
 30
0.0
 41
240.0
 42
240.0
 50
270.0
210
0.0
220
0.0
230
1.0
  0
INSERT
  8
1
  6
CONTINUOUS
 62
     1
  5
2D0
  2
LDR
 10
420.965833
 20
-11.024917
 30
0.0
 41
240.0
 42
240.0
 50
270.0
210
0.0
220
0.0
230
1.0
  0
INSERT
  8
1
  6
CONTINUOUS
 62
     1
  5
2D1
  2
LDR
 10
372.181167
 20
-31.16725
 30
0.0
 41
240.0
 42
240.0
 50
180.0
210
0.0
220
0.0
230
1.0
  0
INSERT
  8
1
  6
CONTINUOUS
 62
     1
  5
2D2
  2
LDR
 10
372.181167
 20
-31.16725
 30
0.0
 41
240.0
 42
240.0
 50
180.0
210
0.0
220
0.0
230
1.0
  0
INSERT
  8
1
  6
CONTINUOUS
 62
     1
  5
2D3
  2
LDR
 10
412.181167
 20
-31.16725
 30
0.0
 41
240.0
 42
240.0
210
0.0
220
0.0
230
1.0
  0
INSERT
  8
1
  6
CONTINUOUS
 62
     1
  5
2D4
  2
LDR
 10
412.181167
 20
-31.16725
 30
0.0
 41
240.0
 42
240.0
210
0.0
220
0.0
230
1.0
  0
INSERT
  8
1
  6
CONTINUOUS
 62
     1
  5
2D5
  2
LDR
 10
420.916167
 20
-51.16725
 30
0.0
 41
240.0
 42
240.0
 50
90.0
210
0.0
220
0.0
230
1.0
  0
INSERT
  8
1
  6
CONTINUOUS
 62
     1
  5
2D6
  2
LDR
 10
420.916167
 20
-51.16725
 30
0.0
 41
240.0
 42
240.0
 50
90.0
210
0.0
220
0.0
230
1.0
  0
INSERT
  8
1
  6
CONTINUOUS
 62
     1
  5
2D7
  2
LDR
 10
420.916167
 20
-65.16725
 30
0.0
 41
240.0
 42
240.0
 50
270.0
210
0.0
220
0.0
230
1.0
  0
INSERT
  8
1
  6
CONTINUOUS
 62
     1
  5
2D8
  2
LDR
 10
420.916167
 20
-65.16725
 30
0.0
 41
240.0
 42
240.0
 50
270.0
210
0.0
220
0.0
230
1.0
  0
INSERT
  8
1
  6
CONTINUOUS
 62
     1
  5
2D9
  2
LDR
 10
495.230833
 20
22.975083
 30
0.0
 41
240.0
 42
240.0
 50
180.0
210
0.0
220
0.0
230
1.0
  0
INSERT
  8
1
  6
CONTINUOUS
 62
     1
  5
2DA
  2
LDR
 10
495.230833
 20
22.975083
 30
0.0
 41
240.0
 42
240.0
 50
180.0
210
0.0
220
0.0
230
1.0
  0
INSERT
  8
1
  6
CONTINUOUS
 62
     1
  5
2DB
  2
LDR
 10
535.230833
 20
22.975083
 30
0.0
 41
240.0
 42
240.0
210
0.0
220
0.0
230
1.0
  0
INSERT
  8
1
  6
CONTINUOUS
 62
     1
  5
2DC
  2
LDR
 10
535.230833
 20
22.975083
 30
0.0
 41
240.0
 42
240.0
210
0.0
220
0.0
230
1.0
  0
INSERT
  8
1
  6
CONTINUOUS
 62
     1
  5
2DD
  2
LDR
 10
543.965833
 20
2.975083
 30
0.0
 41
240.0
 42
240.0
 50
90.0
210
0.0
220
0.0
230
1.0
  0
INSERT
  8
1
  6
CONTINUOUS
 62
     1
  5
2DE
  2
LDR
 10
543.965833
 20
2.975083
 30
0.0
 41
240.0
 42
240.0
 50
90.0
210
0.0
220
0.0
230
1.0
  0
INSERT
  8
1
  6
CONTINUOUS
 62
     1
  5
2DF
  2
LDR
 10
543.965833
 20
-11.024917
 30
0.0
 41
240.0
 42
240.0
 50
270.0
210
0.0
220
0.0
230
1.0
  0
INSERT
  8
1
  6
CONTINUOUS
 62
     1
  5
2E0
  2
LDR
 10
543.965833
 20
-11.024917
 30
0.0
 41
240.0
 42
240.0
 50
270.0
210
0.0
220
0.0
230
1.0
  0
INSERT
  8
1
  6
CONTINUOUS
 62
     1
  5
2E1
  2
LDR
 10
488.730833
 20
-31.16725
 30
0.0
 41
240.0
 42
240.0
 50
180.0
210
0.0
220
0.0
230
1.0
  0
INSERT
  8
1
  6
CONTINUOUS
 62
     1
  5
2E2
  2
LDR
 10
488.730833
 20
-31.16725
 30
0.0
 41
240.0
 42
240.0
 50
180.0
210
0.0
220
0.0
230
1.0
  0
INSERT
  8
1
  6
CONTINUOUS
 62
     1
  5
2E3
  2
LDR
 10
541.730833
 20
-31.16725
 30
0.0
 41
240.0
 42
240.0
210
0.0
220
0.0
230
1.0
  0
INSERT
  8
1
  6
CONTINUOUS
 62
     1
  5
2E4
  2
LDR
 10
541.730833
 20
-31.16725
 30
0.0
 41
240.0
 42
240.0
210
0.0
220
0.0
230
1.0
  0
INSERT
  8
1
  6
CONTINUOUS
 62
     1
  5
2E5
  2
LDR
 10
474.642667
 20
-37.16725
 30
0.0
 41
240.0
 42
240.0
 50
90.0
210
0.0
220
0.0
230
1.0
  0
INSERT
  8
1
  6
CONTINUOUS
 62
     1
  5
2E6
  2
LDR
 10
474.642667
 20
-37.16725
 30
0.0
 41
240.0
 42
240.0
 50
90.0
210
0.0
220
0.0
230
1.0
  0
INSERT
  8
1
  6
CONTINUOUS
 62
     1
  5
2E7
  2
LDR
 10
474.642667
 20
-79.16725
 30
0.0
 41
240.0
 42
240.0
 50
270.0
210
0.0
220
0.0
230
1.0
  0
INSERT
  8
1
  6
CONTINUOUS
 62
     1
  5
2E8
  2
LDR
 10
474.642667
 20
-79.16725
 30
0.0
 41
240.0
 42
240.0
 50
270.0
210
0.0
220
0.0
230
1.0
  0
INSERT
  8
1
  6
CONTINUOUS
 62
     1
  5
2E9
  2
LDR
 10
551.9055
 20
-51.16725
 30
0.0
 41
240.0
 42
240.0
 50
90.0
210
0.0
220
0.0
230
1.0
  0
INSERT
  8
1
  6
CONTINUOUS
 62
     1
  5
2EA
  2
LDR
 10
551.9055
 20
-51.16725
 30
0.0
 41
240.0
 42
240.0
 50
90.0
210
0.0
220
0.0
230
1.0
  0
INSERT
  8
1
  6
CONTINUOUS
 62
     1
  5
2EB
  2
LDR
 10
551.9055
 20
-65.16725
 30
0.0
 41
240.0
 42
240.0
 50
270.0
210
0.0
220
0.0
230
1.0
  0
INSERT
  8
1
  6
CONTINUOUS
 62
     1
  5
2EC
  2
LDR
 10
372.180917
 20
-87.466083
 30
0.0
 41
240.0
 42
240.0
 50
180.0
210
0.0
220
0.0
230
1.0
  0
INSERT
  8
1
  6
CONTINUOUS
 62
     1
  5
2ED
  2
LDR
 10
372.180917
 20
-87.466083
 30
0.0
 41
240.0
 42
240.0
 50
180.0
210
0.0
220
0.0
230
1.0
  0
INSERT
  8
1
  6
CONTINUOUS
 62
     1
  5
2EE
  2
LDR
 10
412.180917
 20
-87.466083
 30
0.0
 41
240.0
 42
240.0
210
0.0
220
0.0
230
1.0
  0
INSERT
  8
1
  6
CONTINUOUS
 62
     1
  5
2EF
  2
LDR
 10
412.180917
 20
-87.466083
 30
0.0
 41
240.0
 42
240.0
210
0.0
220
0.0
230
1.0
  0
INSERT
  8
1
  6
CONTINUOUS
 62
     1
  5
2F0
  2
LDR
 10
420.916167
 20
-100.966083
 30
0.0
 41
240.0
 42
240.0
 50
90.0
210
0.0
220
0.0
230
1.0
  0
INSERT
  8
1
  6
CONTINUOUS
 62
     1
  5
2F1
  2
LDR
 10
420.916167
 20
-100.966083
 30
0.0
 41
240.0
 42
240.0
 50
90.0
210
0.0
220
0.0
230
1.0
  0
INSERT
  8
1
  6
CONTINUOUS
 62
     1
  5
2F2
  2
LDR
 10
420.916167
 20
-109.966083
 30
0.0
 41
240.0
 42
240.0
 50
270.0
210
0.0
220
0.0
230
1.0
  0
INSERT
  8
1
  6
CONTINUOUS
 62
     1
  5
2F3
  2
LDR
 10
420.916167
 20
-109.966083
 30
0.0
 41
240.0
 42
240.0
 50
270.0
210
0.0
220
0.0
230
1.0
  0
INSERT
  8
1
  6
CONTINUOUS
 62
     1
  5
2F4
  2
LDR
 10
420.916167
 20
-118.966083
 30
0.0
 41
240.0
 42
240.0
 50
90.0
210
0.0
220
0.0
230
1.0
  0
INSERT
  8
1
  6
CONTINUOUS
 62
     1
  5
2F5
  2
LDR
 10
420.916167
 20
-118.966083
 30
0.0
 41
240.0
 42
240.0
 50
90.0
210
0.0
220
0.0
230
1.0
  0
INSERT
  8
1
  6
CONTINUOUS
 62
     1
  5
2F6
  2
LDR
 10
420.916167
 20
-127.966083
 30
0.0
 41
240.0
 42
240.0
 50
270.0
210
0.0
220
0.0
230
1.0
  0
INSERT
  8
1
  6
CONTINUOUS
 62
     1
  5
2F7
  2
LDR
 10
420.916167
 20
-127.966083
 30
0.0
 41
240.0
 42
240.0
 50
270.0
210
0.0
220
0.0
230
1.0
  0
INSERT
  8
1
  6
CONTINUOUS
 62
     1
  5
2F8
  2
LDR
 10
372.272167
 20
-117.458
 30
0.0
 41
240.0
 42
240.0
210
0.0
220
0.0
230
1.0
  0
INSERT
  8
1
  6
CONTINUOUS
 62
     1
  5
2F9
  2
LDR
 10
378.680917
 20
-117.466083
 30
0.0
 41
240.0
 42
240.0
 50
180.0
210
0.0
220
0.0
230
1.0
  0
INSERT
  8
1
  6
CONTINUOUS
 62
     1
  5
2FA
  2
LDR
 10
378.680917
 20
-117.466083
 30
0.0
 41
240.0
 42
240.0
 50
180.0
210
0.0
220
0.0
230
1.0
  0
INSERT
  8
1
  6
CONTINUOUS
 62
     1
  5
2FB
  2
LDR
 10
405.680917
 20
-117.466083
 30
0.0
 41
240.0
 42
240.0
210
0.0
220
0.0
230
1.0
  0
INSERT
  8
1
  6
CONTINUOUS
 62
     1
  5
2FC
  2
LDR
 10
495.180917
 20
-87.466083
 30
0.0
 41
240.0
 42
240.0
 50
180.0
210
0.0
220
0.0
230
1.0
  0
INSERT
  8
1
  6
CONTINUOUS
 62
     1
  5
2FD
  2
LDR
 10
495.180917
 20
-87.466083
 30
0.0
 41
240.0
 42
240.0
 50
180.0
210
0.0
220
0.0
230
1.0
  0
INSERT
  8
1
  6
CONTINUOUS
 62
     1
  5
2FE
  2
LDR
 10
535.180917
 20
-87.466083
 30
0.0
 41
240.0
 42
240.0
210
0.0
220
0.0
230
1.0
  0
INSERT
  8
1
  6
CONTINUOUS
 62
     1
  5
2FF
  2
LDR
 10
535.180917
 20
-87.466083
 30
0.0
 41
240.0
 42
240.0
210
0.0
220
0.0
230
1.0
  0
INSERT
  8
1
  6
CONTINUOUS
 62
     1
  5
300
  2
LDR
 10
543.916167
 20
-100.966083
 30
0.0
 41
240.0
 42
240.0
 50
90.0
210
0.0
220
0.0
230
1.0
  0
INSERT
  8
1
  6
CONTINUOUS
 62
     1
  5
301
  2
LDR
 10
543.916167
 20
-100.966083
 30
0.0
 41
240.0
 42
240.0
 50
90.0
210
0.0
220
0.0
230
1.0
  0
INSERT
  8
1
  6
CONTINUOUS
 62
     1
  5
302
  2
LDR
 10
543.916167
 20
-109.966083
 30
0.0
 41
240.0
 42
240.0
 50
270.0
210
0.0
220
0.0
230
1.0
  0
INSERT
  8
1
  6
CONTINUOUS
 62
     1
  5
303
  2
LDR
 10
543.916167
 20
-109.966083
 30
0.0
 41
240.0
 42
240.0
 50
270.0
210
0.0
220
0.0
230
1.0
  0
INSERT
  8
1
  6
CONTINUOUS
 62
     1
  5
304
  2
LDR
 10
543.916167
 20
-118.966083
 30
0.0
 41
240.0
 42
240.0
 50
90.0
210
0.0
220
0.0
230
1.0
  0
INSERT
  8
1
  6
CONTINUOUS
 62
     1
  5
305
  2
LDR
 10
543.916167
 20
-118.966083
 30
0.0
 41
240.0
 42
240.0
 50
90.0
210
0.0
220
0.0
230
1.0
  0
INSERT
  8
1
  6
CONTINUOUS
 62
     1
  5
306
  2
LDR
 10
543.916167
 20
-127.966083
 30
0.0
 41
240.0
 42
240.0
 50
270.0
210
0.0
220
0.0
230
1.0
  0
INSERT
  8
1
  6
CONTINUOUS
 62
     1
  5
307
  2
LDR
 10
543.916167
 20
-127.966083
 30
0.0
 41
240.0
 42
240.0
 50
270.0
210
0.0
220
0.0
230
1.0
  0
INSERT
  8
1
  6
CONTINUOUS
 62
     1
  5
308
  2
LDR
 10
501.680917
 20
-117.466083
 30
0.0
 41
240.0
 42
240.0
 50
180.0
210
0.0
220
0.0
230
1.0
  0
INSERT
  8
1
  6
CONTINUOUS
 62
     1
  5
309
  2
LDR
 10
501.680917
 20
-117.466083
 30
0.0
 41
240.0
 42
240.0
 50
180.0
210
0.0
220
0.0
230
1.0
  0
INSERT
  8
1
  6
CONTINUOUS
 62
     1
  5
30A
  2
LDR
 10
528.680917
 20
-117.466083
 30
0.0
 41
240.0
 42
240.0
210
0.0
220
0.0
230
1.0
  0
INSERT
  8
1
  6
CONTINUOUS
 62
     1
  5
30B
  2
LDR
 10
528.680917
 20
-117.466083
 30
0.0
 41
240.0
 42
240.0
210
0.0
220
0.0
230
1.0
  0
INSERT
  8
1
  6
CONTINUOUS
 62
     1
  5
30C
  2
LDR
 10
495.272167
 20
-117.458
 30
0.0
 41
240.0
 42
240.0
210
0.0
220
0.0
230
1.0
  0
LINE
  8
1
  6
CONTINUOUS
 62
     7
  5
30D
 10
543.916167
 20
-111.716083
 30
0.0
 11
547.916167
 21
-111.716083
 31
0.0
  0
LINE
  8
1
  6
CONTINUOUS
 62
     7
  5
30E
 10
543.916167
 20
-117.216083
 30
0.0
 11
547.916167
 21
-117.216083
 31
0.0
  0
INSERT
  8
1
  6
CONTINUOUS
 62
     1
  5
30F
  2
LDR
 10
543.916167
 20
-111.716083
 30
0.0
 41
240.0
 42
240.0
 50
180.0
210
0.0
220
0.0
230
1.0
  0
INSERT
  8
1
  6
CONTINUOUS
 62
     1
  5
310
  2
LDR
 10
543.916167
 20
-117.216083
 30
0.0
 41
240.0
 42
240.0
 50
180.0
210
0.0
220
0.0
230
1.0
  0
LINE
  8
1
  6
CONTINUOUS
 62
     7
  5
311
 10
543.916167
 20
-114.466083
 30
0.0
 11
551.916167
 21
-114.466083
 31
0.0
  0
INSERT
  8
1
  6
CONTINUOUS
 62
     1
  5
312
  2
LDR
 10
543.916167
 20
-114.466083
 30
0.0
 41
240.0
 42
240.0
 50
180.0
210
0.0
220
0.0
230
1.0
  0
LINE
  8
1
  6
CONTINUOUS
 62
     7
  5
313
 10
420.916167
 20
-114.466083
 30
0.0
 11
428.916167
 21
-114.466083
 31
0.0
  0
LINE
  8
1
  6
CONTINUOUS
 62
     7
  5
314
 10
420.916167
 20
-111.716083
 30
0.0
 11
424.916167
 21
-111.716083
 31
0.0
  0
LINE
  8
1
  6
CONTINUOUS
 62
     7
  5
315
 10
420.916167
 20
-117.216083
 30
0.0
 11
424.916167
 21
-117.216083
 31
0.0
  0
INSERT
  8
1
  6
CONTINUOUS
 62
     1
  5
316
  2
LDR
 10
420.916167
 20
-111.716083
 30
0.0
 41
240.0
 42
240.0
 50
180.0
210
0.0
220
0.0
230
1.0
  0
INSERT
  8
1
  6
CONTINUOUS
 62
     1
  5
317
  2
LDR
 10
420.916167
 20
-117.216083
 30
0.0
 41
240.0
 42
240.0
 50
180.0
210
0.0
220
0.0
230
1.0
  0
INSERT
  8
1
  6
CONTINUOUS
 62
     1
  5
318
  2
LDR
 10
420.916167
 20
-114.466083
 30
0.0
 41
240.0
 42
240.0
 50
180.0
210
0.0
220
0.0
230
1.0
  0
LINE
  8
1
  6
CONTINUOUS
 62
     7
  5
319
 10
40.803833
 20
24.8185
 30
0.0
 11
60.730833
 21
24.8185
 31
0.0
  0
LINE
  8
1
  6
CONTINUOUS
 62
     7
  5
31A
 10
63.730833
 20
24.8185
 30
0.0
 11
83.65775
 21
24.8185
 31
0.0
  0
LINE
  8
1
  6
CONTINUOUS
 62
     7
  5
31B
 10
96.3485
 20
1.328083
 30
0.0
 11
96.3485
 21
8.078083
 31
0.0
  0
LINE
  8
1
  6
CONTINUOUS
 62
     7
  5
31C
 10
96.3485
 20
11.578083
 30
0.0
 11
96.3485
 21
18.328083
 31
0.0
  0
LINE
  8
1
  6
CONTINUOUS
 62
     7
  5
31D
 10
108.3485
 20
18.328083
 30
0.0
 11
108.3485
 21
-1.098417
 31
0.0
  0
LINE
  8
1
  6
CONTINUOUS
 62
     7
  5
31E
 10
108.3485
 20
-4.598417
 30
0.0
 11
108.3485
 21
-24.024917
 31
0.0
  0
LINE
  8
1
  6
CONTINUOUS
 62
     7
  5
31F
 10
96.3485
 20
1.328083
 30
0.0
 11
96.3485
 21
-3.921917
 31
0.0
  0
LINE
  8
1
  6
CONTINUOUS
 62
     7
  5
320
 10
96.3485
 20
-7.421917
 30
0.0
 11
96.3485
 21
-12.671917
 31
0.0
  0
LINE
  8
1
  6
CONTINUOUS
 62
     7
  5
321
 10
96.3485
 20
-12.671917
 30
0.0
 11
96.3485
 21
-16.598417
 31
0.0
  0
LINE
  8
1
  6
CONTINUOUS
 62
     7
  5
322
 10
96.3485
 20
-20.098417
 30
0.0
 11
96.3485
 21
-24.024917
 31
0.0
  0
TEXT
  8
1
  6
CONTINUOUS
 62
     7
  5
323
 10
61.276083
 20
23.5685
 30
0.0
 40
2.5
  1
A
  7
MONOTXT
 72
     4
 11
62.240583
 21
24.8185
 31
0.0
210
0.0
220
0.0
230
1.0
  0
TEXT
  8
1
  6
CONTINUOUS
 62
     7
  5
324
 10
95.52175
 20
8.578083
 30
0.0
 40
2.5
  1
D
  7
MONOTXT
 72
     4
 11
96.358333
 21
9.828083
 31
0.0
210
0.0
220
0.0
230
1.0
  0
TEXT
  8
1
  6
CONTINUOUS
 62
     7
  5
325
 10
107.39375
 20
-4.098417
 30
0.0
 40
2.5
  1
A
  7
MONOTXT
 72
     4
 11
108.35825
 21
-2.848417
 31
0.0
210
0.0
220
0.0
230
1.0
  0
TEXT
  8
1
  6
CONTINUOUS
 62
     7
  5
326
 10
95.462667
 20
-6.921917
 30
0.0
 40
2.5
  1
C
  7
MONOTXT
 72
     4
 11
96.358333
 21
-5.671917
 31
0.0
210
0.0
220
0.0
230
1.0
  0
TEXT
  8
1
  6
CONTINUOUS
 62
     7
  5
327
 10
95.58075
 20
-19.598417
 30
0.0
 40
2.5
  1
E
  7
MONOTXT
 72
     4
 11
96.35825
 21
-18.348417
 31
0.0
210
0.0
220
0.0
230
1.0
  0
LINE
  8
1
  6
CONTINUOUS
 62
     7
  5
328
 10
45.121583
 20
-30.641583
 30
0.0
 11
60.77875
 21
-30.641583
 31
0.0
  0
LINE
  8
1
  6
CONTINUOUS
 62
     7
  5
329
 10
63.77875
 20
-30.641583
 30
0.0
 11
79.435833
 21
-30.641583
 31
0.0
  0
LINE
  8
1
  6
CONTINUOUS
 62
     7
  5
32A
 10
96.3485
 20
-53.20725
 30
0.0
 11
96.3485
 21
-50.366083
 31
0.0
  0
LINE
  8
1
  6
CONTINUOUS
 62
     7
  5
32B
 10
96.3485
 20
-46.866083
 30
0.0
 11
96.3485
 21
-44.024917
 31
0.0
  0
LINE
  8
1
  6
CONTINUOUS
 62
     7
  5
32C
 10
96.3485
 20
-53.20725
 30
0.0
 11
96.3485
 21
-58.45725
 31
0.0
  0
LINE
  8
1
  6
CONTINUOUS
 62
     7
  5
32D
 10
96.3485
 20
-61.95725
 30
0.0
 11
96.3485
 21
-67.20725
 31
0.0
  0
LINE
  8
1
  6
CONTINUOUS
 62
     7
  5
32E
 10
96.3485
 20
-67.20725
 30
0.0
 11
96.3485
 21
-70.93775
 31
0.0
  0
LINE
  8
1
  6
CONTINUOUS
 62
     7
  5
32F
 10
96.3485
 20
-74.43775
 30
0.0
 11
96.3485
 21
-78.168167
 31
0.0
  0
LINE
  8
1
  6
CONTINUOUS
 62
     7
  5
330
 10
108.30875
 20
-44.024917
 30
0.0
 11
108.30875
 21
-59.346583
 31
0.0
  0
LINE
  8
1
  6
CONTINUOUS
 62
     7
  5
331
 10
108.30875
 20
-62.846583
 30
0.0
 11
108.30875
 21
-78.168167
 31
0.0
  0
TEXT
  8
1
  6
CONTINUOUS
 62
     7
  5
332
 10
61.324
 20
-31.891583
 30
0.0
 40
2.5
  1
A
  7
MONOTXT
 72
     4
 11
62.2885
 21
-30.641583
 31
0.0
210
0.0
220
0.0
230
1.0
  0
TEXT
  8
1
  6
CONTINUOUS
 62
     7
  5
333
 10
107.354
 20
-62.346583
 30
0.0
 40
2.5
  1
A
  7
MONOTXT
 72
     4
 11
108.3185
 21
-61.096583
 31
0.0
210
0.0
220
0.0
230
1.0
  0
TEXT
  8
1
  6
CONTINUOUS
 62
     7
  5
334
 10
95.58075
 20
-49.866083
 30
0.0
 40
2.5
  1
E
  7
MONOTXT
 72
     4
 11
96.35825
 21
-48.616083
 31
0.0
210
0.0
220
0.0
230
1.0
  0
TEXT
  8
1
  6
CONTINUOUS
 62
     7
  5
335
 10
95.462667
 20
-61.45725
 30
0.0
 40
2.5
  1
C
  7
MONOTXT
 72
     4
 11
96.358333
 21
-60.20725
 31
0.0
210
0.0
220
0.0
230
1.0
  0
TEXT
  8
1
  6
CONTINUOUS
 62
     7
  5
336
 10
95.52175
 20
-73.93775
 30
0.0
 40
2.5
  1
D
  7
MONOTXT
 72
     4
 11
96.358333
 21
-72.68775
 31
0.0
210
0.0
220
0.0
230
1.0
  0
LINE
  8
1
  6
CONTINUOUS
 62
     7
  5
337
 10
44.041083
 20
-88.168167
 30
0.0
 11
60.691083
 21
-88.168167
 31
0.0
  0
LINE
  8
1
  6
CONTINUOUS
 62
     7
  5
338
 10
63.691083
 20
-88.168167
 30
0.0
 11
80.341083
 21
-88.168167
 31
0.0
  0
LINE
  8
1
  6
CONTINUOUS
 62
     7
  5
339
 10
96.404167
 20
-109.318167
 30
0.0
 11
96.404167
 21
-105.493167
 31
0.0
  0
LINE
  8
1
  6
CONTINUOUS
 62
     7
  5
33A
 10
96.404167
 20
-101.993167
 30
0.0
 11
96.404167
 21
-98.168167
 31
0.0
  0
LINE
  8
1
  6
CONTINUOUS
 62
     7
  5
33B
 10
96.404167
 20
-109.318167
 30
0.0
 11
96.404167
 21
-114.568167
 31
0.0
  0
LINE
  8
1
  6
CONTINUOUS
 62
     7
  5
33C
 10
96.404167
 20
-118.068167
 30
0.0
 11
96.404167
 21
-123.318167
 31
0.0
  0
LINE
  8
1
  6
CONTINUOUS
 62
     7
  5
33D
 10
96.404167
 20
-123.318167
 30
0.0
 11
96.404167
 21
-127.143167
 31
0.0
  0
LINE
  8
1
  6
CONTINUOUS
 62
     7
  5
33E
 10
96.404167
 20
-130.643167
 30
0.0
 11
96.404167
 21
-134.468167
 31
0.0
  0
LINE
  8
1
  6
CONTINUOUS
 62
     7
  5
33F
 10
108.30875
 20
-98.168167
 30
0.0
 11
108.30875
 21
-114.568167
 31
0.0
  0
LINE
  8
1
  6
CONTINUOUS
 62
     7
  5
340
 10
108.30875
 20
-118.068167
 30
0.0
 11
108.30875
 21
-134.468167
 31
0.0
  0
TEXT
  8
1
  6
CONTINUOUS
 62
     7
  5
341
 10
61.236333
 20
-89.418167
 30
0.0
 40
2.5
  1
A
  7
MONOTXT
 72
     4
 11
62.200833
 21
-88.168167
 31
0.0
210
0.0
220
0.0
230
1.0
  0
TEXT
  8
1
  6
CONTINUOUS
 62
     7
  5
342
 10
107.354
 20
-117.568167
 30
0.0
 40
2.5
  1
A
  7
MONOTXT
 72
     4
 11
108.3185
 21
-116.318167
 31
0.0
210
0.0
220
0.0
230
1.0
  0
TEXT
  8
1
  6
CONTINUOUS
 62
     7
  5
343
 10
95.636417
 20
-104.993167
 30
0.0
 40
2.5
  1
F
  7
MONOTXT
 72
     4
 11
96.413917
 21
-103.743167
 31
0.0
210
0.0
220
0.0
230
1.0
  0
TEXT
  8
1
  6
CONTINUOUS
 62
     7
  5
344
 10
95.518333
 20
-117.568167
 30
0.0
 40
2.5
  1
C
  7
MONOTXT
 72
     4
 11
96.414
 21
-116.318167
 31
0.0
210
0.0
220
0.0
230
1.0
  0
TEXT
  8
1
  6
CONTINUOUS
 62
     7
  5
345
 10
95.636417
 20
-130.143167
 30
0.0
 40
2.5
  1
F
  7
MONOTXT
 72
     4
 11
96.413917
 21
-128.893167
 31
0.0
210
0.0
220
0.0
230
1.0
  0
LINE
  8
1
  6
CONTINUOUS
 62
     7
  5
346
 10
160.4495
 20
24.817417
 30
0.0
 11
185.730917
 21
24.817417
 31
0.0
  0
LINE
  8
1
  6
CONTINUOUS
 62
     7
  5
347
 10
188.730917
 20
24.817417
 30
0.0
 11
214.01225
 21
24.817417
 31
0.0
  0
LINE
  8
1
  6
CONTINUOUS
 62
     7
  5
348
 10
224.8775
 20
1.327
 30
0.0
 11
224.8775
 21
8.077
 31
0.0
  0
LINE
  8
1
  6
CONTINUOUS
 62
     7
  5
349
 10
224.8775
 20
11.577
 30
0.0
 11
224.8775
 21
18.327
 31
0.0
  0
LINE
  8
1
  6
CONTINUOUS
 62
     7
  5
34A
 10
236.8775
 20
18.327
 30
0.0
 11
236.8775
 21
-1.0995
 31
0.0
  0
LINE
  8
1
  6
CONTINUOUS
 62
     7
  5
34B
 10
236.8775
 20
-4.5995
 30
0.0
 11
236.8775
 21
-24.026
 31
0.0
  0
LINE
  8
1
  6
CONTINUOUS
 62
     7
  5
34C
 10
224.8775
 20
1.327
 30
0.0
 11
224.8775
 21
-3.923
 31
0.0
  0
LINE
  8
1
  6
CONTINUOUS
 62
     7
  5
34D
 10
224.8775
 20
-7.423
 30
0.0
 11
224.8775
 21
-12.673
 31
0.0
  0
LINE
  8
1
  6
CONTINUOUS
 62
     7
  5
34E
 10
224.8775
 20
-12.673
 30
0.0
 11
224.8775
 21
-16.5995
 31
0.0
  0
LINE
  8
1
  6
CONTINUOUS
 62
     7
  5
34F
 10
224.8775
 20
-20.0995
 30
0.0
 11
224.8775
 21
-24.026
 31
0.0
  0
LINE
  8
1
  6
CONTINUOUS
 62
     7
  5
350
 10
165.725167
 20
-31.640667
 30
0.0
 11
185.730833
 21
-31.640667
 31
0.0
  0
LINE
  8
1
  6
CONTINUOUS
 62
     7
  5
351
 10
188.730833
 20
-31.640667
 30
0.0
 11
208.736417
 21
-31.640667
 31
0.0
  0
LINE
  8
1
  6
CONTINUOUS
 62
     7
  5
352
 10
221.358417
 20
-53.20725
 30
0.0
 11
221.358417
 21
-50.365667
 31
0.0
  0
LINE
  8
1
  6
CONTINUOUS
 62
     7
  5
353
 10
221.358417
 20
-46.865667
 30
0.0
 11
221.358417
 21
-44.024
 31
0.0
  0
LINE
  8
1
  6
CONTINUOUS
 62
     7
  5
354
 10
233.318667
 20
-44.024
 30
0.0
 11
233.318667
 21
-59.345667
 31
0.0
  0
LINE
  8
1
  6
CONTINUOUS
 62
     7
  5
355
 10
233.318667
 20
-62.845667
 30
0.0
 11
233.318667
 21
-78.16725
 31
0.0
  0
LINE
  8
1
  6
CONTINUOUS
 62
     7
  5
356
 10
221.358417
 20
-53.20725
 30
0.0
 11
221.358417
 21
-58.45725
 31
0.0
  0
LINE
  8
1
  6
CONTINUOUS
 62
     7
  5
357
 10
221.358417
 20
-61.95725
 30
0.0
 11
221.358417
 21
-67.20725
 31
0.0
  0
LINE
  8
1
  6
CONTINUOUS
 62
     7
  5
358
 10
221.358417
 20
-67.20725
 30
0.0
 11
221.358417
 21
-70.93725
 31
0.0
  0
LINE
  8
1
  6
CONTINUOUS
 62
     7
  5
359
 10
221.358417
 20
-74.43725
 30
0.0
 11
221.358417
 21
-78.16725
 31
0.0
  0
LINE
  8
1
  6
CONTINUOUS
 62
     7
  5
35A
 10
164.493833
 20
-88.166083
 30
0.0
 11
185.680917
 21
-88.166083
 31
0.0
  0
LINE
  8
1
  6
CONTINUOUS
 62
     7
  5
35B
 10
188.680917
 20
-88.166083
 30
0.0
 11
209.868
 21
-88.166083
 31
0.0
  0
LINE
  8
1
  6
CONTINUOUS
 62
     7
  5
35C
 10
225.931083
 20
-109.316083
 30
0.0
 11
225.931083
 21
-105.491083
 31
0.0
  0
LINE
  8
1
  6
CONTINUOUS
 62
     7
  5
35D
 10
225.931083
 20
-101.991083
 30
0.0
 11
225.931083
 21
-98.166083
 31
0.0
  0
LINE
  8
1
  6
CONTINUOUS
 62
     7
  5
35E
 10
237.835667
 20
-98.166083
 30
0.0
 11
237.835667
 21
-114.566083
 31
0.0
  0
LINE
  8
1
  6
CONTINUOUS
 62
     7
  5
35F
 10
237.835667
 20
-118.066083
 30
0.0
 11
237.835667
 21
-134.466083
 31
0.0
  0
LINE
  8
1
  6
CONTINUOUS
 62
     7
  5
360
 10
225.931083
 20
-109.316083
 30
0.0
 11
225.931083
 21
-114.566083
 31
0.0
  0
LINE
  8
1
  6
CONTINUOUS
 62
     7
  5
361
 10
225.931083
 20
-118.066083
 30
0.0
 11
225.931083
 21
-123.316083
 31
0.0
  0
LINE
  8
1
  6
CONTINUOUS
 62
     7
  5
362
 10
225.931083
 20
-123.316083
 30
0.0
 11
225.931083
 21
-127.141083
 31
0.0
  0
LINE
  8
1
  6
CONTINUOUS
 62
     7
  5
363
 10
225.931083
 20
-130.641083
 30
0.0
 11
225.931083
 21
-134.466083
 31
0.0
  0
TEXT
  8
1
  6
CONTINUOUS
 62
     7
  5
364
 10
186.404167
 20
23.567417
 30
0.0
 40
2.5
  1
B
  7
MONOTXT
 72
     4
 11
187.24075
 21
24.817417
 31
0.0
210
0.0
220
0.0
230
1.0
  0
TEXT
  8
1
  6
CONTINUOUS
 62
     7
  5
365
 10
235.92275
 20
-4.0995
 30
0.0
 40
2.5
  1
A
  7
MONOTXT
 72
     4
 11
236.88725
 21
-2.8495
 31
0.0
210
0.0
220
0.0
230
1.0
  0
TEXT
  8
1
  6
CONTINUOUS
 62
     7
  5
366
 10
224.05075
 20
8.577
 30
0.0
 40
2.5
  1
D
  7
MONOTXT
 72
     4
 11
224.887333
 21
9.827
 31
0.0
210
0.0
220
0.0
230
1.0
  0
TEXT
  8
1
  6
CONTINUOUS
 62
     7
  5
367
 10
223.991667
 20
-6.923
 30
0.0
 40
2.5
  1
G
  7
MONOTXT
 72
     4
 11
224.887333
 21
-5.673
 31
0.0
210
0.0
220
0.0
230
1.0
  0
TEXT
  8
1
  6
CONTINUOUS
 62
     7
  5
368
 10
224.10975
 20
-19.5995
 30
0.0
 40
2.5
  1
E
  7
MONOTXT
 72
     4
 11
224.88725
 21
-18.3495
 31
0.0
210
0.0
220
0.0
230
1.0
  0
TEXT
  8
1
  6
CONTINUOUS
 62
     7
  5
369
 10
186.404083
 20
-32.890667
 30
0.0
 40
2.5
  1
B
  7
MONOTXT
 72
     4
 11
187.240667
 21
-31.640667
 31
0.0
210
0.0
220
0.0
230
1.0
  0
TEXT
  8
1
  6
CONTINUOUS
 62
     7
  5
36A
 10
232.363917
 20
-62.345667
 30
0.0
 40
2.5
  1
A
  7
MONOTXT
 72
     4
 11
233.328417
 21
-61.095667
 31
0.0
210
0.0
220
0.0
230
1.0
  0
TEXT
  8
1
  6
CONTINUOUS
 62
     7
  5
36B
 10
220.590667
 20
-49.865667
 30
0.0
 40
2.5
  1
E
  7
MONOTXT
 72
     4
 11
221.368167
 21
-48.615667
 31
0.0
210
0.0
220
0.0
230
1.0
  0
TEXT
  8
1
  6
CONTINUOUS
 62
     7
  5
36C
 10
220.472583
 20
-61.45725
 30
0.0
 40
2.5
  1
G
  7
MONOTXT
 72
     4
 11
221.36825
 21
-60.20725
 31
0.0
210
0.0
220
0.0
230
1.0
  0
TEXT
  8
1
  6
CONTINUOUS
 62
     7
  5
36D
 10
220.531667
 20
-73.93725
 30
0.0
 40
2.5
  1
D
  7
MONOTXT
 72
     4
 11
221.36825
 21
-72.68725
 31
0.0
210
0.0
220
0.0
230
1.0
  0
TEXT
  8
1
  6
CONTINUOUS
 62
     7
  5
36E
 10
186.354167
 20
-89.416083
 30
0.0
 40
2.5
  1
B
  7
MONOTXT
 72
     4
 11
187.19075
 21
-88.166083
 31
0.0
210
0.0
220
0.0
230
1.0
  0
TEXT
  8
1
  6
CONTINUOUS
 62
     7
  5
36F
 10
236.880917
 20
-117.566083
 30
0.0
 40
2.5
  1
A
  7
MONOTXT
 72
     4
 11
237.845417
 21
-116.316083
 31
0.0
210
0.0
220
0.0
230
1.0
  0
TEXT
  8
1
  6
CONTINUOUS
 62
     7
  5
370
 10
225.87525
 20
-104.982417
 30
0.0
 40
2.5
  1
F
  7
MONOTXT
 72
     4
 11
226.65275
 21
-103.732417
 31
0.0
210
0.0
220
0.0
230
1.0
  0
TEXT
  8
1
  6
CONTINUOUS
 62
     7
  5
371
 10
225.163333
 20
-130.141083
 30
0.0
 40
2.5
  1
F
  7
MONOTXT
 72
     4
 11
225.940833
 21
-128.891083
 31
0.0
210
0.0
220
0.0
230
1.0
  0
TEXT
  8
1
  6
CONTINUOUS
 62
     7
  5
372
 10
225.04525
 20
-117.566083
 30
0.0
 40
2.5
  1
G
  7
MONOTXT
 72
     4
 11
225.940917
 21
-116.316083
 31
0.0
210
0.0
220
0.0
230
1.0
  0
LINE
  8
1
  6
CONTINUOUS
 62
     7
  5
373
 10
372.230833
 20
22.975083
 30
0.0
 11
390.730833
 21
22.975083
 31
0.0
  0
LINE
  8
1
  6
CONTINUOUS
 62
     7
  5
374
 10
393.730833
 20
22.975083
 30
0.0
 11
412.230833
 21
22.975083
 31
0.0
  0
LINE
  8
1
  6
CONTINUOUS
 62
     7
  5
375
 10
495.230833
 20
22.975083
 30
0.0
 11
513.730833
 21
22.975083
 31
0.0
  0
LINE
  8
1
  6
CONTINUOUS
 62
     7
  5
376
 10
516.730833
 20
22.975083
 30
0.0
 11
535.230833
 21
22.975083
 31
0.0
  0
LINE
  8
1
  6
CONTINUOUS
 62
     7
  5
377
 10
420.965833
 20
2.975083
 30
0.0
 11
420.965833
 21
-2.274917
 31
0.0
  0
LINE
  8
1
  6
CONTINUOUS
 62
     7
  5
378
 10
420.965833
 20
-5.774917
 30
0.0
 11
420.965833
 21
-11.024917
 31
0.0
  0
LINE
  8
1
  6
CONTINUOUS
 62
     7
  5
379
 10
543.965833
 20
2.975083
 30
0.0
 11
543.965833
 21
-2.274917
 31
0.0
  0
LINE
  8
1
  6
CONTINUOUS
 62
     7
  5
37A
 10
543.965833
 20
-5.774917
 30
0.0
 11
543.965833
 21
-11.024917
 31
0.0
  0
LINE
  8
1
  6
CONTINUOUS
 62
     7
  5
37B
 10
372.181167
 20
-31.16725
 30
0.0
 11
390.681167
 21
-31.16725
 31
0.0
  0
LINE
  8
1
  6
CONTINUOUS
 62
     7
  5
37C
 10
393.681167
 20
-31.16725
 30
0.0
 11
412.181167
 21
-31.16725
 31
0.0
  0
LINE
  8
1
  6
CONTINUOUS
 62
     7
  5
37D
 10
420.916167
 20
-51.16725
 30
0.0
 11
420.916167
 21
-56.41725
 31
0.0
  0
LINE
  8
1
  6
CONTINUOUS
 62
     7
  5
37E
 10
420.916167
 20
-59.91725
 30
0.0
 11
420.916167
 21
-65.16725
 31
0.0
  0
LINE
  8
1
  6
CONTINUOUS
 62
     7
  5
37F
 10
551.9055
 20
-51.16725
 30
0.0
 11
551.9055
 21
-56.41725
 31
0.0
  0
LINE
  8
1
  6
CONTINUOUS
 62
     7
  5
380
 10
551.9055
 20
-59.91725
 30
0.0
 11
551.9055
 21
-65.16725
 31
0.0
  0
LINE
  8
1
  6
CONTINUOUS
 62
     7
  5
381
 10
488.730833
 20
-31.16725
 30
0.0
 11
513.730833
 21
-31.16725
 31
0.0
  0
LINE
  8
1
  6
CONTINUOUS
 62
     7
  5
382
 10
516.730833
 20
-31.16725
 30
0.0
 11
541.730833
 21
-31.16725
 31
0.0
  0
LINE
  8
1
  6
CONTINUOUS
 62
     7
  5
383
 10
474.642667
 20
-37.16725
 30
0.0
 11
474.642667
 21
-56.41725
 31
0.0
  0
LINE
  8
1
  6
CONTINUOUS
 62
     7
  5
384
 10
474.642667
 20
-59.91725
 30
0.0
 11
474.642667
 21
-79.16725
 31
0.0
  0
LINE
  8
1
  6
CONTINUOUS
 62
     7
  5
385
 10
372.180917
 20
-87.466083
 30
0.0
 11
390.680917
 21
-87.466083
 31
0.0
  0
LINE
  8
1
  6
CONTINUOUS
 62
     7
  5
386
 10
393.680917
 20
-87.466083
 30
0.0
 11
412.180917
 21
-87.466083
 31
0.0
  0
LINE
  8
1
  6
CONTINUOUS
 62
     7
  5
387
 10
495.180917
 20
-87.466083
 30
0.0
 11
513.680917
 21
-87.466083
 31
0.0
  0
LINE
  8
1
  6
CONTINUOUS
 62
     7
  5
388
 10
516.680917
 20
-87.466083
 30
0.0
 11
535.180917
 21
-87.466083
 31
0.0
  0
TEXT
  8
1
  6
CONTINUOUS
 62
     7
  5
389
 10
391.276083
 20
21.725083
 30
0.0
 40
2.5
  1
A
  7
MONOTXT
 72
     4
 11
392.240583
 21
22.975083
 31
0.0
210
0.0
220
0.0
230
1.0
  0
TEXT
  8
1
  6
CONTINUOUS
 62
     7
  5
38A
 10
420.139083
 20
-5.274917
 30
0.0
 40
2.5
  1
B
  7
MONOTXT
 72
     4
 11
420.975667
 21
-4.024917
 31
0.0
210
0.0
220
0.0
230
1.0
  0
TEXT
  8
1
  6
CONTINUOUS
 62
     7
  5
38B
 10
391.226417
 20
-32.41725
 30
0.0
 40
2.5
  1
A
  7
MONOTXT
 72
     4
 11
392.190917
 21
-31.16725
 31
0.0
210
0.0
220
0.0
230
1.0
  0
TEXT
  8
1
  6
CONTINUOUS
 62
     7
  5
38C
 10
420.089417
 20
-59.41725
 30
0.0
 40
2.5
  1
D
  7
MONOTXT
 72
     4
 11
420.926
 21
-58.16725
 31
0.0
210
0.0
220
0.0
230
1.0
  0
LINE
  8
1
  6
CONTINUOUS
 62
     7
  5
38D
 10
420.916167
 20
-100.966083
 30
0.0
 11
420.916167
 21
-103.716083
 31
0.0
  0
LINE
  8
1
  6
CONTINUOUS
 62
     7
  5
38E
 10
420.916167
 20
-107.216083
 30
0.0
 11
420.916167
 21
-109.966083
 31
0.0
  0
LINE
  8
1
  6
CONTINUOUS
 62
     7
  5
38F
 10
420.916167
 20
-118.966083
 30
0.0
 11
420.916167
 21
-121.716083
 31
0.0
  0
LINE
  8
1
  6
CONTINUOUS
 62
     7
  5
390
 10
420.916167
 20
-125.216083
 30
0.0
 11
420.916167
 21
-127.966083
 31
0.0
  0
TEXT
  8
1
  6
CONTINUOUS
 62
     7
  5
391
 10
391.226167
 20
-88.716083
 30
0.0
 40
2.5
  1
A
  7
MONOTXT
 72
     4
 11
392.190667
 21
-87.466083
 31
0.0
210
0.0
220
0.0
230
1.0
  0
TEXT
  8
1
  6
CONTINUOUS
 62
     7
  5
392
 10
420.030333
 20
-106.716083
 30
0.0
 40
2.5
  1
C
  7
MONOTXT
 72
     4
 11
420.926
 21
-105.466083
 31
0.0
210
0.0
220
0.0
230
1.0
  0
TEXT
  8
1
  6
CONTINUOUS
 62
     7
  5
393
 10
420.030333
 20
-124.716083
 30
0.0
 40
2.5
  1
C
  7
MONOTXT
 72
     4
 11
420.926
 21
-123.466083
 31
0.0
210
0.0
220
0.0
230
1.0
  0
TEXT
  8
1
  6
CONTINUOUS
 62
     7
  5
394
 10
429.383583
 20
-115.722917
 30
0.0
 40
2.5
  1
E
  7
MONOTXT
 72
     4
 11
430.161083
 21
-114.472917
 31
0.0
210
0.0
220
0.0
230
1.0
  0
TEXT
  8
1
  6
CONTINUOUS
 62
     7
  5
395
 10
425.363583
 20
-113.067417
 30
0.0
 40
2.5
  1
E
  7
MONOTXT
 72
     4
 11
426.141083
 21
-111.817417
 31
0.0
210
0.0
220
0.0
230
1.0
  0
TEXT
  8
1
  6
CONTINUOUS
 62
     7
  5
396
 10
425.439417
 20
-118.454417
 30
0.0
 40
2.5
  1
E
  7
MONOTXT
 72
     4
 11
426.216917
 21
-117.204417
 31
0.0
210
0.0
220
0.0
230
1.0
  0
TEXT
  8
1
  6
CONTINUOUS
 62
     7
  5
397
 10
407.572833
 20
-118.53025
 30
0.0
 40
2.5
  1
G
  7
MONOTXT
 72
     4
 11
408.4685
 21
-117.28025
 31
0.0
210
0.0
220
0.0
230
1.0
  0
LINE
  8
1
  6
CONTINUOUS
 62
     7
  5
398
 10
378.680917
 20
-117.466083
 30
0.0
 11
397.477583
 21
-117.466083
 31
0.0
  0
LINE
  8
1
  6
CONTINUOUS
 62
     7
  5
399
 10
400.477583
 20
-117.466083
 30
0.0
 11
405.680917
 21
-117.466083
 31
0.0
  0
TEXT
  8
1
  6
CONTINUOUS
 62
     7
  5
39A
 10
398.209833
 20
-118.716083
 30
0.0
 40
2.5
  1
F
  7
MONOTXT
 72
     4
 11
398.987333
 21
-117.466083
 31
0.0
210
0.0
220
0.0
230
1.0
  0
TEXT
  8
1
  6
CONTINUOUS
 62
     7
  5
39B
 10
374.7305
 20
-118.909667
 30
0.0
 40
2.5
  1
G
  7
MONOTXT
 72
     4
 11
375.626167
 21
-117.659667
 31
0.0
210
0.0
220
0.0
230
1.0
  0
LINE
  8
1
  6
CONTINUOUS
 62
     7
  5
39C
 10
501.680917
 20
-117.466083
 30
0.0
 11
519.387583
 21
-117.466083
 31
0.0
  0
LINE
  8
1
  6
CONTINUOUS
 62
     7
  5
39D
 10
522.387583
 20
-117.466083
 30
0.0
 11
528.680917
 21
-117.466083
 31
0.0
  0
TEXT
  8
1
  6
CONTINUOUS
 62
     7
  5
39E
 10
514.226167
 20
-88.716083
 30
0.0
 40
2.5
  1
A
  7
MONOTXT
 72
     4
 11
515.190667
 21
-87.466083
 31
0.0
210
0.0
220
0.0
230
1.0
  0
TEXT
  8
1
  6
CONTINUOUS
 62
     7
  5
39F
 10
520.119833
 20
-118.716083
 30
0.0
 40
2.5
  1
F
  7
MONOTXT
 72
     4
 11
520.897333
 21
-117.466083
 31
0.0
210
0.0
220
0.0
230
1.0
  0
TEXT
  8
1
  6
CONTINUOUS
 62
     7
  5
3A0
 10
497.503333
 20
-118.935167
 30
0.0
 40
2.5
  1
G
  7
MONOTXT
 72
     4
 11
498.399
 21
-117.685167
 31
0.0
210
0.0
220
0.0
230
1.0
  0
TEXT
  8
1
  6
CONTINUOUS
 62
     7
  5
3A1
 10
530.658917
 20
-118.752917
 30
0.0
 40
2.5
  1
G
  7
MONOTXT
 72
     4
 11
531.554583
 21
-117.502917
 31
0.0
210
0.0
220
0.0
230
1.0
  0
LINE
  8
1
  6
CONTINUOUS
 62
     7
  5
3A2
 10
543.916167
 20
-100.966083
 30
0.0
 11
543.916167
 21
-103.716083
 31
0.0
  0
LINE
  8
1
  6
CONTINUOUS
 62
     7
  5
3A3
 10
543.916167
 20
-107.216083
 30
0.0
 11
543.916167
 21
-109.966083
 31
0.0
  0
LINE
  8
1
  6
CONTINUOUS
 62
     7
  5
3A4
 10
543.916167
 20
-118.966083
 30
0.0
 11
543.916167
 21
-121.716083
 31
0.0
  0
LINE
  8
1
  6
CONTINUOUS
 62
     7
  5
3A5
 10
543.916167
 20
-125.216083
 30
0.0
 11
543.916167
 21
-127.966083
 31
0.0
  0
TEXT
  8
1
  6
CONTINUOUS
 62
     7
  5
3A6
 10
543.089417
 20
-106.716083
 30
0.0
 40
2.5
  1
H
  7
MONOTXT
 72
     4
 11
543.926
 21
-105.466083
 31
0.0
210
0.0
220
0.0
230
1.0
  0
TEXT
  8
1
  6
CONTINUOUS
 62
     7
  5
3A7
 10
543.089417
 20
-124.716083
 30
0.0
 40
2.5
  1
H
  7
MONOTXT
 72
     4
 11
543.926
 21
-123.466083
 31
0.0
210
0.0
220
0.0
230
1.0
  0
TEXT
  8
1
  6
CONTINUOUS
 62
     7
  5
3A8
 10
552.269917
 20
-115.78025
 30
0.0
 40
2.5
  1
E
  7
MONOTXT
 72
     4
 11
553.047417
 21
-114.53025
 31
0.0
210
0.0
220
0.0
230
1.0
  0
TEXT
  8
1
  6
CONTINUOUS
 62
     7
  5
3A9
 10
548.247917
 20
-113.047417
 30
0.0
 40
2.5
  1
E
  7
MONOTXT
 72
     4
 11
549.025417
 21
-111.797417
 31
0.0
210
0.0
220
0.0
230
1.0
  0
TEXT
  8
1
  6
CONTINUOUS
 62
     7
  5
3AA
 10
548.247917
 20
-118.589
 30
0.0
 40
2.5
  1
E
  7
MONOTXT
 72
     4
 11
549.025417
 21
-117.339
 31
0.0
210
0.0
220
0.0
230
1.0
  0
TEXT
  8
1
  6
CONTINUOUS
 62
     7
  5
3AB
 10
514.276083
 20
21.725083
 30
0.0
 40
2.5
  1
A
  7
MONOTXT
 72
     4
 11
515.240583
 21
22.975083
 31
0.0
210
0.0
220
0.0
230
1.0
  0
TEXT
  8
1
  6
CONTINUOUS
 62
     7
  5
3AC
 10
543.139083
 20
-5.274917
 30
0.0
 40
2.5
  1
B
  7
MONOTXT
 72
     4
 11
543.975667
 21
-4.024917
 31
0.0
210
0.0
220
0.0
230
1.0
  0
TEXT
  8
1
  6
CONTINUOUS
 62
     7
  5
3AD
 10
515.230833
 20
-32.41725
 30
0.0
 40
2.5
  1
I
  7
MONOTXT
 72
     4
 11
515.230833
 21
-31.16725
 31
0.0
210
0.0
220
0.0
230
1.0
  0
TEXT
  8
1
  6
CONTINUOUS
 62
     7
  5
3AE
 10
473.687917
 20
-59.41725
 30
0.0
 40
2.5
  1
A
  7
MONOTXT
 72
     4
 11
474.652417
 21
-58.16725
 31
0.0
210
0.0
220
0.0
230
1.0
  0
TEXT
  8
1
  6
CONTINUOUS
 62
     7
  5
3AF
 10
551.07875
 20
-59.41725
 30
0.0
 40
2.5
  1
D
  7
MONOTXT
 72
     4
 11
551.915333
 21
-58.16725
 31
0.0
210
0.0
220
0.0
230
1.0
  0
LINE
  8
1
  6
CONTINUOUS
 62
     1
  5
3B0
 10
51.242333
 20
-155.529
 30
0.0
 11
231.242333
 21
-155.529
 31
0.0
  0
LINE
  8
1
  6
CONTINUOUS
 62
     1
  5
3B1
 10
231.242333
 20
-155.529
 30
0.0
 11
231.242333
 21
-195.529
 31
0.0
  0
LINE
  8
1
  6
CONTINUOUS
 62
     1
  5
3B2
 10
231.242333
 20
-195.529
 30
0.0
 11
51.242333
 21
-195.529
 31
0.0
  0
LINE
  8
1
  6
CONTINUOUS
 62
     1
  5
3B3
 10
51.242333
 20
-195.529
 30
0.0
 11
51.242333
 21
-155.529
 31
0.0
  0
LINE
  8
1
  6
CONTINUOUS
 62
     1
  5
3B4
 10
71.242333
 20
-195.529
 30
0.0
 11
71.242333
 21
-155.529
 31
0.0
  0
LINE
  8
1
  6
CONTINUOUS
 62
     1
  5
3B5
 10
81.242333
 20
-195.529
 30
0.0
 11
81.242333
 21
-160.529
 31
0.0
  0
LINE
  8
1
  6
CONTINUOUS
 62
     1
  5
3B6
 10
91.242333
 20
-195.529
 30
0.0
 11
91.242333
 21
-160.529
 31
0.0
  0
LINE
  8
1
  6
CONTINUOUS
 62
     1
  5
3B7
 10
101.242333
 20
-195.529
 30
0.0
 11
101.242333
 21
-160.529
 31
0.0
  0
LINE
  8
1
  6
CONTINUOUS
 62
     1
  5
3B8
 10
111.242333
 20
-195.529
 30
0.0
 11
111.242333
 21
-160.529
 31
0.0
  0
LINE
  8
1
  6
CONTINUOUS
 62
     1
  5
3B9
 10
121.242333
 20
-195.529
 30
0.0
 11
121.242333
 21
-160.529
 31
0.0
  0
LINE
  8
1
  6
CONTINUOUS
 62
     1
  5
3BA
 10
131.242333
 20
-195.529
 30
0.0
 11
131.242333
 21
-160.529
 31
0.0
  0
LINE
  8
1
  6
CONTINUOUS
 62
     1
  5
3BB
 10
141.242333
 20
-195.529
 30
0.0
 11
141.242333
 21
-160.529
 31
0.0
  0
LINE
  8
1
  6
CONTINUOUS
 62
     1
  5
3BC
 10
151.242333
 20
-195.529
 30
0.0
 11
151.242333
 21
-160.529
 31
0.0
  0
LINE
  8
1
  6
CONTINUOUS
 62
     1
  5
3BD
 10
161.242333
 20
-195.529
 30
0.0
 11
161.242333
 21
-160.529
 31
0.0
  0
LINE
  8
1
  6
CONTINUOUS
 62
     1
  5
3BE
 10
171.242333
 20
-195.529
 30
0.0
 11
171.242333
 21
-160.529
 31
0.0
  0
LINE
  8
1
  6
CONTINUOUS
 62
     1
  5
3BF
 10
181.242333
 20
-195.529
 30
0.0
 11
181.242333
 21
-160.529
 31
0.0
  0
LINE
  8
1
  6
CONTINUOUS
 62
     1
  5
3C0
 10
191.242333
 20
-195.529
 30
0.0
 11
191.242333
 21
-160.529
 31
0.0
  0
LINE
  8
1
  6
CONTINUOUS
 62
     1
  5
3C1
 10
201.242333
 20
-195.529
 30
0.0
 11
201.242333
 21
-160.529
 31
0.0
  0
LINE
  8
1
  6
CONTINUOUS
 62
     1
  5
3C2
 10
211.242333
 20
-195.529
 30
0.0
 11
211.242333
 21
-160.529
 31
0.0
  0
LINE
  8
1
  6
CONTINUOUS
 62
     1
  5
3C3
 10
221.242333
 20
-195.529
 30
0.0
 11
221.242333
 21
-160.529
 31
0.0
  0
LINE
  8
1
  6
CONTINUOUS
 62
     1
  5
3C4
 10
71.242333
 20
-160.529
 30
0.0
 11
231.242333
 21
-160.529
 31
0.0
  0
LINE
  8
1
  6
CONTINUOUS
 62
     1
  5
3C5
 10
51.242333
 20
-170.529
 30
0.0
 11
231.242333
 21
-170.529
 31
0.0
  0
LINE
  8
1
  6
CONTINUOUS
 62
     1
  5
3C6
 10
51.242333
 20
-175.529
 30
0.0
 11
231.242333
 21
-175.529
 31
0.0
  0
LINE
  8
1
  6
CONTINUOUS
 62
     1
  5
3C7
 10
51.242333
 20
-180.529
 30
0.0
 11
231.242333
 21
-180.529
 31
0.0
  0
LINE
  8
1
  6
CONTINUOUS
 62
     1
  5
3C8
 10
51.242333
 20
-185.529
 30
0.0
 11
231.242333
 21
-185.529
 31
0.0
  0
LINE
  8
1
  6
CONTINUOUS
 62
     1
  5
3C9
 10
51.242333
 20
-190.529
 30
0.0
 11
231.242333
 21
-190.529
 31
0.0
  0
TEXT
  8
1
  6
CONTINUOUS
 62
     7
  5
3CA
 10
132.561
 20
-159.197
 30
0.0
 40
2.5
  1
DIMENSION (INCHES)
  7
MONOTXT
 72
     4
 11
151.2125
 21
-157.947
 31
0.0
210
0.0
220
0.0
230
1.0
  0
TEXT
  8
1
  6
CONTINUOUS
 62
     7
  5
3CB
 10
54.52525
 20
-159.5565
 30
0.0
 40
2.5
  1
LEGEND
  7
MONOTXT
 72
     4
 11
61.385417
 21
-158.3065
 31
0.0
210
0.0
220
0.0
230
1.0
  0
TEXT
  8
1
  6
CONTINUOUS
 62
     7
  5
3CC
 10
57.71425
 20
-164.0565
 30
0.0
 40
2.5
  1
SIZE
  7
MONOTXT
 72
     4
 11
61.385417
 21
-162.8065
 31
0.0
210
0.0
220
0.0
230
1.0
  0
LINE
  8
1
  6
CONTINUOUS
 62
     1
  5
3CD
 10
51.242333
 20
-165.529
 30
0.0
 11
71.242333
 21
-165.529
 31
0.0
  0
LINE
  8
1
  6
CONTINUOUS
 62
     1
  5
3CE
 10
71.242333
 20
-165.529
 30
0.0
 11
81.242333
 21
-165.529
 31
0.0
  0
LINE
  8
1
  6
CONTINUOUS
 62
     1
  5
3CF
 10
81.242333
 20
-165.529
 30
0.0
 11
91.242333
 21
-165.529
 31
0.0
  0
LINE
  8
1
  6
CONTINUOUS
 62
     1
  5
3D0
 10
91.242333
 20
-165.529
 30
0.0
 11
101.242333
 21
-165.529
 31
0.0
  0
LINE
  8
1
  6
CONTINUOUS
 62
     1
  5
3D1
 10
101.242333
 20
-165.529
 30
0.0
 11
111.242333
 21
-165.529
 31
0.0
  0
LINE
  8
1
  6
CONTINUOUS
 62
     1
  5
3D2
 10
111.242333
 20
-165.529
 30
0.0
 11
121.242333
 21
-165.529
 31
0.0
  0
LINE
  8
1
  6
CONTINUOUS
 62
     1
  5
3D3
 10
121.242333
 20
-165.529
 30
0.0
 11
131.242333
 21
-165.529
 31
0.0
  0
LINE
  8
1
  6
CONTINUOUS
 62
     1
  5
3D4
 10
131.242333
 20
-165.529
 30
0.0
 11
141.242333
 21
-165.529
 31
0.0
  0
LINE
  8
1
  6
CONTINUOUS
 62
     1
  5
3D5
 10
141.242333
 20
-165.529
 30
0.0
 11
153.742333
 21
-165.529
 31
0.0
  0
LINE
  8
1
  6
CONTINUOUS
 62
     1
  5
3D6
 10
151.242333
 20
-165.529
 30
0.0
 11
161.242333
 21
-165.529
 31
0.0
  0
LINE
  8
1
  6
CONTINUOUS
 62
     1
  5
3D7
 10
158.742333
 20
-165.529
 30
0.0
 11
173.742333
 21
-165.529
 31
0.0
  0
LINE
  8
1
  6
CONTINUOUS
 62
     1
  5
3D8
 10
171.242333
 20
-165.529
 30
0.0
 11
181.242333
 21
-165.529
 31
0.0
  0
LINE
  8
1
  6
CONTINUOUS
 62
     1
  5
3D9
 10
181.242333
 20
-165.529
 30
0.0
 11
191.242333
 21
-165.529
 31
0.0
  0
LINE
  8
1
  6
CONTINUOUS
 62
     1
  5
3DA
 10
191.242333
 20
-165.529
 30
0.0
 11
201.242333
 21
-165.529
 31
0.0
  0
LINE
  8
1
  6
CONTINUOUS
 62
     1
  5
3DB
 10
201.242333
 20
-165.529
 30
0.0
 11
211.242333
 21
-165.529
 31
0.0
  0
LINE
  8
1
  6
CONTINUOUS
 62
     1
  5
3DC
 10
211.242333
 20
-165.529
 30
0.0
 11
221.242333
 21
-165.529
 31
0.0
  0
LINE
  8
1
  6
CONTINUOUS
 62
     1
  5
3DD
 10
221.242333
 20
-165.529
 30
0.0
 11
231.242333
 21
-165.529
 31
0.0
  0
TEXT
  8
1
  6
CONTINUOUS
 62
     7
  5
3DE
 10
75.478583
 20
-164.029
 30
0.0
 40
2.0
  1
A
  7
MONOTXT
 72
     4
 11
76.25025
 21
-163.029
 31
0.0
210
0.0
220
0.0
230
1.0
  0
TEXT
  8
1
  6
CONTINUOUS
 62
     7
  5
3DF
 10
85.580917
 20
-164.029
 30
0.0
 40
2.0
  1
B
  7
MONOTXT
 72
     4
 11
86.250167
 21
-163.029
 31
0.0
210
0.0
220
0.0
230
1.0
  0
TEXT
  8
1
  6
CONTINUOUS
 62
     7
  5
3E0
 10
95.533667
 20
-164.029
 30
0.0
 40
2.0
  1
C
  7
MONOTXT
 72
     4
 11
96.250167
 21
-163.029
 31
0.0
210
0.0
220
0.0
230
1.0
  0
TEXT
  8
1
  6
CONTINUOUS
 62
     7
  5
3E1
 10
105.580917
 20
-164.029
 30
0.0
 40
2.0
  1
D
  7
MONOTXT
 72
     4
 11
106.250167
 21
-163.029
 31
0.0
210
0.0
220
0.0
230
1.0
  0
TEXT
  8
1
  6
CONTINUOUS
 62
     7
  5
3E2
 10
115.628167
 20
-164.029
 30
0.0
 40
2.0
  1
E
  7
MONOTXT
 72
     4
 11
116.250167
 21
-163.029
 31
0.0
210
0.0
220
0.0
230
1.0
  0
TEXT
  8
1
  6
CONTINUOUS
 62
     7
  5
3E3
 10
125.628167
 20
-164.029
 30
0.0
 40
2.0
  1
F
  7
MONOTXT
 72
     4
 11
126.250167
 21
-163.029
 31
0.0
210
0.0
220
0.0
230
1.0
  0
TEXT
  8
1
  6
CONTINUOUS
 62
     7
  5
3E4
 10
135.533667
 20
-164.029
 30
0.0
 40
2.0
  1
G
  7
MONOTXT
 72
     4
 11
136.250167
 21
-163.029
 31
0.0
210
0.0
220
0.0
230
1.0
  0
TEXT
  8
1
  6
CONTINUOUS
 62
     7
  5
3E5
 10
145.580917
 20
-164.029
 30
0.0
 40
2.0
  1
H
  7
MONOTXT
 72
     4
 11
146.250167
 21
-163.029
 31
0.0
210
0.0
220
0.0
230
1.0
  0
TEXT
  8
1
  6
CONTINUOUS
 62
     7
  5
3E6
 10
156.242333
 20
-164.029
 30
0.0
 40
2.0
  1
I
  7
MONOTXT
 72
     4
 11
156.242333
 21
-163.029
 31
0.0
210
0.0
220
0.0
230
1.0
  0
TEXT
  8
1
  6
CONTINUOUS
 62
     7
  5
3E7
 10
165.769917
 20
-164.029
 30
0.0
 40
2.0
  1
J
  7
MONOTXT
 72
     4
 11
166.25025
 21
-163.029
 31
0.0
210
0.0
220
0.0
230
1.0
  0
TEXT
  8
1
  6
CONTINUOUS
 62
     7
  5
3E8
 10
175.580917
 20
-164.029
 30
0.0
 40
2.0
  1
K
  7
MONOTXT
 72
     4
 11
176.250167
 21
-163.029
 31
0.0
210
0.0
220
0.0
230
1.0
  0
TEXT
  8
1
  6
CONTINUOUS
 62
     7
  5
3E9
 10
185.675417
 20
-164.029
 30
0.0
 40
2.0
  1
L
  7
MONOTXT
 72
     4
 11
186.250167
 21
-163.029
 31
0.0
210
0.0
220
0.0
230
1.0
  0
TEXT
  8
1
  6
CONTINUOUS
 62
     7
  5
3EA
 10
195.486417
 20
-164.029
 30
0.0
 40
2.0
  1
M
  7
MONOTXT
 72
     4
 11
196.250167
 21
-163.029
 31
0.0
210
0.0
220
0.0
230
1.0
  0
TEXT
  8
1
  6
CONTINUOUS
 62
     7
  5
3EB
 10
205.580917
 20
-164.029
 30
0.0
 40
2.0
  1
N
  7
MONOTXT
 72
     4
 11
206.250167
 21
-163.029
 31
0.0
210
0.0
220
0.0
230
1.0
  0
TEXT
  8
1
  6
CONTINUOUS
 62
     7
  5
3EC
 10
215.486417
 20
-164.029
 30
0.0
 40
2.0
  1
O
  7
MONOTXT
 72
     4
 11
216.250167
 21
-163.029
 31
0.0
210
0.0
220
0.0
230
1.0
  0
TEXT
  8
1
  6
CONTINUOUS
 62
     7
  5
3ED
 10
225.580917
 20
-164.029
 30
0.0
 40
2.0
  1
P
  7
MONOTXT
 72
     4
 11
226.250167
 21
-163.029
 31
0.0
210
0.0
220
0.0
230
1.0
  0
TEXT
  8
1
  6
CONTINUOUS
 62
     7
  5
3EE
 10
74.541583
 20
-169.029
 30
0.0
 40
2.0
  1
24
  7
MONOTXT
 72
     4
 11
76.25025
 21
-168.029
 31
0.0
210
0.0
220
0.0
230
1.0
  0
TEXT
  8
1
  6
CONTINUOUS
 62
     7
  5
3EF
 10
84.58875
 20
-169.029
 30
0.0
 40
2.0
  1
30
  7
MONOTXT
 72
     4
 11
86.24225
 21
-168.029
 31
0.0
210
0.0
220
0.0
230
1.0
  0
TEXT
  8
1
  6
CONTINUOUS
 62
     7
  5
3F0
 10
93.203
 20
-169.029
 30
0.0
 40
2.0
  1
12-D
  7
MONOTXT
 72
     4
 11
96.250167
 21
-168.029
 31
0.0
210
0.0
220
0.0
230
1.0
  0
TEXT
  8
1
  6
CONTINUOUS
 62
     7
  5
3F1
 10
104.132083
 20
-169.029
 30
0.0
 40
2.0
  1
6.5
  7
MONOTXT
 72
     4
 11
106.250167
 21
-168.029
 31
0.0
210
0.0
220
0.0
230
1.0
  0
TEXT
  8
1
  6
CONTINUOUS
 62
     7
  5
3F2
 10
114.084833
 20
-169.029
 30
0.0
 40
2.0
  1
5.5
  7
MONOTXT
 72
     4
 11
116.250167
 21
-168.029
 31
0.0
210
0.0
220
0.0
230
1.0
  0
TEXT
  8
1
  6
CONTINUOUS
 62
     7
  5
3F3
 10
125.628167
 20
-169.029
 30
0.0
 40
2.0
  1
6
  7
MONOTXT
 72
     4
 11
126.250167
 21
-168.029
 31
0.0
210
0.0
220
0.0
230
1.0
  0
TEXT
  8
1
  6
CONTINUOUS
 62
     7
  5
3F4
 10
133.15575
 20
-169.029
 30
0.0
 40
2.0
  1
12-C
  7
MONOTXT
 72
     4
 11
136.25025
 21
-168.029
 31
0.0
210
0.0
220
0.0
230
1.0
  0
TEXT
  8
1
  6
CONTINUOUS
 62
     7
  5
3F5
 10
74.636
 20
-174.029
 30
0.0
 40
2.0
  1
36
  7
MONOTXT
 72
     4
 11
76.250167
 21
-173.029
 31
0.0
210
0.0
220
0.0
230
1.0
  0
TEXT
  8
1
  6
CONTINUOUS
 62
     7
  5
3F6
 10
84.541583
 20
-174.029
 30
0.0
 40
2.0
  1
45
  7
MONOTXT
 72
     4
 11
86.25025
 21
-173.029
 31
0.0
210
0.0
220
0.0
230
1.0
  0
TEXT
  8
1
  6
CONTINUOUS
 62
     7
  5
3F7
 10
93.203
 20
-174.029
 30
0.0
 40
2.0
  1
18-D
  7
MONOTXT
 72
     4
 11
96.250167
 21
-173.029
 31
0.0
210
0.0
220
0.0
230
1.0
  0
TEXT
  8
1
  6
CONTINUOUS
 62
     7
  5
3F8
 10
103.12425
 20
-174.029
 30
0.0
 40
2.0
  1
9.75
  7
MONOTXT
 72
     4
 11
106.25025
 21
-173.029
 31
0.0
210
0.0
220
0.0
230
1.0
  0
TEXT
  8
1
  6
CONTINUOUS
 62
     7
  5
3F9
 10
113.09275
 20
-174.029
 30
0.0
 40
2.0
  1
8.25
  7
MONOTXT
 72
     4
 11
116.25025
 21
-173.029
 31
0.0
210
0.0
220
0.0
230
1.0
  0
TEXT
  8
1
  6
CONTINUOUS
 62
     7
  5
3FA
 10
125.628167
 20
-174.029
 30
0.0
 40
2.0
  1
9
  7
MONOTXT
 72
     4
 11
126.250167
 21
-173.029
 31
0.0
210
0.0
220
0.0
230
1.0
  0
TEXT
  8
1
  6
CONTINUOUS
 62
     7
  5
3FB
 10
133.15575
 20
-174.029
 30
0.0
 40
2.0
  1
18-C
  7
MONOTXT
 72
     4
 11
136.25025
 21
-173.029
 31
0.0
210
0.0
220
0.0
230
1.0
  0
TEXT
  8
1
  6
CONTINUOUS
 62
     7
  5
3FC
 10
74.541583
 20
-179.029
 30
0.0
 40
2.0
  1
48
  7
MONOTXT
 72
     4
 11
76.25025
 21
-178.029
 31
0.0
210
0.0
220
0.0
230
1.0
  0
TEXT
  8
1
  6
CONTINUOUS
 62
     7
  5
3FD
 10
84.636
 20
-179.029
 30
0.0
 40
2.0
  1
60
  7
MONOTXT
 72
     4
 11
86.24225
 21
-178.029
 31
0.0
210
0.0
220
0.0
230
1.0
  0
TEXT
  8
1
  6
CONTINUOUS
 62
     7
  5
3FE
 10
92.7305
 20
-179.029
 30
0.0
 40
2.0
  1
24-D
  7
MONOTXT
 72
     4
 11
96.250167
 21
-178.029
 31
0.0
210
0.0
220
0.0
230
1.0
  0
TEXT
  8
1
  6
CONTINUOUS
 62
     7
  5
3FF
 10
105.014
 20
-179.029
 30
0.0
 40
2.0
  1
13
  7
MONOTXT
 72
     4
 11
106.250167
 21
-178.029
 31
0.0
210
0.0
220
0.0
230
1.0
  0
TEXT
  8
1
  6
CONTINUOUS
 62
     7
  5
400
 10
115.439167
 20
-179.029
 30
0.0
 40
2.0
  1
11
  7
MONOTXT
 72
     4
 11
116.242333
 21
-178.029
 31
0.0
210
0.0
220
0.0
230
1.0
  0
TEXT
  8
1
  6
CONTINUOUS
 62
     7
  5
401
 10
125.014
 20
-179.029
 30
0.0
 40
2.0
  1
12
  7
MONOTXT
 72
     4
 11
126.250167
 21
-178.029
 31
0.0
210
0.0
220
0.0
230
1.0
  0
TEXT
  8
1
  6
CONTINUOUS
 62
     7
  5
402
 10
132.68325
 20
-179.029
 30
0.0
 40
2.0
  1
24-C
  7
MONOTXT
 72
     4
 11
136.250083
 21
-178.029
 31
0.0
210
0.0
220
0.0
230
1.0
  0
TEXT
  8
1
  6
CONTINUOUS
 62
     7
  5
403
 10
60.014
 20
-169.029
 30
0.0
 40
2.0
  1
12
  7
MONOTXT
 72
     4
 11
61.250167
 21
-168.029
 31
0.0
210
0.0
220
0.0
230
1.0
  0
TEXT
  8
1
  6
CONTINUOUS
 62
     7
  5
404
 10
60.014
 20
-174.029
 30
0.0
 40
2.0
  1
18
  7
MONOTXT
 72
     4
 11
61.250167
 21
-173.029
 31
0.0
210
0.0
220
0.0
230
1.0
  0
TEXT
  8
1
  6
CONTINUOUS
 62
     7
  5
405
 10
59.541583
 20
-179.029
 30
0.0
 40
2.0
  1
24
  7
MONOTXT
 72
     4
 11
61.25025
 21
-178.029
 31
0.0
210
0.0
220
0.0
230
1.0
  0
TEXT
  8
1
  6
CONTINUOUS
 62
     7
  5
406
 10
62.669667
 20
-215.996833
 30
0.0
 40
2.5
  1
U.S. & W.VA. SHIELDS:  SILVER ENCAPSULATED LENS WITH BLACK NUMERALS.
  7
MONOTXT
 11
62.669667
 21
-213.496833
 31
0.0
210
0.0
220
0.0
230
1.0
 73
     3
  0
TEXT
  8
1
  6
CONTINUOUS
 62
     7
  5
407
 10
62.669667
 20
-220.496833
 30
0.0
 40
2.5
  1
 
  7
MONOTXT
 11
62.669667
 21
-217.996833
 31
0.0
210
0.0
220
0.0
230
1.0
 73
     3
  0
TEXT
  8
1
  6
CONTINUOUS
 62
     7
  5
408
 10
62.669667
 20
-224.996833
 30
0.0
 40
2.5
  1
INTERSTATE SHIELDS:  UPPER SECTION, RED ENCAPSULATED LENS BACKGROUND.
  7
MONOTXT
 11
62.669667
 21
-222.496833
 31
0.0
210
0.0
220
0.0
230
1.0
 73
     3
  0
TEXT
  8
1
  6
CONTINUOUS
 62
     7
  5
409
 10
62.669667
 20
-229.496833
 30
0.0
 40
2.5
  1
                  LOWER SECTION, BLUE ENCAPSULATED LENS BACKGROUND.
  7
MONOTXT
 11
62.669667
 21
-226.996833
 31
0.0
210
0.0
220
0.0
230
1.0
 73
     3
  0
TEXT
  8
1
  6
CONTINUOUS
 62
     7
  5
40A
 10
62.669667
 20
-233.996833
 30
0.0
 40
2.5
  1
                  NUMERALS, SILVER ENCAPSULATED LENS.
  7
MONOTXT
 11
62.669667
 21
-231.496833
 31
0.0
210
0.0
220
0.0
230
1.0
 73
     3
  0
POINT
  8
1
  6
CONTINUOUS
 62
     2
  5
40B
 10
431.765333
 20
-191.706083
 30
0.0
  0
POINT
  8
1
  6
CONTINUOUS
 62
     2
  5
40C
 10
443.86575
 20
-191.706083
 30
0.0
  0
POINT
  8
1
  6
CONTINUOUS
 62
     2
  5
40D
 10
453.69625
 20
-181.875583
 30
0.0
  0
LINE
  8
1
  6
CONTINUOUS
 62
     1
  5
40E
 10
373.61775
 20
-155.529
 30
0.0
 11
553.61775
 21
-155.529
 31
0.0
  0
LINE
  8
1
  6
CONTINUOUS
 62
     1
  5
40F
 10
553.61775
 20
-155.529
 30
0.0
 11
553.61775
 21
-195.529
 31
0.0
  0
LINE
  8
1
  6
CONTINUOUS
 62
     1
  5
410
 10
553.61775
 20
-195.529
 30
0.0
 11
373.61775
 21
-195.529
 31
0.0
  0
LINE
  8
1
  6
CONTINUOUS
 62
     1
  5
411
 10
373.61775
 20
-195.529
 30
0.0
 11
373.61775
 21
-155.529
 31
0.0
  0
LINE
  8
1
  6
CONTINUOUS
 62
     1
  5
412
 10
393.61775
 20
-195.529
 30
0.0
 11
393.61775
 21
-155.529
 31
0.0
  0
LINE
  8
1
  6
CONTINUOUS
 62
     1
  5
413
 10
403.61775
 20
-195.529
 30
0.0
 11
403.61775
 21
-160.529
 31
0.0
  0
LINE
  8
1
  6
CONTINUOUS
 62
     1
  5
414
 10
413.61775
 20
-195.529
 30
0.0
 11
413.61775
 21
-160.529
 31
0.0
  0
LINE
  8
1
  6
CONTINUOUS
 62
     1
  5
415
 10
423.61775
 20
-195.529
 30
0.0
 11
423.61775
 21
-160.529
 31
0.0
  0
LINE
  8
1
  6
CONTINUOUS
 62
     1
  5
416
 10
433.61775
 20
-195.529
 30
0.0
 11
433.61775
 21
-160.529
 31
0.0
  0
LINE
  8
1
  6
CONTINUOUS
 62
     1
  5
417
 10
443.61775
 20
-195.529
 30
0.0
 11
443.61775
 21
-160.529
 31
0.0
  0
LINE
  8
1
  6
CONTINUOUS
 62
     1
  5
418
 10
453.61775
 20
-195.529
 30
0.0
 11
453.61775
 21
-160.529
 31
0.0
  0
LINE
  8
1
  6
CONTINUOUS
 62
     1
  5
419
 10
463.61775
 20
-195.529
 30
0.0
 11
463.61775
 21
-160.529
 31
0.0
  0
LINE
  8
1
  6
CONTINUOUS
 62
     1
  5
41A
 10
473.61775
 20
-195.529
 30
0.0
 11
473.61775
 21
-160.529
 31
0.0
  0
LINE
  8
1
  6
CONTINUOUS
 62
     1
  5
41B
 10
483.61775
 20
-195.529
 30
0.0
 11
483.61775
 21
-160.529
 31
0.0
  0
LINE
  8
1
  6
CONTINUOUS
 62
     1
  5
41C
 10
493.61775
 20
-195.529
 30
0.0
 11
493.61775
 21
-160.529
 31
0.0
  0
LINE
  8
1
  6
CONTINUOUS
 62
     1
  5
41D
 10
503.61775
 20
-195.529
 30
0.0
 11
503.61775
 21
-160.529
 31
0.0
  0
LINE
  8
1
  6
CONTINUOUS
 62
     1
  5
41E
 10
513.61775
 20
-195.529
 30
0.0
 11
513.61775
 21
-160.529
 31
0.0
  0
LINE
  8
1
  6
CONTINUOUS
 62
     1
  5
41F
 10
523.61775
 20
-195.529
 30
0.0
 11
523.61775
 21
-160.529
 31
0.0
  0
LINE
  8
1
  6
CONTINUOUS
 62
     1
  5
420
 10
533.61775
 20
-195.529
 30
0.0
 11
533.61775
 21
-160.529
 31
0.0
  0
LINE
  8
1
  6
CONTINUOUS
 62
     1
  5
421
 10
543.61775
 20
-195.529
 30
0.0
 11
543.61775
 21
-160.529
 31
0.0
  0
LINE
  8
1
  6
CONTINUOUS
 62
     1
  5
422
 10
393.61775
 20
-160.529
 30
0.0
 11
553.61775
 21
-160.529
 31
0.0
  0
LINE
  8
1
  6
CONTINUOUS
 62
     1
  5
423
 10
373.61775
 20
-170.529
 30
0.0
 11
553.61775
 21
-170.529
 31
0.0
  0
LINE
  8
1
  6
CONTINUOUS
 62
     1
  5
424
 10
373.61775
 20
-175.529
 30
0.0
 11
553.61775
 21
-175.529
 31
0.0
  0
LINE
  8
1
  6
CONTINUOUS
 62
     1
  5
425
 10
373.61775
 20
-180.529
 30
0.0
 11
553.61775
 21
-180.529
 31
0.0
  0
LINE
  8
1
  6
CONTINUOUS
 62
     1
  5
426
 10
373.61775
 20
-185.529
 30
0.0
 11
553.61775
 21
-185.529
 31
0.0
  0
LINE
  8
1
  6
CONTINUOUS
 62
     1
  5
427
 10
373.61775
 20
-190.529
 30
0.0
 11
553.61775
 21
-190.529
 31
0.0
  0
TEXT
  8
1
  6
CONTINUOUS
 62
     7
  5
428
 10
454.936417
 20
-159.197
 30
0.0
 40
2.5
  1
DIMENSION (INCHES)
  7
MONOTXT
 72
     4
 11
473.587917
 21
-157.947
 31
0.0
210
0.0
220
0.0
230
1.0
  0
TEXT
  8
1
  6
CONTINUOUS
 62
     7
  5
429
 10
377.7275
 20
-159.5565
 30
0.0
 40
2.5
  1
SHIELD
  7
MONOTXT
 72
     4
 11
383.760917
 21
-158.3065
 31
0.0
210
0.0
220
0.0
230
1.0
  0
TEXT
  8
1
  6
CONTINUOUS
 62
     7
  5
42A
 10
380.089667
 20
-164.0565
 30
0.0
 40
2.5
  1
SIZE
  7
MONOTXT
 72
     4
 11
383.760833
 21
-162.8065
 31
0.0
210
0.0
220
0.0
230
1.0
  0
LINE
  8
1
  6
CONTINUOUS
 62
     1
  5
42B
 10
373.61775
 20
-165.529
 30
0.0
 11
393.61775
 21
-165.529
 31
0.0
  0
LINE
  8
1
  6
CONTINUOUS
 62
     1
  5
42C
 10
393.61775
 20
-165.529
 30
0.0
 11
403.61775
 21
-165.529
 31
0.0
  0
LINE
  8
1
  6
CONTINUOUS
 62
     1
  5
42D
 10
403.61775
 20
-165.529
 30
0.0
 11
413.61775
 21
-165.529
 31
0.0
  0
LINE
  8
1
  6
CONTINUOUS
 62
     1
  5
42E
 10
413.61775
 20
-165.529
 30
0.0
 11
423.61775
 21
-165.529
 31
0.0
  0
LINE
  8
1
  6
CONTINUOUS
 62
     1
  5
42F
 10
423.61775
 20
-165.529
 30
0.0
 11
433.61775
 21
-165.529
 31
0.0
  0
LINE
  8
1
  6
CONTINUOUS
 62
     1
  5
430
 10
433.61775
 20
-165.529
 30
0.0
 11
443.61775
 21
-165.529
 31
0.0
  0
LINE
  8
1
  6
CONTINUOUS
 62
     1
  5
431
 10
443.61775
 20
-165.529
 30
0.0
 11
453.61775
 21
-165.529
 31
0.0
  0
LINE
  8
1
  6
CONTINUOUS
 62
     1
  5
432
 10
453.61775
 20
-165.529
 30
0.0
 11
463.61775
 21
-165.529
 31
0.0
  0
LINE
  8
1
  6
CONTINUOUS
 62
     1
  5
433
 10
463.61775
 20
-165.529
 30
0.0
 11
476.11775
 21
-165.529
 31
0.0
  0
LINE
  8
1
  6
CONTINUOUS
 62
     1
  5
434
 10
473.61775
 20
-165.529
 30
0.0
 11
483.61775
 21
-165.529
 31
0.0
  0
LINE
  8
1
  6
CONTINUOUS
 62
     1
  5
435
 10
481.11775
 20
-165.529
 30
0.0
 11
496.11775
 21
-165.529
 31
0.0
  0
LINE
  8
1
  6
CONTINUOUS
 62
     1
  5
436
 10
493.61775
 20
-165.529
 30
0.0
 11
503.61775
 21
-165.529
 31
0.0
  0
LINE
  8
1
  6
CONTINUOUS
 62
     1
  5
437
 10
503.61775
 20
-165.529
 30
0.0
 11
513.61775
 21
-165.529
 31
0.0
  0
LINE
  8
1
  6
CONTINUOUS
 62
     1
  5
438
 10
513.61775
 20
-165.529
 30
0.0
 11
523.61775
 21
-165.529
 31
0.0
  0
LINE
  8
1
  6
CONTINUOUS
 62
     1
  5
439
 10
523.61775
 20
-165.529
 30
0.0
 11
533.61775
 21
-165.529
 31
0.0
  0
LINE
  8
1
  6
CONTINUOUS
 62
     1
  5
43A
 10
533.61775
 20
-165.529
 30
0.0
 11
543.61775
 21
-165.529
 31
0.0
  0
LINE
  8
1
  6
CONTINUOUS
 62
     1
  5
43B
 10
543.61775
 20
-165.529
 30
0.0
 11
553.61775
 21
-165.529
 31
0.0
  0
TEXT
  8
1
  6
CONTINUOUS
 62
     7
  5
43C
 10
397.854
 20
-164.029
 30
0.0
 40
2.0
  1
A
  7
MONOTXT
 72
     4
 11
398.625667
 21
-163.029
 31
0.0
210
0.0
220
0.0
230
1.0
  0
TEXT
  8
1
  6
CONTINUOUS
 62
     7
  5
43D
 10
407.956333
 20
-164.029
 30
0.0
 40
2.0
  1
B
  7
MONOTXT
 72
     4
 11
408.625583
 21
-163.029
 31
0.0
210
0.0
220
0.0
230
1.0
  0
TEXT
  8
1
  6
CONTINUOUS
 62
     7
  5
43E
 10
417.909083
 20
-164.029
 30
0.0
 40
2.0
  1
C
  7
MONOTXT
 72
     4
 11
418.625583
 21
-163.029
 31
0.0
210
0.0
220
0.0
230
1.0
  0
TEXT
  8
1
  6
CONTINUOUS
 62
     7
  5
43F
 10
427.956333
 20
-164.029
 30
0.0
 40
2.0
  1
D
  7
MONOTXT
 72
     4
 11
428.625583
 21
-163.029
 31
0.0
210
0.0
220
0.0
230
1.0
  0
TEXT
  8
1
  6
CONTINUOUS
 62
     7
  5
440
 10
438.003583
 20
-164.029
 30
0.0
 40
2.0
  1
E
  7
MONOTXT
 72
     4
 11
438.625583
 21
-163.029
 31
0.0
210
0.0
220
0.0
230
1.0
  0
TEXT
  8
1
  6
CONTINUOUS
 62
     7
  5
441
 10
448.003583
 20
-164.029
 30
0.0
 40
2.0
  1
F
  7
MONOTXT
 72
     4
 11
448.625583
 21
-163.029
 31
0.0
210
0.0
220
0.0
230
1.0
  0
TEXT
  8
1
  6
CONTINUOUS
 62
     7
  5
442
 10
457.909083
 20
-164.029
 30
0.0
 40
2.0
  1
G
  7
MONOTXT
 72
     4
 11
458.625583
 21
-163.029
 31
0.0
210
0.0
220
0.0
230
1.0
  0
TEXT
  8
1
  6
CONTINUOUS
 62
     7
  5
443
 10
467.956333
 20
-164.029
 30
0.0
 40
2.0
  1
H
  7
MONOTXT
 72
     4
 11
468.625583
 21
-163.029
 31
0.0
210
0.0
220
0.0
230
1.0
  0
TEXT
  8
1
  6
CONTINUOUS
 62
     7
  5
444
 10
478.61775
 20
-164.029
 30
0.0
 40
2.0
  1
I
  7
MONOTXT
 72
     4
 11
478.61775
 21
-163.029
 31
0.0
210
0.0
220
0.0
230
1.0
  0
TEXT
  8
1
  6
CONTINUOUS
 62
     7
  5
445
 10
488.145333
 20
-164.029
 30
0.0
 40
2.0
  1
J
  7
MONOTXT
 72
     4
 11
488.625667
 21
-163.029
 31
0.0
210
0.0
220
0.0
230
1.0
  0
TEXT
  8
1
  6
CONTINUOUS
 62
     7
  5
446
 10
497.956333
 20
-164.029
 30
0.0
 40
2.0
  1
K
  7
MONOTXT
 72
     4
 11
498.625583
 21
-163.029
 31
0.0
210
0.0
220
0.0
230
1.0
  0
TEXT
  8
1
  6
CONTINUOUS
 62
     7
  5
447
 10
508.050833
 20
-164.029
 30
0.0
 40
2.0
  1
L
  7
MONOTXT
 72
     4
 11
508.625583
 21
-163.029
 31
0.0
210
0.0
220
0.0
230
1.0
  0
TEXT
  8
1
  6
CONTINUOUS
 62
     7
  5
448
 10
517.861833
 20
-164.029
 30
0.0
 40
2.0
  1
M
  7
MONOTXT
 72
     4
 11
518.625583
 21
-163.029
 31
0.0
210
0.0
220
0.0
230
1.0
  0
TEXT
  8
1
  6
CONTINUOUS
 62
     7
  5
449
 10
527.956333
 20
-164.029
 30
0.0
 40
2.0
  1
N
  7
MONOTXT
 72
     4
 11
528.625583
 21
-163.029
 31
0.0
210
0.0
220
0.0
230
1.0
  0
TEXT
  8
1
  6
CONTINUOUS
 62
     7
  5
44A
 10
537.861833
 20
-164.029
 30
0.0
 40
2.0
  1
O
  7
MONOTXT
 72
     4
 11
538.625583
 21
-163.029
 31
0.0
210
0.0
220
0.0
230
1.0
  0
TEXT
  8
1
  6
CONTINUOUS
 62
     7
  5
44B
 10
547.956333
 20
-164.029
 30
0.0
 40
2.0
  1
P
  7
MONOTXT
 72
     4
 11
548.625583
 21
-163.029
 31
0.0
210
0.0
220
0.0
230
1.0
  0
TEXT
  8
1
  6
CONTINUOUS
 62
     7
  5
44C
 10
398.003583
 20
-173.906583
 30
0.0
 40
2.0
  1
6
  7
MONOTXT
 72
     4
 11
398.625583
 21
-172.906583
 31
0.0
210
0.0
220
0.0
230
1.0
  0
TEXT
  8
1
  6
CONTINUOUS
 62
     7
  5
44D
 10
415.310667
 20
-173.906583
 30
0.0
 40
2.0
  1
2"-C
  7
MONOTXT
 72
     4
 11
418.625583
 21
-172.906583
 31
0.0
210
0.0
220
0.0
230
1.0
  0
TEXT
  8
1
  6
CONTINUOUS
 62
     7
  5
44E
 10
426.129583
 20
-173.906583
 30
0.0
 40
2.0
  1
2"C
  7
MONOTXT
 72
     4
 11
428.625583
 21
-172.906583
 31
0.0
210
0.0
220
0.0
230
1.0
  0
TEXT
  8
1
  6
CONTINUOUS
 62
     7
  5
44F
 10
455.712333
 20
-173.906583
 30
0.0
 40
2.0
  1
.50"
  7
MONOTXT
 72
     4
 11
458.617833
 21
-172.906583
 31
0.0
210
0.0
220
0.0
230
1.0
  0
TEXT
  8
1
  6
CONTINUOUS
 62
     7
  5
450
 10
397.389333
 20
-178.906583
 30
0.0
 40
2.0
  1
12
  7
MONOTXT
 72
     4
 11
398.6255
 21
-177.906583
 31
0.0
210
0.0
220
0.0
230
1.0
  0
TEXT
  8
1
  6
CONTINUOUS
 62
     7
  5
451
 10
415.263417
 20
-178.906583
 30
0.0
 40
2.0
  1
4"-C
  7
MONOTXT
 72
     4
 11
418.625583
 21
-177.906583
 31
0.0
210
0.0
220
0.0
230
1.0
  0
TEXT
  8
1
  6
CONTINUOUS
 62
     7
  5
452
 10
426.082417
 20
-178.906583
 30
0.0
 40
2.0
  1
4"C
  7
MONOTXT
 72
     4
 11
428.625667
 21
-177.906583
 31
0.0
210
0.0
220
0.0
230
1.0
  0
TEXT
  8
1
  6
CONTINUOUS
 62
     7
  5
453
 10
396.917
 20
-183.906583
 30
0.0
 40
2.0
  1
24
  7
MONOTXT
 72
     4
 11
398.625667
 21
-182.906583
 31
0.0
210
0.0
220
0.0
230
1.0
  0
TEXT
  8
1
  6
CONTINUOUS
 62
     7
  5
454
 10
415.310667
 20
-183.906583
 30
0.0
 40
2.0
  1
8"-C
  7
MONOTXT
 72
     4
 11
418.625583
 21
-182.906583
 31
0.0
210
0.0
220
0.0
230
1.0
  0
TEXT
  8
1
  6
CONTINUOUS
 62
     7
  5
455
 10
437.6335
 20
-183.906583
 30
0.0
 40
2.0
  1
1"
  7
MONOTXT
 72
     4
 11
438.61775
 21
-182.906583
 31
0.0
210
0.0
220
0.0
230
1.0
  0
TEXT
  8
1
  6
CONTINUOUS
 62
     7
  5
456
 10
383.003583
 20
-173.906583
 30
0.0
 40
2.0
  1
6
  7
MONOTXT
 72
     4
 11
383.625583
 21
-172.906583
 31
0.0
210
0.0
220
0.0
230
1.0
  0
TEXT
  8
1
  6
CONTINUOUS
 62
     7
  5
457
 10
382.389417
 20
-178.906583
 30
0.0
 40
2.0
  1
12
  7
MONOTXT
 72
     4
 11
383.625583
 21
-177.906583
 31
0.0
210
0.0
220
0.0
230
1.0
  0
TEXT
  8
1
  6
CONTINUOUS
 62
     7
  5
458
 10
381.917
 20
-183.906583
 30
0.0
 40
2.0
  1
24
  7
MONOTXT
 72
     4
 11
383.625667
 21
-182.906583
 31
0.0
210
0.0
220
0.0
230
1.0
  0
TEXT
  8
1
  6
CONTINUOUS
 62
     7
  5
459
 10
396.971
 20
-189.01425
 30
0.0
 40
2.0
  1
36
  7
MONOTXT
 72
     4
 11
398.585167
 21
-188.01425
 31
0.0
210
0.0
220
0.0
230
1.0
  0
TEXT
  8
1
  6
CONTINUOUS
 62
     7
  5
45A
 10
381.971
 20
-189.01425
 30
0.0
 40
2.0
  1
36
  7
MONOTXT
 72
     4
 11
383.585167
 21
-188.01425
 31
0.0
210
0.0
220
0.0
230
1.0
  0
TEXT
  8
1
  6
CONTINUOUS
 62
     7
  5
45B
 10
466.112917
 20
-178.860667
 30
0.0
 40
2.0
  1
3"C
  7
MONOTXT
 72
     4
 11
468.608917
 21
-177.860667
 31
0.0
210
0.0
220
0.0
230
1.0
  0
TEXT
  8
1
  6
CONTINUOUS
 62
     7
  5
45C
 10
466.160083
 20
-183.860667
 30
0.0
 40
2.0
  1
6"C
  7
MONOTXT
 72
     4
 11
468.608917
 21
-182.860667
 31
0.0
210
0.0
220
0.0
230
1.0
  0
TEXT
  8
1
  6
CONTINUOUS
 62
     7
  5
45D
 10
466.119583
 20
-188.968333
 30
0.0
 40
2.0
  1
9"C
  7
MONOTXT
 72
     4
 11
468.568417
 21
-187.968333
 31
0.0
210
0.0
220
0.0
230
1.0
  0
TEXT
  8
1
  6
CONTINUOUS
 62
     7
  5
45E
 10
405.310583
 20
-173.906583
 30
0.0
 40
2.0
  1
3"-C
  7
MONOTXT
 72
     4
 11
408.6255
 21
-172.906583
 31
0.0
210
0.0
220
0.0
230
1.0
  0
TEXT
  8
1
  6
CONTINUOUS
 62
     7
  5
45F
 10
405.357917
 20
-178.906583
 30
0.0
 40
2.0
  1
6"-C
  7
MONOTXT
 72
     4
 11
408.625583
 21
-177.906583
 31
0.0
210
0.0
220
0.0
230
1.0
  0
TEXT
  8
1
  6
CONTINUOUS
 62
     7
  5
460
 10
425.522167
 20
-189.01425
 30
0.0
 40
2.0
  1
18"C
  7
MONOTXT
 72
     4
 11
428.585167
 21
-188.01425
 31
0.0
210
0.0
220
0.0
230
1.0
  0
TEXT
  8
1
  6
CONTINUOUS
 62
     7
  5
461
 10
425.562667
 20
-183.906583
 30
0.0
 40
2.0
  1
12"C
  7
MONOTXT
 72
     4
 11
428.625667
 21
-182.906583
 31
0.0
210
0.0
220
0.0
230
1.0
  0
TEXT
  8
1
  6
CONTINUOUS
 62
     7
  5
462
 10
435.71225
 20
-173.906583
 30
0.0
 40
2.0
  1
.25"
  7
MONOTXT
 72
     4
 11
438.61775
 21
-172.906583
 31
0.0
210
0.0
220
0.0
230
1.0
  0
TEXT
  8
1
  6
CONTINUOUS
 62
     7
  5
463
 10
435.71225
 20
-178.906583
 30
0.0
 40
2.0
  1
.50"
  7
MONOTXT
 72
     4
 11
438.61775
 21
-177.906583
 31
0.0
210
0.0
220
0.0
230
1.0
  0
TEXT
  8
1
  6
CONTINUOUS
 62
     7
  5
464
 10
447.208333
 20
-173.906583
 30
0.0
 40
2.0
  1
5"
  7
MONOTXT
 72
     4
 11
448.617833
 21
-172.906583
 31
0.0
210
0.0
220
0.0
230
1.0
  0
TEXT
  8
1
  6
CONTINUOUS
 62
     7
  5
465
 10
457.633583
 20
-178.906583
 30
0.0
 40
2.0
  1
1"
  7
MONOTXT
 72
     4
 11
458.617833
 21
-177.906583
 31
0.0
210
0.0
220
0.0
230
1.0
  0
TEXT
  8
1
  6
CONTINUOUS
 62
     7
  5
466
 10
457.208333
 20
-183.906583
 30
0.0
 40
2.0
  1
2"
  7
MONOTXT
 72
     4
 11
458.617833
 21
-182.906583
 31
0.0
210
0.0
220
0.0
230
1.0
  0
TEXT
  8
1
  6
CONTINUOUS
 62
     7
  5
467
 10
457.167833
 20
-189.01425
 30
0.0
 40
2.0
  1
3"
  7
MONOTXT
 72
     4
 11
458.577333
 21
-188.01425
 31
0.0
210
0.0
220
0.0
230
1.0
  0
TEXT
  8
1
  6
CONTINUOUS
 62
     7
  5
468
 10
404.790917
 20
-183.906583
 30
0.0
 40
2.0
  1
12"-D
  7
MONOTXT
 72
     4
 11
408.625583
 21
-182.906583
 31
0.0
210
0.0
220
0.0
230
1.0
  0
TEXT
  8
1
  6
CONTINUOUS
 62
     7
  5
469
 10
404.750417
 20
-189.01425
 30
0.0
 40
2.0
  1
18"-D
  7
MONOTXT
 72
     4
 11
408.585083
 21
-188.01425
 31
0.0
210
0.0
220
0.0
230
1.0
  0
TEXT
  8
1
  6
CONTINUOUS
 62
     7
  5
46A
 10
414.703167
 20
-189.01425
 30
0.0
 40
2.0
  1
12"-C
  7
MONOTXT
 72
     4
 11
418.585
 21
-188.01425
 31
0.0
210
0.0
220
0.0
230
1.0
  0
TEXT
  8
1
  6
CONTINUOUS
 62
     7
  5
46B
 10
435.104833
 20
-189.01425
 30
0.0
 40
2.0
  1
1.50"
  7
MONOTXT
 72
     4
 11
438.57725
 21
-188.01425
 31
0.0
210
0.0
220
0.0
230
1.0
  0
TEXT
  8
1
  6
CONTINUOUS
 62
     7
  5
46C
 10
446.641417
 20
-178.906583
 30
0.0
 40
2.0
  1
10"
  7
MONOTXT
 72
     4
 11
448.61775
 21
-177.906583
 31
0.0
210
0.0
220
0.0
230
1.0
  0
TEXT
  8
1
  6
CONTINUOUS
 62
     7
  5
46D
 10
446.21625
 20
-183.906583
 30
0.0
 40
2.0
  1
20"
  7
MONOTXT
 72
     4
 11
448.617833
 21
-182.906583
 31
0.0
210
0.0
220
0.0
230
1.0
  0
TEXT
  8
1
  6
CONTINUOUS
 62
     7
  5
46E
 10
446.17575
 20
-189.01425
 30
0.0
 40
2.0
  1
30"
  7
MONOTXT
 72
     4
 11
448.577333
 21
-188.01425
 31
0.0
210
0.0
220
0.0
230
1.0
  0
TEXT
  8
1
  6
CONTINUOUS
 62
     7
  5
46F
 10
464.900333
 20
-173.860667
 30
0.0
 40
2.0
  1
1 1/2 "C
  7
MONOTXT
 72
     4
 11
468.609
 21
-172.860667
 31
0.0
210
0.0
220
0.0
230
1.0
  0
TEXT
  8
1
  6
CONTINUOUS
 62
     7
  5
470
 10
476.140833
 20
-183.825
 30
0.0
 40
2.0
  1
30"
  7
MONOTXT
 72
     4
 11
478.542417
 21
-182.825
 31
0.0
210
0.0
220
0.0
230
1.0
  0
TEXT
  8
1
  6
CONTINUOUS
 62
     7
  5
471
 10
476.053083
 20
-188.932667
 30
0.0
 40
2.0
  1
45"
  7
MONOTXT
 72
     4
 11
478.501917
 21
-187.932667
 31
0.0
210
0.0
220
0.0
230
1.0
  0
TEXT
  8
1
  6
CONTINUOUS
 62
     7
  5
472
 10
388.192167
 20
-214.320333
 30
0.0
 40
4.0
  1
**
  7
MONOTXT
 72
     4
 11
390.475667
 21
-212.320333
 31
0.0
210
0.0
220
0.0
230
1.0
  0
TEXT
  8
1
  6
CONTINUOUS
 62
     7
  5
473
 10
365.840083
 20
-180.090583
 30
0.0
 40
4.0
  1
**
  7
MONOTXT
 72
     4
 11
368.123583
 21
-178.090583
 31
0.0
210
0.0
220
0.0
230
1.0
  0
TEXT
  8
1
  6
CONTINUOUS
 62
     7
  5
474
 10
366.145417
 20
-175.093
 30
0.0
 40
4.0
  1
**
  7
MONOTXT
 72
     4
 11
368.428917
 21
-173.093
 31
0.0
210
0.0
220
0.0
230
1.0
  0
TEXT
  8
1
  6
CONTINUOUS
 62
     7
  5
475
 10
365.840083
 20
-185.257667
 30
0.0
 40
4.0
  1
**
  7
MONOTXT
 72
     4
 11
368.123583
 21
-183.257667
 31
0.0
210
0.0
220
0.0
230
1.0
  0
TEXT
  8
1
  6
CONTINUOUS
 62
     7
  5
476
 10
365.84
 20
-190.240167
 30
0.0
 40
4.0
  1
**
  7
MONOTXT
 72
     4
 11
368.1235
 21
-188.240167
 31
0.0
210
0.0
220
0.0
230
1.0
  0
TEXT
  8
1
  6
CONTINUOUS
 62
     7
  5
477
 10
395.92925
 20
-213.496833
 30
0.0
 40
2.5
  1
SILVER ENCAPSULATED LENS SHEETING WITH BLACK DIRECT APPLY COPY.
  7
MONOTXT
 11
395.92925
 21
-210.996833
 31
0.0
210
0.0
220
0.0
230
1.0
 73
     3
  0
ENDSEC
  0
EOF
