  0
SECTION
  2
HEADER
  9
$ACADVER
  1
AC1009
  9
$INSBASE
 10
0.0
 20
0.0
 30
0.0
  9
$EXTMIN
 10
-0.012
 20
-0.001833
 30
0.0
  9
$EXTMAX
 10
667.722417
 20
429.629333
 30
0.0
  9
$LIMMIN
 10
0.0
 20
0.0
  9
$LIMMAX
 10
12.0
 20
9.0
  9
$ORTHOMODE
 70
     0
  9
$REGENMODE
 70
     1
  9
$FILLMODE
 70
     1
  9
$QTEXTMODE
 70
     0
  9
$MIRRTEXT
 70
     1
  9
$DRAGMODE
 70
     2
  9
$LTSCALE
 40
1.0
  9
$OSMODE
 70
     0
  9
$ATTMODE
 70
     1
  9
$TEXTSIZE
 40
0.2
  9
$TRACEWID
 40
0.05
  9
$TEXTSTYLE
  7
STANDARD
  9
$CLAYER
  8
0
  9
$CELTYPE
  6
CONTINUOUS
  9
$CECOLOR
 62
   256
  9
$DIMSCALE
 40
1.0
  9
$DIMASZ
 40
0.18
  9
$DIMEXO
 40
0.0625
  9
$DIMDLI
 40
0.38
  9
$DIMRND
 40
0.0
  9
$DIMDLE
 40
0.0
  9
$DIMEXE
 40
0.18
  9
$DIMTP
 40
0.0
  9
$DIMTM
 40
0.0
  9
$DIMTXT
 40
0.18
  9
$DIMCEN
 40
0.09
  9
$DIMTSZ
 40
0.0
  9
$DIMTOL
 70
     0
  9
$DIMLIM
 70
     0
  9
$DIMTIH
 70
     1
  9
$DIMTOH
 70
     1
  9
$DIMSE1
 70
     0
  9
$DIMSE2
 70
     0
  9
$DIMTAD
 70
     0
  9
$DIMZIN
 70
     0
  9
$DIMBLK
  1

  9
$DIMASO
 70
     1
  9
$DIMSHO
 70
     1
  9
$DIMPOST
  1

  9
$DIMAPOST
  1

  9
$DIMALT
 70
     0
  9
$DIMALTD
 70
     2
  9
$DIMALTF
 40
25.4
  9
$DIMLFAC
 40
1.0
  9
$DIMTOFL
 70
     0
  9
$DIMTVP
 40
0.0
  9
$DIMTIX
 70
     0
  9
$DIMSOXD
 70
     0
  9
$DIMSAH
 70
     0
  9
$DIMBLK1
  1

  9
$DIMBLK2
  1

  9
$DIMSTYLE
  2
STANDARD
  9
$DIMCLRD
 70
     0
  9
$DIMCLRE
 70
     0
  9
$DIMCLRT
 70
     0
  9
$DIMTFAC
 40
1.0
  9
$DIMGAP
 40
0.09
  9
$LUNITS
 70
     2
  9
$LUPREC
 70
     4
  9
$AXISMODE
 70
     0
  9
$AXISUNIT
 10
0.0
 20
0.0
  9
$SKETCHINC
 40
0.1
  9
$FILLETRAD
 40
0.0
  9
$AUNITS
 70
     0
  9
$AUPREC
 70
     0
  9
$MENU
  1
acad
  9
$ELEVATION
 40
0.0
  9
$PELEVATION
 40
0.0
  9
$THICKNESS
 40
0.0
  9
$LIMCHECK
 70
     0
  9
$BLIPMODE
 70
     1
  9
$CHAMFERA
 40
0.0
  9
$CHAMFERB
 40
0.0
  9
$SKPOLY
 70
     0
  9
$TDCREATE
 40
2451803.387962963
  9
$TDUPDATE
 40
2451803.387962963
  9
$TDINDWG
 40
0.0000000000
  9
$TDUSRTIMER
 40
0.0000000000
  9
$USRTIMER
 70
     1
  9
$ANGBASE
 50
0.0
  9
$ANGDIR
 70
     0
  9
$PDMODE
 70
     0
  9
$PDSIZE
 40
0.0
  9
$PLINEWID
 40
0.0
  9
$COORDS
 70
     0
  9
$SPLFRAME
 70
     0
  9
$SPLINETYPE
 70
     6
  9
$SPLINESEGS
 70
    10
  9
$ATTDIA
 70
     0
  9
$ATTREQ
 70
     1
  9
$HANDLING
 70
     1
  9
$HANDSEED
  5
57D
  9
$SURFTAB1
 70
     6
  9
$SURFTAB2
 70
     6
  9
$SURFTYPE
 70
     6
  9
$SURFU
 70
     6
  9
$SURFV
 70
     6
  9
$UCSNAME
  2

  9
$UCSORG
 10
0.0
 20
0.0
 30
0.0
  9
$UCSXDIR
 10
1.0
 20
0.0
 30
0.0
  9
$UCSYDIR
 10
0.0
 20
1.0
 30
0.0
  9
$PUCSNAME
  2

  9
$PUCSORG
 10
0.0
 20
0.0
 30
0.0
  9
$PUCSXDIR
 10
1.0
 20
0.0
 30
0.0
  9
$PUCSYDIR
 10
0.0
 20
1.0
 30
0.0
  9
$USERI1
 70
     0
  9
$USERI2
 70
     0
  9
$USERI3
 70
     0
  9
$USERI4
 70
     0
  9
$USERI5
 70
     0
  9
$USERR1
 40
0.0
  9
$USERR2
 40
0.0
  9
$USERR3
 40
0.0
  9
$USERR4
 40
0.0
  9
$USERR5
 40
0.0
  9
$WORLDVIEW
 70
     1
  9
$SHADEDGE
 70
     3
  9
$SHADEDIF
 70
    70
  9
$TILEMODE
 70
     1
  9
$MAXACTVP
 70
    16
  9
$PINSBASE
 10
0.0
 20
0.0
 30
0.0
  9
$PLIMCHECK
 70
     0
  9
$PEXTMIN
 10
-1.000000E+20
 20
-1.000000E+20
 30
-1.000000E+20
  9
$PEXTMAX
 10
-1.000000E+20
 20
-1.000000E+20
 30
-1.000000E+20
  9
$PLIMMIN
 10
0.0
 20
0.0
  9
$PLIMMAX
 10
12.0
 20
9.0
  9
$UNITMODE
 70
     0
  9
$VISRETAIN
 70
     0
  9
$PLINEGEN
 70
     1
  9
$PSLTSCALE
 70
     0
  9
$TREEDEPTH
 70
  3020
  9
$DWGCODEPAGE
  3
ansi_1252
  0
ENDSEC
  0
SECTION
  2
TABLES
  0
TABLE
  2
VPORT
 70
     1
  0
VPORT
  2
*ACTIVE
 70
     0
 10
0.0
 20
0.0
 11
1.0
 21
1.0
 12
0.0
 22
0.0
 13
0.0
 23
0.0
 14
0.0
 24
0.0
 15
0.0
 25
0.0
 16
0.0
 26
0.0
 36
1.0
 17
370.632301
 27
219.609333
 37
0.0
 40
451.041
 41
1.79902
 42
50.0
 43
0.0
 44
0.0
 50
0.0
 51
0.0
 71
     0
 72
   100
 73
     1
 74
     0
 75
     0
 76
     0
 77
     0
 78
     0
  0
ENDTAB
  0
TABLE
  2
LTYPE
 70
     7
  0
LTYPE
  2
CONTINUOUS
 70
     0
  3
Solid line
 72
    65
 73
     0
 40
0.0
  0
LTYPE
  2
DOT
 70
    64
  3
. . . . . . . . . . . . . . . . . . . . . . . . . . . . . . . . .
 72
    65
 73
     2
 40
0.25
 49
0.0
 49
-0.25
  0
LTYPE
  2
HIDDEN
 70
    64
  3
__ __ __ __ __ __ __ __ __ __ __ __ __ __ __ __ __ __ __ __ __ 
 72
    65
 73
     2
 40
0.375
 49
0.25
 49
-0.125
  0
LTYPE
  2
DASHED
 70
    64
  3
__ __ __ __ __ __ __ __ __ __ __ __ __ __ __ __ __ __ __ __ __
 72
    65
 73
     2
 40
0.75
 49
0.5
 49
-0.25
  0
LTYPE
  2
DASHDOT
 70
    64
  3
__ . __ . __ . __ . __ . __ . __ . __ . __ . __ . __ . __ . _
 72
    65
 73
     4
 40
1.0
 49
0.5
 49
-0.25
 49
0.0
 49
-0.25
  0
LTYPE
  2
DIVIDE
 70
    64
  3
____ . . ____ . . ____ . . ____ . . ____ . . ____ . . ____ . .
 72
    65
 73
     6
 40
1.25
 49
0.5
 49
-0.25
 49
0.0
 49
-0.25
 49
0.0
 49
-0.25
  0
LTYPE
  2
CENTER
 70
    64
  3
____ _ ____ _ ____ _ ____ _ ____ _ ____ _ ____ _ ____ _ ____ _
 72
    65
 73
     4
 40
2.0
 49
1.25
 49
-0.25
 49
0.25
 49
-0.25
  0
ENDTAB
  0
TABLE
  2
LAYER
 70
     5
  0
LAYER
  2
0
 70
     0
 62
     7
  6
CONTINUOUS
  0
LAYER
  2
CONSTRUCTION_CLASS
 70
     0
 62
     7
  6
CONTINUOUS
  0
LAYER
  2
PATTERN_CLASS
 70
    64
 62
     7
  6
CONTINUOUS
  0
LAYER
  2
61
 70
    64
 62
     7
  6
CONTINUOUS
  0
LAYER
  2
1
 70
    64
 62
     7
  6
CONTINUOUS
  0
ENDTAB
  0
TABLE
  2
STYLE
 70
     4
  0
STYLE
  2
STANDARD
 70
     0
 40
0.0
 41
1.0
 50
0.0
 71
     0
 42
0.0
  3
txt
  4

  0
STYLE
  2
MONOTXT
 70
     0
 40
0.2
 41
1.0
 50
0.0
 71
     0
 42
0.2
  3
MONOTXT
  4

  0
STYLE
  2
txt
 70
     0
 40
0.2
 41
1.0
 50
0.0
 71
     0
 42
0.2
  3
TXT
  4

  0
STYLE
  2
ROMANT
 70
     0
 40
0.2
 41
1.0
 50
0.0
 71
     0
 42
0.2
  3
ROMANT
  4

  0
ENDTAB
  0
TABLE
  2
VIEW
 70
     0
  0
ENDTAB
  0
TABLE
  2
UCS
 70
     0
  0
ENDTAB
  0
TABLE
  2
APPID
 70
     1
  0
APPID
  2
ACAD
 70
     0
  0
ENDTAB
  0
TABLE
  2
DIMSTYLE
 70
     1
  0
DIMSTYLE
  2
STANDARD
 70
     0
  3

  4

  5

  6

  7

 40
1.0
 41
0.18
 42
0.0625
 43
0.38
 44
0.18
 45
0.0
 46
0.0
 47
0.0
 48
0.0
140
0.18
141
0.09
142
0.0
143
25.4
144
1.0
145
0.0
146
1.0
147
0.09
 71
     0
 72
     0
 73
     1
 74
     1
 75
     0
 76
     0
 77
     0
 78
     0
170
     0
171
     2
172
     0
173
     0
174
     0
175
     0
176
     0
177
     0
178
     0
  0
ENDTAB
  0
ENDSEC
  0
SECTION
  2
BLOCKS
  0
BLOCK
  8
1
  6
CONTINUOUS
 62
     1
  5
2D2
  2
LDR
 70
     0
 10
0.0
 20
0.0
 30
0.0
  3
LNR
  0
POLYLINE
  8
1
  6
CONTINUOUS
 62
     1
  5
2D3
 66
     1
 10
0.0
 20
0.0
 30
0.0
210
0.0
220
0.0
230
1.0
  0
VERTEX
  8
1
  6
CONTINUOUS
 62
     1
  5
2D4
 10
-0.011987
 20
-0.001802
 30
0.0
 42
-0.265147
  0
VERTEX
  8
1
  6
CONTINUOUS
 62
     1
  5
2D5
 10
-0.011849
 20
-0.001604
 30
0.0
 42
-0.064653
  0
VERTEX
  8
1
  6
CONTINUOUS
 62
     1
  5
2D6
 10
-0.011407
 20
-0.001387
 30
0.0
 42
-0.025822
  0
VERTEX
  8
1
  6
CONTINUOUS
 62
     1
  5
2D7
 10
-0.010681
 20
-0.00116
 30
0.0
 42
-0.014504
  0
VERTEX
  8
1
  6
CONTINUOUS
 62
     1
  5
2D8
 10
-0.0097
 20
-0.000933
 30
0.0
 42
-0.009896
  0
VERTEX
  8
1
  6
CONTINUOUS
 62
     1
  5
2D9
 10
-0.008505
 20
-0.000715
 30
0.0
 42
-0.007708
  0
VERTEX
  8
1
  6
CONTINUOUS
 62
     1
  5
2DA
 10
-0.007146
 20
-0.000515
 30
0.0
 42
-0.006655
  0
VERTEX
  8
1
  6
CONTINUOUS
 62
     1
  5
2DB
 10
-0.005679
 20
-0.000342
 30
0.0
 42
-0.006278
  0
VERTEX
  8
1
  6
CONTINUOUS
 62
     1
  5
2DC
 10
-0.004164
 20
-0.000202
 30
0.0
 42
-0.006439
  0
VERTEX
  8
1
  6
CONTINUOUS
 62
     1
  5
2DD
 10
-0.002666
 20
-0.000101
 30
0.0
 42
-0.007196
  0
VERTEX
  8
1
  6
CONTINUOUS
 62
     1
  5
2DE
 10
-0.001246
 20
-0.000044
 30
0.0
 42
-0.008852
  0
VERTEX
  8
1
  6
CONTINUOUS
 62
     1
  5
2DF
 10
0.000037
 20
-0.000034
 30
0.0
 42
-0.008852
  0
SEQEND
  8
1
  6
CONTINUOUS
 62
     1
  5
2E0
  0
POLYLINE
  8
1
  6
CONTINUOUS
 62
     1
  5
2E1
 66
     1
 10
0.0
 20
0.0
 30
0.0
210
0.0
220
0.0
230
1.0
  0
VERTEX
  8
1
  6
CONTINUOUS
 62
     1
  5
2E2
 10
0.000039
 20
0.000014
 30
0.0
 42
-0.005019
  0
VERTEX
  8
1
  6
CONTINUOUS
 62
     1
  5
2E3
 10
-0.001103
 20
0.000071
 30
0.0
 42
-0.004038
  0
VERTEX
  8
1
  6
CONTINUOUS
 62
     1
  5
2E4
 10
-0.002373
 20
0.000158
 30
0.0
 42
-0.003548
  0
VERTEX
  8
1
  6
CONTINUOUS
 62
     1
  5
2E5
 10
-0.003725
 20
0.00027
 30
0.0
 42
-0.003367
  0
VERTEX
  8
1
  6
CONTINUOUS
 62
     1
  5
2E6
 10
-0.005111
 20
0.000405
 30
0.0
 42
-0.003436
  0
VERTEX
  8
1
  6
CONTINUOUS
 62
     1
  5
2E7
 10
-0.006481
 20
0.000556
 30
0.0
 42
-0.003778
  0
VERTEX
  8
1
  6
CONTINUOUS
 62
     1
  5
2E8
 10
-0.007786
 20
0.00072
 30
0.0
 42
-0.00451
  0
VERTEX
  8
1
  6
CONTINUOUS
 62
     1
  5
2E9
 10
-0.008979
 20
0.000889
 30
0.0
 42
-0.00594
  0
VERTEX
  8
1
  6
CONTINUOUS
 62
     1
  5
2EA
 10
-0.010018
 20
0.001058
 30
0.0
 42
-0.008921
  0
VERTEX
  8
1
  6
CONTINUOUS
 62
     1
  5
2EB
 10
-0.010864
 20
0.00122
 30
0.0
 42
-0.016392
  0
VERTEX
  8
1
  6
CONTINUOUS
 62
     1
  5
2EC
 10
-0.011488
 20
0.001371
 30
0.0
 42
-0.04458
  0
VERTEX
  8
1
  6
CONTINUOUS
 62
     1
  5
2ED
 10
-0.011867
 20
0.001503
 30
0.0
 42
-0.317392
  0
VERTEX
  8
1
  6
CONTINUOUS
 62
     1
  5
2EE
 10
-0.011987
 20
0.001614
 30
0.0
 42
-0.317392
  0
SEQEND
  8
1
  6
CONTINUOUS
 62
     1
  5
2EF
  0
ENDBLK
  8
1
  6
CONTINUOUS
 62
     1
  5
2F0
  0
ENDSEC
  0
SECTION
  2
ENTITIES
  0
LINE
  8
61
  6
CONTINUOUS
 62
     1
  5
29
 10
667.513167
 20
429.629333
 30
0.0
 11
28.473167
 21
429.629333
 31
0.0
  0
LINE
  8
61
  6
CONTINUOUS
 62
     1
  5
2A
 10
28.473167
 20
429.629333
 30
0.0
 11
28.473167
 21
9.609333
 31
0.0
  0
LINE
  8
61
  6
CONTINUOUS
 62
     1
  5
2B
 10
667.533167
 20
9.589333
 30
0.0
 11
28.473167
 21
9.609333
 31
0.0
  0
LINE
  8
61
  6
CONTINUOUS
 62
     1
  5
2C
 10
667.513167
 20
429.629333
 30
0.0
 11
667.533167
 21
9.589333
 31
0.0
  0
LINE
  8
61
  6
CONTINUOUS
 62
     7
  5
2D
 10
661.413167
 20
424.889333
 30
0.0
 11
553.433167
 21
424.869333
 31
0.0
  0
LINE
  8
61
  6
CONTINUOUS
 62
     7
  5
2E
 10
553.433167
 20
424.869333
 30
0.0
 11
553.433167
 21
404.869333
 31
0.0
  0
LINE
  8
61
  6
CONTINUOUS
 62
     7
  5
2F
 10
661.413167
 20
424.889333
 30
0.0
 11
661.413167
 21
404.889333
 31
0.0
  0
LINE
  8
61
  6
CONTINUOUS
 62
     7
  5
30
 10
661.413167
 20
404.889333
 30
0.0
 11
553.433167
 21
404.869333
 31
0.0
  0
LINE
  8
61
  6
CONTINUOUS
 62
     7
  5
31
 10
661.433167
 20
414.849333
 30
0.0
 11
553.413167
 21
414.869333
 31
0.0
  0
LINE
  8
61
  6
CONTINUOUS
 62
     7
  5
32
 10
563.433167
 20
424.869333
 30
0.0
 11
563.433167
 21
404.869333
 31
0.0
  0
LINE
  8
61
  6
CONTINUOUS
 62
     7
  5
33
 10
573.433167
 20
424.869333
 30
0.0
 11
573.433167
 21
404.869333
 31
0.0
  0
LINE
  8
61
  6
CONTINUOUS
 62
     7
  5
34
 10
587.113167
 20
424.869333
 30
0.0
 11
587.113167
 21
404.869333
 31
0.0
  0
LINE
  8
61
  6
CONTINUOUS
 62
     7
  5
35
 10
651.413167
 20
424.889333
 30
0.0
 11
651.413167
 21
404.889333
 31
0.0
  0
LINE
  8
61
  6
CONTINUOUS
 62
     7
  5
36
 10
641.413167
 20
424.889333
 30
0.0
 11
641.413167
 21
404.889333
 31
0.0
  0
LINE
  8
61
  6
CONTINUOUS
 62
     7
  5
37
 10
619.433167
 20
424.869333
 30
0.0
 11
619.433167
 21
404.869333
 31
0.0
  0
LINE
  8
61
  6
CONTINUOUS
 62
     7
  5
38
 10
609.433167
 20
424.869333
 30
0.0
 11
609.433167
 21
404.869333
 31
0.0
  0
TEXT
  8
61
  6
CONTINUOUS
 62
     7
  5
3A
 10
555.473167
 20
421.849333
 30
0.0
 40
1.20075
  1
PUBLIC
 50
0.033272
 41
1.001804
  7
MONOTXT
210
0.0
220
0.0
230
1.0
  0
TEXT
  8
61
  6
CONTINUOUS
 62
     7
  5
3B
 10
555.553167
 20
419.329333
 30
0.0
 40
1.20075
  1
ROADS
 50
0.124322
 41
0.996877
  7
MONOTXT
210
0.0
220
0.0
230
1.0
  0
TEXT
  8
61
  6
CONTINUOUS
 62
     7
  5
3C
 10
556.753167
 20
416.829333
 30
0.0
 40
1.20075
  1
DIV.
 50
359.931522
 41
0.994864
  7
MONOTXT
210
0.0
220
0.0
230
1.0
  0
TEXT
  8
61
  6
CONTINUOUS
 62
     7
  5
3D
 10
565.633167
 20
421.909333
 30
0.0
 40
1.20075
  1
STATE
 50
0.058969
 41
0.998196
  7
MONOTXT
210
0.0
220
0.0
230
1.0
  0
TEXT
  8
61
  6
CONTINUOUS
 62
     7
  5
3E
 10
566.513167
 20
419.409333
 30
0.0
 40
1.20075
  1
DIST.
 50
0.055889
 41
0.999584
  7
MONOTXT
210
0.0
220
0.0
230
1.0
  0
TEXT
  8
61
  6
CONTINUOUS
 62
     7
  5
3F
 10
567.093167
 20
416.889333
 30
0.0
 40
1.20075
  1
NO.
 50
359.852072
 41
0.997779
  7
MONOTXT
210
0.0
220
0.0
230
1.0
  0
TEXT
  8
61
  6
CONTINUOUS
 62
     7
  5
40
 10
577.633167
 20
421.849333
 30
0.0
 40
1.20075
  1
STATE
 50
0.058969
 41
0.998196
  7
MONOTXT
210
0.0
220
0.0
230
1.0
  0
TEXT
  8
61
  6
CONTINUOUS
 62
     7
  5
41
 10
576.553167
 20
419.429333
 30
0.0
 40
1.20075
  1
PROJECT
 50
359.908431
 41
1.000069
  7
MONOTXT
210
0.0
220
0.0
230
1.0
  0
TEXT
  8
61
  6
CONTINUOUS
 62
     7
  5
42
 10
579.293167
 20
416.889333
 30
0.0
 40
1.20075
  1
NO.
 50
0.225453
 41
0.993546
  7
MONOTXT
210
0.0
220
0.0
230
1.0
  0
TEXT
  8
61
  6
CONTINUOUS
 62
     7
  5
43
 10
594.933167
 20
420.729333
 30
0.0
 40
1.20075
  1
FEDERAL
 50
0.006714
 41
0.998543
  7
MONOTXT
210
0.0
220
0.0
230
1.0
  0
TEXT
  8
61
  6
CONTINUOUS
 62
     7
  5
44
 10
593.393167
 20
418.069333
 30
0.0
 40
1.20075
  1
PROJECT NO.
 50
359.921531
 41
1.000694
  7
MONOTXT
210
0.0
220
0.0
230
1.0
  0
TEXT
  8
61
  6
CONTINUOUS
 62
     7
  5
45
 10
611.673167
 20
420.669333
 30
0.0
 40
1.20075
  1
FISCAL
 50
359.941939
 41
0.998959
  7
MONOTXT
210
0.0
220
0.0
230
1.0
  0
TEXT
  8
61
  6
CONTINUOUS
 62
     7
  5
46
 10
612.193167
 20
417.769333
 30
0.0
 40
1.20075
  1
YEAR
 50
0.104606
 41
0.993268
  7
MONOTXT
210
0.0
220
0.0
230
1.0
  0
TEXT
  8
61
  6
CONTINUOUS
 62
     7
  5
47
 10
626.293167
 20
419.129333
 30
0.0
 40
1.20075
  1
COUNTY
 50
0.068575
 41
1.001874
  7
MONOTXT
210
0.0
220
0.0
230
1.0
  0
TEXT
  8
61
  6
CONTINUOUS
 62
     7
  5
48
 10
643.933167
 20
420.789333
 30
0.0
 40
1.20075
  1
SHEET
 50
0.058969
 41
0.997571
  7
MONOTXT
210
0.0
220
0.0
230
1.0
  0
TEXT
  8
61
  6
CONTINUOUS
 62
     7
  5
49
 10
645.353167
 20
418.069333
 30
0.0
 40
1.20075
  1
NO.
 50
359.852072
 41
0.997779
  7
MONOTXT
210
0.0
220
0.0
230
1.0
  0
TEXT
  8
61
  6
CONTINUOUS
 62
     7
  5
4A
 10
653.673167
 20
420.649333
 30
0.0
 40
1.20075
  1
TOTAL
 50
359.926039
 41
0.998543
  7
MONOTXT
210
0.0
220
0.0
230
1.0
  0
TEXT
  8
61
  6
CONTINUOUS
 62
     7
  5
4B
 10
653.213167
 20
417.949333
 30
0.0
 40
1.20075
  1
SHEETS
 50
359.958675
  7
MONOTXT
210
0.0
220
0.0
230
1.0
  0
TEXT
  8
61
  6
CONTINUOUS
 62
     7
  5
4C
 10
566.033167
 20
409.069333
 30
0.0
 40
2.401333
  1
  
 50
0.029406
 41
0.996495
  7
MONOTXT
210
0.0
220
0.0
230
1.0
  0
TEXT
  8
61
  6
CONTINUOUS
 62
     7
  5
4D
 10
643.213167
 20
408.789333
 30
0.0
 40
2.401333
  1
   
 50
0.011508
 41
1.001006
  7
MONOTXT
210
0.0
220
0.0
230
1.0
  0
TEXT
  8
61
  6
CONTINUOUS
 62
     7
  5
4E
 10
653.093167
 20
408.769333
 30
0.0
 40
2.401333
  1
   
 50
359.922128
 41
1.000555
  7
MONOTXT
210
0.0
220
0.0
230
1.0
  0
TEXT
  8
61
  6
CONTINUOUS
 62
     7
  5
4F
 10
576.473167
 20
412.169333
 30
0.0
 40
2.00675
  1
    
 50
0.054383
 41
0.993729
  7
MONOTXT
210
0.0
220
0.0
230
1.0
  0
TEXT
  8
61
  6
CONTINUOUS
 62
     7
  5
50
 10
573.553167
 20
409.149333
 30
0.0
 40
1.989583
  1
       
 50
0.064678
 41
1.000963
  7
MONOTXT
210
0.0
220
0.0
230
1.0
  0
TEXT
  8
61
  6
CONTINUOUS
 62
     7
  5
51
 10
574.513167
 20
406.249333
 30
0.0
 40
1.989583
  1
      
 50
359.958053
 41
1.000293
  7
MONOTXT
210
0.0
220
0.0
230
1.0
  0
TEXT
  8
61
  6
CONTINUOUS
 62
     7
  5
52
 10
585.473167
 20
410.889333
 30
0.0
 40
2.401333
  1
           
 50
0.011508
 41
0.998751
  7
MONOTXT
210
0.0
220
0.0
230
1.0
  0
TEXT
  8
61
  6
CONTINUOUS
 62
     7
  5
53
 10
585.353167
 20
407.229333
 30
0.0
 40
2.401333
  1
           
 50
0.011508
 41
0.999584
  7
MONOTXT
210
0.0
220
0.0
230
1.0
  0
TEXT
  8
61
  6
CONTINUOUS
 62
     7
  5
54
 10
620.693167
 20
408.969333
 30
0.0
 40
2.00675
  1
          
 50
0.009222
 41
0.992774
  7
MONOTXT
210
0.0
220
0.0
230
1.0
  0
ARC
  8
61
  6
CONTINUOUS
 62
     3
  5
55
 10
10.170923
 20
340.870628
 30
0.0
 40
2.499998
 50
323.130094
 51
316.232156
210
0.0
220
0.0
230
1.0
  0
ARC
  8
61
  6
CONTINUOUS
 62
     3
  5
56
 10
10.170923
 20
285.870628
 30
0.0
 40
2.499998
 50
323.130094
 51
315.375767
210
0.0
220
0.0
230
1.0
  0
ARC
  8
61
  6
CONTINUOUS
 62
     3
  5
57
 10
9.890923
 20
137.430628
 30
0.0
 40
2.499998
 50
322.671753
 51
321.716147
210
0.0
220
0.0
230
1.0
  0
ARC
  8
61
  6
CONTINUOUS
 62
     3
  5
58
 10
9.890923
 20
82.430628
 30
0.0
 40
2.499998
 50
323.130094
 51
312.314392
210
0.0
220
0.0
230
1.0
  0
LINE
  8
61
  6
CONTINUOUS
 62
     2
  5
59
 10
12.193167
 20
340.869333
 30
0.0
 11
20.173167
 21
340.889333
 31
0.0
  0
LINE
  8
61
  6
CONTINUOUS
 62
     2
  5
5A
 10
12.173167
 20
285.869333
 30
0.0
 11
20.173167
 21
285.869333
 31
0.0
  0
LINE
  8
61
  6
CONTINUOUS
 62
     2
  5
5B
 10
11.893167
 20
137.449333
 30
0.0
 11
19.893167
 21
137.449333
 31
0.0
  0
LINE
  8
61
  6
CONTINUOUS
 62
     2
  5
5C
 10
11.913167
 20
82.429333
 30
0.0
 11
19.893167
 21
82.429333
 31
0.0
  0
TEXT
  8
61
  6
CONTINUOUS
 62
     7
  5
5D
 10
654.313167
 20
384.969333
 30
0.0
 40
2.401333
  1
     
 41
1.001388
  7
MONOTXT
210
0.0
220
0.0
230
1.0
  0
TEXT
  8
1
  6
CONTINUOUS
 62
     1
  5
60
 10
633.253167
 20
7.089333
 30
0.0
 40
1.2
  1
TRAFFIC ENGINEERING DIVISION
  7
txt
210
0.0
220
0.0
230
1.0
  0
LINE
  8
1
  6
CONTINUOUS
 62
     7
  5
61
 10
495.873167
 20
9.589333
 30
0.0
 11
495.873167
 21
101.169333
 31
0.0
  0
LINE
  8
1
  6
CONTINUOUS
 62
     7
  5
62
 10
495.873167
 20
101.169333
 30
0.0
 11
667.533167
 21
101.169333
 31
0.0
  0
LINE
  8
1
  6
CONTINUOUS
 62
     7
  5
63
 10
530.873167
 20
9.549333
 30
0.0
 11
530.873167
 21
54.509333
 31
0.0
  0
LINE
  8
1
  6
CONTINUOUS
 62
     7
  5
64
 10
530.873167
 20
54.509333
 30
0.0
 11
495.893167
 21
54.509333
 31
0.0
  0
LINE
  8
1
  6
CONTINUOUS
 62
     7
  5
65
 10
530.873167
 20
50.029333
 30
0.0
 11
495.893167
 21
50.029333
 31
0.0
  0
LINE
  8
1
  6
CONTINUOUS
 62
     7
  5
66
 10
530.873167
 20
45.529333
 30
0.0
 11
495.893167
 21
45.529333
 31
0.0
  0
LINE
  8
1
  6
CONTINUOUS
 62
     7
  5
67
 10
530.873167
 20
41.029333
 30
0.0
 11
495.893167
 21
41.029333
 31
0.0
  0
LINE
  8
1
  6
CONTINUOUS
 62
     7
  5
68
 10
530.873167
 20
36.509333
 30
0.0
 11
495.893167
 21
36.509333
 31
0.0
  0
LINE
  8
1
  6
CONTINUOUS
 62
     7
  5
69
 10
530.873167
 20
32.029333
 30
0.0
 11
495.893167
 21
32.029333
 31
0.0
  0
LINE
  8
1
  6
CONTINUOUS
 62
     7
  5
6A
 10
530.873167
 20
27.549333
 30
0.0
 11
495.893167
 21
27.549333
 31
0.0
  0
LINE
  8
1
  6
CONTINUOUS
 62
     7
  5
6B
 10
530.873167
 20
23.049333
 30
0.0
 11
495.893167
 21
23.049333
 31
0.0
  0
LINE
  8
1
  6
CONTINUOUS
 62
     7
  5
6C
 10
530.873167
 20
18.549333
 30
0.0
 11
495.893167
 21
18.549333
 31
0.0
  0
LINE
  8
1
  6
CONTINUOUS
 62
     7
  5
6D
 10
530.873167
 20
14.029333
 30
0.0
 11
495.893167
 21
14.029333
 31
0.0
  0
TEXT
  8
1
  6
CONTINUOUS
 62
     7
  5
6E
 10
506.153167
 20
51.509333
 30
0.0
 40
1.99775
  1
REVISIONS
  7
MONOTXT
210
0.0
220
0.0
230
1.0
  0
TEXT
  8
1
  6
CONTINUOUS
 62
     7
  5
6F
 10
497.833167
 20
55.509333
 30
0.0
 40
1.99775
  1
PREPARED: 05/00/67
  7
MONOTXT
210
0.0
220
0.0
230
1.0
  0
TEXT
  8
1
  6
CONTINUOUS
 62
     7
  5
71
 10
528.493167
 20
92.569333
 30
0.0
 40
4.794833
  1
WEST VIRGINIA DIVISION OF HIGHWAYS
  7
ROMANT
 72
     1
 11
582.463417
 21
97.364167
 31
0.0
210
0.0
220
0.0
230
1.0
 73
     3
  0
TEXT
  8
1
  6
CONTINUOUS
 62
     7
  5
72
 10
539.253167
 20
81.409333
 30
0.0
 40
6.992667
  1
STANDARD DETAIL
  7
txt
 72
     1
 11
583.74325
 21
88.402
 31
0.0
210
0.0
220
0.0
230
1.0
 73
     3
  0
TEXT
  8
1
  6
CONTINUOUS
 62
     7
  5
73
 10
534.713167
 20
13.629333
 30
0.0
 40
6.992667
  1
STANDARD SHEET TE1-3B
  7
txt
210
0.0
220
0.0
230
1.0
  0
TEXT
  8
1
  6
CONTINUOUS
 62
     1
  5
74
 10
506.48025
 20
46.449333
 30
0.0
 40
2.0
  1
03-19-69
  7
MONOTXT
 72
     1
 11
513.181083
 21
48.449333
 31
0.0
210
0.0
220
0.0
230
1.0
 73
     3
  0
TEXT
  8
1
  6
CONTINUOUS
 62
     1
  5
75
 10
506.70075
 20
37.649333
 30
0.0
 40
2.0
  1
04-01-71
  7
MONOTXT
 72
     1
 11
513.17325
 21
39.649333
 31
0.0
210
0.0
220
0.0
230
1.0
 73
     3
  0
TEXT
  8
1
  6
CONTINUOUS
 62
     1
  5
76
 10
506.32275
 20
33.249333
 30
0.0
 40
2.0
  1
04-19-72
  7
MONOTXT
 72
     1
 11
513.181083
 21
35.249333
 31
0.0
210
0.0
220
0.0
230
1.0
 73
     3
  0
TEXT
  8
1
  6
CONTINUOUS
 62
     1
  5
77
 10
506.21
 20
28.649333
 30
0.0
 40
2.0
  1
09-19-74
  7
MONOTXT
 72
     1
 11
513.021167
 21
30.649333
 31
0.0
210
0.0
220
0.0
230
1.0
 73
     3
  0
TEXT
  8
1
  6
CONTINUOUS
 62
     1
  5
78
 10
506.79525
 20
24.169333
 30
0.0
 40
2.0
  1
11-08-76
  7
MONOTXT
 72
     1
 11
513.181167
 21
26.169333
 31
0.0
210
0.0
220
0.0
230
1.0
 73
     3
  0
TEXT
  8
1
  6
CONTINUOUS
 62
     1
  5
79
 10
507.057417
 20
19.569333
 30
0.0
 40
2.0
  1
11-17-78
  7
MONOTXT
 72
     1
 11
513.081083
 21
21.569333
 31
0.0
210
0.0
220
0.0
230
1.0
 73
     3
  0
TEXT
  8
1
  6
CONTINUOUS
 62
     1
  5
7A
 10
506.18375
 20
14.989333
 30
0.0
 40
2.0
  1
03-02-93
  7
MONOTXT
 72
     1
 11
513.404167
 21
16.989333
 31
0.0
210
0.0
220
0.0
230
1.0
 73
     3
  0
TEXT
  8
1
  6
CONTINUOUS
 62
     1
  5
7B
 10
506.102333
 20
10.969333
 30
0.0
 40
2.0
  1
09-10-93
  7
MONOTXT
 72
     1
 11
512.8505
 21
12.969333
 31
0.0
210
0.0
220
0.0
230
1.0
 73
     3
  0
POLYLINE
  8
1
  6
CONTINUOUS
 62
     7
  5
7C
 66
     1
 10
0.0
 20
0.0
 30
0.0
  0
VERTEX
  8
1
  6
CONTINUOUS
 62
     7
  5
7D
 10
497.927917
 20
119.7665
 30
0.0
  0
VERTEX
  8
1
  6
CONTINUOUS
 62
     7
  5
7E
 10
495.927917
 20
116.302417
 30
0.0
  0
VERTEX
  8
1
  6
CONTINUOUS
 62
     7
  5
7F
 10
499.927917
 20
116.302417
 30
0.0
  0
VERTEX
  8
1
  6
CONTINUOUS
 62
     7
  5
80
 10
497.927917
 20
119.7665
 30
0.0
  0
SEQEND
  8
1
  6
CONTINUOUS
 62
     7
  5
81
  0
POLYLINE
  8
1
  6
CONTINUOUS
 62
     7
  5
82
 66
     1
 10
0.0
 20
0.0
 30
0.0
  0
VERTEX
  8
1
  6
CONTINUOUS
 62
     7
  5
83
 10
498.086333
 20
124.656833
 30
0.0
  0
VERTEX
  8
1
  6
CONTINUOUS
 62
     7
  5
84
 10
496.086333
 20
121.19275
 30
0.0
  0
VERTEX
  8
1
  6
CONTINUOUS
 62
     7
  5
85
 10
500.086333
 20
121.19275
 30
0.0
  0
VERTEX
  8
1
  6
CONTINUOUS
 62
     7
  5
86
 10
498.086333
 20
124.656833
 30
0.0
  0
SEQEND
  8
1
  6
CONTINUOUS
 62
     7
  5
87
  0
POLYLINE
  8
1
  6
CONTINUOUS
 62
     7
  5
88
 66
     1
 10
0.0
 20
0.0
 30
0.0
  0
VERTEX
  8
1
  6
CONTINUOUS
 62
     7
  5
89
 10
498.24475
 20
129.411
 30
0.0
  0
VERTEX
  8
1
  6
CONTINUOUS
 62
     7
  5
8A
 10
496.24475
 20
125.946917
 30
0.0
  0
VERTEX
  8
1
  6
CONTINUOUS
 62
     7
  5
8B
 10
500.24475
 20
125.946917
 30
0.0
  0
VERTEX
  8
1
  6
CONTINUOUS
 62
     7
  5
8C
 10
498.24475
 20
129.411
 30
0.0
  0
SEQEND
  8
1
  6
CONTINUOUS
 62
     7
  5
8D
  0
POLYLINE
  8
1
  6
CONTINUOUS
 62
     7
  5
8E
 66
     1
 10
0.0
 20
0.0
 30
0.0
  0
VERTEX
  8
1
  6
CONTINUOUS
 62
     7
  5
8F
 10
498.403167
 20
134.323667
 30
0.0
  0
VERTEX
  8
1
  6
CONTINUOUS
 62
     7
  5
90
 10
496.403167
 20
130.859583
 30
0.0
  0
VERTEX
  8
1
  6
CONTINUOUS
 62
     7
  5
91
 10
500.403167
 20
130.859583
 30
0.0
  0
VERTEX
  8
1
  6
CONTINUOUS
 62
     7
  5
92
 10
498.403167
 20
134.323667
 30
0.0
  0
SEQEND
  8
1
  6
CONTINUOUS
 62
     7
  5
93
  0
POLYLINE
  8
1
  6
CONTINUOUS
 62
     7
  5
94
 66
     1
 10
0.0
 20
0.0
 30
0.0
  0
VERTEX
  8
1
  6
CONTINUOUS
 62
     7
  5
95
 10
498.561583
 20
139.236417
 30
0.0
  0
VERTEX
  8
1
  6
CONTINUOUS
 62
     7
  5
96
 10
496.561583
 20
135.772333
 30
0.0
  0
VERTEX
  8
1
  6
CONTINUOUS
 62
     7
  5
97
 10
500.561583
 20
135.772333
 30
0.0
  0
VERTEX
  8
1
  6
CONTINUOUS
 62
     7
  5
98
 10
498.561583
 20
139.236417
 30
0.0
  0
SEQEND
  8
1
  6
CONTINUOUS
 62
     7
  5
99
  0
POLYLINE
  8
1
  6
CONTINUOUS
 62
     7
  5
9A
 66
     1
 10
0.0
 20
0.0
 30
0.0
  0
VERTEX
  8
1
  6
CONTINUOUS
 62
     7
  5
9B
 10
498.72
 20
144.149083
 30
0.0
  0
VERTEX
  8
1
  6
CONTINUOUS
 62
     7
  5
9C
 10
496.72
 20
140.685
 30
0.0
  0
VERTEX
  8
1
  6
CONTINUOUS
 62
     7
  5
9D
 10
500.72
 20
140.685
 30
0.0
  0
VERTEX
  8
1
  6
CONTINUOUS
 62
     7
  5
9E
 10
498.72
 20
144.149083
 30
0.0
  0
SEQEND
  8
1
  6
CONTINUOUS
 62
     7
  5
9F
  0
POLYLINE
  8
1
  6
CONTINUOUS
 62
     7
  5
A0
 66
     1
 10
0.0
 20
0.0
 30
0.0
  0
VERTEX
  8
1
  6
CONTINUOUS
 62
     7
  5
A1
 10
499.684583
 20
49.522167
 30
0.0
  0
VERTEX
  8
1
  6
CONTINUOUS
 62
     7
  5
A2
 10
497.684583
 20
46.058083
 30
0.0
  0
VERTEX
  8
1
  6
CONTINUOUS
 62
     7
  5
A3
 10
501.684583
 20
46.058083
 30
0.0
  0
VERTEX
  8
1
  6
CONTINUOUS
 62
     7
  5
A4
 10
499.684583
 20
49.522167
 30
0.0
  0
SEQEND
  8
1
  6
CONTINUOUS
 62
     7
  5
A5
  0
POLYLINE
  8
1
  6
CONTINUOUS
 62
     7
  5
A6
 66
     1
 10
0.0
 20
0.0
 30
0.0
  0
VERTEX
  8
1
  6
CONTINUOUS
 62
     7
  5
A7
 10
499.62925
 20
45.096167
 30
0.0
  0
VERTEX
  8
1
  6
CONTINUOUS
 62
     7
  5
A8
 10
497.62925
 20
41.632083
 30
0.0
  0
VERTEX
  8
1
  6
CONTINUOUS
 62
     7
  5
A9
 10
501.62925
 20
41.632083
 30
0.0
  0
VERTEX
  8
1
  6
CONTINUOUS
 62
     7
  5
AA
 10
499.62925
 20
45.096167
 30
0.0
  0
SEQEND
  8
1
  6
CONTINUOUS
 62
     7
  5
AB
  0
POLYLINE
  8
1
  6
CONTINUOUS
 62
     7
  5
AC
 66
     1
 10
0.0
 20
0.0
 30
0.0
  0
VERTEX
  8
1
  6
CONTINUOUS
 62
     7
  5
AD
 10
499.574
 20
40.504167
 30
0.0
  0
VERTEX
  8
1
  6
CONTINUOUS
 62
     7
  5
AE
 10
497.574
 20
37.040083
 30
0.0
  0
VERTEX
  8
1
  6
CONTINUOUS
 62
     7
  5
AF
 10
501.574
 20
37.040083
 30
0.0
  0
VERTEX
  8
1
  6
CONTINUOUS
 62
     7
  5
B0
 10
499.574
 20
40.504167
 30
0.0
  0
SEQEND
  8
1
  6
CONTINUOUS
 62
     7
  5
B1
  0
POLYLINE
  8
1
  6
CONTINUOUS
 62
     7
  5
B2
 66
     1
 10
0.0
 20
0.0
 30
0.0
  0
VERTEX
  8
1
  6
CONTINUOUS
 62
     7
  5
B3
 10
499.574
 20
36.022833
 30
0.0
  0
VERTEX
  8
1
  6
CONTINUOUS
 62
     7
  5
B4
 10
497.574
 20
32.55875
 30
0.0
  0
VERTEX
  8
1
  6
CONTINUOUS
 62
     7
  5
B5
 10
501.574
 20
32.55875
 30
0.0
  0
VERTEX
  8
1
  6
CONTINUOUS
 62
     7
  5
B6
 10
499.574
 20
36.022833
 30
0.0
  0
SEQEND
  8
1
  6
CONTINUOUS
 62
     7
  5
B7
  0
POLYLINE
  8
1
  6
CONTINUOUS
 62
     7
  5
B8
 66
     1
 10
0.0
 20
0.0
 30
0.0
  0
VERTEX
  8
1
  6
CONTINUOUS
 62
     7
  5
B9
 10
499.518667
 20
31.486167
 30
0.0
  0
VERTEX
  8
1
  6
CONTINUOUS
 62
     7
  5
BA
 10
497.518667
 20
28.022083
 30
0.0
  0
VERTEX
  8
1
  6
CONTINUOUS
 62
     7
  5
BB
 10
501.518667
 20
28.022083
 30
0.0
  0
VERTEX
  8
1
  6
CONTINUOUS
 62
     7
  5
BC
 10
499.518667
 20
31.486167
 30
0.0
  0
SEQEND
  8
1
  6
CONTINUOUS
 62
     7
  5
BD
  0
POLYLINE
  8
1
  6
CONTINUOUS
 62
     7
  5
BE
 66
     1
 10
0.0
 20
0.0
 30
0.0
  0
VERTEX
  8
1
  6
CONTINUOUS
 62
     7
  5
BF
 10
499.463333
 20
27.1155
 30
0.0
  0
VERTEX
  8
1
  6
CONTINUOUS
 62
     7
  5
C0
 10
497.463333
 20
23.651417
 30
0.0
  0
VERTEX
  8
1
  6
CONTINUOUS
 62
     7
  5
C1
 10
501.463333
 20
23.651417
 30
0.0
  0
VERTEX
  8
1
  6
CONTINUOUS
 62
     7
  5
C2
 10
499.463333
 20
27.1155
 30
0.0
  0
SEQEND
  8
1
  6
CONTINUOUS
 62
     7
  5
C3
  0
POLYLINE
  8
1
  6
CONTINUOUS
 62
     7
  5
C4
 66
     1
 10
0.0
 20
0.0
 30
0.0
  0
VERTEX
  8
1
  6
CONTINUOUS
 62
     7
  5
C5
 10
499.684583
 20
22.523583
 30
0.0
  0
VERTEX
  8
1
  6
CONTINUOUS
 62
     7
  5
C6
 10
497.684583
 20
19.0595
 30
0.0
  0
VERTEX
  8
1
  6
CONTINUOUS
 62
     7
  5
C7
 10
501.684583
 20
19.0595
 30
0.0
  0
VERTEX
  8
1
  6
CONTINUOUS
 62
     7
  5
C8
 10
499.684583
 20
22.523583
 30
0.0
  0
SEQEND
  8
1
  6
CONTINUOUS
 62
     7
  5
C9
  0
TEXT
  8
1
  6
CONTINUOUS
 62
     7
  5
CA
 10
499.35275
 20
46.445333
 30
0.0
 40
2.0
  1
1
  7
MONOTXT
210
0.0
220
0.0
230
1.0
  0
TEXT
  8
1
  6
CONTINUOUS
 62
     7
  5
CB
 10
498.965583
 20
41.908667
 30
0.0
 40
2.0
  1
2
  7
MONOTXT
210
0.0
220
0.0
230
1.0
  0
TEXT
  8
1
  6
CONTINUOUS
 62
     7
  5
CC
 10
498.855
 20
37.261417
 30
0.0
 40
2.0
  1
3
  7
MONOTXT
210
0.0
220
0.0
230
1.0
  0
TEXT
  8
1
  6
CONTINUOUS
 62
     7
  5
CD
 10
498.63375
 20
33.001333
 30
0.0
 40
2.0
  1
4
  7
MONOTXT
210
0.0
220
0.0
230
1.0
  0
TEXT
  8
1
  6
CONTINUOUS
 62
     7
  5
CE
 10
498.799667
 20
28.29875
 30
0.0
 40
2.0
  1
5
  7
MONOTXT
210
0.0
220
0.0
230
1.0
  0
TEXT
  8
1
  6
CONTINUOUS
 62
     7
  5
CF
 10
498.744417
 20
23.928083
 30
0.0
 40
2.0
  1
6
  7
MONOTXT
210
0.0
220
0.0
230
1.0
  0
TEXT
  8
1
  6
CONTINUOUS
 62
     7
  5
D0
 10
499.020917
 20
19.225417
 30
0.0
 40
2.0
  1
7
  7
MONOTXT
210
0.0
220
0.0
230
1.0
  0
TEXT
  8
1
  6
CONTINUOUS
 62
     7
  5
D1
 10
498.34725
 20
141.146417
 30
0.0
 40
2.0
  1
1
  7
MONOTXT
210
0.0
220
0.0
230
1.0
  0
TEXT
  8
1
  6
CONTINUOUS
 62
     7
  5
D2
 10
497.855833
 20
136.055583
 30
0.0
 40
2.0
  1
2
  7
MONOTXT
210
0.0
220
0.0
230
1.0
  0
TEXT
  8
1
  6
CONTINUOUS
 62
     7
  5
D3
 10
497.715417
 20
131.034917
 30
0.0
 40
2.0
  1
3
  7
MONOTXT
210
0.0
220
0.0
230
1.0
  0
TEXT
  8
1
  6
CONTINUOUS
 62
     7
  5
D4
 10
497.434667
 20
126.33025
 30
0.0
 40
2.0
  1
4
  7
MONOTXT
210
0.0
220
0.0
230
1.0
  0
TEXT
  8
1
  6
CONTINUOUS
 62
     7
  5
D5
 10
497.434667
 20
121.450083
 30
0.0
 40
2.0
  1
6
  7
MONOTXT
210
0.0
220
0.0
230
1.0
  0
TEXT
  8
1
  6
CONTINUOUS
 62
     7
  5
D6
 10
497.189
 20
116.429417
 30
0.0
 40
2.0
  1
7
  7
MONOTXT
210
0.0
220
0.0
230
1.0
  0
TEXT
  8
1
  6
CONTINUOUS
 62
     7
  5
D7
 10
501.014667
 20
141.4975
 30
0.0
 40
2.0
  1
BEVEL WASHER
  7
MONOTXT
210
0.0
220
0.0
230
1.0
  0
TEXT
  8
1
  6
CONTINUOUS
 62
     7
  5
D8
 10
500.979583
 20
136.406667
 30
0.0
 40
2.0
  1
CHART
  7
MONOTXT
210
0.0
220
0.0
230
1.0
  0
TEXT
  8
1
  6
CONTINUOUS
 62
     7
  5
D9
 10
501.014667
 20
131.77225
 30
0.0
 40
2.0
  1
RESIDUAL TENSION
  7
MONOTXT
210
0.0
220
0.0
230
1.0
  0
TEXT
  8
1
  6
CONTINUOUS
 62
     7
  5
DA
 10
500.9445
 20
126.611167
 30
0.0
 40
2.0
  1
SAW CUT DETAIL
  7
MONOTXT
210
0.0
220
0.0
230
1.0
  0
TEXT
  8
1
  6
CONTINUOUS
 62
     7
  5
DB
 10
500.9445
 20
122.011833
 30
0.0
 40
2.0
  1
AASHTO NOTE, A572 GRADE 50 STEEL
  7
MONOTXT
210
0.0
220
0.0
230
1.0
  0
TEXT
  8
1
  6
CONTINUOUS
 62
     7
  5
DC
 10
501.014667
 20
117.131583
 30
0.0
 40
2.0
  1
REVISED ALLOWABLE LOADS - NEW W SHAPES
  7
MONOTXT
210
0.0
220
0.0
230
1.0
  0
TEXT
  8
1
  6
CONTINUOUS
 62
     7
  5
DD
 10
518.605167
 20
72.24875
 30
0.0
 40
6.992667
  1
ROADSIDE SIGN SUPPORTS
  7
txt
 72
     1
 11
583.898667
 21
79.241417
 31
0.0
210
0.0
220
0.0
230
1.0
 73
     3
  0
TEXT
  8
1
  6
CONTINUOUS
 62
     7
  5
DE
 10
540.80475
 20
62.932833
 30
0.0
 40
6.992667
  1
BREAKAWAY TYPE
  7
txt
 72
     1
 11
583.898583
 21
69.9255
 31
0.0
210
0.0
220
0.0
230
1.0
 73
     3
  0
TEXT
  8
1
  6
CONTINUOUS
 62
     1
  5
DF
 10
506.001
 20
42.2875
 30
0.0
 40
2.0
  1
04-07-70
  7
MONOTXT
 72
     1
 11
513.3395
 21
44.2875
 31
0.0
210
0.0
220
0.0
230
1.0
 73
     3
  0
LINE
  8
1
  6
CONTINUOUS
 62
     6
  5
E0
 10
70.14
 20
382.613167
 30
0.0
 11
288.14
 21
382.613167
 31
0.0
  0
LINE
  8
1
  6
CONTINUOUS
 62
     6
  5
E1
 10
61.14
 20
182.613167
 30
0.0
 11
61.14
 21
371.613167
 31
0.0
  0
LINE
  8
1
  6
CONTINUOUS
 62
     6
  5
E2
 10
40.14
 20
373.613167
 30
0.0
 11
288.14
 21
373.613167
 31
0.0
  0
LINE
  8
1
  6
CONTINUOUS
 62
     6
  5
E3
 10
70.14
 20
182.613167
 30
0.0
 11
70.14
 21
382.613167
 31
0.0
  0
LINE
  8
1
  6
CONTINUOUS
 62
     6
  5
E4
 10
40.14
 20
371.613167
 30
0.0
 11
288.14
 21
371.613167
 31
0.0
  0
LINE
  8
1
  6
CONTINUOUS
 62
     6
  5
E5
 10
40.14
 20
182.613167
 30
0.0
 11
288.14
 21
182.613167
 31
0.0
  0
LINE
  8
1
  6
CONTINUOUS
 62
     6
  5
E6
 10
40.14
 20
406.613167
 30
0.0
 11
288.14
 21
406.613167
 31
0.0
  0
LINE
  8
1
  6
CONTINUOUS
 62
     6
  5
E7
 10
40.14
 20
182.613167
 30
0.0
 11
40.14
 21
406.613167
 31
0.0
  0
LINE
  8
1
  6
CONTINUOUS
 62
     6
  5
E8
 10
38.14
 20
408.613167
 30
0.0
 11
290.14
 21
408.613167
 31
0.0
  0
LINE
  8
1
  6
CONTINUOUS
 62
     6
  5
E9
 10
38.14
 20
180.613167
 30
0.0
 11
38.14
 21
408.613167
 31
0.0
  0
LINE
  8
1
  6
CONTINUOUS
 62
     6
  5
EA
 10
38.14
 20
180.613167
 30
0.0
 11
290.14
 21
180.613167
 31
0.0
  0
LINE
  8
1
  6
CONTINUOUS
 62
     6
  5
EB
 10
261.14
 20
182.613167
 30
0.0
 11
261.14
 21
382.613167
 31
0.0
  0
LINE
  8
1
  6
CONTINUOUS
 62
     6
  5
EC
 10
288.14
 20
182.613167
 30
0.0
 11
288.14
 21
406.613167
 31
0.0
  0
LINE
  8
1
  6
CONTINUOUS
 62
     6
  5
ED
 10
290.14
 20
180.613167
 30
0.0
 11
290.14
 21
408.613167
 31
0.0
  0
LINE
  8
1
  6
CONTINUOUS
 62
     6
  5
EE
 10
61.14
 20
362.613167
 30
0.0
 11
70.14
 21
362.613167
 31
0.0
  0
LINE
  8
1
  6
CONTINUOUS
 62
     6
  5
EF
 10
72.14
 20
182.613167
 30
0.0
 11
72.14
 21
373.613167
 31
0.0
  0
LINE
  8
1
  6
CONTINUOUS
 62
     6
  5
F0
 10
72.14
 20
373.613167
 30
0.0
 11
72.14
 21
382.613167
 31
0.0
  0
TEXT
  8
1
  6
CONTINUOUS
 62
     7
  5
F1
 10
75.104583
 20
376.863167
 30
0.0
 40
2.5
  1
15
  7
MONOTXT
 72
     4
 11
76.649833
 21
378.113167
 31
0.0
210
0.0
220
0.0
230
1.0
  0
TEXT
  8
1
  6
CONTINUOUS
 62
     7
  5
F2
 10
83.573083
 20
376.863167
 30
0.0
 40
2.5
  1
20
  7
MONOTXT
 72
     4
 11
85.64
 21
378.113167
 31
0.0
210
0.0
220
0.0
230
1.0
  0
TEXT
  8
1
  6
CONTINUOUS
 62
     7
  5
F3
 10
92.573083
 20
376.863167
 30
0.0
 40
2.5
  1
25
  7
MONOTXT
 72
     4
 11
94.649833
 21
378.113167
 31
0.0
210
0.0
220
0.0
230
1.0
  0
TEXT
  8
1
  6
CONTINUOUS
 62
     7
  5
F4
 10
101.573083
 20
376.863167
 30
0.0
 40
2.5
  1
30
  7
MONOTXT
 72
     4
 11
103.64
 21
378.113167
 31
0.0
210
0.0
220
0.0
230
1.0
  0
TEXT
  8
1
  6
CONTINUOUS
 62
     7
  5
F5
 10
110.573083
 20
376.863167
 30
0.0
 40
2.5
  1
35
  7
MONOTXT
 72
     4
 11
112.649833
 21
378.113167
 31
0.0
210
0.0
220
0.0
230
1.0
  0
TEXT
  8
1
  6
CONTINUOUS
 62
     7
  5
F6
 10
119.514
 20
376.863167
 30
0.0
 40
2.5
  1
40
  7
MONOTXT
 72
     4
 11
121.64
 21
378.113167
 31
0.0
210
0.0
220
0.0
230
1.0
  0
TEXT
  8
1
  6
CONTINUOUS
 62
     7
  5
F7
 10
128.514
 20
376.863167
 30
0.0
 40
2.5
  1
45
  7
MONOTXT
 72
     4
 11
130.649833
 21
378.113167
 31
0.0
210
0.0
220
0.0
230
1.0
  0
TEXT
  8
1
  6
CONTINUOUS
 62
     7
  5
F8
 10
137.573083
 20
376.863167
 30
0.0
 40
2.5
  1
50
  7
MONOTXT
 72
     4
 11
139.64
 21
378.113167
 31
0.0
210
0.0
220
0.0
230
1.0
  0
TEXT
  8
1
  6
CONTINUOUS
 62
     7
  5
F9
 10
146.573083
 20
376.863167
 30
0.0
 40
2.5
  1
55
  7
MONOTXT
 72
     4
 11
148.649833
 21
378.113167
 31
0.0
210
0.0
220
0.0
230
1.0
  0
TEXT
  8
1
  6
CONTINUOUS
 62
     7
  5
FA
 10
155.632167
 20
376.863167
 30
0.0
 40
2.5
  1
60
  7
MONOTXT
 72
     4
 11
157.64
 21
378.113167
 31
0.0
210
0.0
220
0.0
230
1.0
  0
TEXT
  8
1
  6
CONTINUOUS
 62
     7
  5
FB
 10
164.632167
 20
376.863167
 30
0.0
 40
2.5
  1
65
  7
MONOTXT
 72
     4
 11
166.649833
 21
378.113167
 31
0.0
210
0.0
220
0.0
230
1.0
  0
TEXT
  8
1
  6
CONTINUOUS
 62
     7
  5
FC
 10
173.553417
 20
376.863167
 30
0.0
 40
2.5
  1
70
  7
MONOTXT
 72
     4
 11
175.64
 21
378.113167
 31
0.0
210
0.0
220
0.0
230
1.0
  0
TEXT
  8
1
  6
CONTINUOUS
 62
     7
  5
FD
 10
182.553417
 20
376.863167
 30
0.0
 40
2.5
  1
75
  7
MONOTXT
 72
     4
 11
184.649833
 21
378.113167
 31
0.0
210
0.0
220
0.0
230
1.0
  0
TEXT
  8
1
  6
CONTINUOUS
 62
     7
  5
FE
 10
191.573083
 20
376.863167
 30
0.0
 40
2.5
  1
80
  7
MONOTXT
 72
     4
 11
193.64
 21
378.113167
 31
0.0
210
0.0
220
0.0
230
1.0
  0
TEXT
  8
1
  6
CONTINUOUS
 62
     7
  5
FF
 10
200.573083
 20
376.863167
 30
0.0
 40
2.5
  1
85
  7
MONOTXT
 72
     4
 11
202.649833
 21
378.113167
 31
0.0
210
0.0
220
0.0
230
1.0
  0
TEXT
  8
1
  6
CONTINUOUS
 62
     7
  5
100
 10
209.632167
 20
376.863167
 30
0.0
 40
2.5
  1
90
  7
MONOTXT
 72
     4
 11
211.64
 21
378.113167
 31
0.0
210
0.0
220
0.0
230
1.0
  0
TEXT
  8
1
  6
CONTINUOUS
 62
     7
  5
101
 10
218.632167
 20
376.863167
 30
0.0
 40
2.5
  1
95
  7
MONOTXT
 72
     4
 11
220.649833
 21
378.113167
 31
0.0
210
0.0
220
0.0
230
1.0
  0
TEXT
  8
1
  6
CONTINUOUS
 62
     7
  5
102
 10
226.864417
 20
376.863167
 30
0.0
 40
2.5
  1
100
  7
MONOTXT
 72
     4
 11
229.639917
 21
378.113167
 31
0.0
210
0.0
220
0.0
230
1.0
  0
TEXT
  8
1
  6
CONTINUOUS
 62
     7
  5
103
 10
235.864417
 20
376.863167
 30
0.0
 40
2.5
  1
105
  7
MONOTXT
 72
     4
 11
238.64975
 21
378.113167
 31
0.0
210
0.0
220
0.0
230
1.0
  0
TEXT
  8
1
  6
CONTINUOUS
 62
     7
  5
104
 10
245.395917
 20
376.863167
 30
0.0
 40
2.5
  1
110
  7
MONOTXT
 72
     4
 11
247.64
 21
378.113167
 31
0.0
210
0.0
220
0.0
230
1.0
  0
TEXT
  8
1
  6
CONTINUOUS
 62
     7
  5
105
 10
254.395917
 20
376.863167
 30
0.0
 40
2.5
  1
115
  7
MONOTXT
 72
     4
 11
256.649833
 21
378.113167
 31
0.0
210
0.0
220
0.0
230
1.0
  0
TEXT
  8
1
  6
CONTINUOUS
 62
     7
  5
106
 10
262.864417
 20
376.863167
 30
0.0
 40
2.5
  1
120
  7
MONOTXT
 72
     4
 11
265.639917
 21
378.113167
 31
0.0
210
0.0
220
0.0
230
1.0
  0
TEXT
  8
1
  6
CONTINUOUS
 62
     7
  5
107
 10
271.864417
 20
376.863167
 30
0.0
 40
2.5
  1
125
  7
MONOTXT
 72
     4
 11
274.64975
 21
378.113167
 31
0.0
210
0.0
220
0.0
230
1.0
  0
TEXT
  8
1
  6
CONTINUOUS
 62
     7
  5
108
 10
280.864417
 20
376.863167
 30
0.0
 40
2.5
  1
130
  7
MONOTXT
 72
     4
 11
283.639917
 21
378.113167
 31
0.0
210
0.0
220
0.0
230
1.0
  0
TEXT
  8
1
  6
CONTINUOUS
 62
     7
  5
109
 10
64.81325
 20
365.863167
 30
0.0
 40
2.5
  1
5
  7
MONOTXT
 72
     4
 11
65.649833
 21
367.113167
 31
0.0
210
0.0
220
0.0
230
1.0
  0
TEXT
  8
1
  6
CONTINUOUS
 62
     7
  5
10A
 10
64.87225
 20
356.863167
 30
0.0
 40
2.5
  1
6
  7
MONOTXT
 72
     4
 11
65.64975
 21
358.113167
 31
0.0
210
0.0
220
0.0
230
1.0
  0
TEXT
  8
1
  6
CONTINUOUS
 62
     7
  5
10B
 10
64.793583
 20
347.863167
 30
0.0
 40
2.5
  1
7
  7
MONOTXT
 72
     4
 11
65.64
 21
349.113167
 31
0.0
210
0.0
220
0.0
230
1.0
  0
TEXT
  8
1
  6
CONTINUOUS
 62
     7
  5
10C
 10
64.81325
 20
338.863167
 30
0.0
 40
2.5
  1
8
  7
MONOTXT
 72
     4
 11
65.649833
 21
340.113167
 31
0.0
210
0.0
220
0.0
230
1.0
  0
TEXT
  8
1
  6
CONTINUOUS
 62
     7
  5
10D
 10
64.87225
 20
329.863167
 30
0.0
 40
2.5
  1
9
  7
MONOTXT
 72
     4
 11
65.64975
 21
331.113167
 31
0.0
210
0.0
220
0.0
230
1.0
  0
TEXT
  8
1
  6
CONTINUOUS
 62
     7
  5
10E
 10
64.104583
 20
320.863167
 30
0.0
 40
2.5
  1
10
  7
MONOTXT
 72
     4
 11
65.64
 21
322.113167
 31
0.0
210
0.0
220
0.0
230
1.0
  0
TEXT
  8
1
  6
CONTINUOUS
 62
     7
  5
10F
 10
64.636083
 20
311.863167
 30
0.0
 40
2.5
  1
11
  7
MONOTXT
 72
     4
 11
65.64
 21
313.113167
 31
0.0
210
0.0
220
0.0
230
1.0
  0
TEXT
  8
1
  6
CONTINUOUS
 62
     7
  5
110
 10
64.104583
 20
302.863167
 30
0.0
 40
2.5
  1
12
  7
MONOTXT
 72
     4
 11
65.649833
 21
304.113167
 31
0.0
210
0.0
220
0.0
230
1.0
  0
TEXT
  8
1
  6
CONTINUOUS
 62
     7
  5
111
 10
64.104583
 20
293.863167
 30
0.0
 40
2.5
  1
13
  7
MONOTXT
 72
     4
 11
65.649833
 21
295.113167
 31
0.0
210
0.0
220
0.0
230
1.0
  0
TEXT
  8
1
  6
CONTINUOUS
 62
     7
  5
112
 10
64.0455
 20
284.863167
 30
0.0
 40
2.5
  1
14
  7
MONOTXT
 72
     4
 11
65.649833
 21
286.113167
 31
0.0
210
0.0
220
0.0
230
1.0
  0
TEXT
  8
1
  6
CONTINUOUS
 62
     7
  5
113
 10
64.104583
 20
275.863167
 30
0.0
 40
2.5
  1
15
  7
MONOTXT
 72
     4
 11
65.649833
 21
277.113167
 31
0.0
210
0.0
220
0.0
230
1.0
  0
TEXT
  8
1
  6
CONTINUOUS
 62
     7
  5
114
 10
64.163583
 20
266.863167
 30
0.0
 40
2.5
  1
16
  7
MONOTXT
 72
     4
 11
65.64975
 21
268.113167
 31
0.0
210
0.0
220
0.0
230
1.0
  0
TEXT
  8
1
  6
CONTINUOUS
 62
     7
  5
115
 10
64.084917
 20
257.863167
 30
0.0
 40
2.5
  1
17
  7
MONOTXT
 72
     4
 11
65.64
 21
259.113167
 31
0.0
210
0.0
220
0.0
230
1.0
  0
TEXT
  8
1
  6
CONTINUOUS
 62
     7
  5
116
 10
64.104583
 20
248.863167
 30
0.0
 40
2.5
  1
18
  7
MONOTXT
 72
     4
 11
65.649833
 21
250.113167
 31
0.0
210
0.0
220
0.0
230
1.0
  0
TEXT
  8
1
  6
CONTINUOUS
 62
     7
  5
117
 10
64.163583
 20
239.863167
 30
0.0
 40
2.5
  1
19
  7
MONOTXT
 72
     4
 11
65.64975
 21
241.113167
 31
0.0
210
0.0
220
0.0
230
1.0
  0
TEXT
  8
1
  6
CONTINUOUS
 62
     7
  5
118
 10
63.573083
 20
230.863167
 30
0.0
 40
2.5
  1
20
  7
MONOTXT
 72
     4
 11
65.64
 21
232.113167
 31
0.0
210
0.0
220
0.0
230
1.0
  0
TEXT
  8
1
  6
CONTINUOUS
 62
     7
  5
119
 10
64.104583
 20
221.863167
 30
0.0
 40
2.5
  1
21
  7
MONOTXT
 72
     4
 11
65.64
 21
223.113167
 31
0.0
210
0.0
220
0.0
230
1.0
  0
TEXT
  8
1
  6
CONTINUOUS
 62
     7
  5
11A
 10
63.573083
 20
212.863167
 30
0.0
 40
2.5
  1
22
  7
MONOTXT
 72
     4
 11
65.649833
 21
214.113167
 31
0.0
210
0.0
220
0.0
230
1.0
  0
TEXT
  8
1
  6
CONTINUOUS
 62
     7
  5
11B
 10
63.573083
 20
203.863167
 30
0.0
 40
2.5
  1
23
  7
MONOTXT
 72
     4
 11
65.649833
 21
205.113167
 31
0.0
210
0.0
220
0.0
230
1.0
  0
TEXT
  8
1
  6
CONTINUOUS
 62
     7
  5
11C
 10
63.514
 20
194.863167
 30
0.0
 40
2.5
  1
24
  7
MONOTXT
 72
     4
 11
65.649833
 21
196.113167
 31
0.0
210
0.0
220
0.0
230
1.0
  0
TEXT
  8
1
  6
CONTINUOUS
 62
     7
  5
11D
 10
63.573083
 20
185.863167
 30
0.0
 40
2.5
  1
25
  7
MONOTXT
 72
     4
 11
65.649833
 21
187.113167
 31
0.0
210
0.0
220
0.0
230
1.0
  0
LINE
  8
1
  6
CONTINUOUS
 62
     6
  5
11E
 10
81.14
 20
281.613167
 30
0.0
 11
81.14
 21
382.613167
 31
0.0
  0
LINE
  8
1
  6
CONTINUOUS
 62
     6
  5
11F
 10
81.14
 20
182.613167
 30
0.0
 11
81.14
 21
272.613167
 31
0.0
  0
LINE
  8
1
  6
CONTINUOUS
 62
     1
  5
120
 10
81.14
 20
272.613167
 30
0.0
 11
81.14
 21
281.613167
 31
0.0
  0
LINE
  8
1
  6
CONTINUOUS
 62
     6
  5
121
 10
61.14
 20
272.613167
 30
0.0
 11
72.14
 21
272.613167
 31
0.0
  0
LINE
  8
1
  6
CONTINUOUS
 62
     1
  5
122
 10
72.14
 20
272.613167
 30
0.0
 11
81.14
 21
272.613167
 31
0.0
  0
LINE
  8
1
  6
CONTINUOUS
 62
     1
  5
123
 10
81.14
 20
281.613167
 30
0.0
 11
90.14
 21
281.613167
 31
0.0
  0
LINE
  8
1
  6
CONTINUOUS
 62
     6
  5
124
 10
61.14
 20
281.613167
 30
0.0
 11
81.14
 21
281.613167
 31
0.0
  0
LINE
  8
1
  6
CONTINUOUS
 62
     6
  5
125
 10
90.14
 20
299.613167
 30
0.0
 11
90.14
 21
382.613167
 31
0.0
  0
LINE
  8
1
  6
CONTINUOUS
 62
     1
  5
126
 10
90.14
 20
281.613167
 30
0.0
 11
90.14
 21
299.613167
 31
0.0
  0
LINE
  8
1
  6
CONTINUOUS
 62
     6
  5
127
 10
61.14
 20
299.613167
 30
0.0
 11
90.14
 21
299.613167
 31
0.0
  0
LINE
  8
1
  6
CONTINUOUS
 62
     1
  5
128
 10
90.14
 20
299.613167
 30
0.0
 11
99.14
 21
299.613167
 31
0.0
  0
LINE
  8
1
  6
CONTINUOUS
 62
     6
  5
129
 10
99.14
 20
317.613167
 30
0.0
 11
99.14
 21
382.613167
 31
0.0
  0
LINE
  8
1
  6
CONTINUOUS
 62
     1
  5
12A
 10
99.14
 20
299.613167
 30
0.0
 11
99.14
 21
317.613167
 31
0.0
  0
LINE
  8
1
  6
CONTINUOUS
 62
     6
  5
12B
 10
61.14
 20
317.613167
 30
0.0
 11
99.14
 21
317.613167
 31
0.0
  0
LINE
  8
1
  6
CONTINUOUS
 62
     1
  5
12C
 10
99.14
 20
317.613167
 30
0.0
 11
108.14
 21
317.613167
 31
0.0
  0
LINE
  8
1
  6
CONTINUOUS
 62
     1
  5
12D
 10
108.14
 20
317.613167
 30
0.0
 11
108.14
 21
335.613167
 31
0.0
  0
LINE
  8
1
  6
CONTINUOUS
 62
     6
  5
12E
 10
108.14
 20
335.613167
 30
0.0
 11
108.14
 21
382.613167
 31
0.0
  0
LINE
  8
1
  6
CONTINUOUS
 62
     6
  5
12F
 10
61.14
 20
335.613167
 30
0.0
 11
108.14
 21
335.613167
 31
0.0
  0
LINE
  8
1
  6
CONTINUOUS
 62
     1
  5
130
 10
108.14
 20
335.613167
 30
0.0
 11
117.14
 21
335.613167
 31
0.0
  0
LINE
  8
1
  6
CONTINUOUS
 62
     1
  5
131
 10
117.14
 20
335.613167
 30
0.0
 11
117.14
 21
344.613167
 31
0.0
  0
LINE
  8
1
  6
CONTINUOUS
 62
     6
  5
132
 10
117.14
 20
344.613167
 30
0.0
 11
117.14
 21
382.613167
 31
0.0
  0
LINE
  8
1
  6
CONTINUOUS
 62
     6
  5
133
 10
61.14
 20
344.613167
 30
0.0
 11
117.14
 21
344.613167
 31
0.0
  0
LINE
  8
1
  6
CONTINUOUS
 62
     1
  5
134
 10
117.14
 20
344.613167
 30
0.0
 11
126.14
 21
344.613167
 31
0.0
  0
LINE
  8
1
  6
CONTINUOUS
 62
     1
  5
135
 10
126.14
 20
344.613167
 30
0.0
 11
126.14
 21
353.613167
 31
0.0
  0
LINE
  8
1
  6
CONTINUOUS
 62
     6
  5
136
 10
126.14
 20
353.613167
 30
0.0
 11
126.14
 21
382.613167
 31
0.0
  0
LINE
  8
1
  6
CONTINUOUS
 62
     6
  5
137
 10
61.14
 20
353.613167
 30
0.0
 11
126.14
 21
353.613167
 31
0.0
  0
LINE
  8
1
  6
CONTINUOUS
 62
     1
  5
138
 10
126.14
 20
353.613167
 30
0.0
 11
144.14
 21
353.613167
 31
0.0
  0
LINE
  8
1
  6
CONTINUOUS
 62
     6
  5
139
 10
144.14
 20
362.613167
 30
0.0
 11
144.14
 21
382.613167
 31
0.0
  0
LINE
  8
1
  6
CONTINUOUS
 62
     1
  5
13A
 10
144.14
 20
353.613167
 30
0.0
 11
144.14
 21
362.613167
 31
0.0
  0
LINE
  8
1
  6
CONTINUOUS
 62
     6
  5
13B
 10
70.14
 20
362.613167
 30
0.0
 11
144.14
 21
362.613167
 31
0.0
  0
LINE
  8
1
  6
CONTINUOUS
 62
     1
  5
13C
 10
144.14
 20
362.613167
 30
0.0
 11
162.14
 21
362.613167
 31
0.0
  0
LINE
  8
1
  6
CONTINUOUS
 62
     1
  5
13D
 10
162.14
 20
362.613167
 30
0.0
 11
162.14
 21
371.613167
 31
0.0
  0
LINE
  8
1
  6
CONTINUOUS
 62
     6
  5
13E
 10
162.14
 20
371.613167
 30
0.0
 11
162.14
 21
382.613167
 31
0.0
  0
LINE
  8
1
  6
CONTINUOUS
 62
     1
  5
13F
 10
90.14
 20
182.613167
 30
0.0
 11
90.14
 21
200.613167
 31
0.0
  0
LINE
  8
1
  6
CONTINUOUS
 62
     6
  5
140
 10
90.14
 20
200.613167
 30
0.0
 11
90.14
 21
281.613167
 31
0.0
  0
LINE
  8
1
  6
CONTINUOUS
 62
     6
  5
141
 10
61.14
 20
200.613167
 30
0.0
 11
90.14
 21
200.613167
 31
0.0
  0
LINE
  8
1
  6
CONTINUOUS
 62
     1
  5
142
 10
90.14
 20
200.613167
 30
0.0
 11
99.14
 21
200.613167
 31
0.0
  0
LINE
  8
1
  6
CONTINUOUS
 62
     6
  5
143
 10
99.14
 20
182.613167
 30
0.0
 11
99.14
 21
200.613167
 31
0.0
  0
LINE
  8
1
  6
CONTINUOUS
 62
     1
  5
144
 10
99.14
 20
200.613167
 30
0.0
 11
99.14
 21
209.613167
 31
0.0
  0
LINE
  8
1
  6
CONTINUOUS
 62
     6
  5
145
 10
99.14
 20
209.613167
 30
0.0
 11
99.14
 21
299.613167
 31
0.0
  0
LINE
  8
1
  6
CONTINUOUS
 62
     6
  5
146
 10
61.14
 20
209.613167
 30
0.0
 11
99.14
 21
209.613167
 31
0.0
  0
LINE
  8
1
  6
CONTINUOUS
 62
     1
  5
147
 10
99.14
 20
209.613167
 30
0.0
 11
108.14
 21
209.613167
 31
0.0
  0
LINE
  8
1
  6
CONTINUOUS
 62
     6
  5
148
 10
108.14
 20
227.613167
 30
0.0
 11
108.14
 21
317.613167
 31
0.0
  0
LINE
  8
1
  6
CONTINUOUS
 62
     6
  5
149
 10
108.14
 20
182.613167
 30
0.0
 11
108.14
 21
209.613167
 31
0.0
  0
LINE
  8
1
  6
CONTINUOUS
 62
     1
  5
14A
 10
108.14
 20
209.613167
 30
0.0
 11
108.14
 21
227.613167
 31
0.0
  0
LINE
  8
1
  6
CONTINUOUS
 62
     6
  5
14B
 10
61.14
 20
227.613167
 30
0.0
 11
108.14
 21
227.613167
 31
0.0
  0
LINE
  8
1
  6
CONTINUOUS
 62
     1
  5
14C
 10
108.14
 20
227.613167
 30
0.0
 11
117.14
 21
227.613167
 31
0.0
  0
LINE
  8
1
  6
CONTINUOUS
 62
     6
  5
14D
 10
117.14
 20
254.613167
 30
0.0
 11
117.14
 21
335.613167
 31
0.0
  0
LINE
  8
1
  6
CONTINUOUS
 62
     6
  5
14E
 10
117.14
 20
182.613167
 30
0.0
 11
117.14
 21
227.613167
 31
0.0
  0
LINE
  8
1
  6
CONTINUOUS
 62
     1
  5
14F
 10
117.14
 20
227.613167
 30
0.0
 11
117.14
 21
254.613167
 31
0.0
  0
LINE
  8
1
  6
CONTINUOUS
 62
     6
  5
150
 10
61.14
 20
254.613167
 30
0.0
 11
117.14
 21
254.613167
 31
0.0
  0
LINE
  8
1
  6
CONTINUOUS
 62
     1
  5
151
 10
117.14
 20
254.613167
 30
0.0
 11
126.14
 21
254.613167
 31
0.0
  0
LINE
  8
1
  6
CONTINUOUS
 62
     6
  5
152
 10
126.14
 20
272.613167
 30
0.0
 11
126.14
 21
344.613167
 31
0.0
  0
LINE
  8
1
  6
CONTINUOUS
 62
     6
  5
153
 10
126.14
 20
182.613167
 30
0.0
 11
126.14
 21
254.613167
 31
0.0
  0
LINE
  8
1
  6
CONTINUOUS
 62
     1
  5
154
 10
126.14
 20
254.613167
 30
0.0
 11
126.14
 21
272.613167
 31
0.0
  0
LINE
  8
1
  6
CONTINUOUS
 62
     6
  5
155
 10
81.14
 20
272.613167
 30
0.0
 11
126.14
 21
272.613167
 31
0.0
  0
LINE
  8
1
  6
CONTINUOUS
 62
     1
  5
156
 10
126.14
 20
272.613167
 30
0.0
 11
135.14
 21
272.613167
 31
0.0
  0
LINE
  8
1
  6
CONTINUOUS
 62
     6
  5
157
 10
135.14
 20
281.613167
 30
0.0
 11
135.14
 21
382.613167
 31
0.0
  0
LINE
  8
1
  6
CONTINUOUS
 62
     6
  5
158
 10
135.14
 20
182.613167
 30
0.0
 11
135.14
 21
272.613167
 31
0.0
  0
LINE
  8
1
  6
CONTINUOUS
 62
     1
  5
159
 10
135.14
 20
272.613167
 30
0.0
 11
135.14
 21
281.613167
 31
0.0
  0
LINE
  8
1
  6
CONTINUOUS
 62
     6
  5
15A
 10
90.14
 20
281.613167
 30
0.0
 11
135.14
 21
281.613167
 31
0.0
  0
LINE
  8
1
  6
CONTINUOUS
 62
     1
  5
15B
 10
135.14
 20
281.613167
 30
0.0
 11
144.14
 21
281.613167
 31
0.0
  0
LINE
  8
1
  6
CONTINUOUS
 62
     6
  5
15C
 10
144.14
 20
290.613167
 30
0.0
 11
144.14
 21
353.613167
 31
0.0
  0
LINE
  8
1
  6
CONTINUOUS
 62
     6
  5
15D
 10
144.14
 20
182.613167
 30
0.0
 11
144.14
 21
281.613167
 31
0.0
  0
LINE
  8
1
  6
CONTINUOUS
 62
     1
  5
15E
 10
144.14
 20
281.613167
 30
0.0
 11
144.14
 21
290.613167
 31
0.0
  0
LINE
  8
1
  6
CONTINUOUS
 62
     6
  5
15F
 10
61.14
 20
290.613167
 30
0.0
 11
144.14
 21
290.613167
 31
0.0
  0
LINE
  8
1
  6
CONTINUOUS
 62
     1
  5
160
 10
144.14
 20
290.613167
 30
0.0
 11
153.14
 21
290.613167
 31
0.0
  0
LINE
  8
1
  6
CONTINUOUS
 62
     6
  5
161
 10
153.14
 20
299.613167
 30
0.0
 11
153.14
 21
382.613167
 31
0.0
  0
LINE
  8
1
  6
CONTINUOUS
 62
     1
  5
162
 10
153.14
 20
290.613167
 30
0.0
 11
153.14
 21
299.613167
 31
0.0
  0
LINE
  8
1
  6
CONTINUOUS
 62
     6
  5
163
 10
99.14
 20
299.613167
 30
0.0
 11
153.14
 21
299.613167
 31
0.0
  0
LINE
  8
1
  6
CONTINUOUS
 62
     1
  5
164
 10
153.14
 20
299.613167
 30
0.0
 11
162.14
 21
299.613167
 31
0.0
  0
LINE
  8
1
  6
CONTINUOUS
 62
     6
  5
165
 10
162.14
 20
308.613167
 30
0.0
 11
162.14
 21
362.613167
 31
0.0
  0
LINE
  8
1
  6
CONTINUOUS
 62
     1
  5
166
 10
162.14
 20
299.613167
 30
0.0
 11
162.14
 21
308.613167
 31
0.0
  0
LINE
  8
1
  6
CONTINUOUS
 62
     6
  5
167
 10
61.14
 20
308.613167
 30
0.0
 11
162.14
 21
308.613167
 31
0.0
  0
LINE
  8
1
  6
CONTINUOUS
 62
     1
  5
168
 10
162.14
 20
308.613167
 30
0.0
 11
171.14
 21
308.613167
 31
0.0
  0
LINE
  8
1
  6
CONTINUOUS
 62
     6
  5
169
 10
171.14
 20
308.613167
 30
0.0
 11
288.14
 21
308.613167
 31
0.0
  0
LINE
  8
1
  6
CONTINUOUS
 62
     6
  5
16A
 10
171.14
 20
317.613167
 30
0.0
 11
171.14
 21
382.613167
 31
0.0
  0
LINE
  8
1
  6
CONTINUOUS
 62
     1
  5
16B
 10
171.14
 20
308.613167
 30
0.0
 11
171.14
 21
317.613167
 31
0.0
  0
LINE
  8
1
  6
CONTINUOUS
 62
     6
  5
16C
 10
108.14
 20
317.613167
 30
0.0
 11
171.14
 21
317.613167
 31
0.0
  0
LINE
  8
1
  6
CONTINUOUS
 62
     1
  5
16D
 10
171.14
 20
317.613167
 30
0.0
 11
180.14
 21
317.613167
 31
0.0
  0
LINE
  8
1
  6
CONTINUOUS
 62
     6
  5
16E
 10
180.14
 20
317.613167
 30
0.0
 11
288.14
 21
317.613167
 31
0.0
  0
LINE
  8
1
  6
CONTINUOUS
 62
     6
  5
16F
 10
180.14
 20
326.613167
 30
0.0
 11
180.14
 21
382.613167
 31
0.0
  0
LINE
  8
1
  6
CONTINUOUS
 62
     1
  5
170
 10
180.14
 20
317.613167
 30
0.0
 11
180.14
 21
326.613167
 31
0.0
  0
LINE
  8
1
  6
CONTINUOUS
 62
     6
  5
171
 10
198.14
 20
326.613167
 30
0.0
 11
288.14
 21
326.613167
 31
0.0
  0
LINE
  8
1
  6
CONTINUOUS
 62
     6
  5
172
 10
61.14
 20
326.613167
 30
0.0
 11
180.14
 21
326.613167
 31
0.0
  0
LINE
  8
1
  6
CONTINUOUS
 62
     1
  5
173
 10
180.14
 20
326.613167
 30
0.0
 11
198.14
 21
326.613167
 31
0.0
  0
LINE
  8
1
  6
CONTINUOUS
 62
     1
  5
174
 10
198.14
 20
326.613167
 30
0.0
 11
198.14
 21
335.613167
 31
0.0
  0
LINE
  8
1
  6
CONTINUOUS
 62
     6
  5
175
 10
198.14
 20
335.613167
 30
0.0
 11
198.14
 21
382.613167
 31
0.0
  0
LINE
  8
1
  6
CONTINUOUS
 62
     6
  5
176
 10
117.14
 20
335.613167
 30
0.0
 11
198.14
 21
335.613167
 31
0.0
  0
LINE
  8
1
  6
CONTINUOUS
 62
     1
  5
177
 10
198.14
 20
335.613167
 30
0.0
 11
216.14
 21
335.613167
 31
0.0
  0
LINE
  8
1
  6
CONTINUOUS
 62
     6
  5
178
 10
216.14
 20
335.613167
 30
0.0
 11
288.14
 21
335.613167
 31
0.0
  0
LINE
  8
1
  6
CONTINUOUS
 62
     1
  5
179
 10
216.14
 20
335.613167
 30
0.0
 11
216.14
 21
344.613167
 31
0.0
  0
LINE
  8
1
  6
CONTINUOUS
 62
     6
  5
17A
 10
216.14
 20
344.613167
 30
0.0
 11
216.14
 21
382.613167
 31
0.0
  0
LINE
  8
1
  6
CONTINUOUS
 62
     6
  5
17B
 10
243.14
 20
344.613167
 30
0.0
 11
288.14
 21
344.613167
 31
0.0
  0
LINE
  8
1
  6
CONTINUOUS
 62
     6
  5
17C
 10
126.14
 20
344.613167
 30
0.0
 11
216.14
 21
344.613167
 31
0.0
  0
LINE
  8
1
  6
CONTINUOUS
 62
     1
  5
17D
 10
216.14
 20
344.613167
 30
0.0
 11
243.14
 21
344.613167
 31
0.0
  0
LINE
  8
1
  6
CONTINUOUS
 62
     6
  5
17E
 10
243.14
 20
353.613167
 30
0.0
 11
243.14
 21
382.613167
 31
0.0
  0
LINE
  8
1
  6
CONTINUOUS
 62
     1
  5
17F
 10
243.14
 20
344.613167
 30
0.0
 11
243.14
 21
353.613167
 31
0.0
  0
LINE
  8
1
  6
CONTINUOUS
 62
     6
  5
180
 10
270.14
 20
353.613167
 30
0.0
 11
288.14
 21
353.613167
 31
0.0
  0
LINE
  8
1
  6
CONTINUOUS
 62
     6
  5
181
 10
144.14
 20
353.613167
 30
0.0
 11
243.14
 21
353.613167
 31
0.0
  0
LINE
  8
1
  6
CONTINUOUS
 62
     1
  5
182
 10
243.14
 20
353.613167
 30
0.0
 11
270.14
 21
353.613167
 31
0.0
  0
LINE
  8
1
  6
CONTINUOUS
 62
     1
  5
183
 10
270.14
 20
353.613167
 30
0.0
 11
270.14
 21
362.613167
 31
0.0
  0
LINE
  8
1
  6
CONTINUOUS
 62
     6
  5
184
 10
270.14
 20
362.613167
 30
0.0
 11
270.14
 21
382.613167
 31
0.0
  0
LINE
  8
1
  6
CONTINUOUS
 62
     6
  5
185
 10
162.14
 20
362.613167
 30
0.0
 11
270.14
 21
362.613167
 31
0.0
  0
LINE
  8
1
  6
CONTINUOUS
 62
     1
  5
186
 10
270.14
 20
362.613167
 30
0.0
 11
288.14
 21
362.613167
 31
0.0
  0
LINE
  8
1
  6
CONTINUOUS
 62
     1
  5
187
 10
153.14
 20
182.613167
 30
0.0
 11
153.14
 21
191.613167
 31
0.0
  0
LINE
  8
1
  6
CONTINUOUS
 62
     6
  5
188
 10
153.14
 20
191.613167
 30
0.0
 11
153.14
 21
290.613167
 31
0.0
  0
LINE
  8
1
  6
CONTINUOUS
 62
     6
  5
189
 10
61.14
 20
191.613167
 30
0.0
 11
153.14
 21
191.613167
 31
0.0
  0
LINE
  8
1
  6
CONTINUOUS
 62
     1
  5
18A
 10
153.14
 20
191.613167
 30
0.0
 11
162.14
 21
191.613167
 31
0.0
  0
LINE
  8
1
  6
CONTINUOUS
 62
     6
  5
18B
 10
162.14
 20
209.613167
 30
0.0
 11
162.14
 21
299.613167
 31
0.0
  0
LINE
  8
1
  6
CONTINUOUS
 62
     6
  5
18C
 10
162.14
 20
182.613167
 30
0.0
 11
162.14
 21
191.613167
 31
0.0
  0
LINE
  8
1
  6
CONTINUOUS
 62
     1
  5
18D
 10
162.14
 20
191.613167
 30
0.0
 11
162.14
 21
209.613167
 31
0.0
  0
LINE
  8
1
  6
CONTINUOUS
 62
     6
  5
18E
 10
108.14
 20
209.613167
 30
0.0
 11
162.14
 21
209.613167
 31
0.0
  0
LINE
  8
1
  6
CONTINUOUS
 62
     1
  5
18F
 10
162.14
 20
209.613167
 30
0.0
 11
171.14
 21
209.613167
 31
0.0
  0
LINE
  8
1
  6
CONTINUOUS
 62
     6
  5
190
 10
171.14
 20
218.613167
 30
0.0
 11
171.14
 21
308.613167
 31
0.0
  0
LINE
  8
1
  6
CONTINUOUS
 62
     6
  5
191
 10
171.14
 20
182.613167
 30
0.0
 11
171.14
 21
209.613167
 31
0.0
  0
LINE
  8
1
  6
CONTINUOUS
 62
     1
  5
192
 10
171.14
 20
209.613167
 30
0.0
 11
171.14
 21
218.613167
 31
0.0
  0
LINE
  8
1
  6
CONTINUOUS
 62
     6
  5
193
 10
61.14
 20
218.613167
 30
0.0
 11
171.14
 21
218.613167
 31
0.0
  0
LINE
  8
1
  6
CONTINUOUS
 62
     1
  5
194
 10
171.14
 20
218.613167
 30
0.0
 11
180.14
 21
218.613167
 31
0.0
  0
LINE
  8
1
  6
CONTINUOUS
 62
     6
  5
195
 10
180.14
 20
182.613167
 30
0.0
 11
180.14
 21
218.613167
 31
0.0
  0
LINE
  8
1
  6
CONTINUOUS
 62
     1
  5
196
 10
180.14
 20
218.613167
 30
0.0
 11
180.14
 21
227.613167
 31
0.0
  0
LINE
  8
1
  6
CONTINUOUS
 62
     6
  5
197
 10
180.14
 20
227.613167
 30
0.0
 11
180.14
 21
317.613167
 31
0.0
  0
LINE
  8
1
  6
CONTINUOUS
 62
     6
  5
198
 10
117.14
 20
227.613167
 30
0.0
 11
180.14
 21
227.613167
 31
0.0
  0
LINE
  8
1
  6
CONTINUOUS
 62
     1
  5
199
 10
180.14
 20
227.613167
 30
0.0
 11
189.14
 21
227.613167
 31
0.0
  0
LINE
  8
1
  6
CONTINUOUS
 62
     6
  5
19A
 10
189.14
 20
182.613167
 30
0.0
 11
189.14
 21
227.613167
 31
0.0
  0
LINE
  8
1
  6
CONTINUOUS
 62
     1
  5
19B
 10
189.14
 20
227.613167
 30
0.0
 11
189.14
 21
236.613167
 31
0.0
  0
LINE
  8
1
  6
CONTINUOUS
 62
     6
  5
19C
 10
189.14
 20
236.613167
 30
0.0
 11
189.14
 21
382.613167
 31
0.0
  0
LINE
  8
1
  6
CONTINUOUS
 62
     6
  5
19D
 10
61.14
 20
236.613167
 30
0.0
 11
189.14
 21
236.613167
 31
0.0
  0
LINE
  8
1
  6
CONTINUOUS
 62
     1
  5
19E
 10
189.14
 20
236.613167
 30
0.0
 11
198.14
 21
236.613167
 31
0.0
  0
LINE
  8
1
  6
CONTINUOUS
 62
     6
  5
19F
 10
198.14
 20
182.613167
 30
0.0
 11
198.14
 21
236.613167
 31
0.0
  0
LINE
  8
1
  6
CONTINUOUS
 62
     1
  5
1A0
 10
198.14
 20
236.613167
 30
0.0
 11
198.14
 21
245.613167
 31
0.0
  0
LINE
  8
1
  6
CONTINUOUS
 62
     6
  5
1A1
 10
198.14
 20
245.613167
 30
0.0
 11
198.14
 21
326.613167
 31
0.0
  0
LINE
  8
1
  6
CONTINUOUS
 62
     6
  5
1A2
 10
61.14
 20
245.613167
 30
0.0
 11
198.14
 21
245.613167
 31
0.0
  0
LINE
  8
1
  6
CONTINUOUS
 62
     1
  5
1A3
 10
198.14
 20
245.613167
 30
0.0
 11
207.14
 21
245.613167
 31
0.0
  0
LINE
  8
1
  6
CONTINUOUS
 62
     6
  5
1A4
 10
207.14
 20
254.613167
 30
0.0
 11
207.14
 21
382.613167
 31
0.0
  0
LINE
  8
1
  6
CONTINUOUS
 62
     6
  5
1A5
 10
207.14
 20
182.613167
 30
0.0
 11
207.14
 21
245.613167
 31
0.0
  0
LINE
  8
1
  6
CONTINUOUS
 62
     1
  5
1A6
 10
207.14
 20
245.613167
 30
0.0
 11
207.14
 21
254.613167
 31
0.0
  0
LINE
  8
1
  6
CONTINUOUS
 62
     6
  5
1A7
 10
126.14
 20
254.613167
 30
0.0
 11
207.14
 21
254.613167
 31
0.0
  0
LINE
  8
1
  6
CONTINUOUS
 62
     1
  5
1A8
 10
207.14
 20
254.613167
 30
0.0
 11
216.14
 21
254.613167
 31
0.0
  0
LINE
  8
1
  6
CONTINUOUS
 62
     6
  5
1A9
 10
216.14
 20
254.613167
 30
0.0
 11
288.14
 21
254.613167
 31
0.0
  0
LINE
  8
1
  6
CONTINUOUS
 62
     1
  5
1AA
 10
216.14
 20
254.613167
 30
0.0
 11
216.14
 21
263.613167
 31
0.0
  0
LINE
  8
1
  6
CONTINUOUS
 62
     6
  5
1AB
 10
216.14
 20
263.613167
 30
0.0
 11
216.14
 21
335.613167
 31
0.0
  0
LINE
  8
1
  6
CONTINUOUS
 62
     6
  5
1AC
 10
61.14
 20
263.613167
 30
0.0
 11
216.14
 21
263.613167
 31
0.0
  0
LINE
  8
1
  6
CONTINUOUS
 62
     1
  5
1AD
 10
216.14
 20
263.613167
 30
0.0
 11
225.14
 21
263.613167
 31
0.0
  0
LINE
  8
1
  6
CONTINUOUS
 62
     6
  5
1AE
 10
225.14
 20
263.613167
 30
0.0
 11
288.14
 21
263.613167
 31
0.0
  0
LINE
  8
1
  6
CONTINUOUS
 62
     1
  5
1AF
 10
225.14
 20
263.613167
 30
0.0
 11
225.14
 21
272.613167
 31
0.0
  0
LINE
  8
1
  6
CONTINUOUS
 62
     6
  5
1B0
 10
225.14
 20
272.613167
 30
0.0
 11
225.14
 21
382.613167
 31
0.0
  0
LINE
  8
1
  6
CONTINUOUS
 62
     6
  5
1B1
 10
135.14
 20
272.613167
 30
0.0
 11
225.14
 21
272.613167
 31
0.0
  0
LINE
  8
1
  6
CONTINUOUS
 62
     1
  5
1B2
 10
225.14
 20
272.613167
 30
0.0
 11
234.14
 21
272.613167
 31
0.0
  0
LINE
  8
1
  6
CONTINUOUS
 62
     6
  5
1B3
 10
234.14
 20
272.613167
 30
0.0
 11
288.14
 21
272.613167
 31
0.0
  0
LINE
  8
1
  6
CONTINUOUS
 62
     1
  5
1B4
 10
234.14
 20
272.613167
 30
0.0
 11
234.14
 21
281.613167
 31
0.0
  0
LINE
  8
1
  6
CONTINUOUS
 62
     6
  5
1B5
 10
234.14
 20
281.613167
 30
0.0
 11
234.14
 21
382.613167
 31
0.0
  0
LINE
  8
1
  6
CONTINUOUS
 62
     6
  5
1B6
 10
144.14
 20
281.613167
 30
0.0
 11
234.14
 21
281.613167
 31
0.0
  0
LINE
  8
1
  6
CONTINUOUS
 62
     1
  5
1B7
 10
234.14
 20
281.613167
 30
0.0
 11
252.14
 21
281.613167
 31
0.0
  0
LINE
  8
1
  6
CONTINUOUS
 62
     6
  5
1B8
 10
252.14
 20
281.613167
 30
0.0
 11
288.14
 21
281.613167
 31
0.0
  0
LINE
  8
1
  6
CONTINUOUS
 62
     6
  5
1B9
 10
252.14
 20
290.613167
 30
0.0
 11
252.14
 21
382.613167
 31
0.0
  0
LINE
  8
1
  6
CONTINUOUS
 62
     1
  5
1BA
 10
252.14
 20
281.613167
 30
0.0
 11
252.14
 21
290.613167
 31
0.0
  0
LINE
  8
1
  6
CONTINUOUS
 62
     6
  5
1BB
 10
153.14
 20
290.613167
 30
0.0
 11
252.14
 21
290.613167
 31
0.0
  0
LINE
  8
1
  6
CONTINUOUS
 62
     1
  5
1BC
 10
252.14
 20
290.613167
 30
0.0
 11
270.14
 21
290.613167
 31
0.0
  0
LINE
  8
1
  6
CONTINUOUS
 62
     6
  5
1BD
 10
270.14
 20
290.613167
 30
0.0
 11
288.14
 21
290.613167
 31
0.0
  0
LINE
  8
1
  6
CONTINUOUS
 62
     6
  5
1BE
 10
270.14
 20
299.613167
 30
0.0
 11
270.14
 21
353.613167
 31
0.0
  0
LINE
  8
1
  6
CONTINUOUS
 62
     1
  5
1BF
 10
270.14
 20
290.613167
 30
0.0
 11
270.14
 21
299.613167
 31
0.0
  0
LINE
  8
1
  6
CONTINUOUS
 62
     6
  5
1C0
 10
162.14
 20
299.613167
 30
0.0
 11
270.14
 21
299.613167
 31
0.0
  0
LINE
  8
1
  6
CONTINUOUS
 62
     1
  5
1C1
 10
270.14
 20
299.613167
 30
0.0
 11
288.14
 21
299.613167
 31
0.0
  0
LINE
  8
1
  6
CONTINUOUS
 62
     1
  5
1C2
 10
216.14
 20
182.613167
 30
0.0
 11
216.14
 21
191.613167
 31
0.0
  0
LINE
  8
1
  6
CONTINUOUS
 62
     6
  5
1C3
 10
216.14
 20
191.613167
 30
0.0
 11
216.14
 21
254.613167
 31
0.0
  0
LINE
  8
1
  6
CONTINUOUS
 62
     6
  5
1C4
 10
162.14
 20
191.613167
 30
0.0
 11
216.14
 21
191.613167
 31
0.0
  0
LINE
  8
1
  6
CONTINUOUS
 62
     1
  5
1C5
 10
216.14
 20
191.613167
 30
0.0
 11
225.14
 21
191.613167
 31
0.0
  0
LINE
  8
1
  6
CONTINUOUS
 62
     6
  5
1C6
 10
225.14
 20
191.613167
 30
0.0
 11
288.14
 21
191.613167
 31
0.0
  0
LINE
  8
1
  6
CONTINUOUS
 62
     6
  5
1C7
 10
225.14
 20
182.613167
 30
0.0
 11
225.14
 21
191.613167
 31
0.0
  0
LINE
  8
1
  6
CONTINUOUS
 62
     1
  5
1C8
 10
225.14
 20
191.613167
 30
0.0
 11
225.14
 21
200.613167
 31
0.0
  0
LINE
  8
1
  6
CONTINUOUS
 62
     6
  5
1C9
 10
225.14
 20
200.613167
 30
0.0
 11
225.14
 21
263.613167
 31
0.0
  0
LINE
  8
1
  6
CONTINUOUS
 62
     6
  5
1CA
 10
99.14
 20
200.613167
 30
0.0
 11
225.14
 21
200.613167
 31
0.0
  0
LINE
  8
1
  6
CONTINUOUS
 62
     1
  5
1CB
 10
225.14
 20
200.613167
 30
0.0
 11
234.14
 21
200.613167
 31
0.0
  0
LINE
  8
1
  6
CONTINUOUS
 62
     6
  5
1CC
 10
234.14
 20
200.613167
 30
0.0
 11
288.14
 21
200.613167
 31
0.0
  0
LINE
  8
1
  6
CONTINUOUS
 62
     6
  5
1CD
 10
234.14
 20
182.613167
 30
0.0
 11
234.14
 21
200.613167
 31
0.0
  0
LINE
  8
1
  6
CONTINUOUS
 62
     1
  5
1CE
 10
234.14
 20
200.613167
 30
0.0
 11
234.14
 21
209.613167
 31
0.0
  0
LINE
  8
1
  6
CONTINUOUS
 62
     6
  5
1CF
 10
234.14
 20
209.613167
 30
0.0
 11
234.14
 21
272.613167
 31
0.0
  0
LINE
  8
1
  6
CONTINUOUS
 62
     6
  5
1D0
 10
171.14
 20
209.613167
 30
0.0
 11
234.14
 21
209.613167
 31
0.0
  0
LINE
  8
1
  6
CONTINUOUS
 62
     1
  5
1D1
 10
234.14
 20
209.613167
 30
0.0
 11
243.14
 21
209.613167
 31
0.0
  0
LINE
  8
1
  6
CONTINUOUS
 62
     6
  5
1D2
 10
243.14
 20
209.613167
 30
0.0
 11
288.14
 21
209.613167
 31
0.0
  0
LINE
  8
1
  6
CONTINUOUS
 62
     6
  5
1D3
 10
243.14
 20
182.613167
 30
0.0
 11
243.14
 21
209.613167
 31
0.0
  0
LINE
  8
1
  6
CONTINUOUS
 62
     1
  5
1D4
 10
243.14
 20
209.613167
 30
0.0
 11
243.14
 21
218.613167
 31
0.0
  0
LINE
  8
1
  6
CONTINUOUS
 62
     6
  5
1D5
 10
243.14
 20
218.613167
 30
0.0
 11
243.14
 21
344.613167
 31
0.0
  0
LINE
  8
1
  6
CONTINUOUS
 62
     6
  5
1D6
 10
180.14
 20
218.613167
 30
0.0
 11
243.14
 21
218.613167
 31
0.0
  0
LINE
  8
1
  6
CONTINUOUS
 62
     1
  5
1D7
 10
243.14
 20
218.613167
 30
0.0
 11
252.14
 21
218.613167
 31
0.0
  0
LINE
  8
1
  6
CONTINUOUS
 62
     6
  5
1D8
 10
252.14
 20
218.613167
 30
0.0
 11
288.14
 21
218.613167
 31
0.0
  0
LINE
  8
1
  6
CONTINUOUS
 62
     6
  5
1D9
 10
252.14
 20
227.613167
 30
0.0
 11
252.14
 21
281.613167
 31
0.0
  0
LINE
  8
1
  6
CONTINUOUS
 62
     6
  5
1DA
 10
252.14
 20
182.613167
 30
0.0
 11
252.14
 21
218.613167
 31
0.0
  0
LINE
  8
1
  6
CONTINUOUS
 62
     1
  5
1DB
 10
252.14
 20
218.613167
 30
0.0
 11
252.14
 21
227.613167
 31
0.0
  0
LINE
  8
1
  6
CONTINUOUS
 62
     6
  5
1DC
 10
189.14
 20
227.613167
 30
0.0
 11
252.14
 21
227.613167
 31
0.0
  0
LINE
  8
1
  6
CONTINUOUS
 62
     1
  5
1DD
 10
252.14
 20
227.613167
 30
0.0
 11
270.14
 21
227.613167
 31
0.0
  0
LINE
  8
1
  6
CONTINUOUS
 62
     6
  5
1DE
 10
270.14
 20
227.613167
 30
0.0
 11
288.14
 21
227.613167
 31
0.0
  0
LINE
  8
1
  6
CONTINUOUS
 62
     6
  5
1DF
 10
270.14
 20
236.613167
 30
0.0
 11
270.14
 21
290.613167
 31
0.0
  0
LINE
  8
1
  6
CONTINUOUS
 62
     6
  5
1E0
 10
270.14
 20
182.613167
 30
0.0
 11
270.14
 21
227.613167
 31
0.0
  0
LINE
  8
1
  6
CONTINUOUS
 62
     1
  5
1E1
 10
270.14
 20
227.613167
 30
0.0
 11
270.14
 21
236.613167
 31
0.0
  0
LINE
  8
1
  6
CONTINUOUS
 62
     6
  5
1E2
 10
198.14
 20
236.613167
 30
0.0
 11
270.14
 21
236.613167
 31
0.0
  0
LINE
  8
1
  6
CONTINUOUS
 62
     1
  5
1E3
 10
270.14
 20
236.613167
 30
0.0
 11
279.14
 21
236.613167
 31
0.0
  0
LINE
  8
1
  6
CONTINUOUS
 62
     6
  5
1E4
 10
279.14
 20
236.613167
 30
0.0
 11
288.14
 21
236.613167
 31
0.0
  0
LINE
  8
1
  6
CONTINUOUS
 62
     6
  5
1E5
 10
279.14
 20
245.613167
 30
0.0
 11
279.14
 21
382.613167
 31
0.0
  0
LINE
  8
1
  6
CONTINUOUS
 62
     6
  5
1E6
 10
279.14
 20
182.613167
 30
0.0
 11
279.14
 21
236.613167
 31
0.0
  0
LINE
  8
1
  6
CONTINUOUS
 62
     1
  5
1E7
 10
279.14
 20
236.613167
 30
0.0
 11
279.14
 21
245.613167
 31
0.0
  0
LINE
  8
1
  6
CONTINUOUS
 62
     6
  5
1E8
 10
207.14
 20
245.613167
 30
0.0
 11
279.14
 21
245.613167
 31
0.0
  0
LINE
  8
1
  6
CONTINUOUS
 62
     1
  5
1E9
 10
279.14
 20
245.613167
 30
0.0
 11
288.14
 21
245.613167
 31
0.0
  0
TEXT
  8
1
  6
CONTINUOUS
 62
     7
  5
1EA
 10
115.414667
 20
393.8125
 30
0.0
 40
2.5
  1
TOTAL SQUARE FEET OF SIGN AREA PER POLE
  7
MONOTXT
 72
     4
 11
161.841833
 21
395.0625
 31
0.0
210
0.0
220
0.0
230
1.0
  0
TEXT
  8
1
  6
CONTINUOUS
 62
     7
  5
1EB
 10
49.921083
 20
232.338417
 30
0.0
 40
2.5
  1
DIMENSION FROM BOTTOM OF BASE PLATE TO
 50
90.0
  7
MONOTXT
 72
     4
 11
48.671083
 21
277.997833
 31
0.0
210
0.0
220
0.0
230
1.0
  0
TEXT
  8
1
  6
CONTINUOUS
 62
     7
  5
1EC
 10
54.421083
 20
231.108
 30
0.0
 40
2.5
  1
CENTER OF PRESSURE ON SIGN ("CP" IN FEET)
 50
90.0
  7
MONOTXT
 72
     4
 11
53.171083
 21
277.987833
 31
0.0
210
0.0
220
0.0
230
1.0
  0
TEXT
  8
1
  6
CONTINUOUS
 62
     7
  5
1ED
 10
215.428917
 20
172.88025
 30
0.0
 40
2.5
  1
REDESIGN USING ADDITIONAL SUPPORT
  7
MONOTXT
 72
     4
 11
252.584417
 21
174.13025
 31
0.0
210
0.0
220
0.0
230
1.0
  0
TEXT
  8
1
  6
CONTINUOUS
 62
     7
  5
1EE
 10
210.33075
 20
171.331667
 30
0.0
 40
6.0
  1
*
  7
MONOTXT
 72
     4
 11
211.48825
 21
174.331667
 31
0.0
210
0.0
220
0.0
230
1.0
  0
LINE
  8
1
  6
CONTINUOUS
 62
    30
  5
1EF
 10
116.79275
 20
119.45125
 30
0.0
 11
116.79275
 21
91.45125
 31
0.0
  0
LINE
  8
1
  6
CONTINUOUS
 62
    30
  5
1F0
 10
129.29275
 20
119.45125
 30
0.0
 11
129.29275
 21
91.45125
 31
0.0
  0
LINE
  8
1
  6
CONTINUOUS
 62
    30
  5
1F1
 10
116.79275
 20
119.45125
 30
0.0
 11
120.79275
 21
119.45125
 31
0.0
  0
LINE
  8
1
  6
CONTINUOUS
 62
    30
  5
1F2
 10
122.79275
 20
119.45125
 30
0.0
 11
129.29275
 21
119.45125
 31
0.0
  0
LINE
  8
1
  6
CONTINUOUS
 62
    30
  5
1F3
 10
119.54275
 20
119.45125
 30
0.0
 11
119.54275
 21
91.45125
 31
0.0
  0
LINE
  8
1
  6
CONTINUOUS
 62
    30
  5
1F4
 10
118.54275
 20
119.45125
 30
0.0
 11
118.54275
 21
91.45125
 31
0.0
  0
LINE
  8
1
  6
CONTINUOUS
 62
    30
  5
1F5
 10
121.79275
 20
117.45125
 30
0.0
 11
124.79275
 21
117.45125
 31
0.0
  0
LINE
  8
1
  6
CONTINUOUS
 62
    30
  5
1F6
 10
121.79275
 20
114.95125
 30
0.0
 11
124.79275
 21
114.95125
 31
0.0
  0
LINE
  8
1
  6
CONTINUOUS
 62
    30
  5
1F7
 10
124.79275
 20
117.45125
 30
0.0
 11
124.79275
 21
114.95125
 31
0.0
  0
LINE
  8
1
  6
CONTINUOUS
 62
    30
  5
1F8
 10
121.79275
 20
117.45125
 30
0.0
 11
121.79275
 21
114.95125
 31
0.0
  0
LINE
  8
1
  6
CONTINUOUS
 62
    30
  5
1F9
 10
122.79275
 20
119.45125
 30
0.0
 11
122.79275
 21
117.45125
 31
0.0
  0
LINE
  8
1
  6
CONTINUOUS
 62
    30
  5
1FA
 10
122.79275
 20
114.95125
 30
0.0
 11
122.79275
 21
91.45125
 31
0.0
  0
LINE
  8
1
  6
CONTINUOUS
 62
    30
  5
1FB
 10
124.04275
 20
117.45125
 30
0.0
 11
124.04275
 21
114.95125
 31
0.0
  0
LINE
  8
1
  6
CONTINUOUS
 62
    30
  5
1FC
 10
123.54275
 20
116.45125
 30
0.0
 11
123.54275
 21
115.45125
 31
0.0
  0
LINE
  8
1
  6
CONTINUOUS
 62
    30
  5
1FD
 10
123.54275
 20
116.45125
 30
0.0
 11
124.04275
 21
116.45125
 31
0.0
  0
LINE
  8
1
  6
CONTINUOUS
 62
    30
  5
1FE
 10
123.54275
 20
115.45125
 30
0.0
 11
124.04275
 21
115.45125
 31
0.0
  0
LINE
  8
1
  6
CONTINUOUS
 62
    30
  5
1FF
 10
121.79275
 20
116.95125
 30
0.0
 11
120.79275
 21
116.95125
 31
0.0
  0
LINE
  8
1
  6
CONTINUOUS
 62
    30
  5
200
 10
121.79275
 20
115.45125
 30
0.0
 11
120.79275
 21
115.45125
 31
0.0
  0
ARC
  8
1
  6
CONTINUOUS
 62
    30
  5
201
 10
120.77727
 20
116.20125
 30
0.0
 40
0.75016
 50
88.817583
 51
271.182419
210
0.0
220
0.0
230
1.0
  0
LINE
  8
1
  6
CONTINUOUS
 62
    30
  5
202
 10
120.79275
 20
119.45125
 30
0.0
 11
120.79275
 21
116.95125
 31
0.0
  0
LINE
  8
1
  6
CONTINUOUS
 62
    30
  5
203
 10
120.79275
 20
115.45125
 30
0.0
 11
120.79275
 21
91.45125
 31
0.0
  0
CIRCLE
  8
1
  6
CONTINUOUS
 62
    30
  5
204
 10
120.79275
 20
116.20125
 30
0.0
 40
0.375
210
0.0
220
0.0
230
1.0
  0
POLYLINE
  8
1
  6
CONTINUOUS
 62
    30
  5
205
 66
     1
 10
0.0
 20
0.0
 30
0.0
 70
     1
210
0.0
220
0.0
230
1.0
  0
VERTEX
  8
1
  6
CONTINUOUS
 62
    30
  5
206
 10
120.54275
 20
117.95125
 30
0.0
 42
0.094941
  0
VERTEX
  8
1
  6
CONTINUOUS
 62
    30
  5
207
 10
120.523535
 20
118.048795
 30
0.0
 42
0.078462
  0
VERTEX
  8
1
  6
CONTINUOUS
 62
    30
  5
208
 10
120.46663
 20
118.142592
 30
0.0
 42
0.059206
  0
VERTEX
  8
1
  6
CONTINUOUS
 62
    30
  5
209
 10
120.37422
 20
118.229035
 30
0.0
 42
0.044721
  0
VERTEX
  8
1
  6
CONTINUOUS
 62
    30
  5
20A
 10
120.249857
 20
118.304803
 30
0.0
 42
0.035319
  0
VERTEX
  8
1
  6
CONTINUOUS
 62
    30
  5
20B
 10
120.09832
 20
118.366985
 30
0.0
 42
0.029561
  0
VERTEX
  8
1
  6
CONTINUOUS
 62
    30
  5
20C
 10
119.925433
 20
118.41319
 30
0.0
 42
0.026278
  0
VERTEX
  8
1
  6
CONTINUOUS
 62
    30
  5
20D
 10
119.73784
 20
118.441643
 30
0.0
 42
0.024788
  0
VERTEX
  8
1
  6
CONTINUOUS
 62
    30
  5
20E
 10
119.54275
 20
118.45125
 30
0.0
 42
0.024788
  0
VERTEX
  8
1
  6
CONTINUOUS
 62
    30
  5
20F
 10
119.34766
 20
118.441643
 30
0.0
 42
0.026278
  0
VERTEX
  8
1
  6
CONTINUOUS
 62
    30
  5
210
 10
119.160067
 20
118.41319
 30
0.0
 42
0.029561
  0
VERTEX
  8
1
  6
CONTINUOUS
 62
    30
  5
211
 10
118.98718
 20
118.366985
 30
0.0
 42
0.035319
  0
VERTEX
  8
1
  6
CONTINUOUS
 62
    30
  5
212
 10
118.835643
 20
118.304803
 30
0.0
 42
0.044721
  0
VERTEX
  8
1
  6
CONTINUOUS
 62
    30
  5
213
 10
118.71128
 20
118.229035
 30
0.0
 42
0.059206
  0
VERTEX
  8
1
  6
CONTINUOUS
 62
    30
  5
214
 10
118.61887
 20
118.142592
 30
0.0
 42
0.078462
  0
VERTEX
  8
1
  6
CONTINUOUS
 62
    30
  5
215
 10
118.561965
 20
118.048795
 30
0.0
 42
0.094941
  0
VERTEX
  8
1
  6
CONTINUOUS
 62
    30
  5
216
 10
118.54275
 20
117.95125
 30
0.0
 42
0.094941
  0
VERTEX
  8
1
  6
CONTINUOUS
 62
    30
  5
217
 10
118.561965
 20
117.853705
 30
0.0
 42
0.078462
  0
VERTEX
  8
1
  6
CONTINUOUS
 62
    30
  5
218
 10
118.61887
 20
117.759908
 30
0.0
 42
0.059206
  0
VERTEX
  8
1
  6
CONTINUOUS
 62
    30
  5
219
 10
118.71128
 20
117.673465
 30
0.0
 42
0.044721
  0
VERTEX
  8
1
  6
CONTINUOUS
 62
    30
  5
21A
 10
118.835643
 20
117.597697
 30
0.0
 42
0.035319
  0
VERTEX
  8
1
  6
CONTINUOUS
 62
    30
  5
21B
 10
118.98718
 20
117.535515
 30
0.0
 42
0.029561
  0
VERTEX
  8
1
  6
CONTINUOUS
 62
    30
  5
21C
 10
119.160067
 20
117.48931
 30
0.0
 42
0.026278
  0
VERTEX
  8
1
  6
CONTINUOUS
 62
    30
  5
21D
 10
119.34766
 20
117.460857
 30
0.0
 42
0.024788
  0
VERTEX
  8
1
  6
CONTINUOUS
 62
    30
  5
21E
 10
119.54275
 20
117.45125
 30
0.0
 42
0.024788
  0
VERTEX
  8
1
  6
CONTINUOUS
 62
    30
  5
21F
 10
119.73784
 20
117.460857
 30
0.0
 42
0.026278
  0
VERTEX
  8
1
  6
CONTINUOUS
 62
    30
  5
220
 10
119.925433
 20
117.48931
 30
0.0
 42
0.029561
  0
VERTEX
  8
1
  6
CONTINUOUS
 62
    30
  5
221
 10
120.09832
 20
117.535515
 30
0.0
 42
0.035319
  0
VERTEX
  8
1
  6
CONTINUOUS
 62
    30
  5
222
 10
120.249857
 20
117.597697
 30
0.0
 42
0.044721
  0
VERTEX
  8
1
  6
CONTINUOUS
 62
    30
  5
223
 10
120.37422
 20
117.673465
 30
0.0
 42
0.059206
  0
VERTEX
  8
1
  6
CONTINUOUS
 62
    30
  5
224
 10
120.46663
 20
117.759908
 30
0.0
 42
0.078462
  0
VERTEX
  8
1
  6
CONTINUOUS
 62
    30
  5
225
 10
120.523535
 20
117.853705
 30
0.0
 42
0.094941
  0
SEQEND
  8
1
  6
CONTINUOUS
 62
    30
  5
226
  0
POLYLINE
  8
1
  6
CONTINUOUS
 62
    30
  5
227
 66
     1
 10
0.0
 20
0.0
 30
0.0
 70
     1
210
0.0
220
0.0
230
1.0
  0
VERTEX
  8
1
  6
CONTINUOUS
 62
    30
  5
228
 10
120.54275
 20
92.95125
 30
0.0
 42
0.094941
  0
VERTEX
  8
1
  6
CONTINUOUS
 62
    30
  5
229
 10
120.523535
 20
93.048795
 30
0.0
 42
0.078462
  0
VERTEX
  8
1
  6
CONTINUOUS
 62
    30
  5
22A
 10
120.46663
 20
93.142592
 30
0.0
 42
0.059206
  0
VERTEX
  8
1
  6
CONTINUOUS
 62
    30
  5
22B
 10
120.37422
 20
93.229035
 30
0.0
 42
0.044721
  0
VERTEX
  8
1
  6
CONTINUOUS
 62
    30
  5
22C
 10
120.249857
 20
93.304803
 30
0.0
 42
0.035319
  0
VERTEX
  8
1
  6
CONTINUOUS
 62
    30
  5
22D
 10
120.09832
 20
93.366985
 30
0.0
 42
0.029561
  0
VERTEX
  8
1
  6
CONTINUOUS
 62
    30
  5
22E
 10
119.925433
 20
93.41319
 30
0.0
 42
0.026278
  0
VERTEX
  8
1
  6
CONTINUOUS
 62
    30
  5
22F
 10
119.73784
 20
93.441643
 30
0.0
 42
0.024788
  0
VERTEX
  8
1
  6
CONTINUOUS
 62
    30
  5
230
 10
119.54275
 20
93.45125
 30
0.0
 42
0.024788
  0
VERTEX
  8
1
  6
CONTINUOUS
 62
    30
  5
231
 10
119.34766
 20
93.441643
 30
0.0
 42
0.026278
  0
VERTEX
  8
1
  6
CONTINUOUS
 62
    30
  5
232
 10
119.160067
 20
93.41319
 30
0.0
 42
0.029561
  0
VERTEX
  8
1
  6
CONTINUOUS
 62
    30
  5
233
 10
118.98718
 20
93.366985
 30
0.0
 42
0.035319
  0
VERTEX
  8
1
  6
CONTINUOUS
 62
    30
  5
234
 10
118.835643
 20
93.304803
 30
0.0
 42
0.044721
  0
VERTEX
  8
1
  6
CONTINUOUS
 62
    30
  5
235
 10
118.71128
 20
93.229035
 30
0.0
 42
0.059206
  0
VERTEX
  8
1
  6
CONTINUOUS
 62
    30
  5
236
 10
118.61887
 20
93.142592
 30
0.0
 42
0.078462
  0
VERTEX
  8
1
  6
CONTINUOUS
 62
    30
  5
237
 10
118.561965
 20
93.048795
 30
0.0
 42
0.094941
  0
VERTEX
  8
1
  6
CONTINUOUS
 62
    30
  5
238
 10
118.54275
 20
92.95125
 30
0.0
 42
0.094941
  0
VERTEX
  8
1
  6
CONTINUOUS
 62
    30
  5
239
 10
118.561965
 20
92.853705
 30
0.0
 42
0.078462
  0
VERTEX
  8
1
  6
CONTINUOUS
 62
    30
  5
23A
 10
118.61887
 20
92.759908
 30
0.0
 42
0.059206
  0
VERTEX
  8
1
  6
CONTINUOUS
 62
    30
  5
23B
 10
118.71128
 20
92.673465
 30
0.0
 42
0.044721
  0
VERTEX
  8
1
  6
CONTINUOUS
 62
    30
  5
23C
 10
118.835643
 20
92.597697
 30
0.0
 42
0.035319
  0
VERTEX
  8
1
  6
CONTINUOUS
 62
    30
  5
23D
 10
118.98718
 20
92.535515
 30
0.0
 42
0.029561
  0
VERTEX
  8
1
  6
CONTINUOUS
 62
    30
  5
23E
 10
119.160067
 20
92.48931
 30
0.0
 42
0.026278
  0
VERTEX
  8
1
  6
CONTINUOUS
 62
    30
  5
23F
 10
119.34766
 20
92.460857
 30
0.0
 42
0.024788
  0
VERTEX
  8
1
  6
CONTINUOUS
 62
    30
  5
240
 10
119.54275
 20
92.45125
 30
0.0
 42
0.024788
  0
VERTEX
  8
1
  6
CONTINUOUS
 62
    30
  5
241
 10
119.73784
 20
92.460857
 30
0.0
 42
0.026278
  0
VERTEX
  8
1
  6
CONTINUOUS
 62
    30
  5
242
 10
119.925433
 20
92.48931
 30
0.0
 42
0.029561
  0
VERTEX
  8
1
  6
CONTINUOUS
 62
    30
  5
243
 10
120.09832
 20
92.535515
 30
0.0
 42
0.035319
  0
VERTEX
  8
1
  6
CONTINUOUS
 62
    30
  5
244
 10
120.249857
 20
92.597697
 30
0.0
 42
0.044721
  0
VERTEX
  8
1
  6
CONTINUOUS
 62
    30
  5
245
 10
120.37422
 20
92.673465
 30
0.0
 42
0.059206
  0
VERTEX
  8
1
  6
CONTINUOUS
 62
    30
  5
246
 10
120.46663
 20
92.759908
 30
0.0
 42
0.078462
  0
VERTEX
  8
1
  6
CONTINUOUS
 62
    30
  5
247
 10
120.523535
 20
92.853705
 30
0.0
 42
0.094941
  0
SEQEND
  8
1
  6
CONTINUOUS
 62
    30
  5
248
  0
POLYLINE
  8
1
  6
CONTINUOUS
 62
    30
  5
249
 66
     1
 10
0.0
 20
0.0
 30
0.0
 70
     1
210
0.0
220
0.0
230
1.0
  0
VERTEX
  8
1
  6
CONTINUOUS
 62
    30
  5
24A
 10
120.54275
 20
101.07625
 30
0.0
 42
0.094941
  0
VERTEX
  8
1
  6
CONTINUOUS
 62
    30
  5
24B
 10
120.523535
 20
101.173795
 30
0.0
 42
0.078462
  0
VERTEX
  8
1
  6
CONTINUOUS
 62
    30
  5
24C
 10
120.46663
 20
101.267592
 30
0.0
 42
0.059206
  0
VERTEX
  8
1
  6
CONTINUOUS
 62
    30
  5
24D
 10
120.37422
 20
101.354035
 30
0.0
 42
0.044721
  0
VERTEX
  8
1
  6
CONTINUOUS
 62
    30
  5
24E
 10
120.249857
 20
101.429803
 30
0.0
 42
0.035319
  0
VERTEX
  8
1
  6
CONTINUOUS
 62
    30
  5
24F
 10
120.09832
 20
101.491985
 30
0.0
 42
0.029561
  0
VERTEX
  8
1
  6
CONTINUOUS
 62
    30
  5
250
 10
119.925433
 20
101.53819
 30
0.0
 42
0.026278
  0
VERTEX
  8
1
  6
CONTINUOUS
 62
    30
  5
251
 10
119.73784
 20
101.566643
 30
0.0
 42
0.024788
  0
VERTEX
  8
1
  6
CONTINUOUS
 62
    30
  5
252
 10
119.54275
 20
101.57625
 30
0.0
 42
0.024788
  0
VERTEX
  8
1
  6
CONTINUOUS
 62
    30
  5
253
 10
119.34766
 20
101.566643
 30
0.0
 42
0.026278
  0
VERTEX
  8
1
  6
CONTINUOUS
 62
    30
  5
254
 10
119.160067
 20
101.53819
 30
0.0
 42
0.029561
  0
VERTEX
  8
1
  6
CONTINUOUS
 62
    30
  5
255
 10
118.98718
 20
101.491985
 30
0.0
 42
0.035319
  0
VERTEX
  8
1
  6
CONTINUOUS
 62
    30
  5
256
 10
118.835643
 20
101.429803
 30
0.0
 42
0.044721
  0
VERTEX
  8
1
  6
CONTINUOUS
 62
    30
  5
257
 10
118.71128
 20
101.354035
 30
0.0
 42
0.059206
  0
VERTEX
  8
1
  6
CONTINUOUS
 62
    30
  5
258
 10
118.61887
 20
101.267592
 30
0.0
 42
0.078462
  0
VERTEX
  8
1
  6
CONTINUOUS
 62
    30
  5
259
 10
118.561965
 20
101.173795
 30
0.0
 42
0.094941
  0
VERTEX
  8
1
  6
CONTINUOUS
 62
    30
  5
25A
 10
118.54275
 20
101.07625
 30
0.0
 42
0.094941
  0
VERTEX
  8
1
  6
CONTINUOUS
 62
    30
  5
25B
 10
118.561965
 20
100.978705
 30
0.0
 42
0.078462
  0
VERTEX
  8
1
  6
CONTINUOUS
 62
    30
  5
25C
 10
118.61887
 20
100.884908
 30
0.0
 42
0.059206
  0
VERTEX
  8
1
  6
CONTINUOUS
 62
    30
  5
25D
 10
118.71128
 20
100.798465
 30
0.0
 42
0.044721
  0
VERTEX
  8
1
  6
CONTINUOUS
 62
    30
  5
25E
 10
118.835643
 20
100.722697
 30
0.0
 42
0.035319
  0
VERTEX
  8
1
  6
CONTINUOUS
 62
    30
  5
25F
 10
118.98718
 20
100.660515
 30
0.0
 42
0.029561
  0
VERTEX
  8
1
  6
CONTINUOUS
 62
    30
  5
260
 10
119.160067
 20
100.61431
 30
0.0
 42
0.026278
  0
VERTEX
  8
1
  6
CONTINUOUS
 62
    30
  5
261
 10
119.34766
 20
100.585857
 30
0.0
 42
0.024788
  0
VERTEX
  8
1
  6
CONTINUOUS
 62
    30
  5
262
 10
119.54275
 20
100.57625
 30
0.0
 42
0.024788
  0
VERTEX
  8
1
  6
CONTINUOUS
 62
    30
  5
263
 10
119.73784
 20
100.585857
 30
0.0
 42
0.026278
  0
VERTEX
  8
1
  6
CONTINUOUS
 62
    30
  5
264
 10
119.925433
 20
100.61431
 30
0.0
 42
0.029561
  0
VERTEX
  8
1
  6
CONTINUOUS
 62
    30
  5
265
 10
120.09832
 20
100.660515
 30
0.0
 42
0.035319
  0
VERTEX
  8
1
  6
CONTINUOUS
 62
    30
  5
266
 10
120.249857
 20
100.722697
 30
0.0
 42
0.044721
  0
VERTEX
  8
1
  6
CONTINUOUS
 62
    30
  5
267
 10
120.37422
 20
100.798465
 30
0.0
 42
0.059206
  0
VERTEX
  8
1
  6
CONTINUOUS
 62
    30
  5
268
 10
120.46663
 20
100.884908
 30
0.0
 42
0.078462
  0
VERTEX
  8
1
  6
CONTINUOUS
 62
    30
  5
269
 10
120.523535
 20
100.978705
 30
0.0
 42
0.094941
  0
SEQEND
  8
1
  6
CONTINUOUS
 62
    30
  5
26A
  0
POLYLINE
  8
1
  6
CONTINUOUS
 62
    30
  5
26B
 66
     1
 10
0.0
 20
0.0
 30
0.0
 70
     1
210
0.0
220
0.0
230
1.0
  0
VERTEX
  8
1
  6
CONTINUOUS
 62
    30
  5
26C
 10
120.54275
 20
109.82625
 30
0.0
 42
0.094941
  0
VERTEX
  8
1
  6
CONTINUOUS
 62
    30
  5
26D
 10
120.523535
 20
109.923795
 30
0.0
 42
0.078462
  0
VERTEX
  8
1
  6
CONTINUOUS
 62
    30
  5
26E
 10
120.46663
 20
110.017592
 30
0.0
 42
0.059206
  0
VERTEX
  8
1
  6
CONTINUOUS
 62
    30
  5
26F
 10
120.37422
 20
110.104035
 30
0.0
 42
0.044721
  0
VERTEX
  8
1
  6
CONTINUOUS
 62
    30
  5
270
 10
120.249857
 20
110.179803
 30
0.0
 42
0.035319
  0
VERTEX
  8
1
  6
CONTINUOUS
 62
    30
  5
271
 10
120.09832
 20
110.241985
 30
0.0
 42
0.029561
  0
VERTEX
  8
1
  6
CONTINUOUS
 62
    30
  5
272
 10
119.925433
 20
110.28819
 30
0.0
 42
0.026278
  0
VERTEX
  8
1
  6
CONTINUOUS
 62
    30
  5
273
 10
119.73784
 20
110.316643
 30
0.0
 42
0.024788
  0
VERTEX
  8
1
  6
CONTINUOUS
 62
    30
  5
274
 10
119.54275
 20
110.32625
 30
0.0
 42
0.024788
  0
VERTEX
  8
1
  6
CONTINUOUS
 62
    30
  5
275
 10
119.34766
 20
110.316643
 30
0.0
 42
0.026278
  0
VERTEX
  8
1
  6
CONTINUOUS
 62
    30
  5
276
 10
119.160067
 20
110.28819
 30
0.0
 42
0.029561
  0
VERTEX
  8
1
  6
CONTINUOUS
 62
    30
  5
277
 10
118.98718
 20
110.241985
 30
0.0
 42
0.035319
  0
VERTEX
  8
1
  6
CONTINUOUS
 62
    30
  5
278
 10
118.835643
 20
110.179803
 30
0.0
 42
0.044721
  0
VERTEX
  8
1
  6
CONTINUOUS
 62
    30
  5
279
 10
118.71128
 20
110.104035
 30
0.0
 42
0.059206
  0
VERTEX
  8
1
  6
CONTINUOUS
 62
    30
  5
27A
 10
118.61887
 20
110.017592
 30
0.0
 42
0.078462
  0
VERTEX
  8
1
  6
CONTINUOUS
 62
    30
  5
27B
 10
118.561965
 20
109.923795
 30
0.0
 42
0.094941
  0
VERTEX
  8
1
  6
CONTINUOUS
 62
    30
  5
27C
 10
118.54275
 20
109.82625
 30
0.0
 42
0.094941
  0
VERTEX
  8
1
  6
CONTINUOUS
 62
    30
  5
27D
 10
118.561965
 20
109.728705
 30
0.0
 42
0.078462
  0
VERTEX
  8
1
  6
CONTINUOUS
 62
    30
  5
27E
 10
118.61887
 20
109.634908
 30
0.0
 42
0.059206
  0
VERTEX
  8
1
  6
CONTINUOUS
 62
    30
  5
27F
 10
118.71128
 20
109.548465
 30
0.0
 42
0.044721
  0
VERTEX
  8
1
  6
CONTINUOUS
 62
    30
  5
280
 10
118.835643
 20
109.472697
 30
0.0
 42
0.035319
  0
VERTEX
  8
1
  6
CONTINUOUS
 62
    30
  5
281
 10
118.98718
 20
109.410515
 30
0.0
 42
0.029561
  0
VERTEX
  8
1
  6
CONTINUOUS
 62
    30
  5
282
 10
119.160067
 20
109.36431
 30
0.0
 42
0.026278
  0
VERTEX
  8
1
  6
CONTINUOUS
 62
    30
  5
283
 10
119.34766
 20
109.335857
 30
0.0
 42
0.024788
  0
VERTEX
  8
1
  6
CONTINUOUS
 62
    30
  5
284
 10
119.54275
 20
109.32625
 30
0.0
 42
0.024788
  0
VERTEX
  8
1
  6
CONTINUOUS
 62
    30
  5
285
 10
119.73784
 20
109.335857
 30
0.0
 42
0.026278
  0
VERTEX
  8
1
  6
CONTINUOUS
 62
    30
  5
286
 10
119.925433
 20
109.36431
 30
0.0
 42
0.029561
  0
VERTEX
  8
1
  6
CONTINUOUS
 62
    30
  5
287
 10
120.09832
 20
109.410515
 30
0.0
 42
0.035319
  0
VERTEX
  8
1
  6
CONTINUOUS
 62
    30
  5
288
 10
120.249857
 20
109.472697
 30
0.0
 42
0.044721
  0
VERTEX
  8
1
  6
CONTINUOUS
 62
    30
  5
289
 10
120.37422
 20
109.548465
 30
0.0
 42
0.059206
  0
VERTEX
  8
1
  6
CONTINUOUS
 62
    30
  5
28A
 10
120.46663
 20
109.634908
 30
0.0
 42
0.078462
  0
VERTEX
  8
1
  6
CONTINUOUS
 62
    30
  5
28B
 10
120.523535
 20
109.728705
 30
0.0
 42
0.094941
  0
SEQEND
  8
1
  6
CONTINUOUS
 62
    30
  5
28C
  0
LINE
  8
1
  6
CONTINUOUS
 62
    30
  5
28D
 10
128.29275
 20
91.45125
 30
0.0
 11
134.29275
 21
91.45125
 31
0.0
  0
LINE
  8
1
  6
CONTINUOUS
 62
    30
  5
28E
 10
117.29275
 20
91.45125
 30
0.0
 11
117.63475
 21
92.390917
 31
0.0
  0
LINE
  8
1
  6
CONTINUOUS
 62
    30
  5
28F
 10
117.63475
 20
92.390917
 30
0.0
 11
117.982083
 21
90.421333
 31
0.0
  0
LINE
  8
1
  6
CONTINUOUS
 62
    30
  5
290
 10
117.982083
 20
90.421333
 30
0.0
 11
118.356917
 21
91.45125
 31
0.0
  0
LINE
  8
1
  6
CONTINUOUS
 62
    30
  5
291
 10
127.95075
 20
90.511583
 30
0.0
 11
128.29275
 21
91.45125
 31
0.0
  0
LINE
  8
1
  6
CONTINUOUS
 62
    30
  5
292
 10
127.228583
 20
91.45125
 30
0.0
 11
127.603417
 21
92.481167
 31
0.0
  0
LINE
  8
1
  6
CONTINUOUS
 62
    30
  5
293
 10
127.603417
 20
92.481167
 30
0.0
 11
127.95075
 21
90.511583
 31
0.0
  0
LINE
  8
1
  6
CONTINUOUS
 62
    30
  5
294
 10
111.79275
 20
91.45125
 30
0.0
 11
117.29275
 21
91.45125
 31
0.0
  0
LINE
  8
1
  6
CONTINUOUS
 62
    30
  5
295
 10
118.356917
 20
91.45125
 30
0.0
 11
127.228583
 21
91.45125
 31
0.0
  0
TEXT
  8
1
  6
CONTINUOUS
 62
     7
  5
296
 10
43.722917
 20
77.066917
 30
0.0
 40
2.5
  1
NOTE:
  7
MONOTXT
 11
43.722917
 21
79.566917
 31
0.0
210
0.0
220
0.0
230
1.0
 73
     3
  0
TEXT
  8
1
  6
CONTINUOUS
 62
     7
  5
297
 10
43.722917
 20
72.566917
 30
0.0
 40
2.5
  1
POST SHALL NOT EXTEND
  7
MONOTXT
 11
43.722917
 21
75.066917
 31
0.0
210
0.0
220
0.0
230
1.0
 73
     3
  0
TEXT
  8
1
  6
CONTINUOUS
 62
     7
  5
298
 10
43.722917
 20
68.066917
 30
0.0
 40
2.5
  1
ABOVE TOP OF SIGN.
  7
MONOTXT
 11
43.722917
 21
70.566917
 31
0.0
210
0.0
220
0.0
230
1.0
 73
     3
  0
LINE
  8
1
  6
CONTINUOUS
 62
   120
  5
299
 10
178.29275
 20
113.95125
 30
0.0
 11
217.79275
 21
113.95125
 31
0.0
  0
LINE
  8
1
  6
CONTINUOUS
 62
   120
  5
29A
 10
217.79275
 20
113.95125
 30
0.0
 11
217.79275
 21
96.95125
 31
0.0
  0
LINE
  8
1
  6
CONTINUOUS
 62
   120
  5
29B
 10
217.79275
 20
96.95125
 30
0.0
 11
178.29275
 21
96.95125
 31
0.0
  0
LINE
  8
1
  6
CONTINUOUS
 62
   120
  5
29C
 10
178.29275
 20
96.95125
 30
0.0
 11
178.29275
 21
113.95125
 31
0.0
  0
LINE
  8
1
  6
HIDDEN
 62
   120
  5
29D
 10
187.29275
 20
96.95125
 30
0.0
 11
187.29275
 21
113.95125
 31
0.0
  0
LINE
  8
1
  6
HIDDEN
 62
   120
  5
29E
 10
208.79275
 20
113.95125
 30
0.0
 11
208.79275
 21
96.95125
 31
0.0
  0
LINE
  8
1
  6
HIDDEN
 62
   120
  5
29F
 10
188.79275
 20
96.95125
 30
0.0
 11
188.79275
 21
113.95125
 31
0.0
  0
LINE
  8
1
  6
HIDDEN
 62
   120
  5
2A0
 10
207.29275
 20
113.95125
 30
0.0
 11
207.29275
 21
96.95125
 31
0.0
  0
LINE
  8
1
  6
CONTINUOUS
 62
   120
  5
2A1
 10
187.29275
 20
96.95125
 30
0.0
 11
187.29275
 21
81.95125
 31
0.0
  0
LINE
  8
1
  6
CONTINUOUS
 62
   120
  5
2A2
 10
188.79275
 20
96.95125
 30
0.0
 11
188.79275
 21
81.95125
 31
0.0
  0
LINE
  8
1
  6
CONTINUOUS
 62
   120
  5
2A3
 10
208.79275
 20
96.95125
 30
0.0
 11
208.79275
 21
81.95125
 31
0.0
  0
LINE
  8
1
  6
CONTINUOUS
 62
   120
  5
2A4
 10
207.29275
 20
96.95125
 30
0.0
 11
207.29275
 21
81.95125
 31
0.0
  0
TEXT
  8
1
  6
CONTINUOUS
 62
     7
  5
2A5
 10
110.415583
 20
417.142083
 30
0.0
 40
3.5
  1
SECTION MODULUS REQUIRED PER POLE
  7
MONOTXT
 72
     4
 11
164.99625
 21
418.892083
 31
0.0
210
0.0
220
0.0
230
1.0
  0
TEXT
  8
1
  6
CONTINUOUS
 62
     7
  5
2A6
 10
83.577083
 20
345.904917
 30
0.0
 40
7.0
  1
S4X7.7
  7
txt
 72
     4
 11
98.47325
 21
349.404917
 31
0.0
210
0.0
220
0.0
230
1.0
  0
TEXT
  8
1
  6
CONTINUOUS
 62
     7
  5
2A7
 10
121.178
 20
310.0975
 30
0.0
 40
7.0
  1
W6X12
  7
txt
 72
     4
 11
135.802667
 21
313.5975
 31
0.0
210
0.0
220
0.0
230
1.0
  0
TEXT
  8
1
  6
CONTINUOUS
 62
     7
  5
2A8
 10
166.104083
 20
274.071167
 30
0.0
 40
7.0
  1
W8X18
  7
txt
 72
     4
 11
180.735083
 21
277.571167
 31
0.0
210
0.0
220
0.0
230
1.0
  0
TEXT
  8
1
  6
CONTINUOUS
 62
     7
  5
2A9
 10
203.987083
 20
228.780833
 30
0.0
 40
7.0
  1
W10X22 *
  7
txt
 72
     4
 11
226.010583
 21
232.280833
 31
0.0
210
0.0
220
0.0
230
1.0
  0
TEXT
  8
1
  6
CONTINUOUS
 62
     7
  5
2AA
 10
263.052083
 20
200.586
 30
0.0
 40
7.0
  1
*
  7
txt
 72
     4
 11
265.217833
 21
204.086
 31
0.0
210
0.0
220
0.0
230
1.0
  0
CIRCLE
  8
1
  6
CONTINUOUS
 62
     7
  5
2AB
 10
246.18175
 20
233.609083
 30
0.0
 40
2.0
210
0.0
220
0.0
230
1.0
  0
LINE
  8
1
  6
HIDDEN
 62
   120
  5
2AC
 10
186.29275
 20
108.95125
 30
0.0
 11
189.79275
 21
108.95125
 31
0.0
  0
LINE
  8
1
  6
HIDDEN
 62
   120
  5
2AD
 10
206.29275
 20
108.95125
 30
0.0
 11
209.79275
 21
108.95125
 31
0.0
  0
LINE
  8
1
  6
HIDDEN
 62
   120
  5
2AE
 10
186.29275
 20
107.95125
 30
0.0
 11
189.79275
 21
107.95125
 31
0.0
  0
LINE
  8
1
  6
HIDDEN
 62
   120
  5
2AF
 10
206.29275
 20
107.95125
 30
0.0
 11
209.79275
 21
107.95125
 31
0.0
  0
LINE
  8
1
  6
HIDDEN
 62
   120
  5
2B0
 10
186.29275
 20
108.95125
 30
0.0
 11
186.29275
 21
107.95125
 31
0.0
  0
LINE
  8
1
  6
HIDDEN
 62
   120
  5
2B1
 10
189.79275
 20
108.95125
 30
0.0
 11
189.79275
 21
107.95125
 31
0.0
  0
LINE
  8
1
  6
HIDDEN
 62
   120
  5
2B2
 10
206.29275
 20
108.95125
 30
0.0
 11
206.29275
 21
107.95125
 31
0.0
  0
LINE
  8
1
  6
HIDDEN
 62
   120
  5
2B3
 10
209.79275
 20
108.95125
 30
0.0
 11
209.79275
 21
107.95125
 31
0.0
  0
LINE
  8
1
  6
HIDDEN
 62
   120
  5
2B4
 10
209.79275
 20
100.45125
 30
0.0
 11
206.29275
 21
100.45125
 31
0.0
  0
LINE
  8
1
  6
HIDDEN
 62
   120
  5
2B5
 10
189.79275
 20
100.45125
 30
0.0
 11
186.29275
 21
100.45125
 31
0.0
  0
LINE
  8
1
  6
HIDDEN
 62
   120
  5
2B6
 10
189.79275
 20
101.45125
 30
0.0
 11
186.29275
 21
101.45125
 31
0.0
  0
LINE
  8
1
  6
HIDDEN
 62
   120
  5
2B7
 10
209.79275
 20
101.45125
 30
0.0
 11
206.29275
 21
101.45125
 31
0.0
  0
LINE
  8
1
  6
HIDDEN
 62
   120
  5
2B8
 10
186.29275
 20
101.45125
 30
0.0
 11
186.29275
 21
100.45125
 31
0.0
  0
LINE
  8
1
  6
HIDDEN
 62
   120
  5
2B9
 10
189.79275
 20
101.45125
 30
0.0
 11
189.79275
 21
100.45125
 31
0.0
  0
LINE
  8
1
  6
HIDDEN
 62
   120
  5
2BA
 10
206.29275
 20
101.45125
 30
0.0
 11
206.29275
 21
100.45125
 31
0.0
  0
LINE
  8
1
  6
HIDDEN
 62
   120
  5
2BB
 10
209.79275
 20
101.45125
 30
0.0
 11
209.79275
 21
100.45125
 31
0.0
  0
LINE
  8
1
  6
HIDDEN
 62
   120
  5
2BC
 10
206.29275
 20
105.20125
 30
0.0
 11
206.29275
 21
104.20125
 31
0.0
  0
LINE
  8
1
  6
HIDDEN
 62
   120
  5
2BD
 10
209.79275
 20
104.20125
 30
0.0
 11
206.29275
 21
104.20125
 31
0.0
  0
LINE
  8
1
  6
HIDDEN
 62
   120
  5
2BE
 10
209.79275
 20
105.20125
 30
0.0
 11
206.29275
 21
105.20125
 31
0.0
  0
LINE
  8
1
  6
HIDDEN
 62
   120
  5
2BF
 10
209.79275
 20
105.20125
 30
0.0
 11
209.79275
 21
104.20125
 31
0.0
  0
LINE
  8
1
  6
CONTINUOUS
 62
   120
  5
2C0
 10
183.29275
 20
81.95125
 30
0.0
 11
187.29275
 21
81.95125
 31
0.0
  0
LINE
  8
1
  6
CONTINUOUS
 62
   120
  5
2C1
 10
188.79275
 20
81.95125
 30
0.0
 11
192.79275
 21
81.95125
 31
0.0
  0
LINE
  8
1
  6
CONTINUOUS
 62
   120
  5
2C2
 10
203.29275
 20
81.95125
 30
0.0
 11
207.29275
 21
81.95125
 31
0.0
  0
LINE
  8
1
  6
CONTINUOUS
 62
   120
  5
2C3
 10
208.79275
 20
81.95125
 30
0.0
 11
212.79275
 21
81.95125
 31
0.0
  0
LINE
  8
1
  6
CONTINUOUS
 62
   120
  5
2C4
 10
187.29275
 20
81.95125
 30
0.0
 11
187.63475
 21
82.890917
 31
0.0
  0
LINE
  8
1
  6
CONTINUOUS
 62
   120
  5
2C5
 10
188.79275
 20
81.95125
 30
0.0
 11
188.45075
 21
81.011583
 31
0.0
  0
LINE
  8
1
  6
CONTINUOUS
 62
   120
  5
2C6
 10
188.45075
 20
81.011583
 30
0.0
 11
187.63475
 21
82.890917
 31
0.0
  0
LINE
  8
1
  6
CONTINUOUS
 62
   120
  5
2C7
 10
208.79275
 20
81.95125
 30
0.0
 11
208.45075
 21
81.011583
 31
0.0
  0
LINE
  8
1
  6
CONTINUOUS
 62
   120
  5
2C8
 10
207.29275
 20
81.95125
 30
0.0
 11
207.63475
 21
82.890917
 31
0.0
  0
LINE
  8
1
  6
CONTINUOUS
 62
   120
  5
2C9
 10
208.45075
 20
81.011583
 30
0.0
 11
207.63475
 21
82.890917
 31
0.0
  0
LINE
  8
1
  6
CONTINUOUS
 62
     7
  5
2CA
 10
188.04275
 20
95.45125
 30
0.0
 11
188.04275
 21
91.95125
 31
0.0
  0
LINE
  8
1
  6
CONTINUOUS
 62
     7
  5
2CB
 10
188.04275
 20
90.45125
 30
0.0
 11
188.04275
 21
88.45125
 31
0.0
  0
LINE
  8
1
  6
CONTINUOUS
 62
     7
  5
2CC
 10
188.04275
 20
86.95125
 30
0.0
 11
188.04275
 21
83.45125
 31
0.0
  0
LINE
  8
1
  6
CONTINUOUS
 62
     7
  5
2CD
 10
208.04275
 20
95.45125
 30
0.0
 11
208.04275
 21
91.95125
 31
0.0
  0
LINE
  8
1
  6
CONTINUOUS
 62
     7
  5
2CE
 10
208.04275
 20
90.45125
 30
0.0
 11
208.04275
 21
88.45125
 31
0.0
  0
LINE
  8
1
  6
CONTINUOUS
 62
     7
  5
2CF
 10
208.04275
 20
86.95125
 30
0.0
 11
208.04275
 21
83.45125
 31
0.0
  0
LINE
  8
1
  6
CONTINUOUS
 62
     7
  5
2D0
 10
188.04275
 20
89.45125
 30
0.0
 11
208.04275
 21
89.45125
 31
0.0
  0
INSERT
  8
1
  6
CONTINUOUS
 62
     1
  5
2F1
  2
LDR
 10
188.04275
 20
89.45125
 30
0.0
 41
240.0
 42
240.0
 50
180.0
210
0.0
220
0.0
230
1.0
  0
INSERT
  8
1
  6
CONTINUOUS
 62
     1
  5
2F2
  2
LDR
 10
208.04275
 20
89.45125
 30
0.0
 41
240.0
 42
240.0
210
0.0
220
0.0
230
1.0
  0
LINE
  8
1
  6
CONTINUOUS
 62
     7
  5
2F3
 10
178.29275
 20
95.95125
 30
0.0
 11
178.29275
 21
88.45125
 31
0.0
  0
LINE
  8
1
  6
CONTINUOUS
 62
     7
  5
2F4
 10
217.79275
 20
95.95125
 30
0.0
 11
217.79275
 21
88.45125
 31
0.0
  0
LINE
  8
1
  6
CONTINUOUS
 62
     7
  5
2F5
 10
178.29275
 20
89.45125
 30
0.0
 11
174.29275
 21
89.45125
 31
0.0
  0
LINE
  8
1
  6
CONTINUOUS
 62
     7
  5
2F6
 10
217.79275
 20
89.45125
 30
0.0
 11
221.79275
 21
89.45125
 31
0.0
  0
INSERT
  8
1
  6
CONTINUOUS
 62
     1
  5
2F7
  2
LDR
 10
178.29275
 20
89.45125
 30
0.0
 41
240.0
 42
240.0
210
0.0
220
0.0
230
1.0
  0
INSERT
  8
1
  6
CONTINUOUS
 62
     1
  5
2F8
  2
LDR
 10
178.29275
 20
89.45125
 30
0.0
 41
240.0
 42
240.0
210
0.0
220
0.0
230
1.0
  0
INSERT
  8
1
  6
CONTINUOUS
 62
     1
  5
2F9
  2
LDR
 10
217.79275
 20
89.45125
 30
0.0
 41
240.0
 42
240.0
 50
180.0
210
0.0
220
0.0
230
1.0
  0
LINE
  8
1
  6
CONTINUOUS
 62
     7
  5
2FA
 10
218.79275
 20
113.95125
 30
0.0
 11
229.79275
 21
113.95125
 31
0.0
  0
LINE
  8
1
  6
CONTINUOUS
 62
     7
  5
2FB
 10
218.79275
 20
96.95125
 30
0.0
 11
229.79275
 21
96.95125
 31
0.0
  0
LINE
  8
1
  6
CONTINUOUS
 62
     7
  5
2FC
 10
228.79275
 20
113.95125
 30
0.0
 11
228.79275
 21
96.95125
 31
0.0
  0
INSERT
  8
1
  6
CONTINUOUS
 62
     1
  5
2FD
  2
LDR
 10
228.79275
 20
113.95125
 30
0.0
 41
240.0
 42
240.0
 50
90.0
210
0.0
220
0.0
230
1.0
  0
INSERT
  8
1
  6
CONTINUOUS
 62
     1
  5
2FE
  2
LDR
 10
228.79275
 20
96.95125
 30
0.0
 41
240.0
 42
240.0
 50
270.0
210
0.0
220
0.0
230
1.0
  0
LINE
  8
1
  6
CONTINUOUS
 62
     7
  5
2FF
 10
178.29275
 20
114.95125
 30
0.0
 11
178.29275
 21
123.95125
 31
0.0
  0
LINE
  8
1
  6
CONTINUOUS
 62
     7
  5
300
 10
217.79275
 20
114.95125
 30
0.0
 11
217.79275
 21
123.95125
 31
0.0
  0
LINE
  8
1
  6
CONTINUOUS
 62
     7
  5
301
 10
178.29275
 20
122.95125
 30
0.0
 11
217.79275
 21
122.95125
 31
0.0
  0
INSERT
  8
1
  6
CONTINUOUS
 62
     1
  5
302
  2
LDR
 10
178.29275
 20
122.95125
 30
0.0
 41
240.0
 42
240.0
 50
180.0
210
0.0
220
0.0
230
1.0
  0
INSERT
  8
1
  6
CONTINUOUS
 62
     1
  5
303
  2
LDR
 10
178.29275
 20
122.95125
 30
0.0
 41
240.0
 42
240.0
 50
180.0
210
0.0
220
0.0
230
1.0
  0
INSERT
  8
1
  6
CONTINUOUS
 62
     1
  5
304
  2
LDR
 10
217.79275
 20
122.95125
 30
0.0
 41
240.0
 42
240.0
210
0.0
220
0.0
230
1.0
  0
LINE
  8
1
  6
CONTINUOUS
 62
   120
  5
305
 10
273.29275
 20
113.95125
 30
0.0
 11
332.79275
 21
113.95125
 31
0.0
  0
LINE
  8
1
  6
CONTINUOUS
 62
   120
  5
306
 10
332.79275
 20
113.95125
 30
0.0
 11
332.79275
 21
96.95125
 31
0.0
  0
LINE
  8
1
  6
CONTINUOUS
 62
   120
  5
307
 10
332.79275
 20
96.95125
 30
0.0
 11
273.29275
 21
96.95125
 31
0.0
  0
LINE
  8
1
  6
HIDDEN
 62
   120
  5
308
 10
302.29275
 20
96.95125
 30
0.0
 11
302.29275
 21
113.95125
 31
0.0
  0
LINE
  8
1
  6
HIDDEN
 62
   120
  5
309
 10
323.79275
 20
113.95125
 30
0.0
 11
323.79275
 21
96.95125
 31
0.0
  0
LINE
  8
1
  6
HIDDEN
 62
   120
  5
30A
 10
303.79275
 20
96.95125
 30
0.0
 11
303.79275
 21
113.95125
 31
0.0
  0
LINE
  8
1
  6
HIDDEN
 62
   120
  5
30B
 10
322.29275
 20
113.95125
 30
0.0
 11
322.29275
 21
96.95125
 31
0.0
  0
LINE
  8
1
  6
CONTINUOUS
 62
   120
  5
30C
 10
302.29275
 20
96.95125
 30
0.0
 11
302.29275
 21
81.95125
 31
0.0
  0
LINE
  8
1
  6
CONTINUOUS
 62
   120
  5
30D
 10
303.79275
 20
96.95125
 30
0.0
 11
303.79275
 21
81.95125
 31
0.0
  0
LINE
  8
1
  6
CONTINUOUS
 62
   120
  5
30E
 10
323.79275
 20
96.95125
 30
0.0
 11
323.79275
 21
81.95125
 31
0.0
  0
LINE
  8
1
  6
CONTINUOUS
 62
   120
  5
30F
 10
322.29275
 20
96.95125
 30
0.0
 11
322.29275
 21
81.95125
 31
0.0
  0
LINE
  8
1
  6
HIDDEN
 62
   120
  5
310
 10
301.29275
 20
108.95125
 30
0.0
 11
304.79275
 21
108.95125
 31
0.0
  0
LINE
  8
1
  6
HIDDEN
 62
   120
  5
311
 10
321.29275
 20
108.95125
 30
0.0
 11
324.79275
 21
108.95125
 31
0.0
  0
LINE
  8
1
  6
HIDDEN
 62
   120
  5
312
 10
301.29275
 20
107.95125
 30
0.0
 11
304.79275
 21
107.95125
 31
0.0
  0
LINE
  8
1
  6
HIDDEN
 62
   120
  5
313
 10
321.29275
 20
107.95125
 30
0.0
 11
324.79275
 21
107.95125
 31
0.0
  0
LINE
  8
1
  6
HIDDEN
 62
   120
  5
314
 10
301.29275
 20
108.95125
 30
0.0
 11
301.29275
 21
107.95125
 31
0.0
  0
LINE
  8
1
  6
HIDDEN
 62
   120
  5
315
 10
304.79275
 20
108.95125
 30
0.0
 11
304.79275
 21
107.95125
 31
0.0
  0
LINE
  8
1
  6
HIDDEN
 62
   120
  5
316
 10
321.29275
 20
108.95125
 30
0.0
 11
321.29275
 21
107.95125
 31
0.0
  0
LINE
  8
1
  6
HIDDEN
 62
   120
  5
317
 10
324.79275
 20
108.95125
 30
0.0
 11
324.79275
 21
107.95125
 31
0.0
  0
LINE
  8
1
  6
HIDDEN
 62
   120
  5
318
 10
324.79275
 20
100.45125
 30
0.0
 11
321.29275
 21
100.45125
 31
0.0
  0
LINE
  8
1
  6
HIDDEN
 62
   120
  5
319
 10
304.79275
 20
100.45125
 30
0.0
 11
301.29275
 21
100.45125
 31
0.0
  0
LINE
  8
1
  6
HIDDEN
 62
   120
  5
31A
 10
304.79275
 20
101.45125
 30
0.0
 11
301.29275
 21
101.45125
 31
0.0
  0
LINE
  8
1
  6
HIDDEN
 62
   120
  5
31B
 10
324.79275
 20
101.45125
 30
0.0
 11
321.29275
 21
101.45125
 31
0.0
  0
LINE
  8
1
  6
HIDDEN
 62
   120
  5
31C
 10
301.29275
 20
101.45125
 30
0.0
 11
301.29275
 21
100.45125
 31
0.0
  0
LINE
  8
1
  6
HIDDEN
 62
   120
  5
31D
 10
304.79275
 20
101.45125
 30
0.0
 11
304.79275
 21
100.45125
 31
0.0
  0
LINE
  8
1
  6
HIDDEN
 62
   120
  5
31E
 10
321.29275
 20
101.45125
 30
0.0
 11
321.29275
 21
100.45125
 31
0.0
  0
LINE
  8
1
  6
HIDDEN
 62
   120
  5
31F
 10
324.79275
 20
101.45125
 30
0.0
 11
324.79275
 21
100.45125
 31
0.0
  0
LINE
  8
1
  6
HIDDEN
 62
   120
  5
320
 10
321.29275
 20
105.20125
 30
0.0
 11
321.29275
 21
104.20125
 31
0.0
  0
LINE
  8
1
  6
HIDDEN
 62
   120
  5
321
 10
324.79275
 20
104.20125
 30
0.0
 11
321.29275
 21
104.20125
 31
0.0
  0
LINE
  8
1
  6
HIDDEN
 62
   120
  5
322
 10
324.79275
 20
105.20125
 30
0.0
 11
321.29275
 21
105.20125
 31
0.0
  0
LINE
  8
1
  6
HIDDEN
 62
   120
  5
323
 10
324.79275
 20
105.20125
 30
0.0
 11
324.79275
 21
104.20125
 31
0.0
  0
LINE
  8
1
  6
CONTINUOUS
 62
   120
  5
324
 10
298.29275
 20
81.95125
 30
0.0
 11
302.29275
 21
81.95125
 31
0.0
  0
LINE
  8
1
  6
CONTINUOUS
 62
   120
  5
325
 10
303.79275
 20
81.95125
 30
0.0
 11
307.79275
 21
81.95125
 31
0.0
  0
LINE
  8
1
  6
CONTINUOUS
 62
   120
  5
326
 10
318.29275
 20
81.95125
 30
0.0
 11
322.29275
 21
81.95125
 31
0.0
  0
LINE
  8
1
  6
CONTINUOUS
 62
   120
  5
327
 10
323.79275
 20
81.95125
 30
0.0
 11
327.79275
 21
81.95125
 31
0.0
  0
LINE
  8
1
  6
CONTINUOUS
 62
   120
  5
328
 10
302.29275
 20
81.95125
 30
0.0
 11
302.63475
 21
82.890917
 31
0.0
  0
LINE
  8
1
  6
CONTINUOUS
 62
   120
  5
329
 10
303.79275
 20
81.95125
 30
0.0
 11
303.45075
 21
81.011583
 31
0.0
  0
LINE
  8
1
  6
CONTINUOUS
 62
   120
  5
32A
 10
303.45075
 20
81.011583
 30
0.0
 11
302.63475
 21
82.890917
 31
0.0
  0
LINE
  8
1
  6
CONTINUOUS
 62
   120
  5
32B
 10
323.79275
 20
81.95125
 30
0.0
 11
323.45075
 21
81.011583
 31
0.0
  0
LINE
  8
1
  6
CONTINUOUS
 62
   120
  5
32C
 10
322.29275
 20
81.95125
 30
0.0
 11
322.63475
 21
82.890917
 31
0.0
  0
LINE
  8
1
  6
CONTINUOUS
 62
   120
  5
32D
 10
323.45075
 20
81.011583
 30
0.0
 11
322.63475
 21
82.890917
 31
0.0
  0
LINE
  8
1
  6
CONTINUOUS
 62
     7
  5
32E
 10
303.04275
 20
95.45125
 30
0.0
 11
303.04275
 21
91.95125
 31
0.0
  0
LINE
  8
1
  6
CONTINUOUS
 62
     7
  5
32F
 10
303.04275
 20
90.45125
 30
0.0
 11
303.04275
 21
88.45125
 31
0.0
  0
LINE
  8
1
  6
CONTINUOUS
 62
     7
  5
330
 10
303.04275
 20
86.95125
 30
0.0
 11
303.04275
 21
83.45125
 31
0.0
  0
LINE
  8
1
  6
CONTINUOUS
 62
     7
  5
331
 10
323.04275
 20
95.45125
 30
0.0
 11
323.04275
 21
91.95125
 31
0.0
  0
LINE
  8
1
  6
CONTINUOUS
 62
     7
  5
332
 10
323.04275
 20
90.45125
 30
0.0
 11
323.04275
 21
88.45125
 31
0.0
  0
LINE
  8
1
  6
CONTINUOUS
 62
     7
  5
333
 10
323.04275
 20
86.95125
 30
0.0
 11
323.04275
 21
83.45125
 31
0.0
  0
LINE
  8
1
  6
CONTINUOUS
 62
     7
  5
334
 10
303.04275
 20
89.45125
 30
0.0
 11
323.04275
 21
89.45125
 31
0.0
  0
INSERT
  8
1
  6
CONTINUOUS
 62
     1
  5
335
  2
LDR
 10
303.04275
 20
89.45125
 30
0.0
 41
240.0
 42
240.0
 50
180.0
210
0.0
220
0.0
230
1.0
  0
INSERT
  8
1
  6
CONTINUOUS
 62
     1
  5
336
  2
LDR
 10
323.04275
 20
89.45125
 30
0.0
 41
240.0
 42
240.0
210
0.0
220
0.0
230
1.0
  0
LINE
  8
1
  6
CONTINUOUS
 62
     7
  5
337
 10
273.29275
 20
95.95125
 30
0.0
 11
273.29275
 21
88.45125
 31
0.0
  0
LINE
  8
1
  6
CONTINUOUS
 62
     7
  5
338
 10
332.79275
 20
95.95125
 30
0.0
 11
332.79275
 21
88.45125
 31
0.0
  0
LINE
  8
1
  6
CONTINUOUS
 62
     7
  5
339
 10
273.29275
 20
89.45125
 30
0.0
 11
269.29275
 21
89.45125
 31
0.0
  0
LINE
  8
1
  6
CONTINUOUS
 62
     7
  5
33A
 10
332.79275
 20
89.45125
 30
0.0
 11
336.79275
 21
89.45125
 31
0.0
  0
INSERT
  8
1
  6
CONTINUOUS
 62
     1
  5
33B
  2
LDR
 10
273.29275
 20
89.45125
 30
0.0
 41
240.0
 42
240.0
210
0.0
220
0.0
230
1.0
  0
INSERT
  8
1
  6
CONTINUOUS
 62
     1
  5
33C
  2
LDR
 10
273.29275
 20
89.45125
 30
0.0
 41
240.0
 42
240.0
210
0.0
220
0.0
230
1.0
  0
INSERT
  8
1
  6
CONTINUOUS
 62
     1
  5
33D
  2
LDR
 10
332.79275
 20
89.45125
 30
0.0
 41
240.0
 42
240.0
 50
180.0
210
0.0
220
0.0
230
1.0
  0
LINE
  8
1
  6
CONTINUOUS
 62
     7
  5
33E
 10
333.79275
 20
113.95125
 30
0.0
 11
344.79275
 21
113.95125
 31
0.0
  0
LINE
  8
1
  6
CONTINUOUS
 62
     7
  5
33F
 10
333.79275
 20
96.95125
 30
0.0
 11
344.79275
 21
96.95125
 31
0.0
  0
LINE
  8
1
  6
CONTINUOUS
 62
     7
  5
340
 10
343.79275
 20
113.95125
 30
0.0
 11
343.79275
 21
96.95125
 31
0.0
  0
INSERT
  8
1
  6
CONTINUOUS
 62
     1
  5
341
  2
LDR
 10
343.79275
 20
113.95125
 30
0.0
 41
240.0
 42
240.0
 50
90.0
210
0.0
220
0.0
230
1.0
  0
INSERT
  8
1
  6
CONTINUOUS
 62
     1
  5
342
  2
LDR
 10
343.79275
 20
96.95125
 30
0.0
 41
240.0
 42
240.0
 50
270.0
210
0.0
220
0.0
230
1.0
  0
LINE
  8
1
  6
CONTINUOUS
 62
     7
  5
343
 10
273.29275
 20
114.95125
 30
0.0
 11
273.29275
 21
123.95125
 31
0.0
  0
LINE
  8
1
  6
CONTINUOUS
 62
     7
  5
344
 10
332.79275
 20
114.95125
 30
0.0
 11
332.79275
 21
123.95125
 31
0.0
  0
LINE
  8
1
  6
CONTINUOUS
 62
     7
  5
345
 10
273.29275
 20
122.95125
 30
0.0
 11
332.79275
 21
122.95125
 31
0.0
  0
INSERT
  8
1
  6
CONTINUOUS
 62
     1
  5
346
  2
LDR
 10
332.79275
 20
122.95125
 30
0.0
 41
240.0
 42
240.0
210
0.0
220
0.0
230
1.0
  0
LINE
  8
1
  6
HIDDEN
 62
   120
  5
347
 10
283.79275
 20
96.95125
 30
0.0
 11
283.79275
 21
113.95125
 31
0.0
  0
LINE
  8
1
  6
CONTINUOUS
 62
   120
  5
348
 10
283.79275
 20
96.95125
 30
0.0
 11
283.79275
 21
81.95125
 31
0.0
  0
LINE
  8
1
  6
HIDDEN
 62
   120
  5
349
 10
282.29275
 20
96.95125
 30
0.0
 11
282.29275
 21
113.95125
 31
0.0
  0
LINE
  8
1
  6
CONTINUOUS
 62
   120
  5
34A
 10
282.29275
 20
96.95125
 30
0.0
 11
282.29275
 21
81.95125
 31
0.0
  0
LINE
  8
1
  6
CONTINUOUS
 62
   120
  5
34B
 10
273.29275
 20
96.95125
 30
0.0
 11
273.29275
 21
113.95125
 31
0.0
  0
LINE
  8
1
  6
CONTINUOUS
 62
     7
  5
34C
 10
283.04275
 20
95.45125
 30
0.0
 11
283.04275
 21
91.95125
 31
0.0
  0
LINE
  8
1
  6
CONTINUOUS
 62
     7
  5
34D
 10
283.04275
 20
90.45125
 30
0.0
 11
283.04275
 21
88.45125
 31
0.0
  0
LINE
  8
1
  6
CONTINUOUS
 62
     7
  5
34E
 10
283.04275
 20
86.95125
 30
0.0
 11
283.04275
 21
83.45125
 31
0.0
  0
LINE
  8
1
  6
CONTINUOUS
 62
   120
  5
34F
 10
283.79275
 20
81.95125
 30
0.0
 11
287.79275
 21
81.95125
 31
0.0
  0
LINE
  8
1
  6
CONTINUOUS
 62
   120
  5
350
 10
278.29275
 20
81.95125
 30
0.0
 11
282.29275
 21
81.95125
 31
0.0
  0
LINE
  8
1
  6
CONTINUOUS
 62
   120
  5
351
 10
282.29275
 20
81.95125
 30
0.0
 11
282.63475
 21
82.890917
 31
0.0
  0
LINE
  8
1
  6
CONTINUOUS
 62
   120
  5
352
 10
283.79275
 20
81.95125
 30
0.0
 11
283.45075
 21
81.011583
 31
0.0
  0
LINE
  8
1
  6
CONTINUOUS
 62
   120
  5
353
 10
283.45075
 20
81.011583
 30
0.0
 11
282.63475
 21
82.890917
 31
0.0
  0
LINE
  8
1
  6
CONTINUOUS
 62
     7
  5
354
 10
303.04275
 20
89.45125
 30
0.0
 11
283.04275
 21
89.45125
 31
0.0
  0
INSERT
  8
1
  6
CONTINUOUS
 62
     1
  5
355
  2
LDR
 10
303.04275
 20
89.45125
 30
0.0
 41
240.0
 42
240.0
210
0.0
220
0.0
230
1.0
  0
INSERT
  8
1
  6
CONTINUOUS
 62
     1
  5
356
  2
LDR
 10
303.04275
 20
89.45125
 30
0.0
 41
240.0
 42
240.0
210
0.0
220
0.0
230
1.0
  0
INSERT
  8
1
  6
CONTINUOUS
 62
     1
  5
357
  2
LDR
 10
283.04275
 20
89.45125
 30
0.0
 41
240.0
 42
240.0
 50
180.0
210
0.0
220
0.0
230
1.0
  0
INSERT
  8
1
  6
CONTINUOUS
 62
     1
  5
358
  2
LDR
 10
273.29275
 20
122.95125
 30
0.0
 41
240.0
 42
240.0
 50
180.0
210
0.0
220
0.0
230
1.0
  0
LINE
  8
1
  6
HIDDEN
 62
   120
  5
359
 10
281.29275
 20
107.95125
 30
0.0
 11
284.79275
 21
107.95125
 31
0.0
  0
LINE
  8
1
  6
HIDDEN
 62
   120
  5
35A
 10
281.29275
 20
108.95125
 30
0.0
 11
284.79275
 21
108.95125
 31
0.0
  0
LINE
  8
1
  6
HIDDEN
 62
   120
  5
35B
 10
281.29275
 20
108.95125
 30
0.0
 11
281.29275
 21
107.95125
 31
0.0
  0
LINE
  8
1
  6
HIDDEN
 62
   120
  5
35C
 10
284.79275
 20
100.45125
 30
0.0
 11
281.29275
 21
100.45125
 31
0.0
  0
LINE
  8
1
  6
HIDDEN
 62
   120
  5
35D
 10
284.79275
 20
101.45125
 30
0.0
 11
281.29275
 21
101.45125
 31
0.0
  0
LINE
  8
1
  6
HIDDEN
 62
   120
  5
35E
 10
281.29275
 20
101.45125
 30
0.0
 11
281.29275
 21
100.45125
 31
0.0
  0
LINE
  8
1
  6
HIDDEN
 62
   120
  5
35F
 10
284.79275
 20
101.45125
 30
0.0
 11
284.79275
 21
100.45125
 31
0.0
  0
LINE
  8
1
  6
HIDDEN
 62
   120
  5
360
 10
284.79275
 20
108.95125
 30
0.0
 11
284.79275
 21
107.95125
 31
0.0
  0
TEXT
  8
1
  6
CONTINUOUS
 62
     7
  5
361
 10
186.545333
 20
123.975
 30
0.0
 40
2.5
  1
"L" LENGTH
  7
MONOTXT
 72
     4
 11
197.539333
 21
125.225
 31
0.0
210
0.0
220
0.0
230
1.0
  0
TEXT
  8
1
  6
CONTINUOUS
 62
     7
  5
362
 10
291.130917
 20
123.821333
 30
0.0
 40
2.5
  1
"L" LENGTH
  7
MONOTXT
 72
     4
 11
302.124917
 21
125.071333
 31
0.0
210
0.0
220
0.0
230
1.0
  0
TEXT
  8
1
  6
CONTINUOUS
 62
     7
  5
363
 10
230.0545
 20
104.157167
 30
0.0
 40
2.5
  1
"W" WIDTH
  7
MONOTXT
 72
     4
 11
239.9265
 21
105.407167
 31
0.0
210
0.0
220
0.0
230
1.0
  0
TEXT
  8
1
  6
CONTINUOUS
 62
     7
  5
364
 10
178.81375
 20
87.872667
 30
0.0
 40
2.5
  1
.20L
  7
MONOTXT
 72
     4
 11
182.642417
 21
89.122667
 31
0.0
210
0.0
220
0.0
230
1.0
  0
TEXT
  8
1
  6
CONTINUOUS
 62
     7
  5
365
 10
209.3755
 20
88.333583
 30
0.0
 40
2.5
  1
.20L
  7
MONOTXT
 72
     4
 11
213.204167
 21
89.583583
 31
0.0
210
0.0
220
0.0
230
1.0
  0
TEXT
  8
1
  6
CONTINUOUS
 62
     7
  5
366
 10
193.76975
 20
90.33075
 30
0.0
 40
2.5
  1
.60L
  7
MONOTXT
 72
     4
 11
197.539417
 21
91.58075
 31
0.0
210
0.0
220
0.0
230
1.0
  0
TEXT
  8
1
  6
CONTINUOUS
 62
     7
  5
367
 10
274.338167
 20
88.247833
 30
0.0
 40
2.5
  1
.14L
  7
MONOTXT
 72
     4
 11
277.694417
 21
89.497833
 31
0.0
210
0.0
220
0.0
230
1.0
  0
TEXT
  8
1
  6
CONTINUOUS
 62
     7
  5
368
 10
324.77325
 20
88.436833
 30
0.0
 40
2.5
  1
.14L
  7
MONOTXT
 72
     4
 11
328.1295
 21
89.686833
 31
0.0
210
0.0
220
0.0
230
1.0
  0
TEXT
  8
1
  6
CONTINUOUS
 62
     7
  5
369
 10
160.281917
 20
69.185
 30
0.0
 40
3.5
  1
POST SPACING AND CLAMP SPACING DETAIL
  7
MONOTXT
 72
     4
 11
220.56725
 21
70.935
 31
0.0
210
0.0
220
0.0
230
1.0
  0
LINE
  8
1
  6
CONTINUOUS
 62
     7
  5
36A
 10
158.497
 20
67.80875
 30
0.0
 11
282.535833
 21
67.80875
 31
0.0
  0
LINE
  8
1
  6
CONTINUOUS
 62
     2
  5
36B
 10
397.206083
 20
177.733
 30
0.0
 11
397.206083
 21
128.733
 31
0.0
  0
LINE
  8
1
  6
CONTINUOUS
 62
     2
  5
36C
 10
400.206083
 20
177.733
 30
0.0
 11
400.206083
 21
128.733
 31
0.0
  0
LINE
  8
1
  6
CONTINUOUS
 62
     2
  5
36D
 10
395.706083
 20
172.233
 30
0.0
 11
395.706083
 21
134.233
 31
0.0
  0
LINE
  8
1
  6
CONTINUOUS
 62
     2
  5
36E
 10
395.706083
 20
172.233
 30
0.0
 11
397.206083
 21
172.233
 31
0.0
  0
LINE
  8
1
  6
CONTINUOUS
 62
     2
  5
36F
 10
395.706083
 20
134.233
 30
0.0
 11
397.206083
 21
134.233
 31
0.0
  0
LINE
  8
1
  6
CONTINUOUS
 62
     2
  5
370
 10
394.706083
 20
168.233
 30
0.0
 11
395.706083
 21
168.233
 31
0.0
  0
LINE
  8
1
  6
CONTINUOUS
 62
     2
  5
371
 10
394.706083
 20
138.233
 30
0.0
 11
395.706083
 21
138.233
 31
0.0
  0
LINE
  8
1
  6
CONTINUOUS
 62
     2
  5
372
 10
394.706083
 20
168.233
 30
0.0
 11
394.706083
 21
157.983
 31
0.0
  0
LINE
  8
1
  6
CONTINUOUS
 62
     2
  5
373
 10
394.706083
 20
148.483
 30
0.0
 11
394.706083
 21
138.233
 31
0.0
  0
LINE
  8
1
  6
CONTINUOUS
 62
     2
  5
374
 10
394.706083
 20
157.983
 30
0.0
 11
395.706083
 21
157.983
 31
0.0
  0
LINE
  8
1
  6
CONTINUOUS
 62
     2
  5
375
 10
394.706083
 20
148.483
 30
0.0
 11
395.706083
 21
148.483
 31
0.0
  0
LINE
  8
1
  6
CONTINUOUS
 62
     2
  5
376
 10
394.706083
 20
167.233
 30
0.0
 11
390.706083
 21
167.233
 31
0.0
  0
LINE
  8
1
  6
CONTINUOUS
 62
     2
  5
377
 10
394.706083
 20
158.983
 30
0.0
 11
390.706083
 21
158.983
 31
0.0
  0
LINE
  8
1
  6
CONTINUOUS
 62
     2
  5
378
 10
394.706083
 20
147.483
 30
0.0
 11
390.706083
 21
147.483
 31
0.0
  0
LINE
  8
1
  6
CONTINUOUS
 62
     2
  5
379
 10
394.706083
 20
139.233
 30
0.0
 11
390.706083
 21
139.233
 31
0.0
  0
LINE
  8
1
  6
CONTINUOUS
 62
     2
  5
37A
 10
394.706083
 20
165.233
 30
0.0
 11
390.706083
 21
165.233
 31
0.0
  0
LINE
  8
1
  6
CONTINUOUS
 62
     2
  5
37B
 10
394.706083
 20
160.983
 30
0.0
 11
390.706083
 21
160.983
 31
0.0
  0
LINE
  8
1
  6
CONTINUOUS
 62
     2
  5
37C
 10
394.706083
 20
145.483
 30
0.0
 11
390.706083
 21
145.483
 31
0.0
  0
LINE
  8
1
  6
CONTINUOUS
 62
     2
  5
37D
 10
394.706083
 20
141.233
 30
0.0
 11
390.706083
 21
141.233
 31
0.0
  0
ARC
  8
1
  6
CONTINUOUS
 62
     2
  5
37E
 10
392.463896
 20
163.108
 30
0.0
 40
2.757813
 50
129.597753
 51
230.402247
210
0.0
220
0.0
230
1.0
  0
ARC
  8
1
  6
CONTINUOUS
 62
     2
  5
37F
 10
390.663218
 20
166.233
 30
0.0
 40
1.000918
 50
87.545528
 51
272.454475
210
0.0
220
0.0
230
1.0
  0
ARC
  8
1
  6
CONTINUOUS
 62
     2
  5
380
 10
390.663218
 20
159.983
 30
0.0
 40
1.000918
 50
87.545528
 51
272.454475
210
0.0
220
0.0
230
1.0
  0
LINE
  8
1
  6
CONTINUOUS
 62
     2
  5
381
 10
389.662333
 20
166.233
 30
0.0
 11
389.662333
 21
159.983
 31
0.0
  0
ARC
  8
1
  6
CONTINUOUS
 62
     2
  5
382
 10
390.663218
 20
140.233
 30
0.0
 40
1.000918
 50
87.545528
 51
272.454475
210
0.0
220
0.0
230
1.0
  0
ARC
  8
1
  6
CONTINUOUS
 62
     2
  5
383
 10
392.463896
 20
143.358
 30
0.0
 40
2.757813
 50
129.597753
 51
230.402247
210
0.0
220
0.0
230
1.0
  0
ARC
  8
1
  6
CONTINUOUS
 62
     2
  5
384
 10
390.663218
 20
146.483
 30
0.0
 40
1.000918
 50
87.545528
 51
272.454475
210
0.0
220
0.0
230
1.0
  0
LINE
  8
1
  6
CONTINUOUS
 62
     2
  5
385
 10
389.662333
 20
146.483
 30
0.0
 11
389.662333
 21
140.233
 31
0.0
  0
LINE
  8
1
  6
CONTINUOUS
 62
     2
  5
386
 10
406.249833
 20
166.233
 30
0.0
 11
406.249833
 21
159.983
 31
0.0
  0
LINE
  8
1
  6
CONTINUOUS
 62
     2
  5
387
 10
401.206083
 20
168.233
 30
0.0
 11
400.206083
 21
168.233
 31
0.0
  0
LINE
  8
1
  6
CONTINUOUS
 62
     2
  5
388
 10
401.206083
 20
138.233
 30
0.0
 11
400.206083
 21
138.233
 31
0.0
  0
LINE
  8
1
  6
CONTINUOUS
 62
     2
  5
389
 10
401.206083
 20
168.233
 30
0.0
 11
401.206083
 21
157.983
 31
0.0
  0
LINE
  8
1
  6
CONTINUOUS
 62
     2
  5
38A
 10
401.206083
 20
148.483
 30
0.0
 11
401.206083
 21
138.233
 31
0.0
  0
LINE
  8
1
  6
CONTINUOUS
 62
     2
  5
38B
 10
401.206083
 20
157.983
 30
0.0
 11
400.206083
 21
157.983
 31
0.0
  0
LINE
  8
1
  6
CONTINUOUS
 62
     2
  5
38C
 10
401.206083
 20
148.483
 30
0.0
 11
400.206083
 21
148.483
 31
0.0
  0
LINE
  8
1
  6
CONTINUOUS
 62
     2
  5
38D
 10
401.206083
 20
167.233
 30
0.0
 11
405.206083
 21
167.233
 31
0.0
  0
LINE
  8
1
  6
CONTINUOUS
 62
     2
  5
38E
 10
401.206083
 20
158.983
 30
0.0
 11
405.206083
 21
158.983
 31
0.0
  0
LINE
  8
1
  6
CONTINUOUS
 62
     2
  5
38F
 10
401.206083
 20
147.483
 30
0.0
 11
405.206083
 21
147.483
 31
0.0
  0
LINE
  8
1
  6
CONTINUOUS
 62
     2
  5
390
 10
401.206083
 20
139.233
 30
0.0
 11
405.206083
 21
139.233
 31
0.0
  0
LINE
  8
1
  6
CONTINUOUS
 62
     2
  5
391
 10
401.206083
 20
165.233
 30
0.0
 11
405.206083
 21
165.233
 31
0.0
  0
LINE
  8
1
  6
CONTINUOUS
 62
     2
  5
392
 10
401.206083
 20
160.983
 30
0.0
 11
405.206083
 21
160.983
 31
0.0
  0
LINE
  8
1
  6
CONTINUOUS
 62
     2
  5
393
 10
401.206083
 20
145.483
 30
0.0
 11
405.206083
 21
145.483
 31
0.0
  0
LINE
  8
1
  6
CONTINUOUS
 62
     2
  5
394
 10
401.206083
 20
141.233
 30
0.0
 11
405.206083
 21
141.233
 31
0.0
  0
ARC
  8
1
  6
CONTINUOUS
 62
     2
  5
395
 10
403.448271
 20
163.108
 30
0.0
 40
2.757813
 50
309.597753
 51
50.402247
210
0.0
220
0.0
230
1.0
  0
ARC
  8
1
  6
CONTINUOUS
 62
     2
  5
396
 10
405.248948
 20
166.233
 30
0.0
 40
1.000918
 50
267.545525
 51
92.454472
210
0.0
220
0.0
230
1.0
  0
ARC
  8
1
  6
CONTINUOUS
 62
     2
  5
397
 10
405.248948
 20
159.983
 30
0.0
 40
1.000918
 50
267.545525
 51
92.454472
210
0.0
220
0.0
230
1.0
  0
ARC
  8
1
  6
CONTINUOUS
 62
     2
  5
398
 10
405.248948
 20
140.233
 30
0.0
 40
1.000918
 50
267.545525
 51
92.454472
210
0.0
220
0.0
230
1.0
  0
ARC
  8
1
  6
CONTINUOUS
 62
     2
  5
399
 10
403.448271
 20
143.358
 30
0.0
 40
2.757813
 50
309.597753
 51
50.402247
210
0.0
220
0.0
230
1.0
  0
ARC
  8
1
  6
CONTINUOUS
 62
     2
  5
39A
 10
405.248948
 20
146.483
 30
0.0
 40
1.000918
 50
267.545525
 51
92.454472
210
0.0
220
0.0
230
1.0
  0
LINE
  8
1
  6
CONTINUOUS
 62
     2
  5
39B
 10
406.249833
 20
146.483
 30
0.0
 11
406.249833
 21
140.233
 31
0.0
  0
LINE
  8
1
  6
CONTINUOUS
 62
     2
  5
39C
 10
406.249833
 20
165.233
 30
0.0
 11
410.206083
 21
165.233
 31
0.0
  0
LINE
  8
1
  6
CONTINUOUS
 62
     2
  5
39D
 10
406.249833
 20
160.983
 30
0.0
 11
410.206083
 21
160.983
 31
0.0
  0
LINE
  8
1
  6
CONTINUOUS
 62
     2
  5
39E
 10
410.206083
 20
165.233
 30
0.0
 11
410.206083
 21
160.983
 31
0.0
  0
LINE
  8
1
  6
CONTINUOUS
 62
     2
  5
39F
 10
408.956083
 20
165.233
 30
0.0
 11
408.956083
 21
160.983
 31
0.0
  0
LINE
  8
1
  6
CONTINUOUS
 62
     2
  5
3A0
 10
407.706083
 20
165.233
 30
0.0
 11
407.706083
 21
160.983
 31
0.0
  0
LINE
  8
1
  6
CONTINUOUS
 62
     2
  5
3A1
 10
406.456083
 20
165.233
 30
0.0
 11
406.456083
 21
160.983
 31
0.0
  0
LINE
  8
1
  6
CONTINUOUS
 62
     2
  5
3A2
 10
411.206083
 20
164.358
 30
0.0
 11
411.206083
 21
161.858
 31
0.0
  0
LINE
  8
1
  6
CONTINUOUS
 62
     2
  5
3A3
 10
410.206083
 20
165.233
 30
0.0
 11
411.206083
 21
164.358
 31
0.0
  0
LINE
  8
1
  6
CONTINUOUS
 62
     2
  5
3A4
 10
411.206083
 20
161.858
 30
0.0
 11
410.206083
 21
160.983
 31
0.0
  0
LINE
  8
1
  6
CONTINUOUS
 62
     2
  5
3A5
 10
409.581083
 20
164.233
 30
0.0
 11
409.581083
 21
161.983
 31
0.0
  0
LINE
  8
1
  6
CONTINUOUS
 62
     2
  5
3A6
 10
408.331083
 20
164.233
 30
0.0
 11
408.331083
 21
161.983
 31
0.0
  0
LINE
  8
1
  6
CONTINUOUS
 62
     2
  5
3A7
 10
407.081083
 20
164.233
 30
0.0
 11
407.081083
 21
161.983
 31
0.0
  0
LINE
  8
1
  6
HIDDEN
 62
     2
  5
3A8
 10
395.706083
 20
165.233
 30
0.0
 11
400.206083
 21
165.233
 31
0.0
  0
LINE
  8
1
  6
HIDDEN
 62
     2
  5
3A9
 10
395.706083
 20
160.983
 30
0.0
 11
400.206083
 21
160.983
 31
0.0
  0
LINE
  8
1
  6
HIDDEN
 62
     2
  5
3AA
 10
395.706083
 20
156.983
 30
0.0
 11
397.206083
 21
156.983
 31
0.0
  0
LINE
  8
1
  6
HIDDEN
 62
     2
  5
3AB
 10
395.706083
 20
149.483
 30
0.0
 11
397.206083
 21
149.483
 31
0.0
  0
LINE
  8
1
  6
HIDDEN
 62
     2
  5
3AC
 10
395.706083
 20
145.483
 30
0.0
 11
400.206083
 21
145.483
 31
0.0
  0
LINE
  8
1
  6
HIDDEN
 62
     2
  5
3AD
 10
395.706083
 20
141.233
 30
0.0
 11
400.206083
 21
141.233
 31
0.0
  0
LINE
  8
1
  6
CONTINUOUS
 62
     2
  5
3AE
 10
406.249833
 20
141.233
 30
0.0
 11
410.206083
 21
141.233
 31
0.0
  0
LINE
  8
1
  6
CONTINUOUS
 62
     2
  5
3AF
 10
406.249833
 20
145.483
 30
0.0
 11
410.206083
 21
145.483
 31
0.0
  0
LINE
  8
1
  6
CONTINUOUS
 62
     2
  5
3B0
 10
410.206083
 20
145.483
 30
0.0
 11
410.206083
 21
141.233
 31
0.0
  0
LINE
  8
1
  6
CONTINUOUS
 62
     2
  5
3B1
 10
408.956083
 20
145.483
 30
0.0
 11
408.956083
 21
141.233
 31
0.0
  0
LINE
  8
1
  6
CONTINUOUS
 62
     2
  5
3B2
 10
407.706083
 20
145.483
 30
0.0
 11
407.706083
 21
141.233
 31
0.0
  0
LINE
  8
1
  6
CONTINUOUS
 62
     2
  5
3B3
 10
406.456083
 20
145.483
 30
0.0
 11
406.456083
 21
141.233
 31
0.0
  0
LINE
  8
1
  6
CONTINUOUS
 62
     2
  5
3B4
 10
411.206083
 20
144.608
 30
0.0
 11
411.206083
 21
142.108
 31
0.0
  0
LINE
  8
1
  6
CONTINUOUS
 62
     2
  5
3B5
 10
410.206083
 20
145.483
 30
0.0
 11
411.206083
 21
144.608
 31
0.0
  0
LINE
  8
1
  6
CONTINUOUS
 62
     2
  5
3B6
 10
411.206083
 20
142.108
 30
0.0
 11
410.206083
 21
141.233
 31
0.0
  0
LINE
  8
1
  6
CONTINUOUS
 62
     2
  5
3B7
 10
409.581083
 20
144.483
 30
0.0
 11
409.581083
 21
142.233
 31
0.0
  0
LINE
  8
1
  6
CONTINUOUS
 62
     2
  5
3B8
 10
408.331083
 20
144.483
 30
0.0
 11
408.331083
 21
142.233
 31
0.0
  0
LINE
  8
1
  6
CONTINUOUS
 62
     2
  5
3B9
 10
407.081083
 20
144.483
 30
0.0
 11
407.081083
 21
142.233
 31
0.0
  0
LINE
  8
1
  6
CONTINUOUS
 62
     7
  5
3BA
 10
385.162333
 20
163.108
 30
0.0
 11
391.162333
 21
163.108
 31
0.0
  0
LINE
  8
1
  6
CONTINUOUS
 62
     7
  5
3BB
 10
391.662333
 20
163.108
 30
0.0
 11
392.662333
 21
163.108
 31
0.0
  0
LINE
  8
1
  6
CONTINUOUS
 62
     7
  5
3BC
 10
393.162333
 20
163.108
 30
0.0
 11
402.706083
 21
163.108
 31
0.0
  0
LINE
  8
1
  6
CONTINUOUS
 62
     7
  5
3BD
 10
403.206083
 20
163.108
 30
0.0
 11
404.206083
 21
163.108
 31
0.0
  0
LINE
  8
1
  6
CONTINUOUS
 62
     7
  5
3BE
 10
404.706083
 20
163.108
 30
0.0
 11
415.706083
 21
163.108
 31
0.0
  0
LINE
  8
1
  6
CONTINUOUS
 62
     7
  5
3BF
 10
385.162333
 20
143.358
 30
0.0
 11
391.162333
 21
143.358
 31
0.0
  0
LINE
  8
1
  6
CONTINUOUS
 62
     7
  5
3C0
 10
391.662333
 20
143.358
 30
0.0
 11
392.662333
 21
143.358
 31
0.0
  0
LINE
  8
1
  6
CONTINUOUS
 62
     7
  5
3C1
 10
393.162333
 20
143.358
 30
0.0
 11
402.706083
 21
143.358
 31
0.0
  0
LINE
  8
1
  6
CONTINUOUS
 62
     7
  5
3C2
 10
403.206083
 20
143.358
 30
0.0
 11
404.206083
 21
143.358
 31
0.0
  0
LINE
  8
1
  6
CONTINUOUS
 62
     7
  5
3C3
 10
404.706083
 20
143.358
 30
0.0
 11
415.706083
 21
143.358
 31
0.0
  0
INSERT
  8
1
  6
CONTINUOUS
 62
     1
  5
3C4
  2
LDR
 10
386.162333
 20
163.108
 30
0.0
 41
240.0
 42
240.0
 50
90.0
210
0.0
220
0.0
230
1.0
  0
INSERT
  8
1
  6
CONTINUOUS
 62
     1
  5
3C5
  2
LDR
 10
386.162333
 20
163.108
 30
0.0
 41
240.0
 42
240.0
 50
90.0
210
0.0
220
0.0
230
1.0
  0
INSERT
  8
1
  6
CONTINUOUS
 62
     1
  5
3C6
  2
LDR
 10
386.162333
 20
143.358
 30
0.0
 41
240.0
 42
240.0
 50
270.0
210
0.0
220
0.0
230
1.0
  0
LINE
  8
1
  6
CONTINUOUS
 62
     7
  5
3C7
 10
391.706083
 20
170.733
 30
0.0
 11
395.706083
 21
170.733
 31
0.0
  0
LINE
  8
1
  6
CONTINUOUS
 62
     7
  5
3C8
 10
397.206083
 20
170.733
 30
0.0
 11
401.206083
 21
170.733
 31
0.0
  0
INSERT
  8
1
  6
CONTINUOUS
 62
     1
  5
3C9
  2
LDR
 10
395.706083
 20
170.733
 30
0.0
 41
240.0
 42
240.0
210
0.0
220
0.0
230
1.0
  0
INSERT
  8
1
  6
CONTINUOUS
 62
     1
  5
3CA
  2
LDR
 10
395.706083
 20
170.733
 30
0.0
 41
240.0
 42
240.0
210
0.0
220
0.0
230
1.0
  0
INSERT
  8
1
  6
CONTINUOUS
 62
     1
  5
3CB
  2
LDR
 10
397.206083
 20
170.733
 30
0.0
 41
240.0
 42
240.0
 50
180.0
210
0.0
220
0.0
230
1.0
  0
LINE
  8
1
  6
CONTINUOUS
 62
     7
  5
3CC
 10
396.456083
 20
134.233
 30
0.0
 11
395.121083
 21
130.856083
 31
0.0
  0
LINE
  8
1
  6
CONTINUOUS
 62
     7
  5
3CD
 10
395.121083
 20
130.856083
 30
0.0
 11
388.079833
 21
130.856083
 31
0.0
  0
INSERT
  8
1
  6
CONTINUOUS
 62
     1
  5
3CE
  2
LDR
 10
396.456083
 20
134.233
 30
0.0
 41
239.999998
 42
239.999998
 50
68.429961
210
0.0
220
0.0
230
1.0
  0
LINE
  8
1
  6
CONTINUOUS
 62
     7
  5
3CF
 10
386.162333
 20
163.108
 30
0.0
 11
386.162333
 21
153.233
 31
0.0
  0
LINE
  8
1
  6
CONTINUOUS
 62
     7
  5
3D0
 10
386.162333
 20
153.233
 30
0.0
 11
386.162333
 21
143.358
 31
0.0
  0
INSERT
  8
1
  6
CONTINUOUS
 62
     1
  5
3D1
  2
LDR
 10
386.162333
 20
153.233
 30
0.0
 41
240.0
 42
240.0
 50
270.0
210
0.0
220
0.0
230
1.0
  0
INSERT
  8
1
  6
CONTINUOUS
 62
     1
  5
3D2
  2
LDR
 10
386.162333
 20
153.233
 30
0.0
 41
240.0
 42
240.0
 50
270.0
210
0.0
220
0.0
230
1.0
  0
INSERT
  8
1
  6
CONTINUOUS
 62
     1
  5
3D3
  2
LDR
 10
386.162333
 20
153.233
 30
0.0
 41
240.0
 42
240.0
 50
90.0
210
0.0
220
0.0
230
1.0
  0
LINE
  8
1
  6
CONTINUOUS
 62
     7
  5
3D4
 10
385.162333
 20
153.233
 30
0.0
 11
401.162333
 21
153.233
 31
0.0
  0
LINE
  8
1
  6
CONTINUOUS
 62
     7
  5
3D5
 10
401.662333
 20
153.233
 30
0.0
 11
402.662333
 21
153.233
 31
0.0
  0
LINE
  8
1
  6
CONTINUOUS
 62
     7
  5
3D6
 10
403.162333
 20
153.233
 30
0.0
 11
420.162333
 21
153.233
 31
0.0
  0
LINE
  8
1
  6
CONTINUOUS
 62
     7
  5
3D7
 10
420.662333
 20
153.233
 30
0.0
 11
421.662333
 21
153.233
 31
0.0
  0
LINE
  8
1
  6
CONTINUOUS
 62
     7
  5
3D8
 10
422.162333
 20
153.233
 30
0.0
 11
439.162333
 21
153.233
 31
0.0
  0
LINE
  8
1
  6
CONTINUOUS
 62
     2
  5
3D9
 10
445.118583
 20
177.733
 30
0.0
 11
445.118583
 21
128.733
 31
0.0
  0
LINE
  8
1
  6
CONTINUOUS
 62
     2
  5
3DA
 10
442.118583
 20
177.733
 30
0.0
 11
442.118583
 21
128.733
 31
0.0
  0
LINE
  8
1
  6
CONTINUOUS
 62
     2
  5
3DB
 10
446.618583
 20
172.233
 30
0.0
 11
446.618583
 21
134.233
 31
0.0
  0
LINE
  8
1
  6
CONTINUOUS
 62
     2
  5
3DC
 10
446.618583
 20
172.233
 30
0.0
 11
445.118583
 21
172.233
 31
0.0
  0
LINE
  8
1
  6
CONTINUOUS
 62
     2
  5
3DD
 10
446.618583
 20
134.233
 30
0.0
 11
445.118583
 21
134.233
 31
0.0
  0
LINE
  8
1
  6
CONTINUOUS
 62
     2
  5
3DE
 10
447.618583
 20
168.233
 30
0.0
 11
446.618583
 21
168.233
 31
0.0
  0
LINE
  8
1
  6
CONTINUOUS
 62
     2
  5
3DF
 10
447.618583
 20
138.233
 30
0.0
 11
446.618583
 21
138.233
 31
0.0
  0
LINE
  8
1
  6
CONTINUOUS
 62
     2
  5
3E0
 10
447.618583
 20
168.233
 30
0.0
 11
447.618583
 21
157.983
 31
0.0
  0
LINE
  8
1
  6
CONTINUOUS
 62
     2
  5
3E1
 10
447.618583
 20
148.483
 30
0.0
 11
447.618583
 21
138.233
 31
0.0
  0
LINE
  8
1
  6
CONTINUOUS
 62
     2
  5
3E2
 10
447.618583
 20
157.983
 30
0.0
 11
446.618583
 21
157.983
 31
0.0
  0
LINE
  8
1
  6
CONTINUOUS
 62
     2
  5
3E3
 10
447.618583
 20
148.483
 30
0.0
 11
446.618583
 21
148.483
 31
0.0
  0
LINE
  8
1
  6
CONTINUOUS
 62
     2
  5
3E4
 10
447.618583
 20
167.233
 30
0.0
 11
451.618583
 21
167.233
 31
0.0
  0
LINE
  8
1
  6
CONTINUOUS
 62
     2
  5
3E5
 10
447.618583
 20
158.983
 30
0.0
 11
451.618583
 21
158.983
 31
0.0
  0
LINE
  8
1
  6
CONTINUOUS
 62
     2
  5
3E6
 10
447.618583
 20
147.483
 30
0.0
 11
451.618583
 21
147.483
 31
0.0
  0
LINE
  8
1
  6
CONTINUOUS
 62
     2
  5
3E7
 10
447.618583
 20
139.233
 30
0.0
 11
451.618583
 21
139.233
 31
0.0
  0
LINE
  8
1
  6
CONTINUOUS
 62
     2
  5
3E8
 10
447.618583
 20
165.233
 30
0.0
 11
451.618583
 21
165.233
 31
0.0
  0
LINE
  8
1
  6
CONTINUOUS
 62
     2
  5
3E9
 10
447.618583
 20
160.983
 30
0.0
 11
451.618583
 21
160.983
 31
0.0
  0
LINE
  8
1
  6
CONTINUOUS
 62
     2
  5
3EA
 10
447.618583
 20
145.483
 30
0.0
 11
451.618583
 21
145.483
 31
0.0
  0
LINE
  8
1
  6
CONTINUOUS
 62
     2
  5
3EB
 10
447.618583
 20
141.233
 30
0.0
 11
451.618583
 21
141.233
 31
0.0
  0
ARC
  8
1
  6
CONTINUOUS
 62
     2
  5
3EC
 10
449.860771
 20
163.108
 30
0.0
 40
2.757813
 50
309.597753
 51
50.402247
210
0.0
220
0.0
230
1.0
  0
ARC
  8
1
  6
CONTINUOUS
 62
     2
  5
3ED
 10
451.661448
 20
166.233
 30
0.0
 40
1.000918
 50
267.545525
 51
92.454472
210
0.0
220
0.0
230
1.0
  0
ARC
  8
1
  6
CONTINUOUS
 62
     2
  5
3EE
 10
451.661448
 20
159.983
 30
0.0
 40
1.000918
 50
267.545525
 51
92.454472
210
0.0
220
0.0
230
1.0
  0
LINE
  8
1
  6
CONTINUOUS
 62
     2
  5
3EF
 10
452.662333
 20
166.233
 30
0.0
 11
452.662333
 21
159.983
 31
0.0
  0
ARC
  8
1
  6
CONTINUOUS
 62
     2
  5
3F0
 10
451.661448
 20
140.233
 30
0.0
 40
1.000918
 50
267.545525
 51
92.454472
210
0.0
220
0.0
230
1.0
  0
ARC
  8
1
  6
CONTINUOUS
 62
     2
  5
3F1
 10
449.860771
 20
143.358
 30
0.0
 40
2.757813
 50
309.597753
 51
50.402247
210
0.0
220
0.0
230
1.0
  0
ARC
  8
1
  6
CONTINUOUS
 62
     2
  5
3F2
 10
451.661448
 20
146.483
 30
0.0
 40
1.000918
 50
267.545525
 51
92.454472
210
0.0
220
0.0
230
1.0
  0
LINE
  8
1
  6
CONTINUOUS
 62
     2
  5
3F3
 10
452.662333
 20
146.483
 30
0.0
 11
452.662333
 21
140.233
 31
0.0
  0
LINE
  8
1
  6
CONTINUOUS
 62
     2
  5
3F4
 10
436.074833
 20
166.233
 30
0.0
 11
436.074833
 21
159.983
 31
0.0
  0
LINE
  8
1
  6
CONTINUOUS
 62
     2
  5
3F5
 10
441.118583
 20
168.233
 30
0.0
 11
442.118583
 21
168.233
 31
0.0
  0
LINE
  8
1
  6
CONTINUOUS
 62
     2
  5
3F6
 10
441.118583
 20
138.233
 30
0.0
 11
442.118583
 21
138.233
 31
0.0
  0
LINE
  8
1
  6
CONTINUOUS
 62
     2
  5
3F7
 10
441.118583
 20
168.233
 30
0.0
 11
441.118583
 21
157.983
 31
0.0
  0
LINE
  8
1
  6
CONTINUOUS
 62
     2
  5
3F8
 10
441.118583
 20
148.483
 30
0.0
 11
441.118583
 21
138.233
 31
0.0
  0
LINE
  8
1
  6
CONTINUOUS
 62
     2
  5
3F9
 10
441.118583
 20
157.983
 30
0.0
 11
442.118583
 21
157.983
 31
0.0
  0
LINE
  8
1
  6
CONTINUOUS
 62
     2
  5
3FA
 10
441.118583
 20
148.483
 30
0.0
 11
442.118583
 21
148.483
 31
0.0
  0
LINE
  8
1
  6
CONTINUOUS
 62
     2
  5
3FB
 10
441.118583
 20
167.233
 30
0.0
 11
437.118583
 21
167.233
 31
0.0
  0
LINE
  8
1
  6
CONTINUOUS
 62
     2
  5
3FC
 10
441.118583
 20
158.983
 30
0.0
 11
437.118583
 21
158.983
 31
0.0
  0
LINE
  8
1
  6
CONTINUOUS
 62
     2
  5
3FD
 10
441.118583
 20
147.483
 30
0.0
 11
437.118583
 21
147.483
 31
0.0
  0
LINE
  8
1
  6
CONTINUOUS
 62
     2
  5
3FE
 10
441.118583
 20
139.233
 30
0.0
 11
437.118583
 21
139.233
 31
0.0
  0
LINE
  8
1
  6
CONTINUOUS
 62
     2
  5
3FF
 10
441.118583
 20
165.233
 30
0.0
 11
437.118583
 21
165.233
 31
0.0
  0
LINE
  8
1
  6
CONTINUOUS
 62
     2
  5
400
 10
441.118583
 20
160.983
 30
0.0
 11
437.118583
 21
160.983
 31
0.0
  0
LINE
  8
1
  6
CONTINUOUS
 62
     2
  5
401
 10
441.118583
 20
145.483
 30
0.0
 11
437.118583
 21
145.483
 31
0.0
  0
LINE
  8
1
  6
CONTINUOUS
 62
     2
  5
402
 10
441.118583
 20
141.233
 30
0.0
 11
437.118583
 21
141.233
 31
0.0
  0
ARC
  8
1
  6
CONTINUOUS
 62
     2
  5
403
 10
438.876396
 20
163.108
 30
0.0
 40
2.757813
 50
129.597753
 51
230.402247
210
0.0
220
0.0
230
1.0
  0
ARC
  8
1
  6
CONTINUOUS
 62
     2
  5
404
 10
437.075718
 20
166.233
 30
0.0
 40
1.000918
 50
87.545528
 51
272.454475
210
0.0
220
0.0
230
1.0
  0
ARC
  8
1
  6
CONTINUOUS
 62
     2
  5
405
 10
437.075718
 20
159.983
 30
0.0
 40
1.000918
 50
87.545528
 51
272.454475
210
0.0
220
0.0
230
1.0
  0
ARC
  8
1
  6
CONTINUOUS
 62
     2
  5
406
 10
437.075718
 20
140.233
 30
0.0
 40
1.000918
 50
87.545528
 51
272.454475
210
0.0
220
0.0
230
1.0
  0
ARC
  8
1
  6
CONTINUOUS
 62
     2
  5
407
 10
438.876396
 20
143.358
 30
0.0
 40
2.757813
 50
129.597753
 51
230.402247
210
0.0
220
0.0
230
1.0
  0
ARC
  8
1
  6
CONTINUOUS
 62
     2
  5
408
 10
437.075718
 20
146.483
 30
0.0
 40
1.000918
 50
87.545528
 51
272.454475
210
0.0
220
0.0
230
1.0
  0
LINE
  8
1
  6
CONTINUOUS
 62
     2
  5
409
 10
436.074833
 20
146.483
 30
0.0
 11
436.074833
 21
140.233
 31
0.0
  0
LINE
  8
1
  6
CONTINUOUS
 62
     2
  5
40A
 10
436.074833
 20
165.233
 30
0.0
 11
430.868583
 21
165.233
 31
0.0
  0
LINE
  8
1
  6
CONTINUOUS
 62
     2
  5
40B
 10
436.074833
 20
160.983
 30
0.0
 11
430.868583
 21
160.983
 31
0.0
  0
LINE
  8
1
  6
CONTINUOUS
 62
     2
  5
40C
 10
430.868583
 20
165.233
 30
0.0
 11
430.868583
 21
160.983
 31
0.0
  0
LINE
  8
1
  6
CONTINUOUS
 62
     2
  5
40D
 10
433.368583
 20
165.233
 30
0.0
 11
433.368583
 21
160.983
 31
0.0
  0
LINE
  8
1
  6
CONTINUOUS
 62
     2
  5
40E
 10
434.618583
 20
165.233
 30
0.0
 11
434.618583
 21
160.983
 31
0.0
  0
LINE
  8
1
  6
CONTINUOUS
 62
     2
  5
40F
 10
435.868583
 20
165.233
 30
0.0
 11
435.868583
 21
160.983
 31
0.0
  0
LINE
  8
1
  6
CONTINUOUS
 62
     2
  5
410
 10
429.868583
 20
164.358
 30
0.0
 11
429.868583
 21
161.858
 31
0.0
  0
LINE
  8
1
  6
CONTINUOUS
 62
     2
  5
411
 10
430.868583
 20
165.233
 30
0.0
 11
429.868583
 21
164.358
 31
0.0
  0
LINE
  8
1
  6
CONTINUOUS
 62
     2
  5
412
 10
429.868583
 20
161.858
 30
0.0
 11
430.868583
 21
160.983
 31
0.0
  0
LINE
  8
1
  6
CONTINUOUS
 62
     2
  5
413
 10
432.743583
 20
164.233
 30
0.0
 11
432.743583
 21
161.983
 31
0.0
  0
LINE
  8
1
  6
CONTINUOUS
 62
     2
  5
414
 10
433.993583
 20
164.233
 30
0.0
 11
433.993583
 21
161.983
 31
0.0
  0
LINE
  8
1
  6
CONTINUOUS
 62
     2
  5
415
 10
435.243583
 20
164.233
 30
0.0
 11
435.243583
 21
161.983
 31
0.0
  0
LINE
  8
1
  6
HIDDEN
 62
     2
  5
416
 10
446.618583
 20
165.233
 30
0.0
 11
442.118583
 21
165.233
 31
0.0
  0
LINE
  8
1
  6
HIDDEN
 62
     2
  5
417
 10
446.618583
 20
160.983
 30
0.0
 11
442.118583
 21
160.983
 31
0.0
  0
LINE
  8
1
  6
HIDDEN
 62
     2
  5
418
 10
446.618583
 20
156.983
 30
0.0
 11
445.118583
 21
156.983
 31
0.0
  0
LINE
  8
1
  6
HIDDEN
 62
     2
  5
419
 10
446.618583
 20
149.483
 30
0.0
 11
445.118583
 21
149.483
 31
0.0
  0
LINE
  8
1
  6
HIDDEN
 62
     2
  5
41A
 10
446.618583
 20
145.483
 30
0.0
 11
442.118583
 21
145.483
 31
0.0
  0
LINE
  8
1
  6
HIDDEN
 62
     2
  5
41B
 10
446.618583
 20
141.233
 30
0.0
 11
442.118583
 21
141.233
 31
0.0
  0
LINE
  8
1
  6
CONTINUOUS
 62
     2
  5
41C
 10
436.074833
 20
141.233
 30
0.0
 11
430.868583
 21
141.233
 31
0.0
  0
LINE
  8
1
  6
CONTINUOUS
 62
     2
  5
41D
 10
436.074833
 20
145.483
 30
0.0
 11
430.868583
 21
145.483
 31
0.0
  0
LINE
  8
1
  6
CONTINUOUS
 62
     2
  5
41E
 10
430.868583
 20
145.483
 30
0.0
 11
430.868583
 21
141.233
 31
0.0
  0
LINE
  8
1
  6
CONTINUOUS
 62
     2
  5
41F
 10
433.368583
 20
145.483
 30
0.0
 11
433.368583
 21
141.233
 31
0.0
  0
LINE
  8
1
  6
CONTINUOUS
 62
     2
  5
420
 10
434.618583
 20
145.483
 30
0.0
 11
434.618583
 21
141.233
 31
0.0
  0
LINE
  8
1
  6
CONTINUOUS
 62
     2
  5
421
 10
435.868583
 20
145.483
 30
0.0
 11
435.868583
 21
141.233
 31
0.0
  0
LINE
  8
1
  6
CONTINUOUS
 62
     2
  5
422
 10
429.868583
 20
144.608
 30
0.0
 11
429.868583
 21
142.108
 31
0.0
  0
LINE
  8
1
  6
CONTINUOUS
 62
     2
  5
423
 10
430.868583
 20
145.483
 30
0.0
 11
429.868583
 21
144.608
 31
0.0
  0
LINE
  8
1
  6
CONTINUOUS
 62
     2
  5
424
 10
429.868583
 20
142.108
 30
0.0
 11
430.868583
 21
141.233
 31
0.0
  0
LINE
  8
1
  6
CONTINUOUS
 62
     2
  5
425
 10
432.743583
 20
144.483
 30
0.0
 11
432.743583
 21
142.233
 31
0.0
  0
LINE
  8
1
  6
CONTINUOUS
 62
     2
  5
426
 10
433.993583
 20
144.483
 30
0.0
 11
433.993583
 21
142.233
 31
0.0
  0
LINE
  8
1
  6
CONTINUOUS
 62
     2
  5
427
 10
435.243583
 20
144.483
 30
0.0
 11
435.243583
 21
142.233
 31
0.0
  0
LINE
  8
1
  6
CONTINUOUS
 62
     7
  5
428
 10
457.162333
 20
163.108
 30
0.0
 11
451.162333
 21
163.108
 31
0.0
  0
LINE
  8
1
  6
CONTINUOUS
 62
     7
  5
429
 10
450.662333
 20
163.108
 30
0.0
 11
449.662333
 21
163.108
 31
0.0
  0
LINE
  8
1
  6
CONTINUOUS
 62
     7
  5
42A
 10
449.162333
 20
163.108
 30
0.0
 11
439.618583
 21
163.108
 31
0.0
  0
LINE
  8
1
  6
CONTINUOUS
 62
     7
  5
42B
 10
439.118583
 20
163.108
 30
0.0
 11
438.118583
 21
163.108
 31
0.0
  0
LINE
  8
1
  6
CONTINUOUS
 62
     7
  5
42C
 10
437.618583
 20
163.108
 30
0.0
 11
426.618583
 21
163.108
 31
0.0
  0
LINE
  8
1
  6
CONTINUOUS
 62
     7
  5
42D
 10
457.162333
 20
143.358
 30
0.0
 11
451.162333
 21
143.358
 31
0.0
  0
LINE
  8
1
  6
CONTINUOUS
 62
     7
  5
42E
 10
450.662333
 20
143.358
 30
0.0
 11
449.662333
 21
143.358
 31
0.0
  0
LINE
  8
1
  6
CONTINUOUS
 62
     7
  5
42F
 10
449.162333
 20
143.358
 30
0.0
 11
439.618583
 21
143.358
 31
0.0
  0
LINE
  8
1
  6
CONTINUOUS
 62
     7
  5
430
 10
439.118583
 20
143.358
 30
0.0
 11
438.118583
 21
143.358
 31
0.0
  0
LINE
  8
1
  6
CONTINUOUS
 62
     7
  5
431
 10
437.618583
 20
143.358
 30
0.0
 11
426.618583
 21
143.358
 31
0.0
  0
INSERT
  8
1
  6
CONTINUOUS
 62
     1
  5
432
  2
LDR
 10
456.162333
 20
163.108
 30
0.0
 41
240.0
 42
-240.0
 50
90.0
210
0.0
220
0.0
230
1.0
  0
INSERT
  8
1
  6
CONTINUOUS
 62
     1
  5
433
  2
LDR
 10
456.162333
 20
163.108
 30
0.0
 41
240.0
 42
-240.0
 50
90.0
210
0.0
220
0.0
230
1.0
  0
INSERT
  8
1
  6
CONTINUOUS
 62
     1
  5
434
  2
LDR
 10
456.162333
 20
143.358
 30
0.0
 41
240.0
 42
-240.0
 50
270.0
210
0.0
220
0.0
230
1.0
  0
LINE
  8
1
  6
CONTINUOUS
 62
     7
  5
435
 10
450.618583
 20
170.733
 30
0.0
 11
446.618583
 21
170.733
 31
0.0
  0
LINE
  8
1
  6
CONTINUOUS
 62
     7
  5
436
 10
445.118583
 20
170.733
 30
0.0
 11
441.118583
 21
170.733
 31
0.0
  0
INSERT
  8
1
  6
CONTINUOUS
 62
     1
  5
437
  2
LDR
 10
446.618583
 20
170.733
 30
0.0
 41
240.0
 42
-240.0
 50
180.0
210
0.0
220
0.0
230
1.0
  0
INSERT
  8
1
  6
CONTINUOUS
 62
     1
  5
438
  2
LDR
 10
446.618583
 20
170.733
 30
0.0
 41
240.0
 42
-240.0
 50
180.0
210
0.0
220
0.0
230
1.0
  0
INSERT
  8
1
  6
CONTINUOUS
 62
     1
  5
439
  2
LDR
 10
445.118583
 20
170.733
 30
0.0
 41
240.0
 42
-240.0
210
0.0
220
0.0
230
1.0
  0
LINE
  8
1
  6
CONTINUOUS
 62
     7
  5
43A
 10
445.868583
 20
134.233
 30
0.0
 11
447.203583
 21
130.856083
 31
0.0
  0
LINE
  8
1
  6
CONTINUOUS
 62
     7
  5
43B
 10
447.203583
 20
130.856083
 30
0.0
 11
454.244833
 21
130.856083
 31
0.0
  0
INSERT
  8
1
  6
CONTINUOUS
 62
     1
  5
43C
  2
LDR
 10
445.868583
 20
134.233
 30
0.0
 41
239.999998
 42
-239.999998
 50
111.570039
210
0.0
220
0.0
230
1.0
  0
LINE
  8
1
  6
CONTINUOUS
 62
     7
  5
43D
 10
456.162333
 20
163.108
 30
0.0
 11
456.162333
 21
153.233
 31
0.0
  0
LINE
  8
1
  6
CONTINUOUS
 62
     7
  5
43E
 10
456.162333
 20
153.233
 30
0.0
 11
456.162333
 21
143.358
 31
0.0
  0
INSERT
  8
1
  6
CONTINUOUS
 62
     1
  5
43F
  2
LDR
 10
456.162333
 20
153.233
 30
0.0
 41
240.0
 42
-240.0
 50
270.0
210
0.0
220
0.0
230
1.0
  0
INSERT
  8
1
  6
CONTINUOUS
 62
     1
  5
440
  2
LDR
 10
456.162333
 20
153.233
 30
0.0
 41
240.0
 42
-240.0
 50
270.0
210
0.0
220
0.0
230
1.0
  0
INSERT
  8
1
  6
CONTINUOUS
 62
     1
  5
441
  2
LDR
 10
456.162333
 20
153.233
 30
0.0
 41
240.0
 42
-240.0
 50
90.0
210
0.0
220
0.0
230
1.0
  0
LINE
  8
1
  6
CONTINUOUS
 62
     7
  5
442
 10
457.162333
 20
153.233
 30
0.0
 11
441.162333
 21
153.233
 31
0.0
  0
LINE
  8
1
  6
CONTINUOUS
 62
     7
  5
443
 10
440.662333
 20
153.233
 30
0.0
 11
439.662333
 21
153.233
 31
0.0
  0
LINE
  8
1
  6
CONTINUOUS
 62
     2
  5
444
 10
432.118583
 20
165.233
 30
0.0
 11
432.118583
 21
160.983
 31
0.0
  0
LINE
  8
1
  6
CONTINUOUS
 62
     2
  5
445
 10
432.118583
 20
145.483
 30
0.0
 11
432.118583
 21
141.233
 31
0.0
  0
LINE
  8
1
  6
CONTINUOUS
 62
     2
  5
446
 10
431.493583
 20
144.483
 30
0.0
 11
431.493583
 21
142.233
 31
0.0
  0
LINE
  8
1
  6
CONTINUOUS
 62
     2
  5
447
 10
431.493583
 20
164.233
 30
0.0
 11
431.493583
 21
161.983
 31
0.0
  0
LINE
  8
1
  6
CONTINUOUS
 62
     2
  5
448
 10
392.206083
 20
177.733
 30
0.0
 11
419.662333
 21
177.733
 31
0.0
  0
LINE
  8
1
  6
CONTINUOUS
 62
     2
  5
449
 10
422.662333
 20
177.733
 30
0.0
 11
450.118583
 21
177.733
 31
0.0
  0
LINE
  8
1
  6
CONTINUOUS
 62
     2
  5
44A
 10
392.206083
 20
128.733
 30
0.0
 11
419.662333
 21
128.733
 31
0.0
  0
LINE
  8
1
  6
CONTINUOUS
 62
     2
  5
44B
 10
422.662333
 20
128.733
 30
0.0
 11
450.118583
 21
128.733
 31
0.0
  0
LINE
  8
1
  6
CONTINUOUS
 62
     2
  5
44C
 10
419.662333
 20
177.733
 30
0.0
 11
420.346333
 21
179.612417
 31
0.0
  0
LINE
  8
1
  6
CONTINUOUS
 62
     2
  5
44D
 10
422.662333
 20
177.733
 30
0.0
 11
421.978333
 21
175.853583
 31
0.0
  0
LINE
  8
1
  6
CONTINUOUS
 62
     2
  5
44E
 10
421.978333
 20
175.853583
 30
0.0
 11
420.346333
 21
179.612417
 31
0.0
  0
LINE
  8
1
  6
CONTINUOUS
 62
     2
  5
44F
 10
422.662333
 20
128.733
 30
0.0
 11
421.978333
 21
126.853583
 31
0.0
  0
LINE
  8
1
  6
CONTINUOUS
 62
     2
  5
450
 10
419.662333
 20
128.733
 30
0.0
 11
420.346333
 21
130.612417
 31
0.0
  0
LINE
  8
1
  6
CONTINUOUS
 62
     2
  5
451
 10
421.978333
 20
126.853583
 30
0.0
 11
420.346333
 21
130.612417
 31
0.0
  0
ARC
  8
1
  6
CONTINUOUS
 62
     7
  5
452
 10
421.162333
 20
119.409062
 30
0.0
 40
51.365001
 50
63.141342
 51
116.858656
210
0.0
220
0.0
230
1.0
  0
INSERT
  8
1
  6
CONTINUOUS
 62
     1
  5
453
  2
LDR
 10
397.956083
 20
165.233
 30
0.0
 41
240.0
 42
240.0
 50
206.858656
210
0.0
220
0.0
230
1.0
  0
INSERT
  8
1
  6
CONTINUOUS
 62
     1
  5
454
  2
LDR
 10
397.956083
 20
165.233
 30
0.0
 41
240.0
 42
240.0
 50
206.858656
210
0.0
220
0.0
230
1.0
  0
INSERT
  8
1
  6
CONTINUOUS
 62
     1
  5
455
  2
LDR
 10
444.368583
 20
165.233
 30
0.0
 41
240.0
 42
240.0
 50
333.141342
210
0.0
220
0.0
230
1.0
  0
ARC
  8
1
  6
CONTINUOUS
 62
     7
  5
456
 10
421.117706
 20
216.090417
 30
0.0
 40
68.376554
 50
248.928114
 51
291.344939
210
0.0
220
0.0
230
1.0
  0
INSERT
  8
1
  6
CONTINUOUS
 62
     1
  5
457
  2
LDR
 10
397.956083
 20
151.537667
 30
0.0
 41
240.0
 42
-240.0
 50
153.141344
210
0.0
220
0.0
230
1.0
  0
INSERT
  8
1
  6
CONTINUOUS
 62
     1
  5
458
  2
LDR
 10
396.533667
 20
152.286167
 30
0.0
 41
240.000002
 42
240.000002
 50
158.928114
210
0.0
220
0.0
230
1.0
  0
INSERT
  8
1
  6
CONTINUOUS
 62
     1
  5
459
  2
LDR
 10
396.533667
 20
152.286167
 30
0.0
 41
240.000002
 42
240.000002
 50
158.928114
210
0.0
220
0.0
230
1.0
  0
INSERT
  8
1
  6
CONTINUOUS
 62
     1
  5
45A
  2
LDR
 10
446.0055
 20
152.404083
 30
0.0
 41
240.000001
 42
240.000001
 50
21.344939
210
0.0
220
0.0
230
1.0
  0
TEXT
  8
1
  6
CONTINUOUS
 62
     7
  5
45B
 10
410.719417
 20
171.774083
 30
0.0
 40
2.5
  1
HOLE DIAM.
  7
MONOTXT
 72
     4
 11
421.16225
 21
173.024083
 31
0.0
210
0.0
220
0.0
230
1.0
  0
TEXT
  8
1
  6
CONTINUOUS
 62
     7
  5
45C
 10
419.626917
 20
167.274083
 30
0.0
 40
2.5
  1
D1
  7
MONOTXT
 72
     4
 11
421.162333
 21
168.524083
 31
0.0
210
0.0
220
0.0
230
1.0
  0
TEXT
  8
1
  6
CONTINUOUS
 62
     7
  5
45D
 10
410.391833
 20
149.025
 30
0.0
 40
2.5
  1
HOLE DIAM.
  7
MONOTXT
 72
     4
 11
420.834667
 21
150.275
 31
0.0
210
0.0
220
0.0
230
1.0
  0
TEXT
  8
1
  6
CONTINUOUS
 62
     7
  5
45E
 10
418.767833
 20
144.525
 30
0.0
 40
2.5
  1
D2
  7
MONOTXT
 72
     4
 11
420.844583
 21
145.775
 31
0.0
210
0.0
220
0.0
230
1.0
  0
TEXT
  8
1
  6
CONTINUOUS
 62
     7
  5
45F
 10
407.248917
 20
157.712
 30
0.0
 40
2.5
  1
CUT COLUMN
  7
MONOTXT
 11
407.248917
 21
160.212
 31
0.0
210
0.0
220
0.0
230
1.0
 73
     3
  0
TEXT
  8
1
  6
CONTINUOUS
 62
     7
  5
460
 10
407.248917
 20
154.212
 30
0.0
 40
2.5
  1
FULL WIDTH
  7
MONOTXT
 11
407.248917
 21
156.712
 31
0.0
210
0.0
220
0.0
230
1.0
 73
     3
  0
LINE
  8
1
  6
CONTINUOUS
 62
     7
  5
461
 10
430.257167
 20
155.53575
 30
0.0
 11
433.7905
 21
155.53575
 31
0.0
  0
LINE
  8
1
  6
CONTINUOUS
 62
     7
  5
462
 10
433.7905
 20
155.53575
 30
0.0
 11
437.4755
 21
153.233
 31
0.0
  0
INSERT
  8
1
  6
CONTINUOUS
 62
     1
  5
463
  2
LDR
 10
437.4755
 20
153.233
 30
0.0
 41
239.999997
 42
239.999997
 50
327.99881
210
0.0
220
0.0
230
1.0
  0
TEXT
  8
1
  6
CONTINUOUS
 62
     7
  5
464
 10
386.4235
 20
169.477
 30
0.0
 40
2.5
  1
T3
  7
MONOTXT
 72
     4
 11
388.50025
 21
170.727
 31
0.0
210
0.0
220
0.0
230
1.0
  0
TEXT
  8
1
  6
CONTINUOUS
 62
     7
  5
465
 10
451.113083
 20
169.5565
 30
0.0
 40
2.5
  1
T3
  7
MONOTXT
 72
     4
 11
453.189833
 21
170.8065
 31
0.0
210
0.0
220
0.0
230
1.0
  0
TEXT
  8
1
  6
CONTINUOUS
 62
     7
  5
466
 10
455.01275
 20
129.241583
 30
0.0
 40
2.5
  1
PLATE
  7
MONOTXT
 72
     4
 11
460.57375
 21
130.491583
 31
0.0
210
0.0
220
0.0
230
1.0
  0
TEXT
  8
1
  6
CONTINUOUS
 62
     7
  5
467
 10
457.493083
 20
125.741583
 30
0.0
 40
2.5
  1
FxN
  7
MONOTXT
 72
     4
 11
460.57375
 21
126.991583
 31
0.0
210
0.0
220
0.0
230
1.0
  0
ARC
  8
1
  6
CONTINUOUS
 62
     7
  5
468
 10
452.04427
 20
122.431157
 30
0.0
 40
17.812569
 50
31.018567
 51
88.011544
210
0.0
220
0.0
230
1.0
  0
INSERT
  8
1
  6
CONTINUOUS
 62
     1
  5
469
  2
LDR
 10
452.662333
 20
140.233
 30
0.0
 41
240.000001
 42
240.000001
 50
178.011544
210
0.0
220
0.0
230
1.0
  0
INSERT
  8
1
  6
CONTINUOUS
 62
     1
  5
46A
  2
LDR
 10
452.662333
 20
140.233
 30
0.0
 41
240.000001
 42
240.000001
 50
178.011544
210
0.0
220
0.0
230
1.0
  0
ARC
  8
1
  6
CONTINUOUS
 62
     7
  5
46B
 10
458.30271
 20
126.839534
 30
0.0
 40
10.192399
 50
273.866481
 51
27.908836
210
0.0
220
0.0
230
1.0
  0
TEXT
  8
1
  6
CONTINUOUS
 62
     7
  5
46C
 10
376.62025
 20
129.41375
 30
0.0
 40
2.5
  1
PLATE
  7
MONOTXT
 72
     4
 11
382.18125
 21
130.66375
 31
0.0
210
0.0
220
0.0
230
1.0
  0
TEXT
  8
1
  6
CONTINUOUS
 62
     7
  5
46D
 10
379.100583
 20
125.91375
 30
0.0
 40
2.5
  1
FxN
  7
MONOTXT
 72
     4
 11
382.18125
 21
127.16375
 31
0.0
210
0.0
220
0.0
230
1.0
  0
TEXT
  8
1
  6
CONTINUOUS
 62
     7
  5
46E
 10
347.545667
 20
106.455583
 30
0.0
 40
2.5
  1
"W"
  7
MONOTXT
 72
     4
 11
350.646
 21
107.705583
 31
0.0
210
0.0
220
0.0
230
1.0
  0
TEXT
  8
1
  6
CONTINUOUS
 62
     7
  5
46F
 10
345.331083
 20
101.955583
 30
0.0
 40
2.5
  1
WIDTH
  7
MONOTXT
 72
     4
 11
350.655833
 21
103.205583
 31
0.0
210
0.0
220
0.0
230
1.0
  0
TEXT
  8
1
  6
CONTINUOUS
 62
     7
  5
470
 10
395.9635
 20
90.020417
 30
0.0
 40
3.5
  1
HINGE PLATE DETAIL
  7
MONOTXT
 72
     4
 11
423.50875
 21
91.770417
 31
0.0
210
0.0
220
0.0
230
1.0
  0
LINE
  8
1
  6
CONTINUOUS
 62
     7
  5
471
 10
394.2715
 20
88.666
 30
0.0
 11
452.5065
 21
88.666
 31
0.0
  0
LINE
  8
1
  6
CONTINUOUS
 62
     4
  5
472
 10
577.95625
 20
282.859333
 30
0.0
 11
577.95625
 21
183.859333
 31
0.0
  0
LINE
  8
1
  6
CONTINUOUS
 62
     4
  5
473
 10
582.45625
 20
282.859333
 30
0.0
 11
582.45625
 21
183.859333
 31
0.0
  0
LINE
  8
1
  6
CONTINUOUS
 62
     4
  5
474
 10
576.45625
 20
282.859333
 30
0.0
 11
582.45625
 21
282.859333
 31
0.0
  0
LINE
  8
1
  6
CONTINUOUS
 62
     4
  5
475
 10
578.70625
 20
282.859333
 30
0.0
 11
578.70625
 21
183.859333
 31
0.0
  0
LINE
  8
1
  6
CONTINUOUS
 62
     4
  5
476
 10
581.70625
 20
282.859333
 30
0.0
 11
581.70625
 21
183.859333
 31
0.0
  0
LINE
  8
1
  6
HIDDEN
 62
     4
  5
477
 10
577.95625
 20
183.859333
 30
0.0
 11
577.95625
 21
181.053167
 31
0.0
  0
LINE
  8
1
  6
HIDDEN
 62
     4
  5
478
 10
578.70625
 20
183.859333
 30
0.0
 11
578.70625
 21
180.9875
 31
0.0
  0
LINE
  8
1
  6
HIDDEN
 62
     4
  5
479
 10
581.70625
 20
183.859333
 30
0.0
 11
581.70625
 21
180.725083
 31
0.0
  0
LINE
  8
1
  6
HIDDEN
 62
     4
  5
47A
 10
582.45625
 20
183.859333
 30
0.0
 11
582.45625
 21
180.659417
 31
0.0
  0
LINE
  8
1
  6
CONTINUOUS
 62
     4
  5
47B
 10
574.95625
 20
183.859333
 30
0.0
 11
585.45625
 21
183.859333
 31
0.0
  0
LINE
  8
1
  6
CONTINUOUS
 62
     4
  5
47C
 10
574.95625
 20
183.859333
 30
0.0
 11
574.95625
 21
181.315583
 31
0.0
  0
LINE
  8
1
  6
CONTINUOUS
 62
     4
  5
47D
 10
585.45625
 20
183.859333
 30
0.0
 11
585.45625
 21
180.397
 31
0.0
  0
LINE
  8
1
  6
CONTINUOUS
 62
     4
  5
47E
 10
576.70625
 20
183.359333
 30
0.0
 11
576.70625
 21
182.359333
 31
0.0
  0
LINE
  8
1
  6
CONTINUOUS
 62
     4
  5
47F
 10
583.70625
 20
183.359333
 30
0.0
 11
583.70625
 21
182.359333
 31
0.0
  0
LINE
  8
1
  6
CONTINUOUS
 62
     4
  5
480
 10
576.70625
 20
182.359333
 30
0.0
 11
577.70625
 21
182.359333
 31
0.0
  0
LINE
  8
1
  6
CONTINUOUS
 62
     4
  5
481
 10
583.70625
 20
182.359333
 30
0.0
 11
582.70625
 21
182.359333
 31
0.0
  0
LINE
  8
1
  6
CONTINUOUS
 62
     4
  5
482
 10
576.95625
 20
188.359333
 30
0.0
 11
577.95625
 21
188.359333
 31
0.0
  0
LINE
  8
1
  6
CONTINUOUS
 62
     4
  5
483
 10
583.45625
 20
188.359333
 30
0.0
 11
582.45625
 21
188.359333
 31
0.0
  0
LINE
  8
1
  6
CONTINUOUS
 62
     4
  5
484
 10
576.45625
 20
185.609333
 30
0.0
 11
577.95625
 21
185.609333
 31
0.0
  0
LINE
  8
1
  6
CONTINUOUS
 62
     4
  5
485
 10
583.95625
 20
185.609333
 30
0.0
 11
582.45625
 21
185.609333
 31
0.0
  0
LINE
  8
1
  6
CONTINUOUS
 62
     4
  5
486
 10
576.95625
 20
188.359333
 30
0.0
 11
576.45625
 21
185.609333
 31
0.0
  0
LINE
  8
1
  6
CONTINUOUS
 62
     4
  5
487
 10
583.45625
 20
188.359333
 30
0.0
 11
583.95625
 21
185.609333
 31
0.0
  0
LINE
  8
1
  6
CONTINUOUS
 62
     4
  5
488
 10
576.774417
 20
183.859333
 30
0.0
 11
576.45625
 21
185.609333
 31
0.0
  0
LINE
  8
1
  6
CONTINUOUS
 62
     4
  5
489
 10
583.638083
 20
183.859333
 30
0.0
 11
583.95625
 21
185.609333
 31
0.0
  0
LINE
  8
1
  6
CONTINUOUS
 62
     4
  5
48A
 10
576.501667
 20
185.859333
 30
0.0
 11
577.95625
 21
185.859333
 31
0.0
  0
LINE
  8
1
  6
CONTINUOUS
 62
     4
  5
48B
 10
576.501667
 20
185.359333
 30
0.0
 11
577.95625
 21
185.359333
 31
0.0
  0
LINE
  8
1
  6
CONTINUOUS
 62
     4
  5
48C
 10
583.910833
 20
185.859333
 30
0.0
 11
582.45625
 21
185.859333
 31
0.0
  0
LINE
  8
1
  6
CONTINUOUS
 62
     4
  5
48D
 10
583.910833
 20
185.359333
 30
0.0
 11
582.45625
 21
185.359333
 31
0.0
  0
LINE
  8
1
  6
CONTINUOUS
 62
     4
  5
48E
 10
576.979
 20
184.859333
 30
0.0
 11
576.979
 21
185.359333
 31
0.0
  0
LINE
  8
1
  6
CONTINUOUS
 62
     4
  5
48F
 10
576.979
 20
185.859333
 30
0.0
 11
576.979
 21
186.359333
 31
0.0
  0
LINE
  8
1
  6
CONTINUOUS
 62
     4
  5
490
 10
577.479
 20
184.859333
 30
0.0
 11
577.479
 21
185.359333
 31
0.0
  0
LINE
  8
1
  6
CONTINUOUS
 62
     4
  5
491
 10
577.479
 20
185.859333
 30
0.0
 11
577.479
 21
186.359333
 31
0.0
  0
LINE
  8
1
  6
CONTINUOUS
 62
     4
  5
492
 10
582.933583
 20
184.859333
 30
0.0
 11
582.933583
 21
185.359333
 31
0.0
  0
LINE
  8
1
  6
CONTINUOUS
 62
     4
  5
493
 10
582.933583
 20
185.859333
 30
0.0
 11
582.933583
 21
186.359333
 31
0.0
  0
LINE
  8
1
  6
CONTINUOUS
 62
     4
  5
494
 10
583.433583
 20
184.859333
 30
0.0
 11
583.433583
 21
185.359333
 31
0.0
  0
LINE
  8
1
  6
CONTINUOUS
 62
     4
  5
495
 10
583.433583
 20
185.859333
 30
0.0
 11
583.433583
 21
186.359333
 31
0.0
  0
LINE
  8
1
  6
CONTINUOUS
 62
     4
  5
496
 10
576.979
 20
186.359333
 30
0.0
 11
577.479
 21
186.359333
 31
0.0
  0
LINE
  8
1
  6
CONTINUOUS
 62
     4
  5
497
 10
576.979
 20
184.859333
 30
0.0
 11
577.479
 21
184.859333
 31
0.0
  0
LINE
  8
1
  6
CONTINUOUS
 62
     4
  5
498
 10
582.933583
 20
186.359333
 30
0.0
 11
583.433583
 21
186.359333
 31
0.0
  0
LINE
  8
1
  6
CONTINUOUS
 62
     4
  5
499
 10
582.933583
 20
184.859333
 30
0.0
 11
583.433583
 21
184.859333
 31
0.0
  0
LINE
  8
1
  6
CONTINUOUS
 62
     4
  5
49A
 10
577.45625
 20
230.359333
 30
0.0
 11
577.95625
 21
230.359333
 31
0.0
  0
LINE
  8
1
  6
CONTINUOUS
 62
     4
  5
49B
 10
582.45625
 20
230.359333
 30
0.0
 11
582.95625
 21
230.359333
 31
0.0
  0
LINE
  8
1
  6
CONTINUOUS
 62
     4
  5
49C
 10
577.45625
 20
227.859333
 30
0.0
 11
577.95625
 21
227.859333
 31
0.0
  0
LINE
  8
1
  6
CONTINUOUS
 62
     4
  5
49D
 10
582.45625
 20
227.859333
 30
0.0
 11
582.95625
 21
227.859333
 31
0.0
  0
LINE
  8
1
  6
CONTINUOUS
 62
     4
  5
49E
 10
577.45625
 20
230.359333
 30
0.0
 11
577.45625
 21
227.859333
 31
0.0
  0
LINE
  8
1
  6
CONTINUOUS
 62
     4
  5
49F
 10
582.95625
 20
230.359333
 30
0.0
 11
582.95625
 21
227.859333
 31
0.0
  0
LINE
  8
1
  6
CONTINUOUS
 62
     4
  5
4A0
 10
576.95625
 20
229.984333
 30
0.0
 11
577.45625
 21
229.984333
 31
0.0
  0
LINE
  8
1
  6
CONTINUOUS
 62
     4
  5
4A1
 10
576.95625
 20
228.234333
 30
0.0
 11
577.45625
 21
228.234333
 31
0.0
  0
LINE
  8
1
  6
CONTINUOUS
 62
     4
  5
4A2
 10
582.95625
 20
229.984333
 30
0.0
 11
583.45625
 21
229.984333
 31
0.0
  0
LINE
  8
1
  6
CONTINUOUS
 62
     4
  5
4A3
 10
582.95625
 20
228.234333
 30
0.0
 11
583.45625
 21
228.234333
 31
0.0
  0
LINE
  8
1
  6
CONTINUOUS
 62
     4
  5
4A4
 10
576.95625
 20
229.484333
 30
0.0
 11
577.45625
 21
229.484333
 31
0.0
  0
LINE
  8
1
  6
CONTINUOUS
 62
     4
  5
4A5
 10
576.95625
 20
228.734333
 30
0.0
 11
577.45625
 21
228.734333
 31
0.0
  0
LINE
  8
1
  6
CONTINUOUS
 62
     4
  5
4A6
 10
582.95625
 20
229.484333
 30
0.0
 11
583.45625
 21
229.484333
 31
0.0
  0
LINE
  8
1
  6
CONTINUOUS
 62
     4
  5
4A7
 10
582.95625
 20
228.734333
 30
0.0
 11
583.45625
 21
228.734333
 31
0.0
  0
LINE
  8
1
  6
CONTINUOUS
 62
     4
  5
4A8
 10
576.95625
 20
229.984333
 30
0.0
 11
576.95625
 21
229.484333
 31
0.0
  0
LINE
  8
1
  6
CONTINUOUS
 62
     4
  5
4A9
 10
576.95625
 20
228.734333
 30
0.0
 11
576.95625
 21
228.234333
 31
0.0
  0
LINE
  8
1
  6
CONTINUOUS
 62
     4
  5
4AA
 10
583.45625
 20
229.984333
 30
0.0
 11
583.45625
 21
229.484333
 31
0.0
  0
LINE
  8
1
  6
CONTINUOUS
 62
     4
  5
4AB
 10
583.45625
 20
228.734333
 30
0.0
 11
583.45625
 21
228.234333
 31
0.0
  0
LINE
  8
1
  6
CONTINUOUS
 62
     4
  5
4AC
 10
578.70625
 20
229.109333
 30
0.0
 11
581.70625
 21
229.109333
 31
0.0
  0
LINE
  8
1
  6
CONTINUOUS
 62
     4
  5
4AD
 10
579.20625
 20
228.734333
 30
0.0
 11
579.20625
 21
228.234333
 31
0.0
  0
LINE
  8
1
  6
CONTINUOUS
 62
     4
  5
4AE
 10
579.20625
 20
229.984333
 30
0.0
 11
578.70625
 21
229.984333
 31
0.0
  0
LINE
  8
1
  6
CONTINUOUS
 62
     4
  5
4AF
 10
579.20625
 20
228.234333
 30
0.0
 11
578.70625
 21
228.234333
 31
0.0
  0
LINE
  8
1
  6
CONTINUOUS
 62
     4
  5
4B0
 10
579.20625
 20
229.484333
 30
0.0
 11
578.70625
 21
229.484333
 31
0.0
  0
LINE
  8
1
  6
CONTINUOUS
 62
     4
  5
4B1
 10
579.20625
 20
228.734333
 30
0.0
 11
578.70625
 21
228.734333
 31
0.0
  0
LINE
  8
1
  6
CONTINUOUS
 62
     4
  5
4B2
 10
579.20625
 20
229.984333
 30
0.0
 11
579.20625
 21
229.484333
 31
0.0
  0
LINE
  8
1
  6
CONTINUOUS
 62
     4
  5
4B3
 10
581.20625
 20
228.734333
 30
0.0
 11
581.20625
 21
228.234333
 31
0.0
  0
LINE
  8
1
  6
CONTINUOUS
 62
     4
  5
4B4
 10
581.70625
 20
229.984333
 30
0.0
 11
581.20625
 21
229.984333
 31
0.0
  0
LINE
  8
1
  6
CONTINUOUS
 62
     4
  5
4B5
 10
581.70625
 20
228.234333
 30
0.0
 11
581.20625
 21
228.234333
 31
0.0
  0
LINE
  8
1
  6
CONTINUOUS
 62
     4
  5
4B6
 10
581.70625
 20
229.484333
 30
0.0
 11
581.20625
 21
229.484333
 31
0.0
  0
LINE
  8
1
  6
CONTINUOUS
 62
     4
  5
4B7
 10
581.70625
 20
228.734333
 30
0.0
 11
581.20625
 21
228.734333
 31
0.0
  0
LINE
  8
1
  6
CONTINUOUS
 62
     4
  5
4B8
 10
581.20625
 20
229.984333
 30
0.0
 11
581.20625
 21
229.484333
 31
0.0
  0
LINE
  8
1
  6
CONTINUOUS
 62
     7
  5
4B9
 10
576.45625
 20
229.734333
 30
0.0
 11
579.70625
 21
229.734333
 31
0.0
  0
LINE
  8
1
  6
CONTINUOUS
 62
     7
  5
4BA
 10
576.45625
 20
228.484333
 30
0.0
 11
579.70625
 21
228.484333
 31
0.0
  0
LINE
  8
1
  6
CONTINUOUS
 62
     7
  5
4BB
 10
580.70625
 20
229.734333
 30
0.0
 11
583.95625
 21
229.734333
 31
0.0
  0
LINE
  8
1
  6
CONTINUOUS
 62
     7
  5
4BC
 10
580.70625
 20
228.484333
 30
0.0
 11
583.95625
 21
228.484333
 31
0.0
  0
LINE
  8
1
  6
CONTINUOUS
 62
     7
  5
4BD
 10
575.45625
 20
230.859333
 30
0.0
 11
554.45625
 21
230.859333
 31
0.0
  0
LINE
  8
1
  6
CONTINUOUS
 62
     7
  5
4BE
 10
555.45625
 20
230.859333
 30
0.0
 11
555.45625
 21
234.859333
 31
0.0
  0
LINE
  8
1
  6
CONTINUOUS
 62
     7
  5
4BF
 10
555.45625
 20
229.109333
 30
0.0
 11
555.45625
 21
225.109333
 31
0.0
  0
INSERT
  8
1
  6
CONTINUOUS
 62
     1
  5
4C0
  2
LDR
 10
555.45625
 20
230.859333
 30
0.0
 41
240.0
 42
240.0
 50
270.0
210
0.0
220
0.0
230
1.0
  0
INSERT
  8
1
  6
CONTINUOUS
 62
     1
  5
4C1
  2
LDR
 10
555.45625
 20
230.859333
 30
0.0
 41
240.0
 42
240.0
 50
270.0
210
0.0
220
0.0
230
1.0
  0
INSERT
  8
1
  6
CONTINUOUS
 62
     1
  5
4C2
  2
LDR
 10
555.45625
 20
229.109333
 30
0.0
 41
240.0
 42
240.0
 50
90.0
210
0.0
220
0.0
230
1.0
  0
LINE
  8
1
  6
CONTINUOUS
 62
     7
  5
4C3
 10
550.20625
 20
229.109333
 30
0.0
 11
546.70625
 21
229.109333
 31
0.0
  0
LINE
  8
1
  6
CONTINUOUS
 62
     7
  5
4C4
 10
552.20625
 20
229.109333
 30
0.0
 11
551.20625
 21
229.109333
 31
0.0
  0
LINE
  8
1
  6
CONTINUOUS
 62
     7
  5
4C5
 10
566.70625
 20
229.109333
 30
0.0
 11
553.20625
 21
229.109333
 31
0.0
  0
LINE
  8
1
  6
CONTINUOUS
 62
     7
  5
4C6
 10
568.70625
 20
229.109333
 30
0.0
 11
567.70625
 21
229.109333
 31
0.0
  0
LINE
  8
1
  6
CONTINUOUS
 62
     7
  5
4C7
 10
575.45625
 20
229.109333
 30
0.0
 11
571.70625
 21
229.109333
 31
0.0
  0
LINE
  8
1
  6
CONTINUOUS
 62
     7
  5
4C8
 10
570.70625
 20
229.109333
 30
0.0
 11
569.70625
 21
229.109333
 31
0.0
  0
LINE
  8
1
  6
CONTINUOUS
 62
     4
  5
4C9
 10
576.45625
 20
282.859333
 30
0.0
 11
576.45625
 21
261.859333
 31
0.0
  0
LINE
  8
1
  6
CONTINUOUS
 62
     4
  5
4CA
 10
576.45625
 20
260.859333
 30
0.0
 11
576.45625
 21
259.859333
 31
0.0
  0
LINE
  8
1
  6
CONTINUOUS
 62
     4
  5
4CB
 10
576.45625
 20
258.859333
 30
0.0
 11
576.45625
 21
257.859333
 31
0.0
  0
LINE
  8
1
  6
CONTINUOUS
 62
     4
  5
4CC
 10
576.45625
 20
256.859333
 30
0.0
 11
576.45625
 21
243.859333
 31
0.0
  0
LINE
  8
1
  6
CONTINUOUS
 62
     4
  5
4CD
 10
576.45625
 20
242.859333
 30
0.0
 11
576.45625
 21
241.859333
 31
0.0
  0
LINE
  8
1
  6
CONTINUOUS
 62
     4
  5
4CE
 10
576.45625
 20
240.859333
 30
0.0
 11
576.45625
 21
239.859333
 31
0.0
  0
LINE
  8
1
  6
CONTINUOUS
 62
     4
  5
4CF
 10
576.45625
 20
238.859333
 30
0.0
 11
576.45625
 21
230.859333
 31
0.0
  0
CIRCLE
  8
1
  6
CONTINUOUS
 62
     4
  5
4D0
 10
580.20625
 20
229.109333
 30
0.0
 40
7.5
210
0.0
220
0.0
230
1.0
  0
LINE
  8
PATTERN_CLASS
  6
CONTINUOUS
 62
     4
  5
4D1
 10
533.248083
 20
131.324667
 30
0.0
 11
540.2215
 21
130.7145
 31
0.0
  0
LINE
  8
1
  6
CONTINUOUS
 62
     4
  5
4D2
 10
563.022833
 20
182.359667
 30
0.0
 11
597.391583
 21
179.35275
 31
0.0
  0
LINE
  8
PATTERN_CLASS
  6
CONTINUOUS
 62
     4
  5
4D3
 10
563.869083
 20
130.102
 30
0.0
 11
570.869083
 21
130.102
 31
0.0
  0
LINE
  8
1
  6
CONTINUOUS
 62
     7
  5
4D4
 10
564.334333
 20
182.20475
 30
0.0
 11
562.904333
 21
181.004833
 31
0.0
  0
LINE
  8
1
  6
CONTINUOUS
 62
     7
  5
4D5
 10
565.748917
 20
182.081
 30
0.0
 11
562.910583
 21
179.699333
 31
0.0
  0
LINE
  8
1
  6
CONTINUOUS
 62
     7
  5
4D6
 10
565.649333
 20
182.089667
 30
0.0
 11
567.64925
 21
179.706333
 31
0.0
  0
LINE
  8
1
  6
CONTINUOUS
 62
     7
  5
4D7
 10
565.0875
 20
181.175167
 30
0.0
 11
566.780083
 21
179.180083
 31
0.0
  0
LINE
  8
1
  6
CONTINUOUS
 62
     7
  5
4D8
 10
564.545583
 20
180.258917
 30
0.0
 11
565.709167
 21
178.87225
 31
0.0
  0
LINE
  8
1
  6
CONTINUOUS
 62
     7
  5
4D9
 10
563.967333
 20
179.386
 30
0.0
 11
564.750833
 21
178.47425
 31
0.0
  0
LINE
  8
1
  6
CONTINUOUS
 62
     7
  5
4DA
 10
570.012667
 20
181.707917
 30
0.0
 11
567.64925
 21
179.706333
 31
0.0
  0
LINE
  8
1
  6
CONTINUOUS
 62
     7
  5
4DB
 10
568.598083
 20
181.83175
 30
0.0
 11
567.103083
 21
180.57725
 31
0.0
  0
LINE
  8
1
  6
CONTINUOUS
 62
     7
  5
4DC
 10
567.163583
 20
181.95725
 30
0.0
 11
566.555167
 21
181.42825
 31
0.0
  0
LINE
  8
1
  6
CONTINUOUS
 62
     7
  5
4DD
 10
568.87425
 20
179.940417
 30
0.0
 11
570.037833
 21
178.55375
 31
0.0
  0
LINE
  8
1
  6
CONTINUOUS
 62
     7
  5
4DE
 10
568.276083
 20
179.06925
 30
0.0
 11
569.057833
 21
178.137583
 31
0.0
  0
LINE
  8
1
  6
CONTINUOUS
 62
     7
  5
4DF
 10
591.72975
 20
179.807917
 30
0.0
 11
590.299667
 21
178.608
 31
0.0
  0
LINE
  8
1
  6
CONTINUOUS
 62
     7
  5
4E0
 10
593.144333
 20
179.684167
 30
0.0
 11
590.305917
 21
177.3025
 31
0.0
  0
LINE
  8
1
  6
CONTINUOUS
 62
     7
  5
4E1
 10
593.044667
 20
179.692917
 30
0.0
 11
595.044583
 21
177.309583
 31
0.0
  0
LINE
  8
1
  6
CONTINUOUS
 62
     7
  5
4E2
 10
592.482833
 20
178.778417
 30
0.0
 11
594.175417
 21
176.783333
 31
0.0
  0
LINE
  8
1
  6
CONTINUOUS
 62
     7
  5
4E3
 10
591.940917
 20
177.862167
 30
0.0
 11
593.1045
 21
176.475417
 31
0.0
  0
LINE
  8
1
  6
CONTINUOUS
 62
     7
  5
4E4
 10
591.362667
 20
176.98925
 30
0.0
 11
592.146167
 21
176.0775
 31
0.0
  0
LINE
  8
1
  6
CONTINUOUS
 62
     7
  5
4E5
 10
597.408
 20
179.311167
 30
0.0
 11
595.044583
 21
177.309583
 31
0.0
  0
LINE
  8
1
  6
CONTINUOUS
 62
     7
  5
4E6
 10
595.993417
 20
179.434917
 30
0.0
 11
594.498417
 21
178.180417
 31
0.0
  0
LINE
  8
1
  6
CONTINUOUS
 62
     7
  5
4E7
 10
594.558917
 20
179.560417
 30
0.0
 11
593.9505
 21
179.031417
 31
0.0
  0
LINE
  8
1
  6
CONTINUOUS
 62
     7
  5
4E8
 10
596.269667
 20
177.543667
 30
0.0
 11
597.43325
 21
176.157
 31
0.0
  0
LINE
  8
1
  6
CONTINUOUS
 62
     7
  5
4E9
 10
595.671417
 20
176.6725
 30
0.0
 11
596.45325
 21
175.740833
 31
0.0
  0
LINE
  8
1
  6
CONTINUOUS
 62
     7
  5
4EA
 10
585.945333
 20
233.93775
 30
0.0
 11
589.287667
 21
238.82425
 31
0.0
  0
LINE
  8
1
  6
CONTINUOUS
 62
     7
  5
4EB
 10
589.287667
 20
238.82425
 30
0.0
 11
591.940667
 21
238.82425
 31
0.0
  0
INSERT
  8
1
  6
CONTINUOUS
 62
     1
  5
4EC
  2
LDR
 10
585.945333
 20
233.93775
 30
0.0
 41
240.000001
 42
240.000001
 50
235.628133
210
0.0
220
0.0
230
1.0
  0
INSERT
  8
1
  6
CONTINUOUS
 62
     1
  5
4ED
  2
LDR
 10
585.945333
 20
233.93775
 30
0.0
 41
240.000001
 42
240.000001
 50
235.628133
210
0.0
220
0.0
230
1.0
  0
LINE
  8
1
  6
CONTINUOUS
 62
     7
  5
4EE
 10
561.368
 20
229.093417
 30
0.0
 11
558.462333
 21
220.5
 31
0.0
  0
LINE
  8
1
  6
CONTINUOUS
 62
     7
  5
4EF
 10
558.462333
 20
220.5
 30
0.0
 11
555.935667
 21
220.5
 31
0.0
  0
INSERT
  8
1
  6
CONTINUOUS
 62
     1
  5
4F0
  2
LDR
 10
561.368
 20
229.093417
 30
0.0
 41
239.999998
 42
239.999998
 50
71.318213
210
0.0
220
0.0
230
1.0
  0
LINE
  8
1
  6
CONTINUOUS
 62
     7
  5
4F1
 10
567.179333
 20
230.989083
 30
0.0
 11
570.590333
 21
245.90125
 31
0.0
  0
LINE
  8
1
  6
CONTINUOUS
 62
     7
  5
4F2
 10
570.590333
 20
245.90125
 30
0.0
 11
568.442667
 21
245.90125
 31
0.0
  0
INSERT
  8
1
  6
CONTINUOUS
 62
     1
  5
4F3
  2
LDR
 10
567.179333
 20
230.989083
 30
0.0
 41
240.000001
 42
240.000001
 50
257.115853
210
0.0
220
0.0
230
1.0
  0
LINE
  8
1
  6
CONTINUOUS
 62
     7
  5
4F4
 10
597.371833
 20
264.205083
 30
0.0
 11
580.20625
 21
229.109333
 31
0.0
  0
INSERT
  8
1
  6
CONTINUOUS
 62
     1
  5
4F5
  2
LDR
 10
580.20625
 20
229.109333
 30
0.0
 41
239.999999
 42
239.999999
 50
243.936411
210
0.0
220
0.0
230
1.0
  0
TEXT
  8
1
  6
CONTINUOUS
 62
     7
  5
4F6
 10
603.498833
 20
263.202167
 30
0.0
 40
2.5
  1
POST SHALL BE SAW CUT
  7
MONOTXT
 72
     4
 11
629.433833
 21
264.452167
 31
0.0
210
0.0
220
0.0
230
1.0
  0
TEXT
  8
1
  6
CONTINUOUS
 62
     7
  5
4F7
 10
609.286167
 20
258.702167
 30
0.0
 40
2.5
  1
BEFORE GALVANIZING
  7
MONOTXT
 72
     4
 11
629.43375
 21
259.952167
 31
0.0
210
0.0
220
0.0
230
1.0
  0
TEXT
  8
1
  6
CONTINUOUS
 62
     7
  5
4F8
 10
551.20025
 20
234.369833
 30
0.0
 40
2.5
  1
0'-4"
  7
MONOTXT
 72
     4
 11
555.796667
 21
235.619833
 31
0.0
210
0.0
220
0.0
230
1.0
  0
TEXT
  8
1
  6
CONTINUOUS
 62
     7
  5
4F9
 10
535.123417
 20
219.02025
 30
0.0
 40
2.5
  1
C COLUMN
  7
MONOTXT
 72
     4
 11
544.936417
 21
220.27025
 31
0.0
210
0.0
220
0.0
230
1.0
  0
TEXT
  8
1
  6
CONTINUOUS
 62
     7
  5
4FA
 10
541.560417
 20
214.52025
 30
0.0
 40
2.5
  1
CUT
  7
MONOTXT
 72
     4
 11
544.936417
 21
215.77025
 31
0.0
210
0.0
220
0.0
230
1.0
  0
TEXT
  8
1
  6
CONTINUOUS
 62
     7
  5
4FB
 10
536.037417
 20
217.89125
 30
0.0
 40
2.5
  1
L
  7
MONOTXT
 72
     4
 11
536.755917
 21
219.14125
 31
0.0
210
0.0
220
0.0
230
1.0
  0
TEXT
  8
1
  6
CONTINUOUS
 62
     7
  5
4FC
 10
593.00675
 20
237.4045
 30
0.0
 40
2.5
  1
SEE HINGE
  7
MONOTXT
 72
     4
 11
602.760667
 21
238.6545
 31
0.0
210
0.0
220
0.0
230
1.0
  0
TEXT
  8
1
  6
CONTINUOUS
 62
     7
  5
4FD
 10
589.640583
 20
232.9045
 30
0.0
 40
2.5
  1
PLATE DETAIL
  7
MONOTXT
 72
     4
 11
602.760583
 21
234.1545
 31
0.0
210
0.0
220
0.0
230
1.0
  0
TEXT
  8
1
  6
CONTINUOUS
 62
     7
  5
4FE
 10
552.561083
 20
246.82075
 30
0.0
 40
2.5
  1
BOTTOM
  7
MONOTXT
 72
     4
 11
559.95275
 21
248.07075
 31
0.0
210
0.0
220
0.0
230
1.0
  0
TEXT
  8
1
  6
CONTINUOUS
 62
     7
  5
4FF
 10
552.443
 20
242.32075
 30
0.0
 40
2.5
  1
OF SIGN
  7
MONOTXT
 72
     4
 11
559.952833
 21
243.57075
 31
0.0
210
0.0
220
0.0
230
1.0
  0
LINE
  8
1
  6
CONTINUOUS
 62
     7
  5
500
 10
540.138833
 20
163.227667
 30
0.0
 11
606.16325
 21
163.227667
 31
0.0
  0
CIRCLE
  8
1
  6
CONTINUOUS
 62
     7
  5
501
 10
338.033
 20
226.852417
 30
0.0
 40
2.0
210
0.0
220
0.0
230
1.0
  0
TEXT
  8
1
  6
CONTINUOUS
 62
     7
  5
502
 10
335.546833
 20
222.024167
 30
0.0
 40
7.0
  1
*
  7
txt
 72
     4
 11
337.712583
 21
225.524167
 31
0.0
210
0.0
220
0.0
230
1.0
  0
LINE
  8
1
  6
CONTINUOUS
 62
     7
  5
503
 10
301.920583
 20
336.352917
 30
0.0
 11
362.565167
 21
336.352917
 31
0.0
  0
LINE
  8
1
  6
CONTINUOUS
 62
     7
  5
504
 10
316.635333
 20
349.935
 30
0.0
 11
363.062667
 21
349.935
 31
0.0
  0
LINE
  8
1
  6
CONTINUOUS
 62
     7
  5
505
 10
388.090167
 20
302.632833
 30
0.0
 11
445.84575
 21
302.632833
 31
0.0
  0
LINE
  8
1
  6
CONTINUOUS
 62
     7
  5
506
 10
388.090167
 20
293.5905
 30
0.0
 11
445.84575
 21
293.5905
 31
0.0
  0
LINE
  8
1
  6
CONTINUOUS
 62
     7
  5
507
 10
388.090167
 20
284.801667
 30
0.0
 11
445.84575
 21
284.801667
 31
0.0
  0
LINE
  8
1
  6
CONTINUOUS
 62
     7
  5
508
 10
388.090167
 20
275.928333
 30
0.0
 11
445.84575
 21
275.928333
 31
0.0
  0
INSERT
  8
1
  6
CONTINUOUS
 62
     1
  5
509
  2
LDR
 10
388.090167
 20
302.632833
 30
0.0
 41
240.0
 42
240.0
 50
180.0
210
0.0
220
0.0
230
1.0
  0
INSERT
  8
1
  6
CONTINUOUS
 62
     1
  5
50A
  2
LDR
 10
388.090167
 20
293.5905
 30
0.0
 41
240.0
 42
240.0
 50
180.0
210
0.0
220
0.0
230
1.0
  0
INSERT
  8
1
  6
CONTINUOUS
 62
     1
  5
50B
  2
LDR
 10
388.090167
 20
284.801667
 30
0.0
 41
240.0
 42
240.0
 50
180.0
210
0.0
220
0.0
230
1.0
  0
INSERT
  8
1
  6
CONTINUOUS
 62
     1
  5
50C
  2
LDR
 10
388.090167
 20
284.801667
 30
0.0
 41
240.0
 42
240.0
 50
180.0
210
0.0
220
0.0
230
1.0
  0
INSERT
  8
1
  6
CONTINUOUS
 62
     1
  5
50D
  2
LDR
 10
388.090167
 20
275.928333
 30
0.0
 41
240.0
 42
240.0
 50
180.0
210
0.0
220
0.0
230
1.0
  0
INSERT
  8
1
  6
CONTINUOUS
 62
     1
  5
50E
  2
LDR
 10
445.84575
 20
275.928333
 30
0.0
 41
240.0
 42
240.0
210
0.0
220
0.0
230
1.0
  0
INSERT
  8
1
  6
CONTINUOUS
 62
     1
  5
50F
  2
LDR
 10
445.84575
 20
284.801667
 30
0.0
 41
240.0
 42
240.0
210
0.0
220
0.0
230
1.0
  0
INSERT
  8
1
  6
CONTINUOUS
 62
     1
  5
510
  2
LDR
 10
445.84575
 20
284.801667
 30
0.0
 41
240.0
 42
240.0
210
0.0
220
0.0
230
1.0
  0
INSERT
  8
1
  6
CONTINUOUS
 62
     1
  5
511
  2
LDR
 10
445.84575
 20
293.5905
 30
0.0
 41
240.0
 42
240.0
210
0.0
220
0.0
230
1.0
  0
INSERT
  8
1
  6
CONTINUOUS
 62
     1
  5
512
  2
LDR
 10
445.84575
 20
293.5905
 30
0.0
 41
240.0
 42
240.0
210
0.0
220
0.0
230
1.0
  0
INSERT
  8
1
  6
CONTINUOUS
 62
     1
  5
513
  2
LDR
 10
445.84575
 20
302.632833
 30
0.0
 41
240.0
 42
240.0
210
0.0
220
0.0
230
1.0
  0
INSERT
  8
1
  6
CONTINUOUS
 62
     1
  5
514
  2
LDR
 10
445.84575
 20
302.632833
 30
0.0
 41
240.0
 42
240.0
210
0.0
220
0.0
230
1.0
  0
TEXT
  8
1
  6
CONTINUOUS
 62
     7
  5
515
 10
385.160833
 20
301.51325
 30
0.0
 40
2.5
  1
/
  7
MONOTXT
 72
     4
 11
385.859667
 21
302.76325
 31
0.0
210
0.0
220
0.0
230
1.0
  0
TEXT
  8
1
  6
CONTINUOUS
 62
     7
  5
516
 10
385.160833
 20
292.507833
 30
0.0
 40
2.5
  1
/
  7
MONOTXT
 72
     4
 11
385.859667
 21
293.757833
 31
0.0
210
0.0
220
0.0
230
1.0
  0
TEXT
  8
1
  6
CONTINUOUS
 62
     7
  5
517
 10
385.160833
 20
283.459417
 30
0.0
 40
2.5
  1
/
  7
MONOTXT
 72
     4
 11
385.859667
 21
284.709417
 31
0.0
210
0.0
220
0.0
230
1.0
  0
TEXT
  8
1
  6
CONTINUOUS
 62
     7
  5
518
 10
385.266
 20
274.4115
 30
0.0
 40
2.5
  1
/
  7
MONOTXT
 72
     4
 11
385.964833
 21
275.6615
 31
0.0
210
0.0
220
0.0
230
1.0
  0
TEXT
  8
1
  6
CONTINUOUS
 62
     7
  5
519
 10
379.629667
 20
114.694083
 30
0.0
 40
2.5
  1
H.S. BOLT, GALV. A-325, WITH HEX. HEAD,
  7
MONOTXT
 11
379.629667
 21
117.194083
 31
0.0
210
0.0
220
0.0
230
1.0
 73
     3
  0
TEXT
  8
1
  6
CONTINUOUS
 62
     7
  5
51A
 10
379.629667
 20
111.194083
 30
0.0
 40
2.5
  1
HEX. NUT AND WASHERS TYP. (USE
  7
MONOTXT
 11
379.629667
 21
113.694083
 31
0.0
210
0.0
220
0.0
230
1.0
 73
     3
  0
TEXT
  8
1
  6
CONTINUOUS
 62
     7
  5
51B
 10
379.629667
 20
107.694083
 30
0.0
 40
2.5
  1
BEVELED WASHERS WHERE NECESSARY)
  7
MONOTXT
 11
379.629667
 21
110.194083
 31
0.0
210
0.0
220
0.0
230
1.0
 73
     3
  0
TEXT
  8
1
  6
CONTINUOUS
 62
     7
  5
51C
 10
379.629667
 20
104.194083
 30
0.0
 40
2.5
  1
FOR TIGHTENING PROCEDURE SEE NOTE 1.
  7
MONOTXT
 11
379.629667
 21
106.694083
 31
0.0
210
0.0
220
0.0
230
1.0
 73
     3
  0
TEXT
  8
1
  6
CONTINUOUS
 62
     7
  5
51D
 10
385.676083
 20
157.13125
 30
0.0
 40
2.5
  1
M
 50
90.0
  7
MONOTXT
 72
     4
 11
384.426083
 21
158.085917
 31
0.0
210
0.0
220
0.0
230
1.0
  0
TEXT
  8
1
  6
CONTINUOUS
 62
     7
  5
51E
 10
385.575083
 20
147.22625
 30
0.0
 40
2.5
  1
M
 50
90.0
  7
MONOTXT
 72
     4
 11
384.325083
 21
148.180917
 31
0.0
210
0.0
220
0.0
230
1.0
  0
TEXT
  8
1
  6
CONTINUOUS
 62
     7
  5
51F
 10
459.2315
 20
157.434417
 30
0.0
 40
2.5
  1
M
 50
90.0
  7
MONOTXT
 72
     4
 11
457.9815
 21
158.389083
 31
0.0
210
0.0
220
0.0
230
1.0
  0
TEXT
  8
1
  6
CONTINUOUS
 62
     7
  5
520
 10
459.2315
 20
147.327333
 30
0.0
 40
2.5
  1
M
 50
90.0
  7
MONOTXT
 72
     4
 11
457.9815
 21
148.282
 31
0.0
210
0.0
220
0.0
230
1.0
  0
POLYLINE
  8
1
  6
CONTINUOUS
 62
     7
  5
521
 66
     1
 10
0.0
 20
0.0
 30
0.0
  0
VERTEX
  8
1
  6
CONTINUOUS
 62
     7
  5
522
 10
499.684583
 20
18.141083
 30
0.0
  0
VERTEX
  8
1
  6
CONTINUOUS
 62
     7
  5
523
 10
497.684583
 20
14.677
 30
0.0
  0
VERTEX
  8
1
  6
CONTINUOUS
 62
     7
  5
524
 10
501.684583
 20
14.677
 30
0.0
  0
VERTEX
  8
1
  6
CONTINUOUS
 62
     7
  5
525
 10
499.684583
 20
18.141083
 30
0.0
  0
SEQEND
  8
1
  6
CONTINUOUS
 62
     7
  5
526
  0
TEXT
  8
1
  6
CONTINUOUS
 62
     7
  5
527
 10
499.020917
 20
14.842917
 30
0.0
 40
2.0
  1
8
  7
MONOTXT
210
0.0
220
0.0
230
1.0
  0
POLYLINE
  8
1
  6
CONTINUOUS
 62
     7
  5
528
 66
     1
 10
0.0
 20
0.0
 30
0.0
  0
VERTEX
  8
1
  6
CONTINUOUS
 62
     7
  5
529
 10
497.927917
 20
115.11575
 30
0.0
  0
VERTEX
  8
1
  6
CONTINUOUS
 62
     7
  5
52A
 10
495.927917
 20
111.651667
 30
0.0
  0
VERTEX
  8
1
  6
CONTINUOUS
 62
     7
  5
52B
 10
499.927917
 20
111.651667
 30
0.0
  0
VERTEX
  8
1
  6
CONTINUOUS
 62
     7
  5
52C
 10
497.927917
 20
115.11575
 30
0.0
  0
SEQEND
  8
1
  6
CONTINUOUS
 62
     7
  5
52D
  0
TEXT
  8
1
  6
CONTINUOUS
 62
     7
  5
52E
 10
497.189
 20
111.778667
 30
0.0
 40
2.0
  1
8
  7
MONOTXT
210
0.0
220
0.0
230
1.0
  0
TEXT
  8
1
  6
CONTINUOUS
 62
     7
  5
52F
 10
369.444417
 20
61.382917
 30
0.0
 40
2.5
  1
NOTE:
  7
MONOTXT
 11
369.444417
 21
63.882917
 31
0.0
210
0.0
220
0.0
230
1.0
 73
     3
  0
TEXT
  8
1
  6
CONTINUOUS
 62
     7
  5
530
 10
369.444417
 20
56.882917
 30
0.0
 40
2.5
  1
 
  7
MONOTXT
 11
369.444417
 21
59.382917
 31
0.0
210
0.0
220
0.0
230
1.0
 73
     3
  0
TEXT
  8
1
  6
CONTINUOUS
 62
     7
  5
531
 10
369.444417
 20
52.382917
 30
0.0
 40
2.5
  1
1.    PROCEDURE FOR ASSEMBLY OF HINGE PLATE
  7
MONOTXT
 11
369.444417
 21
54.882917
 31
0.0
210
0.0
220
0.0
230
1.0
 73
     3
  0
TEXT
  8
1
  6
CONTINUOUS
 62
     7
  5
532
 10
369.444417
 20
47.882917
 30
0.0
 40
2.5
  1
 
  7
MONOTXT
 11
369.444417
 21
50.382917
 31
0.0
210
0.0
220
0.0
230
1.0
 73
     3
  0
TEXT
  8
1
  6
CONTINUOUS
 62
     7
  5
533
 10
369.444417
 20
43.382917
 30
0.0
 40
2.5
  1
   A.   TIGHTEN BOLTS IN SYSTEMATIC ORDER TO THE
  7
MONOTXT
 11
369.444417
 21
45.882917
 31
0.0
210
0.0
220
0.0
230
1.0
 73
     3
  0
TEXT
  8
1
  6
CONTINUOUS
 62
     7
  5
534
 10
369.444417
 20
38.882917
 30
0.0
 40
2.5
  1
      PRESCRIBED TENSION.
  7
MONOTXT
 11
369.444417
 21
41.382917
 31
0.0
210
0.0
220
0.0
230
1.0
 73
     3
  0
TEXT
  8
1
  6
CONTINUOUS
 62
     7
  5
535
 10
369.444417
 20
34.382917
 30
0.0
 40
2.5
  1
 
  7
MONOTXT
 11
369.444417
 21
36.882917
 31
0.0
210
0.0
220
0.0
230
1.0
 73
     3
  0
TEXT
  8
1
  6
CONTINUOUS
 62
     7
  5
536
 10
369.444417
 20
29.882917
 30
0.0
 40
2.5
  1
   B.   CONNECTING BOLTS ARE TO BE TENSIONED
  7
MONOTXT
 11
369.444417
 21
32.382917
 31
0.0
210
0.0
220
0.0
230
1.0
 73
     3
  0
TEXT
  8
1
  6
CONTINUOUS
 62
     7
  5
537
 10
369.444417
 20
25.382917
 30
0.0
 40
2.5
  1
      (TIGHTENED) USING THE TURN OF NUT METHOD
  7
MONOTXT
 11
369.444417
 21
27.882917
 31
0.0
210
0.0
220
0.0
230
1.0
 73
     3
  0
TEXT
  8
1
  6
CONTINUOUS
 62
     7
  5
538
 10
369.444417
 20
20.882917
 30
0.0
 40
2.5
  1
      IN ACCORDANCE WITH SECTION 615 OF THE
  7
MONOTXT
 11
369.444417
 21
23.382917
 31
0.0
210
0.0
220
0.0
230
1.0
 73
     3
  0
TEXT
  8
1
  6
CONTINUOUS
 62
     7
  5
539
 10
369.444417
 20
16.382917
 30
0.0
 40
2.5
  1
      SPECIFICATIONS.
  7
MONOTXT
 11
369.444417
 21
18.882917
 31
0.0
210
0.0
220
0.0
230
1.0
 73
     3
  0
TEXT
  8
1
  6
CONTINUOUS
 62
     7
  5
53A
 10
501.17825
 20
112.062083
 30
0.0
 40
2.0
  1
W10 BEHIND GR, DELETED S3, DELETED BURR NOTE, SUBSTITUTED A572 GR50 NOTES, SUBSITUTED
  7
MONOTXT
210
0.0
220
0.0
230
1.0
  0
TEXT
  8
1
  6
CONTINUOUS
 62
     7
  5
53B
 10
501.17825
 20
108.062083
 30
0.0
 40
2.0
  1
615 NOTE FOR HINGE PLATE
  7
MONOTXT
210
0.0
220
0.0
230
1.0
  0
TEXT
  8
1
  6
CONTINUOUS
 62
     7
  5
53C
 10
371.99425
 20
314.92675
 30
0.0
 40
2.5
  1
BOLT SIZE                   MINIMUM RESIDUAL
  7
MONOTXT
 11
371.99425
 21
317.42675
 31
0.0
210
0.0
220
0.0
230
1.0
 73
     3
  0
TEXT
  8
1
  6
CONTINUOUS
 62
     7
  5
53D
 10
371.99425
 20
310.42675
 30
0.0
 40
2.5
  1
                            BOLT TENSION
  7
MONOTXT
 11
371.99425
 21
312.92675
 31
0.0
210
0.0
220
0.0
230
1.0
 73
     3
  0
TEXT
  8
1
  6
CONTINUOUS
 62
     7
  5
53E
 10
371.99425
 20
305.92675
 30
0.0
 40
2.5
  1
 
  7
MONOTXT
 11
371.99425
 21
308.42675
 31
0.0
210
0.0
220
0.0
230
1.0
 73
     3
  0
TEXT
  8
1
  6
CONTINUOUS
 62
     7
  5
53F
 10
371.99425
 20
301.42675
 30
0.0
 40
2.5
  1
   1/2 " 0                        12,000 LBS.
  7
MONOTXT
 11
371.99425
 21
303.92675
 31
0.0
210
0.0
220
0.0
230
1.0
 73
     3
  0
TEXT
  8
1
  6
CONTINUOUS
 62
     7
  5
540
 10
371.99425
 20
296.92675
 30
0.0
 40
2.5
  1
   
  7
MONOTXT
 11
371.99425
 21
299.42675
 31
0.0
210
0.0
220
0.0
230
1.0
 73
     3
  0
TEXT
  8
1
  6
CONTINUOUS
 62
     7
  5
541
 10
371.99425
 20
292.42675
 30
0.0
 40
2.5
  1
   5/8 " 0                        19,000 LBS.
  7
MONOTXT
 11
371.99425
 21
294.92675
 31
0.0
210
0.0
220
0.0
230
1.0
 73
     3
  0
TEXT
  8
1
  6
CONTINUOUS
 62
     7
  5
542
 10
371.99425
 20
287.92675
 30
0.0
 40
2.5
  1
 
  7
MONOTXT
 11
371.99425
 21
290.42675
 31
0.0
210
0.0
220
0.0
230
1.0
 73
     3
  0
TEXT
  8
1
  6
CONTINUOUS
 62
     7
  5
543
 10
371.99425
 20
283.42675
 30
0.0
 40
2.5
  1
   3/4 " 0                        28,000 LBS.
  7
MONOTXT
 11
371.99425
 21
285.92675
 31
0.0
210
0.0
220
0.0
230
1.0
 73
     3
  0
TEXT
  8
1
  6
CONTINUOUS
 62
     7
  5
544
 10
371.99425
 20
278.92675
 30
0.0
 40
2.5
  1
 
  7
MONOTXT
 11
371.99425
 21
281.42675
 31
0.0
210
0.0
220
0.0
230
1.0
 73
     3
  0
TEXT
  8
1
  6
CONTINUOUS
 62
     7
  5
545
 10
371.99425
 20
274.42675
 30
0.0
 40
2.5
  1
   7/8 " 0                        39,000 LBS.
  7
MONOTXT
 11
371.99425
 21
276.92675
 31
0.0
210
0.0
220
0.0
230
1.0
 73
     3
  0
TEXT
  8
1
  6
CONTINUOUS
 62
     7
  5
546
 10
342.723417
 20
225.602083
 30
0.0
 40
2.5
  1
CAN BE USED IF THE SUPPORTS ARE LOCATED BEHIND GUARDRAIL (OR ON BENCH).
  7
MONOTXT
 11
342.723417
 21
228.102083
 31
0.0
210
0.0
220
0.0
230
1.0
 73
     3
  0
POLYLINE
  8
1
  6
CONTINUOUS
 62
     7
  5
547
 66
     1
 10
0.0
 20
0.0
 30
0.0
  0
VERTEX
  8
1
  6
CONTINUOUS
 62
     7
  5
548
 10
497.73175
 20
106.603
 30
0.0
  0
VERTEX
  8
1
  6
CONTINUOUS
 62
     7
  5
549
 10
495.73175
 20
103.138917
 30
0.0
  0
VERTEX
  8
1
  6
CONTINUOUS
 62
     7
  5
54A
 10
499.73175
 20
103.138917
 30
0.0
  0
VERTEX
  8
1
  6
CONTINUOUS
 62
     7
  5
54B
 10
497.73175
 20
106.603
 30
0.0
  0
SEQEND
  8
1
  6
CONTINUOUS
 62
     7
  5
54C
  0
TEXT
  8
1
  6
CONTINUOUS
 62
     7
  5
54D
 10
496.992833
 20
103.265917
 30
0.0
 40
2.0
  1
9
  7
MONOTXT
210
0.0
220
0.0
230
1.0
  0
TEXT
  8
1
  6
CONTINUOUS
 62
     7
  5
54E
 10
500.8185
 20
103.968083
 30
0.0
 40
2.0
  1
CHANGED NOTES 2, 4 AND 7, REVISED LAST NOTE
  7
MONOTXT
210
0.0
220
0.0
230
1.0
  0
POLYLINE
  8
1
  6
CONTINUOUS
 62
     7
  5
54F
 66
     1
 10
0.0
 20
0.0
 30
0.0
  0
VERTEX
  8
1
  6
CONTINUOUS
 62
     7
  5
550
 10
499.684583
 20
13.815917
 30
0.0
  0
VERTEX
  8
1
  6
CONTINUOUS
 62
     7
  5
551
 10
497.684583
 20
10.351833
 30
0.0
  0
VERTEX
  8
1
  6
CONTINUOUS
 62
     7
  5
552
 10
501.684583
 20
10.351833
 30
0.0
  0
VERTEX
  8
1
  6
CONTINUOUS
 62
     7
  5
553
 10
499.684583
 20
13.815917
 30
0.0
  0
SEQEND
  8
1
  6
CONTINUOUS
 62
     7
  5
554
  0
TEXT
  8
1
  6
CONTINUOUS
 62
     7
  5
555
 10
499.020917
 20
10.51775
 30
0.0
 40
2.0
  1
9
  7
MONOTXT
210
0.0
220
0.0
230
1.0
  0
TEXT
  8
1
  6
CONTINUOUS
 62
     7
  5
556
 10
302.967417
 20
395.6115
 30
0.0
 40
2.5
  1
GENERAL NOTES:
  7
MONOTXT
 11
302.967417
 21
398.1115
 31
0.0
210
0.0
220
0.0
230
1.0
 73
     3
  0
TEXT
  8
1
  6
CONTINUOUS
 62
     7
  5
557
 10
302.967417
 20
391.1115
 30
0.0
 40
2.5
  1
 
  7
MONOTXT
 11
302.967417
 21
393.6115
 31
0.0
210
0.0
220
0.0
230
1.0
 73
     3
  0
TEXT
  8
1
  6
CONTINUOUS
 62
     7
  5
558
 10
302.967417
 20
386.6115
 30
0.0
 40
2.5
  1
MATERIALS AND FABRICATION SHALL CONFORM TO THE REQUIREMENTS OF THE WEST VIRGINIA DIVISION OF HIGHWAYS SPECIFICATIONS.
  7
MONOTXT
 11
302.967417
 21
389.1115
 31
0.0
210
0.0
220
0.0
230
1.0
 73
     3
  0
TEXT
  8
1
  6
CONTINUOUS
 62
     7
  5
559
 10
302.967417
 20
382.1115
 30
0.0
 40
2.5
  1
ALL STEEL PLATES AND SHAPES SHALL CONFORM TO ASTM-A572, GRADE 50. ASTM A588 MAY BE SUBSITITUTED WHEN APPROVED BY THE ENGINEER.
  7
MONOTXT
 11
302.967417
 21
384.6115
 31
0.0
210
0.0
220
0.0
230
1.0
 73
     3
  0
TEXT
  8
1
  6
CONTINUOUS
 62
     7
  5
55A
 10
302.967417
 20
377.6115
 30
0.0
 40
2.5
  1
FLANGE HOLES FOR HINGE BOLTS SHALL BE DRILLED.
  7
MONOTXT
 11
302.967417
 21
380.1115
 31
0.0
210
0.0
220
0.0
230
1.0
 73
     3
  0
TEXT
  8
1
  6
CONTINUOUS
 62
     7
  5
55B
 10
302.967417
 20
373.1115
 30
0.0
 40
2.5
  1
ALL HOLES SHALL BE DRILLED. ALL PLATE CUTS SHALL BE SAW CUTS. FLAME CUTTING WILL BE PERMITTED PROVIDED
  7
MONOTXT
 11
302.967417
 21
375.6115
 31
0.0
210
0.0
220
0.0
230
1.0
 73
     3
  0
TEXT
  8
1
  6
CONTINUOUS
 62
     7
  5
55C
 10
302.967417
 20
368.6115
 30
0.0
 40
2.5
  1
ALL EDGES ARE GROUND. METAL PROJECTING BEYOND THE PLANE OF THE PLATE FACE WILL NOT BE TOLERATED.
  7
MONOTXT
 11
302.967417
 21
371.1115
 31
0.0
210
0.0
220
0.0
230
1.0
 73
     3
  0
TEXT
  8
1
  6
CONTINUOUS
 62
     7
  5
55D
 10
302.967417
 20
364.1115
 30
0.0
 40
2.5
  1
 
  7
MONOTXT
 11
302.967417
 21
366.6115
 31
0.0
210
0.0
220
0.0
230
1.0
 73
     3
  0
TEXT
  8
1
  6
CONTINUOUS
 62
     7
  5
55E
 10
302.967417
 20
359.6115
 30
0.0
 40
2.5
  1
ALL HIGH STRENGTH BOLTS, NUTS, AND WASHERS SHALL CONFORM TO ASTM-A325. NUTS AND WASHERS SHALL BE THOSE RECOMMENDED IN ASTM A325.
  7
MONOTXT
 11
302.967417
 21
362.1115
 31
0.0
210
0.0
220
0.0
230
1.0
 73
     3
  0
TEXT
  8
1
  6
CONTINUOUS
 62
     7
  5
55F
 10
302.967417
 20
355.1115
 30
0.0
 40
2.5
  1
HIGH STRENGTH BOLTS IN THE BASE CONNECTION SHALL BE TIGHTENED ONLY TO THE TORQUE SPECIFIED IN THE TABLE ON SHEET
  7
MONOTXT
 11
302.967417
 21
357.6115
 31
0.0
210
0.0
220
0.0
230
1.0
 73
     3
  0
TEXT
  8
1
  6
CONTINUOUS
 62
     7
  5
560
 10
302.967417
 20
350.6115
 30
0.0
 40
2.5
  1
TE1-3A. DO NOT OVERTIGHTEN.
  7
MONOTXT
 11
302.967417
 21
353.1115
 31
0.0
210
0.0
220
0.0
230
1.0
 73
     3
  0
TEXT
  8
1
  6
CONTINUOUS
 62
     7
  5
561
 10
302.967417
 20
346.1115
 30
0.0
 40
2.5
  1
ALL SHAPES AND PLATES SHALL BE GALVANIZED PER ASTM A123 AND ALL BOLTS SHALL BE GALVANIZED PER ASTM A153.
  7
MONOTXT
 11
302.967417
 21
348.6115
 31
0.0
210
0.0
220
0.0
230
1.0
 73
     3
  0
TEXT
  8
1
  6
CONTINUOUS
 62
     7
  5
562
 10
302.967417
 20
341.6115
 30
0.0
 40
2.5
  1
 
  7
MONOTXT
 11
302.967417
 21
344.1115
 31
0.0
210
0.0
220
0.0
230
1.0
 73
     3
  0
TEXT
  8
1
  6
CONTINUOUS
 62
     7
  5
563
 10
302.967417
 20
337.1115
 30
0.0
 40
2.5
  1
FABRICATOR NOTE: IMPORTANT-ALL HINGE BOLTS SHALL BE TIGHTENED IN THE SHOP FOLLOWING METHOD IN NOTE 1 BELOW.
  7
MONOTXT
 11
302.967417
 21
339.6115
 31
0.0
210
0.0
220
0.0
230
1.0
 73
     3
  0
TEXT
  8
1
  6
CONTINUOUS
 62
     7
  5
564
 10
302.967417
 20
332.6115
 30
0.0
 40
2.5
  1
TIGHTENING SHALL BE TO SUCH A DEGREE AS TO OBTAIN THE FOLLOWING MINIMUM RESIDUAL TENSIONS ON EACH BOLT
  7
MONOTXT
 11
302.967417
 21
335.1115
 31
0.0
210
0.0
220
0.0
230
1.0
 73
     3
  0
TEXT
  8
1
  6
CONTINUOUS
 62
     7
  5
565
 10
302.967417
 20
328.1115
 30
0.0
 40
2.5
  1
(SEE TABLE 615.5.6.3 A).
  7
MONOTXT
 11
302.967417
 21
330.6115
 31
0.0
210
0.0
220
0.0
230
1.0
 73
     3
  0
TEXT
  8
1
  6
CONTINUOUS
 62
     7
  5
566
 10
302.967417
 20
323.6115
 30
0.0
 40
2.5
  1
 
  7
MONOTXT
 11
302.967417
 21
326.1115
 31
0.0
210
0.0
220
0.0
230
1.0
 73
     3
  0
TEXT
  8
1
  6
CONTINUOUS
 62
     7
  5
567
 10
302.967417
 20
319.1115
 30
0.0
 40
2.5
  1
 
  7
MONOTXT
 11
302.967417
 21
321.6115
 31
0.0
210
0.0
220
0.0
230
1.0
 73
     3
  0
TEXT
  8
1
  6
CONTINUOUS
 62
     7
  5
568
 10
302.967417
 20
314.6115
 30
0.0
 40
2.5
  1
 
  7
MONOTXT
 11
302.967417
 21
317.1115
 31
0.0
210
0.0
220
0.0
230
1.0
 73
     3
  0
TEXT
  8
1
  6
CONTINUOUS
 62
     7
  5
569
 10
302.967417
 20
310.1115
 30
0.0
 40
2.5
  1
 
  7
MONOTXT
 11
302.967417
 21
312.6115
 31
0.0
210
0.0
220
0.0
230
1.0
 73
     3
  0
TEXT
  8
1
  6
CONTINUOUS
 62
     7
  5
56A
 10
302.967417
 20
305.6115
 30
0.0
 40
2.5
  1
 
  7
MONOTXT
 11
302.967417
 21
308.1115
 31
0.0
210
0.0
220
0.0
230
1.0
 73
     3
  0
TEXT
  8
1
  6
CONTINUOUS
 62
     7
  5
56B
 10
302.967417
 20
301.1115
 30
0.0
 40
2.5
  1
 
  7
MONOTXT
 11
302.967417
 21
303.6115
 31
0.0
210
0.0
220
0.0
230
1.0
 73
     3
  0
TEXT
  8
1
  6
CONTINUOUS
 62
     7
  5
56C
 10
302.967417
 20
296.6115
 30
0.0
 40
2.5
  1
 
  7
MONOTXT
 11
302.967417
 21
299.1115
 31
0.0
210
0.0
220
0.0
230
1.0
 73
     3
  0
TEXT
  8
1
  6
CONTINUOUS
 62
     7
  5
56D
 10
302.967417
 20
292.1115
 30
0.0
 40
2.5
  1
 
  7
MONOTXT
 11
302.967417
 21
294.6115
 31
0.0
210
0.0
220
0.0
230
1.0
 73
     3
  0
TEXT
  8
1
  6
CONTINUOUS
 62
     7
  5
56E
 10
302.967417
 20
287.6115
 30
0.0
 40
2.5
  1
 
  7
MONOTXT
 11
302.967417
 21
290.1115
 31
0.0
210
0.0
220
0.0
230
1.0
 73
     3
  0
TEXT
  8
1
  6
CONTINUOUS
 62
     7
  5
56F
 10
302.967417
 20
283.1115
 30
0.0
 40
2.5
  1
 
  7
MONOTXT
 11
302.967417
 21
285.6115
 31
0.0
210
0.0
220
0.0
230
1.0
 73
     3
  0
TEXT
  8
1
  6
CONTINUOUS
 62
     7
  5
570
 10
302.967417
 20
278.6115
 30
0.0
 40
2.5
  1
 
  7
MONOTXT
 11
302.967417
 21
281.1115
 31
0.0
210
0.0
220
0.0
230
1.0
 73
     3
  0
TEXT
  8
1
  6
CONTINUOUS
 62
     7
  5
571
 10
302.967417
 20
274.1115
 30
0.0
 40
2.5
  1
 
  7
MONOTXT
 11
302.967417
 21
276.6115
 31
0.0
210
0.0
220
0.0
230
1.0
 73
     3
  0
TEXT
  8
1
  6
CONTINUOUS
 62
     7
  5
572
 10
302.967417
 20
269.6115
 30
0.0
 40
2.5
  1
 
  7
MONOTXT
 11
302.967417
 21
272.1115
 31
0.0
210
0.0
220
0.0
230
1.0
 73
     3
  0
TEXT
  8
1
  6
CONTINUOUS
 62
     7
  5
573
 10
302.967417
 20
265.1115
 30
0.0
 40
2.5
  1
 
  7
MONOTXT
 11
302.967417
 21
267.6115
 31
0.0
210
0.0
220
0.0
230
1.0
 73
     3
  0
TEXT
  8
1
  6
CONTINUOUS
 62
     7
  5
574
 10
302.967417
 20
260.6115
 30
0.0
 40
2.5
  1
FOR BASE CONNECTIONS TO BE USED IN CONJUNCTION WITH THE POLE SELECTION CHART SHOWN, SEE SHEET TE1-3A.
  7
MONOTXT
 11
302.967417
 21
263.1115
 31
0.0
210
0.0
220
0.0
230
1.0
 73
     3
  0
TEXT
  8
1
  6
CONTINUOUS
 62
     7
  5
575
 10
288.079583
 20
90.137417
 30
0.0
 40
2.5
  1
0.36L
  7
MONOTXT
 72
     4
 11
293.089417
 21
91.387417
 31
0.0
210
0.0
220
0.0
230
1.0
  0
TEXT
  8
1
  6
CONTINUOUS
 62
     7
  5
576
 10
307.819083
 20
90.042917
 30
0.0
 40
2.5
  1
0.36L
  7
MONOTXT
 72
     4
 11
312.828917
 21
91.292917
 31
0.0
210
0.0
220
0.0
230
1.0
  0
TEXT
  8
1
  6
CONTINUOUS
 62
     7
  5
577
 10
393.963083
 20
84.052917
 30
0.0
 40
2.5
  1
S AND W SHAPES (SIDE VIEW)
  7
MONOTXT
 72
     4
 11
424.01225
 21
85.302917
 31
0.0
210
0.0
220
0.0
230
1.0
  0
LINE
  8
1
  6
CONTINUOUS
 62
     7
  5
578
 10
602.122917
 20
264.205083
 30
0.0
 11
597.371833
 21
264.205083
 31
0.0
  0
TEXT
  8
1
  6
CONTINUOUS
 62
     7
  5
579
 10
541.891083
 20
165.150917
 30
0.0
 40
3.5
  1
FOR W AND S SHAPES
  7
MONOTXT
 72
     4
 11
573.404833
 21
166.900917
 31
0.0
210
0.0
220
0.0
230
1.0
  0
ENDSEC
  0
EOF
