  0
SECTION
  2
HEADER
  9
$ACADVER
  1
AC1009
  9
$INSBASE
 10
0.0
 20
0.0
 30
0.0
  9
$EXTMIN
 10
-271.71225
 20
-251.587
 30
0.0
  9
$EXTMAX
 10
388.619167
 20
171.553
 30
0.0
  9
$LIMMIN
 10
0.0
 20
0.0
  9
$LIMMAX
 10
12.0
 20
9.0
  9
$ORTHOMODE
 70
     0
  9
$REGENMODE
 70
     1
  9
$FILLMODE
 70
     1
  9
$QTEXTMODE
 70
     0
  9
$MIRRTEXT
 70
     1
  9
$DRAGMODE
 70
     2
  9
$LTSCALE
 40
1.0
  9
$OSMODE
 70
     0
  9
$ATTMODE
 70
     1
  9
$TEXTSIZE
 40
0.2
  9
$TRACEWID
 40
0.05
  9
$TEXTSTYLE
  7
STANDARD
  9
$CLAYER
  8
0
  9
$CELTYPE
  6
CONTINUOUS
  9
$CECOLOR
 62
   256
  9
$DIMSCALE
 40
1.0
  9
$DIMASZ
 40
0.18
  9
$DIMEXO
 40
0.0625
  9
$DIMDLI
 40
0.38
  9
$DIMRND
 40
0.0
  9
$DIMDLE
 40
0.0
  9
$DIMEXE
 40
0.18
  9
$DIMTP
 40
0.0
  9
$DIMTM
 40
0.0
  9
$DIMTXT
 40
0.18
  9
$DIMCEN
 40
0.09
  9
$DIMTSZ
 40
0.0
  9
$DIMTOL
 70
     0
  9
$DIMLIM
 70
     0
  9
$DIMTIH
 70
     1
  9
$DIMTOH
 70
     1
  9
$DIMSE1
 70
     0
  9
$DIMSE2
 70
     0
  9
$DIMTAD
 70
     0
  9
$DIMZIN
 70
     0
  9
$DIMBLK
  1

  9
$DIMASO
 70
     1
  9
$DIMSHO
 70
     1
  9
$DIMPOST
  1

  9
$DIMAPOST
  1

  9
$DIMALT
 70
     0
  9
$DIMALTD
 70
     2
  9
$DIMALTF
 40
25.4
  9
$DIMLFAC
 40
1.0
  9
$DIMTOFL
 70
     0
  9
$DIMTVP
 40
0.0
  9
$DIMTIX
 70
     0
  9
$DIMSOXD
 70
     0
  9
$DIMSAH
 70
     0
  9
$DIMBLK1
  1

  9
$DIMBLK2
  1

  9
$DIMSTYLE
  2
STANDARD
  9
$DIMCLRD
 70
     0
  9
$DIMCLRE
 70
     0
  9
$DIMCLRT
 70
     0
  9
$DIMTFAC
 40
1.0
  9
$DIMGAP
 40
0.09
  9
$LUNITS
 70
     2
  9
$LUPREC
 70
     4
  9
$AXISMODE
 70
     0
  9
$AXISUNIT
 10
0.0
 20
0.0
  9
$SKETCHINC
 40
0.1
  9
$FILLETRAD
 40
0.0
  9
$AUNITS
 70
     0
  9
$AUPREC
 70
     0
  9
$MENU
  1
acad
  9
$ELEVATION
 40
0.0
  9
$PELEVATION
 40
0.0
  9
$THICKNESS
 40
0.0
  9
$LIMCHECK
 70
     0
  9
$BLIPMODE
 70
     1
  9
$CHAMFERA
 40
0.0
  9
$CHAMFERB
 40
0.0
  9
$SKPOLY
 70
     0
  9
$TDCREATE
 40
2451803.392187500
  9
$TDUPDATE
 40
2451803.392187500
  9
$TDINDWG
 40
0.0000000000
  9
$TDUSRTIMER
 40
0.0000000000
  9
$USRTIMER
 70
     1
  9
$ANGBASE
 50
0.0
  9
$ANGDIR
 70
     0
  9
$PDMODE
 70
     0
  9
$PDSIZE
 40
0.0
  9
$PLINEWID
 40
0.0
  9
$COORDS
 70
     0
  9
$SPLFRAME
 70
     0
  9
$SPLINETYPE
 70
     6
  9
$SPLINESEGS
 70
    10
  9
$ATTDIA
 70
     0
  9
$ATTREQ
 70
     1
  9
$HANDLING
 70
     1
  9
$HANDSEED
  5
2C5
  9
$SURFTAB1
 70
     6
  9
$SURFTAB2
 70
     6
  9
$SURFTYPE
 70
     6
  9
$SURFU
 70
     6
  9
$SURFV
 70
     6
  9
$UCSNAME
  2

  9
$UCSORG
 10
0.0
 20
0.0
 30
0.0
  9
$UCSXDIR
 10
1.0
 20
0.0
 30
0.0
  9
$UCSYDIR
 10
0.0
 20
1.0
 30
0.0
  9
$PUCSNAME
  2

  9
$PUCSORG
 10
0.0
 20
0.0
 30
0.0
  9
$PUCSXDIR
 10
1.0
 20
0.0
 30
0.0
  9
$PUCSYDIR
 10
0.0
 20
1.0
 30
0.0
  9
$USERI1
 70
     0
  9
$USERI2
 70
     0
  9
$USERI3
 70
     0
  9
$USERI4
 70
     0
  9
$USERI5
 70
     0
  9
$USERR1
 40
0.0
  9
$USERR2
 40
0.0
  9
$USERR3
 40
0.0
  9
$USERR4
 40
0.0
  9
$USERR5
 40
0.0
  9
$WORLDVIEW
 70
     1
  9
$SHADEDGE
 70
     3
  9
$SHADEDIF
 70
    70
  9
$TILEMODE
 70
     1
  9
$MAXACTVP
 70
    16
  9
$PINSBASE
 10
0.0
 20
0.0
 30
0.0
  9
$PLIMCHECK
 70
     0
  9
$PEXTMIN
 10
-1.000000E+20
 20
-1.000000E+20
 30
-1.000000E+20
  9
$PEXTMAX
 10
-1.000000E+20
 20
-1.000000E+20
 30
-1.000000E+20
  9
$PLIMMIN
 10
0.0
 20
0.0
  9
$PLIMMAX
 10
12.0
 20
9.0
  9
$UNITMODE
 70
     0
  9
$VISRETAIN
 70
     0
  9
$PLINEGEN
 70
     1
  9
$PSLTSCALE
 70
     0
  9
$TREEDEPTH
 70
  3020
  9
$DWGCODEPAGE
  3
ansi_1252
  0
ENDSEC
  0
SECTION
  2
TABLES
  0
TABLE
  2
VPORT
 70
     1
  0
VPORT
  2
*ACTIVE
 70
     0
 10
0.0
 20
0.0
 11
1.0
 21
1.0
 12
0.0
 22
0.0
 13
0.0
 23
0.0
 14
0.0
 24
0.0
 15
0.0
 25
0.0
 16
0.0
 26
0.0
 36
1.0
 17
13.586217
 27
-38.467
 37
0.0
 40
451.041
 41
1.795122
 42
50.0
 43
0.0
 44
0.0
 50
0.0
 51
0.0
 71
     0
 72
   100
 73
     1
 74
     0
 75
     0
 76
     0
 77
     0
 78
     0
  0
ENDTAB
  0
TABLE
  2
LTYPE
 70
     7
  0
LTYPE
  2
CONTINUOUS
 70
     0
  3
Solid line
 72
    65
 73
     0
 40
0.0
  0
LTYPE
  2
DOT
 70
    64
  3
. . . . . . . . . . . . . . . . . . . . . . . . . . . . . . . . .
 72
    65
 73
     2
 40
0.25
 49
0.0
 49
-0.25
  0
LTYPE
  2
HIDDEN
 70
    64
  3
__ __ __ __ __ __ __ __ __ __ __ __ __ __ __ __ __ __ __ __ __ 
 72
    65
 73
     2
 40
0.375
 49
0.25
 49
-0.125
  0
LTYPE
  2
DASHED
 70
    64
  3
__ __ __ __ __ __ __ __ __ __ __ __ __ __ __ __ __ __ __ __ __
 72
    65
 73
     2
 40
0.75
 49
0.5
 49
-0.25
  0
LTYPE
  2
DASHDOT
 70
    64
  3
__ . __ . __ . __ . __ . __ . __ . __ . __ . __ . __ . __ . _
 72
    65
 73
     4
 40
1.0
 49
0.5
 49
-0.25
 49
0.0
 49
-0.25
  0
LTYPE
  2
DIVIDE
 70
    64
  3
____ . . ____ . . ____ . . ____ . . ____ . . ____ . . ____ . .
 72
    65
 73
     6
 40
1.25
 49
0.5
 49
-0.25
 49
0.0
 49
-0.25
 49
0.0
 49
-0.25
  0
LTYPE
  2
CENTER
 70
    64
  3
____ _ ____ _ ____ _ ____ _ ____ _ ____ _ ____ _ ____ _ ____ _
 72
    65
 73
     4
 40
2.0
 49
1.25
 49
-0.25
 49
0.25
 49
-0.25
  0
ENDTAB
  0
TABLE
  2
LAYER
 70
     7
  0
LAYER
  2
0
 70
     0
 62
     7
  6
CONTINUOUS
  0
LAYER
  2
CONSTRUCTION_CLASS
 70
     0
 62
     7
  6
CONTINUOUS
  0
LAYER
  2
PATTERN_CLASS
 70
     0
 62
     7
  6
CONTINUOUS
  0
LAYER
  2
1
 70
    64
 62
     7
  6
CONTINUOUS
  0
LAYER
  2
4
 70
    64
 62
     7
  6
CONTINUOUS
  0
LAYER
  2
61
 70
    64
 62
     7
  6
CONTINUOUS
  0
LAYER
  2
2
 70
    64
 62
     7
  6
CONTINUOUS
  0
ENDTAB
  0
TABLE
  2
STYLE
 70
     4
  0
STYLE
  2
STANDARD
 70
     0
 40
0.0
 41
1.0
 50
0.0
 71
     0
 42
0.0
  3
txt
  4

  0
STYLE
  2
MONOTXT
 70
     0
 40
0.2
 41
1.0
 50
0.0
 71
     0
 42
0.2
  3
MONOTXT
  4

  0
STYLE
  2
txt
 70
     0
 40
0.2
 41
1.0
 50
0.0
 71
     0
 42
0.2
  3
TXT
  4

  0
STYLE
  2
ROMANT
 70
     0
 40
0.2
 41
1.0
 50
0.0
 71
     0
 42
0.2
  3
ROMANT
  4

  0
ENDTAB
  0
TABLE
  2
VIEW
 70
     0
  0
ENDTAB
  0
TABLE
  2
UCS
 70
     0
  0
ENDTAB
  0
TABLE
  2
APPID
 70
     1
  0
APPID
  2
ACAD
 70
     0
  0
ENDTAB
  0
TABLE
  2
DIMSTYLE
 70
     1
  0
DIMSTYLE
  2
STANDARD
 70
     0
  3

  4

  5

  6

  7

 40
1.0
 41
0.18
 42
0.0625
 43
0.38
 44
0.18
 45
0.0
 46
0.0
 47
0.0
 48
0.0
140
0.18
141
0.09
142
0.0
143
25.4
144
1.0
145
0.0
146
1.0
147
0.09
 71
     0
 72
     0
 73
     1
 74
     1
 75
     0
 76
     0
 77
     0
 78
     0
170
     0
171
     2
172
     0
173
     0
174
     0
175
     0
176
     0
177
     0
178
     0
  0
ENDTAB
  0
ENDSEC
  0
SECTION
  2
BLOCKS
  0
BLOCK
  8
4
  6
CONTINUOUS
 62
     1
  5
2D
  2
1SPT
 70
     0
 10
0.0
 20
0.0
 30
0.0
  3
1SPT
  0
LINE
  8
4
  6
CONTINUOUS
 62
     1
  5
2E
 10
-0.006667
 20
-0.001667
 30
0.0
 11
0.006667
 21
-0.001667
 31
0.0
  0
CIRCLE
  8
4
  6
CONTINUOUS
 62
     1
  5
2F
 10
0.0
 20
0.0
 30
0.0
 40
0.001708
210
0.0
220
0.0
230
1.0
  0
ENDBLK
  8
4
  6
CONTINUOUS
 62
     1
  5
30
  0
BLOCK
  8
1
  6
CONTINUOUS
 62
     1
  5
33
  2
2SPT
 70
     0
 10
0.0
 20
0.0
 30
0.0
  3
2SPT
  0
LINE
  8
1
  6
CONTINUOUS
 62
     1
  5
34
 10
-0.010083
 20
-0.001333
 30
0.0
 11
0.011167
 21
-0.001333
 31
0.0
  0
CIRCLE
  8
4
  6
CONTINUOUS
 62
     1
  5
35
 10
0.004714
 20
0.000391
 30
0.0
 40
0.001708
210
0.0
220
0.0
230
1.0
  0
CIRCLE
  8
4
  6
CONTINUOUS
 62
     1
  5
36
 10
-0.003856
 20
0.00039
 30
0.0
 40
0.001708
210
0.0
220
0.0
230
1.0
  0
ENDBLK
  8
4
  6
CONTINUOUS
 62
     1
  5
37
  0
BLOCK
  8
1
  6
CONTINUOUS
 62
     1
  5
119
  2
LDR
 70
     0
 10
0.0
 20
0.0
 30
0.0
  3
LNR
  0
POLYLINE
  8
1
  6
CONTINUOUS
 62
     1
  5
11A
 66
     1
 10
0.0
 20
0.0
 30
0.0
210
0.0
220
0.0
230
1.0
  0
VERTEX
  8
1
  6
CONTINUOUS
 62
     1
  5
11B
 10
-0.011987
 20
-0.001802
 30
0.0
 42
-0.265147
  0
VERTEX
  8
1
  6
CONTINUOUS
 62
     1
  5
11C
 10
-0.011849
 20
-0.001604
 30
0.0
 42
-0.064653
  0
VERTEX
  8
1
  6
CONTINUOUS
 62
     1
  5
11D
 10
-0.011407
 20
-0.001387
 30
0.0
 42
-0.025822
  0
VERTEX
  8
1
  6
CONTINUOUS
 62
     1
  5
11E
 10
-0.010681
 20
-0.00116
 30
0.0
 42
-0.014504
  0
VERTEX
  8
1
  6
CONTINUOUS
 62
     1
  5
11F
 10
-0.0097
 20
-0.000933
 30
0.0
 42
-0.009896
  0
VERTEX
  8
1
  6
CONTINUOUS
 62
     1
  5
120
 10
-0.008505
 20
-0.000715
 30
0.0
 42
-0.007708
  0
VERTEX
  8
1
  6
CONTINUOUS
 62
     1
  5
121
 10
-0.007146
 20
-0.000515
 30
0.0
 42
-0.006655
  0
VERTEX
  8
1
  6
CONTINUOUS
 62
     1
  5
122
 10
-0.005679
 20
-0.000342
 30
0.0
 42
-0.006278
  0
VERTEX
  8
1
  6
CONTINUOUS
 62
     1
  5
123
 10
-0.004164
 20
-0.000202
 30
0.0
 42
-0.006439
  0
VERTEX
  8
1
  6
CONTINUOUS
 62
     1
  5
124
 10
-0.002666
 20
-0.000101
 30
0.0
 42
-0.007196
  0
VERTEX
  8
1
  6
CONTINUOUS
 62
     1
  5
125
 10
-0.001246
 20
-0.000044
 30
0.0
 42
-0.008852
  0
VERTEX
  8
1
  6
CONTINUOUS
 62
     1
  5
126
 10
0.000037
 20
-0.000034
 30
0.0
 42
-0.008852
  0
SEQEND
  8
1
  6
CONTINUOUS
 62
     1
  5
127
  0
POLYLINE
  8
1
  6
CONTINUOUS
 62
     1
  5
128
 66
     1
 10
0.0
 20
0.0
 30
0.0
210
0.0
220
0.0
230
1.0
  0
VERTEX
  8
1
  6
CONTINUOUS
 62
     1
  5
129
 10
0.000039
 20
0.000014
 30
0.0
 42
-0.005019
  0
VERTEX
  8
1
  6
CONTINUOUS
 62
     1
  5
12A
 10
-0.001103
 20
0.000071
 30
0.0
 42
-0.004038
  0
VERTEX
  8
1
  6
CONTINUOUS
 62
     1
  5
12B
 10
-0.002373
 20
0.000158
 30
0.0
 42
-0.003548
  0
VERTEX
  8
1
  6
CONTINUOUS
 62
     1
  5
12C
 10
-0.003725
 20
0.00027
 30
0.0
 42
-0.003367
  0
VERTEX
  8
1
  6
CONTINUOUS
 62
     1
  5
12D
 10
-0.005111
 20
0.000405
 30
0.0
 42
-0.003436
  0
VERTEX
  8
1
  6
CONTINUOUS
 62
     1
  5
12E
 10
-0.006481
 20
0.000556
 30
0.0
 42
-0.003778
  0
VERTEX
  8
1
  6
CONTINUOUS
 62
     1
  5
12F
 10
-0.007786
 20
0.00072
 30
0.0
 42
-0.00451
  0
VERTEX
  8
1
  6
CONTINUOUS
 62
     1
  5
130
 10
-0.008979
 20
0.000889
 30
0.0
 42
-0.00594
  0
VERTEX
  8
1
  6
CONTINUOUS
 62
     1
  5
131
 10
-0.010018
 20
0.001058
 30
0.0
 42
-0.008921
  0
VERTEX
  8
1
  6
CONTINUOUS
 62
     1
  5
132
 10
-0.010864
 20
0.00122
 30
0.0
 42
-0.016392
  0
VERTEX
  8
1
  6
CONTINUOUS
 62
     1
  5
133
 10
-0.011488
 20
0.001371
 30
0.0
 42
-0.04458
  0
VERTEX
  8
1
  6
CONTINUOUS
 62
     1
  5
134
 10
-0.011867
 20
0.001503
 30
0.0
 42
-0.317392
  0
VERTEX
  8
1
  6
CONTINUOUS
 62
     1
  5
135
 10
-0.011987
 20
0.001614
 30
0.0
 42
-0.317392
  0
SEQEND
  8
1
  6
CONTINUOUS
 62
     1
  5
136
  0
ENDBLK
  8
1
  6
CONTINUOUS
 62
     1
  5
137
  0
BLOCK
  8
1
  6
CONTINUOUS
 62
     1
  5
243
  2
ARROW
 70
     0
 10
0.0
 20
0.0
 30
0.0
  3
ARROW
  0
POLYLINE
  8
1
  6
CONTINUOUS
 62
     1
  5
244
 66
     1
 10
0.0
 20
0.0
 30
0.0
  0
VERTEX
  8
1
  6
CONTINUOUS
 62
     1
  5
245
 10
0.001667
 20
0.002
 30
0.0
  0
VERTEX
  8
1
  6
CONTINUOUS
 62
     1
  5
246
 10
-0.023333
 20
0.022667
 30
0.0
  0
VERTEX
  8
1
  6
CONTINUOUS
 62
     1
  5
247
 10
-0.023304
 20
0.022654
 30
0.0
 42
0.734044
  0
VERTEX
  8
1
  6
CONTINUOUS
 62
     1
  5
248
 10
-0.027438
 20
0.01997
 30
0.0
  0
VERTEX
  8
1
  6
CONTINUOUS
 62
     1
  5
249
 10
-0.027417
 20
0.02
 30
0.0
  0
VERTEX
  8
1
  6
CONTINUOUS
 62
     1
  5
24A
 10
-0.023667
 20
0.006417
 30
0.0
  0
VERTEX
  8
1
  6
CONTINUOUS
 62
     1
  5
24B
 10
-0.050417
 20
0.007833
 30
0.0
  0
VERTEX
  8
1
  6
CONTINUOUS
 62
     1
  5
24C
 10
-0.050417
 20
-0.008333
 30
0.0
  0
VERTEX
  8
1
  6
CONTINUOUS
 62
     1
  5
24D
 10
-0.02375
 20
-0.006667
 30
0.0
  0
VERTEX
  8
1
  6
CONTINUOUS
 62
     1
  5
24E
 10
-0.027417
 20
-0.020417
 30
0.0
  0
VERTEX
  8
1
  6
CONTINUOUS
 62
     1
  5
24F
 10
-0.027416
 20
-0.020457
 30
0.0
 42
0.734196
  0
VERTEX
  8
1
  6
CONTINUOUS
 62
     1
  5
250
 10
-0.02325
 20
-0.023092
 30
0.0
  0
VERTEX
  8
1
  6
CONTINUOUS
 62
     1
  5
251
 10
-0.02325
 20
-0.023083
 30
0.0
  0
VERTEX
  8
1
  6
CONTINUOUS
 62
     1
  5
252
 10
0.001667
 20
-0.002
 30
0.0
  0
VERTEX
  8
1
  6
CONTINUOUS
 62
     1
  5
253
 10
0.001685
 20
-0.001969
 30
0.0
 42
0.467095
  0
VERTEX
  8
1
  6
CONTINUOUS
 62
     1
  5
254
 10
0.001662
 20
0.001993
 30
0.0
  0
SEQEND
  8
1
  6
CONTINUOUS
 62
     1
  5
255
  0
ENDBLK
  8
1
  6
CONTINUOUS
 62
     1
  5
256
  0
ENDSEC
  0
SECTION
  2
ENTITIES
  0
LINE
  8
1
  6
CONTINUOUS
 62
     1
  5
29
 10
-240.629667
 20
13.7625
 30
0.0
 11
36.23675
 21
7.289083
 31
0.0
  0
ARC
  8
1
  6
CONTINUOUS
 62
     1
  5
2A
 10
52.461606
 20
1053.280601
 30
0.0
 40
1046.117345
 50
269.111331
 51
288.210061
210
0.0
220
0.0
230
1.0
  0
INSERT
  8
4
  6
CONTINUOUS
 62
     1
  5
31
  2
1SPT
 10
-5.316583
 20
-30.065917
 30
0.0
 41
320.0
 42
320.0
 50
270.0
210
0.0
220
0.0
230
1.0
  0
INSERT
  8
1
  6
CONTINUOUS
 62
     1
  5
38
  2
2SPT
 10
233.790083
 20
-16.09425
 30
0.0
 41
319.999999
 42
319.999999
 50
267.155661
210
0.0
220
0.0
230
1.0
  0
INSERT
  8
4
  6
CONTINUOUS
 62
     1
  5
39
  2
1SPT
 10
297.290083
 20
-52.015917
 30
0.0
 41
320.0
 42
320.0
 50
270.0
210
0.0
220
0.0
230
1.0
  0
LINE
  8
61
  6
CONTINUOUS
 62
     1
  5
3B
 10
388.409917
 20
171.553
 30
0.0
 11
-250.630083
 21
171.553
 31
0.0
  0
LINE
  8
61
  6
CONTINUOUS
 62
     1
  5
3C
 10
-250.630083
 20
171.553
 30
0.0
 11
-250.630083
 21
-248.467
 31
0.0
  0
LINE
  8
61
  6
CONTINUOUS
 62
     1
  5
3D
 10
388.429917
 20
-248.487
 30
0.0
 11
-250.630083
 21
-248.467
 31
0.0
  0
LINE
  8
61
  6
CONTINUOUS
 62
     1
  5
3E
 10
388.409917
 20
171.553
 30
0.0
 11
388.429917
 21
-248.487
 31
0.0
  0
LINE
  8
61
  6
CONTINUOUS
 62
     1
  5
3F
 10
382.309917
 20
166.813
 30
0.0
 11
274.329917
 21
166.793
 31
0.0
  0
LINE
  8
61
  6
CONTINUOUS
 62
     1
  5
40
 10
274.329917
 20
166.793
 30
0.0
 11
274.329917
 21
146.793
 31
0.0
  0
LINE
  8
61
  6
CONTINUOUS
 62
     1
  5
41
 10
382.309917
 20
166.813
 30
0.0
 11
382.309917
 21
146.813
 31
0.0
  0
LINE
  8
61
  6
CONTINUOUS
 62
     1
  5
42
 10
382.309917
 20
146.813
 30
0.0
 11
274.329917
 21
146.793
 31
0.0
  0
LINE
  8
61
  6
CONTINUOUS
 62
     1
  5
43
 10
382.329917
 20
156.773
 30
0.0
 11
274.309917
 21
156.793
 31
0.0
  0
LINE
  8
61
  6
CONTINUOUS
 62
     1
  5
44
 10
284.329917
 20
166.793
 30
0.0
 11
284.329917
 21
146.793
 31
0.0
  0
LINE
  8
61
  6
CONTINUOUS
 62
     1
  5
45
 10
294.329917
 20
166.793
 30
0.0
 11
294.329917
 21
146.793
 31
0.0
  0
LINE
  8
61
  6
CONTINUOUS
 62
     1
  5
46
 10
308.009917
 20
166.793
 30
0.0
 11
308.009917
 21
146.793
 31
0.0
  0
LINE
  8
61
  6
CONTINUOUS
 62
     1
  5
47
 10
372.309917
 20
166.813
 30
0.0
 11
372.309917
 21
146.813
 31
0.0
  0
LINE
  8
61
  6
CONTINUOUS
 62
     1
  5
48
 10
362.309917
 20
166.813
 30
0.0
 11
362.309917
 21
146.813
 31
0.0
  0
LINE
  8
61
  6
CONTINUOUS
 62
     1
  5
49
 10
340.329917
 20
166.793
 30
0.0
 11
340.329917
 21
146.793
 31
0.0
  0
LINE
  8
61
  6
CONTINUOUS
 62
     1
  5
4A
 10
330.329917
 20
166.793
 30
0.0
 11
330.329917
 21
146.793
 31
0.0
  0
TEXT
  8
61
  6
CONTINUOUS
 62
     1
  5
4C
 10
276.369917
 20
163.773
 30
0.0
 40
1.20075
  1
PUBLIC
 50
0.033272
 41
1.001804
  7
MONOTXT
210
0.0
220
0.0
230
1.0
  0
TEXT
  8
61
  6
CONTINUOUS
 62
     1
  5
4D
 10
276.449917
 20
161.253
 30
0.0
 40
1.20075
  1
ROADS
 50
0.124322
 41
0.996877
  7
MONOTXT
210
0.0
220
0.0
230
1.0
  0
TEXT
  8
61
  6
CONTINUOUS
 62
     1
  5
4E
 10
277.649917
 20
158.753
 30
0.0
 40
1.20075
  1
DIV.
 50
359.931522
 41
0.994864
  7
MONOTXT
210
0.0
220
0.0
230
1.0
  0
TEXT
  8
61
  6
CONTINUOUS
 62
     1
  5
4F
 10
286.529917
 20
163.833
 30
0.0
 40
1.20075
  1
STATE
 50
0.058969
 41
0.998196
  7
MONOTXT
210
0.0
220
0.0
230
1.0
  0
TEXT
  8
61
  6
CONTINUOUS
 62
     1
  5
50
 10
287.409917
 20
161.333
 30
0.0
 40
1.20075
  1
DIST.
 50
0.055889
 41
0.999584
  7
MONOTXT
210
0.0
220
0.0
230
1.0
  0
TEXT
  8
61
  6
CONTINUOUS
 62
     1
  5
51
 10
287.989917
 20
158.813
 30
0.0
 40
1.20075
  1
NO.
 50
359.852072
 41
0.997779
  7
MONOTXT
210
0.0
220
0.0
230
1.0
  0
TEXT
  8
61
  6
CONTINUOUS
 62
     1
  5
52
 10
298.529917
 20
163.773
 30
0.0
 40
1.20075
  1
STATE
 50
0.058969
 41
0.998196
  7
MONOTXT
210
0.0
220
0.0
230
1.0
  0
TEXT
  8
61
  6
CONTINUOUS
 62
     1
  5
53
 10
297.449917
 20
161.353
 30
0.0
 40
1.20075
  1
PROJECT
 50
359.908431
 41
1.000069
  7
MONOTXT
210
0.0
220
0.0
230
1.0
  0
TEXT
  8
61
  6
CONTINUOUS
 62
     1
  5
54
 10
300.189917
 20
158.813
 30
0.0
 40
1.20075
  1
NO.
 50
0.225453
 41
0.993546
  7
MONOTXT
210
0.0
220
0.0
230
1.0
  0
TEXT
  8
61
  6
CONTINUOUS
 62
     1
  5
55
 10
315.829917
 20
162.653
 30
0.0
 40
1.20075
  1
FEDERAL
 50
0.006714
 41
0.998543
  7
MONOTXT
210
0.0
220
0.0
230
1.0
  0
TEXT
  8
61
  6
CONTINUOUS
 62
     1
  5
56
 10
314.289917
 20
159.993
 30
0.0
 40
1.20075
  1
PROJECT NO.
 50
359.921531
 41
1.000694
  7
MONOTXT
210
0.0
220
0.0
230
1.0
  0
TEXT
  8
61
  6
CONTINUOUS
 62
     1
  5
57
 10
332.569917
 20
162.593
 30
0.0
 40
1.20075
  1
FISCAL
 50
359.941939
 41
0.998959
  7
MONOTXT
210
0.0
220
0.0
230
1.0
  0
TEXT
  8
61
  6
CONTINUOUS
 62
     1
  5
58
 10
333.089917
 20
159.693
 30
0.0
 40
1.20075
  1
YEAR
 50
0.104606
 41
0.993268
  7
MONOTXT
210
0.0
220
0.0
230
1.0
  0
TEXT
  8
61
  6
CONTINUOUS
 62
     1
  5
59
 10
347.189917
 20
161.053
 30
0.0
 40
1.20075
  1
COUNTY
 50
0.068575
 41
1.001874
  7
MONOTXT
210
0.0
220
0.0
230
1.0
  0
TEXT
  8
61
  6
CONTINUOUS
 62
     1
  5
5A
 10
364.829917
 20
162.713
 30
0.0
 40
1.20075
  1
SHEET
 50
0.058969
 41
0.997571
  7
MONOTXT
210
0.0
220
0.0
230
1.0
  0
TEXT
  8
61
  6
CONTINUOUS
 62
     1
  5
5B
 10
366.249917
 20
159.993
 30
0.0
 40
1.20075
  1
NO.
 50
359.852072
 41
0.997779
  7
MONOTXT
210
0.0
220
0.0
230
1.0
  0
TEXT
  8
61
  6
CONTINUOUS
 62
     1
  5
5C
 10
374.569917
 20
162.573
 30
0.0
 40
1.20075
  1
TOTAL
 50
359.926039
 41
0.998543
  7
MONOTXT
210
0.0
220
0.0
230
1.0
  0
TEXT
  8
61
  6
CONTINUOUS
 62
     1
  5
5D
 10
374.109917
 20
159.873
 30
0.0
 40
1.20075
  1
SHEETS
 50
359.958675
  7
MONOTXT
210
0.0
220
0.0
230
1.0
  0
TEXT
  8
61
  6
CONTINUOUS
 62
     1
  5
5E
 10
286.929917
 20
150.993
 30
0.0
 40
2.401333
  1
  
 50
0.029406
 41
0.996495
  7
MONOTXT
210
0.0
220
0.0
230
1.0
  0
TEXT
  8
61
  6
CONTINUOUS
 62
     1
  5
5F
 10
364.109917
 20
150.713
 30
0.0
 40
2.401333
  1
   
 50
0.011508
 41
1.001006
  7
MONOTXT
210
0.0
220
0.0
230
1.0
  0
TEXT
  8
61
  6
CONTINUOUS
 62
     1
  5
60
 10
373.989917
 20
150.693
 30
0.0
 40
2.401333
  1
   
 50
359.922128
 41
1.000555
  7
MONOTXT
210
0.0
220
0.0
230
1.0
  0
TEXT
  8
61
  6
CONTINUOUS
 62
     1
  5
61
 10
297.369917
 20
154.093
 30
0.0
 40
2.00675
  1
    
 50
0.054383
 41
0.993729
  7
MONOTXT
210
0.0
220
0.0
230
1.0
  0
TEXT
  8
61
  6
CONTINUOUS
 62
     1
  5
62
 10
294.449917
 20
151.073
 30
0.0
 40
1.989583
  1
       
 50
0.064678
 41
1.000963
  7
MONOTXT
210
0.0
220
0.0
230
1.0
  0
TEXT
  8
61
  6
CONTINUOUS
 62
     1
  5
63
 10
295.409917
 20
148.173
 30
0.0
 40
1.989583
  1
      
 50
359.958053
 41
1.000293
  7
MONOTXT
210
0.0
220
0.0
230
1.0
  0
TEXT
  8
61
  6
CONTINUOUS
 62
     1
  5
64
 10
306.369917
 20
152.813
 30
0.0
 40
2.401333
  1
           
 50
0.011508
 41
0.998751
  7
MONOTXT
210
0.0
220
0.0
230
1.0
  0
TEXT
  8
61
  6
CONTINUOUS
 62
     1
  5
65
 10
306.249917
 20
149.153
 30
0.0
 40
2.401333
  1
           
 50
0.011508
 41
0.999584
  7
MONOTXT
210
0.0
220
0.0
230
1.0
  0
TEXT
  8
61
  6
CONTINUOUS
 62
     1
  5
66
 10
341.589917
 20
150.893
 30
0.0
 40
2.00675
  1
          
 50
0.009222
 41
0.992774
  7
MONOTXT
210
0.0
220
0.0
230
1.0
  0
ARC
  8
61
  6
CONTINUOUS
 62
     1
  5
67
 10
-268.932327
 20
82.794295
 30
0.0
 40
2.499998
 50
323.130094
 51
316.232156
210
0.0
220
0.0
230
1.0
  0
ARC
  8
61
  6
CONTINUOUS
 62
     1
  5
68
 10
-268.932327
 20
27.794295
 30
0.0
 40
2.499998
 50
323.130094
 51
315.375767
210
0.0
220
0.0
230
1.0
  0
ARC
  8
61
  6
CONTINUOUS
 62
     1
  5
69
 10
-269.212327
 20
-120.645705
 30
0.0
 40
2.499998
 50
322.671753
 51
321.716147
210
0.0
220
0.0
230
1.0
  0
ARC
  8
61
  6
CONTINUOUS
 62
     1
  5
6A
 10
-269.212327
 20
-175.645705
 30
0.0
 40
2.499998
 50
323.130094
 51
312.314392
210
0.0
220
0.0
230
1.0
  0
LINE
  8
61
  6
CONTINUOUS
 62
     1
  5
6B
 10
-266.910083
 20
82.793
 30
0.0
 11
-258.930083
 21
82.813
 31
0.0
  0
LINE
  8
61
  6
CONTINUOUS
 62
     1
  5
6C
 10
-266.930083
 20
27.793
 30
0.0
 11
-258.930083
 21
27.793
 31
0.0
  0
LINE
  8
61
  6
CONTINUOUS
 62
     1
  5
6D
 10
-267.210083
 20
-120.627
 30
0.0
 11
-259.210083
 21
-120.627
 31
0.0
  0
LINE
  8
61
  6
CONTINUOUS
 62
     1
  5
6E
 10
-267.190083
 20
-175.647
 30
0.0
 11
-259.210083
 21
-175.647
 31
0.0
  0
TEXT
  8
61
  6
CONTINUOUS
 62
     1
  5
6F
 10
361.849917
 20
138.973
 30
0.0
 40
2.401333
  1
     
 41
1.001388
  7
MONOTXT
210
0.0
220
0.0
230
1.0
  0
TEXT
  8
1
  6
CONTINUOUS
 62
     1
  5
71
 10
354.149917
 20
-250.987
 30
0.0
 40
1.2
  1
TRAFFIC ENGINEERING DIVISION
  7
txt
210
0.0
220
0.0
230
1.0
  0
LINE
  8
1
  6
CONTINUOUS
 62
     1
  5
72
 10
216.769917
 20
-248.487
 30
0.0
 11
216.769917
 21
-156.907
 31
0.0
  0
LINE
  8
1
  6
CONTINUOUS
 62
     1
  5
73
 10
216.769917
 20
-156.907
 30
0.0
 11
388.429917
 21
-156.907
 31
0.0
  0
LINE
  8
1
  6
CONTINUOUS
 62
     1
  5
74
 10
251.769917
 20
-248.527
 30
0.0
 11
251.769917
 21
-203.567
 31
0.0
  0
LINE
  8
1
  6
CONTINUOUS
 62
     1
  5
75
 10
251.769917
 20
-203.567
 30
0.0
 11
216.789917
 21
-203.567
 31
0.0
  0
LINE
  8
1
  6
CONTINUOUS
 62
     1
  5
76
 10
251.769917
 20
-208.047
 30
0.0
 11
216.789917
 21
-208.047
 31
0.0
  0
LINE
  8
1
  6
CONTINUOUS
 62
     1
  5
77
 10
251.769917
 20
-212.547
 30
0.0
 11
216.789917
 21
-212.547
 31
0.0
  0
LINE
  8
1
  6
CONTINUOUS
 62
     1
  5
78
 10
251.769917
 20
-217.047
 30
0.0
 11
216.789917
 21
-217.047
 31
0.0
  0
LINE
  8
1
  6
CONTINUOUS
 62
     1
  5
79
 10
251.769917
 20
-221.567
 30
0.0
 11
216.789917
 21
-221.567
 31
0.0
  0
LINE
  8
1
  6
CONTINUOUS
 62
     1
  5
7A
 10
251.769917
 20
-226.047
 30
0.0
 11
216.789917
 21
-226.047
 31
0.0
  0
LINE
  8
1
  6
CONTINUOUS
 62
     1
  5
7B
 10
251.769917
 20
-230.527
 30
0.0
 11
216.789917
 21
-230.527
 31
0.0
  0
LINE
  8
1
  6
CONTINUOUS
 62
     1
  5
7C
 10
251.769917
 20
-235.027
 30
0.0
 11
216.789917
 21
-235.027
 31
0.0
  0
LINE
  8
1
  6
CONTINUOUS
 62
     1
  5
7D
 10
251.769917
 20
-239.527
 30
0.0
 11
216.789917
 21
-239.527
 31
0.0
  0
LINE
  8
1
  6
CONTINUOUS
 62
     1
  5
7E
 10
251.769917
 20
-244.047
 30
0.0
 11
216.789917
 21
-244.047
 31
0.0
  0
TEXT
  8
1
  6
CONTINUOUS
 62
     1
  5
7F
 10
227.049917
 20
-206.567
 30
0.0
 40
1.99775
  1
REVISIONS
  7
MONOTXT
210
0.0
220
0.0
230
1.0
  0
TEXT
  8
1
  6
CONTINUOUS
 62
     1
  5
80
 10
218.729917
 20
-202.567
 30
0.0
 40
1.99775
  1
PREPARED:   /  /  
  7
MONOTXT
210
0.0
220
0.0
230
1.0
  0
TEXT
  8
1
  6
CONTINUOUS
 62
     1
  5
82
 10
249.389917
 20
-165.507
 30
0.0
 40
4.794833
  1
WEST VIRGINIA DIVISION OF HIGHWAYS
  7
ROMANT
 72
     1
 11
303.360167
 21
-160.712167
 31
0.0
210
0.0
220
0.0
230
1.0
 73
     3
  0
TEXT
  8
1
  6
CONTINUOUS
 62
     1
  5
83
 10
260.149917
 20
-176.667
 30
0.0
 40
6.992667
  1
STANDARD DETAIL
  7
txt
 72
     1
 11
304.64
 21
-169.674333
 31
0.0
210
0.0
220
0.0
230
1.0
 73
     3
  0
TEXT
  8
1
  6
CONTINUOUS
 62
     1
  5
84
 10
255.609917
 20
-244.447
 30
0.0
 40
6.992667
  1
STANDARD SHEET TE15-1
  7
txt
210
0.0
220
0.0
230
1.0
  0
TEXT
  8
1
  6
CONTINUOUS
 62
     1
  5
85
 10
227.739167
 20
-211.627
 30
0.0
 40
2.0
  1
11-10-70
  7
MONOTXT
 72
     1
 11
233.73925
 21
-209.627
 31
0.0
210
0.0
220
0.0
230
1.0
 73
     3
  0
TEXT
  8
1
  6
CONTINUOUS
 62
     1
  5
86
 10
227.766417
 20
-216.027
 30
0.0
 40
2.0
  1
01-19-71
  7
MONOTXT
 72
     1
 11
233.71925
 21
-214.027
 31
0.0
210
0.0
220
0.0
230
1.0
 73
     3
  0
TEXT
  8
1
  6
CONTINUOUS
 62
     1
  5
87
 10
227.786417
 20
-220.427
 30
0.0
 40
2.0
  1
11-15-76
  7
MONOTXT
 72
     1
 11
233.747083
 21
-218.427
 31
0.0
210
0.0
220
0.0
230
1.0
 73
     3
  0
TEXT
  8
1
  6
CONTINUOUS
 62
     1
  5
88
 10
227.377
 20
-224.827
 30
0.0
 40
2.0
  1
03-11-93
  7
MONOTXT
 72
     1
 11
233.747167
 21
-222.827
 31
0.0
210
0.0
220
0.0
230
1.0
 73
     3
  0
TEXT
  8
1
  6
CONTINUOUS
 62
     1
  5
89
 10
226.839083
 20
-229.427
 30
0.0
 40
2.0
  1
09-13-93
  7
MONOTXT
 72
     1
 11
233.58725
 21
-227.427
 31
0.0
210
0.0
220
0.0
230
1.0
 73
     3
  0
TEXT
  8
1
  6
CONTINUOUS
 62
     1
  5
8A
 10
226.069917
 20
-233.907
 30
0.0
 40
2.0
  1
        
  7
MONOTXT
 72
     1
 11
233.73675
 21
-231.907
 31
0.0
210
0.0
220
0.0
230
1.0
 73
     3
  0
TEXT
  8
1
  6
CONTINUOUS
 62
     1
  5
8B
 10
225.969917
 20
-238.507
 30
0.0
 40
2.0
  1
        
  7
MONOTXT
 72
     1
 11
233.63675
 21
-236.507
 31
0.0
210
0.0
220
0.0
230
1.0
 73
     3
  0
TEXT
  8
1
  6
CONTINUOUS
 62
     1
  5
8C
 10
226.069917
 20
-243.087
 30
0.0
 40
2.0
  1
        
  7
MONOTXT
 72
     1
 11
233.73675
 21
-241.087
 31
0.0
210
0.0
220
0.0
230
1.0
 73
     3
  0
TEXT
  8
1
  6
CONTINUOUS
 62
     1
  5
8D
 10
226.069917
 20
-247.107
 30
0.0
 40
2.0
  1
        
  7
MONOTXT
 72
     1
 11
233.73675
 21
-245.107
 31
0.0
210
0.0
220
0.0
230
1.0
 73
     3
  0
TEXT
  8
1
  6
CONTINUOUS
 62
     1
  5
8E
 10
268.889917
 20
-250.887
 30
0.0
 40
1.2
  1
CATALOG:dt standa  FILENAME:te151.dgn    DATE:03/11/93
  7
MONOTXT
210
0.0
220
0.0
230
1.0
  0
TEXT
  8
1
  6
CONTINUOUS
 62
     1
  5
8F
 10
253.098667
 20
-186.598
 30
0.0
 40
6.992667
  1
EXIT SIGN LOCATION
  7
txt
 72
     1
 11
304.32
 21
-179.605333
 31
0.0
210
0.0
220
0.0
230
1.0
 73
     3
  0
POLYLINE
  8
1
  6
CONTINUOUS
 62
     7
  5
90
 66
     1
 10
0.0
 20
0.0
 30
0.0
  0
VERTEX
  8
1
  6
CONTINUOUS
 62
     7
  5
91
 10
222.661667
 20
-208.49875
 30
0.0
  0
VERTEX
  8
1
  6
CONTINUOUS
 62
     7
  5
92
 10
220.661667
 20
-211.962833
 30
0.0
  0
VERTEX
  8
1
  6
CONTINUOUS
 62
     7
  5
93
 10
224.661667
 20
-211.962833
 30
0.0
  0
VERTEX
  8
1
  6
CONTINUOUS
 62
     7
  5
94
 10
222.661667
 20
-208.49875
 30
0.0
  0
SEQEND
  8
1
  6
CONTINUOUS
 62
     7
  5
95
  0
POLYLINE
  8
1
  6
CONTINUOUS
 62
     7
  5
96
 66
     1
 10
0.0
 20
0.0
 30
0.0
  0
VERTEX
  8
1
  6
CONTINUOUS
 62
     7
  5
97
 10
222.755917
 20
-212.98375
 30
0.0
  0
VERTEX
  8
1
  6
CONTINUOUS
 62
     7
  5
98
 10
220.755917
 20
-216.447833
 30
0.0
  0
VERTEX
  8
1
  6
CONTINUOUS
 62
     7
  5
99
 10
224.755917
 20
-216.447833
 30
0.0
  0
VERTEX
  8
1
  6
CONTINUOUS
 62
     7
  5
9A
 10
222.755917
 20
-212.98375
 30
0.0
  0
SEQEND
  8
1
  6
CONTINUOUS
 62
     7
  5
9B
  0
POLYLINE
  8
1
  6
CONTINUOUS
 62
     7
  5
9C
 66
     1
 10
0.0
 20
0.0
 30
0.0
  0
VERTEX
  8
1
  6
CONTINUOUS
 62
     7
  5
9D
 10
222.821
 20
-217.5645
 30
0.0
  0
VERTEX
  8
1
  6
CONTINUOUS
 62
     7
  5
9E
 10
220.821
 20
-221.028583
 30
0.0
  0
VERTEX
  8
1
  6
CONTINUOUS
 62
     7
  5
9F
 10
224.821
 20
-221.028583
 30
0.0
  0
VERTEX
  8
1
  6
CONTINUOUS
 62
     7
  5
A0
 10
222.821
 20
-217.5645
 30
0.0
  0
SEQEND
  8
1
  6
CONTINUOUS
 62
     7
  5
A1
  0
TEXT
  8
1
  6
CONTINUOUS
 62
     7
  5
A2
 10
222.343
 20
-211.35375
 30
0.0
 40
1.5
  1
1
  7
MONOTXT
210
0.0
220
0.0
230
1.0
  0
TEXT
  8
1
  6
CONTINUOUS
 62
     7
  5
A3
 10
222.27925
 20
-215.947
 30
0.0
 40
1.5
  1
2
  7
MONOTXT
210
0.0
220
0.0
230
1.0
  0
TEXT
  8
1
  6
CONTINUOUS
 62
     7
  5
A4
 10
222.27925
 20
-220.604167
 30
0.0
 40
1.5
  1
3
  7
MONOTXT
210
0.0
220
0.0
230
1.0
  0
POLYLINE
  8
1
  6
CONTINUOUS
 62
     7
  5
A5
 66
     1
 10
0.0
 20
0.0
 30
0.0
  0
VERTEX
  8
1
  6
CONTINUOUS
 62
     7
  5
A6
 10
218.987667
 20
-142.002833
 30
0.0
  0
VERTEX
  8
1
  6
CONTINUOUS
 62
     7
  5
A7
 10
216.987667
 20
-145.466917
 30
0.0
  0
VERTEX
  8
1
  6
CONTINUOUS
 62
     7
  5
A8
 10
220.987667
 20
-145.466917
 30
0.0
  0
VERTEX
  8
1
  6
CONTINUOUS
 62
     7
  5
A9
 10
218.987667
 20
-142.002833
 30
0.0
  0
SEQEND
  8
1
  6
CONTINUOUS
 62
     7
  5
AA
  0
POLYLINE
  8
1
  6
CONTINUOUS
 62
     7
  5
AB
 66
     1
 10
0.0
 20
0.0
 30
0.0
  0
VERTEX
  8
1
  6
CONTINUOUS
 62
     7
  5
AC
 10
218.828333
 20
-132.937083
 30
0.0
  0
VERTEX
  8
1
  6
CONTINUOUS
 62
     7
  5
AD
 10
216.828333
 20
-136.401167
 30
0.0
  0
VERTEX
  8
1
  6
CONTINUOUS
 62
     7
  5
AE
 10
220.828333
 20
-136.401167
 30
0.0
  0
VERTEX
  8
1
  6
CONTINUOUS
 62
     7
  5
AF
 10
218.828333
 20
-132.937083
 30
0.0
  0
SEQEND
  8
1
  6
CONTINUOUS
 62
     7
  5
B0
  0
POLYLINE
  8
1
  6
CONTINUOUS
 62
     7
  5
B1
 66
     1
 10
0.0
 20
0.0
 30
0.0
  0
VERTEX
  8
1
  6
CONTINUOUS
 62
     7
  5
B2
 10
218.922583
 20
-137.422083
 30
0.0
  0
VERTEX
  8
1
  6
CONTINUOUS
 62
     7
  5
B3
 10
216.922583
 20
-140.886167
 30
0.0
  0
VERTEX
  8
1
  6
CONTINUOUS
 62
     7
  5
B4
 10
220.922583
 20
-140.886167
 30
0.0
  0
VERTEX
  8
1
  6
CONTINUOUS
 62
     7
  5
B5
 10
218.922583
 20
-137.422083
 30
0.0
  0
SEQEND
  8
1
  6
CONTINUOUS
 62
     7
  5
B6
  0
TEXT
  8
1
  6
CONTINUOUS
 62
     7
  5
B7
 10
218.509667
 20
-135.792083
 30
0.0
 40
1.5
  1
1
  7
MONOTXT
210
0.0
220
0.0
230
1.0
  0
TEXT
  8
1
  6
CONTINUOUS
 62
     7
  5
B8
 10
218.445917
 20
-140.385333
 30
0.0
 40
1.5
  1
2
  7
MONOTXT
210
0.0
220
0.0
230
1.0
  0
TEXT
  8
1
  6
CONTINUOUS
 62
     7
  5
B9
 10
218.445917
 20
-145.0425
 30
0.0
 40
1.5
  1
3
  7
MONOTXT
210
0.0
220
0.0
230
1.0
  0
TEXT
  8
1
  6
CONTINUOUS
 62
     7
  5
BA
 10
222.623167
 20
-134.835
 30
0.0
 40
1.5
  1
DIM. A LOCATION
  7
MONOTXT
210
0.0
220
0.0
230
1.0
  0
TEXT
  8
1
  6
CONTINUOUS
 62
     7
  5
BB
 10
222.623167
 20
-139.555917
 30
0.0
 40
1.5
  1
DIM. A LOCATION
  7
MONOTXT
210
0.0
220
0.0
230
1.0
  0
TEXT
  8
1
  6
CONTINUOUS
 62
     7
  5
BC
 10
222.495583
 20
-144.276833
 30
0.0
 40
1.5
  1
SIGN NUMBERS
  7
MONOTXT
210
0.0
220
0.0
230
1.0
  0
LINE
  8
1
  6
CONTINUOUS
 62
     1
  5
BD
 10
-241.131083
 20
-9.505917
 30
0.0
 11
-85.516583
 21
-12.85925
 31
0.0
  0
LINE
  8
1
  6
CONTINUOUS
 62
     1
  5
BE
 10
-85.516583
 20
-12.85925
 30
0.0
 11
381.723417
 21
-48.927583
 31
0.0
  0
LINE
  8
1
  6
CONTINUOUS
 62
     1
  5
BF
 10
383.42175
 20
-54.587583
 30
0.0
 11
-6.474917
 21
-24.107583
 31
0.0
  0
LINE
  8
1
  6
CONTINUOUS
 62
     1
  5
C0
 10
-6.474917
 20
-24.107583
 30
0.0
 11
-241.314833
 21
-19.99125
 31
0.0
  0
ARC
  8
1
  6
CONTINUOUS
 62
     1
  5
C1
 10
85.709747
 20
886.148667
 30
0.0
 40
899.403019
 50
268.617611
 51
289.032456
210
0.0
220
0.0
230
1.0
  0
LINE
  8
1
  6
CONTINUOUS
 62
     1
  5
C2
 10
64.01175
 20
-12.992583
 30
0.0
 11
380.35675
 21
-37.87425
 31
0.0
  0
LINE
  8
1
  6
CONTINUOUS
 62
     1
  5
C3
 10
380.888417
 20
-32.46925
 30
0.0
 11
185.633417
 21
-17.52425
 31
0.0
  0
ARC
  8
1
  6
CONTINUOUS
 62
     1
  5
C4
 10
102.624409
 20
840.59278
 30
0.0
 40
862.122573
 50
275.525253
 51
288.812506
210
0.0
220
0.0
230
1.0
  0
LINE
  8
1
  6
CONTINUOUS
 62
     1
  5
C5
 10
-230.428333
 20
-20.182083
 30
0.0
 11
-241.103833
 21
-9.5065
 31
0.0
  0
LINE
  8
1
  6
CONTINUOUS
 62
     1
  5
C6
 10
-216.033833
 20
-20.434417
 30
0.0
 11
-226.65025
 21
-9.818
 31
0.0
  0
LINE
  8
1
  6
CONTINUOUS
 62
     1
  5
C7
 10
-201.639417
 20
-20.686667
 30
0.0
 11
-212.196667
 21
-10.129417
 31
0.0
  0
LINE
  8
1
  6
CONTINUOUS
 62
     1
  5
C8
 10
-187.245
 20
-20.939
 30
0.0
 11
-197.743083
 21
-10.440917
 31
0.0
  0
LINE
  8
1
  6
CONTINUOUS
 62
     1
  5
C9
 10
-172.8505
 20
-21.191333
 30
0.0
 11
-183.2895
 21
-10.752333
 31
0.0
  0
LINE
  8
1
  6
CONTINUOUS
 62
     1
  5
CA
 10
-158.456083
 20
-21.443583
 30
0.0
 11
-168.835917
 21
-11.063833
 31
0.0
  0
LINE
  8
1
  6
CONTINUOUS
 62
     1
  5
CB
 10
-144.061667
 20
-21.695917
 30
0.0
 11
-154.382333
 21
-11.37525
 31
0.0
  0
LINE
  8
1
  6
CONTINUOUS
 62
     1
  5
CC
 10
-129.667167
 20
-21.94825
 30
0.0
 11
-139.928667
 21
-11.68675
 31
0.0
  0
LINE
  8
1
  6
CONTINUOUS
 62
     1
  5
CD
 10
-115.27275
 20
-22.200583
 30
0.0
 11
-125.475083
 21
-11.998167
 31
0.0
  0
LINE
  8
1
  6
CONTINUOUS
 62
     1
  5
CE
 10
-100.878333
 20
-22.452833
 30
0.0
 11
-111.0215
 21
-12.309667
 31
0.0
  0
LINE
  8
1
  6
CONTINUOUS
 62
     1
  5
CF
 10
-86.483833
 20
-22.705167
 30
0.0
 11
-96.567917
 21
-12.621083
 31
0.0
  0
LINE
  8
1
  6
CONTINUOUS
 62
     1
  5
D0
 10
-72.089417
 20
-22.9575
 30
0.0
 11
-81.909167
 21
-13.13775
 31
0.0
  0
LINE
  8
1
  6
CONTINUOUS
 62
     1
  5
D1
 10
-57.695
 20
-23.20975
 30
0.0
 11
-66.584
 21
-14.32075
 31
0.0
  0
LINE
  8
1
  6
CONTINUOUS
 62
     1
  5
D2
 10
-43.3005
 20
-23.462083
 30
0.0
 11
-51.258833
 21
-15.50375
 31
0.0
  0
LINE
  8
1
  6
CONTINUOUS
 62
     1
  5
D3
 10
-28.906083
 20
-23.714417
 30
0.0
 11
-35.933667
 21
-16.68675
 31
0.0
  0
LINE
  8
1
  6
CONTINUOUS
 62
     1
  5
D4
 10
-14.511667
 20
-23.96675
 30
0.0
 11
-20.608583
 21
-17.86975
 31
0.0
  0
LINE
  8
1
  6
CONTINUOUS
 62
     1
  5
D5
 10
0.301083
 20
-24.637333
 30
0.0
 11
-5.283417
 21
-19.052833
 31
0.0
  0
LINE
  8
1
  6
CONTINUOUS
 62
     1
  5
D6
 10
15.6425
 20
-25.836583
 30
0.0
 11
10.04175
 21
-20.235833
 31
0.0
  0
LINE
  8
1
  6
CONTINUOUS
 62
     1
  5
D7
 10
30.984
 20
-27.035917
 30
0.0
 11
25.366917
 21
-21.418833
 31
0.0
  0
LINE
  8
1
  6
CONTINUOUS
 62
     1
  5
D8
 10
46.325417
 20
-28.23525
 30
0.0
 11
40.692083
 21
-22.601833
 31
0.0
  0
LINE
  8
1
  6
CONTINUOUS
 62
     1
  5
D9
 10
61.666833
 20
-29.4345
 30
0.0
 11
56.01725
 21
-23.784833
 31
0.0
  0
LINE
  8
1
  6
CONTINUOUS
 62
     1
  5
DA
 10
77.008333
 20
-30.633833
 30
0.0
 11
71.342333
 21
-24.967917
 31
0.0
  0
LINE
  8
1
  6
CONTINUOUS
 62
     1
  5
DB
 10
92.34975
 20
-31.833167
 30
0.0
 11
86.6675
 21
-26.150917
 31
0.0
  0
LINE
  8
1
  6
CONTINUOUS
 62
     1
  5
DC
 10
107.69125
 20
-33.0325
 30
0.0
 11
101.992667
 21
-27.333917
 31
0.0
  0
LINE
  8
1
  6
CONTINUOUS
 62
     1
  5
DD
 10
123.032667
 20
-34.23175
 30
0.0
 11
117.317833
 21
-28.516917
 31
0.0
  0
LINE
  8
1
  6
CONTINUOUS
 62
     1
  5
DE
 10
138.374083
 20
-35.431083
 30
0.0
 11
132.643
 21
-29.699917
 31
0.0
  0
LINE
  8
1
  6
CONTINUOUS
 62
     1
  5
DF
 10
153.715583
 20
-36.630417
 30
0.0
 11
147.968083
 21
-30.883
 31
0.0
  0
LINE
  8
1
  6
CONTINUOUS
 62
     1
  5
E0
 10
169.057
 20
-37.82975
 30
0.0
 11
163.29325
 21
-32.066
 31
0.0
  0
LINE
  8
1
  6
CONTINUOUS
 62
     1
  5
E1
 10
184.398417
 20
-39.029
 30
0.0
 11
178.618417
 21
-33.249
 31
0.0
  0
LINE
  8
1
  6
CONTINUOUS
 62
     1
  5
E2
 10
199.739917
 20
-40.228333
 30
0.0
 11
193.943583
 21
-34.432
 31
0.0
  0
LINE
  8
1
  6
CONTINUOUS
 62
     1
  5
E3
 10
215.081333
 20
-41.427667
 30
0.0
 11
209.26875
 21
-35.615
 31
0.0
  0
LINE
  8
1
  6
CONTINUOUS
 62
     1
  5
E4
 10
230.42275
 20
-42.626917
 30
0.0
 11
224.593917
 21
-36.798083
 31
0.0
  0
LINE
  8
1
  6
CONTINUOUS
 62
     1
  5
E5
 10
245.76425
 20
-43.82625
 30
0.0
 11
239.919
 21
-37.981083
 31
0.0
  0
LINE
  8
1
  6
CONTINUOUS
 62
     1
  5
E6
 10
261.105667
 20
-45.025583
 30
0.0
 11
255.244167
 21
-39.164083
 31
0.0
  0
LINE
  8
1
  6
CONTINUOUS
 62
     1
  5
E7
 10
276.447083
 20
-46.224917
 30
0.0
 11
270.569333
 21
-40.347083
 31
0.0
  0
LINE
  8
1
  6
CONTINUOUS
 62
     1
  5
E8
 10
291.788583
 20
-47.424167
 30
0.0
 11
285.8945
 21
-41.530083
 31
0.0
  0
LINE
  8
1
  6
CONTINUOUS
 62
     1
  5
E9
 10
307.13
 20
-48.6235
 30
0.0
 11
301.219667
 21
-42.713167
 31
0.0
  0
LINE
  8
1
  6
CONTINUOUS
 62
     1
  5
EA
 10
322.4715
 20
-49.822833
 30
0.0
 11
316.544833
 21
-43.896167
 31
0.0
  0
LINE
  8
1
  6
CONTINUOUS
 62
     1
  5
EB
 10
337.812917
 20
-51.022167
 30
0.0
 11
331.869917
 21
-45.079167
 31
0.0
  0
LINE
  8
1
  6
CONTINUOUS
 62
     1
  5
EC
 10
353.154333
 20
-52.221417
 30
0.0
 11
347.195083
 21
-46.262167
 31
0.0
  0
LINE
  8
1
  6
CONTINUOUS
 62
     1
  5
ED
 10
368.495833
 20
-53.42075
 30
0.0
 11
362.52025
 21
-47.445167
 31
0.0
  0
LINE
  8
1
  6
CONTINUOUS
 62
     1
  5
EE
 10
383.257583
 20
-54.040333
 30
0.0
 11
377.845417
 21
-48.62825
 31
0.0
  0
LINE
  8
1
  6
CONTINUOUS
 62
     1
  5
EF
 10
71.856167
 20
-13.609583
 30
0.0
 11
71.31225
 21
-13.065667
 31
0.0
  0
LINE
  8
1
  6
CONTINUOUS
 62
     1
  5
F0
 10
87.205583
 20
-14.816833
 30
0.0
 11
85.597333
 21
-13.208667
 31
0.0
  0
LINE
  8
1
  6
CONTINUOUS
 62
     1
  5
F1
 10
102.555
 20
-16.024167
 30
0.0
 11
99.584
 21
-13.053167
 31
0.0
  0
LINE
  8
1
  6
CONTINUOUS
 62
     1
  5
F2
 10
117.904417
 20
-17.231417
 30
0.0
 11
113.462083
 21
-12.789083
 31
0.0
  0
LINE
  8
1
  6
CONTINUOUS
 62
     1
  5
F3
 10
133.253833
 20
-18.43875
 30
0.0
 11
127.02375
 21
-12.208667
 31
0.0
  0
LINE
  8
1
  6
CONTINUOUS
 62
     1
  5
F4
 10
194.651583
 20
-23.267833
 30
0.0
 11
189.179333
 21
-17.795667
 31
0.0
  0
LINE
  8
1
  6
CONTINUOUS
 62
     1
  5
F5
 10
188.57775
 20
-17.194083
 30
0.0
 11
179.627333
 21
-8.243583
 31
0.0
  0
LINE
  8
1
  6
CONTINUOUS
 62
     1
  5
F6
 10
210.001
 20
-24.475167
 30
0.0
 11
204.493667
 21
-18.967833
 31
0.0
  0
LINE
  8
1
  6
CONTINUOUS
 62
     1
  5
F7
 10
201.294
 20
-15.768167
 30
0.0
 11
192.380333
 21
-6.8545
 31
0.0
  0
LINE
  8
1
  6
CONTINUOUS
 62
     1
  5
F8
 10
225.350417
 20
-25.682417
 30
0.0
 11
219.808
 21
-20.14
 31
0.0
  0
LINE
  8
1
  6
CONTINUOUS
 62
     1
  5
F9
 10
213.948583
 20
-14.280583
 30
0.0
 11
204.90175
 21
-5.233833
 31
0.0
  0
LINE
  8
1
  6
CONTINUOUS
 62
     1
  5
FA
 10
240.699833
 20
-26.88975
 30
0.0
 11
235.12225
 21
-21.312167
 31
0.0
  0
LINE
  8
1
  6
CONTINUOUS
 62
     1
  5
FB
 10
226.320333
 20
-12.51025
 30
0.0
 11
217.31575
 21
-3.505667
 31
0.0
  0
LINE
  8
1
  6
CONTINUOUS
 62
     1
  5
FC
 10
256.04925
 20
-28.097
 30
0.0
 11
250.436583
 21
-22.484333
 31
0.0
  0
LINE
  8
1
  6
CONTINUOUS
 62
     1
  5
FD
 10
238.6665
 20
-10.714333
 30
0.0
 11
229.55375
 21
-1.6015
 31
0.0
  0
LINE
  8
1
  6
CONTINUOUS
 62
     1
  5
FE
 10
271.398667
 20
-29.304333
 30
0.0
 11
265.750917
 21
-23.6565
 31
0.0
  0
LINE
  8
1
  6
CONTINUOUS
 62
     1
  5
FF
 10
250.709333
 20
-8.614917
 30
0.0
 11
241.643667
 21
0.450667
 31
0.0
  0
LINE
  8
1
  6
CONTINUOUS
 62
     1
  5
100
 10
286.748083
 20
-30.511583
 30
0.0
 11
281.065167
 21
-24.828667
 31
0.0
  0
LINE
  8
1
  6
CONTINUOUS
 62
     1
  5
101
 10
262.752083
 20
-6.515583
 30
0.0
 11
253.623083
 21
2.613417
 31
0.0
  0
LINE
  8
1
  6
CONTINUOUS
 62
     1
  5
102
 10
302.0975
 20
-31.718917
 30
0.0
 11
296.3795
 21
-26.000833
 31
0.0
  0
LINE
  8
1
  6
CONTINUOUS
 62
     1
  5
103
 10
274.501833
 20
-4.123167
 30
0.0
 11
265.402333
 21
4.97625
 31
0.0
  0
LINE
  8
1
  6
CONTINUOUS
 62
     1
  5
104
 10
317.446917
 20
-32.926167
 30
0.0
 11
311.693833
 21
-27.173
 31
0.0
  0
LINE
  8
1
  6
CONTINUOUS
 62
     1
  5
105
 10
286.229417
 20
-1.708583
 30
0.0
 11
277.144917
 21
7.375917
 31
0.0
  0
LINE
  8
1
  6
CONTINUOUS
 62
     1
  5
106
 10
332.796333
 20
-34.133417
 30
0.0
 11
327.008083
 21
-28.345167
 31
0.0
  0
LINE
  8
1
  6
CONTINUOUS
 62
     1
  5
107
 10
297.733917
 20
0.929
 30
0.0
 11
288.625583
 21
10.037333
 31
0.0
  0
LINE
  8
1
  6
CONTINUOUS
 62
     1
  5
108
 10
348.14575
 20
-35.34075
 30
0.0
 11
342.322417
 21
-29.517333
 31
0.0
  0
LINE
  8
1
  6
CONTINUOUS
 62
     1
  5
109
 10
309.158667
 20
3.646417
 30
0.0
 11
300.106333
 21
12.69875
 31
0.0
  0
LINE
  8
1
  6
CONTINUOUS
 62
     1
  5
10A
 10
363.49525
 20
-36.548
 30
0.0
 11
357.63675
 21
-30.689583
 31
0.0
  0
LINE
  8
1
  6
CONTINUOUS
 62
     1
  5
10B
 10
320.4375
 20
6.509667
 30
0.0
 11
311.343417
 21
15.60375
 31
0.0
  0
LINE
  8
1
  6
CONTINUOUS
 62
     1
  5
10C
 10
378.844667
 20
-37.755333
 30
0.0
 11
372.951
 21
-31.86175
 31
0.0
  0
LINE
  8
1
  6
CONTINUOUS
 62
     1
  5
10D
 10
331.5705
 20
9.51875
 30
0.0
 11
322.5365
 21
18.552833
 31
0.0
  0
LINE
  8
1
  6
CONTINUOUS
 62
     1
  5
10E
 10
342.64075
 20
12.590667
 30
0.0
 11
333.582417
 21
21.649083
 31
0.0
  0
LINE
  8
1
  6
CONTINUOUS
 62
     1
  5
10F
 10
353.492167
 20
15.881417
 30
0.0
 11
344.497667
 21
24.875917
 31
0.0
  0
LINE
  8
1
  6
CONTINUOUS
 62
     1
  5
110
 10
364.343583
 20
19.172167
 30
0.0
 11
355.366417
 21
28.149333
 31
0.0
  0
LINE
  8
1
  6
CONTINUOUS
 62
     1
  5
111
 10
374.995
 20
22.662917
 30
0.0
 11
366.012667
 21
31.645167
 31
0.0
  0
LINE
  8
1
  6
CONTINUOUS
 62
     1
  5
112
 10
379.528583
 20
32.271417
 30
0.0
 11
376.659
 21
35.141
 31
0.0
  0
LINE
  8
1
  6
CONTINUOUS
 62
     7
  5
113
 10
-209.46325
 20
-20.549583
 30
0.0
 11
-201.903083
 21
-41.437083
 31
0.0
  0
LINE
  8
1
  6
CONTINUOUS
 62
     7
  5
114
 10
-201.903083
 20
-41.437083
 30
0.0
 11
-193.789167
 21
-41.437083
 31
0.0
  0
TEXT
  8
1
  6
CONTINUOUS
 62
     7
  5
115
 10
-192.70725
 20
-42.338917
 30
0.0
 40
2.5
  1
PAVED SHOULDER
  7
MONOTXT
210
0.0
220
0.0
230
1.0
  0
LINE
  8
1
  6
CONTINUOUS
 62
     7
  5
116
 10
-149.974083
 20
-41.437083
 30
0.0
 11
-158.088
 21
-41.437083
 31
0.0
  0
LINE
  8
1
  6
CONTINUOUS
 62
     7
  5
117
 10
-142.836583
 20
-21.717417
 30
0.0
 11
-149.974083
 21
-41.437083
 31
0.0
  0
INSERT
  8
1
  6
CONTINUOUS
 62
     1
  5
138
  2
LDR
 10
-209.46325
 20
-20.549583
 30
0.0
 41
239.999999
 42
239.999999
 50
109.897569
210
0.0
220
0.0
230
1.0
  0
INSERT
  8
1
  6
CONTINUOUS
 62
     1
  5
139
  2
LDR
 10
-209.46325
 20
-20.549583
 30
0.0
 41
239.999999
 42
239.999999
 50
109.897569
210
0.0
220
0.0
230
1.0
  0
INSERT
  8
1
  6
CONTINUOUS
 62
     1
  5
13A
  2
LDR
 10
-142.836583
 20
-21.717417
 30
0.0
 41
239.999999
 42
239.999999
 50
70.102363
210
0.0
220
0.0
230
1.0
  0
LINE
  8
1
  6
CONTINUOUS
 62
     7
  5
13B
 10
64.01175
 20
-13.992583
 30
0.0
 11
64.01175
 21
-53.25
 31
0.0
  0
LINE
  8
1
  6
CONTINUOUS
 62
     7
  5
13C
 10
-5.849917
 20
-33.19925
 30
0.0
 11
-5.849917
 21
-53.25
 31
0.0
  0
INSERT
  8
1
  6
CONTINUOUS
 62
     1
  5
13D
  2
LDR
 10
-5.849917
 20
-52.25
 30
0.0
 41
240.0
 42
240.0
 50
180.0
210
0.0
220
0.0
230
1.0
  0
INSERT
  8
1
  6
CONTINUOUS
 62
     1
  5
13E
  2
LDR
 10
-5.849917
 20
-52.25
 30
0.0
 41
240.0
 42
240.0
 50
180.0
210
0.0
220
0.0
230
1.0
  0
INSERT
  8
1
  6
CONTINUOUS
 62
     1
  5
13F
  2
LDR
 10
64.01175
 20
-52.25
 30
0.0
 41
240.0
 42
240.0
210
0.0
220
0.0
230
1.0
  0
LINE
  8
1
  6
CONTINUOUS
 62
     7
  5
140
 10
-5.849917
 20
-52.25
 30
0.0
 11
27.580917
 21
-52.25
 31
0.0
  0
LINE
  8
1
  6
CONTINUOUS
 62
     7
  5
141
 10
30.580917
 20
-52.25
 30
0.0
 11
64.01175
 21
-52.25
 31
0.0
  0
TEXT
  8
1
  6
CONTINUOUS
 62
     7
  5
142
 10
28.126167
 20
-53.5
 30
0.0
 40
2.5
  1
A
  7
MONOTXT
 72
     4
 11
29.090667
 21
-52.25
 31
0.0
210
0.0
220
0.0
230
1.0
  0
LINE
  8
1
  6
CONTINUOUS
 62
     2
  5
143
 10
-25.330833
 20
-58.191583
 30
0.0
 11
-46.131917
 21
-58.191583
 31
0.0
  0
POLYLINE
  8
1
  6
CONTINUOUS
 62
     2
  5
144
 66
     1
 10
0.0
 20
0.0
 30
0.0
210
0.0
220
0.0
230
1.0
  0
VERTEX
  8
1
  6
CONTINUOUS
 62
     2
  5
145
 10
-46.131822
 20
-58.191531
 30
0.0
 42
-0.054433
  0
VERTEX
  8
1
  6
CONTINUOUS
 62
     2
  5
146
 10
-46.210272
 20
-58.182945
 30
0.0
 42
-0.053505
  0
VERTEX
  8
1
  6
CONTINUOUS
 62
     2
  5
147
 10
-46.285708
 20
-58.15752
 30
0.0
 42
-0.051871
  0
VERTEX
  8
1
  6
CONTINUOUS
 62
     2
  5
148
 10
-46.35523
 20
-58.116231
 30
0.0
 42
-0.049878
  0
VERTEX
  8
1
  6
CONTINUOUS
 62
     2
  5
149
 10
-46.416166
 20
-58.060665
 30
0.0
 42
-0.047885
  0
VERTEX
  8
1
  6
CONTINUOUS
 62
     2
  5
14A
 10
-46.466175
 20
-57.992957
 30
0.0
 42
-0.046179
  0
VERTEX
  8
1
  6
CONTINUOUS
 62
     2
  5
14B
 10
-46.503336
 20
-57.915711
 30
0.0
 42
-0.044953
  0
VERTEX
  8
1
  6
CONTINUOUS
 62
     2
  5
14C
 10
-46.526219
 20
-57.831894
 30
0.0
 42
-0.044315
  0
VERTEX
  8
1
  6
CONTINUOUS
 62
     2
  5
14D
 10
-46.533946
 20
-57.744726
 30
0.0
 42
-0.044315
  0
SEQEND
  8
1
  6
CONTINUOUS
 62
     2
  5
14E
  0
LINE
  8
1
  6
CONTINUOUS
 62
     2
  5
14F
 10
-46.533833
 20
-57.744667
 30
0.0
 11
-46.533833
 21
-39.506667
 31
0.0
  0
POLYLINE
  8
1
  6
CONTINUOUS
 62
     2
  5
150
 66
     1
 10
0.0
 20
0.0
 30
0.0
210
0.0
220
0.0
230
1.0
  0
VERTEX
  8
1
  6
CONTINUOUS
 62
     2
  5
151
 10
-46.533946
 20
-39.506744
 30
0.0
 42
-0.044315
  0
VERTEX
  8
1
  6
CONTINUOUS
 62
     2
  5
152
 10
-46.526219
 20
-39.419577
 30
0.0
 42
-0.044953
  0
VERTEX
  8
1
  6
CONTINUOUS
 62
     2
  5
153
 10
-46.503336
 20
-39.335759
 30
0.0
 42
-0.046179
  0
VERTEX
  8
1
  6
CONTINUOUS
 62
     2
  5
154
 10
-46.466175
 20
-39.258513
 30
0.0
 42
-0.047885
  0
VERTEX
  8
1
  6
CONTINUOUS
 62
     2
  5
155
 10
-46.416166
 20
-39.190805
 30
0.0
 42
-0.049878
  0
VERTEX
  8
1
  6
CONTINUOUS
 62
     2
  5
156
 10
-46.35523
 20
-39.13524
 30
0.0
 42
-0.051871
  0
VERTEX
  8
1
  6
CONTINUOUS
 62
     2
  5
157
 10
-46.285708
 20
-39.09395
 30
0.0
 42
-0.053505
  0
VERTEX
  8
1
  6
CONTINUOUS
 62
     2
  5
158
 10
-46.210272
 20
-39.068525
 30
0.0
 42
-0.054433
  0
VERTEX
  8
1
  6
CONTINUOUS
 62
     2
  5
159
 10
-46.131822
 20
-39.059939
 30
0.0
 42
-0.054433
  0
SEQEND
  8
1
  6
CONTINUOUS
 62
     2
  5
15A
  0
LINE
  8
1
  6
CONTINUOUS
 62
     2
  5
15B
 10
-46.131917
 20
-39.06
 30
0.0
 11
-25.330833
 21
-39.06
 31
0.0
  0
POLYLINE
  8
1
  6
CONTINUOUS
 62
     2
  5
15C
 66
     1
 10
0.0
 20
0.0
 30
0.0
210
0.0
220
0.0
230
1.0
  0
VERTEX
  8
1
  6
CONTINUOUS
 62
     2
  5
15D
 10
-25.330612
 20
-39.059939
 30
0.0
 42
-0.054433
  0
VERTEX
  8
1
  6
CONTINUOUS
 62
     2
  5
15E
 10
-25.252162
 20
-39.068525
 30
0.0
 42
-0.053505
  0
VERTEX
  8
1
  6
CONTINUOUS
 62
     2
  5
15F
 10
-25.176726
 20
-39.09395
 30
0.0
 42
-0.051871
  0
VERTEX
  8
1
  6
CONTINUOUS
 62
     2
  5
160
 10
-25.107204
 20
-39.13524
 30
0.0
 42
-0.049878
  0
VERTEX
  8
1
  6
CONTINUOUS
 62
     2
  5
161
 10
-25.046268
 20
-39.190805
 30
0.0
 42
-0.047885
  0
VERTEX
  8
1
  6
CONTINUOUS
 62
     2
  5
162
 10
-24.996258
 20
-39.258513
 30
0.0
 42
-0.046179
  0
VERTEX
  8
1
  6
CONTINUOUS
 62
     2
  5
163
 10
-24.959098
 20
-39.335759
 30
0.0
 42
-0.044953
  0
VERTEX
  8
1
  6
CONTINUOUS
 62
     2
  5
164
 10
-24.936215
 20
-39.419577
 30
0.0
 42
-0.044315
  0
VERTEX
  8
1
  6
CONTINUOUS
 62
     2
  5
165
 10
-24.928488
 20
-39.506744
 30
0.0
 42
-0.044315
  0
SEQEND
  8
1
  6
CONTINUOUS
 62
     2
  5
166
  0
LINE
  8
1
  6
CONTINUOUS
 62
     2
  5
167
 10
-24.928417
 20
-39.506667
 30
0.0
 11
-24.928417
 21
-57.744667
 31
0.0
  0
POLYLINE
  8
1
  6
CONTINUOUS
 62
     2
  5
168
 66
     1
 10
0.0
 20
0.0
 30
0.0
210
0.0
220
0.0
230
1.0
  0
VERTEX
  8
1
  6
CONTINUOUS
 62
     2
  5
169
 10
-24.928488
 20
-57.744726
 30
0.0
 42
-0.044315
  0
VERTEX
  8
1
  6
CONTINUOUS
 62
     2
  5
16A
 10
-24.936215
 20
-57.831894
 30
0.0
 42
-0.044953
  0
VERTEX
  8
1
  6
CONTINUOUS
 62
     2
  5
16B
 10
-24.959098
 20
-57.915711
 30
0.0
 42
-0.046179
  0
VERTEX
  8
1
  6
CONTINUOUS
 62
     2
  5
16C
 10
-24.996258
 20
-57.992957
 30
0.0
 42
-0.047885
  0
VERTEX
  8
1
  6
CONTINUOUS
 62
     2
  5
16D
 10
-25.046268
 20
-58.060665
 30
0.0
 42
-0.049878
  0
VERTEX
  8
1
  6
CONTINUOUS
 62
     2
  5
16E
 10
-25.107204
 20
-58.116231
 30
0.0
 42
-0.051871
  0
VERTEX
  8
1
  6
CONTINUOUS
 62
     2
  5
16F
 10
-25.176726
 20
-58.15752
 30
0.0
 42
-0.053505
  0
VERTEX
  8
1
  6
CONTINUOUS
 62
     2
  5
170
 10
-25.252162
 20
-58.182945
 30
0.0
 42
-0.054433
  0
VERTEX
  8
1
  6
CONTINUOUS
 62
     2
  5
171
 10
-25.330612
 20
-58.191531
 30
0.0
 42
-0.054433
  0
SEQEND
  8
1
  6
CONTINUOUS
 62
     2
  5
172
  0
LINE
  8
1
  6
CONTINUOUS
 62
     2
  5
173
 10
-25.202833
 20
-58.37425
 30
0.0
 11
-46.260167
 21
-58.37425
 31
0.0
  0
POLYLINE
  8
1
  6
CONTINUOUS
 62
     2
  5
174
 66
     1
 10
0.0
 20
0.0
 30
0.0
210
0.0
220
0.0
230
1.0
  0
VERTEX
  8
1
  6
CONTINUOUS
 62
     2
  5
175
 10
-46.25977
 20
-58.374314
 30
0.0
 42
-0.054433
  0
VERTEX
  8
1
  6
CONTINUOUS
 62
     2
  5
176
 10
-46.345353
 20
-58.364948
 30
0.0
 42
-0.053505
  0
VERTEX
  8
1
  6
CONTINUOUS
 62
     2
  5
177
 10
-46.427646
 20
-58.337211
 30
0.0
 42
-0.051871
  0
VERTEX
  8
1
  6
CONTINUOUS
 62
     2
  5
178
 10
-46.503488
 20
-58.292169
 30
0.0
 42
-0.049878
  0
VERTEX
  8
1
  6
CONTINUOUS
 62
     2
  5
179
 10
-46.569964
 20
-58.231551
 30
0.0
 42
-0.047885
  0
VERTEX
  8
1
  6
CONTINUOUS
 62
     2
  5
17A
 10
-46.62452
 20
-58.157689
 30
0.0
 42
-0.046179
  0
VERTEX
  8
1
  6
CONTINUOUS
 62
     2
  5
17B
 10
-46.665058
 20
-58.07342
 30
0.0
 42
-0.044953
  0
VERTEX
  8
1
  6
CONTINUOUS
 62
     2
  5
17C
 10
-46.690022
 20
-57.981983
 30
0.0
 42
-0.044315
  0
VERTEX
  8
1
  6
CONTINUOUS
 62
     2
  5
17D
 10
-46.698451
 20
-57.886891
 30
0.0
 42
-0.044315
  0
SEQEND
  8
1
  6
CONTINUOUS
 62
     2
  5
17E
  0
LINE
  8
1
  6
CONTINUOUS
 62
     2
  5
17F
 10
-46.698667
 20
-57.886917
 30
0.0
 11
-46.698667
 21
-39.364667
 31
0.0
  0
POLYLINE
  8
1
  6
CONTINUOUS
 62
     2
  5
180
 66
     1
 10
0.0
 20
0.0
 30
0.0
210
0.0
220
0.0
230
1.0
  0
VERTEX
  8
1
  6
CONTINUOUS
 62
     2
  5
181
 10
-46.698451
 20
-39.364579
 30
0.0
 42
-0.044315
  0
VERTEX
  8
1
  6
CONTINUOUS
 62
     2
  5
182
 10
-46.690022
 20
-39.269487
 30
0.0
 42
-0.044953
  0
VERTEX
  8
1
  6
CONTINUOUS
 62
     2
  5
183
 10
-46.665058
 20
-39.17805
 30
0.0
 42
-0.046179
  0
VERTEX
  8
1
  6
CONTINUOUS
 62
     2
  5
184
 10
-46.62452
 20
-39.093781
 30
0.0
 42
-0.047885
  0
VERTEX
  8
1
  6
CONTINUOUS
 62
     2
  5
185
 10
-46.569964
 20
-39.019919
 30
0.0
 42
-0.049878
  0
VERTEX
  8
1
  6
CONTINUOUS
 62
     2
  5
186
 10
-46.503488
 20
-38.959301
 30
0.0
 42
-0.051871
  0
VERTEX
  8
1
  6
CONTINUOUS
 62
     2
  5
187
 10
-46.427646
 20
-38.914259
 30
0.0
 42
-0.053505
  0
VERTEX
  8
1
  6
CONTINUOUS
 62
     2
  5
188
 10
-46.345353
 20
-38.886522
 30
0.0
 42
-0.054433
  0
VERTEX
  8
1
  6
CONTINUOUS
 62
     2
  5
189
 10
-46.25977
 20
-38.877156
 30
0.0
 42
-0.054433
  0
SEQEND
  8
1
  6
CONTINUOUS
 62
     2
  5
18A
  0
LINE
  8
1
  6
CONTINUOUS
 62
     2
  5
18B
 10
-46.260167
 20
-38.87725
 30
0.0
 11
-25.202833
 21
-38.87725
 31
0.0
  0
POLYLINE
  8
1
  6
CONTINUOUS
 62
     2
  5
18C
 66
     1
 10
0.0
 20
0.0
 30
0.0
210
0.0
220
0.0
230
1.0
  0
VERTEX
  8
1
  6
CONTINUOUS
 62
     2
  5
18D
 10
-25.202664
 20
-38.877156
 30
0.0
 42
-0.054433
  0
VERTEX
  8
1
  6
CONTINUOUS
 62
     2
  5
18E
 10
-25.117081
 20
-38.886522
 30
0.0
 42
-0.053505
  0
VERTEX
  8
1
  6
CONTINUOUS
 62
     2
  5
18F
 10
-25.034788
 20
-38.914259
 30
0.0
 42
-0.051871
  0
VERTEX
  8
1
  6
CONTINUOUS
 62
     2
  5
190
 10
-24.958946
 20
-38.959301
 30
0.0
 42
-0.049878
  0
VERTEX
  8
1
  6
CONTINUOUS
 62
     2
  5
191
 10
-24.89247
 20
-39.019919
 30
0.0
 42
-0.047885
  0
VERTEX
  8
1
  6
CONTINUOUS
 62
     2
  5
192
 10
-24.837914
 20
-39.093781
 30
0.0
 42
-0.046179
  0
VERTEX
  8
1
  6
CONTINUOUS
 62
     2
  5
193
 10
-24.797376
 20
-39.17805
 30
0.0
 42
-0.044953
  0
VERTEX
  8
1
  6
CONTINUOUS
 62
     2
  5
194
 10
-24.772412
 20
-39.269487
 30
0.0
 42
-0.044315
  0
VERTEX
  8
1
  6
CONTINUOUS
 62
     2
  5
195
 10
-24.763983
 20
-39.364579
 30
0.0
 42
-0.044315
  0
SEQEND
  8
1
  6
CONTINUOUS
 62
     2
  5
196
  0
LINE
  8
1
  6
CONTINUOUS
 62
     2
  5
197
 10
-24.764167
 20
-39.364667
 30
0.0
 11
-24.764167
 21
-57.886917
 31
0.0
  0
POLYLINE
  8
1
  6
CONTINUOUS
 62
     2
  5
198
 66
     1
 10
0.0
 20
0.0
 30
0.0
210
0.0
220
0.0
230
1.0
  0
VERTEX
  8
1
  6
CONTINUOUS
 62
     2
  5
199
 10
-24.763983
 20
-57.886891
 30
0.0
 42
-0.044315
  0
VERTEX
  8
1
  6
CONTINUOUS
 62
     2
  5
19A
 10
-24.772412
 20
-57.981983
 30
0.0
 42
-0.044953
  0
VERTEX
  8
1
  6
CONTINUOUS
 62
     2
  5
19B
 10
-24.797376
 20
-58.07342
 30
0.0
 42
-0.046179
  0
VERTEX
  8
1
  6
CONTINUOUS
 62
     2
  5
19C
 10
-24.837914
 20
-58.157689
 30
0.0
 42
-0.047885
  0
VERTEX
  8
1
  6
CONTINUOUS
 62
     2
  5
19D
 10
-24.89247
 20
-58.231551
 30
0.0
 42
-0.049878
  0
VERTEX
  8
1
  6
CONTINUOUS
 62
     2
  5
19E
 10
-24.958946
 20
-58.292169
 30
0.0
 42
-0.051871
  0
VERTEX
  8
1
  6
CONTINUOUS
 62
     2
  5
19F
 10
-25.034788
 20
-58.337211
 30
0.0
 42
-0.053505
  0
VERTEX
  8
1
  6
CONTINUOUS
 62
     2
  5
1A0
 10
-25.117081
 20
-58.364948
 30
0.0
 42
-0.054433
  0
VERTEX
  8
1
  6
CONTINUOUS
 62
     2
  5
1A1
 10
-25.202664
 20
-58.374314
 30
0.0
 42
-0.054433
  0
SEQEND
  8
1
  6
CONTINUOUS
 62
     2
  5
1A2
  0
TEXT
  8
1
  6
CONTINUOUS
 62
     2
  5
1A3
 10
-44.342917
 20
-44.025667
 30
0.0
 40
2.42
  1
M.P.H.
 50
270.0
  7
txt
 72
     4
 11
-43.132917
 21
-48.785
 31
0.0
210
0.0
220
0.0
230
1.0
  0
LINE
  8
1
  6
CONTINUOUS
 62
     2
  5
1A4
 10
-31.9575
 20
-39.06
 30
0.0
 11
-31.9575
 21
-58.191583
 31
0.0
  0
TEXT
  8
2
  6
CONTINUOUS
 62
     5
  5
1A6
 10
-51.261417
 20
-41.782083
 30
0.0
 40
2.5
  1
W13-2
 50
270.0
  7
MONOTXT
 72
     4
 11
-50.011417
 21
-47.185583
 31
0.0
210
0.0
220
0.0
230
1.0
  0
TEXT
  8
1
  6
CONTINUOUS
 62
     2
  5
1A7
 10
-32.8815
 20
-45.78325
 30
0.0
 40
0.01525
  1
35
 50
269.641906
  7
txt
210
0.0
220
0.0
230
1.0
  0
TEXT
  8
1
  6
CONTINUOUS
 62
     2
  5
1A8
 10
-39.769417
 20
-43.482
 30
0.0
 40
5.445
  1
XX
 50
270.0
  7
txt
 72
     4
 11
-37.046917
 21
-48.488083
 31
0.0
210
0.0
220
0.0
230
1.0
  0
POLYLINE
  8
1
  6
CONTINUOUS
 62
     2
  5
1A9
 66
     1
 10
0.0
 20
0.0
 30
0.0
  0
VERTEX
  8
1
  6
CONTINUOUS
 62
     2
  5
1AA
 10
266.678
 20
-72.378583
 30
0.0
  0
VERTEX
  8
1
  6
CONTINUOUS
 62
     2
  5
1AB
 10
255.652917
 20
-61.353417
 30
0.0
  0
VERTEX
  8
1
  6
CONTINUOUS
 62
     2
  5
1AC
 10
255.652906
 20
-61.353319
 30
0.0
 42
-0.414214
  0
VERTEX
  8
1
  6
CONTINUOUS
 62
     2
  5
1AD
 10
255.652906
 20
-60.616076
 30
0.0
  0
VERTEX
  8
1
  6
CONTINUOUS
 62
     2
  5
1AE
 10
255.652917
 20
-60.616
 30
0.0
  0
VERTEX
  8
1
  6
CONTINUOUS
 62
     2
  5
1AF
 10
266.678
 20
-49.590833
 30
0.0
  0
VERTEX
  8
1
  6
CONTINUOUS
 62
     2
  5
1B0
 10
266.678027
 20
-49.590956
 30
0.0
 42
-0.414214
  0
VERTEX
  8
1
  6
CONTINUOUS
 62
     2
  5
1B1
 10
267.415269
 20
-49.590956
 30
0.0
  0
VERTEX
  8
1
  6
CONTINUOUS
 62
     2
  5
1B2
 10
267.415083
 20
-49.590833
 30
0.0
  0
VERTEX
  8
1
  6
CONTINUOUS
 62
     2
  5
1B3
 10
278.440583
 20
-60.616
 30
0.0
  0
VERTEX
  8
1
  6
CONTINUOUS
 62
     2
  5
1B4
 10
278.44039
 20
-60.616076
 30
0.0
 42
-0.414214
  0
VERTEX
  8
1
  6
CONTINUOUS
 62
     2
  5
1B5
 10
278.44039
 20
-61.353319
 30
0.0
  0
VERTEX
  8
1
  6
CONTINUOUS
 62
     2
  5
1B6
 10
278.440583
 20
-61.353417
 30
0.0
  0
VERTEX
  8
1
  6
CONTINUOUS
 62
     2
  5
1B7
 10
267.415083
 20
-72.378583
 30
0.0
  0
VERTEX
  8
1
  6
CONTINUOUS
 62
     2
  5
1B8
 10
267.415269
 20
-72.37844
 30
0.0
 42
-0.414214
  0
VERTEX
  8
1
  6
CONTINUOUS
 62
     2
  5
1B9
 10
266.678027
 20
-72.37844
 30
0.0
  0
SEQEND
  8
1
  6
CONTINUOUS
 62
     2
  5
1BA
  0
POLYLINE
  8
1
  6
CONTINUOUS
 62
     2
  5
1BB
 66
     1
 10
0.0
 20
0.0
 30
0.0
  0
VERTEX
  8
1
  6
CONTINUOUS
 62
     2
  5
1BC
 10
266.644333
 20
-72.646583
 30
0.0
  0
VERTEX
  8
1
  6
CONTINUOUS
 62
     2
  5
1BD
 10
255.384833
 20
-61.387167
 30
0.0
  0
VERTEX
  8
1
  6
CONTINUOUS
 62
     2
  5
1BE
 10
255.384818
 20
-61.38683
 30
0.0
 42
-0.414214
  0
VERTEX
  8
1
  6
CONTINUOUS
 62
     2
  5
1BF
 10
255.384818
 20
-60.582565
 30
0.0
  0
VERTEX
  8
1
  6
CONTINUOUS
 62
     2
  5
1C0
 10
255.384833
 20
-60.582583
 30
0.0
  0
VERTEX
  8
1
  6
CONTINUOUS
 62
     2
  5
1C1
 10
266.644333
 20
-49.323083
 30
0.0
  0
VERTEX
  8
1
  6
CONTINUOUS
 62
     2
  5
1C2
 10
266.644516
 20
-49.322867
 30
0.0
 42
-0.414214
  0
VERTEX
  8
1
  6
CONTINUOUS
 62
     2
  5
1C3
 10
267.44878
 20
-49.322867
 30
0.0
  0
VERTEX
  8
1
  6
CONTINUOUS
 62
     2
  5
1C4
 10
267.448833
 20
-49.323083
 30
0.0
  0
VERTEX
  8
1
  6
CONTINUOUS
 62
     2
  5
1C5
 10
278.708417
 20
-60.582583
 30
0.0
  0
VERTEX
  8
1
  6
CONTINUOUS
 62
     2
  5
1C6
 10
278.708478
 20
-60.582565
 30
0.0
 42
-0.414214
  0
VERTEX
  8
1
  6
CONTINUOUS
 62
     2
  5
1C7
 10
278.708478
 20
-61.38683
 30
0.0
  0
VERTEX
  8
1
  6
CONTINUOUS
 62
     2
  5
1C8
 10
278.708417
 20
-61.387167
 30
0.0
  0
VERTEX
  8
1
  6
CONTINUOUS
 62
     2
  5
1C9
 10
267.448833
 20
-72.646583
 30
0.0
  0
VERTEX
  8
1
  6
CONTINUOUS
 62
     2
  5
1CA
 10
267.44878
 20
-72.646528
 30
0.0
 42
-0.414214
  0
VERTEX
  8
1
  6
CONTINUOUS
 62
     2
  5
1CB
 10
266.644516
 20
-72.646528
 30
0.0
  0
SEQEND
  8
1
  6
CONTINUOUS
 62
     2
  5
1CC
  0
POLYLINE
  8
1
  6
CONTINUOUS
 62
     2
  5
1CD
 66
     1
 10
0.0
 20
0.0
 30
0.0
  0
VERTEX
  8
1
  6
CONTINUOUS
 62
     2
  5
1CE
 10
259.456083
 20
-59.23125
 30
0.0
  0
VERTEX
  8
1
  6
CONTINUOUS
 62
     2
  5
1CF
 10
262.03
 20
-56.663
 30
0.0
  0
VERTEX
  8
1
  6
CONTINUOUS
 62
     2
  5
1D0
 10
265.66325
 20
-56.663
 30
0.0
  0
VERTEX
  8
1
  6
CONTINUOUS
 62
     2
  5
1D1
 10
268.236917
 20
-59.23125
 30
0.0
  0
VERTEX
  8
1
  6
CONTINUOUS
 62
     2
  5
1D2
 10
268.236917
 20
-62.870167
 30
0.0
  0
VERTEX
  8
1
  6
CONTINUOUS
 62
     2
  5
1D3
 10
265.66325
 20
-65.444
 30
0.0
  0
VERTEX
  8
1
  6
CONTINUOUS
 62
     2
  5
1D4
 10
262.03
 20
-65.444
 30
0.0
  0
VERTEX
  8
1
  6
CONTINUOUS
 62
     2
  5
1D5
 10
259.456083
 20
-62.870167
 30
0.0
  0
VERTEX
  8
1
  6
CONTINUOUS
 62
     2
  5
1D6
 10
259.456083
 20
-59.23125
 30
0.0
  0
SEQEND
  8
1
  6
CONTINUOUS
 62
     2
  5
1D7
  0
LINE
  8
1
  6
CONTINUOUS
 62
     7
  5
1D8
 10
-35.7315
 20
-38.87725
 30
0.0
 11
-30.534
 21
-30.065917
 31
0.0
  0
LINE
  8
1
  6
CONTINUOUS
 62
     7
  5
1D9
 10
-5.849917
 20
-30.065917
 30
0.0
 11
-30.534
 21
-30.065917
 31
0.0
  0
INSERT
  8
1
  6
CONTINUOUS
 62
     1
  5
1DA
  2
LDR
 10
-5.849917
 20
-30.065917
 30
0.0
 41
240.0
 42
240.0
210
0.0
220
0.0
230
1.0
  0
LINE
  8
1
  6
CONTINUOUS
 62
     7
  5
1DB
 10
233.18675
 20
-23.279833
 30
0.0
 11
233.18675
 21
-76.073833
 31
0.0
  0
LINE
  8
1
  6
CONTINUOUS
 62
     7
  5
1DC
 10
296.75675
 20
-55.14925
 30
0.0
 11
296.75675
 21
-76.073833
 31
0.0
  0
INSERT
  8
1
  6
CONTINUOUS
 62
     1
  5
1DD
  2
LDR
 10
233.18675
 20
-75.073833
 30
0.0
 41
240.0
 42
240.0
 50
180.0
210
0.0
220
0.0
230
1.0
  0
INSERT
  8
1
  6
CONTINUOUS
 62
     1
  5
1DE
  2
LDR
 10
233.18675
 20
-75.073833
 30
0.0
 41
240.0
 42
240.0
 50
180.0
210
0.0
220
0.0
230
1.0
  0
INSERT
  8
1
  6
CONTINUOUS
 62
     1
  5
1DF
  2
LDR
 10
296.75675
 20
-75.073833
 30
0.0
 41
240.0
 42
240.0
210
0.0
220
0.0
230
1.0
  0
POLYLINE
  8
1
  6
CONTINUOUS
 62
     5
  5
1E0
 66
     1
 10
0.0
 20
0.0
 30
0.0
 70
     1
  0
VERTEX
  8
1
  6
CONTINUOUS
 62
     5
  5
1E1
 10
259.744
 20
-59.35225
 30
0.0
  0
VERTEX
  8
1
  6
CONTINUOUS
 62
     5
  5
1E2
 10
262.145167
 20
-56.950833
 30
0.0
  0
VERTEX
  8
1
  6
CONTINUOUS
 62
     5
  5
1E3
 10
265.548083
 20
-56.950833
 30
0.0
  0
VERTEX
  8
1
  6
CONTINUOUS
 62
     5
  5
1E4
 10
267.949167
 20
-59.35225
 30
0.0
  0
VERTEX
  8
1
  6
CONTINUOUS
 62
     5
  5
1E5
 10
267.949167
 20
-62.749333
 30
0.0
  0
VERTEX
  8
1
  6
CONTINUOUS
 62
     5
  5
1E6
 10
265.548083
 20
-65.156083
 30
0.0
  0
VERTEX
  8
1
  6
CONTINUOUS
 62
     5
  5
1E7
 10
262.145167
 20
-65.156083
 30
0.0
  0
VERTEX
  8
1
  6
CONTINUOUS
 62
     5
  5
1E8
 10
259.744
 20
-62.749333
 30
0.0
  0
VERTEX
  8
1
  6
CONTINUOUS
 62
     5
  5
1E9
 10
259.744
 20
-59.35225
 30
0.0
  0
SEQEND
  8
1
  6
CONTINUOUS
 62
     5
  5
1EA
  0
LINE
  8
1
  6
CONTINUOUS
 62
     5
  5
1EB
 10
259.744
 20
-59.984083
 30
0.0
 11
262.777167
 21
-56.950833
 31
0.0
  0
LINE
  8
1
  6
CONTINUOUS
 62
     5
  5
1EC
 10
259.744
 20
-60.673083
 30
0.0
 11
263.466
 21
-56.950833
 31
0.0
  0
LINE
  8
1
  6
CONTINUOUS
 62
     5
  5
1ED
 10
259.744
 20
-61.361917
 30
0.0
 11
264.154833
 21
-56.950833
 31
0.0
  0
LINE
  8
1
  6
CONTINUOUS
 62
     5
  5
1EE
 10
259.744
 20
-62.050917
 30
0.0
 11
264.844
 21
-56.950833
 31
0.0
  0
LINE
  8
1
  6
CONTINUOUS
 62
     5
  5
1EF
 10
259.744
 20
-62.739917
 30
0.0
 11
265.532833
 21
-56.950833
 31
0.0
  0
LINE
  8
1
  6
CONTINUOUS
 62
     5
  5
1F0
 10
260.08325
 20
-63.08925
 30
0.0
 11
265.885083
 21
-57.288083
 31
0.0
  0
LINE
  8
1
  6
CONTINUOUS
 62
     5
  5
1F1
 10
260.427417
 20
-63.434333
 30
0.0
 11
266.229333
 21
-57.63225
 31
0.0
  0
LINE
  8
1
  6
CONTINUOUS
 62
     5
  5
1F2
 10
260.771583
 20
-63.779167
 30
0.0
 11
266.574
 21
-57.97675
 31
0.0
  0
LINE
  8
1
  6
CONTINUOUS
 62
     5
  5
1F3
 10
261.115667
 20
-64.124083
 30
0.0
 11
266.9185
 21
-58.3215
 31
0.0
  0
LINE
  8
1
  6
CONTINUOUS
 62
     5
  5
1F4
 10
261.459667
 20
-64.469167
 30
0.0
 11
267.262833
 21
-58.66575
 31
0.0
  0
LINE
  8
1
  6
CONTINUOUS
 62
     5
  5
1F5
 10
261.803583
 20
-64.814
 30
0.0
 11
267.6075
 21
-59.010417
 31
0.0
  0
LINE
  8
1
  6
CONTINUOUS
 62
     5
  5
1F6
 10
262.150583
 20
-65.156083
 30
0.0
 11
267.949167
 21
-59.357333
 31
0.0
  0
LINE
  8
1
  6
CONTINUOUS
 62
     5
  5
1F7
 10
262.839583
 20
-65.156083
 30
0.0
 11
267.949167
 21
-60.046583
 31
0.0
  0
LINE
  8
1
  6
CONTINUOUS
 62
     5
  5
1F8
 10
263.528667
 20
-65.156083
 30
0.0
 11
267.949167
 21
-60.735417
 31
0.0
  0
LINE
  8
1
  6
CONTINUOUS
 62
     5
  5
1F9
 10
264.217417
 20
-65.156083
 30
0.0
 11
267.949167
 21
-61.424417
 31
0.0
  0
LINE
  8
1
  6
CONTINUOUS
 62
     5
  5
1FA
 10
264.9065
 20
-65.156083
 30
0.0
 11
267.949167
 21
-62.113333
 31
0.0
  0
LINE
  8
1
  6
CONTINUOUS
 62
     5
  5
1FB
 10
262.154417
 20
-65.156083
 30
0.0
 11
259.744
 21
-62.745417
 31
0.0
  0
LINE
  8
1
  6
CONTINUOUS
 62
     5
  5
1FC
 10
262.843667
 20
-65.156083
 30
0.0
 11
259.744
 21
-62.0565
 31
0.0
  0
LINE
  8
1
  6
CONTINUOUS
 62
     5
  5
1FD
 10
263.532417
 20
-65.156083
 30
0.0
 11
259.744
 21
-61.367583
 31
0.0
  0
LINE
  8
1
  6
CONTINUOUS
 62
     5
  5
1FE
 10
264.221417
 20
-65.156083
 30
0.0
 11
259.744
 21
-60.678583
 31
0.0
  0
LINE
  8
1
  6
CONTINUOUS
 62
     5
  5
1FF
 10
264.910417
 20
-65.156083
 30
0.0
 11
259.744
 21
-59.989667
 31
0.0
  0
LINE
  8
1
  6
CONTINUOUS
 62
     5
  5
200
 10
265.573667
 20
-65.130333
 30
0.0
 11
259.769917
 21
-59.326083
 31
0.0
  0
LINE
  8
1
  6
CONTINUOUS
 62
     5
  5
201
 10
265.91775
 20
-64.785417
 30
0.0
 11
260.114167
 21
-58.981917
 31
0.0
  0
LINE
  8
1
  6
CONTINUOUS
 62
     5
  5
202
 10
266.262
 20
-64.440417
 30
0.0
 11
260.4585
 21
-58.6375
 31
0.0
  0
LINE
  8
1
  6
CONTINUOUS
 62
     5
  5
203
 10
266.605917
 20
-64.095667
 30
0.0
 11
260.803167
 21
-58.29275
 31
0.0
  0
LINE
  8
1
  6
CONTINUOUS
 62
     5
  5
204
 10
266.949917
 20
-63.75075
 30
0.0
 11
261.147667
 21
-57.948417
 31
0.0
  0
LINE
  8
1
  6
CONTINUOUS
 62
     5
  5
205
 10
267.294
 20
-63.405917
 30
0.0
 11
261.492
 21
-57.603833
 31
0.0
  0
LINE
  8
1
  6
CONTINUOUS
 62
     5
  5
206
 10
267.638083
 20
-63.061083
 30
0.0
 11
261.836667
 21
-57.259167
 31
0.0
  0
LINE
  8
1
  6
CONTINUOUS
 62
     5
  5
207
 10
267.949167
 20
-62.682917
 30
0.0
 11
262.217083
 21
-56.950833
 31
0.0
  0
LINE
  8
1
  6
CONTINUOUS
 62
     5
  5
208
 10
267.949167
 20
-61.994083
 30
0.0
 11
262.906
 21
-56.950833
 31
0.0
  0
LINE
  8
1
  6
CONTINUOUS
 62
     5
  5
209
 10
267.949167
 20
-61.305167
 30
0.0
 11
263.595167
 21
-56.950833
 31
0.0
  0
LINE
  8
1
  6
CONTINUOUS
 62
     5
  5
20A
 10
267.949167
 20
-60.615917
 30
0.0
 11
264.28425
 21
-56.950833
 31
0.0
  0
LINE
  8
1
  6
CONTINUOUS
 62
     5
  5
20B
 10
267.949167
 20
-59.927083
 30
0.0
 11
264.973
 21
-56.950833
 31
0.0
  0
POLYLINE
  8
1
  6
CONTINUOUS
 62
     5
  5
20C
 66
     1
 10
0.0
 20
0.0
 30
0.0
  0
VERTEX
  8
1
  6
CONTINUOUS
 62
     5
  5
20D
 10
269.976167
 20
-60.364917
 30
0.0
  0
VERTEX
  8
1
  6
CONTINUOUS
 62
     5
  5
20E
 10
272.1795
 20
-60.364917
 30
0.0
  0
VERTEX
  8
1
  6
CONTINUOUS
 62
     5
  5
20F
 10
271.488667
 20
-57.693333
 30
0.0
  0
VERTEX
  8
1
  6
CONTINUOUS
 62
     5
  5
210
 10
271.488943
 20
-57.694843
 30
0.0
 42
-0.77931
  0
VERTEX
  8
1
  6
CONTINUOUS
 62
     5
  5
211
 10
271.909053
 20
-57.467283
 30
0.0
  0
VERTEX
  8
1
  6
CONTINUOUS
 62
     5
  5
212
 10
271.910833
 20
-57.470333
 30
0.0
  0
VERTEX
  8
1
  6
CONTINUOUS
 62
     5
  5
213
 10
275.227417
 20
-61.13275
 30
0.0
  0
VERTEX
  8
1
  6
CONTINUOUS
 62
     5
  5
214
 10
271.910833
 20
-64.8025
 30
0.0
  0
VERTEX
  8
1
  6
CONTINUOUS
 62
     5
  5
215
 10
271.909053
 20
-64.801713
 30
0.0
 42
-0.77931
  0
VERTEX
  8
1
  6
CONTINUOUS
 62
     5
  5
216
 10
271.488943
 20
-64.574153
 30
0.0
  0
VERTEX
  8
1
  6
CONTINUOUS
 62
     5
  5
217
 10
271.488667
 20
-64.57225
 30
0.0
  0
VERTEX
  8
1
  6
CONTINUOUS
 62
     5
  5
218
 10
272.1795
 20
-61.908167
 30
0.0
  0
VERTEX
  8
1
  6
CONTINUOUS
 62
     5
  5
219
 10
269.976167
 20
-61.908167
 30
0.0
  0
VERTEX
  8
1
  6
CONTINUOUS
 62
     5
  5
21A
 10
269.976167
 20
-60.364917
 30
0.0
  0
SEQEND
  8
1
  6
CONTINUOUS
 62
     5
  5
21B
  0
POLYLINE
  8
1
  6
CONTINUOUS
 62
     5
  5
21C
 66
     1
 10
0.0
 20
0.0
 30
0.0
  0
VERTEX
  8
1
  6
CONTINUOUS
 62
     5
  5
21D
 10
272.1795
 20
-60.364917
 30
0.0
  0
VERTEX
  8
1
  6
CONTINUOUS
 62
     5
  5
21E
 10
269.976167
 20
-60.364917
 30
0.0
  0
VERTEX
  8
1
  6
CONTINUOUS
 62
     5
  5
21F
 10
269.976167
 20
-61.908167
 30
0.0
  0
VERTEX
  8
1
  6
CONTINUOUS
 62
     5
  5
220
 10
272.1795
 20
-61.908167
 30
0.0
  0
VERTEX
  8
1
  6
CONTINUOUS
 62
     5
  5
221
 10
271.488667
 20
-64.57225
 30
0.0
  0
VERTEX
  8
1
  6
CONTINUOUS
 62
     5
  5
222
 10
271.488943
 20
-64.574153
 30
0.0
 42
0.77931
  0
VERTEX
  8
1
  6
CONTINUOUS
 62
     5
  5
223
 10
271.909053
 20
-64.801713
 30
0.0
  0
VERTEX
  8
1
  6
CONTINUOUS
 62
     5
  5
224
 10
271.910833
 20
-64.8025
 30
0.0
  0
VERTEX
  8
1
  6
CONTINUOUS
 62
     5
  5
225
 10
275.227417
 20
-61.13275
 30
0.0
  0
VERTEX
  8
1
  6
CONTINUOUS
 62
     5
  5
226
 10
271.910833
 20
-57.470333
 30
0.0
  0
VERTEX
  8
1
  6
CONTINUOUS
 62
     5
  5
227
 10
271.909053
 20
-57.467283
 30
0.0
 42
0.77931
  0
VERTEX
  8
1
  6
CONTINUOUS
 62
     5
  5
228
 10
271.488943
 20
-57.694843
 30
0.0
  0
VERTEX
  8
1
  6
CONTINUOUS
 62
     5
  5
229
 10
271.488667
 20
-57.693333
 30
0.0
  0
VERTEX
  8
1
  6
CONTINUOUS
 62
     5
  5
22A
 10
272.1795
 20
-60.364917
 30
0.0
  0
SEQEND
  8
1
  6
CONTINUOUS
 62
     5
  5
22B
  0
TEXT
  8
2
  6
CONTINUOUS
 62
     5
  5
22C
 10
251.103083
 20
-55.179333
 30
0.0
 40
2.5
  1
W3-1A
 50
270.0
  7
MONOTXT
 72
     4
 11
252.353083
 21
-60.710833
 31
0.0
210
0.0
220
0.0
230
1.0
  0
LINE
  8
1
  6
CONTINUOUS
 62
     7
  5
22D
 10
296.75675
 20
-52.015917
 30
0.0
 11
275.895917
 21
-52.015917
 31
0.0
  0
LINE
  8
1
  6
CONTINUOUS
 62
     7
  5
22E
 10
273.078667
 20
-54.952833
 30
0.0
 11
275.895917
 21
-52.015917
 31
0.0
  0
INSERT
  8
1
  6
CONTINUOUS
 62
     1
  5
22F
  2
LDR
 10
296.75675
 20
-52.015917
 30
0.0
 41
240.0
 42
240.0
210
0.0
220
0.0
230
1.0
  0
LINE
  8
1
  6
CONTINUOUS
 62
     3
  5
230
 10
188.816
 20
73.77375
 30
0.0
 11
208.303167
 21
73.77375
 31
0.0
  0
LINE
  8
1
  6
CONTINUOUS
 62
     3
  5
231
 10
212.200583
 20
69.87625
 30
0.0
 11
212.200583
 21
44.542917
 31
0.0
  0
LINE
  8
1
  6
CONTINUOUS
 62
     3
  5
232
 10
208.303167
 20
40.6455
 30
0.0
 11
188.816
 21
40.6455
 31
0.0
  0
LINE
  8
1
  6
CONTINUOUS
 62
     3
  5
233
 10
184.9185
 20
44.542917
 30
0.0
 11
184.9185
 21
69.87625
 31
0.0
  0
ARC
  8
1
  6
CONTINUOUS
 62
     3
  5
234
 10
188.815924
 20
69.87628
 30
0.0
 40
3.897434
 50
90.0
 51
180.0
210
0.0
220
0.0
230
1.0
  0
ARC
  8
1
  6
CONTINUOUS
 62
     3
  5
235
 10
208.303095
 20
69.87628
 30
0.0
 40
3.897434
 50
0.0
 51
90.0
210
0.0
220
0.0
230
1.0
  0
ARC
  8
1
  6
CONTINUOUS
 62
     3
  5
236
 10
208.303095
 20
44.542958
 30
0.0
 40
3.897434
 50
270.0
 51
0.0
210
0.0
220
0.0
230
1.0
  0
ARC
  8
1
  6
CONTINUOUS
 62
     3
  5
237
 10
188.815924
 20
44.542958
 30
0.0
 40
3.897434
 50
180.0
 51
270.0
210
0.0
220
0.0
230
1.0
  0
LINE
  8
1
  6
CONTINUOUS
 62
     3
  5
238
 10
188.816
 20
73.949083
 30
0.0
 11
208.303167
 21
73.949083
 31
0.0
  0
ARC
  8
1
  6
CONTINUOUS
 62
     3
  5
239
 10
188.815924
 20
69.87628
 30
0.0
 40
4.072819
 50
90.0
 51
180.0
210
0.0
220
0.0
230
1.0
  0
LINE
  8
1
  6
CONTINUOUS
 62
     3
  5
23A
 10
184.743
 20
44.542917
 30
0.0
 11
184.743
 21
69.87625
 31
0.0
  0
ARC
  8
1
  6
CONTINUOUS
 62
     3
  5
23B
 10
188.815924
 20
44.542958
 30
0.0
 40
4.072819
 50
180.0
 51
270.0
210
0.0
220
0.0
230
1.0
  0
LINE
  8
1
  6
CONTINUOUS
 62
     3
  5
23C
 10
208.303167
 20
40.470083
 30
0.0
 11
188.816
 21
40.470083
 31
0.0
  0
ARC
  8
1
  6
CONTINUOUS
 62
     3
  5
23D
 10
208.303095
 20
44.542958
 30
0.0
 40
4.072819
 50
270.0
 51
0.0
210
0.0
220
0.0
230
1.0
  0
LINE
  8
1
  6
CONTINUOUS
 62
     3
  5
23E
 10
212.375833
 20
69.87625
 30
0.0
 11
212.375833
 21
44.542917
 31
0.0
  0
ARC
  8
1
  6
CONTINUOUS
 62
     3
  5
23F
 10
208.303095
 20
69.87628
 30
0.0
 40
4.072819
 50
0.0
 51
90.0
210
0.0
220
0.0
230
1.0
  0
TEXT
  8
1
  6
CONTINUOUS
 62
     7
  5
240
 10
203.593
 20
64.18525
 30
0.0
 40
4.84
  1
EXIT
 50
270.0
  7
txt
 72
     4
 11
206.013
 21
57.229583
 31
0.0
210
0.0
220
0.0
230
1.0
  0
TEXT
  8
1
  6
CONTINUOUS
 62
     7
  5
241
 10
191.597833
 20
67.80275
 30
0.0
 40
4.84
  1
00
 50
270.0
  7
txt
 72
     4
 11
194.017833
 21
64.40375
 31
0.0
210
0.0
220
0.0
230
1.0
  0
INSERT
  8
1
  6
CONTINUOUS
 62
     1
  5
257
  2
ARROW
 10
197.484083
 20
46.777
 30
0.0
 41
233.846062
 42
233.846062
 50
315.0
210
0.0
220
0.0
230
1.0
  0
LINE
  8
1
  6
CONTINUOUS
 62
     7
  5
258
 10
233.355917
 20
-16.245083
 30
0.0
 11
217.18625
 21
-16.245083
 31
0.0
  0
LINE
  8
1
  6
CONTINUOUS
 62
     7
  5
259
 10
198.559583
 20
40.470083
 30
0.0
 11
217.18625
 21
-16.245083
 31
0.0
  0
INSERT
  8
1
  6
CONTINUOUS
 62
     1
  5
25A
  2
LDR
 10
233.355917
 20
-16.245083
 30
0.0
 41
240.0
 42
240.0
210
0.0
220
0.0
230
1.0
  0
LINE
  8
1
  6
CONTINUOUS
 62
     7
  5
25B
 10
234.665583
 20
-13.685333
 30
0.0
 11
250.511083
 21
-11.244333
 31
0.0
  0
LINE
  8
1
  6
CONTINUOUS
 62
     7
  5
25C
 10
234.256917
 20
-18.716333
 30
0.0
 11
251.349667
 21
-19.965833
 31
0.0
  0
LINE
  8
1
  6
CONTINUOUS
 62
     7
  5
25D
 10
242.268583
 20
-7.104833
 30
0.0
 11
242.725333
 21
-10.069917
 31
0.0
  0
LINE
  8
1
  6
CONTINUOUS
 62
     7
  5
25E
 10
244.568417
 20
-22.035167
 30
0.0
 11
245.025083
 21
-25.000083
 31
0.0
  0
LINE
  8
1
  6
CONTINUOUS
 62
     7
  5
25F
 10
243.0825
 20
-12.38875
 30
0.0
 11
243.53925
 21
-15.35375
 31
0.0
  0
LINE
  8
1
  6
CONTINUOUS
 62
     7
  5
260
 10
243.712
 20
-16.475833
 30
0.0
 11
244.168833
 21
-19.440917
 31
0.0
  0
INSERT
  8
1
  6
CONTINUOUS
 62
     1
  5
261
  2
LDR
 10
242.725333
 20
-10.069917
 30
0.0
 41
240.000001
 42
240.000001
 50
278.757174
210
0.0
220
0.0
230
1.0
  0
INSERT
  8
1
  6
CONTINUOUS
 62
     1
  5
262
  2
LDR
 10
243.0825
 20
-12.38875
 30
0.0
 41
240.000001
 42
240.000001
 50
98.757415
210
0.0
220
0.0
230
1.0
  0
INSERT
  8
1
  6
CONTINUOUS
 62
     1
  5
263
  2
LDR
 10
244.168833
 20
-19.440917
 30
0.0
 41
239.999998
 42
239.999998
 50
278.758746
210
0.0
220
0.0
230
1.0
  0
INSERT
  8
1
  6
CONTINUOUS
 62
     1
  5
264
  2
LDR
 10
244.568417
 20
-22.035167
 30
0.0
 41
240.0
 42
240.0
 50
98.756085
210
0.0
220
0.0
230
1.0
  0
LINE
  8
1
  6
CONTINUOUS
 62
     7
  5
265
 10
242.91225
 20
-11.283417
 30
0.0
 11
251.329167
 21
-9.986833
 31
0.0
  0
LINE
  8
1
  6
CONTINUOUS
 62
     7
  5
266
 10
244.350417
 20
-20.619333
 30
0.0
 11
252.262333
 21
-21.197667
 31
0.0
  0
LINE
  8
1
  6
CONTINUOUS
 62
     7
  5
267
 10
251.329167
 20
-9.986833
 30
0.0
 11
257.104417
 21
-15.70975
 31
0.0
  0
LINE
  8
1
  6
CONTINUOUS
 62
     7
  5
268
 10
257.104417
 20
-15.70975
 30
0.0
 11
252.262333
 21
-21.197667
 31
0.0
  0
INSERT
  8
1
  6
CONTINUOUS
 62
     1
  5
269
  2
LDR
 10
242.91225
 20
-11.283417
 30
0.0
 41
239.999999
 42
239.999999
 50
188.757287
210
0.0
220
0.0
230
1.0
  0
INSERT
  8
1
  6
CONTINUOUS
 62
     1
  5
26A
  2
LDR
 10
242.91225
 20
-11.283417
 30
0.0
 41
239.999999
 42
239.999999
 50
188.757287
210
0.0
220
0.0
230
1.0
  0
INSERT
  8
1
  6
CONTINUOUS
 62
     1
  5
26B
  2
LDR
 10
244.350417
 20
-20.619333
 30
0.0
 41
240.0
 42
240.0
 50
175.819316
210
0.0
220
0.0
230
1.0
  0
TEXT
  8
1
  6
CONTINUOUS
 62
     7
  5
26C
 10
309.53425
 20
-14.282333
 30
0.0
 40
2.5
  1
PAVED SHOULDER
  7
MONOTXT
 72
     4
 11
326.433833
 21
-13.032333
 31
0.0
210
0.0
220
0.0
230
1.0
  0
LINE
  8
1
  6
CONTINUOUS
 62
     7
  5
26D
 10
296.448
 20
-13.032333
 30
0.0
 11
308.211667
 21
-13.032333
 31
0.0
  0
LINE
  8
1
  6
CONTINUOUS
 62
     7
  5
26E
 10
344.418167
 20
-13.032333
 30
0.0
 11
355.609917
 21
-13.032333
 31
0.0
  0
LINE
  8
1
  6
CONTINUOUS
 62
     7
  5
26F
 10
296.448
 20
-13.032333
 30
0.0
 11
278.87275
 21
-3.321833
 31
0.0
  0
LINE
  8
1
  6
CONTINUOUS
 62
     7
  5
270
 10
355.609917
 20
-13.032333
 30
0.0
 11
370.63275
 21
-31.68425
 31
0.0
  0
INSERT
  8
1
  6
CONTINUOUS
 62
     1
  5
271
  2
LDR
 10
278.87275
 20
-3.321833
 30
0.0
 41
240.000001
 42
240.000001
 50
151.078914
210
0.0
220
0.0
230
1.0
  0
INSERT
  8
1
  6
CONTINUOUS
 62
     1
  5
272
  2
LDR
 10
278.87275
 20
-3.321833
 30
0.0
 41
240.000001
 42
240.000001
 50
151.078914
210
0.0
220
0.0
230
1.0
  0
INSERT
  8
1
  6
CONTINUOUS
 62
     1
  5
273
  2
LDR
 10
370.63275
 20
-31.68425
 30
0.0
 41
239.999998
 42
239.999998
 50
308.849049
210
0.0
220
0.0
230
1.0
  0
TEXT
  8
1
  6
CONTINUOUS
 62
     7
  5
274
 10
258.134
 20
-16.501833
 30
0.0
 40
2.5
  1
2'
  7
MONOTXT
 72
     4
 11
259.423333
 21
-15.251833
 31
0.0
210
0.0
220
0.0
230
1.0
  0
TEXT
  8
2
  6
CONTINUOUS
 62
     5
  5
275
 10
178.452167
 20
61.126917
 30
0.0
 40
2.5
  1
E5-1A
 50
270.0
  7
MONOTXT
 72
     4
 11
179.702167
 21
56.008833
 31
0.0
210
0.0
220
0.0
230
1.0
  0
TEXT
  8
1
  6
CONTINUOUS
 62
     7
  5
276
 10
-63.453417
 20
-66.001833
 30
0.0
 40
2.5
  1
ALSO SEE CONTRACT PLANS
  7
MONOTXT
 72
     4
 11
-35.4515
 21
-64.751833
 31
0.0
210
0.0
220
0.0
230
1.0
  0
TEXT
  8
1
  6
CONTINUOUS
 62
     7
  5
277
 10
237.59825
 20
-83.896667
 30
0.0
 40
2.5
  1
ALSO SEE CONTRACT PLANS
  7
MONOTXT
 72
     4
 11
265.600167
 21
-82.646667
 31
0.0
210
0.0
220
0.0
230
1.0
  0
LINE
  8
1
  6
CONTINUOUS
 62
     7
  5
278
 10
233.18675
 20
-75.073833
 30
0.0
 11
263.47175
 21
-75.073833
 31
0.0
  0
LINE
  8
1
  6
CONTINUOUS
 62
     7
  5
279
 10
266.47175
 20
-75.073833
 30
0.0
 11
296.75675
 21
-75.073833
 31
0.0
  0
TEXT
  8
1
  6
CONTINUOUS
 62
     7
  5
27A
 10
264.144917
 20
-76.323833
 30
0.0
 40
2.5
  1
B
  7
MONOTXT
 72
     4
 11
264.9815
 21
-75.073833
 31
0.0
210
0.0
220
0.0
230
1.0
  0
TEXT
  8
1
  6
CONTINUOUS
 62
     7
  5
27B
 10
139.740833
 20
-16.708417
 30
0.0
 40
2.5
  1
SHOULDER MATERIAL
  7
MONOTXT
 72
     4
 11
159.356917
 21
-15.458417
 31
0.0
210
0.0
220
0.0
230
1.0
  0
LINE
  8
1
  6
CONTINUOUS
 62
     1
  5
27C
 10
148.603333
 20
-19.646
 30
0.0
 11
146.079333
 21
-17.122083
 31
0.0
  0
LINE
  8
1
  6
CONTINUOUS
 62
     1
  5
27D
 10
142.935333
 20
-13.978083
 30
0.0
 11
140.50675
 21
-11.5495
 31
0.0
  0
LINE
  8
1
  6
CONTINUOUS
 62
     1
  5
27E
 10
163.95275
 20
-20.853333
 30
0.0
 11
159.306083
 21
-16.206667
 31
0.0
  0
LINE
  8
1
  6
CONTINUOUS
 62
     1
  5
27F
 10
157.013583
 20
-13.914167
 30
0.0
 11
153.685167
 21
-10.58575
 31
0.0
  0
LINE
  8
1
  6
CONTINUOUS
 62
     1
  5
280
 10
179.302167
 20
-22.060583
 30
0.0
 11
174.366667
 21
-17.125083
 31
0.0
  0
LINE
  8
1
  6
CONTINUOUS
 62
     1
  5
281
 10
171.15725
 20
-13.915667
 30
0.0
 11
166.793917
 21
-9.552333
 31
0.0
  0
TEXT
  8
1
  6
CONTINUOUS
 62
     5
  5
282
 10
-29.90425
 20
-44.315917
 30
0.0
 40
3.025
  1
EXIT
 50
270.0
  7
txt
 72
     4
 11
-28.39175
 21
-48.66325
 31
0.0
210
0.0
220
0.0
230
1.0
  0
LINE
  8
1
  6
CONTINUOUS
 62
     1
  5
283
 10
31.665333
 20
-162.262083
 30
0.0
 11
111.665333
 21
-162.262083
 31
0.0
  0
LINE
  8
1
  6
CONTINUOUS
 62
     1
  5
284
 10
111.665333
 20
-162.262083
 30
0.0
 11
111.665333
 21
-182.262083
 31
0.0
  0
LINE
  8
1
  6
CONTINUOUS
 62
     1
  5
285
 10
111.665333
 20
-182.262083
 30
0.0
 11
31.665333
 21
-182.262083
 31
0.0
  0
LINE
  8
1
  6
CONTINUOUS
 62
     1
  5
286
 10
31.665333
 20
-182.262083
 30
0.0
 11
31.665333
 21
-162.262083
 31
0.0
  0
LINE
  8
1
  6
CONTINUOUS
 62
     1
  5
287
 10
51.665333
 20
-182.262083
 30
0.0
 11
51.665333
 21
-162.262083
 31
0.0
  0
LINE
  8
1
  6
CONTINUOUS
 62
     1
  5
288
 10
81.665333
 20
-182.262083
 30
0.0
 11
81.665333
 21
-162.262083
 31
0.0
  0
LINE
  8
1
  6
CONTINUOUS
 62
     1
  5
289
 10
31.665333
 20
-170.262083
 30
0.0
 11
111.665333
 21
-170.262083
 31
0.0
  0
LINE
  8
1
  6
CONTINUOUS
 62
     1
  5
28A
 10
31.665333
 20
-176.262083
 30
0.0
 11
111.665333
 21
-176.262083
 31
0.0
  0
TEXT
  8
1
  6
CONTINUOUS
 62
     7
  5
28B
 10
34.867
 20
-167.791583
 30
0.0
 40
3.0
  1
SIGN
  7
MONOTXT
 72
     4
 11
39.414167
 21
-166.291583
 31
0.0
210
0.0
220
0.0
230
1.0
  0
TEXT
  8
1
  6
CONTINUOUS
 62
     7
  5
28C
 10
64.811083
 20
-167.715417
 30
0.0
 40
3.0
  1
A
  7
MONOTXT
 72
     4
 11
65.968583
 21
-166.215417
 31
0.0
210
0.0
220
0.0
230
1.0
  0
TEXT
  8
1
  6
CONTINUOUS
 62
     7
  5
28D
 10
95.932
 20
-167.715417
 30
0.0
 40
3.0
  1
B
  7
MONOTXT
 72
     4
 11
96.935917
 21
-166.215417
 31
0.0
210
0.0
220
0.0
230
1.0
  0
TEXT
  8
1
  6
CONTINUOUS
 62
     7
  5
28E
 10
35.910833
 20
-174.46775
 30
0.0
 40
2.5
  1
W13-2
  7
MONOTXT
 72
     4
 11
41.314333
 21
-173.21775
 31
0.0
210
0.0
220
0.0
230
1.0
  0
TEXT
  8
1
  6
CONTINUOUS
 62
     7
  5
28F
 10
59.09225
 20
-174.543833
 30
0.0
 40
2.5
  1
0' - 100'
  7
MONOTXT
 72
     4
 11
66.641417
 21
-173.293833
 31
0.0
210
0.0
220
0.0
230
1.0
  0
TEXT
  8
1
  6
CONTINUOUS
 62
     7
  5
290
 10
86.438167
 20
-180.556667
 30
0.0
 40
2.5
  1
100' - 200'
  7
MONOTXT
 72
     4
 11
96.467667
 21
-179.306667
 31
0.0
210
0.0
220
0.0
230
1.0
  0
TEXT
  8
1
  6
CONTINUOUS
 62
     7
  5
291
 10
26.087167
 20
-190.331167
 30
0.0
 40
2.5
  1
NOTE:
  7
MONOTXT
 11
26.087167
 21
-187.831167
 31
0.0
210
0.0
220
0.0
230
1.0
 73
     3
  0
TEXT
  8
1
  6
CONTINUOUS
 62
     7
  5
292
 10
26.087167
 20
-194.831167
 30
0.0
 40
2.5
  1
ONLY ONE SIGN TO BE USED AT ANY OFF-RAMP.
  7
MONOTXT
 11
26.087167
 21
-192.331167
 31
0.0
210
0.0
220
0.0
230
1.0
 73
     3
  0
TEXT
  8
1
  6
CONTINUOUS
 62
     7
  5
293
 10
46.391583
 20
-166.541
 30
0.0
 40
4.0
  1
*
  7
MONOTXT
 72
     4
 11
47.16325
 21
-164.541
 31
0.0
210
0.0
220
0.0
230
1.0
  0
TEXT
  8
1
  6
CONTINUOUS
 62
     7
  5
294
 10
22.04375
 20
-189.22225
 30
0.0
 40
4.0
  1
*
  7
MONOTXT
 72
     4
 11
22.815417
 21
-187.22225
 31
0.0
210
0.0
220
0.0
230
1.0
  0
POLYLINE
  8
1
  6
CONTINUOUS
 62
     7
  5
295
 66
     1
 10
0.0
 20
0.0
 30
0.0
  0
VERTEX
  8
1
  6
CONTINUOUS
 62
     7
  5
296
 10
222.753333
 20
-221.995833
 30
0.0
  0
VERTEX
  8
1
  6
CONTINUOUS
 62
     7
  5
297
 10
220.753333
 20
-225.459917
 30
0.0
  0
VERTEX
  8
1
  6
CONTINUOUS
 62
     7
  5
298
 10
224.753333
 20
-225.459917
 30
0.0
  0
VERTEX
  8
1
  6
CONTINUOUS
 62
     7
  5
299
 10
222.753333
 20
-221.995833
 30
0.0
  0
SEQEND
  8
1
  6
CONTINUOUS
 62
     7
  5
29A
  0
TEXT
  8
1
  6
CONTINUOUS
 62
     7
  5
29B
 10
222.211583
 20
-225.0355
 30
0.0
 40
1.5
  1
4
  7
MONOTXT
210
0.0
220
0.0
230
1.0
  0
POLYLINE
  8
1
  6
CONTINUOUS
 62
     7
  5
29C
 66
     1
 10
0.0
 20
0.0
 30
0.0
  0
VERTEX
  8
1
  6
CONTINUOUS
 62
     7
  5
29D
 10
218.987667
 20
-146.33075
 30
0.0
  0
VERTEX
  8
1
  6
CONTINUOUS
 62
     7
  5
29E
 10
216.987667
 20
-149.794833
 30
0.0
  0
VERTEX
  8
1
  6
CONTINUOUS
 62
     7
  5
29F
 10
220.987667
 20
-149.794833
 30
0.0
  0
VERTEX
  8
1
  6
CONTINUOUS
 62
     7
  5
2A0
 10
218.987667
 20
-146.33075
 30
0.0
  0
SEQEND
  8
1
  6
CONTINUOUS
 62
     7
  5
2A1
  0
TEXT
  8
1
  6
CONTINUOUS
 62
     7
  5
2A2
 10
218.445917
 20
-149.370417
 30
0.0
 40
1.5
  1
4
  7
MONOTXT
210
0.0
220
0.0
230
1.0
  0
TEXT
  8
1
  6
CONTINUOUS
 62
     7
  5
2A3
 10
222.495583
 20
-148.60475
 30
0.0
 40
1.5
  1
SUBSTITUTED W3-1A FOR W3-1, ADDED NOTE TO SEE CONTRACT PLANS
  7
MONOTXT
210
0.0
220
0.0
230
1.0
  0
POLYLINE
  8
1
  6
CONTINUOUS
 62
     7
  5
2A4
 66
     1
 10
0.0
 20
0.0
 30
0.0
  0
VERTEX
  8
1
  6
CONTINUOUS
 62
     7
  5
2A5
 10
219.096667
 20
-150.91575
 30
0.0
  0
VERTEX
  8
1
  6
CONTINUOUS
 62
     7
  5
2A6
 10
217.096667
 20
-154.379833
 30
0.0
  0
VERTEX
  8
1
  6
CONTINUOUS
 62
     7
  5
2A7
 10
221.096667
 20
-154.379833
 30
0.0
  0
VERTEX
  8
1
  6
CONTINUOUS
 62
     7
  5
2A8
 10
219.096667
 20
-150.91575
 30
0.0
  0
SEQEND
  8
1
  6
CONTINUOUS
 62
     7
  5
2A9
  0
TEXT
  8
1
  6
CONTINUOUS
 62
     7
  5
2AA
 10
218.62
 20
-153.879
 30
0.0
 40
1.5
  1
5
  7
MONOTXT
210
0.0
220
0.0
230
1.0
  0
TEXT
  8
1
  6
CONTINUOUS
 62
     7
  5
2AB
 10
222.79725
 20
-153.049583
 30
0.0
 40
1.5
  1
CORRECTED B DIST. AND W3-1A
  7
MONOTXT
210
0.0
220
0.0
230
1.0
  0
POLYLINE
  8
1
  6
CONTINUOUS
 62
     7
  5
2AC
 66
     1
 10
0.0
 20
0.0
 30
0.0
  0
VERTEX
  8
1
  6
CONTINUOUS
 62
     7
  5
2AD
 10
222.747917
 20
-226.400083
 30
0.0
  0
VERTEX
  8
1
  6
CONTINUOUS
 62
     7
  5
2AE
 10
220.747917
 20
-229.864167
 30
0.0
  0
VERTEX
  8
1
  6
CONTINUOUS
 62
     7
  5
2AF
 10
224.747917
 20
-229.864167
 30
0.0
  0
VERTEX
  8
1
  6
CONTINUOUS
 62
     7
  5
2B0
 10
222.747917
 20
-226.400083
 30
0.0
  0
SEQEND
  8
1
  6
CONTINUOUS
 62
     7
  5
2B1
  0
TEXT
  8
1
  6
CONTINUOUS
 62
     7
  5
2B2
 10
222.27125
 20
-229.363333
 30
0.0
 40
1.5
  1
5
  7
MONOTXT
210
0.0
220
0.0
230
1.0
  0
POLYLINE
  8
1
  6
CONTINUOUS
 62
     7
  5
2B3
 66
     1
 10
0.0
 20
0.0
 30
0.0
  0
VERTEX
  8
1
  6
CONTINUOUS
 62
     7
  5
2B4
 10
259.627167
 20
-69.49225
 30
0.0
  0
VERTEX
  8
1
  6
CONTINUOUS
 62
     7
  5
2B5
 10
257.627167
 20
-72.956333
 30
0.0
  0
VERTEX
  8
1
  6
CONTINUOUS
 62
     7
  5
2B6
 10
261.627167
 20
-72.956333
 30
0.0
  0
VERTEX
  8
1
  6
CONTINUOUS
 62
     7
  5
2B7
 10
259.627167
 20
-69.49225
 30
0.0
  0
SEQEND
  8
1
  6
CONTINUOUS
 62
     7
  5
2B8
  0
TEXT
  8
1
  6
CONTINUOUS
 62
     7
  5
2B9
 10
259.1505
 20
-72.4555
 30
0.0
 40
1.5
  1
5
  7
MONOTXT
210
0.0
220
0.0
230
1.0
  0
POLYLINE
  8
1
  6
CONTINUOUS
 62
     7
  5
2BA
 66
     1
 10
0.0
 20
0.0
 30
0.0
  0
VERTEX
  8
1
  6
CONTINUOUS
 62
     7
  5
2BB
 10
28.2295
 20
-177.519
 30
0.0
  0
VERTEX
  8
1
  6
CONTINUOUS
 62
     7
  5
2BC
 10
26.2295
 20
-180.983083
 30
0.0
  0
VERTEX
  8
1
  6
CONTINUOUS
 62
     7
  5
2BD
 10
30.2295
 20
-180.983083
 30
0.0
  0
VERTEX
  8
1
  6
CONTINUOUS
 62
     7
  5
2BE
 10
28.2295
 20
-177.519
 30
0.0
  0
SEQEND
  8
1
  6
CONTINUOUS
 62
     7
  5
2BF
  0
TEXT
  8
1
  6
CONTINUOUS
 62
     7
  5
2C0
 10
27.752833
 20
-180.48225
 30
0.0
 40
1.5
  1
5
  7
MONOTXT
210
0.0
220
0.0
230
1.0
  0
TEXT
  8
1
  6
CONTINUOUS
 62
     7
  5
2C1
 10
35.859
 20
-180.63275
 30
0.0
 40
2.5
  1
W3-1A
  7
MONOTXT
 72
     4
 11
41.3905
 21
-179.38275
 31
0.0
210
0.0
220
0.0
230
1.0
  0
ENDSEC
  0
EOF
