  0
SECTION
  2
HEADER
  9
$ACADVER
  1
AC1009
  9
$INSBASE
 10
0.0
 20
0.0
 30
0.0
  9
$EXTMIN
 10
-0.011917
 20
-222.56675
 30
0.0
  9
$EXTMAX
 10
711.187917
 20
200.57325
 30
0.0
  9
$LIMMIN
 10
0.0
 20
0.0
  9
$LIMMAX
 10
12.0
 20
9.0
  9
$ORTHOMODE
 70
     0
  9
$REGENMODE
 70
     1
  9
$FILLMODE
 70
     1
  9
$QTEXTMODE
 70
     0
  9
$MIRRTEXT
 70
     1
  9
$DRAGMODE
 70
     2
  9
$LTSCALE
 40
1.0
  9
$OSMODE
 70
     0
  9
$ATTMODE
 70
     1
  9
$TEXTSIZE
 40
0.2
  9
$TRACEWID
 40
0.05
  9
$TEXTSTYLE
  7
STANDARD
  9
$CLAYER
  8
0
  9
$CELTYPE
  6
CONTINUOUS
  9
$CECOLOR
 62
   256
  9
$DIMSCALE
 40
1.0
  9
$DIMASZ
 40
0.18
  9
$DIMEXO
 40
0.0625
  9
$DIMDLI
 40
0.38
  9
$DIMRND
 40
0.0
  9
$DIMDLE
 40
0.0
  9
$DIMEXE
 40
0.18
  9
$DIMTP
 40
0.0
  9
$DIMTM
 40
0.0
  9
$DIMTXT
 40
0.18
  9
$DIMCEN
 40
0.09
  9
$DIMTSZ
 40
0.0
  9
$DIMTOL
 70
     0
  9
$DIMLIM
 70
     0
  9
$DIMTIH
 70
     1
  9
$DIMTOH
 70
     1
  9
$DIMSE1
 70
     0
  9
$DIMSE2
 70
     0
  9
$DIMTAD
 70
     0
  9
$DIMZIN
 70
     0
  9
$DIMBLK
  1

  9
$DIMASO
 70
     1
  9
$DIMSHO
 70
     1
  9
$DIMPOST
  1

  9
$DIMAPOST
  1

  9
$DIMALT
 70
     0
  9
$DIMALTD
 70
     2
  9
$DIMALTF
 40
25.4
  9
$DIMLFAC
 40
1.0
  9
$DIMTOFL
 70
     0
  9
$DIMTVP
 40
0.0
  9
$DIMTIX
 70
     0
  9
$DIMSOXD
 70
     0
  9
$DIMSAH
 70
     0
  9
$DIMBLK1
  1

  9
$DIMBLK2
  1

  9
$DIMSTYLE
  2
STANDARD
  9
$DIMCLRD
 70
     0
  9
$DIMCLRE
 70
     0
  9
$DIMCLRT
 70
     0
  9
$DIMTFAC
 40
1.0
  9
$DIMGAP
 40
0.09
  9
$LUNITS
 70
     2
  9
$LUPREC
 70
     4
  9
$AXISMODE
 70
     0
  9
$AXISUNIT
 10
0.0
 20
0.0
  9
$SKETCHINC
 40
0.1
  9
$FILLETRAD
 40
0.0
  9
$AUNITS
 70
     0
  9
$AUPREC
 70
     0
  9
$MENU
  1
acad
  9
$ELEVATION
 40
0.0
  9
$PELEVATION
 40
0.0
  9
$THICKNESS
 40
0.0
  9
$LIMCHECK
 70
     0
  9
$BLIPMODE
 70
     1
  9
$CHAMFERA
 40
0.0
  9
$CHAMFERB
 40
0.0
  9
$SKPOLY
 70
     0
  9
$TDCREATE
 40
2451803.392881944
  9
$TDUPDATE
 40
2451803.392881944
  9
$TDINDWG
 40
0.0000000000
  9
$TDUSRTIMER
 40
0.0000000000
  9
$USRTIMER
 70
     1
  9
$ANGBASE
 50
0.0
  9
$ANGDIR
 70
     0
  9
$PDMODE
 70
     0
  9
$PDSIZE
 40
0.0
  9
$PLINEWID
 40
0.0
  9
$COORDS
 70
     0
  9
$SPLFRAME
 70
     0
  9
$SPLINETYPE
 70
     6
  9
$SPLINESEGS
 70
    10
  9
$ATTDIA
 70
     0
  9
$ATTREQ
 70
     1
  9
$HANDLING
 70
     1
  9
$HANDSEED
  5
89C
  9
$SURFTAB1
 70
     6
  9
$SURFTAB2
 70
     6
  9
$SURFTYPE
 70
     6
  9
$SURFU
 70
     6
  9
$SURFV
 70
     6
  9
$UCSNAME
  2

  9
$UCSORG
 10
0.0
 20
0.0
 30
0.0
  9
$UCSXDIR
 10
1.0
 20
0.0
 30
0.0
  9
$UCSYDIR
 10
0.0
 20
1.0
 30
0.0
  9
$PUCSNAME
  2

  9
$PUCSORG
 10
0.0
 20
0.0
 30
0.0
  9
$PUCSXDIR
 10
1.0
 20
0.0
 30
0.0
  9
$PUCSYDIR
 10
0.0
 20
1.0
 30
0.0
  9
$USERI1
 70
     0
  9
$USERI2
 70
     0
  9
$USERI3
 70
     0
  9
$USERI4
 70
     0
  9
$USERI5
 70
     0
  9
$USERR1
 40
0.0
  9
$USERR2
 40
0.0
  9
$USERR3
 40
0.0
  9
$USERR4
 40
0.0
  9
$USERR5
 40
0.0
  9
$WORLDVIEW
 70
     1
  9
$SHADEDGE
 70
     3
  9
$SHADEDIF
 70
    70
  9
$TILEMODE
 70
     1
  9
$MAXACTVP
 70
    16
  9
$PINSBASE
 10
0.0
 20
0.0
 30
0.0
  9
$PLIMCHECK
 70
     0
  9
$PEXTMIN
 10
-1.000000E+20
 20
-1.000000E+20
 30
-1.000000E+20
  9
$PEXTMAX
 10
-1.000000E+20
 20
-1.000000E+20
 30
-1.000000E+20
  9
$PLIMMIN
 10
0.0
 20
0.0
  9
$PLIMMAX
 10
12.0
 20
9.0
  9
$UNITMODE
 70
     0
  9
$VISRETAIN
 70
     0
  9
$PLINEGEN
 70
     1
  9
$PSLTSCALE
 70
     0
  9
$TREEDEPTH
 70
  3020
  9
$DWGCODEPAGE
  3
ansi_1252
  0
ENDSEC
  0
SECTION
  2
TABLES
  0
TABLE
  2
VPORT
 70
     1
  0
VPORT
  2
*ACTIVE
 70
     0
 10
0.0
 20
0.0
 11
1.0
 21
1.0
 12
0.0
 22
0.0
 13
0.0
 23
0.0
 14
0.0
 24
0.0
 15
0.0
 25
0.0
 16
0.0
 26
0.0
 36
1.0
 17
336.154967
 27
-9.44675
 37
0.0
 40
451.041
 41
1.795122
 42
50.0
 43
0.0
 44
0.0
 50
0.0
 51
0.0
 71
     0
 72
   100
 73
     1
 74
     0
 75
     0
 76
     0
 77
     0
 78
     0
  0
ENDTAB
  0
TABLE
  2
LTYPE
 70
     7
  0
LTYPE
  2
CONTINUOUS
 70
     0
  3
Solid line
 72
    65
 73
     0
 40
0.0
  0
LTYPE
  2
DOT
 70
    64
  3
. . . . . . . . . . . . . . . . . . . . . . . . . . . . . . . . .
 72
    65
 73
     2
 40
0.25
 49
0.0
 49
-0.25
  0
LTYPE
  2
HIDDEN
 70
    64
  3
__ __ __ __ __ __ __ __ __ __ __ __ __ __ __ __ __ __ __ __ __ 
 72
    65
 73
     2
 40
0.375
 49
0.25
 49
-0.125
  0
LTYPE
  2
DASHED
 70
    64
  3
__ __ __ __ __ __ __ __ __ __ __ __ __ __ __ __ __ __ __ __ __
 72
    65
 73
     2
 40
0.75
 49
0.5
 49
-0.25
  0
LTYPE
  2
DASHDOT
 70
    64
  3
__ . __ . __ . __ . __ . __ . __ . __ . __ . __ . __ . __ . _
 72
    65
 73
     4
 40
1.0
 49
0.5
 49
-0.25
 49
0.0
 49
-0.25
  0
LTYPE
  2
DIVIDE
 70
    64
  3
____ . . ____ . . ____ . . ____ . . ____ . . ____ . . ____ . .
 72
    65
 73
     6
 40
1.25
 49
0.5
 49
-0.25
 49
0.0
 49
-0.25
 49
0.0
 49
-0.25
  0
LTYPE
  2
CENTER
 70
    64
  3
____ _ ____ _ ____ _ ____ _ ____ _ ____ _ ____ _ ____ _ ____ _
 72
    65
 73
     4
 40
2.0
 49
1.25
 49
-0.25
 49
0.25
 49
-0.25
  0
ENDTAB
  0
TABLE
  2
LAYER
 70
     5
  0
LAYER
  2
0
 70
     0
 62
     7
  6
CONTINUOUS
  0
LAYER
  2
CONSTRUCTION_CLASS
 70
     0
 62
     7
  6
CONTINUOUS
  0
LAYER
  2
PATTERN_CLASS
 70
     0
 62
     7
  6
CONTINUOUS
  0
LAYER
  2
1
 70
    64
 62
     7
  6
CONTINUOUS
  0
LAYER
  2
61
 70
    64
 62
     7
  6
CONTINUOUS
  0
ENDTAB
  0
TABLE
  2
STYLE
 70
     4
  0
STYLE
  2
STANDARD
 70
     0
 40
0.0
 41
1.0
 50
0.0
 71
     0
 42
0.0
  3
txt
  4

  0
STYLE
  2
MONOTXT
 70
     0
 40
0.2
 41
1.0
 50
0.0
 71
     0
 42
0.2
  3
MONOTXT
  4

  0
STYLE
  2
txt
 70
     0
 40
0.2
 41
1.0
 50
0.0
 71
     0
 42
0.2
  3
TXT
  4

  0
STYLE
  2
ROMANT
 70
     0
 40
0.2
 41
1.0
 50
0.0
 71
     0
 42
0.2
  3
ROMANT
  4

  0
ENDTAB
  0
TABLE
  2
VIEW
 70
     0
  0
ENDTAB
  0
TABLE
  2
UCS
 70
     0
  0
ENDTAB
  0
TABLE
  2
APPID
 70
     1
  0
APPID
  2
ACAD
 70
     0
  0
ENDTAB
  0
TABLE
  2
DIMSTYLE
 70
     1
  0
DIMSTYLE
  2
STANDARD
 70
     0
  3

  4

  5

  6

  7

 40
1.0
 41
0.18
 42
0.0625
 43
0.38
 44
0.18
 45
0.0
 46
0.0
 47
0.0
 48
0.0
140
0.18
141
0.09
142
0.0
143
25.4
144
1.0
145
0.0
146
1.0
147
0.09
 71
     0
 72
     0
 73
     1
 74
     1
 75
     0
 76
     0
 77
     0
 78
     0
170
     0
171
     2
172
     0
173
     0
174
     0
175
     0
176
     0
177
     0
178
     0
  0
ENDTAB
  0
ENDSEC
  0
SECTION
  2
BLOCKS
  0
BLOCK
  8
1
  6
CONTINUOUS
 62
     1
  5
6F
  2
LDR
 70
     0
 10
0.0
 20
0.0
 30
0.0
  3
LNR
  0
POLYLINE
  8
1
  6
CONTINUOUS
 62
     1
  5
70
 66
     1
 10
0.0
 20
0.0
 30
0.0
210
0.0
220
0.0
230
1.0
  0
VERTEX
  8
1
  6
CONTINUOUS
 62
     1
  5
71
 10
-0.011987
 20
-0.001802
 30
0.0
 42
-0.265147
  0
VERTEX
  8
1
  6
CONTINUOUS
 62
     1
  5
72
 10
-0.011849
 20
-0.001604
 30
0.0
 42
-0.064653
  0
VERTEX
  8
1
  6
CONTINUOUS
 62
     1
  5
73
 10
-0.011407
 20
-0.001387
 30
0.0
 42
-0.025822
  0
VERTEX
  8
1
  6
CONTINUOUS
 62
     1
  5
74
 10
-0.010681
 20
-0.00116
 30
0.0
 42
-0.014504
  0
VERTEX
  8
1
  6
CONTINUOUS
 62
     1
  5
75
 10
-0.0097
 20
-0.000933
 30
0.0
 42
-0.009896
  0
VERTEX
  8
1
  6
CONTINUOUS
 62
     1
  5
76
 10
-0.008505
 20
-0.000715
 30
0.0
 42
-0.007708
  0
VERTEX
  8
1
  6
CONTINUOUS
 62
     1
  5
77
 10
-0.007146
 20
-0.000515
 30
0.0
 42
-0.006655
  0
VERTEX
  8
1
  6
CONTINUOUS
 62
     1
  5
78
 10
-0.005679
 20
-0.000342
 30
0.0
 42
-0.006278
  0
VERTEX
  8
1
  6
CONTINUOUS
 62
     1
  5
79
 10
-0.004164
 20
-0.000202
 30
0.0
 42
-0.006439
  0
VERTEX
  8
1
  6
CONTINUOUS
 62
     1
  5
7A
 10
-0.002666
 20
-0.000101
 30
0.0
 42
-0.007196
  0
VERTEX
  8
1
  6
CONTINUOUS
 62
     1
  5
7B
 10
-0.001246
 20
-0.000044
 30
0.0
 42
-0.008852
  0
VERTEX
  8
1
  6
CONTINUOUS
 62
     1
  5
7C
 10
0.000037
 20
-0.000034
 30
0.0
 42
-0.008852
  0
SEQEND
  8
1
  6
CONTINUOUS
 62
     1
  5
7D
  0
POLYLINE
  8
1
  6
CONTINUOUS
 62
     1
  5
7E
 66
     1
 10
0.0
 20
0.0
 30
0.0
210
0.0
220
0.0
230
1.0
  0
VERTEX
  8
1
  6
CONTINUOUS
 62
     1
  5
7F
 10
0.000039
 20
0.000014
 30
0.0
 42
-0.005019
  0
VERTEX
  8
1
  6
CONTINUOUS
 62
     1
  5
80
 10
-0.001103
 20
0.000071
 30
0.0
 42
-0.004038
  0
VERTEX
  8
1
  6
CONTINUOUS
 62
     1
  5
81
 10
-0.002373
 20
0.000158
 30
0.0
 42
-0.003548
  0
VERTEX
  8
1
  6
CONTINUOUS
 62
     1
  5
82
 10
-0.003725
 20
0.00027
 30
0.0
 42
-0.003367
  0
VERTEX
  8
1
  6
CONTINUOUS
 62
     1
  5
83
 10
-0.005111
 20
0.000405
 30
0.0
 42
-0.003436
  0
VERTEX
  8
1
  6
CONTINUOUS
 62
     1
  5
84
 10
-0.006481
 20
0.000556
 30
0.0
 42
-0.003778
  0
VERTEX
  8
1
  6
CONTINUOUS
 62
     1
  5
85
 10
-0.007786
 20
0.00072
 30
0.0
 42
-0.00451
  0
VERTEX
  8
1
  6
CONTINUOUS
 62
     1
  5
86
 10
-0.008979
 20
0.000889
 30
0.0
 42
-0.00594
  0
VERTEX
  8
1
  6
CONTINUOUS
 62
     1
  5
87
 10
-0.010018
 20
0.001058
 30
0.0
 42
-0.008921
  0
VERTEX
  8
1
  6
CONTINUOUS
 62
     1
  5
88
 10
-0.010864
 20
0.00122
 30
0.0
 42
-0.016392
  0
VERTEX
  8
1
  6
CONTINUOUS
 62
     1
  5
89
 10
-0.011488
 20
0.001371
 30
0.0
 42
-0.04458
  0
VERTEX
  8
1
  6
CONTINUOUS
 62
     1
  5
8A
 10
-0.011867
 20
0.001503
 30
0.0
 42
-0.317392
  0
VERTEX
  8
1
  6
CONTINUOUS
 62
     1
  5
8B
 10
-0.011987
 20
0.001614
 30
0.0
 42
-0.317392
  0
SEQEND
  8
1
  6
CONTINUOUS
 62
     1
  5
8C
  0
ENDBLK
  8
1
  6
CONTINUOUS
 62
     1
  5
8D
  0
ENDSEC
  0
SECTION
  2
ENTITIES
  0
LINE
  8
1
  6
CONTINUOUS
 62
     1
  5
29
 10
77.987917
 20
191.926333
 30
0.0
 11
191.287917
 21
191.926333
 31
0.0
  0
LINE
  8
1
  6
CONTINUOUS
 62
     1
  5
2A
 10
77.987917
 20
191.926333
 30
0.0
 11
77.987917
 21
150.661333
 31
0.0
  0
LINE
  8
1
  6
CONTINUOUS
 62
     1
  5
2B
 10
77.987917
 20
184.749667
 30
0.0
 11
190.83125
 21
184.749667
 31
0.0
  0
LINE
  8
1
  6
CONTINUOUS
 62
     1
  5
2C
 10
77.987917
 20
171.144667
 30
0.0
 11
190.83125
 21
171.144667
 31
0.0
  0
LINE
  8
1
  6
CONTINUOUS
 62
     1
  5
2D
 10
77.987917
 20
157.688
 30
0.0
 11
190.83125
 21
157.688
 31
0.0
  0
LINE
  8
1
  6
CONTINUOUS
 62
     1
  5
2E
 10
77.987917
 20
150.511333
 30
0.0
 11
191.287917
 21
150.511333
 31
0.0
  0
LINE
  8
1
  6
CONTINUOUS
 62
     1
  5
2F
 10
101.30625
 20
191.926333
 30
0.0
 11
101.30625
 21
150.661333
 31
0.0
  0
LINE
  8
1
  6
CONTINUOUS
 62
     1
  5
30
 10
191.287917
 20
191.926333
 30
0.0
 11
191.287917
 21
150.511333
 31
0.0
  0
POLYLINE
  8
1
  6
CONTINUOUS
 62
     1
  5
31
 66
     1
 10
0.0
 20
0.0
 30
0.0
 70
     1
  0
VERTEX
  8
1
  6
CONTINUOUS
 62
     1
  5
32
 10
99.044
 20
105.34875
 30
0.0
  0
VERTEX
  8
1
  6
CONTINUOUS
 62
     1
  5
33
 10
109.887333
 20
105.34875
 30
0.0
  0
VERTEX
  8
1
  6
CONTINUOUS
 62
     1
  5
34
 10
109.887333
 20
99.737083
 30
0.0
  0
VERTEX
  8
1
  6
CONTINUOUS
 62
     1
  5
35
 10
99.044
 20
99.737083
 30
0.0
  0
SEQEND
  8
1
  6
CONTINUOUS
 62
     1
  5
36
  0
POLYLINE
  8
1
  6
CONTINUOUS
 62
     1
  5
37
 66
     1
 10
0.0
 20
0.0
 30
0.0
 70
     1
  0
VERTEX
  8
1
  6
CONTINUOUS
 62
     1
  5
38
 10
99.172333
 20
98.665417
 30
0.0
  0
VERTEX
  8
1
  6
CONTINUOUS
 62
     1
  5
39
 10
110.204
 20
98.665417
 30
0.0
  0
VERTEX
  8
1
  6
CONTINUOUS
 62
     1
  5
3A
 10
110.204
 20
87.50375
 30
0.0
  0
VERTEX
  8
1
  6
CONTINUOUS
 62
     1
  5
3B
 10
99.172333
 20
87.50375
 30
0.0
  0
SEQEND
  8
1
  6
CONTINUOUS
 62
     1
  5
3C
  0
POLYLINE
  8
1
  6
CONTINUOUS
 62
     1
  5
3D
 66
     1
 10
0.0
 20
0.0
 30
0.0
 70
     1
  0
VERTEX
  8
1
  6
CONTINUOUS
 62
     1
  5
3E
 10
100.305667
 20
86.305417
 30
0.0
  0
VERTEX
  8
1
  6
CONTINUOUS
 62
     1
  5
3F
 10
109.069
 20
86.305417
 30
0.0
  0
VERTEX
  8
1
  6
CONTINUOUS
 62
     1
  5
40
 10
109.069
 20
81.63875
 30
0.0
  0
VERTEX
  8
1
  6
CONTINUOUS
 62
     1
  5
41
 10
100.305667
 20
81.63875
 30
0.0
  0
SEQEND
  8
1
  6
CONTINUOUS
 62
     1
  5
42
  0
LINE
  8
1
  6
CONTINUOUS
 62
     1
  5
43
 10
103.387333
 20
99.737083
 30
0.0
 11
103.387333
 21
98.665417
 31
0.0
  0
LINE
  8
1
  6
CONTINUOUS
 62
     1
  5
44
 10
105.477333
 20
99.737083
 30
0.0
 11
105.477333
 21
98.665417
 31
0.0
  0
LINE
  8
1
  6
CONTINUOUS
 62
     1
  5
45
 10
103.584
 20
87.50375
 30
0.0
 11
103.584
 21
86.305417
 31
0.0
  0
LINE
  8
1
  6
CONTINUOUS
 62
     1
  5
46
 10
105.620667
 20
87.50375
 30
0.0
 11
105.620667
 21
86.305417
 31
0.0
  0
POLYLINE
  8
1
  6
CONTINUOUS
 62
     1
  5
47
 66
     1
 10
0.0
 20
0.0
 30
0.0
 70
     1
  0
VERTEX
  8
1
  6
CONTINUOUS
 62
     1
  5
48
 10
113.629
 20
105.34875
 30
0.0
  0
VERTEX
  8
1
  6
CONTINUOUS
 62
     1
  5
49
 10
124.472333
 20
105.34875
 30
0.0
  0
VERTEX
  8
1
  6
CONTINUOUS
 62
     1
  5
4A
 10
124.472333
 20
99.737083
 30
0.0
  0
VERTEX
  8
1
  6
CONTINUOUS
 62
     1
  5
4B
 10
113.629
 20
99.737083
 30
0.0
  0
SEQEND
  8
1
  6
CONTINUOUS
 62
     1
  5
4C
  0
POLYLINE
  8
1
  6
CONTINUOUS
 62
     1
  5
4D
 66
     1
 10
0.0
 20
0.0
 30
0.0
 70
     1
  0
VERTEX
  8
1
  6
CONTINUOUS
 62
     1
  5
4E
 10
113.757333
 20
98.665417
 30
0.0
  0
VERTEX
  8
1
  6
CONTINUOUS
 62
     1
  5
4F
 10
124.789
 20
98.665417
 30
0.0
  0
VERTEX
  8
1
  6
CONTINUOUS
 62
     1
  5
50
 10
124.789
 20
87.50375
 30
0.0
  0
VERTEX
  8
1
  6
CONTINUOUS
 62
     1
  5
51
 10
113.757333
 20
87.50375
 30
0.0
  0
SEQEND
  8
1
  6
CONTINUOUS
 62
     1
  5
52
  0
POLYLINE
  8
1
  6
CONTINUOUS
 62
     1
  5
53
 66
     1
 10
0.0
 20
0.0
 30
0.0
 70
     1
  0
VERTEX
  8
1
  6
CONTINUOUS
 62
     1
  5
54
 10
114.890667
 20
86.305417
 30
0.0
  0
VERTEX
  8
1
  6
CONTINUOUS
 62
     1
  5
55
 10
123.654
 20
86.305417
 30
0.0
  0
VERTEX
  8
1
  6
CONTINUOUS
 62
     1
  5
56
 10
123.654
 20
81.63875
 30
0.0
  0
VERTEX
  8
1
  6
CONTINUOUS
 62
     1
  5
57
 10
114.890667
 20
81.63875
 30
0.0
  0
SEQEND
  8
1
  6
CONTINUOUS
 62
     1
  5
58
  0
LINE
  8
1
  6
CONTINUOUS
 62
     1
  5
59
 10
117.972333
 20
99.737083
 30
0.0
 11
117.972333
 21
98.665417
 31
0.0
  0
LINE
  8
1
  6
CONTINUOUS
 62
     1
  5
5A
 10
120.062333
 20
99.737083
 30
0.0
 11
120.062333
 21
98.665417
 31
0.0
  0
LINE
  8
1
  6
CONTINUOUS
 62
     1
  5
5B
 10
118.169
 20
87.50375
 30
0.0
 11
118.169
 21
86.305417
 31
0.0
  0
LINE
  8
1
  6
CONTINUOUS
 62
     1
  5
5C
 10
120.205667
 20
87.50375
 30
0.0
 11
120.205667
 21
86.305417
 31
0.0
  0
LINE
  8
1
  6
CONTINUOUS
 62
     1
  5
5D
 10
105.639
 20
77.795417
 30
0.0
 11
118.114
 21
77.795417
 31
0.0
  0
LINE
  8
1
  6
CONTINUOUS
 62
     1
  5
5E
 10
103.469
 20
75.50875
 30
0.0
 11
103.469
 21
81.63875
 31
0.0
  0
LINE
  8
1
  6
CONTINUOUS
 62
     1
  5
5F
 10
105.639
 20
77.795417
 30
0.0
 11
105.639
 21
81.63875
 31
0.0
  0
LINE
  8
1
  6
CONTINUOUS
 62
     1
  5
60
 10
118.114
 20
77.795417
 30
0.0
 11
118.114
 21
81.63875
 31
0.0
  0
LINE
  8
1
  6
CONTINUOUS
 62
     1
  5
61
 10
120.082333
 20
75.50875
 30
0.0
 11
120.082333
 21
81.63875
 31
0.0
  0
LINE
  8
1
  6
CONTINUOUS
 62
     1
  5
62
 10
113.529
 20
58.08875
 30
0.0
 11
113.529
 21
75.50875
 31
0.0
  0
LINE
  8
1
  6
CONTINUOUS
 62
     1
  5
63
 10
103.469
 20
75.50875
 30
0.0
 11
110.800667
 21
75.50875
 31
0.0
  0
LINE
  8
1
  6
CONTINUOUS
 62
     1
  5
64
 10
113.529
 20
75.50875
 30
0.0
 11
120.060667
 21
75.50875
 31
0.0
  0
LINE
  8
1
  6
CONTINUOUS
 62
     1
  5
65
 10
110.800667
 20
58.08875
 30
0.0
 11
110.800667
 21
75.50875
 31
0.0
  0
ARC
  8
1
  6
CONTINUOUS
 62
     1
  5
66
 10
112.164833
 20
74.356917
 30
0.0
 40
1.785405
 50
40.176056
 51
139.823944
210
0.0
220
0.0
230
1.0
  0
ARC
  8
1
  6
CONTINUOUS
 62
     1
  5
67
 10
112.847333
 20
58.572
 30
0.0
 40
0.835583
 50
215.333731
 51
324.666272
210
0.0
220
0.0
230
1.0
  0
ARC
  8
1
  6
CONTINUOUS
 62
     1
  5
68
 10
111.484
 20
58.454423
 30
0.0
 40
0.773554
 50
208.210861
 51
331.789142
210
0.0
220
0.0
230
1.0
  0
ARC
  8
1
  6
CONTINUOUS
 62
     1
  5
69
 10
111.484
 20
57.625243
 30
0.0
 40
0.824323
 50
34.214186
 51
145.785814
210
0.0
220
0.0
230
1.0
  0
LINE
  8
1
  6
CONTINUOUS
 62
     1
  5
6A
 10
113.629
 20
107.34875
 30
0.0
 11
113.629
 21
113.662083
 31
0.0
  0
LINE
  8
1
  6
CONTINUOUS
 62
     1
  5
6B
 10
109.887333
 20
107.34875
 30
0.0
 11
109.887333
 21
113.662083
 31
0.0
  0
LINE
  8
1
  6
CONTINUOUS
 62
     1
  5
6C
 10
109.925667
 20
111.015417
 30
0.0
 11
105.759
 21
111.015417
 31
0.0
  0
LINE
  8
1
  6
CONTINUOUS
 62
     1
  5
6D
 10
113.629
 20
111.015417
 30
0.0
 11
117.612333
 21
111.015417
 31
0.0
  0
INSERT
  8
1
  6
CONTINUOUS
 62
     1
  5
8E
  2
LDR
 10
109.925667
 20
111.015417
 30
0.0
 41
200.0
 42
200.0
210
0.0
220
0.0
230
1.0
  0
INSERT
  8
1
  6
CONTINUOUS
 62
     1
  5
8F
  2
LDR
 10
113.629
 20
111.015417
 30
0.0
 41
200.0
 42
200.0
 50
180.0
210
0.0
220
0.0
230
1.0
  0
LINE
  8
1
  6
CONTINUOUS
 62
     1
  5
90
 10
98.305667
 20
81.63875
 30
0.0
 11
93.230667
 21
81.63875
 31
0.0
  0
LINE
  8
1
  6
CONTINUOUS
 62
     1
  5
91
 10
105.469
 20
76.69875
 30
0.0
 11
93.230667
 21
76.69875
 31
0.0
  0
LINE
  8
1
  6
CONTINUOUS
 62
     1
  5
92
 10
95.230667
 20
81.665417
 30
0.0
 11
95.230667
 21
86.24875
 31
0.0
  0
LINE
  8
1
  6
CONTINUOUS
 62
     1
  5
93
 10
95.230667
 20
72.115417
 30
0.0
 11
95.230667
 21
76.69875
 31
0.0
  0
INSERT
  8
1
  6
CONTINUOUS
 62
     1
  5
94
  2
LDR
 10
95.230667
 20
81.665417
 30
0.0
 41
200.0
 42
200.0
 50
270.0
210
0.0
220
0.0
230
1.0
  0
INSERT
  8
1
  6
CONTINUOUS
 62
     1
  5
95
  2
LDR
 10
95.230667
 20
81.665417
 30
0.0
 41
200.0
 42
200.0
 50
270.0
210
0.0
220
0.0
230
1.0
  0
INSERT
  8
1
  6
CONTINUOUS
 62
     1
  5
96
  2
LDR
 10
95.230667
 20
76.69875
 30
0.0
 41
200.0
 42
200.0
 50
90.0
210
0.0
220
0.0
230
1.0
  0
LINE
  8
1
  6
CONTINUOUS
 62
     1
  5
97
 10
120.082333
 20
78.777083
 30
0.0
 11
126.495667
 21
79.97375
 31
0.0
  0
LINE
  8
1
  6
CONTINUOUS
 62
     1
  5
98
 10
126.495667
 20
79.97375
 30
0.0
 11
125.840667
 21
78.66375
 31
0.0
  0
LINE
  8
1
  6
CONTINUOUS
 62
     1
  5
99
 10
125.840667
 20
78.66375
 30
0.0
 11
131.079
 21
80.57375
 31
0.0
  0
LINE
  8
1
  6
CONTINUOUS
 62
     1
  5
9A
 10
123.099
 20
79.340417
 30
0.0
 11
119.239
 21
72.22375
 31
0.0
  0
LINE
  8
1
  6
CONTINUOUS
 62
     1
  5
9B
 10
119.239
 20
72.22375
 30
0.0
 11
116.734
 21
75.50875
 31
0.0
  0
INSERT
  8
1
  6
CONTINUOUS
 62
     1
  5
9C
  2
LDR
 10
120.082333
 20
78.777083
 30
0.0
 41
199.99997
 42
199.99997
 50
190.569308
210
0.0
220
0.0
230
1.0
  0
INSERT
  8
1
  6
CONTINUOUS
 62
     1
  5
9D
  2
LDR
 10
120.082333
 20
78.777083
 30
0.0
 41
199.99997
 42
199.99997
 50
190.569308
210
0.0
220
0.0
230
1.0
  0
INSERT
  8
1
  6
CONTINUOUS
 62
     1
  5
9E
  2
LDR
 10
116.734
 20
75.50875
 30
0.0
 41
200.00001
 42
200.00001
 50
127.327574
210
0.0
220
0.0
230
1.0
  0
LINE
  8
1
  6
CONTINUOUS
 62
     1
  5
9F
 10
122.082333
 20
75.717083
 30
0.0
 11
134.080667
 21
75.717083
 31
0.0
  0
LINE
  8
1
  6
CONTINUOUS
 62
     1
  5
A0
 10
87.264
 20
26.94375
 30
0.0
 11
156.793833
 21
26.94375
 31
0.0
  0
LINE
  8
1
  6
CONTINUOUS
 62
     1
  5
A1
 10
132.080667
 20
26.94375
 30
0.0
 11
132.080667
 21
75.717083
 31
0.0
  0
ARC
  8
1
  6
CONTINUOUS
 62
     1
  5
A2
 10
112.847333
 20
51.5755
 30
0.0
 40
0.835583
 50
35.333728
 51
144.666269
210
0.0
220
0.0
230
1.0
  0
ARC
  8
1
  6
CONTINUOUS
 62
     1
  5
A3
 10
111.484
 20
51.693077
 30
0.0
 40
0.773554
 50
28.210858
 51
151.789139
210
0.0
220
0.0
230
1.0
  0
ARC
  8
1
  6
CONTINUOUS
 62
     1
  5
A4
 10
111.484
 20
52.522257
 30
0.0
 40
0.824323
 50
214.214186
 51
325.785814
210
0.0
220
0.0
230
1.0
  0
POLYLINE
  8
1
  6
CONTINUOUS
 62
     1
  5
A5
 66
     1
 10
0.0
 20
0.0
 30
0.0
 70
     1
  0
VERTEX
  8
1
  6
CONTINUOUS
 62
     1
  5
A6
 10
109.480667
 20
31.965417
 30
0.0
  0
VERTEX
  8
1
  6
CONTINUOUS
 62
     1
  5
A7
 10
114.525667
 20
31.965417
 30
0.0
  0
VERTEX
  8
1
  6
CONTINUOUS
 62
     1
  5
A8
 10
114.525667
 20
30.100417
 30
0.0
  0
VERTEX
  8
1
  6
CONTINUOUS
 62
     1
  5
A9
 10
109.480667
 20
30.100417
 30
0.0
  0
SEQEND
  8
1
  6
CONTINUOUS
 62
     1
  5
AA
  0
LINE
  8
1
  6
CONTINUOUS
 62
     1
  5
AB
 10
109.480667
 20
31.03375
 30
0.0
 11
114.525667
 21
31.03375
 31
0.0
  0
LINE
  8
1
  6
CONTINUOUS
 62
     1
  5
AC
 10
113.529
 20
52.05875
 30
0.0
 11
113.529
 21
31.965417
 31
0.0
  0
LINE
  8
1
  6
CONTINUOUS
 62
     1
  5
AD
 10
110.802333
 20
52.05875
 30
0.0
 11
110.802333
 21
31.965417
 31
0.0
  0
INSERT
  8
1
  6
CONTINUOUS
 62
     1
  5
AE
  2
LDR
 10
132.080667
 20
26.94375
 30
0.0
 41
200.0
 42
200.0
 50
270.0
210
0.0
220
0.0
230
1.0
  0
INSERT
  8
1
  6
CONTINUOUS
 62
     1
  5
AF
  2
LDR
 10
132.080667
 20
75.717083
 30
0.0
 41
200.0
 42
200.0
 50
90.0
210
0.0
220
0.0
230
1.0
  0
LINE
  8
1
  6
CONTINUOUS
 62
     1
  5
B0
 10
116.525667
 20
31.150417
 30
0.0
 11
125.384
 21
31.150417
 31
0.0
  0
LINE
  8
1
  6
CONTINUOUS
 62
     1
  5
B1
 10
115.529
 20
2.582083
 30
0.0
 11
125.384
 21
2.582083
 31
0.0
  0
LINE
  8
1
  6
HIDDEN
 62
     1
  5
B2
 10
110.802333
 20
2.582083
 30
0.0
 11
113.529
 21
2.582083
 31
0.0
  0
LINE
  8
1
  6
CONTINUOUS
 62
     1
  5
B3
 10
123.384
 20
31.150417
 30
0.0
 11
123.384
 21
2.582083
 31
0.0
  0
LINE
  8
1
  6
CONTINUOUS
 62
     1
  5
B4
 10
107.480667
 20
31.240417
 30
0.0
 11
102.624
 21
31.240417
 31
0.0
  0
LINE
  8
1
  6
CONTINUOUS
 62
     1
  5
B5
 10
104.624
 20
31.240417
 30
0.0
 11
104.624
 21
35.83375
 31
0.0
  0
LINE
  8
1
  6
CONTINUOUS
 62
     1
  5
B6
 10
104.624
 20
22.350417
 30
0.0
 11
104.624
 21
26.94375
 31
0.0
  0
INSERT
  8
1
  6
CONTINUOUS
 62
     1
  5
B7
  2
LDR
 10
104.624
 20
31.240417
 30
0.0
 41
200.0
 42
200.0
 50
270.0
210
0.0
220
0.0
230
1.0
  0
INSERT
  8
1
  6
CONTINUOUS
 62
     1
  5
B8
  2
LDR
 10
104.624
 20
31.240417
 30
0.0
 41
200.0
 42
200.0
 50
270.0
210
0.0
220
0.0
230
1.0
  0
INSERT
  8
1
  6
CONTINUOUS
 62
     1
  5
B9
  2
LDR
 10
104.624
 20
26.94375
 30
0.0
 41
200.0
 42
200.0
 50
90.0
210
0.0
220
0.0
230
1.0
  0
INSERT
  8
1
  6
CONTINUOUS
 62
     1
  5
BA
  2
LDR
 10
123.384
 20
31.150417
 30
0.0
 41
200.0
 42
200.0
 50
90.0
210
0.0
220
0.0
230
1.0
  0
INSERT
  8
1
  6
CONTINUOUS
 62
     1
  5
BB
  2
LDR
 10
123.384
 20
31.150417
 30
0.0
 41
200.0
 42
200.0
 50
90.0
210
0.0
220
0.0
230
1.0
  0
INSERT
  8
1
  6
CONTINUOUS
 62
     1
  5
BC
  2
LDR
 10
123.384
 20
2.582083
 30
0.0
 41
200.0
 42
200.0
 50
270.0
210
0.0
220
0.0
230
1.0
  0
LINE
  8
1
  6
CONTINUOUS
 62
     1
  5
BD
 10
110.800667
 20
63.55375
 30
0.0
 11
105.775667
 21
60.85875
 31
0.0
  0
LINE
  8
1
  6
CONTINUOUS
 62
     1
  5
BE
 10
105.775667
 20
60.85875
 30
0.0
 11
105.834
 21
63.87875
 31
0.0
  0
LINE
  8
1
  6
CONTINUOUS
 62
     1
  5
BF
 10
105.834
 20
63.87875
 30
0.0
 11
101.537333
 21
61.43875
 31
0.0
  0
INSERT
  8
1
  6
CONTINUOUS
 62
     1
  5
C0
  2
LDR
 10
110.800667
 20
63.55375
 30
0.0
 41
199.999947
 42
199.999947
 50
28.205478
210
0.0
220
0.0
230
1.0
  0
LINE
  8
1
  6
CONTINUOUS
 62
     1
  5
C1
 10
128.357333
 20
26.83875
 30
0.0
 11
128.357333
 21
-11.437917
 31
0.0
  0
LINE
  8
1
  6
CONTINUOUS
 62
     1
  5
C2
 10
119.720667
 20
-11.437917
 30
0.0
 11
130.357333
 21
-11.437917
 31
0.0
  0
INSERT
  8
1
  6
CONTINUOUS
 62
     1
  5
C3
  2
LDR
 10
128.357333
 20
26.83875
 30
0.0
 41
200.0
 42
200.0
 50
90.0
210
0.0
220
0.0
230
1.0
  0
INSERT
  8
1
  6
CONTINUOUS
 62
     1
  5
C4
  2
LDR
 10
128.357333
 20
26.83875
 30
0.0
 41
200.0
 42
200.0
 50
90.0
210
0.0
220
0.0
230
1.0
  0
INSERT
  8
1
  6
CONTINUOUS
 62
     1
  5
C5
  2
LDR
 10
128.357333
 20
-11.437917
 30
0.0
 41
200.0
 42
200.0
 50
270.0
210
0.0
220
0.0
230
1.0
  0
LINE
  8
1
  6
DASHED
 62
     1
  5
C6
 10
106.584
 20
-11.437917
 30
0.0
 11
117.720667
 21
-11.437917
 31
0.0
  0
LINE
  8
1
  6
DASHED
 62
     1
  5
C7
 10
106.584
 20
-11.437917
 30
0.0
 11
106.584
 21
26.94375
 31
0.0
  0
LINE
  8
1
  6
DASHED
 62
     1
  5
C8
 10
117.720667
 20
-11.437917
 30
0.0
 11
117.720667
 21
26.94375
 31
0.0
  0
LINE
  8
1
  6
CONTINUOUS
 62
     1
  5
C9
 10
106.584
 20
-13.437917
 30
0.0
 11
106.584
 21
-18.207917
 31
0.0
  0
LINE
  8
1
  6
CONTINUOUS
 62
     1
  5
CA
 10
117.720667
 20
-13.437917
 30
0.0
 11
117.720667
 21
-18.207917
 31
0.0
  0
LINE
  8
1
  6
CONTINUOUS
 62
     1
  5
CB
 10
106.584
 20
-16.207917
 30
0.0
 11
117.720667
 21
-16.207917
 31
0.0
  0
INSERT
  8
1
  6
CONTINUOUS
 62
     1
  5
CC
  2
LDR
 10
106.584
 20
-16.207917
 30
0.0
 41
200.0
 42
200.0
 50
180.0
210
0.0
220
0.0
230
1.0
  0
INSERT
  8
1
  6
CONTINUOUS
 62
     1
  5
CD
  2
LDR
 10
106.584
 20
-16.207917
 30
0.0
 41
200.0
 42
200.0
 50
180.0
210
0.0
220
0.0
230
1.0
  0
INSERT
  8
1
  6
CONTINUOUS
 62
     1
  5
CE
  2
LDR
 10
117.720667
 20
-16.207917
 30
0.0
 41
200.0
 42
200.0
210
0.0
220
0.0
230
1.0
  0
LINE
  8
1
  6
CONTINUOUS
 62
     1
  5
CF
 10
110.802333
 20
30.100417
 30
0.0
 11
110.802333
 21
26.94375
 31
0.0
  0
LINE
  8
1
  6
HIDDEN
 62
     1
  5
D0
 10
110.802333
 20
26.94375
 30
0.0
 11
110.802333
 21
2.582083
 31
0.0
  0
LINE
  8
1
  6
CONTINUOUS
 62
     1
  5
D1
 10
113.529
 20
30.100417
 30
0.0
 11
113.529
 21
26.94375
 31
0.0
  0
LINE
  8
1
  6
HIDDEN
 62
     1
  5
D2
 10
113.529
 20
26.94375
 30
0.0
 11
113.529
 21
2.582083
 31
0.0
  0
LINE
  8
1
  6
DASHED
 62
     1
  5
D3
 10
193.297333
 20
-11.437917
 30
0.0
 11
204.434
 21
-11.437917
 31
0.0
  0
POLYLINE
  8
1
  6
CONTINUOUS
 62
     1
  5
D4
 66
     1
 10
0.0
 20
0.0
 30
0.0
 70
     1
  0
VERTEX
  8
1
  6
CONTINUOUS
 62
     1
  5
D5
 10
185.757333
 20
105.34875
 30
0.0
  0
VERTEX
  8
1
  6
CONTINUOUS
 62
     1
  5
D6
 10
196.600667
 20
105.34875
 30
0.0
  0
VERTEX
  8
1
  6
CONTINUOUS
 62
     1
  5
D7
 10
196.600667
 20
99.737083
 30
0.0
  0
VERTEX
  8
1
  6
CONTINUOUS
 62
     1
  5
D8
 10
185.757333
 20
99.737083
 30
0.0
  0
SEQEND
  8
1
  6
CONTINUOUS
 62
     1
  5
D9
  0
POLYLINE
  8
1
  6
CONTINUOUS
 62
     1
  5
DA
 66
     1
 10
0.0
 20
0.0
 30
0.0
 70
     1
  0
VERTEX
  8
1
  6
CONTINUOUS
 62
     1
  5
DB
 10
185.885667
 20
98.665417
 30
0.0
  0
VERTEX
  8
1
  6
CONTINUOUS
 62
     1
  5
DC
 10
196.917333
 20
98.665417
 30
0.0
  0
VERTEX
  8
1
  6
CONTINUOUS
 62
     1
  5
DD
 10
196.917333
 20
87.50375
 30
0.0
  0
VERTEX
  8
1
  6
CONTINUOUS
 62
     1
  5
DE
 10
185.885667
 20
87.50375
 30
0.0
  0
SEQEND
  8
1
  6
CONTINUOUS
 62
     1
  5
DF
  0
POLYLINE
  8
1
  6
CONTINUOUS
 62
     1
  5
E0
 66
     1
 10
0.0
 20
0.0
 30
0.0
 70
     1
  0
VERTEX
  8
1
  6
CONTINUOUS
 62
     1
  5
E1
 10
187.019
 20
86.305417
 30
0.0
  0
VERTEX
  8
1
  6
CONTINUOUS
 62
     1
  5
E2
 10
195.782333
 20
86.305417
 30
0.0
  0
VERTEX
  8
1
  6
CONTINUOUS
 62
     1
  5
E3
 10
195.782333
 20
81.63875
 30
0.0
  0
VERTEX
  8
1
  6
CONTINUOUS
 62
     1
  5
E4
 10
187.019
 20
81.63875
 30
0.0
  0
SEQEND
  8
1
  6
CONTINUOUS
 62
     1
  5
E5
  0
LINE
  8
1
  6
CONTINUOUS
 62
     1
  5
E6
 10
190.100667
 20
99.737083
 30
0.0
 11
190.100667
 21
98.665417
 31
0.0
  0
LINE
  8
1
  6
CONTINUOUS
 62
     1
  5
E7
 10
192.190667
 20
99.737083
 30
0.0
 11
192.190667
 21
98.665417
 31
0.0
  0
LINE
  8
1
  6
CONTINUOUS
 62
     1
  5
E8
 10
190.297333
 20
87.50375
 30
0.0
 11
190.297333
 21
86.305417
 31
0.0
  0
LINE
  8
1
  6
CONTINUOUS
 62
     1
  5
E9
 10
192.334
 20
87.50375
 30
0.0
 11
192.334
 21
86.305417
 31
0.0
  0
POLYLINE
  8
1
  6
CONTINUOUS
 62
     1
  5
EA
 66
     1
 10
0.0
 20
0.0
 30
0.0
 70
     1
  0
VERTEX
  8
1
  6
CONTINUOUS
 62
     1
  5
EB
 10
200.342333
 20
105.34875
 30
0.0
  0
VERTEX
  8
1
  6
CONTINUOUS
 62
     1
  5
EC
 10
211.185667
 20
105.34875
 30
0.0
  0
VERTEX
  8
1
  6
CONTINUOUS
 62
     1
  5
ED
 10
211.185667
 20
99.737083
 30
0.0
  0
VERTEX
  8
1
  6
CONTINUOUS
 62
     1
  5
EE
 10
200.342333
 20
99.737083
 30
0.0
  0
SEQEND
  8
1
  6
CONTINUOUS
 62
     1
  5
EF
  0
POLYLINE
  8
1
  6
CONTINUOUS
 62
     1
  5
F0
 66
     1
 10
0.0
 20
0.0
 30
0.0
 70
     1
  0
VERTEX
  8
1
  6
CONTINUOUS
 62
     1
  5
F1
 10
200.470667
 20
98.665417
 30
0.0
  0
VERTEX
  8
1
  6
CONTINUOUS
 62
     1
  5
F2
 10
211.502333
 20
98.665417
 30
0.0
  0
VERTEX
  8
1
  6
CONTINUOUS
 62
     1
  5
F3
 10
211.502333
 20
87.50375
 30
0.0
  0
VERTEX
  8
1
  6
CONTINUOUS
 62
     1
  5
F4
 10
200.470667
 20
87.50375
 30
0.0
  0
SEQEND
  8
1
  6
CONTINUOUS
 62
     1
  5
F5
  0
POLYLINE
  8
1
  6
CONTINUOUS
 62
     1
  5
F6
 66
     1
 10
0.0
 20
0.0
 30
0.0
 70
     1
  0
VERTEX
  8
1
  6
CONTINUOUS
 62
     1
  5
F7
 10
201.604
 20
86.305417
 30
0.0
  0
VERTEX
  8
1
  6
CONTINUOUS
 62
     1
  5
F8
 10
210.367333
 20
86.305417
 30
0.0
  0
VERTEX
  8
1
  6
CONTINUOUS
 62
     1
  5
F9
 10
210.367333
 20
81.63875
 30
0.0
  0
VERTEX
  8
1
  6
CONTINUOUS
 62
     1
  5
FA
 10
201.604
 20
81.63875
 30
0.0
  0
SEQEND
  8
1
  6
CONTINUOUS
 62
     1
  5
FB
  0
LINE
  8
1
  6
CONTINUOUS
 62
     1
  5
FC
 10
192.352333
 20
77.795417
 30
0.0
 11
204.827333
 21
77.795417
 31
0.0
  0
LINE
  8
1
  6
CONTINUOUS
 62
     1
  5
FD
 10
190.182333
 20
75.50875
 30
0.0
 11
190.182333
 21
81.63875
 31
0.0
  0
LINE
  8
1
  6
CONTINUOUS
 62
     1
  5
FE
 10
192.352333
 20
77.795417
 30
0.0
 11
192.352333
 21
81.63875
 31
0.0
  0
LINE
  8
1
  6
CONTINUOUS
 62
     1
  5
FF
 10
204.827333
 20
77.795417
 30
0.0
 11
204.827333
 21
81.63875
 31
0.0
  0
LINE
  8
1
  6
CONTINUOUS
 62
     1
  5
100
 10
206.795667
 20
75.50875
 30
0.0
 11
206.795667
 21
81.63875
 31
0.0
  0
LINE
  8
1
  6
CONTINUOUS
 62
     1
  5
101
 10
200.242333
 20
58.08875
 30
0.0
 11
200.242333
 21
75.50875
 31
0.0
  0
LINE
  8
1
  6
CONTINUOUS
 62
     1
  5
102
 10
190.182333
 20
75.50875
 30
0.0
 11
197.514
 21
75.50875
 31
0.0
  0
LINE
  8
1
  6
CONTINUOUS
 62
     1
  5
103
 10
200.242333
 20
75.50875
 30
0.0
 11
206.774
 21
75.50875
 31
0.0
  0
LINE
  8
1
  6
CONTINUOUS
 62
     1
  5
104
 10
197.514
 20
58.08875
 30
0.0
 11
197.514
 21
75.50875
 31
0.0
  0
ARC
  8
1
  6
CONTINUOUS
 62
     1
  5
105
 10
198.878167
 20
74.356917
 30
0.0
 40
1.785405
 50
40.176056
 51
139.823944
210
0.0
220
0.0
230
1.0
  0
ARC
  8
1
  6
CONTINUOUS
 62
     1
  5
106
 10
199.560667
 20
58.572
 30
0.0
 40
0.835583
 50
215.333731
 51
324.666272
210
0.0
220
0.0
230
1.0
  0
ARC
  8
1
  6
CONTINUOUS
 62
     1
  5
107
 10
198.197333
 20
58.454423
 30
0.0
 40
0.773554
 50
208.210861
 51
331.789142
210
0.0
220
0.0
230
1.0
  0
ARC
  8
1
  6
CONTINUOUS
 62
     1
  5
108
 10
198.197333
 20
57.625243
 30
0.0
 40
0.824323
 50
34.214186
 51
145.785814
210
0.0
220
0.0
230
1.0
  0
LINE
  8
1
  6
CONTINUOUS
 62
     1
  5
109
 10
185.019
 20
81.63875
 30
0.0
 11
179.944
 21
81.63875
 31
0.0
  0
LINE
  8
1
  6
CONTINUOUS
 62
     1
  5
10A
 10
192.182333
 20
76.69875
 30
0.0
 11
179.944
 21
76.69875
 31
0.0
  0
LINE
  8
1
  6
CONTINUOUS
 62
     1
  5
10B
 10
181.944
 20
81.665417
 30
0.0
 11
181.944
 21
86.24875
 31
0.0
  0
LINE
  8
1
  6
CONTINUOUS
 62
     1
  5
10C
 10
181.944
 20
72.115417
 30
0.0
 11
181.944
 21
76.69875
 31
0.0
  0
INSERT
  8
1
  6
CONTINUOUS
 62
     1
  5
10D
  2
LDR
 10
181.944
 20
81.665417
 30
0.0
 41
200.0
 42
200.0
 50
270.0
210
0.0
220
0.0
230
1.0
  0
INSERT
  8
1
  6
CONTINUOUS
 62
     1
  5
10E
  2
LDR
 10
181.944
 20
81.665417
 30
0.0
 41
200.0
 42
200.0
 50
270.0
210
0.0
220
0.0
230
1.0
  0
INSERT
  8
1
  6
CONTINUOUS
 62
     1
  5
10F
  2
LDR
 10
181.944
 20
76.69875
 30
0.0
 41
200.0
 42
200.0
 50
90.0
210
0.0
220
0.0
230
1.0
  0
LINE
  8
1
  6
CONTINUOUS
 62
     1
  5
110
 10
206.795667
 20
78.777083
 30
0.0
 11
213.209
 21
79.97375
 31
0.0
  0
LINE
  8
1
  6
CONTINUOUS
 62
     1
  5
111
 10
213.209
 20
79.97375
 30
0.0
 11
212.554
 21
78.66375
 31
0.0
  0
LINE
  8
1
  6
CONTINUOUS
 62
     1
  5
112
 10
212.554
 20
78.66375
 30
0.0
 11
217.792333
 21
80.57375
 31
0.0
  0
LINE
  8
1
  6
CONTINUOUS
 62
     1
  5
113
 10
209.812333
 20
79.340417
 30
0.0
 11
205.952333
 21
72.22375
 31
0.0
  0
LINE
  8
1
  6
CONTINUOUS
 62
     1
  5
114
 10
205.952333
 20
72.22375
 30
0.0
 11
203.447333
 21
75.50875
 31
0.0
  0
INSERT
  8
1
  6
CONTINUOUS
 62
     1
  5
115
  2
LDR
 10
206.795667
 20
78.777083
 30
0.0
 41
199.99997
 42
199.99997
 50
190.569308
210
0.0
220
0.0
230
1.0
  0
INSERT
  8
1
  6
CONTINUOUS
 62
     1
  5
116
  2
LDR
 10
206.795667
 20
78.777083
 30
0.0
 41
199.99997
 42
199.99997
 50
190.569308
210
0.0
220
0.0
230
1.0
  0
INSERT
  8
1
  6
CONTINUOUS
 62
     1
  5
117
  2
LDR
 10
203.447333
 20
75.50875
 30
0.0
 41
200.00001
 42
200.00001
 50
127.327574
210
0.0
220
0.0
230
1.0
  0
LINE
  8
1
  6
CONTINUOUS
 62
     1
  5
118
 10
208.795667
 20
75.717083
 30
0.0
 11
220.794
 21
75.717083
 31
0.0
  0
LINE
  8
1
  6
CONTINUOUS
 62
     1
  5
119
 10
173.977333
 20
26.94375
 30
0.0
 11
220.794
 21
26.94375
 31
0.0
  0
LINE
  8
1
  6
CONTINUOUS
 62
     1
  5
11A
 10
218.794
 20
26.94375
 30
0.0
 11
218.794
 21
75.717083
 31
0.0
  0
ARC
  8
1
  6
CONTINUOUS
 62
     1
  5
11B
 10
199.560667
 20
51.5755
 30
0.0
 40
0.835583
 50
35.333728
 51
144.666269
210
0.0
220
0.0
230
1.0
  0
ARC
  8
1
  6
CONTINUOUS
 62
     1
  5
11C
 10
198.197333
 20
51.693077
 30
0.0
 40
0.773554
 50
28.210858
 51
151.789139
210
0.0
220
0.0
230
1.0
  0
ARC
  8
1
  6
CONTINUOUS
 62
     1
  5
11D
 10
198.197333
 20
52.522257
 30
0.0
 40
0.824323
 50
214.214186
 51
325.785814
210
0.0
220
0.0
230
1.0
  0
POLYLINE
  8
1
  6
CONTINUOUS
 62
     1
  5
11E
 66
     1
 10
0.0
 20
0.0
 30
0.0
 70
     1
  0
VERTEX
  8
1
  6
CONTINUOUS
 62
     1
  5
11F
 10
196.194
 20
31.965417
 30
0.0
  0
VERTEX
  8
1
  6
CONTINUOUS
 62
     1
  5
120
 10
201.239
 20
31.965417
 30
0.0
  0
VERTEX
  8
1
  6
CONTINUOUS
 62
     1
  5
121
 10
201.239
 20
30.100417
 30
0.0
  0
VERTEX
  8
1
  6
CONTINUOUS
 62
     1
  5
122
 10
196.194
 20
30.100417
 30
0.0
  0
SEQEND
  8
1
  6
CONTINUOUS
 62
     1
  5
123
  0
LINE
  8
1
  6
CONTINUOUS
 62
     1
  5
124
 10
196.194
 20
31.03375
 30
0.0
 11
201.239
 21
31.03375
 31
0.0
  0
LINE
  8
1
  6
CONTINUOUS
 62
     1
  5
125
 10
200.242333
 20
52.05875
 30
0.0
 11
200.242333
 21
31.965417
 31
0.0
  0
LINE
  8
1
  6
CONTINUOUS
 62
     1
  5
126
 10
197.515667
 20
52.05875
 30
0.0
 11
197.515667
 21
31.965417
 31
0.0
  0
INSERT
  8
1
  6
CONTINUOUS
 62
     1
  5
127
  2
LDR
 10
218.794
 20
26.94375
 30
0.0
 41
200.0
 42
200.0
 50
270.0
210
0.0
220
0.0
230
1.0
  0
INSERT
  8
1
  6
CONTINUOUS
 62
     1
  5
128
  2
LDR
 10
218.794
 20
75.717083
 30
0.0
 41
200.0
 42
200.0
 50
90.0
210
0.0
220
0.0
230
1.0
  0
LINE
  8
1
  6
CONTINUOUS
 62
     1
  5
129
 10
203.239
 20
31.150417
 30
0.0
 11
212.097333
 21
31.150417
 31
0.0
  0
LINE
  8
1
  6
CONTINUOUS
 62
     1
  5
12A
 10
202.242333
 20
2.582083
 30
0.0
 11
212.097333
 21
2.582083
 31
0.0
  0
LINE
  8
1
  6
HIDDEN
 62
     1
  5
12B
 10
197.515667
 20
2.582083
 30
0.0
 11
200.242333
 21
2.582083
 31
0.0
  0
LINE
  8
1
  6
CONTINUOUS
 62
     1
  5
12C
 10
210.097333
 20
31.150417
 30
0.0
 11
210.097333
 21
2.582083
 31
0.0
  0
LINE
  8
1
  6
CONTINUOUS
 62
     1
  5
12D
 10
194.194
 20
31.240417
 30
0.0
 11
189.337333
 21
31.240417
 31
0.0
  0
LINE
  8
1
  6
CONTINUOUS
 62
     1
  5
12E
 10
191.337333
 20
31.240417
 30
0.0
 11
191.337333
 21
35.83375
 31
0.0
  0
LINE
  8
1
  6
CONTINUOUS
 62
     1
  5
12F
 10
191.337333
 20
22.350417
 30
0.0
 11
191.337333
 21
26.94375
 31
0.0
  0
INSERT
  8
1
  6
CONTINUOUS
 62
     1
  5
130
  2
LDR
 10
191.337333
 20
31.240417
 30
0.0
 41
200.0
 42
200.0
 50
270.0
210
0.0
220
0.0
230
1.0
  0
INSERT
  8
1
  6
CONTINUOUS
 62
     1
  5
131
  2
LDR
 10
191.337333
 20
31.240417
 30
0.0
 41
200.0
 42
200.0
 50
270.0
210
0.0
220
0.0
230
1.0
  0
INSERT
  8
1
  6
CONTINUOUS
 62
     1
  5
132
  2
LDR
 10
191.337333
 20
26.94375
 30
0.0
 41
200.0
 42
200.0
 50
90.0
210
0.0
220
0.0
230
1.0
  0
INSERT
  8
1
  6
CONTINUOUS
 62
     1
  5
133
  2
LDR
 10
210.097333
 20
31.150417
 30
0.0
 41
200.0
 42
200.0
 50
90.0
210
0.0
220
0.0
230
1.0
  0
INSERT
  8
1
  6
CONTINUOUS
 62
     1
  5
134
  2
LDR
 10
210.097333
 20
2.582083
 30
0.0
 41
200.0
 42
200.0
 50
270.0
210
0.0
220
0.0
230
1.0
  0
LINE
  8
1
  6
CONTINUOUS
 62
     1
  5
135
 10
197.514
 20
63.55375
 30
0.0
 11
192.489
 21
60.85875
 31
0.0
  0
LINE
  8
1
  6
CONTINUOUS
 62
     1
  5
136
 10
192.489
 20
60.85875
 30
0.0
 11
192.547333
 21
63.87875
 31
0.0
  0
LINE
  8
1
  6
CONTINUOUS
 62
     1
  5
137
 10
192.547333
 20
63.87875
 30
0.0
 11
188.250667
 21
61.43875
 31
0.0
  0
INSERT
  8
1
  6
CONTINUOUS
 62
     1
  5
138
  2
LDR
 10
197.514
 20
63.55375
 30
0.0
 41
199.999947
 42
199.999947
 50
28.205478
210
0.0
220
0.0
230
1.0
  0
LINE
  8
1
  6
CONTINUOUS
 62
     1
  5
139
 10
215.070667
 20
26.83875
 30
0.0
 11
215.070667
 21
-11.437917
 31
0.0
  0
LINE
  8
1
  6
CONTINUOUS
 62
     1
  5
13A
 10
206.434
 20
-11.437917
 30
0.0
 11
217.070667
 21
-11.437917
 31
0.0
  0
INSERT
  8
1
  6
CONTINUOUS
 62
     1
  5
13B
  2
LDR
 10
215.070667
 20
26.83875
 30
0.0
 41
200.0
 42
200.0
 50
90.0
210
0.0
220
0.0
230
1.0
  0
INSERT
  8
1
  6
CONTINUOUS
 62
     1
  5
13C
  2
LDR
 10
215.070667
 20
-11.437917
 30
0.0
 41
200.0
 42
200.0
 50
270.0
210
0.0
220
0.0
230
1.0
  0
LINE
  8
1
  6
DASHED
 62
     1
  5
13D
 10
193.297333
 20
-11.437917
 30
0.0
 11
193.297333
 21
26.94375
 31
0.0
  0
LINE
  8
1
  6
DASHED
 62
     1
  5
13E
 10
204.434
 20
-11.437917
 30
0.0
 11
204.434
 21
26.94375
 31
0.0
  0
LINE
  8
1
  6
CONTINUOUS
 62
     1
  5
13F
 10
193.297333
 20
-13.437917
 30
0.0
 11
193.297333
 21
-18.207917
 31
0.0
  0
LINE
  8
1
  6
CONTINUOUS
 62
     1
  5
140
 10
204.434
 20
-13.437917
 30
0.0
 11
204.434
 21
-18.207917
 31
0.0
  0
LINE
  8
1
  6
CONTINUOUS
 62
     1
  5
141
 10
193.297333
 20
-16.207917
 30
0.0
 11
204.434
 21
-16.207917
 31
0.0
  0
INSERT
  8
1
  6
CONTINUOUS
 62
     1
  5
142
  2
LDR
 10
193.297333
 20
-16.207917
 30
0.0
 41
200.0
 42
200.0
 50
180.0
210
0.0
220
0.0
230
1.0
  0
INSERT
  8
1
  6
CONTINUOUS
 62
     1
  5
143
  2
LDR
 10
193.297333
 20
-16.207917
 30
0.0
 41
200.0
 42
200.0
 50
180.0
210
0.0
220
0.0
230
1.0
  0
INSERT
  8
1
  6
CONTINUOUS
 62
     1
  5
144
  2
LDR
 10
204.434
 20
-16.207917
 30
0.0
 41
200.0
 42
200.0
210
0.0
220
0.0
230
1.0
  0
LINE
  8
1
  6
CONTINUOUS
 62
     1
  5
145
 10
197.515667
 20
30.100417
 30
0.0
 11
197.515667
 21
26.94375
 31
0.0
  0
LINE
  8
1
  6
HIDDEN
 62
     1
  5
146
 10
197.515667
 20
26.94375
 30
0.0
 11
197.515667
 21
2.582083
 31
0.0
  0
LINE
  8
1
  6
CONTINUOUS
 62
     1
  5
147
 10
200.242333
 20
30.100417
 30
0.0
 11
200.242333
 21
26.94375
 31
0.0
  0
LINE
  8
1
  6
HIDDEN
 62
     1
  5
148
 10
200.242333
 20
26.94375
 30
0.0
 11
200.242333
 21
2.582083
 31
0.0
  0
LINE
  8
1
  6
CONTINUOUS
 62
     1
  5
149
 10
206.795667
 20
87.50375
 30
0.0
 11
206.795667
 21
86.305417
 31
0.0
  0
LINE
  8
1
  6
CONTINUOUS
 62
     1
  5
14A
 10
204.562333
 20
99.737083
 30
0.0
 11
204.562333
 21
98.665417
 31
0.0
  0
LINE
  8
1
  6
CONTINUOUS
 62
     1
  5
14B
 10
206.652333
 20
99.737083
 30
0.0
 11
206.652333
 21
98.665417
 31
0.0
  0
LINE
  8
1
  6
CONTINUOUS
 62
     1
  5
14C
 10
204.759
 20
87.50375
 30
0.0
 11
204.759
 21
86.305417
 31
0.0
  0
POLYLINE
  8
1
  6
CONTINUOUS
 62
     1
  5
14D
 66
     1
 10
0.0
 20
0.0
 30
0.0
 70
     1
  0
VERTEX
  8
1
  6
CONTINUOUS
 62
     1
  5
14E
 10
201.339
 20
113.85875
 30
0.0
  0
VERTEX
  8
1
  6
CONTINUOUS
 62
     1
  5
14F
 10
210.102333
 20
113.85875
 30
0.0
  0
VERTEX
  8
1
  6
CONTINUOUS
 62
     1
  5
150
 10
210.102333
 20
109.192083
 30
0.0
  0
VERTEX
  8
1
  6
CONTINUOUS
 62
     1
  5
151
 10
201.339
 20
109.192083
 30
0.0
  0
SEQEND
  8
1
  6
CONTINUOUS
 62
     1
  5
152
  0
POLYLINE
  8
1
  6
CONTINUOUS
 62
     1
  5
153
 66
     1
 10
0.0
 20
0.0
 30
0.0
 70
     1
  0
VERTEX
  8
1
  6
CONTINUOUS
 62
     1
  5
154
 10
200.077333
 20
132.902083
 30
0.0
  0
VERTEX
  8
1
  6
CONTINUOUS
 62
     1
  5
155
 10
210.920667
 20
132.902083
 30
0.0
  0
VERTEX
  8
1
  6
CONTINUOUS
 62
     1
  5
156
 10
210.920667
 20
127.290417
 30
0.0
  0
VERTEX
  8
1
  6
CONTINUOUS
 62
     1
  5
157
 10
200.077333
 20
127.290417
 30
0.0
  0
SEQEND
  8
1
  6
CONTINUOUS
 62
     1
  5
158
  0
POLYLINE
  8
1
  6
CONTINUOUS
 62
     1
  5
159
 66
     1
 10
0.0
 20
0.0
 30
0.0
 70
     1
  0
VERTEX
  8
1
  6
CONTINUOUS
 62
     1
  5
15A
 10
200.205667
 20
126.21875
 30
0.0
  0
VERTEX
  8
1
  6
CONTINUOUS
 62
     1
  5
15B
 10
211.237333
 20
126.21875
 30
0.0
  0
VERTEX
  8
1
  6
CONTINUOUS
 62
     1
  5
15C
 10
211.237333
 20
115.057083
 30
0.0
  0
VERTEX
  8
1
  6
CONTINUOUS
 62
     1
  5
15D
 10
200.205667
 20
115.057083
 30
0.0
  0
SEQEND
  8
1
  6
CONTINUOUS
 62
     1
  5
15E
  0
LINE
  8
1
  6
CONTINUOUS
 62
     1
  5
15F
 10
204.562333
 20
105.34875
 30
0.0
 11
204.562333
 21
109.192083
 31
0.0
  0
LINE
  8
1
  6
CONTINUOUS
 62
     1
  5
160
 10
206.652333
 20
105.34875
 30
0.0
 11
206.652333
 21
109.192083
 31
0.0
  0
LINE
  8
1
  6
CONTINUOUS
 62
     1
  5
161
 10
200.077333
 20
134.902083
 30
0.0
 11
200.077333
 21
140.170417
 31
0.0
  0
LINE
  8
1
  6
CONTINUOUS
 62
     1
  5
162
 10
199.339
 20
109.192083
 30
0.0
 11
178.049
 21
109.192083
 31
0.0
  0
LINE
  8
1
  6
CONTINUOUS
 62
     1
  5
163
 10
183.757333
 20
105.34875
 30
0.0
 11
178.049
 21
105.34875
 31
0.0
  0
LINE
  8
1
  6
CONTINUOUS
 62
     1
  5
164
 10
196.600667
 20
107.34875
 30
0.0
 11
196.600667
 21
140.170417
 31
0.0
  0
LINE
  8
1
  6
CONTINUOUS
 62
     1
  5
165
 10
200.077333
 20
138.170417
 30
0.0
 11
205.897333
 21
138.170417
 31
0.0
  0
LINE
  8
1
  6
CONTINUOUS
 62
     1
  5
166
 10
190.780667
 20
138.170417
 30
0.0
 11
196.600667
 21
138.170417
 31
0.0
  0
INSERT
  8
1
  6
CONTINUOUS
 62
     1
  5
167
  2
LDR
 10
200.077333
 20
138.170417
 30
0.0
 41
200.0
 42
200.0
 50
180.0
210
0.0
220
0.0
230
1.0
  0
INSERT
  8
1
  6
CONTINUOUS
 62
     1
  5
168
  2
LDR
 10
200.077333
 20
138.170417
 30
0.0
 41
200.0
 42
200.0
 50
180.0
210
0.0
220
0.0
230
1.0
  0
INSERT
  8
1
  6
CONTINUOUS
 62
     1
  5
169
  2
LDR
 10
196.600667
 20
138.170417
 30
0.0
 41
200.0
 42
200.0
210
0.0
220
0.0
230
1.0
  0
LINE
  8
1
  6
CONTINUOUS
 62
     1
  5
16A
 10
180.049
 20
109.192083
 30
0.0
 11
180.049
 21
113.017083
 31
0.0
  0
LINE
  8
1
  6
CONTINUOUS
 62
     1
  5
16B
 10
180.049
 20
101.52375
 30
0.0
 11
180.049
 21
105.34875
 31
0.0
  0
INSERT
  8
1
  6
CONTINUOUS
 62
     1
  5
16C
  2
LDR
 10
180.049
 20
109.192083
 30
0.0
 41
200.0
 42
200.0
 50
270.0
210
0.0
220
0.0
230
1.0
  0
INSERT
  8
1
  6
CONTINUOUS
 62
     1
  5
16D
  2
LDR
 10
180.049
 20
105.34875
 30
0.0
 41
200.0
 42
200.0
 50
90.0
210
0.0
220
0.0
230
1.0
  0
LINE
  8
1
  6
DASHED
 62
     1
  5
16E
 10
287.510667
 20
-11.437917
 30
0.0
 11
287.510667
 21
26.94375
 31
0.0
  0
POLYLINE
  8
1
  6
CONTINUOUS
 62
     1
  5
16F
 66
     1
 10
0.0
 20
0.0
 30
0.0
 70
     1
  0
VERTEX
  8
1
  6
CONTINUOUS
 62
     1
  5
170
 10
279.970667
 20
105.34875
 30
0.0
  0
VERTEX
  8
1
  6
CONTINUOUS
 62
     1
  5
171
 10
290.814
 20
105.34875
 30
0.0
  0
VERTEX
  8
1
  6
CONTINUOUS
 62
     1
  5
172
 10
290.814
 20
99.737083
 30
0.0
  0
VERTEX
  8
1
  6
CONTINUOUS
 62
     1
  5
173
 10
279.970667
 20
99.737083
 30
0.0
  0
SEQEND
  8
1
  6
CONTINUOUS
 62
     1
  5
174
  0
POLYLINE
  8
1
  6
CONTINUOUS
 62
     1
  5
175
 66
     1
 10
0.0
 20
0.0
 30
0.0
 70
     1
  0
VERTEX
  8
1
  6
CONTINUOUS
 62
     1
  5
176
 10
280.099
 20
98.665417
 30
0.0
  0
VERTEX
  8
1
  6
CONTINUOUS
 62
     1
  5
177
 10
291.130667
 20
98.665417
 30
0.0
  0
VERTEX
  8
1
  6
CONTINUOUS
 62
     1
  5
178
 10
291.130667
 20
87.50375
 30
0.0
  0
VERTEX
  8
1
  6
CONTINUOUS
 62
     1
  5
179
 10
280.099
 20
87.50375
 30
0.0
  0
SEQEND
  8
1
  6
CONTINUOUS
 62
     1
  5
17A
  0
POLYLINE
  8
1
  6
CONTINUOUS
 62
     1
  5
17B
 66
     1
 10
0.0
 20
0.0
 30
0.0
 70
     1
  0
VERTEX
  8
1
  6
CONTINUOUS
 62
     1
  5
17C
 10
281.232333
 20
86.305417
 30
0.0
  0
VERTEX
  8
1
  6
CONTINUOUS
 62
     1
  5
17D
 10
289.995667
 20
86.305417
 30
0.0
  0
VERTEX
  8
1
  6
CONTINUOUS
 62
     1
  5
17E
 10
289.995667
 20
81.63875
 30
0.0
  0
VERTEX
  8
1
  6
CONTINUOUS
 62
     1
  5
17F
 10
281.232333
 20
81.63875
 30
0.0
  0
SEQEND
  8
1
  6
CONTINUOUS
 62
     1
  5
180
  0
LINE
  8
1
  6
CONTINUOUS
 62
     1
  5
181
 10
284.314
 20
99.737083
 30
0.0
 11
284.314
 21
98.665417
 31
0.0
  0
LINE
  8
1
  6
CONTINUOUS
 62
     1
  5
182
 10
286.404
 20
99.737083
 30
0.0
 11
286.404
 21
98.665417
 31
0.0
  0
LINE
  8
1
  6
CONTINUOUS
 62
     1
  5
183
 10
284.510667
 20
87.50375
 30
0.0
 11
284.510667
 21
86.305417
 31
0.0
  0
LINE
  8
1
  6
CONTINUOUS
 62
     1
  5
184
 10
286.547333
 20
87.50375
 30
0.0
 11
286.547333
 21
86.305417
 31
0.0
  0
POLYLINE
  8
1
  6
CONTINUOUS
 62
     1
  5
185
 66
     1
 10
0.0
 20
0.0
 30
0.0
 70
     1
  0
VERTEX
  8
1
  6
CONTINUOUS
 62
     1
  5
186
 10
294.555667
 20
105.34875
 30
0.0
  0
VERTEX
  8
1
  6
CONTINUOUS
 62
     1
  5
187
 10
305.399
 20
105.34875
 30
0.0
  0
VERTEX
  8
1
  6
CONTINUOUS
 62
     1
  5
188
 10
305.399
 20
99.737083
 30
0.0
  0
VERTEX
  8
1
  6
CONTINUOUS
 62
     1
  5
189
 10
294.555667
 20
99.737083
 30
0.0
  0
SEQEND
  8
1
  6
CONTINUOUS
 62
     1
  5
18A
  0
POLYLINE
  8
1
  6
CONTINUOUS
 62
     1
  5
18B
 66
     1
 10
0.0
 20
0.0
 30
0.0
 70
     1
  0
VERTEX
  8
1
  6
CONTINUOUS
 62
     1
  5
18C
 10
294.684
 20
98.665417
 30
0.0
  0
VERTEX
  8
1
  6
CONTINUOUS
 62
     1
  5
18D
 10
305.715667
 20
98.665417
 30
0.0
  0
VERTEX
  8
1
  6
CONTINUOUS
 62
     1
  5
18E
 10
305.715667
 20
87.50375
 30
0.0
  0
VERTEX
  8
1
  6
CONTINUOUS
 62
     1
  5
18F
 10
294.684
 20
87.50375
 30
0.0
  0
SEQEND
  8
1
  6
CONTINUOUS
 62
     1
  5
190
  0
POLYLINE
  8
1
  6
CONTINUOUS
 62
     1
  5
191
 66
     1
 10
0.0
 20
0.0
 30
0.0
 70
     1
  0
VERTEX
  8
1
  6
CONTINUOUS
 62
     1
  5
192
 10
295.817333
 20
86.305417
 30
0.0
  0
VERTEX
  8
1
  6
CONTINUOUS
 62
     1
  5
193
 10
304.580667
 20
86.305417
 30
0.0
  0
VERTEX
  8
1
  6
CONTINUOUS
 62
     1
  5
194
 10
304.580667
 20
81.63875
 30
0.0
  0
VERTEX
  8
1
  6
CONTINUOUS
 62
     1
  5
195
 10
295.817333
 20
81.63875
 30
0.0
  0
SEQEND
  8
1
  6
CONTINUOUS
 62
     1
  5
196
  0
LINE
  8
1
  6
CONTINUOUS
 62
     1
  5
197
 10
298.899
 20
99.737083
 30
0.0
 11
298.899
 21
98.665417
 31
0.0
  0
LINE
  8
1
  6
CONTINUOUS
 62
     1
  5
198
 10
300.989
 20
99.737083
 30
0.0
 11
300.989
 21
98.665417
 31
0.0
  0
LINE
  8
1
  6
CONTINUOUS
 62
     1
  5
199
 10
299.095667
 20
87.50375
 30
0.0
 11
299.095667
 21
86.305417
 31
0.0
  0
LINE
  8
1
  6
CONTINUOUS
 62
     1
  5
19A
 10
301.132333
 20
87.50375
 30
0.0
 11
301.132333
 21
86.305417
 31
0.0
  0
LINE
  8
1
  6
CONTINUOUS
 62
     1
  5
19B
 10
286.565667
 20
77.795417
 30
0.0
 11
299.040667
 21
77.795417
 31
0.0
  0
LINE
  8
1
  6
CONTINUOUS
 62
     1
  5
19C
 10
284.395667
 20
75.50875
 30
0.0
 11
284.395667
 21
81.63875
 31
0.0
  0
LINE
  8
1
  6
CONTINUOUS
 62
     1
  5
19D
 10
286.565667
 20
77.795417
 30
0.0
 11
286.565667
 21
81.63875
 31
0.0
  0
LINE
  8
1
  6
CONTINUOUS
 62
     1
  5
19E
 10
299.040667
 20
77.795417
 30
0.0
 11
299.040667
 21
81.63875
 31
0.0
  0
LINE
  8
1
  6
CONTINUOUS
 62
     1
  5
19F
 10
301.009
 20
75.50875
 30
0.0
 11
301.009
 21
81.63875
 31
0.0
  0
LINE
  8
1
  6
CONTINUOUS
 62
     1
  5
1A0
 10
294.455667
 20
58.08875
 30
0.0
 11
294.455667
 21
75.50875
 31
0.0
  0
LINE
  8
1
  6
CONTINUOUS
 62
     1
  5
1A1
 10
284.395667
 20
75.50875
 30
0.0
 11
291.727333
 21
75.50875
 31
0.0
  0
LINE
  8
1
  6
CONTINUOUS
 62
     1
  5
1A2
 10
294.455667
 20
75.50875
 30
0.0
 11
300.987333
 21
75.50875
 31
0.0
  0
LINE
  8
1
  6
CONTINUOUS
 62
     1
  5
1A3
 10
291.727333
 20
58.08875
 30
0.0
 11
291.727333
 21
75.50875
 31
0.0
  0
ARC
  8
1
  6
CONTINUOUS
 62
     1
  5
1A4
 10
293.0915
 20
74.356917
 30
0.0
 40
1.785405
 50
40.176056
 51
139.823944
210
0.0
220
0.0
230
1.0
  0
ARC
  8
1
  6
CONTINUOUS
 62
     1
  5
1A5
 10
293.774
 20
58.572
 30
0.0
 40
0.835583
 50
215.333731
 51
324.666272
210
0.0
220
0.0
230
1.0
  0
ARC
  8
1
  6
CONTINUOUS
 62
     1
  5
1A6
 10
292.410667
 20
58.454423
 30
0.0
 40
0.773554
 50
208.210861
 51
331.789142
210
0.0
220
0.0
230
1.0
  0
ARC
  8
1
  6
CONTINUOUS
 62
     1
  5
1A7
 10
292.410667
 20
57.625243
 30
0.0
 40
0.824323
 50
34.214186
 51
145.785814
210
0.0
220
0.0
230
1.0
  0
LINE
  8
1
  6
CONTINUOUS
 62
     1
  5
1A8
 10
279.232333
 20
81.63875
 30
0.0
 11
274.157333
 21
81.63875
 31
0.0
  0
LINE
  8
1
  6
CONTINUOUS
 62
     1
  5
1A9
 10
286.395667
 20
76.69875
 30
0.0
 11
274.157333
 21
76.69875
 31
0.0
  0
LINE
  8
1
  6
CONTINUOUS
 62
     1
  5
1AA
 10
276.157333
 20
81.665417
 30
0.0
 11
276.157333
 21
86.24875
 31
0.0
  0
LINE
  8
1
  6
CONTINUOUS
 62
     1
  5
1AB
 10
276.157333
 20
72.115417
 30
0.0
 11
276.157333
 21
76.69875
 31
0.0
  0
INSERT
  8
1
  6
CONTINUOUS
 62
     1
  5
1AC
  2
LDR
 10
276.157333
 20
81.665417
 30
0.0
 41
200.0
 42
200.0
 50
270.0
210
0.0
220
0.0
230
1.0
  0
INSERT
  8
1
  6
CONTINUOUS
 62
     1
  5
1AD
  2
LDR
 10
276.157333
 20
81.665417
 30
0.0
 41
200.0
 42
200.0
 50
270.0
210
0.0
220
0.0
230
1.0
  0
INSERT
  8
1
  6
CONTINUOUS
 62
     1
  5
1AE
  2
LDR
 10
276.157333
 20
76.69875
 30
0.0
 41
200.0
 42
200.0
 50
90.0
210
0.0
220
0.0
230
1.0
  0
LINE
  8
1
  6
CONTINUOUS
 62
     1
  5
1AF
 10
301.009
 20
78.777083
 30
0.0
 11
307.422333
 21
79.97375
 31
0.0
  0
LINE
  8
1
  6
CONTINUOUS
 62
     1
  5
1B0
 10
307.422333
 20
79.97375
 30
0.0
 11
306.767333
 21
78.66375
 31
0.0
  0
LINE
  8
1
  6
CONTINUOUS
 62
     1
  5
1B1
 10
306.767333
 20
78.66375
 30
0.0
 11
312.005667
 21
80.57375
 31
0.0
  0
LINE
  8
1
  6
CONTINUOUS
 62
     1
  5
1B2
 10
304.025667
 20
79.340417
 30
0.0
 11
300.165667
 21
72.22375
 31
0.0
  0
LINE
  8
1
  6
CONTINUOUS
 62
     1
  5
1B3
 10
300.165667
 20
72.22375
 30
0.0
 11
297.660667
 21
75.50875
 31
0.0
  0
INSERT
  8
1
  6
CONTINUOUS
 62
     1
  5
1B4
  2
LDR
 10
301.009
 20
78.777083
 30
0.0
 41
199.99997
 42
199.99997
 50
190.569308
210
0.0
220
0.0
230
1.0
  0
INSERT
  8
1
  6
CONTINUOUS
 62
     1
  5
1B5
  2
LDR
 10
301.009
 20
78.777083
 30
0.0
 41
199.99997
 42
199.99997
 50
190.569308
210
0.0
220
0.0
230
1.0
  0
INSERT
  8
1
  6
CONTINUOUS
 62
     1
  5
1B6
  2
LDR
 10
297.660667
 20
75.50875
 30
0.0
 41
200.00001
 42
200.00001
 50
127.327574
210
0.0
220
0.0
230
1.0
  0
LINE
  8
1
  6
CONTINUOUS
 62
     1
  5
1B7
 10
303.009
 20
75.717083
 30
0.0
 11
315.007333
 21
75.717083
 31
0.0
  0
LINE
  8
1
  6
CONTINUOUS
 62
     1
  5
1B8
 10
268.190667
 20
26.94375
 30
0.0
 11
315.007333
 21
26.94375
 31
0.0
  0
LINE
  8
1
  6
CONTINUOUS
 62
     1
  5
1B9
 10
313.007333
 20
26.94375
 30
0.0
 11
313.007333
 21
75.717083
 31
0.0
  0
ARC
  8
1
  6
CONTINUOUS
 62
     1
  5
1BA
 10
293.774
 20
51.5755
 30
0.0
 40
0.835583
 50
35.333728
 51
144.666269
210
0.0
220
0.0
230
1.0
  0
ARC
  8
1
  6
CONTINUOUS
 62
     1
  5
1BB
 10
292.410667
 20
51.693077
 30
0.0
 40
0.773554
 50
28.210858
 51
151.789139
210
0.0
220
0.0
230
1.0
  0
ARC
  8
1
  6
CONTINUOUS
 62
     1
  5
1BC
 10
292.410667
 20
52.522257
 30
0.0
 40
0.824323
 50
214.214186
 51
325.785814
210
0.0
220
0.0
230
1.0
  0
POLYLINE
  8
1
  6
CONTINUOUS
 62
     1
  5
1BD
 66
     1
 10
0.0
 20
0.0
 30
0.0
 70
     1
  0
VERTEX
  8
1
  6
CONTINUOUS
 62
     1
  5
1BE
 10
290.407333
 20
31.965417
 30
0.0
  0
VERTEX
  8
1
  6
CONTINUOUS
 62
     1
  5
1BF
 10
295.452333
 20
31.965417
 30
0.0
  0
VERTEX
  8
1
  6
CONTINUOUS
 62
     1
  5
1C0
 10
295.452333
 20
30.100417
 30
0.0
  0
VERTEX
  8
1
  6
CONTINUOUS
 62
     1
  5
1C1
 10
290.407333
 20
30.100417
 30
0.0
  0
SEQEND
  8
1
  6
CONTINUOUS
 62
     1
  5
1C2
  0
LINE
  8
1
  6
CONTINUOUS
 62
     1
  5
1C3
 10
290.407333
 20
31.03375
 30
0.0
 11
295.452333
 21
31.03375
 31
0.0
  0
LINE
  8
1
  6
CONTINUOUS
 62
     1
  5
1C4
 10
294.455667
 20
52.05875
 30
0.0
 11
294.455667
 21
31.965417
 31
0.0
  0
LINE
  8
1
  6
CONTINUOUS
 62
     1
  5
1C5
 10
291.729
 20
52.05875
 30
0.0
 11
291.729
 21
31.965417
 31
0.0
  0
INSERT
  8
1
  6
CONTINUOUS
 62
     1
  5
1C6
  2
LDR
 10
313.007333
 20
26.94375
 30
0.0
 41
200.0
 42
200.0
 50
270.0
210
0.0
220
0.0
230
1.0
  0
INSERT
  8
1
  6
CONTINUOUS
 62
     1
  5
1C7
  2
LDR
 10
313.007333
 20
75.717083
 30
0.0
 41
200.0
 42
200.0
 50
90.0
210
0.0
220
0.0
230
1.0
  0
LINE
  8
1
  6
CONTINUOUS
 62
     1
  5
1C8
 10
297.452333
 20
31.150417
 30
0.0
 11
306.310667
 21
31.150417
 31
0.0
  0
LINE
  8
1
  6
CONTINUOUS
 62
     1
  5
1C9
 10
296.455667
 20
2.582083
 30
0.0
 11
306.310667
 21
2.582083
 31
0.0
  0
LINE
  8
1
  6
HIDDEN
 62
     1
  5
1CA
 10
291.729
 20
2.582083
 30
0.0
 11
294.455667
 21
2.582083
 31
0.0
  0
LINE
  8
1
  6
CONTINUOUS
 62
     1
  5
1CB
 10
304.310667
 20
31.150417
 30
0.0
 11
304.310667
 21
2.582083
 31
0.0
  0
LINE
  8
1
  6
CONTINUOUS
 62
     1
  5
1CC
 10
288.407333
 20
31.240417
 30
0.0
 11
283.550667
 21
31.240417
 31
0.0
  0
LINE
  8
1
  6
CONTINUOUS
 62
     1
  5
1CD
 10
285.550667
 20
31.240417
 30
0.0
 11
285.550667
 21
35.83375
 31
0.0
  0
LINE
  8
1
  6
CONTINUOUS
 62
     1
  5
1CE
 10
285.550667
 20
22.350417
 30
0.0
 11
285.550667
 21
26.94375
 31
0.0
  0
INSERT
  8
1
  6
CONTINUOUS
 62
     1
  5
1CF
  2
LDR
 10
285.550667
 20
31.240417
 30
0.0
 41
200.0
 42
200.0
 50
270.0
210
0.0
220
0.0
230
1.0
  0
INSERT
  8
1
  6
CONTINUOUS
 62
     1
  5
1D0
  2
LDR
 10
285.550667
 20
31.240417
 30
0.0
 41
200.0
 42
200.0
 50
270.0
210
0.0
220
0.0
230
1.0
  0
INSERT
  8
1
  6
CONTINUOUS
 62
     1
  5
1D1
  2
LDR
 10
285.550667
 20
26.94375
 30
0.0
 41
200.0
 42
200.0
 50
90.0
210
0.0
220
0.0
230
1.0
  0
INSERT
  8
1
  6
CONTINUOUS
 62
     1
  5
1D2
  2
LDR
 10
304.310667
 20
31.150417
 30
0.0
 41
200.0
 42
200.0
 50
90.0
210
0.0
220
0.0
230
1.0
  0
INSERT
  8
1
  6
CONTINUOUS
 62
     1
  5
1D3
  2
LDR
 10
304.310667
 20
2.582083
 30
0.0
 41
200.0
 42
200.0
 50
270.0
210
0.0
220
0.0
230
1.0
  0
LINE
  8
1
  6
CONTINUOUS
 62
     1
  5
1D4
 10
291.727333
 20
63.55375
 30
0.0
 11
286.702333
 21
60.85875
 31
0.0
  0
LINE
  8
1
  6
CONTINUOUS
 62
     1
  5
1D5
 10
286.702333
 20
60.85875
 30
0.0
 11
286.760667
 21
63.87875
 31
0.0
  0
LINE
  8
1
  6
CONTINUOUS
 62
     1
  5
1D6
 10
286.760667
 20
63.87875
 30
0.0
 11
282.464
 21
61.43875
 31
0.0
  0
INSERT
  8
1
  6
CONTINUOUS
 62
     1
  5
1D7
  2
LDR
 10
291.727333
 20
63.55375
 30
0.0
 41
199.999947
 42
199.999947
 50
28.205478
210
0.0
220
0.0
230
1.0
  0
LINE
  8
1
  6
CONTINUOUS
 62
     1
  5
1D8
 10
309.284
 20
26.83875
 30
0.0
 11
309.284
 21
-11.437917
 31
0.0
  0
LINE
  8
1
  6
CONTINUOUS
 62
     1
  5
1D9
 10
300.647333
 20
-11.437917
 30
0.0
 11
311.284
 21
-11.437917
 31
0.0
  0
INSERT
  8
1
  6
CONTINUOUS
 62
     1
  5
1DA
  2
LDR
 10
309.284
 20
26.83875
 30
0.0
 41
200.0
 42
200.0
 50
90.0
210
0.0
220
0.0
230
1.0
  0
INSERT
  8
1
  6
CONTINUOUS
 62
     1
  5
1DB
  2
LDR
 10
309.284
 20
-11.437917
 30
0.0
 41
200.0
 42
200.0
 50
270.0
210
0.0
220
0.0
230
1.0
  0
LINE
  8
1
  6
DASHED
 62
     1
  5
1DC
 10
287.510667
 20
-11.437917
 30
0.0
 11
298.647333
 21
-11.437917
 31
0.0
  0
LINE
  8
1
  6
DASHED
 62
     1
  5
1DD
 10
298.647333
 20
-11.437917
 30
0.0
 11
298.647333
 21
26.94375
 31
0.0
  0
LINE
  8
1
  6
CONTINUOUS
 62
     1
  5
1DE
 10
287.510667
 20
-13.437917
 30
0.0
 11
287.510667
 21
-18.207917
 31
0.0
  0
LINE
  8
1
  6
CONTINUOUS
 62
     1
  5
1DF
 10
298.647333
 20
-13.437917
 30
0.0
 11
298.647333
 21
-18.207917
 31
0.0
  0
LINE
  8
1
  6
CONTINUOUS
 62
     1
  5
1E0
 10
287.510667
 20
-16.207917
 30
0.0
 11
298.647333
 21
-16.207917
 31
0.0
  0
INSERT
  8
1
  6
CONTINUOUS
 62
     1
  5
1E1
  2
LDR
 10
287.510667
 20
-16.207917
 30
0.0
 41
200.0
 42
200.0
 50
180.0
210
0.0
220
0.0
230
1.0
  0
INSERT
  8
1
  6
CONTINUOUS
 62
     1
  5
1E2
  2
LDR
 10
287.510667
 20
-16.207917
 30
0.0
 41
200.0
 42
200.0
 50
180.0
210
0.0
220
0.0
230
1.0
  0
INSERT
  8
1
  6
CONTINUOUS
 62
     1
  5
1E3
  2
LDR
 10
298.647333
 20
-16.207917
 30
0.0
 41
200.0
 42
200.0
210
0.0
220
0.0
230
1.0
  0
LINE
  8
1
  6
CONTINUOUS
 62
     1
  5
1E4
 10
291.729
 20
30.100417
 30
0.0
 11
291.729
 21
26.94375
 31
0.0
  0
LINE
  8
1
  6
HIDDEN
 62
     1
  5
1E5
 10
291.729
 20
26.94375
 30
0.0
 11
291.729
 21
2.582083
 31
0.0
  0
LINE
  8
1
  6
CONTINUOUS
 62
     1
  5
1E6
 10
294.455667
 20
30.100417
 30
0.0
 11
294.455667
 21
26.94375
 31
0.0
  0
LINE
  8
1
  6
HIDDEN
 62
     1
  5
1E7
 10
294.455667
 20
26.94375
 30
0.0
 11
294.455667
 21
2.582083
 31
0.0
  0
LINE
  8
1
  6
CONTINUOUS
 62
     1
  5
1E8
 10
204.562333
 20
113.85875
 30
0.0
 11
204.562333
 21
115.057083
 31
0.0
  0
LINE
  8
1
  6
CONTINUOUS
 62
     1
  5
1E9
 10
204.562333
 20
126.21875
 30
0.0
 11
204.562333
 21
127.290417
 31
0.0
  0
LINE
  8
1
  6
CONTINUOUS
 62
     1
  5
1EA
 10
206.652333
 20
113.85875
 30
0.0
 11
206.652333
 21
115.057083
 31
0.0
  0
LINE
  8
1
  6
CONTINUOUS
 62
     1
  5
1EB
 10
206.652333
 20
126.21875
 30
0.0
 11
206.652333
 21
127.290417
 31
0.0
  0
LINE
  8
1
  6
CONTINUOUS
 62
     1
  5
1EC
 10
298.899
 20
105.34875
 30
0.0
 11
298.899
 21
109.192083
 31
0.0
  0
POLYLINE
  8
1
  6
CONTINUOUS
 62
     1
  5
1ED
 66
     1
 10
0.0
 20
0.0
 30
0.0
 70
     1
  0
VERTEX
  8
1
  6
CONTINUOUS
 62
     1
  5
1EE
 10
295.675667
 20
113.85875
 30
0.0
  0
VERTEX
  8
1
  6
CONTINUOUS
 62
     1
  5
1EF
 10
304.439
 20
113.85875
 30
0.0
  0
VERTEX
  8
1
  6
CONTINUOUS
 62
     1
  5
1F0
 10
304.439
 20
109.192083
 30
0.0
  0
VERTEX
  8
1
  6
CONTINUOUS
 62
     1
  5
1F1
 10
295.675667
 20
109.192083
 30
0.0
  0
SEQEND
  8
1
  6
CONTINUOUS
 62
     1
  5
1F2
  0
POLYLINE
  8
1
  6
CONTINUOUS
 62
     1
  5
1F3
 66
     1
 10
0.0
 20
0.0
 30
0.0
 70
     1
  0
VERTEX
  8
1
  6
CONTINUOUS
 62
     1
  5
1F4
 10
294.414
 20
132.902083
 30
0.0
  0
VERTEX
  8
1
  6
CONTINUOUS
 62
     1
  5
1F5
 10
305.257333
 20
132.902083
 30
0.0
  0
VERTEX
  8
1
  6
CONTINUOUS
 62
     1
  5
1F6
 10
305.257333
 20
127.290417
 30
0.0
  0
VERTEX
  8
1
  6
CONTINUOUS
 62
     1
  5
1F7
 10
294.414
 20
127.290417
 30
0.0
  0
SEQEND
  8
1
  6
CONTINUOUS
 62
     1
  5
1F8
  0
POLYLINE
  8
1
  6
CONTINUOUS
 62
     1
  5
1F9
 66
     1
 10
0.0
 20
0.0
 30
0.0
 70
     1
  0
VERTEX
  8
1
  6
CONTINUOUS
 62
     1
  5
1FA
 10
294.542333
 20
126.21875
 30
0.0
  0
VERTEX
  8
1
  6
CONTINUOUS
 62
     1
  5
1FB
 10
305.574
 20
126.21875
 30
0.0
  0
VERTEX
  8
1
  6
CONTINUOUS
 62
     1
  5
1FC
 10
305.574
 20
115.057083
 30
0.0
  0
VERTEX
  8
1
  6
CONTINUOUS
 62
     1
  5
1FD
 10
294.542333
 20
115.057083
 30
0.0
  0
SEQEND
  8
1
  6
CONTINUOUS
 62
     1
  5
1FE
  0
LINE
  8
1
  6
CONTINUOUS
 62
     1
  5
1FF
 10
294.414
 20
134.902083
 30
0.0
 11
294.414
 21
140.170417
 31
0.0
  0
LINE
  8
1
  6
CONTINUOUS
 62
     1
  5
200
 10
290.937333
 20
134.902083
 30
0.0
 11
290.937333
 21
140.170417
 31
0.0
  0
LINE
  8
1
  6
CONTINUOUS
 62
     1
  5
201
 10
294.414
 20
138.170417
 30
0.0
 11
300.234
 21
138.170417
 31
0.0
  0
LINE
  8
1
  6
CONTINUOUS
 62
     1
  5
202
 10
285.117333
 20
138.170417
 30
0.0
 11
290.937333
 21
138.170417
 31
0.0
  0
INSERT
  8
1
  6
CONTINUOUS
 62
     1
  5
203
  2
LDR
 10
294.414
 20
138.170417
 30
0.0
 41
200.0
 42
200.0
 50
180.0
210
0.0
220
0.0
230
1.0
  0
INSERT
  8
1
  6
CONTINUOUS
 62
     1
  5
204
  2
LDR
 10
294.414
 20
138.170417
 30
0.0
 41
200.0
 42
200.0
 50
180.0
210
0.0
220
0.0
230
1.0
  0
INSERT
  8
1
  6
CONTINUOUS
 62
     1
  5
205
  2
LDR
 10
290.937333
 20
138.170417
 30
0.0
 41
200.0
 42
200.0
210
0.0
220
0.0
230
1.0
  0
LINE
  8
1
  6
CONTINUOUS
 62
     1
  5
206
 10
298.899
 20
113.85875
 30
0.0
 11
298.899
 21
115.057083
 31
0.0
  0
LINE
  8
1
  6
CONTINUOUS
 62
     1
  5
207
 10
298.899
 20
126.21875
 30
0.0
 11
298.899
 21
127.290417
 31
0.0
  0
LINE
  8
1
  6
CONTINUOUS
 62
     1
  5
208
 10
300.989
 20
113.85875
 30
0.0
 11
300.989
 21
115.057083
 31
0.0
  0
LINE
  8
1
  6
CONTINUOUS
 62
     1
  5
209
 10
300.989
 20
126.21875
 30
0.0
 11
300.989
 21
127.290417
 31
0.0
  0
LINE
  8
1
  6
CONTINUOUS
 62
     1
  5
20A
 10
284.314
 20
105.34875
 30
0.0
 11
284.314
 21
109.192083
 31
0.0
  0
POLYLINE
  8
1
  6
CONTINUOUS
 62
     1
  5
20B
 66
     1
 10
0.0
 20
0.0
 30
0.0
 70
     1
  0
VERTEX
  8
1
  6
CONTINUOUS
 62
     1
  5
20C
 10
281.090667
 20
113.85875
 30
0.0
  0
VERTEX
  8
1
  6
CONTINUOUS
 62
     1
  5
20D
 10
289.854
 20
113.85875
 30
0.0
  0
VERTEX
  8
1
  6
CONTINUOUS
 62
     1
  5
20E
 10
289.854
 20
109.192083
 30
0.0
  0
VERTEX
  8
1
  6
CONTINUOUS
 62
     1
  5
20F
 10
281.090667
 20
109.192083
 30
0.0
  0
SEQEND
  8
1
  6
CONTINUOUS
 62
     1
  5
210
  0
POLYLINE
  8
1
  6
CONTINUOUS
 62
     1
  5
211
 66
     1
 10
0.0
 20
0.0
 30
0.0
 70
     1
  0
VERTEX
  8
1
  6
CONTINUOUS
 62
     1
  5
212
 10
279.829
 20
132.902083
 30
0.0
  0
VERTEX
  8
1
  6
CONTINUOUS
 62
     1
  5
213
 10
290.672333
 20
132.902083
 30
0.0
  0
VERTEX
  8
1
  6
CONTINUOUS
 62
     1
  5
214
 10
290.672333
 20
127.290417
 30
0.0
  0
VERTEX
  8
1
  6
CONTINUOUS
 62
     1
  5
215
 10
279.829
 20
127.290417
 30
0.0
  0
SEQEND
  8
1
  6
CONTINUOUS
 62
     1
  5
216
  0
POLYLINE
  8
1
  6
CONTINUOUS
 62
     1
  5
217
 66
     1
 10
0.0
 20
0.0
 30
0.0
 70
     1
  0
VERTEX
  8
1
  6
CONTINUOUS
 62
     1
  5
218
 10
279.957333
 20
126.21875
 30
0.0
  0
VERTEX
  8
1
  6
CONTINUOUS
 62
     1
  5
219
 10
290.989
 20
126.21875
 30
0.0
  0
VERTEX
  8
1
  6
CONTINUOUS
 62
     1
  5
21A
 10
290.989
 20
115.057083
 30
0.0
  0
VERTEX
  8
1
  6
CONTINUOUS
 62
     1
  5
21B
 10
279.957333
 20
115.057083
 30
0.0
  0
SEQEND
  8
1
  6
CONTINUOUS
 62
     1
  5
21C
  0
LINE
  8
1
  6
CONTINUOUS
 62
     1
  5
21D
 10
284.314
 20
113.85875
 30
0.0
 11
284.314
 21
115.057083
 31
0.0
  0
LINE
  8
1
  6
CONTINUOUS
 62
     1
  5
21E
 10
284.314
 20
126.21875
 30
0.0
 11
284.314
 21
127.290417
 31
0.0
  0
LINE
  8
1
  6
CONTINUOUS
 62
     1
  5
21F
 10
286.404
 20
113.85875
 30
0.0
 11
286.404
 21
115.057083
 31
0.0
  0
LINE
  8
1
  6
CONTINUOUS
 62
     1
  5
220
 10
286.404
 20
126.21875
 30
0.0
 11
286.404
 21
127.290417
 31
0.0
  0
LINE
  8
1
  6
CONTINUOUS
 62
     1
  5
221
 10
286.404
 20
105.34875
 30
0.0
 11
286.404
 21
109.192083
 31
0.0
  0
LINE
  8
1
  6
CONTINUOUS
 62
     1
  5
222
 10
300.989
 20
105.34875
 30
0.0
 11
300.989
 21
109.192083
 31
0.0
  0
LINE
  8
1
  6
CONTINUOUS
 62
     1
  5
223
 10
279.090667
 20
109.192083
 30
0.0
 11
273.382333
 21
109.192083
 31
0.0
  0
LINE
  8
1
  6
CONTINUOUS
 62
     1
  5
224
 10
279.090667
 20
105.34875
 30
0.0
 11
273.382333
 21
105.34875
 31
0.0
  0
LINE
  8
1
  6
CONTINUOUS
 62
     1
  5
225
 10
275.382333
 20
109.192083
 30
0.0
 11
275.382333
 21
113.017083
 31
0.0
  0
LINE
  8
1
  6
CONTINUOUS
 62
     1
  5
226
 10
275.382333
 20
101.52375
 30
0.0
 11
275.382333
 21
105.34875
 31
0.0
  0
INSERT
  8
1
  6
CONTINUOUS
 62
     1
  5
227
  2
LDR
 10
275.382333
 20
109.192083
 30
0.0
 41
200.0
 42
200.0
 50
270.0
210
0.0
220
0.0
230
1.0
  0
INSERT
  8
1
  6
CONTINUOUS
 62
     1
  5
228
  2
LDR
 10
275.382333
 20
105.34875
 30
0.0
 41
200.0
 42
200.0
 50
90.0
210
0.0
220
0.0
230
1.0
  0
LINE
  8
1
  6
DASHED
 62
     1
  5
229
 10
379.274
 20
-11.437917
 30
0.0
 11
379.274
 21
26.94375
 31
0.0
  0
POLYLINE
  8
1
  6
CONTINUOUS
 62
     1
  5
22A
 66
     1
 10
0.0
 20
0.0
 30
0.0
 70
     1
  0
VERTEX
  8
1
  6
CONTINUOUS
 62
     1
  5
22B
 10
371.734
 20
105.34875
 30
0.0
  0
VERTEX
  8
1
  6
CONTINUOUS
 62
     1
  5
22C
 10
382.577333
 20
105.34875
 30
0.0
  0
VERTEX
  8
1
  6
CONTINUOUS
 62
     1
  5
22D
 10
382.577333
 20
99.737083
 30
0.0
  0
VERTEX
  8
1
  6
CONTINUOUS
 62
     1
  5
22E
 10
371.734
 20
99.737083
 30
0.0
  0
SEQEND
  8
1
  6
CONTINUOUS
 62
     1
  5
22F
  0
POLYLINE
  8
1
  6
CONTINUOUS
 62
     1
  5
230
 66
     1
 10
0.0
 20
0.0
 30
0.0
 70
     1
  0
VERTEX
  8
1
  6
CONTINUOUS
 62
     1
  5
231
 10
371.862333
 20
98.665417
 30
0.0
  0
VERTEX
  8
1
  6
CONTINUOUS
 62
     1
  5
232
 10
382.894
 20
98.665417
 30
0.0
  0
VERTEX
  8
1
  6
CONTINUOUS
 62
     1
  5
233
 10
382.894
 20
87.50375
 30
0.0
  0
VERTEX
  8
1
  6
CONTINUOUS
 62
     1
  5
234
 10
371.862333
 20
87.50375
 30
0.0
  0
SEQEND
  8
1
  6
CONTINUOUS
 62
     1
  5
235
  0
POLYLINE
  8
1
  6
CONTINUOUS
 62
     1
  5
236
 66
     1
 10
0.0
 20
0.0
 30
0.0
 70
     1
  0
VERTEX
  8
1
  6
CONTINUOUS
 62
     1
  5
237
 10
372.995667
 20
86.305417
 30
0.0
  0
VERTEX
  8
1
  6
CONTINUOUS
 62
     1
  5
238
 10
381.759
 20
86.305417
 30
0.0
  0
VERTEX
  8
1
  6
CONTINUOUS
 62
     1
  5
239
 10
381.759
 20
81.63875
 30
0.0
  0
VERTEX
  8
1
  6
CONTINUOUS
 62
     1
  5
23A
 10
372.995667
 20
81.63875
 30
0.0
  0
SEQEND
  8
1
  6
CONTINUOUS
 62
     1
  5
23B
  0
LINE
  8
1
  6
CONTINUOUS
 62
     1
  5
23C
 10
376.077333
 20
99.737083
 30
0.0
 11
376.077333
 21
98.665417
 31
0.0
  0
LINE
  8
1
  6
CONTINUOUS
 62
     1
  5
23D
 10
378.167333
 20
99.737083
 30
0.0
 11
378.167333
 21
98.665417
 31
0.0
  0
LINE
  8
1
  6
CONTINUOUS
 62
     1
  5
23E
 10
376.274
 20
87.50375
 30
0.0
 11
376.274
 21
86.305417
 31
0.0
  0
LINE
  8
1
  6
CONTINUOUS
 62
     1
  5
23F
 10
378.310667
 20
87.50375
 30
0.0
 11
378.310667
 21
86.305417
 31
0.0
  0
POLYLINE
  8
1
  6
CONTINUOUS
 62
     1
  5
240
 66
     1
 10
0.0
 20
0.0
 30
0.0
 70
     1
  0
VERTEX
  8
1
  6
CONTINUOUS
 62
     1
  5
241
 10
386.319
 20
105.34875
 30
0.0
  0
VERTEX
  8
1
  6
CONTINUOUS
 62
     1
  5
242
 10
397.162333
 20
105.34875
 30
0.0
  0
VERTEX
  8
1
  6
CONTINUOUS
 62
     1
  5
243
 10
397.162333
 20
99.737083
 30
0.0
  0
VERTEX
  8
1
  6
CONTINUOUS
 62
     1
  5
244
 10
386.319
 20
99.737083
 30
0.0
  0
SEQEND
  8
1
  6
CONTINUOUS
 62
     1
  5
245
  0
POLYLINE
  8
1
  6
CONTINUOUS
 62
     1
  5
246
 66
     1
 10
0.0
 20
0.0
 30
0.0
 70
     1
  0
VERTEX
  8
1
  6
CONTINUOUS
 62
     1
  5
247
 10
386.447333
 20
98.665417
 30
0.0
  0
VERTEX
  8
1
  6
CONTINUOUS
 62
     1
  5
248
 10
397.479
 20
98.665417
 30
0.0
  0
VERTEX
  8
1
  6
CONTINUOUS
 62
     1
  5
249
 10
397.479
 20
87.50375
 30
0.0
  0
VERTEX
  8
1
  6
CONTINUOUS
 62
     1
  5
24A
 10
386.447333
 20
87.50375
 30
0.0
  0
SEQEND
  8
1
  6
CONTINUOUS
 62
     1
  5
24B
  0
POLYLINE
  8
1
  6
CONTINUOUS
 62
     1
  5
24C
 66
     1
 10
0.0
 20
0.0
 30
0.0
 70
     1
  0
VERTEX
  8
1
  6
CONTINUOUS
 62
     1
  5
24D
 10
387.580667
 20
86.305417
 30
0.0
  0
VERTEX
  8
1
  6
CONTINUOUS
 62
     1
  5
24E
 10
396.344
 20
86.305417
 30
0.0
  0
VERTEX
  8
1
  6
CONTINUOUS
 62
     1
  5
24F
 10
396.344
 20
81.63875
 30
0.0
  0
VERTEX
  8
1
  6
CONTINUOUS
 62
     1
  5
250
 10
387.580667
 20
81.63875
 30
0.0
  0
SEQEND
  8
1
  6
CONTINUOUS
 62
     1
  5
251
  0
LINE
  8
1
  6
CONTINUOUS
 62
     1
  5
252
 10
390.662333
 20
99.737083
 30
0.0
 11
390.662333
 21
98.665417
 31
0.0
  0
LINE
  8
1
  6
CONTINUOUS
 62
     1
  5
253
 10
392.752333
 20
99.737083
 30
0.0
 11
392.752333
 21
98.665417
 31
0.0
  0
LINE
  8
1
  6
CONTINUOUS
 62
     1
  5
254
 10
390.859
 20
87.50375
 30
0.0
 11
390.859
 21
86.305417
 31
0.0
  0
LINE
  8
1
  6
CONTINUOUS
 62
     1
  5
255
 10
392.895667
 20
87.50375
 30
0.0
 11
392.895667
 21
86.305417
 31
0.0
  0
LINE
  8
1
  6
CONTINUOUS
 62
     1
  5
256
 10
378.329
 20
77.795417
 30
0.0
 11
390.804
 21
77.795417
 31
0.0
  0
LINE
  8
1
  6
CONTINUOUS
 62
     1
  5
257
 10
376.159
 20
75.50875
 30
0.0
 11
376.159
 21
81.63875
 31
0.0
  0
LINE
  8
1
  6
CONTINUOUS
 62
     1
  5
258
 10
378.329
 20
77.795417
 30
0.0
 11
378.329
 21
81.63875
 31
0.0
  0
LINE
  8
1
  6
CONTINUOUS
 62
     1
  5
259
 10
390.804
 20
77.795417
 30
0.0
 11
390.804
 21
81.63875
 31
0.0
  0
LINE
  8
1
  6
CONTINUOUS
 62
     1
  5
25A
 10
392.772333
 20
75.50875
 30
0.0
 11
392.772333
 21
81.63875
 31
0.0
  0
LINE
  8
1
  6
CONTINUOUS
 62
     1
  5
25B
 10
386.219
 20
58.08875
 30
0.0
 11
386.219
 21
75.50875
 31
0.0
  0
LINE
  8
1
  6
CONTINUOUS
 62
     1
  5
25C
 10
376.159
 20
75.50875
 30
0.0
 11
383.490667
 21
75.50875
 31
0.0
  0
LINE
  8
1
  6
CONTINUOUS
 62
     1
  5
25D
 10
386.219
 20
75.50875
 30
0.0
 11
392.750667
 21
75.50875
 31
0.0
  0
LINE
  8
1
  6
CONTINUOUS
 62
     1
  5
25E
 10
383.490667
 20
58.08875
 30
0.0
 11
383.490667
 21
75.50875
 31
0.0
  0
ARC
  8
1
  6
CONTINUOUS
 62
     1
  5
25F
 10
384.854833
 20
74.356917
 30
0.0
 40
1.785405
 50
40.176056
 51
139.823944
210
0.0
220
0.0
230
1.0
  0
ARC
  8
1
  6
CONTINUOUS
 62
     1
  5
260
 10
385.537333
 20
58.572
 30
0.0
 40
0.835583
 50
215.333731
 51
324.666272
210
0.0
220
0.0
230
1.0
  0
ARC
  8
1
  6
CONTINUOUS
 62
     1
  5
261
 10
384.174
 20
58.454423
 30
0.0
 40
0.773554
 50
208.210861
 51
331.789142
210
0.0
220
0.0
230
1.0
  0
ARC
  8
1
  6
CONTINUOUS
 62
     1
  5
262
 10
384.174
 20
57.625243
 30
0.0
 40
0.824323
 50
34.214186
 51
145.785814
210
0.0
220
0.0
230
1.0
  0
LINE
  8
1
  6
CONTINUOUS
 62
     1
  5
263
 10
370.995667
 20
81.63875
 30
0.0
 11
365.920667
 21
81.63875
 31
0.0
  0
LINE
  8
1
  6
CONTINUOUS
 62
     1
  5
264
 10
378.159
 20
76.69875
 30
0.0
 11
365.920667
 21
76.69875
 31
0.0
  0
LINE
  8
1
  6
CONTINUOUS
 62
     1
  5
265
 10
367.920667
 20
81.665417
 30
0.0
 11
367.920667
 21
86.24875
 31
0.0
  0
LINE
  8
1
  6
CONTINUOUS
 62
     1
  5
266
 10
367.920667
 20
72.115417
 30
0.0
 11
367.920667
 21
76.69875
 31
0.0
  0
INSERT
  8
1
  6
CONTINUOUS
 62
     1
  5
267
  2
LDR
 10
367.920667
 20
81.665417
 30
0.0
 41
200.0
 42
200.0
 50
270.0
210
0.0
220
0.0
230
1.0
  0
INSERT
  8
1
  6
CONTINUOUS
 62
     1
  5
268
  2
LDR
 10
367.920667
 20
81.665417
 30
0.0
 41
200.0
 42
200.0
 50
270.0
210
0.0
220
0.0
230
1.0
  0
INSERT
  8
1
  6
CONTINUOUS
 62
     1
  5
269
  2
LDR
 10
367.920667
 20
76.69875
 30
0.0
 41
200.0
 42
200.0
 50
90.0
210
0.0
220
0.0
230
1.0
  0
LINE
  8
1
  6
CONTINUOUS
 62
     1
  5
26A
 10
392.772333
 20
78.777083
 30
0.0
 11
399.185667
 21
79.97375
 31
0.0
  0
LINE
  8
1
  6
CONTINUOUS
 62
     1
  5
26B
 10
399.185667
 20
79.97375
 30
0.0
 11
398.530667
 21
78.66375
 31
0.0
  0
LINE
  8
1
  6
CONTINUOUS
 62
     1
  5
26C
 10
398.530667
 20
78.66375
 30
0.0
 11
403.769
 21
80.57375
 31
0.0
  0
LINE
  8
1
  6
CONTINUOUS
 62
     1
  5
26D
 10
395.789
 20
79.340417
 30
0.0
 11
391.929
 21
72.22375
 31
0.0
  0
LINE
  8
1
  6
CONTINUOUS
 62
     1
  5
26E
 10
391.929
 20
72.22375
 30
0.0
 11
389.424
 21
75.50875
 31
0.0
  0
INSERT
  8
1
  6
CONTINUOUS
 62
     1
  5
26F
  2
LDR
 10
392.772333
 20
78.777083
 30
0.0
 41
199.99997
 42
199.99997
 50
190.569308
210
0.0
220
0.0
230
1.0
  0
INSERT
  8
1
  6
CONTINUOUS
 62
     1
  5
270
  2
LDR
 10
392.772333
 20
78.777083
 30
0.0
 41
199.99997
 42
199.99997
 50
190.569308
210
0.0
220
0.0
230
1.0
  0
INSERT
  8
1
  6
CONTINUOUS
 62
     1
  5
271
  2
LDR
 10
389.424
 20
75.50875
 30
0.0
 41
200.00001
 42
200.00001
 50
127.327574
210
0.0
220
0.0
230
1.0
  0
LINE
  8
1
  6
CONTINUOUS
 62
     1
  5
272
 10
394.772333
 20
75.717083
 30
0.0
 11
406.770667
 21
75.717083
 31
0.0
  0
LINE
  8
1
  6
CONTINUOUS
 62
     1
  5
273
 10
359.954
 20
26.94375
 30
0.0
 11
406.770667
 21
26.94375
 31
0.0
  0
LINE
  8
1
  6
CONTINUOUS
 62
     1
  5
274
 10
404.770667
 20
26.94375
 30
0.0
 11
404.770667
 21
75.717083
 31
0.0
  0
ARC
  8
1
  6
CONTINUOUS
 62
     1
  5
275
 10
385.537333
 20
51.5755
 30
0.0
 40
0.835583
 50
35.333728
 51
144.666269
210
0.0
220
0.0
230
1.0
  0
ARC
  8
1
  6
CONTINUOUS
 62
     1
  5
276
 10
384.174
 20
51.693077
 30
0.0
 40
0.773554
 50
28.210858
 51
151.789139
210
0.0
220
0.0
230
1.0
  0
ARC
  8
1
  6
CONTINUOUS
 62
     1
  5
277
 10
384.174
 20
52.522257
 30
0.0
 40
0.824323
 50
214.214186
 51
325.785814
210
0.0
220
0.0
230
1.0
  0
POLYLINE
  8
1
  6
CONTINUOUS
 62
     1
  5
278
 66
     1
 10
0.0
 20
0.0
 30
0.0
 70
     1
  0
VERTEX
  8
1
  6
CONTINUOUS
 62
     1
  5
279
 10
382.170667
 20
31.965417
 30
0.0
  0
VERTEX
  8
1
  6
CONTINUOUS
 62
     1
  5
27A
 10
387.215667
 20
31.965417
 30
0.0
  0
VERTEX
  8
1
  6
CONTINUOUS
 62
     1
  5
27B
 10
387.215667
 20
30.100417
 30
0.0
  0
VERTEX
  8
1
  6
CONTINUOUS
 62
     1
  5
27C
 10
382.170667
 20
30.100417
 30
0.0
  0
SEQEND
  8
1
  6
CONTINUOUS
 62
     1
  5
27D
  0
LINE
  8
1
  6
CONTINUOUS
 62
     1
  5
27E
 10
382.170667
 20
31.03375
 30
0.0
 11
387.215667
 21
31.03375
 31
0.0
  0
LINE
  8
1
  6
CONTINUOUS
 62
     1
  5
27F
 10
386.219
 20
52.05875
 30
0.0
 11
386.219
 21
31.965417
 31
0.0
  0
LINE
  8
1
  6
CONTINUOUS
 62
     1
  5
280
 10
383.492333
 20
52.05875
 30
0.0
 11
383.492333
 21
31.965417
 31
0.0
  0
INSERT
  8
1
  6
CONTINUOUS
 62
     1
  5
281
  2
LDR
 10
404.770667
 20
26.94375
 30
0.0
 41
200.0
 42
200.0
 50
270.0
210
0.0
220
0.0
230
1.0
  0
INSERT
  8
1
  6
CONTINUOUS
 62
     1
  5
282
  2
LDR
 10
404.770667
 20
75.717083
 30
0.0
 41
200.0
 42
200.0
 50
90.0
210
0.0
220
0.0
230
1.0
  0
LINE
  8
1
  6
CONTINUOUS
 62
     1
  5
283
 10
389.215667
 20
31.150417
 30
0.0
 11
398.074
 21
31.150417
 31
0.0
  0
LINE
  8
1
  6
CONTINUOUS
 62
     1
  5
284
 10
388.219
 20
2.582083
 30
0.0
 11
398.074
 21
2.582083
 31
0.0
  0
LINE
  8
1
  6
HIDDEN
 62
     1
  5
285
 10
383.492333
 20
2.582083
 30
0.0
 11
386.219
 21
2.582083
 31
0.0
  0
LINE
  8
1
  6
CONTINUOUS
 62
     1
  5
286
 10
396.074
 20
31.150417
 30
0.0
 11
396.074
 21
2.582083
 31
0.0
  0
LINE
  8
1
  6
CONTINUOUS
 62
     1
  5
287
 10
380.170667
 20
31.240417
 30
0.0
 11
375.314
 21
31.240417
 31
0.0
  0
LINE
  8
1
  6
CONTINUOUS
 62
     1
  5
288
 10
377.314
 20
31.240417
 30
0.0
 11
377.314
 21
35.83375
 31
0.0
  0
LINE
  8
1
  6
CONTINUOUS
 62
     1
  5
289
 10
377.314
 20
22.350417
 30
0.0
 11
377.314
 21
26.94375
 31
0.0
  0
INSERT
  8
1
  6
CONTINUOUS
 62
     1
  5
28A
  2
LDR
 10
377.314
 20
31.240417
 30
0.0
 41
200.0
 42
200.0
 50
270.0
210
0.0
220
0.0
230
1.0
  0
INSERT
  8
1
  6
CONTINUOUS
 62
     1
  5
28B
  2
LDR
 10
377.314
 20
31.240417
 30
0.0
 41
200.0
 42
200.0
 50
270.0
210
0.0
220
0.0
230
1.0
  0
INSERT
  8
1
  6
CONTINUOUS
 62
     1
  5
28C
  2
LDR
 10
377.314
 20
26.94375
 30
0.0
 41
200.0
 42
200.0
 50
90.0
210
0.0
220
0.0
230
1.0
  0
INSERT
  8
1
  6
CONTINUOUS
 62
     1
  5
28D
  2
LDR
 10
396.074
 20
31.150417
 30
0.0
 41
200.0
 42
200.0
 50
90.0
210
0.0
220
0.0
230
1.0
  0
INSERT
  8
1
  6
CONTINUOUS
 62
     1
  5
28E
  2
LDR
 10
396.074
 20
2.582083
 30
0.0
 41
200.0
 42
200.0
 50
270.0
210
0.0
220
0.0
230
1.0
  0
LINE
  8
1
  6
CONTINUOUS
 62
     1
  5
28F
 10
383.490667
 20
63.55375
 30
0.0
 11
378.465667
 21
60.85875
 31
0.0
  0
LINE
  8
1
  6
CONTINUOUS
 62
     1
  5
290
 10
378.465667
 20
60.85875
 30
0.0
 11
378.524
 21
63.87875
 31
0.0
  0
LINE
  8
1
  6
CONTINUOUS
 62
     1
  5
291
 10
378.524
 20
63.87875
 30
0.0
 11
374.227333
 21
61.43875
 31
0.0
  0
INSERT
  8
1
  6
CONTINUOUS
 62
     1
  5
292
  2
LDR
 10
383.490667
 20
63.55375
 30
0.0
 41
199.999947
 42
199.999947
 50
28.205478
210
0.0
220
0.0
230
1.0
  0
LINE
  8
1
  6
CONTINUOUS
 62
     1
  5
293
 10
401.047333
 20
26.83875
 30
0.0
 11
401.047333
 21
-11.437917
 31
0.0
  0
LINE
  8
1
  6
CONTINUOUS
 62
     1
  5
294
 10
392.410667
 20
-11.437917
 30
0.0
 11
403.047333
 21
-11.437917
 31
0.0
  0
INSERT
  8
1
  6
CONTINUOUS
 62
     1
  5
295
  2
LDR
 10
401.047333
 20
26.83875
 30
0.0
 41
200.0
 42
200.0
 50
90.0
210
0.0
220
0.0
230
1.0
  0
INSERT
  8
1
  6
CONTINUOUS
 62
     1
  5
296
  2
LDR
 10
401.047333
 20
-11.437917
 30
0.0
 41
200.0
 42
200.0
 50
270.0
210
0.0
220
0.0
230
1.0
  0
LINE
  8
1
  6
DASHED
 62
     1
  5
297
 10
379.274
 20
-11.437917
 30
0.0
 11
390.410667
 21
-11.437917
 31
0.0
  0
LINE
  8
1
  6
DASHED
 62
     1
  5
298
 10
390.410667
 20
-11.437917
 30
0.0
 11
390.410667
 21
26.94375
 31
0.0
  0
LINE
  8
1
  6
CONTINUOUS
 62
     1
  5
299
 10
379.274
 20
-13.437917
 30
0.0
 11
379.274
 21
-18.207917
 31
0.0
  0
LINE
  8
1
  6
CONTINUOUS
 62
     1
  5
29A
 10
390.410667
 20
-13.437917
 30
0.0
 11
390.410667
 21
-18.207917
 31
0.0
  0
LINE
  8
1
  6
CONTINUOUS
 62
     1
  5
29B
 10
379.274
 20
-16.207917
 30
0.0
 11
390.410667
 21
-16.207917
 31
0.0
  0
INSERT
  8
1
  6
CONTINUOUS
 62
     1
  5
29C
  2
LDR
 10
379.274
 20
-16.207917
 30
0.0
 41
200.0
 42
200.0
 50
180.0
210
0.0
220
0.0
230
1.0
  0
INSERT
  8
1
  6
CONTINUOUS
 62
     1
  5
29D
  2
LDR
 10
379.274
 20
-16.207917
 30
0.0
 41
200.0
 42
200.0
 50
180.0
210
0.0
220
0.0
230
1.0
  0
INSERT
  8
1
  6
CONTINUOUS
 62
     1
  5
29E
  2
LDR
 10
390.410667
 20
-16.207917
 30
0.0
 41
200.0
 42
200.0
210
0.0
220
0.0
230
1.0
  0
LINE
  8
1
  6
CONTINUOUS
 62
     1
  5
29F
 10
383.492333
 20
30.100417
 30
0.0
 11
383.492333
 21
26.94375
 31
0.0
  0
LINE
  8
1
  6
HIDDEN
 62
     1
  5
2A0
 10
383.492333
 20
26.94375
 30
0.0
 11
383.492333
 21
2.582083
 31
0.0
  0
LINE
  8
1
  6
CONTINUOUS
 62
     1
  5
2A1
 10
386.219
 20
30.100417
 30
0.0
 11
386.219
 21
26.94375
 31
0.0
  0
LINE
  8
1
  6
HIDDEN
 62
     1
  5
2A2
 10
386.219
 20
26.94375
 30
0.0
 11
386.219
 21
2.582083
 31
0.0
  0
LINE
  8
1
  6
CONTINUOUS
 62
     1
  5
2A3
 10
390.662333
 20
105.34875
 30
0.0
 11
390.662333
 21
109.192083
 31
0.0
  0
POLYLINE
  8
1
  6
CONTINUOUS
 62
     1
  5
2A4
 66
     1
 10
0.0
 20
0.0
 30
0.0
 70
     1
  0
VERTEX
  8
1
  6
CONTINUOUS
 62
     1
  5
2A5
 10
387.439
 20
113.85875
 30
0.0
  0
VERTEX
  8
1
  6
CONTINUOUS
 62
     1
  5
2A6
 10
396.202333
 20
113.85875
 30
0.0
  0
VERTEX
  8
1
  6
CONTINUOUS
 62
     1
  5
2A7
 10
396.202333
 20
109.192083
 30
0.0
  0
VERTEX
  8
1
  6
CONTINUOUS
 62
     1
  5
2A8
 10
387.439
 20
109.192083
 30
0.0
  0
SEQEND
  8
1
  6
CONTINUOUS
 62
     1
  5
2A9
  0
POLYLINE
  8
1
  6
CONTINUOUS
 62
     1
  5
2AA
 66
     1
 10
0.0
 20
0.0
 30
0.0
 70
     1
  0
VERTEX
  8
1
  6
CONTINUOUS
 62
     1
  5
2AB
 10
386.177333
 20
132.902083
 30
0.0
  0
VERTEX
  8
1
  6
CONTINUOUS
 62
     1
  5
2AC
 10
397.020667
 20
132.902083
 30
0.0
  0
VERTEX
  8
1
  6
CONTINUOUS
 62
     1
  5
2AD
 10
397.020667
 20
127.290417
 30
0.0
  0
VERTEX
  8
1
  6
CONTINUOUS
 62
     1
  5
2AE
 10
386.177333
 20
127.290417
 30
0.0
  0
SEQEND
  8
1
  6
CONTINUOUS
 62
     1
  5
2AF
  0
POLYLINE
  8
1
  6
CONTINUOUS
 62
     1
  5
2B0
 66
     1
 10
0.0
 20
0.0
 30
0.0
 70
     1
  0
VERTEX
  8
1
  6
CONTINUOUS
 62
     1
  5
2B1
 10
386.305667
 20
126.21875
 30
0.0
  0
VERTEX
  8
1
  6
CONTINUOUS
 62
     1
  5
2B2
 10
397.337333
 20
126.21875
 30
0.0
  0
VERTEX
  8
1
  6
CONTINUOUS
 62
     1
  5
2B3
 10
397.337333
 20
115.057083
 30
0.0
  0
VERTEX
  8
1
  6
CONTINUOUS
 62
     1
  5
2B4
 10
386.305667
 20
115.057083
 30
0.0
  0
SEQEND
  8
1
  6
CONTINUOUS
 62
     1
  5
2B5
  0
LINE
  8
1
  6
CONTINUOUS
 62
     1
  5
2B6
 10
390.662333
 20
113.85875
 30
0.0
 11
390.662333
 21
115.057083
 31
0.0
  0
LINE
  8
1
  6
CONTINUOUS
 62
     1
  5
2B7
 10
390.662333
 20
126.21875
 30
0.0
 11
390.662333
 21
127.290417
 31
0.0
  0
LINE
  8
1
  6
CONTINUOUS
 62
     1
  5
2B8
 10
392.752333
 20
113.85875
 30
0.0
 11
392.752333
 21
115.057083
 31
0.0
  0
LINE
  8
1
  6
CONTINUOUS
 62
     1
  5
2B9
 10
392.752333
 20
126.21875
 30
0.0
 11
392.752333
 21
127.290417
 31
0.0
  0
LINE
  8
1
  6
CONTINUOUS
 62
     1
  5
2BA
 10
376.077333
 20
105.34875
 30
0.0
 11
376.077333
 21
109.192083
 31
0.0
  0
POLYLINE
  8
1
  6
CONTINUOUS
 62
     1
  5
2BB
 66
     1
 10
0.0
 20
0.0
 30
0.0
 70
     1
  0
VERTEX
  8
1
  6
CONTINUOUS
 62
     1
  5
2BC
 10
372.854
 20
113.85875
 30
0.0
  0
VERTEX
  8
1
  6
CONTINUOUS
 62
     1
  5
2BD
 10
381.617333
 20
113.85875
 30
0.0
  0
VERTEX
  8
1
  6
CONTINUOUS
 62
     1
  5
2BE
 10
381.617333
 20
109.192083
 30
0.0
  0
VERTEX
  8
1
  6
CONTINUOUS
 62
     1
  5
2BF
 10
372.854
 20
109.192083
 30
0.0
  0
SEQEND
  8
1
  6
CONTINUOUS
 62
     1
  5
2C0
  0
POLYLINE
  8
1
  6
CONTINUOUS
 62
     1
  5
2C1
 66
     1
 10
0.0
 20
0.0
 30
0.0
 70
     1
  0
VERTEX
  8
1
  6
CONTINUOUS
 62
     1
  5
2C2
 10
371.592333
 20
132.902083
 30
0.0
  0
VERTEX
  8
1
  6
CONTINUOUS
 62
     1
  5
2C3
 10
382.435667
 20
132.902083
 30
0.0
  0
VERTEX
  8
1
  6
CONTINUOUS
 62
     1
  5
2C4
 10
382.435667
 20
127.290417
 30
0.0
  0
VERTEX
  8
1
  6
CONTINUOUS
 62
     1
  5
2C5
 10
371.592333
 20
127.290417
 30
0.0
  0
SEQEND
  8
1
  6
CONTINUOUS
 62
     1
  5
2C6
  0
POLYLINE
  8
1
  6
CONTINUOUS
 62
     1
  5
2C7
 66
     1
 10
0.0
 20
0.0
 30
0.0
 70
     1
  0
VERTEX
  8
1
  6
CONTINUOUS
 62
     1
  5
2C8
 10
371.720667
 20
126.21875
 30
0.0
  0
VERTEX
  8
1
  6
CONTINUOUS
 62
     1
  5
2C9
 10
382.752333
 20
126.21875
 30
0.0
  0
VERTEX
  8
1
  6
CONTINUOUS
 62
     1
  5
2CA
 10
382.752333
 20
115.057083
 30
0.0
  0
VERTEX
  8
1
  6
CONTINUOUS
 62
     1
  5
2CB
 10
371.720667
 20
115.057083
 30
0.0
  0
SEQEND
  8
1
  6
CONTINUOUS
 62
     1
  5
2CC
  0
LINE
  8
1
  6
CONTINUOUS
 62
     1
  5
2CD
 10
376.077333
 20
113.85875
 30
0.0
 11
376.077333
 21
115.057083
 31
0.0
  0
LINE
  8
1
  6
CONTINUOUS
 62
     1
  5
2CE
 10
376.077333
 20
126.21875
 30
0.0
 11
376.077333
 21
127.290417
 31
0.0
  0
LINE
  8
1
  6
CONTINUOUS
 62
     1
  5
2CF
 10
378.167333
 20
113.85875
 30
0.0
 11
378.167333
 21
115.057083
 31
0.0
  0
LINE
  8
1
  6
CONTINUOUS
 62
     1
  5
2D0
 10
378.167333
 20
126.21875
 30
0.0
 11
378.167333
 21
127.290417
 31
0.0
  0
LINE
  8
1
  6
CONTINUOUS
 62
     1
  5
2D1
 10
378.167333
 20
105.34875
 30
0.0
 11
378.167333
 21
109.192083
 31
0.0
  0
LINE
  8
1
  6
CONTINUOUS
 62
     1
  5
2D2
 10
392.752333
 20
105.34875
 30
0.0
 11
392.752333
 21
109.192083
 31
0.0
  0
LINE
  8
1
  6
CONTINUOUS
 62
     1
  5
2D3
 10
370.854
 20
109.192083
 30
0.0
 11
365.145667
 21
109.192083
 31
0.0
  0
LINE
  8
1
  6
CONTINUOUS
 62
     1
  5
2D4
 10
370.854
 20
105.34875
 30
0.0
 11
365.145667
 21
105.34875
 31
0.0
  0
LINE
  8
1
  6
CONTINUOUS
 62
     1
  5
2D5
 10
367.145667
 20
109.192083
 30
0.0
 11
367.145667
 21
113.017083
 31
0.0
  0
LINE
  8
1
  6
CONTINUOUS
 62
     1
  5
2D6
 10
367.145667
 20
101.52375
 30
0.0
 11
367.145667
 21
105.34875
 31
0.0
  0
INSERT
  8
1
  6
CONTINUOUS
 62
     1
  5
2D7
  2
LDR
 10
367.145667
 20
109.192083
 30
0.0
 41
200.0
 42
200.0
 50
270.0
210
0.0
220
0.0
230
1.0
  0
INSERT
  8
1
  6
CONTINUOUS
 62
     1
  5
2D8
  2
LDR
 10
367.145667
 20
105.34875
 30
0.0
 41
200.0
 42
200.0
 50
90.0
210
0.0
220
0.0
230
1.0
  0
LINE
  8
1
  6
CONTINUOUS
 62
     1
  5
2D9
 10
392.752333
 20
132.902083
 30
0.0
 11
392.752333
 21
136.745417
 31
0.0
  0
LINE
  8
1
  6
CONTINUOUS
 62
     1
  5
2DA
 10
390.662333
 20
132.902083
 30
0.0
 11
390.662333
 21
136.745417
 31
0.0
  0
POLYLINE
  8
1
  6
CONTINUOUS
 62
     1
  5
2DB
 66
     1
 10
0.0
 20
0.0
 30
0.0
 70
     1
  0
VERTEX
  8
1
  6
CONTINUOUS
 62
     1
  5
2DC
 10
387.439
 20
141.412083
 30
0.0
  0
VERTEX
  8
1
  6
CONTINUOUS
 62
     1
  5
2DD
 10
396.202333
 20
141.412083
 30
0.0
  0
VERTEX
  8
1
  6
CONTINUOUS
 62
     1
  5
2DE
 10
396.202333
 20
136.745417
 30
0.0
  0
VERTEX
  8
1
  6
CONTINUOUS
 62
     1
  5
2DF
 10
387.439
 20
136.745417
 30
0.0
  0
SEQEND
  8
1
  6
CONTINUOUS
 62
     1
  5
2E0
  0
POLYLINE
  8
1
  6
CONTINUOUS
 62
     1
  5
2E1
 66
     1
 10
0.0
 20
0.0
 30
0.0
 70
     1
  0
VERTEX
  8
1
  6
CONTINUOUS
 62
     1
  5
2E2
 10
386.177333
 20
160.455417
 30
0.0
  0
VERTEX
  8
1
  6
CONTINUOUS
 62
     1
  5
2E3
 10
397.020667
 20
160.455417
 30
0.0
  0
VERTEX
  8
1
  6
CONTINUOUS
 62
     1
  5
2E4
 10
397.020667
 20
154.84375
 30
0.0
  0
VERTEX
  8
1
  6
CONTINUOUS
 62
     1
  5
2E5
 10
386.177333
 20
154.84375
 30
0.0
  0
SEQEND
  8
1
  6
CONTINUOUS
 62
     1
  5
2E6
  0
POLYLINE
  8
1
  6
CONTINUOUS
 62
     1
  5
2E7
 66
     1
 10
0.0
 20
0.0
 30
0.0
 70
     1
  0
VERTEX
  8
1
  6
CONTINUOUS
 62
     1
  5
2E8
 10
386.305667
 20
153.772083
 30
0.0
  0
VERTEX
  8
1
  6
CONTINUOUS
 62
     1
  5
2E9
 10
397.337333
 20
153.772083
 30
0.0
  0
VERTEX
  8
1
  6
CONTINUOUS
 62
     1
  5
2EA
 10
397.337333
 20
142.610417
 30
0.0
  0
VERTEX
  8
1
  6
CONTINUOUS
 62
     1
  5
2EB
 10
386.305667
 20
142.610417
 30
0.0
  0
SEQEND
  8
1
  6
CONTINUOUS
 62
     1
  5
2EC
  0
LINE
  8
1
  6
CONTINUOUS
 62
     1
  5
2ED
 10
386.177333
 20
162.455417
 30
0.0
 11
386.177333
 21
167.72375
 31
0.0
  0
LINE
  8
1
  6
CONTINUOUS
 62
     1
  5
2EE
 10
382.700667
 20
162.455417
 30
0.0
 11
382.700667
 21
167.72375
 31
0.0
  0
LINE
  8
1
  6
CONTINUOUS
 62
     1
  5
2EF
 10
386.177333
 20
165.72375
 30
0.0
 11
391.997333
 21
165.72375
 31
0.0
  0
LINE
  8
1
  6
CONTINUOUS
 62
     1
  5
2F0
 10
376.880667
 20
165.72375
 30
0.0
 11
382.700667
 21
165.72375
 31
0.0
  0
INSERT
  8
1
  6
CONTINUOUS
 62
     1
  5
2F1
  2
LDR
 10
386.177333
 20
165.72375
 30
0.0
 41
200.0
 42
200.0
 50
180.0
210
0.0
220
0.0
230
1.0
  0
INSERT
  8
1
  6
CONTINUOUS
 62
     1
  5
2F2
  2
LDR
 10
386.177333
 20
165.72375
 30
0.0
 41
200.0
 42
200.0
 50
180.0
210
0.0
220
0.0
230
1.0
  0
INSERT
  8
1
  6
CONTINUOUS
 62
     1
  5
2F3
  2
LDR
 10
382.700667
 20
165.72375
 30
0.0
 41
200.0
 42
200.0
210
0.0
220
0.0
230
1.0
  0
LINE
  8
1
  6
CONTINUOUS
 62
     1
  5
2F4
 10
390.662333
 20
141.412083
 30
0.0
 11
390.662333
 21
142.610417
 31
0.0
  0
LINE
  8
1
  6
CONTINUOUS
 62
     1
  5
2F5
 10
390.662333
 20
153.772083
 30
0.0
 11
390.662333
 21
154.84375
 31
0.0
  0
LINE
  8
1
  6
CONTINUOUS
 62
     1
  5
2F6
 10
392.752333
 20
141.412083
 30
0.0
 11
392.752333
 21
142.610417
 31
0.0
  0
LINE
  8
1
  6
CONTINUOUS
 62
     1
  5
2F7
 10
392.752333
 20
153.772083
 30
0.0
 11
392.752333
 21
154.84375
 31
0.0
  0
POLYLINE
  8
1
  6
CONTINUOUS
 62
     1
  5
2F8
 66
     1
 10
0.0
 20
0.0
 30
0.0
 70
     1
  0
VERTEX
  8
1
  6
CONTINUOUS
 62
     1
  5
2F9
 10
372.854
 20
141.412083
 30
0.0
  0
VERTEX
  8
1
  6
CONTINUOUS
 62
     1
  5
2FA
 10
381.617333
 20
141.412083
 30
0.0
  0
VERTEX
  8
1
  6
CONTINUOUS
 62
     1
  5
2FB
 10
381.617333
 20
136.745417
 30
0.0
  0
VERTEX
  8
1
  6
CONTINUOUS
 62
     1
  5
2FC
 10
372.854
 20
136.745417
 30
0.0
  0
SEQEND
  8
1
  6
CONTINUOUS
 62
     1
  5
2FD
  0
POLYLINE
  8
1
  6
CONTINUOUS
 62
     1
  5
2FE
 66
     1
 10
0.0
 20
0.0
 30
0.0
 70
     1
  0
VERTEX
  8
1
  6
CONTINUOUS
 62
     1
  5
2FF
 10
371.592333
 20
160.455417
 30
0.0
  0
VERTEX
  8
1
  6
CONTINUOUS
 62
     1
  5
300
 10
382.435667
 20
160.455417
 30
0.0
  0
VERTEX
  8
1
  6
CONTINUOUS
 62
     1
  5
301
 10
382.435667
 20
154.84375
 30
0.0
  0
VERTEX
  8
1
  6
CONTINUOUS
 62
     1
  5
302
 10
371.592333
 20
154.84375
 30
0.0
  0
SEQEND
  8
1
  6
CONTINUOUS
 62
     1
  5
303
  0
POLYLINE
  8
1
  6
CONTINUOUS
 62
     1
  5
304
 66
     1
 10
0.0
 20
0.0
 30
0.0
 70
     1
  0
VERTEX
  8
1
  6
CONTINUOUS
 62
     1
  5
305
 10
371.720667
 20
153.772083
 30
0.0
  0
VERTEX
  8
1
  6
CONTINUOUS
 62
     1
  5
306
 10
382.752333
 20
153.772083
 30
0.0
  0
VERTEX
  8
1
  6
CONTINUOUS
 62
     1
  5
307
 10
382.752333
 20
142.610417
 30
0.0
  0
VERTEX
  8
1
  6
CONTINUOUS
 62
     1
  5
308
 10
371.720667
 20
142.610417
 30
0.0
  0
SEQEND
  8
1
  6
CONTINUOUS
 62
     1
  5
309
  0
LINE
  8
1
  6
CONTINUOUS
 62
     1
  5
30A
 10
376.077333
 20
141.412083
 30
0.0
 11
376.077333
 21
142.610417
 31
0.0
  0
LINE
  8
1
  6
CONTINUOUS
 62
     1
  5
30B
 10
376.077333
 20
153.772083
 30
0.0
 11
376.077333
 21
154.84375
 31
0.0
  0
LINE
  8
1
  6
CONTINUOUS
 62
     1
  5
30C
 10
378.167333
 20
141.412083
 30
0.0
 11
378.167333
 21
142.610417
 31
0.0
  0
LINE
  8
1
  6
CONTINUOUS
 62
     1
  5
30D
 10
378.167333
 20
153.772083
 30
0.0
 11
378.167333
 21
154.84375
 31
0.0
  0
LINE
  8
1
  6
CONTINUOUS
 62
     1
  5
30E
 10
370.854
 20
136.745417
 30
0.0
 11
365.145667
 21
136.745417
 31
0.0
  0
LINE
  8
1
  6
CONTINUOUS
 62
     1
  5
30F
 10
370.854
 20
132.902083
 30
0.0
 11
365.145667
 21
132.902083
 31
0.0
  0
LINE
  8
1
  6
CONTINUOUS
 62
     1
  5
310
 10
367.145667
 20
136.745417
 30
0.0
 11
367.145667
 21
140.570417
 31
0.0
  0
LINE
  8
1
  6
CONTINUOUS
 62
     1
  5
311
 10
367.145667
 20
129.077083
 30
0.0
 11
367.145667
 21
132.902083
 31
0.0
  0
INSERT
  8
1
  6
CONTINUOUS
 62
     1
  5
312
  2
LDR
 10
367.145667
 20
136.745417
 30
0.0
 41
200.0
 42
200.0
 50
270.0
210
0.0
220
0.0
230
1.0
  0
INSERT
  8
1
  6
CONTINUOUS
 62
     1
  5
313
  2
LDR
 10
367.145667
 20
132.902083
 30
0.0
 41
200.0
 42
200.0
 50
90.0
210
0.0
220
0.0
230
1.0
  0
LINE
  8
1
  6
DASHED
 62
     1
  5
314
 10
468.407333
 20
-11.437917
 30
0.0
 11
468.407333
 21
26.94375
 31
0.0
  0
LINE
  8
1
  6
CONTINUOUS
 62
     1
  5
315
 10
475.352333
 20
58.08875
 30
0.0
 11
475.352333
 21
75.50875
 31
0.0
  0
LINE
  8
1
  6
CONTINUOUS
 62
     1
  5
316
 10
472.624
 20
58.08875
 30
0.0
 11
472.624
 21
75.50875
 31
0.0
  0
ARC
  8
1
  6
CONTINUOUS
 62
     1
  5
317
 10
474.670667
 20
58.572
 30
0.0
 40
0.835583
 50
215.333731
 51
324.666272
210
0.0
220
0.0
230
1.0
  0
ARC
  8
1
  6
CONTINUOUS
 62
     1
  5
318
 10
473.307333
 20
58.454423
 30
0.0
 40
0.773554
 50
208.210861
 51
331.789142
210
0.0
220
0.0
230
1.0
  0
ARC
  8
1
  6
CONTINUOUS
 62
     1
  5
319
 10
473.307333
 20
57.625243
 30
0.0
 40
0.824323
 50
34.214186
 51
145.785814
210
0.0
220
0.0
230
1.0
  0
LINE
  8
1
  6
CONTINUOUS
 62
     1
  5
31A
 10
489.084
 20
75.717083
 30
0.0
 11
495.904
 21
75.717083
 31
0.0
  0
LINE
  8
1
  6
CONTINUOUS
 62
     1
  5
31B
 10
441.832333
 20
26.94375
 30
0.0
 11
506.542333
 21
26.94375
 31
0.0
  0
LINE
  8
1
  6
CONTINUOUS
 62
     1
  5
31C
 10
493.904
 20
26.94375
 30
0.0
 11
493.904
 21
75.717083
 31
0.0
  0
ARC
  8
1
  6
CONTINUOUS
 62
     1
  5
31D
 10
474.670667
 20
51.5755
 30
0.0
 40
0.835583
 50
35.333728
 51
144.666269
210
0.0
220
0.0
230
1.0
  0
ARC
  8
1
  6
CONTINUOUS
 62
     1
  5
31E
 10
473.307333
 20
51.693077
 30
0.0
 40
0.773554
 50
28.210858
 51
151.789139
210
0.0
220
0.0
230
1.0
  0
ARC
  8
1
  6
CONTINUOUS
 62
     1
  5
31F
 10
473.307333
 20
52.522257
 30
0.0
 40
0.824323
 50
214.214186
 51
325.785814
210
0.0
220
0.0
230
1.0
  0
POLYLINE
  8
1
  6
CONTINUOUS
 62
     1
  5
320
 66
     1
 10
0.0
 20
0.0
 30
0.0
 70
     1
  0
VERTEX
  8
1
  6
CONTINUOUS
 62
     1
  5
321
 10
471.304
 20
31.965417
 30
0.0
  0
VERTEX
  8
1
  6
CONTINUOUS
 62
     1
  5
322
 10
476.349
 20
31.965417
 30
0.0
  0
VERTEX
  8
1
  6
CONTINUOUS
 62
     1
  5
323
 10
476.349
 20
30.100417
 30
0.0
  0
VERTEX
  8
1
  6
CONTINUOUS
 62
     1
  5
324
 10
471.304
 20
30.100417
 30
0.0
  0
SEQEND
  8
1
  6
CONTINUOUS
 62
     1
  5
325
  0
LINE
  8
1
  6
CONTINUOUS
 62
     1
  5
326
 10
471.304
 20
31.03375
 30
0.0
 11
476.349
 21
31.03375
 31
0.0
  0
LINE
  8
1
  6
CONTINUOUS
 62
     1
  5
327
 10
475.352333
 20
52.05875
 30
0.0
 11
475.352333
 21
31.965417
 31
0.0
  0
LINE
  8
1
  6
CONTINUOUS
 62
     1
  5
328
 10
472.625667
 20
52.05875
 30
0.0
 11
472.625667
 21
31.965417
 31
0.0
  0
INSERT
  8
1
  6
CONTINUOUS
 62
     1
  5
329
  2
LDR
 10
493.904
 20
26.94375
 30
0.0
 41
200.0
 42
200.0
 50
270.0
210
0.0
220
0.0
230
1.0
  0
INSERT
  8
1
  6
CONTINUOUS
 62
     1
  5
32A
  2
LDR
 10
493.904
 20
75.717083
 30
0.0
 41
200.0
 42
200.0
 50
90.0
210
0.0
220
0.0
230
1.0
  0
LINE
  8
1
  6
CONTINUOUS
 62
     1
  5
32B
 10
478.349
 20
31.150417
 30
0.0
 11
487.207333
 21
31.150417
 31
0.0
  0
LINE
  8
1
  6
CONTINUOUS
 62
     1
  5
32C
 10
477.352333
 20
2.582083
 30
0.0
 11
487.207333
 21
2.582083
 31
0.0
  0
LINE
  8
1
  6
HIDDEN
 62
     1
  5
32D
 10
472.625667
 20
2.582083
 30
0.0
 11
475.352333
 21
2.582083
 31
0.0
  0
LINE
  8
1
  6
CONTINUOUS
 62
     1
  5
32E
 10
485.207333
 20
31.150417
 30
0.0
 11
485.207333
 21
2.582083
 31
0.0
  0
LINE
  8
1
  6
CONTINUOUS
 62
     1
  5
32F
 10
469.304
 20
31.240417
 30
0.0
 11
464.447333
 21
31.240417
 31
0.0
  0
LINE
  8
1
  6
CONTINUOUS
 62
     1
  5
330
 10
466.447333
 20
31.240417
 30
0.0
 11
466.447333
 21
35.83375
 31
0.0
  0
LINE
  8
1
  6
CONTINUOUS
 62
     1
  5
331
 10
466.447333
 20
22.350417
 30
0.0
 11
466.447333
 21
26.94375
 31
0.0
  0
INSERT
  8
1
  6
CONTINUOUS
 62
     1
  5
332
  2
LDR
 10
466.447333
 20
31.240417
 30
0.0
 41
200.0
 42
200.0
 50
270.0
210
0.0
220
0.0
230
1.0
  0
INSERT
  8
1
  6
CONTINUOUS
 62
     1
  5
333
  2
LDR
 10
466.447333
 20
31.240417
 30
0.0
 41
200.0
 42
200.0
 50
270.0
210
0.0
220
0.0
230
1.0
  0
INSERT
  8
1
  6
CONTINUOUS
 62
     1
  5
334
  2
LDR
 10
466.447333
 20
26.94375
 30
0.0
 41
200.0
 42
200.0
 50
90.0
210
0.0
220
0.0
230
1.0
  0
INSERT
  8
1
  6
CONTINUOUS
 62
     1
  5
335
  2
LDR
 10
485.207333
 20
31.150417
 30
0.0
 41
200.0
 42
200.0
 50
90.0
210
0.0
220
0.0
230
1.0
  0
INSERT
  8
1
  6
CONTINUOUS
 62
     1
  5
336
  2
LDR
 10
485.207333
 20
2.582083
 30
0.0
 41
200.0
 42
200.0
 50
270.0
210
0.0
220
0.0
230
1.0
  0
LINE
  8
1
  6
CONTINUOUS
 62
     1
  5
337
 10
472.589
 20
63.615417
 30
0.0
 11
466.942333
 21
62.82375
 31
0.0
  0
LINE
  8
1
  6
CONTINUOUS
 62
     1
  5
338
 10
466.942333
 20
62.82375
 30
0.0
 11
468.772333
 21
60.420417
 31
0.0
  0
LINE
  8
1
  6
CONTINUOUS
 62
     1
  5
339
 10
468.772333
 20
60.420417
 30
0.0
 11
463.864
 21
59.852083
 31
0.0
  0
INSERT
  8
1
  6
CONTINUOUS
 62
     1
  5
33A
  2
LDR
 10
472.589
 20
63.615417
 30
0.0
 41
199.999904
 42
-199.999904
 50
7.978088
210
0.0
220
0.0
230
1.0
  0
LINE
  8
1
  6
CONTINUOUS
 62
     1
  5
33B
 10
490.180667
 20
26.83875
 30
0.0
 11
490.180667
 21
-11.437917
 31
0.0
  0
LINE
  8
1
  6
CONTINUOUS
 62
     1
  5
33C
 10
481.544
 20
-11.437917
 30
0.0
 11
492.180667
 21
-11.437917
 31
0.0
  0
INSERT
  8
1
  6
CONTINUOUS
 62
     1
  5
33D
  2
LDR
 10
490.180667
 20
26.83875
 30
0.0
 41
200.0
 42
200.0
 50
90.0
210
0.0
220
0.0
230
1.0
  0
INSERT
  8
1
  6
CONTINUOUS
 62
     1
  5
33E
  2
LDR
 10
490.180667
 20
-11.437917
 30
0.0
 41
200.0
 42
200.0
 50
270.0
210
0.0
220
0.0
230
1.0
  0
LINE
  8
1
  6
DASHED
 62
     1
  5
33F
 10
468.407333
 20
-11.437917
 30
0.0
 11
479.544
 21
-11.437917
 31
0.0
  0
LINE
  8
1
  6
DASHED
 62
     1
  5
340
 10
479.544
 20
-11.437917
 30
0.0
 11
479.544
 21
26.94375
 31
0.0
  0
LINE
  8
1
  6
CONTINUOUS
 62
     1
  5
341
 10
468.407333
 20
-13.437917
 30
0.0
 11
468.407333
 21
-18.207917
 31
0.0
  0
LINE
  8
1
  6
CONTINUOUS
 62
     1
  5
342
 10
479.544
 20
-13.437917
 30
0.0
 11
479.544
 21
-18.207917
 31
0.0
  0
LINE
  8
1
  6
CONTINUOUS
 62
     1
  5
343
 10
468.407333
 20
-16.207917
 30
0.0
 11
479.544
 21
-16.207917
 31
0.0
  0
INSERT
  8
1
  6
CONTINUOUS
 62
     1
  5
344
  2
LDR
 10
468.407333
 20
-16.207917
 30
0.0
 41
200.0
 42
200.0
 50
180.0
210
0.0
220
0.0
230
1.0
  0
INSERT
  8
1
  6
CONTINUOUS
 62
     1
  5
345
  2
LDR
 10
468.407333
 20
-16.207917
 30
0.0
 41
200.0
 42
200.0
 50
180.0
210
0.0
220
0.0
230
1.0
  0
INSERT
  8
1
  6
CONTINUOUS
 62
     1
  5
346
  2
LDR
 10
479.544
 20
-16.207917
 30
0.0
 41
200.0
 42
200.0
210
0.0
220
0.0
230
1.0
  0
LINE
  8
1
  6
CONTINUOUS
 62
     1
  5
347
 10
472.625667
 20
30.100417
 30
0.0
 11
472.625667
 21
26.94375
 31
0.0
  0
LINE
  8
1
  6
HIDDEN
 62
     1
  5
348
 10
472.625667
 20
26.94375
 30
0.0
 11
472.625667
 21
2.582083
 31
0.0
  0
LINE
  8
1
  6
CONTINUOUS
 62
     1
  5
349
 10
475.352333
 20
30.100417
 30
0.0
 11
475.352333
 21
26.94375
 31
0.0
  0
LINE
  8
1
  6
HIDDEN
 62
     1
  5
34A
 10
475.352333
 20
26.94375
 30
0.0
 11
475.352333
 21
2.582083
 31
0.0
  0
LINE
  8
1
  6
CONTINUOUS
 62
     1
  5
34B
 10
472.624
 20
75.50875
 30
0.0
 11
460.892333
 21
75.50875
 31
0.0
  0
LINE
  8
1
  6
CONTINUOUS
 62
     1
  5
34C
 10
487.084
 20
75.50875
 30
0.0
 11
475.352333
 21
75.50875
 31
0.0
  0
LINE
  8
1
  6
HIDDEN
 62
     1
  5
34D
 10
484.730667
 20
77.997083
 30
0.0
 11
463.245667
 21
77.997083
 31
0.0
  0
LINE
  8
1
  6
HIDDEN
 62
     1
  5
34E
 10
463.245667
 20
77.997083
 30
0.0
 11
463.245667
 21
92.885417
 31
0.0
  0
LINE
  8
1
  6
HIDDEN
 62
     1
  5
34F
 10
484.730667
 20
77.997083
 30
0.0
 11
484.730667
 21
92.885417
 31
0.0
  0
LINE
  8
1
  6
HIDDEN
 62
     1
  5
350
 10
460.892333
 20
92.885417
 30
0.0
 11
459.892333
 21
92.885417
 31
0.0
  0
LINE
  8
1
  6
HIDDEN
 62
     1
  5
351
 10
464.245667
 20
92.885417
 30
0.0
 11
463.245667
 21
92.885417
 31
0.0
  0
LINE
  8
1
  6
HIDDEN
 62
     1
  5
352
 10
488.084
 20
92.885417
 30
0.0
 11
487.084
 21
92.885417
 31
0.0
  0
LINE
  8
1
  6
HIDDEN
 62
     1
  5
353
 10
484.730667
 20
92.885417
 30
0.0
 11
483.730667
 21
92.885417
 31
0.0
  0
LINE
  8
1
  6
HIDDEN
 62
     1
  5
354
 10
459.892333
 20
92.885417
 30
0.0
 11
459.892333
 21
94.885417
 31
0.0
  0
LINE
  8
1
  6
HIDDEN
 62
     1
  5
355
 10
464.245667
 20
92.885417
 30
0.0
 11
464.245667
 21
94.885417
 31
0.0
  0
LINE
  8
1
  6
HIDDEN
 62
     1
  5
356
 10
483.730667
 20
92.885417
 30
0.0
 11
483.730667
 21
94.885417
 31
0.0
  0
LINE
  8
1
  6
HIDDEN
 62
     1
  5
357
 10
488.084
 20
92.885417
 30
0.0
 11
488.084
 21
94.885417
 31
0.0
  0
LINE
  8
1
  6
HIDDEN
 62
     1
  5
358
 10
459.892333
 20
94.885417
 30
0.0
 11
464.245667
 21
94.885417
 31
0.0
  0
LINE
  8
1
  6
HIDDEN
 62
     1
  5
359
 10
483.730667
 20
94.885417
 30
0.0
 11
488.084
 21
94.885417
 31
0.0
  0
LINE
  8
1
  6
CONTINUOUS
 62
     1
  5
35A
 10
487.084
 20
76.75375
 30
0.0
 11
453.892333
 21
76.75375
 31
0.0
  0
LINE
  8
1
  6
CONTINUOUS
 62
     1
  5
35B
 10
494.084
 20
76.75375
 30
0.0
 11
487.084
 21
76.75375
 31
0.0
  0
LINE
  8
1
  6
CONTINUOUS
 62
     1
  5
35C
 10
494.084
 20
97.702083
 30
0.0
 11
453.892333
 21
97.702083
 31
0.0
  0
LINE
  8
1
  6
CONTINUOUS
 62
     1
  5
35D
 10
453.892333
 20
97.702083
 30
0.0
 11
453.892333
 21
76.75375
 31
0.0
  0
LINE
  8
1
  6
CONTINUOUS
 62
     1
  5
35E
 10
494.084
 20
97.702083
 30
0.0
 11
494.084
 21
76.75375
 31
0.0
  0
LINE
  8
1
  6
CONTINUOUS
 62
     1
  5
35F
 10
460.892333
 20
75.50875
 30
0.0
 11
460.892333
 21
76.75375
 31
0.0
  0
LINE
  8
1
  6
HIDDEN
 62
     1
  5
360
 10
460.892333
 20
76.75375
 30
0.0
 11
460.892333
 21
92.885417
 31
0.0
  0
LINE
  8
1
  6
CONTINUOUS
 62
     1
  5
361
 10
487.084
 20
75.50875
 30
0.0
 11
487.084
 21
76.75375
 31
0.0
  0
LINE
  8
1
  6
HIDDEN
 62
     1
  5
362
 10
487.084
 20
76.75375
 30
0.0
 11
487.084
 21
92.885417
 31
0.0
  0
LINE
  8
1
  6
CONTINUOUS
 62
     1
  5
363
 10
453.892333
 20
99.702083
 30
0.0
 11
453.892333
 21
105.132083
 31
0.0
  0
LINE
  8
1
  6
CONTINUOUS
 62
     1
  5
364
 10
494.084
 20
99.702083
 30
0.0
 11
494.084
 21
105.132083
 31
0.0
  0
LINE
  8
1
  6
CONTINUOUS
 62
     1
  5
365
 10
462.492333
 20
99.702083
 30
0.0
 11
462.492333
 21
105.132083
 31
0.0
  0
LINE
  8
1
  6
CONTINUOUS
 62
     1
  5
366
 10
485.484
 20
99.702083
 30
0.0
 11
485.484
 21
105.132083
 31
0.0
  0
LINE
  8
1
  6
CONTINUOUS
 62
     1
  5
367
 10
473.989
 20
105.132083
 30
0.0
 11
473.989
 21
99.702083
 31
0.0
  0
LINE
  8
1
  6
CONTINUOUS
 62
     1
  5
368
 10
462.492333
 20
103.132083
 30
0.0
 11
473.989
 21
103.132083
 31
0.0
  0
LINE
  8
1
  6
CONTINUOUS
 62
     1
  5
369
 10
473.989
 20
103.132083
 30
0.0
 11
485.484
 21
103.132083
 31
0.0
  0
LINE
  8
1
  6
CONTINUOUS
 62
     1
  5
36A
 10
485.484
 20
103.132083
 30
0.0
 11
494.084
 21
103.132083
 31
0.0
  0
LINE
  8
1
  6
CONTINUOUS
 62
     1
  5
36B
 10
462.492333
 20
103.132083
 30
0.0
 11
453.892333
 21
103.132083
 31
0.0
  0
INSERT
  8
1
  6
CONTINUOUS
 62
     1
  5
36C
  2
LDR
 10
453.892333
 20
103.132083
 30
0.0
 41
200.0
 42
200.0
 50
180.0
210
0.0
220
0.0
230
1.0
  0
INSERT
  8
1
  6
CONTINUOUS
 62
     1
  5
36D
  2
LDR
 10
462.492333
 20
103.132083
 30
0.0
 41
200.0
 42
200.0
210
0.0
220
0.0
230
1.0
  0
INSERT
  8
1
  6
CONTINUOUS
 62
     1
  5
36E
  2
LDR
 10
462.492333
 20
103.132083
 30
0.0
 41
200.0
 42
200.0
210
0.0
220
0.0
230
1.0
  0
INSERT
  8
1
  6
CONTINUOUS
 62
     1
  5
36F
  2
LDR
 10
462.492333
 20
103.132083
 30
0.0
 41
200.0
 42
200.0
 50
180.0
210
0.0
220
0.0
230
1.0
  0
INSERT
  8
1
  6
CONTINUOUS
 62
     1
  5
370
  2
LDR
 10
462.492333
 20
103.132083
 30
0.0
 41
200.0
 42
200.0
 50
180.0
210
0.0
220
0.0
230
1.0
  0
INSERT
  8
1
  6
CONTINUOUS
 62
     1
  5
371
  2
LDR
 10
473.989
 20
103.132083
 30
0.0
 41
200.0
 42
200.0
210
0.0
220
0.0
230
1.0
  0
INSERT
  8
1
  6
CONTINUOUS
 62
     1
  5
372
  2
LDR
 10
473.989
 20
103.132083
 30
0.0
 41
200.0
 42
200.0
210
0.0
220
0.0
230
1.0
  0
INSERT
  8
1
  6
CONTINUOUS
 62
     1
  5
373
  2
LDR
 10
473.989
 20
103.132083
 30
0.0
 41
200.0
 42
200.0
 50
180.0
210
0.0
220
0.0
230
1.0
  0
INSERT
  8
1
  6
CONTINUOUS
 62
     1
  5
374
  2
LDR
 10
473.989
 20
103.132083
 30
0.0
 41
200.0
 42
200.0
 50
180.0
210
0.0
220
0.0
230
1.0
  0
INSERT
  8
1
  6
CONTINUOUS
 62
     1
  5
375
  2
LDR
 10
485.484
 20
103.132083
 30
0.0
 41
200.0
 42
200.0
210
0.0
220
0.0
230
1.0
  0
INSERT
  8
1
  6
CONTINUOUS
 62
     1
  5
376
  2
LDR
 10
485.484
 20
103.132083
 30
0.0
 41
200.0
 42
200.0
210
0.0
220
0.0
230
1.0
  0
INSERT
  8
1
  6
CONTINUOUS
 62
     1
  5
377
  2
LDR
 10
485.484
 20
103.132083
 30
0.0
 41
200.0
 42
200.0
 50
180.0
210
0.0
220
0.0
230
1.0
  0
INSERT
  8
1
  6
CONTINUOUS
 62
     1
  5
378
  2
LDR
 10
485.484
 20
103.132083
 30
0.0
 41
200.0
 42
200.0
 50
180.0
210
0.0
220
0.0
230
1.0
  0
INSERT
  8
1
  6
CONTINUOUS
 62
     1
  5
379
  2
LDR
 10
494.084
 20
103.132083
 30
0.0
 41
200.0
 42
200.0
210
0.0
220
0.0
230
1.0
  0
LINE
  8
1
  6
CONTINUOUS
 62
     1
  5
37A
 10
487.057333
 20
86.11375
 30
0.0
 11
497.160667
 21
86.922083
 31
0.0
  0
LINE
  8
1
  6
CONTINUOUS
 62
     1
  5
37B
 10
497.160667
 20
86.922083
 30
0.0
 11
496.015667
 21
85.57375
 31
0.0
  0
LINE
  8
1
  6
CONTINUOUS
 62
     1
  5
37C
 10
496.015667
 20
85.57375
 30
0.0
 11
503.695667
 21
86.720417
 31
0.0
  0
LINE
  8
1
  6
CONTINUOUS
 62
     1
  5
37D
 10
503.695667
 20
86.720417
 30
0.0
 11
501.337333
 21
76.412083
 31
0.0
  0
LINE
  8
1
  6
CONTINUOUS
 62
     1
  5
37E
 10
501.337333
 20
76.412083
 30
0.0
 11
500.462333
 21
78.567083
 31
0.0
  0
LINE
  8
1
  6
CONTINUOUS
 62
     1
  5
37F
 10
500.462333
 20
78.567083
 30
0.0
 11
497.229
 21
70.81875
 31
0.0
  0
LINE
  8
1
  6
CONTINUOUS
 62
     1
  5
380
 10
497.229
 20
70.81875
 30
0.0
 11
487.084
 21
75.50875
 31
0.0
  0
INSERT
  8
1
  6
CONTINUOUS
 62
     1
  5
381
  2
LDR
 10
487.057333
 20
86.11375
 30
0.0
 41
200.000021
 42
200.000021
 50
184.574288
210
0.0
220
0.0
230
1.0
  0
INSERT
  8
1
  6
CONTINUOUS
 62
     1
  5
382
  2
LDR
 10
487.057333
 20
86.11375
 30
0.0
 41
200.000021
 42
200.000021
 50
184.574288
210
0.0
220
0.0
230
1.0
  0
INSERT
  8
1
  6
CONTINUOUS
 62
     1
  5
383
  2
LDR
 10
487.084
 20
75.50875
 30
0.0
 41
199.999998
 42
199.999998
 50
155.189065
210
0.0
220
0.0
230
1.0
  0
LINE
  8
1
  6
CONTINUOUS
 62
     1
  5
384
 10
503.695667
 20
86.720417
 30
0.0
 11
510.205667
 21
88.65375
 31
0.0
  0
POLYLINE
  8
1
  6
CONTINUOUS
 62
     1
  5
385
 66
     1
 10
0.0
 20
0.0
 30
0.0
 70
     1
  0
VERTEX
  8
1
  6
CONTINUOUS
 62
     1
  5
386
 10
463.182167
 20
170.432833
 30
0.0
  0
VERTEX
  8
1
  6
CONTINUOUS
 62
     1
  5
387
 10
510.707167
 20
170.432833
 30
0.0
  0
VERTEX
  8
1
  6
CONTINUOUS
 62
     1
  5
388
 10
510.707167
 20
136.0845
 30
0.0
  0
VERTEX
  8
1
  6
CONTINUOUS
 62
     1
  5
389
 10
463.182167
 20
136.0845
 30
0.0
  0
SEQEND
  8
1
  6
CONTINUOUS
 62
     1
  5
38A
  0
CIRCLE
  8
1
  6
CONTINUOUS
 62
     1
  5
38B
 10
467.708833
 20
164.922
 30
0.0
 40
1.97162
210
0.0
220
0.0
230
1.0
  0
CIRCLE
  8
1
  6
CONTINUOUS
 62
     1
  5
38C
 10
467.708833
 20
140.907
 30
0.0
 40
1.97162
210
0.0
220
0.0
230
1.0
  0
CIRCLE
  8
1
  6
CONTINUOUS
 62
     1
  5
38D
 10
505.098833
 20
164.922
 30
0.0
 40
1.97162
210
0.0
220
0.0
230
1.0
  0
CIRCLE
  8
1
  6
CONTINUOUS
 62
     1
  5
38E
 10
505.2955
 20
140.808667
 30
0.0
 40
1.97162
210
0.0
220
0.0
230
1.0
  0
CIRCLE
  8
1
  6
CONTINUOUS
 62
     1
  5
38F
 10
487.092167
 20
153.208667
 30
0.0
 40
2.302707
210
0.0
220
0.0
230
1.0
  0
LINE
  8
1
  6
CONTINUOUS
 62
     1
  5
390
 10
463.182167
 20
172.432833
 30
0.0
 11
463.182167
 21
184.4295
 31
0.0
  0
LINE
  8
1
  6
CONTINUOUS
 62
     1
  5
391
 10
510.707167
 20
172.432833
 30
0.0
 11
510.707167
 21
184.4295
 31
0.0
  0
LINE
  8
1
  6
CONTINUOUS
 62
     1
  5
392
 10
467.182167
 20
172.432833
 30
0.0
 11
467.182167
 21
176.4295
 31
0.0
  0
LINE
  8
1
  6
CONTINUOUS
 62
     1
  5
393
 10
506.707167
 20
172.432833
 30
0.0
 11
506.707167
 21
176.4295
 31
0.0
  0
LINE
  8
1
  6
CONTINUOUS
 62
     1
  5
394
 10
463.182167
 20
182.4295
 30
0.0
 11
510.707167
 21
182.4295
 31
0.0
  0
LINE
  8
1
  6
CONTINUOUS
 62
     1
  5
395
 10
467.182167
 20
174.4295
 30
0.0
 11
506.707167
 21
174.4295
 31
0.0
  0
INSERT
  8
1
  6
CONTINUOUS
 62
     1
  5
396
  2
LDR
 10
463.182167
 20
182.4295
 30
0.0
 41
200.0
 42
200.0
 50
180.0
210
0.0
220
0.0
230
1.0
  0
INSERT
  8
1
  6
CONTINUOUS
 62
     1
  5
397
  2
LDR
 10
463.182167
 20
182.4295
 30
0.0
 41
200.0
 42
200.0
 50
180.0
210
0.0
220
0.0
230
1.0
  0
INSERT
  8
1
  6
CONTINUOUS
 62
     1
  5
398
  2
LDR
 10
510.707167
 20
182.4295
 30
0.0
 41
200.0
 42
200.0
210
0.0
220
0.0
230
1.0
  0
INSERT
  8
1
  6
CONTINUOUS
 62
     1
  5
399
  2
LDR
 10
510.707167
 20
182.4295
 30
0.0
 41
200.0
 42
200.0
210
0.0
220
0.0
230
1.0
  0
INSERT
  8
1
  6
CONTINUOUS
 62
     1
  5
39A
  2
LDR
 10
467.182167
 20
174.4295
 30
0.0
 41
200.0
 42
200.0
 50
180.0
210
0.0
220
0.0
230
1.0
  0
INSERT
  8
1
  6
CONTINUOUS
 62
     1
  5
39B
  2
LDR
 10
467.182167
 20
174.4295
 30
0.0
 41
200.0
 42
200.0
 50
180.0
210
0.0
220
0.0
230
1.0
  0
INSERT
  8
1
  6
CONTINUOUS
 62
     1
  5
39C
  2
LDR
 10
506.707167
 20
174.4295
 30
0.0
 41
200.0
 42
200.0
210
0.0
220
0.0
230
1.0
  0
LINE
  8
1
  6
CONTINUOUS
 62
     1
  5
39D
 10
463.182167
 20
174.4295
 30
0.0
 11
459.182167
 21
174.4295
 31
0.0
  0
INSERT
  8
1
  6
CONTINUOUS
 62
     1
  5
39E
  2
LDR
 10
463.182167
 20
174.4295
 30
0.0
 41
200.0
 42
200.0
210
0.0
220
0.0
230
1.0
  0
LINE
  8
1
  6
CONTINUOUS
 62
     1
  5
39F
 10
514.0955
 20
174.4295
 30
0.0
 11
510.707167
 21
174.4295
 31
0.0
  0
INSERT
  8
1
  6
CONTINUOUS
 62
     1
  5
3A0
  2
LDR
 10
510.707167
 20
174.4295
 30
0.0
 41
200.0
 42
200.0
 50
180.0
210
0.0
220
0.0
230
1.0
  0
LINE
  8
1
  6
CONTINUOUS
 62
     1
  5
3A1
 10
524.703833
 20
170.432833
 30
0.0
 11
512.707167
 21
170.432833
 31
0.0
  0
LINE
  8
1
  6
CONTINUOUS
 62
     1
  5
3A2
 10
524.703833
 20
136.0845
 30
0.0
 11
512.707167
 21
136.0845
 31
0.0
  0
LINE
  8
1
  6
CONTINUOUS
 62
     1
  5
3A3
 10
522.703833
 20
170.432833
 30
0.0
 11
522.703833
 21
136.0845
 31
0.0
  0
LINE
  8
1
  6
CONTINUOUS
 62
     1
  5
3A4
 10
515.707167
 20
164.432833
 30
0.0
 11
512.707167
 21
164.432833
 31
0.0
  0
LINE
  8
1
  6
CONTINUOUS
 62
     1
  5
3A5
 10
516.703833
 20
142.0845
 30
0.0
 11
512.707167
 21
142.0845
 31
0.0
  0
LINE
  8
1
  6
CONTINUOUS
 62
     1
  5
3A6
 10
516.703833
 20
164.432833
 30
0.0
 11
512.707167
 21
164.432833
 31
0.0
  0
LINE
  8
1
  6
CONTINUOUS
 62
     1
  5
3A7
 10
516.703833
 20
164.432833
 30
0.0
 11
512.707167
 21
164.432833
 31
0.0
  0
LINE
  8
1
  6
CONTINUOUS
 62
     1
  5
3A8
 10
514.703833
 20
164.432833
 30
0.0
 11
514.703833
 21
142.0845
 31
0.0
  0
LINE
  8
1
  6
CONTINUOUS
 62
     1
  5
3A9
 10
514.703833
 20
173.726167
 30
0.0
 11
514.703833
 21
170.432833
 31
0.0
  0
INSERT
  8
1
  6
CONTINUOUS
 62
     1
  5
3AA
  2
LDR
 10
514.703833
 20
170.432833
 30
0.0
 41
200.0
 42
200.0
 50
270.0
210
0.0
220
0.0
230
1.0
  0
LINE
  8
1
  6
CONTINUOUS
 62
     1
  5
3AB
 10
514.703833
 20
136.0845
 30
0.0
 11
514.703833
 21
132.791167
 31
0.0
  0
INSERT
  8
1
  6
CONTINUOUS
 62
     1
  5
3AC
  2
LDR
 10
514.703833
 20
164.432833
 30
0.0
 41
200.0
 42
200.0
 50
90.0
210
0.0
220
0.0
230
1.0
  0
INSERT
  8
1
  6
CONTINUOUS
 62
     1
  5
3AD
  2
LDR
 10
514.703833
 20
164.432833
 30
0.0
 41
200.0
 42
200.0
 50
90.0
210
0.0
220
0.0
230
1.0
  0
INSERT
  8
1
  6
CONTINUOUS
 62
     1
  5
3AE
  2
LDR
 10
522.703833
 20
170.432833
 30
0.0
 41
200.0
 42
200.0
 50
90.0
210
0.0
220
0.0
230
1.0
  0
INSERT
  8
1
  6
CONTINUOUS
 62
     1
  5
3AF
  2
LDR
 10
522.703833
 20
170.432833
 30
0.0
 41
200.0
 42
200.0
 50
90.0
210
0.0
220
0.0
230
1.0
  0
INSERT
  8
1
  6
CONTINUOUS
 62
     1
  5
3B0
  2
LDR
 10
522.703833
 20
136.0845
 30
0.0
 41
200.0
 42
200.0
 50
270.0
210
0.0
220
0.0
230
1.0
  0
INSERT
  8
1
  6
CONTINUOUS
 62
     1
  5
3B1
  2
LDR
 10
522.703833
 20
136.0845
 30
0.0
 41
200.0
 42
200.0
 50
270.0
210
0.0
220
0.0
230
1.0
  0
INSERT
  8
1
  6
CONTINUOUS
 62
     1
  5
3B2
  2
LDR
 10
514.703833
 20
142.0845
 30
0.0
 41
200.0
 42
200.0
 50
270.0
210
0.0
220
0.0
230
1.0
  0
INSERT
  8
1
  6
CONTINUOUS
 62
     1
  5
3B3
  2
LDR
 10
514.703833
 20
142.0845
 30
0.0
 41
200.0
 42
200.0
 50
270.0
210
0.0
220
0.0
230
1.0
  0
INSERT
  8
1
  6
CONTINUOUS
 62
     1
  5
3B4
  2
LDR
 10
514.703833
 20
136.0845
 30
0.0
 41
200.0
 42
200.0
 50
90.0
210
0.0
220
0.0
230
1.0
  0
LINE
  8
1
  6
CONTINUOUS
 62
     1
  5
3B5
 10
465.737167
 20
140.907833
 30
0.0
 11
460.1955
 21
139.4795
 31
0.0
  0
INSERT
  8
1
  6
CONTINUOUS
 62
     1
  5
3B6
  2
LDR
 10
465.737167
 20
140.907833
 30
0.0
 41
199.999988
 42
199.999988
 50
14.4531
210
0.0
220
0.0
230
1.0
  0
LINE
  8
1
  6
CONTINUOUS
 62
     1
  5
3B7
 10
484.788833
 20
153.2095
 30
0.0
 11
466.298833
 21
129.632833
 31
0.0
  0
INSERT
  8
1
  6
CONTINUOUS
 62
     1
  5
3B8
  2
LDR
 10
484.788833
 20
153.2095
 30
0.0
 41
199.999981
 42
199.999981
 50
51.894679
210
0.0
220
0.0
230
1.0
  0
LINE
  8
1
  6
CONTINUOUS
 62
     1
  5
3B9
 10
172.687917
 20
-76.347
 30
0.0
 11
181.337917
 21
-76.347
 31
0.0
  0
LINE
  8
1
  6
CONTINUOUS
 62
     1
  5
3BA
 10
181.337917
 20
-76.347
 30
0.0
 11
181.337917
 21
-81.048667
 31
0.0
  0
LINE
  8
1
  6
CONTINUOUS
 62
     1
  5
3BB
 10
181.337917
 20
-81.048667
 30
0.0
 11
172.687917
 21
-81.048667
 31
0.0
  0
LINE
  8
1
  6
CONTINUOUS
 62
     1
  5
3BC
 10
172.687917
 20
-81.048667
 30
0.0
 11
172.687917
 21
-76.347
 31
0.0
  0
LINE
  8
1
  6
CONTINUOUS
 62
     1
  5
3BD
 10
173.187917
 20
-81.048667
 30
0.0
 11
173.187917
 21
-99.050333
 31
0.0
  0
LINE
  8
1
  6
CONTINUOUS
 62
     1
  5
3BE
 10
180.837917
 20
-81.048667
 30
0.0
 11
180.837917
 21
-99.050333
 31
0.0
  0
ARC
  8
1
  6
CONTINUOUS
 62
     1
  5
3BF
 10
178.925417
 20
-98.016354
 30
0.0
 40
2.174113
 50
208.397544
 51
331.602453
210
0.0
220
0.0
230
1.0
  0
ARC
  8
1
  6
CONTINUOUS
 62
     1
  5
3C0
 10
175.100417
 20
-98.016354
 30
0.0
 40
2.174113
 50
208.397544
 51
331.602453
210
0.0
220
0.0
230
1.0
  0
ARC
  8
1
  6
CONTINUOUS
 62
     1
  5
3C1
 10
178.925417
 20
-100.084312
 30
0.0
 40
2.174113
 50
28.397547
 51
151.602456
210
0.0
220
0.0
230
1.0
  0
ARC
  8
1
  6
CONTINUOUS
 62
     1
  5
3C2
 10
175.100417
 20
-104.234312
 30
0.0
 40
2.174113
 50
28.397547
 51
151.602456
210
0.0
220
0.0
230
1.0
  0
LINE
  8
1
  6
CONTINUOUS
 62
     1
  5
3C3
 10
173.187917
 20
-122.192
 30
0.0
 11
173.187917
 21
-103.200333
 31
0.0
  0
LINE
  8
1
  6
CONTINUOUS
 62
     1
  5
3C4
 10
180.837917
 20
-129.842
 30
0.0
 11
180.837917
 21
-103.200333
 31
0.0
  0
ARC
  8
1
  6
CONTINUOUS
 62
     1
  5
3C5
 10
178.925417
 20
-104.234312
 30
0.0
 40
2.174113
 50
28.397547
 51
151.602456
210
0.0
220
0.0
230
1.0
  0
ARC
  8
1
  6
CONTINUOUS
 62
     1
  5
3C6
 10
178.925417
 20
-102.166354
 30
0.0
 40
2.174113
 50
208.397544
 51
331.602453
210
0.0
220
0.0
230
1.0
  0
LINE
  8
1
  6
CONTINUOUS
 62
     1
  5
3C7
 10
173.187917
 20
-122.192
 30
0.0
 11
145.19625
 21
-122.192
 31
0.0
  0
ARC
  8
1
  6
CONTINUOUS
 62
     1
  5
3C8
 10
146.230229
 20
-124.1045
 30
0.0
 40
2.174113
 50
118.397544
 51
241.602453
210
0.0
220
0.0
230
1.0
  0
LINE
  8
1
  6
CONTINUOUS
 62
     1
  5
3C9
 10
180.837917
 20
-129.842
 30
0.0
 11
145.19625
 21
-129.842
 31
0.0
  0
ARC
  8
1
  6
CONTINUOUS
 62
     1
  5
3CA
 10
146.230229
 20
-127.9295
 30
0.0
 40
2.174113
 50
118.397544
 51
241.602453
210
0.0
220
0.0
230
1.0
  0
ARC
  8
1
  6
CONTINUOUS
 62
     1
  5
3CB
 10
144.162271
 20
-127.9295
 30
0.0
 40
2.174113
 50
298.397547
 51
61.602456
210
0.0
220
0.0
230
1.0
  0
LINE
  8
1
  6
CONTINUOUS
 62
     1
  5
3CC
 10
173.187917
 20
-122.192
 30
0.0
 11
180.837917
 21
-129.842
 31
0.0
  0
ARC
  8
1
  6
CONTINUOUS
 62
     1
  5
3CD
 10
139.052271
 20
-127.9295
 30
0.0
 40
2.174113
 50
298.397544
 51
61.602453
210
0.0
220
0.0
230
1.0
  0
LINE
  8
1
  6
CONTINUOUS
 62
     1
  5
3CE
 10
104.444583
 20
-122.192
 30
0.0
 11
140.08625
 21
-122.192
 31
0.0
  0
ARC
  8
1
  6
CONTINUOUS
 62
     1
  5
3CF
 10
139.052271
 20
-124.1045
 30
0.0
 40
2.174113
 50
298.397544
 51
61.602453
210
0.0
220
0.0
230
1.0
  0
ARC
  8
1
  6
CONTINUOUS
 62
     1
  5
3D0
 10
141.120229
 20
-124.1045
 30
0.0
 40
2.174113
 50
118.397547
 51
241.602456
210
0.0
220
0.0
230
1.0
  0
ARC
  8
1
  6
CONTINUOUS
 62
     1
  5
3D1
 10
105.478562
 20
-124.1045
 30
0.0
 40
2.174113
 50
118.397544
 51
241.602453
210
0.0
220
0.0
230
1.0
  0
ARC
  8
1
  6
CONTINUOUS
 62
     1
  5
3D2
 10
105.478562
 20
-127.9295
 30
0.0
 40
2.174113
 50
118.397544
 51
241.602453
210
0.0
220
0.0
230
1.0
  0
ARC
  8
1
  6
CONTINUOUS
 62
     1
  5
3D3
 10
103.410604
 20
-127.9295
 30
0.0
 40
2.174113
 50
298.397547
 51
61.602456
210
0.0
220
0.0
230
1.0
  0
LINE
  8
1
  6
CONTINUOUS
 62
     1
  5
3D4
 10
104.444583
 20
-129.842
 30
0.0
 11
114.444583
 21
-129.842
 31
0.0
  0
LINE
  8
1
  6
CONTINUOUS
 62
     1
  5
3D5
 10
130.08625
 20
-129.842
 30
0.0
 11
140.08625
 21
-129.842
 31
0.0
  0
ARC
  8
1
  6
CONTINUOUS
 62
     1
  5
3D6
 10
122.265417
 20
-136.911783
 30
0.0
 40
10.54264
 50
42.112569
 51
137.887428
210
0.0
220
0.0
230
1.0
  0
LINE
  8
1
  6
CONTINUOUS
 62
     1
  5
3D7
 10
116.26625
 20
-135.268667
 30
0.0
 11
116.26625
 21
-155.470333
 31
0.0
  0
LINE
  8
1
  6
CONTINUOUS
 62
     1
  5
3D8
 10
128.26625
 20
-135.268667
 30
0.0
 11
128.26625
 21
-155.470333
 31
0.0
  0
ARC
  8
1
  6
CONTINUOUS
 62
     1
  5
3D9
 10
123.247549
 20
-129.906039
 30
0.0
 40
8.803199
 50
179.583194
 51
217.529369
210
0.0
220
0.0
230
1.0
  0
ARC
  8
1
  6
CONTINUOUS
 62
     1
  5
3DA
 10
121.284951
 20
-129.906039
 30
0.0
 40
8.803199
 50
322.470631
 51
0.416806
210
0.0
220
0.0
230
1.0
  0
ARC
  8
1
  6
CONTINUOUS
 62
     1
  5
3DB
 10
125.26625
 20
-152.358255
 30
0.0
 40
4.322619
 50
226.050528
 51
313.949469
210
0.0
220
0.0
230
1.0
  0
ARC
  8
1
  6
CONTINUOUS
 62
     1
  5
3DC
 10
119.26625
 20
-152.358255
 30
0.0
 40
4.322619
 50
226.050528
 51
313.949469
210
0.0
220
0.0
230
1.0
  0
ARC
  8
1
  6
CONTINUOUS
 62
     1
  5
3DD
 10
125.26625
 20
-158.582412
 30
0.0
 40
4.322619
 50
46.050531
 51
133.949472
210
0.0
220
0.0
230
1.0
  0
CIRCLE
  8
1
  6
CONTINUOUS
 62
     1
  5
3DE
 10
102.72875
 20
-114.282833
 30
0.0
 40
0.974749
210
0.0
220
0.0
230
1.0
  0
LINE
  8
1
  6
CONTINUOUS
 62
     1
  5
3DF
 10
115.69625
 20
-128.665333
 30
0.0
 11
103.417917
 21
-114.972
 31
0.0
  0
LINE
  8
1
  6
CONTINUOUS
 62
     1
  5
3E0
 10
101.754583
 20
-114.282
 30
0.0
 11
93.684583
 21
-114.282
 31
0.0
  0
LINE
  8
1
  6
CONTINUOUS
 62
     1
  5
3E1
 10
94.764583
 20
-114.282
 30
0.0
 11
94.764583
 21
-116.575333
 31
0.0
  0
LINE
  8
1
  6
CONTINUOUS
 62
     1
  5
3E2
 10
94.764583
 20
-116.575333
 30
0.0
 11
97.939583
 21
-114.282
 31
0.0
  0
INSERT
  8
1
  6
CONTINUOUS
 62
     1
  5
3E3
  2
LDR
 10
115.69625
 20
-128.665333
 30
0.0
 41
200.000004
 42
200.000004
 50
311.881467
210
0.0
220
0.0
230
1.0
  0
LINE
  8
1
  6
CONTINUOUS
 62
     1
  5
3E4
 10
120.129583
 20
-129.610333
 30
0.0
 11
116.969583
 21
-102.825333
 31
0.0
  0
INSERT
  8
1
  6
CONTINUOUS
 62
     1
  5
3E5
  2
LDR
 10
120.129583
 20
-129.610333
 30
0.0
 41
199.999959
 42
199.999959
 50
276.728449
210
0.0
220
0.0
230
1.0
  0
LINE
  8
1
  6
CONTINUOUS
 62
     1
  5
3E6
 10
123.844583
 20
-126.488667
 30
0.0
 11
127.364583
 21
-111.725333
 31
0.0
  0
INSERT
  8
1
  6
CONTINUOUS
 62
     1
  5
3E7
  2
LDR
 10
123.844583
 20
-126.488667
 30
0.0
 41
200.000002
 42
200.000002
 50
256.58944
210
0.0
220
0.0
230
1.0
  0
LINE
  8
1
  6
CONTINUOUS
 62
     1
  5
3E8
 10
109.537917
 20
-129.860333
 30
0.0
 11
103.16125
 21
-139.512
 31
0.0
  0
LINE
  8
1
  6
CONTINUOUS
 62
     1
  5
3E9
 10
128.272917
 20
-146.905333
 30
0.0
 11
131.997917
 21
-150.067
 31
0.0
  0
LINE
  8
1
  6
CONTINUOUS
 62
     1
  5
3EA
 10
172.687917
 20
-78.697
 30
0.0
 11
155.56625
 21
-78.697
 31
0.0
  0
LINE
  8
1
  6
CONTINUOUS
 62
     1
  5
3EB
 10
183.337917
 20
-76.347
 30
0.0
 11
191.257917
 21
-76.347
 31
0.0
  0
LINE
  8
1
  6
CONTINUOUS
 62
     1
  5
3EC
 10
193.797917
 20
-77.295333
 30
0.0
 11
218.78125
 21
-77.295333
 31
0.0
  0
LINE
  8
1
  6
CONTINUOUS
 62
     1
  5
3ED
 10
166.024583
 20
-73.243667
 30
0.0
 11
195.63125
 21
-73.243667
 31
0.0
  0
LINE
  8
1
  6
CONTINUOUS
 62
     1
  5
3EE
 10
189.257917
 20
-76.347
 30
0.0
 11
189.257917
 21
-80.867
 31
0.0
  0
LINE
  8
1
  6
CONTINUOUS
 62
     1
  5
3EF
 10
193.797917
 20
-77.295333
 30
0.0
 11
193.92625
 21
-73.243667
 31
0.0
  0
LINE
  8
1
  6
CONTINUOUS
 62
     1
  5
3F0
 10
189.257917
 20
-68.723667
 30
0.0
 11
189.257917
 21
-73.243667
 31
0.0
  0
INSERT
  8
1
  6
CONTINUOUS
 62
     1
  5
3F1
  2
LDR
 10
172.687917
 20
-78.697
 30
0.0
 41
200.0
 42
200.0
210
0.0
220
0.0
230
1.0
  0
INSERT
  8
1
  6
CONTINUOUS
 62
     1
  5
3F2
  2
LDR
 10
172.687917
 20
-78.697
 30
0.0
 41
200.0
 42
200.0
210
0.0
220
0.0
230
1.0
  0
INSERT
  8
1
  6
CONTINUOUS
 62
     1
  5
3F3
  2
LDR
 10
189.257917
 20
-73.243667
 30
0.0
 41
200.0
 42
200.0
 50
270.0
210
0.0
220
0.0
230
1.0
  0
INSERT
  8
1
  6
CONTINUOUS
 62
     1
  5
3F4
  2
LDR
 10
189.257917
 20
-73.243667
 30
0.0
 41
200.0
 42
200.0
 50
270.0
210
0.0
220
0.0
230
1.0
  0
INSERT
  8
1
  6
CONTINUOUS
 62
     1
  5
3F5
  2
LDR
 10
189.257917
 20
-76.347
 30
0.0
 41
200.0
 42
200.0
 50
90.0
210
0.0
220
0.0
230
1.0
  0
INSERT
  8
1
  6
CONTINUOUS
 62
     1
  5
3F6
  2
LDR
 10
189.257917
 20
-76.347
 30
0.0
 41
200.0
 42
200.0
 50
90.0
210
0.0
220
0.0
230
1.0
  0
INSERT
  8
1
  6
CONTINUOUS
 62
     1
  5
3F7
  2
LDR
 10
193.92625
 20
-73.243667
 30
0.0
 41
200.000041
 42
200.000041
 50
88.185799
210
0.0
220
0.0
230
1.0
  0
INSERT
  8
1
  6
CONTINUOUS
 62
     1
  5
3F8
  2
LDR
 10
109.537917
 20
-129.860333
 30
0.0
 41
199.99999
 42
199.99999
 50
56.54803
210
0.0
220
0.0
230
1.0
  0
INSERT
  8
1
  6
CONTINUOUS
 62
     1
  5
3F9
  2
LDR
 10
128.272917
 20
-146.905333
 30
0.0
 41
199.999982
 42
199.999982
 50
139.676417
210
0.0
220
0.0
230
1.0
  0
LINE
  8
1
  6
CONTINUOUS
 62
     1
  5
3FA
 10
180.837917
 20
-93.325333
 30
0.0
 11
187.489583
 21
-96.063667
 31
0.0
  0
INSERT
  8
1
  6
CONTINUOUS
 62
     1
  5
3FB
  2
LDR
 10
180.837917
 20
-93.325333
 30
0.0
 41
200.000024
 42
200.000024
 50
157.624213
210
0.0
220
0.0
230
1.0
  0
LINE
  8
1
  6
CONTINUOUS
 62
     1
  5
3FC
 10
177.05125
 20
-126.140333
 30
0.0
 11
186.28125
 21
-123.892
 31
0.0
  0
CIRCLE
  8
1
  6
CONTINUOUS
 62
     1
  5
3FD
 10
187.137917
 20
-123.452
 30
0.0
 40
0.962487
210
0.0
220
0.0
230
1.0
  0
LINE
  8
1
  6
CONTINUOUS
 62
     1
  5
3FE
 10
188.099583
 20
-123.452
 30
0.0
 11
198.552917
 21
-123.452
 31
0.0
  0
LINE
  8
1
  6
CONTINUOUS
 62
     1
  5
3FF
 10
178.97625
 20
-127.980333
 30
0.0
 11
174.402917
 21
-138.217
 31
0.0
  0
LINE
  8
1
  6
CONTINUOUS
 62
     1
  5
400
 10
182.234583
 20
-131.273667
 30
0.0
 11
190.994583
 21
-140.243667
 31
0.0
  0
INSERT
  8
1
  6
CONTINUOUS
 62
     1
  5
401
  2
LDR
 10
178.97625
 20
-127.980333
 30
0.0
 41
199.999975
 42
199.999975
 50
65.926811
210
0.0
220
0.0
230
1.0
  0
LINE
  8
1
  6
CONTINUOUS
 62
     1
  5
402
 10
195.35625
 20
-126.140333
 30
0.0
 11
195.35625
 21
-120.707
 31
0.0
  0
ARC
  8
1
  6
CONTINUOUS
 62
     1
  5
403
 10
195.102682
 20
-114.663178
 30
0.0
 40
11.479956
 50
258.358897
 51
283.441622
210
0.0
220
0.0
230
1.0
  0
LINE
  8
1
  6
CONTINUOUS
 62
     1
  5
404
 10
188.50125
 20
-137.690333
 30
0.0
 11
188.50125
 21
-135.030333
 31
0.0
  0
LINE
  8
1
  6
CONTINUOUS
 62
     1
  5
405
 10
188.50125
 20
-135.030333
 30
0.0
 11
185.902917
 21
-135.030333
 31
0.0
  0
LINE
  8
1
  6
CONTINUOUS
 62
     1
  5
406
 10
225.219833
 20
-178.42325
 30
0.0
 11
218.383167
 21
-168.531583
 31
0.0
  0
INSERT
  8
1
  6
CONTINUOUS
 62
     1
  5
407
  2
LDR
 10
225.219833
 20
-178.42325
 30
0.0
 41
199.99996
 42
199.99996
 50
304.650455
210
0.0
220
0.0
230
1.0
  0
LINE
  8
1
  6
CONTINUOUS
 62
     1
  5
408
 10
277.394833
 20
-167.661583
 30
0.0
 11
287.918167
 21
-167.661583
 31
0.0
  0
LINE
  8
1
  6
CONTINUOUS
 62
     1
  5
409
 10
277.394833
 20
-184.94825
 30
0.0
 11
287.918167
 21
-184.94825
 31
0.0
  0
LINE
  8
1
  6
CONTINUOUS
 62
     1
  5
40A
 10
285.918167
 20
-167.661583
 30
0.0
 11
285.918167
 21
-184.94825
 31
0.0
  0
INSERT
  8
1
  6
CONTINUOUS
 62
     1
  5
40B
  2
LDR
 10
285.918167
 20
-167.661583
 30
0.0
 41
200.0
 42
200.0
 50
90.0
210
0.0
220
0.0
230
1.0
  0
INSERT
  8
1
  6
CONTINUOUS
 62
     1
  5
40C
  2
LDR
 10
285.918167
 20
-167.661583
 30
0.0
 41
200.0
 42
200.0
 50
90.0
210
0.0
220
0.0
230
1.0
  0
INSERT
  8
1
  6
CONTINUOUS
 62
     1
  5
40D
  2
LDR
 10
285.918167
 20
-184.94825
 30
0.0
 41
200.0
 42
200.0
 50
270.0
210
0.0
220
0.0
230
1.0
  0
LINE
  8
1
  6
CONTINUOUS
 62
     1
  5
40E
 10
274.418167
 20
-177.104917
 30
0.0
 11
278.208167
 21
-175.159917
 31
0.0
  0
LINE
  8
1
  6
CONTINUOUS
 62
     1
  5
40F
 10
278.208167
 20
-175.159917
 30
0.0
 11
281.864833
 21
-169.436583
 31
0.0
  0
LINE
  8
1
  6
CONTINUOUS
 62
     1
  5
410
 10
281.864833
 20
-169.436583
 30
0.0
 11
282.573167
 21
-169.90825
 31
0.0
  0
LINE
  8
1
  6
CONTINUOUS
 62
     1
  5
411
 10
282.573167
 20
-169.90825
 30
0.0
 11
283.589833
 21
-168.476583
 31
0.0
  0
LINE
  8
1
  6
CONTINUOUS
 62
     1
  5
412
 10
284.749833
 20
-166.844917
 30
0.0
 11
288.31925
 21
-161.830167
 31
0.0
  0
LINE
  8
1
  6
CONTINUOUS
 62
     1
  5
413
 10
225.8415
 20
-186.94825
 30
0.0
 11
225.8415
 21
-202.844917
 31
0.0
  0
LINE
  8
1
  6
CONTINUOUS
 62
     1
  5
414
 10
273.794833
 20
-186.94825
 30
0.0
 11
273.794833
 21
-202.844917
 31
0.0
  0
LINE
  8
1
  6
CONTINUOUS
 62
     1
  5
415
 10
226.818167
 20
-179.104917
 30
0.0
 11
226.818167
 21
-195.72325
 31
0.0
  0
LINE
  8
1
  6
CONTINUOUS
 62
     1
  5
416
 10
272.818167
 20
-179.104917
 30
0.0
 11
272.818167
 21
-195.72325
 31
0.0
  0
LINE
  8
1
  6
CONTINUOUS
 62
     1
  5
417
 10
226.818167
 20
-193.72325
 30
0.0
 11
272.818167
 21
-193.72325
 31
0.0
  0
LINE
  8
1
  6
CONTINUOUS
 62
     1
  5
418
 10
225.8415
 20
-200.844917
 30
0.0
 11
273.794833
 21
-200.844917
 31
0.0
  0
INSERT
  8
1
  6
CONTINUOUS
 62
     1
  5
419
  2
LDR
 10
226.818167
 20
-193.72325
 30
0.0
 41
200.0
 42
200.0
 50
180.0
210
0.0
220
0.0
230
1.0
  0
INSERT
  8
1
  6
CONTINUOUS
 62
     1
  5
41A
  2
LDR
 10
226.818167
 20
-193.72325
 30
0.0
 41
200.0
 42
200.0
 50
180.0
210
0.0
220
0.0
230
1.0
  0
INSERT
  8
1
  6
CONTINUOUS
 62
     1
  5
41B
  2
LDR
 10
272.818167
 20
-193.72325
 30
0.0
 41
200.0
 42
200.0
210
0.0
220
0.0
230
1.0
  0
INSERT
  8
1
  6
CONTINUOUS
 62
     1
  5
41C
  2
LDR
 10
272.818167
 20
-193.72325
 30
0.0
 41
200.0
 42
200.0
210
0.0
220
0.0
230
1.0
  0
INSERT
  8
1
  6
CONTINUOUS
 62
     1
  5
41D
  2
LDR
 10
273.794833
 20
-200.844917
 30
0.0
 41
200.0
 42
200.0
210
0.0
220
0.0
230
1.0
  0
INSERT
  8
1
  6
CONTINUOUS
 62
     1
  5
41E
  2
LDR
 10
273.794833
 20
-200.844917
 30
0.0
 41
200.0
 42
200.0
210
0.0
220
0.0
230
1.0
  0
INSERT
  8
1
  6
CONTINUOUS
 62
     1
  5
41F
  2
LDR
 10
225.8415
 20
-200.844917
 30
0.0
 41
200.0
 42
200.0
 50
180.0
210
0.0
220
0.0
230
1.0
  0
INSERT
  8
1
  6
CONTINUOUS
 62
     1
  5
420
  2
LDR
 10
274.418167
 20
-177.104917
 30
0.0
 41
199.999974
 42
199.999974
 50
207.166572
210
0.0
220
0.0
230
1.0
  0
LINE
  8
1
  6
CONTINUOUS
 62
     1
  5
421
 10
218.383167
 20
-168.531583
 30
0.0
 11
230.53725
 21
-161.830167
 31
0.0
  0
LINE
  8
1
  6
CONTINUOUS
 62
     1
  5
422
 10
279.528917
 20
-56.467417
 30
0.0
 11
335.277667
 21
-56.467417
 31
0.0
  0
LINE
  8
1
  6
CONTINUOUS
 62
     1
  5
423
 10
259.30725
 20
-97.13075
 30
0.0
 11
308.18725
 21
-97.13075
 31
0.0
  0
LINE
  8
1
  6
CONTINUOUS
 62
     1
  5
424
 10
259.30725
 20
-101.614083
 30
0.0
 11
308.18725
 21
-101.614083
 31
0.0
  0
LINE
  8
1
  6
CONTINUOUS
 62
     1
  5
425
 10
259.30725
 20
-97.13075
 30
0.0
 11
259.30725
 21
-101.614083
 31
0.0
  0
LINE
  8
1
  6
CONTINUOUS
 62
     1
  5
426
 10
308.18725
 20
-97.13075
 30
0.0
 11
308.18725
 21
-101.614083
 31
0.0
  0
LINE
  8
1
  6
CONTINUOUS
 62
     1
  5
427
 10
260.30725
 20
-96.277417
 30
0.0
 11
268.50725
 21
-96.277417
 31
0.0
  0
LINE
  8
1
  6
CONTINUOUS
 62
     1
  5
428
 10
262.30725
 20
-93.502417
 30
0.0
 11
266.50725
 21
-93.502417
 31
0.0
  0
LINE
  8
1
  6
CONTINUOUS
 62
     1
  5
429
 10
260.30725
 20
-97.13075
 30
0.0
 11
260.30725
 21
-96.277417
 31
0.0
  0
LINE
  8
1
  6
CONTINUOUS
 62
     1
  5
42A
 10
307.18725
 20
-97.13075
 30
0.0
 11
307.18725
 21
-96.277417
 31
0.0
  0
LINE
  8
1
  6
CONTINUOUS
 62
     1
  5
42B
 10
268.50725
 20
-97.13075
 30
0.0
 11
268.50725
 21
-96.277417
 31
0.0
  0
LINE
  8
1
  6
CONTINUOUS
 62
     1
  5
42C
 10
261.30725
 20
-96.277417
 30
0.0
 11
261.30725
 21
-94.502417
 31
0.0
  0
LINE
  8
1
  6
CONTINUOUS
 62
     1
  5
42D
 10
267.50725
 20
-96.277417
 30
0.0
 11
267.50725
 21
-94.502417
 31
0.0
  0
ARC
  8
1
  6
CONTINUOUS
 62
     1
  5
42E
 10
262.345916
 20
-94.541083
 30
0.0
 40
1.039385
 50
92.131942
 51
177.868061
210
0.0
220
0.0
230
1.0
  0
ARC
  8
1
  6
CONTINUOUS
 62
     1
  5
42F
 10
266.468584
 20
-94.541083
 30
0.0
 40
1.039385
 50
2.131939
 51
87.868058
210
0.0
220
0.0
230
1.0
  0
LINE
  8
1
  6
CONTINUOUS
 62
     1
  5
430
 10
266.10725
 20
-93.502417
 30
0.0
 11
266.10725
 21
-91.502417
 31
0.0
  0
LINE
  8
1
  6
CONTINUOUS
 62
     1
  5
431
 10
266.10725
 20
-91.502417
 30
0.0
 11
262.70725
 21
-91.502417
 31
0.0
  0
LINE
  8
1
  6
CONTINUOUS
 62
     1
  5
432
 10
262.70725
 20
-92.502417
 30
0.0
 11
266.10725
 21
-92.502417
 31
0.0
  0
LINE
  8
1
  6
CONTINUOUS
 62
     1
  5
433
 10
262.70725
 20
-93.502417
 30
0.0
 11
262.70725
 21
-92.502417
 31
0.0
  0
LINE
  8
1
  6
CONTINUOUS
 62
     1
  5
434
 10
262.70725
 20
-92.502417
 30
0.0
 11
262.70725
 21
-91.502417
 31
0.0
  0
LINE
  8
1
  6
CONTINUOUS
 62
     1
  5
435
 10
263.70725
 20
-92.002417
 30
0.0
 11
265.10725
 21
-92.002417
 31
0.0
  0
LINE
  8
1
  6
CONTINUOUS
 62
     1
  5
436
 10
263.70725
 20
-93.002417
 30
0.0
 11
265.10725
 21
-93.002417
 31
0.0
  0
LINE
  8
1
  6
CONTINUOUS
 62
     1
  5
437
 10
262.70725
 20
-96.277417
 30
0.0
 11
262.70725
 21
-94.502417
 31
0.0
  0
LINE
  8
1
  6
CONTINUOUS
 62
     1
  5
438
 10
266.10725
 20
-96.277417
 30
0.0
 11
266.10725
 21
-94.502417
 31
0.0
  0
ARC
  8
1
  6
CONTINUOUS
 62
     1
  5
439
 10
264.40725
 20
-96.976422
 30
0.0
 40
3.001784
 50
55.505303
 51
124.494697
210
0.0
220
0.0
230
1.0
  0
ARC
  8
1
  6
CONTINUOUS
 62
     1
  5
43A
 10
251.065579
 20
-98.579086
 30
0.0
 40
12.334818
 50
19.299181
 51
24.303639
210
0.0
220
0.0
230
1.0
  0
ARC
  8
1
  6
CONTINUOUS
 62
     1
  5
43B
 10
277.748921
 20
-98.579086
 30
0.0
 40
12.334818
 50
155.696361
 51
160.700819
210
0.0
220
0.0
230
1.0
  0
LINE
  8
1
  6
CONTINUOUS
 62
     1
  5
43C
 10
262.70725
 20
-101.614083
 30
0.0
 11
262.70725
 21
-104.614083
 31
0.0
  0
LINE
  8
1
  6
CONTINUOUS
 62
     1
  5
43D
 10
266.10725
 20
-101.614083
 30
0.0
 11
266.10725
 21
-104.614083
 31
0.0
  0
ARC
  8
1
  6
CONTINUOUS
 62
     1
  5
43E
 10
263.55725
 20
-104.209237
 30
0.0
 40
0.941488
 50
205.467958
 51
334.532042
210
0.0
220
0.0
230
1.0
  0
ARC
  8
1
  6
CONTINUOUS
 62
     1
  5
43F
 10
265.25725
 20
-104.209237
 30
0.0
 40
0.941488
 50
205.467958
 51
334.532042
210
0.0
220
0.0
230
1.0
  0
ARC
  8
1
  6
CONTINUOUS
 62
     1
  5
440
 10
265.25725
 20
-105.018929
 30
0.0
 40
0.941488
 50
25.467958
 51
154.532042
210
0.0
220
0.0
230
1.0
  0
LINE
  8
1
  6
CONTINUOUS
 62
     1
  5
441
 10
298.98725
 20
-96.277417
 30
0.0
 11
307.18725
 21
-96.277417
 31
0.0
  0
LINE
  8
1
  6
CONTINUOUS
 62
     1
  5
442
 10
300.98725
 20
-93.502417
 30
0.0
 11
305.18725
 21
-93.502417
 31
0.0
  0
LINE
  8
1
  6
CONTINUOUS
 62
     1
  5
443
 10
298.98725
 20
-97.13075
 30
0.0
 11
298.98725
 21
-96.277417
 31
0.0
  0
LINE
  8
1
  6
CONTINUOUS
 62
     1
  5
444
 10
299.98725
 20
-96.277417
 30
0.0
 11
299.98725
 21
-94.502417
 31
0.0
  0
LINE
  8
1
  6
CONTINUOUS
 62
     1
  5
445
 10
306.18725
 20
-96.277417
 30
0.0
 11
306.18725
 21
-94.502417
 31
0.0
  0
ARC
  8
1
  6
CONTINUOUS
 62
     1
  5
446
 10
301.025916
 20
-94.541083
 30
0.0
 40
1.039385
 50
92.131942
 51
177.868061
210
0.0
220
0.0
230
1.0
  0
ARC
  8
1
  6
CONTINUOUS
 62
     1
  5
447
 10
305.148584
 20
-94.541083
 30
0.0
 40
1.039385
 50
2.131939
 51
87.868058
210
0.0
220
0.0
230
1.0
  0
LINE
  8
1
  6
CONTINUOUS
 62
     1
  5
448
 10
304.78725
 20
-93.502417
 30
0.0
 11
304.78725
 21
-91.502417
 31
0.0
  0
LINE
  8
1
  6
CONTINUOUS
 62
     1
  5
449
 10
304.78725
 20
-91.502417
 30
0.0
 11
301.38725
 21
-91.502417
 31
0.0
  0
LINE
  8
1
  6
CONTINUOUS
 62
     1
  5
44A
 10
301.38725
 20
-92.502417
 30
0.0
 11
304.78725
 21
-92.502417
 31
0.0
  0
LINE
  8
1
  6
CONTINUOUS
 62
     1
  5
44B
 10
301.38725
 20
-93.502417
 30
0.0
 11
301.38725
 21
-92.502417
 31
0.0
  0
LINE
  8
1
  6
CONTINUOUS
 62
     1
  5
44C
 10
301.38725
 20
-92.502417
 30
0.0
 11
301.38725
 21
-91.502417
 31
0.0
  0
LINE
  8
1
  6
CONTINUOUS
 62
     1
  5
44D
 10
302.38725
 20
-92.002417
 30
0.0
 11
303.78725
 21
-92.002417
 31
0.0
  0
LINE
  8
1
  6
CONTINUOUS
 62
     1
  5
44E
 10
302.38725
 20
-93.002417
 30
0.0
 11
303.78725
 21
-93.002417
 31
0.0
  0
LINE
  8
1
  6
CONTINUOUS
 62
     1
  5
44F
 10
301.38725
 20
-96.277417
 30
0.0
 11
301.38725
 21
-94.502417
 31
0.0
  0
LINE
  8
1
  6
CONTINUOUS
 62
     1
  5
450
 10
304.78725
 20
-96.277417
 30
0.0
 11
304.78725
 21
-94.502417
 31
0.0
  0
ARC
  8
1
  6
CONTINUOUS
 62
     1
  5
451
 10
303.08725
 20
-96.976422
 30
0.0
 40
3.001784
 50
55.505303
 51
124.494697
210
0.0
220
0.0
230
1.0
  0
ARC
  8
1
  6
CONTINUOUS
 62
     1
  5
452
 10
289.745579
 20
-98.579086
 30
0.0
 40
12.334818
 50
19.299181
 51
24.303639
210
0.0
220
0.0
230
1.0
  0
ARC
  8
1
  6
CONTINUOUS
 62
     1
  5
453
 10
316.428921
 20
-98.579086
 30
0.0
 40
12.334818
 50
155.696361
 51
160.700819
210
0.0
220
0.0
230
1.0
  0
LINE
  8
1
  6
CONTINUOUS
 62
     1
  5
454
 10
301.38725
 20
-101.614083
 30
0.0
 11
301.38725
 21
-104.614083
 31
0.0
  0
LINE
  8
1
  6
CONTINUOUS
 62
     1
  5
455
 10
304.78725
 20
-101.614083
 30
0.0
 11
304.78725
 21
-104.614083
 31
0.0
  0
ARC
  8
1
  6
CONTINUOUS
 62
     1
  5
456
 10
302.23725
 20
-104.209237
 30
0.0
 40
0.941488
 50
205.467958
 51
334.532042
210
0.0
220
0.0
230
1.0
  0
ARC
  8
1
  6
CONTINUOUS
 62
     1
  5
457
 10
303.93725
 20
-104.209237
 30
0.0
 40
0.941488
 50
205.467958
 51
334.532042
210
0.0
220
0.0
230
1.0
  0
ARC
  8
1
  6
CONTINUOUS
 62
     1
  5
458
 10
303.93725
 20
-105.018929
 30
0.0
 40
0.941488
 50
25.467958
 51
154.532042
210
0.0
220
0.0
230
1.0
  0
LINE
  8
1
  6
CONTINUOUS
 62
     1
  5
459
 10
271.545583
 20
-97.13075
 30
0.0
 11
271.545583
 21
-70.912417
 31
0.0
  0
LINE
  8
1
  6
CONTINUOUS
 62
     1
  5
45A
 10
296.17225
 20
-97.13075
 30
0.0
 11
296.17225
 21
-70.912417
 31
0.0
  0
ARC
  8
1
  6
CONTINUOUS
 62
     1
  5
45B
 10
277.70225
 20
-76.093995
 30
0.0
 40
8.046943
 50
40.084658
 51
139.915342
210
0.0
220
0.0
230
1.0
  0
ARC
  8
1
  6
CONTINUOUS
 62
     1
  5
45C
 10
290.015583
 20
-76.093995
 30
0.0
 40
8.046943
 50
40.084658
 51
139.915342
210
0.0
220
0.0
230
1.0
  0
ARC
  8
1
  6
CONTINUOUS
 62
     1
  5
45D
 10
277.70225
 20
-65.730839
 30
0.0
 40
8.046943
 50
220.084658
 51
319.915342
210
0.0
220
0.0
230
1.0
  0
LINE
  8
1
  6
CONTINUOUS
 62
     1
  5
45E
 10
259.30725
 20
-106.429083
 30
0.0
 11
308.18725
 21
-106.429083
 31
0.0
  0
LINE
  8
1
  6
CONTINUOUS
 62
     1
  5
45F
 10
259.30725
 20
-107.784083
 30
0.0
 11
308.18725
 21
-107.784083
 31
0.0
  0
LINE
  8
1
  6
CONTINUOUS
 62
     1
  5
460
 10
259.30725
 20
-106.429083
 30
0.0
 11
259.30725
 21
-107.784083
 31
0.0
  0
LINE
  8
1
  6
CONTINUOUS
 62
     1
  5
461
 10
308.18725
 20
-106.429083
 30
0.0
 11
308.18725
 21
-107.784083
 31
0.0
  0
LINE
  8
1
  6
CONTINUOUS
 62
     1
  5
462
 10
259.30725
 20
-117.744083
 30
0.0
 11
308.18725
 21
-117.744083
 31
0.0
  0
LINE
  8
1
  6
CONTINUOUS
 62
     1
  5
463
 10
259.30725
 20
-122.227417
 30
0.0
 11
308.18725
 21
-122.227417
 31
0.0
  0
LINE
  8
1
  6
CONTINUOUS
 62
     1
  5
464
 10
259.30725
 20
-122.227417
 30
0.0
 11
259.30725
 21
-117.744083
 31
0.0
  0
LINE
  8
1
  6
CONTINUOUS
 62
     1
  5
465
 10
308.18725
 20
-122.227417
 30
0.0
 11
308.18725
 21
-117.744083
 31
0.0
  0
LINE
  8
1
  6
CONTINUOUS
 62
     1
  5
466
 10
260.30725
 20
-123.08075
 30
0.0
 11
268.50725
 21
-123.08075
 31
0.0
  0
LINE
  8
1
  6
CONTINUOUS
 62
     1
  5
467
 10
262.30725
 20
-125.85575
 30
0.0
 11
266.50725
 21
-125.85575
 31
0.0
  0
LINE
  8
1
  6
CONTINUOUS
 62
     1
  5
468
 10
260.30725
 20
-122.227417
 30
0.0
 11
260.30725
 21
-123.08075
 31
0.0
  0
LINE
  8
1
  6
CONTINUOUS
 62
     1
  5
469
 10
307.18725
 20
-122.227417
 30
0.0
 11
307.18725
 21
-123.08075
 31
0.0
  0
LINE
  8
1
  6
CONTINUOUS
 62
     1
  5
46A
 10
268.50725
 20
-122.227417
 30
0.0
 11
268.50725
 21
-123.08075
 31
0.0
  0
LINE
  8
1
  6
CONTINUOUS
 62
     1
  5
46B
 10
261.30725
 20
-123.08075
 30
0.0
 11
261.30725
 21
-124.85575
 31
0.0
  0
LINE
  8
1
  6
CONTINUOUS
 62
     1
  5
46C
 10
267.50725
 20
-123.08075
 30
0.0
 11
267.50725
 21
-124.85575
 31
0.0
  0
ARC
  8
1
  6
CONTINUOUS
 62
     1
  5
46D
 10
262.345916
 20
-124.817084
 30
0.0
 40
1.039385
 50
182.131939
 51
267.868058
210
0.0
220
0.0
230
1.0
  0
ARC
  8
1
  6
CONTINUOUS
 62
     1
  5
46E
 10
266.468584
 20
-124.817084
 30
0.0
 40
1.039385
 50
272.131942
 51
357.868061
210
0.0
220
0.0
230
1.0
  0
LINE
  8
1
  6
CONTINUOUS
 62
     1
  5
46F
 10
266.10725
 20
-125.85575
 30
0.0
 11
266.10725
 21
-127.85575
 31
0.0
  0
LINE
  8
1
  6
CONTINUOUS
 62
     1
  5
470
 10
266.10725
 20
-127.85575
 30
0.0
 11
262.70725
 21
-127.85575
 31
0.0
  0
LINE
  8
1
  6
CONTINUOUS
 62
     1
  5
471
 10
262.70725
 20
-126.85575
 30
0.0
 11
266.10725
 21
-126.85575
 31
0.0
  0
LINE
  8
1
  6
CONTINUOUS
 62
     1
  5
472
 10
262.70725
 20
-125.85575
 30
0.0
 11
262.70725
 21
-126.85575
 31
0.0
  0
LINE
  8
1
  6
CONTINUOUS
 62
     1
  5
473
 10
262.70725
 20
-126.85575
 30
0.0
 11
262.70725
 21
-127.85575
 31
0.0
  0
LINE
  8
1
  6
CONTINUOUS
 62
     1
  5
474
 10
263.70725
 20
-127.35575
 30
0.0
 11
265.10725
 21
-127.35575
 31
0.0
  0
LINE
  8
1
  6
CONTINUOUS
 62
     1
  5
475
 10
263.70725
 20
-126.35575
 30
0.0
 11
265.10725
 21
-126.35575
 31
0.0
  0
LINE
  8
1
  6
CONTINUOUS
 62
     1
  5
476
 10
262.70725
 20
-123.08075
 30
0.0
 11
262.70725
 21
-124.85575
 31
0.0
  0
LINE
  8
1
  6
CONTINUOUS
 62
     1
  5
477
 10
266.10725
 20
-123.08075
 30
0.0
 11
266.10725
 21
-124.85575
 31
0.0
  0
ARC
  8
1
  6
CONTINUOUS
 62
     1
  5
478
 10
264.40725
 20
-122.381744
 30
0.0
 40
3.001784
 50
235.505303
 51
304.494697
210
0.0
220
0.0
230
1.0
  0
ARC
  8
1
  6
CONTINUOUS
 62
     1
  5
479
 10
251.065579
 20
-120.779081
 30
0.0
 40
12.334818
 50
335.696361
 51
340.700819
210
0.0
220
0.0
230
1.0
  0
ARC
  8
1
  6
CONTINUOUS
 62
     1
  5
47A
 10
277.748921
 20
-120.779081
 30
0.0
 40
12.334818
 50
199.299181
 51
204.303639
210
0.0
220
0.0
230
1.0
  0
LINE
  8
1
  6
CONTINUOUS
 62
     1
  5
47B
 10
262.70725
 20
-116.89075
 30
0.0
 11
262.70725
 21
-114.744083
 31
0.0
  0
LINE
  8
1
  6
CONTINUOUS
 62
     1
  5
47C
 10
266.10725
 20
-116.89075
 30
0.0
 11
266.10725
 21
-114.744083
 31
0.0
  0
ARC
  8
1
  6
CONTINUOUS
 62
     1
  5
47D
 10
263.55725
 20
-115.148929
 30
0.0
 40
0.941488
 50
25.467958
 51
154.532042
210
0.0
220
0.0
230
1.0
  0
ARC
  8
1
  6
CONTINUOUS
 62
     1
  5
47E
 10
265.25725
 20
-115.148929
 30
0.0
 40
0.941488
 50
25.467958
 51
154.532042
210
0.0
220
0.0
230
1.0
  0
ARC
  8
1
  6
CONTINUOUS
 62
     1
  5
47F
 10
265.25725
 20
-114.339237
 30
0.0
 40
0.941488
 50
205.467958
 51
334.532042
210
0.0
220
0.0
230
1.0
  0
LINE
  8
1
  6
CONTINUOUS
 62
     1
  5
480
 10
298.98725
 20
-123.08075
 30
0.0
 11
307.18725
 21
-123.08075
 31
0.0
  0
LINE
  8
1
  6
CONTINUOUS
 62
     1
  5
481
 10
300.98725
 20
-125.85575
 30
0.0
 11
305.18725
 21
-125.85575
 31
0.0
  0
LINE
  8
1
  6
CONTINUOUS
 62
     1
  5
482
 10
298.98725
 20
-122.227417
 30
0.0
 11
298.98725
 21
-123.08075
 31
0.0
  0
LINE
  8
1
  6
CONTINUOUS
 62
     1
  5
483
 10
299.98725
 20
-123.08075
 30
0.0
 11
299.98725
 21
-124.85575
 31
0.0
  0
LINE
  8
1
  6
CONTINUOUS
 62
     1
  5
484
 10
306.18725
 20
-123.08075
 30
0.0
 11
306.18725
 21
-124.85575
 31
0.0
  0
ARC
  8
1
  6
CONTINUOUS
 62
     1
  5
485
 10
301.025916
 20
-124.817084
 30
0.0
 40
1.039385
 50
182.131939
 51
267.868058
210
0.0
220
0.0
230
1.0
  0
ARC
  8
1
  6
CONTINUOUS
 62
     1
  5
486
 10
305.148584
 20
-124.817084
 30
0.0
 40
1.039385
 50
272.131942
 51
357.868061
210
0.0
220
0.0
230
1.0
  0
LINE
  8
1
  6
CONTINUOUS
 62
     1
  5
487
 10
304.78725
 20
-125.85575
 30
0.0
 11
304.78725
 21
-127.85575
 31
0.0
  0
LINE
  8
1
  6
CONTINUOUS
 62
     1
  5
488
 10
304.78725
 20
-127.85575
 30
0.0
 11
301.38725
 21
-127.85575
 31
0.0
  0
LINE
  8
1
  6
CONTINUOUS
 62
     1
  5
489
 10
301.38725
 20
-126.85575
 30
0.0
 11
304.78725
 21
-126.85575
 31
0.0
  0
LINE
  8
1
  6
CONTINUOUS
 62
     1
  5
48A
 10
301.38725
 20
-125.85575
 30
0.0
 11
301.38725
 21
-126.85575
 31
0.0
  0
LINE
  8
1
  6
CONTINUOUS
 62
     1
  5
48B
 10
301.38725
 20
-126.85575
 30
0.0
 11
301.38725
 21
-127.85575
 31
0.0
  0
LINE
  8
1
  6
CONTINUOUS
 62
     1
  5
48C
 10
302.38725
 20
-127.35575
 30
0.0
 11
303.78725
 21
-127.35575
 31
0.0
  0
LINE
  8
1
  6
CONTINUOUS
 62
     1
  5
48D
 10
302.38725
 20
-126.35575
 30
0.0
 11
303.78725
 21
-126.35575
 31
0.0
  0
LINE
  8
1
  6
CONTINUOUS
 62
     1
  5
48E
 10
301.38725
 20
-123.08075
 30
0.0
 11
301.38725
 21
-124.85575
 31
0.0
  0
LINE
  8
1
  6
CONTINUOUS
 62
     1
  5
48F
 10
304.78725
 20
-123.08075
 30
0.0
 11
304.78725
 21
-124.85575
 31
0.0
  0
ARC
  8
1
  6
CONTINUOUS
 62
     1
  5
490
 10
303.08725
 20
-122.381744
 30
0.0
 40
3.001784
 50
235.505303
 51
304.494697
210
0.0
220
0.0
230
1.0
  0
ARC
  8
1
  6
CONTINUOUS
 62
     1
  5
491
 10
289.745579
 20
-120.779081
 30
0.0
 40
12.334818
 50
335.696361
 51
340.700819
210
0.0
220
0.0
230
1.0
  0
ARC
  8
1
  6
CONTINUOUS
 62
     1
  5
492
 10
316.428921
 20
-120.779081
 30
0.0
 40
12.334818
 50
199.299181
 51
204.303639
210
0.0
220
0.0
230
1.0
  0
LINE
  8
1
  6
CONTINUOUS
 62
     1
  5
493
 10
301.38725
 20
-116.89075
 30
0.0
 11
301.38725
 21
-114.744083
 31
0.0
  0
LINE
  8
1
  6
CONTINUOUS
 62
     1
  5
494
 10
304.78725
 20
-116.89075
 30
0.0
 11
304.78725
 21
-114.744083
 31
0.0
  0
ARC
  8
1
  6
CONTINUOUS
 62
     1
  5
495
 10
302.23725
 20
-115.148929
 30
0.0
 40
0.941488
 50
25.467958
 51
154.532042
210
0.0
220
0.0
230
1.0
  0
ARC
  8
1
  6
CONTINUOUS
 62
     1
  5
496
 10
303.93725
 20
-115.148929
 30
0.0
 40
0.941488
 50
25.467958
 51
154.532042
210
0.0
220
0.0
230
1.0
  0
ARC
  8
1
  6
CONTINUOUS
 62
     1
  5
497
 10
303.93725
 20
-114.339237
 30
0.0
 40
0.941488
 50
205.467958
 51
334.532042
210
0.0
220
0.0
230
1.0
  0
LINE
  8
1
  6
CONTINUOUS
 62
     1
  5
498
 10
271.545583
 20
-122.227417
 30
0.0
 11
271.545583
 21
-138.132417
 31
0.0
  0
LINE
  8
1
  6
CONTINUOUS
 62
     1
  5
499
 10
296.17225
 20
-122.227417
 30
0.0
 11
296.17225
 21
-138.132417
 31
0.0
  0
LINE
  8
1
  6
CONTINUOUS
 62
     1
  5
49A
 10
260.30725
 20
-116.89075
 30
0.0
 11
268.50725
 21
-116.89075
 31
0.0
  0
LINE
  8
1
  6
CONTINUOUS
 62
     1
  5
49B
 10
260.30725
 20
-117.744083
 30
0.0
 11
260.30725
 21
-116.89075
 31
0.0
  0
LINE
  8
1
  6
CONTINUOUS
 62
     1
  5
49C
 10
268.50725
 20
-117.744083
 30
0.0
 11
268.50725
 21
-116.89075
 31
0.0
  0
LINE
  8
1
  6
CONTINUOUS
 62
     1
  5
49D
 10
298.98725
 20
-116.89075
 30
0.0
 11
307.18725
 21
-116.89075
 31
0.0
  0
LINE
  8
1
  6
CONTINUOUS
 62
     1
  5
49E
 10
307.18725
 20
-117.744083
 30
0.0
 11
307.18725
 21
-116.89075
 31
0.0
  0
LINE
  8
1
  6
CONTINUOUS
 62
     1
  5
49F
 10
298.98725
 20
-117.744083
 30
0.0
 11
298.98725
 21
-116.89075
 31
0.0
  0
ARC
  8
1
  6
CONTINUOUS
 62
     1
  5
4A0
 10
277.70225
 20
-132.950839
 30
0.0
 40
8.046943
 50
220.084658
 51
319.915342
210
0.0
220
0.0
230
1.0
  0
ARC
  8
1
  6
CONTINUOUS
 62
     1
  5
4A1
 10
290.015583
 20
-132.950839
 30
0.0
 40
8.046943
 50
220.084658
 51
319.915342
210
0.0
220
0.0
230
1.0
  0
ARC
  8
1
  6
CONTINUOUS
 62
     1
  5
4A2
 10
290.015583
 20
-143.313995
 30
0.0
 40
8.046943
 50
40.084658
 51
139.915342
210
0.0
220
0.0
230
1.0
  0
CIRCLE
  8
1
  6
CONTINUOUS
 62
     1
  5
4A3
 10
251.473411
 20
-80.895552
 30
0.0
 40
1.957301
210
0.0
220
0.0
230
1.0
  0
LINE
  8
1
  6
CONTINUOUS
 62
     1
  5
4A4
 10
253.430583
 20
-80.894583
 30
0.0
 11
259.110667
 21
-80.894583
 31
0.0
  0
LINE
  8
1
  6
CONTINUOUS
 62
     1
  5
4A5
 10
251.474417
 20
-82.85275
 30
0.0
 11
251.474417
 21
-88.131917
 31
0.0
  0
INSERT
  8
1
  6
CONTINUOUS
 62
     1
  5
4A6
  2
LDR
 10
251.474417
 20
-88.131917
 30
0.0
 41
243.0
 42
243.0
 50
270.0
210
0.0
220
0.0
230
1.0
  0
LINE
  8
1
  6
CONTINUOUS
 62
     1
  5
4A7
 10
282.047333
 20
-80.9715
 30
0.0
 11
276.36725
 21
-80.9715
 31
0.0
  0
CIRCLE
  8
1
  6
CONTINUOUS
 62
     1
  5
4A8
 10
284.004559
 20
-80.972502
 30
0.0
 40
1.957301
210
0.0
220
0.0
230
1.0
  0
LINE
  8
1
  6
CONTINUOUS
 62
     1
  5
4A9
 10
284.0035
 20
-82.929667
 30
0.0
 11
284.0035
 21
-88.208833
 31
0.0
  0
INSERT
  8
1
  6
CONTINUOUS
 62
     1
  5
4AA
  2
LDR
 10
284.0035
 20
-88.208833
 30
0.0
 41
243.0
 42
-243.0
 50
270.0
210
0.0
220
0.0
230
1.0
  0
CIRCLE
  8
1
  6
CONTINUOUS
 62
     1
  5
4AB
 10
283.810141
 20
-110.141506
 30
0.0
 40
1.957301
210
0.0
220
0.0
230
1.0
  0
LINE
  8
1
  6
CONTINUOUS
 62
     1
  5
4AC
 10
285.767333
 20
-110.140583
 30
0.0
 11
291.4475
 21
-110.140583
 31
0.0
  0
LINE
  8
1
  6
CONTINUOUS
 62
     1
  5
4AD
 10
283.811167
 20
-112.09875
 30
0.0
 11
283.811167
 21
-117.377917
 31
0.0
  0
INSERT
  8
1
  6
CONTINUOUS
 62
     1
  5
4AE
  2
LDR
 10
283.811167
 20
-117.377917
 30
0.0
 41
243.0
 42
243.0
 50
270.0
210
0.0
220
0.0
230
1.0
  0
LINE
  8
1
  6
CONTINUOUS
 62
     1
  5
4AF
 10
318.621083
 20
-110.173917
 30
0.0
 11
312.941
 21
-110.173917
 31
0.0
  0
CIRCLE
  8
1
  6
CONTINUOUS
 62
     1
  5
4B0
 10
320.578223
 20
-110.174895
 30
0.0
 40
1.957301
210
0.0
220
0.0
230
1.0
  0
LINE
  8
1
  6
CONTINUOUS
 62
     1
  5
4B1
 10
320.57725
 20
-112.132083
 30
0.0
 11
320.57725
 21
-117.41125
 31
0.0
  0
INSERT
  8
1
  6
CONTINUOUS
 62
     1
  5
4B2
  2
LDR
 10
320.57725
 20
-117.41125
 30
0.0
 41
243.0
 42
-243.0
 50
270.0
210
0.0
220
0.0
230
1.0
  0
LINE
  8
1
  6
CONTINUOUS
 62
     1
  5
4B3
 10
306.18725
 20
-94.502417
 30
0.0
 11
316.203917
 21
-85.897417
 31
0.0
  0
LINE
  8
1
  6
CONTINUOUS
 62
     1
  5
4B4
 10
308.18725
 20
-106.429083
 30
0.0
 11
320.118917
 21
-102.94075
 31
0.0
  0
LINE
  8
1
  6
CONTINUOUS
 62
     1
  5
4B5
 10
271.545583
 20
-138.132417
 30
0.0
 11
259.18725
 21
-138.132417
 31
0.0
  0
LINE
  8
1
  6
CONTINUOUS
 62
     1
  5
4B6
 10
262.70725
 20
-101.614083
 30
0.0
 11
256.328917
 21
-110.982417
 31
0.0
  0
LINE
  8
1
  6
CONTINUOUS
 62
     1
  5
4B7
 10
256.328917
 20
-110.982417
 30
0.0
 11
260.30725
 21
-116.89075
 31
0.0
  0
INSERT
  8
1
  6
CONTINUOUS
 62
     1
  5
4B8
  2
LDR
 10
262.70725
 20
-101.614083
 30
0.0
 41
200.000042
 42
200.000042
 50
55.751407
210
0.0
220
0.0
230
1.0
  0
INSERT
  8
1
  6
CONTINUOUS
 62
     1
  5
4B9
  2
LDR
 10
262.70725
 20
-101.614083
 30
0.0
 41
200.000042
 42
200.000042
 50
55.751407
210
0.0
220
0.0
230
1.0
  0
INSERT
  8
1
  6
CONTINUOUS
 62
     1
  5
4BA
  2
LDR
 10
260.30725
 20
-116.89075
 30
0.0
 41
200.000024
 42
200.000024
 50
303.954065
210
0.0
220
0.0
230
1.0
  0
LINE
  8
1
  6
CONTINUOUS
 62
     1
  5
4BB
 10
256.328917
 20
-110.982417
 30
0.0
 11
247.04725
 21
-110.982417
 31
0.0
  0
LINE
  8
1
  6
CONTINUOUS
 62
     1
  5
4BC
 10
283.74725
 20
-101.614083
 30
0.0
 11
278.253917
 21
-111.509083
 31
0.0
  0
LINE
  8
1
  6
CONTINUOUS
 62
     1
  5
4BD
 10
278.253917
 20
-111.509083
 30
0.0
 11
283.74725
 21
-117.744083
 31
0.0
  0
LINE
  8
1
  6
CONTINUOUS
 62
     1
  5
4BE
 10
278.253917
 20
-111.509083
 30
0.0
 11
273.228917
 21
-111.509083
 31
0.0
  0
INSERT
  8
1
  6
CONTINUOUS
 62
     1
  5
4BF
  2
LDR
 10
283.74725
 20
-101.614083
 30
0.0
 41
199.999984
 42
199.999984
 50
60.96259
210
0.0
220
0.0
230
1.0
  0
INSERT
  8
1
  6
CONTINUOUS
 62
     1
  5
4C0
  2
LDR
 10
283.74725
 20
-101.614083
 30
0.0
 41
199.999984
 42
199.999984
 50
60.96259
210
0.0
220
0.0
230
1.0
  0
INSERT
  8
1
  6
CONTINUOUS
 62
     1
  5
4C1
  2
LDR
 10
283.74725
 20
-117.744083
 30
0.0
 41
199.999996
 42
199.999996
 50
311.381579
210
0.0
220
0.0
230
1.0
  0
INSERT
  8
1
  6
CONTINUOUS
 62
     1
  5
4C2
  2
LDR
 10
306.18725
 20
-94.502417
 30
0.0
 41
200.000049
 42
200.000049
 50
220.66483
210
0.0
220
0.0
230
1.0
  0
INSERT
  8
1
  6
CONTINUOUS
 62
     1
  5
4C3
  2
LDR
 10
306.18725
 20
-94.502417
 30
0.0
 41
200.000049
 42
200.000049
 50
220.66483
210
0.0
220
0.0
230
1.0
  0
INSERT
  8
1
  6
CONTINUOUS
 62
     1
  5
4C4
  2
LDR
 10
308.18725
 20
-106.429083
 30
0.0
 41
200.000033
 42
200.000033
 50
196.296769
210
0.0
220
0.0
230
1.0
  0
INSERT
  8
1
  6
CONTINUOUS
 62
     1
  5
4C5
  2
LDR
 10
279.558917
 20
-56.494083
 30
0.0
 41
800.0
 42
800.0
 50
180.0
210
0.0
220
0.0
230
1.0
  0
INSERT
  8
1
  6
CONTINUOUS
 62
     1
  5
4C6
  2
LDR
 10
271.545583
 20
-138.132417
 30
0.0
 41
200.0
 42
200.0
210
0.0
220
0.0
230
1.0
  0
LINE
  8
1
  6
DASHED
 62
     1
  5
4C7
 10
239.578917
 20
-133.007417
 30
0.0
 11
326.753917
 21
-133.007417
 31
0.0
  0
LINE
  8
1
  6
CONTINUOUS
 62
     1
  5
4C8
 10
305.22725
 20
-132.98575
 30
0.0
 11
310.91725
 21
-141.16575
 31
0.0
  0
INSERT
  8
1
  6
CONTINUOUS
 62
     1
  5
4C9
  2
LDR
 10
305.22725
 20
-132.98575
 30
0.0
 41
199.999945
 42
199.999945
 50
124.822434
210
0.0
220
0.0
230
1.0
  0
LINE
  8
1
  6
CONTINUOUS
 62
     1
  5
4CA
 10
334.959583
 20
-174.713167
 30
0.0
 11
356.959583
 21
-174.713167
 31
0.0
  0
LINE
  8
1
  6
CONTINUOUS
 62
     1
  5
4CB
 10
334.959583
 20
-196.713167
 30
0.0
 11
356.959583
 21
-196.713167
 31
0.0
  0
LINE
  8
1
  6
CONTINUOUS
 62
     1
  5
4CC
 10
334.959583
 20
-174.713167
 30
0.0
 11
334.959583
 21
-196.713167
 31
0.0
  0
LINE
  8
1
  6
CONTINUOUS
 62
     1
  5
4CD
 10
356.959583
 20
-174.713167
 30
0.0
 11
356.959583
 21
-181.713167
 31
0.0
  0
LINE
  8
1
  6
CONTINUOUS
 62
     1
  5
4CE
 10
356.959583
 20
-189.713167
 30
0.0
 11
356.959583
 21
-196.713167
 31
0.0
  0
LINE
  8
1
  6
CONTINUOUS
 62
     1
  5
4CF
 10
356.959583
 20
-181.713167
 30
0.0
 11
344.969583
 21
-181.713167
 31
0.0
  0
LINE
  8
1
  6
CONTINUOUS
 62
     1
  5
4D0
 10
356.959583
 20
-189.713167
 30
0.0
 11
344.969583
 21
-189.713167
 31
0.0
  0
ARC
  8
1
  6
CONTINUOUS
 62
     1
  5
4D1
 10
345.019219
 20
-185.713167
 30
0.0
 40
4.000308
 50
90.710942
 51
269.289056
210
0.0
220
0.0
230
1.0
  0
LINE
  8
1
  6
CONTINUOUS
 62
     1
  5
4D2
 10
358.959583
 20
-174.713167
 30
0.0
 11
368.90125
 21
-174.713167
 31
0.0
  0
LINE
  8
1
  6
CONTINUOUS
 62
     1
  5
4D3
 10
358.959583
 20
-196.713167
 30
0.0
 11
368.90125
 21
-196.713167
 31
0.0
  0
LINE
  8
1
  6
CONTINUOUS
 62
     1
  5
4D4
 10
366.90125
 20
-174.713167
 30
0.0
 11
366.90125
 21
-196.713167
 31
0.0
  0
LINE
  8
1
  6
CONTINUOUS
 62
     1
  5
4D5
 10
358.959583
 20
-181.713167
 30
0.0
 11
364.00125
 21
-181.713167
 31
0.0
  0
LINE
  8
1
  6
CONTINUOUS
 62
     1
  5
4D6
 10
358.959583
 20
-189.713167
 30
0.0
 11
364.00125
 21
-189.713167
 31
0.0
  0
LINE
  8
1
  6
CONTINUOUS
 62
     1
  5
4D7
 10
362.00125
 20
-181.713167
 30
0.0
 11
362.00125
 21
-189.713167
 31
0.0
  0
INSERT
  8
1
  6
CONTINUOUS
 62
     1
  5
4D8
  2
LDR
 10
362.00125
 20
-181.713167
 30
0.0
 41
200.0
 42
200.0
 50
90.0
210
0.0
220
0.0
230
1.0
  0
INSERT
  8
1
  6
CONTINUOUS
 62
     1
  5
4D9
  2
LDR
 10
362.00125
 20
-181.713167
 30
0.0
 41
200.0
 42
200.0
 50
90.0
210
0.0
220
0.0
230
1.0
  0
INSERT
  8
1
  6
CONTINUOUS
 62
     1
  5
4DA
  2
LDR
 10
362.00125
 20
-189.713167
 30
0.0
 41
200.0
 42
200.0
 50
270.0
210
0.0
220
0.0
230
1.0
  0
INSERT
  8
1
  6
CONTINUOUS
 62
     1
  5
4DB
  2
LDR
 10
362.00125
 20
-189.713167
 30
0.0
 41
200.0
 42
200.0
 50
270.0
210
0.0
220
0.0
230
1.0
  0
INSERT
  8
1
  6
CONTINUOUS
 62
     1
  5
4DC
  2
LDR
 10
366.90125
 20
-174.713167
 30
0.0
 41
200.0
 42
200.0
 50
90.0
210
0.0
220
0.0
230
1.0
  0
INSERT
  8
1
  6
CONTINUOUS
 62
     1
  5
4DD
  2
LDR
 10
366.90125
 20
-174.713167
 30
0.0
 41
200.0
 42
200.0
 50
90.0
210
0.0
220
0.0
230
1.0
  0
INSERT
  8
1
  6
CONTINUOUS
 62
     1
  5
4DE
  2
LDR
 10
366.90125
 20
-196.713167
 30
0.0
 41
200.0
 42
200.0
 50
270.0
210
0.0
220
0.0
230
1.0
  0
LINE
  8
1
  6
CONTINUOUS
 62
     1
  5
4DF
 10
334.959583
 20
-172.713167
 30
0.0
 11
334.959583
 21
-165.1665
 31
0.0
  0
LINE
  8
1
  6
CONTINUOUS
 62
     1
  5
4E0
 10
356.959583
 20
-172.713167
 30
0.0
 11
356.959583
 21
-165.1665
 31
0.0
  0
LINE
  8
1
  6
CONTINUOUS
 62
     1
  5
4E1
 10
334.959583
 20
-167.1665
 30
0.0
 11
356.959583
 21
-167.1665
 31
0.0
  0
INSERT
  8
1
  6
CONTINUOUS
 62
     1
  5
4E2
  2
LDR
 10
334.959583
 20
-167.1665
 30
0.0
 41
200.0
 42
200.0
 50
180.0
210
0.0
220
0.0
230
1.0
  0
INSERT
  8
1
  6
CONTINUOUS
 62
     1
  5
4E3
  2
LDR
 10
334.959583
 20
-167.1665
 30
0.0
 41
200.0
 42
200.0
 50
180.0
210
0.0
220
0.0
230
1.0
  0
INSERT
  8
1
  6
CONTINUOUS
 62
     1
  5
4E4
  2
LDR
 10
356.959583
 20
-167.1665
 30
0.0
 41
200.0
 42
200.0
210
0.0
220
0.0
230
1.0
  0
LINE
  8
1
  6
CONTINUOUS
 62
     1
  5
4E5
 10
341.019583
 20
-183.713167
 30
0.0
 11
341.019583
 21
-178.958167
 31
0.0
  0
LINE
  8
1
  6
CONTINUOUS
 62
     1
  5
4E6
 10
341.019583
 20
-180.958167
 30
0.0
 11
334.959583
 21
-180.958167
 31
0.0
  0
INSERT
  8
1
  6
CONTINUOUS
 62
     1
  5
4E7
  2
LDR
 10
334.959583
 20
-180.958167
 30
0.0
 41
200.0
 42
200.0
 50
180.0
210
0.0
220
0.0
230
1.0
  0
INSERT
  8
1
  6
CONTINUOUS
 62
     1
  5
4E8
  2
LDR
 10
334.959583
 20
-180.958167
 30
0.0
 41
200.0
 42
200.0
 50
180.0
210
0.0
220
0.0
230
1.0
  0
INSERT
  8
1
  6
CONTINUOUS
 62
     1
  5
4E9
  2
LDR
 10
341.019583
 20
-180.958167
 30
0.0
 41
200.0
 42
200.0
210
0.0
220
0.0
230
1.0
  0
LINE
  8
1
  6
CONTINUOUS
 62
     1
  5
4EA
 10
407.543917
 20
-63.862833
 30
0.0
 11
455.80725
 21
-63.862833
 31
0.0
  0
LINE
  8
1
  6
CONTINUOUS
 62
     1
  5
4EB
 10
407.543917
 20
-99.1545
 30
0.0
 11
455.80725
 21
-99.1545
 31
0.0
  0
LINE
  8
1
  6
CONTINUOUS
 62
     1
  5
4EC
 10
407.543917
 20
-63.862833
 30
0.0
 11
407.543917
 21
-67.296167
 31
0.0
  0
LINE
  8
1
  6
CONTINUOUS
 62
     1
  5
4ED
 10
455.80725
 20
-63.862833
 30
0.0
 11
455.80725
 21
-69.296167
 31
0.0
  0
LINE
  8
1
  6
CONTINUOUS
 62
     1
  5
4EE
 10
407.543917
 20
-93.721167
 30
0.0
 11
407.543917
 21
-99.1545
 31
0.0
  0
LINE
  8
1
  6
CONTINUOUS
 62
     1
  5
4EF
 10
455.80725
 20
-95.721167
 30
0.0
 11
455.80725
 21
-99.1545
 31
0.0
  0
LINE
  8
1
  6
CONTINUOUS
 62
     1
  5
4F0
 10
407.543917
 20
-67.296167
 30
0.0
 11
412.548917
 21
-68.931167
 31
0.0
  0
LINE
  8
1
  6
CONTINUOUS
 62
     1
  5
4F1
 10
407.543917
 20
-71.9595
 30
0.0
 11
412.548917
 21
-71.9595
 31
0.0
  0
ARC
  8
1
  6
CONTINUOUS
 62
     1
  5
4F2
 10
412.10417
 20
-70.445333
 30
0.0
 40
1.578132
 50
286.368758
 51
73.631242
210
0.0
220
0.0
230
1.0
  0
LINE
  8
1
  6
CONTINUOUS
 62
     1
  5
4F3
 10
407.543917
 20
-71.9595
 30
0.0
 11
407.543917
 21
-89.056167
 31
0.0
  0
LINE
  8
1
  6
CONTINUOUS
 62
     1
  5
4F4
 10
455.80725
 20
-95.721167
 30
0.0
 11
450.80225
 21
-94.086167
 31
0.0
  0
LINE
  8
1
  6
CONTINUOUS
 62
     1
  5
4F5
 10
455.80725
 20
-91.057833
 30
0.0
 11
450.80225
 21
-91.057833
 31
0.0
  0
ARC
  8
1
  6
CONTINUOUS
 62
     1
  5
4F6
 10
451.246996
 20
-92.572
 30
0.0
 40
1.578132
 50
106.368758
 51
253.631242
210
0.0
220
0.0
230
1.0
  0
LINE
  8
1
  6
CONTINUOUS
 62
     1
  5
4F7
 10
455.80725
 20
-73.9595
 30
0.0
 11
455.80725
 21
-91.057833
 31
0.0
  0
LINE
  8
1
  6
CONTINUOUS
 62
     1
  5
4F8
 10
403.543917
 20
-81.507833
 30
0.0
 11
460.613917
 21
-81.507833
 31
0.0
  0
LINE
  8
1
  6
CONTINUOUS
 62
     1
  5
4F9
 10
412.548917
 20
-55.862833
 30
0.0
 11
412.548917
 21
-95.721167
 31
0.0
  0
ARC
  8
1
  6
CONTINUOUS
 62
     1
  5
4FA
 10
451.246996
 20
-70.810333
 30
0.0
 40
1.578132
 50
106.368758
 51
253.631242
210
0.0
220
0.0
230
1.0
  0
LINE
  8
1
  6
CONTINUOUS
 62
     1
  5
4FB
 10
455.80725
 20
-73.9595
 30
0.0
 11
450.80225
 21
-72.3245
 31
0.0
  0
LINE
  8
1
  6
CONTINUOUS
 62
     1
  5
4FC
 10
455.80725
 20
-69.296167
 30
0.0
 11
450.80225
 21
-69.296167
 31
0.0
  0
LINE
  8
1
  6
CONTINUOUS
 62
     1
  5
4FD
 10
450.80225
 20
-55.862833
 30
0.0
 11
450.80225
 21
-96.086167
 31
0.0
  0
LINE
  8
1
  6
CONTINUOUS
 62
     1
  5
4FE
 10
407.543917
 20
-93.721167
 30
0.0
 11
412.548917
 21
-93.721167
 31
0.0
  0
ARC
  8
1
  6
CONTINUOUS
 62
     1
  5
4FF
 10
412.10417
 20
-92.207
 30
0.0
 40
1.578132
 50
286.368758
 51
73.631242
210
0.0
220
0.0
230
1.0
  0
LINE
  8
1
  6
CONTINUOUS
 62
     1
  5
500
 10
410.548917
 20
-70.061167
 30
0.0
 11
469.495583
 21
-70.061167
 31
0.0
  0
LINE
  8
1
  6
CONTINUOUS
 62
     1
  5
501
 10
410.548917
 20
-92.806167
 30
0.0
 11
469.495583
 21
-92.806167
 31
0.0
  0
LINE
  8
1
  6
CONTINUOUS
 62
     1
  5
502
 10
412.548917
 20
-57.862833
 30
0.0
 11
450.80225
 21
-57.862833
 31
0.0
  0
INSERT
  8
1
  6
CONTINUOUS
 62
     1
  5
503
  2
LDR
 10
412.548917
 20
-57.862833
 30
0.0
 41
200.0
 42
200.0
 50
180.0
210
0.0
220
0.0
230
1.0
  0
INSERT
  8
1
  6
CONTINUOUS
 62
     1
  5
504
  2
LDR
 10
450.80225
 20
-57.862833
 30
0.0
 41
200.0
 42
200.0
210
0.0
220
0.0
230
1.0
  0
LINE
  8
1
  6
CONTINUOUS
 62
     1
  5
505
 10
407.543917
 20
-61.862833
 30
0.0
 11
407.543917
 21
-49.862833
 31
0.0
  0
LINE
  8
1
  6
CONTINUOUS
 62
     1
  5
506
 10
455.80725
 20
-61.862833
 30
0.0
 11
455.80725
 21
-49.862833
 31
0.0
  0
LINE
  8
1
  6
CONTINUOUS
 62
     1
  5
507
 10
407.543917
 20
-51.862833
 30
0.0
 11
455.80725
 21
-51.862833
 31
0.0
  0
INSERT
  8
1
  6
CONTINUOUS
 62
     1
  5
508
  2
LDR
 10
407.543917
 20
-51.862833
 30
0.0
 41
200.0
 42
200.0
 50
180.0
210
0.0
220
0.0
230
1.0
  0
INSERT
  8
1
  6
CONTINUOUS
 62
     1
  5
509
  2
LDR
 10
407.543917
 20
-51.862833
 30
0.0
 41
200.0
 42
200.0
 50
180.0
210
0.0
220
0.0
230
1.0
  0
INSERT
  8
1
  6
CONTINUOUS
 62
     1
  5
50A
  2
LDR
 10
455.80725
 20
-51.862833
 30
0.0
 41
200.0
 42
200.0
210
0.0
220
0.0
230
1.0
  0
LINE
  8
1
  6
CONTINUOUS
 62
     1
  5
50B
 10
407.543917
 20
-57.862833
 30
0.0
 11
401.543917
 21
-57.862833
 31
0.0
  0
LINE
  8
1
  6
CONTINUOUS
 62
     1
  5
50C
 10
455.80725
 20
-57.862833
 30
0.0
 11
461.80725
 21
-57.862833
 31
0.0
  0
INSERT
  8
1
  6
CONTINUOUS
 62
     1
  5
50D
  2
LDR
 10
407.543917
 20
-57.862833
 30
0.0
 41
200.0
 42
200.0
210
0.0
220
0.0
230
1.0
  0
INSERT
  8
1
  6
CONTINUOUS
 62
     1
  5
50E
  2
LDR
 10
455.80725
 20
-57.862833
 30
0.0
 41
200.0
 42
200.0
 50
180.0
210
0.0
220
0.0
230
1.0
  0
LINE
  8
1
  6
CONTINUOUS
 62
     1
  5
50F
 10
426.230583
 20
-78.402833
 30
0.0
 11
395.478917
 21
-74.6545
 31
0.0
  0
LINE
  8
1
  6
CONTINUOUS
 62
     1
  5
510
 10
453.62225
 20
-63.6695
 30
0.0
 11
469.110333
 21
-56.673083
 31
0.0
  0
INSERT
  8
1
  6
CONTINUOUS
 62
     1
  5
511
  2
LDR
 10
453.62225
 20
-63.6695
 30
0.0
 41
199.99998
 42
199.99998
 50
204.30999
210
0.0
220
0.0
230
1.0
  0
LINE
  8
1
  6
CONTINUOUS
 62
     1
  5
512
 10
384.169
 20
-81.421917
 30
0.0
 11
405.64225
 21
-88.437833
 31
0.0
  0
LINE
  8
1
  6
CONTINUOUS
 62
     1
  5
513
 10
407.543917
 20
-89.056167
 30
0.0
 11
412.548917
 21
-90.692833
 31
0.0
  0
LINE
  8
1
  6
CONTINUOUS
 62
     1
  5
514
 10
397.885583
 20
-85.902833
 30
0.0
 11
397.885583
 21
-83.792833
 31
0.0
  0
LINE
  8
1
  6
CONTINUOUS
 62
     1
  5
515
 10
397.885583
 20
-83.792833
 30
0.0
 11
391.425583
 21
-83.792833
 31
0.0
  0
LINE
  8
1
  6
CONTINUOUS
 62
     1
  5
516
 10
413.393917
 20
-91.296167
 30
0.0
 11
416.748917
 21
-88.412833
 31
0.0
  0
INSERT
  8
1
  6
CONTINUOUS
 62
     1
  5
517
  2
LDR
 10
413.393917
 20
-91.296167
 30
0.0
 41
199.999945
 42
199.999945
 50
220.676218
210
0.0
220
0.0
230
1.0
  0
LINE
  8
1
  6
CONTINUOUS
 62
     1
  5
518
 10
427.15225
 20
-94.7745
 30
0.0
 11
449.57225
 21
-105.577833
 31
0.0
  0
LINE
  8
1
  6
CONTINUOUS
 62
     1
  5
519
 10
449.57225
 20
-105.577833
 30
0.0
 11
437.763917
 21
-94.132833
 31
0.0
  0
INSERT
  8
1
  6
CONTINUOUS
 62
     1
  5
51A
  2
LDR
 10
427.15225
 20
-94.7745
 30
0.0
 41
200.000027
 42
200.000027
 50
154.272381
210
0.0
220
0.0
230
1.0
  0
INSERT
  8
1
  6
CONTINUOUS
 62
     1
  5
51B
  2
LDR
 10
427.15225
 20
-94.7745
 30
0.0
 41
200.000027
 42
200.000027
 50
154.272381
210
0.0
220
0.0
230
1.0
  0
INSERT
  8
1
  6
CONTINUOUS
 62
     1
  5
51C
  2
LDR
 10
437.763917
 20
-94.132833
 30
0.0
 41
200.000021
 42
200.000021
 50
135.895169
210
0.0
220
0.0
230
1.0
  0
LINE
  8
1
  6
CONTINUOUS
 62
     1
  5
51D
 10
449.57225
 20
-105.577833
 30
0.0
 11
459.590583
 21
-105.577833
 31
0.0
  0
LINE
  8
1
  6
CONTINUOUS
 62
     1
  5
51E
 10
459.590583
 20
-105.577833
 30
0.0
 11
462.005583
 21
-103.162833
 31
0.0
  0
LINE
  8
1
  6
CONTINUOUS
 62
     1
  5
51F
 10
459.590583
 20
-105.577833
 30
0.0
 11
462.005583
 21
-107.992833
 31
0.0
  0
LINE
  8
1
  6
CONTINUOUS
 62
     1
  5
520
 10
452.74725
 20
-105.577833
 30
0.0
 11
452.74725
 21
-107.8445
 31
0.0
  0
LINE
  8
1
  6
CONTINUOUS
 62
     1
  5
521
 10
452.74725
 20
-107.8445
 30
0.0
 11
454.650583
 21
-105.577833
 31
0.0
  0
LINE
  8
1
  6
CONTINUOUS
 62
     1
  5
522
 10
467.495583
 20
-70.061167
 30
0.0
 11
467.495583
 21
-92.806167
 31
0.0
  0
LINE
  8
1
  6
CONTINUOUS
 62
     1
  5
523
 10
457.80725
 20
-63.862833
 30
0.0
 11
476.108917
 21
-63.862833
 31
0.0
  0
LINE
  8
1
  6
CONTINUOUS
 62
     1
  5
524
 10
457.80725
 20
-99.1545
 30
0.0
 11
476.108917
 21
-99.1545
 31
0.0
  0
LINE
  8
1
  6
CONTINUOUS
 62
     1
  5
525
 10
474.108917
 20
-63.862833
 30
0.0
 11
474.108917
 21
-99.1545
 31
0.0
  0
LINE
  8
1
  6
CONTINUOUS
 62
     1
  5
526
 10
467.495583
 20
-63.862833
 30
0.0
 11
467.495583
 21
-57.862833
 31
0.0
  0
INSERT
  8
1
  6
CONTINUOUS
 62
     1
  5
527
  2
LDR
 10
467.495583
 20
-63.862833
 30
0.0
 41
200.0
 42
200.0
 50
270.0
210
0.0
220
0.0
230
1.0
  0
INSERT
  8
1
  6
CONTINUOUS
 62
     1
  5
528
  2
LDR
 10
467.495583
 20
-63.862833
 30
0.0
 41
200.0
 42
200.0
 50
270.0
210
0.0
220
0.0
230
1.0
  0
LINE
  8
1
  6
CONTINUOUS
 62
     1
  5
529
 10
467.495583
 20
-99.1545
 30
0.0
 11
467.495583
 21
-105.1545
 31
0.0
  0
INSERT
  8
1
  6
CONTINUOUS
 62
     1
  5
52A
  2
LDR
 10
467.495583
 20
-99.1545
 30
0.0
 41
200.0
 42
200.0
 50
90.0
210
0.0
220
0.0
230
1.0
  0
INSERT
  8
1
  6
CONTINUOUS
 62
     1
  5
52B
  2
LDR
 10
467.495583
 20
-99.1545
 30
0.0
 41
200.0
 42
200.0
 50
90.0
210
0.0
220
0.0
230
1.0
  0
INSERT
  8
1
  6
CONTINUOUS
 62
     1
  5
52C
  2
LDR
 10
467.495583
 20
-70.061167
 30
0.0
 41
200.0
 42
200.0
 50
90.0
210
0.0
220
0.0
230
1.0
  0
INSERT
  8
1
  6
CONTINUOUS
 62
     1
  5
52D
  2
LDR
 10
467.495583
 20
-70.061167
 30
0.0
 41
200.0
 42
200.0
 50
90.0
210
0.0
220
0.0
230
1.0
  0
INSERT
  8
1
  6
CONTINUOUS
 62
     1
  5
52E
  2
LDR
 10
467.495583
 20
-92.806167
 30
0.0
 41
200.0
 42
200.0
 50
270.0
210
0.0
220
0.0
230
1.0
  0
INSERT
  8
1
  6
CONTINUOUS
 62
     1
  5
52F
  2
LDR
 10
467.495583
 20
-92.806167
 30
0.0
 41
200.0
 42
200.0
 50
270.0
210
0.0
220
0.0
230
1.0
  0
INSERT
  8
1
  6
CONTINUOUS
 62
     1
  5
530
  2
LDR
 10
474.108917
 20
-99.1545
 30
0.0
 41
200.0
 42
200.0
 50
270.0
210
0.0
220
0.0
230
1.0
  0
INSERT
  8
1
  6
CONTINUOUS
 62
     1
  5
531
  2
LDR
 10
474.108917
 20
-99.1545
 30
0.0
 41
200.0
 42
200.0
 50
270.0
210
0.0
220
0.0
230
1.0
  0
INSERT
  8
1
  6
CONTINUOUS
 62
     1
  5
532
  2
LDR
 10
474.108917
 20
-63.862833
 30
0.0
 41
200.0
 42
200.0
 50
90.0
210
0.0
220
0.0
230
1.0
  0
ARC
  8
1
  6
HIDDEN
 62
     1
  5
533
 10
431.675583
 20
-81.507833
 30
0.0
 40
12.44058
 50
270.0
 51
90.0
210
0.0
220
0.0
230
1.0
  0
ARC
  8
1
  6
HIDDEN
 62
     1
  5
534
 10
431.675583
 20
-81.507833
 30
0.0
 40
14.016134
 50
270.0
 51
90.0
210
0.0
220
0.0
230
1.0
  0
LINE
  8
1
  6
CONTINUOUS
 62
     1
  5
535
 10
526.370333
 20
-67.657417
 30
0.0
 11
572.818667
 21
-67.657417
 31
0.0
  0
LINE
  8
1
  6
CONTINUOUS
 62
     1
  5
536
 10
526.370333
 20
-68.747417
 30
0.0
 11
572.818667
 21
-68.747417
 31
0.0
  0
LINE
  8
1
  6
CONTINUOUS
 62
     1
  5
537
 10
526.370333
 20
-67.657417
 30
0.0
 11
526.370333
 21
-68.747417
 31
0.0
  0
LINE
  8
1
  6
CONTINUOUS
 62
     1
  5
538
 10
572.818667
 20
-67.657417
 30
0.0
 11
572.818667
 21
-68.747417
 31
0.0
  0
LINE
  8
1
  6
CONTINUOUS
 62
     1
  5
539
 10
548.595333
 20
-67.359083
 30
0.0
 11
550.595333
 21
-67.359083
 31
0.0
  0
LINE
  8
1
  6
CONTINUOUS
 62
     1
  5
53A
 10
548.995333
 20
-66.829083
 30
0.0
 11
550.195333
 21
-66.829083
 31
0.0
  0
LINE
  8
1
  6
CONTINUOUS
 62
     1
  5
53B
 10
548.995333
 20
-66.829083
 30
0.0
 11
548.995333
 21
-67.359083
 31
0.0
  0
LINE
  8
1
  6
CONTINUOUS
 62
     1
  5
53C
 10
550.195333
 20
-66.829083
 30
0.0
 11
550.195333
 21
-67.359083
 31
0.0
  0
LINE
  8
1
  6
CONTINUOUS
 62
     1
  5
53D
 10
548.595333
 20
-67.359083
 30
0.0
 11
548.595333
 21
-67.657417
 31
0.0
  0
LINE
  8
1
  6
CONTINUOUS
 62
     1
  5
53E
 10
550.595333
 20
-67.359083
 30
0.0
 11
550.595333
 21
-67.657417
 31
0.0
  0
LINE
  8
1
  6
CONTINUOUS
 62
     1
  5
53F
 10
548.995333
 20
-67.359083
 30
0.0
 11
548.995333
 21
-70.79075
 31
0.0
  0
LINE
  8
1
  6
CONTINUOUS
 62
     1
  5
540
 10
550.195333
 20
-67.359083
 30
0.0
 11
550.195333
 21
-70.79075
 31
0.0
  0
LINE
  8
1
  6
CONTINUOUS
 62
     1
  5
541
 10
548.995333
 20
-70.79075
 30
0.0
 11
550.195333
 21
-70.79075
 31
0.0
  0
LINE
  8
1
  6
CONTINUOUS
 62
     1
  5
542
 10
548.195333
 20
-69.609083
 30
0.0
 11
550.995333
 21
-69.609083
 31
0.0
  0
LINE
  8
1
  6
CONTINUOUS
 62
     1
  5
543
 10
545.995333
 20
-68.747417
 30
0.0
 11
545.995333
 21
-71.79075
 31
0.0
  0
LINE
  8
1
  6
CONTINUOUS
 62
     1
  5
544
 10
553.195333
 20
-68.747417
 30
0.0
 11
553.195333
 21
-71.79075
 31
0.0
  0
LINE
  8
1
  6
CONTINUOUS
 62
     1
  5
545
 10
547.395333
 20
-70.209083
 30
0.0
 11
547.395333
 21
-72.317417
 31
0.0
  0
LINE
  8
1
  6
CONTINUOUS
 62
     1
  5
546
 10
551.795333
 20
-70.209083
 30
0.0
 11
551.795333
 21
-72.444083
 31
0.0
  0
CIRCLE
  8
1
  6
CONTINUOUS
 62
     1
  5
547
 10
549.088667
 20
-89.96325
 30
0.0
 40
17.727653
210
0.0
220
0.0
230
1.0
  0
ARC
  8
1
  6
CONTINUOUS
 62
     1
  5
548
 10
548.180523
 20
-70.42267
 30
0.0
 40
0.813721
 50
88.957119
 51
164.782678
210
0.0
220
0.0
230
1.0
  0
ARC
  8
1
  6
CONTINUOUS
 62
     1
  5
549
 10
551.010144
 20
-70.42267
 30
0.0
 40
0.813721
 50
15.217322
 51
91.042881
210
0.0
220
0.0
230
1.0
  0
LINE
  8
1
  6
CONTINUOUS
 62
     1
  5
54A
 10
547.398667
 20
-71.394083
 30
0.0
 11
551.795333
 21
-71.394083
 31
0.0
  0
LINE
  8
1
  6
CONTINUOUS
 62
     1
  5
54B
 10
545.395333
 20
-72.112417
 30
0.0
 11
545.395333
 21
-72.624083
 31
0.0
  0
LINE
  8
1
  6
CONTINUOUS
 62
     1
  5
54C
 10
553.795333
 20
-72.112417
 30
0.0
 11
553.795333
 21
-72.872417
 31
0.0
  0
LINE
  8
1
  6
CONTINUOUS
 62
     1
  5
54D
 10
545.395333
 20
-72.112417
 30
0.0
 11
545.995333
 21
-71.79075
 31
0.0
  0
LINE
  8
1
  6
CONTINUOUS
 62
     1
  5
54E
 10
553.795333
 20
-72.112417
 30
0.0
 11
553.195333
 21
-71.79075
 31
0.0
  0
LINE
  8
1
  6
CONTINUOUS
 62
     1
  5
54F
 10
542.550333
 20
-73.48575
 30
0.0
 11
545.995333
 21
-71.64075
 31
0.0
  0
LINE
  8
1
  6
CONTINUOUS
 62
     1
  5
550
 10
557.233667
 20
-74.217417
 30
0.0
 11
553.195333
 21
-71.634083
 31
0.0
  0
LINE
  8
1
  6
CONTINUOUS
 62
     1
  5
551
 10
566.548667
 20
-86.89075
 30
0.0
 11
567.775333
 21
-86.89075
 31
0.0
  0
LINE
  8
1
  6
CONTINUOUS
 62
     1
  5
552
 10
566.812
 20
-89.537417
 30
0.0
 11
567.775333
 21
-89.537417
 31
0.0
  0
LINE
  8
1
  6
CONTINUOUS
 62
     1
  5
553
 10
567.775333
 20
-86.89075
 30
0.0
 11
567.775333
 21
-89.537417
 31
0.0
  0
LINE
  8
1
  6
CONTINUOUS
 62
     1
  5
554
 10
568.175333
 20
-87.814083
 30
0.0
 11
567.775333
 21
-87.814083
 31
0.0
  0
LINE
  8
1
  6
CONTINUOUS
 62
     1
  5
555
 10
568.175333
 20
-88.614083
 30
0.0
 11
567.775333
 21
-88.614083
 31
0.0
  0
LINE
  8
1
  6
CONTINUOUS
 62
     1
  5
556
 10
568.175333
 20
-87.814083
 30
0.0
 11
568.175333
 21
-88.614083
 31
0.0
  0
ARC
  8
1
  6
CONTINUOUS
 62
     1
  5
557
 10
582.953226
 20
-93.897708
 30
0.0
 40
15.791787
 50
163.97175
 51
189.254767
210
0.0
220
0.0
230
1.0
  0
ARC
  8
1
  6
CONTINUOUS
 62
     1
  5
558
 10
554.305784
 20
-96.509553
 30
0.0
 40
15.167051
 50
1.040683
 51
27.367081
210
0.0
220
0.0
230
1.0
  0
ARC
  8
1
  6
CONTINUOUS
 62
     1
  5
559
 10
568.43087
 20
-96.461986
 30
0.0
 40
1.064154
 50
178.677017
 51
12.366456
210
0.0
220
0.0
230
1.0
  0
LINE
  8
1
  6
CONTINUOUS
 62
     1
  5
55A
 10
703.210417
 20
-120.498417
 30
0.0
 11
592.21375
 21
-120.498417
 31
0.0
  0
LINE
  8
1
  6
CONTINUOUS
 62
     1
  5
55B
 10
592.21375
 20
-120.498417
 30
0.0
 11
592.21375
 21
-70.703417
 31
0.0
  0
LINE
  8
1
  6
CONTINUOUS
 62
     1
  5
55C
 10
703.210417
 20
-113.498417
 30
0.0
 11
592.21375
 21
-113.498417
 31
0.0
  0
LINE
  8
1
  6
CONTINUOUS
 62
     1
  5
55D
 10
703.210417
 20
-106.498417
 30
0.0
 11
592.21375
 21
-106.498417
 31
0.0
  0
LINE
  8
1
  6
CONTINUOUS
 62
     1
  5
55E
 10
703.210417
 20
-99.498417
 30
0.0
 11
592.21375
 21
-99.498417
 31
0.0
  0
LINE
  8
1
  6
CONTINUOUS
 62
     1
  5
55F
 10
703.210417
 20
-92.498417
 30
0.0
 11
592.21375
 21
-92.498417
 31
0.0
  0
LINE
  8
1
  6
CONTINUOUS
 62
     1
  5
560
 10
703.210417
 20
-85.498417
 30
0.0
 11
592.21375
 21
-85.498417
 31
0.0
  0
LINE
  8
1
  6
CONTINUOUS
 62
     1
  5
561
 10
683.210417
 20
-70.703417
 30
0.0
 11
683.210417
 21
-120.498417
 31
0.0
  0
LINE
  8
1
  6
CONTINUOUS
 62
     1
  5
562
 10
663.210417
 20
-78.100083
 30
0.0
 11
663.210417
 21
-120.498417
 31
0.0
  0
LINE
  8
1
  6
CONTINUOUS
 62
     1
  5
563
 10
643.210417
 20
-70.703417
 30
0.0
 11
643.210417
 21
-120.498417
 31
0.0
  0
LINE
  8
1
  6
CONTINUOUS
 62
     1
  5
564
 10
612.21375
 20
-120.498417
 30
0.0
 11
612.21375
 21
-70.703417
 31
0.0
  0
LINE
  8
1
  6
CONTINUOUS
 62
     1
  5
565
 10
592.21375
 20
-70.703417
 30
0.0
 11
612.21375
 21
-70.703417
 31
0.0
  0
LINE
  8
1
  6
CONTINUOUS
 62
     1
  5
566
 10
612.21375
 20
-70.703417
 30
0.0
 11
643.210417
 21
-70.703417
 31
0.0
  0
LINE
  8
1
  6
CONTINUOUS
 62
     1
  5
567
 10
643.210417
 20
-70.703417
 30
0.0
 11
703.210417
 21
-70.703417
 31
0.0
  0
LINE
  8
1
  6
CONTINUOUS
 62
     1
  5
568
 10
627.712083
 20
-70.703417
 30
0.0
 11
627.712083
 21
-120.498417
 31
0.0
  0
LINE
  8
1
  6
CONTINUOUS
 62
     1
  5
569
 10
612.21375
 20
-80.770083
 30
0.0
 11
627.712083
 21
-80.770083
 31
0.0
  0
LINE
  8
1
  6
CONTINUOUS
 62
     1
  5
56A
 10
627.712083
 20
-80.770083
 30
0.0
 11
643.210417
 21
-80.770083
 31
0.0
  0
LINE
  8
1
  6
CONTINUOUS
 62
     1
  5
56B
 10
619.46375
 20
-80.770083
 30
0.0
 11
619.46375
 21
-120.498417
 31
0.0
  0
LINE
  8
1
  6
CONTINUOUS
 62
     1
  5
56C
 10
634.962083
 20
-80.770083
 30
0.0
 11
634.962083
 21
-120.498417
 31
0.0
  0
LINE
  8
1
  6
CONTINUOUS
 62
     1
  5
56D
 10
703.210417
 20
-70.703417
 30
0.0
 11
703.210417
 21
-85.498417
 31
0.0
  0
LINE
  8
1
  6
CONTINUOUS
 62
     1
  5
56E
 10
703.210417
 20
-85.498417
 30
0.0
 11
703.210417
 21
-120.498417
 31
0.0
  0
LINE
  8
1
  6
CONTINUOUS
 62
     1
  5
56F
 10
703.210417
 20
-78.100083
 30
0.0
 11
643.210417
 21
-78.100083
 31
0.0
  0
LINE
  8
1
  6
CONTINUOUS
 62
     1
  5
570
 10
391.706167
 20
-177.26575
 30
0.0
 11
476.0845
 21
-177.26575
 31
0.0
  0
LINE
  8
1
  6
CONTINUOUS
 62
     1
  5
571
 10
476.0845
 20
-177.26575
 30
0.0
 11
476.0845
 21
-204.66575
 31
0.0
  0
LINE
  8
1
  6
CONTINUOUS
 62
     1
  5
572
 10
476.0845
 20
-204.66575
 30
0.0
 11
391.706167
 21
-204.66575
 31
0.0
  0
LINE
  8
1
  6
CONTINUOUS
 62
     1
  5
573
 10
391.706167
 20
-204.66575
 30
0.0
 11
391.706167
 21
-177.26575
 31
0.0
  0
LINE
  8
1
  6
CONTINUOUS
 62
     1
  5
574
 10
476.0845
 20
-200.46575
 30
0.0
 11
391.706167
 21
-200.46575
 31
0.0
  0
LINE
  8
1
  6
CONTINUOUS
 62
     1
  5
575
 10
476.0845
 20
-196.26575
 30
0.0
 11
391.706167
 21
-196.26575
 31
0.0
  0
LINE
  8
1
  6
CONTINUOUS
 62
     1
  5
576
 10
476.0845
 20
-192.06575
 30
0.0
 11
391.706167
 21
-192.06575
 31
0.0
  0
LINE
  8
1
  6
CONTINUOUS
 62
     1
  5
577
 10
409.906167
 20
-204.66575
 30
0.0
 11
409.906167
 21
-183.86575
 31
0.0
  0
LINE
  8
1
  6
CONTINUOUS
 62
     1
  5
578
 10
424.106167
 20
-204.66575
 30
0.0
 11
424.106167
 21
-183.86575
 31
0.0
  0
LINE
  8
1
  6
CONTINUOUS
 62
     1
  5
579
 10
424.106167
 20
-183.86575
 30
0.0
 11
391.706167
 21
-183.86575
 31
0.0
  0
LINE
  8
1
  6
CONTINUOUS
 62
     1
  5
57A
 10
450.096167
 20
-183.86575
 30
0.0
 11
450.096167
 21
-204.66575
 31
0.0
  0
LINE
  8
1
  6
CONTINUOUS
 62
     1
  5
57B
 10
437.101167
 20
-183.86575
 30
0.0
 11
437.101167
 21
-204.66575
 31
0.0
  0
LINE
  8
1
  6
CONTINUOUS
 62
     1
  5
57C
 10
463.091167
 20
-183.86575
 30
0.0
 11
463.091167
 21
-204.66575
 31
0.0
  0
LINE
  8
1
  6
CONTINUOUS
 62
     1
  5
57D
 10
450.096167
 20
-183.86575
 30
0.0
 11
437.101167
 21
-183.86575
 31
0.0
  0
LINE
  8
1
  6
CONTINUOUS
 62
     1
  5
57E
 10
437.101167
 20
-183.86575
 30
0.0
 11
424.106167
 21
-183.86575
 31
0.0
  0
LINE
  8
1
  6
CONTINUOUS
 62
     1
  5
57F
 10
476.0845
 20
-183.86575
 30
0.0
 11
463.091167
 21
-183.86575
 31
0.0
  0
LINE
  8
1
  6
CONTINUOUS
 62
     1
  5
580
 10
463.091167
 20
-183.86575
 30
0.0
 11
450.096167
 21
-183.86575
 31
0.0
  0
LINE
  8
1
  6
CONTINUOUS
 62
     1
  5
581
 10
430.6045
 20
-183.86575
 30
0.0
 11
430.6045
 21
-204.66575
 31
0.0
  0
LINE
  8
1
  6
CONTINUOUS
 62
     1
  5
582
 10
443.5995
 20
-183.86575
 30
0.0
 11
443.5995
 21
-204.66575
 31
0.0
  0
LINE
  8
1
  6
CONTINUOUS
 62
     1
  5
583
 10
456.5945
 20
-183.86575
 30
0.0
 11
456.5945
 21
-204.66575
 31
0.0
  0
LINE
  8
1
  6
CONTINUOUS
 62
     1
  5
584
 10
469.587833
 20
-183.86575
 30
0.0
 11
469.587833
 21
-204.66575
 31
0.0
  0
LINE
  8
61
  6
CONTINUOUS
 62
     1
  5
586
 10
710.978667
 20
200.57325
 30
0.0
 11
71.938667
 21
200.57325
 31
0.0
  0
LINE
  8
61
  6
CONTINUOUS
 62
     1
  5
587
 10
71.938667
 20
200.57325
 30
0.0
 11
71.938667
 21
-219.44675
 31
0.0
  0
LINE
  8
61
  6
CONTINUOUS
 62
     1
  5
588
 10
710.998667
 20
-219.46675
 30
0.0
 11
71.938667
 21
-219.44675
 31
0.0
  0
LINE
  8
61
  6
CONTINUOUS
 62
     1
  5
589
 10
710.978667
 20
200.57325
 30
0.0
 11
710.998667
 21
-219.46675
 31
0.0
  0
LINE
  8
61
  6
CONTINUOUS
 62
     1
  5
58A
 10
704.878667
 20
195.83325
 30
0.0
 11
596.898667
 21
195.81325
 31
0.0
  0
LINE
  8
61
  6
CONTINUOUS
 62
     1
  5
58B
 10
596.898667
 20
195.81325
 30
0.0
 11
596.898667
 21
175.81325
 31
0.0
  0
LINE
  8
61
  6
CONTINUOUS
 62
     1
  5
58C
 10
704.878667
 20
195.83325
 30
0.0
 11
704.878667
 21
175.83325
 31
0.0
  0
LINE
  8
61
  6
CONTINUOUS
 62
     1
  5
58D
 10
704.878667
 20
175.83325
 30
0.0
 11
596.898667
 21
175.81325
 31
0.0
  0
LINE
  8
61
  6
CONTINUOUS
 62
     1
  5
58E
 10
704.898667
 20
185.79325
 30
0.0
 11
596.878667
 21
185.81325
 31
0.0
  0
LINE
  8
61
  6
CONTINUOUS
 62
     1
  5
58F
 10
606.898667
 20
195.81325
 30
0.0
 11
606.898667
 21
175.81325
 31
0.0
  0
LINE
  8
61
  6
CONTINUOUS
 62
     1
  5
590
 10
616.898667
 20
195.81325
 30
0.0
 11
616.898667
 21
175.81325
 31
0.0
  0
LINE
  8
61
  6
CONTINUOUS
 62
     1
  5
591
 10
630.578667
 20
195.81325
 30
0.0
 11
630.578667
 21
175.81325
 31
0.0
  0
LINE
  8
61
  6
CONTINUOUS
 62
     1
  5
592
 10
694.878667
 20
195.83325
 30
0.0
 11
694.878667
 21
175.83325
 31
0.0
  0
LINE
  8
61
  6
CONTINUOUS
 62
     1
  5
593
 10
684.878667
 20
195.83325
 30
0.0
 11
684.878667
 21
175.83325
 31
0.0
  0
LINE
  8
61
  6
CONTINUOUS
 62
     1
  5
594
 10
662.898667
 20
195.81325
 30
0.0
 11
662.898667
 21
175.81325
 31
0.0
  0
LINE
  8
61
  6
CONTINUOUS
 62
     1
  5
595
 10
652.898667
 20
195.81325
 30
0.0
 11
652.898667
 21
175.81325
 31
0.0
  0
TEXT
  8
61
  6
CONTINUOUS
 62
     1
  5
597
 10
598.938667
 20
192.79325
 30
0.0
 40
1.20075
  1
PUBLIC
 50
0.033272
 41
1.001804
  7
MONOTXT
210
0.0
220
0.0
230
1.0
  0
TEXT
  8
61
  6
CONTINUOUS
 62
     1
  5
598
 10
599.018667
 20
190.27325
 30
0.0
 40
1.20075
  1
ROADS
 50
0.124322
 41
0.996877
  7
MONOTXT
210
0.0
220
0.0
230
1.0
  0
TEXT
  8
61
  6
CONTINUOUS
 62
     1
  5
599
 10
600.218667
 20
187.77325
 30
0.0
 40
1.20075
  1
DIV.
 50
359.931522
 41
0.994864
  7
MONOTXT
210
0.0
220
0.0
230
1.0
  0
TEXT
  8
61
  6
CONTINUOUS
 62
     1
  5
59A
 10
609.098667
 20
192.85325
 30
0.0
 40
1.20075
  1
STATE
 50
0.058969
 41
0.998196
  7
MONOTXT
210
0.0
220
0.0
230
1.0
  0
TEXT
  8
61
  6
CONTINUOUS
 62
     1
  5
59B
 10
609.978667
 20
190.35325
 30
0.0
 40
1.20075
  1
DIST.
 50
0.055889
 41
0.999584
  7
MONOTXT
210
0.0
220
0.0
230
1.0
  0
TEXT
  8
61
  6
CONTINUOUS
 62
     1
  5
59C
 10
610.558667
 20
187.83325
 30
0.0
 40
1.20075
  1
NO.
 50
359.852072
 41
0.997779
  7
MONOTXT
210
0.0
220
0.0
230
1.0
  0
TEXT
  8
61
  6
CONTINUOUS
 62
     1
  5
59D
 10
621.098667
 20
192.79325
 30
0.0
 40
1.20075
  1
STATE
 50
0.058969
 41
0.998196
  7
MONOTXT
210
0.0
220
0.0
230
1.0
  0
TEXT
  8
61
  6
CONTINUOUS
 62
     1
  5
59E
 10
620.018667
 20
190.37325
 30
0.0
 40
1.20075
  1
PROJECT
 50
359.908431
 41
1.000069
  7
MONOTXT
210
0.0
220
0.0
230
1.0
  0
TEXT
  8
61
  6
CONTINUOUS
 62
     1
  5
59F
 10
622.758667
 20
187.83325
 30
0.0
 40
1.20075
  1
NO.
 50
0.225453
 41
0.993546
  7
MONOTXT
210
0.0
220
0.0
230
1.0
  0
TEXT
  8
61
  6
CONTINUOUS
 62
     1
  5
5A0
 10
638.398667
 20
191.67325
 30
0.0
 40
1.20075
  1
FEDERAL
 50
0.006714
 41
0.998543
  7
MONOTXT
210
0.0
220
0.0
230
1.0
  0
TEXT
  8
61
  6
CONTINUOUS
 62
     1
  5
5A1
 10
636.858667
 20
189.01325
 30
0.0
 40
1.20075
  1
PROJECT NO.
 50
359.921531
 41
1.000694
  7
MONOTXT
210
0.0
220
0.0
230
1.0
  0
TEXT
  8
61
  6
CONTINUOUS
 62
     1
  5
5A2
 10
655.138667
 20
191.61325
 30
0.0
 40
1.20075
  1
FISCAL
 50
359.941939
 41
0.998959
  7
MONOTXT
210
0.0
220
0.0
230
1.0
  0
TEXT
  8
61
  6
CONTINUOUS
 62
     1
  5
5A3
 10
655.658667
 20
188.71325
 30
0.0
 40
1.20075
  1
YEAR
 50
0.104606
 41
0.993268
  7
MONOTXT
210
0.0
220
0.0
230
1.0
  0
TEXT
  8
61
  6
CONTINUOUS
 62
     1
  5
5A4
 10
669.758667
 20
190.07325
 30
0.0
 40
1.20075
  1
COUNTY
 50
0.068575
 41
1.001874
  7
MONOTXT
210
0.0
220
0.0
230
1.0
  0
TEXT
  8
61
  6
CONTINUOUS
 62
     1
  5
5A5
 10
687.398667
 20
191.73325
 30
0.0
 40
1.20075
  1
SHEET
 50
0.058969
 41
0.997571
  7
MONOTXT
210
0.0
220
0.0
230
1.0
  0
TEXT
  8
61
  6
CONTINUOUS
 62
     1
  5
5A6
 10
688.818667
 20
189.01325
 30
0.0
 40
1.20075
  1
NO.
 50
359.852072
 41
0.997779
  7
MONOTXT
210
0.0
220
0.0
230
1.0
  0
TEXT
  8
61
  6
CONTINUOUS
 62
     1
  5
5A7
 10
697.138667
 20
191.59325
 30
0.0
 40
1.20075
  1
TOTAL
 50
359.926039
 41
0.998543
  7
MONOTXT
210
0.0
220
0.0
230
1.0
  0
TEXT
  8
61
  6
CONTINUOUS
 62
     1
  5
5A8
 10
696.678667
 20
188.89325
 30
0.0
 40
1.20075
  1
SHEETS
 50
359.958675
  7
MONOTXT
210
0.0
220
0.0
230
1.0
  0
TEXT
  8
61
  6
CONTINUOUS
 62
     1
  5
5A9
 10
609.498667
 20
180.01325
 30
0.0
 40
2.401333
  1
  
 50
0.029406
 41
0.996495
  7
MONOTXT
210
0.0
220
0.0
230
1.0
  0
TEXT
  8
61
  6
CONTINUOUS
 62
     1
  5
5AA
 10
686.678667
 20
179.73325
 30
0.0
 40
2.401333
  1
   
 50
0.011508
 41
1.001006
  7
MONOTXT
210
0.0
220
0.0
230
1.0
  0
TEXT
  8
61
  6
CONTINUOUS
 62
     1
  5
5AB
 10
696.558667
 20
179.71325
 30
0.0
 40
2.401333
  1
   
 50
359.922128
 41
1.000555
  7
MONOTXT
210
0.0
220
0.0
230
1.0
  0
TEXT
  8
61
  6
CONTINUOUS
 62
     1
  5
5AC
 10
619.938667
 20
183.11325
 30
0.0
 40
2.00675
  1
    
 50
0.054383
 41
0.993729
  7
MONOTXT
210
0.0
220
0.0
230
1.0
  0
TEXT
  8
61
  6
CONTINUOUS
 62
     1
  5
5AD
 10
617.018667
 20
180.09325
 30
0.0
 40
1.989583
  1
       
 50
0.064678
 41
1.000963
  7
MONOTXT
210
0.0
220
0.0
230
1.0
  0
TEXT
  8
61
  6
CONTINUOUS
 62
     1
  5
5AE
 10
617.978667
 20
177.19325
 30
0.0
 40
1.989583
  1
      
 50
359.958053
 41
1.000293
  7
MONOTXT
210
0.0
220
0.0
230
1.0
  0
TEXT
  8
61
  6
CONTINUOUS
 62
     1
  5
5AF
 10
628.938667
 20
181.83325
 30
0.0
 40
2.401333
  1
           
 50
0.011508
 41
0.998751
  7
MONOTXT
210
0.0
220
0.0
230
1.0
  0
TEXT
  8
61
  6
CONTINUOUS
 62
     1
  5
5B0
 10
628.818667
 20
178.17325
 30
0.0
 40
2.401333
  1
           
 50
0.011508
 41
0.999584
  7
MONOTXT
210
0.0
220
0.0
230
1.0
  0
TEXT
  8
61
  6
CONTINUOUS
 62
     1
  5
5B1
 10
664.158667
 20
179.91325
 30
0.0
 40
2.00675
  1
          
 50
0.009222
 41
0.992774
  7
MONOTXT
210
0.0
220
0.0
230
1.0
  0
ARC
  8
61
  6
CONTINUOUS
 62
     1
  5
5B2
 10
53.636423
 20
111.814545
 30
0.0
 40
2.499998
 50
323.130094
 51
316.232156
210
0.0
220
0.0
230
1.0
  0
ARC
  8
61
  6
CONTINUOUS
 62
     1
  5
5B3
 10
53.636423
 20
56.814545
 30
0.0
 40
2.499998
 50
323.130094
 51
315.375767
210
0.0
220
0.0
230
1.0
  0
ARC
  8
61
  6
CONTINUOUS
 62
     1
  5
5B4
 10
53.356423
 20
-91.625455
 30
0.0
 40
2.499998
 50
322.671753
 51
321.716147
210
0.0
220
0.0
230
1.0
  0
ARC
  8
61
  6
CONTINUOUS
 62
     1
  5
5B5
 10
53.356423
 20
-146.625455
 30
0.0
 40
2.499998
 50
323.130094
 51
312.314392
210
0.0
220
0.0
230
1.0
  0
LINE
  8
61
  6
CONTINUOUS
 62
     1
  5
5B6
 10
55.658667
 20
111.81325
 30
0.0
 11
63.638667
 21
111.83325
 31
0.0
  0
LINE
  8
61
  6
CONTINUOUS
 62
     1
  5
5B7
 10
55.638667
 20
56.81325
 30
0.0
 11
63.638667
 21
56.81325
 31
0.0
  0
LINE
  8
61
  6
CONTINUOUS
 62
     1
  5
5B8
 10
55.358667
 20
-91.60675
 30
0.0
 11
63.358667
 21
-91.60675
 31
0.0
  0
LINE
  8
61
  6
CONTINUOUS
 62
     1
  5
5B9
 10
55.378667
 20
-146.62675
 30
0.0
 11
63.358667
 21
-146.62675
 31
0.0
  0
TEXT
  8
61
  6
CONTINUOUS
 62
     1
  5
5BA
 10
684.418667
 20
167.99325
 30
0.0
 40
2.401333
  1
     
 41
1.001388
  7
MONOTXT
210
0.0
220
0.0
230
1.0
  0
TEXT
  8
1
  6
CONTINUOUS
 62
     1
  5
5BC
 10
676.718667
 20
-221.96675
 30
0.0
 40
1.2
  1
TRAFFIC ENGINEERING DIVISION
  7
txt
210
0.0
220
0.0
230
1.0
  0
LINE
  8
1
  6
CONTINUOUS
 62
     1
  5
5BD
 10
539.338667
 20
-219.46675
 30
0.0
 11
539.338667
 21
-127.88675
 31
0.0
  0
LINE
  8
1
  6
CONTINUOUS
 62
     1
  5
5BE
 10
539.338667
 20
-127.88675
 30
0.0
 11
710.998667
 21
-127.88675
 31
0.0
  0
LINE
  8
1
  6
CONTINUOUS
 62
     1
  5
5BF
 10
574.338667
 20
-219.50675
 30
0.0
 11
574.338667
 21
-174.54675
 31
0.0
  0
LINE
  8
1
  6
CONTINUOUS
 62
     1
  5
5C0
 10
574.338667
 20
-174.54675
 30
0.0
 11
539.358667
 21
-174.54675
 31
0.0
  0
LINE
  8
1
  6
CONTINUOUS
 62
     1
  5
5C1
 10
574.338667
 20
-179.02675
 30
0.0
 11
539.358667
 21
-179.02675
 31
0.0
  0
LINE
  8
1
  6
CONTINUOUS
 62
     1
  5
5C2
 10
574.338667
 20
-183.52675
 30
0.0
 11
539.358667
 21
-183.52675
 31
0.0
  0
LINE
  8
1
  6
CONTINUOUS
 62
     1
  5
5C3
 10
574.338667
 20
-188.02675
 30
0.0
 11
539.358667
 21
-188.02675
 31
0.0
  0
LINE
  8
1
  6
CONTINUOUS
 62
     1
  5
5C4
 10
574.338667
 20
-192.54675
 30
0.0
 11
539.358667
 21
-192.54675
 31
0.0
  0
LINE
  8
1
  6
CONTINUOUS
 62
     1
  5
5C5
 10
574.338667
 20
-197.02675
 30
0.0
 11
539.358667
 21
-197.02675
 31
0.0
  0
LINE
  8
1
  6
CONTINUOUS
 62
     1
  5
5C6
 10
574.338667
 20
-201.50675
 30
0.0
 11
539.358667
 21
-201.50675
 31
0.0
  0
LINE
  8
1
  6
CONTINUOUS
 62
     1
  5
5C7
 10
574.338667
 20
-206.00675
 30
0.0
 11
539.358667
 21
-206.00675
 31
0.0
  0
LINE
  8
1
  6
CONTINUOUS
 62
     1
  5
5C8
 10
574.338667
 20
-210.50675
 30
0.0
 11
539.358667
 21
-210.50675
 31
0.0
  0
LINE
  8
1
  6
CONTINUOUS
 62
     1
  5
5C9
 10
574.338667
 20
-215.02675
 30
0.0
 11
539.358667
 21
-215.02675
 31
0.0
  0
TEXT
  8
1
  6
CONTINUOUS
 62
     1
  5
5CA
 10
549.618667
 20
-177.54675
 30
0.0
 40
1.99775
  1
REVISIONS
  7
MONOTXT
210
0.0
220
0.0
230
1.0
  0
TEXT
  8
1
  6
CONTINUOUS
 62
     1
  5
5CB
 10
541.298667
 20
-173.54675
 30
0.0
 40
1.99775
  1
PREPARED: 02/25/72
  7
MONOTXT
210
0.0
220
0.0
230
1.0
  0
TEXT
  8
1
  6
CONTINUOUS
 62
     1
  5
5CD
 10
571.958667
 20
-136.48675
 30
0.0
 40
4.794833
  1
WEST VIRGINIA DIVISION OF HIGHWAYS
  7
ROMANT
 72
     1
 11
625.928917
 21
-131.691917
 31
0.0
210
0.0
220
0.0
230
1.0
 73
     3
  0
TEXT
  8
1
  6
CONTINUOUS
 62
     1
  5
5CE
 10
582.718667
 20
-147.64675
 30
0.0
 40
6.992667
  1
STANDARD DETAIL
  7
txt
 72
     1
 11
627.20875
 21
-140.654083
 31
0.0
210
0.0
220
0.0
230
1.0
 73
     3
  0
TEXT
  8
1
  6
CONTINUOUS
 62
     1
  5
5CF
 10
578.178667
 20
-215.42675
 30
0.0
 40
6.992667
  1
STANDARD SHEET TE1-5A
  7
txt
210
0.0
220
0.0
230
1.0
  0
TEXT
  8
1
  6
CONTINUOUS
 62
     1
  5
5D0
 10
549.126833
 20
-182.60675
 30
0.0
 40
2.0
  1
02-06-76
  7
MONOTXT
 72
     1
 11
556.315917
 21
-180.60675
 31
0.0
210
0.0
220
0.0
230
1.0
 73
     3
  0
TEXT
  8
1
  6
CONTINUOUS
 62
     1
  5
5D1
 10
549.91
 20
-187.00675
 30
0.0
 40
2.0
  1
11-08-76
  7
MONOTXT
 72
     1
 11
556.295917
 21
-185.00675
 31
0.0
210
0.0
220
0.0
230
1.0
 73
     3
  0
TEXT
  8
1
  6
CONTINUOUS
 62
     1
  5
5D2
 10
549.063833
 20
-191.40675
 30
0.0
 40
2.0
  1
07-07-89
  7
MONOTXT
 72
     1
 11
556.315917
 21
-189.40675
 31
0.0
210
0.0
220
0.0
230
1.0
 73
     3
  0
TEXT
  8
1
  6
CONTINUOUS
 62
     1
  5
5D3
 10
549.095333
 20
-195.80675
 30
0.0
 40
2.0
  1
03-02-93
  7
MONOTXT
 72
     1
 11
556.315917
 21
-193.80675
 31
0.0
210
0.0
220
0.0
230
1.0
 73
     3
  0
TEXT
  8
1
  6
CONTINUOUS
 62
     1
  5
5D4
 10
549.407833
 20
-200.40675
 30
0.0
 40
2.0
  1
09-10-93
  7
MONOTXT
 72
     1
 11
556.156
 21
-198.40675
 31
0.0
210
0.0
220
0.0
230
1.0
 73
     3
  0
TEXT
  8
1
  6
CONTINUOUS
 62
     1
  5
5D5
 10
548.638667
 20
-204.88675
 30
0.0
 40
2.0
  1
        
  7
MONOTXT
 72
     1
 11
556.3055
 21
-202.88675
 31
0.0
210
0.0
220
0.0
230
1.0
 73
     3
  0
TEXT
  8
1
  6
CONTINUOUS
 62
     1
  5
5D6
 10
548.538667
 20
-209.48675
 30
0.0
 40
2.0
  1
        
  7
MONOTXT
 72
     1
 11
556.2055
 21
-207.48675
 31
0.0
210
0.0
220
0.0
230
1.0
 73
     3
  0
TEXT
  8
1
  6
CONTINUOUS
 62
     1
  5
5D7
 10
548.638667
 20
-214.06675
 30
0.0
 40
2.0
  1
        
  7
MONOTXT
 72
     1
 11
556.3055
 21
-212.06675
 31
0.0
210
0.0
220
0.0
230
1.0
 73
     3
  0
TEXT
  8
1
  6
CONTINUOUS
 62
     1
  5
5D8
 10
548.638667
 20
-218.08675
 30
0.0
 40
2.0
  1
        
  7
MONOTXT
 72
     1
 11
556.3055
 21
-216.08675
 31
0.0
210
0.0
220
0.0
230
1.0
 73
     3
  0
TEXT
  8
1
  6
CONTINUOUS
 62
     1
  5
5D9
 10
591.458667
 20
-221.86675
 30
0.0
 40
1.2
  1
CATALOG:DT STANDR  FILENAME:TE15A.DGN\   DATE:03/04/93
  7
MONOTXT
210
0.0
220
0.0
230
1.0
  0
TEXT
  8
1
  6
CONTINUOUS
 62
     7
  5
5DA
 10
82.408667
 20
187.097417
 30
0.0
 40
2.5
  1
MARKER
  7
MONOTXT
 72
     4
 11
89.446
 21
188.347417
 31
0.0
210
0.0
220
0.0
230
1.0
  0
TEXT
  8
1
  6
CONTINUOUS
 62
     7
  5
5DB
 10
133.94975
 20
187.097417
 30
0.0
 40
2.5
  1
DESCRIPTION
  7
MONOTXT
 72
     4
 11
145.652417
 21
188.347417
 31
0.0
210
0.0
220
0.0
230
1.0
  0
TEXT
  8
1
  6
CONTINUOUS
 62
     7
  5
5DC
 10
106.28325
 20
167.612667
 30
0.0
 40
2.5
  1
24" x 24"
  7
MONOTXT
 72
     4
 11
115.978083
 21
168.862667
 31
0.0
210
0.0
220
0.0
230
1.0
  0
TEXT
  8
1
  6
CONTINUOUS
 62
     7
  5
5DD
 10
113.793167
 20
163.112667
 30
0.0
 40
2.5
  1
OR
  7
MONOTXT
 72
     4
 11
115.988
 21
164.362667
 31
0.0
210
0.0
220
0.0
230
1.0
  0
TEXT
  8
1
  6
CONTINUOUS
 62
     7
  5
5DE
 10
106.342333
 20
158.612667
 30
0.0
 40
2.5
  1
30" x 24"
  7
MONOTXT
 72
     4
 11
115.978167
 21
159.862667
 31
0.0
210
0.0
220
0.0
230
1.0
  0
TEXT
  8
1
  6
CONTINUOUS
 62
     7
  5
5DF
 10
105.5355
 20
181.445667
 30
0.0
 40
2.5
  1
24" x 12"
  7
MONOTXT
 72
     4
 11
114.639833
 21
182.695667
 31
0.0
210
0.0
220
0.0
230
1.0
  0
TEXT
  8
1
  6
CONTINUOUS
 62
     7
  5
5E0
 10
105.5355
 20
176.945667
 30
0.0
 40
2.5
  1
24" x 12"
  7
MONOTXT
 72
     4
 11
114.639833
 21
178.195667
 31
0.0
210
0.0
220
0.0
230
1.0
  0
TEXT
  8
1
  6
CONTINUOUS
 62
     7
  5
5E1
 10
106.126083
 20
172.445667
 30
0.0
 40
2.5
  1
21" x 15"
  7
MONOTXT
 72
     4
 11
114.639833
 21
173.695667
 31
0.0
210
0.0
220
0.0
230
1.0
  0
TEXT
  8
1
  6
CONTINUOUS
 62
     7
  5
5E2
 10
107.575917
 20
152.961
 30
0.0
 40
2.5
  1
21" x 15"
  7
MONOTXT
 72
     4
 11
116.089667
 21
154.211
 31
0.0
210
0.0
220
0.0
230
1.0
  0
TEXT
  8
1
  6
CONTINUOUS
 62
     7
  5
5E3
 10
148.29075
 20
181.334167
 30
0.0
 40
2.5
  1
CARDINAL
  7
MONOTXT
 72
     4
 11
156.8045
 21
182.584167
 31
0.0
210
0.0
220
0.0
230
1.0
  0
TEXT
  8
1
  6
CONTINUOUS
 62
     7
  5
5E4
 10
154.609667
 20
176.834167
 30
0.0
 40
2.5
  1
TO
  7
MONOTXT
 72
     4
 11
156.8045
 21
178.084167
 31
0.0
210
0.0
220
0.0
230
1.0
  0
TEXT
  8
1
  6
CONTINUOUS
 62
     7
  5
5E5
 10
153.66475
 20
172.334167
 30
0.0
 40
2.5
  1
JCT
  7
MONOTXT
 72
     4
 11
156.804417
 21
173.584167
 31
0.0
210
0.0
220
0.0
230
1.0
  0
TEXT
  8
1
  6
CONTINUOUS
 62
     7
  5
5E6
 10
142.686417
 20
165.47425
 30
0.0
 40
2.5
  1
US OR STATE OR
  7
MONOTXT
 72
     4
 11
159.704083
 21
166.72425
 31
0.0
210
0.0
220
0.0
230
1.0
  0
TEXT
  8
1
  6
CONTINUOUS
 62
     7
  5
5E7
 10
132.647
 20
160.97425
 30
0.0
 40
2.5
  1
INTERSTATE ROUTE MARKER
  7
MONOTXT
 72
     4
 11
159.704
 21
162.22425
 31
0.0
210
0.0
220
0.0
230
1.0
  0
TEXT
  8
1
  6
CONTINUOUS
 62
     7
  5
5E8
 10
140.776833
 20
152.8495
 30
0.0
 40
2.5
  1
DIRECTIONAL ARROW
  7
MONOTXT
 72
     4
 11
160.038667
 21
154.0995
 31
0.0
210
0.0
220
0.0
230
1.0
  0
TEXT
  8
1
  6
CONTINUOUS
 62
     7
  5
5E9
 10
88.6095
 20
176.4995
 30
0.0
 40
2.5
  1
P
  7
MONOTXT
 72
     4
 11
89.446083
 21
177.7495
 31
0.0
210
0.0
220
0.0
230
1.0
  0
TEXT
  8
1
  6
CONTINUOUS
 62
     7
  5
5EA
 10
88.04525
 20
163.001167
 30
0.0
 40
2.5
  1
Q
  7
MONOTXT
 72
     4
 11
88.999917
 21
164.251167
 31
0.0
210
0.0
220
0.0
230
1.0
  0
TEXT
  8
1
  6
CONTINUOUS
 62
     7
  5
5EB
 10
88.386417
 20
152.626333
 30
0.0
 40
2.5
  1
R
  7
MONOTXT
 72
     4
 11
89.223
 21
153.876333
 31
0.0
210
0.0
220
0.0
230
1.0
  0
LINE
  8
1
  6
CONTINUOUS
 62
     7
  5
5EC
 10
201.447833
 20
187.37675
 30
0.0
 11
215.754167
 21
187.37675
 31
0.0
  0
TEXT
  8
1
  6
CONTINUOUS
 62
     7
  5
5ED
 10
102.639167
 20
110.799083
 30
0.0
 40
2.5
  1
3"
  7
MONOTXT
 72
     4
 11
104.401
 21
112.049083
 31
0.0
210
0.0
220
0.0
230
1.0
  0
TEXT
  8
1
  6
CONTINUOUS
 62
     7
  5
5EE
 10
103.771167
 20
101.147333
 30
0.0
 40
2.5
  1
P
  7
MONOTXT
 72
     4
 11
104.60775
 21
102.397333
 31
0.0
210
0.0
220
0.0
230
1.0
  0
TEXT
  8
1
  6
CONTINUOUS
 62
     7
  5
5EF
 10
118.145583
 20
101.147333
 30
0.0
 40
2.5
  1
P
  7
MONOTXT
 72
     4
 11
118.982167
 21
102.397333
 31
0.0
210
0.0
220
0.0
230
1.0
  0
TEXT
  8
1
  6
CONTINUOUS
 62
     7
  5
5F0
 10
103.456083
 20
91.889583
 30
0.0
 40
2.5
  1
Q
  7
MONOTXT
 72
     4
 11
104.41075
 21
93.139583
 31
0.0
210
0.0
220
0.0
230
1.0
  0
TEXT
  8
1
  6
CONTINUOUS
 62
     7
  5
5F1
 10
118.618167
 20
91.889583
 30
0.0
 40
2.5
  1
Q
  7
MONOTXT
 72
     4
 11
119.572833
 21
93.139583
 31
0.0
210
0.0
220
0.0
230
1.0
  0
TEXT
  8
1
  6
CONTINUOUS
 62
     7
  5
5F2
 10
103.57425
 20
82.631833
 30
0.0
 40
2.5
  1
R
  7
MONOTXT
 72
     4
 11
104.410833
 21
83.881833
 31
0.0
210
0.0
220
0.0
230
1.0
  0
TEXT
  8
1
  6
CONTINUOUS
 62
     7
  5
5F3
 10
118.145583
 20
82.631833
 30
0.0
 40
2.5
  1
R
  7
MONOTXT
 72
     4
 11
118.982167
 21
83.881833
 31
0.0
210
0.0
220
0.0
230
1.0
  0
TEXT
  8
1
  6
CONTINUOUS
 62
     7
  5
5F4
 10
93.1285
 20
77.9045
 30
0.0
 40
2.5
  1
4"
  7
MONOTXT
 72
     4
 11
94.949333
 21
79.1545
 31
0.0
210
0.0
220
0.0
230
1.0
  0
TEXT
  8
1
  6
CONTINUOUS
 62
     7
  5
5F5
 10
132.38375
 20
79.48025
 30
0.0
 40
2.5
  1
PIPE B
  7
MONOTXT
 72
     4
 11
138.47625
 21
80.73025
 31
0.0
210
0.0
220
0.0
230
1.0
  0
TEXT
  8
1
  6
CONTINUOUS
 62
     7
  5
5F6
 10
88.54175
 20
60.176833
 30
0.0
 40
2.5
  1
PIPE A
  7
MONOTXT
 72
     4
 11
94.76225
 21
61.426833
 31
0.0
210
0.0
220
0.0
230
1.0
  0
TEXT
  8
1
  6
CONTINUOUS
 62
     7
  5
5F7
 10
133.397667
 20
50.919083
 30
0.0
 40
2.5
  1
7' MIN.
  7
MONOTXT
 72
     4
 11
138.86025
 21
52.169083
 31
0.0
210
0.0
220
0.0
230
1.0
  0
TEXT
  8
1
  6
CONTINUOUS
 62
     7
  5
5F8
 10
95.078417
 20
33.388417
 30
0.0
 40
2.5
  1
3 1/2 "
  7
MONOTXT
 72
     4
 11
98.887417
 21
34.638417
 31
0.0
210
0.0
220
0.0
230
1.0
  0
TEXT
  8
1
  6
CONTINUOUS
 62
     7
  5
5F9
 10
124.56475
 20
15.85775
 30
0.0
 40
2.5
  1
L
  7
MONOTXT
 72
     4
 11
125.28325
 21
17.10775
 31
0.0
210
0.0
220
0.0
230
1.0
  0
TEXT
  8
1
  6
CONTINUOUS
 62
     7
  5
5FA
 10
129.566333
 20
7.190917
 30
0.0
 40
2.5
  1
H
  7
MONOTXT
 72
     4
 11
130.402917
 21
8.440917
 31
0.0
210
0.0
220
0.0
230
1.0
  0
TEXT
  8
1
  6
CONTINUOUS
 62
     7
  5
5FB
 10
110.15125
 20
-19.7945
 30
0.0
 40
2.5
  1
D1
  7
MONOTXT
 72
     4
 11
111.686667
 21
-18.5445
 31
0.0
210
0.0
220
0.0
230
1.0
  0
TEXT
  8
1
  6
CONTINUOUS
 62
     7
  5
5FC
 10
190.49025
 20
91.895417
 30
0.0
 40
2.5
  1
Q
  7
MONOTXT
 72
     4
 11
191.444917
 21
93.145417
 31
0.0
210
0.0
220
0.0
230
1.0
  0
TEXT
  8
1
  6
CONTINUOUS
 62
     7
  5
5FD
 10
190.805333
 20
101.153167
 30
0.0
 40
2.5
  1
P
  7
MONOTXT
 72
     4
 11
191.641917
 21
102.403167
 31
0.0
210
0.0
220
0.0
230
1.0
  0
TEXT
  8
1
  6
CONTINUOUS
 62
     7
  5
5FE
 10
190.608417
 20
82.637667
 30
0.0
 40
2.5
  1
R
  7
MONOTXT
 72
     4
 11
191.445
 21
83.887667
 31
0.0
210
0.0
220
0.0
230
1.0
  0
TEXT
  8
1
  6
CONTINUOUS
 62
     7
  5
5FF
 10
205.163
 20
91.8675
 30
0.0
 40
2.5
  1
Q
  7
MONOTXT
 72
     4
 11
206.117667
 21
93.1175
 31
0.0
210
0.0
220
0.0
230
1.0
  0
TEXT
  8
1
  6
CONTINUOUS
 62
     7
  5
600
 10
205.478083
 20
101.12525
 30
0.0
 40
2.5
  1
P
  7
MONOTXT
 72
     4
 11
206.314667
 21
102.37525
 31
0.0
210
0.0
220
0.0
230
1.0
  0
TEXT
  8
1
  6
CONTINUOUS
 62
     7
  5
601
 10
205.281167
 20
82.60975
 30
0.0
 40
2.5
  1
R
  7
MONOTXT
 72
     4
 11
206.11775
 21
83.85975
 31
0.0
210
0.0
220
0.0
230
1.0
  0
TEXT
  8
1
  6
CONTINUOUS
 62
     7
  5
602
 10
204.8755
 20
110.202917
 30
0.0
 40
2.5
  1
R
  7
MONOTXT
 72
     4
 11
205.712083
 21
111.452917
 31
0.0
210
0.0
220
0.0
230
1.0
  0
TEXT
  8
1
  6
CONTINUOUS
 62
     7
  5
603
 10
204.757333
 20
119.460667
 30
0.0
 40
2.5
  1
Q
  7
MONOTXT
 72
     4
 11
205.712
 21
120.710667
 31
0.0
210
0.0
220
0.0
230
1.0
  0
TEXT
  8
1
  6
CONTINUOUS
 62
     7
  5
604
 10
205.072417
 20
128.718417
 30
0.0
 40
2.5
  1
P
  7
MONOTXT
 72
     4
 11
205.909
 21
129.968417
 31
0.0
210
0.0
220
0.0
230
1.0
  0
TEXT
  8
1
  6
CONTINUOUS
 62
     7
  5
605
 10
188.467417
 20
137.817417
 30
0.0
 40
2.5
  1
3"
  7
MONOTXT
 72
     4
 11
190.22925
 21
139.067417
 31
0.0
210
0.0
220
0.0
230
1.0
  0
TEXT
  8
1
  6
CONTINUOUS
 62
     7
  5
606
 10
178.131917
 20
106.031083
 30
0.0
 40
2.5
  1
4"
  7
MONOTXT
 72
     4
 11
179.95275
 21
107.281083
 31
0.0
210
0.0
220
0.0
230
1.0
  0
TEXT
  8
1
  6
CONTINUOUS
 62
     7
  5
607
 10
180.160167
 20
78.032167
 30
0.0
 40
2.5
  1
4"
  7
MONOTXT
 72
     4
 11
181.981
 21
79.282167
 31
0.0
210
0.0
220
0.0
230
1.0
  0
TEXT
  8
1
  6
CONTINUOUS
 62
     7
  5
608
 10
219.328167
 20
79.6155
 30
0.0
 40
2.5
  1
PIPE B
  7
MONOTXT
 72
     4
 11
225.420667
 21
80.8655
 31
0.0
210
0.0
220
0.0
230
1.0
  0
TEXT
  8
1
  6
CONTINUOUS
 62
     7
  5
609
 10
175.09425
 20
60.17775
 30
0.0
 40
2.5
  1
PIPE A
  7
MONOTXT
 72
     4
 11
181.31475
 21
61.42775
 31
0.0
210
0.0
220
0.0
230
1.0
  0
TEXT
  8
1
  6
CONTINUOUS
 62
     7
  5
60A
 10
220.477333
 20
49.5665
 30
0.0
 40
2.5
  1
7' MIN.
  7
MONOTXT
 72
     4
 11
225.939917
 21
50.8165
 31
0.0
210
0.0
220
0.0
230
1.0
  0
TEXT
  8
1
  6
CONTINUOUS
 62
     7
  5
60B
 10
315.129167
 20
48.213917
 30
0.0
 40
2.5
  1
7' MIN.
  7
MONOTXT
 72
     4
 11
320.59175
 21
49.463917
 31
0.0
210
0.0
220
0.0
230
1.0
  0
TEXT
  8
1
  6
CONTINUOUS
 62
     7
  5
60C
 10
313.439083
 20
79.345
 30
0.0
 40
2.5
  1
PIPE B
  7
MONOTXT
 72
     4
 11
319.531583
 21
80.595
 31
0.0
210
0.0
220
0.0
230
1.0
  0
TEXT
  8
1
  6
CONTINUOUS
 62
     7
  5
60D
 10
268.393917
 20
60.44825
 30
0.0
 40
2.5
  1
PIPE A
  7
MONOTXT
 72
     4
 11
274.614417
 21
61.69825
 31
0.0
210
0.0
220
0.0
230
1.0
  0
TEXT
  8
1
  6
CONTINUOUS
 62
     7
  5
60E
 10
281.496667
 20
137.546917
 30
0.0
 40
2.5
  1
3"
  7
MONOTXT
 72
     4
 11
283.2585
 21
138.796917
 31
0.0
210
0.0
220
0.0
230
1.0
  0
TEXT
  8
1
  6
CONTINUOUS
 62
     7
  5
60F
 10
274.135917
 20
106.301583
 30
0.0
 40
2.5
  1
4"
  7
MONOTXT
 72
     4
 11
275.95675
 21
107.551583
 31
0.0
210
0.0
220
0.0
230
1.0
  0
TEXT
  8
1
  6
CONTINUOUS
 62
     7
  5
610
 10
274.94725
 20
78.167417
 30
0.0
 40
2.5
  1
4"
  7
MONOTXT
 72
     4
 11
276.768083
 21
79.417417
 31
0.0
210
0.0
220
0.0
230
1.0
  0
TEXT
  8
1
  6
CONTINUOUS
 62
     7
  5
611
 10
181.887667
 20
33.388417
 30
0.0
 40
2.5
  1
3 1/2 "
  7
MONOTXT
 72
     4
 11
185.696667
 21
34.638417
 31
0.0
210
0.0
220
0.0
230
1.0
  0
TEXT
  8
1
  6
CONTINUOUS
 62
     7
  5
612
 10
275.728167
 20
33.658917
 30
0.0
 40
2.5
  1
3 1/2 "
  7
MONOTXT
 72
     4
 11
279.537167
 21
34.908917
 31
0.0
210
0.0
220
0.0
230
1.0
  0
TEXT
  8
1
  6
CONTINUOUS
 62
     7
  5
613
 10
211.373917
 20
15.046167
 30
0.0
 40
2.5
  1
L
  7
MONOTXT
 72
     4
 11
212.092417
 21
16.296167
 31
0.0
210
0.0
220
0.0
230
1.0
  0
TEXT
  8
1
  6
CONTINUOUS
 62
     7
  5
614
 10
305.484917
 20
14.775667
 30
0.0
 40
2.5
  1
L
  7
MONOTXT
 72
     4
 11
306.203417
 21
16.025667
 31
0.0
210
0.0
220
0.0
230
1.0
  0
TEXT
  8
1
  6
CONTINUOUS
 62
     7
  5
615
 10
216.375583
 20
6.379333
 30
0.0
 40
2.5
  1
H
  7
MONOTXT
 72
     4
 11
217.212167
 21
7.629333
 31
0.0
210
0.0
220
0.0
230
1.0
  0
TEXT
  8
1
  6
CONTINUOUS
 62
     7
  5
616
 10
311.027417
 20
7.190917
 30
0.0
 40
2.5
  1
H
  7
MONOTXT
 72
     4
 11
311.864
 21
8.440917
 31
0.0
210
0.0
220
0.0
230
1.0
  0
TEXT
  8
1
  6
CONTINUOUS
 62
     7
  5
617
 10
197.230917
 20
-19.7945
 30
0.0
 40
2.5
  1
D1
  7
MONOTXT
 72
     4
 11
198.766333
 21
-18.5445
 31
0.0
210
0.0
220
0.0
230
1.0
  0
TEXT
  8
1
  6
CONTINUOUS
 62
     7
  5
618
 10
291.61225
 20
-19.7945
 30
0.0
 40
2.5
  1
D1
  7
MONOTXT
 72
     4
 11
293.147667
 21
-18.5445
 31
0.0
210
0.0
220
0.0
230
1.0
  0
TEXT
  8
1
  6
CONTINUOUS
 62
     7
  5
619
 10
284.46775
 20
110.051583
 30
0.0
 40
2.5
  1
R
  7
MONOTXT
 72
     4
 11
285.304333
 21
111.301583
 31
0.0
210
0.0
220
0.0
230
1.0
  0
TEXT
  8
1
  6
CONTINUOUS
 62
     7
  5
61A
 10
284.349583
 20
119.309333
 30
0.0
 40
2.5
  1
Q
  7
MONOTXT
 72
     4
 11
285.30425
 21
120.559333
 31
0.0
210
0.0
220
0.0
230
1.0
  0
TEXT
  8
1
  6
CONTINUOUS
 62
     7
  5
61B
 10
284.664667
 20
128.567083
 30
0.0
 40
2.5
  1
P
  7
MONOTXT
 72
     4
 11
285.50125
 21
129.817083
 31
0.0
210
0.0
220
0.0
230
1.0
  0
TEXT
  8
1
  6
CONTINUOUS
 62
     7
  5
61C
 10
299.052417
 20
110.177417
 30
0.0
 40
2.5
  1
R
  7
MONOTXT
 72
     4
 11
299.889
 21
111.427417
 31
0.0
210
0.0
220
0.0
230
1.0
  0
TEXT
  8
1
  6
CONTINUOUS
 62
     7
  5
61D
 10
298.93425
 20
119.435167
 30
0.0
 40
2.5
  1
Q
  7
MONOTXT
 72
     4
 11
299.888917
 21
120.685167
 31
0.0
210
0.0
220
0.0
230
1.0
  0
TEXT
  8
1
  6
CONTINUOUS
 62
     7
  5
61E
 10
299.249333
 20
128.692917
 30
0.0
 40
2.5
  1
P
  7
MONOTXT
 72
     4
 11
300.085917
 21
129.942917
 31
0.0
210
0.0
220
0.0
230
1.0
  0
TEXT
  8
1
  6
CONTINUOUS
 62
     7
  5
61F
 10
299.410833
 20
82.511833
 30
0.0
 40
2.5
  1
R
  7
MONOTXT
 72
     4
 11
300.247417
 21
83.761833
 31
0.0
210
0.0
220
0.0
230
1.0
  0
TEXT
  8
1
  6
CONTINUOUS
 62
     7
  5
620
 10
299.292667
 20
91.769583
 30
0.0
 40
2.5
  1
Q
  7
MONOTXT
 72
     4
 11
300.247333
 21
93.019583
 31
0.0
210
0.0
220
0.0
230
1.0
  0
TEXT
  8
1
  6
CONTINUOUS
 62
     7
  5
621
 10
299.60775
 20
101.027333
 30
0.0
 40
2.5
  1
P
  7
MONOTXT
 72
     4
 11
300.444333
 21
102.277333
 31
0.0
210
0.0
220
0.0
230
1.0
  0
TEXT
  8
1
  6
CONTINUOUS
 62
     7
  5
622
 10
284.864083
 20
82.71
 30
0.0
 40
2.5
  1
R
  7
MONOTXT
 72
     4
 11
285.700667
 21
83.96
 31
0.0
210
0.0
220
0.0
230
1.0
  0
TEXT
  8
1
  6
CONTINUOUS
 62
     7
  5
623
 10
284.745917
 20
91.96775
 30
0.0
 40
2.5
  1
Q
  7
MONOTXT
 72
     4
 11
285.700583
 21
93.21775
 31
0.0
210
0.0
220
0.0
230
1.0
  0
TEXT
  8
1
  6
CONTINUOUS
 62
     7
  5
624
 10
285.061
 20
101.2255
 30
0.0
 40
2.5
  1
P
  7
MONOTXT
 72
     4
 11
285.897583
 21
102.4755
 31
0.0
210
0.0
220
0.0
230
1.0
  0
TEXT
  8
1
  6
CONTINUOUS
 62
     7
  5
625
 10
405.201833
 20
79.394583
 30
0.0
 40
2.5
  1
PIPE B
  7
MONOTXT
 72
     4
 11
411.294333
 21
80.644583
 31
0.0
210
0.0
220
0.0
230
1.0
  0
TEXT
  8
1
  6
CONTINUOUS
 62
     7
  5
626
 10
406.891917
 20
48.2635
 30
0.0
 40
2.5
  1
7' MIN.
  7
MONOTXT
 72
     4
 11
412.3545
 21
49.5135
 31
0.0
210
0.0
220
0.0
230
1.0
  0
TEXT
  8
1
  6
CONTINUOUS
 62
     7
  5
627
 10
360.156667
 20
60.497833
 30
0.0
 40
2.5
  1
PIPE A
  7
MONOTXT
 72
     4
 11
366.377167
 21
61.747833
 31
0.0
210
0.0
220
0.0
230
1.0
  0
TEXT
  8
1
  6
CONTINUOUS
 62
     7
  5
628
 10
374.337917
 20
164.92775
 30
0.0
 40
2.5
  1
3"
  7
MONOTXT
 72
     4
 11
376.09975
 21
166.17775
 31
0.0
210
0.0
220
0.0
230
1.0
  0
TEXT
  8
1
  6
CONTINUOUS
 62
     7
  5
629
 10
365.898667
 20
106.351167
 30
0.0
 40
2.5
  1
4"
  7
MONOTXT
 72
     4
 11
367.7195
 21
107.601167
 31
0.0
210
0.0
220
0.0
230
1.0
  0
TEXT
  8
1
  6
CONTINUOUS
 62
     7
  5
62A
 10
366.71
 20
78.217
 30
0.0
 40
2.5
  1
4"
  7
MONOTXT
 72
     4
 11
368.530833
 21
79.467
 31
0.0
210
0.0
220
0.0
230
1.0
  0
TEXT
  8
1
  6
CONTINUOUS
 62
     7
  5
62B
 10
367.490917
 20
33.7085
 30
0.0
 40
2.5
  1
3 1/2 "
  7
MONOTXT
 72
     4
 11
371.299917
 21
34.9585
 31
0.0
210
0.0
220
0.0
230
1.0
  0
TEXT
  8
1
  6
CONTINUOUS
 62
     7
  5
62C
 10
397.247667
 20
14.82525
 30
0.0
 40
2.5
  1
L
  7
MONOTXT
 72
     4
 11
397.966167
 21
16.07525
 31
0.0
210
0.0
220
0.0
230
1.0
  0
TEXT
  8
1
  6
CONTINUOUS
 62
     7
  5
62D
 10
402.790167
 20
7.2405
 30
0.0
 40
2.5
  1
H
  7
MONOTXT
 72
     4
 11
403.62675
 21
8.4905
 31
0.0
210
0.0
220
0.0
230
1.0
  0
TEXT
  8
1
  6
CONTINUOUS
 62
     7
  5
62E
 10
383.375
 20
-19.744917
 30
0.0
 40
2.5
  1
D1
  7
MONOTXT
 72
     4
 11
384.910417
 21
-18.494917
 31
0.0
210
0.0
220
0.0
230
1.0
  0
TEXT
  8
1
  6
CONTINUOUS
 62
     7
  5
62F
 10
376.2305
 20
110.101167
 30
0.0
 40
2.5
  1
R
  7
MONOTXT
 72
     4
 11
377.067083
 21
111.351167
 31
0.0
210
0.0
220
0.0
230
1.0
  0
TEXT
  8
1
  6
CONTINUOUS
 62
     7
  5
630
 10
376.112333
 20
119.358917
 30
0.0
 40
2.5
  1
Q
  7
MONOTXT
 72
     4
 11
377.067
 21
120.608917
 31
0.0
210
0.0
220
0.0
230
1.0
  0
TEXT
  8
1
  6
CONTINUOUS
 62
     7
  5
631
 10
376.427417
 20
128.616667
 30
0.0
 40
2.5
  1
P
  7
MONOTXT
 72
     4
 11
377.264
 21
129.866667
 31
0.0
210
0.0
220
0.0
230
1.0
  0
TEXT
  8
1
  6
CONTINUOUS
 62
     7
  5
632
 10
390.815167
 20
110.227
 30
0.0
 40
2.5
  1
R
  7
MONOTXT
 72
     4
 11
391.65175
 21
111.477
 31
0.0
210
0.0
220
0.0
230
1.0
  0
TEXT
  8
1
  6
CONTINUOUS
 62
     7
  5
633
 10
390.697
 20
119.48475
 30
0.0
 40
2.5
  1
Q
  7
MONOTXT
 72
     4
 11
391.651667
 21
120.73475
 31
0.0
210
0.0
220
0.0
230
1.0
  0
TEXT
  8
1
  6
CONTINUOUS
 62
     7
  5
634
 10
391.012083
 20
128.7425
 30
0.0
 40
2.5
  1
P
  7
MONOTXT
 72
     4
 11
391.848667
 21
129.9925
 31
0.0
210
0.0
220
0.0
230
1.0
  0
TEXT
  8
1
  6
CONTINUOUS
 62
     7
  5
635
 10
391.173583
 20
82.561417
 30
0.0
 40
2.5
  1
R
  7
MONOTXT
 72
     4
 11
392.010167
 21
83.811417
 31
0.0
210
0.0
220
0.0
230
1.0
  0
TEXT
  8
1
  6
CONTINUOUS
 62
     7
  5
636
 10
391.055417
 20
91.819167
 30
0.0
 40
2.5
  1
Q
  7
MONOTXT
 72
     4
 11
392.010083
 21
93.069167
 31
0.0
210
0.0
220
0.0
230
1.0
  0
TEXT
  8
1
  6
CONTINUOUS
 62
     7
  5
637
 10
391.3705
 20
101.076917
 30
0.0
 40
2.5
  1
P
  7
MONOTXT
 72
     4
 11
392.207083
 21
102.326917
 31
0.0
210
0.0
220
0.0
230
1.0
  0
TEXT
  8
1
  6
CONTINUOUS
 62
     7
  5
638
 10
376.626833
 20
82.759583
 30
0.0
 40
2.5
  1
R
  7
MONOTXT
 72
     4
 11
377.463417
 21
84.009583
 31
0.0
210
0.0
220
0.0
230
1.0
  0
TEXT
  8
1
  6
CONTINUOUS
 62
     7
  5
639
 10
376.508667
 20
92.017333
 30
0.0
 40
2.5
  1
Q
  7
MONOTXT
 72
     4
 11
377.463333
 21
93.267333
 31
0.0
210
0.0
220
0.0
230
1.0
  0
TEXT
  8
1
  6
CONTINUOUS
 62
     7
  5
63A
 10
376.82375
 20
101.275083
 30
0.0
 40
2.5
  1
P
  7
MONOTXT
 72
     4
 11
377.660333
 21
102.525083
 31
0.0
210
0.0
220
0.0
230
1.0
  0
TEXT
  8
1
  6
CONTINUOUS
 62
     7
  5
63B
 10
365.659
 20
133.5625
 30
0.0
 40
2.5
  1
4"
  7
MONOTXT
 72
     4
 11
367.479833
 21
134.8125
 31
0.0
210
0.0
220
0.0
230
1.0
  0
TEXT
  8
1
  6
CONTINUOUS
 62
     7
  5
63C
 10
376.350333
 20
137.792
 30
0.0
 40
2.5
  1
R
  7
MONOTXT
 72
     4
 11
377.186917
 21
139.042
 31
0.0
210
0.0
220
0.0
230
1.0
  0
TEXT
  8
1
  6
CONTINUOUS
 62
     7
  5
63D
 10
376.232167
 20
147.04975
 30
0.0
 40
2.5
  1
Q
  7
MONOTXT
 72
     4
 11
377.186833
 21
148.29975
 31
0.0
210
0.0
220
0.0
230
1.0
  0
TEXT
  8
1
  6
CONTINUOUS
 62
     7
  5
63E
 10
376.54725
 20
156.3075
 30
0.0
 40
2.5
  1
P
  7
MONOTXT
 72
     4
 11
377.383833
 21
157.5575
 31
0.0
210
0.0
220
0.0
230
1.0
  0
TEXT
  8
1
  6
CONTINUOUS
 62
     7
  5
63F
 10
390.935
 20
137.917833
 30
0.0
 40
2.5
  1
R
  7
MONOTXT
 72
     4
 11
391.771583
 21
139.167833
 31
0.0
210
0.0
220
0.0
230
1.0
  0
TEXT
  8
1
  6
CONTINUOUS
 62
     7
  5
640
 10
390.816833
 20
147.175583
 30
0.0
 40
2.5
  1
Q
  7
MONOTXT
 72
     4
 11
391.7715
 21
148.425583
 31
0.0
210
0.0
220
0.0
230
1.0
  0
TEXT
  8
1
  6
CONTINUOUS
 62
     7
  5
641
 10
391.131917
 20
156.433333
 30
0.0
 40
2.5
  1
P
  7
MONOTXT
 72
     4
 11
391.9685
 21
157.683333
 31
0.0
210
0.0
220
0.0
230
1.0
  0
TEXT
  8
1
  6
CONTINUOUS
 62
     7
  5
642
 10
511.854917
 20
88.0255
 30
0.0
 40
2.5
  1
PIPE B
  7
MONOTXT
 72
     4
 11
517.947417
 21
89.2755
 31
0.0
210
0.0
220
0.0
230
1.0
  0
TEXT
  8
1
  6
CONTINUOUS
 62
     7
  5
643
 10
450.512167
 20
58.819583
 30
0.0
 40
2.5
  1
PIPE A
  7
MONOTXT
 72
     4
 11
456.732667
 21
60.069583
 31
0.0
210
0.0
220
0.0
230
1.0
  0
TEXT
  8
1
  6
CONTINUOUS
 62
     7
  5
644
 10
495.8095
 20
52.33925
 30
0.0
 40
2.5
  1
7' MIN.
  7
MONOTXT
 72
     4
 11
501.272083
 21
53.58925
 31
0.0
210
0.0
220
0.0
230
1.0
  0
TEXT
  8
1
  6
CONTINUOUS
 62
     7
  5
645
 10
456.887833
 20
33.94825
 30
0.0
 40
2.5
  1
3 1/2 "
  7
MONOTXT
 72
     4
 11
460.696833
 21
35.19825
 31
0.0
210
0.0
220
0.0
230
1.0
  0
TEXT
  8
1
  6
CONTINUOUS
 62
     7
  5
646
 10
486.306167
 20
14.551167
 30
0.0
 40
2.5
  1
L
  7
MONOTXT
 72
     4
 11
487.024667
 21
15.801167
 31
0.0
210
0.0
220
0.0
230
1.0
  0
TEXT
  8
1
  6
CONTINUOUS
 62
     7
  5
647
 10
491.300583
 20
6.418167
 30
0.0
 40
2.5
  1
H
  7
MONOTXT
 72
     4
 11
492.137167
 21
7.668167
 31
0.0
210
0.0
220
0.0
230
1.0
  0
TEXT
  8
1
  6
CONTINUOUS
 62
     7
  5
648
 10
472.433417
 20
-19.47075
 30
0.0
 40
2.5
  1
D1
  7
MONOTXT
 72
     4
 11
473.968833
 21
-18.22075
 31
0.0
210
0.0
220
0.0
230
1.0
  0
TEXT
  8
1
  6
CONTINUOUS
 62
     7
  5
649
 10
462.878833
 20
108.478417
 30
0.0
 40
2.5
  1
8' x 3' MAX.
  7
MONOTXT
 72
     4
 11
473.479167
 21
109.728417
 31
0.0
210
0.0
220
0.0
230
1.0
  0
TEXT
  8
1
  6
CONTINUOUS
 62
     7
  5
64A
 10
455.082
 20
104.175
 30
0.0
 40
2.5
  1
.2W
  7
MONOTXT
 72
     4
 11
458.143
 21
105.425
 31
0.0
210
0.0
220
0.0
230
1.0
  0
TEXT
  8
1
  6
CONTINUOUS
 62
     7
  5
64B
 10
486.673083
 20
104.239167
 30
0.0
 40
2.5
  1
.2W
  7
MONOTXT
 72
     4
 11
489.734083
 21
105.489167
 31
0.0
210
0.0
220
0.0
230
1.0
  0
TEXT
  8
1
  6
CONTINUOUS
 62
     7
  5
64C
 10
465.227083
 20
104.11075
 30
0.0
 40
2.5
  1
.3W
  7
MONOTXT
 72
     4
 11
468.288083
 21
105.36075
 31
0.0
210
0.0
220
0.0
230
1.0
  0
TEXT
  8
1
  6
CONTINUOUS
 62
     7
  5
64D
 10
476.849
 20
104.0465
 30
0.0
 40
2.5
  1
.3W
  7
MONOTXT
 72
     4
 11
479.91
 21
105.2965
 31
0.0
210
0.0
220
0.0
230
1.0
  0
TEXT
  8
1
  6
CONTINUOUS
 62
     7
  5
64E
 10
485.328833
 20
183.40625
 30
0.0
 40
2.5
  1
B
  7
MONOTXT
 72
     4
 11
486.165417
 21
184.65625
 31
0.0
210
0.0
220
0.0
230
1.0
  0
TEXT
  8
1
  6
CONTINUOUS
 62
     7
  5
64F
 10
485.387833
 20
175.3665
 30
0.0
 40
2.5
  1
F
  7
MONOTXT
 72
     4
 11
486.165333
 21
176.6165
 31
0.0
210
0.0
220
0.0
230
1.0
  0
TEXT
  8
1
  6
CONTINUOUS
 62
     7
  5
650
 10
464.556833
 20
173.2335
 30
0.0
 40
2.5
  1
E
  7
MONOTXT
 72
     4
 11
465.334333
 21
174.4835
 31
0.0
210
0.0
220
0.0
230
1.0
  0
TEXT
  8
1
  6
CONTINUOUS
 62
     7
  5
651
 10
508.023167
 20
173.397583
 30
0.0
 40
2.5
  1
E
  7
MONOTXT
 72
     4
 11
508.800667
 21
174.647583
 31
0.0
210
0.0
220
0.0
230
1.0
  0
TEXT
  8
1
  6
CONTINUOUS
 62
     7
  5
652
 10
513.974
 20
166.178167
 30
0.0
 40
2.5
  1
C
  7
MONOTXT
 72
     4
 11
514.869667
 21
167.428167
 31
0.0
210
0.0
220
0.0
230
1.0
  0
TEXT
  8
1
  6
CONTINUOUS
 62
     7
  5
653
 10
513.974
 20
137.956917
 30
0.0
 40
2.5
  1
C
  7
MONOTXT
 72
     4
 11
514.869667
 21
139.206917
 31
0.0
210
0.0
220
0.0
230
1.0
  0
TEXT
  8
1
  6
CONTINUOUS
 62
     7
  5
654
 10
515.50925
 20
152.395667
 30
0.0
 40
2.5
  1
D
  7
MONOTXT
 72
     4
 11
516.345833
 21
153.645667
 31
0.0
210
0.0
220
0.0
230
1.0
  0
TEXT
  8
1
  6
CONTINUOUS
 62
     7
  5
655
 10
524.0745
 20
152.39575
 30
0.0
 40
2.5
  1
A
  7
MONOTXT
 72
     4
 11
525.039
 21
153.64575
 31
0.0
210
0.0
220
0.0
230
1.0
  0
TEXT
  8
1
  6
CONTINUOUS
 62
     7
  5
656
 10
433.187583
 20
138.402083
 30
0.0
 40
2.5
  1
R    1/2  BOLT
  7
MONOTXT
 72
     4
 11
446.79975
 21
139.652083
 31
0.0
210
0.0
220
0.0
230
1.0
  0
TEXT
  8
1
  6
CONTINUOUS
 62
     7
  5
657
 10
439.349
 20
133.902083
 30
0.0
 40
2.5
  1
DIA.    1/32 
  7
MONOTXT
 72
     4
 11
446.524167
 21
135.152083
 31
0.0
210
0.0
220
0.0
230
1.0
  0
LINE
  8
1
  6
CONTINUOUS
 62
     7
  5
658
 10
466.298833
 20
129.632833
 30
0.0
 11
471.097
 21
129.632833
 31
0.0
  0
TEXT
  8
1
  6
CONTINUOUS
 62
     7
  5
659
 10
472.093
 20
128.276333
 30
0.0
 40
2.5
  1
PROVIDE  3/4 " MAX. HOLE
  7
MONOTXT
 72
     4
 11
494.858667
 21
129.526333
 31
0.0
210
0.0
220
0.0
230
1.0
  0
TEXT
  8
1
  6
CONTINUOUS
 62
     7
  5
65A
 10
464.1065
 20
190.530583
 30
0.0
 40
4.0
  1
KEEPER PLATE
  7
MONOTXT
 72
     4
 11
486.610417
 21
192.530583
 31
0.0
210
0.0
220
0.0
230
1.0
  0
TEXT
  8
1
  6
CONTINUOUS
 62
     7
  5
65B
 10
101.6235
 20
-30.091583
 30
0.0
 40
4.0
  1
TYPE 1
  7
MONOTXT
 72
     4
 11
112.017167
 21
-28.091583
 31
0.0
210
0.0
220
0.0
230
1.0
  0
TEXT
  8
1
  6
CONTINUOUS
 62
     7
  5
65C
 10
188.240667
 20
-30.472167
 30
0.0
 40
4.0
  1
TYPE 2
  7
MONOTXT
 72
     4
 11
199.5005
 21
-28.472167
 31
0.0
210
0.0
220
0.0
230
1.0
  0
TEXT
  8
1
  6
CONTINUOUS
 62
     7
  5
65D
 10
282.5855
 20
-30.669917
 30
0.0
 40
4.0
  1
TYPE 3
  7
MONOTXT
 72
     4
 11
293.845333
 21
-28.669917
 31
0.0
210
0.0
220
0.0
230
1.0
  0
TEXT
  8
1
  6
CONTINUOUS
 62
     7
  5
65E
 10
374.567833
 20
-30.789
 30
0.0
 40
4.0
  1
TYPE 4
  7
MONOTXT
 72
     4
 11
385.922167
 21
-28.789
 31
0.0
210
0.0
220
0.0
230
1.0
  0
TEXT
  8
1
  6
CONTINUOUS
 62
     7
  5
65F
 10
464.38925
 20
-30.816333
 30
0.0
 40
4.0
  1
TYPE 5
  7
MONOTXT
 72
     4
 11
475.649083
 21
-28.816333
 31
0.0
210
0.0
220
0.0
230
1.0
  0
LINE
  8
1
  6
CONTINUOUS
 62
     7
  5
660
 10
99.72925
 20
-31.531083
 30
0.0
 11
124.156917
 21
-31.531083
 31
0.0
  0
LINE
  8
1
  6
CONTINUOUS
 62
     7
  5
661
 10
186.764083
 20
-31.531083
 30
0.0
 11
212.458333
 21
-31.531083
 31
0.0
  0
LINE
  8
1
  6
CONTINUOUS
 62
     7
  5
662
 10
280.2985
 20
-31.531083
 30
0.0
 11
307.241833
 21
-31.531083
 31
0.0
  0
LINE
  8
1
  6
CONTINUOUS
 62
     7
  5
663
 10
373.04575
 20
-31.531083
 30
0.0
 11
398.952833
 21
-31.531083
 31
0.0
  0
LINE
  8
1
  6
CONTINUOUS
 62
     7
  5
664
 10
463.461417
 20
-31.531083
 30
0.0
 11
489.886583
 21
-31.531083
 31
0.0
  0
LINE
  8
1
  6
CONTINUOUS
 62
     7
  5
665
 10
462.725083
 20
189.505667
 30
0.0
 11
510.126
 21
189.505667
 31
0.0
  0
TEXT
  8
1
  6
CONTINUOUS
 62
     7
  5
666
 10
107.606417
 20
-61.536333
 30
0.0
 40
4.0
  1
WELDED PIPE MOUNT DETAILS
  7
MONOTXT
 72
     4
 11
153.921333
 21
-59.536333
 31
0.0
210
0.0
220
0.0
230
1.0
  0
TEXT
  8
1
  6
CONTINUOUS
 62
     7
  5
667
 10
230.682083
 20
-50.881333
 30
0.0
 40
4.0
  1
SIGN POST AND STUB POST ELEVATION
  7
MONOTXT
 72
     4
 11
293.1545
 21
-48.881333
 31
0.0
210
0.0
220
0.0
230
1.0
  0
TEXT
  8
1
  6
CONTINUOUS
 62
     7
  5
668
 10
217.227917
 20
-210.31625
 30
0.0
 40
4.0
  1
FRICTION CAP DETAIL
  7
MONOTXT
 72
     4
 11
250.1255
 21
-208.31625
 31
0.0
210
0.0
220
0.0
230
1.0
  0
TEXT
  8
1
  6
CONTINUOUS
 62
     7
  5
669
 10
334.14725
 20
-205.4145
 30
0.0
 40
4.0
  1
SHIM DETAIL
  7
MONOTXT
 72
     4
 11
352.682583
 21
-203.4145
 31
0.0
210
0.0
220
0.0
230
1.0
  0
TEXT
  8
1
  6
CONTINUOUS
 62
     7
  5
66A
 10
385.6525
 20
-119.447
 30
0.0
 40
4.0
  1
SECTION A - A
  7
MONOTXT
 72
     4
 11
408.991083
 21
-117.447
 31
0.0
210
0.0
220
0.0
230
1.0
  0
TEXT
  8
1
  6
CONTINUOUS
 62
     7
  5
66B
 10
448.76725
 20
-119.447
 30
0.0
 40
4.0
  1
SECTION B - B
  7
MONOTXT
 72
     4
 11
472.090083
 21
-117.447
 31
0.0
210
0.0
220
0.0
230
1.0
  0
TEXT
  8
1
  6
CONTINUOUS
 62
     7
  5
66C
 10
527.2635
 20
-115.892167
 30
0.0
 40
4.0
  1
CLAMP DETAIL
  7
MONOTXT
 72
     4
 11
548.728
 21
-113.892167
 31
0.0
210
0.0
220
0.0
230
1.0
  0
TEXT
  8
1
  6
CONTINUOUS
 62
     7
  5
66D
 10
128.436917
 20
-80.430833
 30
0.0
 40
2.5
  1
FRICTION CAP
  7
MONOTXT
 72
     4
 11
141.37975
 21
-79.180833
 31
0.0
210
0.0
220
0.0
230
1.0
  0
TEXT
  8
1
  6
CONTINUOUS
 62
     7
  5
66E
 10
198.885083
 20
-76.31775
 30
0.0
 40
2.5
  1
TOP OF
  7
MONOTXT
 72
     4
 11
206.099583
 21
-75.06775
 31
0.0
210
0.0
220
0.0
230
1.0
  0
TEXT
  8
1
  6
CONTINUOUS
 62
     7
  5
66F
 10
202.310333
 20
-80.81775
 30
0.0
 40
2.5
  1
SIGN
  7
MONOTXT
 72
     4
 11
206.099667
 21
-79.56775
 31
0.0
210
0.0
220
0.0
230
1.0
  0
TEXT
  8
1
  6
CONTINUOUS
 62
     7
  5
670
 10
188.8735
 20
-97.509917
 30
0.0
 40
2.5
  1
END
  7
MONOTXT
 72
     4
 11
192.131333
 21
-96.259917
 31
0.0
210
0.0
220
0.0
230
1.0
  0
TEXT
  8
1
  6
CONTINUOUS
 62
     7
  5
671
 10
184.6215
 20
-102.009917
 30
0.0
 40
2.5
  1
UPRIGHT
  7
MONOTXT
 72
     4
 11
192.131333
 21
-100.759917
 31
0.0
210
0.0
220
0.0
230
1.0
  0
TEXT
  8
1
  6
CONTINUOUS
 62
     7
  5
672
 10
144.753667
 20
-139.582667
 30
0.0
 40
2.5
  1
MITER JOINT
  7
MONOTXT
 72
     4
 11
156.279167
 21
-138.332667
 31
0.0
210
0.0
220
0.0
230
1.0
  0
TEXT
  8
1
  6
CONTINUOUS
 62
     7
  5
673
 10
139.49825
 20
-151.692333
 30
0.0
 40
2.5
  1
POST
  7
MONOTXT
 72
     4
 11
144.173417
 21
-150.442333
 31
0.0
210
0.0
220
0.0
230
1.0
  0
TEXT
  8
1
  6
CONTINUOUS
 62
     7
  5
674
 10
75.194583
 20
-140.979917
 30
0.0
 40
2.5
  1
CROSS-ARM
  7
MONOTXT
 72
     4
 11
85.972083
 21
-139.729917
 31
0.0
210
0.0
220
0.0
230
1.0
  0
TEXT
  8
1
  6
CONTINUOUS
 62
     7
  5
675
 10
81.539
 20
-90.530333
 30
0.0
 40
2.5
  1
PROVIDE HOLE IN
  7
MONOTXT
 11
81.539
 21
-88.030333
 31
0.0
210
0.0
220
0.0
230
1.0
 73
     3
  0
TEXT
  8
1
  6
CONTINUOUS
 62
     7
  5
676
 10
81.539
 20
-95.030333
 30
0.0
 40
2.5
  1
CROSS-ARM FOR
  7
MONOTXT
 11
81.539
 21
-92.530333
 31
0.0
210
0.0
220
0.0
230
1.0
 73
     3
  0
TEXT
  8
1
  6
CONTINUOUS
 62
     7
  5
677
 10
81.539
 20
-99.530333
 30
0.0
 40
2.5
  1
GALVANIZING
  7
MONOTXT
 11
81.539
 21
-97.030333
 31
0.0
210
0.0
220
0.0
230
1.0
 73
     3
  0
TEXT
  8
1
  6
CONTINUOUS
 62
     7
  5
678
 10
81.539
 20
-104.030333
 30
0.0
 40
2.5
  1
DRAINAGE
  7
MONOTXT
 11
81.539
 21
-101.530333
 31
0.0
210
0.0
220
0.0
230
1.0
 73
     3
  0
LINE
  8
1
  6
CONTINUOUS
 62
     7
  5
679
 10
116.969583
 20
-102.825333
 30
0.0
 11
99.930583
 21
-102.825333
 31
0.0
  0
TEXT
  8
1
  6
CONTINUOUS
 62
     7
  5
67A
 10
134.851417
 20
-106.13325
 30
0.0
 40
2.5
  1
CRIMP AND TRIM
  7
MONOTXT
 11
134.851417
 21
-103.63325
 31
0.0
210
0.0
220
0.0
230
1.0
 73
     3
  0
TEXT
  8
1
  6
CONTINUOUS
 62
     7
  5
67B
 10
134.851417
 20
-110.63325
 30
0.0
 40
2.5
  1
POST TO FIT
  7
MONOTXT
 11
134.851417
 21
-108.13325
 31
0.0
210
0.0
220
0.0
230
1.0
 73
     3
  0
TEXT
  8
1
  6
CONTINUOUS
 62
     7
  5
67C
 10
134.851417
 20
-115.13325
 30
0.0
 40
2.5
  1
DIAMETER OF
  7
MONOTXT
 11
134.851417
 21
-112.63325
 31
0.0
210
0.0
220
0.0
230
1.0
 73
     3
  0
TEXT
  8
1
  6
CONTINUOUS
 62
     7
  5
67D
 10
134.851417
 20
-119.63325
 30
0.0
 40
2.5
  1
CROSS-ARM
  7
MONOTXT
 11
134.851417
 21
-117.13325
 31
0.0
210
0.0
220
0.0
230
1.0
 73
     3
  0
LINE
  8
1
  6
CONTINUOUS
 62
     7
  5
67E
 10
127.364583
 20
-111.725333
 30
0.0
 11
133.5015
 21
-111.725333
 31
0.0
  0
LINE
  8
1
  6
CONTINUOUS
 62
     7
  5
67F
 10
174.402917
 20
-138.217
 30
0.0
 11
168.810667
 21
-138.217
 31
0.0
  0
LINE
  8
1
  6
CONTINUOUS
 62
     7
  5
680
 10
131.997917
 20
-150.067
 30
0.0
 11
138.140833
 21
-150.067
 31
0.0
  0
LINE
  8
1
  6
CONTINUOUS
 62
     7
  5
681
 10
103.16125
 20
-139.512
 30
0.0
 11
98.761167
 21
-139.512
 31
0.0
  0
LINE
  8
1
  6
CONTINUOUS
 62
     7
  5
682
 10
105.285167
 20
-62.64625
 30
0.0
 11
202.722833
 21
-62.64625
 31
0.0
  0
LINE
  8
1
  6
CONTINUOUS
 62
     1
  5
683
 10
225.8415
 20
-184.94825
 30
0.0
 11
273.794833
 21
-184.94825
 31
0.0
  0
POLYLINE
  8
1
  6
CONTINUOUS
 62
     7
  5
684
 66
     1
 10
0.0
 20
0.0
 30
0.0
  0
VERTEX
  8
1
  6
CONTINUOUS
 62
     7
  5
685
 10
275.394833
 20
-167.661583
 30
0.0
  0
VERTEX
  8
1
  6
CONTINUOUS
 62
     7
  5
686
 10
224.2415
 20
-167.661583
 30
0.0
  0
VERTEX
  8
1
  6
CONTINUOUS
 62
     7
  5
687
 10
224.2415
 20
-174.654917
 30
0.0
  0
VERTEX
  8
1
  6
CONTINUOUS
 62
     7
  5
688
 10
224.2415
 20
-174.654917
 30
0.0
 42
-0.398777
  0
VERTEX
  8
1
  6
CONTINUOUS
 62
     7
  5
689
 10
224.2415
 20
-179.554917
 30
0.0
  0
VERTEX
  8
1
  6
CONTINUOUS
 62
     7
  5
68A
 10
224.2415
 20
-179.554917
 30
0.0
  0
VERTEX
  8
1
  6
CONTINUOUS
 62
     7
  5
68B
 10
224.2415
 20
-184.94825
 30
0.0
  0
VERTEX
  8
1
  6
CONTINUOUS
 62
     7
  5
68C
 10
225.8415
 20
-184.94825
 30
0.0
  0
VERTEX
  8
1
  6
CONTINUOUS
 62
     7
  5
68D
 10
225.8415
 20
-179.554917
 30
0.0
  0
VERTEX
  8
1
  6
CONTINUOUS
 62
     7
  5
68E
 10
225.8415
 20
-179.554917
 30
0.0
 42
0.398777
  0
VERTEX
  8
1
  6
CONTINUOUS
 62
     7
  5
68F
 10
225.8415
 20
-174.654917
 30
0.0
  0
VERTEX
  8
1
  6
CONTINUOUS
 62
     7
  5
690
 10
225.8415
 20
-174.654917
 30
0.0
  0
VERTEX
  8
1
  6
CONTINUOUS
 62
     7
  5
691
 10
225.8415
 20
-169.261583
 30
0.0
  0
VERTEX
  8
1
  6
CONTINUOUS
 62
     7
  5
692
 10
273.794833
 20
-169.261583
 30
0.0
  0
VERTEX
  8
1
  6
CONTINUOUS
 62
     7
  5
693
 10
273.794833
 20
-174.654917
 30
0.0
  0
VERTEX
  8
1
  6
CONTINUOUS
 62
     7
  5
694
 10
273.794833
 20
-174.654917
 30
0.0
 42
0.398777
  0
VERTEX
  8
1
  6
CONTINUOUS
 62
     7
  5
695
 10
273.794833
 20
-179.554917
 30
0.0
  0
VERTEX
  8
1
  6
CONTINUOUS
 62
     7
  5
696
 10
273.794833
 20
-179.554917
 30
0.0
  0
VERTEX
  8
1
  6
CONTINUOUS
 62
     7
  5
697
 10
273.794833
 20
-184.94825
 30
0.0
  0
VERTEX
  8
1
  6
CONTINUOUS
 62
     7
  5
698
 10
275.394833
 20
-184.94825
 30
0.0
  0
VERTEX
  8
1
  6
CONTINUOUS
 62
     7
  5
699
 10
275.394833
 20
-179.554917
 30
0.0
  0
VERTEX
  8
1
  6
CONTINUOUS
 62
     7
  5
69A
 10
275.394833
 20
-179.554917
 30
0.0
 42
-0.398777
  0
VERTEX
  8
1
  6
CONTINUOUS
 62
     7
  5
69B
 10
275.394833
 20
-174.654917
 30
0.0
  0
VERTEX
  8
1
  6
CONTINUOUS
 62
     7
  5
69C
 10
275.394833
 20
-174.654917
 30
0.0
  0
VERTEX
  8
1
  6
CONTINUOUS
 62
     7
  5
69D
 10
275.394833
 20
-167.661583
 30
0.0
  0
SEQEND
  8
1
  6
CONTINUOUS
 62
     7
  5
69E
  0
LINE
  8
1
  6
CONTINUOUS
 62
     7
  5
69F
 10
224.2415
 20
-169.951917
 30
0.0
 11
226.531833
 21
-167.661583
 31
0.0
  0
LINE
  8
1
  6
CONTINUOUS
 62
     7
  5
6A0
 10
224.2415
 20
-171.366083
 30
0.0
 11
225.8415
 21
-169.766083
 31
0.0
  0
LINE
  8
1
  6
CONTINUOUS
 62
     7
  5
6A1
 10
226.346
 20
-169.261583
 30
0.0
 11
227.946
 21
-167.661583
 31
0.0
  0
LINE
  8
1
  6
CONTINUOUS
 62
     7
  5
6A2
 10
224.654083
 20
-175.196167
 30
0.0
 11
225.8415
 21
-174.00875
 31
0.0
  0
LINE
  8
1
  6
CONTINUOUS
 62
     7
  5
6A3
 10
230.588667
 20
-169.261583
 30
0.0
 11
232.188667
 21
-167.661583
 31
0.0
  0
LINE
  8
1
  6
CONTINUOUS
 62
     7
  5
6A4
 10
225.086917
 20
-176.177583
 30
0.0
 11
226.183167
 21
-175.08125
 31
0.0
  0
LINE
  8
1
  6
CONTINUOUS
 62
     7
  5
6A5
 10
232.002917
 20
-169.261583
 30
0.0
 11
233.602917
 21
-167.661583
 31
0.0
  0
LINE
  8
1
  6
CONTINUOUS
 62
     7
  5
6A6
 10
224.2415
 20
-181.265583
 30
0.0
 11
225.8415
 21
-179.665583
 31
0.0
  0
LINE
  8
1
  6
CONTINUOUS
 62
     7
  5
6A7
 10
236.2455
 20
-169.261583
 30
0.0
 11
237.8455
 21
-167.661583
 31
0.0
  0
LINE
  8
1
  6
CONTINUOUS
 62
     7
  5
6A8
 10
224.2415
 20
-182.679833
 30
0.0
 11
225.8415
 21
-181.079833
 31
0.0
  0
LINE
  8
1
  6
CONTINUOUS
 62
     7
  5
6A9
 10
237.65975
 20
-169.261583
 30
0.0
 11
239.25975
 21
-167.661583
 31
0.0
  0
LINE
  8
1
  6
CONTINUOUS
 62
     7
  5
6AA
 10
241.902417
 20
-169.261583
 30
0.0
 11
243.502417
 21
-167.661583
 31
0.0
  0
LINE
  8
1
  6
CONTINUOUS
 62
     7
  5
6AB
 10
243.316583
 20
-169.261583
 30
0.0
 11
244.916583
 21
-167.661583
 31
0.0
  0
LINE
  8
1
  6
CONTINUOUS
 62
     7
  5
6AC
 10
247.55925
 20
-169.261583
 30
0.0
 11
249.15925
 21
-167.661583
 31
0.0
  0
LINE
  8
1
  6
CONTINUOUS
 62
     7
  5
6AD
 10
248.973417
 20
-169.261583
 30
0.0
 11
250.573417
 21
-167.661583
 31
0.0
  0
LINE
  8
1
  6
CONTINUOUS
 62
     7
  5
6AE
 10
253.216083
 20
-169.261583
 30
0.0
 11
254.816083
 21
-167.661583
 31
0.0
  0
LINE
  8
1
  6
CONTINUOUS
 62
     7
  5
6AF
 10
254.630333
 20
-169.261583
 30
0.0
 11
256.230333
 21
-167.661583
 31
0.0
  0
LINE
  8
1
  6
CONTINUOUS
 62
     7
  5
6B0
 10
258.872917
 20
-169.261583
 30
0.0
 11
260.472917
 21
-167.661583
 31
0.0
  0
LINE
  8
1
  6
CONTINUOUS
 62
     7
  5
6B1
 10
260.287167
 20
-169.261583
 30
0.0
 11
261.887167
 21
-167.661583
 31
0.0
  0
LINE
  8
1
  6
CONTINUOUS
 62
     7
  5
6B2
 10
264.529833
 20
-169.261583
 30
0.0
 11
266.129833
 21
-167.661583
 31
0.0
  0
LINE
  8
1
  6
CONTINUOUS
 62
     7
  5
6B3
 10
265.944
 20
-169.261583
 30
0.0
 11
267.544
 21
-167.661583
 31
0.0
  0
LINE
  8
1
  6
CONTINUOUS
 62
     7
  5
6B4
 10
270.186667
 20
-169.261583
 30
0.0
 11
271.786667
 21
-167.661583
 31
0.0
  0
LINE
  8
1
  6
CONTINUOUS
 62
     7
  5
6B5
 10
271.600833
 20
-169.261583
 30
0.0
 11
273.200833
 21
-167.661583
 31
0.0
  0
LINE
  8
1
  6
CONTINUOUS
 62
     7
  5
6B6
 10
273.794833
 20
-171.31025
 30
0.0
 11
275.394833
 21
-169.71025
 31
0.0
  0
LINE
  8
1
  6
CONTINUOUS
 62
     7
  5
6B7
 10
273.794833
 20
-172.7245
 30
0.0
 11
275.394833
 21
-171.1245
 31
0.0
  0
LINE
  8
1
  6
CONTINUOUS
 62
     7
  5
6B8
 10
272.90775
 20
-177.854167
 30
0.0
 11
274.53625
 21
-176.225667
 31
0.0
  0
LINE
  8
1
  6
CONTINUOUS
 62
     7
  5
6B9
 10
273.30075
 20
-178.875417
 30
0.0
 11
274.471333
 21
-177.704833
 31
0.0
  0
LINE
  8
1
  6
CONTINUOUS
 62
     7
  5
6BA
 10
273.794833
 20
-182.624
 30
0.0
 11
275.394833
 21
-181.024
 31
0.0
  0
LINE
  8
1
  6
CONTINUOUS
 62
     7
  5
6BB
 10
273.794833
 20
-184.038167
 30
0.0
 11
275.394833
 21
-182.438167
 31
0.0
  0
TEXT
  8
1
  6
CONTINUOUS
 62
     7
  5
6BC
 10
241.88725
 20
-161.019667
 30
0.0
 40
2.5
  1
ROLLED CRIMP TO
  7
MONOTXT
 11
241.88725
 21
-158.519667
 31
0.0
210
0.0
220
0.0
230
1.0
 73
     3
  0
TEXT
  8
1
  6
CONTINUOUS
 62
     7
  5
6BD
 10
241.88725
 20
-165.519667
 30
0.0
 40
2.5
  1
ENGAGE PIPE O.D.
  7
MONOTXT
 11
241.88725
 21
-163.019667
 31
0.0
210
0.0
220
0.0
230
1.0
 73
     3
  0
LINE
  8
1
  6
CONTINUOUS
 62
     7
  5
6BE
 10
230.53725
 20
-161.830167
 30
0.0
 11
240.869
 21
-161.830167
 31
0.0
  0
LINE
  8
1
  6
CONTINUOUS
 62
     7
  5
6BF
 10
278.03625
 20
-161.830167
 30
0.0
 11
288.31925
 21
-161.830167
 31
0.0
  0
TEXT
  8
1
  6
CONTINUOUS
 62
     7
  5
6C0
 10
200.183667
 20
-160.108083
 30
0.0
 40
2.5
  1
SKIRT
  7
MONOTXT
 72
     4
 11
205.154083
 21
-158.858083
 31
0.0
210
0.0
220
0.0
230
1.0
  0
TEXT
  8
1
  6
CONTINUOUS
 62
     7
  5
6C1
 10
195.93175
 20
-164.608083
 30
0.0
 40
2.5
  1
VARIATION
  7
MONOTXT
 72
     4
 11
205.154167
 21
-163.358083
 31
0.0
210
0.0
220
0.0
230
1.0
  0
TEXT
  8
1
  6
CONTINUOUS
 62
     7
  5
6C2
 10
191.65025
 20
-169.108083
 30
0.0
 40
2.5
  1
DEPTH   .05"
  7
MONOTXT
 72
     4
 11
205.144333
 21
-167.858083
 31
0.0
210
0.0
220
0.0
230
1.0
  0
TEXT
  8
1
  6
CONTINUOUS
 62
     7
  5
6C3
 10
227.34675
 20
-192.956833
 30
0.0
 40
2.5
  1
PIPE O.D. - .025" .010"
  7
MONOTXT
 72
     4
 11
249.7975
 21
-191.706833
 31
0.0
210
0.0
220
0.0
230
1.0
  0
TEXT
  8
1
  6
CONTINUOUS
 62
     7
  5
6C4
 10
227.56125
 20
-199.894667
 30
0.0
 40
2.5
  1
PIPE O.D. - .025" .010"
  7
MONOTXT
 72
     4
 11
250.012
 21
-198.644667
 31
0.0
210
0.0
220
0.0
230
1.0
  0
TEXT
  8
1
  6
CONTINUOUS
 62
     7
  5
6C5
 10
290.604
 20
-174.756917
 30
0.0
 40
2.5
  1
1 MIN.
  7
MONOTXT
 72
     4
 11
295.200417
 21
-173.506917
 31
0.0
210
0.0
220
0.0
230
1.0
  0
TEXT
  8
1
  6
CONTINUOUS
 62
     7
  5
6C6
 10
286.450417
 20
-179.256917
 30
0.0
 40
2.5
  1
1 3/4  MAX.
  7
MONOTXT
 72
     4
 11
295.200417
 21
-178.006917
 31
0.0
210
0.0
220
0.0
230
1.0
  0
LINE
  8
1
  6
CONTINUOUS
 62
     7
  5
6C7
 10
216.118417
 20
-211.236667
 30
0.0
 11
284.51875
 21
-211.236667
 31
0.0
  0
TEXT
  8
1
  6
CONTINUOUS
 62
     7
  5
6C8
 10
290.14525
 20
-61.4625
 30
0.0
 40
2.5
  1
DIRECTION OF TRAFFIC
  7
MONOTXT
 72
     4
 11
312.0645
 21
-60.2125
 31
0.0
210
0.0
220
0.0
230
1.0
  0
TEXT
  8
1
  6
CONTINUOUS
 62
     7
  5
6C9
 10
250.441
 20
-81.991333
 30
0.0
 40
2.5
  1
A
  7
MONOTXT
 72
     4
 11
251.4055
 21
-80.741333
 31
0.0
210
0.0
220
0.0
230
1.0
  0
TEXT
  8
1
  6
CONTINUOUS
 62
     7
  5
6CA
 10
283.0635
 20
-82.000417
 30
0.0
 40
2.5
  1
A
  7
MONOTXT
 72
     4
 11
284.028
 21
-80.750417
 31
0.0
210
0.0
220
0.0
230
1.0
  0
TEXT
  8
1
  6
CONTINUOUS
 62
     7
  5
6CB
 10
283.146583
 20
-111.350917
 30
0.0
 40
2.5
  1
B
  7
MONOTXT
 72
     4
 11
283.983167
 21
-110.100917
 31
0.0
210
0.0
220
0.0
230
1.0
  0
TEXT
  8
1
  6
CONTINUOUS
 62
     7
  5
6CC
 10
319.825833
 20
-111.360167
 30
0.0
 40
2.5
  1
B
  7
MONOTXT
 72
     4
 11
320.662417
 21
-110.110167
 31
0.0
210
0.0
220
0.0
230
1.0
  0
TEXT
  8
1
  6
CONTINUOUS
 62
     7
  5
6CD
 10
321.414667
 20
-87.332167
 30
0.0
 40
2.5
  1
H.S. BOLT WITH HEX. HD.,
  7
MONOTXT
 11
321.414667
 21
-84.832167
 31
0.0
210
0.0
220
0.0
230
1.0
 73
     3
  0
TEXT
  8
1
  6
CONTINUOUS
 62
     7
  5
6CE
 10
321.414667
 20
-91.832167
 30
0.0
 40
2.5
  1
HEX. NUT & WASHERS
  7
MONOTXT
 11
321.414667
 21
-89.332167
 31
0.0
210
0.0
220
0.0
230
1.0
 73
     3
  0
TEXT
  8
1
  6
CONTINUOUS
 62
     7
  5
6CF
 10
321.414667
 20
-96.332167
 30
0.0
 40
2.5
  1
WITH EACH BOLT.
  7
MONOTXT
 11
321.414667
 21
-93.832167
 31
0.0
210
0.0
220
0.0
230
1.0
 73
     3
  0
LINE
  8
1
  6
CONTINUOUS
 62
     7
  5
6D0
 10
316.203917
 20
-85.897417
 30
0.0
 11
320.4355
 21
-85.897417
 31
0.0
  0
TEXT
  8
1
  6
CONTINUOUS
 62
     7
  5
6D1
 10
266.32775
 20
-112.43675
 30
0.0
 40
2.5
  1
W.P.
  7
MONOTXT
 72
     4
 11
269.959583
 21
-111.18675
 31
0.0
210
0.0
220
0.0
230
1.0
  0
TEXT
  8
1
  6
CONTINUOUS
 62
     7
  5
6D2
 10
222.339083
 20
-112.325583
 30
0.0
 40
2.5
  1
REMOVE ALL
  7
MONOTXT
 11
222.339083
 21
-109.825583
 31
0.0
210
0.0
220
0.0
230
1.0
 73
     3
  0
TEXT
  8
1
  6
CONTINUOUS
 62
     7
  5
6D3
 10
222.339083
 20
-116.825583
 30
0.0
 40
2.5
  1
GALVANIZING
  7
MONOTXT
 11
222.339083
 21
-114.325583
 31
0.0
210
0.0
220
0.0
230
1.0
 73
     3
  0
TEXT
  8
1
  6
CONTINUOUS
 62
     7
  5
6D4
 10
222.339083
 20
-121.325583
 30
0.0
 40
2.5
  1
RUNS OR BEADS
  7
MONOTXT
 11
222.339083
 21
-118.825583
 31
0.0
210
0.0
220
0.0
230
1.0
 73
     3
  0
TEXT
  8
1
  6
CONTINUOUS
 62
     7
  5
6D5
 10
222.339083
 20
-125.825583
 30
0.0
 40
2.5
  1
IN WASHER AREA.
  7
MONOTXT
 11
222.339083
 21
-123.325583
 31
0.0
210
0.0
220
0.0
230
1.0
 73
     3
  0
TEXT
  8
1
  6
CONTINUOUS
 62
     7
  5
6D6
 10
236.08725
 20
-139.286167
 30
0.0
 40
2.5
  1
STUB POST
  7
MONOTXT
 72
     4
 11
246.96325
 21
-138.036167
 31
0.0
210
0.0
220
0.0
230
1.0
  0
TEXT
  8
1
  6
CONTINUOUS
 62
     7
  5
6D7
 10
317.67325
 20
-141.985333
 30
0.0
 40
2.5
  1
TOP OF
  7
MONOTXT
 72
     4
 11
324.88775
 21
-140.735333
 31
0.0
210
0.0
220
0.0
230
1.0
  0
TEXT
  8
1
  6
CONTINUOUS
 62
     7
  5
6D8
 10
313.5985
 20
-146.485333
 30
0.0
 40
2.5
  1
FOUNDATION
  7
MONOTXT
 72
     4
 11
324.887833
 21
-145.235333
 31
0.0
210
0.0
220
0.0
230
1.0
  0
LINE
  8
1
  6
CONTINUOUS
 62
     7
  5
6D9
 10
310.91725
 20
-141.16575
 30
0.0
 11
316.784333
 21
-141.16575
 31
0.0
  0
LINE
  8
1
  6
CONTINUOUS
 62
     7
  5
6DA
 10
229.63675
 20
-52.662333
 30
0.0
 11
357.066583
 21
-52.662333
 31
0.0
  0
TEXT
  8
1
  6
CONTINUOUS
 62
     7
  5
6DB
 10
342.691667
 20
-165.837083
 30
0.0
 40
2.5
  1
1 3/4 "
  7
MONOTXT
 72
     4
 11
345.969167
 21
-164.587083
 31
0.0
210
0.0
220
0.0
230
1.0
  0
TEXT
  8
1
  6
CONTINUOUS
 62
     7
  5
6DC
 10
335.876583
 20
-179.33525
 30
0.0
 40
2.5
  1
 15/32 
  7
MONOTXT
 72
     4
 11
337.815583
 21
-178.08525
 31
0.0
210
0.0
220
0.0
230
1.0
  0
TEXT
  8
1
  6
CONTINUOUS
 62
     7
  5
6DD
 10
356.159833
 20
-187.355917
 30
0.0
 40
2.5
  1
 13/16 
  7
MONOTXT
 72
     4
 11
358.059417
 21
-186.105917
 31
0.0
210
0.0
220
0.0
230
1.0
  0
TEXT
  8
1
  6
CONTINUOUS
 62
     7
  5
6DE
 10
368.016917
 20
-186.964667
 30
0.0
 40
2.5
  1
1 3/4 "
  7
MONOTXT
 72
     4
 11
371.294417
 21
-185.714667
 31
0.0
210
0.0
220
0.0
230
1.0
  0
TEXT
  8
1
  6
CONTINUOUS
 62
     7
  5
6DF
 10
340.46075
 20
-178.55275
 30
0.0
 40
2.5
  1
"
  7
MONOTXT
 72
     4
 11
340.982417
 21
-177.30275
 31
0.0
210
0.0
220
0.0
230
1.0
  0
TEXT
  8
1
  6
CONTINUOUS
 62
     7
  5
6E0
 10
360.017
 20
-186.37775
 30
0.0
 40
2.5
  1
"
  7
MONOTXT
 72
     4
 11
360.538667
 21
-185.12775
 31
0.0
210
0.0
220
0.0
230
1.0
  0
LINE
  8
1
  6
CONTINUOUS
 62
     7
  5
6E1
 10
333.062167
 20
-206.059667
 30
0.0
 11
372.859
 21
-206.059667
 31
0.0
  0
TEXT
  8
1
  6
CONTINUOUS
 62
     7
  5
6E2
 10
430.914
 20
-50.804
 30
0.0
 40
2.5
  1
B
  7
MONOTXT
 72
     4
 11
431.750583
 21
-49.554
 31
0.0
210
0.0
220
0.0
230
1.0
  0
TEXT
  8
1
  6
CONTINUOUS
 62
     7
  5
6E3
 10
430.973
 20
-56.945917
 30
0.0
 40
2.5
  1
F
  7
MONOTXT
 72
     4
 11
431.7505
 21
-55.695917
 31
0.0
210
0.0
220
0.0
230
1.0
  0
TEXT
  8
1
  6
CONTINUOUS
 62
     7
  5
6E4
 10
409.044667
 20
-59.05175
 30
0.0
 40
2.5
  1
E
  7
MONOTXT
 72
     4
 11
409.822167
 21
-57.80175
 31
0.0
210
0.0
220
0.0
230
1.0
  0
TEXT
  8
1
  6
CONTINUOUS
 62
     7
  5
6E5
 10
452.550583
 20
-58.87625
 30
0.0
 40
2.5
  1
E
  7
MONOTXT
 72
     4
 11
453.328083
 21
-57.62625
 31
0.0
210
0.0
220
0.0
230
1.0
  0
TEXT
  8
1
  6
CONTINUOUS
 62
     7
  5
6E6
 10
466.8175
 20
-68.352417
 30
0.0
 40
2.5
  1
C
  7
MONOTXT
 72
     4
 11
467.713167
 21
-67.102417
 31
0.0
210
0.0
220
0.0
230
1.0
  0
TEXT
  8
1
  6
CONTINUOUS
 62
     7
  5
6E7
 10
466.8175
 20
-97.48275
 30
0.0
 40
2.5
  1
C
  7
MONOTXT
 72
     4
 11
467.713167
 21
-96.23275
 31
0.0
210
0.0
220
0.0
230
1.0
  0
TEXT
  8
1
  6
CONTINUOUS
 62
     7
  5
6E8
 10
468.981667
 20
-82.742083
 30
0.0
 40
2.5
  1
D
  7
MONOTXT
 72
     4
 11
469.81825
 21
-81.492083
 31
0.0
210
0.0
220
0.0
230
1.0
  0
TEXT
  8
1
  6
CONTINUOUS
 62
     7
  5
6E9
 10
475.519917
 20
-82.566583
 30
0.0
 40
2.5
  1
A
  7
MONOTXT
 72
     4
 11
476.484417
 21
-81.316583
 31
0.0
210
0.0
220
0.0
230
1.0
  0
TEXT
  8
1
  6
CONTINUOUS
 62
     7
  5
6EA
 10
393.014833
 20
-82.742083
 30
0.0
 40
2.5
  1
12
  7
MONOTXT
 72
     4
 11
394.560083
 21
-81.492083
 31
0.0
210
0.0
220
0.0
230
1.0
  0
TEXT
  8
1
  6
CONTINUOUS
 62
     7
  5
6EB
 10
399.48625
 20
-85.078167
 30
0.0
 40
2.5
  1
3 3/16 
 50
341.906408
  7
MONOTXT
 72
     1
 11
402.395885
 21
-86.028822
 31
0.0
210
0.0
220
0.0
230
1.0
  0
TEXT
  8
1
  6
CONTINUOUS
 62
     7
  5
6EC
 10
382.792917
 20
-84.98675
 30
0.0
 40
2.5
  1
(TYP. BEVEL)
 50
341.906408
  7
MONOTXT
 72
     1
 11
395.254776
 21
-86.428316
 31
0.0
210
0.0
220
0.0
230
1.0
 73
     3
  0
TEXT
  8
1
  6
CONTINUOUS
 62
     7
  5
6ED
 10
462.469417
 20
-106.958917
 30
0.0
 40
2.5
  1
TYP.
  7
MONOTXT
 72
     4
 11
466.47525
 21
-105.708917
 31
0.0
210
0.0
220
0.0
230
1.0
  0
TEXT
  8
1
  6
CONTINUOUS
 62
     7
  5
6EE
 10
448.628667
 20
-108.889167
 30
0.0
 40
2.5
  1
W
  7
MONOTXT
 72
     4
 11
449.819583
 21
-107.639167
 31
0.0
210
0.0
220
0.0
230
1.0
  0
TEXT
  8
1
  6
CONTINUOUS
 62
     7
  5
6EF
 10
391.824417
 20
-104.708833
 30
0.0
 40
2.5
  1
R    1/2  BOLT
  7
MONOTXT
 72
     4
 11
405.436583
 21
-103.458833
 31
0.0
210
0.0
220
0.0
230
1.0
  0
TEXT
  8
1
  6
CONTINUOUS
 62
     7
  5
6F0
 10
397.985833
 20
-109.208833
 30
0.0
 40
2.5
  1
DIA.    1/32 
  7
MONOTXT
 72
     4
 11
405.161
 21
-107.958833
 31
0.0
210
0.0
220
0.0
230
1.0
  0
LINE
  8
1
  6
CONTINUOUS
 62
     7
  5
6F1
 10
416.748917
 20
-88.412833
 30
0.0
 11
426.653417
 21
-103.252083
 31
0.0
  0
LINE
  8
1
  6
CONTINUOUS
 62
     7
  5
6F2
 10
426.653417
 20
-103.252083
 30
0.0
 11
419.636333
 21
-103.252083
 31
0.0
  0
INSERT
  8
1
  6
CONTINUOUS
 62
     1
  5
6F3
  2
LDR
 10
426.230583
 20
-78.402833
 30
0.0
 41
240.000001
 42
240.000001
 50
353.050476
210
0.0
220
0.0
230
1.0
  0
TEXT
  8
1
  6
CONTINUOUS
 62
     7
  5
6F4
 10
372.537083
 20
-62.33925
 30
0.0
 40
2.5
  1
PROVIDE  3/4 "
  7
MONOTXT
 11
372.537083
 21
-59.83925
 31
0.0
210
0.0
220
0.0
230
1.0
 73
     3
  0
TEXT
  8
1
  6
CONTINUOUS
 62
     7
  5
6F5
 10
372.537083
 20
-66.83925
 30
0.0
 40
2.5
  1
MAX. HOLE
  7
MONOTXT
 11
372.537083
 21
-64.33925
 31
0.0
210
0.0
220
0.0
230
1.0
 73
     3
  0
TEXT
  8
1
  6
CONTINUOUS
 62
     7
  5
6F6
 10
372.537083
 20
-71.33925
 30
0.0
 40
2.5
  1
IN BASE PL.
  7
MONOTXT
 11
372.537083
 21
-68.83925
 31
0.0
210
0.0
220
0.0
230
1.0
 73
     3
  0
TEXT
  8
1
  6
CONTINUOUS
 62
     7
  5
6F7
 10
372.537083
 20
-75.83925
 30
0.0
 40
2.5
  1
GALV. DRAIN
  7
MONOTXT
 11
372.537083
 21
-73.33925
 31
0.0
210
0.0
220
0.0
230
1.0
 73
     3
  0
LINE
  8
1
  6
CONTINUOUS
 62
     7
  5
6F8
 10
469.110333
 20
-56.673083
 30
0.0
 11
490.316167
 21
-56.673083
 31
0.0
  0
TEXT
  8
1
  6
CONTINUOUS
 62
     7
  5
6F9
 10
491.724417
 20
-57.936333
 30
0.0
 40
2.5
  1
PLATE
  7
MONOTXT
 72
     4
 11
497.285417
 21
-56.686333
 31
0.0
210
0.0
220
0.0
230
1.0
  0
TEXT
  8
1
  6
CONTINUOUS
 62
     7
  5
6FA
 10
482.393667
 20
-62.436333
 30
0.0
 40
2.5
  1
THICKNESS   T
  7
MONOTXT
 72
     4
 11
497.285333
 21
-61.186333
 31
0.0
210
0.0
220
0.0
230
1.0
  0
TEXT
  8
1
  6
CONTINUOUS
 62
     7
  5
6FB
 10
381.500083
 20
-130.685583
 30
0.0
 40
2.5
  1
SECTIONS SHOWN ARE FOR INSTALLATIONS ON RIGHT SHOULDER
  7
MONOTXT
 11
381.500083
 21
-128.185583
 31
0.0
210
0.0
220
0.0
230
1.0
 73
     3
  0
TEXT
  8
1
  6
CONTINUOUS
 62
     7
  5
6FC
 10
381.500083
 20
-135.185583
 30
0.0
 40
2.5
  1
AND IN GORE. PLATE SLOT BEVELS ARE OPPOSITE HAND FROM
  7
MONOTXT
 11
381.500083
 21
-132.685583
 31
0.0
210
0.0
220
0.0
230
1.0
 73
     3
  0
TEXT
  8
1
  6
CONTINUOUS
 62
     7
  5
6FD
 10
381.500083
 20
-139.685583
 30
0.0
 40
2.5
  1
THAT SHOWN FOR INSTALLATIONS ON LEFT SHOULDER.
  7
MONOTXT
 11
381.500083
 21
-137.185583
 31
0.0
210
0.0
220
0.0
230
1.0
 73
     3
  0
TEXT
  8
1
  6
CONTINUOUS
 62
     7
  5
6FE
 10
412.739167
 20
-126.23825
 30
0.0
 40
2.5
  1
(SEE TABLE FOR DIMENSIONS)
  7
MONOTXT
 72
     4
 11
441.725333
 21
-124.98825
 31
0.0
210
0.0
220
0.0
230
1.0
  0
LINE
  8
1
  6
CONTINUOUS
 62
     7
  5
6FF
 10
384.19175
 20
-120.9495
 30
0.0
 11
433.81875
 21
-120.9495
 31
0.0
  0
LINE
  8
1
  6
CONTINUOUS
 62
     7
  5
700
 10
447.613417
 20
-120.9495
 30
0.0
 11
497.397917
 21
-120.9495
 31
0.0
  0
LINE
  8
1
  6
CONTINUOUS
 62
     1
  5
701
 10
431.675583
 20
-60.083
 30
0.0
 11
431.675583
 21
-67.491667
 31
0.0
  0
LINE
  8
1
  6
CONTINUOUS
 62
     1
  5
702
 10
431.675583
 20
-69.06725
 30
0.0
 11
431.675583
 21
-93.948417
 31
0.0
  0
LINE
  8
1
  6
CONTINUOUS
 62
     1
  5
703
 10
431.675583
 20
-95.524
 30
0.0
 11
431.675583
 21
-107.1545
 31
0.0
  0
POLYLINE
  8
1
  6
CONTINUOUS
 62
     7
  5
704
 66
     1
 10
0.0
 20
0.0
 30
0.0
  0
VERTEX
  8
1
  6
CONTINUOUS
 62
     7
  5
705
 10
431.675583
 20
-95.523967
 30
0.0
 42
-1.0
  0
VERTEX
  8
1
  6
CONTINUOUS
 62
     7
  5
706
 10
431.675583
 20
-67.491699
 30
0.0
  0
VERTEX
  8
1
  6
CONTINUOUS
 62
     7
  5
707
 10
431.675583
 20
-67.491667
 30
0.0
  0
VERTEX
  8
1
  6
CONTINUOUS
 62
     7
  5
708
 10
431.675583
 20
-69.06725
 30
0.0
  0
VERTEX
  8
1
  6
CONTINUOUS
 62
     7
  5
709
 10
431.675583
 20
-69.067253
 30
0.0
 42
1.0
  0
VERTEX
  8
1
  6
CONTINUOUS
 62
     7
  5
70A
 10
431.675583
 20
-93.948413
 30
0.0
  0
VERTEX
  8
1
  6
CONTINUOUS
 62
     7
  5
70B
 10
431.675583
 20
-93.948417
 30
0.0
  0
VERTEX
  8
1
  6
CONTINUOUS
 62
     7
  5
70C
 10
431.675583
 20
-95.524
 30
0.0
  0
SEQEND
  8
1
  6
CONTINUOUS
 62
     7
  5
70D
  0
LINE
  8
1
  6
CONTINUOUS
 62
     7
  5
70E
 10
426.6785
 20
-94.59675
 30
0.0
 11
418.5785
 21
-86.496833
 31
0.0
  0
LINE
  8
1
  6
CONTINUOUS
 62
     7
  5
70F
 10
428.693417
 20
-95.1975
 30
0.0
 11
426.128333
 21
-92.632417
 31
0.0
  0
LINE
  8
1
  6
CONTINUOUS
 62
     7
  5
710
 10
420.549917
 20
-87.053917
 30
0.0
 11
417.981
 21
-84.485083
 31
0.0
  0
LINE
  8
1
  6
CONTINUOUS
 62
     7
  5
711
 10
419.24475
 20
-81.506167
 30
0.0
 11
417.746583
 21
-80.008
 31
0.0
  0
LINE
  8
1
  6
CONTINUOUS
 62
     7
  5
712
 10
419.315167
 20
-80.162417
 30
0.0
 11
417.936333
 21
-78.783583
 31
0.0
  0
LINE
  8
1
  6
CONTINUOUS
 62
     7
  5
713
 10
420.176583
 20
-76.781167
 30
0.0
 11
418.982333
 21
-75.586917
 31
0.0
  0
LINE
  8
1
  6
CONTINUOUS
 62
     7
  5
714
 10
420.624333
 20
-75.814667
 30
0.0
 11
419.461833
 21
-74.652167
 31
0.0
  0
LINE
  8
1
  6
CONTINUOUS
 62
     7
  5
715
 10
422.345583
 20
-73.293333
 30
0.0
 11
421.229667
 21
-72.177333
 31
0.0
  0
LINE
  8
1
  6
CONTINUOUS
 62
     7
  5
716
 10
423.03625
 20
-72.569833
 30
0.0
 11
421.921917
 21
-71.455417
 31
0.0
  0
LINE
  8
1
  6
CONTINUOUS
 62
     7
  5
717
 10
425.454833
 20
-70.74575
 30
0.0
 11
424.304417
 21
-69.59525
 31
0.0
  0
LINE
  8
1
  6
CONTINUOUS
 62
     7
  5
718
 10
426.383417
 20
-70.260083
 30
0.0
 11
425.205583
 21
-69.08225
 31
0.0
  0
LINE
  8
1
  6
CONTINUOUS
 62
     7
  5
719
 10
429.609083
 20
-69.243083
 30
0.0
 11
428.283583
 21
-67.917667
 31
0.0
  0
LINE
  8
1
  6
CONTINUOUS
 62
     7
  5
71A
 10
430.879417
 20
-69.099167
 30
0.0
 11
429.4585
 21
-67.67825
 31
0.0
  0
TEXT
  8
1
  6
CONTINUOUS
 62
     7
  5
71B
 10
413.69375
 20
-61.697417
 30
0.0
 40
2.0
  1
SIGN POST
  7
MONOTXT
 72
     4
 11
421.780333
 21
-60.697417
 31
0.0
210
0.0
220
0.0
230
1.0
  0
TEXT
  8
1
  6
CONTINUOUS
 62
     7
  5
71C
 10
432.617
 20
-61.697417
 30
0.0
 40
2.0
  1
STUB POST
  7
MONOTXT
 72
     4
 11
441.31775
 21
-60.697417
 31
0.0
210
0.0
220
0.0
230
1.0
  0
LINE
  8
1
  6
CONTINUOUS
 62
     7
  5
71D
 10
426.360083
 20
-68.53875
 30
0.0
 11
420.985667
 21
-62.1965
 31
0.0
  0
LINE
  8
1
  6
CONTINUOUS
 62
     7
  5
71E
 10
438.53825
 20
-69.286667
 30
0.0
 11
440.942417
 21
-61.861
 31
0.0
  0
INSERT
  8
1
  6
CONTINUOUS
 62
     1
  5
71F
  2
LDR
 10
426.360083
 20
-68.53875
 30
0.0
 41
239.999999
 42
239.999999
 50
310.277909
210
0.0
220
0.0
230
1.0
  0
INSERT
  8
1
  6
CONTINUOUS
 62
     1
  5
720
  2
LDR
 10
426.360083
 20
-68.53875
 30
0.0
 41
239.999999
 42
239.999999
 50
310.277909
210
0.0
220
0.0
230
1.0
  0
INSERT
  8
1
  6
CONTINUOUS
 62
     1
  5
721
  2
LDR
 10
438.53825
 20
-69.286667
 30
0.0
 41
240.000001
 42
240.000001
 50
252.059892
210
0.0
220
0.0
230
1.0
  0
TEXT
  8
1
  6
CONTINUOUS
 62
     7
  5
722
 10
521.173083
 20
-122.652
 30
0.0
 40
2.5
  1
(STAINLESS STEEL BANDING)
  7
MONOTXT
 72
     4
 11
548.56475
 21
-121.402
 31
0.0
210
0.0
220
0.0
230
1.0
  0
LINE
  8
1
  6
CONTINUOUS
 62
     7
  5
723
 10
525.906167
 20
-117.586917
 30
0.0
 11
571.541333
 21
-117.586917
 31
0.0
  0
TEXT
  8
1
  6
CONTINUOUS
 62
     7
  5
724
 10
399.487083
 20
-181.73525
 30
0.0
 40
2.5
  1
  BASE CONNECTION DATA TABLE
  7
MONOTXT
 72
     4
 11
432.705583
 21
-180.48525
 31
0.0
210
0.0
220
0.0
230
1.0
  0
TEXT
  8
1
  6
CONTINUOUS
 62
     7
  5
725
 10
397.119
 20
-187.292083
 30
0.0
 40
2.5
  1
PIPE
  7
MONOTXT
 72
     4
 11
400.790167
 21
-186.042083
 31
0.0
210
0.0
220
0.0
230
1.0
  0
TEXT
  8
1
  6
CONTINUOUS
 62
     7
  5
726
 10
397.119
 20
-191.292083
 30
0.0
 40
2.5
  1
SIZE
  7
MONOTXT
 72
     4
 11
400.790167
 21
-190.042083
 31
0.0
210
0.0
220
0.0
230
1.0
  0
TEXT
  8
1
  6
CONTINUOUS
 62
     7
  5
727
 10
412.61525
 20
-187.20725
 30
0.0
 40
2.5
  1
BOLT
  7
MONOTXT
 72
     4
 11
417.17225
 21
-185.95725
 31
0.0
210
0.0
220
0.0
230
1.0
  0
TEXT
  8
1
  6
CONTINUOUS
 62
     7
  5
728
 10
413.501083
 20
-191.20725
 30
0.0
 40
2.5
  1
SIZE
  7
MONOTXT
 72
     4
 11
417.17225
 21
-189.95725
 31
0.0
210
0.0
220
0.0
230
1.0
  0
TEXT
  8
1
  6
CONTINUOUS
 62
     7
  5
729
 10
426.308583
 20
-189.122333
 30
0.0
 40
2.5
  1
A
  7
MONOTXT
 72
     4
 11
427.273083
 21
-187.872333
 31
0.0
210
0.0
220
0.0
230
1.0
  0
TEXT
  8
1
  6
CONTINUOUS
 62
     7
  5
72A
 10
433.057333
 20
-189.122333
 30
0.0
 40
2.5
  1
B
  7
MONOTXT
 72
     4
 11
433.893917
 21
-187.872333
 31
0.0
210
0.0
220
0.0
230
1.0
  0
TEXT
  8
1
  6
CONTINUOUS
 62
     7
  5
72B
 10
439.44925
 20
-189.122333
 30
0.0
 40
2.5
  1
C
  7
MONOTXT
 72
     4
 11
440.344917
 21
-187.872333
 31
0.0
210
0.0
220
0.0
230
1.0
  0
TEXT
  8
1
  6
CONTINUOUS
 62
     7
  5
72C
 10
446.044167
 20
-189.292083
 30
0.0
 40
2.5
  1
D
  7
MONOTXT
 72
     4
 11
446.88075
 21
-188.042083
 31
0.0
210
0.0
220
0.0
230
1.0
  0
TEXT
  8
1
  6
CONTINUOUS
 62
     7
  5
72D
 10
452.554083
 20
-189.461917
 30
0.0
 40
2.5
  1
E
  7
MONOTXT
 72
     4
 11
453.331583
 21
-188.211917
 31
0.0
210
0.0
220
0.0
230
1.0
  0
TEXT
  8
1
  6
CONTINUOUS
 62
     7
  5
72E
 10
459.174833
 20
-189.546833
 30
0.0
 40
2.5
  1
F
  7
MONOTXT
 72
     4
 11
459.952333
 21
-188.296833
 31
0.0
210
0.0
220
0.0
230
1.0
  0
TEXT
  8
1
  6
CONTINUOUS
 62
     7
  5
72F
 10
465.566833
 20
-189.63175
 30
0.0
 40
2.5
  1
T
  7
MONOTXT
 72
     4
 11
466.403417
 21
-188.38175
 31
0.0
210
0.0
220
0.0
230
1.0
  0
TEXT
  8
1
  6
CONTINUOUS
 62
     7
  5
730
 10
471.578583
 20
-189.546833
 30
0.0
 40
2.5
  1
W
  7
MONOTXT
 72
     4
 11
472.7695
 21
-188.296833
 31
0.0
210
0.0
220
0.0
230
1.0
  0
TEXT
  8
1
  6
CONTINUOUS
 62
     7
  5
731
 10
399.699083
 20
-195.405583
 30
0.0
 40
2.5
  1
3
  7
MONOTXT
 72
     4
 11
400.535667
 21
-194.155583
 31
0.0
210
0.0
220
0.0
230
1.0
  0
TEXT
  8
1
  6
CONTINUOUS
 62
     7
  5
732
 10
399.385333
 20
-199.566083
 30
0.0
 40
2.5
  1
4
  7
MONOTXT
 72
     4
 11
400.281
 21
-198.316083
 31
0.0
210
0.0
220
0.0
230
1.0
  0
TEXT
  8
1
  6
CONTINUOUS
 62
     7
  5
733
 10
399.758083
 20
-203.8115
 30
0.0
 40
2.5
  1
6
  7
MONOTXT
 72
     4
 11
400.535583
 21
-202.5615
 31
0.0
210
0.0
220
0.0
230
1.0
  0
TEXT
  8
1
  6
CONTINUOUS
 62
     7
  5
734
 10
412.120417
 20
-195.070667
 30
0.0
 40
2.0
  1
 1/2 x2 1/2 
  7
MONOTXT
 72
     4
 11
416.915667
 21
-194.070667
 31
0.0
210
0.0
220
0.0
230
1.0
  0
TEXT
  8
1
  6
CONTINUOUS
 62
     7
  5
735
 10
412.205333
 20
-199.316083
 30
0.0
 40
2.0
  1
 1/2 x2 1/2 
  7
MONOTXT
 72
     4
 11
417.000583
 21
-198.316083
 31
0.0
210
0.0
220
0.0
230
1.0
  0
TEXT
  8
1
  6
CONTINUOUS
 62
     7
  5
736
 10
411.865833
 20
-203.476583
 30
0.0
 40
2.0
  1
 5/8 x2 3/4 
  7
MONOTXT
 72
     4
 11
416.661083
 21
-202.476583
 31
0.0
210
0.0
220
0.0
230
1.0
  0
TEXT
  8
1
  6
CONTINUOUS
 62
     7
  5
737
 10
425.001833
 20
-194.98575
 30
0.0
 40
2.0
  1
4 1/2 
  7
MONOTXT
 72
     4
 11
427.356167
 21
-193.98575
 31
0.0
210
0.0
220
0.0
230
1.0
  0
TEXT
  8
1
  6
CONTINUOUS
 62
     7
  5
738
 10
425.049
 20
-199.14625
 30
0.0
 40
2.0
  1
5 1/2 
  7
MONOTXT
 72
     4
 11
427.356
 21
-198.14625
 31
0.0
210
0.0
220
0.0
230
1.0
  0
TEXT
  8
1
  6
CONTINUOUS
 62
     7
  5
739
 10
426.517083
 20
-203.5615
 30
0.0
 40
2.0
  1
8
  7
MONOTXT
 72
     4
 11
427.186333
 21
-202.5615
 31
0.0
210
0.0
220
0.0
230
1.0
  0
TEXT
  8
1
  6
CONTINUOUS
 62
     7
  5
73A
 10
433.291833
 20
-195.240417
 30
0.0
 40
2.0
  1
7
  7
MONOTXT
 72
     4
 11
433.969
 21
-194.240417
 31
0.0
210
0.0
220
0.0
230
1.0
  0
TEXT
  8
1
  6
CONTINUOUS
 62
     7
  5
73B
 10
431.484167
 20
-199.401
 30
0.0
 40
2.0
  1
7 3/4 
  7
MONOTXT
 72
     4
 11
433.807
 21
-198.401
 31
0.0
210
0.0
220
0.0
230
1.0
  0
TEXT
  8
1
  6
CONTINUOUS
 62
     7
  5
73C
 10
432.486
 20
-203.5615
 30
0.0
 40
2.0
  1
10
  7
MONOTXT
 72
     4
 11
433.714333
 21
-202.5615
 31
0.0
210
0.0
220
0.0
230
1.0
  0
TEXT
  8
1
  6
CONTINUOUS
 62
     7
  5
73D
 10
440.013917
 20
-195.155583
 30
0.0
 40
2.0
  1
1
  7
MONOTXT
 72
     4
 11
440.250083
 21
-194.155583
 31
0.0
210
0.0
220
0.0
230
1.0
  0
TEXT
  8
1
  6
CONTINUOUS
 62
     7
  5
73E
 10
440.098833
 20
-199.485917
 30
0.0
 40
2.0
  1
1
  7
MONOTXT
 72
     4
 11
440.335
 21
-198.485917
 31
0.0
210
0.0
220
0.0
230
1.0
  0
TEXT
  8
1
  6
CONTINUOUS
 62
     7
  5
73F
 10
438.545917
 20
-203.5615
 30
0.0
 40
2.0
  1
1 1/4 
  7
MONOTXT
 72
     4
 11
440.42775
 21
-202.5615
 31
0.0
210
0.0
220
0.0
230
1.0
  0
TEXT
  8
1
  6
CONTINUOUS
 62
     7
  5
740
 10
444.401917
 20
-194.98575
 30
0.0
 40
2.0
  1
2 1/2 
  7
MONOTXT
 72
     4
 11
446.708917
 21
-193.98575
 31
0.0
210
0.0
220
0.0
230
1.0
  0
TEXT
  8
1
  6
CONTINUOUS
 62
     7
  5
741
 10
444.317
 20
-199.401
 30
0.0
 40
2.0
  1
3 1/2 
  7
MONOTXT
 72
     4
 11
446.624
 21
-198.401
 31
0.0
210
0.0
220
0.0
230
1.0
  0
TEXT
  8
1
  6
CONTINUOUS
 62
     7
  5
742
 10
444.48675
 20
-203.391667
 30
0.0
 40
2.0
  1
5 1/2 
  7
MONOTXT
 72
     4
 11
446.79375
 21
-202.391667
 31
0.0
210
0.0
220
0.0
230
1.0
  0
TEXT
  8
1
  6
CONTINUOUS
 62
     7
  5
743
 10
451.845
 20
-195.240417
 30
0.0
 40
2.0
  1
 3/4 
  7
MONOTXT
 72
     4
 11
453.159917
 21
-194.240417
 31
0.0
210
0.0
220
0.0
230
1.0
  0
TEXT
  8
1
  6
CONTINUOUS
 62
     7
  5
744
 10
451.929917
 20
-199.316083
 30
0.0
 40
2.0
  1
 3/4 
  7
MONOTXT
 72
     4
 11
453.244833
 21
-198.316083
 31
0.0
210
0.0
220
0.0
230
1.0
  0
TEXT
  8
1
  6
CONTINUOUS
 62
     7
  5
745
 10
453.00075
 20
-203.646417
 30
0.0
 40
2.0
  1
1
  7
MONOTXT
 72
     4
 11
453.236917
 21
-202.646417
 31
0.0
210
0.0
220
0.0
230
1.0
  0
TEXT
  8
1
  6
CONTINUOUS
 62
     7
  5
746
 10
457.473583
 20
-195.070667
 30
0.0
 40
2.0
  1
5 1/2 
  7
MONOTXT
 72
     4
 11
459.780583
 21
-194.070667
 31
0.0
210
0.0
220
0.0
230
1.0
  0
TEXT
  8
1
  6
CONTINUOUS
 62
     7
  5
747
 10
457.520833
 20
-199.231167
 30
0.0
 40
2.0
  1
6 1/4 
  7
MONOTXT
 72
     4
 11
459.780667
 21
-198.231167
 31
0.0
210
0.0
220
0.0
230
1.0
  0
TEXT
  8
1
  6
CONTINUOUS
 62
     7
  5
748
 10
459.281167
 20
-203.476583
 30
0.0
 40
2.0
  1
8
  7
MONOTXT
 72
     4
 11
459.950417
 21
-202.476583
 31
0.0
210
0.0
220
0.0
230
1.0
  0
TEXT
  8
1
  6
CONTINUOUS
 62
     7
  5
749
 10
464.746917
 20
-195.070667
 30
0.0
 40
2.0
  1
 3/4 
  7
MONOTXT
 72
     4
 11
466.061833
 21
-194.070667
 31
0.0
210
0.0
220
0.0
230
1.0
  0
TEXT
  8
1
  6
CONTINUOUS
 62
     7
  5
74A
 10
464.831833
 20
-199.401
 30
0.0
 40
2.0
  1
 3/4 
  7
MONOTXT
 72
     4
 11
466.14675
 21
-198.401
 31
0.0
210
0.0
220
0.0
230
1.0
  0
TEXT
  8
1
  6
CONTINUOUS
 62
     7
  5
74B
 10
464.916667
 20
-203.5615
 30
0.0
 40
2.0
  1
 3/4 
  7
MONOTXT
 72
     4
 11
466.231583
 21
-202.5615
 31
0.0
210
0.0
220
0.0
230
1.0
  0
TEXT
  8
1
  6
CONTINUOUS
 62
     7
  5
74C
 10
471.51475
 20
-195.070667
 30
0.0
 40
2.0
  1
 5/16 
  7
MONOTXT
 72
     4
 11
472.971417
 21
-194.070667
 31
0.0
210
0.0
220
0.0
230
1.0
  0
TEXT
  8
1
  6
CONTINUOUS
 62
     7
  5
74D
 10
471.452583
 20
-199.316083
 30
0.0
 40
2.0
  1
 3/8 
  7
MONOTXT
 72
     4
 11
472.7675
 21
-198.316083
 31
0.0
210
0.0
220
0.0
230
1.0
  0
TEXT
  8
1
  6
CONTINUOUS
 62
     7
  5
74E
 10
471.599667
 20
-203.476583
 30
0.0
 40
2.0
  1
 7/16 
  7
MONOTXT
 72
     4
 11
473.056333
 21
-202.476583
 31
0.0
210
0.0
220
0.0
230
1.0
  0
TEXT
  8
1
  6
CONTINUOUS
 62
     7
  5
74F
 10
409.013917
 20
-208.97675
 30
0.0
 40
2.0
  1
  DIMENSIONS A,B,C,D,E & F ALSO
  7
MONOTXT
 11
409.013917
 21
-206.97675
 31
0.0
210
0.0
220
0.0
230
1.0
 73
     3
  0
TEXT
  8
1
  6
CONTINUOUS
 62
     7
  5
750
 10
409.013917
 20
-212.47675
 30
0.0
 40
2.0
  1
  APPLY TO KEEPER PLATE.
  7
MONOTXT
 11
409.013917
 21
-210.47675
 31
0.0
210
0.0
220
0.0
230
1.0
 73
     3
  0
TEXT
  8
1
  6
CONTINUOUS
 62
     7
  5
751
 10
597.879583
 20
-75.276833
 30
0.0
 40
2.5
  1
TYPE
  7
MONOTXT
 72
     4
 11
602.495667
 21
-74.026833
 31
0.0
210
0.0
220
0.0
230
1.0
  0
TEXT
  8
1
  6
CONTINUOUS
 62
     7
  5
752
 10
600.359917
 20
-79.276833
 30
0.0
 40
2.5
  1
OF
  7
MONOTXT
 72
     4
 11
602.49575
 21
-78.026833
 31
0.0
210
0.0
220
0.0
230
1.0
  0
TEXT
  8
1
  6
CONTINUOUS
 62
     7
  5
753
 10
596.462333
 20
-83.276833
 30
0.0
 40
2.5
  1
MOUNT
  7
MONOTXT
 72
     4
 11
602.49575
 21
-82.026833
 31
0.0
210
0.0
220
0.0
230
1.0
  0
TEXT
  8
1
  6
CONTINUOUS
 62
     7
  5
754
 10
616.33425
 20
-74.977917
 30
0.0
 40
2.5
  1
PIPE
  7
MONOTXT
 72
     4
 11
620.005417
 21
-73.727917
 31
0.0
210
0.0
220
0.0
230
1.0
  0
TEXT
  8
1
  6
CONTINUOUS
 62
     7
  5
755
 10
619.040917
 20
-78.977917
 30
0.0
 40
2.5
  1
A
  7
MONOTXT
 72
     4
 11
620.005417
 21
-77.727917
 31
0.0
210
0.0
220
0.0
230
1.0
  0
TEXT
  8
1
  6
CONTINUOUS
 62
     7
  5
756
 10
631.874167
 20
-75.087417
 30
0.0
 40
2.5
  1
PIPE
  7
MONOTXT
 72
     4
 11
635.545333
 21
-73.837417
 31
0.0
210
0.0
220
0.0
230
1.0
  0
TEXT
  8
1
  6
CONTINUOUS
 62
     7
  5
757
 10
634.708833
 20
-79.087417
 30
0.0
 40
2.5
  1
B
  7
MONOTXT
 72
     4
 11
635.545417
 21
-77.837417
 31
0.0
210
0.0
220
0.0
230
1.0
  0
TEXT
  8
1
  6
CONTINUOUS
 62
     7
  5
758
 10
652.27175
 20
-75.66425
 30
0.0
 40
2.5
  1
FOUNDATION
  7
MONOTXT
 72
     4
 11
663.561083
 21
-74.41425
 31
0.0
210
0.0
220
0.0
230
1.0
  0
TEXT
  8
1
  6
CONTINUOUS
 62
     7
  5
759
 10
688.897083
 20
-73.77375
 30
0.0
 40
2.25
  1
STUB
  7
MONOTXT
 72
     4
 11
692.998417
 21
-72.64875
 31
0.0
210
0.0
220
0.0
230
1.0
  0
TEXT
  8
1
  6
CONTINUOUS
 62
     7
  5
75A
 10
688.79075
 20
-77.52375
 30
0.0
 40
2.25
  1
POST
  7
MONOTXT
 72
     4
 11
692.998417
 21
-76.39875
 31
0.0
210
0.0
220
0.0
230
1.0
  0
TEXT
  8
1
  6
CONTINUOUS
 62
     7
  5
75B
 10
613.24475
 20
-84.296917
 30
0.0
 40
2.25
  1
DIA.
  7
MONOTXT
 72
     4
 11
615.9465
 21
-83.171917
 31
0.0
210
0.0
220
0.0
230
1.0
  0
TEXT
  8
1
  6
CONTINUOUS
 62
     7
  5
75C
 10
628.894167
 20
-84.296917
 30
0.0
 40
2.25
  1
DIA.
  7
MONOTXT
 72
     4
 11
631.595917
 21
-83.171917
 31
0.0
210
0.0
220
0.0
230
1.0
  0
TEXT
  8
1
  6
CONTINUOUS
 62
     7
  5
75D
 10
620.054917
 20
-84.297
 30
0.0
 40
2.25
  1
SCH.
  7
MONOTXT
 72
     4
 11
623.607083
 21
-83.172
 31
0.0
210
0.0
220
0.0
230
1.0
  0
TEXT
  8
1
  6
CONTINUOUS
 62
     7
  5
75E
 10
635.594833
 20
-84.1875
 30
0.0
 40
2.25
  1
SCH.
  7
MONOTXT
 72
     4
 11
639.147
 21
-83.0625
 31
0.0
210
0.0
220
0.0
230
1.0
  0
TEXT
  8
1
  6
CONTINUOUS
 62
     7
  5
75F
 10
650.962833
 20
-83.217833
 30
0.0
 40
2.5
  1
D1
  7
MONOTXT
 72
     4
 11
652.49825
 21
-81.967833
 31
0.0
210
0.0
220
0.0
230
1.0
  0
TEXT
  8
1
  6
CONTINUOUS
 62
     7
  5
760
 10
672.354917
 20
-82.998833
 30
0.0
 40
2.5
  1
H
  7
MONOTXT
 72
     4
 11
673.1915
 21
-81.748833
 31
0.0
210
0.0
220
0.0
230
1.0
  0
TEXT
  8
1
  6
CONTINUOUS
 62
     7
  5
761
 10
692.390417
 20
-83.108333
 30
0.0
 40
2.5
  1
L
  7
MONOTXT
 72
     4
 11
693.108917
 21
-81.858333
 31
0.0
210
0.0
220
0.0
230
1.0
  0
TEXT
  8
1
  6
CONTINUOUS
 62
     7
  5
762
 10
601.424583
 20
-90.661833
 30
0.0
 40
2.5
  1
1
  7
MONOTXT
 72
     4
 11
601.719833
 21
-89.411833
 31
0.0
210
0.0
220
0.0
230
1.0
  0
TEXT
  8
1
  6
CONTINUOUS
 62
     7
  5
763
 10
601.221417
 20
-97.558583
 30
0.0
 40
2.5
  1
2
  7
MONOTXT
 72
     4
 11
602.058
 21
-96.308583
 31
0.0
210
0.0
220
0.0
230
1.0
  0
TEXT
  8
1
  6
CONTINUOUS
 62
     7
  5
764
 10
601.221417
 20
-104.67425
 30
0.0
 40
2.5
  1
3
  7
MONOTXT
 72
     4
 11
602.058
 21
-103.42425
 31
0.0
210
0.0
220
0.0
230
1.0
  0
TEXT
  8
1
  6
CONTINUOUS
 62
     7
  5
765
 10
601.162333
 20
-111.4615
 30
0.0
 40
2.5
  1
4
  7
MONOTXT
 72
     4
 11
602.058
 21
-110.2115
 31
0.0
210
0.0
220
0.0
230
1.0
  0
TEXT
  8
1
  6
CONTINUOUS
 62
     7
  5
766
 10
601.44025
 20
-118.686667
 30
0.0
 40
2.5
  1
5
  7
MONOTXT
 72
     4
 11
602.276833
 21
-117.436667
 31
0.0
210
0.0
220
0.0
230
1.0
  0
TEXT
  8
1
  6
CONTINUOUS
 62
     7
  5
767
 10
614.900917
 20
-90.224
 30
0.0
 40
2.5
  1
3
  7
MONOTXT
 72
     4
 11
615.7375
 21
-88.974
 31
0.0
210
0.0
220
0.0
230
1.0
  0
TEXT
  8
1
  6
CONTINUOUS
 62
     7
  5
768
 10
614.732417
 20
-97.558583
 30
0.0
 40
2.5
  1
4
  7
MONOTXT
 72
     4
 11
615.628083
 21
-96.308583
 31
0.0
210
0.0
220
0.0
230
1.0
  0
TEXT
  8
1
  6
CONTINUOUS
 62
     7
  5
769
 10
614.8505
 20
-104.345833
 30
0.0
 40
2.5
  1
6
  7
MONOTXT
 72
     4
 11
615.628
 21
-103.095833
 31
0.0
210
0.0
220
0.0
230
1.0
  0
TEXT
  8
1
  6
CONTINUOUS
 62
     7
  5
76A
 10
615.069333
 20
-111.352
 30
0.0
 40
2.5
  1
6
  7
MONOTXT
 72
     4
 11
615.846833
 21
-110.102
 31
0.0
210
0.0
220
0.0
230
1.0
  0
TEXT
  8
1
  6
CONTINUOUS
 62
     7
  5
76B
 10
615.060667
 20
-118.467667
 30
0.0
 40
2.5
  1
4
  7
MONOTXT
 72
     4
 11
615.956333
 21
-117.217667
 31
0.0
210
0.0
220
0.0
230
1.0
  0
TEXT
  8
1
  6
CONTINUOUS
 62
     7
  5
76C
 10
621.15275
 20
-90.442917
 30
0.0
 40
2.5
  1
40
  7
MONOTXT
 72
     4
 11
623.27875
 21
-89.192917
 31
0.0
210
0.0
220
0.0
230
1.0
  0
TEXT
  8
1
  6
CONTINUOUS
 62
     7
  5
76D
 10
621.262167
 20
-97.230167
 30
0.0
 40
2.5
  1
40
  7
MONOTXT
 72
     4
 11
623.388167
 21
-95.980167
 31
0.0
210
0.0
220
0.0
230
1.0
  0
TEXT
  8
1
  6
CONTINUOUS
 62
     7
  5
76E
 10
621.262167
 20
-104.345833
 30
0.0
 40
2.5
  1
40
  7
MONOTXT
 72
     4
 11
623.388167
 21
-103.095833
 31
0.0
210
0.0
220
0.0
230
1.0
  0
TEXT
  8
1
  6
CONTINUOUS
 62
     7
  5
76F
 10
621.15275
 20
-111.023583
 30
0.0
 40
2.5
  1
40
  7
MONOTXT
 72
     4
 11
623.27875
 21
-109.773583
 31
0.0
210
0.0
220
0.0
230
1.0
  0
TEXT
  8
1
  6
CONTINUOUS
 62
     7
  5
770
 10
621.262167
 20
-118.467667
 30
0.0
 40
2.5
  1
40
  7
MONOTXT
 72
     4
 11
623.388167
 21
-117.217667
 31
0.0
210
0.0
220
0.0
230
1.0
  0
TEXT
  8
1
  6
CONTINUOUS
 62
     7
  5
771
 10
628.815667
 20
-90.3335
 30
0.0
 40
2.5
  1
1 1/2 
  7
MONOTXT
 72
     4
 11
631.168
 21
-89.0835
 31
0.0
210
0.0
220
0.0
230
1.0
  0
TEXT
  8
1
  6
CONTINUOUS
 62
     7
  5
772
 10
630.331417
 20
-97.339667
 30
0.0
 40
2.5
  1
2
  7
MONOTXT
 72
     4
 11
631.168
 21
-96.089667
 31
0.0
210
0.0
220
0.0
230
1.0
  0
TEXT
  8
1
  6
CONTINUOUS
 62
     7
  5
773
 10
630.331417
 20
-118.577167
 30
0.0
 40
2.5
  1
2
  7
MONOTXT
 72
     4
 11
631.168
 21
-117.327167
 31
0.0
210
0.0
220
0.0
230
1.0
  0
TEXT
  8
1
  6
CONTINUOUS
 62
     7
  5
774
 10
630.331417
 20
-104.56475
 30
0.0
 40
2.5
  1
3
  7
MONOTXT
 72
     4
 11
631.168
 21
-103.31475
 31
0.0
210
0.0
220
0.0
230
1.0
  0
TEXT
  8
1
  6
CONTINUOUS
 62
     7
  5
775
 10
630.112583
 20
-111.4615
 30
0.0
 40
2.5
  1
3
  7
MONOTXT
 72
     4
 11
630.949167
 21
-110.2115
 31
0.0
210
0.0
220
0.0
230
1.0
  0
TEXT
  8
1
  6
CONTINUOUS
 62
     7
  5
776
 10
636.802167
 20
-90.442917
 30
0.0
 40
2.5
  1
40
  7
MONOTXT
 72
     4
 11
638.928167
 21
-89.192917
 31
0.0
210
0.0
220
0.0
230
1.0
  0
TEXT
  8
1
  6
CONTINUOUS
 62
     7
  5
777
 10
636.802167
 20
-97.449083
 30
0.0
 40
2.5
  1
40
  7
MONOTXT
 72
     4
 11
638.928167
 21
-96.199083
 31
0.0
210
0.0
220
0.0
230
1.0
  0
TEXT
  8
1
  6
CONTINUOUS
 62
     7
  5
778
 10
636.802167
 20
-104.017417
 30
0.0
 40
2.5
  1
40
  7
MONOTXT
 72
     4
 11
638.928167
 21
-102.767417
 31
0.0
210
0.0
220
0.0
230
1.0
  0
TEXT
  8
1
  6
CONTINUOUS
 62
     7
  5
779
 10
636.58325
 20
-118.35825
 30
0.0
 40
2.5
  1
40
  7
MONOTXT
 72
     4
 11
638.70925
 21
-117.10825
 31
0.0
210
0.0
220
0.0
230
1.0
  0
TEXT
  8
1
  6
CONTINUOUS
 62
     7
  5
77A
 10
636.86125
 20
-111.133083
 30
0.0
 40
2.5
  1
80
  7
MONOTXT
 72
     4
 11
638.928167
 21
-109.883083
 31
0.0
210
0.0
220
0.0
230
1.0
  0
TEXT
  8
1
  6
CONTINUOUS
 62
     7
  5
77B
 10
649.148917
 20
-90.3335
 30
0.0
 40
2.5
  1
1'-0"
  7
MONOTXT
 72
     4
 11
653.15475
 21
-89.0835
 31
0.0
210
0.0
220
0.0
230
1.0
  0
TEXT
  8
1
  6
CONTINUOUS
 62
     7
  5
77C
 10
649.317417
 20
-97.339667
 30
0.0
 40
2.5
  1
1'-6"
  7
MONOTXT
 72
     4
 11
653.26425
 21
-96.089667
 31
0.0
210
0.0
220
0.0
230
1.0
  0
TEXT
  8
1
  6
CONTINUOUS
 62
     7
  5
77D
 10
648.836333
 20
-104.455333
 30
0.0
 40
2.5
  1
2'-0"
  7
MONOTXT
 72
     4
 11
653.373667
 21
-103.205333
 31
0.0
210
0.0
220
0.0
230
1.0
  0
TEXT
  8
1
  6
CONTINUOUS
 62
     7
  5
77E
 10
648.94575
 20
-111.352
 30
0.0
 40
2.5
  1
2'-0"
  7
MONOTXT
 72
     4
 11
653.483083
 21
-110.102
 31
0.0
210
0.0
220
0.0
230
1.0
  0
TEXT
  8
1
  6
CONTINUOUS
 62
     7
  5
77F
 10
649.098583
 20
-118.467667
 30
0.0
 40
2.5
  1
1'-6"
  7
MONOTXT
 72
     4
 11
653.045417
 21
-117.217667
 31
0.0
210
0.0
220
0.0
230
1.0
  0
TEXT
  8
1
  6
CONTINUOUS
 62
     7
  5
780
 10
668.534833
 20
-90.224
 30
0.0
 40
2.5
  1
4'-6"
  7
MONOTXT
 72
     4
 11
673.072167
 21
-88.974
 31
0.0
210
0.0
220
0.0
230
1.0
  0
TEXT
  8
1
  6
CONTINUOUS
 62
     7
  5
781
 10
668.315917
 20
-104.56475
 30
0.0
 40
2.5
  1
4'-6"
  7
MONOTXT
 72
     4
 11
672.85325
 21
-103.31475
 31
0.0
210
0.0
220
0.0
230
1.0
  0
TEXT
  8
1
  6
CONTINUOUS
 62
     7
  5
782
 10
668.64425
 20
-111.4615
 30
0.0
 40
2.5
  1
4'-6"
  7
MONOTXT
 72
     4
 11
673.181583
 21
-110.2115
 31
0.0
210
0.0
220
0.0
230
1.0
  0
TEXT
  8
1
  6
CONTINUOUS
 62
     7
  5
783
 10
668.81275
 20
-97.339667
 30
0.0
 40
2.5
  1
5'-6"
  7
MONOTXT
 72
     4
 11
673.291083
 21
-96.089667
 31
0.0
210
0.0
220
0.0
230
1.0
  0
TEXT
  8
1
  6
CONTINUOUS
 62
     7
  5
784
 10
668.922167
 20
-118.24875
 30
0.0
 40
2.5
  1
5'-6"
  7
MONOTXT
 72
     4
 11
673.4005
 21
-116.99875
 31
0.0
210
0.0
220
0.0
230
1.0
  0
TEXT
  8
1
  6
CONTINUOUS
 62
     7
  5
785
 10
686.564833
 20
-90.224
 30
0.0
 40
2.5
  1
4'-3 1/2 "
  7
MONOTXT
 72
     4
 11
693.2085
 21
-88.974
 31
0.0
210
0.0
220
0.0
230
1.0
  0
TEXT
  8
1
  6
CONTINUOUS
 62
     7
  5
786
 10
686.952167
 20
-97.230167
 30
0.0
 40
2.5
  1
5'-3 1/2 "
  7
MONOTXT
 72
     4
 11
693.536833
 21
-95.980167
 31
0.0
210
0.0
220
0.0
230
1.0
  0
TEXT
  8
1
  6
CONTINUOUS
 62
     7
  5
787
 10
686.842667
 20
-118.13925
 30
0.0
 40
2.5
  1
5'-3 1/2 "
  7
MONOTXT
 72
     4
 11
693.427333
 21
-116.88925
 31
0.0
210
0.0
220
0.0
230
1.0
  0
TEXT
  8
1
  6
CONTINUOUS
 62
     7
  5
788
 10
687.171
 20
-104.236333
 30
0.0
 40
2.5
  1
4'-6 1/2 "
  7
MONOTXT
 72
     4
 11
693.755667
 21
-102.986333
 31
0.0
210
0.0
220
0.0
230
1.0
  0
TEXT
  8
1
  6
CONTINUOUS
 62
     7
  5
789
 10
687.389917
 20
-111.133083
 30
0.0
 40
2.5
  1
4'-6 1/2 "
  7
MONOTXT
 72
     4
 11
693.974583
 21
-109.883083
 31
0.0
210
0.0
220
0.0
230
1.0
  0
POLYLINE
  8
1
  6
CONTINUOUS
 62
     7
  5
78A
 66
     1
 10
0.0
 20
0.0
 30
0.0
  0
VERTEX
  8
1
  6
CONTINUOUS
 62
     7
  5
78B
 10
543.764917
 20
-193.050417
 30
0.0
  0
VERTEX
  8
1
  6
CONTINUOUS
 62
     7
  5
78C
 10
541.764917
 20
-196.5145
 30
0.0
  0
VERTEX
  8
1
  6
CONTINUOUS
 62
     7
  5
78D
 10
545.764917
 20
-196.5145
 30
0.0
  0
VERTEX
  8
1
  6
CONTINUOUS
 62
     7
  5
78E
 10
543.764917
 20
-193.050417
 30
0.0
  0
SEQEND
  8
1
  6
CONTINUOUS
 62
     7
  5
78F
  0
TEXT
  8
1
  6
CONTINUOUS
 62
     7
  5
790
 10
543.233417
 20
-196.0355
 30
0.0
 40
1.5
  1
4
  7
MONOTXT
 72
     4
 11
543.77075
 21
-195.2855
 31
0.0
210
0.0
220
0.0
230
1.0
  0
POLYLINE
  8
1
  6
CONTINUOUS
 62
     7
  5
791
 66
     1
 10
0.0
 20
0.0
 30
0.0
  0
VERTEX
  8
1
  6
CONTINUOUS
 62
     7
  5
792
 10
485.67575
 20
-153.8535
 30
0.0
  0
VERTEX
  8
1
  6
CONTINUOUS
 62
     7
  5
793
 10
483.67575
 20
-157.317583
 30
0.0
  0
VERTEX
  8
1
  6
CONTINUOUS
 62
     7
  5
794
 10
487.67575
 20
-157.317583
 30
0.0
  0
VERTEX
  8
1
  6
CONTINUOUS
 62
     7
  5
795
 10
485.67575
 20
-153.8535
 30
0.0
  0
SEQEND
  8
1
  6
CONTINUOUS
 62
     7
  5
796
  0
TEXT
  8
1
  6
CONTINUOUS
 62
     7
  5
797
 10
485.498583
 20
-156.838583
 30
0.0
 40
1.5
  1
1
  7
MONOTXT
 72
     4
 11
485.67575
 21
-156.088583
 31
0.0
210
0.0
220
0.0
230
1.0
  0
POLYLINE
  8
1
  6
CONTINUOUS
 62
     7
  5
798
 66
     1
 10
0.0
 20
0.0
 30
0.0
  0
VERTEX
  8
1
  6
CONTINUOUS
 62
     7
  5
799
 10
543.2945
 20
-179.405
 30
0.0
  0
VERTEX
  8
1
  6
CONTINUOUS
 62
     7
  5
79A
 10
541.2945
 20
-182.869083
 30
0.0
  0
VERTEX
  8
1
  6
CONTINUOUS
 62
     7
  5
79B
 10
545.2945
 20
-182.869083
 30
0.0
  0
VERTEX
  8
1
  6
CONTINUOUS
 62
     7
  5
79C
 10
543.2945
 20
-179.405
 30
0.0
  0
SEQEND
  8
1
  6
CONTINUOUS
 62
     7
  5
79D
  0
TEXT
  8
1
  6
CONTINUOUS
 62
     7
  5
79E
 10
543.117333
 20
-182.390083
 30
0.0
 40
1.5
  1
1
  7
MONOTXT
 72
     4
 11
543.2945
 21
-181.640083
 31
0.0
210
0.0
220
0.0
230
1.0
  0
POLYLINE
  8
1
  6
CONTINUOUS
 62
     7
  5
79F
 66
     1
 10
0.0
 20
0.0
 30
0.0
  0
VERTEX
  8
1
  6
CONTINUOUS
 62
     7
  5
7A0
 10
485.675667
 20
-158.558833
 30
0.0
  0
VERTEX
  8
1
  6
CONTINUOUS
 62
     7
  5
7A1
 10
483.675667
 20
-162.022917
 30
0.0
  0
VERTEX
  8
1
  6
CONTINUOUS
 62
     7
  5
7A2
 10
487.675667
 20
-162.022917
 30
0.0
  0
VERTEX
  8
1
  6
CONTINUOUS
 62
     7
  5
7A3
 10
485.675667
 20
-158.558833
 30
0.0
  0
SEQEND
  8
1
  6
CONTINUOUS
 62
     7
  5
7A4
  0
TEXT
  8
1
  6
CONTINUOUS
 62
     7
  5
7A5
 10
485.062
 20
-161.543917
 30
0.0
 40
1.5
  1
2
  7
MONOTXT
 72
     4
 11
485.563917
 21
-160.793917
 31
0.0
210
0.0
220
0.0
230
1.0
  0
POLYLINE
  8
1
  6
CONTINUOUS
 62
     7
  5
7A6
 66
     1
 10
0.0
 20
0.0
 30
0.0
  0
VERTEX
  8
1
  6
CONTINUOUS
 62
     7
  5
7A7
 10
543.412083
 20
-183.992667
 30
0.0
  0
VERTEX
  8
1
  6
CONTINUOUS
 62
     7
  5
7A8
 10
541.412083
 20
-187.45675
 30
0.0
  0
VERTEX
  8
1
  6
CONTINUOUS
 62
     7
  5
7A9
 10
545.412083
 20
-187.45675
 30
0.0
  0
VERTEX
  8
1
  6
CONTINUOUS
 62
     7
  5
7AA
 10
543.412083
 20
-183.992667
 30
0.0
  0
SEQEND
  8
1
  6
CONTINUOUS
 62
     7
  5
7AB
  0
TEXT
  8
1
  6
CONTINUOUS
 62
     7
  5
7AC
 10
542.798417
 20
-186.97775
 30
0.0
 40
1.5
  1
2
  7
MONOTXT
 72
     4
 11
543.300333
 21
-186.22775
 31
0.0
210
0.0
220
0.0
230
1.0
  0
POLYLINE
  8
1
  6
CONTINUOUS
 62
     7
  5
7AD
 66
     1
 10
0.0
 20
0.0
 30
0.0
  0
VERTEX
  8
1
  6
CONTINUOUS
 62
     7
  5
7AE
 10
485.4405
 20
-163.381833
 30
0.0
  0
VERTEX
  8
1
  6
CONTINUOUS
 62
     7
  5
7AF
 10
483.4405
 20
-166.845917
 30
0.0
  0
VERTEX
  8
1
  6
CONTINUOUS
 62
     7
  5
7B0
 10
487.4405
 20
-166.845917
 30
0.0
  0
VERTEX
  8
1
  6
CONTINUOUS
 62
     7
  5
7B1
 10
485.4405
 20
-163.381833
 30
0.0
  0
SEQEND
  8
1
  6
CONTINUOUS
 62
     7
  5
7B2
  0
TEXT
  8
1
  6
CONTINUOUS
 62
     7
  5
7B3
 10
484.82675
 20
-166.60225
 30
0.0
 40
1.5
  1
3
  7
MONOTXT
 72
     4
 11
485.328667
 21
-165.85225
 31
0.0
210
0.0
220
0.0
230
1.0
  0
POLYLINE
  8
1
  6
CONTINUOUS
 62
     7
  5
7B4
 66
     1
 10
0.0
 20
0.0
 30
0.0
  0
VERTEX
  8
1
  6
CONTINUOUS
 62
     7
  5
7B5
 10
543.529667
 20
-188.46275
 30
0.0
  0
VERTEX
  8
1
  6
CONTINUOUS
 62
     7
  5
7B6
 10
541.529667
 20
-191.926833
 30
0.0
  0
VERTEX
  8
1
  6
CONTINUOUS
 62
     7
  5
7B7
 10
545.529667
 20
-191.926833
 30
0.0
  0
VERTEX
  8
1
  6
CONTINUOUS
 62
     7
  5
7B8
 10
543.529667
 20
-188.46275
 30
0.0
  0
SEQEND
  8
1
  6
CONTINUOUS
 62
     7
  5
7B9
  0
TEXT
  8
1
  6
CONTINUOUS
 62
     7
  5
7BA
 10
542.915917
 20
-191.683167
 30
0.0
 40
1.5
  1
3
  7
MONOTXT
 72
     4
 11
543.417833
 21
-190.933167
 31
0.0
210
0.0
220
0.0
230
1.0
  0
POLYLINE
  8
1
  6
CONTINUOUS
 62
     7
  5
7BB
 66
     1
 10
0.0
 20
0.0
 30
0.0
  0
VERTEX
  8
1
  6
CONTINUOUS
 62
     7
  5
7BC
 10
485.083167
 20
-170.9285
 30
0.0
  0
VERTEX
  8
1
  6
CONTINUOUS
 62
     7
  5
7BD
 10
483.083167
 20
-174.392583
 30
0.0
  0
VERTEX
  8
1
  6
CONTINUOUS
 62
     7
  5
7BE
 10
487.083167
 20
-174.392583
 30
0.0
  0
VERTEX
  8
1
  6
CONTINUOUS
 62
     7
  5
7BF
 10
485.083167
 20
-170.9285
 30
0.0
  0
SEQEND
  8
1
  6
CONTINUOUS
 62
     7
  5
7C0
  0
TEXT
  8
1
  6
CONTINUOUS
 62
     7
  5
7C1
 10
484.551667
 20
-173.913583
 30
0.0
 40
1.5
  1
4
  7
MONOTXT
 72
     4
 11
485.089
 21
-173.163583
 31
0.0
210
0.0
220
0.0
230
1.0
  0
TEXT
  8
1
  6
CONTINUOUS
 62
     1
  5
7C2
 10
599.94075
 20
-157.291667
 30
0.0
 40
6.992667
  1
PIPE POSTS
  7
txt
 72
     1
 11
627.208917
 21
-150.299
 31
0.0
210
0.0
220
0.0
230
1.0
 73
     3
  0
TEXT
  8
1
  6
CONTINUOUS
 62
     1
  5
7C3
 10
598.129083
 20
-167.103
 30
0.0
 40
6.992667
  1
BREAKAWAY
  7
txt
 72
     1
 11
627.042667
 21
-160.110333
 31
0.0
210
0.0
220
0.0
230
1.0
 73
     3
  0
TEXT
  8
1
  6
CONTINUOUS
 62
     7
  5
7C4
 10
261.283917
 20
-193.450583
 30
0.0
 40
4.0
  1
+
  7
MONOTXT
 72
     4
 11
262.181583
 21
-191.450583
 31
0.0
210
0.0
220
0.0
230
1.0
  0
TEXT
  8
1
  6
CONTINUOUS
 62
     7
  5
7C5
 10
261.382833
 20
-194.78625
 30
0.0
 40
4.0
  1
-
  7
MONOTXT
 72
     4
 11
262.2805
 21
-192.78625
 31
0.0
210
0.0
220
0.0
230
1.0
  0
TEXT
  8
1
  6
CONTINUOUS
 62
     7
  5
7C6
 10
261.531167
 20
-200.227917
 30
0.0
 40
4.0
  1
+
  7
MONOTXT
 72
     4
 11
262.428833
 21
-198.227917
 31
0.0
210
0.0
220
0.0
230
1.0
  0
TEXT
  8
1
  6
CONTINUOUS
 62
     7
  5
7C7
 10
261.630083
 20
-201.563583
 30
0.0
 40
4.0
  1
-
  7
MONOTXT
 72
     4
 11
262.52775
 21
-199.563583
 31
0.0
210
0.0
220
0.0
230
1.0
  0
TEXT
  8
1
  6
CONTINUOUS
 62
     7
  5
7C8
 10
206.340917
 20
-169.161
 30
0.0
 40
4.0
  1
+
  7
MONOTXT
 72
     4
 11
207.238583
 21
-167.161
 31
0.0
210
0.0
220
0.0
230
1.0
  0
TEXT
  8
1
  6
CONTINUOUS
 62
     7
  5
7C9
 10
206.439833
 20
-170.496667
 30
0.0
 40
4.0
  1
-
  7
MONOTXT
 72
     4
 11
207.3375
 21
-168.496667
 31
0.0
210
0.0
220
0.0
230
1.0
  0
TEXT
  8
1
  6
CONTINUOUS
 62
     7
  5
7CA
 10
437.727583
 20
137.734167
 30
0.0
 40
4.0
  1
=
  7
MONOTXT
 72
     4
 11
438.62525
 21
139.734167
 31
0.0
210
0.0
220
0.0
230
1.0
  0
TEXT
  8
1
  6
CONTINUOUS
 62
     7
  5
7CB
 10
446.37225
 20
133.272417
 30
0.0
 40
4.0
  1
+
  7
MONOTXT
 72
     4
 11
447.269917
 21
135.272417
 31
0.0
210
0.0
220
0.0
230
1.0
  0
TEXT
  8
1
  6
CONTINUOUS
 62
     7
  5
7CC
 10
505.105167
 20
-62.852583
 30
0.0
 40
4.0
  1
=
  7
MONOTXT
 72
     4
 11
506.002833
 21
-60.852583
 31
0.0
210
0.0
220
0.0
230
1.0
  0
TEXT
  8
1
  6
CONTINUOUS
 62
     7
  5
7CD
 10
396.283083
 20
-105.269917
 30
0.0
 40
4.0
  1
=
  7
MONOTXT
 72
     4
 11
397.18075
 21
-103.269917
 31
0.0
210
0.0
220
0.0
230
1.0
  0
TEXT
  8
1
  6
CONTINUOUS
 62
     7
  5
7CE
 10
405.477417
 20
-109.799917
 30
0.0
 40
4.0
  1
+
  7
MONOTXT
 72
     4
 11
406.375083
 21
-107.799917
 31
0.0
210
0.0
220
0.0
230
1.0
  0
TEXT
  8
1
  6
CONTINUOUS
 62
     7
  5
7CF
 10
400.956417
 20
-182.48025
 30
0.0
 40
4.0
  1
*
  7
MONOTXT
 72
     4
 11
401.728083
 21
-180.48025
 31
0.0
210
0.0
220
0.0
230
1.0
  0
TEXT
  8
1
  6
CONTINUOUS
 62
     7
  5
7D0
 10
409.778
 20
-209.912833
 30
0.0
 40
4.0
  1
*
  7
MONOTXT
 72
     4
 11
410.549667
 21
-207.912833
 31
0.0
210
0.0
220
0.0
230
1.0
  0
LINE
  8
1
  6
CONTINUOUS
 62
     7
  5
7D1
 10
558.115917
 20
162.1325
 30
0.0
 11
584.829667
 21
162.1325
 31
0.0
  0
LINE
  8
1
  6
CONTINUOUS
 62
     7
  5
7D2
 10
558.260167
 20
99.0895
 30
0.0
 11
587.187833
 21
99.0895
 31
0.0
  0
LINE
  8
1
  6
CONTINUOUS
 62
     7
  5
7D3
 10
558.310583
 20
71.118083
 30
0.0
 11
593.86325
 21
71.118083
 31
0.0
  0
LINE
  8
1
  6
CONTINUOUS
 62
     7
  5
7D4
 10
558.264083
 20
64.102667
 30
0.0
 11
581.86275
 21
64.102667
 31
0.0
  0
LINE
  8
1
  6
CONTINUOUS
 62
     7
  5
7D5
 10
558.161167
 20
4.565917
 30
0.0
 11
573.498667
 21
4.565917
 31
0.0
  0
LINE
  8
1
  6
CONTINUOUS
 62
     7
  5
7D6
 10
558.347417
 20
-12.936167
 30
0.0
 11
639.182833
 21
-12.936167
 31
0.0
  0
LINE
  8
1
  6
CONTINUOUS
 62
     7
  5
7D7
 10
635.330833
 20
-19.908583
 30
0.0
 11
681.998417
 21
-19.908583
 31
0.0
  0
LINE
  8
1
  6
CONTINUOUS
 62
     7
  5
7D8
 10
561.77
 20
-23.60825
 30
0.0
 11
601.2365
 21
-23.60825
 31
0.0
  0
TEXT
  8
1
  6
CONTINUOUS
 62
     7
  5
7D9
 10
648.9775
 20
109.96625
 30
0.0
 40
4.0
  1
+
  7
MONOTXT
 72
     4
 11
649.875167
 21
111.96625
 31
0.0
210
0.0
220
0.0
230
1.0
  0
TEXT
  8
1
  6
CONTINUOUS
 62
     7
  5
7DA
 10
683.089167
 20
109.8275
 30
0.0
 40
4.0
  1
+
  7
MONOTXT
 72
     4
 11
683.986833
 21
111.8275
 31
0.0
210
0.0
220
0.0
230
1.0
  0
TEXT
  8
1
  6
CONTINUOUS
 62
     7
  5
7DB
 10
648.9775
 20
108.440417
 30
0.0
 40
4.0
  1
-
  7
MONOTXT
 72
     4
 11
649.875167
 21
110.440417
 31
0.0
210
0.0
220
0.0
230
1.0
  0
TEXT
  8
1
  6
CONTINUOUS
 62
     7
  5
7DC
 10
683.227833
 20
108.301667
 30
0.0
 40
4.0
  1
-
  7
MONOTXT
 72
     4
 11
684.1255
 21
110.301667
 31
0.0
210
0.0
220
0.0
230
1.0
  0
POLYLINE
  8
1
  6
CONTINUOUS
 62
     7
  5
7DD
 66
     1
 10
0.0
 20
0.0
 30
0.0
  0
VERTEX
  8
1
  6
CONTINUOUS
 62
     7
  5
7DE
 10
639.687917
 20
112.194917
 30
0.0
  0
VERTEX
  8
1
  6
CONTINUOUS
 62
     7
  5
7DF
 10
640.087167
 20
112.148833
 30
0.0
  0
VERTEX
  8
1
  6
CONTINUOUS
 62
     7
  5
7E0
 10
640.134532
 20
112.149245
 30
0.0
  0
VERTEX
  8
1
  6
CONTINUOUS
 62
     7
  5
7E1
 10
640.227488
 20
112.177061
 30
0.0
  0
VERTEX
  8
1
  6
CONTINUOUS
 62
     7
  5
7E2
 10
640.410031
 20
112.261024
 30
0.0
  0
VERTEX
  8
1
  6
CONTINUOUS
 62
     7
  5
7E3
 10
640.50175
 20
112.271667
 30
0.0
  0
VERTEX
  8
1
  6
CONTINUOUS
 62
     7
  5
7E4
 10
640.649943
 20
112.238347
 30
0.0
  0
VERTEX
  8
1
  6
CONTINUOUS
 62
     7
  5
7E5
 10
640.847903
 20
112.174045
 30
0.0
  0
VERTEX
  8
1
  6
CONTINUOUS
 62
     7
  5
7E6
 10
640.947
 20
112.148833
 30
0.0
  0
VERTEX
  8
1
  6
CONTINUOUS
 62
     7
  5
7E7
 10
641.062691
 20
112.11946
 30
0.0
  0
VERTEX
  8
1
  6
CONTINUOUS
 62
     7
  5
7E8
 10
641.221394
 20
112.076719
 30
0.0
  0
VERTEX
  8
1
  6
CONTINUOUS
 62
     7
  5
7E9
 10
641.300185
 20
112.064223
 30
0.0
  0
VERTEX
  8
1
  6
CONTINUOUS
 62
     7
  5
7EA
 10
641.414588
 20
112.069581
 30
0.0
  0
VERTEX
  8
1
  6
CONTINUOUS
 62
     7
  5
7EB
 10
641.469083
 20
112.087333
 30
0.0
  0
VERTEX
  8
1
  6
CONTINUOUS
 62
     7
  5
7EC
 10
641.60725
 20
112.148833
 30
0.0
  0
SEQEND
  8
1
  6
CONTINUOUS
 62
     7
  5
7ED
  0
POLYLINE
  8
1
  6
CONTINUOUS
 62
     7
  5
7EE
 66
     1
 10
0.0
 20
0.0
 30
0.0
  0
VERTEX
  8
1
  6
CONTINUOUS
 62
     7
  5
7EF
 10
673.037583
 20
112.317833
 30
0.0
  0
VERTEX
  8
1
  6
CONTINUOUS
 62
     7
  5
7F0
 10
673.436833
 20
112.27175
 30
0.0
  0
VERTEX
  8
1
  6
CONTINUOUS
 62
     7
  5
7F1
 10
673.484198
 20
112.272162
 30
0.0
  0
VERTEX
  8
1
  6
CONTINUOUS
 62
     7
  5
7F2
 10
673.577154
 20
112.299977
 30
0.0
  0
VERTEX
  8
1
  6
CONTINUOUS
 62
     7
  5
7F3
 10
673.759698
 20
112.383941
 30
0.0
  0
VERTEX
  8
1
  6
CONTINUOUS
 62
     7
  5
7F4
 10
673.851417
 20
112.394583
 30
0.0
  0
VERTEX
  8
1
  6
CONTINUOUS
 62
     7
  5
7F5
 10
673.99961
 20
112.361264
 30
0.0
  0
VERTEX
  8
1
  6
CONTINUOUS
 62
     7
  5
7F6
 10
674.197569
 20
112.296962
 30
0.0
  0
VERTEX
  8
1
  6
CONTINUOUS
 62
     7
  5
7F7
 10
674.296667
 20
112.27175
 30
0.0
  0
VERTEX
  8
1
  6
CONTINUOUS
 62
     7
  5
7F8
 10
674.412358
 20
112.242377
 30
0.0
  0
VERTEX
  8
1
  6
CONTINUOUS
 62
     7
  5
7F9
 10
674.571061
 20
112.199636
 30
0.0
  0
VERTEX
  8
1
  6
CONTINUOUS
 62
     7
  5
7FA
 10
674.649852
 20
112.18714
 30
0.0
  0
VERTEX
  8
1
  6
CONTINUOUS
 62
     7
  5
7FB
 10
674.764254
 20
112.192498
 30
0.0
  0
VERTEX
  8
1
  6
CONTINUOUS
 62
     7
  5
7FC
 10
674.81875
 20
112.21025
 30
0.0
  0
VERTEX
  8
1
  6
CONTINUOUS
 62
     7
  5
7FD
 10
674.956917
 20
112.27175
 30
0.0
  0
SEQEND
  8
1
  6
CONTINUOUS
 62
     7
  5
7FE
  0
TEXT
  8
1
  6
CONTINUOUS
 62
     7
  5
7FF
 10
341.007833
 20
189.026
 30
0.0
 40
2.5
  1
NOTE:  TYPE 4 SUPPORT TO HAVE CROSS-ARM
  7
MONOTXT
 11
341.007833
 21
191.526
 31
0.0
210
0.0
220
0.0
230
1.0
 73
     3
  0
TEXT
  8
1
  6
CONTINUOUS
 62
     7
  5
800
 10
341.007833
 20
184.526
 30
0.0
 40
2.5
  1
      (E.G. 2.00 LB. U-CHANNEL, TELESPAR) AT
  7
MONOTXT
 11
341.007833
 21
187.026
 31
0.0
210
0.0
220
0.0
230
1.0
 73
     3
  0
TEXT
  8
1
  6
CONTINUOUS
 62
     7
  5
801
 10
341.007833
 20
180.026
 30
0.0
 40
2.5
  1
      TOP, AND BOTTOM AS APPROPRIATE.
  7
MONOTXT
 11
341.007833
 21
182.526
 31
0.0
210
0.0
220
0.0
230
1.0
 73
     3
  0
LINE
  8
1
  6
CONTINUOUS
 62
     1
  5
802
 10
386.595667
 20
147.14625
 30
0.0
 11
382.752333
 21
147.14625
 31
0.0
  0
LINE
  8
1
  6
CONTINUOUS
 62
     1
  5
803
 10
386.595667
 20
149.23625
 30
0.0
 11
382.752333
 21
149.23625
 31
0.0
  0
LINE
  8
1
  6
CONTINUOUS
 62
     1
  5
804
 10
386.737333
 20
92.039583
 30
0.0
 11
382.894
 21
92.039583
 31
0.0
  0
LINE
  8
1
  6
CONTINUOUS
 62
     1
  5
805
 10
386.737333
 20
94.129583
 30
0.0
 11
382.894
 21
94.129583
 31
0.0
  0
TEXT
  8
1
  6
CONTINUOUS
 62
     7
  5
806
 10
202.406667
 20
188.636333
 30
0.0
 40
2.5
  1
NOTES:   MINIMUM DISTANCE FROM GROUND TO TOP
  7
MONOTXT
 11
202.406667
 21
191.136333
 31
0.0
210
0.0
220
0.0
230
1.0
 73
     3
  0
TEXT
  8
1
  6
CONTINUOUS
 62
     7
  5
807
 10
202.406667
 20
184.136333
 30
0.0
 40
2.5
  1
       OF SIGN(S) (ALL 5 TYPES) IS NINE (9) FEET.
  7
MONOTXT
 11
202.406667
 21
186.636333
 31
0.0
210
0.0
220
0.0
230
1.0
 73
     3
  0
TEXT
  8
1
  6
CONTINUOUS
 62
     7
  5
808
 10
202.406667
 20
179.636333
 30
0.0
 40
2.5
  1
       
  7
MONOTXT
 11
202.406667
 21
182.136333
 31
0.0
210
0.0
220
0.0
230
1.0
 73
     3
  0
TEXT
  8
1
  6
CONTINUOUS
 62
     7
  5
809
 10
202.406667
 20
175.136333
 30
0.0
 40
2.5
  1
       VERTICAL SPACING BETWEEN P & Q AND Q & R
  7
MONOTXT
 11
202.406667
 21
177.636333
 31
0.0
210
0.0
220
0.0
230
1.0
 73
     3
  0
TEXT
  8
1
  6
CONTINUOUS
 62
     7
  5
80A
 10
202.406667
 20
170.636333
 30
0.0
 40
2.5
  1
       PANELS SHALL BE ONE INCH (1").
  7
MONOTXT
 11
202.406667
 21
173.136333
 31
0.0
210
0.0
220
0.0
230
1.0
 73
     3
  0
TEXT
  8
1
  6
CONTINUOUS
 62
     7
  5
80B
 10
202.406667
 20
166.136333
 30
0.0
 40
2.5
  1
 
  7
MONOTXT
 11
202.406667
 21
168.636333
 31
0.0
210
0.0
220
0.0
230
1.0
 73
     3
  0
TEXT
  8
1
  6
CONTINUOUS
 62
     7
  5
80C
 10
202.406667
 20
161.636333
 30
0.0
 40
2.5
  1
       TYPE OF SUPPORT TO BE DETERMINED BY NUMBER
  7
MONOTXT
 11
202.406667
 21
164.136333
 31
0.0
210
0.0
220
0.0
230
1.0
 73
     3
  0
TEXT
  8
1
  6
CONTINUOUS
 62
     7
  5
80D
 10
202.406667
 20
157.136333
 30
0.0
 40
2.5
  1
       OF ROUTE MARKER SHIELDS
  7
MONOTXT
 11
202.406667
 21
159.636333
 31
0.0
210
0.0
220
0.0
230
1.0
 73
     3
  0
POLYLINE
  8
1
  6
CONTINUOUS
 62
     7
  5
80E
 66
     1
 10
0.0
 20
0.0
 30
0.0
  0
VERTEX
  8
1
  6
CONTINUOUS
 62
     7
  5
80F
 10
197.462583
 20
191.694417
 30
0.0
  0
VERTEX
  8
1
  6
CONTINUOUS
 62
     7
  5
810
 10
195.462583
 20
188.230333
 30
0.0
  0
VERTEX
  8
1
  6
CONTINUOUS
 62
     7
  5
811
 10
199.462583
 20
188.230333
 30
0.0
  0
VERTEX
  8
1
  6
CONTINUOUS
 62
     7
  5
812
 10
197.462583
 20
191.694417
 30
0.0
  0
SEQEND
  8
1
  6
CONTINUOUS
 62
     7
  5
813
  0
TEXT
  8
1
  6
CONTINUOUS
 62
     7
  5
814
 10
196.9665
 20
188.709333
 30
0.0
 40
1.5
  1
5
  7
MONOTXT
 72
     4
 11
197.468417
 21
189.459333
 31
0.0
210
0.0
220
0.0
230
1.0
  0
POLYLINE
  8
1
  6
CONTINUOUS
 62
     7
  5
815
 66
     1
 10
0.0
 20
0.0
 30
0.0
  0
VERTEX
  8
1
  6
CONTINUOUS
 62
     7
  5
816
 10
543.832667
 20
-197.319417
 30
0.0
  0
VERTEX
  8
1
  6
CONTINUOUS
 62
     7
  5
817
 10
541.832667
 20
-200.7835
 30
0.0
  0
VERTEX
  8
1
  6
CONTINUOUS
 62
     7
  5
818
 10
545.832667
 20
-200.7835
 30
0.0
  0
VERTEX
  8
1
  6
CONTINUOUS
 62
     7
  5
819
 10
543.832667
 20
-197.319417
 30
0.0
  0
SEQEND
  8
1
  6
CONTINUOUS
 62
     7
  5
81A
  0
TEXT
  8
1
  6
CONTINUOUS
 62
     7
  5
81B
 10
543.336583
 20
-200.3045
 30
0.0
 40
1.5
  1
5
  7
MONOTXT
 72
     4
 11
543.8385
 21
-199.5545
 31
0.0
210
0.0
220
0.0
230
1.0
  0
POLYLINE
  8
1
  6
CONTINUOUS
 62
     7
  5
81C
 66
     1
 10
0.0
 20
0.0
 30
0.0
  0
VERTEX
  8
1
  6
CONTINUOUS
 62
     7
  5
81D
 10
484.716833
 20
-180.947333
 30
0.0
  0
VERTEX
  8
1
  6
CONTINUOUS
 62
     7
  5
81E
 10
482.716833
 20
-184.411417
 30
0.0
  0
VERTEX
  8
1
  6
CONTINUOUS
 62
     7
  5
81F
 10
486.716833
 20
-184.411417
 30
0.0
  0
VERTEX
  8
1
  6
CONTINUOUS
 62
     7
  5
820
 10
484.716833
 20
-180.947333
 30
0.0
  0
SEQEND
  8
1
  6
CONTINUOUS
 62
     7
  5
821
  0
TEXT
  8
1
  6
CONTINUOUS
 62
     7
  5
822
 10
484.22075
 20
-183.932417
 30
0.0
 40
1.5
  1
5
  7
MONOTXT
 72
     4
 11
484.722667
 21
-183.182417
 31
0.0
210
0.0
220
0.0
230
1.0
  0
TEXT
  8
1
  6
CONTINUOUS
 62
     7
  5
823
 10
488.733167
 20
-156.294583
 30
0.0
 40
1.5
  1
NOTES, MAX. ON TYPE 5
  7
MONOTXT
 11
488.733167
 21
-154.794583
 31
0.0
210
0.0
220
0.0
230
1.0
 73
     3
  0
TEXT
  8
1
  6
CONTINUOUS
 62
     7
  5
824
 10
488.733167
 20
-158.794583
 30
0.0
 40
1.5
  1
 
  7
MONOTXT
 11
488.733167
 21
-157.294583
 31
0.0
210
0.0
220
0.0
230
1.0
 73
     3
  0
TEXT
  8
1
  6
CONTINUOUS
 62
     7
  5
825
 10
488.733167
 20
-161.294583
 30
0.0
 40
1.5
  1
DELETED SIGNATURE BLOCK
  7
MONOTXT
 11
488.733167
 21
-159.794583
 31
0.0
210
0.0
220
0.0
230
1.0
 73
     3
  0
TEXT
  8
1
  6
CONTINUOUS
 62
     7
  5
826
 10
488.733167
 20
-163.794583
 30
0.0
 40
1.5
  1
 
  7
MONOTXT
 11
488.733167
 21
-162.294583
 31
0.0
210
0.0
220
0.0
230
1.0
 73
     3
  0
TEXT
  8
1
  6
CONTINUOUS
 62
     7
  5
827
 10
488.733167
 20
-166.294583
 30
0.0
 40
1.5
  1
NOTES, MODIFIED BASE
  7
MONOTXT
 11
488.733167
 21
-164.794583
 31
0.0
210
0.0
220
0.0
230
1.0
 73
     3
  0
TEXT
  8
1
  6
CONTINUOUS
 62
     7
  5
828
 10
488.733167
 20
-168.794583
 30
0.0
 40
1.5
  1
CONNECTION DATA TABLE
  7
MONOTXT
 11
488.733167
 21
-167.294583
 31
0.0
210
0.0
220
0.0
230
1.0
 73
     3
  0
TEXT
  8
1
  6
CONTINUOUS
 62
     7
  5
829
 10
488.733167
 20
-171.294583
 30
0.0
 40
1.5
  1
 
  7
MONOTXT
 11
488.733167
 21
-169.794583
 31
0.0
210
0.0
220
0.0
230
1.0
 73
     3
  0
TEXT
  8
1
  6
CONTINUOUS
 62
     7
  5
82A
 10
488.733167
 20
-173.794583
 30
0.0
 40
1.5
  1
REVISED TORQUE NOTE, TYPE 5
  7
MONOTXT
 11
488.733167
 21
-172.294583
 31
0.0
210
0.0
220
0.0
230
1.0
 73
     3
  0
TEXT
  8
1
  6
CONTINUOUS
 62
     7
  5
82B
 10
488.733167
 20
-176.294583
 30
0.0
 40
1.5
  1
MAX. LOAD, TYPE 4 CROSS-ARMS,
  7
MONOTXT
 11
488.733167
 21
-174.794583
 31
0.0
210
0.0
220
0.0
230
1.0
 73
     3
  0
TEXT
  8
1
  6
CONTINUOUS
 62
     7
  5
82C
 10
488.733167
 20
-178.794583
 30
0.0
 40
1.5
  1
AND DESCRIPTION
  7
MONOTXT
 11
488.733167
 21
-177.294583
 31
0.0
210
0.0
220
0.0
230
1.0
 73
     3
  0
TEXT
  8
1
  6
CONTINUOUS
 62
     7
  5
82D
 10
488.733167
 20
-181.294583
 30
0.0
 40
1.5
  1
 
  7
MONOTXT
 11
488.733167
 21
-179.794583
 31
0.0
210
0.0
220
0.0
230
1.0
 73
     3
  0
TEXT
  8
1
  6
CONTINUOUS
 62
     7
  5
82E
 10
488.733167
 20
-183.794583
 30
0.0
 40
1.5
  1
ADDED 9' NOTE, KEEPER PLATE INFO.,
  7
MONOTXT
 11
488.733167
 21
-182.294583
 31
0.0
210
0.0
220
0.0
230
1.0
 73
     3
  0
TEXT
  8
1
  6
CONTINUOUS
 62
     7
  5
82F
 10
488.733167
 20
-186.294583
 30
0.0
 40
1.5
  1
REVISED H.S. BOLTS NOTES, TORQUE,
  7
MONOTXT
 11
488.733167
 21
-184.794583
 31
0.0
210
0.0
220
0.0
230
1.0
 73
     3
  0
TEXT
  8
1
  6
CONTINUOUS
 62
     7
  5
830
 10
488.733167
 20
-188.794583
 30
0.0
 40
1.5
  1
CAPS ASTM
  7
MONOTXT
 11
488.733167
 21
-187.294583
 31
0.0
210
0.0
220
0.0
230
1.0
 73
     3
  0
POLYLINE
  8
1
  6
CONTINUOUS
 62
     7
  5
831
 66
     1
 10
0.0
 20
0.0
 30
0.0
  0
VERTEX
  8
1
  6
CONTINUOUS
 62
     7
  5
832
 10
161.855917
 20
75.7035
 30
0.0
  0
VERTEX
  8
1
  6
CONTINUOUS
 62
     7
  5
833
 10
159.855917
 20
72.239417
 30
0.0
  0
VERTEX
  8
1
  6
CONTINUOUS
 62
     7
  5
834
 10
163.855917
 20
72.239417
 30
0.0
  0
VERTEX
  8
1
  6
CONTINUOUS
 62
     7
  5
835
 10
161.855917
 20
75.7035
 30
0.0
  0
SEQEND
  8
1
  6
CONTINUOUS
 62
     7
  5
836
  0
TEXT
  8
1
  6
CONTINUOUS
 62
     7
  5
837
 10
161.359833
 20
72.718417
 30
0.0
 40
1.5
  1
5
  7
MONOTXT
 72
     4
 11
161.86175
 21
73.468417
 31
0.0
210
0.0
220
0.0
230
1.0
  0
POLYLINE
  8
1
  6
CONTINUOUS
 62
     7
  5
838
 66
     1
 10
0.0
 20
0.0
 30
0.0
  0
VERTEX
  8
1
  6
CONTINUOUS
 62
     7
  5
839
 10
317.481333
 20
-98.4685
 30
0.0
  0
VERTEX
  8
1
  6
CONTINUOUS
 62
     7
  5
83A
 10
315.481333
 20
-101.932583
 30
0.0
  0
VERTEX
  8
1
  6
CONTINUOUS
 62
     7
  5
83B
 10
319.481333
 20
-101.932583
 30
0.0
  0
VERTEX
  8
1
  6
CONTINUOUS
 62
     7
  5
83C
 10
317.481333
 20
-98.4685
 30
0.0
  0
SEQEND
  8
1
  6
CONTINUOUS
 62
     7
  5
83D
  0
TEXT
  8
1
  6
CONTINUOUS
 62
     7
  5
83E
 10
316.98525
 20
-101.453583
 30
0.0
 40
1.5
  1
5
  7
MONOTXT
 72
     4
 11
317.487167
 21
-100.703583
 31
0.0
210
0.0
220
0.0
230
1.0
  0
POLYLINE
  8
1
  6
CONTINUOUS
 62
     7
  5
83F
 66
     1
 10
0.0
 20
0.0
 30
0.0
  0
VERTEX
  8
1
  6
CONTINUOUS
 62
     7
  5
840
 10
552.166583
 20
135.962917
 30
0.0
  0
VERTEX
  8
1
  6
CONTINUOUS
 62
     7
  5
841
 10
550.166583
 20
132.498833
 30
0.0
  0
VERTEX
  8
1
  6
CONTINUOUS
 62
     7
  5
842
 10
554.166583
 20
132.498833
 30
0.0
  0
VERTEX
  8
1
  6
CONTINUOUS
 62
     7
  5
843
 10
552.166583
 20
135.962917
 30
0.0
  0
SEQEND
  8
1
  6
CONTINUOUS
 62
     7
  5
844
  0
TEXT
  8
1
  6
CONTINUOUS
 62
     7
  5
845
 10
551.6705
 20
132.977833
 30
0.0
 40
1.5
  1
5
  7
MONOTXT
 72
     4
 11
552.172417
 21
133.727833
 31
0.0
210
0.0
220
0.0
230
1.0
  0
LINE
  8
1
  6
CONTINUOUS
 62
     7
  5
846
 10
126.47225
 20
105.345
 30
0.0
 11
156.793833
 21
105.288583
 31
0.0
  0
LINE
  8
1
  6
CONTINUOUS
 62
     7
  5
847
 10
154.793833
 20
105.288583
 30
0.0
 11
154.793833
 21
26.94375
 31
0.0
  0
TEXT
  8
1
  6
CONTINUOUS
 62
     7
  5
848
 10
156.02225
 20
66.249333
 30
0.0
 40
2.5
  1
9' MIN.
  7
MONOTXT
 72
     4
 11
161.406083
 21
67.499333
 31
0.0
210
0.0
220
0.0
230
1.0
  0
INSERT
  8
1
  6
CONTINUOUS
 62
     1
  5
849
  2
LDR
 10
154.793833
 20
105.288583
 30
0.0
 41
240.0
 42
240.0
 50
90.0
210
0.0
220
0.0
230
1.0
  0
INSERT
  8
1
  6
CONTINUOUS
 62
     1
  5
84A
  2
LDR
 10
154.793833
 20
105.288583
 30
0.0
 41
240.0
 42
240.0
 50
90.0
210
0.0
220
0.0
230
1.0
  0
INSERT
  8
1
  6
CONTINUOUS
 62
     1
  5
84B
  2
LDR
 10
154.793833
 20
26.94375
 30
0.0
 41
240.0
 42
240.0
 50
270.0
210
0.0
220
0.0
230
1.0
  0
TEXT
  8
1
  6
CONTINUOUS
 62
     7
  5
84C
 10
322.00725
 20
-104.015333
 30
0.0
 40
2.5
  1
GALV. STEEL 20 GA.
  7
MONOTXT
 72
     4
 11
341.682417
 21
-102.765333
 31
0.0
210
0.0
220
0.0
230
1.0
  0
TEXT
  8
1
  6
CONTINUOUS
 62
     7
  5
84D
 10
327.627333
 20
-108.015333
 30
0.0
 40
2.5
  1
KEEPER PLATE
  7
MONOTXT
 72
     4
 11
341.69225
 21
-106.765333
 31
0.0
210
0.0
220
0.0
230
1.0
  0
TEXT
  8
1
  6
CONTINUOUS
 62
     7
  5
84E
 10
558.69725
 20
162.931333
 30
0.0
 40
2.0
  1
GENERAL NOTES:
  7
MONOTXT
 11
558.69725
 21
164.931333
 31
0.0
210
0.0
220
0.0
230
1.0
 73
     3
  0
TEXT
  8
1
  6
CONTINUOUS
 62
     7
  5
84F
 10
558.69725
 20
159.431333
 30
0.0
 40
2.0
  1
 
  7
MONOTXT
 11
558.69725
 21
161.431333
 31
0.0
210
0.0
220
0.0
230
1.0
 73
     3
  0
TEXT
  8
1
  6
CONTINUOUS
 62
     7
  5
850
 10
558.69725
 20
155.931333
 30
0.0
 40
2.0
  1
PIPE SHALL CONFORM TO THE REQUIREMENTS OF ASTM A-53, TYPE E OR S, 
  7
MONOTXT
 11
558.69725
 21
157.931333
 31
0.0
210
0.0
220
0.0
230
1.0
 73
     3
  0
TEXT
  8
1
  6
CONTINUOUS
 62
     7
  5
851
 10
558.69725
 20
152.431333
 30
0.0
 40
2.0
  1
GRADE B. HYDROSTATIC TESTS ARE NOT REQUIRED.
  7
MONOTXT
 11
558.69725
 21
154.431333
 31
0.0
210
0.0
220
0.0
230
1.0
 73
     3
  0
TEXT
  8
1
  6
CONTINUOUS
 62
     7
  5
852
 10
558.69725
 20
148.931333
 30
0.0
 40
2.0
  1
 
  7
MONOTXT
 11
558.69725
 21
150.931333
 31
0.0
210
0.0
220
0.0
230
1.0
 73
     3
  0
TEXT
  8
1
  6
CONTINUOUS
 62
     7
  5
853
 10
558.69725
 20
145.431333
 30
0.0
 40
2.0
  1
PLATES FOR BASE CONNECTION SHALL CONFORM TO THE REQUIREMENTS OF
  7
MONOTXT
 11
558.69725
 21
147.431333
 31
0.0
210
0.0
220
0.0
230
1.0
 73
     3
  0
TEXT
  8
1
  6
CONTINUOUS
 62
     7
  5
854
 10
558.69725
 20
141.931333
 30
0.0
 40
2.0
  1
ASTM A-36.
  7
MONOTXT
 11
558.69725
 21
143.931333
 31
0.0
210
0.0
220
0.0
230
1.0
 73
     3
  0
TEXT
  8
1
  6
CONTINUOUS
 62
     7
  5
855
 10
558.69725
 20
138.431333
 30
0.0
 40
2.0
  1
 
  7
MONOTXT
 11
558.69725
 21
140.431333
 31
0.0
210
0.0
220
0.0
230
1.0
 73
     3
  0
TEXT
  8
1
  6
CONTINUOUS
 62
     7
  5
856
 10
558.69725
 20
134.931333
 30
0.0
 40
2.0
  1
ALL HIGH STRENGTH BOLTS, SHALL CONFORM TO THE REQUIREMENTS OF
  7
MONOTXT
 11
558.69725
 21
136.931333
 31
0.0
210
0.0
220
0.0
230
1.0
 73
     3
  0
TEXT
  8
1
  6
CONTINUOUS
 62
     7
  5
857
 10
558.69725
 20
131.431333
 30
0.0
 40
2.0
  1
ASTM A325. NUTS AND WASHERS SHALL BE AS RECOMMENDED IN ASTM A325.
  7
MONOTXT
 11
558.69725
 21
133.431333
 31
0.0
210
0.0
220
0.0
230
1.0
 73
     3
  0
TEXT
  8
1
  6
CONTINUOUS
 62
     7
  5
858
 10
558.69725
 20
127.931333
 30
0.0
 40
2.0
  1
 
  7
MONOTXT
 11
558.69725
 21
129.931333
 31
0.0
210
0.0
220
0.0
230
1.0
 73
     3
  0
TEXT
  8
1
  6
CONTINUOUS
 62
     7
  5
859
 10
558.69725
 20
124.431333
 30
0.0
 40
2.0
  1
ALL SHAPES AND PLATES SHALL BE GALVANIZED PER ASTM A123. ALL BOLTS,
  7
MONOTXT
 11
558.69725
 21
126.431333
 31
0.0
210
0.0
220
0.0
230
1.0
 73
     3
  0
TEXT
  8
1
  6
CONTINUOUS
 62
     7
  5
85A
 10
558.69725
 20
120.931333
 30
0.0
 40
2.0
  1
NUTS, AND WASHERS SHALL BE GALVANIZED PER ASTM 153.
  7
MONOTXT
 11
558.69725
 21
122.931333
 31
0.0
210
0.0
220
0.0
230
1.0
 73
     3
  0
TEXT
  8
1
  6
CONTINUOUS
 62
     7
  5
85B
 10
558.69725
 20
117.431333
 30
0.0
 40
2.0
  1
 
  7
MONOTXT
 11
558.69725
 21
119.431333
 31
0.0
210
0.0
220
0.0
230
1.0
 73
     3
  0
TEXT
  8
1
  6
CONTINUOUS
 62
     7
  5
85C
 10
558.69725
 20
113.931333
 30
0.0
 40
2.0
  1
SHIMS SHALL BE FABRICATED FROM BRASS SHIM STOCK OR STRIP CONFORMING
  7
MONOTXT
 11
558.69725
 21
115.931333
 31
0.0
210
0.0
220
0.0
230
1.0
 73
     3
  0
TEXT
  8
1
  6
CONTINUOUS
 62
     7
  5
85D
 10
558.69725
 20
110.431333
 30
0.0
 40
2.0
  1
TO THE REQUIREMENTS OF ASTM B-36. FURNISH 2 .012"  THICK AND 2 .032" 
  7
MONOTXT
 11
558.69725
 21
112.431333
 31
0.0
210
0.0
220
0.0
230
1.0
 73
     3
  0
TEXT
  8
1
  6
CONTINUOUS
 62
     7
  5
85E
 10
558.69725
 20
106.931333
 30
0.0
 40
2.0
  1
THICK SHIMS PER POST.
  7
MONOTXT
 11
558.69725
 21
108.931333
 31
0.0
210
0.0
220
0.0
230
1.0
 73
     3
  0
TEXT
  8
1
  6
CONTINUOUS
 62
     7
  5
85F
 10
558.69725
 20
103.431333
 30
0.0
 40
2.0
  1
 
  7
MONOTXT
 11
558.69725
 21
105.431333
 31
0.0
210
0.0
220
0.0
230
1.0
 73
     3
  0
TEXT
  8
1
  6
CONTINUOUS
 62
     7
  5
860
 10
558.69725
 20
99.931333
 30
0.0
 40
2.0
  1
BASE CONNECTION
  7
MONOTXT
 11
558.69725
 21
101.931333
 31
0.0
210
0.0
220
0.0
230
1.0
 73
     3
  0
TEXT
  8
1
  6
CONTINUOUS
 62
     7
  5
861
 10
558.69725
 20
96.431333
 30
0.0
 40
2.0
  1
 
  7
MONOTXT
 11
558.69725
 21
98.431333
 31
0.0
210
0.0
220
0.0
230
1.0
 73
     3
  0
TEXT
  8
1
  6
CONTINUOUS
 62
     7
  5
862
 10
558.69725
 20
92.931333
 30
0.0
 40
2.0
  1
TIGHTEN THE HIGH STRENGTH BOLTS IN THE BASE CONNECTION TO THE
  7
MONOTXT
 11
558.69725
 21
94.931333
 31
0.0
210
0.0
220
0.0
230
1.0
 73
     3
  0
TEXT
  8
1
  6
CONTINUOUS
 62
     7
  5
863
 10
558.69725
 20
89.431333
 30
0.0
 40
2.0
  1
TORQUES AS FOLLOWS:
  7
MONOTXT
 11
558.69725
 21
91.431333
 31
0.0
210
0.0
220
0.0
230
1.0
 73
     3
  0
TEXT
  8
1
  6
CONTINUOUS
 62
     7
  5
864
 10
558.69725
 20
85.931333
 30
0.0
 40
2.0
  1
 
  7
MONOTXT
 11
558.69725
 21
87.931333
 31
0.0
210
0.0
220
0.0
230
1.0
 73
     3
  0
TEXT
  8
1
  6
CONTINUOUS
 62
     7
  5
865
 10
558.69725
 20
82.431333
 30
0.0
 40
2.0
  1
 1/2 " DIAMETER, TORQUE 8 TO 11 FT-LBS.
  7
MONOTXT
 11
558.69725
 21
84.431333
 31
0.0
210
0.0
220
0.0
230
1.0
 73
     3
  0
TEXT
  8
1
  6
CONTINUOUS
 62
     7
  5
866
 10
558.69725
 20
78.931333
 30
0.0
 40
2.0
  1
 5/8 " DIAMETER, TORQUE 19 TO 28 FT-LBS.
  7
MONOTXT
 11
558.69725
 21
80.931333
 31
0.0
210
0.0
220
0.0
230
1.0
 73
     3
  0
TEXT
  8
1
  6
CONTINUOUS
 62
     7
  5
867
 10
558.69725
 20
75.431333
 30
0.0
 40
2.0
  1
 
  7
MONOTXT
 11
558.69725
 21
77.431333
 31
0.0
210
0.0
220
0.0
230
1.0
 73
     3
  0
TEXT
  8
1
  6
CONTINUOUS
 62
     7
  5
868
 10
558.69725
 20
71.931333
 30
0.0
 40
2.0
  1
DO NOT OVERTIGHTEN
  7
MONOTXT
 11
558.69725
 21
73.931333
 31
0.0
210
0.0
220
0.0
230
1.0
 73
     3
  0
TEXT
  8
1
  6
CONTINUOUS
 62
     7
  5
869
 10
558.69725
 20
68.431333
 30
0.0
 40
2.0
  1
 
  7
MONOTXT
 11
558.69725
 21
70.431333
 31
0.0
210
0.0
220
0.0
230
1.0
 73
     3
  0
TEXT
  8
1
  6
CONTINUOUS
 62
     7
  5
86A
 10
558.69725
 20
64.931333
 30
0.0
 40
2.0
  1
FRICTION CAPS
  7
MONOTXT
 11
558.69725
 21
66.931333
 31
0.0
210
0.0
220
0.0
230
1.0
 73
     3
  0
TEXT
  8
1
  6
CONTINUOUS
 62
     7
  5
86B
 10
558.69725
 20
61.431333
 30
0.0
 40
2.0
  1
 
  7
MONOTXT
 11
558.69725
 21
63.431333
 31
0.0
210
0.0
220
0.0
230
1.0
 73
     3
  0
TEXT
  8
1
  6
CONTINUOUS
 62
     7
  5
86C
 10
558.69725
 20
57.931333
 30
0.0
 40
2.0
  1
CAPS MAY BE FABRICATED FROM EITHER HOT ROLLED OR COLD ROLLED
  7
MONOTXT
 11
558.69725
 21
59.931333
 31
0.0
210
0.0
220
0.0
230
1.0
 73
     3
  0
TEXT
  8
1
  6
CONTINUOUS
 62
     7
  5
86D
 10
558.69725
 20
54.431333
 30
0.0
 40
2.0
  1
STEEL SHEETS. FOR PIPE SIZES 3" AND SMALLER THE MINIMUM SHEET METAL
  7
MONOTXT
 11
558.69725
 21
56.431333
 31
0.0
210
0.0
220
0.0
230
1.0
 73
     3
  0
TEXT
  8
1
  6
CONTINUOUS
 62
     7
  5
86E
 10
558.69725
 20
50.931333
 30
0.0
 40
2.0
  1
THICKNESS SHALL BE 24 GAUGE.
  7
MONOTXT
 11
558.69725
 21
52.931333
 31
0.0
210
0.0
220
0.0
230
1.0
 73
     3
  0
TEXT
  8
1
  6
CONTINUOUS
 62
     7
  5
86F
 10
558.69725
 20
47.431333
 30
0.0
 40
2.0
  1
 
  7
MONOTXT
 11
558.69725
 21
49.431333
 31
0.0
210
0.0
220
0.0
230
1.0
 73
     3
  0
TEXT
  8
1
  6
CONTINUOUS
 62
     7
  5
870
 10
558.69725
 20
43.931333
 30
0.0
 40
2.0
  1
THE RIM EDGES SHALL BE REASONABLY STRAIGHT AND SMOOTH.
  7
MONOTXT
 11
558.69725
 21
45.931333
 31
0.0
210
0.0
220
0.0
230
1.0
 73
     3
  0
TEXT
  8
1
  6
CONTINUOUS
 62
     7
  5
871
 10
558.69725
 20
40.431333
 30
0.0
 40
2.0
  1
 
  7
MONOTXT
 11
558.69725
 21
42.431333
 31
0.0
210
0.0
220
0.0
230
1.0
 73
     3
  0
TEXT
  8
1
  6
CONTINUOUS
 62
     7
  5
872
 10
558.69725
 20
36.931333
 30
0.0
 40
2.0
  1
CAPS SHALL BE SIZED AND FORMED IN SUCH A MANNER AS TO PRODUCE A
  7
MONOTXT
 11
558.69725
 21
38.931333
 31
0.0
210
0.0
220
0.0
230
1.0
 73
     3
  0
TEXT
  8
1
  6
CONTINUOUS
 62
     7
  5
873
 10
558.69725
 20
33.431333
 30
0.0
 40
2.0
  1
DRIVE-ON FRICTION FITAND HAVE NO TENDENCY TO ROCK WHEN SEATED ON
  7
MONOTXT
 11
558.69725
 21
35.431333
 31
0.0
210
0.0
220
0.0
230
1.0
 73
     3
  0
TEXT
  8
1
  6
CONTINUOUS
 62
     7
  5
874
 10
558.69725
 20
29.931333
 30
0.0
 40
2.0
  1
THE PIPE. THE DEPTH SHALL BE SUFFICIENT TO GIVE POSITIVE PROTECTION
  7
MONOTXT
 11
558.69725
 21
31.931333
 31
0.0
210
0.0
220
0.0
230
1.0
 73
     3
  0
TEXT
  8
1
  6
CONTINUOUS
 62
     7
  5
875
 10
558.69725
 20
26.431333
 30
0.0
 40
2.0
  1
AGAINST THE ENTRANCE OF RAINWATER. THEY SHALL BE FREE OF SHARP
  7
MONOTXT
 11
558.69725
 21
28.431333
 31
0.0
210
0.0
220
0.0
230
1.0
 73
     3
  0
TEXT
  8
1
  6
CONTINUOUS
 62
     7
  5
876
 10
558.69725
 20
22.931333
 30
0.0
 40
2.0
  1
CREASES OR INDENTATIONS AND SHOW NO EVIDENCE OF METAL FAILURE.
  7
MONOTXT
 11
558.69725
 21
24.931333
 31
0.0
210
0.0
220
0.0
230
1.0
 73
     3
  0
TEXT
  8
1
  6
CONTINUOUS
 62
     7
  5
877
 10
558.69725
 20
19.431333
 30
0.0
 40
2.0
  1
 
  7
MONOTXT
 11
558.69725
 21
21.431333
 31
0.0
210
0.0
220
0.0
230
1.0
 73
     3
  0
TEXT
  8
1
  6
CONTINUOUS
 62
     7
  5
878
 10
558.69725
 20
15.931333
 30
0.0
 40
2.0
  1
CAPS SHALL HAVE AN ELECTRODEPOSITED COATING OF ZINC IN ACCORDANCE
  7
MONOTXT
 11
558.69725
 21
17.931333
 31
0.0
210
0.0
220
0.0
230
1.0
 73
     3
  0
TEXT
  8
1
  6
CONTINUOUS
 62
     7
  5
879
 10
558.69725
 20
12.431333
 30
0.0
 40
2.0
  1
WITH THE REQUIREMENTS OF ASTM B 633, CLASS 12..
  7
MONOTXT
 11
558.69725
 21
14.431333
 31
0.0
210
0.0
220
0.0
230
1.0
 73
     3
  0
TEXT
  8
1
  6
CONTINUOUS
 62
     7
  5
87A
 10
558.69725
 20
8.931333
 30
0.0
 40
2.0
  1
 
  7
MONOTXT
 11
558.69725
 21
10.931333
 31
0.0
210
0.0
220
0.0
230
1.0
 73
     3
  0
TEXT
  8
1
  6
CONTINUOUS
 62
     7
  5
87B
 10
558.69725
 20
5.431333
 30
0.0
 40
2.0
  1
FOOTINGS
  7
MONOTXT
 11
558.69725
 21
7.431333
 31
0.0
210
0.0
220
0.0
230
1.0
 73
     3
  0
TEXT
  8
1
  6
CONTINUOUS
 62
     7
  5
87C
 10
558.69725
 20
1.931333
 30
0.0
 40
2.0
  1
 
  7
MONOTXT
 11
558.69725
 21
3.931333
 31
0.0
210
0.0
220
0.0
230
1.0
 73
     3
  0
TEXT
  8
1
  6
CONTINUOUS
 62
     7
  5
87D
 10
558.69725
 20
-1.568667
 30
0.0
 40
2.0
  1
ALL FOOTINGS SHALL BE CONCRETE IN ACCORDANCE WITH SECTION 657 AND
  7
MONOTXT
 11
558.69725
 21
0.431333
 31
0.0
210
0.0
220
0.0
230
1.0
 73
     3
  0
TEXT
  8
1
  6
CONTINUOUS
 62
     7
  5
87E
 10
558.69725
 20
-5.068667
 30
0.0
 40
2.0
  1
ARTICLE 657.5.1 OF THE SPECIFICATIONS.
  7
MONOTXT
 11
558.69725
 21
-3.068667
 31
0.0
210
0.0
220
0.0
230
1.0
 73
     3
  0
TEXT
  8
1
  6
CONTINUOUS
 62
     7
  5
87F
 10
558.69725
 20
-8.568667
 30
0.0
 40
2.0
  1
 
  7
MONOTXT
 11
558.69725
 21
-6.568667
 31
0.0
210
0.0
220
0.0
230
1.0
 73
     3
  0
TEXT
  8
1
  6
CONTINUOUS
 62
     7
  5
880
 10
558.69725
 20
-12.068667
 30
0.0
 40
2.0
  1
PROCEDURE FOR ASSEMBLY OF BASE CONNECTION
  7
MONOTXT
 11
558.69725
 21
-10.068667
 31
0.0
210
0.0
220
0.0
230
1.0
 73
     3
  0
TEXT
  8
1
  6
CONTINUOUS
 62
     7
  5
881
 10
558.69725
 20
-15.568667
 30
0.0
 40
2.0
  1
 
  7
MONOTXT
 11
558.69725
 21
-13.568667
 31
0.0
210
0.0
220
0.0
230
1.0
 73
     3
  0
TEXT
  8
1
  6
CONTINUOUS
 62
     7
  5
882
 10
558.69725
 20
-19.068667
 30
0.0
 40
2.0
  1
1.  ASSEMBLY POST TO STUB WITH BOLTS AND ONE FLAT WASHER ON EACH
  7
MONOTXT
 11
558.69725
 21
-17.068667
 31
0.0
210
0.0
220
0.0
230
1.0
 73
     3
  0
TEXT
  8
1
  6
CONTINUOUS
 62
     7
  5
883
 10
558.69725
 20
-22.568667
 30
0.0
 40
2.0
  1
  BOLT BETWEEN PLATES.
  7
MONOTXT
 11
558.69725
 21
-20.568667
 31
0.0
210
0.0
220
0.0
230
1.0
 73
     3
  0
TEXT
  8
1
  6
CONTINUOUS
 62
     7
  5
884
 10
558.69725
 20
-26.068667
 30
0.0
 40
2.0
  1
 
  7
MONOTXT
 11
558.69725
 21
-24.068667
 31
0.0
210
0.0
220
0.0
230
1.0
 73
     3
  0
TEXT
  8
1
  6
CONTINUOUS
 62
     7
  5
885
 10
558.69725
 20
-29.568667
 30
0.0
 40
2.0
  1
2.  SHIM AS REQUIRED TO PLUMB POST.
  7
MONOTXT
 11
558.69725
 21
-27.568667
 31
0.0
210
0.0
220
0.0
230
1.0
 73
     3
  0
TEXT
  8
1
  6
CONTINUOUS
 62
     7
  5
886
 10
558.69725
 20
-33.068667
 30
0.0
 40
2.0
  1
 
  7
MONOTXT
 11
558.69725
 21
-31.068667
 31
0.0
210
0.0
220
0.0
230
1.0
 73
     3
  0
TEXT
  8
1
  6
CONTINUOUS
 62
     7
  5
887
 10
558.69725
 20
-36.568667
 30
0.0
 40
2.0
  1
3.  BASE PLATE BOLTS ARE TO BE TORQUED (TENSIONED) USING THE CALIBRATED
  7
MONOTXT
 11
558.69725
 21
-34.568667
 31
0.0
210
0.0
220
0.0
230
1.0
 73
     3
  0
TEXT
  8
1
  6
CONTINUOUS
 62
     7
  5
888
 10
558.69725
 20
-40.068667
 30
0.0
 40
2.0
  1
   WRENCH PROCEDURE OF THE A.I.S.C. SPECIFICATIONS FOR STRUCTURAL CONNECTIONS.
  7
MONOTXT
 11
558.69725
 21
-38.068667
 31
0.0
210
0.0
220
0.0
230
1.0
 73
     3
  0
POLYLINE
  8
1
  6
CONTINUOUS
 62
     7
  5
889
 66
     1
 10
0.0
 20
0.0
 30
0.0
  0
VERTEX
  8
1
  6
CONTINUOUS
 62
     7
  5
88A
 10
552.451083
 20
84.167917
 30
0.0
  0
VERTEX
  8
1
  6
CONTINUOUS
 62
     7
  5
88B
 10
550.451083
 20
80.703833
 30
0.0
  0
VERTEX
  8
1
  6
CONTINUOUS
 62
     7
  5
88C
 10
554.451083
 20
80.703833
 30
0.0
  0
VERTEX
  8
1
  6
CONTINUOUS
 62
     7
  5
88D
 10
552.451083
 20
84.167917
 30
0.0
  0
SEQEND
  8
1
  6
CONTINUOUS
 62
     7
  5
88E
  0
TEXT
  8
1
  6
CONTINUOUS
 62
     7
  5
88F
 10
551.955
 20
81.182833
 30
0.0
 40
1.5
  1
5
  7
MONOTXT
 72
     4
 11
552.456917
 21
81.932833
 31
0.0
210
0.0
220
0.0
230
1.0
  0
POLYLINE
  8
1
  6
CONTINUOUS
 62
     7
  5
890
 66
     1
 10
0.0
 20
0.0
 30
0.0
  0
VERTEX
  8
1
  6
CONTINUOUS
 62
     7
  5
891
 10
552.166583
 20
18.1435
 30
0.0
  0
VERTEX
  8
1
  6
CONTINUOUS
 62
     7
  5
892
 10
550.166583
 20
14.679417
 30
0.0
  0
VERTEX
  8
1
  6
CONTINUOUS
 62
     7
  5
893
 10
554.166583
 20
14.679417
 30
0.0
  0
VERTEX
  8
1
  6
CONTINUOUS
 62
     7
  5
894
 10
552.166583
 20
18.1435
 30
0.0
  0
SEQEND
  8
1
  6
CONTINUOUS
 62
     7
  5
895
  0
TEXT
  8
1
  6
CONTINUOUS
 62
     7
  5
896
 10
551.6705
 20
15.158417
 30
0.0
 40
1.5
  1
5
  7
MONOTXT
 72
     4
 11
552.172417
 21
15.908417
 31
0.0
210
0.0
220
0.0
230
1.0
  0
TEXT
  8
1
  6
CONTINUOUS
 62
     7
  5
897
 10
432.1145
 20
122.986917
 30
0.0
 40
2.5
  1
KEEPER PLATE SHALL BE FABRICATED FROM 28
  7
MONOTXT
 11
432.1145
 21
125.486917
 31
0.0
210
0.0
220
0.0
230
1.0
 73
     3
  0
TEXT
  8
1
  6
CONTINUOUS
 62
     7
  5
898
 10
432.1145
 20
118.486917
 30
0.0
 40
2.5
  1
GUAGE COMMERCIAL GRADE SHEET STEEL (GALV.).
  7
MONOTXT
 11
432.1145
 21
120.986917
 31
0.0
210
0.0
220
0.0
230
1.0
 73
     3
  0
ENDSEC
  0
EOF
