  0
SECTION
  2
HEADER
  9
$ACADVER
  1
AC1009
  9
$INSBASE
 10
0.0
 20
0.0
 30
0.0
  9
$EXTMIN
 10
-1.753417
 20
-0.738583
 30
0.0
  9
$EXTMAX
 10
678.326583
 20
439.301417
 30
0.0
  9
$LIMMIN
 10
0.0
 20
0.0
  9
$LIMMAX
 10
12.0
 20
9.0
  9
$ORTHOMODE
 70
     0
  9
$REGENMODE
 70
     1
  9
$FILLMODE
 70
     1
  9
$QTEXTMODE
 70
     0
  9
$MIRRTEXT
 70
     1
  9
$DRAGMODE
 70
     2
  9
$LTSCALE
 40
1.0
  9
$OSMODE
 70
     0
  9
$ATTMODE
 70
     1
  9
$TEXTSIZE
 40
0.2
  9
$TRACEWID
 40
0.05
  9
$TEXTSTYLE
  7
STANDARD
  9
$CLAYER
  8
0
  9
$CELTYPE
  6
CONTINUOUS
  9
$CECOLOR
 62
   256
  9
$DIMSCALE
 40
1.0
  9
$DIMASZ
 40
0.18
  9
$DIMEXO
 40
0.0625
  9
$DIMDLI
 40
0.38
  9
$DIMRND
 40
0.0
  9
$DIMDLE
 40
0.0
  9
$DIMEXE
 40
0.18
  9
$DIMTP
 40
0.0
  9
$DIMTM
 40
0.0
  9
$DIMTXT
 40
0.18
  9
$DIMCEN
 40
0.09
  9
$DIMTSZ
 40
0.0
  9
$DIMTOL
 70
     0
  9
$DIMLIM
 70
     0
  9
$DIMTIH
 70
     1
  9
$DIMTOH
 70
     1
  9
$DIMSE1
 70
     0
  9
$DIMSE2
 70
     0
  9
$DIMTAD
 70
     0
  9
$DIMZIN
 70
     0
  9
$DIMBLK
  1

  9
$DIMASO
 70
     1
  9
$DIMSHO
 70
     1
  9
$DIMPOST
  1

  9
$DIMAPOST
  1

  9
$DIMALT
 70
     0
  9
$DIMALTD
 70
     2
  9
$DIMALTF
 40
25.4
  9
$DIMLFAC
 40
1.0
  9
$DIMTOFL
 70
     0
  9
$DIMTVP
 40
0.0
  9
$DIMTIX
 70
     0
  9
$DIMSOXD
 70
     0
  9
$DIMSAH
 70
     0
  9
$DIMBLK1
  1

  9
$DIMBLK2
  1

  9
$DIMSTYLE
  2
STANDARD
  9
$DIMCLRD
 70
     0
  9
$DIMCLRE
 70
     0
  9
$DIMCLRT
 70
     0
  9
$DIMTFAC
 40
1.0
  9
$DIMGAP
 40
0.09
  9
$LUNITS
 70
     2
  9
$LUPREC
 70
     4
  9
$AXISMODE
 70
     0
  9
$AXISUNIT
 10
0.0
 20
0.0
  9
$SKETCHINC
 40
0.1
  9
$FILLETRAD
 40
0.0
  9
$AUNITS
 70
     0
  9
$AUPREC
 70
     0
  9
$MENU
  1
acad
  9
$ELEVATION
 40
0.0
  9
$PELEVATION
 40
0.0
  9
$THICKNESS
 40
0.0
  9
$LIMCHECK
 70
     0
  9
$BLIPMODE
 70
     1
  9
$CHAMFERA
 40
0.0
  9
$CHAMFERB
 40
0.0
  9
$SKPOLY
 70
     0
  9
$TDCREATE
 40
2451803.394918982
  9
$TDUPDATE
 40
2451803.394918982
  9
$TDINDWG
 40
0.0000000000
  9
$TDUSRTIMER
 40
0.0000000000
  9
$USRTIMER
 70
     1
  9
$ANGBASE
 50
0.0
  9
$ANGDIR
 70
     0
  9
$PDMODE
 70
     0
  9
$PDSIZE
 40
0.0
  9
$PLINEWID
 40
0.0
  9
$COORDS
 70
     0
  9
$SPLFRAME
 70
     0
  9
$SPLINETYPE
 70
     6
  9
$SPLINESEGS
 70
    10
  9
$ATTDIA
 70
     0
  9
$ATTREQ
 70
     1
  9
$HANDLING
 70
     1
  9
$HANDSEED
  5
603
  9
$SURFTAB1
 70
     6
  9
$SURFTAB2
 70
     6
  9
$SURFTYPE
 70
     6
  9
$SURFU
 70
     6
  9
$SURFV
 70
     6
  9
$UCSNAME
  2

  9
$UCSORG
 10
0.0
 20
0.0
 30
0.0
  9
$UCSXDIR
 10
1.0
 20
0.0
 30
0.0
  9
$UCSYDIR
 10
0.0
 20
1.0
 30
0.0
  9
$PUCSNAME
  2

  9
$PUCSORG
 10
0.0
 20
0.0
 30
0.0
  9
$PUCSXDIR
 10
1.0
 20
0.0
 30
0.0
  9
$PUCSYDIR
 10
0.0
 20
1.0
 30
0.0
  9
$USERI1
 70
     0
  9
$USERI2
 70
     0
  9
$USERI3
 70
     0
  9
$USERI4
 70
     0
  9
$USERI5
 70
     0
  9
$USERR1
 40
0.0
  9
$USERR2
 40
0.0
  9
$USERR3
 40
0.0
  9
$USERR4
 40
0.0
  9
$USERR5
 40
0.0
  9
$WORLDVIEW
 70
     1
  9
$SHADEDGE
 70
     3
  9
$SHADEDIF
 70
    70
  9
$TILEMODE
 70
     1
  9
$MAXACTVP
 70
    16
  9
$PINSBASE
 10
0.0
 20
0.0
 30
0.0
  9
$PLIMCHECK
 70
     0
  9
$PEXTMIN
 10
-1.000000E+20
 20
-1.000000E+20
 30
-1.000000E+20
  9
$PEXTMAX
 10
-1.000000E+20
 20
-1.000000E+20
 30
-1.000000E+20
  9
$PLIMMIN
 10
0.0
 20
0.0
  9
$PLIMMAX
 10
12.0
 20
9.0
  9
$UNITMODE
 70
     0
  9
$VISRETAIN
 70
     0
  9
$PLINEGEN
 70
     1
  9
$PSLTSCALE
 70
     0
  9
$TREEDEPTH
 70
  3020
  9
$DWGCODEPAGE
  3
ansi_1252
  0
ENDSEC
  0
SECTION
  2
TABLES
  0
TABLE
  2
VPORT
 70
     1
  0
VPORT
  2
*ACTIVE
 70
     0
 10
0.0
 20
0.0
 11
1.0
 21
1.0
 12
0.0
 22
0.0
 13
0.0
 23
0.0
 14
0.0
 24
0.0
 15
0.0
 25
0.0
 16
0.0
 26
0.0
 36
1.0
 17
292.522883
 27
219.281417
 37
0.0
 40
451.041
 41
1.795122
 42
50.0
 43
0.0
 44
0.0
 50
0.0
 51
0.0
 71
     0
 72
   100
 73
     1
 74
     0
 75
     0
 76
     0
 77
     0
 78
     0
  0
ENDTAB
  0
TABLE
  2
LTYPE
 70
     7
  0
LTYPE
  2
CONTINUOUS
 70
     0
  3
Solid line
 72
    65
 73
     0
 40
0.0
  0
LTYPE
  2
DOT
 70
    64
  3
. . . . . . . . . . . . . . . . . . . . . . . . . . . . . . . . .
 72
    65
 73
     2
 40
0.25
 49
0.0
 49
-0.25
  0
LTYPE
  2
HIDDEN
 70
    64
  3
__ __ __ __ __ __ __ __ __ __ __ __ __ __ __ __ __ __ __ __ __ 
 72
    65
 73
     2
 40
0.375
 49
0.25
 49
-0.125
  0
LTYPE
  2
DASHED
 70
    64
  3
__ __ __ __ __ __ __ __ __ __ __ __ __ __ __ __ __ __ __ __ __
 72
    65
 73
     2
 40
0.75
 49
0.5
 49
-0.25
  0
LTYPE
  2
DASHDOT
 70
    64
  3
__ . __ . __ . __ . __ . __ . __ . __ . __ . __ . __ . __ . _
 72
    65
 73
     4
 40
1.0
 49
0.5
 49
-0.25
 49
0.0
 49
-0.25
  0
LTYPE
  2
DIVIDE
 70
    64
  3
____ . . ____ . . ____ . . ____ . . ____ . . ____ . . ____ . .
 72
    65
 73
     6
 40
1.25
 49
0.5
 49
-0.25
 49
0.0
 49
-0.25
 49
0.0
 49
-0.25
  0
LTYPE
  2
CENTER
 70
    64
  3
____ _ ____ _ ____ _ ____ _ ____ _ ____ _ ____ _ ____ _ ____ _
 72
    65
 73
     4
 40
2.0
 49
1.25
 49
-0.25
 49
0.25
 49
-0.25
  0
ENDTAB
  0
TABLE
  2
LAYER
 70
     5
  0
LAYER
  2
0
 70
     0
 62
     7
  6
CONTINUOUS
  0
LAYER
  2
CONSTRUCTION_CLASS
 70
     0
 62
     7
  6
CONTINUOUS
  0
LAYER
  2
PATTERN_CLASS
 70
     0
 62
     7
  6
CONTINUOUS
  0
LAYER
  2
61
 70
    64
 62
     7
  6
CONTINUOUS
  0
LAYER
  2
1
 70
    64
 62
     7
  6
CONTINUOUS
  0
ENDTAB
  0
TABLE
  2
STYLE
 70
     4
  0
STYLE
  2
STANDARD
 70
     0
 40
0.0
 41
1.0
 50
0.0
 71
     0
 42
0.0
  3
txt
  4

  0
STYLE
  2
MONOTXT
 70
     0
 40
0.2
 41
1.0
 50
0.0
 71
     0
 42
0.2
  3
MONOTXT
  4

  0
STYLE
  2
txt
 70
     0
 40
0.2
 41
1.0
 50
0.0
 71
     0
 42
0.2
  3
TXT
  4

  0
STYLE
  2
ROMANT
 70
     0
 40
0.2
 41
1.0
 50
0.0
 71
     0
 42
0.2
  3
ROMANT
  4

  0
ENDTAB
  0
TABLE
  2
VIEW
 70
     0
  0
ENDTAB
  0
TABLE
  2
UCS
 70
     0
  0
ENDTAB
  0
TABLE
  2
APPID
 70
     1
  0
APPID
  2
ACAD
 70
     0
  0
ENDTAB
  0
TABLE
  2
DIMSTYLE
 70
     1
  0
DIMSTYLE
  2
STANDARD
 70
     0
  3

  4

  5

  6

  7

 40
1.0
 41
0.18
 42
0.0625
 43
0.38
 44
0.18
 45
0.0
 46
0.0
 47
0.0
 48
0.0
140
0.18
141
0.09
142
0.0
143
25.4
144
1.0
145
0.0
146
1.0
147
0.09
 71
     0
 72
     0
 73
     1
 74
     1
 75
     0
 76
     0
 77
     0
 78
     0
170
     0
171
     2
172
     0
173
     0
174
     0
175
     0
176
     0
177
     0
178
     0
  0
ENDTAB
  0
ENDSEC
  0
SECTION
  2
BLOCKS
  0
BLOCK
  8
1
  6
CONTINUOUS
 62
     1
  5
24D
  2
LDR
 70
     0
 10
0.0
 20
0.0
 30
0.0
  3
LNR
  0
POLYLINE
  8
1
  6
CONTINUOUS
 62
     1
  5
24E
 66
     1
 10
0.0
 20
0.0
 30
0.0
210
0.0
220
0.0
230
1.0
  0
VERTEX
  8
1
  6
CONTINUOUS
 62
     1
  5
24F
 10
-0.011987
 20
-0.001802
 30
0.0
 42
-0.265147
  0
VERTEX
  8
1
  6
CONTINUOUS
 62
     1
  5
250
 10
-0.011849
 20
-0.001604
 30
0.0
 42
-0.064653
  0
VERTEX
  8
1
  6
CONTINUOUS
 62
     1
  5
251
 10
-0.011407
 20
-0.001387
 30
0.0
 42
-0.025822
  0
VERTEX
  8
1
  6
CONTINUOUS
 62
     1
  5
252
 10
-0.010681
 20
-0.00116
 30
0.0
 42
-0.014504
  0
VERTEX
  8
1
  6
CONTINUOUS
 62
     1
  5
253
 10
-0.0097
 20
-0.000933
 30
0.0
 42
-0.009896
  0
VERTEX
  8
1
  6
CONTINUOUS
 62
     1
  5
254
 10
-0.008505
 20
-0.000715
 30
0.0
 42
-0.007708
  0
VERTEX
  8
1
  6
CONTINUOUS
 62
     1
  5
255
 10
-0.007146
 20
-0.000515
 30
0.0
 42
-0.006655
  0
VERTEX
  8
1
  6
CONTINUOUS
 62
     1
  5
256
 10
-0.005679
 20
-0.000342
 30
0.0
 42
-0.006278
  0
VERTEX
  8
1
  6
CONTINUOUS
 62
     1
  5
257
 10
-0.004164
 20
-0.000202
 30
0.0
 42
-0.006439
  0
VERTEX
  8
1
  6
CONTINUOUS
 62
     1
  5
258
 10
-0.002666
 20
-0.000101
 30
0.0
 42
-0.007196
  0
VERTEX
  8
1
  6
CONTINUOUS
 62
     1
  5
259
 10
-0.001246
 20
-0.000044
 30
0.0
 42
-0.008852
  0
VERTEX
  8
1
  6
CONTINUOUS
 62
     1
  5
25A
 10
0.000037
 20
-0.000034
 30
0.0
 42
-0.008852
  0
SEQEND
  8
1
  6
CONTINUOUS
 62
     1
  5
25B
  0
POLYLINE
  8
1
  6
CONTINUOUS
 62
     1
  5
25C
 66
     1
 10
0.0
 20
0.0
 30
0.0
210
0.0
220
0.0
230
1.0
  0
VERTEX
  8
1
  6
CONTINUOUS
 62
     1
  5
25D
 10
0.000039
 20
0.000014
 30
0.0
 42
-0.005019
  0
VERTEX
  8
1
  6
CONTINUOUS
 62
     1
  5
25E
 10
-0.001103
 20
0.000071
 30
0.0
 42
-0.004038
  0
VERTEX
  8
1
  6
CONTINUOUS
 62
     1
  5
25F
 10
-0.002373
 20
0.000158
 30
0.0
 42
-0.003548
  0
VERTEX
  8
1
  6
CONTINUOUS
 62
     1
  5
260
 10
-0.003725
 20
0.00027
 30
0.0
 42
-0.003367
  0
VERTEX
  8
1
  6
CONTINUOUS
 62
     1
  5
261
 10
-0.005111
 20
0.000405
 30
0.0
 42
-0.003436
  0
VERTEX
  8
1
  6
CONTINUOUS
 62
     1
  5
262
 10
-0.006481
 20
0.000556
 30
0.0
 42
-0.003778
  0
VERTEX
  8
1
  6
CONTINUOUS
 62
     1
  5
263
 10
-0.007786
 20
0.00072
 30
0.0
 42
-0.00451
  0
VERTEX
  8
1
  6
CONTINUOUS
 62
     1
  5
264
 10
-0.008979
 20
0.000889
 30
0.0
 42
-0.00594
  0
VERTEX
  8
1
  6
CONTINUOUS
 62
     1
  5
265
 10
-0.010018
 20
0.001058
 30
0.0
 42
-0.008921
  0
VERTEX
  8
1
  6
CONTINUOUS
 62
     1
  5
266
 10
-0.010864
 20
0.00122
 30
0.0
 42
-0.016392
  0
VERTEX
  8
1
  6
CONTINUOUS
 62
     1
  5
267
 10
-0.011488
 20
0.001371
 30
0.0
 42
-0.04458
  0
VERTEX
  8
1
  6
CONTINUOUS
 62
     1
  5
268
 10
-0.011867
 20
0.001503
 30
0.0
 42
-0.317392
  0
VERTEX
  8
1
  6
CONTINUOUS
 62
     1
  5
269
 10
-0.011987
 20
0.001614
 30
0.0
 42
-0.317392
  0
SEQEND
  8
1
  6
CONTINUOUS
 62
     1
  5
26A
  0
ENDBLK
  8
1
  6
CONTINUOUS
 62
     1
  5
26B
  0
ENDSEC
  0
SECTION
  2
ENTITIES
  0
LINE
  8
61
  6
CONTINUOUS
 62
     1
  5
29
 10
667.346583
 20
429.301417
 30
0.0
 11
28.306583
 21
429.301417
 31
0.0
  0
LINE
  8
61
  6
CONTINUOUS
 62
     1
  5
2A
 10
28.306583
 20
429.301417
 30
0.0
 11
28.306583
 21
9.281417
 31
0.0
  0
LINE
  8
61
  6
CONTINUOUS
 62
     1
  5
2B
 10
667.366583
 20
9.261417
 30
0.0
 11
28.306583
 21
9.281417
 31
0.0
  0
LINE
  8
61
  6
CONTINUOUS
 62
     1
  5
2C
 10
667.346583
 20
429.301417
 30
0.0
 11
667.366583
 21
9.261417
 31
0.0
  0
LINE
  8
61
  6
CONTINUOUS
 62
     7
  5
2D
 10
661.246583
 20
424.561417
 30
0.0
 11
553.266583
 21
424.541417
 31
0.0
  0
LINE
  8
61
  6
CONTINUOUS
 62
     7
  5
2E
 10
553.266583
 20
424.541417
 30
0.0
 11
553.266583
 21
404.541417
 31
0.0
  0
LINE
  8
61
  6
CONTINUOUS
 62
     7
  5
2F
 10
661.246583
 20
424.561417
 30
0.0
 11
661.246583
 21
404.561417
 31
0.0
  0
LINE
  8
61
  6
CONTINUOUS
 62
     7
  5
30
 10
661.246583
 20
404.561417
 30
0.0
 11
553.266583
 21
404.541417
 31
0.0
  0
LINE
  8
61
  6
CONTINUOUS
 62
     7
  5
31
 10
661.266583
 20
414.521417
 30
0.0
 11
553.246583
 21
414.541417
 31
0.0
  0
LINE
  8
61
  6
CONTINUOUS
 62
     7
  5
32
 10
563.266583
 20
424.541417
 30
0.0
 11
563.266583
 21
404.541417
 31
0.0
  0
LINE
  8
61
  6
CONTINUOUS
 62
     7
  5
33
 10
573.266583
 20
424.541417
 30
0.0
 11
573.266583
 21
404.541417
 31
0.0
  0
LINE
  8
61
  6
CONTINUOUS
 62
     7
  5
34
 10
586.946583
 20
424.541417
 30
0.0
 11
586.946583
 21
404.541417
 31
0.0
  0
LINE
  8
61
  6
CONTINUOUS
 62
     7
  5
35
 10
651.246583
 20
424.561417
 30
0.0
 11
651.246583
 21
404.561417
 31
0.0
  0
LINE
  8
61
  6
CONTINUOUS
 62
     7
  5
36
 10
641.246583
 20
424.561417
 30
0.0
 11
641.246583
 21
404.561417
 31
0.0
  0
LINE
  8
61
  6
CONTINUOUS
 62
     7
  5
37
 10
619.266583
 20
424.541417
 30
0.0
 11
619.266583
 21
404.541417
 31
0.0
  0
LINE
  8
61
  6
CONTINUOUS
 62
     7
  5
38
 10
609.266583
 20
424.541417
 30
0.0
 11
609.266583
 21
404.541417
 31
0.0
  0
TEXT
  8
61
  6
CONTINUOUS
 62
     7
  5
3A
 10
555.306583
 20
421.521417
 30
0.0
 40
1.20075
  1
PUBLIC
 50
0.033272
 41
1.001804
  7
MONOTXT
210
0.0
220
0.0
230
1.0
  0
TEXT
  8
61
  6
CONTINUOUS
 62
     7
  5
3B
 10
555.386583
 20
419.001417
 30
0.0
 40
1.20075
  1
ROADS
 50
0.124322
 41
0.996877
  7
MONOTXT
210
0.0
220
0.0
230
1.0
  0
TEXT
  8
61
  6
CONTINUOUS
 62
     7
  5
3C
 10
556.586583
 20
416.501417
 30
0.0
 40
1.20075
  1
DIV.
 50
359.931522
 41
0.994864
  7
MONOTXT
210
0.0
220
0.0
230
1.0
  0
TEXT
  8
61
  6
CONTINUOUS
 62
     7
  5
3D
 10
565.466583
 20
421.581417
 30
0.0
 40
1.20075
  1
STATE
 50
0.058969
 41
0.998196
  7
MONOTXT
210
0.0
220
0.0
230
1.0
  0
TEXT
  8
61
  6
CONTINUOUS
 62
     7
  5
3E
 10
566.346583
 20
419.081417
 30
0.0
 40
1.20075
  1
DIST.
 50
0.055889
 41
0.999584
  7
MONOTXT
210
0.0
220
0.0
230
1.0
  0
TEXT
  8
61
  6
CONTINUOUS
 62
     7
  5
3F
 10
566.926583
 20
416.561417
 30
0.0
 40
1.20075
  1
NO.
 50
359.852072
 41
0.997779
  7
MONOTXT
210
0.0
220
0.0
230
1.0
  0
TEXT
  8
61
  6
CONTINUOUS
 62
     7
  5
40
 10
577.466583
 20
421.521417
 30
0.0
 40
1.20075
  1
STATE
 50
0.058969
 41
0.998196
  7
MONOTXT
210
0.0
220
0.0
230
1.0
  0
TEXT
  8
61
  6
CONTINUOUS
 62
     7
  5
41
 10
576.386583
 20
419.101417
 30
0.0
 40
1.20075
  1
PROJECT
 50
359.908431
 41
1.000069
  7
MONOTXT
210
0.0
220
0.0
230
1.0
  0
TEXT
  8
61
  6
CONTINUOUS
 62
     7
  5
42
 10
579.126583
 20
416.561417
 30
0.0
 40
1.20075
  1
NO.
 50
0.225453
 41
0.993546
  7
MONOTXT
210
0.0
220
0.0
230
1.0
  0
TEXT
  8
61
  6
CONTINUOUS
 62
     7
  5
43
 10
594.766583
 20
420.401417
 30
0.0
 40
1.20075
  1
FEDERAL
 50
0.006714
 41
0.998543
  7
MONOTXT
210
0.0
220
0.0
230
1.0
  0
TEXT
  8
61
  6
CONTINUOUS
 62
     7
  5
44
 10
593.226583
 20
417.741417
 30
0.0
 40
1.20075
  1
PROJECT NO.
 50
359.921531
 41
1.000694
  7
MONOTXT
210
0.0
220
0.0
230
1.0
  0
TEXT
  8
61
  6
CONTINUOUS
 62
     7
  5
45
 10
611.506583
 20
420.341417
 30
0.0
 40
1.20075
  1
FISCAL
 50
359.941939
 41
0.998959
  7
MONOTXT
210
0.0
220
0.0
230
1.0
  0
TEXT
  8
61
  6
CONTINUOUS
 62
     7
  5
46
 10
612.026583
 20
417.441417
 30
0.0
 40
1.20075
  1
YEAR
 50
0.104606
 41
0.993268
  7
MONOTXT
210
0.0
220
0.0
230
1.0
  0
TEXT
  8
61
  6
CONTINUOUS
 62
     7
  5
47
 10
626.126583
 20
418.801417
 30
0.0
 40
1.20075
  1
COUNTY
 50
0.068575
 41
1.001874
  7
MONOTXT
210
0.0
220
0.0
230
1.0
  0
TEXT
  8
61
  6
CONTINUOUS
 62
     7
  5
48
 10
643.766583
 20
420.461417
 30
0.0
 40
1.20075
  1
SHEET
 50
0.058969
 41
0.997571
  7
MONOTXT
210
0.0
220
0.0
230
1.0
  0
TEXT
  8
61
  6
CONTINUOUS
 62
     7
  5
49
 10
645.186583
 20
417.741417
 30
0.0
 40
1.20075
  1
NO.
 50
359.852072
 41
0.997779
  7
MONOTXT
210
0.0
220
0.0
230
1.0
  0
TEXT
  8
61
  6
CONTINUOUS
 62
     7
  5
4A
 10
653.506583
 20
420.321417
 30
0.0
 40
1.20075
  1
TOTAL
 50
359.926039
 41
0.998543
  7
MONOTXT
210
0.0
220
0.0
230
1.0
  0
TEXT
  8
61
  6
CONTINUOUS
 62
     7
  5
4B
 10
653.046583
 20
417.621417
 30
0.0
 40
1.20075
  1
SHEETS
 50
359.958675
  7
MONOTXT
210
0.0
220
0.0
230
1.0
  0
TEXT
  8
61
  6
CONTINUOUS
 62
     7
  5
4C
 10
565.866583
 20
408.741417
 30
0.0
 40
2.401333
  1
  
 50
0.029406
 41
0.996495
  7
MONOTXT
210
0.0
220
0.0
230
1.0
  0
TEXT
  8
61
  6
CONTINUOUS
 62
     7
  5
4D
 10
643.046583
 20
408.461417
 30
0.0
 40
2.401333
  1
   
 50
0.011508
 41
1.001006
  7
MONOTXT
210
0.0
220
0.0
230
1.0
  0
TEXT
  8
61
  6
CONTINUOUS
 62
     7
  5
4E
 10
652.926583
 20
408.441417
 30
0.0
 40
2.401333
  1
   
 50
359.922128
 41
1.000555
  7
MONOTXT
210
0.0
220
0.0
230
1.0
  0
TEXT
  8
61
  6
CONTINUOUS
 62
     7
  5
4F
 10
576.306583
 20
411.841417
 30
0.0
 40
2.00675
  1
    
 50
0.054383
 41
0.993729
  7
MONOTXT
210
0.0
220
0.0
230
1.0
  0
TEXT
  8
61
  6
CONTINUOUS
 62
     7
  5
50
 10
573.386583
 20
408.821417
 30
0.0
 40
1.989583
  1
       
 50
0.064678
 41
1.000963
  7
MONOTXT
210
0.0
220
0.0
230
1.0
  0
TEXT
  8
61
  6
CONTINUOUS
 62
     7
  5
51
 10
574.346583
 20
405.921417
 30
0.0
 40
1.989583
  1
      
 50
359.958053
 41
1.000293
  7
MONOTXT
210
0.0
220
0.0
230
1.0
  0
TEXT
  8
61
  6
CONTINUOUS
 62
     7
  5
52
 10
585.306583
 20
410.561417
 30
0.0
 40
2.401333
  1
           
 50
0.011508
 41
0.998751
  7
MONOTXT
210
0.0
220
0.0
230
1.0
  0
TEXT
  8
61
  6
CONTINUOUS
 62
     7
  5
53
 10
585.186583
 20
406.901417
 30
0.0
 40
2.401333
  1
           
 50
0.011508
 41
0.999584
  7
MONOTXT
210
0.0
220
0.0
230
1.0
  0
TEXT
  8
61
  6
CONTINUOUS
 62
     7
  5
54
 10
620.526583
 20
408.641417
 30
0.0
 40
2.00675
  1
          
 50
0.009222
 41
0.992774
  7
MONOTXT
210
0.0
220
0.0
230
1.0
  0
ARC
  8
61
  6
CONTINUOUS
 62
     3
  5
55
 10
10.00434
 20
340.542712
 30
0.0
 40
2.499998
 50
323.130094
 51
316.232156
210
0.0
220
0.0
230
1.0
  0
ARC
  8
61
  6
CONTINUOUS
 62
     3
  5
56
 10
10.00434
 20
285.542712
 30
0.0
 40
2.499998
 50
323.130094
 51
315.375767
210
0.0
220
0.0
230
1.0
  0
ARC
  8
61
  6
CONTINUOUS
 62
     3
  5
57
 10
9.72434
 20
137.102712
 30
0.0
 40
2.499998
 50
322.671753
 51
321.716147
210
0.0
220
0.0
230
1.0
  0
ARC
  8
61
  6
CONTINUOUS
 62
     3
  5
58
 10
9.72434
 20
82.102712
 30
0.0
 40
2.499998
 50
323.130094
 51
312.314392
210
0.0
220
0.0
230
1.0
  0
LINE
  8
61
  6
CONTINUOUS
 62
     2
  5
59
 10
12.026583
 20
340.541417
 30
0.0
 11
20.006583
 21
340.561417
 31
0.0
  0
LINE
  8
61
  6
CONTINUOUS
 62
     2
  5
5A
 10
12.006583
 20
285.541417
 30
0.0
 11
20.006583
 21
285.541417
 31
0.0
  0
LINE
  8
61
  6
CONTINUOUS
 62
     2
  5
5B
 10
11.726583
 20
137.121417
 30
0.0
 11
19.726583
 21
137.121417
 31
0.0
  0
LINE
  8
61
  6
CONTINUOUS
 62
     2
  5
5C
 10
11.746583
 20
82.101417
 30
0.0
 11
19.726583
 21
82.101417
 31
0.0
  0
LINE
  8
61
  6
DASHED
 62
     1
  5
5D
 10
-1.693417
 20
439.301417
 30
0.0
 11
678.326583
 21
439.301417
 31
0.0
  0
LINE
  8
61
  6
DASHED
 62
     1
  5
5E
 10
678.306583
 20
-0.718583
 30
0.0
 11
-1.753417
 21
-0.738583
 31
0.0
  0
TEXT
  8
61
  6
CONTINUOUS
 62
     7
  5
5F
 10
654.146583
 20
384.641417
 30
0.0
 40
2.401333
  1
     
 41
1.001388
  7
MONOTXT
210
0.0
220
0.0
230
1.0
  0
LINE
  8
1
  6
HIDDEN
 62
     1
  5
61
 10
678.326583
 20
439.301417
 30
0.0
 11
678.306583
 21
-0.718583
 31
0.0
  0
LINE
  8
1
  6
HIDDEN
 62
     1
  5
62
 10
-1.693417
 20
439.301417
 30
0.0
 11
-1.753417
 21
-0.738583
 31
0.0
  0
TEXT
  8
1
  6
CONTINUOUS
 62
     1
  5
64
 10
633.086583
 20
6.761417
 30
0.0
 40
1.2
  1
TRAFFIC ENGINEERING DIVISION
  7
txt
210
0.0
220
0.0
230
1.0
  0
LINE
  8
1
  6
CONTINUOUS
 62
     7
  5
65
 10
495.706583
 20
9.261417
 30
0.0
 11
495.706583
 21
100.841417
 31
0.0
  0
LINE
  8
1
  6
CONTINUOUS
 62
     7
  5
66
 10
495.706583
 20
100.841417
 30
0.0
 11
667.366583
 21
100.841417
 31
0.0
  0
LINE
  8
1
  6
CONTINUOUS
 62
     7
  5
67
 10
530.706583
 20
9.221417
 30
0.0
 11
530.706583
 21
58.681417
 31
0.0
  0
LINE
  8
1
  6
CONTINUOUS
 62
     7
  5
68
 10
530.706583
 20
58.681417
 30
0.0
 11
495.726583
 21
58.681417
 31
0.0
  0
LINE
  8
1
  6
CONTINUOUS
 62
     7
  5
69
 10
530.706583
 20
54.201417
 30
0.0
 11
495.726583
 21
54.201417
 31
0.0
  0
LINE
  8
1
  6
CONTINUOUS
 62
     7
  5
6A
 10
530.706583
 20
49.701417
 30
0.0
 11
495.726583
 21
49.701417
 31
0.0
  0
LINE
  8
1
  6
CONTINUOUS
 62
     7
  5
6B
 10
530.706583
 20
45.201417
 30
0.0
 11
495.726583
 21
45.201417
 31
0.0
  0
LINE
  8
1
  6
CONTINUOUS
 62
     7
  5
6C
 10
530.706583
 20
40.681417
 30
0.0
 11
495.726583
 21
40.681417
 31
0.0
  0
LINE
  8
1
  6
CONTINUOUS
 62
     7
  5
6D
 10
530.706583
 20
36.201417
 30
0.0
 11
495.726583
 21
36.201417
 31
0.0
  0
LINE
  8
1
  6
CONTINUOUS
 62
     7
  5
6E
 10
530.706583
 20
31.721417
 30
0.0
 11
495.726583
 21
31.721417
 31
0.0
  0
LINE
  8
1
  6
CONTINUOUS
 62
     7
  5
6F
 10
530.706583
 20
27.221417
 30
0.0
 11
495.726583
 21
27.221417
 31
0.0
  0
LINE
  8
1
  6
CONTINUOUS
 62
     7
  5
70
 10
530.706583
 20
22.721417
 30
0.0
 11
495.726583
 21
22.721417
 31
0.0
  0
LINE
  8
1
  6
CONTINUOUS
 62
     7
  5
71
 10
530.706583
 20
18.201417
 30
0.0
 11
495.726583
 21
18.201417
 31
0.0
  0
TEXT
  8
1
  6
CONTINUOUS
 62
     7
  5
72
 10
505.986583
 20
55.681417
 30
0.0
 40
1.99775
  1
REVISIONS
  7
MONOTXT
210
0.0
220
0.0
230
1.0
  0
TEXT
  8
1
  6
CONTINUOUS
 62
     7
  5
73
 10
497.666583
 20
59.681417
 30
0.0
 40
1.99775
  1
PREPARED:   /  /  
  7
MONOTXT
210
0.0
220
0.0
230
1.0
  0
TEXT
  8
1
  6
CONTINUOUS
 62
     7
  5
75
 10
528.326583
 20
92.241417
 30
0.0
 40
4.794833
  1
WEST VIRGINIA DIVISION OF HIGHWAYS
  7
ROMANT
 72
     1
 11
582.296833
 21
97.03625
 31
0.0
210
0.0
220
0.0
230
1.0
 73
     3
  0
TEXT
  8
1
  6
CONTINUOUS
 62
     7
  5
76
 10
539.086583
 20
81.081417
 30
0.0
 40
6.992667
  1
STANDARD DETAIL
  7
txt
 72
     1
 11
583.576667
 21
88.074083
 31
0.0
210
0.0
220
0.0
230
1.0
 73
     3
  0
TEXT
  8
1
  6
CONTINUOUS
 62
     7
  5
77
 10
534.546583
 20
13.301417
 30
0.0
 40
6.992667
  1
STANDARD SHEET TE1-7A
  7
txt
210
0.0
220
0.0
230
1.0
  0
TEXT
  8
1
  6
CONTINUOUS
 62
     1
  5
78
 10
505.794
 20
50.621417
 30
0.0
 40
2.0
  1
04-23-69
  7
MONOTXT
 72
     1
 11
513.014583
 21
52.621417
 31
0.0
210
0.0
220
0.0
230
1.0
 73
     3
  0
TEXT
  8
1
  6
CONTINUOUS
 62
     1
  5
79
 10
506.246417
 20
46.221417
 30
0.0
 40
2.0
  1
05-21-69
  7
MONOTXT
 72
     1
 11
512.994583
 21
48.221417
 31
0.0
210
0.0
220
0.0
230
1.0
 73
     3
  0
TEXT
  8
1
  6
CONTINUOUS
 62
     1
  5
7A
 10
506.581417
 20
41.821417
 30
0.0
 40
2.0
  1
11-25-70
  7
MONOTXT
 72
     1
 11
513.00675
 21
43.821417
 31
0.0
210
0.0
220
0.0
230
1.0
 73
     3
  0
TEXT
  8
1
  6
CONTINUOUS
 62
     1
  5
7B
 10
506.534167
 20
37.421417
 30
0.0
 40
2.0
  1
04-01-71
  7
MONOTXT
 72
     1
 11
513.006667
 21
39.421417
 31
0.0
210
0.0
220
0.0
230
1.0
 73
     3
  0
TEXT
  8
1
  6
CONTINUOUS
 62
     1
  5
7C
 10
506.893833
 20
32.821417
 30
0.0
 40
2.0
  1
11-19-73
  7
MONOTXT
 72
     1
 11
512.8545
 21
34.821417
 31
0.0
210
0.0
220
0.0
230
1.0
 73
     3
  0
TEXT
  8
1
  6
CONTINUOUS
 62
     1
  5
7D
 10
506.675833
 20
28.341417
 30
0.0
 40
2.0
  1
11-09-76
  7
MONOTXT
 72
     1
 11
513.0145
 21
30.341417
 31
0.0
210
0.0
220
0.0
230
1.0
 73
     3
  0
TEXT
  8
1
  6
CONTINUOUS
 62
     1
  5
7E
 10
506.008917
 20
23.741417
 30
0.0
 40
2.0
  1
10-24-78
  7
MONOTXT
 72
     1
 11
512.914583
 21
25.741417
 31
0.0
210
0.0
220
0.0
230
1.0
 73
     3
  0
TEXT
  8
1
  6
CONTINUOUS
 62
     1
  5
7F
 10
506.549917
 20
19.161417
 30
0.0
 40
2.0
  1
11-30-84
  7
MONOTXT
 72
     1
 11
513.014583
 21
21.161417
 31
0.0
210
0.0
220
0.0
230
1.0
 73
     3
  0
TEXT
  8
1
  6
CONTINUOUS
 62
     1
  5
80
 10
505.8885
 20
15.141417
 30
0.0
 40
2.0
  1
01-05-93
  7
MONOTXT
 72
     1
 11
512.683833
 21
17.141417
 31
0.0
210
0.0
220
0.0
230
1.0
 73
     3
  0
POLYLINE
  8
1
  6
CONTINUOUS
 62
     7
  5
81
 66
     1
 10
0.0
 20
0.0
 30
0.0
  0
VERTEX
  8
1
  6
CONTINUOUS
 62
     7
  5
82
 10
500.226583
 20
53.723667
 30
0.0
  0
VERTEX
  8
1
  6
CONTINUOUS
 62
     7
  5
83
 10
498.226583
 20
50.259583
 30
0.0
  0
VERTEX
  8
1
  6
CONTINUOUS
 62
     7
  5
84
 10
502.226583
 20
50.259583
 30
0.0
  0
VERTEX
  8
1
  6
CONTINUOUS
 62
     7
  5
85
 10
500.226583
 20
53.723667
 30
0.0
  0
SEQEND
  8
1
  6
CONTINUOUS
 62
     7
  5
86
  0
POLYLINE
  8
1
  6
CONTINUOUS
 62
     7
  5
87
 66
     1
 10
0.0
 20
0.0
 30
0.0
  0
VERTEX
  8
1
  6
CONTINUOUS
 62
     7
  5
88
 10
500.166417
 20
49.147667
 30
0.0
  0
VERTEX
  8
1
  6
CONTINUOUS
 62
     7
  5
89
 10
498.166417
 20
45.683583
 30
0.0
  0
VERTEX
  8
1
  6
CONTINUOUS
 62
     7
  5
8A
 10
502.166417
 20
45.683583
 30
0.0
  0
VERTEX
  8
1
  6
CONTINUOUS
 62
     7
  5
8B
 10
500.166417
 20
49.147667
 30
0.0
  0
SEQEND
  8
1
  6
CONTINUOUS
 62
     7
  5
8C
  0
POLYLINE
  8
1
  6
CONTINUOUS
 62
     7
  5
8D
 66
     1
 10
0.0
 20
0.0
 30
0.0
  0
VERTEX
  8
1
  6
CONTINUOUS
 62
     7
  5
8E
 10
500.10625
 20
44.75225
 30
0.0
  0
VERTEX
  8
1
  6
CONTINUOUS
 62
     7
  5
8F
 10
498.10625
 20
41.288167
 30
0.0
  0
VERTEX
  8
1
  6
CONTINUOUS
 62
     7
  5
90
 10
502.10625
 20
41.288167
 30
0.0
  0
VERTEX
  8
1
  6
CONTINUOUS
 62
     7
  5
91
 10
500.10625
 20
44.75225
 30
0.0
  0
SEQEND
  8
1
  6
CONTINUOUS
 62
     7
  5
92
  0
POLYLINE
  8
1
  6
CONTINUOUS
 62
     7
  5
93
 66
     1
 10
0.0
 20
0.0
 30
0.0
  0
VERTEX
  8
1
  6
CONTINUOUS
 62
     7
  5
94
 10
500.166417
 20
40.2365
 30
0.0
  0
VERTEX
  8
1
  6
CONTINUOUS
 62
     7
  5
95
 10
498.166417
 20
36.772417
 30
0.0
  0
VERTEX
  8
1
  6
CONTINUOUS
 62
     7
  5
96
 10
502.166417
 20
36.772417
 30
0.0
  0
VERTEX
  8
1
  6
CONTINUOUS
 62
     7
  5
97
 10
500.166417
 20
40.2365
 30
0.0
  0
SEQEND
  8
1
  6
CONTINUOUS
 62
     7
  5
98
  0
POLYLINE
  8
1
  6
CONTINUOUS
 62
     7
  5
99
 66
     1
 10
0.0
 20
0.0
 30
0.0
  0
VERTEX
  8
1
  6
CONTINUOUS
 62
     7
  5
9A
 10
500.226667
 20
35.660417
 30
0.0
  0
VERTEX
  8
1
  6
CONTINUOUS
 62
     7
  5
9B
 10
498.226667
 20
32.196333
 30
0.0
  0
VERTEX
  8
1
  6
CONTINUOUS
 62
     7
  5
9C
 10
502.226667
 20
32.196333
 30
0.0
  0
VERTEX
  8
1
  6
CONTINUOUS
 62
     7
  5
9D
 10
500.226667
 20
35.660417
 30
0.0
  0
SEQEND
  8
1
  6
CONTINUOUS
 62
     7
  5
9E
  0
POLYLINE
  8
1
  6
CONTINUOUS
 62
     7
  5
9F
 66
     1
 10
0.0
 20
0.0
 30
0.0
  0
VERTEX
  8
1
  6
CONTINUOUS
 62
     7
  5
A0
 10
500.226667
 20
31.204833
 30
0.0
  0
VERTEX
  8
1
  6
CONTINUOUS
 62
     7
  5
A1
 10
498.226667
 20
27.74075
 30
0.0
  0
VERTEX
  8
1
  6
CONTINUOUS
 62
     7
  5
A2
 10
502.226667
 20
27.74075
 30
0.0
  0
VERTEX
  8
1
  6
CONTINUOUS
 62
     7
  5
A3
 10
500.226667
 20
31.204833
 30
0.0
  0
SEQEND
  8
1
  6
CONTINUOUS
 62
     7
  5
A4
  0
POLYLINE
  8
1
  6
CONTINUOUS
 62
     7
  5
A5
 66
     1
 10
0.0
 20
0.0
 30
0.0
  0
VERTEX
  8
1
  6
CONTINUOUS
 62
     7
  5
A6
 10
500.166417
 20
26.869583
 30
0.0
  0
VERTEX
  8
1
  6
CONTINUOUS
 62
     7
  5
A7
 10
498.166417
 20
23.4055
 30
0.0
  0
VERTEX
  8
1
  6
CONTINUOUS
 62
     7
  5
A8
 10
502.166417
 20
23.4055
 30
0.0
  0
VERTEX
  8
1
  6
CONTINUOUS
 62
     7
  5
A9
 10
500.166417
 20
26.869583
 30
0.0
  0
SEQEND
  8
1
  6
CONTINUOUS
 62
     7
  5
AA
  0
POLYLINE
  8
1
  6
CONTINUOUS
 62
     7
  5
AB
 66
     1
 10
0.0
 20
0.0
 30
0.0
  0
VERTEX
  8
1
  6
CONTINUOUS
 62
     7
  5
AC
 10
500.28675
 20
22.293583
 30
0.0
  0
VERTEX
  8
1
  6
CONTINUOUS
 62
     7
  5
AD
 10
498.28675
 20
18.8295
 30
0.0
  0
VERTEX
  8
1
  6
CONTINUOUS
 62
     7
  5
AE
 10
502.28675
 20
18.8295
 30
0.0
  0
VERTEX
  8
1
  6
CONTINUOUS
 62
     7
  5
AF
 10
500.28675
 20
22.293583
 30
0.0
  0
SEQEND
  8
1
  6
CONTINUOUS
 62
     7
  5
B0
  0
TEXT
  8
1
  6
CONTINUOUS
 62
     7
  5
B1
 10
499.755917
 20
19.125083
 30
0.0
 40
1.75
  1
8
  7
MONOTXT
210
0.0
220
0.0
230
1.0
  0
TEXT
  8
1
  6
CONTINUOUS
 62
     7
  5
B2
 10
499.6355
 20
23.640917
 30
0.0
 40
1.75
  1
7
  7
MONOTXT
210
0.0
220
0.0
230
1.0
  0
TEXT
  8
1
  6
CONTINUOUS
 62
     7
  5
B3
 10
499.6355
 20
28.0965
 30
0.0
 40
1.75
  1
6
  7
MONOTXT
210
0.0
220
0.0
230
1.0
  0
TEXT
  8
1
  6
CONTINUOUS
 62
     7
  5
B4
 10
499.6355
 20
32.491917
 30
0.0
 40
1.75
  1
5
  7
MONOTXT
210
0.0
220
0.0
230
1.0
  0
TEXT
  8
1
  6
CONTINUOUS
 62
     7
  5
B5
 10
499.454917
 20
37.248583
 30
0.0
 40
1.75
  1
4
  7
MONOTXT
210
0.0
220
0.0
230
1.0
  0
TEXT
  8
1
  6
CONTINUOUS
 62
     7
  5
B6
 10
499.454917
 20
41.5235
 30
0.0
 40
1.75
  1
3
  7
MONOTXT
210
0.0
220
0.0
230
1.0
  0
TEXT
  8
1
  6
CONTINUOUS
 62
     7
  5
B7
 10
499.6355
 20
46.039333
 30
0.0
 40
1.75
  1
2
  7
MONOTXT
210
0.0
220
0.0
230
1.0
  0
TEXT
  8
1
  6
CONTINUOUS
 62
     7
  5
B8
 10
499.87625
 20
50.735833
 30
0.0
 40
1.75
  1
1
  7
MONOTXT
210
0.0
220
0.0
230
1.0
  0
TEXT
  8
1
  6
CONTINUOUS
 62
     7
  5
B9
 10
448.4125
 20
40.734583
 30
0.0
 40
1.75
  1
4
  7
MONOTXT
210
0.0
220
0.0
230
1.0
  0
POLYLINE
  8
1
  6
CONTINUOUS
 62
     7
  5
BA
 66
     1
 10
0.0
 20
0.0
 30
0.0
  0
VERTEX
  8
1
  6
CONTINUOUS
 62
     7
  5
BB
 10
449.33075
 20
57.722833
 30
0.0
  0
VERTEX
  8
1
  6
CONTINUOUS
 62
     7
  5
BC
 10
447.33075
 20
54.25875
 30
0.0
  0
VERTEX
  8
1
  6
CONTINUOUS
 62
     7
  5
BD
 10
451.33075
 20
54.25875
 30
0.0
  0
VERTEX
  8
1
  6
CONTINUOUS
 62
     7
  5
BE
 10
449.33075
 20
57.722833
 30
0.0
  0
SEQEND
  8
1
  6
CONTINUOUS
 62
     7
  5
BF
  0
POLYLINE
  8
1
  6
CONTINUOUS
 62
     7
  5
C0
 66
     1
 10
0.0
 20
0.0
 30
0.0
  0
VERTEX
  8
1
  6
CONTINUOUS
 62
     7
  5
C1
 10
449.270583
 20
53.146833
 30
0.0
  0
VERTEX
  8
1
  6
CONTINUOUS
 62
     7
  5
C2
 10
447.270583
 20
49.68275
 30
0.0
  0
VERTEX
  8
1
  6
CONTINUOUS
 62
     7
  5
C3
 10
451.270583
 20
49.68275
 30
0.0
  0
VERTEX
  8
1
  6
CONTINUOUS
 62
     7
  5
C4
 10
449.270583
 20
53.146833
 30
0.0
  0
SEQEND
  8
1
  6
CONTINUOUS
 62
     7
  5
C5
  0
POLYLINE
  8
1
  6
CONTINUOUS
 62
     7
  5
C6
 66
     1
 10
0.0
 20
0.0
 30
0.0
  0
VERTEX
  8
1
  6
CONTINUOUS
 62
     7
  5
C7
 10
449.210417
 20
48.458167
 30
0.0
  0
VERTEX
  8
1
  6
CONTINUOUS
 62
     7
  5
C8
 10
447.210417
 20
44.994083
 30
0.0
  0
VERTEX
  8
1
  6
CONTINUOUS
 62
     7
  5
C9
 10
451.210417
 20
44.994083
 30
0.0
  0
VERTEX
  8
1
  6
CONTINUOUS
 62
     7
  5
CA
 10
449.210417
 20
48.458167
 30
0.0
  0
SEQEND
  8
1
  6
CONTINUOUS
 62
     7
  5
CB
  0
POLYLINE
  8
1
  6
CONTINUOUS
 62
     7
  5
CC
 66
     1
 10
0.0
 20
0.0
 30
0.0
  0
VERTEX
  8
1
  6
CONTINUOUS
 62
     7
  5
CD
 10
449.124
 20
43.795833
 30
0.0
  0
VERTEX
  8
1
  6
CONTINUOUS
 62
     7
  5
CE
 10
447.124
 20
40.33175
 30
0.0
  0
VERTEX
  8
1
  6
CONTINUOUS
 62
     7
  5
CF
 10
451.124
 20
40.33175
 30
0.0
  0
VERTEX
  8
1
  6
CONTINUOUS
 62
     7
  5
D0
 10
449.124
 20
43.795833
 30
0.0
  0
SEQEND
  8
1
  6
CONTINUOUS
 62
     7
  5
D1
  0
POLYLINE
  8
1
  6
CONTINUOUS
 62
     7
  5
D2
 66
     1
 10
0.0
 20
0.0
 30
0.0
  0
VERTEX
  8
1
  6
CONTINUOUS
 62
     7
  5
D3
 10
449.03775
 20
39.21975
 30
0.0
  0
VERTEX
  8
1
  6
CONTINUOUS
 62
     7
  5
D4
 10
447.03775
 20
35.755667
 30
0.0
  0
VERTEX
  8
1
  6
CONTINUOUS
 62
     7
  5
D5
 10
451.03775
 20
35.755667
 30
0.0
  0
VERTEX
  8
1
  6
CONTINUOUS
 62
     7
  5
D6
 10
449.03775
 20
39.21975
 30
0.0
  0
SEQEND
  8
1
  6
CONTINUOUS
 62
     7
  5
D7
  0
POLYLINE
  8
1
  6
CONTINUOUS
 62
     7
  5
D8
 66
     1
 10
0.0
 20
0.0
 30
0.0
  0
VERTEX
  8
1
  6
CONTINUOUS
 62
     7
  5
D9
 10
449.18425
 20
34.8375
 30
0.0
  0
VERTEX
  8
1
  6
CONTINUOUS
 62
     7
  5
DA
 10
447.18425
 20
31.373417
 30
0.0
  0
VERTEX
  8
1
  6
CONTINUOUS
 62
     7
  5
DB
 10
451.18425
 20
31.373417
 30
0.0
  0
VERTEX
  8
1
  6
CONTINUOUS
 62
     7
  5
DC
 10
449.18425
 20
34.8375
 30
0.0
  0
SEQEND
  8
1
  6
CONTINUOUS
 62
     7
  5
DD
  0
POLYLINE
  8
1
  6
CONTINUOUS
 62
     7
  5
DE
 66
     1
 10
0.0
 20
0.0
 30
0.0
  0
VERTEX
  8
1
  6
CONTINUOUS
 62
     7
  5
DF
 10
449.124
 20
30.209083
 30
0.0
  0
VERTEX
  8
1
  6
CONTINUOUS
 62
     7
  5
E0
 10
447.124
 20
26.745
 30
0.0
  0
VERTEX
  8
1
  6
CONTINUOUS
 62
     7
  5
E1
 10
451.124
 20
26.745
 30
0.0
  0
VERTEX
  8
1
  6
CONTINUOUS
 62
     7
  5
E2
 10
449.124
 20
30.209083
 30
0.0
  0
SEQEND
  8
1
  6
CONTINUOUS
 62
     7
  5
E3
  0
POLYLINE
  8
1
  6
CONTINUOUS
 62
     7
  5
E4
 66
     1
 10
0.0
 20
0.0
 30
0.0
  0
VERTEX
  8
1
  6
CONTINUOUS
 62
     7
  5
E5
 10
449.317667
 20
25.70625
 30
0.0
  0
VERTEX
  8
1
  6
CONTINUOUS
 62
     7
  5
E6
 10
447.317667
 20
22.242167
 30
0.0
  0
VERTEX
  8
1
  6
CONTINUOUS
 62
     7
  5
E7
 10
451.317667
 20
22.242167
 30
0.0
  0
VERTEX
  8
1
  6
CONTINUOUS
 62
     7
  5
E8
 10
449.317667
 20
25.70625
 30
0.0
  0
SEQEND
  8
1
  6
CONTINUOUS
 62
     7
  5
E9
  0
TEXT
  8
1
  6
CONTINUOUS
 62
     7
  5
EA
 10
448.713583
 20
22.757667
 30
0.0
 40
1.75
  1
8
  7
MONOTXT
210
0.0
220
0.0
230
1.0
  0
TEXT
  8
1
  6
CONTINUOUS
 62
     7
  5
EB
 10
448.593
 20
27.053667
 30
0.0
 40
1.75
  1
7
  7
MONOTXT
210
0.0
220
0.0
230
1.0
  0
TEXT
  8
1
  6
CONTINUOUS
 62
     7
  5
EC
 10
448.593083
 20
31.729167
 30
0.0
 40
1.75
  1
6
  7
MONOTXT
210
0.0
220
0.0
230
1.0
  0
TEXT
  8
1
  6
CONTINUOUS
 62
     7
  5
ED
 10
448.4465
 20
36.124583
 30
0.0
 40
1.75
  1
5
  7
MONOTXT
210
0.0
220
0.0
230
1.0
  0
TEXT
  8
1
  6
CONTINUOUS
 62
     7
  5
EE
 10
448.559083
 20
45.229417
 30
0.0
 40
1.75
  1
3
  7
MONOTXT
210
0.0
220
0.0
230
1.0
  0
TEXT
  8
1
  6
CONTINUOUS
 62
     7
  5
EF
 10
448.739667
 20
50.0385
 30
0.0
 40
1.75
  1
2
  7
MONOTXT
210
0.0
220
0.0
230
1.0
  0
TEXT
  8
1
  6
CONTINUOUS
 62
     7
  5
F0
 10
448.980417
 20
54.735
 30
0.0
 40
1.75
  1
1
  7
MONOTXT
210
0.0
220
0.0
230
1.0
  0
TEXT
  8
1
  6
CONTINUOUS
 62
     7
  5
F1
 10
453.696417
 20
55.3305
 30
0.0
 40
1.75
  1
REVISION OF NOTES
  7
MONOTXT
 11
453.696417
 21
57.0805
 31
0.0
210
0.0
220
0.0
230
1.0
 73
     3
  0
TEXT
  8
1
  6
CONTINUOUS
 62
     7
  5
F2
 10
453.696417
 20
50.5805
 30
0.0
 40
1.75
  1
REVISION OF NOTES
  7
MONOTXT
 11
453.696417
 21
52.3305
 31
0.0
210
0.0
220
0.0
230
1.0
 73
     3
  0
TEXT
  8
1
  6
CONTINUOUS
 62
     7
  5
F3
 10
453.696417
 20
45.8305
 30
0.0
 40
1.75
  1
WIND PRESSURE REDUCTION
  7
MONOTXT
 11
453.696417
 21
47.5805
 31
0.0
210
0.0
220
0.0
230
1.0
 73
     3
  0
TEXT
  8
1
  6
CONTINUOUS
 62
     7
  5
F4
 10
453.696417
 20
41.0805
 30
0.0
 40
1.75
  1
EMBEDMENT
  7
MONOTXT
 11
453.696417
 21
42.8305
 31
0.0
210
0.0
220
0.0
230
1.0
 73
     3
  0
TEXT
  8
1
  6
CONTINUOUS
 62
     7
  5
F5
 10
453.696417
 20
36.3305
 30
0.0
 40
1.75
  1
POST SECTION
  7
MONOTXT
 11
453.696417
 21
38.0805
 31
0.0
210
0.0
220
0.0
230
1.0
 73
     3
  0
TEXT
  8
1
  6
CONTINUOUS
 62
     7
  5
F6
 10
453.623167
 20
32.24025
 30
0.0
 40
1.75
  1
DEPTH, CONC., NOTES
  7
MONOTXT
 11
453.623167
 21
33.99025
 31
0.0
210
0.0
220
0.0
230
1.0
 73
     3
  0
TEXT
  8
1
  6
CONTINUOUS
 62
     7
  5
F7
 10
453.623167
 20
27.710167
 30
0.0
 40
1.75
  1
REV. OF SEC. MOD.
  7
MONOTXT
 11
453.623167
 21
29.460167
 31
0.0
210
0.0
220
0.0
230
1.0
 73
     3
  0
TEXT
  8
1
  6
CONTINUOUS
 62
     7
  5
F8
 10
453.623167
 20
22.96025
 30
0.0
 40
1.75
  1
DELETED G.R. FOR 6.0
  7
MONOTXT
 11
453.623167
 21
24.71025
 31
0.0
210
0.0
220
0.0
230
1.0
 73
     3
  0
TEXT
  8
1
  6
CONTINUOUS
 62
     7
  5
F9
 10
518.116667
 20
70.90575
 30
0.0
 40
6.992667
  1
ROADSIDE SIGN SUPPORTS
  7
txt
 72
     1
 11
583.410167
 21
77.898417
 31
0.0
210
0.0
220
0.0
230
1.0
 73
     3
  0
TEXT
  8
1
  6
CONTINUOUS
 62
     7
  5
FA
 10
555.537583
 20
60.730083
 30
0.0
 40
6.992667
  1
U-CHANNEL
  7
txt
 72
     1
 11
583.243333
 21
67.72275
 31
0.0
210
0.0
220
0.0
230
1.0
 73
     3
  0
LINE
  8
1
  6
CONTINUOUS
 62
     4
  5
FB
 10
35.66125
 20
412.860167
 30
0.0
 11
35.66125
 21
204.860167
 31
0.0
  0
LINE
  8
1
  6
CONTINUOUS
 62
     4
  5
FC
 10
34.66125
 20
203.860167
 30
0.0
 11
318.66125
 21
203.860167
 31
0.0
  0
LINE
  8
1
  6
CONTINUOUS
 62
     4
  5
FD
 10
294.66125
 20
204.860167
 30
0.0
 11
294.66125
 21
403.860167
 31
0.0
  0
LINE
  8
1
  6
CONTINUOUS
 62
     4
  5
FE
 10
318.66125
 20
413.860167
 30
0.0
 11
34.66125
 21
413.860167
 31
0.0
  0
LINE
  8
1
  6
CONTINUOUS
 62
     4
  5
FF
 10
34.66125
 20
413.860167
 30
0.0
 11
34.66125
 21
203.860167
 31
0.0
  0
LINE
  8
1
  6
CONTINUOUS
 62
     4
  5
100
 10
58.66125
 20
403.860167
 30
0.0
 11
58.66125
 21
204.860167
 31
0.0
  0
LINE
  8
1
  6
CONTINUOUS
 62
     4
  5
101
 10
59.66125
 20
403.860167
 30
0.0
 11
59.66125
 21
204.860167
 31
0.0
  0
LINE
  8
1
  6
CONTINUOUS
 62
     4
  5
102
 10
35.66125
 20
204.860167
 30
0.0
 11
317.66125
 21
204.860167
 31
0.0
  0
LINE
  8
1
  6
CONTINUOUS
 62
     4
  5
103
 10
317.66125
 20
412.860167
 30
0.0
 11
35.66125
 21
412.860167
 31
0.0
  0
LINE
  8
1
  6
CONTINUOUS
 62
     4
  5
104
 10
317.66125
 20
395.860167
 30
0.0
 11
35.66125
 21
395.860167
 31
0.0
  0
LINE
  8
1
  6
CONTINUOUS
 62
     4
  5
105
 10
317.66125
 20
394.860167
 30
0.0
 11
35.66125
 21
394.860167
 31
0.0
  0
LINE
  8
1
  6
CONTINUOUS
 62
     4
  5
106
 10
49.66125
 20
244.860167
 30
0.0
 11
302.66125
 21
244.860167
 31
0.0
  0
LINE
  8
1
  6
CONTINUOUS
 62
     4
  5
107
 10
72.66125
 20
403.860167
 30
0.0
 11
72.66125
 21
395.860167
 31
0.0
  0
TEXT
  8
1
  6
CONTINUOUS
 62
     7
  5
108
 10
65.3345
 20
398.610167
 30
0.0
 40
2.5
  1
3
  7
MONOTXT
 72
     4
 11
66.171083
 21
399.860167
 31
0.0
210
0.0
220
0.0
230
1.0
  0
TEXT
  8
1
  6
CONTINUOUS
 62
     7
  5
109
 10
78.275417
 20
398.610167
 30
0.0
 40
2.5
  1
4
  7
MONOTXT
 72
     4
 11
79.171083
 21
399.860167
 31
0.0
210
0.0
220
0.0
230
1.0
  0
TEXT
  8
1
  6
CONTINUOUS
 62
     7
  5
10A
 10
91.3345
 20
398.610167
 30
0.0
 40
2.5
  1
5
  7
MONOTXT
 72
     4
 11
92.171083
 21
399.860167
 31
0.0
210
0.0
220
0.0
230
1.0
  0
TEXT
  8
1
  6
CONTINUOUS
 62
     7
  5
10B
 10
104.3935
 20
398.610167
 30
0.0
 40
2.5
  1
6
  7
MONOTXT
 72
     4
 11
105.171
 21
399.860167
 31
0.0
210
0.0
220
0.0
230
1.0
  0
TEXT
  8
1
  6
CONTINUOUS
 62
     7
  5
10C
 10
117.314833
 20
398.610167
 30
0.0
 40
2.5
  1
7
  7
MONOTXT
 72
     4
 11
118.16125
 21
399.860167
 31
0.0
210
0.0
220
0.0
230
1.0
  0
TEXT
  8
1
  6
CONTINUOUS
 62
     7
  5
10D
 10
130.3345
 20
398.610167
 30
0.0
 40
2.5
  1
8
  7
MONOTXT
 72
     4
 11
131.171083
 21
399.860167
 31
0.0
210
0.0
220
0.0
230
1.0
  0
TEXT
  8
1
  6
CONTINUOUS
 62
     7
  5
10E
 10
143.3935
 20
398.610167
 30
0.0
 40
2.5
  1
9
  7
MONOTXT
 72
     4
 11
144.171
 21
399.860167
 31
0.0
210
0.0
220
0.0
230
1.0
  0
TEXT
  8
1
  6
CONTINUOUS
 62
     7
  5
10F
 10
155.625833
 20
398.610167
 30
0.0
 40
2.5
  1
10
  7
MONOTXT
 72
     4
 11
157.16125
 21
399.860167
 31
0.0
210
0.0
220
0.0
230
1.0
  0
TEXT
  8
1
  6
CONTINUOUS
 62
     7
  5
110
 10
169.157333
 20
398.610167
 30
0.0
 40
2.5
  1
11
  7
MONOTXT
 72
     4
 11
170.16125
 21
399.860167
 31
0.0
210
0.0
220
0.0
230
1.0
  0
TEXT
  8
1
  6
CONTINUOUS
 62
     7
  5
111
 10
181.625833
 20
398.610167
 30
0.0
 40
2.5
  1
12
  7
MONOTXT
 72
     4
 11
183.171083
 21
399.860167
 31
0.0
210
0.0
220
0.0
230
1.0
  0
TEXT
  8
1
  6
CONTINUOUS
 62
     7
  5
112
 10
194.625833
 20
398.610167
 30
0.0
 40
2.5
  1
13
  7
MONOTXT
 72
     4
 11
196.171083
 21
399.860167
 31
0.0
210
0.0
220
0.0
230
1.0
  0
TEXT
  8
1
  6
CONTINUOUS
 62
     7
  5
113
 10
207.56675
 20
398.610167
 30
0.0
 40
2.5
  1
14
  7
MONOTXT
 72
     4
 11
209.171083
 21
399.860167
 31
0.0
210
0.0
220
0.0
230
1.0
  0
TEXT
  8
1
  6
CONTINUOUS
 62
     7
  5
114
 10
220.625833
 20
398.610167
 30
0.0
 40
2.5
  1
15
  7
MONOTXT
 72
     4
 11
222.171083
 21
399.860167
 31
0.0
210
0.0
220
0.0
230
1.0
  0
TEXT
  8
1
  6
CONTINUOUS
 62
     7
  5
115
 10
233.684833
 20
398.610167
 30
0.0
 40
2.5
  1
16
  7
MONOTXT
 72
     4
 11
235.171
 21
399.860167
 31
0.0
210
0.0
220
0.0
230
1.0
  0
TEXT
  8
1
  6
CONTINUOUS
 62
     7
  5
116
 10
246.606167
 20
398.610167
 30
0.0
 40
2.5
  1
17
  7
MONOTXT
 72
     4
 11
248.16125
 21
399.860167
 31
0.0
210
0.0
220
0.0
230
1.0
  0
TEXT
  8
1
  6
CONTINUOUS
 62
     7
  5
117
 10
259.625833
 20
398.610167
 30
0.0
 40
2.5
  1
18
  7
MONOTXT
 72
     4
 11
261.171083
 21
399.860167
 31
0.0
210
0.0
220
0.0
230
1.0
  0
TEXT
  8
1
  6
CONTINUOUS
 62
     7
  5
118
 10
272.684833
 20
398.610167
 30
0.0
 40
2.5
  1
19
  7
MONOTXT
 72
     4
 11
274.171
 21
399.860167
 31
0.0
210
0.0
220
0.0
230
1.0
  0
TEXT
  8
1
  6
CONTINUOUS
 62
     7
  5
119
 10
285.094333
 20
398.610167
 30
0.0
 40
2.5
  1
20
  7
MONOTXT
 72
     4
 11
287.16125
 21
399.860167
 31
0.0
210
0.0
220
0.0
230
1.0
  0
LINE
  8
1
  6
CONTINUOUS
 62
     4
  5
11A
 10
49.66125
 20
384.860167
 30
0.0
 11
58.66125
 21
384.860167
 31
0.0
  0
TEXT
  8
1
  6
CONTINUOUS
 62
     7
  5
11B
 10
51.523417
 20
388.610167
 30
0.0
 40
2.5
  1
6.0
  7
MONOTXT
 72
     4
 11
54.161167
 21
389.860167
 31
0.0
210
0.0
220
0.0
230
1.0
  0
TEXT
  8
1
  6
CONTINUOUS
 62
     7
  5
11C
 10
51.523417
 20
378.610167
 30
0.0
 40
2.5
  1
6.5
  7
MONOTXT
 72
     4
 11
54.171
 21
379.860167
 31
0.0
210
0.0
220
0.0
230
1.0
  0
TEXT
  8
1
  6
CONTINUOUS
 62
     7
  5
11D
 10
51.44475
 20
368.610167
 30
0.0
 40
2.5
  1
7.0
  7
MONOTXT
 72
     4
 11
54.16125
 21
369.860167
 31
0.0
210
0.0
220
0.0
230
1.0
  0
TEXT
  8
1
  6
CONTINUOUS
 62
     7
  5
11E
 10
51.44475
 20
358.610167
 30
0.0
 40
2.5
  1
7.5
  7
MONOTXT
 72
     4
 11
54.171083
 21
359.860167
 31
0.0
210
0.0
220
0.0
230
1.0
  0
TEXT
  8
1
  6
CONTINUOUS
 62
     7
  5
11F
 10
51.464417
 20
348.610167
 30
0.0
 40
2.5
  1
8.0
  7
MONOTXT
 72
     4
 11
54.16125
 21
349.860167
 31
0.0
210
0.0
220
0.0
230
1.0
  0
TEXT
  8
1
  6
CONTINUOUS
 62
     7
  5
120
 10
51.464417
 20
338.610167
 30
0.0
 40
2.5
  1
8.5
  7
MONOTXT
 72
     4
 11
54.171083
 21
339.860167
 31
0.0
210
0.0
220
0.0
230
1.0
  0
TEXT
  8
1
  6
CONTINUOUS
 62
     7
  5
121
 10
51.523417
 20
328.610167
 30
0.0
 40
2.5
  1
9.0
  7
MONOTXT
 72
     4
 11
54.161167
 21
329.860167
 31
0.0
210
0.0
220
0.0
230
1.0
  0
TEXT
  8
1
  6
CONTINUOUS
 62
     7
  5
122
 10
51.523417
 20
318.610167
 30
0.0
 40
2.5
  1
9.5
  7
MONOTXT
 72
     4
 11
54.171
 21
319.860167
 31
0.0
210
0.0
220
0.0
230
1.0
  0
TEXT
  8
1
  6
CONTINUOUS
 62
     7
  5
123
 10
50.75575
 20
308.610167
 30
0.0
 40
2.5
  1
10.0
  7
MONOTXT
 72
     4
 11
54.16125
 21
309.860167
 31
0.0
210
0.0
220
0.0
230
1.0
  0
TEXT
  8
1
  6
CONTINUOUS
 62
     7
  5
124
 10
50.75575
 20
298.610167
 30
0.0
 40
2.5
  1
10.5
  7
MONOTXT
 72
     4
 11
54.171083
 21
299.860167
 31
0.0
210
0.0
220
0.0
230
1.0
  0
TEXT
  8
1
  6
CONTINUOUS
 62
     7
  5
125
 10
51.28725
 20
288.610167
 30
0.0
 40
2.5
  1
11.0
  7
MONOTXT
 72
     4
 11
54.16125
 21
289.860167
 31
0.0
210
0.0
220
0.0
230
1.0
  0
TEXT
  8
1
  6
CONTINUOUS
 62
     7
  5
126
 10
51.28725
 20
278.610167
 30
0.0
 40
2.5
  1
11.5
  7
MONOTXT
 72
     4
 11
54.171083
 21
279.860167
 31
0.0
210
0.0
220
0.0
230
1.0
  0
TEXT
  8
1
  6
CONTINUOUS
 62
     7
  5
127
 10
50.75575
 20
268.610167
 30
0.0
 40
2.5
  1
12.0
  7
MONOTXT
 72
     4
 11
54.16125
 21
269.860167
 31
0.0
210
0.0
220
0.0
230
1.0
  0
TEXT
  8
1
  6
CONTINUOUS
 62
     7
  5
128
 10
50.75575
 20
258.610167
 30
0.0
 40
2.5
  1
12.5
  7
MONOTXT
 72
     4
 11
54.171083
 21
259.860167
 31
0.0
210
0.0
220
0.0
230
1.0
  0
TEXT
  8
1
  6
CONTINUOUS
 62
     7
  5
129
 10
50.75575
 20
248.610167
 30
0.0
 40
2.5
  1
13.0
  7
MONOTXT
 72
     4
 11
54.16125
 21
249.860167
 31
0.0
210
0.0
220
0.0
230
1.0
  0
TEXT
  8
1
  6
CONTINUOUS
 62
     7
  5
12A
 10
50.75575
 20
238.610167
 30
0.0
 40
2.5
  1
13.5
  7
MONOTXT
 72
     4
 11
54.171083
 21
239.860167
 31
0.0
210
0.0
220
0.0
230
1.0
  0
TEXT
  8
1
  6
CONTINUOUS
 62
     7
  5
12B
 10
50.696667
 20
228.610167
 30
0.0
 40
2.5
  1
14.0
  7
MONOTXT
 72
     4
 11
54.161167
 21
229.860167
 31
0.0
210
0.0
220
0.0
230
1.0
  0
TEXT
  8
1
  6
CONTINUOUS
 62
     7
  5
12C
 10
50.696667
 20
218.610167
 30
0.0
 40
2.5
  1
14.5
  7
MONOTXT
 72
     4
 11
54.171
 21
219.860167
 31
0.0
210
0.0
220
0.0
230
1.0
  0
TEXT
  8
1
  6
CONTINUOUS
 62
     7
  5
12D
 10
50.75575
 20
208.610167
 30
0.0
 40
2.5
  1
15.0
  7
MONOTXT
 72
     4
 11
54.16125
 21
209.860167
 31
0.0
210
0.0
220
0.0
230
1.0
  0
LINE
  8
1
  6
CONTINUOUS
 62
     4
  5
12E
 10
72.66125
 20
264.860167
 30
0.0
 11
302.66125
 21
264.860167
 31
0.0
  0
LINE
  8
1
  6
CONTINUOUS
 62
     4
  5
12F
 10
72.66125
 20
395.860167
 30
0.0
 11
72.66125
 21
294.860167
 31
0.0
  0
LINE
  8
1
  6
CONTINUOUS
 62
     4
  5
130
 10
49.66125
 20
314.860167
 30
0.0
 11
85.66125
 21
314.860167
 31
0.0
  0
LINE
  8
1
  6
CONTINUOUS
 62
     4
  5
131
 10
85.66125
 20
314.860167
 30
0.0
 11
98.66125
 21
314.860167
 31
0.0
  0
LINE
  8
1
  6
CONTINUOUS
 62
     4
  5
132
 10
85.66125
 20
403.860167
 30
0.0
 11
85.66125
 21
314.860167
 31
0.0
  0
LINE
  8
1
  6
CONTINUOUS
 62
     4
  5
133
 10
85.66125
 20
314.860167
 30
0.0
 11
85.66125
 21
294.860167
 31
0.0
  0
LINE
  8
1
  6
CONTINUOUS
 62
     4
  5
134
 10
85.66125
 20
294.860167
 30
0.0
 11
85.66125
 21
204.860167
 31
0.0
  0
LINE
  8
1
  6
CONTINUOUS
 62
     4
  5
135
 10
49.66125
 20
294.860167
 30
0.0
 11
59.66125
 21
294.860167
 31
0.0
  0
LINE
  8
1
  6
CONTINUOUS
 62
     4
  5
136
 10
49.66125
 20
264.860167
 30
0.0
 11
59.66125
 21
264.860167
 31
0.0
  0
LINE
  8
1
  6
CONTINUOUS
 62
     4
  5
137
 10
59.66125
 20
264.860167
 30
0.0
 11
72.66125
 21
264.860167
 31
0.0
  0
LINE
  8
1
  6
CONTINUOUS
 62
     4
  5
138
 10
72.66125
 20
294.860167
 30
0.0
 11
72.66125
 21
264.860167
 31
0.0
  0
LINE
  8
1
  6
CONTINUOUS
 62
     4
  5
139
 10
72.66125
 20
264.860167
 30
0.0
 11
72.66125
 21
204.860167
 31
0.0
  0
LINE
  8
1
  6
CONTINUOUS
 62
     4
  5
13A
 10
59.66125
 20
294.860167
 30
0.0
 11
72.66125
 21
294.860167
 31
0.0
  0
LINE
  8
1
  6
CONTINUOUS
 62
     4
  5
13B
 10
72.66125
 20
294.860167
 30
0.0
 11
85.66125
 21
294.860167
 31
0.0
  0
LINE
  8
1
  6
CONTINUOUS
 62
     4
  5
13C
 10
98.66125
 20
403.860167
 30
0.0
 11
98.66125
 21
334.860167
 31
0.0
  0
LINE
  8
1
  6
CONTINUOUS
 62
     4
  5
13D
 10
98.66125
 20
334.860167
 30
0.0
 11
98.66125
 21
314.860167
 31
0.0
  0
LINE
  8
1
  6
CONTINUOUS
 62
     4
  5
13E
 10
49.66125
 20
334.860167
 30
0.0
 11
98.66125
 21
334.860167
 31
0.0
  0
LINE
  8
1
  6
CONTINUOUS
 62
     4
  5
13F
 10
98.66125
 20
334.860167
 30
0.0
 11
111.66125
 21
334.860167
 31
0.0
  0
LINE
  8
1
  6
CONTINUOUS
 62
     4
  5
140
 10
111.66125
 20
403.860167
 30
0.0
 11
111.66125
 21
354.860167
 31
0.0
  0
LINE
  8
1
  6
CONTINUOUS
 62
     4
  5
141
 10
111.66125
 20
354.860167
 30
0.0
 11
111.66125
 21
334.860167
 31
0.0
  0
LINE
  8
1
  6
CONTINUOUS
 62
     4
  5
142
 10
49.66125
 20
354.860167
 30
0.0
 11
111.66125
 21
354.860167
 31
0.0
  0
LINE
  8
1
  6
CONTINUOUS
 62
     4
  5
143
 10
111.66125
 20
354.860167
 30
0.0
 11
124.66125
 21
354.860167
 31
0.0
  0
LINE
  8
1
  6
CONTINUOUS
 62
     4
  5
144
 10
124.66125
 20
403.860167
 30
0.0
 11
124.66125
 21
364.860167
 31
0.0
  0
LINE
  8
1
  6
CONTINUOUS
 62
     4
  5
145
 10
124.66125
 20
364.860167
 30
0.0
 11
124.66125
 21
354.860167
 31
0.0
  0
LINE
  8
1
  6
CONTINUOUS
 62
     4
  5
146
 10
49.66125
 20
364.860167
 30
0.0
 11
124.66125
 21
364.860167
 31
0.0
  0
LINE
  8
1
  6
CONTINUOUS
 62
     4
  5
147
 10
124.66125
 20
364.860167
 30
0.0
 11
137.66125
 21
364.860167
 31
0.0
  0
LINE
  8
1
  6
CONTINUOUS
 62
     4
  5
148
 10
137.66125
 20
403.860167
 30
0.0
 11
137.66125
 21
384.860167
 31
0.0
  0
LINE
  8
1
  6
CONTINUOUS
 62
     4
  5
149
 10
137.66125
 20
384.860167
 30
0.0
 11
137.66125
 21
364.860167
 31
0.0
  0
LINE
  8
1
  6
CONTINUOUS
 62
     4
  5
14A
 10
58.66125
 20
384.860167
 30
0.0
 11
137.66125
 21
384.860167
 31
0.0
  0
LINE
  8
1
  6
CONTINUOUS
 62
     4
  5
14B
 10
137.66125
 20
384.860167
 30
0.0
 11
150.66125
 21
384.860167
 31
0.0
  0
LINE
  8
1
  6
CONTINUOUS
 62
     4
  5
14C
 10
150.66125
 20
403.860167
 30
0.0
 11
150.66125
 21
394.860167
 31
0.0
  0
LINE
  8
1
  6
CONTINUOUS
 62
     4
  5
14D
 10
150.66125
 20
394.860167
 30
0.0
 11
150.66125
 21
384.860167
 31
0.0
  0
LINE
  8
1
  6
CONTINUOUS
 62
     4
  5
14E
 10
280.66125
 20
403.860167
 30
0.0
 11
280.66125
 21
394.860167
 31
0.0
  0
LINE
  8
1
  6
CONTINUOUS
 62
     4
  5
14F
 10
280.66125
 20
394.860167
 30
0.0
 11
280.66125
 21
384.860167
 31
0.0
  0
LINE
  8
1
  6
CONTINUOUS
 62
     4
  5
150
 10
150.66125
 20
384.860167
 30
0.0
 11
254.66125
 21
384.860167
 31
0.0
  0
LINE
  8
1
  6
CONTINUOUS
 62
     4
  5
151
 10
254.66125
 20
384.860167
 30
0.0
 11
280.66125
 21
384.860167
 31
0.0
  0
LINE
  8
1
  6
CONTINUOUS
 62
     4
  5
152
 10
280.66125
 20
384.860167
 30
0.0
 11
302.66125
 21
384.860167
 31
0.0
  0
LINE
  8
1
  6
CONTINUOUS
 62
     4
  5
153
 10
254.66125
 20
403.860167
 30
0.0
 11
254.66125
 21
384.860167
 31
0.0
  0
LINE
  8
1
  6
CONTINUOUS
 62
     4
  5
154
 10
254.66125
 20
384.860167
 30
0.0
 11
254.66125
 21
374.860167
 31
0.0
  0
LINE
  8
1
  6
CONTINUOUS
 62
     4
  5
155
 10
49.66125
 20
374.860167
 30
0.0
 11
241.66125
 21
374.860167
 31
0.0
  0
LINE
  8
1
  6
CONTINUOUS
 62
     4
  5
156
 10
241.66125
 20
374.860167
 30
0.0
 11
254.66125
 21
374.860167
 31
0.0
  0
LINE
  8
1
  6
CONTINUOUS
 62
     4
  5
157
 10
254.66125
 20
374.860167
 30
0.0
 11
302.66125
 21
374.860167
 31
0.0
  0
LINE
  8
1
  6
CONTINUOUS
 62
     4
  5
158
 10
241.66125
 20
403.860167
 30
0.0
 11
241.66125
 21
374.860167
 31
0.0
  0
LINE
  8
1
  6
CONTINUOUS
 62
     4
  5
159
 10
241.66125
 20
374.860167
 30
0.0
 11
241.66125
 21
364.860167
 31
0.0
  0
LINE
  8
1
  6
CONTINUOUS
 62
     4
  5
15A
 10
137.66125
 20
364.860167
 30
0.0
 11
215.66125
 21
364.860167
 31
0.0
  0
LINE
  8
1
  6
CONTINUOUS
 62
     4
  5
15B
 10
215.66125
 20
364.860167
 30
0.0
 11
241.66125
 21
364.860167
 31
0.0
  0
LINE
  8
1
  6
CONTINUOUS
 62
     4
  5
15C
 10
241.66125
 20
364.860167
 30
0.0
 11
302.66125
 21
364.860167
 31
0.0
  0
LINE
  8
1
  6
CONTINUOUS
 62
     4
  5
15D
 10
215.66125
 20
403.860167
 30
0.0
 11
215.66125
 21
364.860167
 31
0.0
  0
LINE
  8
1
  6
CONTINUOUS
 62
     4
  5
15E
 10
215.66125
 20
364.860167
 30
0.0
 11
215.66125
 21
354.860167
 31
0.0
  0
LINE
  8
1
  6
CONTINUOUS
 62
     4
  5
15F
 10
124.66125
 20
354.860167
 30
0.0
 11
202.66125
 21
354.860167
 31
0.0
  0
LINE
  8
1
  6
CONTINUOUS
 62
     4
  5
160
 10
202.66125
 20
354.860167
 30
0.0
 11
215.66125
 21
354.860167
 31
0.0
  0
LINE
  8
1
  6
CONTINUOUS
 62
     4
  5
161
 10
215.66125
 20
354.860167
 30
0.0
 11
302.66125
 21
354.860167
 31
0.0
  0
LINE
  8
1
  6
CONTINUOUS
 62
     4
  5
162
 10
202.66125
 20
403.860167
 30
0.0
 11
202.66125
 21
354.860167
 31
0.0
  0
LINE
  8
1
  6
CONTINUOUS
 62
     4
  5
163
 10
202.66125
 20
354.860167
 30
0.0
 11
202.66125
 21
344.860167
 31
0.0
  0
LINE
  8
1
  6
CONTINUOUS
 62
     4
  5
164
 10
49.66125
 20
344.860167
 30
0.0
 11
189.66125
 21
344.860167
 31
0.0
  0
LINE
  8
1
  6
CONTINUOUS
 62
     4
  5
165
 10
189.66125
 20
344.860167
 30
0.0
 11
202.66125
 21
344.860167
 31
0.0
  0
LINE
  8
1
  6
CONTINUOUS
 62
     4
  5
166
 10
202.66125
 20
344.860167
 30
0.0
 11
302.66125
 21
344.860167
 31
0.0
  0
LINE
  8
1
  6
CONTINUOUS
 62
     4
  5
167
 10
189.66125
 20
403.860167
 30
0.0
 11
189.66125
 21
344.860167
 31
0.0
  0
LINE
  8
1
  6
CONTINUOUS
 62
     4
  5
168
 10
189.66125
 20
344.860167
 30
0.0
 11
189.66125
 21
334.860167
 31
0.0
  0
LINE
  8
1
  6
CONTINUOUS
 62
     4
  5
169
 10
111.66125
 20
334.860167
 30
0.0
 11
176.66125
 21
334.860167
 31
0.0
  0
LINE
  8
1
  6
CONTINUOUS
 62
     4
  5
16A
 10
176.66125
 20
334.860167
 30
0.0
 11
189.66125
 21
334.860167
 31
0.0
  0
LINE
  8
1
  6
CONTINUOUS
 62
     4
  5
16B
 10
189.66125
 20
334.860167
 30
0.0
 11
302.66125
 21
334.860167
 31
0.0
  0
LINE
  8
1
  6
CONTINUOUS
 62
     4
  5
16C
 10
176.66125
 20
403.860167
 30
0.0
 11
176.66125
 21
334.860167
 31
0.0
  0
LINE
  8
1
  6
CONTINUOUS
 62
     4
  5
16D
 10
176.66125
 20
334.860167
 30
0.0
 11
176.66125
 21
314.860167
 31
0.0
  0
LINE
  8
1
  6
CONTINUOUS
 62
     4
  5
16E
 10
98.66125
 20
314.860167
 30
0.0
 11
163.66125
 21
314.860167
 31
0.0
  0
LINE
  8
1
  6
CONTINUOUS
 62
     4
  5
16F
 10
163.66125
 20
314.860167
 30
0.0
 11
176.66125
 21
314.860167
 31
0.0
  0
LINE
  8
1
  6
CONTINUOUS
 62
     4
  5
170
 10
163.66125
 20
403.860167
 30
0.0
 11
163.66125
 21
314.860167
 31
0.0
  0
LINE
  8
1
  6
CONTINUOUS
 62
     4
  5
171
 10
163.66125
 20
314.860167
 30
0.0
 11
163.66125
 21
304.860167
 31
0.0
  0
LINE
  8
1
  6
CONTINUOUS
 62
     4
  5
172
 10
49.66125
 20
304.860167
 30
0.0
 11
150.66125
 21
304.860167
 31
0.0
  0
LINE
  8
1
  6
CONTINUOUS
 62
     4
  5
173
 10
150.66125
 20
304.860167
 30
0.0
 11
163.66125
 21
304.860167
 31
0.0
  0
LINE
  8
1
  6
CONTINUOUS
 62
     4
  5
174
 10
150.66125
 20
384.860167
 30
0.0
 11
150.66125
 21
304.860167
 31
0.0
  0
LINE
  8
1
  6
CONTINUOUS
 62
     4
  5
175
 10
150.66125
 20
304.860167
 30
0.0
 11
150.66125
 21
294.860167
 31
0.0
  0
LINE
  8
1
  6
CONTINUOUS
 62
     4
  5
176
 10
150.66125
 20
294.860167
 30
0.0
 11
150.66125
 21
204.860167
 31
0.0
  0
LINE
  8
1
  6
CONTINUOUS
 62
     4
  5
177
 10
85.66125
 20
294.860167
 30
0.0
 11
137.66125
 21
294.860167
 31
0.0
  0
LINE
  8
1
  6
CONTINUOUS
 62
     4
  5
178
 10
137.66125
 20
294.860167
 30
0.0
 11
150.66125
 21
294.860167
 31
0.0
  0
LINE
  8
1
  6
CONTINUOUS
 62
     4
  5
179
 10
137.66125
 20
364.860167
 30
0.0
 11
137.66125
 21
294.860167
 31
0.0
  0
LINE
  8
1
  6
CONTINUOUS
 62
     4
  5
17A
 10
137.66125
 20
294.860167
 30
0.0
 11
137.66125
 21
274.860167
 31
0.0
  0
LINE
  8
1
  6
CONTINUOUS
 62
     4
  5
17B
 10
137.66125
 20
274.860167
 30
0.0
 11
137.66125
 21
204.860167
 31
0.0
  0
LINE
  8
1
  6
CONTINUOUS
 62
     4
  5
17C
 10
49.66125
 20
274.860167
 30
0.0
 11
124.66125
 21
274.860167
 31
0.0
  0
LINE
  8
1
  6
CONTINUOUS
 62
     4
  5
17D
 10
124.66125
 20
274.860167
 30
0.0
 11
137.66125
 21
274.860167
 31
0.0
  0
LINE
  8
1
  6
CONTINUOUS
 62
     4
  5
17E
 10
124.66125
 20
354.860167
 30
0.0
 11
124.66125
 21
274.860167
 31
0.0
  0
LINE
  8
1
  6
CONTINUOUS
 62
     4
  5
17F
 10
124.66125
 20
274.860167
 30
0.0
 11
124.66125
 21
254.860167
 31
0.0
  0
LINE
  8
1
  6
CONTINUOUS
 62
     4
  5
180
 10
124.66125
 20
254.860167
 30
0.0
 11
124.66125
 21
204.860167
 31
0.0
  0
LINE
  8
1
  6
CONTINUOUS
 62
     4
  5
181
 10
49.66125
 20
254.860167
 30
0.0
 11
111.66125
 21
254.860167
 31
0.0
  0
LINE
  8
1
  6
CONTINUOUS
 62
     4
  5
182
 10
111.66125
 20
254.860167
 30
0.0
 11
124.66125
 21
254.860167
 31
0.0
  0
LINE
  8
1
  6
CONTINUOUS
 62
     4
  5
183
 10
111.66125
 20
334.860167
 30
0.0
 11
111.66125
 21
254.860167
 31
0.0
  0
LINE
  8
1
  6
CONTINUOUS
 62
     4
  5
184
 10
111.66125
 20
254.860167
 30
0.0
 11
111.66125
 21
234.860167
 31
0.0
  0
LINE
  8
1
  6
CONTINUOUS
 62
     4
  5
185
 10
111.66125
 20
234.860167
 30
0.0
 11
111.66125
 21
204.860167
 31
0.0
  0
LINE
  8
1
  6
CONTINUOUS
 62
     4
  5
186
 10
49.66125
 20
234.860167
 30
0.0
 11
98.66125
 21
234.860167
 31
0.0
  0
LINE
  8
1
  6
CONTINUOUS
 62
     4
  5
187
 10
98.66125
 20
234.860167
 30
0.0
 11
111.66125
 21
234.860167
 31
0.0
  0
LINE
  8
1
  6
CONTINUOUS
 62
     4
  5
188
 10
98.66125
 20
314.860167
 30
0.0
 11
98.66125
 21
234.860167
 31
0.0
  0
LINE
  8
1
  6
CONTINUOUS
 62
     4
  5
189
 10
98.66125
 20
234.860167
 30
0.0
 11
98.66125
 21
204.860167
 31
0.0
  0
LINE
  8
1
  6
CONTINUOUS
 62
     4
  5
18A
 10
293.66125
 20
334.860167
 30
0.0
 11
293.66125
 21
403.860167
 31
0.0
  0
LINE
  8
1
  6
CONTINUOUS
 62
     4
  5
18B
 10
293.66125
 20
204.860167
 30
0.0
 11
293.66125
 21
324.860167
 31
0.0
  0
LINE
  8
1
  6
CONTINUOUS
 62
     4
  5
18C
 10
293.66125
 20
324.860167
 30
0.0
 11
293.66125
 21
334.860167
 31
0.0
  0
LINE
  8
1
  6
CONTINUOUS
 62
     4
  5
18D
 10
49.66125
 20
324.860167
 30
0.0
 11
280.66125
 21
324.860167
 31
0.0
  0
LINE
  8
1
  6
CONTINUOUS
 62
     4
  5
18E
 10
280.66125
 20
324.860167
 30
0.0
 11
293.66125
 21
324.860167
 31
0.0
  0
LINE
  8
1
  6
CONTINUOUS
 62
     4
  5
18F
 10
280.66125
 20
384.860167
 30
0.0
 11
280.66125
 21
324.860167
 31
0.0
  0
LINE
  8
1
  6
CONTINUOUS
 62
     4
  5
190
 10
280.66125
 20
324.860167
 30
0.0
 11
280.66125
 21
314.860167
 31
0.0
  0
LINE
  8
1
  6
CONTINUOUS
 62
     4
  5
191
 10
280.66125
 20
314.860167
 30
0.0
 11
280.66125
 21
204.860167
 31
0.0
  0
LINE
  8
1
  6
CONTINUOUS
 62
     4
  5
192
 10
176.66125
 20
314.860167
 30
0.0
 11
267.66125
 21
314.860167
 31
0.0
  0
LINE
  8
1
  6
CONTINUOUS
 62
     4
  5
193
 10
267.66125
 20
314.860167
 30
0.0
 11
280.66125
 21
314.860167
 31
0.0
  0
LINE
  8
1
  6
CONTINUOUS
 62
     4
  5
194
 10
267.66125
 20
403.860167
 30
0.0
 11
267.66125
 21
314.860167
 31
0.0
  0
LINE
  8
1
  6
CONTINUOUS
 62
     4
  5
195
 10
267.66125
 20
314.860167
 30
0.0
 11
267.66125
 21
304.860167
 31
0.0
  0
LINE
  8
1
  6
CONTINUOUS
 62
     4
  5
196
 10
267.66125
 20
304.860167
 30
0.0
 11
267.66125
 21
204.860167
 31
0.0
  0
LINE
  8
1
  6
CONTINUOUS
 62
     4
  5
197
 10
163.66125
 20
304.860167
 30
0.0
 11
254.66125
 21
304.860167
 31
0.0
  0
LINE
  8
1
  6
CONTINUOUS
 62
     4
  5
198
 10
254.66125
 20
304.860167
 30
0.0
 11
267.66125
 21
304.860167
 31
0.0
  0
LINE
  8
1
  6
CONTINUOUS
 62
     4
  5
199
 10
267.66125
 20
304.860167
 30
0.0
 11
302.66125
 21
304.860167
 31
0.0
  0
LINE
  8
1
  6
CONTINUOUS
 62
     4
  5
19A
 10
254.66125
 20
374.860167
 30
0.0
 11
254.66125
 21
304.860167
 31
0.0
  0
LINE
  8
1
  6
CONTINUOUS
 62
     4
  5
19B
 10
254.66125
 20
304.860167
 30
0.0
 11
254.66125
 21
294.860167
 31
0.0
  0
LINE
  8
1
  6
CONTINUOUS
 62
     4
  5
19C
 10
254.66125
 20
294.860167
 30
0.0
 11
254.66125
 21
204.860167
 31
0.0
  0
LINE
  8
1
  6
CONTINUOUS
 62
     4
  5
19D
 10
150.66125
 20
294.860167
 30
0.0
 11
241.66125
 21
294.860167
 31
0.0
  0
LINE
  8
1
  6
CONTINUOUS
 62
     4
  5
19E
 10
241.66125
 20
294.860167
 30
0.0
 11
254.66125
 21
294.860167
 31
0.0
  0
LINE
  8
1
  6
CONTINUOUS
 62
     4
  5
19F
 10
254.66125
 20
294.860167
 30
0.0
 11
302.66125
 21
294.860167
 31
0.0
  0
LINE
  8
1
  6
CONTINUOUS
 62
     4
  5
1A0
 10
241.66125
 20
364.860167
 30
0.0
 11
241.66125
 21
294.860167
 31
0.0
  0
LINE
  8
1
  6
CONTINUOUS
 62
     4
  5
1A1
 10
241.66125
 20
294.860167
 30
0.0
 11
241.66125
 21
284.860167
 31
0.0
  0
LINE
  8
1
  6
CONTINUOUS
 62
     4
  5
1A2
 10
241.66125
 20
284.860167
 30
0.0
 11
241.66125
 21
204.860167
 31
0.0
  0
LINE
  8
1
  6
CONTINUOUS
 62
     4
  5
1A3
 10
49.66125
 20
284.860167
 30
0.0
 11
228.66125
 21
284.860167
 31
0.0
  0
LINE
  8
1
  6
CONTINUOUS
 62
     4
  5
1A4
 10
228.66125
 20
284.860167
 30
0.0
 11
241.66125
 21
284.860167
 31
0.0
  0
LINE
  8
1
  6
CONTINUOUS
 62
     4
  5
1A5
 10
241.66125
 20
284.860167
 30
0.0
 11
302.66125
 21
284.860167
 31
0.0
  0
LINE
  8
1
  6
CONTINUOUS
 62
     4
  5
1A6
 10
228.66125
 20
403.860167
 30
0.0
 11
228.66125
 21
284.860167
 31
0.0
  0
LINE
  8
1
  6
CONTINUOUS
 62
     4
  5
1A7
 10
228.66125
 20
284.860167
 30
0.0
 11
228.66125
 21
274.860167
 31
0.0
  0
LINE
  8
1
  6
CONTINUOUS
 62
     4
  5
1A8
 10
228.66125
 20
274.860167
 30
0.0
 11
228.66125
 21
204.860167
 31
0.0
  0
LINE
  8
1
  6
CONTINUOUS
 62
     4
  5
1A9
 10
137.66125
 20
274.860167
 30
0.0
 11
215.66125
 21
274.860167
 31
0.0
  0
LINE
  8
1
  6
CONTINUOUS
 62
     4
  5
1AA
 10
215.66125
 20
274.860167
 30
0.0
 11
228.66125
 21
274.860167
 31
0.0
  0
LINE
  8
1
  6
CONTINUOUS
 62
     4
  5
1AB
 10
228.66125
 20
274.860167
 30
0.0
 11
302.66125
 21
274.860167
 31
0.0
  0
LINE
  8
1
  6
CONTINUOUS
 62
     4
  5
1AC
 10
215.66125
 20
254.860167
 30
0.0
 11
215.66125
 21
204.860167
 31
0.0
  0
LINE
  8
1
  6
CONTINUOUS
 62
     4
  5
1AD
 10
215.66125
 20
354.860167
 30
0.0
 11
215.66125
 21
274.860167
 31
0.0
  0
LINE
  8
1
  6
CONTINUOUS
 62
     4
  5
1AE
 10
215.66125
 20
274.860167
 30
0.0
 11
215.66125
 21
254.860167
 31
0.0
  0
LINE
  8
1
  6
CONTINUOUS
 62
     4
  5
1AF
 10
124.66125
 20
254.860167
 30
0.0
 11
202.66125
 21
254.860167
 31
0.0
  0
LINE
  8
1
  6
CONTINUOUS
 62
     4
  5
1B0
 10
202.66125
 20
254.860167
 30
0.0
 11
215.66125
 21
254.860167
 31
0.0
  0
LINE
  8
1
  6
CONTINUOUS
 62
     4
  5
1B1
 10
215.66125
 20
254.860167
 30
0.0
 11
302.66125
 21
254.860167
 31
0.0
  0
LINE
  8
1
  6
CONTINUOUS
 62
     4
  5
1B2
 10
202.66125
 20
344.860167
 30
0.0
 11
202.66125
 21
254.860167
 31
0.0
  0
LINE
  8
1
  6
CONTINUOUS
 62
     4
  5
1B3
 10
202.66125
 20
254.860167
 30
0.0
 11
202.66125
 21
234.860167
 31
0.0
  0
LINE
  8
1
  6
CONTINUOUS
 62
     4
  5
1B4
 10
202.66125
 20
234.860167
 30
0.0
 11
202.66125
 21
204.860167
 31
0.0
  0
LINE
  8
1
  6
CONTINUOUS
 62
     4
  5
1B5
 10
111.66125
 20
234.860167
 30
0.0
 11
189.66125
 21
234.860167
 31
0.0
  0
LINE
  8
1
  6
CONTINUOUS
 62
     4
  5
1B6
 10
189.66125
 20
234.860167
 30
0.0
 11
202.66125
 21
234.860167
 31
0.0
  0
LINE
  8
1
  6
CONTINUOUS
 62
     4
  5
1B7
 10
202.66125
 20
234.860167
 30
0.0
 11
302.66125
 21
234.860167
 31
0.0
  0
LINE
  8
1
  6
CONTINUOUS
 62
     4
  5
1B8
 10
189.66125
 20
224.860167
 30
0.0
 11
189.66125
 21
204.860167
 31
0.0
  0
LINE
  8
1
  6
CONTINUOUS
 62
     4
  5
1B9
 10
189.66125
 20
334.860167
 30
0.0
 11
189.66125
 21
234.860167
 31
0.0
  0
LINE
  8
1
  6
CONTINUOUS
 62
     4
  5
1BA
 10
189.66125
 20
234.860167
 30
0.0
 11
189.66125
 21
224.860167
 31
0.0
  0
LINE
  8
1
  6
CONTINUOUS
 62
     4
  5
1BB
 10
49.66125
 20
224.860167
 30
0.0
 11
176.66125
 21
224.860167
 31
0.0
  0
LINE
  8
1
  6
CONTINUOUS
 62
     4
  5
1BC
 10
176.66125
 20
224.860167
 30
0.0
 11
189.66125
 21
224.860167
 31
0.0
  0
LINE
  8
1
  6
CONTINUOUS
 62
     4
  5
1BD
 10
189.66125
 20
224.860167
 30
0.0
 11
302.66125
 21
224.860167
 31
0.0
  0
LINE
  8
1
  6
CONTINUOUS
 62
     4
  5
1BE
 10
176.66125
 20
314.860167
 30
0.0
 11
176.66125
 21
224.860167
 31
0.0
  0
LINE
  8
1
  6
CONTINUOUS
 62
     4
  5
1BF
 10
176.66125
 20
224.860167
 30
0.0
 11
176.66125
 21
214.860167
 31
0.0
  0
LINE
  8
1
  6
CONTINUOUS
 62
     4
  5
1C0
 10
176.66125
 20
214.860167
 30
0.0
 11
176.66125
 21
204.860167
 31
0.0
  0
LINE
  8
1
  6
CONTINUOUS
 62
     4
  5
1C1
 10
49.66125
 20
214.860167
 30
0.0
 11
163.66125
 21
214.860167
 31
0.0
  0
LINE
  8
1
  6
CONTINUOUS
 62
     4
  5
1C2
 10
163.66125
 20
304.860167
 30
0.0
 11
163.66125
 21
214.860167
 31
0.0
  0
LINE
  8
1
  6
CONTINUOUS
 62
     4
  5
1C3
 10
163.66125
 20
214.860167
 30
0.0
 11
163.66125
 21
204.860167
 31
0.0
  0
LINE
  8
1
  6
CONTINUOUS
 62
     4
  5
1C4
 10
163.66125
 20
214.860167
 30
0.0
 11
176.66125
 21
214.860167
 31
0.0
  0
LINE
  8
1
  6
CONTINUOUS
 62
     4
  5
1C5
 10
176.66125
 20
214.860167
 30
0.0
 11
302.66125
 21
214.860167
 31
0.0
  0
LINE
  8
1
  6
CONTINUOUS
 62
     4
  5
1C6
 10
317.66125
 20
204.860167
 30
0.0
 11
317.66125
 21
412.860167
 31
0.0
  0
LINE
  8
1
  6
CONTINUOUS
 62
     4
  5
1C7
 10
318.66125
 20
203.860167
 30
0.0
 11
318.66125
 21
413.860167
 31
0.0
  0
LINE
  8
1
  6
CONTINUOUS
 62
     4
  5
1C8
 10
280.66125
 20
314.860167
 30
0.0
 11
294.66125
 21
314.860167
 31
0.0
  0
LINE
  8
1
  6
CONTINUOUS
 62
     4
  5
1C9
 10
294.66125
 20
314.860167
 30
0.0
 11
302.66125
 21
314.860167
 31
0.0
  0
LINE
  8
1
  6
CONTINUOUS
 62
     4
  5
1CA
 10
293.66125
 20
324.860167
 30
0.0
 11
302.66125
 21
324.860167
 31
0.0
  0
TEXT
  8
1
  6
CONTINUOUS
 62
     7
  5
1CB
 10
294.982
 20
308.589583
 30
0.0
 40
2.5
  1
10.0
  7
MONOTXT
 72
     4
 11
298.3875
 21
309.839583
 31
0.0
210
0.0
220
0.0
230
1.0
  0
TEXT
  8
1
  6
CONTINUOUS
 62
     7
  5
1CC
 10
295.749667
 20
388.589583
 30
0.0
 40
2.5
  1
6.0
  7
MONOTXT
 72
     4
 11
298.387417
 21
389.839583
 31
0.0
210
0.0
220
0.0
230
1.0
  0
TEXT
  8
1
  6
CONTINUOUS
 62
     7
  5
1CD
 10
295.749667
 20
378.589583
 30
0.0
 40
2.5
  1
6.5
  7
MONOTXT
 72
     4
 11
298.39725
 21
379.839583
 31
0.0
210
0.0
220
0.0
230
1.0
  0
TEXT
  8
1
  6
CONTINUOUS
 62
     7
  5
1CE
 10
295.671
 20
368.589583
 30
0.0
 40
2.5
  1
7.0
  7
MONOTXT
 72
     4
 11
298.3875
 21
369.839583
 31
0.0
210
0.0
220
0.0
230
1.0
  0
TEXT
  8
1
  6
CONTINUOUS
 62
     7
  5
1CF
 10
295.671
 20
358.589583
 30
0.0
 40
2.5
  1
7.5
  7
MONOTXT
 72
     4
 11
298.397333
 21
359.839583
 31
0.0
210
0.0
220
0.0
230
1.0
  0
TEXT
  8
1
  6
CONTINUOUS
 62
     7
  5
1D0
 10
295.690667
 20
348.589583
 30
0.0
 40
2.5
  1
8.0
  7
MONOTXT
 72
     4
 11
298.3875
 21
349.839583
 31
0.0
210
0.0
220
0.0
230
1.0
  0
TEXT
  8
1
  6
CONTINUOUS
 62
     7
  5
1D1
 10
295.690667
 20
338.589583
 30
0.0
 40
2.5
  1
8.5
  7
MONOTXT
 72
     4
 11
298.397333
 21
339.839583
 31
0.0
210
0.0
220
0.0
230
1.0
  0
TEXT
  8
1
  6
CONTINUOUS
 62
     7
  5
1D2
 10
295.749667
 20
328.589583
 30
0.0
 40
2.5
  1
9.0
  7
MONOTXT
 72
     4
 11
298.387417
 21
329.839583
 31
0.0
210
0.0
220
0.0
230
1.0
  0
TEXT
  8
1
  6
CONTINUOUS
 62
     7
  5
1D3
 10
295.749667
 20
318.589583
 30
0.0
 40
2.5
  1
9.5
  7
MONOTXT
 72
     4
 11
298.39725
 21
319.839583
 31
0.0
210
0.0
220
0.0
230
1.0
  0
TEXT
  8
1
  6
CONTINUOUS
 62
     7
  5
1D4
 10
294.982
 20
298.589583
 30
0.0
 40
2.5
  1
10.5
  7
MONOTXT
 72
     4
 11
298.397333
 21
299.839583
 31
0.0
210
0.0
220
0.0
230
1.0
  0
TEXT
  8
1
  6
CONTINUOUS
 62
     7
  5
1D5
 10
295.5135
 20
288.589583
 30
0.0
 40
2.5
  1
11.0
  7
MONOTXT
 72
     4
 11
298.3875
 21
289.839583
 31
0.0
210
0.0
220
0.0
230
1.0
  0
TEXT
  8
1
  6
CONTINUOUS
 62
     7
  5
1D6
 10
295.5135
 20
278.589583
 30
0.0
 40
2.5
  1
11.5
  7
MONOTXT
 72
     4
 11
298.397333
 21
279.839583
 31
0.0
210
0.0
220
0.0
230
1.0
  0
TEXT
  8
1
  6
CONTINUOUS
 62
     7
  5
1D7
 10
294.982
 20
268.589583
 30
0.0
 40
2.5
  1
12.0
  7
MONOTXT
 72
     4
 11
298.3875
 21
269.839583
 31
0.0
210
0.0
220
0.0
230
1.0
  0
TEXT
  8
1
  6
CONTINUOUS
 62
     7
  5
1D8
 10
294.982
 20
258.589583
 30
0.0
 40
2.5
  1
12.5
  7
MONOTXT
 72
     4
 11
298.397333
 21
259.839583
 31
0.0
210
0.0
220
0.0
230
1.0
  0
TEXT
  8
1
  6
CONTINUOUS
 62
     7
  5
1D9
 10
294.982
 20
248.589583
 30
0.0
 40
2.5
  1
13.0
  7
MONOTXT
 72
     4
 11
298.3875
 21
249.839583
 31
0.0
210
0.0
220
0.0
230
1.0
  0
TEXT
  8
1
  6
CONTINUOUS
 62
     7
  5
1DA
 10
294.982
 20
238.589583
 30
0.0
 40
2.5
  1
13.5
  7
MONOTXT
 72
     4
 11
298.397333
 21
239.839583
 31
0.0
210
0.0
220
0.0
230
1.0
  0
TEXT
  8
1
  6
CONTINUOUS
 62
     7
  5
1DB
 10
294.922917
 20
228.589583
 30
0.0
 40
2.5
  1
14.0
  7
MONOTXT
 72
     4
 11
298.387417
 21
229.839583
 31
0.0
210
0.0
220
0.0
230
1.0
  0
TEXT
  8
1
  6
CONTINUOUS
 62
     7
  5
1DC
 10
294.922917
 20
218.589583
 30
0.0
 40
2.5
  1
14.5
  7
MONOTXT
 72
     4
 11
298.39725
 21
219.839583
 31
0.0
210
0.0
220
0.0
230
1.0
  0
TEXT
  8
1
  6
CONTINUOUS
 62
     7
  5
1DD
 10
294.982
 20
208.589583
 30
0.0
 40
2.5
  1
15.0
  7
MONOTXT
 72
     4
 11
298.3875
 21
209.839583
 31
0.0
210
0.0
220
0.0
230
1.0
  0
TEXT
  8
1
  6
CONTINUOUS
 62
     7
  5
1DE
 10
134.010167
 20
406.33275
 30
0.0
 40
3.0
  1
TOTAL SQUARE FEET OF SIGN AREA
  7
MONOTXT
 72
     4
 11
176.766
 21
407.83275
 31
0.0
210
0.0
220
0.0
230
1.0
  0
TEXT
  8
1
  6
CONTINUOUS
 62
     7
  5
1DF
 10
41.809333
 20
255.736083
 30
0.0
 40
3.0
  1
DIMENSION FROM GROUND TO CENTER
 50
90.0
  7
MONOTXT
 72
     4
 11
40.309333
 21
300.393583
 31
0.0
210
0.0
220
0.0
230
1.0
  0
TEXT
  8
1
  6
CONTINUOUS
 62
     7
  5
1E0
 10
46.809333
 20
255.03925
 30
0.0
 40
3.0
  1
OF PRESSURE ON SIGN ('CP" IN FEET)
 50
90.0
  7
MONOTXT
 72
     4
 11
45.309333
 21
300.38175
 31
0.0
210
0.0
220
0.0
230
1.0
  0
TEXT
  8
1
  6
CONTINUOUS
 62
     7
  5
1E1
 10
308.919
 20
255.99625
 30
0.0
 40
3.0
  1
DIMENSION FROM GROUND TO CENTER
 50
90.0
  7
MONOTXT
 72
     4
 11
307.419
 21
300.65375
 31
0.0
210
0.0
220
0.0
230
1.0
  0
TEXT
  8
1
  6
CONTINUOUS
 62
     7
  5
1E2
 10
313.919
 20
255.299417
 30
0.0
 40
3.0
  1
OF PRESSURE ON SIGN ('CP" IN FEET)
 50
90.0
  7
MONOTXT
 72
     4
 11
312.419
 21
300.641917
 31
0.0
210
0.0
220
0.0
230
1.0
  0
TEXT
  8
1
  6
CONTINUOUS
 62
     7
  5
1E3
 10
112.415583
 20
419.856333
 30
0.0
 40
3.5
  1
SIGN POST SECTION REQUIRED (ONE SUPPORT)
  7
MONOTXT
 72
     4
 11
177.055333
 21
421.606333
 31
0.0
210
0.0
220
0.0
230
1.0
  0
LINE
  8
1
  6
CONTINUOUS
 62
     7
  5
1E4
 10
110.4645
 20
417.498083
 30
0.0
 11
244.066583
 21
417.498083
 31
0.0
  0
LINE
  8
1
  6
CONTINUOUS
 62
    30
  5
1E5
 10
53.628333
 20
140.10225
 30
0.0
 11
75.128333
 21
140.10225
 31
0.0
  0
LINE
  8
1
  6
CONTINUOUS
 62
    30
  5
1E6
 10
58.50075
 20
138.10225
 30
0.0
 11
70.255917
 21
138.10225
 31
0.0
  0
LINE
  8
1
  6
CONTINUOUS
 62
    30
  5
1E7
 10
84.532667
 20
118.60225
 30
0.0
 11
92.378333
 21
118.60225
 31
0.0
  0
LINE
  8
1
  6
CONTINUOUS
 62
    30
  5
1E8
 10
44.224083
 20
118.60225
 30
0.0
 11
36.378333
 21
118.60225
 31
0.0
  0
LINE
  8
1
  6
CONTINUOUS
 62
    30
  5
1E9
 10
45.506
 20
116.60225
 30
0.0
 11
37.378333
 21
116.60225
 31
0.0
  0
LINE
  8
1
  6
CONTINUOUS
 62
    30
  5
1EA
 10
83.25075
 20
116.60225
 30
0.0
 11
91.378333
 21
116.60225
 31
0.0
  0
LINE
  8
1
  6
CONTINUOUS
 62
    30
  5
1EB
 10
53.628333
 20
140.10225
 30
0.0
 11
47.066833
 21
120.643667
 31
0.0
  0
LINE
  8
1
  6
CONTINUOUS
 62
    30
  5
1EC
 10
75.128333
 20
140.10225
 30
0.0
 11
81.689917
 21
120.643667
 31
0.0
  0
ARC
  8
1
  6
CONTINUOUS
 62
    30
  5
1ED
 10
44.224091
 20
121.60225
 30
0.0
 40
3.0
 50
270.0
 51
341.365364
210
0.0
220
0.0
230
1.0
  0
ARC
  8
1
  6
CONTINUOUS
 62
    30
  5
1EE
 10
84.532682
 20
121.60225
 30
0.0
 40
3.0
 50
198.634517
 51
270.0
210
0.0
220
0.0
230
1.0
  0
LINE
  8
1
  6
CONTINUOUS
 62
    30
  5
1EF
 10
54.7105
 20
135.380417
 30
0.0
 11
49.29625
 21
119.324167
 31
0.0
  0
LINE
  8
1
  6
CONTINUOUS
 62
    30
  5
1F0
 10
74.046167
 20
135.380417
 30
0.0
 11
79.4605
 21
119.324167
 31
0.0
  0
ARC
  8
1
  6
CONTINUOUS
 62
    30
  5
1F1
 10
45.505973
 20
120.60225
 30
0.0
 40
4.0
 50
270.0
 51
341.365917
210
0.0
220
0.0
230
1.0
  0
ARC
  8
1
  6
CONTINUOUS
 62
    30
  5
1F2
 10
83.25077
 20
120.60225
 30
0.0
 40
4.0
 50
198.634392
 51
270.0
210
0.0
220
0.0
230
1.0
  0
ARC
  8
1
  6
CONTINUOUS
 62
    30
  5
1F3
 10
58.500759
 20
134.10225
 30
0.0
 40
4.0
 50
90.0
 51
161.364747
210
0.0
220
0.0
230
1.0
  0
ARC
  8
1
  6
CONTINUOUS
 62
    30
  5
1F4
 10
70.255875
 20
134.10225
 30
0.0
 40
4.0
 50
18.63465
 51
90.0
210
0.0
220
0.0
230
1.0
  0
ARC
  8
1
  6
CONTINUOUS
 62
    30
  5
1F5
 10
37.643455
 20
117.984811
 30
0.0
 40
1.407751
 50
153.985436
 51
259.144667
210
0.0
220
0.0
230
1.0
  0
ARC
  8
1
  6
CONTINUOUS
 62
    30
  5
1F6
 10
91.113212
 20
117.984811
 30
0.0
 40
1.407751
 50
280.855333
 51
26.014564
210
0.0
220
0.0
230
1.0
  0
POLYLINE
  8
1
  6
HIDDEN
 62
    30
  5
1F7
 66
     1
 10
0.0
 20
0.0
 30
0.0
210
0.0
220
0.0
230
1.0
  0
VERTEX
  8
1
  6
HIDDEN
 62
    30
  5
1F8
 10
44.224083
 20
118.60225
 30
0.0
 42
0.093267
  0
VERTEX
  8
1
  6
HIDDEN
 62
    30
  5
1F9
 10
44.148706
 20
118.992431
 30
0.0
 42
0.077731
  0
VERTEX
  8
1
  6
HIDDEN
 62
    30
  5
1FA
 10
43.925472
 20
119.367617
 30
0.0
 42
0.059251
  0
VERTEX
  8
1
  6
HIDDEN
 62
    30
  5
1FB
 10
43.56296
 20
119.71339
 30
0.0
 42
0.045105
  0
VERTEX
  8
1
  6
HIDDEN
 62
    30
  5
1FC
 10
43.0751
 20
120.016464
 30
0.0
 42
0.035804
  0
VERTEX
  8
1
  6
HIDDEN
 62
    30
  5
1FD
 10
42.480641
 20
120.265189
 30
0.0
 42
0.030061
  0
VERTEX
  8
1
  6
HIDDEN
 62
    30
  5
1FE
 10
41.802428
 20
120.450009
 30
0.0
 42
0.02677
  0
VERTEX
  8
1
  6
HIDDEN
 62
    30
  5
1FF
 10
41.066523
 20
120.563821
 30
0.0
 42
0.025272
  0
VERTEX
  8
1
  6
HIDDEN
 62
    30
  5
200
 10
40.301208
 20
120.60225
 30
0.0
 42
0.025272
  0
VERTEX
  8
1
  6
HIDDEN
 62
    30
  5
201
 10
39.535893
 20
120.563821
 30
0.0
 42
0.02677
  0
VERTEX
  8
1
  6
HIDDEN
 62
    30
  5
202
 10
38.799989
 20
120.450009
 30
0.0
 42
0.030061
  0
VERTEX
  8
1
  6
HIDDEN
 62
    30
  5
203
 10
38.121776
 20
120.265189
 30
0.0
 42
0.035804
  0
VERTEX
  8
1
  6
HIDDEN
 62
    30
  5
204
 10
37.527317
 20
120.016464
 30
0.0
 42
0.045105
  0
VERTEX
  8
1
  6
HIDDEN
 62
    30
  5
205
 10
37.039457
 20
119.71339
 30
0.0
 42
0.059251
  0
VERTEX
  8
1
  6
HIDDEN
 62
    30
  5
206
 10
36.676944
 20
119.367617
 30
0.0
 42
0.077731
  0
VERTEX
  8
1
  6
HIDDEN
 62
    30
  5
207
 10
36.45371
 20
118.992431
 30
0.0
 42
0.093267
  0
VERTEX
  8
1
  6
HIDDEN
 62
    30
  5
208
 10
36.378333
 20
118.60225
 30
0.0
 42
0.093267
  0
SEQEND
  8
1
  6
HIDDEN
 62
    30
  5
209
  0
POLYLINE
  8
1
  6
HIDDEN
 62
    30
  5
20A
 66
     1
 10
0.0
 20
0.0
 30
0.0
210
0.0
220
0.0
230
1.0
  0
VERTEX
  8
1
  6
HIDDEN
 62
    30
  5
20B
 10
84.532583
 20
118.60225
 30
0.0
 42
-0.093267
  0
VERTEX
  8
1
  6
HIDDEN
 62
    30
  5
20C
 10
84.60796
 20
118.992431
 30
0.0
 42
-0.077731
  0
VERTEX
  8
1
  6
HIDDEN
 62
    30
  5
20D
 10
84.831194
 20
119.367617
 30
0.0
 42
-0.059251
  0
VERTEX
  8
1
  6
HIDDEN
 62
    30
  5
20E
 10
85.193707
 20
119.71339
 30
0.0
 42
-0.045105
  0
VERTEX
  8
1
  6
HIDDEN
 62
    30
  5
20F
 10
85.681567
 20
120.016464
 30
0.0
 42
-0.035804
  0
VERTEX
  8
1
  6
HIDDEN
 62
    30
  5
210
 10
86.276026
 20
120.265189
 30
0.0
 42
-0.030061
  0
VERTEX
  8
1
  6
HIDDEN
 62
    30
  5
211
 10
86.954239
 20
120.450009
 30
0.0
 42
-0.02677
  0
VERTEX
  8
1
  6
HIDDEN
 62
    30
  5
212
 10
87.690143
 20
120.563821
 30
0.0
 42
-0.025272
  0
VERTEX
  8
1
  6
HIDDEN
 62
    30
  5
213
 10
88.455458
 20
120.60225
 30
0.0
 42
-0.025272
  0
VERTEX
  8
1
  6
HIDDEN
 62
    30
  5
214
 10
89.220773
 20
120.563821
 30
0.0
 42
-0.02677
  0
VERTEX
  8
1
  6
HIDDEN
 62
    30
  5
215
 10
89.956678
 20
120.450009
 30
0.0
 42
-0.030061
  0
VERTEX
  8
1
  6
HIDDEN
 62
    30
  5
216
 10
90.634891
 20
120.265189
 30
0.0
 42
-0.035804
  0
VERTEX
  8
1
  6
HIDDEN
 62
    30
  5
217
 10
91.22935
 20
120.016464
 30
0.0
 42
-0.045105
  0
VERTEX
  8
1
  6
HIDDEN
 62
    30
  5
218
 10
91.71721
 20
119.71339
 30
0.0
 42
-0.059251
  0
VERTEX
  8
1
  6
HIDDEN
 62
    30
  5
219
 10
92.079722
 20
119.367617
 30
0.0
 42
-0.077731
  0
VERTEX
  8
1
  6
HIDDEN
 62
    30
  5
21A
 10
92.302956
 20
118.992431
 30
0.0
 42
-0.093267
  0
VERTEX
  8
1
  6
HIDDEN
 62
    30
  5
21B
 10
92.378333
 20
118.60225
 30
0.0
 42
-0.093267
  0
SEQEND
  8
1
  6
HIDDEN
 62
    30
  5
21C
  0
POLYLINE
  8
1
  6
HIDDEN
 62
    30
  5
21D
 66
     1
 10
0.0
 20
0.0
 30
0.0
210
0.0
220
0.0
230
1.0
  0
VERTEX
  8
1
  6
HIDDEN
 62
    30
  5
21E
 10
61.474083
 20
140.10225
 30
0.0
 42
0.093267
  0
VERTEX
  8
1
  6
HIDDEN
 62
    30
  5
21F
 10
61.398706
 20
140.492431
 30
0.0
 42
0.077731
  0
VERTEX
  8
1
  6
HIDDEN
 62
    30
  5
220
 10
61.175472
 20
140.867617
 30
0.0
 42
0.059251
  0
VERTEX
  8
1
  6
HIDDEN
 62
    30
  5
221
 10
60.81296
 20
141.21339
 30
0.0
 42
0.045105
  0
VERTEX
  8
1
  6
HIDDEN
 62
    30
  5
222
 10
60.3251
 20
141.516464
 30
0.0
 42
0.035804
  0
VERTEX
  8
1
  6
HIDDEN
 62
    30
  5
223
 10
59.730641
 20
141.765189
 30
0.0
 42
0.030061
  0
VERTEX
  8
1
  6
HIDDEN
 62
    30
  5
224
 10
59.052428
 20
141.950009
 30
0.0
 42
0.02677
  0
VERTEX
  8
1
  6
HIDDEN
 62
    30
  5
225
 10
58.316523
 20
142.063821
 30
0.0
 42
0.025272
  0
VERTEX
  8
1
  6
HIDDEN
 62
    30
  5
226
 10
57.551208
 20
142.10225
 30
0.0
 42
0.025272
  0
VERTEX
  8
1
  6
HIDDEN
 62
    30
  5
227
 10
56.785893
 20
142.063821
 30
0.0
 42
0.02677
  0
VERTEX
  8
1
  6
HIDDEN
 62
    30
  5
228
 10
56.049989
 20
141.950009
 30
0.0
 42
0.030061
  0
VERTEX
  8
1
  6
HIDDEN
 62
    30
  5
229
 10
55.371776
 20
141.765189
 30
0.0
 42
0.035804
  0
VERTEX
  8
1
  6
HIDDEN
 62
    30
  5
22A
 10
54.777317
 20
141.516464
 30
0.0
 42
0.045105
  0
VERTEX
  8
1
  6
HIDDEN
 62
    30
  5
22B
 10
54.289457
 20
141.21339
 30
0.0
 42
0.059251
  0
VERTEX
  8
1
  6
HIDDEN
 62
    30
  5
22C
 10
53.926944
 20
140.867617
 30
0.0
 42
0.077731
  0
VERTEX
  8
1
  6
HIDDEN
 62
    30
  5
22D
 10
53.70371
 20
140.492431
 30
0.0
 42
0.093267
  0
VERTEX
  8
1
  6
HIDDEN
 62
    30
  5
22E
 10
53.628333
 20
140.10225
 30
0.0
 42
0.093267
  0
SEQEND
  8
1
  6
HIDDEN
 62
    30
  5
22F
  0
POLYLINE
  8
1
  6
HIDDEN
 62
    30
  5
230
 66
     1
 10
0.0
 20
0.0
 30
0.0
210
0.0
220
0.0
230
1.0
  0
VERTEX
  8
1
  6
HIDDEN
 62
    30
  5
231
 10
67.282583
 20
140.10225
 30
0.0
 42
-0.093267
  0
VERTEX
  8
1
  6
HIDDEN
 62
    30
  5
232
 10
67.35796
 20
140.492431
 30
0.0
 42
-0.077731
  0
VERTEX
  8
1
  6
HIDDEN
 62
    30
  5
233
 10
67.581194
 20
140.867617
 30
0.0
 42
-0.059251
  0
VERTEX
  8
1
  6
HIDDEN
 62
    30
  5
234
 10
67.943707
 20
141.21339
 30
0.0
 42
-0.045105
  0
VERTEX
  8
1
  6
HIDDEN
 62
    30
  5
235
 10
68.431567
 20
141.516464
 30
0.0
 42
-0.035804
  0
VERTEX
  8
1
  6
HIDDEN
 62
    30
  5
236
 10
69.026026
 20
141.765189
 30
0.0
 42
-0.030061
  0
VERTEX
  8
1
  6
HIDDEN
 62
    30
  5
237
 10
69.704239
 20
141.950009
 30
0.0
 42
-0.02677
  0
VERTEX
  8
1
  6
HIDDEN
 62
    30
  5
238
 10
70.440143
 20
142.063821
 30
0.0
 42
-0.025272
  0
VERTEX
  8
1
  6
HIDDEN
 62
    30
  5
239
 10
71.205458
 20
142.10225
 30
0.0
 42
-0.025272
  0
VERTEX
  8
1
  6
HIDDEN
 62
    30
  5
23A
 10
71.970773
 20
142.063821
 30
0.0
 42
-0.02677
  0
VERTEX
  8
1
  6
HIDDEN
 62
    30
  5
23B
 10
72.706678
 20
141.950009
 30
0.0
 42
-0.030061
  0
VERTEX
  8
1
  6
HIDDEN
 62
    30
  5
23C
 10
73.384891
 20
141.765189
 30
0.0
 42
-0.035804
  0
VERTEX
  8
1
  6
HIDDEN
 62
    30
  5
23D
 10
73.97935
 20
141.516464
 30
0.0
 42
-0.045105
  0
VERTEX
  8
1
  6
HIDDEN
 62
    30
  5
23E
 10
74.46721
 20
141.21339
 30
0.0
 42
-0.059251
  0
VERTEX
  8
1
  6
HIDDEN
 62
    30
  5
23F
 10
74.829722
 20
140.867617
 30
0.0
 42
-0.077731
  0
VERTEX
  8
1
  6
HIDDEN
 62
    30
  5
240
 10
75.052956
 20
140.492431
 30
0.0
 42
-0.093267
  0
VERTEX
  8
1
  6
HIDDEN
 62
    30
  5
241
 10
75.128333
 20
140.10225
 30
0.0
 42
-0.093267
  0
SEQEND
  8
1
  6
HIDDEN
 62
    30
  5
242
  0
LINE
  8
1
  6
CONTINUOUS
 62
     7
  5
243
 10
53.628333
 20
142.10225
 30
0.0
 11
53.628333
 21
156.60225
 31
0.0
  0
LINE
  8
1
  6
CONTINUOUS
 62
     7
  5
244
 10
75.128333
 20
142.10225
 30
0.0
 11
75.128333
 21
156.60225
 31
0.0
  0
LINE
  8
1
  6
CONTINUOUS
 62
     7
  5
245
 10
77.128333
 20
140.10225
 30
0.0
 11
107.128333
 21
140.10225
 31
0.0
  0
LINE
  8
1
  6
CONTINUOUS
 62
     7
  5
246
 10
93.378333
 20
116.570333
 30
0.0
 11
107.128333
 21
116.570333
 31
0.0
  0
LINE
  8
1
  6
CONTINUOUS
 62
     7
  5
247
 10
36.378333
 20
115.60225
 30
0.0
 11
36.378333
 21
100.10225
 31
0.0
  0
LINE
  8
1
  6
CONTINUOUS
 62
     7
  5
248
 10
92.378333
 20
115.60225
 30
0.0
 11
92.378333
 21
100.10225
 31
0.0
  0
TEXT
  8
1
  6
CONTINUOUS
 62
     7
  5
249
 10
64.51625
 20
155.736917
 30
0.0
 40
2.5
  1
-
  7
MONOTXT
 72
     4
 11
65.07725
 21
156.986917
 31
0.0
210
0.0
220
0.0
230
1.0
  0
TEXT
  8
1
  6
CONTINUOUS
 62
     7
  5
24A
 10
54.13675
 20
156.812
 30
0.0
 40
2.5
  1
1 3/16 " +  1/16 "
  7
MONOTXT
 72
     4
 11
64.38275
 21
158.062
 31
0.0
210
0.0
220
0.0
230
1.0
  0
LINE
  8
1
  6
CONTINUOUS
 62
     7
  5
24B
 10
36.378333
 20
101.10225
 30
0.0
 11
92.378333
 21
101.10225
 31
0.0
  0
INSERT
  8
1
  6
CONTINUOUS
 62
     1
  5
26C
  2
LDR
 10
36.378333
 20
101.10225
 30
0.0
 41
240.0
 42
240.0
 50
180.0
210
0.0
220
0.0
230
1.0
  0
INSERT
  8
1
  6
CONTINUOUS
 62
     1
  5
26D
  2
LDR
 10
36.378333
 20
101.10225
 30
0.0
 41
240.0
 42
240.0
 50
180.0
210
0.0
220
0.0
230
1.0
  0
INSERT
  8
1
  6
CONTINUOUS
 62
     1
  5
26E
  2
LDR
 10
92.378333
 20
101.10225
 30
0.0
 41
240.0
 42
240.0
210
0.0
220
0.0
230
1.0
  0
LINE
  8
1
  6
CONTINUOUS
 62
     7
  5
26F
 10
53.628333
 20
155.60225
 30
0.0
 11
75.128333
 21
155.60225
 31
0.0
  0
INSERT
  8
1
  6
CONTINUOUS
 62
     1
  5
270
  2
LDR
 10
53.628333
 20
155.60225
 30
0.0
 41
240.0
 42
240.0
 50
180.0
210
0.0
220
0.0
230
1.0
  0
INSERT
  8
1
  6
CONTINUOUS
 62
     1
  5
271
  2
LDR
 10
75.128333
 20
155.60225
 30
0.0
 41
240.0
 42
240.0
210
0.0
220
0.0
230
1.0
  0
TEXT
  8
1
  6
CONTINUOUS
 62
     7
  5
272
 10
53.345167
 20
102.533667
 30
0.0
 40
2.5
  1
3 1/16 " +  1/16 "
  7
MONOTXT
 72
     4
 11
64.122667
 21
103.783667
 31
0.0
210
0.0
220
0.0
230
1.0
  0
TEXT
  8
1
  6
CONTINUOUS
 62
     7
  5
273
 10
64.75075
 20
101.2435
 30
0.0
 40
2.5
  1
-
  7
MONOTXT
 72
     4
 11
65.31175
 21
102.4935
 31
0.0
210
0.0
220
0.0
230
1.0
  0
LINE
  8
1
  6
CONTINUOUS
 62
     7
  5
274
 10
106.128333
 20
140.10225
 30
0.0
 11
106.128333
 21
116.570333
 31
0.0
  0
INSERT
  8
1
  6
CONTINUOUS
 62
     1
  5
275
  2
LDR
 10
106.128333
 20
140.10225
 30
0.0
 41
240.0
 42
240.0
 50
90.0
210
0.0
220
0.0
230
1.0
  0
INSERT
  8
1
  6
CONTINUOUS
 62
     1
  5
276
  2
LDR
 10
106.128333
 20
140.10225
 30
0.0
 41
240.0
 42
240.0
 50
90.0
210
0.0
220
0.0
230
1.0
  0
INSERT
  8
1
  6
CONTINUOUS
 62
     1
  5
277
  2
LDR
 10
106.128333
 20
116.570333
 30
0.0
 41
240.0
 42
240.0
 50
270.0
210
0.0
220
0.0
230
1.0
  0
TEXT
  8
1
  6
CONTINUOUS
 62
     7
  5
278
 10
104.371
 20
118.37975
 30
0.0
 40
2.5
  1
1 7/16 " +  1/8 "
 50
90.0
  7
MONOTXT
 72
     4
 11
103.121
 21
128.173083
 31
0.0
210
0.0
220
0.0
230
1.0
  0
TEXT
  8
1
  6
CONTINUOUS
 62
     7
  5
279
 10
105.631
 20
128.69025
 30
0.0
 40
2.5
  1
-
 50
90.0
  7
MONOTXT
 72
     4
 11
104.381
 21
129.25125
 31
0.0
210
0.0
220
0.0
230
1.0
  0
TEXT
  8
1
  6
CONTINUOUS
 62
     7
  5
27A
 10
47.131667
 20
90.437083
 30
0.0
 40
3.0
  1
SIGN POST 2.00
  7
MONOTXT
 72
     4
 11
65.958417
 21
91.937083
 31
0.0
210
0.0
220
0.0
230
1.0
  0
LINE
  8
1
  6
CONTINUOUS
 62
     7
  5
27B
 10
45.916667
 20
89.1455
 30
0.0
 11
85.620417
 21
89.1455
 31
0.0
  0
LINE
  8
1
  6
CONTINUOUS
 62
    30
  5
27C
 10
150.928917
 20
140.10225
 30
0.0
 11
174.428917
 21
140.10225
 31
0.0
  0
LINE
  8
1
  6
CONTINUOUS
 62
    30
  5
27D
 10
155.801333
 20
138.10225
 30
0.0
 11
169.5565
 21
138.10225
 31
0.0
  0
LINE
  8
1
  6
CONTINUOUS
 62
    30
  5
27E
 10
186.774333
 20
109.880333
 30
0.0
 11
194.62
 21
109.880333
 31
0.0
  0
LINE
  8
1
  6
CONTINUOUS
 62
    30
  5
27F
 10
138.583583
 20
109.880333
 30
0.0
 11
130.737833
 21
109.880333
 31
0.0
  0
LINE
  8
1
  6
CONTINUOUS
 62
    30
  5
280
 10
139.8655
 20
107.880333
 30
0.0
 11
131.737833
 21
107.880333
 31
0.0
  0
LINE
  8
1
  6
CONTINUOUS
 62
    30
  5
281
 10
185.492417
 20
107.880333
 30
0.0
 11
193.62
 21
107.880333
 31
0.0
  0
LINE
  8
1
  6
CONTINUOUS
 62
    30
  5
282
 10
150.928917
 20
140.10225
 30
0.0
 11
141.426333
 21
111.92175
 31
0.0
  0
LINE
  8
1
  6
CONTINUOUS
 62
    30
  5
283
 10
174.428917
 20
140.10225
 30
0.0
 11
183.931583
 21
111.92175
 31
0.0
  0
ARC
  8
1
  6
CONTINUOUS
 62
    30
  5
284
 10
138.583591
 20
112.880333
 30
0.0
 40
3.0
 50
270.0
 51
341.365364
210
0.0
220
0.0
230
1.0
  0
ARC
  8
1
  6
CONTINUOUS
 62
    30
  5
285
 10
186.774349
 20
112.880333
 30
0.0
 40
3.0
 50
198.634517
 51
270.0
210
0.0
220
0.0
230
1.0
  0
LINE
  8
1
  6
CONTINUOUS
 62
    30
  5
286
 10
152.011083
 20
135.380417
 30
0.0
 11
143.65575
 21
110.60225
 31
0.0
  0
LINE
  8
1
  6
CONTINUOUS
 62
    30
  5
287
 10
173.34675
 20
135.380417
 30
0.0
 11
181.702167
 21
110.60225
 31
0.0
  0
ARC
  8
1
  6
CONTINUOUS
 62
    30
  5
288
 10
139.865473
 20
111.880333
 30
0.0
 40
4.0
 50
270.0
 51
341.365917
210
0.0
220
0.0
230
1.0
  0
ARC
  8
1
  6
CONTINUOUS
 62
    30
  5
289
 10
185.492436
 20
111.880333
 30
0.0
 40
4.0
 50
198.634392
 51
270.0
210
0.0
220
0.0
230
1.0
  0
ARC
  8
1
  6
CONTINUOUS
 62
    30
  5
28A
 10
155.801343
 20
134.10225
 30
0.0
 40
4.0
 50
90.0
 51
161.364747
210
0.0
220
0.0
230
1.0
  0
ARC
  8
1
  6
CONTINUOUS
 62
    30
  5
28B
 10
169.556459
 20
134.10225
 30
0.0
 40
4.0
 50
18.63465
 51
90.0
210
0.0
220
0.0
230
1.0
  0
ARC
  8
1
  6
CONTINUOUS
 62
    30
  5
28C
 10
132.002955
 20
109.262894
 30
0.0
 40
1.407751
 50
153.985436
 51
259.144667
210
0.0
220
0.0
230
1.0
  0
ARC
  8
1
  6
CONTINUOUS
 62
    30
  5
28D
 10
193.354878
 20
109.262894
 30
0.0
 40
1.407751
 50
280.855333
 51
26.014564
210
0.0
220
0.0
230
1.0
  0
POLYLINE
  8
1
  6
HIDDEN
 62
    30
  5
28E
 66
     1
 10
0.0
 20
0.0
 30
0.0
210
0.0
220
0.0
230
1.0
  0
VERTEX
  8
1
  6
HIDDEN
 62
    30
  5
28F
 10
138.583583
 20
109.880333
 30
0.0
 42
0.093267
  0
VERTEX
  8
1
  6
HIDDEN
 62
    30
  5
290
 10
138.508206
 20
110.270514
 30
0.0
 42
0.077731
  0
VERTEX
  8
1
  6
HIDDEN
 62
    30
  5
291
 10
138.284972
 20
110.6457
 30
0.0
 42
0.059251
  0
VERTEX
  8
1
  6
HIDDEN
 62
    30
  5
292
 10
137.92246
 20
110.991474
 30
0.0
 42
0.045105
  0
VERTEX
  8
1
  6
HIDDEN
 62
    30
  5
293
 10
137.4346
 20
111.294547
 30
0.0
 42
0.035804
  0
VERTEX
  8
1
  6
HIDDEN
 62
    30
  5
294
 10
136.840141
 20
111.543273
 30
0.0
 42
0.030061
  0
VERTEX
  8
1
  6
HIDDEN
 62
    30
  5
295
 10
136.161928
 20
111.728092
 30
0.0
 42
0.02677
  0
VERTEX
  8
1
  6
HIDDEN
 62
    30
  5
296
 10
135.426023
 20
111.841904
 30
0.0
 42
0.025272
  0
VERTEX
  8
1
  6
HIDDEN
 62
    30
  5
297
 10
134.660708
 20
111.880333
 30
0.0
 42
0.025272
  0
VERTEX
  8
1
  6
HIDDEN
 62
    30
  5
298
 10
133.895393
 20
111.841904
 30
0.0
 42
0.02677
  0
VERTEX
  8
1
  6
HIDDEN
 62
    30
  5
299
 10
133.159489
 20
111.728092
 30
0.0
 42
0.030061
  0
VERTEX
  8
1
  6
HIDDEN
 62
    30
  5
29A
 10
132.481276
 20
111.543273
 30
0.0
 42
0.035804
  0
VERTEX
  8
1
  6
HIDDEN
 62
    30
  5
29B
 10
131.886817
 20
111.294547
 30
0.0
 42
0.045105
  0
VERTEX
  8
1
  6
HIDDEN
 62
    30
  5
29C
 10
131.398957
 20
110.991474
 30
0.0
 42
0.059251
  0
VERTEX
  8
1
  6
HIDDEN
 62
    30
  5
29D
 10
131.036444
 20
110.6457
 30
0.0
 42
0.077731
  0
VERTEX
  8
1
  6
HIDDEN
 62
    30
  5
29E
 10
130.81321
 20
110.270514
 30
0.0
 42
0.093267
  0
VERTEX
  8
1
  6
HIDDEN
 62
    30
  5
29F
 10
130.737833
 20
109.880333
 30
0.0
 42
0.093267
  0
SEQEND
  8
1
  6
HIDDEN
 62
    30
  5
2A0
  0
POLYLINE
  8
1
  6
HIDDEN
 62
    30
  5
2A1
 66
     1
 10
0.0
 20
0.0
 30
0.0
210
0.0
220
0.0
230
1.0
  0
VERTEX
  8
1
  6
HIDDEN
 62
    30
  5
2A2
 10
186.77425
 20
109.880333
 30
0.0
 42
-0.093267
  0
VERTEX
  8
1
  6
HIDDEN
 62
    30
  5
2A3
 10
186.849627
 20
110.270514
 30
0.0
 42
-0.077731
  0
VERTEX
  8
1
  6
HIDDEN
 62
    30
  5
2A4
 10
187.072861
 20
110.6457
 30
0.0
 42
-0.059251
  0
VERTEX
  8
1
  6
HIDDEN
 62
    30
  5
2A5
 10
187.435374
 20
110.991474
 30
0.0
 42
-0.045105
  0
VERTEX
  8
1
  6
HIDDEN
 62
    30
  5
2A6
 10
187.923233
 20
111.294547
 30
0.0
 42
-0.035804
  0
VERTEX
  8
1
  6
HIDDEN
 62
    30
  5
2A7
 10
188.517692
 20
111.543273
 30
0.0
 42
-0.030061
  0
VERTEX
  8
1
  6
HIDDEN
 62
    30
  5
2A8
 10
189.195906
 20
111.728092
 30
0.0
 42
-0.02677
  0
VERTEX
  8
1
  6
HIDDEN
 62
    30
  5
2A9
 10
189.93181
 20
111.841904
 30
0.0
 42
-0.025272
  0
VERTEX
  8
1
  6
HIDDEN
 62
    30
  5
2AA
 10
190.697125
 20
111.880333
 30
0.0
 42
-0.025272
  0
VERTEX
  8
1
  6
HIDDEN
 62
    30
  5
2AB
 10
191.46244
 20
111.841904
 30
0.0
 42
-0.02677
  0
VERTEX
  8
1
  6
HIDDEN
 62
    30
  5
2AC
 10
192.198344
 20
111.728092
 30
0.0
 42
-0.030061
  0
VERTEX
  8
1
  6
HIDDEN
 62
    30
  5
2AD
 10
192.876558
 20
111.543273
 30
0.0
 42
-0.035804
  0
VERTEX
  8
1
  6
HIDDEN
 62
    30
  5
2AE
 10
193.471017
 20
111.294547
 30
0.0
 42
-0.045105
  0
VERTEX
  8
1
  6
HIDDEN
 62
    30
  5
2AF
 10
193.958876
 20
110.991474
 30
0.0
 42
-0.059251
  0
VERTEX
  8
1
  6
HIDDEN
 62
    30
  5
2B0
 10
194.321389
 20
110.6457
 30
0.0
 42
-0.077731
  0
VERTEX
  8
1
  6
HIDDEN
 62
    30
  5
2B1
 10
194.544623
 20
110.270514
 30
0.0
 42
-0.093267
  0
VERTEX
  8
1
  6
HIDDEN
 62
    30
  5
2B2
 10
194.62
 20
109.880333
 30
0.0
 42
-0.093267
  0
SEQEND
  8
1
  6
HIDDEN
 62
    30
  5
2B3
  0
POLYLINE
  8
1
  6
HIDDEN
 62
    30
  5
2B4
 66
     1
 10
0.0
 20
0.0
 30
0.0
210
0.0
220
0.0
230
1.0
  0
VERTEX
  8
1
  6
HIDDEN
 62
    30
  5
2B5
 10
158.774667
 20
140.10225
 30
0.0
 42
0.093267
  0
VERTEX
  8
1
  6
HIDDEN
 62
    30
  5
2B6
 10
158.69929
 20
140.492431
 30
0.0
 42
0.077731
  0
VERTEX
  8
1
  6
HIDDEN
 62
    30
  5
2B7
 10
158.476056
 20
140.867617
 30
0.0
 42
0.059251
  0
VERTEX
  8
1
  6
HIDDEN
 62
    30
  5
2B8
 10
158.113543
 20
141.21339
 30
0.0
 42
0.045105
  0
VERTEX
  8
1
  6
HIDDEN
 62
    30
  5
2B9
 10
157.625683
 20
141.516464
 30
0.0
 42
0.035804
  0
VERTEX
  8
1
  6
HIDDEN
 62
    30
  5
2BA
 10
157.031224
 20
141.765189
 30
0.0
 42
0.030061
  0
VERTEX
  8
1
  6
HIDDEN
 62
    30
  5
2BB
 10
156.353011
 20
141.950009
 30
0.0
 42
0.02677
  0
VERTEX
  8
1
  6
HIDDEN
 62
    30
  5
2BC
 10
155.617107
 20
142.063821
 30
0.0
 42
0.025272
  0
VERTEX
  8
1
  6
HIDDEN
 62
    30
  5
2BD
 10
154.851792
 20
142.10225
 30
0.0
 42
0.025272
  0
VERTEX
  8
1
  6
HIDDEN
 62
    30
  5
2BE
 10
154.086477
 20
142.063821
 30
0.0
 42
0.02677
  0
VERTEX
  8
1
  6
HIDDEN
 62
    30
  5
2BF
 10
153.350572
 20
141.950009
 30
0.0
 42
0.030061
  0
VERTEX
  8
1
  6
HIDDEN
 62
    30
  5
2C0
 10
152.672359
 20
141.765189
 30
0.0
 42
0.035804
  0
VERTEX
  8
1
  6
HIDDEN
 62
    30
  5
2C1
 10
152.0779
 20
141.516464
 30
0.0
 42
0.045105
  0
VERTEX
  8
1
  6
HIDDEN
 62
    30
  5
2C2
 10
151.59004
 20
141.21339
 30
0.0
 42
0.059251
  0
VERTEX
  8
1
  6
HIDDEN
 62
    30
  5
2C3
 10
151.227528
 20
140.867617
 30
0.0
 42
0.077731
  0
VERTEX
  8
1
  6
HIDDEN
 62
    30
  5
2C4
 10
151.004294
 20
140.492431
 30
0.0
 42
0.093267
  0
VERTEX
  8
1
  6
HIDDEN
 62
    30
  5
2C5
 10
150.928917
 20
140.10225
 30
0.0
 42
0.093267
  0
SEQEND
  8
1
  6
HIDDEN
 62
    30
  5
2C6
  0
POLYLINE
  8
1
  6
HIDDEN
 62
    30
  5
2C7
 66
     1
 10
0.0
 20
0.0
 30
0.0
210
0.0
220
0.0
230
1.0
  0
VERTEX
  8
1
  6
HIDDEN
 62
    30
  5
2C8
 10
166.583167
 20
140.10225
 30
0.0
 42
-0.093267
  0
VERTEX
  8
1
  6
HIDDEN
 62
    30
  5
2C9
 10
166.658544
 20
140.492431
 30
0.0
 42
-0.077731
  0
VERTEX
  8
1
  6
HIDDEN
 62
    30
  5
2CA
 10
166.881778
 20
140.867617
 30
0.0
 42
-0.059251
  0
VERTEX
  8
1
  6
HIDDEN
 62
    30
  5
2CB
 10
167.24429
 20
141.21339
 30
0.0
 42
-0.045105
  0
VERTEX
  8
1
  6
HIDDEN
 62
    30
  5
2CC
 10
167.73215
 20
141.516464
 30
0.0
 42
-0.035804
  0
VERTEX
  8
1
  6
HIDDEN
 62
    30
  5
2CD
 10
168.326609
 20
141.765189
 30
0.0
 42
-0.030061
  0
VERTEX
  8
1
  6
HIDDEN
 62
    30
  5
2CE
 10
169.004822
 20
141.950009
 30
0.0
 42
-0.02677
  0
VERTEX
  8
1
  6
HIDDEN
 62
    30
  5
2CF
 10
169.740727
 20
142.063821
 30
0.0
 42
-0.025272
  0
VERTEX
  8
1
  6
HIDDEN
 62
    30
  5
2D0
 10
170.506042
 20
142.10225
 30
0.0
 42
-0.025272
  0
VERTEX
  8
1
  6
HIDDEN
 62
    30
  5
2D1
 10
171.271357
 20
142.063821
 30
0.0
 42
-0.02677
  0
VERTEX
  8
1
  6
HIDDEN
 62
    30
  5
2D2
 10
172.007261
 20
141.950009
 30
0.0
 42
-0.030061
  0
VERTEX
  8
1
  6
HIDDEN
 62
    30
  5
2D3
 10
172.685474
 20
141.765189
 30
0.0
 42
-0.035804
  0
VERTEX
  8
1
  6
HIDDEN
 62
    30
  5
2D4
 10
173.279933
 20
141.516464
 30
0.0
 42
-0.045105
  0
VERTEX
  8
1
  6
HIDDEN
 62
    30
  5
2D5
 10
173.767793
 20
141.21339
 30
0.0
 42
-0.059251
  0
VERTEX
  8
1
  6
HIDDEN
 62
    30
  5
2D6
 10
174.130306
 20
140.867617
 30
0.0
 42
-0.077731
  0
VERTEX
  8
1
  6
HIDDEN
 62
    30
  5
2D7
 10
174.35354
 20
140.492431
 30
0.0
 42
-0.093267
  0
VERTEX
  8
1
  6
HIDDEN
 62
    30
  5
2D8
 10
174.428917
 20
140.10225
 30
0.0
 42
-0.093267
  0
SEQEND
  8
1
  6
HIDDEN
 62
    30
  5
2D9
  0
LINE
  8
1
  6
CONTINUOUS
 62
     7
  5
2DA
 10
150.928917
 20
142.10225
 30
0.0
 11
150.928917
 21
156.60225
 31
0.0
  0
LINE
  8
1
  6
CONTINUOUS
 62
     7
  5
2DB
 10
174.428917
 20
142.10225
 30
0.0
 11
174.428917
 21
156.60225
 31
0.0
  0
LINE
  8
1
  6
CONTINUOUS
 62
     7
  5
2DC
 10
176.428917
 20
140.10225
 30
0.0
 11
209.37
 21
140.10225
 31
0.0
  0
LINE
  8
1
  6
CONTINUOUS
 62
     7
  5
2DD
 10
195.62
 20
107.848417
 30
0.0
 11
209.37
 21
107.848417
 31
0.0
  0
LINE
  8
1
  6
CONTINUOUS
 62
     7
  5
2DE
 10
130.737833
 20
106.880333
 30
0.0
 11
130.737833
 21
91.380333
 31
0.0
  0
LINE
  8
1
  6
CONTINUOUS
 62
     7
  5
2DF
 10
194.62
 20
106.880333
 30
0.0
 11
194.62
 21
91.380333
 31
0.0
  0
TEXT
  8
1
  6
CONTINUOUS
 62
     7
  5
2E0
 10
162.816833
 20
155.852833
 30
0.0
 40
2.5
  1
-
  7
MONOTXT
 72
     4
 11
163.377833
 21
157.102833
 31
0.0
210
0.0
220
0.0
230
1.0
  0
TEXT
  8
1
  6
CONTINUOUS
 62
     7
  5
2E1
 10
153.342833
 20
156.927917
 30
0.0
 40
2.5
  1
1 3/8 " +  1/4 "
  7
MONOTXT
 72
     4
 11
162.683333
 21
158.177917
 31
0.0
210
0.0
220
0.0
230
1.0
  0
TEXT
  8
1
  6
CONTINUOUS
 62
     7
  5
2E2
 10
150.096167
 20
93.874417
 30
0.0
 40
2.5
  1
3 1/2 " +  1/16 "
  7
MONOTXT
 72
     4
 11
160.421
 21
95.124417
 31
0.0
210
0.0
220
0.0
230
1.0
  0
TEXT
  8
1
  6
CONTINUOUS
 62
     7
  5
2E3
 10
160.682417
 20
92.559833
 30
0.0
 40
2.5
  1
-
  7
MONOTXT
 72
     4
 11
161.243417
 21
93.809833
 31
0.0
210
0.0
220
0.0
230
1.0
  0
TEXT
  8
1
  6
CONTINUOUS
 62
     7
  5
2E4
 10
206.940167
 20
115.05975
 30
0.0
 40
2.5
  1
1 7/8 " +  1/8 "
 50
90.0
  7
MONOTXT
 72
     4
 11
205.690167
 21
124.40025
 31
0.0
210
0.0
220
0.0
230
1.0
  0
TEXT
  8
1
  6
CONTINUOUS
 62
     7
  5
2E5
 10
142.491167
 20
81.715167
 30
0.0
 40
3.0
  1
SIGN POST 3.00
  7
MONOTXT
 72
     4
 11
161.317917
 21
83.215167
 31
0.0
210
0.0
220
0.0
230
1.0
  0
LINE
  8
1
  6
CONTINUOUS
 62
     7
  5
2E6
 10
141.276167
 20
80.423583
 30
0.0
 11
180.979917
 21
80.423583
 31
0.0
  0
LINE
  8
1
  6
CONTINUOUS
 62
     7
  5
2E7
 10
150.928917
 20
155.60225
 30
0.0
 11
174.428917
 21
155.60225
 31
0.0
  0
LINE
  8
1
  6
CONTINUOUS
 62
     7
  5
2E8
 10
208.37
 20
140.10225
 30
0.0
 11
208.37
 21
107.848417
 31
0.0
  0
LINE
  8
1
  6
CONTINUOUS
 62
     7
  5
2E9
 10
130.737833
 20
92.380333
 30
0.0
 11
194.62
 21
92.380333
 31
0.0
  0
INSERT
  8
1
  6
CONTINUOUS
 62
     1
  5
2EA
  2
LDR
 10
150.928917
 20
155.60225
 30
0.0
 41
240.0
 42
240.0
 50
180.0
210
0.0
220
0.0
230
1.0
  0
INSERT
  8
1
  6
CONTINUOUS
 62
     1
  5
2EB
  2
LDR
 10
150.928917
 20
155.60225
 30
0.0
 41
240.0
 42
240.0
 50
180.0
210
0.0
220
0.0
230
1.0
  0
INSERT
  8
1
  6
CONTINUOUS
 62
     1
  5
2EC
  2
LDR
 10
174.428917
 20
155.60225
 30
0.0
 41
240.0
 42
240.0
210
0.0
220
0.0
230
1.0
  0
INSERT
  8
1
  6
CONTINUOUS
 62
     1
  5
2ED
  2
LDR
 10
208.37
 20
140.10225
 30
0.0
 41
240.0
 42
240.0
 50
90.0
210
0.0
220
0.0
230
1.0
  0
INSERT
  8
1
  6
CONTINUOUS
 62
     1
  5
2EE
  2
LDR
 10
208.37
 20
140.10225
 30
0.0
 41
240.0
 42
240.0
 50
90.0
210
0.0
220
0.0
230
1.0
  0
INSERT
  8
1
  6
CONTINUOUS
 62
     1
  5
2EF
  2
LDR
 10
208.37
 20
107.848417
 30
0.0
 41
240.0
 42
240.0
 50
270.0
210
0.0
220
0.0
230
1.0
  0
INSERT
  8
1
  6
CONTINUOUS
 62
     1
  5
2F0
  2
LDR
 10
130.737833
 20
92.380333
 30
0.0
 41
240.0
 42
240.0
 50
180.0
210
0.0
220
0.0
230
1.0
  0
INSERT
  8
1
  6
CONTINUOUS
 62
     1
  5
2F1
  2
LDR
 10
130.737833
 20
92.380333
 30
0.0
 41
240.0
 42
240.0
 50
180.0
210
0.0
220
0.0
230
1.0
  0
INSERT
  8
1
  6
CONTINUOUS
 62
     1
  5
2F2
  2
LDR
 10
194.62
 20
92.380333
 30
0.0
 41
240.0
 42
240.0
210
0.0
220
0.0
230
1.0
  0
TEXT
  8
1
  6
CONTINUOUS
 62
     7
  5
2F3
 10
208.070917
 20
124.476917
 30
0.0
 40
2.5
  1
-
 50
90.0
  7
MONOTXT
 72
     4
 11
206.820917
 21
125.037917
 31
0.0
210
0.0
220
0.0
230
1.0
  0
TEXT
  8
1
  6
CONTINUOUS
 62
     7
  5
2F4
 10
179.702083
 20
66.432333
 30
0.0
 40
2.5
  1
-
  7
MONOTXT
 72
     4
 11
180.263083
 21
67.682333
 31
0.0
210
0.0
220
0.0
230
1.0
  0
TEXT
  8
1
  6
CONTINUOUS
 62
     7
  5
2F5
 10
180.204333
 20
61.809833
 30
0.0
 40
2.5
  1
-
  7
MONOTXT
 72
     4
 11
180.765333
 21
63.059833
 31
0.0
210
0.0
220
0.0
230
1.0
  0
TEXT
  8
1
  6
CONTINUOUS
 62
     7
  5
2F6
 10
83.27975
 20
75.071333
 30
0.0
 40
2.5
  1
-
  7
MONOTXT
 72
     4
 11
83.84075
 21
76.321333
 31
0.0
210
0.0
220
0.0
230
1.0
  0
TEXT
  8
1
  6
CONTINUOUS
 62
     7
  5
2F7
 10
84.9415
 20
70.638417
 30
0.0
 40
2.5
  1
-
  7
MONOTXT
 72
     4
 11
85.5025
 21
71.888417
 31
0.0
210
0.0
220
0.0
230
1.0
  0
LINE
  8
1
  6
CONTINUOUS
 62
    30
  5
2F8
 10
263.69875
 20
114.60225
 30
0.0
 11
275.453917
 21
114.60225
 31
0.0
  0
LINE
  8
1
  6
CONTINUOUS
 62
    30
  5
2F9
 10
289.730667
 20
95.10225
 30
0.0
 11
297.576333
 21
95.10225
 31
0.0
  0
LINE
  8
1
  6
CONTINUOUS
 62
    30
  5
2FA
 10
249.422083
 20
95.10225
 30
0.0
 11
241.576333
 21
95.10225
 31
0.0
  0
LINE
  8
1
  6
CONTINUOUS
 62
    30
  5
2FB
 10
250.704
 20
93.10225
 30
0.0
 11
242.576333
 21
93.10225
 31
0.0
  0
LINE
  8
1
  6
CONTINUOUS
 62
    30
  5
2FC
 10
288.44875
 20
93.10225
 30
0.0
 11
296.576333
 21
93.10225
 31
0.0
  0
LINE
  8
1
  6
CONTINUOUS
 62
    30
  5
2FD
 10
258.826333
 20
116.60225
 30
0.0
 11
252.264833
 21
97.143667
 31
0.0
  0
LINE
  8
1
  6
CONTINUOUS
 62
    30
  5
2FE
 10
280.326333
 20
116.60225
 30
0.0
 11
286.887917
 21
97.143667
 31
0.0
  0
ARC
  8
1
  6
CONTINUOUS
 62
    30
  5
2FF
 10
249.422091
 20
98.10225
 30
0.0
 40
3.0
 50
270.0
 51
341.365364
210
0.0
220
0.0
230
1.0
  0
ARC
  8
1
  6
CONTINUOUS
 62
    30
  5
300
 10
289.730682
 20
98.10225
 30
0.0
 40
3.0
 50
198.634517
 51
270.0
210
0.0
220
0.0
230
1.0
  0
LINE
  8
1
  6
CONTINUOUS
 62
    30
  5
301
 10
259.9085
 20
111.880417
 30
0.0
 11
254.49425
 21
95.824167
 31
0.0
  0
LINE
  8
1
  6
CONTINUOUS
 62
    30
  5
302
 10
279.244167
 20
111.880417
 30
0.0
 11
284.6585
 21
95.824167
 31
0.0
  0
ARC
  8
1
  6
CONTINUOUS
 62
    30
  5
303
 10
250.703973
 20
97.10225
 30
0.0
 40
4.0
 50
270.0
 51
341.365917
210
0.0
220
0.0
230
1.0
  0
ARC
  8
1
  6
CONTINUOUS
 62
    30
  5
304
 10
288.44877
 20
97.10225
 30
0.0
 40
4.0
 50
198.634392
 51
270.0
210
0.0
220
0.0
230
1.0
  0
ARC
  8
1
  6
CONTINUOUS
 62
    30
  5
305
 10
263.698759
 20
110.60225
 30
0.0
 40
4.0
 50
90.0
 51
161.364747
210
0.0
220
0.0
230
1.0
  0
ARC
  8
1
  6
CONTINUOUS
 62
    30
  5
306
 10
275.453875
 20
110.60225
 30
0.0
 40
4.0
 50
18.63465
 51
90.0
210
0.0
220
0.0
230
1.0
  0
ARC
  8
1
  6
CONTINUOUS
 62
    30
  5
307
 10
242.841455
 20
94.484811
 30
0.0
 40
1.407751
 50
153.985436
 51
259.144667
210
0.0
220
0.0
230
1.0
  0
ARC
  8
1
  6
CONTINUOUS
 62
    30
  5
308
 10
296.311212
 20
94.484811
 30
0.0
 40
1.407751
 50
280.855333
 51
26.014564
210
0.0
220
0.0
230
1.0
  0
POLYLINE
  8
1
  6
HIDDEN
 62
    30
  5
309
 66
     1
 10
0.0
 20
0.0
 30
0.0
210
0.0
220
0.0
230
1.0
  0
VERTEX
  8
1
  6
HIDDEN
 62
    30
  5
30A
 10
249.422083
 20
95.10225
 30
0.0
 42
0.093267
  0
VERTEX
  8
1
  6
HIDDEN
 62
    30
  5
30B
 10
249.346706
 20
95.492431
 30
0.0
 42
0.077731
  0
VERTEX
  8
1
  6
HIDDEN
 62
    30
  5
30C
 10
249.123472
 20
95.867617
 30
0.0
 42
0.059251
  0
VERTEX
  8
1
  6
HIDDEN
 62
    30
  5
30D
 10
248.76096
 20
96.21339
 30
0.0
 42
0.045105
  0
VERTEX
  8
1
  6
HIDDEN
 62
    30
  5
30E
 10
248.2731
 20
96.516464
 30
0.0
 42
0.035804
  0
VERTEX
  8
1
  6
HIDDEN
 62
    30
  5
30F
 10
247.678641
 20
96.765189
 30
0.0
 42
0.030061
  0
VERTEX
  8
1
  6
HIDDEN
 62
    30
  5
310
 10
247.000428
 20
96.950009
 30
0.0
 42
0.02677
  0
VERTEX
  8
1
  6
HIDDEN
 62
    30
  5
311
 10
246.264523
 20
97.063821
 30
0.0
 42
0.025272
  0
VERTEX
  8
1
  6
HIDDEN
 62
    30
  5
312
 10
245.499208
 20
97.10225
 30
0.0
 42
0.025272
  0
VERTEX
  8
1
  6
HIDDEN
 62
    30
  5
313
 10
244.733893
 20
97.063821
 30
0.0
 42
0.02677
  0
VERTEX
  8
1
  6
HIDDEN
 62
    30
  5
314
 10
243.997989
 20
96.950009
 30
0.0
 42
0.030061
  0
VERTEX
  8
1
  6
HIDDEN
 62
    30
  5
315
 10
243.319776
 20
96.765189
 30
0.0
 42
0.035804
  0
VERTEX
  8
1
  6
HIDDEN
 62
    30
  5
316
 10
242.725317
 20
96.516464
 30
0.0
 42
0.045105
  0
VERTEX
  8
1
  6
HIDDEN
 62
    30
  5
317
 10
242.237457
 20
96.21339
 30
0.0
 42
0.059251
  0
VERTEX
  8
1
  6
HIDDEN
 62
    30
  5
318
 10
241.874944
 20
95.867617
 30
0.0
 42
0.077731
  0
VERTEX
  8
1
  6
HIDDEN
 62
    30
  5
319
 10
241.65171
 20
95.492431
 30
0.0
 42
0.093267
  0
VERTEX
  8
1
  6
HIDDEN
 62
    30
  5
31A
 10
241.576333
 20
95.10225
 30
0.0
 42
0.093267
  0
SEQEND
  8
1
  6
HIDDEN
 62
    30
  5
31B
  0
POLYLINE
  8
1
  6
HIDDEN
 62
    30
  5
31C
 66
     1
 10
0.0
 20
0.0
 30
0.0
210
0.0
220
0.0
230
1.0
  0
VERTEX
  8
1
  6
HIDDEN
 62
    30
  5
31D
 10
289.730583
 20
95.10225
 30
0.0
 42
-0.093267
  0
VERTEX
  8
1
  6
HIDDEN
 62
    30
  5
31E
 10
289.80596
 20
95.492431
 30
0.0
 42
-0.077731
  0
VERTEX
  8
1
  6
HIDDEN
 62
    30
  5
31F
 10
290.029194
 20
95.867617
 30
0.0
 42
-0.059251
  0
VERTEX
  8
1
  6
HIDDEN
 62
    30
  5
320
 10
290.391707
 20
96.21339
 30
0.0
 42
-0.045105
  0
VERTEX
  8
1
  6
HIDDEN
 62
    30
  5
321
 10
290.879567
 20
96.516464
 30
0.0
 42
-0.035804
  0
VERTEX
  8
1
  6
HIDDEN
 62
    30
  5
322
 10
291.474026
 20
96.765189
 30
0.0
 42
-0.030061
  0
VERTEX
  8
1
  6
HIDDEN
 62
    30
  5
323
 10
292.152239
 20
96.950009
 30
0.0
 42
-0.02677
  0
VERTEX
  8
1
  6
HIDDEN
 62
    30
  5
324
 10
292.888143
 20
97.063821
 30
0.0
 42
-0.025272
  0
VERTEX
  8
1
  6
HIDDEN
 62
    30
  5
325
 10
293.653458
 20
97.10225
 30
0.0
 42
-0.025272
  0
VERTEX
  8
1
  6
HIDDEN
 62
    30
  5
326
 10
294.418773
 20
97.063821
 30
0.0
 42
-0.02677
  0
VERTEX
  8
1
  6
HIDDEN
 62
    30
  5
327
 10
295.154678
 20
96.950009
 30
0.0
 42
-0.030061
  0
VERTEX
  8
1
  6
HIDDEN
 62
    30
  5
328
 10
295.832891
 20
96.765189
 30
0.0
 42
-0.035804
  0
VERTEX
  8
1
  6
HIDDEN
 62
    30
  5
329
 10
296.42735
 20
96.516464
 30
0.0
 42
-0.045105
  0
VERTEX
  8
1
  6
HIDDEN
 62
    30
  5
32A
 10
296.91521
 20
96.21339
 30
0.0
 42
-0.059251
  0
VERTEX
  8
1
  6
HIDDEN
 62
    30
  5
32B
 10
297.277722
 20
95.867617
 30
0.0
 42
-0.077731
  0
VERTEX
  8
1
  6
HIDDEN
 62
    30
  5
32C
 10
297.500956
 20
95.492431
 30
0.0
 42
-0.093267
  0
VERTEX
  8
1
  6
HIDDEN
 62
    30
  5
32D
 10
297.576333
 20
95.10225
 30
0.0
 42
-0.093267
  0
SEQEND
  8
1
  6
HIDDEN
 62
    30
  5
32E
  0
LINE
  8
1
  6
CONTINUOUS
 62
    30
  5
32F
 10
263.69875
 20
118.60225
 30
0.0
 11
275.453917
 21
118.60225
 31
0.0
  0
LINE
  8
1
  6
CONTINUOUS
 62
    30
  5
330
 10
289.730667
 20
138.10225
 30
0.0
 11
297.576333
 21
138.10225
 31
0.0
  0
LINE
  8
1
  6
CONTINUOUS
 62
    30
  5
331
 10
249.422083
 20
138.10225
 30
0.0
 11
241.576333
 21
138.10225
 31
0.0
  0
LINE
  8
1
  6
CONTINUOUS
 62
    30
  5
332
 10
250.704
 20
140.10225
 30
0.0
 11
242.576333
 21
140.10225
 31
0.0
  0
LINE
  8
1
  6
CONTINUOUS
 62
    30
  5
333
 10
288.44875
 20
140.10225
 30
0.0
 11
296.576333
 21
140.10225
 31
0.0
  0
LINE
  8
1
  6
CONTINUOUS
 62
    30
  5
334
 10
258.826333
 20
116.60225
 30
0.0
 11
252.264833
 21
136.060833
 31
0.0
  0
LINE
  8
1
  6
CONTINUOUS
 62
    30
  5
335
 10
280.326333
 20
116.60225
 30
0.0
 11
286.887917
 21
136.060833
 31
0.0
  0
ARC
  8
1
  6
CONTINUOUS
 62
    30
  5
336
 10
249.422091
 20
135.10225
 30
0.0
 40
3.0
 50
18.634636
 51
90.0
210
0.0
220
0.0
230
1.0
  0
ARC
  8
1
  6
CONTINUOUS
 62
    30
  5
337
 10
289.730682
 20
135.10225
 30
0.0
 40
3.0
 50
90.0
 51
161.365483
210
0.0
220
0.0
230
1.0
  0
LINE
  8
1
  6
CONTINUOUS
 62
    30
  5
338
 10
259.9085
 20
121.324083
 30
0.0
 11
254.49425
 21
137.380333
 31
0.0
  0
LINE
  8
1
  6
CONTINUOUS
 62
    30
  5
339
 10
279.244167
 20
121.324083
 30
0.0
 11
284.6585
 21
137.380333
 31
0.0
  0
ARC
  8
1
  6
CONTINUOUS
 62
    30
  5
33A
 10
250.703973
 20
136.10225
 30
0.0
 40
4.0
 50
18.634083
 51
90.0
210
0.0
220
0.0
230
1.0
  0
ARC
  8
1
  6
CONTINUOUS
 62
    30
  5
33B
 10
288.44877
 20
136.10225
 30
0.0
 40
4.0
 50
90.0
 51
161.365608
210
0.0
220
0.0
230
1.0
  0
ARC
  8
1
  6
CONTINUOUS
 62
    30
  5
33C
 10
263.698759
 20
122.60225
 30
0.0
 40
4.0
 50
198.635253
 51
270.0
210
0.0
220
0.0
230
1.0
  0
ARC
  8
1
  6
CONTINUOUS
 62
    30
  5
33D
 10
275.453875
 20
122.60225
 30
0.0
 40
4.0
 50
270.0
 51
341.36535
210
0.0
220
0.0
230
1.0
  0
ARC
  8
1
  6
CONTINUOUS
 62
    30
  5
33E
 10
242.841455
 20
138.719689
 30
0.0
 40
1.407751
 50
100.855333
 51
206.014564
210
0.0
220
0.0
230
1.0
  0
ARC
  8
1
  6
CONTINUOUS
 62
    30
  5
33F
 10
296.311212
 20
138.719689
 30
0.0
 40
1.407751
 50
333.985436
 51
79.144667
210
0.0
220
0.0
230
1.0
  0
POLYLINE
  8
1
  6
HIDDEN
 62
    30
  5
340
 66
     1
 10
0.0
 20
0.0
 30
0.0
210
0.0
220
0.0
230
1.0
  0
VERTEX
  8
1
  6
HIDDEN
 62
    30
  5
341
 10
249.422083
 20
138.10225
 30
0.0
 42
-0.093267
  0
VERTEX
  8
1
  6
HIDDEN
 62
    30
  5
342
 10
249.346706
 20
137.712069
 30
0.0
 42
-0.077731
  0
VERTEX
  8
1
  6
HIDDEN
 62
    30
  5
343
 10
249.123472
 20
137.336883
 30
0.0
 42
-0.059251
  0
VERTEX
  8
1
  6
HIDDEN
 62
    30
  5
344
 10
248.76096
 20
136.99111
 30
0.0
 42
-0.045105
  0
VERTEX
  8
1
  6
HIDDEN
 62
    30
  5
345
 10
248.2731
 20
136.688036
 30
0.0
 42
-0.035804
  0
VERTEX
  8
1
  6
HIDDEN
 62
    30
  5
346
 10
247.678641
 20
136.439311
 30
0.0
 42
-0.030061
  0
VERTEX
  8
1
  6
HIDDEN
 62
    30
  5
347
 10
247.000428
 20
136.254491
 30
0.0
 42
-0.02677
  0
VERTEX
  8
1
  6
HIDDEN
 62
    30
  5
348
 10
246.264523
 20
136.140679
 30
0.0
 42
-0.025272
  0
VERTEX
  8
1
  6
HIDDEN
 62
    30
  5
349
 10
245.499208
 20
136.10225
 30
0.0
 42
-0.025272
  0
VERTEX
  8
1
  6
HIDDEN
 62
    30
  5
34A
 10
244.733893
 20
136.140679
 30
0.0
 42
-0.02677
  0
VERTEX
  8
1
  6
HIDDEN
 62
    30
  5
34B
 10
243.997989
 20
136.254491
 30
0.0
 42
-0.030061
  0
VERTEX
  8
1
  6
HIDDEN
 62
    30
  5
34C
 10
243.319776
 20
136.439311
 30
0.0
 42
-0.035804
  0
VERTEX
  8
1
  6
HIDDEN
 62
    30
  5
34D
 10
242.725317
 20
136.688036
 30
0.0
 42
-0.045105
  0
VERTEX
  8
1
  6
HIDDEN
 62
    30
  5
34E
 10
242.237457
 20
136.99111
 30
0.0
 42
-0.059251
  0
VERTEX
  8
1
  6
HIDDEN
 62
    30
  5
34F
 10
241.874944
 20
137.336883
 30
0.0
 42
-0.077731
  0
VERTEX
  8
1
  6
HIDDEN
 62
    30
  5
350
 10
241.65171
 20
137.712069
 30
0.0
 42
-0.093267
  0
VERTEX
  8
1
  6
HIDDEN
 62
    30
  5
351
 10
241.576333
 20
138.10225
 30
0.0
 42
-0.093267
  0
SEQEND
  8
1
  6
HIDDEN
 62
    30
  5
352
  0
POLYLINE
  8
1
  6
HIDDEN
 62
    30
  5
353
 66
     1
 10
0.0
 20
0.0
 30
0.0
210
0.0
220
0.0
230
1.0
  0
VERTEX
  8
1
  6
HIDDEN
 62
    30
  5
354
 10
289.730583
 20
138.10225
 30
0.0
 42
0.093267
  0
VERTEX
  8
1
  6
HIDDEN
 62
    30
  5
355
 10
289.80596
 20
137.712069
 30
0.0
 42
0.077731
  0
VERTEX
  8
1
  6
HIDDEN
 62
    30
  5
356
 10
290.029194
 20
137.336883
 30
0.0
 42
0.059251
  0
VERTEX
  8
1
  6
HIDDEN
 62
    30
  5
357
 10
290.391707
 20
136.99111
 30
0.0
 42
0.045105
  0
VERTEX
  8
1
  6
HIDDEN
 62
    30
  5
358
 10
290.879567
 20
136.688036
 30
0.0
 42
0.035804
  0
VERTEX
  8
1
  6
HIDDEN
 62
    30
  5
359
 10
291.474026
 20
136.439311
 30
0.0
 42
0.030061
  0
VERTEX
  8
1
  6
HIDDEN
 62
    30
  5
35A
 10
292.152239
 20
136.254491
 30
0.0
 42
0.02677
  0
VERTEX
  8
1
  6
HIDDEN
 62
    30
  5
35B
 10
292.888143
 20
136.140679
 30
0.0
 42
0.025272
  0
VERTEX
  8
1
  6
HIDDEN
 62
    30
  5
35C
 10
293.653458
 20
136.10225
 30
0.0
 42
0.025272
  0
VERTEX
  8
1
  6
HIDDEN
 62
    30
  5
35D
 10
294.418773
 20
136.140679
 30
0.0
 42
0.02677
  0
VERTEX
  8
1
  6
HIDDEN
 62
    30
  5
35E
 10
295.154678
 20
136.254491
 30
0.0
 42
0.030061
  0
VERTEX
  8
1
  6
HIDDEN
 62
    30
  5
35F
 10
295.832891
 20
136.439311
 30
0.0
 42
0.035804
  0
VERTEX
  8
1
  6
HIDDEN
 62
    30
  5
360
 10
296.42735
 20
136.688036
 30
0.0
 42
0.045105
  0
VERTEX
  8
1
  6
HIDDEN
 62
    30
  5
361
 10
296.91521
 20
136.99111
 30
0.0
 42
0.059251
  0
VERTEX
  8
1
  6
HIDDEN
 62
    30
  5
362
 10
297.277722
 20
137.336883
 30
0.0
 42
0.077731
  0
VERTEX
  8
1
  6
HIDDEN
 62
    30
  5
363
 10
297.500956
 20
137.712069
 30
0.0
 42
0.093267
  0
VERTEX
  8
1
  6
HIDDEN
 62
    30
  5
364
 10
297.576333
 20
138.10225
 30
0.0
 42
0.093267
  0
SEQEND
  8
1
  6
HIDDEN
 62
    30
  5
365
  0
LINE
  8
1
  6
CONTINUOUS
 62
    30
  5
366
 10
263.826333
 20
117.60225
 30
0.0
 11
275.326333
 21
117.60225
 31
0.0
  0
LINE
  8
1
  6
CONTINUOUS
 62
    30
  5
367
 10
263.826333
 20
115.60225
 30
0.0
 11
275.326333
 21
115.60225
 31
0.0
  0
ARC
  8
1
  6
CONTINUOUS
 62
    30
  5
368
 10
263.774872
 20
116.60225
 30
0.0
 40
1.001323
 50
87.054078
 51
272.945922
210
0.0
220
0.0
230
1.0
  0
ARC
  8
1
  6
CONTINUOUS
 62
    30
  5
369
 10
275.377795
 20
116.60225
 30
0.0
 40
1.001323
 50
267.054078
 51
92.945922
210
0.0
220
0.0
230
1.0
  0
LINE
  8
1
  6
CONTINUOUS
 62
    30
  5
36A
 10
258.826333
 20
116.60225
 30
0.0
 11
262.773583
 21
116.60225
 31
0.0
  0
LINE
  8
1
  6
CONTINUOUS
 62
    30
  5
36B
 10
276.379083
 20
116.60225
 30
0.0
 11
280.326333
 21
116.60225
 31
0.0
  0
LINE
  8
1
  6
CONTINUOUS
 62
    30
  5
36C
 10
374.501667
 20
105.880333
 30
0.0
 11
388.256833
 21
105.880333
 31
0.0
  0
LINE
  8
1
  6
CONTINUOUS
 62
    30
  5
36D
 10
405.474667
 20
77.658417
 30
0.0
 11
413.320333
 21
77.658417
 31
0.0
  0
LINE
  8
1
  6
CONTINUOUS
 62
    30
  5
36E
 10
357.283917
 20
77.658417
 30
0.0
 11
349.438167
 21
77.658417
 31
0.0
  0
LINE
  8
1
  6
CONTINUOUS
 62
    30
  5
36F
 10
358.565833
 20
75.658417
 30
0.0
 11
350.438167
 21
75.658417
 31
0.0
  0
LINE
  8
1
  6
CONTINUOUS
 62
    30
  5
370
 10
404.19275
 20
75.658417
 30
0.0
 11
412.320333
 21
75.658417
 31
0.0
  0
LINE
  8
1
  6
CONTINUOUS
 62
    30
  5
371
 10
369.62925
 20
107.880333
 30
0.0
 11
360.126667
 21
79.699833
 31
0.0
  0
LINE
  8
1
  6
CONTINUOUS
 62
    30
  5
372
 10
393.12925
 20
107.880333
 30
0.0
 11
402.631917
 21
79.699833
 31
0.0
  0
ARC
  8
1
  6
CONTINUOUS
 62
    30
  5
373
 10
357.283925
 20
80.658417
 30
0.0
 40
3.0
 50
270.0
 51
341.365364
210
0.0
220
0.0
230
1.0
  0
ARC
  8
1
  6
CONTINUOUS
 62
    30
  5
374
 10
405.474682
 20
80.658417
 30
0.0
 40
3.0
 50
198.634517
 51
270.0
210
0.0
220
0.0
230
1.0
  0
LINE
  8
1
  6
CONTINUOUS
 62
    30
  5
375
 10
370.711417
 20
103.1585
 30
0.0
 11
362.356083
 21
78.380333
 31
0.0
  0
LINE
  8
1
  6
CONTINUOUS
 62
    30
  5
376
 10
392.047083
 20
103.1585
 30
0.0
 11
400.4025
 21
78.380333
 31
0.0
  0
ARC
  8
1
  6
CONTINUOUS
 62
    30
  5
377
 10
358.565806
 20
79.658417
 30
0.0
 40
4.0
 50
270.0
 51
341.365917
210
0.0
220
0.0
230
1.0
  0
ARC
  8
1
  6
CONTINUOUS
 62
    30
  5
378
 10
404.19277
 20
79.658417
 30
0.0
 40
4.0
 50
198.634392
 51
270.0
210
0.0
220
0.0
230
1.0
  0
ARC
  8
1
  6
CONTINUOUS
 62
    30
  5
379
 10
374.501676
 20
101.880333
 30
0.0
 40
4.0
 50
90.0
 51
161.364747
210
0.0
220
0.0
230
1.0
  0
ARC
  8
1
  6
CONTINUOUS
 62
    30
  5
37A
 10
388.256792
 20
101.880333
 30
0.0
 40
4.0
 50
18.63465
 51
90.0
210
0.0
220
0.0
230
1.0
  0
ARC
  8
1
  6
CONTINUOUS
 62
    30
  5
37B
 10
350.703288
 20
77.040977
 30
0.0
 40
1.407751
 50
153.985436
 51
259.144667
210
0.0
220
0.0
230
1.0
  0
ARC
  8
1
  6
CONTINUOUS
 62
    30
  5
37C
 10
412.055212
 20
77.040977
 30
0.0
 40
1.407751
 50
280.855333
 51
26.014564
210
0.0
220
0.0
230
1.0
  0
POLYLINE
  8
1
  6
HIDDEN
 62
    30
  5
37D
 66
     1
 10
0.0
 20
0.0
 30
0.0
210
0.0
220
0.0
230
1.0
  0
VERTEX
  8
1
  6
HIDDEN
 62
    30
  5
37E
 10
357.283917
 20
77.658417
 30
0.0
 42
0.093267
  0
VERTEX
  8
1
  6
HIDDEN
 62
    30
  5
37F
 10
357.20854
 20
78.048597
 30
0.0
 42
0.077731
  0
VERTEX
  8
1
  6
HIDDEN
 62
    30
  5
380
 10
356.985306
 20
78.423784
 30
0.0
 42
0.059251
  0
VERTEX
  8
1
  6
HIDDEN
 62
    30
  5
381
 10
356.622793
 20
78.769557
 30
0.0
 42
0.045105
  0
VERTEX
  8
1
  6
HIDDEN
 62
    30
  5
382
 10
356.134933
 20
79.07263
 30
0.0
 42
0.035804
  0
VERTEX
  8
1
  6
HIDDEN
 62
    30
  5
383
 10
355.540474
 20
79.321356
 30
0.0
 42
0.030061
  0
VERTEX
  8
1
  6
HIDDEN
 62
    30
  5
384
 10
354.862261
 20
79.506176
 30
0.0
 42
0.02677
  0
VERTEX
  8
1
  6
HIDDEN
 62
    30
  5
385
 10
354.126357
 20
79.619987
 30
0.0
 42
0.025272
  0
VERTEX
  8
1
  6
HIDDEN
 62
    30
  5
386
 10
353.361042
 20
79.658417
 30
0.0
 42
0.025272
  0
VERTEX
  8
1
  6
HIDDEN
 62
    30
  5
387
 10
352.595727
 20
79.619987
 30
0.0
 42
0.02677
  0
VERTEX
  8
1
  6
HIDDEN
 62
    30
  5
388
 10
351.859822
 20
79.506176
 30
0.0
 42
0.030061
  0
VERTEX
  8
1
  6
HIDDEN
 62
    30
  5
389
 10
351.181609
 20
79.321356
 30
0.0
 42
0.035804
  0
VERTEX
  8
1
  6
HIDDEN
 62
    30
  5
38A
 10
350.58715
 20
79.07263
 30
0.0
 42
0.045105
  0
VERTEX
  8
1
  6
HIDDEN
 62
    30
  5
38B
 10
350.09929
 20
78.769557
 30
0.0
 42
0.059251
  0
VERTEX
  8
1
  6
HIDDEN
 62
    30
  5
38C
 10
349.736778
 20
78.423784
 30
0.0
 42
0.077731
  0
VERTEX
  8
1
  6
HIDDEN
 62
    30
  5
38D
 10
349.513544
 20
78.048597
 30
0.0
 42
0.093267
  0
VERTEX
  8
1
  6
HIDDEN
 62
    30
  5
38E
 10
349.438167
 20
77.658417
 30
0.0
 42
0.093267
  0
SEQEND
  8
1
  6
HIDDEN
 62
    30
  5
38F
  0
POLYLINE
  8
1
  6
HIDDEN
 62
    30
  5
390
 66
     1
 10
0.0
 20
0.0
 30
0.0
210
0.0
220
0.0
230
1.0
  0
VERTEX
  8
1
  6
HIDDEN
 62
    30
  5
391
 10
405.474583
 20
77.658417
 30
0.0
 42
-0.093267
  0
VERTEX
  8
1
  6
HIDDEN
 62
    30
  5
392
 10
405.54996
 20
78.048597
 30
0.0
 42
-0.077731
  0
VERTEX
  8
1
  6
HIDDEN
 62
    30
  5
393
 10
405.773194
 20
78.423784
 30
0.0
 42
-0.059251
  0
VERTEX
  8
1
  6
HIDDEN
 62
    30
  5
394
 10
406.135707
 20
78.769557
 30
0.0
 42
-0.045105
  0
VERTEX
  8
1
  6
HIDDEN
 62
    30
  5
395
 10
406.623567
 20
79.07263
 30
0.0
 42
-0.035804
  0
VERTEX
  8
1
  6
HIDDEN
 62
    30
  5
396
 10
407.218026
 20
79.321356
 30
0.0
 42
-0.030061
  0
VERTEX
  8
1
  6
HIDDEN
 62
    30
  5
397
 10
407.896239
 20
79.506176
 30
0.0
 42
-0.02677
  0
VERTEX
  8
1
  6
HIDDEN
 62
    30
  5
398
 10
408.632143
 20
79.619987
 30
0.0
 42
-0.025272
  0
VERTEX
  8
1
  6
HIDDEN
 62
    30
  5
399
 10
409.397458
 20
79.658417
 30
0.0
 42
-0.025272
  0
VERTEX
  8
1
  6
HIDDEN
 62
    30
  5
39A
 10
410.162773
 20
79.619987
 30
0.0
 42
-0.02677
  0
VERTEX
  8
1
  6
HIDDEN
 62
    30
  5
39B
 10
410.898678
 20
79.506176
 30
0.0
 42
-0.030061
  0
VERTEX
  8
1
  6
HIDDEN
 62
    30
  5
39C
 10
411.576891
 20
79.321356
 30
0.0
 42
-0.035804
  0
VERTEX
  8
1
  6
HIDDEN
 62
    30
  5
39D
 10
412.17135
 20
79.07263
 30
0.0
 42
-0.045105
  0
VERTEX
  8
1
  6
HIDDEN
 62
    30
  5
39E
 10
412.65921
 20
78.769557
 30
0.0
 42
-0.059251
  0
VERTEX
  8
1
  6
HIDDEN
 62
    30
  5
39F
 10
413.021722
 20
78.423784
 30
0.0
 42
-0.077731
  0
VERTEX
  8
1
  6
HIDDEN
 62
    30
  5
3A0
 10
413.244956
 20
78.048597
 30
0.0
 42
-0.093267
  0
VERTEX
  8
1
  6
HIDDEN
 62
    30
  5
3A1
 10
413.320333
 20
77.658417
 30
0.0
 42
-0.093267
  0
SEQEND
  8
1
  6
HIDDEN
 62
    30
  5
3A2
  0
LINE
  8
1
  6
CONTINUOUS
 62
    30
  5
3A3
 10
374.501667
 20
109.880333
 30
0.0
 11
388.256833
 21
109.880333
 31
0.0
  0
LINE
  8
1
  6
CONTINUOUS
 62
    30
  5
3A4
 10
405.474667
 20
138.10225
 30
0.0
 11
413.320333
 21
138.10225
 31
0.0
  0
LINE
  8
1
  6
CONTINUOUS
 62
    30
  5
3A5
 10
357.283917
 20
138.10225
 30
0.0
 11
349.438167
 21
138.10225
 31
0.0
  0
LINE
  8
1
  6
CONTINUOUS
 62
    30
  5
3A6
 10
358.565833
 20
140.10225
 30
0.0
 11
350.438167
 21
140.10225
 31
0.0
  0
LINE
  8
1
  6
CONTINUOUS
 62
    30
  5
3A7
 10
404.19275
 20
140.10225
 30
0.0
 11
412.320333
 21
140.10225
 31
0.0
  0
LINE
  8
1
  6
CONTINUOUS
 62
    30
  5
3A8
 10
369.62925
 20
107.880333
 30
0.0
 11
360.126667
 21
136.060833
 31
0.0
  0
LINE
  8
1
  6
CONTINUOUS
 62
    30
  5
3A9
 10
393.12925
 20
107.880333
 30
0.0
 11
402.631917
 21
136.060833
 31
0.0
  0
ARC
  8
1
  6
CONTINUOUS
 62
    30
  5
3AA
 10
357.283925
 20
135.10225
 30
0.0
 40
3.0
 50
18.634636
 51
90.0
210
0.0
220
0.0
230
1.0
  0
ARC
  8
1
  6
CONTINUOUS
 62
    30
  5
3AB
 10
405.474682
 20
135.10225
 30
0.0
 40
3.0
 50
90.0
 51
161.365483
210
0.0
220
0.0
230
1.0
  0
LINE
  8
1
  6
CONTINUOUS
 62
    30
  5
3AC
 10
370.711417
 20
112.602167
 30
0.0
 11
362.356083
 21
137.380333
 31
0.0
  0
LINE
  8
1
  6
CONTINUOUS
 62
    30
  5
3AD
 10
392.047083
 20
112.602167
 30
0.0
 11
400.4025
 21
137.380333
 31
0.0
  0
ARC
  8
1
  6
CONTINUOUS
 62
    30
  5
3AE
 10
358.565806
 20
136.10225
 30
0.0
 40
4.0
 50
18.634083
 51
90.0
210
0.0
220
0.0
230
1.0
  0
ARC
  8
1
  6
CONTINUOUS
 62
    30
  5
3AF
 10
404.19277
 20
136.10225
 30
0.0
 40
4.0
 50
90.0
 51
161.365608
210
0.0
220
0.0
230
1.0
  0
ARC
  8
1
  6
CONTINUOUS
 62
    30
  5
3B0
 10
374.501676
 20
113.880333
 30
0.0
 40
4.0
 50
198.635253
 51
270.0
210
0.0
220
0.0
230
1.0
  0
ARC
  8
1
  6
CONTINUOUS
 62
    30
  5
3B1
 10
388.256792
 20
113.880333
 30
0.0
 40
4.0
 50
270.0
 51
341.36535
210
0.0
220
0.0
230
1.0
  0
ARC
  8
1
  6
CONTINUOUS
 62
    30
  5
3B2
 10
350.703288
 20
138.719689
 30
0.0
 40
1.407751
 50
100.855333
 51
206.014564
210
0.0
220
0.0
230
1.0
  0
ARC
  8
1
  6
CONTINUOUS
 62
    30
  5
3B3
 10
412.055212
 20
138.719689
 30
0.0
 40
1.407751
 50
333.985436
 51
79.144667
210
0.0
220
0.0
230
1.0
  0
POLYLINE
  8
1
  6
HIDDEN
 62
    30
  5
3B4
 66
     1
 10
0.0
 20
0.0
 30
0.0
210
0.0
220
0.0
230
1.0
  0
VERTEX
  8
1
  6
HIDDEN
 62
    30
  5
3B5
 10
357.283917
 20
138.10225
 30
0.0
 42
-0.093267
  0
VERTEX
  8
1
  6
HIDDEN
 62
    30
  5
3B6
 10
357.20854
 20
137.712069
 30
0.0
 42
-0.077731
  0
VERTEX
  8
1
  6
HIDDEN
 62
    30
  5
3B7
 10
356.985306
 20
137.336883
 30
0.0
 42
-0.059251
  0
VERTEX
  8
1
  6
HIDDEN
 62
    30
  5
3B8
 10
356.622793
 20
136.99111
 30
0.0
 42
-0.045105
  0
VERTEX
  8
1
  6
HIDDEN
 62
    30
  5
3B9
 10
356.134933
 20
136.688036
 30
0.0
 42
-0.035804
  0
VERTEX
  8
1
  6
HIDDEN
 62
    30
  5
3BA
 10
355.540474
 20
136.439311
 30
0.0
 42
-0.030061
  0
VERTEX
  8
1
  6
HIDDEN
 62
    30
  5
3BB
 10
354.862261
 20
136.254491
 30
0.0
 42
-0.02677
  0
VERTEX
  8
1
  6
HIDDEN
 62
    30
  5
3BC
 10
354.126357
 20
136.140679
 30
0.0
 42
-0.025272
  0
VERTEX
  8
1
  6
HIDDEN
 62
    30
  5
3BD
 10
353.361042
 20
136.10225
 30
0.0
 42
-0.025272
  0
VERTEX
  8
1
  6
HIDDEN
 62
    30
  5
3BE
 10
352.595727
 20
136.140679
 30
0.0
 42
-0.02677
  0
VERTEX
  8
1
  6
HIDDEN
 62
    30
  5
3BF
 10
351.859822
 20
136.254491
 30
0.0
 42
-0.030061
  0
VERTEX
  8
1
  6
HIDDEN
 62
    30
  5
3C0
 10
351.181609
 20
136.439311
 30
0.0
 42
-0.035804
  0
VERTEX
  8
1
  6
HIDDEN
 62
    30
  5
3C1
 10
350.58715
 20
136.688036
 30
0.0
 42
-0.045105
  0
VERTEX
  8
1
  6
HIDDEN
 62
    30
  5
3C2
 10
350.09929
 20
136.99111
 30
0.0
 42
-0.059251
  0
VERTEX
  8
1
  6
HIDDEN
 62
    30
  5
3C3
 10
349.736778
 20
137.336883
 30
0.0
 42
-0.077731
  0
VERTEX
  8
1
  6
HIDDEN
 62
    30
  5
3C4
 10
349.513544
 20
137.712069
 30
0.0
 42
-0.093267
  0
VERTEX
  8
1
  6
HIDDEN
 62
    30
  5
3C5
 10
349.438167
 20
138.10225
 30
0.0
 42
-0.093267
  0
SEQEND
  8
1
  6
HIDDEN
 62
    30
  5
3C6
  0
POLYLINE
  8
1
  6
HIDDEN
 62
    30
  5
3C7
 66
     1
 10
0.0
 20
0.0
 30
0.0
210
0.0
220
0.0
230
1.0
  0
VERTEX
  8
1
  6
HIDDEN
 62
    30
  5
3C8
 10
405.474583
 20
138.10225
 30
0.0
 42
0.093267
  0
VERTEX
  8
1
  6
HIDDEN
 62
    30
  5
3C9
 10
405.54996
 20
137.712069
 30
0.0
 42
0.077731
  0
VERTEX
  8
1
  6
HIDDEN
 62
    30
  5
3CA
 10
405.773194
 20
137.336883
 30
0.0
 42
0.059251
  0
VERTEX
  8
1
  6
HIDDEN
 62
    30
  5
3CB
 10
406.135707
 20
136.99111
 30
0.0
 42
0.045105
  0
VERTEX
  8
1
  6
HIDDEN
 62
    30
  5
3CC
 10
406.623567
 20
136.688036
 30
0.0
 42
0.035804
  0
VERTEX
  8
1
  6
HIDDEN
 62
    30
  5
3CD
 10
407.218026
 20
136.439311
 30
0.0
 42
0.030061
  0
VERTEX
  8
1
  6
HIDDEN
 62
    30
  5
3CE
 10
407.896239
 20
136.254491
 30
0.0
 42
0.02677
  0
VERTEX
  8
1
  6
HIDDEN
 62
    30
  5
3CF
 10
408.632143
 20
136.140679
 30
0.0
 42
0.025272
  0
VERTEX
  8
1
  6
HIDDEN
 62
    30
  5
3D0
 10
409.397458
 20
136.10225
 30
0.0
 42
0.025272
  0
VERTEX
  8
1
  6
HIDDEN
 62
    30
  5
3D1
 10
410.162773
 20
136.140679
 30
0.0
 42
0.02677
  0
VERTEX
  8
1
  6
HIDDEN
 62
    30
  5
3D2
 10
410.898678
 20
136.254491
 30
0.0
 42
0.030061
  0
VERTEX
  8
1
  6
HIDDEN
 62
    30
  5
3D3
 10
411.576891
 20
136.439311
 30
0.0
 42
0.035804
  0
VERTEX
  8
1
  6
HIDDEN
 62
    30
  5
3D4
 10
412.17135
 20
136.688036
 30
0.0
 42
0.045105
  0
VERTEX
  8
1
  6
HIDDEN
 62
    30
  5
3D5
 10
412.65921
 20
136.99111
 30
0.0
 42
0.059251
  0
VERTEX
  8
1
  6
HIDDEN
 62
    30
  5
3D6
 10
413.021722
 20
137.336883
 30
0.0
 42
0.077731
  0
VERTEX
  8
1
  6
HIDDEN
 62
    30
  5
3D7
 10
413.244956
 20
137.712069
 30
0.0
 42
0.093267
  0
VERTEX
  8
1
  6
HIDDEN
 62
    30
  5
3D8
 10
413.320333
 20
138.10225
 30
0.0
 42
0.093267
  0
SEQEND
  8
1
  6
HIDDEN
 62
    30
  5
3D9
  0
LINE
  8
1
  6
CONTINUOUS
 62
    30
  5
3DA
 10
375.62925
 20
108.880333
 30
0.0
 11
387.12925
 21
108.880333
 31
0.0
  0
LINE
  8
1
  6
CONTINUOUS
 62
    30
  5
3DB
 10
375.62925
 20
106.880333
 30
0.0
 11
387.12925
 21
106.880333
 31
0.0
  0
ARC
  8
1
  6
CONTINUOUS
 62
    30
  5
3DC
 10
375.577789
 20
107.880333
 30
0.0
 40
1.001323
 50
87.054078
 51
272.945922
210
0.0
220
0.0
230
1.0
  0
ARC
  8
1
  6
CONTINUOUS
 62
    30
  5
3DD
 10
387.180711
 20
107.880333
 30
0.0
 40
1.001323
 50
267.054078
 51
92.945922
210
0.0
220
0.0
230
1.0
  0
LINE
  8
1
  6
CONTINUOUS
 62
    30
  5
3DE
 10
378.87925
 20
108.880333
 30
0.0
 11
378.87925
 21
106.880333
 31
0.0
  0
LINE
  8
1
  6
CONTINUOUS
 62
    30
  5
3DF
 10
383.87925
 20
108.880333
 30
0.0
 11
383.87925
 21
106.880333
 31
0.0
  0
LINE
  8
1
  6
CONTINUOUS
 62
    30
  5
3E0
 10
369.62925
 20
107.880333
 30
0.0
 11
374.5765
 21
107.880333
 31
0.0
  0
LINE
  8
1
  6
CONTINUOUS
 62
    30
  5
3E1
 10
388.182
 20
107.880333
 30
0.0
 11
393.12925
 21
107.880333
 31
0.0
  0
LINE
  8
1
  6
CONTINUOUS
 62
    30
  5
3E2
 10
267.076333
 20
128.60225
 30
0.0
 11
272.076333
 21
128.60225
 31
0.0
  0
LINE
  8
1
  6
CONTINUOUS
 62
    30
  5
3E3
 10
267.076333
 20
127.60225
 30
0.0
 11
272.076333
 21
127.60225
 31
0.0
  0
LINE
  8
1
  6
CONTINUOUS
 62
    30
  5
3E4
 10
267.076333
 20
126.60225
 30
0.0
 11
272.076333
 21
126.60225
 31
0.0
  0
LINE
  8
1
  6
CONTINUOUS
 62
    30
  5
3E5
 10
265.076333
 20
123.60225
 30
0.0
 11
265.076333
 21
118.60225
 31
0.0
  0
LINE
  8
1
  6
CONTINUOUS
 62
    30
  5
3E6
 10
265.076333
 20
114.60225
 30
0.0
 11
265.076333
 21
110.60225
 31
0.0
  0
LINE
  8
1
  6
CONTINUOUS
 62
    30
  5
3E7
 10
274.076333
 20
123.60225
 30
0.0
 11
274.076333
 21
118.60225
 31
0.0
  0
LINE
  8
1
  6
CONTINUOUS
 62
    30
  5
3E8
 10
274.076333
 20
114.60225
 30
0.0
 11
274.076333
 21
110.60225
 31
0.0
  0
LINE
  8
1
  6
CONTINUOUS
 62
    30
  5
3E9
 10
267.076333
 20
117.60225
 30
0.0
 11
267.076333
 21
115.60225
 31
0.0
  0
LINE
  8
1
  6
CONTINUOUS
 62
    30
  5
3EA
 10
267.076333
 20
114.60225
 30
0.0
 11
267.076333
 21
109.60225
 31
0.0
  0
LINE
  8
1
  6
CONTINUOUS
 62
    30
  5
3EB
 10
272.076333
 20
117.60225
 30
0.0
 11
272.076333
 21
115.60225
 31
0.0
  0
LINE
  8
1
  6
CONTINUOUS
 62
    30
  5
3EC
 10
272.076333
 20
114.60225
 30
0.0
 11
272.076333
 21
109.60225
 31
0.0
  0
LINE
  8
1
  6
CONTINUOUS
 62
    30
  5
3ED
 10
267.076333
 20
128.60225
 30
0.0
 11
267.076333
 21
124.60225
 31
0.0
  0
LINE
  8
1
  6
CONTINUOUS
 62
    30
  5
3EE
 10
267.076333
 20
124.60225
 30
0.0
 11
267.076333
 21
118.60225
 31
0.0
  0
LINE
  8
1
  6
CONTINUOUS
 62
    30
  5
3EF
 10
267.076333
 20
125.60225
 30
0.0
 11
271.8535
 21
125.60225
 31
0.0
  0
LINE
  8
1
  6
CONTINUOUS
 62
    30
  5
3F0
 10
272.044833
 20
125.60225
 30
0.0
 11
272.076333
 21
125.60225
 31
0.0
  0
LINE
  8
1
  6
CONTINUOUS
 62
    30
  5
3F1
 10
272.076333
 20
128.60225
 30
0.0
 11
272.076333
 21
124.60225
 31
0.0
  0
LINE
  8
1
  6
CONTINUOUS
 62
    30
  5
3F2
 10
272.076333
 20
124.60225
 30
0.0
 11
272.076333
 21
118.60225
 31
0.0
  0
LINE
  8
1
  6
CONTINUOUS
 62
    30
  5
3F3
 10
265.576333
 20
124.60225
 30
0.0
 11
265.076333
 21
123.60225
 31
0.0
  0
LINE
  8
1
  6
CONTINUOUS
 62
    30
  5
3F4
 10
273.576333
 20
124.60225
 30
0.0
 11
274.076333
 21
123.60225
 31
0.0
  0
LINE
  8
1
  6
CONTINUOUS
 62
    30
  5
3F5
 10
265.576333
 20
109.60225
 30
0.0
 11
265.076333
 21
110.60225
 31
0.0
  0
LINE
  8
1
  6
CONTINUOUS
 62
    30
  5
3F6
 10
273.576333
 20
109.60225
 30
0.0
 11
274.076333
 21
110.60225
 31
0.0
  0
LINE
  8
1
  6
CONTINUOUS
 62
    30
  5
3F7
 10
267.576333
 20
129.60225
 30
0.0
 11
271.576333
 21
129.60225
 31
0.0
  0
LINE
  8
1
  6
CONTINUOUS
 62
    30
  5
3F8
 10
267.576333
 20
129.60225
 30
0.0
 11
267.076333
 21
128.60225
 31
0.0
  0
LINE
  8
1
  6
CONTINUOUS
 62
    30
  5
3F9
 10
271.576333
 20
129.60225
 30
0.0
 11
272.076333
 21
128.60225
 31
0.0
  0
LINE
  8
1
  6
CONTINUOUS
 62
    30
  5
3FA
 10
265.576333
 20
109.60225
 30
0.0
 11
273.576333
 21
109.60225
 31
0.0
  0
LINE
  8
1
  6
CONTINUOUS
 62
    30
  5
3FB
 10
265.576333
 20
124.60225
 30
0.0
 11
273.576333
 21
124.60225
 31
0.0
  0
POLYLINE
  8
1
  6
CONTINUOUS
 62
    30
  5
3FC
 66
     1
 10
0.0
 20
0.0
 30
0.0
 70
     1
  0
VERTEX
  8
1
  6
CONTINUOUS
 62
    30
  5
3FD
 10
265.576333
 20
124.60225
 30
0.0
  0
VERTEX
  8
1
  6
CONTINUOUS
 62
    30
  5
3FE
 10
268.576333
 20
124.60225
 30
0.0
  0
VERTEX
  8
1
  6
CONTINUOUS
 62
    30
  5
3FF
 10
267.076333
 20
123.10225
 30
0.0
  0
VERTEX
  8
1
  6
CONTINUOUS
 62
    30
  5
400
 10
265.576333
 20
124.60225
 30
0.0
  0
SEQEND
  8
1
  6
CONTINUOUS
 62
    30
  5
401
  0
POLYLINE
  8
1
  6
CONTINUOUS
 62
    30
  5
402
 66
     1
 10
0.0
 20
0.0
 30
0.0
 70
     1
  0
VERTEX
  8
1
  6
CONTINUOUS
 62
    30
  5
403
 10
273.576333
 20
124.60225
 30
0.0
  0
VERTEX
  8
1
  6
CONTINUOUS
 62
    30
  5
404
 10
270.576333
 20
124.60225
 30
0.0
  0
VERTEX
  8
1
  6
CONTINUOUS
 62
    30
  5
405
 10
272.076333
 20
123.10225
 30
0.0
  0
VERTEX
  8
1
  6
CONTINUOUS
 62
    30
  5
406
 10
273.576333
 20
124.60225
 30
0.0
  0
SEQEND
  8
1
  6
CONTINUOUS
 62
    30
  5
407
  0
POLYLINE
  8
1
  6
CONTINUOUS
 62
    30
  5
408
 66
     1
 10
0.0
 20
0.0
 30
0.0
 70
     1
  0
VERTEX
  8
1
  6
CONTINUOUS
 62
    30
  5
409
 10
267.076333
 20
111.10225
 30
0.0
  0
VERTEX
  8
1
  6
CONTINUOUS
 62
    30
  5
40A
 10
265.576333
 20
109.60225
 30
0.0
  0
VERTEX
  8
1
  6
CONTINUOUS
 62
    30
  5
40B
 10
268.576333
 20
109.60225
 30
0.0
  0
VERTEX
  8
1
  6
CONTINUOUS
 62
    30
  5
40C
 10
267.076333
 20
111.10225
 30
0.0
  0
SEQEND
  8
1
  6
CONTINUOUS
 62
    30
  5
40D
  0
POLYLINE
  8
1
  6
CONTINUOUS
 62
    30
  5
40E
 66
     1
 10
0.0
 20
0.0
 30
0.0
 70
     1
  0
VERTEX
  8
1
  6
CONTINUOUS
 62
    30
  5
40F
 10
270.576333
 20
109.60225
 30
0.0
  0
VERTEX
  8
1
  6
CONTINUOUS
 62
    30
  5
410
 10
272.076333
 20
111.10225
 30
0.0
  0
VERTEX
  8
1
  6
CONTINUOUS
 62
    30
  5
411
 10
273.576333
 20
109.60225
 30
0.0
  0
VERTEX
  8
1
  6
CONTINUOUS
 62
    30
  5
412
 10
270.576333
 20
109.60225
 30
0.0
  0
SEQEND
  8
1
  6
CONTINUOUS
 62
    30
  5
413
  0
LINE
  8
1
  6
CONTINUOUS
 62
    30
  5
414
 10
385.87925
 20
114.880333
 30
0.0
 11
385.87925
 21
109.880333
 31
0.0
  0
LINE
  8
1
  6
CONTINUOUS
 62
    30
  5
415
 10
378.87925
 20
119.880333
 30
0.0
 11
383.87925
 21
119.880333
 31
0.0
  0
LINE
  8
1
  6
CONTINUOUS
 62
    30
  5
416
 10
378.87925
 20
118.880333
 30
0.0
 11
383.87925
 21
118.880333
 31
0.0
  0
LINE
  8
1
  6
CONTINUOUS
 62
    30
  5
417
 10
378.87925
 20
117.880333
 30
0.0
 11
383.87925
 21
117.880333
 31
0.0
  0
LINE
  8
1
  6
CONTINUOUS
 62
    30
  5
418
 10
376.87925
 20
114.880333
 30
0.0
 11
376.87925
 21
109.880333
 31
0.0
  0
LINE
  8
1
  6
CONTINUOUS
 62
    30
  5
419
 10
376.87925
 20
105.880333
 30
0.0
 11
376.87925
 21
101.880333
 31
0.0
  0
LINE
  8
1
  6
CONTINUOUS
 62
    30
  5
41A
 10
385.87925
 20
105.880333
 30
0.0
 11
385.87925
 21
101.880333
 31
0.0
  0
LINE
  8
1
  6
CONTINUOUS
 62
    30
  5
41B
 10
378.87925
 20
105.880333
 30
0.0
 11
378.87925
 21
100.880333
 31
0.0
  0
LINE
  8
1
  6
CONTINUOUS
 62
    30
  5
41C
 10
383.87925
 20
105.880333
 30
0.0
 11
383.87925
 21
100.880333
 31
0.0
  0
LINE
  8
1
  6
CONTINUOUS
 62
    30
  5
41D
 10
378.87925
 20
119.880333
 30
0.0
 11
378.87925
 21
115.880333
 31
0.0
  0
LINE
  8
1
  6
CONTINUOUS
 62
    30
  5
41E
 10
378.87925
 20
115.880333
 30
0.0
 11
378.87925
 21
109.880333
 31
0.0
  0
LINE
  8
1
  6
CONTINUOUS
 62
    30
  5
41F
 10
378.87925
 20
116.880333
 30
0.0
 11
383.656417
 21
116.880333
 31
0.0
  0
LINE
  8
1
  6
CONTINUOUS
 62
    30
  5
420
 10
383.87925
 20
119.880333
 30
0.0
 11
383.87925
 21
115.880333
 31
0.0
  0
LINE
  8
1
  6
CONTINUOUS
 62
    30
  5
421
 10
383.87925
 20
115.880333
 30
0.0
 11
383.87925
 21
109.880333
 31
0.0
  0
LINE
  8
1
  6
CONTINUOUS
 62
    30
  5
422
 10
377.37925
 20
115.880333
 30
0.0
 11
376.87925
 21
114.880333
 31
0.0
  0
LINE
  8
1
  6
CONTINUOUS
 62
    30
  5
423
 10
385.37925
 20
115.880333
 30
0.0
 11
385.87925
 21
114.880333
 31
0.0
  0
LINE
  8
1
  6
CONTINUOUS
 62
    30
  5
424
 10
377.37925
 20
100.880333
 30
0.0
 11
376.87925
 21
101.880333
 31
0.0
  0
LINE
  8
1
  6
CONTINUOUS
 62
    30
  5
425
 10
385.37925
 20
100.880333
 30
0.0
 11
385.87925
 21
101.880333
 31
0.0
  0
LINE
  8
1
  6
CONTINUOUS
 62
    30
  5
426
 10
379.37925
 20
120.880333
 30
0.0
 11
383.37925
 21
120.880333
 31
0.0
  0
LINE
  8
1
  6
CONTINUOUS
 62
    30
  5
427
 10
379.37925
 20
120.880333
 30
0.0
 11
378.87925
 21
119.880333
 31
0.0
  0
LINE
  8
1
  6
CONTINUOUS
 62
    30
  5
428
 10
383.37925
 20
120.880333
 30
0.0
 11
383.87925
 21
119.880333
 31
0.0
  0
LINE
  8
1
  6
CONTINUOUS
 62
    30
  5
429
 10
377.37925
 20
100.880333
 30
0.0
 11
385.37925
 21
100.880333
 31
0.0
  0
LINE
  8
1
  6
CONTINUOUS
 62
    30
  5
42A
 10
377.37925
 20
115.880333
 30
0.0
 11
385.37925
 21
115.880333
 31
0.0
  0
POLYLINE
  8
1
  6
CONTINUOUS
 62
    30
  5
42B
 66
     1
 10
0.0
 20
0.0
 30
0.0
 70
     1
  0
VERTEX
  8
1
  6
CONTINUOUS
 62
    30
  5
42C
 10
377.37925
 20
115.880333
 30
0.0
  0
VERTEX
  8
1
  6
CONTINUOUS
 62
    30
  5
42D
 10
380.37925
 20
115.880333
 30
0.0
  0
VERTEX
  8
1
  6
CONTINUOUS
 62
    30
  5
42E
 10
378.87925
 20
114.380333
 30
0.0
  0
VERTEX
  8
1
  6
CONTINUOUS
 62
    30
  5
42F
 10
377.37925
 20
115.880333
 30
0.0
  0
SEQEND
  8
1
  6
CONTINUOUS
 62
    30
  5
430
  0
POLYLINE
  8
1
  6
CONTINUOUS
 62
    30
  5
431
 66
     1
 10
0.0
 20
0.0
 30
0.0
 70
     1
  0
VERTEX
  8
1
  6
CONTINUOUS
 62
    30
  5
432
 10
385.37925
 20
115.880333
 30
0.0
  0
VERTEX
  8
1
  6
CONTINUOUS
 62
    30
  5
433
 10
382.37925
 20
115.880333
 30
0.0
  0
VERTEX
  8
1
  6
CONTINUOUS
 62
    30
  5
434
 10
383.87925
 20
114.380333
 30
0.0
  0
VERTEX
  8
1
  6
CONTINUOUS
 62
    30
  5
435
 10
385.37925
 20
115.880333
 30
0.0
  0
SEQEND
  8
1
  6
CONTINUOUS
 62
    30
  5
436
  0
POLYLINE
  8
1
  6
CONTINUOUS
 62
    30
  5
437
 66
     1
 10
0.0
 20
0.0
 30
0.0
 70
     1
  0
VERTEX
  8
1
  6
CONTINUOUS
 62
    30
  5
438
 10
378.87925
 20
102.380333
 30
0.0
  0
VERTEX
  8
1
  6
CONTINUOUS
 62
    30
  5
439
 10
377.37925
 20
100.880333
 30
0.0
  0
VERTEX
  8
1
  6
CONTINUOUS
 62
    30
  5
43A
 10
380.37925
 20
100.880333
 30
0.0
  0
VERTEX
  8
1
  6
CONTINUOUS
 62
    30
  5
43B
 10
378.87925
 20
102.380333
 30
0.0
  0
SEQEND
  8
1
  6
CONTINUOUS
 62
    30
  5
43C
  0
POLYLINE
  8
1
  6
CONTINUOUS
 62
    30
  5
43D
 66
     1
 10
0.0
 20
0.0
 30
0.0
 70
     1
  0
VERTEX
  8
1
  6
CONTINUOUS
 62
    30
  5
43E
 10
382.37925
 20
100.880333
 30
0.0
  0
VERTEX
  8
1
  6
CONTINUOUS
 62
    30
  5
43F
 10
383.87925
 20
102.380333
 30
0.0
  0
VERTEX
  8
1
  6
CONTINUOUS
 62
    30
  5
440
 10
385.37925
 20
100.880333
 30
0.0
  0
VERTEX
  8
1
  6
CONTINUOUS
 62
    30
  5
441
 10
382.37925
 20
100.880333
 30
0.0
  0
SEQEND
  8
1
  6
CONTINUOUS
 62
    30
  5
442
  0
LINE
  8
1
  6
CONTINUOUS
 62
     7
  5
443
 10
267.076333
 20
126.950167
 30
0.0
 11
247.022833
 21
126.950167
 31
0.0
  0
INSERT
  8
1
  6
CONTINUOUS
 62
     1
  5
444
  2
LDR
 10
267.076333
 20
126.950167
 30
0.0
 41
240.0
 42
240.0
210
0.0
220
0.0
230
1.0
  0
LINE
  8
1
  6
CONTINUOUS
 62
     7
  5
445
 10
298.576333
 20
140.10225
 30
0.0
 11
316.576333
 21
140.10225
 31
0.0
  0
LINE
  8
1
  6
CONTINUOUS
 62
     7
  5
446
 10
298.576333
 20
93.10225
 30
0.0
 11
316.576333
 21
93.10225
 31
0.0
  0
LINE
  8
1
  6
CONTINUOUS
 62
     7
  5
447
 10
282.326333
 20
116.60225
 30
0.0
 11
316.576333
 21
116.60225
 31
0.0
  0
LINE
  8
1
  6
CONTINUOUS
 62
     7
  5
448
 10
315.576333
 20
140.10225
 30
0.0
 11
315.576333
 21
116.60225
 31
0.0
  0
LINE
  8
1
  6
CONTINUOUS
 62
     7
  5
449
 10
315.576333
 20
116.60225
 30
0.0
 11
315.576333
 21
93.10225
 31
0.0
  0
INSERT
  8
1
  6
CONTINUOUS
 62
     1
  5
44A
  2
LDR
 10
315.576333
 20
140.10225
 30
0.0
 41
240.0
 42
240.0
 50
90.0
210
0.0
220
0.0
230
1.0
  0
INSERT
  8
1
  6
CONTINUOUS
 62
     1
  5
44B
  2
LDR
 10
315.576333
 20
116.60225
 30
0.0
 41
240.0
 42
240.0
 50
270.0
210
0.0
220
0.0
230
1.0
  0
INSERT
  8
1
  6
CONTINUOUS
 62
     1
  5
44C
  2
LDR
 10
315.576333
 20
116.60225
 30
0.0
 41
240.0
 42
240.0
 50
270.0
210
0.0
220
0.0
230
1.0
  0
INSERT
  8
1
  6
CONTINUOUS
 62
     1
  5
44D
  2
LDR
 10
315.576333
 20
116.60225
 30
0.0
 41
240.0
 42
240.0
 50
90.0
210
0.0
220
0.0
230
1.0
  0
INSERT
  8
1
  6
CONTINUOUS
 62
     1
  5
44E
  2
LDR
 10
315.576333
 20
116.60225
 30
0.0
 41
240.0
 42
240.0
 50
90.0
210
0.0
220
0.0
230
1.0
  0
INSERT
  8
1
  6
CONTINUOUS
 62
     1
  5
44F
  2
LDR
 10
315.576333
 20
93.10225
 30
0.0
 41
240.0
 42
240.0
 50
270.0
210
0.0
220
0.0
230
1.0
  0
LINE
  8
1
  6
CONTINUOUS
 62
     7
  5
450
 10
241.576333
 20
92.10225
 30
0.0
 11
241.576333
 21
80.10225
 31
0.0
  0
LINE
  8
1
  6
CONTINUOUS
 62
     7
  5
451
 10
297.576333
 20
92.10225
 30
0.0
 11
297.576333
 21
80.10225
 31
0.0
  0
LINE
  8
1
  6
CONTINUOUS
 62
     7
  5
452
 10
241.576333
 20
81.10225
 30
0.0
 11
297.576333
 21
81.10225
 31
0.0
  0
INSERT
  8
1
  6
CONTINUOUS
 62
     1
  5
453
  2
LDR
 10
241.576333
 20
81.10225
 30
0.0
 41
240.0
 42
240.0
 50
180.0
210
0.0
220
0.0
230
1.0
  0
INSERT
  8
1
  6
CONTINUOUS
 62
     1
  5
454
  2
LDR
 10
241.576333
 20
81.10225
 30
0.0
 41
240.0
 42
240.0
 50
180.0
210
0.0
220
0.0
230
1.0
  0
INSERT
  8
1
  6
CONTINUOUS
 62
     1
  5
455
  2
LDR
 10
297.576333
 20
81.10225
 30
0.0
 41
240.0
 42
240.0
210
0.0
220
0.0
230
1.0
  0
LINE
  8
1
  6
CONTINUOUS
 62
     7
  5
456
 10
378.810583
 20
118.315417
 30
0.0
 11
354.810583
 21
118.315417
 31
0.0
  0
INSERT
  8
1
  6
CONTINUOUS
 62
     1
  5
457
  2
LDR
 10
378.810583
 20
118.315417
 30
0.0
 41
240.0
 42
240.0
210
0.0
220
0.0
230
1.0
  0
LINE
  8
1
  6
CONTINUOUS
 62
     7
  5
458
 10
414.320333
 20
140.10225
 30
0.0
 11
432.320333
 21
140.10225
 31
0.0
  0
LINE
  8
1
  6
CONTINUOUS
 62
     7
  5
459
 10
414.320333
 20
75.658417
 30
0.0
 11
432.320333
 21
75.658417
 31
0.0
  0
LINE
  8
1
  6
CONTINUOUS
 62
     7
  5
45A
 10
395.12925
 20
107.880333
 30
0.0
 11
432.320333
 21
107.880333
 31
0.0
  0
LINE
  8
1
  6
CONTINUOUS
 62
     7
  5
45B
 10
431.320333
 20
140.10225
 30
0.0
 11
431.320333
 21
107.880333
 31
0.0
  0
LINE
  8
1
  6
CONTINUOUS
 62
     7
  5
45C
 10
431.320333
 20
107.880333
 30
0.0
 11
431.320333
 21
75.658417
 31
0.0
  0
INSERT
  8
1
  6
CONTINUOUS
 62
     1
  5
45D
  2
LDR
 10
431.320333
 20
140.10225
 30
0.0
 41
240.0
 42
240.0
 50
90.0
210
0.0
220
0.0
230
1.0
  0
INSERT
  8
1
  6
CONTINUOUS
 62
     1
  5
45E
  2
LDR
 10
431.320333
 20
140.10225
 30
0.0
 41
240.0
 42
240.0
 50
90.0
210
0.0
220
0.0
230
1.0
  0
INSERT
  8
1
  6
CONTINUOUS
 62
     1
  5
45F
  2
LDR
 10
431.320333
 20
107.880333
 30
0.0
 41
240.0
 42
240.0
 50
270.0
210
0.0
220
0.0
230
1.0
  0
INSERT
  8
1
  6
CONTINUOUS
 62
     1
  5
460
  2
LDR
 10
431.320333
 20
107.880333
 30
0.0
 41
240.0
 42
240.0
 50
270.0
210
0.0
220
0.0
230
1.0
  0
INSERT
  8
1
  6
CONTINUOUS
 62
     1
  5
461
  2
LDR
 10
431.320333
 20
107.880333
 30
0.0
 41
240.0
 42
240.0
 50
90.0
210
0.0
220
0.0
230
1.0
  0
INSERT
  8
1
  6
CONTINUOUS
 62
     1
  5
462
  2
LDR
 10
431.320333
 20
107.880333
 30
0.0
 41
240.0
 42
240.0
 50
90.0
210
0.0
220
0.0
230
1.0
  0
INSERT
  8
1
  6
CONTINUOUS
 62
     1
  5
463
  2
LDR
 10
431.320333
 20
75.658417
 30
0.0
 41
240.0
 42
240.0
 50
270.0
210
0.0
220
0.0
230
1.0
  0
LINE
  8
1
  6
CONTINUOUS
 62
     7
  5
464
 10
349.438167
 20
74.658417
 30
0.0
 11
349.438167
 21
62.658417
 31
0.0
  0
LINE
  8
1
  6
CONTINUOUS
 62
     7
  5
465
 10
413.320333
 20
74.658417
 30
0.0
 11
413.320333
 21
62.658417
 31
0.0
  0
LINE
  8
1
  6
CONTINUOUS
 62
     7
  5
466
 10
349.438167
 20
63.658417
 30
0.0
 11
413.320333
 21
63.658417
 31
0.0
  0
INSERT
  8
1
  6
CONTINUOUS
 62
     1
  5
467
  2
LDR
 10
349.438167
 20
63.658417
 30
0.0
 41
240.0
 42
240.0
 50
180.0
210
0.0
220
0.0
230
1.0
  0
INSERT
  8
1
  6
CONTINUOUS
 62
     1
  5
468
  2
LDR
 10
349.438167
 20
63.658417
 30
0.0
 41
240.0
 42
240.0
 50
180.0
210
0.0
220
0.0
230
1.0
  0
INSERT
  8
1
  6
CONTINUOUS
 62
     1
  5
469
  2
LDR
 10
413.320333
 20
63.658417
 30
0.0
 41
240.0
 42
240.0
210
0.0
220
0.0
230
1.0
  0
LINE
  8
1
  6
CONTINUOUS
 62
     7
  5
46A
 10
248.894583
 20
68.579667
 30
0.0
 11
294.190917
 21
68.579667
 31
0.0
  0
TEXT
  8
1
  6
CONTINUOUS
 62
     7
  5
46B
 10
235.582667
 20
125.4555
 30
0.0
 40
2.5
  1
STEEL
  7
MONOTXT
 72
     4
 11
241.143667
 21
126.7055
 31
0.0
210
0.0
220
0.0
230
1.0
  0
TEXT
  8
1
  6
CONTINUOUS
 62
     7
  5
46C
 10
232.118083
 20
120.9555
 30
0.0
 40
2.5
  1
 5/16 " BOLT
  7
MONOTXT
 72
     4
 11
241.143583
 21
122.2055
 31
0.0
210
0.0
220
0.0
230
1.0
  0
TEXT
  8
1
  6
CONTINUOUS
 62
     7
  5
46D
 10
343.0715
 20
116.56925
 30
0.0
 40
2.5
  1
STEEL
  7
MONOTXT
 72
     4
 11
348.6325
 21
117.81925
 31
0.0
210
0.0
220
0.0
230
1.0
  0
TEXT
  8
1
  6
CONTINUOUS
 62
     7
  5
46E
 10
339.606917
 20
112.06925
 30
0.0
 40
2.5
  1
 5/16 " BOLT
  7
MONOTXT
 72
     4
 11
348.632417
 21
113.31925
 31
0.0
210
0.0
220
0.0
230
1.0
  0
TEXT
  8
1
  6
CONTINUOUS
 62
     7
  5
46F
 10
372.477
 20
65.3065
 30
0.0
 40
2.5
  1
3 1/2 " +  1/16 "
  7
MONOTXT
 72
     4
 11
382.801833
 21
66.5565
 31
0.0
210
0.0
220
0.0
230
1.0
  0
TEXT
  8
1
  6
CONTINUOUS
 62
     7
  5
470
 10
383.06325
 20
63.991917
 30
0.0
 40
2.5
  1
-
  7
MONOTXT
 72
     4
 11
383.62425
 21
65.241917
 31
0.0
210
0.0
220
0.0
230
1.0
  0
TEXT
  8
1
  6
CONTINUOUS
 62
     7
  5
471
 10
259.84175
 20
82.80375
 30
0.0
 40
2.5
  1
3 1/16 " +  1/16 "
  7
MONOTXT
 72
     4
 11
270.61925
 21
84.05375
 31
0.0
210
0.0
220
0.0
230
1.0
  0
TEXT
  8
1
  6
CONTINUOUS
 62
     7
  5
472
 10
271.247333
 20
81.513583
 30
0.0
 40
2.5
  1
-
  7
MONOTXT
 72
     4
 11
271.808333
 21
82.763583
 31
0.0
210
0.0
220
0.0
230
1.0
  0
TEXT
  8
1
  6
CONTINUOUS
 62
     7
  5
473
 10
314.010667
 20
95.065917
 30
0.0
 40
2.5
  1
1 7/16 " +  1/8 "
 50
90.0
  7
MONOTXT
 72
     4
 11
312.760667
 21
104.85925
 31
0.0
210
0.0
220
0.0
230
1.0
  0
TEXT
  8
1
  6
CONTINUOUS
 62
     7
  5
474
 10
315.270667
 20
105.376417
 30
0.0
 40
2.5
  1
-
 50
90.0
  7
MONOTXT
 72
     4
 11
314.020667
 21
105.937417
 31
0.0
210
0.0
220
0.0
230
1.0
  0
TEXT
  8
1
  6
CONTINUOUS
 62
     7
  5
475
 10
314.141833
 20
118.647
 30
0.0
 40
2.5
  1
1 7/16 " +  1/8 "
 50
90.0
  7
MONOTXT
 72
     4
 11
312.891833
 21
128.440333
 31
0.0
210
0.0
220
0.0
230
1.0
  0
TEXT
  8
1
  6
CONTINUOUS
 62
     7
  5
476
 10
315.401833
 20
128.9575
 30
0.0
 40
2.5
  1
-
 50
90.0
  7
MONOTXT
 72
     4
 11
314.151833
 21
129.5185
 31
0.0
210
0.0
220
0.0
230
1.0
  0
TEXT
  8
1
  6
CONTINUOUS
 62
     7
  5
477
 10
429.77325
 20
82.40575
 30
0.0
 40
2.5
  1
1 7/8 " +  1/8 "
 50
90.0
  7
MONOTXT
 72
     4
 11
428.52325
 21
91.74625
 31
0.0
210
0.0
220
0.0
230
1.0
  0
TEXT
  8
1
  6
CONTINUOUS
 62
     7
  5
478
 10
430.904
 20
91.822917
 30
0.0
 40
2.5
  1
-
 50
90.0
  7
MONOTXT
 72
     4
 11
429.654
 21
92.383917
 31
0.0
210
0.0
220
0.0
230
1.0
  0
TEXT
  8
1
  6
CONTINUOUS
 62
     7
  5
479
 10
429.51175
 20
114.217083
 30
0.0
 40
2.5
  1
1 7/8 " +  1/8 "
 50
90.0
  7
MONOTXT
 72
     4
 11
428.26175
 21
123.557583
 31
0.0
210
0.0
220
0.0
230
1.0
  0
TEXT
  8
1
  6
CONTINUOUS
 62
     7
  5
47A
 10
430.6425
 20
123.63425
 30
0.0
 40
2.5
  1
-
 50
90.0
  7
MONOTXT
 72
     4
 11
429.3925
 21
124.19525
 31
0.0
210
0.0
220
0.0
230
1.0
  0
LINE
  8
1
  6
CONTINUOUS
 62
     7
  5
47B
 10
359.750583
 20
52.4875
 30
0.0
 11
405.21925
 21
52.4875
 31
0.0
  0
TEXT
  8
1
  6
CONTINUOUS
 62
     7
  5
47C
 10
362.585833
 20
44.023833
 30
0.0
 40
2.5
  1
WT./FT. = 6.0 BB
  7
MONOTXT
 11
362.585833
 21
46.523833
 31
0.0
210
0.0
220
0.0
230
1.0
 73
     3
  0
TEXT
  8
1
  6
CONTINUOUS
 62
     7
  5
47D
 10
362.585833
 20
39.523833
 30
0.0
 40
2.5
  1
SEC. MOD. X-X=1.32+10%
  7
MONOTXT
 11
362.585833
 21
42.023833
 31
0.0
210
0.0
220
0.0
230
1.0
 73
     3
  0
TEXT
  8
1
  6
CONTINUOUS
 62
     7
  5
47E
 10
362.585833
 20
35.023833
 30
0.0
 40
2.5
  1
SEC. MOD. Y-Y=1.004+5%
  7
MONOTXT
 11
362.585833
 21
37.523833
 31
0.0
210
0.0
220
0.0
230
1.0
 73
     3
  0
TEXT
  8
1
  6
CONTINUOUS
 62
     7
  5
47F
 10
399.743333
 20
38.305917
 30
0.0
 40
2.5
  1
-
  7
MONOTXT
 72
     4
 11
400.304333
 21
39.555917
 31
0.0
210
0.0
220
0.0
230
1.0
  0
TEXT
  8
1
  6
CONTINUOUS
 62
     7
  5
480
 10
402.782167
 20
33.810333
 30
0.0
 40
2.5
  1
-
  7
MONOTXT
 72
     4
 11
403.343167
 21
35.060333
 31
0.0
210
0.0
220
0.0
230
1.0
  0
TEXT
  8
1
  6
CONTINUOUS
 62
     7
  5
481
 10
249.635833
 20
69.87125
 30
0.0
 40
3.0
  1
SIGN POST 4.0 BB
  7
MONOTXT
 72
     4
 11
271.521667
 21
71.37125
 31
0.0
210
0.0
220
0.0
230
1.0
  0
TEXT
  8
1
  6
CONTINUOUS
 62
     7
  5
482
 10
360.641583
 20
53.779083
 30
0.0
 40
3.0
  1
SIGN POST 6.0 BB
  7
MONOTXT
 72
     4
 11
382.385583
 21
55.279083
 31
0.0
210
0.0
220
0.0
230
1.0
  0
TEXT
  8
1
  6
CONTINUOUS
 62
     7
  5
483
 10
288.031667
 20
55.317333
 30
0.0
 40
2.5
  1
-
  7
MONOTXT
 72
     4
 11
288.592667
 21
56.567333
 31
0.0
210
0.0
220
0.0
230
1.0
  0
TEXT
  8
1
  6
CONTINUOUS
 62
     7
  5
484
 10
287.448917
 20
50.712
 30
0.0
 40
2.5
  1
-
  7
MONOTXT
 72
     4
 11
288.009917
 21
51.962
 31
0.0
210
0.0
220
0.0
230
1.0
  0
LINE
  8
1
  6
CONTINUOUS
 62
     6
  5
485
 10
371.049833
 20
357.099833
 30
0.0
 11
421.049833
 21
357.099833
 31
0.0
  0
LINE
  8
1
  6
CONTINUOUS
 62
     6
  5
486
 10
421.049833
 20
357.099833
 30
0.0
 11
421.049833
 21
297.099833
 31
0.0
  0
LINE
  8
1
  6
CONTINUOUS
 62
     6
  5
487
 10
421.049833
 20
297.099833
 30
0.0
 11
371.049833
 21
297.099833
 31
0.0
  0
LINE
  8
1
  6
CONTINUOUS
 62
     6
  5
488
 10
371.049833
 20
297.099833
 30
0.0
 11
371.049833
 21
357.099833
 31
0.0
  0
LINE
  8
1
  6
CONTINUOUS
 62
     6
  5
489
 10
371.049833
 20
337.099833
 30
0.0
 11
421.049833
 21
337.099833
 31
0.0
  0
LINE
  8
1
  6
CONTINUOUS
 62
     6
  5
48A
 10
371.049833
 20
327.099833
 30
0.0
 11
421.049833
 21
327.099833
 31
0.0
  0
LINE
  8
1
  6
CONTINUOUS
 62
     6
  5
48B
 10
371.049833
 20
317.099833
 30
0.0
 11
421.049833
 21
317.099833
 31
0.0
  0
LINE
  8
1
  6
CONTINUOUS
 62
     6
  5
48C
 10
371.049833
 20
307.099833
 30
0.0
 11
421.049833
 21
307.099833
 31
0.0
  0
LINE
  8
1
  6
CONTINUOUS
 62
     6
  5
48D
 10
401.049833
 20
297.099833
 30
0.0
 11
401.049833
 21
357.099833
 31
0.0
  0
TEXT
  8
1
  6
CONTINUOUS
 62
     7
  5
48E
 10
381.0295
 20
348.206
 30
0.0
 40
2.5
  1
POST
  7
MONOTXT
 72
     4
 11
385.704667
 21
349.456
 31
0.0
210
0.0
220
0.0
230
1.0
  0
TEXT
  8
1
  6
CONTINUOUS
 62
     7
  5
48F
 10
378.13575
 20
343.706
 30
0.0
 40
2.5
  1
SECTION
  7
MONOTXT
 72
     4
 11
385.704583
 21
344.956
 31
0.0
210
0.0
220
0.0
230
1.0
  0
TEXT
  8
1
  6
CONTINUOUS
 62
     7
  5
490
 10
405.162917
 20
348.039667
 30
0.0
 40
2.5
  1
DEPTH
  7
MONOTXT
 72
     4
 11
410.901083
 21
349.289667
 31
0.0
210
0.0
220
0.0
230
1.0
  0
TEXT
  8
1
  6
CONTINUOUS
 62
     7
  5
491
 10
404.631417
 20
343.539667
 30
0.0
 40
2.5
  1
DRIVEN
  7
MONOTXT
 72
     4
 11
410.901083
 21
344.789667
 31
0.0
210
0.0
220
0.0
230
1.0
  0
TEXT
  8
1
  6
CONTINUOUS
 62
     7
  5
492
 10
376.60375
 20
330.899833
 30
0.0
 40
2.5
  1
2.00 /FT.
  7
MONOTXT
 72
     4
 11
385.94425
 21
332.149833
 31
0.0
210
0.0
220
0.0
230
1.0
  0
TEXT
  8
1
  6
CONTINUOUS
 62
     7
  5
493
 10
376.35425
 20
320.751417
 30
0.0
 40
2.5
  1
3.00 /FT.
  7
MONOTXT
 72
     4
 11
385.69475
 21
322.001417
 31
0.0
210
0.0
220
0.0
230
1.0
  0
TEXT
  8
1
  6
CONTINUOUS
 62
     7
  5
494
 10
374.147583
 20
310.603
 30
0.0
 40
2.5
  1
4.00 BB/FT.
  7
MONOTXT
 72
     4
 11
386.027417
 21
311.853
 31
0.0
210
0.0
220
0.0
230
1.0
  0
TEXT
  8
1
  6
CONTINUOUS
 62
     7
  5
495
 10
374.431917
 20
300.787417
 30
0.0
 40
2.5
  1
6.00 BB/FT.
  7
MONOTXT
 72
     4
 11
386.19375
 21
302.037417
 31
0.0
210
0.0
220
0.0
230
1.0
  0
TEXT
  8
1
  6
CONTINUOUS
 62
     7
  5
496
 10
407.648667
 20
330.733417
 30
0.0
 40
2.5
  1
3.0'
  7
MONOTXT
 72
     4
 11
410.808083
 21
331.983417
 31
0.0
210
0.0
220
0.0
230
1.0
  0
TEXT
  8
1
  6
CONTINUOUS
 62
     7
  5
497
 10
407.815
 20
320.66825
 30
0.0
 40
2.5
  1
3.5'
  7
MONOTXT
 72
     4
 11
410.974417
 21
321.91825
 31
0.0
210
0.0
220
0.0
230
1.0
  0
TEXT
  8
1
  6
CONTINUOUS
 62
     7
  5
498
 10
407.316083
 20
310.93575
 30
0.0
 40
2.5
  1
3.5'
  7
MONOTXT
 72
     4
 11
410.4755
 21
312.18575
 31
0.0
210
0.0
220
0.0
230
1.0
  0
TEXT
  8
1
  6
CONTINUOUS
 62
     7
  5
499
 10
407.316083
 20
300.787417
 30
0.0
 40
2.5
  1
3.5'
  7
MONOTXT
 72
     4
 11
410.4755
 21
302.037417
 31
0.0
210
0.0
220
0.0
230
1.0
  0
TEXT
  8
1
  6
CONTINUOUS
 62
     7
  5
49A
 10
385.183417
 20
329.15075
 30
0.0
 40
5.0
  1
#
  7
MONOTXT
 72
     4
 11
386.462917
 21
331.65075
 31
0.0
210
0.0
220
0.0
230
1.0
  0
TEXT
  8
1
  6
CONTINUOUS
 62
     7
  5
49B
 10
384.850833
 20
319.002333
 30
0.0
 40
5.0
  1
#
  7
MONOTXT
 72
     4
 11
386.130333
 21
321.502333
 31
0.0
210
0.0
220
0.0
230
1.0
  0
TEXT
  8
1
  6
CONTINUOUS
 62
     7
  5
49C
 10
382.43925
 20
308.77075
 30
0.0
 40
5.0
  1
#
  7
MONOTXT
 72
     4
 11
383.71875
 21
311.27075
 31
0.0
210
0.0
220
0.0
230
1.0
  0
TEXT
  8
1
  6
CONTINUOUS
 62
     7
  5
49D
 10
382.522417
 20
298.955083
 30
0.0
 40
5.0
  1
#
  7
MONOTXT
 72
     4
 11
383.801917
 21
301.455083
 31
0.0
210
0.0
220
0.0
230
1.0
  0
LINE
  8
1
  6
DASHED
 62
     2
  5
49E
 10
552.935167
 20
372.518667
 30
0.0
 11
532.935167
 21
352.518667
 31
0.0
  0
LINE
  8
1
  6
DASHED
 62
     2
  5
49F
 10
532.935167
 20
352.518667
 30
0.0
 11
552.935167
 21
332.518667
 31
0.0
  0
LINE
  8
1
  6
DASHED
 62
     2
  5
4A0
 10
552.935167
 20
332.518667
 30
0.0
 11
572.935167
 21
352.518667
 31
0.0
  0
LINE
  8
1
  6
DASHED
 62
     2
  5
4A1
 10
572.935167
 20
352.518667
 30
0.0
 11
552.935167
 21
372.518667
 31
0.0
  0
LINE
  8
1
  6
CONTINUOUS
 62
     2
  5
4A2
 10
532.935167
 20
365.018667
 30
0.0
 11
572.935167
 21
365.018667
 31
0.0
  0
LINE
  8
1
  6
CONTINUOUS
 62
     2
  5
4A3
 10
532.935167
 20
340.018667
 30
0.0
 11
572.935167
 21
340.018667
 31
0.0
  0
LINE
  8
1
  6
CONTINUOUS
 62
     2
  5
4A4
 10
532.935167
 20
365.018667
 30
0.0
 11
532.935167
 21
340.018667
 31
0.0
  0
LINE
  8
1
  6
CONTINUOUS
 62
     2
  5
4A5
 10
572.935167
 20
365.018667
 30
0.0
 11
572.935167
 21
340.018667
 31
0.0
  0
LINE
  8
1
  6
DASHED
 62
     2
  5
4A6
 10
551.935167
 20
365.018667
 30
0.0
 11
551.935167
 21
340.018667
 31
0.0
  0
LINE
  8
1
  6
DASHED
 62
     2
  5
4A7
 10
553.935167
 20
365.018667
 30
0.0
 11
553.935167
 21
340.018667
 31
0.0
  0
LINE
  8
1
  6
CONTINUOUS
 62
     2
  5
4A8
 10
551.935167
 20
340.018667
 30
0.0
 11
551.935167
 21
290.018667
 31
0.0
  0
LINE
  8
1
  6
CONTINUOUS
 62
     2
  5
4A9
 10
553.935167
 20
340.018667
 30
0.0
 11
553.935167
 21
290.018667
 31
0.0
  0
POLYLINE
  8
1
  6
CONTINUOUS
 62
     2
  5
4AA
 66
     1
 10
0.0
 20
0.0
 30
0.0
  0
VERTEX
  8
1
  6
CONTINUOUS
 62
     2
  5
4AB
 10
529.435167
 20
290.018667
 30
0.0
  0
VERTEX
  8
1
  6
CONTINUOUS
 62
     2
  5
4AC
 10
532.190167
 20
290.21875
 30
0.0
  0
VERTEX
  8
1
  6
CONTINUOUS
 62
     2
  5
4AD
 10
534.719333
 20
290.153833
 30
0.0
  0
VERTEX
  8
1
  6
CONTINUOUS
 62
     2
  5
4AE
 10
536.859333
 20
290.21875
 30
0.0
  0
VERTEX
  8
1
  6
CONTINUOUS
 62
     2
  5
4AF
 10
538.869667
 20
290.089
 30
0.0
  0
VERTEX
  8
1
  6
CONTINUOUS
 62
     2
  5
4B0
 10
539.972167
 20
289.8295
 30
0.0
  0
VERTEX
  8
1
  6
CONTINUOUS
 62
     2
  5
4B1
 10
541.463667
 20
289.8295
 30
0.0
  0
VERTEX
  8
1
  6
CONTINUOUS
 62
     2
  5
4B2
 10
542.566083
 20
289.894333
 30
0.0
  0
VERTEX
  8
1
  6
CONTINUOUS
 62
     2
  5
4B3
 10
544.187333
 20
289.95925
 30
0.0
  0
VERTEX
  8
1
  6
CONTINUOUS
 62
     2
  5
4B4
 10
545.484333
 20
290.089
 30
0.0
  0
VERTEX
  8
1
  6
CONTINUOUS
 62
     2
  5
4B5
 10
546.58675
 20
290.024083
 30
0.0
  0
VERTEX
  8
1
  6
CONTINUOUS
 62
     2
  5
4B6
 10
548.0135
 20
289.8295
 30
0.0
  0
VERTEX
  8
1
  6
CONTINUOUS
 62
     2
  5
4B7
 10
549.569833
 20
289.764667
 30
0.0
  0
VERTEX
  8
1
  6
CONTINUOUS
 62
     2
  5
4B8
 10
550.802
 20
289.764667
 30
0.0
  0
VERTEX
  8
1
  6
CONTINUOUS
 62
     2
  5
4B9
 10
551.839583
 20
290.024083
 30
0.0
  0
VERTEX
  8
1
  6
CONTINUOUS
 62
     2
  5
4BA
 10
552.877167
 20
290.024083
 30
0.0
  0
VERTEX
  8
1
  6
CONTINUOUS
 62
     2
  5
4BB
 10
553.5905
 20
290.024083
 30
0.0
  0
VERTEX
  8
1
  6
CONTINUOUS
 62
     2
  5
4BC
 10
554.433583
 20
289.95925
 30
0.0
  0
VERTEX
  8
1
  6
CONTINUOUS
 62
     2
  5
4BD
 10
556.50875
 20
289.8295
 30
0.0
  0
VERTEX
  8
1
  6
CONTINUOUS
 62
     2
  5
4BE
 10
558.389417
 20
289.764667
 30
0.0
  0
VERTEX
  8
1
  6
CONTINUOUS
 62
     2
  5
4BF
 10
560.010667
 20
289.95925
 30
0.0
  0
VERTEX
  8
1
  6
CONTINUOUS
 62
     2
  5
4C0
 10
561.307583
 20
289.894333
 30
0.0
  0
VERTEX
  8
1
  6
CONTINUOUS
 62
     2
  5
4C1
 10
562.928833
 20
289.894333
 30
0.0
  0
VERTEX
  8
1
  6
CONTINUOUS
 62
     2
  5
4C2
 10
564.550083
 20
289.894333
 30
0.0
  0
VERTEX
  8
1
  6
CONTINUOUS
 62
     2
  5
4C3
 10
565.717417
 20
289.95925
 30
0.0
  0
VERTEX
  8
1
  6
CONTINUOUS
 62
     2
  5
4C4
 10
567.338667
 20
289.69975
 30
0.0
  0
VERTEX
  8
1
  6
CONTINUOUS
 62
     2
  5
4C5
 10
568.959833
 20
289.57
 30
0.0
  0
VERTEX
  8
1
  6
CONTINUOUS
 62
     2
  5
4C6
 10
570.192
 20
289.894333
 30
0.0
  0
VERTEX
  8
1
  6
CONTINUOUS
 62
     2
  5
4C7
 10
571.229583
 20
290.024083
 30
0.0
  0
VERTEX
  8
1
  6
CONTINUOUS
 62
     2
  5
4C8
 10
572.396917
 20
289.95925
 30
0.0
  0
VERTEX
  8
1
  6
CONTINUOUS
 62
     2
  5
4C9
 10
573.4345
 20
290.089
 30
0.0
  0
VERTEX
  8
1
  6
CONTINUOUS
 62
     2
  5
4CA
 10
574.536917
 20
290.024083
 30
0.0
  0
VERTEX
  8
1
  6
CONTINUOUS
 62
     2
  5
4CB
 10
576.435167
 20
290.018667
 30
0.0
  0
SEQEND
  8
1
  6
CONTINUOUS
 62
     2
  5
4CC
  0
LINE
  8
1
  6
DASHED
 62
     2
  5
4CD
 10
551.935167
 20
290.018667
 30
0.0
 11
551.935167
 21
276.018667
 31
0.0
  0
LINE
  8
1
  6
DASHED
 62
     2
  5
4CE
 10
553.935167
 20
290.018667
 30
0.0
 11
553.935167
 21
276.018667
 31
0.0
  0
LINE
  8
1
  6
DASHED
 62
     2
  5
4CF
 10
553.935167
 20
276.018667
 30
0.0
 11
551.935167
 21
276.018667
 31
0.0
  0
LINE
  8
1
  6
DASHED
 62
     2
  5
4D0
 10
553.935167
 20
274.018667
 30
0.0
 11
551.935167
 21
274.018667
 31
0.0
  0
LINE
  8
1
  6
DASHED
 62
     2
  5
4D1
 10
551.935167
 20
274.018667
 30
0.0
 11
552.935167
 21
267.018667
 31
0.0
  0
LINE
  8
1
  6
DASHED
 62
     2
  5
4D2
 10
553.935167
 20
274.018667
 30
0.0
 11
552.935167
 21
267.018667
 31
0.0
  0
POLYLINE
  8
1
  6
CONTINUOUS
 62
     7
  5
4D3
 66
     1
 10
0.0
 20
0.0
 30
0.0
  0
VERTEX
  8
1
  6
CONTINUOUS
 62
     7
  5
4D4
 10
554.686667
 20
280.598667
 30
0.0
  0
VERTEX
  8
1
  6
CONTINUOUS
 62
     7
  5
4D5
 10
555.609083
 20
280.653
 30
0.0
  0
VERTEX
  8
1
  6
CONTINUOUS
 62
     7
  5
4D6
 10
556.151667
 20
280.653
 30
0.0
  0
VERTEX
  8
1
  6
CONTINUOUS
 62
     7
  5
4D7
 10
556.5315
 20
280.70725
 30
0.0
  0
VERTEX
  8
1
  6
CONTINUOUS
 62
     7
  5
4D8
 10
556.802833
 20
280.70725
 30
0.0
  0
VERTEX
  8
1
  6
CONTINUOUS
 62
     7
  5
4D9
 10
557.019833
 20
280.70725
 30
0.0
  0
VERTEX
  8
1
  6
CONTINUOUS
 62
     7
  5
4DA
 10
557.291167
 20
280.7615
 30
0.0
  0
VERTEX
  8
1
  6
CONTINUOUS
 62
     7
  5
4DB
 10
557.616667
 20
280.7615
 30
0.0
  0
VERTEX
  8
1
  6
CONTINUOUS
 62
     7
  5
4DC
 10
557.94225
 20
280.7615
 30
0.0
  0
VERTEX
  8
1
  6
CONTINUOUS
 62
     7
  5
4DD
 10
558.213583
 20
280.7615
 30
0.0
  0
VERTEX
  8
1
  6
CONTINUOUS
 62
     7
  5
4DE
 10
558.484833
 20
280.7615
 30
0.0
  0
VERTEX
  8
1
  6
CONTINUOUS
 62
     7
  5
4DF
 10
558.810417
 20
280.7615
 30
0.0
  0
VERTEX
  8
1
  6
CONTINUOUS
 62
     7
  5
4E0
 10
559.19025
 20
280.7615
 30
0.0
  0
VERTEX
  8
1
  6
CONTINUOUS
 62
     7
  5
4E1
 10
559.407333
 20
280.7615
 30
0.0
  0
VERTEX
  8
1
  6
CONTINUOUS
 62
     7
  5
4E2
 10
559.787083
 20
280.7615
 30
0.0
  0
VERTEX
  8
1
  6
CONTINUOUS
 62
     7
  5
4E3
 10
560.004167
 20
280.7615
 30
0.0
  0
VERTEX
  8
1
  6
CONTINUOUS
 62
     7
  5
4E4
 10
560.221167
 20
280.7615
 30
0.0
  0
VERTEX
  8
1
  6
CONTINUOUS
 62
     7
  5
4E5
 10
560.4925
 20
280.7615
 30
0.0
  0
VERTEX
  8
1
  6
CONTINUOUS
 62
     7
  5
4E6
 10
560.709583
 20
280.7615
 30
0.0
  0
VERTEX
  8
1
  6
CONTINUOUS
 62
     7
  5
4E7
 10
560.926583
 20
280.7615
 30
0.0
  0
VERTEX
  8
1
  6
CONTINUOUS
 62
     7
  5
4E8
 10
561.197917
 20
280.7615
 30
0.0
  0
VERTEX
  8
1
  6
CONTINUOUS
 62
     7
  5
4E9
 10
561.523417
 20
280.7615
 30
0.0
  0
VERTEX
  8
1
  6
CONTINUOUS
 62
     7
  5
4EA
 10
561.7405
 20
280.70725
 30
0.0
  0
VERTEX
  8
1
  6
CONTINUOUS
 62
     7
  5
4EB
 10
562.066083
 20
280.653
 30
0.0
  0
VERTEX
  8
1
  6
CONTINUOUS
 62
     7
  5
4EC
 10
562.174583
 20
280.490167
 30
0.0
  0
VERTEX
  8
1
  6
CONTINUOUS
 62
     7
  5
4ED
 10
562.283083
 20
280.327333
 30
0.0
  0
VERTEX
  8
1
  6
CONTINUOUS
 62
     7
  5
4EE
 10
562.283083
 20
280.110167
 30
0.0
  0
VERTEX
  8
1
  6
CONTINUOUS
 62
     7
  5
4EF
 10
562.01175
 20
279.893083
 30
0.0
  0
VERTEX
  8
1
  6
CONTINUOUS
 62
     7
  5
4F0
 10
561.7405
 20
279.7845
 30
0.0
  0
VERTEX
  8
1
  6
CONTINUOUS
 62
     7
  5
4F1
 10
561.469167
 20
279.73025
 30
0.0
  0
VERTEX
  8
1
  6
CONTINUOUS
 62
     7
  5
4F2
 10
561.143667
 20
279.676
 30
0.0
  0
VERTEX
  8
1
  6
CONTINUOUS
 62
     7
  5
4F3
 10
560.872333
 20
279.621667
 30
0.0
  0
VERTEX
  8
1
  6
CONTINUOUS
 62
     7
  5
4F4
 10
560.54675
 20
279.621667
 30
0.0
  0
VERTEX
  8
1
  6
CONTINUOUS
 62
     7
  5
4F5
 10
560.32975
 20
279.621667
 30
0.0
  0
VERTEX
  8
1
  6
CONTINUOUS
 62
     7
  5
4F6
 10
560.166917
 20
279.567417
 30
0.0
  0
VERTEX
  8
1
  6
CONTINUOUS
 62
     7
  5
4F7
 10
559.949917
 20
279.567417
 30
0.0
  0
VERTEX
  8
1
  6
CONTINUOUS
 62
     7
  5
4F8
 10
559.732833
 20
279.513167
 30
0.0
  0
VERTEX
  8
1
  6
CONTINUOUS
 62
     7
  5
4F9
 10
559.515833
 20
279.513167
 30
0.0
  0
VERTEX
  8
1
  6
CONTINUOUS
 62
     7
  5
4FA
 10
559.353
 20
279.458833
 30
0.0
  0
VERTEX
  8
1
  6
CONTINUOUS
 62
     7
  5
4FB
 10
559.19025
 20
279.404583
 30
0.0
  0
VERTEX
  8
1
  6
CONTINUOUS
 62
     7
  5
4FC
 10
558.918917
 20
279.296
 30
0.0
  0
VERTEX
  8
1
  6
CONTINUOUS
 62
     7
  5
4FD
 10
558.701917
 20
279.1875
 30
0.0
  0
VERTEX
  8
1
  6
CONTINUOUS
 62
     7
  5
4FE
 10
558.593417
 20
279.024667
 30
0.0
  0
VERTEX
  8
1
  6
CONTINUOUS
 62
     7
  5
4FF
 10
558.647667
 20
278.861833
 30
0.0
  0
VERTEX
  8
1
  6
CONTINUOUS
 62
     7
  5
500
 10
558.918917
 20
278.75325
 30
0.0
  0
VERTEX
  8
1
  6
CONTINUOUS
 62
     7
  5
501
 10
559.19025
 20
278.699
 30
0.0
  0
VERTEX
  8
1
  6
CONTINUOUS
 62
     7
  5
502
 10
559.570083
 20
278.644667
 30
0.0
  0
VERTEX
  8
1
  6
CONTINUOUS
 62
     7
  5
503
 10
559.895667
 20
278.590417
 30
0.0
  0
VERTEX
  8
1
  6
CONTINUOUS
 62
     7
  5
504
 10
560.166917
 20
278.536167
 30
0.0
  0
VERTEX
  8
1
  6
CONTINUOUS
 62
     7
  5
505
 10
560.43825
 20
278.536167
 30
0.0
  0
VERTEX
  8
1
  6
CONTINUOUS
 62
     7
  5
506
 10
560.763833
 20
278.536167
 30
0.0
  0
VERTEX
  8
1
  6
CONTINUOUS
 62
     7
  5
507
 10
561.089333
 20
278.536167
 30
0.0
  0
VERTEX
  8
1
  6
CONTINUOUS
 62
     7
  5
508
 10
561.360667
 20
278.536167
 30
0.0
  0
VERTEX
  8
1
  6
CONTINUOUS
 62
     7
  5
509
 10
561.577667
 20
278.590417
 30
0.0
  0
VERTEX
  8
1
  6
CONTINUOUS
 62
     7
  5
50A
 10
561.79475
 20
278.590417
 30
0.0
  0
VERTEX
  8
1
  6
CONTINUOUS
 62
     7
  5
50B
 10
562.066083
 20
278.590417
 30
0.0
  0
VERTEX
  8
1
  6
CONTINUOUS
 62
     7
  5
50C
 10
562.283083
 20
278.590417
 30
0.0
  0
VERTEX
  8
1
  6
CONTINUOUS
 62
     7
  5
50D
 10
562.608667
 20
278.590417
 30
0.0
  0
VERTEX
  8
1
  6
CONTINUOUS
 62
     7
  5
50E
 10
562.879917
 20
278.590417
 30
0.0
  0
VERTEX
  8
1
  6
CONTINUOUS
 62
     7
  5
50F
 10
563.25975
 20
278.590417
 30
0.0
  0
VERTEX
  8
1
  6
CONTINUOUS
 62
     7
  5
510
 10
563.585333
 20
278.590417
 30
0.0
  0
VERTEX
  8
1
  6
CONTINUOUS
 62
     7
  5
511
 10
563.856667
 20
278.644667
 30
0.0
  0
VERTEX
  8
1
  6
CONTINUOUS
 62
     7
  5
512
 10
564.2365
 20
278.644667
 30
0.0
  0
VERTEX
  8
1
  6
CONTINUOUS
 62
     7
  5
513
 10
564.61625
 20
278.644667
 30
0.0
  0
VERTEX
  8
1
  6
CONTINUOUS
 62
     7
  5
514
 10
564.833333
 20
278.644667
 30
0.0
  0
VERTEX
  8
1
  6
CONTINUOUS
 62
     7
  5
515
 10
565.050333
 20
278.644667
 30
0.0
  0
VERTEX
  8
1
  6
CONTINUOUS
 62
     7
  5
516
 10
565.375917
 20
278.644667
 30
0.0
  0
VERTEX
  8
1
  6
CONTINUOUS
 62
     7
  5
517
 10
565.7015
 20
278.699
 30
0.0
  0
VERTEX
  8
1
  6
CONTINUOUS
 62
     7
  5
518
 10
565.972833
 20
278.699
 30
0.0
  0
VERTEX
  8
1
  6
CONTINUOUS
 62
     7
  5
519
 10
566.189833
 20
278.75325
 30
0.0
  0
VERTEX
  8
1
  6
CONTINUOUS
 62
     7
  5
51A
 10
566.406833
 20
278.861833
 30
0.0
  0
VERTEX
  8
1
  6
CONTINUOUS
 62
     7
  5
51B
 10
566.623917
 20
278.861833
 30
0.0
  0
VERTEX
  8
1
  6
CONTINUOUS
 62
     7
  5
51C
 10
566.713083
 20
278.882583
 30
0.0
  0
SEQEND
  8
1
  6
CONTINUOUS
 62
     7
  5
51D
  0
INSERT
  8
1
  6
CONTINUOUS
 62
     1
  5
51E
  2
LDR
 10
554.686667
 20
280.598667
 30
0.0
 41
239.999998
 42
239.999998
 50
183.371012
210
0.0
220
0.0
230
1.0
  0
LINE
  8
1
  6
CONTINUOUS
 62
     7
  5
51F
 10
578.186417
 20
290.019417
 30
0.0
 11
592.186417
 21
290.019417
 31
0.0
  0
LINE
  8
1
  6
CONTINUOUS
 62
     7
  5
520
 10
591.186417
 20
352.518667
 30
0.0
 11
591.186417
 21
290.019417
 31
0.0
  0
LINE
  8
1
  6
CONTINUOUS
 62
     7
  5
521
 10
573.935167
 20
365.018667
 30
0.0
 11
585.456917
 21
365.018667
 31
0.0
  0
LINE
  8
1
  6
CONTINUOUS
 62
     7
  5
522
 10
573.935167
 20
340.018667
 30
0.0
 11
585.456917
 21
340.018667
 31
0.0
  0
LINE
  8
1
  6
CONTINUOUS
 62
     7
  5
523
 10
584.456917
 20
365.018667
 30
0.0
 11
584.456917
 21
340.018667
 31
0.0
  0
LINE
  8
1
  6
CONTINUOUS
 62
     7
  5
524
 10
578.715083
 20
352.518667
 30
0.0
 11
578.715083
 21
340.018667
 31
0.0
  0
LINE
  8
1
  6
CONTINUOUS
 62
     7
  5
525
 10
573.935167
 20
352.518667
 30
0.0
 11
583.456917
 21
352.518667
 31
0.0
  0
LINE
  8
1
  6
CONTINUOUS
 62
     7
  5
526
 10
588.32925
 20
352.518667
 30
0.0
 11
592.186417
 21
352.518667
 31
0.0
  0
INSERT
  8
1
  6
CONTINUOUS
 62
     1
  5
527
  2
LDR
 10
584.456917
 20
365.018667
 30
0.0
 41
240.0
 42
240.0
 50
90.0
210
0.0
220
0.0
230
1.0
  0
INSERT
  8
1
  6
CONTINUOUS
 62
     1
  5
528
  2
LDR
 10
584.456917
 20
365.018667
 30
0.0
 41
240.0
 42
240.0
 50
90.0
210
0.0
220
0.0
230
1.0
  0
INSERT
  8
1
  6
CONTINUOUS
 62
     1
  5
529
  2
LDR
 10
584.456917
 20
340.018667
 30
0.0
 41
240.0
 42
240.0
 50
270.0
210
0.0
220
0.0
230
1.0
  0
INSERT
  8
1
  6
CONTINUOUS
 62
     1
  5
52A
  2
LDR
 10
584.456917
 20
340.018667
 30
0.0
 41
240.0
 42
240.0
 50
270.0
210
0.0
220
0.0
230
1.0
  0
INSERT
  8
1
  6
CONTINUOUS
 62
     1
  5
52B
  2
LDR
 10
578.715083
 20
352.518667
 30
0.0
 41
240.0
 42
240.0
 50
90.0
210
0.0
220
0.0
230
1.0
  0
INSERT
  8
1
  6
CONTINUOUS
 62
     1
  5
52C
  2
LDR
 10
578.715083
 20
352.518667
 30
0.0
 41
240.0
 42
240.0
 50
90.0
210
0.0
220
0.0
230
1.0
  0
INSERT
  8
1
  6
CONTINUOUS
 62
     1
  5
52D
  2
LDR
 10
578.715083
 20
340.018667
 30
0.0
 41
240.0
 42
240.0
 50
270.0
210
0.0
220
0.0
230
1.0
  0
INSERT
  8
1
  6
CONTINUOUS
 62
     1
  5
52E
  2
LDR
 10
578.715083
 20
340.018667
 30
0.0
 41
240.0
 42
240.0
 50
270.0
210
0.0
220
0.0
230
1.0
  0
INSERT
  8
1
  6
CONTINUOUS
 62
     1
  5
52F
  2
LDR
 10
591.186417
 20
352.518667
 30
0.0
 41
240.0
 42
240.0
 50
90.0
210
0.0
220
0.0
230
1.0
  0
INSERT
  8
1
  6
CONTINUOUS
 62
     1
  5
530
  2
LDR
 10
591.186417
 20
352.518667
 30
0.0
 41
240.0
 42
240.0
 50
90.0
210
0.0
220
0.0
230
1.0
  0
INSERT
  8
1
  6
CONTINUOUS
 62
     1
  5
531
  2
LDR
 10
591.186417
 20
290.019417
 30
0.0
 41
240.0
 42
240.0
 50
270.0
210
0.0
220
0.0
230
1.0
  0
TEXT
  8
1
  6
CONTINUOUS
 62
     7
  5
532
 10
582.155333
 20
343.043333
 30
0.0
 40
2.5
  1
D/2
 50
90.0
  7
MONOTXT
 72
     4
 11
580.905333
 21
346.2815
 31
0.0
210
0.0
220
0.0
230
1.0
  0
TEXT
  8
1
  6
CONTINUOUS
 62
     7
  5
533
 10
587.418833
 20
351.690417
 30
0.0
 40
2.5
  1
D
 50
90.0
  7
MONOTXT
 72
     4
 11
586.168833
 21
352.527
 31
0.0
210
0.0
220
0.0
230
1.0
  0
TEXT
  8
1
  6
CONTINUOUS
 62
     7
  5
534
 10
594.504417
 20
318.478833
 30
0.0
 40
2.5
  1
"CP"
 50
90.0
  7
MONOTXT
 72
     4
 11
593.254417
 21
322.524083
 31
0.0
210
0.0
220
0.0
230
1.0
  0
LINE
  8
1
  6
CONTINUOUS
 62
     7
  5
535
 10
532.935167
 20
366.018667
 30
0.0
 11
532.935167
 21
379.018667
 31
0.0
  0
LINE
  8
1
  6
CONTINUOUS
 62
     7
  5
536
 10
572.935167
 20
366.018667
 30
0.0
 11
572.935167
 21
379.018667
 31
0.0
  0
LINE
  8
1
  6
CONTINUOUS
 62
     7
  5
537
 10
532.935167
 20
378.018667
 30
0.0
 11
572.935167
 21
378.018667
 31
0.0
  0
INSERT
  8
1
  6
CONTINUOUS
 62
     1
  5
538
  2
LDR
 10
532.935167
 20
378.018667
 30
0.0
 41
240.0
 42
240.0
 50
180.0
210
0.0
220
0.0
230
1.0
  0
INSERT
  8
1
  6
CONTINUOUS
 62
     1
  5
539
  2
LDR
 10
532.935167
 20
378.018667
 30
0.0
 41
240.0
 42
240.0
 50
180.0
210
0.0
220
0.0
230
1.0
  0
INSERT
  8
1
  6
CONTINUOUS
 62
     1
  5
53A
  2
LDR
 10
572.935167
 20
378.018667
 30
0.0
 41
240.0
 42
240.0
210
0.0
220
0.0
230
1.0
  0
INSERT
  8
1
  6
CONTINUOUS
 62
     1
  5
53B
  2
LDR
 10
572.935167
 20
378.018667
 30
0.0
 41
240.0
 42
240.0
210
0.0
220
0.0
230
1.0
  0
LINE
  8
1
  6
CONTINUOUS
 62
     7
  5
53C
 10
552.228
 20
373.22575
 30
0.0
 11
548.6925
 21
376.761333
 31
0.0
  0
LINE
  8
1
  6
CONTINUOUS
 62
     7
  5
53D
 10
532.228
 20
353.22575
 30
0.0
 11
528.6925
 21
356.761333
 31
0.0
  0
LINE
  8
1
  6
CONTINUOUS
 62
     7
  5
53E
 10
529.399583
 20
356.054167
 30
0.0
 11
549.399583
 21
376.054167
 31
0.0
  0
INSERT
  8
1
  6
CONTINUOUS
 62
     1
  5
53F
  2
LDR
 10
549.399583
 20
376.054167
 30
0.0
 41
239.999999
 42
239.999999
 50
45.0
210
0.0
220
0.0
230
1.0
  0
INSERT
  8
1
  6
CONTINUOUS
 62
     1
  5
540
  2
LDR
 10
549.399583
 20
376.054167
 30
0.0
 41
239.999999
 42
239.999999
 50
45.0
210
0.0
220
0.0
230
1.0
  0
INSERT
  8
1
  6
CONTINUOUS
 62
     1
  5
541
  2
LDR
 10
529.399583
 20
356.054167
 30
0.0
 41
239.999999
 42
239.999999
 50
225.0
210
0.0
220
0.0
230
1.0
  0
INSERT
  8
1
  6
CONTINUOUS
 62
     1
  5
542
  2
LDR
 10
529.399583
 20
356.054167
 30
0.0
 41
239.999999
 42
239.999999
 50
225.0
210
0.0
220
0.0
230
1.0
  0
TEXT
  8
1
  6
CONTINUOUS
 62
     7
  5
543
 10
552.9115
 20
378.744667
 30
0.0
 40
2.5
  1
W
  7
MONOTXT
 72
     4
 11
554.102417
 21
379.994667
 31
0.0
210
0.0
220
0.0
230
1.0
  0
TEXT
  8
1
  6
CONTINUOUS
 62
     7
  5
544
 10
538.059167
 20
365.339333
 30
0.0
 40
2.5
  1
W
 50
45.0
  7
MONOTXT
 72
     4
 11
538.017388
 21
367.065322
 31
0.0
210
0.0
220
0.0
230
1.0
  0
TEXT
  8
1
  6
CONTINUOUS
 62
     7
  5
545
 10
567.602667
 20
277.987583
 30
0.0
 40
2.5
  1
SEE CHART FOR DEPTH
  7
MONOTXT
 72
     4
 11
590.584917
 21
279.237583
 31
0.0
210
0.0
220
0.0
230
1.0
  0
LINE
  8
1
  6
CONTINUOUS
 62
    30
  5
546
 10
549.119333
 20
167.892417
 30
0.0
 11
549.119333
 21
181.647583
 31
0.0
  0
LINE
  8
1
  6
CONTINUOUS
 62
    30
  5
547
 10
577.34125
 20
198.865417
 30
0.0
 11
577.34125
 21
206.711083
 31
0.0
  0
LINE
  8
1
  6
CONTINUOUS
 62
    30
  5
548
 10
577.34125
 20
150.674667
 30
0.0
 11
577.34125
 21
142.828917
 31
0.0
  0
LINE
  8
1
  6
CONTINUOUS
 62
    30
  5
549
 10
579.34125
 20
151.956583
 30
0.0
 11
579.34125
 21
142.828917
 31
0.0
  0
LINE
  8
1
  6
CONTINUOUS
 62
    30
  5
54A
 10
579.34125
 20
197.5835
 30
0.0
 11
579.34125
 21
206.711083
 31
0.0
  0
LINE
  8
1
  6
CONTINUOUS
 62
    30
  5
54B
 10
549.16075
 20
162.331667
 30
0.0
 11
575.299833
 21
153.517417
 31
0.0
  0
LINE
  8
1
  6
CONTINUOUS
 62
    30
  5
54C
 10
549.160667
 20
187.208417
 30
0.0
 11
575.299833
 21
196.022667
 31
0.0
  0
ARC
  8
1
  6
CONTINUOUS
 62
    30
  5
54D
 10
574.34125
 20
150.674675
 30
0.0
 40
3.0
 50
360.0
 51
71.365364
210
0.0
220
0.0
230
1.0
  0
ARC
  8
1
  6
CONTINUOUS
 62
    30
  5
54E
 10
574.34125
 20
198.865432
 30
0.0
 40
3.0
 50
288.634517
 51
0.0
210
0.0
220
0.0
230
1.0
  0
LINE
  8
1
  6
CONTINUOUS
 62
    30
  5
54F
 10
551.841167
 20
164.102167
 30
0.0
 11
576.619333
 21
155.746833
 31
0.0
  0
LINE
  8
1
  6
CONTINUOUS
 62
    30
  5
550
 10
551.841167
 20
185.437833
 30
0.0
 11
576.619333
 21
193.79325
 31
0.0
  0
ARC
  8
1
  6
CONTINUOUS
 62
    30
  5
551
 10
575.34125
 20
151.956556
 30
0.0
 40
4.0
 50
0.0
 51
71.365917
210
0.0
220
0.0
230
1.0
  0
ARC
  8
1
  6
CONTINUOUS
 62
    30
  5
552
 10
575.34125
 20
197.58352
 30
0.0
 40
4.0
 50
288.634392
 51
0.0
210
0.0
220
0.0
230
1.0
  0
ARC
  8
1
  6
CONTINUOUS
 62
    30
  5
553
 10
553.119333
 20
167.892426
 30
0.0
 40
4.0
 50
180.0
 51
251.364747
210
0.0
220
0.0
230
1.0
  0
ARC
  8
1
  6
CONTINUOUS
 62
    30
  5
554
 10
553.119333
 20
181.647542
 30
0.0
 40
4.0
 50
108.63465
 51
180.0
210
0.0
220
0.0
230
1.0
  0
LINE
  8
1
  6
CONTINUOUS
 62
    30
  5
555
 10
545.119333
 20
167.892417
 30
0.0
 11
545.119333
 21
181.647583
 31
0.0
  0
LINE
  8
1
  6
CONTINUOUS
 62
    30
  5
556
 10
516.897417
 20
198.865417
 30
0.0
 11
516.897417
 21
206.711083
 31
0.0
  0
LINE
  8
1
  6
CONTINUOUS
 62
    30
  5
557
 10
516.897417
 20
150.674667
 30
0.0
 11
516.897417
 21
142.828917
 31
0.0
  0
LINE
  8
1
  6
CONTINUOUS
 62
    30
  5
558
 10
514.897417
 20
151.956583
 30
0.0
 11
514.897417
 21
142.828917
 31
0.0
  0
LINE
  8
1
  6
CONTINUOUS
 62
    30
  5
559
 10
514.897417
 20
197.5835
 30
0.0
 11
514.897417
 21
206.711083
 31
0.0
  0
LINE
  8
1
  6
CONTINUOUS
 62
    30
  5
55A
 10
545.077917
 20
162.331667
 30
0.0
 11
518.938833
 21
153.517417
 31
0.0
  0
LINE
  8
1
  6
CONTINUOUS
 62
    30
  5
55B
 10
545.077833
 20
187.208333
 30
0.0
 11
518.938833
 21
196.022667
 31
0.0
  0
ARC
  8
1
  6
CONTINUOUS
 62
    30
  5
55C
 10
519.897417
 20
150.674675
 30
0.0
 40
3.0
 50
108.634636
 51
180.0
210
0.0
220
0.0
230
1.0
  0
ARC
  8
1
  6
CONTINUOUS
 62
    30
  5
55D
 10
519.897417
 20
198.865432
 30
0.0
 40
3.0
 50
180.0
 51
251.365483
210
0.0
220
0.0
230
1.0
  0
LINE
  8
1
  6
CONTINUOUS
 62
    30
  5
55E
 10
542.3975
 20
164.102167
 30
0.0
 11
517.619333
 21
155.746833
 31
0.0
  0
LINE
  8
1
  6
CONTINUOUS
 62
    30
  5
55F
 10
542.3975
 20
185.437833
 30
0.0
 11
517.619333
 21
193.79325
 31
0.0
  0
ARC
  8
1
  6
CONTINUOUS
 62
    30
  5
560
 10
518.897417
 20
151.956556
 30
0.0
 40
4.0
 50
108.634083
 51
180.0
210
0.0
220
0.0
230
1.0
  0
ARC
  8
1
  6
CONTINUOUS
 62
    30
  5
561
 10
518.897417
 20
197.58352
 30
0.0
 40
4.0
 50
180.0
 51
251.365608
210
0.0
220
0.0
230
1.0
  0
ARC
  8
1
  6
CONTINUOUS
 62
    30
  5
562
 10
541.119333
 20
167.892426
 30
0.0
 40
4.0
 50
288.635253
 51
360.0
210
0.0
220
0.0
230
1.0
  0
ARC
  8
1
  6
CONTINUOUS
 62
    30
  5
563
 10
541.119333
 20
181.647542
 30
0.0
 40
4.0
 50
360.0
 51
71.36535
210
0.0
220
0.0
230
1.0
  0
LINE
  8
1
  6
CONTINUOUS
 62
    30
  5
564
 10
547.119333
 20
165.174417
 30
0.0
 11
547.119333
 21
184.365667
 31
0.0
  0
LINE
  8
1
  6
CONTINUOUS
 62
    30
  5
565
 10
539.119333
 20
179.27
 30
0.0
 11
544.119333
 21
179.27
 31
0.0
  0
LINE
  8
1
  6
CONTINUOUS
 62
    30
  5
566
 10
534.119333
 20
172.27
 30
0.0
 11
534.119333
 21
177.27
 31
0.0
  0
LINE
  8
1
  6
CONTINUOUS
 62
    30
  5
567
 10
535.119333
 20
173.27
 30
0.0
 11
535.119333
 21
176.27
 31
0.0
  0
LINE
  8
1
  6
CONTINUOUS
 62
    30
  5
568
 10
536.119333
 20
172.27
 30
0.0
 11
536.119333
 21
177.27
 31
0.0
  0
LINE
  8
1
  6
CONTINUOUS
 62
    30
  5
569
 10
539.119333
 20
170.27
 30
0.0
 11
544.119333
 21
170.27
 31
0.0
  0
LINE
  8
1
  6
CONTINUOUS
 62
    30
  5
56A
 10
549.119333
 20
170.27
 30
0.0
 11
553.119333
 21
170.27
 31
0.0
  0
LINE
  8
1
  6
CONTINUOUS
 62
    30
  5
56B
 10
549.119333
 20
179.27
 30
0.0
 11
553.119333
 21
179.27
 31
0.0
  0
LINE
  8
1
  6
CONTINUOUS
 62
    30
  5
56C
 10
549.119333
 20
172.27
 30
0.0
 11
554.119333
 21
172.27
 31
0.0
  0
LINE
  8
1
  6
CONTINUOUS
 62
    30
  5
56D
 10
549.119333
 20
177.27
 30
0.0
 11
554.119333
 21
177.27
 31
0.0
  0
LINE
  8
1
  6
CONTINUOUS
 62
    30
  5
56E
 10
534.119333
 20
172.27
 30
0.0
 11
538.119333
 21
172.27
 31
0.0
  0
LINE
  8
1
  6
CONTINUOUS
 62
    30
  5
56F
 10
538.119333
 20
172.27
 30
0.0
 11
544.119333
 21
172.27
 31
0.0
  0
LINE
  8
1
  6
CONTINUOUS
 62
    30
  5
570
 10
537.119333
 20
173.27
 30
0.0
 11
537.119333
 21
176.27
 31
0.0
  0
LINE
  8
1
  6
CONTINUOUS
 62
    30
  5
571
 10
534.119333
 20
177.27
 30
0.0
 11
538.119333
 21
177.27
 31
0.0
  0
LINE
  8
1
  6
CONTINUOUS
 62
    30
  5
572
 10
538.119333
 20
177.27
 30
0.0
 11
544.119333
 21
177.27
 31
0.0
  0
LINE
  8
1
  6
CONTINUOUS
 62
    30
  5
573
 10
538.119333
 20
170.77
 30
0.0
 11
539.119333
 21
170.27
 31
0.0
  0
LINE
  8
1
  6
CONTINUOUS
 62
    30
  5
574
 10
538.119333
 20
178.77
 30
0.0
 11
539.119333
 21
179.27
 31
0.0
  0
LINE
  8
1
  6
CONTINUOUS
 62
    30
  5
575
 10
554.119333
 20
170.77
 30
0.0
 11
553.119333
 21
170.27
 31
0.0
  0
LINE
  8
1
  6
CONTINUOUS
 62
    30
  5
576
 10
554.119333
 20
178.77
 30
0.0
 11
553.119333
 21
179.27
 31
0.0
  0
LINE
  8
1
  6
CONTINUOUS
 62
    30
  5
577
 10
554.119333
 20
170.77
 30
0.0
 11
554.119333
 21
178.77
 31
0.0
  0
LINE
  8
1
  6
CONTINUOUS
 62
    30
  5
578
 10
538.119333
 20
170.77
 30
0.0
 11
538.119333
 21
178.77
 31
0.0
  0
POLYLINE
  8
1
  6
CONTINUOUS
 62
    30
  5
579
 66
     1
 10
0.0
 20
0.0
 30
0.0
 70
     1
  0
VERTEX
  8
1
  6
CONTINUOUS
 62
    30
  5
57A
 10
538.119333
 20
170.77
 30
0.0
  0
VERTEX
  8
1
  6
CONTINUOUS
 62
    30
  5
57B
 10
538.119333
 20
173.77
 30
0.0
  0
VERTEX
  8
1
  6
CONTINUOUS
 62
    30
  5
57C
 10
539.619333
 20
172.27
 30
0.0
  0
VERTEX
  8
1
  6
CONTINUOUS
 62
    30
  5
57D
 10
538.119333
 20
170.77
 30
0.0
  0
SEQEND
  8
1
  6
CONTINUOUS
 62
    30
  5
57E
  0
POLYLINE
  8
1
  6
CONTINUOUS
 62
    30
  5
57F
 66
     1
 10
0.0
 20
0.0
 30
0.0
 70
     1
  0
VERTEX
  8
1
  6
CONTINUOUS
 62
    30
  5
580
 10
538.119333
 20
178.77
 30
0.0
  0
VERTEX
  8
1
  6
CONTINUOUS
 62
    30
  5
581
 10
538.119333
 20
175.77
 30
0.0
  0
VERTEX
  8
1
  6
CONTINUOUS
 62
    30
  5
582
 10
539.619333
 20
177.27
 30
0.0
  0
VERTEX
  8
1
  6
CONTINUOUS
 62
    30
  5
583
 10
538.119333
 20
178.77
 30
0.0
  0
SEQEND
  8
1
  6
CONTINUOUS
 62
    30
  5
584
  0
POLYLINE
  8
1
  6
CONTINUOUS
 62
    30
  5
585
 66
     1
 10
0.0
 20
0.0
 30
0.0
 70
     1
  0
VERTEX
  8
1
  6
CONTINUOUS
 62
    30
  5
586
 10
552.619333
 20
172.27
 30
0.0
  0
VERTEX
  8
1
  6
CONTINUOUS
 62
    30
  5
587
 10
554.119333
 20
170.77
 30
0.0
  0
VERTEX
  8
1
  6
CONTINUOUS
 62
    30
  5
588
 10
554.119333
 20
173.77
 30
0.0
  0
VERTEX
  8
1
  6
CONTINUOUS
 62
    30
  5
589
 10
552.619333
 20
172.27
 30
0.0
  0
SEQEND
  8
1
  6
CONTINUOUS
 62
    30
  5
58A
  0
POLYLINE
  8
1
  6
CONTINUOUS
 62
    30
  5
58B
 66
     1
 10
0.0
 20
0.0
 30
0.0
 70
     1
  0
VERTEX
  8
1
  6
CONTINUOUS
 62
    30
  5
58C
 10
554.119333
 20
175.77
 30
0.0
  0
VERTEX
  8
1
  6
CONTINUOUS
 62
    30
  5
58D
 10
552.619333
 20
177.27
 30
0.0
  0
VERTEX
  8
1
  6
CONTINUOUS
 62
    30
  5
58E
 10
554.119333
 20
178.77
 30
0.0
  0
VERTEX
  8
1
  6
CONTINUOUS
 62
    30
  5
58F
 10
554.119333
 20
175.77
 30
0.0
  0
SEQEND
  8
1
  6
CONTINUOUS
 62
    30
  5
590
  0
LINE
  8
1
  6
CONTINUOUS
 62
    30
  5
591
 10
545.119333
 20
180.27
 30
0.0
 11
544.119333
 21
180.27
 31
0.0
  0
LINE
  8
1
  6
CONTINUOUS
 62
    30
  5
592
 10
545.119333
 20
169.27
 30
0.0
 11
544.119333
 21
169.27
 31
0.0
  0
LINE
  8
1
  6
CONTINUOUS
 62
    30
  5
593
 10
544.119333
 20
180.27
 30
0.0
 11
544.119333
 21
169.27
 31
0.0
  0
ARC
  8
1
  6
CONTINUOUS
 62
    30
  5
594
 10
544.119333
 20
184.365611
 30
0.0
 40
3.0
 50
0.0
 51
71.366492
210
0.0
220
0.0
230
1.0
  0
ARC
  8
1
  6
CONTINUOUS
 62
    30
  5
595
 10
550.119333
 20
184.3657
 30
0.0
 40
3.0
 50
108.635736
 51
180.0
210
0.0
220
0.0
230
1.0
  0
ARC
  8
1
  6
CONTINUOUS
 62
    30
  5
596
 10
544.119333
 20
165.174372
 30
0.0
 40
3.0
 50
288.633933
 51
0.0
210
0.0
220
0.0
230
1.0
  0
ARC
  8
1
  6
CONTINUOUS
 62
    30
  5
597
 10
550.119333
 20
165.174385
 30
0.0
 40
3.0
 50
180.0
 51
251.366408
210
0.0
220
0.0
230
1.0
  0
ARC
  8
1
  6
CONTINUOUS
 62
    30
  5
598
 10
515.897417
 20
206.664499
 30
0.0
 40
1.001084
 50
2.667164
 51
177.332833
210
0.0
220
0.0
230
1.0
  0
ARC
  8
1
  6
CONTINUOUS
 62
    30
  5
599
 10
578.34125
 20
206.664499
 30
0.0
 40
1.001084
 50
2.667164
 51
177.332833
210
0.0
220
0.0
230
1.0
  0
ARC
  8
1
  6
CONTINUOUS
 62
    30
  5
59A
 10
515.897417
 20
142.875501
 30
0.0
 40
1.001084
 50
182.667167
 51
357.332836
210
0.0
220
0.0
230
1.0
  0
ARC
  8
1
  6
CONTINUOUS
 62
    30
  5
59B
 10
578.34125
 20
142.875501
 30
0.0
 40
1.001084
 50
182.667167
 51
357.332836
210
0.0
220
0.0
230
1.0
  0
LINE
  8
1
  6
CONTINUOUS
 62
     7
  5
59C
 10
534.119333
 20
174.77
 30
0.0
 11
510.627
 21
183.3205
 31
0.0
  0
LINE
  8
1
  6
CONTINUOUS
 62
     7
  5
59D
 10
544.119333
 20
169.27
 30
0.0
 11
511.230083
 21
157.299333
 31
0.0
  0
LINE
  8
1
  6
CONTINUOUS
 62
     7
  5
59E
 10
554.083417
 20
174.906583
 30
0.0
 11
579.083417
 21
174.906583
 31
0.0
  0
TEXT
  8
1
  6
CONTINUOUS
 62
     7
  5
59F
 10
457.29725
 20
182.424667
 30
0.0
 40
2.5
  1
/
  7
MONOTXT
 72
     4
 11
457.996083
 21
183.674667
 31
0.0
210
0.0
220
0.0
230
1.0
  0
TEXT
  8
1
  6
CONTINUOUS
 62
     7
  5
5A0
 10
483.233833
 20
156.027667
 30
0.0
 40
2.5
  1
LOCK WASHER
  7
MONOTXT
 72
     4
 11
496.76725
 21
157.277667
 31
0.0
210
0.0
220
0.0
230
1.0
  0
TEXT
  8
1
  6
CONTINUOUS
 62
     7
  5
5A1
 10
580.20725
 20
182.7665
 30
0.0
 40
2.5
  1
NOTE:  ALL STITCH BOLTS SHALL
  7
MONOTXT
 11
580.20725
 21
185.2665
 31
0.0
210
0.0
220
0.0
230
1.0
 73
     3
  0
TEXT
  8
1
  6
CONTINUOUS
 62
     7
  5
5A2
 10
580.20725
 20
178.2665
 30
0.0
 40
2.5
  1
BE FIRST PLACED IN U-CHANNELS
  7
MONOTXT
 11
580.20725
 21
180.7665
 31
0.0
210
0.0
220
0.0
230
1.0
 73
     3
  0
TEXT
  8
1
  6
CONTINUOUS
 62
     7
  5
5A3
 10
580.20725
 20
173.7665
 30
0.0
 40
2.5
  1
ACCORDING TO SPECIFICATIONS
  7
MONOTXT
 11
580.20725
 21
176.2665
 31
0.0
210
0.0
220
0.0
230
1.0
 73
     3
  0
TEXT
  8
1
  6
CONTINUOUS
 62
     7
  5
5A4
 10
580.20725
 20
169.2665
 30
0.0
 40
2.5
  1
AFTER WHICH THEY SHALL BE
  7
MONOTXT
 11
580.20725
 21
171.7665
 31
0.0
210
0.0
220
0.0
230
1.0
 73
     3
  0
TEXT
  8
1
  6
CONTINUOUS
 62
     7
  5
5A5
 10
580.20725
 20
164.7665
 30
0.0
 40
2.5
  1
TORQUED TO 30 INCH POUNDS.
  7
MONOTXT
 11
580.20725
 21
167.2665
 31
0.0
210
0.0
220
0.0
230
1.0
 73
     3
  0
TEXT
  8
1
  6
CONTINUOUS
 62
     7
  5
5A6
 10
498.420833
 20
129.719583
 30
0.0
 40
3.0
  1
STITCH BOLT INSTALLATION ILLUSTRATION
  7
MONOTXT
 72
     4
 11
547.613667
 21
131.219583
 31
0.0
210
0.0
220
0.0
230
1.0
  0
LINE
  8
1
  6
CONTINUOUS
 62
     7
  5
5A7
 10
497.072083
 20
127.975083
 30
0.0
 11
598.672
 21
127.975083
 31
0.0
  0
TEXT
  8
1
  6
CONTINUOUS
 62
     7
  5
5A8
 10
75.5725
 20
78.967667
 30
0.0
 40
5.0
  1
#
  7
MONOTXT
 72
     4
 11
76.852
 21
81.467667
 31
0.0
210
0.0
220
0.0
230
1.0
  0
TEXT
  8
1
  6
CONTINUOUS
 62
     7
  5
5A9
 10
171.081833
 20
70.323333
 30
0.0
 40
5.0
  1
#
  7
MONOTXT
 72
     4
 11
172.361333
 21
72.823333
 31
0.0
210
0.0
220
0.0
230
1.0
  0
TEXT
  8
1
  6
CONTINUOUS
 62
     7
  5
5AA
 10
276.508917
 20
59.144583
 30
0.0
 40
5.0
  1
#
  7
MONOTXT
 72
     4
 11
277.788417
 21
61.644583
 31
0.0
210
0.0
220
0.0
230
1.0
  0
TEXT
  8
1
  6
CONTINUOUS
 62
     7
  5
5AB
 10
388.895667
 20
42.216833
 30
0.0
 40
5.0
  1
#
  7
MONOTXT
 72
     4
 11
390.175167
 21
44.716833
 31
0.0
210
0.0
220
0.0
230
1.0
  0
TEXT
  8
1
  6
CONTINUOUS
 62
     7
  5
5AC
 10
46.170417
 20
80.681833
 30
0.0
 40
2.5
  1
WT./FT. = 2.00
  7
MONOTXT
 11
46.170417
 21
83.181833
 31
0.0
210
0.0
220
0.0
230
1.0
 73
     3
  0
TEXT
  8
1
  6
CONTINUOUS
 62
     7
  5
5AD
 10
46.170417
 20
76.181833
 30
0.0
 40
2.5
  1
SEC. MOD. X-X=.215+5%
  7
MONOTXT
 11
46.170417
 21
78.681833
 31
0.0
210
0.0
220
0.0
230
1.0
 73
     3
  0
TEXT
  8
1
  6
CONTINUOUS
 62
     7
  5
5AE
 10
46.170417
 20
71.681833
 30
0.0
 40
2.5
  1
SEC. MOD. Y-Y=.277+5%
  7
MONOTXT
 11
46.170417
 21
74.181833
 31
0.0
210
0.0
220
0.0
230
1.0
 73
     3
  0
TEXT
  8
1
  6
CONTINUOUS
 62
     7
  5
5AF
 10
141.529917
 20
71.959917
 30
0.0
 40
2.5
  1
WT./FT. = 3.00
  7
MONOTXT
 11
141.529917
 21
74.459917
 31
0.0
210
0.0
220
0.0
230
1.0
 73
     3
  0
TEXT
  8
1
  6
CONTINUOUS
 62
     7
  5
5B0
 10
141.529917
 20
67.459917
 30
0.0
 40
2.5
  1
SEC. MOD. X-X=.406+5%
  7
MONOTXT
 11
141.529917
 21
69.959917
 31
0.0
210
0.0
220
0.0
230
1.0
 73
     3
  0
TEXT
  8
1
  6
CONTINUOUS
 62
     7
  5
5B1
 10
141.529917
 20
62.959917
 30
0.0
 40
2.5
  1
SEC. MOD. Y-Y=.508+5%
  7
MONOTXT
 11
141.529917
 21
65.459917
 31
0.0
210
0.0
220
0.0
230
1.0
 73
     3
  0
TEXT
  8
1
  6
CONTINUOUS
 62
     7
  5
5B2
 10
249.8865
 20
60.9255
 30
0.0
 40
2.5
  1
WT./FT. = 4.0 BB
  7
MONOTXT
 11
249.8865
 21
63.4255
 31
0.0
210
0.0
220
0.0
230
1.0
 73
     3
  0
TEXT
  8
1
  6
CONTINUOUS
 62
     7
  5
5B3
 10
249.8865
 20
56.4255
 30
0.0
 40
2.5
  1
SEC. MOD. X-X=.684+5%
  7
MONOTXT
 11
249.8865
 21
58.9255
 31
0.0
210
0.0
220
0.0
230
1.0
 73
     3
  0
TEXT
  8
1
  6
CONTINUOUS
 62
     7
  5
5B4
 10
249.8865
 20
51.9255
 30
0.0
 40
2.5
  1
SEC. MOD. Y-Y=.515+5%
  7
MONOTXT
 11
249.8865
 21
54.4255
 31
0.0
210
0.0
220
0.0
230
1.0
 73
     3
  0
TEXT
  8
1
  6
CONTINUOUS
 62
     7
  5
5B5
 10
187.571083
 20
287.216167
 30
0.0
 40
7.0
  1
*
 50
45.0
  7
txt
 72
     4
 11
186.627626
 21
291.222457
 31
0.0
210
0.0
220
0.0
230
1.0
  0
TEXT
  8
1
  6
CONTINUOUS
 62
     7
  5
5B6
 10
266.046917
 20
251.300083
 30
0.0
 40
7.0
  1
*
 50
45.0
  7
txt
 72
     4
 11
265.103459
 21
255.306374
 31
0.0
210
0.0
220
0.0
230
1.0
  0
CIRCLE
  8
1
  6
CONTINUOUS
 62
     7
  5
5B7
 10
185.979833
 20
292.447083
 30
0.0
 40
2.310243
210
0.0
220
0.0
230
1.0
  0
CIRCLE
  8
1
  6
CONTINUOUS
 62
     7
  5
5B8
 10
264.364667
 20
256.449083
 30
0.0
 40
2.310243
210
0.0
220
0.0
230
1.0
  0
TEXT
  8
1
  6
CONTINUOUS
 62
     7
  5
5B9
 10
340.172583
 20
235.398917
 30
0.0
 40
7.0
  1
*
 50
270.0
  7
txt
 72
     4
 11
343.672583
 21
233.233167
 31
0.0
210
0.0
220
0.0
230
1.0
  0
CIRCLE
  8
1
  6
CONTINUOUS
 62
     7
  5
5BA
 10
345.002956
 20
232.947508
 30
0.0
 40
2.310243
210
0.0
220
0.0
230
1.0
  0
TEXT
  8
1
  6
CONTINUOUS
 62
     7
  5
5BB
 10
246.238083
 20
226.830833
 30
0.0
 40
7.0
  1
6.0#BB
 50
45.0
  7
txt
 72
     4
 11
254.883642
 21
240.42614
 31
0.0
210
0.0
220
0.0
230
1.0
  0
TEXT
  8
1
  6
CONTINUOUS
 62
     7
  5
5BC
 10
167.828167
 20
262.299
 30
0.0
 40
7.0
  1
4.0#BB
 50
45.0
  7
txt
 72
     4
 11
176.473726
 21
275.894306
 31
0.0
210
0.0
220
0.0
230
1.0
  0
TEXT
  8
1
  6
CONTINUOUS
 62
     7
  5
5BD
 10
119.129417
 20
303.573167
 30
0.0
 40
7.0
  1
3.00#/ FT.
 50
45.0
  7
txt
 72
     4
 11
130.88654
 21
320.280038
 31
0.0
210
0.0
220
0.0
230
1.0
  0
TEXT
  8
1
  6
CONTINUOUS
 62
     7
  5
5BE
 10
81.038833
 20
341.27075
 30
0.0
 40
7.0
  1
2.00#/ FT.
 50
45.0
  7
txt
 72
     4
 11
92.795957
 21
357.977621
 31
0.0
210
0.0
220
0.0
230
1.0
  0
TEXT
  8
1
  6
CONTINUOUS
 62
     7
  5
5BF
 10
467.439
 20
318.71275
 30
0.0
 40
2.5
  1
SEE TP3-1  FOR TYPICAL INSTALLATIONS
  7
MONOTXT
 72
     4
 11
506.917333
 21
319.96275
 31
0.0
210
0.0
220
0.0
230
1.0
  0
POLYLINE
  8
1
  6
CONTINUOUS
 62
     7
  5
5C0
 66
     1
 10
0.0
 20
0.0
 30
0.0
  0
VERTEX
  8
1
  6
CONTINUOUS
 62
     7
  5
5C1
 10
449.244417
 20
21.2345
 30
0.0
  0
VERTEX
  8
1
  6
CONTINUOUS
 62
     7
  5
5C2
 10
447.244417
 20
17.770417
 30
0.0
  0
VERTEX
  8
1
  6
CONTINUOUS
 62
     7
  5
5C3
 10
451.244417
 20
17.770417
 30
0.0
  0
VERTEX
  8
1
  6
CONTINUOUS
 62
     7
  5
5C4
 10
449.244417
 20
21.2345
 30
0.0
  0
SEQEND
  8
1
  6
CONTINUOUS
 62
     7
  5
5C5
  0
TEXT
  8
1
  6
CONTINUOUS
 62
     7
  5
5C6
 10
448.640333
 20
18.285917
 30
0.0
 40
1.75
  1
9
  7
MONOTXT
210
0.0
220
0.0
230
1.0
  0
TEXT
  8
1
  6
CONTINUOUS
 62
     7
  5
5C7
 10
453.549917
 20
18.708333
 30
0.0
 40
1.75
  1
4.0BB AND 6.0BB BEHIND GR
  7
MONOTXT
 11
453.549917
 21
20.458333
 31
0.0
210
0.0
220
0.0
230
1.0
 73
     3
  0
POLYLINE
  8
1
  6
CONTINUOUS
 62
     7
  5
5C8
 66
     1
 10
0.0
 20
0.0
 30
0.0
  0
VERTEX
  8
1
  6
CONTINUOUS
 62
     7
  5
5C9
 10
500.470083
 20
17.9895
 30
0.0
  0
VERTEX
  8
1
  6
CONTINUOUS
 62
     7
  5
5CA
 10
498.470083
 20
14.525417
 30
0.0
  0
VERTEX
  8
1
  6
CONTINUOUS
 62
     7
  5
5CB
 10
502.470083
 20
14.525417
 30
0.0
  0
VERTEX
  8
1
  6
CONTINUOUS
 62
     7
  5
5CC
 10
500.470083
 20
17.9895
 30
0.0
  0
SEQEND
  8
1
  6
CONTINUOUS
 62
     7
  5
5CD
  0
TEXT
  8
1
  6
CONTINUOUS
 62
     7
  5
5CE
 10
499.866
 20
15.040917
 30
0.0
 40
1.75
  1
9
  7
MONOTXT
210
0.0
220
0.0
230
1.0
  0
TEXT
  8
1
  6
CONTINUOUS
 62
     7
  5
5CF
 10
349.430583
 20
272.272333
 30
0.0
 40
2.5
  1
NOTES:
  7
MONOTXT
 11
349.430583
 21
274.772333
 31
0.0
210
0.0
220
0.0
230
1.0
 73
     3
  0
TEXT
  8
1
  6
CONTINUOUS
 62
     7
  5
5D0
 10
349.430583
 20
267.772333
 30
0.0
 40
2.5
  1
 
  7
MONOTXT
 11
349.430583
 21
270.272333
 31
0.0
210
0.0
220
0.0
230
1.0
 73
     3
  0
TEXT
  8
1
  6
CONTINUOUS
 62
     7
  5
5D1
 10
349.430583
 20
263.272333
 30
0.0
 40
2.5
  1
ALL SUPPORTS SHALL BE GALVANIZED IN ACCORDANCE WITH A.S.T.M. A-123.
  7
MONOTXT
 11
349.430583
 21
265.772333
 31
0.0
210
0.0
220
0.0
230
1.0
 73
     3
  0
TEXT
  8
1
  6
CONTINUOUS
 62
     7
  5
5D2
 10
349.430583
 20
258.772333
 30
0.0
 40
2.5
  1
 
  7
MONOTXT
 11
349.430583
 21
261.272333
 31
0.0
210
0.0
220
0.0
230
1.0
 73
     3
  0
TEXT
  8
1
  6
CONTINUOUS
 62
     7
  5
5D3
 10
349.430583
 20
254.272333
 30
0.0
 40
2.5
  1
DEPTHS DRIVEN ARE BASED ON AVERAGE SOIL CONDITIONS. DEPENDING UPON
  7
MONOTXT
 11
349.430583
 21
256.772333
 31
0.0
210
0.0
220
0.0
230
1.0
 73
     3
  0
TEXT
  8
1
  6
CONTINUOUS
 62
     7
  5
5D4
 10
349.430583
 20
249.772333
 30
0.0
 40
2.5
  1
ACTUAL SOIL BEARING IN THE FIELD, THE ENGINEER MAY REQUIRE THAT THE
  7
MONOTXT
 11
349.430583
 21
252.272333
 31
0.0
210
0.0
220
0.0
230
1.0
 73
     3
  0
TEXT
  8
1
  6
CONTINUOUS
 62
     7
  5
5D5
 10
349.430583
 20
245.272333
 30
0.0
 40
2.5
  1
DEPTH DRIVEN BE INCREASED TO 5 FEET. WHEN THE POST(S) ARE BEHIND
  7
MONOTXT
 11
349.430583
 21
247.772333
 31
0.0
210
0.0
220
0.0
230
1.0
 73
     3
  0
TEXT
  8
1
  6
CONTINUOUS
 62
     7
  5
5D6
 10
349.430583
 20
240.772333
 30
0.0
 40
2.5
  1
GUARDRAIL, THE DEPTH DRIVEN MAY BE INCREASED UP TO 5 FEET.
  7
MONOTXT
 11
349.430583
 21
243.272333
 31
0.0
210
0.0
220
0.0
230
1.0
 73
     3
  0
TEXT
  8
1
  6
CONTINUOUS
 62
     7
  5
5D7
 10
349.430583
 20
236.272333
 30
0.0
 40
2.5
  1
 
  7
MONOTXT
 11
349.430583
 21
238.772333
 31
0.0
210
0.0
220
0.0
230
1.0
 73
     3
  0
TEXT
  8
1
  6
CONTINUOUS
 62
     7
  5
5D8
 10
349.430583
 20
231.772333
 30
0.0
 40
2.5
  1
CAN BE USED IF THE SUPPORTS ARE LOCATED OUTSIDE OF THE CLEAR ZONE
  7
MONOTXT
 11
349.430583
 21
234.272333
 31
0.0
210
0.0
220
0.0
230
1.0
 73
     3
  0
TEXT
  8
1
  6
CONTINUOUS
 62
     7
  5
5D9
 10
349.430583
 20
227.272333
 30
0.0
 40
2.5
  1
AS DEFINED IN TABLES 3.1 AND 3.2 OF THE "ROADSIDE DESIGN GUIDE". IF
  7
MONOTXT
 11
349.430583
 21
229.772333
 31
0.0
210
0.0
220
0.0
230
1.0
 73
     3
  0
TEXT
  8
1
  6
CONTINUOUS
 62
     7
  5
5DA
 10
349.430583
 20
222.772333
 30
0.0
 40
2.5
  1
USED INSIDE OF THE CLEAR ZONE, THE SUPPORTS MUST BE EITHER BEHIND
  7
MONOTXT
 11
349.430583
 21
225.272333
 31
0.0
210
0.0
220
0.0
230
1.0
 73
     3
  0
TEXT
  8
1
  6
CONTINUOUS
 62
     7
  5
5DB
 10
349.430583
 20
218.272333
 30
0.0
 40
2.5
  1
GUARDRAIL, CURB, OR THE OPERATING SPEED MUST BE LESS THAN 35 MPH.
  7
MONOTXT
 11
349.430583
 21
220.772333
 31
0.0
210
0.0
220
0.0
230
1.0
 73
     3
  0
LINE
  8
1
  6
CONTINUOUS
 62
     7
  5
5DC
 10
530.706583
 20
13.9685
 30
0.0
 11
495.726583
 21
13.9685
 31
0.0
  0
POLYLINE
  8
1
  6
CONTINUOUS
 62
     7
  5
5DD
 66
     1
 10
0.0
 20
0.0
 30
0.0
  0
VERTEX
  8
1
  6
CONTINUOUS
 62
     7
  5
5DE
 10
500.52075
 20
13.55725
 30
0.0
  0
VERTEX
  8
1
  6
CONTINUOUS
 62
     7
  5
5DF
 10
498.52075
 20
10.093167
 30
0.0
  0
VERTEX
  8
1
  6
CONTINUOUS
 62
     7
  5
5E0
 10
502.52075
 20
10.093167
 30
0.0
  0
VERTEX
  8
1
  6
CONTINUOUS
 62
     7
  5
5E1
 10
500.52075
 20
13.55725
 30
0.0
  0
SEQEND
  8
1
  6
CONTINUOUS
 62
     7
  5
5E2
  0
TEXT
  8
1
  6
CONTINUOUS
 62
     7
  5
5E3
 10
499.443917
 20
10.244917
 30
0.0
 40
1.75
  1
10
  7
MONOTXT
210
0.0
220
0.0
230
1.0
  0
TEXT
  8
1
  6
CONTINUOUS
 62
     1
  5
5E4
 10
505.899417
 20
10.666667
 30
0.0
 40
2.0
  1
09-13-93
  7
MONOTXT
 72
     1
 11
512.647417
 21
12.666667
 31
0.0
210
0.0
220
0.0
230
1.0
 73
     3
  0
TEXT
  8
1
  6
CONTINUOUS
 62
     7
  5
5E5
 10
448.021583
 20
13.33625
 30
0.0
 40
1.75
  1
10
  7
MONOTXT
210
0.0
220
0.0
230
1.0
  0
POLYLINE
  8
1
  6
CONTINUOUS
 62
     7
  5
5E6
 66
     1
 10
0.0
 20
0.0
 30
0.0
  0
VERTEX
  8
1
  6
CONTINUOUS
 62
     7
  5
5E7
 10
449.098417
 20
16.648583
 30
0.0
  0
VERTEX
  8
1
  6
CONTINUOUS
 62
     7
  5
5E8
 10
447.098417
 20
13.1845
 30
0.0
  0
VERTEX
  8
1
  6
CONTINUOUS
 62
     7
  5
5E9
 10
451.098417
 20
13.1845
 30
0.0
  0
VERTEX
  8
1
  6
CONTINUOUS
 62
     7
  5
5EA
 10
449.098417
 20
16.648583
 30
0.0
  0
SEQEND
  8
1
  6
CONTINUOUS
 62
     7
  5
5EB
  0
TEXT
  8
1
  6
CONTINUOUS
 62
     7
  5
5EC
 10
453.55
 20
14.256917
 30
0.0
 40
1.75
  1
REVISED CLEAR NOTE
  7
MONOTXT
 11
453.55
 21
16.006917
 31
0.0
210
0.0
220
0.0
230
1.0
 73
     3
  0
TEXT
  8
1
  6
CONTINUOUS
 62
     7
  5
5ED
 10
453.55
 20
10.506917
 30
0.0
 40
1.75
  1
ADDED BOLT SPECS
  7
MONOTXT
 11
453.55
 21
12.256917
 31
0.0
210
0.0
220
0.0
230
1.0
 73
     3
  0
TEXT
  8
1
  6
CONTINUOUS
 62
     7
  5
5EE
 10
508.732583
 20
236.82525
 30
0.0
 40
1.75
  1
10
  7
MONOTXT
210
0.0
220
0.0
230
1.0
  0
POLYLINE
  8
1
  6
CONTINUOUS
 62
     7
  5
5EF
 66
     1
 10
0.0
 20
0.0
 30
0.0
  0
VERTEX
  8
1
  6
CONTINUOUS
 62
     7
  5
5F0
 10
509.809417
 20
240.137583
 30
0.0
  0
VERTEX
  8
1
  6
CONTINUOUS
 62
     7
  5
5F1
 10
507.809417
 20
236.6735
 30
0.0
  0
VERTEX
  8
1
  6
CONTINUOUS
 62
     7
  5
5F2
 10
511.809417
 20
236.6735
 30
0.0
  0
VERTEX
  8
1
  6
CONTINUOUS
 62
     7
  5
5F3
 10
509.809417
 20
240.137583
 30
0.0
  0
SEQEND
  8
1
  6
CONTINUOUS
 62
     7
  5
5F4
  0
TEXT
  8
1
  6
CONTINUOUS
 62
     7
  5
5F5
 10
442.78225
 20
184.507667
 30
0.0
 40
1.75
  1
10
  7
MONOTXT
210
0.0
220
0.0
230
1.0
  0
POLYLINE
  8
1
  6
CONTINUOUS
 62
     7
  5
5F6
 66
     1
 10
0.0
 20
0.0
 30
0.0
  0
VERTEX
  8
1
  6
CONTINUOUS
 62
     7
  5
5F7
 10
443.859083
 20
187.82
 30
0.0
  0
VERTEX
  8
1
  6
CONTINUOUS
 62
     7
  5
5F8
 10
441.859083
 20
184.355917
 30
0.0
  0
VERTEX
  8
1
  6
CONTINUOUS
 62
     7
  5
5F9
 10
445.859083
 20
184.355917
 30
0.0
  0
VERTEX
  8
1
  6
CONTINUOUS
 62
     7
  5
5FA
 10
443.859083
 20
187.82
 30
0.0
  0
SEQEND
  8
1
  6
CONTINUOUS
 62
     7
  5
5FB
  0
TEXT
  8
1
  6
CONTINUOUS
 62
     7
  5
5FC
 10
448.26
 20
182.442917
 30
0.0
 40
2.5
  1
 5/16 " 0 CADMIUM PLATED STEEL
  7
MONOTXT
 11
448.26
 21
184.942917
 31
0.0
210
0.0
220
0.0
230
1.0
 73
     3
  0
TEXT
  8
1
  6
CONTINUOUS
 62
     7
  5
5FD
 10
448.26
 20
177.942917
 30
0.0
 40
2.5
  1
BOLTS, NUTS AND WASHERS
  7
MONOTXT
 11
448.26
 21
180.442917
 31
0.0
210
0.0
220
0.0
230
1.0
 73
     3
  0
TEXT
  8
1
  6
CONTINUOUS
 62
     7
  5
5FE
 10
448.26
 20
173.442917
 30
0.0
 40
2.5
  1
(MEETING ASTM B766, CLASS 8,
  7
MONOTXT
 11
448.26
 21
175.942917
 31
0.0
210
0.0
220
0.0
230
1.0
 73
     3
  0
TEXT
  8
1
  6
CONTINUOUS
 62
     7
  5
5FF
 10
448.26
 20
168.942917
 30
0.0
 40
2.5
  1
TYPE 2)
  7
MONOTXT
 11
448.26
 21
171.442917
 31
0.0
210
0.0
220
0.0
230
1.0
 73
     3
  0
ENDSEC
  0
EOF
