  0
SECTION
  2
HEADER
  9
$ACADVER
  1
AC1009
  9
$INSBASE
 10
0.0
 20
0.0
 30
0.0
  9
$EXTMIN
 10
-1.5385
 20
-0.276333
 30
0.0
  9
$EXTMAX
 10
678.5415
 20
439.763667
 30
0.0
  9
$LIMMIN
 10
0.0
 20
0.0
  9
$LIMMAX
 10
12.0
 20
9.0
  9
$ORTHOMODE
 70
     0
  9
$REGENMODE
 70
     1
  9
$FILLMODE
 70
     1
  9
$QTEXTMODE
 70
     0
  9
$MIRRTEXT
 70
     1
  9
$DRAGMODE
 70
     2
  9
$LTSCALE
 40
1.0
  9
$OSMODE
 70
     0
  9
$ATTMODE
 70
     1
  9
$TEXTSIZE
 40
0.2
  9
$TRACEWID
 40
0.05
  9
$TEXTSTYLE
  7
STANDARD
  9
$CLAYER
  8
0
  9
$CELTYPE
  6
CONTINUOUS
  9
$CECOLOR
 62
   256
  9
$DIMSCALE
 40
1.0
  9
$DIMASZ
 40
0.18
  9
$DIMEXO
 40
0.0625
  9
$DIMDLI
 40
0.38
  9
$DIMRND
 40
0.0
  9
$DIMDLE
 40
0.0
  9
$DIMEXE
 40
0.18
  9
$DIMTP
 40
0.0
  9
$DIMTM
 40
0.0
  9
$DIMTXT
 40
0.18
  9
$DIMCEN
 40
0.09
  9
$DIMTSZ
 40
0.0
  9
$DIMTOL
 70
     0
  9
$DIMLIM
 70
     0
  9
$DIMTIH
 70
     1
  9
$DIMTOH
 70
     1
  9
$DIMSE1
 70
     0
  9
$DIMSE2
 70
     0
  9
$DIMTAD
 70
     0
  9
$DIMZIN
 70
     0
  9
$DIMBLK
  1

  9
$DIMASO
 70
     1
  9
$DIMSHO
 70
     1
  9
$DIMPOST
  1

  9
$DIMAPOST
  1

  9
$DIMALT
 70
     0
  9
$DIMALTD
 70
     2
  9
$DIMALTF
 40
25.4
  9
$DIMLFAC
 40
1.0
  9
$DIMTOFL
 70
     0
  9
$DIMTVP
 40
0.0
  9
$DIMTIX
 70
     0
  9
$DIMSOXD
 70
     0
  9
$DIMSAH
 70
     0
  9
$DIMBLK1
  1

  9
$DIMBLK2
  1

  9
$DIMSTYLE
  2
STANDARD
  9
$DIMCLRD
 70
     0
  9
$DIMCLRE
 70
     0
  9
$DIMCLRT
 70
     0
  9
$DIMTFAC
 40
1.0
  9
$DIMGAP
 40
0.09
  9
$LUNITS
 70
     2
  9
$LUPREC
 70
     4
  9
$AXISMODE
 70
     0
  9
$AXISUNIT
 10
0.0
 20
0.0
  9
$SKETCHINC
 40
0.1
  9
$FILLETRAD
 40
0.0
  9
$AUNITS
 70
     0
  9
$AUPREC
 70
     0
  9
$MENU
  1
acad
  9
$ELEVATION
 40
0.0
  9
$PELEVATION
 40
0.0
  9
$THICKNESS
 40
0.0
  9
$LIMCHECK
 70
     0
  9
$BLIPMODE
 70
     1
  9
$CHAMFERA
 40
0.0
  9
$CHAMFERB
 40
0.0
  9
$SKPOLY
 70
     0
  9
$TDCREATE
 40
2451803.395983796
  9
$TDUPDATE
 40
2451803.395983796
  9
$TDINDWG
 40
0.0000000000
  9
$TDUSRTIMER
 40
0.0000000000
  9
$USRTIMER
 70
     1
  9
$ANGBASE
 50
0.0
  9
$ANGDIR
 70
     0
  9
$PDMODE
 70
     0
  9
$PDSIZE
 40
0.0
  9
$PLINEWID
 40
0.0
  9
$COORDS
 70
     0
  9
$SPLFRAME
 70
     0
  9
$SPLINETYPE
 70
     6
  9
$SPLINESEGS
 70
    10
  9
$ATTDIA
 70
     0
  9
$ATTREQ
 70
     1
  9
$HANDLING
 70
     1
  9
$HANDSEED
  5
298
  9
$SURFTAB1
 70
     6
  9
$SURFTAB2
 70
     6
  9
$SURFTYPE
 70
     6
  9
$SURFU
 70
     6
  9
$SURFV
 70
     6
  9
$UCSNAME
  2

  9
$UCSORG
 10
0.0
 20
0.0
 30
0.0
  9
$UCSXDIR
 10
1.0
 20
0.0
 30
0.0
  9
$UCSYDIR
 10
0.0
 20
1.0
 30
0.0
  9
$PUCSNAME
  2

  9
$PUCSORG
 10
0.0
 20
0.0
 30
0.0
  9
$PUCSXDIR
 10
1.0
 20
0.0
 30
0.0
  9
$PUCSYDIR
 10
0.0
 20
1.0
 30
0.0
  9
$USERI1
 70
     0
  9
$USERI2
 70
     0
  9
$USERI3
 70
     0
  9
$USERI4
 70
     0
  9
$USERI5
 70
     0
  9
$USERR1
 40
0.0
  9
$USERR2
 40
0.0
  9
$USERR3
 40
0.0
  9
$USERR4
 40
0.0
  9
$USERR5
 40
0.0
  9
$WORLDVIEW
 70
     1
  9
$SHADEDGE
 70
     3
  9
$SHADEDIF
 70
    70
  9
$TILEMODE
 70
     1
  9
$MAXACTVP
 70
    16
  9
$PINSBASE
 10
0.0
 20
0.0
 30
0.0
  9
$PLIMCHECK
 70
     0
  9
$PEXTMIN
 10
-1.000000E+20
 20
-1.000000E+20
 30
-1.000000E+20
  9
$PEXTMAX
 10
-1.000000E+20
 20
-1.000000E+20
 30
-1.000000E+20
  9
$PLIMMIN
 10
0.0
 20
0.0
  9
$PLIMMAX
 10
12.0
 20
9.0
  9
$UNITMODE
 70
     0
  9
$VISRETAIN
 70
     0
  9
$PLINEGEN
 70
     1
  9
$PSLTSCALE
 70
     0
  9
$TREEDEPTH
 70
  3020
  9
$DWGCODEPAGE
  3
ansi_1252
  0
ENDSEC
  0
SECTION
  2
TABLES
  0
TABLE
  2
VPORT
 70
     1
  0
VPORT
  2
*ACTIVE
 70
     0
 10
0.0
 20
0.0
 11
1.0
 21
1.0
 12
0.0
 22
0.0
 13
0.0
 23
0.0
 14
0.0
 24
0.0
 15
0.0
 25
0.0
 16
0.0
 26
0.0
 36
1.0
 17
292.7378
 27
219.743667
 37
0.0
 40
451.041
 41
1.795122
 42
50.0
 43
0.0
 44
0.0
 50
0.0
 51
0.0
 71
     0
 72
   100
 73
     1
 74
     0
 75
     0
 76
     0
 77
     0
 78
     0
  0
ENDTAB
  0
TABLE
  2
LTYPE
 70
     7
  0
LTYPE
  2
CONTINUOUS
 70
     0
  3
Solid line
 72
    65
 73
     0
 40
0.0
  0
LTYPE
  2
DOT
 70
    64
  3
. . . . . . . . . . . . . . . . . . . . . . . . . . . . . . . . .
 72
    65
 73
     2
 40
0.25
 49
0.0
 49
-0.25
  0
LTYPE
  2
HIDDEN
 70
    64
  3
__ __ __ __ __ __ __ __ __ __ __ __ __ __ __ __ __ __ __ __ __ 
 72
    65
 73
     2
 40
0.375
 49
0.25
 49
-0.125
  0
LTYPE
  2
DASHED
 70
    64
  3
__ __ __ __ __ __ __ __ __ __ __ __ __ __ __ __ __ __ __ __ __
 72
    65
 73
     2
 40
0.75
 49
0.5
 49
-0.25
  0
LTYPE
  2
DASHDOT
 70
    64
  3
__ . __ . __ . __ . __ . __ . __ . __ . __ . __ . __ . __ . _
 72
    65
 73
     4
 40
1.0
 49
0.5
 49
-0.25
 49
0.0
 49
-0.25
  0
LTYPE
  2
DIVIDE
 70
    64
  3
____ . . ____ . . ____ . . ____ . . ____ . . ____ . . ____ . .
 72
    65
 73
     6
 40
1.25
 49
0.5
 49
-0.25
 49
0.0
 49
-0.25
 49
0.0
 49
-0.25
  0
LTYPE
  2
CENTER
 70
    64
  3
____ _ ____ _ ____ _ ____ _ ____ _ ____ _ ____ _ ____ _ ____ _
 72
    65
 73
     4
 40
2.0
 49
1.25
 49
-0.25
 49
0.25
 49
-0.25
  0
ENDTAB
  0
TABLE
  2
LAYER
 70
     5
  0
LAYER
  2
0
 70
     0
 62
     7
  6
CONTINUOUS
  0
LAYER
  2
CONSTRUCTION_CLASS
 70
     0
 62
     7
  6
CONTINUOUS
  0
LAYER
  2
PATTERN_CLASS
 70
     0
 62
     7
  6
CONTINUOUS
  0
LAYER
  2
61
 70
    64
 62
     7
  6
CONTINUOUS
  0
LAYER
  2
1
 70
    64
 62
     7
  6
CONTINUOUS
  0
ENDTAB
  0
TABLE
  2
STYLE
 70
     4
  0
STYLE
  2
STANDARD
 70
     0
 40
0.0
 41
1.0
 50
0.0
 71
     0
 42
0.0
  3
txt
  4

  0
STYLE
  2
MONOTXT
 70
     0
 40
0.2
 41
1.0
 50
0.0
 71
     0
 42
0.2
  3
MONOTXT
  4

  0
STYLE
  2
txt
 70
     0
 40
0.2
 41
1.0
 50
0.0
 71
     0
 42
0.2
  3
TXT
  4

  0
STYLE
  2
ROMANT
 70
     0
 40
0.2
 41
1.0
 50
0.0
 71
     0
 42
0.2
  3
ROMANT
  4

  0
ENDTAB
  0
TABLE
  2
VIEW
 70
     0
  0
ENDTAB
  0
TABLE
  2
UCS
 70
     0
  0
ENDTAB
  0
TABLE
  2
APPID
 70
     1
  0
APPID
  2
ACAD
 70
     0
  0
ENDTAB
  0
TABLE
  2
DIMSTYLE
 70
     1
  0
DIMSTYLE
  2
STANDARD
 70
     0
  3

  4

  5

  6

  7

 40
1.0
 41
0.18
 42
0.0625
 43
0.38
 44
0.18
 45
0.0
 46
0.0
 47
0.0
 48
0.0
140
0.18
141
0.09
142
0.0
143
25.4
144
1.0
145
0.0
146
1.0
147
0.09
 71
     0
 72
     0
 73
     1
 74
     1
 75
     0
 76
     0
 77
     0
 78
     0
170
     0
171
     2
172
     0
173
     0
174
     0
175
     0
176
     0
177
     0
178
     0
  0
ENDTAB
  0
ENDSEC
  0
SECTION
  2
BLOCKS
  0
BLOCK
  8
1
  6
CONTINUOUS
 62
     1
  5
22C
  2
LDR
 70
     0
 10
0.0
 20
0.0
 30
0.0
  3
LNR
  0
POLYLINE
  8
1
  6
CONTINUOUS
 62
     1
  5
22D
 66
     1
 10
0.0
 20
0.0
 30
0.0
210
0.0
220
0.0
230
1.0
  0
VERTEX
  8
1
  6
CONTINUOUS
 62
     1
  5
22E
 10
-0.011987
 20
-0.001802
 30
0.0
 42
-0.265147
  0
VERTEX
  8
1
  6
CONTINUOUS
 62
     1
  5
22F
 10
-0.011849
 20
-0.001604
 30
0.0
 42
-0.064653
  0
VERTEX
  8
1
  6
CONTINUOUS
 62
     1
  5
230
 10
-0.011407
 20
-0.001387
 30
0.0
 42
-0.025822
  0
VERTEX
  8
1
  6
CONTINUOUS
 62
     1
  5
231
 10
-0.010681
 20
-0.00116
 30
0.0
 42
-0.014504
  0
VERTEX
  8
1
  6
CONTINUOUS
 62
     1
  5
232
 10
-0.0097
 20
-0.000933
 30
0.0
 42
-0.009896
  0
VERTEX
  8
1
  6
CONTINUOUS
 62
     1
  5
233
 10
-0.008505
 20
-0.000715
 30
0.0
 42
-0.007708
  0
VERTEX
  8
1
  6
CONTINUOUS
 62
     1
  5
234
 10
-0.007146
 20
-0.000515
 30
0.0
 42
-0.006655
  0
VERTEX
  8
1
  6
CONTINUOUS
 62
     1
  5
235
 10
-0.005679
 20
-0.000342
 30
0.0
 42
-0.006278
  0
VERTEX
  8
1
  6
CONTINUOUS
 62
     1
  5
236
 10
-0.004164
 20
-0.000202
 30
0.0
 42
-0.006439
  0
VERTEX
  8
1
  6
CONTINUOUS
 62
     1
  5
237
 10
-0.002666
 20
-0.000101
 30
0.0
 42
-0.007196
  0
VERTEX
  8
1
  6
CONTINUOUS
 62
     1
  5
238
 10
-0.001246
 20
-0.000044
 30
0.0
 42
-0.008852
  0
VERTEX
  8
1
  6
CONTINUOUS
 62
     1
  5
239
 10
0.000037
 20
-0.000034
 30
0.0
 42
-0.008852
  0
SEQEND
  8
1
  6
CONTINUOUS
 62
     1
  5
23A
  0
POLYLINE
  8
1
  6
CONTINUOUS
 62
     1
  5
23B
 66
     1
 10
0.0
 20
0.0
 30
0.0
210
0.0
220
0.0
230
1.0
  0
VERTEX
  8
1
  6
CONTINUOUS
 62
     1
  5
23C
 10
0.000039
 20
0.000014
 30
0.0
 42
-0.005019
  0
VERTEX
  8
1
  6
CONTINUOUS
 62
     1
  5
23D
 10
-0.001103
 20
0.000071
 30
0.0
 42
-0.004038
  0
VERTEX
  8
1
  6
CONTINUOUS
 62
     1
  5
23E
 10
-0.002373
 20
0.000158
 30
0.0
 42
-0.003548
  0
VERTEX
  8
1
  6
CONTINUOUS
 62
     1
  5
23F
 10
-0.003725
 20
0.00027
 30
0.0
 42
-0.003367
  0
VERTEX
  8
1
  6
CONTINUOUS
 62
     1
  5
240
 10
-0.005111
 20
0.000405
 30
0.0
 42
-0.003436
  0
VERTEX
  8
1
  6
CONTINUOUS
 62
     1
  5
241
 10
-0.006481
 20
0.000556
 30
0.0
 42
-0.003778
  0
VERTEX
  8
1
  6
CONTINUOUS
 62
     1
  5
242
 10
-0.007786
 20
0.00072
 30
0.0
 42
-0.00451
  0
VERTEX
  8
1
  6
CONTINUOUS
 62
     1
  5
243
 10
-0.008979
 20
0.000889
 30
0.0
 42
-0.00594
  0
VERTEX
  8
1
  6
CONTINUOUS
 62
     1
  5
244
 10
-0.010018
 20
0.001058
 30
0.0
 42
-0.008921
  0
VERTEX
  8
1
  6
CONTINUOUS
 62
     1
  5
245
 10
-0.010864
 20
0.00122
 30
0.0
 42
-0.016392
  0
VERTEX
  8
1
  6
CONTINUOUS
 62
     1
  5
246
 10
-0.011488
 20
0.001371
 30
0.0
 42
-0.04458
  0
VERTEX
  8
1
  6
CONTINUOUS
 62
     1
  5
247
 10
-0.011867
 20
0.001503
 30
0.0
 42
-0.317392
  0
VERTEX
  8
1
  6
CONTINUOUS
 62
     1
  5
248
 10
-0.011987
 20
0.001614
 30
0.0
 42
-0.317392
  0
SEQEND
  8
1
  6
CONTINUOUS
 62
     1
  5
249
  0
ENDBLK
  8
1
  6
CONTINUOUS
 62
     1
  5
24A
  0
ENDSEC
  0
SECTION
  2
ENTITIES
  0
LINE
  8
61
  6
CONTINUOUS
 62
     1
  5
29
 10
667.5615
 20
429.763667
 30
0.0
 11
28.5215
 21
429.763667
 31
0.0
  0
LINE
  8
61
  6
CONTINUOUS
 62
     1
  5
2A
 10
28.5215
 20
429.763667
 30
0.0
 11
28.5215
 21
9.743667
 31
0.0
  0
LINE
  8
61
  6
CONTINUOUS
 62
     1
  5
2B
 10
667.5815
 20
9.723667
 30
0.0
 11
28.5215
 21
9.743667
 31
0.0
  0
LINE
  8
61
  6
CONTINUOUS
 62
     1
  5
2C
 10
667.5615
 20
429.763667
 30
0.0
 11
667.5815
 21
9.723667
 31
0.0
  0
LINE
  8
61
  6
CONTINUOUS
 62
     7
  5
2D
 10
661.4615
 20
425.023667
 30
0.0
 11
553.4815
 21
425.003667
 31
0.0
  0
LINE
  8
61
  6
CONTINUOUS
 62
     7
  5
2E
 10
553.4815
 20
425.003667
 30
0.0
 11
553.4815
 21
405.003667
 31
0.0
  0
LINE
  8
61
  6
CONTINUOUS
 62
     7
  5
2F
 10
661.4615
 20
425.023667
 30
0.0
 11
661.4615
 21
405.023667
 31
0.0
  0
LINE
  8
61
  6
CONTINUOUS
 62
     7
  5
30
 10
661.4615
 20
405.023667
 30
0.0
 11
553.4815
 21
405.003667
 31
0.0
  0
LINE
  8
61
  6
CONTINUOUS
 62
     7
  5
31
 10
661.4815
 20
414.983667
 30
0.0
 11
553.4615
 21
415.003667
 31
0.0
  0
LINE
  8
61
  6
CONTINUOUS
 62
     7
  5
32
 10
563.4815
 20
425.003667
 30
0.0
 11
563.4815
 21
405.003667
 31
0.0
  0
LINE
  8
61
  6
CONTINUOUS
 62
     7
  5
33
 10
573.4815
 20
425.003667
 30
0.0
 11
573.4815
 21
405.003667
 31
0.0
  0
LINE
  8
61
  6
CONTINUOUS
 62
     7
  5
34
 10
587.1615
 20
425.003667
 30
0.0
 11
587.1615
 21
405.003667
 31
0.0
  0
LINE
  8
61
  6
CONTINUOUS
 62
     7
  5
35
 10
651.4615
 20
425.023667
 30
0.0
 11
651.4615
 21
405.023667
 31
0.0
  0
LINE
  8
61
  6
CONTINUOUS
 62
     7
  5
36
 10
641.4615
 20
425.023667
 30
0.0
 11
641.4615
 21
405.023667
 31
0.0
  0
LINE
  8
61
  6
CONTINUOUS
 62
     7
  5
37
 10
619.4815
 20
425.003667
 30
0.0
 11
619.4815
 21
405.003667
 31
0.0
  0
LINE
  8
61
  6
CONTINUOUS
 62
     7
  5
38
 10
609.4815
 20
425.003667
 30
0.0
 11
609.4815
 21
405.003667
 31
0.0
  0
TEXT
  8
61
  6
CONTINUOUS
 62
     7
  5
3A
 10
555.5215
 20
421.983667
 30
0.0
 40
1.20075
  1
PUBLIC
 50
0.033272
 41
1.001804
  7
MONOTXT
210
0.0
220
0.0
230
1.0
  0
TEXT
  8
61
  6
CONTINUOUS
 62
     7
  5
3B
 10
555.6015
 20
419.463667
 30
0.0
 40
1.20075
  1
ROADS
 50
0.124322
 41
0.996877
  7
MONOTXT
210
0.0
220
0.0
230
1.0
  0
TEXT
  8
61
  6
CONTINUOUS
 62
     7
  5
3C
 10
556.8015
 20
416.963667
 30
0.0
 40
1.20075
  1
DIV.
 50
359.931522
 41
0.994864
  7
MONOTXT
210
0.0
220
0.0
230
1.0
  0
TEXT
  8
61
  6
CONTINUOUS
 62
     7
  5
3D
 10
565.6815
 20
422.043667
 30
0.0
 40
1.20075
  1
STATE
 50
0.058969
 41
0.998196
  7
MONOTXT
210
0.0
220
0.0
230
1.0
  0
TEXT
  8
61
  6
CONTINUOUS
 62
     7
  5
3E
 10
566.5615
 20
419.543667
 30
0.0
 40
1.20075
  1
DIST.
 50
0.055889
 41
0.999584
  7
MONOTXT
210
0.0
220
0.0
230
1.0
  0
TEXT
  8
61
  6
CONTINUOUS
 62
     7
  5
3F
 10
567.1415
 20
417.023667
 30
0.0
 40
1.20075
  1
NO.
 50
359.852072
 41
0.997779
  7
MONOTXT
210
0.0
220
0.0
230
1.0
  0
TEXT
  8
61
  6
CONTINUOUS
 62
     7
  5
40
 10
577.6815
 20
421.983667
 30
0.0
 40
1.20075
  1
STATE
 50
0.058969
 41
0.998196
  7
MONOTXT
210
0.0
220
0.0
230
1.0
  0
TEXT
  8
61
  6
CONTINUOUS
 62
     7
  5
41
 10
576.6015
 20
419.563667
 30
0.0
 40
1.20075
  1
PROJECT
 50
359.908431
 41
1.000069
  7
MONOTXT
210
0.0
220
0.0
230
1.0
  0
TEXT
  8
61
  6
CONTINUOUS
 62
     7
  5
42
 10
579.3415
 20
417.023667
 30
0.0
 40
1.20075
  1
NO.
 50
0.225453
 41
0.993546
  7
MONOTXT
210
0.0
220
0.0
230
1.0
  0
TEXT
  8
61
  6
CONTINUOUS
 62
     7
  5
43
 10
594.9815
 20
420.863667
 30
0.0
 40
1.20075
  1
FEDERAL
 50
0.006714
 41
0.998543
  7
MONOTXT
210
0.0
220
0.0
230
1.0
  0
TEXT
  8
61
  6
CONTINUOUS
 62
     7
  5
44
 10
593.4415
 20
418.203667
 30
0.0
 40
1.20075
  1
PROJECT NO.
 50
359.921531
 41
1.000694
  7
MONOTXT
210
0.0
220
0.0
230
1.0
  0
TEXT
  8
61
  6
CONTINUOUS
 62
     7
  5
45
 10
611.7215
 20
420.803667
 30
0.0
 40
1.20075
  1
FISCAL
 50
359.941939
 41
0.998959
  7
MONOTXT
210
0.0
220
0.0
230
1.0
  0
TEXT
  8
61
  6
CONTINUOUS
 62
     7
  5
46
 10
612.2415
 20
417.903667
 30
0.0
 40
1.20075
  1
YEAR
 50
0.104606
 41
0.993268
  7
MONOTXT
210
0.0
220
0.0
230
1.0
  0
TEXT
  8
61
  6
CONTINUOUS
 62
     7
  5
47
 10
626.3415
 20
419.263667
 30
0.0
 40
1.20075
  1
COUNTY
 50
0.068575
 41
1.001874
  7
MONOTXT
210
0.0
220
0.0
230
1.0
  0
TEXT
  8
61
  6
CONTINUOUS
 62
     7
  5
48
 10
643.9815
 20
420.923667
 30
0.0
 40
1.20075
  1
SHEET
 50
0.058969
 41
0.997571
  7
MONOTXT
210
0.0
220
0.0
230
1.0
  0
TEXT
  8
61
  6
CONTINUOUS
 62
     7
  5
49
 10
645.4015
 20
418.203667
 30
0.0
 40
1.20075
  1
NO.
 50
359.852072
 41
0.997779
  7
MONOTXT
210
0.0
220
0.0
230
1.0
  0
TEXT
  8
61
  6
CONTINUOUS
 62
     7
  5
4A
 10
653.7215
 20
420.783667
 30
0.0
 40
1.20075
  1
TOTAL
 50
359.926039
 41
0.998543
  7
MONOTXT
210
0.0
220
0.0
230
1.0
  0
TEXT
  8
61
  6
CONTINUOUS
 62
     7
  5
4B
 10
653.2615
 20
418.083667
 30
0.0
 40
1.20075
  1
SHEETS
 50
359.958675
  7
MONOTXT
210
0.0
220
0.0
230
1.0
  0
TEXT
  8
61
  6
CONTINUOUS
 62
     7
  5
4C
 10
566.0815
 20
409.203667
 30
0.0
 40
2.401333
  1
  
 50
0.029406
 41
0.996495
  7
MONOTXT
210
0.0
220
0.0
230
1.0
  0
TEXT
  8
61
  6
CONTINUOUS
 62
     7
  5
4D
 10
643.2615
 20
408.923667
 30
0.0
 40
2.401333
  1
   
 50
0.011508
 41
1.001006
  7
MONOTXT
210
0.0
220
0.0
230
1.0
  0
TEXT
  8
61
  6
CONTINUOUS
 62
     7
  5
4E
 10
653.1415
 20
408.903667
 30
0.0
 40
2.401333
  1
   
 50
359.922128
 41
1.000555
  7
MONOTXT
210
0.0
220
0.0
230
1.0
  0
TEXT
  8
61
  6
CONTINUOUS
 62
     7
  5
4F
 10
576.5215
 20
412.303667
 30
0.0
 40
2.00675
  1
    
 50
0.054383
 41
0.993729
  7
MONOTXT
210
0.0
220
0.0
230
1.0
  0
TEXT
  8
61
  6
CONTINUOUS
 62
     7
  5
50
 10
573.6015
 20
409.283667
 30
0.0
 40
1.989583
  1
       
 50
0.064678
 41
1.000963
  7
MONOTXT
210
0.0
220
0.0
230
1.0
  0
TEXT
  8
61
  6
CONTINUOUS
 62
     7
  5
51
 10
574.5615
 20
406.383667
 30
0.0
 40
1.989583
  1
      
 50
359.958053
 41
1.000293
  7
MONOTXT
210
0.0
220
0.0
230
1.0
  0
TEXT
  8
61
  6
CONTINUOUS
 62
     7
  5
52
 10
585.5215
 20
411.023667
 30
0.0
 40
2.401333
  1
           
 50
0.011508
 41
0.998751
  7
MONOTXT
210
0.0
220
0.0
230
1.0
  0
TEXT
  8
61
  6
CONTINUOUS
 62
     7
  5
53
 10
585.4015
 20
407.363667
 30
0.0
 40
2.401333
  1
           
 50
0.011508
 41
0.999584
  7
MONOTXT
210
0.0
220
0.0
230
1.0
  0
TEXT
  8
61
  6
CONTINUOUS
 62
     7
  5
54
 10
620.7415
 20
409.103667
 30
0.0
 40
2.00675
  1
          
 50
0.009222
 41
0.992774
  7
MONOTXT
210
0.0
220
0.0
230
1.0
  0
ARC
  8
61
  6
CONTINUOUS
 62
     3
  5
55
 10
10.219257
 20
341.004962
 30
0.0
 40
2.499998
 50
323.130094
 51
316.232156
210
0.0
220
0.0
230
1.0
  0
ARC
  8
61
  6
CONTINUOUS
 62
     3
  5
56
 10
10.219257
 20
286.004962
 30
0.0
 40
2.499998
 50
323.130094
 51
315.375767
210
0.0
220
0.0
230
1.0
  0
ARC
  8
61
  6
CONTINUOUS
 62
     3
  5
57
 10
9.939257
 20
137.564962
 30
0.0
 40
2.499998
 50
322.671753
 51
321.716147
210
0.0
220
0.0
230
1.0
  0
ARC
  8
61
  6
CONTINUOUS
 62
     3
  5
58
 10
9.939257
 20
82.564962
 30
0.0
 40
2.499998
 50
323.130094
 51
312.314392
210
0.0
220
0.0
230
1.0
  0
LINE
  8
61
  6
CONTINUOUS
 62
     2
  5
59
 10
12.2415
 20
341.003667
 30
0.0
 11
20.2215
 21
341.023667
 31
0.0
  0
LINE
  8
61
  6
CONTINUOUS
 62
     2
  5
5A
 10
12.2215
 20
286.003667
 30
0.0
 11
20.2215
 21
286.003667
 31
0.0
  0
LINE
  8
61
  6
CONTINUOUS
 62
     2
  5
5B
 10
11.9415
 20
137.583667
 30
0.0
 11
19.9415
 21
137.583667
 31
0.0
  0
LINE
  8
61
  6
CONTINUOUS
 62
     2
  5
5C
 10
11.9615
 20
82.563667
 30
0.0
 11
19.9415
 21
82.563667
 31
0.0
  0
LINE
  8
61
  6
DASHED
 62
     1
  5
5D
 10
-1.4785
 20
439.763667
 30
0.0
 11
678.5415
 21
439.763667
 31
0.0
  0
LINE
  8
61
  6
DASHED
 62
     1
  5
5E
 10
678.5215
 20
-0.256333
 30
0.0
 11
-1.5385
 21
-0.276333
 31
0.0
  0
TEXT
  8
61
  6
CONTINUOUS
 62
     7
  5
5F
 10
654.3615
 20
385.103667
 30
0.0
 40
2.401333
  1
     
 41
1.001388
  7
MONOTXT
210
0.0
220
0.0
230
1.0
  0
LINE
  8
1
  6
HIDDEN
 62
     1
  5
61
 10
678.5415
 20
439.763667
 30
0.0
 11
678.5215
 21
-0.256333
 31
0.0
  0
LINE
  8
1
  6
HIDDEN
 62
     1
  5
62
 10
-1.4785
 20
439.763667
 30
0.0
 11
-1.5385
 21
-0.276333
 31
0.0
  0
TEXT
  8
1
  6
CONTINUOUS
 62
     1
  5
64
 10
633.3015
 20
7.223667
 30
0.0
 40
1.2
  1
TRAFFIC ENGINEERING DIVISION
  7
txt
210
0.0
220
0.0
230
1.0
  0
LINE
  8
1
  6
CONTINUOUS
 62
     7
  5
65
 10
495.9215
 20
9.723667
 30
0.0
 11
495.9215
 21
101.303667
 31
0.0
  0
LINE
  8
1
  6
CONTINUOUS
 62
     7
  5
66
 10
495.9215
 20
101.303667
 30
0.0
 11
667.5815
 21
101.303667
 31
0.0
  0
LINE
  8
1
  6
CONTINUOUS
 62
     7
  5
67
 10
530.9215
 20
9.683667
 30
0.0
 11
530.9215
 21
54.643667
 31
0.0
  0
LINE
  8
1
  6
CONTINUOUS
 62
     7
  5
68
 10
530.9215
 20
54.643667
 30
0.0
 11
495.9415
 21
54.643667
 31
0.0
  0
LINE
  8
1
  6
CONTINUOUS
 62
     7
  5
69
 10
530.9215
 20
50.163667
 30
0.0
 11
495.9415
 21
50.163667
 31
0.0
  0
LINE
  8
1
  6
CONTINUOUS
 62
     7
  5
6A
 10
530.9215
 20
45.663667
 30
0.0
 11
495.9415
 21
45.663667
 31
0.0
  0
LINE
  8
1
  6
CONTINUOUS
 62
     7
  5
6B
 10
530.9215
 20
41.163667
 30
0.0
 11
495.9415
 21
41.163667
 31
0.0
  0
LINE
  8
1
  6
CONTINUOUS
 62
     7
  5
6C
 10
530.9215
 20
36.643667
 30
0.0
 11
495.9415
 21
36.643667
 31
0.0
  0
LINE
  8
1
  6
CONTINUOUS
 62
     7
  5
6D
 10
530.9215
 20
32.163667
 30
0.0
 11
495.9415
 21
32.163667
 31
0.0
  0
LINE
  8
1
  6
CONTINUOUS
 62
     7
  5
6E
 10
530.9215
 20
27.683667
 30
0.0
 11
495.9415
 21
27.683667
 31
0.0
  0
LINE
  8
1
  6
CONTINUOUS
 62
     7
  5
6F
 10
530.9215
 20
23.183667
 30
0.0
 11
495.9415
 21
23.183667
 31
0.0
  0
LINE
  8
1
  6
CONTINUOUS
 62
     7
  5
70
 10
530.9215
 20
18.683667
 30
0.0
 11
495.9415
 21
18.683667
 31
0.0
  0
LINE
  8
1
  6
CONTINUOUS
 62
     7
  5
71
 10
530.9215
 20
14.163667
 30
0.0
 11
495.9415
 21
14.163667
 31
0.0
  0
TEXT
  8
1
  6
CONTINUOUS
 62
     7
  5
72
 10
506.2015
 20
51.643667
 30
0.0
 40
1.99775
  1
REVISIONS
  7
MONOTXT
210
0.0
220
0.0
230
1.0
  0
TEXT
  8
1
  6
CONTINUOUS
 62
     7
  5
73
 10
497.8815
 20
55.643667
 30
0.0
 40
1.99775
  1
PREPARED:   /  /  
  7
MONOTXT
210
0.0
220
0.0
230
1.0
  0
TEXT
  8
1
  6
CONTINUOUS
 62
     7
  5
75
 10
528.5415
 20
92.703667
 30
0.0
 40
4.794833
  1
WEST VIRGINIA DIVISION OF HIGHWAYS
  7
ROMANT
 72
     1
 11
582.51175
 21
97.4985
 31
0.0
210
0.0
220
0.0
230
1.0
 73
     3
  0
TEXT
  8
1
  6
CONTINUOUS
 62
     7
  5
76
 10
539.3015
 20
81.543667
 30
0.0
 40
6.992667
  1
STANDARD DETAIL
  7
txt
 72
     1
 11
583.791583
 21
88.536333
 31
0.0
210
0.0
220
0.0
230
1.0
 73
     3
  0
TEXT
  8
1
  6
CONTINUOUS
 62
     7
  5
77
 10
534.7615
 20
13.763667
 30
0.0
 40
6.992667
  1
STANDARD SHEET TE1-7C
  7
txt
210
0.0
220
0.0
230
1.0
  0
TEXT
  8
1
  6
CONTINUOUS
 62
     1
  5
78
 10
506.481333
 20
46.583667
 30
0.0
 40
2.0
  1
05-21-69
  7
MONOTXT
 72
     1
 11
513.2295
 21
48.583667
 31
0.0
210
0.0
220
0.0
230
1.0
 73
     3
  0
TEXT
  8
1
  6
CONTINUOUS
 62
     1
  5
79
 10
506.776333
 20
42.183667
 30
0.0
 40
2.0
  1
11-25-70
  7
MONOTXT
 72
     1
 11
513.201667
 21
44.183667
 31
0.0
210
0.0
220
0.0
230
1.0
 73
     3
  0
TEXT
  8
1
  6
CONTINUOUS
 62
     1
  5
7A
 10
506.749083
 20
37.783667
 30
0.0
 40
2.0
  1
01-04-71
  7
MONOTXT
 72
     1
 11
513.221583
 21
39.783667
 31
0.0
210
0.0
220
0.0
230
1.0
 73
     3
  0
TEXT
  8
1
  6
CONTINUOUS
 62
     1
  5
7B
 10
506.749083
 20
33.383667
 30
0.0
 40
2.0
  1
04-01-71
  7
MONOTXT
 72
     1
 11
513.221583
 21
35.383667
 31
0.0
210
0.0
220
0.0
230
1.0
 73
     3
  0
TEXT
  8
1
  6
CONTINUOUS
 62
     1
  5
7C
 10
507.10875
 20
28.783667
 30
0.0
 40
2.0
  1
11-19-73
  7
MONOTXT
 72
     1
 11
513.069417
 21
30.783667
 31
0.0
210
0.0
220
0.0
230
1.0
 73
     3
  0
TEXT
  8
1
  6
CONTINUOUS
 62
     1
  5
7D
 10
506.89075
 20
24.303667
 30
0.0
 40
2.0
  1
11-09-76
  7
MONOTXT
 72
     1
 11
513.229417
 21
26.303667
 31
0.0
210
0.0
220
0.0
230
1.0
 73
     3
  0
TEXT
  8
1
  6
CONTINUOUS
 62
     1
  5
7E
 10
506.223833
 20
19.703667
 30
0.0
 40
2.0
  1
10-24-78
  7
MONOTXT
 72
     1
 11
513.1295
 21
21.703667
 31
0.0
210
0.0
220
0.0
230
1.0
 73
     3
  0
TEXT
  8
1
  6
CONTINUOUS
 62
     1
  5
7F
 10
506.764833
 20
15.123667
 30
0.0
 40
2.0
  1
11-30-84
  7
MONOTXT
 72
     1
 11
513.2295
 21
17.123667
 31
0.0
210
0.0
220
0.0
230
1.0
 73
     3
  0
TEXT
  8
1
  6
CONTINUOUS
 62
     1
  5
80
 10
506.150667
 20
11.103667
 30
0.0
 40
2.0
  1
09-13-93
  7
MONOTXT
 72
     1
 11
512.898833
 21
13.103667
 31
0.0
210
0.0
220
0.0
230
1.0
 73
     3
  0
POLYLINE
  8
1
  6
CONTINUOUS
 62
     7
  5
81
 66
     1
 10
0.0
 20
0.0
 30
0.0
  0
VERTEX
  8
1
  6
CONTINUOUS
 62
     7
  5
82
 10
500.502917
 20
49.701583
 30
0.0
  0
VERTEX
  8
1
  6
CONTINUOUS
 62
     7
  5
83
 10
498.502917
 20
46.2375
 30
0.0
  0
VERTEX
  8
1
  6
CONTINUOUS
 62
     7
  5
84
 10
502.502917
 20
46.2375
 30
0.0
  0
VERTEX
  8
1
  6
CONTINUOUS
 62
     7
  5
85
 10
500.502917
 20
49.701583
 30
0.0
  0
SEQEND
  8
1
  6
CONTINUOUS
 62
     7
  5
86
  0
POLYLINE
  8
1
  6
CONTINUOUS
 62
     7
  5
87
 66
     1
 10
0.0
 20
0.0
 30
0.0
  0
VERTEX
  8
1
  6
CONTINUOUS
 62
     7
  5
88
 10
500.442083
 20
45.104083
 30
0.0
  0
VERTEX
  8
1
  6
CONTINUOUS
 62
     7
  5
89
 10
498.442083
 20
41.64
 30
0.0
  0
VERTEX
  8
1
  6
CONTINUOUS
 62
     7
  5
8A
 10
502.442083
 20
41.64
 30
0.0
  0
VERTEX
  8
1
  6
CONTINUOUS
 62
     7
  5
8B
 10
500.442083
 20
45.104083
 30
0.0
  0
SEQEND
  8
1
  6
CONTINUOUS
 62
     7
  5
8C
  0
POLYLINE
  8
1
  6
CONTINUOUS
 62
     7
  5
8D
 66
     1
 10
0.0
 20
0.0
 30
0.0
  0
VERTEX
  8
1
  6
CONTINUOUS
 62
     7
  5
8E
 10
500.48625
 20
40.7225
 30
0.0
  0
VERTEX
  8
1
  6
CONTINUOUS
 62
     7
  5
8F
 10
498.48625
 20
37.258417
 30
0.0
  0
VERTEX
  8
1
  6
CONTINUOUS
 62
     7
  5
90
 10
502.48625
 20
37.258417
 30
0.0
  0
VERTEX
  8
1
  6
CONTINUOUS
 62
     7
  5
91
 10
500.48625
 20
40.7225
 30
0.0
  0
SEQEND
  8
1
  6
CONTINUOUS
 62
     7
  5
92
  0
POLYLINE
  8
1
  6
CONTINUOUS
 62
     7
  5
93
 66
     1
 10
0.0
 20
0.0
 30
0.0
  0
VERTEX
  8
1
  6
CONTINUOUS
 62
     7
  5
94
 10
500.364667
 20
36.263333
 30
0.0
  0
VERTEX
  8
1
  6
CONTINUOUS
 62
     7
  5
95
 10
498.364667
 20
32.79925
 30
0.0
  0
VERTEX
  8
1
  6
CONTINUOUS
 62
     7
  5
96
 10
502.364667
 20
32.79925
 30
0.0
  0
VERTEX
  8
1
  6
CONTINUOUS
 62
     7
  5
97
 10
500.364667
 20
36.263333
 30
0.0
  0
SEQEND
  8
1
  6
CONTINUOUS
 62
     7
  5
98
  0
POLYLINE
  8
1
  6
CONTINUOUS
 62
     7
  5
99
 66
     1
 10
0.0
 20
0.0
 30
0.0
  0
VERTEX
  8
1
  6
CONTINUOUS
 62
     7
  5
9A
 10
500.4255
 20
31.665917
 30
0.0
  0
VERTEX
  8
1
  6
CONTINUOUS
 62
     7
  5
9B
 10
498.4255
 20
28.201833
 30
0.0
  0
VERTEX
  8
1
  6
CONTINUOUS
 62
     7
  5
9C
 10
502.4255
 20
28.201833
 30
0.0
  0
VERTEX
  8
1
  6
CONTINUOUS
 62
     7
  5
9D
 10
500.4255
 20
31.665917
 30
0.0
  0
SEQEND
  8
1
  6
CONTINUOUS
 62
     7
  5
9E
  0
POLYLINE
  8
1
  6
CONTINUOUS
 62
     7
  5
9F
 66
     1
 10
0.0
 20
0.0
 30
0.0
  0
VERTEX
  8
1
  6
CONTINUOUS
 62
     7
  5
A0
 10
500.40875
 20
27.184083
 30
0.0
  0
VERTEX
  8
1
  6
CONTINUOUS
 62
     7
  5
A1
 10
498.40875
 20
23.72
 30
0.0
  0
VERTEX
  8
1
  6
CONTINUOUS
 62
     7
  5
A2
 10
502.40875
 20
23.72
 30
0.0
  0
VERTEX
  8
1
  6
CONTINUOUS
 62
     7
  5
A3
 10
500.40875
 20
27.184083
 30
0.0
  0
SEQEND
  8
1
  6
CONTINUOUS
 62
     7
  5
A4
  0
POLYLINE
  8
1
  6
CONTINUOUS
 62
     7
  5
A5
 66
     1
 10
0.0
 20
0.0
 30
0.0
  0
VERTEX
  8
1
  6
CONTINUOUS
 62
     7
  5
A6
 10
500.392083
 20
22.70825
 30
0.0
  0
VERTEX
  8
1
  6
CONTINUOUS
 62
     7
  5
A7
 10
498.392083
 20
19.244167
 30
0.0
  0
VERTEX
  8
1
  6
CONTINUOUS
 62
     7
  5
A8
 10
502.392083
 20
19.244167
 30
0.0
  0
VERTEX
  8
1
  6
CONTINUOUS
 62
     7
  5
A9
 10
500.392083
 20
22.70825
 30
0.0
  0
SEQEND
  8
1
  6
CONTINUOUS
 62
     7
  5
AA
  0
POLYLINE
  8
1
  6
CONTINUOUS
 62
     7
  5
AB
 66
     1
 10
0.0
 20
0.0
 30
0.0
  0
VERTEX
  8
1
  6
CONTINUOUS
 62
     7
  5
AC
 10
500.419583
 20
18.2325
 30
0.0
  0
VERTEX
  8
1
  6
CONTINUOUS
 62
     7
  5
AD
 10
498.419583
 20
14.768417
 30
0.0
  0
VERTEX
  8
1
  6
CONTINUOUS
 62
     7
  5
AE
 10
502.419583
 20
14.768417
 30
0.0
  0
VERTEX
  8
1
  6
CONTINUOUS
 62
     7
  5
AF
 10
500.419583
 20
18.2325
 30
0.0
  0
SEQEND
  8
1
  6
CONTINUOUS
 62
     7
  5
B0
  0
TEXT
  8
1
  6
CONTINUOUS
 62
     7
  5
B1
 10
518.166917
 20
71.763167
 30
0.0
 40
6.992667
  1
ROADSIDE SIGN SUPPORTS
  7
txt
 72
     1
 11
583.460417
 21
78.755833
 31
0.0
210
0.0
220
0.0
230
1.0
 73
     3
  0
TEXT
  8
1
  6
CONTINUOUS
 62
     7
  5
B2
 10
555.754583
 20
61.982583
 30
0.0
 40
6.992667
  1
U-CHANNEL
  7
txt
 72
     1
 11
583.460333
 21
68.97525
 31
0.0
210
0.0
220
0.0
230
1.0
 73
     3
  0
TEXT
  8
1
  6
CONTINUOUS
 62
     7
  5
B3
 10
500.1195
 20
46.646083
 30
0.0
 40
1.75
  1
1
  7
MONOTXT
210
0.0
220
0.0
230
1.0
  0
TEXT
  8
1
  6
CONTINUOUS
 62
     7
  5
B4
 10
499.8155
 20
42.14575
 30
0.0
 40
1.75
  1
2
  7
MONOTXT
210
0.0
220
0.0
230
1.0
  0
TEXT
  8
1
  6
CONTINUOUS
 62
     7
  5
B5
 10
499.8155
 20
37.584583
 30
0.0
 40
1.75
  1
3
  7
MONOTXT
210
0.0
220
0.0
230
1.0
  0
TEXT
  8
1
  6
CONTINUOUS
 62
     7
  5
B6
 10
499.633083
 20
33.266667
 30
0.0
 40
1.75
  1
4
  7
MONOTXT
210
0.0
220
0.0
230
1.0
  0
TEXT
  8
1
  6
CONTINUOUS
 62
     7
  5
B7
 10
499.754667
 20
28.583833
 30
0.0
 40
1.75
  1
5
  7
MONOTXT
210
0.0
220
0.0
230
1.0
  0
TEXT
  8
1
  6
CONTINUOUS
 62
     7
  5
B8
 10
499.8155
 20
24.144333
 30
0.0
 40
1.75
  1
6
  7
MONOTXT
210
0.0
220
0.0
230
1.0
  0
TEXT
  8
1
  6
CONTINUOUS
 62
     7
  5
B9
 10
499.754667
 20
19.522333
 30
0.0
 40
1.75
  1
7
  7
MONOTXT
210
0.0
220
0.0
230
1.0
  0
TEXT
  8
1
  6
CONTINUOUS
 62
     7
  5
BA
 10
499.8155
 20
15.143583
 30
0.0
 40
1.75
  1
8
  7
MONOTXT
210
0.0
220
0.0
230
1.0
  0
POLYLINE
  8
1
  6
CONTINUOUS
 62
     7
  5
BB
 66
     1
 10
0.0
 20
0.0
 30
0.0
  0
VERTEX
  8
1
  6
CONTINUOUS
 62
     7
  5
BC
 10
497.36175
 20
130.4425
 30
0.0
  0
VERTEX
  8
1
  6
CONTINUOUS
 62
     7
  5
BD
 10
495.36175
 20
126.978417
 30
0.0
  0
VERTEX
  8
1
  6
CONTINUOUS
 62
     7
  5
BE
 10
499.36175
 20
126.978417
 30
0.0
  0
VERTEX
  8
1
  6
CONTINUOUS
 62
     7
  5
BF
 10
497.36175
 20
130.4425
 30
0.0
  0
SEQEND
  8
1
  6
CONTINUOUS
 62
     7
  5
C0
  0
POLYLINE
  8
1
  6
CONTINUOUS
 62
     7
  5
C1
 66
     1
 10
0.0
 20
0.0
 30
0.0
  0
VERTEX
  8
1
  6
CONTINUOUS
 62
     7
  5
C2
 10
497.5
 20
143.88075
 30
0.0
  0
VERTEX
  8
1
  6
CONTINUOUS
 62
     7
  5
C3
 10
495.5
 20
140.416667
 30
0.0
  0
VERTEX
  8
1
  6
CONTINUOUS
 62
     7
  5
C4
 10
499.5
 20
140.416667
 30
0.0
  0
VERTEX
  8
1
  6
CONTINUOUS
 62
     7
  5
C5
 10
497.5
 20
143.88075
 30
0.0
  0
SEQEND
  8
1
  6
CONTINUOUS
 62
     7
  5
C6
  0
POLYLINE
  8
1
  6
CONTINUOUS
 62
     7
  5
C7
 66
     1
 10
0.0
 20
0.0
 30
0.0
  0
VERTEX
  8
1
  6
CONTINUOUS
 62
     7
  5
C8
 10
497.439167
 20
139.28325
 30
0.0
  0
VERTEX
  8
1
  6
CONTINUOUS
 62
     7
  5
C9
 10
495.439167
 20
135.819167
 30
0.0
  0
VERTEX
  8
1
  6
CONTINUOUS
 62
     7
  5
CA
 10
499.439167
 20
135.819167
 30
0.0
  0
VERTEX
  8
1
  6
CONTINUOUS
 62
     7
  5
CB
 10
497.439167
 20
139.28325
 30
0.0
  0
SEQEND
  8
1
  6
CONTINUOUS
 62
     7
  5
CC
  0
POLYLINE
  8
1
  6
CONTINUOUS
 62
     7
  5
CD
 66
     1
 10
0.0
 20
0.0
 30
0.0
  0
VERTEX
  8
1
  6
CONTINUOUS
 62
     7
  5
CE
 10
497.483333
 20
134.901667
 30
0.0
  0
VERTEX
  8
1
  6
CONTINUOUS
 62
     7
  5
CF
 10
495.483333
 20
131.437583
 30
0.0
  0
VERTEX
  8
1
  6
CONTINUOUS
 62
     7
  5
D0
 10
499.483333
 20
131.437583
 30
0.0
  0
VERTEX
  8
1
  6
CONTINUOUS
 62
     7
  5
D1
 10
497.483333
 20
134.901667
 30
0.0
  0
SEQEND
  8
1
  6
CONTINUOUS
 62
     7
  5
D2
  0
POLYLINE
  8
1
  6
CONTINUOUS
 62
     7
  5
D3
 66
     1
 10
0.0
 20
0.0
 30
0.0
  0
VERTEX
  8
1
  6
CONTINUOUS
 62
     7
  5
D4
 10
497.422583
 20
125.845083
 30
0.0
  0
VERTEX
  8
1
  6
CONTINUOUS
 62
     7
  5
D5
 10
495.422583
 20
122.381
 30
0.0
  0
VERTEX
  8
1
  6
CONTINUOUS
 62
     7
  5
D6
 10
499.422583
 20
122.381
 30
0.0
  0
VERTEX
  8
1
  6
CONTINUOUS
 62
     7
  5
D7
 10
497.422583
 20
125.845083
 30
0.0
  0
SEQEND
  8
1
  6
CONTINUOUS
 62
     7
  5
D8
  0
POLYLINE
  8
1
  6
CONTINUOUS
 62
     7
  5
D9
 66
     1
 10
0.0
 20
0.0
 30
0.0
  0
VERTEX
  8
1
  6
CONTINUOUS
 62
     7
  5
DA
 10
497.405833
 20
121.36325
 30
0.0
  0
VERTEX
  8
1
  6
CONTINUOUS
 62
     7
  5
DB
 10
495.405833
 20
117.899167
 30
0.0
  0
VERTEX
  8
1
  6
CONTINUOUS
 62
     7
  5
DC
 10
499.405833
 20
117.899167
 30
0.0
  0
VERTEX
  8
1
  6
CONTINUOUS
 62
     7
  5
DD
 10
497.405833
 20
121.36325
 30
0.0
  0
SEQEND
  8
1
  6
CONTINUOUS
 62
     7
  5
DE
  0
POLYLINE
  8
1
  6
CONTINUOUS
 62
     7
  5
DF
 66
     1
 10
0.0
 20
0.0
 30
0.0
  0
VERTEX
  8
1
  6
CONTINUOUS
 62
     7
  5
E0
 10
497.389167
 20
116.887417
 30
0.0
  0
VERTEX
  8
1
  6
CONTINUOUS
 62
     7
  5
E1
 10
495.389167
 20
113.423333
 30
0.0
  0
VERTEX
  8
1
  6
CONTINUOUS
 62
     7
  5
E2
 10
499.389167
 20
113.423333
 30
0.0
  0
VERTEX
  8
1
  6
CONTINUOUS
 62
     7
  5
E3
 10
497.389167
 20
116.887417
 30
0.0
  0
SEQEND
  8
1
  6
CONTINUOUS
 62
     7
  5
E4
  0
POLYLINE
  8
1
  6
CONTINUOUS
 62
     7
  5
E5
 66
     1
 10
0.0
 20
0.0
 30
0.0
  0
VERTEX
  8
1
  6
CONTINUOUS
 62
     7
  5
E6
 10
497.416667
 20
112.411667
 30
0.0
  0
VERTEX
  8
1
  6
CONTINUOUS
 62
     7
  5
E7
 10
495.416667
 20
108.947583
 30
0.0
  0
VERTEX
  8
1
  6
CONTINUOUS
 62
     7
  5
E8
 10
499.416667
 20
108.947583
 30
0.0
  0
VERTEX
  8
1
  6
CONTINUOUS
 62
     7
  5
E9
 10
497.416667
 20
112.411667
 30
0.0
  0
SEQEND
  8
1
  6
CONTINUOUS
 62
     7
  5
EA
  0
TEXT
  8
1
  6
CONTINUOUS
 62
     7
  5
EB
 10
497.116583
 20
140.82525
 30
0.0
 40
1.75
  1
1
  7
MONOTXT
210
0.0
220
0.0
230
1.0
  0
TEXT
  8
1
  6
CONTINUOUS
 62
     7
  5
EC
 10
496.812583
 20
136.324917
 30
0.0
 40
1.75
  1
2
  7
MONOTXT
210
0.0
220
0.0
230
1.0
  0
TEXT
  8
1
  6
CONTINUOUS
 62
     7
  5
ED
 10
496.812583
 20
131.76375
 30
0.0
 40
1.75
  1
3
  7
MONOTXT
210
0.0
220
0.0
230
1.0
  0
TEXT
  8
1
  6
CONTINUOUS
 62
     7
  5
EE
 10
496.630167
 20
127.445833
 30
0.0
 40
1.75
  1
4
  7
MONOTXT
210
0.0
220
0.0
230
1.0
  0
TEXT
  8
1
  6
CONTINUOUS
 62
     7
  5
EF
 10
496.75175
 20
122.763
 30
0.0
 40
1.75
  1
5
  7
MONOTXT
210
0.0
220
0.0
230
1.0
  0
TEXT
  8
1
  6
CONTINUOUS
 62
     7
  5
F0
 10
496.812583
 20
118.3235
 30
0.0
 40
1.75
  1
6
  7
MONOTXT
210
0.0
220
0.0
230
1.0
  0
TEXT
  8
1
  6
CONTINUOUS
 62
     7
  5
F1
 10
496.75175
 20
113.7015
 30
0.0
 40
1.75
  1
7
  7
MONOTXT
210
0.0
220
0.0
230
1.0
  0
TEXT
  8
1
  6
CONTINUOUS
 62
     7
  5
F2
 10
496.812583
 20
109.32275
 30
0.0
 40
1.75
  1
8
  7
MONOTXT
210
0.0
220
0.0
230
1.0
  0
TEXT
  8
1
  6
CONTINUOUS
 62
     7
  5
F3
 10
500.729333
 20
141.145333
 30
0.0
 40
1.75
  1
REVISION OF NOTES
  7
MONOTXT
210
0.0
220
0.0
230
1.0
  0
TEXT
  8
1
  6
CONTINUOUS
 62
     7
  5
F4
 10
500.635833
 20
136.374417
 30
0.0
 40
1.75
  1
WIND PRESSURE REDUCTION
  7
MONOTXT
210
0.0
220
0.0
230
1.0
  0
TEXT
  8
1
  6
CONTINUOUS
 62
     7
  5
F5
 10
500.729333
 20
131.97775
 30
0.0
 40
1.75
  1
GENERAL NOTE
  7
MONOTXT
210
0.0
220
0.0
230
1.0
  0
TEXT
  8
1
  6
CONTINUOUS
 62
     7
  5
F6
 10
500.729333
 20
127.86175
 30
0.0
 40
1.75
  1
EMBEDMENT
  7
MONOTXT
210
0.0
220
0.0
230
1.0
  0
TEXT
  8
1
  6
CONTINUOUS
 62
     7
  5
F7
 10
500.729333
 20
123.3715
 30
0.0
 40
1.75
  1
POST SECTION
  7
MONOTXT
210
0.0
220
0.0
230
1.0
  0
TEXT
  8
1
  6
CONTINUOUS
 62
     7
  5
F8
 10
500.729333
 20
118.694167
 30
0.0
 40
1.75
  1
DEPTH, CONC., NOTES
  7
MONOTXT
210
0.0
220
0.0
230
1.0
  0
TEXT
  8
1
  6
CONTINUOUS
 62
     7
  5
F9
 10
500.822833
 20
114.2975
 30
0.0
 40
1.75
  1
REV. OF SEC. MOD.
  7
MONOTXT
210
0.0
220
0.0
230
1.0
  0
TEXT
  8
1
  6
CONTINUOUS
 62
     7
  5
FA
 10
500.635833
 20
109.71375
 30
0.0
 40
1.75
  1
CHANGED 3.0# RQMTS. & NOTE
  7
MONOTXT
210
0.0
220
0.0
230
1.0
  0
LINE
  8
1
  6
CONTINUOUS
 62
     4
  5
FB
 10
41.926167
 20
407.136667
 30
0.0
 11
341.926167
 21
407.136667
 31
0.0
  0
LINE
  8
1
  6
CONTINUOUS
 62
     4
  5
FC
 10
341.926167
 20
407.136667
 30
0.0
 11
341.926167
 21
195.136667
 31
0.0
  0
LINE
  8
1
  6
CONTINUOUS
 62
     4
  5
FD
 10
341.926167
 20
195.136667
 30
0.0
 11
41.926167
 21
195.136667
 31
0.0
  0
LINE
  8
1
  6
CONTINUOUS
 62
     4
  5
FE
 10
41.926167
 20
195.136667
 30
0.0
 11
41.926167
 21
407.136667
 31
0.0
  0
LINE
  8
1
  6
CONTINUOUS
 62
     4
  5
FF
 10
42.926167
 20
196.136667
 30
0.0
 11
42.926167
 21
406.136667
 31
0.0
  0
LINE
  8
1
  6
CONTINUOUS
 62
     4
  5
100
 10
42.926167
 20
406.136667
 30
0.0
 11
340.926167
 21
406.136667
 31
0.0
  0
LINE
  8
1
  6
CONTINUOUS
 62
     4
  5
101
 10
340.926167
 20
406.136667
 30
0.0
 11
340.926167
 21
196.136667
 31
0.0
  0
LINE
  8
1
  6
CONTINUOUS
 62
     4
  5
102
 10
340.926167
 20
196.136667
 30
0.0
 11
42.926167
 21
196.136667
 31
0.0
  0
LINE
  8
1
  6
CONTINUOUS
 62
     4
  5
103
 10
67.426167
 20
196.136667
 30
0.0
 11
67.426167
 21
396.136667
 31
0.0
  0
LINE
  8
1
  6
CONTINUOUS
 62
     4
  5
104
 10
68.426167
 20
196.136667
 30
0.0
 11
68.426167
 21
396.136667
 31
0.0
  0
LINE
  8
1
  6
CONTINUOUS
 62
     4
  5
105
 10
316.426167
 20
396.136667
 30
0.0
 11
316.426167
 21
196.136667
 31
0.0
  0
LINE
  8
1
  6
CONTINUOUS
 62
     4
  5
106
 10
315.426167
 20
396.136667
 30
0.0
 11
315.426167
 21
196.136667
 31
0.0
  0
LINE
  8
1
  6
CONTINUOUS
 62
     4
  5
107
 10
94.426167
 20
196.136667
 30
0.0
 11
94.426167
 21
396.136667
 31
0.0
  0
LINE
  8
1
  6
CONTINUOUS
 62
     4
  5
108
 10
107.426167
 20
196.136667
 30
0.0
 11
107.426167
 21
396.136667
 31
0.0
  0
LINE
  8
1
  6
CONTINUOUS
 62
     4
  5
109
 10
42.926167
 20
387.136667
 30
0.0
 11
340.926167
 21
387.136667
 31
0.0
  0
LINE
  8
1
  6
CONTINUOUS
 62
     4
  5
10A
 10
42.926167
 20
386.136667
 30
0.0
 11
340.926167
 21
386.136667
 31
0.0
  0
LINE
  8
1
  6
CONTINUOUS
 62
     4
  5
10B
 10
81.426167
 20
196.136667
 30
0.0
 11
81.426167
 21
386.136667
 31
0.0
  0
LINE
  8
1
  6
CONTINUOUS
 62
     4
  5
10C
 10
81.426167
 20
386.136667
 30
0.0
 11
81.426167
 21
396.136667
 31
0.0
  0
LINE
  8
1
  6
CONTINUOUS
 62
     4
  5
10D
 10
55.176167
 20
296.136667
 30
0.0
 11
328.676167
 21
296.136667
 31
0.0
  0
LINE
  8
1
  6
CONTINUOUS
 62
     4
  5
10E
 10
55.176167
 20
226.136667
 30
0.0
 11
328.676167
 21
226.136667
 31
0.0
  0
LINE
  8
1
  6
CONTINUOUS
 62
     4
  5
10F
 10
55.176167
 20
376.136667
 30
0.0
 11
67.426167
 21
376.136667
 31
0.0
  0
LINE
  8
1
  6
CONTINUOUS
 62
     4
  5
110
 10
316.426167
 20
376.136667
 30
0.0
 11
328.676167
 21
376.136667
 31
0.0
  0
TEXT
  8
1
  6
CONTINUOUS
 62
     7
  5
111
 10
74.040333
 20
390.386667
 30
0.0
 40
2.5
  1
4
  7
MONOTXT
 72
     4
 11
74.936
 21
391.636667
 31
0.0
210
0.0
220
0.0
230
1.0
  0
TEXT
  8
1
  6
CONTINUOUS
 62
     7
  5
112
 10
87.158417
 20
390.386667
 30
0.0
 40
2.5
  1
6
  7
MONOTXT
 72
     4
 11
87.935917
 21
391.636667
 31
0.0
210
0.0
220
0.0
230
1.0
  0
TEXT
  8
1
  6
CONTINUOUS
 62
     7
  5
113
 10
100.099417
 20
390.386667
 30
0.0
 40
2.5
  1
8
  7
MONOTXT
 72
     4
 11
100.936
 21
391.636667
 31
0.0
210
0.0
220
0.0
230
1.0
  0
TEXT
  8
1
  6
CONTINUOUS
 62
     7
  5
114
 10
112.39075
 20
390.386667
 30
0.0
 40
2.5
  1
10
  7
MONOTXT
 72
     4
 11
113.926167
 21
391.636667
 31
0.0
210
0.0
220
0.0
230
1.0
  0
TEXT
  8
1
  6
CONTINUOUS
 62
     7
  5
115
 10
125.39075
 20
390.386667
 30
0.0
 40
2.5
  1
12
  7
MONOTXT
 72
     4
 11
126.936
 21
391.636667
 31
0.0
210
0.0
220
0.0
230
1.0
  0
TEXT
  8
1
  6
CONTINUOUS
 62
     7
  5
116
 10
138.331667
 20
390.386667
 30
0.0
 40
2.5
  1
14
  7
MONOTXT
 72
     4
 11
139.936
 21
391.636667
 31
0.0
210
0.0
220
0.0
230
1.0
  0
TEXT
  8
1
  6
CONTINUOUS
 62
     7
  5
117
 10
151.44975
 20
390.386667
 30
0.0
 40
2.5
  1
16
  7
MONOTXT
 72
     4
 11
152.935917
 21
391.636667
 31
0.0
210
0.0
220
0.0
230
1.0
  0
TEXT
  8
1
  6
CONTINUOUS
 62
     7
  5
118
 10
164.39075
 20
390.386667
 30
0.0
 40
2.5
  1
18
  7
MONOTXT
 72
     4
 11
165.936
 21
391.636667
 31
0.0
210
0.0
220
0.0
230
1.0
  0
TEXT
  8
1
  6
CONTINUOUS
 62
     7
  5
119
 10
176.85925
 20
390.386667
 30
0.0
 40
2.5
  1
20
  7
MONOTXT
 72
     4
 11
178.926167
 21
391.636667
 31
0.0
210
0.0
220
0.0
230
1.0
  0
TEXT
  8
1
  6
CONTINUOUS
 62
     7
  5
11A
 10
189.85925
 20
390.386667
 30
0.0
 40
2.5
  1
22
  7
MONOTXT
 72
     4
 11
191.936
 21
391.636667
 31
0.0
210
0.0
220
0.0
230
1.0
  0
TEXT
  8
1
  6
CONTINUOUS
 62
     7
  5
11B
 10
202.800167
 20
390.386667
 30
0.0
 40
2.5
  1
24
  7
MONOTXT
 72
     4
 11
204.936
 21
391.636667
 31
0.0
210
0.0
220
0.0
230
1.0
  0
TEXT
  8
1
  6
CONTINUOUS
 62
     7
  5
11C
 10
215.918333
 20
390.386667
 30
0.0
 40
2.5
  1
26
  7
MONOTXT
 72
     4
 11
217.936
 21
391.636667
 31
0.0
210
0.0
220
0.0
230
1.0
  0
TEXT
  8
1
  6
CONTINUOUS
 62
     7
  5
11D
 10
228.85925
 20
390.386667
 30
0.0
 40
2.5
  1
28
  7
MONOTXT
 72
     4
 11
230.936
 21
391.636667
 31
0.0
210
0.0
220
0.0
230
1.0
  0
TEXT
  8
1
  6
CONTINUOUS
 62
     7
  5
11E
 10
241.85925
 20
390.386667
 30
0.0
 40
2.5
  1
30
  7
MONOTXT
 72
     4
 11
243.926167
 21
391.636667
 31
0.0
210
0.0
220
0.0
230
1.0
  0
TEXT
  8
1
  6
CONTINUOUS
 62
     7
  5
11F
 10
254.85925
 20
390.386667
 30
0.0
 40
2.5
  1
32
  7
MONOTXT
 72
     4
 11
256.936
 21
391.636667
 31
0.0
210
0.0
220
0.0
230
1.0
  0
TEXT
  8
1
  6
CONTINUOUS
 62
     7
  5
120
 10
267.800167
 20
390.386667
 30
0.0
 40
2.5
  1
34
  7
MONOTXT
 72
     4
 11
269.936
 21
391.636667
 31
0.0
210
0.0
220
0.0
230
1.0
  0
TEXT
  8
1
  6
CONTINUOUS
 62
     7
  5
121
 10
280.918333
 20
390.386667
 30
0.0
 40
2.5
  1
36
  7
MONOTXT
 72
     4
 11
282.936
 21
391.636667
 31
0.0
210
0.0
220
0.0
230
1.0
  0
TEXT
  8
1
  6
CONTINUOUS
 62
     7
  5
122
 10
293.85925
 20
390.386667
 30
0.0
 40
2.5
  1
38
  7
MONOTXT
 72
     4
 11
295.936
 21
391.636667
 31
0.0
210
0.0
220
0.0
230
1.0
  0
TEXT
  8
1
  6
CONTINUOUS
 62
     7
  5
123
 10
306.800167
 20
390.386667
 30
0.0
 40
2.5
  1
40
  7
MONOTXT
 72
     4
 11
308.926167
 21
391.636667
 31
0.0
210
0.0
220
0.0
230
1.0
  0
TEXT
  8
1
  6
CONTINUOUS
 62
     7
  5
124
 10
58.663333
 20
379.886667
 30
0.0
 40
2.5
  1
6.0
  7
MONOTXT
 72
     4
 11
61.301083
 21
381.136667
 31
0.0
210
0.0
220
0.0
230
1.0
  0
TEXT
  8
1
  6
CONTINUOUS
 62
     7
  5
125
 10
58.663333
 20
369.886667
 30
0.0
 40
2.5
  1
6.5
  7
MONOTXT
 72
     4
 11
61.310917
 21
371.136667
 31
0.0
210
0.0
220
0.0
230
1.0
  0
TEXT
  8
1
  6
CONTINUOUS
 62
     7
  5
126
 10
58.584667
 20
359.886667
 30
0.0
 40
2.5
  1
7.0
  7
MONOTXT
 72
     4
 11
61.301167
 21
361.136667
 31
0.0
210
0.0
220
0.0
230
1.0
  0
TEXT
  8
1
  6
CONTINUOUS
 62
     7
  5
127
 10
58.584667
 20
349.886667
 30
0.0
 40
2.5
  1
7.5
  7
MONOTXT
 72
     4
 11
61.311
 21
351.136667
 31
0.0
210
0.0
220
0.0
230
1.0
  0
TEXT
  8
1
  6
CONTINUOUS
 62
     7
  5
128
 10
58.604333
 20
339.886667
 30
0.0
 40
2.5
  1
8.0
  7
MONOTXT
 72
     4
 11
61.301167
 21
341.136667
 31
0.0
210
0.0
220
0.0
230
1.0
  0
TEXT
  8
1
  6
CONTINUOUS
 62
     7
  5
129
 10
58.604333
 20
329.886667
 30
0.0
 40
2.5
  1
8.5
  7
MONOTXT
 72
     4
 11
61.311
 21
331.136667
 31
0.0
210
0.0
220
0.0
230
1.0
  0
TEXT
  8
1
  6
CONTINUOUS
 62
     7
  5
12A
 10
58.663333
 20
319.886667
 30
0.0
 40
2.5
  1
9.0
  7
MONOTXT
 72
     4
 11
61.301083
 21
321.136667
 31
0.0
210
0.0
220
0.0
230
1.0
  0
TEXT
  8
1
  6
CONTINUOUS
 62
     7
  5
12B
 10
58.663333
 20
309.886667
 30
0.0
 40
2.5
  1
9.5
  7
MONOTXT
 72
     4
 11
61.310917
 21
311.136667
 31
0.0
210
0.0
220
0.0
230
1.0
  0
TEXT
  8
1
  6
CONTINUOUS
 62
     7
  5
12C
 10
57.895667
 20
299.886667
 30
0.0
 40
2.5
  1
10.0
  7
MONOTXT
 72
     4
 11
61.301167
 21
301.136667
 31
0.0
210
0.0
220
0.0
230
1.0
  0
TEXT
  8
1
  6
CONTINUOUS
 62
     7
  5
12D
 10
57.895667
 20
289.886667
 30
0.0
 40
2.5
  1
10.5
  7
MONOTXT
 72
     4
 11
61.311
 21
291.136667
 31
0.0
210
0.0
220
0.0
230
1.0
  0
TEXT
  8
1
  6
CONTINUOUS
 62
     7
  5
12E
 10
58.427167
 20
279.886667
 30
0.0
 40
2.5
  1
11.0
  7
MONOTXT
 72
     4
 11
61.301167
 21
281.136667
 31
0.0
210
0.0
220
0.0
230
1.0
  0
TEXT
  8
1
  6
CONTINUOUS
 62
     7
  5
12F
 10
58.427167
 20
269.886667
 30
0.0
 40
2.5
  1
11.5
  7
MONOTXT
 72
     4
 11
61.311
 21
271.136667
 31
0.0
210
0.0
220
0.0
230
1.0
  0
TEXT
  8
1
  6
CONTINUOUS
 62
     7
  5
130
 10
57.895667
 20
259.886667
 30
0.0
 40
2.5
  1
12.0
  7
MONOTXT
 72
     4
 11
61.301167
 21
261.136667
 31
0.0
210
0.0
220
0.0
230
1.0
  0
TEXT
  8
1
  6
CONTINUOUS
 62
     7
  5
131
 10
57.895667
 20
249.886667
 30
0.0
 40
2.5
  1
12.5
  7
MONOTXT
 72
     4
 11
61.311
 21
251.136667
 31
0.0
210
0.0
220
0.0
230
1.0
  0
TEXT
  8
1
  6
CONTINUOUS
 62
     7
  5
132
 10
57.895667
 20
239.886667
 30
0.0
 40
2.5
  1
13.0
  7
MONOTXT
 72
     4
 11
61.301167
 21
241.136667
 31
0.0
210
0.0
220
0.0
230
1.0
  0
TEXT
  8
1
  6
CONTINUOUS
 62
     7
  5
133
 10
57.895667
 20
229.886667
 30
0.0
 40
2.5
  1
13.5
  7
MONOTXT
 72
     4
 11
61.311
 21
231.136667
 31
0.0
210
0.0
220
0.0
230
1.0
  0
TEXT
  8
1
  6
CONTINUOUS
 62
     7
  5
134
 10
57.836583
 20
219.886667
 30
0.0
 40
2.5
  1
14.0
  7
MONOTXT
 72
     4
 11
61.301083
 21
221.136667
 31
0.0
210
0.0
220
0.0
230
1.0
  0
TEXT
  8
1
  6
CONTINUOUS
 62
     7
  5
135
 10
57.836583
 20
209.886667
 30
0.0
 40
2.5
  1
14.5
  7
MONOTXT
 72
     4
 11
61.310917
 21
211.136667
 31
0.0
210
0.0
220
0.0
230
1.0
  0
TEXT
  8
1
  6
CONTINUOUS
 62
     7
  5
136
 10
57.895667
 20
199.886667
 30
0.0
 40
2.5
  1
15.0
  7
MONOTXT
 72
     4
 11
61.301167
 21
201.136667
 31
0.0
210
0.0
220
0.0
230
1.0
  0
LINE
  8
1
  6
CONTINUOUS
 62
     4
  5
137
 10
68.426167
 20
376.136667
 30
0.0
 11
316.426167
 21
376.136667
 31
0.0
  0
TEXT
  8
1
  6
CONTINUOUS
 62
     7
  5
138
 10
319.913333
 20
379.886667
 30
0.0
 40
2.5
  1
6.0
  7
MONOTXT
 72
     4
 11
322.551083
 21
381.136667
 31
0.0
210
0.0
220
0.0
230
1.0
  0
TEXT
  8
1
  6
CONTINUOUS
 62
     7
  5
139
 10
319.913333
 20
369.886667
 30
0.0
 40
2.5
  1
6.5
  7
MONOTXT
 72
     4
 11
322.560917
 21
371.136667
 31
0.0
210
0.0
220
0.0
230
1.0
  0
TEXT
  8
1
  6
CONTINUOUS
 62
     7
  5
13A
 10
319.834667
 20
359.886667
 30
0.0
 40
2.5
  1
7.0
  7
MONOTXT
 72
     4
 11
322.551167
 21
361.136667
 31
0.0
210
0.0
220
0.0
230
1.0
  0
TEXT
  8
1
  6
CONTINUOUS
 62
     7
  5
13B
 10
319.834667
 20
349.886667
 30
0.0
 40
2.5
  1
7.5
  7
MONOTXT
 72
     4
 11
322.561
 21
351.136667
 31
0.0
210
0.0
220
0.0
230
1.0
  0
TEXT
  8
1
  6
CONTINUOUS
 62
     7
  5
13C
 10
319.854333
 20
339.886667
 30
0.0
 40
2.5
  1
8.0
  7
MONOTXT
 72
     4
 11
322.551167
 21
341.136667
 31
0.0
210
0.0
220
0.0
230
1.0
  0
TEXT
  8
1
  6
CONTINUOUS
 62
     7
  5
13D
 10
319.854333
 20
329.886667
 30
0.0
 40
2.5
  1
8.5
  7
MONOTXT
 72
     4
 11
322.561
 21
331.136667
 31
0.0
210
0.0
220
0.0
230
1.0
  0
TEXT
  8
1
  6
CONTINUOUS
 62
     7
  5
13E
 10
319.913333
 20
319.886667
 30
0.0
 40
2.5
  1
9.0
  7
MONOTXT
 72
     4
 11
322.551083
 21
321.136667
 31
0.0
210
0.0
220
0.0
230
1.0
  0
TEXT
  8
1
  6
CONTINUOUS
 62
     7
  5
13F
 10
319.913333
 20
309.886667
 30
0.0
 40
2.5
  1
9.5
  7
MONOTXT
 72
     4
 11
322.560917
 21
311.136667
 31
0.0
210
0.0
220
0.0
230
1.0
  0
TEXT
  8
1
  6
CONTINUOUS
 62
     7
  5
140
 10
319.145667
 20
299.886667
 30
0.0
 40
2.5
  1
10.0
  7
MONOTXT
 72
     4
 11
322.551167
 21
301.136667
 31
0.0
210
0.0
220
0.0
230
1.0
  0
TEXT
  8
1
  6
CONTINUOUS
 62
     7
  5
141
 10
319.145667
 20
289.886667
 30
0.0
 40
2.5
  1
10.5
  7
MONOTXT
 72
     4
 11
322.561
 21
291.136667
 31
0.0
210
0.0
220
0.0
230
1.0
  0
TEXT
  8
1
  6
CONTINUOUS
 62
     7
  5
142
 10
319.677167
 20
279.886667
 30
0.0
 40
2.5
  1
11.0
  7
MONOTXT
 72
     4
 11
322.551167
 21
281.136667
 31
0.0
210
0.0
220
0.0
230
1.0
  0
TEXT
  8
1
  6
CONTINUOUS
 62
     7
  5
143
 10
319.677167
 20
269.886667
 30
0.0
 40
2.5
  1
11.5
  7
MONOTXT
 72
     4
 11
322.561
 21
271.136667
 31
0.0
210
0.0
220
0.0
230
1.0
  0
TEXT
  8
1
  6
CONTINUOUS
 62
     7
  5
144
 10
319.145667
 20
259.886667
 30
0.0
 40
2.5
  1
12.0
  7
MONOTXT
 72
     4
 11
322.551167
 21
261.136667
 31
0.0
210
0.0
220
0.0
230
1.0
  0
TEXT
  8
1
  6
CONTINUOUS
 62
     7
  5
145
 10
319.145667
 20
249.886667
 30
0.0
 40
2.5
  1
12.5
  7
MONOTXT
 72
     4
 11
322.561
 21
251.136667
 31
0.0
210
0.0
220
0.0
230
1.0
  0
TEXT
  8
1
  6
CONTINUOUS
 62
     7
  5
146
 10
319.145667
 20
239.886667
 30
0.0
 40
2.5
  1
13.0
  7
MONOTXT
 72
     4
 11
322.551167
 21
241.136667
 31
0.0
210
0.0
220
0.0
230
1.0
  0
TEXT
  8
1
  6
CONTINUOUS
 62
     7
  5
147
 10
319.145667
 20
229.886667
 30
0.0
 40
2.5
  1
13.5
  7
MONOTXT
 72
     4
 11
322.561
 21
231.136667
 31
0.0
210
0.0
220
0.0
230
1.0
  0
TEXT
  8
1
  6
CONTINUOUS
 62
     7
  5
148
 10
319.086583
 20
219.886667
 30
0.0
 40
2.5
  1
14.0
  7
MONOTXT
 72
     4
 11
322.551083
 21
221.136667
 31
0.0
210
0.0
220
0.0
230
1.0
  0
TEXT
  8
1
  6
CONTINUOUS
 62
     7
  5
149
 10
319.086583
 20
209.886667
 30
0.0
 40
2.5
  1
14.5
  7
MONOTXT
 72
     4
 11
322.560917
 21
211.136667
 31
0.0
210
0.0
220
0.0
230
1.0
  0
TEXT
  8
1
  6
CONTINUOUS
 62
     7
  5
14A
 10
319.145667
 20
199.886667
 30
0.0
 40
2.5
  1
15.0
  7
MONOTXT
 72
     4
 11
322.551167
 21
201.136667
 31
0.0
210
0.0
220
0.0
230
1.0
  0
TEXT
  8
1
  6
CONTINUOUS
 62
     7
  5
14B
 10
122.722333
 20
413.422417
 30
0.0
 40
3.5
  1
SIGN POST SECTION REQUIRED (THREE SUPPORTS)
  7
MONOTXT
 72
     4
 11
192.322667
 21
415.172417
 31
0.0
210
0.0
220
0.0
230
1.0
  0
LINE
  8
1
  6
CONTINUOUS
 62
     7
  5
14C
 10
121.189167
 20
411.614583
 30
0.0
 11
262.807083
 21
411.614583
 31
0.0
  0
TEXT
  8
1
  6
CONTINUOUS
 62
     7
  5
14D
 10
149.305
 20
398.89375
 30
0.0
 40
3.0
  1
TOTAL SQUARE FEET OF SIGN AREA
  7
MONOTXT
 72
     4
 11
192.060833
 21
400.39375
 31
0.0
210
0.0
220
0.0
230
1.0
  0
TEXT
  8
1
  6
CONTINUOUS
 62
     7
  5
14E
 10
48.322917
 20
246.670917
 30
0.0
 40
3.0
  1
DIMENSION FROM GROUND TO CENTER
 50
90.0
  7
MONOTXT
 72
     4
 11
46.822917
 21
291.328417
 31
0.0
210
0.0
220
0.0
230
1.0
  0
TEXT
  8
1
  6
CONTINUOUS
 62
     7
  5
14F
 10
53.322917
 20
245.407167
 30
0.0
 40
3.0
  1
OF PRESSURE ON SIGN ("CP" IN FEET)
 50
90.0
  7
MONOTXT
 72
     4
 11
51.822917
 21
291.316667
 31
0.0
210
0.0
220
0.0
230
1.0
  0
TEXT
  8
1
  6
CONTINUOUS
 62
     7
  5
150
 10
333.684833
 20
245.826333
 30
0.0
 40
3.0
  1
DIMENSION FROM GROUND TO CENTER
 50
90.0
  7
MONOTXT
 72
     4
 11
332.184833
 21
290.483833
 31
0.0
210
0.0
220
0.0
230
1.0
  0
TEXT
  8
1
  6
CONTINUOUS
 62
     7
  5
151
 10
338.684833
 20
244.562583
 30
0.0
 40
3.0
  1
OF PRESSURE ON SIGN ("CP" IN FEET)
 50
90.0
  7
MONOTXT
 72
     4
 11
337.184833
 21
290.472083
 31
0.0
210
0.0
220
0.0
230
1.0
  0
LINE
  8
1
  6
CONTINUOUS
 62
     1
  5
152
 10
120.426167
 20
196.136667
 30
0.0
 11
120.426167
 21
236.136667
 31
0.0
  0
LINE
  8
1
  6
CONTINUOUS
 62
     4
  5
153
 10
120.426167
 20
236.136667
 30
0.0
 11
120.426167
 21
396.136667
 31
0.0
  0
LINE
  8
1
  6
CONTINUOUS
 62
     4
  5
154
 10
55.176167
 20
236.136667
 30
0.0
 11
120.426167
 21
236.136667
 31
0.0
  0
LINE
  8
1
  6
CONTINUOUS
 62
     1
  5
155
 10
120.426167
 20
236.136667
 30
0.0
 11
133.426167
 21
236.136667
 31
0.0
  0
LINE
  8
1
  6
CONTINUOUS
 62
     4
  5
156
 10
133.426167
 20
256.136667
 30
0.0
 11
133.426167
 21
396.136667
 31
0.0
  0
LINE
  8
1
  6
CONTINUOUS
 62
     4
  5
157
 10
133.426167
 20
196.136667
 30
0.0
 11
133.426167
 21
236.136667
 31
0.0
  0
LINE
  8
1
  6
CONTINUOUS
 62
     1
  5
158
 10
133.426167
 20
236.136667
 30
0.0
 11
133.426167
 21
256.136667
 31
0.0
  0
LINE
  8
1
  6
CONTINUOUS
 62
     4
  5
159
 10
55.176167
 20
256.136667
 30
0.0
 11
133.426167
 21
256.136667
 31
0.0
  0
LINE
  8
1
  6
CONTINUOUS
 62
     1
  5
15A
 10
133.426167
 20
256.136667
 30
0.0
 11
146.426167
 21
256.136667
 31
0.0
  0
LINE
  8
1
  6
CONTINUOUS
 62
     4
  5
15B
 10
146.426167
 20
256.136667
 30
0.0
 11
328.676167
 21
256.136667
 31
0.0
  0
LINE
  8
1
  6
CONTINUOUS
 62
     4
  5
15C
 10
146.426167
 20
276.136667
 30
0.0
 11
146.426167
 21
396.136667
 31
0.0
  0
LINE
  8
1
  6
CONTINUOUS
 62
     4
  5
15D
 10
146.426167
 20
196.136667
 30
0.0
 11
146.426167
 21
256.136667
 31
0.0
  0
LINE
  8
1
  6
CONTINUOUS
 62
     1
  5
15E
 10
146.426167
 20
256.136667
 30
0.0
 11
146.426167
 21
276.136667
 31
0.0
  0
LINE
  8
1
  6
CONTINUOUS
 62
     4
  5
15F
 10
55.176167
 20
276.136667
 30
0.0
 11
146.426167
 21
276.136667
 31
0.0
  0
LINE
  8
1
  6
CONTINUOUS
 62
     1
  5
160
 10
146.426167
 20
276.136667
 30
0.0
 11
159.426167
 21
276.136667
 31
0.0
  0
LINE
  8
1
  6
CONTINUOUS
 62
     4
  5
161
 10
159.426167
 20
306.136667
 30
0.0
 11
159.426167
 21
396.136667
 31
0.0
  0
LINE
  8
1
  6
CONTINUOUS
 62
     4
  5
162
 10
159.426167
 20
196.136667
 30
0.0
 11
159.426167
 21
276.136667
 31
0.0
  0
LINE
  8
1
  6
CONTINUOUS
 62
     1
  5
163
 10
159.426167
 20
276.136667
 30
0.0
 11
159.426167
 21
306.136667
 31
0.0
  0
LINE
  8
1
  6
CONTINUOUS
 62
     4
  5
164
 10
55.176167
 20
306.136667
 30
0.0
 11
159.426167
 21
306.136667
 31
0.0
  0
LINE
  8
1
  6
CONTINUOUS
 62
     1
  5
165
 10
159.426167
 20
306.136667
 30
0.0
 11
172.426167
 21
306.136667
 31
0.0
  0
LINE
  8
1
  6
CONTINUOUS
 62
     4
  5
166
 10
172.426167
 20
316.136667
 30
0.0
 11
172.426167
 21
396.136667
 31
0.0
  0
LINE
  8
1
  6
CONTINUOUS
 62
     4
  5
167
 10
172.426167
 20
196.136667
 30
0.0
 11
172.426167
 21
306.136667
 31
0.0
  0
LINE
  8
1
  6
CONTINUOUS
 62
     1
  5
168
 10
172.426167
 20
306.136667
 30
0.0
 11
172.426167
 21
316.136667
 31
0.0
  0
LINE
  8
1
  6
CONTINUOUS
 62
     4
  5
169
 10
55.176167
 20
316.136667
 30
0.0
 11
172.426167
 21
316.136667
 31
0.0
  0
LINE
  8
1
  6
CONTINUOUS
 62
     1
  5
16A
 10
172.426167
 20
316.136667
 30
0.0
 11
185.426167
 21
316.136667
 31
0.0
  0
LINE
  8
1
  6
CONTINUOUS
 62
     4
  5
16B
 10
185.426167
 20
326.136667
 30
0.0
 11
185.426167
 21
396.136667
 31
0.0
  0
LINE
  8
1
  6
CONTINUOUS
 62
     1
  5
16C
 10
185.426167
 20
316.136667
 30
0.0
 11
185.426167
 21
326.136667
 31
0.0
  0
LINE
  8
1
  6
CONTINUOUS
 62
     4
  5
16D
 10
55.176167
 20
326.136667
 30
0.0
 11
185.426167
 21
326.136667
 31
0.0
  0
LINE
  8
1
  6
CONTINUOUS
 62
     1
  5
16E
 10
185.426167
 20
326.136667
 30
0.0
 11
198.426167
 21
326.136667
 31
0.0
  0
LINE
  8
1
  6
CONTINUOUS
 62
     4
  5
16F
 10
198.426167
 20
346.136667
 30
0.0
 11
198.426167
 21
396.136667
 31
0.0
  0
LINE
  8
1
  6
CONTINUOUS
 62
     1
  5
170
 10
198.426167
 20
326.136667
 30
0.0
 11
198.426167
 21
346.136667
 31
0.0
  0
LINE
  8
1
  6
CONTINUOUS
 62
     4
  5
171
 10
55.176167
 20
346.136667
 30
0.0
 11
198.426167
 21
346.136667
 31
0.0
  0
LINE
  8
1
  6
CONTINUOUS
 62
     1
  5
172
 10
198.426167
 20
346.136667
 30
0.0
 11
211.426167
 21
346.136667
 31
0.0
  0
LINE
  8
1
  6
CONTINUOUS
 62
     4
  5
173
 10
211.426167
 20
346.136667
 30
0.0
 11
328.676167
 21
346.136667
 31
0.0
  0
LINE
  8
1
  6
CONTINUOUS
 62
     4
  5
174
 10
211.426167
 20
356.136667
 30
0.0
 11
211.426167
 21
396.136667
 31
0.0
  0
LINE
  8
1
  6
CONTINUOUS
 62
     1
  5
175
 10
211.426167
 20
346.136667
 30
0.0
 11
211.426167
 21
356.136667
 31
0.0
  0
LINE
  8
1
  6
CONTINUOUS
 62
     4
  5
176
 10
55.176167
 20
356.136667
 30
0.0
 11
211.426167
 21
356.136667
 31
0.0
  0
LINE
  8
1
  6
CONTINUOUS
 62
     1
  5
177
 10
211.426167
 20
356.136667
 30
0.0
 11
224.426167
 21
356.136667
 31
0.0
  0
LINE
  8
1
  6
CONTINUOUS
 62
     4
  5
178
 10
224.426167
 20
356.136667
 30
0.0
 11
328.676167
 21
356.136667
 31
0.0
  0
LINE
  8
1
  6
CONTINUOUS
 62
     4
  5
179
 10
224.426167
 20
366.136667
 30
0.0
 11
224.426167
 21
396.136667
 31
0.0
  0
LINE
  8
1
  6
CONTINUOUS
 62
     1
  5
17A
 10
224.426167
 20
356.136667
 30
0.0
 11
224.426167
 21
366.136667
 31
0.0
  0
LINE
  8
1
  6
CONTINUOUS
 62
     4
  5
17B
 10
55.176167
 20
366.136667
 30
0.0
 11
224.426167
 21
366.136667
 31
0.0
  0
LINE
  8
1
  6
CONTINUOUS
 62
     1
  5
17C
 10
224.426167
 20
366.136667
 30
0.0
 11
250.426167
 21
366.136667
 31
0.0
  0
LINE
  8
1
  6
CONTINUOUS
 62
     4
  5
17D
 10
250.426167
 20
366.136667
 30
0.0
 11
328.676167
 21
366.136667
 31
0.0
  0
LINE
  8
1
  6
CONTINUOUS
 62
     1
  5
17E
 10
250.426167
 20
366.136667
 30
0.0
 11
250.426167
 21
386.136667
 31
0.0
  0
LINE
  8
1
  6
CONTINUOUS
 62
     4
  5
17F
 10
250.426167
 20
386.136667
 30
0.0
 11
250.426167
 21
396.136667
 31
0.0
  0
LINE
  8
1
  6
CONTINUOUS
 62
     1
  5
180
 10
185.426167
 20
196.136667
 30
0.0
 11
185.426167
 21
216.136667
 31
0.0
  0
LINE
  8
1
  6
CONTINUOUS
 62
     4
  5
181
 10
185.426167
 20
216.136667
 30
0.0
 11
185.426167
 21
316.136667
 31
0.0
  0
LINE
  8
1
  6
CONTINUOUS
 62
     4
  5
182
 10
55.176167
 20
216.136667
 30
0.0
 11
185.426167
 21
216.136667
 31
0.0
  0
LINE
  8
1
  6
CONTINUOUS
 62
     1
  5
183
 10
185.426167
 20
216.136667
 30
0.0
 11
198.426167
 21
216.136667
 31
0.0
  0
LINE
  8
1
  6
CONTINUOUS
 62
     4
  5
184
 10
198.426167
 20
236.136667
 30
0.0
 11
198.426167
 21
326.136667
 31
0.0
  0
LINE
  8
1
  6
CONTINUOUS
 62
     4
  5
185
 10
198.426167
 20
196.136667
 30
0.0
 11
198.426167
 21
216.136667
 31
0.0
  0
LINE
  8
1
  6
CONTINUOUS
 62
     1
  5
186
 10
198.426167
 20
216.136667
 30
0.0
 11
198.426167
 21
236.136667
 31
0.0
  0
LINE
  8
1
  6
CONTINUOUS
 62
     4
  5
187
 10
133.426167
 20
236.136667
 30
0.0
 11
198.426167
 21
236.136667
 31
0.0
  0
LINE
  8
1
  6
CONTINUOUS
 62
     1
  5
188
 10
198.426167
 20
236.136667
 30
0.0
 11
211.426167
 21
236.136667
 31
0.0
  0
LINE
  8
1
  6
CONTINUOUS
 62
     4
  5
189
 10
211.426167
 20
236.136667
 30
0.0
 11
328.676167
 21
236.136667
 31
0.0
  0
LINE
  8
1
  6
CONTINUOUS
 62
     4
  5
18A
 10
211.426167
 20
246.136667
 30
0.0
 11
211.426167
 21
346.136667
 31
0.0
  0
LINE
  8
1
  6
CONTINUOUS
 62
     4
  5
18B
 10
211.426167
 20
196.136667
 30
0.0
 11
211.426167
 21
236.136667
 31
0.0
  0
LINE
  8
1
  6
CONTINUOUS
 62
     1
  5
18C
 10
211.426167
 20
236.136667
 30
0.0
 11
211.426167
 21
246.136667
 31
0.0
  0
LINE
  8
1
  6
CONTINUOUS
 62
     4
  5
18D
 10
55.176167
 20
246.136667
 30
0.0
 11
211.426167
 21
246.136667
 31
0.0
  0
LINE
  8
1
  6
CONTINUOUS
 62
     1
  5
18E
 10
211.426167
 20
246.136667
 30
0.0
 11
224.426167
 21
246.136667
 31
0.0
  0
LINE
  8
1
  6
CONTINUOUS
 62
     4
  5
18F
 10
224.426167
 20
246.136667
 30
0.0
 11
328.676167
 21
246.136667
 31
0.0
  0
LINE
  8
1
  6
CONTINUOUS
 62
     4
  5
190
 10
224.426167
 20
266.136667
 30
0.0
 11
224.426167
 21
356.136667
 31
0.0
  0
LINE
  8
1
  6
CONTINUOUS
 62
     4
  5
191
 10
224.426167
 20
196.136667
 30
0.0
 11
224.426167
 21
246.136667
 31
0.0
  0
LINE
  8
1
  6
CONTINUOUS
 62
     1
  5
192
 10
224.426167
 20
246.136667
 30
0.0
 11
224.426167
 21
266.136667
 31
0.0
  0
LINE
  8
1
  6
CONTINUOUS
 62
     4
  5
193
 10
55.176167
 20
266.136667
 30
0.0
 11
224.426167
 21
266.136667
 31
0.0
  0
LINE
  8
1
  6
CONTINUOUS
 62
     1
  5
194
 10
224.426167
 20
266.136667
 30
0.0
 11
237.426167
 21
266.136667
 31
0.0
  0
LINE
  8
1
  6
CONTINUOUS
 62
     4
  5
195
 10
237.426167
 20
266.136667
 30
0.0
 11
328.676167
 21
266.136667
 31
0.0
  0
LINE
  8
1
  6
CONTINUOUS
 62
     4
  5
196
 10
237.426167
 20
276.136667
 30
0.0
 11
237.426167
 21
396.136667
 31
0.0
  0
LINE
  8
1
  6
CONTINUOUS
 62
     4
  5
197
 10
237.426167
 20
196.136667
 30
0.0
 11
237.426167
 21
266.136667
 31
0.0
  0
LINE
  8
1
  6
CONTINUOUS
 62
     1
  5
198
 10
237.426167
 20
266.136667
 30
0.0
 11
237.426167
 21
276.136667
 31
0.0
  0
LINE
  8
1
  6
CONTINUOUS
 62
     4
  5
199
 10
159.426167
 20
276.136667
 30
0.0
 11
237.426167
 21
276.136667
 31
0.0
  0
LINE
  8
1
  6
CONTINUOUS
 62
     1
  5
19A
 10
237.426167
 20
276.136667
 30
0.0
 11
250.426167
 21
276.136667
 31
0.0
  0
LINE
  8
1
  6
CONTINUOUS
 62
     4
  5
19B
 10
250.426167
 20
276.136667
 30
0.0
 11
328.676167
 21
276.136667
 31
0.0
  0
LINE
  8
1
  6
CONTINUOUS
 62
     4
  5
19C
 10
250.426167
 20
286.136667
 30
0.0
 11
250.426167
 21
366.136667
 31
0.0
  0
LINE
  8
1
  6
CONTINUOUS
 62
     4
  5
19D
 10
250.426167
 20
196.136667
 30
0.0
 11
250.426167
 21
276.136667
 31
0.0
  0
LINE
  8
1
  6
CONTINUOUS
 62
     1
  5
19E
 10
250.426167
 20
276.136667
 30
0.0
 11
250.426167
 21
286.136667
 31
0.0
  0
LINE
  8
1
  6
CONTINUOUS
 62
     4
  5
19F
 10
55.176167
 20
286.136667
 30
0.0
 11
250.426167
 21
286.136667
 31
0.0
  0
LINE
  8
1
  6
CONTINUOUS
 62
     1
  5
1A0
 10
250.426167
 20
286.136667
 30
0.0
 11
263.426167
 21
286.136667
 31
0.0
  0
LINE
  8
1
  6
CONTINUOUS
 62
     4
  5
1A1
 10
263.426167
 20
286.136667
 30
0.0
 11
328.676167
 21
286.136667
 31
0.0
  0
LINE
  8
1
  6
CONTINUOUS
 62
     4
  5
1A2
 10
263.426167
 20
306.136667
 30
0.0
 11
263.426167
 21
396.136667
 31
0.0
  0
LINE
  8
1
  6
CONTINUOUS
 62
     4
  5
1A3
 10
263.426167
 20
196.136667
 30
0.0
 11
263.426167
 21
286.136667
 31
0.0
  0
LINE
  8
1
  6
CONTINUOUS
 62
     1
  5
1A4
 10
263.426167
 20
286.136667
 30
0.0
 11
263.426167
 21
306.136667
 31
0.0
  0
LINE
  8
1
  6
CONTINUOUS
 62
     4
  5
1A5
 10
172.426167
 20
306.136667
 30
0.0
 11
263.426167
 21
306.136667
 31
0.0
  0
LINE
  8
1
  6
CONTINUOUS
 62
     1
  5
1A6
 10
263.426167
 20
306.136667
 30
0.0
 11
276.426167
 21
306.136667
 31
0.0
  0
LINE
  8
1
  6
CONTINUOUS
 62
     4
  5
1A7
 10
276.426167
 20
306.136667
 30
0.0
 11
328.676167
 21
306.136667
 31
0.0
  0
LINE
  8
1
  6
CONTINUOUS
 62
     4
  5
1A8
 10
276.426167
 20
316.136667
 30
0.0
 11
276.426167
 21
396.136667
 31
0.0
  0
LINE
  8
1
  6
CONTINUOUS
 62
     4
  5
1A9
 10
276.426167
 20
196.136667
 30
0.0
 11
276.426167
 21
306.136667
 31
0.0
  0
LINE
  8
1
  6
CONTINUOUS
 62
     1
  5
1AA
 10
276.426167
 20
306.136667
 30
0.0
 11
276.426167
 21
316.136667
 31
0.0
  0
LINE
  8
1
  6
CONTINUOUS
 62
     4
  5
1AB
 10
185.426167
 20
316.136667
 30
0.0
 11
276.426167
 21
316.136667
 31
0.0
  0
LINE
  8
1
  6
CONTINUOUS
 62
     1
  5
1AC
 10
276.426167
 20
316.136667
 30
0.0
 11
289.426167
 21
316.136667
 31
0.0
  0
LINE
  8
1
  6
CONTINUOUS
 62
     4
  5
1AD
 10
289.426167
 20
316.136667
 30
0.0
 11
328.676167
 21
316.136667
 31
0.0
  0
LINE
  8
1
  6
CONTINUOUS
 62
     4
  5
1AE
 10
289.426167
 20
326.136667
 30
0.0
 11
289.426167
 21
396.136667
 31
0.0
  0
LINE
  8
1
  6
CONTINUOUS
 62
     1
  5
1AF
 10
289.426167
 20
316.136667
 30
0.0
 11
289.426167
 21
326.136667
 31
0.0
  0
LINE
  8
1
  6
CONTINUOUS
 62
     4
  5
1B0
 10
198.426167
 20
326.136667
 30
0.0
 11
289.426167
 21
326.136667
 31
0.0
  0
LINE
  8
1
  6
CONTINUOUS
 62
     1
  5
1B1
 10
289.426167
 20
326.136667
 30
0.0
 11
302.426167
 21
326.136667
 31
0.0
  0
LINE
  8
1
  6
CONTINUOUS
 62
     4
  5
1B2
 10
302.426167
 20
326.136667
 30
0.0
 11
328.676167
 21
326.136667
 31
0.0
  0
LINE
  8
1
  6
CONTINUOUS
 62
     4
  5
1B3
 10
302.426167
 20
336.136667
 30
0.0
 11
302.426167
 21
396.136667
 31
0.0
  0
LINE
  8
1
  6
CONTINUOUS
 62
     1
  5
1B4
 10
302.426167
 20
326.136667
 30
0.0
 11
302.426167
 21
336.136667
 31
0.0
  0
LINE
  8
1
  6
CONTINUOUS
 62
     4
  5
1B5
 10
55.176167
 20
336.136667
 30
0.0
 11
302.426167
 21
336.136667
 31
0.0
  0
LINE
  8
1
  6
CONTINUOUS
 62
     1
  5
1B6
 10
302.426167
 20
336.136667
 30
0.0
 11
315.426167
 21
336.136667
 31
0.0
  0
LINE
  8
1
  6
CONTINUOUS
 62
     4
  5
1B7
 10
315.426167
 20
336.136667
 30
0.0
 11
328.676167
 21
336.136667
 31
0.0
  0
LINE
  8
1
  6
CONTINUOUS
 62
     1
  5
1B8
 10
289.426167
 20
196.136667
 30
0.0
 11
289.426167
 21
206.136667
 31
0.0
  0
LINE
  8
1
  6
CONTINUOUS
 62
     4
  5
1B9
 10
289.426167
 20
206.136667
 30
0.0
 11
289.426167
 21
316.136667
 31
0.0
  0
LINE
  8
1
  6
CONTINUOUS
 62
     4
  5
1BA
 10
302.426167
 20
206.136667
 30
0.0
 11
328.676167
 21
206.136667
 31
0.0
  0
LINE
  8
1
  6
CONTINUOUS
 62
     4
  5
1BB
 10
302.426167
 20
216.136667
 30
0.0
 11
302.426167
 21
326.136667
 31
0.0
  0
LINE
  8
1
  6
CONTINUOUS
 62
     4
  5
1BC
 10
315.426167
 20
216.136667
 30
0.0
 11
328.676167
 21
216.136667
 31
0.0
  0
LINE
  8
1
  6
CONTINUOUS
 62
     4
  5
1BD
 10
55.176167
 20
206.136667
 30
0.0
 11
289.426167
 21
206.136667
 31
0.0
  0
LINE
  8
1
  6
CONTINUOUS
 62
     1
  5
1BE
 10
289.426167
 20
206.136667
 30
0.0
 11
302.426167
 21
206.136667
 31
0.0
  0
LINE
  8
1
  6
CONTINUOUS
 62
     4
  5
1BF
 10
302.426167
 20
196.136667
 30
0.0
 11
302.426167
 21
206.136667
 31
0.0
  0
LINE
  8
1
  6
CONTINUOUS
 62
     1
  5
1C0
 10
302.426167
 20
206.136667
 30
0.0
 11
302.426167
 21
216.136667
 31
0.0
  0
LINE
  8
1
  6
CONTINUOUS
 62
     4
  5
1C1
 10
198.426167
 20
216.136667
 30
0.0
 11
302.426167
 21
216.136667
 31
0.0
  0
LINE
  8
1
  6
CONTINUOUS
 62
     1
  5
1C2
 10
302.426167
 20
216.136667
 30
0.0
 11
315.426167
 21
216.136667
 31
0.0
  0
TEXT
  8
1
  6
CONTINUOUS
 62
     7
  5
1C3
 10
112.510083
 20
321.94825
 30
0.0
 40
7.0
  1
2.00#/ FT.
 50
45.0
  7
txt
 72
     4
 11
124.267207
 21
338.655121
 31
0.0
210
0.0
220
0.0
230
1.0
  0
TEXT
  8
1
  6
CONTINUOUS
 62
     7
  5
1C4
 10
191.603167
 20
269.703833
 30
0.0
 40
7.0
  1
3.00#/ FT.
 50
45.0
  7
txt
 72
     4
 11
203.36029
 21
286.410704
 31
0.0
210
0.0
220
0.0
230
1.0
  0
TEXT
  8
1
  6
CONTINUOUS
 62
     7
  5
1C5
 10
258.772083
 20
226.822333
 30
0.0
 40
7.0
  1
4.0#BB*
 50
45.0
  7
txt
 72
     4
 11
269.083291
 21
242.083289
 31
0.0
210
0.0
220
0.0
230
1.0
  0
CIRCLE
  8
1
  6
CONTINUOUS
 62
     7
  5
1C6
 10
279.583333
 20
254.5
 30
0.0
 40
2.124591
210
0.0
220
0.0
230
1.0
  0
TEXT
  8
1
  6
CONTINUOUS
 62
     7
  5
1C7
 10
306.605417
 20
162.989
 30
0.0
 40
7.0
  1
6.0#BB*
 50
45.0
  7
txt
 72
     4
 11
316.916625
 21
178.249955
 31
0.0
210
0.0
220
0.0
230
1.0
  0
CIRCLE
  8
1
  6
CONTINUOUS
 62
     7
  5
1C8
 10
327.416667
 20
190.666667
 30
0.0
 40
2.103238
210
0.0
220
0.0
230
1.0
  0
LINE
  8
1
  6
CONTINUOUS
 62
     7
  5
1C9
 10
296.666667
 20
196.136667
 30
0.0
 11
296.666667
 21
164.25
 31
0.0
  0
LINE
  8
1
  6
CONTINUOUS
 62
     7
  5
1CA
 10
296.666667
 20
164.25
 30
0.0
 11
303.75
 21
165.083333
 31
0.0
  0
LINE
  8
1
  6
CONTINUOUS
 62
    30
  5
1CB
 10
370.833333
 20
348.416667
 30
0.0
 11
420.833333
 21
348.416667
 31
0.0
  0
LINE
  8
1
  6
CONTINUOUS
 62
    30
  5
1CC
 10
420.833333
 20
348.416667
 30
0.0
 11
420.833333
 21
288.416667
 31
0.0
  0
LINE
  8
1
  6
CONTINUOUS
 62
    30
  5
1CD
 10
420.833333
 20
288.416667
 30
0.0
 11
370.833333
 21
288.416667
 31
0.0
  0
LINE
  8
1
  6
CONTINUOUS
 62
    30
  5
1CE
 10
370.833333
 20
288.416667
 30
0.0
 11
370.833333
 21
348.416667
 31
0.0
  0
LINE
  8
1
  6
CONTINUOUS
 62
    30
  5
1CF
 10
370.833333
 20
328.416667
 30
0.0
 11
420.833333
 21
328.416667
 31
0.0
  0
LINE
  8
1
  6
CONTINUOUS
 62
    30
  5
1D0
 10
370.833333
 20
318.416667
 30
0.0
 11
420.833333
 21
318.416667
 31
0.0
  0
LINE
  8
1
  6
CONTINUOUS
 62
    30
  5
1D1
 10
370.833333
 20
308.416667
 30
0.0
 11
420.833333
 21
308.416667
 31
0.0
  0
LINE
  8
1
  6
CONTINUOUS
 62
    30
  5
1D2
 10
370.833333
 20
298.416667
 30
0.0
 11
420.833333
 21
298.416667
 31
0.0
  0
LINE
  8
1
  6
CONTINUOUS
 62
    30
  5
1D3
 10
400.833333
 20
348.416667
 30
0.0
 11
400.833333
 21
288.416667
 31
0.0
  0
TEXT
  8
1
  6
CONTINUOUS
 62
     7
  5
1D4
 10
380.751333
 20
339.5
 30
0.0
 40
2.5
  1
POST
  7
MONOTXT
 72
     4
 11
385.4265
 21
340.75
 31
0.0
210
0.0
220
0.0
230
1.0
  0
TEXT
  8
1
  6
CONTINUOUS
 62
     7
  5
1D5
 10
377.857583
 20
335.0
 30
0.0
 40
2.5
  1
SECTION
  7
MONOTXT
 72
     4
 11
385.426417
 21
336.25
 31
0.0
210
0.0
220
0.0
230
1.0
  0
TEXT
  8
1
  6
CONTINUOUS
 62
     7
  5
1D6
 10
405.188333
 20
339.166667
 30
0.0
 40
2.5
  1
DEPTH
  7
MONOTXT
 72
     4
 11
410.9265
 21
340.416667
 31
0.0
210
0.0
220
0.0
230
1.0
  0
TEXT
  8
1
  6
CONTINUOUS
 62
     7
  5
1D7
 10
404.656833
 20
334.666667
 30
0.0
 40
2.5
  1
DRIVEN
  7
MONOTXT
 72
     4
 11
410.9265
 21
335.916667
 31
0.0
210
0.0
220
0.0
230
1.0
  0
TEXT
  8
1
  6
CONTINUOUS
 62
     7
  5
1D8
 10
374.86025
 20
302.083333
 30
0.0
 40
2.5
  1
4.0 BB/FT.
  7
MONOTXT
 72
     4
 11
385.5
 21
303.333333
 31
0.0
210
0.0
220
0.0
230
1.0
  0
TEXT
  8
1
  6
CONTINUOUS
 62
     7
  5
1D9
 10
375.145
 20
292.166667
 30
0.0
 40
2.5
  1
6.0 BB/FT.
  7
MONOTXT
 72
     4
 11
385.666667
 21
293.416667
 31
0.0
210
0.0
220
0.0
230
1.0
  0
TEXT
  8
1
  6
CONTINUOUS
 62
     7
  5
1DA
 10
407.00725
 20
322.25
 30
0.0
 40
2.5
  1
3.0'
  7
MONOTXT
 72
     4
 11
410.166667
 21
323.5
 31
0.0
210
0.0
220
0.0
230
1.0
  0
TEXT
  8
1
  6
CONTINUOUS
 62
     7
  5
1DB
 10
407.173917
 20
312.083333
 30
0.0
 40
2.5
  1
3.5'
  7
MONOTXT
 72
     4
 11
410.333333
 21
313.333333
 31
0.0
210
0.0
220
0.0
230
1.0
  0
TEXT
  8
1
  6
CONTINUOUS
 62
     7
  5
1DC
 10
407.340583
 20
302.083333
 30
0.0
 40
2.5
  1
3.5'
  7
MONOTXT
 72
     4
 11
410.5
 21
303.333333
 31
0.0
210
0.0
220
0.0
230
1.0
  0
TEXT
  8
1
  6
CONTINUOUS
 62
     7
  5
1DD
 10
407.00725
 20
292.083333
 30
0.0
 40
2.5
  1
3.5'
  7
MONOTXT
 72
     4
 11
410.166667
 21
293.333333
 31
0.0
210
0.0
220
0.0
230
1.0
  0
LINE
  8
1
  6
CONTINUOUS
 62
     6
  5
1DE
 10
477.5
 20
354.166667
 30
0.0
 11
527.5
 21
354.166667
 31
0.0
  0
LINE
  8
1
  6
CONTINUOUS
 62
     6
  5
1DF
 10
527.5
 20
354.166667
 30
0.0
 11
527.5
 21
334.166667
 31
0.0
  0
LINE
  8
1
  6
CONTINUOUS
 62
     6
  5
1E0
 10
527.5
 20
334.166667
 30
0.0
 11
477.5
 21
334.166667
 31
0.0
  0
LINE
  8
1
  6
CONTINUOUS
 62
     6
  5
1E1
 10
477.5
 20
334.166667
 30
0.0
 11
477.5
 21
354.166667
 31
0.0
  0
LINE
  8
1
  6
DASHED
 62
     6
  5
1E2
 10
483.5
 20
334.166667
 30
0.0
 11
483.5
 21
354.166667
 31
0.0
  0
LINE
  8
1
  6
DASHED
 62
     6
  5
1E3
 10
521.5
 20
354.166667
 30
0.0
 11
521.5
 21
334.166667
 31
0.0
  0
LINE
  8
1
  6
DASHED
 62
     6
  5
1E4
 10
485.0
 20
334.166667
 30
0.0
 11
485.0
 21
354.166667
 31
0.0
  0
LINE
  8
1
  6
DASHED
 62
     6
  5
1E5
 10
520.0
 20
354.166667
 30
0.0
 11
520.0
 21
334.166667
 31
0.0
  0
LINE
  8
1
  6
DASHED
 62
     6
  5
1E6
 10
501.75
 20
354.166667
 30
0.0
 11
501.75
 21
334.166667
 31
0.0
  0
LINE
  8
1
  6
DASHED
 62
     6
  5
1E7
 10
503.25
 20
354.166667
 30
0.0
 11
503.25
 21
334.166667
 31
0.0
  0
LINE
  8
1
  6
CONTINUOUS
 62
     6
  5
1E8
 10
483.5
 20
334.166667
 30
0.0
 11
483.5
 21
297.166667
 31
0.0
  0
LINE
  8
1
  6
CONTINUOUS
 62
     6
  5
1E9
 10
485.0
 20
334.166667
 30
0.0
 11
485.0
 21
297.166667
 31
0.0
  0
LINE
  8
1
  6
CONTINUOUS
 62
     6
  5
1EA
 10
501.75
 20
334.166667
 30
0.0
 11
501.75
 21
297.166667
 31
0.0
  0
LINE
  8
1
  6
CONTINUOUS
 62
     6
  5
1EB
 10
503.25
 20
334.166667
 30
0.0
 11
503.25
 21
297.166667
 31
0.0
  0
LINE
  8
1
  6
CONTINUOUS
 62
     6
  5
1EC
 10
520.0
 20
334.166667
 30
0.0
 11
520.0
 21
297.166667
 31
0.0
  0
LINE
  8
1
  6
CONTINUOUS
 62
     6
  5
1ED
 10
521.5
 20
334.166667
 30
0.0
 11
521.5
 21
297.166667
 31
0.0
  0
LINE
  8
1
  6
CONTINUOUS
 62
     6
  5
1EE
 10
476.5
 20
297.166667
 30
0.0
 11
554.5
 21
297.166667
 31
0.0
  0
LINE
  8
1
  6
DASHED
 62
     6
  5
1EF
 10
483.5
 20
297.166667
 30
0.0
 11
483.5
 21
293.166667
 31
0.0
  0
LINE
  8
1
  6
DASHED
 62
     6
  5
1F0
 10
485.0
 20
297.166667
 30
0.0
 11
485.0
 21
293.166667
 31
0.0
  0
LINE
  8
1
  6
DASHED
 62
     6
  5
1F1
 10
501.75
 20
297.166667
 30
0.0
 11
501.75
 21
293.166667
 31
0.0
  0
LINE
  8
1
  6
DASHED
 62
     6
  5
1F2
 10
503.25
 20
297.166667
 30
0.0
 11
503.25
 21
293.166667
 31
0.0
  0
LINE
  8
1
  6
DASHED
 62
     6
  5
1F3
 10
520.0
 20
297.166667
 30
0.0
 11
520.0
 21
293.166667
 31
0.0
  0
LINE
  8
1
  6
DASHED
 62
     6
  5
1F4
 10
521.5
 20
297.166667
 30
0.0
 11
521.5
 21
293.166667
 31
0.0
  0
LINE
  8
1
  6
CONTINUOUS
 62
     6
  5
1F5
 10
484.25
 20
294.166667
 30
0.0
 11
484.25
 21
292.166667
 31
0.0
  0
LINE
  8
1
  6
CONTINUOUS
 62
     6
  5
1F6
 10
481.5
 20
293.166667
 30
0.0
 11
483.75
 21
293.166667
 31
0.0
  0
LINE
  8
1
  6
CONTINUOUS
 62
     6
  5
1F7
 10
484.75
 20
293.166667
 30
0.0
 11
487.0
 21
293.166667
 31
0.0
  0
LINE
  8
1
  6
CONTINUOUS
 62
     6
  5
1F8
 10
483.75
 20
293.166667
 30
0.0
 11
484.25
 21
292.166667
 31
0.0
  0
LINE
  8
1
  6
CONTINUOUS
 62
     6
  5
1F9
 10
484.75
 20
293.166667
 30
0.0
 11
484.25
 21
294.166667
 31
0.0
  0
LINE
  8
1
  6
CONTINUOUS
 62
     6
  5
1FA
 10
502.5
 20
294.166667
 30
0.0
 11
502.5
 21
292.166667
 31
0.0
  0
LINE
  8
1
  6
CONTINUOUS
 62
     6
  5
1FB
 10
499.75
 20
293.166667
 30
0.0
 11
502.0
 21
293.166667
 31
0.0
  0
LINE
  8
1
  6
CONTINUOUS
 62
     6
  5
1FC
 10
503.0
 20
293.166667
 30
0.0
 11
505.25
 21
293.166667
 31
0.0
  0
LINE
  8
1
  6
CONTINUOUS
 62
     6
  5
1FD
 10
502.0
 20
293.166667
 30
0.0
 11
502.5
 21
292.166667
 31
0.0
  0
LINE
  8
1
  6
CONTINUOUS
 62
     6
  5
1FE
 10
503.0
 20
293.166667
 30
0.0
 11
502.5
 21
294.166667
 31
0.0
  0
LINE
  8
1
  6
CONTINUOUS
 62
     6
  5
1FF
 10
520.75
 20
294.166667
 30
0.0
 11
520.75
 21
292.166667
 31
0.0
  0
LINE
  8
1
  6
CONTINUOUS
 62
     6
  5
200
 10
518.0
 20
293.166667
 30
0.0
 11
520.25
 21
293.166667
 31
0.0
  0
LINE
  8
1
  6
CONTINUOUS
 62
     6
  5
201
 10
521.25
 20
293.166667
 30
0.0
 11
523.5
 21
293.166667
 31
0.0
  0
LINE
  8
1
  6
CONTINUOUS
 62
     6
  5
202
 10
520.25
 20
293.166667
 30
0.0
 11
520.75
 21
292.166667
 31
0.0
  0
LINE
  8
1
  6
CONTINUOUS
 62
     6
  5
203
 10
521.25
 20
293.166667
 30
0.0
 11
520.75
 21
294.166667
 31
0.0
  0
LINE
  8
1
  6
CONTINUOUS
 62
     6
  5
204
 10
481.5
 20
287.166667
 30
0.0
 11
483.75
 21
287.166667
 31
0.0
  0
LINE
  8
1
  6
CONTINUOUS
 62
     6
  5
205
 10
484.25
 20
288.166667
 30
0.0
 11
484.25
 21
286.166667
 31
0.0
  0
LINE
  8
1
  6
CONTINUOUS
 62
     6
  5
206
 10
484.75
 20
287.166667
 30
0.0
 11
487.0
 21
287.166667
 31
0.0
  0
LINE
  8
1
  6
CONTINUOUS
 62
     6
  5
207
 10
483.75
 20
287.166667
 30
0.0
 11
484.25
 21
286.166667
 31
0.0
  0
LINE
  8
1
  6
CONTINUOUS
 62
     6
  5
208
 10
484.75
 20
287.166667
 30
0.0
 11
484.25
 21
288.166667
 31
0.0
  0
LINE
  8
1
  6
CONTINUOUS
 62
     6
  5
209
 10
521.25
 20
287.166667
 30
0.0
 11
523.5
 21
287.166667
 31
0.0
  0
LINE
  8
1
  6
CONTINUOUS
 62
     6
  5
20A
 10
520.75
 20
288.166667
 30
0.0
 11
520.75
 21
286.166667
 31
0.0
  0
LINE
  8
1
  6
CONTINUOUS
 62
     6
  5
20B
 10
518.0
 20
287.166667
 30
0.0
 11
520.25
 21
287.166667
 31
0.0
  0
LINE
  8
1
  6
CONTINUOUS
 62
     6
  5
20C
 10
520.25
 20
287.166667
 30
0.0
 11
520.75
 21
286.166667
 31
0.0
  0
LINE
  8
1
  6
CONTINUOUS
 62
     6
  5
20D
 10
521.25
 20
287.166667
 30
0.0
 11
520.75
 21
288.166667
 31
0.0
  0
LINE
  8
1
  6
CONTINUOUS
 62
     6
  5
20E
 10
499.75
 20
287.166667
 30
0.0
 11
502.0
 21
287.166667
 31
0.0
  0
LINE
  8
1
  6
CONTINUOUS
 62
     6
  5
20F
 10
502.5
 20
288.166667
 30
0.0
 11
502.5
 21
286.166667
 31
0.0
  0
LINE
  8
1
  6
CONTINUOUS
 62
     6
  5
210
 10
503.0
 20
287.166667
 30
0.0
 11
505.25
 21
287.166667
 31
0.0
  0
LINE
  8
1
  6
CONTINUOUS
 62
     6
  5
211
 10
502.0
 20
287.166667
 30
0.0
 11
502.5
 21
286.166667
 31
0.0
  0
LINE
  8
1
  6
CONTINUOUS
 62
     6
  5
212
 10
503.0
 20
287.166667
 30
0.0
 11
502.5
 21
288.166667
 31
0.0
  0
LINE
  8
1
  6
DASHED
 62
     6
  5
213
 10
483.5
 20
287.166667
 30
0.0
 11
483.5
 21
284.166667
 31
0.0
  0
LINE
  8
1
  6
DASHED
 62
     6
  5
214
 10
485.0
 20
287.166667
 30
0.0
 11
485.0
 21
284.166667
 31
0.0
  0
LINE
  8
1
  6
DASHED
 62
     6
  5
215
 10
501.75
 20
287.166667
 30
0.0
 11
501.75
 21
284.166667
 31
0.0
  0
LINE
  8
1
  6
DASHED
 62
     6
  5
216
 10
503.25
 20
287.166667
 30
0.0
 11
503.25
 21
284.166667
 31
0.0
  0
LINE
  8
1
  6
DASHED
 62
     6
  5
217
 10
520.0
 20
287.166667
 30
0.0
 11
520.0
 21
284.166667
 31
0.0
  0
LINE
  8
1
  6
DASHED
 62
     6
  5
218
 10
521.5
 20
287.166667
 30
0.0
 11
521.5
 21
284.166667
 31
0.0
  0
LINE
  8
1
  6
DASHED
 62
     6
  5
219
 10
483.5
 20
284.166667
 30
0.0
 11
484.25
 21
282.666667
 31
0.0
  0
LINE
  8
1
  6
DASHED
 62
     6
  5
21A
 10
484.25
 20
282.666667
 30
0.0
 11
485.0
 21
284.166667
 31
0.0
  0
LINE
  8
1
  6
DASHED
 62
     6
  5
21B
 10
501.75
 20
284.166667
 30
0.0
 11
502.5
 21
282.666667
 31
0.0
  0
LINE
  8
1
  6
DASHED
 62
     6
  5
21C
 10
502.5
 20
282.666667
 30
0.0
 11
503.25
 21
284.166667
 31
0.0
  0
LINE
  8
1
  6
DASHED
 62
     6
  5
21D
 10
520.0
 20
284.166667
 30
0.0
 11
520.75
 21
282.666667
 31
0.0
  0
LINE
  8
1
  6
DASHED
 62
     6
  5
21E
 10
520.75
 20
282.666667
 30
0.0
 11
521.5
 21
284.166667
 31
0.0
  0
LINE
  8
1
  6
CONTINUOUS
 62
     7
  5
21F
 10
477.5
 20
355.166667
 30
0.0
 11
477.5
 21
365.166667
 31
0.0
  0
LINE
  8
1
  6
CONTINUOUS
 62
     7
  5
220
 10
527.5
 20
355.166667
 30
0.0
 11
527.5
 21
365.166667
 31
0.0
  0
LINE
  8
1
  6
CONTINUOUS
 62
     7
  5
221
 10
551.5
 20
344.166667
 30
0.0
 11
528.5
 21
344.166667
 31
0.0
  0
LINE
  8
1
  6
CONTINUOUS
 62
     7
  5
222
 10
528.5
 20
334.166667
 30
0.0
 11
539.5
 21
334.166667
 31
0.0
  0
LINE
  8
1
  6
CONTINUOUS
 62
     7
  5
223
 10
476.5
 20
354.166667
 30
0.0
 11
467.5
 21
354.166667
 31
0.0
  0
LINE
  8
1
  6
CONTINUOUS
 62
     7
  5
224
 10
476.5
 20
334.166667
 30
0.0
 11
467.5
 21
334.166667
 31
0.0
  0
LINE
  8
1
  6
CONTINUOUS
 62
     7
  5
225
 10
522.75
 20
282.666667
 30
0.0
 11
539.75
 21
282.666667
 31
0.0
  0
LINE
  8
1
  6
CONTINUOUS
 62
     7
  5
226
 10
468.5
 20
354.166667
 30
0.0
 11
468.5
 21
334.166667
 31
0.0
  0
LINE
  8
1
  6
CONTINUOUS
 62
     7
  5
227
 10
538.5
 20
334.166667
 30
0.0
 11
538.5
 21
344.166667
 31
0.0
  0
LINE
  8
1
  6
CONTINUOUS
 62
     7
  5
228
 10
550.5
 20
344.166667
 30
0.0
 11
550.5
 21
297.166667
 31
0.0
  0
LINE
  8
1
  6
CONTINUOUS
 62
     7
  5
229
 10
538.75
 20
282.666667
 30
0.0
 11
538.75
 21
297.166667
 31
0.0
  0
LINE
  8
1
  6
CONTINUOUS
 62
     7
  5
22A
 10
477.5
 20
364.166667
 30
0.0
 11
527.5
 21
364.166667
 31
0.0
  0
INSERT
  8
1
  6
CONTINUOUS
 62
     1
  5
24B
  2
LDR
 10
477.5
 20
364.166667
 30
0.0
 41
240.0
 42
240.0
 50
180.0
210
0.0
220
0.0
230
1.0
  0
INSERT
  8
1
  6
CONTINUOUS
 62
     1
  5
24C
  2
LDR
 10
477.5
 20
364.166667
 30
0.0
 41
240.0
 42
240.0
 50
180.0
210
0.0
220
0.0
230
1.0
  0
INSERT
  8
1
  6
CONTINUOUS
 62
     1
  5
24D
  2
LDR
 10
527.5
 20
364.166667
 30
0.0
 41
240.0
 42
240.0
210
0.0
220
0.0
230
1.0
  0
INSERT
  8
1
  6
CONTINUOUS
 62
     1
  5
24E
  2
LDR
 10
527.5
 20
364.166667
 30
0.0
 41
240.0
 42
240.0
210
0.0
220
0.0
230
1.0
  0
INSERT
  8
1
  6
CONTINUOUS
 62
     1
  5
24F
  2
LDR
 10
468.5
 20
354.166667
 30
0.0
 41
240.0
 42
240.0
 50
90.0
210
0.0
220
0.0
230
1.0
  0
INSERT
  8
1
  6
CONTINUOUS
 62
     1
  5
250
  2
LDR
 10
468.5
 20
354.166667
 30
0.0
 41
240.0
 42
240.0
 50
90.0
210
0.0
220
0.0
230
1.0
  0
INSERT
  8
1
  6
CONTINUOUS
 62
     1
  5
251
  2
LDR
 10
468.5
 20
334.166667
 30
0.0
 41
240.0
 42
240.0
 50
270.0
210
0.0
220
0.0
230
1.0
  0
INSERT
  8
1
  6
CONTINUOUS
 62
     1
  5
252
  2
LDR
 10
468.5
 20
334.166667
 30
0.0
 41
240.0
 42
240.0
 50
270.0
210
0.0
220
0.0
230
1.0
  0
INSERT
  8
1
  6
CONTINUOUS
 62
     1
  5
253
  2
LDR
 10
538.5
 20
344.166667
 30
0.0
 41
240.0
 42
240.0
 50
90.0
210
0.0
220
0.0
230
1.0
  0
INSERT
  8
1
  6
CONTINUOUS
 62
     1
  5
254
  2
LDR
 10
538.5
 20
344.166667
 30
0.0
 41
240.0
 42
240.0
 50
90.0
210
0.0
220
0.0
230
1.0
  0
INSERT
  8
1
  6
CONTINUOUS
 62
     1
  5
255
  2
LDR
 10
538.5
 20
334.166667
 30
0.0
 41
240.0
 42
240.0
 50
270.0
210
0.0
220
0.0
230
1.0
  0
INSERT
  8
1
  6
CONTINUOUS
 62
     1
  5
256
  2
LDR
 10
538.5
 20
334.166667
 30
0.0
 41
240.0
 42
240.0
 50
270.0
210
0.0
220
0.0
230
1.0
  0
INSERT
  8
1
  6
CONTINUOUS
 62
     1
  5
257
  2
LDR
 10
550.5
 20
344.166667
 30
0.0
 41
240.0
 42
240.0
 50
90.0
210
0.0
220
0.0
230
1.0
  0
INSERT
  8
1
  6
CONTINUOUS
 62
     1
  5
258
  2
LDR
 10
550.5
 20
344.166667
 30
0.0
 41
240.0
 42
240.0
 50
90.0
210
0.0
220
0.0
230
1.0
  0
INSERT
  8
1
  6
CONTINUOUS
 62
     1
  5
259
  2
LDR
 10
550.5
 20
297.166667
 30
0.0
 41
240.0
 42
240.0
 50
270.0
210
0.0
220
0.0
230
1.0
  0
INSERT
  8
1
  6
CONTINUOUS
 62
     1
  5
25A
  2
LDR
 10
550.5
 20
297.166667
 30
0.0
 41
240.0
 42
240.0
 50
270.0
210
0.0
220
0.0
230
1.0
  0
INSERT
  8
1
  6
CONTINUOUS
 62
     1
  5
25B
  2
LDR
 10
538.75
 20
297.166667
 30
0.0
 41
240.0
 42
240.0
 50
90.0
210
0.0
220
0.0
230
1.0
  0
INSERT
  8
1
  6
CONTINUOUS
 62
     1
  5
25C
  2
LDR
 10
538.75
 20
297.166667
 30
0.0
 41
240.0
 42
240.0
 50
90.0
210
0.0
220
0.0
230
1.0
  0
INSERT
  8
1
  6
CONTINUOUS
 62
     1
  5
25D
  2
LDR
 10
538.75
 20
282.666667
 30
0.0
 41
240.0
 42
240.0
 50
270.0
210
0.0
220
0.0
230
1.0
  0
TEXT
  8
1
  6
CONTINUOUS
 62
     7
  5
25E
 10
501.735583
 20
364.75
 30
0.0
 40
2.5
  1
W
  7
MONOTXT
 72
     4
 11
502.9265
 21
366.0
 31
0.0
210
0.0
220
0.0
230
1.0
  0
TEXT
  8
1
  6
CONTINUOUS
 62
     7
  5
25F
 10
539.69425
 20
288.5
 30
0.0
 40
2.5
  1
SEE CHART FOR DEPTH
  7
MONOTXT
 72
     4
 11
562.6765
 21
289.75
 31
0.0
210
0.0
220
0.0
230
1.0
  0
TEXT
  8
1
  6
CONTINUOUS
 62
     7
  5
260
 10
467.75
 20
343.506583
 30
0.0
 40
2.5
  1
D
 50
90.0
  7
MONOTXT
 72
     4
 11
466.5
 21
344.343167
 31
0.0
210
0.0
220
0.0
230
1.0
  0
TEXT
  8
1
  6
CONTINUOUS
 62
     7
  5
261
 10
542.5
 20
336.438333
 30
0.0
 40
2.5
  1
D/2
 50
90.0
  7
MONOTXT
 72
     4
 11
541.25
 21
339.6765
 31
0.0
210
0.0
220
0.0
230
1.0
  0
TEXT
  8
1
  6
CONTINUOUS
 62
     7
  5
262
 10
554.083333
 20
318.121417
 30
0.0
 40
2.5
  1
"CP"
 50
90.0
  7
MONOTXT
 72
     4
 11
552.833333
 21
322.166667
 31
0.0
210
0.0
220
0.0
230
1.0
  0
TEXT
  8
1
  6
CONTINUOUS
 62
     7
  5
263
 10
547.833333
 20
358.416667
 30
0.0
 40
2.5
  1
- TRIPLE SUPPORTS SHALL BE USED FOR SIGNS
  7
MONOTXT
 11
547.833333
 21
360.916667
 31
0.0
210
0.0
220
0.0
230
1.0
 73
     3
  0
TEXT
  8
1
  6
CONTINUOUS
 62
     7
  5
264
 10
547.833333
 20
353.916667
 30
0.0
 40
2.5
  1
  WITH WIDTH GREATER THAN 6 FEET.
  7
MONOTXT
 11
547.833333
 21
356.416667
 31
0.0
210
0.0
220
0.0
230
1.0
 73
     3
  0
TEXT
  8
1
  6
CONTINUOUS
 62
     7
  5
265
 10
505.562333
 20
364.5
 30
0.0
 40
5.0
  1
**
  7
MONOTXT
 72
     4
 11
508.416667
 21
367.0
 31
0.0
210
0.0
220
0.0
230
1.0
  0
TEXT
  8
1
  6
CONTINUOUS
 62
     7
  5
266
 10
540.229
 20
357.333333
 30
0.0
 40
5.0
  1
**
  7
MONOTXT
 72
     4
 11
543.083333
 21
359.833333
 31
0.0
210
0.0
220
0.0
230
1.0
  0
CIRCLE
  8
1
  6
CONTINUOUS
 62
     7
  5
267
 10
421.593741
 20
198.353553
 30
0.0
 40
2.103238
210
0.0
220
0.0
230
1.0
  0
TEXT
  8
1
  6
CONTINUOUS
 62
     7
  5
268
 10
419.140083
 20
193.49825
 30
0.0
 40
7.0
  1
*
  7
txt
 72
     4
 11
421.305833
 21
196.99825
 31
0.0
210
0.0
220
0.0
230
1.0
  0
TEXT
  8
1
  6
CONTINUOUS
 62
     7
  5
269
 10
376.576083
 20
322.166667
 30
0.0
 40
2.5
  1
2.00 /FT.
  7
MONOTXT
 72
     4
 11
385.916583
 21
323.416667
 31
0.0
210
0.0
220
0.0
230
1.0
  0
TEXT
  8
1
  6
CONTINUOUS
 62
     7
  5
26A
 10
376.409417
 20
312.25
 30
0.0
 40
2.5
  1
3.00 /FT.
  7
MONOTXT
 72
     4
 11
385.749917
 21
313.5
 31
0.0
210
0.0
220
0.0
230
1.0
  0
TEXT
  8
1
  6
CONTINUOUS
 62
     7
  5
26B
 10
385.156833
 20
320.5
 30
0.0
 40
5.0
  1
#
  7
MONOTXT
 72
     4
 11
386.436333
 21
323.0
 31
0.0
210
0.0
220
0.0
230
1.0
  0
TEXT
  8
1
  6
CONTINUOUS
 62
     7
  5
26C
 10
384.990167
 20
310.5
 30
0.0
 40
5.0
  1
#
  7
MONOTXT
 72
     4
 11
386.269667
 21
313.0
 31
0.0
210
0.0
220
0.0
230
1.0
  0
TEXT
  8
1
  6
CONTINUOUS
 62
     7
  5
26D
 10
380.740167
 20
300.25
 30
0.0
 40
5.0
  1
#
  7
MONOTXT
 72
     4
 11
382.019667
 21
302.75
 31
0.0
210
0.0
220
0.0
230
1.0
  0
TEXT
  8
1
  6
CONTINUOUS
 62
     7
  5
26E
 10
380.740167
 20
290.333333
 30
0.0
 40
5.0
  1
#
  7
MONOTXT
 72
     4
 11
382.019667
 21
292.833333
 31
0.0
210
0.0
220
0.0
230
1.0
  0
TEXT
  8
1
  6
CONTINUOUS
 62
     7
  5
26F
 10
471.2815
 20
274.583333
 30
0.0
 40
2.5
  1
SEE TP3-1  FOR TYPICAL INSTALLATIONS
  7
MONOTXT
 72
     4
 11
510.759833
 21
275.833333
 31
0.0
210
0.0
220
0.0
230
1.0
  0
POLYLINE
  8
1
  6
CONTINUOUS
 62
     7
  5
270
 66
     1
 10
0.0
 20
0.0
 30
0.0
  0
VERTEX
  8
1
  6
CONTINUOUS
 62
     7
  5
271
 10
497.5
 20
107.547417
 30
0.0
  0
VERTEX
  8
1
  6
CONTINUOUS
 62
     7
  5
272
 10
495.5
 20
104.083333
 30
0.0
  0
VERTEX
  8
1
  6
CONTINUOUS
 62
     7
  5
273
 10
499.5
 20
104.083333
 30
0.0
  0
VERTEX
  8
1
  6
CONTINUOUS
 62
     7
  5
274
 10
497.5
 20
107.547417
 30
0.0
  0
SEQEND
  8
1
  6
CONTINUOUS
 62
     7
  5
275
  0
TEXT
  8
1
  6
CONTINUOUS
 62
     7
  5
276
 10
496.895917
 20
104.4585
 30
0.0
 40
1.75
  1
9
  7
MONOTXT
210
0.0
220
0.0
230
1.0
  0
TEXT
  8
1
  6
CONTINUOUS
 62
     7
  5
277
 10
500.719167
 20
104.8495
 30
0.0
 40
1.75
  1
REVISED CLEAR. NOTE
  7
MONOTXT
210
0.0
220
0.0
230
1.0
  0
POLYLINE
  8
1
  6
CONTINUOUS
 62
     7
  5
278
 66
     1
 10
0.0
 20
0.0
 30
0.0
  0
VERTEX
  8
1
  6
CONTINUOUS
 62
     7
  5
279
 10
500.5
 20
13.797417
 30
0.0
  0
VERTEX
  8
1
  6
CONTINUOUS
 62
     7
  5
27A
 10
498.5
 20
10.333333
 30
0.0
  0
VERTEX
  8
1
  6
CONTINUOUS
 62
     7
  5
27B
 10
502.5
 20
10.333333
 30
0.0
  0
VERTEX
  8
1
  6
CONTINUOUS
 62
     7
  5
27C
 10
500.5
 20
13.797417
 30
0.0
  0
SEQEND
  8
1
  6
CONTINUOUS
 62
     7
  5
27D
  0
TEXT
  8
1
  6
CONTINUOUS
 62
     7
  5
27E
 10
499.895917
 20
10.7085
 30
0.0
 40
1.75
  1
9
  7
MONOTXT
210
0.0
220
0.0
230
1.0
  0
POLYLINE
  8
1
  6
CONTINUOUS
 62
     7
  5
27F
 66
     1
 10
0.0
 20
0.0
 30
0.0
  0
VERTEX
  8
1
  6
CONTINUOUS
 62
     7
  5
280
 10
585.583333
 20
202.547417
 30
0.0
  0
VERTEX
  8
1
  6
CONTINUOUS
 62
     7
  5
281
 10
583.583333
 20
199.083333
 30
0.0
  0
VERTEX
  8
1
  6
CONTINUOUS
 62
     7
  5
282
 10
587.583333
 20
199.083333
 30
0.0
  0
VERTEX
  8
1
  6
CONTINUOUS
 62
     7
  5
283
 10
585.583333
 20
202.547417
 30
0.0
  0
SEQEND
  8
1
  6
CONTINUOUS
 62
     7
  5
284
  0
TEXT
  8
1
  6
CONTINUOUS
 62
     7
  5
285
 10
584.97925
 20
199.4585
 30
0.0
 40
1.75
  1
9
  7
MONOTXT
210
0.0
220
0.0
230
1.0
  0
TEXT
  8
1
  6
CONTINUOUS
 62
     7
  5
286
 10
425.25
 20
242.083333
 30
0.0
 40
2.5
  1
NOTES:
  7
MONOTXT
 11
425.25
 21
244.583333
 31
0.0
210
0.0
220
0.0
230
1.0
 73
     3
  0
TEXT
  8
1
  6
CONTINUOUS
 62
     7
  5
287
 10
425.25
 20
237.583333
 30
0.0
 40
2.5
  1
 
  7
MONOTXT
 11
425.25
 21
240.083333
 31
0.0
210
0.0
220
0.0
230
1.0
 73
     3
  0
TEXT
  8
1
  6
CONTINUOUS
 62
     7
  5
288
 10
425.25
 20
233.083333
 30
0.0
 40
2.5
  1
SEE SHEET TE1-7A FOR U-CHANNEL SECTIONS.
  7
MONOTXT
 11
425.25
 21
235.583333
 31
0.0
210
0.0
220
0.0
230
1.0
 73
     3
  0
TEXT
  8
1
  6
CONTINUOUS
 62
     7
  5
289
 10
425.25
 20
228.583333
 30
0.0
 40
2.5
  1
ALL SUPPORTS SHALL BE GALVANIZED IN ACCORDANCE WITH A.S.T.M. A-123.
  7
MONOTXT
 11
425.25
 21
231.083333
 31
0.0
210
0.0
220
0.0
230
1.0
 73
     3
  0
TEXT
  8
1
  6
CONTINUOUS
 62
     7
  5
28A
 10
425.25
 20
224.083333
 30
0.0
 40
2.5
  1
 
  7
MONOTXT
 11
425.25
 21
226.583333
 31
0.0
210
0.0
220
0.0
230
1.0
 73
     3
  0
TEXT
  8
1
  6
CONTINUOUS
 62
     7
  5
28B
 10
425.25
 20
219.583333
 30
0.0
 40
2.5
  1
DEPTHS DRIVEN ARE BASED ON AVERAGE SOIL CONDITIONS. DEPENDING UPON
  7
MONOTXT
 11
425.25
 21
222.083333
 31
0.0
210
0.0
220
0.0
230
1.0
 73
     3
  0
TEXT
  8
1
  6
CONTINUOUS
 62
     7
  5
28C
 10
425.25
 20
215.083333
 30
0.0
 40
2.5
  1
ACTUAL SOIL BEARING IN THE FIELD, THE ENGINEER MAY REQUIRE THAT THE
  7
MONOTXT
 11
425.25
 21
217.583333
 31
0.0
210
0.0
220
0.0
230
1.0
 73
     3
  0
TEXT
  8
1
  6
CONTINUOUS
 62
     7
  5
28D
 10
425.25
 20
210.583333
 30
0.0
 40
2.5
  1
DEPTH DRIVEN BE INCREASED TO 5 FEET. WHEN THE POST(S) ARE BEHIND
  7
MONOTXT
 11
425.25
 21
213.083333
 31
0.0
210
0.0
220
0.0
230
1.0
 73
     3
  0
TEXT
  8
1
  6
CONTINUOUS
 62
     7
  5
28E
 10
425.25
 20
206.083333
 30
0.0
 40
2.5
  1
GUARDRAIL, THE DEPTH DRIVEN MAY BE INCREASED UP TO 5 FEET.
  7
MONOTXT
 11
425.25
 21
208.583333
 31
0.0
210
0.0
220
0.0
230
1.0
 73
     3
  0
TEXT
  8
1
  6
CONTINUOUS
 62
     7
  5
28F
 10
425.25
 20
201.583333
 30
0.0
 40
2.5
  1
 
  7
MONOTXT
 11
425.25
 21
204.083333
 31
0.0
210
0.0
220
0.0
230
1.0
 73
     3
  0
TEXT
  8
1
  6
CONTINUOUS
 62
     7
  5
290
 10
425.25
 20
197.083333
 30
0.0
 40
2.5
  1
CAN BE USED IF THE SUPPORTS ARE LOCATED OUTSIDE OF THE CLEAR ZONE
  7
MONOTXT
 11
425.25
 21
199.583333
 31
0.0
210
0.0
220
0.0
230
1.0
 73
     3
  0
TEXT
  8
1
  6
CONTINUOUS
 62
     7
  5
291
 10
425.25
 20
192.583333
 30
0.0
 40
2.5
  1
AS DEFINED IN TABLES 3.1 AND 3.2 OF THE "ROADSIDE DESIGN GUIDE". IF
  7
MONOTXT
 11
425.25
 21
195.083333
 31
0.0
210
0.0
220
0.0
230
1.0
 73
     3
  0
TEXT
  8
1
  6
CONTINUOUS
 62
     7
  5
292
 10
425.25
 20
188.083333
 30
0.0
 40
2.5
  1
USED INSIDE OF THE CLEAR ZONE, THE SUPPORTS MUST BE EITHER BEHIND
  7
MONOTXT
 11
425.25
 21
190.583333
 31
0.0
210
0.0
220
0.0
230
1.0
 73
     3
  0
TEXT
  8
1
  6
CONTINUOUS
 62
     7
  5
293
 10
425.25
 20
183.583333
 30
0.0
 40
2.5
  1
GUARDRAIL, BARRIER CURB, OR THE ROADWAY OPERATING SPEED MUST
  7
MONOTXT
 11
425.25
 21
186.083333
 31
0.0
210
0.0
220
0.0
230
1.0
 73
     3
  0
TEXT
  8
1
  6
CONTINUOUS
 62
     7
  5
294
 10
425.25
 20
179.083333
 30
0.0
 40
2.5
  1
BE LESS THAN 35 MPH.
  7
MONOTXT
 11
425.25
 21
181.583333
 31
0.0
210
0.0
220
0.0
230
1.0
 73
     3
  0
ENDSEC
  0
EOF
