  0
SECTION
  2
HEADER
  9
$ACADVER
  1
AC1009
  9
$INSBASE
 10
0.0
 20
0.0
 30
0.0
  9
$EXTMIN
 10
-77.025083
 20
-46.776167
 30
0.0
  9
$EXTMAX
 10
603.054917
 20
393.263833
 30
0.0
  9
$LIMMIN
 10
0.0
 20
0.0
  9
$LIMMAX
 10
12.0
 20
9.0
  9
$ORTHOMODE
 70
     0
  9
$REGENMODE
 70
     1
  9
$FILLMODE
 70
     1
  9
$QTEXTMODE
 70
     0
  9
$MIRRTEXT
 70
     1
  9
$DRAGMODE
 70
     2
  9
$LTSCALE
 40
1.0
  9
$OSMODE
 70
     0
  9
$ATTMODE
 70
     1
  9
$TEXTSIZE
 40
0.2
  9
$TRACEWID
 40
0.05
  9
$TEXTSTYLE
  7
STANDARD
  9
$CLAYER
  8
0
  9
$CELTYPE
  6
CONTINUOUS
  9
$CECOLOR
 62
   256
  9
$DIMSCALE
 40
1.0
  9
$DIMASZ
 40
0.18
  9
$DIMEXO
 40
0.0625
  9
$DIMDLI
 40
0.38
  9
$DIMRND
 40
0.0
  9
$DIMDLE
 40
0.0
  9
$DIMEXE
 40
0.18
  9
$DIMTP
 40
0.0
  9
$DIMTM
 40
0.0
  9
$DIMTXT
 40
0.18
  9
$DIMCEN
 40
0.09
  9
$DIMTSZ
 40
0.0
  9
$DIMTOL
 70
     0
  9
$DIMLIM
 70
     0
  9
$DIMTIH
 70
     1
  9
$DIMTOH
 70
     1
  9
$DIMSE1
 70
     0
  9
$DIMSE2
 70
     0
  9
$DIMTAD
 70
     0
  9
$DIMZIN
 70
     0
  9
$DIMBLK
  1

  9
$DIMASO
 70
     1
  9
$DIMSHO
 70
     1
  9
$DIMPOST
  1

  9
$DIMAPOST
  1

  9
$DIMALT
 70
     0
  9
$DIMALTD
 70
     2
  9
$DIMALTF
 40
25.4
  9
$DIMLFAC
 40
1.0
  9
$DIMTOFL
 70
     0
  9
$DIMTVP
 40
0.0
  9
$DIMTIX
 70
     0
  9
$DIMSOXD
 70
     0
  9
$DIMSAH
 70
     0
  9
$DIMBLK1
  1

  9
$DIMBLK2
  1

  9
$DIMSTYLE
  2
STANDARD
  9
$DIMCLRD
 70
     0
  9
$DIMCLRE
 70
     0
  9
$DIMCLRT
 70
     0
  9
$DIMTFAC
 40
1.0
  9
$DIMGAP
 40
0.09
  9
$LUNITS
 70
     2
  9
$LUPREC
 70
     4
  9
$AXISMODE
 70
     0
  9
$AXISUNIT
 10
0.0
 20
0.0
  9
$SKETCHINC
 40
0.1
  9
$FILLETRAD
 40
0.0
  9
$AUNITS
 70
     0
  9
$AUPREC
 70
     0
  9
$MENU
  1
acad
  9
$ELEVATION
 40
0.0
  9
$PELEVATION
 40
0.0
  9
$THICKNESS
 40
0.0
  9
$LIMCHECK
 70
     0
  9
$BLIPMODE
 70
     1
  9
$CHAMFERA
 40
0.0
  9
$CHAMFERB
 40
0.0
  9
$SKPOLY
 70
     0
  9
$TDCREATE
 40
2451803.401678241
  9
$TDUPDATE
 40
2451803.401678241
  9
$TDINDWG
 40
0.0000000000
  9
$TDUSRTIMER
 40
0.0000000000
  9
$USRTIMER
 70
     1
  9
$ANGBASE
 50
0.0
  9
$ANGDIR
 70
     0
  9
$PDMODE
 70
     0
  9
$PDSIZE
 40
0.0
  9
$PLINEWID
 40
0.0
  9
$COORDS
 70
     0
  9
$SPLFRAME
 70
     0
  9
$SPLINETYPE
 70
     6
  9
$SPLINESEGS
 70
    10
  9
$ATTDIA
 70
     0
  9
$ATTREQ
 70
     1
  9
$HANDLING
 70
     1
  9
$HANDSEED
  5
5F7
  9
$SURFTAB1
 70
     6
  9
$SURFTAB2
 70
     6
  9
$SURFTYPE
 70
     6
  9
$SURFU
 70
     6
  9
$SURFV
 70
     6
  9
$UCSNAME
  2

  9
$UCSORG
 10
0.0
 20
0.0
 30
0.0
  9
$UCSXDIR
 10
1.0
 20
0.0
 30
0.0
  9
$UCSYDIR
 10
0.0
 20
1.0
 30
0.0
  9
$PUCSNAME
  2

  9
$PUCSORG
 10
0.0
 20
0.0
 30
0.0
  9
$PUCSXDIR
 10
1.0
 20
0.0
 30
0.0
  9
$PUCSYDIR
 10
0.0
 20
1.0
 30
0.0
  9
$USERI1
 70
     0
  9
$USERI2
 70
     0
  9
$USERI3
 70
     0
  9
$USERI4
 70
     0
  9
$USERI5
 70
     0
  9
$USERR1
 40
0.0
  9
$USERR2
 40
0.0
  9
$USERR3
 40
0.0
  9
$USERR4
 40
0.0
  9
$USERR5
 40
0.0
  9
$WORLDVIEW
 70
     1
  9
$SHADEDGE
 70
     3
  9
$SHADEDIF
 70
    70
  9
$TILEMODE
 70
     1
  9
$MAXACTVP
 70
    16
  9
$PINSBASE
 10
0.0
 20
0.0
 30
0.0
  9
$PLIMCHECK
 70
     0
  9
$PEXTMIN
 10
-1.000000E+20
 20
-1.000000E+20
 30
-1.000000E+20
  9
$PEXTMAX
 10
-1.000000E+20
 20
-1.000000E+20
 30
-1.000000E+20
  9
$PLIMMIN
 10
0.0
 20
0.0
  9
$PLIMMAX
 10
12.0
 20
9.0
  9
$UNITMODE
 70
     0
  9
$VISRETAIN
 70
     0
  9
$PLINEGEN
 70
     1
  9
$PSLTSCALE
 70
     0
  9
$TREEDEPTH
 70
  3020
  9
$DWGCODEPAGE
  3
ansi_1252
  0
ENDSEC
  0
SECTION
  2
TABLES
  0
TABLE
  2
VPORT
 70
     1
  0
VPORT
  2
*ACTIVE
 70
     0
 10
0.0
 20
0.0
 11
1.0
 21
1.0
 12
0.0
 22
0.0
 13
0.0
 23
0.0
 14
0.0
 24
0.0
 15
0.0
 25
0.0
 16
0.0
 26
0.0
 36
1.0
 17
262.425296
 27
173.243833
 37
0.0
 40
451.041
 41
1.790754
 42
50.0
 43
0.0
 44
0.0
 50
0.0
 51
0.0
 71
     0
 72
   100
 73
     1
 74
     0
 75
     0
 76
     0
 77
     0
 78
     0
  0
ENDTAB
  0
TABLE
  2
LTYPE
 70
     7
  0
LTYPE
  2
CONTINUOUS
 70
     0
  3
Solid line
 72
    65
 73
     0
 40
0.0
  0
LTYPE
  2
DOT
 70
    64
  3
. . . . . . . . . . . . . . . . . . . . . . . . . . . . . . . . .
 72
    65
 73
     2
 40
0.25
 49
0.0
 49
-0.25
  0
LTYPE
  2
HIDDEN
 70
    64
  3
__ __ __ __ __ __ __ __ __ __ __ __ __ __ __ __ __ __ __ __ __ 
 72
    65
 73
     2
 40
0.375
 49
0.25
 49
-0.125
  0
LTYPE
  2
DASHED
 70
    64
  3
__ __ __ __ __ __ __ __ __ __ __ __ __ __ __ __ __ __ __ __ __
 72
    65
 73
     2
 40
0.75
 49
0.5
 49
-0.25
  0
LTYPE
  2
DASHDOT
 70
    64
  3
__ . __ . __ . __ . __ . __ . __ . __ . __ . __ . __ . __ . _
 72
    65
 73
     4
 40
1.0
 49
0.5
 49
-0.25
 49
0.0
 49
-0.25
  0
LTYPE
  2
DIVIDE
 70
    64
  3
____ . . ____ . . ____ . . ____ . . ____ . . ____ . . ____ . .
 72
    65
 73
     6
 40
1.25
 49
0.5
 49
-0.25
 49
0.0
 49
-0.25
 49
0.0
 49
-0.25
  0
LTYPE
  2
CENTER
 70
    64
  3
____ _ ____ _ ____ _ ____ _ ____ _ ____ _ ____ _ ____ _ ____ _
 72
    65
 73
     4
 40
2.0
 49
1.25
 49
-0.25
 49
0.25
 49
-0.25
  0
ENDTAB
  0
TABLE
  2
LAYER
 70
     5
  0
LAYER
  2
0
 70
     0
 62
     7
  6
CONTINUOUS
  0
LAYER
  2
CONSTRUCTION_CLASS
 70
     0
 62
     7
  6
CONTINUOUS
  0
LAYER
  2
PATTERN_CLASS
 70
     0
 62
     7
  6
CONTINUOUS
  0
LAYER
  2
61
 70
    64
 62
     7
  6
CONTINUOUS
  0
LAYER
  2
1
 70
    64
 62
     7
  6
CONTINUOUS
  0
ENDTAB
  0
TABLE
  2
STYLE
 70
     4
  0
STYLE
  2
STANDARD
 70
     0
 40
0.0
 41
1.0
 50
0.0
 71
     0
 42
0.0
  3
txt
  4

  0
STYLE
  2
MONOTXT
 70
     0
 40
0.2
 41
1.0
 50
0.0
 71
     0
 42
0.2
  3
MONOTXT
  4

  0
STYLE
  2
txt
 70
     0
 40
0.2
 41
1.0
 50
0.0
 71
     0
 42
0.2
  3
TXT
  4

  0
STYLE
  2
ROMANT
 70
     0
 40
0.2
 41
1.0
 50
0.0
 71
     0
 42
0.2
  3
ROMANT
  4

  0
ENDTAB
  0
TABLE
  2
VIEW
 70
     0
  0
ENDTAB
  0
TABLE
  2
UCS
 70
     0
  0
ENDTAB
  0
TABLE
  2
APPID
 70
     1
  0
APPID
  2
ACAD
 70
     0
  0
ENDTAB
  0
TABLE
  2
DIMSTYLE
 70
     1
  0
DIMSTYLE
  2
STANDARD
 70
     0
  3

  4

  5

  6

  7

 40
1.0
 41
0.18
 42
0.0625
 43
0.38
 44
0.18
 45
0.0
 46
0.0
 47
0.0
 48
0.0
140
0.18
141
0.09
142
0.0
143
25.4
144
1.0
145
0.0
146
1.0
147
0.09
 71
     0
 72
     0
 73
     1
 74
     1
 75
     0
 76
     0
 77
     0
 78
     0
170
     0
171
     2
172
     0
173
     0
174
     0
175
     0
176
     0
177
     0
178
     0
  0
ENDTAB
  0
ENDSEC
  0
SECTION
  2
BLOCKS
  0
BLOCK
  8
1
  6
CONTINUOUS
 62
     1
  5
23F
  2
LDR
 70
     0
 10
0.0
 20
0.0
 30
0.0
  3
LNR
  0
POLYLINE
  8
1
  6
CONTINUOUS
 62
     1
  5
240
 66
     1
 10
0.0
 20
0.0
 30
0.0
210
0.0
220
0.0
230
1.0
  0
VERTEX
  8
1
  6
CONTINUOUS
 62
     1
  5
241
 10
-0.011987
 20
-0.001802
 30
0.0
 42
-0.265147
  0
VERTEX
  8
1
  6
CONTINUOUS
 62
     1
  5
242
 10
-0.011849
 20
-0.001604
 30
0.0
 42
-0.064653
  0
VERTEX
  8
1
  6
CONTINUOUS
 62
     1
  5
243
 10
-0.011407
 20
-0.001387
 30
0.0
 42
-0.025822
  0
VERTEX
  8
1
  6
CONTINUOUS
 62
     1
  5
244
 10
-0.010681
 20
-0.00116
 30
0.0
 42
-0.014504
  0
VERTEX
  8
1
  6
CONTINUOUS
 62
     1
  5
245
 10
-0.0097
 20
-0.000933
 30
0.0
 42
-0.009896
  0
VERTEX
  8
1
  6
CONTINUOUS
 62
     1
  5
246
 10
-0.008505
 20
-0.000715
 30
0.0
 42
-0.007708
  0
VERTEX
  8
1
  6
CONTINUOUS
 62
     1
  5
247
 10
-0.007146
 20
-0.000515
 30
0.0
 42
-0.006655
  0
VERTEX
  8
1
  6
CONTINUOUS
 62
     1
  5
248
 10
-0.005679
 20
-0.000342
 30
0.0
 42
-0.006278
  0
VERTEX
  8
1
  6
CONTINUOUS
 62
     1
  5
249
 10
-0.004164
 20
-0.000202
 30
0.0
 42
-0.006439
  0
VERTEX
  8
1
  6
CONTINUOUS
 62
     1
  5
24A
 10
-0.002666
 20
-0.000101
 30
0.0
 42
-0.007196
  0
VERTEX
  8
1
  6
CONTINUOUS
 62
     1
  5
24B
 10
-0.001246
 20
-0.000044
 30
0.0
 42
-0.008852
  0
VERTEX
  8
1
  6
CONTINUOUS
 62
     1
  5
24C
 10
0.000037
 20
-0.000034
 30
0.0
 42
-0.008852
  0
SEQEND
  8
1
  6
CONTINUOUS
 62
     1
  5
24D
  0
POLYLINE
  8
1
  6
CONTINUOUS
 62
     1
  5
24E
 66
     1
 10
0.0
 20
0.0
 30
0.0
210
0.0
220
0.0
230
1.0
  0
VERTEX
  8
1
  6
CONTINUOUS
 62
     1
  5
24F
 10
0.000039
 20
0.000014
 30
0.0
 42
-0.005019
  0
VERTEX
  8
1
  6
CONTINUOUS
 62
     1
  5
250
 10
-0.001103
 20
0.000071
 30
0.0
 42
-0.004038
  0
VERTEX
  8
1
  6
CONTINUOUS
 62
     1
  5
251
 10
-0.002373
 20
0.000158
 30
0.0
 42
-0.003548
  0
VERTEX
  8
1
  6
CONTINUOUS
 62
     1
  5
252
 10
-0.003725
 20
0.00027
 30
0.0
 42
-0.003367
  0
VERTEX
  8
1
  6
CONTINUOUS
 62
     1
  5
253
 10
-0.005111
 20
0.000405
 30
0.0
 42
-0.003436
  0
VERTEX
  8
1
  6
CONTINUOUS
 62
     1
  5
254
 10
-0.006481
 20
0.000556
 30
0.0
 42
-0.003778
  0
VERTEX
  8
1
  6
CONTINUOUS
 62
     1
  5
255
 10
-0.007786
 20
0.00072
 30
0.0
 42
-0.00451
  0
VERTEX
  8
1
  6
CONTINUOUS
 62
     1
  5
256
 10
-0.008979
 20
0.000889
 30
0.0
 42
-0.00594
  0
VERTEX
  8
1
  6
CONTINUOUS
 62
     1
  5
257
 10
-0.010018
 20
0.001058
 30
0.0
 42
-0.008921
  0
VERTEX
  8
1
  6
CONTINUOUS
 62
     1
  5
258
 10
-0.010864
 20
0.00122
 30
0.0
 42
-0.016392
  0
VERTEX
  8
1
  6
CONTINUOUS
 62
     1
  5
259
 10
-0.011488
 20
0.001371
 30
0.0
 42
-0.04458
  0
VERTEX
  8
1
  6
CONTINUOUS
 62
     1
  5
25A
 10
-0.011867
 20
0.001503
 30
0.0
 42
-0.317392
  0
VERTEX
  8
1
  6
CONTINUOUS
 62
     1
  5
25B
 10
-0.011987
 20
0.001614
 30
0.0
 42
-0.317392
  0
SEQEND
  8
1
  6
CONTINUOUS
 62
     1
  5
25C
  0
ENDBLK
  8
1
  6
CONTINUOUS
 62
     1
  5
25D
  0
ENDSEC
  0
SECTION
  2
ENTITIES
  0
LINE
  8
61
  6
CONTINUOUS
 62
     1
  5
29
 10
592.074917
 20
383.263833
 30
0.0
 11
-46.965083
 21
383.263833
 31
0.0
  0
LINE
  8
61
  6
CONTINUOUS
 62
     1
  5
2A
 10
-46.965083
 20
383.263833
 30
0.0
 11
-46.965083
 21
-36.756167
 31
0.0
  0
LINE
  8
61
  6
CONTINUOUS
 62
     1
  5
2B
 10
592.094917
 20
-36.776167
 30
0.0
 11
-46.965083
 21
-36.756167
 31
0.0
  0
LINE
  8
61
  6
CONTINUOUS
 62
     1
  5
2C
 10
592.074917
 20
383.263833
 30
0.0
 11
592.094917
 21
-36.776167
 31
0.0
  0
LINE
  8
61
  6
CONTINUOUS
 62
     7
  5
2D
 10
585.974917
 20
378.523833
 30
0.0
 11
477.994917
 21
378.503833
 31
0.0
  0
LINE
  8
61
  6
CONTINUOUS
 62
     7
  5
2E
 10
477.994917
 20
378.503833
 30
0.0
 11
477.994917
 21
358.503833
 31
0.0
  0
LINE
  8
61
  6
CONTINUOUS
 62
     7
  5
2F
 10
585.974917
 20
378.523833
 30
0.0
 11
585.974917
 21
358.523833
 31
0.0
  0
LINE
  8
61
  6
CONTINUOUS
 62
     7
  5
30
 10
585.974917
 20
358.523833
 30
0.0
 11
477.994917
 21
358.503833
 31
0.0
  0
LINE
  8
61
  6
CONTINUOUS
 62
     7
  5
31
 10
585.994917
 20
368.483833
 30
0.0
 11
477.974917
 21
368.503833
 31
0.0
  0
LINE
  8
61
  6
CONTINUOUS
 62
     7
  5
32
 10
487.994917
 20
378.503833
 30
0.0
 11
487.994917
 21
358.503833
 31
0.0
  0
LINE
  8
61
  6
CONTINUOUS
 62
     7
  5
33
 10
497.994917
 20
378.503833
 30
0.0
 11
497.994917
 21
358.503833
 31
0.0
  0
LINE
  8
61
  6
CONTINUOUS
 62
     7
  5
34
 10
511.674917
 20
378.503833
 30
0.0
 11
511.674917
 21
358.503833
 31
0.0
  0
LINE
  8
61
  6
CONTINUOUS
 62
     7
  5
35
 10
575.974917
 20
378.523833
 30
0.0
 11
575.974917
 21
358.523833
 31
0.0
  0
LINE
  8
61
  6
CONTINUOUS
 62
     7
  5
36
 10
565.974917
 20
378.523833
 30
0.0
 11
565.974917
 21
358.523833
 31
0.0
  0
LINE
  8
61
  6
CONTINUOUS
 62
     7
  5
37
 10
543.994917
 20
378.503833
 30
0.0
 11
543.994917
 21
358.503833
 31
0.0
  0
LINE
  8
61
  6
CONTINUOUS
 62
     7
  5
38
 10
533.994917
 20
378.503833
 30
0.0
 11
533.994917
 21
358.503833
 31
0.0
  0
TEXT
  8
61
  6
CONTINUOUS
 62
     7
  5
3A
 10
480.034917
 20
375.483833
 30
0.0
 40
1.20075
  1
PUBLIC
 50
0.033272
 41
1.001804
  7
MONOTXT
210
0.0
220
0.0
230
1.0
  0
TEXT
  8
61
  6
CONTINUOUS
 62
     7
  5
3B
 10
480.114917
 20
372.963833
 30
0.0
 40
1.20075
  1
ROADS
 50
0.124322
 41
0.996877
  7
MONOTXT
210
0.0
220
0.0
230
1.0
  0
TEXT
  8
61
  6
CONTINUOUS
 62
     7
  5
3C
 10
481.314917
 20
370.463833
 30
0.0
 40
1.20075
  1
DIV.
 50
359.931522
 41
0.994864
  7
MONOTXT
210
0.0
220
0.0
230
1.0
  0
TEXT
  8
61
  6
CONTINUOUS
 62
     7
  5
3D
 10
490.194917
 20
375.543833
 30
0.0
 40
1.20075
  1
STATE
 50
0.058969
 41
0.998196
  7
MONOTXT
210
0.0
220
0.0
230
1.0
  0
TEXT
  8
61
  6
CONTINUOUS
 62
     7
  5
3E
 10
491.074917
 20
373.043833
 30
0.0
 40
1.20075
  1
DIST.
 50
0.055889
 41
0.999584
  7
MONOTXT
210
0.0
220
0.0
230
1.0
  0
TEXT
  8
61
  6
CONTINUOUS
 62
     7
  5
3F
 10
491.654917
 20
370.523833
 30
0.0
 40
1.20075
  1
NO.
 50
359.852072
 41
0.997779
  7
MONOTXT
210
0.0
220
0.0
230
1.0
  0
TEXT
  8
61
  6
CONTINUOUS
 62
     7
  5
40
 10
502.194917
 20
375.483833
 30
0.0
 40
1.20075
  1
STATE
 50
0.058969
 41
0.998196
  7
MONOTXT
210
0.0
220
0.0
230
1.0
  0
TEXT
  8
61
  6
CONTINUOUS
 62
     7
  5
41
 10
501.114917
 20
373.063833
 30
0.0
 40
1.20075
  1
PROJECT
 50
359.908431
 41
1.000069
  7
MONOTXT
210
0.0
220
0.0
230
1.0
  0
TEXT
  8
61
  6
CONTINUOUS
 62
     7
  5
42
 10
503.854917
 20
370.523833
 30
0.0
 40
1.20075
  1
NO.
 50
0.225453
 41
0.993546
  7
MONOTXT
210
0.0
220
0.0
230
1.0
  0
TEXT
  8
61
  6
CONTINUOUS
 62
     7
  5
43
 10
519.494917
 20
374.363833
 30
0.0
 40
1.20075
  1
FEDERAL
 50
0.006714
 41
0.998543
  7
MONOTXT
210
0.0
220
0.0
230
1.0
  0
TEXT
  8
61
  6
CONTINUOUS
 62
     7
  5
44
 10
517.954917
 20
371.703833
 30
0.0
 40
1.20075
  1
PROJECT NO.
 50
359.921531
 41
1.000694
  7
MONOTXT
210
0.0
220
0.0
230
1.0
  0
TEXT
  8
61
  6
CONTINUOUS
 62
     7
  5
45
 10
536.234917
 20
374.303833
 30
0.0
 40
1.20075
  1
FISCAL
 50
359.941939
 41
0.998959
  7
MONOTXT
210
0.0
220
0.0
230
1.0
  0
TEXT
  8
61
  6
CONTINUOUS
 62
     7
  5
46
 10
536.754917
 20
371.403833
 30
0.0
 40
1.20075
  1
YEAR
 50
0.104606
 41
0.993268
  7
MONOTXT
210
0.0
220
0.0
230
1.0
  0
TEXT
  8
61
  6
CONTINUOUS
 62
     7
  5
47
 10
550.854917
 20
372.763833
 30
0.0
 40
1.20075
  1
COUNTY
 50
0.068575
 41
1.001874
  7
MONOTXT
210
0.0
220
0.0
230
1.0
  0
TEXT
  8
61
  6
CONTINUOUS
 62
     7
  5
48
 10
568.494917
 20
374.423833
 30
0.0
 40
1.20075
  1
SHEET
 50
0.058969
 41
0.997571
  7
MONOTXT
210
0.0
220
0.0
230
1.0
  0
TEXT
  8
61
  6
CONTINUOUS
 62
     7
  5
49
 10
569.914917
 20
371.703833
 30
0.0
 40
1.20075
  1
NO.
 50
359.852072
 41
0.997779
  7
MONOTXT
210
0.0
220
0.0
230
1.0
  0
TEXT
  8
61
  6
CONTINUOUS
 62
     7
  5
4A
 10
578.234917
 20
374.283833
 30
0.0
 40
1.20075
  1
TOTAL
 50
359.926039
 41
0.998543
  7
MONOTXT
210
0.0
220
0.0
230
1.0
  0
TEXT
  8
61
  6
CONTINUOUS
 62
     7
  5
4B
 10
577.774917
 20
371.583833
 30
0.0
 40
1.20075
  1
SHEETS
 50
359.958675
  7
MONOTXT
210
0.0
220
0.0
230
1.0
  0
TEXT
  8
61
  6
CONTINUOUS
 62
     7
  5
4C
 10
490.594917
 20
362.703833
 30
0.0
 40
2.401333
  1
  
 50
0.029406
 41
0.996495
  7
MONOTXT
210
0.0
220
0.0
230
1.0
  0
TEXT
  8
61
  6
CONTINUOUS
 62
     7
  5
4D
 10
567.774917
 20
362.423833
 30
0.0
 40
2.401333
  1
   
 50
0.011508
 41
1.001006
  7
MONOTXT
210
0.0
220
0.0
230
1.0
  0
TEXT
  8
61
  6
CONTINUOUS
 62
     7
  5
4E
 10
577.654917
 20
362.403833
 30
0.0
 40
2.401333
  1
   
 50
359.922128
 41
1.000555
  7
MONOTXT
210
0.0
220
0.0
230
1.0
  0
TEXT
  8
61
  6
CONTINUOUS
 62
     7
  5
4F
 10
501.034917
 20
365.803833
 30
0.0
 40
2.00675
  1
    
 50
0.054383
 41
0.993729
  7
MONOTXT
210
0.0
220
0.0
230
1.0
  0
TEXT
  8
61
  6
CONTINUOUS
 62
     7
  5
50
 10
498.114917
 20
362.783833
 30
0.0
 40
1.989583
  1
       
 50
0.064678
 41
1.000963
  7
MONOTXT
210
0.0
220
0.0
230
1.0
  0
TEXT
  8
61
  6
CONTINUOUS
 62
     7
  5
51
 10
499.074917
 20
359.883833
 30
0.0
 40
1.989583
  1
      
 50
359.958053
 41
1.000293
  7
MONOTXT
210
0.0
220
0.0
230
1.0
  0
TEXT
  8
61
  6
CONTINUOUS
 62
     7
  5
52
 10
510.034917
 20
364.523833
 30
0.0
 40
2.401333
  1
           
 50
0.011508
 41
0.998751
  7
MONOTXT
210
0.0
220
0.0
230
1.0
  0
TEXT
  8
61
  6
CONTINUOUS
 62
     7
  5
53
 10
509.914917
 20
360.863833
 30
0.0
 40
2.401333
  1
           
 50
0.011508
 41
0.999584
  7
MONOTXT
210
0.0
220
0.0
230
1.0
  0
TEXT
  8
61
  6
CONTINUOUS
 62
     7
  5
54
 10
545.254917
 20
362.603833
 30
0.0
 40
2.00675
  1
          
 50
0.009222
 41
0.992774
  7
MONOTXT
210
0.0
220
0.0
230
1.0
  0
ARC
  8
61
  6
CONTINUOUS
 62
     3
  5
55
 10
-65.267327
 20
294.505128
 30
0.0
 40
2.499998
 50
323.130094
 51
316.232156
210
0.0
220
0.0
230
1.0
  0
ARC
  8
61
  6
CONTINUOUS
 62
     3
  5
56
 10
-65.267327
 20
239.505128
 30
0.0
 40
2.499998
 50
323.130094
 51
315.375767
210
0.0
220
0.0
230
1.0
  0
ARC
  8
61
  6
CONTINUOUS
 62
     3
  5
57
 10
-65.547327
 20
91.065128
 30
0.0
 40
2.499998
 50
322.671753
 51
321.716147
210
0.0
220
0.0
230
1.0
  0
ARC
  8
61
  6
CONTINUOUS
 62
     3
  5
58
 10
-65.547327
 20
36.065128
 30
0.0
 40
2.499998
 50
323.130094
 51
312.314392
210
0.0
220
0.0
230
1.0
  0
LINE
  8
61
  6
CONTINUOUS
 62
     2
  5
59
 10
-63.245083
 20
294.503833
 30
0.0
 11
-55.265083
 21
294.523833
 31
0.0
  0
LINE
  8
61
  6
CONTINUOUS
 62
     2
  5
5A
 10
-63.265083
 20
239.503833
 30
0.0
 11
-55.265083
 21
239.503833
 31
0.0
  0
LINE
  8
61
  6
CONTINUOUS
 62
     2
  5
5B
 10
-63.545083
 20
91.083833
 30
0.0
 11
-55.545083
 21
91.083833
 31
0.0
  0
LINE
  8
61
  6
CONTINUOUS
 62
     2
  5
5C
 10
-63.525083
 20
36.063833
 30
0.0
 11
-55.545083
 21
36.063833
 31
0.0
  0
LINE
  8
61
  6
DASHED
 62
     1
  5
5D
 10
-76.965083
 20
393.263833
 30
0.0
 11
603.054917
 21
393.263833
 31
0.0
  0
LINE
  8
61
  6
DASHED
 62
     1
  5
5E
 10
603.034917
 20
-46.756167
 30
0.0
 11
-77.025083
 21
-46.776167
 31
0.0
  0
TEXT
  8
61
  6
CONTINUOUS
 62
     7
  5
5F
 10
578.874917
 20
338.603833
 30
0.0
 40
2.401333
  1
     
 41
1.001388
  7
MONOTXT
210
0.0
220
0.0
230
1.0
  0
LINE
  8
1
  6
HIDDEN
 62
     1
  5
61
 10
603.054917
 20
393.263833
 30
0.0
 11
603.034917
 21
-46.756167
 31
0.0
  0
LINE
  8
1
  6
HIDDEN
 62
     1
  5
62
 10
-76.965083
 20
393.263833
 30
0.0
 11
-77.025083
 21
-46.776167
 31
0.0
  0
TEXT
  8
1
  6
CONTINUOUS
 62
     1
  5
64
 10
557.814917
 20
-39.276167
 30
0.0
 40
1.2
  1
TRAFFIC ENGINEERING DIVISION
  7
txt
210
0.0
220
0.0
230
1.0
  0
LINE
  8
1
  6
CONTINUOUS
 62
     7
  5
65
 10
420.434917
 20
-36.776167
 30
0.0
 11
420.434917
 21
54.803833
 31
0.0
  0
LINE
  8
1
  6
CONTINUOUS
 62
     7
  5
66
 10
420.434917
 20
54.803833
 30
0.0
 11
592.094917
 21
54.803833
 31
0.0
  0
LINE
  8
1
  6
CONTINUOUS
 62
     7
  5
67
 10
455.434917
 20
-36.816167
 30
0.0
 11
455.434917
 21
8.143833
 31
0.0
  0
LINE
  8
1
  6
CONTINUOUS
 62
     7
  5
68
 10
455.434917
 20
8.143833
 30
0.0
 11
420.454917
 21
8.143833
 31
0.0
  0
LINE
  8
1
  6
CONTINUOUS
 62
     7
  5
69
 10
455.434917
 20
3.663833
 30
0.0
 11
420.454917
 21
3.663833
 31
0.0
  0
LINE
  8
1
  6
CONTINUOUS
 62
     7
  5
6A
 10
455.434917
 20
-0.836167
 30
0.0
 11
420.454917
 21
-0.836167
 31
0.0
  0
LINE
  8
1
  6
CONTINUOUS
 62
     7
  5
6B
 10
455.434917
 20
-5.336167
 30
0.0
 11
420.454917
 21
-5.336167
 31
0.0
  0
LINE
  8
1
  6
CONTINUOUS
 62
     7
  5
6C
 10
455.434917
 20
-9.856167
 30
0.0
 11
420.454917
 21
-9.856167
 31
0.0
  0
LINE
  8
1
  6
CONTINUOUS
 62
     7
  5
6D
 10
455.434917
 20
-14.336167
 30
0.0
 11
420.454917
 21
-14.336167
 31
0.0
  0
LINE
  8
1
  6
CONTINUOUS
 62
     7
  5
6E
 10
455.434917
 20
-18.816167
 30
0.0
 11
420.454917
 21
-18.816167
 31
0.0
  0
LINE
  8
1
  6
CONTINUOUS
 62
     7
  5
6F
 10
455.434917
 20
-23.316167
 30
0.0
 11
420.454917
 21
-23.316167
 31
0.0
  0
LINE
  8
1
  6
CONTINUOUS
 62
     7
  5
70
 10
455.434917
 20
-27.816167
 30
0.0
 11
420.454917
 21
-27.816167
 31
0.0
  0
LINE
  8
1
  6
CONTINUOUS
 62
     7
  5
71
 10
455.434917
 20
-32.336167
 30
0.0
 11
420.454917
 21
-32.336167
 31
0.0
  0
TEXT
  8
1
  6
CONTINUOUS
 62
     7
  5
72
 10
430.714917
 20
5.143833
 30
0.0
 40
1.99775
  1
REVISIONS
  7
MONOTXT
210
0.0
220
0.0
230
1.0
  0
TEXT
  8
1
  6
CONTINUOUS
 62
     7
  5
73
 10
422.394917
 20
9.143833
 30
0.0
 40
1.99775
  1
PREPARED:   /  /  
  7
MONOTXT
210
0.0
220
0.0
230
1.0
  0
TEXT
  8
1
  6
CONTINUOUS
 62
     7
  5
75
 10
453.054917
 20
46.203833
 30
0.0
 40
4.794833
  1
WEST VIRGINIA DIVISION OF HIGHWAYS
  7
ROMANT
 72
     1
 11
507.025167
 21
50.998667
 31
0.0
210
0.0
220
0.0
230
1.0
 73
     3
  0
TEXT
  8
1
  6
CONTINUOUS
 62
     1
  5
76
 10
430.160083
 20
0.083833
 30
0.0
 40
2.0
  1
07-22-76
  7
MONOTXT
 72
     1
 11
437.412167
 21
2.083833
 31
0.0
210
0.0
220
0.0
230
1.0
 73
     3
  0
TEXT
  8
1
  6
CONTINUOUS
 62
     1
  5
77
 10
430.518083
 20
-4.316167
 30
0.0
 40
2.0
  1
02-15-77
  7
MONOTXT
 72
     1
 11
437.384333
 21
-2.316167
 31
0.0
210
0.0
220
0.0
230
1.0
 73
     3
  0
TEXT
  8
1
  6
CONTINUOUS
 62
     1
  5
78
 10
430.553833
 20
-8.716167
 30
0.0
 40
2.0
  1
05-12-78
  7
MONOTXT
 72
     1
 11
437.412167
 21
-6.716167
 31
0.0
210
0.0
220
0.0
230
1.0
 73
     3
  0
TEXT
  8
1
  6
CONTINUOUS
 62
     1
  5
79
 10
430.238833
 20
-13.116167
 30
0.0
 40
2.0
  1
06-30-89
  7
MONOTXT
 72
     1
 11
437.412167
 21
-11.116167
 31
0.0
210
0.0
220
0.0
230
1.0
 73
     3
  0
TEXT
  8
1
  6
CONTINUOUS
 62
     1
  5
7A
 10
430.031583
 20
-17.716167
 30
0.0
 40
2.0
  1
02-22-93
  7
MONOTXT
 72
     1
 11
437.252167
 21
-15.716167
 31
0.0
210
0.0
220
0.0
230
1.0
 73
     3
  0
TEXT
  8
1
  6
CONTINUOUS
 62
     1
  5
7B
 10
429.734917
 20
-22.196167
 30
0.0
 40
2.0
  1
        
  7
MONOTXT
 72
     1
 11
437.40175
 21
-20.196167
 31
0.0
210
0.0
220
0.0
230
1.0
 73
     3
  0
TEXT
  8
1
  6
CONTINUOUS
 62
     1
  5
7C
 10
429.634917
 20
-26.796167
 30
0.0
 40
2.0
  1
        
  7
MONOTXT
 72
     1
 11
437.30175
 21
-24.796167
 31
0.0
210
0.0
220
0.0
230
1.0
 73
     3
  0
TEXT
  8
1
  6
CONTINUOUS
 62
     1
  5
7D
 10
429.734917
 20
-31.376167
 30
0.0
 40
2.0
  1
        
  7
MONOTXT
 72
     1
 11
437.40175
 21
-29.376167
 31
0.0
210
0.0
220
0.0
230
1.0
 73
     3
  0
TEXT
  8
1
  6
CONTINUOUS
 62
     1
  5
7E
 10
429.734917
 20
-35.396167
 30
0.0
 40
2.0
  1
        
  7
MONOTXT
 72
     1
 11
437.40175
 21
-33.396167
 31
0.0
210
0.0
220
0.0
230
1.0
 73
     3
  0
POLYLINE
  8
1
  6
CONTINUOUS
 62
     7
  5
7F
 66
     1
 10
0.0
 20
0.0
 30
0.0
  0
VERTEX
  8
1
  6
CONTINUOUS
 62
     7
  5
80
 10
422.646083
 20
64.087083
 30
0.0
  0
VERTEX
  8
1
  6
CONTINUOUS
 62
     7
  5
81
 10
420.646083
 20
60.623
 30
0.0
  0
VERTEX
  8
1
  6
CONTINUOUS
 62
     7
  5
82
 10
424.646083
 20
60.623
 30
0.0
  0
VERTEX
  8
1
  6
CONTINUOUS
 62
     7
  5
83
 10
422.646083
 20
64.087083
 30
0.0
  0
SEQEND
  8
1
  6
CONTINUOUS
 62
     7
  5
84
  0
POLYLINE
  8
1
  6
CONTINUOUS
 62
     7
  5
85
 66
     1
 10
0.0
 20
0.0
 30
0.0
  0
VERTEX
  8
1
  6
CONTINUOUS
 62
     7
  5
86
 10
422.657917
 20
68.532667
 30
0.0
  0
VERTEX
  8
1
  6
CONTINUOUS
 62
     7
  5
87
 10
420.657917
 20
65.068583
 30
0.0
  0
VERTEX
  8
1
  6
CONTINUOUS
 62
     7
  5
88
 10
424.657917
 20
65.068583
 30
0.0
  0
VERTEX
  8
1
  6
CONTINUOUS
 62
     7
  5
89
 10
422.657917
 20
68.532667
 30
0.0
  0
SEQEND
  8
1
  6
CONTINUOUS
 62
     7
  5
8A
  0
POLYLINE
  8
1
  6
CONTINUOUS
 62
     7
  5
8B
 66
     1
 10
0.0
 20
0.0
 30
0.0
  0
VERTEX
  8
1
  6
CONTINUOUS
 62
     7
  5
8C
 10
422.721583
 20
73.181083
 30
0.0
  0
VERTEX
  8
1
  6
CONTINUOUS
 62
     7
  5
8D
 10
420.721583
 20
69.717
 30
0.0
  0
VERTEX
  8
1
  6
CONTINUOUS
 62
     7
  5
8E
 10
424.721583
 20
69.717
 30
0.0
  0
VERTEX
  8
1
  6
CONTINUOUS
 62
     7
  5
8F
 10
422.721583
 20
73.181083
 30
0.0
  0
SEQEND
  8
1
  6
CONTINUOUS
 62
     7
  5
90
  0
POLYLINE
  8
1
  6
CONTINUOUS
 62
     7
  5
91
 66
     1
 10
0.0
 20
0.0
 30
0.0
  0
VERTEX
  8
1
  6
CONTINUOUS
 62
     7
  5
92
 10
422.646083
 20
77.765833
 30
0.0
  0
VERTEX
  8
1
  6
CONTINUOUS
 62
     7
  5
93
 10
420.646083
 20
74.30175
 30
0.0
  0
VERTEX
  8
1
  6
CONTINUOUS
 62
     7
  5
94
 10
424.646083
 20
74.30175
 30
0.0
  0
VERTEX
  8
1
  6
CONTINUOUS
 62
     7
  5
95
 10
422.646083
 20
77.765833
 30
0.0
  0
SEQEND
  8
1
  6
CONTINUOUS
 62
     7
  5
96
  0
POLYLINE
  8
1
  6
CONTINUOUS
 62
     7
  5
97
 66
     1
 10
0.0
 20
0.0
 30
0.0
  0
VERTEX
  8
1
  6
CONTINUOUS
 62
     7
  5
98
 10
425.21
 20
3.202333
 30
0.0
  0
VERTEX
  8
1
  6
CONTINUOUS
 62
     7
  5
99
 10
423.21
 20
-0.26175
 30
0.0
  0
VERTEX
  8
1
  6
CONTINUOUS
 62
     7
  5
9A
 10
427.21
 20
-0.26175
 30
0.0
  0
VERTEX
  8
1
  6
CONTINUOUS
 62
     7
  5
9B
 10
425.21
 20
3.202333
 30
0.0
  0
SEQEND
  8
1
  6
CONTINUOUS
 62
     7
  5
9C
  0
POLYLINE
  8
1
  6
CONTINUOUS
 62
     7
  5
9D
 66
     1
 10
0.0
 20
0.0
 30
0.0
  0
VERTEX
  8
1
  6
CONTINUOUS
 62
     7
  5
9E
 10
425.251667
 20
-1.24325
 30
0.0
  0
VERTEX
  8
1
  6
CONTINUOUS
 62
     7
  5
9F
 10
423.251667
 20
-4.707333
 30
0.0
  0
VERTEX
  8
1
  6
CONTINUOUS
 62
     7
  5
A0
 10
427.251667
 20
-4.707333
 30
0.0
  0
VERTEX
  8
1
  6
CONTINUOUS
 62
     7
  5
A1
 10
425.251667
 20
-1.24325
 30
0.0
  0
SEQEND
  8
1
  6
CONTINUOUS
 62
     7
  5
A2
  0
POLYLINE
  8
1
  6
CONTINUOUS
 62
     7
  5
A3
 66
     1
 10
0.0
 20
0.0
 30
0.0
  0
VERTEX
  8
1
  6
CONTINUOUS
 62
     7
  5
A4
 10
425.336417
 20
-5.859833
 30
0.0
  0
VERTEX
  8
1
  6
CONTINUOUS
 62
     7
  5
A5
 10
423.336417
 20
-9.323917
 30
0.0
  0
VERTEX
  8
1
  6
CONTINUOUS
 62
     7
  5
A6
 10
427.336417
 20
-9.323917
 30
0.0
  0
VERTEX
  8
1
  6
CONTINUOUS
 62
     7
  5
A7
 10
425.336417
 20
-5.859833
 30
0.0
  0
SEQEND
  8
1
  6
CONTINUOUS
 62
     7
  5
A8
  0
POLYLINE
  8
1
  6
CONTINUOUS
 62
     7
  5
A9
 66
     1
 10
0.0
 20
0.0
 30
0.0
  0
VERTEX
  8
1
  6
CONTINUOUS
 62
     7
  5
AA
 10
425.46425
 20
-10.3485
 30
0.0
  0
VERTEX
  8
1
  6
CONTINUOUS
 62
     7
  5
AB
 10
423.46425
 20
-13.812583
 30
0.0
  0
VERTEX
  8
1
  6
CONTINUOUS
 62
     7
  5
AC
 10
427.46425
 20
-13.812583
 30
0.0
  0
VERTEX
  8
1
  6
CONTINUOUS
 62
     7
  5
AD
 10
425.46425
 20
-10.3485
 30
0.0
  0
SEQEND
  8
1
  6
CONTINUOUS
 62
     7
  5
AE
  0
TEXT
  8
1
  6
CONTINUOUS
 62
     7
  5
AF
 10
424.9015
 20
0.078583
 30
0.0
 40
2.0
  1
1
  7
MONOTXT
210
0.0
220
0.0
230
1.0
  0
TEXT
  8
1
  6
CONTINUOUS
 62
     7
  5
B0
 10
424.556833
 20
-4.446917
 30
0.0
 40
2.0
  1
2
  7
MONOTXT
210
0.0
220
0.0
230
1.0
  0
TEXT
  8
1
  6
CONTINUOUS
 62
     7
  5
B1
 10
424.599917
 20
-9.10175
 30
0.0
 40
2.0
  1
3
  7
MONOTXT
210
0.0
220
0.0
230
1.0
  0
TEXT
  8
1
  6
CONTINUOUS
 62
     7
  5
B2
 10
424.556833
 20
-13.368667
 30
0.0
 40
2.0
  1
4
  7
MONOTXT
210
0.0
220
0.0
230
1.0
  0
TEXT
  8
1
  6
CONTINUOUS
 62
     7
  5
B3
 10
422.336167
 20
74.626583
 30
0.0
 40
2.0
  1
1
  7
MONOTXT
210
0.0
220
0.0
230
1.0
  0
TEXT
  8
1
  6
CONTINUOUS
 62
     7
  5
B4
 10
422.049833
 20
70.011583
 30
0.0
 40
2.0
  1
2
  7
MONOTXT
210
0.0
220
0.0
230
1.0
  0
TEXT
  8
1
  6
CONTINUOUS
 62
     7
  5
B5
 10
421.922583
 20
65.269167
 30
0.0
 40
2.0
  1
3
  7
MONOTXT
210
0.0
220
0.0
230
1.0
  0
TEXT
  8
1
  6
CONTINUOUS
 62
     7
  5
B6
 10
421.827167
 20
61.00425
 30
0.0
 40
2.0
  1
4
  7
MONOTXT
210
0.0
220
0.0
230
1.0
  0
TEXT
  8
1
  6
CONTINUOUS
 62
     7
  5
B7
 10
425.008833
 20
75.104
 30
0.0
 40
2.0
  1
DELETED SIGNATURE BLOCK
  7
MONOTXT
210
0.0
220
0.0
230
1.0
  0
TEXT
  8
1
  6
CONTINUOUS
 62
     7
  5
B8
 10
425.008833
 20
70.329833
 30
0.0
 40
2.0
  1
DELETED 2" SIZING FOR WIRE INLET
  7
MONOTXT
210
0.0
220
0.0
230
1.0
  0
TEXT
  8
1
  6
CONTINUOUS
 62
     7
  5
B9
 10
424.977083
 20
65.71475
 30
0.0
 40
2.0
  1
ADDED MAIN CKT. BKR. AND M-O-A SWITCH
  7
MONOTXT
210
0.0
220
0.0
230
1.0
  0
TEXT
  8
1
  6
CONTINUOUS
 62
     7
  5
BA
 10
425.040667
 20
61.131583
 30
0.0
 40
2.0
  1
ADDED NOTE - SEE TEL-06
  7
MONOTXT
210
0.0
220
0.0
230
1.0
  0
TEXT
  8
1
  6
CONTINUOUS
 62
     7
  5
BB
 10
-19.439333
 20
363.056083
 30
0.0
 40
7.0
  1
SIGN LIGHTING ENCLOSURE WIRING DIAGRAM
  7
txt
 72
     4
 11
93.9225
 21
366.556083
 31
0.0
210
0.0
220
0.0
230
1.0
  0
TEXT
  8
1
  6
CONTINUOUS
 62
     7
  5
BC
 10
-35.495833
 20
351.056083
 30
0.0
 40
7.0
  1
FOR USE WITH SEPARATE LIGHTING POWER SOURCE
  7
txt
 72
     4
 11
93.9225
 21
354.556083
 31
0.0
210
0.0
220
0.0
230
1.0
  0
TEXT
  8
1
  6
CONTINUOUS
 62
     7
  5
BD
 10
35.639917
 20
341.158833
 30
0.0
 40
3.0
  1
SEE TEL-06 FOR DETAILS WHEN SIGN LIGHTING IS
  7
MONOTXT
 11
35.639917
 21
344.158833
 31
0.0
210
0.0
220
0.0
230
1.0
 73
     3
  0
TEXT
  8
1
  6
CONTINUOUS
 62
     7
  5
BE
 10
35.639917
 20
336.158833
 30
0.0
 40
3.0
  1
INCLUDED WITH ROADWAY LIGHTING CIRCUITS.
  7
MONOTXT
 11
35.639917
 21
339.158833
 31
0.0
210
0.0
220
0.0
230
1.0
 73
     3
  0
ARC
  8
1
  6
CONTINUOUS
 62
     7
  5
BF
 10
43.141788
 20
340.746003
 30
0.0
 40
11.479173
 50
151.160428
 51
213.419569
210
0.0
220
0.0
230
1.0
  0
ARC
  8
1
  6
CONTINUOUS
 62
     7
  5
C0
 10
146.329129
 20
340.746003
 30
0.0
 40
11.479173
 50
326.580431
 51
28.839572
210
0.0
220
0.0
230
1.0
  0
LINE
  8
1
  6
CONTINUOUS
 62
   253
  5
C1
 10
-12.925167
 20
176.480167
 30
0.0
 11
30.074833
 21
176.480167
 31
0.0
  0
LINE
  8
1
  6
CONTINUOUS
 62
   253
  5
C2
 10
30.074833
 20
176.480167
 30
0.0
 11
30.074833
 21
83.480167
 31
0.0
  0
LINE
  8
1
  6
CONTINUOUS
 62
   253
  5
C3
 10
30.074833
 20
83.480167
 30
0.0
 11
-12.925167
 21
83.480167
 31
0.0
  0
LINE
  8
1
  6
CONTINUOUS
 62
   253
  5
C4
 10
-12.925167
 20
83.480167
 30
0.0
 11
-12.925167
 21
176.480167
 31
0.0
  0
LINE
  8
1
  6
CONTINUOUS
 62
   253
  5
C5
 10
25.074833
 20
176.480167
 30
0.0
 11
25.074833
 21
83.480167
 31
0.0
  0
LINE
  8
1
  6
CONTINUOUS
 62
   253
  5
C6
 10
26.574833
 20
168.980167
 30
0.0
 11
26.574833
 21
156.980167
 31
0.0
  0
LINE
  8
1
  6
CONTINUOUS
 62
   253
  5
C7
 10
28.074833
 20
168.980167
 30
0.0
 11
28.074833
 21
156.980167
 31
0.0
  0
LINE
  8
1
  6
CONTINUOUS
 62
   253
  5
C8
 10
26.574833
 20
168.980167
 30
0.0
 11
28.074833
 21
168.980167
 31
0.0
  0
LINE
  8
1
  6
CONTINUOUS
 62
   253
  5
C9
 10
26.574833
 20
156.980167
 30
0.0
 11
28.074833
 21
156.980167
 31
0.0
  0
LINE
  8
1
  6
CONTINUOUS
 62
   253
  5
CA
 10
20.074833
 20
106.480167
 30
0.0
 11
20.074833
 21
90.480167
 31
0.0
  0
LINE
  8
1
  6
CONTINUOUS
 62
   253
  5
CB
 10
18.074833
 20
106.480167
 30
0.0
 11
18.074833
 21
90.480167
 31
0.0
  0
LINE
  8
1
  6
CONTINUOUS
 62
   253
  5
CC
 10
18.074833
 20
90.480167
 30
0.0
 11
20.074833
 21
90.480167
 31
0.0
  0
LINE
  8
1
  6
CONTINUOUS
 62
   253
  5
CD
 10
18.074833
 20
106.480167
 30
0.0
 11
20.074833
 21
106.480167
 31
0.0
  0
CIRCLE
  8
1
  6
CONTINUOUS
 62
   253
  5
CE
 10
8.641083
 20
97.565333
 30
0.0
 40
2.5
210
0.0
220
0.0
230
1.0
  0
CIRCLE
  8
1
  6
CONTINUOUS
 62
   253
  5
CF
 10
36.093667
 20
111.799333
 30
0.0
 40
2.5
210
0.0
220
0.0
230
1.0
  0
CIRCLE
  8
1
  6
CONTINUOUS
 62
   253
  5
D0
 10
34.368917
 20
163.415583
 30
0.0
 40
2.5
210
0.0
220
0.0
230
1.0
  0
TEXT
  8
1
  6
CONTINUOUS
 62
     7
  5
D1
 10
33.601167
 20
162.165583
 30
0.0
 40
2.5
  1
9
  7
MONOTXT
 72
     4
 11
34.378667
 21
163.415583
 31
0.0
210
0.0
220
0.0
230
1.0
  0
TEXT
  8
1
  6
CONTINUOUS
 62
     7
  5
D2
 10
34.55825
 20
110.549333
 30
0.0
 40
2.5
  1
10
  7
MONOTXT
 72
     4
 11
36.093667
 21
111.799333
 31
0.0
210
0.0
220
0.0
230
1.0
  0
TEXT
  8
1
  6
CONTINUOUS
 62
     7
  5
D3
 10
7.637167
 20
96.315333
 30
0.0
 40
2.5
  1
11
  7
MONOTXT
 72
     4
 11
8.641083
 21
97.565333
 31
0.0
210
0.0
220
0.0
230
1.0
  0
LINE
  8
1
  6
CONTINUOUS
 62
   253
  5
D4
 10
64.574833
 20
176.480167
 30
0.0
 11
64.574833
 21
83.480167
 31
0.0
  0
LINE
  8
1
  6
CONTINUOUS
 62
   253
  5
D5
 10
109.574833
 20
176.480167
 30
0.0
 11
109.574833
 21
83.480167
 31
0.0
  0
LINE
  8
1
  6
CONTINUOUS
 62
   253
  5
D6
 10
64.574833
 20
176.480167
 30
0.0
 11
109.574833
 21
176.480167
 31
0.0
  0
LINE
  8
1
  6
CONTINUOUS
 62
   253
  5
D7
 10
64.574833
 20
83.480167
 30
0.0
 11
109.574833
 21
83.480167
 31
0.0
  0
LINE
  8
1
  6
CONTINUOUS
 62
   253
  5
D8
 10
66.074833
 20
170.980167
 30
0.0
 11
66.074833
 21
90.980167
 31
0.0
  0
LINE
  8
1
  6
CONTINUOUS
 62
   253
  5
D9
 10
66.074833
 20
170.980167
 30
0.0
 11
82.574833
 21
170.980167
 31
0.0
  0
LINE
  8
1
  6
CONTINUOUS
 62
   253
  5
DA
 10
66.074833
 20
90.980167
 30
0.0
 11
81.074833
 21
90.980167
 31
0.0
  0
LINE
  8
1
  6
CONTINUOUS
 62
   253
  5
DB
 10
81.074833
 20
90.980167
 30
0.0
 11
81.074833
 21
76.980167
 31
0.0
  0
CIRCLE
  8
1
  6
CONTINUOUS
 62
   253
  5
DC
 10
82.574833
 20
170.980167
 30
0.0
 40
0.485374
210
0.0
220
0.0
230
1.0
  0
LINE
  8
1
  6
CONTINUOUS
 62
   253
  5
DD
 10
84.074833
 20
170.980167
 30
0.0
 11
91.574833
 21
170.980167
 31
0.0
  0
LINE
  8
1
  6
CONTINUOUS
 62
   253
  5
DE
 10
91.574833
 20
170.980167
 30
0.0
 11
91.574833
 21
166.480167
 31
0.0
  0
LINE
  8
1
  6
CONTINUOUS
 62
   253
  5
DF
 10
81.574833
 20
172.980167
 30
0.0
 11
81.574833
 21
164.730167
 31
0.0
  0
LINE
  8
1
  6
CONTINUOUS
 62
   253
  5
E0
 10
85.324833
 20
172.980167
 30
0.0
 11
85.324833
 21
164.730167
 31
0.0
  0
LINE
  8
1
  6
CONTINUOUS
 62
   253
  5
E1
 10
81.574833
 20
172.980167
 30
0.0
 11
85.324833
 21
172.980167
 31
0.0
  0
LINE
  8
1
  6
CONTINUOUS
 62
   253
  5
E2
 10
81.574833
 20
164.730167
 30
0.0
 11
85.324833
 21
164.730167
 31
0.0
  0
LINE
  8
1
  6
CONTINUOUS
 62
   253
  5
E3
 10
91.574833
 20
154.480167
 30
0.0
 11
95.074833
 21
154.480167
 31
0.0
  0
LINE
  8
1
  6
CONTINUOUS
 62
   253
  5
E4
 10
95.074833
 20
154.480167
 30
0.0
 11
95.074833
 21
159.980167
 31
0.0
  0
LINE
  8
1
  6
CONTINUOUS
 62
   253
  5
E5
 10
95.074833
 20
159.980167
 30
0.0
 11
102.324833
 21
159.980167
 31
0.0
  0
LINE
  8
1
  6
CONTINUOUS
 62
   253
  5
E6
 10
102.324833
 20
159.980167
 30
0.0
 11
102.324833
 21
155.980167
 31
0.0
  0
LINE
  8
1
  6
CONTINUOUS
 62
   253
  5
E7
 10
100.324833
 20
155.980167
 30
0.0
 11
96.324833
 21
155.980167
 31
0.0
  0
LINE
  8
1
  6
CONTINUOUS
 62
   253
  5
E8
 10
96.324833
 20
155.980167
 30
0.0
 11
96.324833
 21
149.980167
 31
0.0
  0
LINE
  8
1
  6
CONTINUOUS
 62
   253
  5
E9
 10
96.324833
 20
149.980167
 30
0.0
 11
89.824833
 21
149.980167
 31
0.0
  0
LINE
  8
1
  6
CONTINUOUS
 62
   253
  5
EA
 10
104.824833
 20
155.980167
 30
0.0
 11
104.824833
 21
150.480167
 31
0.0
  0
LINE
  8
1
  6
CONTINUOUS
 62
   253
  5
EB
 10
104.824833
 20
150.480167
 30
0.0
 11
102.824833
 21
150.480167
 31
0.0
  0
LINE
  8
1
  6
CONTINUOUS
 62
   253
  5
EC
 10
102.824833
 20
150.480167
 30
0.0
 11
102.824833
 21
122.980167
 31
0.0
  0
LINE
  8
1
  6
CONTINUOUS
 62
   253
  5
ED
 10
93.574833
 20
168.230167
 30
0.0
 11
93.574833
 21
152.730167
 31
0.0
  0
LINE
  8
1
  6
CONTINUOUS
 62
   253
  5
EE
 10
89.574833
 20
168.230167
 30
0.0
 11
89.574833
 21
152.730167
 31
0.0
  0
LINE
  8
1
  6
CONTINUOUS
 62
   253
  5
EF
 10
89.574833
 20
168.230167
 30
0.0
 11
93.574833
 21
168.230167
 31
0.0
  0
LINE
  8
1
  6
CONTINUOUS
 62
   253
  5
F0
 10
89.574833
 20
152.730167
 30
0.0
 11
93.574833
 21
152.730167
 31
0.0
  0
LINE
  8
1
  6
CONTINUOUS
 62
   253
  5
F1
 10
107.824833
 20
158.980167
 30
0.0
 11
107.824833
 21
148.980167
 31
0.0
  0
LINE
  8
1
  6
CONTINUOUS
 62
   253
  5
F2
 10
97.824833
 20
158.980167
 30
0.0
 11
97.824833
 21
148.980167
 31
0.0
  0
LINE
  8
1
  6
CONTINUOUS
 62
   253
  5
F3
 10
97.824833
 20
158.980167
 30
0.0
 11
107.824833
 21
158.980167
 31
0.0
  0
LINE
  8
1
  6
CONTINUOUS
 62
   253
  5
F4
 10
97.824833
 20
148.980167
 30
0.0
 11
107.824833
 21
148.980167
 31
0.0
  0
LINE
  8
1
  6
CONTINUOUS
 62
   253
  5
F5
 10
100.824833
 20
122.980167
 30
0.0
 11
100.824833
 21
131.980167
 31
0.0
  0
LINE
  8
1
  6
CONTINUOUS
 62
   253
  5
F6
 10
100.824833
 20
131.980167
 30
0.0
 11
91.574833
 21
131.980167
 31
0.0
  0
LINE
  8
1
  6
CONTINUOUS
 62
   253
  5
F7
 10
98.324833
 20
122.980167
 30
0.0
 11
98.324833
 21
144.730167
 31
0.0
  0
LINE
  8
1
  6
CONTINUOUS
 62
   253
  5
F8
 10
98.324833
 20
144.730167
 30
0.0
 11
74.324833
 21
144.730167
 31
0.0
  0
LINE
  8
1
  6
CONTINUOUS
 62
   253
  5
F9
 10
102.824833
 20
120.980167
 30
0.0
 11
102.824833
 21
92.980167
 31
0.0
  0
LINE
  8
1
  6
CONTINUOUS
 62
   253
  5
FA
 10
100.824833
 20
120.980167
 30
0.0
 11
100.824833
 21
94.480167
 31
0.0
  0
LINE
  8
1
  6
CONTINUOUS
 62
   253
  5
FB
 10
98.324833
 20
120.980167
 30
0.0
 11
98.324833
 21
96.230167
 31
0.0
  0
POLYLINE
  8
1
  6
CONTINUOUS
 62
   253
  5
FC
 66
     1
 10
0.0
 20
0.0
 30
0.0
 70
     1
  0
VERTEX
  8
1
  6
CONTINUOUS
 62
   253
  5
FD
 10
97.074833
 20
119.89875
 30
0.0
  0
VERTEX
  8
1
  6
CONTINUOUS
 62
   253
  5
FE
 10
97.074833
 20
124.14875
 30
0.0
  0
VERTEX
  8
1
  6
CONTINUOUS
 62
   253
  5
FF
 10
104.574833
 20
124.14875
 30
0.0
  0
VERTEX
  8
1
  6
CONTINUOUS
 62
   253
  5
100
 10
104.574833
 20
119.89875
 30
0.0
  0
VERTEX
  8
1
  6
CONTINUOUS
 62
   253
  5
101
 10
97.074833
 20
119.89875
 30
0.0
  0
SEQEND
  8
1
  6
CONTINUOUS
 62
   253
  5
102
  0
LINE
  8
1
  6
CONTINUOUS
 62
   253
  5
103
 10
94.574833
 20
133.980167
 30
0.0
 11
94.574833
 21
113.980167
 31
0.0
  0
LINE
  8
1
  6
CONTINUOUS
 62
   253
  5
104
 10
88.574833
 20
133.980167
 30
0.0
 11
88.574833
 21
113.980167
 31
0.0
  0
LINE
  8
1
  6
CONTINUOUS
 62
   253
  5
105
 10
88.574833
 20
113.980167
 30
0.0
 11
94.574833
 21
113.980167
 31
0.0
  0
LINE
  8
1
  6
CONTINUOUS
 62
   253
  5
106
 10
88.574833
 20
133.980167
 30
0.0
 11
94.574833
 21
133.980167
 31
0.0
  0
LINE
  8
1
  6
CONTINUOUS
 62
   253
  5
107
 10
72.324833
 20
154.980167
 30
0.0
 11
72.324833
 21
140.730167
 31
0.0
  0
LINE
  8
1
  6
CONTINUOUS
 62
   253
  5
108
 10
76.324833
 20
154.980167
 30
0.0
 11
76.324833
 21
140.730167
 31
0.0
  0
LINE
  8
1
  6
CONTINUOUS
 62
   253
  5
109
 10
72.324833
 20
154.980167
 30
0.0
 11
76.324833
 21
154.980167
 31
0.0
  0
LINE
  8
1
  6
CONTINUOUS
 62
   253
  5
10A
 10
72.324833
 20
140.730167
 30
0.0
 11
76.324833
 21
140.730167
 31
0.0
  0
LINE
  8
1
  6
CONTINUOUS
 62
   253
  5
10B
 10
98.324833
 20
96.230167
 30
0.0
 11
87.824833
 21
96.230167
 31
0.0
  0
LINE
  8
1
  6
CONTINUOUS
 62
   253
  5
10C
 10
100.824833
 20
94.480167
 30
0.0
 11
88.824833
 21
94.480167
 31
0.0
  0
LINE
  8
1
  6
CONTINUOUS
 62
   253
  5
10D
 10
102.824833
 20
92.980167
 30
0.0
 11
91.074833
 21
92.980167
 31
0.0
  0
LINE
  8
1
  6
CONTINUOUS
 62
   253
  5
10E
 10
87.824833
 20
96.230167
 30
0.0
 11
87.824833
 21
77.230167
 31
0.0
  0
LINE
  8
1
  6
CONTINUOUS
 62
   253
  5
10F
 10
88.824833
 20
94.480167
 30
0.0
 11
88.824833
 21
79.480167
 31
0.0
  0
LINE
  8
1
  6
CONTINUOUS
 62
   253
  5
110
 10
91.074833
 20
92.980167
 30
0.0
 11
91.074833
 21
79.980167
 31
0.0
  0
LINE
  8
1
  6
CONTINUOUS
 62
   253
  5
111
 10
86.824833
 20
98.730167
 30
0.0
 11
86.824833
 21
76.980167
 31
0.0
  0
LINE
  8
1
  6
CONTINUOUS
 62
   253
  5
112
 10
85.824833
 20
96.480167
 30
0.0
 11
85.824833
 21
76.980167
 31
0.0
  0
LINE
  8
1
  6
CONTINUOUS
 62
   253
  5
113
 10
84.324833
 20
94.980167
 30
0.0
 11
84.324833
 21
69.980167
 31
0.0
  0
LINE
  8
1
  6
CONTINUOUS
 62
   253
  5
114
 10
83.074833
 20
92.980167
 30
0.0
 11
83.074833
 21
76.980167
 31
0.0
  0
LINE
  8
1
  6
CONTINUOUS
 62
   253
  5
115
 10
86.824833
 20
98.730167
 30
0.0
 11
92.074833
 21
98.730167
 31
0.0
  0
LINE
  8
1
  6
CONTINUOUS
 62
   253
  5
116
 10
92.074833
 20
98.730167
 30
0.0
 11
92.074833
 21
115.480167
 31
0.0
  0
LINE
  8
1
  6
CONTINUOUS
 62
   253
  5
117
 10
83.074833
 20
92.980167
 30
0.0
 11
67.824833
 21
92.980167
 31
0.0
  0
LINE
  8
1
  6
CONTINUOUS
 62
   253
  5
118
 10
84.324833
 20
94.980167
 30
0.0
 11
69.574833
 21
94.980167
 31
0.0
  0
LINE
  8
1
  6
CONTINUOUS
 62
   253
  5
119
 10
85.824833
 20
96.480167
 30
0.0
 11
71.324833
 21
96.480167
 31
0.0
  0
LINE
  8
1
  6
CONTINUOUS
 62
   253
  5
11A
 10
67.824833
 20
92.980167
 30
0.0
 11
67.824833
 21
153.230167
 31
0.0
  0
LINE
  8
1
  6
CONTINUOUS
 62
   253
  5
11B
 10
69.574833
 20
94.980167
 30
0.0
 11
69.574833
 21
150.730167
 31
0.0
  0
LINE
  8
1
  6
CONTINUOUS
 62
   253
  5
11C
 10
71.324833
 20
96.480167
 30
0.0
 11
71.324833
 21
147.730167
 31
0.0
  0
LINE
  8
1
  6
CONTINUOUS
 62
   253
  5
11D
 10
74.324833
 20
142.230167
 30
0.0
 11
84.824833
 21
142.230167
 31
0.0
  0
LINE
  8
1
  6
CONTINUOUS
 62
   253
  5
11E
 10
89.574833
 20
115.480167
 30
0.0
 11
84.824833
 21
115.480167
 31
0.0
  0
LINE
  8
1
  6
CONTINUOUS
 62
   253
  5
11F
 10
84.824833
 20
142.230167
 30
0.0
 11
84.824833
 21
115.480167
 31
0.0
  0
LINE
  8
1
  6
CONTINUOUS
 62
   253
  5
120
 10
74.324833
 20
153.230167
 30
0.0
 11
67.824833
 21
153.230167
 31
0.0
  0
LINE
  8
1
  6
CONTINUOUS
 62
   253
  5
121
 10
74.324833
 20
150.730167
 30
0.0
 11
69.574833
 21
150.730167
 31
0.0
  0
LINE
  8
1
  6
CONTINUOUS
 62
   253
  5
122
 10
74.324833
 20
147.730167
 30
0.0
 11
71.324833
 21
147.730167
 31
0.0
  0
LINE
  8
1
  6
CONTINUOUS
 62
   253
  5
123
 10
89.824833
 20
149.980167
 30
0.0
 11
89.824833
 21
145.980167
 31
0.0
  0
LINE
  8
1
  6
CONTINUOUS
 62
   253
  5
124
 10
89.824833
 20
143.480167
 30
0.0
 11
89.824833
 21
131.980167
 31
0.0
  0
ARC
  8
1
  6
CONTINUOUS
 62
   253
  5
125
 10
89.871144
 20
144.730167
 30
0.0
 40
1.250858
 50
92.12175
 51
267.87825
210
0.0
220
0.0
230
1.0
  0
CIRCLE
  8
1
  6
CONTINUOUS
 62
   253
  5
126
 10
77.931167
 20
166.238167
 30
0.0
 40
2.5
210
0.0
220
0.0
230
1.0
  0
CIRCLE
  8
1
  6
CONTINUOUS
 62
   253
  5
127
 10
74.505083
 20
158.340667
 30
0.0
 40
2.5
210
0.0
220
0.0
230
1.0
  0
CIRCLE
  8
1
  6
CONTINUOUS
 62
   253
  5
128
 10
86.124
 20
154.7645
 30
0.0
 40
2.5
210
0.0
220
0.0
230
1.0
  0
CIRCLE
  8
1
  6
CONTINUOUS
 62
   253
  5
129
 10
105.339917
 20
162.810917
 30
0.0
 40
2.5
210
0.0
220
0.0
230
1.0
  0
CIRCLE
  8
1
  6
CONTINUOUS
 62
   253
  5
12A
 10
91.635583
 20
123.919667
 30
0.0
 40
2.5
210
0.0
220
0.0
230
1.0
  0
CIRCLE
  8
1
  6
CONTINUOUS
 62
   253
  5
12B
 10
107.127417
 20
122.280583
 30
0.0
 40
2.5
210
0.0
220
0.0
230
1.0
  0
TEXT
  8
1
  6
CONTINUOUS
 62
   253
  5
12C
 10
77.635917
 20
164.988167
 30
0.0
 40
2.5
  1
1
  7
MONOTXT
 72
     4
 11
77.931167
 21
166.238167
 31
0.0
210
0.0
220
0.0
230
1.0
  0
TEXT
  8
1
  6
CONTINUOUS
 62
   253
  5
12D
 10
73.61925
 20
157.090667
 30
0.0
 40
2.5
  1
4
  7
MONOTXT
 72
     4
 11
74.514917
 21
158.340667
 31
0.0
210
0.0
220
0.0
230
1.0
  0
TEXT
  8
1
  6
CONTINUOUS
 62
   253
  5
12E
 10
85.29725
 20
153.5145
 30
0.0
 40
2.5
  1
2
  7
MONOTXT
 72
     4
 11
86.133833
 21
154.7645
 31
0.0
210
0.0
220
0.0
230
1.0
  0
TEXT
  8
1
  6
CONTINUOUS
 62
   253
  5
12F
 10
104.513167
 20
161.560917
 30
0.0
 40
2.5
  1
3
  7
MONOTXT
 72
     4
 11
105.34975
 21
162.810917
 31
0.0
210
0.0
220
0.0
230
1.0
  0
TEXT
  8
1
  6
CONTINUOUS
 62
   253
  5
130
 10
90.808833
 20
122.669667
 30
0.0
 40
2.5
  1
5
  7
MONOTXT
 72
     4
 11
91.645417
 21
123.919667
 31
0.0
210
0.0
220
0.0
230
1.0
  0
TEXT
  8
1
  6
CONTINUOUS
 62
   253
  5
131
 10
106.359667
 20
121.030583
 30
0.0
 40
2.5
  1
6
  7
MONOTXT
 72
     4
 11
107.137167
 21
122.280583
 31
0.0
210
0.0
220
0.0
230
1.0
  0
TEXT
  8
1
  6
CONTINUOUS
 62
   253
  5
132
 10
98.374417
 20
156.537833
 30
0.0
 40
2.0
  1
M
  7
MONOTXT
 72
     4
 11
99.138167
 21
157.537833
 31
0.0
210
0.0
220
0.0
230
1.0
  0
TEXT
  8
1
  6
CONTINUOUS
 62
   253
  5
133
 10
105.496917
 20
156.482083
 30
0.0
 40
2.0
  1
A
  7
MONOTXT
 72
     4
 11
106.268583
 21
157.482083
 31
0.0
210
0.0
220
0.0
230
1.0
  0
TEXT
  8
1
  6
CONTINUOUS
 62
   253
  5
134
 10
98.155833
 20
151.244
 30
0.0
 40
2.0
  1
OFF
  7
MONOTXT
 72
     4
 11
100.809333
 21
152.244
 31
0.0
210
0.0
220
0.0
230
1.0
  0
CIRCLE
  8
1
  6
CONTINUOUS
 62
   253
  5
135
 10
102.946167
 20
151.408167
 30
0.0
 40
0.25
210
0.0
220
0.0
230
1.0
  0
LINE
  8
1
  6
CONTINUOUS
 62
   253
  5
136
 10
90.074833
 20
76.980167
 30
0.0
 11
97.574833
 21
76.980167
 31
0.0
  0
LINE
  8
1
  6
CONTINUOUS
 62
   253
  5
137
 10
97.574833
 20
76.980167
 30
0.0
 11
97.574833
 21
70.480167
 31
0.0
  0
LINE
  8
1
  6
CONTINUOUS
 62
   253
  5
138
 10
90.074833
 20
76.980167
 30
0.0
 11
90.074833
 21
70.480167
 31
0.0
  0
LINE
  8
1
  6
CONTINUOUS
 62
   253
  5
139
 10
90.074833
 20
70.480167
 30
0.0
 11
97.574833
 21
70.480167
 31
0.0
  0
LINE
  8
1
  6
CONTINUOUS
 62
   253
  5
13A
 10
91.074833
 20
79.980167
 30
0.0
 11
96.111417
 21
75.636833
 31
0.0
  0
LINE
  8
1
  6
CONTINUOUS
 62
   253
  5
13B
 10
88.824833
 20
79.480167
 30
0.0
 11
92.353417
 21
75.77225
 31
0.0
  0
LINE
  8
1
  6
CONTINUOUS
 62
   253
  5
13C
 10
87.824833
 20
77.230167
 30
0.0
 11
92.18775
 21
72.885667
 31
0.0
  0
LINE
  8
1
  6
CONTINUOUS
 62
   253
  5
13D
 10
82.324833
 20
69.980167
 30
0.0
 11
86.324833
 21
69.980167
 31
0.0
  0
LINE
  8
1
  6
CONTINUOUS
 62
   253
  5
13E
 10
82.824833
 20
69.230167
 30
0.0
 11
85.824833
 21
69.230167
 31
0.0
  0
LINE
  8
1
  6
CONTINUOUS
 62
   253
  5
13F
 10
83.324833
 20
68.480167
 30
0.0
 11
85.324833
 21
68.480167
 31
0.0
  0
LINE
  8
1
  6
CONTINUOUS
 62
   253
  5
140
 10
83.824833
 20
67.730167
 30
0.0
 11
84.824833
 21
67.730167
 31
0.0
  0
LINE
  8
1
  6
CONTINUOUS
 62
   253
  5
141
 10
84.074833
 20
66.980167
 30
0.0
 11
84.574833
 21
66.980167
 31
0.0
  0
CIRCLE
  8
1
  6
CONTINUOUS
 62
   253
  5
142
 10
101.68225
 20
73.2535
 30
0.0
 40
2.5
210
0.0
220
0.0
230
1.0
  0
CIRCLE
  8
1
  6
CONTINUOUS
 62
   253
  5
143
 10
85.88775
 20
93.250583
 30
0.0
 40
6.75
210
0.0
220
0.0
230
1.0
  0
CIRCLE
  8
1
  6
CONTINUOUS
 62
   253
  5
144
 10
96.060333
 20
88.6015
 30
0.0
 40
2.5
210
0.0
220
0.0
230
1.0
  0
TEXT
  8
1
  6
CONTINUOUS
 62
     7
  5
145
 10
95.213917
 20
87.3515
 30
0.0
 40
2.5
  1
7
  7
MONOTXT
 72
     4
 11
96.060333
 21
88.6015
 31
0.0
210
0.0
220
0.0
230
1.0
  0
TEXT
  8
1
  6
CONTINUOUS
 62
     7
  5
146
 10
100.8555
 20
72.0035
 30
0.0
 40
2.5
  1
8
  7
MONOTXT
 72
     4
 11
101.692083
 21
73.2535
 31
0.0
210
0.0
220
0.0
230
1.0
  0
LINE
  8
1
  6
CONTINUOUS
 62
     7
  5
147
 10
-21.304833
 20
50.726917
 30
0.0
 11
124.093417
 21
50.726917
 31
0.0
  0
LINE
  8
1
  6
CONTINUOUS
 62
     7
  5
148
 10
25.5885
 20
44.40025
 30
0.0
 11
76.718917
 21
44.40025
 31
0.0
  0
TEXT
  8
1
  6
CONTINUOUS
 62
     7
  5
149
 10
23.845667
 20
39.166833
 30
0.0
 40
2.5
  1
(120 VOLT SYSTEM SHOWN)
  7
MONOTXT
 72
     4
 11
51.3555
 21
40.416833
 31
0.0
210
0.0
220
0.0
230
1.0
  0
TEXT
  8
1
  6
CONTINUOUS
 62
     7
  5
14A
 10
-15.973083
 20
12.937333
 30
0.0
 40
2.5
  1
WHEN USED ON WOOD POLE, APPROPRIATE CONDUIT HUBS SHALL BE INSTALLED
  7
MONOTXT
 11
-15.973083
 21
15.437333
 31
0.0
210
0.0
220
0.0
230
1.0
 73
     3
  0
TEXT
  8
1
  6
CONTINUOUS
 62
     7
  5
14B
 10
-15.973083
 20
8.437333
 30
0.0
 40
2.5
  1
ON BOTTOM AS NECESSARY TO FOLLOW CONDUIT ON POLE.
  7
MONOTXT
 11
-15.973083
 21
10.937333
 31
0.0
210
0.0
220
0.0
230
1.0
 73
     3
  0
TEXT
  8
1
  6
CONTINUOUS
 62
     7
  5
14C
 10
-21.422083
 20
11.258833
 30
0.0
 40
6.0
  1
*
  7
MONOTXT
 72
     4
 11
-20.264583
 21
14.258833
 31
0.0
210
0.0
220
0.0
230
1.0
  0
TEXT
  8
1
  6
CONTINUOUS
 62
     7
  5
14D
 10
-22.16625
 20
12.90775
 30
0.0
 40
2.5
  1
( )
  7
MONOTXT
 72
     4
 11
-20.266667
 21
14.15775
 31
0.0
210
0.0
220
0.0
230
1.0
  0
TEXT
  8
1
  6
CONTINUOUS
 62
     7
  5
14E
 10
155.05975
 20
297.92775
 30
0.0
 40
3.0
  1
LEGEND
  7
MONOTXT
 72
     4
 11
163.292
 21
299.42775
 31
0.0
210
0.0
220
0.0
230
1.0
  0
LINE
  8
1
  6
CONTINUOUS
 62
     7
  5
14F
 10
152.51825
 20
296.198083
 30
0.0
 11
172.998167
 21
296.198083
 31
0.0
  0
POLYLINE
  8
1
  6
CONTINUOUS
 62
   132
  5
150
 66
     1
 10
0.0
 20
0.0
 30
0.0
  0
VERTEX
  8
1
  6
CONTINUOUS
 62
   132
  5
151
 10
249.49925
 20
252.028334
 30
0.0
 42
0.680339
  0
VERTEX
  8
1
  6
CONTINUOUS
 62
   132
  5
152
 10
239.894297
 20
253.029065
 30
0.0
  0
VERTEX
  8
1
  6
CONTINUOUS
 62
   132
  5
153
 10
239.910917
 20
252.966583
 30
0.0
 42
0.613196
  0
VERTEX
  8
1
  6
CONTINUOUS
 62
   132
  5
154
 10
249.119007
 20
251.056269
 30
0.0
  0
VERTEX
  8
1
  6
CONTINUOUS
 62
   132
  5
155
 10
249.131888
 20
251.081573
 30
0.0
 42
0.049025
  0
VERTEX
  8
1
  6
CONTINUOUS
 62
   132
  5
156
 10
249.49925
 20
252.028333
 30
0.0
  0
SEQEND
  8
1
  6
CONTINUOUS
 62
   132
  5
157
  0
ARC
  8
1
  6
CONTINUOUS
 62
   132
  5
158
 10
254.49925
 20
253.423782
 30
0.0
 40
5.191077
 50
195.593869
 51
344.406128
210
0.0
220
0.0
230
1.0
  0
ARC
  8
1
  6
CONTINUOUS
 62
   132
  5
159
 10
244.49925
 20
253.423782
 30
0.0
 40
5.191077
 50
195.593869
 51
332.865964
210
0.0
220
0.0
230
1.0
  0
LINE
  8
1
  6
CONTINUOUS
 62
   132
  5
15A
 10
240.07325
 20
252.489083
 30
0.0
 11
243.132333
 21
249.43
 31
0.0
  0
LINE
  8
1
  6
CONTINUOUS
 62
   132
  5
15B
 10
240.298167
 20
253.678417
 30
0.0
 11
244.887333
 21
249.08925
 31
0.0
  0
LINE
  8
1
  6
CONTINUOUS
 62
   132
  5
15C
 10
240.96725
 20
254.4235
 30
0.0
 11
246.171167
 21
249.219583
 31
0.0
  0
LINE
  8
1
  6
CONTINUOUS
 62
   132
  5
15D
 10
241.763417
 20
255.041583
 30
0.0
 11
247.228333
 21
249.576667
 31
0.0
  0
LINE
  8
1
  6
CONTINUOUS
 62
   132
  5
15E
 10
242.71875
 20
255.500417
 30
0.0
 11
248.114417
 21
250.10475
 31
0.0
  0
LINE
  8
1
  6
CONTINUOUS
 62
   132
  5
15F
 10
243.859083
 20
255.774333
 30
0.0
 11
248.8635
 21
250.769917
 31
0.0
  0
LINE
  8
1
  6
CONTINUOUS
 62
   132
  5
160
 10
245.2915
 20
255.756083
 30
0.0
 11
249.382667
 21
251.664917
 31
0.0
  0
LINE
  8
1
  6
CONTINUOUS
 62
   132
  5
161
 10
238.74925
 20
302.278333
 30
0.0
 11
258.24925
 21
302.278333
 31
0.0
  0
LINE
  8
1
  6
CONTINUOUS
 62
   132
  5
162
 10
238.74925
 20
261.778333
 30
0.0
 11
258.24925
 21
261.778333
 31
0.0
  0
LINE
  8
1
  6
CONTINUOUS
 62
   132
  5
163
 10
238.74925
 20
302.278333
 30
0.0
 11
238.74925
 21
261.778333
 31
0.0
  0
LINE
  8
1
  6
CONTINUOUS
 62
   132
  5
164
 10
258.24925
 20
302.278333
 30
0.0
 11
258.24925
 21
261.778333
 31
0.0
  0
LINE
  8
1
  6
CONTINUOUS
 62
   132
  5
165
 10
235.99925
 20
303.028333
 30
0.0
 11
262.49925
 21
303.028333
 31
0.0
  0
LINE
  8
1
  6
CONTINUOUS
 62
   132
  5
166
 10
237.74925
 20
261.028333
 30
0.0
 11
259.49925
 21
261.028333
 31
0.0
  0
LINE
  8
1
  6
CONTINUOUS
 62
   132
  5
167
 10
235.99925
 20
306.028333
 30
0.0
 11
262.49925
 21
306.028333
 31
0.0
  0
LINE
  8
1
  6
CONTINUOUS
 62
   132
  5
168
 10
235.99925
 20
306.028333
 30
0.0
 11
235.99925
 21
303.028333
 31
0.0
  0
LINE
  8
1
  6
CONTINUOUS
 62
   132
  5
169
 10
262.49925
 20
306.028333
 30
0.0
 11
262.49925
 21
303.028333
 31
0.0
  0
LINE
  8
1
  6
CONTINUOUS
 62
   132
  5
16A
 10
237.99925
 20
305.028333
 30
0.0
 11
237.99925
 21
304.028333
 31
0.0
  0
LINE
  8
1
  6
CONTINUOUS
 62
   132
  5
16B
 10
260.49925
 20
305.028333
 30
0.0
 11
260.49925
 21
304.028333
 31
0.0
  0
LINE
  8
1
  6
CONTINUOUS
 62
   132
  5
16C
 10
235.99925
 20
305.028333
 30
0.0
 11
237.99925
 21
305.028333
 31
0.0
  0
LINE
  8
1
  6
CONTINUOUS
 62
   132
  5
16D
 10
260.49925
 20
305.028333
 30
0.0
 11
262.49925
 21
305.028333
 31
0.0
  0
LINE
  8
1
  6
CONTINUOUS
 62
   132
  5
16E
 10
235.99925
 20
304.028333
 30
0.0
 11
237.99925
 21
304.028333
 31
0.0
  0
LINE
  8
1
  6
CONTINUOUS
 62
   132
  5
16F
 10
260.49925
 20
304.028333
 30
0.0
 11
262.49925
 21
304.028333
 31
0.0
  0
LINE
  8
1
  6
CONTINUOUS
 62
   132
  5
170
 10
236.49925
 20
306.528333
 30
0.0
 11
237.74925
 21
306.528333
 31
0.0
  0
LINE
  8
1
  6
CONTINUOUS
 62
   132
  5
171
 10
260.74925
 20
306.528333
 30
0.0
 11
261.99925
 21
306.528333
 31
0.0
  0
LINE
  8
1
  6
CONTINUOUS
 62
   132
  5
172
 10
236.49925
 20
306.528333
 30
0.0
 11
236.49925
 21
306.028333
 31
0.0
  0
LINE
  8
1
  6
CONTINUOUS
 62
   132
  5
173
 10
237.74925
 20
306.528333
 30
0.0
 11
237.74925
 21
306.028333
 31
0.0
  0
LINE
  8
1
  6
CONTINUOUS
 62
   132
  5
174
 10
261.99925
 20
306.528333
 30
0.0
 11
261.99925
 21
306.028333
 31
0.0
  0
LINE
  8
1
  6
CONTINUOUS
 62
   132
  5
175
 10
260.74925
 20
306.528333
 30
0.0
 11
260.74925
 21
306.028333
 31
0.0
  0
LINE
  8
1
  6
CONTINUOUS
 62
   132
  5
176
 10
236.49925
 20
302.528333
 30
0.0
 11
236.49925
 21
303.028333
 31
0.0
  0
LINE
  8
1
  6
CONTINUOUS
 62
   132
  5
177
 10
261.99925
 20
302.528333
 30
0.0
 11
261.99925
 21
303.028333
 31
0.0
  0
LINE
  8
1
  6
CONTINUOUS
 62
   132
  5
178
 10
236.49925
 20
302.528333
 30
0.0
 11
237.74925
 21
302.528333
 31
0.0
  0
LINE
  8
1
  6
CONTINUOUS
 62
   132
  5
179
 10
260.74925
 20
302.528333
 30
0.0
 11
261.99925
 21
302.528333
 31
0.0
  0
LINE
  8
1
  6
CONTINUOUS
 62
   132
  5
17A
 10
237.74925
 20
302.528333
 30
0.0
 11
237.74925
 21
303.028333
 31
0.0
  0
LINE
  8
1
  6
CONTINUOUS
 62
   132
  5
17B
 10
260.74925
 20
302.528333
 30
0.0
 11
260.74925
 21
303.028333
 31
0.0
  0
LINE
  8
1
  6
CONTINUOUS
 62
   132
  5
17C
 10
237.12425
 20
302.528333
 30
0.0
 11
237.12425
 21
303.028333
 31
0.0
  0
LINE
  8
1
  6
CONTINUOUS
 62
   132
  5
17D
 10
261.37425
 20
302.528333
 30
0.0
 11
261.37425
 21
303.028333
 31
0.0
  0
LINE
  8
1
  6
CONTINUOUS
 62
   132
  5
17E
 10
239.99925
 20
305.028333
 30
0.0
 11
258.49925
 21
305.028333
 31
0.0
  0
LINE
  8
1
  6
CONTINUOUS
 62
   132
  5
17F
 10
237.74925
 20
303.028333
 30
0.0
 11
239.99925
 21
305.028333
 31
0.0
  0
LINE
  8
1
  6
CONTINUOUS
 62
   132
  5
180
 10
260.74925
 20
303.028333
 30
0.0
 11
258.49925
 21
305.028333
 31
0.0
  0
CIRCLE
  8
1
  6
CONTINUOUS
 62
   132
  5
181
 10
240.99925
 20
304.028333
 30
0.0
 40
0.5
210
0.0
220
0.0
230
1.0
  0
CIRCLE
  8
1
  6
CONTINUOUS
 62
   132
  5
182
 10
249.49925
 20
304.028333
 30
0.0
 40
0.5
210
0.0
220
0.0
230
1.0
  0
CIRCLE
  8
1
  6
CONTINUOUS
 62
   132
  5
183
 10
257.99925
 20
304.028333
 30
0.0
 40
0.5
210
0.0
220
0.0
230
1.0
  0
LINE
  8
1
  6
CONTINUOUS
 62
   132
  5
184
 10
237.74925
 20
302.528333
 30
0.0
 11
237.74925
 21
261.028333
 31
0.0
  0
LINE
  8
1
  6
CONTINUOUS
 62
   132
  5
185
 10
235.99925
 20
261.028333
 30
0.0
 11
262.49925
 21
261.028333
 31
0.0
  0
LINE
  8
1
  6
CONTINUOUS
 62
   132
  5
186
 10
235.99925
 20
258.028333
 30
0.0
 11
262.49925
 21
258.028333
 31
0.0
  0
LINE
  8
1
  6
CONTINUOUS
 62
   132
  5
187
 10
235.99925
 20
261.028333
 30
0.0
 11
235.99925
 21
258.028333
 31
0.0
  0
LINE
  8
1
  6
CONTINUOUS
 62
   132
  5
188
 10
262.49925
 20
261.028333
 30
0.0
 11
262.49925
 21
258.028333
 31
0.0
  0
LINE
  8
1
  6
CONTINUOUS
 62
   132
  5
189
 10
237.99925
 20
260.028333
 30
0.0
 11
237.99925
 21
259.028333
 31
0.0
  0
LINE
  8
1
  6
CONTINUOUS
 62
   132
  5
18A
 10
260.49925
 20
260.028333
 30
0.0
 11
260.49925
 21
259.028333
 31
0.0
  0
LINE
  8
1
  6
CONTINUOUS
 62
   132
  5
18B
 10
235.99925
 20
260.028333
 30
0.0
 11
237.99925
 21
260.028333
 31
0.0
  0
LINE
  8
1
  6
CONTINUOUS
 62
   132
  5
18C
 10
260.49925
 20
260.028333
 30
0.0
 11
262.49925
 21
260.028333
 31
0.0
  0
LINE
  8
1
  6
CONTINUOUS
 62
   132
  5
18D
 10
235.99925
 20
259.028333
 30
0.0
 11
237.99925
 21
259.028333
 31
0.0
  0
LINE
  8
1
  6
CONTINUOUS
 62
   132
  5
18E
 10
260.49925
 20
259.028333
 30
0.0
 11
262.49925
 21
259.028333
 31
0.0
  0
LINE
  8
1
  6
CONTINUOUS
 62
   132
  5
18F
 10
236.49925
 20
261.528333
 30
0.0
 11
237.74925
 21
261.528333
 31
0.0
  0
LINE
  8
1
  6
CONTINUOUS
 62
   132
  5
190
 10
260.74925
 20
261.528333
 30
0.0
 11
261.99925
 21
261.528333
 31
0.0
  0
LINE
  8
1
  6
CONTINUOUS
 62
   132
  5
191
 10
236.49925
 20
261.528333
 30
0.0
 11
236.49925
 21
261.028333
 31
0.0
  0
LINE
  8
1
  6
CONTINUOUS
 62
   132
  5
192
 10
237.74925
 20
261.528333
 30
0.0
 11
237.74925
 21
261.028333
 31
0.0
  0
LINE
  8
1
  6
CONTINUOUS
 62
   132
  5
193
 10
261.99925
 20
261.528333
 30
0.0
 11
261.99925
 21
261.028333
 31
0.0
  0
LINE
  8
1
  6
CONTINUOUS
 62
   132
  5
194
 10
260.74925
 20
261.528333
 30
0.0
 11
260.74925
 21
261.028333
 31
0.0
  0
LINE
  8
1
  6
CONTINUOUS
 62
   132
  5
195
 10
236.49925
 20
257.528333
 30
0.0
 11
236.49925
 21
258.028333
 31
0.0
  0
LINE
  8
1
  6
CONTINUOUS
 62
   132
  5
196
 10
261.99925
 20
257.528333
 30
0.0
 11
261.99925
 21
258.028333
 31
0.0
  0
LINE
  8
1
  6
CONTINUOUS
 62
   132
  5
197
 10
236.49925
 20
257.528333
 30
0.0
 11
237.74925
 21
257.528333
 31
0.0
  0
LINE
  8
1
  6
CONTINUOUS
 62
   132
  5
198
 10
260.74925
 20
257.528333
 30
0.0
 11
261.99925
 21
257.528333
 31
0.0
  0
LINE
  8
1
  6
CONTINUOUS
 62
   132
  5
199
 10
260.74925
 20
257.528333
 30
0.0
 11
260.74925
 21
258.028333
 31
0.0
  0
LINE
  8
1
  6
CONTINUOUS
 62
   132
  5
19A
 10
237.12425
 20
257.528333
 30
0.0
 11
237.12425
 21
258.028333
 31
0.0
  0
LINE
  8
1
  6
CONTINUOUS
 62
   132
  5
19B
 10
261.37425
 20
257.528333
 30
0.0
 11
261.37425
 21
258.028333
 31
0.0
  0
LINE
  8
1
  6
CONTINUOUS
 62
   132
  5
19C
 10
237.74925
 20
257.528333
 30
0.0
 11
237.74925
 21
258.028333
 31
0.0
  0
LINE
  8
1
  6
CONTINUOUS
 62
   132
  5
19D
 10
260.74925
 20
302.528333
 30
0.0
 11
260.74925
 21
261.528333
 31
0.0
  0
LINE
  8
1
  6
CONTINUOUS
 62
   132
  5
19E
 10
239.49925
 20
317.028333
 30
0.0
 11
239.49925
 21
306.028333
 31
0.0
  0
LINE
  8
1
  6
CONTINUOUS
 62
   132
  5
19F
 10
259.49925
 20
317.028333
 30
0.0
 11
259.49925
 21
306.028333
 31
0.0
  0
LINE
  8
1
  6
HIDDEN
 62
   132
  5
1A0
 10
239.49925
 20
306.028333
 30
0.0
 11
239.49925
 21
258.028333
 31
0.0
  0
LINE
  8
1
  6
CONTINUOUS
 62
   132
  5
1A1
 10
239.49925
 20
258.028333
 30
0.0
 11
239.49925
 21
252.028333
 31
0.0
  0
LINE
  8
1
  6
HIDDEN
 62
   132
  5
1A2
 10
259.49925
 20
306.028333
 30
0.0
 11
259.49925
 21
258.028333
 31
0.0
  0
LINE
  8
1
  6
CONTINUOUS
 62
   132
  5
1A3
 10
259.49925
 20
258.028333
 30
0.0
 11
259.49925
 21
252.028333
 31
0.0
  0
LINE
  8
1
  6
CONTINUOUS
 62
   132
  5
1A4
 10
239.99925
 20
259.028333
 30
0.0
 11
258.49925
 21
259.028333
 31
0.0
  0
LINE
  8
1
  6
CONTINUOUS
 62
   132
  5
1A5
 10
237.74925
 20
261.028333
 30
0.0
 11
239.99925
 21
259.028333
 31
0.0
  0
LINE
  8
1
  6
CONTINUOUS
 62
   132
  5
1A6
 10
260.74925
 20
261.028333
 30
0.0
 11
258.49925
 21
259.028333
 31
0.0
  0
CIRCLE
  8
1
  6
CONTINUOUS
 62
   132
  5
1A7
 10
240.99925
 20
260.028333
 30
0.0
 40
0.5
210
0.0
220
0.0
230
1.0
  0
CIRCLE
  8
1
  6
CONTINUOUS
 62
   132
  5
1A8
 10
249.49925
 20
260.028333
 30
0.0
 40
0.5
210
0.0
220
0.0
230
1.0
  0
CIRCLE
  8
1
  6
CONTINUOUS
 62
   132
  5
1A9
 10
257.99925
 20
260.028333
 30
0.0
 40
0.5
210
0.0
220
0.0
230
1.0
  0
LINE
  8
1
  6
CONTINUOUS
 62
   132
  5
1AA
 10
258.74925
 20
297.028333
 30
0.0
 11
260.24925
 21
297.028333
 31
0.0
  0
LINE
  8
1
  6
CONTINUOUS
 62
   132
  5
1AB
 10
258.49925
 20
285.778333
 30
0.0
 11
260.49925
 21
285.778333
 31
0.0
  0
LINE
  8
1
  6
CONTINUOUS
 62
   132
  5
1AC
 10
258.49925
 20
287.278333
 30
0.0
 11
260.49925
 21
287.278333
 31
0.0
  0
LINE
  8
1
  6
CONTINUOUS
 62
   132
  5
1AD
 10
258.49925
 20
287.278333
 30
0.0
 11
258.49925
 21
285.778333
 31
0.0
  0
LINE
  8
1
  6
CONTINUOUS
 62
   132
  5
1AE
 10
260.49925
 20
287.278333
 30
0.0
 11
260.49925
 21
285.778333
 31
0.0
  0
LINE
  8
1
  6
CONTINUOUS
 62
   132
  5
1AF
 10
258.74925
 20
297.028333
 30
0.0
 11
258.74925
 21
291.028333
 31
0.0
  0
LINE
  8
1
  6
CONTINUOUS
 62
   132
  5
1B0
 10
260.24925
 20
297.028333
 30
0.0
 11
260.24925
 21
291.028333
 31
0.0
  0
LINE
  8
1
  6
CONTINUOUS
 62
   132
  5
1B1
 10
258.74925
 20
289.028333
 30
0.0
 11
260.24925
 21
289.028333
 31
0.0
  0
LINE
  8
1
  6
CONTINUOUS
 62
   132
  5
1B2
 10
258.87425
 20
289.028333
 30
0.0
 11
258.87425
 21
287.278333
 31
0.0
  0
LINE
  8
1
  6
CONTINUOUS
 62
   132
  5
1B3
 10
260.12425
 20
289.028333
 30
0.0
 11
260.12425
 21
287.278333
 31
0.0
  0
LINE
  8
1
  6
CONTINUOUS
 62
   132
  5
1B4
 10
259.27425
 20
290.028333
 30
0.0
 11
259.27425
 21
287.278333
 31
0.0
  0
LINE
  8
1
  6
CONTINUOUS
 62
   132
  5
1B5
 10
259.72425
 20
290.028333
 30
0.0
 11
259.72425
 21
287.278333
 31
0.0
  0
LINE
  8
1
  6
CONTINUOUS
 62
   132
  5
1B6
 10
258.74925
 20
291.028333
 30
0.0
 11
259.27425
 21
290.028333
 31
0.0
  0
LINE
  8
1
  6
CONTINUOUS
 62
   132
  5
1B7
 10
260.24925
 20
291.028333
 30
0.0
 11
259.72425
 21
290.028333
 31
0.0
  0
LINE
  8
1
  6
CONTINUOUS
 62
   132
  5
1B8
 10
260.24925
 20
293.028333
 30
0.0
 11
260.62425
 21
293.028333
 31
0.0
  0
LINE
  8
1
  6
CONTINUOUS
 62
   132
  5
1B9
 10
258.74925
 20
293.028333
 30
0.0
 11
258.37425
 21
293.028333
 31
0.0
  0
LINE
  8
1
  6
CONTINUOUS
 62
   132
  5
1BA
 10
258.37425
 20
293.028333
 30
0.0
 11
258.37425
 21
291.028333
 31
0.0
  0
LINE
  8
1
  6
CONTINUOUS
 62
   132
  5
1BB
 10
260.62425
 20
293.028333
 30
0.0
 11
260.62425
 21
291.028333
 31
0.0
  0
ARC
  8
1
  6
CONTINUOUS
 62
   132
  5
1BC
 10
253.506198
 20
289.080417
 30
0.0
 40
5.24331
 50
359.430847
 51
21.808464
210
0.0
220
0.0
230
1.0
  0
ARC
  8
1
  6
CONTINUOUS
 62
   132
  5
1BD
 10
265.492302
 20
289.080417
 30
0.0
 40
5.24331
 50
158.191536
 51
180.569153
210
0.0
220
0.0
230
1.0
  0
LINE
  8
1
  6
CONTINUOUS
 62
   132
  5
1BE
 10
259.27425
 20
295.778333
 30
0.0
 11
259.27425
 21
297.028333
 31
0.0
  0
LINE
  8
1
  6
CONTINUOUS
 62
   132
  5
1BF
 10
259.72425
 20
295.778333
 30
0.0
 11
259.72425
 21
297.028333
 31
0.0
  0
ARC
  8
1
  6
CONTINUOUS
 62
   132
  5
1C0
 10
259.533447
 20
294.884764
 30
0.0
 40
0.9199
 50
39.427947
 51
148.651658
210
0.0
220
0.0
230
1.0
  0
LINE
  8
1
  6
CONTINUOUS
 62
   132
  5
1C1
 10
256.49925
 20
271.028333
 30
0.0
 11
256.49925
 21
263.528333
 31
0.0
  0
LINE
  8
1
  6
CONTINUOUS
 62
   132
  5
1C2
 10
254.74925
 20
263.528333
 30
0.0
 11
256.49925
 21
263.528333
 31
0.0
  0
LINE
  8
1
  6
CONTINUOUS
 62
   132
  5
1C3
 10
254.74925
 20
271.028333
 30
0.0
 11
254.74925
 21
263.528333
 31
0.0
  0
LINE
  8
1
  6
CONTINUOUS
 62
   132
  5
1C4
 10
254.74925
 20
271.028333
 30
0.0
 11
256.49925
 21
271.028333
 31
0.0
  0
LINE
  8
1
  6
CONTINUOUS
 62
   132
  5
1C5
 10
254.74925
 20
269.278333
 30
0.0
 11
256.49925
 21
269.278333
 31
0.0
  0
CIRCLE
  8
1
  6
CONTINUOUS
 62
   132
  5
1C6
 10
255.615083
 20
270.143417
 30
0.0
 40
0.4
210
0.0
220
0.0
230
1.0
  0
LINE
  8
1
  6
CONTINUOUS
 62
     7
  5
1C7
 10
249.49925
 20
283.028333
 30
0.0
 11
249.49925
 21
281.028333
 31
0.0
  0
LINE
  8
1
  6
CONTINUOUS
 62
     7
  5
1C8
 10
249.49925
 20
320.028333
 30
0.0
 11
249.49925
 21
301.028333
 31
0.0
  0
LINE
  8
1
  6
CONTINUOUS
 62
     7
  5
1C9
 10
249.49925
 20
300.028333
 30
0.0
 11
249.49925
 21
298.028333
 31
0.0
  0
LINE
  8
1
  6
CONTINUOUS
 62
     7
  5
1CA
 10
249.49925
 20
297.028333
 30
0.0
 11
249.49925
 21
284.028333
 31
0.0
  0
LINE
  8
1
  6
CONTINUOUS
 62
     7
  5
1CB
 10
249.49925
 20
280.028333
 30
0.0
 11
249.49925
 21
267.028333
 31
0.0
  0
LINE
  8
1
  6
CONTINUOUS
 62
     7
  5
1CC
 10
249.49925
 20
266.028333
 30
0.0
 11
249.49925
 21
264.028333
 31
0.0
  0
LINE
  8
1
  6
CONTINUOUS
 62
     7
  5
1CD
 10
249.49925
 20
263.028333
 30
0.0
 11
249.49925
 21
244.028333
 31
0.0
  0
ARC
  8
1
  6
CONTINUOUS
 62
   132
  5
1CE
 10
331.49925
 20
310.632885
 30
0.0
 40
5.191077
 50
15.593869
 51
164.406128
210
0.0
220
0.0
230
1.0
  0
ARC
  8
1
  6
CONTINUOUS
 62
   132
  5
1CF
 10
341.49925
 20
310.632885
 30
0.0
 40
5.191077
 50
15.593869
 51
152.865964
210
0.0
220
0.0
230
1.0
  0
POLYLINE
  8
1
  6
CONTINUOUS
 62
   132
  5
1D0
 66
     1
 10
0.0
 20
0.0
 30
0.0
  0
VERTEX
  8
1
  6
CONTINUOUS
 62
   132
  5
1D1
 10
336.49925
 20
312.028333
 30
0.0
 42
0.680339
  0
VERTEX
  8
1
  6
CONTINUOUS
 62
   132
  5
1D2
 10
346.104203
 20
311.027601
 30
0.0
  0
VERTEX
  8
1
  6
CONTINUOUS
 62
   132
  5
1D3
 10
346.087583
 20
311.090083
 30
0.0
 42
0.613196
  0
VERTEX
  8
1
  6
CONTINUOUS
 62
   132
  5
1D4
 10
336.879493
 20
313.000398
 30
0.0
  0
VERTEX
  8
1
  6
CONTINUOUS
 62
   132
  5
1D5
 10
336.866612
 20
312.975093
 30
0.0
 42
0.049025
  0
VERTEX
  8
1
  6
CONTINUOUS
 62
   132
  5
1D6
 10
336.49925
 20
312.028334
 30
0.0
  0
SEQEND
  8
1
  6
CONTINUOUS
 62
   132
  5
1D7
  0
LINE
  8
1
  6
CONTINUOUS
 62
   132
  5
1D8
 10
345.92525
 20
311.567583
 30
0.0
 11
342.866167
 21
314.626667
 31
0.0
  0
LINE
  8
1
  6
CONTINUOUS
 62
   132
  5
1D9
 10
345.700333
 20
310.37825
 30
0.0
 11
341.111167
 21
314.967417
 31
0.0
  0
LINE
  8
1
  6
CONTINUOUS
 62
   132
  5
1DA
 10
345.03125
 20
309.633167
 30
0.0
 11
339.827333
 21
314.837083
 31
0.0
  0
LINE
  8
1
  6
CONTINUOUS
 62
   132
  5
1DB
 10
344.235083
 20
309.015083
 30
0.0
 11
338.770167
 21
314.48
 31
0.0
  0
LINE
  8
1
  6
CONTINUOUS
 62
   132
  5
1DC
 10
343.27975
 20
308.55625
 30
0.0
 11
337.884083
 21
313.951917
 31
0.0
  0
LINE
  8
1
  6
CONTINUOUS
 62
   132
  5
1DD
 10
342.139417
 20
308.282333
 30
0.0
 11
337.135
 21
313.28675
 31
0.0
  0
LINE
  8
1
  6
CONTINUOUS
 62
   132
  5
1DE
 10
340.707
 20
308.300583
 30
0.0
 11
336.615833
 21
312.39175
 31
0.0
  0
POLYLINE
  8
1
  6
CONTINUOUS
 62
   132
  5
1DF
 66
     1
 10
0.0
 20
0.0
 30
0.0
  0
VERTEX
  8
1
  6
CONTINUOUS
 62
   132
  5
1E0
 10
336.49925
 20
252.028334
 30
0.0
 42
-0.680339
  0
VERTEX
  8
1
  6
CONTINUOUS
 62
   132
  5
1E1
 10
346.104203
 20
253.029065
 30
0.0
  0
VERTEX
  8
1
  6
CONTINUOUS
 62
   132
  5
1E2
 10
346.087583
 20
252.966583
 30
0.0
 42
-0.613196
  0
VERTEX
  8
1
  6
CONTINUOUS
 62
   132
  5
1E3
 10
336.879493
 20
251.056269
 30
0.0
  0
VERTEX
  8
1
  6
CONTINUOUS
 62
   132
  5
1E4
 10
336.866612
 20
251.081573
 30
0.0
 42
-0.049025
  0
VERTEX
  8
1
  6
CONTINUOUS
 62
   132
  5
1E5
 10
336.49925
 20
252.028333
 30
0.0
  0
SEQEND
  8
1
  6
CONTINUOUS
 62
   132
  5
1E6
  0
ARC
  8
1
  6
CONTINUOUS
 62
   132
  5
1E7
 10
331.49925
 20
253.423782
 30
0.0
 40
5.191077
 50
195.593872
 51
344.406131
210
0.0
220
0.0
230
1.0
  0
ARC
  8
1
  6
CONTINUOUS
 62
   132
  5
1E8
 10
341.49925
 20
253.423782
 30
0.0
 40
5.191077
 50
207.134036
 51
344.406131
210
0.0
220
0.0
230
1.0
  0
LINE
  8
1
  6
CONTINUOUS
 62
   132
  5
1E9
 10
345.92525
 20
252.489083
 30
0.0
 11
342.866167
 21
249.43
 31
0.0
  0
LINE
  8
1
  6
CONTINUOUS
 62
   132
  5
1EA
 10
345.700333
 20
253.678417
 30
0.0
 11
341.111167
 21
249.08925
 31
0.0
  0
LINE
  8
1
  6
CONTINUOUS
 62
   132
  5
1EB
 10
345.03125
 20
254.4235
 30
0.0
 11
339.827333
 21
249.219583
 31
0.0
  0
LINE
  8
1
  6
CONTINUOUS
 62
   132
  5
1EC
 10
344.235083
 20
255.041583
 30
0.0
 11
338.770167
 21
249.576667
 31
0.0
  0
LINE
  8
1
  6
CONTINUOUS
 62
   132
  5
1ED
 10
343.27975
 20
255.500417
 30
0.0
 11
337.884083
 21
250.10475
 31
0.0
  0
LINE
  8
1
  6
CONTINUOUS
 62
   132
  5
1EE
 10
342.139417
 20
255.774333
 30
0.0
 11
337.135
 21
250.769917
 31
0.0
  0
LINE
  8
1
  6
CONTINUOUS
 62
   132
  5
1EF
 10
340.707
 20
255.756083
 30
0.0
 11
336.615833
 21
251.664917
 31
0.0
  0
LINE
  8
1
  6
CONTINUOUS
 62
   132
  5
1F0
 10
346.49925
 20
312.028333
 30
0.0
 11
346.49925
 21
252.028333
 31
0.0
  0
LINE
  8
1
  6
CONTINUOUS
 62
     7
  5
1F1
 10
336.49925
 20
297.028333
 30
0.0
 11
336.49925
 21
284.028333
 31
0.0
  0
LINE
  8
1
  6
CONTINUOUS
 62
     7
  5
1F2
 10
336.49925
 20
283.028333
 30
0.0
 11
336.49925
 21
281.028333
 31
0.0
  0
LINE
  8
1
  6
CONTINUOUS
 62
     7
  5
1F3
 10
336.49925
 20
320.028333
 30
0.0
 11
336.49925
 21
301.028333
 31
0.0
  0
LINE
  8
1
  6
CONTINUOUS
 62
     7
  5
1F4
 10
336.49925
 20
300.028333
 30
0.0
 11
336.49925
 21
298.028333
 31
0.0
  0
LINE
  8
1
  6
CONTINUOUS
 62
     7
  5
1F5
 10
336.49925
 20
280.028333
 30
0.0
 11
336.49925
 21
267.028333
 31
0.0
  0
LINE
  8
1
  6
CONTINUOUS
 62
     7
  5
1F6
 10
336.49925
 20
266.028333
 30
0.0
 11
336.49925
 21
264.028333
 31
0.0
  0
LINE
  8
1
  6
CONTINUOUS
 62
     7
  5
1F7
 10
336.49925
 20
263.028333
 30
0.0
 11
336.49925
 21
244.028333
 31
0.0
  0
LINE
  8
1
  6
CONTINUOUS
 62
   132
  5
1F8
 10
325.24925
 20
304.528333
 30
0.0
 11
325.24925
 21
259.528333
 31
0.0
  0
LINE
  8
1
  6
CONTINUOUS
 62
   132
  5
1F9
 10
313.99925
 20
303.028333
 30
0.0
 11
339.49925
 21
303.028333
 31
0.0
  0
LINE
  8
1
  6
CONTINUOUS
 62
   132
  5
1FA
 10
313.99925
 20
261.028333
 30
0.0
 11
339.49925
 21
261.028333
 31
0.0
  0
LINE
  8
1
  6
CONTINUOUS
 62
   132
  5
1FB
 10
325.49925
 20
306.028333
 30
0.0
 11
339.49925
 21
306.028333
 31
0.0
  0
LINE
  8
1
  6
CONTINUOUS
 62
   132
  5
1FC
 10
325.49925
 20
306.028333
 30
0.0
 11
325.49925
 21
303.028333
 31
0.0
  0
LINE
  8
1
  6
CONTINUOUS
 62
   132
  5
1FD
 10
339.49925
 20
306.028333
 30
0.0
 11
339.49925
 21
303.028333
 31
0.0
  0
LINE
  8
1
  6
CONTINUOUS
 62
   132
  5
1FE
 10
325.49925
 20
258.028333
 30
0.0
 11
339.49925
 21
258.028333
 31
0.0
  0
LINE
  8
1
  6
CONTINUOUS
 62
   132
  5
1FF
 10
339.49925
 20
261.028333
 30
0.0
 11
339.49925
 21
258.028333
 31
0.0
  0
LINE
  8
1
  6
CONTINUOUS
 62
   132
  5
200
 10
325.49925
 20
261.028333
 30
0.0
 11
325.49925
 21
258.028333
 31
0.0
  0
LINE
  8
1
  6
CONTINUOUS
 62
   132
  5
201
 10
313.99925
 20
303.028333
 30
0.0
 11
313.99925
 21
261.028333
 31
0.0
  0
LINE
  8
1
  6
HIDDEN
 62
   132
  5
202
 10
324.49925
 20
303.028333
 30
0.0
 11
324.49925
 21
261.028333
 31
0.0
  0
LINE
  8
1
  6
CONTINUOUS
 62
   132
  5
203
 10
311.99925
 20
302.028333
 30
0.0
 11
311.99925
 21
262.028333
 31
0.0
  0
LINE
  8
1
  6
CONTINUOUS
 62
   132
  5
204
 10
311.99925
 20
302.028333
 30
0.0
 11
313.99925
 21
302.028333
 31
0.0
  0
LINE
  8
1
  6
CONTINUOUS
 62
   132
  5
205
 10
311.99925
 20
262.028333
 30
0.0
 11
313.99925
 21
262.028333
 31
0.0
  0
LINE
  8
1
  6
CONTINUOUS
 62
   132
  5
206
 10
311.99925
 20
263.028333
 30
0.0
 11
310.99925
 21
263.028333
 31
0.0
  0
LINE
  8
1
  6
CONTINUOUS
 62
   132
  5
207
 10
311.99925
 20
267.528333
 30
0.0
 11
310.99925
 21
267.528333
 31
0.0
  0
LINE
  8
1
  6
CONTINUOUS
 62
   132
  5
208
 10
310.99925
 20
267.528333
 30
0.0
 11
310.99925
 21
263.028333
 31
0.0
  0
LINE
  8
1
  6
CONTINUOUS
 62
   132
  5
209
 10
325.49925
 20
305.028333
 30
0.0
 11
326.99925
 21
305.028333
 31
0.0
  0
LINE
  8
1
  6
CONTINUOUS
 62
   132
  5
20A
 10
325.49925
 20
304.028333
 30
0.0
 11
326.99925
 21
304.028333
 31
0.0
  0
LINE
  8
1
  6
CONTINUOUS
 62
   132
  5
20B
 10
325.49925
 20
260.028333
 30
0.0
 11
326.99925
 21
260.028333
 31
0.0
  0
LINE
  8
1
  6
CONTINUOUS
 62
   132
  5
20C
 10
325.49925
 20
259.028333
 30
0.0
 11
326.99925
 21
259.028333
 31
0.0
  0
LINE
  8
1
  6
CONTINUOUS
 62
   132
  5
20D
 10
326.99925
 20
306.028333
 30
0.0
 11
326.99925
 21
305.028333
 31
0.0
  0
LINE
  8
1
  6
CONTINUOUS
 62
   132
  5
20E
 10
326.99925
 20
304.028333
 30
0.0
 11
326.99925
 21
303.028333
 31
0.0
  0
LINE
  8
1
  6
CONTINUOUS
 62
   132
  5
20F
 10
326.99925
 20
261.028333
 30
0.0
 11
326.99925
 21
260.028333
 31
0.0
  0
LINE
  8
1
  6
CONTINUOUS
 62
   132
  5
210
 10
326.99925
 20
259.028333
 30
0.0
 11
326.99925
 21
258.028333
 31
0.0
  0
LINE
  8
1
  6
CONTINUOUS
 62
   132
  5
211
 10
326.49925
 20
258.028333
 30
0.0
 11
326.49925
 21
252.028333
 31
0.0
  0
LINE
  8
1
  6
CONTINUOUS
 62
   132
  5
212
 10
326.49925
 20
312.028333
 30
0.0
 11
326.49925
 21
306.028333
 31
0.0
  0
LINE
  8
1
  6
CONTINUOUS
 62
   132
  5
213
 10
326.49925
 20
303.028333
 30
0.0
 11
326.49925
 21
261.028333
 31
0.0
  0
CIRCLE
  8
1
  6
CONTINUOUS
 62
   132
  5
214
 10
338.49925
 20
305.278333
 30
0.0
 40
0.375
210
0.0
220
0.0
230
1.0
  0
CIRCLE
  8
1
  6
CONTINUOUS
 62
   132
  5
215
 10
338.49925
 20
303.778333
 30
0.0
 40
0.375
210
0.0
220
0.0
230
1.0
  0
CIRCLE
  8
1
  6
CONTINUOUS
 62
   132
  5
216
 10
338.49925
 20
260.278333
 30
0.0
 40
0.375
210
0.0
220
0.0
230
1.0
  0
CIRCLE
  8
1
  6
CONTINUOUS
 62
   132
  5
217
 10
338.49925
 20
258.778333
 30
0.0
 40
0.375
210
0.0
220
0.0
230
1.0
  0
LINE
  8
1
  6
CONTINUOUS
 62
   132
  5
218
 10
312.99925
 20
296.528333
 30
0.0
 11
313.99925
 21
296.528333
 31
0.0
  0
LINE
  8
1
  6
CONTINUOUS
 62
   132
  5
219
 10
312.99925
 20
288.528333
 30
0.0
 11
313.99925
 21
288.528333
 31
0.0
  0
LINE
  8
1
  6
CONTINUOUS
 62
   132
  5
21A
 10
312.49925
 20
287.028333
 30
0.0
 11
313.99925
 21
287.028333
 31
0.0
  0
LINE
  8
1
  6
CONTINUOUS
 62
   132
  5
21B
 10
312.49925
 20
285.528333
 30
0.0
 11
313.99925
 21
285.528333
 31
0.0
  0
LINE
  8
1
  6
CONTINUOUS
 62
   132
  5
21C
 10
312.49925
 20
287.028333
 30
0.0
 11
312.49925
 21
285.528333
 31
0.0
  0
POLYLINE
  8
1
  6
CONTINUOUS
 62
   132
  5
21D
 66
     1
 10
0.0
 20
0.0
 30
0.0
  0
VERTEX
  8
1
  6
CONTINUOUS
 62
   132
  5
21E
 10
312.99925
 20
292.528333
 30
0.0
  0
VERTEX
  8
1
  6
CONTINUOUS
 62
   132
  5
21F
 10
312.599667
 20
292.23225
 30
0.0
  0
VERTEX
  8
1
  6
CONTINUOUS
 62
   132
  5
220
 10
312.528295
 20
292.16926
 30
0.0
  0
VERTEX
  8
1
  6
CONTINUOUS
 62
   132
  5
221
 10
312.487049
 20
292.121777
 30
0.0
  0
VERTEX
  8
1
  6
CONTINUOUS
 62
   132
  5
222
 10
312.416945
 20
292.016051
 30
0.0
  0
VERTEX
  8
1
  6
CONTINUOUS
 62
   132
  5
223
 10
312.333376
 20
291.838627
 30
0.0
  0
VERTEX
  8
1
  6
CONTINUOUS
 62
   132
  5
224
 10
312.235964
 20
291.589469
 30
0.0
  0
VERTEX
  8
1
  6
CONTINUOUS
 62
   132
  5
225
 10
312.182
 20
291.469167
 30
0.0
  0
VERTEX
  8
1
  6
CONTINUOUS
 62
   132
  5
226
 10
312.069644
 20
291.254677
 30
0.0
  0
VERTEX
  8
1
  6
CONTINUOUS
 62
   132
  5
227
 10
312.036667
 20
291.142167
 30
0.0
  0
VERTEX
  8
1
  6
CONTINUOUS
 62
   132
  5
228
 10
312.023868
 20
291.00272
 30
0.0
  0
VERTEX
  8
1
  6
CONTINUOUS
 62
   132
  5
229
 10
312.032345
 20
290.720784
 30
0.0
  0
VERTEX
  8
1
  6
CONTINUOUS
 62
   132
  5
22A
 10
312.072517
 20
290.43663
 30
0.0
  0
VERTEX
  8
1
  6
CONTINUOUS
 62
   132
  5
22B
 10
312.146888
 20
290.058124
 30
0.0
  0
VERTEX
  8
1
  6
CONTINUOUS
 62
   132
  5
22C
 10
312.182
 20
289.8705
 30
0.0
  0
VERTEX
  8
1
  6
CONTINUOUS
 62
   132
  5
22D
 10
312.270577
 20
289.447743
 30
0.0
  0
VERTEX
  8
1
  6
CONTINUOUS
 62
   132
  5
22E
 10
312.353955
 20
289.072518
 30
0.0
  0
VERTEX
  8
1
  6
CONTINUOUS
 62
   132
  5
22F
 10
312.387693
 20
288.883967
 30
0.0
  0
VERTEX
  8
1
  6
CONTINUOUS
 62
   132
  5
230
 10
312.418083
 20
288.59875
 30
0.0
  0
VERTEX
  8
1
  6
CONTINUOUS
 62
   132
  5
231
 10
312.49925
 20
287.028333
 30
0.0
  0
SEQEND
  8
1
  6
CONTINUOUS
 62
   132
  5
232
  0
LINE
  8
1
  6
CONTINUOUS
 62
   132
  5
233
 10
312.99925
 20
296.528333
 30
0.0
 11
312.99925
 21
296.403333
 31
0.0
  0
LINE
  8
1
  6
CONTINUOUS
 62
   132
  5
234
 10
312.99925
 20
296.403333
 30
0.0
 11
312.99925
 21
288.528333
 31
0.0
  0
POLYLINE
  8
1
  6
CONTINUOUS
 62
   132
  5
235
 66
     1
 10
0.0
 20
0.0
 30
0.0
  0
VERTEX
  8
1
  6
CONTINUOUS
 62
   132
  5
236
 10
312.99925
 20
296.403333
 30
0.0
 42
0.585421
  0
VERTEX
  8
1
  6
CONTINUOUS
 62
   132
  5
237
 10
312.99925
 20
295.653333
 30
0.0
  0
VERTEX
  8
1
  6
CONTINUOUS
 62
   132
  5
238
 10
312.99925
 20
295.653333
 30
0.0
  0
VERTEX
  8
1
  6
CONTINUOUS
 62
   132
  5
239
 10
312.99925
 20
296.403333
 30
0.0
  0
SEQEND
  8
1
  6
CONTINUOUS
 62
   132
  5
23A
  0
LINE
  8
1
  6
CONTINUOUS
 62
     7
  5
23B
 10
318.49925
 20
263.278333
 30
0.0
 11
351.49925
 21
263.278333
 31
0.0
  0
LINE
  8
1
  6
CONTINUOUS
 62
     7
  5
23C
 10
318.49925
 20
263.278333
 30
0.0
 11
318.49925
 21
256.278333
 31
0.0
  0
LINE
  8
1
  6
CONTINUOUS
 62
     7
  5
23D
 10
351.49925
 20
263.278333
 30
0.0
 11
351.49925
 21
256.278333
 31
0.0
  0
INSERT
  8
1
  6
CONTINUOUS
 62
     1
  5
25E
  2
LDR
 10
318.49925
 20
256.278333
 30
0.0
 41
240.0
 42
240.0
 50
270.0
210
0.0
220
0.0
230
1.0
  0
INSERT
  8
1
  6
CONTINUOUS
 62
     1
  5
25F
  2
LDR
 10
318.49925
 20
256.278333
 30
0.0
 41
240.0
 42
240.0
 50
270.0
210
0.0
220
0.0
230
1.0
  0
INSERT
  8
1
  6
CONTINUOUS
 62
     1
  5
260
  2
LDR
 10
351.49925
 20
256.278333
 30
0.0
 41
240.0
 42
240.0
 50
270.0
210
0.0
220
0.0
230
1.0
  0
CIRCLE
  8
1
  6
CONTINUOUS
 62
   132
  5
261
 10
336.49925
 20
343.778333
 30
0.0
 40
9.0
210
0.0
220
0.0
230
1.0
  0
CIRCLE
  8
1
  6
CONTINUOUS
 62
   132
  5
262
 10
336.49925
 20
343.778333
 30
0.0
 40
10.25
210
0.0
220
0.0
230
1.0
  0
LINE
  8
1
  6
CONTINUOUS
 62
     7
  5
263
 10
336.49925
 20
343.778333
 30
0.0
 11
336.49925
 21
344.778333
 31
0.0
  0
LINE
  8
1
  6
CONTINUOUS
 62
     7
  5
264
 10
336.49925
 20
345.778333
 30
0.0
 11
336.49925
 21
359.528333
 31
0.0
  0
LINE
  8
1
  6
CONTINUOUS
 62
     7
  5
265
 10
336.49925
 20
328.028333
 30
0.0
 11
336.49925
 21
341.778333
 31
0.0
  0
LINE
  8
1
  6
CONTINUOUS
 62
     7
  5
266
 10
336.49925
 20
342.778333
 30
0.0
 11
336.49925
 21
343.778333
 31
0.0
  0
LINE
  8
1
  6
CONTINUOUS
 62
     7
  5
267
 10
321.99925
 20
343.778333
 30
0.0
 11
334.49925
 21
343.778333
 31
0.0
  0
LINE
  8
1
  6
CONTINUOUS
 62
     7
  5
268
 10
335.49925
 20
343.778333
 30
0.0
 11
336.49925
 21
343.778333
 31
0.0
  0
LINE
  8
1
  6
CONTINUOUS
 62
     7
  5
269
 10
336.49925
 20
343.778333
 30
0.0
 11
337.49925
 21
343.778333
 31
0.0
  0
LINE
  8
1
  6
CONTINUOUS
 62
     7
  5
26A
 10
338.49925
 20
343.778333
 30
0.0
 11
350.99925
 21
343.778333
 31
0.0
  0
LINE
  8
1
  6
CONTINUOUS
 62
   132
  5
26B
 10
327.555
 20
344.778333
 30
0.0
 11
328.305
 21
344.778333
 31
0.0
  0
LINE
  8
1
  6
CONTINUOUS
 62
   132
  5
26C
 10
327.555
 20
342.778333
 30
0.0
 11
328.305
 21
342.778333
 31
0.0
  0
LINE
  8
1
  6
CONTINUOUS
 62
   132
  5
26D
 10
328.305
 20
344.778333
 30
0.0
 11
328.305
 21
342.778333
 31
0.0
  0
LINE
  8
1
  6
CONTINUOUS
 62
   132
  5
26E
 10
326.24925
 20
333.246583
 30
0.0
 11
326.24925
 21
354.310083
 31
0.0
  0
LINE
  8
1
  6
CONTINUOUS
 62
   132
  5
26F
 10
325.74925
 20
333.246583
 30
0.0
 11
325.74925
 21
354.310083
 31
0.0
  0
LINE
  8
1
  6
HIDDEN
 62
   132
  5
270
 10
325.24925
 20
336.778333
 30
0.0
 11
325.24925
 21
350.778333
 31
0.0
  0
CIRCLE
  8
1
  6
CONTINUOUS
 62
   132
  5
271
 10
325.99925
 20
332.278333
 30
0.0
 40
0.650976
210
0.0
220
0.0
230
1.0
  0
LINE
  8
1
  6
CONTINUOUS
 62
   132
  5
272
 10
339.80575
 20
333.552917
 30
0.0
 11
339.73875
 21
333.881333
 31
0.0
  0
LINE
  8
1
  6
CONTINUOUS
 62
   132
  5
273
 10
339.808
 20
333.538333
 30
0.0
 11
326.1355
 21
331.285833
 31
0.0
  0
LINE
  8
1
  6
CONTINUOUS
 62
   132
  5
274
 10
339.73875
 20
333.881333
 30
0.0
 11
326.14975
 21
331.642583
 31
0.0
  0
ARC
  8
1
  6
CONTINUOUS
 62
   132
  5
275
 10
325.99925
 20
332.278333
 30
0.0
 40
1.0
 50
15.549647
 51
277.835611
210
0.0
220
0.0
230
1.0
  0
LINE
  8
1
  6
CONTINUOUS
 62
   132
  5
276
 10
326.962667
 20
332.546417
 30
0.0
 11
326.631333
 21
332.433917
 31
0.0
  0
LINE
  8
1
  6
CONTINUOUS
 62
   132
  5
277
 10
339.808
 20
354.018333
 30
0.0
 11
326.1355
 21
356.270833
 31
0.0
  0
CIRCLE
  8
1
  6
CONTINUOUS
 62
   132
  5
278
 10
325.99925
 20
355.278333
 30
0.0
 40
0.650976
210
0.0
220
0.0
230
1.0
  0
LINE
  8
1
  6
CONTINUOUS
 62
   132
  5
279
 10
339.80575
 20
354.00375
 30
0.0
 11
339.73875
 21
353.675333
 31
0.0
  0
LINE
  8
1
  6
CONTINUOUS
 62
   132
  5
27A
 10
339.73875
 20
353.675333
 30
0.0
 11
326.14975
 21
355.914083
 31
0.0
  0
ARC
  8
1
  6
CONTINUOUS
 62
   132
  5
27B
 10
325.99925
 20
355.278333
 30
0.0
 40
1.0
 50
82.164389
 51
344.450353
210
0.0
220
0.0
230
1.0
  0
LINE
  8
1
  6
CONTINUOUS
 62
   132
  5
27C
 10
326.962667
 20
355.01025
 30
0.0
 11
326.631333
 21
355.12275
 31
0.0
  0
LINE
  8
1
  6
CONTINUOUS
 62
   132
  5
27D
 10
324.99925
 20
355.278333
 30
0.0
 11
313.34825
 21
355.278333
 31
0.0
  0
LINE
  8
1
  6
CONTINUOUS
 62
   132
  5
27E
 10
324.99925
 20
332.278333
 30
0.0
 11
313.34825
 21
332.278333
 31
0.0
  0
LINE
  8
1
  6
CONTINUOUS
 62
   132
  5
27F
 10
313.34825
 20
355.278333
 30
0.0
 11
313.34825
 21
332.278333
 31
0.0
  0
LINE
  8
1
  6
CONTINUOUS
 62
   132
  5
280
 10
311.59825
 20
354.778333
 30
0.0
 11
311.59825
 21
334.778333
 31
0.0
  0
LINE
  8
1
  6
CONTINUOUS
 62
   132
  5
281
 10
311.59825
 20
354.778333
 30
0.0
 11
313.34825
 21
354.778333
 31
0.0
  0
LINE
  8
1
  6
CONTINUOUS
 62
   132
  5
282
 10
311.59825
 20
334.778333
 30
0.0
 11
313.34825
 21
334.778333
 31
0.0
  0
LINE
  8
1
  6
CONTINUOUS
 62
   132
  5
283
 10
337.760417
 20
354.608833
 30
0.0
 11
337.710417
 21
354.363917
 31
0.0
  0
LINE
  8
1
  6
CONTINUOUS
 62
   132
  5
284
 10
338.994667
 20
354.4055
 30
0.0
 11
338.944667
 21
354.160583
 31
0.0
  0
LINE
  8
1
  6
CONTINUOUS
 62
   132
  5
285
 10
337.760417
 20
354.608833
 30
0.0
 11
338.994667
 21
354.4055
 31
0.0
  0
LINE
  8
1
  6
CONTINUOUS
 62
   132
  5
286
 10
338.377667
 20
354.507167
 30
0.0
 11
338.32775
 21
354.262167
 31
0.0
  0
LINE
  8
1
  6
HIDDEN
 62
   132
  5
287
 10
338.32775
 20
354.262167
 30
0.0
 11
337.89925
 21
352.162417
 31
0.0
  0
LINE
  8
1
  6
CONTINUOUS
 62
   132
  5
288
 10
338.994667
 20
333.151083
 30
0.0
 11
338.944667
 21
333.396083
 31
0.0
  0
LINE
  8
1
  6
CONTINUOUS
 62
   132
  5
289
 10
337.760417
 20
332.94775
 30
0.0
 11
337.710417
 21
333.19275
 31
0.0
  0
LINE
  8
1
  6
CONTINUOUS
 62
   132
  5
28A
 10
337.760417
 20
332.94775
 30
0.0
 11
338.994667
 21
333.151083
 31
0.0
  0
LINE
  8
1
  6
CONTINUOUS
 62
   132
  5
28B
 10
338.377667
 20
333.049417
 30
0.0
 11
338.327667
 21
333.294417
 31
0.0
  0
LINE
  8
1
  6
HIDDEN
 62
   132
  5
28C
 10
338.32775
 20
333.2945
 30
0.0
 11
337.89925
 21
335.394083
 31
0.0
  0
LINE
  8
1
  6
HIDDEN
 62
   132
  5
28D
 10
324.74925
 20
342.278333
 30
0.0
 11
324.74925
 21
345.278333
 31
0.0
  0
LINE
  8
1
  6
HIDDEN
 62
   132
  5
28E
 10
324.24925
 20
342.278333
 30
0.0
 11
324.24925
 21
345.278333
 31
0.0
  0
LINE
  8
1
  6
HIDDEN
 62
   132
  5
28F
 10
323.74925
 20
342.278333
 30
0.0
 11
323.74925
 21
345.278333
 31
0.0
  0
LINE
  8
1
  6
HIDDEN
 62
   132
  5
290
 10
323.74925
 20
345.278333
 30
0.0
 11
325.24925
 21
345.278333
 31
0.0
  0
LINE
  8
1
  6
HIDDEN
 62
   132
  5
291
 10
323.74925
 20
342.278333
 30
0.0
 11
325.24925
 21
342.278333
 31
0.0
  0
LINE
  8
1
  6
HIDDEN
 62
   132
  5
292
 10
327.555
 20
344.778333
 30
0.0
 11
324.74925
 21
344.778333
 31
0.0
  0
LINE
  8
1
  6
HIDDEN
 62
   132
  5
293
 10
327.555
 20
342.778333
 30
0.0
 11
324.74925
 21
342.778333
 31
0.0
  0
TEXT
  8
1
  6
HIDDEN
 62
     7
  5
294
 10
315.748083
 20
323.046917
 30
0.0
 40
4.0
  1
TOP VIEW
  7
MONOTXT
 72
     4
 11
330.503917
 21
325.046917
 31
0.0
210
0.0
220
0.0
230
1.0
  0
TEXT
  8
1
  6
HIDDEN
 62
     7
  5
295
 10
231.313083
 20
236.1215
 30
0.0
 40
4.0
  1
FRONT VIEW
  7
MONOTXT
 72
     4
 11
249.942917
 21
238.1215
 31
0.0
210
0.0
220
0.0
230
1.0
  0
TEXT
  8
1
  6
HIDDEN
 62
     7
  5
296
 10
315.917333
 20
236.347833
 30
0.0
 40
4.0
  1
SIDE VIEW
  7
MONOTXT
 72
     4
 11
330.956667
 21
238.347833
 31
0.0
210
0.0
220
0.0
230
1.0
  0
LINE
  8
1
  6
CONTINUOUS
 62
     7
  5
297
 10
314.873917
 20
321.87775
 30
0.0
 11
347.298167
 21
321.87775
 31
0.0
  0
LINE
  8
1
  6
CONTINUOUS
 62
     7
  5
298
 10
229.787
 20
234.725917
 30
0.0
 11
270.520083
 21
234.725917
 31
0.0
  0
LINE
  8
1
  6
CONTINUOUS
 62
     7
  5
299
 10
314.873917
 20
234.725917
 30
0.0
 11
348.376167
 21
234.725917
 31
0.0
  0
TEXT
  8
1
  6
CONTINUOUS
 62
     7
  5
29A
 10
317.602333
 20
253.301917
 30
0.0
 40
2.5
  1
C
  7
MONOTXT
 72
     4
 11
318.498
 21
254.551917
 31
0.0
210
0.0
220
0.0
230
1.0
  0
TEXT
  8
1
  6
CONTINUOUS
 62
     7
  5
29B
 10
350.608417
 20
253.393667
 30
0.0
 40
2.5
  1
C
  7
MONOTXT
 72
     4
 11
351.504083
 21
254.643667
 31
0.0
210
0.0
220
0.0
230
1.0
  0
ARC
  8
1
  6
CONTINUOUS
 62
   212
  5
29C
 10
493.825167
 20
189.241667
 30
0.0
 40
24.5
 50
202.182069
 51
157.817931
210
0.0
220
0.0
230
1.0
  0
ARC
  8
1
  6
CONTINUOUS
 62
   212
  5
29D
 10
493.825167
 20
189.241667
 30
0.0
 40
23.5
 50
203.17975
 51
156.82025
210
0.0
220
0.0
230
1.0
  0
LINE
  8
1
  6
CONTINUOUS
 62
   212
  5
29E
 10
469.002333
 20
216.348917
 30
0.0
 11
469.002333
 21
161.241667
 31
0.0
  0
LINE
  8
1
  6
CONTINUOUS
 62
   212
  5
29F
 10
468.002333
 20
215.438917
 30
0.0
 11
468.002333
 21
161.976583
 31
0.0
  0
LINE
  8
1
  6
CONTINUOUS
 62
   212
  5
2A0
 10
467.502333
 20
217.241667
 30
0.0
 11
467.502333
 21
161.241667
 31
0.0
  0
LINE
  8
1
  6
CONTINUOUS
 62
   212
  5
2A1
 10
473.377333
 20
196.491667
 30
0.0
 11
473.377333
 21
181.991667
 31
0.0
  0
LINE
  8
1
  6
CONTINUOUS
 62
   212
  5
2A2
 10
474.377333
 20
195.241667
 30
0.0
 11
474.377333
 21
183.241667
 31
0.0
  0
LINE
  8
1
  6
CONTINUOUS
 62
   212
  5
2A3
 10
475.377333
 20
196.491667
 30
0.0
 11
475.377333
 21
181.991667
 31
0.0
  0
LINE
  8
1
  6
CONTINUOUS
 62
   212
  5
2A4
 10
475.377333
 20
196.491667
 30
0.0
 11
472.627333
 21
196.491667
 31
0.0
  0
LINE
  8
1
  6
CONTINUOUS
 62
   212
  5
2A5
 10
475.377333
 20
181.991667
 30
0.0
 11
472.627333
 21
181.991667
 31
0.0
  0
LINE
  8
1
  6
CONTINUOUS
 62
   212
  5
2A6
 10
467.502333
 20
197.491667
 30
0.0
 11
464.502333
 21
197.491667
 31
0.0
  0
LINE
  8
1
  6
CONTINUOUS
 62
   212
  5
2A7
 10
467.502333
 20
180.991667
 30
0.0
 11
464.502333
 21
180.991667
 31
0.0
  0
LINE
  8
1
  6
CONTINUOUS
 62
   212
  5
2A8
 10
464.502333
 20
197.491667
 30
0.0
 11
464.502333
 21
180.991667
 31
0.0
  0
LINE
  8
1
  6
CONTINUOUS
 62
   212
  5
2A9
 10
466.252333
 20
197.491667
 30
0.0
 11
466.252333
 21
180.991667
 31
0.0
  0
LINE
  8
1
  6
CONTINUOUS
 62
   212
  5
2AA
 10
463.752333
 20
197.491667
 30
0.0
 11
463.752333
 21
180.991667
 31
0.0
  0
LINE
  8
1
  6
CONTINUOUS
 62
   212
  5
2AB
 10
462.252333
 20
197.491667
 30
0.0
 11
462.252333
 21
180.991667
 31
0.0
  0
LINE
  8
1
  6
CONTINUOUS
 62
   212
  5
2AC
 10
462.252333
 20
197.491667
 30
0.0
 11
463.752333
 21
197.491667
 31
0.0
  0
LINE
  8
1
  6
CONTINUOUS
 62
   212
  5
2AD
 10
462.252333
 20
180.991667
 30
0.0
 11
463.752333
 21
180.991667
 31
0.0
  0
LINE
  8
1
  6
CONTINUOUS
 62
   212
  5
2AE
 10
467.502333
 20
196.991667
 30
0.0
 11
464.502333
 21
196.991667
 31
0.0
  0
LINE
  8
1
  6
CONTINUOUS
 62
   212
  5
2AF
 10
467.502333
 20
196.491667
 30
0.0
 11
463.752333
 21
196.491667
 31
0.0
  0
LINE
  8
1
  6
CONTINUOUS
 62
   212
  5
2B0
 10
467.502333
 20
181.491667
 30
0.0
 11
464.502333
 21
181.491667
 31
0.0
  0
LINE
  8
1
  6
CONTINUOUS
 62
   212
  5
2B1
 10
467.502333
 20
181.991667
 30
0.0
 11
463.752333
 21
181.991667
 31
0.0
  0
LINE
  8
1
  6
CONTINUOUS
 62
   212
  5
2B2
 10
467.502333
 20
190.241667
 30
0.0
 11
464.502333
 21
190.241667
 31
0.0
  0
LINE
  8
1
  6
CONTINUOUS
 62
   212
  5
2B3
 10
467.502333
 20
188.241667
 30
0.0
 11
464.502333
 21
188.241667
 31
0.0
  0
LINE
  8
1
  6
HIDDEN
 62
   212
  5
2B4
 10
475.377333
 20
195.241667
 30
0.0
 11
469.002333
 21
195.241667
 31
0.0
  0
LINE
  8
1
  6
HIDDEN
 62
   212
  5
2B5
 10
467.502333
 20
195.241667
 30
0.0
 11
462.252333
 21
195.241667
 31
0.0
  0
LINE
  8
1
  6
HIDDEN
 62
   212
  5
2B6
 10
475.377333
 20
183.241667
 30
0.0
 11
469.002333
 21
183.241667
 31
0.0
  0
LINE
  8
1
  6
HIDDEN
 62
   212
  5
2B7
 10
467.502333
 20
183.241667
 30
0.0
 11
462.252333
 21
183.241667
 31
0.0
  0
LINE
  8
1
  6
CONTINUOUS
 62
   212
  5
2B8
 10
463.752333
 20
193.741667
 30
0.0
 11
462.252333
 21
193.741667
 31
0.0
  0
LINE
  8
1
  6
CONTINUOUS
 62
   212
  5
2B9
 10
463.752333
 20
184.741667
 30
0.0
 11
462.252333
 21
184.741667
 31
0.0
  0
ARC
  8
1
  6
CONTINUOUS
 62
   212
  5
2BA
 10
471.002333
 20
161.241667
 30
0.0
 40
3.5
 50
180.0
 51
101.864289
210
0.0
220
0.0
230
1.0
  0
ARC
  8
1
  6
CONTINUOUS
 62
   212
  5
2BB
 10
471.002333
 20
161.241667
 30
0.0
 40
1.998109
 50
180.0
 51
176.577497
210
0.0
220
0.0
230
1.0
  0
LINE
  8
1
  6
CONTINUOUS
 62
   212
  5
2BC
 10
470.28275
 20
164.666917
 30
0.0
 11
470.5915
 21
163.197083
 31
0.0
  0
LINE
  8
1
  6
CONTINUOUS
 62
   212
  5
2BD
 10
467.502333
 20
161.476583
 30
0.0
 11
468.002333
 21
161.976583
 31
0.0
  0
LINE
  8
1
  6
CONTINUOUS
 62
   212
  5
2BE
 10
467.5165
 20
160.927417
 30
0.0
 11
440.5165
 21
160.927417
 31
0.0
  0
LINE
  8
1
  6
CONTINUOUS
 62
   212
  5
2BF
 10
467.758417
 20
159.927417
 30
0.0
 11
440.5165
 21
159.927417
 31
0.0
  0
LINE
  8
1
  6
CONTINUOUS
 62
   212
  5
2C0
 10
473.92025
 20
159.308917
 30
0.0
 11
504.657333
 21
166.597417
 31
0.0
  0
LINE
  8
1
  6
CONTINUOUS
 62
   212
  5
2C1
 10
471.839167
 20
157.787667
 30
0.0
 11
504.888
 21
165.624333
 31
0.0
  0
LINE
  8
1
  6
CONTINUOUS
 62
   212
  5
2C2
 10
504.657333
 20
166.597417
 30
0.0
 11
504.888
 21
165.624333
 31
0.0
  0
ARC
  8
1
  6
CONTINUOUS
 62
   212
  5
2C3
 10
471.002333
 20
217.241667
 30
0.0
 40
3.5
 50
258.135711
 51
210.936464
210
0.0
220
0.0
230
1.0
  0
POLYLINE
  8
1
  6
CONTINUOUS
 62
   212
  5
2C4
 66
     1
 10
0.0
 20
0.0
 30
0.0
 70
     1
  0
VERTEX
  8
1
  6
CONTINUOUS
 62
   212
  5
2C5
 10
473.42125
 20
216.61025
 30
0.0
  0
VERTEX
  8
1
  6
CONTINUOUS
 62
   212
  5
2C6
 10
472.758583
 20
219.020833
 30
0.0
  0
VERTEX
  8
1
  6
CONTINUOUS
 62
   212
  5
2C7
 10
470.339667
 20
219.65225
 30
0.0
  0
VERTEX
  8
1
  6
CONTINUOUS
 62
   212
  5
2C8
 10
468.583333
 20
217.873083
 30
0.0
  0
VERTEX
  8
1
  6
CONTINUOUS
 62
   212
  5
2C9
 10
469.246
 20
215.4625
 30
0.0
  0
VERTEX
  8
1
  6
CONTINUOUS
 62
   212
  5
2CA
 10
471.664917
 20
214.831083
 30
0.0
  0
SEQEND
  8
1
  6
CONTINUOUS
 62
   212
  5
2CB
  0
LINE
  8
1
  6
CONTINUOUS
 62
   212
  5
2CC
 10
470.28275
 20
213.816417
 30
0.0
 11
470.8925
 21
215.03275
 31
0.0
  0
LINE
  8
1
  6
CONTINUOUS
 62
   212
  5
2CD
 10
468.002333
 20
213.408417
 30
0.0
 11
469.002333
 21
212.908333
 31
0.0
  0
LINE
  8
1
  6
CONTINUOUS
 62
   212
  5
2CE
 10
467.502333
 20
212.92975
 30
0.0
 11
468.002333
 21
213.42975
 31
0.0
  0
LINE
  8
1
  6
CONTINUOUS
 62
   212
  5
2CF
 10
468.002333
 20
212.290333
 30
0.0
 11
469.002333
 21
211.79025
 31
0.0
  0
LINE
  8
1
  6
CONTINUOUS
 62
   212
  5
2D0
 10
468.002333
 20
211.17225
 30
0.0
 11
469.002333
 21
210.672167
 31
0.0
  0
LINE
  8
1
  6
CONTINUOUS
 62
   212
  5
2D1
 10
468.002333
 20
210.054167
 30
0.0
 11
469.002333
 21
209.554083
 31
0.0
  0
LINE
  8
1
  6
CONTINUOUS
 62
   212
  5
2D2
 10
468.002333
 20
208.936
 30
0.0
 11
469.002333
 21
208.435917
 31
0.0
  0
LINE
  8
1
  6
CONTINUOUS
 62
   212
  5
2D3
 10
468.002333
 20
207.818
 30
0.0
 11
469.002333
 21
207.317917
 31
0.0
  0
LINE
  8
1
  6
CONTINUOUS
 62
   212
  5
2D4
 10
468.002333
 20
206.699917
 30
0.0
 11
469.002333
 21
206.199833
 31
0.0
  0
LINE
  8
1
  6
CONTINUOUS
 62
   212
  5
2D5
 10
468.002333
 20
205.581833
 30
0.0
 11
469.002333
 21
205.08175
 31
0.0
  0
LINE
  8
1
  6
CONTINUOUS
 62
   212
  5
2D6
 10
468.002333
 20
204.46375
 30
0.0
 11
469.002333
 21
203.963667
 31
0.0
  0
LINE
  8
1
  6
CONTINUOUS
 62
   212
  5
2D7
 10
468.002333
 20
203.345583
 30
0.0
 11
469.002333
 21
202.8455
 31
0.0
  0
LINE
  8
1
  6
CONTINUOUS
 62
   212
  5
2D8
 10
468.002333
 20
202.2275
 30
0.0
 11
469.002333
 21
201.727417
 31
0.0
  0
LINE
  8
1
  6
CONTINUOUS
 62
   212
  5
2D9
 10
468.002333
 20
201.109417
 30
0.0
 11
469.002333
 21
200.609333
 31
0.0
  0
LINE
  8
1
  6
CONTINUOUS
 62
   212
  5
2DA
 10
468.002333
 20
199.991333
 30
0.0
 11
469.002333
 21
199.49125
 31
0.0
  0
LINE
  8
1
  6
CONTINUOUS
 62
   212
  5
2DB
 10
468.002333
 20
198.873167
 30
0.0
 11
469.002333
 21
198.373083
 31
0.0
  0
LINE
  8
1
  6
CONTINUOUS
 62
   212
  5
2DC
 10
468.002333
 20
197.755083
 30
0.0
 11
469.002333
 21
197.255
 31
0.0
  0
LINE
  8
1
  6
CONTINUOUS
 62
   212
  5
2DD
 10
468.002333
 20
196.637
 30
0.0
 11
469.002333
 21
196.136917
 31
0.0
  0
LINE
  8
1
  6
CONTINUOUS
 62
   212
  5
2DE
 10
468.002333
 20
195.518917
 30
0.0
 11
469.002333
 21
195.018833
 31
0.0
  0
LINE
  8
1
  6
CONTINUOUS
 62
   212
  5
2DF
 10
468.002333
 20
194.40075
 30
0.0
 11
469.002333
 21
193.900667
 31
0.0
  0
LINE
  8
1
  6
CONTINUOUS
 62
   212
  5
2E0
 10
468.002333
 20
193.28275
 30
0.0
 11
469.002333
 21
192.782667
 31
0.0
  0
LINE
  8
1
  6
CONTINUOUS
 62
   212
  5
2E1
 10
468.002333
 20
192.164667
 30
0.0
 11
469.002333
 21
191.664583
 31
0.0
  0
LINE
  8
1
  6
CONTINUOUS
 62
   212
  5
2E2
 10
468.002333
 20
191.046583
 30
0.0
 11
469.002333
 21
190.5465
 31
0.0
  0
LINE
  8
1
  6
CONTINUOUS
 62
   212
  5
2E3
 10
468.002333
 20
189.9285
 30
0.0
 11
469.002333
 21
189.428417
 31
0.0
  0
LINE
  8
1
  6
CONTINUOUS
 62
   212
  5
2E4
 10
468.002333
 20
188.8105
 30
0.0
 11
469.002333
 21
188.310417
 31
0.0
  0
LINE
  8
1
  6
CONTINUOUS
 62
   212
  5
2E5
 10
468.002333
 20
187.692417
 30
0.0
 11
469.002333
 21
187.192333
 31
0.0
  0
LINE
  8
1
  6
CONTINUOUS
 62
   212
  5
2E6
 10
468.002333
 20
186.574333
 30
0.0
 11
469.002333
 21
186.07425
 31
0.0
  0
LINE
  8
1
  6
CONTINUOUS
 62
   212
  5
2E7
 10
468.002333
 20
185.45625
 30
0.0
 11
469.002333
 21
184.956167
 31
0.0
  0
LINE
  8
1
  6
CONTINUOUS
 62
   212
  5
2E8
 10
468.002333
 20
184.33825
 30
0.0
 11
469.002333
 21
183.838167
 31
0.0
  0
LINE
  8
1
  6
CONTINUOUS
 62
   212
  5
2E9
 10
468.002333
 20
183.220167
 30
0.0
 11
469.002333
 21
182.720083
 31
0.0
  0
LINE
  8
1
  6
CONTINUOUS
 62
   212
  5
2EA
 10
468.002333
 20
182.102
 30
0.0
 11
469.002333
 21
181.601917
 31
0.0
  0
LINE
  8
1
  6
CONTINUOUS
 62
   212
  5
2EB
 10
468.002333
 20
180.983917
 30
0.0
 11
469.002333
 21
180.483833
 31
0.0
  0
LINE
  8
1
  6
CONTINUOUS
 62
   212
  5
2EC
 10
468.002333
 20
179.865833
 30
0.0
 11
469.002333
 21
179.36575
 31
0.0
  0
LINE
  8
1
  6
CONTINUOUS
 62
   212
  5
2ED
 10
468.002333
 20
178.74775
 30
0.0
 11
469.002333
 21
178.247667
 31
0.0
  0
LINE
  8
1
  6
CONTINUOUS
 62
   212
  5
2EE
 10
468.002333
 20
177.629583
 30
0.0
 11
469.002333
 21
177.1295
 31
0.0
  0
LINE
  8
1
  6
CONTINUOUS
 62
   212
  5
2EF
 10
468.002333
 20
176.511583
 30
0.0
 11
469.002333
 21
176.0115
 31
0.0
  0
LINE
  8
1
  6
CONTINUOUS
 62
   212
  5
2F0
 10
468.002333
 20
175.3935
 30
0.0
 11
469.002333
 21
174.893417
 31
0.0
  0
LINE
  8
1
  6
CONTINUOUS
 62
   212
  5
2F1
 10
468.002333
 20
174.275417
 30
0.0
 11
469.002333
 21
173.775333
 31
0.0
  0
LINE
  8
1
  6
CONTINUOUS
 62
   212
  5
2F2
 10
468.002333
 20
173.157333
 30
0.0
 11
469.002333
 21
172.65725
 31
0.0
  0
LINE
  8
1
  6
CONTINUOUS
 62
   212
  5
2F3
 10
468.002333
 20
172.039333
 30
0.0
 11
469.002333
 21
171.53925
 31
0.0
  0
LINE
  8
1
  6
CONTINUOUS
 62
   212
  5
2F4
 10
468.002333
 20
170.92125
 30
0.0
 11
469.002333
 21
170.421167
 31
0.0
  0
LINE
  8
1
  6
CONTINUOUS
 62
   212
  5
2F5
 10
468.002333
 20
169.803167
 30
0.0
 11
469.002333
 21
169.303083
 31
0.0
  0
LINE
  8
1
  6
CONTINUOUS
 62
   212
  5
2F6
 10
468.002333
 20
168.685083
 30
0.0
 11
469.002333
 21
168.185
 31
0.0
  0
LINE
  8
1
  6
CONTINUOUS
 62
   212
  5
2F7
 10
468.002333
 20
167.567
 30
0.0
 11
469.002333
 21
167.066917
 31
0.0
  0
LINE
  8
1
  6
CONTINUOUS
 62
   212
  5
2F8
 10
468.002333
 20
166.448917
 30
0.0
 11
469.002333
 21
165.948833
 31
0.0
  0
LINE
  8
1
  6
CONTINUOUS
 62
   212
  5
2F9
 10
468.002333
 20
165.330833
 30
0.0
 11
469.002333
 21
164.83075
 31
0.0
  0
LINE
  8
1
  6
CONTINUOUS
 62
   212
  5
2FA
 10
468.002333
 20
164.212667
 30
0.0
 11
469.002333
 21
163.712583
 31
0.0
  0
LINE
  8
1
  6
CONTINUOUS
 62
   212
  5
2FB
 10
468.002333
 20
163.094667
 30
0.0
 11
469.002333
 21
162.594583
 31
0.0
  0
LINE
  8
1
  6
CONTINUOUS
 62
   212
  5
2FC
 10
468.002333
 20
161.976583
 30
0.0
 11
469.002333
 21
161.4765
 31
0.0
  0
LINE
  8
1
  6
CONTINUOUS
 62
   212
  5
2FD
 10
467.502333
 20
162.594667
 30
0.0
 11
468.002333
 21
163.094667
 31
0.0
  0
LINE
  8
1
  6
CONTINUOUS
 62
   212
  5
2FE
 10
467.502333
 20
163.712667
 30
0.0
 11
468.002333
 21
164.212667
 31
0.0
  0
LINE
  8
1
  6
CONTINUOUS
 62
   212
  5
2FF
 10
467.502333
 20
164.830833
 30
0.0
 11
468.002333
 21
165.330833
 31
0.0
  0
LINE
  8
1
  6
CONTINUOUS
 62
   212
  5
300
 10
467.502333
 20
165.948917
 30
0.0
 11
468.002333
 21
166.448917
 31
0.0
  0
LINE
  8
1
  6
CONTINUOUS
 62
   212
  5
301
 10
467.502333
 20
167.067
 30
0.0
 11
468.002333
 21
167.567
 31
0.0
  0
LINE
  8
1
  6
CONTINUOUS
 62
   212
  5
302
 10
467.502333
 20
168.185083
 30
0.0
 11
468.002333
 21
168.685083
 31
0.0
  0
LINE
  8
1
  6
CONTINUOUS
 62
   212
  5
303
 10
467.502333
 20
169.303167
 30
0.0
 11
468.002333
 21
169.803167
 31
0.0
  0
LINE
  8
1
  6
CONTINUOUS
 62
   212
  5
304
 10
467.502333
 20
170.42125
 30
0.0
 11
468.002333
 21
170.92125
 31
0.0
  0
LINE
  8
1
  6
CONTINUOUS
 62
   212
  5
305
 10
467.502333
 20
171.539333
 30
0.0
 11
468.002333
 21
172.039333
 31
0.0
  0
LINE
  8
1
  6
CONTINUOUS
 62
   212
  5
306
 10
467.502333
 20
172.657333
 30
0.0
 11
468.002333
 21
173.157333
 31
0.0
  0
LINE
  8
1
  6
CONTINUOUS
 62
   212
  5
307
 10
467.502333
 20
173.775417
 30
0.0
 11
468.002333
 21
174.275417
 31
0.0
  0
LINE
  8
1
  6
CONTINUOUS
 62
   212
  5
308
 10
467.502333
 20
174.8935
 30
0.0
 11
468.002333
 21
175.3935
 31
0.0
  0
LINE
  8
1
  6
CONTINUOUS
 62
   212
  5
309
 10
467.502333
 20
176.011583
 30
0.0
 11
468.002333
 21
176.511583
 31
0.0
  0
LINE
  8
1
  6
CONTINUOUS
 62
   212
  5
30A
 10
467.502333
 20
177.129583
 30
0.0
 11
468.002333
 21
177.629583
 31
0.0
  0
LINE
  8
1
  6
CONTINUOUS
 62
   212
  5
30B
 10
467.502333
 20
178.24775
 30
0.0
 11
468.002333
 21
178.74775
 31
0.0
  0
LINE
  8
1
  6
CONTINUOUS
 62
   212
  5
30C
 10
467.502333
 20
179.365833
 30
0.0
 11
468.002333
 21
179.865833
 31
0.0
  0
LINE
  8
1
  6
CONTINUOUS
 62
   212
  5
30D
 10
467.502333
 20
180.483917
 30
0.0
 11
468.002333
 21
180.983917
 31
0.0
  0
LINE
  8
1
  6
CONTINUOUS
 62
   212
  5
30E
 10
467.502333
 20
181.602
 30
0.0
 11
468.002333
 21
182.102
 31
0.0
  0
LINE
  8
1
  6
CONTINUOUS
 62
   212
  5
30F
 10
467.502333
 20
182.720167
 30
0.0
 11
468.002333
 21
183.220167
 31
0.0
  0
LINE
  8
1
  6
CONTINUOUS
 62
   212
  5
310
 10
467.502333
 20
183.83825
 30
0.0
 11
468.002333
 21
184.33825
 31
0.0
  0
LINE
  8
1
  6
CONTINUOUS
 62
   212
  5
311
 10
467.502333
 20
184.95625
 30
0.0
 11
468.002333
 21
185.45625
 31
0.0
  0
LINE
  8
1
  6
CONTINUOUS
 62
   212
  5
312
 10
467.502333
 20
186.074333
 30
0.0
 11
468.002333
 21
186.574333
 31
0.0
  0
LINE
  8
1
  6
CONTINUOUS
 62
   212
  5
313
 10
467.502333
 20
187.192417
 30
0.0
 11
468.002333
 21
187.692417
 31
0.0
  0
LINE
  8
1
  6
CONTINUOUS
 62
   212
  5
314
 10
467.502333
 20
188.3105
 30
0.0
 11
468.002333
 21
188.8105
 31
0.0
  0
LINE
  8
1
  6
CONTINUOUS
 62
   212
  5
315
 10
467.502333
 20
189.4285
 30
0.0
 11
468.002333
 21
189.9285
 31
0.0
  0
LINE
  8
1
  6
CONTINUOUS
 62
   212
  5
316
 10
467.502333
 20
190.546583
 30
0.0
 11
468.002333
 21
191.046583
 31
0.0
  0
LINE
  8
1
  6
CONTINUOUS
 62
   212
  5
317
 10
467.502333
 20
191.664667
 30
0.0
 11
468.002333
 21
192.164667
 31
0.0
  0
LINE
  8
1
  6
CONTINUOUS
 62
   212
  5
318
 10
467.502333
 20
192.78275
 30
0.0
 11
468.002333
 21
193.28275
 31
0.0
  0
LINE
  8
1
  6
CONTINUOUS
 62
   212
  5
319
 10
467.502333
 20
193.90075
 30
0.0
 11
468.002333
 21
194.40075
 31
0.0
  0
LINE
  8
1
  6
CONTINUOUS
 62
   212
  5
31A
 10
467.502333
 20
195.018917
 30
0.0
 11
468.002333
 21
195.518917
 31
0.0
  0
LINE
  8
1
  6
CONTINUOUS
 62
   212
  5
31B
 10
467.502333
 20
196.137
 30
0.0
 11
468.002333
 21
196.637
 31
0.0
  0
LINE
  8
1
  6
CONTINUOUS
 62
   212
  5
31C
 10
467.502333
 20
197.255083
 30
0.0
 11
468.002333
 21
197.755083
 31
0.0
  0
LINE
  8
1
  6
CONTINUOUS
 62
   212
  5
31D
 10
467.502333
 20
198.373167
 30
0.0
 11
468.002333
 21
198.873167
 31
0.0
  0
LINE
  8
1
  6
CONTINUOUS
 62
   212
  5
31E
 10
467.502333
 20
199.491333
 30
0.0
 11
468.002333
 21
199.991333
 31
0.0
  0
LINE
  8
1
  6
CONTINUOUS
 62
   212
  5
31F
 10
467.502333
 20
200.609417
 30
0.0
 11
468.002333
 21
201.109417
 31
0.0
  0
LINE
  8
1
  6
CONTINUOUS
 62
   212
  5
320
 10
467.502333
 20
201.7275
 30
0.0
 11
468.002333
 21
202.2275
 31
0.0
  0
LINE
  8
1
  6
CONTINUOUS
 62
   212
  5
321
 10
467.502333
 20
202.845583
 30
0.0
 11
468.002333
 21
203.345583
 31
0.0
  0
LINE
  8
1
  6
CONTINUOUS
 62
   212
  5
322
 10
467.502333
 20
203.96375
 30
0.0
 11
468.002333
 21
204.46375
 31
0.0
  0
LINE
  8
1
  6
CONTINUOUS
 62
   212
  5
323
 10
467.502333
 20
205.081833
 30
0.0
 11
468.002333
 21
205.581833
 31
0.0
  0
LINE
  8
1
  6
CONTINUOUS
 62
   212
  5
324
 10
467.502333
 20
206.199917
 30
0.0
 11
468.002333
 21
206.699917
 31
0.0
  0
LINE
  8
1
  6
CONTINUOUS
 62
   212
  5
325
 10
467.502333
 20
207.318
 30
0.0
 11
468.002333
 21
207.818
 31
0.0
  0
LINE
  8
1
  6
CONTINUOUS
 62
   212
  5
326
 10
467.502333
 20
208.436
 30
0.0
 11
468.002333
 21
208.936
 31
0.0
  0
LINE
  8
1
  6
CONTINUOUS
 62
   212
  5
327
 10
467.502333
 20
209.554167
 30
0.0
 11
468.002333
 21
210.054167
 31
0.0
  0
LINE
  8
1
  6
CONTINUOUS
 62
   212
  5
328
 10
467.502333
 20
210.67225
 30
0.0
 11
468.002333
 21
211.17225
 31
0.0
  0
LINE
  8
1
  6
CONTINUOUS
 62
   212
  5
329
 10
467.502333
 20
211.790333
 30
0.0
 11
468.002333
 21
212.290333
 31
0.0
  0
LINE
  8
1
  6
CONTINUOUS
 62
   212
  5
32A
 10
468.002333
 20
214.526417
 30
0.0
 11
469.002333
 21
214.026333
 31
0.0
  0
LINE
  8
1
  6
CONTINUOUS
 62
   212
  5
32B
 10
467.502333
 20
214.026417
 30
0.0
 11
468.002333
 21
214.526417
 31
0.0
  0
LINE
  8
1
  6
CONTINUOUS
 62
   212
  5
32C
 10
473.92025
 20
219.174417
 30
0.0
 11
504.657333
 21
211.885917
 31
0.0
  0
LINE
  8
1
  6
CONTINUOUS
 62
   212
  5
32D
 10
471.839167
 20
220.695667
 30
0.0
 11
504.888
 21
212.859
 31
0.0
  0
LINE
  8
1
  6
CONTINUOUS
 62
   212
  5
32E
 10
504.657333
 20
211.885917
 30
0.0
 11
504.888
 21
212.859
 31
0.0
  0
LINE
  8
1
  6
CONTINUOUS
 62
   212
  5
32F
 10
467.758417
 20
218.555917
 30
0.0
 11
440.5165
 21
218.555917
 31
0.0
  0
LINE
  8
1
  6
CONTINUOUS
 62
   212
  5
330
 10
467.5165
 20
217.555917
 30
0.0
 11
440.5165
 21
217.555917
 31
0.0
  0
LINE
  8
1
  6
CONTINUOUS
 62
     7
  5
331
 10
446.252333
 20
189.241667
 30
0.0
 11
458.252333
 21
189.241667
 31
0.0
  0
LINE
  8
1
  6
CONTINUOUS
 62
     7
  5
332
 10
459.252333
 20
189.241667
 30
0.0
 11
460.252333
 21
189.241667
 31
0.0
  0
LINE
  8
1
  6
CONTINUOUS
 62
     7
  5
333
 10
461.252333
 20
189.241667
 30
0.0
 11
476.252333
 21
189.241667
 31
0.0
  0
LINE
  8
1
  6
CONTINUOUS
 62
     7
  5
334
 10
477.252333
 20
189.241667
 30
0.0
 11
478.252333
 21
189.241667
 31
0.0
  0
LINE
  8
1
  6
CONTINUOUS
 62
     7
  5
335
 10
479.252333
 20
189.241667
 30
0.0
 11
491.252333
 21
189.241667
 31
0.0
  0
LINE
  8
1
  6
CONTINUOUS
 62
     7
  5
336
 10
492.252333
 20
189.241667
 30
0.0
 11
493.252333
 21
189.241667
 31
0.0
  0
LINE
  8
1
  6
CONTINUOUS
 62
     7
  5
337
 10
494.252333
 20
189.241667
 30
0.0
 11
504.252333
 21
189.241667
 31
0.0
  0
LINE
  8
1
  6
CONTINUOUS
 62
     7
  5
338
 10
505.252333
 20
189.241667
 30
0.0
 11
506.252333
 21
189.241667
 31
0.0
  0
LINE
  8
1
  6
CONTINUOUS
 62
     7
  5
339
 10
507.252333
 20
189.241667
 30
0.0
 11
524.325167
 21
189.241667
 31
0.0
  0
LINE
  8
1
  6
CONTINUOUS
 62
     7
  5
33A
 10
466.977333
 20
197.491667
 30
0.0
 11
460.33025
 21
210.687917
 31
0.0
  0
LINE
  8
1
  6
CONTINUOUS
 62
     7
  5
33B
 10
460.33025
 20
210.687917
 30
0.0
 11
465.2815
 21
197.491667
 31
0.0
  0
LINE
  8
1
  6
CONTINUOUS
 62
     7
  5
33C
 10
460.33025
 20
210.687917
 30
0.0
 11
456.98375
 21
210.687917
 31
0.0
  0
INSERT
  8
1
  6
CONTINUOUS
 62
     1
  5
33D
  2
LDR
 10
465.2815
 20
197.491667
 30
0.0
 41
239.999999
 42
239.999999
 50
290.566156
210
0.0
220
0.0
230
1.0
  0
INSERT
  8
1
  6
CONTINUOUS
 62
     1
  5
33E
  2
LDR
 10
465.2815
 20
197.491667
 30
0.0
 41
239.999999
 42
239.999999
 50
290.566156
210
0.0
220
0.0
230
1.0
  0
INSERT
  8
1
  6
CONTINUOUS
 62
     1
  5
33F
  2
LDR
 10
466.977333
 20
197.491667
 30
0.0
 41
240.0
 42
240.0
 50
296.734853
210
0.0
220
0.0
230
1.0
  0
TEXT
  8
1
  6
CONTINUOUS
 62
     7
  5
340
 10
420.92375
 20
209.30175
 30
0.0
 40
2.5
  1
STEEL LOCK NUTS
  7
MONOTXT
 72
     4
 11
438.82725
 21
210.55175
 31
0.0
210
0.0
220
0.0
230
1.0
  0
LINE
  8
1
  6
CONTINUOUS
 62
     7
  5
341
 10
469.893333
 20
198.491667
 30
0.0
 11
478.88175
 21
226.487333
 31
0.0
  0
LINE
  8
1
  6
CONTINUOUS
 62
     7
  5
342
 10
478.88175
 20
226.487333
 30
0.0
 11
483.579167
 21
226.487333
 31
0.0
  0
INSERT
  8
1
  6
CONTINUOUS
 62
     1
  5
343
  2
LDR
 10
469.893333
 20
198.491667
 30
0.0
 41
239.999999
 42
239.999999
 50
252.200015
210
0.0
220
0.0
230
1.0
  0
TEXT
  8
1
  6
CONTINUOUS
 62
     7
  5
344
 10
484.115833
 20
225.3735
 30
0.0
 40
2.5
  1
FIBER WASHER
  7
MONOTXT
 72
     4
 11
497.8855
 21
226.6235
 31
0.0
210
0.0
220
0.0
230
1.0
  0
LINE
  8
1
  6
CONTINUOUS
 62
     7
  5
345
 10
467.502333
 20
172.204417
 30
0.0
 11
459.779917
 21
169.197
 31
0.0
  0
LINE
  8
1
  6
CONTINUOUS
 62
     7
  5
346
 10
459.779917
 20
169.197
 30
0.0
 11
455.93075
 21
169.197
 31
0.0
  0
INSERT
  8
1
  6
CONTINUOUS
 62
     1
  5
347
  2
LDR
 10
467.502333
 20
172.204417
 30
0.0
 41
240.000001
 42
240.000001
 50
21.27792
210
0.0
220
0.0
230
1.0
  0
TEXT
  8
1
  6
CONTINUOUS
 62
     7
  5
348
 10
417.673
 20
172.239167
 30
0.0
 40
2.5
  1
BACK WALL OF
  7
MONOTXT
 11
417.673
 21
174.739167
 31
0.0
210
0.0
220
0.0
230
1.0
 73
     3
  0
TEXT
  8
1
  6
CONTINUOUS
 62
     7
  5
349
 10
417.673
 20
167.739167
 30
0.0
 40
2.5
  1
SWITCH ENCLOSURE
  7
MONOTXT
 11
417.673
 21
170.239167
 31
0.0
210
0.0
220
0.0
230
1.0
 73
     3
  0
LINE
  8
1
  6
CONTINUOUS
 62
     7
  5
34A
 10
475.377333
 20
196.147417
 30
0.0
 11
518.06725
 21
202.582333
 31
0.0
  0
LINE
  8
1
  6
CONTINUOUS
 62
     7
  5
34B
 10
518.06725
 20
202.582333
 30
0.0
 11
522.97875
 21
202.582333
 31
0.0
  0
LINE
  8
1
  6
CONTINUOUS
 62
     7
  5
34C
 10
472.627333
 20
180.70125
 30
0.0
 11
520.289083
 21
185.152667
 31
0.0
  0
LINE
  8
1
  6
CONTINUOUS
 62
     7
  5
34D
 10
520.289083
 20
185.152667
 30
0.0
 11
524.498917
 21
185.152667
 31
0.0
  0
INSERT
  8
1
  6
CONTINUOUS
 62
     1
  5
34E
  2
LDR
 10
475.377333
 20
196.147417
 30
0.0
 41
239.999998
 42
239.999998
 50
188.572016
210
0.0
220
0.0
230
1.0
  0
INSERT
  8
1
  6
CONTINUOUS
 62
     1
  5
34F
  2
LDR
 10
475.377333
 20
196.147417
 30
0.0
 41
239.999998
 42
239.999998
 50
188.572016
210
0.0
220
0.0
230
1.0
  0
INSERT
  8
1
  6
CONTINUOUS
 62
     1
  5
350
  2
LDR
 10
472.627333
 20
180.70125
 30
0.0
 41
239.999999
 42
239.999999
 50
185.335718
210
0.0
220
0.0
230
1.0
  0
INSERT
  8
1
  6
CONTINUOUS
 62
     1
  5
351
  2
LDR
 10
472.627333
 20
180.70125
 30
0.0
 41
239.999999
 42
239.999999
 50
185.335718
210
0.0
220
0.0
230
1.0
  0
TEXT
  8
1
  6
CONTINUOUS
 62
     7
  5
352
 10
523.680333
 20
201.135083
 30
0.0
 40
2.5
  1
INSULATED CHASE NIPPLE
  7
MONOTXT
 11
523.680333
 21
203.635083
 31
0.0
210
0.0
220
0.0
230
1.0
 73
     3
  0
TEXT
  8
1
  6
CONTINUOUS
 62
     7
  5
353
 10
523.680333
 20
196.635083
 30
0.0
 40
2.5
  1
MIN. OF 1 1/2 " OR AS REQ'D.
  7
MONOTXT
 11
523.680333
 21
199.135083
 31
0.0
210
0.0
220
0.0
230
1.0
 73
     3
  0
LINE
  8
1
  6
CONTINUOUS
 62
     7
  5
354
 10
433.673583
 20
141.075167
 30
0.0
 11
544.289
 21
141.075167
 31
0.0
  0
LINE
  8
1
  6
CONTINUOUS
 62
     2
  5
355
 10
203.997917
 20
70.673833
 30
0.0
 11
238.277917
 21
70.673833
 31
0.0
  0
LINE
  8
1
  6
CONTINUOUS
 62
     2
  5
356
 10
203.997917
 20
54.553833
 30
0.0
 11
238.277917
 21
54.553833
 31
0.0
  0
LINE
  8
1
  6
CONTINUOUS
 62
     2
  5
357
 10
203.997917
 20
70.673833
 30
0.0
 11
203.997917
 21
54.553833
 31
0.0
  0
LINE
  8
1
  6
CONTINUOUS
 62
     2
  5
358
 10
238.277917
 20
65.633833
 30
0.0
 11
258.437917
 21
65.633833
 31
0.0
  0
LINE
  8
1
  6
CONTINUOUS
 62
     2
  5
359
 10
238.277917
 20
59.593833
 30
0.0
 11
258.437917
 21
59.593833
 31
0.0
  0
LINE
  8
1
  6
CONTINUOUS
 62
     2
  5
35A
 10
238.277917
 20
70.673833
 30
0.0
 11
238.277917
 21
65.633833
 31
0.0
  0
LINE
  8
1
  6
CONTINUOUS
 62
     2
  5
35B
 10
238.277917
 20
59.593833
 30
0.0
 11
238.277917
 21
54.553833
 31
0.0
  0
LINE
  8
1
  6
CONTINUOUS
 62
     2
  5
35C
 10
258.437917
 20
65.633833
 30
0.0
 11
258.437917
 21
59.593833
 31
0.0
  0
LINE
  8
1
  6
CONTINUOUS
 62
     2
  5
35D
 10
293.717917
 20
65.633833
 30
0.0
 11
293.717917
 21
59.593833
 31
0.0
  0
LINE
  8
1
  6
CONTINUOUS
 62
     2
  5
35E
 10
273.557917
 20
65.633833
 30
0.0
 11
293.717917
 21
65.633833
 31
0.0
  0
LINE
  8
1
  6
CONTINUOUS
 62
     2
  5
35F
 10
273.557917
 20
59.593833
 30
0.0
 11
293.717917
 21
59.593833
 31
0.0
  0
LINE
  8
1
  6
CONTINUOUS
 62
     2
  5
360
 10
273.557917
 20
70.673833
 30
0.0
 11
273.557917
 21
65.633833
 31
0.0
  0
LINE
  8
1
  6
CONTINUOUS
 62
     2
  5
361
 10
273.557917
 20
54.553833
 30
0.0
 11
273.557917
 21
59.593833
 31
0.0
  0
LINE
  8
1
  6
CONTINUOUS
 62
     2
  5
362
 10
273.557917
 20
70.673833
 30
0.0
 11
375.357917
 21
70.673833
 31
0.0
  0
LINE
  8
1
  6
CONTINUOUS
 62
     2
  5
363
 10
273.557917
 20
54.553833
 30
0.0
 11
375.357917
 21
54.553833
 31
0.0
  0
LINE
  8
1
  6
CONTINUOUS
 62
     2
  5
364
 10
375.357917
 20
70.673833
 30
0.0
 11
375.357917
 21
65.633833
 31
0.0
  0
LINE
  8
1
  6
CONTINUOUS
 62
     2
  5
365
 10
375.357917
 20
54.553833
 30
0.0
 11
375.357917
 21
59.593833
 31
0.0
  0
LINE
  8
1
  6
CONTINUOUS
 62
     2
  5
366
 10
355.197917
 20
65.633833
 30
0.0
 11
375.357917
 21
65.633833
 31
0.0
  0
LINE
  8
1
  6
CONTINUOUS
 62
     2
  5
367
 10
355.197917
 20
59.593833
 30
0.0
 11
375.357917
 21
59.593833
 31
0.0
  0
LINE
  8
1
  6
CONTINUOUS
 62
     2
  5
368
 10
355.197917
 20
65.633833
 30
0.0
 11
355.197917
 21
59.593833
 31
0.0
  0
LINE
  8
1
  6
CONTINUOUS
 62
     2
  5
369
 10
324.457917
 20
76.733833
 30
0.0
 11
324.457917
 21
48.333833
 31
0.0
  0
LINE
  8
1
  6
CONTINUOUS
 62
     2
  5
36A
 10
298.257917
 20
76.733833
 30
0.0
 11
298.257917
 21
65.633833
 31
0.0
  0
LINE
  8
1
  6
CONTINUOUS
 62
     2
  5
36B
 10
298.257917
 20
64.633833
 30
0.0
 11
298.257917
 21
63.633833
 31
0.0
  0
LINE
  8
1
  6
CONTINUOUS
 62
     2
  5
36C
 10
298.257917
 20
62.613833
 30
0.0
 11
298.257917
 21
59.593833
 31
0.0
  0
LINE
  8
1
  6
CONTINUOUS
 62
     2
  5
36D
 10
350.677917
 20
76.733833
 30
0.0
 11
350.677917
 21
65.633833
 31
0.0
  0
LINE
  8
1
  6
CONTINUOUS
 62
     2
  5
36E
 10
350.677917
 20
64.633833
 30
0.0
 11
350.677917
 21
63.633833
 31
0.0
  0
LINE
  8
1
  6
CONTINUOUS
 62
     2
  5
36F
 10
350.677917
 20
62.613833
 30
0.0
 11
350.677917
 21
59.593833
 31
0.0
  0
LINE
  8
1
  6
CONTINUOUS
 62
     2
  5
370
 10
298.257917
 20
75.713833
 30
0.0
 11
324.457917
 21
75.713833
 31
0.0
  0
LINE
  8
1
  6
CONTINUOUS
 62
     2
  5
371
 10
324.457917
 20
75.713833
 30
0.0
 11
350.677917
 21
75.713833
 31
0.0
  0
INSERT
  8
1
  6
CONTINUOUS
 62
     1
  5
372
  2
LDR
 10
298.257917
 20
75.713833
 30
0.0
 41
241.920018
 42
241.920018
 50
180.0
210
0.0
220
0.0
230
1.0
  0
INSERT
  8
1
  6
CONTINUOUS
 62
     1
  5
373
  2
LDR
 10
298.257917
 20
75.713833
 30
0.0
 41
241.920018
 42
241.920018
 50
180.0
210
0.0
220
0.0
230
1.0
  0
INSERT
  8
1
  6
CONTINUOUS
 62
     1
  5
374
  2
LDR
 10
324.457917
 20
75.713833
 30
0.0
 41
241.920018
 42
241.920018
210
0.0
220
0.0
230
1.0
  0
INSERT
  8
1
  6
CONTINUOUS
 62
     1
  5
375
  2
LDR
 10
324.457917
 20
75.713833
 30
0.0
 41
241.920018
 42
241.920018
210
0.0
220
0.0
230
1.0
  0
INSERT
  8
1
  6
CONTINUOUS
 62
     1
  5
376
  2
LDR
 10
324.457917
 20
75.713833
 30
0.0
 41
241.920018
 42
241.920018
 50
180.0
210
0.0
220
0.0
230
1.0
  0
INSERT
  8
1
  6
CONTINUOUS
 62
     1
  5
377
  2
LDR
 10
324.457917
 20
75.713833
 30
0.0
 41
241.920018
 42
241.920018
 50
180.0
210
0.0
220
0.0
230
1.0
  0
INSERT
  8
1
  6
CONTINUOUS
 62
     1
  5
378
  2
LDR
 10
350.677917
 20
75.713833
 30
0.0
 41
241.920018
 42
241.920018
210
0.0
220
0.0
230
1.0
  0
INSERT
  8
1
  6
CONTINUOUS
 62
     1
  5
379
  2
LDR
 10
350.677917
 20
75.713833
 30
0.0
 41
241.920018
 42
241.920018
210
0.0
220
0.0
230
1.0
  0
LINE
  8
1
  6
CONTINUOUS
 62
     2
  5
37A
 10
355.197917
 20
66.653833
 30
0.0
 11
355.197917
 21
76.733833
 31
0.0
  0
LINE
  8
1
  6
CONTINUOUS
 62
     2
  5
37B
 10
375.357917
 20
71.693833
 30
0.0
 11
375.357917
 21
76.733833
 31
0.0
  0
LINE
  8
1
  6
CONTINUOUS
 62
     2
  5
37C
 10
355.197917
 20
75.713833
 30
0.0
 11
375.357917
 21
75.713833
 31
0.0
  0
INSERT
  8
1
  6
CONTINUOUS
 62
     1
  5
37D
  2
LDR
 10
355.197917
 20
75.713833
 30
0.0
 41
241.920018
 42
241.920018
 50
180.0
210
0.0
220
0.0
230
1.0
  0
INSERT
  8
1
  6
CONTINUOUS
 62
     1
  5
37E
  2
LDR
 10
375.357917
 20
75.713833
 30
0.0
 41
241.920018
 42
241.920018
210
0.0
220
0.0
230
1.0
  0
LINE
  8
1
  6
CONTINUOUS
 62
     2
  5
37F
 10
376.377917
 20
70.673833
 30
0.0
 11
387.457917
 21
70.673833
 31
0.0
  0
LINE
  8
1
  6
CONTINUOUS
 62
     2
  5
380
 10
376.377917
 20
54.553833
 30
0.0
 11
387.457917
 21
54.553833
 31
0.0
  0
LINE
  8
1
  6
CONTINUOUS
 62
     2
  5
381
 10
386.457917
 20
70.673833
 30
0.0
 11
386.457917
 21
54.553833
 31
0.0
  0
INSERT
  8
1
  6
CONTINUOUS
 62
     1
  5
382
  2
LDR
 10
386.457917
 20
70.673833
 30
0.0
 41
241.920018
 42
241.920018
 50
90.0
210
0.0
220
0.0
230
1.0
  0
INSERT
  8
1
  6
CONTINUOUS
 62
     1
  5
383
  2
LDR
 10
386.457917
 20
54.553833
 30
0.0
 41
241.920018
 42
241.920018
 50
270.0
210
0.0
220
0.0
230
1.0
  0
LINE
  8
1
  6
CONTINUOUS
 62
     2
  5
384
 10
376.377917
 20
65.633833
 30
0.0
 11
382.417917
 21
65.633833
 31
0.0
  0
LINE
  8
1
  6
CONTINUOUS
 62
     2
  5
385
 10
376.377917
 20
59.593833
 30
0.0
 11
382.417917
 21
59.593833
 31
0.0
  0
LINE
  8
1
  6
CONTINUOUS
 62
     2
  5
386
 10
381.417917
 20
69.673833
 30
0.0
 11
381.417917
 21
65.633833
 31
0.0
  0
LINE
  8
1
  6
CONTINUOUS
 62
     2
  5
387
 10
381.417917
 20
54.553833
 30
0.0
 11
381.417917
 21
49.513833
 31
0.0
  0
INSERT
  8
1
  6
CONTINUOUS
 62
     1
  5
388
  2
LDR
 10
381.417917
 20
65.633833
 30
0.0
 41
241.920018
 42
241.920018
 50
270.0
210
0.0
220
0.0
230
1.0
  0
INSERT
  8
1
  6
CONTINUOUS
 62
     1
  5
389
  2
LDR
 10
381.417917
 20
54.553833
 30
0.0
 41
241.920018
 42
241.920018
 50
90.0
210
0.0
220
0.0
230
1.0
  0
LINE
  8
1
  6
CONTINUOUS
 62
     2
  5
38A
 10
273.557917
 20
53.553833
 30
0.0
 11
273.557917
 21
43.473833
 31
0.0
  0
LINE
  8
1
  6
CONTINUOUS
 62
     2
  5
38B
 10
375.357917
 20
53.553833
 30
0.0
 11
375.357917
 21
43.473833
 31
0.0
  0
LINE
  8
1
  6
CONTINUOUS
 62
     2
  5
38C
 10
273.557917
 20
44.473833
 30
0.0
 11
375.357917
 21
44.473833
 31
0.0
  0
LINE
  8
1
  6
CONTINUOUS
 62
     2
  5
38D
 10
324.457917
 20
49.353833
 30
0.0
 11
375.357917
 21
49.353833
 31
0.0
  0
INSERT
  8
1
  6
CONTINUOUS
 62
     1
  5
38E
  2
LDR
 10
375.357917
 20
44.473833
 30
0.0
 41
241.920018
 42
241.920018
210
0.0
220
0.0
230
1.0
  0
INSERT
  8
1
  6
CONTINUOUS
 62
     1
  5
38F
  2
LDR
 10
375.357917
 20
44.473833
 30
0.0
 41
241.920018
 42
241.920018
210
0.0
220
0.0
230
1.0
  0
INSERT
  8
1
  6
CONTINUOUS
 62
     1
  5
390
  2
LDR
 10
273.557917
 20
44.473833
 30
0.0
 41
241.920018
 42
241.920018
 50
180.0
210
0.0
220
0.0
230
1.0
  0
LINE
  8
1
  6
CONTINUOUS
 62
     2
  5
391
 10
259.437917
 20
65.633833
 30
0.0
 11
266.497917
 21
65.633833
 31
0.0
  0
LINE
  8
1
  6
CONTINUOUS
 62
     2
  5
392
 10
259.437917
 20
59.593833
 30
0.0
 11
266.497917
 21
59.593833
 31
0.0
  0
LINE
  8
1
  6
CONTINUOUS
 62
     2
  5
393
 10
239.277917
 20
70.673833
 30
0.0
 11
266.497917
 21
70.673833
 31
0.0
  0
LINE
  8
1
  6
CONTINUOUS
 62
     2
  5
394
 10
265.497917
 20
70.673833
 30
0.0
 11
265.497917
 21
75.713833
 31
0.0
  0
LINE
  8
1
  6
CONTINUOUS
 62
     2
  5
395
 10
265.497917
 20
59.593833
 30
0.0
 11
265.497917
 21
54.553833
 31
0.0
  0
INSERT
  8
1
  6
CONTINUOUS
 62
     1
  5
396
  2
LDR
 10
265.497917
 20
70.673833
 30
0.0
 41
241.920018
 42
241.920018
 50
270.0
210
0.0
220
0.0
230
1.0
  0
INSERT
  8
1
  6
CONTINUOUS
 62
     1
  5
397
  2
LDR
 10
265.497917
 20
59.593833
 30
0.0
 41
241.920018
 42
241.920018
 50
90.0
210
0.0
220
0.0
230
1.0
  0
LINE
  8
1
  6
CONTINUOUS
 62
     2
  5
398
 10
258.437917
 20
58.593833
 30
0.0
 11
258.437917
 21
43.473833
 31
0.0
  0
LINE
  8
1
  6
CONTINUOUS
 62
     2
  5
399
 10
203.997917
 20
53.553833
 30
0.0
 11
203.997917
 21
43.473833
 31
0.0
  0
LINE
  8
1
  6
CONTINUOUS
 62
     2
  5
39A
 10
203.997917
 20
44.473833
 30
0.0
 11
258.437917
 21
44.473833
 31
0.0
  0
LINE
  8
1
  6
CONTINUOUS
 62
     2
  5
39B
 10
238.277917
 20
53.553833
 30
0.0
 11
238.277917
 21
48.513833
 31
0.0
  0
LINE
  8
1
  6
CONTINUOUS
 62
     2
  5
39C
 10
238.277917
 20
49.513833
 30
0.0
 11
258.437917
 21
49.513833
 31
0.0
  0
INSERT
  8
1
  6
CONTINUOUS
 62
     1
  5
39D
  2
LDR
 10
238.277917
 20
49.513833
 30
0.0
 41
241.920018
 42
241.920018
 50
180.0
210
0.0
220
0.0
230
1.0
  0
INSERT
  8
1
  6
CONTINUOUS
 62
     1
  5
39E
  2
LDR
 10
238.277917
 20
49.513833
 30
0.0
 41
241.920018
 42
241.920018
 50
180.0
210
0.0
220
0.0
230
1.0
  0
INSERT
  8
1
  6
CONTINUOUS
 62
     1
  5
39F
  2
LDR
 10
258.437917
 20
49.513833
 30
0.0
 41
241.920018
 42
241.920018
210
0.0
220
0.0
230
1.0
  0
INSERT
  8
1
  6
CONTINUOUS
 62
     1
  5
3A0
  2
LDR
 10
258.437917
 20
49.513833
 30
0.0
 41
241.920018
 42
241.920018
210
0.0
220
0.0
230
1.0
  0
INSERT
  8
1
  6
CONTINUOUS
 62
     1
  5
3A1
  2
LDR
 10
258.437917
 20
44.473833
 30
0.0
 41
241.920018
 42
241.920018
210
0.0
220
0.0
230
1.0
  0
INSERT
  8
1
  6
CONTINUOUS
 62
     1
  5
3A2
  2
LDR
 10
258.437917
 20
44.473833
 30
0.0
 41
241.920018
 42
241.920018
210
0.0
220
0.0
230
1.0
  0
INSERT
  8
1
  6
CONTINUOUS
 62
     1
  5
3A3
  2
LDR
 10
203.997917
 20
44.473833
 30
0.0
 41
241.920018
 42
241.920018
 50
180.0
210
0.0
220
0.0
230
1.0
  0
TEXT
  8
1
  6
CONTINUOUS
 62
     7
  5
3A4
 10
246.817917
 20
46.193833
 30
0.0
 40
2.52
  1
3"
  7
MONOTXT
210
0.0
220
0.0
230
1.0
  0
TEXT
  8
1
  6
CONTINUOUS
 62
     7
  5
3A5
 10
228.937917
 20
40.433833
 30
0.0
 40
2.52
  1
7 1/2 "
  7
MONOTXT
210
0.0
220
0.0
230
1.0
  0
TEXT
  8
1
  6
CONTINUOUS
 62
     7
  5
3A6
 10
307.637917
 20
77.413833
 30
0.0
 40
2.52
  1
3 1/2 "
  7
MONOTXT
210
0.0
220
0.0
230
1.0
  0
TEXT
  8
1
  6
CONTINUOUS
 62
     7
  5
3A7
 10
334.077917
 20
77.413833
 30
0.0
 40
2.52
  1
3 1/2 "
  7
MONOTXT
210
0.0
220
0.0
230
1.0
  0
TEXT
  8
1
  6
CONTINUOUS
 62
     7
  5
3A8
 10
363.897917
 20
76.813833
 30
0.0
 40
2.52
  1
3"
  7
MONOTXT
210
0.0
220
0.0
230
1.0
  0
TEXT
  8
1
  6
CONTINUOUS
 62
     7
  5
3A9
 10
387.357917
 20
62.093833
 30
0.0
 40
2.52
  1
2"
  7
MONOTXT
210
0.0
220
0.0
230
1.0
  0
TEXT
  8
1
  6
CONTINUOUS
 62
     7
  5
3AA
 10
378.997917
 20
61.293833
 30
0.0
 40
2.52
  1
 3/4 "
  7
MONOTXT
210
0.0
220
0.0
230
1.0
  0
TEXT
  8
1
  6
CONTINUOUS
 62
     7
  5
3AB
 10
379.197917
 20
45.393833
 30
0.0
 40
2.52
  1
 5/8 "
  7
MONOTXT
210
0.0
220
0.0
230
1.0
  0
TEXT
  8
1
  6
CONTINUOUS
 62
     7
  5
3AC
 10
344.177917
 20
45.913833
 30
0.0
 40
2.52
  1
7 1/16 "
  7
MONOTXT
210
0.0
220
0.0
230
1.0
  0
INSERT
  8
1
  6
CONTINUOUS
 62
     1
  5
3AD
  2
LDR
 10
324.457917
 20
49.353833
 30
0.0
 41
241.920018
 42
241.920018
 50
180.0
210
0.0
220
0.0
230
1.0
  0
INSERT
  8
1
  6
CONTINUOUS
 62
     1
  5
3AE
  2
LDR
 10
324.457917
 20
49.353833
 30
0.0
 41
241.920018
 42
241.920018
 50
180.0
210
0.0
220
0.0
230
1.0
  0
INSERT
  8
1
  6
CONTINUOUS
 62
     1
  5
3AF
  2
LDR
 10
375.357917
 20
49.353833
 30
0.0
 41
241.920018
 42
241.920018
210
0.0
220
0.0
230
1.0
  0
INSERT
  8
1
  6
CONTINUOUS
 62
     1
  5
3B0
  2
LDR
 10
375.357917
 20
49.353833
 30
0.0
 41
241.920018
 42
241.920018
210
0.0
220
0.0
230
1.0
  0
TEXT
  8
1
  6
CONTINUOUS
 62
     7
  5
3B1
 10
320.997917
 20
40.613833
 30
0.0
 40
2.52
  1
14 1/8 "
  7
MONOTXT
210
0.0
220
0.0
230
1.0
  0
TEXT
  8
1
  6
CONTINUOUS
 62
     7
  5
3B2
 10
266.957917
 20
78.873833
 30
0.0
 40
2.52
  1
"
  7
MONOTXT
210
0.0
220
0.0
230
1.0
  0
TEXT
  8
1
  6
CONTINUOUS
 62
     7
  5
3B3
 10
266.437917
 20
51.953833
 30
0.0
 40
2.52
  1
"
  7
MONOTXT
210
0.0
220
0.0
230
1.0
  0
TEXT
  8
1
  6
CONTINUOUS
 62
     7
  5
3B4
 10
211.017917
 20
60.733833
 30
0.0
 40
3.024
  1
PART "B"
  7
MONOTXT
210
0.0
220
0.0
230
1.0
  0
TEXT
  8
1
  6
CONTINUOUS
 62
     7
  5
3B5
 10
311.977917
 20
60.733833
 30
0.0
 40
3.024
  1
PART "A"
  7
MONOTXT
210
0.0
220
0.0
230
1.0
  0
LINE
  8
1
  6
CONTINUOUS
 62
     7
  5
3B6
 10
250.546833
 20
25.924917
 30
0.0
 11
341.46825
 21
25.924917
 31
0.0
  0
LINE
  8
1
  6
CONTINUOUS
 62
     1
  5
3B7
 10
256.257917
 20
97.733833
 30
0.0
 11
334.877917
 21
97.733833
 31
0.0
  0
LINE
  8
1
  6
CONTINUOUS
 62
     1
  5
3B8
 10
256.257917
 20
112.853833
 30
0.0
 11
334.877917
 21
112.853833
 31
0.0
  0
LINE
  8
1
  6
CONTINUOUS
 62
     1
  5
3B9
 10
256.257917
 20
112.853833
 30
0.0
 11
256.257917
 21
97.733833
 31
0.0
  0
LINE
  8
1
  6
CONTINUOUS
 62
     1
  5
3BA
 10
334.877917
 20
112.853833
 30
0.0
 11
334.877917
 21
97.733833
 31
0.0
  0
LINE
  8
1
  6
HIDDEN
 62
     1
  5
3BB
 10
258.017917
 20
112.853833
 30
0.0
 11
258.017917
 21
97.733833
 31
0.0
  0
LINE
  8
1
  6
HIDDEN
 62
     1
  5
3BC
 10
262.557917
 20
112.853833
 30
0.0
 11
262.557917
 21
97.733833
 31
0.0
  0
LINE
  8
1
  6
CONTINUOUS
 62
     1
  5
3BD
 10
256.757917
 20
116.373833
 30
0.0
 11
256.757917
 21
112.853833
 31
0.0
  0
LINE
  8
1
  6
CONTINUOUS
 62
     1
  5
3BE
 10
256.757917
 20
97.733833
 30
0.0
 11
256.757917
 21
94.193833
 31
0.0
  0
LINE
  8
1
  6
CONTINUOUS
 62
     1
  5
3BF
 10
263.817917
 20
116.373833
 30
0.0
 11
263.817917
 21
112.853833
 31
0.0
  0
LINE
  8
1
  6
CONTINUOUS
 62
     1
  5
3C0
 10
263.817917
 20
97.733833
 30
0.0
 11
263.817917
 21
94.193833
 31
0.0
  0
LINE
  8
1
  6
CONTINUOUS
 62
     1
  5
3C1
 10
256.757917
 20
94.193833
 30
0.0
 11
257.517917
 21
93.693833
 31
0.0
  0
LINE
  8
1
  6
CONTINUOUS
 62
     1
  5
3C2
 10
258.517917
 20
93.693833
 30
0.0
 11
262.037917
 21
93.693833
 31
0.0
  0
LINE
  8
1
  6
CONTINUOUS
 62
     1
  5
3C3
 10
263.057917
 20
93.693833
 30
0.0
 11
263.817917
 21
94.193833
 31
0.0
  0
LINE
  8
1
  6
CONTINUOUS
 62
     1
  5
3C4
 10
256.757917
 20
116.373833
 30
0.0
 11
260.277917
 21
116.373833
 31
0.0
  0
LINE
  8
1
  6
CONTINUOUS
 62
     1
  5
3C5
 10
260.277917
 20
116.373833
 30
0.0
 11
263.817917
 21
116.373833
 31
0.0
  0
LINE
  8
1
  6
CONTINUOUS
 62
     1
  5
3C6
 10
259.517917
 20
116.373833
 30
0.0
 11
260.277917
 21
115.373833
 31
0.0
  0
LINE
  8
1
  6
CONTINUOUS
 62
     1
  5
3C7
 10
260.277917
 20
115.373833
 30
0.0
 11
261.037917
 21
116.373833
 31
0.0
  0
LINE
  8
1
  6
CONTINUOUS
 62
     1
  5
3C8
 10
256.757917
 20
115.373833
 30
0.0
 11
257.517917
 21
116.373833
 31
0.0
  0
LINE
  8
1
  6
CONTINUOUS
 62
     1
  5
3C9
 10
263.057917
 20
116.373833
 30
0.0
 11
263.817917
 21
115.373833
 31
0.0
  0
LINE
  8
1
  6
CONTINUOUS
 62
     1
  5
3CA
 10
257.517917
 20
93.693833
 30
0.0
 11
258.517917
 21
93.693833
 31
0.0
  0
LINE
  8
1
  6
CONTINUOUS
 62
     1
  5
3CB
 10
262.037917
 20
93.693833
 30
0.0
 11
263.057917
 21
93.693833
 31
0.0
  0
LINE
  8
1
  6
CONTINUOUS
 62
     1
  5
3CC
 10
258.017917
 20
94.693833
 30
0.0
 11
258.017917
 21
96.713833
 31
0.0
  0
LINE
  8
1
  6
CONTINUOUS
 62
     1
  5
3CD
 10
262.557917
 20
94.693833
 30
0.0
 11
262.557917
 21
96.713833
 31
0.0
  0
LINE
  8
1
  6
CONTINUOUS
 62
     1
  5
3CE
 10
257.517917
 20
93.693833
 30
0.0
 11
258.017917
 21
94.693833
 31
0.0
  0
LINE
  8
1
  6
CONTINUOUS
 62
     1
  5
3CF
 10
258.017917
 20
94.693833
 30
0.0
 11
258.517917
 21
93.693833
 31
0.0
  0
LINE
  8
1
  6
CONTINUOUS
 62
     1
  5
3D0
 10
262.037917
 20
93.693833
 30
0.0
 11
262.557917
 21
94.693833
 31
0.0
  0
LINE
  8
1
  6
CONTINUOUS
 62
     1
  5
3D1
 10
262.557917
 20
94.693833
 30
0.0
 11
263.057917
 21
93.693833
 31
0.0
  0
LINE
  8
1
  6
CONTINUOUS
 62
     1
  5
3D2
 10
257.517917
 20
97.733833
 30
0.0
 11
258.017917
 21
96.713833
 31
0.0
  0
LINE
  8
1
  6
CONTINUOUS
 62
     1
  5
3D3
 10
258.017917
 20
96.713833
 30
0.0
 11
258.517917
 21
97.733833
 31
0.0
  0
LINE
  8
1
  6
CONTINUOUS
 62
     1
  5
3D4
 10
262.037917
 20
97.733833
 30
0.0
 11
262.557917
 21
96.713833
 31
0.0
  0
LINE
  8
1
  6
CONTINUOUS
 62
     1
  5
3D5
 10
262.557917
 20
96.713833
 30
0.0
 11
263.057917
 21
97.733833
 31
0.0
  0
LINE
  8
1
  6
HIDDEN
 62
     1
  5
3D6
 10
328.577917
 20
112.853833
 30
0.0
 11
328.577917
 21
97.733833
 31
0.0
  0
LINE
  8
1
  6
HIDDEN
 62
     1
  5
3D7
 10
333.117917
 20
112.853833
 30
0.0
 11
333.117917
 21
97.733833
 31
0.0
  0
LINE
  8
1
  6
CONTINUOUS
 62
     1
  5
3D8
 10
256.257917
 20
108.053833
 30
0.0
 11
264.317917
 21
108.053833
 31
0.0
  0
LINE
  8
1
  6
CONTINUOUS
 62
     1
  5
3D9
 10
256.257917
 20
102.513833
 30
0.0
 11
264.317917
 21
102.513833
 31
0.0
  0
LINE
  8
1
  6
CONTINUOUS
 62
     1
  5
3DA
 10
260.277917
 20
116.373833
 30
0.0
 11
260.277917
 21
106.793833
 31
0.0
  0
LINE
  8
1
  6
CONTINUOUS
 62
     1
  5
3DB
 10
260.277917
 20
105.793833
 30
0.0
 11
260.277917
 21
104.773833
 31
0.0
  0
LINE
  8
1
  6
CONTINUOUS
 62
     1
  5
3DC
 10
260.277917
 20
103.773833
 30
0.0
 11
260.277917
 21
91.673833
 31
0.0
  0
LINE
  8
1
  6
CONTINUOUS
 62
     1
  5
3DD
 10
259.017917
 20
92.693833
 30
0.0
 11
261.537917
 21
92.693833
 31
0.0
  0
LINE
  8
1
  6
CONTINUOUS
 62
     1
  5
3DE
 10
259.017917
 20
92.693833
 30
0.0
 11
258.517917
 21
93.693833
 31
0.0
  0
LINE
  8
1
  6
CONTINUOUS
 62
     1
  5
3DF
 10
261.537917
 20
92.693833
 30
0.0
 11
262.037917
 21
93.693833
 31
0.0
  0
LINE
  8
1
  6
CONTINUOUS
 62
     1
  5
3E0
 10
258.777917
 20
93.193833
 30
0.0
 11
261.797917
 21
93.193833
 31
0.0
  0
LINE
  8
1
  6
CONTINUOUS
 62
     1
  5
3E1
 10
326.817917
 20
108.053833
 30
0.0
 11
334.877917
 21
108.053833
 31
0.0
  0
LINE
  8
1
  6
CONTINUOUS
 62
     1
  5
3E2
 10
326.817917
 20
102.513833
 30
0.0
 11
334.877917
 21
102.513833
 31
0.0
  0
LINE
  8
1
  6
CONTINUOUS
 62
     1
  5
3E3
 10
330.837917
 20
105.793833
 30
0.0
 11
330.837917
 21
104.773833
 31
0.0
  0
LINE
  8
1
  6
CONTINUOUS
 62
     1
  5
3E4
 10
330.837917
 20
103.773833
 30
0.0
 11
330.837917
 21
91.673833
 31
0.0
  0
LINE
  8
1
  6
HIDDEN
 62
     1
  5
3E5
 10
264.317917
 20
112.853833
 30
0.0
 11
264.317917
 21
108.053833
 31
0.0
  0
LINE
  8
1
  6
HIDDEN
 62
     1
  5
3E6
 10
264.317917
 20
102.513833
 30
0.0
 11
264.317917
 21
97.733833
 31
0.0
  0
LINE
  8
1
  6
HIDDEN
 62
     1
  5
3E7
 10
326.817917
 20
112.853833
 30
0.0
 11
326.817917
 21
108.053833
 31
0.0
  0
LINE
  8
1
  6
HIDDEN
 62
     1
  5
3E8
 10
326.817917
 20
102.513833
 30
0.0
 11
326.817917
 21
97.733833
 31
0.0
  0
LINE
  8
1
  6
CONTINUOUS
 62
     1
  5
3E9
 10
264.317917
 20
108.053833
 30
0.0
 11
264.317917
 21
102.513833
 31
0.0
  0
LINE
  8
1
  6
CONTINUOUS
 62
     1
  5
3EA
 10
326.817917
 20
108.053833
 30
0.0
 11
326.817917
 21
102.513833
 31
0.0
  0
LINE
  8
1
  6
CONTINUOUS
 62
     1
  5
3EB
 10
268.337917
 20
113.853833
 30
0.0
 11
268.337917
 21
111.073833
 31
0.0
  0
LINE
  8
1
  6
CONTINUOUS
 62
     1
  5
3EC
 10
268.337917
 20
110.073833
 30
0.0
 11
268.337917
 21
109.073833
 31
0.0
  0
LINE
  8
1
  6
CONTINUOUS
 62
     1
  5
3ED
 10
268.337917
 20
108.053833
 30
0.0
 11
268.337917
 21
103.513833
 31
0.0
  0
LINE
  8
1
  6
CONTINUOUS
 62
     1
  5
3EE
 10
322.777917
 20
113.853833
 30
0.0
 11
322.777917
 21
111.073833
 31
0.0
  0
LINE
  8
1
  6
CONTINUOUS
 62
     1
  5
3EF
 10
322.777917
 20
110.073833
 30
0.0
 11
322.777917
 21
109.073833
 31
0.0
  0
LINE
  8
1
  6
CONTINUOUS
 62
     1
  5
3F0
 10
322.777917
 20
108.053833
 30
0.0
 11
322.777917
 21
103.513833
 31
0.0
  0
LINE
  8
1
  6
CONTINUOUS
 62
     1
  5
3F1
 10
264.817917
 20
109.573833
 30
0.0
 11
266.837917
 21
109.573833
 31
0.0
  0
LINE
  8
1
  6
CONTINUOUS
 62
     1
  5
3F2
 10
267.837917
 20
109.573833
 30
0.0
 11
268.857917
 21
109.573833
 31
0.0
  0
LINE
  8
1
  6
CONTINUOUS
 62
     1
  5
3F3
 10
269.857917
 20
109.573833
 30
0.0
 11
273.897917
 21
109.573833
 31
0.0
  0
LINE
  8
1
  6
CONTINUOUS
 62
     1
  5
3F4
 10
316.217917
 20
109.573833
 30
0.0
 11
321.257917
 21
109.573833
 31
0.0
  0
LINE
  8
1
  6
CONTINUOUS
 62
     1
  5
3F5
 10
322.277917
 20
109.573833
 30
0.0
 11
323.277917
 21
109.573833
 31
0.0
  0
LINE
  8
1
  6
CONTINUOUS
 62
     1
  5
3F6
 10
324.297917
 20
109.573833
 30
0.0
 11
326.297917
 21
109.573833
 31
0.0
  0
LINE
  8
1
  6
CONTINUOUS
 62
     1
  5
3F7
 10
268.337917
 20
118.393833
 30
0.0
 11
268.337917
 21
124.933833
 31
0.0
  0
LINE
  8
1
  6
CONTINUOUS
 62
     1
  5
3F8
 10
322.777917
 20
118.393833
 30
0.0
 11
322.777917
 21
124.933833
 31
0.0
  0
LINE
  8
1
  6
CONTINUOUS
 62
     1
  5
3F9
 10
295.557917
 20
104.773833
 30
0.0
 11
295.557917
 21
102.773833
 31
0.0
  0
LINE
  8
1
  6
CONTINUOUS
 62
     1
  5
3FA
 10
295.557917
 20
101.753833
 30
0.0
 11
295.557917
 21
91.673833
 31
0.0
  0
LINE
  8
1
  6
CONTINUOUS
 62
     1
  5
3FB
 10
295.557917
 20
122.173833
 30
0.0
 11
295.557917
 21
118.133833
 31
0.0
  0
LINE
  8
1
  6
CONTINUOUS
 62
     1
  5
3FC
 10
295.557917
 20
117.133833
 30
0.0
 11
295.557917
 21
115.113833
 31
0.0
  0
LINE
  8
1
  6
CONTINUOUS
 62
     1
  5
3FD
 10
295.557917
 20
114.113833
 30
0.0
 11
295.557917
 21
105.793833
 31
0.0
  0
LINE
  8
1
  6
CONTINUOUS
 62
     1
  5
3FE
 10
260.277917
 20
119.893833
 30
0.0
 11
274.397917
 21
119.893833
 31
0.0
  0
LINE
  8
1
  6
CONTINUOUS
 62
     1
  5
3FF
 10
275.397917
 20
119.893833
 30
0.0
 11
277.417917
 21
119.893833
 31
0.0
  0
LINE
  8
1
  6
CONTINUOUS
 62
     1
  5
400
 10
278.417917
 20
119.893833
 30
0.0
 11
280.437917
 21
119.893833
 31
0.0
  0
LINE
  8
1
  6
CONTINUOUS
 62
     1
  5
401
 10
281.457917
 20
119.893833
 30
0.0
 11
295.557917
 21
119.893833
 31
0.0
  0
LINE
  8
1
  6
CONTINUOUS
 62
     1
  5
402
 10
295.557917
 20
119.893833
 30
0.0
 11
309.677917
 21
119.893833
 31
0.0
  0
LINE
  8
1
  6
CONTINUOUS
 62
     1
  5
403
 10
310.677917
 20
119.893833
 30
0.0
 11
312.697917
 21
119.893833
 31
0.0
  0
LINE
  8
1
  6
CONTINUOUS
 62
     1
  5
404
 10
313.697917
 20
119.893833
 30
0.0
 11
315.717917
 21
119.893833
 31
0.0
  0
LINE
  8
1
  6
CONTINUOUS
 62
     1
  5
405
 10
316.737917
 20
119.893833
 30
0.0
 11
330.837917
 21
119.893833
 31
0.0
  0
LINE
  8
1
  6
CONTINUOUS
 62
     1
  5
406
 10
260.277917
 20
120.913833
 30
0.0
 11
330.837917
 21
120.913833
 31
0.0
  0
CIRCLE
  8
1
  6
CONTINUOUS
 62
     1
  5
407
 10
260.304841
 20
124.992773
 30
0.0
 40
4.032
210
0.0
220
0.0
230
1.0
  0
CIRCLE
  8
1
  6
CONTINUOUS
 62
     1
  5
408
 10
330.838465
 20
124.989413
 30
0.0
 40
4.032
210
0.0
220
0.0
230
1.0
  0
LINE
  8
1
  6
CONTINUOUS
 62
     1
  5
409
 10
257.757917
 20
126.513833
 30
0.0
 11
257.757917
 21
123.473833
 31
0.0
  0
LINE
  8
1
  6
CONTINUOUS
 62
     1
  5
40A
 10
262.797917
 20
126.513833
 30
0.0
 11
262.797917
 21
123.473833
 31
0.0
  0
LINE
  8
1
  6
CONTINUOUS
 62
     1
  5
40B
 10
259.277917
 20
124.993833
 30
0.0
 11
261.297917
 21
124.993833
 31
0.0
  0
LINE
  8
1
  6
CONTINUOUS
 62
     1
  5
40C
 10
257.757917
 20
126.513833
 30
0.0
 11
260.277917
 21
127.773833
 31
0.0
  0
LINE
  8
1
  6
CONTINUOUS
 62
     1
  5
40D
 10
260.277917
 20
127.773833
 30
0.0
 11
262.797917
 21
126.513833
 31
0.0
  0
LINE
  8
1
  6
CONTINUOUS
 62
     1
  5
40E
 10
260.277917
 20
122.213833
 30
0.0
 11
262.797917
 21
123.473833
 31
0.0
  0
LINE
  8
1
  6
CONTINUOUS
 62
     1
  5
40F
 10
260.277917
 20
122.213833
 30
0.0
 11
257.757917
 21
123.473833
 31
0.0
  0
LINE
  8
1
  6
CONTINUOUS
 62
     1
  5
410
 10
260.277917
 20
133.513833
 30
0.0
 11
260.277917
 21
126.753833
 31
0.0
  0
LINE
  8
1
  6
CONTINUOUS
 62
     1
  5
411
 10
260.277917
 20
125.993833
 30
0.0
 11
260.277917
 21
123.993833
 31
0.0
  0
CIRCLE
  8
1
  6
CONTINUOUS
 62
     1
  5
412
 10
330.844345
 20
125.048129
 30
0.0
 40
3.024
210
0.0
220
0.0
230
1.0
  0
LINE
  8
1
  6
CONTINUOUS
 62
     1
  5
413
 10
330.837917
 20
133.513833
 30
0.0
 11
330.837917
 21
126.753833
 31
0.0
  0
LINE
  8
1
  6
CONTINUOUS
 62
     1
  5
414
 10
330.837917
 20
125.993833
 30
0.0
 11
330.837917
 21
123.993833
 31
0.0
  0
LINE
  8
1
  6
CONTINUOUS
 62
     1
  5
415
 10
330.837917
 20
123.233833
 30
0.0
 11
330.837917
 21
106.793833
 31
0.0
  0
LINE
  8
1
  6
CONTINUOUS
 62
     1
  5
416
 10
329.837917
 20
124.993833
 30
0.0
 11
331.857917
 21
124.993833
 31
0.0
  0
LINE
  8
1
  6
CONTINUOUS
 62
     1
  5
417
 10
256.517917
 20
123.553833
 30
0.0
 11
235.377917
 21
153.753833
 31
0.0
  0
LINE
  8
1
  6
CONTINUOUS
 62
     1
  5
418
 10
330.837917
 20
129.013833
 30
0.0
 11
306.777917
 21
154.813833
 31
0.0
  0
LINE
  8
1
  6
CONTINUOUS
 62
     1
  5
419
 10
334.037917
 20
127.453833
 30
0.0
 11
307.697917
 21
155.673833
 31
0.0
  0
LINE
  8
1
  6
CONTINUOUS
 62
     1
  5
41A
 10
306.777917
 20
154.813833
 30
0.0
 11
307.697917
 21
155.673833
 31
0.0
  0
CIRCLE
  8
1
  6
CONTINUOUS
 62
     1
  5
41B
 10
295.287145
 20
140.478593
 30
0.0
 40
18.012133
210
0.0
220
0.0
230
1.0
  0
INSERT
  8
1
  6
CONTINUOUS
 62
     1
  5
41C
  2
LDR
 10
311.717917
 20
147.853833
 30
0.0
 41
241.91997
 42
241.91997
 50
24.999864
210
0.0
220
0.0
230
1.0
  0
INSERT
  8
1
  6
CONTINUOUS
 62
     1
  5
41D
  2
LDR
 10
311.717917
 20
147.853833
 30
0.0
 41
241.91997
 42
241.91997
 50
24.999864
210
0.0
220
0.0
230
1.0
  0
INSERT
  8
1
  6
CONTINUOUS
 62
     1
  5
41E
  2
LDR
 10
279.077917
 20
132.633833
 30
0.0
 41
241.91997
 42
241.91997
 50
204.999864
210
0.0
220
0.0
230
1.0
  0
TEXT
  8
1
  6
CONTINUOUS
 62
     7
  5
41F
 10
287.977917
 20
135.333833
 30
0.0
 40
2.52
  1
POLE DIA.
 50
25.0
  7
MONOTXT
210
0.0
220
0.0
230
1.0
  0
LINE
  8
1
  6
CONTINUOUS
 62
     1
  5
420
 10
279.077917
 20
132.633833
 30
0.0
 11
286.677917
 21
136.193833
 31
0.0
  0
LINE
  8
1
  6
CONTINUOUS
 62
     1
  5
421
 10
304.297917
 20
144.413833
 30
0.0
 11
311.717917
 21
147.853833
 31
0.0
  0
LINE
  8
1
  6
CONTINUOUS
 62
     1
  5
422
 10
295.557917
 20
122.173833
 30
0.0
 11
295.557917
 21
136.853833
 31
0.0
  0
LINE
  8
1
  6
CONTINUOUS
 62
     1
  5
423
 10
295.557917
 20
143.373833
 30
0.0
 11
295.557917
 21
161.513833
 31
0.0
  0
LINE
  8
1
  6
CONTINUOUS
 62
     1
  5
424
 10
315.697917
 20
157.453833
 30
0.0
 11
314.317917
 21
158.933833
 31
0.0
  0
LINE
  8
1
  6
CONTINUOUS
 62
     1
  5
425
 10
315.257917
 20
155.713833
 30
0.0
 11
312.517917
 21
158.653833
 31
0.0
  0
LINE
  8
1
  6
CONTINUOUS
 62
     1
  5
426
 10
312.517917
 20
158.653833
 30
0.0
 11
313.077917
 21
159.153833
 31
0.0
  0
LINE
  8
1
  6
CONTINUOUS
 62
     1
  5
427
 10
315.257917
 20
155.713833
 30
0.0
 11
315.777917
 21
156.173833
 31
0.0
  0
ARC
  8
1
  6
CONTINUOUS
 62
     1
  5
428
 10
313.574607
 20
158.375174
 30
0.0
 40
0.93253
 50
36.551511
 51
122.475736
210
0.0
220
0.0
230
1.0
  0
ARC
  8
1
  6
CONTINUOUS
 62
     1
  5
429
 10
315.064426
 20
156.768405
 30
0.0
 40
0.93253
 50
320.855919
 51
48.497619
210
0.0
220
0.0
230
1.0
  0
LINE
  8
1
  6
CONTINUOUS
 62
     1
  5
42A
 10
311.137917
 20
156.053833
 30
0.0
 11
314.317917
 21
158.933833
 31
0.0
  0
LINE
  8
1
  6
CONTINUOUS
 62
     1
  5
42B
 10
312.517917
 20
154.593833
 30
0.0
 11
315.697917
 21
157.453833
 31
0.0
  0
LINE
  8
1
  6
CONTINUOUS
 62
     1
  5
42C
 10
311.057917
 20
154.293833
 30
0.0
 11
310.717917
 21
154.673833
 31
0.0
  0
LINE
  8
1
  6
CONTINUOUS
 62
     1
  5
42D
 10
311.137917
 20
156.053833
 30
0.0
 11
310.717917
 21
154.673833
 31
0.0
  0
LINE
  8
1
  6
CONTINUOUS
 62
     1
  5
42E
 10
312.517917
 20
154.593833
 30
0.0
 11
311.057917
 21
154.293833
 31
0.0
  0
LINE
  8
1
  6
CONTINUOUS
 62
     1
  5
42F
 10
313.877917
 20
157.173833
 30
0.0
 11
316.517917
 21
159.533833
 31
0.0
  0
LINE
  8
1
  6
CONTINUOUS
 62
     1
  5
430
 10
308.077917
 20
151.953833
 30
0.0
 11
310.897917
 21
154.473833
 31
0.0
  0
LINE
  8
1
  6
CONTINUOUS
 62
     1
  5
431
 10
310.897917
 20
154.473833
 30
0.0
 11
311.257917
 21
154.813833
 31
0.0
  0
LINE
  8
1
  6
CONTINUOUS
 62
     1
  5
432
 10
312.017917
 20
155.493833
 30
0.0
 11
312.757917
 21
156.173833
 31
0.0
  0
LINE
  8
1
  6
CONTINUOUS
 62
     1
  5
433
 10
313.517917
 20
156.833833
 30
0.0
 11
313.877917
 21
157.173833
 31
0.0
  0
LINE
  8
1
  6
CONTINUOUS
 62
     1
  5
434
 10
250.117917
 20
112.933833
 30
0.0
 11
245.497917
 21
119.533833
 31
0.0
  0
LINE
  8
1
  6
CONTINUOUS
 62
     1
  5
435
 10
244.757917
 20
109.173833
 30
0.0
 11
240.137917
 21
115.773833
 31
0.0
  0
LINE
  8
1
  6
CONTINUOUS
 62
     1
  5
436
 10
250.117917
 20
112.933833
 30
0.0
 11
244.757917
 21
109.173833
 31
0.0
  0
LINE
  8
1
  6
CONTINUOUS
 62
     1
  5
437
 10
245.497917
 20
119.533833
 30
0.0
 11
248.997917
 21
121.993833
 31
0.0
  0
LINE
  8
1
  6
CONTINUOUS
 62
     1
  5
438
 10
239.957917
 20
110.733833
 30
0.0
 11
243.877917
 21
113.493833
 31
0.0
  0
LINE
  8
1
  6
CONTINUOUS
 62
     1
  5
439
 10
244.717917
 20
114.053833
 30
0.0
 11
245.537917
 21
114.633833
 31
0.0
  0
LINE
  8
1
  6
CONTINUOUS
 62
     1
  5
43A
 10
246.357917
 20
115.213833
 30
0.0
 11
250.277917
 21
117.973833
 31
0.0
  0
LINE
  8
1
  6
HIDDEN
 62
     1
  5
43B
 10
248.717917
 20
113.173833
 30
0.0
 11
244.997917
 21
110.573833
 31
0.0
  0
LINE
  8
1
  6
HIDDEN
 62
     1
  5
43C
 10
240.957917
 20
116.353833
 30
0.0
 11
244.677917
 21
118.953833
 31
0.0
  0
LINE
  8
1
  6
HIDDEN
 62
     1
  5
43D
 10
241.537917
 20
115.533833
 30
0.0
 11
245.257917
 21
118.133833
 31
0.0
  0
CIRCLE
  8
1
  6
CONTINUOUS
 62
     1
  5
43E
 10
221.709277
 20
139.892105
 30
0.0
 40
1.134
210
0.0
220
0.0
230
1.0
  0
CIRCLE
  8
1
  6
CONTINUOUS
 62
     1
  5
43F
 10
229.141009
 20
145.090613
 30
0.0
 40
1.134
210
0.0
220
0.0
230
1.0
  0
LINE
  8
1
  6
CONTINUOUS
 62
     1
  5
440
 10
218.397917
 20
137.573833
 30
0.0
 11
219.957917
 21
138.653833
 31
0.0
  0
LINE
  8
1
  6
CONTINUOUS
 62
     1
  5
441
 10
221.197917
 20
139.533833
 30
0.0
 11
222.237917
 21
140.253833
 31
0.0
  0
LINE
  8
1
  6
CONTINUOUS
 62
     1
  5
442
 10
220.477917
 20
141.653833
 30
0.0
 11
215.937917
 21
148.133833
 31
0.0
  0
LINE
  8
1
  6
CONTINUOUS
 62
     1
  5
443
 10
224.897917
 20
135.333833
 30
0.0
 11
222.937917
 21
138.133833
 31
0.0
  0
LINE
  8
1
  6
CONTINUOUS
 62
     1
  5
444
 10
222.057917
 20
139.373833
 30
0.0
 11
221.337917
 21
140.413833
 31
0.0
  0
LINE
  8
1
  6
CONTINUOUS
 62
     1
  5
445
 10
223.477917
 20
141.113833
 30
0.0
 11
227.397917
 21
143.853833
 31
0.0
  0
LINE
  8
1
  6
CONTINUOUS
 62
     1
  5
446
 10
228.617917
 20
144.733833
 30
0.0
 11
229.657917
 21
145.453833
 31
0.0
  0
LINE
  8
1
  6
CONTINUOUS
 62
     1
  5
447
 10
227.917917
 20
146.853833
 30
0.0
 11
223.357917
 21
153.353833
 31
0.0
  0
LINE
  8
1
  6
CONTINUOUS
 62
     1
  5
448
 10
232.317917
 20
140.553833
 30
0.0
 11
230.377917
 21
143.333833
 31
0.0
  0
LINE
  8
1
  6
CONTINUOUS
 62
     1
  5
449
 10
229.497917
 20
144.573833
 30
0.0
 11
228.777917
 21
145.613833
 31
0.0
  0
LINE
  8
1
  6
CONTINUOUS
 62
     1
  5
44A
 10
230.897917
 20
146.313833
 30
0.0
 11
236.157917
 21
149.993833
 31
0.0
  0
LINE
  8
1
  6
CONTINUOUS
 62
     1
  5
44B
 10
236.977917
 20
150.573833
 30
0.0
 11
237.817917
 21
151.153833
 31
0.0
  0
LINE
  8
1
  6
CONTINUOUS
 62
     1
  5
44C
 10
238.637917
 20
151.733833
 30
0.0
 11
243.997917
 21
155.493833
 31
0.0
  0
LINE
  8
1
  6
CONTINUOUS
 62
     1
  5
44D
 10
236.617917
 20
113.313833
 30
0.0
 11
217.217917
 21
141.033833
 31
0.0
  0
LINE
  8
1
  6
CONTINUOUS
 62
     1
  5
44E
 10
216.637917
 20
141.873833
 30
0.0
 11
213.457917
 21
146.413833
 31
0.0
  0
LINE
  8
1
  6
CONTINUOUS
 62
     1
  5
44F
 10
248.997917
 20
121.993833
 30
0.0
 11
229.597917
 21
149.713833
 31
0.0
  0
LINE
  8
1
  6
CONTINUOUS
 62
     1
  5
450
 10
229.017917
 20
150.533833
 30
0.0
 11
225.837917
 21
155.073833
 31
0.0
  0
LINE
  8
1
  6
CONTINUOUS
 62
     1
  5
451
 10
210.717917
 20
143.273833
 30
0.0
 11
214.037917
 21
145.573833
 31
0.0
  0
LINE
  8
1
  6
CONTINUOUS
 62
     1
  5
452
 10
216.497917
 20
147.313833
 30
0.0
 11
219.817917
 21
149.633833
 31
0.0
  0
LINE
  8
1
  6
CONTINUOUS
 62
     1
  5
453
 10
220.637917
 20
150.213833
 30
0.0
 11
223.937917
 21
152.513833
 31
0.0
  0
LINE
  8
1
  6
CONTINUOUS
 62
     1
  5
454
 10
226.417917
 20
154.253833
 30
0.0
 11
229.717917
 21
156.573833
 31
0.0
  0
INSERT
  8
1
  6
CONTINUOUS
 62
     1
  5
455
  2
LDR
 10
226.417917
 20
154.253833
 30
0.0
 41
241.920178
 42
241.920178
 50
214.999393
210
0.0
220
0.0
230
1.0
  0
INSERT
  8
1
  6
CONTINUOUS
 62
     1
  5
456
  2
LDR
 10
223.937917
 20
152.513833
 30
0.0
 41
241.919904
 42
241.919904
 50
34.999761
210
0.0
220
0.0
230
1.0
  0
INSERT
  8
1
  6
CONTINUOUS
 62
     1
  5
457
  2
LDR
 10
223.937917
 20
152.513833
 30
0.0
 41
241.919904
 42
241.919904
 50
34.999761
210
0.0
220
0.0
230
1.0
  0
INSERT
  8
1
  6
CONTINUOUS
 62
     1
  5
458
  2
LDR
 10
216.497917
 20
147.313833
 30
0.0
 41
241.920178
 42
241.920178
 50
214.999393
210
0.0
220
0.0
230
1.0
  0
INSERT
  8
1
  6
CONTINUOUS
 62
     1
  5
459
  2
LDR
 10
214.037917
 20
145.573833
 30
0.0
 41
241.919904
 42
241.919904
 50
34.999761
210
0.0
220
0.0
230
1.0
  0
LINE
  8
1
  6
CONTINUOUS
 62
     1
  5
45A
 10
256.377917
 20
125.953833
 30
0.0
 11
236.397917
 21
154.473833
 31
0.0
  0
LINE
  8
1
  6
CONTINUOUS
 62
     1
  5
45B
 10
241.977917
 20
158.393833
 30
0.0
 11
237.237917
 21
155.053833
 31
0.0
  0
LINE
  8
1
  6
CONTINUOUS
 62
     1
  5
45C
 10
236.397917
 20
154.473833
 30
0.0
 11
235.377917
 21
153.753833
 31
0.0
  0
LINE
  8
1
  6
CONTINUOUS
 62
     1
  5
45D
 10
238.837917
 20
161.113833
 30
0.0
 11
241.157917
 21
157.813833
 31
0.0
  0
LINE
  8
1
  6
CONTINUOUS
 62
     1
  5
45E
 10
243.177917
 20
154.913833
 30
0.0
 11
245.497917
 21
151.613833
 31
0.0
  0
INSERT
  8
1
  6
CONTINUOUS
 62
     1
  5
45F
  2
LDR
 10
241.157917
 20
157.813833
 30
0.0
 41
241.919355
 42
241.919355
 50
305.000499
210
0.0
220
0.0
230
1.0
  0
INSERT
  8
1
  6
CONTINUOUS
 62
     1
  5
460
  2
LDR
 10
243.177917
 20
154.913833
 30
0.0
 41
241.920178
 42
241.920178
 50
124.999393
210
0.0
220
0.0
230
1.0
  0
LINE
  8
1
  6
CONTINUOUS
 62
     1
  5
461
 10
211.837917
 20
137.273833
 30
0.0
 11
216.377917
 21
140.453833
 31
0.0
  0
LINE
  8
1
  6
CONTINUOUS
 62
     1
  5
462
 10
217.217917
 20
141.033833
 30
0.0
 11
229.597917
 21
149.713833
 31
0.0
  0
LINE
  8
1
  6
CONTINUOUS
 62
     1
  5
463
 10
231.257917
 20
109.553833
 30
0.0
 11
235.797917
 21
112.733833
 31
0.0
  0
LINE
  8
1
  6
CONTINUOUS
 62
     1
  5
464
 10
236.617917
 20
113.313833
 30
0.0
 11
240.137917
 21
115.773833
 31
0.0
  0
LINE
  8
1
  6
CONTINUOUS
 62
     1
  5
465
 10
212.677917
 20
137.853833
 30
0.0
 11
232.077917
 21
110.133833
 31
0.0
  0
INSERT
  8
1
  6
CONTINUOUS
 62
     1
  5
466
  2
LDR
 10
212.677917
 20
137.853833
 30
0.0
 41
241.919904
 42
241.919904
 50
124.999761
210
0.0
220
0.0
230
1.0
  0
INSERT
  8
1
  6
CONTINUOUS
 62
     1
  5
467
  2
LDR
 10
212.677917
 20
137.853833
 30
0.0
 41
241.919904
 42
241.919904
 50
124.999761
210
0.0
220
0.0
230
1.0
  0
INSERT
  8
1
  6
CONTINUOUS
 62
     1
  5
468
  2
LDR
 10
232.077917
 20
110.133833
 30
0.0
 41
241.919904
 42
241.919904
 50
304.999761
210
0.0
220
0.0
230
1.0
  0
LINE
  8
1
  6
CONTINUOUS
 62
     1
  5
469
 10
317.237917
 20
109.573833
 30
0.0
 11
317.237917
 21
105.533833
 31
0.0
  0
LINE
  8
1
  6
CONTINUOUS
 62
     1
  5
46A
 10
317.237917
 20
112.853833
 30
0.0
 11
317.237917
 21
116.873833
 31
0.0
  0
INSERT
  8
1
  6
CONTINUOUS
 62
     1
  5
46B
  2
LDR
 10
317.237917
 20
112.853833
 30
0.0
 41
241.920018
 42
241.920018
 50
270.0
210
0.0
220
0.0
230
1.0
  0
INSERT
  8
1
  6
CONTINUOUS
 62
     1
  5
46C
  2
LDR
 10
317.237917
 20
109.573833
 30
0.0
 41
241.920018
 42
241.920018
 50
90.0
210
0.0
220
0.0
230
1.0
  0
LINE
  8
1
  6
CONTINUOUS
 62
     1
  5
46D
 10
260.277917
 20
123.233833
 30
0.0
 11
260.277917
 21
119.893833
 31
0.0
  0
LINE
  8
1
  6
CONTINUOUS
 62
     1
  5
46E
 10
260.277917
 20
119.893833
 30
0.0
 11
260.277917
 21
116.373833
 31
0.0
  0
INSERT
  8
1
  6
CONTINUOUS
 62
     1
  5
46F
  2
LDR
 10
260.277917
 20
117.493833
 30
0.0
 41
241.920018
 42
241.920018
 50
180.0
210
0.0
220
0.0
230
1.0
  0
INSERT
  8
1
  6
CONTINUOUS
 62
     1
  5
470
  2
LDR
 10
330.837917
 20
117.493833
 30
0.0
 41
241.920018
 42
241.920018
210
0.0
220
0.0
230
1.0
  0
LINE
  8
1
  6
CONTINUOUS
 62
     1
  5
471
 10
313.697917
 20
155.653833
 30
0.0
 11
316.437917
 21
151.013833
 31
0.0
  0
LINE
  8
1
  6
CONTINUOUS
 62
     1
  5
472
 10
316.437917
 20
151.013833
 30
0.0
 11
321.217917
 21
151.013833
 31
0.0
  0
INSERT
  8
1
  6
CONTINUOUS
 62
     1
  5
473
  2
LDR
 10
313.697917
 20
155.653833
 30
0.0
 41
241.920247
 42
241.920247
 50
120.649133
210
0.0
220
0.0
230
1.0
  0
LINE
  8
1
  6
CONTINUOUS
 62
     1
  5
474
 10
327.257917
 20
134.713833
 30
0.0
 11
330.957917
 21
139.173833
 31
0.0
  0
LINE
  8
1
  6
CONTINUOUS
 62
     1
  5
475
 10
330.957917
 20
139.173833
 30
0.0
 11
336.837917
 21
139.173833
 31
0.0
  0
INSERT
  8
1
  6
CONTINUOUS
 62
     1
  5
476
  2
LDR
 10
327.257917
 20
134.713833
 30
0.0
 41
241.920207
 42
241.920207
 50
230.299182
210
0.0
220
0.0
230
1.0
  0
LINE
  8
1
  6
CONTINUOUS
 62
     1
  5
477
 10
330.837917
 20
119.353833
 30
0.0
 11
339.517917
 21
112.193833
 31
0.0
  0
LINE
  8
1
  6
CONTINUOUS
 62
     1
  5
478
 10
339.517917
 20
112.193833
 30
0.0
 11
344.937917
 21
112.193833
 31
0.0
  0
INSERT
  8
1
  6
CONTINUOUS
 62
     1
  5
479
  2
LDR
 10
330.837917
 20
119.353833
 30
0.0
 41
241.9203
 42
241.9203
 50
140.496387
210
0.0
220
0.0
230
1.0
  0
LINE
  8
1
  6
CONTINUOUS
 62
     1
  5
47A
 10
243.857917
 20
110.433833
 30
0.0
 11
236.997917
 21
102.253833
 31
0.0
  0
LINE
  8
1
  6
CONTINUOUS
 62
     1
  5
47B
 10
256.757917
 20
115.293833
 30
0.0
 11
241.557917
 21
92.533833
 31
0.0
  0
LINE
  8
1
  6
CONTINUOUS
 62
     1
  5
47C
 10
256.757917
 20
95.793833
 30
0.0
 11
246.788167
 21
81.773833
 31
0.0
  0
LINE
  8
1
  6
CONTINUOUS
 62
     1
  5
47D
 10
236.997917
 20
102.253833
 30
0.0
 11
224.337917
 21
102.253833
 31
0.0
  0
LINE
  8
1
  6
CONTINUOUS
 62
     1
  5
47E
 10
241.557917
 20
92.533833
 30
0.0
 11
234.597917
 21
92.533833
 31
0.0
  0
LINE
  8
1
  6
CONTINUOUS
 62
     1
  5
47F
 10
246.788167
 20
81.773833
 30
0.0
 11
221.901917
 21
81.773833
 31
0.0
  0
INSERT
  8
1
  6
CONTINUOUS
 62
     1
  5
480
  2
LDR
 10
243.857917
 20
110.433833
 30
0.0
 41
241.919981
 42
241.919981
 50
50.051685
210
0.0
220
0.0
230
1.0
  0
INSERT
  8
1
  6
CONTINUOUS
 62
     1
  5
481
  2
LDR
 10
243.857917
 20
110.433833
 30
0.0
 41
241.919981
 42
241.919981
 50
50.051685
210
0.0
220
0.0
230
1.0
  0
INSERT
  8
1
  6
CONTINUOUS
 62
     1
  5
482
  2
LDR
 10
256.757917
 20
115.293833
 30
0.0
 41
241.920304
 42
241.920304
 50
56.270437
210
0.0
220
0.0
230
1.0
  0
INSERT
  8
1
  6
CONTINUOUS
 62
     1
  5
483
  2
LDR
 10
256.757917
 20
115.293833
 30
0.0
 41
241.920304
 42
241.920304
 50
56.270437
210
0.0
220
0.0
230
1.0
  0
INSERT
  8
1
  6
CONTINUOUS
 62
     1
  5
484
  2
LDR
 10
256.757917
 20
95.793833
 30
0.0
 41
241.919631
 42
241.919631
 50
54.545584
210
0.0
220
0.0
230
1.0
  0
INSERT
  8
1
  6
CONTINUOUS
 62
     1
  5
485
  2
LDR
 10
256.757917
 20
95.793833
 30
0.0
 41
241.919631
 42
241.919631
 50
54.545584
210
0.0
220
0.0
230
1.0
  0
LINE
  8
1
  6
CONTINUOUS
 62
     1
  5
486
 10
263.177917
 20
122.173833
 30
0.0
 11
295.557917
 21
122.173833
 31
0.0
  0
LINE
  8
1
  6
CONTINUOUS
 62
     1
  5
487
 10
295.557917
 20
122.173833
 30
0.0
 11
327.957917
 21
122.173833
 31
0.0
  0
ARC
  8
1
  6
CONTINUOUS
 62
     1
  5
488
 10
299.25401
 20
199.232677
 30
0.0
 40
77.150941
 50
206.852594
 51
214.711428
210
0.0
220
0.0
230
1.0
  0
ARC
  8
1
  6
CONTINUOUS
 62
     1
  5
489
 10
294.817293
 20
190.992707
 30
0.0
 40
68.826718
 50
212.779058
 51
270.621483
210
0.0
220
0.0
230
1.0
  0
TEXT
  8
1
  6
CONTINUOUS
 62
     7
  5
48A
 10
316.917917
 20
169.753833
 30
0.0
 40
2.52
  1
FIELD DRILL POLE
  7
MONOTXT
 11
316.917917
 21
172.273833
 31
0.0
210
0.0
220
0.0
230
1.0
 73
     3
  0
TEXT
  8
1
  6
CONTINUOUS
 62
     7
  5
48B
 10
316.917917
 20
165.213833
 30
0.0
 40
2.52
  1
.290 DIA. DRILL - 4 HOLES.
  7
MONOTXT
 11
316.917917
 21
167.733833
 31
0.0
210
0.0
220
0.0
230
1.0
 73
     3
  0
TEXT
  8
1
  6
CONTINUOUS
 62
     7
  5
48C
 10
322.777917
 20
149.913833
 30
0.0
 40
2.52
  1
 5/16 " DIA. x  3/4 " HEX. HD.
  7
MONOTXT
 11
322.777917
 21
152.433833
 31
0.0
210
0.0
220
0.0
230
1.0
 73
     3
  0
TEXT
  8
1
  6
CONTINUOUS
 62
     7
  5
48D
 10
322.777917
 20
145.373833
 30
0.0
 40
2.52
  1
SELF TAPPING SCREWS
  7
MONOTXT
 11
322.777917
 21
147.893833
 31
0.0
210
0.0
220
0.0
230
1.0
 73
     3
  0
TEXT
  8
1
  6
CONTINUOUS
 62
     7
  5
48E
 10
337.817917
 20
137.973833
 30
0.0
 40
2.52
  1
 3/16 " x 2" BAR STOCK
  7
MONOTXT
210
0.0
220
0.0
230
1.0
  0
TEXT
  8
1
  6
CONTINUOUS
 62
     7
  5
48F
 10
345.937917
 20
111.433833
 30
0.0
 40
2.52
  1
ENCLOSURE WALL
  7
MONOTXT
210
0.0
220
0.0
230
1.0
  0
TEXT
  8
1
  6
CONTINUOUS
 62
     7
  5
490
 10
178.25875
 20
105.633833
 30
0.0
 40
2.52
  1
FORMED HINGE TO BE
  7
MONOTXT
 11
178.25875
 21
108.153833
 31
0.0
210
0.0
220
0.0
230
1.0
 73
     3
  0
TEXT
  8
1
  6
CONTINUOUS
 62
     7
  5
491
 10
178.25875
 20
101.113833
 30
0.0
 40
2.52
  1
SNUG FIT ON  5/8 " BOLT.
  7
MONOTXT
 11
178.25875
 21
103.633833
 31
0.0
210
0.0
220
0.0
230
1.0
 73
     3
  0
TEXT
  8
1
  6
CONTINUOUS
 62
     7
  5
492
 10
173.879917
 20
80.642833
 30
0.0
 40
2.52
  1
HEX. SELF LOCKING NUT
  7
MONOTXT
210
0.0
220
0.0
230
1.0
  0
TEXT
  8
1
  6
CONTINUOUS
 62
     7
  5
493
 10
297.517917
 20
116.013833
 30
0.0
 40
2.52
  1
9 1/8 "
  7
MONOTXT
210
0.0
220
0.0
230
1.0
  0
LINE
  8
1
  6
CONTINUOUS
 62
     1
  5
494
 10
260.277917
 20
117.493833
 30
0.0
 11
297.157917
 21
117.493833
 31
0.0
  0
LINE
  8
1
  6
CONTINUOUS
 62
     1
  5
495
 10
305.517917
 20
117.493833
 30
0.0
 11
330.837917
 21
117.493833
 31
0.0
  0
TEXT
  8
1
  6
CONTINUOUS
 62
     7
  5
496
 10
314.937917
 20
101.873833
 30
0.0
 40
2.52
  1
 1/2 "
  7
MONOTXT
210
0.0
220
0.0
230
1.0
  0
TEXT
  8
1
  6
CONTINUOUS
 62
     7
  5
497
 10
246.017917
 20
147.353833
 30
0.0
 40
2.52
  1
 1/2 "
 50
35.000567
  7
MONOTXT
 11
244.572484
 21
149.418082
 31
0.0
210
0.0
220
0.0
230
1.0
 73
     3
  0
TEXT
  8
1
  6
CONTINUOUS
 62
     7
  5
498
 10
227.577917
 20
157.213833
 30
0.0
 40
2.52
  1
 1/2 "
 50
35.000567
  7
MONOTXT
 11
226.132484
 21
159.278082
 31
0.0
210
0.0
220
0.0
230
1.0
 73
     3
  0
TEXT
  8
1
  6
CONTINUOUS
 62
     7
  5
499
 10
207.317917
 20
140.413833
 30
0.0
 40
2.52
  1
 1/2 "
 50
35.000567
  7
MONOTXT
 11
205.872484
 21
142.478082
 31
0.0
210
0.0
220
0.0
230
1.0
 73
     3
  0
TEXT
  8
1
  6
CONTINUOUS
 62
     7
  5
49A
 10
216.977917
 20
125.333833
 30
0.0
 40
2.52
  1
4 1/2 "
 50
304.99985
  7
MONOTXT
 11
219.042184
 21
126.779241
 31
0.0
210
0.0
220
0.0
230
1.0
 73
     3
  0
TEXT
  8
1
  6
CONTINUOUS
 62
     7
  5
49B
 10
226.717917
 20
138.093833
 30
0.0
 40
3.024
  1
PART "B"
 50
304.999967
  7
MONOTXT
 11
229.195033
 21
139.828327
 31
0.0
210
0.0
220
0.0
230
1.0
 73
     3
  0
TEXT
  8
1
  6
CONTINUOUS
 62
     7
  5
49C
 10
282.817917
 20
103.913833
 30
0.0
 40
3.024
  1
PART "A"
  7
MONOTXT
 11
282.817917
 21
106.937833
 31
0.0
210
0.0
220
0.0
230
1.0
 73
     3
  0
TEXT
  8
1
  6
CONTINUOUS
 62
     7
  5
49D
 10
261.357917
 20
49.913833
 30
0.0
 40
3.024
  1
 23/32 
  7
MONOTXT
210
0.0
220
0.0
230
1.0
  0
TEXT
  8
1
  6
CONTINUOUS
 62
     7
  5
49E
 10
261.377917
 20
77.113833
 30
0.0
 40
3.528
  1
 41/64 
  7
MONOTXT
210
0.0
220
0.0
230
1.0
  0
TEXT
  8
1
  6
CONTINUOUS
 62
     7
  5
49F
 10
251.986833
 20
26.944917
 30
0.0
 40
3.528
  1
ENCLOSURE MOUNTING BRACKET
  7
MONOTXT
210
0.0
220
0.0
230
1.0
  0
TEXT
  8
1
  6
CONTINUOUS
 62
     7
  5
4A0
 10
206.358417
 20
13.134833
 30
0.0
 40
2.5
  1
THE ENCLOSURE MOUNTING BRACKET MAY BE FABRICATED FROM EITHER GALVANIZED
  7
MONOTXT
 11
206.358417
 21
15.634833
 31
0.0
210
0.0
220
0.0
230
1.0
 73
     3
  0
TEXT
  8
1
  6
CONTINUOUS
 62
     7
  5
4A1
 10
206.358417
 20
8.634833
 30
0.0
 40
2.5
  1
STEEL OR ALUMINUM. THE BRACKET SHALL BE FIELD MOUNTED WITH  5/16 " HEX HEAD
  7
MONOTXT
 11
206.358417
 21
11.134833
 31
0.0
210
0.0
220
0.0
230
1.0
 73
     3
  0
TEXT
  8
1
  6
CONTINUOUS
 62
     7
  5
4A2
 10
206.358417
 20
4.134833
 30
0.0
 40
2.5
  1
SCREWS (SELF-TAPPING FOR ATTACHING TO STEEL OR ALUM.). STEEL NUTS, BOLTS,
  7
MONOTXT
 11
206.358417
 21
6.634833
 31
0.0
210
0.0
220
0.0
230
1.0
 73
     3
  0
TEXT
  8
1
  6
CONTINUOUS
 62
     7
  5
4A3
 10
206.358417
 20
-0.365167
 30
0.0
 40
2.5
  1
AND SCREWS SHALL BE CADMIUM PLATED. ALUMINUM NUTS, BOLTS, AND SCREWS SHALL
  7
MONOTXT
 11
206.358417
 21
2.134833
 31
0.0
210
0.0
220
0.0
230
1.0
 73
     3
  0
TEXT
  8
1
  6
CONTINUOUS
 62
     7
  5
4A4
 10
206.358417
 20
-4.865167
 30
0.0
 40
2.5
  1
HAVE AN ANODIC COATING AT LEAST 0.0002 INCH IN THICKNESS AND SHALL BE
  7
MONOTXT
 11
206.358417
 21
-2.365167
 31
0.0
210
0.0
220
0.0
230
1.0
 73
     3
  0
TEXT
  8
1
  6
CONTINUOUS
 62
     7
  5
4A5
 10
206.358417
 20
-9.365167
 30
0.0
 40
2.5
  1
CHROMATE SEALED.
  7
MONOTXT
 11
206.358417
 21
-6.865167
 31
0.0
210
0.0
220
0.0
230
1.0
 73
     3
  0
CIRCLE
  8
1
  6
CONTINUOUS
 62
   253
  5
4A6
 10
102.946167
 20
151.408167
 30
0.0
 40
0.337655
210
0.0
220
0.0
230
1.0
  0
POLYLINE
  8
1
  6
CONTINUOUS
 62
     7
  5
4A7
 66
     1
 10
0.0
 20
0.0
 30
0.0
  0
VERTEX
  8
1
  6
CONTINUOUS
 62
     7
  5
4A8
 10
102.324833
 20
155.980167
 30
0.0
  0
VERTEX
  8
1
  6
CONTINUOUS
 62
     7
  5
4A9
 10
103.305
 20
156.98
 30
0.0
  0
VERTEX
  8
1
  6
CONTINUOUS
 62
     7
  5
4AA
 10
103.310922
 20
156.983768
 30
0.0
  0
VERTEX
  8
1
  6
CONTINUOUS
 62
     7
  5
4AB
 10
103.314981
 20
156.98409
 30
0.0
  0
VERTEX
  8
1
  6
CONTINUOUS
 62
     7
  5
4AC
 10
103.317704
 20
156.983423
 30
0.0
  0
VERTEX
  8
1
  6
CONTINUOUS
 62
     7
  5
4AD
 10
103.323119
 20
156.980183
 30
0.0
  0
VERTEX
  8
1
  6
CONTINUOUS
 62
     7
  5
4AE
 10
103.327087
 20
156.976268
 30
0.0
  0
VERTEX
  8
1
  6
CONTINUOUS
 62
     7
  5
4AF
 10
103.33455
 20
156.965299
 30
0.0
  0
VERTEX
  8
1
  6
CONTINUOUS
 62
     7
  5
4B0
 10
103.338998
 20
156.956165
 30
0.0
  0
VERTEX
  8
1
  6
CONTINUOUS
 62
     7
  5
4B1
 10
103.346042
 20
156.935197
 30
0.0
  0
VERTEX
  8
1
  6
CONTINUOUS
 62
     7
  5
4B2
 10
103.349192
 20
156.918574
 30
0.0
  0
VERTEX
  8
1
  6
CONTINUOUS
 62
     7
  5
4B3
 10
103.350028
 20
156.902575
 30
0.0
  0
VERTEX
  8
1
  6
CONTINUOUS
 62
     7
  5
4B4
 10
103.34944
 20
156.895202
 30
0.0
  0
VERTEX
  8
1
  6
CONTINUOUS
 62
     7
  5
4B5
 10
103.347147
 20
156.885367
 30
0.0
  0
VERTEX
  8
1
  6
CONTINUOUS
 62
     7
  5
4B6
 10
103.342997
 20
156.877472
 30
0.0
  0
VERTEX
  8
1
  6
CONTINUOUS
 62
     7
  5
4B7
 10
103.340167
 20
156.874417
 30
0.0
  0
VERTEX
  8
1
  6
CONTINUOUS
 62
     7
  5
4B8
 10
102.324833
 20
155.980167
 30
0.0
  0
SEQEND
  8
1
  6
CONTINUOUS
 62
     7
  5
4B9
  0
TEXT
  8
1
  6
CONTINUOUS
 62
     7
  5
4BA
 10
165.022917
 20
227.506833
 30
0.0
 40
6.0
  1
*
  7
MONOTXT
 72
     4
 11
166.180417
 21
230.506833
 31
0.0
210
0.0
220
0.0
230
1.0
  0
LINE
  8
1
  6
CONTINUOUS
 62
   212
  5
4BB
 10
470.502333
 20
198.491667
 30
0.0
 11
469.002333
 21
198.491667
 31
0.0
  0
LINE
  8
1
  6
CONTINUOUS
 62
   212
  5
4BC
 10
470.502333
 20
179.991667
 30
0.0
 11
469.002333
 21
179.991667
 31
0.0
  0
POLYLINE
  8
1
  6
CONTINUOUS
 62
     7
  5
4BD
 66
     1
 10
0.0
 20
0.0
 30
0.0
 70
     1
  0
VERTEX
  8
1
  6
CONTINUOUS
 62
     7
  5
4BE
 10
470.502333
 20
179.991667
 30
0.0
  0
VERTEX
  8
1
  6
CONTINUOUS
 62
     7
  5
4BF
 10
470.502333
 20
198.491667
 30
0.0
  0
VERTEX
  8
1
  6
CONTINUOUS
 62
     7
  5
4C0
 10
472.627333
 20
198.491667
 30
0.0
  0
VERTEX
  8
1
  6
CONTINUOUS
 62
     7
  5
4C1
 10
472.627333
 20
179.991667
 30
0.0
  0
VERTEX
  8
1
  6
CONTINUOUS
 62
     7
  5
4C2
 10
470.502333
 20
179.991667
 30
0.0
  0
SEQEND
  8
1
  6
CONTINUOUS
 62
     7
  5
4C3
  0
LINE
  8
1
  6
CONTINUOUS
 62
     7
  5
4C4
 10
470.502333
 20
198.457917
 30
0.0
 11
470.536083
 21
198.491667
 31
0.0
  0
LINE
  8
1
  6
CONTINUOUS
 62
     7
  5
4C5
 10
470.502333
 20
197.043667
 30
0.0
 11
471.950333
 21
198.491667
 31
0.0
  0
LINE
  8
1
  6
CONTINUOUS
 62
     7
  5
4C6
 10
470.502333
 20
195.6295
 30
0.0
 11
472.627333
 21
197.7545
 31
0.0
  0
LINE
  8
1
  6
CONTINUOUS
 62
     7
  5
4C7
 10
470.502333
 20
194.21525
 30
0.0
 11
472.627333
 21
196.34025
 31
0.0
  0
LINE
  8
1
  6
CONTINUOUS
 62
     7
  5
4C8
 10
470.502333
 20
192.801
 30
0.0
 11
472.627333
 21
194.926
 31
0.0
  0
LINE
  8
1
  6
CONTINUOUS
 62
     7
  5
4C9
 10
470.502333
 20
191.386833
 30
0.0
 11
472.627333
 21
193.511833
 31
0.0
  0
LINE
  8
1
  6
CONTINUOUS
 62
     7
  5
4CA
 10
470.502333
 20
189.972583
 30
0.0
 11
472.627333
 21
192.097583
 31
0.0
  0
LINE
  8
1
  6
CONTINUOUS
 62
     7
  5
4CB
 10
470.502333
 20
188.558417
 30
0.0
 11
472.627333
 21
190.683417
 31
0.0
  0
LINE
  8
1
  6
CONTINUOUS
 62
     7
  5
4CC
 10
470.502333
 20
187.144167
 30
0.0
 11
472.627333
 21
189.269167
 31
0.0
  0
LINE
  8
1
  6
CONTINUOUS
 62
     7
  5
4CD
 10
470.502333
 20
185.73
 30
0.0
 11
472.627333
 21
187.855
 31
0.0
  0
LINE
  8
1
  6
CONTINUOUS
 62
     7
  5
4CE
 10
470.502333
 20
184.31575
 30
0.0
 11
472.627333
 21
186.44075
 31
0.0
  0
LINE
  8
1
  6
CONTINUOUS
 62
     7
  5
4CF
 10
470.502333
 20
182.9015
 30
0.0
 11
472.627333
 21
185.0265
 31
0.0
  0
LINE
  8
1
  6
CONTINUOUS
 62
     7
  5
4D0
 10
470.502333
 20
181.487333
 30
0.0
 11
472.627333
 21
183.612333
 31
0.0
  0
LINE
  8
1
  6
CONTINUOUS
 62
     7
  5
4D1
 10
470.502333
 20
180.073083
 30
0.0
 11
472.627333
 21
182.198083
 31
0.0
  0
LINE
  8
1
  6
CONTINUOUS
 62
     7
  5
4D2
 10
471.835083
 20
179.991667
 30
0.0
 11
472.627333
 21
180.783917
 31
0.0
  0
CIRCLE
  8
1
  6
CONTINUOUS
 62
   253
  5
4D3
 10
84.074833
 20
170.980167
 30
0.0
 40
0.485374
210
0.0
220
0.0
230
1.0
  0
CIRCLE
  8
1
  6
CONTINUOUS
 62
   253
  5
4D4
 10
91.574833
 20
166.480167
 30
0.0
 40
0.485374
210
0.0
220
0.0
230
1.0
  0
CIRCLE
  8
1
  6
CONTINUOUS
 62
   253
  5
4D5
 10
91.574833
 20
154.480167
 30
0.0
 40
0.485374
210
0.0
220
0.0
230
1.0
  0
CIRCLE
  8
1
  6
CONTINUOUS
 62
   253
  5
4D6
 10
102.324833
 20
155.980167
 30
0.0
 40
0.485374
210
0.0
220
0.0
230
1.0
  0
CIRCLE
  8
1
  6
CONTINUOUS
 62
   253
  5
4D7
 10
100.324833
 20
155.980167
 30
0.0
 40
0.485374
210
0.0
220
0.0
230
1.0
  0
CIRCLE
  8
1
  6
CONTINUOUS
 62
   253
  5
4D8
 10
104.824833
 20
155.980167
 30
0.0
 40
0.485374
210
0.0
220
0.0
230
1.0
  0
CIRCLE
  8
1
  6
CONTINUOUS
 62
   253
  5
4D9
 10
102.946167
 20
151.408167
 30
0.0
 40
0.485374
210
0.0
220
0.0
230
1.0
  0
CIRCLE
  8
1
  6
CONTINUOUS
 62
   253
  5
4DA
 10
74.324833
 20
153.230167
 30
0.0
 40
0.485374
210
0.0
220
0.0
230
1.0
  0
CIRCLE
  8
1
  6
CONTINUOUS
 62
   253
  5
4DB
 10
74.324833
 20
150.730167
 30
0.0
 40
0.485374
210
0.0
220
0.0
230
1.0
  0
CIRCLE
  8
1
  6
CONTINUOUS
 62
   253
  5
4DC
 10
74.324833
 20
147.730167
 30
0.0
 40
0.485374
210
0.0
220
0.0
230
1.0
  0
CIRCLE
  8
1
  6
CONTINUOUS
 62
   253
  5
4DD
 10
74.324833
 20
144.730167
 30
0.0
 40
0.485374
210
0.0
220
0.0
230
1.0
  0
CIRCLE
  8
1
  6
CONTINUOUS
 62
   253
  5
4DE
 10
74.324833
 20
142.230167
 30
0.0
 40
0.485374
210
0.0
220
0.0
230
1.0
  0
CIRCLE
  8
1
  6
CONTINUOUS
 62
   253
  5
4DF
 10
89.824833
 20
131.980167
 30
0.0
 40
0.485374
210
0.0
220
0.0
230
1.0
  0
CIRCLE
  8
1
  6
CONTINUOUS
 62
   253
  5
4E0
 10
91.574833
 20
131.980167
 30
0.0
 40
0.485374
210
0.0
220
0.0
230
1.0
  0
CIRCLE
  8
1
  6
CONTINUOUS
 62
   253
  5
4E1
 10
98.324833
 20
122.980167
 30
0.0
 40
0.485374
210
0.0
220
0.0
230
1.0
  0
CIRCLE
  8
1
  6
CONTINUOUS
 62
   253
  5
4E2
 10
100.824833
 20
122.980167
 30
0.0
 40
0.485374
210
0.0
220
0.0
230
1.0
  0
CIRCLE
  8
1
  6
CONTINUOUS
 62
   253
  5
4E3
 10
102.824833
 20
122.980167
 30
0.0
 40
0.485374
210
0.0
220
0.0
230
1.0
  0
CIRCLE
  8
1
  6
CONTINUOUS
 62
   253
  5
4E4
 10
89.574833
 20
115.480167
 30
0.0
 40
0.485374
210
0.0
220
0.0
230
1.0
  0
CIRCLE
  8
1
  6
CONTINUOUS
 62
   253
  5
4E5
 10
92.074833
 20
115.480167
 30
0.0
 40
0.485374
210
0.0
220
0.0
230
1.0
  0
CIRCLE
  8
1
  6
CONTINUOUS
 62
   253
  5
4E6
 10
98.324833
 20
120.980167
 30
0.0
 40
0.485374
210
0.0
220
0.0
230
1.0
  0
CIRCLE
  8
1
  6
CONTINUOUS
 62
   253
  5
4E7
 10
100.824833
 20
120.980167
 30
0.0
 40
0.485374
210
0.0
220
0.0
230
1.0
  0
CIRCLE
  8
1
  6
CONTINUOUS
 62
   253
  5
4E8
 10
102.824833
 20
120.980167
 30
0.0
 40
0.485374
210
0.0
220
0.0
230
1.0
  0
CIRCLE
  8
1
  6
CONTINUOUS
 62
   253
  5
4E9
 10
96.111417
 20
75.636833
 30
0.0
 40
0.485374
210
0.0
220
0.0
230
1.0
  0
CIRCLE
  8
1
  6
CONTINUOUS
 62
   253
  5
4EA
 10
92.353417
 20
75.77225
 30
0.0
 40
0.485374
210
0.0
220
0.0
230
1.0
  0
CIRCLE
  8
1
  6
CONTINUOUS
 62
   253
  5
4EB
 10
92.18775
 20
72.885667
 30
0.0
 40
0.485374
210
0.0
220
0.0
230
1.0
  0
TEXT
  8
1
  6
CONTINUOUS
 62
     7
  5
4EC
 10
-20.303917
 20
52.226917
 30
0.0
 40
4.0
  1
120 OR 240 VOLT DISTRIBUTION ENCLOSURE
  7
MONOTXT
 72
     4
 11
50.2
 21
54.226917
 31
0.0
210
0.0
220
0.0
230
1.0
  0
TEXT
  8
1
  6
CONTINUOUS
 62
     7
  5
4ED
 10
26.18425
 20
45.226917
 30
0.0
 40
4.0
  1
WIRING DIAGRAM
  7
MONOTXT
 72
     4
 11
50.199917
 21
47.226917
 31
0.0
210
0.0
220
0.0
230
1.0
  0
TEXT
  8
1
  6
CONTINUOUS
 62
     7
  5
4EE
 10
525.200583
 20
183.743417
 30
0.0
 40
2.5
  1
POLE WALL, FIELD DRILLED
  7
MONOTXT
 11
525.200583
 21
186.243417
 31
0.0
210
0.0
220
0.0
230
1.0
 73
     3
  0
TEXT
  8
1
  6
CONTINUOUS
 62
     7
  5
4EF
 10
525.200583
 20
179.243417
 30
0.0
 40
2.5
  1
& TAPPED USE THREAD
  7
MONOTXT
 11
525.200583
 21
181.743417
 31
0.0
210
0.0
220
0.0
230
1.0
 73
     3
  0
TEXT
  8
1
  6
CONTINUOUS
 62
     7
  5
4F0
 10
525.200583
 20
174.743417
 30
0.0
 40
2.5
  1
DOPE BEFORE INSERTING
  7
MONOTXT
 11
525.200583
 21
177.243417
 31
0.0
210
0.0
220
0.0
230
1.0
 73
     3
  0
TEXT
  8
1
  6
CONTINUOUS
 62
     7
  5
4F1
 10
525.200583
 20
170.243417
 30
0.0
 40
2.5
  1
NIPPLE
  7
MONOTXT
 11
525.200583
 21
172.743417
 31
0.0
210
0.0
220
0.0
230
1.0
 73
     3
  0
TEXT
  8
1
  6
CONTINUOUS
 62
     7
  5
4F2
 10
191.90675
 20
91.4345
 30
0.0
 40
2.52
  1
 5/8 " x 2 1/2 " HEX. HEAD
  7
MONOTXT
210
0.0
220
0.0
230
1.0
  0
TEXT
  8
1
  6
CONTINUOUS
 62
     7
  5
4F3
 10
191.90675
 20
86.9145
 30
0.0
 40
2.52
  1
MACHINE BOLT
  7
MONOTXT
210
0.0
220
0.0
230
1.0
  0
TEXT
  8
1
  6
CONTINUOUS
 62
     7
  5
4F4
 10
370.987667
 20
347.770917
 30
0.0
 40
2.5
  1
REMOTE BALLAST ENCLOSURE:
  7
MONOTXT
 11
370.987667
 21
350.270917
 31
0.0
210
0.0
220
0.0
230
1.0
 73
     3
  0
TEXT
  8
1
  6
CONTINUOUS
 62
     7
  5
4F5
 10
370.987667
 20
343.270917
 30
0.0
 40
2.5
  1
 
  7
MONOTXT
 11
370.987667
 21
345.770917
 31
0.0
210
0.0
220
0.0
230
1.0
 73
     3
  0
TEXT
  8
1
  6
CONTINUOUS
 62
     7
  5
4F6
 10
370.987667
 20
338.770917
 30
0.0
 40
2.5
  1
THIS SHALL BE NEMA 3R OF MINIMUM OUTSIDE DIMENSIONS OF 26" x 17" AND MUST MEET REQUIREMENTS
  7
MONOTXT
 11
370.987667
 21
341.270917
 31
0.0
210
0.0
220
0.0
230
1.0
 73
     3
  0
TEXT
  8
1
  6
CONTINUOUS
 62
     7
  5
4F7
 10
370.987667
 20
334.270917
 30
0.0
 40
2.5
  1
OF POLE MOUNTED DETECTOR AND FLASHER UNIT CABINETS WITH EXCEPTION TO SIZE. SEE STANDARD
  7
MONOTXT
 11
370.987667
 21
336.770917
 31
0.0
210
0.0
220
0.0
230
1.0
 73
     3
  0
TEXT
  8
1
  6
CONTINUOUS
 62
     7
  5
4F8
 10
370.987667
 20
329.770917
 30
0.0
 40
2.5
  1
SPECIFICATIONS SECTION 715.42.8. MOUNT APPROXIMATELY SIX (6) INCHES ABOVE DISTRIBUTION ENCLOSURE.
  7
MONOTXT
 11
370.987667
 21
332.270917
 31
0.0
210
0.0
220
0.0
230
1.0
 73
     3
  0
TEXT
  8
1
  6
CONTINUOUS
 62
     7
  5
4F9
 10
370.987667
 20
325.270917
 30
0.0
 40
2.5
  1
 
  7
MONOTXT
 11
370.987667
 21
327.770917
 31
0.0
210
0.0
220
0.0
230
1.0
 73
     3
  0
TEXT
  8
1
  6
CONTINUOUS
 62
     7
  5
4FA
 10
370.987667
 20
320.770917
 30
0.0
 40
2.5
  1
EACH SIGN LIGHTING FIXTURE MUST BE ON A SEPARATELY WIRED CIRCUIT FROM THE REMOTE BALLAST
  7
MONOTXT
 11
370.987667
 21
323.270917
 31
0.0
210
0.0
220
0.0
230
1.0
 73
     3
  0
TEXT
  8
1
  6
CONTINUOUS
 62
     7
  5
4FB
 10
370.987667
 20
316.270917
 30
0.0
 40
2.5
  1
ASSEMBLY. A MINIMUM OF EIGHT (8) FUSED TERMINALS MUST BE PROVIDED ON THE REMOTE BALLAST BACK
  7
MONOTXT
 11
370.987667
 21
318.770917
 31
0.0
210
0.0
220
0.0
230
1.0
 73
     3
  0
TEXT
  8
1
  6
CONTINUOUS
 62
     7
  5
4FC
 10
370.987667
 20
311.770917
 30
0.0
 40
2.5
  1
PANEL FOR FUSING THE LINE SIDE OF EACH BALLAST. NO FUSING IS TO BE INSTALLED IN THE SIGN LIGHT-
  7
MONOTXT
 11
370.987667
 21
314.270917
 31
0.0
210
0.0
220
0.0
230
1.0
 73
     3
  0
TEXT
  8
1
  6
CONTINUOUS
 62
     7
  5
4FD
 10
370.987667
 20
307.270917
 30
0.0
 40
2.5
  1
ING FIXTURE BETWEEN THE FIXTURE AND THE BALLAST ASSEMBLY.
  7
MONOTXT
 11
370.987667
 21
309.770917
 31
0.0
210
0.0
220
0.0
230
1.0
 73
     3
  0
TEXT
  8
1
  6
CONTINUOUS
 62
     7
  5
4FE
 10
371.410583
 20
299.750667
 30
0.0
 40
2.5
  1
DISTRIBUTION ENCLOSURE:
  7
MONOTXT
 11
371.410583
 21
302.250667
 31
0.0
210
0.0
220
0.0
230
1.0
 73
     3
  0
TEXT
  8
1
  6
CONTINUOUS
 62
     7
  5
4FF
 10
371.410583
 20
295.250667
 30
0.0
 40
2.5
  1
 
  7
MONOTXT
 11
371.410583
 21
297.750667
 31
0.0
210
0.0
220
0.0
230
1.0
 73
     3
  0
TEXT
  8
1
  6
CONTINUOUS
 62
     7
  5
500
 10
371.410583
 20
290.750667
 30
0.0
 40
2.5
  1
THE ENCLOSURE SHALL BE NEMA  4 WATERTIGHT .074 MIN. GAUGE STAINLESS STEEL AISI 302-303. A DIS-
  7
MONOTXT
 11
371.410583
 21
293.250667
 31
0.0
210
0.0
220
0.0
230
1.0
 73
     3
  0
TEXT
  8
1
  6
CONTINUOUS
 62
     7
  5
501
 10
371.410583
 20
286.250667
 30
0.0
 40
2.5
  1
CONNECT HANDLE SHALL BE FLANGE MOUNTED AND CAPABLE OF BEING LOCKED IN EITHER POSITION. THE
  7
MONOTXT
 11
371.410583
 21
288.750667
 31
0.0
210
0.0
220
0.0
230
1.0
 73
     3
  0
TEXT
  8
1
  6
CONTINUOUS
 62
     7
  5
502
 10
371.410583
 20
281.750667
 30
0.0
 40
2.5
  1
ENCLOSURE SHALL BE EQUIPPED WITH A DOOR LOCKING MECHANISM WITH A DEFEATER THAT NECESSITATES
  7
MONOTXT
 11
371.410583
 21
284.250667
 31
0.0
210
0.0
220
0.0
230
1.0
 73
     3
  0
TEXT
  8
1
  6
CONTINUOUS
 62
     7
  5
503
 10
371.410583
 20
277.250667
 30
0.0
 40
2.5
  1
TWO HANDS TO OPERATE MECHANISM WITH THE SWITCH IN OFF POSITION. SPACE FOR AN INSULATED CHASE
  7
MONOTXT
 11
371.410583
 21
279.750667
 31
0.0
210
0.0
220
0.0
230
1.0
 73
     3
  0
TEXT
  8
1
  6
CONTINUOUS
 62
     7
  5
504
 10
371.410583
 20
272.750667
 30
0.0
 40
2.5
  1
NIPPLE SHALL BE PROVIDED APPROXIMATELY 2 1/4 " ABOVE THE CENTER LINE OF THE LOWER MOUNTING SLOT.
  7
MONOTXT
 11
371.410583
 21
275.250667
 31
0.0
210
0.0
220
0.0
230
1.0
 73
     3
  0
TEXT
  8
1
  6
CONTINUOUS
 62
     7
  5
505
 10
371.410583
 20
268.250667
 30
0.0
 40
2.5
  1
THIS ENCLOSURE AND STRUCTURE SHALL BE SHOP DRILLED AND TAPPED FOR THE REQUIRED NIPPLE AS
  7
MONOTXT
 11
371.410583
 21
270.750667
 31
0.0
210
0.0
220
0.0
230
1.0
 73
     3
  0
TEXT
  8
1
  6
CONTINUOUS
 62
     7
  5
506
 10
371.410583
 20
263.750667
 30
0.0
 40
2.5
  1
SHOWN ON THE DETAIL ON THIS SHEET. THIS ENCLOSURE SHALL BE FLANGE MOUNTED ON BRACKETS
  7
MONOTXT
 11
371.410583
 21
266.250667
 31
0.0
210
0.0
220
0.0
230
1.0
 73
     3
  0
TEXT
  8
1
  6
CONTINUOUS
 62
     7
  5
507
 10
371.410583
 20
259.250667
 30
0.0
 40
2.5
  1
WHICH ARE ATTACHED TO POLE AS SHOWN ON THIS SHEET ON THE MOUNTING BRACKET DETAIL. 
  7
MONOTXT
 11
371.410583
 21
261.750667
 31
0.0
210
0.0
220
0.0
230
1.0
 73
     3
  0
LINE
  8
1
  6
CONTINUOUS
 62
     7
  5
508
 10
369.595167
 20
346.43025
 30
0.0
 11
431.094
 21
346.43025
 31
0.0
  0
LINE
  8
1
  6
CONTINUOUS
 62
     7
  5
509
 10
369.595167
 20
298.43925
 30
0.0
 11
422.925083
 21
298.43925
 31
0.0
  0
TEXT
  8
1
  6
CONTINUOUS
 62
     7
  5
50A
 10
351.175667
 20
356.944833
 30
0.0
 40
2.5
  1
CHASE
  7
MONOTXT
 11
351.175667
 21
359.444833
 31
0.0
210
0.0
220
0.0
230
1.0
 73
     3
  0
TEXT
  8
1
  6
CONTINUOUS
 62
     7
  5
50B
 10
351.175667
 20
352.444833
 30
0.0
 40
2.5
  1
NIPPLE
  7
MONOTXT
 11
351.175667
 21
354.944833
 31
0.0
210
0.0
220
0.0
230
1.0
 73
     3
  0
TEXT
  8
1
  6
CONTINUOUS
 62
     7
  5
50C
 10
351.175667
 20
347.944833
 30
0.0
 40
2.5
  1
(TYP.)
  7
MONOTXT
 11
351.175667
 21
350.444833
 31
0.0
210
0.0
220
0.0
230
1.0
 73
     3
  0
LINE
  8
1
  6
CONTINUOUS
 62
     7
  5
50D
 10
328.305
 20
344.778333
 30
0.0
 11
350.13175
 21
358.027667
 31
0.0
  0
INSERT
  8
1
  6
CONTINUOUS
 62
     1
  5
50E
  2
LDR
 10
328.305
 20
344.778333
 30
0.0
 41
240.000001
 42
240.000001
 50
211.258703
210
0.0
220
0.0
230
1.0
  0
LINE
  8
1
  6
CONTINUOUS
 62
   132
  5
50F
 10
233.49925
 20
317.028333
 30
0.0
 11
265.49925
 21
317.028333
 31
0.0
  0
LINE
  8
1
  6
CONTINUOUS
 62
   132
  5
510
 10
233.49925
 20
357.028333
 30
0.0
 11
265.49925
 21
357.028333
 31
0.0
  0
LINE
  8
1
  6
CONTINUOUS
 62
     3
  5
511
 10
233.49925
 20
357.028333
 30
0.0
 11
233.49925
 21
317.028333
 31
0.0
  0
LINE
  8
1
  6
CONTINUOUS
 62
     3
  5
512
 10
265.49925
 20
357.028333
 30
0.0
 11
265.49925
 21
317.028333
 31
0.0
  0
LINE
  8
1
  6
DASHED
 62
     3
  5
513
 10
239.49925
 20
317.028333
 30
0.0
 11
239.49925
 21
357.028333
 31
0.0
  0
LINE
  8
1
  6
DASHED
 62
     3
  5
514
 10
259.49925
 20
317.028333
 30
0.0
 11
259.49925
 21
357.028333
 31
0.0
  0
LINE
  8
1
  6
CONTINUOUS
 62
     3
  5
515
 10
239.49925
 20
357.028333
 30
0.0
 11
239.49925
 21
366.028333
 31
0.0
  0
LINE
  8
1
  6
CONTINUOUS
 62
     3
  5
516
 10
259.49925
 20
357.028333
 30
0.0
 11
259.49925
 21
366.028333
 31
0.0
  0
ARC
  8
1
  6
CONTINUOUS
 62
   132
  5
517
 10
244.49925
 20
364.632885
 30
0.0
 40
5.191077
 50
15.593869
 51
164.406128
210
0.0
220
0.0
230
1.0
  0
ARC
  8
1
  6
CONTINUOUS
 62
   132
  5
518
 10
254.49925
 20
364.632885
 30
0.0
 40
5.191077
 50
15.593869
 51
152.865964
210
0.0
220
0.0
230
1.0
  0
POLYLINE
  8
1
  6
CONTINUOUS
 62
   132
  5
519
 66
     1
 10
0.0
 20
0.0
 30
0.0
  0
VERTEX
  8
1
  6
CONTINUOUS
 62
   132
  5
51A
 10
249.49925
 20
366.028333
 30
0.0
 42
0.680339
  0
VERTEX
  8
1
  6
CONTINUOUS
 62
   132
  5
51B
 10
259.104203
 20
365.027601
 30
0.0
  0
VERTEX
  8
1
  6
CONTINUOUS
 62
   132
  5
51C
 10
259.087583
 20
365.090083
 30
0.0
 42
0.613196
  0
VERTEX
  8
1
  6
CONTINUOUS
 62
   132
  5
51D
 10
249.879493
 20
367.000398
 30
0.0
  0
VERTEX
  8
1
  6
CONTINUOUS
 62
   132
  5
51E
 10
249.866612
 20
366.975093
 30
0.0
 42
0.049025
  0
VERTEX
  8
1
  6
CONTINUOUS
 62
   132
  5
51F
 10
249.49925
 20
366.028334
 30
0.0
  0
SEQEND
  8
1
  6
CONTINUOUS
 62
   132
  5
520
  0
LINE
  8
1
  6
CONTINUOUS
 62
   132
  5
521
 10
258.92525
 20
365.567583
 30
0.0
 11
255.866167
 21
368.626667
 31
0.0
  0
LINE
  8
1
  6
CONTINUOUS
 62
   132
  5
522
 10
258.700333
 20
364.37825
 30
0.0
 11
254.111167
 21
368.967417
 31
0.0
  0
LINE
  8
1
  6
CONTINUOUS
 62
   132
  5
523
 10
258.03125
 20
363.633167
 30
0.0
 11
252.827333
 21
368.837083
 31
0.0
  0
LINE
  8
1
  6
CONTINUOUS
 62
   132
  5
524
 10
257.235083
 20
363.015083
 30
0.0
 11
251.770167
 21
368.48
 31
0.0
  0
LINE
  8
1
  6
CONTINUOUS
 62
   132
  5
525
 10
256.27975
 20
362.55625
 30
0.0
 11
250.884083
 21
367.951917
 31
0.0
  0
LINE
  8
1
  6
CONTINUOUS
 62
   132
  5
526
 10
255.139417
 20
362.282333
 30
0.0
 11
250.135
 21
367.28675
 31
0.0
  0
LINE
  8
1
  6
CONTINUOUS
 62
   132
  5
527
 10
253.707
 20
362.300583
 30
0.0
 11
249.615833
 21
366.39175
 31
0.0
  0
POLYLINE
  8
1
  6
CONTINUOUS
 62
     3
  5
528
 66
     1
 10
0.0
 20
0.0
 30
0.0
 70
     1
210
0.0
220
0.0
230
1.0
  0
VERTEX
  8
1
  6
CONTINUOUS
 62
     3
  5
529
 10
257.16925
 20
360.173333
 30
0.0
 42
0.206195
  0
VERTEX
  8
1
  6
CONTINUOUS
 62
     3
  5
52A
 10
257.019963
 20
360.463708
 30
0.0
 42
0.082986
  0
VERTEX
  8
1
  6
CONTINUOUS
 62
     3
  5
52B
 10
256.573488
 20
360.745201
 30
0.0
 42
0.03798
  0
VERTEX
  8
1
  6
CONTINUOUS
 62
     3
  5
52C
 10
255.846984
 20
361.006997
 30
0.0
 42
0.022122
  0
VERTEX
  8
1
  6
CONTINUOUS
 62
     3
  5
52D
 10
254.868368
 20
361.239035
 30
0.0
 42
0.015224
  0
VERTEX
  8
1
  6
CONTINUOUS
 62
     3
  5
52E
 10
253.675249
 20
361.432396
 30
0.0
 42
0.011817
  0
VERTEX
  8
1
  6
CONTINUOUS
 62
     3
  5
52F
 10
252.313478
 20
361.579651
 30
0.0
 42
0.010089
  0
VERTEX
  8
1
  6
CONTINUOUS
 62
     3
  5
530
 10
250.835386
 20
361.67514
 30
0.0
 42
0.009349
  0
VERTEX
  8
1
  6
CONTINUOUS
 62
     3
  5
531
 10
249.297777
 20
361.715195
 30
0.0
 42
0.009349
  0
VERTEX
  8
1
  6
CONTINUOUS
 62
     3
  5
532
 10
247.759739
 20
361.698275
 30
0.0
 42
0.010089
  0
VERTEX
  8
1
  6
CONTINUOUS
 62
     3
  5
533
 10
246.280378
 20
361.625031
 30
0.0
 42
0.011817
  0
VERTEX
  8
1
  6
CONTINUOUS
 62
     3
  5
534
 10
244.916545
 20
361.498277
 30
0.0
 42
0.015224
  0
VERTEX
  8
1
  6
CONTINUOUS
 62
     3
  5
535
 10
243.720653
 20
361.322886
 30
0.0
 42
0.022122
  0
VERTEX
  8
1
  6
CONTINUOUS
 62
     3
  5
536
 10
242.738657
 20
361.105596
 30
0.0
 42
0.03798
  0
VERTEX
  8
1
  6
CONTINUOUS
 62
     3
  5
537
 10
242.008297
 20
360.854758
 30
0.0
 42
0.082986
  0
VERTEX
  8
1
  6
CONTINUOUS
 62
     3
  5
538
 10
241.557638
 20
360.580013
 30
0.0
 42
0.206195
  0
VERTEX
  8
1
  6
CONTINUOUS
 62
     3
  5
539
 10
241.404
 20
360.291917
 30
0.0
 42
0.206195
  0
VERTEX
  8
1
  6
CONTINUOUS
 62
     3
  5
53A
 10
241.553287
 20
360.001542
 30
0.0
 42
0.082986
  0
VERTEX
  8
1
  6
CONTINUOUS
 62
     3
  5
53B
 10
241.999762
 20
359.720049
 30
0.0
 42
0.03798
  0
VERTEX
  8
1
  6
CONTINUOUS
 62
     3
  5
53C
 10
242.726266
 20
359.458253
 30
0.0
 42
0.022122
  0
VERTEX
  8
1
  6
CONTINUOUS
 62
     3
  5
53D
 10
243.704882
 20
359.226215
 30
0.0
 42
0.015224
  0
VERTEX
  8
1
  6
CONTINUOUS
 62
     3
  5
53E
 10
244.898001
 20
359.032854
 30
0.0
 42
0.011817
  0
VERTEX
  8
1
  6
CONTINUOUS
 62
     3
  5
53F
 10
246.259772
 20
358.885599
 30
0.0
 42
0.010089
  0
VERTEX
  8
1
  6
CONTINUOUS
 62
     3
  5
540
 10
247.737864
 20
358.79011
 30
0.0
 42
0.009349
  0
VERTEX
  8
1
  6
CONTINUOUS
 62
     3
  5
541
 10
249.275473
 20
358.750055
 30
0.0
 42
0.009349
  0
VERTEX
  8
1
  6
CONTINUOUS
 62
     3
  5
542
 10
250.813511
 20
358.766975
 30
0.0
 42
0.010089
  0
VERTEX
  8
1
  6
CONTINUOUS
 62
     3
  5
543
 10
252.292872
 20
358.840219
 30
0.0
 42
0.011817
  0
VERTEX
  8
1
  6
CONTINUOUS
 62
     3
  5
544
 10
253.656705
 20
358.966973
 30
0.0
 42
0.015224
  0
VERTEX
  8
1
  6
CONTINUOUS
 62
     3
  5
545
 10
254.852597
 20
359.142364
 30
0.0
 42
0.022122
  0
VERTEX
  8
1
  6
CONTINUOUS
 62
     3
  5
546
 10
255.834593
 20
359.359654
 30
0.0
 42
0.03798
  0
VERTEX
  8
1
  6
CONTINUOUS
 62
     3
  5
547
 10
256.564953
 20
359.610492
 30
0.0
 42
0.082986
  0
VERTEX
  8
1
  6
CONTINUOUS
 62
     3
  5
548
 10
257.015612
 20
359.885237
 30
0.0
 42
0.206195
  0
SEQEND
  8
1
  6
CONTINUOUS
 62
     3
  5
549
  0
LINE
  8
1
  6
CONTINUOUS
 62
     3
  5
54A
 10
244.49925
 20
357.028333
 30
0.0
 11
244.49925
 21
359.0895
 31
0.0
  0
LINE
  8
1
  6
CONTINUOUS
 62
     3
  5
54B
 10
254.49925
 20
357.028333
 30
0.0
 11
254.49925
 21
359.082583
 31
0.0
  0
CIRCLE
  8
1
  6
CONTINUOUS
 62
     3
  5
54C
 10
236.4255
 20
337.76275
 30
0.0
 40
1.191574
210
0.0
220
0.0
230
1.0
  0
LINE
  8
1
  6
CONTINUOUS
 62
   132
  5
54D
 10
265.49925
 20
354.028333
 30
0.0
 11
266.49925
 21
354.028333
 31
0.0
  0
LINE
  8
1
  6
CONTINUOUS
 62
   132
  5
54E
 10
265.49925
 20
320.028333
 30
0.0
 11
266.49925
 21
320.028333
 31
0.0
  0
LINE
  8
1
  6
CONTINUOUS
 62
     3
  5
54F
 10
266.49925
 20
354.028333
 30
0.0
 11
266.49925
 21
320.028333
 31
0.0
  0
LINE
  8
1
  6
CONTINUOUS
 62
     7
  5
550
 10
266.49925
 20
317.028333
 30
0.0
 11
275.49925
 21
317.028333
 31
0.0
  0
LINE
  8
1
  6
CONTINUOUS
 62
     7
  5
551
 10
263.49925
 20
306.028333
 30
0.0
 11
275.49925
 21
306.028333
 31
0.0
  0
LINE
  8
1
  6
CONTINUOUS
 62
     7
  5
552
 10
274.49925
 20
317.028333
 30
0.0
 11
274.49925
 21
306.028333
 31
0.0
  0
INSERT
  8
1
  6
CONTINUOUS
 62
     1
  5
553
  2
LDR
 10
274.49925
 20
317.028333
 30
0.0
 41
240.0
 42
240.0
 50
90.0
210
0.0
220
0.0
230
1.0
  0
INSERT
  8
1
  6
CONTINUOUS
 62
     1
  5
554
  2
LDR
 10
274.49925
 20
317.028333
 30
0.0
 41
240.0
 42
240.0
 50
90.0
210
0.0
220
0.0
230
1.0
  0
INSERT
  8
1
  6
CONTINUOUS
 62
     1
  5
555
  2
LDR
 10
274.49925
 20
306.028333
 30
0.0
 41
240.0
 42
240.0
 50
270.0
210
0.0
220
0.0
230
1.0
  0
TEXT
  8
1
  6
CONTINUOUS
 62
     7
  5
556
 10
275.499
 20
310.189417
 30
0.0
 40
2.5
  1
6"
  7
MONOTXT
 72
     4
 11
277.20175
 21
311.439417
 31
0.0
210
0.0
220
0.0
230
1.0
  0
LINE
  8
1
  6
CONTINUOUS
 62
    52
  5
557
 10
-36.697833
 20
215.075833
 30
0.0
 11
27.652333
 21
215.075833
 31
0.0
  0
LINE
  8
1
  6
CONTINUOUS
 62
    52
  5
558
 10
27.652333
 20
215.075833
 30
0.0
 11
27.652333
 21
304.175833
 31
0.0
  0
LINE
  8
1
  6
CONTINUOUS
 62
    52
  5
559
 10
27.652333
 20
304.175833
 30
0.0
 11
-36.697833
 21
304.175833
 31
0.0
  0
LINE
  8
1
  6
CONTINUOUS
 62
    52
  5
55A
 10
-36.697833
 20
304.175833
 30
0.0
 11
-36.697833
 21
215.075833
 31
0.0
  0
LINE
  8
1
  6
CONTINUOUS
 62
    52
  5
55B
 10
53.445417
 20
215.075833
 30
0.0
 11
117.795417
 21
215.075833
 31
0.0
  0
LINE
  8
1
  6
CONTINUOUS
 62
    52
  5
55C
 10
117.795417
 20
215.075833
 30
0.0
 11
117.795417
 21
304.175833
 31
0.0
  0
LINE
  8
1
  6
CONTINUOUS
 62
    52
  5
55D
 10
117.795417
 20
304.175833
 30
0.0
 11
53.445417
 21
304.175833
 31
0.0
  0
LINE
  8
1
  6
CONTINUOUS
 62
    52
  5
55E
 10
53.445417
 20
304.175833
 30
0.0
 11
53.445417
 21
215.075833
 31
0.0
  0
LINE
  8
1
  6
CONTINUOUS
 62
    52
  5
55F
 10
55.095417
 20
302.525833
 30
0.0
 11
55.095417
 21
216.725833
 31
0.0
  0
LINE
  8
1
  6
CONTINUOUS
 62
    52
  5
560
 10
56.745417
 20
300.875833
 30
0.0
 11
56.745417
 21
218.375833
 31
0.0
  0
LINE
  8
1
  6
CONTINUOUS
 62
    52
  5
561
 10
116.145417
 20
302.525833
 30
0.0
 11
55.095417
 21
302.525833
 31
0.0
  0
LINE
  8
1
  6
CONTINUOUS
 62
    52
  5
562
 10
114.495417
 20
300.875833
 30
0.0
 11
56.745417
 21
300.875833
 31
0.0
  0
LINE
  8
1
  6
CONTINUOUS
 62
    52
  5
563
 10
116.145417
 20
216.725833
 30
0.0
 11
116.145417
 21
302.525833
 31
0.0
  0
LINE
  8
1
  6
CONTINUOUS
 62
    52
  5
564
 10
114.495417
 20
218.375833
 30
0.0
 11
114.495417
 21
300.875833
 31
0.0
  0
LINE
  8
1
  6
CONTINUOUS
 62
    52
  5
565
 10
55.095417
 20
216.725833
 30
0.0
 11
116.145417
 21
216.725833
 31
0.0
  0
LINE
  8
1
  6
CONTINUOUS
 62
    52
  5
566
 10
56.745417
 20
218.375833
 30
0.0
 11
114.495417
 21
218.375833
 31
0.0
  0
LINE
  8
1
  6
CONTINUOUS
 62
    52
  5
567
 10
30.127333
 20
299.225833
 30
0.0
 11
27.652333
 21
299.225833
 31
0.0
  0
LINE
  8
1
  6
CONTINUOUS
 62
    52
  5
568
 10
27.652333
 20
220.025833
 30
0.0
 11
30.127333
 21
220.025833
 31
0.0
  0
LINE
  8
1
  6
CONTINUOUS
 62
    52
  5
569
 10
30.127333
 20
299.225833
 30
0.0
 11
30.127333
 21
220.025833
 31
0.0
  0
LINE
  8
1
  6
CONTINUOUS
 62
    52
  5
56A
 10
30.127333
 20
294.275833
 30
0.0
 11
27.652333
 21
294.275833
 31
0.0
  0
LINE
  8
1
  6
CONTINUOUS
 62
    52
  5
56B
 10
30.127333
 20
289.325833
 30
0.0
 11
27.652333
 21
289.325833
 31
0.0
  0
LINE
  8
1
  6
CONTINUOUS
 62
    52
  5
56C
 10
30.127333
 20
284.375833
 30
0.0
 11
27.652333
 21
284.375833
 31
0.0
  0
LINE
  8
1
  6
CONTINUOUS
 62
    52
  5
56D
 10
30.127333
 20
279.425833
 30
0.0
 11
27.652333
 21
279.425833
 31
0.0
  0
LINE
  8
1
  6
CONTINUOUS
 62
    52
  5
56E
 10
30.127333
 20
274.475833
 30
0.0
 11
27.652333
 21
274.475833
 31
0.0
  0
LINE
  8
1
  6
CONTINUOUS
 62
    52
  5
56F
 10
30.127333
 20
269.525833
 30
0.0
 11
27.652333
 21
269.525833
 31
0.0
  0
LINE
  8
1
  6
CONTINUOUS
 62
    52
  5
570
 10
30.127333
 20
264.575833
 30
0.0
 11
27.652333
 21
264.575833
 31
0.0
  0
LINE
  8
1
  6
CONTINUOUS
 62
    52
  5
571
 10
30.127333
 20
259.625833
 30
0.0
 11
27.652333
 21
259.625833
 31
0.0
  0
LINE
  8
1
  6
CONTINUOUS
 62
    52
  5
572
 10
30.127333
 20
254.675833
 30
0.0
 11
27.652333
 21
254.675833
 31
0.0
  0
LINE
  8
1
  6
CONTINUOUS
 62
    52
  5
573
 10
30.127333
 20
249.725833
 30
0.0
 11
27.652333
 21
249.725833
 31
0.0
  0
LINE
  8
1
  6
CONTINUOUS
 62
    52
  5
574
 10
30.127333
 20
244.775833
 30
0.0
 11
27.652333
 21
244.775833
 31
0.0
  0
LINE
  8
1
  6
CONTINUOUS
 62
    52
  5
575
 10
30.127333
 20
239.825833
 30
0.0
 11
27.652333
 21
239.825833
 31
0.0
  0
LINE
  8
1
  6
CONTINUOUS
 62
    52
  5
576
 10
30.127333
 20
234.875833
 30
0.0
 11
27.652333
 21
234.875833
 31
0.0
  0
LINE
  8
1
  6
CONTINUOUS
 62
    52
  5
577
 10
30.127333
 20
229.925833
 30
0.0
 11
27.652333
 21
229.925833
 31
0.0
  0
LINE
  8
1
  6
CONTINUOUS
 62
    52
  5
578
 10
30.127333
 20
224.975833
 30
0.0
 11
27.652333
 21
224.975833
 31
0.0
  0
LINE
  8
1
  6
CONTINUOUS
 62
    52
  5
579
 10
-8.647833
 20
305.825833
 30
0.0
 11
-8.647833
 21
304.175833
 31
0.0
  0
LINE
  8
1
  6
CONTINUOUS
 62
    52
  5
57A
 10
-0.397667
 20
305.825833
 30
0.0
 11
-0.397667
 21
304.175833
 31
0.0
  0
LINE
  8
1
  6
CONTINUOUS
 62
    52
  5
57B
 10
-10.297833
 20
305.825833
 30
0.0
 11
1.252333
 21
305.825833
 31
0.0
  0
LINE
  8
1
  6
CONTINUOUS
 62
    52
  5
57C
 10
-8.647833
 20
308.300833
 30
0.0
 11
-0.397667
 21
308.300833
 31
0.0
  0
ARC
  8
1
  6
CONTINUOUS
 62
    52
  5
57D
 10
-8.190478
 20
306.208417
 30
0.0
 40
2.141729
 50
102.327775
 51
190.292089
210
0.0
220
0.0
230
1.0
  0
ARC
  8
1
  6
CONTINUOUS
 62
    52
  5
57E
 10
-0.855014
 20
306.208417
 30
0.0
 40
2.141729
 50
349.707911
 51
77.672225
210
0.0
220
0.0
230
1.0
  0
CIRCLE
  8
1
  6
CONTINUOUS
 62
    52
  5
57F
 10
-30.097746
 20
259.625763
 30
0.0
 40
2.0625
210
0.0
220
0.0
230
1.0
  0
LINE
  8
1
  6
CONTINUOUS
 62
    52
  5
580
 10
98.820417
 20
298.813333
 30
0.0
 11
88.920417
 21
298.813333
 31
0.0
  0
LINE
  8
1
  6
CONTINUOUS
 62
    52
  5
581
 10
82.320417
 20
298.813333
 30
0.0
 11
72.420417
 21
298.813333
 31
0.0
  0
LINE
  8
1
  6
CONTINUOUS
 62
    52
  5
582
 10
82.320417
 20
288.913333
 30
0.0
 11
72.420417
 21
288.913333
 31
0.0
  0
LINE
  8
1
  6
CONTINUOUS
 62
    52
  5
583
 10
98.820417
 20
288.913333
 30
0.0
 11
88.920417
 21
288.913333
 31
0.0
  0
LINE
  8
1
  6
CONTINUOUS
 62
    52
  5
584
 10
82.320417
 20
282.313333
 30
0.0
 11
72.420417
 21
282.313333
 31
0.0
  0
LINE
  8
1
  6
CONTINUOUS
 62
    52
  5
585
 10
98.820417
 20
282.313333
 30
0.0
 11
88.920417
 21
282.313333
 31
0.0
  0
LINE
  8
1
  6
CONTINUOUS
 62
    52
  5
586
 10
82.320417
 20
272.413333
 30
0.0
 11
72.420417
 21
272.413333
 31
0.0
  0
LINE
  8
1
  6
CONTINUOUS
 62
    52
  5
587
 10
98.820417
 20
272.413333
 30
0.0
 11
88.920417
 21
272.413333
 31
0.0
  0
LINE
  8
1
  6
CONTINUOUS
 62
    52
  5
588
 10
82.320417
 20
265.813333
 30
0.0
 11
72.420417
 21
265.813333
 31
0.0
  0
LINE
  8
1
  6
CONTINUOUS
 62
    52
  5
589
 10
98.820417
 20
265.813333
 30
0.0
 11
88.920417
 21
265.813333
 31
0.0
  0
LINE
  8
1
  6
CONTINUOUS
 62
    52
  5
58A
 10
82.320417
 20
255.913333
 30
0.0
 11
72.420417
 21
255.913333
 31
0.0
  0
LINE
  8
1
  6
CONTINUOUS
 62
    52
  5
58B
 10
98.820417
 20
255.913333
 30
0.0
 11
88.920417
 21
255.913333
 31
0.0
  0
LINE
  8
1
  6
CONTINUOUS
 62
    52
  5
58C
 10
82.320417
 20
249.313333
 30
0.0
 11
72.420417
 21
249.313333
 31
0.0
  0
LINE
  8
1
  6
CONTINUOUS
 62
    52
  5
58D
 10
98.820417
 20
249.313333
 30
0.0
 11
88.920417
 21
249.313333
 31
0.0
  0
LINE
  8
1
  6
CONTINUOUS
 62
    52
  5
58E
 10
82.320417
 20
239.413333
 30
0.0
 11
72.420417
 21
239.413333
 31
0.0
  0
LINE
  8
1
  6
CONTINUOUS
 62
    52
  5
58F
 10
98.820417
 20
239.413333
 30
0.0
 11
88.920417
 21
239.413333
 31
0.0
  0
LINE
  8
1
  6
CONTINUOUS
 62
    52
  5
590
 10
72.420417
 20
298.813333
 30
0.0
 11
72.420417
 21
288.913333
 31
0.0
  0
LINE
  8
1
  6
CONTINUOUS
 62
    52
  5
591
 10
72.420417
 20
282.313333
 30
0.0
 11
72.420417
 21
272.413333
 31
0.0
  0
LINE
  8
1
  6
CONTINUOUS
 62
    52
  5
592
 10
72.420417
 20
265.813333
 30
0.0
 11
72.420417
 21
255.913333
 31
0.0
  0
LINE
  8
1
  6
CONTINUOUS
 62
    52
  5
593
 10
72.420417
 20
249.313333
 30
0.0
 11
72.420417
 21
239.413333
 31
0.0
  0
LINE
  8
1
  6
CONTINUOUS
 62
    52
  5
594
 10
82.320417
 20
298.813333
 30
0.0
 11
82.320417
 21
288.913333
 31
0.0
  0
LINE
  8
1
  6
CONTINUOUS
 62
    52
  5
595
 10
82.320417
 20
282.313333
 30
0.0
 11
82.320417
 21
272.413333
 31
0.0
  0
LINE
  8
1
  6
CONTINUOUS
 62
    52
  5
596
 10
82.320417
 20
265.813333
 30
0.0
 11
82.320417
 21
255.913333
 31
0.0
  0
LINE
  8
1
  6
CONTINUOUS
 62
    52
  5
597
 10
82.320417
 20
249.313333
 30
0.0
 11
82.320417
 21
239.413333
 31
0.0
  0
LINE
  8
1
  6
CONTINUOUS
 62
    52
  5
598
 10
88.920417
 20
288.913333
 30
0.0
 11
88.920417
 21
298.813333
 31
0.0
  0
LINE
  8
1
  6
CONTINUOUS
 62
    52
  5
599
 10
88.920417
 20
272.413333
 30
0.0
 11
88.920417
 21
282.313333
 31
0.0
  0
LINE
  8
1
  6
CONTINUOUS
 62
    52
  5
59A
 10
88.920417
 20
239.413333
 30
0.0
 11
88.920417
 21
249.313333
 31
0.0
  0
LINE
  8
1
  6
CONTINUOUS
 62
    52
  5
59B
 10
88.920417
 20
255.913333
 30
0.0
 11
88.920417
 21
265.813333
 31
0.0
  0
LINE
  8
1
  6
CONTINUOUS
 62
    52
  5
59C
 10
98.820417
 20
239.413333
 30
0.0
 11
98.820417
 21
249.313333
 31
0.0
  0
LINE
  8
1
  6
CONTINUOUS
 62
    52
  5
59D
 10
98.820417
 20
255.913333
 30
0.0
 11
98.820417
 21
265.813333
 31
0.0
  0
LINE
  8
1
  6
CONTINUOUS
 62
    52
  5
59E
 10
98.820417
 20
272.413333
 30
0.0
 11
98.820417
 21
282.313333
 31
0.0
  0
LINE
  8
1
  6
CONTINUOUS
 62
    52
  5
59F
 10
98.820417
 20
288.913333
 30
0.0
 11
98.820417
 21
298.813333
 31
0.0
  0
LINE
  8
1
  6
CONTINUOUS
 62
    52
  5
5A0
 10
109.545417
 20
236.113333
 30
0.0
 11
61.695417
 21
236.113333
 31
0.0
  0
LINE
  8
1
  6
CONTINUOUS
 62
    52
  5
5A1
 10
109.545417
 20
232.813333
 30
0.0
 11
61.695417
 21
232.813333
 31
0.0
  0
CIRCLE
  8
1
  6
CONTINUOUS
 62
    52
  5
5A2
 10
85.257054
 20
225.260525
 30
0.0
 40
5.775
210
0.0
220
0.0
230
1.0
  0
CIRCLE
  8
1
  6
CONTINUOUS
 62
    52
  5
5A3
 10
64.108454
 20
294.471288
 30
0.0
 40
4.95
210
0.0
220
0.0
230
1.0
  0
CIRCLE
  8
1
  6
CONTINUOUS
 62
    52
  5
5A4
 10
64.388542
 20
277.518775
 30
0.0
 40
4.95
210
0.0
220
0.0
230
1.0
  0
CIRCLE
  8
1
  6
CONTINUOUS
 62
    52
  5
5A5
 10
64.528654
 20
260.986738
 30
0.0
 40
4.95
210
0.0
220
0.0
230
1.0
  0
CIRCLE
  8
1
  6
CONTINUOUS
 62
    52
  5
5A6
 10
64.528654
 20
244.454562
 30
0.0
 40
4.95
210
0.0
220
0.0
230
1.0
  0
CIRCLE
  8
1
  6
CONTINUOUS
 62
    52
  5
5A7
 10
106.545767
 20
244.174338
 30
0.0
 40
4.95
210
0.0
220
0.0
230
1.0
  0
CIRCLE
  8
1
  6
CONTINUOUS
 62
    52
  5
5A8
 10
106.545767
 20
260.426288
 30
0.0
 40
4.95
210
0.0
220
0.0
230
1.0
  0
CIRCLE
  8
1
  6
CONTINUOUS
 62
    52
  5
5A9
 10
106.405792
 20
277.238687
 30
0.0
 40
4.95
210
0.0
220
0.0
230
1.0
  0
CIRCLE
  8
1
  6
CONTINUOUS
 62
    52
  5
5AA
 10
106.405792
 20
293.630612
 30
0.0
 40
4.95
210
0.0
220
0.0
230
1.0
  0
CIRCLE
  8
1
  6
CONTINUOUS
 62
    52
  5
5AB
 10
93.940592
 20
277.378663
 30
0.0
 40
4.95
210
0.0
220
0.0
230
1.0
  0
CIRCLE
  8
1
  6
CONTINUOUS
 62
    52
  5
5AC
 10
65.789117
 20
227.08185
 30
0.0
 40
4.95
210
0.0
220
0.0
230
1.0
  0
CIRCLE
  8
1
  6
CONTINUOUS
 62
    52
  5
5AD
 10
95.901479
 20
223.4392
 30
0.0
 40
4.95
210
0.0
220
0.0
230
1.0
  0
CIRCLE
  8
1
  6
CONTINUOUS
 62
    52
  5
5AE
 10
-20.517708
 20
266.642113
 30
0.0
 40
4.95
210
0.0
220
0.0
230
1.0
  0
CIRCLE
  8
1
  6
CONTINUOUS
 62
    52
  5
5AF
 10
8.338179
 20
311.521563
 30
0.0
 40
4.95
210
0.0
220
0.0
230
1.0
  0
TEXT
  8
1
  6
CONTINUOUS
 62
     7
  5
5B0
 10
6.757083
 20
310.48925
 30
0.0
 40
2.5
  1
16
  7
MONOTXT
 72
     4
 11
8.24325
 21
311.73925
 31
0.0
210
0.0
220
0.0
230
1.0
  0
TEXT
  8
1
  6
CONTINUOUS
 62
     7
  5
5B1
 10
-22.127417
 20
265.418667
 30
0.0
 40
2.5
  1
15
  7
MONOTXT
 72
     4
 11
-20.582167
 21
266.668667
 31
0.0
210
0.0
220
0.0
230
1.0
  0
TEXT
  8
1
  6
CONTINUOUS
 62
     7
  5
5B2
 10
104.764333
 20
292.364417
 30
0.0
 40
2.5
  1
13
  7
MONOTXT
 72
     4
 11
106.309583
 21
293.614417
 31
0.0
210
0.0
220
0.0
230
1.0
  0
TEXT
  8
1
  6
CONTINUOUS
 62
     7
  5
5B3
 10
92.338667
 20
276.335917
 30
0.0
 40
2.5
  1
12
  7
MONOTXT
 72
     4
 11
93.883917
 21
277.585917
 31
0.0
210
0.0
220
0.0
230
1.0
  0
TEXT
  8
1
  6
CONTINUOUS
 62
     7
  5
5B4
 10
64.467833
 20
225.909167
 30
0.0
 40
2.5
  1
14
  7
MONOTXT
 72
     4
 11
66.072167
 21
227.159167
 31
0.0
210
0.0
220
0.0
230
1.0
  0
TEXT
  8
1
  6
CONTINUOUS
 62
     7
  5
5B5
 10
95.02175
 20
221.72075
 30
0.0
 40
2.5
  1
7
  7
MONOTXT
 72
     4
 11
95.868167
 21
222.97075
 31
0.0
210
0.0
220
0.0
230
1.0
  0
LINE
  8
1
  6
CONTINUOUS
 62
     7
  5
5B6
 10
-1.43475
 20
194.543583
 30
0.0
 11
97.651917
 21
194.543583
 31
0.0
  0
TEXT
  8
1
  6
CONTINUOUS
 62
     7
  5
5B7
 10
1.363
 20
195.741583
 30
0.0
 40
4.0
  1
REMOTE BALLAST ENCLOSURE
  7
MONOTXT
 72
     4
 11
47.772417
 21
197.741583
 31
0.0
210
0.0
220
0.0
230
1.0
  0
TEXT
  8
1
  6
HIDDEN
 62
     7
  5
5B8
 10
435.551583
 20
142.707167
 30
0.0
 40
4.0
  1
CHASE NIPPLE WIRE INLET DETAIL
  7
MONOTXT
 72
     4
 11
488.29175
 21
144.707167
 31
0.0
210
0.0
220
0.0
230
1.0
  0
POLYLINE
  8
1
  6
CONTINUOUS
 62
     7
  5
5B9
 66
     1
 10
0.0
 20
0.0
 30
0.0
  0
VERTEX
  8
1
  6
CONTINUOUS
 62
     7
  5
5BA
 10
422.83575
 20
59.912917
 30
0.0
  0
VERTEX
  8
1
  6
CONTINUOUS
 62
     7
  5
5BB
 10
420.83575
 20
56.448833
 30
0.0
  0
VERTEX
  8
1
  6
CONTINUOUS
 62
     7
  5
5BC
 10
424.83575
 20
56.448833
 30
0.0
  0
VERTEX
  8
1
  6
CONTINUOUS
 62
     7
  5
5BD
 10
422.83575
 20
59.912917
 30
0.0
  0
SEQEND
  8
1
  6
CONTINUOUS
 62
     7
  5
5BE
  0
TEXT
  8
1
  6
CONTINUOUS
 62
     7
  5
5BF
 10
422.144833
 20
56.766083
 30
0.0
 40
2.0
  1
5
  7
MONOTXT
210
0.0
220
0.0
230
1.0
  0
TEXT
  8
1
  6
CONTINUOUS
 62
     7
  5
5C0
 10
425.230333
 20
56.957417
 30
0.0
 40
2.0
  1
ADDED REMOTE BALLAST AND ENCLOSURE DETAILS AND NOTE
  7
MONOTXT
210
0.0
220
0.0
230
1.0
  0
POLYLINE
  8
1
  6
CONTINUOUS
 62
     7
  5
5C1
 66
     1
 10
0.0
 20
0.0
 30
0.0
  0
VERTEX
  8
1
  6
CONTINUOUS
 62
     7
  5
5C2
 10
425.514833
 20
-14.80125
 30
0.0
  0
VERTEX
  8
1
  6
CONTINUOUS
 62
     7
  5
5C3
 10
423.514833
 20
-18.265333
 30
0.0
  0
VERTEX
  8
1
  6
CONTINUOUS
 62
     7
  5
5C4
 10
427.514833
 20
-18.265333
 30
0.0
  0
VERTEX
  8
1
  6
CONTINUOUS
 62
     7
  5
5C5
 10
425.514833
 20
-14.80125
 30
0.0
  0
SEQEND
  8
1
  6
CONTINUOUS
 62
     7
  5
5C6
  0
TEXT
  8
1
  6
CONTINUOUS
 62
     7
  5
5C7
 10
424.910917
 20
-18.02375
 30
0.0
 40
2.0
  1
5
  7
MONOTXT
210
0.0
220
0.0
230
1.0
  0
TEXT
  8
1
  6
CONTINUOUS
 62
     7
  5
5C8
 10
433.08275
 20
24.78475
 30
0.0
 40
6.992667
  1
SIGN LIGHTING - ENCLOSURES
  7
txt
 72
     1
 11
508.647
 21
31.777417
 31
0.0
210
0.0
220
0.0
230
1.0
 73
     3
  0
TEXT
  8
1
  6
CONTINUOUS
 62
     7
  5
5C9
 10
451.258417
 20
15.792083
 30
0.0
 40
6.992667
  1
WITH REMOTE BALLAST
  7
txt
 72
     1
 11
508.647
 21
22.78475
 31
0.0
210
0.0
220
0.0
230
1.0
 73
     3
  0
TEXT
  8
1
  6
CONTINUOUS
 62
     1
  5
5CA
 10
486.414083
 20
-39.446667
 30
0.0
 40
1.2
  1
FILENAME = TE63B.DGN
  7
txt
210
0.0
220
0.0
230
1.0
  0
TEXT
  8
1
  6
CONTINUOUS
 62
     7
  5
5CB
 10
438.668
 20
289.475583
 30
0.0
 40
4.0
  1
#
  7
MONOTXT
 72
     4
 11
439.691583
 21
291.475583
 31
0.0
210
0.0
220
0.0
230
1.0
  0
TEXT
  8
1
  6
CONTINUOUS
 62
     7
  5
5CC
 10
137.632
 20
137.55275
 30
0.0
 40
4.0
  1
#
  7
MONOTXT
 72
     4
 11
138.655583
 21
139.55275
 31
0.0
210
0.0
220
0.0
230
1.0
  0
TEXT
  8
1
  6
CONTINUOUS
 62
     7
  5
5CD
 10
125.613167
 20
287.238833
 30
0.0
 40
2.5
  1
 1    BARRIER TYPE TERMINAL BLOCK
  7
MONOTXT
 11
125.613167
 21
289.738833
 31
0.0
210
0.0
220
0.0
230
1.0
 73
     3
  0
TEXT
  8
1
  6
CONTINUOUS
 62
     7
  5
5CE
 10
125.613167
 20
282.738833
 30
0.0
 40
2.5
  1
 
  7
MONOTXT
 11
125.613167
 21
285.238833
 31
0.0
210
0.0
220
0.0
230
1.0
 73
     3
  0
TEXT
  8
1
  6
CONTINUOUS
 62
     7
  5
5CF
 10
125.613167
 20
278.238833
 30
0.0
 40
2.5
  1
 2  MAIN CIRCUIT BREAKER
  7
MONOTXT
 11
125.613167
 21
280.738833
 31
0.0
210
0.0
220
0.0
230
1.0
 73
     3
  0
TEXT
  8
1
  6
CONTINUOUS
 62
     7
  5
5D0
 10
125.613167
 20
273.738833
 30
0.0
 40
2.5
  1
 
  7
MONOTXT
 11
125.613167
 21
276.238833
 31
0.0
210
0.0
220
0.0
230
1.0
 73
     3
  0
TEXT
  8
1
  6
CONTINUOUS
 62
     7
  5
5D1
 10
125.613167
 20
269.238833
 30
0.0
 40
2.5
  1
 3  MANUAL-OFF-AUTOMATIC SELECTOR
  7
MONOTXT
 11
125.613167
 21
271.738833
 31
0.0
210
0.0
220
0.0
230
1.0
 73
     3
  0
TEXT
  8
1
  6
CONTINUOUS
 62
     7
  5
5D2
 10
125.613167
 20
264.738833
 30
0.0
 40
2.5
  1
    SWITCH
  7
MONOTXT
 11
125.613167
 21
267.238833
 31
0.0
210
0.0
220
0.0
230
1.0
 73
     3
  0
TEXT
  8
1
  6
CONTINUOUS
 62
     7
  5
5D3
 10
125.613167
 20
260.238833
 30
0.0
 40
2.5
  1
 
  7
MONOTXT
 11
125.613167
 21
262.738833
 31
0.0
210
0.0
220
0.0
230
1.0
 73
     3
  0
TEXT
  8
1
  6
CONTINUOUS
 62
     7
  5
5D4
 10
125.613167
 20
255.738833
 30
0.0
 40
2.5
  1
 4  SOLID NEUTRAL GROUNDED
  7
MONOTXT
 11
125.613167
 21
258.238833
 31
0.0
210
0.0
220
0.0
230
1.0
 73
     3
  0
TEXT
  8
1
  6
CONTINUOUS
 62
     7
  5
5D5
 10
125.613167
 20
251.238833
 30
0.0
 40
2.5
  1
 
  7
MONOTXT
 11
125.613167
 21
253.738833
 31
0.0
210
0.0
220
0.0
230
1.0
 73
     3
  0
TEXT
  8
1
  6
CONTINUOUS
 62
     7
  5
5D6
 10
125.613167
 20
246.738833
 30
0.0
 40
2.5
  1
 5  120 VOLT CONTACTOR
  7
MONOTXT
 11
125.613167
 21
249.238833
 31
0.0
210
0.0
220
0.0
230
1.0
 73
     3
  0
TEXT
  8
1
  6
CONTINUOUS
 62
     7
  5
5D7
 10
125.613167
 20
242.238833
 30
0.0
 40
2.5
  1
 
  7
MONOTXT
 11
125.613167
 21
244.738833
 31
0.0
210
0.0
220
0.0
230
1.0
 73
     3
  0
TEXT
  8
1
  6
CONTINUOUS
 62
     7
  5
5D8
 10
125.613167
 20
237.738833
 30
0.0
 40
2.5
  1
 6  P.E. UNIT TERMINAL STRIP
  7
MONOTXT
 11
125.613167
 21
240.238833
 31
0.0
210
0.0
220
0.0
230
1.0
 73
     3
  0
TEXT
  8
1
  6
CONTINUOUS
 62
     7
  5
5D9
 10
125.613167
 20
233.238833
 30
0.0
 40
2.5
  1
 
  7
MONOTXT
 11
125.613167
 21
235.738833
 31
0.0
210
0.0
220
0.0
230
1.0
 73
     3
  0
TEXT
  8
1
  6
CONTINUOUS
 62
     7
  5
5DA
 10
125.613167
 20
228.738833
 30
0.0
 40
2.5
  1
 7  CHASE NIPPLE
  7
MONOTXT
 11
125.613167
 21
231.238833
 31
0.0
210
0.0
220
0.0
230
1.0
 73
     3
  0
TEXT
  8
1
  6
CONTINUOUS
 62
     7
  5
5DB
 10
125.613167
 20
224.238833
 30
0.0
 40
2.5
  1
 
  7
MONOTXT
 11
125.613167
 21
226.738833
 31
0.0
210
0.0
220
0.0
230
1.0
 73
     3
  0
TEXT
  8
1
  6
CONTINUOUS
 62
     7
  5
5DC
 10
125.613167
 20
219.738833
 30
0.0
 40
2.5
  1
 8  120 VOLT P.E. UNIT (PHOTOCELL-
  7
MONOTXT
 11
125.613167
 21
222.238833
 31
0.0
210
0.0
220
0.0
230
1.0
 73
     3
  0
TEXT
  8
1
  6
CONTINUOUS
 62
     7
  5
5DD
 10
125.613167
 20
215.238833
 30
0.0
 40
2.5
  1
    TWISTLOCK TYPE, STANDARD
  7
MONOTXT
 11
125.613167
 21
217.738833
 31
0.0
210
0.0
220
0.0
230
1.0
 73
     3
  0
TEXT
  8
1
  6
CONTINUOUS
 62
     7
  5
5DE
 10
125.613167
 20
210.738833
 30
0.0
 40
2.5
  1
    NEMA WITH 2 3/4 " ID LOCKING
  7
MONOTXT
 11
125.613167
 21
213.238833
 31
0.0
210
0.0
220
0.0
230
1.0
 73
     3
  0
TEXT
  8
1
  6
CONTINUOUS
 62
     7
  5
5DF
 10
125.613167
 20
206.238833
 30
0.0
 40
2.5
  1
    BASE)
  7
MONOTXT
 11
125.613167
 21
208.738833
 31
0.0
210
0.0
220
0.0
230
1.0
 73
     3
  0
TEXT
  8
1
  6
CONTINUOUS
 62
     7
  5
5E0
 10
125.613167
 20
201.738833
 30
0.0
 40
2.5
  1
 
  7
MONOTXT
 11
125.613167
 21
204.238833
 31
0.0
210
0.0
220
0.0
230
1.0
 73
     3
  0
TEXT
  8
1
  6
CONTINUOUS
 62
     7
  5
5E1
 10
125.613167
 20
197.238833
 30
0.0
 40
2.5
  1
 9  LOCKABLE SAFETY SWITCH
  7
MONOTXT
 11
125.613167
 21
199.738833
 31
0.0
210
0.0
220
0.0
230
1.0
 73
     3
  0
TEXT
  8
1
  6
CONTINUOUS
 62
     7
  5
5E2
 10
125.613167
 20
192.738833
 30
0.0
 40
2.5
  1
 
  7
MONOTXT
 11
125.613167
 21
195.238833
 31
0.0
210
0.0
220
0.0
230
1.0
 73
     3
  0
TEXT
  8
1
  6
CONTINUOUS
 62
     7
  5
5E3
 10
125.613167
 20
188.238833
 30
0.0
 40
2.5
  1
 10  NEMA R S.S. ENCLOSURE
  7
MONOTXT
 11
125.613167
 21
190.738833
 31
0.0
210
0.0
220
0.0
230
1.0
 73
     3
  0
TEXT
  8
1
  6
CONTINUOUS
 62
     7
  5
5E4
 10
125.613167
 20
183.738833
 30
0.0
 40
2.5
  1
 
  7
MONOTXT
 11
125.613167
 21
186.238833
 31
0.0
210
0.0
220
0.0
230
1.0
 73
     3
  0
TEXT
  8
1
  6
CONTINUOUS
 62
     7
  5
5E5
 10
125.613167
 20
179.238833
 30
0.0
 40
2.5
  1
 11    ENCLOSURE DOOR INTERLOCK
  7
MONOTXT
 11
125.613167
 21
181.738833
 31
0.0
210
0.0
220
0.0
230
1.0
 73
     3
  0
TEXT
  8
1
  6
CONTINUOUS
 62
     7
  5
5E6
 10
125.613167
 20
174.738833
 30
0.0
 40
2.5
  1
 
  7
MONOTXT
 11
125.613167
 21
177.238833
 31
0.0
210
0.0
220
0.0
230
1.0
 73
     3
  0
TEXT
  8
1
  6
CONTINUOUS
 62
     7
  5
5E7
 10
125.613167
 20
170.238833
 30
0.0
 40
2.5
  1
 12  BALLAST
  7
MONOTXT
 11
125.613167
 21
172.738833
 31
0.0
210
0.0
220
0.0
230
1.0
 73
     3
  0
TEXT
  8
1
  6
CONTINUOUS
 62
     7
  5
5E8
 10
125.613167
 20
165.738833
 30
0.0
 40
2.5
  1
 
  7
MONOTXT
 11
125.613167
 21
168.238833
 31
0.0
210
0.0
220
0.0
230
1.0
 73
     3
  0
TEXT
  8
1
  6
CONTINUOUS
 62
     7
  5
5E9
 10
125.613167
 20
161.238833
 30
0.0
 40
2.5
  1
 13  CAPACITOR
  7
MONOTXT
 11
125.613167
 21
163.738833
 31
0.0
210
0.0
220
0.0
230
1.0
 73
     3
  0
TEXT
  8
1
  6
CONTINUOUS
 62
     7
  5
5EA
 10
125.613167
 20
156.738833
 30
0.0
 40
2.5
  1
 
  7
MONOTXT
 11
125.613167
 21
159.238833
 31
0.0
210
0.0
220
0.0
230
1.0
 73
     3
  0
TEXT
  8
1
  6
CONTINUOUS
 62
     7
  5
5EB
 10
125.613167
 20
152.238833
 30
0.0
 40
2.5
  1
 14  TERMINAL STRIPS
  7
MONOTXT
 11
125.613167
 21
154.738833
 31
0.0
210
0.0
220
0.0
230
1.0
 73
     3
  0
TEXT
  8
1
  6
CONTINUOUS
 62
     7
  5
5EC
 10
125.613167
 20
147.738833
 30
0.0
 40
2.5
  1
 
  7
MONOTXT
 11
125.613167
 21
150.238833
 31
0.0
210
0.0
220
0.0
230
1.0
 73
     3
  0
TEXT
  8
1
  6
CONTINUOUS
 62
     7
  5
5ED
 10
125.613167
 20
143.238833
 30
0.0
 40
2.5
  1
 15  'CORBIN' TYPE LOCK SERIES
  7
MONOTXT
 11
125.613167
 21
145.738833
 31
0.0
210
0.0
220
0.0
230
1.0
 73
     3
  0
TEXT
  8
1
  6
CONTINUOUS
 62
     7
  5
5EE
 10
125.613167
 20
138.738833
 30
0.0
 40
2.5
  1
      R357SGS
  7
MONOTXT
 11
125.613167
 21
141.238833
 31
0.0
210
0.0
220
0.0
230
1.0
 73
     3
  0
TEXT
  8
1
  6
CONTINUOUS
 62
     7
  5
5EF
 10
125.613167
 20
134.238833
 30
0.0
 40
2.5
  1
 
  7
MONOTXT
 11
125.613167
 21
136.738833
 31
0.0
210
0.0
220
0.0
230
1.0
 73
     3
  0
TEXT
  8
1
  6
CONTINUOUS
 62
     7
  5
5F0
 10
125.613167
 20
129.738833
 30
0.0
 40
2.5
  1
 16  VENT
  7
MONOTXT
 11
125.613167
 21
132.238833
 31
0.0
210
0.0
220
0.0
230
1.0
 73
     3
  0
LINE
  8
1
  6
DASHED
 62
     7
  5
5F1
 10
126.504
 20
176.010333
 30
0.0
 11
196.2305
 21
176.010333
 31
0.0
  0
TEXT
  8
1
  6
CONTINUOUS
 62
     7
  5
5F2
 10
463.814917
 20
35.043833
 30
0.0
 40
6.992667
  1
STANDARD DETAIL
  7
txt
 72
     1
 11
508.30525
 21
42.0365
 31
0.0
210
0.0
220
0.0
230
1.0
 73
     3
  0
TEXT
  8
1
  6
CONTINUOUS
 62
     7
  5
5F3
 10
459.023167
 20
-33.01625
 30
0.0
 40
6.992667
  1
STANDARD SHEET TE6-3B
  7
txt
 72
     1
 11
520.6455
 21
-26.023583
 31
0.0
210
0.0
220
0.0
230
1.0
 73
     3
  0
ENDSEC
  0
EOF
