  0
SECTION
  2
HEADER
  9
$ACADVER
  1
AC1009
  9
$INSBASE
 10
0.0
 20
0.0
 30
0.0
  9
$EXTMIN
 10
-261.880417
 20
-208.162917
 30
0.0
  9
$EXTMAX
 10
418.199583
 20
231.877083
 30
0.0
  9
$LIMMIN
 10
0.0
 20
0.0
  9
$LIMMAX
 10
12.0
 20
9.0
  9
$ORTHOMODE
 70
     0
  9
$REGENMODE
 70
     1
  9
$FILLMODE
 70
     1
  9
$QTEXTMODE
 70
     0
  9
$MIRRTEXT
 70
     1
  9
$DRAGMODE
 70
     2
  9
$LTSCALE
 40
1.0
  9
$OSMODE
 70
     0
  9
$ATTMODE
 70
     1
  9
$TEXTSIZE
 40
0.2
  9
$TRACEWID
 40
0.05
  9
$TEXTSTYLE
  7
STANDARD
  9
$CLAYER
  8
0
  9
$CELTYPE
  6
CONTINUOUS
  9
$CECOLOR
 62
   256
  9
$DIMSCALE
 40
1.0
  9
$DIMASZ
 40
0.18
  9
$DIMEXO
 40
0.0625
  9
$DIMDLI
 40
0.38
  9
$DIMRND
 40
0.0
  9
$DIMDLE
 40
0.0
  9
$DIMEXE
 40
0.18
  9
$DIMTP
 40
0.0
  9
$DIMTM
 40
0.0
  9
$DIMTXT
 40
0.18
  9
$DIMCEN
 40
0.09
  9
$DIMTSZ
 40
0.0
  9
$DIMTOL
 70
     0
  9
$DIMLIM
 70
     0
  9
$DIMTIH
 70
     1
  9
$DIMTOH
 70
     1
  9
$DIMSE1
 70
     0
  9
$DIMSE2
 70
     0
  9
$DIMTAD
 70
     0
  9
$DIMZIN
 70
     0
  9
$DIMBLK
  1

  9
$DIMASO
 70
     1
  9
$DIMSHO
 70
     1
  9
$DIMPOST
  1

  9
$DIMAPOST
  1

  9
$DIMALT
 70
     0
  9
$DIMALTD
 70
     2
  9
$DIMALTF
 40
25.4
  9
$DIMLFAC
 40
1.0
  9
$DIMTOFL
 70
     0
  9
$DIMTVP
 40
0.0
  9
$DIMTIX
 70
     0
  9
$DIMSOXD
 70
     0
  9
$DIMSAH
 70
     0
  9
$DIMBLK1
  1

  9
$DIMBLK2
  1

  9
$DIMSTYLE
  2
STANDARD
  9
$DIMCLRD
 70
     0
  9
$DIMCLRE
 70
     0
  9
$DIMCLRT
 70
     0
  9
$DIMTFAC
 40
1.0
  9
$DIMGAP
 40
0.09
  9
$LUNITS
 70
     2
  9
$LUPREC
 70
     4
  9
$AXISMODE
 70
     0
  9
$AXISUNIT
 10
0.0
 20
0.0
  9
$SKETCHINC
 40
0.1
  9
$FILLETRAD
 40
0.0
  9
$AUNITS
 70
     0
  9
$AUPREC
 70
     0
  9
$MENU
  1
acad
  9
$ELEVATION
 40
0.0
  9
$PELEVATION
 40
0.0
  9
$THICKNESS
 40
0.0
  9
$LIMCHECK
 70
     0
  9
$BLIPMODE
 70
     1
  9
$CHAMFERA
 40
0.0
  9
$CHAMFERB
 40
0.0
  9
$SKPOLY
 70
     0
  9
$TDCREATE
 40
2451803.407928241
  9
$TDUPDATE
 40
2451803.407928241
  9
$TDINDWG
 40
0.0000000000
  9
$TDUSRTIMER
 40
0.0000000000
  9
$USRTIMER
 70
     1
  9
$ANGBASE
 50
0.0
  9
$ANGDIR
 70
     0
  9
$PDMODE
 70
     0
  9
$PDSIZE
 40
0.0
  9
$PLINEWID
 40
0.0
  9
$COORDS
 70
     0
  9
$SPLFRAME
 70
     0
  9
$SPLINETYPE
 70
     6
  9
$SPLINESEGS
 70
    10
  9
$ATTDIA
 70
     0
  9
$ATTREQ
 70
     1
  9
$HANDLING
 70
     1
  9
$HANDSEED
  5
5E0
  9
$SURFTAB1
 70
     6
  9
$SURFTAB2
 70
     6
  9
$SURFTYPE
 70
     6
  9
$SURFU
 70
     6
  9
$SURFV
 70
     6
  9
$UCSNAME
  2

  9
$UCSORG
 10
0.0
 20
0.0
 30
0.0
  9
$UCSXDIR
 10
1.0
 20
0.0
 30
0.0
  9
$UCSYDIR
 10
0.0
 20
1.0
 30
0.0
  9
$PUCSNAME
  2

  9
$PUCSORG
 10
0.0
 20
0.0
 30
0.0
  9
$PUCSXDIR
 10
1.0
 20
0.0
 30
0.0
  9
$PUCSYDIR
 10
0.0
 20
1.0
 30
0.0
  9
$USERI1
 70
     0
  9
$USERI2
 70
     0
  9
$USERI3
 70
     0
  9
$USERI4
 70
     0
  9
$USERI5
 70
     0
  9
$USERR1
 40
0.0
  9
$USERR2
 40
0.0
  9
$USERR3
 40
0.0
  9
$USERR4
 40
0.0
  9
$USERR5
 40
0.0
  9
$WORLDVIEW
 70
     1
  9
$SHADEDGE
 70
     3
  9
$SHADEDIF
 70
    70
  9
$TILEMODE
 70
     1
  9
$MAXACTVP
 70
    16
  9
$PINSBASE
 10
0.0
 20
0.0
 30
0.0
  9
$PLIMCHECK
 70
     0
  9
$PEXTMIN
 10
-1.000000E+20
 20
-1.000000E+20
 30
-1.000000E+20
  9
$PEXTMAX
 10
-1.000000E+20
 20
-1.000000E+20
 30
-1.000000E+20
  9
$PLIMMIN
 10
0.0
 20
0.0
  9
$PLIMMAX
 10
12.0
 20
9.0
  9
$UNITMODE
 70
     0
  9
$VISRETAIN
 70
     0
  9
$PLINEGEN
 70
     1
  9
$PSLTSCALE
 70
     0
  9
$TREEDEPTH
 70
  3020
  9
$DWGCODEPAGE
  3
ansi_1252
  0
ENDSEC
  0
SECTION
  2
TABLES
  0
TABLE
  2
VPORT
 70
     1
  0
VPORT
  2
*ACTIVE
 70
     0
 10
0.0
 20
0.0
 11
1.0
 21
1.0
 12
0.0
 22
0.0
 13
0.0
 23
0.0
 14
0.0
 24
0.0
 15
0.0
 25
0.0
 16
0.0
 26
0.0
 36
1.0
 17
32.395883
 27
11.857083
 37
0.0
 40
451.041
 41
1.795122
 42
50.0
 43
0.0
 44
0.0
 50
0.0
 51
0.0
 71
     0
 72
   100
 73
     1
 74
     0
 75
     0
 76
     0
 77
     0
 78
     0
  0
ENDTAB
  0
TABLE
  2
LTYPE
 70
     7
  0
LTYPE
  2
CONTINUOUS
 70
     0
  3
Solid line
 72
    65
 73
     0
 40
0.0
  0
LTYPE
  2
DOT
 70
    64
  3
. . . . . . . . . . . . . . . . . . . . . . . . . . . . . . . . .
 72
    65
 73
     2
 40
0.25
 49
0.0
 49
-0.25
  0
LTYPE
  2
HIDDEN
 70
    64
  3
__ __ __ __ __ __ __ __ __ __ __ __ __ __ __ __ __ __ __ __ __ 
 72
    65
 73
     2
 40
0.375
 49
0.25
 49
-0.125
  0
LTYPE
  2
DASHED
 70
    64
  3
__ __ __ __ __ __ __ __ __ __ __ __ __ __ __ __ __ __ __ __ __
 72
    65
 73
     2
 40
0.75
 49
0.5
 49
-0.25
  0
LTYPE
  2
DASHDOT
 70
    64
  3
__ . __ . __ . __ . __ . __ . __ . __ . __ . __ . __ . __ . _
 72
    65
 73
     4
 40
1.0
 49
0.5
 49
-0.25
 49
0.0
 49
-0.25
  0
LTYPE
  2
DIVIDE
 70
    64
  3
____ . . ____ . . ____ . . ____ . . ____ . . ____ . . ____ . .
 72
    65
 73
     6
 40
1.25
 49
0.5
 49
-0.25
 49
0.0
 49
-0.25
 49
0.0
 49
-0.25
  0
LTYPE
  2
CENTER
 70
    64
  3
____ _ ____ _ ____ _ ____ _ ____ _ ____ _ ____ _ ____ _ ____ _
 72
    65
 73
     4
 40
2.0
 49
1.25
 49
-0.25
 49
0.25
 49
-0.25
  0
ENDTAB
  0
TABLE
  2
LAYER
 70
     5
  0
LAYER
  2
0
 70
     0
 62
     7
  6
CONTINUOUS
  0
LAYER
  2
CONSTRUCTION_CLASS
 70
     0
 62
     7
  6
CONTINUOUS
  0
LAYER
  2
PATTERN_CLASS
 70
     0
 62
     7
  6
CONTINUOUS
  0
LAYER
  2
1
 70
    64
 62
     7
  6
CONTINUOUS
  0
LAYER
  2
61
 70
    64
 62
     7
  6
CONTINUOUS
  0
ENDTAB
  0
TABLE
  2
STYLE
 70
     4
  0
STYLE
  2
STANDARD
 70
     0
 40
0.0
 41
1.0
 50
0.0
 71
     0
 42
0.0
  3
txt
  4

  0
STYLE
  2
MONOTXT
 70
     0
 40
0.2
 41
1.0
 50
0.0
 71
     0
 42
0.2
  3
MONOTXT
  4

  0
STYLE
  2
txt
 70
     0
 40
0.2
 41
1.0
 50
0.0
 71
     0
 42
0.2
  3
TXT
  4

  0
STYLE
  2
ROMANT
 70
     0
 40
0.2
 41
1.0
 50
0.0
 71
     0
 42
0.2
  3
ROMANT
  4

  0
ENDTAB
  0
TABLE
  2
VIEW
 70
     0
  0
ENDTAB
  0
TABLE
  2
UCS
 70
     0
  0
ENDTAB
  0
TABLE
  2
APPID
 70
     1
  0
APPID
  2
ACAD
 70
     0
  0
ENDTAB
  0
TABLE
  2
DIMSTYLE
 70
     1
  0
DIMSTYLE
  2
STANDARD
 70
     0
  3

  4

  5

  6

  7

 40
1.0
 41
0.18
 42
0.0625
 43
0.38
 44
0.18
 45
0.0
 46
0.0
 47
0.0
 48
0.0
140
0.18
141
0.09
142
0.0
143
25.4
144
1.0
145
0.0
146
1.0
147
0.09
 71
     0
 72
     0
 73
     1
 74
     1
 75
     0
 76
     0
 77
     0
 78
     0
170
     0
171
     2
172
     0
173
     0
174
     0
175
     0
176
     0
177
     0
178
     0
  0
ENDTAB
  0
ENDSEC
  0
SECTION
  2
BLOCKS
  0
BLOCK
  8
1
  6
CONTINUOUS
 62
     1
  5
47C
  2
LDR
 70
     0
 10
0.0
 20
0.0
 30
0.0
  3
LNR
  0
POLYLINE
  8
1
  6
CONTINUOUS
 62
     1
  5
47D
 66
     1
 10
0.0
 20
0.0
 30
0.0
210
0.0
220
0.0
230
1.0
  0
VERTEX
  8
1
  6
CONTINUOUS
 62
     1
  5
47E
 10
-0.011987
 20
-0.001802
 30
0.0
 42
-0.265147
  0
VERTEX
  8
1
  6
CONTINUOUS
 62
     1
  5
47F
 10
-0.011849
 20
-0.001604
 30
0.0
 42
-0.064653
  0
VERTEX
  8
1
  6
CONTINUOUS
 62
     1
  5
480
 10
-0.011407
 20
-0.001387
 30
0.0
 42
-0.025822
  0
VERTEX
  8
1
  6
CONTINUOUS
 62
     1
  5
481
 10
-0.010681
 20
-0.00116
 30
0.0
 42
-0.014504
  0
VERTEX
  8
1
  6
CONTINUOUS
 62
     1
  5
482
 10
-0.0097
 20
-0.000933
 30
0.0
 42
-0.009896
  0
VERTEX
  8
1
  6
CONTINUOUS
 62
     1
  5
483
 10
-0.008505
 20
-0.000715
 30
0.0
 42
-0.007708
  0
VERTEX
  8
1
  6
CONTINUOUS
 62
     1
  5
484
 10
-0.007146
 20
-0.000515
 30
0.0
 42
-0.006655
  0
VERTEX
  8
1
  6
CONTINUOUS
 62
     1
  5
485
 10
-0.005679
 20
-0.000342
 30
0.0
 42
-0.006278
  0
VERTEX
  8
1
  6
CONTINUOUS
 62
     1
  5
486
 10
-0.004164
 20
-0.000202
 30
0.0
 42
-0.006439
  0
VERTEX
  8
1
  6
CONTINUOUS
 62
     1
  5
487
 10
-0.002666
 20
-0.000101
 30
0.0
 42
-0.007196
  0
VERTEX
  8
1
  6
CONTINUOUS
 62
     1
  5
488
 10
-0.001246
 20
-0.000044
 30
0.0
 42
-0.008852
  0
VERTEX
  8
1
  6
CONTINUOUS
 62
     1
  5
489
 10
0.000037
 20
-0.000034
 30
0.0
 42
-0.008852
  0
SEQEND
  8
1
  6
CONTINUOUS
 62
     1
  5
48A
  0
POLYLINE
  8
1
  6
CONTINUOUS
 62
     1
  5
48B
 66
     1
 10
0.0
 20
0.0
 30
0.0
210
0.0
220
0.0
230
1.0
  0
VERTEX
  8
1
  6
CONTINUOUS
 62
     1
  5
48C
 10
0.000039
 20
0.000014
 30
0.0
 42
-0.005019
  0
VERTEX
  8
1
  6
CONTINUOUS
 62
     1
  5
48D
 10
-0.001103
 20
0.000071
 30
0.0
 42
-0.004038
  0
VERTEX
  8
1
  6
CONTINUOUS
 62
     1
  5
48E
 10
-0.002373
 20
0.000158
 30
0.0
 42
-0.003548
  0
VERTEX
  8
1
  6
CONTINUOUS
 62
     1
  5
48F
 10
-0.003725
 20
0.00027
 30
0.0
 42
-0.003367
  0
VERTEX
  8
1
  6
CONTINUOUS
 62
     1
  5
490
 10
-0.005111
 20
0.000405
 30
0.0
 42
-0.003436
  0
VERTEX
  8
1
  6
CONTINUOUS
 62
     1
  5
491
 10
-0.006481
 20
0.000556
 30
0.0
 42
-0.003778
  0
VERTEX
  8
1
  6
CONTINUOUS
 62
     1
  5
492
 10
-0.007786
 20
0.00072
 30
0.0
 42
-0.00451
  0
VERTEX
  8
1
  6
CONTINUOUS
 62
     1
  5
493
 10
-0.008979
 20
0.000889
 30
0.0
 42
-0.00594
  0
VERTEX
  8
1
  6
CONTINUOUS
 62
     1
  5
494
 10
-0.010018
 20
0.001058
 30
0.0
 42
-0.008921
  0
VERTEX
  8
1
  6
CONTINUOUS
 62
     1
  5
495
 10
-0.010864
 20
0.00122
 30
0.0
 42
-0.016392
  0
VERTEX
  8
1
  6
CONTINUOUS
 62
     1
  5
496
 10
-0.011488
 20
0.001371
 30
0.0
 42
-0.04458
  0
VERTEX
  8
1
  6
CONTINUOUS
 62
     1
  5
497
 10
-0.011867
 20
0.001503
 30
0.0
 42
-0.317392
  0
VERTEX
  8
1
  6
CONTINUOUS
 62
     1
  5
498
 10
-0.011987
 20
0.001614
 30
0.0
 42
-0.317392
  0
SEQEND
  8
1
  6
CONTINUOUS
 62
     1
  5
499
  0
ENDBLK
  8
1
  6
CONTINUOUS
 62
     1
  5
49A
  0
ENDSEC
  0
SECTION
  2
ENTITIES
  0
LINE
  8
1
  6
CONTINUOUS
 62
     5
  5
29
 10
-91.027917
 20
142.662333
 30
0.0
 11
-57.514583
 21
142.662333
 31
0.0
  0
LINE
  8
1
  6
CONTINUOUS
 62
     5
  5
2A
 10
-91.027917
 20
142.662333
 30
0.0
 11
-91.027917
 21
112.554
 31
0.0
  0
LINE
  8
1
  6
CONTINUOUS
 62
     5
  5
2B
 10
-72.919583
 20
142.662333
 30
0.0
 11
-72.919583
 21
104.312333
 31
0.0
  0
LINE
  8
1
  6
CONTINUOUS
 62
     5
  5
2C
 10
-72.072917
 20
142.662333
 30
0.0
 11
-72.072917
 21
104.497333
 31
0.0
  0
LINE
  8
1
  6
CONTINUOUS
 62
     5
  5
2D
 10
-76.11125
 20
104.312333
 30
0.0
 11
-72.919583
 21
104.312333
 31
0.0
  0
LINE
  8
1
  6
CONTINUOUS
 62
     5
  5
2E
 10
-102.514583
 20
102.855667
 30
0.0
 11
-57.514583
 21
102.855667
 31
0.0
  0
LINE
  8
1
  6
CONTINUOUS
 62
     5
  5
2F
 10
-102.514583
 20
99.152333
 30
0.0
 11
-57.514583
 21
99.152333
 31
0.0
  0
LINE
  8
1
  6
CONTINUOUS
 62
     5
  5
30
 10
-102.514583
 20
103.819
 30
0.0
 11
-102.514583
 21
99.152333
 31
0.0
  0
LINE
  8
1
  6
CONTINUOUS
 62
     5
  5
31
 10
-72.072917
 20
108.470667
 30
0.0
 11
-71.067917
 21
108.470667
 31
0.0
  0
LINE
  8
1
  6
CONTINUOUS
 62
     5
  5
32
 10
-71.067917
 20
104.347333
 30
0.0
 11
-64.352917
 21
104.347333
 31
0.0
  0
LINE
  8
1
  6
CONTINUOUS
 62
     5
  5
33
 10
-71.067917
 20
104.347333
 30
0.0
 11
-71.067917
 21
108.470667
 31
0.0
  0
LINE
  8
1
  6
CONTINUOUS
 62
     5
  5
34
 10
-103.857917
 20
89.197333
 30
0.0
 11
-103.857917
 21
112.554
 31
0.0
  0
LINE
  8
1
  6
CONTINUOUS
 62
     5
  5
35
 10
-103.239583
 20
89.197333
 30
0.0
 11
-103.239583
 21
112.554
 31
0.0
  0
POLYLINE
  8
1
  6
CONTINUOUS
 62
     5
  5
36
 66
     1
 10
0.0
 20
0.0
 30
0.0
 70
     1
  0
VERTEX
  8
1
  6
CONTINUOUS
 62
     5
  5
37
 10
-77.332917
 20
142.659
 30
0.0
  0
VERTEX
  8
1
  6
CONTINUOUS
 62
     5
  5
38
 10
-74.89625
 20
142.659
 30
0.0
  0
VERTEX
  8
1
  6
CONTINUOUS
 62
     5
  5
39
 10
-74.89625
 20
139.982333
 30
0.0
  0
VERTEX
  8
1
  6
CONTINUOUS
 62
     5
  5
3A
 10
-77.332917
 20
139.982333
 30
0.0
  0
SEQEND
  8
1
  6
CONTINUOUS
 62
     5
  5
3B
  0
LINE
  8
1
  6
CONTINUOUS
 62
     5
  5
3C
 10
-76.71125
 20
142.062333
 30
0.0
 11
-75.51125
 21
142.062333
 31
0.0
  0
LINE
  8
1
  6
CONTINUOUS
 62
     5
  5
3D
 10
-91.027917
 20
141.000667
 30
0.0
 11
-77.332917
 21
141.000667
 31
0.0
  0
LINE
  8
1
  6
CONTINUOUS
 62
     5
  5
3E
 10
-76.71125
 20
141.000667
 30
0.0
 11
-75.51125
 21
141.000667
 31
0.0
  0
LINE
  8
1
  6
CONTINUOUS
 62
     5
  5
3F
 10
-76.11125
 20
142.062333
 30
0.0
 11
-76.11125
 21
141.000667
 31
0.0
  0
POLYLINE
  8
1
  6
CONTINUOUS
 62
     5
  5
40
 66
     1
 10
0.0
 20
0.0
 30
0.0
 70
     1
  0
VERTEX
  8
1
  6
CONTINUOUS
 62
     5
  5
41
 10
-77.329583
 20
127.377333
 30
0.0
  0
VERTEX
  8
1
  6
CONTINUOUS
 62
     5
  5
42
 10
-74.892917
 20
127.377333
 30
0.0
  0
VERTEX
  8
1
  6
CONTINUOUS
 62
     5
  5
43
 10
-74.892917
 20
124.700667
 30
0.0
  0
VERTEX
  8
1
  6
CONTINUOUS
 62
     5
  5
44
 10
-77.329583
 20
124.700667
 30
0.0
  0
SEQEND
  8
1
  6
CONTINUOUS
 62
     5
  5
45
  0
LINE
  8
1
  6
CONTINUOUS
 62
     5
  5
46
 10
-76.707917
 20
126.780667
 30
0.0
 11
-75.507917
 21
126.780667
 31
0.0
  0
LINE
  8
1
  6
CONTINUOUS
 62
     5
  5
47
 10
-76.707917
 20
125.719
 30
0.0
 11
-75.507917
 21
125.719
 31
0.0
  0
LINE
  8
1
  6
CONTINUOUS
 62
     5
  5
48
 10
-76.107917
 20
126.780667
 30
0.0
 11
-76.107917
 21
125.719
 31
0.0
  0
LINE
  8
1
  6
CONTINUOUS
 62
     5
  5
49
 10
-76.11125
 20
139.982333
 30
0.0
 11
-76.11125
 21
127.377333
 31
0.0
  0
LINE
  8
1
  6
CONTINUOUS
 62
     5
  5
4A
 10
-91.027917
 20
126.047333
 30
0.0
 11
-77.332917
 21
126.047333
 31
0.0
  0
LINE
  8
1
  6
CONTINUOUS
 62
     5
  5
4B
 10
-76.11125
 20
124.700667
 30
0.0
 11
-76.11125
 21
114.004
 31
0.0
  0
LINE
  8
1
  6
CONTINUOUS
 62
     5
  5
4C
 10
-76.11125
 20
111.327333
 30
0.0
 11
-76.11125
 21
104.312333
 31
0.0
  0
POLYLINE
  8
1
  6
CONTINUOUS
 62
     5
  5
4D
 66
     1
 10
0.0
 20
0.0
 30
0.0
 70
     1
  0
VERTEX
  8
1
  6
CONTINUOUS
 62
     5
  5
4E
 10
-77.329583
 20
114.004
 30
0.0
  0
VERTEX
  8
1
  6
CONTINUOUS
 62
     5
  5
4F
 10
-74.892917
 20
114.004
 30
0.0
  0
VERTEX
  8
1
  6
CONTINUOUS
 62
     5
  5
50
 10
-74.892917
 20
111.327333
 30
0.0
  0
VERTEX
  8
1
  6
CONTINUOUS
 62
     5
  5
51
 10
-77.329583
 20
111.327333
 30
0.0
  0
SEQEND
  8
1
  6
CONTINUOUS
 62
     5
  5
52
  0
LINE
  8
1
  6
CONTINUOUS
 62
     5
  5
53
 10
-76.707917
 20
113.407333
 30
0.0
 11
-75.507917
 21
113.407333
 31
0.0
  0
LINE
  8
1
  6
CONTINUOUS
 62
     5
  5
54
 10
-76.707917
 20
112.345667
 30
0.0
 11
-75.507917
 21
112.345667
 31
0.0
  0
LINE
  8
1
  6
CONTINUOUS
 62
     5
  5
55
 10
-76.107917
 20
113.407333
 30
0.0
 11
-76.107917
 21
112.345667
 31
0.0
  0
LINE
  8
1
  6
CONTINUOUS
 62
     5
  5
56
 10
-133.362917
 20
112.554
 30
0.0
 11
-77.329583
 21
112.554
 31
0.0
  0
POLYLINE
  8
1
  6
CONTINUOUS
 62
     5
  5
57
 66
     1
 10
0.0
 20
0.0
 30
0.0
 70
     1
  0
VERTEX
  8
1
  6
CONTINUOUS
 62
     5
  5
58
 10
-107.72125
 20
112.554
 30
0.0
  0
VERTEX
  8
1
  6
CONTINUOUS
 62
     5
  5
59
 10
-105.284583
 20
112.554
 30
0.0
  0
VERTEX
  8
1
  6
CONTINUOUS
 62
     5
  5
5A
 10
-105.284583
 20
109.877333
 30
0.0
  0
VERTEX
  8
1
  6
CONTINUOUS
 62
     5
  5
5B
 10
-107.72125
 20
109.877333
 30
0.0
  0
SEQEND
  8
1
  6
CONTINUOUS
 62
     5
  5
5C
  0
LINE
  8
1
  6
CONTINUOUS
 62
     5
  5
5D
 10
-107.099583
 20
111.957333
 30
0.0
 11
-105.899583
 21
111.957333
 31
0.0
  0
LINE
  8
1
  6
CONTINUOUS
 62
     5
  5
5E
 10
-107.099583
 20
110.895667
 30
0.0
 11
-105.899583
 21
110.895667
 31
0.0
  0
LINE
  8
1
  6
CONTINUOUS
 62
     5
  5
5F
 10
-106.499583
 20
111.957333
 30
0.0
 11
-106.499583
 21
110.895667
 31
0.0
  0
POLYLINE
  8
1
  6
CONTINUOUS
 62
     5
  5
60
 66
     1
 10
0.0
 20
0.0
 30
0.0
 70
     1
  0
VERTEX
  8
1
  6
CONTINUOUS
 62
     5
  5
61
 10
-102.26125
 20
112.554
 30
0.0
  0
VERTEX
  8
1
  6
CONTINUOUS
 62
     5
  5
62
 10
-99.824583
 20
112.554
 30
0.0
  0
VERTEX
  8
1
  6
CONTINUOUS
 62
     5
  5
63
 10
-99.824583
 20
109.877333
 30
0.0
  0
VERTEX
  8
1
  6
CONTINUOUS
 62
     5
  5
64
 10
-102.26125
 20
109.877333
 30
0.0
  0
SEQEND
  8
1
  6
CONTINUOUS
 62
     5
  5
65
  0
LINE
  8
1
  6
CONTINUOUS
 62
     5
  5
66
 10
-101.639583
 20
111.957333
 30
0.0
 11
-100.439583
 21
111.957333
 31
0.0
  0
LINE
  8
1
  6
CONTINUOUS
 62
     5
  5
67
 10
-101.639583
 20
110.895667
 30
0.0
 11
-100.439583
 21
110.895667
 31
0.0
  0
LINE
  8
1
  6
CONTINUOUS
 62
     5
  5
68
 10
-101.039583
 20
111.957333
 30
0.0
 11
-101.039583
 21
110.895667
 31
0.0
  0
POLYLINE
  8
1
  6
CONTINUOUS
 62
     5
  5
69
 66
     1
 10
0.0
 20
0.0
 30
0.0
 70
     1
  0
VERTEX
  8
1
  6
CONTINUOUS
 62
     5
  5
6A
 10
-107.724583
 20
97.175667
 30
0.0
  0
VERTEX
  8
1
  6
CONTINUOUS
 62
     5
  5
6B
 10
-105.287917
 20
97.175667
 30
0.0
  0
VERTEX
  8
1
  6
CONTINUOUS
 62
     5
  5
6C
 10
-105.287917
 20
94.499
 30
0.0
  0
VERTEX
  8
1
  6
CONTINUOUS
 62
     5
  5
6D
 10
-107.724583
 20
94.499
 30
0.0
  0
SEQEND
  8
1
  6
CONTINUOUS
 62
     5
  5
6E
  0
LINE
  8
1
  6
CONTINUOUS
 62
     5
  5
6F
 10
-107.102917
 20
96.579
 30
0.0
 11
-105.902917
 21
96.579
 31
0.0
  0
LINE
  8
1
  6
CONTINUOUS
 62
     5
  5
70
 10
-107.102917
 20
95.517333
 30
0.0
 11
-105.902917
 21
95.517333
 31
0.0
  0
LINE
  8
1
  6
CONTINUOUS
 62
     5
  5
71
 10
-106.502917
 20
96.579
 30
0.0
 11
-106.502917
 21
95.517333
 31
0.0
  0
LINE
  8
1
  6
CONTINUOUS
 62
     5
  5
72
 10
-133.362917
 20
111.054
 30
0.0
 11
-107.72125
 21
111.054
 31
0.0
  0
LINE
  8
1
  6
CONTINUOUS
 62
     5
  5
73
 10
-105.284583
 20
111.054
 30
0.0
 11
-102.26125
 21
111.054
 31
0.0
  0
LINE
  8
1
  6
CONTINUOUS
 62
     5
  5
74
 10
-106.502917
 20
89.197333
 30
0.0
 11
-106.502917
 21
94.499
 31
0.0
  0
LINE
  8
1
  6
CONTINUOUS
 62
     5
  5
75
 10
-106.502917
 20
97.175667
 30
0.0
 11
-106.502917
 21
109.877333
 31
0.0
  0
LINE
  8
1
  6
CONTINUOUS
 62
     5
  5
76
 10
-91.027917
 20
129.039
 30
0.0
 11
-76.11125
 21
129.039
 31
0.0
  0
LINE
  8
1
  6
CONTINUOUS
 62
     5
  5
77
 10
-72.919583
 20
129.039
 30
0.0
 11
-57.514583
 21
129.039
 31
0.0
  0
LINE
  8
1
  6
CONTINUOUS
 62
     5
  5
78
 10
-74.114583
 20
105.175667
 30
0.0
 11
-57.514583
 21
105.175667
 31
0.0
  0
LINE
  8
1
  6
CONTINUOUS
 62
     5
  5
79
 10
-99.824583
 20
111.054
 30
0.0
 11
-74.514583
 21
111.054
 31
0.0
  0
LINE
  8
1
  6
CONTINUOUS
 62
     5
  5
7A
 10
-73.914583
 20
111.054
 30
0.0
 11
-57.514583
 21
111.054
 31
0.0
  0
LINE
  8
1
  6
CONTINUOUS
 62
     5
  5
7B
 10
-74.892917
 20
112.554
 30
0.0
 11
-74.514583
 21
112.554
 31
0.0
  0
LINE
  8
1
  6
CONTINUOUS
 62
     5
  5
7C
 10
-73.914583
 20
112.554
 30
0.0
 11
-57.514583
 21
112.554
 31
0.0
  0
LINE
  8
1
  6
CONTINUOUS
 62
     5
  5
7D
 10
-91.027917
 20
114.004
 30
0.0
 11
-74.514583
 21
114.004
 31
0.0
  0
LINE
  8
1
  6
CONTINUOUS
 62
     5
  5
7E
 10
-73.914583
 20
114.004
 30
0.0
 11
-57.514583
 21
114.004
 31
0.0
  0
LINE
  8
1
  6
CONTINUOUS
 62
     5
  5
7F
 10
-91.027917
 20
120.015667
 30
0.0
 11
-74.914583
 21
120.015667
 31
0.0
  0
LINE
  8
1
  6
CONTINUOUS
 62
     5
  5
80
 10
-74.114583
 20
120.015667
 30
0.0
 11
-57.514583
 21
120.015667
 31
0.0
  0
LINE
  8
1
  6
CONTINUOUS
 62
     5
  5
81
 10
-74.89625
 20
126.047333
 30
0.0
 11
-74.714583
 21
126.047333
 31
0.0
  0
LINE
  8
1
  6
CONTINUOUS
 62
     5
  5
82
 10
-74.114583
 20
126.047333
 30
0.0
 11
-57.514583
 21
126.047333
 31
0.0
  0
LINE
  8
1
  6
CONTINUOUS
 62
     5
  5
83
 10
-91.027917
 20
127.377333
 30
0.0
 11
-74.714583
 21
127.377333
 31
0.0
  0
LINE
  8
1
  6
CONTINUOUS
 62
     5
  5
84
 10
-74.114583
 20
127.377333
 30
0.0
 11
-57.514583
 21
127.377333
 31
0.0
  0
LINE
  8
1
  6
CONTINUOUS
 62
     5
  5
85
 10
-76.11125
 20
129.039
 30
0.0
 11
-74.914583
 21
129.039
 31
0.0
  0
LINE
  8
1
  6
CONTINUOUS
 62
     5
  5
86
 10
-74.114583
 20
129.039
 30
0.0
 11
-72.919583
 21
129.039
 31
0.0
  0
LINE
  8
1
  6
CONTINUOUS
 62
     5
  5
87
 10
-74.89625
 20
141.000667
 30
0.0
 11
-74.714583
 21
141.000667
 31
0.0
  0
LINE
  8
1
  6
CONTINUOUS
 62
     5
  5
88
 10
-74.114583
 20
141.000667
 30
0.0
 11
-57.514583
 21
141.000667
 31
0.0
  0
LINE
  8
1
  6
CONTINUOUS
 62
     5
  5
89
 10
-91.027917
 20
134.964
 30
0.0
 11
-74.914583
 21
134.964
 31
0.0
  0
LINE
  8
1
  6
CONTINUOUS
 62
     5
  5
8A
 10
-74.114583
 20
134.964
 30
0.0
 11
-57.514583
 21
134.964
 31
0.0
  0
LINE
  8
1
  6
CONTINUOUS
 62
     5
  5
8B
 10
-74.184583
 20
107.549
 30
0.0
 11
-74.184583
 21
111.137333
 31
0.0
  0
LINE
  8
1
  6
CONTINUOUS
 62
     5
  5
8C
 10
-74.184583
 20
113.937333
 30
0.0
 11
-74.184583
 21
117.319
 31
0.0
  0
LINE
  8
1
  6
CONTINUOUS
 62
     5
  5
8D
 10
-74.184583
 20
113.137333
 30
0.0
 11
-74.184583
 21
111.937333
 31
0.0
  0
LINE
  8
1
  6
CONTINUOUS
 62
     5
  5
8E
 10
-133.362917
 20
105.175667
 30
0.0
 11
-105.257917
 21
105.175667
 31
0.0
  0
LINE
  8
1
  6
CONTINUOUS
 62
     5
  5
8F
 10
-104.257917
 20
105.175667
 30
0.0
 11
-102.839583
 21
105.175667
 31
0.0
  0
LINE
  8
1
  6
CONTINUOUS
 62
     5
  5
90
 10
-101.839583
 20
105.175667
 30
0.0
 11
-74.914583
 21
105.175667
 31
0.0
  0
LINE
  8
1
  6
CONTINUOUS
 62
     5
  5
91
 10
-133.362917
 20
103.819
 30
0.0
 11
-105.257917
 21
103.819
 31
0.0
  0
LINE
  8
1
  6
CONTINUOUS
 62
     5
  5
92
 10
-104.257917
 20
103.819
 30
0.0
 11
-102.839583
 21
103.819
 31
0.0
  0
LINE
  8
1
  6
CONTINUOUS
 62
     5
  5
93
 10
-102.514583
 20
103.819
 30
0.0
 11
-57.514583
 21
103.819
 31
0.0
  0
LINE
  8
1
  6
CONTINUOUS
 62
     5
  5
94
 10
-133.362917
 20
97.940667
 30
0.0
 11
-105.242917
 21
97.940667
 31
0.0
  0
LINE
  8
1
  6
CONTINUOUS
 62
     5
  5
95
 10
-104.257917
 20
97.940667
 30
0.0
 11
-102.839583
 21
97.940667
 31
0.0
  0
LINE
  8
1
  6
CONTINUOUS
 62
     5
  5
96
 10
-101.839583
 20
97.940667
 30
0.0
 11
-57.514583
 21
97.940667
 31
0.0
  0
LINE
  8
1
  6
CONTINUOUS
 62
     5
  5
97
 10
-133.362917
 20
96.734
 30
0.0
 11
-107.724583
 21
96.734
 31
0.0
  0
LINE
  8
1
  6
CONTINUOUS
 62
     5
  5
98
 10
-104.257917
 20
96.734
 30
0.0
 11
-102.839583
 21
96.734
 31
0.0
  0
LINE
  8
1
  6
CONTINUOUS
 62
     5
  5
99
 10
-101.839583
 20
96.734
 30
0.0
 11
-57.514583
 21
96.734
 31
0.0
  0
LINE
  8
1
  6
CONTINUOUS
 62
     5
  5
9A
 10
-133.362917
 20
95.377333
 30
0.0
 11
-107.724583
 21
95.377333
 31
0.0
  0
LINE
  8
1
  6
CONTINUOUS
 62
     5
  5
9B
 10
-104.257917
 20
95.377333
 30
0.0
 11
-102.839583
 21
95.377333
 31
0.0
  0
LINE
  8
1
  6
CONTINUOUS
 62
     5
  5
9C
 10
-101.839583
 20
95.377333
 30
0.0
 11
-57.514583
 21
95.377333
 31
0.0
  0
LINE
  8
1
  6
CONTINUOUS
 62
     5
  5
9D
 10
-101.042917
 20
89.197333
 30
0.0
 11
-101.042917
 21
100.434
 31
0.0
  0
LINE
  8
1
  6
CONTINUOUS
 62
     5
  5
9E
 10
-101.042917
 20
101.339
 30
0.0
 11
-101.042917
 21
109.877333
 31
0.0
  0
LINE
  8
1
  6
CONTINUOUS
 62
     5
  5
9F
 10
-57.514583
 20
142.662333
 30
0.0
 11
-57.514583
 21
141.000667
 31
0.0
  0
LINE
  8
1
  6
CONTINUOUS
 62
     5
  5
A0
 10
-58.914583
 20
137.982333
 30
0.0
 11
-56.114583
 21
137.982333
 31
0.0
  0
LINE
  8
1
  6
CONTINUOUS
 62
     5
  5
A1
 10
-56.114583
 20
137.982333
 30
0.0
 11
-57.53125
 21
138.609
 31
0.0
  0
LINE
  8
1
  6
CONTINUOUS
 62
     5
  5
A2
 10
-57.497917
 20
137.355667
 30
0.0
 11
-58.914583
 21
137.982333
 31
0.0
  0
LINE
  8
1
  6
CONTINUOUS
 62
     5
  5
A3
 10
-57.514583
 20
141.000667
 30
0.0
 11
-57.514583
 21
138.602333
 31
0.0
  0
LINE
  8
1
  6
CONTINUOUS
 62
     5
  5
A4
 10
-57.514583
 20
137.362333
 30
0.0
 11
-57.514583
 21
134.964
 31
0.0
  0
LINE
  8
1
  6
CONTINUOUS
 62
     5
  5
A5
 10
-57.514583
 20
134.964
 30
0.0
 11
-57.514583
 21
129.039
 31
0.0
  0
LINE
  8
1
  6
CONTINUOUS
 62
     5
  5
A6
 10
-57.514583
 20
129.039
 30
0.0
 11
-57.514583
 21
126.047333
 31
0.0
  0
LINE
  8
1
  6
CONTINUOUS
 62
     5
  5
A7
 10
-57.514583
 20
126.047333
 30
0.0
 11
-57.514583
 21
120.015667
 31
0.0
  0
LINE
  8
1
  6
CONTINUOUS
 62
     5
  5
A8
 10
-58.914583
 20
132.002333
 30
0.0
 11
-56.114583
 21
132.002333
 31
0.0
  0
LINE
  8
1
  6
CONTINUOUS
 62
     5
  5
A9
 10
-56.114583
 20
132.002333
 30
0.0
 11
-57.53125
 21
132.629
 31
0.0
  0
LINE
  8
1
  6
CONTINUOUS
 62
     5
  5
AA
 10
-57.497917
 20
131.375667
 30
0.0
 11
-58.914583
 21
132.002333
 31
0.0
  0
LINE
  8
1
  6
CONTINUOUS
 62
     5
  5
AB
 10
-58.914583
 20
123.032333
 30
0.0
 11
-56.114583
 21
123.032333
 31
0.0
  0
LINE
  8
1
  6
CONTINUOUS
 62
     5
  5
AC
 10
-56.114583
 20
123.032333
 30
0.0
 11
-57.53125
 21
123.659
 31
0.0
  0
LINE
  8
1
  6
CONTINUOUS
 62
     5
  5
AD
 10
-57.497917
 20
122.405667
 30
0.0
 11
-58.914583
 21
123.032333
 31
0.0
  0
LINE
  8
1
  6
CONTINUOUS
 62
     5
  5
AE
 10
-58.914583
 20
117.010667
 30
0.0
 11
-56.114583
 21
117.010667
 31
0.0
  0
LINE
  8
1
  6
CONTINUOUS
 62
     5
  5
AF
 10
-56.114583
 20
117.010667
 30
0.0
 11
-57.53125
 21
117.637333
 31
0.0
  0
LINE
  8
1
  6
CONTINUOUS
 62
     5
  5
B0
 10
-57.497917
 20
116.384
 30
0.0
 11
-58.914583
 21
117.010667
 31
0.0
  0
LINE
  8
1
  6
CONTINUOUS
 62
     5
  5
B1
 10
-57.514583
 20
114.004
 30
0.0
 11
-57.514583
 21
111.054
 31
0.0
  0
LINE
  8
1
  6
CONTINUOUS
 62
     5
  5
B2
 10
-57.514583
 20
105.175667
 30
0.0
 11
-57.514583
 21
102.855667
 31
0.0
  0
LINE
  8
1
  6
CONTINUOUS
 62
     5
  5
B3
 10
-57.514583
 20
99.152333
 30
0.0
 11
-57.514583
 21
95.377333
 31
0.0
  0
LINE
  8
1
  6
CONTINUOUS
 62
     5
  5
B4
 10
-58.914583
 20
108.115667
 30
0.0
 11
-56.114583
 21
108.115667
 31
0.0
  0
LINE
  8
1
  6
CONTINUOUS
 62
     5
  5
B5
 10
-56.114583
 20
108.115667
 30
0.0
 11
-57.53125
 21
108.742333
 31
0.0
  0
LINE
  8
1
  6
CONTINUOUS
 62
     5
  5
B6
 10
-57.497917
 20
107.489
 30
0.0
 11
-58.914583
 21
108.115667
 31
0.0
  0
LINE
  8
1
  6
CONTINUOUS
 62
     5
  5
B7
 10
-58.914583
 20
101.004
 30
0.0
 11
-56.114583
 21
101.004
 31
0.0
  0
LINE
  8
1
  6
CONTINUOUS
 62
     5
  5
B8
 10
-56.114583
 20
101.004
 30
0.0
 11
-57.53125
 21
101.630667
 31
0.0
  0
LINE
  8
1
  6
CONTINUOUS
 62
     5
  5
B9
 10
-57.497917
 20
100.377333
 30
0.0
 11
-58.914583
 21
101.004
 31
0.0
  0
LINE
  8
1
  6
CONTINUOUS
 62
     5
  5
BA
 10
-58.914583
 20
92.287333
 30
0.0
 11
-56.114583
 21
92.287333
 31
0.0
  0
LINE
  8
1
  6
CONTINUOUS
 62
     5
  5
BB
 10
-56.114583
 20
92.287333
 30
0.0
 11
-57.53125
 21
92.914
 31
0.0
  0
LINE
  8
1
  6
CONTINUOUS
 62
     5
  5
BC
 10
-57.497917
 20
91.660667
 30
0.0
 11
-58.914583
 21
92.287333
 31
0.0
  0
LINE
  8
1
  6
CONTINUOUS
 62
     5
  5
BD
 10
-57.514583
 20
95.377333
 30
0.0
 11
-57.514583
 21
92.907333
 31
0.0
  0
LINE
  8
1
  6
CONTINUOUS
 62
     5
  5
BE
 10
-57.514583
 20
91.667333
 30
0.0
 11
-57.514583
 21
89.197333
 31
0.0
  0
LINE
  8
1
  6
CONTINUOUS
 62
     5
  5
BF
 10
-57.514583
 20
102.855667
 30
0.0
 11
-57.514583
 21
101.624
 31
0.0
  0
LINE
  8
1
  6
CONTINUOUS
 62
     5
  5
C0
 10
-57.514583
 20
100.384
 30
0.0
 11
-57.514583
 21
99.152333
 31
0.0
  0
LINE
  8
1
  6
CONTINUOUS
 62
     5
  5
C1
 10
-57.514583
 20
111.054
 30
0.0
 11
-57.514583
 21
108.735667
 31
0.0
  0
LINE
  8
1
  6
CONTINUOUS
 62
     5
  5
C2
 10
-57.514583
 20
107.495667
 30
0.0
 11
-57.514583
 21
105.175667
 31
0.0
  0
LINE
  8
1
  6
CONTINUOUS
 62
     5
  5
C3
 10
-57.514583
 20
120.015667
 30
0.0
 11
-57.514583
 21
117.630667
 31
0.0
  0
LINE
  8
1
  6
CONTINUOUS
 62
     5
  5
C4
 10
-57.514583
 20
116.390667
 30
0.0
 11
-57.514583
 21
114.004
 31
0.0
  0
LINE
  8
1
  6
CONTINUOUS
 62
     5
  5
C5
 10
-68.87125
 20
87.797333
 30
0.0
 11
-68.87125
 21
90.597333
 31
0.0
  0
LINE
  8
1
  6
CONTINUOUS
 62
     5
  5
C6
 10
-68.87125
 20
90.597333
 30
0.0
 11
-69.497917
 21
89.180667
 31
0.0
  0
LINE
  8
1
  6
CONTINUOUS
 62
     5
  5
C7
 10
-68.244583
 20
89.214
 30
0.0
 11
-68.87125
 21
87.797333
 31
0.0
  0
LINE
  8
1
  6
CONTINUOUS
 62
     5
  5
C8
 10
-125.309583
 20
87.797333
 30
0.0
 11
-125.309583
 21
90.597333
 31
0.0
  0
LINE
  8
1
  6
CONTINUOUS
 62
     5
  5
C9
 10
-125.309583
 20
90.597333
 30
0.0
 11
-125.93625
 21
89.180667
 31
0.0
  0
LINE
  8
1
  6
CONTINUOUS
 62
     5
  5
CA
 10
-124.682917
 20
89.214
 30
0.0
 11
-125.309583
 21
87.797333
 31
0.0
  0
LINE
  8
1
  6
CONTINUOUS
 62
     5
  5
CB
 10
-95.649583
 20
87.797333
 30
0.0
 11
-95.649583
 21
90.597333
 31
0.0
  0
LINE
  8
1
  6
CONTINUOUS
 62
     5
  5
CC
 10
-95.649583
 20
90.597333
 30
0.0
 11
-96.27625
 21
89.180667
 31
0.0
  0
LINE
  8
1
  6
CONTINUOUS
 62
     5
  5
CD
 10
-95.022917
 20
89.214
 30
0.0
 11
-95.649583
 21
87.797333
 31
0.0
  0
LINE
  8
1
  6
CONTINUOUS
 62
     5
  5
CE
 10
-133.362917
 20
89.197333
 30
0.0
 11
-125.929583
 21
89.197333
 31
0.0
  0
LINE
  8
1
  6
CONTINUOUS
 62
     5
  5
CF
 10
-124.689583
 20
89.197333
 30
0.0
 11
-96.269583
 21
89.197333
 31
0.0
  0
LINE
  8
1
  6
CONTINUOUS
 62
     5
  5
D0
 10
-95.029583
 20
89.197333
 30
0.0
 11
-91.079583
 21
89.197333
 31
0.0
  0
LINE
  8
1
  6
CONTINUOUS
 62
     5
  5
D1
 10
-91.079583
 20
89.197333
 30
0.0
 11
-69.49125
 21
89.197333
 31
0.0
  0
LINE
  8
1
  6
CONTINUOUS
 62
     5
  5
D2
 10
-68.25125
 20
89.197333
 30
0.0
 11
-57.514583
 21
89.197333
 31
0.0
  0
LINE
  8
1
  6
CONTINUOUS
 62
     5
  5
D3
 10
-133.362917
 20
111.054
 30
0.0
 11
-133.362917
 21
112.554
 31
0.0
  0
LINE
  8
1
  6
CONTINUOUS
 62
     5
  5
D4
 10
-133.362917
 20
103.819
 30
0.0
 11
-133.362917
 21
105.175667
 31
0.0
  0
LINE
  8
1
  6
CONTINUOUS
 62
     5
  5
D5
 10
-133.362917
 20
95.377333
 30
0.0
 11
-133.362917
 21
97.940667
 31
0.0
  0
LINE
  8
1
  6
CONTINUOUS
 62
     5
  5
D6
 10
-134.762917
 20
108.115667
 30
0.0
 11
-131.962917
 21
108.115667
 31
0.0
  0
LINE
  8
1
  6
CONTINUOUS
 62
     5
  5
D7
 10
-131.962917
 20
108.115667
 30
0.0
 11
-133.379583
 21
108.742333
 31
0.0
  0
LINE
  8
1
  6
CONTINUOUS
 62
     5
  5
D8
 10
-133.34625
 20
107.489
 30
0.0
 11
-134.762917
 21
108.115667
 31
0.0
  0
LINE
  8
1
  6
CONTINUOUS
 62
     5
  5
D9
 10
-134.762917
 20
100.880667
 30
0.0
 11
-131.962917
 21
100.880667
 31
0.0
  0
LINE
  8
1
  6
CONTINUOUS
 62
     5
  5
DA
 10
-131.962917
 20
100.880667
 30
0.0
 11
-133.379583
 21
101.507333
 31
0.0
  0
LINE
  8
1
  6
CONTINUOUS
 62
     5
  5
DB
 10
-133.34625
 20
100.254
 30
0.0
 11
-134.762917
 21
100.880667
 31
0.0
  0
LINE
  8
1
  6
CONTINUOUS
 62
     5
  5
DC
 10
-134.762917
 20
92.287333
 30
0.0
 11
-131.962917
 21
92.287333
 31
0.0
  0
LINE
  8
1
  6
CONTINUOUS
 62
     5
  5
DD
 10
-131.962917
 20
92.287333
 30
0.0
 11
-133.379583
 21
92.914
 31
0.0
  0
LINE
  8
1
  6
CONTINUOUS
 62
     5
  5
DE
 10
-133.34625
 20
91.660667
 30
0.0
 11
-134.762917
 21
92.287333
 31
0.0
  0
LINE
  8
1
  6
CONTINUOUS
 62
     5
  5
DF
 10
-133.362917
 20
105.175667
 30
0.0
 11
-133.362917
 21
107.495667
 31
0.0
  0
LINE
  8
1
  6
CONTINUOUS
 62
     5
  5
E0
 10
-133.362917
 20
108.735667
 30
0.0
 11
-133.362917
 21
111.054
 31
0.0
  0
LINE
  8
1
  6
CONTINUOUS
 62
     5
  5
E1
 10
-133.362917
 20
97.940667
 30
0.0
 11
-133.362917
 21
100.260667
 31
0.0
  0
LINE
  8
1
  6
CONTINUOUS
 62
     5
  5
E2
 10
-133.362917
 20
101.500667
 30
0.0
 11
-133.362917
 21
103.819
 31
0.0
  0
LINE
  8
1
  6
CONTINUOUS
 62
     5
  5
E3
 10
-133.362917
 20
89.197333
 30
0.0
 11
-133.362917
 21
91.667333
 31
0.0
  0
LINE
  8
1
  6
CONTINUOUS
 62
     5
  5
E4
 10
-133.362917
 20
92.907333
 30
0.0
 11
-133.362917
 21
95.377333
 31
0.0
  0
LINE
  8
1
  6
CONTINUOUS
 62
     5
  5
E5
 10
-72.919583
 20
143.262333
 30
0.0
 11
-72.919583
 21
151.755667
 31
0.0
  0
LINE
  8
1
  6
CONTINUOUS
 62
     5
  5
E6
 10
-91.027917
 20
151.155667
 30
0.0
 11
-72.919583
 21
151.155667
 31
0.0
  0
LINE
  8
1
  6
CONTINUOUS
 62
     5
  5
E7
 10
-72.919583
 20
151.155667
 30
0.0
 11
-57.514583
 21
151.155667
 31
0.0
  0
LINE
  8
1
  6
CONTINUOUS
 62
     5
  5
E8
 10
-133.962917
 20
103.819
 30
0.0
 11
-142.45625
 21
103.819
 31
0.0
  0
LINE
  8
1
  6
CONTINUOUS
 62
     5
  5
E9
 10
-133.962917
 20
112.422333
 30
0.0
 11
-142.45625
 21
112.422333
 31
0.0
  0
LINE
  8
1
  6
CONTINUOUS
 62
     5
  5
EA
 10
-133.962917
 20
89.049
 30
0.0
 11
-142.45625
 21
89.049
 31
0.0
  0
LINE
  8
1
  6
CONTINUOUS
 62
     5
  5
EB
 10
-142.45625
 20
112.422333
 30
0.0
 11
-150.949583
 21
112.422333
 31
0.0
  0
LINE
  8
1
  6
CONTINUOUS
 62
     5
  5
EC
 10
-142.45625
 20
89.049
 30
0.0
 11
-150.949583
 21
89.049
 31
0.0
  0
LINE
  8
1
  6
CONTINUOUS
 62
     5
  5
ED
 10
-91.627917
 20
142.662333
 30
0.0
 11
-150.949583
 21
142.662333
 31
0.0
  0
LINE
  8
1
  6
CONTINUOUS
 62
     5
  5
EE
 10
-150.349583
 20
142.662333
 30
0.0
 11
-150.349583
 21
112.422333
 31
0.0
  0
LINE
  8
1
  6
CONTINUOUS
 62
     5
  5
EF
 10
-150.349583
 20
112.422333
 30
0.0
 11
-150.349583
 21
89.049
 31
0.0
  0
LINE
  8
1
  6
CONTINUOUS
 62
     5
  5
F0
 10
-141.85625
 20
103.819
 30
0.0
 11
-141.85625
 21
112.422333
 31
0.0
  0
LINE
  8
1
  6
CONTINUOUS
 62
     5
  5
F1
 10
-103.239583
 20
79.994
 30
0.0
 11
-103.239583
 21
88.597333
 31
0.0
  0
LINE
  8
1
  6
CONTINUOUS
 62
     5
  5
F2
 10
-72.072917
 20
79.994
 30
0.0
 11
-72.072917
 21
100.898333
 31
0.0
  0
LINE
  8
1
  6
CONTINUOUS
 62
     5
  5
F3
 10
-103.239583
 20
80.594
 30
0.0
 11
-72.072917
 21
80.594
 31
0.0
  0
LINE
  8
1
  6
CONTINUOUS
 62
     5
  5
F4
 10
-69.709583
 20
100.645667
 30
0.0
 11
-69.709583
 21
108.649
 31
0.0
  0
LINE
  8
1
  6
CONTINUOUS
 62
     5
  5
F5
 10
-65.709583
 20
100.645667
 30
0.0
 11
-65.709583
 21
108.649
 31
0.0
  0
LINE
  8
1
  6
CONTINUOUS
 62
     5
  5
F6
 10
-73.166417
 20
101.645667
 30
0.0
 11
-69.709583
 21
101.645667
 31
0.0
  0
LINE
  8
1
  6
CONTINUOUS
 62
     5
  5
F7
 10
-76.114583
 20
142.659
 30
0.0
 11
-73.59125
 21
146.212333
 31
0.0
  0
LINE
  8
1
  6
CONTINUOUS
 62
     5
  5
F8
 10
-73.59125
 20
146.212333
 30
0.0
 11
-76.20625
 21
146.212333
 31
0.0
  0
LINE
  8
1
  6
CONTINUOUS
 62
     5
  5
F9
 10
-74.499583
 20
137.500667
 30
0.0
 11
-70.107917
 21
146.212333
 31
0.0
  0
LINE
  8
1
  6
CONTINUOUS
 62
     5
  5
FA
 10
-70.107917
 20
146.212333
 30
0.0
 11
-66.869583
 21
146.212333
 31
0.0
  0
LINE
  8
1
  6
CONTINUOUS
 62
     5
  5
FB
 10
-65.21625
 20
151.155667
 30
0.0
 11
-62.989583
 21
158.407333
 31
0.0
  0
LINE
  8
1
  6
CONTINUOUS
 62
     5
  5
FC
 10
-62.989583
 20
158.407333
 30
0.0
 11
-59.732917
 21
158.407333
 31
0.0
  0
LINE
  8
1
  6
CONTINUOUS
 62
     5
  5
FD
 10
-72.007917
 20
123.077333
 30
0.0
 11
-52.147917
 21
131.897333
 31
0.0
  0
LINE
  8
1
  6
CONTINUOUS
 62
     5
  5
FE
 10
-52.147917
 20
131.897333
 30
0.0
 11
-71.067917
 21
108.470667
 31
0.0
  0
LINE
  8
1
  6
CONTINUOUS
 62
     5
  5
FF
 10
-52.147917
 20
131.897333
 30
0.0
 11
-47.53125
 21
131.897333
 31
0.0
  0
LINE
  8
1
  6
CONTINUOUS
 62
     5
  5
100
 10
-63.264583
 20
111.884
 30
0.0
 11
-52.517917
 21
118.555667
 31
0.0
  0
LINE
  8
1
  6
CONTINUOUS
 62
     5
  5
101
 10
-52.517917
 20
118.555667
 30
0.0
 11
-47.552917
 21
118.555667
 31
0.0
  0
LINE
  8
1
  6
CONTINUOUS
 62
     5
  5
102
 10
-57.427917
 20
106.222333
 30
0.0
 11
-45.839583
 21
106.222333
 31
0.0
  0
LINE
  8
1
  6
CONTINUOUS
 62
     5
  5
103
 10
-65.709583
 20
101.645667
 30
0.0
 11
-45.839583
 21
101.645667
 31
0.0
  0
LINE
  8
1
  6
CONTINUOUS
 62
     5
  5
104
 10
-68.059583
 20
99.197333
 30
0.0
 11
-57.49125
 21
93.564
 31
0.0
  0
LINE
  8
1
  6
CONTINUOUS
 62
     5
  5
105
 10
-57.49125
 20
93.564
 30
0.0
 11
-45.839583
 21
93.564
 31
0.0
  0
LINE
  8
1
  6
CONTINUOUS
 62
     5
  5
106
 10
-106.502917
 20
91.849
 30
0.0
 11
-113.974583
 21
82.654
 31
0.0
  0
LINE
  8
1
  6
CONTINUOUS
 62
     5
  5
107
 10
-113.974583
 20
82.654
 30
0.0
 11
-117.507917
 21
82.654
 31
0.0
  0
LINE
  8
1
  6
CONTINUOUS
 62
     5
  5
108
 10
-74.184583
 20
117.045667
 30
0.0
 11
-114.252917
 21
117.045667
 31
0.0
  0
LINE
  8
1
  6
CONTINUOUS
 62
     5
  5
109
 10
-132.542917
 20
-111.449333
 30
0.0
 11
-25.40625
 21
-111.449333
 31
0.0
  0
LINE
  8
1
  6
CONTINUOUS
 62
     5
  5
10A
 10
-132.542917
 20
-45.017667
 30
0.0
 11
-132.542917
 21
-126.036
 31
0.0
  0
LINE
  8
1
  6
CONTINUOUS
 62
     5
  5
10B
 10
-78.779583
 20
-15.642667
 30
0.0
 11
-78.779583
 21
-45.017667
 31
0.0
  0
POLYLINE
  8
1
  6
CONTINUOUS
 62
     5
  5
10C
 66
     1
 10
0.0
 20
0.0
 30
0.0
 70
     1
  0
VERTEX
  8
1
  6
CONTINUOUS
 62
     5
  5
10D
 10
-55.314583
 20
-15.196
 30
0.0
  0
VERTEX
  8
1
  6
CONTINUOUS
 62
     5
  5
10E
 10
-52.877917
 20
-15.196
 30
0.0
  0
VERTEX
  8
1
  6
CONTINUOUS
 62
     5
  5
10F
 10
-52.877917
 20
-17.872667
 30
0.0
  0
VERTEX
  8
1
  6
CONTINUOUS
 62
     5
  5
110
 10
-55.314583
 20
-17.872667
 30
0.0
  0
SEQEND
  8
1
  6
CONTINUOUS
 62
     5
  5
111
  0
LINE
  8
1
  6
CONTINUOUS
 62
     5
  5
112
 10
-54.692917
 20
-15.792667
 30
0.0
 11
-53.492917
 21
-15.792667
 31
0.0
  0
LINE
  8
1
  6
CONTINUOUS
 62
     5
  5
113
 10
-54.692917
 20
-16.854333
 30
0.0
 11
-53.492917
 21
-16.854333
 31
0.0
  0
LINE
  8
1
  6
CONTINUOUS
 62
     5
  5
114
 10
-54.092917
 20
-15.792667
 30
0.0
 11
-54.092917
 21
-16.854333
 31
0.0
  0
LINE
  8
1
  6
CONTINUOUS
 62
     5
  5
115
 10
-78.779583
 20
-15.642667
 30
0.0
 11
-55.314583
 21
-15.642667
 31
0.0
  0
LINE
  8
1
  6
CONTINUOUS
 62
     5
  5
116
 10
-52.877917
 20
-15.642667
 30
0.0
 11
-25.40625
 21
-15.642667
 31
0.0
  0
LINE
  8
1
  6
CONTINUOUS
 62
     5
  5
117
 10
-78.779583
 20
-17.019333
 30
0.0
 11
-55.314583
 21
-17.019333
 31
0.0
  0
POLYLINE
  8
1
  6
CONTINUOUS
 62
     5
  5
118
 66
     1
 10
0.0
 20
0.0
 30
0.0
 70
     1
  0
VERTEX
  8
1
  6
CONTINUOUS
 62
     5
  5
119
 10
-55.324583
 20
-29.764333
 30
0.0
  0
VERTEX
  8
1
  6
CONTINUOUS
 62
     5
  5
11A
 10
-52.887917
 20
-29.764333
 30
0.0
  0
VERTEX
  8
1
  6
CONTINUOUS
 62
     5
  5
11B
 10
-52.887917
 20
-32.441
 30
0.0
  0
VERTEX
  8
1
  6
CONTINUOUS
 62
     5
  5
11C
 10
-55.324583
 20
-32.441
 30
0.0
  0
SEQEND
  8
1
  6
CONTINUOUS
 62
     5
  5
11D
  0
LINE
  8
1
  6
CONTINUOUS
 62
     5
  5
11E
 10
-54.702917
 20
-30.361
 30
0.0
 11
-53.502917
 21
-30.361
 31
0.0
  0
LINE
  8
1
  6
CONTINUOUS
 62
     5
  5
11F
 10
-54.702917
 20
-31.422667
 30
0.0
 11
-53.502917
 21
-31.422667
 31
0.0
  0
LINE
  8
1
  6
CONTINUOUS
 62
     5
  5
120
 10
-54.102917
 20
-30.361
 30
0.0
 11
-54.102917
 21
-31.422667
 31
0.0
  0
POLYLINE
  8
1
  6
CONTINUOUS
 62
     5
  5
121
 66
     1
 10
0.0
 20
0.0
 30
0.0
 70
     1
  0
VERTEX
  8
1
  6
CONTINUOUS
 62
     5
  5
122
 10
-55.324583
 20
-43.259333
 30
0.0
  0
VERTEX
  8
1
  6
CONTINUOUS
 62
     5
  5
123
 10
-52.887917
 20
-43.259333
 30
0.0
  0
VERTEX
  8
1
  6
CONTINUOUS
 62
     5
  5
124
 10
-52.887917
 20
-45.936
 30
0.0
  0
VERTEX
  8
1
  6
CONTINUOUS
 62
     5
  5
125
 10
-55.324583
 20
-45.936
 30
0.0
  0
SEQEND
  8
1
  6
CONTINUOUS
 62
     5
  5
126
  0
LINE
  8
1
  6
CONTINUOUS
 62
     5
  5
127
 10
-54.702917
 20
-43.856
 30
0.0
 11
-53.502917
 21
-43.856
 31
0.0
  0
LINE
  8
1
  6
CONTINUOUS
 62
     5
  5
128
 10
-54.702917
 20
-44.917667
 30
0.0
 11
-53.502917
 21
-44.917667
 31
0.0
  0
LINE
  8
1
  6
CONTINUOUS
 62
     5
  5
129
 10
-54.102917
 20
-43.856
 30
0.0
 11
-54.102917
 21
-44.917667
 31
0.0
  0
LINE
  8
1
  6
CONTINUOUS
 62
     5
  5
12A
 10
-54.094583
 20
-17.872667
 30
0.0
 11
-54.094583
 21
-29.764333
 31
0.0
  0
LINE
  8
1
  6
CONTINUOUS
 62
     5
  5
12B
 10
-54.094583
 20
-32.441
 30
0.0
 11
-54.094583
 21
-43.259333
 31
0.0
  0
LINE
  8
1
  6
CONTINUOUS
 62
     5
  5
12C
 10
-54.094583
 20
-45.936
 30
0.0
 11
-54.094583
 21
-90.564333
 31
0.0
  0
LINE
  8
1
  6
CONTINUOUS
 62
     5
  5
12D
 10
-78.779583
 20
-30.207667
 30
0.0
 11
-55.324583
 21
-30.207667
 31
0.0
  0
LINE
  8
1
  6
CONTINUOUS
 62
     5
  5
12E
 10
-78.779583
 20
-31.617667
 30
0.0
 11
-55.324583
 21
-31.617667
 31
0.0
  0
LINE
  8
1
  6
CONTINUOUS
 62
     5
  5
12F
 10
-78.779583
 20
-43.747667
 30
0.0
 11
-55.324583
 21
-43.747667
 31
0.0
  0
LINE
  8
1
  6
CONTINUOUS
 62
     5
  5
130
 10
-50.769583
 20
-15.642667
 30
0.0
 11
-50.769583
 21
-90.564333
 31
0.0
  0
LINE
  8
1
  6
CONTINUOUS
 62
     5
  5
131
 10
-49.737917
 20
-15.642667
 30
0.0
 11
-49.737917
 21
-90.564333
 31
0.0
  0
LINE
  8
1
  6
CONTINUOUS
 62
     5
  5
132
 10
-52.447917
 20
-69.816
 30
0.0
 11
-52.447917
 21
-74.094333
 31
0.0
  0
LINE
  8
1
  6
CONTINUOUS
 62
     5
  5
133
 10
-52.447917
 20
-74.294333
 30
0.0
 11
-52.447917
 21
-74.694333
 31
0.0
  0
LINE
  8
1
  6
CONTINUOUS
 62
     5
  5
134
 10
-52.447917
 20
-74.894333
 30
0.0
 11
-52.447917
 21
-79.581
 31
0.0
  0
POLYLINE
  8
1
  6
CONTINUOUS
 62
     5
  5
135
 66
     1
 10
0.0
 20
0.0
 30
0.0
 70
     1
  0
VERTEX
  8
1
  6
CONTINUOUS
 62
     5
  5
136
 10
-94.099583
 20
-44.607667
 30
0.0
  0
VERTEX
  8
1
  6
CONTINUOUS
 62
     5
  5
137
 10
-91.662917
 20
-44.607667
 30
0.0
  0
VERTEX
  8
1
  6
CONTINUOUS
 62
     5
  5
138
 10
-91.662917
 20
-47.284333
 30
0.0
  0
VERTEX
  8
1
  6
CONTINUOUS
 62
     5
  5
139
 10
-94.099583
 20
-47.284333
 30
0.0
  0
SEQEND
  8
1
  6
CONTINUOUS
 62
     5
  5
13A
  0
LINE
  8
1
  6
CONTINUOUS
 62
     5
  5
13B
 10
-93.477917
 20
-45.204333
 30
0.0
 11
-92.277917
 21
-45.204333
 31
0.0
  0
LINE
  8
1
  6
CONTINUOUS
 62
     5
  5
13C
 10
-93.477917
 20
-46.266
 30
0.0
 11
-92.277917
 21
-46.266
 31
0.0
  0
LINE
  8
1
  6
CONTINUOUS
 62
     5
  5
13D
 10
-92.877917
 20
-45.204333
 30
0.0
 11
-92.877917
 21
-46.266
 31
0.0
  0
POLYLINE
  8
1
  6
CONTINUOUS
 62
     5
  5
13E
 66
     1
 10
0.0
 20
0.0
 30
0.0
 70
     1
  0
VERTEX
  8
1
  6
CONTINUOUS
 62
     5
  5
13F
 10
-94.099583
 20
-59.362667
 30
0.0
  0
VERTEX
  8
1
  6
CONTINUOUS
 62
     5
  5
140
 10
-91.662917
 20
-59.362667
 30
0.0
  0
VERTEX
  8
1
  6
CONTINUOUS
 62
     5
  5
141
 10
-91.662917
 20
-62.039333
 30
0.0
  0
VERTEX
  8
1
  6
CONTINUOUS
 62
     5
  5
142
 10
-94.099583
 20
-62.039333
 30
0.0
  0
SEQEND
  8
1
  6
CONTINUOUS
 62
     5
  5
143
  0
LINE
  8
1
  6
CONTINUOUS
 62
     5
  5
144
 10
-93.477917
 20
-59.959333
 30
0.0
 11
-92.277917
 21
-59.959333
 31
0.0
  0
LINE
  8
1
  6
CONTINUOUS
 62
     5
  5
145
 10
-93.477917
 20
-61.021
 30
0.0
 11
-92.277917
 21
-61.021
 31
0.0
  0
LINE
  8
1
  6
CONTINUOUS
 62
     5
  5
146
 10
-92.877917
 20
-59.959333
 30
0.0
 11
-92.877917
 21
-61.021
 31
0.0
  0
POLYLINE
  8
1
  6
CONTINUOUS
 62
     5
  5
147
 66
     1
 10
0.0
 20
0.0
 30
0.0
 70
     1
  0
VERTEX
  8
1
  6
CONTINUOUS
 62
     5
  5
148
 10
-94.129583
 20
-74.072667
 30
0.0
  0
VERTEX
  8
1
  6
CONTINUOUS
 62
     5
  5
149
 10
-91.692917
 20
-74.072667
 30
0.0
  0
VERTEX
  8
1
  6
CONTINUOUS
 62
     5
  5
14A
 10
-91.692917
 20
-76.749333
 30
0.0
  0
VERTEX
  8
1
  6
CONTINUOUS
 62
     5
  5
14B
 10
-94.129583
 20
-76.749333
 30
0.0
  0
SEQEND
  8
1
  6
CONTINUOUS
 62
     5
  5
14C
  0
LINE
  8
1
  6
CONTINUOUS
 62
     5
  5
14D
 10
-93.507917
 20
-74.669333
 30
0.0
 11
-92.307917
 21
-74.669333
 31
0.0
  0
LINE
  8
1
  6
CONTINUOUS
 62
     5
  5
14E
 10
-93.507917
 20
-75.731
 30
0.0
 11
-92.307917
 21
-75.731
 31
0.0
  0
LINE
  8
1
  6
CONTINUOUS
 62
     5
  5
14F
 10
-92.907917
 20
-74.669333
 30
0.0
 11
-92.907917
 21
-75.731
 31
0.0
  0
POLYLINE
  8
1
  6
CONTINUOUS
 62
     5
  5
150
 66
     1
 10
0.0
 20
0.0
 30
0.0
 70
     1
  0
VERTEX
  8
1
  6
CONTINUOUS
 62
     5
  5
151
 10
-94.069583
 20
-88.694333
 30
0.0
  0
VERTEX
  8
1
  6
CONTINUOUS
 62
     5
  5
152
 10
-91.632917
 20
-88.694333
 30
0.0
  0
VERTEX
  8
1
  6
CONTINUOUS
 62
     5
  5
153
 10
-91.632917
 20
-91.371
 30
0.0
  0
VERTEX
  8
1
  6
CONTINUOUS
 62
     5
  5
154
 10
-94.069583
 20
-91.371
 30
0.0
  0
SEQEND
  8
1
  6
CONTINUOUS
 62
     5
  5
155
  0
LINE
  8
1
  6
CONTINUOUS
 62
     5
  5
156
 10
-93.447917
 20
-89.291
 30
0.0
 11
-92.247917
 21
-89.291
 31
0.0
  0
LINE
  8
1
  6
CONTINUOUS
 62
     5
  5
157
 10
-93.447917
 20
-90.352667
 30
0.0
 11
-92.247917
 21
-90.352667
 31
0.0
  0
LINE
  8
1
  6
CONTINUOUS
 62
     5
  5
158
 10
-92.847917
 20
-89.291
 30
0.0
 11
-92.847917
 21
-90.352667
 31
0.0
  0
POLYLINE
  8
1
  6
CONTINUOUS
 62
     5
  5
159
 66
     1
 10
0.0
 20
0.0
 30
0.0
 70
     1
  0
VERTEX
  8
1
  6
CONTINUOUS
 62
     5
  5
15A
 10
-94.069583
 20
-88.694333
 30
0.0
  0
VERTEX
  8
1
  6
CONTINUOUS
 62
     5
  5
15B
 10
-91.632917
 20
-88.694333
 30
0.0
  0
VERTEX
  8
1
  6
CONTINUOUS
 62
     5
  5
15C
 10
-91.632917
 20
-91.371
 30
0.0
  0
VERTEX
  8
1
  6
CONTINUOUS
 62
     5
  5
15D
 10
-94.069583
 20
-91.371
 30
0.0
  0
SEQEND
  8
1
  6
CONTINUOUS
 62
     5
  5
15E
  0
LINE
  8
1
  6
CONTINUOUS
 62
     5
  5
15F
 10
-93.447917
 20
-89.291
 30
0.0
 11
-92.247917
 21
-89.291
 31
0.0
  0
LINE
  8
1
  6
CONTINUOUS
 62
     5
  5
160
 10
-93.447917
 20
-90.352667
 30
0.0
 11
-92.247917
 21
-90.352667
 31
0.0
  0
LINE
  8
1
  6
CONTINUOUS
 62
     5
  5
161
 10
-92.847917
 20
-89.291
 30
0.0
 11
-92.847917
 21
-90.352667
 31
0.0
  0
POLYLINE
  8
1
  6
CONTINUOUS
 62
     5
  5
162
 66
     1
 10
0.0
 20
0.0
 30
0.0
 70
     1
  0
VERTEX
  8
1
  6
CONTINUOUS
 62
     5
  5
163
 10
-94.069583
 20
-103.552667
 30
0.0
  0
VERTEX
  8
1
  6
CONTINUOUS
 62
     5
  5
164
 10
-91.632917
 20
-103.552667
 30
0.0
  0
VERTEX
  8
1
  6
CONTINUOUS
 62
     5
  5
165
 10
-91.632917
 20
-106.229333
 30
0.0
  0
VERTEX
  8
1
  6
CONTINUOUS
 62
     5
  5
166
 10
-94.069583
 20
-106.229333
 30
0.0
  0
SEQEND
  8
1
  6
CONTINUOUS
 62
     5
  5
167
  0
LINE
  8
1
  6
CONTINUOUS
 62
     5
  5
168
 10
-93.447917
 20
-104.149333
 30
0.0
 11
-92.247917
 21
-104.149333
 31
0.0
  0
LINE
  8
1
  6
CONTINUOUS
 62
     5
  5
169
 10
-93.447917
 20
-105.211
 30
0.0
 11
-92.247917
 21
-105.211
 31
0.0
  0
LINE
  8
1
  6
CONTINUOUS
 62
     5
  5
16A
 10
-92.847917
 20
-104.149333
 30
0.0
 11
-92.847917
 21
-105.211
 31
0.0
  0
POLYLINE
  8
1
  6
CONTINUOUS
 62
     5
  5
16B
 66
     1
 10
0.0
 20
0.0
 30
0.0
 70
     1
  0
VERTEX
  8
1
  6
CONTINUOUS
 62
     5
  5
16C
 10
-94.069583
 20
-117.981
 30
0.0
  0
VERTEX
  8
1
  6
CONTINUOUS
 62
     5
  5
16D
 10
-91.632917
 20
-117.981
 30
0.0
  0
VERTEX
  8
1
  6
CONTINUOUS
 62
     5
  5
16E
 10
-91.632917
 20
-120.657667
 30
0.0
  0
VERTEX
  8
1
  6
CONTINUOUS
 62
     5
  5
16F
 10
-94.069583
 20
-120.657667
 30
0.0
  0
SEQEND
  8
1
  6
CONTINUOUS
 62
     5
  5
170
  0
LINE
  8
1
  6
CONTINUOUS
 62
     5
  5
171
 10
-93.447917
 20
-118.577667
 30
0.0
 11
-92.247917
 21
-118.577667
 31
0.0
  0
LINE
  8
1
  6
CONTINUOUS
 62
     5
  5
172
 10
-93.447917
 20
-119.639333
 30
0.0
 11
-92.247917
 21
-119.639333
 31
0.0
  0
LINE
  8
1
  6
CONTINUOUS
 62
     5
  5
173
 10
-92.847917
 20
-118.577667
 30
0.0
 11
-92.847917
 21
-119.639333
 31
0.0
  0
LINE
  8
1
  6
CONTINUOUS
 62
     5
  5
174
 10
-132.542917
 20
-45.017667
 30
0.0
 11
-94.099583
 21
-45.017667
 31
0.0
  0
LINE
  8
1
  6
CONTINUOUS
 62
     5
  5
175
 10
-91.662917
 20
-45.017667
 30
0.0
 11
-55.324583
 21
-45.017667
 31
0.0
  0
LINE
  8
1
  6
CONTINUOUS
 62
     5
  5
176
 10
-132.542917
 20
-46.427667
 30
0.0
 11
-94.099583
 21
-46.427667
 31
0.0
  0
LINE
  8
1
  6
CONTINUOUS
 62
     5
  5
177
 10
-132.542917
 20
-59.826
 30
0.0
 11
-94.099583
 21
-59.826
 31
0.0
  0
LINE
  8
1
  6
CONTINUOUS
 62
     5
  5
178
 10
-132.542917
 20
-61.096
 30
0.0
 11
-94.099583
 21
-61.096
 31
0.0
  0
LINE
  8
1
  6
CONTINUOUS
 62
     5
  5
179
 10
-132.542917
 20
-74.494333
 30
0.0
 11
-94.129583
 21
-74.494333
 31
0.0
  0
LINE
  8
1
  6
CONTINUOUS
 62
     5
  5
17A
 10
-132.542917
 20
-75.906
 30
0.0
 11
-94.129583
 21
-75.906
 31
0.0
  0
LINE
  8
1
  6
CONTINUOUS
 62
     5
  5
17B
 10
-132.542917
 20
-104.046
 30
0.0
 11
-94.069583
 21
-104.046
 31
0.0
  0
LINE
  8
1
  6
CONTINUOUS
 62
     5
  5
17C
 10
-91.262917
 20
-104.046
 30
0.0
 11
-25.40625
 21
-104.046
 31
0.0
  0
LINE
  8
1
  6
CONTINUOUS
 62
     5
  5
17D
 10
-132.542917
 20
-105.371
 30
0.0
 11
-94.069583
 21
-105.371
 31
0.0
  0
LINE
  8
1
  6
CONTINUOUS
 62
     5
  5
17E
 10
-91.262917
 20
-105.371
 30
0.0
 11
-25.40625
 21
-105.371
 31
0.0
  0
LINE
  8
1
  6
CONTINUOUS
 62
     5
  5
17F
 10
-132.542917
 20
-118.521
 30
0.0
 11
-94.069583
 21
-118.521
 31
0.0
  0
LINE
  8
1
  6
CONTINUOUS
 62
     5
  5
180
 10
-91.262917
 20
-118.521
 30
0.0
 11
-25.40625
 21
-118.521
 31
0.0
  0
LINE
  8
1
  6
CONTINUOUS
 62
     5
  5
181
 10
-132.542917
 20
-119.847667
 30
0.0
 11
-94.069583
 21
-119.847667
 31
0.0
  0
LINE
  8
1
  6
CONTINUOUS
 62
     5
  5
182
 10
-91.262917
 20
-119.847667
 30
0.0
 11
-25.40625
 21
-119.847667
 31
0.0
  0
LINE
  8
1
  6
CONTINUOUS
 62
     5
  5
183
 10
-132.542917
 20
-89.237667
 30
0.0
 11
-94.069583
 21
-89.237667
 31
0.0
  0
LINE
  8
1
  6
CONTINUOUS
 62
     5
  5
184
 10
-132.542917
 20
-90.564333
 30
0.0
 11
-94.069583
 21
-90.564333
 31
0.0
  0
LINE
  8
1
  6
CONTINUOUS
 62
     5
  5
185
 10
-91.262917
 20
-90.564333
 30
0.0
 11
-25.40625
 21
-90.564333
 31
0.0
  0
LINE
  8
1
  6
CONTINUOUS
 62
     5
  5
186
 10
-92.877917
 20
-47.284333
 30
0.0
 11
-92.877917
 21
-59.362667
 31
0.0
  0
LINE
  8
1
  6
CONTINUOUS
 62
     5
  5
187
 10
-92.88125
 20
-62.039333
 30
0.0
 11
-92.88125
 21
-74.072667
 31
0.0
  0
LINE
  8
1
  6
CONTINUOUS
 62
     5
  5
188
 10
-92.91125
 20
-76.749333
 30
0.0
 11
-92.91125
 21
-88.694333
 31
0.0
  0
LINE
  8
1
  6
CONTINUOUS
 62
     5
  5
189
 10
-92.85125
 20
-91.371
 30
0.0
 11
-92.85125
 21
-103.552667
 31
0.0
  0
LINE
  8
1
  6
CONTINUOUS
 62
     5
  5
18A
 10
-92.85125
 20
-106.229333
 30
0.0
 11
-92.85125
 21
-117.981
 31
0.0
  0
LINE
  8
1
  6
CONTINUOUS
 62
     5
  5
18B
 10
-92.85125
 20
-120.657667
 30
0.0
 11
-92.85125
 21
-126.036
 31
0.0
  0
LINE
  8
1
  6
HIDDEN
 62
     5
  5
18C
 10
-90.837917
 20
-45.017667
 30
0.0
 11
-90.837917
 21
-126.036
 31
0.0
  0
LINE
  8
1
  6
CONTINUOUS
 62
     5
  5
18D
 10
-90.00625
 20
-45.017667
 30
0.0
 11
-90.00625
 21
-126.036
 31
0.0
  0
LINE
  8
1
  6
CONTINUOUS
 62
     5
  5
18E
 10
-132.542917
 20
-52.632667
 30
0.0
 11
-92.877917
 21
-52.632667
 31
0.0
  0
LINE
  8
1
  6
CONTINUOUS
 62
     5
  5
18F
 10
-91.877917
 20
-52.632667
 30
0.0
 11
-91.00625
 21
-52.632667
 31
0.0
  0
LINE
  8
1
  6
CONTINUOUS
 62
     5
  5
190
 10
-132.542917
 20
-58.416
 30
0.0
 11
-92.877917
 21
-58.416
 31
0.0
  0
LINE
  8
1
  6
CONTINUOUS
 62
     5
  5
191
 10
-91.877917
 20
-58.416
 30
0.0
 11
-91.00625
 21
-58.416
 31
0.0
  0
LINE
  8
1
  6
CONTINUOUS
 62
     5
  5
192
 10
-132.542917
 20
-67.301
 30
0.0
 11
-92.88125
 21
-67.301
 31
0.0
  0
LINE
  8
1
  6
CONTINUOUS
 62
     5
  5
193
 10
-91.877917
 20
-67.301
 30
0.0
 11
-91.00625
 21
-67.301
 31
0.0
  0
LINE
  8
1
  6
CONTINUOUS
 62
     5
  5
194
 10
-132.542917
 20
-73.366
 30
0.0
 11
-92.88125
 21
-73.366
 31
0.0
  0
LINE
  8
1
  6
CONTINUOUS
 62
     5
  5
195
 10
-91.877917
 20
-73.366
 30
0.0
 11
-91.00625
 21
-73.366
 31
0.0
  0
LINE
  8
1
  6
CONTINUOUS
 62
     5
  5
196
 10
-132.542917
 20
-82.054333
 30
0.0
 11
-92.91125
 21
-82.054333
 31
0.0
  0
LINE
  8
1
  6
CONTINUOUS
 62
     5
  5
197
 10
-91.877917
 20
-82.054333
 30
0.0
 11
-91.00625
 21
-82.054333
 31
0.0
  0
LINE
  8
1
  6
CONTINUOUS
 62
     5
  5
198
 10
-132.542917
 20
-87.911
 30
0.0
 11
-92.91125
 21
-87.911
 31
0.0
  0
LINE
  8
1
  6
CONTINUOUS
 62
     5
  5
199
 10
-91.877917
 20
-87.911
 30
0.0
 11
-91.00625
 21
-87.911
 31
0.0
  0
LINE
  8
1
  6
CONTINUOUS
 62
     5
  5
19A
 10
-132.542917
 20
-96.531
 30
0.0
 11
-92.85125
 21
-96.531
 31
0.0
  0
LINE
  8
1
  6
CONTINUOUS
 62
     5
  5
19B
 10
-91.877917
 20
-96.531
 30
0.0
 11
-91.00625
 21
-96.531
 31
0.0
  0
LINE
  8
1
  6
CONTINUOUS
 62
     5
  5
19C
 10
-90.00625
 20
-96.531
 30
0.0
 11
-25.40625
 21
-96.531
 31
0.0
  0
LINE
  8
1
  6
CONTINUOUS
 62
     5
  5
19D
 10
-132.542917
 20
-102.719333
 30
0.0
 11
-92.85125
 21
-102.719333
 31
0.0
  0
LINE
  8
1
  6
CONTINUOUS
 62
     5
  5
19E
 10
-91.877917
 20
-102.719333
 30
0.0
 11
-91.00625
 21
-102.719333
 31
0.0
  0
LINE
  8
1
  6
CONTINUOUS
 62
     5
  5
19F
 10
-90.00625
 20
-102.719333
 30
0.0
 11
-25.40625
 21
-102.719333
 31
0.0
  0
LINE
  8
1
  6
CONTINUOUS
 62
     5
  5
1A0
 10
-132.542917
 20
-117.306
 30
0.0
 11
-92.85125
 21
-117.306
 31
0.0
  0
LINE
  8
1
  6
CONTINUOUS
 62
     5
  5
1A1
 10
-91.877917
 20
-117.306
 30
0.0
 11
-91.00625
 21
-117.306
 31
0.0
  0
LINE
  8
1
  6
CONTINUOUS
 62
     5
  5
1A2
 10
-90.00625
 20
-117.306
 30
0.0
 11
-25.40625
 21
-117.306
 31
0.0
  0
POINT
  8
1
  6
CONTINUOUS
 62
     5
  5
1A3
 10
-52.877917
 20
-17.019333
 30
0.0
  0
LINE
  8
1
  6
CONTINUOUS
 62
     5
  5
1A4
 10
-51.969583
 20
-17.019333
 30
0.0
 11
-25.40625
 21
-17.019333
 31
0.0
  0
LINE
  8
1
  6
CONTINUOUS
 62
     5
  5
1A5
 10
-78.779583
 20
-22.944333
 30
0.0
 11
-52.877917
 21
-22.944333
 31
0.0
  0
LINE
  8
1
  6
CONTINUOUS
 62
     5
  5
1A6
 10
-51.969583
 20
-22.944333
 30
0.0
 11
-25.40625
 21
-22.944333
 31
0.0
  0
LINE
  8
1
  6
CONTINUOUS
 62
     5
  5
1A7
 10
-78.779583
 20
-28.937667
 30
0.0
 11
-52.877917
 21
-28.937667
 31
0.0
  0
LINE
  8
1
  6
CONTINUOUS
 62
     5
  5
1A8
 10
-51.969583
 20
-28.937667
 30
0.0
 11
-25.40625
 21
-28.937667
 31
0.0
  0
LINE
  8
1
  6
CONTINUOUS
 62
     5
  5
1A9
 10
-52.887917
 20
-30.207667
 30
0.0
 11
-52.877917
 21
-30.207667
 31
0.0
  0
LINE
  8
1
  6
CONTINUOUS
 62
     5
  5
1AA
 10
-51.969583
 20
-30.207667
 30
0.0
 11
-25.40625
 21
-30.207667
 31
0.0
  0
LINE
  8
1
  6
CONTINUOUS
 62
     5
  5
1AB
 10
-52.887917
 20
-31.617667
 30
0.0
 11
-52.877917
 21
-31.617667
 31
0.0
  0
LINE
  8
1
  6
CONTINUOUS
 62
     5
  5
1AC
 10
-51.969583
 20
-31.617667
 30
0.0
 11
-25.40625
 21
-31.617667
 31
0.0
  0
LINE
  8
1
  6
CONTINUOUS
 62
     5
  5
1AD
 10
-78.779583
 20
-37.682667
 30
0.0
 11
-53.19125
 21
-37.682667
 31
0.0
  0
LINE
  8
1
  6
CONTINUOUS
 62
     5
  5
1AE
 10
-51.70125
 20
-37.682667
 30
0.0
 11
-25.40625
 21
-37.682667
 31
0.0
  0
LINE
  8
1
  6
CONTINUOUS
 62
     5
  5
1AF
 10
-51.70125
 20
-43.747667
 30
0.0
 11
-25.40625
 21
-43.747667
 31
0.0
  0
LINE
  8
1
  6
CONTINUOUS
 62
     5
  5
1B0
 10
-52.887917
 20
-45.017667
 30
0.0
 11
-25.40625
 21
-45.017667
 31
0.0
  0
LINE
  8
1
  6
CONTINUOUS
 62
     5
  5
1B1
 10
-91.662917
 20
-46.427667
 30
0.0
 11
-53.19125
 21
-46.427667
 31
0.0
  0
LINE
  8
1
  6
CONTINUOUS
 62
     5
  5
1B2
 10
-51.70125
 20
-46.427667
 30
0.0
 11
-25.40625
 21
-46.427667
 31
0.0
  0
LINE
  8
1
  6
CONTINUOUS
 62
     5
  5
1B3
 10
-90.00625
 20
-52.632667
 30
0.0
 11
-53.19125
 21
-52.632667
 31
0.0
  0
LINE
  8
1
  6
CONTINUOUS
 62
     5
  5
1B4
 10
-51.70125
 20
-52.632667
 30
0.0
 11
-25.40625
 21
-52.632667
 31
0.0
  0
LINE
  8
1
  6
CONTINUOUS
 62
     5
  5
1B5
 10
-90.00625
 20
-58.416
 30
0.0
 11
-53.19125
 21
-58.416
 31
0.0
  0
LINE
  8
1
  6
CONTINUOUS
 62
     5
  5
1B6
 10
-51.70125
 20
-58.416
 30
0.0
 11
-25.40625
 21
-58.416
 31
0.0
  0
LINE
  8
1
  6
CONTINUOUS
 62
     5
  5
1B7
 10
-91.262917
 20
-59.826
 30
0.0
 11
-53.19125
 21
-59.826
 31
0.0
  0
LINE
  8
1
  6
CONTINUOUS
 62
     5
  5
1B8
 10
-51.70125
 20
-59.826
 30
0.0
 11
-25.40625
 21
-59.826
 31
0.0
  0
LINE
  8
1
  6
CONTINUOUS
 62
     5
  5
1B9
 10
-91.262917
 20
-61.096
 30
0.0
 11
-53.19125
 21
-61.096
 31
0.0
  0
LINE
  8
1
  6
CONTINUOUS
 62
     5
  5
1BA
 10
-51.70125
 20
-61.096
 30
0.0
 11
-25.40625
 21
-61.096
 31
0.0
  0
LINE
  8
1
  6
CONTINUOUS
 62
     5
  5
1BB
 10
-90.00625
 20
-67.301
 30
0.0
 11
-53.19125
 21
-67.301
 31
0.0
  0
LINE
  8
1
  6
CONTINUOUS
 62
     5
  5
1BC
 10
-51.70125
 20
-67.301
 30
0.0
 11
-25.40625
 21
-67.301
 31
0.0
  0
LINE
  8
1
  6
CONTINUOUS
 62
     5
  5
1BD
 10
-90.00625
 20
-73.366
 30
0.0
 11
-53.19125
 21
-73.366
 31
0.0
  0
LINE
  8
1
  6
CONTINUOUS
 62
     5
  5
1BE
 10
-51.70125
 20
-73.366
 30
0.0
 11
-25.40625
 21
-73.366
 31
0.0
  0
LINE
  8
1
  6
CONTINUOUS
 62
     5
  5
1BF
 10
-91.262917
 20
-74.494333
 30
0.0
 11
-53.19125
 21
-74.494333
 31
0.0
  0
LINE
  8
1
  6
CONTINUOUS
 62
     5
  5
1C0
 10
-51.70125
 20
-74.494333
 30
0.0
 11
-25.40625
 21
-74.494333
 31
0.0
  0
LINE
  8
1
  6
CONTINUOUS
 62
     5
  5
1C1
 10
-91.262917
 20
-75.906
 30
0.0
 11
-53.19125
 21
-75.906
 31
0.0
  0
LINE
  8
1
  6
CONTINUOUS
 62
     5
  5
1C2
 10
-51.70125
 20
-75.906
 30
0.0
 11
-25.40625
 21
-75.906
 31
0.0
  0
LINE
  8
1
  6
CONTINUOUS
 62
     5
  5
1C3
 10
-90.00625
 20
-82.054333
 30
0.0
 11
-53.19125
 21
-82.054333
 31
0.0
  0
LINE
  8
1
  6
CONTINUOUS
 62
     5
  5
1C4
 10
-51.70125
 20
-82.054333
 30
0.0
 11
-25.40625
 21
-82.054333
 31
0.0
  0
LINE
  8
1
  6
CONTINUOUS
 62
     5
  5
1C5
 10
-90.00625
 20
-87.911
 30
0.0
 11
-53.19125
 21
-87.911
 31
0.0
  0
LINE
  8
1
  6
CONTINUOUS
 62
     5
  5
1C6
 10
-51.70125
 20
-87.911
 30
0.0
 11
-25.40625
 21
-87.911
 31
0.0
  0
LINE
  8
1
  6
CONTINUOUS
 62
     5
  5
1C7
 10
-91.262917
 20
-89.237667
 30
0.0
 11
-53.19125
 21
-89.237667
 31
0.0
  0
LINE
  8
1
  6
CONTINUOUS
 62
     5
  5
1C8
 10
-51.70125
 20
-89.237667
 30
0.0
 11
-25.40625
 21
-89.237667
 31
0.0
  0
LINE
  8
1
  6
CONTINUOUS
 62
     5
  5
1C9
 10
-26.80625
 20
-19.981
 30
0.0
 11
-24.00625
 21
-19.981
 31
0.0
  0
LINE
  8
1
  6
CONTINUOUS
 62
     5
  5
1CA
 10
-24.00625
 20
-19.981
 30
0.0
 11
-25.422917
 21
-19.354333
 31
0.0
  0
LINE
  8
1
  6
CONTINUOUS
 62
     5
  5
1CB
 10
-25.389583
 20
-20.607667
 30
0.0
 11
-26.80625
 21
-19.981
 31
0.0
  0
LINE
  8
1
  6
CONTINUOUS
 62
     5
  5
1CC
 10
-25.40625
 20
-15.642667
 30
0.0
 11
-25.40625
 21
-17.019333
 31
0.0
  0
LINE
  8
1
  6
CONTINUOUS
 62
     5
  5
1CD
 10
-25.40625
 20
-22.944333
 30
0.0
 11
-25.40625
 21
-28.937667
 31
0.0
  0
LINE
  8
1
  6
CONTINUOUS
 62
     5
  5
1CE
 10
-25.40625
 20
-28.937667
 30
0.0
 11
-25.40625
 21
-46.427667
 31
0.0
  0
LINE
  8
1
  6
CONTINUOUS
 62
     5
  5
1CF
 10
-26.80625
 20
-49.529333
 30
0.0
 11
-24.00625
 21
-49.529333
 31
0.0
  0
LINE
  8
1
  6
CONTINUOUS
 62
     5
  5
1D0
 10
-24.00625
 20
-49.529333
 30
0.0
 11
-25.422917
 21
-48.902667
 31
0.0
  0
LINE
  8
1
  6
CONTINUOUS
 62
     5
  5
1D1
 10
-25.389583
 20
-50.156
 30
0.0
 11
-26.80625
 21
-49.529333
 31
0.0
  0
LINE
  8
1
  6
CONTINUOUS
 62
     5
  5
1D2
 10
-25.40625
 20
-52.632667
 30
0.0
 11
-25.40625
 21
-67.301
 31
0.0
  0
LINE
  8
1
  6
CONTINUOUS
 62
     5
  5
1D3
 10
-25.40625
 20
-73.366
 30
0.0
 11
-25.40625
 21
-75.906
 31
0.0
  0
LINE
  8
1
  6
CONTINUOUS
 62
     5
  5
1D4
 10
-26.80625
 20
-70.332667
 30
0.0
 11
-24.00625
 21
-70.332667
 31
0.0
  0
LINE
  8
1
  6
CONTINUOUS
 62
     5
  5
1D5
 10
-24.00625
 20
-70.332667
 30
0.0
 11
-25.422917
 21
-69.706
 31
0.0
  0
LINE
  8
1
  6
CONTINUOUS
 62
     5
  5
1D6
 10
-25.389583
 20
-70.959333
 30
0.0
 11
-26.80625
 21
-70.332667
 31
0.0
  0
LINE
  8
1
  6
CONTINUOUS
 62
     5
  5
1D7
 10
-26.80625
 20
-78.979333
 30
0.0
 11
-24.00625
 21
-78.979333
 31
0.0
  0
LINE
  8
1
  6
CONTINUOUS
 62
     5
  5
1D8
 10
-24.00625
 20
-78.979333
 30
0.0
 11
-25.422917
 21
-78.352667
 31
0.0
  0
LINE
  8
1
  6
CONTINUOUS
 62
     5
  5
1D9
 10
-25.389583
 20
-79.606
 30
0.0
 11
-26.80625
 21
-78.979333
 31
0.0
  0
LINE
  8
1
  6
CONTINUOUS
 62
     5
  5
1DA
 10
-25.40625
 20
-82.054333
 30
0.0
 11
-25.40625
 21
-90.564333
 31
0.0
  0
LINE
  8
1
  6
CONTINUOUS
 62
     5
  5
1DB
 10
-26.80625
 20
-93.547667
 30
0.0
 11
-24.00625
 21
-93.547667
 31
0.0
  0
LINE
  8
1
  6
CONTINUOUS
 62
     5
  5
1DC
 10
-24.00625
 20
-93.547667
 30
0.0
 11
-25.422917
 21
-92.921
 31
0.0
  0
LINE
  8
1
  6
CONTINUOUS
 62
     5
  5
1DD
 10
-25.389583
 20
-94.174333
 30
0.0
 11
-26.80625
 21
-93.547667
 31
0.0
  0
LINE
  8
1
  6
CONTINUOUS
 62
     5
  5
1DE
 10
-25.40625
 20
-96.531
 30
0.0
 11
-25.40625
 21
-111.449333
 31
0.0
  0
LINE
  8
1
  6
CONTINUOUS
 62
     5
  5
1DF
 10
-25.40625
 20
-117.306
 30
0.0
 11
-25.40625
 21
-126.036
 31
0.0
  0
LINE
  8
1
  6
CONTINUOUS
 62
     5
  5
1E0
 10
-26.80625
 20
-114.377667
 30
0.0
 11
-24.00625
 21
-114.377667
 31
0.0
  0
LINE
  8
1
  6
CONTINUOUS
 62
     5
  5
1E1
 10
-24.00625
 20
-114.377667
 30
0.0
 11
-25.422917
 21
-113.751
 31
0.0
  0
LINE
  8
1
  6
CONTINUOUS
 62
     5
  5
1E2
 10
-25.389583
 20
-115.004333
 30
0.0
 11
-26.80625
 21
-114.377667
 31
0.0
  0
LINE
  8
1
  6
CONTINUOUS
 62
     5
  5
1E3
 10
-25.40625
 20
-67.301
 30
0.0
 11
-25.40625
 21
-69.712667
 31
0.0
  0
LINE
  8
1
  6
CONTINUOUS
 62
     5
  5
1E4
 10
-25.40625
 20
-70.952667
 30
0.0
 11
-25.40625
 21
-73.366
 31
0.0
  0
LINE
  8
1
  6
CONTINUOUS
 62
     5
  5
1E5
 10
-25.40625
 20
-75.906
 30
0.0
 11
-25.40625
 21
-78.359333
 31
0.0
  0
LINE
  8
1
  6
CONTINUOUS
 62
     5
  5
1E6
 10
-25.40625
 20
-79.599333
 30
0.0
 11
-25.40625
 21
-82.054333
 31
0.0
  0
LINE
  8
1
  6
CONTINUOUS
 62
     5
  5
1E7
 10
-25.40625
 20
-90.564333
 30
0.0
 11
-25.40625
 21
-92.927667
 31
0.0
  0
LINE
  8
1
  6
CONTINUOUS
 62
     5
  5
1E8
 10
-25.40625
 20
-94.167667
 30
0.0
 11
-25.40625
 21
-96.531
 31
0.0
  0
LINE
  8
1
  6
CONTINUOUS
 62
     5
  5
1E9
 10
-25.40625
 20
-111.449333
 30
0.0
 11
-25.40625
 21
-113.757667
 31
0.0
  0
LINE
  8
1
  6
CONTINUOUS
 62
     5
  5
1EA
 10
-25.40625
 20
-114.997667
 30
0.0
 11
-25.40625
 21
-117.306
 31
0.0
  0
LINE
  8
1
  6
CONTINUOUS
 62
     5
  5
1EB
 10
-25.40625
 20
-17.019333
 30
0.0
 11
-25.40625
 21
-19.361
 31
0.0
  0
LINE
  8
1
  6
CONTINUOUS
 62
     5
  5
1EC
 10
-25.40625
 20
-20.601
 30
0.0
 11
-25.40625
 21
-22.944333
 31
0.0
  0
LINE
  8
1
  6
CONTINUOUS
 62
     5
  5
1ED
 10
-25.40625
 20
-46.427667
 30
0.0
 11
-25.40625
 21
-48.909333
 31
0.0
  0
LINE
  8
1
  6
CONTINUOUS
 62
     5
  5
1EE
 10
-25.40625
 20
-50.149333
 30
0.0
 11
-25.40625
 21
-52.632667
 31
0.0
  0
LINE
  8
1
  6
CONTINUOUS
 62
     5
  5
1EF
 10
-120.26625
 20
-127.436
 30
0.0
 11
-120.26625
 21
-124.636
 31
0.0
  0
LINE
  8
1
  6
CONTINUOUS
 62
     5
  5
1F0
 10
-120.26625
 20
-124.636
 30
0.0
 11
-120.892917
 21
-126.052667
 31
0.0
  0
LINE
  8
1
  6
CONTINUOUS
 62
     5
  5
1F1
 10
-119.639583
 20
-126.019333
 30
0.0
 11
-120.26625
 21
-127.436
 31
0.0
  0
LINE
  8
1
  6
CONTINUOUS
 62
     5
  5
1F2
 10
-102.58125
 20
-127.436
 30
0.0
 11
-102.58125
 21
-124.636
 31
0.0
  0
LINE
  8
1
  6
CONTINUOUS
 62
     5
  5
1F3
 10
-102.58125
 20
-124.636
 30
0.0
 11
-103.207917
 21
-126.052667
 31
0.0
  0
LINE
  8
1
  6
CONTINUOUS
 62
     5
  5
1F4
 10
-101.954583
 20
-126.019333
 30
0.0
 11
-102.58125
 21
-127.436
 31
0.0
  0
LINE
  8
1
  6
CONTINUOUS
 62
     5
  5
1F5
 10
-74.877917
 20
-127.436
 30
0.0
 11
-74.877917
 21
-124.636
 31
0.0
  0
LINE
  8
1
  6
CONTINUOUS
 62
     5
  5
1F6
 10
-74.877917
 20
-124.636
 30
0.0
 11
-75.504583
 21
-126.052667
 31
0.0
  0
LINE
  8
1
  6
CONTINUOUS
 62
     5
  5
1F7
 10
-74.25125
 20
-126.019333
 30
0.0
 11
-74.877917
 21
-127.436
 31
0.0
  0
LINE
  8
1
  6
CONTINUOUS
 62
     5
  5
1F8
 10
-42.61625
 20
-127.436
 30
0.0
 11
-42.61625
 21
-124.636
 31
0.0
  0
LINE
  8
1
  6
CONTINUOUS
 62
     5
  5
1F9
 10
-42.61625
 20
-124.636
 30
0.0
 11
-43.242917
 21
-126.052667
 31
0.0
  0
LINE
  8
1
  6
CONTINUOUS
 62
     5
  5
1FA
 10
-41.989583
 20
-126.019333
 30
0.0
 11
-42.61625
 21
-127.436
 31
0.0
  0
LINE
  8
1
  6
CONTINUOUS
 62
     5
  5
1FB
 10
-132.542917
 20
-126.036
 30
0.0
 11
-120.88625
 21
-126.036
 31
0.0
  0
LINE
  8
1
  6
CONTINUOUS
 62
     5
  5
1FC
 10
-119.64625
 20
-126.036
 30
0.0
 11
-103.20125
 21
-126.036
 31
0.0
  0
LINE
  8
1
  6
CONTINUOUS
 62
     5
  5
1FD
 10
-101.96125
 20
-126.036
 30
0.0
 11
-92.85125
 21
-126.036
 31
0.0
  0
LINE
  8
1
  6
CONTINUOUS
 62
     5
  5
1FE
 10
-92.85125
 20
-126.036
 30
0.0
 11
-75.497917
 21
-126.036
 31
0.0
  0
LINE
  8
1
  6
CONTINUOUS
 62
     5
  5
1FF
 10
-74.257917
 20
-126.036
 30
0.0
 11
-43.23625
 21
-126.036
 31
0.0
  0
LINE
  8
1
  6
CONTINUOUS
 62
     5
  5
200
 10
-41.99625
 20
-126.036
 30
0.0
 11
-25.40625
 21
-126.036
 31
0.0
  0
LINE
  8
1
  6
CONTINUOUS
 62
     5
  5
201
 10
-54.09625
 20
-14.596
 30
0.0
 11
-54.09625
 21
-6.102667
 31
0.0
  0
LINE
  8
1
  6
CONTINUOUS
 62
     5
  5
202
 10
-78.779583
 20
-6.702667
 30
0.0
 11
-54.09625
 21
-6.702667
 31
0.0
  0
LINE
  8
1
  6
CONTINUOUS
 62
     5
  5
203
 10
-54.09625
 20
-6.702667
 30
0.0
 11
-25.40625
 21
-6.702667
 31
0.0
  0
LINE
  8
1
  6
CONTINUOUS
 62
     5
  5
204
 10
-79.379583
 20
-15.642667
 30
0.0
 11
-142.082917
 21
-15.642667
 31
0.0
  0
LINE
  8
1
  6
CONTINUOUS
 62
     5
  5
205
 10
-133.142917
 20
-45.017667
 30
0.0
 11
-142.082917
 21
-45.017667
 31
0.0
  0
LINE
  8
1
  6
CONTINUOUS
 62
     5
  5
206
 10
-133.142917
 20
-126.036
 30
0.0
 11
-142.082917
 21
-126.036
 31
0.0
  0
LINE
  8
1
  6
CONTINUOUS
 62
     5
  5
207
 10
-141.482917
 20
-15.642667
 30
0.0
 11
-141.482917
 21
-45.017667
 31
0.0
  0
LINE
  8
1
  6
CONTINUOUS
 62
     5
  5
208
 10
-141.482917
 20
-45.017667
 30
0.0
 11
-141.482917
 21
-126.036
 31
0.0
  0
LINE
  8
1
  6
CONTINUOUS
 62
     5
  5
209
 10
-132.542917
 20
-135.576
 30
0.0
 11
-132.542917
 21
-126.636
 31
0.0
  0
LINE
  8
1
  6
CONTINUOUS
 62
     5
  5
20A
 10
-90.00625
 20
-135.576
 30
0.0
 11
-90.00625
 21
-126.636
 31
0.0
  0
LINE
  8
1
  6
CONTINUOUS
 62
     5
  5
20B
 10
-25.40625
 20
-135.576
 30
0.0
 11
-25.40625
 21
-126.636
 31
0.0
  0
LINE
  8
1
  6
CONTINUOUS
 62
     5
  5
20C
 10
-132.542917
 20
-134.976
 30
0.0
 11
-90.00625
 21
-134.976
 31
0.0
  0
LINE
  8
1
  6
CONTINUOUS
 62
     5
  5
20D
 10
-90.00625
 20
-134.976
 30
0.0
 11
-25.40625
 21
-134.976
 31
0.0
  0
LINE
  8
1
  6
CONTINUOUS
 62
     5
  5
20E
 10
-39.75125
 20
-6.702667
 30
0.0
 11
-37.524583
 21
0.549
 31
0.0
  0
LINE
  8
1
  6
CONTINUOUS
 62
     5
  5
20F
 10
-55.314583
 20
-15.196
 30
0.0
 11
-57.837917
 21
-11.642667
 31
0.0
  0
LINE
  8
1
  6
CONTINUOUS
 62
     5
  5
210
 10
-60.452917
 20
-11.642667
 30
0.0
 11
-57.837917
 21
-11.642667
 31
0.0
  0
LINE
  8
1
  6
CONTINUOUS
 62
     5
  5
211
 10
-52.28125
 20
-20.287667
 30
0.0
 11
-47.889583
 21
-11.576
 31
0.0
  0
LINE
  8
1
  6
CONTINUOUS
 62
     5
  5
212
 10
-47.889583
 20
-11.576
 30
0.0
 11
-44.65125
 21
-11.576
 31
0.0
  0
LINE
  8
1
  6
CONTINUOUS
 62
     5
  5
213
 10
-37.524583
 20
0.549
 30
0.0
 11
-34.267917
 21
0.549
 31
0.0
  0
LINE
  8
1
  6
CONTINUOUS
 62
     5
  5
214
 10
-25.40625
 20
-34.187667
 30
0.0
 11
-14.117917
 21
-34.187667
 31
0.0
  0
LINE
  8
1
  6
CONTINUOUS
 62
     5
  5
215
 10
-30.57125
 20
-44.967667
 30
0.0
 11
-17.722917
 21
-52.014333
 31
0.0
  0
LINE
  8
1
  6
CONTINUOUS
 62
     5
  5
216
 10
-17.722917
 20
-52.014333
 30
0.0
 11
-12.334583
 21
-52.014333
 31
0.0
  0
LINE
  8
1
  6
CONTINUOUS
 62
     5
  5
217
 10
-52.447917
 20
-77.237667
 30
0.0
 11
-12.327917
 21
-82.324333
 31
0.0
  0
LINE
  8
1
  6
CONTINUOUS
 62
     5
  5
218
 10
-49.737917
 20
-99.104333
 30
0.0
 11
-49.737917
 21
-91.164333
 31
0.0
  0
LINE
  8
1
  6
CONTINUOUS
 62
     5
  5
219
 10
-49.737917
 20
-98.504333
 30
0.0
 11
-90.00625
 21
-98.504333
 31
0.0
  0
LINE
  8
1
  6
CONTINUOUS
 62
     5
  5
21A
 10
-90.00625
 20
-108.451
 30
0.0
 11
-13.347917
 21
-105.242667
 31
0.0
  0
LINE
  8
1
  6
CONTINUOUS
 62
     5
  5
21B
 10
-90.00625
 20
-122.977667
 30
0.0
 11
-84.714583
 21
-129.919333
 31
0.0
  0
LINE
  8
1
  6
CONTINUOUS
 62
     5
  5
21C
 10
-84.714583
 20
-129.919333
 30
0.0
 11
-81.012917
 21
-129.919333
 31
0.0
  0
LINE
  8
1
  6
CONTINUOUS
 62
     5
  5
21D
 10
197.320417
 20
142.565667
 30
0.0
 11
302.252083
 21
142.565667
 31
0.0
  0
LINE
  8
1
  6
CONTINUOUS
 62
     5
  5
21E
 10
302.252083
 20
142.565667
 30
0.0
 11
302.252083
 21
61.802333
 31
0.0
  0
LINE
  8
1
  6
CONTINUOUS
 62
     5
  5
21F
 10
197.320417
 20
142.565667
 30
0.0
 11
197.320417
 21
113.184
 31
0.0
  0
LINE
  8
1
  6
CONTINUOUS
 62
     5
  5
220
 10
131.867083
 20
113.184
 30
0.0
 11
131.867083
 21
61.802333
 31
0.0
  0
LINE
  8
1
  6
CONTINUOUS
 62
     5
  5
221
 10
223.90875
 20
142.565667
 30
0.0
 11
223.90875
 21
67.679
 31
0.0
  0
LINE
  8
1
  6
CONTINUOUS
 62
     5
  5
222
 10
226.602083
 20
142.565667
 30
0.0
 11
226.602083
 21
67.679
 31
0.0
  0
LINE
  8
1
  6
CONTINUOUS
 62
     5
  5
223
 10
227.612083
 20
142.565667
 30
0.0
 11
227.612083
 21
67.679
 31
0.0
  0
LINE
  8
1
  6
CONTINUOUS
 62
     5
  5
224
 10
254.380417
 20
111.174
 30
0.0
 11
254.380417
 21
41.267333
 31
0.0
  0
LINE
  8
1
  6
HIDDEN
 62
     5
  5
225
 10
259.472083
 20
113.184
 30
0.0
 11
259.472083
 21
41.267333
 31
0.0
  0
LINE
  8
1
  6
HIDDEN
 62
     5
  5
226
 10
260.357083
 20
113.184
 30
0.0
 11
260.357083
 21
41.267333
 31
0.0
  0
LINE
  8
1
  6
CONTINUOUS
 62
     5
  5
227
 10
265.450417
 20
111.240667
 30
0.0
 11
265.450417
 21
41.267333
 31
0.0
  0
LINE
  8
1
  6
CONTINUOUS
 62
     5
  5
228
 10
272.42375
 20
142.565667
 30
0.0
 11
272.42375
 21
67.679
 31
0.0
  0
LINE
  8
1
  6
CONTINUOUS
 62
     5
  5
229
 10
275.52375
 20
142.565667
 30
0.0
 11
275.52375
 21
67.679
 31
0.0
  0
LINE
  8
1
  6
CONTINUOUS
 62
     5
  5
22A
 10
271.425417
 20
142.565667
 30
0.0
 11
271.425417
 21
67.679
 31
0.0
  0
POLYLINE
  8
1
  6
CONTINUOUS
 62
     5
  5
22B
 66
     1
 10
0.0
 20
0.0
 30
0.0
 70
     1
  0
VERTEX
  8
1
  6
CONTINUOUS
 62
     5
  5
22C
 10
222.21375
 20
142.567333
 30
0.0
  0
VERTEX
  8
1
  6
CONTINUOUS
 62
     5
  5
22D
 10
224.650417
 20
142.567333
 30
0.0
  0
VERTEX
  8
1
  6
CONTINUOUS
 62
     5
  5
22E
 10
224.650417
 20
139.890667
 30
0.0
  0
VERTEX
  8
1
  6
CONTINUOUS
 62
     5
  5
22F
 10
222.21375
 20
139.890667
 30
0.0
  0
SEQEND
  8
1
  6
CONTINUOUS
 62
     5
  5
230
  0
CIRCLE
  8
1
  6
CONTINUOUS
 62
     5
  5
231
 10
-76.847917
 20
141.529
 30
0.0
 40
0.169648
210
0.0
220
0.0
230
1.0
  0
CIRCLE
  8
1
  6
CONTINUOUS
 62
     5
  5
232
 10
-76.89625
 20
126.237333
 30
0.0
 40
0.169648
210
0.0
220
0.0
230
1.0
  0
CIRCLE
  8
1
  6
CONTINUOUS
 62
     5
  5
233
 10
-76.94125
 20
112.895667
 30
0.0
 40
0.169648
210
0.0
220
0.0
230
1.0
  0
CIRCLE
  8
1
  6
CONTINUOUS
 62
     5
  5
234
 10
-101.857917
 20
111.462333
 30
0.0
 40
0.169648
210
0.0
220
0.0
230
1.0
  0
CIRCLE
  8
1
  6
CONTINUOUS
 62
     5
  5
235
 10
-107.354583
 20
111.529
 30
0.0
 40
0.169648
210
0.0
220
0.0
230
1.0
  0
CIRCLE
  8
1
  6
CONTINUOUS
 62
     5
  5
236
 10
-107.287917
 20
96.069
 30
0.0
 40
0.169648
210
0.0
220
0.0
230
1.0
  0
CIRCLE
  8
1
  6
CONTINUOUS
 62
     5
  5
237
 10
-54.879583
 20
-44.486
 30
0.0
 40
0.169648
210
0.0
220
0.0
230
1.0
  0
CIRCLE
  8
1
  6
CONTINUOUS
 62
     5
  5
238
 10
-54.869583
 20
-16.266
 30
0.0
 40
0.169648
210
0.0
220
0.0
230
1.0
  0
CIRCLE
  8
1
  6
CONTINUOUS
 62
     5
  5
239
 10
-54.717917
 20
-31.141
 30
0.0
 40
0.169648
210
0.0
220
0.0
230
1.0
  0
CIRCLE
  8
1
  6
CONTINUOUS
 62
     5
  5
23A
 10
-93.572917
 20
-45.746
 30
0.0
 40
0.169648
210
0.0
220
0.0
230
1.0
  0
CIRCLE
  8
1
  6
CONTINUOUS
 62
     5
  5
23B
 10
-93.617917
 20
-60.579333
 30
0.0
 40
0.169648
210
0.0
220
0.0
230
1.0
  0
CIRCLE
  8
1
  6
CONTINUOUS
 62
     5
  5
23C
 10
-93.617917
 20
-75.232667
 30
0.0
 40
0.169648
210
0.0
220
0.0
230
1.0
  0
CIRCLE
  8
1
  6
CONTINUOUS
 62
     5
  5
23D
 10
-93.617917
 20
-89.826
 30
0.0
 40
0.169648
210
0.0
220
0.0
230
1.0
  0
CIRCLE
  8
1
  6
CONTINUOUS
 62
     5
  5
23E
 10
-93.617917
 20
-104.596
 30
0.0
 40
0.169648
210
0.0
220
0.0
230
1.0
  0
CIRCLE
  8
1
  6
CONTINUOUS
 62
     5
  5
23F
 10
-93.719583
 20
-119.137667
 30
0.0
 40
0.169648
210
0.0
220
0.0
230
1.0
  0
CIRCLE
  8
1
  6
CONTINUOUS
 62
     5
  5
240
 10
223.045417
 20
142.000667
 30
0.0
 40
0.169648
210
0.0
220
0.0
230
1.0
  0
LINE
  8
1
  6
CONTINUOUS
 62
     5
  5
241
 10
197.320417
 20
141.132333
 30
0.0
 11
223.90875
 21
141.132333
 31
0.0
  0
POLYLINE
  8
1
  6
CONTINUOUS
 62
     5
  5
242
 66
     1
 10
0.0
 20
0.0
 30
0.0
 70
     1
  0
VERTEX
  8
1
  6
CONTINUOUS
 62
     5
  5
243
 10
275.177083
 20
142.545667
 30
0.0
  0
VERTEX
  8
1
  6
CONTINUOUS
 62
     5
  5
244
 10
277.61375
 20
142.545667
 30
0.0
  0
VERTEX
  8
1
  6
CONTINUOUS
 62
     5
  5
245
 10
277.61375
 20
139.869
 30
0.0
  0
VERTEX
  8
1
  6
CONTINUOUS
 62
     5
  5
246
 10
275.177083
 20
139.869
 30
0.0
  0
SEQEND
  8
1
  6
CONTINUOUS
 62
     5
  5
247
  0
CIRCLE
  8
1
  6
CONTINUOUS
 62
     5
  5
248
 10
276.79375
 20
142.100667
 30
0.0
 40
0.169648
210
0.0
220
0.0
230
1.0
  0
LINE
  8
1
  6
CONTINUOUS
 62
     5
  5
249
 10
227.612083
 20
141.132333
 30
0.0
 11
271.425417
 21
141.132333
 31
0.0
  0
LINE
  8
1
  6
CONTINUOUS
 62
     5
  5
24A
 10
275.52375
 20
141.132333
 30
0.0
 11
302.252083
 21
141.132333
 31
0.0
  0
POLYLINE
  8
1
  6
CONTINUOUS
 62
     5
  5
24B
 66
     1
 10
0.0
 20
0.0
 30
0.0
 70
     1
  0
VERTEX
  8
1
  6
CONTINUOUS
 62
     5
  5
24C
 10
222.20875
 20
130.049
 30
0.0
  0
VERTEX
  8
1
  6
CONTINUOUS
 62
     5
  5
24D
 10
224.645417
 20
130.049
 30
0.0
  0
VERTEX
  8
1
  6
CONTINUOUS
 62
     5
  5
24E
 10
224.645417
 20
127.372333
 30
0.0
  0
VERTEX
  8
1
  6
CONTINUOUS
 62
     5
  5
24F
 10
222.20875
 20
127.372333
 30
0.0
  0
SEQEND
  8
1
  6
CONTINUOUS
 62
     5
  5
250
  0
CIRCLE
  8
1
  6
CONTINUOUS
 62
     5
  5
251
 10
223.125417
 20
128.615667
 30
0.0
 40
0.169648
210
0.0
220
0.0
230
1.0
  0
LINE
  8
1
  6
CONTINUOUS
 62
     5
  5
252
 10
197.320417
 20
129.339
 30
0.0
 11
223.90875
 21
129.339
 31
0.0
  0
LINE
  8
1
  6
CONTINUOUS
 62
     5
  5
253
 10
197.320417
 20
127.924
 30
0.0
 11
223.90875
 21
127.924
 31
0.0
  0
LINE
  8
1
  6
CONTINUOUS
 62
     5
  5
254
 10
197.320417
 20
126.509
 30
0.0
 11
223.90875
 21
126.509
 31
0.0
  0
LINE
  8
1
  6
CONTINUOUS
 62
     5
  5
255
 10
197.320417
 20
135.235667
 30
0.0
 11
223.90875
 21
135.235667
 31
0.0
  0
LINE
  8
1
  6
CONTINUOUS
 62
     5
  5
256
 10
197.320417
 20
120.612333
 30
0.0
 11
223.90875
 21
120.612333
 31
0.0
  0
POLYLINE
  8
1
  6
CONTINUOUS
 62
     5
  5
257
 66
     1
 10
0.0
 20
0.0
 30
0.0
 70
     1
  0
VERTEX
  8
1
  6
CONTINUOUS
 62
     5
  5
258
 10
222.06375
 20
115.345667
 30
0.0
  0
VERTEX
  8
1
  6
CONTINUOUS
 62
     5
  5
259
 10
224.500417
 20
115.345667
 30
0.0
  0
VERTEX
  8
1
  6
CONTINUOUS
 62
     5
  5
25A
 10
224.500417
 20
112.669
 30
0.0
  0
VERTEX
  8
1
  6
CONTINUOUS
 62
     5
  5
25B
 10
222.06375
 20
112.669
 30
0.0
  0
SEQEND
  8
1
  6
CONTINUOUS
 62
     5
  5
25C
  0
CIRCLE
  8
1
  6
CONTINUOUS
 62
     5
  5
25D
 10
222.980417
 20
113.912333
 30
0.0
 40
0.169648
210
0.0
220
0.0
230
1.0
  0
LINE
  8
1
  6
CONTINUOUS
 62
     5
  5
25E
 10
197.320417
 20
114.599
 30
0.0
 11
223.90875
 21
114.599
 31
0.0
  0
POLYLINE
  8
1
  6
CONTINUOUS
 62
     5
  5
25F
 66
     1
 10
0.0
 20
0.0
 30
0.0
 70
     1
  0
VERTEX
  8
1
  6
CONTINUOUS
 62
     5
  5
260
 10
222.030417
 20
100.572333
 30
0.0
  0
VERTEX
  8
1
  6
CONTINUOUS
 62
     5
  5
261
 10
224.467083
 20
100.572333
 30
0.0
  0
VERTEX
  8
1
  6
CONTINUOUS
 62
     5
  5
262
 10
224.467083
 20
97.895667
 30
0.0
  0
VERTEX
  8
1
  6
CONTINUOUS
 62
     5
  5
263
 10
222.030417
 20
97.895667
 30
0.0
  0
SEQEND
  8
1
  6
CONTINUOUS
 62
     5
  5
264
  0
CIRCLE
  8
1
  6
CONTINUOUS
 62
     5
  5
265
 10
222.947083
 20
99.139
 30
0.0
 40
0.169648
210
0.0
220
0.0
230
1.0
  0
POLYLINE
  8
1
  6
CONTINUOUS
 62
     5
  5
266
 66
     1
 10
0.0
 20
0.0
 30
0.0
 70
     1
  0
VERTEX
  8
1
  6
CONTINUOUS
 62
     5
  5
267
 10
222.07875
 20
85.660667
 30
0.0
  0
VERTEX
  8
1
  6
CONTINUOUS
 62
     5
  5
268
 10
224.515417
 20
85.660667
 30
0.0
  0
VERTEX
  8
1
  6
CONTINUOUS
 62
     5
  5
269
 10
224.515417
 20
82.984
 30
0.0
  0
VERTEX
  8
1
  6
CONTINUOUS
 62
     5
  5
26A
 10
222.07875
 20
82.984
 30
0.0
  0
SEQEND
  8
1
  6
CONTINUOUS
 62
     5
  5
26B
  0
CIRCLE
  8
1
  6
CONTINUOUS
 62
     5
  5
26C
 10
222.995417
 20
84.227333
 30
0.0
 40
0.169648
210
0.0
220
0.0
230
1.0
  0
POLYLINE
  8
1
  6
CONTINUOUS
 62
     5
  5
26D
 66
     1
 10
0.0
 20
0.0
 30
0.0
 70
     1
  0
VERTEX
  8
1
  6
CONTINUOUS
 62
     5
  5
26E
 10
222.002083
 20
71.035667
 30
0.0
  0
VERTEX
  8
1
  6
CONTINUOUS
 62
     5
  5
26F
 10
224.43875
 20
71.035667
 30
0.0
  0
VERTEX
  8
1
  6
CONTINUOUS
 62
     5
  5
270
 10
224.43875
 20
68.359
 30
0.0
  0
VERTEX
  8
1
  6
CONTINUOUS
 62
     5
  5
271
 10
222.002083
 20
68.359
 30
0.0
  0
SEQEND
  8
1
  6
CONTINUOUS
 62
     5
  5
272
  0
CIRCLE
  8
1
  6
CONTINUOUS
 62
     5
  5
273
 10
222.91875
 20
69.602333
 30
0.0
 40
0.169648
210
0.0
220
0.0
230
1.0
  0
LINE
  8
1
  6
CONTINUOUS
 62
     5
  5
274
 10
225.255417
 20
142.565667
 30
0.0
 11
225.255417
 21
131.540667
 31
0.0
  0
LINE
  8
1
  6
CONTINUOUS
 62
     5
  5
275
 10
225.255417
 20
130.202333
 30
0.0
 11
225.255417
 21
128.432333
 31
0.0
  0
LINE
  8
1
  6
CONTINUOUS
 62
     5
  5
276
 10
225.255417
 20
126.999
 30
0.0
 11
225.255417
 21
115.152333
 31
0.0
  0
LINE
  8
1
  6
CONTINUOUS
 62
     5
  5
277
 10
225.255417
 20
114.134
 30
0.0
 11
225.255417
 21
112.214
 31
0.0
  0
LINE
  8
1
  6
CONTINUOUS
 62
     5
  5
278
 10
225.255417
 20
111.504
 30
0.0
 11
225.255417
 21
100.052333
 31
0.0
  0
LINE
  8
1
  6
CONTINUOUS
 62
     5
  5
279
 10
225.255417
 20
98.729
 30
0.0
 11
225.255417
 21
97.140667
 31
0.0
  0
LINE
  8
1
  6
CONTINUOUS
 62
     5
  5
27A
 10
225.255417
 20
96.104
 30
0.0
 11
225.255417
 21
84.550667
 31
0.0
  0
LINE
  8
1
  6
CONTINUOUS
 62
     5
  5
27B
 10
225.255417
 20
83.310667
 30
0.0
 11
225.255417
 21
81.800667
 31
0.0
  0
LINE
  8
1
  6
CONTINUOUS
 62
     5
  5
27C
 10
225.255417
 20
80.669
 30
0.0
 11
225.255417
 21
67.679
 31
0.0
  0
LINE
  8
1
  6
CONTINUOUS
 62
     5
  5
27D
 10
273.752083
 20
142.565667
 30
0.0
 11
273.752083
 21
131.540667
 31
0.0
  0
LINE
  8
1
  6
CONTINUOUS
 62
     5
  5
27E
 10
273.752083
 20
130.202333
 30
0.0
 11
273.752083
 21
128.432333
 31
0.0
  0
LINE
  8
1
  6
CONTINUOUS
 62
     5
  5
27F
 10
273.752083
 20
126.999
 30
0.0
 11
273.752083
 21
115.152333
 31
0.0
  0
LINE
  8
1
  6
CONTINUOUS
 62
     5
  5
280
 10
273.752083
 20
114.134
 30
0.0
 11
273.752083
 21
112.214
 31
0.0
  0
LINE
  8
1
  6
CONTINUOUS
 62
     5
  5
281
 10
273.752083
 20
111.504
 30
0.0
 11
273.752083
 21
100.052333
 31
0.0
  0
LINE
  8
1
  6
CONTINUOUS
 62
     5
  5
282
 10
273.752083
 20
98.729
 30
0.0
 11
273.752083
 21
97.140667
 31
0.0
  0
LINE
  8
1
  6
CONTINUOUS
 62
     5
  5
283
 10
273.752083
 20
96.104
 30
0.0
 11
273.752083
 21
84.550667
 31
0.0
  0
LINE
  8
1
  6
CONTINUOUS
 62
     5
  5
284
 10
273.752083
 20
83.310667
 30
0.0
 11
273.752083
 21
81.800667
 31
0.0
  0
LINE
  8
1
  6
CONTINUOUS
 62
     5
  5
285
 10
273.752083
 20
80.669
 30
0.0
 11
273.752083
 21
67.679
 31
0.0
  0
POLYLINE
  8
1
  6
CONTINUOUS
 62
     5
  5
286
 66
     1
 10
0.0
 20
0.0
 30
0.0
 70
     1
  0
VERTEX
  8
1
  6
CONTINUOUS
 62
     5
  5
287
 10
277.540417
 20
129.932333
 30
0.0
  0
VERTEX
  8
1
  6
CONTINUOUS
 62
     5
  5
288
 10
275.10375
 20
129.932333
 30
0.0
  0
VERTEX
  8
1
  6
CONTINUOUS
 62
     5
  5
289
 10
275.10375
 20
127.255667
 30
0.0
  0
VERTEX
  8
1
  6
CONTINUOUS
 62
     5
  5
28A
 10
277.540417
 20
127.255667
 30
0.0
  0
SEQEND
  8
1
  6
CONTINUOUS
 62
     5
  5
28B
  0
CIRCLE
  8
1
  6
CONTINUOUS
 62
     5
  5
28C
 10
276.720417
 20
128.717333
 30
0.0
 40
0.169648
210
0.0
220
0.0
230
1.0
  0
LINE
  8
1
  6
CONTINUOUS
 62
     5
  5
28D
 10
227.612083
 20
129.339
 30
0.0
 11
271.425417
 21
129.339
 31
0.0
  0
LINE
  8
1
  6
CONTINUOUS
 62
     5
  5
28E
 10
275.52375
 20
129.339
 30
0.0
 11
302.252083
 21
129.339
 31
0.0
  0
LINE
  8
1
  6
CONTINUOUS
 62
     5
  5
28F
 10
227.612083
 20
127.924
 30
0.0
 11
271.425417
 21
127.924
 31
0.0
  0
LINE
  8
1
  6
CONTINUOUS
 62
     5
  5
290
 10
275.52375
 20
127.924
 30
0.0
 11
302.252083
 21
127.924
 31
0.0
  0
LINE
  8
1
  6
CONTINUOUS
 62
     5
  5
291
 10
227.612083
 20
126.509
 30
0.0
 11
271.425417
 21
126.509
 31
0.0
  0
LINE
  8
1
  6
CONTINUOUS
 62
     5
  5
292
 10
275.52375
 20
126.509
 30
0.0
 11
302.252083
 21
126.509
 31
0.0
  0
LINE
  8
1
  6
CONTINUOUS
 62
     5
  5
293
 10
227.612083
 20
135.235667
 30
0.0
 11
271.425417
 21
135.235667
 31
0.0
  0
LINE
  8
1
  6
CONTINUOUS
 62
     5
  5
294
 10
275.52375
 20
135.235667
 30
0.0
 11
302.252083
 21
135.235667
 31
0.0
  0
LINE
  8
1
  6
CONTINUOUS
 62
     5
  5
295
 10
227.612083
 20
120.612333
 30
0.0
 11
271.425417
 21
120.612333
 31
0.0
  0
LINE
  8
1
  6
CONTINUOUS
 62
     5
  5
296
 10
275.52375
 20
120.612333
 30
0.0
 11
302.252083
 21
120.612333
 31
0.0
  0
POLYLINE
  8
1
  6
CONTINUOUS
 62
     5
  5
297
 66
     1
 10
0.0
 20
0.0
 30
0.0
 70
     1
  0
VERTEX
  8
1
  6
CONTINUOUS
 62
     5
  5
298
 10
277.540417
 20
115.285667
 30
0.0
  0
VERTEX
  8
1
  6
CONTINUOUS
 62
     5
  5
299
 10
275.10375
 20
115.285667
 30
0.0
  0
VERTEX
  8
1
  6
CONTINUOUS
 62
     5
  5
29A
 10
275.10375
 20
112.609
 30
0.0
  0
VERTEX
  8
1
  6
CONTINUOUS
 62
     5
  5
29B
 10
277.540417
 20
112.609
 30
0.0
  0
SEQEND
  8
1
  6
CONTINUOUS
 62
     5
  5
29C
  0
CIRCLE
  8
1
  6
CONTINUOUS
 62
     5
  5
29D
 10
276.720417
 20
114.070667
 30
0.0
 40
0.169648
210
0.0
220
0.0
230
1.0
  0
LINE
  8
1
  6
CONTINUOUS
 62
     5
  5
29E
 10
227.612083
 20
114.599
 30
0.0
 11
271.425417
 21
114.599
 31
0.0
  0
LINE
  8
1
  6
CONTINUOUS
 62
     5
  5
29F
 10
275.52375
 20
114.599
 30
0.0
 11
302.252083
 21
114.599
 31
0.0
  0
LINE
  8
1
  6
CONTINUOUS
 62
     5
  5
2A0
 10
275.52375
 20
113.184
 30
0.0
 11
302.252083
 21
113.184
 31
0.0
  0
LINE
  8
1
  6
CONTINUOUS
 62
     5
  5
2A1
 10
275.52375
 20
111.885667
 30
0.0
 11
302.252083
 21
111.885667
 31
0.0
  0
POLYLINE
  8
1
  6
CONTINUOUS
 62
     5
  5
2A2
 66
     1
 10
0.0
 20
0.0
 30
0.0
 70
     1
  0
VERTEX
  8
1
  6
CONTINUOUS
 62
     5
  5
2A3
 10
277.45375
 20
100.575667
 30
0.0
  0
VERTEX
  8
1
  6
CONTINUOUS
 62
     5
  5
2A4
 10
275.017083
 20
100.575667
 30
0.0
  0
VERTEX
  8
1
  6
CONTINUOUS
 62
     5
  5
2A5
 10
275.017083
 20
97.899
 30
0.0
  0
VERTEX
  8
1
  6
CONTINUOUS
 62
     5
  5
2A6
 10
277.45375
 20
97.899
 30
0.0
  0
SEQEND
  8
1
  6
CONTINUOUS
 62
     5
  5
2A7
  0
CIRCLE
  8
1
  6
CONTINUOUS
 62
     5
  5
2A8
 10
276.63375
 20
99.360667
 30
0.0
 40
0.169648
210
0.0
220
0.0
230
1.0
  0
LINE
  8
1
  6
CONTINUOUS
 62
     5
  5
2A9
 10
275.52375
 20
105.814
 30
0.0
 11
302.252083
 21
105.814
 31
0.0
  0
LINE
  8
1
  6
CONTINUOUS
 62
     5
  5
2AA
 10
275.52375
 20
99.937333
 30
0.0
 11
302.252083
 21
99.937333
 31
0.0
  0
LINE
  8
1
  6
CONTINUOUS
 62
     5
  5
2AB
 10
275.52375
 20
98.562333
 30
0.0
 11
302.252083
 21
98.562333
 31
0.0
  0
LINE
  8
1
  6
CONTINUOUS
 62
     5
  5
2AC
 10
275.52375
 20
97.312333
 30
0.0
 11
302.252083
 21
97.312333
 31
0.0
  0
LINE
  8
1
  6
CONTINUOUS
 62
     5
  5
2AD
 10
275.52375
 20
91.060667
 30
0.0
 11
302.252083
 21
91.060667
 31
0.0
  0
POLYLINE
  8
1
  6
CONTINUOUS
 62
     5
  5
2AE
 66
     1
 10
0.0
 20
0.0
 30
0.0
 70
     1
  0
VERTEX
  8
1
  6
CONTINUOUS
 62
     5
  5
2AF
 10
277.46375
 20
85.592333
 30
0.0
  0
VERTEX
  8
1
  6
CONTINUOUS
 62
     5
  5
2B0
 10
275.027083
 20
85.592333
 30
0.0
  0
VERTEX
  8
1
  6
CONTINUOUS
 62
     5
  5
2B1
 10
275.027083
 20
82.915667
 30
0.0
  0
VERTEX
  8
1
  6
CONTINUOUS
 62
     5
  5
2B2
 10
277.46375
 20
82.915667
 30
0.0
  0
SEQEND
  8
1
  6
CONTINUOUS
 62
     5
  5
2B3
  0
CIRCLE
  8
1
  6
CONTINUOUS
 62
     5
  5
2B4
 10
276.64375
 20
84.377333
 30
0.0
 40
0.169648
210
0.0
220
0.0
230
1.0
  0
LINE
  8
1
  6
CONTINUOUS
 62
     5
  5
2B5
 10
275.52375
 20
84.934
 30
0.0
 11
302.252083
 21
84.934
 31
0.0
  0
LINE
  8
1
  6
CONTINUOUS
 62
     5
  5
2B6
 10
275.52375
 20
83.684
 30
0.0
 11
302.252083
 21
83.684
 31
0.0
  0
LINE
  8
1
  6
CONTINUOUS
 62
     5
  5
2B7
 10
275.52375
 20
82.307333
 30
0.0
 11
302.252083
 21
82.307333
 31
0.0
  0
POLYLINE
  8
1
  6
CONTINUOUS
 62
     5
  5
2B8
 66
     1
 10
0.0
 20
0.0
 30
0.0
 70
     1
  0
VERTEX
  8
1
  6
CONTINUOUS
 62
     5
  5
2B9
 10
277.482083
 20
70.919
 30
0.0
  0
VERTEX
  8
1
  6
CONTINUOUS
 62
     5
  5
2BA
 10
275.045417
 20
70.919
 30
0.0
  0
VERTEX
  8
1
  6
CONTINUOUS
 62
     5
  5
2BB
 10
275.045417
 20
68.242333
 30
0.0
  0
VERTEX
  8
1
  6
CONTINUOUS
 62
     5
  5
2BC
 10
277.482083
 20
68.242333
 30
0.0
  0
SEQEND
  8
1
  6
CONTINUOUS
 62
     5
  5
2BD
  0
CIRCLE
  8
1
  6
CONTINUOUS
 62
     5
  5
2BE
 10
276.662083
 20
69.704
 30
0.0
 40
0.169648
210
0.0
220
0.0
230
1.0
  0
LINE
  8
1
  6
CONTINUOUS
 62
     5
  5
2BF
 10
275.52375
 20
76.430667
 30
0.0
 11
302.252083
 21
76.430667
 31
0.0
  0
LINE
  8
1
  6
CONTINUOUS
 62
     5
  5
2C0
 10
275.52375
 20
70.304
 30
0.0
 11
302.252083
 21
70.304
 31
0.0
  0
LINE
  8
1
  6
CONTINUOUS
 62
     5
  5
2C1
 10
275.52375
 20
68.804
 30
0.0
 11
302.252083
 21
68.804
 31
0.0
  0
LINE
  8
1
  6
CONTINUOUS
 62
     5
  5
2C2
 10
271.425417
 20
67.679
 30
0.0
 11
302.252083
 21
67.679
 31
0.0
  0
LINE
  8
1
  6
CONTINUOUS
 62
     5
  5
2C3
 10
217.285417
 20
117.114
 30
0.0
 11
217.285417
 21
96.112333
 31
0.0
  0
LINE
  8
1
  6
CONTINUOUS
 62
     5
  5
2C4
 10
217.285417
 20
92.260667
 30
0.0
 11
217.285417
 21
75.230667
 31
0.0
  0
LINE
  8
1
  6
CONTINUOUS
 62
     5
  5
2C5
 10
217.285417
 20
71.504
 30
0.0
 11
217.285417
 21
53.575667
 31
0.0
  0
LINE
  8
1
  6
CONTINUOUS
 62
     5
  5
2C6
 10
217.285417
 20
94.912333
 30
0.0
 11
217.285417
 21
93.460667
 31
0.0
  0
LINE
  8
1
  6
CONTINUOUS
 62
     5
  5
2C7
 10
217.285417
 20
74.030667
 30
0.0
 11
217.285417
 21
72.704
 31
0.0
  0
POLYLINE
  8
1
  6
CONTINUOUS
 62
     5
  5
2C8
 66
     1
 10
0.0
 20
0.0
 30
0.0
 70
     1
  0
VERTEX
  8
1
  6
CONTINUOUS
 62
     5
  5
2C9
 10
255.62875
 20
113.850667
 30
0.0
  0
VERTEX
  8
1
  6
CONTINUOUS
 62
     5
  5
2CA
 10
253.192083
 20
113.850667
 30
0.0
  0
VERTEX
  8
1
  6
CONTINUOUS
 62
     5
  5
2CB
 10
253.192083
 20
111.174
 30
0.0
  0
VERTEX
  8
1
  6
CONTINUOUS
 62
     5
  5
2CC
 10
255.62875
 20
111.174
 30
0.0
  0
SEQEND
  8
1
  6
CONTINUOUS
 62
     5
  5
2CD
  0
CIRCLE
  8
1
  6
CONTINUOUS
 62
     5
  5
2CE
 10
253.580417
 20
112.547333
 30
0.0
 40
0.169648
210
0.0
220
0.0
230
1.0
  0
POLYLINE
  8
1
  6
CONTINUOUS
 62
     5
  5
2CF
 66
     1
 10
0.0
 20
0.0
 30
0.0
 70
     1
  0
VERTEX
  8
1
  6
CONTINUOUS
 62
     5
  5
2D0
 10
266.685417
 20
113.917333
 30
0.0
  0
VERTEX
  8
1
  6
CONTINUOUS
 62
     5
  5
2D1
 10
264.24875
 20
113.917333
 30
0.0
  0
VERTEX
  8
1
  6
CONTINUOUS
 62
     5
  5
2D2
 10
264.24875
 20
111.240667
 30
0.0
  0
VERTEX
  8
1
  6
CONTINUOUS
 62
     5
  5
2D3
 10
266.685417
 20
111.240667
 30
0.0
  0
SEQEND
  8
1
  6
CONTINUOUS
 62
     5
  5
2D4
  0
CIRCLE
  8
1
  6
CONTINUOUS
 62
     5
  5
2D5
 10
266.30375
 20
112.527333
 30
0.0
 40
0.169648
210
0.0
220
0.0
230
1.0
  0
LINE
  8
1
  6
CONTINUOUS
 62
     5
  5
2D6
 10
227.612083
 20
113.184
 30
0.0
 11
253.192083
 21
113.184
 31
0.0
  0
LINE
  8
1
  6
CONTINUOUS
 62
     5
  5
2D7
 10
227.612083
 20
111.885667
 30
0.0
 11
253.192083
 21
111.885667
 31
0.0
  0
LINE
  8
1
  6
CONTINUOUS
 62
     5
  5
2D8
 10
255.62875
 20
113.184
 30
0.0
 11
264.24875
 21
113.184
 31
0.0
  0
LINE
  8
1
  6
CONTINUOUS
 62
     5
  5
2D9
 10
266.685417
 20
113.184
 30
0.0
 11
271.425417
 21
113.184
 31
0.0
  0
LINE
  8
1
  6
CONTINUOUS
 62
     5
  5
2DA
 10
266.685417
 20
111.885667
 30
0.0
 11
271.425417
 21
111.885667
 31
0.0
  0
LINE
  8
1
  6
CONTINUOUS
 62
     5
  5
2DB
 10
253.992083
 20
113.184
 30
0.0
 11
254.82875
 21
113.184
 31
0.0
  0
LINE
  8
1
  6
CONTINUOUS
 62
     5
  5
2DC
 10
253.992083
 20
111.885667
 30
0.0
 11
254.82875
 21
111.885667
 31
0.0
  0
LINE
  8
1
  6
CONTINUOUS
 62
     5
  5
2DD
 10
265.04875
 20
113.184
 30
0.0
 11
265.885417
 21
113.184
 31
0.0
  0
LINE
  8
1
  6
CONTINUOUS
 62
     5
  5
2DE
 10
265.04875
 20
111.885667
 30
0.0
 11
265.885417
 21
111.885667
 31
0.0
  0
LINE
  8
1
  6
CONTINUOUS
 62
     5
  5
2DF
 10
265.450417
 20
105.814
 30
0.0
 11
271.425417
 21
105.814
 31
0.0
  0
LINE
  8
1
  6
HIDDEN
 62
     5
  5
2E0
 10
255.62875
 20
111.885667
 30
0.0
 11
259.472083
 21
111.885667
 31
0.0
  0
LINE
  8
1
  6
HIDDEN
 62
     5
  5
2E1
 10
260.357083
 20
111.885667
 30
0.0
 11
264.24875
 21
111.885667
 31
0.0
  0
LINE
  8
1
  6
HIDDEN
 62
     5
  5
2E2
 10
254.380417
 20
105.814
 30
0.0
 11
259.472083
 21
105.814
 31
0.0
  0
LINE
  8
1
  6
HIDDEN
 62
     5
  5
2E3
 10
260.357083
 20
105.814
 30
0.0
 11
265.450417
 21
105.814
 31
0.0
  0
LINE
  8
1
  6
CONTINUOUS
 62
     5
  5
2E4
 10
227.612083
 20
99.937333
 30
0.0
 11
254.380417
 21
99.937333
 31
0.0
  0
LINE
  8
1
  6
CONTINUOUS
 62
     5
  5
2E5
 10
265.450417
 20
99.937333
 30
0.0
 11
271.425417
 21
99.937333
 31
0.0
  0
LINE
  8
1
  6
CONTINUOUS
 62
     5
  5
2E6
 10
227.612083
 20
98.562333
 30
0.0
 11
253.192083
 21
98.562333
 31
0.0
  0
LINE
  8
1
  6
CONTINUOUS
 62
     5
  5
2E7
 10
266.685417
 20
98.562333
 30
0.0
 11
271.425417
 21
98.562333
 31
0.0
  0
LINE
  8
1
  6
CONTINUOUS
 62
     5
  5
2E8
 10
227.612083
 20
97.312333
 30
0.0
 11
253.192083
 21
97.312333
 31
0.0
  0
LINE
  8
1
  6
CONTINUOUS
 62
     5
  5
2E9
 10
266.685417
 20
97.312333
 30
0.0
 11
271.425417
 21
97.312333
 31
0.0
  0
POLYLINE
  8
1
  6
CONTINUOUS
 62
     5
  5
2EA
 66
     1
 10
0.0
 20
0.0
 30
0.0
 70
     1
  0
VERTEX
  8
1
  6
CONTINUOUS
 62
     5
  5
2EB
 10
255.62875
 20
99.229
 30
0.0
  0
VERTEX
  8
1
  6
CONTINUOUS
 62
     5
  5
2EC
 10
253.192083
 20
99.229
 30
0.0
  0
VERTEX
  8
1
  6
CONTINUOUS
 62
     5
  5
2ED
 10
253.192083
 20
96.552333
 30
0.0
  0
VERTEX
  8
1
  6
CONTINUOUS
 62
     5
  5
2EE
 10
255.62875
 20
96.552333
 30
0.0
  0
SEQEND
  8
1
  6
CONTINUOUS
 62
     5
  5
2EF
  0
CIRCLE
  8
1
  6
CONTINUOUS
 62
     5
  5
2F0
 10
253.580417
 20
97.925667
 30
0.0
 40
0.169648
210
0.0
220
0.0
230
1.0
  0
POLYLINE
  8
1
  6
CONTINUOUS
 62
     5
  5
2F1
 66
     1
 10
0.0
 20
0.0
 30
0.0
 70
     1
  0
VERTEX
  8
1
  6
CONTINUOUS
 62
     5
  5
2F2
 10
266.685417
 20
99.295667
 30
0.0
  0
VERTEX
  8
1
  6
CONTINUOUS
 62
     5
  5
2F3
 10
264.24875
 20
99.295667
 30
0.0
  0
VERTEX
  8
1
  6
CONTINUOUS
 62
     5
  5
2F4
 10
264.24875
 20
96.619
 30
0.0
  0
VERTEX
  8
1
  6
CONTINUOUS
 62
     5
  5
2F5
 10
266.685417
 20
96.619
 30
0.0
  0
SEQEND
  8
1
  6
CONTINUOUS
 62
     5
  5
2F6
  0
CIRCLE
  8
1
  6
CONTINUOUS
 62
     5
  5
2F7
 10
266.30375
 20
97.905667
 30
0.0
 40
0.169648
210
0.0
220
0.0
230
1.0
  0
LINE
  8
1
  6
CONTINUOUS
 62
     5
  5
2F8
 10
253.992083
 20
98.562333
 30
0.0
 11
254.82875
 21
98.562333
 31
0.0
  0
LINE
  8
1
  6
CONTINUOUS
 62
     5
  5
2F9
 10
253.992083
 20
97.264
 30
0.0
 11
254.82875
 21
97.264
 31
0.0
  0
LINE
  8
1
  6
CONTINUOUS
 62
     5
  5
2FA
 10
265.04875
 20
98.562333
 30
0.0
 11
265.885417
 21
98.562333
 31
0.0
  0
LINE
  8
1
  6
CONTINUOUS
 62
     5
  5
2FB
 10
265.04875
 20
97.264
 30
0.0
 11
265.885417
 21
97.264
 31
0.0
  0
LINE
  8
1
  6
HIDDEN
 62
     5
  5
2FC
 10
255.62875
 20
98.562333
 30
0.0
 11
259.472083
 21
98.562333
 31
0.0
  0
LINE
  8
1
  6
HIDDEN
 62
     5
  5
2FD
 10
260.357083
 20
98.562333
 30
0.0
 11
264.24875
 21
98.562333
 31
0.0
  0
LINE
  8
1
  6
HIDDEN
 62
     5
  5
2FE
 10
254.380417
 20
99.937333
 30
0.0
 11
259.472083
 21
99.937333
 31
0.0
  0
LINE
  8
1
  6
HIDDEN
 62
     5
  5
2FF
 10
260.357083
 20
99.937333
 30
0.0
 11
265.450417
 21
99.937333
 31
0.0
  0
LINE
  8
1
  6
HIDDEN
 62
     5
  5
300
 10
255.62875
 20
97.264
 30
0.0
 11
259.472083
 21
97.264
 31
0.0
  0
LINE
  8
1
  6
HIDDEN
 62
     5
  5
301
 10
260.357083
 20
97.264
 30
0.0
 11
264.24875
 21
97.264
 31
0.0
  0
LINE
  8
1
  6
CONTINUOUS
 62
     5
  5
302
 10
265.450417
 20
91.060667
 30
0.0
 11
271.425417
 21
91.060667
 31
0.0
  0
LINE
  8
1
  6
HIDDEN
 62
     5
  5
303
 10
254.380417
 20
91.060667
 30
0.0
 11
259.472083
 21
91.060667
 31
0.0
  0
LINE
  8
1
  6
HIDDEN
 62
     5
  5
304
 10
260.357083
 20
91.060667
 30
0.0
 11
265.450417
 21
91.060667
 31
0.0
  0
LINE
  8
1
  6
CONTINUOUS
 62
     5
  5
305
 10
227.612083
 20
84.934
 30
0.0
 11
254.380417
 21
84.934
 31
0.0
  0
LINE
  8
1
  6
CONTINUOUS
 62
     5
  5
306
 10
265.450417
 20
84.934
 30
0.0
 11
271.425417
 21
84.934
 31
0.0
  0
LINE
  8
1
  6
CONTINUOUS
 62
     5
  5
307
 10
227.612083
 20
83.684
 30
0.0
 11
253.192083
 21
83.684
 31
0.0
  0
LINE
  8
1
  6
CONTINUOUS
 62
     5
  5
308
 10
266.685417
 20
83.684
 30
0.0
 11
271.425417
 21
83.684
 31
0.0
  0
LINE
  8
1
  6
CONTINUOUS
 62
     5
  5
309
 10
227.612083
 20
82.307333
 30
0.0
 11
253.192083
 21
82.307333
 31
0.0
  0
LINE
  8
1
  6
CONTINUOUS
 62
     5
  5
30A
 10
266.685417
 20
82.307333
 30
0.0
 11
271.425417
 21
82.307333
 31
0.0
  0
LINE
  8
1
  6
HIDDEN
 62
     5
  5
30B
 10
254.380417
 20
84.934
 30
0.0
 11
259.472083
 21
84.934
 31
0.0
  0
POLYLINE
  8
1
  6
CONTINUOUS
 62
     5
  5
30C
 66
     1
 10
0.0
 20
0.0
 30
0.0
 70
     1
  0
VERTEX
  8
1
  6
CONTINUOUS
 62
     5
  5
30D
 10
255.62875
 20
84.225667
 30
0.0
  0
VERTEX
  8
1
  6
CONTINUOUS
 62
     5
  5
30E
 10
253.192083
 20
84.225667
 30
0.0
  0
VERTEX
  8
1
  6
CONTINUOUS
 62
     5
  5
30F
 10
253.192083
 20
81.549
 30
0.0
  0
VERTEX
  8
1
  6
CONTINUOUS
 62
     5
  5
310
 10
255.62875
 20
81.549
 30
0.0
  0
SEQEND
  8
1
  6
CONTINUOUS
 62
     5
  5
311
  0
CIRCLE
  8
1
  6
CONTINUOUS
 62
     5
  5
312
 10
253.580417
 20
82.922333
 30
0.0
 40
0.169648
210
0.0
220
0.0
230
1.0
  0
POLYLINE
  8
1
  6
CONTINUOUS
 62
     5
  5
313
 66
     1
 10
0.0
 20
0.0
 30
0.0
 70
     1
  0
VERTEX
  8
1
  6
CONTINUOUS
 62
     5
  5
314
 10
266.685417
 20
84.292333
 30
0.0
  0
VERTEX
  8
1
  6
CONTINUOUS
 62
     5
  5
315
 10
264.24875
 20
84.292333
 30
0.0
  0
VERTEX
  8
1
  6
CONTINUOUS
 62
     5
  5
316
 10
264.24875
 20
81.615667
 30
0.0
  0
VERTEX
  8
1
  6
CONTINUOUS
 62
     5
  5
317
 10
266.685417
 20
81.615667
 30
0.0
  0
SEQEND
  8
1
  6
CONTINUOUS
 62
     5
  5
318
  0
CIRCLE
  8
1
  6
CONTINUOUS
 62
     5
  5
319
 10
266.30375
 20
82.902333
 30
0.0
 40
0.169648
210
0.0
220
0.0
230
1.0
  0
LINE
  8
1
  6
CONTINUOUS
 62
     5
  5
31A
 10
253.992083
 20
83.559
 30
0.0
 11
254.82875
 21
83.559
 31
0.0
  0
LINE
  8
1
  6
CONTINUOUS
 62
     5
  5
31B
 10
253.992083
 20
82.260667
 30
0.0
 11
254.82875
 21
82.260667
 31
0.0
  0
LINE
  8
1
  6
CONTINUOUS
 62
     5
  5
31C
 10
265.04875
 20
83.559
 30
0.0
 11
265.885417
 21
83.559
 31
0.0
  0
LINE
  8
1
  6
CONTINUOUS
 62
     5
  5
31D
 10
265.04875
 20
82.260667
 30
0.0
 11
265.885417
 21
82.260667
 31
0.0
  0
LINE
  8
1
  6
HIDDEN
 62
     5
  5
31E
 10
255.62875
 20
83.559
 30
0.0
 11
259.472083
 21
83.559
 31
0.0
  0
LINE
  8
1
  6
HIDDEN
 62
     5
  5
31F
 10
260.357083
 20
83.559
 30
0.0
 11
264.24875
 21
83.559
 31
0.0
  0
LINE
  8
1
  6
HIDDEN
 62
     5
  5
320
 10
260.357083
 20
84.934
 30
0.0
 11
265.450417
 21
84.934
 31
0.0
  0
LINE
  8
1
  6
HIDDEN
 62
     5
  5
321
 10
255.62875
 20
82.260667
 30
0.0
 11
259.472083
 21
82.260667
 31
0.0
  0
LINE
  8
1
  6
HIDDEN
 62
     5
  5
322
 10
260.357083
 20
82.260667
 30
0.0
 11
264.24875
 21
82.260667
 31
0.0
  0
LINE
  8
1
  6
CONTINUOUS
 62
     5
  5
323
 10
265.450417
 20
76.430667
 30
0.0
 11
271.425417
 21
76.430667
 31
0.0
  0
LINE
  8
1
  6
HIDDEN
 62
     5
  5
324
 10
254.380417
 20
76.430667
 30
0.0
 11
259.472083
 21
76.430667
 31
0.0
  0
LINE
  8
1
  6
HIDDEN
 62
     5
  5
325
 10
260.357083
 20
76.430667
 30
0.0
 11
265.450417
 21
76.430667
 31
0.0
  0
LINE
  8
1
  6
CONTINUOUS
 62
     5
  5
326
 10
227.612083
 20
70.304
 30
0.0
 11
254.380417
 21
70.304
 31
0.0
  0
LINE
  8
1
  6
CONTINUOUS
 62
     5
  5
327
 10
265.450417
 20
70.304
 30
0.0
 11
271.425417
 21
70.304
 31
0.0
  0
LINE
  8
1
  6
CONTINUOUS
 62
     5
  5
328
 10
227.612083
 20
68.804
 30
0.0
 11
253.192083
 21
68.804
 31
0.0
  0
LINE
  8
1
  6
CONTINUOUS
 62
     5
  5
329
 10
266.685417
 20
68.804
 30
0.0
 11
271.425417
 21
68.804
 31
0.0
  0
LINE
  8
1
  6
CONTINUOUS
 62
     5
  5
32A
 10
266.685417
 20
67.679
 30
0.0
 11
271.425417
 21
67.679
 31
0.0
  0
LINE
  8
1
  6
HIDDEN
 62
     5
  5
32B
 10
254.380417
 20
70.304
 30
0.0
 11
259.472083
 21
70.304
 31
0.0
  0
POLYLINE
  8
1
  6
CONTINUOUS
 62
     5
  5
32C
 66
     1
 10
0.0
 20
0.0
 30
0.0
 70
     1
  0
VERTEX
  8
1
  6
CONTINUOUS
 62
     5
  5
32D
 10
255.62875
 20
69.595667
 30
0.0
  0
VERTEX
  8
1
  6
CONTINUOUS
 62
     5
  5
32E
 10
253.192083
 20
69.595667
 30
0.0
  0
VERTEX
  8
1
  6
CONTINUOUS
 62
     5
  5
32F
 10
253.192083
 20
66.919
 30
0.0
  0
VERTEX
  8
1
  6
CONTINUOUS
 62
     5
  5
330
 10
255.62875
 20
66.919
 30
0.0
  0
SEQEND
  8
1
  6
CONTINUOUS
 62
     5
  5
331
  0
CIRCLE
  8
1
  6
CONTINUOUS
 62
     5
  5
332
 10
253.580417
 20
68.292333
 30
0.0
 40
0.169648
210
0.0
220
0.0
230
1.0
  0
POLYLINE
  8
1
  6
CONTINUOUS
 62
     5
  5
333
 66
     1
 10
0.0
 20
0.0
 30
0.0
 70
     1
  0
VERTEX
  8
1
  6
CONTINUOUS
 62
     5
  5
334
 10
266.685417
 20
69.662333
 30
0.0
  0
VERTEX
  8
1
  6
CONTINUOUS
 62
     5
  5
335
 10
264.24875
 20
69.662333
 30
0.0
  0
VERTEX
  8
1
  6
CONTINUOUS
 62
     5
  5
336
 10
264.24875
 20
66.985667
 30
0.0
  0
VERTEX
  8
1
  6
CONTINUOUS
 62
     5
  5
337
 10
266.685417
 20
66.985667
 30
0.0
  0
SEQEND
  8
1
  6
CONTINUOUS
 62
     5
  5
338
  0
CIRCLE
  8
1
  6
CONTINUOUS
 62
     5
  5
339
 10
266.30375
 20
68.272333
 30
0.0
 40
0.169648
210
0.0
220
0.0
230
1.0
  0
LINE
  8
1
  6
CONTINUOUS
 62
     5
  5
33A
 10
253.992083
 20
68.929
 30
0.0
 11
254.82875
 21
68.929
 31
0.0
  0
LINE
  8
1
  6
CONTINUOUS
 62
     5
  5
33B
 10
253.992083
 20
67.630667
 30
0.0
 11
254.82875
 21
67.630667
 31
0.0
  0
LINE
  8
1
  6
CONTINUOUS
 62
     5
  5
33C
 10
265.04875
 20
68.929
 30
0.0
 11
265.885417
 21
68.929
 31
0.0
  0
LINE
  8
1
  6
CONTINUOUS
 62
     5
  5
33D
 10
265.04875
 20
67.630667
 30
0.0
 11
265.885417
 21
67.630667
 31
0.0
  0
LINE
  8
1
  6
HIDDEN
 62
     5
  5
33E
 10
255.62875
 20
68.929
 30
0.0
 11
259.472083
 21
68.929
 31
0.0
  0
LINE
  8
1
  6
HIDDEN
 62
     5
  5
33F
 10
260.357083
 20
68.929
 30
0.0
 11
264.24875
 21
68.929
 31
0.0
  0
LINE
  8
1
  6
HIDDEN
 62
     5
  5
340
 10
260.357083
 20
70.304
 30
0.0
 11
265.450417
 21
70.304
 31
0.0
  0
LINE
  8
1
  6
HIDDEN
 62
     5
  5
341
 10
255.62875
 20
67.630667
 30
0.0
 11
259.472083
 21
67.630667
 31
0.0
  0
LINE
  8
1
  6
HIDDEN
 62
     5
  5
342
 10
260.357083
 20
67.630667
 30
0.0
 11
264.24875
 21
67.630667
 31
0.0
  0
LINE
  8
1
  6
CONTINUOUS
 62
     5
  5
343
 10
131.867083
 20
113.184
 30
0.0
 11
167.67875
 21
113.184
 31
0.0
  0
LINE
  8
1
  6
CONTINUOUS
 62
     5
  5
344
 10
181.172083
 20
113.184
 30
0.0
 11
223.90875
 21
113.184
 31
0.0
  0
LINE
  8
1
  6
CONTINUOUS
 62
     5
  5
345
 10
131.867083
 20
111.885667
 30
0.0
 11
167.67875
 21
111.885667
 31
0.0
  0
LINE
  8
1
  6
CONTINUOUS
 62
     5
  5
346
 10
181.172083
 20
111.885667
 30
0.0
 11
223.90875
 21
111.885667
 31
0.0
  0
LINE
  8
1
  6
CONTINUOUS
 62
     5
  5
347
 10
131.867083
 20
105.814
 30
0.0
 11
168.867083
 21
105.814
 31
0.0
  0
LINE
  8
1
  6
CONTINUOUS
 62
     5
  5
348
 10
179.937083
 20
105.814
 30
0.0
 11
254.380417
 21
105.814
 31
0.0
  0
LINE
  8
1
  6
CONTINUOUS
 62
     5
  5
349
 10
131.867083
 20
99.937333
 30
0.0
 11
168.867083
 21
99.937333
 31
0.0
  0
LINE
  8
1
  6
CONTINUOUS
 62
     5
  5
34A
 10
179.937083
 20
99.937333
 30
0.0
 11
223.90875
 21
99.937333
 31
0.0
  0
LINE
  8
1
  6
CONTINUOUS
 62
     5
  5
34B
 10
131.867083
 20
98.562333
 30
0.0
 11
167.67875
 21
98.562333
 31
0.0
  0
LINE
  8
1
  6
CONTINUOUS
 62
     5
  5
34C
 10
181.172083
 20
98.562333
 30
0.0
 11
223.90875
 21
98.562333
 31
0.0
  0
LINE
  8
1
  6
CONTINUOUS
 62
     5
  5
34D
 10
131.867083
 20
97.312333
 30
0.0
 11
167.67875
 21
97.312333
 31
0.0
  0
LINE
  8
1
  6
CONTINUOUS
 62
     5
  5
34E
 10
181.172083
 20
97.312333
 30
0.0
 11
223.90875
 21
97.312333
 31
0.0
  0
LINE
  8
1
  6
CONTINUOUS
 62
     5
  5
34F
 10
131.867083
 20
91.060667
 30
0.0
 11
168.867083
 21
91.060667
 31
0.0
  0
LINE
  8
1
  6
CONTINUOUS
 62
     5
  5
350
 10
179.937083
 20
91.060667
 30
0.0
 11
254.380417
 21
91.060667
 31
0.0
  0
LINE
  8
1
  6
CONTINUOUS
 62
     5
  5
351
 10
131.867083
 20
84.934
 30
0.0
 11
168.867083
 21
84.934
 31
0.0
  0
LINE
  8
1
  6
CONTINUOUS
 62
     5
  5
352
 10
179.937083
 20
84.934
 30
0.0
 11
223.90875
 21
84.934
 31
0.0
  0
LINE
  8
1
  6
CONTINUOUS
 62
     5
  5
353
 10
131.867083
 20
83.684
 30
0.0
 11
167.67875
 21
83.684
 31
0.0
  0
LINE
  8
1
  6
CONTINUOUS
 62
     5
  5
354
 10
181.172083
 20
83.684
 30
0.0
 11
223.90875
 21
83.684
 31
0.0
  0
LINE
  8
1
  6
CONTINUOUS
 62
     5
  5
355
 10
131.867083
 20
82.307333
 30
0.0
 11
167.67875
 21
82.307333
 31
0.0
  0
LINE
  8
1
  6
CONTINUOUS
 62
     5
  5
356
 10
181.172083
 20
82.307333
 30
0.0
 11
223.90875
 21
82.307333
 31
0.0
  0
LINE
  8
1
  6
CONTINUOUS
 62
     5
  5
357
 10
131.867083
 20
76.430667
 30
0.0
 11
168.867083
 21
76.430667
 31
0.0
  0
LINE
  8
1
  6
CONTINUOUS
 62
     5
  5
358
 10
179.937083
 20
76.430667
 30
0.0
 11
254.380417
 21
76.430667
 31
0.0
  0
LINE
  8
1
  6
CONTINUOUS
 62
     5
  5
359
 10
131.867083
 20
70.304
 30
0.0
 11
168.867083
 21
70.304
 31
0.0
  0
LINE
  8
1
  6
CONTINUOUS
 62
     5
  5
35A
 10
179.937083
 20
70.304
 30
0.0
 11
223.90875
 21
70.304
 31
0.0
  0
LINE
  8
1
  6
CONTINUOUS
 62
     5
  5
35B
 10
131.867083
 20
68.804
 30
0.0
 11
167.67875
 21
68.804
 31
0.0
  0
LINE
  8
1
  6
CONTINUOUS
 62
     5
  5
35C
 10
181.172083
 20
68.804
 30
0.0
 11
223.90875
 21
68.804
 31
0.0
  0
LINE
  8
1
  6
CONTINUOUS
 62
     5
  5
35D
 10
131.867083
 20
67.679
 30
0.0
 11
167.67875
 21
67.679
 31
0.0
  0
LINE
  8
1
  6
CONTINUOUS
 62
     5
  5
35E
 10
181.172083
 20
67.679
 30
0.0
 11
253.192083
 21
67.679
 31
0.0
  0
LINE
  8
1
  6
HIDDEN
 62
     5
  5
35F
 10
173.95875
 20
113.184
 30
0.0
 11
173.95875
 21
41.267333
 31
0.0
  0
LINE
  8
1
  6
CONTINUOUS
 62
     5
  5
360
 10
168.867083
 20
111.174
 30
0.0
 11
168.867083
 21
41.267333
 31
0.0
  0
LINE
  8
1
  6
HIDDEN
 62
     5
  5
361
 10
174.84375
 20
113.184
 30
0.0
 11
174.84375
 21
41.267333
 31
0.0
  0
LINE
  8
1
  6
CONTINUOUS
 62
     5
  5
362
 10
179.937083
 20
111.240667
 30
0.0
 11
179.937083
 21
41.267333
 31
0.0
  0
POLYLINE
  8
1
  6
CONTINUOUS
 62
     5
  5
363
 66
     1
 10
0.0
 20
0.0
 30
0.0
 70
     1
  0
VERTEX
  8
1
  6
CONTINUOUS
 62
     5
  5
364
 10
170.115417
 20
113.850667
 30
0.0
  0
VERTEX
  8
1
  6
CONTINUOUS
 62
     5
  5
365
 10
167.67875
 20
113.850667
 30
0.0
  0
VERTEX
  8
1
  6
CONTINUOUS
 62
     5
  5
366
 10
167.67875
 20
111.174
 30
0.0
  0
VERTEX
  8
1
  6
CONTINUOUS
 62
     5
  5
367
 10
170.115417
 20
111.174
 30
0.0
  0
SEQEND
  8
1
  6
CONTINUOUS
 62
     5
  5
368
  0
CIRCLE
  8
1
  6
CONTINUOUS
 62
     5
  5
369
 10
168.067083
 20
112.547333
 30
0.0
 40
0.169648
210
0.0
220
0.0
230
1.0
  0
POLYLINE
  8
1
  6
CONTINUOUS
 62
     5
  5
36A
 66
     1
 10
0.0
 20
0.0
 30
0.0
 70
     1
  0
VERTEX
  8
1
  6
CONTINUOUS
 62
     5
  5
36B
 10
181.172083
 20
113.917333
 30
0.0
  0
VERTEX
  8
1
  6
CONTINUOUS
 62
     5
  5
36C
 10
178.735417
 20
113.917333
 30
0.0
  0
VERTEX
  8
1
  6
CONTINUOUS
 62
     5
  5
36D
 10
178.735417
 20
111.240667
 30
0.0
  0
VERTEX
  8
1
  6
CONTINUOUS
 62
     5
  5
36E
 10
181.172083
 20
111.240667
 30
0.0
  0
SEQEND
  8
1
  6
CONTINUOUS
 62
     5
  5
36F
  0
CIRCLE
  8
1
  6
CONTINUOUS
 62
     5
  5
370
 10
180.790417
 20
112.527333
 30
0.0
 40
0.169648
210
0.0
220
0.0
230
1.0
  0
LINE
  8
1
  6
CONTINUOUS
 62
     5
  5
371
 10
170.115417
 20
113.184
 30
0.0
 11
178.735417
 21
113.184
 31
0.0
  0
LINE
  8
1
  6
CONTINUOUS
 62
     5
  5
372
 10
168.47875
 20
113.184
 30
0.0
 11
169.315417
 21
113.184
 31
0.0
  0
LINE
  8
1
  6
CONTINUOUS
 62
     5
  5
373
 10
168.47875
 20
111.885667
 30
0.0
 11
169.315417
 21
111.885667
 31
0.0
  0
LINE
  8
1
  6
CONTINUOUS
 62
     5
  5
374
 10
179.535417
 20
113.184
 30
0.0
 11
180.372083
 21
113.184
 31
0.0
  0
LINE
  8
1
  6
CONTINUOUS
 62
     5
  5
375
 10
179.535417
 20
111.885667
 30
0.0
 11
180.372083
 21
111.885667
 31
0.0
  0
LINE
  8
1
  6
HIDDEN
 62
     5
  5
376
 10
170.115417
 20
111.885667
 30
0.0
 11
173.95875
 21
111.885667
 31
0.0
  0
LINE
  8
1
  6
HIDDEN
 62
     5
  5
377
 10
174.84375
 20
111.885667
 30
0.0
 11
178.735417
 21
111.885667
 31
0.0
  0
LINE
  8
1
  6
HIDDEN
 62
     5
  5
378
 10
168.867083
 20
105.814
 30
0.0
 11
173.95875
 21
105.814
 31
0.0
  0
LINE
  8
1
  6
HIDDEN
 62
     5
  5
379
 10
174.84375
 20
105.814
 30
0.0
 11
179.937083
 21
105.814
 31
0.0
  0
POLYLINE
  8
1
  6
CONTINUOUS
 62
     5
  5
37A
 66
     1
 10
0.0
 20
0.0
 30
0.0
 70
     1
  0
VERTEX
  8
1
  6
CONTINUOUS
 62
     5
  5
37B
 10
170.115417
 20
99.229
 30
0.0
  0
VERTEX
  8
1
  6
CONTINUOUS
 62
     5
  5
37C
 10
167.67875
 20
99.229
 30
0.0
  0
VERTEX
  8
1
  6
CONTINUOUS
 62
     5
  5
37D
 10
167.67875
 20
96.552333
 30
0.0
  0
VERTEX
  8
1
  6
CONTINUOUS
 62
     5
  5
37E
 10
170.115417
 20
96.552333
 30
0.0
  0
SEQEND
  8
1
  6
CONTINUOUS
 62
     5
  5
37F
  0
CIRCLE
  8
1
  6
CONTINUOUS
 62
     5
  5
380
 10
168.067083
 20
97.925667
 30
0.0
 40
0.169648
210
0.0
220
0.0
230
1.0
  0
POLYLINE
  8
1
  6
CONTINUOUS
 62
     5
  5
381
 66
     1
 10
0.0
 20
0.0
 30
0.0
 70
     1
  0
VERTEX
  8
1
  6
CONTINUOUS
 62
     5
  5
382
 10
181.172083
 20
99.295667
 30
0.0
  0
VERTEX
  8
1
  6
CONTINUOUS
 62
     5
  5
383
 10
178.735417
 20
99.295667
 30
0.0
  0
VERTEX
  8
1
  6
CONTINUOUS
 62
     5
  5
384
 10
178.735417
 20
96.619
 30
0.0
  0
VERTEX
  8
1
  6
CONTINUOUS
 62
     5
  5
385
 10
181.172083
 20
96.619
 30
0.0
  0
SEQEND
  8
1
  6
CONTINUOUS
 62
     5
  5
386
  0
CIRCLE
  8
1
  6
CONTINUOUS
 62
     5
  5
387
 10
180.790417
 20
97.905667
 30
0.0
 40
0.169648
210
0.0
220
0.0
230
1.0
  0
LINE
  8
1
  6
CONTINUOUS
 62
     5
  5
388
 10
168.47875
 20
98.562333
 30
0.0
 11
169.315417
 21
98.562333
 31
0.0
  0
LINE
  8
1
  6
CONTINUOUS
 62
     5
  5
389
 10
168.47875
 20
97.264
 30
0.0
 11
169.315417
 21
97.264
 31
0.0
  0
LINE
  8
1
  6
CONTINUOUS
 62
     5
  5
38A
 10
179.535417
 20
98.562333
 30
0.0
 11
180.372083
 21
98.562333
 31
0.0
  0
LINE
  8
1
  6
CONTINUOUS
 62
     5
  5
38B
 10
179.535417
 20
97.264
 30
0.0
 11
180.372083
 21
97.264
 31
0.0
  0
LINE
  8
1
  6
HIDDEN
 62
     5
  5
38C
 10
170.115417
 20
98.562333
 30
0.0
 11
173.95875
 21
98.562333
 31
0.0
  0
LINE
  8
1
  6
HIDDEN
 62
     5
  5
38D
 10
174.84375
 20
98.562333
 30
0.0
 11
178.735417
 21
98.562333
 31
0.0
  0
LINE
  8
1
  6
HIDDEN
 62
     5
  5
38E
 10
168.867083
 20
99.937333
 30
0.0
 11
173.95875
 21
99.937333
 31
0.0
  0
LINE
  8
1
  6
HIDDEN
 62
     5
  5
38F
 10
174.84375
 20
99.937333
 30
0.0
 11
179.937083
 21
99.937333
 31
0.0
  0
LINE
  8
1
  6
HIDDEN
 62
     5
  5
390
 10
170.115417
 20
97.264
 30
0.0
 11
173.95875
 21
97.264
 31
0.0
  0
LINE
  8
1
  6
HIDDEN
 62
     5
  5
391
 10
174.84375
 20
97.264
 30
0.0
 11
178.735417
 21
97.264
 31
0.0
  0
LINE
  8
1
  6
HIDDEN
 62
     5
  5
392
 10
168.867083
 20
91.060667
 30
0.0
 11
173.95875
 21
91.060667
 31
0.0
  0
LINE
  8
1
  6
HIDDEN
 62
     5
  5
393
 10
174.84375
 20
91.060667
 30
0.0
 11
179.937083
 21
91.060667
 31
0.0
  0
LINE
  8
1
  6
HIDDEN
 62
     5
  5
394
 10
168.867083
 20
84.934
 30
0.0
 11
173.95875
 21
84.934
 31
0.0
  0
POLYLINE
  8
1
  6
CONTINUOUS
 62
     5
  5
395
 66
     1
 10
0.0
 20
0.0
 30
0.0
 70
     1
  0
VERTEX
  8
1
  6
CONTINUOUS
 62
     5
  5
396
 10
170.115417
 20
84.225667
 30
0.0
  0
VERTEX
  8
1
  6
CONTINUOUS
 62
     5
  5
397
 10
167.67875
 20
84.225667
 30
0.0
  0
VERTEX
  8
1
  6
CONTINUOUS
 62
     5
  5
398
 10
167.67875
 20
81.549
 30
0.0
  0
VERTEX
  8
1
  6
CONTINUOUS
 62
     5
  5
399
 10
170.115417
 20
81.549
 30
0.0
  0
SEQEND
  8
1
  6
CONTINUOUS
 62
     5
  5
39A
  0
CIRCLE
  8
1
  6
CONTINUOUS
 62
     5
  5
39B
 10
168.067083
 20
82.922333
 30
0.0
 40
0.169648
210
0.0
220
0.0
230
1.0
  0
POLYLINE
  8
1
  6
CONTINUOUS
 62
     5
  5
39C
 66
     1
 10
0.0
 20
0.0
 30
0.0
 70
     1
  0
VERTEX
  8
1
  6
CONTINUOUS
 62
     5
  5
39D
 10
181.172083
 20
84.292333
 30
0.0
  0
VERTEX
  8
1
  6
CONTINUOUS
 62
     5
  5
39E
 10
178.735417
 20
84.292333
 30
0.0
  0
VERTEX
  8
1
  6
CONTINUOUS
 62
     5
  5
39F
 10
178.735417
 20
81.615667
 30
0.0
  0
VERTEX
  8
1
  6
CONTINUOUS
 62
     5
  5
3A0
 10
181.172083
 20
81.615667
 30
0.0
  0
SEQEND
  8
1
  6
CONTINUOUS
 62
     5
  5
3A1
  0
CIRCLE
  8
1
  6
CONTINUOUS
 62
     5
  5
3A2
 10
180.790417
 20
82.902333
 30
0.0
 40
0.169648
210
0.0
220
0.0
230
1.0
  0
LINE
  8
1
  6
CONTINUOUS
 62
     5
  5
3A3
 10
168.47875
 20
83.559
 30
0.0
 11
169.315417
 21
83.559
 31
0.0
  0
LINE
  8
1
  6
CONTINUOUS
 62
     5
  5
3A4
 10
168.47875
 20
82.260667
 30
0.0
 11
169.315417
 21
82.260667
 31
0.0
  0
LINE
  8
1
  6
CONTINUOUS
 62
     5
  5
3A5
 10
179.535417
 20
83.559
 30
0.0
 11
180.372083
 21
83.559
 31
0.0
  0
LINE
  8
1
  6
CONTINUOUS
 62
     5
  5
3A6
 10
179.535417
 20
82.260667
 30
0.0
 11
180.372083
 21
82.260667
 31
0.0
  0
LINE
  8
1
  6
HIDDEN
 62
     5
  5
3A7
 10
170.115417
 20
83.559
 30
0.0
 11
173.95875
 21
83.559
 31
0.0
  0
LINE
  8
1
  6
HIDDEN
 62
     5
  5
3A8
 10
174.84375
 20
83.559
 30
0.0
 11
178.735417
 21
83.559
 31
0.0
  0
LINE
  8
1
  6
HIDDEN
 62
     5
  5
3A9
 10
174.84375
 20
84.934
 30
0.0
 11
179.937083
 21
84.934
 31
0.0
  0
LINE
  8
1
  6
HIDDEN
 62
     5
  5
3AA
 10
170.115417
 20
82.260667
 30
0.0
 11
173.95875
 21
82.260667
 31
0.0
  0
LINE
  8
1
  6
HIDDEN
 62
     5
  5
3AB
 10
174.84375
 20
82.260667
 30
0.0
 11
178.735417
 21
82.260667
 31
0.0
  0
LINE
  8
1
  6
HIDDEN
 62
     5
  5
3AC
 10
168.867083
 20
76.430667
 30
0.0
 11
173.95875
 21
76.430667
 31
0.0
  0
LINE
  8
1
  6
HIDDEN
 62
     5
  5
3AD
 10
174.84375
 20
76.430667
 30
0.0
 11
179.937083
 21
76.430667
 31
0.0
  0
LINE
  8
1
  6
HIDDEN
 62
     5
  5
3AE
 10
168.867083
 20
70.304
 30
0.0
 11
173.95875
 21
70.304
 31
0.0
  0
POLYLINE
  8
1
  6
CONTINUOUS
 62
     5
  5
3AF
 66
     1
 10
0.0
 20
0.0
 30
0.0
 70
     1
  0
VERTEX
  8
1
  6
CONTINUOUS
 62
     5
  5
3B0
 10
170.115417
 20
69.595667
 30
0.0
  0
VERTEX
  8
1
  6
CONTINUOUS
 62
     5
  5
3B1
 10
167.67875
 20
69.595667
 30
0.0
  0
VERTEX
  8
1
  6
CONTINUOUS
 62
     5
  5
3B2
 10
167.67875
 20
66.919
 30
0.0
  0
VERTEX
  8
1
  6
CONTINUOUS
 62
     5
  5
3B3
 10
170.115417
 20
66.919
 30
0.0
  0
SEQEND
  8
1
  6
CONTINUOUS
 62
     5
  5
3B4
  0
CIRCLE
  8
1
  6
CONTINUOUS
 62
     5
  5
3B5
 10
168.067083
 20
68.292333
 30
0.0
 40
0.169648
210
0.0
220
0.0
230
1.0
  0
POLYLINE
  8
1
  6
CONTINUOUS
 62
     5
  5
3B6
 66
     1
 10
0.0
 20
0.0
 30
0.0
 70
     1
  0
VERTEX
  8
1
  6
CONTINUOUS
 62
     5
  5
3B7
 10
181.172083
 20
69.662333
 30
0.0
  0
VERTEX
  8
1
  6
CONTINUOUS
 62
     5
  5
3B8
 10
178.735417
 20
69.662333
 30
0.0
  0
VERTEX
  8
1
  6
CONTINUOUS
 62
     5
  5
3B9
 10
178.735417
 20
66.985667
 30
0.0
  0
VERTEX
  8
1
  6
CONTINUOUS
 62
     5
  5
3BA
 10
181.172083
 20
66.985667
 30
0.0
  0
SEQEND
  8
1
  6
CONTINUOUS
 62
     5
  5
3BB
  0
CIRCLE
  8
1
  6
CONTINUOUS
 62
     5
  5
3BC
 10
180.790417
 20
68.272333
 30
0.0
 40
0.169648
210
0.0
220
0.0
230
1.0
  0
LINE
  8
1
  6
CONTINUOUS
 62
     5
  5
3BD
 10
168.47875
 20
68.929
 30
0.0
 11
169.315417
 21
68.929
 31
0.0
  0
LINE
  8
1
  6
CONTINUOUS
 62
     5
  5
3BE
 10
168.47875
 20
67.630667
 30
0.0
 11
169.315417
 21
67.630667
 31
0.0
  0
LINE
  8
1
  6
CONTINUOUS
 62
     5
  5
3BF
 10
179.535417
 20
68.929
 30
0.0
 11
180.372083
 21
68.929
 31
0.0
  0
LINE
  8
1
  6
CONTINUOUS
 62
     5
  5
3C0
 10
179.535417
 20
67.630667
 30
0.0
 11
180.372083
 21
67.630667
 31
0.0
  0
LINE
  8
1
  6
HIDDEN
 62
     5
  5
3C1
 10
170.115417
 20
68.929
 30
0.0
 11
173.95875
 21
68.929
 31
0.0
  0
LINE
  8
1
  6
HIDDEN
 62
     5
  5
3C2
 10
174.84375
 20
68.929
 30
0.0
 11
178.735417
 21
68.929
 31
0.0
  0
LINE
  8
1
  6
HIDDEN
 62
     5
  5
3C3
 10
174.84375
 20
70.304
 30
0.0
 11
179.937083
 21
70.304
 31
0.0
  0
LINE
  8
1
  6
HIDDEN
 62
     5
  5
3C4
 10
170.115417
 20
67.630667
 30
0.0
 11
173.95875
 21
67.630667
 31
0.0
  0
LINE
  8
1
  6
HIDDEN
 62
     5
  5
3C5
 10
174.84375
 20
67.630667
 30
0.0
 11
178.735417
 21
67.630667
 31
0.0
  0
LINE
  8
1
  6
CONTINUOUS
 62
     5
  5
3C6
 10
197.320417
 20
143.165667
 30
0.0
 11
197.320417
 21
151.659
 31
0.0
  0
LINE
  8
1
  6
CONTINUOUS
 62
     5
  5
3C7
 10
225.255417
 20
143.165667
 30
0.0
 11
225.255417
 21
151.659
 31
0.0
  0
LINE
  8
1
  6
CONTINUOUS
 62
     5
  5
3C8
 10
273.752083
 20
143.165667
 30
0.0
 11
273.752083
 21
151.659
 31
0.0
  0
LINE
  8
1
  6
CONTINUOUS
 62
     5
  5
3C9
 10
302.252083
 20
143.165667
 30
0.0
 11
302.252083
 21
151.659
 31
0.0
  0
LINE
  8
1
  6
CONTINUOUS
 62
     5
  5
3CA
 10
174.37875
 20
114.475667
 30
0.0
 11
174.37875
 21
160.752333
 31
0.0
  0
LINE
  8
1
  6
CONTINUOUS
 62
     5
  5
3CB
 10
131.267083
 20
113.184
 30
0.0
 11
122.77375
 21
113.184
 31
0.0
  0
LINE
  8
1
  6
CONTINUOUS
 62
     5
  5
3CC
 10
131.267083
 20
61.802333
 30
0.0
 11
122.77375
 21
61.802333
 31
0.0
  0
LINE
  8
1
  6
CONTINUOUS
 62
     5
  5
3CD
 10
174.37875
 20
160.152333
 30
0.0
 11
259.91375
 21
160.152333
 31
0.0
  0
LINE
  8
1
  6
CONTINUOUS
 62
     5
  5
3CE
 10
197.320417
 20
151.059
 30
0.0
 11
225.255417
 21
151.059
 31
0.0
  0
LINE
  8
1
  6
CONTINUOUS
 62
     5
  5
3CF
 10
225.255417
 20
151.059
 30
0.0
 11
273.752083
 21
151.059
 31
0.0
  0
LINE
  8
1
  6
CONTINUOUS
 62
     5
  5
3D0
 10
273.752083
 20
151.059
 30
0.0
 11
302.252083
 21
151.059
 31
0.0
  0
LINE
  8
1
  6
CONTINUOUS
 62
     5
  5
3D1
 10
123.37375
 20
142.565667
 30
0.0
 11
123.37375
 21
113.184
 31
0.0
  0
LINE
  8
1
  6
CONTINUOUS
 62
     5
  5
3D2
 10
123.37375
 20
113.184
 30
0.0
 11
123.37375
 21
61.802333
 31
0.0
  0
LINE
  8
1
  6
CONTINUOUS
 62
     5
  5
3D3
 10
311.345417
 20
113.184
 30
0.0
 11
302.852083
 21
113.184
 31
0.0
  0
LINE
  8
1
  6
CONTINUOUS
 62
     5
  5
3D4
 10
311.345417
 20
142.565667
 30
0.0
 11
302.852083
 21
142.565667
 31
0.0
  0
LINE
  8
1
  6
CONTINUOUS
 62
     5
  5
3D5
 10
310.745417
 20
142.565667
 30
0.0
 11
310.745417
 21
113.184
 31
0.0
  0
LINE
  8
1
  6
CONTINUOUS
 62
     5
  5
3D6
 10
224.650417
 20
141.229
 30
0.0
 11
239.332167
 21
145.094583
 31
0.0
  0
LINE
  8
1
  6
CONTINUOUS
 62
     5
  5
3D7
 10
275.177083
 20
141.207333
 30
0.0
 11
260.650583
 21
145.032
 31
0.0
  0
LINE
  8
1
  6
CONTINUOUS
 62
     5
  5
3D8
 10
302.252083
 20
106.842333
 30
0.0
 11
319.03375
 21
106.842333
 31
0.0
  0
LINE
  8
1
  6
CONTINUOUS
 62
     5
  5
3D9
 10
267.215417
 20
113.914
 30
0.0
 11
304.85375
 21
94.154
 31
0.0
  0
LINE
  8
1
  6
CONTINUOUS
 62
     5
  5
3DA
 10
304.85375
 20
94.154
 30
0.0
 11
319.03375
 21
94.154
 31
0.0
  0
LINE
  8
1
  6
CONTINUOUS
 62
     5
  5
3DB
 10
254.380417
 20
64.340667
 30
0.0
 11
283.332083
 21
43.507333
 31
0.0
  0
LINE
  8
1
  6
CONTINUOUS
 62
     5
  5
3DC
 10
283.332083
 20
43.507333
 30
0.0
 11
298.305417
 21
43.507333
 31
0.0
  0
LINE
  8
1
  6
CONTINUOUS
 62
     5
  5
3DD
 10
168.867083
 20
49.872333
 30
0.0
 11
155.997083
 21
49.872333
 31
0.0
  0
LINE
  8
1
  6
CONTINUOUS
 62
     5
  5
3DE
 10
145.18875
 20
-57.467333
 30
0.0
 11
198.855417
 21
-57.467333
 31
0.0
  0
LINE
  8
1
  6
CONTINUOUS
 62
     5
  5
3DF
 10
108.68875
 20
-72.494
 30
0.0
 11
198.855417
 21
-72.494
 31
0.0
  0
LINE
  8
1
  6
CONTINUOUS
 62
     5
  5
3E0
 10
114.01375
 20
-74.170667
 30
0.0
 11
197.002083
 21
-74.170667
 31
0.0
  0
LINE
  8
1
  6
CONTINUOUS
 62
     5
  5
3E1
 10
150.36375
 20
-59.085667
 30
0.0
 11
193.002083
 21
-59.085667
 31
0.0
  0
LINE
  8
1
  6
CONTINUOUS
 62
     5
  5
3E2
 10
198.855417
 20
-57.467333
 30
0.0
 11
198.855417
 21
-87.410667
 31
0.0
  0
ARC
  8
1
  6
CONTINUOUS
 62
     5
  5
3E3
 10
193.002083
 20
-63.085667
 30
0.0
 40
4.0
 50
0.0
 51
90.0
210
0.0
220
0.0
230
1.0
  0
ARC
  8
1
  6
CONTINUOUS
 62
     5
  5
3E4
 10
193.855417
 20
-62.467333
 30
0.0
 40
5.0
 50
0.0
 51
90.0
210
0.0
220
0.0
230
1.0
  0
LINE
  8
1
  6
CONTINUOUS
 62
     5
  5
3E5
 10
145.18875
 20
-57.467333
 30
0.0
 11
145.18875
 21
-72.494
 31
0.0
  0
LINE
  8
1
  6
CONTINUOUS
 62
     5
  5
3E6
 10
146.36375
 20
-63.085667
 30
0.0
 11
146.36375
 21
-72.494
 31
0.0
  0
ARC
  8
1
  6
CONTINUOUS
 62
     5
  5
3E7
 10
150.18875
 20
-62.467333
 30
0.0
 40
5.0
 50
90.0
 51
180.0
210
0.0
220
0.0
230
1.0
  0
ARC
  8
1
  6
CONTINUOUS
 62
     5
  5
3E8
 10
150.36375
 20
-63.085667
 30
0.0
 40
4.0
 50
90.0
 51
180.0
210
0.0
220
0.0
230
1.0
  0
LINE
  8
1
  6
CONTINUOUS
 62
     5
  5
3E9
 10
108.68875
 20
-72.494
 30
0.0
 11
108.68875
 21
-87.410667
 31
0.0
  0
LINE
  8
1
  6
CONTINUOUS
 62
     5
  5
3EA
 10
110.01375
 20
-78.170667
 30
0.0
 11
110.01375
 21
-87.359
 31
0.0
  0
ARC
  8
1
  6
CONTINUOUS
 62
     5
  5
3EB
 10
114.01375
 20
-78.170667
 30
0.0
 40
4.0
 50
90.0
 51
180.0
210
0.0
220
0.0
230
1.0
  0
ARC
  8
1
  6
CONTINUOUS
 62
     5
  5
3EC
 10
113.68875
 20
-77.494
 30
0.0
 40
5.0
 50
90.0
 51
180.0
210
0.0
220
0.0
230
1.0
  0
LINE
  8
1
  6
CONTINUOUS
 62
     5
  5
3ED
 10
197.002083
 20
-63.085667
 30
0.0
 11
197.002083
 21
-72.494
 31
0.0
  0
LINE
  8
1
  6
CONTINUOUS
 62
     5
  5
3EE
 10
197.002083
 20
-74.170667
 30
0.0
 11
197.002083
 21
-87.410667
 31
0.0
  0
LINE
  8
1
  6
CONTINUOUS
 62
     5
  5
3EF
 10
146.170417
 20
60.419
 30
0.0
 11
146.170417
 21
63.219
 31
0.0
  0
LINE
  8
1
  6
CONTINUOUS
 62
     5
  5
3F0
 10
146.170417
 20
63.219
 30
0.0
 11
145.54375
 21
61.802333
 31
0.0
  0
LINE
  8
1
  6
CONTINUOUS
 62
     5
  5
3F1
 10
146.797083
 20
61.835667
 30
0.0
 11
146.170417
 21
60.419
 31
0.0
  0
LINE
  8
1
  6
CONTINUOUS
 62
     5
  5
3F2
 10
131.867083
 20
61.802333
 30
0.0
 11
145.54375
 21
61.802333
 31
0.0
  0
LINE
  8
1
  6
CONTINUOUS
 62
     5
  5
3F3
 10
146.782083
 20
61.802333
 30
0.0
 11
168.867083
 21
61.802333
 31
0.0
  0
LINE
  8
1
  6
CONTINUOUS
 62
     5
  5
3F4
 10
179.937083
 20
61.802333
 30
0.0
 11
197.712083
 21
61.802333
 31
0.0
  0
LINE
  8
1
  6
CONTINUOUS
 62
     5
  5
3F5
 10
198.33875
 20
60.419
 30
0.0
 11
198.33875
 21
63.219
 31
0.0
  0
LINE
  8
1
  6
CONTINUOUS
 62
     5
  5
3F6
 10
198.33875
 20
63.219
 30
0.0
 11
197.712083
 21
61.802333
 31
0.0
  0
LINE
  8
1
  6
CONTINUOUS
 62
     5
  5
3F7
 10
198.965417
 20
61.835667
 30
0.0
 11
198.33875
 21
60.419
 31
0.0
  0
LINE
  8
1
  6
CONTINUOUS
 62
     5
  5
3F8
 10
198.950417
 20
61.802333
 30
0.0
 11
229.987083
 21
61.802333
 31
0.0
  0
LINE
  8
1
  6
CONTINUOUS
 62
     5
  5
3F9
 10
231.225417
 20
61.802333
 30
0.0
 11
254.380417
 21
61.802333
 31
0.0
  0
LINE
  8
1
  6
CONTINUOUS
 62
     5
  5
3FA
 10
265.450417
 20
61.802333
 30
0.0
 11
277.07375
 21
61.802333
 31
0.0
  0
LINE
  8
1
  6
CONTINUOUS
 62
     5
  5
3FB
 10
278.312083
 20
61.802333
 30
0.0
 11
302.252083
 21
61.802333
 31
0.0
  0
LINE
  8
1
  6
CONTINUOUS
 62
     5
  5
3FC
 10
230.61375
 20
60.419
 30
0.0
 11
230.61375
 21
63.219
 31
0.0
  0
LINE
  8
1
  6
CONTINUOUS
 62
     5
  5
3FD
 10
230.61375
 20
63.219
 30
0.0
 11
229.987083
 21
61.802333
 31
0.0
  0
LINE
  8
1
  6
CONTINUOUS
 62
     5
  5
3FE
 10
231.240417
 20
61.835667
 30
0.0
 11
230.61375
 21
60.419
 31
0.0
  0
LINE
  8
1
  6
CONTINUOUS
 62
     5
  5
3FF
 10
277.700417
 20
60.419
 30
0.0
 11
277.700417
 21
63.219
 31
0.0
  0
LINE
  8
1
  6
CONTINUOUS
 62
     5
  5
400
 10
277.700417
 20
63.219
 30
0.0
 11
277.07375
 21
61.802333
 31
0.0
  0
LINE
  8
1
  6
CONTINUOUS
 62
     5
  5
401
 10
278.327083
 20
61.835667
 30
0.0
 11
277.700417
 21
60.419
 31
0.0
  0
LINE
  8
1
  6
CONTINUOUS
 62
     5
  5
402
 10
225.757083
 20
67.559
 30
0.0
 11
230.641667
 21
32.268917
 31
0.0
  0
LINE
  8
1
  6
CONTINUOUS
 62
     5
  5
403
 10
230.641667
 20
32.268917
 30
0.0
 11
236.793333
 21
32.268917
 31
0.0
  0
LINE
  8
1
  6
CONTINUOUS
 62
     5
  5
404
 10
122.897083
 20
-88.794
 30
0.0
 11
122.897083
 21
-85.994
 31
0.0
  0
LINE
  8
1
  6
CONTINUOUS
 62
     5
  5
405
 10
122.897083
 20
-85.994
 30
0.0
 11
122.270417
 21
-87.410667
 31
0.0
  0
LINE
  8
1
  6
CONTINUOUS
 62
     5
  5
406
 10
123.52375
 20
-87.377333
 30
0.0
 11
122.897083
 21
-88.794
 31
0.0
  0
LINE
  8
1
  6
CONTINUOUS
 62
     5
  5
407
 10
152.622083
 20
-88.794
 30
0.0
 11
152.622083
 21
-85.994
 31
0.0
  0
LINE
  8
1
  6
CONTINUOUS
 62
     5
  5
408
 10
152.622083
 20
-85.994
 30
0.0
 11
151.995417
 21
-87.410667
 31
0.0
  0
LINE
  8
1
  6
CONTINUOUS
 62
     5
  5
409
 10
153.24875
 20
-87.377333
 30
0.0
 11
152.622083
 21
-88.794
 31
0.0
  0
LINE
  8
1
  6
CONTINUOUS
 62
     5
  5
40A
 10
183.157083
 20
-88.794
 30
0.0
 11
183.157083
 21
-85.994
 31
0.0
  0
LINE
  8
1
  6
CONTINUOUS
 62
     5
  5
40B
 10
183.157083
 20
-85.994
 30
0.0
 11
182.530417
 21
-87.410667
 31
0.0
  0
LINE
  8
1
  6
CONTINUOUS
 62
     5
  5
40C
 10
183.78375
 20
-87.377333
 30
0.0
 11
183.157083
 21
-88.794
 31
0.0
  0
LINE
  8
1
  6
CONTINUOUS
 62
     5
  5
40D
 10
108.68875
 20
-87.410667
 30
0.0
 11
122.270417
 21
-87.410667
 31
0.0
  0
LINE
  8
1
  6
CONTINUOUS
 62
     5
  5
40E
 10
123.50875
 20
-87.410667
 30
0.0
 11
151.995417
 21
-87.410667
 31
0.0
  0
LINE
  8
1
  6
CONTINUOUS
 62
     5
  5
40F
 10
153.23375
 20
-87.410667
 30
0.0
 11
182.530417
 21
-87.410667
 31
0.0
  0
LINE
  8
1
  6
CONTINUOUS
 62
     5
  5
410
 10
183.76875
 20
-87.410667
 30
0.0
 11
198.855417
 21
-87.410667
 31
0.0
  0
LINE
  8
1
  6
CONTINUOUS
 62
     5
  5
411
 10
145.18875
 20
-56.867333
 30
0.0
 11
145.18875
 21
-32.774
 31
0.0
  0
LINE
  8
1
  6
CONTINUOUS
 62
     5
  5
412
 10
198.855417
 20
-56.867333
 30
0.0
 11
198.855417
 21
-32.774
 31
0.0
  0
LINE
  8
1
  6
CONTINUOUS
 62
     5
  5
413
 10
199.455417
 20
-57.467333
 30
0.0
 11
222.482083
 21
-57.467333
 31
0.0
  0
LINE
  8
1
  6
CONTINUOUS
 62
     5
  5
414
 10
199.455417
 20
-72.494
 30
0.0
 11
222.482083
 21
-72.494
 31
0.0
  0
LINE
  8
1
  6
CONTINUOUS
 62
     5
  5
415
 10
199.455417
 20
-60.770667
 30
0.0
 11
210.867083
 21
-60.770667
 31
0.0
  0
LINE
  8
1
  6
CONTINUOUS
 62
     5
  5
416
 10
199.455417
 20
-70.662333
 30
0.0
 11
210.867083
 21
-70.662333
 31
0.0
  0
LINE
  8
1
  6
CONTINUOUS
 62
     5
  5
417
 10
150.077083
 20
-56.867333
 30
0.0
 11
150.077083
 21
-45.470667
 31
0.0
  0
LINE
  8
1
  6
CONTINUOUS
 62
     5
  5
418
 10
166.297083
 20
-56.867333
 30
0.0
 11
166.297083
 21
-45.470667
 31
0.0
  0
LINE
  8
1
  6
CONTINUOUS
 62
     5
  5
419
 10
183.702083
 20
-56.867333
 30
0.0
 11
183.702083
 21
-45.470667
 31
0.0
  0
LINE
  8
1
  6
CONTINUOUS
 62
     5
  5
41A
 10
191.615417
 20
-56.867333
 30
0.0
 11
191.615417
 21
-45.470667
 31
0.0
  0
LINE
  8
1
  6
CONTINUOUS
 62
     5
  5
41B
 10
144.58875
 20
-57.467333
 30
0.0
 11
133.03875
 21
-57.467333
 31
0.0
  0
LINE
  8
1
  6
CONTINUOUS
 62
     5
  5
41C
 10
144.58875
 20
-61.562333
 30
0.0
 11
133.03875
 21
-61.562333
 31
0.0
  0
LINE
  8
1
  6
CONTINUOUS
 62
     5
  5
41D
 10
144.58875
 20
-68.157333
 30
0.0
 11
133.03875
 21
-68.157333
 31
0.0
  0
LINE
  8
1
  6
CONTINUOUS
 62
     5
  5
41E
 10
145.18875
 20
-33.374
 30
0.0
 11
198.855417
 21
-33.374
 31
0.0
  0
LINE
  8
1
  6
CONTINUOUS
 62
     5
  5
41F
 10
221.882083
 20
-57.467333
 30
0.0
 11
221.882083
 21
-72.494
 31
0.0
  0
LINE
  8
1
  6
CONTINUOUS
 62
     5
  5
420
 10
199.26375
 20
-74.355667
 30
0.0
 11
208.362083
 21
-80.819
 31
0.0
  0
LINE
  8
1
  6
CONTINUOUS
 62
     5
  5
421
 10
208.362083
 20
-80.819
 30
0.0
 11
214.16375
 21
-80.819
 31
0.0
  0
LINE
  8
61
  6
CONTINUOUS
 62
     1
  5
423
 10
407.219583
 20
221.877083
 30
0.0
 11
-231.820417
 21
221.877083
 31
0.0
  0
LINE
  8
61
  6
CONTINUOUS
 62
     1
  5
424
 10
-231.820417
 20
221.877083
 30
0.0
 11
-231.820417
 21
-198.142917
 31
0.0
  0
LINE
  8
61
  6
CONTINUOUS
 62
     1
  5
425
 10
407.239583
 20
-198.162917
 30
0.0
 11
-231.820417
 21
-198.142917
 31
0.0
  0
LINE
  8
61
  6
CONTINUOUS
 62
     1
  5
426
 10
407.219583
 20
221.877083
 30
0.0
 11
407.239583
 21
-198.162917
 31
0.0
  0
LINE
  8
61
  6
CONTINUOUS
 62
     1
  5
427
 10
401.119583
 20
217.137083
 30
0.0
 11
293.139583
 21
217.117083
 31
0.0
  0
LINE
  8
61
  6
CONTINUOUS
 62
     1
  5
428
 10
293.139583
 20
217.117083
 30
0.0
 11
293.139583
 21
197.117083
 31
0.0
  0
LINE
  8
61
  6
CONTINUOUS
 62
     1
  5
429
 10
401.119583
 20
217.137083
 30
0.0
 11
401.119583
 21
197.137083
 31
0.0
  0
LINE
  8
61
  6
CONTINUOUS
 62
     1
  5
42A
 10
401.119583
 20
197.137083
 30
0.0
 11
293.139583
 21
197.117083
 31
0.0
  0
LINE
  8
61
  6
CONTINUOUS
 62
     1
  5
42B
 10
401.139583
 20
207.097083
 30
0.0
 11
293.119583
 21
207.117083
 31
0.0
  0
LINE
  8
61
  6
CONTINUOUS
 62
     1
  5
42C
 10
303.139583
 20
217.117083
 30
0.0
 11
303.139583
 21
197.117083
 31
0.0
  0
LINE
  8
61
  6
CONTINUOUS
 62
     1
  5
42D
 10
313.139583
 20
217.117083
 30
0.0
 11
313.139583
 21
197.117083
 31
0.0
  0
LINE
  8
61
  6
CONTINUOUS
 62
     1
  5
42E
 10
326.819583
 20
217.117083
 30
0.0
 11
326.819583
 21
197.117083
 31
0.0
  0
LINE
  8
61
  6
CONTINUOUS
 62
     1
  5
42F
 10
391.119583
 20
217.137083
 30
0.0
 11
391.119583
 21
197.137083
 31
0.0
  0
LINE
  8
61
  6
CONTINUOUS
 62
     1
  5
430
 10
381.119583
 20
217.137083
 30
0.0
 11
381.119583
 21
197.137083
 31
0.0
  0
LINE
  8
61
  6
CONTINUOUS
 62
     1
  5
431
 10
359.139583
 20
217.117083
 30
0.0
 11
359.139583
 21
197.117083
 31
0.0
  0
LINE
  8
61
  6
CONTINUOUS
 62
     1
  5
432
 10
349.139583
 20
217.117083
 30
0.0
 11
349.139583
 21
197.117083
 31
0.0
  0
TEXT
  8
61
  6
CONTINUOUS
 62
     1
  5
434
 10
295.179583
 20
214.097083
 30
0.0
 40
1.20075
  1
PUBLIC
 50
0.033272
 41
1.001804
  7
MONOTXT
210
0.0
220
0.0
230
1.0
  0
TEXT
  8
61
  6
CONTINUOUS
 62
     1
  5
435
 10
295.259583
 20
211.577083
 30
0.0
 40
1.20075
  1
ROADS
 50
0.124322
 41
0.996877
  7
MONOTXT
210
0.0
220
0.0
230
1.0
  0
TEXT
  8
61
  6
CONTINUOUS
 62
     1
  5
436
 10
296.459583
 20
209.077083
 30
0.0
 40
1.20075
  1
DIV.
 50
359.931522
 41
0.994864
  7
MONOTXT
210
0.0
220
0.0
230
1.0
  0
TEXT
  8
61
  6
CONTINUOUS
 62
     1
  5
437
 10
305.339583
 20
214.157083
 30
0.0
 40
1.20075
  1
STATE
 50
0.058969
 41
0.998196
  7
MONOTXT
210
0.0
220
0.0
230
1.0
  0
TEXT
  8
61
  6
CONTINUOUS
 62
     1
  5
438
 10
306.219583
 20
211.657083
 30
0.0
 40
1.20075
  1
DIST.
 50
0.055889
 41
0.999584
  7
MONOTXT
210
0.0
220
0.0
230
1.0
  0
TEXT
  8
61
  6
CONTINUOUS
 62
     1
  5
439
 10
306.799583
 20
209.137083
 30
0.0
 40
1.20075
  1
NO.
 50
359.852072
 41
0.997779
  7
MONOTXT
210
0.0
220
0.0
230
1.0
  0
TEXT
  8
61
  6
CONTINUOUS
 62
     1
  5
43A
 10
317.339583
 20
214.097083
 30
0.0
 40
1.20075
  1
STATE
 50
0.058969
 41
0.998196
  7
MONOTXT
210
0.0
220
0.0
230
1.0
  0
TEXT
  8
61
  6
CONTINUOUS
 62
     1
  5
43B
 10
316.259583
 20
211.677083
 30
0.0
 40
1.20075
  1
PROJECT
 50
359.908431
 41
1.000069
  7
MONOTXT
210
0.0
220
0.0
230
1.0
  0
TEXT
  8
61
  6
CONTINUOUS
 62
     1
  5
43C
 10
318.999583
 20
209.137083
 30
0.0
 40
1.20075
  1
NO.
 50
0.225453
 41
0.993546
  7
MONOTXT
210
0.0
220
0.0
230
1.0
  0
TEXT
  8
61
  6
CONTINUOUS
 62
     1
  5
43D
 10
334.639583
 20
212.977083
 30
0.0
 40
1.20075
  1
FEDERAL
 50
0.006714
 41
0.998543
  7
MONOTXT
210
0.0
220
0.0
230
1.0
  0
TEXT
  8
61
  6
CONTINUOUS
 62
     1
  5
43E
 10
333.099583
 20
210.317083
 30
0.0
 40
1.20075
  1
PROJECT NO.
 50
359.921531
 41
1.000694
  7
MONOTXT
210
0.0
220
0.0
230
1.0
  0
TEXT
  8
61
  6
CONTINUOUS
 62
     1
  5
43F
 10
351.379583
 20
212.917083
 30
0.0
 40
1.20075
  1
FISCAL
 50
359.941939
 41
0.998959
  7
MONOTXT
210
0.0
220
0.0
230
1.0
  0
TEXT
  8
61
  6
CONTINUOUS
 62
     1
  5
440
 10
351.899583
 20
210.017083
 30
0.0
 40
1.20075
  1
YEAR
 50
0.104606
 41
0.993268
  7
MONOTXT
210
0.0
220
0.0
230
1.0
  0
TEXT
  8
61
  6
CONTINUOUS
 62
     1
  5
441
 10
365.999583
 20
211.377083
 30
0.0
 40
1.20075
  1
COUNTY
 50
0.068575
 41
1.001874
  7
MONOTXT
210
0.0
220
0.0
230
1.0
  0
TEXT
  8
61
  6
CONTINUOUS
 62
     1
  5
442
 10
383.639583
 20
213.037083
 30
0.0
 40
1.20075
  1
SHEET
 50
0.058969
 41
0.997571
  7
MONOTXT
210
0.0
220
0.0
230
1.0
  0
TEXT
  8
61
  6
CONTINUOUS
 62
     1
  5
443
 10
385.059583
 20
210.317083
 30
0.0
 40
1.20075
  1
NO.
 50
359.852072
 41
0.997779
  7
MONOTXT
210
0.0
220
0.0
230
1.0
  0
TEXT
  8
61
  6
CONTINUOUS
 62
     1
  5
444
 10
393.379583
 20
212.897083
 30
0.0
 40
1.20075
  1
TOTAL
 50
359.926039
 41
0.998543
  7
MONOTXT
210
0.0
220
0.0
230
1.0
  0
TEXT
  8
61
  6
CONTINUOUS
 62
     1
  5
445
 10
392.919583
 20
210.197083
 30
0.0
 40
1.20075
  1
SHEETS
 50
359.958675
  7
MONOTXT
210
0.0
220
0.0
230
1.0
  0
TEXT
  8
61
  6
CONTINUOUS
 62
     1
  5
446
 10
305.739583
 20
201.317083
 30
0.0
 40
2.401333
  1
  
 50
0.029406
 41
0.996495
  7
MONOTXT
210
0.0
220
0.0
230
1.0
  0
TEXT
  8
61
  6
CONTINUOUS
 62
     1
  5
447
 10
382.919583
 20
201.037083
 30
0.0
 40
2.401333
  1
   
 50
0.011508
 41
1.001006
  7
MONOTXT
210
0.0
220
0.0
230
1.0
  0
TEXT
  8
61
  6
CONTINUOUS
 62
     1
  5
448
 10
392.799583
 20
201.017083
 30
0.0
 40
2.401333
  1
   
 50
359.922128
 41
1.000555
  7
MONOTXT
210
0.0
220
0.0
230
1.0
  0
TEXT
  8
61
  6
CONTINUOUS
 62
     1
  5
449
 10
316.179583
 20
204.417083
 30
0.0
 40
2.00675
  1
    
 50
0.054383
 41
0.993729
  7
MONOTXT
210
0.0
220
0.0
230
1.0
  0
TEXT
  8
61
  6
CONTINUOUS
 62
     1
  5
44A
 10
313.259583
 20
201.397083
 30
0.0
 40
1.989583
  1
       
 50
0.064678
 41
1.000963
  7
MONOTXT
210
0.0
220
0.0
230
1.0
  0
TEXT
  8
61
  6
CONTINUOUS
 62
     1
  5
44B
 10
314.219583
 20
198.497083
 30
0.0
 40
1.989583
  1
      
 50
359.958053
 41
1.000293
  7
MONOTXT
210
0.0
220
0.0
230
1.0
  0
TEXT
  8
61
  6
CONTINUOUS
 62
     1
  5
44C
 10
325.179583
 20
203.137083
 30
0.0
 40
2.401333
  1
           
 50
0.011508
 41
0.998751
  7
MONOTXT
210
0.0
220
0.0
230
1.0
  0
TEXT
  8
61
  6
CONTINUOUS
 62
     1
  5
44D
 10
325.059583
 20
199.477083
 30
0.0
 40
2.401333
  1
           
 50
0.011508
 41
0.999584
  7
MONOTXT
210
0.0
220
0.0
230
1.0
  0
TEXT
  8
61
  6
CONTINUOUS
 62
     1
  5
44E
 10
360.399583
 20
201.217083
 30
0.0
 40
2.00675
  1
          
 50
0.009222
 41
0.992774
  7
MONOTXT
210
0.0
220
0.0
230
1.0
  0
ARC
  8
61
  6
CONTINUOUS
 62
     1
  5
44F
 10
-250.12266
 20
133.118378
 30
0.0
 40
2.499998
 50
323.130094
 51
316.232156
210
0.0
220
0.0
230
1.0
  0
ARC
  8
61
  6
CONTINUOUS
 62
     1
  5
450
 10
-250.12266
 20
78.118378
 30
0.0
 40
2.499998
 50
323.130094
 51
315.375767
210
0.0
220
0.0
230
1.0
  0
ARC
  8
61
  6
CONTINUOUS
 62
     1
  5
451
 10
-250.40266
 20
-70.321622
 30
0.0
 40
2.499998
 50
322.671753
 51
321.716147
210
0.0
220
0.0
230
1.0
  0
ARC
  8
61
  6
CONTINUOUS
 62
     1
  5
452
 10
-250.40266
 20
-125.321622
 30
0.0
 40
2.499998
 50
323.130094
 51
312.314392
210
0.0
220
0.0
230
1.0
  0
LINE
  8
61
  6
CONTINUOUS
 62
     1
  5
453
 10
-248.100417
 20
133.117083
 30
0.0
 11
-240.120417
 21
133.137083
 31
0.0
  0
LINE
  8
61
  6
CONTINUOUS
 62
     1
  5
454
 10
-248.120417
 20
78.117083
 30
0.0
 11
-240.120417
 21
78.117083
 31
0.0
  0
LINE
  8
61
  6
CONTINUOUS
 62
     1
  5
455
 10
-248.400417
 20
-70.302917
 30
0.0
 11
-240.400417
 21
-70.302917
 31
0.0
  0
LINE
  8
61
  6
CONTINUOUS
 62
     1
  5
456
 10
-248.380417
 20
-125.322917
 30
0.0
 11
-240.400417
 21
-125.322917
 31
0.0
  0
LINE
  8
61
  6
DASHED
 62
     1
  5
457
 10
-261.820417
 20
231.877083
 30
0.0
 11
418.199583
 21
231.877083
 31
0.0
  0
LINE
  8
61
  6
DASHED
 62
     1
  5
458
 10
418.179583
 20
-208.142917
 30
0.0
 11
-261.880417
 21
-208.162917
 31
0.0
  0
TEXT
  8
61
  6
CONTINUOUS
 62
     1
  5
459
 10
380.659583
 20
189.297083
 30
0.0
 40
2.401333
  1
     
 41
1.001388
  7
MONOTXT
210
0.0
220
0.0
230
1.0
  0
LINE
  8
1
  6
HIDDEN
 62
     1
  5
45A
 10
418.199583
 20
231.877083
 30
0.0
 11
418.179583
 21
-208.142917
 31
0.0
  0
LINE
  8
1
  6
HIDDEN
 62
     1
  5
45B
 10
-261.820417
 20
231.877083
 30
0.0
 11
-261.880417
 21
-208.162917
 31
0.0
  0
TEXT
  8
1
  6
CONTINUOUS
 62
     1
  5
45D
 10
372.959583
 20
-200.662917
 30
0.0
 40
1.2
  1
TRAFFIC ENGINEERING DIVISION
  7
txt
210
0.0
220
0.0
230
1.0
  0
LINE
  8
1
  6
CONTINUOUS
 62
     1
  5
45E
 10
235.579583
 20
-198.162917
 30
0.0
 11
235.579583
 21
-106.582917
 31
0.0
  0
LINE
  8
1
  6
CONTINUOUS
 62
     1
  5
45F
 10
235.579583
 20
-106.582917
 30
0.0
 11
407.239583
 21
-106.582917
 31
0.0
  0
LINE
  8
1
  6
CONTINUOUS
 62
     1
  5
460
 10
270.579583
 20
-198.202917
 30
0.0
 11
270.579583
 21
-153.242917
 31
0.0
  0
LINE
  8
1
  6
CONTINUOUS
 62
     1
  5
461
 10
270.579583
 20
-153.242917
 30
0.0
 11
235.599583
 21
-153.242917
 31
0.0
  0
LINE
  8
1
  6
CONTINUOUS
 62
     1
  5
462
 10
270.579583
 20
-157.722917
 30
0.0
 11
235.599583
 21
-157.722917
 31
0.0
  0
LINE
  8
1
  6
CONTINUOUS
 62
     1
  5
463
 10
270.579583
 20
-162.222917
 30
0.0
 11
235.599583
 21
-162.222917
 31
0.0
  0
LINE
  8
1
  6
CONTINUOUS
 62
     1
  5
464
 10
270.579583
 20
-166.722917
 30
0.0
 11
235.599583
 21
-166.722917
 31
0.0
  0
LINE
  8
1
  6
CONTINUOUS
 62
     1
  5
465
 10
270.579583
 20
-171.242917
 30
0.0
 11
235.599583
 21
-171.242917
 31
0.0
  0
LINE
  8
1
  6
CONTINUOUS
 62
     1
  5
466
 10
270.579583
 20
-175.722917
 30
0.0
 11
235.599583
 21
-175.722917
 31
0.0
  0
LINE
  8
1
  6
CONTINUOUS
 62
     1
  5
467
 10
270.579583
 20
-180.202917
 30
0.0
 11
235.599583
 21
-180.202917
 31
0.0
  0
LINE
  8
1
  6
CONTINUOUS
 62
     1
  5
468
 10
270.579583
 20
-184.702917
 30
0.0
 11
235.599583
 21
-184.702917
 31
0.0
  0
LINE
  8
1
  6
CONTINUOUS
 62
     1
  5
469
 10
270.579583
 20
-189.202917
 30
0.0
 11
235.599583
 21
-189.202917
 31
0.0
  0
LINE
  8
1
  6
CONTINUOUS
 62
     1
  5
46A
 10
270.579583
 20
-193.722917
 30
0.0
 11
235.599583
 21
-193.722917
 31
0.0
  0
TEXT
  8
1
  6
CONTINUOUS
 62
     1
  5
46B
 10
245.859583
 20
-156.242917
 30
0.0
 40
1.99775
  1
REVISIONS
  7
MONOTXT
210
0.0
220
0.0
230
1.0
  0
TEXT
  8
1
  6
CONTINUOUS
 62
     1
  5
46C
 10
237.539583
 20
-152.242917
 30
0.0
 40
1.99775
  1
PREPARED: 03/29/67
  7
MONOTXT
210
0.0
220
0.0
230
1.0
  0
TEXT
  8
1
  6
CONTINUOUS
 62
     1
  5
46E
 10
268.199583
 20
-115.182917
 30
0.0
 40
4.794833
  1
WEST VIRGINIA DIVISION OF HIGHWAYS
  7
ROMANT
 72
     1
 11
322.169833
 21
-110.388083
 31
0.0
210
0.0
220
0.0
230
1.0
 73
     3
  0
TEXT
  8
1
  6
CONTINUOUS
 62
     1
  5
46F
 10
278.959583
 20
-126.342917
 30
0.0
 40
6.992667
  1
STANDARD DETAIL
  7
txt
 72
     1
 11
323.449667
 21
-119.35025
 31
0.0
210
0.0
220
0.0
230
1.0
 73
     3
  0
TEXT
  8
1
  6
CONTINUOUS
 62
     1
  5
470
 10
274.419583
 20
-194.122917
 30
0.0
 40
6.992667
  1
STANDARD SHEET TE8-1 
  7
txt
210
0.0
220
0.0
230
1.0
  0
TEXT
  8
1
  6
CONTINUOUS
 62
     1
  5
471
 10
245.3835
 20
-161.302917
 30
0.0
 40
2.0
  1
05-28-69
  7
MONOTXT
 72
     1
 11
252.556833
 21
-159.302917
 31
0.0
210
0.0
220
0.0
230
1.0
 73
     3
  0
TEXT
  8
1
  6
CONTINUOUS
 62
     1
  5
472
 10
246.056417
 20
-165.702917
 30
0.0
 40
2.0
  1
04-01-71
  7
MONOTXT
 72
     1
 11
252.528917
 21
-163.702917
 31
0.0
210
0.0
220
0.0
230
1.0
 73
     3
  0
TEXT
  8
1
  6
CONTINUOUS
 62
     1
  5
473
 10
246.076417
 20
-170.102917
 30
0.0
 40
2.0
  1
04-11-75
  7
MONOTXT
 72
     1
 11
252.556833
 21
-168.102917
 31
0.0
210
0.0
220
0.0
230
1.0
 73
     3
  0
TEXT
  8
1
  6
CONTINUOUS
 62
     1
  5
474
 10
246.170917
 20
-174.502917
 30
0.0
 40
2.0
  1
10-21-76
  7
MONOTXT
 72
     1
 11
252.556833
 21
-172.502917
 31
0.0
210
0.0
220
0.0
230
1.0
 73
     3
  0
TEXT
  8
1
  6
CONTINUOUS
 62
     1
  5
475
 10
245.58575
 20
-179.102917
 30
0.0
 40
2.0
  1
05-15-79
  7
MONOTXT
 72
     1
 11
252.396917
 21
-177.102917
 31
0.0
210
0.0
220
0.0
230
1.0
 73
     3
  0
TEXT
  8
1
  6
CONTINUOUS
 62
     1
  5
476
 10
244.879583
 20
-183.582917
 30
0.0
 40
2.0
  1
        
  7
MONOTXT
 72
     1
 11
252.546417
 21
-181.582917
 31
0.0
210
0.0
220
0.0
230
1.0
 73
     3
  0
TEXT
  8
1
  6
CONTINUOUS
 62
     1
  5
477
 10
244.779583
 20
-188.182917
 30
0.0
 40
2.0
  1
        
  7
MONOTXT
 72
     1
 11
252.446417
 21
-186.182917
 31
0.0
210
0.0
220
0.0
230
1.0
 73
     3
  0
TEXT
  8
1
  6
CONTINUOUS
 62
     1
  5
478
 10
244.879583
 20
-192.762917
 30
0.0
 40
2.0
  1
        
  7
MONOTXT
 72
     1
 11
252.546417
 21
-190.762917
 31
0.0
210
0.0
220
0.0
230
1.0
 73
     3
  0
TEXT
  8
1
  6
CONTINUOUS
 62
     1
  5
479
 10
244.879583
 20
-196.782917
 30
0.0
 40
2.0
  1
        
  7
MONOTXT
 72
     1
 11
252.546417
 21
-194.782917
 31
0.0
210
0.0
220
0.0
230
1.0
 73
     3
  0
TEXT
  8
1
  6
CONTINUOUS
 62
     1
  5
47A
 10
287.699583
 20
-200.562917
 30
0.0
 40
1.2
  1
CATALOG:dt standa  FILENAME:te81.dgn     DATE:03/09/93
  7
MONOTXT
210
0.0
220
0.0
230
1.0
  0
INSERT
  8
1
  6
CONTINUOUS
 62
     1
  5
49B
  2
LDR
 10
-150.349583
 20
142.662333
 30
0.0
 41
240.0
 42
240.0
 50
90.0
210
0.0
220
0.0
230
1.0
  0
INSERT
  8
1
  6
CONTINUOUS
 62
     1
  5
49C
  2
LDR
 10
-150.349583
 20
142.662333
 30
0.0
 41
240.0
 42
240.0
 50
90.0
210
0.0
220
0.0
230
1.0
  0
INSERT
  8
1
  6
CONTINUOUS
 62
     1
  5
49D
  2
LDR
 10
-150.349583
 20
112.422333
 30
0.0
 41
240.0
 42
240.0
 50
270.0
210
0.0
220
0.0
230
1.0
  0
INSERT
  8
1
  6
CONTINUOUS
 62
     1
  5
49E
  2
LDR
 10
-150.349583
 20
112.422333
 30
0.0
 41
240.0
 42
240.0
 50
270.0
210
0.0
220
0.0
230
1.0
  0
INSERT
  8
1
  6
CONTINUOUS
 62
     1
  5
49F
  2
LDR
 10
-150.349583
 20
112.422333
 30
0.0
 41
240.0
 42
240.0
 50
90.0
210
0.0
220
0.0
230
1.0
  0
INSERT
  8
1
  6
CONTINUOUS
 62
     1
  5
4A0
  2
LDR
 10
-150.349583
 20
112.422333
 30
0.0
 41
240.0
 42
240.0
 50
90.0
210
0.0
220
0.0
230
1.0
  0
INSERT
  8
1
  6
CONTINUOUS
 62
     1
  5
4A1
  2
LDR
 10
-150.349583
 20
89.049
 30
0.0
 41
240.0
 42
240.0
 50
270.0
210
0.0
220
0.0
230
1.0
  0
INSERT
  8
1
  6
CONTINUOUS
 62
     1
  5
4A2
  2
LDR
 10
-150.349583
 20
89.049
 30
0.0
 41
240.0
 42
240.0
 50
270.0
210
0.0
220
0.0
230
1.0
  0
INSERT
  8
1
  6
CONTINUOUS
 62
     1
  5
4A3
  2
LDR
 10
-141.85625
 20
112.422333
 30
0.0
 41
240.0
 42
240.0
 50
90.0
210
0.0
220
0.0
230
1.0
  0
INSERT
  8
1
  6
CONTINUOUS
 62
     1
  5
4A4
  2
LDR
 10
-141.85625
 20
112.422333
 30
0.0
 41
240.0
 42
240.0
 50
90.0
210
0.0
220
0.0
230
1.0
  0
INSERT
  8
1
  6
CONTINUOUS
 62
     1
  5
4A5
  2
LDR
 10
-141.85625
 20
103.819
 30
0.0
 41
240.0
 42
240.0
 50
270.0
210
0.0
220
0.0
230
1.0
  0
INSERT
  8
1
  6
CONTINUOUS
 62
     1
  5
4A6
  2
LDR
 10
-141.85625
 20
103.819
 30
0.0
 41
240.0
 42
240.0
 50
270.0
210
0.0
220
0.0
230
1.0
  0
INSERT
  8
1
  6
CONTINUOUS
 62
     1
  5
4A7
  2
LDR
 10
-91.027917
 20
151.155667
 30
0.0
 41
240.0
 42
240.0
 50
180.0
210
0.0
220
0.0
230
1.0
  0
INSERT
  8
1
  6
CONTINUOUS
 62
     1
  5
4A8
  2
LDR
 10
-91.027917
 20
151.155667
 30
0.0
 41
240.0
 42
240.0
 50
180.0
210
0.0
220
0.0
230
1.0
  0
INSERT
  8
1
  6
CONTINUOUS
 62
     1
  5
4A9
  2
LDR
 10
-72.919583
 20
151.155667
 30
0.0
 41
240.0
 42
240.0
210
0.0
220
0.0
230
1.0
  0
INSERT
  8
1
  6
CONTINUOUS
 62
     1
  5
4AA
  2
LDR
 10
-72.919583
 20
151.155667
 30
0.0
 41
240.0
 42
240.0
210
0.0
220
0.0
230
1.0
  0
INSERT
  8
1
  6
CONTINUOUS
 62
     1
  5
4AB
  2
LDR
 10
-72.919583
 20
151.155667
 30
0.0
 41
240.0
 42
240.0
 50
180.0
210
0.0
220
0.0
230
1.0
  0
INSERT
  8
1
  6
CONTINUOUS
 62
     1
  5
4AC
  2
LDR
 10
-72.919583
 20
151.155667
 30
0.0
 41
240.0
 42
240.0
 50
180.0
210
0.0
220
0.0
230
1.0
  0
INSERT
  8
1
  6
CONTINUOUS
 62
     1
  5
4AD
  2
LDR
 10
-57.514583
 20
151.155667
 30
0.0
 41
240.0
 42
240.0
210
0.0
220
0.0
230
1.0
  0
INSERT
  8
1
  6
CONTINUOUS
 62
     1
  5
4AE
  2
LDR
 10
-57.514583
 20
151.155667
 30
0.0
 41
240.0
 42
240.0
210
0.0
220
0.0
230
1.0
  0
INSERT
  8
1
  6
CONTINUOUS
 62
     1
  5
4AF
  2
LDR
 10
-65.21625
 20
151.155667
 30
0.0
 41
239.999999
 42
239.999999
 50
252.93059
210
0.0
220
0.0
230
1.0
  0
INSERT
  8
1
  6
CONTINUOUS
 62
     1
  5
4B0
  2
LDR
 10
-65.21625
 20
151.155667
 30
0.0
 41
239.999999
 42
239.999999
 50
252.93059
210
0.0
220
0.0
230
1.0
  0
INSERT
  8
1
  6
CONTINUOUS
 62
     1
  5
4B1
  2
LDR
 10
-74.499583
 20
137.500667
 30
0.0
 41
240.000001
 42
240.000001
 50
243.246722
210
0.0
220
0.0
230
1.0
  0
INSERT
  8
1
  6
CONTINUOUS
 62
     1
  5
4B2
  2
LDR
 10
-76.114583
 20
142.659
 30
0.0
 41
239.999999
 42
239.999999
 50
234.620245
210
0.0
220
0.0
230
1.0
  0
INSERT
  8
1
  6
CONTINUOUS
 62
     1
  5
4B3
  2
LDR
 10
-72.007917
 20
123.077333
 30
0.0
 41
240.0
 42
240.0
 50
203.946426
210
0.0
220
0.0
230
1.0
  0
INSERT
  8
1
  6
CONTINUOUS
 62
     1
  5
4B4
  2
LDR
 10
-71.067917
 20
108.470667
 30
0.0
 41
239.999999
 42
239.999999
 50
231.074734
210
0.0
220
0.0
230
1.0
  0
INSERT
  8
1
  6
CONTINUOUS
 62
     1
  5
4B5
  2
LDR
 10
-63.264583
 20
111.884
 30
0.0
 41
240.000001
 42
240.000001
 50
211.832534
210
0.0
220
0.0
230
1.0
  0
INSERT
  8
1
  6
CONTINUOUS
 62
     1
  5
4B6
  2
LDR
 10
-57.427917
 20
106.222333
 30
0.0
 41
240.0
 42
240.0
 50
180.0
210
0.0
220
0.0
230
1.0
  0
INSERT
  8
1
  6
CONTINUOUS
 62
     1
  5
4B7
  2
LDR
 10
-57.427917
 20
106.222333
 30
0.0
 41
240.0
 42
240.0
 50
180.0
210
0.0
220
0.0
230
1.0
  0
INSERT
  8
1
  6
CONTINUOUS
 62
     1
  5
4B8
  2
LDR
 10
-68.059583
 20
99.197333
 30
0.0
 41
239.999998
 42
239.999998
 50
151.940646
210
0.0
220
0.0
230
1.0
  0
INSERT
  8
1
  6
CONTINUOUS
 62
     1
  5
4B9
  2
LDR
 10
-65.709583
 20
101.645667
 30
0.0
 41
240.0
 42
240.0
 50
180.0
210
0.0
220
0.0
230
1.0
  0
INSERT
  8
1
  6
CONTINUOUS
 62
     1
  5
4BA
  2
LDR
 10
-106.502917
 20
91.849
 30
0.0
 41
240.000002
 42
240.000002
 50
50.903404
210
0.0
220
0.0
230
1.0
  0
INSERT
  8
1
  6
CONTINUOUS
 62
     1
  5
4BB
  2
LDR
 10
-103.239583
 20
80.594
 30
0.0
 41
240.0
 42
240.0
 50
180.0
210
0.0
220
0.0
230
1.0
  0
INSERT
  8
1
  6
CONTINUOUS
 62
     1
  5
4BC
  2
LDR
 10
-103.239583
 20
80.594
 30
0.0
 41
240.0
 42
240.0
 50
180.0
210
0.0
220
0.0
230
1.0
  0
INSERT
  8
1
  6
CONTINUOUS
 62
     1
  5
4BD
  2
LDR
 10
-72.072917
 20
80.594
 30
0.0
 41
240.0
 42
240.0
210
0.0
220
0.0
230
1.0
  0
INSERT
  8
1
  6
CONTINUOUS
 62
     1
  5
4BE
  2
LDR
 10
-74.184583
 20
117.045667
 30
0.0
 41
240.0
 42
240.0
210
0.0
220
0.0
230
1.0
  0
INSERT
  8
1
  6
CONTINUOUS
 62
     1
  5
4BF
  2
LDR
 10
-69.709583
 20
101.645667
 30
0.0
 41
240.0
 42
240.0
210
0.0
220
0.0
230
1.0
  0
TEXT
  8
1
  6
CONTINUOUS
 62
     7
  5
4C0
 10
-59.522583
 20
159.447583
 30
0.0
 40
2.5
  1
6'-0" MAX. SPACING BETWEEN AUXILIARY SUPPORTS
  7
MONOTXT
 11
-59.522583
 21
161.947583
 31
0.0
210
0.0
220
0.0
230
1.0
 73
     3
  0
TEXT
  8
1
  6
CONTINUOUS
 62
     7
  5
4C1
 10
-59.522583
 20
154.947583
 30
0.0
 40
2.5
  1
(7'-0" ALLOWABLE FOR 9'-6" EXIT PANEL)
  7
MONOTXT
 11
-59.522583
 21
157.447583
 31
0.0
210
0.0
220
0.0
230
1.0
 73
     3
  0
LINE
  8
1
  6
CONTINUOUS
 62
     5
  5
4C2
 10
-57.514583
 20
143.262333
 30
0.0
 11
-57.514583
 21
144.293417
 31
0.0
  0
LINE
  8
1
  6
CONTINUOUS
 62
     5
  5
4C3
 10
-57.514583
 20
147.961833
 30
0.0
 11
-57.514583
 21
151.755667
 31
0.0
  0
TEXT
  8
1
  6
CONTINUOUS
 62
     7
  5
4C4
 10
-96.77775
 20
144.266167
 30
0.0
 40
2.5
  1
POST CLIP
  7
MONOTXT
 72
     4
 11
-86.787583
 21
145.516167
 31
0.0
210
0.0
220
0.0
230
1.0
  0
LINE
  8
1
  6
CONTINUOUS
 62
     5
  5
4C5
 10
-91.027917
 20
143.262333
 30
0.0
 11
-91.027917
 21
143.834833
 31
0.0
  0
LINE
  8
1
  6
CONTINUOUS
 62
     5
  5
4C6
 10
-91.027917
 20
147.121167
 30
0.0
 11
-91.027917
 21
151.755667
 31
0.0
  0
TEXT
  8
1
  6
CONTINUOUS
 62
     7
  5
4C7
 10
-108.898
 20
159.73275
 30
0.0
 40
2.5
  1
1'-0" (MIN.)
  7
MONOTXT
 72
     4
 11
-98.691333
 21
160.98275
 31
0.0
210
0.0
220
0.0
230
1.0
  0
TEXT
  8
1
  6
CONTINUOUS
 62
     7
  5
4C8
 10
-110.19725
 20
155.23275
 30
0.0
 40
2.5
  1
2'-0" (MAX.)
  7
MONOTXT
 72
     4
 11
-98.691417
 21
156.48275
 31
0.0
210
0.0
220
0.0
230
1.0
  0
LINE
  8
1
  6
CONTINUOUS
 62
     5
  5
4C9
 10
-81.57225
 20
151.155667
 30
0.0
 11
-83.798917
 21
158.407333
 31
0.0
  0
LINE
  8
1
  6
CONTINUOUS
 62
     5
  5
4CA
 10
-83.798917
 20
158.407333
 30
0.0
 11
-87.055583
 21
158.407333
 31
0.0
  0
INSERT
  8
1
  6
CONTINUOUS
 62
     1
  5
4CB
  2
LDR
 10
-81.57225
 20
151.155667
 30
0.0
 41
239.999999
 42
-239.999999
 50
287.06941
210
0.0
220
0.0
230
1.0
  0
INSERT
  8
1
  6
CONTINUOUS
 62
     1
  5
4CC
  2
LDR
 10
-81.57225
 20
151.155667
 30
0.0
 41
239.999999
 42
-239.999999
 50
287.06941
210
0.0
220
0.0
230
1.0
  0
TEXT
  8
1
  6
CONTINUOUS
 62
     7
  5
4CD
 10
-46.346417
 20
130.906417
 30
0.0
 40
2.5
  1
 3/16 "
  7
MONOTXT
 72
     4
 11
-43.32475
 21
132.156417
 31
0.0
210
0.0
220
0.0
230
1.0
  0
TEXT
  8
1
  6
CONTINUOUS
 62
     7
  5
4CE
 10
-65.641333
 20
144.937917
 30
0.0
 40
2.5
  1
AUXILIARY SUPPORT 3"x3"x 1/4 " (ASTM A-36 STEEL)
  7
MONOTXT
 72
     4
 11
-15.001583
 21
146.187917
 31
0.0
210
0.0
220
0.0
230
1.0
  0
TEXT
  8
1
  6
CONTINUOUS
 62
     7
  5
4CF
 10
-46.975333
 20
117.461417
 30
0.0
 40
2.5
  1
STITCH BOLTS AT 2'-0" MAX. C.C.
  7
MONOTXT
 72
     4
 11
-13.540333
 21
118.711417
 31
0.0
210
0.0
220
0.0
230
1.0
  0
TEXT
  8
1
  6
CONTINUOUS
 62
     7
  5
4D0
 10
-45.209
 20
105.199583
 30
0.0
 40
2.5
  1
12" EXTRUDED ALUMINUM PANEL
  7
MONOTXT
 72
     4
 11
-14.175583
 21
106.449583
 31
0.0
210
0.0
220
0.0
230
1.0
  0
TEXT
  8
1
  6
CONTINUOUS
 62
     7
  5
4D1
 10
-44.810667
 20
92.5075
 30
0.0
 40
2.5
  1
SIGN SUPPORT FRAME ANGLE (STEEL)
  7
MONOTXT
 72
     4
 11
-7.733917
 21
93.7575
 31
0.0
210
0.0
220
0.0
230
1.0
  0
TEXT
  8
1
  6
CONTINUOUS
 62
     7
  5
4D2
 10
-93.410833
 20
77.362917
 30
0.0
 40
2.5
  1
5" MIN.
  7
MONOTXT
 72
     4
 11
-87.023083
 21
78.612917
 31
0.0
210
0.0
220
0.0
230
1.0
  0
TEXT
  8
1
  6
CONTINUOUS
 62
     7
  5
4D3
 10
-159.368417
 20
81.321167
 30
0.0
 40
2.5
  1
STEEL SIGN SUPPORT
  7
MONOTXT
 72
     4
 11
-138.453083
 21
82.571167
 31
0.0
210
0.0
220
0.0
230
1.0
  0
TEXT
  8
1
  6
CONTINUOUS
 62
     7
  5
4D4
 10
-149.003417
 20
118.2485
 30
0.0
 40
2.5
  1
 7/16 " HOLES IN FOR
  7
MONOTXT
 72
     4
 11
-130.883417
 21
119.4985
 31
0.0
210
0.0
220
0.0
230
1.0
  0
TEXT
  8
1
  6
CONTINUOUS
 62
     7
  5
4D5
 10
-147.07425
 20
113.7485
 30
0.0
 40
2.5
  1
POST CLIP BOLT
  7
MONOTXT
 72
     4
 11
-130.883333
 21
114.9985
 31
0.0
210
0.0
220
0.0
230
1.0
  0
TEXT
  8
1
  6
CONTINUOUS
 62
     7
  5
4D6
 10
-156.236833
 20
89.565833
 30
0.0
 40
2.5
  1
SIGN DEPTH
 50
90.0
  7
MONOTXT
 72
     4
 11
-157.486833
 21
100.737
 31
0.0
210
0.0
220
0.0
230
1.0
  0
TEXT
  8
1
  6
CONTINUOUS
 62
     7
  5
4D7
 10
-151.736833
 20
94.5265
 30
0.0
 40
2.5
  1
VARIES
 50
90.0
  7
MONOTXT
 72
     4
 11
-152.986833
 21
100.737083
 31
0.0
210
0.0
220
0.0
230
1.0
  0
TEXT
  8
1
  6
CONTINUOUS
 62
     7
  5
4D8
 10
-151.57825
 20
122.692583
 30
0.0
 40
2.5
  1
2'-0"
 50
90.0
  7
MONOTXT
 72
     4
 11
-152.82825
 21
127.229917
 31
0.0
210
0.0
220
0.0
230
1.0
  0
TEXT
  8
1
  6
CONTINUOUS
 62
     7
  5
4D9
 10
-144.849333
 20
91.600917
 30
0.0
 40
2.5
  1
VARIES
 50
90.0
  7
MONOTXT
 72
     4
 11
-146.099333
 21
97.8115
 31
0.0
210
0.0
220
0.0
230
1.0
  0
LINE
  8
1
  6
CONTINUOUS
 62
     7
  5
4DA
 10
-141.85625
 20
108.120667
 30
0.0
 11
-146.163917
 21
108.125833
 31
0.0
  0
LINE
  8
1
  6
CONTINUOUS
 62
     7
  5
4DB
 10
-146.163917
 20
108.125833
 30
0.0
 11
-146.163917
 21
104.68525
 31
0.0
  0
INSERT
  8
1
  6
CONTINUOUS
 62
     1
  5
4DC
  2
LDR
 10
-141.85625
 20
108.120667
 30
0.0
 41
240.0
 42
240.0
 50
359.931279
210
0.0
220
0.0
230
1.0
  0
INSERT
  8
1
  6
CONTINUOUS
 62
     1
  5
4DD
  2
LDR
 10
-39.75125
 20
-6.702667
 30
0.0
 41
239.999999
 42
239.999999
 50
252.93059
210
0.0
220
0.0
230
1.0
  0
INSERT
  8
1
  6
CONTINUOUS
 62
     1
  5
4DE
  2
LDR
 10
-52.28125
 20
-20.287667
 30
0.0
 41
240.000001
 42
240.000001
 50
243.246722
210
0.0
220
0.0
230
1.0
  0
INSERT
  8
1
  6
CONTINUOUS
 62
     1
  5
4DF
  2
LDR
 10
-78.779583
 20
-6.702667
 30
0.0
 41
240.0
 42
240.0
 50
180.0
210
0.0
220
0.0
230
1.0
  0
INSERT
  8
1
  6
CONTINUOUS
 62
     1
  5
4E0
  2
LDR
 10
-54.09625
 20
-6.702667
 30
0.0
 41
240.0
 42
240.0
210
0.0
220
0.0
230
1.0
  0
INSERT
  8
1
  6
CONTINUOUS
 62
     1
  5
4E1
  2
LDR
 10
-54.09625
 20
-6.702667
 30
0.0
 41
240.0
 42
240.0
 50
180.0
210
0.0
220
0.0
230
1.0
  0
INSERT
  8
1
  6
CONTINUOUS
 62
     1
  5
4E2
  2
LDR
 10
-25.40625
 20
-6.702667
 30
0.0
 41
240.0
 42
240.0
210
0.0
220
0.0
230
1.0
  0
INSERT
  8
1
  6
CONTINUOUS
 62
     1
  5
4E3
  2
LDR
 10
-25.40625
 20
-34.187667
 30
0.0
 41
240.0
 42
240.0
 50
180.0
210
0.0
220
0.0
230
1.0
  0
INSERT
  8
1
  6
CONTINUOUS
 62
     1
  5
4E4
  2
LDR
 10
-141.482917
 20
-15.642667
 30
0.0
 41
240.0
 42
240.0
 50
90.0
210
0.0
220
0.0
230
1.0
  0
INSERT
  8
1
  6
CONTINUOUS
 62
     1
  5
4E5
  2
LDR
 10
-141.482917
 20
-15.642667
 30
0.0
 41
240.0
 42
240.0
 50
90.0
210
0.0
220
0.0
230
1.0
  0
INSERT
  8
1
  6
CONTINUOUS
 62
     1
  5
4E6
  2
LDR
 10
-141.482917
 20
-45.017667
 30
0.0
 41
240.0
 42
240.0
 50
270.0
210
0.0
220
0.0
230
1.0
  0
INSERT
  8
1
  6
CONTINUOUS
 62
     1
  5
4E7
  2
LDR
 10
-141.482917
 20
-45.017667
 30
0.0
 41
240.0
 42
240.0
 50
270.0
210
0.0
220
0.0
230
1.0
  0
INSERT
  8
1
  6
CONTINUOUS
 62
     1
  5
4E8
  2
LDR
 10
-141.482917
 20
-45.017667
 30
0.0
 41
240.0
 42
240.0
 50
90.0
210
0.0
220
0.0
230
1.0
  0
INSERT
  8
1
  6
CONTINUOUS
 62
     1
  5
4E9
  2
LDR
 10
-141.482917
 20
-45.017667
 30
0.0
 41
240.0
 42
240.0
 50
90.0
210
0.0
220
0.0
230
1.0
  0
INSERT
  8
1
  6
CONTINUOUS
 62
     1
  5
4EA
  2
LDR
 10
-141.482917
 20
-126.036
 30
0.0
 41
240.0
 42
240.0
 50
270.0
210
0.0
220
0.0
230
1.0
  0
INSERT
  8
1
  6
CONTINUOUS
 62
     1
  5
4EB
  2
LDR
 10
-141.482917
 20
-126.036
 30
0.0
 41
240.0
 42
240.0
 50
270.0
210
0.0
220
0.0
230
1.0
  0
INSERT
  8
1
  6
CONTINUOUS
 62
     1
  5
4EC
  2
LDR
 10
-30.57125
 20
-44.967667
 30
0.0
 41
240.000002
 42
240.000002
 50
151.25744
210
0.0
220
0.0
230
1.0
  0
INSERT
  8
1
  6
CONTINUOUS
 62
     1
  5
4ED
  2
LDR
 10
-52.447917
 20
-77.237667
 30
0.0
 41
239.999999
 42
239.999999
 50
172.774232
210
0.0
220
0.0
230
1.0
  0
INSERT
  8
1
  6
CONTINUOUS
 62
     1
  5
4EE
  2
LDR
 10
-52.447917
 20
-77.237667
 30
0.0
 41
239.999999
 42
239.999999
 50
172.774232
210
0.0
220
0.0
230
1.0
  0
INSERT
  8
1
  6
CONTINUOUS
 62
     1
  5
4EF
  2
LDR
 10
-90.00625
 20
-108.451
 30
0.0
 41
239.999998
 42
239.999998
 50
182.396566
210
0.0
220
0.0
230
1.0
  0
INSERT
  8
1
  6
CONTINUOUS
 62
     1
  5
4F0
  2
LDR
 10
-90.00625
 20
-108.451
 30
0.0
 41
239.999998
 42
239.999998
 50
182.396566
210
0.0
220
0.0
230
1.0
  0
INSERT
  8
1
  6
CONTINUOUS
 62
     1
  5
4F1
  2
LDR
 10
-90.00625
 20
-122.977667
 30
0.0
 41
240.0
 42
240.0
 50
127.318452
210
0.0
220
0.0
230
1.0
  0
INSERT
  8
1
  6
CONTINUOUS
 62
     1
  5
4F2
  2
LDR
 10
-132.542917
 20
-134.976
 30
0.0
 41
240.0
 42
240.0
 50
180.0
210
0.0
220
0.0
230
1.0
  0
INSERT
  8
1
  6
CONTINUOUS
 62
     1
  5
4F3
  2
LDR
 10
-132.542917
 20
-134.976
 30
0.0
 41
240.0
 42
240.0
 50
180.0
210
0.0
220
0.0
230
1.0
  0
INSERT
  8
1
  6
CONTINUOUS
 62
     1
  5
4F4
  2
LDR
 10
-90.00625
 20
-134.976
 30
0.0
 41
240.0
 42
240.0
210
0.0
220
0.0
230
1.0
  0
INSERT
  8
1
  6
CONTINUOUS
 62
     1
  5
4F5
  2
LDR
 10
-90.00625
 20
-134.976
 30
0.0
 41
240.0
 42
240.0
210
0.0
220
0.0
230
1.0
  0
INSERT
  8
1
  6
CONTINUOUS
 62
     1
  5
4F6
  2
LDR
 10
-90.00625
 20
-134.976
 30
0.0
 41
240.0
 42
240.0
 50
180.0
210
0.0
220
0.0
230
1.0
  0
INSERT
  8
1
  6
CONTINUOUS
 62
     1
  5
4F7
  2
LDR
 10
-90.00625
 20
-134.976
 30
0.0
 41
240.0
 42
240.0
 50
180.0
210
0.0
220
0.0
230
1.0
  0
INSERT
  8
1
  6
CONTINUOUS
 62
     1
  5
4F8
  2
LDR
 10
-25.40625
 20
-134.976
 30
0.0
 41
240.0
 42
240.0
210
0.0
220
0.0
230
1.0
  0
TEXT
  8
1
  6
CONTINUOUS
 62
     7
  5
4F9
 10
-142.704083
 20
-104.018333
 30
0.0
 40
2.5
  1
SIGN DEPTH VARIES
 50
90.0
  7
MONOTXT
 72
     4
 11
-143.954083
 21
-84.992833
 31
0.0
210
0.0
220
0.0
230
1.0
  0
TEXT
  8
1
  6
CONTINUOUS
 62
     7
  5
4FA
 10
-142.496833
 20
-35.007333
 30
0.0
 40
2.5
  1
2'-0"
 50
90.0
  7
MONOTXT
 72
     4
 11
-143.746833
 21
-30.47
 31
0.0
210
0.0
220
0.0
230
1.0
  0
TEXT
  8
1
  6
CONTINUOUS
 62
     7
  5
4FB
 10
-76.430417
 20
-0.233833
 30
0.0
 40
2.5
  1
1'-0" (MIN.)
  7
MONOTXT
 72
     4
 11
-66.22375
 21
1.016167
 31
0.0
210
0.0
220
0.0
230
1.0
  0
TEXT
  8
1
  6
CONTINUOUS
 62
     7
  5
4FC
 10
-77.729667
 20
-4.733833
 30
0.0
 40
2.5
  1
2'-0" (MAX.)
  7
MONOTXT
 72
     4
 11
-66.223833
 21
-3.483833
 31
0.0
210
0.0
220
0.0
230
1.0
  0
TEXT
  8
1
  6
CONTINUOUS
 62
     7
  5
4FD
 10
-33.266083
 20
1.864583
 30
0.0
 40
2.5
  1
6'-0" MAX. SPACING BETWEEN AUXILIARY SUPPORTS
  7
MONOTXT
 11
-33.266083
 21
4.364583
 31
0.0
210
0.0
220
0.0
230
1.0
 73
     3
  0
TEXT
  8
1
  6
CONTINUOUS
 62
     7
  5
4FE
 10
-33.266083
 20
-2.635417
 30
0.0
 40
2.5
  1
(7'-0" ALLOWABLE FOR 9'-6" EXIT PANEL)
  7
MONOTXT
 11
-33.266083
 21
-0.135417
 31
0.0
210
0.0
220
0.0
230
1.0
 73
     3
  0
TEXT
  8
1
  6
CONTINUOUS
 62
     7
  5
4FF
 10
-43.642417
 20
-12.643917
 30
0.0
 40
2.5
  1
AUXILIARY SUPPORT 3"x3"x 3/16 " ALUMINUM (6061-T6)
  7
MONOTXT
 72
     4
 11
7.568167
 21
-11.393917
 31
0.0
210
0.0
220
0.0
230
1.0
  0
TEXT
  8
1
  6
CONTINUOUS
 62
     7
  5
500
 10
-81.593417
 20
-13.058583
 30
0.0
 40
2.5
  1
POST CLIP
  7
MONOTXT
 72
     4
 11
-71.60325
 21
-11.808583
 31
0.0
210
0.0
220
0.0
230
1.0
  0
LINE
  8
1
  6
CONTINUOUS
 62
     5
  5
501
 10
-78.779583
 20
-15.042667
 30
0.0
 11
-78.779583
 21
-13.532
 31
0.0
  0
LINE
  8
1
  6
CONTINUOUS
 62
     5
  5
502
 10
-78.779583
 20
-10.078167
 30
0.0
 11
-78.779583
 21
-6.102667
 31
0.0
  0
LINE
  8
1
  6
CONTINUOUS
 62
     5
  5
503
 10
-25.40625
 20
-15.042667
 30
0.0
 11
-25.40625
 21
-13.19775
 31
0.0
  0
LINE
  8
1
  6
CONTINUOUS
 62
     5
  5
504
 10
-25.40625
 20
-9.521083
 30
0.0
 11
-25.40625
 21
-6.102667
 31
0.0
  0
TEXT
  8
1
  6
CONTINUOUS
 62
     7
  5
505
 10
-13.640167
 20
-35.171167
 30
0.0
 40
2.5
  1
12" EXTRUDED ALUMINUM PANEL
  7
MONOTXT
 72
     4
 11
17.39325
 21
-33.921167
 31
0.0
210
0.0
220
0.0
230
1.0
  0
TEXT
  8
1
  6
CONTINUOUS
 62
     7
  5
506
 10
-11.819167
 20
-52.99775
 30
0.0
 40
2.5
  1
STITCH BOLTS AT 2'-0" MAX. C.C.
  7
MONOTXT
 72
     4
 11
21.615833
 21
-51.74775
 31
0.0
210
0.0
220
0.0
230
1.0
  0
TEXT
  8
1
  6
CONTINUOUS
 62
     7
  5
507
 10
-9.779583
 20
-83.191583
 30
0.0
 40
2.5
  1
 7/16 " HOLES FOR POST CLIP BOLTS
  7
MONOTXT
 72
     4
 11
24.521583
 21
-81.941583
 31
0.0
210
0.0
220
0.0
230
1.0
  0
TEXT
  8
1
  6
CONTINUOUS
 62
     7
  5
508
 10
-11.583167
 20
-105.9205
 30
0.0
 40
2.5
  1
SIGN SUPPORT
  7
MONOTXT
 72
     4
 11
2.2455
 21
-104.6705
 31
0.0
210
0.0
220
0.0
230
1.0
  0
INSERT
  8
1
  6
CONTINUOUS
 62
     1
  5
509
  2
LDR
 10
-89.99725
 20
-98.512417
 30
0.0
 41
240.0
 42
240.0
 50
180.0
210
0.0
220
0.0
230
1.0
  0
INSERT
  8
1
  6
CONTINUOUS
 62
     1
  5
50A
  2
LDR
 10
-49.746917
 20
-98.49625
 30
0.0
 41
240.0
 42
240.0
210
0.0
220
0.0
230
1.0
  0
TEXT
  8
1
  6
CONTINUOUS
 62
     7
  5
50B
 10
-76.137583
 20
-101.461
 30
0.0
 40
2.5
  1
5" MIN.
  7
MONOTXT
 72
     4
 11
-69.749833
 21
-100.211
 31
0.0
210
0.0
220
0.0
230
1.0
  0
TEXT
  8
1
  6
CONTINUOUS
 62
     7
  5
50C
 10
-80.639
 20
-131.015583
 30
0.0
 40
2.5
  1
ALUMINUM SIGN SUPPORT
  7
MONOTXT
 72
     4
 11
-56.2985
 21
-129.765583
 31
0.0
210
0.0
220
0.0
230
1.0
  0
TEXT
  8
1
  6
CONTINUOUS
 62
     7
  5
50D
 10
-72.083583
 20
-138.7985
 30
0.0
 40
2.5
  1
SPACING VARIES
  7
MONOTXT
 72
     4
 11
-56.660417
 21
-137.5485
 31
0.0
210
0.0
220
0.0
230
1.0
  0
TEXT
  8
1
  6
CONTINUOUS
 62
     7
  5
50E
 10
-128.615333
 20
-138.6175
 30
0.0
 40
2.5
  1
VARIES 4'-0" MAX.
  7
MONOTXT
 72
     4
 11
-110.770833
 21
-137.3675
 31
0.0
210
0.0
220
0.0
230
1.0
  0
INSERT
  8
1
  6
CONTINUOUS
 62
     1
  5
50F
  2
LDR
 10
174.37875
 20
160.152333
 30
0.0
 41
240.0
 42
240.0
 50
180.0
210
0.0
220
0.0
230
1.0
  0
INSERT
  8
1
  6
CONTINUOUS
 62
     1
  5
510
  2
LDR
 10
174.37875
 20
160.152333
 30
0.0
 41
240.0
 42
240.0
 50
180.0
210
0.0
220
0.0
230
1.0
  0
INSERT
  8
1
  6
CONTINUOUS
 62
     1
  5
511
  2
LDR
 10
259.91375
 20
160.152333
 30
0.0
 41
240.0
 42
240.0
210
0.0
220
0.0
230
1.0
  0
INSERT
  8
1
  6
CONTINUOUS
 62
     1
  5
512
  2
LDR
 10
259.91375
 20
160.152333
 30
0.0
 41
240.0
 42
240.0
210
0.0
220
0.0
230
1.0
  0
INSERT
  8
1
  6
CONTINUOUS
 62
     1
  5
513
  2
LDR
 10
123.37375
 20
142.565667
 30
0.0
 41
240.0
 42
240.0
 50
90.0
210
0.0
220
0.0
230
1.0
  0
INSERT
  8
1
  6
CONTINUOUS
 62
     1
  5
514
  2
LDR
 10
123.37375
 20
142.565667
 30
0.0
 41
240.0
 42
240.0
 50
90.0
210
0.0
220
0.0
230
1.0
  0
INSERT
  8
1
  6
CONTINUOUS
 62
     1
  5
515
  2
LDR
 10
123.37375
 20
113.184
 30
0.0
 41
240.0
 42
240.0
 50
270.0
210
0.0
220
0.0
230
1.0
  0
INSERT
  8
1
  6
CONTINUOUS
 62
     1
  5
516
  2
LDR
 10
123.37375
 20
113.184
 30
0.0
 41
240.0
 42
240.0
 50
90.0
210
0.0
220
0.0
230
1.0
  0
INSERT
  8
1
  6
CONTINUOUS
 62
     1
  5
517
  2
LDR
 10
123.37375
 20
113.184
 30
0.0
 41
240.0
 42
240.0
 50
90.0
210
0.0
220
0.0
230
1.0
  0
INSERT
  8
1
  6
CONTINUOUS
 62
     1
  5
518
  2
LDR
 10
123.37375
 20
61.802333
 30
0.0
 41
240.0
 42
240.0
 50
270.0
210
0.0
220
0.0
230
1.0
  0
INSERT
  8
1
  6
CONTINUOUS
 62
     1
  5
519
  2
LDR
 10
123.37375
 20
61.802333
 30
0.0
 41
240.0
 42
240.0
 50
270.0
210
0.0
220
0.0
230
1.0
  0
INSERT
  8
1
  6
CONTINUOUS
 62
     1
  5
51A
  2
LDR
 10
168.867083
 20
49.872333
 30
0.0
 41
240.0
 42
240.0
210
0.0
220
0.0
230
1.0
  0
INSERT
  8
1
  6
CONTINUOUS
 62
     1
  5
51B
  2
LDR
 10
168.867083
 20
49.872333
 30
0.0
 41
240.0
 42
240.0
210
0.0
220
0.0
230
1.0
  0
INSERT
  8
1
  6
CONTINUOUS
 62
     1
  5
51C
  2
LDR
 10
197.320417
 20
151.059
 30
0.0
 41
240.0
 42
240.0
 50
180.0
210
0.0
220
0.0
230
1.0
  0
INSERT
  8
1
  6
CONTINUOUS
 62
     1
  5
51D
  2
LDR
 10
197.320417
 20
151.059
 30
0.0
 41
240.0
 42
240.0
 50
180.0
210
0.0
220
0.0
230
1.0
  0
INSERT
  8
1
  6
CONTINUOUS
 62
     1
  5
51E
  2
LDR
 10
225.255417
 20
151.059
 30
0.0
 41
240.0
 42
240.0
210
0.0
220
0.0
230
1.0
  0
INSERT
  8
1
  6
CONTINUOUS
 62
     1
  5
51F
  2
LDR
 10
225.255417
 20
151.059
 30
0.0
 41
240.0
 42
240.0
210
0.0
220
0.0
230
1.0
  0
INSERT
  8
1
  6
CONTINUOUS
 62
     1
  5
520
  2
LDR
 10
225.255417
 20
151.059
 30
0.0
 41
240.0
 42
240.0
 50
180.0
210
0.0
220
0.0
230
1.0
  0
INSERT
  8
1
  6
CONTINUOUS
 62
     1
  5
521
  2
LDR
 10
225.255417
 20
151.059
 30
0.0
 41
240.0
 42
240.0
 50
180.0
210
0.0
220
0.0
230
1.0
  0
INSERT
  8
1
  6
CONTINUOUS
 62
     1
  5
522
  2
LDR
 10
273.752083
 20
151.059
 30
0.0
 41
240.0
 42
240.0
210
0.0
220
0.0
230
1.0
  0
INSERT
  8
1
  6
CONTINUOUS
 62
     1
  5
523
  2
LDR
 10
273.752083
 20
151.059
 30
0.0
 41
240.0
 42
240.0
210
0.0
220
0.0
230
1.0
  0
INSERT
  8
1
  6
CONTINUOUS
 62
     1
  5
524
  2
LDR
 10
273.752083
 20
151.059
 30
0.0
 41
240.0
 42
240.0
 50
180.0
210
0.0
220
0.0
230
1.0
  0
INSERT
  8
1
  6
CONTINUOUS
 62
     1
  5
525
  2
LDR
 10
273.752083
 20
151.059
 30
0.0
 41
240.0
 42
240.0
 50
180.0
210
0.0
220
0.0
230
1.0
  0
INSERT
  8
1
  6
CONTINUOUS
 62
     1
  5
526
  2
LDR
 10
302.252083
 20
151.059
 30
0.0
 41
240.0
 42
240.0
210
0.0
220
0.0
230
1.0
  0
INSERT
  8
1
  6
CONTINUOUS
 62
     1
  5
527
  2
LDR
 10
310.745417
 20
142.565667
 30
0.0
 41
240.0
 42
240.0
 50
90.0
210
0.0
220
0.0
230
1.0
  0
INSERT
  8
1
  6
CONTINUOUS
 62
     1
  5
528
  2
LDR
 10
310.745417
 20
142.565667
 30
0.0
 41
240.0
 42
240.0
 50
90.0
210
0.0
220
0.0
230
1.0
  0
INSERT
  8
1
  6
CONTINUOUS
 62
     1
  5
529
  2
LDR
 10
310.745417
 20
113.184
 30
0.0
 41
240.0
 42
240.0
 50
270.0
210
0.0
220
0.0
230
1.0
  0
INSERT
  8
1
  6
CONTINUOUS
 62
     1
  5
52A
  2
LDR
 10
310.745417
 20
113.184
 30
0.0
 41
240.0
 42
240.0
 50
270.0
210
0.0
220
0.0
230
1.0
  0
INSERT
  8
1
  6
CONTINUOUS
 62
     1
  5
52B
  2
LDR
 10
267.215417
 20
113.914
 30
0.0
 41
239.999998
 42
239.999998
 50
152.300676
210
0.0
220
0.0
230
1.0
  0
INSERT
  8
1
  6
CONTINUOUS
 62
     1
  5
52C
  2
LDR
 10
267.215417
 20
113.914
 30
0.0
 41
239.999998
 42
239.999998
 50
152.300676
210
0.0
220
0.0
230
1.0
  0
INSERT
  8
1
  6
CONTINUOUS
 62
     1
  5
52D
  2
LDR
 10
254.380417
 20
64.340667
 30
0.0
 41
240.000001
 42
240.000001
 50
144.261583
210
0.0
220
0.0
230
1.0
  0
INSERT
  8
1
  6
CONTINUOUS
 62
     1
  5
52E
  2
LDR
 10
254.380417
 20
64.340667
 30
0.0
 41
240.000001
 42
240.000001
 50
144.261583
210
0.0
220
0.0
230
1.0
  0
INSERT
  8
1
  6
CONTINUOUS
 62
     1
  5
52F
  2
LDR
 10
225.757083
 20
67.559
 30
0.0
 41
239.999998
 42
239.999998
 50
97.880352
210
0.0
220
0.0
230
1.0
  0
INSERT
  8
1
  6
CONTINUOUS
 62
     1
  5
530
  2
LDR
 10
225.757083
 20
67.559
 30
0.0
 41
239.999998
 42
239.999998
 50
97.880352
210
0.0
220
0.0
230
1.0
  0
INSERT
  8
1
  6
CONTINUOUS
 62
     1
  5
531
  2
LDR
 10
224.650417
 20
141.229
 30
0.0
 41
239.999999
 42
239.999999
 50
194.750669
210
0.0
220
0.0
230
1.0
  0
INSERT
  8
1
  6
CONTINUOUS
 62
     1
  5
532
  2
LDR
 10
275.177083
 20
141.207333
 30
0.0
 41
239.999999
 42
239.999999
 50
345.249331
210
0.0
220
0.0
230
1.0
  0
INSERT
  8
1
  6
CONTINUOUS
 62
     1
  5
533
  2
LDR
 10
302.252083
 20
106.842333
 30
0.0
 41
240.0
 42
240.0
 50
180.0
210
0.0
220
0.0
230
1.0
  0
LINE
  8
1
  6
CONTINUOUS
 62
     5
  5
534
 10
196.720417
 20
142.565667
 30
0.0
 11
175.37875
 21
142.565667
 31
0.0
  0
LINE
  8
1
  6
CONTINUOUS
 62
     5
  5
535
 10
173.37875
 20
142.565667
 30
0.0
 11
122.77375
 21
142.565667
 31
0.0
  0
TEXT
  8
1
  6
CONTINUOUS
 62
     7
  5
536
 10
195.860167
 20
161.327417
 30
0.0
 40
2.5
  1
POST SPACING VARIES
  7
MONOTXT
 72
     4
 11
217.60225
 21
162.577417
 31
0.0
210
0.0
220
0.0
230
1.0
  0
TEXT
  8
1
  6
CONTINUOUS
 62
     7
  5
537
 10
200.015667
 20
156.641833
 30
0.0
 40
2.5
  1
1'-0" (MIN.)
  7
MONOTXT
 11
200.015667
 21
159.141833
 31
0.0
210
0.0
220
0.0
230
1.0
 73
     3
  0
TEXT
  8
1
  6
CONTINUOUS
 62
     7
  5
538
 10
200.015667
 20
152.141833
 30
0.0
 40
2.5
  1
2'-0" (MAX.)
  7
MONOTXT
 11
200.015667
 21
154.641833
 31
0.0
210
0.0
220
0.0
230
1.0
 73
     3
  0
TEXT
  8
1
  6
CONTINUOUS
 62
     7
  5
539
 10
279.095667
 20
174.84425
 30
0.0
 40
2.5
  1
6'-0" MAX.
  7
MONOTXT
 72
     4
 11
288.967667
 21
176.09425
 31
0.0
210
0.0
220
0.0
230
1.0
  0
TEXT
  8
1
  6
CONTINUOUS
 62
     7
  5
53A
 10
266.526833
 20
170.34425
 30
0.0
 40
2.5
  1
(7'-0" ALLOWABLE FOR
  7
MONOTXT
 72
     4
 11
288.977583
 21
171.59425
 31
0.0
210
0.0
220
0.0
230
1.0
  0
TEXT
  8
1
  6
CONTINUOUS
 62
     7
  5
53B
 10
271.49725
 20
165.84425
 30
0.0
 40
2.5
  1
9'-6" EXIT PANEL)
  7
MONOTXT
 72
     4
 11
288.96775
 21
167.09425
 31
0.0
210
0.0
220
0.0
230
1.0
  0
LINE
  8
1
  6
CONTINUOUS
 62
     7
  5
53C
 10
249.50375
 20
151.059
 30
0.0
 11
258.246917
 21
171.042167
 31
0.0
  0
LINE
  8
1
  6
CONTINUOUS
 62
     7
  5
53D
 10
258.246917
 20
171.042167
 30
0.0
 11
265.458917
 21
171.042167
 31
0.0
  0
INSERT
  8
1
  6
CONTINUOUS
 62
     1
  5
53E
  2
LDR
 10
249.50375
 20
151.059
 30
0.0
 41
239.999999
 42
239.999999
 50
246.369344
210
0.0
220
0.0
230
1.0
  0
TEXT
  8
1
  6
CONTINUOUS
 62
     7
  5
53F
 10
239.9885
 20
144.029833
 30
0.0
 40
2.5
  1
POST CLIP
  7
MONOTXT
 72
     4
 11
249.978667
 21
145.279833
 31
0.0
210
0.0
220
0.0
230
1.0
  0
LINE
  8
1
  6
CONTINUOUS
 62
     5
  5
540
 10
259.91375
 20
152.059
 30
0.0
 11
259.91375
 21
160.752333
 31
0.0
  0
LINE
  8
1
  6
CONTINUOUS
 62
     5
  5
541
 10
259.91375
 20
115.199
 30
0.0
 11
259.91375
 21
143.633167
 31
0.0
  0
LINE
  8
1
  6
CONTINUOUS
 62
     5
  5
542
 10
259.91375
 20
147.116083
 30
0.0
 11
259.91375
 21
150.059
 31
0.0
  0
TEXT
  8
1
  6
CONTINUOUS
 62
     7
  5
543
 10
276.216417
 20
156.799083
 30
0.0
 40
2.5
  1
1'-0" (MIN.)
  7
MONOTXT
 11
276.216417
 21
159.299083
 31
0.0
210
0.0
220
0.0
230
1.0
 73
     3
  0
TEXT
  8
1
  6
CONTINUOUS
 62
     7
  5
544
 10
276.216417
 20
152.299083
 30
0.0
 40
2.5
  1
2'-0" (MAX.)
  7
MONOTXT
 11
276.216417
 21
154.799083
 31
0.0
210
0.0
220
0.0
230
1.0
 73
     3
  0
TEXT
  8
1
  6
CONTINUOUS
 62
     7
  5
545
 10
319.740167
 20
105.763167
 30
0.0
 40
2.5
  1
12" EXTRUDED ALUMINUM PANEL
  7
MONOTXT
 72
     4
 11
350.773583
 21
107.013167
 31
0.0
210
0.0
220
0.0
230
1.0
  0
TEXT
  8
1
  6
CONTINUOUS
 62
     7
  5
546
 10
319.88325
 20
93.177
 30
0.0
 40
2.5
  1
STITCH BOLTS AT 2'-0" MAX. C.C.
  7
MONOTXT
 72
     4
 11
353.31825
 21
94.427
 31
0.0
210
0.0
220
0.0
230
1.0
  0
TEXT
  8
1
  6
CONTINUOUS
 62
     7
  5
547
 10
299.76
 20
42.076083
 30
0.0
 40
2.5
  1
 7/16 " HOLES FOR POST CLIP BOLTS
  7
MONOTXT
 72
     4
 11
334.061167
 21
43.326083
 31
0.0
210
0.0
220
0.0
230
1.0
  0
TEXT
  8
1
  6
CONTINUOUS
 62
     7
  5
548
 10
145.947
 20
48.842833
 30
0.0
 40
2.5
  1
POST
  7
MONOTXT
 72
     4
 11
150.622167
 21
50.092833
 31
0.0
210
0.0
220
0.0
230
1.0
  0
TEXT
  8
1
  6
CONTINUOUS
 62
     7
  5
549
 10
122.01875
 20
68.09525
 30
0.0
 40
2.5
  1
SIGN DEPTH VARIES
 50
90.0
  7
MONOTXT
 72
     4
 11
120.76875
 21
87.12075
 31
0.0
210
0.0
220
0.0
230
1.0
  0
TEXT
  8
1
  6
CONTINUOUS
 62
     7
  5
54A
 10
122.01875
 20
123.174083
 30
0.0
 40
2.5
  1
2'-0"
 50
90.0
  7
MONOTXT
 72
     4
 11
120.76875
 21
127.711417
 31
0.0
210
0.0
220
0.0
230
1.0
  0
TEXT
  8
1
  6
CONTINUOUS
 62
     7
  5
54B
 10
315.941
 20
115.708
 30
0.0
 40
2.5
  1
EXIT NUMBER
 50
90.0
  7
MONOTXT
 72
     4
 11
314.691
 21
128.119333
 31
0.0
210
0.0
220
0.0
230
1.0
  0
TEXT
  8
1
  6
CONTINUOUS
 62
     7
  5
54C
 10
320.441
 20
122.558417
 30
0.0
 40
2.5
  1
PANEL
 50
90.0
  7
MONOTXT
 72
     4
 11
319.191
 21
128.119417
 31
0.0
210
0.0
220
0.0
230
1.0
  0
INSERT
  8
1
  6
CONTINUOUS
 62
     1
  5
54D
  2
LDR
 10
145.18875
 20
-33.374
 30
0.0
 41
240.0
 42
240.0
 50
180.0
210
0.0
220
0.0
230
1.0
  0
INSERT
  8
1
  6
CONTINUOUS
 62
     1
  5
54E
  2
LDR
 10
145.18875
 20
-33.374
 30
0.0
 41
240.0
 42
240.0
 50
180.0
210
0.0
220
0.0
230
1.0
  0
INSERT
  8
1
  6
CONTINUOUS
 62
     1
  5
54F
  2
LDR
 10
198.855417
 20
-33.374
 30
0.0
 41
240.0
 42
240.0
210
0.0
220
0.0
230
1.0
  0
INSERT
  8
1
  6
CONTINUOUS
 62
     1
  5
550
  2
LDR
 10
198.855417
 20
-33.374
 30
0.0
 41
240.0
 42
240.0
210
0.0
220
0.0
230
1.0
  0
INSERT
  8
1
  6
CONTINUOUS
 62
     1
  5
551
  2
LDR
 10
221.882083
 20
-57.467333
 30
0.0
 41
240.0
 42
240.0
 50
90.0
210
0.0
220
0.0
230
1.0
  0
INSERT
  8
1
  6
CONTINUOUS
 62
     1
  5
552
  2
LDR
 10
221.882083
 20
-72.494
 30
0.0
 41
240.0
 42
240.0
 50
270.0
210
0.0
220
0.0
230
1.0
  0
INSERT
  8
1
  6
CONTINUOUS
 62
     1
  5
553
  2
LDR
 10
221.882083
 20
-72.494
 30
0.0
 41
240.0
 42
240.0
 50
270.0
210
0.0
220
0.0
230
1.0
  0
INSERT
  8
1
  6
CONTINUOUS
 62
     1
  5
554
  2
LDR
 10
199.26375
 20
-74.355667
 30
0.0
 41
239.999999
 42
239.999999
 50
144.610527
210
0.0
220
0.0
230
1.0
  0
TEXT
  8
1
  6
CONTINUOUS
 62
     7
  5
555
 10
157.901917
 20
-23.449917
 30
0.0
 40
2.5
  1
1  DIGIT   7'-6"
  7
MONOTXT
 11
157.901917
 21
-20.949917
 31
0.0
210
0.0
220
0.0
230
1.0
 73
     3
  0
TEXT
  8
1
  6
CONTINUOUS
 62
     7
  5
556
 10
157.901917
 20
-27.949917
 30
0.0
 40
2.5
  1
2 DIGIT   8'-6"
  7
MONOTXT
 11
157.901917
 21
-25.449917
 31
0.0
210
0.0
220
0.0
230
1.0
 73
     3
  0
TEXT
  8
1
  6
CONTINUOUS
 62
     7
  5
557
 10
157.901917
 20
-32.449917
 30
0.0
 40
2.5
  1
3 DIGIT   9'-6"
  7
MONOTXT
 11
157.901917
 21
-29.949917
 31
0.0
210
0.0
220
0.0
230
1.0
 73
     3
  0
TEXT
  8
1
  6
CONTINUOUS
 62
     7
  5
558
 10
172.864167
 20
-49.78175
 30
0.0
 40
2.5
  1
15"
  7
MONOTXT
 72
     4
 11
175.334667
 21
-48.53175
 31
0.0
210
0.0
220
0.0
230
1.0
  0
TEXT
  8
1
  6
CONTINUOUS
 62
     7
  5
559
 10
172.1555
 20
-54.28175
 30
0.0
 40
2.5
  1
MIN.
  7
MONOTXT
 72
     4
 11
175.334667
 21
-53.03175
 31
0.0
210
0.0
220
0.0
230
1.0
  0
TEXT
  8
1
  6
CONTINUOUS
 62
     7
  5
55A
 10
177.228833
 20
-37.883583
 30
0.0
 40
2.5
  1
15" MIN.
  7
MONOTXT
 72
     4
 11
184.32525
 21
-36.633583
 31
0.0
210
0.0
220
0.0
230
1.0
  0
TEXT
  8
1
  6
CONTINUOUS
 62
     7
  5
55B
 10
152.23075
 20
-38.05925
 30
0.0
 40
2.5
  1
10" MIN.
  7
MONOTXT
 72
     4
 11
159.327167
 21
-36.80925
 31
0.0
210
0.0
220
0.0
230
1.0
  0
TEXT
  8
1
  6
CONTINUOUS
 62
     7
  5
55C
 10
170.778583
 20
-43.806
 30
0.0
 40
2.5
  1
VARIES
  7
MONOTXT
 72
     4
 11
176.989167
 21
-42.556
 31
0.0
210
0.0
220
0.0
230
1.0
  0
LINE
  8
1
  6
CONTINUOUS
 62
     7
  5
55D
 10
191.45175
 20
-36.3045
 30
0.0
 11
195.071583
 21
-36.3045
 31
0.0
  0
LINE
  8
1
  6
CONTINUOUS
 62
     7
  5
55E
 10
184.2155
 20
-42.227
 30
0.0
 11
187.614333
 21
-42.227
 31
0.0
  0
LINE
  8
1
  6
CONTINUOUS
 62
     7
  5
55F
 10
151.652417
 20
-36.962583
 30
0.0
 11
147.650833
 21
-36.962583
 31
0.0
  0
LINE
  8
1
  6
CONTINUOUS
 62
     7
  5
560
 10
147.650833
 20
-36.962583
 30
0.0
 11
147.650833
 21
-47.713
 31
0.0
  0
LINE
  8
1
  6
CONTINUOUS
 62
     7
  5
561
 10
187.614333
 20
-42.227
 30
0.0
 11
187.614333
 21
-47.713
 31
0.0
  0
LINE
  8
1
  6
CONTINUOUS
 62
     7
  5
562
 10
195.071583
 20
-36.3045
 30
0.0
 11
195.071583
 21
-47.713
 31
0.0
  0
INSERT
  8
1
  6
CONTINUOUS
 62
     1
  5
563
  2
LDR
 10
147.650833
 20
-47.713
 30
0.0
 41
240.0
 42
240.0
 50
270.0
210
0.0
220
0.0
230
1.0
  0
INSERT
  8
1
  6
CONTINUOUS
 62
     1
  5
564
  2
LDR
 10
147.650833
 20
-47.713
 30
0.0
 41
240.0
 42
240.0
 50
270.0
210
0.0
220
0.0
230
1.0
  0
INSERT
  8
1
  6
CONTINUOUS
 62
     1
  5
565
  2
LDR
 10
187.614333
 20
-47.713
 30
0.0
 41
240.0
 42
240.0
 50
270.0
210
0.0
220
0.0
230
1.0
  0
INSERT
  8
1
  6
CONTINUOUS
 62
     1
  5
566
  2
LDR
 10
187.614333
 20
-47.713
 30
0.0
 41
240.0
 42
240.0
 50
270.0
210
0.0
220
0.0
230
1.0
  0
INSERT
  8
1
  6
CONTINUOUS
 62
     1
  5
567
  2
LDR
 10
195.071583
 20
-47.713
 30
0.0
 41
240.0
 42
240.0
 50
270.0
210
0.0
220
0.0
230
1.0
  0
TEXT
  8
1
  6
CONTINUOUS
 62
     7
  5
568
 10
212.598583
 20
-60.696083
 30
0.0
 40
2.5
  1
5.5"
  7
MONOTXT
 72
     4
 11
216.230417
 21
-59.446083
 31
0.0
210
0.0
220
0.0
230
1.0
  0
TEXT
  8
1
  6
CONTINUOUS
 62
     7
  5
569
 10
212.598583
 20
-71.663667
 30
0.0
 40
2.5
  1
3.5"
  7
MONOTXT
 72
     4
 11
216.230417
 21
-70.413667
 31
0.0
210
0.0
220
0.0
230
1.0
  0
TEXT
  8
1
  6
CONTINUOUS
 62
     7
  5
56A
 10
222.927417
 20
-66.07025
 30
0.0
 40
2.5
  1
24"
  7
MONOTXT
 72
     4
 11
225.988417
 21
-64.82025
 31
0.0
210
0.0
220
0.0
230
1.0
  0
TEXT
  8
1
  6
CONTINUOUS
 62
     7
  5
56B
 10
137.281917
 20
-60.696083
 30
0.0
 40
2.5
  1
8"
  7
MONOTXT
 72
     4
 11
139.04375
 21
-59.446083
 31
0.0
210
0.0
220
0.0
230
1.0
  0
TEXT
  8
1
  6
CONTINUOUS
 62
     7
  5
56C
 10
137.450667
 20
-71.444333
 30
0.0
 40
2.5
  1
6"
  7
MONOTXT
 72
     4
 11
139.153417
 21
-70.194333
 31
0.0
210
0.0
220
0.0
230
1.0
  0
LINE
  8
1
  6
CONTINUOUS
 62
     7
  5
56D
 10
211.73525
 20
-59.336417
 30
0.0
 11
206.657583
 21
-59.336417
 31
0.0
  0
LINE
  8
1
  6
CONTINUOUS
 62
     7
  5
56E
 10
211.625583
 20
-71.510417
 30
0.0
 11
206.657583
 21
-71.510417
 31
0.0
  0
INSERT
  8
1
  6
CONTINUOUS
 62
     1
  5
56F
  2
LDR
 10
206.657583
 20
-59.336417
 30
0.0
 41
240.0
 42
240.0
 50
180.0
210
0.0
220
0.0
230
1.0
  0
INSERT
  8
1
  6
CONTINUOUS
 62
     1
  5
570
  2
LDR
 10
206.657583
 20
-59.336417
 30
0.0
 41
240.0
 42
240.0
 50
180.0
210
0.0
220
0.0
230
1.0
  0
INSERT
  8
1
  6
CONTINUOUS
 62
     1
  5
571
  2
LDR
 10
206.657583
 20
-71.510417
 30
0.0
 41
240.0
 42
240.0
 50
180.0
210
0.0
220
0.0
230
1.0
  0
TEXT
  8
1
  6
CONTINUOUS
 62
     7
  5
572
 10
214.147333
 20
-82.01675
 30
0.0
 40
2.5
  1
THERE IS NO BORDER RADIUS IN THE TOP RIGHT
  7
MONOTXT
 11
214.147333
 21
-79.51675
 31
0.0
210
0.0
220
0.0
230
1.0
 73
     3
  0
TEXT
  8
1
  6
CONTINUOUS
 62
     7
  5
573
 10
214.147333
 20
-86.51675
 30
0.0
 40
2.5
  1
(OR TOP LEFT DEPENDING ON WHICH SIDE OF THE
  7
MONOTXT
 11
214.147333
 21
-84.01675
 31
0.0
210
0.0
220
0.0
230
1.0
 73
     3
  0
TEXT
  8
1
  6
CONTINUOUS
 62
     7
  5
574
 10
214.147333
 20
-91.01675
 30
0.0
 40
2.5
  1
SIGN THE EXIT PANEL IS ATTACHED) CORNER OF
  7
MONOTXT
 11
214.147333
 21
-88.51675
 31
0.0
210
0.0
220
0.0
230
1.0
 73
     3
  0
TEXT
  8
1
  6
CONTINUOUS
 62
     7
  5
575
 10
214.147333
 20
-95.51675
 30
0.0
 40
2.5
  1
THE SIGN PANEL.
  7
MONOTXT
 11
214.147333
 21
-93.01675
 31
0.0
210
0.0
220
0.0
230
1.0
 73
     3
  0
TEXT
  8
1
  6
CONTINUOUS
 62
     7
  5
576
 10
116.128917
 20
-104.82925
 30
0.0
 40
2.5
  1
NOTE:  USE 2" BORDER AND 3" BORDER
  7
MONOTXT
 11
116.128917
 21
-102.32925
 31
0.0
210
0.0
220
0.0
230
1.0
 73
     3
  0
TEXT
  8
1
  6
CONTINUOUS
 62
     7
  5
577
 10
116.128917
 20
-109.32925
 30
0.0
 40
2.5
  1
      RADIUS ON ALL EXIT PANELS.
  7
MONOTXT
 11
116.128917
 21
-106.82925
 31
0.0
210
0.0
220
0.0
230
1.0
 73
     3
  0
TEXT
  8
1
  6
CONTINUOUS
 62
     7
  5
578
 10
116.128917
 20
-113.82925
 30
0.0
 40
2.5
  1
 
  7
MONOTXT
 11
116.128917
 21
-111.32925
 31
0.0
210
0.0
220
0.0
230
1.0
 73
     3
  0
TEXT
  8
1
  6
CONTINUOUS
 62
     7
  5
579
 10
116.128917
 20
-118.32925
 30
0.0
 40
2.5
  1
NOTE:  RIGHT EXIT SHOWN USE OPPOSITE
  7
MONOTXT
 11
116.128917
 21
-115.82925
 31
0.0
210
0.0
220
0.0
230
1.0
 73
     3
  0
TEXT
  8
1
  6
CONTINUOUS
 62
     7
  5
57A
 10
116.128917
 20
-122.82925
 30
0.0
 40
2.5
  1
      FOR LEFT EXIT.
  7
MONOTXT
 11
116.128917
 21
-120.32925
 31
0.0
210
0.0
220
0.0
230
1.0
 73
     3
  0
TEXT
  8
1
  6
CONTINUOUS
 62
     7
  5
57B
 10
150.423
 20
-67.9405
 30
0.0
 40
6.5
  1
EXIT
  7
txt
 72
     4
 11
159.764333
 21
-64.6905
 31
0.0
210
0.0
220
0.0
230
1.0
  0
TEXT
  8
1
  6
CONTINUOUS
 62
     7
  5
57C
 10
185.518167
 20
-70.21125
 30
0.0
 40
10.0
  1
4
  7
txt
 72
     4
 11
189.003
 21
-65.21125
 31
0.0
210
0.0
220
0.0
230
1.0
  0
TEXT
  8
1
  6
CONTINUOUS
 62
     7
  5
57D
 10
-45.27025
 20
100.036667
 30
0.0
 40
2.5
  1
 13/16 " HOLES FOR  3/4 " HIGH STRENGTH BOLTS
  7
MONOTXT
 72
     4
 11
-1.36275
 21
101.286667
 31
0.0
210
0.0
220
0.0
230
1.0
  0
TEXT
  8
1
  6
CONTINUOUS
 62
     7
  5
57E
 10
-145.4815
 20
57.886167
 30
0.0
 40
4.0
  1
OVERHEAD SIGN WITH STEEL FRAME
  7
MONOTXT
 72
     4
 11
-89.150833
 21
59.886167
 31
0.0
210
0.0
220
0.0
230
1.0
  0
TEXT
  8
1
  6
CONTINUOUS
 62
     7
  5
57F
 10
-136.580167
 20
-162.943167
 30
0.0
 40
4.0
  1
OVERHEAD SIGN WITH ALUMINUM FRAME
  7
MONOTXT
 72
     4
 11
-74.769167
 21
-160.943167
 31
0.0
210
0.0
220
0.0
230
1.0
  0
TEXT
  8
1
  6
CONTINUOUS
 62
     7
  5
580
 10
110.67225
 20
15.41975
 30
0.0
 40
4.0
  1
GROUND MOUNT SIGN SHOWING ATTACHMENT OF AUXILIARY SUPPORTS
  7
MONOTXT
 72
     4
 11
221.711583
 21
17.41975
 31
0.0
210
0.0
220
0.0
230
1.0
  0
LINE
  8
1
  6
CONTINUOUS
 62
     7
  5
581
 10
-148.5455
 20
55.646
 30
0.0
 11
-28.942583
 21
55.646
 31
0.0
  0
LINE
  8
1
  6
CONTINUOUS
 62
     7
  5
582
 10
-138.75525
 20
-164.527333
 30
0.0
 11
-9.868833
 21
-164.527333
 31
0.0
  0
TEXT
  8
1
  6
CONTINUOUS
 62
     7
  5
583
 10
238.464
 20
35.87
 30
0.0
 40
2.5
  1
AUXILIARY SUPPORT
  7
MONOTXT
 11
238.464
 21
38.37
 31
0.0
210
0.0
220
0.0
230
1.0
 73
     3
  0
TEXT
  8
1
  6
CONTINUOUS
 62
     7
  5
584
 10
238.464
 20
31.37
 30
0.0
 40
2.5
  1
3"x3"x 3/16 " (TYPE)
  7
MONOTXT
 11
238.464
 21
33.87
 31
0.0
210
0.0
220
0.0
230
1.0
 73
     3
  0
TEXT
  8
1
  6
CONTINUOUS
 62
     7
  5
585
 10
238.464
 20
26.87
 30
0.0
 40
2.5
  1
(ALUMINUM 6061-T6)
  7
MONOTXT
 11
238.464
 21
29.37
 31
0.0
210
0.0
220
0.0
230
1.0
 73
     3
  0
LINE
  8
1
  6
CONTINUOUS
 62
     7
  5
586
 10
107.6275
 20
13.181833
 30
0.0
 11
335.198417
 21
13.181833
 31
0.0
  0
TEXT
  8
1
  6
CONTINUOUS
 62
     7
  5
587
 10
174.062667
 20
-23.688667
 30
0.0
 40
4.0
  1
=
  7
MONOTXT
 11
174.062667
 21
-19.688667
 31
0.0
210
0.0
220
0.0
230
1.0
 73
     3
  0
TEXT
  8
1
  6
CONTINUOUS
 62
     7
  5
588
 10
174.062667
 20
-28.288667
 30
0.0
 40
4.0
  1
=
  7
MONOTXT
 11
174.062667
 21
-24.288667
 31
0.0
210
0.0
220
0.0
230
1.0
 73
     3
  0
TEXT
  8
1
  6
CONTINUOUS
 62
     7
  5
589
 10
174.062667
 20
-32.888667
 30
0.0
 40
4.0
  1
=
  7
MONOTXT
 11
174.062667
 21
-28.888667
 31
0.0
210
0.0
220
0.0
230
1.0
 73
     3
  0
TEXT
  8
1
  6
CONTINUOUS
 62
     1
  5
58A
 10
272.802833
 20
-135.762167
 30
0.0
 40
6.992667
  1
EXIT NUMBER PANEL
  7
txt
 72
     1
 11
323.449833
 21
-128.7695
 31
0.0
210
0.0
220
0.0
230
1.0
 73
     3
  0
TEXT
  8
1
  6
CONTINUOUS
 62
     1
  5
58B
 10
297.673417
 20
-145.346667
 30
0.0
 40
6.992667
  1
ALUMINUM
  7
txt
 72
     1
 11
323.449833
 21
-138.354
 31
0.0
210
0.0
220
0.0
230
1.0
 73
     3
  0
POLYLINE
  8
1
  6
CONTINUOUS
 62
     7
  5
58C
 66
     1
 10
0.0
 20
0.0
 30
0.0
  0
VERTEX
  8
1
  6
CONTINUOUS
 62
     7
  5
58D
 10
240.007917
 20
-158.178417
 30
0.0
  0
VERTEX
  8
1
  6
CONTINUOUS
 62
     7
  5
58E
 10
238.007917
 20
-161.6425
 30
0.0
  0
VERTEX
  8
1
  6
CONTINUOUS
 62
     7
  5
58F
 10
242.007917
 20
-161.6425
 30
0.0
  0
VERTEX
  8
1
  6
CONTINUOUS
 62
     7
  5
590
 10
240.007917
 20
-158.178417
 30
0.0
  0
SEQEND
  8
1
  6
CONTINUOUS
 62
     7
  5
591
  0
POLYLINE
  8
1
  6
CONTINUOUS
 62
     7
  5
592
 66
     1
 10
0.0
 20
0.0
 30
0.0
  0
VERTEX
  8
1
  6
CONTINUOUS
 62
     7
  5
593
 10
239.991167
 20
-162.666333
 30
0.0
  0
VERTEX
  8
1
  6
CONTINUOUS
 62
     7
  5
594
 10
237.991167
 20
-166.130417
 30
0.0
  0
VERTEX
  8
1
  6
CONTINUOUS
 62
     7
  5
595
 10
241.991167
 20
-166.130417
 30
0.0
  0
VERTEX
  8
1
  6
CONTINUOUS
 62
     7
  5
596
 10
239.991167
 20
-162.666333
 30
0.0
  0
SEQEND
  8
1
  6
CONTINUOUS
 62
     7
  5
597
  0
POLYLINE
  8
1
  6
CONTINUOUS
 62
     7
  5
598
 66
     1
 10
0.0
 20
0.0
 30
0.0
  0
VERTEX
  8
1
  6
CONTINUOUS
 62
     7
  5
599
 10
239.916083
 20
-167.097
 30
0.0
  0
VERTEX
  8
1
  6
CONTINUOUS
 62
     7
  5
59A
 10
237.916083
 20
-170.561083
 30
0.0
  0
VERTEX
  8
1
  6
CONTINUOUS
 62
     7
  5
59B
 10
241.916083
 20
-170.561083
 30
0.0
  0
VERTEX
  8
1
  6
CONTINUOUS
 62
     7
  5
59C
 10
239.916083
 20
-167.097
 30
0.0
  0
SEQEND
  8
1
  6
CONTINUOUS
 62
     7
  5
59D
  0
POLYLINE
  8
1
  6
CONTINUOUS
 62
     7
  5
59E
 66
     1
 10
0.0
 20
0.0
 30
0.0
  0
VERTEX
  8
1
  6
CONTINUOUS
 62
     7
  5
59F
 10
239.953583
 20
-171.677833
 30
0.0
  0
VERTEX
  8
1
  6
CONTINUOUS
 62
     7
  5
5A0
 10
237.953583
 20
-175.141917
 30
0.0
  0
VERTEX
  8
1
  6
CONTINUOUS
 62
     7
  5
5A1
 10
241.953583
 20
-175.141917
 30
0.0
  0
VERTEX
  8
1
  6
CONTINUOUS
 62
     7
  5
5A2
 10
239.953583
 20
-171.677833
 30
0.0
  0
SEQEND
  8
1
  6
CONTINUOUS
 62
     7
  5
5A3
  0
POLYLINE
  8
1
  6
CONTINUOUS
 62
     7
  5
5A4
 66
     1
 10
0.0
 20
0.0
 30
0.0
  0
VERTEX
  8
1
  6
CONTINUOUS
 62
     7
  5
5A5
 10
239.991167
 20
-176.146083
 30
0.0
  0
VERTEX
  8
1
  6
CONTINUOUS
 62
     7
  5
5A6
 10
237.991167
 20
-179.610167
 30
0.0
  0
VERTEX
  8
1
  6
CONTINUOUS
 62
     7
  5
5A7
 10
241.991167
 20
-179.610167
 30
0.0
  0
VERTEX
  8
1
  6
CONTINUOUS
 62
     7
  5
5A8
 10
239.991167
 20
-176.146083
 30
0.0
  0
SEQEND
  8
1
  6
CONTINUOUS
 62
     7
  5
5A9
  0
TEXT
  8
1
  6
CONTINUOUS
 62
     7
  5
5AA
 10
239.653333
 20
-161.022
 30
0.0
 40
1.5
  1
1
  7
MONOTXT
 11
239.653333
 21
-159.522
 31
0.0
210
0.0
220
0.0
230
1.0
 73
     3
  0
TEXT
  8
1
  6
CONTINUOUS
 62
     7
  5
5AB
 10
239.465583
 20
-165.62275
 30
0.0
 40
1.5
  1
2
  7
MONOTXT
 11
239.465583
 21
-164.12275
 31
0.0
210
0.0
220
0.0
230
1.0
 73
     3
  0
TEXT
  8
1
  6
CONTINUOUS
 62
     7
  5
5AC
 10
239.353
 20
-170.03575
 30
0.0
 40
1.5
  1
3
  7
MONOTXT
 11
239.353
 21
-168.53575
 31
0.0
210
0.0
220
0.0
230
1.0
 73
     3
  0
TEXT
  8
1
  6
CONTINUOUS
 62
     7
  5
5AD
 10
239.353
 20
-174.598917
 30
0.0
 40
1.5
  1
4
  7
MONOTXT
 11
239.353
 21
-173.098917
 31
0.0
210
0.0
220
0.0
230
1.0
 73
     3
  0
TEXT
  8
1
  6
CONTINUOUS
 62
     7
  5
5AE
 10
239.540667
 20
-179.162167
 30
0.0
 40
1.5
  1
5
  7
MONOTXT
 11
239.540667
 21
-177.662167
 31
0.0
210
0.0
220
0.0
230
1.0
 73
     3
  0
POLYLINE
  8
1
  6
CONTINUOUS
 62
     7
  5
5AF
 66
     1
 10
0.0
 20
0.0
 30
0.0
  0
VERTEX
  8
1
  6
CONTINUOUS
 62
     7
  5
5B0
 10
202.68075
 20
-186.659417
 30
0.0
  0
VERTEX
  8
1
  6
CONTINUOUS
 62
     7
  5
5B1
 10
200.68075
 20
-190.1235
 30
0.0
  0
VERTEX
  8
1
  6
CONTINUOUS
 62
     7
  5
5B2
 10
204.68075
 20
-190.1235
 30
0.0
  0
VERTEX
  8
1
  6
CONTINUOUS
 62
     7
  5
5B3
 10
202.68075
 20
-186.659417
 30
0.0
  0
SEQEND
  8
1
  6
CONTINUOUS
 62
     7
  5
5B4
  0
POLYLINE
  8
1
  6
CONTINUOUS
 62
     7
  5
5B5
 66
     1
 10
0.0
 20
0.0
 30
0.0
  0
VERTEX
  8
1
  6
CONTINUOUS
 62
     7
  5
5B6
 10
202.39725
 20
-157.427417
 30
0.0
  0
VERTEX
  8
1
  6
CONTINUOUS
 62
     7
  5
5B7
 10
200.39725
 20
-160.8915
 30
0.0
  0
VERTEX
  8
1
  6
CONTINUOUS
 62
     7
  5
5B8
 10
204.39725
 20
-160.8915
 30
0.0
  0
VERTEX
  8
1
  6
CONTINUOUS
 62
     7
  5
5B9
 10
202.39725
 20
-157.427417
 30
0.0
  0
SEQEND
  8
1
  6
CONTINUOUS
 62
     7
  5
5BA
  0
POLYLINE
  8
1
  6
CONTINUOUS
 62
     7
  5
5BB
 66
     1
 10
0.0
 20
0.0
 30
0.0
  0
VERTEX
  8
1
  6
CONTINUOUS
 62
     7
  5
5BC
 10
202.3805
 20
-164.018
 30
0.0
  0
VERTEX
  8
1
  6
CONTINUOUS
 62
     7
  5
5BD
 10
200.3805
 20
-167.482083
 30
0.0
  0
VERTEX
  8
1
  6
CONTINUOUS
 62
     7
  5
5BE
 10
204.3805
 20
-167.482083
 30
0.0
  0
VERTEX
  8
1
  6
CONTINUOUS
 62
     7
  5
5BF
 10
202.3805
 20
-164.018
 30
0.0
  0
SEQEND
  8
1
  6
CONTINUOUS
 62
     7
  5
5C0
  0
POLYLINE
  8
1
  6
CONTINUOUS
 62
     7
  5
5C1
 66
     1
 10
0.0
 20
0.0
 30
0.0
  0
VERTEX
  8
1
  6
CONTINUOUS
 62
     7
  5
5C2
 10
202.305333
 20
-171.903083
 30
0.0
  0
VERTEX
  8
1
  6
CONTINUOUS
 62
     7
  5
5C3
 10
200.305333
 20
-175.367167
 30
0.0
  0
VERTEX
  8
1
  6
CONTINUOUS
 62
     7
  5
5C4
 10
204.305333
 20
-175.367167
 30
0.0
  0
VERTEX
  8
1
  6
CONTINUOUS
 62
     7
  5
5C5
 10
202.305333
 20
-171.903083
 30
0.0
  0
SEQEND
  8
1
  6
CONTINUOUS
 62
     7
  5
5C6
  0
POLYLINE
  8
1
  6
CONTINUOUS
 62
     7
  5
5C7
 66
     1
 10
0.0
 20
0.0
 30
0.0
  0
VERTEX
  8
1
  6
CONTINUOUS
 62
     7
  5
5C8
 10
202.493
 20
-180.0885
 30
0.0
  0
VERTEX
  8
1
  6
CONTINUOUS
 62
     7
  5
5C9
 10
200.493
 20
-183.552583
 30
0.0
  0
VERTEX
  8
1
  6
CONTINUOUS
 62
     7
  5
5CA
 10
204.493
 20
-183.552583
 30
0.0
  0
VERTEX
  8
1
  6
CONTINUOUS
 62
     7
  5
5CB
 10
202.493
 20
-180.0885
 30
0.0
  0
SEQEND
  8
1
  6
CONTINUOUS
 62
     7
  5
5CC
  0
TEXT
  8
1
  6
CONTINUOUS
 62
     7
  5
5CD
 10
202.042667
 20
-160.271
 30
0.0
 40
1.5
  1
1
  7
MONOTXT
 11
202.042667
 21
-158.771
 31
0.0
210
0.0
220
0.0
230
1.0
 73
     3
  0
TEXT
  8
1
  6
CONTINUOUS
 62
     7
  5
5CE
 10
201.854917
 20
-166.974417
 30
0.0
 40
1.5
  1
2
  7
MONOTXT
 11
201.854917
 21
-165.474417
 31
0.0
210
0.0
220
0.0
230
1.0
 73
     3
  0
TEXT
  8
1
  6
CONTINUOUS
 62
     7
  5
5CF
 10
201.74225
 20
-174.841833
 30
0.0
 40
1.5
  1
3
  7
MONOTXT
 11
201.74225
 21
-173.341833
 31
0.0
210
0.0
220
0.0
230
1.0
 73
     3
  0
TEXT
  8
1
  6
CONTINUOUS
 62
     7
  5
5D0
 10
201.892417
 20
-183.009583
 30
0.0
 40
1.5
  1
4
  7
MONOTXT
 11
201.892417
 21
-181.509583
 31
0.0
210
0.0
220
0.0
230
1.0
 73
     3
  0
TEXT
  8
1
  6
CONTINUOUS
 62
     7
  5
5D1
 10
202.23025
 20
-189.6755
 30
0.0
 40
1.5
  1
5
  7
MONOTXT
 11
202.23025
 21
-188.1755
 31
0.0
210
0.0
220
0.0
230
1.0
 73
     3
  0
TEXT
  8
1
  6
CONTINUOUS
 62
     7
  5
5D2
 10
206.732667
 20
-159.521
 30
0.0
 40
1.5
  1
LEGEND HEIGHT
  7
MONOTXT
 72
     4
 11
215.561333
 21
-158.771
 31
0.0
210
0.0
220
0.0
230
1.0
  0
TEXT
  8
1
  6
CONTINUOUS
 62
     7
  5
5D3
 10
206.922167
 20
-165.15225
 30
0.0
 40
1.5
  1
LEGEND HEIGHT &
  7
MONOTXT
 11
206.922167
 21
-163.65225
 31
0.0
210
0.0
220
0.0
230
1.0
 73
     3
  0
TEXT
  8
1
  6
CONTINUOUS
 62
     7
  5
5D4
 10
206.922167
 20
-167.65225
 30
0.0
 40
1.5
  1
AUXILIARY SUPPORT
  7
MONOTXT
 11
206.922167
 21
-166.15225
 31
0.0
210
0.0
220
0.0
230
1.0
 73
     3
  0
TEXT
  8
1
  6
CONTINUOUS
 62
     7
  5
5D5
 10
207.072333
 20
-172.962167
 30
0.0
 40
1.5
  1
LEGEND SIZE ON
  7
MONOTXT
 11
207.072333
 21
-171.462167
 31
0.0
210
0.0
220
0.0
230
1.0
 73
     3
  0
TEXT
  8
1
  6
CONTINUOUS
 62
     7
  5
5D6
 10
207.072333
 20
-175.462167
 30
0.0
 40
1.5
  1
EXIT PANEL.
  7
MONOTXT
 11
207.072333
 21
-173.962167
 31
0.0
210
0.0
220
0.0
230
1.0
 73
     3
  0
TEXT
  8
1
  6
CONTINUOUS
 62
     7
  5
5D7
 10
207.297583
 20
-181.147667
 30
0.0
 40
1.5
  1
LENGTH OF AUXILIARY
  7
MONOTXT
 11
207.297583
 21
-179.647667
 31
0.0
210
0.0
220
0.0
230
1.0
 73
     3
  0
TEXT
  8
1
  6
CONTINUOUS
 62
     7
  5
5D8
 10
207.297583
 20
-183.647667
 30
0.0
 40
1.5
  1
SUPPORTS
  7
MONOTXT
 11
207.297583
 21
-182.147667
 31
0.0
210
0.0
220
0.0
230
1.0
 73
     3
  0
TEXT
  8
1
  6
CONTINUOUS
 62
     7
  5
5D9
 10
207.547
 20
-189.183833
 30
0.0
 40
1.5
  1
MOVED EXIT PANEL
  7
MONOTXT
 72
     4
 11
218.714333
 21
-188.433833
 31
0.0
210
0.0
220
0.0
230
1.0
  0
INSERT
  8
1
  6
CONTINUOUS
 62
     1
  5
5DA
  2
LDR
 10
-55.314583
 20
-15.196
 30
0.0
 41
239.999999
 42
239.999999
 50
305.379755
210
0.0
220
0.0
230
1.0
  0
TEXT
  8
1
  6
CONTINUOUS
 62
     7
  5
5DB
 10
133.930833
 20
-66.289583
 30
0.0
 40
2.5
  1
10" E
  7
MONOTXT
 72
     4
 11
138.625667
 21
-65.039583
 31
0.0
210
0.0
220
0.0
230
1.0
  0
TEXT
  8
1
  6
CONTINUOUS
 62
     7
  5
5DC
 10
200.41
 20
-67.1985
 30
0.0
 40
2.5
  1
15" E
  7
MONOTXT
 72
     4
 11
205.104833
 21
-65.9485
 31
0.0
210
0.0
220
0.0
230
1.0
  0
ENDSEC
  0
EOF
