  0
SECTION
  2
HEADER
  9
$ACADVER
  1
AC1009
  9
$INSBASE
 10
0.0
 20
0.0
 30
0.0
  9
$EXTMIN
 10
-60.988083
 20
-392.811917
 30
0.0
  9
$EXTMAX
 10
619.091917
 20
47.228083
 30
0.0
  9
$LIMMIN
 10
0.0
 20
0.0
  9
$LIMMAX
 10
12.0
 20
9.0
  9
$ORTHOMODE
 70
     0
  9
$REGENMODE
 70
     1
  9
$FILLMODE
 70
     1
  9
$QTEXTMODE
 70
     0
  9
$MIRRTEXT
 70
     1
  9
$DRAGMODE
 70
     2
  9
$LTSCALE
 40
1.0
  9
$OSMODE
 70
     0
  9
$ATTMODE
 70
     1
  9
$TEXTSIZE
 40
0.2
  9
$TRACEWID
 40
0.05
  9
$TEXTSTYLE
  7
STANDARD
  9
$CLAYER
  8
0
  9
$CELTYPE
  6
CONTINUOUS
  9
$CECOLOR
 62
   256
  9
$DIMSCALE
 40
1.0
  9
$DIMASZ
 40
0.18
  9
$DIMEXO
 40
0.0625
  9
$DIMDLI
 40
0.38
  9
$DIMRND
 40
0.0
  9
$DIMDLE
 40
0.0
  9
$DIMEXE
 40
0.18
  9
$DIMTP
 40
0.0
  9
$DIMTM
 40
0.0
  9
$DIMTXT
 40
0.18
  9
$DIMCEN
 40
0.09
  9
$DIMTSZ
 40
0.0
  9
$DIMTOL
 70
     0
  9
$DIMLIM
 70
     0
  9
$DIMTIH
 70
     1
  9
$DIMTOH
 70
     1
  9
$DIMSE1
 70
     0
  9
$DIMSE2
 70
     0
  9
$DIMTAD
 70
     0
  9
$DIMZIN
 70
     0
  9
$DIMBLK
  1

  9
$DIMASO
 70
     1
  9
$DIMSHO
 70
     1
  9
$DIMPOST
  1

  9
$DIMAPOST
  1

  9
$DIMALT
 70
     0
  9
$DIMALTD
 70
     2
  9
$DIMALTF
 40
25.4
  9
$DIMLFAC
 40
1.0
  9
$DIMTOFL
 70
     0
  9
$DIMTVP
 40
0.0
  9
$DIMTIX
 70
     0
  9
$DIMSOXD
 70
     0
  9
$DIMSAH
 70
     0
  9
$DIMBLK1
  1

  9
$DIMBLK2
  1

  9
$DIMSTYLE
  2
STANDARD
  9
$DIMCLRD
 70
     0
  9
$DIMCLRE
 70
     0
  9
$DIMCLRT
 70
     0
  9
$DIMTFAC
 40
1.0
  9
$DIMGAP
 40
0.09
  9
$LUNITS
 70
     2
  9
$LUPREC
 70
     4
  9
$AXISMODE
 70
     0
  9
$AXISUNIT
 10
0.0
 20
0.0
  9
$SKETCHINC
 40
0.1
  9
$FILLETRAD
 40
0.0
  9
$AUNITS
 70
     0
  9
$AUPREC
 70
     0
  9
$MENU
  1
acad
  9
$ELEVATION
 40
0.0
  9
$PELEVATION
 40
0.0
  9
$THICKNESS
 40
0.0
  9
$LIMCHECK
 70
     0
  9
$BLIPMODE
 70
     1
  9
$CHAMFERA
 40
0.0
  9
$CHAMFERB
 40
0.0
  9
$SKPOLY
 70
     0
  9
$TDCREATE
 40
2451803.408391204
  9
$TDUPDATE
 40
2451803.408391204
  9
$TDINDWG
 40
0.0000000000
  9
$TDUSRTIMER
 40
0.0000000000
  9
$USRTIMER
 70
     1
  9
$ANGBASE
 50
0.0
  9
$ANGDIR
 70
     0
  9
$PDMODE
 70
     0
  9
$PDSIZE
 40
0.0
  9
$PLINEWID
 40
0.0
  9
$COORDS
 70
     0
  9
$SPLFRAME
 70
     0
  9
$SPLINETYPE
 70
     6
  9
$SPLINESEGS
 70
    10
  9
$ATTDIA
 70
     0
  9
$ATTREQ
 70
     1
  9
$HANDLING
 70
     1
  9
$HANDSEED
  5
5F8
  9
$SURFTAB1
 70
     6
  9
$SURFTAB2
 70
     6
  9
$SURFTYPE
 70
     6
  9
$SURFU
 70
     6
  9
$SURFV
 70
     6
  9
$UCSNAME
  2

  9
$UCSORG
 10
0.0
 20
0.0
 30
0.0
  9
$UCSXDIR
 10
1.0
 20
0.0
 30
0.0
  9
$UCSYDIR
 10
0.0
 20
1.0
 30
0.0
  9
$PUCSNAME
  2

  9
$PUCSORG
 10
0.0
 20
0.0
 30
0.0
  9
$PUCSXDIR
 10
1.0
 20
0.0
 30
0.0
  9
$PUCSYDIR
 10
0.0
 20
1.0
 30
0.0
  9
$USERI1
 70
     0
  9
$USERI2
 70
     0
  9
$USERI3
 70
     0
  9
$USERI4
 70
     0
  9
$USERI5
 70
     0
  9
$USERR1
 40
0.0
  9
$USERR2
 40
0.0
  9
$USERR3
 40
0.0
  9
$USERR4
 40
0.0
  9
$USERR5
 40
0.0
  9
$WORLDVIEW
 70
     1
  9
$SHADEDGE
 70
     3
  9
$SHADEDIF
 70
    70
  9
$TILEMODE
 70
     1
  9
$MAXACTVP
 70
    16
  9
$PINSBASE
 10
0.0
 20
0.0
 30
0.0
  9
$PLIMCHECK
 70
     0
  9
$PEXTMIN
 10
-1.000000E+20
 20
-1.000000E+20
 30
-1.000000E+20
  9
$PEXTMAX
 10
-1.000000E+20
 20
-1.000000E+20
 30
-1.000000E+20
  9
$PLIMMIN
 10
0.0
 20
0.0
  9
$PLIMMAX
 10
12.0
 20
9.0
  9
$UNITMODE
 70
     0
  9
$VISRETAIN
 70
     0
  9
$PLINEGEN
 70
     1
  9
$PSLTSCALE
 70
     0
  9
$TREEDEPTH
 70
  3020
  9
$DWGCODEPAGE
  3
ansi_1252
  0
ENDSEC
  0
SECTION
  2
TABLES
  0
TABLE
  2
VPORT
 70
     1
  0
VPORT
  2
*ACTIVE
 70
     0
 10
0.0
 20
0.0
 11
1.0
 21
1.0
 12
0.0
 22
0.0
 13
0.0
 23
0.0
 14
0.0
 24
0.0
 15
0.0
 25
0.0
 16
0.0
 26
0.0
 36
1.0
 17
233.288217
 27
-172.791917
 37
0.0
 40
451.041
 41
1.795122
 42
50.0
 43
0.0
 44
0.0
 50
0.0
 51
0.0
 71
     0
 72
   100
 73
     1
 74
     0
 75
     0
 76
     0
 77
     0
 78
     0
  0
ENDTAB
  0
TABLE
  2
LTYPE
 70
     7
  0
LTYPE
  2
CONTINUOUS
 70
     0
  3
Solid line
 72
    65
 73
     0
 40
0.0
  0
LTYPE
  2
DOT
 70
    64
  3
. . . . . . . . . . . . . . . . . . . . . . . . . . . . . . . . .
 72
    65
 73
     2
 40
0.25
 49
0.0
 49
-0.25
  0
LTYPE
  2
HIDDEN
 70
    64
  3
__ __ __ __ __ __ __ __ __ __ __ __ __ __ __ __ __ __ __ __ __ 
 72
    65
 73
     2
 40
0.375
 49
0.25
 49
-0.125
  0
LTYPE
  2
DASHED
 70
    64
  3
__ __ __ __ __ __ __ __ __ __ __ __ __ __ __ __ __ __ __ __ __
 72
    65
 73
     2
 40
0.75
 49
0.5
 49
-0.25
  0
LTYPE
  2
DASHDOT
 70
    64
  3
__ . __ . __ . __ . __ . __ . __ . __ . __ . __ . __ . __ . _
 72
    65
 73
     4
 40
1.0
 49
0.5
 49
-0.25
 49
0.0
 49
-0.25
  0
LTYPE
  2
DIVIDE
 70
    64
  3
____ . . ____ . . ____ . . ____ . . ____ . . ____ . . ____ . .
 72
    65
 73
     6
 40
1.25
 49
0.5
 49
-0.25
 49
0.0
 49
-0.25
 49
0.0
 49
-0.25
  0
LTYPE
  2
CENTER
 70
    64
  3
____ _ ____ _ ____ _ ____ _ ____ _ ____ _ ____ _ ____ _ ____ _
 72
    65
 73
     4
 40
2.0
 49
1.25
 49
-0.25
 49
0.25
 49
-0.25
  0
ENDTAB
  0
TABLE
  2
LAYER
 70
     5
  0
LAYER
  2
0
 70
     0
 62
     7
  6
CONTINUOUS
  0
LAYER
  2
CONSTRUCTION_CLASS
 70
     0
 62
     7
  6
CONTINUOUS
  0
LAYER
  2
PATTERN_CLASS
 70
     0
 62
     7
  6
CONTINUOUS
  0
LAYER
  2
61
 70
    64
 62
     7
  6
CONTINUOUS
  0
LAYER
  2
1
 70
    64
 62
     7
  6
CONTINUOUS
  0
ENDTAB
  0
TABLE
  2
STYLE
 70
     4
  0
STYLE
  2
STANDARD
 70
     0
 40
0.0
 41
1.0
 50
0.0
 71
     0
 42
0.0
  3
txt
  4

  0
STYLE
  2
MONOTXT
 70
     0
 40
0.2
 41
1.0
 50
0.0
 71
     0
 42
0.2
  3
MONOTXT
  4

  0
STYLE
  2
txt
 70
     0
 40
0.2
 41
1.0
 50
0.0
 71
     0
 42
0.2
  3
TXT
  4

  0
STYLE
  2
ROMANT
 70
     0
 40
0.2
 41
1.0
 50
0.0
 71
     0
 42
0.2
  3
ROMANT
  4

  0
ENDTAB
  0
TABLE
  2
VIEW
 70
     0
  0
ENDTAB
  0
TABLE
  2
UCS
 70
     0
  0
ENDTAB
  0
TABLE
  2
APPID
 70
     1
  0
APPID
  2
ACAD
 70
     0
  0
ENDTAB
  0
TABLE
  2
DIMSTYLE
 70
     1
  0
DIMSTYLE
  2
STANDARD
 70
     0
  3

  4

  5

  6

  7

 40
1.0
 41
0.18
 42
0.0625
 43
0.38
 44
0.18
 45
0.0
 46
0.0
 47
0.0
 48
0.0
140
0.18
141
0.09
142
0.0
143
25.4
144
1.0
145
0.0
146
1.0
147
0.09
 71
     0
 72
     0
 73
     1
 74
     1
 75
     0
 76
     0
 77
     0
 78
     0
170
     0
171
     2
172
     0
173
     0
174
     0
175
     0
176
     0
177
     0
178
     0
  0
ENDTAB
  0
ENDSEC
  0
SECTION
  2
BLOCKS
  0
BLOCK
  8
1
  6
CONTINUOUS
 62
     1
  5
A3
  2
BAND
 70
     0
 10
0.0
 20
0.0
 30
0.0
  3
BAND
  0
LINE
  8
1
  6
CONTINUOUS
 62
     1
  5
A4
 10
-0.0975
 20
-0.007333
 30
0.0
 11
0.097583
 21
-0.007333
 31
0.0
  0
LINE
  8
1
  6
CONTINUOUS
 62
     1
  5
A5
 10
-0.0975
 20
-0.011917
 30
0.0
 11
0.097583
 21
-0.011917
 31
0.0
  0
LINE
  8
1
  6
CONTINUOUS
 62
     1
  5
A6
 10
-0.0975
 20
-0.007333
 30
0.0
 11
-0.0975
 21
-0.011917
 31
0.0
  0
LINE
  8
1
  6
CONTINUOUS
 62
     1
  5
A7
 10
0.097583
 20
-0.007333
 30
0.0
 11
0.097583
 21
-0.011917
 31
0.0
  0
LINE
  8
1
  6
CONTINUOUS
 62
     1
  5
A8
 10
-0.004167
 20
-0.006083
 30
0.0
 11
0.00425
 21
-0.006083
 31
0.0
  0
LINE
  8
1
  6
CONTINUOUS
 62
     1
  5
A9
 10
-0.002417
 20
-0.003917
 30
0.0
 11
0.002583
 21
-0.003917
 31
0.0
  0
LINE
  8
1
  6
CONTINUOUS
 62
     1
  5
AA
 10
-0.002417
 20
-0.003917
 30
0.0
 11
-0.002417
 21
-0.006083
 31
0.0
  0
LINE
  8
1
  6
CONTINUOUS
 62
     1
  5
AB
 10
0.002583
 20
-0.003917
 30
0.0
 11
0.002583
 21
-0.006083
 31
0.0
  0
LINE
  8
1
  6
CONTINUOUS
 62
     1
  5
AC
 10
-0.004167
 20
-0.006083
 30
0.0
 11
-0.004167
 21
-0.007333
 31
0.0
  0
LINE
  8
1
  6
CONTINUOUS
 62
     1
  5
AD
 10
0.00425
 20
-0.006083
 30
0.0
 11
0.00425
 21
-0.007333
 31
0.0
  0
LINE
  8
1
  6
CONTINUOUS
 62
     1
  5
AE
 10
-0.002417
 20
-0.006083
 30
0.0
 11
-0.002417
 21
-0.0205
 31
0.0
  0
LINE
  8
1
  6
CONTINUOUS
 62
     1
  5
AF
 10
0.002583
 20
-0.006083
 30
0.0
 11
0.002583
 21
-0.0205
 31
0.0
  0
LINE
  8
1
  6
CONTINUOUS
 62
     1
  5
B0
 10
-0.002417
 20
-0.0205
 30
0.0
 11
0.002583
 21
-0.0205
 31
0.0
  0
LINE
  8
1
  6
CONTINUOUS
 62
     1
  5
B1
 10
-0.005833
 20
-0.015583
 30
0.0
 11
0.005917
 21
-0.015583
 31
0.0
  0
LINE
  8
1
  6
CONTINUOUS
 62
     1
  5
B2
 10
-0.015083
 20
-0.011917
 30
0.0
 11
-0.015083
 21
-0.02475
 31
0.0
  0
LINE
  8
1
  6
CONTINUOUS
 62
     1
  5
B3
 10
0.015167
 20
-0.011917
 30
0.0
 11
0.015167
 21
-0.02475
 31
0.0
  0
LINE
  8
1
  6
CONTINUOUS
 62
     1
  5
B4
 10
-0.009167
 20
-0.018083
 30
0.0
 11
-0.009167
 21
-0.026917
 31
0.0
  0
LINE
  8
1
  6
CONTINUOUS
 62
     1
  5
B5
 10
0.009333
 20
-0.018083
 30
0.0
 11
0.009333
 21
-0.0275
 31
0.0
  0
CIRCLE
  8
1
  6
CONTINUOUS
 62
     1
  5
B6
 10
-0.002055
 20
-0.101045
 30
0.0
 40
0.074456
210
0.0
220
0.0
230
1.0
  0
ARC
  8
1
  6
CONTINUOUS
 62
     1
  5
B7
 10
-0.00587
 20
-0.018974
 30
0.0
 40
0.003418
 50
88.957119
 51
164.782678
210
0.0
220
0.0
230
1.0
  0
ARC
  8
1
  6
CONTINUOUS
 62
     1
  5
B8
 10
0.006015
 20
-0.018974
 30
0.0
 40
0.003418
 50
15.217322
 51
91.042881
210
0.0
220
0.0
230
1.0
  0
LINE
  8
1
  6
CONTINUOUS
 62
     1
  5
B9
 10
-0.009167
 20
-0.023083
 30
0.0
 11
0.009333
 21
-0.023083
 31
0.0
  0
LINE
  8
1
  6
CONTINUOUS
 62
     1
  5
BA
 10
-0.017583
 20
-0.026083
 30
0.0
 11
-0.017583
 21
-0.02825
 31
0.0
  0
LINE
  8
1
  6
CONTINUOUS
 62
     1
  5
BB
 10
0.01775
 20
-0.026083
 30
0.0
 11
0.01775
 21
-0.02925
 31
0.0
  0
LINE
  8
1
  6
CONTINUOUS
 62
     1
  5
BC
 10
-0.017583
 20
-0.026083
 30
0.0
 11
-0.015083
 21
-0.02475
 31
0.0
  0
LINE
  8
1
  6
CONTINUOUS
 62
     1
  5
BD
 10
0.01775
 20
-0.026083
 30
0.0
 11
0.015167
 21
-0.02475
 31
0.0
  0
LINE
  8
1
  6
CONTINUOUS
 62
     1
  5
BE
 10
-0.0295
 20
-0.031833
 30
0.0
 11
-0.015083
 21
-0.024083
 31
0.0
  0
LINE
  8
1
  6
CONTINUOUS
 62
     1
  5
BF
 10
0.032167
 20
-0.034917
 30
0.0
 11
0.015167
 21
-0.024083
 31
0.0
  0
LINE
  8
1
  6
CONTINUOUS
 62
     1
  5
C0
 10
0.07125
 20
-0.088167
 30
0.0
 11
0.076417
 21
-0.088167
 31
0.0
  0
LINE
  8
1
  6
CONTINUOUS
 62
     1
  5
C1
 10
0.072417
 20
-0.09925
 30
0.0
 11
0.076417
 21
-0.09925
 31
0.0
  0
LINE
  8
1
  6
CONTINUOUS
 62
     1
  5
C2
 10
0.076417
 20
-0.088167
 30
0.0
 11
0.076417
 21
-0.09925
 31
0.0
  0
LINE
  8
1
  6
CONTINUOUS
 62
     1
  5
C3
 10
0.078083
 20
-0.092
 30
0.0
 11
0.076417
 21
-0.092
 31
0.0
  0
LINE
  8
1
  6
CONTINUOUS
 62
     1
  5
C4
 10
0.078083
 20
-0.095417
 30
0.0
 11
0.076417
 21
-0.095417
 31
0.0
  0
LINE
  8
1
  6
CONTINUOUS
 62
     1
  5
C5
 10
0.078083
 20
-0.092
 30
0.0
 11
0.078083
 21
-0.095417
 31
0.0
  0
ARC
  8
1
  6
CONTINUOUS
 62
     1
  5
C6
 10
0.140176
 20
-0.11757
 30
0.0
 40
0.066326
 50
163.97175
 51
189.254767
210
0.0
220
0.0
230
1.0
  0
ARC
  8
1
  6
CONTINUOUS
 62
     1
  5
C7
 10
0.019856
 20
-0.128539
 30
0.0
 40
0.063702
 50
1.040683
 51
27.367081
210
0.0
220
0.0
230
1.0
  0
ARC
  8
1
  6
CONTINUOUS
 62
     1
  5
C8
 10
0.079182
 20
-0.12834
 30
0.0
 40
0.004469
 50
178.677017
 51
12.366456
210
0.0
220
0.0
230
1.0
  0
ENDBLK
  8
1
  6
CONTINUOUS
 62
     1
  5
C9
  0
BLOCK
  8
1
  6
CONTINUOUS
 62
     1
  5
404
  2
LDR
 70
     0
 10
0.0
 20
0.0
 30
0.0
  3
LNR
  0
POLYLINE
  8
1
  6
CONTINUOUS
 62
     1
  5
405
 66
     1
 10
0.0
 20
0.0
 30
0.0
210
0.0
220
0.0
230
1.0
  0
VERTEX
  8
1
  6
CONTINUOUS
 62
     1
  5
406
 10
-0.011987
 20
-0.001802
 30
0.0
 42
-0.265147
  0
VERTEX
  8
1
  6
CONTINUOUS
 62
     1
  5
407
 10
-0.011849
 20
-0.001604
 30
0.0
 42
-0.064653
  0
VERTEX
  8
1
  6
CONTINUOUS
 62
     1
  5
408
 10
-0.011407
 20
-0.001387
 30
0.0
 42
-0.025822
  0
VERTEX
  8
1
  6
CONTINUOUS
 62
     1
  5
409
 10
-0.010681
 20
-0.00116
 30
0.0
 42
-0.014504
  0
VERTEX
  8
1
  6
CONTINUOUS
 62
     1
  5
40A
 10
-0.0097
 20
-0.000933
 30
0.0
 42
-0.009896
  0
VERTEX
  8
1
  6
CONTINUOUS
 62
     1
  5
40B
 10
-0.008505
 20
-0.000715
 30
0.0
 42
-0.007708
  0
VERTEX
  8
1
  6
CONTINUOUS
 62
     1
  5
40C
 10
-0.007146
 20
-0.000515
 30
0.0
 42
-0.006655
  0
VERTEX
  8
1
  6
CONTINUOUS
 62
     1
  5
40D
 10
-0.005679
 20
-0.000342
 30
0.0
 42
-0.006278
  0
VERTEX
  8
1
  6
CONTINUOUS
 62
     1
  5
40E
 10
-0.004164
 20
-0.000202
 30
0.0
 42
-0.006439
  0
VERTEX
  8
1
  6
CONTINUOUS
 62
     1
  5
40F
 10
-0.002666
 20
-0.000101
 30
0.0
 42
-0.007196
  0
VERTEX
  8
1
  6
CONTINUOUS
 62
     1
  5
410
 10
-0.001246
 20
-0.000044
 30
0.0
 42
-0.008852
  0
VERTEX
  8
1
  6
CONTINUOUS
 62
     1
  5
411
 10
0.000037
 20
-0.000034
 30
0.0
 42
-0.008852
  0
SEQEND
  8
1
  6
CONTINUOUS
 62
     1
  5
412
  0
POLYLINE
  8
1
  6
CONTINUOUS
 62
     1
  5
413
 66
     1
 10
0.0
 20
0.0
 30
0.0
210
0.0
220
0.0
230
1.0
  0
VERTEX
  8
1
  6
CONTINUOUS
 62
     1
  5
414
 10
0.000039
 20
0.000014
 30
0.0
 42
-0.005019
  0
VERTEX
  8
1
  6
CONTINUOUS
 62
     1
  5
415
 10
-0.001103
 20
0.000071
 30
0.0
 42
-0.004038
  0
VERTEX
  8
1
  6
CONTINUOUS
 62
     1
  5
416
 10
-0.002373
 20
0.000158
 30
0.0
 42
-0.003548
  0
VERTEX
  8
1
  6
CONTINUOUS
 62
     1
  5
417
 10
-0.003725
 20
0.00027
 30
0.0
 42
-0.003367
  0
VERTEX
  8
1
  6
CONTINUOUS
 62
     1
  5
418
 10
-0.005111
 20
0.000405
 30
0.0
 42
-0.003436
  0
VERTEX
  8
1
  6
CONTINUOUS
 62
     1
  5
419
 10
-0.006481
 20
0.000556
 30
0.0
 42
-0.003778
  0
VERTEX
  8
1
  6
CONTINUOUS
 62
     1
  5
41A
 10
-0.007786
 20
0.00072
 30
0.0
 42
-0.00451
  0
VERTEX
  8
1
  6
CONTINUOUS
 62
     1
  5
41B
 10
-0.008979
 20
0.000889
 30
0.0
 42
-0.00594
  0
VERTEX
  8
1
  6
CONTINUOUS
 62
     1
  5
41C
 10
-0.010018
 20
0.001058
 30
0.0
 42
-0.008921
  0
VERTEX
  8
1
  6
CONTINUOUS
 62
     1
  5
41D
 10
-0.010864
 20
0.00122
 30
0.0
 42
-0.016392
  0
VERTEX
  8
1
  6
CONTINUOUS
 62
     1
  5
41E
 10
-0.011488
 20
0.001371
 30
0.0
 42
-0.04458
  0
VERTEX
  8
1
  6
CONTINUOUS
 62
     1
  5
41F
 10
-0.011867
 20
0.001503
 30
0.0
 42
-0.317392
  0
VERTEX
  8
1
  6
CONTINUOUS
 62
     1
  5
420
 10
-0.011987
 20
0.001614
 30
0.0
 42
-0.317392
  0
SEQEND
  8
1
  6
CONTINUOUS
 62
     1
  5
421
  0
ENDBLK
  8
1
  6
CONTINUOUS
 62
     1
  5
422
  0
ENDSEC
  0
SECTION
  2
ENTITIES
  0
LINE
  8
61
  6
CONTINUOUS
 62
     1
  5
29
 10
608.111917
 20
37.228083
 30
0.0
 11
-30.928083
 21
37.228083
 31
0.0
  0
LINE
  8
61
  6
CONTINUOUS
 62
     1
  5
2A
 10
-30.928083
 20
37.228083
 30
0.0
 11
-30.928083
 21
-382.791917
 31
0.0
  0
LINE
  8
61
  6
CONTINUOUS
 62
     1
  5
2B
 10
608.131917
 20
-382.811917
 30
0.0
 11
-30.928083
 21
-382.791917
 31
0.0
  0
LINE
  8
61
  6
CONTINUOUS
 62
     1
  5
2C
 10
608.111917
 20
37.228083
 30
0.0
 11
608.131917
 21
-382.811917
 31
0.0
  0
LINE
  8
61
  6
CONTINUOUS
 62
     1
  5
2D
 10
602.011917
 20
32.488083
 30
0.0
 11
494.031917
 21
32.468083
 31
0.0
  0
LINE
  8
61
  6
CONTINUOUS
 62
     1
  5
2E
 10
494.031917
 20
32.468083
 30
0.0
 11
494.031917
 21
12.468083
 31
0.0
  0
LINE
  8
61
  6
CONTINUOUS
 62
     1
  5
2F
 10
602.011917
 20
32.488083
 30
0.0
 11
602.011917
 21
12.488083
 31
0.0
  0
LINE
  8
61
  6
CONTINUOUS
 62
     1
  5
30
 10
602.011917
 20
12.488083
 30
0.0
 11
494.031917
 21
12.468083
 31
0.0
  0
LINE
  8
61
  6
CONTINUOUS
 62
     1
  5
31
 10
602.031917
 20
22.448083
 30
0.0
 11
494.011917
 21
22.468083
 31
0.0
  0
LINE
  8
61
  6
CONTINUOUS
 62
     1
  5
32
 10
504.031917
 20
32.468083
 30
0.0
 11
504.031917
 21
12.468083
 31
0.0
  0
LINE
  8
61
  6
CONTINUOUS
 62
     1
  5
33
 10
514.031917
 20
32.468083
 30
0.0
 11
514.031917
 21
12.468083
 31
0.0
  0
LINE
  8
61
  6
CONTINUOUS
 62
     1
  5
34
 10
527.711917
 20
32.468083
 30
0.0
 11
527.711917
 21
12.468083
 31
0.0
  0
LINE
  8
61
  6
CONTINUOUS
 62
     1
  5
35
 10
592.011917
 20
32.488083
 30
0.0
 11
592.011917
 21
12.488083
 31
0.0
  0
LINE
  8
61
  6
CONTINUOUS
 62
     1
  5
36
 10
582.011917
 20
32.488083
 30
0.0
 11
582.011917
 21
12.488083
 31
0.0
  0
LINE
  8
61
  6
CONTINUOUS
 62
     1
  5
37
 10
560.031917
 20
32.468083
 30
0.0
 11
560.031917
 21
12.468083
 31
0.0
  0
LINE
  8
61
  6
CONTINUOUS
 62
     1
  5
38
 10
550.031917
 20
32.468083
 30
0.0
 11
550.031917
 21
12.468083
 31
0.0
  0
TEXT
  8
61
  6
CONTINUOUS
 62
     1
  5
3A
 10
496.071917
 20
29.448083
 30
0.0
 40
1.20075
  1
PUBLIC
 50
0.033272
 41
1.001804
  7
MONOTXT
210
0.0
220
0.0
230
1.0
  0
TEXT
  8
61
  6
CONTINUOUS
 62
     1
  5
3B
 10
496.151917
 20
26.928083
 30
0.0
 40
1.20075
  1
ROADS
 50
0.124322
 41
0.996877
  7
MONOTXT
210
0.0
220
0.0
230
1.0
  0
TEXT
  8
61
  6
CONTINUOUS
 62
     1
  5
3C
 10
497.351917
 20
24.428083
 30
0.0
 40
1.20075
  1
DIV.
 50
359.931522
 41
0.994864
  7
MONOTXT
210
0.0
220
0.0
230
1.0
  0
TEXT
  8
61
  6
CONTINUOUS
 62
     1
  5
3D
 10
506.231917
 20
29.508083
 30
0.0
 40
1.20075
  1
STATE
 50
0.058969
 41
0.998196
  7
MONOTXT
210
0.0
220
0.0
230
1.0
  0
TEXT
  8
61
  6
CONTINUOUS
 62
     1
  5
3E
 10
507.111917
 20
27.008083
 30
0.0
 40
1.20075
  1
DIST.
 50
0.055889
 41
0.999584
  7
MONOTXT
210
0.0
220
0.0
230
1.0
  0
TEXT
  8
61
  6
CONTINUOUS
 62
     1
  5
3F
 10
507.691917
 20
24.488083
 30
0.0
 40
1.20075
  1
NO.
 50
359.852072
 41
0.997779
  7
MONOTXT
210
0.0
220
0.0
230
1.0
  0
TEXT
  8
61
  6
CONTINUOUS
 62
     1
  5
40
 10
518.231917
 20
29.448083
 30
0.0
 40
1.20075
  1
STATE
 50
0.058969
 41
0.998196
  7
MONOTXT
210
0.0
220
0.0
230
1.0
  0
TEXT
  8
61
  6
CONTINUOUS
 62
     1
  5
41
 10
517.151917
 20
27.028083
 30
0.0
 40
1.20075
  1
PROJECT
 50
359.908431
 41
1.000069
  7
MONOTXT
210
0.0
220
0.0
230
1.0
  0
TEXT
  8
61
  6
CONTINUOUS
 62
     1
  5
42
 10
519.891917
 20
24.488083
 30
0.0
 40
1.20075
  1
NO.
 50
0.225453
 41
0.993546
  7
MONOTXT
210
0.0
220
0.0
230
1.0
  0
TEXT
  8
61
  6
CONTINUOUS
 62
     1
  5
43
 10
535.531917
 20
28.328083
 30
0.0
 40
1.20075
  1
FEDERAL
 50
0.006714
 41
0.998543
  7
MONOTXT
210
0.0
220
0.0
230
1.0
  0
TEXT
  8
61
  6
CONTINUOUS
 62
     1
  5
44
 10
533.991917
 20
25.668083
 30
0.0
 40
1.20075
  1
PROJECT NO.
 50
359.921531
 41
1.000694
  7
MONOTXT
210
0.0
220
0.0
230
1.0
  0
TEXT
  8
61
  6
CONTINUOUS
 62
     1
  5
45
 10
552.271917
 20
28.268083
 30
0.0
 40
1.20075
  1
FISCAL
 50
359.941939
 41
0.998959
  7
MONOTXT
210
0.0
220
0.0
230
1.0
  0
TEXT
  8
61
  6
CONTINUOUS
 62
     1
  5
46
 10
552.791917
 20
25.368083
 30
0.0
 40
1.20075
  1
YEAR
 50
0.104606
 41
0.993268
  7
MONOTXT
210
0.0
220
0.0
230
1.0
  0
TEXT
  8
61
  6
CONTINUOUS
 62
     1
  5
47
 10
566.891917
 20
26.728083
 30
0.0
 40
1.20075
  1
COUNTY
 50
0.068575
 41
1.001874
  7
MONOTXT
210
0.0
220
0.0
230
1.0
  0
TEXT
  8
61
  6
CONTINUOUS
 62
     1
  5
48
 10
584.531917
 20
28.388083
 30
0.0
 40
1.20075
  1
SHEET
 50
0.058969
 41
0.997571
  7
MONOTXT
210
0.0
220
0.0
230
1.0
  0
TEXT
  8
61
  6
CONTINUOUS
 62
     1
  5
49
 10
585.951917
 20
25.668083
 30
0.0
 40
1.20075
  1
NO.
 50
359.852072
 41
0.997779
  7
MONOTXT
210
0.0
220
0.0
230
1.0
  0
TEXT
  8
61
  6
CONTINUOUS
 62
     1
  5
4A
 10
594.271917
 20
28.248083
 30
0.0
 40
1.20075
  1
TOTAL
 50
359.926039
 41
0.998543
  7
MONOTXT
210
0.0
220
0.0
230
1.0
  0
TEXT
  8
61
  6
CONTINUOUS
 62
     1
  5
4B
 10
593.811917
 20
25.548083
 30
0.0
 40
1.20075
  1
SHEETS
 50
359.958675
  7
MONOTXT
210
0.0
220
0.0
230
1.0
  0
TEXT
  8
61
  6
CONTINUOUS
 62
     1
  5
4C
 10
506.631917
 20
16.668083
 30
0.0
 40
2.401333
  1
  
 50
0.029406
 41
0.996495
  7
MONOTXT
210
0.0
220
0.0
230
1.0
  0
TEXT
  8
61
  6
CONTINUOUS
 62
     1
  5
4D
 10
583.811917
 20
16.388083
 30
0.0
 40
2.401333
  1
   
 50
0.011508
 41
1.001006
  7
MONOTXT
210
0.0
220
0.0
230
1.0
  0
TEXT
  8
61
  6
CONTINUOUS
 62
     1
  5
4E
 10
593.691917
 20
16.368083
 30
0.0
 40
2.401333
  1
   
 50
359.922128
 41
1.000555
  7
MONOTXT
210
0.0
220
0.0
230
1.0
  0
TEXT
  8
61
  6
CONTINUOUS
 62
     1
  5
4F
 10
517.071917
 20
19.768083
 30
0.0
 40
2.00675
  1
    
 50
0.054383
 41
0.993729
  7
MONOTXT
210
0.0
220
0.0
230
1.0
  0
TEXT
  8
61
  6
CONTINUOUS
 62
     1
  5
50
 10
514.151917
 20
16.748083
 30
0.0
 40
1.989583
  1
       
 50
0.064678
 41
1.000963
  7
MONOTXT
210
0.0
220
0.0
230
1.0
  0
TEXT
  8
61
  6
CONTINUOUS
 62
     1
  5
51
 10
515.111917
 20
13.848083
 30
0.0
 40
1.989583
  1
      
 50
359.958053
 41
1.000293
  7
MONOTXT
210
0.0
220
0.0
230
1.0
  0
TEXT
  8
61
  6
CONTINUOUS
 62
     1
  5
52
 10
526.071917
 20
18.488083
 30
0.0
 40
2.401333
  1
           
 50
0.011508
 41
0.998751
  7
MONOTXT
210
0.0
220
0.0
230
1.0
  0
TEXT
  8
61
  6
CONTINUOUS
 62
     1
  5
53
 10
525.951917
 20
14.828083
 30
0.0
 40
2.401333
  1
           
 50
0.011508
 41
0.999584
  7
MONOTXT
210
0.0
220
0.0
230
1.0
  0
TEXT
  8
61
  6
CONTINUOUS
 62
     1
  5
54
 10
561.291917
 20
16.568083
 30
0.0
 40
2.00675
  1
          
 50
0.009222
 41
0.992774
  7
MONOTXT
210
0.0
220
0.0
230
1.0
  0
ARC
  8
61
  6
CONTINUOUS
 62
     1
  5
55
 10
-49.230327
 20
-51.530622
 30
0.0
 40
2.499998
 50
323.130094
 51
316.232156
210
0.0
220
0.0
230
1.0
  0
ARC
  8
61
  6
CONTINUOUS
 62
     1
  5
56
 10
-49.230327
 20
-106.530622
 30
0.0
 40
2.499998
 50
323.130094
 51
315.375767
210
0.0
220
0.0
230
1.0
  0
ARC
  8
61
  6
CONTINUOUS
 62
     1
  5
57
 10
-49.510327
 20
-254.970622
 30
0.0
 40
2.499998
 50
322.671753
 51
321.716147
210
0.0
220
0.0
230
1.0
  0
ARC
  8
61
  6
CONTINUOUS
 62
     1
  5
58
 10
-49.510327
 20
-309.970622
 30
0.0
 40
2.499998
 50
323.130094
 51
312.314392
210
0.0
220
0.0
230
1.0
  0
LINE
  8
61
  6
CONTINUOUS
 62
     1
  5
59
 10
-47.208083
 20
-51.531917
 30
0.0
 11
-39.228083
 21
-51.511917
 31
0.0
  0
LINE
  8
61
  6
CONTINUOUS
 62
     1
  5
5A
 10
-47.228083
 20
-106.531917
 30
0.0
 11
-39.228083
 21
-106.531917
 31
0.0
  0
LINE
  8
61
  6
CONTINUOUS
 62
     1
  5
5B
 10
-47.508083
 20
-254.951917
 30
0.0
 11
-39.508083
 21
-254.951917
 31
0.0
  0
LINE
  8
61
  6
CONTINUOUS
 62
     1
  5
5C
 10
-47.488083
 20
-309.971917
 30
0.0
 11
-39.508083
 21
-309.971917
 31
0.0
  0
LINE
  8
61
  6
DASHED
 62
     1
  5
5D
 10
-60.928083
 20
47.228083
 30
0.0
 11
619.091917
 21
47.228083
 31
0.0
  0
LINE
  8
61
  6
DASHED
 62
     1
  5
5E
 10
619.071917
 20
-392.791917
 30
0.0
 11
-60.988083
 21
-392.811917
 31
0.0
  0
TEXT
  8
61
  6
CONTINUOUS
 62
     1
  5
5F
 10
581.551917
 20
4.648083
 30
0.0
 40
2.401333
  1
     
 41
1.001388
  7
MONOTXT
210
0.0
220
0.0
230
1.0
  0
LINE
  8
1
  6
HIDDEN
 62
     1
  5
61
 10
619.091917
 20
47.228083
 30
0.0
 11
619.071917
 21
-392.791917
 31
0.0
  0
LINE
  8
1
  6
HIDDEN
 62
     1
  5
62
 10
-60.928083
 20
47.228083
 30
0.0
 11
-60.988083
 21
-392.811917
 31
0.0
  0
TEXT
  8
1
  6
CONTINUOUS
 62
     1
  5
64
 10
573.851917
 20
-385.311917
 30
0.0
 40
1.2
  1
TRAFFIC ENGINEERING DIVISION
  7
txt
210
0.0
220
0.0
230
1.0
  0
LINE
  8
1
  6
CONTINUOUS
 62
     1
  5
65
 10
436.471917
 20
-382.811917
 30
0.0
 11
436.471917
 21
-291.231917
 31
0.0
  0
LINE
  8
1
  6
CONTINUOUS
 62
     1
  5
66
 10
436.471917
 20
-291.231917
 30
0.0
 11
608.131917
 21
-291.231917
 31
0.0
  0
LINE
  8
1
  6
CONTINUOUS
 62
     1
  5
67
 10
471.471917
 20
-382.851917
 30
0.0
 11
471.471917
 21
-337.891917
 31
0.0
  0
LINE
  8
1
  6
CONTINUOUS
 62
     1
  5
68
 10
471.471917
 20
-337.891917
 30
0.0
 11
436.491917
 21
-337.891917
 31
0.0
  0
LINE
  8
1
  6
CONTINUOUS
 62
     1
  5
69
 10
471.471917
 20
-342.371917
 30
0.0
 11
436.491917
 21
-342.371917
 31
0.0
  0
LINE
  8
1
  6
CONTINUOUS
 62
     1
  5
6A
 10
471.471917
 20
-346.871917
 30
0.0
 11
436.491917
 21
-346.871917
 31
0.0
  0
LINE
  8
1
  6
CONTINUOUS
 62
     1
  5
6B
 10
471.471917
 20
-351.371917
 30
0.0
 11
436.491917
 21
-351.371917
 31
0.0
  0
LINE
  8
1
  6
CONTINUOUS
 62
     1
  5
6C
 10
471.471917
 20
-355.891917
 30
0.0
 11
436.491917
 21
-355.891917
 31
0.0
  0
LINE
  8
1
  6
CONTINUOUS
 62
     1
  5
6D
 10
471.471917
 20
-360.371917
 30
0.0
 11
436.491917
 21
-360.371917
 31
0.0
  0
LINE
  8
1
  6
CONTINUOUS
 62
     1
  5
6E
 10
471.471917
 20
-364.851917
 30
0.0
 11
436.491917
 21
-364.851917
 31
0.0
  0
LINE
  8
1
  6
CONTINUOUS
 62
     1
  5
6F
 10
471.471917
 20
-369.351917
 30
0.0
 11
436.491917
 21
-369.351917
 31
0.0
  0
LINE
  8
1
  6
CONTINUOUS
 62
     1
  5
70
 10
471.471917
 20
-373.851917
 30
0.0
 11
436.491917
 21
-373.851917
 31
0.0
  0
LINE
  8
1
  6
CONTINUOUS
 62
     1
  5
71
 10
471.471917
 20
-378.371917
 30
0.0
 11
436.491917
 21
-378.371917
 31
0.0
  0
TEXT
  8
1
  6
CONTINUOUS
 62
     1
  5
72
 10
446.751917
 20
-340.891917
 30
0.0
 40
1.99775
  1
REVISIONS
  7
MONOTXT
210
0.0
220
0.0
230
1.0
  0
TEXT
  8
1
  6
CONTINUOUS
 62
     1
  5
73
 10
438.431917
 20
-336.891917
 30
0.0
 40
1.99775
  1
PREPARED: 05/00/67
  7
MONOTXT
210
0.0
220
0.0
230
1.0
  0
TEXT
  8
1
  6
CONTINUOUS
 62
     1
  5
75
 10
469.091917
 20
-299.831917
 30
0.0
 40
4.794833
  1
WEST VIRGINIA DIVISION OF HIGHWAYS
  7
ROMANT
 72
     1
 11
523.062167
 21
-295.037083
 31
0.0
210
0.0
220
0.0
230
1.0
 73
     3
  0
TEXT
  8
1
  6
CONTINUOUS
 62
     1
  5
76
 10
479.851917
 20
-310.991917
 30
0.0
 40
6.992667
  1
STANDARD DETAIL
  7
txt
 72
     1
 11
524.342
 21
-303.99925
 31
0.0
210
0.0
220
0.0
230
1.0
 73
     3
  0
TEXT
  8
1
  6
CONTINUOUS
 62
     1
  5
77
 10
475.311917
 20
-378.771917
 30
0.0
 40
6.992667
  1
STANDARD SHEET TE9-1 
  7
txt
210
0.0
220
0.0
230
1.0
  0
TEXT
  8
1
  6
CONTINUOUS
 62
     1
  5
78
 10
447.06325
 20
-345.951917
 30
0.0
 40
2.0
  1
11-06-78
  7
MONOTXT
 72
     1
 11
453.449167
 21
-343.951917
 31
0.0
210
0.0
220
0.0
230
1.0
 73
     3
  0
TEXT
  8
1
  6
CONTINUOUS
 62
     1
  5
79
 10
446.633833
 20
-350.351917
 30
0.0
 40
2.0
  1
03-10-93
  7
MONOTXT
 72
     1
 11
453.429167
 21
-348.351917
 31
0.0
210
0.0
220
0.0
230
1.0
 73
     3
  0
TEXT
  8
1
  6
CONTINUOUS
 62
     1
  5
7A
 10
445.771917
 20
-354.751917
 30
0.0
 40
2.0
  1
        
  7
MONOTXT
 72
     1
 11
453.43875
 21
-352.751917
 31
0.0
210
0.0
220
0.0
230
1.0
 73
     3
  0
TEXT
  8
1
  6
CONTINUOUS
 62
     1
  5
7B
 10
445.771917
 20
-359.151917
 30
0.0
 40
2.0
  1
        
  7
MONOTXT
 72
     1
 11
453.43875
 21
-357.151917
 31
0.0
210
0.0
220
0.0
230
1.0
 73
     3
  0
TEXT
  8
1
  6
CONTINUOUS
 62
     1
  5
7C
 10
445.611917
 20
-363.751917
 30
0.0
 40
2.0
  1
        
  7
MONOTXT
 72
     1
 11
453.27875
 21
-361.751917
 31
0.0
210
0.0
220
0.0
230
1.0
 73
     3
  0
TEXT
  8
1
  6
CONTINUOUS
 62
     1
  5
7D
 10
445.771917
 20
-368.231917
 30
0.0
 40
2.0
  1
        
  7
MONOTXT
 72
     1
 11
453.43875
 21
-366.231917
 31
0.0
210
0.0
220
0.0
230
1.0
 73
     3
  0
TEXT
  8
1
  6
CONTINUOUS
 62
     1
  5
7E
 10
445.671917
 20
-372.831917
 30
0.0
 40
2.0
  1
        
  7
MONOTXT
 72
     1
 11
453.33875
 21
-370.831917
 31
0.0
210
0.0
220
0.0
230
1.0
 73
     3
  0
TEXT
  8
1
  6
CONTINUOUS
 62
     1
  5
7F
 10
445.771917
 20
-377.411917
 30
0.0
 40
2.0
  1
        
  7
MONOTXT
 72
     1
 11
453.43875
 21
-375.411917
 31
0.0
210
0.0
220
0.0
230
1.0
 73
     3
  0
TEXT
  8
1
  6
CONTINUOUS
 62
     1
  5
80
 10
445.771917
 20
-381.431917
 30
0.0
 40
2.0
  1
        
  7
MONOTXT
 72
     1
 11
453.43875
 21
-379.431917
 31
0.0
210
0.0
220
0.0
230
1.0
 73
     3
  0
TEXT
  8
1
  6
CONTINUOUS
 62
     1
  5
81
 10
488.591917
 20
-385.211917
 30
0.0
 40
1.2
  1
CATALOG:dt standa  FILENAME:te91.dgn     DATE:03/09/93
  7
MONOTXT
210
0.0
220
0.0
230
1.0
  0
TEXT
  8
1
  6
CONTINUOUS
 62
     1
  5
82
 10
448.6635
 20
-320.113417
 30
0.0
 40
6.0
  1
ROADSIDE SIGN SUPPORTS-CLAMPS
  7
txt
210
0.0
220
0.0
230
1.0
  0
TEXT
  8
1
  6
CONTINUOUS
 62
     1
  5
83
 10
505.71625
 20
-329.17775
 30
0.0
 40
6.0
  1
TUBULAR
  7
txt
210
0.0
220
0.0
230
1.0
  0
POLYLINE
  8
1
  6
CONTINUOUS
 62
     7
  5
84
 66
     1
 10
0.0
 20
0.0
 30
0.0
  0
VERTEX
  8
1
  6
CONTINUOUS
 62
     7
  5
85
 10
442.095333
 20
-342.847083
 30
0.0
  0
VERTEX
  8
1
  6
CONTINUOUS
 62
     7
  5
86
 10
440.095333
 20
-346.311167
 30
0.0
  0
VERTEX
  8
1
  6
CONTINUOUS
 62
     7
  5
87
 10
444.095333
 20
-346.311167
 30
0.0
  0
VERTEX
  8
1
  6
CONTINUOUS
 62
     7
  5
88
 10
442.095333
 20
-342.847083
 30
0.0
  0
SEQEND
  8
1
  6
CONTINUOUS
 62
     7
  5
89
  0
POLYLINE
  8
1
  6
CONTINUOUS
 62
     7
  5
8A
 66
     1
 10
0.0
 20
0.0
 30
0.0
  0
VERTEX
  8
1
  6
CONTINUOUS
 62
     7
  5
8B
 10
442.123
 20
-347.294417
 30
0.0
  0
VERTEX
  8
1
  6
CONTINUOUS
 62
     7
  5
8C
 10
440.123
 20
-350.7585
 30
0.0
  0
VERTEX
  8
1
  6
CONTINUOUS
 62
     7
  5
8D
 10
444.123
 20
-350.7585
 30
0.0
  0
VERTEX
  8
1
  6
CONTINUOUS
 62
     7
  5
8E
 10
442.123
 20
-347.294417
 30
0.0
  0
SEQEND
  8
1
  6
CONTINUOUS
 62
     7
  5
8F
  0
TEXT
  8
1
  6
CONTINUOUS
 62
     7
  5
90
 10
441.782333
 20
-345.694917
 30
0.0
 40
1.5
  1
1
  7
MONOTXT
210
0.0
220
0.0
230
1.0
  0
TEXT
  8
1
  6
CONTINUOUS
 62
     7
  5
91
 10
441.58875
 20
-350.148833
 30
0.0
 40
1.5
  1
2
  7
MONOTXT
210
0.0
220
0.0
230
1.0
  0
POLYLINE
  8
1
  6
CONTINUOUS
 62
     7
  5
92
 66
     1
 10
0.0
 20
0.0
 30
0.0
  0
VERTEX
  8
1
  6
CONTINUOUS
 62
     7
  5
93
 10
439.468083
 20
-283.999417
 30
0.0
  0
VERTEX
  8
1
  6
CONTINUOUS
 62
     7
  5
94
 10
437.468083
 20
-287.4635
 30
0.0
  0
VERTEX
  8
1
  6
CONTINUOUS
 62
     7
  5
95
 10
441.468083
 20
-287.4635
 30
0.0
  0
VERTEX
  8
1
  6
CONTINUOUS
 62
     7
  5
96
 10
439.468083
 20
-283.999417
 30
0.0
  0
SEQEND
  8
1
  6
CONTINUOUS
 62
     7
  5
97
  0
POLYLINE
  8
1
  6
CONTINUOUS
 62
     7
  5
98
 66
     1
 10
0.0
 20
0.0
 30
0.0
  0
VERTEX
  8
1
  6
CONTINUOUS
 62
     7
  5
99
 10
439.440417
 20
-279.552083
 30
0.0
  0
VERTEX
  8
1
  6
CONTINUOUS
 62
     7
  5
9A
 10
437.440417
 20
-283.016167
 30
0.0
  0
VERTEX
  8
1
  6
CONTINUOUS
 62
     7
  5
9B
 10
441.440417
 20
-283.016167
 30
0.0
  0
VERTEX
  8
1
  6
CONTINUOUS
 62
     7
  5
9C
 10
439.440417
 20
-279.552083
 30
0.0
  0
SEQEND
  8
1
  6
CONTINUOUS
 62
     7
  5
9D
  0
TEXT
  8
1
  6
CONTINUOUS
 62
     7
  5
9E
 10
439.127417
 20
-282.399917
 30
0.0
 40
1.5
  1
1
  7
MONOTXT
210
0.0
220
0.0
230
1.0
  0
TEXT
  8
1
  6
CONTINUOUS
 62
     7
  5
9F
 10
438.933833
 20
-286.853833
 30
0.0
 40
1.5
  1
2
  7
MONOTXT
210
0.0
220
0.0
230
1.0
  0
TEXT
  8
1
  6
CONTINUOUS
 62
     7
  5
A0
 10
442.786333
 20
-281.9575
 30
0.0
 40
1.5
  1
WHOLE SHEET GENERALLY
  7
MONOTXT
210
0.0
220
0.0
230
1.0
  0
TEXT
  8
1
  6
CONTINUOUS
 62
     7
  5
A1
 10
442.67525
 20
-286.625
 30
0.0
 40
1.5
  1
ADDED TYPE II ALTERNATES
  7
MONOTXT
210
0.0
220
0.0
230
1.0
  0
INSERT
  8
1
  6
CONTINUOUS
 62
     1
  5
CA
  2
BAND
 10
85.0395
 20
-53.41325
 30
0.0
 41
540.0
 42
540.0
 50
270.0
210
0.0
220
0.0
230
1.0
  0
LINE
  8
1
  6
CONTINUOUS
 62
     1
  5
CB
 10
184.638917
 20
-2.098333
 30
0.0
 11
183.483917
 21
11.101917
 31
0.0
  0
LINE
  8
1
  6
CONTINUOUS
 62
     1
  5
CC
 10
187.111083
 20
-4.023667
 30
0.0
 11
185.770333
 21
11.301917
 31
0.0
  0
LINE
  8
1
  6
CONTINUOUS
 62
     1
  5
CD
 10
206.775333
 20
-2.098417
 30
0.0
 11
207.930167
 21
11.101917
 31
0.0
  0
LINE
  8
1
  6
CONTINUOUS
 62
     1
  5
CE
 10
204.302917
 20
-4.023667
 30
0.0
 11
205.643917
 21
11.301917
 31
0.0
  0
LINE
  8
1
  6
CONTINUOUS
 62
     1
  5
CF
 10
183.483917
 20
11.101917
 30
0.0
 11
185.770333
 21
11.301917
 31
0.0
  0
LINE
  8
1
  6
CONTINUOUS
 62
     1
  5
D0
 10
205.643917
 20
11.301917
 30
0.0
 11
207.930167
 21
11.101917
 31
0.0
  0
LINE
  8
1
  6
CONTINUOUS
 62
     1
  5
D1
 10
7.131833
 20
-180.739167
 30
0.0
 11
7.131833
 21
-188.756333
 31
0.0
  0
LINE
  8
1
  6
CONTINUOUS
 62
     1
  5
D2
 10
8.841833
 20
-180.739167
 30
0.0
 11
8.841833
 21
-187.621083
 31
0.0
  0
ARC
  8
1
  6
CONTINUOUS
 62
     1
  5
D3
 10
10.149036
 20
-180.099362
 30
0.0
 40
3.063244
 50
39.669258
 51
191.654219
210
0.0
220
0.0
230
1.0
  0
ARC
  8
1
  6
CONTINUOUS
 62
     1
  5
D4
 10
12.923789
 20
-183.639012
 30
0.0
 40
3.498442
 50
284.902108
 51
26.983797
210
0.0
220
0.0
230
1.0
  0
LINE
  8
1
  6
CONTINUOUS
 62
     1
  5
D5
 10
12.486833
 20
-178.129167
 30
0.0
 11
16.041833
 21
-182.044167
 31
0.0
  0
LINE
  8
1
  6
CONTINUOUS
 62
     1
  5
D6
 10
11.226833
 20
-179.299167
 30
0.0
 11
14.781833
 21
-183.214167
 31
0.0
  0
ARC
  8
1
  6
CONTINUOUS
 62
     1
  5
D7
 10
10.182501
 20
-180.227093
 30
0.0
 40
1.420159
 50
41.549244
 51
200.229233
210
0.0
220
0.0
230
1.0
  0
ARC
  8
1
  6
CONTINUOUS
 62
     1
  5
D8
 10
13.603212
 20
-183.941591
 30
0.0
 40
1.394702
 50
279.086756
 51
32.475119
210
0.0
220
0.0
230
1.0
  0
ARC
  8
1
  6
CONTINUOUS
 62
     1
  5
D9
 10
10.182501
 20
-236.366628
 30
0.0
 40
1.420159
 50
159.770767
 51
318.450756
210
0.0
220
0.0
230
1.0
  0
LINE
  8
1
  6
CONTINUOUS
 62
     1
  5
DA
 10
7.131833
 20
-235.864167
 30
0.0
 11
7.131833
 21
-227.937083
 31
0.0
  0
LINE
  8
1
  6
CONTINUOUS
 62
     1
  5
DB
 10
8.841833
 20
-235.864167
 30
0.0
 11
8.841833
 21
-229.072417
 31
0.0
  0
ARC
  8
1
  6
CONTINUOUS
 62
     1
  5
DC
 10
10.149036
 20
-236.49436
 30
0.0
 40
3.063244
 50
168.345781
 51
320.330742
210
0.0
220
0.0
230
1.0
  0
LINE
  8
1
  6
CONTINUOUS
 62
     1
  5
DD
 10
12.486833
 20
-238.429167
 30
0.0
 11
16.041833
 21
-234.559167
 31
0.0
  0
LINE
  8
1
  6
CONTINUOUS
 62
     1
  5
DE
 10
11.226833
 20
-237.304167
 30
0.0
 11
14.781833
 21
-233.389167
 31
0.0
  0
LINE
  8
1
  6
CONTINUOUS
 62
     1
  5
DF
 10
35.5755
 20
-180.739167
 30
0.0
 11
35.5755
 21
-188.731583
 31
0.0
  0
LINE
  8
1
  6
CONTINUOUS
 62
     1
  5
E0
 10
33.9105
 20
-180.739167
 30
0.0
 11
33.9105
 21
-187.627583
 31
0.0
  0
ARC
  8
1
  6
CONTINUOUS
 62
     1
  5
E1
 10
32.592609
 20
-180.099362
 30
0.0
 40
3.063244
 50
348.345781
 51
140.330742
210
0.0
220
0.0
230
1.0
  0
ARC
  8
1
  6
CONTINUOUS
 62
     1
  5
E2
 10
29.817857
 20
-183.639012
 30
0.0
 40
3.498442
 50
153.016203
 51
255.097892
210
0.0
220
0.0
230
1.0
  0
LINE
  8
1
  6
CONTINUOUS
 62
     1
  5
E3
 10
30.2205
 20
-178.129167
 30
0.0
 11
26.7105
 21
-182.044167
 31
0.0
  0
LINE
  8
1
  6
CONTINUOUS
 62
     1
  5
E4
 10
31.4805
 20
-179.299167
 30
0.0
 11
27.9705
 21
-183.214167
 31
0.0
  0
ARC
  8
1
  6
CONTINUOUS
 62
     1
  5
E5
 10
32.559144
 20
-180.227093
 30
0.0
 40
1.420159
 50
339.770767
 51
138.450756
210
0.0
220
0.0
230
1.0
  0
ARC
  8
1
  6
CONTINUOUS
 62
     1
  5
E6
 10
29.138433
 20
-183.941591
 30
0.0
 40
1.394702
 50
147.524881
 51
260.913244
210
0.0
220
0.0
230
1.0
  0
ARC
  8
1
  6
CONTINUOUS
 62
     1
  5
E7
 10
32.559144
 20
-236.366628
 30
0.0
 40
1.420159
 50
221.549244
 51
20.229233
210
0.0
220
0.0
230
1.0
  0
LINE
  8
1
  6
CONTINUOUS
 62
     1
  5
E8
 10
35.5755
 20
-235.864167
 30
0.0
 11
35.5755
 21
-227.961833
 31
0.0
  0
LINE
  8
1
  6
CONTINUOUS
 62
     1
  5
E9
 10
33.9105
 20
-235.864167
 30
0.0
 11
33.9105
 21
-229.065833
 31
0.0
  0
ARC
  8
1
  6
CONTINUOUS
 62
     1
  5
EA
 10
32.592609
 20
-236.49436
 30
0.0
 40
3.063244
 50
219.669258
 51
11.654219
210
0.0
220
0.0
230
1.0
  0
LINE
  8
1
  6
CONTINUOUS
 62
     1
  5
EB
 10
30.2205
 20
-238.429167
 30
0.0
 11
26.7105
 21
-234.559167
 31
0.0
  0
LINE
  8
1
  6
CONTINUOUS
 62
     1
  5
EC
 10
31.4805
 20
-237.304167
 30
0.0
 11
27.9705
 21
-233.389167
 31
0.0
  0
LINE
  8
1
  6
CONTINUOUS
 62
     1
  5
ED
 10
4.881833
 20
-180.739167
 30
0.0
 11
7.131833
 21
-180.739167
 31
0.0
  0
LINE
  8
1
  6
CONTINUOUS
 62
     1
  5
EE
 10
35.5755
 20
-180.739167
 30
0.0
 11
37.8705
 21
-180.739167
 31
0.0
  0
LINE
  8
1
  6
CONTINUOUS
 62
     1
  5
EF
 10
4.881833
 20
-187.534167
 30
0.0
 11
7.131833
 21
-187.534167
 31
0.0
  0
LINE
  8
1
  6
CONTINUOUS
 62
     1
  5
F0
 10
35.5755
 20
-187.534167
 30
0.0
 11
37.8705
 21
-187.534167
 31
0.0
  0
LINE
  8
1
  6
CONTINUOUS
 62
     1
  5
F1
 10
4.881833
 20
-180.739167
 30
0.0
 11
4.881833
 21
-187.534167
 31
0.0
  0
LINE
  8
1
  6
CONTINUOUS
 62
     1
  5
F2
 10
37.8705
 20
-180.739167
 30
0.0
 11
37.8705
 21
-187.534167
 31
0.0
  0
LINE
  8
1
  6
CONTINUOUS
 62
     1
  5
F3
 10
35.5755
 20
-182.404167
 30
0.0
 11
40.1205
 21
-182.404167
 31
0.0
  0
LINE
  8
1
  6
CONTINUOUS
 62
     1
  5
F4
 10
35.5755
 20
-185.824167
 30
0.0
 11
40.1205
 21
-185.824167
 31
0.0
  0
LINE
  8
1
  6
CONTINUOUS
 62
     1
  5
F5
 10
4.881833
 20
-187.534167
 30
0.0
 11
5.466833
 21
-185.824167
 31
0.0
  0
LINE
  8
1
  6
CONTINUOUS
 62
     1
  5
F6
 10
4.881833
 20
-180.739167
 30
0.0
 11
5.466833
 21
-182.404167
 31
0.0
  0
LINE
  8
1
  6
CONTINUOUS
 62
     1
  5
F7
 10
4.881833
 20
-184.114167
 30
0.0
 11
5.466833
 21
-182.404167
 31
0.0
  0
LINE
  8
1
  6
CONTINUOUS
 62
     1
  5
F8
 10
4.881833
 20
-184.114167
 30
0.0
 11
5.466833
 21
-185.824167
 31
0.0
  0
LINE
  8
1
  6
CONTINUOUS
 62
     1
  5
F9
 10
5.466833
 20
-182.404167
 30
0.0
 11
7.131833
 21
-182.404167
 31
0.0
  0
LINE
  8
1
  6
CONTINUOUS
 62
     1
  5
FA
 10
5.466833
 20
-185.824167
 30
0.0
 11
7.131833
 21
-185.824167
 31
0.0
  0
LINE
  8
1
  6
CONTINUOUS
 62
     1
  5
FB
 10
40.1205
 20
-182.404167
 30
0.0
 11
40.1205
 21
-185.824167
 31
0.0
  0
LINE
  8
1
  6
CONTINUOUS
 62
     1
  5
FC
 10
38.9955
 20
-182.404167
 30
0.0
 11
38.9955
 21
-185.824167
 31
0.0
  0
LINE
  8
1
  6
CONTINUOUS
 62
     1
  5
FD
 10
39.5805
 20
-182.989167
 30
0.0
 11
39.5805
 21
-185.239167
 31
0.0
  0
LINE
  8
1
  6
CONTINUOUS
 62
     1
  5
FE
 10
38.4105
 20
-182.989167
 30
0.0
 11
38.4105
 21
-185.239167
 31
0.0
  0
LINE
  8
1
  6
CONTINUOUS
 62
     1
  5
FF
 10
8.841833
 20
-182.404167
 30
0.0
 11
14.061833
 21
-182.404167
 31
0.0
  0
LINE
  8
1
  6
CONTINUOUS
 62
     1
  5
100
 10
8.841833
 20
-185.824167
 30
0.0
 11
12.85575
 21
-185.824167
 31
0.0
  0
LINE
  8
1
  6
CONTINUOUS
 62
     1
  5
101
 10
16.240833
 20
-182.404167
 30
0.0
 11
26.545833
 21
-182.404167
 31
0.0
  0
LINE
  8
1
  6
CONTINUOUS
 62
     1
  5
102
 10
28.6455
 20
-182.404167
 30
0.0
 11
33.9105
 21
-182.404167
 31
0.0
  0
LINE
  8
1
  6
CONTINUOUS
 62
     1
  5
103
 10
15.655833
 20
-185.824167
 30
0.0
 11
27.085833
 21
-185.824167
 31
0.0
  0
LINE
  8
1
  6
CONTINUOUS
 62
     1
  5
104
 10
29.886
 20
-185.824167
 30
0.0
 11
33.9105
 21
-185.824167
 31
0.0
  0
LINE
  8
1
  6
CONTINUOUS
 62
     1
  5
105
 10
21.348333
 20
-185.824167
 30
0.0
 11
21.348333
 21
-182.404167
 31
0.0
  0
LINE
  8
1
  6
CONTINUOUS
 62
     1
  5
106
 10
23.598333
 20
-185.824167
 30
0.0
 11
23.598333
 21
-182.404167
 31
0.0
  0
LINE
  8
1
  6
CONTINUOUS
 62
     1
  5
107
 10
25.893333
 20
-185.824167
 30
0.0
 11
25.893333
 21
-182.404167
 31
0.0
  0
LINE
  8
1
  6
CONTINUOUS
 62
     1
  5
108
 10
29.0055
 20
-185.374167
 30
0.0
 11
29.0055
 21
-182.404167
 31
0.0
  0
LINE
  8
1
  6
CONTINUOUS
 62
     1
  5
109
 10
31.2555
 20
-185.824167
 30
0.0
 11
31.2555
 21
-182.404167
 31
0.0
  0
LINE
  8
1
  6
CONTINUOUS
 62
     1
  5
10A
 10
33.5505
 20
-185.824167
 30
0.0
 11
33.5505
 21
-182.404167
 31
0.0
  0
LINE
  8
1
  6
CONTINUOUS
 62
     1
  5
10B
 10
22.473333
 20
-185.239167
 30
0.0
 11
22.473333
 21
-182.989167
 31
0.0
  0
LINE
  8
1
  6
CONTINUOUS
 62
     1
  5
10C
 10
24.768333
 20
-185.239167
 30
0.0
 11
24.768333
 21
-182.989167
 31
0.0
  0
LINE
  8
1
  6
CONTINUOUS
 62
     1
  5
10D
 10
30.1305
 20
-185.239167
 30
0.0
 11
30.1305
 21
-182.989167
 31
0.0
  0
LINE
  8
1
  6
CONTINUOUS
 62
     1
  5
10E
 10
32.3805
 20
-185.239167
 30
0.0
 11
32.3805
 21
-182.989167
 31
0.0
  0
LINE
  8
1
  6
CONTINUOUS
 62
     1
  5
10F
 10
16.240833
 20
-234.244167
 30
0.0
 11
26.545833
 21
-234.244167
 31
0.0
  0
LINE
  8
1
  6
CONTINUOUS
 62
     1
  5
110
 10
4.881833
 20
-235.954167
 30
0.0
 11
7.131833
 21
-235.954167
 31
0.0
  0
LINE
  8
1
  6
CONTINUOUS
 62
     1
  5
111
 10
35.5755
 20
-235.954167
 30
0.0
 11
37.8705
 21
-235.954167
 31
0.0
  0
LINE
  8
1
  6
CONTINUOUS
 62
     1
  5
112
 10
4.881833
 20
-229.159167
 30
0.0
 11
7.131833
 21
-229.159167
 31
0.0
  0
LINE
  8
1
  6
CONTINUOUS
 62
     1
  5
113
 10
35.5755
 20
-229.159167
 30
0.0
 11
37.8705
 21
-229.159167
 31
0.0
  0
LINE
  8
1
  6
CONTINUOUS
 62
     1
  5
114
 10
4.881833
 20
-235.954167
 30
0.0
 11
4.881833
 21
-229.159167
 31
0.0
  0
LINE
  8
1
  6
CONTINUOUS
 62
     1
  5
115
 10
37.8705
 20
-235.954167
 30
0.0
 11
37.8705
 21
-229.159167
 31
0.0
  0
LINE
  8
1
  6
CONTINUOUS
 62
     1
  5
116
 10
35.5755
 20
-234.244167
 30
0.0
 11
40.1205
 21
-234.244167
 31
0.0
  0
LINE
  8
1
  6
CONTINUOUS
 62
     1
  5
117
 10
35.5755
 20
-230.869167
 30
0.0
 11
40.1205
 21
-230.869167
 31
0.0
  0
LINE
  8
1
  6
CONTINUOUS
 62
     1
  5
118
 10
4.881833
 20
-229.159167
 30
0.0
 11
5.466833
 21
-230.869167
 31
0.0
  0
LINE
  8
1
  6
CONTINUOUS
 62
     1
  5
119
 10
4.881833
 20
-235.954167
 30
0.0
 11
5.466833
 21
-234.244167
 31
0.0
  0
LINE
  8
1
  6
CONTINUOUS
 62
     1
  5
11A
 10
4.881833
 20
-232.534167
 30
0.0
 11
5.466833
 21
-234.244167
 31
0.0
  0
LINE
  8
1
  6
CONTINUOUS
 62
     1
  5
11B
 10
4.881833
 20
-232.534167
 30
0.0
 11
5.466833
 21
-230.869167
 31
0.0
  0
LINE
  8
1
  6
CONTINUOUS
 62
     1
  5
11C
 10
5.466833
 20
-234.244167
 30
0.0
 11
7.131833
 21
-234.244167
 31
0.0
  0
LINE
  8
1
  6
CONTINUOUS
 62
     1
  5
11D
 10
5.466833
 20
-230.869167
 30
0.0
 11
7.131833
 21
-230.869167
 31
0.0
  0
LINE
  8
1
  6
CONTINUOUS
 62
     1
  5
11E
 10
40.1205
 20
-234.244167
 30
0.0
 11
40.1205
 21
-230.869167
 31
0.0
  0
LINE
  8
1
  6
CONTINUOUS
 62
     1
  5
11F
 10
38.9955
 20
-234.244167
 30
0.0
 11
38.9955
 21
-230.869167
 31
0.0
  0
LINE
  8
1
  6
CONTINUOUS
 62
     1
  5
120
 10
39.5805
 20
-233.704167
 30
0.0
 11
39.5805
 21
-231.409167
 31
0.0
  0
LINE
  8
1
  6
CONTINUOUS
 62
     1
  5
121
 10
38.4105
 20
-233.704167
 30
0.0
 11
38.4105
 21
-231.409167
 31
0.0
  0
LINE
  8
1
  6
CONTINUOUS
 62
     1
  5
122
 10
8.841833
 20
-234.244167
 30
0.0
 11
14.0055
 21
-234.244167
 31
0.0
  0
LINE
  8
1
  6
CONTINUOUS
 62
     1
  5
123
 10
8.841833
 20
-230.869167
 30
0.0
 11
12.46775
 21
-230.869167
 31
0.0
  0
LINE
  8
1
  6
CONTINUOUS
 62
     1
  5
124
 10
28.737
 20
-234.244167
 30
0.0
 11
33.9105
 21
-234.244167
 31
0.0
  0
LINE
  8
1
  6
CONTINUOUS
 62
     1
  5
125
 10
15.81825
 20
-230.869167
 30
0.0
 11
26.944083
 21
-230.869167
 31
0.0
  0
LINE
  8
1
  6
CONTINUOUS
 62
     1
  5
126
 10
30.273833
 20
-230.869167
 30
0.0
 11
33.9105
 21
-230.869167
 31
0.0
  0
LINE
  8
1
  6
CONTINUOUS
 62
     1
  5
127
 10
21.348333
 20
-230.869167
 30
0.0
 11
21.348333
 21
-234.244167
 31
0.0
  0
LINE
  8
1
  6
CONTINUOUS
 62
     1
  5
128
 10
23.598333
 20
-230.869167
 30
0.0
 11
23.598333
 21
-234.244167
 31
0.0
  0
LINE
  8
1
  6
CONTINUOUS
 62
     1
  5
129
 10
25.893333
 20
-230.869167
 30
0.0
 11
25.893333
 21
-234.244167
 31
0.0
  0
LINE
  8
1
  6
CONTINUOUS
 62
     1
  5
12A
 10
29.0055
 20
-231.319167
 30
0.0
 11
29.0055
 21
-234.244167
 31
0.0
  0
LINE
  8
1
  6
CONTINUOUS
 62
     1
  5
12B
 10
31.2555
 20
-230.869167
 30
0.0
 11
31.2555
 21
-234.244167
 31
0.0
  0
LINE
  8
1
  6
CONTINUOUS
 62
     1
  5
12C
 10
33.5505
 20
-230.869167
 30
0.0
 11
33.5505
 21
-234.244167
 31
0.0
  0
LINE
  8
1
  6
CONTINUOUS
 62
     1
  5
12D
 10
22.473333
 20
-231.409167
 30
0.0
 11
22.473333
 21
-233.704167
 31
0.0
  0
LINE
  8
1
  6
CONTINUOUS
 62
     1
  5
12E
 10
24.768333
 20
-231.409167
 30
0.0
 11
24.768333
 21
-233.704167
 31
0.0
  0
LINE
  8
1
  6
CONTINUOUS
 62
     1
  5
12F
 10
30.1305
 20
-231.409167
 30
0.0
 11
30.1305
 21
-233.704167
 31
0.0
  0
LINE
  8
1
  6
CONTINUOUS
 62
     1
  5
130
 10
32.3805
 20
-231.409167
 30
0.0
 11
32.3805
 21
-233.704167
 31
0.0
  0
LINE
  8
1
  6
CONTINUOUS
 62
     1
  5
131
 10
204.753167
 20
-57.104833
 30
0.0
 11
186.753167
 21
-57.104833
 31
0.0
  0
LINE
  8
1
  6
CONTINUOUS
 62
     1
  5
132
 10
184.458167
 20
-51.718333
 30
0.0
 11
184.458167
 21
-65.519833
 31
0.0
  0
LINE
  8
1
  6
CONTINUOUS
 62
     1
  5
133
 10
186.753167
 20
-49.718083
 30
0.0
 11
186.753167
 21
-65.519833
 31
0.0
  0
LINE
  8
1
  6
CONTINUOUS
 62
     1
  5
134
 10
207.048167
 20
-51.667417
 30
0.0
 11
207.048167
 21
-65.519833
 31
0.0
  0
LINE
  8
1
  6
CONTINUOUS
 62
     1
  5
135
 10
204.753167
 20
-49.672333
 30
0.0
 11
204.753167
 21
-65.519833
 31
0.0
  0
LINE
  8
1
  6
CONTINUOUS
 62
     1
  5
136
 10
184.458167
 20
-65.519833
 30
0.0
 11
186.753167
 21
-65.519833
 31
0.0
  0
LINE
  8
1
  6
CONTINUOUS
 62
     1
  5
137
 10
204.753167
 20
-65.519833
 30
0.0
 11
207.048167
 21
-65.519833
 31
0.0
  0
LINE
  8
1
  6
CONTINUOUS
 62
     1
  5
138
 10
197.013167
 20
-60.524833
 30
0.0
 11
197.013167
 21
-57.104833
 31
0.0
  0
LINE
  8
1
  6
CONTINUOUS
 62
     1
  5
139
 10
199.578167
 20
-60.524833
 30
0.0
 11
199.578167
 21
-57.104833
 31
0.0
  0
LINE
  8
1
  6
CONTINUOUS
 62
     1
  5
13A
 10
202.188167
 20
-60.524833
 30
0.0
 11
202.188167
 21
-57.104833
 31
0.0
  0
LINE
  8
1
  6
CONTINUOUS
 62
     1
  5
13B
 10
198.273167
 20
-59.962333
 30
0.0
 11
198.273167
 21
-57.667333
 31
0.0
  0
LINE
  8
1
  6
CONTINUOUS
 62
     1
  5
13C
 10
200.883167
 20
-59.962333
 30
0.0
 11
200.883167
 21
-57.667333
 31
0.0
  0
LINE
  8
1
  6
CONTINUOUS
 62
     1
  5
13D
 10
203.493167
 20
-59.962333
 30
0.0
 11
203.493167
 21
-57.667333
 31
0.0
  0
LINE
  8
1
  6
CONTINUOUS
 62
     1
  5
13E
 10
204.753167
 20
-60.524833
 30
0.0
 11
186.753167
 21
-60.524833
 31
0.0
  0
LINE
  8
1
  6
CONTINUOUS
 62
     1
  5
13F
 10
211.593167
 20
-54.854833
 30
0.0
 11
207.048167
 21
-54.854833
 31
0.0
  0
LINE
  8
1
  6
CONTINUOUS
 62
     1
  5
140
 10
211.593167
 20
-62.819833
 30
0.0
 11
207.048167
 21
-62.819833
 31
0.0
  0
LINE
  8
1
  6
CONTINUOUS
 62
     1
  5
141
 10
211.593167
 20
-54.854833
 30
0.0
 11
211.593167
 21
-62.819833
 31
0.0
  0
LINE
  8
1
  6
CONTINUOUS
 62
     1
  5
142
 10
215.103167
 20
-57.104833
 30
0.0
 11
211.593167
 21
-57.104833
 31
0.0
  0
LINE
  8
1
  6
CONTINUOUS
 62
     1
  5
143
 10
211.593167
 20
-57.104833
 30
0.0
 11
207.048167
 21
-57.104833
 31
0.0
  0
LINE
  8
1
  6
CONTINUOUS
 62
     1
  5
144
 10
215.103167
 20
-60.524833
 30
0.0
 11
211.593167
 21
-60.524833
 31
0.0
  0
LINE
  8
1
  6
CONTINUOUS
 62
     1
  5
145
 10
211.593167
 20
-60.524833
 30
0.0
 11
207.048167
 21
-60.524833
 31
0.0
  0
LINE
  8
1
  6
CONTINUOUS
 62
     1
  5
146
 10
215.103167
 20
-60.524833
 30
0.0
 11
215.103167
 21
-57.104833
 31
0.0
  0
ARC
  8
1
  6
CONTINUOUS
 62
     1
  5
147
 10
195.706979
 20
-27.057667
 30
0.0
 40
23.028836
 50
115.386097
 51
243.691022
210
0.0
220
0.0
230
1.0
  0
ARC
  8
1
  6
CONTINUOUS
 62
     1
  5
148
 10
195.706979
 20
-27.057667
 30
0.0
 40
23.028836
 50
296.542464
 51
64.613897
210
0.0
220
0.0
230
1.0
  0
ARC
  8
1
  6
CONTINUOUS
 62
     1
  5
149
 10
195.706979
 20
-27.057667
 30
0.0
 40
25.863386
 50
118.256781
 51
241.304261
210
0.0
220
0.0
230
1.0
  0
ARC
  8
1
  6
CONTINUOUS
 62
     1
  5
14A
 10
195.706979
 20
-27.057667
 30
0.0
 40
25.863386
 50
298.910292
 51
61.742828
210
0.0
220
0.0
230
1.0
  0
ARC
  8
1
  6
CONTINUOUS
 62
     1
  5
14B
 10
182.397429
 20
-2.29442
 30
0.0
 40
2.25
 50
298.256781
 51
5.000594
210
0.0
220
0.0
230
1.0
  0
ARC
  8
1
  6
CONTINUOUS
 62
     1
  5
14C
 10
209.016698
 20
-2.294511
 30
0.0
 40
2.25
 50
175.000167
 51
241.742828
210
0.0
220
0.0
230
1.0
  0
ARC
  8
1
  6
CONTINUOUS
 62
     1
  5
14D
 10
184.869539
 20
-4.219771
 30
0.0
 40
2.25
 50
295.386097
 51
4.999717
210
0.0
220
0.0
230
1.0
  0
ARC
  8
1
  6
CONTINUOUS
 62
     1
  5
14E
 10
206.544421
 20
-4.219772
 30
0.0
 40
2.25
 50
174.999597
 51
244.613897
210
0.0
220
0.0
230
1.0
  0
ARC
  8
1
  6
CONTINUOUS
 62
     1
  5
14F
 10
184.503104
 20
-49.718045
 30
0.0
 40
2.25
 50
0.0
 51
63.691022
210
0.0
220
0.0
230
1.0
  0
ARC
  8
1
  6
CONTINUOUS
 62
     1
  5
150
 10
182.208104
 20
-51.718219
 30
0.0
 40
2.25
 50
0.0
 51
61.304261
210
0.0
220
0.0
230
1.0
  0
ARC
  8
1
  6
CONTINUOUS
 62
     1
  5
151
 10
207.003104
 20
-49.6722
 30
0.0
 40
2.25
 50
116.542464
 51
180.0
210
0.0
220
0.0
230
1.0
  0
ARC
  8
1
  6
CONTINUOUS
 62
     1
  5
152
 10
209.298104
 20
-51.667498
 30
0.0
 40
2.25
 50
118.910292
 51
180.0
210
0.0
220
0.0
230
1.0
  0
LINE
  8
1
  6
CONTINUOUS
 62
     1
  5
153
 10
179.913167
 20
-60.524833
 30
0.0
 11
184.458167
 21
-60.524833
 31
0.0
  0
LINE
  8
1
  6
CONTINUOUS
 62
     1
  5
154
 10
179.913167
 20
-54.809833
 30
0.0
 11
179.913167
 21
-62.774833
 31
0.0
  0
LINE
  8
1
  6
CONTINUOUS
 62
     1
  5
155
 10
179.913167
 20
-54.809833
 30
0.0
 11
184.458167
 21
-54.809833
 31
0.0
  0
LINE
  8
1
  6
CONTINUOUS
 62
     1
  5
156
 10
179.913167
 20
-62.774833
 30
0.0
 11
184.458167
 21
-62.774833
 31
0.0
  0
LINE
  8
1
  6
CONTINUOUS
 62
     1
  5
157
 10
179.913167
 20
-57.104833
 30
0.0
 11
184.458167
 21
-57.104833
 31
0.0
  0
LINE
  8
1
  6
CONTINUOUS
 62
     1
  5
158
 10
213.328333
 20
-59.962333
 30
0.0
 11
213.328333
 21
-57.667333
 31
0.0
  0
LINE
  8
1
  6
CONTINUOUS
 62
     1
  5
159
 10
179.833333
 20
8.704583
 30
0.0
 11
183.693667
 21
8.704583
 31
0.0
  0
LINE
  8
1
  6
CONTINUOUS
 62
     1
  5
15A
 10
205.215917
 20
6.409583
 30
0.0
 11
186.198333
 21
6.409583
 31
0.0
  0
LINE
  8
1
  6
CONTINUOUS
 62
     1
  5
15B
 10
196.933333
 20
2.989583
 30
0.0
 11
196.933333
 21
6.409583
 31
0.0
  0
LINE
  8
1
  6
CONTINUOUS
 62
     1
  5
15C
 10
199.498333
 20
2.989583
 30
0.0
 11
199.498333
 21
6.409583
 31
0.0
  0
LINE
  8
1
  6
CONTINUOUS
 62
     1
  5
15D
 10
202.108333
 20
2.989583
 30
0.0
 11
202.108333
 21
6.409583
 31
0.0
  0
LINE
  8
1
  6
CONTINUOUS
 62
     1
  5
15E
 10
198.193333
 20
3.552083
 30
0.0
 11
198.193333
 21
5.847083
 31
0.0
  0
LINE
  8
1
  6
CONTINUOUS
 62
     1
  5
15F
 10
200.803333
 20
3.552083
 30
0.0
 11
200.803333
 21
5.847083
 31
0.0
  0
LINE
  8
1
  6
CONTINUOUS
 62
     1
  5
160
 10
203.413333
 20
3.552083
 30
0.0
 11
203.413333
 21
5.847083
 31
0.0
  0
LINE
  8
1
  6
CONTINUOUS
 62
     1
  5
161
 10
204.916667
 20
2.989583
 30
0.0
 11
186.497583
 21
2.989583
 31
0.0
  0
LINE
  8
1
  6
CONTINUOUS
 62
     1
  5
162
 10
211.513333
 20
8.659583
 30
0.0
 11
207.716417
 21
8.659583
 31
0.0
  0
LINE
  8
1
  6
CONTINUOUS
 62
     1
  5
163
 10
211.513333
 20
0.694583
 30
0.0
 11
207.019667
 21
0.694583
 31
0.0
  0
LINE
  8
1
  6
CONTINUOUS
 62
     1
  5
164
 10
211.513333
 20
8.659583
 30
0.0
 11
211.513333
 21
0.694583
 31
0.0
  0
LINE
  8
1
  6
CONTINUOUS
 62
     1
  5
165
 10
215.023333
 20
6.409583
 30
0.0
 11
211.513333
 21
6.409583
 31
0.0
  0
LINE
  8
1
  6
CONTINUOUS
 62
     1
  5
166
 10
211.513333
 20
6.409583
 30
0.0
 11
207.519667
 21
6.409583
 31
0.0
  0
LINE
  8
1
  6
CONTINUOUS
 62
     1
  5
167
 10
215.023333
 20
2.989583
 30
0.0
 11
211.513333
 21
2.989583
 31
0.0
  0
LINE
  8
1
  6
CONTINUOUS
 62
     1
  5
168
 10
211.513333
 20
2.989583
 30
0.0
 11
207.220417
 21
2.989583
 31
0.0
  0
LINE
  8
1
  6
CONTINUOUS
 62
     1
  5
169
 10
215.023333
 20
2.989583
 30
0.0
 11
215.023333
 21
6.409583
 31
0.0
  0
LINE
  8
1
  6
CONTINUOUS
 62
     1
  5
16A
 10
179.833333
 20
2.989583
 30
0.0
 11
184.193833
 21
2.989583
 31
0.0
  0
LINE
  8
1
  6
CONTINUOUS
 62
     1
  5
16B
 10
179.833333
 20
8.704583
 30
0.0
 11
179.833333
 21
0.739583
 31
0.0
  0
LINE
  8
1
  6
CONTINUOUS
 62
     1
  5
16C
 10
179.833333
 20
0.739583
 30
0.0
 11
184.390667
 21
0.739583
 31
0.0
  0
LINE
  8
1
  6
CONTINUOUS
 62
     1
  5
16D
 10
179.833333
 20
6.409583
 30
0.0
 11
183.894583
 21
6.409583
 31
0.0
  0
LINE
  8
1
  6
CONTINUOUS
 62
     1
  5
16E
 10
213.248417
 20
3.552083
 30
0.0
 11
213.248417
 21
5.847083
 31
0.0
  0
LINE
  8
1
  6
CONTINUOUS
 62
     7
  5
16F
 10
177.583333
 20
4.722083
 30
0.0
 11
195.178333
 21
4.722083
 31
0.0
  0
LINE
  8
1
  6
CONTINUOUS
 62
     7
  5
170
 10
199.678333
 20
4.722083
 30
0.0
 11
217.273333
 21
4.722083
 31
0.0
  0
LINE
  8
1
  6
CONTINUOUS
 62
     7
  5
171
 10
196.303333
 20
4.722083
 30
0.0
 11
198.553333
 21
4.722083
 31
0.0
  0
LINE
  8
1
  6
CONTINUOUS
 62
     7
  5
172
 10
177.663167
 20
-58.792333
 30
0.0
 11
195.178333
 21
-58.792333
 31
0.0
  0
LINE
  8
1
  6
CONTINUOUS
 62
     7
  5
173
 10
196.303333
 20
-58.792333
 30
0.0
 11
198.553333
 21
-58.792333
 31
0.0
  0
LINE
  8
1
  6
CONTINUOUS
 62
     7
  5
174
 10
199.678333
 20
-58.792333
 30
0.0
 11
217.353167
 21
-58.792333
 31
0.0
  0
LINE
  8
1
  6
CONTINUOUS
 62
     1
  5
175
 10
222.664083
 20
-25.785333
 30
0.0
 11
233.945083
 21
-25.785333
 31
0.0
  0
LINE
  8
1
  6
CONTINUOUS
 62
     1
  5
176
 10
222.676833
 20
-28.035333
 30
0.0
 11
233.945083
 21
-28.035333
 31
0.0
  0
LINE
  8
1
  6
CONTINUOUS
 62
     1
  5
177
 10
222.664083
 20
-25.785333
 30
0.0
 11
222.676833
 21
-28.035333
 31
0.0
  0
LINE
  8
1
  6
CONTINUOUS
 62
     1
  5
178
 10
222.664083
 20
-25.785333
 30
0.0
 11
221.453833
 21
-24.603917
 31
0.0
  0
LINE
  8
1
  6
CONTINUOUS
 62
     1
  5
179
 10
222.664083
 20
-28.035333
 30
0.0
 11
221.453833
 21
-29.216833
 31
0.0
  0
ARC
  8
1
  6
CONTINUOUS
 62
     1
  5
17A
 10
231.636921
 20
-26.910292
 30
0.0
 40
2.567637
 50
334.014344
 51
25.985656
210
0.0
220
0.0
230
1.0
  0
LINE
  8
1
  6
CONTINUOUS
 62
     1
  5
17B
 10
233.945083
 20
-28.035333
 30
0.0
 11
233.945083
 21
-29.722833
 31
0.0
  0
LINE
  8
1
  6
CONTINUOUS
 62
     1
  5
17C
 10
229.445083
 20
-28.035333
 30
0.0
 11
229.445083
 21
-29.722833
 31
0.0
  0
LINE
  8
1
  6
CONTINUOUS
 62
     1
  5
17D
 10
229.445083
 20
-29.722833
 30
0.0
 11
233.945083
 21
-29.722833
 31
0.0
  0
LINE
  8
1
  6
CONTINUOUS
 62
     1
  5
17E
 10
230.570083
 20
-29.722833
 30
0.0
 11
230.570083
 21
-30.847833
 31
0.0
  0
LINE
  8
1
  6
CONTINUOUS
 62
     1
  5
17F
 10
232.820083
 20
-29.722833
 30
0.0
 11
232.820083
 21
-30.847833
 31
0.0
  0
LINE
  8
1
  6
CONTINUOUS
 62
     1
  5
180
 10
230.570083
 20
-30.847833
 30
0.0
 11
232.820083
 21
-30.847833
 31
0.0
  0
LINE
  8
1
  6
HIDDEN
 62
     1
  5
181
 10
229.445083
 20
-28.035333
 30
0.0
 11
229.445083
 21
-22.410333
 31
0.0
  0
ARC
  8
1
  6
CONTINUOUS
 62
     1
  5
182
 10
231.753037
 20
-21.285292
 30
0.0
 40
2.567637
 50
154.014344
 51
205.985656
210
0.0
220
0.0
230
1.0
  0
ARC
  8
1
  6
CONTINUOUS
 62
     1
  5
183
 10
231.636921
 20
-21.285292
 30
0.0
 40
2.567637
 50
334.014344
 51
25.985656
210
0.0
220
0.0
230
1.0
  0
LINE
  8
1
  6
CONTINUOUS
 62
     1
  5
184
 10
229.445083
 20
-20.160333
 30
0.0
 11
233.945083
 21
-20.160333
 31
0.0
  0
ARC
  8
1
  6
CONTINUOUS
 62
     1
  5
185
 10
237.070494
 20
-24.097792
 30
0.0
 40
3.551971
 50
151.634897
 51
208.3651
210
0.0
220
0.0
230
1.0
  0
LINE
  8
1
  6
CONTINUOUS
 62
     1
  5
186
 10
227.757583
 20
-23.057833
 30
0.0
 11
227.757583
 21
-25.307833
 31
0.0
  0
LINE
  8
1
  6
CONTINUOUS
 62
     1
  5
187
 10
227.757583
 20
-23.057833
 30
0.0
 11
229.445083
 21
-23.057833
 31
0.0
  0
LINE
  8
1
  6
HIDDEN
 62
     1
  5
188
 10
233.674333
 20
-23.057833
 30
0.0
 11
239.356083
 21
-23.057833
 31
0.0
  0
LINE
  8
1
  6
CONTINUOUS
 62
     1
  5
189
 10
227.757583
 20
-25.307833
 30
0.0
 11
229.445083
 21
-25.307833
 31
0.0
  0
LINE
  8
1
  6
HIDDEN
 62
     1
  5
18A
 10
233.731083
 20
-25.307833
 30
0.0
 11
239.356083
 21
-25.307833
 31
0.0
  0
LINE
  8
1
  6
DASHED
 62
     1
  5
18B
 10
239.356083
 20
-23.057833
 30
0.0
 11
239.356083
 21
-14.057833
 31
0.0
  0
LINE
  8
1
  6
DASHED
 62
     1
  5
18C
 10
239.356083
 20
-34.307833
 30
0.0
 11
239.356083
 21
-25.307833
 31
0.0
  0
LINE
  8
1
  6
DASHED
 62
     1
  5
18D
 10
241.606083
 20
-34.307833
 30
0.0
 11
241.606083
 21
-14.057833
 31
0.0
  0
LINE
  8
1
  6
CONTINUOUS
 62
     1
  5
18E
 10
239.356083
 20
-14.057833
 30
0.0
 11
241.606083
 21
-14.057833
 31
0.0
  0
LINE
  8
1
  6
CONTINUOUS
 62
     1
  5
18F
 10
239.356083
 20
-34.307833
 30
0.0
 11
241.606083
 21
-34.307833
 31
0.0
  0
LINE
  8
1
  6
CONTINUOUS
 62
     1
  5
190
 10
230.570083
 20
-29.441583
 30
0.0
 11
230.570083
 21
-28.316583
 31
0.0
  0
LINE
  8
1
  6
CONTINUOUS
 62
     1
  5
191
 10
230.570083
 20
-21.847833
 30
0.0
 11
230.570083
 21
-20.722833
 31
0.0
  0
LINE
  8
1
  6
CONTINUOUS
 62
     1
  5
192
 10
232.820083
 20
-29.441583
 30
0.0
 11
232.820083
 21
-28.316583
 31
0.0
  0
LINE
  8
1
  6
CONTINUOUS
 62
     1
  5
193
 10
232.820083
 20
-21.847833
 30
0.0
 11
232.820083
 21
-20.722833
 31
0.0
  0
LINE
  8
1
  6
CONTINUOUS
 62
     1
  5
194
 10
231.695083
 20
-20.722833
 30
0.0
 11
231.695083
 21
-21.847833
 31
0.0
  0
LINE
  8
1
  6
CONTINUOUS
 62
     7
  5
195
 10
231.695083
 20
-20.160333
 30
0.0
 11
231.695083
 21
-17.910333
 31
0.0
  0
LINE
  8
1
  6
HIDDEN
 62
     7
  5
196
 10
231.695083
 20
-35.347833
 30
0.0
 11
231.695083
 21
-24.014583
 31
0.0
  0
LINE
  8
1
  6
CONTINUOUS
 62
     1
  5
197
 10
232.820083
 20
-27.472833
 30
0.0
 11
232.820083
 21
-26.347833
 31
0.0
  0
LINE
  8
1
  6
CONTINUOUS
 62
     1
  5
198
 10
230.570083
 20
-27.472833
 30
0.0
 11
230.570083
 21
-26.347833
 31
0.0
  0
LINE
  8
1
  6
HIDDEN
 62
     1
  5
199
 10
147.106083
 20
-34.307833
 30
0.0
 11
147.106083
 21
-18.557833
 31
0.0
  0
LINE
  8
1
  6
HIDDEN
 62
     1
  5
19A
 10
161.517167
 20
-23.057833
 30
0.0
 11
149.356083
 21
-23.057833
 31
0.0
  0
LINE
  8
1
  6
HIDDEN
 62
     1
  5
19B
 10
161.517167
 20
-25.307833
 30
0.0
 11
149.356083
 21
-25.307833
 31
0.0
  0
LINE
  8
1
  6
HIDDEN
 62
     1
  5
19C
 10
149.356083
 20
-23.057833
 30
0.0
 11
149.356083
 21
-18.557833
 31
0.0
  0
LINE
  8
1
  6
HIDDEN
 62
     1
  5
19D
 10
149.356083
 20
-34.307833
 30
0.0
 11
149.356083
 21
-25.307833
 31
0.0
  0
LINE
  8
1
  6
HIDDEN
 62
     1
  5
19E
 10
149.356083
 20
-18.557833
 30
0.0
 11
147.106083
 21
-18.557833
 31
0.0
  0
LINE
  8
1
  6
HIDDEN
 62
     1
  5
19F
 10
149.356083
 20
-34.307833
 30
0.0
 11
147.106083
 21
-34.307833
 31
0.0
  0
LINE
  8
1
  6
HIDDEN
 62
     1
  5
1A0
 10
161.517167
 20
-25.307833
 30
0.0
 11
161.517167
 21
-18.557833
 31
0.0
  0
LINE
  8
1
  6
HIDDEN
 62
     1
  5
1A1
 10
163.767167
 20
-27.557833
 30
0.0
 11
149.356083
 21
-27.557833
 31
0.0
  0
LINE
  8
1
  6
HIDDEN
 62
     1
  5
1A2
 10
161.517167
 20
-18.557833
 30
0.0
 11
163.767167
 21
-18.557833
 31
0.0
  0
LINE
  8
1
  6
HIDDEN
 62
     1
  5
1A3
 10
163.767167
 20
-16.307833
 30
0.0
 11
163.767167
 21
-38.807833
 31
0.0
  0
LINE
  8
1
  6
HIDDEN
 62
     1
  5
1A4
 10
163.767167
 20
-16.307833
 30
0.0
 11
172.183417
 21
-16.307833
 31
0.0
  0
LINE
  8
1
  6
HIDDEN
 62
     1
  5
1A5
 10
163.767167
 20
-38.807833
 30
0.0
 11
172.666833
 21
-38.807833
 31
0.0
  0
LINE
  8
1
  6
HIDDEN
 62
     1
  5
1A6
 10
166.017167
 20
-18.557833
 30
0.0
 11
174.304333
 21
-18.557833
 31
0.0
  0
LINE
  8
1
  6
HIDDEN
 62
     1
  5
1A7
 10
166.017167
 20
-36.557833
 30
0.0
 11
174.728917
 21
-36.557833
 31
0.0
  0
LINE
  8
1
  6
HIDDEN
 62
     1
  5
1A8
 10
166.017167
 20
-18.557833
 30
0.0
 11
166.017167
 21
-36.557833
 31
0.0
  0
LINE
  8
1
  6
CONTINUOUS
 62
     1
  5
1A9
 10
204.753167
 20
-121.80225
 30
0.0
 11
186.753167
 21
-121.80225
 31
0.0
  0
LINE
  8
1
  6
CONTINUOUS
 62
     1
  5
1AA
 10
197.013167
 20
-125.22225
 30
0.0
 11
197.013167
 21
-121.80225
 31
0.0
  0
LINE
  8
1
  6
CONTINUOUS
 62
     1
  5
1AB
 10
199.578167
 20
-125.22225
 30
0.0
 11
199.578167
 21
-121.80225
 31
0.0
  0
LINE
  8
1
  6
CONTINUOUS
 62
     1
  5
1AC
 10
202.188167
 20
-125.22225
 30
0.0
 11
202.188167
 21
-121.80225
 31
0.0
  0
LINE
  8
1
  6
CONTINUOUS
 62
     1
  5
1AD
 10
198.273167
 20
-124.65975
 30
0.0
 11
198.273167
 21
-122.36475
 31
0.0
  0
LINE
  8
1
  6
CONTINUOUS
 62
     1
  5
1AE
 10
200.883167
 20
-124.65975
 30
0.0
 11
200.883167
 21
-122.36475
 31
0.0
  0
LINE
  8
1
  6
CONTINUOUS
 62
     1
  5
1AF
 10
203.493167
 20
-124.65975
 30
0.0
 11
203.493167
 21
-122.36475
 31
0.0
  0
LINE
  8
1
  6
CONTINUOUS
 62
     1
  5
1B0
 10
204.753167
 20
-125.22225
 30
0.0
 11
189.003167
 21
-125.22225
 31
0.0
  0
LINE
  8
1
  6
CONTINUOUS
 62
     1
  5
1B1
 10
211.593167
 20
-119.55225
 30
0.0
 11
207.048167
 21
-119.55225
 31
0.0
  0
LINE
  8
1
  6
CONTINUOUS
 62
     1
  5
1B2
 10
211.593167
 20
-127.51725
 30
0.0
 11
207.048167
 21
-127.51725
 31
0.0
  0
LINE
  8
1
  6
CONTINUOUS
 62
     1
  5
1B3
 10
211.593167
 20
-119.55225
 30
0.0
 11
211.593167
 21
-127.51725
 31
0.0
  0
LINE
  8
1
  6
CONTINUOUS
 62
     1
  5
1B4
 10
215.103167
 20
-121.80225
 30
0.0
 11
211.593167
 21
-121.80225
 31
0.0
  0
LINE
  8
1
  6
CONTINUOUS
 62
     1
  5
1B5
 10
211.593167
 20
-121.80225
 30
0.0
 11
207.048167
 21
-121.80225
 31
0.0
  0
LINE
  8
1
  6
CONTINUOUS
 62
     1
  5
1B6
 10
215.103167
 20
-125.22225
 30
0.0
 11
211.593167
 21
-125.22225
 31
0.0
  0
LINE
  8
1
  6
CONTINUOUS
 62
     1
  5
1B7
 10
211.593167
 20
-125.22225
 30
0.0
 11
207.048167
 21
-125.22225
 31
0.0
  0
LINE
  8
1
  6
CONTINUOUS
 62
     1
  5
1B8
 10
215.103167
 20
-125.22225
 30
0.0
 11
215.103167
 21
-121.80225
 31
0.0
  0
LINE
  8
1
  6
CONTINUOUS
 62
     1
  5
1B9
 10
179.913167
 20
-125.22225
 30
0.0
 11
184.458167
 21
-125.22225
 31
0.0
  0
LINE
  8
1
  6
CONTINUOUS
 62
     1
  5
1BA
 10
179.913167
 20
-119.50725
 30
0.0
 11
179.913167
 21
-127.47225
 31
0.0
  0
LINE
  8
1
  6
CONTINUOUS
 62
     1
  5
1BB
 10
179.913167
 20
-119.50725
 30
0.0
 11
184.458167
 21
-119.50725
 31
0.0
  0
LINE
  8
1
  6
CONTINUOUS
 62
     1
  5
1BC
 10
179.913167
 20
-127.47225
 30
0.0
 11
184.458167
 21
-127.47225
 31
0.0
  0
LINE
  8
1
  6
CONTINUOUS
 62
     1
  5
1BD
 10
179.913167
 20
-121.80225
 30
0.0
 11
184.458167
 21
-121.80225
 31
0.0
  0
LINE
  8
1
  6
CONTINUOUS
 62
     1
  5
1BE
 10
213.328333
 20
-124.65975
 30
0.0
 11
213.328333
 21
-122.36475
 31
0.0
  0
LINE
  8
1
  6
CONTINUOUS
 62
     7
  5
1BF
 10
174.387167
 20
-123.48975
 30
0.0
 11
195.178333
 21
-123.48975
 31
0.0
  0
LINE
  8
1
  6
CONTINUOUS
 62
     7
  5
1C0
 10
196.303333
 20
-123.48975
 30
0.0
 11
198.553333
 21
-123.48975
 31
0.0
  0
LINE
  8
1
  6
CONTINUOUS
 62
     7
  5
1C1
 10
199.678333
 20
-123.48975
 30
0.0
 11
216.228167
 21
-123.48975
 31
0.0
  0
LINE
  8
1
  6
CONTINUOUS
 62
     1
  5
1C2
 10
184.458167
 20
-115.00725
 30
0.0
 11
184.458167
 21
-131.97225
 31
0.0
  0
LINE
  8
1
  6
CONTINUOUS
 62
     1
  5
1C3
 10
186.753167
 20
-115.00725
 30
0.0
 11
186.753167
 21
-131.97225
 31
0.0
  0
LINE
  8
1
  6
CONTINUOUS
 62
     1
  5
1C4
 10
204.753167
 20
-115.00725
 30
0.0
 11
204.753167
 21
-131.97225
 31
0.0
  0
LINE
  8
1
  6
CONTINUOUS
 62
     1
  5
1C5
 10
207.048167
 20
-115.00725
 30
0.0
 11
207.048167
 21
-131.97225
 31
0.0
  0
LINE
  8
1
  6
CONTINUOUS
 62
     1
  5
1C6
 10
202.503167
 20
-115.00725
 30
0.0
 11
202.503167
 21
-131.97225
 31
0.0
  0
LINE
  8
1
  6
CONTINUOUS
 62
     1
  5
1C7
 10
169.878167
 20
-115.00725
 30
0.0
 11
169.878167
 21
-131.97225
 31
0.0
  0
LINE
  8
1
  6
CONTINUOUS
 62
     1
  5
1C8
 10
169.878167
 20
-115.00725
 30
0.0
 11
189.003167
 21
-115.00725
 31
0.0
  0
LINE
  8
1
  6
CONTINUOUS
 62
     1
  5
1C9
 10
169.878167
 20
-131.97225
 30
0.0
 11
189.003167
 21
-131.97225
 31
0.0
  0
LINE
  8
1
  6
CONTINUOUS
 62
     1
  5
1CA
 10
222.753167
 20
-115.00725
 30
0.0
 11
222.753167
 21
-131.97225
 31
0.0
  0
LINE
  8
1
  6
CONTINUOUS
 62
     1
  5
1CB
 10
202.503167
 20
-115.00725
 30
0.0
 11
227.253167
 21
-115.00725
 31
0.0
  0
LINE
  8
1
  6
CONTINUOUS
 62
     1
  5
1CC
 10
202.503167
 20
-131.97225
 30
0.0
 11
227.253167
 21
-131.97225
 31
0.0
  0
LINE
  8
1
  6
HIDDEN
 62
     1
  5
1CD
 10
172.128167
 20
-115.00725
 30
0.0
 11
172.128167
 21
-131.97225
 31
0.0
  0
LINE
  8
1
  6
HIDDEN
 62
     1
  5
1CE
 10
227.253167
 20
-115.00725
 30
0.0
 11
227.253167
 21
-131.97225
 31
0.0
  0
LINE
  8
1
  6
CONTINUOUS
 62
     1
  5
1CF
 10
229.503167
 20
-117.25725
 30
0.0
 11
229.503167
 21
-129.72225
 31
0.0
  0
LINE
  8
1
  6
CONTINUOUS
 62
     1
  5
1D0
 10
229.503167
 20
-117.25725
 30
0.0
 11
241.606083
 21
-117.25725
 31
0.0
  0
LINE
  8
1
  6
CONTINUOUS
 62
     1
  5
1D1
 10
229.503167
 20
-129.72225
 30
0.0
 11
241.606083
 21
-129.72225
 31
0.0
  0
LINE
  8
1
  6
CONTINUOUS
 62
     1
  5
1D2
 10
189.003167
 20
-115.00725
 30
0.0
 11
189.003167
 21
-121.80225
 31
0.0
  0
LINE
  8
1
  6
CONTINUOUS
 62
     1
  5
1D3
 10
189.003167
 20
-125.22225
 30
0.0
 11
189.003167
 21
-131.97225
 31
0.0
  0
LINE
  8
1
  6
CONTINUOUS
 62
     1
  5
1D4
 10
241.606083
 20
-117.25725
 30
0.0
 11
241.606083
 21
-129.72225
 31
0.0
  0
LINE
  8
1
  6
HIDDEN
 62
     1
  5
1D5
 10
147.106083
 20
-88.00725
 30
0.0
 11
147.106083
 21
-158.97225
 31
0.0
  0
LINE
  8
1
  6
HIDDEN
 62
     1
  5
1D6
 10
149.356083
 20
-88.00725
 30
0.0
 11
149.356083
 21
-158.97225
 31
0.0
  0
LINE
  8
1
  6
HIDDEN
 62
     1
  5
1D7
 10
161.731083
 20
-88.00725
 30
0.0
 11
161.731083
 21
-158.97225
 31
0.0
  0
LINE
  8
1
  6
HIDDEN
 62
     1
  5
1D8
 10
163.981083
 20
-98.13225
 30
0.0
 11
163.981083
 21
-148.84725
 31
0.0
  0
LINE
  8
1
  6
HIDDEN
 62
     1
  5
1D9
 10
163.981083
 20
-98.13225
 30
0.0
 11
149.356083
 21
-98.13225
 31
0.0
  0
LINE
  8
1
  6
HIDDEN
 62
     1
  5
1DA
 10
163.981083
 20
-148.84725
 30
0.0
 11
149.356083
 21
-148.84725
 31
0.0
  0
LINE
  8
1
  6
HIDDEN
 62
     1
  5
1DB
 10
166.231083
 20
-115.00725
 30
0.0
 11
166.231083
 21
-131.97225
 31
0.0
  0
LINE
  8
1
  6
HIDDEN
 62
     1
  5
1DC
 10
169.878167
 20
-115.00725
 30
0.0
 11
163.981083
 21
-115.00725
 31
0.0
  0
LINE
  8
1
  6
HIDDEN
 62
     1
  5
1DD
 10
169.878167
 20
-131.97225
 30
0.0
 11
163.981083
 21
-131.97225
 31
0.0
  0
LINE
  8
1
  6
CONTINUOUS
 62
     1
  5
1DE
 10
227.253167
 20
-115.00725
 30
0.0
 11
229.503167
 21
-117.25725
 31
0.0
  0
LINE
  8
1
  6
CONTINUOUS
 62
     1
  5
1DF
 10
227.253167
 20
-131.97225
 30
0.0
 11
229.503167
 21
-129.72225
 31
0.0
  0
LINE
  8
1
  6
CONTINUOUS
 62
     1
  5
1E0
 10
154.418583
 20
-92.50725
 30
0.0
 11
154.418583
 21
-83.50725
 31
0.0
  0
LINE
  8
1
  6
CONTINUOUS
 62
     1
  5
1E1
 10
154.418583
 20
-83.50725
 30
0.0
 11
151.658583
 21
-88.00725
 31
0.0
  0
LINE
  8
1
  6
CONTINUOUS
 62
     1
  5
1E2
 10
154.418583
 20
-92.50725
 30
0.0
 11
157.178583
 21
-88.00725
 31
0.0
  0
LINE
  8
1
  6
CONTINUOUS
 62
     1
  5
1E3
 10
143.731083
 20
-88.00725
 30
0.0
 11
151.658583
 21
-88.00725
 31
0.0
  0
LINE
  8
1
  6
CONTINUOUS
 62
     1
  5
1E4
 10
157.178583
 20
-88.00725
 30
0.0
 11
165.106083
 21
-88.00725
 31
0.0
  0
LINE
  8
1
  6
CONTINUOUS
 62
     1
  5
1E5
 10
154.418583
 20
-163.47225
 30
0.0
 11
154.418583
 21
-154.47225
 31
0.0
  0
LINE
  8
1
  6
CONTINUOUS
 62
     1
  5
1E6
 10
154.418583
 20
-154.47225
 30
0.0
 11
151.658583
 21
-158.97225
 31
0.0
  0
LINE
  8
1
  6
CONTINUOUS
 62
     1
  5
1E7
 10
154.418583
 20
-163.47225
 30
0.0
 11
157.178583
 21
-158.97225
 31
0.0
  0
LINE
  8
1
  6
CONTINUOUS
 62
     1
  5
1E8
 10
143.731083
 20
-158.97225
 30
0.0
 11
151.658583
 21
-158.97225
 31
0.0
  0
LINE
  8
1
  6
CONTINUOUS
 62
     1
  5
1E9
 10
157.178583
 20
-158.97225
 30
0.0
 11
165.106083
 21
-158.97225
 31
0.0
  0
LINE
  8
1
  6
CONTINUOUS
 62
     7
  5
1EA
 10
166.231083
 20
-107.13225
 30
0.0
 11
157.793583
 21
-107.13225
 31
0.0
  0
LINE
  8
1
  6
CONTINUOUS
 62
     7
  5
1EB
 10
151.043583
 20
-107.13225
 30
0.0
 11
148.231083
 21
-107.13225
 31
0.0
  0
LINE
  8
1
  6
CONTINUOUS
 62
     7
  5
1EC
 10
154.418583
 20
-97.00725
 30
0.0
 11
154.418583
 21
-103.75725
 31
0.0
  0
LINE
  8
1
  6
CONTINUOUS
 62
     7
  5
1ED
 10
154.418583
 20
-110.50725
 30
0.0
 11
154.418583
 21
-136.47225
 31
0.0
  0
LINE
  8
1
  6
CONTINUOUS
 62
     7
  5
1EE
 10
154.418583
 20
-143.22225
 30
0.0
 11
154.418583
 21
-149.97225
 31
0.0
  0
LINE
  8
1
  6
CONTINUOUS
 62
     7
  5
1EF
 10
166.231083
 20
-139.84725
 30
0.0
 11
157.793583
 21
-139.84725
 31
0.0
  0
LINE
  8
1
  6
CONTINUOUS
 62
     7
  5
1F0
 10
151.043583
 20
-139.84725
 30
0.0
 11
148.231083
 21
-139.84725
 31
0.0
  0
LINE
  8
1
  6
CONTINUOUS
 62
     7
  5
1F1
 10
153.293583
 20
-107.13225
 30
0.0
 11
155.543583
 21
-107.13225
 31
0.0
  0
LINE
  8
1
  6
CONTINUOUS
 62
     7
  5
1F2
 10
154.418583
 20
-106.00725
 30
0.0
 11
154.418583
 21
-108.25725
 31
0.0
  0
LINE
  8
1
  6
CONTINUOUS
 62
     7
  5
1F3
 10
154.418583
 20
-138.72225
 30
0.0
 11
154.418583
 21
-140.97225
 31
0.0
  0
LINE
  8
1
  6
CONTINUOUS
 62
     7
  5
1F4
 10
153.293583
 20
-139.84725
 30
0.0
 11
155.543583
 21
-139.84725
 31
0.0
  0
CIRCLE
  8
1
  6
HIDDEN
 62
     1
  5
1F5
 10
154.418542
 20
-107.132146
 30
0.0
 40
2.25
210
0.0
220
0.0
230
1.0
  0
CIRCLE
  8
1
  6
HIDDEN
 62
     1
  5
1F6
 10
154.418542
 20
-139.847146
 30
0.0
 40
2.25
210
0.0
220
0.0
230
1.0
  0
LINE
  8
1
  6
CONTINUOUS
 62
     7
  5
1F7
 10
217.353167
 20
-123.48975
 30
0.0
 11
219.603167
 21
-123.48975
 31
0.0
  0
LINE
  8
1
  6
CONTINUOUS
 62
     7
  5
1F8
 10
220.728167
 20
-123.48975
 30
0.0
 11
230.065667
 21
-123.48975
 31
0.0
  0
LINE
  8
1
  6
CONTINUOUS
 62
     7
  5
1F9
 10
240.617167
 20
-123.48975
 30
0.0
 11
244.981083
 21
-123.48975
 31
0.0
  0
LINE
  8
1
  6
CONTINUOUS
 62
     7
  5
1FA
 10
230.628167
 20
-123.48975
 30
0.0
 11
233.867167
 21
-123.48975
 31
0.0
  0
LINE
  8
1
  6
CONTINUOUS
 62
     7
  5
1FB
 10
236.117167
 20
-123.48975
 30
0.0
 11
238.367167
 21
-123.48975
 31
0.0
  0
CIRCLE
  8
1
  6
CONTINUOUS
 62
     1
  5
1FC
 10
237.242167
 20
-123.489646
 30
0.0
 40
2.25
210
0.0
220
0.0
230
1.0
  0
LINE
  8
1
  6
CONTINUOUS
 62
     7
  5
1FD
 10
237.242167
 20
-122.36475
 30
0.0
 11
237.242167
 21
-124.61475
 31
0.0
  0
LINE
  8
1
  6
CONTINUOUS
 62
     7
  5
1FE
 10
237.242167
 20
-120.11475
 30
0.0
 11
237.242167
 21
-115.00725
 31
0.0
  0
LINE
  8
1
  6
CONTINUOUS
 62
     7
  5
1FF
 10
237.242167
 20
-126.86475
 30
0.0
 11
237.242167
 21
-131.97225
 31
0.0
  0
LINE
  8
1
  6
CONTINUOUS
 62
     1
  5
200
 10
372.997333
 20
0.155917
 30
0.0
 11
371.842333
 21
13.356167
 31
0.0
  0
LINE
  8
1
  6
CONTINUOUS
 62
     1
  5
201
 10
375.4695
 20
-1.7695
 30
0.0
 11
374.12875
 21
13.556167
 31
0.0
  0
LINE
  8
1
  6
CONTINUOUS
 62
     1
  5
202
 10
395.13375
 20
0.15575
 30
0.0
 11
396.288583
 21
13.356167
 31
0.0
  0
LINE
  8
1
  6
CONTINUOUS
 62
     1
  5
203
 10
392.661333
 20
-1.7695
 30
0.0
 11
394.002333
 21
13.556167
 31
0.0
  0
LINE
  8
1
  6
CONTINUOUS
 62
     1
  5
204
 10
371.842333
 20
13.356167
 30
0.0
 11
374.12875
 21
13.556167
 31
0.0
  0
LINE
  8
1
  6
CONTINUOUS
 62
     1
  5
205
 10
394.002333
 20
13.556167
 30
0.0
 11
396.288583
 21
13.356167
 31
0.0
  0
ARC
  8
1
  6
CONTINUOUS
 62
     1
  5
206
 10
384.065396
 20
-24.803458
 30
0.0
 40
23.028836
 50
115.386097
 51
243.691022
210
0.0
220
0.0
230
1.0
  0
ARC
  8
1
  6
CONTINUOUS
 62
     1
  5
207
 10
384.065396
 20
-24.803458
 30
0.0
 40
25.863386
 50
118.256781
 51
241.304261
210
0.0
220
0.0
230
1.0
  0
ARC
  8
1
  6
CONTINUOUS
 62
     1
  5
208
 10
370.755846
 20
-0.040212
 30
0.0
 40
2.25
 50
298.256781
 51
5.000594
210
0.0
220
0.0
230
1.0
  0
ARC
  8
1
  6
CONTINUOUS
 62
     1
  5
209
 10
397.375115
 20
-0.040303
 30
0.0
 40
2.25
 50
175.000167
 51
241.742828
210
0.0
220
0.0
230
1.0
  0
ARC
  8
1
  6
CONTINUOUS
 62
     1
  5
20A
 10
373.227956
 20
-1.965563
 30
0.0
 40
2.25
 50
295.386097
 51
4.999717
210
0.0
220
0.0
230
1.0
  0
ARC
  8
1
  6
CONTINUOUS
 62
     1
  5
20B
 10
394.902838
 20
-1.965564
 30
0.0
 40
2.25
 50
174.999597
 51
244.613897
210
0.0
220
0.0
230
1.0
  0
LINE
  8
1
  6
CONTINUOUS
 62
     1
  5
20C
 10
368.19175
 20
10.95875
 30
0.0
 11
372.052083
 21
10.95875
 31
0.0
  0
LINE
  8
1
  6
CONTINUOUS
 62
     1
  5
20D
 10
393.574333
 20
8.66375
 30
0.0
 11
374.55675
 21
8.66375
 31
0.0
  0
LINE
  8
1
  6
CONTINUOUS
 62
     1
  5
20E
 10
385.29175
 20
5.24375
 30
0.0
 11
385.29175
 21
8.66375
 31
0.0
  0
LINE
  8
1
  6
CONTINUOUS
 62
     1
  5
20F
 10
387.85675
 20
5.24375
 30
0.0
 11
387.85675
 21
8.66375
 31
0.0
  0
LINE
  8
1
  6
CONTINUOUS
 62
     1
  5
210
 10
390.46675
 20
5.24375
 30
0.0
 11
390.46675
 21
8.66375
 31
0.0
  0
LINE
  8
1
  6
CONTINUOUS
 62
     1
  5
211
 10
386.55175
 20
5.80625
 30
0.0
 11
386.55175
 21
8.10125
 31
0.0
  0
LINE
  8
1
  6
CONTINUOUS
 62
     1
  5
212
 10
389.16175
 20
5.80625
 30
0.0
 11
389.16175
 21
8.10125
 31
0.0
  0
LINE
  8
1
  6
CONTINUOUS
 62
     1
  5
213
 10
391.77175
 20
5.80625
 30
0.0
 11
391.77175
 21
8.10125
 31
0.0
  0
LINE
  8
1
  6
CONTINUOUS
 62
     1
  5
214
 10
393.275083
 20
5.24375
 30
0.0
 11
374.856
 21
5.24375
 31
0.0
  0
LINE
  8
1
  6
CONTINUOUS
 62
     1
  5
215
 10
399.87175
 20
10.91375
 30
0.0
 11
396.074833
 21
10.91375
 31
0.0
  0
LINE
  8
1
  6
CONTINUOUS
 62
     1
  5
216
 10
399.87175
 20
2.94875
 30
0.0
 11
395.378083
 21
2.94875
 31
0.0
  0
LINE
  8
1
  6
CONTINUOUS
 62
     1
  5
217
 10
399.87175
 20
10.91375
 30
0.0
 11
399.87175
 21
2.94875
 31
0.0
  0
LINE
  8
1
  6
CONTINUOUS
 62
     1
  5
218
 10
403.38175
 20
8.66375
 30
0.0
 11
399.87175
 21
8.66375
 31
0.0
  0
LINE
  8
1
  6
CONTINUOUS
 62
     1
  5
219
 10
399.87175
 20
8.66375
 30
0.0
 11
395.878083
 21
8.66375
 31
0.0
  0
LINE
  8
1
  6
CONTINUOUS
 62
     1
  5
21A
 10
403.38175
 20
5.24375
 30
0.0
 11
399.87175
 21
5.24375
 31
0.0
  0
LINE
  8
1
  6
CONTINUOUS
 62
     1
  5
21B
 10
399.87175
 20
5.24375
 30
0.0
 11
395.578833
 21
5.24375
 31
0.0
  0
LINE
  8
1
  6
CONTINUOUS
 62
     1
  5
21C
 10
403.38175
 20
5.24375
 30
0.0
 11
403.38175
 21
8.66375
 31
0.0
  0
LINE
  8
1
  6
CONTINUOUS
 62
     1
  5
21D
 10
368.19175
 20
5.24375
 30
0.0
 11
372.55225
 21
5.24375
 31
0.0
  0
LINE
  8
1
  6
CONTINUOUS
 62
     1
  5
21E
 10
368.19175
 20
10.95875
 30
0.0
 11
368.19175
 21
2.99375
 31
0.0
  0
LINE
  8
1
  6
CONTINUOUS
 62
     1
  5
21F
 10
368.19175
 20
2.99375
 30
0.0
 11
372.749083
 21
2.99375
 31
0.0
  0
LINE
  8
1
  6
CONTINUOUS
 62
     1
  5
220
 10
368.19175
 20
8.66375
 30
0.0
 11
372.253
 21
8.66375
 31
0.0
  0
LINE
  8
1
  6
CONTINUOUS
 62
     1
  5
221
 10
401.606833
 20
5.80625
 30
0.0
 11
401.606833
 21
8.10125
 31
0.0
  0
LINE
  8
1
  6
CONTINUOUS
 62
     7
  5
222
 10
365.94175
 20
6.97625
 30
0.0
 11
383.53675
 21
6.97625
 31
0.0
  0
LINE
  8
1
  6
CONTINUOUS
 62
     7
  5
223
 10
388.03675
 20
6.97625
 30
0.0
 11
405.63175
 21
6.97625
 31
0.0
  0
LINE
  8
1
  6
CONTINUOUS
 62
     7
  5
224
 10
384.66175
 20
6.97625
 30
0.0
 11
386.91175
 21
6.97625
 31
0.0
  0
LINE
  8
1
  6
CONTINUOUS
 62
     1
  5
225
 10
390.241083
 20
-110.939083
 30
0.0
 11
372.241083
 21
-110.939083
 31
0.0
  0
LINE
  8
1
  6
CONTINUOUS
 62
     1
  5
226
 10
382.501083
 20
-114.359083
 30
0.0
 11
382.501083
 21
-110.939083
 31
0.0
  0
LINE
  8
1
  6
CONTINUOUS
 62
     1
  5
227
 10
385.066083
 20
-114.359083
 30
0.0
 11
385.066083
 21
-110.939083
 31
0.0
  0
LINE
  8
1
  6
CONTINUOUS
 62
     1
  5
228
 10
387.676083
 20
-114.359083
 30
0.0
 11
387.676083
 21
-110.939083
 31
0.0
  0
LINE
  8
1
  6
CONTINUOUS
 62
     1
  5
229
 10
383.761083
 20
-113.796583
 30
0.0
 11
383.761083
 21
-111.501583
 31
0.0
  0
LINE
  8
1
  6
CONTINUOUS
 62
     1
  5
22A
 10
386.371083
 20
-113.796583
 30
0.0
 11
386.371083
 21
-111.501583
 31
0.0
  0
LINE
  8
1
  6
CONTINUOUS
 62
     1
  5
22B
 10
388.981083
 20
-113.796583
 30
0.0
 11
388.981083
 21
-111.501583
 31
0.0
  0
LINE
  8
1
  6
CONTINUOUS
 62
     1
  5
22C
 10
390.241083
 20
-114.359083
 30
0.0
 11
372.241083
 21
-114.359083
 31
0.0
  0
LINE
  8
1
  6
CONTINUOUS
 62
     1
  5
22D
 10
397.081083
 20
-108.689083
 30
0.0
 11
392.536083
 21
-108.689083
 31
0.0
  0
LINE
  8
1
  6
CONTINUOUS
 62
     1
  5
22E
 10
397.081083
 20
-116.654083
 30
0.0
 11
392.536083
 21
-116.654083
 31
0.0
  0
LINE
  8
1
  6
CONTINUOUS
 62
     1
  5
22F
 10
397.081083
 20
-108.689083
 30
0.0
 11
397.081083
 21
-116.654083
 31
0.0
  0
LINE
  8
1
  6
CONTINUOUS
 62
     1
  5
230
 10
400.591083
 20
-110.939083
 30
0.0
 11
397.081083
 21
-110.939083
 31
0.0
  0
LINE
  8
1
  6
CONTINUOUS
 62
     1
  5
231
 10
397.081083
 20
-110.939083
 30
0.0
 11
392.536083
 21
-110.939083
 31
0.0
  0
LINE
  8
1
  6
CONTINUOUS
 62
     1
  5
232
 10
400.591083
 20
-114.359083
 30
0.0
 11
397.081083
 21
-114.359083
 31
0.0
  0
LINE
  8
1
  6
CONTINUOUS
 62
     1
  5
233
 10
397.081083
 20
-114.359083
 30
0.0
 11
392.536083
 21
-114.359083
 31
0.0
  0
LINE
  8
1
  6
CONTINUOUS
 62
     1
  5
234
 10
400.591083
 20
-114.359083
 30
0.0
 11
400.591083
 21
-110.939083
 31
0.0
  0
LINE
  8
1
  6
CONTINUOUS
 62
     1
  5
235
 10
365.401083
 20
-114.359083
 30
0.0
 11
369.946083
 21
-114.359083
 31
0.0
  0
LINE
  8
1
  6
CONTINUOUS
 62
     1
  5
236
 10
365.401083
 20
-108.644083
 30
0.0
 11
365.401083
 21
-116.609083
 31
0.0
  0
LINE
  8
1
  6
CONTINUOUS
 62
     1
  5
237
 10
365.401083
 20
-108.644083
 30
0.0
 11
369.946083
 21
-108.644083
 31
0.0
  0
LINE
  8
1
  6
CONTINUOUS
 62
     1
  5
238
 10
365.401083
 20
-116.609083
 30
0.0
 11
369.946083
 21
-116.609083
 31
0.0
  0
LINE
  8
1
  6
CONTINUOUS
 62
     1
  5
239
 10
365.401083
 20
-110.939083
 30
0.0
 11
369.946083
 21
-110.939083
 31
0.0
  0
LINE
  8
1
  6
CONTINUOUS
 62
     1
  5
23A
 10
398.81625
 20
-113.796583
 30
0.0
 11
398.81625
 21
-111.501583
 31
0.0
  0
LINE
  8
1
  6
CONTINUOUS
 62
     1
  5
23B
 10
359.875083
 20
-112.626583
 30
0.0
 11
380.66625
 21
-112.626583
 31
0.0
  0
LINE
  8
1
  6
CONTINUOUS
 62
     1
  5
23C
 10
381.79125
 20
-112.626583
 30
0.0
 11
384.04125
 21
-112.626583
 31
0.0
  0
LINE
  8
1
  6
CONTINUOUS
 62
     1
  5
23D
 10
385.16625
 20
-112.626583
 30
0.0
 11
401.716083
 21
-112.626583
 31
0.0
  0
LINE
  8
1
  6
CONTINUOUS
 62
     1
  5
23E
 10
369.946083
 20
-104.144083
 30
0.0
 11
369.946083
 21
-121.109083
 31
0.0
  0
LINE
  8
1
  6
CONTINUOUS
 62
     1
  5
23F
 10
372.241083
 20
-104.144083
 30
0.0
 11
372.241083
 21
-121.109083
 31
0.0
  0
LINE
  8
1
  6
CONTINUOUS
 62
     1
  5
240
 10
390.241083
 20
-104.144083
 30
0.0
 11
390.241083
 21
-121.109083
 31
0.0
  0
LINE
  8
1
  6
CONTINUOUS
 62
     1
  5
241
 10
392.536083
 20
-104.144083
 30
0.0
 11
392.536083
 21
-121.109083
 31
0.0
  0
LINE
  8
1
  6
CONTINUOUS
 62
     1
  5
242
 10
355.366083
 20
-104.144083
 30
0.0
 11
355.366083
 21
-121.109083
 31
0.0
  0
LINE
  8
1
  6
CONTINUOUS
 62
     1
  5
243
 10
355.366083
 20
-104.144083
 30
0.0
 11
374.491083
 21
-104.144083
 31
0.0
  0
LINE
  8
1
  6
CONTINUOUS
 62
     1
  5
244
 10
355.366083
 20
-121.109083
 30
0.0
 11
374.491083
 21
-121.109083
 31
0.0
  0
LINE
  8
1
  6
CONTINUOUS
 62
     1
  5
245
 10
408.241083
 20
-104.144083
 30
0.0
 11
408.241083
 21
-121.109083
 31
0.0
  0
LINE
  8
1
  6
HIDDEN
 62
     1
  5
246
 10
357.616083
 20
-104.144083
 30
0.0
 11
357.616083
 21
-121.109083
 31
0.0
  0
LINE
  8
1
  6
HIDDEN
 62
     1
  5
247
 10
412.741083
 20
-104.144083
 30
0.0
 11
412.741083
 21
-121.109083
 31
0.0
  0
LINE
  8
1
  6
CONTINUOUS
 62
     1
  5
248
 10
374.491083
 20
-104.144083
 30
0.0
 11
374.491083
 21
-110.939083
 31
0.0
  0
LINE
  8
1
  6
CONTINUOUS
 62
     1
  5
249
 10
374.491083
 20
-114.359083
 30
0.0
 11
374.491083
 21
-121.109083
 31
0.0
  0
LINE
  8
1
  6
CONTINUOUS
 62
     1
  5
24A
 10
402.841083
 20
-112.626583
 30
0.0
 11
405.091083
 21
-112.626583
 31
0.0
  0
LINE
  8
1
  6
CONTINUOUS
 62
     1
  5
24B
 10
406.216083
 20
-112.626583
 30
0.0
 11
410.377083
 21
-112.626583
 31
0.0
  0
LINE
  8
1
  6
CONTINUOUS
 62
     1
  5
24C
 10
392.941333
 20
-54.689
 30
0.0
 11
374.52225
 21
-54.689
 31
0.0
  0
LINE
  8
1
  6
CONTINUOUS
 62
     1
  5
24D
 10
372.663583
 20
-49.601083
 30
0.0
 11
371.508583
 21
-62.801333
 31
0.0
  0
LINE
  8
1
  6
CONTINUOUS
 62
     1
  5
24E
 10
375.13575
 20
-47.67575
 30
0.0
 11
373.795
 21
-63.001333
 31
0.0
  0
LINE
  8
1
  6
CONTINUOUS
 62
     1
  5
24F
 10
394.828333
 20
-49.924583
 30
0.0
 11
395.954833
 21
-62.801333
 31
0.0
  0
LINE
  8
1
  6
CONTINUOUS
 62
     1
  5
250
 10
392.35425
 20
-47.98075
 30
0.0
 11
393.668583
 21
-63.001333
 31
0.0
  0
LINE
  8
1
  6
CONTINUOUS
 62
     1
  5
251
 10
371.508583
 20
-62.801333
 30
0.0
 11
373.795
 21
-63.001333
 31
0.0
  0
LINE
  8
1
  6
CONTINUOUS
 62
     1
  5
252
 10
393.668583
 20
-63.001333
 30
0.0
 11
395.954833
 21
-62.801333
 31
0.0
  0
ARC
  8
1
  6
CONTINUOUS
 62
     1
  5
253
 10
370.422096
 20
-49.404892
 30
0.0
 40
2.25
 50
354.999406
 51
61.743219
210
0.0
220
0.0
230
1.0
  0
ARC
  8
1
  6
CONTINUOUS
 62
     1
  5
254
 10
372.894206
 20
-47.479541
 30
0.0
 40
2.25
 50
355.000283
 51
64.613903
210
0.0
220
0.0
230
1.0
  0
LINE
  8
1
  6
CONTINUOUS
 62
     1
  5
255
 10
367.858
 20
-60.404
 30
0.0
 11
371.718333
 21
-60.404
 31
0.0
  0
LINE
  8
1
  6
CONTINUOUS
 62
     1
  5
256
 10
393.240583
 20
-58.109
 30
0.0
 11
374.223
 21
-58.109
 31
0.0
  0
LINE
  8
1
  6
CONTINUOUS
 62
     1
  5
257
 10
384.958
 20
-54.689
 30
0.0
 11
384.958
 21
-58.109
 31
0.0
  0
LINE
  8
1
  6
CONTINUOUS
 62
     1
  5
258
 10
387.523
 20
-54.689
 30
0.0
 11
387.523
 21
-58.109
 31
0.0
  0
LINE
  8
1
  6
CONTINUOUS
 62
     1
  5
259
 10
390.133
 20
-54.689
 30
0.0
 11
390.133
 21
-58.109
 31
0.0
  0
LINE
  8
1
  6
CONTINUOUS
 62
     1
  5
25A
 10
386.218
 20
-55.2515
 30
0.0
 11
386.218
 21
-57.5465
 31
0.0
  0
LINE
  8
1
  6
CONTINUOUS
 62
     1
  5
25B
 10
388.828
 20
-55.2515
 30
0.0
 11
388.828
 21
-57.5465
 31
0.0
  0
LINE
  8
1
  6
CONTINUOUS
 62
     1
  5
25C
 10
391.438
 20
-55.2515
 30
0.0
 11
391.438
 21
-57.5465
 31
0.0
  0
LINE
  8
1
  6
CONTINUOUS
 62
     1
  5
25D
 10
399.538
 20
-60.359
 30
0.0
 11
395.741083
 21
-60.359
 31
0.0
  0
LINE
  8
1
  6
CONTINUOUS
 62
     1
  5
25E
 10
399.538
 20
-52.394
 30
0.0
 11
395.044333
 21
-52.394
 31
0.0
  0
LINE
  8
1
  6
CONTINUOUS
 62
     1
  5
25F
 10
399.538
 20
-60.359
 30
0.0
 11
399.538
 21
-52.394
 31
0.0
  0
LINE
  8
1
  6
CONTINUOUS
 62
     1
  5
260
 10
403.048
 20
-58.109
 30
0.0
 11
399.538
 21
-58.109
 31
0.0
  0
LINE
  8
1
  6
CONTINUOUS
 62
     1
  5
261
 10
399.538
 20
-58.109
 30
0.0
 11
395.544333
 21
-58.109
 31
0.0
  0
LINE
  8
1
  6
CONTINUOUS
 62
     1
  5
262
 10
403.048
 20
-54.689
 30
0.0
 11
399.538
 21
-54.689
 31
0.0
  0
LINE
  8
1
  6
CONTINUOUS
 62
     1
  5
263
 10
399.538
 20
-54.689
 30
0.0
 11
395.245083
 21
-54.689
 31
0.0
  0
LINE
  8
1
  6
CONTINUOUS
 62
     1
  5
264
 10
403.048
 20
-54.689
 30
0.0
 11
403.048
 21
-58.109
 31
0.0
  0
LINE
  8
1
  6
CONTINUOUS
 62
     1
  5
265
 10
367.858
 20
-54.689
 30
0.0
 11
372.2185
 21
-54.689
 31
0.0
  0
LINE
  8
1
  6
CONTINUOUS
 62
     1
  5
266
 10
367.858
 20
-60.404
 30
0.0
 11
367.858
 21
-52.439
 31
0.0
  0
LINE
  8
1
  6
CONTINUOUS
 62
     1
  5
267
 10
367.858
 20
-52.439
 30
0.0
 11
372.415333
 21
-52.439
 31
0.0
  0
LINE
  8
1
  6
CONTINUOUS
 62
     1
  5
268
 10
367.858
 20
-58.109
 30
0.0
 11
371.91925
 21
-58.109
 31
0.0
  0
LINE
  8
1
  6
CONTINUOUS
 62
     1
  5
269
 10
401.273083
 20
-55.2515
 30
0.0
 11
401.273083
 21
-57.5465
 31
0.0
  0
LINE
  8
1
  6
CONTINUOUS
 62
     7
  5
26A
 10
365.608
 20
-56.4215
 30
0.0
 11
383.203
 21
-56.4215
 31
0.0
  0
LINE
  8
1
  6
CONTINUOUS
 62
     7
  5
26B
 10
387.703
 20
-56.4215
 30
0.0
 11
405.298
 21
-56.4215
 31
0.0
  0
LINE
  8
1
  6
CONTINUOUS
 62
     7
  5
26C
 10
384.328
 20
-56.4215
 30
0.0
 11
386.578
 21
-56.4215
 31
0.0
  0
ARC
  8
1
  6
CONTINUOUS
 62
     1
  5
26D
 10
394.595712
 20
-47.784581
 30
0.0
 40
2.25
 50
114.618006
 51
185.000653
210
0.0
220
0.0
230
1.0
  0
ARC
  8
1
  6
CONTINUOUS
 62
     1
  5
26E
 10
397.069703
 20
-49.728355
 30
0.0
 40
2.25
 50
117.552833
 51
184.999694
210
0.0
220
0.0
230
1.0
  0
ARC
  8
1
  6
CONTINUOUS
 62
     1
  5
26F
 10
384.065396
 20
-24.803458
 30
0.0
 40
25.863386
 50
297.552833
 51
328.845989
210
0.0
220
0.0
230
1.0
  0
ARC
  8
1
  6
CONTINUOUS
 62
     1
  5
270
 10
384.065396
 20
-24.803458
 30
0.0
 40
25.863386
 50
31.539708
 51
61.742828
210
0.0
220
0.0
230
1.0
  0
ARC
  8
1
  6
CONTINUOUS
 62
     1
  5
271
 10
408.124263
 20
-39.347646
 30
0.0
 40
2.25
 50
90.0
 51
148.845989
210
0.0
220
0.0
230
1.0
  0
ARC
  8
1
  6
CONTINUOUS
 62
     1
  5
272
 10
408.025813
 20
-10.097646
 30
0.0
 40
2.25
 50
211.539708
 51
270.0
210
0.0
220
0.0
230
1.0
  0
LINE
  8
1
  6
CONTINUOUS
 62
     1
  5
273
 10
406.062583
 20
-14.59775
 30
0.0
 11
412.178583
 21
-14.59775
 31
0.0
  0
LINE
  8
1
  6
CONTINUOUS
 62
     1
  5
274
 10
412.178583
 20
-14.59775
 30
0.0
 11
412.178583
 21
-34.84775
 31
0.0
  0
LINE
  8
1
  6
CONTINUOUS
 62
     1
  5
275
 10
406.153333
 20
-34.84775
 30
0.0
 11
412.178583
 21
-34.84775
 31
0.0
  0
ARC
  8
1
  6
CONTINUOUS
 62
     1
  5
276
 10
384.065396
 20
-24.803458
 30
0.0
 40
23.028836
 50
294.618006
 51
330.899494
210
0.0
220
0.0
230
1.0
  0
ARC
  8
1
  6
CONTINUOUS
 62
     1
  5
277
 10
384.065396
 20
-24.803458
 30
0.0
 40
23.028836
 50
29.520622
 51
64.613897
210
0.0
220
0.0
230
1.0
  0
ARC
  8
1
  6
CONTINUOUS
 62
     1
  5
278
 10
406.153232
 20
-37.097646
 30
0.0
 40
2.25
 50
90.0
 51
150.899494
210
0.0
220
0.0
230
1.0
  0
ARC
  8
1
  6
CONTINUOUS
 62
     1
  5
279
 10
406.062493
 20
-12.347646
 30
0.0
 40
2.25
 50
209.520622
 51
270.0
210
0.0
220
0.0
230
1.0
  0
LINE
  8
1
  6
CONTINUOUS
 62
     1
  5
27A
 10
427.928583
 20
-1.09775
 30
0.0
 11
427.928583
 21
-48.34775
 31
0.0
  0
LINE
  8
1
  6
CONTINUOUS
 62
     1
  5
27B
 10
414.428583
 20
-48.34775
 30
0.0
 11
427.928583
 21
-48.34775
 31
0.0
  0
LINE
  8
1
  6
HIDDEN
 62
     1
  5
27C
 10
416.678583
 20
-1.09775
 30
0.0
 11
416.678583
 21
-48.34775
 31
0.0
  0
LINE
  8
1
  6
CONTINUOUS
 62
     1
  5
27D
 10
414.428583
 20
-1.09775
 30
0.0
 11
416.678583
 21
-1.09775
 31
0.0
  0
LINE
  8
1
  6
CONTINUOUS
 62
     1
  5
27E
 10
416.678583
 20
-1.09775
 30
0.0
 11
427.928583
 21
-1.09775
 31
0.0
  0
LINE
  8
1
  6
CONTINUOUS
 62
     7
  5
27F
 10
425.678583
 20
-5.59775
 30
0.0
 11
443.678583
 21
-5.59775
 31
0.0
  0
LINE
  8
1
  6
CONTINUOUS
 62
     7
  5
280
 10
425.678583
 20
-43.84775
 30
0.0
 11
443.678583
 21
-43.84775
 31
0.0
  0
CIRCLE
  8
1
  6
CONTINUOUS
 62
     1
  5
281
 10
422.303583
 20
-5.597646
 30
0.0
 40
2.25
210
0.0
220
0.0
230
1.0
  0
LINE
  8
1
  6
CONTINUOUS
 62
     7
  5
282
 10
421.178583
 20
-5.59775
 30
0.0
 11
423.428583
 21
-5.59775
 31
0.0
  0
LINE
  8
1
  6
CONTINUOUS
 62
     7
  5
283
 10
422.303583
 20
-4.47275
 30
0.0
 11
422.303583
 21
-6.72275
 31
0.0
  0
CIRCLE
  8
1
  6
CONTINUOUS
 62
     1
  5
284
 10
422.303583
 20
-43.847646
 30
0.0
 40
2.25
210
0.0
220
0.0
230
1.0
  0
LINE
  8
1
  6
CONTINUOUS
 62
     7
  5
285
 10
421.178583
 20
-43.84775
 30
0.0
 11
423.428583
 21
-43.84775
 31
0.0
  0
LINE
  8
1
  6
CONTINUOUS
 62
     7
  5
286
 10
422.303583
 20
-42.72275
 30
0.0
 11
422.303583
 21
-44.97275
 31
0.0
  0
LINE
  8
1
  6
CONTINUOUS
 62
     7
  5
287
 10
418.928583
 20
-5.59775
 30
0.0
 11
407.629
 21
-5.59775
 31
0.0
  0
LINE
  8
1
  6
CONTINUOUS
 62
     7
  5
288
 10
418.928583
 20
-43.84775
 30
0.0
 11
410.683
 21
-43.84775
 31
0.0
  0
LINE
  8
1
  6
CONTINUOUS
 62
     7
  5
289
 10
422.303583
 20
5.65225
 30
0.0
 11
422.303583
 21
-2.22275
 31
0.0
  0
LINE
  8
1
  6
CONTINUOUS
 62
     7
  5
28A
 10
422.303583
 20
-47.22275
 30
0.0
 11
422.303583
 21
-55.09775
 31
0.0
  0
LINE
  8
1
  6
CONTINUOUS
 62
     7
  5
28B
 10
422.303583
 20
-8.97275
 30
0.0
 11
422.303583
 21
-13.47275
 31
0.0
  0
LINE
  8
1
  6
CONTINUOUS
 62
     7
  5
28C
 10
422.303583
 20
-14.59775
 30
0.0
 11
422.303583
 21
-16.84775
 31
0.0
  0
LINE
  8
1
  6
CONTINUOUS
 62
     7
  5
28D
 10
422.303583
 20
-17.97275
 30
0.0
 11
422.303583
 21
-31.47275
 31
0.0
  0
LINE
  8
1
  6
CONTINUOUS
 62
     7
  5
28E
 10
422.303583
 20
-32.59775
 30
0.0
 11
422.303583
 21
-34.84775
 31
0.0
  0
LINE
  8
1
  6
CONTINUOUS
 62
     7
  5
28F
 10
422.303583
 20
-35.97275
 30
0.0
 11
422.303583
 21
-40.47275
 31
0.0
  0
LINE
  8
1
  6
CONTINUOUS
 62
     1
  5
290
 10
387.991083
 20
-104.144083
 30
0.0
 11
387.991083
 21
-110.939083
 31
0.0
  0
LINE
  8
1
  6
CONTINUOUS
 62
     1
  5
291
 10
387.991083
 20
-114.359083
 30
0.0
 11
387.991083
 21
-121.109083
 31
0.0
  0
LINE
  8
1
  6
CONTINUOUS
 62
     1
  5
292
 10
414.991083
 20
-97.394083
 30
0.0
 11
425.678583
 21
-97.394083
 31
0.0
  0
LINE
  8
1
  6
CONTINUOUS
 62
     1
  5
293
 10
425.678583
 20
-97.394083
 30
0.0
 11
425.678583
 21
-91.769083
 31
0.0
  0
LINE
  8
1
  6
CONTINUOUS
 62
     1
  5
294
 10
425.678583
 20
-91.769083
 30
0.0
 11
427.928583
 21
-91.769083
 31
0.0
  0
LINE
  8
1
  6
HIDDEN
 62
     1
  5
295
 10
427.928583
 20
-109.769083
 30
0.0
 11
425.678583
 21
-109.769083
 31
0.0
  0
LINE
  8
1
  6
HIDDEN
 62
     1
  5
296
 10
425.678583
 20
-109.769083
 30
0.0
 11
425.678583
 21
-105.269083
 31
0.0
  0
LINE
  8
1
  6
CONTINUOUS
 62
     1
  5
297
 10
414.991083
 20
-123.359083
 30
0.0
 11
417.241083
 21
-123.359083
 31
0.0
  0
LINE
  8
1
  6
CONTINUOUS
 62
     1
  5
298
 10
417.241083
 20
-123.359083
 30
0.0
 11
417.241083
 21
-101.894083
 31
0.0
  0
LINE
  8
1
  6
HIDDEN
 62
     1
  5
299
 10
417.241083
 20
-105.269083
 30
0.0
 11
425.678583
 21
-105.269083
 31
0.0
  0
LINE
  8
1
  6
CONTINUOUS
 62
     1
  5
29A
 10
414.991083
 20
-99.644083
 30
0.0
 11
427.928583
 21
-99.644083
 31
0.0
  0
LINE
  8
1
  6
CONTINUOUS
 62
     1
  5
29B
 10
417.241083
 20
-101.894083
 30
0.0
 11
427.928583
 21
-101.894083
 31
0.0
  0
LINE
  8
1
  6
CONTINUOUS
 62
     1
  5
29C
 10
427.928583
 20
-91.769083
 30
0.0
 11
427.928583
 21
-101.894083
 31
0.0
  0
LINE
  8
1
  6
HIDDEN
 62
     1
  5
29D
 10
427.928583
 20
-101.894083
 30
0.0
 11
427.928583
 21
-109.769083
 31
0.0
  0
LINE
  8
1
  6
CONTINUOUS
 62
     1
  5
29E
 10
387.991083
 20
-121.109083
 30
0.0
 11
414.991083
 21
-121.109083
 31
0.0
  0
POLYLINE
  8
1
  6
CONTINUOUS
 62
     1
  5
29F
 66
     1
 10
0.0
 20
0.0
 30
0.0
 70
     1
  0
VERTEX
  8
1
  6
CONTINUOUS
 62
     1
  5
2A0
 10
414.991083
 20
-121.109083
 30
0.0
  0
VERTEX
  8
1
  6
CONTINUOUS
 62
     1
  5
2A1
 10
412.741083
 20
-121.109083
 30
0.0
  0
VERTEX
  8
1
  6
CONTINUOUS
 62
     1
  5
2A2
 10
414.991083
 20
-123.359083
 30
0.0
  0
VERTEX
  8
1
  6
CONTINUOUS
 62
     1
  5
2A3
 10
414.991083
 20
-121.109083
 30
0.0
  0
SEQEND
  8
1
  6
CONTINUOUS
 62
     1
  5
2A4
  0
LINE
  8
1
  6
CONTINUOUS
 62
     1
  5
2A5
 10
387.991083
 20
-104.144083
 30
0.0
 11
414.991083
 21
-104.144083
 31
0.0
  0
LINE
  8
1
  6
CONTINUOUS
 62
     1
  5
2A6
 10
414.991083
 20
-104.144083
 30
0.0
 11
414.991083
 21
-123.359083
 31
0.0
  0
LINE
  8
1
  6
CONTINUOUS
 62
     1
  5
2A7
 10
414.991083
 20
-97.394083
 30
0.0
 11
414.991083
 21
-104.144083
 31
0.0
  0
POLYLINE
  8
1
  6
CONTINUOUS
 62
     1
  5
2A8
 66
     1
 10
0.0
 20
0.0
 30
0.0
 70
     1
  0
VERTEX
  8
1
  6
CONTINUOUS
 62
     1
  5
2A9
 10
414.991083
 20
-101.894083
 30
0.0
  0
VERTEX
  8
1
  6
CONTINUOUS
 62
     1
  5
2AA
 10
412.741083
 20
-104.144083
 30
0.0
  0
VERTEX
  8
1
  6
CONTINUOUS
 62
     1
  5
2AB
 10
414.991083
 20
-104.144083
 30
0.0
  0
VERTEX
  8
1
  6
CONTINUOUS
 62
     1
  5
2AC
 10
414.991083
 20
-101.894083
 30
0.0
  0
SEQEND
  8
1
  6
CONTINUOUS
 62
     1
  5
2AD
  0
ARC
  8
1
  6
CONTINUOUS
 62
     1
  5
2AE
 10
21.370771
 20
-208.346667
 30
0.0
 40
24.218315
 50
108.146297
 51
251.7801
210
0.0
220
0.0
230
1.0
  0
ARC
  8
1
  6
CONTINUOUS
 62
     1
  5
2AF
 10
21.370771
 20
-208.346667
 30
0.0
 40
22.606995
 50
109.488133
 51
251.7801
210
0.0
220
0.0
230
1.0
  0
ARC
  8
1
  6
CONTINUOUS
 62
     1
  5
2B0
 10
21.370771
 20
-208.346667
 30
0.0
 40
22.62611
 50
288.220322
 51
70.511419
210
0.0
220
0.0
230
1.0
  0
ARC
  8
1
  6
CONTINUOUS
 62
     1
  5
2B1
 10
13.310982
 20
-232.872871
 30
0.0
 40
3.209539
 50
328.304744
 51
72.007289
210
0.0
220
0.0
230
1.0
  0
ARC
  8
1
  6
CONTINUOUS
 62
     1
  5
2B2
 10
13.519261
 20
-232.741903
 30
0.0
 40
1.418816
 50
332.857844
 51
78.646022
210
0.0
220
0.0
230
1.0
  0
ARC
  8
1
  6
CONTINUOUS
 62
     1
  5
2B3
 10
29.436747
 20
-232.890871
 30
0.0
 40
3.209539
 50
107.992711
 51
211.695256
210
0.0
220
0.0
230
1.0
  0
ARC
  8
1
  6
CONTINUOUS
 62
     1
  5
2B4
 10
29.228468
 20
-232.759903
 30
0.0
 40
1.418816
 50
101.353978
 51
207.142156
210
0.0
220
0.0
230
1.0
  0
ARC
  8
1
  6
CONTINUOUS
 62
     1
  5
2B5
 10
21.370771
 20
-208.346667
 30
0.0
 40
24.218315
 50
351.989342
 51
71.853281
210
0.0
220
0.0
230
1.0
  0
ARC
  8
1
  6
CONTINUOUS
 62
     1
  5
2B6
 10
21.370771
 20
-208.346667
 30
0.0
 40
24.218315
 50
288.220322
 51
351.989331
210
0.0
220
0.0
230
1.0
  0
POLYLINE
  8
1
  6
CONTINUOUS
 62
     1
  5
2B7
 66
     1
 10
0.0
 20
0.0
 30
0.0
  0
VERTEX
  8
1
  6
CONTINUOUS
 62
     1
  5
2B8
 10
45.352767
 20
-211.721671
 30
0.0
 42
0.07002
  0
VERTEX
  8
1
  6
CONTINUOUS
 62
     1
  5
2B9
 10
45.352767
 20
-204.971663
 30
0.0
  0
VERTEX
  8
1
  6
CONTINUOUS
 62
     1
  5
2BA
 10
45.352767
 20
-204.971663
 30
0.0
 42
-0.10349
  0
VERTEX
  8
1
  6
CONTINUOUS
 62
     1
  5
2BB
 10
46.411946
 20
-206.659171
 30
0.0
  0
VERTEX
  8
1
  6
CONTINUOUS
 62
     1
  5
2BC
 10
46.412
 20
-206.659167
 30
0.0
  0
VERTEX
  8
1
  6
CONTINUOUS
 62
     1
  5
2BD
 10
46.4145
 20
-210.027667
 30
0.0
  0
VERTEX
  8
1
  6
CONTINUOUS
 62
     1
  5
2BE
 10
46.41437
 20
-210.027595
 30
0.0
 42
-0.103854
  0
VERTEX
  8
1
  6
CONTINUOUS
 62
     1
  5
2BF
 10
45.352767
 20
-211.721671
 30
0.0
  0
SEQEND
  8
1
  6
CONTINUOUS
 62
     1
  5
2C0
  0
LINE
  8
1
  6
CONTINUOUS
 62
     1
  5
2C1
 10
46.392083
 20
-206.940417
 30
0.0
 11
57.642083
 21
-206.940417
 31
0.0
  0
LINE
  8
1
  6
CONTINUOUS
 62
     1
  5
2C2
 10
46.392083
 20
-209.752917
 30
0.0
 11
57.642083
 21
-209.752917
 31
0.0
  0
LINE
  8
1
  6
CONTINUOUS
 62
     1
  5
2C3
 10
57.642083
 20
-206.940417
 30
0.0
 11
57.642083
 21
-209.752917
 31
0.0
  0
LINE
  8
1
  6
CONTINUOUS
 62
     1
  5
2C4
 10
55.392083
 20
-206.940417
 30
0.0
 11
55.392083
 21
-214.252917
 31
0.0
  0
LINE
  8
1
  6
CONTINUOUS
 62
     1
  5
2C5
 10
52.579583
 20
-214.252917
 30
0.0
 11
55.392083
 21
-214.252917
 31
0.0
  0
LINE
  8
1
  6
CONTINUOUS
 62
     1
  5
2C6
 10
51.454583
 20
-212.002917
 30
0.0
 11
56.517083
 21
-212.002917
 31
0.0
  0
LINE
  8
1
  6
CONTINUOUS
 62
     1
  5
2C7
 10
51.454583
 20
-212.002917
 30
0.0
 11
51.454583
 21
-209.752917
 31
0.0
  0
LINE
  8
1
  6
CONTINUOUS
 62
     1
  5
2C8
 10
56.517083
 20
-212.002917
 30
0.0
 11
56.517083
 21
-209.752917
 31
0.0
  0
LINE
  8
1
  6
CONTINUOUS
 62
     1
  5
2C9
 10
52.579583
 20
-213.127917
 30
0.0
 11
55.392083
 21
-213.127917
 31
0.0
  0
LINE
  8
1
  6
CONTINUOUS
 62
     1
  5
2CA
 10
53.142083
 20
-212.565417
 30
0.0
 11
54.829583
 21
-212.565417
 31
0.0
  0
LINE
  8
1
  6
CONTINUOUS
 62
     1
  5
2CB
 10
53.142083
 20
-213.690417
 30
0.0
 11
54.829583
 21
-213.690417
 31
0.0
  0
LINE
  8
1
  6
CONTINUOUS
 62
     1
  5
2CC
 10
52.579583
 20
-203.565417
 30
0.0
 11
52.579583
 21
-205.815417
 31
0.0
  0
LINE
  8
1
  6
CONTINUOUS
 62
     1
  5
2CD
 10
52.579583
 20
-206.940417
 30
0.0
 11
52.579583
 21
-214.252917
 31
0.0
  0
LINE
  8
1
  6
CONTINUOUS
 62
     1
  5
2CE
 10
51.454583
 20
-203.565417
 30
0.0
 11
51.454583
 21
-202.440417
 31
0.0
  0
LINE
  8
1
  6
CONTINUOUS
 62
     1
  5
2CF
 10
51.454583
 20
-202.440417
 30
0.0
 11
57.642083
 21
-202.440417
 31
0.0
  0
LINE
  8
1
  6
CONTINUOUS
 62
     1
  5
2D0
 10
57.642083
 20
-202.440417
 30
0.0
 11
57.642083
 21
-203.565417
 31
0.0
  0
LINE
  8
1
  6
CONTINUOUS
 62
     1
  5
2D1
 10
51.454583
 20
-203.565417
 30
0.0
 11
50.329583
 21
-203.565417
 31
0.0
  0
LINE
  8
1
  6
CONTINUOUS
 62
     1
  5
2D2
 10
50.329583
 20
-203.565417
 30
0.0
 11
50.329583
 21
-205.815417
 31
0.0
  0
LINE
  8
1
  6
CONTINUOUS
 62
     1
  5
2D3
 10
55.392083
 20
-205.815417
 30
0.0
 11
55.392083
 21
-202.440417
 31
0.0
  0
LINE
  8
1
  6
HIDDEN
 62
     1
  5
2D4
 10
61.579583
 20
-203.565417
 30
0.0
 11
61.579583
 21
-195.690417
 31
0.0
  0
LINE
  8
1
  6
HIDDEN
 62
     1
  5
2D5
 10
61.579583
 20
-205.815417
 30
0.0
 11
61.579583
 21
-214.815417
 31
0.0
  0
LINE
  8
1
  6
HIDDEN
 62
     1
  5
2D6
 10
64.954583
 20
-195.690417
 30
0.0
 11
64.954583
 21
-214.815417
 31
0.0
  0
LINE
  8
1
  6
HIDDEN
 62
     1
  5
2D7
 10
61.579583
 20
-195.690417
 30
0.0
 11
64.954583
 21
-195.690417
 31
0.0
  0
LINE
  8
1
  6
HIDDEN
 62
     1
  5
2D8
 10
61.579583
 20
-214.815417
 30
0.0
 11
64.954583
 21
-214.815417
 31
0.0
  0
LINE
  8
1
  6
CONTINUOUS
 62
     1
  5
2D9
 10
52.579583
 20
-203.565417
 30
0.0
 11
53.985833
 21
-203.565417
 31
0.0
  0
LINE
  8
1
  6
HIDDEN
 62
     1
  5
2DA
 10
55.392083
 20
-203.565417
 30
0.0
 11
61.579583
 21
-203.565417
 31
0.0
  0
LINE
  8
1
  6
CONTINUOUS
 62
     1
  5
2DB
 10
50.329583
 20
-205.815417
 30
0.0
 11
53.985833
 21
-205.815417
 31
0.0
  0
LINE
  8
1
  6
HIDDEN
 62
     1
  5
2DC
 10
55.392083
 20
-205.815417
 30
0.0
 11
61.579583
 21
-205.815417
 31
0.0
  0
LINE
  8
1
  6
CONTINUOUS
 62
     7
  5
2DD
 10
53.985833
 20
-197.940417
 30
0.0
 11
53.985833
 21
-206.659167
 31
0.0
  0
LINE
  8
1
  6
CONTINUOUS
 62
     7
  5
2DE
 10
53.985833
 20
-207.784167
 30
0.0
 11
53.985833
 21
-208.909167
 31
0.0
  0
LINE
  8
1
  6
CONTINUOUS
 62
     7
  5
2DF
 10
53.985833
 20
-210.034167
 30
0.0
 11
53.985833
 21
-218.752917
 31
0.0
  0
LINE
  8
1
  6
CONTINUOUS
 62
     7
  5
2E0
 10
0.381833
 20
-184.136667
 30
0.0
 11
17.433333
 21
-184.136667
 31
0.0
  0
LINE
  8
1
  6
CONTINUOUS
 62
     7
  5
2E1
 10
18.558333
 20
-184.136667
 30
0.0
 11
19.683333
 21
-184.136667
 31
0.0
  0
LINE
  8
1
  6
CONTINUOUS
 62
     7
  5
2E2
 10
20.808333
 20
-184.136667
 30
0.0
 11
44.6205
 21
-184.136667
 31
0.0
  0
LINE
  8
1
  6
CONTINUOUS
 62
     7
  5
2E3
 10
0.381833
 20
-232.556667
 30
0.0
 11
17.433333
 21
-232.556667
 31
0.0
  0
LINE
  8
1
  6
CONTINUOUS
 62
     7
  5
2E4
 10
18.558333
 20
-232.556667
 30
0.0
 11
19.683333
 21
-232.556667
 31
0.0
  0
LINE
  8
1
  6
CONTINUOUS
 62
     7
  5
2E5
 10
20.808333
 20
-232.556667
 30
0.0
 11
44.6205
 21
-232.556667
 31
0.0
  0
LINE
  8
1
  6
CONTINUOUS
 62
     7
  5
2E6
 10
1.633083
 20
-219.369417
 30
0.0
 11
20.974583
 21
-208.422417
 31
0.0
  0
LINE
  8
1
  6
CONTINUOUS
 62
     7
  5
2E7
 10
11.508
 20
-198.684333
 30
0.0
 11
3.627
 21
-194.338417
 31
0.0
  0
LINE
  8
1
  6
CONTINUOUS
 62
     7
  5
2E8
 10
2.198
 20
-193.550583
 30
0.0
 11
-5.683417
 21
-189.204333
 31
0.0
  0
LINE
  8
1
  6
CONTINUOUS
 62
     1
  5
2E9
 10
45.829583
 20
-286.313667
 30
0.0
 11
30.079583
 21
-286.313667
 31
0.0
  0
LINE
  8
1
  6
CONTINUOUS
 62
     1
  5
2EA
 10
30.079583
 20
-306.563667
 30
0.0
 11
45.829583
 21
-306.563667
 31
0.0
  0
LINE
  8
1
  6
CONTINUOUS
 62
     1
  5
2EB
 10
57.642083
 20
-304.313667
 30
0.0
 11
57.642083
 21
-288.563667
 31
0.0
  0
LINE
  8
1
  6
CONTINUOUS
 62
     1
  5
2EC
 10
48.642083
 20
-288.563667
 30
0.0
 11
57.642083
 21
-288.563667
 31
0.0
  0
LINE
  8
1
  6
CONTINUOUS
 62
     1
  5
2ED
 10
48.642083
 20
-304.313667
 30
0.0
 11
57.642083
 21
-304.313667
 31
0.0
  0
LINE
  8
1
  6
CONTINUOUS
 62
     1
  5
2EE
 10
36.829583
 20
-286.313667
 30
0.0
 11
36.829583
 21
-306.563667
 31
0.0
  0
LINE
  8
1
  6
CONTINUOUS
 62
     7
  5
2EF
 10
44.142083
 20
-296.438667
 30
0.0
 11
65.517083
 21
-296.438667
 31
0.0
  0
CIRCLE
  8
1
  6
CONTINUOUS
 62
     1
  5
2F0
 10
53.704583
 20
-296.438562
 30
0.0
 40
2.25
210
0.0
220
0.0
230
1.0
  0
LINE
  8
1
  6
CONTINUOUS
 62
     7
  5
2F1
 10
53.704583
 20
-291.938667
 30
0.0
 11
53.704583
 21
-300.938667
 31
0.0
  0
LINE
  8
1
  6
CONTINUOUS
 62
     7
  5
2F2
 10
41.892083
 20
-296.438667
 30
0.0
 11
21.079583
 21
-296.438667
 31
0.0
  0
LINE
  8
1
  6
CONTINUOUS
 62
     7
  5
2F3
 10
18.829583
 20
-296.438667
 30
0.0
 11
2.798333
 21
-296.438667
 31
0.0
  0
LINE
  8
1
  6
CONTINUOUS
 62
     7
  5
2F4
 10
-2.826667
 20
-296.438667
 30
0.0
 11
-13.232917
 21
-296.438667
 31
0.0
  0
LINE
  8
1
  6
CONTINUOUS
 62
     1
  5
2F5
 10
39.079583
 20
-292.501167
 30
0.0
 11
36.829583
 21
-292.501167
 31
0.0
  0
LINE
  8
1
  6
CONTINUOUS
 62
     1
  5
2F6
 10
39.079583
 20
-300.376167
 30
0.0
 11
36.829583
 21
-300.376167
 31
0.0
  0
LINE
  8
1
  6
CONTINUOUS
 62
     1
  5
2F7
 10
39.079583
 20
-292.501167
 30
0.0
 11
39.079583
 21
-300.376167
 31
0.0
  0
LINE
  8
1
  6
CONTINUOUS
 62
     1
  5
2F8
 10
41.329583
 20
-294.751167
 30
0.0
 11
36.829583
 21
-294.751167
 31
0.0
  0
LINE
  8
1
  6
CONTINUOUS
 62
     1
  5
2F9
 10
41.329583
 20
-298.126167
 30
0.0
 11
36.829583
 21
-298.126167
 31
0.0
  0
LINE
  8
1
  6
CONTINUOUS
 62
     1
  5
2FA
 10
41.329583
 20
-294.751167
 30
0.0
 11
41.329583
 21
-298.126167
 31
0.0
  0
LINE
  8
1
  6
CONTINUOUS
 62
     1
  5
2FB
 10
40.204583
 20
-295.594917
 30
0.0
 11
40.204583
 21
-297.282417
 31
0.0
  0
LINE
  8
1
  6
CONTINUOUS
 62
     1
  5
2FC
 10
30.079583
 20
-293.626167
 30
0.0
 11
18.267083
 21
-293.626167
 31
0.0
  0
LINE
  8
1
  6
CONTINUOUS
 62
     1
  5
2FD
 10
30.079583
 20
-299.251167
 30
0.0
 11
18.267083
 21
-299.251167
 31
0.0
  0
LINE
  8
1
  6
CONTINUOUS
 62
     1
  5
2FE
 10
18.267083
 20
-286.313667
 30
0.0
 11
18.267083
 21
-293.626167
 31
0.0
  0
LINE
  8
1
  6
CONTINUOUS
 62
     1
  5
2FF
 10
18.267083
 20
-299.251167
 30
0.0
 11
18.267083
 21
-306.563667
 31
0.0
  0
LINE
  8
1
  6
CONTINUOUS
 62
     1
  5
300
 10
30.079583
 20
-286.313667
 30
0.0
 11
30.079583
 21
-293.626167
 31
0.0
  0
LINE
  8
1
  6
CONTINUOUS
 62
     1
  5
301
 10
30.079583
 20
-299.251167
 30
0.0
 11
30.079583
 21
-306.563667
 31
0.0
  0
ARC
  8
1
  6
CONTINUOUS
 62
     1
  5
302
 10
29.295406
 20
-296.438563
 30
0.0
 40
2.919776
 50
285.579456
 51
74.420544
210
0.0
220
0.0
230
1.0
  0
ARC
  8
1
  6
CONTINUOUS
 62
     1
  5
303
 10
19.05126
 20
-296.438563
 30
0.0
 40
2.919776
 50
105.579456
 51
254.420544
210
0.0
220
0.0
230
1.0
  0
LINE
  8
1
  6
CONTINUOUS
 62
     1
  5
304
 10
18.267083
 20
-286.313667
 30
0.0
 11
-4.232917
 21
-286.313667
 31
0.0
  0
LINE
  8
1
  6
CONTINUOUS
 62
     1
  5
305
 10
18.267083
 20
-306.563667
 30
0.0
 11
-4.232917
 21
-306.563667
 31
0.0
  0
LINE
  8
1
  6
CONTINUOUS
 62
     1
  5
306
 10
-4.232917
 20
-286.313667
 30
0.0
 11
-4.232917
 21
-306.563667
 31
0.0
  0
LINE
  8
1
  6
CONTINUOUS
 62
     1
  5
307
 10
7.017083
 20
-286.313667
 30
0.0
 11
7.017083
 21
-306.563667
 31
0.0
  0
LINE
  8
1
  6
CONTINUOUS
 62
     1
  5
308
 10
4.204583
 20
-292.501167
 30
0.0
 11
4.204583
 21
-300.376167
 31
0.0
  0
LINE
  8
1
  6
CONTINUOUS
 62
     1
  5
309
 10
4.204583
 20
-292.501167
 30
0.0
 11
7.017083
 21
-292.501167
 31
0.0
  0
LINE
  8
1
  6
CONTINUOUS
 62
     1
  5
30A
 10
4.204583
 20
-300.376167
 30
0.0
 11
7.017083
 21
-300.376167
 31
0.0
  0
LINE
  8
1
  6
CONTINUOUS
 62
     1
  5
30B
 10
7.017083
 20
-294.751167
 30
0.0
 11
4.204583
 21
-294.751167
 31
0.0
  0
LINE
  8
1
  6
CONTINUOUS
 62
     1
  5
30C
 10
7.017083
 20
-298.126167
 30
0.0
 11
4.204583
 21
-298.126167
 31
0.0
  0
LINE
  8
1
  6
CONTINUOUS
 62
     7
  5
30D
 10
-1.139167
 20
-296.438667
 30
0.0
 11
1.110833
 21
-296.438667
 31
0.0
  0
LINE
  8
1
  6
CONTINUOUS
 62
     1
  5
30E
 10
26.704583
 20
-293.626167
 30
0.0
 11
26.704583
 21
-299.251167
 31
0.0
  0
LINE
  8
1
  6
CONTINUOUS
 62
     1
  5
30F
 10
27.829583
 20
-294.751167
 30
0.0
 11
27.829583
 21
-298.126167
 31
0.0
  0
LINE
  8
1
  6
CONTINUOUS
 62
     1
  5
310
 10
28.954583
 20
-293.626167
 30
0.0
 11
28.954583
 21
-299.251167
 31
0.0
  0
LINE
  8
1
  6
CONTINUOUS
 62
     1
  5
311
 10
30.079583
 20
-294.751167
 30
0.0
 11
30.079583
 21
-298.126167
 31
0.0
  0
POLYLINE
  8
1
  6
CONTINUOUS
 62
     1
  5
312
 66
     1
 10
0.0
 20
0.0
 30
0.0
 70
     1
  0
VERTEX
  8
1
  6
CONTINUOUS
 62
     1
  5
313
 10
45.829583
 20
-306.563667
 30
0.0
  0
VERTEX
  8
1
  6
CONTINUOUS
 62
     1
  5
314
 10
45.829583
 20
-286.313667
 30
0.0
  0
VERTEX
  8
1
  6
CONTINUOUS
 62
     1
  5
315
 10
48.642083
 20
-288.563667
 30
0.0
  0
VERTEX
  8
1
  6
CONTINUOUS
 62
     1
  5
316
 10
48.642083
 20
-304.313667
 30
0.0
  0
VERTEX
  8
1
  6
CONTINUOUS
 62
     1
  5
317
 10
45.829583
 20
-306.563667
 30
0.0
  0
SEQEND
  8
1
  6
CONTINUOUS
 62
     1
  5
318
  0
LINE
  8
1
  6
CONTINUOUS
 62
     1
  5
319
 10
45.829583
 20
-286.313667
 30
0.0
 11
48.642083
 21
-288.563667
 31
0.0
  0
LINE
  8
1
  6
CONTINUOUS
 62
     1
  5
31A
 10
48.642083
 20
-304.313667
 30
0.0
 11
45.829583
 21
-306.563667
 31
0.0
  0
LINE
  8
1
  6
CONTINUOUS
 62
     7
  5
31B
 10
-6.482917
 20
-286.313667
 30
0.0
 11
-19.982917
 21
-286.313667
 31
0.0
  0
LINE
  8
1
  6
CONTINUOUS
 62
     7
  5
31C
 10
-6.482917
 20
-306.563667
 30
0.0
 11
-19.982917
 21
-306.563667
 31
0.0
  0
LINE
  8
1
  6
CONTINUOUS
 62
     7
  5
31D
 10
-17.732917
 20
-286.313667
 30
0.0
 11
-17.732917
 21
-306.563667
 31
0.0
  0
LINE
  8
1
  6
CONTINUOUS
 62
     7
  5
31E
 10
47.235833
 20
-287.438667
 30
0.0
 11
57.5675
 21
-279.946667
 31
0.0
  0
LINE
  8
1
  6
CONTINUOUS
 62
     7
  5
31F
 10
57.5675
 20
-279.946667
 30
0.0
 11
106.46475
 21
-279.946667
 31
0.0
  0
CIRCLE
  8
1
  6
CONTINUOUS
 62
     7
  5
320
 10
57.567458
 20
-279.946625
 30
0.0
 40
2.8125
210
0.0
220
0.0
230
1.0
  0
LINE
  8
1
  6
CONTINUOUS
 62
     7
  5
321
 10
87.241833
 20
-279.946667
 30
0.0
 11
87.241833
 21
-285.897917
 31
0.0
  0
LINE
  8
1
  6
CONTINUOUS
 62
     7
  5
322
 10
87.241833
 20
-285.897917
 30
0.0
 11
97.758333
 21
-279.946667
 31
0.0
  0
LINE
  8
1
  6
CONTINUOUS
 62
     7
  5
323
 10
55.295583
 20
-298.0295
 30
0.0
 11
68.019
 21
-304.869917
 31
0.0
  0
LINE
  8
1
  6
CONTINUOUS
 62
     7
  5
324
 10
68.019
 20
-304.869917
 30
0.0
 11
79.59
 21
-304.869917
 31
0.0
  0
LINE
  8
1
  6
CONTINUOUS
 62
     7
  5
325
 10
37.8705
 20
-235.954167
 30
0.0
 11
40.8825
 21
-249.705417
 31
0.0
  0
LINE
  8
1
  6
CONTINUOUS
 62
     7
  5
326
 10
40.8825
 20
-249.705417
 30
0.0
 11
31.827
 21
-249.705417
 31
0.0
  0
LINE
  8
1
  6
CONTINUOUS
 62
     7
  5
327
 10
54.02375
 20
-227.059583
 30
0.0
 11
60.760083
 21
-227.059583
 31
0.0
  0
LINE
  8
1
  6
CONTINUOUS
 62
     7
  5
328
 10
64.954583
 20
-204.53375
 30
0.0
 11
74.23275
 21
-198.1925
 31
0.0
  0
LINE
  8
1
  6
CONTINUOUS
 62
     7
  5
329
 10
74.23275
 20
-198.1925
 30
0.0
 11
82.736
 21
-198.1925
 31
0.0
  0
LINE
  8
1
  6
CONTINUOUS
 62
     7
  5
32A
 10
364.85725
 20
-12.10025
 30
0.0
 11
384.37575
 21
-24.457333
 31
0.0
  0
LINE
  8
1
  6
CONTINUOUS
 62
     7
  5
32B
 10
351.712333
 20
-11.384
 30
0.0
 11
359.61075
 21
-16.384333
 31
0.0
  0
LINE
  8
1
  6
CONTINUOUS
 62
     7
  5
32C
 10
368.19175
 20
10.95875
 30
0.0
 11
361.112583
 21
23.58425
 31
0.0
  0
LINE
  8
1
  6
CONTINUOUS
 62
     7
  5
32D
 10
361.112583
 20
23.58425
 30
0.0
 11
371.265333
 21
23.58425
 31
0.0
  0
LINE
  8
1
  6
CONTINUOUS
 62
     7
  5
32E
 10
423.894583
 20
-4.00675
 30
0.0
 11
432.44875
 21
6.072167
 31
0.0
  0
LINE
  8
1
  6
CONTINUOUS
 62
     7
  5
32F
 10
432.44875
 20
6.072167
 30
0.0
 11
436.254333
 21
6.072167
 31
0.0
  0
LINE
  8
1
  6
CONTINUOUS
 62
     7
  5
330
 10
430.178583
 20
-1.09775
 30
0.0
 11
458.57025
 21
-1.09775
 31
0.0
  0
LINE
  8
1
  6
CONTINUOUS
 62
     7
  5
331
 10
430.178583
 20
-48.34775
 30
0.0
 11
458.57025
 21
-48.34775
 31
0.0
  0
LINE
  8
1
  6
CONTINUOUS
 62
     7
  5
332
 10
456.32025
 20
-1.09775
 30
0.0
 11
456.32025
 21
-48.34775
 31
0.0
  0
LINE
  8
1
  6
CONTINUOUS
 62
     7
  5
333
 10
441.428583
 20
-5.59775
 30
0.0
 11
441.428583
 21
-43.84775
 31
0.0
  0
LINE
  8
1
  6
CONTINUOUS
 62
     7
  5
334
 10
351.712333
 20
-11.384
 30
0.0
 11
341.5375
 21
-11.384
 31
0.0
  0
LINE
  8
1
  6
CONTINUOUS
 62
     7
  5
335
 10
359.230083
 20
-49.27025
 30
0.0
 11
365.573833
 21
-42.886
 31
0.0
  0
LINE
  8
1
  6
CONTINUOUS
 62
     7
  5
336
 10
367.572
 20
-40.875083
 30
0.0
 11
373.91575
 21
-34.490833
 31
0.0
  0
LINE
  8
1
  6
CONTINUOUS
 62
     1
  5
337
 10
414.428583
 20
-1.09775
 30
0.0
 11
414.428583
 21
-12.34775
 31
0.0
  0
LINE
  8
1
  6
CONTINUOUS
 62
     1
  5
338
 10
408.025833
 20
-12.34775
 30
0.0
 11
414.428583
 21
-12.34775
 31
0.0
  0
LINE
  8
1
  6
CONTINUOUS
 62
     1
  5
339
 10
408.124333
 20
-37.09775
 30
0.0
 11
414.428583
 21
-37.09775
 31
0.0
  0
LINE
  8
1
  6
CONTINUOUS
 62
     1
  5
33A
 10
414.428583
 20
-12.34775
 30
0.0
 11
414.428583
 21
-37.09775
 31
0.0
  0
LINE
  8
1
  6
CONTINUOUS
 62
     1
  5
33B
 10
414.428583
 20
-37.09775
 30
0.0
 11
414.428583
 21
-48.34775
 31
0.0
  0
POLYLINE
  8
1
  6
CONTINUOUS
 62
     1
  5
33C
 66
     1
 10
0.0
 20
0.0
 30
0.0
 70
     1
  0
VERTEX
  8
1
  6
CONTINUOUS
 62
     1
  5
33D
 10
414.428583
 20
-37.09775
 30
0.0
  0
VERTEX
  8
1
  6
CONTINUOUS
 62
     1
  5
33E
 10
411.57025
 20
-37.09775
 30
0.0
  0
VERTEX
  8
1
  6
CONTINUOUS
 62
     1
  5
33F
 10
414.428583
 20
-39.957083
 30
0.0
  0
VERTEX
  8
1
  6
CONTINUOUS
 62
     1
  5
340
 10
414.428583
 20
-37.09775
 30
0.0
  0
SEQEND
  8
1
  6
CONTINUOUS
 62
     1
  5
341
  0
POLYLINE
  8
1
  6
CONTINUOUS
 62
     1
  5
342
 66
     1
 10
0.0
 20
0.0
 30
0.0
 70
     1
  0
VERTEX
  8
1
  6
CONTINUOUS
 62
     1
  5
343
 10
411.57025
 20
-12.34775
 30
0.0
  0
VERTEX
  8
1
  6
CONTINUOUS
 62
     1
  5
344
 10
414.428583
 20
-9.488333
 30
0.0
  0
VERTEX
  8
1
  6
CONTINUOUS
 62
     1
  5
345
 10
414.428583
 20
-12.34775
 30
0.0
  0
VERTEX
  8
1
  6
CONTINUOUS
 62
     1
  5
346
 10
411.57025
 20
-12.34775
 30
0.0
  0
SEQEND
  8
1
  6
CONTINUOUS
 62
     1
  5
347
  0
LINE
  8
1
  6
CONTINUOUS
 62
     7
  5
348
 10
412.9995
 20
-38.527333
 30
0.0
 11
407.441583
 21
-62.172833
 31
0.0
  0
LINE
  8
1
  6
CONTINUOUS
 62
     7
  5
349
 10
407.441583
 20
-62.172833
 30
0.0
 11
442.4395
 21
-62.172833
 31
0.0
  0
CIRCLE
  8
1
  6
CONTINUOUS
 62
     7
  5
34A
 10
407.441583
 20
-62.172771
 30
0.0
 40
2.8125
210
0.0
220
0.0
230
1.0
  0
LINE
  8
1
  6
CONTINUOUS
 62
     7
  5
34B
 10
428.094333
 20
-62.172833
 30
0.0
 11
428.094333
 21
-69.618833
 31
0.0
  0
LINE
  8
1
  6
CONTINUOUS
 62
     7
  5
34C
 10
428.094333
 20
-69.618833
 30
0.0
 11
436.051
 21
-62.172833
 31
0.0
  0
LINE
  8
1
  6
CONTINUOUS
 62
     7
  5
34D
 10
353.116083
 20
-104.144083
 30
0.0
 11
339.616083
 21
-104.144083
 31
0.0
  0
LINE
  8
1
  6
CONTINUOUS
 62
     7
  5
34E
 10
353.116083
 20
-121.109083
 30
0.0
 11
339.616083
 21
-121.109083
 31
0.0
  0
LINE
  8
1
  6
CONTINUOUS
 62
     7
  5
34F
 10
341.866083
 20
-104.144083
 30
0.0
 11
341.866083
 21
-121.109083
 31
0.0
  0
LINE
  8
1
  6
CONTINUOUS
 62
     7
  5
350
 10
435.938333
 20
-97.169167
 30
0.0
 11
427.358083
 21
-100.77025
 31
0.0
  0
LINE
  8
1
  6
CONTINUOUS
 62
     7
  5
351
 10
435.938333
 20
-97.169167
 30
0.0
 11
438.618167
 21
-97.169167
 31
0.0
  0
LINE
  8
1
  6
CONTINUOUS
 62
     7
  5
352
 10
195.707167
 20
6.409583
 30
0.0
 11
207.540333
 21
25.583417
 31
0.0
  0
LINE
  8
1
  6
CONTINUOUS
 62
     7
  5
353
 10
207.540333
 20
25.583417
 30
0.0
 11
216.028667
 21
25.583417
 31
0.0
  0
LINE
  8
1
  6
CONTINUOUS
 62
     7
  5
354
 10
178.056917
 20
-8.153083
 30
0.0
 11
158.546167
 21
20.071667
 31
0.0
  0
LINE
  8
1
  6
CONTINUOUS
 62
     7
  5
355
 10
158.546167
 20
20.071667
 30
0.0
 11
150.057667
 21
20.071667
 31
0.0
  0
LINE
  8
1
  6
CONTINUOUS
 62
     7
  5
356
 10
160.497917
 20
-27.557833
 30
0.0
 11
150.802417
 21
-52.177417
 31
0.0
  0
LINE
  8
1
  6
CONTINUOUS
 62
     7
  5
357
 10
150.802417
 20
-52.177417
 30
0.0
 11
142.463083
 21
-52.177417
 31
0.0
  0
LINE
  8
1
  6
CONTINUOUS
 62
     7
  5
358
 10
241.606083
 20
-24.182833
 30
0.0
 11
249.35425
 21
-19.001167
 31
0.0
  0
LINE
  8
1
  6
CONTINUOUS
 62
     7
  5
359
 10
249.35425
 20
-19.001167
 30
0.0
 11
253.903333
 21
-19.001167
 31
0.0
  0
LINE
  8
1
  6
CONTINUOUS
 62
     7
  5
35A
 10
226.319833
 20
-28.035333
 30
0.0
 11
232.34
 21
-48.900167
 31
0.0
  0
LINE
  8
1
  6
CONTINUOUS
 62
     7
  5
35B
 10
232.34
 20
-48.900167
 30
0.0
 11
238.621
 21
-48.900167
 31
0.0
  0
LINE
  8
1
  6
CONTINUOUS
 62
     7
  5
35C
 10
177.120583
 20
-14.471417
 30
0.0
 11
196.724167
 21
-26.553333
 31
0.0
  0
LINE
  8
1
  6
CONTINUOUS
 62
     7
  5
35D
 10
169.976083
 20
-50.533417
 30
0.0
 11
177.049667
 21
-44.969083
 31
0.0
  0
LINE
  8
1
  6
CONTINUOUS
 62
     7
  5
35E
 10
179.289583
 20
-43.206917
 30
0.0
 11
186.363333
 21
-37.642333
 31
0.0
  0
LINE
  8
1
  6
CONTINUOUS
 62
     7
  5
35F
 10
152.827667
 20
-105.54125
 30
0.0
 11
142.411417
 21
-92.71775
 31
0.0
  0
LINE
  8
1
  6
CONTINUOUS
 62
     7
  5
360
 10
142.411417
 20
-92.71775
 30
0.0
 11
138.564
 21
-92.71775
 31
0.0
  0
LINE
  8
1
  6
CONTINUOUS
 62
     7
  5
361
 10
228.378167
 20
-116.13225
 30
0.0
 11
235.740667
 21
-109.101083
 31
0.0
  0
LINE
  8
1
  6
CONTINUOUS
 62
     7
  5
362
 10
235.740667
 20
-109.101083
 30
0.0
 11
273.166667
 21
-109.101083
 31
0.0
  0
CIRCLE
  8
1
  6
CONTINUOUS
 62
     7
  5
363
 10
235.740667
 20
-109.101083
 30
0.0
 40
2.8125
210
0.0
220
0.0
230
1.0
  0
LINE
  8
1
  6
CONTINUOUS
 62
     7
  5
364
 10
261.733833
 20
-109.101083
 30
0.0
 11
261.733833
 21
-115.134333
 31
0.0
  0
LINE
  8
1
  6
CONTINUOUS
 62
     7
  5
365
 10
261.733833
 20
-115.134333
 30
0.0
 11
269.363167
 21
-109.101083
 31
0.0
  0
LINE
  8
1
  6
CONTINUOUS
 62
     7
  5
366
 10
81.0795
 20
-15.88875
 30
0.0
 11
89.500833
 21
-11.63325
 31
0.0
  0
LINE
  8
1
  6
CONTINUOUS
 62
     7
  5
367
 10
89.500833
 20
-11.63325
 30
0.0
 11
93.27925
 21
-11.63325
 31
0.0
  0
LINE
  8
1
  6
CONTINUOUS
 62
     7
  5
368
 10
0.58
 20
-79.18875
 30
0.0
 11
-11.304333
 21
-103.32525
 31
0.0
  0
LINE
  8
1
  6
CONTINUOUS
 62
     7
  5
369
 10
-11.304333
 20
-103.32525
 30
0.0
 11
-5.038417
 21
-103.32525
 31
0.0
  0
LINE
  8
1
  6
CONTINUOUS
 62
     1
  5
36A
 10
190.283333
 20
-207.33175
 30
0.0
 11
190.283333
 21
-215.324083
 31
0.0
  0
LINE
  8
1
  6
CONTINUOUS
 62
     1
  5
36B
 10
188.618333
 20
-207.33175
 30
0.0
 11
188.618333
 21
-214.220083
 31
0.0
  0
ARC
  8
1
  6
CONTINUOUS
 62
     1
  5
36C
 10
187.300505
 20
-206.691841
 30
0.0
 40
3.063244
 50
348.345781
 51
140.330742
210
0.0
220
0.0
230
1.0
  0
ARC
  8
1
  6
CONTINUOUS
 62
     1
  5
36D
 10
184.525752
 20
-210.231491
 30
0.0
 40
3.498442
 50
153.016203
 51
255.097892
210
0.0
220
0.0
230
1.0
  0
LINE
  8
1
  6
CONTINUOUS
 62
     1
  5
36E
 10
184.928333
 20
-204.721667
 30
0.0
 11
181.418333
 21
-208.63675
 31
0.0
  0
LINE
  8
1
  6
CONTINUOUS
 62
     1
  5
36F
 10
186.188333
 20
-205.89175
 30
0.0
 11
182.678333
 21
-209.80675
 31
0.0
  0
ARC
  8
1
  6
CONTINUOUS
 62
     1
  5
370
 10
187.26704
 20
-206.819573
 30
0.0
 40
1.420159
 50
339.770767
 51
138.450756
210
0.0
220
0.0
230
1.0
  0
ARC
  8
1
  6
CONTINUOUS
 62
     1
  5
371
 10
183.846329
 20
-210.53407
 30
0.0
 40
1.394702
 50
147.524881
 51
260.913244
210
0.0
220
0.0
230
1.0
  0
ARC
  8
1
  6
CONTINUOUS
 62
     1
  5
372
 10
187.26704
 20
-262.959107
 30
0.0
 40
1.420159
 50
221.549244
 51
20.229233
210
0.0
220
0.0
230
1.0
  0
LINE
  8
1
  6
CONTINUOUS
 62
     1
  5
373
 10
190.283333
 20
-262.45675
 30
0.0
 11
190.283333
 21
-254.554333
 31
0.0
  0
LINE
  8
1
  6
CONTINUOUS
 62
     1
  5
374
 10
188.618333
 20
-262.45675
 30
0.0
 11
188.618333
 21
-255.658333
 31
0.0
  0
ARC
  8
1
  6
CONTINUOUS
 62
     1
  5
375
 10
187.300505
 20
-263.086839
 30
0.0
 40
3.063244
 50
219.669258
 51
11.654219
210
0.0
220
0.0
230
1.0
  0
LINE
  8
1
  6
CONTINUOUS
 62
     1
  5
376
 10
184.928333
 20
-265.02175
 30
0.0
 11
181.418333
 21
-261.15175
 31
0.0
  0
LINE
  8
1
  6
CONTINUOUS
 62
     1
  5
377
 10
186.188333
 20
-263.89675
 30
0.0
 11
182.678333
 21
-259.98175
 31
0.0
  0
LINE
  8
1
  6
CONTINUOUS
 62
     1
  5
378
 10
190.283333
 20
-207.33175
 30
0.0
 11
192.578333
 21
-207.33175
 31
0.0
  0
LINE
  8
1
  6
CONTINUOUS
 62
     1
  5
379
 10
190.283333
 20
-214.12675
 30
0.0
 11
192.578333
 21
-214.12675
 31
0.0
  0
LINE
  8
1
  6
CONTINUOUS
 62
     1
  5
37A
 10
192.578333
 20
-207.33175
 30
0.0
 11
192.578333
 21
-214.12675
 31
0.0
  0
LINE
  8
1
  6
CONTINUOUS
 62
     1
  5
37B
 10
190.283333
 20
-208.99675
 30
0.0
 11
194.828333
 21
-208.99675
 31
0.0
  0
LINE
  8
1
  6
CONTINUOUS
 62
     1
  5
37C
 10
190.283333
 20
-212.41675
 30
0.0
 11
194.828333
 21
-212.41675
 31
0.0
  0
LINE
  8
1
  6
CONTINUOUS
 62
     1
  5
37D
 10
194.828333
 20
-208.99675
 30
0.0
 11
194.828333
 21
-212.41675
 31
0.0
  0
LINE
  8
1
  6
CONTINUOUS
 62
     1
  5
37E
 10
193.703333
 20
-208.99675
 30
0.0
 11
193.703333
 21
-212.41675
 31
0.0
  0
LINE
  8
1
  6
CONTINUOUS
 62
     1
  5
37F
 10
194.288333
 20
-209.58175
 30
0.0
 11
194.288333
 21
-211.83175
 31
0.0
  0
LINE
  8
1
  6
CONTINUOUS
 62
     1
  5
380
 10
193.118333
 20
-209.58175
 30
0.0
 11
193.118333
 21
-211.83175
 31
0.0
  0
LINE
  8
1
  6
CONTINUOUS
 62
     1
  5
381
 10
175.800083
 20
-208.99675
 30
0.0
 11
181.253667
 21
-208.99675
 31
0.0
  0
LINE
  8
1
  6
CONTINUOUS
 62
     1
  5
382
 10
183.353333
 20
-208.99675
 30
0.0
 11
188.618333
 21
-208.99675
 31
0.0
  0
LINE
  8
1
  6
CONTINUOUS
 62
     1
  5
383
 10
175.800083
 20
-212.41675
 30
0.0
 11
181.793667
 21
-212.41675
 31
0.0
  0
LINE
  8
1
  6
CONTINUOUS
 62
     1
  5
384
 10
184.593833
 20
-212.41675
 30
0.0
 11
188.618333
 21
-212.41675
 31
0.0
  0
LINE
  8
1
  6
CONTINUOUS
 62
     1
  5
385
 10
178.306167
 20
-212.41675
 30
0.0
 11
178.306167
 21
-208.99675
 31
0.0
  0
LINE
  8
1
  6
CONTINUOUS
 62
     1
  5
386
 10
180.601167
 20
-212.41675
 30
0.0
 11
180.601167
 21
-208.99675
 31
0.0
  0
LINE
  8
1
  6
CONTINUOUS
 62
     1
  5
387
 10
183.713333
 20
-211.96675
 30
0.0
 11
183.713333
 21
-208.99675
 31
0.0
  0
LINE
  8
1
  6
CONTINUOUS
 62
     1
  5
388
 10
185.963333
 20
-212.41675
 30
0.0
 11
185.963333
 21
-208.99675
 31
0.0
  0
LINE
  8
1
  6
CONTINUOUS
 62
     1
  5
389
 10
188.258333
 20
-212.41675
 30
0.0
 11
188.258333
 21
-208.99675
 31
0.0
  0
LINE
  8
1
  6
CONTINUOUS
 62
     1
  5
38A
 10
179.476167
 20
-211.83175
 30
0.0
 11
179.476167
 21
-209.58175
 31
0.0
  0
LINE
  8
1
  6
CONTINUOUS
 62
     1
  5
38B
 10
184.838333
 20
-211.83175
 30
0.0
 11
184.838333
 21
-209.58175
 31
0.0
  0
LINE
  8
1
  6
CONTINUOUS
 62
     1
  5
38C
 10
187.088333
 20
-211.83175
 30
0.0
 11
187.088333
 21
-209.58175
 31
0.0
  0
LINE
  8
1
  6
CONTINUOUS
 62
     1
  5
38D
 10
190.283333
 20
-262.54675
 30
0.0
 11
192.578333
 21
-262.54675
 31
0.0
  0
LINE
  8
1
  6
CONTINUOUS
 62
     1
  5
38E
 10
190.283333
 20
-255.75175
 30
0.0
 11
192.578333
 21
-255.75175
 31
0.0
  0
LINE
  8
1
  6
CONTINUOUS
 62
     1
  5
38F
 10
192.578333
 20
-262.54675
 30
0.0
 11
192.578333
 21
-255.75175
 31
0.0
  0
LINE
  8
1
  6
CONTINUOUS
 62
     1
  5
390
 10
190.283333
 20
-260.83675
 30
0.0
 11
194.828333
 21
-260.83675
 31
0.0
  0
LINE
  8
1
  6
CONTINUOUS
 62
     1
  5
391
 10
190.283333
 20
-257.46175
 30
0.0
 11
194.828333
 21
-257.46175
 31
0.0
  0
LINE
  8
1
  6
CONTINUOUS
 62
     1
  5
392
 10
194.828333
 20
-260.83675
 30
0.0
 11
194.828333
 21
-257.46175
 31
0.0
  0
LINE
  8
1
  6
CONTINUOUS
 62
     1
  5
393
 10
193.703333
 20
-260.83675
 30
0.0
 11
193.703333
 21
-257.46175
 31
0.0
  0
LINE
  8
1
  6
CONTINUOUS
 62
     1
  5
394
 10
194.288333
 20
-260.29675
 30
0.0
 11
194.288333
 21
-258.00175
 31
0.0
  0
LINE
  8
1
  6
CONTINUOUS
 62
     1
  5
395
 10
193.118333
 20
-260.29675
 30
0.0
 11
193.118333
 21
-258.00175
 31
0.0
  0
LINE
  8
1
  6
CONTINUOUS
 62
     1
  5
396
 10
183.444833
 20
-260.83675
 30
0.0
 11
188.618333
 21
-260.83675
 31
0.0
  0
LINE
  8
1
  6
CONTINUOUS
 62
     1
  5
397
 10
175.800083
 20
-257.46175
 30
0.0
 11
181.651917
 21
-257.46175
 31
0.0
  0
LINE
  8
1
  6
CONTINUOUS
 62
     1
  5
398
 10
184.981833
 20
-257.46175
 30
0.0
 11
188.618333
 21
-257.46175
 31
0.0
  0
LINE
  8
1
  6
CONTINUOUS
 62
     1
  5
399
 10
178.306167
 20
-257.46175
 30
0.0
 11
178.306167
 21
-260.83675
 31
0.0
  0
LINE
  8
1
  6
CONTINUOUS
 62
     1
  5
39A
 10
180.601167
 20
-257.46175
 30
0.0
 11
180.601167
 21
-260.83675
 31
0.0
  0
LINE
  8
1
  6
CONTINUOUS
 62
     1
  5
39B
 10
183.713333
 20
-257.91175
 30
0.0
 11
183.713333
 21
-260.83675
 31
0.0
  0
LINE
  8
1
  6
CONTINUOUS
 62
     1
  5
39C
 10
185.963333
 20
-257.46175
 30
0.0
 11
185.963333
 21
-260.83675
 31
0.0
  0
LINE
  8
1
  6
CONTINUOUS
 62
     1
  5
39D
 10
188.258333
 20
-257.46175
 30
0.0
 11
188.258333
 21
-260.83675
 31
0.0
  0
LINE
  8
1
  6
CONTINUOUS
 62
     1
  5
39E
 10
179.476167
 20
-258.00175
 30
0.0
 11
179.476167
 21
-260.29675
 31
0.0
  0
LINE
  8
1
  6
CONTINUOUS
 62
     1
  5
39F
 10
184.838333
 20
-258.00175
 30
0.0
 11
184.838333
 21
-260.29675
 31
0.0
  0
LINE
  8
1
  6
CONTINUOUS
 62
     1
  5
3A0
 10
187.088333
 20
-258.00175
 30
0.0
 11
187.088333
 21
-260.29675
 31
0.0
  0
ARC
  8
1
  6
CONTINUOUS
 62
     1
  5
3A1
 10
176.078667
 20
-234.939146
 30
0.0
 40
22.62611
 50
288.220322
 51
70.511419
210
0.0
220
0.0
230
1.0
  0
ARC
  8
1
  6
CONTINUOUS
 62
     1
  5
3A2
 10
184.144643
 20
-259.48335
 30
0.0
 40
3.209539
 50
107.992711
 51
211.695256
210
0.0
220
0.0
230
1.0
  0
ARC
  8
1
  6
CONTINUOUS
 62
     1
  5
3A3
 10
183.936364
 20
-259.352382
 30
0.0
 40
1.418816
 50
101.353978
 51
207.142156
210
0.0
220
0.0
230
1.0
  0
ARC
  8
1
  6
CONTINUOUS
 62
     1
  5
3A4
 10
176.078667
 20
-234.939146
 30
0.0
 40
24.218315
 50
351.989342
 51
71.853281
210
0.0
220
0.0
230
1.0
  0
ARC
  8
1
  6
CONTINUOUS
 62
     1
  5
3A5
 10
176.078667
 20
-234.939146
 30
0.0
 40
24.218315
 50
288.220322
 51
351.989331
210
0.0
220
0.0
230
1.0
  0
POLYLINE
  8
1
  6
CONTINUOUS
 62
     1
  5
3A6
 66
     1
 10
0.0
 20
0.0
 30
0.0
  0
VERTEX
  8
1
  6
CONTINUOUS
 62
     1
  5
3A7
 10
200.060663
 20
-238.31415
 30
0.0
 42
0.07002
  0
VERTEX
  8
1
  6
CONTINUOUS
 62
     1
  5
3A8
 10
200.060663
 20
-231.564142
 30
0.0
  0
VERTEX
  8
1
  6
CONTINUOUS
 62
     1
  5
3A9
 10
200.060663
 20
-231.564142
 30
0.0
 42
-0.10349
  0
VERTEX
  8
1
  6
CONTINUOUS
 62
     1
  5
3AA
 10
201.119842
 20
-233.25165
 30
0.0
  0
VERTEX
  8
1
  6
CONTINUOUS
 62
     1
  5
3AB
 10
201.119917
 20
-233.25175
 30
0.0
  0
VERTEX
  8
1
  6
CONTINUOUS
 62
     1
  5
3AC
 10
201.122333
 20
-236.620083
 30
0.0
  0
VERTEX
  8
1
  6
CONTINUOUS
 62
     1
  5
3AD
 10
201.122266
 20
-236.620074
 30
0.0
 42
-0.103854
  0
VERTEX
  8
1
  6
CONTINUOUS
 62
     1
  5
3AE
 10
200.060663
 20
-238.31415
 30
0.0
  0
SEQEND
  8
1
  6
CONTINUOUS
 62
     1
  5
3AF
  0
LINE
  8
1
  6
CONTINUOUS
 62
     1
  5
3B0
 10
201.100083
 20
-233.533
 30
0.0
 11
212.350083
 21
-233.533
 31
0.0
  0
LINE
  8
1
  6
CONTINUOUS
 62
     1
  5
3B1
 10
201.100083
 20
-236.3455
 30
0.0
 11
212.350083
 21
-236.3455
 31
0.0
  0
LINE
  8
1
  6
CONTINUOUS
 62
     1
  5
3B2
 10
212.350083
 20
-233.533
 30
0.0
 11
212.350083
 21
-236.3455
 31
0.0
  0
LINE
  8
1
  6
CONTINUOUS
 62
     1
  5
3B3
 10
210.100083
 20
-233.533
 30
0.0
 11
210.100083
 21
-240.8455
 31
0.0
  0
LINE
  8
1
  6
CONTINUOUS
 62
     1
  5
3B4
 10
207.287583
 20
-240.8455
 30
0.0
 11
210.100083
 21
-240.8455
 31
0.0
  0
LINE
  8
1
  6
CONTINUOUS
 62
     1
  5
3B5
 10
206.162583
 20
-238.5955
 30
0.0
 11
211.225083
 21
-238.5955
 31
0.0
  0
LINE
  8
1
  6
CONTINUOUS
 62
     1
  5
3B6
 10
206.162583
 20
-238.5955
 30
0.0
 11
206.162583
 21
-236.3455
 31
0.0
  0
LINE
  8
1
  6
CONTINUOUS
 62
     1
  5
3B7
 10
211.225083
 20
-238.5955
 30
0.0
 11
211.225083
 21
-236.3455
 31
0.0
  0
LINE
  8
1
  6
CONTINUOUS
 62
     1
  5
3B8
 10
207.287583
 20
-239.7205
 30
0.0
 11
210.100083
 21
-239.7205
 31
0.0
  0
LINE
  8
1
  6
CONTINUOUS
 62
     1
  5
3B9
 10
207.850083
 20
-239.158
 30
0.0
 11
209.537583
 21
-239.158
 31
0.0
  0
LINE
  8
1
  6
CONTINUOUS
 62
     1
  5
3BA
 10
207.850083
 20
-240.283
 30
0.0
 11
209.537583
 21
-240.283
 31
0.0
  0
LINE
  8
1
  6
CONTINUOUS
 62
     1
  5
3BB
 10
207.287583
 20
-230.158
 30
0.0
 11
207.287583
 21
-232.408
 31
0.0
  0
LINE
  8
1
  6
CONTINUOUS
 62
     1
  5
3BC
 10
207.287583
 20
-233.533
 30
0.0
 11
207.287583
 21
-240.8455
 31
0.0
  0
LINE
  8
1
  6
CONTINUOUS
 62
     1
  5
3BD
 10
206.162583
 20
-230.158
 30
0.0
 11
206.162583
 21
-229.033
 31
0.0
  0
LINE
  8
1
  6
CONTINUOUS
 62
     1
  5
3BE
 10
206.162583
 20
-229.033
 30
0.0
 11
212.350083
 21
-229.033
 31
0.0
  0
LINE
  8
1
  6
CONTINUOUS
 62
     1
  5
3BF
 10
212.350083
 20
-229.033
 30
0.0
 11
212.350083
 21
-230.158
 31
0.0
  0
LINE
  8
1
  6
CONTINUOUS
 62
     1
  5
3C0
 10
206.162583
 20
-230.158
 30
0.0
 11
205.037583
 21
-230.158
 31
0.0
  0
LINE
  8
1
  6
CONTINUOUS
 62
     1
  5
3C1
 10
205.037583
 20
-230.158
 30
0.0
 11
205.037583
 21
-232.408
 31
0.0
  0
LINE
  8
1
  6
CONTINUOUS
 62
     1
  5
3C2
 10
210.100083
 20
-232.408
 30
0.0
 11
210.100083
 21
-229.033
 31
0.0
  0
LINE
  8
1
  6
HIDDEN
 62
     1
  5
3C3
 10
216.287583
 20
-230.158
 30
0.0
 11
216.287583
 21
-222.283
 31
0.0
  0
LINE
  8
1
  6
HIDDEN
 62
     1
  5
3C4
 10
216.287583
 20
-232.408
 30
0.0
 11
216.287583
 21
-241.408
 31
0.0
  0
LINE
  8
1
  6
HIDDEN
 62
     1
  5
3C5
 10
219.662583
 20
-222.283
 30
0.0
 11
219.662583
 21
-241.408
 31
0.0
  0
LINE
  8
1
  6
HIDDEN
 62
     1
  5
3C6
 10
216.287583
 20
-222.283
 30
0.0
 11
219.662583
 21
-222.283
 31
0.0
  0
LINE
  8
1
  6
HIDDEN
 62
     1
  5
3C7
 10
216.287583
 20
-241.408
 30
0.0
 11
219.662583
 21
-241.408
 31
0.0
  0
LINE
  8
1
  6
CONTINUOUS
 62
     1
  5
3C8
 10
207.287583
 20
-230.158
 30
0.0
 11
208.693833
 21
-230.158
 31
0.0
  0
LINE
  8
1
  6
HIDDEN
 62
     1
  5
3C9
 10
210.100083
 20
-230.158
 30
0.0
 11
216.287583
 21
-230.158
 31
0.0
  0
LINE
  8
1
  6
CONTINUOUS
 62
     1
  5
3CA
 10
205.037583
 20
-232.408
 30
0.0
 11
208.693833
 21
-232.408
 31
0.0
  0
LINE
  8
1
  6
HIDDEN
 62
     1
  5
3CB
 10
210.100083
 20
-232.408
 30
0.0
 11
216.287583
 21
-232.408
 31
0.0
  0
LINE
  8
1
  6
CONTINUOUS
 62
     7
  5
3CC
 10
208.693833
 20
-224.533
 30
0.0
 11
208.693833
 21
-233.25175
 31
0.0
  0
LINE
  8
1
  6
CONTINUOUS
 62
     7
  5
3CD
 10
208.693833
 20
-234.37675
 30
0.0
 11
208.693833
 21
-235.50175
 31
0.0
  0
LINE
  8
1
  6
CONTINUOUS
 62
     7
  5
3CE
 10
208.693833
 20
-236.62675
 30
0.0
 11
208.693833
 21
-245.3455
 31
0.0
  0
LINE
  8
1
  6
CONTINUOUS
 62
     7
  5
3CF
 10
156.340917
 20
-245.962
 30
0.0
 11
175.682583
 21
-235.015
 31
0.0
  0
LINE
  8
1
  6
CONTINUOUS
 62
     1
  5
3D0
 10
206.858583
 20
-300.680833
 30
0.0
 11
191.108583
 21
-300.680833
 31
0.0
  0
LINE
  8
1
  6
CONTINUOUS
 62
     1
  5
3D1
 10
191.108583
 20
-320.930833
 30
0.0
 11
206.858583
 21
-320.930833
 31
0.0
  0
LINE
  8
1
  6
CONTINUOUS
 62
     1
  5
3D2
 10
218.671083
 20
-318.680833
 30
0.0
 11
218.671083
 21
-302.930833
 31
0.0
  0
LINE
  8
1
  6
CONTINUOUS
 62
     1
  5
3D3
 10
209.671083
 20
-302.930833
 30
0.0
 11
218.671083
 21
-302.930833
 31
0.0
  0
LINE
  8
1
  6
CONTINUOUS
 62
     1
  5
3D4
 10
209.671083
 20
-318.680833
 30
0.0
 11
218.671083
 21
-318.680833
 31
0.0
  0
LINE
  8
1
  6
CONTINUOUS
 62
     1
  5
3D5
 10
197.858583
 20
-300.680833
 30
0.0
 11
197.858583
 21
-320.930833
 31
0.0
  0
LINE
  8
1
  6
CONTINUOUS
 62
     7
  5
3D6
 10
205.171083
 20
-310.805833
 30
0.0
 11
226.546083
 21
-310.805833
 31
0.0
  0
CIRCLE
  8
1
  6
CONTINUOUS
 62
     1
  5
3D7
 10
214.733479
 20
-310.805792
 30
0.0
 40
2.25
210
0.0
220
0.0
230
1.0
  0
LINE
  8
1
  6
CONTINUOUS
 62
     7
  5
3D8
 10
214.733583
 20
-306.305833
 30
0.0
 11
214.733583
 21
-315.305833
 31
0.0
  0
LINE
  8
1
  6
CONTINUOUS
 62
     7
  5
3D9
 10
202.921083
 20
-310.805833
 30
0.0
 11
182.108583
 21
-310.805833
 31
0.0
  0
LINE
  8
1
  6
CONTINUOUS
 62
     1
  5
3DA
 10
200.108583
 20
-306.868333
 30
0.0
 11
197.858583
 21
-306.868333
 31
0.0
  0
LINE
  8
1
  6
CONTINUOUS
 62
     1
  5
3DB
 10
200.108583
 20
-314.743333
 30
0.0
 11
197.858583
 21
-314.743333
 31
0.0
  0
LINE
  8
1
  6
CONTINUOUS
 62
     1
  5
3DC
 10
200.108583
 20
-306.868333
 30
0.0
 11
200.108583
 21
-314.743333
 31
0.0
  0
LINE
  8
1
  6
CONTINUOUS
 62
     1
  5
3DD
 10
202.358583
 20
-309.118333
 30
0.0
 11
197.858583
 21
-309.118333
 31
0.0
  0
LINE
  8
1
  6
CONTINUOUS
 62
     1
  5
3DE
 10
202.358583
 20
-312.493333
 30
0.0
 11
197.858583
 21
-312.493333
 31
0.0
  0
LINE
  8
1
  6
CONTINUOUS
 62
     1
  5
3DF
 10
202.358583
 20
-309.118333
 30
0.0
 11
202.358583
 21
-312.493333
 31
0.0
  0
LINE
  8
1
  6
CONTINUOUS
 62
     1
  5
3E0
 10
201.233583
 20
-309.962083
 30
0.0
 11
201.233583
 21
-311.649583
 31
0.0
  0
LINE
  8
1
  6
CONTINUOUS
 62
     1
  5
3E1
 10
191.108583
 20
-300.680833
 30
0.0
 11
191.108583
 21
-307.993333
 31
0.0
  0
LINE
  8
1
  6
CONTINUOUS
 62
     1
  5
3E2
 10
191.108583
 20
-313.618333
 30
0.0
 11
191.108583
 21
-320.930833
 31
0.0
  0
ARC
  8
1
  6
CONTINUOUS
 62
     1
  5
3E3
 10
190.324302
 20
-310.805792
 30
0.0
 40
2.919776
 50
285.579456
 51
74.420544
210
0.0
220
0.0
230
1.0
  0
ARC
  8
1
  6
CONTINUOUS
 62
     1
  5
3E4
 10
135.642656
 20
-310.805792
 30
0.0
 40
2.919776
 50
105.579456
 51
254.420544
210
0.0
220
0.0
230
1.0
  0
LINE
  8
1
  6
CONTINUOUS
 62
     1
  5
3E5
 10
187.733583
 20
-307.993333
 30
0.0
 11
187.733583
 21
-313.618333
 31
0.0
  0
LINE
  8
1
  6
CONTINUOUS
 62
     1
  5
3E6
 10
188.858583
 20
-309.118333
 30
0.0
 11
188.858583
 21
-312.493333
 31
0.0
  0
LINE
  8
1
  6
CONTINUOUS
 62
     1
  5
3E7
 10
189.983583
 20
-307.993333
 30
0.0
 11
189.983583
 21
-313.618333
 31
0.0
  0
LINE
  8
1
  6
CONTINUOUS
 62
     1
  5
3E8
 10
191.108583
 20
-309.118333
 30
0.0
 11
191.108583
 21
-312.493333
 31
0.0
  0
POLYLINE
  8
1
  6
CONTINUOUS
 62
     1
  5
3E9
 66
     1
 10
0.0
 20
0.0
 30
0.0
 70
     1
  0
VERTEX
  8
1
  6
CONTINUOUS
 62
     1
  5
3EA
 10
206.858583
 20
-320.930833
 30
0.0
  0
VERTEX
  8
1
  6
CONTINUOUS
 62
     1
  5
3EB
 10
206.858583
 20
-300.680833
 30
0.0
  0
VERTEX
  8
1
  6
CONTINUOUS
 62
     1
  5
3EC
 10
209.671083
 20
-302.930833
 30
0.0
  0
VERTEX
  8
1
  6
CONTINUOUS
 62
     1
  5
3ED
 10
209.671083
 20
-318.680833
 30
0.0
  0
VERTEX
  8
1
  6
CONTINUOUS
 62
     1
  5
3EE
 10
206.858583
 20
-320.930833
 30
0.0
  0
SEQEND
  8
1
  6
CONTINUOUS
 62
     1
  5
3EF
  0
LINE
  8
1
  6
CONTINUOUS
 62
     1
  5
3F0
 10
206.858583
 20
-300.680833
 30
0.0
 11
209.671083
 21
-302.930833
 31
0.0
  0
LINE
  8
1
  6
CONTINUOUS
 62
     1
  5
3F1
 10
209.671083
 20
-318.680833
 30
0.0
 11
206.858583
 21
-320.930833
 31
0.0
  0
LINE
  8
1
  6
CONTINUOUS
 62
     7
  5
3F2
 10
208.264833
 20
-301.805833
 30
0.0
 11
218.596417
 21
-294.313917
 31
0.0
  0
LINE
  8
1
  6
CONTINUOUS
 62
     7
  5
3F3
 10
218.596417
 20
-294.313917
 30
0.0
 11
245.080333
 21
-294.313917
 31
0.0
  0
CIRCLE
  8
1
  6
CONTINUOUS
 62
     7
  5
3F4
 10
218.596354
 20
-294.313854
 30
0.0
 40
2.8125
210
0.0
220
0.0
230
1.0
  0
LINE
  8
1
  6
CONTINUOUS
 62
     7
  5
3F5
 10
234.8825
 20
-294.383333
 30
0.0
 11
234.8825
 21
-300.334583
 31
0.0
  0
LINE
  8
1
  6
CONTINUOUS
 62
     7
  5
3F6
 10
216.324417
 20
-312.396833
 30
0.0
 11
224.076333
 21
-316.564417
 31
0.0
  0
LINE
  8
1
  6
CONTINUOUS
 62
     7
  5
3F7
 10
224.076333
 20
-316.564417
 30
0.0
 11
227.59225
 21
-316.564417
 31
0.0
  0
LINE
  8
1
  6
CONTINUOUS
 62
     1
  5
3F8
 10
175.800083
 20
-260.83675
 30
0.0
 11
181.132583
 21
-260.83675
 31
0.0
  0
ARC
  8
1
  6
CONTINUOUS
 62
     1
  5
3F9
 10
175.800042
 20
-234.939146
 30
0.0
 40
22.518319
 50
90.0
 51
270.0
210
0.0
220
0.0
230
1.0
  0
ARC
  8
1
  6
CONTINUOUS
 62
     1
  5
3FA
 10
175.800042
 20
-234.939146
 30
0.0
 40
25.9425
 50
90.0
 51
270.0
210
0.0
220
0.0
230
1.0
  0
LINE
  8
1
  6
CONTINUOUS
 62
     7
  5
3FB
 10
196.634583
 20
-222.13375
 30
0.0
 11
210.825667
 21
-205.052
 31
0.0
  0
LINE
  8
1
  6
CONTINUOUS
 62
     7
  5
3FC
 10
210.825667
 20
-205.052
 30
0.0
 11
215.03375
 21
-205.052
 31
0.0
  0
LINE
  8
1
  6
CONTINUOUS
 62
     7
  5
3FD
 10
219.662583
 20
-231.8455
 30
0.0
 11
224.482333
 21
-226.673833
 31
0.0
  0
LINE
  8
1
  6
CONTINUOUS
 62
     7
  5
3FE
 10
224.482333
 20
-226.673833
 30
0.0
 11
228.833333
 21
-226.673833
 31
0.0
  0
LINE
  8
1
  6
CONTINUOUS
 62
     7
  5
3FF
 10
175.800083
 20
-208.99675
 30
0.0
 11
182.303417
 21
-197.54125
 31
0.0
  0
LINE
  8
1
  6
CONTINUOUS
 62
     7
  5
400
 10
177.38
 20
-197.54125
 30
0.0
 11
182.303417
 21
-197.54125
 31
0.0
  0
LINE
  8
1
  6
CONTINUOUS
 62
     1
  5
401
 10
191.108583
 20
-313.618333
 30
0.0
 11
134.858583
 21
-313.618333
 31
0.0
  0
LINE
  8
1
  6
CONTINUOUS
 62
     1
  5
402
 10
191.108583
 20
-307.993333
 30
0.0
 11
134.858583
 21
-307.993333
 31
0.0
  0
INSERT
  8
1
  6
CONTINUOUS
 62
     1
  5
423
  2
LDR
 10
0.58
 20
-79.18875
 30
0.0
 41
240.000001
 42
240.000001
 50
63.785397
210
0.0
220
0.0
230
1.0
  0
INSERT
  8
1
  6
CONTINUOUS
 62
     1
  5
424
  2
LDR
 10
0.58
 20
-79.18875
 30
0.0
 41
240.000001
 42
240.000001
 50
63.785397
210
0.0
220
0.0
230
1.0
  0
INSERT
  8
1
  6
CONTINUOUS
 62
     1
  5
425
  2
LDR
 10
81.0795
 20
-15.88875
 30
0.0
 41
240.0
 42
240.0
 50
206.808509
210
0.0
220
0.0
230
1.0
  0
TEXT
  8
1
  6
CONTINUOUS
 62
     7
  5
426
 10
94.692
 20
-12.7855
 30
0.0
 40
2.5
  1
SIGN FACE
  7
MONOTXT
210
0.0
220
0.0
230
1.0
  0
TEXT
  8
1
  6
CONTINUOUS
 62
     7
  5
427
 10
124.5695
 20
18.442583
 30
0.0
 40
2.5
  1
ASTM A 575
  7
MONOTXT
 11
124.5695
 21
20.942583
 31
0.0
210
0.0
220
0.0
230
1.0
 73
     3
  0
TEXT
  8
1
  6
CONTINUOUS
 62
     7
  5
428
 10
124.5695
 20
13.942583
 30
0.0
 40
2.5
  1
GRADE 1020
  7
MONOTXT
 11
124.5695
 21
16.442583
 31
0.0
210
0.0
220
0.0
230
1.0
 73
     3
  0
TEXT
  8
1
  6
CONTINUOUS
 62
     7
  5
429
 10
124.5695
 20
9.442583
 30
0.0
 40
2.5
  1
OR APPROVED
  7
MONOTXT
 11
124.5695
 21
11.942583
 31
0.0
210
0.0
220
0.0
230
1.0
 73
     3
  0
TEXT
  8
1
  6
CONTINUOUS
 62
     7
  5
42A
 10
124.5695
 20
4.942583
 30
0.0
 40
2.5
  1
EQUAL
  7
MONOTXT
 11
124.5695
 21
7.442583
 31
0.0
210
0.0
220
0.0
230
1.0
 73
     3
  0
TEXT
  8
1
  6
CONTINUOUS
 62
     7
  5
42B
 10
217.283667
 20
23.785833
 30
0.0
 40
2.5
  1
 5/8 " 0 BOLTS WITH
  7
MONOTXT
 11
217.283667
 21
26.285833
 31
0.0
210
0.0
220
0.0
230
1.0
 73
     3
  0
TEXT
  8
1
  6
CONTINUOUS
 62
     7
  5
42C
 10
217.283667
 20
19.285833
 30
0.0
 40
2.5
  1
HEX. NUTS
  7
MONOTXT
 11
217.283667
 21
21.785833
 31
0.0
210
0.0
220
0.0
230
1.0
 73
     3
  0
TEXT
  8
1
  6
CONTINUOUS
 62
     7
  5
42D
 10
225.414167
 20
23.778167
 30
0.0
 40
2.5
  1
/
  7
MONOTXT
210
0.0
220
0.0
230
1.0
  0
TEXT
  8
1
  6
CONTINUOUS
 62
     7
  5
42E
 10
239.236083
 20
-50.107333
 30
0.0
 40
2.5
  1
MOUNTING LUG
  7
MONOTXT
 11
239.236083
 21
-47.607333
 31
0.0
210
0.0
220
0.0
230
1.0
 73
     3
  0
TEXT
  8
1
  6
CONTINUOUS
 62
     7
  5
42F
 10
239.236083
 20
-54.607333
 30
0.0
 40
2.5
  1
1 1/4 "x1 1/4 "x 3/8 "
  7
MONOTXT
 11
239.236083
 21
-52.107333
 31
0.0
210
0.0
220
0.0
230
1.0
 73
     3
  0
TEXT
  8
1
  6
CONTINUOUS
 62
     7
  5
430
 10
119.609417
 20
-52.356
 30
0.0
 40
2.5
  1
2 1/2 "x2"x 1/4 "
  7
MONOTXT
 11
119.609417
 21
-49.856
 31
0.0
210
0.0
220
0.0
230
1.0
 73
     3
  0
TEXT
  8
1
  6
CONTINUOUS
 62
     7
  5
431
 10
119.609417
 20
-56.856
 30
0.0
 40
2.5
  1
(OR 2 1/2 "x2 1/2 "x 1/4 ")
  7
MONOTXT
 11
119.609417
 21
-54.356
 31
0.0
210
0.0
220
0.0
230
1.0
 73
     3
  0
TEXT
  8
1
  6
CONTINUOUS
 62
     7
  5
432
 10
119.609417
 20
-61.356
 30
0.0
 40
2.5
  1
A-36 GALV. STEEL OR
  7
MONOTXT
 11
119.609417
 21
-58.856
 31
0.0
210
0.0
220
0.0
230
1.0
 73
     3
  0
TEXT
  8
1
  6
CONTINUOUS
 62
     7
  5
433
 10
119.609417
 20
-65.856
 30
0.0
 40
2.5
  1
APPROPRIATE ALUM.
  7
MONOTXT
 11
119.609417
 21
-63.356
 31
0.0
210
0.0
220
0.0
230
1.0
 73
     3
  0
TEXT
  8
1
  6
CONTINUOUS
 62
     7
  5
434
 10
182.764833
 20
-16.924083
 30
0.0
 40
2.5
  1
TO FIT
 50
328.353989
  7
MONOTXT
 72
     1
 11
188.202762
 21
-20.275542
 31
0.0
210
0.0
220
0.0
230
1.0
  0
TEXT
  8
1
  6
CONTINUOUS
 62
     7
  5
435
 10
178.099583
 20
-19.334833
 30
0.0
 40
2.5
  1
TUBE DIA.
 50
328.353989
  7
MONOTXT
 72
     1
 11
185.833413
 21
-24.101283
 31
0.0
210
0.0
220
0.0
230
1.0
  0
TEXT
  8
1
  6
CONTINUOUS
 62
     7
  5
436
 10
181.1815
 20
-40.261333
 30
0.0
 40
2.5
  1
 1/4 "
 50
38.19045
  7
MONOTXT
 72
     1
 11
183.2005
 21
-38.673082
 31
0.0
210
0.0
220
0.0
230
1.0
  0
TEXT
  8
1
  6
CONTINUOUS
 62
     7
  5
437
 10
182.834333
 20
-44.686667
 30
0.0
 40
2.5
  1
TYP.
 50
38.19045
  7
MONOTXT
 72
     1
 11
185.982758
 21
-42.20995
 31
0.0
210
0.0
220
0.0
230
1.0
  0
INSERT
  8
1
  6
CONTINUOUS
 62
     1
  5
438
  2
LDR
 10
178.056917
 20
-8.153083
 30
0.0
 41
239.999999
 42
239.999999
 50
304.654705
210
0.0
220
0.0
230
1.0
  0
INSERT
  8
1
  6
CONTINUOUS
 62
     1
  5
439
  2
LDR
 10
178.056917
 20
-8.153083
 30
0.0
 41
239.999999
 42
239.999999
 50
304.654705
210
0.0
220
0.0
230
1.0
  0
INSERT
  8
1
  6
CONTINUOUS
 62
     1
  5
43A
  2
LDR
 10
195.707167
 20
6.409583
 30
0.0
 41
239.999999
 42
239.999999
 50
238.319113
210
0.0
220
0.0
230
1.0
  0
INSERT
  8
1
  6
CONTINUOUS
 62
     1
  5
43B
  2
LDR
 10
195.707167
 20
6.409583
 30
0.0
 41
239.999999
 42
239.999999
 50
238.319113
210
0.0
220
0.0
230
1.0
  0
INSERT
  8
1
  6
CONTINUOUS
 62
     1
  5
43C
  2
LDR
 10
241.606083
 20
-24.182833
 30
0.0
 41
240.0
 42
240.0
 50
213.77287
210
0.0
220
0.0
230
1.0
  0
INSERT
  8
1
  6
CONTINUOUS
 62
     1
  5
43D
  2
LDR
 10
241.606083
 20
-24.182833
 30
0.0
 41
240.0
 42
240.0
 50
213.77287
210
0.0
220
0.0
230
1.0
  0
INSERT
  8
1
  6
CONTINUOUS
 62
     1
  5
43E
  2
LDR
 10
177.120583
 20
-14.471417
 30
0.0
 41
240.000001
 42
240.000001
 50
148.353988
210
0.0
220
0.0
230
1.0
  0
INSERT
  8
1
  6
CONTINUOUS
 62
     1
  5
43F
  2
LDR
 10
177.120583
 20
-14.471417
 30
0.0
 41
240.000001
 42
240.000001
 50
148.353988
210
0.0
220
0.0
230
1.0
  0
INSERT
  8
1
  6
CONTINUOUS
 62
     1
  5
440
  2
LDR
 10
179.289583
 20
-43.206917
 30
0.0
 41
239.999999
 42
239.999999
 50
218.19045
210
0.0
220
0.0
230
1.0
  0
INSERT
  8
1
  6
CONTINUOUS
 62
     1
  5
441
  2
LDR
 10
179.289583
 20
-43.206917
 30
0.0
 41
239.999999
 42
239.999999
 50
218.19045
210
0.0
220
0.0
230
1.0
  0
INSERT
  8
1
  6
CONTINUOUS
 62
     1
  5
442
  2
LDR
 10
177.049667
 20
-44.969083
 30
0.0
 41
240.000001
 42
240.000001
 50
38.189855
210
0.0
220
0.0
230
1.0
  0
INSERT
  8
1
  6
CONTINUOUS
 62
     1
  5
443
  2
LDR
 10
177.049667
 20
-44.969083
 30
0.0
 41
240.000001
 42
240.000001
 50
38.189855
210
0.0
220
0.0
230
1.0
  0
INSERT
  8
1
  6
CONTINUOUS
 62
     1
  5
444
  2
LDR
 10
160.497917
 20
-27.557833
 30
0.0
 41
240.000003
 42
240.000003
 50
68.504859
210
0.0
220
0.0
230
1.0
  0
TEXT
  8
1
  6
CONTINUOUS
 62
     7
  5
445
 10
111.916333
 20
-94.13425
 30
0.0
 40
2.5
  1
 7/16 " 0 HOLES
  7
MONOTXT
 72
     4
 11
124.603333
 21
-92.88425
 31
0.0
210
0.0
220
0.0
230
1.0
  0
TEXT
  8
1
  6
CONTINUOUS
 62
     7
  5
446
 10
120.9475
 20
-94.161333
 30
0.0
 40
2.5
  1
/
  7
MONOTXT
 72
     4
 11
121.646333
 21
-92.911333
 31
0.0
210
0.0
220
0.0
230
1.0
  0
INSERT
  8
1
  6
CONTINUOUS
 62
     1
  5
447
  2
LDR
 10
152.827667
 20
-105.54125
 30
0.0
 41
240.000001
 42
240.000001
 50
309.086038
210
0.0
220
0.0
230
1.0
  0
INSERT
  8
1
  6
CONTINUOUS
 62
     1
  5
448
  2
LDR
 10
228.378167
 20
-116.13225
 30
0.0
 41
239.999998
 42
239.999998
 50
223.681319
210
0.0
220
0.0
230
1.0
  0
TEXT
  8
1
  6
CONTINUOUS
 62
     7
  5
449
 10
248.820833
 20
-113.601083
 30
0.0
 40
2.5
  1
 3/16 "
  7
MONOTXT
 72
     1
 11
251.8425
 21
-111.101083
 31
0.0
210
0.0
220
0.0
230
1.0
 73
     3
  0
INSERT
  8
1
  6
CONTINUOUS
 62
     1
  5
44A
  2
LDR
 10
175.800083
 20
-208.99675
 30
0.0
 41
240.000001
 42
240.000001
 50
240.416063
210
0.0
220
0.0
230
1.0
  0
INSERT
  8
1
  6
CONTINUOUS
 62
     1
  5
44B
  2
LDR
 10
175.800083
 20
-208.99675
 30
0.0
 41
240.000001
 42
240.000001
 50
240.416063
210
0.0
220
0.0
230
1.0
  0
INSERT
  8
1
  6
CONTINUOUS
 62
     1
  5
44C
  2
LDR
 10
196.634583
 20
-222.13375
 30
0.0
 41
240.0
 42
240.0
 50
230.281095
210
0.0
220
0.0
230
1.0
  0
INSERT
  8
1
  6
CONTINUOUS
 62
     1
  5
44D
  2
LDR
 10
196.634583
 20
-222.13375
 30
0.0
 41
240.0
 42
240.0
 50
230.281095
210
0.0
220
0.0
230
1.0
  0
INSERT
  8
1
  6
CONTINUOUS
 62
     1
  5
44E
  2
LDR
 10
219.662583
 20
-231.8455
 30
0.0
 41
240.0
 42
240.0
 50
227.016975
210
0.0
220
0.0
230
1.0
  0
INSERT
  8
1
  6
CONTINUOUS
 62
     1
  5
44F
  2
LDR
 10
219.662583
 20
-231.8455
 30
0.0
 41
240.0
 42
240.0
 50
227.016975
210
0.0
220
0.0
230
1.0
  0
INSERT
  8
1
  6
CONTINUOUS
 62
     1
  5
450
  2
LDR
 10
156.340917
 20
-245.962
 30
0.0
 41
240.0
 42
240.0
 50
209.509001
210
0.0
220
0.0
230
1.0
  0
INSERT
  8
1
  6
CONTINUOUS
 62
     1
  5
451
  2
LDR
 10
156.340917
 20
-245.962
 30
0.0
 41
240.0
 42
240.0
 50
209.509001
210
0.0
220
0.0
230
1.0
  0
INSERT
  8
1
  6
CONTINUOUS
 62
     1
  5
452
  2
LDR
 10
208.264833
 20
-301.805833
 30
0.0
 41
240.000001
 42
240.000001
 50
215.947632
210
0.0
220
0.0
230
1.0
  0
INSERT
  8
1
  6
CONTINUOUS
 62
     1
  5
453
  2
LDR
 10
216.324417
 20
-312.396833
 30
0.0
 41
239.999998
 42
239.999998
 50
151.736741
210
0.0
220
0.0
230
1.0
  0
INSERT
  8
1
  6
CONTINUOUS
 62
     1
  5
454
  2
LDR
 10
216.324417
 20
-312.396833
 30
0.0
 41
239.999998
 42
239.999998
 50
151.736741
210
0.0
220
0.0
230
1.0
  0
TEXT
  8
1
  6
CONTINUOUS
 62
     7
  5
455
 10
141.2545
 20
-198.952583
 30
0.0
 40
2.5
  1
 5/8 " DIAM. U-BOLTS
  7
MONOTXT
 72
     4
 11
158.784
 21
-197.702583
 31
0.0
210
0.0
220
0.0
230
1.0
  0
TEXT
  8
1
  6
CONTINUOUS
 62
     7
  5
456
 10
143.597
 20
-203.452583
 30
0.0
 40
2.5
  1
WITH HEX NUTS
  7
MONOTXT
 72
     4
 11
158.784
 21
-202.202583
 31
0.0
210
0.0
220
0.0
230
1.0
  0
TEXT
  8
1
  6
CONTINUOUS
 62
     7
  5
457
 10
173.219667
 20
-232.729917
 30
0.0
 40
2.5
  1
TO FIT
 50
29.509
  7
MONOTXT
 72
     1
 11
178.778787
 21
-229.583565
 31
0.0
210
0.0
220
0.0
230
1.0
  0
TEXT
  8
1
  6
CONTINUOUS
 62
     7
  5
458
 10
177.08075
 20
-235.715333
 30
0.0
 40
2.5
  1
TUBE
 50
29.509
  7
MONOTXT
 72
     1
 11
180.995262
 21
-233.499797
 31
0.0
210
0.0
220
0.0
230
1.0
  0
TEXT
  8
1
  6
CONTINUOUS
 62
     7
  5
459
 10
179.408667
 20
-239.5685
 30
0.0
 40
2.5
  1
DIAM.
 50
29.509
  7
MONOTXT
 72
     1
 11
183.203225
 21
-237.420855
 31
0.0
210
0.0
220
0.0
230
1.0
  0
TEXT
  8
1
  6
CONTINUOUS
 62
     7
  5
45A
 10
225.209417
 20
-298.2265
 30
0.0
 40
2.5
  1
 3/16 "
  7
MONOTXT
 72
     4
 11
228.231083
 21
-296.9765
 31
0.0
210
0.0
220
0.0
230
1.0
  0
TEXT
  8
1
  6
CONTINUOUS
 62
     7
  5
45B
 10
236.851417
 20
-317.888917
 30
0.0
 40
2.5
  1
/
  7
MONOTXT
 72
     4
 11
237.55025
 21
-316.638917
 31
0.0
210
0.0
220
0.0
230
1.0
  0
INSERT
  8
1
  6
CONTINUOUS
 62
     1
  5
45C
  2
LDR
 10
368.19175
 20
10.95875
 30
0.0
 41
239.999999
 42
239.999999
 50
299.279518
210
0.0
220
0.0
230
1.0
  0
INSERT
  8
1
  6
CONTINUOUS
 62
     1
  5
45D
  2
LDR
 10
368.19175
 20
10.95875
 30
0.0
 41
239.999999
 42
239.999999
 50
299.279518
210
0.0
220
0.0
230
1.0
  0
INSERT
  8
1
  6
CONTINUOUS
 62
     1
  5
45E
  2
LDR
 10
359.61075
 20
-16.384333
 30
0.0
 41
239.999999
 42
239.999999
 50
327.662898
210
0.0
220
0.0
230
1.0
  0
INSERT
  8
1
  6
CONTINUOUS
 62
     1
  5
45F
  2
LDR
 10
359.61075
 20
-16.384333
 30
0.0
 41
239.999999
 42
239.999999
 50
327.662898
210
0.0
220
0.0
230
1.0
  0
INSERT
  8
1
  6
CONTINUOUS
 62
     1
  5
460
  2
LDR
 10
364.85725
 20
-12.10025
 30
0.0
 41
240.000001
 42
240.000001
 50
147.662265
210
0.0
220
0.0
230
1.0
  0
INSERT
  8
1
  6
CONTINUOUS
 62
     1
  5
461
  2
LDR
 10
364.85725
 20
-12.10025
 30
0.0
 41
240.000001
 42
240.000001
 50
147.662265
210
0.0
220
0.0
230
1.0
  0
INSERT
  8
1
  6
CONTINUOUS
 62
     1
  5
462
  2
LDR
 10
367.572
 20
-40.875083
 30
0.0
 41
239.999999
 42
239.999999
 50
225.182312
210
0.0
220
0.0
230
1.0
  0
INSERT
  8
1
  6
CONTINUOUS
 62
     1
  5
463
  2
LDR
 10
367.572
 20
-40.875083
 30
0.0
 41
239.999999
 42
239.999999
 50
225.182312
210
0.0
220
0.0
230
1.0
  0
INSERT
  8
1
  6
CONTINUOUS
 62
     1
  5
464
  2
LDR
 10
365.573833
 20
-42.886
 30
0.0
 41
239.999999
 42
239.999999
 50
45.182312
210
0.0
220
0.0
230
1.0
  0
INSERT
  8
1
  6
CONTINUOUS
 62
     1
  5
465
  2
LDR
 10
365.573833
 20
-42.886
 30
0.0
 41
239.999999
 42
239.999999
 50
45.182312
210
0.0
220
0.0
230
1.0
  0
INSERT
  8
1
  6
CONTINUOUS
 62
     1
  5
466
  2
LDR
 10
412.9995
 20
-38.527333
 30
0.0
 41
239.999999
 42
239.999999
 50
76.772638
210
0.0
220
0.0
230
1.0
  0
INSERT
  8
1
  6
CONTINUOUS
 62
     1
  5
467
  2
LDR
 10
412.9995
 20
-38.527333
 30
0.0
 41
239.999999
 42
239.999999
 50
76.772638
210
0.0
220
0.0
230
1.0
  0
INSERT
  8
1
  6
CONTINUOUS
 62
     1
  5
468
  2
LDR
 10
423.894583
 20
-4.00675
 30
0.0
 41
240.000002
 42
240.000002
 50
229.678106
210
0.0
220
0.0
230
1.0
  0
INSERT
  8
1
  6
CONTINUOUS
 62
     1
  5
469
  2
LDR
 10
423.894583
 20
-4.00675
 30
0.0
 41
240.000002
 42
240.000002
 50
229.678106
210
0.0
220
0.0
230
1.0
  0
INSERT
  8
1
  6
CONTINUOUS
 62
     1
  5
46A
  2
LDR
 10
441.428583
 20
-5.59775
 30
0.0
 41
240.0
 42
240.0
 50
90.0
210
0.0
220
0.0
230
1.0
  0
INSERT
  8
1
  6
CONTINUOUS
 62
     1
  5
46B
  2
LDR
 10
441.428583
 20
-5.59775
 30
0.0
 41
240.0
 42
240.0
 50
90.0
210
0.0
220
0.0
230
1.0
  0
INSERT
  8
1
  6
CONTINUOUS
 62
     1
  5
46C
  2
LDR
 10
441.428583
 20
-43.84775
 30
0.0
 41
240.0
 42
240.0
 50
270.0
210
0.0
220
0.0
230
1.0
  0
INSERT
  8
1
  6
CONTINUOUS
 62
     1
  5
46D
  2
LDR
 10
441.428583
 20
-43.84775
 30
0.0
 41
240.0
 42
240.0
 50
270.0
210
0.0
220
0.0
230
1.0
  0
INSERT
  8
1
  6
CONTINUOUS
 62
     1
  5
46E
  2
LDR
 10
456.32025
 20
-1.09775
 30
0.0
 41
240.0
 42
240.0
 50
90.0
210
0.0
220
0.0
230
1.0
  0
INSERT
  8
1
  6
CONTINUOUS
 62
     1
  5
46F
  2
LDR
 10
456.32025
 20
-1.09775
 30
0.0
 41
240.0
 42
240.0
 50
90.0
210
0.0
220
0.0
230
1.0
  0
INSERT
  8
1
  6
CONTINUOUS
 62
     1
  5
470
  2
LDR
 10
456.32025
 20
-48.34775
 30
0.0
 41
240.0
 42
240.0
 50
270.0
210
0.0
220
0.0
230
1.0
  0
INSERT
  8
1
  6
CONTINUOUS
 62
     1
  5
471
  2
LDR
 10
456.32025
 20
-48.34775
 30
0.0
 41
240.0
 42
240.0
 50
270.0
210
0.0
220
0.0
230
1.0
  0
TEXT
  8
1
  6
CONTINUOUS
 62
     7
  5
472
 10
372.50425
 20
22.055417
 30
0.0
 40
2.5
  1
 5/8 " 0 BOLTS WITH
  7
MONOTXT
 11
372.50425
 21
24.555417
 31
0.0
210
0.0
220
0.0
230
1.0
 73
     3
  0
TEXT
  8
1
  6
CONTINUOUS
 62
     7
  5
473
 10
372.50425
 20
17.555417
 30
0.0
 40
2.5
  1
HEX NUTS
  7
MONOTXT
 11
372.50425
 21
20.055417
 31
0.0
210
0.0
220
0.0
230
1.0
 73
     3
  0
TEXT
  8
1
  6
CONTINUOUS
 62
     7
  5
474
 10
380.631667
 20
22.053583
 30
0.0
 40
2.5
  1
/
  7
MONOTXT
 72
     4
 11
381.3305
 21
23.303583
 31
0.0
210
0.0
220
0.0
230
1.0
  0
TEXT
  8
1
  6
CONTINUOUS
 62
     7
  5
475
 10
437.036417
 20
4.801083
 30
0.0
 40
2.5
  1
 7/16 " 0 HOLES
  7
MONOTXT
 72
     4
 11
449.723417
 21
6.051083
 31
0.0
210
0.0
220
0.0
230
1.0
  0
TEXT
  8
1
  6
CONTINUOUS
 62
     7
  5
476
 10
446.075833
 20
4.76575
 30
0.0
 40
2.5
  1
/
  7
MONOTXT
 72
     4
 11
446.774667
 21
6.01575
 31
0.0
210
0.0
220
0.0
230
1.0
  0
TEXT
  8
1
  6
CONTINUOUS
 62
     7
  5
477
 10
417.420417
 20
-66.094833
 30
0.0
 40
2.5
  1
 1/4 "
  7
MONOTXT
 72
     4
 11
419.98925
 21
-64.844833
 31
0.0
210
0.0
220
0.0
230
1.0
  0
TEXT
  8
1
  6
CONTINUOUS
 62
     7
  5
478
 10
319.19525
 20
-12.773167
 30
0.0
 40
2.5
  1
ASTM A575
  7
MONOTXT
 11
319.19525
 21
-10.273167
 31
0.0
210
0.0
220
0.0
230
1.0
 73
     3
  0
TEXT
  8
1
  6
CONTINUOUS
 62
     7
  5
479
 10
319.19525
 20
-17.273167
 30
0.0
 40
2.5
  1
GRADE 1020
  7
MONOTXT
 11
319.19525
 21
-14.773167
 31
0.0
210
0.0
220
0.0
230
1.0
 73
     3
  0
TEXT
  8
1
  6
CONTINUOUS
 62
     7
  5
47A
 10
319.19525
 20
-21.773167
 30
0.0
 40
2.5
  1
OR APPROVED
  7
MONOTXT
 11
319.19525
 21
-19.273167
 31
0.0
210
0.0
220
0.0
230
1.0
 73
     3
  0
TEXT
  8
1
  6
CONTINUOUS
 62
     7
  5
47B
 10
319.19525
 20
-26.273167
 30
0.0
 40
2.5
  1
EQUAL
  7
MONOTXT
 11
319.19525
 21
-23.773167
 31
0.0
210
0.0
220
0.0
230
1.0
 73
     3
  0
TEXT
  8
1
  6
CONTINUOUS
 62
     7
  5
47C
 10
384.7215
 20
-20.95925
 30
0.0
 40
2.5
  1
TO FIT
 50
327.662264
  7
MONOTXT
 72
     1
 11
390.118572
 21
-24.376115
 31
0.0
210
0.0
220
0.0
230
1.0
  0
TEXT
  8
1
  6
CONTINUOUS
 62
     7
  5
47D
 10
383.911083
 20
-25.772167
 30
0.0
 40
2.5
  1
TUBE
 50
327.662264
  7
MONOTXT
 72
     1
 11
387.711487
 21
-28.178187
 31
0.0
210
0.0
220
0.0
230
1.0
  0
TEXT
  8
1
  6
CONTINUOUS
 62
     7
  5
47E
 10
381.612167
 20
-29.642667
 30
0.0
 40
2.5
  1
DIAM.
 50
327.662264
  7
MONOTXT
 72
     1
 11
385.296114
 21
-31.974959
 31
0.0
210
0.0
220
0.0
230
1.0
  0
TEXT
  8
1
  6
CONTINUOUS
 62
     7
  5
47F
 10
369.20125
 20
-37.699833
 30
0.0
 40
2.5
  1
 1/4 "
 50
45.182311
  7
MONOTXT
 72
     1
 11
371.011901
 21
-35.877623
 31
0.0
210
0.0
220
0.0
230
1.0
  0
TEXT
  8
1
  6
CONTINUOUS
 62
     7
  5
480
 10
371.3805
 20
-41.891
 30
0.0
 40
2.5
  1
TYP.
 50
45.182311
  7
MONOTXT
 72
     1
 11
374.204025
 21
-39.049449
 31
0.0
210
0.0
220
0.0
230
1.0
  0
TEXT
  8
1
  6
CONTINUOUS
 62
     7
  5
481
 10
439.92225
 20
-33.1675
 30
0.0
 40
2.5
  1
VARIABLE
 50
90.0
  7
MONOTXT
 72
     4
 11
438.67225
 21
-24.65375
 31
0.0
210
0.0
220
0.0
230
1.0
  0
TEXT
  8
1
  6
CONTINUOUS
 62
     7
  5
482
 10
454.681667
 20
-32.79375
 30
0.0
 40
2.5
  1
VARIABLE
 50
90.0
  7
MONOTXT
 72
     4
 11
453.431667
 21
-24.28
 31
0.0
210
0.0
220
0.0
230
1.0
  0
INSERT
  8
1
  6
CONTINUOUS
 62
     1
  5
483
  2
LDR
 10
341.866083
 20
-104.144083
 30
0.0
 41
240.0
 42
240.0
 50
90.0
210
0.0
220
0.0
230
1.0
  0
INSERT
  8
1
  6
CONTINUOUS
 62
     1
  5
484
  2
LDR
 10
341.866083
 20
-104.144083
 30
0.0
 41
240.0
 42
240.0
 50
90.0
210
0.0
220
0.0
230
1.0
  0
INSERT
  8
1
  6
CONTINUOUS
 62
     1
  5
485
  2
LDR
 10
341.866083
 20
-121.109083
 30
0.0
 41
240.0
 42
240.0
 50
270.0
210
0.0
220
0.0
230
1.0
  0
INSERT
  8
1
  6
CONTINUOUS
 62
     1
  5
486
  2
LDR
 10
341.866083
 20
-121.109083
 30
0.0
 41
240.0
 42
240.0
 50
270.0
210
0.0
220
0.0
230
1.0
  0
INSERT
  8
1
  6
CONTINUOUS
 62
     1
  5
487
  2
LDR
 10
427.358083
 20
-100.77025
 30
0.0
 41
240.0
 42
240.0
 50
202.767404
210
0.0
220
0.0
230
1.0
  0
TEXT
  8
1
  6
CONTINUOUS
 62
     7
  5
488
 10
340.509583
 20
-115.819583
 30
0.0
 40
2.5
  1
1 1/2 "
 50
90.0
  7
MONOTXT
 72
     4
 11
339.259583
 21
-112.542083
 31
0.0
210
0.0
220
0.0
230
1.0
  0
INSERT
  8
1
  6
CONTINUOUS
 62
     1
  5
489
  2
LDR
 10
64.954583
 20
-204.53375
 30
0.0
 41
240.0
 42
-240.0
 50
214.35102
210
0.0
220
0.0
230
1.0
  0
INSERT
  8
1
  6
CONTINUOUS
 62
     1
  5
48A
  2
LDR
 10
64.954583
 20
-204.53375
 30
0.0
 41
240.0
 42
-240.0
 50
214.35102
210
0.0
220
0.0
230
1.0
  0
INSERT
  8
1
  6
CONTINUOUS
 62
     1
  5
48B
  2
LDR
 10
37.8705
 20
-235.954167
 30
0.0
 41
240.000002
 42
240.000002
 50
102.35465
210
0.0
220
0.0
230
1.0
  0
INSERT
  8
1
  6
CONTINUOUS
 62
     1
  5
48C
  2
LDR
 10
1.633083
 20
-219.369417
 30
0.0
 41
239.999997
 42
239.999997
 50
209.509213
210
0.0
220
0.0
230
1.0
  0
INSERT
  8
1
  6
CONTINUOUS
 62
     1
  5
48D
  2
LDR
 10
1.633083
 20
-219.369417
 30
0.0
 41
239.999997
 42
239.999997
 50
209.509213
210
0.0
220
0.0
230
1.0
  0
INSERT
  8
1
  6
CONTINUOUS
 62
     1
  5
48E
  2
LDR
 10
3.627
 20
-194.338417
 30
0.0
 41
240.000001
 42
240.000001
 50
151.1258
210
0.0
220
0.0
230
1.0
  0
INSERT
  8
1
  6
CONTINUOUS
 62
     1
  5
48F
  2
LDR
 10
3.627
 20
-194.338417
 30
0.0
 41
240.000001
 42
240.000001
 50
151.1258
210
0.0
220
0.0
230
1.0
  0
INSERT
  8
1
  6
CONTINUOUS
 62
     1
  5
490
  2
LDR
 10
3.627
 20
-194.338417
 30
0.0
 41
240.000001
 42
240.000001
 50
151.1258
210
0.0
220
0.0
230
1.0
  0
INSERT
  8
1
  6
CONTINUOUS
 62
     1
  5
491
  2
LDR
 10
2.198
 20
-193.550583
 30
0.0
 41
240.0
 42
240.0
 50
331.125222
210
0.0
220
0.0
230
1.0
  0
TEXT
  8
1
  6
CONTINUOUS
 62
     7
  5
492
 10
-0.123083
 20
-251.197667
 30
0.0
 40
2.5
  1
 5/8 " BOLTS WITH
  7
MONOTXT
 11
-0.123083
 21
-248.697667
 31
0.0
210
0.0
220
0.0
230
1.0
 73
     3
  0
TEXT
  8
1
  6
CONTINUOUS
 62
     7
  5
493
 10
-0.123083
 20
-255.697667
 30
0.0
 40
2.5
  1
HEX NUT
  7
MONOTXT
 11
-0.123083
 21
-253.197667
 31
0.0
210
0.0
220
0.0
230
1.0
 73
     3
  0
TEXT
  8
1
  6
CONTINUOUS
 62
     7
  5
494
 10
18.320667
 20
-206.327333
 30
0.0
 40
2.5
  1
TO FIT
 50
29.509214
  7
MONOTXT
 72
     1
 11
23.879775
 21
-203.180961
 31
0.0
210
0.0
220
0.0
230
1.0
  0
TEXT
  8
1
  6
CONTINUOUS
 62
     7
  5
495
 10
22.18175
 20
-209.31275
 30
0.0
 40
2.5
  1
TUBE
 50
29.509214
  7
MONOTXT
 72
     1
 11
26.096254
 21
-207.097199
 31
0.0
210
0.0
220
0.0
230
1.0
  0
TEXT
  8
1
  6
CONTINUOUS
 62
     7
  5
496
 10
24.50975
 20
-213.166
 30
0.0
 40
2.5
  1
DIAM.
 50
29.509214
  7
MONOTXT
 72
     1
 11
28.304301
 21
-211.018341
 31
0.0
210
0.0
220
0.0
230
1.0
  0
TEXT
  8
1
  6
CONTINUOUS
 62
     7
  5
497
 10
7.597833
 20
-194.6495
 30
0.0
 40
2.5
  1
 3/16 "
 50
331.1258
  7
MONOTXT
 72
     1
 11
10.243853
 21
-196.108627
 31
0.0
210
0.0
220
0.0
230
1.0
  0
INSERT
  8
1
  6
CONTINUOUS
 62
     1
  5
498
  2
LDR
 10
47.235833
 20
-287.438667
 30
0.0
 41
240.000002
 42
240.000002
 50
215.947716
210
0.0
220
0.0
230
1.0
  0
INSERT
  8
1
  6
CONTINUOUS
 62
     1
  5
499
  2
LDR
 10
47.235833
 20
-287.438667
 30
0.0
 41
240.000002
 42
240.000002
 50
215.947716
210
0.0
220
0.0
230
1.0
  0
INSERT
  8
1
  6
CONTINUOUS
 62
     1
  5
49A
  2
LDR
 10
55.295583
 20
-298.0295
 30
0.0
 41
239.999999
 42
239.999999
 50
151.736449
210
0.0
220
0.0
230
1.0
  0
INSERT
  8
1
  6
CONTINUOUS
 62
     1
  5
49B
  2
LDR
 10
55.295583
 20
-298.0295
 30
0.0
 41
239.999999
 42
239.999999
 50
151.736449
210
0.0
220
0.0
230
1.0
  0
INSERT
  8
1
  6
CONTINUOUS
 62
     1
  5
49C
  2
LDR
 10
-17.732917
 20
-286.313667
 30
0.0
 41
240.0
 42
240.0
 50
90.0
210
0.0
220
0.0
230
1.0
  0
INSERT
  8
1
  6
CONTINUOUS
 62
     1
  5
49D
  2
LDR
 10
-17.732917
 20
-286.313667
 30
0.0
 41
240.0
 42
240.0
 50
90.0
210
0.0
220
0.0
230
1.0
  0
INSERT
  8
1
  6
CONTINUOUS
 62
     1
  5
49E
  2
LDR
 10
-17.732917
 20
-306.563667
 30
0.0
 41
240.0
 42
240.0
 50
270.0
210
0.0
220
0.0
230
1.0
  0
TEXT
  8
1
  6
CONTINUOUS
 62
     7
  5
49F
 10
71.908083
 20
-284.277333
 30
0.0
 40
2.5
  1
 3/16 "
  7
MONOTXT
 72
     4
 11
74.92975
 21
-283.027333
 31
0.0
210
0.0
220
0.0
230
1.0
  0
TEXT
  8
1
  6
CONTINUOUS
 62
     7
  5
4A0
 10
-22.102417
 20
-297.372167
 30
0.0
 40
2.5
  1
3"
  7
MONOTXT
 72
     4
 11
-20.340583
 21
-296.122167
 31
0.0
210
0.0
220
0.0
230
1.0
  0
TEXT
  8
1
  6
CONTINUOUS
 62
     7
  5
4A1
 10
79.988667
 20
-306.223333
 30
0.0
 40
2.5
  1
 7/16 " 0 HOLE-TYP.
  7
MONOTXT
 72
     4
 11
96.8685
 21
-304.973333
 31
0.0
210
0.0
220
0.0
230
1.0
  0
TEXT
  8
1
  6
CONTINUOUS
 62
     7
  5
4A2
 10
89.021917
 20
-306.268583
 30
0.0
 40
2.5
  1
/
  7
MONOTXT
 72
     4
 11
89.72075
 21
-305.018583
 31
0.0
210
0.0
220
0.0
230
1.0
  0
TEXT
  8
1
  6
CONTINUOUS
 62
     7
  5
4A3
 10
3.238417
 20
-312.634417
 30
0.0
 40
2.5
  1
GALVANIZED STEEL
  7
MONOTXT
 72
     4
 11
21.49625
 21
-311.384417
 31
0.0
210
0.0
220
0.0
230
1.0
  0
TEXT
  8
1
  6
CONTINUOUS
 62
     7
  5
4A4
 10
21.858
 20
-122.899083
 30
0.0
 40
4.0
  1
ELEVATION
  7
MONOTXT
 72
     4
 11
37.65325
 21
-120.899083
 31
0.0
210
0.0
220
0.0
230
1.0
  0
TEXT
  8
1
  6
CONTINUOUS
 62
     7
  5
4A5
 10
-13.858583
 20
-129.899083
 30
0.0
 40
4.0
  1
STAINLESS STEEL BANDING TYPE
  7
MONOTXT
 72
     4
 11
37.65325
 21
-127.899083
 31
0.0
210
0.0
220
0.0
230
1.0
  0
TEXT
  8
1
  6
CONTINUOUS
 62
     7
  5
4A6
 10
12.330417
 20
-136.899083
 30
0.0
 40
4.0
  1
(MAX.-9 SQ. FT.)
  7
MONOTXT
 72
     4
 11
37.6375
 21
-134.899083
 31
0.0
210
0.0
220
0.0
230
1.0
  0
LINE
  8
1
  6
CONTINUOUS
 62
     7
  5
4A7
 10
20.42325
 20
-124.056583
 30
0.0
 11
55.279583
 21
-124.056583
 31
0.0
  0
TEXT
  8
1
  6
CONTINUOUS
 62
     7
  5
4A8
 10
188.663083
 20
-76.412833
 30
0.0
 40
4.0
  1
PLAN
  7
MONOTXT
 72
     4
 11
195.670917
 21
-74.412833
 31
0.0
210
0.0
220
0.0
230
1.0
  0
TEXT
  8
1
  6
CONTINUOUS
 62
     7
  5
4A9
 10
377.241833
 20
-73.166583
 30
0.0
 40
4.0
  1
PLAN
  7
MONOTXT
 72
     4
 11
384.249667
 21
-71.166583
 31
0.0
210
0.0
220
0.0
230
1.0
  0
TEXT
  8
1
  6
CONTINUOUS
 62
     7
  5
4AA
 10
183.596
 20
-168.741917
 30
0.0
 40
4.0
  1
ELEVATION
  7
MONOTXT
 72
     4
 11
199.39125
 21
-166.741917
 31
0.0
210
0.0
220
0.0
230
1.0
  0
TEXT
  8
1
  6
CONTINUOUS
 62
     7
  5
4AB
 10
185.6275
 20
-175.741917
 30
0.0
 40
4.0
  1
TYPE I-A
  7
MONOTXT
 72
     4
 11
199.391333
 21
-173.741917
 31
0.0
210
0.0
220
0.0
230
1.0
  0
TEXT
  8
1
  6
CONTINUOUS
 62
     7
  5
4AC
 10
171.895167
 20
-182.741917
 30
0.0
 40
4.0
  1
(MAX.-20 SQ. FT.)
  7
MONOTXT
 72
     4
 11
199.3755
 21
-180.741917
 31
0.0
210
0.0
220
0.0
230
1.0
  0
TEXT
  8
1
  6
CONTINUOUS
 62
     7
  5
4AD
 10
367.335417
 20
-135.188833
 30
0.0
 40
4.0
  1
ELEVATION
  7
MONOTXT
 72
     4
 11
383.130667
 21
-133.188833
 31
0.0
210
0.0
220
0.0
230
1.0
  0
TEXT
  8
1
  6
CONTINUOUS
 62
     7
  5
4AE
 10
369.571583
 20
-142.188833
 30
0.0
 40
4.0
  1
TYPE I-B
  7
MONOTXT
 72
     4
 11
383.130583
 21
-140.188833
 31
0.0
210
0.0
220
0.0
230
1.0
  0
TEXT
  8
1
  6
CONTINUOUS
 62
     7
  5
4AF
 10
355.634583
 20
-149.188833
 30
0.0
 40
4.0
  1
(MAX.-20 SQ. FT.)
  7
MONOTXT
 72
     4
 11
383.114917
 21
-147.188833
 31
0.0
210
0.0
220
0.0
230
1.0
  0
TEXT
  8
1
  6
CONTINUOUS
 62
     7
  5
4B0
 10
9.73725
 20
-323.262417
 30
0.0
 40
4.0
  1
ELEVATION
  7
MONOTXT
 72
     4
 11
25.5325
 21
-321.262417
 31
0.0
210
0.0
220
0.0
230
1.0
  0
TEXT
  8
1
  6
CONTINUOUS
 62
     7
  5
4B1
 10
14.934083
 20
-330.262417
 30
0.0
 40
4.0
  1
TYPE II
  7
MONOTXT
 72
     4
 11
25.51675
 21
-328.262417
 31
0.0
210
0.0
220
0.0
230
1.0
  0
TEXT
  8
1
  6
CONTINUOUS
 62
     7
  5
4B2
 10
171.456667
 20
-276.541333
 30
0.0
 40
4.0
  1
PLAN
  7
MONOTXT
 72
     4
 11
178.4645
 21
-274.541333
 31
0.0
210
0.0
220
0.0
230
1.0
  0
TEXT
  8
1
  6
CONTINUOUS
 62
     7
  5
4B3
 10
124.788917
 20
-359.481083
 30
0.0
 40
4.0
  1
TYPICAL CLAMPS FOR TUBULAR SUPPORTS
  7
MONOTXT
 72
     4
 11
192.08025
 21
-357.481083
 31
0.0
210
0.0
220
0.0
230
1.0
  0
TEXT
  8
1
  6
CONTINUOUS
 62
     7
  5
4B4
 10
171.95425
 20
-366.481083
 30
0.0
 40
4.0
  1
(GALVANIZED)
  7
MONOTXT
 72
     4
 11
192.064417
 21
-364.481083
 31
0.0
210
0.0
220
0.0
230
1.0
  0
LINE
  8
1
  6
CONTINUOUS
 62
     7
  5
4B5
 10
186.106
 20
-78.270833
 30
0.0
 11
205.226667
 21
-78.270833
 31
0.0
  0
LINE
  8
1
  6
CONTINUOUS
 62
     7
  5
4B6
 10
374.912
 20
-75.39175
 30
0.0
 11
394.032667
 21
-75.39175
 31
0.0
  0
LINE
  8
1
  6
CONTINUOUS
 62
     7
  5
4B7
 10
123.148667
 20
-360.639167
 30
0.0
 11
261.271833
 21
-360.639167
 31
0.0
  0
LINE
  8
1
  6
CONTINUOUS
 62
     7
  5
4B8
 10
171.088333
 20
-367.843917
 30
0.0
 11
213.438333
 21
-367.843917
 31
0.0
  0
LINE
  8
1
  6
CONTINUOUS
 62
     7
  5
4B9
 10
182.210167
 20
-169.8435
 30
0.0
 11
218.085833
 21
-169.8435
 31
0.0
  0
LINE
  8
1
  6
CONTINUOUS
 62
     7
  5
4BA
 10
185.283667
 20
-176.607333
 30
0.0
 11
215.110667
 21
-176.607333
 31
0.0
  0
LINE
  8
1
  6
CONTINUOUS
 62
     7
  5
4BB
 10
366.058917
 20
-136.291083
 30
0.0
 11
400.720917
 21
-136.291083
 31
0.0
  0
LINE
  8
1
  6
CONTINUOUS
 62
     7
  5
4BC
 10
368.992583
 20
-143.334083
 30
0.0
 11
397.772833
 21
-143.334083
 31
0.0
  0
TEXT
  8
1
  6
CONTINUOUS
 62
     7
  5
4BD
 10
13.119417
 20
-265.208083
 30
0.0
 40
4.0
  1
PLAN
  7
MONOTXT
 72
     4
 11
20.12725
 21
-263.208083
 31
0.0
210
0.0
220
0.0
230
1.0
  0
LINE
  8
1
  6
CONTINUOUS
 62
     7
  5
4BE
 10
10.789583
 20
-267.186917
 30
0.0
 11
29.91025
 21
-267.186917
 31
0.0
  0
LINE
  8
1
  6
CONTINUOUS
 62
     7
  5
4BF
 10
8.603417
 20
-324.63025
 30
0.0
 11
43.182833
 21
-324.63025
 31
0.0
  0
LINE
  8
1
  6
CONTINUOUS
 62
     7
  5
4C0
 10
13.59725
 20
-331.34825
 30
0.0
 11
38.432417
 21
-331.34825
 31
0.0
  0
LINE
  8
1
  6
CONTINUOUS
 62
     7
  5
4C1
 10
169.034583
 20
-277.968917
 30
0.0
 11
187.479333
 21
-277.968917
 31
0.0
  0
LINE
  8
1
  6
CONTINUOUS
 62
     7
  5
4C2
 10
159.81525
 20
-334.0125
 30
0.0
 11
194.409583
 21
-334.0125
 31
0.0
  0
LINE
  8
1
  6
CONTINUOUS
 62
     7
  5
4C3
 10
152.89775
 20
-340.633667
 30
0.0
 11
200.527
 21
-340.633667
 31
0.0
  0
TEXT
  8
1
  6
CONTINUOUS
 62
     7
  5
4C4
 10
-3.999167
 20
-104.705667
 30
0.0
 40
2.5
  1
.02"x 3/4 " TYP.
  7
MONOTXT
210
0.0
220
0.0
230
1.0
  0
LINE
  8
1
  6
CONTINUOUS
 62
     7
  5
4C5
 10
493.72025
 20
5.65675
 30
0.0
 11
507.802083
 21
5.65675
 31
0.0
  0
TEXT
  8
1
  6
CONTINUOUS
 62
     7
  5
4C6
 10
254.563083
 20
-20.452583
 30
0.0
 40
2.5
  1
ALUM. T OR ANGLE
  7
MONOTXT
 11
254.563083
 21
-17.952583
 31
0.0
210
0.0
220
0.0
230
1.0
 73
     3
  0
TEXT
  8
1
  6
CONTINUOUS
 62
     7
  5
4C7
 10
254.563083
 20
-24.952583
 30
0.0
 40
2.5
  1
SIGN BRACKET
  7
MONOTXT
 11
254.563083
 21
-22.452583
 31
0.0
210
0.0
220
0.0
230
1.0
 73
     3
  0
TEXT
  8
1
  6
CONTINUOUS
 62
     7
  5
4C8
 10
254.563083
 20
-29.452583
 30
0.0
 40
2.5
  1
(SIZE AS REQUIRED)
  7
MONOTXT
 11
254.563083
 21
-26.952583
 31
0.0
210
0.0
220
0.0
230
1.0
 73
     3
  0
TEXT
  8
1
  6
CONTINUOUS
 62
     7
  5
4C9
 10
83.181333
 20
-199.338333
 30
0.0
 40
2.5
  1
ALUM. T OR ANGLE
  7
MONOTXT
 11
83.181333
 21
-196.838333
 31
0.0
210
0.0
220
0.0
230
1.0
 73
     3
  0
TEXT
  8
1
  6
CONTINUOUS
 62
     7
  5
4CA
 10
83.181333
 20
-203.838333
 30
0.0
 40
2.5
  1
SIGN BRACKET
  7
MONOTXT
 11
83.181333
 21
-201.338333
 31
0.0
210
0.0
220
0.0
230
1.0
 73
     3
  0
TEXT
  8
1
  6
CONTINUOUS
 62
     7
  5
4CB
 10
83.181333
 20
-208.338333
 30
0.0
 40
2.5
  1
(SIZE AS REQUIRED)
  7
MONOTXT
 11
83.181333
 21
-205.838333
 31
0.0
210
0.0
220
0.0
230
1.0
 73
     3
  0
TEXT
  8
1
  6
CONTINUOUS
 62
     7
  5
4CC
 10
229.763917
 20
-227.7435
 30
0.0
 40
2.5
  1
ALUM. TEE
  7
MONOTXT
 72
     4
 11
239.124083
 21
-226.4935
 31
0.0
210
0.0
220
0.0
230
1.0
  0
TEXT
  8
1
  6
CONTINUOUS
 62
     7
  5
4CD
 10
229.6655
 20
-233.2435
 30
0.0
 40
2.5
  1
OR ANGLE
  7
MONOTXT
 72
     4
 11
239.124167
 21
-231.9935
 31
0.0
210
0.0
220
0.0
230
1.0
  0
INSERT
  8
1
  6
CONTINUOUS
 62
     1
  5
4CE
  2
LDR
 10
226.319833
 20
-28.035333
 30
0.0
 41
240.0
 42
240.0
 50
106.094529
210
0.0
220
0.0
230
1.0
  0
TEXT
  8
1
  6
CONTINUOUS
 62
     7
  5
4CF
 10
438.969417
 20
-98.267167
 30
0.0
 40
2.5
  1
2 1/2 "x2"x 1/4 "
  7
MONOTXT
 11
438.969417
 21
-95.767167
 31
0.0
210
0.0
220
0.0
230
1.0
 73
     3
  0
TEXT
  8
1
  6
CONTINUOUS
 62
     7
  5
4D0
 10
438.969417
 20
-102.767167
 30
0.0
 40
2.5
  1
(OR 2 1/2 "x2 1/2 "x 1/4 ")
  7
MONOTXT
 11
438.969417
 21
-100.267167
 31
0.0
210
0.0
220
0.0
230
1.0
 73
     3
  0
TEXT
  8
1
  6
CONTINUOUS
 62
     7
  5
4D1
 10
438.969417
 20
-107.267167
 30
0.0
 40
2.5
  1
A-36 STEEL GALV. OR
  7
MONOTXT
 11
438.969417
 21
-104.767167
 31
0.0
210
0.0
220
0.0
230
1.0
 73
     3
  0
TEXT
  8
1
  6
CONTINUOUS
 62
     7
  5
4D2
 10
438.969417
 20
-111.767167
 30
0.0
 40
2.5
  1
APPROPRIATE ALUM.
  7
MONOTXT
 11
438.969417
 21
-109.267167
 31
0.0
210
0.0
220
0.0
230
1.0
 73
     3
  0
LINE
  8
1
  6
CONTINUOUS
 62
     7
  5
4D3
 10
435.938333
 20
-97.169167
 30
0.0
 11
427.928583
 21
-97.40975
 31
0.0
  0
INSERT
  8
1
  6
CONTINUOUS
 62
     1
  5
4D4
  2
LDR
 10
427.928583
 20
-97.40975
 30
0.0
 41
240.000001
 42
240.000001
 50
181.720436
210
0.0
220
0.0
230
1.0
  0
LINE
  8
1
  6
CONTINUOUS
 62
     7
  5
4D5
 10
54.02375
 20
-227.059583
 30
0.0
 11
48.847667
 21
-209.752917
 31
0.0
  0
INSERT
  8
1
  6
CONTINUOUS
 62
     1
  5
4D6
  2
LDR
 10
48.847667
 20
-209.752917
 30
0.0
 41
239.999999
 42
239.999999
 50
106.650889
210
0.0
220
0.0
230
1.0
  0
TEXT
  8
1
  6
CONTINUOUS
 62
     7
  5
4D7
 10
61.622583
 20
-228.316583
 30
0.0
 40
2.5
  1
MOUNTING LUG
  7
MONOTXT
 11
61.622583
 21
-225.816583
 31
0.0
210
0.0
220
0.0
230
1.0
 73
     3
  0
TEXT
  8
1
  6
CONTINUOUS
 62
     7
  5
4D8
 10
61.622583
 20
-232.816583
 30
0.0
 40
2.5
  1
2 1/2 "x1 1/2 "x 3/8 "
  7
MONOTXT
 11
61.622583
 21
-230.316583
 31
0.0
210
0.0
220
0.0
230
1.0
 73
     3
  0
TEXT
  8
1
  6
CONTINUOUS
 62
     7
  5
4D9
 10
218.18575
 20
-260.68725
 30
0.0
 40
2.5
  1
MOUNTING LUG
  7
MONOTXT
 11
218.18575
 21
-258.18725
 31
0.0
210
0.0
220
0.0
230
1.0
 73
     3
  0
TEXT
  8
1
  6
CONTINUOUS
 62
     7
  5
4DA
 10
218.18575
 20
-265.18725
 30
0.0
 40
2.5
  1
2 3/4 "x2"x 3/8 "
  7
MONOTXT
 11
218.18575
 21
-262.68725
 31
0.0
210
0.0
220
0.0
230
1.0
 73
     3
  0
LINE
  8
1
  6
CONTINUOUS
 62
     7
  5
4DB
 10
211.2015
 20
-259.43025
 30
0.0
 11
206.025417
 21
-242.123583
 31
0.0
  0
INSERT
  8
1
  6
CONTINUOUS
 62
     1
  5
4DC
  2
LDR
 10
206.025417
 20
-242.123583
 30
0.0
 41
239.999999
 42
239.999999
 50
106.650889
210
0.0
220
0.0
230
1.0
  0
LINE
  8
1
  6
CONTINUOUS
 62
     7
  5
4DD
 10
211.2015
 20
-259.43025
 30
0.0
 11
216.361917
 21
-259.43025
 31
0.0
  0
LINE
  8
1
  6
CONTINUOUS
 62
     7
  5
4DE
 10
234.8825
 20
-300.334583
 30
0.0
 11
240.58475
 21
-294.313917
 31
0.0
  0
TEXT
  8
1
  6
CONTINUOUS
 62
     7
  5
4DF
 10
227.79825
 20
-317.911167
 30
0.0
 40
2.5
  1
 7/16 " 0 HOLE-TYP.
  7
MONOTXT
 72
     4
 11
244.678083
 21
-316.661167
 31
0.0
210
0.0
220
0.0
230
1.0
  0
TEXT
  8
1
  6
CONTINUOUS
 62
     7
  5
4E0
 10
160.993583
 20
-332.340583
 30
0.0
 40
4.0
  1
ELEVATION
  7
MONOTXT
 72
     4
 11
176.788833
 21
-330.340583
 31
0.0
210
0.0
220
0.0
230
1.0
  0
TEXT
  8
1
  6
CONTINUOUS
 62
     7
  5
4E1
 10
154.269167
 20
-339.340583
 30
0.0
 40
4.0
  1
TYPE II (ALT. 1)
  7
MONOTXT
 72
     4
 11
176.773083
 21
-337.340583
 31
0.0
210
0.0
220
0.0
230
1.0
  0
LINE
  8
1
  6
CONTINUOUS
 62
     1
  5
4E2
 10
388.92725
 20
-160.283417
 30
0.0
 11
388.92725
 21
-252.521667
 31
0.0
  0
LINE
  8
1
  6
CONTINUOUS
 62
     1
  5
4E3
 10
365.867667
 20
-161.384667
 30
0.0
 11
365.867667
 21
-251.420333
 31
0.0
  0
LINE
  8
1
  6
CONTINUOUS
 62
     1
  5
4E4
 10
363.6715
 20
-160.283417
 30
0.0
 11
363.6715
 21
-252.521667
 31
0.0
  0
LINE
  8
1
  6
HIDDEN
 62
     1
  5
4E5
 10
386.731083
 20
-160.315417
 30
0.0
 11
386.731083
 21
-252.4895
 31
0.0
  0
POLYLINE
  8
1
  6
CONTINUOUS
 62
     1
  5
4E6
 66
     1
 10
0.0
 20
0.0
 30
0.0
  0
VERTEX
  8
1
  6
CONTINUOUS
 62
     1
  5
4E7
 10
363.6715
 20
-160.283417
 30
0.0
  0
VERTEX
  8
1
  6
CONTINUOUS
 62
     1
  5
4E8
 10
364.92775
 20
-161.76075
 30
0.0
  0
VERTEX
  8
1
  6
CONTINUOUS
 62
     1
  5
4E9
 10
365.830417
 20
-161.399583
 30
0.0
  0
VERTEX
  8
1
  6
CONTINUOUS
 62
     1
  5
4EA
 10
367.63625
 20
-160.676917
 30
0.0
  0
VERTEX
  8
1
  6
CONTINUOUS
 62
     1
  5
4EB
 10
369.080667
 20
-161.03825
 30
0.0
  0
VERTEX
  8
1
  6
CONTINUOUS
 62
     1
  5
4EC
 10
370.705833
 20
-160.496333
 30
0.0
  0
VERTEX
  8
1
  6
CONTINUOUS
 62
     1
  5
4ED
 10
372.511667
 20
-160.135167
 30
0.0
  0
VERTEX
  8
1
  6
CONTINUOUS
 62
     1
  5
4EE
 10
374.136917
 20
-160.496333
 30
0.0
  0
VERTEX
  8
1
  6
CONTINUOUS
 62
     1
  5
4EF
 10
376.665
 20
-159.9545
 30
0.0
  0
VERTEX
  8
1
  6
CONTINUOUS
 62
     1
  5
4F0
 10
377.387167
 20
-160.135167
 30
0.0
  0
VERTEX
  8
1
  6
CONTINUOUS
 62
     1
  5
4F1
 10
379.7345
 20
-161.399583
 30
0.0
  0
VERTEX
  8
1
  6
CONTINUOUS
 62
     1
  5
4F2
 10
381.5405
 20
-160.857667
 30
0.0
  0
VERTEX
  8
1
  6
CONTINUOUS
 62
     1
  5
4F3
 10
383.165583
 20
-160.315667
 30
0.0
  0
VERTEX
  8
1
  6
CONTINUOUS
 62
     1
  5
4F4
 10
385.15175
 20
-160.135167
 30
0.0
  0
VERTEX
  8
1
  6
CONTINUOUS
 62
     1
  5
4F5
 10
386.776917
 20
-160.315667
 30
0.0
  0
VERTEX
  8
1
  6
CONTINUOUS
 62
     1
  5
4F6
 10
388.92725
 20
-160.283417
 30
0.0
  0
SEQEND
  8
1
  6
CONTINUOUS
 62
     1
  5
4F7
  0
POLYLINE
  8
1
  6
CONTINUOUS
 62
     1
  5
4F8
 66
     1
 10
0.0
 20
0.0
 30
0.0
  0
VERTEX
  8
1
  6
CONTINUOUS
 62
     1
  5
4F9
 10
363.6715
 20
-252.521667
 30
0.0
  0
VERTEX
  8
1
  6
CONTINUOUS
 62
     1
  5
4FA
 10
364.92775
 20
-251.044167
 30
0.0
  0
VERTEX
  8
1
  6
CONTINUOUS
 62
     1
  5
4FB
 10
365.830417
 20
-251.4055
 30
0.0
  0
VERTEX
  8
1
  6
CONTINUOUS
 62
     1
  5
4FC
 10
367.63625
 20
-252.128
 30
0.0
  0
VERTEX
  8
1
  6
CONTINUOUS
 62
     1
  5
4FD
 10
369.080667
 20
-251.76675
 30
0.0
  0
VERTEX
  8
1
  6
CONTINUOUS
 62
     1
  5
4FE
 10
370.705833
 20
-252.308667
 30
0.0
  0
VERTEX
  8
1
  6
CONTINUOUS
 62
     1
  5
4FF
 10
372.511667
 20
-252.669917
 30
0.0
  0
VERTEX
  8
1
  6
CONTINUOUS
 62
     1
  5
500
 10
374.136917
 20
-252.308667
 30
0.0
  0
VERTEX
  8
1
  6
CONTINUOUS
 62
     1
  5
501
 10
376.665
 20
-252.8505
 30
0.0
  0
VERTEX
  8
1
  6
CONTINUOUS
 62
     1
  5
502
 10
377.387167
 20
-252.669917
 30
0.0
  0
VERTEX
  8
1
  6
CONTINUOUS
 62
     1
  5
503
 10
379.7345
 20
-251.4055
 30
0.0
  0
VERTEX
  8
1
  6
CONTINUOUS
 62
     1
  5
504
 10
381.5405
 20
-251.9475
 30
0.0
  0
VERTEX
  8
1
  6
CONTINUOUS
 62
     1
  5
505
 10
383.165583
 20
-252.48925
 30
0.0
  0
VERTEX
  8
1
  6
CONTINUOUS
 62
     1
  5
506
 10
385.15175
 20
-252.669917
 30
0.0
  0
VERTEX
  8
1
  6
CONTINUOUS
 62
     1
  5
507
 10
386.776917
 20
-252.48925
 30
0.0
  0
VERTEX
  8
1
  6
CONTINUOUS
 62
     1
  5
508
 10
388.92725
 20
-252.521667
 30
0.0
  0
SEQEND
  8
1
  6
CONTINUOUS
 62
     1
  5
509
  0
LINE
  8
1
  6
CONTINUOUS
 62
     1
  5
50A
 10
340.611917
 20
-229.462083
 30
0.0
 11
363.6715
 21
-229.462083
 31
0.0
  0
CIRCLE
  8
1
  6
CONTINUOUS
 62
     1
  5
50B
 10
340.611849
 20
-206.402469
 30
0.0
 40
23.059575
210
0.0
220
0.0
230
1.0
  0
CIRCLE
  8
1
  6
CONTINUOUS
 62
     1
  5
50C
 10
340.611849
 20
-206.402469
 30
0.0
 40
20.314388
210
0.0
220
0.0
230
1.0
  0
ARC
  8
1
  6
CONTINUOUS
 62
     1
  5
50D
 10
340.611849
 20
-206.402469
 30
0.0
 40
26.3538
 50
90.0
 51
270.0
210
0.0
220
0.0
230
1.0
  0
LINE
  8
1
  6
CONTINUOUS
 62
     1
  5
50E
 10
340.611917
 20
-232.756333
 30
0.0
 11
363.6715
 21
-232.756333
 31
0.0
  0
LINE
  8
1
  6
CONTINUOUS
 62
     1
  5
50F
 10
330.280833
 20
-226.99625
 30
0.0
 11
320.016167
 21
-216.731667
 31
0.0
  0
LINE
  8
1
  6
CONTINUOUS
 62
     1
  5
510
 10
335.188167
 20
-228.79775
 30
0.0
 11
330.2715
 21
-223.880917
 31
0.0
  0
LINE
  8
1
  6
CONTINUOUS
 62
     1
  5
511
 10
323.17775
 20
-216.787167
 30
0.0
 11
318.218167
 21
-211.8275
 31
0.0
  0
LINE
  8
1
  6
CONTINUOUS
 62
     1
  5
512
 10
338.883917
 20
-229.38775
 30
0.0
 11
335.57725
 21
-226.080833
 31
0.0
  0
LINE
  8
1
  6
CONTINUOUS
 62
     1
  5
513
 10
320.960833
 20
-211.464667
 30
0.0
 11
317.628667
 21
-208.132083
 31
0.0
  0
LINE
  8
1
  6
CONTINUOUS
 62
     1
  5
514
 10
342.002917
 20
-229.400667
 30
0.0
 11
339.27125
 21
-226.668917
 31
0.0
  0
LINE
  8
1
  6
CONTINUOUS
 62
     1
  5
515
 10
320.365
 20
-207.763083
 30
0.0
 11
317.61275
 21
-205.010583
 31
0.0
  0
LINE
  8
1
  6
CONTINUOUS
 62
     1
  5
516
 10
344.783833
 20
-229.075917
 30
0.0
 11
342.3305
 21
-226.622583
 31
0.0
  0
LINE
  8
1
  6
CONTINUOUS
 62
     1
  5
517
 10
320.38175
 20
-204.673917
 30
0.0
 11
317.940417
 21
-202.232167
 31
0.0
  0
LINE
  8
1
  6
CONTINUOUS
 62
     1
  5
518
 10
347.272417
 20
-228.458667
 30
0.0
 11
345.03975
 21
-226.225917
 31
0.0
  0
LINE
  8
1
  6
CONTINUOUS
 62
     1
  5
519
 10
320.80425
 20
-201.99075
 30
0.0
 11
318.5565
 21
-199.742667
 31
0.0
  0
LINE
  8
1
  6
CONTINUOUS
 62
     1
  5
51A
 10
349.553917
 20
-227.634167
 30
0.0
 11
347.435083
 21
-225.515417
 31
0.0
  0
LINE
  8
1
  6
CONTINUOUS
 62
     1
  5
51B
 10
321.48875
 20
-199.56925
 30
0.0
 11
319.380083
 21
-197.460333
 31
0.0
  0
LINE
  8
1
  6
CONTINUOUS
 62
     1
  5
51C
 10
351.652083
 20
-226.626667
 30
0.0
 11
349.615083
 21
-224.589583
 31
0.0
  0
LINE
  8
1
  6
CONTINUOUS
 62
     1
  5
51D
 10
322.418333
 20
-197.392833
 30
0.0
 11
320.386917
 21
-195.361417
 31
0.0
  0
LINE
  8
1
  6
CONTINUOUS
 62
     1
  5
51E
 10
353.584
 20
-225.452833
 30
0.0
 11
351.602667
 21
-223.471417
 31
0.0
  0
LINE
  8
1
  6
CONTINUOUS
 62
     1
  5
51F
 10
323.54825
 20
-195.417083
 30
0.0
 11
321.560667
 21
-193.429333
 31
0.0
  0
LINE
  8
1
  6
CONTINUOUS
 62
     1
  5
520
 10
355.359583
 20
-224.1225
 30
0.0
 11
353.412917
 21
-222.175833
 31
0.0
  0
LINE
  8
1
  6
CONTINUOUS
 62
     1
  5
521
 10
324.853833
 20
-193.616667
 30
0.0
 11
322.890333
 21
-191.65325
 31
0.0
  0
LINE
  8
1
  6
CONTINUOUS
 62
     1
  5
522
 10
356.9825
 20
-222.639583
 30
0.0
 11
355.0345
 21
-220.6915
 31
0.0
  0
LINE
  8
1
  6
CONTINUOUS
 62
     1
  5
523
 10
326.327083
 20
-191.984083
 30
0.0
 11
324.376583
 21
-190.033417
 31
0.0
  0
LINE
  8
1
  6
CONTINUOUS
 62
     1
  5
524
 10
358.45
 20
-221.001167
 30
0.0
 11
356.4905
 21
-219.041917
 31
0.0
  0
LINE
  8
1
  6
CONTINUOUS
 62
     1
  5
525
 10
327.965167
 20
-190.516417
 30
0.0
 11
326.014583
 21
-188.56575
 31
0.0
  0
LINE
  8
1
  6
CONTINUOUS
 62
     1
  5
526
 10
359.7675
 20
-219.21275
 30
0.0
 11
357.778167
 21
-217.223667
 31
0.0
  0
LINE
  8
1
  6
CONTINUOUS
 62
     1
  5
527
 10
329.778417
 20
-189.223833
 30
0.0
 11
327.8025
 21
-187.247833
 31
0.0
  0
LINE
  8
1
  6
CONTINUOUS
 62
     1
  5
528
 10
360.9285
 20
-217.268
 30
0.0
 11
358.889083
 21
-215.228667
 31
0.0
  0
LINE
  8
1
  6
CONTINUOUS
 62
     1
  5
529
 10
331.785667
 20
-188.12525
 30
0.0
 11
329.746833
 21
-186.086417
 31
0.0
  0
LINE
  8
1
  6
CONTINUOUS
 62
     1
  5
52A
 10
361.922
 20
-215.155667
 30
0.0
 11
359.808417
 21
-213.042333
 31
0.0
  0
LINE
  8
1
  6
CONTINUOUS
 62
     1
  5
52B
 10
333.987667
 20
-187.221583
 30
0.0
 11
331.8585
 21
-185.092417
 31
0.0
  0
LINE
  8
1
  6
CONTINUOUS
 62
     1
  5
52C
 10
362.730917
 20
-212.858833
 30
0.0
 11
360.469167
 21
-210.597
 31
0.0
  0
LINE
  8
1
  6
CONTINUOUS
 62
     1
  5
52D
 10
336.409667
 20
-186.537667
 30
0.0
 11
334.154667
 21
-184.282583
 31
0.0
  0
LINE
  8
1
  6
CONTINUOUS
 62
     1
  5
52E
 10
363.330167
 20
-210.35225
 30
0.0
 11
360.857167
 21
-207.87925
 31
0.0
  0
LINE
  8
1
  6
CONTINUOUS
 62
     1
  5
52F
 10
339.138917
 20
-186.161167
 30
0.0
 11
336.664167
 21
-183.686333
 31
0.0
  0
LINE
  8
1
  6
CONTINUOUS
 62
     1
  5
530
 10
363.623
 20
-207.539083
 30
0.0
 11
360.850167
 21
-204.766417
 31
0.0
  0
LINE
  8
1
  6
CONTINUOUS
 62
     1
  5
531
 10
342.2395
 20
-186.155583
 30
0.0
 11
339.47625
 21
-183.3925
 31
0.0
  0
LINE
  8
1
  6
CONTINUOUS
 62
     1
  5
532
 10
363.58375
 20
-204.394333
 30
0.0
 11
360.185083
 21
-200.995667
 31
0.0
  0
LINE
  8
1
  6
CONTINUOUS
 62
     1
  5
533
 10
346.0075
 20
-186.81775
 30
0.0
 11
342.620417
 21
-183.431
 31
0.0
  0
LINE
  8
1
  6
CONTINUOUS
 62
     1
  5
534
 10
362.930083
 20
-200.634667
 30
0.0
 11
357.62925
 21
-195.33375
 31
0.0
  0
LINE
  8
1
  6
CONTINUOUS
 62
     1
  5
535
 10
351.6985
 20
-189.403083
 30
0.0
 11
346.37925
 21
-184.083833
 31
0.0
  0
LINE
  8
1
  6
CONTINUOUS
 62
     1
  5
536
 10
360.916667
 20
-195.515583
 30
0.0
 11
351.498833
 21
-186.097417
 31
0.0
  0
LINE
  8
1
  6
CONTINUOUS
 62
     1
  5
537
 10
340.611917
 20
-180.04875
 30
0.0
 11
363.6715
 21
-180.04875
 31
0.0
  0
LINE
  8
1
  6
CONTINUOUS
 62
     1
  5
538
 10
368.612833
 20
-180.04875
 30
0.0
 11
374.65225
 21
-180.04875
 31
0.0
  0
LINE
  8
1
  6
CONTINUOUS
 62
     1
  5
539
 10
340.611917
 20
-183.343
 30
0.0
 11
363.6715
 21
-183.343
 31
0.0
  0
LINE
  8
1
  6
CONTINUOUS
 62
     1
  5
53A
 10
368.612833
 20
-183.343
 30
0.0
 11
374.65225
 21
-183.343
 31
0.0
  0
LINE
  8
1
  6
CONTINUOUS
 62
     1
  5
53B
 10
374.65225
 20
-180.04875
 30
0.0
 11
374.65225
 21
-183.343
 31
0.0
  0
LINE
  8
1
  6
CONTINUOUS
 62
     1
  5
53C
 10
371.358
 20
-177.852583
 30
0.0
 11
371.358
 21
-185.539083
 31
0.0
  0
LINE
  8
1
  6
CONTINUOUS
 62
     1
  5
53D
 10
371.358
 20
-177.852583
 30
0.0
 11
368.612833
 21
-177.852583
 31
0.0
  0
LINE
  8
1
  6
CONTINUOUS
 62
     1
  5
53E
 10
371.358
 20
-185.539083
 30
0.0
 11
368.612833
 21
-185.539083
 31
0.0
  0
LINE
  8
1
  6
CONTINUOUS
 62
     1
  5
53F
 10
368.612833
 20
-176.7545
 30
0.0
 11
368.612833
 21
-186.637167
 31
0.0
  0
LINE
  8
1
  6
CONTINUOUS
 62
     1
  5
540
 10
368.612833
 20
-176.7545
 30
0.0
 11
365.867667
 21
-176.7545
 31
0.0
  0
LINE
  8
1
  6
CONTINUOUS
 62
     1
  5
541
 10
368.612833
 20
-186.637167
 30
0.0
 11
365.867667
 21
-186.637167
 31
0.0
  0
LINE
  8
1
  6
CONTINUOUS
 62
     1
  5
542
 10
373.005083
 20
-180.04875
 30
0.0
 11
373.005083
 21
-183.343
 31
0.0
  0
LINE
  8
1
  6
CONTINUOUS
 62
     1
  5
543
 10
372.181667
 20
-181.146833
 30
0.0
 11
372.181667
 21
-182.244917
 31
0.0
  0
LINE
  8
1
  6
CONTINUOUS
 62
     1
  5
544
 10
373.82875
 20
-181.146833
 30
0.0
 11
373.82875
 21
-182.244917
 31
0.0
  0
LINE
  8
1
  6
CONTINUOUS
 62
     1
  5
545
 10
368.612833
 20
-181.695917
 30
0.0
 11
365.867667
 21
-181.695917
 31
0.0
  0
LINE
  8
1
  6
CONTINUOUS
 62
     1
  5
546
 10
368.612833
 20
-229.462083
 30
0.0
 11
374.65225
 21
-229.462083
 31
0.0
  0
LINE
  8
1
  6
CONTINUOUS
 62
     1
  5
547
 10
368.612833
 20
-232.756333
 30
0.0
 11
374.65225
 21
-232.756333
 31
0.0
  0
LINE
  8
1
  6
CONTINUOUS
 62
     1
  5
548
 10
374.65225
 20
-229.462083
 30
0.0
 11
374.65225
 21
-232.756333
 31
0.0
  0
LINE
  8
1
  6
CONTINUOUS
 62
     1
  5
549
 10
371.358
 20
-227.266
 30
0.0
 11
371.358
 21
-234.9525
 31
0.0
  0
LINE
  8
1
  6
CONTINUOUS
 62
     1
  5
54A
 10
371.358
 20
-227.266
 30
0.0
 11
368.612833
 21
-227.266
 31
0.0
  0
LINE
  8
1
  6
CONTINUOUS
 62
     1
  5
54B
 10
371.358
 20
-234.9525
 30
0.0
 11
368.612833
 21
-234.9525
 31
0.0
  0
LINE
  8
1
  6
CONTINUOUS
 62
     1
  5
54C
 10
368.612833
 20
-226.167917
 30
0.0
 11
368.612833
 21
-236.050583
 31
0.0
  0
LINE
  8
1
  6
CONTINUOUS
 62
     1
  5
54D
 10
368.612833
 20
-226.167917
 30
0.0
 11
365.867667
 21
-226.167917
 31
0.0
  0
LINE
  8
1
  6
CONTINUOUS
 62
     1
  5
54E
 10
368.612833
 20
-236.050583
 30
0.0
 11
365.867667
 21
-236.050583
 31
0.0
  0
LINE
  8
1
  6
CONTINUOUS
 62
     1
  5
54F
 10
373.005083
 20
-229.462083
 30
0.0
 11
373.005083
 21
-232.756333
 31
0.0
  0
LINE
  8
1
  6
CONTINUOUS
 62
     1
  5
550
 10
372.181667
 20
-230.560167
 30
0.0
 11
372.181667
 21
-231.65825
 31
0.0
  0
LINE
  8
1
  6
CONTINUOUS
 62
     1
  5
551
 10
373.82875
 20
-230.560167
 30
0.0
 11
373.82875
 21
-231.65825
 31
0.0
  0
LINE
  8
1
  6
CONTINUOUS
 62
     1
  5
552
 10
368.612833
 20
-231.10925
 30
0.0
 11
365.867667
 21
-231.10925
 31
0.0
  0
LINE
  8
1
  6
HIDDEN
 62
     1
  5
553
 10
360.92625
 20
-261.596333
 30
0.0
 11
360.92625
 21
-331.232083
 31
0.0
  0
LINE
  8
1
  6
CONTINUOUS
 62
     1
  5
554
 10
317.552333
 20
-263.502417
 30
0.0
 11
317.552333
 21
-333.77925
 31
0.0
  0
LINE
  8
1
  6
HIDDEN
 62
     1
  5
555
 10
320.2975
 20
-265.98475
 30
0.0
 11
320.2975
 21
-335.68525
 31
0.0
  0
ARC
  8
1
  6
CONTINUOUS
 62
     1
  5
556
 10
351.960011
 20
-277.439254
 30
0.0
 40
18.204229
 50
49.959064
 51
119.832294
210
0.0
220
0.0
230
1.0
  0
ARC
  8
1
  6
CONTINUOUS
 62
     1
  5
557
 10
329.402004
 20
-244.039565
 30
0.0
 40
22.188743
 50
279.681717
 51
307.481858
210
0.0
220
0.0
230
1.0
  0
ARC
  8
1
  6
CONTINUOUS
 62
     1
  5
558
 10
325.276332
 20
-278.291116
 30
0.0
 40
22.811409
 50
43.844686
 51
70.484444
210
0.0
220
0.0
230
1.0
  0
ARC
  8
1
  6
CONTINUOUS
 62
     1
  5
559
 10
327.944402
 20
-268.603925
 30
0.0
 40
12.809763
 50
67.256322
 51
105.218836
210
0.0
220
0.0
230
1.0
  0
ARC
  8
1
  6
CONTINUOUS
 62
     1
  5
55A
 10
326.53825
 20
-249.393937
 30
0.0
 40
17.786347
 50
270.671856
 51
291.765536
210
0.0
220
0.0
230
1.0
  0
ARC
  8
1
  6
CONTINUOUS
 62
     1
  5
55B
 10
327.944402
 20
-268.603925
 30
0.0
 40
12.809763
 50
105.218836
 51
142.110147
210
0.0
220
0.0
230
1.0
  0
ARC
  8
1
  6
CONTINUOUS
 62
     1
  5
55C
 10
326.793029
 20
-263.030783
 30
0.0
 40
7.13851
 50
108.045172
 51
168.0109
210
0.0
220
0.0
230
1.0
  0
ARC
  8
1
  6
CONTINUOUS
 62
     1
  5
55D
 10
328.191539
 20
-257.135608
 30
0.0
 40
10.146831
 50
224.557461
 51
261.814275
210
0.0
220
0.0
230
1.0
  0
ARC
  8
1
  6
CONTINUOUS
 62
     1
  5
55E
 10
326.53825
 20
-249.393937
 30
0.0
 40
17.786347
 50
246.739369
 51
270.671856
210
0.0
220
0.0
230
1.0
  0
ARC
  8
1
  6
CONTINUOUS
 62
     1
  5
55F
 10
320.992549
 20
-262.456957
 30
0.0
 40
3.595605
 50
151.42145
 51
245.722075
210
0.0
220
0.0
230
1.0
  0
LINE
  8
1
  6
CONTINUOUS
 62
     1
  5
560
 10
322.559917
 20
-266.708167
 30
0.0
 11
317.503417
 21
-261.651833
 31
0.0
  0
LINE
  8
1
  6
CONTINUOUS
 62
     1
  5
561
 10
326.112583
 20
-267.154917
 30
0.0
 11
325.9315
 21
-266.973917
 31
0.0
  0
LINE
  8
1
  6
CONTINUOUS
 62
     1
  5
562
 10
319.961167
 20
-261.003583
 30
0.0
 11
318.703583
 21
-259.746333
 31
0.0
  0
LINE
  8
1
  6
CONTINUOUS
 62
     1
  5
563
 10
320.9725
 20
-258.909
 30
0.0
 11
320.36525
 21
-258.302
 31
0.0
  0
LINE
  8
1
  6
CONTINUOUS
 62
     1
  5
564
 10
322.504083
 20
-257.335
 30
0.0
 11
322.2905
 21
-257.121333
 31
0.0
  0
LINE
  8
1
  6
CONTINUOUS
 62
     1
  5
565
 10
324.536917
 20
-256.262167
 30
0.0
 11
324.533167
 21
-256.258167
 31
0.0
  0
ARC
  8
1
  6
CONTINUOUS
 62
     1
  5
566
 10
324.350722
 20
-261.215206
 30
0.0
 40
4.552666
 50
184.191117
 51
221.887247
210
0.0
220
0.0
230
1.0
  0
ARC
  8
1
  6
CONTINUOUS
 62
     1
  5
567
 10
351.821694
 20
-353.241974
 30
0.0
 40
22.188743
 50
99.681717
 51
127.481858
210
0.0
220
0.0
230
1.0
  0
ARC
  8
1
  6
CONTINUOUS
 62
     1
  5
568
 10
329.263687
 20
-319.842285
 30
0.0
 40
18.204229
 50
229.959064
 51
299.832294
210
0.0
220
0.0
230
1.0
  0
ARC
  8
1
  6
CONTINUOUS
 62
     1
  5
569
 10
355.947366
 20
-318.990423
 30
0.0
 40
22.811409
 50
223.844686
 51
250.484444
210
0.0
220
0.0
230
1.0
  0
ARC
  8
1
  6
CONTINUOUS
 62
     1
  5
56A
 10
353.279297
 20
-328.677614
 30
0.0
 40
12.809763
 50
247.256322
 51
285.218836
210
0.0
220
0.0
230
1.0
  0
ARC
  8
1
  6
CONTINUOUS
 62
     1
  5
56B
 10
354.685448
 20
-347.887602
 30
0.0
 40
17.786347
 50
90.671856
 51
111.765536
210
0.0
220
0.0
230
1.0
  0
ARC
  8
1
  6
CONTINUOUS
 62
     1
  5
56C
 10
353.279297
 20
-328.677614
 30
0.0
 40
12.809763
 50
285.218836
 51
322.110147
210
0.0
220
0.0
230
1.0
  0
ARC
  8
1
  6
CONTINUOUS
 62
     1
  5
56D
 10
354.430669
 20
-334.250756
 30
0.0
 40
7.13851
 50
288.045172
 51
348.0109
210
0.0
220
0.0
230
1.0
  0
ARC
  8
1
  6
CONTINUOUS
 62
     1
  5
56E
 10
353.032159
 20
-340.14593
 30
0.0
 40
10.146831
 50
44.557461
 51
81.814275
210
0.0
220
0.0
230
1.0
  0
ARC
  8
1
  6
CONTINUOUS
 62
     1
  5
56F
 10
354.685448
 20
-347.887602
 30
0.0
 40
17.786347
 50
66.739369
 51
90.671856
210
0.0
220
0.0
230
1.0
  0
ARC
  8
1
  6
CONTINUOUS
 62
     1
  5
570
 10
360.23115
 20
-334.824582
 30
0.0
 40
3.595605
 50
331.42145
 51
65.722075
210
0.0
220
0.0
230
1.0
  0
LINE
  8
1
  6
CONTINUOUS
 62
     1
  5
571
 10
358.663917
 20
-330.573417
 30
0.0
 11
363.72025
 21
-335.629917
 31
0.0
  0
LINE
  8
1
  6
CONTINUOUS
 62
     1
  5
572
 10
361.262667
 20
-336.278083
 30
0.0
 11
362.520083
 21
-337.535333
 31
0.0
  0
LINE
  8
1
  6
CONTINUOUS
 62
     1
  5
573
 10
360.251333
 20
-338.37275
 30
0.0
 11
360.8585
 21
-338.97975
 31
0.0
  0
LINE
  8
1
  6
CONTINUOUS
 62
     1
  5
574
 10
358.719667
 20
-339.946833
 30
0.0
 11
358.93325
 21
-340.16025
 31
0.0
  0
ARC
  8
1
  6
CONTINUOUS
 62
     1
  5
575
 10
356.872976
 20
-336.066332
 30
0.0
 40
4.552666
 50
4.191117
 51
41.887247
210
0.0
220
0.0
230
1.0
  0
LINE
  8
1
  6
CONTINUOUS
 62
     1
  5
576
 10
315.905167
 20
-294.767167
 30
0.0
 11
360.92625
 21
-294.767167
 31
0.0
  0
LINE
  8
1
  6
CONTINUOUS
 62
     1
  5
577
 10
315.905167
 20
-298.061417
 30
0.0
 11
360.92625
 21
-298.061417
 31
0.0
  0
LINE
  8
1
  6
CONTINUOUS
 62
     1
  5
578
 10
369.1595
 20
-294.767167
 30
0.0
 11
375.198833
 21
-294.767167
 31
0.0
  0
LINE
  8
1
  6
CONTINUOUS
 62
     1
  5
579
 10
369.1595
 20
-298.061417
 30
0.0
 11
375.198833
 21
-298.061417
 31
0.0
  0
LINE
  8
1
  6
CONTINUOUS
 62
     1
  5
57A
 10
375.198833
 20
-294.767167
 30
0.0
 11
375.198833
 21
-298.061417
 31
0.0
  0
LINE
  8
1
  6
CONTINUOUS
 62
     1
  5
57B
 10
371.904667
 20
-292.571
 30
0.0
 11
371.904667
 21
-300.257583
 31
0.0
  0
LINE
  8
1
  6
CONTINUOUS
 62
     1
  5
57C
 10
371.904667
 20
-292.571
 30
0.0
 11
369.1595
 21
-292.571
 31
0.0
  0
LINE
  8
1
  6
CONTINUOUS
 62
     1
  5
57D
 10
371.904667
 20
-300.257583
 30
0.0
 11
369.1595
 21
-300.257583
 31
0.0
  0
LINE
  8
1
  6
CONTINUOUS
 62
     1
  5
57E
 10
369.1595
 20
-291.473
 30
0.0
 11
369.1595
 21
-301.355667
 31
0.0
  0
LINE
  8
1
  6
CONTINUOUS
 62
     1
  5
57F
 10
369.1595
 20
-291.473
 30
0.0
 11
366.41425
 21
-291.473
 31
0.0
  0
LINE
  8
1
  6
CONTINUOUS
 62
     1
  5
580
 10
369.1595
 20
-301.355667
 30
0.0
 11
366.41425
 21
-301.355667
 31
0.0
  0
LINE
  8
1
  6
CONTINUOUS
 62
     1
  5
581
 10
373.551833
 20
-294.767167
 30
0.0
 11
373.551833
 21
-298.061417
 31
0.0
  0
LINE
  8
1
  6
CONTINUOUS
 62
     1
  5
582
 10
372.72825
 20
-295.86525
 30
0.0
 11
372.72825
 21
-296.963333
 31
0.0
  0
LINE
  8
1
  6
CONTINUOUS
 62
     1
  5
583
 10
374.375333
 20
-295.86525
 30
0.0
 11
374.375333
 21
-296.963333
 31
0.0
  0
LINE
  8
1
  6
CONTINUOUS
 62
     1
  5
584
 10
369.1595
 20
-296.414333
 30
0.0
 11
366.41425
 21
-296.414333
 31
0.0
  0
ARC
  8
1
  6
CONTINUOUS
 62
     1
  5
585
 10
357.287482
 20
-178.209435
 30
0.0
 40
6.393912
 50
3.199981
 51
28.357747
210
0.0
220
0.0
230
1.0
  0
ARC
  8
1
  6
CONTINUOUS
 62
     1
  5
586
 10
365.002737
 20
-173.678329
 30
0.0
 40
2.56804
 50
166.554328
 51
215.57915
210
0.0
220
0.0
230
1.0
  0
ARC
  8
1
  6
CONTINUOUS
 62
     1
  5
587
 10
365.002737
 20
-239.126609
 30
0.0
 40
2.56804
 50
144.42085
 51
193.445672
210
0.0
220
0.0
230
1.0
  0
ARC
  8
1
  6
CONTINUOUS
 62
     1
  5
588
 10
357.287482
 20
-234.595504
 30
0.0
 40
6.393912
 50
331.642253
 51
356.800019
210
0.0
220
0.0
230
1.0
  0
ARC
  8
1
  6
CONTINUOUS
 62
     1
  5
589
 10
366.428039
 20
-286.480179
 30
0.0
 40
2.56804
 50
144.42085
 51
193.445672
210
0.0
220
0.0
230
1.0
  0
ARC
  8
1
  6
CONTINUOUS
 62
     1
  5
58A
 10
358.712783
 20
-281.949073
 30
0.0
 40
6.393912
 50
331.642253
 51
356.800019
210
0.0
220
0.0
230
1.0
  0
ARC
  8
1
  6
CONTINUOUS
 62
     1
  5
58B
 10
358.712783
 20
-310.879405
 30
0.0
 40
6.393912
 50
3.199981
 51
28.357747
210
0.0
220
0.0
230
1.0
  0
ARC
  8
1
  6
CONTINUOUS
 62
     1
  5
58C
 10
366.428039
 20
-306.3483
 30
0.0
 40
2.56804
 50
166.554328
 51
215.57915
210
0.0
220
0.0
230
1.0
  0
LINE
  8
1
  6
CONTINUOUS
 62
     1
  5
58D
 10
363.6715
 20
-263.502417
 30
0.0
 11
363.6715
 21
-289.276833
 31
0.0
  0
LINE
  8
1
  6
CONTINUOUS
 62
     1
  5
58E
 10
363.6715
 20
-305.751333
 30
0.0
 11
363.6715
 21
-333.77925
 31
0.0
  0
POLYLINE
  8
1
  6
CONTINUOUS
 62
     1
  5
58F
 66
     1
 10
0.0
 20
0.0
 30
0.0
  0
VERTEX
  8
1
  6
CONTINUOUS
 62
     1
  5
590
 10
365.867667
 20
-287.080667
 30
0.0
  0
VERTEX
  8
1
  6
CONTINUOUS
 62
     1
  5
591
 10
383.9835
 20
-287.080667
 30
0.0
  0
VERTEX
  8
1
  6
CONTINUOUS
 62
     1
  5
592
 10
383.983432
 20
-287.080602
 30
0.0
 42
0.414214
  0
VERTEX
  8
1
  6
CONTINUOUS
 62
     1
  5
593
 10
385.081507
 20
-285.982527
 30
0.0
  0
VERTEX
  8
1
  6
CONTINUOUS
 62
     1
  5
594
 10
385.081583
 20
-285.982583
 30
0.0
  0
VERTEX
  8
1
  6
CONTINUOUS
 62
     1
  5
595
 10
385.081583
 20
-272.805667
 30
0.0
  0
VERTEX
  8
1
  6
CONTINUOUS
 62
     1
  5
596
 10
385.081507
 20
-272.805627
 30
0.0
 42
-0.512644
  0
VERTEX
  8
1
  6
CONTINUOUS
 62
     1
  5
597
 10
387.277657
 20
-271.707552
 30
0.0
  0
VERTEX
  8
1
  6
CONTINUOUS
 62
     1
  5
598
 10
387.277667
 20
-271.707583
 30
0.0
  0
VERTEX
  8
1
  6
CONTINUOUS
 62
     1
  5
599
 10
387.277667
 20
-287.080667
 30
0.0
  0
VERTEX
  8
1
  6
CONTINUOUS
 62
     1
  5
59A
 10
387.277657
 20
-287.080602
 30
0.0
 42
-0.414214
  0
VERTEX
  8
1
  6
CONTINUOUS
 62
     1
  5
59B
 10
385.081507
 20
-289.276752
 30
0.0
  0
VERTEX
  8
1
  6
CONTINUOUS
 62
     1
  5
59C
 10
385.081583
 20
-289.276833
 30
0.0
  0
VERTEX
  8
1
  6
CONTINUOUS
 62
     1
  5
59D
 10
367.512333
 20
-289.276833
 30
0.0
  0
VERTEX
  8
1
  6
CONTINUOUS
 62
     1
  5
59E
 10
367.512307
 20
-289.276752
 30
0.0
 42
0.414214
  0
VERTEX
  8
1
  6
CONTINUOUS
 62
     1
  5
59F
 10
366.414232
 20
-290.374827
 30
0.0
  0
VERTEX
  8
1
  6
CONTINUOUS
 62
     1
  5
5A0
 10
366.41425
 20
-290.374917
 30
0.0
  0
VERTEX
  8
1
  6
CONTINUOUS
 62
     1
  5
5A1
 10
366.41425
 20
-305.751333
 30
0.0
  0
VERTEX
  8
1
  6
CONTINUOUS
 62
     1
  5
5A2
 10
363.6715
 20
-305.751333
 30
0.0
  0
VERTEX
  8
1
  6
CONTINUOUS
 62
     1
  5
5A3
 10
363.6715
 20
-289.276833
 30
0.0
  0
VERTEX
  8
1
  6
CONTINUOUS
 62
     1
  5
5A4
 10
363.671424
 20
-289.276752
 30
0.0
 42
-0.414214
  0
VERTEX
  8
1
  6
CONTINUOUS
 62
     1
  5
5A5
 10
365.867574
 20
-287.080602
 30
0.0
  0
SEQEND
  8
1
  6
CONTINUOUS
 62
     1
  5
5A6
  0
LINE
  8
1
  6
CONTINUOUS
 62
     1
  5
5A7
 10
365.46775
 20
-305.751333
 30
0.0
 11
363.6715
 21
-303.954833
 31
0.0
  0
LINE
  8
1
  6
CONTINUOUS
 62
     1
  5
5A8
 10
366.41425
 20
-303.591833
 30
0.0
 11
363.6715
 21
-300.849083
 31
0.0
  0
LINE
  8
1
  6
CONTINUOUS
 62
     1
  5
5A9
 10
366.41425
 20
-300.486083
 30
0.0
 11
363.6715
 21
-297.743333
 31
0.0
  0
LINE
  8
1
  6
CONTINUOUS
 62
     1
  5
5AA
 10
366.41425
 20
-297.380333
 30
0.0
 11
363.6715
 21
-294.637417
 31
0.0
  0
LINE
  8
1
  6
CONTINUOUS
 62
     1
  5
5AB
 10
366.41425
 20
-294.274417
 30
0.0
 11
363.6715
 21
-291.531667
 31
0.0
  0
LINE
  8
1
  6
CONTINUOUS
 62
     1
  5
5AC
 10
366.41425
 20
-291.168417
 30
0.0
 11
363.805583
 21
-288.559917
 31
0.0
  0
LINE
  8
1
  6
CONTINUOUS
 62
     1
  5
5AD
 10
367.628417
 20
-289.276833
 30
0.0
 11
365.474833
 21
-287.12325
 31
0.0
  0
LINE
  8
1
  6
CONTINUOUS
 62
     1
  5
5AE
 10
370.734083
 20
-289.276833
 30
0.0
 11
368.537917
 21
-287.080667
 31
0.0
  0
LINE
  8
1
  6
CONTINUOUS
 62
     1
  5
5AF
 10
373.84
 20
-289.276833
 30
0.0
 11
371.643833
 21
-287.080667
 31
0.0
  0
LINE
  8
1
  6
CONTINUOUS
 62
     1
  5
5B0
 10
376.945667
 20
-289.276833
 30
0.0
 11
374.7495
 21
-287.080667
 31
0.0
  0
LINE
  8
1
  6
CONTINUOUS
 62
     1
  5
5B1
 10
380.051583
 20
-289.276833
 30
0.0
 11
377.8555
 21
-287.080667
 31
0.0
  0
LINE
  8
1
  6
CONTINUOUS
 62
     1
  5
5B2
 10
383.157667
 20
-289.276833
 30
0.0
 11
380.9615
 21
-287.080667
 31
0.0
  0
LINE
  8
1
  6
CONTINUOUS
 62
     1
  5
5B3
 10
386.039
 20
-289.052583
 30
0.0
 11
384.053083
 21
-287.066417
 31
0.0
  0
LINE
  8
1
  6
CONTINUOUS
 62
     1
  5
5B4
 10
387.264667
 20
-287.172333
 30
0.0
 11
385.081583
 21
-284.989167
 31
0.0
  0
LINE
  8
1
  6
CONTINUOUS
 62
     1
  5
5B5
 10
387.277667
 20
-284.079583
 30
0.0
 11
385.081583
 21
-281.883417
 31
0.0
  0
LINE
  8
1
  6
CONTINUOUS
 62
     1
  5
5B6
 10
387.277667
 20
-280.973667
 30
0.0
 11
385.081583
 21
-278.7775
 31
0.0
  0
LINE
  8
1
  6
CONTINUOUS
 62
     1
  5
5B7
 10
387.277667
 20
-277.868
 30
0.0
 11
385.081583
 21
-275.671833
 31
0.0
  0
LINE
  8
1
  6
CONTINUOUS
 62
     1
  5
5B8
 10
387.277667
 20
-274.762167
 30
0.0
 11
385.142833
 21
-272.62725
 31
0.0
  0
ARC
  8
1
  6
CONTINUOUS
 62
     1
  5
5B9
 10
315.639991
 20
-296.414239
 30
0.0
 40
1.668321
 50
80.854367
 51
279.145633
210
0.0
220
0.0
230
1.0
  0
TEXT
  8
1
  6
CONTINUOUS
 62
     7
  5
5BA
 10
336.013167
 20
-352.086083
 30
0.0
 40
4.0
  1
ELEVATION
  7
MONOTXT
 72
     4
 11
351.808417
 21
-350.086083
 31
0.0
210
0.0
220
0.0
230
1.0
  0
TEXT
  8
1
  6
CONTINUOUS
 62
     7
  5
5BB
 10
328.438333
 20
-359.086083
 30
0.0
 40
4.0
  1
TYPE II (ALT. 2)
  7
MONOTXT
 72
     4
 11
351.792667
 21
-357.086083
 31
0.0
210
0.0
220
0.0
230
1.0
  0
LINE
  8
1
  6
CONTINUOUS
 62
     7
  5
5BC
 10
334.834833
 20
-353.758
 30
0.0
 11
369.429167
 21
-353.758
 31
0.0
  0
LINE
  8
1
  6
CONTINUOUS
 62
     7
  5
5BD
 10
327.917333
 20
-360.379167
 30
0.0
 11
376.1935
 21
-360.379167
 31
0.0
  0
LINE
  8
1
  6
CONTINUOUS
 62
     7
  5
5BE
 10
388.92725
 20
-192.729667
 30
0.0
 11
403.976083
 21
-179.446917
 31
0.0
  0
LINE
  8
1
  6
CONTINUOUS
 62
     7
  5
5BF
 10
403.976083
 20
-179.446917
 30
0.0
 11
412.043083
 21
-179.446917
 31
0.0
  0
LINE
  8
1
  6
CONTINUOUS
 62
     7
  5
5C0
 10
362.482417
 20
-174.17125
 30
0.0
 11
347.301167
 21
-161.107333
 31
0.0
  0
LINE
  8
1
  6
CONTINUOUS
 62
     7
  5
5C1
 10
347.301167
 20
-161.107333
 30
0.0
 11
339.629917
 21
-161.107333
 31
0.0
  0
LINE
  8
1
  6
CONTINUOUS
 62
     7
  5
5C2
 10
313.971667
 20
-296.41425
 30
0.0
 11
303.828
 21
-283.546917
 31
0.0
  0
LINE
  8
1
  6
CONTINUOUS
 62
     7
  5
5C3
 10
303.828
 20
-283.546917
 30
0.0
 11
297.700917
 21
-283.546917
 31
0.0
  0
LINE
  8
1
  6
CONTINUOUS
 62
     7
  5
5C4
 10
387.277667
 20
-279.394167
 30
0.0
 11
401.478583
 21
-267.075
 31
0.0
  0
LINE
  8
1
  6
CONTINUOUS
 62
     7
  5
5C5
 10
401.478583
 20
-267.075
 30
0.0
 11
408.626833
 21
-267.075
 31
0.0
  0
TEXT
  8
1
  6
CONTINUOUS
 62
     7
  5
5C6
 10
336.905167
 20
-242.227167
 30
0.0
 40
4.0
  1
PLAN
  7
MONOTXT
 72
     4
 11
343.913
 21
-240.227167
 31
0.0
210
0.0
220
0.0
230
1.0
  0
LINE
  8
1
  6
CONTINUOUS
 62
     7
  5
5C7
 10
334.575333
 20
-244.452333
 30
0.0
 11
353.696
 21
-244.452333
 31
0.0
  0
INSERT
  8
1
  6
CONTINUOUS
 62
     1
  5
5C8
  2
LDR
 10
362.482417
 20
-174.17125
 30
0.0
 41
240.0
 42
240.0
 50
319.287027
210
0.0
220
0.0
230
1.0
  0
INSERT
  8
1
  6
CONTINUOUS
 62
     1
  5
5C9
  2
LDR
 10
362.482417
 20
-174.17125
 30
0.0
 41
240.0
 42
240.0
 50
319.287027
210
0.0
220
0.0
230
1.0
  0
INSERT
  8
1
  6
CONTINUOUS
 62
     1
  5
5CA
  2
LDR
 10
388.92725
 20
-192.729667
 30
0.0
 41
240.000001
 42
240.000001
 50
221.433014
210
0.0
220
0.0
230
1.0
  0
TEXT
  8
1
  6
CONTINUOUS
 62
     7
  5
5CB
 10
324.412
 20
-162.38325
 30
0.0
 40
2.5
  1
GASKET
  7
MONOTXT
 72
     4
 11
331.390333
 21
-161.13325
 31
0.0
210
0.0
220
0.0
230
1.0
  0
TEXT
  8
1
  6
CONTINUOUS
 62
     7
  5
5CC
 10
319.5695
 20
-166.88325
 30
0.0
 40
2.5
  1
SEE NOTE 5
  7
MONOTXT
 72
     4
 11
331.390333
 21
-165.63325
 31
0.0
210
0.0
220
0.0
230
1.0
  0
TEXT
  8
1
  6
CONTINUOUS
 62
     7
  5
5CD
 10
412.8485
 20
-180.667083
 30
0.0
 40
2.5
  1
ALUM. ANGLE
  7
MONOTXT
 72
     4
 11
424.63
 21
-179.417083
 31
0.0
210
0.0
220
0.0
230
1.0
  0
INSERT
  8
1
  6
CONTINUOUS
 62
     1
  5
5CE
  2
LDR
 10
387.277667
 20
-279.394167
 30
0.0
 41
240.000001
 42
240.000001
 50
220.941342
210
0.0
220
0.0
230
1.0
  0
TEXT
  8
1
  6
CONTINUOUS
 62
     7
  5
5CF
 10
409.43675
 20
-268.218583
 30
0.0
 40
2.5
  1
SIGN BRACKET
  7
MONOTXT
 72
     4
 11
423.08825
 21
-266.968583
 31
0.0
210
0.0
220
0.0
230
1.0
  0
INSERT
  8
1
  6
CONTINUOUS
 62
     1
  5
5D0
  2
LDR
 10
313.971667
 20
-296.41425
 30
0.0
 41
240.0
 42
240.0
 50
308.249667
210
0.0
220
0.0
230
1.0
  0
TEXT
  8
1
  6
CONTINUOUS
 62
     7
  5
5D1
 10
264.843417
 20
-284.937583
 30
0.0
 40
2.5
  1
 1/2 " DIA. U-BOLTS
  7
MONOTXT
 72
     4
 11
281.014583
 21
-283.687583
 31
0.0
210
0.0
220
0.0
230
1.0
  0
TEXT
  8
1
  6
CONTINUOUS
 62
     7
  5
5D2
 10
494.314417
 20
6.120667
 30
0.0
 40
2.5
  1
NOTES:
  7
MONOTXT
 11
494.314417
 21
8.620667
 31
0.0
210
0.0
220
0.0
230
1.0
 73
     3
  0
TEXT
  8
1
  6
CONTINUOUS
 62
     7
  5
5D3
 10
494.314417
 20
1.620667
 30
0.0
 40
2.5
  1
 
  7
MONOTXT
 11
494.314417
 21
4.120667
 31
0.0
210
0.0
220
0.0
230
1.0
 73
     3
  0
TEXT
  8
1
  6
CONTINUOUS
 62
     7
  5
5D4
 10
494.314417
 20
-2.879333
 30
0.0
 40
2.5
  1
1.   NORMALLY THERE WILL BE 2 CLAMPS (BRACES)
  7
MONOTXT
 11
494.314417
 21
-0.379333
 31
0.0
210
0.0
220
0.0
230
1.0
 73
     3
  0
TEXT
  8
1
  6
CONTINUOUS
 62
     7
  5
5D5
 10
494.314417
 20
-7.379333
 30
0.0
 40
2.5
  1
   PER SIGN. FOLLOW PUNCHING AND MOUNTING AS
  7
MONOTXT
 11
494.314417
 21
-4.879333
 31
0.0
210
0.0
220
0.0
230
1.0
 73
     3
  0
TEXT
  8
1
  6
CONTINUOUS
 62
     7
  5
5D6
 10
494.314417
 20
-11.879333
 30
0.0
 40
2.5
  1
   DETAILED IN THE TP SERIES.
  7
MONOTXT
 11
494.314417
 21
-9.379333
 31
0.0
210
0.0
220
0.0
230
1.0
 73
     3
  0
TEXT
  8
1
  6
CONTINUOUS
 62
     7
  5
5D7
 10
494.314417
 20
-16.379333
 30
0.0
 40
2.5
  1
 
  7
MONOTXT
 11
494.314417
 21
-13.879333
 31
0.0
210
0.0
220
0.0
230
1.0
 73
     3
  0
TEXT
  8
1
  6
CONTINUOUS
 62
     7
  5
5D8
 10
494.314417
 20
-20.879333
 30
0.0
 40
2.5
  1
2.  TYPE I-A CLAMPS SHALL BE USED WITH EXTRUD-
  7
MONOTXT
 11
494.314417
 21
-18.379333
 31
0.0
210
0.0
220
0.0
230
1.0
 73
     3
  0
TEXT
  8
1
  6
CONTINUOUS
 62
     7
  5
5D9
 10
494.314417
 20
-25.379333
 30
0.0
 40
2.5
  1
   ED PANEL SIGNS. FOR BRACKET ATTACHMENT TO
  7
MONOTXT
 11
494.314417
 21
-22.879333
 31
0.0
210
0.0
220
0.0
230
1.0
 73
     3
  0
TEXT
  8
1
  6
CONTINUOUS
 62
     7
  5
5DA
 10
494.314417
 20
-29.879333
 30
0.0
 40
2.5
  1
   EXTRUDED PANEL SIGNS SEE SHEET TE7-1.
  7
MONOTXT
 11
494.314417
 21
-27.379333
 31
0.0
210
0.0
220
0.0
230
1.0
 73
     3
  0
TEXT
  8
1
  6
CONTINUOUS
 62
     7
  5
5DB
 10
494.314417
 20
-34.379333
 30
0.0
 40
2.5
  1
 
  7
MONOTXT
 11
494.314417
 21
-31.879333
 31
0.0
210
0.0
220
0.0
230
1.0
 73
     3
  0
TEXT
  8
1
  6
CONTINUOUS
 62
     7
  5
5DC
 10
494.314417
 20
-38.879333
 30
0.0
 40
2.5
  1
3.   TYPE I-B CLAMPS SHALL BE USED WITH FLAT
  7
MONOTXT
 11
494.314417
 21
-36.379333
 31
0.0
210
0.0
220
0.0
230
1.0
 73
     3
  0
TEXT
  8
1
  6
CONTINUOUS
 62
     7
  5
5DD
 10
494.314417
 20
-43.379333
 30
0.0
 40
2.5
  1
   SHEET SIGNS.
  7
MONOTXT
 11
494.314417
 21
-40.879333
 31
0.0
210
0.0
220
0.0
230
1.0
 73
     3
  0
TEXT
  8
1
  6
CONTINUOUS
 62
     7
  5
5DE
 10
494.314417
 20
-47.879333
 30
0.0
 40
2.5
  1
 
  7
MONOTXT
 11
494.314417
 21
-45.379333
 31
0.0
210
0.0
220
0.0
230
1.0
 73
     3
  0
TEXT
  8
1
  6
CONTINUOUS
 62
     7
  5
5DF
 10
494.314417
 20
-52.379333
 30
0.0
 40
2.5
  1
4.   WHEN ONLY ONE TYPE I  CLAMP IS NECESSARY
  7
MONOTXT
 11
494.314417
 21
-49.879333
 31
0.0
210
0.0
220
0.0
230
1.0
 73
     3
  0
TEXT
  8
1
  6
CONTINUOUS
 62
     7
  5
5E0
 10
494.314417
 20
-56.879333
 30
0.0
 40
2.5
  1
   FOR LONG NARROW SIGNS A 12" ANGLE,
  7
MONOTXT
 11
494.314417
 21
-54.379333
 31
0.0
210
0.0
220
0.0
230
1.0
 73
     3
  0
TEXT
  8
1
  6
CONTINUOUS
 62
     7
  5
5E1
 10
494.314417
 20
-61.379333
 30
0.0
 40
2.5
  1
   MOUNTED VERTICALLY SHALL BE SUBSTITUTED
  7
MONOTXT
 11
494.314417
 21
-58.879333
 31
0.0
210
0.0
220
0.0
230
1.0
 73
     3
  0
TEXT
  8
1
  6
CONTINUOUS
 62
     7
  5
5E2
 10
494.314417
 20
-65.879333
 30
0.0
 40
2.5
  1
   FOR THE MOUNTING LUG.
  7
MONOTXT
 11
494.314417
 21
-63.379333
 31
0.0
210
0.0
220
0.0
230
1.0
 73
     3
  0
TEXT
  8
1
  6
CONTINUOUS
 62
     7
  5
5E3
 10
494.314417
 20
-70.379333
 30
0.0
 40
2.5
  1
 
  7
MONOTXT
 11
494.314417
 21
-67.879333
 31
0.0
210
0.0
220
0.0
230
1.0
 73
     3
  0
TEXT
  8
1
  6
CONTINUOUS
 62
     7
  5
5E4
 10
494.314417
 20
-74.879333
 30
0.0
 40
2.5
  1
5.   CONTACT BETWEEN ALUMINUM AND GALVANIZED
  7
MONOTXT
 11
494.314417
 21
-72.379333
 31
0.0
210
0.0
220
0.0
230
1.0
 73
     3
  0
TEXT
  8
1
  6
CONTINUOUS
 62
     7
  5
5E5
 10
494.314417
 20
-79.379333
 30
0.0
 40
2.5
  1
   PARTS SHALL BE PREVENTED WITH A MINIMUM
  7
MONOTXT
 11
494.314417
 21
-76.879333
 31
0.0
210
0.0
220
0.0
230
1.0
 73
     3
  0
TEXT
  8
1
  6
CONTINUOUS
 62
     7
  5
5E6
 10
494.314417
 20
-83.879333
 30
0.0
 40
2.5
  1
    1/16 " INCH THICK CHLOROPRENE GASKET OR
  7
MONOTXT
 11
494.314417
 21
-81.379333
 31
0.0
210
0.0
220
0.0
230
1.0
 73
     3
  0
TEXT
  8
1
  6
CONTINUOUS
 62
     7
  5
5E7
 10
494.314417
 20
-88.379333
 30
0.0
 40
2.5
  1
   APPROVED SUBSITUTE. GASKETS ARE NOT
  7
MONOTXT
 11
494.314417
 21
-85.879333
 31
0.0
210
0.0
220
0.0
230
1.0
 73
     3
  0
TEXT
  8
1
  6
CONTINUOUS
 62
     7
  5
5E8
 10
494.314417
 20
-92.879333
 30
0.0
 40
2.5
  1
   REQUIRED BETWEEN STAINLESS STEEL AND
  7
MONOTXT
 11
494.314417
 21
-90.379333
 31
0.0
210
0.0
220
0.0
230
1.0
 73
     3
  0
TEXT
  8
1
  6
CONTINUOUS
 62
     7
  5
5E9
 10
494.314417
 20
-97.379333
 30
0.0
 40
2.5
  1
   ALUMINUM.
  7
MONOTXT
 11
494.314417
 21
-94.879333
 31
0.0
210
0.0
220
0.0
230
1.0
 73
     3
  0
TEXT
  8
1
  6
CONTINUOUS
 62
     7
  5
5EA
 10
494.314417
 20
-101.879333
 30
0.0
 40
2.5
  1
 
  7
MONOTXT
 11
494.314417
 21
-99.379333
 31
0.0
210
0.0
220
0.0
230
1.0
 73
     3
  0
TEXT
  8
1
  6
CONTINUOUS
 62
     7
  5
5EB
 10
494.314417
 20
-106.379333
 30
0.0
 40
2.5
  1
6.   U-BOLTS, OTHER BOLTS, NUTS AND WASHERS
  7
MONOTXT
 11
494.314417
 21
-103.879333
 31
0.0
210
0.0
220
0.0
230
1.0
 73
     3
  0
TEXT
  8
1
  6
CONTINUOUS
 62
     7
  5
5EC
 10
494.314417
 20
-110.879333
 30
0.0
 40
2.5
  1
   SHALL BE STAINLESS STEEL FOR USE WITH
  7
MONOTXT
 11
494.314417
 21
-108.379333
 31
0.0
210
0.0
220
0.0
230
1.0
 73
     3
  0
TEXT
  8
1
  6
CONTINUOUS
 62
     7
  5
5ED
 10
494.314417
 20
-115.379333
 30
0.0
 40
2.5
  1
   ALUMINUM MEMBERS. WHEN USED WITH
  7
MONOTXT
 11
494.314417
 21
-112.879333
 31
0.0
210
0.0
220
0.0
230
1.0
 73
     3
  0
TEXT
  8
1
  6
CONTINUOUS
 62
     7
  5
5EE
 10
494.314417
 20
-119.879333
 30
0.0
 40
2.5
  1
   GALVANIZED STEEL MEMBERS, THE U-BOLTS,
  7
MONOTXT
 11
494.314417
 21
-117.379333
 31
0.0
210
0.0
220
0.0
230
1.0
 73
     3
  0
TEXT
  8
1
  6
CONTINUOUS
 62
     7
  5
5EF
 10
494.314417
 20
-124.379333
 30
0.0
 40
2.5
  1
   NUTS AND WASHERS MAY BE GALVANIZED STEEL.
  7
MONOTXT
 11
494.314417
 21
-121.879333
 31
0.0
210
0.0
220
0.0
230
1.0
 73
     3
  0
TEXT
  8
1
  6
CONTINUOUS
 62
     7
  5
5F0
 10
216.0225
 20
-206.166917
 30
0.0
 40
2.5
  1
3"x 3/16 " STEEL CLAMP
  7
MONOTXT
 11
216.0225
 21
-203.666917
 31
0.0
210
0.0
220
0.0
230
1.0
 73
     3
  0
TEXT
  8
1
  6
CONTINUOUS
 62
     7
  5
5F1
 10
216.0225
 20
-210.666917
 30
0.0
 40
2.5
  1
B86, ASTM A606 TYPE 4
  7
MONOTXT
 11
216.0225
 21
-208.166917
 31
0.0
210
0.0
220
0.0
230
1.0
 73
     3
  0
TEXT
  8
1
  6
CONTINUOUS
 62
     7
  5
5F2
 10
216.0225
 20
-215.166917
 30
0.0
 40
2.5
  1
OR EQUIVALENT
  7
MONOTXT
 11
216.0225
 21
-212.666917
 31
0.0
210
0.0
220
0.0
230
1.0
 73
     3
  0
TEXT
  8
1
  6
CONTINUOUS
 62
     7
  5
5F3
 10
242.070667
 20
-265.613083
 30
0.0
 40
4.0
  1
+
  7
MONOTXT
 72
     4
 11
242.968333
 21
-263.613083
 31
0.0
210
0.0
220
0.0
230
1.0
  0
TEXT
  8
1
  6
CONTINUOUS
 62
     7
  5
5F4
 10
242.070667
 20
-267.391917
 30
0.0
 40
4.0
  1
-
  7
MONOTXT
 72
     4
 11
242.968333
 21
-265.391917
 31
0.0
210
0.0
220
0.0
230
1.0
  0
ENDSEC
  0
EOF
