  0
SECTION
  2
HEADER
  9
$ACADVER
  1
AC1009
  9
$INSBASE
 10
0.0
 20
0.0
 30
0.0
  9
$EXTMIN
 10
-993.40275
 20
-0.002083
 30
0.0
  9
$EXTMAX
 10
0.001
 20
594.434417
 30
0.0
  9
$LIMMIN
 10
0.0
 20
0.0
  9
$LIMMAX
 10
12.0
 20
9.0
  9
$ORTHOMODE
 70
     0
  9
$REGENMODE
 70
     1
  9
$FILLMODE
 70
     1
  9
$QTEXTMODE
 70
     0
  9
$MIRRTEXT
 70
     1
  9
$DRAGMODE
 70
     2
  9
$LTSCALE
 40
1.0
  9
$OSMODE
 70
     0
  9
$ATTMODE
 70
     1
  9
$TEXTSIZE
 40
0.2
  9
$TRACEWID
 40
0.05
  9
$TEXTSTYLE
  7
STANDARD
  9
$CLAYER
  8
0
  9
$CELTYPE
  6
CONTINUOUS
  9
$CECOLOR
 62
   256
  9
$DIMSCALE
 40
1.0
  9
$DIMASZ
 40
0.18
  9
$DIMEXO
 40
0.0625
  9
$DIMDLI
 40
0.38
  9
$DIMRND
 40
0.0
  9
$DIMDLE
 40
0.0
  9
$DIMEXE
 40
0.18
  9
$DIMTP
 40
0.0
  9
$DIMTM
 40
0.0
  9
$DIMTXT
 40
0.18
  9
$DIMCEN
 40
0.09
  9
$DIMTSZ
 40
0.0
  9
$DIMTOL
 70
     0
  9
$DIMLIM
 70
     0
  9
$DIMTIH
 70
     1
  9
$DIMTOH
 70
     1
  9
$DIMSE1
 70
     0
  9
$DIMSE2
 70
     0
  9
$DIMTAD
 70
     0
  9
$DIMZIN
 70
     0
  9
$DIMBLK
  1

  9
$DIMASO
 70
     1
  9
$DIMSHO
 70
     1
  9
$DIMPOST
  1

  9
$DIMAPOST
  1

  9
$DIMALT
 70
     0
  9
$DIMALTD
 70
     2
  9
$DIMALTF
 40
25.4
  9
$DIMLFAC
 40
1.0
  9
$DIMTOFL
 70
     0
  9
$DIMTVP
 40
0.0
  9
$DIMTIX
 70
     0
  9
$DIMSOXD
 70
     0
  9
$DIMSAH
 70
     0
  9
$DIMBLK1
  1

  9
$DIMBLK2
  1

  9
$DIMSTYLE
  2
STANDARD
  9
$DIMCLRD
 70
     0
  9
$DIMCLRE
 70
     0
  9
$DIMCLRT
 70
     0
  9
$DIMTFAC
 40
1.0
  9
$DIMGAP
 40
0.09
  9
$LUNITS
 70
     2
  9
$LUPREC
 70
     4
  9
$AXISMODE
 70
     0
  9
$AXISUNIT
 10
0.0
 20
0.0
  9
$SKETCHINC
 40
0.1
  9
$FILLETRAD
 40
0.0
  9
$AUNITS
 70
     0
  9
$AUPREC
 70
     0
  9
$MENU
  1
acad
  9
$ELEVATION
 40
0.0
  9
$PELEVATION
 40
0.0
  9
$THICKNESS
 40
0.0
  9
$LIMCHECK
 70
     0
  9
$BLIPMODE
 70
     1
  9
$CHAMFERA
 40
0.0
  9
$CHAMFERB
 40
0.0
  9
$SKPOLY
 70
     0
  9
$TDCREATE
 40
2451803.421238426
  9
$TDUPDATE
 40
2451803.421238426
  9
$TDINDWG
 40
0.0000000000
  9
$TDUSRTIMER
 40
0.0000000000
  9
$USRTIMER
 70
     1
  9
$ANGBASE
 50
0.0
  9
$ANGDIR
 70
     0
  9
$PDMODE
 70
     0
  9
$PDSIZE
 40
0.0
  9
$PLINEWID
 40
0.0
  9
$COORDS
 70
     0
  9
$SPLFRAME
 70
     0
  9
$SPLINETYPE
 70
     6
  9
$SPLINESEGS
 70
    10
  9
$ATTDIA
 70
     0
  9
$ATTREQ
 70
     1
  9
$HANDLING
 70
     1
  9
$HANDSEED
  5
37E
  9
$SURFTAB1
 70
     6
  9
$SURFTAB2
 70
     6
  9
$SURFTYPE
 70
     6
  9
$SURFU
 70
     6
  9
$SURFV
 70
     6
  9
$UCSNAME
  2

  9
$UCSORG
 10
0.0
 20
0.0
 30
0.0
  9
$UCSXDIR
 10
1.0
 20
0.0
 30
0.0
  9
$UCSYDIR
 10
0.0
 20
1.0
 30
0.0
  9
$PUCSNAME
  2

  9
$PUCSORG
 10
0.0
 20
0.0
 30
0.0
  9
$PUCSXDIR
 10
1.0
 20
0.0
 30
0.0
  9
$PUCSYDIR
 10
0.0
 20
1.0
 30
0.0
  9
$USERI1
 70
     0
  9
$USERI2
 70
     0
  9
$USERI3
 70
     0
  9
$USERI4
 70
     0
  9
$USERI5
 70
     0
  9
$USERR1
 40
0.0
  9
$USERR2
 40
0.0
  9
$USERR3
 40
0.0
  9
$USERR4
 40
0.0
  9
$USERR5
 40
0.0
  9
$WORLDVIEW
 70
     1
  9
$SHADEDGE
 70
     3
  9
$SHADEDIF
 70
    70
  9
$TILEMODE
 70
     1
  9
$MAXACTVP
 70
    16
  9
$PINSBASE
 10
0.0
 20
0.0
 30
0.0
  9
$PLIMCHECK
 70
     0
  9
$PEXTMIN
 10
-1.000000E+20
 20
-1.000000E+20
 30
-1.000000E+20
  9
$PEXTMAX
 10
-1.000000E+20
 20
-1.000000E+20
 30
-1.000000E+20
  9
$PLIMMIN
 10
0.0
 20
0.0
  9
$PLIMMAX
 10
12.0
 20
9.0
  9
$UNITMODE
 70
     0
  9
$VISRETAIN
 70
     0
  9
$PLINEGEN
 70
     1
  9
$PSLTSCALE
 70
     0
  9
$TREEDEPTH
 70
  3020
  9
$DWGCODEPAGE
  3
ansi_1252
  0
ENDSEC
  0
SECTION
  2
TABLES
  0
TABLE
  2
VPORT
 70
     1
  0
VPORT
  2
*ACTIVE
 70
     0
 10
0.0
 20
0.0
 11
1.0
 21
1.0
 12
0.0
 22
0.0
 13
0.0
 23
0.0
 14
0.0
 24
0.0
 15
0.0
 25
0.0
 16
0.0
 26
0.0
 36
1.0
 17
-699.12645
 27
374.414417
 37
0.0
 40
451.041
 41
1.795122
 42
50.0
 43
0.0
 44
0.0
 50
0.0
 51
0.0
 71
     0
 72
   100
 73
     1
 74
     0
 75
     0
 76
     0
 77
     0
 78
     0
  0
ENDTAB
  0
TABLE
  2
LTYPE
 70
     7
  0
LTYPE
  2
CONTINUOUS
 70
     0
  3
Solid line
 72
    65
 73
     0
 40
0.0
  0
LTYPE
  2
DOT
 70
    64
  3
. . . . . . . . . . . . . . . . . . . . . . . . . . . . . . . . .
 72
    65
 73
     2
 40
0.25
 49
0.0
 49
-0.25
  0
LTYPE
  2
HIDDEN
 70
    64
  3
__ __ __ __ __ __ __ __ __ __ __ __ __ __ __ __ __ __ __ __ __ 
 72
    65
 73
     2
 40
0.375
 49
0.25
 49
-0.125
  0
LTYPE
  2
DASHED
 70
    64
  3
__ __ __ __ __ __ __ __ __ __ __ __ __ __ __ __ __ __ __ __ __
 72
    65
 73
     2
 40
0.75
 49
0.5
 49
-0.25
  0
LTYPE
  2
DASHDOT
 70
    64
  3
__ . __ . __ . __ . __ . __ . __ . __ . __ . __ . __ . __ . _
 72
    65
 73
     4
 40
1.0
 49
0.5
 49
-0.25
 49
0.0
 49
-0.25
  0
LTYPE
  2
DIVIDE
 70
    64
  3
____ . . ____ . . ____ . . ____ . . ____ . . ____ . . ____ . .
 72
    65
 73
     6
 40
1.25
 49
0.5
 49
-0.25
 49
0.0
 49
-0.25
 49
0.0
 49
-0.25
  0
LTYPE
  2
CENTER
 70
    64
  3
____ _ ____ _ ____ _ ____ _ ____ _ ____ _ ____ _ ____ _ ____ _
 72
    65
 73
     4
 40
2.0
 49
1.25
 49
-0.25
 49
0.25
 49
-0.25
  0
ENDTAB
  0
TABLE
  2
LAYER
 70
     5
  0
LAYER
  2
0
 70
     0
 62
     7
  6
CONTINUOUS
  0
LAYER
  2
CONSTRUCTION_CLASS
 70
     0
 62
     7
  6
CONTINUOUS
  0
LAYER
  2
PATTERN_CLASS
 70
     0
 62
     7
  6
CONTINUOUS
  0
LAYER
  2
61
 70
    64
 62
     7
  6
CONTINUOUS
  0
LAYER
  2
1
 70
    64
 62
     7
  6
CONTINUOUS
  0
ENDTAB
  0
TABLE
  2
STYLE
 70
     4
  0
STYLE
  2
STANDARD
 70
     0
 40
0.0
 41
1.0
 50
0.0
 71
     0
 42
0.0
  3
txt
  4

  0
STYLE
  2
MONOTXT
 70
     0
 40
0.2
 41
1.0
 50
0.0
 71
     0
 42
0.2
  3
MONOTXT
  4

  0
STYLE
  2
txt
 70
     0
 40
0.2
 41
1.0
 50
0.0
 71
     0
 42
0.2
  3
TXT
  4

  0
STYLE
  2
ROMANT
 70
     0
 40
0.2
 41
1.0
 50
0.0
 71
     0
 42
0.2
  3
ROMANT
  4

  0
ENDTAB
  0
TABLE
  2
VIEW
 70
     0
  0
ENDTAB
  0
TABLE
  2
UCS
 70
     0
  0
ENDTAB
  0
TABLE
  2
APPID
 70
     1
  0
APPID
  2
ACAD
 70
     0
  0
ENDTAB
  0
TABLE
  2
DIMSTYLE
 70
     1
  0
DIMSTYLE
  2
STANDARD
 70
     0
  3

  4

  5

  6

  7

 40
1.0
 41
0.18
 42
0.0625
 43
0.38
 44
0.18
 45
0.0
 46
0.0
 47
0.0
 48
0.0
140
0.18
141
0.09
142
0.0
143
25.4
144
1.0
145
0.0
146
1.0
147
0.09
 71
     0
 72
     0
 73
     1
 74
     1
 75
     0
 76
     0
 77
     0
 78
     0
170
     0
171
     2
172
     0
173
     0
174
     0
175
     0
176
     0
177
     0
178
     0
  0
ENDTAB
  0
ENDSEC
  0
SECTION
  2
BLOCKS
  0
BLOCK
  8
1
  6
CONTINUOUS
 62
    20
  5
1C9
  2
PT
 70
     0
 10
0.0
 20
0.0
 30
0.0
  3
PT
  0
POINT
  8
1
  6
CONTINUOUS
 62
    20
  5
1CA
 10
0.001
 20
-0.002083
 30
0.0
  0
ENDBLK
  8
1
  6
CONTINUOUS
 62
    20
  5
1CB
  0
BLOCK
  8
1
  6
CONTINUOUS
 62
    20
  5
2BA
  2
LDR
 70
     0
 10
0.0
 20
0.0
 30
0.0
  3
LNR
  0
POLYLINE
  8
1
  6
CONTINUOUS
 62
    20
  5
2BB
 66
     1
 10
0.0
 20
0.0
 30
0.0
210
0.0
220
0.0
230
1.0
  0
VERTEX
  8
1
  6
CONTINUOUS
 62
    20
  5
2BC
 10
-0.011987
 20
-0.001802
 30
0.0
 42
-0.265147
  0
VERTEX
  8
1
  6
CONTINUOUS
 62
    20
  5
2BD
 10
-0.011849
 20
-0.001604
 30
0.0
 42
-0.064653
  0
VERTEX
  8
1
  6
CONTINUOUS
 62
    20
  5
2BE
 10
-0.011407
 20
-0.001387
 30
0.0
 42
-0.025822
  0
VERTEX
  8
1
  6
CONTINUOUS
 62
    20
  5
2BF
 10
-0.010681
 20
-0.00116
 30
0.0
 42
-0.014504
  0
VERTEX
  8
1
  6
CONTINUOUS
 62
    20
  5
2C0
 10
-0.0097
 20
-0.000933
 30
0.0
 42
-0.009896
  0
VERTEX
  8
1
  6
CONTINUOUS
 62
    20
  5
2C1
 10
-0.008505
 20
-0.000715
 30
0.0
 42
-0.007708
  0
VERTEX
  8
1
  6
CONTINUOUS
 62
    20
  5
2C2
 10
-0.007146
 20
-0.000515
 30
0.0
 42
-0.006655
  0
VERTEX
  8
1
  6
CONTINUOUS
 62
    20
  5
2C3
 10
-0.005679
 20
-0.000342
 30
0.0
 42
-0.006278
  0
VERTEX
  8
1
  6
CONTINUOUS
 62
    20
  5
2C4
 10
-0.004164
 20
-0.000202
 30
0.0
 42
-0.006439
  0
VERTEX
  8
1
  6
CONTINUOUS
 62
    20
  5
2C5
 10
-0.002666
 20
-0.000101
 30
0.0
 42
-0.007196
  0
VERTEX
  8
1
  6
CONTINUOUS
 62
    20
  5
2C6
 10
-0.001246
 20
-0.000044
 30
0.0
 42
-0.008852
  0
VERTEX
  8
1
  6
CONTINUOUS
 62
    20
  5
2C7
 10
0.000037
 20
-0.000034
 30
0.0
 42
-0.008852
  0
SEQEND
  8
1
  6
CONTINUOUS
 62
    20
  5
2C8
  0
POLYLINE
  8
1
  6
CONTINUOUS
 62
    20
  5
2C9
 66
     1
 10
0.0
 20
0.0
 30
0.0
210
0.0
220
0.0
230
1.0
  0
VERTEX
  8
1
  6
CONTINUOUS
 62
    20
  5
2CA
 10
0.000039
 20
0.000014
 30
0.0
 42
-0.005019
  0
VERTEX
  8
1
  6
CONTINUOUS
 62
    20
  5
2CB
 10
-0.001103
 20
0.000071
 30
0.0
 42
-0.004038
  0
VERTEX
  8
1
  6
CONTINUOUS
 62
    20
  5
2CC
 10
-0.002373
 20
0.000158
 30
0.0
 42
-0.003548
  0
VERTEX
  8
1
  6
CONTINUOUS
 62
    20
  5
2CD
 10
-0.003725
 20
0.00027
 30
0.0
 42
-0.003367
  0
VERTEX
  8
1
  6
CONTINUOUS
 62
    20
  5
2CE
 10
-0.005111
 20
0.000405
 30
0.0
 42
-0.003436
  0
VERTEX
  8
1
  6
CONTINUOUS
 62
    20
  5
2CF
 10
-0.006481
 20
0.000556
 30
0.0
 42
-0.003778
  0
VERTEX
  8
1
  6
CONTINUOUS
 62
    20
  5
2D0
 10
-0.007786
 20
0.00072
 30
0.0
 42
-0.00451
  0
VERTEX
  8
1
  6
CONTINUOUS
 62
    20
  5
2D1
 10
-0.008979
 20
0.000889
 30
0.0
 42
-0.00594
  0
VERTEX
  8
1
  6
CONTINUOUS
 62
    20
  5
2D2
 10
-0.010018
 20
0.001058
 30
0.0
 42
-0.008921
  0
VERTEX
  8
1
  6
CONTINUOUS
 62
    20
  5
2D3
 10
-0.010864
 20
0.00122
 30
0.0
 42
-0.016392
  0
VERTEX
  8
1
  6
CONTINUOUS
 62
    20
  5
2D4
 10
-0.011488
 20
0.001371
 30
0.0
 42
-0.04458
  0
VERTEX
  8
1
  6
CONTINUOUS
 62
    20
  5
2D5
 10
-0.011867
 20
0.001503
 30
0.0
 42
-0.317392
  0
VERTEX
  8
1
  6
CONTINUOUS
 62
    20
  5
2D6
 10
-0.011987
 20
0.001614
 30
0.0
 42
-0.317392
  0
SEQEND
  8
1
  6
CONTINUOUS
 62
    20
  5
2D7
  0
ENDBLK
  8
1
  6
CONTINUOUS
 62
    20
  5
2D8
  0
ENDSEC
  0
SECTION
  2
ENTITIES
  0
LINE
  8
61
  6
CONTINUOUS
 62
    20
  5
29
 10
-324.30275
 20
584.434417
 30
0.0
 11
-963.34275
 21
584.434417
 31
0.0
  0
LINE
  8
61
  6
CONTINUOUS
 62
    20
  5
2A
 10
-963.34275
 20
584.434417
 30
0.0
 11
-963.34275
 21
164.414417
 31
0.0
  0
LINE
  8
61
  6
CONTINUOUS
 62
    20
  5
2B
 10
-324.28275
 20
164.394417
 30
0.0
 11
-963.34275
 21
164.414417
 31
0.0
  0
LINE
  8
61
  6
CONTINUOUS
 62
    20
  5
2C
 10
-324.30275
 20
584.434417
 30
0.0
 11
-324.28275
 21
164.394417
 31
0.0
  0
LINE
  8
61
  6
CONTINUOUS
 62
   253
  5
2D
 10
-330.40275
 20
579.694417
 30
0.0
 11
-438.38275
 21
579.674417
 31
0.0
  0
LINE
  8
61
  6
CONTINUOUS
 62
   253
  5
2E
 10
-438.38275
 20
579.674417
 30
0.0
 11
-438.38275
 21
559.674417
 31
0.0
  0
LINE
  8
61
  6
CONTINUOUS
 62
   253
  5
2F
 10
-330.40275
 20
579.694417
 30
0.0
 11
-330.40275
 21
559.694417
 31
0.0
  0
LINE
  8
61
  6
CONTINUOUS
 62
   253
  5
30
 10
-330.40275
 20
559.694417
 30
0.0
 11
-438.38275
 21
559.674417
 31
0.0
  0
LINE
  8
61
  6
CONTINUOUS
 62
   253
  5
31
 10
-330.38275
 20
569.654417
 30
0.0
 11
-438.40275
 21
569.674417
 31
0.0
  0
LINE
  8
61
  6
CONTINUOUS
 62
   253
  5
32
 10
-428.38275
 20
579.674417
 30
0.0
 11
-428.38275
 21
559.674417
 31
0.0
  0
LINE
  8
61
  6
CONTINUOUS
 62
   253
  5
33
 10
-418.38275
 20
579.674417
 30
0.0
 11
-418.38275
 21
559.674417
 31
0.0
  0
LINE
  8
61
  6
CONTINUOUS
 62
   253
  5
34
 10
-404.70275
 20
579.674417
 30
0.0
 11
-404.70275
 21
559.674417
 31
0.0
  0
LINE
  8
61
  6
CONTINUOUS
 62
   253
  5
35
 10
-340.40275
 20
579.694417
 30
0.0
 11
-340.40275
 21
559.694417
 31
0.0
  0
LINE
  8
61
  6
CONTINUOUS
 62
   253
  5
36
 10
-350.40275
 20
579.694417
 30
0.0
 11
-350.40275
 21
559.694417
 31
0.0
  0
LINE
  8
61
  6
CONTINUOUS
 62
   253
  5
37
 10
-372.38275
 20
579.674417
 30
0.0
 11
-372.38275
 21
559.674417
 31
0.0
  0
LINE
  8
61
  6
CONTINUOUS
 62
   253
  5
38
 10
-382.38275
 20
579.674417
 30
0.0
 11
-382.38275
 21
559.674417
 31
0.0
  0
TEXT
  8
61
  6
CONTINUOUS
 62
   253
  5
3A
 10
-436.34275
 20
576.654417
 30
0.0
 40
1.20075
  1
PUBLIC
 50
0.033272
 41
1.001804
  7
MONOTXT
210
0.0
220
0.0
230
1.0
  0
TEXT
  8
61
  6
CONTINUOUS
 62
   253
  5
3B
 10
-436.26275
 20
574.134417
 30
0.0
 40
1.20075
  1
ROADS
 50
0.124322
 41
0.996877
  7
MONOTXT
210
0.0
220
0.0
230
1.0
  0
TEXT
  8
61
  6
CONTINUOUS
 62
   253
  5
3C
 10
-435.06275
 20
571.634417
 30
0.0
 40
1.20075
  1
DIV.
 50
359.931522
 41
0.994864
  7
MONOTXT
210
0.0
220
0.0
230
1.0
  0
TEXT
  8
61
  6
CONTINUOUS
 62
   253
  5
3D
 10
-426.18275
 20
576.714417
 30
0.0
 40
1.20075
  1
STATE
 50
0.058969
 41
0.998196
  7
MONOTXT
210
0.0
220
0.0
230
1.0
  0
TEXT
  8
61
  6
CONTINUOUS
 62
   253
  5
3E
 10
-425.30275
 20
574.214417
 30
0.0
 40
1.20075
  1
DIST.
 50
0.055889
 41
0.999584
  7
MONOTXT
210
0.0
220
0.0
230
1.0
  0
TEXT
  8
61
  6
CONTINUOUS
 62
   253
  5
3F
 10
-424.72275
 20
571.694417
 30
0.0
 40
1.20075
  1
NO.
 50
359.852072
 41
0.997779
  7
MONOTXT
210
0.0
220
0.0
230
1.0
  0
TEXT
  8
61
  6
CONTINUOUS
 62
   253
  5
40
 10
-414.18275
 20
576.654417
 30
0.0
 40
1.20075
  1
STATE
 50
0.058969
 41
0.998196
  7
MONOTXT
210
0.0
220
0.0
230
1.0
  0
TEXT
  8
61
  6
CONTINUOUS
 62
   253
  5
41
 10
-415.26275
 20
574.234417
 30
0.0
 40
1.20075
  1
PROJECT
 50
359.908431
 41
1.000069
  7
MONOTXT
210
0.0
220
0.0
230
1.0
  0
TEXT
  8
61
  6
CONTINUOUS
 62
   253
  5
42
 10
-412.52275
 20
571.694417
 30
0.0
 40
1.20075
  1
NO.
 50
0.225453
 41
0.993546
  7
MONOTXT
210
0.0
220
0.0
230
1.0
  0
TEXT
  8
61
  6
CONTINUOUS
 62
   253
  5
43
 10
-396.88275
 20
575.534417
 30
0.0
 40
1.20075
  1
FEDERAL
 50
0.006714
 41
0.998543
  7
MONOTXT
210
0.0
220
0.0
230
1.0
  0
TEXT
  8
61
  6
CONTINUOUS
 62
   253
  5
44
 10
-398.42275
 20
572.874417
 30
0.0
 40
1.20075
  1
PROJECT NO.
 50
359.921531
 41
1.000694
  7
MONOTXT
210
0.0
220
0.0
230
1.0
  0
TEXT
  8
61
  6
CONTINUOUS
 62
   253
  5
45
 10
-380.14275
 20
575.474417
 30
0.0
 40
1.20075
  1
FISCAL
 50
359.941939
 41
0.998959
  7
MONOTXT
210
0.0
220
0.0
230
1.0
  0
TEXT
  8
61
  6
CONTINUOUS
 62
   253
  5
46
 10
-379.62275
 20
572.574417
 30
0.0
 40
1.20075
  1
YEAR
 50
0.104606
 41
0.993268
  7
MONOTXT
210
0.0
220
0.0
230
1.0
  0
TEXT
  8
61
  6
CONTINUOUS
 62
   253
  5
47
 10
-365.52275
 20
573.934417
 30
0.0
 40
1.20075
  1
COUNTY
 50
0.068575
 41
1.001874
  7
MONOTXT
210
0.0
220
0.0
230
1.0
  0
TEXT
  8
61
  6
CONTINUOUS
 62
   253
  5
48
 10
-347.88275
 20
575.594417
 30
0.0
 40
1.20075
  1
SHEET
 50
0.058969
 41
0.997571
  7
MONOTXT
210
0.0
220
0.0
230
1.0
  0
TEXT
  8
61
  6
CONTINUOUS
 62
   253
  5
49
 10
-346.46275
 20
572.874417
 30
0.0
 40
1.20075
  1
NO.
 50
359.852072
 41
0.997779
  7
MONOTXT
210
0.0
220
0.0
230
1.0
  0
TEXT
  8
61
  6
CONTINUOUS
 62
   253
  5
4A
 10
-338.14275
 20
575.454417
 30
0.0
 40
1.20075
  1
TOTAL
 50
359.926039
 41
0.998543
  7
MONOTXT
210
0.0
220
0.0
230
1.0
  0
TEXT
  8
61
  6
CONTINUOUS
 62
   253
  5
4B
 10
-338.60275
 20
572.754417
 30
0.0
 40
1.20075
  1
SHEETS
 50
359.958675
  7
MONOTXT
210
0.0
220
0.0
230
1.0
  0
TEXT
  8
61
  6
CONTINUOUS
 62
   253
  5
4C
 10
-425.78275
 20
563.874417
 30
0.0
 40
2.401333
  1
  
 50
0.029406
 41
0.996495
  7
MONOTXT
210
0.0
220
0.0
230
1.0
  0
TEXT
  8
61
  6
CONTINUOUS
 62
   253
  5
4D
 10
-348.60275
 20
563.594417
 30
0.0
 40
2.401333
  1
   
 50
0.011508
 41
1.001006
  7
MONOTXT
210
0.0
220
0.0
230
1.0
  0
TEXT
  8
61
  6
CONTINUOUS
 62
   253
  5
4E
 10
-338.72275
 20
563.574417
 30
0.0
 40
2.401333
  1
   
 50
359.922128
 41
1.000555
  7
MONOTXT
210
0.0
220
0.0
230
1.0
  0
TEXT
  8
61
  6
CONTINUOUS
 62
   253
  5
4F
 10
-415.34275
 20
566.974417
 30
0.0
 40
2.00675
  1
    
 50
0.054383
 41
0.993729
  7
MONOTXT
210
0.0
220
0.0
230
1.0
  0
TEXT
  8
61
  6
CONTINUOUS
 62
   253
  5
50
 10
-418.26275
 20
563.954417
 30
0.0
 40
1.989583
  1
       
 50
0.064678
 41
1.000963
  7
MONOTXT
210
0.0
220
0.0
230
1.0
  0
TEXT
  8
61
  6
CONTINUOUS
 62
   253
  5
51
 10
-417.30275
 20
561.054417
 30
0.0
 40
1.989583
  1
      
 50
359.958053
 41
1.000293
  7
MONOTXT
210
0.0
220
0.0
230
1.0
  0
TEXT
  8
61
  6
CONTINUOUS
 62
   253
  5
52
 10
-406.34275
 20
565.694417
 30
0.0
 40
2.401333
  1
           
 50
0.011508
 41
0.998751
  7
MONOTXT
210
0.0
220
0.0
230
1.0
  0
TEXT
  8
61
  6
CONTINUOUS
 62
   253
  5
53
 10
-406.46275
 20
562.034417
 30
0.0
 40
2.401333
  1
           
 50
0.011508
 41
0.999584
  7
MONOTXT
210
0.0
220
0.0
230
1.0
  0
TEXT
  8
61
  6
CONTINUOUS
 62
   253
  5
54
 10
-371.12275
 20
563.774417
 30
0.0
 40
2.00675
  1
          
 50
0.009222
 41
0.992774
  7
MONOTXT
210
0.0
220
0.0
230
1.0
  0
ARC
  8
61
  6
CONTINUOUS
 62
    92
  5
55
 10
-981.644993
 20
495.675712
 30
0.0
 40
2.499998
 50
323.130094
 51
316.232156
210
0.0
220
0.0
230
1.0
  0
ARC
  8
61
  6
CONTINUOUS
 62
    92
  5
56
 10
-981.644993
 20
440.675712
 30
0.0
 40
2.499998
 50
323.130094
 51
315.375767
210
0.0
220
0.0
230
1.0
  0
ARC
  8
61
  6
CONTINUOUS
 62
    92
  5
57
 10
-981.924993
 20
292.235712
 30
0.0
 40
2.499998
 50
322.671753
 51
321.716147
210
0.0
220
0.0
230
1.0
  0
ARC
  8
61
  6
CONTINUOUS
 62
    92
  5
58
 10
-981.924993
 20
237.235712
 30
0.0
 40
2.499998
 50
323.130094
 51
312.314392
210
0.0
220
0.0
230
1.0
  0
LINE
  8
61
  6
CONTINUOUS
 62
    52
  5
59
 10
-979.62275
 20
495.674417
 30
0.0
 11
-971.64275
 21
495.694417
 31
0.0
  0
LINE
  8
61
  6
CONTINUOUS
 62
    52
  5
5A
 10
-979.64275
 20
440.674417
 30
0.0
 11
-971.64275
 21
440.674417
 31
0.0
  0
LINE
  8
61
  6
CONTINUOUS
 62
    52
  5
5B
 10
-979.92275
 20
292.254417
 30
0.0
 11
-971.92275
 21
292.254417
 31
0.0
  0
LINE
  8
61
  6
CONTINUOUS
 62
    52
  5
5C
 10
-979.90275
 20
237.234417
 30
0.0
 11
-971.92275
 21
237.234417
 31
0.0
  0
LINE
  8
61
  6
DASHED
 62
    20
  5
5D
 10
-993.34275
 20
594.434417
 30
0.0
 11
-313.32275
 21
594.434417
 31
0.0
  0
LINE
  8
61
  6
DASHED
 62
    20
  5
5E
 10
-313.34275
 20
154.414417
 30
0.0
 11
-993.40275
 21
154.394417
 31
0.0
  0
LINE
  8
1
  6
HIDDEN
 62
    20
  5
60
 10
-313.32275
 20
594.434417
 30
0.0
 11
-313.34275
 21
154.414417
 31
0.0
  0
LINE
  8
1
  6
HIDDEN
 62
    20
  5
61
 10
-993.34275
 20
594.434417
 30
0.0
 11
-993.40275
 21
154.394417
 31
0.0
  0
TEXT
  8
1
  6
CONTINUOUS
 62
    20
  5
63
 10
-358.56275
 20
161.894417
 30
0.0
 40
1.2
  1
TRAFFIC ENGINEERING DIVISION
  7
txt
210
0.0
220
0.0
230
1.0
  0
LINE
  8
1
  6
CONTINUOUS
 62
   253
  5
64
 10
-495.94275
 20
164.394417
 30
0.0
 11
-495.94275
 21
255.974417
 31
0.0
  0
LINE
  8
1
  6
CONTINUOUS
 62
   253
  5
65
 10
-495.94275
 20
255.974417
 30
0.0
 11
-324.28275
 21
255.974417
 31
0.0
  0
LINE
  8
1
  6
CONTINUOUS
 62
   253
  5
66
 10
-460.94275
 20
164.354417
 30
0.0
 11
-460.94275
 21
209.314417
 31
0.0
  0
LINE
  8
1
  6
CONTINUOUS
 62
   253
  5
67
 10
-460.94275
 20
209.314417
 30
0.0
 11
-495.92275
 21
209.314417
 31
0.0
  0
LINE
  8
1
  6
CONTINUOUS
 62
   253
  5
68
 10
-460.94275
 20
204.834417
 30
0.0
 11
-495.92275
 21
204.834417
 31
0.0
  0
LINE
  8
1
  6
CONTINUOUS
 62
   253
  5
69
 10
-460.94275
 20
200.334417
 30
0.0
 11
-495.92275
 21
200.334417
 31
0.0
  0
LINE
  8
1
  6
CONTINUOUS
 62
   253
  5
6A
 10
-460.94275
 20
195.834417
 30
0.0
 11
-495.92275
 21
195.834417
 31
0.0
  0
LINE
  8
1
  6
CONTINUOUS
 62
   253
  5
6B
 10
-460.94275
 20
191.314417
 30
0.0
 11
-495.92275
 21
191.314417
 31
0.0
  0
LINE
  8
1
  6
CONTINUOUS
 62
   253
  5
6C
 10
-460.94275
 20
186.834417
 30
0.0
 11
-495.92275
 21
186.834417
 31
0.0
  0
LINE
  8
1
  6
CONTINUOUS
 62
   253
  5
6D
 10
-460.94275
 20
182.354417
 30
0.0
 11
-495.92275
 21
182.354417
 31
0.0
  0
LINE
  8
1
  6
CONTINUOUS
 62
   253
  5
6E
 10
-460.94275
 20
177.854417
 30
0.0
 11
-495.92275
 21
177.854417
 31
0.0
  0
LINE
  8
1
  6
CONTINUOUS
 62
   253
  5
6F
 10
-460.94275
 20
173.354417
 30
0.0
 11
-495.92275
 21
173.354417
 31
0.0
  0
LINE
  8
1
  6
CONTINUOUS
 62
   253
  5
70
 10
-460.94275
 20
168.834417
 30
0.0
 11
-495.92275
 21
168.834417
 31
0.0
  0
TEXT
  8
1
  6
CONTINUOUS
 62
   253
  5
71
 10
-485.66275
 20
206.314417
 30
0.0
 40
1.99775
  1
REVISIONS
  7
MONOTXT
210
0.0
220
0.0
230
1.0
  0
TEXT
  8
1
  6
CONTINUOUS
 62
   253
  5
72
 10
-493.98275
 20
210.314417
 30
0.0
 40
1.99775
  1
PREPARED: 05/30/80
  7
MONOTXT
210
0.0
220
0.0
230
1.0
  0
TEXT
  8
1
  6
CONTINUOUS
 62
   253
  5
74
 10
-463.32275
 20
247.374417
 30
0.0
 40
4.794833
  1
WEST VIRGINIA DIVISION OF HIGHWAYS
  7
ROMANT
 72
     1
 11
-409.3525
 21
252.16925
 31
0.0
210
0.0
220
0.0
230
1.0
 73
     3
  0
TEXT
  8
1
  6
CONTINUOUS
 62
   253
  5
75
 10
-452.56275
 20
236.214417
 30
0.0
 40
6.992667
  1
STANDARD DETAIL
  7
txt
 72
     1
 11
-408.072667
 21
243.207083
 31
0.0
210
0.0
220
0.0
230
1.0
 73
     3
  0
TEXT
  8
1
  6
CONTINUOUS
 62
   253
  5
76
 10
-457.10275
 20
168.434417
 30
0.0
 40
6.992667
  1
STANDARD SHEET TEL-18
  7
txt
210
0.0
220
0.0
230
1.0
  0
TEXT
  8
1
  6
CONTINUOUS
 62
    20
  5
77
 10
-486.64275
 20
201.254417
 30
0.0
 40
2.0
  1
        
  7
MONOTXT
 72
     1
 11
-478.975917
 21
203.254417
 31
0.0
210
0.0
220
0.0
230
1.0
 73
     3
  0
TEXT
  8
1
  6
CONTINUOUS
 62
    20
  5
78
 10
-486.66275
 20
196.854417
 30
0.0
 40
2.0
  1
        
  7
MONOTXT
 72
     1
 11
-478.995917
 21
198.854417
 31
0.0
210
0.0
220
0.0
230
1.0
 73
     3
  0
TEXT
  8
1
  6
CONTINUOUS
 62
    20
  5
79
 10
-486.64275
 20
192.454417
 30
0.0
 40
2.0
  1
        
  7
MONOTXT
 72
     1
 11
-478.975917
 21
194.454417
 31
0.0
210
0.0
220
0.0
230
1.0
 73
     3
  0
TEXT
  8
1
  6
CONTINUOUS
 62
    20
  5
7A
 10
-486.64275
 20
188.054417
 30
0.0
 40
2.0
  1
        
  7
MONOTXT
 72
     1
 11
-478.975917
 21
190.054417
 31
0.0
210
0.0
220
0.0
230
1.0
 73
     3
  0
TEXT
  8
1
  6
CONTINUOUS
 62
    20
  5
7B
 10
-489.199167
 20
183.713333
 30
0.0
 40
2.0
  1
01-25-93
  7
MONOTXT
 72
     1
 11
-482.403833
 21
185.713333
 31
0.0
210
0.0
220
0.0
230
1.0
 73
     3
  0
TEXT
  8
1
  6
CONTINUOUS
 62
    20
  5
7C
 10
-485.760833
 20
178.974417
 30
0.0
 40
2.0
  1
09-14-93
  7
MONOTXT
 72
     1
 11
-478.9655
 21
180.974417
 31
0.0
210
0.0
220
0.0
230
1.0
 73
     3
  0
TEXT
  8
1
  6
CONTINUOUS
 62
    20
  5
7D
 10
-486.74275
 20
174.374417
 30
0.0
 40
2.0
  1
        
  7
MONOTXT
 72
     1
 11
-479.075917
 21
176.374417
 31
0.0
210
0.0
220
0.0
230
1.0
 73
     3
  0
TEXT
  8
1
  6
CONTINUOUS
 62
    20
  5
7E
 10
-486.64275
 20
169.794417
 30
0.0
 40
2.0
  1
        
  7
MONOTXT
 72
     1
 11
-478.975917
 21
171.794417
 31
0.0
210
0.0
220
0.0
230
1.0
 73
     3
  0
TEXT
  8
1
  6
CONTINUOUS
 62
    20
  5
7F
 10
-486.64275
 20
165.774417
 30
0.0
 40
2.0
  1
        
  7
MONOTXT
 72
     1
 11
-478.975917
 21
167.774417
 31
0.0
210
0.0
220
0.0
230
1.0
 73
     3
  0
TEXT
  8
1
  6
CONTINUOUS
 62
     7
  5
80
 10
-936.567417
 20
561.041917
 30
0.0
 40
2.5
  1
MATERIAL
  7
MONOTXT
 11
-936.567417
 21
563.541917
 31
0.0
210
0.0
220
0.0
230
1.0
 73
     3
  0
TEXT
  8
1
  6
CONTINUOUS
 62
     7
  5
81
 10
-948.60075
 20
551.663333
 30
0.0
 40
2.5
  1
DESIGNATOR
 50
90.0
  7
MONOTXT
 11
-951.10075
 21
551.663333
 31
0.0
210
0.0
220
0.0
230
1.0
 73
     3
  0
TEXT
  8
1
  6
CONTINUOUS
 62
     7
  5
82
 10
-894.149583
 20
561.550417
 30
0.0
 40
2.5
  1
TOP B.C.
  7
MONOTXT
 72
     4
 11
-885.73425
 21
562.800417
 31
0.0
210
0.0
220
0.0
230
1.0
  0
TEXT
  8
1
  6
CONTINUOUS
 62
     7
  5
83
 10
-841.7815
 20
561.609333
 30
0.0
 40
2.5
  1
BOTTOM B.C.
  7
MONOTXT
 72
     4
 11
-829.291333
 21
562.859333
 31
0.0
210
0.0
220
0.0
230
1.0
  0
TEXT
  8
1
  6
CONTINUOUS
 62
     7
  5
84
 10
-809.32675
 20
565.682
 30
0.0
 40
2.5
  1
BOTTOM
  7
MONOTXT
 72
     4
 11
-801.935083
 21
566.932
 31
0.0
210
0.0
220
0.0
230
1.0
  0
TEXT
  8
1
  6
CONTINUOUS
 62
     7
  5
85
 10
-811.216583
 20
561.182
 30
0.0
 40
2.5
  1
DIMENSION
  7
MONOTXT
 72
     4
 11
-801.935083
 21
562.432
 31
0.0
210
0.0
220
0.0
230
1.0
  0
TEXT
  8
1
  6
CONTINUOUS
 62
     7
  5
86
 10
-804.29725
 20
556.682
 30
0.0
 40
2.5
  1
(N)
  7
MONOTXT
 72
     4
 11
-801.944917
 21
557.932
 31
0.0
210
0.0
220
0.0
230
1.0
  0
TEXT
  8
1
  6
CONTINUOUS
 62
     7
  5
87
 10
-774.4665
 20
562.115667
 30
0.0
 40
2.5
  1
CONNECTING BOLTS
  7
MONOTXT
 72
     4
 11
-755.559
 21
563.365667
 31
0.0
210
0.0
220
0.0
230
1.0
  0
TEXT
  8
1
  6
CONTINUOUS
 62
     7
  5
88
 10
-676.538083
 20
561.9575
 30
0.0
 40
2.5
  1
SPECIAL DETAILS
  7
MONOTXT
 72
     4
 11
-660.524333
 21
563.2075
 31
0.0
210
0.0
220
0.0
230
1.0
  0
TEXT
  8
1
  6
CONTINUOUS
 62
     7
  5
89
 10
-596.084417
 20
554.753417
 30
0.0
 40
2.5
  1
WEIGHT
  7
MONOTXT
 72
     4
 11
-589.5195
 21
556.003417
 31
0.0
210
0.0
220
0.0
230
1.0
  0
TEXT
  8
1
  6
CONTINUOUS
 62
     7
  5
8A
 10
-605.759667
 20
550.253417
 30
0.0
 40
2.5
  1
(WITH LUMINAIRE)
  7
MONOTXT
 72
     4
 11
-589.529333
 21
551.503417
 31
0.0
210
0.0
220
0.0
230
1.0
  0
TEXT
  8
1
  6
CONTINUOUS
 62
     7
  5
8B
 10
-558.454333
 20
554.564417
 30
0.0
 40
2.5
  1
WALL THICK & O.D.
  7
MONOTXT
 72
     4
 11
-539.724
 21
555.814417
 31
0.0
210
0.0
220
0.0
230
1.0
  0
TEXT
  8
1
  6
CONTINUOUS
 62
     7
  5
8C
 10
-555.8165
 20
550.064417
 30
0.0
 40
2.5
  1
VS. T-BASE MAX.
  7
MONOTXT
 72
     4
 11
-539.724
 21
551.314417
 31
0.0
210
0.0
220
0.0
230
1.0
  0
TEXT
  8
1
  6
CONTINUOUS
 62
     7
  5
8D
 10
-909.6225
 20
542.584667
 30
0.0
 40
2.5
  1
20"
  7
MONOTXT
 72
     4
 11
-906.6205
 21
543.834667
 31
0.0
210
0.0
220
0.0
230
1.0
  0
TEXT
  8
1
  6
CONTINUOUS
 62
     7
  5
8E
 10
-890.804583
 20
542.545917
 30
0.0
 40
2.5
  1
11" TO
  7
MONOTXT
 72
     4
 11
-885.223917
 21
543.795917
 31
0.0
210
0.0
220
0.0
230
1.0
  0
TEXT
  8
1
  6
CONTINUOUS
 62
     7
  5
8F
 10
-892.054583
 20
538.045917
 30
0.0
 40
2.5
  1
12 1/2"
  7
MONOTXT
 72
     4
 11
-885.23375
 21
539.295917
 31
0.0
210
0.0
220
0.0
230
1.0
  0
TEXT
  8
1
  6
CONTINUOUS
 62
     7
  5
90
 10
-893.442417
 20
533.545917
 30
0.0
 40
2.5
  1
SLOTTED
  7
MONOTXT
 72
     4
 11
-885.223917
 21
534.795917
 31
0.0
210
0.0
220
0.0
230
1.0
  0
LINE
  8
1
  6
CONTINUOUS
 62
     4
  5
91
 10
-815.084667
 20
578.011833
 30
0.0
 11
-815.084667
 21
407.511833
 31
0.0
  0
LINE
  8
1
  6
CONTINUOUS
 62
     4
  5
92
 10
-957.084667
 20
578.011833
 30
0.0
 11
-957.084667
 21
407.511833
 31
0.0
  0
LINE
  8
1
  6
CONTINUOUS
 62
     4
  5
93
 10
-520.084667
 20
578.011833
 30
0.0
 11
-957.084667
 21
578.011833
 31
0.0
  0
LINE
  8
1
  6
CONTINUOUS
 62
     4
  5
94
 10
-942.084667
 20
578.011833
 30
0.0
 11
-942.084667
 21
407.511833
 31
0.0
  0
LINE
  8
1
  6
CONTINUOUS
 62
     4
  5
95
 10
-914.084667
 20
578.011833
 30
0.0
 11
-914.084667
 21
407.511833
 31
0.0
  0
LINE
  8
1
  6
CONTINUOUS
 62
     4
  5
96
 10
-899.084667
 20
578.011833
 30
0.0
 11
-899.084667
 21
407.511833
 31
0.0
  0
LINE
  8
1
  6
CONTINUOUS
 62
     4
  5
97
 10
-787.084667
 20
578.011833
 30
0.0
 11
-787.084667
 21
407.511833
 31
0.0
  0
LINE
  8
1
  6
CONTINUOUS
 62
     4
  5
98
 10
-721.084667
 20
578.011833
 30
0.0
 11
-721.084667
 21
407.511833
 31
0.0
  0
LINE
  8
1
  6
CONTINUOUS
 62
     4
  5
99
 10
-699.084667
 20
578.011833
 30
0.0
 11
-699.084667
 21
407.511833
 31
0.0
  0
LINE
  8
1
  6
CONTINUOUS
 62
     4
  5
9A
 10
-619.084667
 20
578.011833
 30
0.0
 11
-619.084667
 21
407.511833
 31
0.0
  0
LINE
  8
1
  6
CONTINUOUS
 62
     4
  5
9B
 10
-560.084667
 20
559.011833
 30
0.0
 11
-560.084667
 21
407.511833
 31
0.0
  0
LINE
  8
1
  6
CONTINUOUS
 62
     4
  5
9C
 10
-520.084667
 20
578.011833
 30
0.0
 11
-520.084667
 21
407.511833
 31
0.0
  0
LINE
  8
1
  6
CONTINUOUS
 62
     4
  5
9D
 10
-520.084667
 20
548.011833
 30
0.0
 11
-957.084667
 21
548.011833
 31
0.0
  0
LINE
  8
1
  6
CONTINUOUS
 62
     4
  5
9E
 10
-520.084667
 20
546.511833
 30
0.0
 11
-957.084667
 21
546.511833
 31
0.0
  0
LINE
  8
1
  6
CONTINUOUS
 62
     4
  5
9F
 10
-520.084667
 20
559.011833
 30
0.0
 11
-619.084667
 21
559.011833
 31
0.0
  0
LINE
  8
1
  6
CONTINUOUS
 62
     4
  5
A0
 10
-871.084667
 20
578.011833
 30
0.0
 11
-871.084667
 21
407.511833
 31
0.0
  0
LINE
  8
1
  6
CONTINUOUS
 62
     4
  5
A1
 10
-843.084667
 20
578.011833
 30
0.0
 11
-843.084667
 21
407.511833
 31
0.0
  0
TEXT
  8
1
  6
CONTINUOUS
 62
     7
  5
A2
 10
-869.041833
 20
542.7275
 30
0.0
 40
2.5
  1
12 5/8" SQ.
  7
MONOTXT
 72
     4
 11
-857.476917
 21
543.9775
 31
0.0
210
0.0
220
0.0
230
1.0
  0
TEXT
  8
1
  6
CONTINUOUS
 62
     7
  5
A3
 10
-835.433667
 20
542.695333
 30
0.0
 40
2.5
  1
15" TO
  7
MONOTXT
 72
     4
 11
-829.3215
 21
543.945333
 31
0.0
210
0.0
220
0.0
230
1.0
  0
TEXT
  8
1
  6
CONTINUOUS
 62
     7
  5
A4
 10
-836.152167
 20
538.195333
 30
0.0
 40
2.5
  1
15 1/2"
  7
MONOTXT
 72
     4
 11
-829.331333
 21
539.445333
 31
0.0
210
0.0
220
0.0
230
1.0
  0
TEXT
  8
1
  6
CONTINUOUS
 62
     7
  5
A5
 10
-837.539917
 20
533.695333
 30
0.0
 40
2.5
  1
SLOTTED
  7
MONOTXT
 72
     4
 11
-829.321417
 21
534.945333
 31
0.0
210
0.0
220
0.0
230
1.0
  0
TEXT
  8
1
  6
CONTINUOUS
 62
     7
  5
A6
 10
-838.219083
 20
529.195333
 30
0.0
 40
2.5
  1
(USE 15")
  7
MONOTXT
 72
     4
 11
-829.331333
 21
530.445333
 31
0.0
210
0.0
220
0.0
230
1.0
  0
TEXT
  8
1
  6
CONTINUOUS
 62
     7
  5
A7
 10
-812.869
 20
542.557917
 30
0.0
 40
2.5
  1
14 5/8" SQ.
  7
MONOTXT
 72
     4
 11
-801.186
 21
543.807917
 31
0.0
210
0.0
220
0.0
230
1.0
  0
TEXT
  8
1
  6
CONTINUOUS
 62
     7
  5
A8
 10
-553.431417
 20
542.425
 30
0.0
 40
2.5
  1
50-20,45-24
  7
MONOTXT
 11
-553.431417
 21
543.675
 31
0.0
210
0.0
220
0.0
230
1.0
 73
     2
  0
TEXT
  8
1
  6
CONTINUOUS
 62
     7
  5
A9
 10
-553.431417
 20
537.925
 30
0.0
 40
2.5
  1
50-8
  7
MONOTXT
 11
-553.431417
 21
539.175
 31
0.0
210
0.0
220
0.0
230
1.0
 73
     2
  0
TEXT
  8
1
  6
CONTINUOUS
 62
     7
  5
AA
 10
-553.431417
 20
533.425
 30
0.0
 40
2.5
  1
40-15
  7
MONOTXT
 11
-553.431417
 21
534.675
 31
0.0
210
0.0
220
0.0
230
1.0
 73
     2
  0
TEXT
  8
1
  6
CONTINUOUS
 62
     7
  5
AB
 10
-553.431417
 20
528.925
 30
0.0
 40
2.5
  1
40-8
  7
MONOTXT
 11
-553.431417
 21
530.175
 31
0.0
210
0.0
220
0.0
230
1.0
 73
     2
  0
LINE
  8
1
  6
CONTINUOUS
 62
     7
  5
AC
 10
-554.883
 20
541.502917
 30
0.0
 11
-526.883
 21
541.502917
 31
0.0
  0
LINE
  8
1
  6
CONTINUOUS
 62
     7
  5
AD
 10
-554.994667
 20
532.45875
 30
0.0
 11
-540.45175
 21
532.45875
 31
0.0
  0
LINE
  8
1
  6
CONTINUOUS
 62
     7
  5
AE
 10
-555.106333
 20
527.769083
 30
0.0
 11
-540.563417
 21
527.769083
 31
0.0
  0
TEXT
  8
1
  6
CONTINUOUS
 62
     7
  5
AF
 10
-934.790167
 20
542.684833
 30
0.0
 40
2.5
  1
356-T6
  7
MONOTXT
 72
     4
 11
-928.0875
 21
543.934833
 31
0.0
210
0.0
220
0.0
230
1.0
  0
TEXT
  8
1
  6
CONTINUOUS
 62
     7
  5
B0
 10
-935.59725
 20
538.184833
 30
0.0
 40
2.5
  1
MEETING
  7
MONOTXT
 72
     4
 11
-928.087417
 21
539.434833
 31
0.0
210
0.0
220
0.0
230
1.0
  0
TEXT
  8
1
  6
CONTINUOUS
 62
     7
  5
B1
 10
-939.514583
 20
533.684833
 30
0.0
 40
2.5
  1
ASTM B-108
  7
MONOTXT
 72
     4
 11
-928.087417
 21
534.934833
 31
0.0
210
0.0
220
0.0
230
1.0
  0
TEXT
  8
1
  6
CONTINUOUS
 62
     7
  5
B2
 10
-716.426333
 20
563.98075
 30
0.0
 40
2.5
  1
ANCHOR
  7
MONOTXT
 72
     4
 11
-709.270833
 21
565.23075
 31
0.0
210
0.0
220
0.0
230
1.0
  0
TEXT
  8
1
  6
CONTINUOUS
 62
     7
  5
B3
 10
-715.068083
 20
559.48075
 30
0.0
 40
2.5
  1
BOLTS
  7
MONOTXT
 72
     4
 11
-709.270917
 21
560.73075
 31
0.0
210
0.0
220
0.0
230
1.0
  0
TEXT
  8
1
  6
CONTINUOUS
 62
     7
  5
B4
 10
-710.830583
 20
566.5085
 30
0.0
 40
6.0
  1
*
  7
MONOTXT
 11
-710.830583
 21
572.5085
 31
0.0
210
0.0
220
0.0
230
1.0
 73
     3
  0
TEXT
  8
1
  6
CONTINUOUS
 62
     7
  5
B5
 10
-956.01725
 20
542.988333
 30
0.0
 40
2.5
  1
AT-UA1
  7
MONOTXT
 72
     4
 11
-949.855917
 21
544.238333
 31
0.0
210
0.0
220
0.0
230
1.0
  0
TEXT
  8
1
  6
CONTINUOUS
 62
     7
  5
B6
 10
-949.861833
 20
537.703167
 30
0.0
 40
6.0
  1
*
  7
MONOTXT
 11
-949.861833
 21
543.703167
 31
0.0
210
0.0
220
0.0
230
1.0
 73
     3
  0
TEXT
  8
1
  6
CONTINUOUS
 62
     7
  5
B7
 10
-595.980833
 20
542.811583
 30
0.0
 40
2.5
  1
900
  7
MONOTXT
 11
-595.980833
 21
545.311583
 31
0.0
210
0.0
220
0.0
230
1.0
 73
     3
  0
TEXT
  8
1
  6
CONTINUOUS
 62
     7
  5
B8
 10
-587.955167
 20
540.578833
 30
0.0
 40
6.0
  1
#
  7
MONOTXT
 11
-587.955167
 21
546.578833
 31
0.0
210
0.0
220
0.0
230
1.0
 73
     3
  0
TEXT
  8
1
  6
CONTINUOUS
 62
     7
  5
B9
 10
-952.632583
 20
537.732
 30
0.0
 40
6.0
  1
*
  7
MONOTXT
 11
-952.632583
 21
543.732
 31
0.0
210
0.0
220
0.0
230
1.0
 73
     3
  0
TEXT
  8
1
  6
CONTINUOUS
 62
     7
  5
BA
 10
-582.455667
 20
572.044667
 30
0.0
 40
2.5
  1
MAX. LIMITATION
  7
MONOTXT
 72
     4
 11
-567.839583
 21
573.294667
 31
0.0
210
0.0
220
0.0
230
1.0
  0
TEXT
  8
1
  6
CONTINUOUS
 62
     7
  5
BB
 10
-602.711583
 20
567.544667
 30
0.0
 40
2.5
  1
(TO TYPE 1, 2, AND 5, FOR TYPE 3
  7
MONOTXT
 72
     4
 11
-567.839583
 21
568.794667
 31
0.0
210
0.0
220
0.0
230
1.0
  0
TEXT
  8
1
  6
CONTINUOUS
 62
     7
  5
BC
 10
-590.319833
 20
563.044667
 30
0.0
 40
2.5
  1
SEE CONTRACT PLANS)
  7
MONOTXT
 72
     4
 11
-567.849333
 21
564.294667
 31
0.0
210
0.0
220
0.0
230
1.0
  0
TEXT
  8
1
  6
CONTINUOUS
 62
     7
  5
BD
 10
-616.62925
 20
538.851583
 30
0.0
 40
2.5
  1
STEEL TYPE 1-50-20,45-24
  7
MONOTXT
 11
-616.62925
 21
540.101583
 31
0.0
210
0.0
220
0.0
230
1.0
 73
     2
  0
TEXT
  8
1
  6
CONTINUOUS
 62
     7
  5
BE
 10
-616.62925
 20
534.351583
 30
0.0
 40
2.5
  1
STEEL TYPE 2-50-8
  7
MONOTXT
 11
-616.62925
 21
535.601583
 31
0.0
210
0.0
220
0.0
230
1.0
 73
     2
  0
TEXT
  8
1
  6
CONTINUOUS
 62
     7
  5
BF
 10
-616.62925
 20
529.851583
 30
0.0
 40
2.5
  1
ALUM.-TRUSS ARM-50-25
  7
MONOTXT
 11
-616.62925
 21
531.101583
 31
0.0
210
0.0
220
0.0
230
1.0
 73
     2
  0
TEXT
  8
1
  6
CONTINUOUS
 62
     7
  5
C0
 10
-616.62925
 20
525.351583
 30
0.0
 40
2.5
  1
ALUM.SINGLE ARM-50-8
  7
MONOTXT
 11
-616.62925
 21
526.601583
 31
0.0
210
0.0
220
0.0
230
1.0
 73
     2
  0
LINE
  8
1
  6
CONTINUOUS
 62
     4
  5
C1
 10
-495.10075
 20
289.858
 30
0.0
 11
-496.79125
 21
286.23275
 31
0.0
  0
LINE
  8
1
  6
CONTINUOUS
 62
     4
  5
C2
 10
-495.10075
 20
289.858
 30
0.0
 11
-493.41025
 21
286.23275
 31
0.0
  0
LINE
  8
1
  6
CONTINUOUS
 62
     4
  5
C3
 10
-496.79125
 20
286.23275
 30
0.0
 11
-493.41025
 21
286.23275
 31
0.0
  0
LINE
  8
1
  6
CONTINUOUS
 62
     4
  5
C4
 10
-495.381
 20
285.093583
 30
0.0
 11
-497.0715
 21
281.468333
 31
0.0
  0
LINE
  8
1
  6
CONTINUOUS
 62
     4
  5
C5
 10
-495.381
 20
285.093583
 30
0.0
 11
-493.6905
 21
281.468333
 31
0.0
  0
LINE
  8
1
  6
CONTINUOUS
 62
     4
  5
C6
 10
-497.0715
 20
281.468333
 30
0.0
 11
-493.6905
 21
281.468333
 31
0.0
  0
LINE
  8
1
  6
CONTINUOUS
 62
     4
  5
C7
 10
-495.66125
 20
280.609333
 30
0.0
 11
-497.35175
 21
276.984083
 31
0.0
  0
LINE
  8
1
  6
CONTINUOUS
 62
     4
  5
C8
 10
-495.66125
 20
280.609333
 30
0.0
 11
-493.97075
 21
276.984083
 31
0.0
  0
LINE
  8
1
  6
CONTINUOUS
 62
     4
  5
C9
 10
-497.35175
 20
276.984083
 30
0.0
 11
-493.97075
 21
276.984083
 31
0.0
  0
TEXT
  8
1
  6
CONTINUOUS
 62
     4
  5
CA
 10
-495.508417
 20
286.57775
 30
0.0
 40
2.0
  1
1
  7
MONOTXT
 11
-495.508417
 21
288.57775
 31
0.0
210
0.0
220
0.0
230
1.0
 73
     3
  0
TEXT
  8
1
  6
CONTINUOUS
 62
     4
  5
CB
 10
-496.0815
 20
281.7495
 30
0.0
 40
2.0
  1
2
  7
MONOTXT
 11
-496.0815
 21
283.7495
 31
0.0
210
0.0
220
0.0
230
1.0
 73
     3
  0
TEXT
  8
1
  6
CONTINUOUS
 62
     4
  5
CC
 10
-496.317333
 20
277.137833
 30
0.0
 40
2.0
  1
3
  7
MONOTXT
 11
-496.317333
 21
279.137833
 31
0.0
210
0.0
220
0.0
230
1.0
 73
     3
  0
TEXT
  8
1
  6
CONTINUOUS
 62
     4
  5
CD
 10
-491.176917
 20
287.648167
 30
0.0
 40
2.0
  1
CHANGED AT-VA
  7
MONOTXT
 11
-491.176917
 21
289.648167
 31
0.0
210
0.0
220
0.0
230
1.0
 73
     3
  0
TEXT
  8
1
  6
CONTINUOUS
 62
     4
  5
CE
 10
-490.928167
 20
277.7815
 30
0.0
 40
2.0
  1
UPDATE RIBS
  7
MONOTXT
 11
-490.928167
 21
279.7815
 31
0.0
210
0.0
220
0.0
230
1.0
 73
     3
  0
LINE
  8
1
  6
CONTINUOUS
 62
     4
  5
CF
 10
-495.495417
 20
276.297833
 30
0.0
 11
-497.185917
 21
272.672583
 31
0.0
  0
LINE
  8
1
  6
CONTINUOUS
 62
     4
  5
D0
 10
-495.495417
 20
276.297833
 30
0.0
 11
-493.804917
 21
272.672583
 31
0.0
  0
LINE
  8
1
  6
CONTINUOUS
 62
     4
  5
D1
 10
-497.185917
 20
272.672583
 30
0.0
 11
-493.804917
 21
272.672583
 31
0.0
  0
TEXT
  8
1
  6
CONTINUOUS
 62
     4
  5
D2
 10
-496.329917
 20
272.94725
 30
0.0
 40
2.0
  1
4
  7
MONOTXT
 11
-496.329917
 21
274.94725
 31
0.0
210
0.0
220
0.0
230
1.0
 73
     3
  0
TEXT
  8
1
  6
CONTINUOUS
 62
     4
  5
D3
 10
-491.093917
 20
273.553
 30
0.0
 40
2.0
  1
BOTTOM 4 WT.
  7
MONOTXT
 11
-491.093917
 21
275.553
 31
0.0
210
0.0
220
0.0
230
1.0
 73
     3
  0
TEXT
  8
1
  6
CONTINUOUS
 62
     4
  5
D4
 10
-464.16325
 20
227.010083
 30
0.0
 40
5.0
  1
ALUMINUM TRANSFORMER BASE
  7
txt
 11
-464.16325
 21
232.010083
 31
0.0
210
0.0
220
0.0
230
1.0
 73
     3
  0
TEXT
  8
1
  6
CONTINUOUS
 62
     4
  5
D5
 10
-488.7715
 20
193.00225
 30
0.0
 40
2.0
  1
9/25/91
  7
MONOTXT
 11
-488.7715
 21
195.00225
 31
0.0
210
0.0
220
0.0
230
1.0
 73
     3
  0
LINE
  8
1
  6
CONTINUOUS
 62
     4
  5
D6
 10
-492.835333
 20
195.422667
 30
0.0
 11
-494.525833
 21
191.797417
 31
0.0
  0
LINE
  8
1
  6
CONTINUOUS
 62
     4
  5
D7
 10
-492.835333
 20
195.422667
 30
0.0
 11
-491.144833
 21
191.797417
 31
0.0
  0
LINE
  8
1
  6
CONTINUOUS
 62
     4
  5
D8
 10
-494.525833
 20
191.797417
 30
0.0
 11
-491.144833
 21
191.797417
 31
0.0
  0
LINE
  8
1
  6
CONTINUOUS
 62
     4
  5
D9
 10
-492.695167
 20
199.906833
 30
0.0
 11
-494.385667
 21
196.281583
 31
0.0
  0
LINE
  8
1
  6
CONTINUOUS
 62
     4
  5
DA
 10
-492.695167
 20
199.906833
 30
0.0
 11
-491.004667
 21
196.281583
 31
0.0
  0
LINE
  8
1
  6
CONTINUOUS
 62
     4
  5
DB
 10
-494.385667
 20
196.281583
 30
0.0
 11
-491.004667
 21
196.281583
 31
0.0
  0
TEXT
  8
1
  6
CONTINUOUS
 62
     4
  5
DC
 10
-492.9755
 20
201.410167
 30
0.0
 40
2.0
  1
1
  7
MONOTXT
 11
-492.9755
 21
203.410167
 31
0.0
210
0.0
220
0.0
230
1.0
 73
     3
  0
TEXT
  8
1
  6
CONTINUOUS
 62
     4
  5
DD
 10
-493.286917
 20
196.599
 30
0.0
 40
2.0
  1
2
  7
MONOTXT
 11
-493.286917
 21
198.599
 31
0.0
210
0.0
220
0.0
230
1.0
 73
     3
  0
TEXT
  8
1
  6
CONTINUOUS
 62
     4
  5
DE
 10
-493.47375
 20
191.990333
 30
0.0
 40
2.0
  1
3
  7
MONOTXT
 11
-493.47375
 21
193.990333
 31
0.0
210
0.0
220
0.0
230
1.0
 73
     3
  0
TEXT
  8
1
  6
CONTINUOUS
 62
     4
  5
DF
 10
-488.211
 20
201.690417
 30
0.0
 40
2.0
  1
9/15/84
  7
MONOTXT
 11
-488.211
 21
203.690417
 31
0.0
210
0.0
220
0.0
230
1.0
 73
     3
  0
TEXT
  8
1
  6
CONTINUOUS
 62
     4
  5
E0
 10
-488.911667
 20
196.925917
 30
0.0
 40
2.0
  1
10/25/89
  7
MONOTXT
 11
-488.911667
 21
198.925917
 31
0.0
210
0.0
220
0.0
230
1.0
 73
     3
  0
LINE
  8
1
  6
CONTINUOUS
 62
     4
  5
E1
 10
-492.555083
 20
204.67125
 30
0.0
 11
-494.245583
 21
201.046
 31
0.0
  0
LINE
  8
1
  6
CONTINUOUS
 62
     4
  5
E2
 10
-492.555083
 20
204.67125
 30
0.0
 11
-490.864583
 21
201.046
 31
0.0
  0
LINE
  8
1
  6
CONTINUOUS
 62
     4
  5
E3
 10
-494.245583
 20
201.046
 30
0.0
 11
-490.864583
 21
201.046
 31
0.0
  0
LINE
  8
1
  6
CONTINUOUS
 62
     4
  5
E4
 10
-492.74025
 20
191.050583
 30
0.0
 11
-494.43075
 21
187.425333
 31
0.0
  0
LINE
  8
1
  6
CONTINUOUS
 62
     4
  5
E5
 10
-492.74025
 20
191.050583
 30
0.0
 11
-491.04975
 21
187.425333
 31
0.0
  0
LINE
  8
1
  6
CONTINUOUS
 62
     4
  5
E6
 10
-494.43075
 20
187.425333
 30
0.0
 11
-491.04975
 21
187.425333
 31
0.0
  0
TEXT
  8
1
  6
CONTINUOUS
 62
     4
  5
E7
 10
-493.441
 20
187.929417
 30
0.0
 40
2.0
  1
4
  7
MONOTXT
 11
-493.441
 21
189.929417
 31
0.0
210
0.0
220
0.0
230
1.0
 73
     3
  0
TEXT
  8
1
  6
CONTINUOUS
 62
     4
  5
E8
 10
-488.866583
 20
187.964833
 30
0.0
 40
2.0
  1
2/6/92
  7
MONOTXT
 11
-488.866583
 21
189.964833
 31
0.0
210
0.0
220
0.0
230
1.0
 73
     3
  0
LINE
  8
1
  6
CONTINUOUS
 62
     4
  5
E9
 10
-497.185917
 20
268.176917
 30
0.0
 11
-493.804917
 21
268.176917
 31
0.0
  0
LINE
  8
1
  6
CONTINUOUS
 62
     4
  5
EA
 10
-495.495417
 20
271.802167
 30
0.0
 11
-497.185917
 21
268.176917
 31
0.0
  0
LINE
  8
1
  6
CONTINUOUS
 62
     4
  5
EB
 10
-495.495417
 20
271.802167
 30
0.0
 11
-493.804917
 21
268.176917
 31
0.0
  0
TEXT
  8
1
  6
CONTINUOUS
 62
     4
  5
EC
 10
-496.170667
 20
268.387833
 30
0.0
 40
2.0
  1
5
  7
MONOTXT
 11
-496.170667
 21
270.387833
 31
0.0
210
0.0
220
0.0
230
1.0
 73
     3
  0
TEXT
  8
1
  6
CONTINUOUS
 62
     4
  5
ED
 10
-491.093917
 20
269.057333
 30
0.0
 40
2.0
  1
ADDED UA1, AA,AB,AC AND AD AND ATTENDANT 85 AASHTO DETAILS.
  7
MONOTXT
 11
-491.093917
 21
271.057333
 31
0.0
210
0.0
220
0.0
230
1.0
 73
     3
  0
LINE
  8
1
  6
CONTINUOUS
 62
     4
  5
EE
 10
-494.27975
 20
182.894667
 30
0.0
 11
-490.89875
 21
182.894667
 31
0.0
  0
LINE
  8
1
  6
CONTINUOUS
 62
     4
  5
EF
 10
-492.58925
 20
186.519917
 30
0.0
 11
-494.27975
 21
182.894667
 31
0.0
  0
LINE
  8
1
  6
CONTINUOUS
 62
     4
  5
F0
 10
-492.58925
 20
186.519917
 30
0.0
 11
-490.89875
 21
182.894667
 31
0.0
  0
TEXT
  8
1
  6
CONTINUOUS
 62
     4
  5
F1
 10
-493.246833
 20
183.096667
 30
0.0
 40
2.0
  1
5
  7
MONOTXT
 11
-493.246833
 21
185.096667
 31
0.0
210
0.0
220
0.0
230
1.0
 73
     3
  0
LINE
  8
1
  6
CONTINUOUS
 62
     4
  5
F2
 10
-495.55225
 20
267.417583
 30
0.0
 11
-497.24275
 21
263.792333
 31
0.0
  0
LINE
  8
1
  6
CONTINUOUS
 62
     4
  5
F3
 10
-495.55225
 20
267.417583
 30
0.0
 11
-493.86175
 21
263.792333
 31
0.0
  0
LINE
  8
1
  6
CONTINUOUS
 62
     4
  5
F4
 10
-497.24275
 20
263.792333
 30
0.0
 11
-493.86175
 21
263.792333
 31
0.0
  0
TEXT
  8
1
  6
CONTINUOUS
 62
     4
  5
F5
 10
-496.208333
 20
263.946083
 30
0.0
 40
2.0
  1
6
  7
MONOTXT
 11
-496.208333
 21
265.946083
 31
0.0
210
0.0
220
0.0
230
1.0
 73
     3
  0
LINE
  8
1
  6
CONTINUOUS
 62
     4
  5
F6
 10
-492.5505
 20
181.899167
 30
0.0
 11
-494.241
 21
178.273917
 31
0.0
  0
LINE
  8
1
  6
CONTINUOUS
 62
     4
  5
F7
 10
-492.5505
 20
181.899167
 30
0.0
 11
-490.86
 21
178.273917
 31
0.0
  0
LINE
  8
1
  6
CONTINUOUS
 62
     4
  5
F8
 10
-494.241
 20
178.273917
 30
0.0
 11
-490.86
 21
178.273917
 31
0.0
  0
TEXT
  8
1
  6
CONTINUOUS
 62
     4
  5
F9
 10
-493.206583
 20
178.427667
 30
0.0
 40
2.0
  1
6
  7
MONOTXT
 11
-493.206583
 21
180.427667
 31
0.0
210
0.0
220
0.0
230
1.0
 73
     3
  0
TEXT
  8
1
  6
CONTINUOUS
 62
     7
  5
FA
 10
-784.87925
 20
540.45625
 30
0.0
 40
2.5
  1
TOP WASHERS-5/32"X2"O.D.
  7
MONOTXT
 11
-784.87925
 21
541.70625
 31
0.0
210
0.0
220
0.0
230
1.0
 73
     2
  0
TEXT
  8
1
  6
CONTINUOUS
 62
     7
  5
FB
 10
-784.87925
 20
535.95625
 30
0.0
 40
2.5
  1
OUTSIDE, 5/32 "X2 1/2 "O.D.
  7
MONOTXT
 11
-784.87925
 21
537.20625
 31
0.0
210
0.0
220
0.0
230
1.0
 73
     2
  0
TEXT
  8
1
  6
CONTINUOUS
 62
     7
  5
FC
 10
-784.87925
 20
531.45625
 30
0.0
 40
2.5
  1
INSIDE; BOTTOM WASHERS-
  7
MONOTXT
 11
-784.87925
 21
532.70625
 31
0.0
210
0.0
220
0.0
230
1.0
 73
     2
  0
TEXT
  8
1
  6
CONTINUOUS
 62
     7
  5
FD
 10
-784.87925
 20
526.95625
 30
0.0
 40
2.5
  1
 3/8 "X2 1/2 "O.D.
  7
MONOTXT
 11
-784.87925
 21
528.20625
 31
0.0
210
0.0
220
0.0
230
1.0
 73
     2
  0
TEXT
  8
1
  6
CONTINUOUS
 62
     7
  5
FE
 10
-718.676833
 20
540.529917
 30
0.0
 40
2.5
  1
1" X 40"
  7
MONOTXT
 72
     4
 11
-710.458333
 21
541.779917
 31
0.0
210
0.0
220
0.0
230
1.0
  0
TEXT
  8
1
  6
CONTINUOUS
 62
     7
  5
FF
 10
-714.405167
 20
537.029917
 30
0.0
 40
2.5
  1
MAX.
  7
MONOTXT
 72
     4
 11
-710.458333
 21
538.279917
 31
0.0
210
0.0
220
0.0
230
1.0
  0
TEXT
  8
1
  6
CONTINUOUS
 62
     7
  5
100
 10
-717.663083
 20
533.529917
 30
0.0
 40
2.5
  1
TORQUE
  7
MONOTXT
 72
     4
 11
-710.448583
 21
534.779917
 31
0.0
210
0.0
220
0.0
230
1.0
  0
TEXT
  8
1
  6
CONTINUOUS
 62
     7
  5
101
 10
-713.765417
 20
530.029917
 30
0.0
 40
2.5
  1
200
  7
MONOTXT
 72
     4
 11
-710.458417
 21
531.279917
 31
0.0
210
0.0
220
0.0
230
1.0
  0
TEXT
  8
1
  6
CONTINUOUS
 62
     7
  5
102
 10
-718.302833
 20
526.529917
 30
0.0
 40
2.5
  1
FT.-LBS.
  7
MONOTXT
 72
     4
 11
-710.458333
 21
527.779917
 31
0.0
210
0.0
220
0.0
230
1.0
  0
TEXT
  8
1
  6
CONTINUOUS
 62
   253
  5
103
 10
-510.906
 20
550.7685
 30
0.0
 40
2.5
  1
NOTES:
  7
MONOTXT
 11
-510.906
 21
553.2685
 31
0.0
210
0.0
220
0.0
230
1.0
 73
     3
  0
TEXT
  8
1
  6
CONTINUOUS
 62
   253
  5
104
 10
-510.906
 20
546.2685
 30
0.0
 40
2.5
  1
 
  7
MONOTXT
 11
-510.906
 21
548.7685
 31
0.0
210
0.0
220
0.0
230
1.0
 73
     3
  0
TEXT
  8
1
  6
CONTINUOUS
 62
   253
  5
105
 10
-510.906
 20
541.7685
 30
0.0
 40
2.5
  1
1.   THE TRANSFORMER BASE SHALL BE CERTIFIED FOR CONFORMANCE TO THE LATEST
  7
MONOTXT
 11
-510.906
 21
544.2685
 31
0.0
210
0.0
220
0.0
230
1.0
 73
     3
  0
TEXT
  8
1
  6
CONTINUOUS
 62
   253
  5
106
 10
-510.906
 20
537.2685
 30
0.0
 40
2.5
  1
   AASHTO BREAKAWAY PERFORMANCE CRITERIA.
  7
MONOTXT
 11
-510.906
 21
539.7685
 31
0.0
210
0.0
220
0.0
230
1.0
 73
     3
  0
TEXT
  8
1
  6
CONTINUOUS
 62
   253
  5
107
 10
-510.906
 20
532.7685
 30
0.0
 40
2.5
  1
 
  7
MONOTXT
 11
-510.906
 21
535.2685
 31
0.0
210
0.0
220
0.0
230
1.0
 73
     3
  0
TEXT
  8
1
  6
CONTINUOUS
 62
   253
  5
108
 10
-510.906
 20
528.2685
 30
0.0
 40
2.5
  1
2.   FOR POLE BASE B.C. AT TOP OF ALUMINUM TRANSFORMER BASE AND POLE FOUND-
  7
MONOTXT
 11
-510.906
 21
530.7685
 31
0.0
210
0.0
220
0.0
230
1.0
 73
     3
  0
TEXT
  8
1
  6
CONTINUOUS
 62
   253
  5
109
 10
-510.906
 20
523.7685
 30
0.0
 40
2.5
  1
   ATION B.C. AND DIMENSIONS, REFER TO APPROPRIATE PORTION OF TES-40 FOR
  7
MONOTXT
 11
-510.906
 21
526.2685
 31
0.0
210
0.0
220
0.0
230
1.0
 73
     3
  0
TEXT
  8
1
  6
CONTINUOUS
 62
   253
  5
10A
 10
-510.906
 20
519.2685
 30
0.0
 40
2.5
  1
   STEEL POLES AND THE APPROPRIATE PORTION OF TEL-15B FOR ALUMINUM POLES.
  7
MONOTXT
 11
-510.906
 21
521.7685
 31
0.0
210
0.0
220
0.0
230
1.0
 73
     3
  0
TEXT
  8
1
  6
CONTINUOUS
 62
   253
  5
10B
 10
-510.906
 20
514.7685
 30
0.0
 40
2.5
  1
 
  7
MONOTXT
 11
-510.906
 21
517.2685
 31
0.0
210
0.0
220
0.0
230
1.0
 73
     3
  0
TEXT
  8
1
  6
CONTINUOUS
 62
   253
  5
10C
 10
-510.906
 20
510.2685
 30
0.0
 40
2.5
  1
3.   OTHER APPROVED GALVANIZED CONNECTING HARDWARE (E.G. NUTS, WASHERS,
  7
MONOTXT
 11
-510.906
 21
512.7685
 31
0.0
210
0.0
220
0.0
230
1.0
 73
     3
  0
TEXT
  8
1
  6
CONTINUOUS
 62
   253
  5
10D
 10
-510.906
 20
505.7685
 30
0.0
 40
2.5
  1
   PLATES, CLIPS, CONNECTING BOLT COVER, ANCHOR BOLTS ETC.) SHALL BE SUPPLIED
  7
MONOTXT
 11
-510.906
 21
508.2685
 31
0.0
210
0.0
220
0.0
230
1.0
 73
     3
  0
TEXT
  8
1
  6
CONTINUOUS
 62
   253
  5
10E
 10
-510.906
 20
501.2685
 30
0.0
 40
2.5
  1
   AS REQUIRED IN ACCORDANCE WITH THE APPROPRIATE POLE SPECIFICATIONS, THE
  7
MONOTXT
 11
-510.906
 21
503.7685
 31
0.0
210
0.0
220
0.0
230
1.0
 73
     3
  0
TEXT
  8
1
  6
CONTINUOUS
 62
   253
  5
10F
 10
-510.906
 20
496.7685
 30
0.0
 40
2.5
  1
   CHARTS ON TES-40 OR TEL-15B, AND THE MANUFACTURERS RECOMMENDATIONS.
  7
MONOTXT
 11
-510.906
 21
499.2685
 31
0.0
210
0.0
220
0.0
230
1.0
 73
     3
  0
TEXT
  8
1
  6
CONTINUOUS
 62
   253
  5
110
 10
-510.906
 20
492.2685
 30
0.0
 40
2.5
  1
 
  7
MONOTXT
 11
-510.906
 21
494.7685
 31
0.0
210
0.0
220
0.0
230
1.0
 73
     3
  0
TEXT
  8
1
  6
CONTINUOUS
 62
   253
  5
111
 10
-510.906
 20
487.7685
 30
0.0
 40
2.5
  1
4.   SHIM AS REQUIRED WITH  1/16 " GALVANIZED STEEL SHIMS.
  7
MONOTXT
 11
-510.906
 21
490.2685
 31
0.0
210
0.0
220
0.0
230
1.0
 73
     3
  0
TEXT
  8
1
  6
CONTINUOUS
 62
   253
  5
112
 10
-510.906
 20
483.2685
 30
0.0
 40
2.5
  1
 
  7
MONOTXT
 11
-510.906
 21
485.7685
 31
0.0
210
0.0
220
0.0
230
1.0
 73
     3
  0
TEXT
  8
1
  6
CONTINUOUS
 62
   253
  5
113
 10
-510.906
 20
478.7685
 30
0.0
 40
2.5
  1
5.   GROUNDING SHALL COMPLY WITH THAT ILLUSTRATED ON TEL-01 AND TES-40 OR
  7
MONOTXT
 11
-510.906
 21
481.2685
 31
0.0
210
0.0
220
0.0
230
1.0
 73
     3
  0
TEXT
  8
1
  6
CONTINUOUS
 62
   253
  5
114
 10
-510.906
 20
474.2685
 30
0.0
 40
2.5
  1
   TEL-15B.
  7
MONOTXT
 11
-510.906
 21
476.7685
 31
0.0
210
0.0
220
0.0
230
1.0
 73
     3
  0
TEXT
  8
1
  6
CONTINUOUS
 62
   253
  5
115
 10
-510.906
 20
469.7685
 30
0.0
 40
2.5
  1
 
  7
MONOTXT
 11
-510.906
 21
472.2685
 31
0.0
210
0.0
220
0.0
230
1.0
 73
     3
  0
TEXT
  8
1
  6
CONTINUOUS
 62
   253
  5
116
 10
-510.906
 20
465.2685
 30
0.0
 40
2.5
  1
6.   ONE SIDE OF TRANSFORMER BASE NEAR THE DOOR SHALL BE TAPPED FOR GROUND-
  7
MONOTXT
 11
-510.906
 21
467.7685
 31
0.0
210
0.0
220
0.0
230
1.0
 73
     3
  0
TEXT
  8
1
  6
CONTINUOUS
 62
   253
  5
117
 10
-510.906
 20
460.7685
 30
0.0
 40
2.5
  1
   ING LUG.
  7
MONOTXT
 11
-510.906
 21
463.2685
 31
0.0
210
0.0
220
0.0
230
1.0
 73
     3
  0
TEXT
  8
1
  6
CONTINUOUS
 62
   253
  5
118
 10
-510.906
 20
456.2685
 30
0.0
 40
2.5
  1
 
  7
MONOTXT
 11
-510.906
 21
458.7685
 31
0.0
210
0.0
220
0.0
230
1.0
 73
     3
  0
TEXT
  8
1
  6
CONTINUOUS
 62
   253
  5
119
 10
-510.906
 20
451.7685
 30
0.0
 40
2.5
  1
7.   MAXIMUM SLOPE TO THE TRANSFORMER BASE SHALL BE 6:1.
  7
MONOTXT
 11
-510.906
 21
454.2685
 31
0.0
210
0.0
220
0.0
230
1.0
 73
     3
  0
TEXT
  8
1
  6
CONTINUOUS
 62
   253
  5
11A
 10
-514.7965
 20
508.940917
 30
0.0
 40
5.0
  1
*
  7
MONOTXT
 11
-514.7965
 21
513.940917
 31
0.0
210
0.0
220
0.0
230
1.0
 73
     3
  0
TEXT
  8
1
  6
CONTINUOUS
 62
     7
  5
11B
 10
-910.822083
 20
563.090333
 30
0.0
 40
2.5
  1
HGT.
  7
MONOTXT
 72
     4
 11
-906.87525
 21
564.340333
 31
0.0
210
0.0
220
0.0
230
1.0
  0
TEXT
  8
1
  6
CONTINUOUS
 62
     7
  5
11C
 10
-909.227583
 20
558.590333
 30
0.0
 40
2.5
  1
(H)
  7
MONOTXT
 72
     4
 11
-906.87525
 21
559.840333
 31
0.0
210
0.0
220
0.0
230
1.0
  0
TEXT
  8
1
  6
CONTINUOUS
 62
     7
  5
11D
 10
-861.0855
 20
565.808667
 30
0.0
 40
2.5
  1
TOP
  7
MONOTXT
 72
     4
 11
-857.6505
 21
567.058667
 31
0.0
210
0.0
220
0.0
230
1.0
  0
TEXT
  8
1
  6
CONTINUOUS
 62
     7
  5
11E
 10
-866.932
 20
561.308667
 30
0.0
 40
2.5
  1
DIMENSION
  7
MONOTXT
 72
     4
 11
-857.6505
 21
562.558667
 31
0.0
210
0.0
220
0.0
230
1.0
  0
TEXT
  8
1
  6
CONTINUOUS
 62
     7
  5
11F
 10
-860.012667
 20
556.808667
 30
0.0
 40
2.5
  1
(S)
  7
MONOTXT
 72
     4
 11
-857.660333
 21
558.058667
 31
0.0
210
0.0
220
0.0
230
1.0
  0
LINE
  8
1
  6
CONTINUOUS
 62
     4
  5
120
 10
-520.084667
 20
523.511833
 30
0.0
 11
-957.084667
 21
523.511833
 31
0.0
  0
LINE
  8
1
  6
CONTINUOUS
 62
     4
  5
121
 10
-520.084667
 20
494.511833
 30
0.0
 11
-957.084667
 21
494.511833
 31
0.0
  0
LINE
  8
1
  6
CONTINUOUS
 62
     4
  5
122
 10
-520.084667
 20
465.511833
 30
0.0
 11
-957.084667
 21
465.511833
 31
0.0
  0
LINE
  8
1
  6
CONTINUOUS
 62
     4
  5
123
 10
-520.084667
 20
436.511833
 30
0.0
 11
-957.084667
 21
436.511833
 31
0.0
  0
LINE
  8
1
  6
CONTINUOUS
 62
     4
  5
124
 10
-520.084667
 20
407.511833
 30
0.0
 11
-957.084667
 21
407.511833
 31
0.0
  0
TEXT
  8
1
  6
CONTINUOUS
 62
     7
  5
125
 10
-935.786167
 20
520.077167
 30
0.0
 40
2.5
  1
356-T6
  7
MONOTXT
 72
     4
 11
-929.0835
 21
521.327167
 31
0.0
210
0.0
220
0.0
230
1.0
  0
TEXT
  8
1
  6
CONTINUOUS
 62
     7
  5
126
 10
-909.95
 20
520.186917
 30
0.0
 40
2.5
  1
17"
  7
MONOTXT
 72
     4
 11
-907.459833
 21
521.436917
 31
0.0
210
0.0
220
0.0
230
1.0
  0
TEXT
  8
1
  6
CONTINUOUS
 62
     7
  5
127
 10
-896.0595
 20
520.404167
 30
0.0
 40
2.5
  1
10 1/2" TO
  7
MONOTXT
 72
     4
 11
-885.597
 21
521.654167
 31
0.0
210
0.0
220
0.0
230
1.0
  0
TEXT
  8
1
  6
CONTINUOUS
 62
     7
  5
128
 10
-892.427583
 20
515.904167
 30
0.0
 40
2.5
  1
13 1/2"
  7
MONOTXT
 72
     4
 11
-885.60675
 21
517.154167
 31
0.0
210
0.0
220
0.0
230
1.0
  0
TEXT
  8
1
  6
CONTINUOUS
 62
     7
  5
129
 10
-893.815417
 20
511.404167
 30
0.0
 40
2.5
  1
SLOTTED
  7
MONOTXT
 72
     4
 11
-885.596917
 21
512.654167
 31
0.0
210
0.0
220
0.0
230
1.0
  0
TEXT
  8
1
  6
CONTINUOUS
 62
     7
  5
12A
 10
-869.205583
 20
519.92875
 30
0.0
 40
2.5
  1
13 1/8" SQ.
  7
MONOTXT
 72
     4
 11
-858.172083
 21
521.17875
 31
0.0
210
0.0
220
0.0
230
1.0
  0
TEXT
  8
1
  6
CONTINUOUS
 62
     7
  5
12B
 10
-839.9175
 20
520.37075
 30
0.0
 40
2.5
  1
13" TO 15"
  7
MONOTXT
 72
     4
 11
-829.573
 21
521.62075
 31
0.0
210
0.0
220
0.0
230
1.0
  0
TEXT
  8
1
  6
CONTINUOUS
 62
     7
  5
12C
 10
-837.781667
 20
515.87075
 30
0.0
 40
2.5
  1
SLOTTED
  7
MONOTXT
 72
     4
 11
-829.563167
 21
517.12075
 31
0.0
210
0.0
220
0.0
230
1.0
  0
TEXT
  8
1
  6
CONTINUOUS
 62
     7
  5
12D
 10
-838.46075
 20
511.37075
 30
0.0
 40
2.5
  1
(USE 15")
  7
MONOTXT
 72
     4
 11
-829.573
 21
512.62075
 31
0.0
210
0.0
220
0.0
230
1.0
  0
TEXT
  8
1
  6
CONTINUOUS
 62
     7
  5
12E
 10
-812.744417
 20
519.86175
 30
0.0
 40
2.5
  1
15 3/8" SQ.
  7
MONOTXT
 72
     4
 11
-801.1795
 21
521.11175
 31
0.0
210
0.0
220
0.0
230
1.0
  0
TEXT
  8
1
  6
CONTINUOUS
 62
     7
  5
12F
 10
-719.828083
 20
519.839
 30
0.0
 40
2.5
  1
1"X40" OR
  7
MONOTXT
 72
     4
 11
-710.19225
 21
521.089
 31
0.0
210
0.0
220
0.0
230
1.0
  0
TEXT
  8
1
  6
CONTINUOUS
 62
     7
  5
130
 10
-718.833917
 20
515.339
 30
0.0
 40
2.5
  1
1 1/4"48"
  7
MONOTXT
 72
     4
 11
-710.202083
 21
516.589
 31
0.0
210
0.0
220
0.0
230
1.0
  0
TEXT
  8
1
  6
CONTINUOUS
 62
     7
  5
131
 10
-719.562333
 20
510.839
 30
0.0
 40
2.5
  1
AS REQ'D.
  7
MONOTXT
 72
     4
 11
-710.202167
 21
512.089
 31
0.0
210
0.0
220
0.0
230
1.0
  0
TEXT
  8
1
  6
CONTINUOUS
 62
     7
  5
132
 10
-936.07125
 20
490.60275
 30
0.0
 40
2.5
  1
356-T6
  7
MONOTXT
 72
     4
 11
-929.368583
 21
491.85275
 31
0.0
210
0.0
220
0.0
230
1.0
  0
TEXT
  8
1
  6
CONTINUOUS
 62
     7
  5
133
 10
-909.428333
 20
490.492167
 30
0.0
 40
2.5
  1
17"
  7
MONOTXT
 72
     4
 11
-906.938167
 21
491.742167
 31
0.0
210
0.0
220
0.0
230
1.0
  0
TEXT
  8
1
  6
CONTINUOUS
 62
     7
  5
134
 10
-895.503417
 20
491.012667
 30
0.0
 40
2.5
  1
10 1/2" TO
  7
MONOTXT
 72
     4
 11
-885.040917
 21
492.262667
 31
0.0
210
0.0
220
0.0
230
1.0
  0
TEXT
  8
1
  6
CONTINUOUS
 62
     7
  5
135
 10
-891.8715
 20
486.512667
 30
0.0
 40
2.5
  1
13 1/2"
  7
MONOTXT
 72
     4
 11
-885.050667
 21
487.762667
 31
0.0
210
0.0
220
0.0
230
1.0
  0
TEXT
  8
1
  6
CONTINUOUS
 62
     7
  5
136
 10
-893.259333
 20
482.012667
 30
0.0
 40
2.5
  1
SLOTTED
  7
MONOTXT
 72
     4
 11
-885.040833
 21
483.262667
 31
0.0
210
0.0
220
0.0
230
1.0
  0
TEXT
  8
1
  6
CONTINUOUS
 62
     7
  5
137
 10
-868.720417
 20
490.788
 30
0.0
 40
2.5
  1
13 1/8" SQ.
  7
MONOTXT
 72
     4
 11
-857.686917
 21
492.038
 31
0.0
210
0.0
220
0.0
230
1.0
  0
TEXT
  8
1
  6
CONTINUOUS
 62
     7
  5
138
 10
-813.241167
 20
490.2765
 30
0.0
 40
2.5
  1
15 3/8" SQ.
  7
MONOTXT
 72
     4
 11
-801.67625
 21
491.5265
 31
0.0
210
0.0
220
0.0
230
1.0
  0
TEXT
  8
1
  6
CONTINUOUS
 62
     7
  5
139
 10
-785.858917
 20
490.543917
 30
0.0
 40
2.5
  1
1"-A307 OR 1 1/4"-A325
  7
MONOTXT
 11
-785.858917
 21
491.793917
 31
0.0
210
0.0
220
0.0
230
1.0
 73
     2
  0
TEXT
  8
1
  6
CONTINUOUS
 62
     7
  5
13A
 10
-785.858917
 20
486.043917
 30
0.0
 40
2.5
  1
AS REQUIRED.
  7
MONOTXT
 11
-785.858917
 21
487.293917
 31
0.0
210
0.0
220
0.0
230
1.0
 73
     2
  0
TEXT
  8
1
  6
CONTINUOUS
 62
     7
  5
13B
 10
-784.654
 20
519.6765
 30
0.0
 40
2.5
  1
1"-A307 OR 1 1/4"-A325
  7
MONOTXT
 11
-784.654
 21
520.9265
 31
0.0
210
0.0
220
0.0
230
1.0
 73
     2
  0
TEXT
  8
1
  6
CONTINUOUS
 62
     7
  5
13C
 10
-784.654
 20
515.1765
 30
0.0
 40
2.5
  1
AS REQUIRED.
  7
MONOTXT
 11
-784.654
 21
516.4265
 31
0.0
210
0.0
220
0.0
230
1.0
 73
     2
  0
TEXT
  8
1
  6
CONTINUOUS
 62
     7
  5
13D
 10
-720.085917
 20
490.851083
 30
0.0
 40
2.5
  1
1"X40" OR
  7
MONOTXT
 72
     4
 11
-710.450083
 21
492.101083
 31
0.0
210
0.0
220
0.0
230
1.0
  0
TEXT
  8
1
  6
CONTINUOUS
 62
     7
  5
13E
 10
-720.332
 20
486.351083
 30
0.0
 40
2.5
  1
1 1/4"X48"
  7
MONOTXT
 72
     4
 11
-710.46
 21
487.601083
 31
0.0
210
0.0
220
0.0
230
1.0
  0
TEXT
  8
1
  6
CONTINUOUS
 62
     7
  5
13F
 10
-719.820167
 20
481.851083
 30
0.0
 40
2.5
  1
AS REQ'D.
  7
MONOTXT
 72
     4
 11
-710.46
 21
483.101083
 31
0.0
210
0.0
220
0.0
230
1.0
  0
TEXT
  8
1
  6
CONTINUOUS
 62
     7
  5
140
 10
-936.080583
 20
461.630083
 30
0.0
 40
2.5
  1
356-T6
  7
MONOTXT
 72
     4
 11
-929.377917
 21
462.880083
 31
0.0
210
0.0
220
0.0
230
1.0
  0
TEXT
  8
1
  6
CONTINUOUS
 62
     7
  5
141
 10
-909.396833
 20
461.531083
 30
0.0
 40
2.5
  1
17"
  7
MONOTXT
 72
     4
 11
-906.906667
 21
462.781083
 31
0.0
210
0.0
220
0.0
230
1.0
  0
TEXT
  8
1
  6
CONTINUOUS
 62
     7
  5
142
 10
-896.156667
 20
461.602333
 30
0.0
 40
2.5
  1
10" TO 12"
  7
MONOTXT
 72
     4
 11
-885.812167
 21
462.852333
 31
0.0
210
0.0
220
0.0
230
1.0
  0
TEXT
  8
1
  6
CONTINUOUS
 62
     7
  5
143
 10
-894.020833
 20
457.102333
 30
0.0
 40
2.5
  1
SLOTTED
  7
MONOTXT
 72
     4
 11
-885.802333
 21
458.352333
 31
0.0
210
0.0
220
0.0
230
1.0
  0
TEXT
  8
1
  6
CONTINUOUS
 62
     7
  5
144
 10
-867.487
 20
462.345083
 30
0.0
 40
2.5
  1
12.04" SQ.
  7
MONOTXT
 72
     4
 11
-857.634667
 21
463.595083
 31
0.0
210
0.0
220
0.0
230
1.0
  0
TEXT
  8
1
  6
CONTINUOUS
 62
     7
  5
145
 10
-810.812333
 20
461.965583
 30
0.0
 40
2.5
  1
13.08" SQ.
  7
MONOTXT
 72
     4
 11
-801.019
 21
463.215583
 31
0.0
210
0.0
220
0.0
230
1.0
  0
TEXT
  8
1
  6
CONTINUOUS
 62
     7
  5
146
 10
-785.5105
 20
461.478667
 30
0.0
 40
2.5
  1
1"-A307 OR 1 1/4"-A325
  7
MONOTXT
 11
-785.5105
 21
462.728667
 31
0.0
210
0.0
220
0.0
230
1.0
 73
     2
  0
TEXT
  8
1
  6
CONTINUOUS
 62
     7
  5
147
 10
-785.5105
 20
456.978667
 30
0.0
 40
2.5
  1
AS REQUIRED.
  7
MONOTXT
 11
-785.5105
 21
458.228667
 31
0.0
210
0.0
220
0.0
230
1.0
 73
     2
  0
TEXT
  8
1
  6
CONTINUOUS
 62
     7
  5
148
 10
-719.554833
 20
461.668583
 30
0.0
 40
2.5
  1
1"X40" OR
  7
MONOTXT
 72
     4
 11
-709.919
 21
462.918583
 31
0.0
210
0.0
220
0.0
230
1.0
  0
TEXT
  8
1
  6
CONTINUOUS
 62
     7
  5
149
 10
-719.800917
 20
457.168583
 30
0.0
 40
2.5
  1
1 1/4"X48"
  7
MONOTXT
 72
     4
 11
-709.928917
 21
458.418583
 31
0.0
210
0.0
220
0.0
230
1.0
  0
TEXT
  8
1
  6
CONTINUOUS
 62
     7
  5
14A
 10
-719.289083
 20
452.668583
 30
0.0
 40
2.5
  1
AS REQ'D.
  7
MONOTXT
 72
     4
 11
-709.928917
 21
453.918583
 31
0.0
210
0.0
220
0.0
230
1.0
  0
TEXT
  8
1
  6
CONTINUOUS
 62
     7
  5
14B
 10
-935.323583
 20
432.63225
 30
0.0
 40
2.5
  1
356-T6
  7
MONOTXT
 72
     4
 11
-928.620917
 21
433.88225
 31
0.0
210
0.0
220
0.0
230
1.0
  0
TEXT
  8
1
  6
CONTINUOUS
 62
     7
  5
14C
 10
-909.771167
 20
432.71175
 30
0.0
 40
2.5
  1
17"
  7
MONOTXT
 72
     4
 11
-907.281
 21
433.96175
 31
0.0
210
0.0
220
0.0
230
1.0
  0
TEXT
  8
1
  6
CONTINUOUS
 62
     7
  5
14D
 10
-891.192167
 20
432.890417
 30
0.0
 40
2.5
  1
13" TO
  7
MONOTXT
 72
     4
 11
-885.08
 21
434.140417
 31
0.0
210
0.0
220
0.0
230
1.0
  0
TEXT
  8
1
  6
CONTINUOUS
 62
     7
  5
14E
 10
-891.910667
 20
428.390417
 30
0.0
 40
2.5
  1
15 1/8"
  7
MONOTXT
 72
     4
 11
-885.089833
 21
429.640417
 31
0.0
210
0.0
220
0.0
230
1.0
  0
TEXT
  8
1
  6
CONTINUOUS
 62
     7
  5
14F
 10
-893.2985
 20
423.890417
 30
0.0
 40
2.5
  1
SLOTTED
  7
MONOTXT
 72
     4
 11
-885.08
 21
425.140417
 31
0.0
210
0.0
220
0.0
230
1.0
  0
TEXT
  8
1
  6
CONTINUOUS
 62
     7
  5
150
 10
-867.9905
 20
432.641417
 30
0.0
 40
2.5
  1
15.09" SQ.
  7
MONOTXT
 72
     4
 11
-858.256333
 21
433.891417
 31
0.0
210
0.0
220
0.0
230
1.0
  0
TEXT
  8
1
  6
CONTINUOUS
 62
     7
  5
151
 10
-811.648833
 20
433.460417
 30
0.0
 40
2.5
  1
17.44" SQ.
  7
MONOTXT
 72
     4
 11
-801.71775
 21
434.710417
 31
0.0
210
0.0
220
0.0
230
1.0
  0
TEXT
  8
1
  6
CONTINUOUS
 62
     7
  5
152
 10
-786.256
 20
433.227667
 30
0.0
 40
2.5
  1
1"-A307 OR 1 1/4"-A325
  7
MONOTXT
 11
-786.256
 21
434.477667
 31
0.0
210
0.0
220
0.0
230
1.0
 73
     2
  0
TEXT
  8
1
  6
CONTINUOUS
 62
     7
  5
153
 10
-786.256
 20
428.727667
 30
0.0
 40
2.5
  1
AS REQUIRED
  7
MONOTXT
 11
-786.256
 21
429.977667
 31
0.0
210
0.0
220
0.0
230
1.0
 73
     2
  0
TEXT
  8
1
  6
CONTINUOUS
 62
     7
  5
154
 10
-719.81475
 20
432.429417
 30
0.0
 40
2.5
  1
1"X40" OR
  7
MONOTXT
 72
     4
 11
-710.178917
 21
433.679417
 31
0.0
210
0.0
220
0.0
230
1.0
  0
TEXT
  8
1
  6
CONTINUOUS
 62
     7
  5
155
 10
-720.060833
 20
427.929417
 30
0.0
 40
2.5
  1
1 1/4"X48"
  7
MONOTXT
 72
     4
 11
-710.188833
 21
429.179417
 31
0.0
210
0.0
220
0.0
230
1.0
  0
TEXT
  8
1
  6
CONTINUOUS
 62
     7
  5
156
 10
-719.549
 20
423.429417
 30
0.0
 40
2.5
  1
AS REQ'D.
  7
MONOTXT
 72
     4
 11
-710.188833
 21
424.679417
 31
0.0
210
0.0
220
0.0
230
1.0
  0
TEXT
  8
1
  6
CONTINUOUS
 62
     7
  5
157
 10
-955.538583
 20
520.021083
 30
0.0
 40
2.5
  1
AT-AA
  7
MONOTXT
 72
     4
 11
-949.948083
 21
521.271083
 31
0.0
210
0.0
220
0.0
230
1.0
  0
TEXT
  8
1
  6
CONTINUOUS
 62
     7
  5
158
 10
-955.795917
 20
462.1965
 30
0.0
 40
2.5
  1
AT-AC
  7
MONOTXT
 72
     4
 11
-950.27425
 21
463.4465
 31
0.0
210
0.0
220
0.0
230
1.0
  0
TEXT
  8
1
  6
CONTINUOUS
 62
     7
  5
159
 10
-955.417167
 20
432.886083
 30
0.0
 40
2.5
  1
AT-AD
  7
MONOTXT
 72
     4
 11
-949.954667
 21
434.136083
 31
0.0
210
0.0
220
0.0
230
1.0
  0
TEXT
  8
1
  6
CONTINUOUS
 62
     7
  5
15A
 10
-949.143917
 20
514.064667
 30
0.0
 40
6.0
  1
*
  7
MONOTXT
 11
-949.143917
 21
520.064667
 31
0.0
210
0.0
220
0.0
230
1.0
 73
     3
  0
TEXT
  8
1
  6
CONTINUOUS
 62
     7
  5
15B
 10
-949.75375
 20
484.021167
 30
0.0
 40
6.0
  1
*
  7
MONOTXT
 11
-949.75375
 21
490.021167
 31
0.0
210
0.0
220
0.0
230
1.0
 73
     3
  0
TEXT
  8
1
  6
CONTINUOUS
 62
     7
  5
15C
 10
-950.036
 20
455.005583
 30
0.0
 40
6.0
  1
*
  7
MONOTXT
 11
-950.036
 21
461.005583
 31
0.0
210
0.0
220
0.0
230
1.0
 73
     3
  0
TEXT
  8
1
  6
CONTINUOUS
 62
     7
  5
15D
 10
-949.279917
 20
426.744167
 30
0.0
 40
6.0
  1
*
  7
MONOTXT
 11
-949.279917
 21
432.744167
 31
0.0
210
0.0
220
0.0
230
1.0
 73
     3
  0
TEXT
  8
1
  6
CONTINUOUS
 62
     7
  5
15E
 10
-955.271083
 20
490.923
 30
0.0
 40
2.5
  1
AT-AB
  7
MONOTXT
 11
-955.271083
 21
493.423
 31
0.0
210
0.0
220
0.0
230
1.0
 73
     3
  0
TEXT
  8
1
  6
CONTINUOUS
 62
     7
  5
15F
 10
-939.1355
 20
404.120667
 30
0.0
 40
2.5
  1
- MEETS 1985 AASHTO
  7
MONOTXT
 11
-939.1355
 21
406.620667
 31
0.0
210
0.0
220
0.0
230
1.0
 73
     3
  0
TEXT
  8
1
  6
CONTINUOUS
 62
     7
  5
160
 10
-943.275
 20
402.47925
 30
0.0
 40
6.0
  1
*
  7
MONOTXT
 11
-943.275
 21
408.47925
 31
0.0
210
0.0
220
0.0
230
1.0
 73
     3
  0
TEXT
  8
1
  6
CONTINUOUS
 62
     7
  5
161
 10
-588.673417
 20
517.732
 30
0.0
 40
6.0
  1
#
  7
MONOTXT
 11
-588.673417
 21
523.732
 31
0.0
210
0.0
220
0.0
230
1.0
 73
     3
  0
TEXT
  8
1
  6
CONTINUOUS
 62
     7
  5
162
 10
-587.659667
 20
488.502417
 30
0.0
 40
6.0
  1
#
  7
MONOTXT
 11
-587.659667
 21
494.502417
 31
0.0
210
0.0
220
0.0
230
1.0
 73
     3
  0
TEXT
  8
1
  6
CONTINUOUS
 62
     7
  5
163
 10
-587.490667
 20
459.188083
 30
0.0
 40
6.0
  1
#
  7
MONOTXT
 11
-587.490667
 21
465.188083
 31
0.0
210
0.0
220
0.0
230
1.0
 73
     3
  0
TEXT
  8
1
  6
CONTINUOUS
 62
     7
  5
164
 10
-587.321667
 20
429.78925
 30
0.0
 40
6.0
  1
#
  7
MONOTXT
 11
-587.321667
 21
435.78925
 31
0.0
210
0.0
220
0.0
230
1.0
 73
     3
  0
TEXT
  8
1
  6
CONTINUOUS
 62
     7
  5
165
 10
-952.49725
 20
514.11
 30
0.0
 40
6.0
  1
*
  7
MONOTXT
 11
-952.49725
 21
520.11
 31
0.0
210
0.0
220
0.0
230
1.0
 73
     3
  0
TEXT
  8
1
  6
CONTINUOUS
 62
     7
  5
166
 10
-952.495333
 20
483.9985
 30
0.0
 40
6.0
  1
*
  7
MONOTXT
 11
-952.495333
 21
489.9985
 31
0.0
210
0.0
220
0.0
230
1.0
 73
     3
  0
TEXT
  8
1
  6
CONTINUOUS
 62
     7
  5
167
 10
-952.890917
 20
455.050917
 30
0.0
 40
6.0
  1
*
  7
MONOTXT
 11
-952.890917
 21
461.050917
 31
0.0
210
0.0
220
0.0
230
1.0
 73
     3
  0
TEXT
  8
1
  6
CONTINUOUS
 62
     7
  5
168
 10
-952.066833
 20
426.766833
 30
0.0
 40
6.0
  1
*
  7
MONOTXT
 11
-952.066833
 21
432.766833
 31
0.0
210
0.0
220
0.0
230
1.0
 73
     3
  0
TEXT
  8
1
  6
CONTINUOUS
 62
     7
  5
169
 10
-945.97125
 20
402.456583
 30
0.0
 40
6.0
  1
*
  7
MONOTXT
 11
-945.97125
 21
408.456583
 31
0.0
210
0.0
220
0.0
230
1.0
 73
     3
  0
TEXT
  8
1
  6
CONTINUOUS
 62
     7
  5
16A
 10
-697.231083
 20
519.24125
 30
0.0
 40
2.5
  1
TOP WASHERS-2 1/2"DIAM.X3/8"THICK
  7
MONOTXT
 11
-697.231083
 21
521.74125
 31
0.0
210
0.0
220
0.0
230
1.0
 73
     3
  0
TEXT
  8
1
  6
CONTINUOUS
 62
     7
  5
16B
 10
-697.231083
 20
514.74125
 30
0.0
 40
2.5
  1
BOTTOM WASHERS-2 3/4"DIAM.X1/2"
  7
MONOTXT
 11
-697.231083
 21
517.24125
 31
0.0
210
0.0
220
0.0
230
1.0
 73
     3
  0
TEXT
  8
1
  6
CONTINUOUS
 62
     7
  5
16C
 10
-697.231083
 20
510.24125
 30
0.0
 40
2.5
  1
THICK
  7
MONOTXT
 11
-697.231083
 21
512.74125
 31
0.0
210
0.0
220
0.0
230
1.0
 73
     3
  0
TEXT
  8
1
  6
CONTINUOUS
 62
     7
  5
16D
 10
-697.231083
 20
505.74125
 30
0.0
 40
2.5
  1
UPPER CORNER STIFFENER RIBS
  7
MONOTXT
 11
-697.231083
 21
508.24125
 31
0.0
210
0.0
220
0.0
230
1.0
 73
     3
  0
TEXT
  8
1
  6
CONTINUOUS
 62
     7
  5
16E
 10
-697.231083
 20
501.24125
 30
0.0
 40
2.5
  1
PERMITTED (INSIDE TOP) PER
  7
MONOTXT
 11
-697.231083
 21
503.74125
 31
0.0
210
0.0
220
0.0
230
1.0
 73
     3
  0
TEXT
  8
1
  6
CONTINUOUS
 62
     7
  5
16F
 10
-697.231083
 20
496.74125
 30
0.0
 40
2.5
  1
MANUF'S. RECOMMENDATIONS
  7
MONOTXT
 11
-697.231083
 21
499.24125
 31
0.0
210
0.0
220
0.0
230
1.0
 73
     3
  0
TEXT
  8
1
  6
CONTINUOUS
 62
     7
  5
170
 10
-596.529917
 20
520.176083
 30
0.0
 40
2.5
  1
950
  7
MONOTXT
 11
-596.529917
 21
522.676083
 31
0.0
210
0.0
220
0.0
230
1.0
 73
     3
  0
TEXT
  8
1
  6
CONTINUOUS
 62
     7
  5
171
 10
-839.622833
 20
490.888417
 30
0.0
 40
2.5
  1
10 1/2" TO
  7
MONOTXT
 72
     4
 11
-829.160333
 21
492.138417
 31
0.0
210
0.0
220
0.0
230
1.0
  0
TEXT
  8
1
  6
CONTINUOUS
 62
     7
  5
172
 10
-831.6405
 20
486.388417
 30
0.0
 40
2.5
  1
15"
  7
MONOTXT
 72
     4
 11
-829.17
 21
487.638417
 31
0.0
210
0.0
220
0.0
230
1.0
  0
TEXT
  8
1
  6
CONTINUOUS
 62
     7
  5
173
 10
-837.37875
 20
481.888417
 30
0.0
 40
2.5
  1
SLOTTED
  7
MONOTXT
 72
     4
 11
-829.16025
 21
483.138417
 31
0.0
210
0.0
220
0.0
230
1.0
  0
TEXT
  8
1
  6
CONTINUOUS
 62
     7
  5
174
 10
-838.057833
 20
477.388417
 30
0.0
 40
2.5
  1
(USE 15")
  7
MONOTXT
 72
     4
 11
-829.170083
 21
478.638417
 31
0.0
210
0.0
220
0.0
230
1.0
  0
TEXT
  8
1
  6
CONTINUOUS
 62
     7
  5
175
 10
-697.029833
 20
491.101083
 30
0.0
 40
2.5
  1
TOP WASHERS-2 1/2"DIA.X3/8"THICK
  7
MONOTXT
 11
-697.029833
 21
492.351083
 31
0.0
210
0.0
220
0.0
230
1.0
 73
     2
  0
TEXT
  8
1
  6
CONTINUOUS
 62
     7
  5
176
 10
-697.029833
 20
487.601083
 30
0.0
 40
2.5
  1
BOTTOM WASHERS-2 3/4"DIA.X1/2"
  7
MONOTXT
 11
-697.029833
 21
488.851083
 31
0.0
210
0.0
220
0.0
230
1.0
 73
     2
  0
TEXT
  8
1
  6
CONTINUOUS
 62
     7
  5
177
 10
-697.029833
 20
484.101083
 30
0.0
 40
2.5
  1
THICK ALSO-BOTTOM MTG. SHALL
  7
MONOTXT
 11
-697.029833
 21
485.351083
 31
0.0
210
0.0
220
0.0
230
1.0
 73
     2
  0
TEXT
  8
1
  6
CONTINUOUS
 62
     7
  5
178
 10
-697.029833
 20
480.601083
 30
0.0
 40
2.5
  1
HAVE FOUR-2 3/4"X4 1/4"X5/8"RECT.
  7
MONOTXT
 11
-697.029833
 21
481.851083
 31
0.0
210
0.0
220
0.0
230
1.0
 73
     2
  0
TEXT
  8
1
  6
CONTINUOUS
 62
     7
  5
179
 10
-697.029833
 20
477.101083
 30
0.0
 40
2.5
  1
WASHERS & FOUR-2 1/2"DIA.X3/8
  7
MONOTXT
 11
-697.029833
 21
478.351083
 31
0.0
210
0.0
220
0.0
230
1.0
 73
     2
  0
TEXT
  8
1
  6
CONTINUOUS
 62
     7
  5
17A
 10
-697.029833
 20
473.601083
 30
0.0
 40
2.5
  1
WASHERS ON TOP. UPPER CORNER
  7
MONOTXT
 11
-697.029833
 21
474.851083
 31
0.0
210
0.0
220
0.0
230
1.0
 73
     2
  0
TEXT
  8
1
  6
CONTINUOUS
 62
     7
  5
17B
 10
-697.029833
 20
470.101083
 30
0.0
 40
2.5
  1
STIFFENER RIBS PERMITTED (INSIDE
  7
MONOTXT
 11
-697.029833
 21
471.351083
 31
0.0
210
0.0
220
0.0
230
1.0
 73
     2
  0
TEXT
  8
1
  6
CONTINUOUS
 62
     7
  5
17C
 10
-697.029833
 20
466.601083
 30
0.0
 40
2.5
  1
TOP) PER MANUF'S. RECOMMENDATIONS
  7
MONOTXT
 11
-697.029833
 21
467.851083
 31
0.0
210
0.0
220
0.0
230
1.0
 73
     2
  0
TEXT
  8
1
  6
CONTINUOUS
 62
     7
  5
17D
 10
-597.45925
 20
490.90425
 30
0.0
 40
2.5
  1
832
  7
MONOTXT
 11
-597.45925
 21
493.40425
 31
0.0
210
0.0
220
0.0
230
1.0
 73
     3
  0
TEXT
  8
1
  6
CONTINUOUS
 62
     7
  5
17E
 10
-697.373333
 20
461.194833
 30
0.0
 40
2.5
  1
TOP WASHERS-2 1/2"DIA.X3/8"THICK
  7
MONOTXT
 11
-697.373333
 21
462.444833
 31
0.0
210
0.0
220
0.0
230
1.0
 73
     2
  0
TEXT
  8
1
  6
CONTINUOUS
 62
     7
  5
17F
 10
-697.373333
 20
456.694833
 30
0.0
 40
2.5
  1
BOTTOM WASHERS-2 3/4"DIA.X1/2"
  7
MONOTXT
 11
-697.373333
 21
457.944833
 31
0.0
210
0.0
220
0.0
230
1.0
 73
     2
  0
TEXT
  8
1
  6
CONTINUOUS
 62
     7
  5
180
 10
-697.373333
 20
452.194833
 30
0.0
 40
2.5
  1
THICK
  7
MONOTXT
 11
-697.373333
 21
453.444833
 31
0.0
210
0.0
220
0.0
230
1.0
 73
     2
  0
TEXT
  8
1
  6
CONTINUOUS
 62
     7
  5
181
 10
-697.373333
 20
447.694833
 30
0.0
 40
2.5
  1
UPPER CORNER STIFFENER RIBS
  7
MONOTXT
 11
-697.373333
 21
448.944833
 31
0.0
210
0.0
220
0.0
230
1.0
 73
     2
  0
TEXT
  8
1
  6
CONTINUOUS
 62
     7
  5
182
 10
-697.373333
 20
443.194833
 30
0.0
 40
2.5
  1
PERMITTED (INSIDE TOP) PER
  7
MONOTXT
 11
-697.373333
 21
444.444833
 31
0.0
210
0.0
220
0.0
230
1.0
 73
     2
  0
TEXT
  8
1
  6
CONTINUOUS
 62
     7
  5
183
 10
-697.373333
 20
438.694833
 30
0.0
 40
2.5
  1
MANUF'S RECOMMENDATIONS
  7
MONOTXT
 11
-697.373333
 21
439.944833
 31
0.0
210
0.0
220
0.0
230
1.0
 73
     2
  0
TEXT
  8
1
  6
CONTINUOUS
 62
     7
  5
184
 10
-697.861083
 20
432.641
 30
0.0
 40
2.5
  1
TOP WASHERS-2 3/4"DIA.X1/2"THICK
  7
MONOTXT
 11
-697.861083
 21
435.141
 31
0.0
210
0.0
220
0.0
230
1.0
 73
     3
  0
TEXT
  8
1
  6
CONTINUOUS
 62
     7
  5
185
 10
-697.861083
 20
428.141
 30
0.0
 40
2.5
  1
BOTTOM WASHERS-2 3/4"DIA.X1/2"
  7
MONOTXT
 11
-697.861083
 21
430.641
 31
0.0
210
0.0
220
0.0
230
1.0
 73
     3
  0
TEXT
  8
1
  6
CONTINUOUS
 62
     7
  5
186
 10
-697.861083
 20
423.641
 30
0.0
 40
2.5
  1
THICK
  7
MONOTXT
 11
-697.861083
 21
426.141
 31
0.0
210
0.0
220
0.0
230
1.0
 73
     3
  0
TEXT
  8
1
  6
CONTINUOUS
 62
     7
  5
187
 10
-697.861083
 20
419.141
 30
0.0
 40
2.5
  1
UPPER CORNER STIFFENER RIBS
  7
MONOTXT
 11
-697.861083
 21
421.641
 31
0.0
210
0.0
220
0.0
230
1.0
 73
     3
  0
TEXT
  8
1
  6
CONTINUOUS
 62
     7
  5
188
 10
-697.861083
 20
414.641
 30
0.0
 40
2.5
  1
PERMITTED (INSIDE TOP) PER
  7
MONOTXT
 11
-697.861083
 21
417.141
 31
0.0
210
0.0
220
0.0
230
1.0
 73
     3
  0
TEXT
  8
1
  6
CONTINUOUS
 62
     7
  5
189
 10
-697.861083
 20
410.141
 30
0.0
 40
2.5
  1
MANUF'S RECOMMENDATIONS
  7
MONOTXT
 11
-697.861083
 21
412.641
 31
0.0
210
0.0
220
0.0
230
1.0
 73
     3
  0
TEXT
  8
1
  6
CONTINUOUS
 62
     7
  5
18A
 10
-597.121417
 20
461.75875
 30
0.0
 40
2.5
  1
550
  7
MONOTXT
 11
-597.121417
 21
464.25875
 31
0.0
210
0.0
220
0.0
230
1.0
 73
     3
  0
TEXT
  8
1
  6
CONTINUOUS
 62
     7
  5
18B
 10
-596.9525
 20
431.853
 30
0.0
 40
2.5
  1
778
  7
MONOTXT
 11
-596.9525
 21
434.353
 31
0.0
210
0.0
220
0.0
230
1.0
 73
     3
  0
TEXT
  8
1
  6
CONTINUOUS
 62
     7
  5
18C
 10
-835.228917
 20
433.027833
 30
0.0
 40
2.5
  1
15" TO
  7
MONOTXT
 72
     4
 11
-829.11675
 21
434.277833
 31
0.0
210
0.0
220
0.0
230
1.0
  0
TEXT
  8
1
  6
CONTINUOUS
 62
     7
  5
18D
 10
-836.045833
 20
428.527833
 30
0.0
 40
2.5
  1
17 1/4"
  7
MONOTXT
 72
     4
 11
-829.126583
 21
429.777833
 31
0.0
210
0.0
220
0.0
230
1.0
  0
TEXT
  8
1
  6
CONTINUOUS
 62
     7
  5
18E
 10
-839.635
 20
462.407333
 30
0.0
 40
2.5
  1
10" TO 12"
  7
MONOTXT
 72
     4
 11
-829.2905
 21
463.657333
 31
0.0
210
0.0
220
0.0
230
1.0
  0
TEXT
  8
1
  6
CONTINUOUS
 62
     7
  5
18F
 10
-837.499167
 20
457.907333
 30
0.0
 40
2.5
  1
SLOTTED
  7
MONOTXT
 72
     4
 11
-829.280667
 21
459.157333
 31
0.0
210
0.0
220
0.0
230
1.0
  0
TEXT
  8
1
  6
CONTINUOUS
 62
     7
  5
190
 10
-838.17825
 20
453.407333
 30
0.0
 40
2.5
  1
(USE 12")
  7
MONOTXT
 72
     4
 11
-829.2905
 21
454.657333
 31
0.0
210
0.0
220
0.0
230
1.0
  0
TEXT
  8
1
  6
CONTINUOUS
 62
     7
  5
191
 10
-841.56775
 20
424.260833
 30
0.0
 40
2.5
  1
(SEE PLANS)
  7
MONOTXT
 72
     4
 11
-829.6485
 21
425.510833
 31
0.0
210
0.0
220
0.0
230
1.0
  0
LINE
  8
1
  6
CONTINUOUS
 62
     4
  5
192
 10
-441.434583
 20
378.871917
 30
0.0
 11
-421.434583
 21
378.871917
 31
0.0
  0
LINE
  8
1
  6
CONTINUOUS
 62
     4
  5
193
 10
-421.434583
 20
378.871917
 30
0.0
 11
-419.342833
 21
354.96325
 31
0.0
  0
LINE
  8
1
  6
CONTINUOUS
 62
     4
  5
194
 10
-419.342833
 20
354.96325
 30
0.0
 11
-419.342833
 21
349.96325
 31
0.0
  0
LINE
  8
1
  6
CONTINUOUS
 62
     4
  5
195
 10
-441.434583
 20
378.871917
 30
0.0
 11
-443.962083
 21
349.98225
 31
0.0
  0
LINE
  8
1
  6
CONTINUOUS
 62
     4
  5
196
 10
-449.325
 20
349.986333
 30
0.0
 11
-417.325
 21
349.986333
 31
0.0
  0
LINE
  8
1
  6
CONTINUOUS
 62
     4
  5
197
 10
-449.325
 20
349.986333
 30
0.0
 11
-450.825
 21
347.38825
 31
0.0
  0
LINE
  8
1
  6
CONTINUOUS
 62
     4
  5
198
 10
-422.294833
 20
377.231083
 30
0.0
 11
-420.339
 21
354.876083
 31
0.0
  0
LINE
  8
1
  6
CONTINUOUS
 62
     4
  5
199
 10
-420.339
 20
354.96325
 30
0.0
 11
-420.339
 21
350.96325
 31
0.0
  0
LINE
  8
1
  6
CONTINUOUS
 62
     4
  5
19A
 10
-431.211417
 20
381.822417
 30
0.0
 11
-431.211417
 21
365.767083
 31
0.0
  0
LINE
  8
1
  6
CONTINUOUS
 62
     4
  5
19B
 10
-431.211417
 20
364.94375
 30
0.0
 11
-431.211417
 21
363.09125
 31
0.0
  0
LINE
  8
1
  6
CONTINUOUS
 62
     4
  5
19C
 10
-431.211417
 20
362.267917
 30
0.0
 11
-431.211417
 21
340.822417
 31
0.0
  0
LINE
  8
1
  6
CONTINUOUS
 62
     4
  5
19D
 10
-422.294833
 20
377.231083
 30
0.0
 11
-431.23825
 21
377.231083
 31
0.0
  0
LINE
  8
1
  6
CONTINUOUS
 62
     4
  5
19E
 10
-420.339
 20
350.96325
 30
0.0
 11
-431.168
 21
350.96325
 31
0.0
  0
LINE
  8
1
  6
CONTINUOUS
 62
     4
  5
19F
 10
-417.325
 20
349.986333
 30
0.0
 11
-414.496583
 21
347.157917
 31
0.0
  0
POLYLINE
  8
1
  6
CONTINUOUS
 62
     4
  5
1A0
 66
     1
 10
0.0
 20
0.0
 30
0.0
  0
VERTEX
  8
1
  6
CONTINUOUS
 62
     4
  5
1A1
 10
-450.825
 20
342.38825
 30
0.0
  0
VERTEX
  8
1
  6
CONTINUOUS
 62
     4
  5
1A2
 10
-448.501667
 20
342.095917
 30
0.0
  0
VERTEX
  8
1
  6
CONTINUOUS
 62
     4
  5
1A3
 10
-447.4725
 20
342.91925
 30
0.0
  0
VERTEX
  8
1
  6
CONTINUOUS
 62
     4
  5
1A4
 10
-446.511917
 20
341.8215
 30
0.0
  0
VERTEX
  8
1
  6
CONTINUOUS
 62
     4
  5
1A5
 10
-446.168917
 20
342.1645
 30
0.0
  0
VERTEX
  8
1
  6
CONTINUOUS
 62
     4
  5
1A6
 10
-444.86525
 20
342.095917
 30
0.0
  0
VERTEX
  8
1
  6
CONTINUOUS
 62
     4
  5
1A7
 10
-443.493
 20
342.370333
 30
0.0
  0
VERTEX
  8
1
  6
CONTINUOUS
 62
     4
  5
1A8
 10
-442.73825
 20
341.68425
 30
0.0
  0
VERTEX
  8
1
  6
CONTINUOUS
 62
     4
  5
1A9
 10
-441.297417
 20
341.68425
 30
0.0
  0
VERTEX
  8
1
  6
CONTINUOUS
 62
     4
  5
1AA
 10
-440.336833
 20
341.8215
 30
0.0
  0
VERTEX
  8
1
  6
CONTINUOUS
 62
     4
  5
1AB
 10
-439.170417
 20
342.027333
 30
0.0
  0
VERTEX
  8
1
  6
CONTINUOUS
 62
     4
  5
1AC
 10
-438.072667
 20
342.439
 30
0.0
  0
VERTEX
  8
1
  6
CONTINUOUS
 62
     4
  5
1AD
 10
-436.563167
 20
341.958667
 30
0.0
  0
VERTEX
  8
1
  6
CONTINUOUS
 62
     4
  5
1AE
 10
-436.01425
 20
341.615667
 30
0.0
  0
VERTEX
  8
1
  6
CONTINUOUS
 62
     4
  5
1AF
 10
-435.122333
 20
341.272583
 30
0.0
  0
VERTEX
  8
1
  6
CONTINUOUS
 62
     4
  5
1B0
 10
-433.750083
 20
341.135333
 30
0.0
  0
VERTEX
  8
1
  6
CONTINUOUS
 62
     4
  5
1B1
 10
-432.583667
 20
341.68425
 30
0.0
  0
VERTEX
  8
1
  6
CONTINUOUS
 62
     4
  5
1B2
 10
-432.03475
 20
342.1645
 30
0.0
  0
VERTEX
  8
1
  6
CONTINUOUS
 62
     4
  5
1B3
 10
-431.623083
 20
342.370333
 30
0.0
  0
VERTEX
  8
1
  6
CONTINUOUS
 62
     4
  5
1B4
 10
-429.839167
 20
343.125083
 30
0.0
  0
VERTEX
  8
1
  6
CONTINUOUS
 62
     4
  5
1B5
 10
-429.29025
 20
342.713417
 30
0.0
  0
VERTEX
  8
1
  6
CONTINUOUS
 62
     4
  5
1B6
 10
-428.05525
 20
342.576167
 30
0.0
  0
VERTEX
  8
1
  6
CONTINUOUS
 62
     4
  5
1B7
 10
-427.094667
 20
342.233167
 30
0.0
  0
VERTEX
  8
1
  6
CONTINUOUS
 62
     4
  5
1B8
 10
-426.271333
 20
341.890083
 30
0.0
  0
VERTEX
  8
1
  6
CONTINUOUS
 62
     4
  5
1B9
 10
-425.31075
 20
341.8215
 30
0.0
  0
VERTEX
  8
1
  6
CONTINUOUS
 62
     4
  5
1BA
 10
-424.556
 20
341.958667
 30
0.0
  0
VERTEX
  8
1
  6
CONTINUOUS
 62
     4
  5
1BB
 10
-423.801333
 20
341.68425
 30
0.0
  0
VERTEX
  8
1
  6
CONTINUOUS
 62
     4
  5
1BC
 10
-422.634917
 20
341.68425
 30
0.0
  0
VERTEX
  8
1
  6
CONTINUOUS
 62
     4
  5
1BD
 10
-421.94875
 20
341.615667
 30
0.0
  0
VERTEX
  8
1
  6
CONTINUOUS
 62
     4
  5
1BE
 10
-421.399917
 20
341.409833
 30
0.0
  0
VERTEX
  8
1
  6
CONTINUOUS
 62
     4
  5
1BF
 10
-420.507917
 20
342.027333
 30
0.0
  0
VERTEX
  8
1
  6
CONTINUOUS
 62
     4
  5
1C0
 10
-419.47875
 20
341.8215
 30
0.0
  0
VERTEX
  8
1
  6
CONTINUOUS
 62
     4
  5
1C1
 10
-418.380917
 20
341.752833
 30
0.0
  0
VERTEX
  8
1
  6
CONTINUOUS
 62
     4
  5
1C2
 10
-418.1065
 20
341.752833
 30
0.0
  0
VERTEX
  8
1
  6
CONTINUOUS
 62
     4
  5
1C3
 10
-416.73425
 20
342.095917
 30
0.0
  0
VERTEX
  8
1
  6
CONTINUOUS
 62
     4
  5
1C4
 10
-416.185333
 20
342.095917
 30
0.0
  0
VERTEX
  8
1
  6
CONTINUOUS
 62
     4
  5
1C5
 10
-414.496583
 20
341.157917
 30
0.0
  0
SEQEND
  8
1
  6
CONTINUOUS
 62
     4
  5
1C6
  0
LINE
  8
1
  6
CONTINUOUS
 62
     4
  5
1C7
 10
-439.5135
 20
383.949417
 30
0.0
 11
-438.0135
 21
383.949417
 31
0.0
  0
INSERT
  8
1
  6
CONTINUOUS
 62
    20
  5
1CC
  2
PT
 10
-438.7635
 20
382.9495
 30
0.0
 41
240.00041
 42
240.00041
210
0.0
220
0.0
230
1.0
  0
LINE
  8
1
  6
CONTINUOUS
 62
     4
  5
1CD
 10
-440.302583
 20
382.46175
 30
0.0
 11
-437.302583
 21
382.46175
 31
0.0
  0
LINE
  8
1
  6
CONTINUOUS
 62
     4
  5
1CE
 10
-440.302583
 20
383.46175
 30
0.0
 11
-437.302583
 21
383.46175
 31
0.0
  0
LINE
  8
1
  6
CONTINUOUS
 62
     4
  5
1CF
 10
-440.302583
 20
383.46175
 30
0.0
 11
-440.302583
 21
382.46175
 31
0.0
  0
LINE
  8
1
  6
CONTINUOUS
 62
     4
  5
1D0
 10
-437.302583
 20
383.46175
 30
0.0
 11
-437.302583
 21
382.46175
 31
0.0
  0
LINE
  8
1
  6
CONTINUOUS
 62
     4
  5
1D1
 10
-439.5135
 20
383.949417
 30
0.0
 11
-439.5135
 21
383.46175
 31
0.0
  0
LINE
  8
1
  6
CONTINUOUS
 62
     4
  5
1D2
 10
-439.5135
 20
382.46175
 30
0.0
 11
-439.5135
 21
378.871917
 31
0.0
  0
LINE
  8
1
  6
CONTINUOUS
 62
     4
  5
1D3
 10
-438.0135
 20
383.949417
 30
0.0
 11
-438.0135
 21
383.46175
 31
0.0
  0
LINE
  8
1
  6
CONTINUOUS
 62
     4
  5
1D4
 10
-438.0135
 20
382.46175
 30
0.0
 11
-438.0135
 21
378.871917
 31
0.0
  0
LINE
  8
1
  6
CONTINUOUS
 62
     4
  5
1D5
 10
-439.8995
 20
383.465167
 30
0.0
 11
-438.896083
 21
383.465167
 31
0.0
  0
LINE
  8
1
  6
CONTINUOUS
 62
     4
  5
1D6
 10
-438.896083
 20
383.465167
 30
0.0
 11
-437.470833
 21
383.465167
 31
0.0
  0
LINE
  8
1
  6
CONTINUOUS
 62
     4
  5
1D7
 10
-439.92525
 20
383.456583
 30
0.0
 11
-439.92525
 21
382.469917
 31
0.0
  0
LINE
  8
1
  6
CONTINUOUS
 62
     4
  5
1D8
 10
-437.643917
 20
383.47375
 30
0.0
 11
-437.643917
 21
382.46175
 31
0.0
  0
LINE
  8
1
  6
CONTINUOUS
 62
     4
  5
1D9
 10
-439.427833
 20
383.816833
 30
0.0
 11
-438.089917
 21
383.816833
 31
0.0
  0
LINE
  8
1
  6
CONTINUOUS
 62
     4
  5
1DA
 10
-439.427833
 20
383.516833
 30
0.0
 11
-438.089917
 21
383.516833
 31
0.0
  0
LINE
  8
1
  6
CONTINUOUS
 62
     4
  5
1DB
 10
-439.427833
 20
382.416833
 30
0.0
 11
-438.089917
 21
382.416833
 31
0.0
  0
LINE
  8
1
  6
CONTINUOUS
 62
     4
  5
1DC
 10
-439.427833
 20
382.116833
 30
0.0
 11
-438.089917
 21
382.116833
 31
0.0
  0
LINE
  8
1
  6
CONTINUOUS
 62
     4
  5
1DD
 10
-439.427833
 20
381.816833
 30
0.0
 11
-438.089917
 21
381.816833
 31
0.0
  0
LINE
  8
1
  6
CONTINUOUS
 62
     4
  5
1DE
 10
-439.427833
 20
381.516833
 30
0.0
 11
-438.089917
 21
381.516833
 31
0.0
  0
LINE
  8
1
  6
CONTINUOUS
 62
     4
  5
1DF
 10
-439.427833
 20
381.216833
 30
0.0
 11
-438.089917
 21
381.216833
 31
0.0
  0
LINE
  8
1
  6
CONTINUOUS
 62
     4
  5
1E0
 10
-439.427833
 20
380.916833
 30
0.0
 11
-438.089917
 21
380.916833
 31
0.0
  0
LINE
  8
1
  6
CONTINUOUS
 62
     4
  5
1E1
 10
-439.427833
 20
380.616833
 30
0.0
 11
-438.089917
 21
380.616833
 31
0.0
  0
LINE
  8
1
  6
CONTINUOUS
 62
     4
  5
1E2
 10
-439.427833
 20
380.316833
 30
0.0
 11
-438.089917
 21
380.316833
 31
0.0
  0
LINE
  8
1
  6
CONTINUOUS
 62
     4
  5
1E3
 10
-439.427833
 20
380.016833
 30
0.0
 11
-438.089917
 21
380.016833
 31
0.0
  0
LINE
  8
1
  6
CONTINUOUS
 62
     4
  5
1E4
 10
-439.427833
 20
379.716833
 30
0.0
 11
-438.089917
 21
379.716833
 31
0.0
  0
LINE
  8
1
  6
CONTINUOUS
 62
     4
  5
1E5
 10
-439.427833
 20
379.416833
 30
0.0
 11
-438.089917
 21
379.416833
 31
0.0
  0
LINE
  8
1
  6
CONTINUOUS
 62
     4
  5
1E6
 10
-439.427833
 20
379.116833
 30
0.0
 11
-438.089917
 21
379.116833
 31
0.0
  0
LINE
  8
1
  6
CONTINUOUS
 62
     4
  5
1E7
 10
-438.7635
 20
383.949417
 30
0.0
 11
-438.7635
 21
383.46175
 31
0.0
  0
LINE
  8
1
  6
CONTINUOUS
 62
     4
  5
1E8
 10
-438.7635
 20
382.46175
 30
0.0
 11
-438.7635
 21
378.87675
 31
0.0
  0
LINE
  8
1
  6
CONTINUOUS
 62
     4
  5
1E9
 10
-425.207583
 20
383.949417
 30
0.0
 11
-423.707583
 21
383.949417
 31
0.0
  0
LINE
  8
1
  6
CONTINUOUS
 62
     4
  5
1EA
 10
-425.996667
 20
382.46175
 30
0.0
 11
-422.996667
 21
382.46175
 31
0.0
  0
LINE
  8
1
  6
CONTINUOUS
 62
     4
  5
1EB
 10
-425.996667
 20
383.46175
 30
0.0
 11
-422.996667
 21
383.46175
 31
0.0
  0
LINE
  8
1
  6
CONTINUOUS
 62
     4
  5
1EC
 10
-425.996667
 20
383.46175
 30
0.0
 11
-425.996667
 21
382.46175
 31
0.0
  0
LINE
  8
1
  6
CONTINUOUS
 62
     4
  5
1ED
 10
-422.996667
 20
383.46175
 30
0.0
 11
-422.996667
 21
382.46175
 31
0.0
  0
LINE
  8
1
  6
CONTINUOUS
 62
     4
  5
1EE
 10
-425.207583
 20
383.949417
 30
0.0
 11
-425.207583
 21
383.46175
 31
0.0
  0
LINE
  8
1
  6
CONTINUOUS
 62
     4
  5
1EF
 10
-425.207583
 20
382.46175
 30
0.0
 11
-425.207583
 21
378.871917
 31
0.0
  0
LINE
  8
1
  6
CONTINUOUS
 62
     4
  5
1F0
 10
-423.707583
 20
383.949417
 30
0.0
 11
-423.707583
 21
383.46175
 31
0.0
  0
LINE
  8
1
  6
CONTINUOUS
 62
     4
  5
1F1
 10
-423.707583
 20
382.46175
 30
0.0
 11
-423.707583
 21
378.871917
 31
0.0
  0
LINE
  8
1
  6
CONTINUOUS
 62
     4
  5
1F2
 10
-425.593583
 20
383.465167
 30
0.0
 11
-424.590167
 21
383.465167
 31
0.0
  0
LINE
  8
1
  6
CONTINUOUS
 62
     4
  5
1F3
 10
-425.619333
 20
383.456583
 30
0.0
 11
-425.619333
 21
382.469917
 31
0.0
  0
LINE
  8
1
  6
CONTINUOUS
 62
     4
  5
1F4
 10
-423.338
 20
383.47375
 30
0.0
 11
-423.338
 21
382.46175
 31
0.0
  0
LINE
  8
1
  6
CONTINUOUS
 62
     4
  5
1F5
 10
-425.121917
 20
383.816833
 30
0.0
 11
-423.784
 21
383.816833
 31
0.0
  0
LINE
  8
1
  6
CONTINUOUS
 62
     4
  5
1F6
 10
-425.121917
 20
383.516833
 30
0.0
 11
-423.784
 21
383.516833
 31
0.0
  0
LINE
  8
1
  6
CONTINUOUS
 62
     4
  5
1F7
 10
-425.121917
 20
382.416833
 30
0.0
 11
-423.784
 21
382.416833
 31
0.0
  0
LINE
  8
1
  6
CONTINUOUS
 62
     4
  5
1F8
 10
-425.121917
 20
382.116833
 30
0.0
 11
-423.784
 21
382.116833
 31
0.0
  0
LINE
  8
1
  6
CONTINUOUS
 62
     4
  5
1F9
 10
-425.121917
 20
381.816833
 30
0.0
 11
-423.784
 21
381.816833
 31
0.0
  0
LINE
  8
1
  6
CONTINUOUS
 62
     4
  5
1FA
 10
-425.121917
 20
381.516833
 30
0.0
 11
-423.784
 21
381.516833
 31
0.0
  0
LINE
  8
1
  6
CONTINUOUS
 62
     4
  5
1FB
 10
-425.121917
 20
381.216833
 30
0.0
 11
-423.784
 21
381.216833
 31
0.0
  0
LINE
  8
1
  6
CONTINUOUS
 62
     4
  5
1FC
 10
-425.121917
 20
380.916833
 30
0.0
 11
-423.784
 21
380.916833
 31
0.0
  0
LINE
  8
1
  6
CONTINUOUS
 62
     4
  5
1FD
 10
-425.121917
 20
380.616833
 30
0.0
 11
-423.784
 21
380.616833
 31
0.0
  0
LINE
  8
1
  6
CONTINUOUS
 62
     4
  5
1FE
 10
-425.121917
 20
380.316833
 30
0.0
 11
-423.784
 21
380.316833
 31
0.0
  0
LINE
  8
1
  6
CONTINUOUS
 62
     4
  5
1FF
 10
-425.121917
 20
380.016833
 30
0.0
 11
-423.784
 21
380.016833
 31
0.0
  0
LINE
  8
1
  6
CONTINUOUS
 62
     4
  5
200
 10
-425.121917
 20
379.716833
 30
0.0
 11
-423.784
 21
379.716833
 31
0.0
  0
LINE
  8
1
  6
CONTINUOUS
 62
     4
  5
201
 10
-425.121917
 20
379.416833
 30
0.0
 11
-423.784
 21
379.416833
 31
0.0
  0
LINE
  8
1
  6
CONTINUOUS
 62
     4
  5
202
 10
-425.121917
 20
379.116833
 30
0.0
 11
-423.784
 21
379.116833
 31
0.0
  0
LINE
  8
1
  6
CONTINUOUS
 62
     4
  5
203
 10
-424.457583
 20
383.949417
 30
0.0
 11
-424.457583
 21
383.46175
 31
0.0
  0
LINE
  8
1
  6
CONTINUOUS
 62
     4
  5
204
 10
-424.457583
 20
382.46175
 30
0.0
 11
-424.457583
 21
378.87675
 31
0.0
  0
LINE
  8
1
  6
CONTINUOUS
 62
     4
  5
205
 10
-425.996667
 20
375.8405
 30
0.0
 11
-422.996667
 21
375.8405
 31
0.0
  0
LINE
  8
1
  6
CONTINUOUS
 62
     4
  5
206
 10
-425.996667
 20
376.8405
 30
0.0
 11
-422.996667
 21
376.8405
 31
0.0
  0
LINE
  8
1
  6
CONTINUOUS
 62
     4
  5
207
 10
-425.996667
 20
376.8405
 30
0.0
 11
-425.996667
 21
375.8405
 31
0.0
  0
LINE
  8
1
  6
CONTINUOUS
 62
     4
  5
208
 10
-422.996667
 20
376.8405
 30
0.0
 11
-422.996667
 21
375.8405
 31
0.0
  0
LINE
  8
1
  6
CONTINUOUS
 62
     4
  5
209
 10
-425.619333
 20
376.835333
 30
0.0
 11
-425.619333
 21
375.848667
 31
0.0
  0
LINE
  8
1
  6
CONTINUOUS
 62
     4
  5
20A
 10
-423.338
 20
376.8525
 30
0.0
 11
-423.338
 21
375.8405
 31
0.0
  0
POLYLINE
  8
1
  6
CONTINUOUS
 62
     4
  5
20B
 66
     1
 10
0.0
 20
0.0
 30
0.0
 70
     1
  0
VERTEX
  8
1
  6
CONTINUOUS
 62
     4
  5
20C
 10
-426.434333
 20
377.17325
 30
0.0
  0
VERTEX
  8
1
  6
CONTINUOUS
 62
     4
  5
20D
 10
-426.434333
 20
376.830167
 30
0.0
  0
VERTEX
  8
1
  6
CONTINUOUS
 62
     4
  5
20E
 10
-422.592
 20
376.830167
 30
0.0
  0
VERTEX
  8
1
  6
CONTINUOUS
 62
     4
  5
20F
 10
-422.592
 20
377.17325
 30
0.0
  0
SEQEND
  8
1
  6
CONTINUOUS
 62
     4
  5
210
  0
POLYLINE
  8
1
  6
CONTINUOUS
 62
     4
  5
211
 66
     1
 10
0.0
 20
0.0
 30
0.0
  0
VERTEX
  8
1
  6
CONTINUOUS
 62
     4
  5
212
 10
-422.351833
 20
377.225083
 30
0.0
  0
VERTEX
  8
1
  6
CONTINUOUS
 62
     4
  5
213
 10
-422.504333
 20
377.292923
 30
0.0
  0
VERTEX
  8
1
  6
CONTINUOUS
 62
     4
  5
214
 10
-422.576929
 20
377.335476
 30
0.0
  0
VERTEX
  8
1
  6
CONTINUOUS
 62
     4
  5
215
 10
-422.677096
 20
377.408358
 30
0.0
  0
VERTEX
  8
1
  6
CONTINUOUS
 62
     4
  5
216
 10
-422.797833
 20
377.533917
 30
0.0
  0
VERTEX
  8
1
  6
CONTINUOUS
 62
     4
  5
217
 10
-422.805396
 20
377.554473
 30
0.0
  0
VERTEX
  8
1
  6
CONTINUOUS
 62
     4
  5
218
 10
-422.785269
 20
377.597312
 30
0.0
  0
VERTEX
  8
1
  6
CONTINUOUS
 62
     4
  5
219
 10
-422.688672
 20
377.689938
 30
0.0
  0
VERTEX
  8
1
  6
CONTINUOUS
 62
     4
  5
21A
 10
-422.660583
 20
377.73975
 30
0.0
  0
VERTEX
  8
1
  6
CONTINUOUS
 62
     4
  5
21B
 10
-422.647337
 20
377.901761
 30
0.0
  0
VERTEX
  8
1
  6
CONTINUOUS
 62
     4
  5
21C
 10
-422.660583
 20
377.979833
 30
0.0
  0
VERTEX
  8
1
  6
CONTINUOUS
 62
     4
  5
21D
 10
-422.693505
 20
378.025866
 30
0.0
  0
VERTEX
  8
1
  6
CONTINUOUS
 62
     4
  5
21E
 10
-422.750441
 20
378.0828
 30
0.0
  0
VERTEX
  8
1
  6
CONTINUOUS
 62
     4
  5
21F
 10
-422.7635
 20
378.117083
 30
0.0
  0
VERTEX
  8
1
  6
CONTINUOUS
 62
     4
  5
220
 10
-422.7635
 20
378.4945
 30
0.0
  0
VERTEX
  8
1
  6
CONTINUOUS
 62
     4
  5
221
 10
-422.797833
 20
378.8375
 30
0.0
  0
SEQEND
  8
1
  6
CONTINUOUS
 62
     4
  5
222
  0
LINE
  8
1
  6
CONTINUOUS
 62
     4
  5
223
 10
-424.521583
 20
351.482667
 30
0.0
 11
-421.521583
 21
351.482667
 31
0.0
  0
LINE
  8
1
  6
CONTINUOUS
 62
     4
  5
224
 10
-424.521583
 20
352.482667
 30
0.0
 11
-421.521583
 21
352.482667
 31
0.0
  0
LINE
  8
1
  6
CONTINUOUS
 62
     4
  5
225
 10
-424.521583
 20
352.482667
 30
0.0
 11
-424.521583
 21
351.482667
 31
0.0
  0
LINE
  8
1
  6
CONTINUOUS
 62
     4
  5
226
 10
-421.521583
 20
352.482667
 30
0.0
 11
-421.521583
 21
351.482667
 31
0.0
  0
LINE
  8
1
  6
CONTINUOUS
 62
     4
  5
227
 10
-424.14425
 20
352.4775
 30
0.0
 11
-424.14425
 21
351.490833
 31
0.0
  0
LINE
  8
1
  6
CONTINUOUS
 62
     4
  5
228
 10
-421.862917
 20
352.494667
 30
0.0
 11
-421.862917
 21
351.482667
 31
0.0
  0
POLYLINE
  8
1
  6
CONTINUOUS
 62
     4
  5
229
 66
     1
 10
0.0
 20
0.0
 30
0.0
 70
     1
  0
VERTEX
  8
1
  6
CONTINUOUS
 62
     4
  5
22A
 10
-424.924833
 20
351.408833
 30
0.0
  0
VERTEX
  8
1
  6
CONTINUOUS
 62
     4
  5
22B
 10
-424.924833
 20
351.06575
 30
0.0
  0
VERTEX
  8
1
  6
CONTINUOUS
 62
     4
  5
22C
 10
-421.0825
 20
351.06575
 30
0.0
  0
VERTEX
  8
1
  6
CONTINUOUS
 62
     4
  5
22D
 10
-421.0825
 20
351.408833
 30
0.0
  0
SEQEND
  8
1
  6
CONTINUOUS
 62
     4
  5
22E
  0
LINE
  8
1
  6
CONTINUOUS
 62
     4
  5
22F
 10
-423.801
 20
352.9355
 30
0.0
 11
-422.301
 21
352.9355
 31
0.0
  0
LINE
  8
1
  6
CONTINUOUS
 62
     4
  5
230
 10
-423.801
 20
352.9355
 30
0.0
 11
-423.801
 21
352.447833
 31
0.0
  0
LINE
  8
1
  6
CONTINUOUS
 62
     4
  5
231
 10
-423.835333
 20
350.006833
 30
0.0
 11
-423.835333
 21
346.417
 31
0.0
  0
LINE
  8
1
  6
CONTINUOUS
 62
     4
  5
232
 10
-422.301
 20
352.9355
 30
0.0
 11
-422.301
 21
352.447833
 31
0.0
  0
LINE
  8
1
  6
CONTINUOUS
 62
     4
  5
233
 10
-422.335333
 20
350.006833
 30
0.0
 11
-422.335333
 21
346.417
 31
0.0
  0
LINE
  8
1
  6
CONTINUOUS
 62
     4
  5
234
 10
-423.715333
 20
352.802917
 30
0.0
 11
-422.377417
 21
352.802917
 31
0.0
  0
LINE
  8
1
  6
CONTINUOUS
 62
     4
  5
235
 10
-423.749667
 20
349.661917
 30
0.0
 11
-422.41175
 21
349.661917
 31
0.0
  0
LINE
  8
1
  6
CONTINUOUS
 62
     4
  5
236
 10
-423.749667
 20
349.361917
 30
0.0
 11
-422.41175
 21
349.361917
 31
0.0
  0
LINE
  8
1
  6
CONTINUOUS
 62
     4
  5
237
 10
-423.749667
 20
349.061917
 30
0.0
 11
-422.41175
 21
349.061917
 31
0.0
  0
LINE
  8
1
  6
CONTINUOUS
 62
     4
  5
238
 10
-423.749667
 20
348.761917
 30
0.0
 11
-422.41175
 21
348.761917
 31
0.0
  0
LINE
  8
1
  6
CONTINUOUS
 62
     4
  5
239
 10
-423.749667
 20
348.461917
 30
0.0
 11
-422.41175
 21
348.461917
 31
0.0
  0
LINE
  8
1
  6
CONTINUOUS
 62
     4
  5
23A
 10
-423.749667
 20
348.161917
 30
0.0
 11
-422.41175
 21
348.161917
 31
0.0
  0
LINE
  8
1
  6
CONTINUOUS
 62
     4
  5
23B
 10
-423.749667
 20
347.861917
 30
0.0
 11
-422.41175
 21
347.861917
 31
0.0
  0
LINE
  8
1
  6
CONTINUOUS
 62
     4
  5
23C
 10
-423.749667
 20
347.561917
 30
0.0
 11
-422.41175
 21
347.561917
 31
0.0
  0
LINE
  8
1
  6
CONTINUOUS
 62
     4
  5
23D
 10
-423.749667
 20
347.261917
 30
0.0
 11
-422.41175
 21
347.261917
 31
0.0
  0
LINE
  8
1
  6
CONTINUOUS
 62
     4
  5
23E
 10
-423.749667
 20
346.961917
 30
0.0
 11
-422.41175
 21
346.961917
 31
0.0
  0
LINE
  8
1
  6
CONTINUOUS
 62
     4
  5
23F
 10
-423.749667
 20
346.661917
 30
0.0
 11
-422.41175
 21
346.661917
 31
0.0
  0
LINE
  8
1
  6
CONTINUOUS
 62
     4
  5
240
 10
-423.051
 20
352.9355
 30
0.0
 11
-423.051
 21
352.447833
 31
0.0
  0
LINE
  8
1
  6
CONTINUOUS
 62
     4
  5
241
 10
-423.085333
 20
350.006833
 30
0.0
 11
-423.085333
 21
346.421833
 31
0.0
  0
LINE
  8
1
  6
CONTINUOUS
 62
     4
  5
242
 10
-423.835333
 20
346.713333
 30
0.0
 11
-423.835333
 21
341.68425
 31
0.0
  0
LINE
  8
1
  6
CONTINUOUS
 62
     4
  5
243
 10
-422.335333
 20
346.713333
 30
0.0
 11
-422.335333
 21
341.654333
 31
0.0
  0
LINE
  8
1
  6
CONTINUOUS
 62
     4
  5
244
 10
-423.749667
 20
346.368417
 30
0.0
 11
-422.41175
 21
346.368417
 31
0.0
  0
LINE
  8
1
  6
CONTINUOUS
 62
     4
  5
245
 10
-423.749667
 20
346.068417
 30
0.0
 11
-422.41175
 21
346.068417
 31
0.0
  0
LINE
  8
1
  6
CONTINUOUS
 62
     4
  5
246
 10
-423.749667
 20
345.768417
 30
0.0
 11
-422.41175
 21
345.768417
 31
0.0
  0
LINE
  8
1
  6
CONTINUOUS
 62
     4
  5
247
 10
-423.749667
 20
345.468417
 30
0.0
 11
-422.41175
 21
345.468417
 31
0.0
  0
LINE
  8
1
  6
CONTINUOUS
 62
     4
  5
248
 10
-423.749667
 20
345.168417
 30
0.0
 11
-422.41175
 21
345.168417
 31
0.0
  0
LINE
  8
1
  6
CONTINUOUS
 62
     4
  5
249
 10
-423.749667
 20
344.868417
 30
0.0
 11
-422.41175
 21
344.868417
 31
0.0
  0
LINE
  8
1
  6
CONTINUOUS
 62
     4
  5
24A
 10
-423.749667
 20
344.568417
 30
0.0
 11
-422.41175
 21
344.568417
 31
0.0
  0
LINE
  8
1
  6
CONTINUOUS
 62
     4
  5
24B
 10
-423.749667
 20
344.268417
 30
0.0
 11
-422.41175
 21
344.268417
 31
0.0
  0
LINE
  8
1
  6
CONTINUOUS
 62
     4
  5
24C
 10
-423.749667
 20
343.968417
 30
0.0
 11
-422.41175
 21
343.968417
 31
0.0
  0
LINE
  8
1
  6
CONTINUOUS
 62
     4
  5
24D
 10
-423.749667
 20
343.668417
 30
0.0
 11
-422.41175
 21
343.668417
 31
0.0
  0
LINE
  8
1
  6
CONTINUOUS
 62
     4
  5
24E
 10
-423.749667
 20
343.368417
 30
0.0
 11
-422.41175
 21
343.368417
 31
0.0
  0
LINE
  8
1
  6
CONTINUOUS
 62
     4
  5
24F
 10
-423.085333
 20
346.713333
 30
0.0
 11
-423.085333
 21
341.68425
 31
0.0
  0
LINE
  8
1
  6
CONTINUOUS
 62
     4
  5
250
 10
-423.749667
 20
343.046417
 30
0.0
 11
-422.41175
 21
343.046417
 31
0.0
  0
LINE
  8
1
  6
CONTINUOUS
 62
     4
  5
251
 10
-423.749667
 20
342.669
 30
0.0
 11
-422.41175
 21
342.669
 31
0.0
  0
LINE
  8
1
  6
CONTINUOUS
 62
     4
  5
252
 10
-423.749667
 20
342.326
 30
0.0
 11
-422.41175
 21
342.326
 31
0.0
  0
LINE
  8
1
  6
CONTINUOUS
 62
     4
  5
253
 10
-423.749667
 20
342.017167
 30
0.0
 11
-422.41175
 21
342.017167
 31
0.0
  0
LINE
  8
1
  6
CONTINUOUS
 62
     4
  5
254
 10
-428.930333
 20
357.576
 30
0.0
 11
-428.930333
 21
342.628583
 31
0.0
  0
LINE
  8
1
  6
CONTINUOUS
 62
     4
  5
255
 10
-427.430333
 20
357.576
 30
0.0
 11
-427.430333
 21
342.128583
 31
0.0
  0
LINE
  8
1
  6
CONTINUOUS
 62
     4
  5
256
 10
-462.688917
 20
337.128583
 30
0.0
 11
-432.430333
 21
337.128583
 31
0.0
  0
LINE
  8
1
  6
CONTINUOUS
 62
     4
  5
257
 10
-462.688917
 20
338.628583
 30
0.0
 11
-432.930333
 21
338.628583
 31
0.0
  0
ARC
  8
1
  6
CONTINUOUS
 62
     4
  5
258
 10
-432.430333
 20
342.128583
 30
0.0
 40
5.0
 50
270.0
 51
360.0
210
0.0
220
0.0
230
1.0
  0
ARC
  8
1
  6
CONTINUOUS
 62
     4
  5
259
 10
-432.930333
 20
342.628583
 30
0.0
 40
4.0
 50
270.0
 51
360.0
210
0.0
220
0.0
230
1.0
  0
LINE
  8
1
  6
CONTINUOUS
 62
     4
  5
25A
 10
-429.101833
 20
357.422167
 30
0.0
 11
-427.449333
 21
357.422167
 31
0.0
  0
LINE
  8
1
  6
CONTINUOUS
 62
     4
  5
25B
 10
-462.688917
 20
338.628583
 30
0.0
 11
-462.688917
 21
337.128583
 31
0.0
  0
POLYLINE
  8
1
  6
CONTINUOUS
 62
     4
  5
25C
 66
     1
 10
0.0
 20
0.0
 30
0.0
 70
     1
  0
VERTEX
  8
1
  6
CONTINUOUS
 62
     4
  5
25D
 10
-469.34475
 20
336.804417
 30
0.0
  0
VERTEX
  8
1
  6
CONTINUOUS
 62
     4
  5
25E
 10
-469.34475
 20
335.740833
 30
0.0
  0
VERTEX
  8
1
  6
CONTINUOUS
 62
     4
  5
25F
 10
-466.428583
 20
335.740833
 30
0.0
  0
VERTEX
  8
1
  6
CONTINUOUS
 62
     4
  5
260
 10
-466.428583
 20
336.804417
 30
0.0
  0
SEQEND
  8
1
  6
CONTINUOUS
 62
     4
  5
261
  0
LINE
  8
1
  6
CONTINUOUS
 62
     4
  5
262
 10
-468.28125
 20
338.691333
 30
0.0
 11
-468.28125
 21
336.804417
 31
0.0
  0
LINE
  8
1
  6
CONTINUOUS
 62
     4
  5
263
 10
-468.28125
 20
335.740833
 30
0.0
 11
-468.28125
 21
327.691333
 31
0.0
  0
LINE
  8
1
  6
CONTINUOUS
 62
     4
  5
264
 10
-467.595083
 20
338.691333
 30
0.0
 11
-467.595083
 21
336.804417
 31
0.0
  0
LINE
  8
1
  6
CONTINUOUS
 62
     4
  5
265
 10
-467.595083
 20
335.740833
 30
0.0
 11
-467.595083
 21
327.691333
 31
0.0
  0
LINE
  8
1
  6
CONTINUOUS
 62
     4
  5
266
 10
-468.28125
 20
338.691333
 30
0.0
 11
-467.595083
 21
338.691333
 31
0.0
  0
POLYLINE
  8
1
  6
CONTINUOUS
 62
     4
  5
267
 66
     1
 10
0.0
 20
0.0
 30
0.0
 70
     1
210
0.0
220
0.0
230
1.0
  0
VERTEX
  8
1
  6
CONTINUOUS
 62
     4
  5
268
 10
-468.289833
 20
327.683333
 30
0.0
 42
0.097867
  0
VERTEX
  8
1
  6
CONTINUOUS
 62
     4
  5
269
 10
-468.282781
 20
327.650637
 30
0.0
 42
0.079679
  0
VERTEX
  8
1
  6
CONTINUOUS
 62
     4
  5
26A
 10
-468.262651
 20
327.619351
 30
0.0
 42
0.059077
  0
VERTEX
  8
1
  6
CONTINUOUS
 62
     4
  5
26B
 10
-468.230215
 20
327.590677
 30
0.0
 42
0.044041
  0
VERTEX
  8
1
  6
CONTINUOUS
 62
     4
  5
26C
 10
-468.186722
 20
327.565718
 30
0.0
 42
0.034489
  0
VERTEX
  8
1
  6
CONTINUOUS
 62
     4
  5
26D
 10
-468.133841
 20
327.545432
 30
0.0
 42
0.028719
  0
VERTEX
  8
1
  6
CONTINUOUS
 62
     4
  5
26E
 10
-468.073606
 20
327.5306
 30
0.0
 42
0.025455
  0
VERTEX
  8
1
  6
CONTINUOUS
 62
     4
  5
26F
 10
-468.008331
 20
327.52179
 30
0.0
 42
0.023979
  0
VERTEX
  8
1
  6
CONTINUOUS
 62
     4
  5
270
 10
-467.940524
 20
327.519343
 30
0.0
 42
0.023979
  0
VERTEX
  8
1
  6
CONTINUOUS
 62
     4
  5
271
 10
-467.872792
 20
327.523351
 30
0.0
 42
0.025455
  0
VERTEX
  8
1
  6
CONTINUOUS
 62
     4
  5
272
 10
-467.807737
 20
327.533661
 30
0.0
 42
0.028719
  0
VERTEX
  8
1
  6
CONTINUOUS
 62
     4
  5
273
 10
-467.747859
 20
327.549877
 30
0.0
 42
0.034489
  0
VERTEX
  8
1
  6
CONTINUOUS
 62
     4
  5
274
 10
-467.695459
 20
327.571375
 30
0.0
 42
0.044041
  0
VERTEX
  8
1
  6
CONTINUOUS
 62
     4
  5
275
 10
-467.652552
 20
327.597329
 30
0.0
 42
0.059077
  0
VERTEX
  8
1
  6
CONTINUOUS
 62
     4
  5
276
 10
-467.620785
 20
327.626742
 30
0.0
 42
0.079679
  0
VERTEX
  8
1
  6
CONTINUOUS
 62
     4
  5
277
 10
-467.601381
 20
327.658483
 30
0.0
 42
0.097867
  0
VERTEX
  8
1
  6
CONTINUOUS
 62
     4
  5
278
 10
-467.595083
 20
327.691333
 30
0.0
 42
0.097867
  0
VERTEX
  8
1
  6
CONTINUOUS
 62
     4
  5
279
 10
-467.602135
 20
327.72403
 30
0.0
 42
0.079679
  0
VERTEX
  8
1
  6
CONTINUOUS
 62
     4
  5
27A
 10
-467.622266
 20
327.755316
 30
0.0
 42
0.059077
  0
VERTEX
  8
1
  6
CONTINUOUS
 62
     4
  5
27B
 10
-467.654701
 20
327.78399
 30
0.0
 42
0.044041
  0
VERTEX
  8
1
  6
CONTINUOUS
 62
     4
  5
27C
 10
-467.698195
 20
327.808949
 30
0.0
 42
0.034489
  0
VERTEX
  8
1
  6
CONTINUOUS
 62
     4
  5
27D
 10
-467.751076
 20
327.829235
 30
0.0
 42
0.028719
  0
VERTEX
  8
1
  6
CONTINUOUS
 62
     4
  5
27E
 10
-467.811311
 20
327.844067
 30
0.0
 42
0.025455
  0
VERTEX
  8
1
  6
CONTINUOUS
 62
     4
  5
27F
 10
-467.876586
 20
327.852876
 30
0.0
 42
0.023979
  0
VERTEX
  8
1
  6
CONTINUOUS
 62
     4
  5
280
 10
-467.944393
 20
327.855324
 30
0.0
 42
0.023979
  0
VERTEX
  8
1
  6
CONTINUOUS
 62
     4
  5
281
 10
-468.012125
 20
327.851316
 30
0.0
 42
0.025455
  0
VERTEX
  8
1
  6
CONTINUOUS
 62
     4
  5
282
 10
-468.07718
 20
327.841006
 30
0.0
 42
0.028719
  0
VERTEX
  8
1
  6
CONTINUOUS
 62
     4
  5
283
 10
-468.137058
 20
327.82479
 30
0.0
 42
0.034489
  0
VERTEX
  8
1
  6
CONTINUOUS
 62
     4
  5
284
 10
-468.189457
 20
327.803292
 30
0.0
 42
0.044041
  0
VERTEX
  8
1
  6
CONTINUOUS
 62
     4
  5
285
 10
-468.232365
 20
327.777338
 30
0.0
 42
0.059077
  0
VERTEX
  8
1
  6
CONTINUOUS
 62
     4
  5
286
 10
-468.264131
 20
327.747925
 30
0.0
 42
0.079679
  0
VERTEX
  8
1
  6
CONTINUOUS
 62
     4
  5
287
 10
-468.283536
 20
327.716184
 30
0.0
 42
0.097867
  0
SEQEND
  8
1
  6
CONTINUOUS
 62
     4
  5
288
  0
LINE
  8
1
  6
CONTINUOUS
 62
     4
  5
289
 10
-441.572417
 20
391.650917
 30
0.0
 11
-441.572417
 21
379.650917
 31
0.0
  0
LINE
  8
1
  6
CONTINUOUS
 62
     4
  5
28A
 10
-421.399417
 20
391.650917
 30
0.0
 11
-421.399417
 21
379.650917
 31
0.0
  0
LINE
  8
1
  6
CONTINUOUS
 62
     4
  5
28B
 10
-472.79275
 20
378.888417
 30
0.0
 11
-442.244917
 21
378.888417
 31
0.0
  0
LINE
  8
1
  6
CONTINUOUS
 62
     4
  5
28C
 10
-472.79275
 20
350.550167
 30
0.0
 11
-450.382167
 21
350.550167
 31
0.0
  0
POLYLINE
  8
1
  6
CONTINUOUS
 62
     4
  5
28D
 66
     1
 10
0.0
 20
0.0
 30
0.0
  0
VERTEX
  8
1
  6
CONTINUOUS
 62
     4
  5
28E
 10
-428.278417
 20
358.675167
 30
0.0
  0
VERTEX
  8
1
  6
CONTINUOUS
 62
     4
  5
28F
 10
-428.209833
 20
355.793333
 30
0.0
  0
VERTEX
  8
1
  6
CONTINUOUS
 62
     4
  5
290
 10
-427.935333
 20
353.872083
 30
0.0
  0
VERTEX
  8
1
  6
CONTINUOUS
 62
     4
  5
291
 10
-428.14125
 20
352.431167
 30
0.0
  0
VERTEX
  8
1
  6
CONTINUOUS
 62
     4
  5
292
 10
-428.072583
 20
350.853
 30
0.0
  0
VERTEX
  8
1
  6
CONTINUOUS
 62
     4
  5
293
 10
-428.14125
 20
349.892417
 30
0.0
  0
VERTEX
  8
1
  6
CONTINUOUS
 62
     4
  5
294
 10
-428.347083
 20
348.31425
 30
0.0
  0
VERTEX
  8
1
  6
CONTINUOUS
 62
     4
  5
295
 10
-428.209833
 20
347.353667
 30
0.0
  0
VERTEX
  8
1
  6
CONTINUOUS
 62
     4
  5
296
 10
-428.209833
 20
346.05
 30
0.0
  0
VERTEX
  8
1
  6
CONTINUOUS
 62
     4
  5
297
 10
-428.14125
 20
344.8835
 30
0.0
  0
VERTEX
  8
1
  6
CONTINUOUS
 62
     4
  5
298
 10
-428.209833
 20
343.717
 30
0.0
  0
VERTEX
  8
1
  6
CONTINUOUS
 62
     4
  5
299
 10
-428.48425
 20
342.276083
 30
0.0
  0
VERTEX
  8
1
  6
CONTINUOUS
 62
     4
  5
29A
 10
-428.48425
 20
341.109667
 30
0.0
  0
VERTEX
  8
1
  6
CONTINUOUS
 62
     4
  5
29B
 10
-428.827333
 20
339.600083
 30
0.0
  0
VERTEX
  8
1
  6
CONTINUOUS
 62
     4
  5
29C
 10
-429.582167
 20
338.845333
 30
0.0
  0
VERTEX
  8
1
  6
CONTINUOUS
 62
     4
  5
29D
 10
-430.062417
 20
338.365083
 30
0.0
  0
VERTEX
  8
1
  6
CONTINUOUS
 62
     4
  5
29E
 10
-431.366167
 20
338.090583
 30
0.0
  0
VERTEX
  8
1
  6
CONTINUOUS
 62
     4
  5
29F
 10
-432.464
 20
337.953333
 30
0.0
  0
VERTEX
  8
1
  6
CONTINUOUS
 62
     4
  5
2A0
 10
-434.11075
 20
337.7475
 30
0.0
  0
VERTEX
  8
1
  6
CONTINUOUS
 62
     4
  5
2A1
 10
-435.963333
 20
337.541667
 30
0.0
  0
VERTEX
  8
1
  6
CONTINUOUS
 62
     4
  5
2A2
 10
-436.718167
 20
337.88475
 30
0.0
  0
VERTEX
  8
1
  6
CONTINUOUS
 62
     4
  5
2A3
 10
-438.982417
 20
338.022
 30
0.0
  0
VERTEX
  8
1
  6
CONTINUOUS
 62
     4
  5
2A4
 10
-441.24675
 20
337.7475
 30
0.0
  0
VERTEX
  8
1
  6
CONTINUOUS
 62
     4
  5
2A5
 10
-442.276
 20
338.090583
 30
0.0
  0
VERTEX
  8
1
  6
CONTINUOUS
 62
     4
  5
2A6
 10
-443.92275
 20
337.953333
 30
0.0
  0
VERTEX
  8
1
  6
CONTINUOUS
 62
     4
  5
2A7
 10
-446.049833
 20
338.090583
 30
0.0
  0
VERTEX
  8
1
  6
CONTINUOUS
 62
     4
  5
2A8
 10
-448.314083
 20
337.816083
 30
0.0
  0
VERTEX
  8
1
  6
CONTINUOUS
 62
     4
  5
2A9
 10
-450.16675
 20
338.022
 30
0.0
  0
VERTEX
  8
1
  6
CONTINUOUS
 62
     4
  5
2AA
 10
-452.774083
 20
338.022
 30
0.0
  0
VERTEX
  8
1
  6
CONTINUOUS
 62
     4
  5
2AB
 10
-454.420917
 20
338.159167
 30
0.0
  0
VERTEX
  8
1
  6
CONTINUOUS
 62
     4
  5
2AC
 10
-456.13625
 20
337.953333
 30
0.0
  0
VERTEX
  8
1
  6
CONTINUOUS
 62
     4
  5
2AD
 10
-457.234083
 20
337.953333
 30
0.0
  0
VERTEX
  8
1
  6
CONTINUOUS
 62
     4
  5
2AE
 10
-459.08675
 20
337.816083
 30
0.0
  0
VERTEX
  8
1
  6
CONTINUOUS
 62
     4
  5
2AF
 10
-459.70425
 20
337.7475
 30
0.0
  0
VERTEX
  8
1
  6
CONTINUOUS
 62
     4
  5
2B0
 10
-461.007917
 20
337.953333
 30
0.0
  0
VERTEX
  8
1
  6
CONTINUOUS
 62
     4
  5
2B1
 10
-462.311667
 20
337.816083
 30
0.0
  0
VERTEX
  8
1
  6
CONTINUOUS
 62
     4
  5
2B2
 10
-463.88975
 20
337.816083
 30
0.0
  0
VERTEX
  8
1
  6
CONTINUOUS
 62
     4
  5
2B3
 10
-464.559833
 20
337.858
 30
0.0
  0
SEQEND
  8
1
  6
CONTINUOUS
 62
     4
  5
2B4
  0
LINE
  8
1
  6
CONTINUOUS
 62
     4
  5
2B5
 10
-472.79275
 20
338.696917
 30
0.0
 11
-468.79275
 21
338.696917
 31
0.0
  0
LINE
  8
1
  6
CONTINUOUS
 62
     4
  5
2B6
 10
-472.79275
 20
350.533417
 30
0.0
 11
-468.79275
 21
350.533417
 31
0.0
  0
LINE
  8
1
  6
CONTINUOUS
 62
     4
  5
2B7
 10
-471.180333
 20
378.906917
 30
0.0
 11
-471.180333
 21
338.696917
 31
0.0
  0
LINE
  8
1
  6
CONTINUOUS
 62
     4
  5
2B8
 10
-441.572417
 20
390.434417
 30
0.0
 11
-421.399417
 21
390.434417
 31
0.0
  0
INSERT
  8
1
  6
CONTINUOUS
 62
    20
  5
2D9
  2
LDR
 10
-441.572417
 20
390.434417
 30
0.0
 41
240.00041
 42
240.00041
 50
180.0
210
0.0
220
0.0
230
1.0
  0
INSERT
  8
1
  6
CONTINUOUS
 62
    20
  5
2DA
  2
LDR
 10
-421.399417
 20
390.434417
 30
0.0
 41
240.00041
 42
240.00041
210
0.0
220
0.0
230
1.0
  0
INSERT
  8
1
  6
CONTINUOUS
 62
    20
  5
2DB
  2
LDR
 10
-471.180333
 20
378.906917
 30
0.0
 41
240.00041
 42
240.00041
 50
90.0
210
0.0
220
0.0
230
1.0
  0
INSERT
  8
1
  6
CONTINUOUS
 62
    20
  5
2DC
  2
LDR
 10
-471.180333
 20
338.696917
 30
0.0
 41
240.00041
 42
240.00041
 50
270.0
210
0.0
220
0.0
230
1.0
  0
INSERT
  8
1
  6
CONTINUOUS
 62
    20
  5
2DD
  2
LDR
 10
-471.180333
 20
338.696917
 30
0.0
 41
240.00041
 42
240.00041
 50
270.0
210
0.0
220
0.0
230
1.0
  0
INSERT
  8
1
  6
CONTINUOUS
 62
    20
  5
2DE
  2
LDR
 10
-471.146083
 20
350.586917
 30
0.0
 41
240.00041
 42
240.00041
 50
270.0
210
0.0
220
0.0
230
1.0
  0
INSERT
  8
1
  6
CONTINUOUS
 62
    20
  5
2DF
  2
LDR
 10
-471.146167
 20
350.44975
 30
0.0
 41
240.00041
 42
240.00041
 50
90.0
210
0.0
220
0.0
230
1.0
  0
LINE
  8
1
  6
CONTINUOUS
 62
     4
  5
2E0
 10
-443.905667
 20
346.676167
 30
0.0
 11
-443.905667
 21
332.676167
 31
0.0
  0
LINE
  8
1
  6
CONTINUOUS
 62
     4
  5
2E1
 10
-419.272417
 20
348.974917
 30
0.0
 11
-419.272417
 21
332.676167
 31
0.0
  0
POLYLINE
  8
1
  6
CONTINUOUS
 62
     4
  5
2E2
 66
     1
 10
0.0
 20
0.0
 30
0.0
  0
VERTEX
  8
1
  6
CONTINUOUS
 62
     4
  5
2E3
 10
-464.559833
 20
337.858
 30
0.0
  0
VERTEX
  8
1
  6
CONTINUOUS
 62
     4
  5
2E4
 10
-464.67836
 20
337.874845
 30
0.0
  0
VERTEX
  8
1
  6
CONTINUOUS
 62
     4
  5
2E5
 10
-464.759321
 20
337.878934
 30
0.0
  0
VERTEX
  8
1
  6
CONTINUOUS
 62
     4
  5
2E6
 10
-464.924457
 20
337.870544
 30
0.0
  0
VERTEX
  8
1
  6
CONTINUOUS
 62
     4
  5
2E7
 10
-465.00799
 20
337.85832
 30
0.0
  0
VERTEX
  8
1
  6
CONTINUOUS
 62
     4
  5
2E8
 10
-465.175374
 20
337.818453
 30
0.0
  0
VERTEX
  8
1
  6
CONTINUOUS
 62
     4
  5
2E9
 10
-465.395434
 20
337.734812
 30
0.0
  0
VERTEX
  8
1
  6
CONTINUOUS
 62
     4
  5
2EA
 10
-465.502412
 20
337.680607
 30
0.0
  0
VERTEX
  8
1
  6
CONTINUOUS
 62
     4
  5
2EB
 10
-465.656917
 20
337.584667
 30
0.0
  0
VERTEX
  8
1
  6
CONTINUOUS
 62
     4
  5
2EC
 10
-465.862818
 20
337.430107
 30
0.0
  0
VERTEX
  8
1
  6
CONTINUOUS
 62
     4
  5
2ED
 10
-465.956912
 20
337.350227
 30
0.0
  0
VERTEX
  8
1
  6
CONTINUOUS
 62
     4
  5
2EE
 10
-466.129856
 20
337.182874
 30
0.0
  0
VERTEX
  8
1
  6
CONTINUOUS
 62
     4
  5
2EF
 10
-466.235443
 20
337.064148
 30
0.0
  0
VERTEX
  8
1
  6
CONTINUOUS
 62
     4
  5
2F0
 10
-466.428583
 20
336.804417
 30
0.0
  0
SEQEND
  8
1
  6
CONTINUOUS
 62
     4
  5
2F1
  0
LINE
  8
1
  6
CONTINUOUS
 62
     4
  5
2F2
 10
-443.905583
 20
333.742167
 30
0.0
 11
-419.272417
 21
333.742167
 31
0.0
  0
INSERT
  8
1
  6
CONTINUOUS
 62
    20
  5
2F3
  2
LDR
 10
-443.905583
 20
333.742167
 30
0.0
 41
240.00041
 42
240.00041
 50
180.0
210
0.0
220
0.0
230
1.0
  0
INSERT
  8
1
  6
CONTINUOUS
 62
    20
  5
2F4
  2
LDR
 10
-419.272417
 20
333.742167
 30
0.0
 41
240.00041
 42
240.00041
210
0.0
220
0.0
230
1.0
  0
TEXT
  8
1
  6
CONTINUOUS
 62
     4
  5
2F5
 10
-427.129
 20
403.549583
 30
0.0
 40
2.0
  1
GALV. CONNECTING BOLT AND
  7
MONOTXT
 11
-427.129
 21
405.549583
 31
0.0
210
0.0
220
0.0
230
1.0
 73
     3
  0
TEXT
  8
1
  6
CONTINUOUS
 62
     4
  5
2F6
 10
-427.129
 20
400.549583
 30
0.0
 40
2.0
  1
HEX. NUTS FURNISH NUTS
  7
MONOTXT
 11
-427.129
 21
402.549583
 31
0.0
210
0.0
220
0.0
230
1.0
 73
     3
  0
TEXT
  8
1
  6
CONTINUOUS
 62
     4
  5
2F7
 10
-427.129
 20
397.549583
 30
0.0
 40
2.0
  1
COVERS. SAME DIAMETER AS
  7
MONOTXT
 11
-427.129
 21
399.549583
 31
0.0
210
0.0
220
0.0
230
1.0
 73
     3
  0
TEXT
  8
1
  6
CONTINUOUS
 62
     4
  5
2F8
 10
-427.129
 20
394.549583
 30
0.0
 40
2.0
  1
ANCHOR BOLT FOR ANCHOR BASE.
  7
MONOTXT
 11
-427.129
 21
396.549583
 31
0.0
210
0.0
220
0.0
230
1.0
 73
     3
  0
LINE
  8
1
  6
CONTINUOUS
 62
     4
  5
2F9
 10
-439.205417
 20
384.415833
 30
0.0
 11
-436.251083
 21
401.17075
 31
0.0
  0
LINE
  8
1
  6
CONTINUOUS
 62
     4
  5
2FA
 10
-436.251083
 20
401.17075
 30
0.0
 11
-428.333167
 21
401.17075
 31
0.0
  0
INSERT
  8
1
  6
CONTINUOUS
 62
    20
  5
2FB
  2
LDR
 10
-439.205417
 20
384.415833
 30
0.0
 41
240.00041
 42
240.00041
 50
260.000035
210
0.0
220
0.0
230
1.0
  0
TEXT
  8
1
  6
CONTINUOUS
 62
     4
  5
2FC
 10
-434.265083
 20
391.747667
 30
0.0
 40
2.0
  1
"S"
  7
MONOTXT
 11
-434.265083
 21
393.747667
 31
0.0
210
0.0
220
0.0
230
1.0
 73
     3
  0
TEXT
  8
1
  6
CONTINUOUS
 62
     4
  5
2FD
 10
-406.26975
 20
371.3
 30
0.0
 40
2.0
  1
DOOR OPENING
  7
MONOTXT
 11
-406.26975
 21
373.3
 31
0.0
210
0.0
220
0.0
230
1.0
 73
     3
  0
TEXT
  8
1
  6
CONTINUOUS
 62
     4
  5
2FE
 10
-406.26975
 20
368.3
 30
0.0
 40
2.0
  1
7 3/4"X 9 1/8"X
  7
MONOTXT
 11
-406.26975
 21
370.3
 31
0.0
210
0.0
220
0.0
230
1.0
 73
     3
  0
TEXT
  8
1
  6
CONTINUOUS
 62
     4
  5
2FF
 10
-406.26975
 20
365.3
 30
0.0
 40
2.0
  1
13 5/8" NOM. WITH
  7
MONOTXT
 11
-406.26975
 21
367.3
 31
0.0
210
0.0
220
0.0
230
1.0
 73
     3
  0
TEXT
  8
1
  6
CONTINUOUS
 62
     4
  5
300
 10
-406.26975
 20
362.3
 30
0.0
 40
2.0
  1
S.S. SCREW OR
  7
MONOTXT
 11
-406.26975
 21
364.3
 31
0.0
210
0.0
220
0.0
230
1.0
 73
     3
  0
TEXT
  8
1
  6
CONTINUOUS
 62
     4
  5
301
 10
-406.26975
 20
359.3
 30
0.0
 40
2.0
  1
BOLT.
  7
MONOTXT
 11
-406.26975
 21
361.3
 31
0.0
210
0.0
220
0.0
230
1.0
 73
     3
  0
LINE
  8
1
  6
CONTINUOUS
 62
     4
  5
302
 10
-418.895083
 20
361.90975
 30
0.0
 11
-412.315833
 21
368.489
 31
0.0
  0
LINE
  8
1
  6
CONTINUOUS
 62
     4
  5
303
 10
-412.315833
 20
368.489
 30
0.0
 11
-408.3255
 21
368.489
 31
0.0
  0
INSERT
  8
1
  6
CONTINUOUS
 62
    20
  5
304
  2
LDR
 10
-418.895083
 20
361.90975
 30
0.0
 41
240.000408
 42
240.000408
 50
225.0
210
0.0
220
0.0
230
1.0
  0
TEXT
  8
1
  6
CONTINUOUS
 62
     4
  5
305
 10
-404.485667
 20
351.950333
 30
0.0
 40
2.0
  1
ANCHOR BOLT
  7
MONOTXT
 11
-404.485667
 21
353.950333
 31
0.0
210
0.0
220
0.0
230
1.0
 73
     3
  0
LINE
  8
1
  6
CONTINUOUS
 62
     4
  5
306
 10
-421.5025
 20
352.71525
 30
0.0
 11
-406.544167
 21
352.71525
 31
0.0
  0
INSERT
  8
1
  6
CONTINUOUS
 62
    20
  5
307
  2
LDR
 10
-421.5025
 20
352.71525
 30
0.0
 41
240.00041
 42
240.00041
 50
180.0
210
0.0
220
0.0
230
1.0
  0
TEXT
  8
1
  6
CONTINUOUS
 62
     4
  5
308
 10
-403.91675
 20
333.208583
 30
0.0
 40
2.0
  1
CONCRETE
  7
MONOTXT
 11
-403.91675
 21
335.208583
 31
0.0
210
0.0
220
0.0
230
1.0
 73
     3
  0
TEXT
  8
1
  6
CONTINUOUS
 62
     4
  5
309
 10
-403.91675
 20
330.208583
 30
0.0
 40
2.0
  1
FOUNDATION
  7
MONOTXT
 11
-403.91675
 21
332.208583
 31
0.0
210
0.0
220
0.0
230
1.0
 73
     3
  0
LINE
  8
1
  6
CONTINUOUS
 62
     4
  5
30A
 10
-414.346417
 20
333.150083
 30
0.0
 11
-405.263167
 21
333.150083
 31
0.0
  0
INSERT
  8
1
  6
CONTINUOUS
 62
    20
  5
30B
  2
LDR
 10
-414.346417
 20
333.150083
 30
0.0
 41
240.00041
 42
240.00041
 50
180.0
210
0.0
220
0.0
230
1.0
  0
TEXT
  8
1
  6
CONTINUOUS
 62
     4
  5
30C
 10
-467.74975
 20
368.280917
 30
0.0
 40
2.0
  1
GROUND
  7
MONOTXT
 11
-467.74975
 21
370.280917
 31
0.0
210
0.0
220
0.0
230
1.0
 73
     3
  0
TEXT
  8
1
  6
CONTINUOUS
 62
     4
  5
30D
 10
-467.74975
 20
365.280917
 30
0.0
 40
2.0
  1
WIRE
  7
MONOTXT
 11
-467.74975
 21
367.280917
 31
0.0
210
0.0
220
0.0
230
1.0
 73
     3
  0
LINE
  8
1
  6
CONTINUOUS
 62
     4
  5
30E
 10
-429.05025
 20
359.302333
 30
0.0
 11
-449.93
 21
366.901917
 31
0.0
  0
LINE
  8
1
  6
CONTINUOUS
 62
     4
  5
30F
 10
-449.93
 20
366.901917
 30
0.0
 11
-456.369583
 21
366.901917
 31
0.0
  0
INSERT
  8
1
  6
CONTINUOUS
 62
    20
  5
310
  2
LDR
 10
-429.05025
 20
359.302333
 30
0.0
 41
240.000407
 42
240.000407
 50
340.000059
210
0.0
220
0.0
230
1.0
  0
TEXT
  8
1
  6
CONTINUOUS
 62
     4
  5
311
 10
-477.21875
 20
363.889417
 30
0.0
 40
2.0
  1
"H"
  7
MONOTXT
 11
-477.21875
 21
365.889417
 31
0.0
210
0.0
220
0.0
230
1.0
 73
     3
  0
TEXT
  8
1
  6
CONTINUOUS
 62
     4
  5
312
 10
-476.258083
 20
343.853667
 30
0.0
 40
2.0
  1
18"
  7
MONOTXT
 11
-476.258083
 21
345.853667
 31
0.0
210
0.0
220
0.0
230
1.0
 73
     3
  0
TEXT
  8
1
  6
CONTINUOUS
 62
     4
  5
313
 10
-434.5395
 20
330.404833
 30
0.0
 40
2.0
  1
"W"
  7
MONOTXT
 11
-434.5395
 21
332.404833
 31
0.0
210
0.0
220
0.0
230
1.0
 73
     3
  0
LINE
  8
1
  6
CONTINUOUS
 62
     4
  5
314
 10
-469.933583
 20
335.6055
 30
0.0
 11
-481.937667
 21
327.200167
 31
0.0
  0
LINE
  8
1
  6
CONTINUOUS
 62
     4
  5
315
 10
-481.937667
 20
327.200167
 30
0.0
 11
-485.053083
 21
327.200167
 31
0.0
  0
INSERT
  8
1
  6
CONTINUOUS
 62
    20
  5
316
  2
LDR
 10
-469.933583
 20
335.6055
 30
0.0
 41
240.000408
 42
-240.000408
 50
34.999948
210
0.0
220
0.0
230
1.0
  0
TEXT
  8
1
  6
CONTINUOUS
 62
     4
  5
317
 10
-504.278333
 20
319.96975
 30
0.0
 40
2.0
  1
GROUND ROD
  7
MONOTXT
 11
-504.278333
 21
321.96975
 31
0.0
210
0.0
220
0.0
230
1.0
 73
     3
  0
LINE
  8
1
  6
CONTINUOUS
 62
     4
  5
318
 10
-468.56125
 20
329.43
 30
0.0
 11
-480.565333
 21
321.024667
 31
0.0
  0
LINE
  8
1
  6
CONTINUOUS
 62
     4
  5
319
 10
-480.565333
 20
321.024667
 30
0.0
 11
-483.957667
 21
321.024667
 31
0.0
  0
INSERT
  8
1
  6
CONTINUOUS
 62
    20
  5
31A
  2
LDR
 10
-468.56125
 20
329.43
 30
0.0
 41
240.000408
 42
-240.000408
 50
34.999948
210
0.0
220
0.0
230
1.0
  0
TEXT
  8
1
  6
CONTINUOUS
 62
     4
  5
31B
 10
-490.819167
 20
264.58975
 30
0.0
 40
2.0
  1
MOVED TORQUE NOTE FOR AT-UA1, DELETED AT-UA, AT-UB, AT-VA,
  7
MONOTXT
 11
-490.819167
 21
266.58975
 31
0.0
210
0.0
220
0.0
230
1.0
 73
     3
  0
TEXT
  8
1
  6
CONTINUOUS
 62
     4
  5
31C
 10
-490.819167
 20
260.58975
 30
0.0
 40
2.0
  1
AT-VB, AT-HA, AT-HB, DETAILS "A", "C", "D". 
  7
MONOTXT
 11
-490.819167
 21
262.58975
 31
0.0
210
0.0
220
0.0
230
1.0
 73
     3
  0
POLYLINE
  8
1
  6
CONTINUOUS
 62
     4
  5
31D
 66
     1
 10
0.0
 20
0.0
 30
0.0
  0
VERTEX
  8
1
  6
CONTINUOUS
 62
     4
  5
31E
 10
-450.825
 20
340.483417
 30
0.0
  0
VERTEX
  8
1
  6
CONTINUOUS
 62
     4
  5
31F
 10
-448.501667
 20
340.191083
 30
0.0
  0
VERTEX
  8
1
  6
CONTINUOUS
 62
     4
  5
320
 10
-447.4725
 20
341.014417
 30
0.0
  0
VERTEX
  8
1
  6
CONTINUOUS
 62
     4
  5
321
 10
-446.511917
 20
339.916667
 30
0.0
  0
VERTEX
  8
1
  6
CONTINUOUS
 62
     4
  5
322
 10
-446.168917
 20
340.259667
 30
0.0
  0
VERTEX
  8
1
  6
CONTINUOUS
 62
     4
  5
323
 10
-444.86525
 20
340.191083
 30
0.0
  0
VERTEX
  8
1
  6
CONTINUOUS
 62
     4
  5
324
 10
-443.493
 20
340.4655
 30
0.0
  0
VERTEX
  8
1
  6
CONTINUOUS
 62
     4
  5
325
 10
-442.73825
 20
339.779417
 30
0.0
  0
VERTEX
  8
1
  6
CONTINUOUS
 62
     4
  5
326
 10
-441.297417
 20
339.779417
 30
0.0
  0
VERTEX
  8
1
  6
CONTINUOUS
 62
     4
  5
327
 10
-440.336833
 20
339.916667
 30
0.0
  0
VERTEX
  8
1
  6
CONTINUOUS
 62
     4
  5
328
 10
-439.170417
 20
340.1225
 30
0.0
  0
VERTEX
  8
1
  6
CONTINUOUS
 62
     4
  5
329
 10
-438.072667
 20
340.534167
 30
0.0
  0
VERTEX
  8
1
  6
CONTINUOUS
 62
     4
  5
32A
 10
-436.563167
 20
340.053833
 30
0.0
  0
VERTEX
  8
1
  6
CONTINUOUS
 62
     4
  5
32B
 10
-436.01425
 20
339.710833
 30
0.0
  0
VERTEX
  8
1
  6
CONTINUOUS
 62
     4
  5
32C
 10
-435.122333
 20
339.36775
 30
0.0
  0
VERTEX
  8
1
  6
CONTINUOUS
 62
     4
  5
32D
 10
-433.750083
 20
339.2305
 30
0.0
  0
VERTEX
  8
1
  6
CONTINUOUS
 62
     4
  5
32E
 10
-432.583667
 20
339.779417
 30
0.0
  0
VERTEX
  8
1
  6
CONTINUOUS
 62
     4
  5
32F
 10
-432.03475
 20
340.259667
 30
0.0
  0
VERTEX
  8
1
  6
CONTINUOUS
 62
     4
  5
330
 10
-431.623083
 20
340.4655
 30
0.0
  0
VERTEX
  8
1
  6
CONTINUOUS
 62
     4
  5
331
 10
-429.839167
 20
341.22025
 30
0.0
  0
VERTEX
  8
1
  6
CONTINUOUS
 62
     4
  5
332
 10
-429.29025
 20
340.808583
 30
0.0
  0
VERTEX
  8
1
  6
CONTINUOUS
 62
     4
  5
333
 10
-428.05525
 20
340.671333
 30
0.0
  0
VERTEX
  8
1
  6
CONTINUOUS
 62
     4
  5
334
 10
-427.094667
 20
340.328333
 30
0.0
  0
VERTEX
  8
1
  6
CONTINUOUS
 62
     4
  5
335
 10
-426.271333
 20
339.98525
 30
0.0
  0
VERTEX
  8
1
  6
CONTINUOUS
 62
     4
  5
336
 10
-425.31075
 20
339.916667
 30
0.0
  0
VERTEX
  8
1
  6
CONTINUOUS
 62
     4
  5
337
 10
-424.556
 20
340.053833
 30
0.0
  0
VERTEX
  8
1
  6
CONTINUOUS
 62
     4
  5
338
 10
-423.801333
 20
339.779417
 30
0.0
  0
VERTEX
  8
1
  6
CONTINUOUS
 62
     4
  5
339
 10
-422.634917
 20
339.779417
 30
0.0
  0
VERTEX
  8
1
  6
CONTINUOUS
 62
     4
  5
33A
 10
-421.94875
 20
339.710833
 30
0.0
  0
VERTEX
  8
1
  6
CONTINUOUS
 62
     4
  5
33B
 10
-421.399917
 20
339.505
 30
0.0
  0
VERTEX
  8
1
  6
CONTINUOUS
 62
     4
  5
33C
 10
-420.507917
 20
340.1225
 30
0.0
  0
VERTEX
  8
1
  6
CONTINUOUS
 62
     4
  5
33D
 10
-419.47875
 20
339.916667
 30
0.0
  0
VERTEX
  8
1
  6
CONTINUOUS
 62
     4
  5
33E
 10
-418.380917
 20
339.848
 30
0.0
  0
VERTEX
  8
1
  6
CONTINUOUS
 62
     4
  5
33F
 10
-418.1065
 20
339.848
 30
0.0
  0
VERTEX
  8
1
  6
CONTINUOUS
 62
     4
  5
340
 10
-416.73425
 20
340.191083
 30
0.0
  0
VERTEX
  8
1
  6
CONTINUOUS
 62
     4
  5
341
 10
-416.185333
 20
340.191083
 30
0.0
  0
VERTEX
  8
1
  6
CONTINUOUS
 62
     4
  5
342
 10
-414.496583
 20
339.253083
 30
0.0
  0
SEQEND
  8
1
  6
CONTINUOUS
 62
     4
  5
343
  0
POLYLINE
  8
1
  6
CONTINUOUS
 62
     4
  5
344
 66
     1
 10
0.0
 20
0.0
 30
0.0
  0
VERTEX
  8
1
  6
CONTINUOUS
 62
     4
  5
345
 10
-450.825
 20
311.917333
 30
0.0
  0
VERTEX
  8
1
  6
CONTINUOUS
 62
     4
  5
346
 10
-448.501667
 20
311.625
 30
0.0
  0
VERTEX
  8
1
  6
CONTINUOUS
 62
     4
  5
347
 10
-447.4725
 20
312.448333
 30
0.0
  0
VERTEX
  8
1
  6
CONTINUOUS
 62
     4
  5
348
 10
-446.511917
 20
311.350583
 30
0.0
  0
VERTEX
  8
1
  6
CONTINUOUS
 62
     4
  5
349
 10
-446.168917
 20
311.693583
 30
0.0
  0
VERTEX
  8
1
  6
CONTINUOUS
 62
     4
  5
34A
 10
-444.86525
 20
311.625
 30
0.0
  0
VERTEX
  8
1
  6
CONTINUOUS
 62
     4
  5
34B
 10
-443.493
 20
311.899417
 30
0.0
  0
VERTEX
  8
1
  6
CONTINUOUS
 62
     4
  5
34C
 10
-442.73825
 20
311.213333
 30
0.0
  0
VERTEX
  8
1
  6
CONTINUOUS
 62
     4
  5
34D
 10
-441.297417
 20
311.213333
 30
0.0
  0
VERTEX
  8
1
  6
CONTINUOUS
 62
     4
  5
34E
 10
-440.336833
 20
311.350583
 30
0.0
  0
VERTEX
  8
1
  6
CONTINUOUS
 62
     4
  5
34F
 10
-439.170417
 20
311.556417
 30
0.0
  0
VERTEX
  8
1
  6
CONTINUOUS
 62
     4
  5
350
 10
-438.072667
 20
311.968083
 30
0.0
  0
VERTEX
  8
1
  6
CONTINUOUS
 62
     4
  5
351
 10
-436.563167
 20
311.48775
 30
0.0
  0
VERTEX
  8
1
  6
CONTINUOUS
 62
     4
  5
352
 10
-436.01425
 20
311.14475
 30
0.0
  0
VERTEX
  8
1
  6
CONTINUOUS
 62
     4
  5
353
 10
-435.122333
 20
310.801667
 30
0.0
  0
VERTEX
  8
1
  6
CONTINUOUS
 62
     4
  5
354
 10
-433.750083
 20
310.664417
 30
0.0
  0
VERTEX
  8
1
  6
CONTINUOUS
 62
     4
  5
355
 10
-432.583667
 20
311.213333
 30
0.0
  0
VERTEX
  8
1
  6
CONTINUOUS
 62
     4
  5
356
 10
-432.03475
 20
311.693583
 30
0.0
  0
VERTEX
  8
1
  6
CONTINUOUS
 62
     4
  5
357
 10
-431.623083
 20
311.899417
 30
0.0
  0
VERTEX
  8
1
  6
CONTINUOUS
 62
     4
  5
358
 10
-429.839167
 20
312.654167
 30
0.0
  0
VERTEX
  8
1
  6
CONTINUOUS
 62
     4
  5
359
 10
-429.29025
 20
312.2425
 30
0.0
  0
VERTEX
  8
1
  6
CONTINUOUS
 62
     4
  5
35A
 10
-428.05525
 20
312.10525
 30
0.0
  0
VERTEX
  8
1
  6
CONTINUOUS
 62
     4
  5
35B
 10
-427.094667
 20
311.76225
 30
0.0
  0
VERTEX
  8
1
  6
CONTINUOUS
 62
     4
  5
35C
 10
-426.271333
 20
311.419167
 30
0.0
  0
VERTEX
  8
1
  6
CONTINUOUS
 62
     4
  5
35D
 10
-425.31075
 20
311.350583
 30
0.0
  0
VERTEX
  8
1
  6
CONTINUOUS
 62
     4
  5
35E
 10
-424.556
 20
311.48775
 30
0.0
  0
VERTEX
  8
1
  6
CONTINUOUS
 62
     4
  5
35F
 10
-423.801333
 20
311.213333
 30
0.0
  0
VERTEX
  8
1
  6
CONTINUOUS
 62
     4
  5
360
 10
-422.634917
 20
311.213333
 30
0.0
  0
VERTEX
  8
1
  6
CONTINUOUS
 62
     4
  5
361
 10
-421.94875
 20
311.14475
 30
0.0
  0
VERTEX
  8
1
  6
CONTINUOUS
 62
     4
  5
362
 10
-421.399917
 20
310.938917
 30
0.0
  0
VERTEX
  8
1
  6
CONTINUOUS
 62
     4
  5
363
 10
-420.507917
 20
311.556417
 30
0.0
  0
VERTEX
  8
1
  6
CONTINUOUS
 62
     4
  5
364
 10
-419.47875
 20
311.350583
 30
0.0
  0
VERTEX
  8
1
  6
CONTINUOUS
 62
     4
  5
365
 10
-418.380917
 20
311.281917
 30
0.0
  0
VERTEX
  8
1
  6
CONTINUOUS
 62
     4
  5
366
 10
-418.1065
 20
311.281917
 30
0.0
  0
VERTEX
  8
1
  6
CONTINUOUS
 62
     4
  5
367
 10
-416.73425
 20
311.625
 30
0.0
  0
VERTEX
  8
1
  6
CONTINUOUS
 62
     4
  5
368
 10
-416.185333
 20
311.625
 30
0.0
  0
VERTEX
  8
1
  6
CONTINUOUS
 62
     4
  5
369
 10
-414.496583
 20
310.687
 30
0.0
  0
SEQEND
  8
1
  6
CONTINUOUS
 62
     4
  5
36A
  0
LINE
  8
1
  6
CONTINUOUS
 62
     4
  5
36B
 10
-450.825
 20
347.38825
 30
0.0
 11
-450.825
 21
342.182583
 31
0.0
  0
LINE
  8
1
  6
CONTINUOUS
 62
     4
  5
36C
 10
-450.825
 20
340.383583
 30
0.0
 11
-450.825
 21
311.917333
 31
0.0
  0
LINE
  8
1
  6
CONTINUOUS
 62
     4
  5
36D
 10
-414.496583
 20
347.157917
 30
0.0
 11
-414.496583
 21
341.124333
 31
0.0
  0
LINE
  8
1
  6
CONTINUOUS
 62
     4
  5
36E
 10
-414.496583
 20
339.219583
 30
0.0
 11
-414.496583
 21
310.918583
 31
0.0
  0
LINE
  8
1
  6
CONTINUOUS
 62
     4
  5
36F
 10
-449.325
 20
349.986333
 30
0.0
 11
-505.926167
 21
371.43225
 31
0.0
  0
LINE
  8
1
  6
CONTINUOUS
 62
     4
  5
370
 10
-417.325
 20
349.986333
 30
0.0
 11
-381.253667
 21
343.029167
 31
0.0
  0
LINE
  8
1
  6
CONTINUOUS
 62
     4
  5
371
 10
-498.14975
 20
368.485833
 30
0.0
 11
-498.14975
 21
363.554167
 31
0.0
  0
LINE
  8
1
  6
CONTINUOUS
 62
     4
  5
372
 10
-498.14975
 20
363.554167
 30
0.0
 11
-485.133917
 21
363.554167
 31
0.0
  0
TEXT
  8
1
  6
CONTINUOUS
 62
     4
  5
373
 10
-501.0125
 20
365.01825
 30
0.0
 40
2.0
  1
1
  7
MONOTXT
 11
-501.0125
 21
367.01825
 31
0.0
210
0.0
220
0.0
230
1.0
 73
     3
  0
TEXT
  8
1
  6
CONTINUOUS
 62
     4
  5
374
 10
-493.184167
 20
359.515417
 30
0.0
 40
2.0
  1
6
  7
MONOTXT
 11
-493.184167
 21
361.515417
 31
0.0
210
0.0
220
0.0
230
1.0
 73
     3
  0
TEXT
  8
1
  6
CONTINUOUS
 62
     4
  5
375
 10
-383.07
 20
338.553167
 30
0.0
 40
2.0
  1
GROUND LINE
  7
MONOTXT
 11
-383.07
 21
340.553167
 31
0.0
210
0.0
220
0.0
230
1.0
 73
     3
  0
LINE
  8
1
  6
CONTINUOUS
 62
     4
  5
376
 10
-392.3235
 20
345.16425
 30
0.0
 11
-390.142083
 21
339.58775
 31
0.0
  0
LINE
  8
1
  6
CONTINUOUS
 62
     4
  5
377
 10
-390.142083
 20
339.58775
 30
0.0
 11
-383.792583
 21
339.58775
 31
0.0
  0
INSERT
  8
1
  6
CONTINUOUS
 62
    20
  5
378
  2
LDR
 10
-392.3235
 20
345.16425
 30
0.0
 41
240.000001
 42
240.000001
 50
111.364456
210
0.0
220
0.0
230
1.0
  0
TEXT
  8
1
  6
CONTINUOUS
 62
     4
  5
379
 10
-504.1185
 20
329.970667
 30
0.0
 40
2.0
  1
GROUND
  7
MONOTXT
 11
-504.1185
 21
331.970667
 31
0.0
210
0.0
220
0.0
230
1.0
 73
     3
  0
TEXT
  8
1
  6
CONTINUOUS
 62
     4
  5
37A
 10
-504.1185
 20
325.970667
 30
0.0
 40
2.0
  1
WIRE CLAMP
  7
MONOTXT
 11
-504.1185
 21
327.970667
 31
0.0
210
0.0
220
0.0
230
1.0
 73
     3
  0
ENDSEC
  0
EOF
