  0
SECTION
  2
HEADER
  9
$ACADVER
  1
AC1009
  9
$INSBASE
 10
0.0
 20
0.0
 30
0.0
  9
$EXTMIN
 10
-1.491083
 20
-0.078833
 30
0.0
  9
$EXTMAX
 10
678.588917
 20
439.961167
 30
0.0
  9
$LIMMIN
 10
0.0
 20
0.0
  9
$LIMMAX
 10
12.0
 20
9.0
  9
$ORTHOMODE
 70
     0
  9
$REGENMODE
 70
     1
  9
$FILLMODE
 70
     1
  9
$QTEXTMODE
 70
     0
  9
$MIRRTEXT
 70
     1
  9
$DRAGMODE
 70
     2
  9
$LTSCALE
 40
1.0
  9
$OSMODE
 70
     0
  9
$ATTMODE
 70
     1
  9
$TEXTSIZE
 40
0.2
  9
$TRACEWID
 40
0.05
  9
$TEXTSTYLE
  7
STANDARD
  9
$CLAYER
  8
0
  9
$CELTYPE
  6
CONTINUOUS
  9
$CECOLOR
 62
   256
  9
$DIMSCALE
 40
1.0
  9
$DIMASZ
 40
0.18
  9
$DIMEXO
 40
0.0625
  9
$DIMDLI
 40
0.38
  9
$DIMRND
 40
0.0
  9
$DIMDLE
 40
0.0
  9
$DIMEXE
 40
0.18
  9
$DIMTP
 40
0.0
  9
$DIMTM
 40
0.0
  9
$DIMTXT
 40
0.18
  9
$DIMCEN
 40
0.09
  9
$DIMTSZ
 40
0.0
  9
$DIMTOL
 70
     0
  9
$DIMLIM
 70
     0
  9
$DIMTIH
 70
     1
  9
$DIMTOH
 70
     1
  9
$DIMSE1
 70
     0
  9
$DIMSE2
 70
     0
  9
$DIMTAD
 70
     0
  9
$DIMZIN
 70
     0
  9
$DIMBLK
  1

  9
$DIMASO
 70
     1
  9
$DIMSHO
 70
     1
  9
$DIMPOST
  1

  9
$DIMAPOST
  1

  9
$DIMALT
 70
     0
  9
$DIMALTD
 70
     2
  9
$DIMALTF
 40
25.4
  9
$DIMLFAC
 40
1.0
  9
$DIMTOFL
 70
     0
  9
$DIMTVP
 40
0.0
  9
$DIMTIX
 70
     0
  9
$DIMSOXD
 70
     0
  9
$DIMSAH
 70
     0
  9
$DIMBLK1
  1

  9
$DIMBLK2
  1

  9
$DIMSTYLE
  2
STANDARD
  9
$DIMCLRD
 70
     0
  9
$DIMCLRE
 70
     0
  9
$DIMCLRT
 70
     0
  9
$DIMTFAC
 40
1.0
  9
$DIMGAP
 40
0.09
  9
$LUNITS
 70
     2
  9
$LUPREC
 70
     4
  9
$AXISMODE
 70
     0
  9
$AXISUNIT
 10
0.0
 20
0.0
  9
$SKETCHINC
 40
0.1
  9
$FILLETRAD
 40
0.0
  9
$AUNITS
 70
     0
  9
$AUPREC
 70
     0
  9
$MENU
  1
acad
  9
$ELEVATION
 40
0.0
  9
$PELEVATION
 40
0.0
  9
$THICKNESS
 40
0.0
  9
$LIMCHECK
 70
     0
  9
$BLIPMODE
 70
     1
  9
$CHAMFERA
 40
0.0
  9
$CHAMFERB
 40
0.0
  9
$SKPOLY
 70
     0
  9
$TDCREATE
 40
2451803.424814815
  9
$TDUPDATE
 40
2451803.424814815
  9
$TDINDWG
 40
0.0000000000
  9
$TDUSRTIMER
 40
0.0000000000
  9
$USRTIMER
 70
     1
  9
$ANGBASE
 50
0.0
  9
$ANGDIR
 70
     0
  9
$PDMODE
 70
     0
  9
$PDSIZE
 40
0.0
  9
$PLINEWID
 40
0.0
  9
$COORDS
 70
     0
  9
$SPLFRAME
 70
     0
  9
$SPLINETYPE
 70
     6
  9
$SPLINESEGS
 70
    10
  9
$ATTDIA
 70
     0
  9
$ATTREQ
 70
     1
  9
$HANDLING
 70
     1
  9
$HANDSEED
  5
6B6
  9
$SURFTAB1
 70
     6
  9
$SURFTAB2
 70
     6
  9
$SURFTYPE
 70
     6
  9
$SURFU
 70
     6
  9
$SURFV
 70
     6
  9
$UCSNAME
  2

  9
$UCSORG
 10
0.0
 20
0.0
 30
0.0
  9
$UCSXDIR
 10
1.0
 20
0.0
 30
0.0
  9
$UCSYDIR
 10
0.0
 20
1.0
 30
0.0
  9
$PUCSNAME
  2

  9
$PUCSORG
 10
0.0
 20
0.0
 30
0.0
  9
$PUCSXDIR
 10
1.0
 20
0.0
 30
0.0
  9
$PUCSYDIR
 10
0.0
 20
1.0
 30
0.0
  9
$USERI1
 70
     0
  9
$USERI2
 70
     0
  9
$USERI3
 70
     0
  9
$USERI4
 70
     0
  9
$USERI5
 70
     0
  9
$USERR1
 40
0.0
  9
$USERR2
 40
0.0
  9
$USERR3
 40
0.0
  9
$USERR4
 40
0.0
  9
$USERR5
 40
0.0
  9
$WORLDVIEW
 70
     1
  9
$SHADEDGE
 70
     3
  9
$SHADEDIF
 70
    70
  9
$TILEMODE
 70
     1
  9
$MAXACTVP
 70
    16
  9
$PINSBASE
 10
0.0
 20
0.0
 30
0.0
  9
$PLIMCHECK
 70
     0
  9
$PEXTMIN
 10
-1.000000E+20
 20
-1.000000E+20
 30
-1.000000E+20
  9
$PEXTMAX
 10
-1.000000E+20
 20
-1.000000E+20
 30
-1.000000E+20
  9
$PLIMMIN
 10
0.0
 20
0.0
  9
$PLIMMAX
 10
12.0
 20
9.0
  9
$UNITMODE
 70
     0
  9
$VISRETAIN
 70
     0
  9
$PLINEGEN
 70
     1
  9
$PSLTSCALE
 70
     0
  9
$TREEDEPTH
 70
  3020
  9
$DWGCODEPAGE
  3
ansi_1252
  0
ENDSEC
  0
SECTION
  2
TABLES
  0
TABLE
  2
VPORT
 70
     1
  0
VPORT
  2
*ACTIVE
 70
     0
 10
0.0
 20
0.0
 11
1.0
 21
1.0
 12
0.0
 22
0.0
 13
0.0
 23
0.0
 14
0.0
 24
0.0
 15
0.0
 25
0.0
 16
0.0
 26
0.0
 36
1.0
 17
292.785217
 27
219.941167
 37
0.0
 40
451.041
 41
1.795122
 42
50.0
 43
0.0
 44
0.0
 50
0.0
 51
0.0
 71
     0
 72
   100
 73
     1
 74
     0
 75
     0
 76
     0
 77
     0
 78
     0
  0
ENDTAB
  0
TABLE
  2
LTYPE
 70
     7
  0
LTYPE
  2
CONTINUOUS
 70
     0
  3
Solid line
 72
    65
 73
     0
 40
0.0
  0
LTYPE
  2
DOT
 70
    64
  3
. . . . . . . . . . . . . . . . . . . . . . . . . . . . . . . . .
 72
    65
 73
     2
 40
0.25
 49
0.0
 49
-0.25
  0
LTYPE
  2
HIDDEN
 70
    64
  3
__ __ __ __ __ __ __ __ __ __ __ __ __ __ __ __ __ __ __ __ __ 
 72
    65
 73
     2
 40
0.375
 49
0.25
 49
-0.125
  0
LTYPE
  2
DASHED
 70
    64
  3
__ __ __ __ __ __ __ __ __ __ __ __ __ __ __ __ __ __ __ __ __
 72
    65
 73
     2
 40
0.75
 49
0.5
 49
-0.25
  0
LTYPE
  2
DASHDOT
 70
    64
  3
__ . __ . __ . __ . __ . __ . __ . __ . __ . __ . __ . __ . _
 72
    65
 73
     4
 40
1.0
 49
0.5
 49
-0.25
 49
0.0
 49
-0.25
  0
LTYPE
  2
DIVIDE
 70
    64
  3
____ . . ____ . . ____ . . ____ . . ____ . . ____ . . ____ . .
 72
    65
 73
     6
 40
1.25
 49
0.5
 49
-0.25
 49
0.0
 49
-0.25
 49
0.0
 49
-0.25
  0
LTYPE
  2
CENTER
 70
    64
  3
____ _ ____ _ ____ _ ____ _ ____ _ ____ _ ____ _ ____ _ ____ _
 72
    65
 73
     4
 40
2.0
 49
1.25
 49
-0.25
 49
0.25
 49
-0.25
  0
ENDTAB
  0
TABLE
  2
LAYER
 70
     5
  0
LAYER
  2
0
 70
     0
 62
     7
  6
CONTINUOUS
  0
LAYER
  2
CONSTRUCTION_CLASS
 70
     0
 62
     7
  6
CONTINUOUS
  0
LAYER
  2
PATTERN_CLASS
 70
     0
 62
     7
  6
CONTINUOUS
  0
LAYER
  2
61
 70
    64
 62
     7
  6
CONTINUOUS
  0
LAYER
  2
1
 70
    64
 62
     7
  6
CONTINUOUS
  0
ENDTAB
  0
TABLE
  2
STYLE
 70
     4
  0
STYLE
  2
STANDARD
 70
     0
 40
0.0
 41
1.0
 50
0.0
 71
     0
 42
0.0
  3
txt
  4

  0
STYLE
  2
MONOTXT
 70
     0
 40
0.2
 41
1.0
 50
0.0
 71
     0
 42
0.2
  3
MONOTXT
  4

  0
STYLE
  2
txt
 70
     0
 40
0.2
 41
1.0
 50
0.0
 71
     0
 42
0.2
  3
TXT
  4

  0
STYLE
  2
ROMANT
 70
     0
 40
0.2
 41
1.0
 50
0.0
 71
     0
 42
0.2
  3
ROMANT
  4

  0
ENDTAB
  0
TABLE
  2
VIEW
 70
     0
  0
ENDTAB
  0
TABLE
  2
UCS
 70
     0
  0
ENDTAB
  0
TABLE
  2
APPID
 70
     1
  0
APPID
  2
ACAD
 70
     0
  0
ENDTAB
  0
TABLE
  2
DIMSTYLE
 70
     1
  0
DIMSTYLE
  2
STANDARD
 70
     0
  3

  4

  5

  6

  7

 40
1.0
 41
0.18
 42
0.0625
 43
0.38
 44
0.18
 45
0.0
 46
0.0
 47
0.0
 48
0.0
140
0.18
141
0.09
142
0.0
143
25.4
144
1.0
145
0.0
146
1.0
147
0.09
 71
     0
 72
     0
 73
     1
 74
     1
 75
     0
 76
     0
 77
     0
 78
     0
170
     0
171
     2
172
     0
173
     0
174
     0
175
     0
176
     0
177
     0
178
     0
  0
ENDTAB
  0
ENDSEC
  0
SECTION
  2
BLOCKS
  0
BLOCK
  8
1
  6
CONTINUOUS
 62
     1
  5
2BA
  2
LDR
 70
     0
 10
0.0
 20
0.0
 30
0.0
  3
LNR
  0
POLYLINE
  8
1
  6
CONTINUOUS
 62
     1
  5
2BB
 66
     1
 10
0.0
 20
0.0
 30
0.0
210
0.0
220
0.0
230
1.0
  0
VERTEX
  8
1
  6
CONTINUOUS
 62
     1
  5
2BC
 10
-0.011987
 20
-0.001802
 30
0.0
 42
-0.265147
  0
VERTEX
  8
1
  6
CONTINUOUS
 62
     1
  5
2BD
 10
-0.011849
 20
-0.001604
 30
0.0
 42
-0.064653
  0
VERTEX
  8
1
  6
CONTINUOUS
 62
     1
  5
2BE
 10
-0.011407
 20
-0.001387
 30
0.0
 42
-0.025822
  0
VERTEX
  8
1
  6
CONTINUOUS
 62
     1
  5
2BF
 10
-0.010681
 20
-0.00116
 30
0.0
 42
-0.014504
  0
VERTEX
  8
1
  6
CONTINUOUS
 62
     1
  5
2C0
 10
-0.0097
 20
-0.000933
 30
0.0
 42
-0.009896
  0
VERTEX
  8
1
  6
CONTINUOUS
 62
     1
  5
2C1
 10
-0.008505
 20
-0.000715
 30
0.0
 42
-0.007708
  0
VERTEX
  8
1
  6
CONTINUOUS
 62
     1
  5
2C2
 10
-0.007146
 20
-0.000515
 30
0.0
 42
-0.006655
  0
VERTEX
  8
1
  6
CONTINUOUS
 62
     1
  5
2C3
 10
-0.005679
 20
-0.000342
 30
0.0
 42
-0.006278
  0
VERTEX
  8
1
  6
CONTINUOUS
 62
     1
  5
2C4
 10
-0.004164
 20
-0.000202
 30
0.0
 42
-0.006439
  0
VERTEX
  8
1
  6
CONTINUOUS
 62
     1
  5
2C5
 10
-0.002666
 20
-0.000101
 30
0.0
 42
-0.007196
  0
VERTEX
  8
1
  6
CONTINUOUS
 62
     1
  5
2C6
 10
-0.001246
 20
-0.000044
 30
0.0
 42
-0.008852
  0
VERTEX
  8
1
  6
CONTINUOUS
 62
     1
  5
2C7
 10
0.000037
 20
-0.000034
 30
0.0
 42
-0.008852
  0
SEQEND
  8
1
  6
CONTINUOUS
 62
     1
  5
2C8
  0
POLYLINE
  8
1
  6
CONTINUOUS
 62
     1
  5
2C9
 66
     1
 10
0.0
 20
0.0
 30
0.0
210
0.0
220
0.0
230
1.0
  0
VERTEX
  8
1
  6
CONTINUOUS
 62
     1
  5
2CA
 10
0.000039
 20
0.000014
 30
0.0
 42
-0.005019
  0
VERTEX
  8
1
  6
CONTINUOUS
 62
     1
  5
2CB
 10
-0.001103
 20
0.000071
 30
0.0
 42
-0.004038
  0
VERTEX
  8
1
  6
CONTINUOUS
 62
     1
  5
2CC
 10
-0.002373
 20
0.000158
 30
0.0
 42
-0.003548
  0
VERTEX
  8
1
  6
CONTINUOUS
 62
     1
  5
2CD
 10
-0.003725
 20
0.00027
 30
0.0
 42
-0.003367
  0
VERTEX
  8
1
  6
CONTINUOUS
 62
     1
  5
2CE
 10
-0.005111
 20
0.000405
 30
0.0
 42
-0.003436
  0
VERTEX
  8
1
  6
CONTINUOUS
 62
     1
  5
2CF
 10
-0.006481
 20
0.000556
 30
0.0
 42
-0.003778
  0
VERTEX
  8
1
  6
CONTINUOUS
 62
     1
  5
2D0
 10
-0.007786
 20
0.00072
 30
0.0
 42
-0.00451
  0
VERTEX
  8
1
  6
CONTINUOUS
 62
     1
  5
2D1
 10
-0.008979
 20
0.000889
 30
0.0
 42
-0.00594
  0
VERTEX
  8
1
  6
CONTINUOUS
 62
     1
  5
2D2
 10
-0.010018
 20
0.001058
 30
0.0
 42
-0.008921
  0
VERTEX
  8
1
  6
CONTINUOUS
 62
     1
  5
2D3
 10
-0.010864
 20
0.00122
 30
0.0
 42
-0.016392
  0
VERTEX
  8
1
  6
CONTINUOUS
 62
     1
  5
2D4
 10
-0.011488
 20
0.001371
 30
0.0
 42
-0.04458
  0
VERTEX
  8
1
  6
CONTINUOUS
 62
     1
  5
2D5
 10
-0.011867
 20
0.001503
 30
0.0
 42
-0.317392
  0
VERTEX
  8
1
  6
CONTINUOUS
 62
     1
  5
2D6
 10
-0.011987
 20
0.001614
 30
0.0
 42
-0.317392
  0
SEQEND
  8
1
  6
CONTINUOUS
 62
     1
  5
2D7
  0
ENDBLK
  8
1
  6
CONTINUOUS
 62
     1
  5
2D8
  0
ENDSEC
  0
SECTION
  2
ENTITIES
  0
LINE
  8
61
  6
CONTINUOUS
 62
     1
  5
29
 10
667.608917
 20
429.961167
 30
0.0
 11
28.568917
 21
429.961167
 31
0.0
  0
LINE
  8
61
  6
CONTINUOUS
 62
     1
  5
2A
 10
28.568917
 20
429.961167
 30
0.0
 11
28.568917
 21
9.941167
 31
0.0
  0
LINE
  8
61
  6
CONTINUOUS
 62
     1
  5
2B
 10
667.628917
 20
9.921167
 30
0.0
 11
28.568917
 21
9.941167
 31
0.0
  0
LINE
  8
61
  6
CONTINUOUS
 62
     1
  5
2C
 10
667.608917
 20
429.961167
 30
0.0
 11
667.628917
 21
9.921167
 31
0.0
  0
LINE
  8
61
  6
CONTINUOUS
 62
     7
  5
2D
 10
661.508917
 20
425.221167
 30
0.0
 11
553.528917
 21
425.201167
 31
0.0
  0
LINE
  8
61
  6
CONTINUOUS
 62
     7
  5
2E
 10
553.528917
 20
425.201167
 30
0.0
 11
553.528917
 21
405.201167
 31
0.0
  0
LINE
  8
61
  6
CONTINUOUS
 62
     7
  5
2F
 10
661.508917
 20
425.221167
 30
0.0
 11
661.508917
 21
405.221167
 31
0.0
  0
LINE
  8
61
  6
CONTINUOUS
 62
     7
  5
30
 10
661.508917
 20
405.221167
 30
0.0
 11
553.528917
 21
405.201167
 31
0.0
  0
LINE
  8
61
  6
CONTINUOUS
 62
     7
  5
31
 10
661.528917
 20
415.181167
 30
0.0
 11
553.508917
 21
415.201167
 31
0.0
  0
LINE
  8
61
  6
CONTINUOUS
 62
     7
  5
32
 10
563.528917
 20
425.201167
 30
0.0
 11
563.528917
 21
405.201167
 31
0.0
  0
LINE
  8
61
  6
CONTINUOUS
 62
     7
  5
33
 10
573.528917
 20
425.201167
 30
0.0
 11
573.528917
 21
405.201167
 31
0.0
  0
LINE
  8
61
  6
CONTINUOUS
 62
     7
  5
34
 10
587.208917
 20
425.201167
 30
0.0
 11
587.208917
 21
405.201167
 31
0.0
  0
LINE
  8
61
  6
CONTINUOUS
 62
     7
  5
35
 10
651.508917
 20
425.221167
 30
0.0
 11
651.508917
 21
405.221167
 31
0.0
  0
LINE
  8
61
  6
CONTINUOUS
 62
     7
  5
36
 10
641.508917
 20
425.221167
 30
0.0
 11
641.508917
 21
405.221167
 31
0.0
  0
LINE
  8
61
  6
CONTINUOUS
 62
     7
  5
37
 10
619.528917
 20
425.201167
 30
0.0
 11
619.528917
 21
405.201167
 31
0.0
  0
LINE
  8
61
  6
CONTINUOUS
 62
     7
  5
38
 10
609.528917
 20
425.201167
 30
0.0
 11
609.528917
 21
405.201167
 31
0.0
  0
TEXT
  8
61
  6
CONTINUOUS
 62
     7
  5
3A
 10
555.568917
 20
422.181167
 30
0.0
 40
1.20075
  1
PUBLIC
 50
0.033272
 41
1.001804
  7
MONOTXT
210
0.0
220
0.0
230
1.0
  0
TEXT
  8
61
  6
CONTINUOUS
 62
     7
  5
3B
 10
555.648917
 20
419.661167
 30
0.0
 40
1.20075
  1
ROADS
 50
0.124322
 41
0.996877
  7
MONOTXT
210
0.0
220
0.0
230
1.0
  0
TEXT
  8
61
  6
CONTINUOUS
 62
     7
  5
3C
 10
556.848917
 20
417.161167
 30
0.0
 40
1.20075
  1
DIV.
 50
359.931522
 41
0.994864
  7
MONOTXT
210
0.0
220
0.0
230
1.0
  0
TEXT
  8
61
  6
CONTINUOUS
 62
     7
  5
3D
 10
565.728917
 20
422.241167
 30
0.0
 40
1.20075
  1
STATE
 50
0.058969
 41
0.998196
  7
MONOTXT
210
0.0
220
0.0
230
1.0
  0
TEXT
  8
61
  6
CONTINUOUS
 62
     7
  5
3E
 10
566.608917
 20
419.741167
 30
0.0
 40
1.20075
  1
DIST.
 50
0.055889
 41
0.999584
  7
MONOTXT
210
0.0
220
0.0
230
1.0
  0
TEXT
  8
61
  6
CONTINUOUS
 62
     7
  5
3F
 10
567.188917
 20
417.221167
 30
0.0
 40
1.20075
  1
NO.
 50
359.852072
 41
0.997779
  7
MONOTXT
210
0.0
220
0.0
230
1.0
  0
TEXT
  8
61
  6
CONTINUOUS
 62
     7
  5
40
 10
577.728917
 20
422.181167
 30
0.0
 40
1.20075
  1
STATE
 50
0.058969
 41
0.998196
  7
MONOTXT
210
0.0
220
0.0
230
1.0
  0
TEXT
  8
61
  6
CONTINUOUS
 62
     7
  5
41
 10
576.648917
 20
419.761167
 30
0.0
 40
1.20075
  1
PROJECT
 50
359.908431
 41
1.000069
  7
MONOTXT
210
0.0
220
0.0
230
1.0
  0
TEXT
  8
61
  6
CONTINUOUS
 62
     7
  5
42
 10
579.388917
 20
417.221167
 30
0.0
 40
1.20075
  1
NO.
 50
0.225453
 41
0.993546
  7
MONOTXT
210
0.0
220
0.0
230
1.0
  0
TEXT
  8
61
  6
CONTINUOUS
 62
     7
  5
43
 10
595.028917
 20
421.061167
 30
0.0
 40
1.20075
  1
FEDERAL
 50
0.006714
 41
0.998543
  7
MONOTXT
210
0.0
220
0.0
230
1.0
  0
TEXT
  8
61
  6
CONTINUOUS
 62
     7
  5
44
 10
593.488917
 20
418.401167
 30
0.0
 40
1.20075
  1
PROJECT NO.
 50
359.921531
 41
1.000694
  7
MONOTXT
210
0.0
220
0.0
230
1.0
  0
TEXT
  8
61
  6
CONTINUOUS
 62
     7
  5
45
 10
611.768917
 20
421.001167
 30
0.0
 40
1.20075
  1
FISCAL
 50
359.941939
 41
0.998959
  7
MONOTXT
210
0.0
220
0.0
230
1.0
  0
TEXT
  8
61
  6
CONTINUOUS
 62
     7
  5
46
 10
612.288917
 20
418.101167
 30
0.0
 40
1.20075
  1
YEAR
 50
0.104606
 41
0.993268
  7
MONOTXT
210
0.0
220
0.0
230
1.0
  0
TEXT
  8
61
  6
CONTINUOUS
 62
     7
  5
47
 10
626.388917
 20
419.461167
 30
0.0
 40
1.20075
  1
COUNTY
 50
0.068575
 41
1.001874
  7
MONOTXT
210
0.0
220
0.0
230
1.0
  0
TEXT
  8
61
  6
CONTINUOUS
 62
     7
  5
48
 10
644.028917
 20
421.121167
 30
0.0
 40
1.20075
  1
SHEET
 50
0.058969
 41
0.997571
  7
MONOTXT
210
0.0
220
0.0
230
1.0
  0
TEXT
  8
61
  6
CONTINUOUS
 62
     7
  5
49
 10
645.448917
 20
418.401167
 30
0.0
 40
1.20075
  1
NO.
 50
359.852072
 41
0.997779
  7
MONOTXT
210
0.0
220
0.0
230
1.0
  0
TEXT
  8
61
  6
CONTINUOUS
 62
     7
  5
4A
 10
653.768917
 20
420.981167
 30
0.0
 40
1.20075
  1
TOTAL
 50
359.926039
 41
0.998543
  7
MONOTXT
210
0.0
220
0.0
230
1.0
  0
TEXT
  8
61
  6
CONTINUOUS
 62
     7
  5
4B
 10
653.308917
 20
418.281167
 30
0.0
 40
1.20075
  1
SHEETS
 50
359.958675
  7
MONOTXT
210
0.0
220
0.0
230
1.0
  0
TEXT
  8
61
  6
CONTINUOUS
 62
     7
  5
4C
 10
566.128917
 20
409.401167
 30
0.0
 40
2.401333
  1
  
 50
0.029406
 41
0.996495
  7
MONOTXT
210
0.0
220
0.0
230
1.0
  0
TEXT
  8
61
  6
CONTINUOUS
 62
     7
  5
4D
 10
643.308917
 20
409.121167
 30
0.0
 40
2.401333
  1
   
 50
0.011508
 41
1.001006
  7
MONOTXT
210
0.0
220
0.0
230
1.0
  0
TEXT
  8
61
  6
CONTINUOUS
 62
     7
  5
4E
 10
653.188917
 20
409.101167
 30
0.0
 40
2.401333
  1
   
 50
359.922128
 41
1.000555
  7
MONOTXT
210
0.0
220
0.0
230
1.0
  0
TEXT
  8
61
  6
CONTINUOUS
 62
     7
  5
4F
 10
576.568917
 20
412.501167
 30
0.0
 40
2.00675
  1
    
 50
0.054383
 41
0.993729
  7
MONOTXT
210
0.0
220
0.0
230
1.0
  0
TEXT
  8
61
  6
CONTINUOUS
 62
     7
  5
50
 10
573.648917
 20
409.481167
 30
0.0
 40
1.989583
  1
       
 50
0.064678
 41
1.000963
  7
MONOTXT
210
0.0
220
0.0
230
1.0
  0
TEXT
  8
61
  6
CONTINUOUS
 62
     7
  5
51
 10
574.608917
 20
406.581167
 30
0.0
 40
1.989583
  1
      
 50
359.958053
 41
1.000293
  7
MONOTXT
210
0.0
220
0.0
230
1.0
  0
TEXT
  8
61
  6
CONTINUOUS
 62
     7
  5
52
 10
585.568917
 20
411.221167
 30
0.0
 40
2.401333
  1
           
 50
0.011508
 41
0.998751
  7
MONOTXT
210
0.0
220
0.0
230
1.0
  0
TEXT
  8
61
  6
CONTINUOUS
 62
     7
  5
53
 10
585.448917
 20
407.561167
 30
0.0
 40
2.401333
  1
           
 50
0.011508
 41
0.999584
  7
MONOTXT
210
0.0
220
0.0
230
1.0
  0
TEXT
  8
61
  6
CONTINUOUS
 62
     7
  5
54
 10
620.788917
 20
409.301167
 30
0.0
 40
2.00675
  1
          
 50
0.009222
 41
0.992774
  7
MONOTXT
210
0.0
220
0.0
230
1.0
  0
ARC
  8
61
  6
CONTINUOUS
 62
     3
  5
55
 10
10.266673
 20
341.202462
 30
0.0
 40
2.499998
 50
323.130094
 51
316.232156
210
0.0
220
0.0
230
1.0
  0
ARC
  8
61
  6
CONTINUOUS
 62
     3
  5
56
 10
10.266673
 20
286.202462
 30
0.0
 40
2.499998
 50
323.130094
 51
315.375767
210
0.0
220
0.0
230
1.0
  0
ARC
  8
61
  6
CONTINUOUS
 62
     3
  5
57
 10
9.986673
 20
137.762462
 30
0.0
 40
2.499998
 50
322.671753
 51
321.716147
210
0.0
220
0.0
230
1.0
  0
ARC
  8
61
  6
CONTINUOUS
 62
     3
  5
58
 10
9.986673
 20
82.762462
 30
0.0
 40
2.499998
 50
323.130094
 51
312.314392
210
0.0
220
0.0
230
1.0
  0
LINE
  8
61
  6
CONTINUOUS
 62
     2
  5
59
 10
12.288917
 20
341.201167
 30
0.0
 11
20.268917
 21
341.221167
 31
0.0
  0
LINE
  8
61
  6
CONTINUOUS
 62
     2
  5
5A
 10
12.268917
 20
286.201167
 30
0.0
 11
20.268917
 21
286.201167
 31
0.0
  0
LINE
  8
61
  6
CONTINUOUS
 62
     2
  5
5B
 10
11.988917
 20
137.781167
 30
0.0
 11
19.988917
 21
137.781167
 31
0.0
  0
LINE
  8
61
  6
CONTINUOUS
 62
     2
  5
5C
 10
12.008917
 20
82.761167
 30
0.0
 11
19.988917
 21
82.761167
 31
0.0
  0
LINE
  8
61
  6
DASHED
 62
     1
  5
5D
 10
-1.431083
 20
439.961167
 30
0.0
 11
678.588917
 21
439.961167
 31
0.0
  0
LINE
  8
61
  6
DASHED
 62
     1
  5
5E
 10
678.568917
 20
-0.058833
 30
0.0
 11
-1.491083
 21
-0.078833
 31
0.0
  0
TEXT
  8
61
  6
CONTINUOUS
 62
     7
  5
5F
 10
654.408917
 20
385.301167
 30
0.0
 40
2.401333
  1
     
 41
1.001388
  7
MONOTXT
210
0.0
220
0.0
230
1.0
  0
LINE
  8
1
  6
HIDDEN
 62
     1
  5
61
 10
678.588917
 20
439.961167
 30
0.0
 11
678.568917
 21
-0.058833
 31
0.0
  0
LINE
  8
1
  6
HIDDEN
 62
     1
  5
62
 10
-1.431083
 20
439.961167
 30
0.0
 11
-1.491083
 21
-0.078833
 31
0.0
  0
TEXT
  8
1
  6
CONTINUOUS
 62
     1
  5
64
 10
633.348917
 20
7.421167
 30
0.0
 40
1.2
  1
TRAFFIC ENGINEERING DIVISION
  7
txt
210
0.0
220
0.0
230
1.0
  0
LINE
  8
1
  6
CONTINUOUS
 62
     7
  5
65
 10
495.968917
 20
9.921167
 30
0.0
 11
495.968917
 21
101.501167
 31
0.0
  0
LINE
  8
1
  6
CONTINUOUS
 62
     7
  5
66
 10
495.968917
 20
101.501167
 30
0.0
 11
667.628917
 21
101.501167
 31
0.0
  0
LINE
  8
1
  6
CONTINUOUS
 62
     7
  5
67
 10
530.968917
 20
9.881167
 30
0.0
 11
530.968917
 21
54.841167
 31
0.0
  0
LINE
  8
1
  6
CONTINUOUS
 62
     7
  5
68
 10
530.968917
 20
54.841167
 30
0.0
 11
495.988917
 21
54.841167
 31
0.0
  0
LINE
  8
1
  6
CONTINUOUS
 62
     7
  5
69
 10
530.968917
 20
50.361167
 30
0.0
 11
495.988917
 21
50.361167
 31
0.0
  0
LINE
  8
1
  6
CONTINUOUS
 62
     7
  5
6A
 10
530.968917
 20
45.861167
 30
0.0
 11
495.988917
 21
45.861167
 31
0.0
  0
LINE
  8
1
  6
CONTINUOUS
 62
     7
  5
6B
 10
530.968917
 20
41.361167
 30
0.0
 11
495.988917
 21
41.361167
 31
0.0
  0
LINE
  8
1
  6
CONTINUOUS
 62
     7
  5
6C
 10
530.968917
 20
36.841167
 30
0.0
 11
495.988917
 21
36.841167
 31
0.0
  0
LINE
  8
1
  6
CONTINUOUS
 62
     7
  5
6D
 10
530.968917
 20
32.361167
 30
0.0
 11
495.988917
 21
32.361167
 31
0.0
  0
LINE
  8
1
  6
CONTINUOUS
 62
     7
  5
6E
 10
530.968917
 20
27.881167
 30
0.0
 11
495.988917
 21
27.881167
 31
0.0
  0
LINE
  8
1
  6
CONTINUOUS
 62
     7
  5
6F
 10
530.968917
 20
23.381167
 30
0.0
 11
495.988917
 21
23.381167
 31
0.0
  0
LINE
  8
1
  6
CONTINUOUS
 62
     7
  5
70
 10
530.968917
 20
18.881167
 30
0.0
 11
495.988917
 21
18.881167
 31
0.0
  0
LINE
  8
1
  6
CONTINUOUS
 62
     7
  5
71
 10
530.968917
 20
14.361167
 30
0.0
 11
495.988917
 21
14.361167
 31
0.0
  0
TEXT
  8
1
  6
CONTINUOUS
 62
     7
  5
72
 10
506.248917
 20
51.841167
 30
0.0
 40
1.99775
  1
REVISIONS
  7
MONOTXT
210
0.0
220
0.0
230
1.0
  0
TEXT
  8
1
  6
CONTINUOUS
 62
     7
  5
73
 10
497.928917
 20
55.841167
 30
0.0
 40
1.99775
  1
PREPARED: 09/02/75
  7
MONOTXT
210
0.0
220
0.0
230
1.0
  0
TEXT
  8
1
  6
CONTINUOUS
 62
     7
  5
75
 10
528.588917
 20
92.901167
 30
0.0
 40
4.794833
  1
WEST VIRGINIA DIVISION OF HIGHWAYS
  7
ROMANT
 72
     1
 11
582.559167
 21
97.696
 31
0.0
210
0.0
220
0.0
230
1.0
 73
     3
  0
TEXT
  8
1
  6
CONTINUOUS
 62
     7
  5
76
 10
539.348917
 20
81.741167
 30
0.0
 40
6.992667
  1
STANDARD DETAIL
  7
txt
 72
     1
 11
583.839
 21
88.733833
 31
0.0
210
0.0
220
0.0
230
1.0
 73
     3
  0
TEXT
  8
1
  6
CONTINUOUS
 62
     7
  5
77
 10
534.808917
 20
13.961167
 30
0.0
 40
6.992667
  1
STANDARD SHEET TEL-23
  7
txt
210
0.0
220
0.0
230
1.0
  0
TEXT
  8
1
  6
CONTINUOUS
 62
     1
  5
78
 10
506.513
 20
46.781167
 30
0.0
 40
2.0
  1
12-10-75
  7
MONOTXT
 72
     1
 11
512.946167
 21
48.781167
 31
0.0
210
0.0
220
0.0
230
1.0
 73
     3
  0
TEXT
  8
1
  6
CONTINUOUS
 62
     1
  5
79
 10
506.083583
 20
42.381167
 30
0.0
 40
2.0
  1
09-15-84
  7
MONOTXT
 72
     1
 11
512.92625
 21
44.381167
 31
0.0
210
0.0
220
0.0
230
1.0
 73
     3
  0
TEXT
  8
1
  6
CONTINUOUS
 62
     1
  5
7A
 10
505.268917
 20
37.981167
 30
0.0
 40
2.0
  1
        
  7
MONOTXT
 72
     1
 11
512.93575
 21
39.981167
 31
0.0
210
0.0
220
0.0
230
1.0
 73
     3
  0
TEXT
  8
1
  6
CONTINUOUS
 62
     1
  5
7B
 10
505.268917
 20
33.581167
 30
0.0
 40
2.0
  1
        
  7
MONOTXT
 72
     1
 11
512.93575
 21
35.581167
 31
0.0
210
0.0
220
0.0
230
1.0
 73
     3
  0
TEXT
  8
1
  6
CONTINUOUS
 62
     1
  5
7C
 10
505.108917
 20
28.981167
 30
0.0
 40
2.0
  1
        
  7
MONOTXT
 72
     1
 11
512.77575
 21
30.981167
 31
0.0
210
0.0
220
0.0
230
1.0
 73
     3
  0
TEXT
  8
1
  6
CONTINUOUS
 62
     1
  5
7D
 10
505.268917
 20
24.501167
 30
0.0
 40
2.0
  1
        
  7
MONOTXT
 72
     1
 11
512.93575
 21
26.501167
 31
0.0
210
0.0
220
0.0
230
1.0
 73
     3
  0
TEXT
  8
1
  6
CONTINUOUS
 62
     1
  5
7E
 10
505.168917
 20
19.901167
 30
0.0
 40
2.0
  1
        
  7
MONOTXT
 72
     1
 11
512.83575
 21
21.901167
 31
0.0
210
0.0
220
0.0
230
1.0
 73
     3
  0
TEXT
  8
1
  6
CONTINUOUS
 62
     1
  5
7F
 10
505.268917
 20
15.321167
 30
0.0
 40
2.0
  1
        
  7
MONOTXT
 72
     1
 11
512.93575
 21
17.321167
 31
0.0
210
0.0
220
0.0
230
1.0
 73
     3
  0
TEXT
  8
1
  6
CONTINUOUS
 62
     1
  5
80
 10
505.268917
 20
11.301167
 30
0.0
 40
2.0
  1
        
  7
MONOTXT
 72
     1
 11
512.93575
 21
13.301167
 31
0.0
210
0.0
220
0.0
230
1.0
 73
     3
  0
LINE
  8
1
  6
CONTINUOUS
 62
     7
  5
81
 10
500.1565
 20
104.078
 30
0.0
 11
496.1565
 21
104.078
 31
0.0
  0
LINE
  8
1
  6
CONTINUOUS
 62
     7
  5
82
 10
498.1565
 20
107.542083
 30
0.0
 11
496.1565
 21
104.078
 31
0.0
  0
LINE
  8
1
  6
CONTINUOUS
 62
     7
  5
83
 10
498.1565
 20
107.542083
 30
0.0
 11
500.1565
 21
104.078
 31
0.0
  0
LINE
  8
1
  6
CONTINUOUS
 62
     7
  5
84
 10
500.322333
 20
108.887167
 30
0.0
 11
496.322333
 21
108.887167
 31
0.0
  0
LINE
  8
1
  6
CONTINUOUS
 62
     7
  5
85
 10
498.322333
 20
112.35125
 30
0.0
 11
496.322333
 21
108.887167
 31
0.0
  0
LINE
  8
1
  6
CONTINUOUS
 62
     7
  5
86
 10
498.322333
 20
112.35125
 30
0.0
 11
500.322333
 21
108.887167
 31
0.0
  0
LINE
  8
1
  6
CONTINUOUS
 62
     7
  5
87
 10
500.982833
 20
46.383083
 30
0.0
 11
496.982833
 21
46.383083
 31
0.0
  0
LINE
  8
1
  6
CONTINUOUS
 62
     7
  5
88
 10
498.982833
 20
49.847167
 30
0.0
 11
496.982833
 21
46.383083
 31
0.0
  0
LINE
  8
1
  6
CONTINUOUS
 62
     7
  5
89
 10
498.982833
 20
49.847167
 30
0.0
 11
500.982833
 21
46.383083
 31
0.0
  0
LINE
  8
1
  6
CONTINUOUS
 62
     7
  5
8A
 10
501.081583
 20
41.891
 30
0.0
 11
497.081583
 21
41.891
 31
0.0
  0
LINE
  8
1
  6
CONTINUOUS
 62
     7
  5
8B
 10
499.081583
 20
45.355083
 30
0.0
 11
497.081583
 21
41.891
 31
0.0
  0
LINE
  8
1
  6
CONTINUOUS
 62
     7
  5
8C
 10
499.081583
 20
45.355083
 30
0.0
 11
501.081583
 21
41.891
 31
0.0
  0
TEXT
  8
1
  6
CONTINUOUS
 62
     7
  5
8D
 10
497.983083
 20
109.346667
 30
0.0
 40
2.0
  1
1
  7
MONOTXT
210
0.0
220
0.0
230
1.0
  0
TEXT
  8
1
  6
CONTINUOUS
 62
     7
  5
8E
 10
497.487167
 20
104.314417
 30
0.0
 40
2.0
  1
2
  7
MONOTXT
210
0.0
220
0.0
230
1.0
  0
TEXT
  8
1
  6
CONTINUOUS
 62
     7
  5
8F
 10
497.487167
 20
104.314417
 30
0.0
 40
2.0
  1
2
  7
MONOTXT
210
0.0
220
0.0
230
1.0
  0
TEXT
  8
1
  6
CONTINUOUS
 62
     7
  5
90
 10
497.487167
 20
104.314417
 30
0.0
 40
2.0
  1
2
  7
MONOTXT
210
0.0
220
0.0
230
1.0
  0
TEXT
  8
1
  6
CONTINUOUS
 62
     7
  5
91
 10
500.9585
 20
109.594667
 30
0.0
 40
2.0
  1
SIGNATURE BLOCK
  7
MONOTXT
210
0.0
220
0.0
230
1.0
  0
TEXT
  8
1
  6
CONTINUOUS
 62
     7
  5
92
 10
500.9585
 20
104.5625
 30
0.0
 40
2.0
  1
CHANGED GROUND RODS
  7
MONOTXT
210
0.0
220
0.0
230
1.0
  0
TEXT
  8
1
  6
CONTINUOUS
 62
     7
  5
93
 10
498.693917
 20
46.808
 30
0.0
 40
2.0
  1
1
  7
MONOTXT
210
0.0
220
0.0
230
1.0
  0
TEXT
  8
1
  6
CONTINUOUS
 62
     7
  5
94
 10
498.391583
 20
42.158583
 30
0.0
 40
2.0
  1
2
  7
MONOTXT
210
0.0
220
0.0
230
1.0
  0
TEXT
  8
1
  6
CONTINUOUS
 62
     7
  5
95
 10
509.903833
 20
73.6345
 30
0.0
 40
5.0
  1
CONTROL STATION (GROUND MOUNTED)
  7
txt
 72
     4
 11
580.381833
 21
76.1345
 31
0.0
210
0.0
220
0.0
230
1.0
  0
TEXT
  8
1
  6
CONTINUOUS
 62
     7
  5
96
 10
560.60225
 20
65.6345
 30
0.0
 40
5.0
  1
ENCLOSURE
  7
txt
 72
     4
 11
580.38175
 21
68.1345
 31
0.0
210
0.0
220
0.0
230
1.0
  0
LINE
  8
1
  6
CONTINUOUS
 62
    52
  5
97
 10
111.082333
 20
383.11025
 30
0.0
 11
261.082333
 21
383.11025
 31
0.0
  0
LINE
  8
1
  6
CONTINUOUS
 62
    52
  5
98
 10
111.082333
 20
282.11025
 30
0.0
 11
261.082333
 21
282.11025
 31
0.0
  0
LINE
  8
1
  6
CONTINUOUS
 62
    52
  5
99
 10
111.082333
 20
383.11025
 30
0.0
 11
111.082333
 21
282.11025
 31
0.0
  0
LINE
  8
1
  6
CONTINUOUS
 62
    52
  5
9A
 10
261.082333
 20
383.11025
 30
0.0
 11
261.082333
 21
282.11025
 31
0.0
  0
LINE
  8
1
  6
CONTINUOUS
 62
    52
  5
9B
 10
115.832333
 20
379.61025
 30
0.0
 11
256.332333
 21
379.61025
 31
0.0
  0
LINE
  8
1
  6
CONTINUOUS
 62
    52
  5
9C
 10
114.582333
 20
378.36025
 30
0.0
 11
114.582333
 21
288.36025
 31
0.0
  0
LINE
  8
1
  6
CONTINUOUS
 62
    52
  5
9D
 10
257.582333
 20
378.36025
 30
0.0
 11
257.582333
 21
288.36025
 31
0.0
  0
CIRCLE
  8
1
  6
CONTINUOUS
 62
    52
  5
9E
 10
257.582333
 20
379.61025
 30
0.0
 40
1.25
210
0.0
220
0.0
230
1.0
  0
CIRCLE
  8
1
  6
CONTINUOUS
 62
    52
  5
9F
 10
257.582333
 20
287.11025
 30
0.0
 40
1.25
210
0.0
220
0.0
230
1.0
  0
CIRCLE
  8
1
  6
CONTINUOUS
 62
    52
  5
A0
 10
114.582333
 20
287.11025
 30
0.0
 40
1.25
210
0.0
220
0.0
230
1.0
  0
CIRCLE
  8
1
  6
CONTINUOUS
 62
    52
  5
A1
 10
114.582333
 20
379.61025
 30
0.0
 40
1.25
210
0.0
220
0.0
230
1.0
  0
LINE
  8
1
  6
CONTINUOUS
 62
    52
  5
A2
 10
143.832333
 20
287.86025
 30
0.0
 11
143.832333
 21
286.36025
 31
0.0
  0
LINE
  8
1
  6
CONTINUOUS
 62
    52
  5
A3
 10
115.832333
 20
287.11025
 30
0.0
 11
137.832333
 21
287.11025
 31
0.0
  0
LINE
  8
1
  6
CONTINUOUS
 62
    52
  5
A4
 10
228.332333
 20
287.86025
 30
0.0
 11
228.332333
 21
286.36025
 31
0.0
  0
LINE
  8
1
  6
CONTINUOUS
 62
    52
  5
A5
 10
234.332333
 20
287.11025
 30
0.0
 11
256.332333
 21
287.11025
 31
0.0
  0
LINE
  8
1
  6
CONTINUOUS
 62
    52
  5
A6
 10
143.832333
 20
287.86025
 30
0.0
 11
140.631333
 21
287.86025
 31
0.0
  0
LINE
  8
1
  6
CONTINUOUS
 62
    52
  5
A7
 10
143.832333
 20
286.36025
 30
0.0
 11
140.631333
 21
286.36025
 31
0.0
  0
CIRCLE
  8
1
  6
CONTINUOUS
 62
    52
  5
A8
 10
139.332333
 20
287.11025
 30
0.0
 40
1.5
210
0.0
220
0.0
230
1.0
  0
LINE
  8
1
  6
CONTINUOUS
 62
    52
  5
A9
 10
228.332333
 20
287.86025
 30
0.0
 11
231.533333
 21
287.86025
 31
0.0
  0
LINE
  8
1
  6
CONTINUOUS
 62
    52
  5
AA
 10
228.332333
 20
286.36025
 30
0.0
 11
231.533333
 21
286.36025
 31
0.0
  0
CIRCLE
  8
1
  6
CONTINUOUS
 62
    52
  5
AB
 10
232.832333
 20
287.11025
 30
0.0
 40
1.5
210
0.0
220
0.0
230
1.0
  0
LINE
  8
1
  6
CONTINUOUS
 62
    52
  5
AC
 10
142.082333
 20
287.86025
 30
0.0
 11
142.082333
 21
286.36025
 31
0.0
  0
ARC
  8
1
  6
CONTINUOUS
 62
    52
  5
AD
 10
229.652721
 20
287.11025
 30
0.0
 40
0.771207
 50
283.467742
 51
76.532258
210
0.0
220
0.0
230
1.0
  0
LINE
  8
1
  6
CONTINUOUS
 62
    52
  5
AE
 10
143.832333
 20
287.61025
 30
0.0
 11
202.332333
 21
287.61025
 31
0.0
  0
LINE
  8
1
  6
CONTINUOUS
 62
    52
  5
AF
 10
202.332333
 20
287.61025
 30
0.0
 11
228.332333
 21
287.61025
 31
0.0
  0
LINE
  8
1
  6
CONTINUOUS
 62
    52
  5
B0
 10
143.832333
 20
286.61025
 30
0.0
 11
202.332333
 21
286.61025
 31
0.0
  0
LINE
  8
1
  6
CONTINUOUS
 62
    52
  5
B1
 10
202.332333
 20
286.61025
 30
0.0
 11
228.332333
 21
286.61025
 31
0.0
  0
POLYLINE
  8
1
  6
CONTINUOUS
 62
    52
  5
B2
 66
     1
 10
0.0
 20
0.0
 30
0.0
 70
     1
  0
VERTEX
  8
1
  6
CONTINUOUS
 62
    52
  5
B3
 10
198.582333
 20
286.61025
 30
0.0
  0
VERTEX
  8
1
  6
CONTINUOUS
 62
    52
  5
B4
 10
202.332333
 20
286.61025
 30
0.0
  0
VERTEX
  8
1
  6
CONTINUOUS
 62
    52
  5
B5
 10
202.332333
 20
286.11025
 30
0.0
  0
VERTEX
  8
1
  6
CONTINUOUS
 62
    52
  5
B6
 10
198.582333
 20
286.11025
 30
0.0
  0
VERTEX
  8
1
  6
CONTINUOUS
 62
    52
  5
B7
 10
198.582333
 20
286.61025
 30
0.0
  0
SEQEND
  8
1
  6
CONTINUOUS
 62
    52
  5
B8
  0
POLYLINE
  8
1
  6
CONTINUOUS
 62
    52
  5
B9
 66
     1
 10
0.0
 20
0.0
 30
0.0
 70
     1
  0
VERTEX
  8
1
  6
CONTINUOUS
 62
    52
  5
BA
 10
198.582333
 20
287.61025
 30
0.0
  0
VERTEX
  8
1
  6
CONTINUOUS
 62
    52
  5
BB
 10
198.582333
 20
288.11025
 30
0.0
  0
VERTEX
  8
1
  6
CONTINUOUS
 62
    52
  5
BC
 10
202.332333
 20
288.11025
 30
0.0
  0
VERTEX
  8
1
  6
CONTINUOUS
 62
    52
  5
BD
 10
202.332333
 20
287.61025
 30
0.0
  0
VERTEX
  8
1
  6
CONTINUOUS
 62
    52
  5
BE
 10
198.582333
 20
287.61025
 30
0.0
  0
SEQEND
  8
1
  6
CONTINUOUS
 62
    52
  5
BF
  0
LINE
  8
1
  6
CONTINUOUS
 62
    52
  5
C0
 10
96.082333
 20
398.11025
 30
0.0
 11
110.832333
 21
398.11025
 31
0.0
  0
LINE
  8
1
  6
CONTINUOUS
 62
    52
  5
C1
 10
112.832333
 20
398.11025
 30
0.0
 11
127.332333
 21
398.11025
 31
0.0
  0
LINE
  8
1
  6
CONTINUOUS
 62
    52
  5
C2
 10
129.332333
 20
398.11025
 30
0.0
 11
143.832333
 21
398.11025
 31
0.0
  0
LINE
  8
1
  6
CONTINUOUS
 62
    52
  5
C3
 10
145.832333
 20
398.11025
 30
0.0
 11
160.332333
 21
398.11025
 31
0.0
  0
LINE
  8
1
  6
CONTINUOUS
 62
    52
  5
C4
 10
162.332333
 20
398.11025
 30
0.0
 11
176.832333
 21
398.11025
 31
0.0
  0
LINE
  8
1
  6
CONTINUOUS
 62
    52
  5
C5
 10
178.832333
 20
398.11025
 30
0.0
 11
193.332333
 21
398.11025
 31
0.0
  0
LINE
  8
1
  6
CONTINUOUS
 62
    52
  5
C6
 10
195.332333
 20
398.11025
 30
0.0
 11
209.832333
 21
398.11025
 31
0.0
  0
LINE
  8
1
  6
CONTINUOUS
 62
    52
  5
C7
 10
261.332333
 20
398.11025
 30
0.0
 11
276.082333
 21
398.11025
 31
0.0
  0
LINE
  8
1
  6
CONTINUOUS
 62
    52
  5
C8
 10
211.832333
 20
398.11025
 30
0.0
 11
226.332333
 21
398.11025
 31
0.0
  0
LINE
  8
1
  6
CONTINUOUS
 62
    52
  5
C9
 10
244.832333
 20
398.11025
 30
0.0
 11
259.332333
 21
398.11025
 31
0.0
  0
LINE
  8
1
  6
CONTINUOUS
 62
    52
  5
CA
 10
228.332333
 20
398.11025
 30
0.0
 11
242.832333
 21
398.11025
 31
0.0
  0
LINE
  8
1
  6
CONTINUOUS
 62
    52
  5
CB
 10
96.082333
 20
266.11025
 30
0.0
 11
110.832333
 21
266.11025
 31
0.0
  0
LINE
  8
1
  6
CONTINUOUS
 62
    52
  5
CC
 10
112.832333
 20
266.11025
 30
0.0
 11
127.332333
 21
266.11025
 31
0.0
  0
LINE
  8
1
  6
CONTINUOUS
 62
    52
  5
CD
 10
129.332333
 20
266.11025
 30
0.0
 11
143.832333
 21
266.11025
 31
0.0
  0
LINE
  8
1
  6
CONTINUOUS
 62
    52
  5
CE
 10
145.832333
 20
266.11025
 30
0.0
 11
160.332333
 21
266.11025
 31
0.0
  0
LINE
  8
1
  6
CONTINUOUS
 62
    52
  5
CF
 10
162.332333
 20
266.11025
 30
0.0
 11
176.832333
 21
266.11025
 31
0.0
  0
LINE
  8
1
  6
CONTINUOUS
 62
    52
  5
D0
 10
178.832333
 20
266.11025
 30
0.0
 11
193.332333
 21
266.11025
 31
0.0
  0
LINE
  8
1
  6
CONTINUOUS
 62
    52
  5
D1
 10
195.332333
 20
266.11025
 30
0.0
 11
209.832333
 21
266.11025
 31
0.0
  0
LINE
  8
1
  6
CONTINUOUS
 62
    52
  5
D2
 10
211.832333
 20
266.11025
 30
0.0
 11
226.332333
 21
266.11025
 31
0.0
  0
LINE
  8
1
  6
CONTINUOUS
 62
    52
  5
D3
 10
228.332333
 20
266.11025
 30
0.0
 11
242.832333
 21
266.11025
 31
0.0
  0
LINE
  8
1
  6
CONTINUOUS
 62
    52
  5
D4
 10
244.832333
 20
266.11025
 30
0.0
 11
259.332333
 21
266.11025
 31
0.0
  0
LINE
  8
1
  6
CONTINUOUS
 62
    52
  5
D5
 10
261.332333
 20
266.11025
 30
0.0
 11
276.082333
 21
266.11025
 31
0.0
  0
LINE
  8
1
  6
CONTINUOUS
 62
    52
  5
D6
 10
96.082333
 20
398.11025
 30
0.0
 11
96.082333
 21
382.61025
 31
0.0
  0
LINE
  8
1
  6
CONTINUOUS
 62
    52
  5
D7
 10
96.082333
 20
266.11025
 30
0.0
 11
96.082333
 21
281.61025
 31
0.0
  0
LINE
  8
1
  6
CONTINUOUS
 62
    52
  5
D8
 10
96.082333
 20
380.61025
 30
0.0
 11
96.082333
 21
366.11025
 31
0.0
  0
LINE
  8
1
  6
CONTINUOUS
 62
    52
  5
D9
 10
96.082333
 20
298.11025
 30
0.0
 11
96.082333
 21
283.61025
 31
0.0
  0
LINE
  8
1
  6
CONTINUOUS
 62
    52
  5
DA
 10
96.082333
 20
364.11025
 30
0.0
 11
96.082333
 21
349.61025
 31
0.0
  0
LINE
  8
1
  6
CONTINUOUS
 62
    52
  5
DB
 10
96.082333
 20
314.61025
 30
0.0
 11
96.082333
 21
300.11025
 31
0.0
  0
LINE
  8
1
  6
CONTINUOUS
 62
    52
  5
DC
 10
96.082333
 20
331.11025
 30
0.0
 11
96.082333
 21
316.61025
 31
0.0
  0
LINE
  8
1
  6
CONTINUOUS
 62
    52
  5
DD
 10
96.082333
 20
347.61025
 30
0.0
 11
96.082333
 21
333.11025
 31
0.0
  0
LINE
  8
1
  6
CONTINUOUS
 62
    52
  5
DE
 10
276.082333
 20
398.11025
 30
0.0
 11
276.082333
 21
382.61025
 31
0.0
  0
LINE
  8
1
  6
CONTINUOUS
 62
    52
  5
DF
 10
276.082333
 20
380.61025
 30
0.0
 11
276.082333
 21
366.11025
 31
0.0
  0
LINE
  8
1
  6
CONTINUOUS
 62
    52
  5
E0
 10
276.082333
 20
364.11025
 30
0.0
 11
276.082333
 21
349.61025
 31
0.0
  0
LINE
  8
1
  6
CONTINUOUS
 62
    52
  5
E1
 10
276.082333
 20
347.61025
 30
0.0
 11
276.082333
 21
333.11025
 31
0.0
  0
LINE
  8
1
  6
CONTINUOUS
 62
    52
  5
E2
 10
276.082333
 20
331.11025
 30
0.0
 11
276.082333
 21
316.61025
 31
0.0
  0
LINE
  8
1
  6
CONTINUOUS
 62
    52
  5
E3
 10
276.082333
 20
314.61025
 30
0.0
 11
276.082333
 21
300.11025
 31
0.0
  0
LINE
  8
1
  6
CONTINUOUS
 62
    52
  5
E4
 10
276.082333
 20
298.11025
 30
0.0
 11
276.082333
 21
283.61025
 31
0.0
  0
LINE
  8
1
  6
CONTINUOUS
 62
    52
  5
E5
 10
276.082333
 20
266.11025
 30
0.0
 11
276.082333
 21
281.61025
 31
0.0
  0
CIRCLE
  8
1
  6
CONTINUOUS
 62
    52
  5
E6
 10
96.082333
 20
398.11025
 30
0.0
 40
0.75
210
0.0
220
0.0
230
1.0
  0
CIRCLE
  8
1
  6
CONTINUOUS
 62
    52
  5
E7
 10
276.082333
 20
398.11025
 30
0.0
 40
0.75
210
0.0
220
0.0
230
1.0
  0
CIRCLE
  8
1
  6
CONTINUOUS
 62
    52
  5
E8
 10
276.082333
 20
266.11025
 30
0.0
 40
0.75
210
0.0
220
0.0
230
1.0
  0
CIRCLE
  8
1
  6
CONTINUOUS
 62
    52
  5
E9
 10
96.082333
 20
266.11025
 30
0.0
 40
0.75
210
0.0
220
0.0
230
1.0
  0
LINE
  8
1
  6
CONTINUOUS
 62
    52
  5
EA
 10
133.082333
 20
358.11025
 30
0.0
 11
183.082333
 21
358.11025
 31
0.0
  0
LINE
  8
1
  6
CONTINUOUS
 62
    52
  5
EB
 10
133.082333
 20
358.11025
 30
0.0
 11
133.082333
 21
312.61025
 31
0.0
  0
LINE
  8
1
  6
CONTINUOUS
 62
    52
  5
EC
 10
133.082333
 20
312.61025
 30
0.0
 11
183.082333
 21
312.61025
 31
0.0
  0
LINE
  8
1
  6
CONTINUOUS
 62
    52
  5
ED
 10
183.082333
 20
312.61025
 30
0.0
 11
183.082333
 21
358.11025
 31
0.0
  0
LINE
  8
1
  6
CONTINUOUS
 62
    52
  5
EE
 10
186.582333
 20
312.61025
 30
0.0
 11
186.582333
 21
348.11025
 31
0.0
  0
LINE
  8
1
  6
CONTINUOUS
 62
    52
  5
EF
 10
186.582333
 20
312.61025
 30
0.0
 11
238.082333
 21
312.61025
 31
0.0
  0
LINE
  8
1
  6
CONTINUOUS
 62
    52
  5
F0
 10
238.082333
 20
312.61025
 30
0.0
 11
238.082333
 21
348.11025
 31
0.0
  0
LINE
  8
1
  6
CONTINUOUS
 62
    52
  5
F1
 10
238.082333
 20
348.11025
 30
0.0
 11
186.582333
 21
348.11025
 31
0.0
  0
LINE
  8
1
  6
CONTINUOUS
 62
    52
  5
F2
 10
139.582333
 20
344.61025
 30
0.0
 11
176.582333
 21
344.61025
 31
0.0
  0
LINE
  8
1
  6
CONTINUOUS
 62
    52
  5
F3
 10
139.582333
 20
315.11025
 30
0.0
 11
176.582333
 21
315.11025
 31
0.0
  0
LINE
  8
1
  6
CONTINUOUS
 62
    52
  5
F4
 10
139.582333
 20
344.61025
 30
0.0
 11
139.582333
 21
315.11025
 31
0.0
  0
LINE
  8
1
  6
CONTINUOUS
 62
    52
  5
F5
 10
176.582333
 20
315.11025
 30
0.0
 11
176.582333
 21
344.61025
 31
0.0
  0
LINE
  8
1
  6
CONTINUOUS
 62
    52
  5
F6
 10
145.582333
 20
355.11025
 30
0.0
 11
170.582333
 21
355.11025
 31
0.0
  0
LINE
  8
1
  6
CONTINUOUS
 62
    52
  5
F7
 10
145.582333
 20
348.11025
 30
0.0
 11
170.582333
 21
348.11025
 31
0.0
  0
LINE
  8
1
  6
CONTINUOUS
 62
    52
  5
F8
 10
145.582333
 20
355.11025
 30
0.0
 11
145.582333
 21
348.11025
 31
0.0
  0
LINE
  8
1
  6
CONTINUOUS
 62
    52
  5
F9
 10
170.582333
 20
348.11025
 30
0.0
 11
170.582333
 21
355.11025
 31
0.0
  0
LINE
  8
1
  6
CONTINUOUS
 62
    52
  5
FA
 10
233.082333
 20
340.61025
 30
0.0
 11
191.582333
 21
340.61025
 31
0.0
  0
LINE
  8
1
  6
CONTINUOUS
 62
    52
  5
FB
 10
191.582333
 20
315.11025
 30
0.0
 11
233.082333
 21
315.11025
 31
0.0
  0
LINE
  8
1
  6
CONTINUOUS
 62
    52
  5
FC
 10
191.582333
 20
315.11025
 30
0.0
 11
191.582333
 21
340.61025
 31
0.0
  0
LINE
  8
1
  6
CONTINUOUS
 62
    52
  5
FD
 10
233.082333
 20
315.11025
 30
0.0
 11
233.082333
 21
340.61025
 31
0.0
  0
CIRCLE
  8
1
  6
CONTINUOUS
 62
    52
  5
FE
 10
229.082333
 20
319.11025
 30
0.0
 40
1.0
210
0.0
220
0.0
230
1.0
  0
LINE
  8
1
  6
DASHED
 62
    52
  5
FF
 10
213.082333
 20
328.61025
 30
0.0
 11
213.082333
 21
375.61025
 31
0.0
  0
LINE
  8
1
  6
DASHED
 62
    52
  5
100
 10
215.582333
 20
328.61025
 30
0.0
 11
215.582333
 21
375.61025
 31
0.0
  0
LINE
  8
1
  6
DASHED
 62
    52
  5
101
 10
217.082333
 20
328.61025
 30
0.0
 11
217.082333
 21
375.61025
 31
0.0
  0
LINE
  8
1
  6
DASHED
 62
    52
  5
102
 10
219.582333
 20
328.61025
 30
0.0
 11
219.582333
 21
375.61025
 31
0.0
  0
LINE
  8
1
  6
DASHED
 62
    52
  5
103
 10
221.082333
 20
328.61025
 30
0.0
 11
221.082333
 21
375.61025
 31
0.0
  0
LINE
  8
1
  6
DASHED
 62
    52
  5
104
 10
223.582333
 20
328.61025
 30
0.0
 11
223.582333
 21
375.61025
 31
0.0
  0
LINE
  8
1
  6
DASHED
 62
    52
  5
105
 10
225.082333
 20
328.61025
 30
0.0
 11
225.082333
 21
375.61025
 31
0.0
  0
LINE
  8
1
  6
DASHED
 62
    52
  5
106
 10
227.582333
 20
328.61025
 30
0.0
 11
227.582333
 21
375.61025
 31
0.0
  0
CIRCLE
  8
1
  6
DASHED
 62
    52
  5
107
 10
214.332333
 20
328.61025
 30
0.0
 40
1.25
210
0.0
220
0.0
230
1.0
  0
CIRCLE
  8
1
  6
DASHED
 62
    52
  5
108
 10
218.332333
 20
328.61025
 30
0.0
 40
1.25
210
0.0
220
0.0
230
1.0
  0
CIRCLE
  8
1
  6
DASHED
 62
    52
  5
109
 10
222.332333
 20
328.61025
 30
0.0
 40
1.25
210
0.0
220
0.0
230
1.0
  0
CIRCLE
  8
1
  6
DASHED
 62
    52
  5
10A
 10
226.332333
 20
328.61025
 30
0.0
 40
1.25
210
0.0
220
0.0
230
1.0
  0
ARC
  8
1
  6
CONTINUOUS
 62
    52
  5
10B
 10
213.707333
 20
375.255543
 30
0.0
 40
0.718639
 50
29.576294
 51
150.423708
210
0.0
220
0.0
230
1.0
  0
ARC
  8
1
  6
CONTINUOUS
 62
    52
  5
10C
 10
214.957333
 20
375.255543
 30
0.0
 40
0.718639
 50
29.576294
 51
150.423708
210
0.0
220
0.0
230
1.0
  0
ARC
  8
1
  6
CONTINUOUS
 62
    52
  5
10D
 10
214.957333
 20
375.964957
 30
0.0
 40
0.718639
 50
209.576292
 51
330.423706
210
0.0
220
0.0
230
1.0
  0
ARC
  8
1
  6
CONTINUOUS
 62
    52
  5
10E
 10
217.707333
 20
375.255543
 30
0.0
 40
0.718639
 50
29.576294
 51
150.423708
210
0.0
220
0.0
230
1.0
  0
ARC
  8
1
  6
CONTINUOUS
 62
    52
  5
10F
 10
218.957333
 20
375.255543
 30
0.0
 40
0.718639
 50
29.576294
 51
150.423708
210
0.0
220
0.0
230
1.0
  0
ARC
  8
1
  6
CONTINUOUS
 62
    52
  5
110
 10
218.957333
 20
375.964957
 30
0.0
 40
0.718639
 50
209.576292
 51
330.423706
210
0.0
220
0.0
230
1.0
  0
ARC
  8
1
  6
CONTINUOUS
 62
    52
  5
111
 10
221.707333
 20
375.255543
 30
0.0
 40
0.718639
 50
29.576294
 51
150.423708
210
0.0
220
0.0
230
1.0
  0
ARC
  8
1
  6
CONTINUOUS
 62
    52
  5
112
 10
222.957333
 20
375.255543
 30
0.0
 40
0.718639
 50
29.576294
 51
150.423708
210
0.0
220
0.0
230
1.0
  0
ARC
  8
1
  6
CONTINUOUS
 62
    52
  5
113
 10
222.957333
 20
375.964957
 30
0.0
 40
0.718639
 50
209.576292
 51
330.423706
210
0.0
220
0.0
230
1.0
  0
ARC
  8
1
  6
CONTINUOUS
 62
    52
  5
114
 10
225.707333
 20
375.255543
 30
0.0
 40
0.718639
 50
29.576294
 51
150.423708
210
0.0
220
0.0
230
1.0
  0
ARC
  8
1
  6
CONTINUOUS
 62
    52
  5
115
 10
226.957333
 20
375.255543
 30
0.0
 40
0.718639
 50
29.576294
 51
150.423708
210
0.0
220
0.0
230
1.0
  0
ARC
  8
1
  6
CONTINUOUS
 62
    52
  5
116
 10
226.957333
 20
375.964957
 30
0.0
 40
0.718639
 50
209.576292
 51
330.423706
210
0.0
220
0.0
230
1.0
  0
CIRCLE
  8
1
  6
DASHED
 62
    52
  5
117
 10
200.582333
 20
328.61025
 30
0.0
 40
1.0
210
0.0
220
0.0
230
1.0
  0
LINE
  8
1
  6
CONTINUOUS
 62
    52
  5
118
 10
153.582333
 20
352.11025
 30
0.0
 11
153.582333
 21
344.61025
 31
0.0
  0
LINE
  8
1
  6
CONTINUOUS
 62
    52
  5
119
 10
156.582333
 20
352.11025
 30
0.0
 11
156.582333
 21
344.61025
 31
0.0
  0
LINE
  8
1
  6
CONTINUOUS
 62
    52
  5
11A
 10
158.582333
 20
352.11025
 30
0.0
 11
158.582333
 21
344.61025
 31
0.0
  0
LINE
  8
1
  6
CONTINUOUS
 62
    52
  5
11B
 10
161.582333
 20
352.11025
 30
0.0
 11
161.582333
 21
344.61025
 31
0.0
  0
LINE
  8
1
  6
CONTINUOUS
 62
    52
  5
11C
 10
164.082333
 20
352.11025
 30
0.0
 11
164.082333
 21
344.61025
 31
0.0
  0
LINE
  8
1
  6
CONTINUOUS
 62
    52
  5
11D
 10
166.582333
 20
352.11025
 30
0.0
 11
166.582333
 21
344.61025
 31
0.0
  0
CIRCLE
  8
1
  6
DASHED
 62
    52
  5
11E
 10
155.082333
 20
352.11025
 30
0.0
 40
1.5
210
0.0
220
0.0
230
1.0
  0
CIRCLE
  8
1
  6
DASHED
 62
    52
  5
11F
 10
160.082333
 20
352.11025
 30
0.0
 40
1.5
210
0.0
220
0.0
230
1.0
  0
ARC
  8
1
  6
CONTINUOUS
 62
    52
  5
120
 10
165.332333
 20
352.17534
 30
0.0
 40
1.251694
 50
357.019192
 51
182.980806
210
0.0
220
0.0
230
1.0
  0
LINE
  8
1
  6
CONTINUOUS
 62
    52
  5
121
 10
153.582333
 20
344.11025
 30
0.0
 11
153.582333
 21
343.61025
 31
0.0
  0
LINE
  8
1
  6
CONTINUOUS
 62
    52
  5
122
 10
156.582333
 20
344.11025
 30
0.0
 11
156.582333
 21
343.61025
 31
0.0
  0
LINE
  8
1
  6
CONTINUOUS
 62
    52
  5
123
 10
158.582333
 20
344.11025
 30
0.0
 11
158.582333
 21
343.61025
 31
0.0
  0
LINE
  8
1
  6
CONTINUOUS
 62
    52
  5
124
 10
161.582333
 20
344.11025
 30
0.0
 11
161.582333
 21
343.61025
 31
0.0
  0
LINE
  8
1
  6
CONTINUOUS
 62
    52
  5
125
 10
164.082333
 20
344.11025
 30
0.0
 11
164.082333
 21
343.61025
 31
0.0
  0
LINE
  8
1
  6
CONTINUOUS
 62
    52
  5
126
 10
166.582333
 20
344.11025
 30
0.0
 11
166.582333
 21
343.61025
 31
0.0
  0
LINE
  8
1
  6
DASHED
 62
    52
  5
127
 10
153.332333
 20
343.61025
 30
0.0
 11
156.832333
 21
343.61025
 31
0.0
  0
LINE
  8
1
  6
DASHED
 62
    52
  5
128
 10
158.332333
 20
343.61025
 30
0.0
 11
161.832333
 21
343.61025
 31
0.0
  0
LINE
  8
1
  6
DASHED
 62
    52
  5
129
 10
163.832333
 20
343.61025
 30
0.0
 11
166.832333
 21
343.61025
 31
0.0
  0
LINE
  8
1
  6
DASHED
 62
    52
  5
12A
 10
153.332333
 20
342.61025
 30
0.0
 11
156.832333
 21
342.61025
 31
0.0
  0
LINE
  8
1
  6
DASHED
 62
    52
  5
12B
 10
158.332333
 20
342.61025
 30
0.0
 11
161.832333
 21
342.61025
 31
0.0
  0
LINE
  8
1
  6
DASHED
 62
    52
  5
12C
 10
163.832333
 20
342.61025
 30
0.0
 11
166.832333
 21
342.61025
 31
0.0
  0
LINE
  8
1
  6
DASHED
 62
    52
  5
12D
 10
153.332333
 20
343.61025
 30
0.0
 11
153.332333
 21
342.61025
 31
0.0
  0
LINE
  8
1
  6
DASHED
 62
    52
  5
12E
 10
156.832333
 20
343.61025
 30
0.0
 11
156.832333
 21
342.61025
 31
0.0
  0
LINE
  8
1
  6
DASHED
 62
    52
  5
12F
 10
158.332333
 20
343.61025
 30
0.0
 11
158.332333
 21
342.61025
 31
0.0
  0
LINE
  8
1
  6
DASHED
 62
    52
  5
130
 10
161.832333
 20
343.61025
 30
0.0
 11
161.832333
 21
342.61025
 31
0.0
  0
LINE
  8
1
  6
DASHED
 62
    52
  5
131
 10
163.832333
 20
343.61025
 30
0.0
 11
163.832333
 21
342.61025
 31
0.0
  0
LINE
  8
1
  6
DASHED
 62
    52
  5
132
 10
166.832333
 20
343.61025
 30
0.0
 11
166.832333
 21
342.61025
 31
0.0
  0
LINE
  8
1
  6
DASHED
 62
    52
  5
133
 10
166.013667
 20
353.154917
 30
0.0
 11
201.359917
 21
329.258833
 31
0.0
  0
LINE
  8
1
  6
DASHED
 62
    52
  5
134
 10
164.082333
 20
352.06625
 30
0.0
 11
200.248917
 21
327.615583
 31
0.0
  0
CIRCLE
  8
1
  6
CONTINUOUS
 62
    52
  5
135
 10
147.332333
 20
349.86025
 30
0.0
 40
0.75
210
0.0
220
0.0
230
1.0
  0
CIRCLE
  8
1
  6
CONTINUOUS
 62
    52
  5
136
 10
169.332333
 20
353.86025
 30
0.0
 40
0.75
210
0.0
220
0.0
230
1.0
  0
CIRCLE
  8
1
  6
CONTINUOUS
 62
    52
  5
137
 10
197.082333
 20
339.11025
 30
0.0
 40
0.75
210
0.0
220
0.0
230
1.0
  0
CIRCLE
  8
1
  6
CONTINUOUS
 62
    52
  5
138
 10
194.582333
 20
317.11025
 30
0.0
 40
0.75
210
0.0
220
0.0
230
1.0
  0
LINE
  8
1
  6
CONTINUOUS
 62
    52
  5
139
 10
197.082333
 20
339.11025
 30
0.0
 11
205.555167
 21
345.438
 31
0.0
  0
LINE
  8
1
  6
CONTINUOUS
 62
    52
  5
13A
 10
207.157583
 20
346.634833
 30
0.0
 11
215.6305
 21
352.962667
 31
0.0
  0
LINE
  8
1
  6
CONTINUOUS
 62
    52
  5
13B
 10
217.232917
 20
354.159417
 30
0.0
 11
225.70575
 21
360.48725
 31
0.0
  0
LINE
  8
1
  6
CONTINUOUS
 62
    52
  5
13C
 10
227.30825
 20
361.683917
 30
0.0
 11
235.781083
 21
368.011833
 31
0.0
  0
LINE
  8
1
  6
CONTINUOUS
 62
    52
  5
13D
 10
237.3835
 20
369.208583
 30
0.0
 11
245.856333
 21
375.536417
 31
0.0
  0
LINE
  8
1
  6
CONTINUOUS
 62
    52
  5
13E
 10
247.45875
 20
376.733167
 30
0.0
 11
255.931667
 21
383.061
 31
0.0
  0
LINE
  8
1
  6
CONTINUOUS
 62
    52
  5
13F
 10
257.534083
 20
384.25775
 30
0.0
 11
266.007
 21
390.585583
 31
0.0
  0
LINE
  8
1
  6
CONTINUOUS
 62
    52
  5
140
 10
267.609333
 20
391.78225
 30
0.0
 11
276.082333
 21
398.11025
 31
0.0
  0
LINE
  8
1
  6
CONTINUOUS
 62
    52
  5
141
 10
96.082333
 20
398.11025
 30
0.0
 11
103.740583
 21
393.48375
 31
0.0
  0
LINE
  8
1
  6
CONTINUOUS
 62
    52
  5
142
 10
105.4525
 20
392.449667
 30
0.0
 11
113.110833
 21
387.82325
 31
0.0
  0
LINE
  8
1
  6
CONTINUOUS
 62
    52
  5
143
 10
114.82275
 20
386.789167
 30
0.0
 11
122.481083
 21
382.162667
 31
0.0
  0
LINE
  8
1
  6
CONTINUOUS
 62
    52
  5
144
 10
124.192917
 20
381.128583
 30
0.0
 11
131.851333
 21
376.50225
 31
0.0
  0
LINE
  8
1
  6
CONTINUOUS
 62
    52
  5
145
 10
133.56325
 20
375.468167
 30
0.0
 11
141.2215
 21
370.841667
 31
0.0
  0
LINE
  8
1
  6
CONTINUOUS
 62
    52
  5
146
 10
142.9335
 20
369.807583
 30
0.0
 11
150.591833
 21
365.18125
 31
0.0
  0
LINE
  8
1
  6
CONTINUOUS
 62
    52
  5
147
 10
152.30375
 20
364.147083
 30
0.0
 11
159.962083
 21
359.520667
 31
0.0
  0
LINE
  8
1
  6
CONTINUOUS
 62
    52
  5
148
 10
161.674
 20
358.486583
 30
0.0
 11
169.332333
 21
353.86025
 31
0.0
  0
LINE
  8
1
  6
CONTINUOUS
 62
    52
  5
149
 10
194.582333
 20
317.11025
 30
0.0
 11
203.286333
 21
311.663417
 31
0.0
  0
LINE
  8
1
  6
CONTINUOUS
 62
    52
  5
14A
 10
204.98175
 20
310.602583
 30
0.0
 11
213.68575
 21
305.155917
 31
0.0
  0
LINE
  8
1
  6
CONTINUOUS
 62
    52
  5
14B
 10
215.381167
 20
304.094917
 30
0.0
 11
224.085167
 21
298.648167
 31
0.0
  0
LINE
  8
1
  6
CONTINUOUS
 62
    52
  5
14C
 10
225.780583
 20
297.58725
 30
0.0
 11
234.484583
 21
292.140667
 31
0.0
  0
LINE
  8
1
  6
CONTINUOUS
 62
    52
  5
14D
 10
236.18
 20
291.07975
 30
0.0
 11
244.884
 21
285.633
 31
0.0
  0
LINE
  8
1
  6
CONTINUOUS
 62
    52
  5
14E
 10
246.579417
 20
284.572083
 30
0.0
 11
255.283417
 21
279.125417
 31
0.0
  0
LINE
  8
1
  6
CONTINUOUS
 62
    52
  5
14F
 10
256.978833
 20
278.064417
 30
0.0
 11
265.682833
 21
272.61775
 31
0.0
  0
LINE
  8
1
  6
CONTINUOUS
 62
    52
  5
150
 10
267.37825
 20
271.556917
 30
0.0
 11
276.082333
 21
266.11025
 31
0.0
  0
LINE
  8
1
  6
CONTINUOUS
 62
    52
  5
151
 10
184.090333
 20
346.015833
 30
0.0
 11
188.820167
 21
343.50175
 31
0.0
  0
LINE
  8
1
  6
CONTINUOUS
 62
    52
  5
152
 10
191.469333
 20
342.093583
 30
0.0
 11
197.082333
 21
339.11025
 31
0.0
  0
LINE
  8
1
  6
CONTINUOUS
 62
    52
  5
153
 10
169.332333
 20
353.86025
 30
0.0
 11
174.94525
 21
350.87675
 31
0.0
  0
LINE
  8
1
  6
CONTINUOUS
 62
    52
  5
154
 10
176.711333
 20
349.938
 30
0.0
 11
182.32425
 21
346.954583
 31
0.0
  0
LINE
  8
1
  6
CONTINUOUS
 62
    52
  5
155
 10
197.082333
 20
339.11025
 30
0.0
 11
195.945167
 21
329.103833
 31
0.0
  0
LINE
  8
1
  6
CONTINUOUS
 62
    52
  5
156
 10
195.719417
 20
327.116583
 30
0.0
 11
194.582333
 21
317.11025
 31
0.0
  0
LINE
  8
1
  6
CONTINUOUS
 62
    52
  5
157
 10
147.332333
 20
349.86025
 30
0.0
 11
157.912
 21
342.527167
 31
0.0
  0
LINE
  8
1
  6
CONTINUOUS
 62
    52
  5
158
 10
159.55575
 20
341.387833
 30
0.0
 11
170.135417
 21
334.054833
 31
0.0
  0
LINE
  8
1
  6
CONTINUOUS
 62
    52
  5
159
 10
171.779167
 20
332.915583
 30
0.0
 11
182.358833
 21
325.5825
 31
0.0
  0
LINE
  8
1
  6
CONTINUOUS
 62
    52
  5
15A
 10
184.002583
 20
324.44325
 30
0.0
 11
194.582333
 21
317.11025
 31
0.0
  0
LINE
  8
1
  6
CONTINUOUS
 62
    52
  5
15B
 10
147.332333
 20
349.86025
 30
0.0
 11
135.30275
 21
330.202167
 31
0.0
  0
LINE
  8
1
  6
CONTINUOUS
 62
    52
  5
15C
 10
134.258833
 20
328.49625
 30
0.0
 11
122.22925
 21
308.838167
 31
0.0
  0
LINE
  8
1
  6
CONTINUOUS
 62
    52
  5
15D
 10
121.18525
 20
307.13225
 30
0.0
 11
109.15575
 21
287.474167
 31
0.0
  0
LINE
  8
1
  6
CONTINUOUS
 62
    52
  5
15E
 10
108.11175
 20
285.76825
 30
0.0
 11
96.082333
 21
266.11025
 31
0.0
  0
ARC
  8
1
  6
CONTINUOUS
 62
    52
  5
15F
 10
162.017504
 20
331.591809
 30
0.0
 40
23.439074
 50
117.912425
 51
128.794222
210
0.0
220
0.0
230
1.0
  0
ARC
  8
1
  6
CONTINUOUS
 62
    52
  5
160
 10
162.017504
 20
331.591809
 30
0.0
 40
23.439074
 50
102.750156
 51
112.847622
210
0.0
220
0.0
230
1.0
  0
ARC
  8
1
  6
CONTINUOUS
 62
    52
  5
161
 10
162.017504
 20
331.591809
 30
0.0
 40
23.439074
 50
87.762414
 51
97.859744
210
0.0
220
0.0
230
1.0
  0
ARC
  8
1
  6
CONTINUOUS
 62
    52
  5
162
 10
162.017504
 20
331.591809
 30
0.0
 40
23.439074
 50
71.815469
 51
82.697597
210
0.0
220
0.0
230
1.0
  0
LINE
  8
1
  6
DASHED
 62
    52
  5
163
 10
153.582333
 20
354.61025
 30
0.0
 11
153.582333
 21
374.11025
 31
0.0
  0
LINE
  8
1
  6
DASHED
 62
    52
  5
164
 10
156.582333
 20
354.61025
 30
0.0
 11
156.582333
 21
374.11025
 31
0.0
  0
LINE
  8
1
  6
DASHED
 62
    52
  5
165
 10
158.582333
 20
354.61025
 30
0.0
 11
158.582333
 21
374.11025
 31
0.0
  0
LINE
  8
1
  6
DASHED
 62
    52
  5
166
 10
161.582333
 20
354.61025
 30
0.0
 11
161.582333
 21
374.11025
 31
0.0
  0
ARC
  8
1
  6
CONTINUOUS
 62
    52
  5
167
 10
154.332333
 20
373.620983
 30
0.0
 40
0.895479
 50
33.118644
 51
146.881353
210
0.0
220
0.0
230
1.0
  0
ARC
  8
1
  6
CONTINUOUS
 62
    52
  5
168
 10
155.832333
 20
373.620983
 30
0.0
 40
0.895479
 50
33.118644
 51
146.881353
210
0.0
220
0.0
230
1.0
  0
ARC
  8
1
  6
CONTINUOUS
 62
    52
  5
169
 10
155.832333
 20
374.599517
 30
0.0
 40
0.895479
 50
213.118647
 51
326.881356
210
0.0
220
0.0
230
1.0
  0
ARC
  8
1
  6
CONTINUOUS
 62
    52
  5
16A
 10
159.332333
 20
373.620983
 30
0.0
 40
0.895479
 50
33.118644
 51
146.881353
210
0.0
220
0.0
230
1.0
  0
ARC
  8
1
  6
CONTINUOUS
 62
    52
  5
16B
 10
160.832333
 20
373.620983
 30
0.0
 40
0.895479
 50
33.118644
 51
146.881353
210
0.0
220
0.0
230
1.0
  0
ARC
  8
1
  6
CONTINUOUS
 62
    52
  5
16C
 10
160.832333
 20
374.599517
 30
0.0
 40
0.895479
 50
213.118647
 51
326.881356
210
0.0
220
0.0
230
1.0
  0
LINE
  8
1
  6
CONTINUOUS
 62
    52
  5
16D
 10
197.082333
 20
339.11025
 30
0.0
 11
206.582333
 21
351.11025
 31
0.0
  0
ARC
  8
1
  6
CONTINUOUS
 62
    52
  5
16E
 10
178.142144
 20
367.675009
 30
0.0
 40
33.070707
 50
332.900844
 51
5.092075
210
0.0
220
0.0
230
1.0
  0
POLYLINE
  8
1
  6
CONTINUOUS
 62
    52
  5
16F
 66
     1
 10
0.0
 20
0.0
 30
0.0
 70
     1
  0
VERTEX
  8
1
  6
CONTINUOUS
 62
    52
  5
170
 10
268.21275
 20
393.481
 30
0.0
  0
VERTEX
  8
1
  6
CONTINUOUS
 62
    52
  5
171
 10
269.815083
 20
394.67775
 30
0.0
  0
VERTEX
  8
1
  6
CONTINUOUS
 62
    52
  5
172
 10
271.011917
 20
393.075333
 30
0.0
  0
VERTEX
  8
1
  6
CONTINUOUS
 62
    52
  5
173
 10
269.409583
 20
391.878583
 30
0.0
  0
VERTEX
  8
1
  6
CONTINUOUS
 62
    52
  5
174
 10
268.21275
 20
393.481
 30
0.0
  0
SEQEND
  8
1
  6
CONTINUOUS
 62
    52
  5
175
  0
POLYLINE
  8
1
  6
CONTINUOUS
 62
    52
  5
176
 66
     1
 10
0.0
 20
0.0
 30
0.0
 70
     1
  0
VERTEX
  8
1
  6
CONTINUOUS
 62
    52
  5
177
 10
257.821
 20
378.127333
 30
0.0
  0
VERTEX
  8
1
  6
CONTINUOUS
 62
    52
  5
178
 10
259.02275
 20
379.024917
 30
0.0
  0
VERTEX
  8
1
  6
CONTINUOUS
 62
    52
  5
179
 10
259.621167
 20
378.223667
 30
0.0
  0
VERTEX
  8
1
  6
CONTINUOUS
 62
    52
  5
17A
 10
258.419417
 20
377.326083
 30
0.0
  0
VERTEX
  8
1
  6
CONTINUOUS
 62
    52
  5
17B
 10
257.821
 20
378.12725
 30
0.0
  0
VERTEX
  8
1
  6
CONTINUOUS
 62
    52
  5
17C
 10
257.821
 20
378.127333
 30
0.0
  0
SEQEND
  8
1
  6
CONTINUOUS
 62
    52
  5
17D
  0
POLYLINE
  8
1
  6
CONTINUOUS
 62
    52
  5
17E
 66
     1
 10
0.0
 20
0.0
 30
0.0
  0
VERTEX
  8
1
  6
CONTINUOUS
 62
    52
  5
17F
 10
257.885667
 20
377.593583
 30
0.0
  0
VERTEX
  8
1
  6
CONTINUOUS
 62
    52
  5
180
 10
258.120167
 20
377.697917
 30
0.0
  0
VERTEX
  8
1
  6
CONTINUOUS
 62
    52
  5
181
 10
258.328583
 20
377.802167
 30
0.0
  0
VERTEX
  8
1
  6
CONTINUOUS
 62
    52
  5
182
 10
258.484917
 20
377.906417
 30
0.0
  0
VERTEX
  8
1
  6
CONTINUOUS
 62
    52
  5
183
 10
258.615167
 20
378.03675
 30
0.0
  0
VERTEX
  8
1
  6
CONTINUOUS
 62
    52
  5
184
 10
258.7975
 20
378.219167
 30
0.0
  0
VERTEX
  8
1
  6
CONTINUOUS
 62
    52
  5
185
 10
258.953833
 20
378.375583
 30
0.0
  0
VERTEX
  8
1
  6
CONTINUOUS
 62
    52
  5
186
 10
259.058083
 20
378.505917
 30
0.0
  0
VERTEX
  8
1
  6
CONTINUOUS
 62
    52
  5
187
 10
259.188333
 20
378.688417
 30
0.0
  0
VERTEX
  8
1
  6
CONTINUOUS
 62
    52
  5
188
 10
259.344667
 20
378.870833
 30
0.0
  0
VERTEX
  8
1
  6
CONTINUOUS
 62
    52
  5
189
 10
259.527083
 20
379.053333
 30
0.0
  0
VERTEX
  8
1
  6
CONTINUOUS
 62
    52
  5
18A
 10
259.709417
 20
379.183667
 30
0.0
  0
VERTEX
  8
1
  6
CONTINUOUS
 62
    52
  5
18B
 10
259.86575
 20
379.34
 30
0.0
  0
VERTEX
  8
1
  6
CONTINUOUS
 62
    52
  5
18C
 10
260.12625
 20
379.470333
 30
0.0
  0
VERTEX
  8
1
  6
CONTINUOUS
 62
    52
  5
18D
 10
260.256583
 20
379.574583
 30
0.0
  0
VERTEX
  8
1
  6
CONTINUOUS
 62
    52
  5
18E
 10
260.412833
 20
379.678917
 30
0.0
  0
VERTEX
  8
1
  6
CONTINUOUS
 62
    52
  5
18F
 10
260.569167
 20
379.757083
 30
0.0
  0
VERTEX
  8
1
  6
CONTINUOUS
 62
    52
  5
190
 10
260.82975
 20
379.9135
 30
0.0
  0
VERTEX
  8
1
  6
CONTINUOUS
 62
    52
  5
191
 10
261.116333
 20
380.043833
 30
0.0
  0
VERTEX
  8
1
  6
CONTINUOUS
 62
    52
  5
192
 10
261.376833
 20
380.200167
 30
0.0
  0
VERTEX
  8
1
  6
CONTINUOUS
 62
    52
  5
193
 10
261.55925
 20
380.3305
 30
0.0
  0
VERTEX
  8
1
  6
CONTINUOUS
 62
    52
  5
194
 10
261.81975
 20
380.486917
 30
0.0
  0
VERTEX
  8
1
  6
CONTINUOUS
 62
    52
  5
195
 10
262.132417
 20
380.669417
 30
0.0
  0
VERTEX
  8
1
  6
CONTINUOUS
 62
    52
  5
196
 10
262.393
 20
380.877917
 30
0.0
  0
VERTEX
  8
1
  6
CONTINUOUS
 62
    52
  5
197
 10
262.705583
 20
381.1125
 30
0.0
  0
VERTEX
  8
1
  6
CONTINUOUS
 62
    52
  5
198
 10
262.966167
 20
381.294917
 30
0.0
  0
VERTEX
  8
1
  6
CONTINUOUS
 62
    52
  5
199
 10
263.096417
 20
381.39925
 30
0.0
  0
VERTEX
  8
1
  6
CONTINUOUS
 62
    52
  5
19A
 10
263.25275
 20
381.5035
 30
0.0
  0
VERTEX
  8
1
  6
CONTINUOUS
 62
    52
  5
19B
 10
263.461167
 20
381.685917
 30
0.0
  0
VERTEX
  8
1
  6
CONTINUOUS
 62
    52
  5
19C
 10
263.591417
 20
381.790167
 30
0.0
  0
VERTEX
  8
1
  6
CONTINUOUS
 62
    52
  5
19D
 10
263.773833
 20
381.868417
 30
0.0
  0
VERTEX
  8
1
  6
CONTINUOUS
 62
    52
  5
19E
 10
263.98225
 20
382.050833
 30
0.0
  0
VERTEX
  8
1
  6
CONTINUOUS
 62
    52
  5
19F
 10
264.138583
 20
382.155083
 30
0.0
  0
VERTEX
  8
1
  6
CONTINUOUS
 62
    52
  5
1A0
 10
264.320917
 20
382.285417
 30
0.0
  0
VERTEX
  8
1
  6
CONTINUOUS
 62
    52
  5
1A1
 10
264.45125
 20
382.38975
 30
0.0
  0
VERTEX
  8
1
  6
CONTINUOUS
 62
    52
  5
1A2
 10
264.607583
 20
382.546083
 30
0.0
  0
VERTEX
  8
1
  6
CONTINUOUS
 62
    52
  5
1A3
 10
264.763833
 20
382.650333
 30
0.0
  0
VERTEX
  8
1
  6
CONTINUOUS
 62
    52
  5
1A4
 10
264.998333
 20
382.80675
 30
0.0
  0
VERTEX
  8
1
  6
CONTINUOUS
 62
    52
  5
1A5
 10
265.154667
 20
382.911
 30
0.0
  0
VERTEX
  8
1
  6
CONTINUOUS
 62
    52
  5
1A6
 10
265.337083
 20
383.067417
 30
0.0
  0
VERTEX
  8
1
  6
CONTINUOUS
 62
    52
  5
1A7
 10
265.5455
 20
383.171667
 30
0.0
  0
VERTEX
  8
1
  6
CONTINUOUS
 62
    52
  5
1A8
 10
265.753917
 20
383.302
 30
0.0
  0
VERTEX
  8
1
  6
CONTINUOUS
 62
    52
  5
1A9
 10
266.0145
 20
383.458417
 30
0.0
  0
VERTEX
  8
1
  6
CONTINUOUS
 62
    52
  5
1AA
 10
266.222917
 20
383.58875
 30
0.0
  0
VERTEX
  8
1
  6
CONTINUOUS
 62
    52
  5
1AB
 10
266.457333
 20
383.719083
 30
0.0
  0
VERTEX
  8
1
  6
CONTINUOUS
 62
    52
  5
1AC
 10
266.63975
 20
383.8755
 30
0.0
  0
VERTEX
  8
1
  6
CONTINUOUS
 62
    52
  5
1AD
 10
266.87425
 20
384.005833
 30
0.0
  0
VERTEX
  8
1
  6
CONTINUOUS
 62
    52
  5
1AE
 10
267.13475
 20
384.136083
 30
0.0
  0
VERTEX
  8
1
  6
CONTINUOUS
 62
    52
  5
1AF
 10
267.317167
 20
384.240417
 30
0.0
  0
VERTEX
  8
1
  6
CONTINUOUS
 62
    52
  5
1B0
 10
267.4995
 20
384.344667
 30
0.0
  0
VERTEX
  8
1
  6
CONTINUOUS
 62
    52
  5
1B1
 10
267.708
 20
384.501083
 30
0.0
  0
VERTEX
  8
1
  6
CONTINUOUS
 62
    52
  5
1B2
 10
267.890333
 20
384.605333
 30
0.0
  0
VERTEX
  8
1
  6
CONTINUOUS
 62
    52
  5
1B3
 10
268.046667
 20
384.709583
 30
0.0
  0
VERTEX
  8
1
  6
CONTINUOUS
 62
    52
  5
1B4
 10
268.118833
 20
384.75775
 30
0.0
  0
SEQEND
  8
1
  6
CONTINUOUS
 62
    52
  5
1B5
  0
POLYLINE
  8
1
  6
CONTINUOUS
 62
    52
  5
1B6
 66
     1
 10
0.0
 20
0.0
 30
0.0
  0
VERTEX
  8
1
  6
CONTINUOUS
 62
    52
  5
1B7
 10
267.8135
 20
384.534
 30
0.0
  0
VERTEX
  8
1
  6
CONTINUOUS
 62
    52
  5
1B8
 10
267.921083
 20
384.6205
 30
0.0
  0
VERTEX
  8
1
  6
CONTINUOUS
 62
    52
  5
1B9
 10
268.1295
 20
384.776917
 30
0.0
  0
VERTEX
  8
1
  6
CONTINUOUS
 62
    52
  5
1BA
 10
268.285833
 20
384.90725
 30
0.0
  0
VERTEX
  8
1
  6
CONTINUOUS
 62
    52
  5
1BB
 10
268.442167
 20
385.037583
 30
0.0
  0
VERTEX
  8
1
  6
CONTINUOUS
 62
    52
  5
1BC
 10
268.624583
 20
385.194
 30
0.0
  0
VERTEX
  8
1
  6
CONTINUOUS
 62
    52
  5
1BD
 10
268.833
 20
385.350333
 30
0.0
  0
VERTEX
  8
1
  6
CONTINUOUS
 62
    52
  5
1BE
 10
268.989333
 20
385.454583
 30
0.0
  0
VERTEX
  8
1
  6
CONTINUOUS
 62
    52
  5
1BF
 10
269.171667
 20
385.584917
 30
0.0
  0
VERTEX
  8
1
  6
CONTINUOUS
 62
    52
  5
1C0
 10
269.43225
 20
385.741333
 30
0.0
  0
VERTEX
  8
1
  6
CONTINUOUS
 62
    52
  5
1C1
 10
269.5885
 20
385.845583
 30
0.0
  0
VERTEX
  8
1
  6
CONTINUOUS
 62
    52
  5
1C2
 10
269.69275
 20
385.975917
 30
0.0
  0
VERTEX
  8
1
  6
CONTINUOUS
 62
    52
  5
1C3
 10
269.797
 20
386.10625
 30
0.0
  0
VERTEX
  8
1
  6
CONTINUOUS
 62
    52
  5
1C4
 10
269.953333
 20
386.28875
 30
0.0
  0
VERTEX
  8
1
  6
CONTINUOUS
 62
    52
  5
1C5
 10
270.083583
 20
386.445083
 30
0.0
  0
VERTEX
  8
1
  6
CONTINUOUS
 62
    52
  5
1C6
 10
270.18775
 20
386.575417
 30
0.0
  0
VERTEX
  8
1
  6
CONTINUOUS
 62
    52
  5
1C7
 10
270.370167
 20
386.862167
 30
0.0
  0
VERTEX
  8
1
  6
CONTINUOUS
 62
    52
  5
1C8
 10
270.474333
 20
387.070667
 30
0.0
  0
VERTEX
  8
1
  6
CONTINUOUS
 62
    52
  5
1C9
 10
270.604667
 20
387.27925
 30
0.0
  0
VERTEX
  8
1
  6
CONTINUOUS
 62
    52
  5
1CA
 10
270.682833
 20
387.461667
 30
0.0
  0
VERTEX
  8
1
  6
CONTINUOUS
 62
    52
  5
1CB
 10
270.761
 20
387.69625
 30
0.0
  0
VERTEX
  8
1
  6
CONTINUOUS
 62
    52
  5
1CC
 10
270.787
 20
387.930833
 30
0.0
  0
VERTEX
  8
1
  6
CONTINUOUS
 62
    52
  5
1CD
 10
270.787
 20
388.139417
 30
0.0
  0
VERTEX
  8
1
  6
CONTINUOUS
 62
    52
  5
1CE
 10
270.761
 20
388.374
 30
0.0
  0
VERTEX
  8
1
  6
CONTINUOUS
 62
    52
  5
1CF
 10
270.65675
 20
388.634667
 30
0.0
  0
VERTEX
  8
1
  6
CONTINUOUS
 62
    52
  5
1D0
 10
270.474333
 20
388.895333
 30
0.0
  0
VERTEX
  8
1
  6
CONTINUOUS
 62
    52
  5
1D1
 10
270.265917
 20
389.025667
 30
0.0
  0
VERTEX
  8
1
  6
CONTINUOUS
 62
    52
  5
1D2
 10
270.109583
 20
389.129917
 30
0.0
  0
VERTEX
  8
1
  6
CONTINUOUS
 62
    52
  5
1D3
 10
269.875167
 20
389.156
 30
0.0
  0
VERTEX
  8
1
  6
CONTINUOUS
 62
    52
  5
1D4
 10
269.5625
 20
389.182
 30
0.0
  0
VERTEX
  8
1
  6
CONTINUOUS
 62
    52
  5
1D5
 10
269.19775
 20
389.182
 30
0.0
  0
VERTEX
  8
1
  6
CONTINUOUS
 62
    52
  5
1D6
 10
268.96325
 20
389.156
 30
0.0
  0
SEQEND
  8
1
  6
CONTINUOUS
 62
    52
  5
1D7
  0
POLYLINE
  8
1
  6
CONTINUOUS
 62
    52
  5
1D8
 66
     1
 10
0.0
 20
0.0
 30
0.0
  0
VERTEX
  8
1
  6
CONTINUOUS
 62
    52
  5
1D9
 10
268.96325
 20
389.156
 30
0.0
  0
VERTEX
  8
1
  6
CONTINUOUS
 62
    52
  5
1DA
 10
268.856354
 20
389.141239
 30
0.0
  0
VERTEX
  8
1
  6
CONTINUOUS
 62
    52
  5
1DB
 10
268.821121
 20
389.134671
 30
0.0
  0
VERTEX
  8
1
  6
CONTINUOUS
 62
    52
  5
1DC
 10
268.803749
 20
389.130664
 30
0.0
  0
VERTEX
  8
1
  6
CONTINUOUS
 62
    52
  5
1DD
 10
268.76968
 20
389.120747
 30
0.0
  0
VERTEX
  8
1
  6
CONTINUOUS
 62
    52
  5
1DE
 10
268.753059
 20
389.114653
 30
0.0
  0
VERTEX
  8
1
  6
CONTINUOUS
 62
    52
  5
1DF
 10
268.72875
 20
389.103833
 30
0.0
  0
VERTEX
  8
1
  6
CONTINUOUS
 62
    52
  5
1E0
 10
268.572417
 20
389.025667
 30
0.0
  0
VERTEX
  8
1
  6
CONTINUOUS
 62
    52
  5
1E1
 10
268.364
 20
388.921333
 30
0.0
  0
VERTEX
  8
1
  6
CONTINUOUS
 62
    52
  5
1E2
 10
268.337391
 20
388.906689
 30
0.0
  0
VERTEX
  8
1
  6
CONTINUOUS
 62
    52
  5
1E3
 10
268.320202
 20
388.895939
 30
0.0
  0
VERTEX
  8
1
  6
CONTINUOUS
 62
    52
  5
1E4
 10
268.286917
 20
388.87275
 30
0.0
  0
SEQEND
  8
1
  6
CONTINUOUS
 62
    52
  5
1E5
  0
POLYLINE
  8
1
  6
CONTINUOUS
 62
    52
  5
1E6
 66
     1
 10
0.0
 20
0.0
 30
0.0
  0
VERTEX
  8
1
  6
CONTINUOUS
 62
    52
  5
1E7
 10
268.437583
 20
388.958167
 30
0.0
  0
VERTEX
  8
1
  6
CONTINUOUS
 62
    52
  5
1E8
 10
268.229
 20
388.854
 30
0.0
  0
VERTEX
  8
1
  6
CONTINUOUS
 62
    52
  5
1E9
 10
268.046667
 20
388.74975
 30
0.0
  0
VERTEX
  8
1
  6
CONTINUOUS
 62
    52
  5
1EA
 10
267.890333
 20
388.6455
 30
0.0
  0
VERTEX
  8
1
  6
CONTINUOUS
 62
    52
  5
1EB
 10
267.760083
 20
388.515167
 30
0.0
  0
VERTEX
  8
1
  6
CONTINUOUS
 62
    52
  5
1EC
 10
267.577667
 20
388.410917
 30
0.0
  0
VERTEX
  8
1
  6
CONTINUOUS
 62
    52
  5
1ED
 10
267.36925
 20
388.35875
 30
0.0
  0
VERTEX
  8
1
  6
CONTINUOUS
 62
    52
  5
1EE
 10
267.160833
 20
388.33275
 30
0.0
  0
VERTEX
  8
1
  6
CONTINUOUS
 62
    52
  5
1EF
 10
266.926333
 20
388.33275
 30
0.0
  0
VERTEX
  8
1
  6
CONTINUOUS
 62
    52
  5
1F0
 10
266.665833
 20
388.410917
 30
0.0
  0
VERTEX
  8
1
  6
CONTINUOUS
 62
    52
  5
1F1
 10
266.483417
 20
388.54125
 30
0.0
  0
VERTEX
  8
1
  6
CONTINUOUS
 62
    52
  5
1F2
 10
266.353167
 20
388.697667
 30
0.0
  0
VERTEX
  8
1
  6
CONTINUOUS
 62
    52
  5
1F3
 10
266.248917
 20
388.854
 30
0.0
  0
VERTEX
  8
1
  6
CONTINUOUS
 62
    52
  5
1F4
 10
266.248917
 20
389.114667
 30
0.0
  0
VERTEX
  8
1
  6
CONTINUOUS
 62
    52
  5
1F5
 10
266.40525
 20
389.401417
 30
0.0
  0
VERTEX
  8
1
  6
CONTINUOUS
 62
    52
  5
1F6
 10
266.561583
 20
389.583833
 30
0.0
  0
VERTEX
  8
1
  6
CONTINUOUS
 62
    52
  5
1F7
 10
266.665833
 20
389.714167
 30
0.0
  0
VERTEX
  8
1
  6
CONTINUOUS
 62
    52
  5
1F8
 10
266.87425
 20
389.870583
 30
0.0
  0
VERTEX
  8
1
  6
CONTINUOUS
 62
    52
  5
1F9
 10
266.978417
 20
390.000917
 30
0.0
  0
VERTEX
  8
1
  6
CONTINUOUS
 62
    52
  5
1FA
 10
267.186917
 20
390.183417
 30
0.0
  0
VERTEX
  8
1
  6
CONTINUOUS
 62
    52
  5
1FB
 10
267.317167
 20
390.365833
 30
0.0
  0
VERTEX
  8
1
  6
CONTINUOUS
 62
    52
  5
1FC
 10
267.4995
 20
390.548333
 30
0.0
  0
VERTEX
  8
1
  6
CONTINUOUS
 62
    52
  5
1FD
 10
267.681917
 20
390.73075
 30
0.0
  0
VERTEX
  8
1
  6
CONTINUOUS
 62
    52
  5
1FE
 10
267.83825
 20
390.887167
 30
0.0
  0
VERTEX
  8
1
  6
CONTINUOUS
 62
    52
  5
1FF
 10
268.020583
 20
391.095667
 30
0.0
  0
VERTEX
  8
1
  6
CONTINUOUS
 62
    52
  5
200
 10
268.203
 20
391.252083
 30
0.0
  0
VERTEX
  8
1
  6
CONTINUOUS
 62
    52
  5
201
 10
268.33325
 20
391.382417
 30
0.0
  0
VERTEX
  8
1
  6
CONTINUOUS
 62
    52
  5
202
 10
268.541667
 20
391.564833
 30
0.0
  0
VERTEX
  8
1
  6
CONTINUOUS
 62
    52
  5
203
 10
268.698
 20
391.72125
 30
0.0
  0
VERTEX
  8
1
  6
CONTINUOUS
 62
    52
  5
204
 10
268.854333
 20
391.92975
 30
0.0
  0
VERTEX
  8
1
  6
CONTINUOUS
 62
    52
  5
205
 10
268.958583
 20
392.086167
 30
0.0
  0
VERTEX
  8
1
  6
CONTINUOUS
 62
    52
  5
206
 10
269.06275
 20
392.2165
 30
0.0
  0
VERTEX
  8
1
  6
CONTINUOUS
 62
    52
  5
207
 10
269.245167
 20
392.425
 30
0.0
  0
VERTEX
  8
1
  6
CONTINUOUS
 62
    52
  5
208
 10
269.4275
 20
392.555333
 30
0.0
  0
VERTEX
  8
1
  6
CONTINUOUS
 62
    52
  5
209
 10
269.662
 20
392.659667
 30
0.0
  0
VERTEX
  8
1
  6
CONTINUOUS
 62
    52
  5
20A
 10
269.844417
 20
392.763917
 30
0.0
  0
VERTEX
  8
1
  6
CONTINUOUS
 62
    52
  5
20B
 10
270.078833
 20
392.946333
 30
0.0
  0
VERTEX
  8
1
  6
CONTINUOUS
 62
    52
  5
20C
 10
270.287333
 20
393.128833
 30
0.0
  0
VERTEX
  8
1
  6
CONTINUOUS
 62
    52
  5
20D
 10
270.547833
 20
393.233083
 30
0.0
  0
VERTEX
  8
1
  6
CONTINUOUS
 62
    52
  5
20E
 10
270.782333
 20
393.31125
 30
0.0
  0
VERTEX
  8
1
  6
CONTINUOUS
 62
    52
  5
20F
 10
270.964667
 20
393.4155
 30
0.0
  0
VERTEX
  8
1
  6
CONTINUOUS
 62
    52
  5
210
 10
271.121
 20
393.545833
 30
0.0
  0
VERTEX
  8
1
  6
CONTINUOUS
 62
    52
  5
211
 10
271.173167
 20
393.571917
 30
0.0
  0
SEQEND
  8
1
  6
CONTINUOUS
 62
    52
  5
212
  0
POLYLINE
  8
1
  6
CONTINUOUS
 62
    52
  5
213
 66
     1
 10
0.0
 20
0.0
 30
0.0
  0
VERTEX
  8
1
  6
CONTINUOUS
 62
    52
  5
214
 10
116.617917
 20
286.778167
 30
0.0
  0
VERTEX
  8
1
  6
CONTINUOUS
 62
    52
  5
215
 10
116.512417
 20
286.544333
 30
0.0
  0
VERTEX
  8
1
  6
CONTINUOUS
 62
    52
  5
216
 10
116.406917
 20
286.336417
 30
0.0
  0
VERTEX
  8
1
  6
CONTINUOUS
 62
    52
  5
217
 10
116.301833
 20
286.180667
 30
0.0
  0
VERTEX
  8
1
  6
CONTINUOUS
 62
    52
  5
218
 10
116.170667
 20
286.05125
 30
0.0
  0
VERTEX
  8
1
  6
CONTINUOUS
 62
    52
  5
219
 10
115.98725
 20
285.87
 30
0.0
  0
VERTEX
  8
1
  6
CONTINUOUS
 62
    52
  5
21A
 10
115.829917
 20
285.7145
 30
0.0
  0
VERTEX
  8
1
  6
CONTINUOUS
 62
    52
  5
21B
 10
115.699083
 20
285.611
 30
0.0
  0
VERTEX
  8
1
  6
CONTINUOUS
 62
    52
  5
21C
 10
115.515833
 20
285.481833
 30
0.0
  0
VERTEX
  8
1
  6
CONTINUOUS
 62
    52
  5
21D
 10
115.332417
 20
285.3265
 30
0.0
  0
VERTEX
  8
1
  6
CONTINUOUS
 62
    52
  5
21E
 10
115.149
 20
285.145167
 30
0.0
  0
VERTEX
  8
1
  6
CONTINUOUS
 62
    52
  5
21F
 10
115.017667
 20
284.9635
 30
0.0
  0
VERTEX
  8
1
  6
CONTINUOUS
 62
    52
  5
220
 10
114.860333
 20
284.808167
 30
0.0
  0
VERTEX
  8
1
  6
CONTINUOUS
 62
    52
  5
221
 10
114.728583
 20
284.548333
 30
0.0
  0
VERTEX
  8
1
  6
CONTINUOUS
 62
    52
  5
222
 10
114.623583
 20
284.418667
 30
0.0
  0
VERTEX
  8
1
  6
CONTINUOUS
 62
    52
  5
223
 10
114.51825
 20
284.262917
 30
0.0
  0
VERTEX
  8
1
  6
CONTINUOUS
 62
    52
  5
224
 10
114.43925
 20
284.107083
 30
0.0
  0
VERTEX
  8
1
  6
CONTINUOUS
 62
    52
  5
225
 10
114.281333
 20
283.847333
 30
0.0
  0
VERTEX
  8
1
  6
CONTINUOUS
 62
    52
  5
226
 10
114.1495
 20
283.561583
 30
0.0
  0
VERTEX
  8
1
  6
CONTINUOUS
 62
    52
  5
227
 10
113.991583
 20
283.301917
 30
0.0
  0
VERTEX
  8
1
  6
CONTINUOUS
 62
    52
  5
228
 10
113.86025
 20
283.12025
 30
0.0
  0
VERTEX
  8
1
  6
CONTINUOUS
 62
    52
  5
229
 10
113.70225
 20
282.860667
 30
0.0
  0
VERTEX
  8
1
  6
CONTINUOUS
 62
    52
  5
22A
 10
113.518
 20
282.549083
 30
0.0
  0
VERTEX
  8
1
  6
CONTINUOUS
 62
    52
  5
22B
 10
113.308083
 20
282.28975
 30
0.0
  0
VERTEX
  8
1
  6
CONTINUOUS
 62
    52
  5
22C
 10
113.071667
 20
281.978333
 30
0.0
  0
VERTEX
  8
1
  6
CONTINUOUS
 62
    52
  5
22D
 10
112.887833
 20
281.718917
 30
0.0
  0
VERTEX
  8
1
  6
CONTINUOUS
 62
    52
  5
22E
 10
112.782667
 20
281.58925
 30
0.0
  0
VERTEX
  8
1
  6
CONTINUOUS
 62
    52
  5
22F
 10
112.6775
 20
281.433417
 30
0.0
  0
VERTEX
  8
1
  6
CONTINUOUS
 62
    52
  5
230
 10
112.494
 20
281.226167
 30
0.0
  0
VERTEX
  8
1
  6
CONTINUOUS
 62
    52
  5
231
 10
112.389
 20
281.096417
 30
0.0
  0
VERTEX
  8
1
  6
CONTINUOUS
 62
    52
  5
232
 10
112.30975
 20
280.9145
 30
0.0
  0
VERTEX
  8
1
  6
CONTINUOUS
 62
    52
  5
233
 10
112.126
 20
280.707167
 30
0.0
  0
VERTEX
  8
1
  6
CONTINUOUS
 62
    52
  5
234
 10
112.020917
 20
280.551417
 30
0.0
  0
VERTEX
  8
1
  6
CONTINUOUS
 62
    52
  5
235
 10
111.889583
 20
280.36975
 30
0.0
  0
VERTEX
  8
1
  6
CONTINUOUS
 62
    52
  5
236
 10
111.7845
 20
280.240083
 30
0.0
  0
VERTEX
  8
1
  6
CONTINUOUS
 62
    52
  5
237
 10
111.62725
 20
280.084583
 30
0.0
  0
VERTEX
  8
1
  6
CONTINUOUS
 62
    52
  5
238
 10
111.522083
 20
279.928917
 30
0.0
  0
VERTEX
  8
1
  6
CONTINUOUS
 62
    52
  5
239
 10
111.364417
 20
279.695333
 30
0.0
  0
VERTEX
  8
1
  6
CONTINUOUS
 62
    52
  5
23A
 10
111.25925
 20
279.539583
 30
0.0
  0
VERTEX
  8
1
  6
CONTINUOUS
 62
    52
  5
23B
 10
111.10175
 20
279.358167
 30
0.0
  0
VERTEX
  8
1
  6
CONTINUOUS
 62
    52
  5
23C
 10
110.996333
 20
279.150333
 30
0.0
  0
VERTEX
  8
1
  6
CONTINUOUS
 62
    52
  5
23D
 10
110.864833
 20
278.942667
 30
0.0
  0
VERTEX
  8
1
  6
CONTINUOUS
 62
    52
  5
23E
 10
110.706917
 20
278.682917
 30
0.0
  0
VERTEX
  8
1
  6
CONTINUOUS
 62
    52
  5
23F
 10
110.575333
 20
278.47525
 30
0.0
  0
VERTEX
  8
1
  6
CONTINUOUS
 62
    52
  5
240
 10
110.44375
 20
278.241583
 30
0.0
  0
VERTEX
  8
1
  6
CONTINUOUS
 62
    52
  5
241
 10
110.286333
 20
278.06
 30
0.0
  0
VERTEX
  8
1
  6
CONTINUOUS
 62
    52
  5
242
 10
110.154583
 20
277.826333
 30
0.0
  0
VERTEX
  8
1
  6
CONTINUOUS
 62
    52
  5
243
 10
110.022833
 20
277.5665
 30
0.0
  0
VERTEX
  8
1
  6
CONTINUOUS
 62
    52
  5
244
 10
109.9175
 20
277.384667
 30
0.0
  0
VERTEX
  8
1
  6
CONTINUOUS
 62
    52
  5
245
 10
109.812167
 20
277.203
 30
0.0
  0
VERTEX
  8
1
  6
CONTINUOUS
 62
    52
  5
246
 10
109.654667
 20
276.995333
 30
0.0
  0
VERTEX
  8
1
  6
CONTINUOUS
 62
    52
  5
247
 10
109.549417
 20
276.813667
 30
0.0
  0
VERTEX
  8
1
  6
CONTINUOUS
 62
    52
  5
248
 10
109.44425
 20
276.657917
 30
0.0
  0
VERTEX
  8
1
  6
CONTINUOUS
 62
    52
  5
249
 10
109.395583
 20
276.586083
 30
0.0
  0
SEQEND
  8
1
  6
CONTINUOUS
 62
    52
  5
24A
  0
POLYLINE
  8
1
  6
CONTINUOUS
 62
    52
  5
24B
 66
     1
 10
0.0
 20
0.0
 30
0.0
 70
     1
  0
VERTEX
  8
1
  6
CONTINUOUS
 62
    52
  5
24C
 10
101.663417
 20
272.251083
 30
0.0
  0
VERTEX
  8
1
  6
CONTINUOUS
 62
    52
  5
24D
 10
100.437583
 20
270.670917
 30
0.0
  0
VERTEX
  8
1
  6
CONTINUOUS
 62
    52
  5
24E
 10
98.857333
 20
271.89675
 30
0.0
  0
VERTEX
  8
1
  6
CONTINUOUS
 62
    52
  5
24F
 10
100.083083
 20
273.477
 30
0.0
  0
VERTEX
  8
1
  6
CONTINUOUS
 62
    52
  5
250
 10
101.663417
 20
272.251083
 30
0.0
  0
SEQEND
  8
1
  6
CONTINUOUS
 62
    52
  5
251
  0
POLYLINE
  8
1
  6
CONTINUOUS
 62
    52
  5
252
 66
     1
 10
0.0
 20
0.0
 30
0.0
 70
     1
  0
VERTEX
  8
1
  6
CONTINUOUS
 62
    52
  5
253
 10
116.932083
 20
286.3665
 30
0.0
  0
VERTEX
  8
1
  6
CONTINUOUS
 62
    52
  5
254
 10
116.01275
 20
285.181333
 30
0.0
  0
VERTEX
  8
1
  6
CONTINUOUS
 62
    52
  5
255
 10
115.222583
 20
285.794333
 30
0.0
  0
VERTEX
  8
1
  6
CONTINUOUS
 62
    52
  5
256
 10
116.141917
 20
286.9795
 30
0.0
  0
VERTEX
  8
1
  6
CONTINUOUS
 62
    52
  5
257
 10
116.932083
 20
286.366583
 30
0.0
  0
VERTEX
  8
1
  6
CONTINUOUS
 62
    52
  5
258
 10
116.932083
 20
286.3665
 30
0.0
  0
SEQEND
  8
1
  6
CONTINUOUS
 62
    52
  5
259
  0
POLYLINE
  8
1
  6
CONTINUOUS
 62
    52
  5
25A
 66
     1
 10
0.0
 20
0.0
 30
0.0
  0
VERTEX
  8
1
  6
CONTINUOUS
 62
    52
  5
25B
 10
109.621167
 20
276.890083
 30
0.0
  0
VERTEX
  8
1
  6
CONTINUOUS
 62
    52
  5
25C
 10
109.534
 20
276.783
 30
0.0
  0
VERTEX
  8
1
  6
CONTINUOUS
 62
    52
  5
25D
 10
109.376333
 20
276.575417
 30
0.0
  0
VERTEX
  8
1
  6
CONTINUOUS
 62
    52
  5
25E
 10
109.245167
 20
276.419917
 30
0.0
  0
VERTEX
  8
1
  6
CONTINUOUS
 62
    52
  5
25F
 10
109.113917
 20
276.264333
 30
0.0
  0
VERTEX
  8
1
  6
CONTINUOUS
 62
    52
  5
260
 10
108.9565
 20
276.08275
 30
0.0
  0
VERTEX
  8
1
  6
CONTINUOUS
 62
    52
  5
261
 10
108.799
 20
275.87525
 30
0.0
  0
VERTEX
  8
1
  6
CONTINUOUS
 62
    52
  5
262
 10
108.693917
 20
275.7195
 30
0.0
  0
VERTEX
  8
1
  6
CONTINUOUS
 62
    52
  5
263
 10
108.562417
 20
275.537917
 30
0.0
  0
VERTEX
  8
1
  6
CONTINUOUS
 62
    52
  5
264
 10
108.404583
 20
275.278167
 30
0.0
  0
VERTEX
  8
1
  6
CONTINUOUS
 62
    52
  5
265
 10
108.299417
 20
275.122667
 30
0.0
  0
VERTEX
  8
1
  6
CONTINUOUS
 62
    52
  5
266
 10
108.1685
 20
275.019083
 30
0.0
  0
VERTEX
  8
1
  6
CONTINUOUS
 62
    52
  5
267
 10
108.0375
 20
274.915667
 30
0.0
  0
VERTEX
  8
1
  6
CONTINUOUS
 62
    52
  5
268
 10
107.854167
 20
274.760333
 30
0.0
  0
VERTEX
  8
1
  6
CONTINUOUS
 62
    52
  5
269
 10
107.697167
 20
274.630917
 30
0.0
  0
VERTEX
  8
1
  6
CONTINUOUS
 62
    52
  5
26A
 10
107.566167
 20
274.5275
 30
0.0
  0
VERTEX
  8
1
  6
CONTINUOUS
 62
    52
  5
26B
 10
107.278417
 20
274.34675
 30
0.0
  0
VERTEX
  8
1
  6
CONTINUOUS
 62
    52
  5
26C
 10
107.06925
 20
274.24375
 30
0.0
  0
VERTEX
  8
1
  6
CONTINUOUS
 62
    52
  5
26D
 10
106.859917
 20
274.114583
 30
0.0
  0
VERTEX
  8
1
  6
CONTINUOUS
 62
    52
  5
26E
 10
106.677083
 20
274.0375
 30
0.0
  0
VERTEX
  8
1
  6
CONTINUOUS
 62
    52
  5
26F
 10
106.442167
 20
273.96075
 30
0.0
  0
VERTEX
  8
1
  6
CONTINUOUS
 62
    52
  5
270
 10
106.207333
 20
273.936
 30
0.0
  0
VERTEX
  8
1
  6
CONTINUOUS
 62
    52
  5
271
 10
105.998833
 20
273.937167
 30
0.0
  0
VERTEX
  8
1
  6
CONTINUOUS
 62
    52
  5
272
 10
105.764333
 20
273.9645
 30
0.0
  0
VERTEX
  8
1
  6
CONTINUOUS
 62
    52
  5
273
 10
105.504333
 20
274.07025
 30
0.0
  0
VERTEX
  8
1
  6
CONTINUOUS
 62
    52
  5
274
 10
105.244667
 20
274.254167
 30
0.0
  0
VERTEX
  8
1
  6
CONTINUOUS
 62
    52
  5
275
 10
105.1155
 20
274.463333
 30
0.0
  0
VERTEX
  8
1
  6
CONTINUOUS
 62
    52
  5
276
 10
105.012167
 20
274.62025
 30
0.0
  0
VERTEX
  8
1
  6
CONTINUOUS
 62
    52
  5
277
 10
104.987417
 20
274.85475
 30
0.0
  0
VERTEX
  8
1
  6
CONTINUOUS
 62
    52
  5
278
 10
104.97575
 20
274.995417
 30
0.0
  0
SEQEND
  8
1
  6
CONTINUOUS
 62
    52
  5
279
  0
POLYLINE
  8
1
  6
CONTINUOUS
 62
    52
  5
27A
 66
     1
 10
0.0
 20
0.0
 30
0.0
  0
VERTEX
  8
1
  6
CONTINUOUS
 62
    52
  5
27B
 10
105.486167
 20
277.491417
 30
0.0
  0
VERTEX
  8
1
  6
CONTINUOUS
 62
    52
  5
27C
 10
105.495083
 20
277.319917
 30
0.0
  0
VERTEX
  8
1
  6
CONTINUOUS
 62
    52
  5
27D
 10
105.521583
 20
277.14725
 30
0.0
  0
VERTEX
  8
1
  6
CONTINUOUS
 62
    52
  5
27E
 10
105.4685
 20
276.967917
 30
0.0
  0
VERTEX
  8
1
  6
CONTINUOUS
 62
    52
  5
27F
 10
105.415417
 20
276.775333
 30
0.0
  0
VERTEX
  8
1
  6
CONTINUOUS
 62
    52
  5
280
 10
105.349083
 20
276.5695
 30
0.0
  0
VERTEX
  8
1
  6
CONTINUOUS
 62
    52
  5
281
 10
105.282667
 20
276.357
 30
0.0
  0
VERTEX
  8
1
  6
CONTINUOUS
 62
    52
  5
282
 10
105.203
 20
276.137833
 30
0.0
  0
VERTEX
  8
1
  6
CONTINUOUS
 62
    52
  5
283
 10
105.14325
 20
275.971833
 30
0.0
  0
VERTEX
  8
1
  6
CONTINUOUS
 62
    52
  5
284
 10
105.076917
 20
275.77925
 30
0.0
  0
VERTEX
  8
1
  6
CONTINUOUS
 62
    52
  5
285
 10
105.023833
 20
275.59325
 30
0.0
  0
VERTEX
  8
1
  6
CONTINUOUS
 62
    52
  5
286
 10
104.984
 20
275.420583
 30
0.0
  0
VERTEX
  8
1
  6
CONTINUOUS
 62
    52
  5
287
 10
104.964083
 20
275.234667
 30
0.0
  0
VERTEX
  8
1
  6
CONTINUOUS
 62
    52
  5
288
 10
104.970667
 20
275.04875
 30
0.0
  0
VERTEX
  8
1
  6
CONTINUOUS
 62
    52
  5
289
 10
104.97575
 20
274.995417
 30
0.0
  0
SEQEND
  8
1
  6
CONTINUOUS
 62
    52
  5
28A
  0
POLYLINE
  8
1
  6
CONTINUOUS
 62
    52
  5
28B
 66
     1
 10
0.0
 20
0.0
 30
0.0
  0
VERTEX
  8
1
  6
CONTINUOUS
 62
    52
  5
28C
 10
105.486167
 20
277.491417
 30
0.0
  0
VERTEX
  8
1
  6
CONTINUOUS
 62
    52
  5
28D
 10
105.418333
 20
277.547167
 30
0.0
  0
VERTEX
  8
1
  6
CONTINUOUS
 62
    52
  5
28E
 10
105.247333
 20
277.654083
 30
0.0
  0
VERTEX
  8
1
  6
CONTINUOUS
 62
    52
  5
28F
 10
105.076333
 20
277.6755
 30
0.0
  0
VERTEX
  8
1
  6
CONTINUOUS
 62
    52
  5
290
 10
104.905333
 20
277.696833
 30
0.0
  0
VERTEX
  8
1
  6
CONTINUOUS
 62
    52
  5
291
 10
104.712917
 20
277.6755
 30
0.0
  0
VERTEX
  8
1
  6
CONTINUOUS
 62
    52
  5
292
 10
104.520583
 20
277.589917
 30
0.0
  0
VERTEX
  8
1
  6
CONTINUOUS
 62
    52
  5
293
 10
104.370917
 20
277.483
 30
0.0
  0
VERTEX
  8
1
  6
CONTINUOUS
 62
    52
  5
294
 10
104.199917
 20
277.183583
 30
0.0
  0
VERTEX
  8
1
  6
CONTINUOUS
 62
    52
  5
295
 10
104.093083
 20
276.96975
 30
0.0
  0
VERTEX
  8
1
  6
CONTINUOUS
 62
    52
  5
296
 10
103.964833
 20
276.7345
 30
0.0
  0
VERTEX
  8
1
  6
CONTINUOUS
 62
    52
  5
297
 10
103.836583
 20
276.477917
 30
0.0
  0
VERTEX
  8
1
  6
CONTINUOUS
 62
    52
  5
298
 10
103.686917
 20
276.285417
 30
0.0
  0
VERTEX
  8
1
  6
CONTINUOUS
 62
    52
  5
299
 10
103.601417
 20
276.13575
 30
0.0
  0
VERTEX
  8
1
  6
CONTINUOUS
 62
    52
  5
29A
 10
103.451833
 20
275.921917
 30
0.0
  0
VERTEX
  8
1
  6
CONTINUOUS
 62
    52
  5
29B
 10
103.344917
 20
275.750833
 30
0.0
  0
VERTEX
  8
1
  6
CONTINUOUS
 62
    52
  5
29C
 10
103.19525
 20
275.515583
 30
0.0
  0
VERTEX
  8
1
  6
CONTINUOUS
 62
    52
  5
29D
 10
103.088417
 20
275.30175
 30
0.0
  0
VERTEX
  8
1
  6
CONTINUOUS
 62
    52
  5
29E
 10
103.002917
 20
275.10925
 30
0.0
  0
VERTEX
  8
1
  6
CONTINUOUS
 62
    52
  5
29F
 10
102.831917
 20
274.83125
 30
0.0
  0
VERTEX
  8
1
  6
CONTINUOUS
 62
    52
  5
2A0
 10
102.68225
 20
274.617417
 30
0.0
  0
VERTEX
  8
1
  6
CONTINUOUS
 62
    52
  5
2A1
 10
102.575417
 20
274.446333
 30
0.0
  0
VERTEX
  8
1
  6
CONTINUOUS
 62
    52
  5
2A2
 10
102.383
 20
274.2325
 30
0.0
  0
VERTEX
  8
1
  6
CONTINUOUS
 62
    52
  5
2A3
 10
102.233417
 20
274.018667
 30
0.0
  0
VERTEX
  8
1
  6
CONTINUOUS
 62
    52
  5
2A4
 10
102.062417
 20
273.847583
 30
0.0
  0
VERTEX
  8
1
  6
CONTINUOUS
 62
    52
  5
2A5
 10
101.848667
 20
273.633667
 30
0.0
  0
VERTEX
  8
1
  6
CONTINUOUS
 62
    52
  5
2A6
 10
101.699
 20
273.419833
 30
0.0
  0
VERTEX
  8
1
  6
CONTINUOUS
 62
    52
  5
2A7
 10
101.506667
 20
273.206
 30
0.0
  0
VERTEX
  8
1
  6
CONTINUOUS
 62
    52
  5
2A8
 10
101.335667
 20
272.97075
 30
0.0
  0
VERTEX
  8
1
  6
CONTINUOUS
 62
    52
  5
2A9
 10
101.250167
 20
272.821083
 30
0.0
  0
VERTEX
  8
1
  6
CONTINUOUS
 62
    52
  5
2AA
 10
101.121917
 20
272.60725
 30
0.0
  0
VERTEX
  8
1
  6
CONTINUOUS
 62
    52
  5
2AB
 10
101.015
 20
272.436167
 30
0.0
  0
VERTEX
  8
1
  6
CONTINUOUS
 62
    52
  5
2AC
 10
100.9295
 20
272.265083
 30
0.0
  0
VERTEX
  8
1
  6
CONTINUOUS
 62
    52
  5
2AD
 10
100.80125
 20
272.05125
 30
0.0
  0
VERTEX
  8
1
  6
CONTINUOUS
 62
    52
  5
2AE
 10
100.673
 20
271.85875
 30
0.0
  0
VERTEX
  8
1
  6
CONTINUOUS
 62
    52
  5
2AF
 10
100.502
 20
271.602167
 30
0.0
  0
VERTEX
  8
1
  6
CONTINUOUS
 62
    52
  5
2B0
 10
100.352417
 20
271.366917
 30
0.0
  0
VERTEX
  8
1
  6
CONTINUOUS
 62
    52
  5
2B1
 10
100.20275
 20
271.174417
 30
0.0
  0
VERTEX
  8
1
  6
CONTINUOUS
 62
    52
  5
2B2
 10
100.03175
 20
270.939167
 30
0.0
  0
VERTEX
  8
1
  6
CONTINUOUS
 62
    52
  5
2B3
 10
99.9035
 20
270.768083
 30
0.0
  0
VERTEX
  8
1
  6
CONTINUOUS
 62
    52
  5
2B4
 10
99.840667
 20
270.65725
 30
0.0
  0
SEQEND
  8
1
  6
CONTINUOUS
 62
    52
  5
2B5
  0
LINE
  8
1
  6
CONTINUOUS
 62
     7
  5
2B6
 10
111.082333
 20
384.11025
 30
0.0
 11
111.082333
 21
412.11025
 31
0.0
  0
LINE
  8
1
  6
CONTINUOUS
 62
     7
  5
2B7
 10
261.082333
 20
384.11025
 30
0.0
 11
261.082333
 21
412.11025
 31
0.0
  0
LINE
  8
1
  6
CONTINUOUS
 62
     7
  5
2B8
 10
111.082333
 20
411.11025
 30
0.0
 11
261.082333
 21
411.11025
 31
0.0
  0
INSERT
  8
1
  6
CONTINUOUS
 62
     1
  5
2D9
  2
LDR
 10
111.082333
 20
411.11025
 30
0.0
 41
240.0
 42
240.0
 50
180.0
210
0.0
220
0.0
230
1.0
  0
INSERT
  8
1
  6
CONTINUOUS
 62
     1
  5
2DA
  2
LDR
 10
111.082333
 20
411.11025
 30
0.0
 41
240.0
 42
240.0
 50
180.0
210
0.0
220
0.0
230
1.0
  0
INSERT
  8
1
  6
CONTINUOUS
 62
     1
  5
2DB
  2
LDR
 10
261.082333
 20
411.11025
 30
0.0
 41
240.0
 42
240.0
210
0.0
220
0.0
230
1.0
  0
LINE
  8
1
  6
CONTINUOUS
 62
     7
  5
2DC
 10
110.082333
 20
383.11025
 30
0.0
 11
82.082333
 21
383.11025
 31
0.0
  0
LINE
  8
1
  6
CONTINUOUS
 62
     7
  5
2DD
 10
110.082333
 20
282.11025
 30
0.0
 11
82.082333
 21
282.11025
 31
0.0
  0
LINE
  8
1
  6
CONTINUOUS
 62
     7
  5
2DE
 10
83.082333
 20
383.11025
 30
0.0
 11
83.082333
 21
282.11025
 31
0.0
  0
INSERT
  8
1
  6
CONTINUOUS
 62
     1
  5
2DF
  2
LDR
 10
83.082333
 20
383.11025
 30
0.0
 41
240.0
 42
240.0
 50
90.0
210
0.0
220
0.0
230
1.0
  0
INSERT
  8
1
  6
CONTINUOUS
 62
     1
  5
2E0
  2
LDR
 10
83.082333
 20
383.11025
 30
0.0
 41
240.0
 42
240.0
 50
90.0
210
0.0
220
0.0
230
1.0
  0
INSERT
  8
1
  6
CONTINUOUS
 62
     1
  5
2E1
  2
LDR
 10
83.082333
 20
282.11025
 30
0.0
 41
240.0
 42
240.0
 50
270.0
210
0.0
220
0.0
230
1.0
  0
LINE
  8
1
  6
CONTINUOUS
 62
     7
  5
2E2
 10
142.082333
 20
383.11025
 30
0.0
 11
142.082333
 21
388.11025
 31
0.0
  0
LINE
  8
1
  6
CONTINUOUS
 62
     7
  5
2E3
 10
142.082333
 20
379.61025
 30
0.0
 11
142.082333
 21
374.61025
 31
0.0
  0
INSERT
  8
1
  6
CONTINUOUS
 62
     1
  5
2E4
  2
LDR
 10
142.082333
 20
383.11025
 30
0.0
 41
240.0
 42
240.0
 50
270.0
210
0.0
220
0.0
230
1.0
  0
INSERT
  8
1
  6
CONTINUOUS
 62
     1
  5
2E5
  2
LDR
 10
142.082333
 20
383.11025
 30
0.0
 41
240.0
 42
240.0
 50
270.0
210
0.0
220
0.0
230
1.0
  0
INSERT
  8
1
  6
CONTINUOUS
 62
     1
  5
2E6
  2
LDR
 10
142.082333
 20
379.61025
 30
0.0
 41
240.0
 42
240.0
 50
90.0
210
0.0
220
0.0
230
1.0
  0
LINE
  8
1
  6
CONTINUOUS
 62
     7
  5
2E7
 10
157.525917
 20
373.971417
 30
0.0
 11
160.578
 21
391.2805
 31
0.0
  0
LINE
  8
1
  6
CONTINUOUS
 62
     7
  5
2E8
 10
160.578
 20
391.2805
 30
0.0
 11
170.865333
 21
391.2805
 31
0.0
  0
LINE
  8
1
  6
CONTINUOUS
 62
     7
  5
2E9
 10
220.562333
 20
376.332083
 30
0.0
 11
235.157583
 21
390.927333
 31
0.0
  0
LINE
  8
1
  6
CONTINUOUS
 62
     7
  5
2EA
 10
235.157583
 20
390.927333
 30
0.0
 11
217.341833
 21
390.927333
 31
0.0
  0
LINE
  8
1
  6
CONTINUOUS
 62
    52
  5
2EB
 10
186.082333
 20
381.11025
 30
0.0
 11
186.082333
 21
378.11025
 31
0.0
  0
LINE
  8
1
  6
CONTINUOUS
 62
    52
  5
2EC
 10
185.332333
 20
381.11025
 30
0.0
 11
186.832333
 21
381.11025
 31
0.0
  0
LINE
  8
1
  6
CONTINUOUS
 62
    52
  5
2ED
 10
185.332333
 20
378.11025
 30
0.0
 11
186.832333
 21
378.11025
 31
0.0
  0
LINE
  8
1
  6
CONTINUOUS
 62
     7
  5
2EE
 10
164.0495
 20
362.329167
 30
0.0
 11
164.0495
 21
374.329167
 31
0.0
  0
LINE
  8
1
  6
CONTINUOUS
 62
     7
  5
2EF
 10
209.00625
 20
366.291667
 30
0.0
 11
209.00625
 21
375.291667
 31
0.0
  0
INSERT
  8
1
  6
CONTINUOUS
 62
     1
  5
2F0
  2
LDR
 10
164.0495
 20
362.329167
 30
0.0
 41
240.0
 42
240.0
 50
270.0
210
0.0
220
0.0
230
1.0
  0
INSERT
  8
1
  6
CONTINUOUS
 62
     1
  5
2F1
  2
LDR
 10
164.0495
 20
362.329167
 30
0.0
 41
240.0
 42
240.0
 50
270.0
210
0.0
220
0.0
230
1.0
  0
INSERT
  8
1
  6
CONTINUOUS
 62
     1
  5
2F2
  2
LDR
 10
209.00625
 20
375.291667
 30
0.0
 41
240.0
 42
240.0
 50
90.0
210
0.0
220
0.0
230
1.0
  0
INSERT
  8
1
  6
CONTINUOUS
 62
     1
  5
2F3
  2
LDR
 10
209.00625
 20
375.291667
 30
0.0
 41
240.0
 42
240.0
 50
90.0
210
0.0
220
0.0
230
1.0
  0
INSERT
  8
1
  6
CONTINUOUS
 62
     1
  5
2F4
  2
LDR
 10
157.525917
 20
373.971417
 30
0.0
 41
239.999998
 42
239.999998
 50
260.000074
210
0.0
220
0.0
230
1.0
  0
INSERT
  8
1
  6
CONTINUOUS
 62
     1
  5
2F5
  2
LDR
 10
157.525917
 20
373.971417
 30
0.0
 41
239.999998
 42
239.999998
 50
260.000074
210
0.0
220
0.0
230
1.0
  0
INSERT
  8
1
  6
CONTINUOUS
 62
     1
  5
2F6
  2
LDR
 10
220.562333
 20
376.332083
 30
0.0
 41
239.999999
 42
239.999999
 50
225.0
210
0.0
220
0.0
230
1.0
  0
LINE
  8
1
  6
CONTINUOUS
 62
     7
  5
2F7
 10
114.582333
 20
333.36025
 30
0.0
 11
111.082333
 21
333.36025
 31
0.0
  0
LINE
  8
1
  6
CONTINUOUS
 62
     7
  5
2F8
 10
114.582333
 20
333.36025
 30
0.0
 11
133.082333
 21
333.36025
 31
0.0
  0
LINE
  8
1
  6
CONTINUOUS
 62
     7
  5
2F9
 10
111.082333
 20
333.36025
 30
0.0
 11
101.082333
 21
333.36025
 31
0.0
  0
INSERT
  8
1
  6
CONTINUOUS
 62
     1
  5
2FA
  2
LDR
 10
111.082333
 20
333.36025
 30
0.0
 41
240.0
 42
240.0
210
0.0
220
0.0
230
1.0
  0
INSERT
  8
1
  6
CONTINUOUS
 62
     1
  5
2FB
  2
LDR
 10
111.082333
 20
333.36025
 30
0.0
 41
240.0
 42
240.0
210
0.0
220
0.0
230
1.0
  0
INSERT
  8
1
  6
CONTINUOUS
 62
     1
  5
2FC
  2
LDR
 10
114.582333
 20
333.36025
 30
0.0
 41
240.0
 42
240.0
 50
180.0
210
0.0
220
0.0
230
1.0
  0
INSERT
  8
1
  6
CONTINUOUS
 62
     1
  5
2FD
  2
LDR
 10
114.582333
 20
333.36025
 30
0.0
 41
240.0
 42
240.0
 50
180.0
210
0.0
220
0.0
230
1.0
  0
INSERT
  8
1
  6
CONTINUOUS
 62
     1
  5
2FE
  2
LDR
 10
133.082333
 20
333.36025
 30
0.0
 41
240.0
 42
240.0
210
0.0
220
0.0
230
1.0
  0
LINE
  8
1
  6
CONTINUOUS
 62
     7
  5
2FF
 10
233.082333
 20
336.61025
 30
0.0
 11
245.81025
 21
349.338167
 31
0.0
  0
LINE
  8
1
  6
CONTINUOUS
 62
     7
  5
300
 10
245.81025
 20
349.338167
 30
0.0
 11
283.702917
 21
349.338167
 31
0.0
  0
INSERT
  8
1
  6
CONTINUOUS
 62
     1
  5
301
  2
LDR
 10
233.082333
 20
336.61025
 30
0.0
 41
239.999999
 42
239.999999
 50
225.0
210
0.0
220
0.0
230
1.0
  0
INSERT
  8
1
  6
CONTINUOUS
 62
     1
  5
302
  2
LDR
 10
233.082333
 20
336.61025
 30
0.0
 41
239.999999
 42
239.999999
 50
225.0
210
0.0
220
0.0
230
1.0
  0
LINE
  8
1
  6
CONTINUOUS
 62
     7
  5
303
 10
238.082333
 20
316.61025
 30
0.0
 11
257.582333
 21
316.61025
 31
0.0
  0
LINE
  8
1
  6
CONTINUOUS
 62
     7
  5
304
 10
257.582333
 20
316.61025
 30
0.0
 11
261.082333
 21
316.61025
 31
0.0
  0
LINE
  8
1
  6
CONTINUOUS
 62
     7
  5
305
 10
261.082333
 20
316.61025
 30
0.0
 11
271.082333
 21
316.61025
 31
0.0
  0
INSERT
  8
1
  6
CONTINUOUS
 62
     1
  5
306
  2
LDR
 10
238.082333
 20
316.61025
 30
0.0
 41
240.0
 42
240.0
 50
180.0
210
0.0
220
0.0
230
1.0
  0
INSERT
  8
1
  6
CONTINUOUS
 62
     1
  5
307
  2
LDR
 10
257.582333
 20
316.61025
 30
0.0
 41
240.0
 42
240.0
210
0.0
220
0.0
230
1.0
  0
INSERT
  8
1
  6
CONTINUOUS
 62
     1
  5
308
  2
LDR
 10
257.582333
 20
316.61025
 30
0.0
 41
240.0
 42
240.0
210
0.0
220
0.0
230
1.0
  0
INSERT
  8
1
  6
CONTINUOUS
 62
     1
  5
309
  2
LDR
 10
261.082333
 20
316.61025
 30
0.0
 41
240.0
 42
240.0
 50
180.0
210
0.0
220
0.0
230
1.0
  0
LINE
  8
1
  6
CONTINUOUS
 62
     7
  5
30A
 10
261.082333
 20
304.11025
 30
0.0
 11
276.082333
 21
304.11025
 31
0.0
  0
INSERT
  8
1
  6
CONTINUOUS
 62
     1
  5
30B
  2
LDR
 10
261.082333
 20
304.11025
 30
0.0
 41
240.0
 42
240.0
 50
180.0
210
0.0
220
0.0
230
1.0
  0
INSERT
  8
1
  6
CONTINUOUS
 62
     1
  5
30C
  2
LDR
 10
276.082333
 20
304.11025
 30
0.0
 41
240.0
 42
240.0
210
0.0
220
0.0
230
1.0
  0
LINE
  8
1
  6
CONTINUOUS
 62
     7
  5
30D
 10
223.082333
 20
315.11025
 30
0.0
 11
223.082333
 21
321.11025
 31
0.0
  0
LINE
  8
1
  6
CONTINUOUS
 62
     7
  5
30E
 10
223.082333
 20
312.61025
 30
0.0
 11
223.082333
 21
303.61025
 31
0.0
  0
INSERT
  8
1
  6
CONTINUOUS
 62
     1
  5
30F
  2
LDR
 10
223.082333
 20
315.11025
 30
0.0
 41
240.0
 42
240.0
 50
270.0
210
0.0
220
0.0
230
1.0
  0
INSERT
  8
1
  6
CONTINUOUS
 62
     1
  5
310
  2
LDR
 10
223.082333
 20
315.11025
 30
0.0
 41
240.0
 42
240.0
 50
270.0
210
0.0
220
0.0
230
1.0
  0
INSERT
  8
1
  6
CONTINUOUS
 62
     1
  5
311
  2
LDR
 10
223.082333
 20
312.61025
 30
0.0
 41
240.0
 42
240.0
 50
90.0
210
0.0
220
0.0
230
1.0
  0
LINE
  8
1
  6
CONTINUOUS
 62
     7
  5
312
 10
147.582333
 20
315.11025
 30
0.0
 11
145.957583
 21
305.896
 31
0.0
  0
LINE
  8
1
  6
CONTINUOUS
 62
     7
  5
313
 10
145.957583
 20
305.896
 30
0.0
 11
149.244833
 21
305.896
 31
0.0
  0
INSERT
  8
1
  6
CONTINUOUS
 62
     1
  5
314
  2
LDR
 10
147.582333
 20
315.11025
 30
0.0
 41
240.0
 42
240.0
 50
79.999841
210
0.0
220
0.0
230
1.0
  0
LINE
  8
1
  6
CONTINUOUS
 62
     7
  5
315
 10
135.082333
 20
312.61025
 30
0.0
 11
135.082333
 21
287.11025
 31
0.0
  0
INSERT
  8
1
  6
CONTINUOUS
 62
     1
  5
316
  2
LDR
 10
135.082333
 20
312.61025
 30
0.0
 41
240.0
 42
240.0
 50
90.0
210
0.0
220
0.0
230
1.0
  0
INSERT
  8
1
  6
CONTINUOUS
 62
     1
  5
317
  2
LDR
 10
135.082333
 20
312.61025
 30
0.0
 41
240.0
 42
240.0
 50
90.0
210
0.0
220
0.0
230
1.0
  0
INSERT
  8
1
  6
CONTINUOUS
 62
     1
  5
318
  2
LDR
 10
135.082333
 20
287.11025
 30
0.0
 41
240.0
 42
240.0
 50
270.0
210
0.0
220
0.0
230
1.0
  0
LINE
  8
1
  6
CONTINUOUS
 62
     7
  5
319
 10
121.832333
 20
287.11025
 30
0.0
 11
121.832333
 21
295.11025
 31
0.0
  0
LINE
  8
1
  6
CONTINUOUS
 62
     7
  5
31A
 10
121.832333
 20
282.11025
 30
0.0
 11
121.832333
 21
276.11025
 31
0.0
  0
INSERT
  8
1
  6
CONTINUOUS
 62
     1
  5
31B
  2
LDR
 10
121.832333
 20
287.11025
 30
0.0
 41
240.0
 42
240.0
 50
270.0
210
0.0
220
0.0
230
1.0
  0
INSERT
  8
1
  6
CONTINUOUS
 62
     1
  5
31C
  2
LDR
 10
121.832333
 20
282.11025
 30
0.0
 41
240.0
 42
240.0
 50
90.0
210
0.0
220
0.0
230
1.0
  0
LINE
  8
1
  6
CONTINUOUS
 62
     7
  5
31D
 10
217.332333
 20
287.61025
 30
0.0
 11
220.7525
 21
297.007167
 31
0.0
  0
LINE
  8
1
  6
CONTINUOUS
 62
     7
  5
31E
 10
220.7525
 20
297.007167
 30
0.0
 11
218.7525
 21
297.007167
 31
0.0
  0
LINE
  8
1
  6
CONTINUOUS
 62
     7
  5
31F
 10
183.737833
 20
287.61025
 30
0.0
 11
180.317667
 21
297.007167
 31
0.0
  0
LINE
  8
1
  6
CONTINUOUS
 62
     7
  5
320
 10
180.317667
 20
297.007167
 30
0.0
 11
182.317667
 21
297.007167
 31
0.0
  0
INSERT
  8
1
  6
CONTINUOUS
 62
     1
  5
321
  2
LDR
 10
183.737833
 20
287.61025
 30
0.0
 41
239.999999
 42
239.999999
 50
289.999832
210
0.0
220
0.0
230
1.0
  0
INSERT
  8
1
  6
CONTINUOUS
 62
     1
  5
322
  2
LDR
 10
183.737833
 20
287.61025
 30
0.0
 41
239.999999
 42
239.999999
 50
289.999832
210
0.0
220
0.0
230
1.0
  0
INSERT
  8
1
  6
CONTINUOUS
 62
     1
  5
323
  2
LDR
 10
217.332333
 20
287.61025
 30
0.0
 41
239.999999
 42
239.999999
 50
250.000168
210
0.0
220
0.0
230
1.0
  0
LINE
  8
1
  6
CONTINUOUS
 62
     7
  5
324
 10
114.582333
 20
284.86025
 30
0.0
 11
114.582333
 21
270.86025
 31
0.0
  0
LINE
  8
1
  6
CONTINUOUS
 62
     7
  5
325
 10
140.832333
 20
284.86025
 30
0.0
 11
140.832333
 21
270.86025
 31
0.0
  0
LINE
  8
1
  6
CONTINUOUS
 62
     7
  5
326
 10
200.634583
 20
284.86025
 30
0.0
 11
200.634583
 21
270.86025
 31
0.0
  0
LINE
  8
1
  6
CONTINUOUS
 62
     7
  5
327
 10
231.332333
 20
284.86025
 30
0.0
 11
231.332333
 21
270.86025
 31
0.0
  0
LINE
  8
1
  6
CONTINUOUS
 62
     7
  5
328
 10
257.582333
 20
284.86025
 30
0.0
 11
257.582333
 21
270.86025
 31
0.0
  0
LINE
  8
1
  6
CONTINUOUS
 62
     7
  5
329
 10
114.582333
 20
271.86025
 30
0.0
 11
140.832333
 21
271.86025
 31
0.0
  0
LINE
  8
1
  6
CONTINUOUS
 62
     7
  5
32A
 10
140.832333
 20
271.86025
 30
0.0
 11
200.634583
 21
271.86025
 31
0.0
  0
LINE
  8
1
  6
CONTINUOUS
 62
     7
  5
32B
 10
200.634583
 20
271.86025
 30
0.0
 11
231.332333
 21
271.86025
 31
0.0
  0
LINE
  8
1
  6
CONTINUOUS
 62
     7
  5
32C
 10
231.332333
 20
271.86025
 30
0.0
 11
257.582333
 21
271.86025
 31
0.0
  0
INSERT
  8
1
  6
CONTINUOUS
 62
     1
  5
32D
  2
LDR
 10
114.582333
 20
271.86025
 30
0.0
 41
240.0
 42
240.0
 50
180.0
210
0.0
220
0.0
230
1.0
  0
INSERT
  8
1
  6
CONTINUOUS
 62
     1
  5
32E
  2
LDR
 10
140.832333
 20
271.86025
 30
0.0
 41
240.0
 42
240.0
210
0.0
220
0.0
230
1.0
  0
INSERT
  8
1
  6
CONTINUOUS
 62
     1
  5
32F
  2
LDR
 10
140.832333
 20
271.86025
 30
0.0
 41
240.0
 42
240.0
210
0.0
220
0.0
230
1.0
  0
INSERT
  8
1
  6
CONTINUOUS
 62
     1
  5
330
  2
LDR
 10
140.832333
 20
271.86025
 30
0.0
 41
240.0
 42
240.0
 50
180.0
210
0.0
220
0.0
230
1.0
  0
INSERT
  8
1
  6
CONTINUOUS
 62
     1
  5
331
  2
LDR
 10
140.832333
 20
271.86025
 30
0.0
 41
240.0
 42
240.0
 50
180.0
210
0.0
220
0.0
230
1.0
  0
INSERT
  8
1
  6
CONTINUOUS
 62
     1
  5
332
  2
LDR
 10
200.634583
 20
271.86025
 30
0.0
 41
240.0
 42
240.0
210
0.0
220
0.0
230
1.0
  0
INSERT
  8
1
  6
CONTINUOUS
 62
     1
  5
333
  2
LDR
 10
200.634583
 20
271.86025
 30
0.0
 41
240.0
 42
240.0
210
0.0
220
0.0
230
1.0
  0
INSERT
  8
1
  6
CONTINUOUS
 62
     1
  5
334
  2
LDR
 10
200.634583
 20
271.86025
 30
0.0
 41
240.0
 42
240.0
 50
180.0
210
0.0
220
0.0
230
1.0
  0
INSERT
  8
1
  6
CONTINUOUS
 62
     1
  5
335
  2
LDR
 10
200.634583
 20
271.86025
 30
0.0
 41
240.0
 42
240.0
 50
180.0
210
0.0
220
0.0
230
1.0
  0
INSERT
  8
1
  6
CONTINUOUS
 62
     1
  5
336
  2
LDR
 10
231.332333
 20
271.86025
 30
0.0
 41
240.0
 42
240.0
210
0.0
220
0.0
230
1.0
  0
INSERT
  8
1
  6
CONTINUOUS
 62
     1
  5
337
  2
LDR
 10
231.332333
 20
271.86025
 30
0.0
 41
240.0
 42
240.0
210
0.0
220
0.0
230
1.0
  0
INSERT
  8
1
  6
CONTINUOUS
 62
     1
  5
338
  2
LDR
 10
231.332333
 20
271.86025
 30
0.0
 41
240.0
 42
240.0
 50
180.0
210
0.0
220
0.0
230
1.0
  0
INSERT
  8
1
  6
CONTINUOUS
 62
     1
  5
339
  2
LDR
 10
231.332333
 20
271.86025
 30
0.0
 41
240.0
 42
240.0
 50
180.0
210
0.0
220
0.0
230
1.0
  0
INSERT
  8
1
  6
CONTINUOUS
 62
     1
  5
33A
  2
LDR
 10
257.582333
 20
271.86025
 30
0.0
 41
240.0
 42
240.0
210
0.0
220
0.0
230
1.0
  0
LINE
  8
1
  6
CONTINUOUS
 62
     7
  5
33B
 10
129.55725
 20
256.329917
 30
0.0
 11
137.84025
 21
256.329917
 31
0.0
  0
INSERT
  8
1
  6
CONTINUOUS
 62
     1
  5
33C
  2
LDR
 10
139.332333
 20
285.61025
 30
0.0
 41
239.999999
 42
239.999999
 50
71.538687
210
0.0
220
0.0
230
1.0
  0
LINE
  8
1
  6
CONTINUOUS
 62
     7
  5
33D
 10
139.332333
 20
285.61025
 30
0.0
 11
135.147417
 21
273.074833
 31
0.0
  0
LINE
  8
1
  6
CONTINUOUS
 62
     7
  5
33E
 10
134.276917
 20
270.46725
 30
0.0
 11
129.55725
 21
256.329917
 31
0.0
  0
LINE
  8
1
  6
CONTINUOUS
 62
     7
  5
33F
 10
199.689583
 20
286.017667
 30
0.0
 11
195.504667
 21
273.48225
 31
0.0
  0
LINE
  8
1
  6
CONTINUOUS
 62
     7
  5
340
 10
189.9145
 20
256.737333
 30
0.0
 11
198.1975
 21
256.737333
 31
0.0
  0
INSERT
  8
1
  6
CONTINUOUS
 62
     1
  5
341
  2
LDR
 10
199.689583
 20
286.017667
 30
0.0
 41
239.999999
 42
239.999999
 50
71.538687
210
0.0
220
0.0
230
1.0
  0
LINE
  8
1
  6
CONTINUOUS
 62
     7
  5
342
 10
194.634167
 20
270.874667
 30
0.0
 11
189.9145
 21
256.737333
 31
0.0
  0
TEXT
  8
1
  6
CONTINUOUS
 62
     7
  5
343
 10
179.407917
 20
412.260917
 30
0.0
 40
2.5
  1
16'-0"
  7
MONOTXT
210
0.0
220
0.0
230
1.0
  0
TEXT
  8
1
  6
CONTINUOUS
 62
     7
  5
344
 10
175.978083
 20
393.9615
 30
0.0
 40
2.5
  1
METAL CONDUITS
  7
MONOTXT
210
0.0
220
0.0
230
1.0
  0
TEXT
  8
1
  6
CONTINUOUS
 62
     7
  5
345
 10
172.017667
 20
389.789
 30
0.0
 40
2.5
  1
SIZE AND POSITION AS
  7
MONOTXT
 72
     4
 11
193.936917
 21
391.039
 31
0.0
210
0.0
220
0.0
230
1.0
  0
TEXT
  8
1
  6
CONTINUOUS
 62
     7
  5
346
 10
176.564917
 20
385.289
 30
0.0
 40
2.5
  1
SHOWN ON PLANS
  7
MONOTXT
 72
     4
 11
193.936917
 21
386.539
 31
0.0
210
0.0
220
0.0
230
1.0
  0
TEXT
  8
1
  6
CONTINUOUS
 62
     7
  5
347
 10
101.554917
 20
334.98325
 30
0.0
 40
2.5
  1
4 1/2 "
  7
MONOTXT
210
0.0
220
0.0
230
1.0
  0
TEXT
  8
1
  6
CONTINUOUS
 62
     7
  5
348
 10
117.4345
 20
334.98325
 30
0.0
 40
2.5
  1
1'-10 1/2 "
  7
MONOTXT
210
0.0
220
0.0
230
1.0
  0
TEXT
  8
1
  6
CONTINUOUS
 62
     7
  5
349
 10
117.4345
 20
334.98325
 30
0.0
 40
2.5
  1
1'-10 1/2 "
  7
MONOTXT
210
0.0
220
0.0
230
1.0
  0
TEXT
  8
1
  6
CONTINUOUS
 62
     7
  5
34A
 10
284.666167
 20
348.084417
 30
0.0
 40
2.5
  1
OUTDOOR TYPE CONTROL PANEL
  7
MONOTXT
 72
     4
 11
316.683833
 21
349.334417
 31
0.0
210
0.0
220
0.0
230
1.0
  0
TEXT
  8
1
  6
CONTINUOUS
 62
     7
  5
34B
 10
289.43975
 20
343.584417
 30
0.0
 40
2.5
  1
CABINET. SIZE AS REQUIRED.
  7
MONOTXT
 72
     4
 11
316.673917
 21
344.834417
 31
0.0
210
0.0
220
0.0
230
1.0
  0
TEXT
  8
1
  6
CONTINUOUS
 62
     7
  5
34C
 10
241.326
 20
317.846
 30
0.0
 40
2.5
  1
1'-10 1/2 "
  7
MONOTXT
210
0.0
220
0.0
230
1.0
  0
TEXT
  8
1
  6
CONTINUOUS
 62
     7
  5
34D
 10
263.576417
 20
317.846
 30
0.0
 40
2.5
  1
4 1/2 "
  7
MONOTXT
210
0.0
220
0.0
230
1.0
  0
TEXT
  8
1
  6
CONTINUOUS
 62
     7
  5
34E
 10
265.29575
 20
304.69375
 30
0.0
 40
2.5
  1
1'-6"
  7
MONOTXT
210
0.0
220
0.0
230
1.0
  0
TEXT
  8
1
  6
CONTINUOUS
 62
     7
  5
34F
 10
149.959917
 20
304.807417
 30
0.0
 40
2.5
  1
TRANSFORMER
  7
MONOTXT
 72
     4
 11
163.257083
 21
306.057417
 31
0.0
210
0.0
220
0.0
230
1.0
  0
TEXT
  8
1
  6
CONTINUOUS
 62
     7
  5
350
 10
145.648917
 20
300.307417
 30
0.0
 40
2.5
  1
SIZE AS REQUIRED
  7
MONOTXT
 72
     4
 11
163.257083
 21
301.557417
 31
0.0
210
0.0
220
0.0
230
1.0
  0
TEXT
  8
1
  6
CONTINUOUS
 62
     7
  5
351
 10
150.44225
 20
295.807417
 30
0.0
 40
2.5
  1
(SEE NOTE 1)
  7
MONOTXT
 72
     4
 11
163.247333
 21
297.057417
 31
0.0
210
0.0
220
0.0
230
1.0
  0
TEXT
  8
1
  6
CONTINUOUS
 62
     7
  5
352
 10
183.070417
 20
295.891833
 30
0.0
 40
2.5
  1
2" 0 GATE FRAME
  7
MONOTXT
210
0.0
220
0.0
230
1.0
  0
TEXT
  8
1
  6
CONTINUOUS
 62
     7
  5
353
 10
189.57325
 20
295.8715
 30
0.0
 40
2.5
  1
/
  7
MONOTXT
210
0.0
220
0.0
230
1.0
  0
TEXT
  8
1
  6
CONTINUOUS
 62
     7
  5
354
 10
122.384833
 20
273.335417
 30
0.0
 40
2.5
  1
3'-1 1/2 "
  7
MONOTXT
210
0.0
220
0.0
230
1.0
  0
TEXT
  8
1
  6
CONTINUOUS
 62
     7
  5
355
 10
167.812583
 20
272.878
 30
0.0
 40
2.5
  1
6'-0"
  7
MONOTXT
210
0.0
220
0.0
230
1.0
  0
TEXT
  8
1
  6
CONTINUOUS
 62
     7
  5
356
 10
211.563417
 20
272.7255
 30
0.0
 40
2.5
  1
3'-0"
  7
MONOTXT
210
0.0
220
0.0
230
1.0
  0
TEXT
  8
1
  6
CONTINUOUS
 62
     7
  5
357
 10
239.002917
 20
273.182917
 30
0.0
 40
2.5
  1
3'-1 1/2 "
  7
MONOTXT
210
0.0
220
0.0
230
1.0
  0
TEXT
  8
1
  6
CONTINUOUS
 62
     7
  5
358
 10
138.924
 20
254.8165
 30
0.0
 40
2.5
  1
GATE POST
  7
MONOTXT
 72
     4
 11
149.681833
 21
256.0665
 31
0.0
210
0.0
220
0.0
230
1.0
  0
TEXT
  8
1
  6
CONTINUOUS
 62
     7
  5
359
 10
138.402333
 20
250.3165
 30
0.0
 40
2.5
  1
3" 0 (TYP.)
  7
MONOTXT
 72
     4
 11
149.672
 21
251.5665
 31
0.0
210
0.0
220
0.0
230
1.0
  0
TEXT
  8
1
  6
CONTINUOUS
 62
     7
  5
35A
 10
144.796917
 20
250.361167
 30
0.0
 40
2.5
  1
/
  7
MONOTXT
210
0.0
220
0.0
230
1.0
  0
TEXT
  8
1
  6
CONTINUOUS
 62
     7
  5
35B
 10
198.872417
 20
255.492917
 30
0.0
 40
2.5
  1
LOCKING DEVICE
  7
MONOTXT
210
0.0
220
0.0
230
1.0
  0
TEXT
  8
1
  6
CONTINUOUS
 62
     7
  5
35C
 10
143.720083
 20
388.626417
 30
0.0
 40
2.5
  1
4 1/2 "
 50
90.0
  7
MONOTXT
210
0.0
220
0.0
230
1.0
  0
TEXT
  8
1
  6
CONTINUOUS
 62
     7
  5
35D
 10
168.9905
 20
364.358083
 30
0.0
 40
2.5
  1
FROM
 50
90.0
  7
MONOTXT
 72
     4
 11
167.7405
 21
369.09225
 31
0.0
210
0.0
220
0.0
230
1.0
  0
TEXT
  8
1
  6
CONTINUOUS
 62
     7
  5
35E
 10
173.4905
 20
360.342333
 30
0.0
 40
2.5
  1
METERING
 50
90.0
  7
MONOTXT
 72
     4
 11
172.2405
 21
369.092333
 31
0.0
210
0.0
220
0.0
230
1.0
  0
TEXT
  8
1
  6
CONTINUOUS
 62
     7
  5
35F
 10
177.9905
 20
364.594333
 30
0.0
 40
2.5
  1
POLE
 50
90.0
  7
MONOTXT
 72
     4
 11
176.7405
 21
369.092333
 31
0.0
210
0.0
220
0.0
230
1.0
  0
TEXT
  8
1
  6
CONTINUOUS
 62
     7
  5
360
 10
198.072333
 20
364.875667
 30
0.0
 40
2.5
  1
TO
 50
90.0
  7
MONOTXT
 72
     4
 11
196.822333
 21
367.0705
 31
0.0
210
0.0
220
0.0
230
1.0
  0
TEXT
  8
1
  6
CONTINUOUS
 62
     7
  5
361
 10
202.572333
 20
359.206333
 30
0.0
 40
2.5
  1
LIGHTING
 50
90.0
  7
MONOTXT
 72
     4
 11
201.322333
 21
367.0705
 31
0.0
210
0.0
220
0.0
230
1.0
  0
TEXT
  8
1
  6
CONTINUOUS
 62
     7
  5
362
 10
207.072333
 20
356.43075
 30
0.0
 40
2.5
  1
STANDARDS
 50
90.0
  7
MONOTXT
 72
     4
 11
205.822333
 21
367.070417
 31
0.0
210
0.0
220
0.0
230
1.0
  0
TEXT
  8
1
  6
CONTINUOUS
 62
     7
  5
363
 10
82.245667
 20
327.490333
 30
0.0
 40
2.5
  1
10'-0"
 50
90.0
  7
MONOTXT
210
0.0
220
0.0
230
1.0
  0
TEXT
  8
1
  6
CONTINUOUS
 62
     7
  5
364
 10
120.975333
 20
290.15975
 30
0.0
 40
2.5
  1
6"
 50
90.0
  7
MONOTXT
210
0.0
220
0.0
230
1.0
  0
TEXT
  8
1
  6
CONTINUOUS
 62
     7
  5
365
 10
134.460167
 20
295.806333
 30
0.0
 40
2.5
  1
2'-6"
 50
90.0
  7
MONOTXT
210
0.0
220
0.0
230
1.0
  0
TEXT
  8
1
  6
CONTINUOUS
 62
     7
  5
366
 10
185.10025
 20
239.582917
 30
0.0
 40
3.0
  1
PLAN
  7
MONOTXT
210
0.0
220
0.0
230
1.0
  0
LINE
  8
1
  6
CONTINUOUS
 62
     7
  5
367
 10
184.417333
 20
238.860833
 30
0.0
 11
196.6325
 21
238.860833
 31
0.0
  0
LINE
  8
1
  6
CONTINUOUS
 62
     6
  5
368
 10
116.84925
 20
98.857667
 30
0.0
 11
116.84925
 21
108.857667
 31
0.0
  0
LINE
  8
1
  6
CONTINUOUS
 62
     6
  5
369
 10
267.34925
 20
98.857667
 30
0.0
 11
267.34925
 21
108.857667
 31
0.0
  0
LINE
  8
1
  6
CONTINUOUS
 62
     6
  5
36A
 10
116.84925
 20
108.857667
 30
0.0
 11
138.84925
 21
108.857667
 31
0.0
  0
LINE
  8
1
  6
CONTINUOUS
 62
     6
  5
36B
 10
267.34925
 20
108.857667
 30
0.0
 11
245.34925
 21
108.857667
 31
0.0
  0
LINE
  8
1
  6
CONTINUOUS
 62
     6
  5
36C
 10
245.34925
 20
108.857667
 30
0.0
 11
245.34925
 21
109.857667
 31
0.0
  0
LINE
  8
1
  6
CONTINUOUS
 62
     6
  5
36D
 10
245.34925
 20
109.857667
 30
0.0
 11
193.34925
 21
109.857667
 31
0.0
  0
LINE
  8
1
  6
CONTINUOUS
 62
     6
  5
36E
 10
193.34925
 20
109.857667
 30
0.0
 11
193.34925
 21
108.857667
 31
0.0
  0
LINE
  8
1
  6
CONTINUOUS
 62
     6
  5
36F
 10
193.34925
 20
108.857667
 30
0.0
 11
189.84925
 21
108.857667
 31
0.0
  0
LINE
  8
1
  6
CONTINUOUS
 62
     6
  5
370
 10
189.84925
 20
108.857667
 30
0.0
 11
189.84925
 21
109.857667
 31
0.0
  0
LINE
  8
1
  6
CONTINUOUS
 62
     6
  5
371
 10
189.84925
 20
109.857667
 30
0.0
 11
138.84925
 21
109.857667
 31
0.0
  0
LINE
  8
1
  6
CONTINUOUS
 62
     6
  5
372
 10
138.84925
 20
109.857667
 30
0.0
 11
138.84925
 21
108.857667
 31
0.0
  0
LINE
  8
1
  6
HIDDEN
 62
     6
  5
373
 10
119.09925
 20
98.857667
 30
0.0
 11
119.09925
 21
108.857667
 31
0.0
  0
LINE
  8
1
  6
HIDDEN
 62
     6
  5
374
 10
265.09925
 20
98.857667
 30
0.0
 11
265.09925
 21
108.857667
 31
0.0
  0
LINE
  8
1
  6
HIDDEN
 62
     6
  5
375
 10
119.09925
 20
98.857667
 30
0.0
 11
119.09925
 21
94.857667
 31
0.0
  0
LINE
  8
1
  6
HIDDEN
 62
     6
  5
376
 10
116.84925
 20
98.857667
 30
0.0
 11
116.84925
 21
94.857667
 31
0.0
  0
LINE
  8
1
  6
HIDDEN
 62
     6
  5
377
 10
121.84925
 20
98.857667
 30
0.0
 11
121.84925
 21
108.857667
 31
0.0
  0
LINE
  8
1
  6
HIDDEN
 62
     6
  5
378
 10
121.84925
 20
98.857667
 30
0.0
 11
121.84925
 21
94.857667
 31
0.0
  0
LINE
  8
1
  6
HIDDEN
 62
     6
  5
379
 10
124.09925
 20
98.857667
 30
0.0
 11
124.09925
 21
94.857667
 31
0.0
  0
LINE
  8
1
  6
HIDDEN
 62
     6
  5
37A
 10
262.34925
 20
98.857667
 30
0.0
 11
262.34925
 21
108.857667
 31
0.0
  0
LINE
  8
1
  6
HIDDEN
 62
     6
  5
37B
 10
267.34925
 20
98.857667
 30
0.0
 11
267.34925
 21
94.857667
 31
0.0
  0
LINE
  8
1
  6
HIDDEN
 62
     6
  5
37C
 10
265.09925
 20
98.857667
 30
0.0
 11
265.09925
 21
94.857667
 31
0.0
  0
LINE
  8
1
  6
HIDDEN
 62
     6
  5
37D
 10
262.34925
 20
98.857667
 30
0.0
 11
262.34925
 21
94.857667
 31
0.0
  0
LINE
  8
1
  6
HIDDEN
 62
     6
  5
37E
 10
260.09925
 20
98.857667
 30
0.0
 11
260.09925
 21
94.857667
 31
0.0
  0
LINE
  8
1
  6
CONTINUOUS
 62
     6
  5
37F
 10
119.09925
 20
170.857667
 30
0.0
 11
121.84925
 21
170.857667
 31
0.0
  0
LINE
  8
1
  6
CONTINUOUS
 62
     6
  5
380
 10
262.34925
 20
170.857667
 30
0.0
 11
265.09925
 21
170.857667
 31
0.0
  0
LINE
  8
1
  6
CONTINUOUS
 62
     6
  5
381
 10
119.09925
 20
169.857667
 30
0.0
 11
121.84925
 21
169.857667
 31
0.0
  0
LINE
  8
1
  6
CONTINUOUS
 62
     6
  5
382
 10
262.34925
 20
169.857667
 30
0.0
 11
265.09925
 21
169.857667
 31
0.0
  0
LINE
  8
1
  6
CONTINUOUS
 62
     6
  5
383
 10
119.09925
 20
108.857667
 30
0.0
 11
119.09925
 21
139.357667
 31
0.0
  0
LINE
  8
1
  6
CONTINUOUS
 62
     6
  5
384
 10
119.09925
 20
140.857667
 30
0.0
 11
119.09925
 21
170.857667
 31
0.0
  0
LINE
  8
1
  6
CONTINUOUS
 62
     6
  5
385
 10
118.84925
 20
140.857667
 30
0.0
 11
118.84925
 21
139.357667
 31
0.0
  0
LINE
  8
1
  6
CONTINUOUS
 62
     6
  5
386
 10
121.84925
 20
140.857667
 30
0.0
 11
121.84925
 21
170.857667
 31
0.0
  0
LINE
  8
1
  6
CONTINUOUS
 62
     6
  5
387
 10
121.84925
 20
108.857667
 30
0.0
 11
121.84925
 21
139.357667
 31
0.0
  0
LINE
  8
1
  6
CONTINUOUS
 62
     6
  5
388
 10
121.84925
 20
139.607667
 30
0.0
 11
121.84925
 21
140.607667
 31
0.0
  0
LINE
  8
1
  6
CONTINUOUS
 62
     6
  5
389
 10
122.34925
 20
140.857667
 30
0.0
 11
122.34925
 21
169.857667
 31
0.0
  0
LINE
  8
1
  6
CONTINUOUS
 62
     6
  5
38A
 10
122.84925
 20
140.857667
 30
0.0
 11
122.84925
 21
169.857667
 31
0.0
  0
LINE
  8
1
  6
CONTINUOUS
 62
     6
  5
38B
 10
122.34925
 20
139.607667
 30
0.0
 11
122.34925
 21
140.607667
 31
0.0
  0
LINE
  8
1
  6
CONTINUOUS
 62
     6
  5
38C
 10
122.84925
 20
139.607667
 30
0.0
 11
122.84925
 21
140.607667
 31
0.0
  0
LINE
  8
1
  6
CONTINUOUS
 62
     6
  5
38D
 10
122.34925
 20
110.607667
 30
0.0
 11
122.34925
 21
139.357667
 31
0.0
  0
LINE
  8
1
  6
CONTINUOUS
 62
     6
  5
38E
 10
122.84925
 20
110.607667
 30
0.0
 11
122.84925
 21
139.357667
 31
0.0
  0
LINE
  8
1
  6
CONTINUOUS
 62
     6
  5
38F
 10
265.34925
 20
140.857667
 30
0.0
 11
265.34925
 21
139.357667
 31
0.0
  0
LINE
  8
1
  6
CONTINUOUS
 62
     6
  5
390
 10
265.09925
 20
108.857667
 30
0.0
 11
265.09925
 21
139.357667
 31
0.0
  0
LINE
  8
1
  6
CONTINUOUS
 62
     6
  5
391
 10
265.09925
 20
140.857667
 30
0.0
 11
265.09925
 21
170.857667
 31
0.0
  0
LINE
  8
1
  6
CONTINUOUS
 62
     6
  5
392
 10
262.34925
 20
108.857667
 30
0.0
 11
262.34925
 21
139.357667
 31
0.0
  0
LINE
  8
1
  6
CONTINUOUS
 62
     6
  5
393
 10
262.34925
 20
140.857667
 30
0.0
 11
262.34925
 21
170.857667
 31
0.0
  0
LINE
  8
1
  6
CONTINUOUS
 62
     6
  5
394
 10
262.34925
 20
140.607667
 30
0.0
 11
262.34925
 21
139.607667
 31
0.0
  0
LINE
  8
1
  6
CONTINUOUS
 62
     6
  5
395
 10
261.84925
 20
140.857667
 30
0.0
 11
261.84925
 21
169.857667
 31
0.0
  0
LINE
  8
1
  6
CONTINUOUS
 62
     6
  5
396
 10
261.34925
 20
140.857667
 30
0.0
 11
261.34925
 21
169.857667
 31
0.0
  0
LINE
  8
1
  6
CONTINUOUS
 62
     6
  5
397
 10
261.84925
 20
140.607667
 30
0.0
 11
261.84925
 21
139.607667
 31
0.0
  0
LINE
  8
1
  6
CONTINUOUS
 62
     6
  5
398
 10
261.34925
 20
140.607667
 30
0.0
 11
261.34925
 21
139.607667
 31
0.0
  0
LINE
  8
1
  6
CONTINUOUS
 62
     6
  5
399
 10
261.84925
 20
110.607667
 30
0.0
 11
261.84925
 21
139.357667
 31
0.0
  0
LINE
  8
1
  6
CONTINUOUS
 62
     6
  5
39A
 10
261.34925
 20
110.607667
 30
0.0
 11
261.34925
 21
139.357667
 31
0.0
  0
LINE
  8
1
  6
CONTINUOUS
 62
     6
  5
39B
 10
122.34925
 20
169.857667
 30
0.0
 11
122.84925
 21
169.857667
 31
0.0
  0
LINE
  8
1
  6
CONTINUOUS
 62
     6
  5
39C
 10
122.34925
 20
110.607667
 30
0.0
 11
122.84925
 21
110.607667
 31
0.0
  0
LINE
  8
1
  6
CONTINUOUS
 62
     6
  5
39D
 10
122.84925
 20
111.357667
 30
0.0
 11
141.84925
 21
111.357667
 31
0.0
  0
LINE
  8
1
  6
CONTINUOUS
 62
     6
  5
39E
 10
141.84925
 20
110.607667
 30
0.0
 11
142.34925
 21
110.607667
 31
0.0
  0
LINE
  8
1
  6
CONTINUOUS
 62
     6
  5
39F
 10
141.84925
 20
169.857667
 30
0.0
 11
142.34925
 21
169.857667
 31
0.0
  0
LINE
  8
1
  6
CONTINUOUS
 62
     6
  5
3A0
 10
142.84925
 20
170.857667
 30
0.0
 11
145.84925
 21
170.857667
 31
0.0
  0
LINE
  8
1
  6
CONTINUOUS
 62
     6
  5
3A1
 10
142.84925
 20
169.857667
 30
0.0
 11
145.84925
 21
169.857667
 31
0.0
  0
LINE
  8
1
  6
CONTINUOUS
 62
     6
  5
3A2
 10
146.34925
 20
169.857667
 30
0.0
 11
146.84925
 21
169.857667
 31
0.0
  0
LINE
  8
1
  6
CONTINUOUS
 62
     6
  5
3A3
 10
141.84925
 20
110.607667
 30
0.0
 11
141.84925
 21
139.357667
 31
0.0
  0
LINE
  8
1
  6
CONTINUOUS
 62
     6
  5
3A4
 10
141.84925
 20
140.857667
 30
0.0
 11
141.84925
 21
169.857667
 31
0.0
  0
LINE
  8
1
  6
CONTINUOUS
 62
     6
  5
3A5
 10
142.34925
 20
110.607667
 30
0.0
 11
142.34925
 21
139.357667
 31
0.0
  0
LINE
  8
1
  6
CONTINUOUS
 62
     6
  5
3A6
 10
142.34925
 20
140.857667
 30
0.0
 11
142.34925
 21
169.857667
 31
0.0
  0
LINE
  8
1
  6
CONTINUOUS
 62
     6
  5
3A7
 10
142.84925
 20
109.857667
 30
0.0
 11
142.84925
 21
139.357667
 31
0.0
  0
LINE
  8
1
  6
CONTINUOUS
 62
     6
  5
3A8
 10
142.84925
 20
140.857667
 30
0.0
 11
142.84925
 21
170.857667
 31
0.0
  0
LINE
  8
1
  6
CONTINUOUS
 62
     6
  5
3A9
 10
145.84925
 20
109.857667
 30
0.0
 11
145.84925
 21
139.357667
 31
0.0
  0
LINE
  8
1
  6
CONTINUOUS
 62
     6
  5
3AA
 10
145.84925
 20
140.857667
 30
0.0
 11
145.84925
 21
170.857667
 31
0.0
  0
LINE
  8
1
  6
CONTINUOUS
 62
     6
  5
3AB
 10
146.34925
 20
110.607667
 30
0.0
 11
146.34925
 21
139.357667
 31
0.0
  0
LINE
  8
1
  6
CONTINUOUS
 62
     6
  5
3AC
 10
146.34925
 20
140.857667
 30
0.0
 11
146.34925
 21
169.857667
 31
0.0
  0
LINE
  8
1
  6
CONTINUOUS
 62
     6
  5
3AD
 10
146.84925
 20
110.607667
 30
0.0
 11
146.84925
 21
139.357667
 31
0.0
  0
LINE
  8
1
  6
CONTINUOUS
 62
     6
  5
3AE
 10
146.84925
 20
140.857667
 30
0.0
 11
146.84925
 21
169.857667
 31
0.0
  0
LINE
  8
1
  6
CONTINUOUS
 62
     6
  5
3AF
 10
141.84925
 20
140.607667
 30
0.0
 11
141.84925
 21
139.607667
 31
0.0
  0
LINE
  8
1
  6
CONTINUOUS
 62
     6
  5
3B0
 10
142.34925
 20
140.607667
 30
0.0
 11
142.34925
 21
139.607667
 31
0.0
  0
LINE
  8
1
  6
CONTINUOUS
 62
     6
  5
3B1
 10
142.84925
 20
140.607667
 30
0.0
 11
142.84925
 21
139.607667
 31
0.0
  0
LINE
  8
1
  6
CONTINUOUS
 62
     6
  5
3B2
 10
145.84925
 20
140.607667
 30
0.0
 11
145.84925
 21
139.607667
 31
0.0
  0
LINE
  8
1
  6
CONTINUOUS
 62
     6
  5
3B3
 10
146.34925
 20
140.607667
 30
0.0
 11
146.34925
 21
139.607667
 31
0.0
  0
LINE
  8
1
  6
CONTINUOUS
 62
     6
  5
3B4
 10
146.84925
 20
140.607667
 30
0.0
 11
146.84925
 21
139.607667
 31
0.0
  0
LINE
  8
1
  6
CONTINUOUS
 62
     6
  5
3B5
 10
146.34925
 20
110.607667
 30
0.0
 11
146.84925
 21
110.607667
 31
0.0
  0
LINE
  8
1
  6
HIDDEN
 62
     6
  5
3B6
 10
142.84925
 20
98.857667
 30
0.0
 11
142.84925
 21
109.857667
 31
0.0
  0
LINE
  8
1
  6
HIDDEN
 62
     6
  5
3B7
 10
145.84925
 20
98.857667
 30
0.0
 11
145.84925
 21
109.857667
 31
0.0
  0
LINE
  8
1
  6
HIDDEN
 62
     6
  5
3B8
 10
142.84925
 20
98.857667
 30
0.0
 11
142.84925
 21
94.857667
 31
0.0
  0
LINE
  8
1
  6
HIDDEN
 62
     6
  5
3B9
 10
145.84925
 20
98.857667
 30
0.0
 11
145.84925
 21
94.857667
 31
0.0
  0
LINE
  8
1
  6
HIDDEN
 62
     6
  5
3BA
 10
148.09925
 20
98.857667
 30
0.0
 11
148.09925
 21
94.857667
 31
0.0
  0
LINE
  8
1
  6
HIDDEN
 62
     6
  5
3BB
 10
140.59925
 20
98.857667
 30
0.0
 11
140.59925
 21
94.857667
 31
0.0
  0
LINE
  8
1
  6
CONTINUOUS
 62
     6
  5
3BC
 10
146.84925
 20
111.357667
 30
0.0
 11
205.446917
 21
111.357667
 31
0.0
  0
LINE
  8
1
  6
CONTINUOUS
 62
     6
  5
3BD
 10
146.84925
 20
112.357667
 30
0.0
 11
205.446917
 21
112.357667
 31
0.0
  0
LINE
  8
1
  6
CONTINUOUS
 62
     6
  5
3BE
 10
193.196917
 20
108.857667
 30
0.0
 11
193.196917
 21
169.857667
 31
0.0
  0
LINE
  8
1
  6
CONTINUOUS
 62
     6
  5
3BF
 10
192.696917
 20
108.857667
 30
0.0
 11
192.696917
 21
169.857667
 31
0.0
  0
LINE
  8
1
  6
CONTINUOUS
 62
     6
  5
3C0
 10
192.696917
 20
169.857667
 30
0.0
 11
193.196917
 21
169.857667
 31
0.0
  0
LINE
  8
1
  6
CONTINUOUS
 62
     6
  5
3C1
 10
206.196917
 20
169.857667
 30
0.0
 11
207.196917
 21
169.857667
 31
0.0
  0
LINE
  8
1
  6
CONTINUOUS
 62
     6
  5
3C2
 10
207.696917
 20
169.857667
 30
0.0
 11
208.696917
 21
169.857667
 31
0.0
  0
LINE
  8
1
  6
CONTINUOUS
 62
     6
  5
3C3
 10
118.84925
 20
140.857667
 30
0.0
 11
204.946917
 21
140.857667
 31
0.0
  0
LINE
  8
1
  6
CONTINUOUS
 62
     6
  5
3C4
 10
209.946917
 20
140.857667
 30
0.0
 11
265.34925
 21
140.857667
 31
0.0
  0
LINE
  8
1
  6
CONTINUOUS
 62
     6
  5
3C5
 10
118.84925
 20
139.357667
 30
0.0
 11
204.946917
 21
139.357667
 31
0.0
  0
LINE
  8
1
  6
CONTINUOUS
 62
     6
  5
3C6
 10
209.946917
 20
139.357667
 30
0.0
 11
265.34925
 21
139.357667
 31
0.0
  0
LINE
  8
1
  6
CONTINUOUS
 62
     6
  5
3C7
 10
204.946917
 20
141.357667
 30
0.0
 11
204.946917
 21
138.857667
 31
0.0
  0
LINE
  8
1
  6
CONTINUOUS
 62
     6
  5
3C8
 10
209.946917
 20
141.357667
 30
0.0
 11
209.946917
 21
138.857667
 31
0.0
  0
LINE
  8
1
  6
CONTINUOUS
 62
     6
  5
3C9
 10
204.946917
 20
141.357667
 30
0.0
 11
209.946917
 21
141.357667
 31
0.0
  0
LINE
  8
1
  6
CONTINUOUS
 62
     6
  5
3CA
 10
204.946917
 20
138.857667
 30
0.0
 11
209.946917
 21
138.857667
 31
0.0
  0
LINE
  8
1
  6
CONTINUOUS
 62
     6
  5
3CB
 10
206.196917
 20
109.857667
 30
0.0
 11
206.196917
 21
138.857667
 31
0.0
  0
LINE
  8
1
  6
CONTINUOUS
 62
     6
  5
3CC
 10
206.196917
 20
141.357667
 30
0.0
 11
206.196917
 21
169.857667
 31
0.0
  0
LINE
  8
1
  6
CONTINUOUS
 62
     6
  5
3CD
 10
207.196917
 20
110.607667
 30
0.0
 11
207.196917
 21
138.857667
 31
0.0
  0
LINE
  8
1
  6
CONTINUOUS
 62
     6
  5
3CE
 10
207.196917
 20
141.357667
 30
0.0
 11
207.196917
 21
169.857667
 31
0.0
  0
LINE
  8
1
  6
CONTINUOUS
 62
     6
  5
3CF
 10
207.696917
 20
110.607667
 30
0.0
 11
207.696917
 21
138.857667
 31
0.0
  0
LINE
  8
1
  6
CONTINUOUS
 62
     6
  5
3D0
 10
207.696917
 20
141.357667
 30
0.0
 11
207.696917
 21
169.857667
 31
0.0
  0
LINE
  8
1
  6
CONTINUOUS
 62
     6
  5
3D1
 10
208.696917
 20
109.857667
 30
0.0
 11
208.696917
 21
138.857667
 31
0.0
  0
LINE
  8
1
  6
CONTINUOUS
 62
     6
  5
3D2
 10
208.696917
 20
141.357667
 30
0.0
 11
208.696917
 21
169.857667
 31
0.0
  0
LINE
  8
1
  6
CONTINUOUS
 62
     6
  5
3D3
 10
206.196917
 20
110.607667
 30
0.0
 11
207.196917
 21
110.607667
 31
0.0
  0
LINE
  8
1
  6
CONTINUOUS
 62
     6
  5
3D4
 10
207.696917
 20
110.607667
 30
0.0
 11
208.696917
 21
110.607667
 31
0.0
  0
LINE
  8
1
  6
CONTINUOUS
 62
     6
  5
3D5
 10
205.446917
 20
113.107667
 30
0.0
 11
205.446917
 21
111.357667
 31
0.0
  0
LINE
  8
1
  6
CONTINUOUS
 62
     6
  5
3D6
 10
205.446917
 20
111.857667
 30
0.0
 11
209.446917
 21
111.857667
 31
0.0
  0
LINE
  8
1
  6
CONTINUOUS
 62
     6
  5
3D7
 10
209.446917
 20
113.107667
 30
0.0
 11
209.446917
 21
111.357667
 31
0.0
  0
LINE
  8
1
  6
CONTINUOUS
 62
     6
  5
3D8
 10
205.446917
 20
113.107667
 30
0.0
 11
206.946917
 21
113.107667
 31
0.0
  0
LINE
  8
1
  6
CONTINUOUS
 62
     6
  5
3D9
 10
207.946917
 20
113.107667
 30
0.0
 11
209.446917
 21
113.107667
 31
0.0
  0
LINE
  8
1
  6
CONTINUOUS
 62
     6
  5
3DA
 10
209.446917
 20
112.357667
 30
0.0
 11
237.446917
 21
112.357667
 31
0.0
  0
LINE
  8
1
  6
CONTINUOUS
 62
     6
  5
3DB
 10
237.446917
 20
110.607667
 30
0.0
 11
236.946917
 21
110.607667
 31
0.0
  0
LINE
  8
1
  6
CONTINUOUS
 62
     6
  5
3DC
 10
241.446917
 20
110.607667
 30
0.0
 11
241.946917
 21
110.607667
 31
0.0
  0
LINE
  8
1
  6
CONTINUOUS
 62
     6
  5
3DD
 10
209.446917
 20
111.357667
 30
0.0
 11
236.946917
 21
111.357667
 31
0.0
  0
LINE
  8
1
  6
CONTINUOUS
 62
     6
  5
3DE
 10
241.946917
 20
111.357667
 30
0.0
 11
261.34925
 21
111.357667
 31
0.0
  0
LINE
  8
1
  6
CONTINUOUS
 62
     6
  5
3DF
 10
261.34925
 20
110.607667
 30
0.0
 11
261.84925
 21
110.607667
 31
0.0
  0
LINE
  8
1
  6
CONTINUOUS
 62
     6
  5
3E0
 10
237.946917
 20
170.857667
 30
0.0
 11
240.946917
 21
170.857667
 31
0.0
  0
LINE
  8
1
  6
CONTINUOUS
 62
     6
  5
3E1
 10
236.946917
 20
169.857667
 30
0.0
 11
237.446917
 21
169.857667
 31
0.0
  0
LINE
  8
1
  6
CONTINUOUS
 62
     6
  5
3E2
 10
241.446917
 20
169.857667
 30
0.0
 11
241.946917
 21
169.857667
 31
0.0
  0
LINE
  8
1
  6
CONTINUOUS
 62
     6
  5
3E3
 10
237.946917
 20
169.857667
 30
0.0
 11
240.946917
 21
169.857667
 31
0.0
  0
LINE
  8
1
  6
CONTINUOUS
 62
     6
  5
3E4
 10
261.34925
 20
169.857667
 30
0.0
 11
261.84925
 21
169.857667
 31
0.0
  0
LINE
  8
1
  6
CONTINUOUS
 62
     6
  5
3E5
 10
122.84925
 20
169.107667
 30
0.0
 11
141.84925
 21
169.107667
 31
0.0
  0
LINE
  8
1
  6
CONTINUOUS
 62
     6
  5
3E6
 10
122.84925
 20
168.107667
 30
0.0
 11
141.84925
 21
168.107667
 31
0.0
  0
LINE
  8
1
  6
CONTINUOUS
 62
     6
  5
3E7
 10
146.84925
 20
169.107667
 30
0.0
 11
192.696917
 21
169.107667
 31
0.0
  0
LINE
  8
1
  6
CONTINUOUS
 62
     6
  5
3E8
 10
146.84925
 20
168.107667
 30
0.0
 11
192.696917
 21
168.107667
 31
0.0
  0
LINE
  8
1
  6
CONTINUOUS
 62
     6
  5
3E9
 10
193.196917
 20
169.107667
 30
0.0
 11
206.196917
 21
169.107667
 31
0.0
  0
LINE
  8
1
  6
CONTINUOUS
 62
     6
  5
3EA
 10
193.196917
 20
168.107667
 30
0.0
 11
206.196917
 21
168.107667
 31
0.0
  0
LINE
  8
1
  6
CONTINUOUS
 62
     6
  5
3EB
 10
208.696917
 20
169.107667
 30
0.0
 11
236.946917
 21
169.107667
 31
0.0
  0
LINE
  8
1
  6
CONTINUOUS
 62
     6
  5
3EC
 10
241.946917
 20
169.107667
 30
0.0
 11
261.34925
 21
169.107667
 31
0.0
  0
LINE
  8
1
  6
CONTINUOUS
 62
     6
  5
3ED
 10
208.696917
 20
168.107667
 30
0.0
 11
236.946917
 21
168.107667
 31
0.0
  0
LINE
  8
1
  6
CONTINUOUS
 62
     6
  5
3EE
 10
241.946917
 20
168.107667
 30
0.0
 11
261.34925
 21
168.107667
 31
0.0
  0
LINE
  8
1
  6
CONTINUOUS
 62
     6
  5
3EF
 10
236.946917
 20
109.857667
 30
0.0
 11
236.946917
 21
139.357667
 31
0.0
  0
LINE
  8
1
  6
CONTINUOUS
 62
     6
  5
3F0
 10
236.946917
 20
140.857667
 30
0.0
 11
236.946917
 21
169.857667
 31
0.0
  0
LINE
  8
1
  6
CONTINUOUS
 62
     6
  5
3F1
 10
237.446917
 20
110.607667
 30
0.0
 11
237.446917
 21
139.357667
 31
0.0
  0
LINE
  8
1
  6
CONTINUOUS
 62
     6
  5
3F2
 10
237.446917
 20
140.857667
 30
0.0
 11
237.446917
 21
169.857667
 31
0.0
  0
LINE
  8
1
  6
CONTINUOUS
 62
     6
  5
3F3
 10
237.946917
 20
109.857667
 30
0.0
 11
237.946917
 21
139.357667
 31
0.0
  0
LINE
  8
1
  6
CONTINUOUS
 62
     6
  5
3F4
 10
237.946917
 20
140.857667
 30
0.0
 11
237.946917
 21
170.857667
 31
0.0
  0
LINE
  8
1
  6
CONTINUOUS
 62
     6
  5
3F5
 10
240.946917
 20
109.857667
 30
0.0
 11
240.946917
 21
139.357667
 31
0.0
  0
LINE
  8
1
  6
CONTINUOUS
 62
     6
  5
3F6
 10
240.946917
 20
140.857667
 30
0.0
 11
240.946917
 21
170.857667
 31
0.0
  0
LINE
  8
1
  6
CONTINUOUS
 62
     6
  5
3F7
 10
241.446917
 20
110.607667
 30
0.0
 11
241.446917
 21
139.357667
 31
0.0
  0
LINE
  8
1
  6
CONTINUOUS
 62
     6
  5
3F8
 10
241.446917
 20
140.857667
 30
0.0
 11
241.446917
 21
169.857667
 31
0.0
  0
LINE
  8
1
  6
CONTINUOUS
 62
     6
  5
3F9
 10
241.946917
 20
110.607667
 30
0.0
 11
241.946917
 21
139.357667
 31
0.0
  0
LINE
  8
1
  6
CONTINUOUS
 62
     6
  5
3FA
 10
241.946917
 20
140.857667
 30
0.0
 11
241.946917
 21
169.857667
 31
0.0
  0
LINE
  8
1
  6
CONTINUOUS
 62
     6
  5
3FB
 10
236.946917
 20
140.607667
 30
0.0
 11
236.946917
 21
139.607667
 31
0.0
  0
LINE
  8
1
  6
CONTINUOUS
 62
     6
  5
3FC
 10
237.446917
 20
140.607667
 30
0.0
 11
237.446917
 21
139.607667
 31
0.0
  0
LINE
  8
1
  6
CONTINUOUS
 62
     6
  5
3FD
 10
237.946917
 20
140.607667
 30
0.0
 11
237.946917
 21
139.607667
 31
0.0
  0
LINE
  8
1
  6
CONTINUOUS
 62
     6
  5
3FE
 10
240.946917
 20
140.607667
 30
0.0
 11
240.946917
 21
139.607667
 31
0.0
  0
LINE
  8
1
  6
CONTINUOUS
 62
     6
  5
3FF
 10
241.446917
 20
140.607667
 30
0.0
 11
241.446917
 21
139.607667
 31
0.0
  0
LINE
  8
1
  6
CONTINUOUS
 62
     6
  5
400
 10
241.946917
 20
140.607667
 30
0.0
 11
241.946917
 21
139.607667
 31
0.0
  0
LINE
  8
1
  6
HIDDEN
 62
     6
  5
401
 10
237.946917
 20
98.857667
 30
0.0
 11
237.946917
 21
109.857667
 31
0.0
  0
LINE
  8
1
  6
HIDDEN
 62
     6
  5
402
 10
240.946917
 20
98.857667
 30
0.0
 11
240.946917
 21
109.857667
 31
0.0
  0
LINE
  8
1
  6
HIDDEN
 62
     6
  5
403
 10
237.946917
 20
98.857667
 30
0.0
 11
237.946917
 21
94.857667
 31
0.0
  0
LINE
  8
1
  6
HIDDEN
 62
     6
  5
404
 10
240.946917
 20
98.857667
 30
0.0
 11
240.946917
 21
94.857667
 31
0.0
  0
LINE
  8
1
  6
HIDDEN
 62
     6
  5
405
 10
235.696917
 20
98.857667
 30
0.0
 11
235.696917
 21
94.857667
 31
0.0
  0
CIRCLE
  8
1
  6
CONTINUOUS
 62
     6
  5
406
 10
120.47425
 20
171.857667
 30
0.0
 40
1.0
210
0.0
220
0.0
230
1.0
  0
CIRCLE
  8
1
  6
CONTINUOUS
 62
     6
  5
407
 10
144.34925
 20
172.357667
 30
0.0
 40
1.5
210
0.0
220
0.0
230
1.0
  0
CIRCLE
  8
1
  6
CONTINUOUS
 62
     6
  5
408
 10
239.446917
 20
172.357667
 30
0.0
 40
1.5
210
0.0
220
0.0
230
1.0
  0
CIRCLE
  8
1
  6
CONTINUOUS
 62
     6
  5
409
 10
263.72425
 20
171.857667
 30
0.0
 40
1.0
210
0.0
220
0.0
230
1.0
  0
LINE
  8
1
  6
DASHED
 62
     6
  5
40A
 10
145.09925
 20
109.857667
 30
0.0
 11
145.09925
 21
149.857667
 31
0.0
  0
LINE
  8
1
  6
CONTINUOUS
 62
     6
  5
40B
 10
145.09925
 20
149.857667
 30
0.0
 11
182.59925
 21
149.857667
 31
0.0
  0
LINE
  8
1
  6
CONTINUOUS
 62
     6
  5
40C
 10
182.59925
 20
149.857667
 30
0.0
 11
182.59925
 21
109.857667
 31
0.0
  0
LINE
  8
1
  6
CONTINUOUS
 62
     6
  5
40D
 10
145.09925
 20
147.357667
 30
0.0
 11
182.59925
 21
147.357667
 31
0.0
  0
LINE
  8
1
  6
CONTINUOUS
 62
     6
  5
40E
 10
163.84925
 20
147.357667
 30
0.0
 11
163.84925
 21
109.857667
 31
0.0
  0
LINE
  8
1
  6
CONTINUOUS
 62
     6
  5
40F
 10
198.196917
 20
109.857667
 30
0.0
 11
198.196917
 21
174.962167
 31
0.0
  0
LINE
  8
1
  6
CONTINUOUS
 62
     6
  5
410
 10
198.196917
 20
174.962167
 30
0.0
 11
240.196917
 21
174.962167
 31
0.0
  0
LINE
  8
1
  6
CONTINUOUS
 62
     6
  5
411
 10
240.196917
 20
174.962167
 30
0.0
 11
240.196917
 21
173.656667
 31
0.0
  0
LINE
  8
1
  6
DASHED
 62
     6
  5
412
 10
240.196917
 20
173.656667
 30
0.0
 11
240.196917
 21
109.857667
 31
0.0
  0
LINE
  8
1
  6
CONTINUOUS
 62
     6
  5
413
 10
219.196917
 20
174.962167
 30
0.0
 11
219.196917
 21
109.857667
 31
0.0
  0
LINE
  8
1
  6
CONTINUOUS
 62
     6
  5
414
 10
236.946917
 20
174.962167
 30
0.0
 11
236.946917
 21
210.357667
 31
0.0
  0
LINE
  8
1
  6
CONTINUOUS
 62
     6
  5
415
 10
235.946917
 20
174.962167
 30
0.0
 11
235.946917
 21
210.357667
 31
0.0
  0
LINE
  8
1
  6
CONTINUOUS
 62
     6
  5
416
 10
235.446917
 20
210.357667
 30
0.0
 11
237.446917
 21
210.357667
 31
0.0
  0
LINE
  8
1
  6
CONTINUOUS
 62
     6
  5
417
 10
235.446917
 20
212.357667
 30
0.0
 11
237.446917
 21
212.357667
 31
0.0
  0
LINE
  8
1
  6
CONTINUOUS
 62
     6
  5
418
 10
235.446917
 20
212.357667
 30
0.0
 11
235.446917
 21
210.357667
 31
0.0
  0
LINE
  8
1
  6
CONTINUOUS
 62
     6
  5
419
 10
237.446917
 20
212.357667
 30
0.0
 11
237.446917
 21
210.357667
 31
0.0
  0
LINE
  8
1
  6
DASHED
 62
     6
  5
41A
 10
162.84925
 20
134.857667
 30
0.0
 11
162.84925
 21
75.357667
 31
0.0
  0
LINE
  8
1
  6
DASHED
 62
     6
  5
41B
 10
159.59925
 20
134.857667
 30
0.0
 11
159.59925
 21
75.357667
 31
0.0
  0
LINE
  8
1
  6
DASHED
 62
     6
  5
41C
 10
164.59925
 20
134.857667
 30
0.0
 11
164.59925
 21
75.357667
 31
0.0
  0
LINE
  8
1
  6
DASHED
 62
     6
  5
41D
 10
167.84925
 20
134.857667
 30
0.0
 11
167.84925
 21
75.357667
 31
0.0
  0
CIRCLE
  8
1
  6
DASHED
 62
     6
  5
41E
 10
161.22425
 20
134.857667
 30
0.0
 40
1.625
210
0.0
220
0.0
230
1.0
  0
CIRCLE
  8
1
  6
DASHED
 62
     6
  5
41F
 10
166.22425
 20
134.857667
 30
0.0
 40
1.625
210
0.0
220
0.0
230
1.0
  0
CIRCLE
  8
1
  6
DASHED
 62
     6
  5
420
 10
171.09925
 20
134.857667
 30
0.0
 40
1.25
210
0.0
220
0.0
230
1.0
  0
ARC
  8
1
  6
CONTINUOUS
 62
     6
  5
421
 10
160.41175
 20
76.030966
 30
0.0
 40
1.05522
 50
219.647747
 51
320.352247
210
0.0
220
0.0
230
1.0
  0
ARC
  8
1
  6
CONTINUOUS
 62
     6
  5
422
 10
162.03675
 20
75.651756
 30
0.0
 40
0.864086
 50
199.898047
 51
340.10195
210
0.0
220
0.0
230
1.0
  0
ARC
  8
1
  6
CONTINUOUS
 62
     6
  5
423
 10
167.03675
 20
75.651756
 30
0.0
 40
0.864086
 50
199.898047
 51
340.10195
210
0.0
220
0.0
230
1.0
  0
ARC
  8
1
  6
CONTINUOUS
 62
     6
  5
424
 10
165.41175
 20
75.978071
 30
0.0
 40
1.022281
 50
217.364436
 51
322.635558
210
0.0
220
0.0
230
1.0
  0
ARC
  8
1
  6
CONTINUOUS
 62
     6
  5
425
 10
162.03675
 20
75.063577
 30
0.0
 40
0.864086
 50
19.89805
 51
160.101953
210
0.0
220
0.0
230
1.0
  0
ARC
  8
1
  6
CONTINUOUS
 62
     6
  5
426
 10
167.03675
 20
75.063577
 30
0.0
 40
0.864086
 50
19.89805
 51
160.101953
210
0.0
220
0.0
230
1.0
  0
LINE
  8
1
  6
DASHED
 62
     6
  5
427
 10
169.84925
 20
134.857667
 30
0.0
 11
169.84925
 21
109.857667
 31
0.0
  0
LINE
  8
1
  6
DASHED
 62
     6
  5
428
 10
169.84925
 20
109.857667
 30
0.0
 11
169.84925
 21
93.357667
 31
0.0
  0
LINE
  8
1
  6
DASHED
 62
     6
  5
429
 10
172.34925
 20
134.857667
 30
0.0
 11
172.34925
 21
109.857667
 31
0.0
  0
LINE
  8
1
  6
DASHED
 62
     6
  5
42A
 10
172.34925
 20
109.857667
 30
0.0
 11
172.34925
 21
94.107667
 31
0.0
  0
LINE
  8
1
  6
DASHED
 62
     6
  5
42B
 10
206.196917
 20
109.857667
 30
0.0
 11
206.196917
 21
94.107667
 31
0.0
  0
LINE
  8
1
  6
DASHED
 62
     6
  5
42C
 10
208.696917
 20
109.857667
 30
0.0
 11
208.696917
 21
93.357667
 31
0.0
  0
LINE
  8
1
  6
DASHED
 62
     6
  5
42D
 10
181.84925
 20
81.357667
 30
0.0
 11
196.696917
 21
81.357667
 31
0.0
  0
LINE
  8
1
  6
DASHED
 62
     6
  5
42E
 10
182.34925
 20
84.107667
 30
0.0
 11
196.196917
 21
84.107667
 31
0.0
  0
ARC
  8
1
  6
DASHED
 62
     6
  5
42F
 10
182.34925
 20
94.107667
 30
0.0
 40
10.0
 50
180.0
 51
270.0
210
0.0
220
0.0
230
1.0
  0
ARC
  8
1
  6
DASHED
 62
     6
  5
430
 10
196.196917
 20
94.107667
 30
0.0
 40
10.0
 50
270.0
 51
0.0
210
0.0
220
0.0
230
1.0
  0
ARC
  8
1
  6
DASHED
 62
     6
  5
431
 10
181.84925
 20
93.357667
 30
0.0
 40
12.0
 50
180.0
 51
270.0
210
0.0
220
0.0
230
1.0
  0
ARC
  8
1
  6
DASHED
 62
     6
  5
432
 10
196.696917
 20
93.357667
 30
0.0
 40
12.0
 50
270.0
 51
0.0
210
0.0
220
0.0
230
1.0
  0
LINE
  8
1
  6
CONTINUOUS
 62
     6
  5
433
 10
101.09925
 20
81.482667
 30
0.0
 11
101.09925
 21
85.482667
 31
0.0
  0
LINE
  8
1
  6
CONTINUOUS
 62
     6
  5
434
 10
102.34925
 20
81.482667
 30
0.0
 11
102.34925
 21
85.482667
 31
0.0
  0
LINE
  8
1
  6
CONTINUOUS
 62
     6
  5
435
 10
102.34925
 20
85.482667
 30
0.0
 11
101.09925
 21
85.482667
 31
0.0
  0
LINE
  8
1
  6
CONTINUOUS
 62
     6
  5
436
 10
102.34925
 20
79.232667
 30
0.0
 11
102.34925
 21
59.232667
 31
0.0
  0
LINE
  8
1
  6
CONTINUOUS
 62
     6
  5
437
 10
101.09925
 20
79.232667
 30
0.0
 11
101.09925
 21
59.232667
 31
0.0
  0
LINE
  8
1
  6
CONTINUOUS
 62
     6
  5
438
 10
101.09925
 20
57.232667
 30
0.0
 11
101.09925
 21
47.232667
 31
0.0
  0
LINE
  8
1
  6
CONTINUOUS
 62
     6
  5
439
 10
102.34925
 20
57.232667
 30
0.0
 11
102.34925
 21
47.232667
 31
0.0
  0
LINE
  8
1
  6
CONTINUOUS
 62
     6
  5
43A
 10
101.09925
 20
47.232667
 30
0.0
 11
101.72425
 21
44.232667
 31
0.0
  0
LINE
  8
1
  6
CONTINUOUS
 62
     6
  5
43B
 10
102.34925
 20
47.232667
 30
0.0
 11
101.72425
 21
44.232667
 31
0.0
  0
ARC
  8
1
  6
CONTINUOUS
 62
     6
  5
43C
 10
101.41175
 20
59.412657
 30
0.0
 40
0.360628
 50
209.940603
 51
330.0594
210
0.0
220
0.0
230
1.0
  0
ARC
  8
1
  6
CONTINUOUS
 62
     6
  5
43D
 10
102.03675
 20
59.412657
 30
0.0
 40
0.360628
 50
209.940603
 51
330.0594
210
0.0
220
0.0
230
1.0
  0
ARC
  8
1
  6
CONTINUOUS
 62
     6
  5
43E
 10
102.03675
 20
59.052676
 30
0.0
 40
0.360628
 50
29.9406
 51
150.059397
210
0.0
220
0.0
230
1.0
  0
ARC
  8
1
  6
CONTINUOUS
 62
     6
  5
43F
 10
101.41175
 20
57.052676
 30
0.0
 40
0.360628
 50
29.9406
 51
150.059397
210
0.0
220
0.0
230
1.0
  0
ARC
  8
1
  6
CONTINUOUS
 62
     6
  5
440
 10
102.03675
 20
57.052676
 30
0.0
 40
0.360628
 50
29.9406
 51
150.059397
210
0.0
220
0.0
230
1.0
  0
ARC
  8
1
  6
CONTINUOUS
 62
     6
  5
441
 10
101.41175
 20
57.412657
 30
0.0
 40
0.360628
 50
209.940603
 51
330.0594
210
0.0
220
0.0
230
1.0
  0
POLYLINE
  8
1
  6
CONTINUOUS
 62
     6
  5
442
 66
     1
 10
0.0
 20
0.0
 30
0.0
 70
     1
  0
VERTEX
  8
1
  6
CONTINUOUS
 62
     6
  5
443
 10
100.59925
 20
81.482667
 30
0.0
  0
VERTEX
  8
1
  6
CONTINUOUS
 62
     6
  5
444
 10
102.84925
 20
81.482667
 30
0.0
  0
VERTEX
  8
1
  6
CONTINUOUS
 62
     6
  5
445
 10
102.84925
 20
79.232667
 30
0.0
  0
VERTEX
  8
1
  6
CONTINUOUS
 62
     6
  5
446
 10
100.59925
 20
79.232667
 30
0.0
  0
VERTEX
  8
1
  6
CONTINUOUS
 62
     6
  5
447
 10
100.59925
 20
81.482667
 30
0.0
  0
SEQEND
  8
1
  6
CONTINUOUS
 62
     6
  5
448
  0
LINE
  8
1
  6
CONTINUOUS
 62
     6
  5
449
 10
282.09925
 20
79.232667
 30
0.0
 11
282.09925
 21
59.232667
 31
0.0
  0
LINE
  8
1
  6
CONTINUOUS
 62
     6
  5
44A
 10
280.84925
 20
81.482667
 30
0.0
 11
280.84925
 21
85.482667
 31
0.0
  0
LINE
  8
1
  6
CONTINUOUS
 62
     6
  5
44B
 10
282.09925
 20
81.482667
 30
0.0
 11
282.09925
 21
85.482667
 31
0.0
  0
LINE
  8
1
  6
CONTINUOUS
 62
     6
  5
44C
 10
282.09925
 20
85.482667
 30
0.0
 11
280.84925
 21
85.482667
 31
0.0
  0
LINE
  8
1
  6
CONTINUOUS
 62
     6
  5
44D
 10
280.84925
 20
79.232667
 30
0.0
 11
280.84925
 21
59.232667
 31
0.0
  0
LINE
  8
1
  6
CONTINUOUS
 62
     6
  5
44E
 10
280.84925
 20
57.232667
 30
0.0
 11
280.84925
 21
47.232667
 31
0.0
  0
LINE
  8
1
  6
CONTINUOUS
 62
     6
  5
44F
 10
282.09925
 20
57.232667
 30
0.0
 11
282.09925
 21
47.232667
 31
0.0
  0
LINE
  8
1
  6
CONTINUOUS
 62
     6
  5
450
 10
280.84925
 20
47.232667
 30
0.0
 11
281.47425
 21
44.232667
 31
0.0
  0
LINE
  8
1
  6
CONTINUOUS
 62
     6
  5
451
 10
282.09925
 20
47.232667
 30
0.0
 11
281.47425
 21
44.232667
 31
0.0
  0
ARC
  8
1
  6
CONTINUOUS
 62
     6
  5
452
 10
281.16175
 20
59.412657
 30
0.0
 40
0.360628
 50
209.940603
 51
330.0594
210
0.0
220
0.0
230
1.0
  0
ARC
  8
1
  6
CONTINUOUS
 62
     6
  5
453
 10
281.78675
 20
59.412657
 30
0.0
 40
0.360628
 50
209.940603
 51
330.0594
210
0.0
220
0.0
230
1.0
  0
ARC
  8
1
  6
CONTINUOUS
 62
     6
  5
454
 10
281.78675
 20
59.052676
 30
0.0
 40
0.360628
 50
29.9406
 51
150.059397
210
0.0
220
0.0
230
1.0
  0
ARC
  8
1
  6
CONTINUOUS
 62
     6
  5
455
 10
281.16175
 20
57.052676
 30
0.0
 40
0.360628
 50
29.9406
 51
150.059397
210
0.0
220
0.0
230
1.0
  0
ARC
  8
1
  6
CONTINUOUS
 62
     6
  5
456
 10
281.78675
 20
57.052676
 30
0.0
 40
0.360628
 50
29.9406
 51
150.059397
210
0.0
220
0.0
230
1.0
  0
ARC
  8
1
  6
CONTINUOUS
 62
     6
  5
457
 10
281.16175
 20
57.412657
 30
0.0
 40
0.360628
 50
209.940603
 51
330.0594
210
0.0
220
0.0
230
1.0
  0
POLYLINE
  8
1
  6
CONTINUOUS
 62
     6
  5
458
 66
     1
 10
0.0
 20
0.0
 30
0.0
 70
     1
  0
VERTEX
  8
1
  6
CONTINUOUS
 62
     6
  5
459
 10
280.34925
 20
81.482667
 30
0.0
  0
VERTEX
  8
1
  6
CONTINUOUS
 62
     6
  5
45A
 10
282.59925
 20
81.482667
 30
0.0
  0
VERTEX
  8
1
  6
CONTINUOUS
 62
     6
  5
45B
 10
282.59925
 20
79.232667
 30
0.0
  0
VERTEX
  8
1
  6
CONTINUOUS
 62
     6
  5
45C
 10
280.34925
 20
79.232667
 30
0.0
  0
VERTEX
  8
1
  6
CONTINUOUS
 62
     6
  5
45D
 10
280.34925
 20
81.482667
 30
0.0
  0
SEQEND
  8
1
  6
CONTINUOUS
 62
     6
  5
45E
  0
LINE
  8
1
  6
CONTINUOUS
 62
     6
  5
45F
 10
176.09925
 20
80.357667
 30
0.0
 11
191.09925
 21
80.357667
 31
0.0
  0
LINE
  8
1
  6
CONTINUOUS
 62
     6
  5
460
 10
192.09925
 20
80.357667
 30
0.0
 11
207.09925
 21
80.357667
 31
0.0
  0
LINE
  8
1
  6
CONTINUOUS
 62
     6
  5
461
 10
160.09925
 20
80.357667
 30
0.0
 11
175.09925
 21
80.357667
 31
0.0
  0
LINE
  8
1
  6
CONTINUOUS
 62
     6
  5
462
 10
208.09925
 20
80.357667
 30
0.0
 11
223.09925
 21
80.357667
 31
0.0
  0
LINE
  8
1
  6
CONTINUOUS
 62
     6
  5
463
 10
144.09925
 20
80.357667
 30
0.0
 11
159.09925
 21
80.357667
 31
0.0
  0
LINE
  8
1
  6
CONTINUOUS
 62
     6
  5
464
 10
224.09925
 20
80.357667
 30
0.0
 11
239.09925
 21
80.357667
 31
0.0
  0
LINE
  8
1
  6
CONTINUOUS
 62
     6
  5
465
 10
128.09925
 20
80.357667
 30
0.0
 11
143.09925
 21
80.357667
 31
0.0
  0
LINE
  8
1
  6
CONTINUOUS
 62
     6
  5
466
 10
240.09925
 20
80.357667
 30
0.0
 11
255.09925
 21
80.357667
 31
0.0
  0
LINE
  8
1
  6
CONTINUOUS
 62
     6
  5
467
 10
102.84925
 20
80.357667
 30
0.0
 11
111.09925
 21
80.357667
 31
0.0
  0
LINE
  8
1
  6
CONTINUOUS
 62
     6
  5
468
 10
112.09925
 20
80.357667
 30
0.0
 11
127.09925
 21
80.357667
 31
0.0
  0
LINE
  8
1
  6
CONTINUOUS
 62
     6
  5
469
 10
256.09925
 20
80.357667
 30
0.0
 11
271.09925
 21
80.357667
 31
0.0
  0
LINE
  8
1
  6
CONTINUOUS
 62
     6
  5
46A
 10
272.09925
 20
80.357667
 30
0.0
 11
280.34925
 21
80.357667
 31
0.0
  0
LINE
  8
1
  6
DASHED
 62
     6
  5
46B
 10
153.59925
 20
112.857667
 30
0.0
 11
153.59925
 21
97.857667
 31
0.0
  0
LINE
  8
1
  6
DASHED
 62
     6
  5
46C
 10
152.34925
 20
112.857667
 30
0.0
 11
152.34925
 21
97.857667
 31
0.0
  0
LINE
  8
1
  6
CONTINUOUS
 62
     6
  5
46D
 10
152.34925
 20
112.857667
 30
0.0
 11
153.59925
 21
112.857667
 31
0.0
  0
LINE
  8
1
  6
DASHED
 62
     6
  5
46E
 10
153.59925
 20
95.607667
 30
0.0
 11
153.59925
 21
88.107667
 31
0.0
  0
LINE
  8
1
  6
DASHED
 62
     6
  5
46F
 10
152.34925
 20
95.607667
 30
0.0
 11
152.34925
 21
88.107667
 31
0.0
  0
LINE
  8
1
  6
DASHED
 62
     6
  5
470
 10
152.34925
 20
86.107667
 30
0.0
 11
152.34925
 21
77.357667
 31
0.0
  0
LINE
  8
1
  6
DASHED
 62
     6
  5
471
 10
153.59925
 20
86.107667
 30
0.0
 11
153.59925
 21
77.357667
 31
0.0
  0
ARC
  8
1
  6
CONTINUOUS
 62
     6
  5
472
 10
153.28675
 20
85.927676
 30
0.0
 40
0.360628
 50
29.940603
 51
150.0594
210
0.0
220
0.0
230
1.0
  0
ARC
  8
1
  6
CONTINUOUS
 62
     6
  5
473
 10
153.28675
 20
88.287657
 30
0.0
 40
0.360628
 50
209.9406
 51
330.059397
210
0.0
220
0.0
230
1.0
  0
ARC
  8
1
  6
CONTINUOUS
 62
     6
  5
474
 10
152.66175
 20
88.287657
 30
0.0
 40
0.360628
 50
209.9406
 51
330.059397
210
0.0
220
0.0
230
1.0
  0
ARC
  8
1
  6
CONTINUOUS
 62
     6
  5
475
 10
152.66175
 20
87.927676
 30
0.0
 40
0.360628
 50
29.940603
 51
150.0594
210
0.0
220
0.0
230
1.0
  0
ARC
  8
1
  6
CONTINUOUS
 62
     6
  5
476
 10
152.66175
 20
85.927676
 30
0.0
 40
0.360628
 50
29.940603
 51
150.0594
210
0.0
220
0.0
230
1.0
  0
ARC
  8
1
  6
CONTINUOUS
 62
     6
  5
477
 10
153.28675
 20
86.287657
 30
0.0
 40
0.360628
 50
209.9406
 51
330.059397
210
0.0
220
0.0
230
1.0
  0
LINE
  8
1
  6
CONTINUOUS
 62
     6
  5
478
 10
152.34925
 20
77.357667
 30
0.0
 11
152.97425
 21
75.357667
 31
0.0
  0
LINE
  8
1
  6
CONTINUOUS
 62
     6
  5
479
 10
152.97425
 20
75.357667
 30
0.0
 11
153.59925
 21
77.357667
 31
0.0
  0
POLYLINE
  8
1
  6
CONTINUOUS
 62
     6
  5
47A
 66
     1
 10
0.0
 20
0.0
 30
0.0
 70
     1
  0
VERTEX
  8
1
  6
CONTINUOUS
 62
     6
  5
47B
 10
151.84925
 20
95.607667
 30
0.0
  0
VERTEX
  8
1
  6
CONTINUOUS
 62
     6
  5
47C
 10
151.84925
 20
97.857667
 30
0.0
  0
VERTEX
  8
1
  6
CONTINUOUS
 62
     6
  5
47D
 10
154.09925
 20
97.857667
 30
0.0
  0
VERTEX
  8
1
  6
CONTINUOUS
 62
     6
  5
47E
 10
154.09925
 20
95.607667
 30
0.0
  0
VERTEX
  8
1
  6
CONTINUOUS
 62
     6
  5
47F
 10
151.84925
 20
95.607667
 30
0.0
  0
SEQEND
  8
1
  6
CONTINUOUS
 62
     6
  5
480
  0
LINE
  8
1
  6
CONTINUOUS
 62
     6
  5
481
 10
174.09925
 20
112.857667
 30
0.0
 11
175.34925
 21
112.857667
 31
0.0
  0
LINE
  8
1
  6
DASHED
 62
     6
  5
482
 10
174.09925
 20
112.857667
 30
0.0
 11
174.09925
 21
92.357667
 31
0.0
  0
LINE
  8
1
  6
DASHED
 62
     6
  5
483
 10
175.34925
 20
112.857667
 30
0.0
 11
175.34925
 21
92.357667
 31
0.0
  0
LINE
  8
1
  6
CONTINUOUS
 62
     6
  5
484
 10
174.09925
 20
112.857667
 30
0.0
 11
175.34925
 21
112.857667
 31
0.0
  0
LINE
  8
1
  6
DASHED
 62
     6
  5
485
 10
174.09925
 20
90.357667
 30
0.0
 11
174.09925
 21
77.357667
 31
0.0
  0
LINE
  8
1
  6
DASHED
 62
     6
  5
486
 10
175.34925
 20
90.357667
 30
0.0
 11
175.34925
 21
77.357667
 31
0.0
  0
ARC
  8
1
  6
CONTINUOUS
 62
     6
  5
487
 10
174.41175
 20
90.177676
 30
0.0
 40
0.360628
 50
29.9406
 51
150.059397
210
0.0
220
0.0
230
1.0
  0
ARC
  8
1
  6
CONTINUOUS
 62
     6
  5
488
 10
174.41175
 20
92.537657
 30
0.0
 40
0.360628
 50
209.940603
 51
330.0594
210
0.0
220
0.0
230
1.0
  0
ARC
  8
1
  6
CONTINUOUS
 62
     6
  5
489
 10
175.03675
 20
92.537657
 30
0.0
 40
0.360628
 50
209.940603
 51
330.0594
210
0.0
220
0.0
230
1.0
  0
ARC
  8
1
  6
CONTINUOUS
 62
     6
  5
48A
 10
175.03675
 20
92.177676
 30
0.0
 40
0.360628
 50
29.9406
 51
150.059397
210
0.0
220
0.0
230
1.0
  0
ARC
  8
1
  6
CONTINUOUS
 62
     6
  5
48B
 10
175.03675
 20
90.177676
 30
0.0
 40
0.360628
 50
29.9406
 51
150.059397
210
0.0
220
0.0
230
1.0
  0
ARC
  8
1
  6
CONTINUOUS
 62
     6
  5
48C
 10
174.41175
 20
90.537657
 30
0.0
 40
0.360628
 50
209.940603
 51
330.0594
210
0.0
220
0.0
230
1.0
  0
LINE
  8
1
  6
CONTINUOUS
 62
     6
  5
48D
 10
174.09925
 20
77.357667
 30
0.0
 11
174.72425
 21
75.357667
 31
0.0
  0
LINE
  8
1
  6
CONTINUOUS
 62
     6
  5
48E
 10
174.72425
 20
75.357667
 30
0.0
 11
175.34925
 21
77.357667
 31
0.0
  0
POLYLINE
  8
1
  6
CONTINUOUS
 62
     6
  5
48F
 66
     1
 10
0.0
 20
0.0
 30
0.0
 70
     1
  0
VERTEX
  8
1
  6
CONTINUOUS
 62
     6
  5
490
 10
173.59925
 20
93.357667
 30
0.0
  0
VERTEX
  8
1
  6
CONTINUOUS
 62
     6
  5
491
 10
173.59925
 20
95.607667
 30
0.0
  0
VERTEX
  8
1
  6
CONTINUOUS
 62
     6
  5
492
 10
175.84925
 20
95.607667
 30
0.0
  0
VERTEX
  8
1
  6
CONTINUOUS
 62
     6
  5
493
 10
175.84925
 20
93.357667
 30
0.0
  0
VERTEX
  8
1
  6
CONTINUOUS
 62
     6
  5
494
 10
173.59925
 20
93.357667
 30
0.0
  0
SEQEND
  8
1
  6
CONTINUOUS
 62
     6
  5
495
  0
LINE
  8
1
  6
DASHED
 62
     6
  5
496
 10
139.84925
 20
108.857667
 30
0.0
 11
188.84925
 21
108.857667
 31
0.0
  0
LINE
  8
1
  6
DASHED
 62
     6
  5
497
 10
194.34925
 20
108.857667
 30
0.0
 11
244.34925
 21
108.857667
 31
0.0
  0
LINE
  8
1
  6
DASHED
 62
     6
  5
498
 10
151.34925
 20
109.857667
 30
0.0
 11
151.34925
 21
98.857667
 31
0.0
  0
LINE
  8
1
  6
DASHED
 62
     6
  5
499
 10
176.34925
 20
109.857667
 30
0.0
 11
176.34925
 21
98.857667
 31
0.0
  0
LINE
  8
1
  6
CONTINUOUS
 62
     6
  5
49A
 10
199.84925
 20
112.857667
 30
0.0
 11
201.09925
 21
112.857667
 31
0.0
  0
LINE
  8
1
  6
DASHED
 62
     6
  5
49B
 10
199.84925
 20
112.857667
 30
0.0
 11
199.84925
 21
89.357667
 31
0.0
  0
LINE
  8
1
  6
DASHED
 62
     6
  5
49C
 10
201.09925
 20
112.857667
 30
0.0
 11
201.09925
 21
89.357667
 31
0.0
  0
LINE
  8
1
  6
DASHED
 62
     6
  5
49D
 10
199.84925
 20
87.357667
 30
0.0
 11
199.84925
 21
77.357667
 31
0.0
  0
LINE
  8
1
  6
DASHED
 62
     6
  5
49E
 10
201.09925
 20
87.357667
 30
0.0
 11
201.09925
 21
77.357667
 31
0.0
  0
LINE
  8
1
  6
CONTINUOUS
 62
     6
  5
49F
 10
199.84925
 20
77.357667
 30
0.0
 11
200.47425
 21
75.357667
 31
0.0
  0
LINE
  8
1
  6
CONTINUOUS
 62
     6
  5
4A0
 10
200.47425
 20
75.357667
 30
0.0
 11
201.09925
 21
77.357667
 31
0.0
  0
LINE
  8
1
  6
DASHED
 62
     6
  5
4A1
 10
202.09925
 20
112.857667
 30
0.0
 11
202.09925
 21
90.857667
 31
0.0
  0
LINE
  8
1
  6
DASHED
 62
     6
  5
4A2
 10
203.34925
 20
112.857667
 30
0.0
 11
203.34925
 21
90.857667
 31
0.0
  0
LINE
  8
1
  6
DASHED
 62
     6
  5
4A3
 10
202.09925
 20
88.857667
 30
0.0
 11
202.09925
 21
77.357667
 31
0.0
  0
LINE
  8
1
  6
DASHED
 62
     6
  5
4A4
 10
203.34925
 20
88.857667
 30
0.0
 11
203.34925
 21
77.357667
 31
0.0
  0
LINE
  8
1
  6
CONTINUOUS
 62
     6
  5
4A5
 10
202.09925
 20
77.357667
 30
0.0
 11
202.72425
 21
75.357667
 31
0.0
  0
LINE
  8
1
  6
CONTINUOUS
 62
     6
  5
4A6
 10
202.72425
 20
75.357667
 30
0.0
 11
203.34925
 21
77.357667
 31
0.0
  0
ARC
  8
1
  6
CONTINUOUS
 62
     6
  5
4A7
 10
200.78675
 20
89.537657
 30
0.0
 40
0.360628
 50
209.9406
 51
330.059397
210
0.0
220
0.0
230
1.0
  0
ARC
  8
1
  6
CONTINUOUS
 62
     6
  5
4A8
 10
200.78675
 20
87.177676
 30
0.0
 40
0.360628
 50
29.940603
 51
150.0594
210
0.0
220
0.0
230
1.0
  0
ARC
  8
1
  6
CONTINUOUS
 62
     6
  5
4A9
 10
200.16175
 20
89.537657
 30
0.0
 40
0.360628
 50
209.9406
 51
330.059397
210
0.0
220
0.0
230
1.0
  0
ARC
  8
1
  6
CONTINUOUS
 62
     6
  5
4AA
 10
200.16175
 20
89.177676
 30
0.0
 40
0.360628
 50
29.940603
 51
150.0594
210
0.0
220
0.0
230
1.0
  0
ARC
  8
1
  6
CONTINUOUS
 62
     6
  5
4AB
 10
200.16175
 20
87.177676
 30
0.0
 40
0.360628
 50
29.940603
 51
150.0594
210
0.0
220
0.0
230
1.0
  0
ARC
  8
1
  6
CONTINUOUS
 62
     6
  5
4AC
 10
200.78675
 20
87.537657
 30
0.0
 40
0.360628
 50
209.9406
 51
330.059397
210
0.0
220
0.0
230
1.0
  0
POLYLINE
  8
1
  6
CONTINUOUS
 62
     6
  5
4AD
 66
     1
 10
0.0
 20
0.0
 30
0.0
 70
     1
  0
VERTEX
  8
1
  6
CONTINUOUS
 62
     6
  5
4AE
 10
199.34925
 20
95.607667
 30
0.0
  0
VERTEX
  8
1
  6
CONTINUOUS
 62
     6
  5
4AF
 10
199.34925
 20
97.857667
 30
0.0
  0
VERTEX
  8
1
  6
CONTINUOUS
 62
     6
  5
4B0
 10
201.59925
 20
97.857667
 30
0.0
  0
VERTEX
  8
1
  6
CONTINUOUS
 62
     6
  5
4B1
 10
201.59925
 20
95.607667
 30
0.0
  0
VERTEX
  8
1
  6
CONTINUOUS
 62
     6
  5
4B2
 10
199.34925
 20
95.607667
 30
0.0
  0
SEQEND
  8
1
  6
CONTINUOUS
 62
     6
  5
4B3
  0
ARC
  8
1
  6
CONTINUOUS
 62
     6
  5
4B4
 10
203.03675
 20
91.037657
 30
0.0
 40
0.360628
 50
209.9406
 51
330.059397
210
0.0
220
0.0
230
1.0
  0
ARC
  8
1
  6
CONTINUOUS
 62
     6
  5
4B5
 10
203.03675
 20
88.677676
 30
0.0
 40
0.360628
 50
29.940603
 51
150.0594
210
0.0
220
0.0
230
1.0
  0
ARC
  8
1
  6
CONTINUOUS
 62
     6
  5
4B6
 10
202.41175
 20
91.037657
 30
0.0
 40
0.360628
 50
209.9406
 51
330.059397
210
0.0
220
0.0
230
1.0
  0
ARC
  8
1
  6
CONTINUOUS
 62
     6
  5
4B7
 10
202.41175
 20
90.677676
 30
0.0
 40
0.360628
 50
29.940603
 51
150.0594
210
0.0
220
0.0
230
1.0
  0
ARC
  8
1
  6
CONTINUOUS
 62
     6
  5
4B8
 10
202.41175
 20
88.677676
 30
0.0
 40
0.360628
 50
29.940603
 51
150.0594
210
0.0
220
0.0
230
1.0
  0
ARC
  8
1
  6
CONTINUOUS
 62
     6
  5
4B9
 10
203.03675
 20
89.037657
 30
0.0
 40
0.360628
 50
209.9406
 51
330.059397
210
0.0
220
0.0
230
1.0
  0
POLYLINE
  8
1
  6
CONTINUOUS
 62
     6
  5
4BA
 66
     1
 10
0.0
 20
0.0
 30
0.0
 70
     1
  0
VERTEX
  8
1
  6
CONTINUOUS
 62
     6
  5
4BB
 10
201.59925
 20
95.107667
 30
0.0
  0
VERTEX
  8
1
  6
CONTINUOUS
 62
     6
  5
4BC
 10
203.84925
 20
95.107667
 30
0.0
  0
VERTEX
  8
1
  6
CONTINUOUS
 62
     6
  5
4BD
 10
203.84925
 20
92.857667
 30
0.0
  0
VERTEX
  8
1
  6
CONTINUOUS
 62
     6
  5
4BE
 10
201.59925
 20
92.857667
 30
0.0
  0
VERTEX
  8
1
  6
CONTINUOUS
 62
     6
  5
4BF
 10
201.59925
 20
95.107667
 30
0.0
  0
SEQEND
  8
1
  6
CONTINUOUS
 62
     6
  5
4C0
  0
LINE
  8
1
  6
CONTINUOUS
 62
     6
  5
4C1
 10
219.446917
 20
112.607667
 30
0.0
 11
219.446917
 21
111.607667
 31
0.0
  0
LINE
  8
1
  6
CONTINUOUS
 62
     6
  5
4C2
 10
222.946917
 20
112.607667
 30
0.0
 11
222.946917
 21
111.607667
 31
0.0
  0
LINE
  8
1
  6
CONTINUOUS
 62
     6
  5
4C3
 10
223.446917
 20
112.607667
 30
0.0
 11
223.446917
 21
111.607667
 31
0.0
  0
LINE
  8
1
  6
CONTINUOUS
 62
     6
  5
4C4
 10
226.946917
 20
112.607667
 30
0.0
 11
226.946917
 21
111.607667
 31
0.0
  0
LINE
  8
1
  6
CONTINUOUS
 62
     6
  5
4C5
 10
227.446917
 20
112.607667
 30
0.0
 11
227.446917
 21
111.607667
 31
0.0
  0
LINE
  8
1
  6
CONTINUOUS
 62
     6
  5
4C6
 10
230.946917
 20
112.607667
 30
0.0
 11
230.946917
 21
111.607667
 31
0.0
  0
LINE
  8
1
  6
CONTINUOUS
 62
     6
  5
4C7
 10
231.446917
 20
112.607667
 30
0.0
 11
231.446917
 21
111.607667
 31
0.0
  0
LINE
  8
1
  6
CONTINUOUS
 62
     6
  5
4C8
 10
234.946917
 20
112.607667
 30
0.0
 11
234.946917
 21
111.607667
 31
0.0
  0
LINE
  8
1
  6
DASHED
 62
     6
  5
4C9
 10
219.446917
 20
112.607667
 30
0.0
 11
222.946917
 21
112.607667
 31
0.0
  0
LINE
  8
1
  6
DASHED
 62
     6
  5
4CA
 10
219.946917
 20
111.607667
 30
0.0
 11
222.446917
 21
111.607667
 31
0.0
  0
LINE
  8
1
  6
DASHED
 62
     6
  5
4CB
 10
223.446917
 20
112.607667
 30
0.0
 11
226.946917
 21
112.607667
 31
0.0
  0
LINE
  8
1
  6
DASHED
 62
     6
  5
4CC
 10
223.946917
 20
111.607667
 30
0.0
 11
226.446917
 21
111.607667
 31
0.0
  0
LINE
  8
1
  6
DASHED
 62
     6
  5
4CD
 10
227.446917
 20
112.607667
 30
0.0
 11
230.946917
 21
112.607667
 31
0.0
  0
LINE
  8
1
  6
DASHED
 62
     6
  5
4CE
 10
227.946917
 20
111.607667
 30
0.0
 11
230.446917
 21
111.607667
 31
0.0
  0
LINE
  8
1
  6
DASHED
 62
     6
  5
4CF
 10
231.446917
 20
112.607667
 30
0.0
 11
234.946917
 21
112.607667
 31
0.0
  0
LINE
  8
1
  6
DASHED
 62
     6
  5
4D0
 10
231.946917
 20
111.607667
 30
0.0
 11
234.446917
 21
111.607667
 31
0.0
  0
LINE
  8
1
  6
DASHED
 62
     6
  5
4D1
 10
219.946917
 20
111.607667
 30
0.0
 11
219.946917
 21
76.357667
 31
0.0
  0
LINE
  8
1
  6
DASHED
 62
     6
  5
4D2
 10
222.446917
 20
111.607667
 30
0.0
 11
222.446917
 21
76.357667
 31
0.0
  0
LINE
  8
1
  6
DASHED
 62
     6
  5
4D3
 10
223.946917
 20
111.607667
 30
0.0
 11
223.946917
 21
76.357667
 31
0.0
  0
LINE
  8
1
  6
DASHED
 62
     6
  5
4D4
 10
226.446917
 20
111.607667
 30
0.0
 11
226.446917
 21
76.357667
 31
0.0
  0
LINE
  8
1
  6
DASHED
 62
     6
  5
4D5
 10
227.946917
 20
111.607667
 30
0.0
 11
227.946917
 21
76.357667
 31
0.0
  0
LINE
  8
1
  6
DASHED
 62
     6
  5
4D6
 10
230.446917
 20
111.607667
 30
0.0
 11
230.446917
 21
76.357667
 31
0.0
  0
LINE
  8
1
  6
DASHED
 62
     6
  5
4D7
 10
231.946917
 20
111.607667
 30
0.0
 11
231.946917
 21
76.357667
 31
0.0
  0
LINE
  8
1
  6
DASHED
 62
     6
  5
4D8
 10
234.446917
 20
111.607667
 30
0.0
 11
234.446917
 21
76.357667
 31
0.0
  0
ARC
  8
1
  6
CONTINUOUS
 62
     6
  5
4D9
 10
220.571917
 20
76.677853
 30
0.0
 40
0.702242
 50
207.125994
 51
332.874006
210
0.0
220
0.0
230
1.0
  0
ARC
  8
1
  6
CONTINUOUS
 62
     6
  5
4DA
 10
221.821917
 20
76.677853
 30
0.0
 40
0.702242
 50
207.125994
 51
332.874006
210
0.0
220
0.0
230
1.0
  0
ARC
  8
1
  6
CONTINUOUS
 62
     6
  5
4DB
 10
224.571917
 20
76.677853
 30
0.0
 40
0.702242
 50
207.125994
 51
332.874006
210
0.0
220
0.0
230
1.0
  0
ARC
  8
1
  6
CONTINUOUS
 62
     6
  5
4DC
 10
225.821917
 20
76.677853
 30
0.0
 40
0.702242
 50
207.125994
 51
332.874006
210
0.0
220
0.0
230
1.0
  0
ARC
  8
1
  6
CONTINUOUS
 62
     6
  5
4DD
 10
228.571917
 20
76.677853
 30
0.0
 40
0.702242
 50
207.125994
 51
332.874006
210
0.0
220
0.0
230
1.0
  0
ARC
  8
1
  6
CONTINUOUS
 62
     6
  5
4DE
 10
229.821917
 20
76.677853
 30
0.0
 40
0.702242
 50
207.125994
 51
332.874006
210
0.0
220
0.0
230
1.0
  0
ARC
  8
1
  6
CONTINUOUS
 62
     6
  5
4DF
 10
232.571917
 20
76.677853
 30
0.0
 40
0.702242
 50
207.125994
 51
332.874006
210
0.0
220
0.0
230
1.0
  0
ARC
  8
1
  6
CONTINUOUS
 62
     6
  5
4E0
 10
233.821917
 20
76.677853
 30
0.0
 40
0.702242
 50
207.125994
 51
332.874006
210
0.0
220
0.0
230
1.0
  0
ARC
  8
1
  6
CONTINUOUS
 62
     6
  5
4E1
 10
221.821917
 20
76.03748
 30
0.0
 40
0.702242
 50
27.125994
 51
152.874006
210
0.0
220
0.0
230
1.0
  0
ARC
  8
1
  6
CONTINUOUS
 62
     6
  5
4E2
 10
225.821917
 20
76.03748
 30
0.0
 40
0.702242
 50
27.125994
 51
152.874006
210
0.0
220
0.0
230
1.0
  0
ARC
  8
1
  6
CONTINUOUS
 62
     6
  5
4E3
 10
229.821917
 20
76.03748
 30
0.0
 40
0.702242
 50
27.125994
 51
152.874006
210
0.0
220
0.0
230
1.0
  0
ARC
  8
1
  6
CONTINUOUS
 62
     6
  5
4E4
 10
233.821917
 20
76.03748
 30
0.0
 40
0.702242
 50
27.125994
 51
152.874006
210
0.0
220
0.0
230
1.0
  0
LINE
  8
1
  6
CONTINUOUS
 62
     6
  5
4E5
 10
112.09925
 20
83.448833
 30
0.0
 11
127.09925
 21
88.461583
 31
0.0
  0
LINE
  8
1
  6
CONTINUOUS
 62
     6
  5
4E6
 10
128.09925
 20
88.79575
 30
0.0
 11
143.09925
 21
93.8085
 31
0.0
  0
LINE
  8
1
  6
CONTINUOUS
 62
     6
  5
4E7
 10
144.09925
 20
94.14275
 30
0.0
 11
151.84925
 21
96.732667
 31
0.0
  0
LINE
  8
1
  6
CONTINUOUS
 62
     6
  5
4E8
 10
116.84925
 20
98.857667
 30
0.0
 11
160.09925
 21
98.857667
 31
0.0
  0
LINE
  8
1
  6
CONTINUOUS
 62
     6
  5
4E9
 10
154.09925
 20
96.732667
 30
0.0
 11
159.09925
 21
96.732667
 31
0.0
  0
LINE
  8
1
  6
CONTINUOUS
 62
     6
  5
4EA
 10
154.09925
 20
96.732667
 30
0.0
 11
159.09925
 21
96.15575
 31
0.0
  0
LINE
  8
1
  6
CONTINUOUS
 62
     6
  5
4EB
 10
160.09925
 20
96.040333
 30
0.0
 11
173.59925
 21
94.482667
 31
0.0
  0
LINE
  8
1
  6
CONTINUOUS
 62
     6
  5
4EC
 10
160.09925
 20
98.857667
 30
0.0
 11
176.09925
 21
98.857667
 31
0.0
  0
LINE
  8
1
  6
CONTINUOUS
 62
     6
  5
4ED
 10
160.09925
 20
96.732667
 30
0.0
 11
175.09925
 21
96.732667
 31
0.0
  0
LINE
  8
1
  6
CONTINUOUS
 62
     6
  5
4EE
 10
176.09925
 20
98.857667
 30
0.0
 11
192.09925
 21
98.857667
 31
0.0
  0
LINE
  8
1
  6
CONTINUOUS
 62
     6
  5
4EF
 10
176.09925
 20
96.732667
 30
0.0
 11
191.09925
 21
96.732667
 31
0.0
  0
LINE
  8
1
  6
CONTINUOUS
 62
     6
  5
4F0
 10
192.09925
 20
96.732667
 30
0.0
 11
201.59925
 21
96.732667
 31
0.0
  0
LINE
  8
1
  6
CONTINUOUS
 62
     6
  5
4F1
 10
173.59925
 20
94.482667
 30
0.0
 11
191.09925
 21
94.482667
 31
0.0
  0
LINE
  8
1
  6
CONTINUOUS
 62
     6
  5
4F2
 10
192.09925
 20
94.482667
 30
0.0
 11
203.84925
 21
94.482667
 31
0.0
  0
LINE
  8
1
  6
CONTINUOUS
 62
     6
  5
4F3
 10
201.59925
 20
96.732667
 30
0.0
 11
207.09925
 21
95.589083
 31
0.0
  0
LINE
  8
1
  6
CONTINUOUS
 62
     6
  5
4F4
 10
203.84925
 20
93.982667
 30
0.0
 11
207.09925
 21
93.356
 31
0.0
  0
LINE
  8
1
  6
CONTINUOUS
 62
     6
  5
4F5
 10
208.09925
 20
95.381083
 30
0.0
 11
223.09925
 21
92.262083
 31
0.0
  0
LINE
  8
1
  6
CONTINUOUS
 62
     6
  5
4F6
 10
208.09925
 20
93.16325
 30
0.0
 11
223.09925
 21
90.271
 31
0.0
  0
LINE
  8
1
  6
CONTINUOUS
 62
     6
  5
4F7
 10
224.09925
 20
92.054083
 30
0.0
 11
239.09925
 21
88.935
 31
0.0
  0
LINE
  8
1
  6
CONTINUOUS
 62
     6
  5
4F8
 10
224.09925
 20
90.07825
 30
0.0
 11
239.09925
 21
87.186167
 31
0.0
  0
LINE
  8
1
  6
CONTINUOUS
 62
     6
  5
4F9
 10
240.09925
 20
86.993333
 30
0.0
 11
256.09925
 21
83.908333
 31
0.0
  0
LINE
  8
1
  6
CONTINUOUS
 62
     6
  5
4FA
 10
240.09925
 20
88.727167
 30
0.0
 11
255.09925
 21
85.608083
 31
0.0
  0
LINE
  8
1
  6
CONTINUOUS
 62
     6
  5
4FB
 10
143.09925
 20
88.393417
 30
0.0
 11
128.09925
 21
85.39875
 31
0.0
  0
LINE
  8
1
  6
CONTINUOUS
 62
     6
  5
4FC
 10
173.59925
 20
94.482667
 30
0.0
 11
160.09925
 21
91.787417
 31
0.0
  0
LINE
  8
1
  6
CONTINUOUS
 62
     6
  5
4FD
 10
159.09925
 20
91.587833
 30
0.0
 11
144.09925
 21
88.593083
 31
0.0
  0
LINE
  8
1
  6
CONTINUOUS
 62
     6
  5
4FE
 10
217.446917
 20
83.357667
 30
0.0
 11
217.446917
 21
76.357667
 31
0.0
  0
ARC
  8
1
  6
CONTINUOUS
 62
     6
  5
4FF
 10
202.672454
 20
78.463113
 30
0.0
 40
15.564106
 50
44.634625
 51
85.663753
210
0.0
220
0.0
230
1.0
  0
ARC
  8
1
  6
CONTINUOUS
 62
     6
  5
500
 10
202.672454
 20
78.463113
 30
0.0
 40
15.564106
 50
18.329247
 51
40.576022
210
0.0
220
0.0
230
1.0
  0
POLYLINE
  8
1
  6
CONTINUOUS
 62
     6
  5
501
 66
     1
 10
0.0
 20
0.0
 30
0.0
 70
     1
  0
VERTEX
  8
1
  6
CONTINUOUS
 62
     6
  5
502
 10
106.697
 20
82.566
 30
0.0
  0
VERTEX
  8
1
  6
CONTINUOUS
 62
     6
  5
503
 10
108.35675
 20
83.120583
 30
0.0
  0
VERTEX
  8
1
  6
CONTINUOUS
 62
     6
  5
504
 10
108.911333
 20
81.460833
 30
0.0
  0
VERTEX
  8
1
  6
CONTINUOUS
 62
     6
  5
505
 10
107.251583
 20
80.90625
 30
0.0
  0
VERTEX
  8
1
  6
CONTINUOUS
 62
     6
  5
506
 10
106.697
 20
82.566
 30
0.0
  0
SEQEND
  8
1
  6
CONTINUOUS
 62
     6
  5
507
  0
POLYLINE
  8
1
  6
CONTINUOUS
 62
     6
  5
508
 66
     1
 10
0.0
 20
0.0
 30
0.0
 70
     1
  0
VERTEX
  8
1
  6
CONTINUOUS
 62
     6
  5
509
 10
120.099667
 20
117.608583
 30
0.0
  0
VERTEX
  8
1
  6
CONTINUOUS
 62
     6
  5
50A
 10
121.849667
 20
117.607833
 30
0.0
  0
VERTEX
  8
1
  6
CONTINUOUS
 62
     6
  5
50B
 10
121.84925
 20
115.857667
 30
0.0
  0
VERTEX
  8
1
  6
CONTINUOUS
 62
     6
  5
50C
 10
120.09875
 20
115.858417
 30
0.0
  0
VERTEX
  8
1
  6
CONTINUOUS
 62
     6
  5
50D
 10
120.099667
 20
117.608583
 30
0.0
  0
SEQEND
  8
1
  6
CONTINUOUS
 62
     6
  5
50E
  0
LINE
  8
1
  6
CONTINUOUS
 62
     6
  5
50F
 10
102.84925
 20
80.357667
 30
0.0
 11
106.97425
 21
81.736167
 31
0.0
  0
LINE
  8
1
  6
CONTINUOUS
 62
     6
  5
510
 10
108.634
 20
82.290833
 30
0.0
 11
111.09925
 21
83.114667
 31
0.0
  0
POLYLINE
  8
1
  6
CONTINUOUS
 62
     6
  5
511
 66
     1
 10
0.0
 20
0.0
 30
0.0
  0
VERTEX
  8
1
  6
CONTINUOUS
 62
     6
  5
512
 10
108.634
 20
82.290833
 30
0.0
  0
VERTEX
  8
1
  6
CONTINUOUS
 62
     6
  5
513
 10
110.040917
 20
84.779667
 30
0.0
  0
VERTEX
  8
1
  6
CONTINUOUS
 62
     6
  5
514
 10
110.921667
 20
86.904667
 30
0.0
  0
VERTEX
  8
1
  6
CONTINUOUS
 62
     6
  5
515
 10
111.750667
 20
88.97775
 30
0.0
  0
VERTEX
  8
1
  6
CONTINUOUS
 62
     6
  5
516
 10
111.957917
 20
90.429
 30
0.0
  0
VERTEX
  8
1
  6
CONTINUOUS
 62
     6
  5
517
 10
112.994083
 20
91.621
 30
0.0
  0
VERTEX
  8
1
  6
CONTINUOUS
 62
     6
  5
518
 10
113.564083
 20
93.227667
 30
0.0
  0
VERTEX
  8
1
  6
CONTINUOUS
 62
     6
  5
519
 10
114.237583
 20
94.938
 30
0.0
  0
VERTEX
  8
1
  6
CONTINUOUS
 62
     6
  5
51A
 10
114.800798
 20
96.014563
 30
0.0
  0
VERTEX
  8
1
  6
CONTINUOUS
 62
     6
  5
51B
 10
115.170167
 20
96.492833
 30
0.0
  0
VERTEX
  8
1
  6
CONTINUOUS
 62
     6
  5
51C
 10
116.154583
 20
97.58125
 30
0.0
  0
SEQEND
  8
1
  6
CONTINUOUS
 62
     6
  5
51D
  0
POLYLINE
  8
1
  6
CONTINUOUS
 62
     6
  5
51E
 66
     1
 10
0.0
 20
0.0
 30
0.0
  0
VERTEX
  8
1
  6
CONTINUOUS
 62
     6
  5
51F
 10
121.076667
 20
115.876583
 30
0.0
  0
VERTEX
  8
1
  6
CONTINUOUS
 62
     6
  5
520
 10
120.92125
 20
114.269917
 30
0.0
  0
VERTEX
  8
1
  6
CONTINUOUS
 62
     6
  5
521
 10
120.973083
 20
112.404167
 30
0.0
  0
VERTEX
  8
1
  6
CONTINUOUS
 62
     6
  5
522
 10
120.714
 20
110.797417
 30
0.0
  0
VERTEX
  8
1
  6
CONTINUOUS
 62
     6
  5
523
 10
120.662167
 20
109.294417
 30
0.0
  0
VERTEX
  8
1
  6
CONTINUOUS
 62
     6
  5
524
 10
120.455
 20
106.754833
 30
0.0
  0
VERTEX
  8
1
  6
CONTINUOUS
 62
     6
  5
525
 10
119.988667
 20
104.992667
 30
0.0
  0
VERTEX
  8
1
  6
CONTINUOUS
 62
     6
  5
526
 10
119.83325
 20
104.68175
 30
0.0
  0
VERTEX
  8
1
  6
CONTINUOUS
 62
     6
  5
527
 10
119.159667
 20
103.5415
 30
0.0
  0
VERTEX
  8
1
  6
CONTINUOUS
 62
     6
  5
528
 10
118.693417
 20
102.55675
 30
0.0
  0
VERTEX
  8
1
  6
CONTINUOUS
 62
     6
  5
529
 10
118.330667
 20
101.468417
 30
0.0
  0
VERTEX
  8
1
  6
CONTINUOUS
 62
     6
  5
52A
 10
118.17525
 20
100.690917
 30
0.0
  0
VERTEX
  8
1
  6
CONTINUOUS
 62
     6
  5
52B
 10
117.968
 20
100.2245
 30
0.0
  0
SEQEND
  8
1
  6
CONTINUOUS
 62
     6
  5
52C
  0
POLYLINE
  8
1
  6
CONTINUOUS
 62
     6
  5
52D
 66
     1
 10
0.0
 20
0.0
 30
0.0
 70
     1
  0
VERTEX
  8
1
  6
CONTINUOUS
 62
     6
  5
52E
 10
270.9815
 20
83.199083
 30
0.0
  0
VERTEX
  8
1
  6
CONTINUOUS
 62
     6
  5
52F
 10
272.694917
 20
82.842917
 30
0.0
  0
VERTEX
  8
1
  6
CONTINUOUS
 62
     6
  5
530
 10
272.338667
 20
81.1295
 30
0.0
  0
VERTEX
  8
1
  6
CONTINUOUS
 62
     6
  5
531
 10
270.62525
 20
81.485667
 30
0.0
  0
VERTEX
  8
1
  6
CONTINUOUS
 62
     6
  5
532
 10
270.9815
 20
83.199083
 30
0.0
  0
SEQEND
  8
1
  6
CONTINUOUS
 62
     6
  5
533
  0
LINE
  8
1
  6
CONTINUOUS
 62
     6
  5
534
 10
256.09925
 20
85.400083
 30
0.0
 11
270.803417
 21
82.342417
 31
0.0
  0
LINE
  8
1
  6
CONTINUOUS
 62
     6
  5
535
 10
272.51675
 20
81.986167
 30
0.0
 11
280.34925
 21
80.3575
 31
0.0
  0
POLYLINE
  8
1
  6
CONTINUOUS
 62
     6
  5
536
 66
     1
 10
0.0
 20
0.0
 30
0.0
  0
VERTEX
  8
1
  6
CONTINUOUS
 62
     6
  5
537
 10
270.803417
 20
82.342417
 30
0.0
  0
VERTEX
  8
1
  6
CONTINUOUS
 62
     6
  5
538
 10
270.31675
 20
84.583583
 30
0.0
  0
VERTEX
  8
1
  6
CONTINUOUS
 62
     6
  5
539
 10
270.343917
 20
85.455333
 30
0.0
  0
VERTEX
  8
1
  6
CONTINUOUS
 62
     6
  5
53A
 10
270.26225
 20
86.408833
 30
0.0
  0
VERTEX
  8
1
  6
CONTINUOUS
 62
     6
  5
53B
 10
270.31675
 20
87.58025
 30
0.0
  0
VERTEX
  8
1
  6
CONTINUOUS
 62
     6
  5
53C
 10
270.343917
 20
88.6155
 30
0.0
  0
VERTEX
  8
1
  6
CONTINUOUS
 62
     6
  5
53D
 10
270.126083
 20
89.678
 30
0.0
  0
VERTEX
  8
1
  6
CONTINUOUS
 62
     6
  5
53E
 10
269.908167
 20
90.304583
 30
0.0
  0
VERTEX
  8
1
  6
CONTINUOUS
 62
     6
  5
53F
 10
269.85375
 20
91.367083
 30
0.0
  0
VERTEX
  8
1
  6
CONTINUOUS
 62
     6
  5
540
 10
269.935417
 20
92.783667
 30
0.0
  0
VERTEX
  8
1
  6
CONTINUOUS
 62
     6
  5
541
 10
269.85375
 20
93.846167
 30
0.0
  0
VERTEX
  8
1
  6
CONTINUOUS
 62
     6
  5
542
 10
269.663083
 20
95.889333
 30
0.0
  0
VERTEX
  8
1
  6
CONTINUOUS
 62
     6
  5
543
 10
268.655417
 20
97.2515
 30
0.0
  0
SEQEND
  8
1
  6
CONTINUOUS
 62
     6
  5
544
  0
LINE
  8
1
  6
CONTINUOUS
 62
     6
  5
545
 10
269.39075
 20
98.068833
 30
0.0
 11
267.811167
 21
96.4615
 31
0.0
  0
LINE
  8
1
  6
CONTINUOUS
 62
     6
  5
546
 10
243.196917
 20
98.857667
 30
0.0
 11
267.34925
 21
98.857667
 31
0.0
  0
LINE
  8
1
  6
CONTINUOUS
 62
     6
  5
547
 10
192.09925
 20
98.857667
 30
0.0
 11
243.196917
 21
98.857667
 31
0.0
  0
LINE
  8
1
  6
HIDDEN
 62
     6
  5
548
 10
243.196917
 20
98.857667
 30
0.0
 11
243.196917
 21
94.857667
 31
0.0
  0
LINE
  8
1
  6
HIDDEN
 62
     6
  5
549
 10
249.196917
 20
98.857667
 30
0.0
 11
251.154583
 21
98.857667
 31
0.0
  0
CIRCLE
  8
1
  6
CONTINUOUS
 62
     7
  5
54A
 10
243.497087
 20
94.962734
 30
0.0
 40
0.02646
210
0.0
220
0.0
230
1.0
  0
CIRCLE
  8
1
  6
CONTINUOUS
 62
     7
  5
54B
 10
243.417539
 20
96.17755
 30
0.0
 40
0.02646
210
0.0
220
0.0
230
1.0
  0
CIRCLE
  8
1
  6
CONTINUOUS
 62
     7
  5
54C
 10
243.669371
 20
97.847974
 30
0.0
 40
0.02646
210
0.0
220
0.0
230
1.0
  0
CIRCLE
  8
1
  6
CONTINUOUS
 62
     7
  5
54D
 10
243.649631
 20
97.037038
 30
0.0
 40
0.02646
210
0.0
220
0.0
230
1.0
  0
CIRCLE
  8
1
  6
CONTINUOUS
 62
     7
  5
54E
 10
243.497087
 20
98.762734
 30
0.0
 40
0.02646
210
0.0
220
0.0
230
1.0
  0
CIRCLE
  8
1
  6
CONTINUOUS
 62
     7
  5
54F
 10
243.510275
 20
98.444542
 30
0.0
 40
0.02646
210
0.0
220
0.0
230
1.0
  0
POLYLINE
  8
1
  6
CONTINUOUS
 62
     7
  5
550
 66
     1
 10
0.0
 20
0.0
 30
0.0
  0
VERTEX
  8
1
  6
CONTINUOUS
 62
     7
  5
551
 10
244.224083
 20
95.79375
 30
0.0
  0
VERTEX
  8
1
  6
CONTINUOUS
 62
     7
  5
552
 10
243.844083
 20
95.39375
 30
0.0
  0
VERTEX
  8
1
  6
CONTINUOUS
 62
     7
  5
553
 10
244.424083
 20
95.35375
 30
0.0
  0
VERTEX
  8
1
  6
CONTINUOUS
 62
     7
  5
554
 10
244.224083
 20
95.75375
 30
0.0
  0
SEQEND
  8
1
  6
CONTINUOUS
 62
     7
  5
555
  0
LINE
  8
1
  6
CONTINUOUS
 62
     7
  5
556
 10
247.124083
 20
95.27375
 30
0.0
 11
246.4965
 21
94.931417
 31
0.0
  0
LINE
  8
1
  6
CONTINUOUS
 62
     7
  5
557
 10
247.338583
 20
94.897917
 30
0.0
 11
247.084083
 21
95.29375
 31
0.0
  0
CIRCLE
  8
1
  6
CONTINUOUS
 62
     7
  5
558
 10
243.783023
 20
95.864222
 30
0.0
 40
0.02646
210
0.0
220
0.0
230
1.0
  0
ARC
  8
1
  6
CONTINUOUS
 62
     7
  5
559
 10
243.730019
 20
94.883186
 30
0.0
 40
0.02646
 50
31.474108
 51
156.624014
210
0.0
220
0.0
230
1.0
  0
CIRCLE
  8
1
  6
CONTINUOUS
 62
     7
  5
55A
 10
245.890247
 20
95.135102
 30
0.0
 40
0.02646
210
0.0
220
0.0
230
1.0
  0
CIRCLE
  8
1
  6
CONTINUOUS
 62
     7
  5
55B
 10
247.957739
 20
95.373662
 30
0.0
 40
0.02646
210
0.0
220
0.0
230
1.0
  0
CIRCLE
  8
1
  6
CONTINUOUS
 62
     7
  5
55C
 10
247.175783
 20
95.983502
 30
0.0
 40
0.02646
210
0.0
220
0.0
230
1.0
  0
CIRCLE
  8
1
  6
CONTINUOUS
 62
     7
  5
55D
 10
246.380639
 20
95.917226
 30
0.0
 40
0.02646
210
0.0
220
0.0
230
1.0
  0
CIRCLE
  8
1
  6
CONTINUOUS
 62
     7
  5
55E
 10
245.572223
 20
95.824406
 30
0.0
 40
0.02646
210
0.0
220
0.0
230
1.0
  0
CIRCLE
  8
1
  6
CONTINUOUS
 62
     7
  5
55F
 10
245.121563
 20
95.652122
 30
0.0
 40
0.02646
210
0.0
220
0.0
230
1.0
  0
CIRCLE
  8
1
  6
CONTINUOUS
 62
     7
  5
560
 10
247.798643
 20
95.585846
 30
0.0
 40
0.02646
210
0.0
220
0.0
230
1.0
  0
POLYLINE
  8
1
  6
CONTINUOUS
 62
     7
  5
561
 66
     1
 10
0.0
 20
0.0
 30
0.0
  0
VERTEX
  8
1
  6
CONTINUOUS
 62
     7
  5
562
 10
246.727917
 20
98.857667
 30
0.0
  0
VERTEX
  8
1
  6
CONTINUOUS
 62
     7
  5
563
 10
246.464083
 20
98.71375
 30
0.0
  0
VERTEX
  8
1
  6
CONTINUOUS
 62
     7
  5
564
 10
247.444083
 20
98.53375
 30
0.0
  0
VERTEX
  8
1
  6
CONTINUOUS
 62
     7
  5
565
 10
247.235833
 20
98.857667
 30
0.0
  0
SEQEND
  8
1
  6
CONTINUOUS
 62
     7
  5
566
  0
POLYLINE
  8
1
  6
CONTINUOUS
 62
     7
  5
567
 66
     1
 10
0.0
 20
0.0
 30
0.0
  0
VERTEX
  8
1
  6
CONTINUOUS
 62
     7
  5
568
 10
248.844083
 20
96.61375
 30
0.0
  0
VERTEX
  8
1
  6
CONTINUOUS
 62
     7
  5
569
 10
248.604083
 20
97.41375
 30
0.0
  0
VERTEX
  8
1
  6
CONTINUOUS
 62
     7
  5
56A
 10
249.263667
 20
97.278417
 30
0.0
  0
SEQEND
  8
1
  6
CONTINUOUS
 62
     7
  5
56B
  0
LINE
  8
1
  6
CONTINUOUS
 62
     7
  5
56C
 10
249.235333
 20
97.094417
 30
0.0
 11
248.824083
 21
96.65375
 31
0.0
  0
POLYLINE
  8
1
  6
CONTINUOUS
 62
     7
  5
56D
 66
     1
 10
0.0
 20
0.0
 30
0.0
  0
VERTEX
  8
1
  6
CONTINUOUS
 62
     7
  5
56E
 10
244.504083
 20
97.03375
 30
0.0
  0
VERTEX
  8
1
  6
CONTINUOUS
 62
     7
  5
56F
 10
245.544083
 20
96.91375
 30
0.0
  0
VERTEX
  8
1
  6
CONTINUOUS
 62
     7
  5
570
 10
244.864083
 20
96.67375
 30
0.0
  0
VERTEX
  8
1
  6
CONTINUOUS
 62
     7
  5
571
 10
244.504083
 20
97.03375
 30
0.0
  0
SEQEND
  8
1
  6
CONTINUOUS
 62
     7
  5
572
  0
CIRCLE
  8
1
  6
CONTINUOUS
 62
     7
  5
573
 10
243.730019
 20
98.683186
 30
0.0
 40
0.02646
210
0.0
220
0.0
230
1.0
  0
CIRCLE
  8
1
  6
CONTINUOUS
 62
     7
  5
574
 10
244.511891
 20
98.510818
 30
0.0
 40
0.02646
210
0.0
220
0.0
230
1.0
  0
CIRCLE
  8
1
  6
CONTINUOUS
 62
     7
  5
575
 10
245.227571
 20
98.73619
 30
0.0
 40
0.02646
210
0.0
220
0.0
230
1.0
  0
CIRCLE
  8
1
  6
CONTINUOUS
 62
     7
  5
576
 10
246.234815
 20
98.00707
 30
0.0
 40
0.02646
210
0.0
220
0.0
230
1.0
  0
CIRCLE
  8
1
  6
CONTINUOUS
 62
     7
  5
577
 10
247.030043
 20
97.012762
 30
0.0
 40
0.02646
210
0.0
220
0.0
230
1.0
  0
CIRCLE
  8
1
  6
CONTINUOUS
 62
     7
  5
578
 10
246.711935
 20
96.866938
 30
0.0
 40
0.02646
210
0.0
220
0.0
230
1.0
  0
CIRCLE
  8
1
  6
CONTINUOUS
 62
     7
  5
579
 10
245.095103
 20
97.60933
 30
0.0
 40
0.02646
210
0.0
220
0.0
230
1.0
  0
CIRCLE
  8
1
  6
CONTINUOUS
 62
     7
  5
57A
 10
244.419155
 20
97.383958
 30
0.0
 40
0.02646
210
0.0
220
0.0
230
1.0
  0
CIRCLE
  8
1
  6
CONTINUOUS
 62
     7
  5
57B
 10
243.875759
 20
96.455926
 30
0.0
 40
0.02646
210
0.0
220
0.0
230
1.0
  0
CIRCLE
  8
1
  6
CONTINUOUS
 62
     7
  5
57C
 10
244.684259
 20
96.416194
 30
0.0
 40
0.02646
210
0.0
220
0.0
230
1.0
  0
CIRCLE
  8
1
  6
CONTINUOUS
 62
     7
  5
57D
 10
245.678231
 20
96.336646
 30
0.0
 40
0.02646
210
0.0
220
0.0
230
1.0
  0
CIRCLE
  8
1
  6
CONTINUOUS
 62
     7
  5
57E
 10
246.778211
 20
96.111274
 30
0.0
 40
0.02646
210
0.0
220
0.0
230
1.0
  0
CIRCLE
  8
1
  6
CONTINUOUS
 62
     7
  5
57F
 10
247.732451
 20
96.270286
 30
0.0
 40
0.02646
210
0.0
220
0.0
230
1.0
  0
CIRCLE
  8
1
  6
CONTINUOUS
 62
     7
  5
580
 10
248.130023
 20
96.840394
 30
0.0
 40
0.02646
210
0.0
220
0.0
230
1.0
  0
CIRCLE
  8
1
  6
CONTINUOUS
 62
     7
  5
581
 10
248.169755
 20
97.436962
 30
0.0
 40
0.02646
210
0.0
220
0.0
230
1.0
  0
CIRCLE
  8
1
  6
CONTINUOUS
 62
     7
  5
582
 10
248.302307
 20
97.980526
 30
0.0
 40
0.02646
210
0.0
220
0.0
230
1.0
  0
CIRCLE
  8
1
  6
CONTINUOUS
 62
     7
  5
583
 10
248.845703
 20
98.21917
 30
0.0
 40
0.02646
210
0.0
220
0.0
230
1.0
  0
CIRCLE
  8
1
  6
CONTINUOUS
 62
     7
  5
584
 10
248.964983
 20
96.270286
 30
0.0
 40
0.02646
210
0.0
220
0.0
230
1.0
  0
CIRCLE
  8
1
  6
CONTINUOUS
 62
     7
  5
585
 10
248.183027
 20
98.550634
 30
0.0
 40
0.02646
210
0.0
220
0.0
230
1.0
  0
CIRCLE
  8
1
  6
CONTINUOUS
 62
     7
  5
586
 10
245.572223
 20
98.696458
 30
0.0
 40
0.02646
210
0.0
220
0.0
230
1.0
  0
CIRCLE
  8
1
  6
CONTINUOUS
 62
     7
  5
587
 10
246.115535
 20
97.277866
 30
0.0
 40
0.02646
210
0.0
220
0.0
230
1.0
  0
CIRCLE
  8
1
  6
CONTINUOUS
 62
     7
  5
588
 10
246.990227
 20
97.503238
 30
0.0
 40
0.02646
210
0.0
220
0.0
230
1.0
  0
CIRCLE
  8
1
  6
CONTINUOUS
 62
     7
  5
589
 10
247.401071
 20
97.675606
 30
0.0
 40
0.02646
210
0.0
220
0.0
230
1.0
  0
CIRCLE
  8
1
  6
CONTINUOUS
 62
     7
  5
58A
 10
247.798727
 20
98.64337
 30
0.0
 40
0.02646
210
0.0
220
0.0
230
1.0
  0
CIRCLE
  8
1
  6
CONTINUOUS
 62
     7
  5
58B
 10
249.216815
 20
98.497546
 30
0.0
 40
0.02646
210
0.0
220
0.0
230
1.0
  0
CIRCLE
  8
1
  6
CONTINUOUS
 62
     7
  5
58C
 10
248.315579
 20
96.416194
 30
0.0
 40
0.02646
210
0.0
220
0.0
230
1.0
  0
CIRCLE
  8
1
  6
CONTINUOUS
 62
     7
  5
58D
 10
244.087775
 20
97.900978
 30
0.0
 40
0.02646
210
0.0
220
0.0
230
1.0
  0
CIRCLE
  8
1
  6
CONTINUOUS
 62
     7
  5
58E
 10
245.837243
 20
97.79497
 30
0.0
 40
0.02646
210
0.0
220
0.0
230
1.0
  0
CIRCLE
  8
1
  6
CONTINUOUS
 62
     7
  5
58F
 10
243.875759
 20
97.052578
 30
0.0
 40
0.02646
210
0.0
220
0.0
230
1.0
  0
CIRCLE
  8
1
  6
CONTINUOUS
 62
     7
  5
590
 10
247.374611
 20
96.469198
 30
0.0
 40
0.02646
210
0.0
220
0.0
230
1.0
  0
CIRCLE
  8
1
  6
CONTINUOUS
 62
     7
  5
591
 10
245.148023
 20
98.00707
 30
0.0
 40
0.02646
210
0.0
220
0.0
230
1.0
  0
LINE
  8
1
  6
CONTINUOUS
 62
     6
  5
592
 10
123.34925
 20
162.607667
 30
0.0
 11
123.34925
 21
168.107667
 31
0.0
  0
LINE
  8
1
  6
CONTINUOUS
 62
     6
  5
593
 10
123.84925
 20
162.757667
 30
0.0
 11
123.84925
 21
168.107667
 31
0.0
  0
LINE
  8
1
  6
CONTINUOUS
 62
     6
  5
594
 10
124.34925
 20
162.857667
 30
0.0
 11
124.34925
 21
168.107667
 31
0.0
  0
LINE
  8
1
  6
CONTINUOUS
 62
     6
  5
595
 10
124.84925
 20
163.107667
 30
0.0
 11
124.84925
 21
168.107667
 31
0.0
  0
LINE
  8
1
  6
CONTINUOUS
 62
     6
  5
596
 10
125.34925
 20
165.107667
 30
0.0
 11
125.34925
 21
168.107667
 31
0.0
  0
LINE
  8
1
  6
CONTINUOUS
 62
     6
  5
597
 10
125.84925
 20
165.107667
 30
0.0
 11
125.84925
 21
168.107667
 31
0.0
  0
LINE
  8
1
  6
CONTINUOUS
 62
     6
  5
598
 10
126.34925
 20
166.607667
 30
0.0
 11
126.34925
 21
168.107667
 31
0.0
  0
LINE
  8
1
  6
CONTINUOUS
 62
     6
  5
599
 10
126.84925
 20
167.107667
 30
0.0
 11
126.84925
 21
168.107667
 31
0.0
  0
LINE
  8
1
  6
CONTINUOUS
 62
     6
  5
59A
 10
127.34925
 20
167.607667
 30
0.0
 11
127.34925
 21
168.107667
 31
0.0
  0
LINE
  8
1
  6
CONTINUOUS
 62
     6
  5
59B
 10
122.84925
 20
167.607667
 30
0.0
 11
127.34925
 21
167.607667
 31
0.0
  0
LINE
  8
1
  6
CONTINUOUS
 62
     6
  5
59C
 10
122.84925
 20
167.107667
 30
0.0
 11
126.84925
 21
167.107667
 31
0.0
  0
LINE
  8
1
  6
CONTINUOUS
 62
     6
  5
59D
 10
122.84925
 20
166.607667
 30
0.0
 11
126.34925
 21
166.607667
 31
0.0
  0
LINE
  8
1
  6
CONTINUOUS
 62
     6
  5
59E
 10
122.84925
 20
166.107667
 30
0.0
 11
126.34925
 21
166.107667
 31
0.0
  0
LINE
  8
1
  6
CONTINUOUS
 62
     6
  5
59F
 10
122.84925
 20
165.607667
 30
0.0
 11
126.09925
 21
165.607667
 31
0.0
  0
LINE
  8
1
  6
CONTINUOUS
 62
     6
  5
5A0
 10
122.84925
 20
165.107667
 30
0.0
 11
125.84925
 21
165.107667
 31
0.0
  0
LINE
  8
1
  6
CONTINUOUS
 62
     6
  5
5A1
 10
122.84925
 20
164.607667
 30
0.0
 11
125.34925
 21
164.607667
 31
0.0
  0
LINE
  8
1
  6
CONTINUOUS
 62
     6
  5
5A2
 10
122.84925
 20
163.607667
 30
0.0
 11
125.09925
 21
163.607667
 31
0.0
  0
LINE
  8
1
  6
CONTINUOUS
 62
     6
  5
5A3
 10
122.84925
 20
163.107667
 30
0.0
 11
124.84925
 21
163.107667
 31
0.0
  0
LINE
  8
1
  6
CONTINUOUS
 62
     6
  5
5A4
 10
122.84925
 20
164.107667
 30
0.0
 11
125.19925
 21
164.107667
 31
0.0
  0
LINE
  8
1
  6
CONTINUOUS
 62
     6
  5
5A5
 10
147.34925
 20
163.789917
 30
0.0
 11
147.34925
 21
168.107667
 31
0.0
  0
LINE
  8
1
  6
CONTINUOUS
 62
     6
  5
5A6
 10
147.84925
 20
163.817
 30
0.0
 11
147.84925
 21
168.107667
 31
0.0
  0
LINE
  8
1
  6
CONTINUOUS
 62
     6
  5
5A7
 10
148.34925
 20
164.107667
 30
0.0
 11
148.34925
 21
168.107667
 31
0.0
  0
LINE
  8
1
  6
CONTINUOUS
 62
     6
  5
5A8
 10
148.84925
 20
164.331583
 30
0.0
 11
148.84925
 21
168.107667
 31
0.0
  0
LINE
  8
1
  6
CONTINUOUS
 62
     6
  5
5A9
 10
149.34925
 20
164.412833
 30
0.0
 11
149.34925
 21
168.107667
 31
0.0
  0
LINE
  8
1
  6
CONTINUOUS
 62
     6
  5
5AA
 10
149.84925
 20
164.358667
 30
0.0
 11
149.84925
 21
168.107667
 31
0.0
  0
LINE
  8
1
  6
CONTINUOUS
 62
     6
  5
5AB
 10
150.34925
 20
164.412833
 30
0.0
 11
150.34925
 21
168.107667
 31
0.0
  0
LINE
  8
1
  6
CONTINUOUS
 62
     6
  5
5AC
 10
150.84925
 20
164.38575
 30
0.0
 11
150.84925
 21
168.107667
 31
0.0
  0
LINE
  8
1
  6
CONTINUOUS
 62
     6
  5
5AD
 10
151.34925
 20
164.607667
 30
0.0
 11
151.34925
 21
168.107667
 31
0.0
  0
LINE
  8
1
  6
CONTINUOUS
 62
     6
  5
5AE
 10
151.84925
 20
165.107667
 30
0.0
 11
151.84925
 21
168.107667
 31
0.0
  0
LINE
  8
1
  6
CONTINUOUS
 62
     6
  5
5AF
 10
152.34925
 20
165.607667
 30
0.0
 11
152.34925
 21
168.107667
 31
0.0
  0
LINE
  8
1
  6
CONTINUOUS
 62
     6
  5
5B0
 10
152.84925
 20
165.929583
 30
0.0
 11
152.84925
 21
168.107667
 31
0.0
  0
LINE
  8
1
  6
CONTINUOUS
 62
     6
  5
5B1
 10
153.34925
 20
166.498417
 30
0.0
 11
153.34925
 21
168.107667
 31
0.0
  0
LINE
  8
1
  6
CONTINUOUS
 62
     6
  5
5B2
 10
153.84925
 20
167.013
 30
0.0
 11
153.84925
 21
168.107667
 31
0.0
  0
LINE
  8
1
  6
CONTINUOUS
 62
     6
  5
5B3
 10
154.34925
 20
167.357667
 30
0.0
 11
154.34925
 21
168.107667
 31
0.0
  0
LINE
  8
1
  6
CONTINUOUS
 62
     6
  5
5B4
 10
146.84925
 20
164.107667
 30
0.0
 11
148.34925
 21
164.107667
 31
0.0
  0
LINE
  8
1
  6
CONTINUOUS
 62
     6
  5
5B5
 10
146.84925
 20
164.607667
 30
0.0
 11
151.475083
 21
164.607667
 31
0.0
  0
LINE
  8
1
  6
CONTINUOUS
 62
     6
  5
5B6
 10
146.84925
 20
165.107667
 30
0.0
 11
152.09925
 21
165.107667
 31
0.0
  0
LINE
  8
1
  6
CONTINUOUS
 62
     6
  5
5B7
 10
146.84925
 20
165.607667
 30
0.0
 11
152.59925
 21
165.607667
 31
0.0
  0
LINE
  8
1
  6
CONTINUOUS
 62
     6
  5
5B8
 10
146.84925
 20
166.107667
 30
0.0
 11
153.09925
 21
166.107667
 31
0.0
  0
LINE
  8
1
  6
CONTINUOUS
 62
     6
  5
5B9
 10
146.84925
 20
166.607667
 30
0.0
 11
153.59925
 21
166.607667
 31
0.0
  0
LINE
  8
1
  6
CONTINUOUS
 62
     6
  5
5BA
 10
146.84925
 20
167.107667
 30
0.0
 11
154.09925
 21
167.107667
 31
0.0
  0
LINE
  8
1
  6
CONTINUOUS
 62
     6
  5
5BB
 10
146.84925
 20
167.607667
 30
0.0
 11
154.59925
 21
167.607667
 31
0.0
  0
LINE
  8
1
  6
CONTINUOUS
 62
     6
  5
5BC
 10
208.696917
 20
167.607667
 30
0.0
 11
214.919417
 21
167.607667
 31
0.0
  0
LINE
  8
1
  6
CONTINUOUS
 62
     6
  5
5BD
 10
208.696917
 20
167.107667
 30
0.0
 11
214.919417
 21
167.107667
 31
0.0
  0
LINE
  8
1
  6
CONTINUOUS
 62
     6
  5
5BE
 10
208.696917
 20
166.607667
 30
0.0
 11
214.833583
 21
166.607667
 31
0.0
  0
LINE
  8
1
  6
CONTINUOUS
 62
     6
  5
5BF
 10
208.696917
 20
166.107667
 30
0.0
 11
214.812167
 21
166.107667
 31
0.0
  0
LINE
  8
1
  6
CONTINUOUS
 62
     6
  5
5C0
 10
208.696917
 20
165.607667
 30
0.0
 11
214.34
 21
165.607667
 31
0.0
  0
LINE
  8
1
  6
CONTINUOUS
 62
     6
  5
5C1
 10
208.696917
 20
165.107667
 30
0.0
 11
214.382917
 21
165.107667
 31
0.0
  0
LINE
  8
1
  6
CONTINUOUS
 62
     6
  5
5C2
 10
208.696917
 20
164.607667
 30
0.0
 11
213.41725
 21
164.607667
 31
0.0
  0
LINE
  8
1
  6
CONTINUOUS
 62
     6
  5
5C3
 10
208.696917
 20
164.107667
 30
0.0
 11
213.43875
 21
164.107667
 31
0.0
  0
LINE
  8
1
  6
CONTINUOUS
 62
     6
  5
5C4
 10
208.696917
 20
163.607667
 30
0.0
 11
213.0525
 21
163.607667
 31
0.0
  0
LINE
  8
1
  6
CONTINUOUS
 62
     6
  5
5C5
 10
208.696917
 20
163.107667
 30
0.0
 11
212.966667
 21
163.107667
 31
0.0
  0
LINE
  8
1
  6
CONTINUOUS
 62
     6
  5
5C6
 10
208.696917
 20
162.607667
 30
0.0
 11
212.945167
 21
162.607667
 31
0.0
  0
LINE
  8
1
  6
CONTINUOUS
 62
     6
  5
5C7
 10
208.696917
 20
162.107667
 30
0.0
 11
212.62325
 21
162.107667
 31
0.0
  0
LINE
  8
1
  6
CONTINUOUS
 62
     6
  5
5C8
 10
208.696917
 20
161.607667
 30
0.0
 11
212.38725
 21
161.607667
 31
0.0
  0
LINE
  8
1
  6
CONTINUOUS
 62
     6
  5
5C9
 10
208.696917
 20
161.107667
 30
0.0
 11
211.915083
 21
161.107667
 31
0.0
  0
LINE
  8
1
  6
CONTINUOUS
 62
     6
  5
5CA
 10
208.696917
 20
160.607667
 30
0.0
 11
212.215583
 21
160.607667
 31
0.0
  0
LINE
  8
1
  6
CONTINUOUS
 62
     6
  5
5CB
 10
208.696917
 20
160.107667
 30
0.0
 11
212.022417
 21
160.107667
 31
0.0
  0
LINE
  8
1
  6
CONTINUOUS
 62
     6
  5
5CC
 10
208.696917
 20
159.607667
 30
0.0
 11
211.378667
 21
159.607667
 31
0.0
  0
LINE
  8
1
  6
CONTINUOUS
 62
     6
  5
5CD
 10
208.696917
 20
159.107667
 30
0.0
 11
211.400083
 21
159.107667
 31
0.0
  0
LINE
  8
1
  6
CONTINUOUS
 62
     6
  5
5CE
 10
208.696917
 20
158.607667
 30
0.0
 11
211.485917
 21
158.607667
 31
0.0
  0
LINE
  8
1
  6
CONTINUOUS
 62
     6
  5
5CF
 10
208.696917
 20
158.107667
 30
0.0
 11
211.614667
 21
158.107667
 31
0.0
  0
LINE
  8
1
  6
CONTINUOUS
 62
     6
  5
5D0
 10
208.696917
 20
157.607667
 30
0.0
 11
210.455833
 21
157.607667
 31
0.0
  0
LINE
  8
1
  6
CONTINUOUS
 62
     6
  5
5D1
 10
208.696917
 20
157.107667
 30
0.0
 11
210.412917
 21
157.107667
 31
0.0
  0
LINE
  8
1
  6
CONTINUOUS
 62
     6
  5
5D2
 10
208.696917
 20
156.607667
 30
0.0
 11
210.52025
 21
156.607667
 31
0.0
  0
LINE
  8
1
  6
CONTINUOUS
 62
     6
  5
5D3
 10
214.696917
 20
165.607667
 30
0.0
 11
214.696917
 21
168.107667
 31
0.0
  0
LINE
  8
1
  6
CONTINUOUS
 62
     6
  5
5D4
 10
214.196917
 20
164.911083
 30
0.0
 11
214.196917
 21
168.107667
 31
0.0
  0
LINE
  8
1
  6
CONTINUOUS
 62
     6
  5
5D5
 10
213.696917
 20
164.632
 30
0.0
 11
213.696917
 21
168.107667
 31
0.0
  0
LINE
  8
1
  6
CONTINUOUS
 62
     6
  5
5D6
 10
213.196917
 20
163.880667
 30
0.0
 11
213.196917
 21
168.107667
 31
0.0
  0
LINE
  8
1
  6
CONTINUOUS
 62
     6
  5
5D7
 10
212.696917
 20
162.270667
 30
0.0
 11
212.696917
 21
168.107667
 31
0.0
  0
LINE
  8
1
  6
CONTINUOUS
 62
     6
  5
5D8
 10
212.196917
 20
161.30475
 30
0.0
 11
212.196917
 21
168.107667
 31
0.0
  0
LINE
  8
1
  6
CONTINUOUS
 62
     6
  5
5D9
 10
211.696917
 20
159.651833
 30
0.0
 11
211.696917
 21
168.107667
 31
0.0
  0
LINE
  8
1
  6
CONTINUOUS
 62
     6
  5
5DA
 10
211.196917
 20
157.6125
 30
0.0
 11
211.196917
 21
168.107667
 31
0.0
  0
LINE
  8
1
  6
CONTINUOUS
 62
     6
  5
5DB
 10
210.696917
 20
157.655417
 30
0.0
 11
210.696917
 21
168.107667
 31
0.0
  0
LINE
  8
1
  6
CONTINUOUS
 62
     6
  5
5DC
 10
210.196917
 20
156.281583
 30
0.0
 11
210.196917
 21
168.107667
 31
0.0
  0
LINE
  8
1
  6
CONTINUOUS
 62
     6
  5
5DD
 10
209.696917
 20
156.0025
 30
0.0
 11
209.696917
 21
168.107667
 31
0.0
  0
LINE
  8
1
  6
CONTINUOUS
 62
     6
  5
5DE
 10
209.196917
 20
155.916667
 30
0.0
 11
209.196917
 21
168.107667
 31
0.0
  0
LINE
  8
1
  6
CONTINUOUS
 62
     6
  5
5DF
 10
243.961417
 20
163.084833
 30
0.0
 11
243.961417
 21
168.084833
 31
0.0
  0
LINE
  8
1
  6
CONTINUOUS
 62
     6
  5
5E0
 10
242.461417
 20
162.584833
 30
0.0
 11
242.461417
 21
168.084833
 31
0.0
  0
LINE
  8
1
  6
CONTINUOUS
 62
     6
  5
5E1
 10
242.961417
 20
162.734833
 30
0.0
 11
242.961417
 21
168.084833
 31
0.0
  0
LINE
  8
1
  6
CONTINUOUS
 62
     6
  5
5E2
 10
243.461417
 20
162.834833
 30
0.0
 11
243.461417
 21
168.084833
 31
0.0
  0
LINE
  8
1
  6
CONTINUOUS
 62
     6
  5
5E3
 10
244.461417
 20
165.084833
 30
0.0
 11
244.461417
 21
168.084833
 31
0.0
  0
LINE
  8
1
  6
CONTINUOUS
 62
     6
  5
5E4
 10
244.961417
 20
165.084833
 30
0.0
 11
244.961417
 21
168.084833
 31
0.0
  0
LINE
  8
1
  6
CONTINUOUS
 62
     6
  5
5E5
 10
245.461417
 20
166.584833
 30
0.0
 11
245.461417
 21
168.084833
 31
0.0
  0
LINE
  8
1
  6
CONTINUOUS
 62
     6
  5
5E6
 10
245.961417
 20
167.084833
 30
0.0
 11
245.961417
 21
168.084833
 31
0.0
  0
LINE
  8
1
  6
CONTINUOUS
 62
     6
  5
5E7
 10
246.461417
 20
167.584833
 30
0.0
 11
246.461417
 21
168.084833
 31
0.0
  0
LINE
  8
1
  6
CONTINUOUS
 62
     6
  5
5E8
 10
241.961417
 20
167.584833
 30
0.0
 11
246.461417
 21
167.584833
 31
0.0
  0
LINE
  8
1
  6
CONTINUOUS
 62
     6
  5
5E9
 10
241.961417
 20
167.084833
 30
0.0
 11
245.961417
 21
167.084833
 31
0.0
  0
LINE
  8
1
  6
CONTINUOUS
 62
     6
  5
5EA
 10
241.961417
 20
166.584833
 30
0.0
 11
245.461417
 21
166.584833
 31
0.0
  0
LINE
  8
1
  6
CONTINUOUS
 62
     6
  5
5EB
 10
241.961417
 20
166.084833
 30
0.0
 11
245.461417
 21
166.084833
 31
0.0
  0
LINE
  8
1
  6
CONTINUOUS
 62
     6
  5
5EC
 10
241.961417
 20
165.584833
 30
0.0
 11
245.211417
 21
165.584833
 31
0.0
  0
LINE
  8
1
  6
CONTINUOUS
 62
     6
  5
5ED
 10
241.961417
 20
165.084833
 30
0.0
 11
244.961417
 21
165.084833
 31
0.0
  0
LINE
  8
1
  6
CONTINUOUS
 62
     6
  5
5EE
 10
241.961417
 20
164.584833
 30
0.0
 11
244.461417
 21
164.584833
 31
0.0
  0
LINE
  8
1
  6
CONTINUOUS
 62
     6
  5
5EF
 10
241.961417
 20
163.584833
 30
0.0
 11
244.211417
 21
163.584833
 31
0.0
  0
LINE
  8
1
  6
CONTINUOUS
 62
     6
  5
5F0
 10
241.961417
 20
163.084833
 30
0.0
 11
243.961417
 21
163.084833
 31
0.0
  0
LINE
  8
1
  6
CONTINUOUS
 62
     6
  5
5F1
 10
241.961417
 20
164.084833
 30
0.0
 11
244.311417
 21
164.084833
 31
0.0
  0
LINE
  8
1
  6
CONTINUOUS
 62
     7
  5
5F2
 10
134.192417
 20
169.107667
 30
0.0
 11
129.411083
 21
182.26075
 31
0.0
  0
LINE
  8
1
  6
CONTINUOUS
 62
     7
  5
5F3
 10
129.411083
 20
182.26075
 30
0.0
 11
125.777167
 21
182.26075
 31
0.0
  0
ARC
  8
1
  6
CONTINUOUS
 62
     7
  5
5F4
 10
156.621219
 20
164.16866
 30
0.0
 40
1.088918
 50
17.973011
 51
102.524289
210
0.0
220
0.0
230
1.0
  0
ARC
  8
1
  6
CONTINUOUS
 62
     7
  5
5F5
 10
158.740192
 20
164.616387
 30
0.0
 40
1.088918
 50
185.890856
 51
270.442133
210
0.0
220
0.0
230
1.0
  0
LINE
  8
1
  6
CONTINUOUS
 62
     7
  5
5F6
 10
157.657
 20
164.504667
 30
0.0
 11
162.705083
 21
176.922667
 31
0.0
  0
LINE
  8
1
  6
CONTINUOUS
 62
     7
  5
5F7
 10
162.705083
 20
176.922667
 30
0.0
 11
165.835833
 21
176.922667
 31
0.0
  0
LINE
  8
1
  6
CONTINUOUS
 62
     7
  5
5F8
 10
122.34925
 20
154.99275
 30
0.0
 11
114.153917
 21
163.383667
 31
0.0
  0
LINE
  8
1
  6
CONTINUOUS
 62
     7
  5
5F9
 10
114.153917
 20
163.383667
 30
0.0
 11
89.420417
 21
163.383667
 31
0.0
  0
LINE
  8
1
  6
CONTINUOUS
 62
     7
  5
5FA
 10
118.84925
 20
140.0505
 30
0.0
 11
109.45475
 21
149.086583
 31
0.0
  0
LINE
  8
1
  6
CONTINUOUS
 62
     7
  5
5FB
 10
109.45475
 20
149.086583
 30
0.0
 11
89.420417
 21
149.086583
 31
0.0
  0
LINE
  8
1
  6
CONTINUOUS
 62
     7
  5
5FC
 10
131.7795
 20
111.357667
 30
0.0
 11
126.431417
 21
129.40175
 31
0.0
  0
LINE
  8
1
  6
CONTINUOUS
 62
     7
  5
5FD
 10
126.431417
 20
129.40175
 30
0.0
 11
89.420417
 21
129.40175
 31
0.0
  0
LINE
  8
1
  6
CONTINUOUS
 62
     7
  5
5FE
 10
119.09925
 20
106.2985
 30
0.0
 11
113.01225
 21
113.00525
 31
0.0
  0
LINE
  8
1
  6
CONTINUOUS
 62
     7
  5
5FF
 10
113.01225
 20
113.00525
 30
0.0
 11
89.420417
 21
113.00525
 31
0.0
  0
LINE
  8
1
  6
CONTINUOUS
 62
     7
  5
600
 10
115.84925
 20
98.857667
 30
0.0
 11
105.34925
 21
98.857667
 31
0.0
  0
LINE
  8
1
  6
CONTINUOUS
 62
     7
  5
601
 10
115.84925
 20
108.857667
 30
0.0
 11
105.34925
 21
108.857667
 31
0.0
  0
LINE
  8
1
  6
CONTINUOUS
 62
     7
  5
602
 10
118.09925
 20
170.857667
 30
0.0
 11
105.34925
 21
170.857667
 31
0.0
  0
LINE
  8
1
  6
CONTINUOUS
 62
     7
  5
603
 10
106.34925
 20
170.857667
 30
0.0
 11
106.34925
 21
108.857667
 31
0.0
  0
LINE
  8
1
  6
CONTINUOUS
 62
     7
  5
604
 10
106.34925
 20
108.857667
 30
0.0
 11
106.34925
 21
98.857667
 31
0.0
  0
ARC
  8
1
  6
CONTINUOUS
 62
     7
  5
605
 10
111.196175
 20
123.927624
 30
0.0
 40
33.595687
 50
273.196131
 51
333.348139
210
0.0
220
0.0
230
1.0
  0
ARC
  8
1
  6
CONTINUOUS
 62
     7
  5
606
 10
111.196175
 20
123.927624
 30
0.0
 40
33.595687
 50
261.869994
 51
269.719603
210
0.0
220
0.0
230
1.0
  0
LINE
  8
1
  6
CONTINUOUS
 62
     7
  5
607
 10
116.441333
 20
80.357667
 30
0.0
 11
115.51675
 21
69.05375
 31
0.0
  0
LINE
  8
1
  6
CONTINUOUS
 62
     7
  5
608
 10
115.51675
 20
69.05375
 30
0.0
 11
123.2615
 21
69.05375
 31
0.0
  0
LINE
  8
1
  6
CONTINUOUS
 62
     7
  5
609
 10
199.84925
 20
77.985917
 30
0.0
 11
194.40925
 21
65.892917
 31
0.0
  0
LINE
  8
1
  6
CONTINUOUS
 62
     7
  5
60A
 10
194.40925
 20
65.892917
 30
0.0
 11
198.894083
 21
65.892917
 31
0.0
  0
LINE
  8
1
  6
CONTINUOUS
 62
     7
  5
60B
 10
207.34025
 20
170.142917
 30
0.0
 11
229.884833
 21
193.610667
 31
0.0
  0
LINE
  8
1
  6
CONTINUOUS
 62
     7
  5
60C
 10
229.884833
 20
193.610667
 30
0.0
 11
217.071167
 21
193.610667
 31
0.0
  0
LINE
  8
1
  6
CONTINUOUS
 62
     7
  5
60D
 10
235.946917
 20
206.5465
 30
0.0
 11
214.4355
 21
206.5465
 31
0.0
  0
LINE
  8
1
  6
CONTINUOUS
 62
     7
  5
60E
 10
237.446917
 20
212.357667
 30
0.0
 11
243.045417
 21
217.87975
 31
0.0
  0
LINE
  8
1
  6
CONTINUOUS
 62
     7
  5
60F
 10
243.045417
 20
217.87975
 30
0.0
 11
261.755417
 21
217.87975
 31
0.0
  0
LINE
  8
1
  6
CONTINUOUS
 62
     7
  5
610
 10
259.422167
 20
211.357667
 30
0.0
 11
238.446917
 21
211.357667
 31
0.0
  0
LINE
  8
1
  6
CONTINUOUS
 62
     7
  5
611
 10
264.699083
 20
172.0805
 30
0.0
 11
274.090667
 21
172.038167
 31
0.0
  0
LINE
  8
1
  6
CONTINUOUS
 62
     7
  5
612
 10
274.090667
 20
172.038167
 30
0.0
 11
265.09925
 21
163.9685
 31
0.0
  0
ARC
  8
1
  6
CONTINUOUS
 62
     7
  5
613
 10
269.132033
 20
68.061366
 30
0.0
 40
57.372912
 50
84.363856
 51
129.064742
210
0.0
220
0.0
230
1.0
  0
ARC
  8
1
  6
CONTINUOUS
 62
     7
  5
614
 10
284.153483
 20
145.103146
 30
0.0
 40
57.546393
 50
219.038908
 51
253.642681
210
0.0
220
0.0
230
1.0
  0
ARC
  8
1
  6
CONTINUOUS
 62
     7
  5
615
 10
284.153483
 20
145.103146
 30
0.0
 40
57.546393
 50
256.722447
 51
272.248242
210
0.0
220
0.0
230
1.0
  0
LINE
  8
1
  6
CONTINUOUS
 62
     6
  5
616
 10
267.34925
 20
106.857667
 30
0.0
 11
290.33525
 21
107.660333
 31
0.0
  0
LINE
  8
1
  6
CONTINUOUS
 62
     7
  5
617
 10
268.34925
 20
108.857667
 30
0.0
 11
278.34925
 21
108.857667
 31
0.0
  0
LINE
  8
1
  6
CONTINUOUS
 62
     7
  5
618
 10
277.34925
 20
108.857667
 30
0.0
 11
277.34925
 21
113.857667
 31
0.0
  0
LINE
  8
1
  6
CONTINUOUS
 62
     7
  5
619
 10
277.34925
 20
107.24175
 30
0.0
 11
277.34925
 21
102.24175
 31
0.0
  0
LINE
  8
1
  6
CONTINUOUS
 62
     7
  5
61A
 10
268.862417
 20
96.971667
 30
0.0
 11
279.0405
 21
100.442667
 31
0.0
  0
LINE
  8
1
  6
CONTINUOUS
 62
     7
  5
61B
 10
279.0405
 20
100.442667
 30
0.0
 11
285.012167
 21
100.442667
 31
0.0
  0
LINE
  8
1
  6
CONTINUOUS
 62
     7
  5
61C
 10
246.145333
 20
95.098083
 30
0.0
 11
276.460333
 21
67.771333
 31
0.0
  0
LINE
  8
1
  6
CONTINUOUS
 62
     7
  5
61D
 10
276.460333
 20
67.771333
 30
0.0
 11
263.700667
 21
39.759333
 31
0.0
  0
LINE
  8
1
  6
CONTINUOUS
 62
     7
  5
61E
 10
263.700667
 20
39.759333
 30
0.0
 11
267.297333
 21
39.759333
 31
0.0
  0
LINE
  8
1
  6
CONTINUOUS
 62
     7
  5
61F
 10
282.283583
 20
70.512583
 30
0.0
 11
292.303
 21
70.512583
 31
0.0
  0
LINE
  8
1
  6
CONTINUOUS
 62
     7
  5
620
 10
258.422167
 20
211.357667
 30
0.0
 11
258.422167
 21
108.857667
 31
0.0
  0
LINE
  8
1
  6
CONTINUOUS
 62
     7
  5
621
 10
290.33525
 20
107.660333
 30
0.0
 11
293.977167
 21
112.769083
 31
0.0
  0
LINE
  8
1
  6
CONTINUOUS
 62
     7
  5
622
 10
293.977167
 20
112.769083
 30
0.0
 11
297.51
 21
112.769083
 31
0.0
  0
INSERT
  8
1
  6
CONTINUOUS
 62
     1
  5
623
  2
LDR
 10
237.446917
 20
212.357667
 30
0.0
 41
240.000002
 42
240.000002
 50
224.60629
210
0.0
220
0.0
230
1.0
  0
INSERT
  8
1
  6
CONTINUOUS
 62
     1
  5
624
  2
LDR
 10
237.446917
 20
212.357667
 30
0.0
 41
240.000002
 42
240.000002
 50
224.60629
210
0.0
220
0.0
230
1.0
  0
INSERT
  8
1
  6
CONTINUOUS
 62
     1
  5
625
  2
LDR
 10
258.422167
 20
211.357667
 30
0.0
 41
240.0
 42
240.0
 50
90.0
210
0.0
220
0.0
230
1.0
  0
INSERT
  8
1
  6
CONTINUOUS
 62
     1
  5
626
  2
LDR
 10
258.422167
 20
211.357667
 30
0.0
 41
240.0
 42
240.0
 50
90.0
210
0.0
220
0.0
230
1.0
  0
INSERT
  8
1
  6
CONTINUOUS
 62
     1
  5
627
  2
LDR
 10
264.699083
 20
172.0805
 30
0.0
 41
239.999998
 42
239.999998
 50
179.741737
210
0.0
220
0.0
230
1.0
  0
INSERT
  8
1
  6
CONTINUOUS
 62
     1
  5
628
  2
LDR
 10
264.699083
 20
172.0805
 30
0.0
 41
239.999998
 42
239.999998
 50
179.741737
210
0.0
220
0.0
230
1.0
  0
INSERT
  8
1
  6
CONTINUOUS
 62
     1
  5
629
  2
LDR
 10
265.09925
 20
163.9685
 30
0.0
 41
240.000001
 42
240.000001
 50
221.907518
210
0.0
220
0.0
230
1.0
  0
INSERT
  8
1
  6
CONTINUOUS
 62
     1
  5
62A
  2
LDR
 10
265.09925
 20
163.9685
 30
0.0
 41
240.000001
 42
240.000001
 50
221.907518
210
0.0
220
0.0
230
1.0
  0
INSERT
  8
1
  6
CONTINUOUS
 62
     1
  5
62B
  2
LDR
 10
258.422167
 20
108.857667
 30
0.0
 41
240.0
 42
240.0
 50
270.0
210
0.0
220
0.0
230
1.0
  0
INSERT
  8
1
  6
CONTINUOUS
 62
     1
  5
62C
  2
LDR
 10
258.422167
 20
108.857667
 30
0.0
 41
240.0
 42
240.0
 50
270.0
210
0.0
220
0.0
230
1.0
  0
INSERT
  8
1
  6
CONTINUOUS
 62
     1
  5
62D
  2
LDR
 10
232.97575
 20
112.607667
 30
0.0
 41
239.999999
 42
239.999999
 50
219.064742
210
0.0
220
0.0
230
1.0
  0
INSERT
  8
1
  6
CONTINUOUS
 62
     1
  5
62E
  2
LDR
 10
277.34925
 20
108.857667
 30
0.0
 41
240.0
 42
240.0
 50
270.0
210
0.0
220
0.0
230
1.0
  0
INSERT
  8
1
  6
CONTINUOUS
 62
     1
  5
62F
  2
LDR
 10
277.34925
 20
108.857667
 30
0.0
 41
240.0
 42
240.0
 50
270.0
210
0.0
220
0.0
230
1.0
  0
INSERT
  8
1
  6
CONTINUOUS
 62
     1
  5
630
  2
LDR
 10
239.456167
 20
108.857667
 30
0.0
 41
240.000001
 42
240.000001
 50
129.038908
210
0.0
220
0.0
230
1.0
  0
INSERT
  8
1
  6
CONTINUOUS
 62
     1
  5
631
  2
LDR
 10
239.456167
 20
108.857667
 30
0.0
 41
240.000001
 42
240.000001
 50
129.038908
210
0.0
220
0.0
230
1.0
  0
INSERT
  8
1
  6
CONTINUOUS
 62
     1
  5
632
  2
LDR
 10
246.145333
 20
95.098083
 30
0.0
 41
239.999998
 42
239.999998
 50
137.967657
210
0.0
220
0.0
230
1.0
  0
INSERT
  8
1
  6
CONTINUOUS
 62
     1
  5
633
  2
LDR
 10
246.145333
 20
95.098083
 30
0.0
 41
239.999998
 42
239.999998
 50
137.967657
210
0.0
220
0.0
230
1.0
  0
INSERT
  8
1
  6
CONTINUOUS
 62
     1
  5
634
  2
LDR
 10
268.862417
 20
96.971667
 30
0.0
 41
240.000002
 42
240.000002
 50
198.830756
210
0.0
220
0.0
230
1.0
  0
INSERT
  8
1
  6
CONTINUOUS
 62
     1
  5
635
  2
LDR
 10
268.862417
 20
96.971667
 30
0.0
 41
240.000002
 42
240.000002
 50
198.830756
210
0.0
220
0.0
230
1.0
  0
INSERT
  8
1
  6
CONTINUOUS
 62
     1
  5
636
  2
LDR
 10
277.34925
 20
107.24175
 30
0.0
 41
240.0
 42
240.0
 50
90.0
210
0.0
220
0.0
230
1.0
  0
INSERT
  8
1
  6
CONTINUOUS
 62
     1
  5
637
  2
LDR
 10
277.34925
 20
107.24175
 30
0.0
 41
240.0
 42
240.0
 50
90.0
210
0.0
220
0.0
230
1.0
  0
INSERT
  8
1
  6
CONTINUOUS
 62
     1
  5
638
  2
LDR
 10
290.33525
 20
107.660333
 30
0.0
 41
240.000001
 42
240.000001
 50
234.515756
210
0.0
220
0.0
230
1.0
  0
INSERT
  8
1
  6
CONTINUOUS
 62
     1
  5
639
  2
LDR
 10
282.283583
 20
70.512583
 30
0.0
 41
240.0
 42
240.0
 50
180.0
210
0.0
220
0.0
230
1.0
  0
INSERT
  8
1
  6
CONTINUOUS
 62
     1
  5
63A
  2
LDR
 10
282.283583
 20
70.512583
 30
0.0
 41
240.0
 42
240.0
 50
180.0
210
0.0
220
0.0
230
1.0
  0
INSERT
  8
1
  6
CONTINUOUS
 62
     1
  5
63B
  2
LDR
 10
199.84925
 20
77.985917
 30
0.0
 41
240.0
 42
240.0
 50
65.779544
210
0.0
220
0.0
230
1.0
  0
INSERT
  8
1
  6
CONTINUOUS
 62
     1
  5
63C
  2
LDR
 10
235.946917
 20
206.5465
 30
0.0
 41
240.0
 42
240.0
210
0.0
220
0.0
230
1.0
  0
INSERT
  8
1
  6
CONTINUOUS
 62
     1
  5
63D
  2
LDR
 10
235.946917
 20
206.5465
 30
0.0
 41
240.0
 42
240.0
210
0.0
220
0.0
230
1.0
  0
INSERT
  8
1
  6
CONTINUOUS
 62
     1
  5
63E
  2
LDR
 10
207.34025
 20
170.142917
 30
0.0
 41
240.000002
 42
240.000002
 50
226.149397
210
0.0
220
0.0
230
1.0
  0
INSERT
  8
1
  6
CONTINUOUS
 62
     1
  5
63F
  2
LDR
 10
207.34025
 20
170.142917
 30
0.0
 41
240.000002
 42
240.000002
 50
226.149397
210
0.0
220
0.0
230
1.0
  0
INSERT
  8
1
  6
CONTINUOUS
 62
     1
  5
640
  2
LDR
 10
157.657
 20
164.504667
 30
0.0
 41
239.999999
 42
239.999999
 50
247.877599
210
0.0
220
0.0
230
1.0
  0
INSERT
  8
1
  6
CONTINUOUS
 62
     1
  5
641
  2
LDR
 10
134.192417
 20
169.107667
 30
0.0
 41
240.0
 42
240.0
 50
289.976928
210
0.0
220
0.0
230
1.0
  0
INSERT
  8
1
  6
CONTINUOUS
 62
     1
  5
642
  2
LDR
 10
134.192417
 20
169.107667
 30
0.0
 41
240.0
 42
240.0
 50
289.976928
210
0.0
220
0.0
230
1.0
  0
INSERT
  8
1
  6
CONTINUOUS
 62
     1
  5
643
  2
LDR
 10
122.34925
 20
154.99275
 30
0.0
 41
239.999999
 42
239.999999
 50
314.324405
210
0.0
220
0.0
230
1.0
  0
INSERT
  8
1
  6
CONTINUOUS
 62
     1
  5
644
  2
LDR
 10
122.34925
 20
154.99275
 30
0.0
 41
239.999999
 42
239.999999
 50
314.324405
210
0.0
220
0.0
230
1.0
  0
INSERT
  8
1
  6
CONTINUOUS
 62
     1
  5
645
  2
LDR
 10
106.34925
 20
170.857667
 30
0.0
 41
240.0
 42
240.0
 50
90.0
210
0.0
220
0.0
230
1.0
  0
INSERT
  8
1
  6
CONTINUOUS
 62
     1
  5
646
  2
LDR
 10
106.34925
 20
170.857667
 30
0.0
 41
240.0
 42
240.0
 50
90.0
210
0.0
220
0.0
230
1.0
  0
INSERT
  8
1
  6
CONTINUOUS
 62
     1
  5
647
  2
LDR
 10
118.84925
 20
140.0505
 30
0.0
 41
240.000001
 42
240.000001
 50
316.114082
210
0.0
220
0.0
230
1.0
  0
INSERT
  8
1
  6
CONTINUOUS
 62
     1
  5
648
  2
LDR
 10
131.7795
 20
111.357667
 30
0.0
 41
240.0
 42
240.0
 50
286.509289
210
0.0
220
0.0
230
1.0
  0
INSERT
  8
1
  6
CONTINUOUS
 62
     1
  5
649
  2
LDR
 10
131.7795
 20
111.357667
 30
0.0
 41
240.0
 42
240.0
 50
286.509289
210
0.0
220
0.0
230
1.0
  0
INSERT
  8
1
  6
CONTINUOUS
 62
     1
  5
64A
  2
LDR
 10
106.34925
 20
108.857667
 30
0.0
 41
240.0
 42
240.0
 50
270.0
210
0.0
220
0.0
230
1.0
  0
INSERT
  8
1
  6
CONTINUOUS
 62
     1
  5
64B
  2
LDR
 10
106.34925
 20
108.857667
 30
0.0
 41
240.0
 42
240.0
 50
270.0
210
0.0
220
0.0
230
1.0
  0
INSERT
  8
1
  6
CONTINUOUS
 62
     1
  5
64C
  2
LDR
 10
106.34925
 20
108.857667
 30
0.0
 41
240.0
 42
240.0
 50
90.0
210
0.0
220
0.0
230
1.0
  0
INSERT
  8
1
  6
CONTINUOUS
 62
     1
  5
64D
  2
LDR
 10
106.34925
 20
98.857667
 30
0.0
 41
240.0
 42
240.0
 50
270.0
210
0.0
220
0.0
230
1.0
  0
INSERT
  8
1
  6
CONTINUOUS
 62
     1
  5
64E
  2
LDR
 10
141.22225
 20
108.857667
 30
0.0
 41
240.0
 42
240.0
 50
63.348139
210
0.0
220
0.0
230
1.0
  0
INSERT
  8
1
  6
CONTINUOUS
 62
     1
  5
64F
  2
LDR
 10
141.22225
 20
108.857667
 30
0.0
 41
240.0
 42
240.0
 50
63.348139
210
0.0
220
0.0
230
1.0
  0
INSERT
  8
1
  6
CONTINUOUS
 62
     1
  5
650
  2
LDR
 10
119.09925
 20
106.2985
 30
0.0
 41
240.000002
 42
240.000002
 50
312.226668
210
0.0
220
0.0
230
1.0
  0
INSERT
  8
1
  6
CONTINUOUS
 62
     1
  5
651
  2
LDR
 10
116.441333
 20
80.357667
 30
0.0
 41
239.999998
 42
239.999998
 50
85.324005
210
0.0
220
0.0
230
1.0
  0
TEXT
  8
1
  6
CONTINUOUS
 62
     7
  5
652
 10
262.492917
 20
216.419667
 30
0.0
 40
2.5
  1
PHOTOELECTRIC CELL
  7
MONOTXT
 11
262.492917
 21
218.919667
 31
0.0
210
0.0
220
0.0
230
1.0
 73
     3
  0
TEXT
  8
1
  6
CONTINUOUS
 62
     7
  5
653
 10
262.492917
 20
211.919667
 30
0.0
 40
2.5
  1
FACE TOWARD NORTH SKY
  7
MONOTXT
 11
262.492917
 21
214.419667
 31
0.0
210
0.0
220
0.0
230
1.0
 73
     3
  0
TEXT
  8
1
  6
CONTINUOUS
 62
     7
  5
654
 10
262.492917
 20
207.419667
 30
0.0
 40
2.5
  1
(PHOTOELECTRIC CELL WILL BE
  7
MONOTXT
 11
262.492917
 21
209.919667
 31
0.0
210
0.0
220
0.0
230
1.0
 73
     3
  0
TEXT
  8
1
  6
CONTINUOUS
 62
     7
  5
655
 10
262.492917
 20
202.919667
 30
0.0
 40
2.5
  1
PHOTOCELL-TWISTLOCK TYPE,
  7
MONOTXT
 11
262.492917
 21
205.419667
 31
0.0
210
0.0
220
0.0
230
1.0
 73
     3
  0
TEXT
  8
1
  6
CONTINUOUS
 62
     7
  5
656
 10
262.492917
 20
198.419667
 30
0.0
 40
2.5
  1
STANDARD NEMA WITH 2 3/4 "
  7
MONOTXT
 11
262.492917
 21
200.919667
 31
0.0
210
0.0
220
0.0
230
1.0
 73
     3
  0
TEXT
  8
1
  6
CONTINUOUS
 62
     7
  5
657
 10
262.492917
 20
193.919667
 30
0.0
 40
2.5
  1
ID LOCKING BASE)
  7
MONOTXT
 11
262.492917
 21
196.419667
 31
0.0
210
0.0
220
0.0
230
1.0
 73
     3
  0
TEXT
  8
1
  6
CONTINUOUS
 62
     7
  5
658
 10
184.584333
 20
205.026583
 30
0.0
 40
2.5
  1
METAL CONDUIT
  7
MONOTXT
 72
     4
 11
199.417
 21
206.276583
 31
0.0
210
0.0
220
0.0
230
1.0
  0
TEXT
  8
1
  6
CONTINUOUS
 62
     7
  5
659
 10
186.070583
 20
200.526583
 30
0.0
 40
2.5
  1
(SEE NOTE 3)
  7
MONOTXT
 72
     4
 11
199.407167
 21
201.776583
 31
0.0
210
0.0
220
0.0
230
1.0
  0
TEXT
  8
1
  6
CONTINUOUS
 62
     7
  5
65A
 10
195.622
 20
192.313083
 30
0.0
 40
2.5
  1
GATE WITH
  7
MONOTXT
 11
195.622
 21
194.813083
 31
0.0
210
0.0
220
0.0
230
1.0
 73
     3
  0
TEXT
  8
1
  6
CONTINUOUS
 62
     7
  5
65B
 10
195.622
 20
187.813083
 30
0.0
 40
2.5
  1
PLUNGER ROD
  7
MONOTXT
 11
195.622
 21
190.313083
 31
0.0
210
0.0
220
0.0
230
1.0
 73
     3
  0
TEXT
  8
1
  6
CONTINUOUS
 62
     7
  5
65C
 10
274.983917
 20
170.73075
 30
0.0
 40
2.5
  1
END POST AND CAP
  7
MONOTXT
 11
274.983917
 21
173.23075
 31
0.0
210
0.0
220
0.0
230
1.0
 73
     3
  0
TEXT
  8
1
  6
CONTINUOUS
 62
     7
  5
65D
 10
274.983917
 20
166.23075
 30
0.0
 40
2.5
  1
2 1/2 " 0 PIPE (TYP.)
  7
MONOTXT
 11
274.983917
 21
168.73075
 31
0.0
210
0.0
220
0.0
230
1.0
 73
     3
  0
TEXT
  8
1
  6
CONTINUOUS
 62
     7
  5
65E
 10
285.697333
 20
166.157583
 30
0.0
 40
2.5
  1
/
  7
MONOTXT
210
0.0
220
0.0
230
1.0
  0
TEXT
  8
1
  6
CONTINUOUS
 62
     7
  5
65F
 10
275.467583
 20
123.702667
 30
0.0
 40
2.5
  1
GROUNDED TYPE
  7
MONOTXT
 11
275.467583
 21
126.202667
 31
0.0
210
0.0
220
0.0
230
1.0
 73
     3
  0
TEXT
  8
1
  6
CONTINUOUS
 62
     7
  5
660
 10
275.467583
 20
119.202667
 30
0.0
 40
2.5
  1
INSULATED BUSHINGS
  7
MONOTXT
 11
275.467583
 21
121.702667
 31
0.0
210
0.0
220
0.0
230
1.0
 73
     3
  0
TEXT
  8
1
  6
CONTINUOUS
 62
     7
  5
661
 10
273.029083
 20
113.6405
 30
0.0
 40
2.5
  1
4" MIN.
  7
MONOTXT
210
0.0
220
0.0
230
1.0
  0
TEXT
  8
1
  6
CONTINUOUS
 62
     7
  5
662
 10
298.267333
 20
111.689083
 30
0.0
 40
2.5
  1
FINISHED GROUND LINE
  7
MONOTXT
210
0.0
220
0.0
230
1.0
  0
TEXT
  8
1
  6
CONTINUOUS
 62
     7
  5
663
 10
285.953
 20
99.24875
 30
0.0
 40
2.5
  1
CONNECT TO END POST
  7
MONOTXT
210
0.0
220
0.0
230
1.0
  0
TEXT
  8
1
  6
CONTINUOUS
 62
     7
  5
664
 10
287.265667
 20
86.28975
 30
0.0
 40
2.5
  1
LEVELING CONCRETE PAD (3'-6"x6'-2")
  7
MONOTXT
 11
287.265667
 21
88.78975
 31
0.0
210
0.0
220
0.0
230
1.0
 73
     3
  0
TEXT
  8
1
  6
CONTINUOUS
 62
     7
  5
665
 10
287.265667
 20
81.78975
 30
0.0
 40
2.5
  1
FOR CONTROL PANEL CABINET
  7
MONOTXT
 11
287.265667
 21
84.28975
 31
0.0
210
0.0
220
0.0
230
1.0
 73
     3
  0
TEXT
  8
1
  6
CONTINUOUS
 62
     7
  5
666
 10
293.1435
 20
69.114583
 30
0.0
 40
2.5
  1
 3/4 "0x8' LONG COPPER CLAD
  7
MONOTXT
 11
293.1435
 21
71.614583
 31
0.0
210
0.0
220
0.0
230
1.0
 73
     3
  0
TEXT
  8
1
  6
CONTINUOUS
 62
     7
  5
667
 10
293.1435
 20
64.614583
 30
0.0
 40
2.5
  1
GROUND ROD WITH DRIVING POINT.
  7
MONOTXT
 11
293.1435
 21
67.114583
 31
0.0
210
0.0
220
0.0
230
1.0
 73
     3
  0
TEXT
  8
1
  6
CONTINUOUS
 62
     7
  5
668
 10
293.1435
 20
60.114583
 30
0.0
 40
2.5
  1
TOP OF ROD SHALL BE 2' BELOW
  7
MONOTXT
 11
293.1435
 21
62.614583
 31
0.0
210
0.0
220
0.0
230
1.0
 73
     3
  0
TEXT
  8
1
  6
CONTINUOUS
 62
     7
  5
669
 10
293.1435
 20
55.614583
 30
0.0
 40
2.5
  1
GRADE.
  7
MONOTXT
 11
293.1435
 21
58.114583
 31
0.0
210
0.0
220
0.0
230
1.0
 73
     3
  0
TEXT
  8
1
  6
CONTINUOUS
 62
     7
  5
66A
 10
299.33075
 20
69.138833
 30
0.0
 40
2.5
  1
/
  7
MONOTXT
210
0.0
220
0.0
230
1.0
  0
TEXT
  8
1
  6
CONTINUOUS
 62
     7
  5
66B
 10
268.54925
 20
38.47775
 30
0.0
 40
2.5
  1
6" CLASS 2 AGGR.
  7
MONOTXT
 11
268.54925
 21
40.97775
 31
0.0
210
0.0
220
0.0
230
1.0
 73
     3
  0
TEXT
  8
1
  6
CONTINUOUS
 62
     7
  5
66C
 10
268.54925
 20
33.97775
 30
0.0
 40
2.5
  1
BASE COURSE (TYP.)
  7
MONOTXT
 11
268.54925
 21
36.47775
 31
0.0
210
0.0
220
0.0
230
1.0
 73
     3
  0
TEXT
  8
1
  6
CONTINUOUS
 62
     7
  5
66D
 10
199.264
 20
63.911417
 30
0.0
 40
2.5
  1
 3/4 "0x8' LONG COPPER CLAD
  7
MONOTXT
 11
199.264
 21
66.411417
 31
0.0
210
0.0
220
0.0
230
1.0
 73
     3
  0
TEXT
  8
1
  6
CONTINUOUS
 62
     7
  5
66E
 10
199.264
 20
59.411417
 30
0.0
 40
2.5
  1
GROUND ROD WITH DRIVING POINT.
  7
MONOTXT
 11
199.264
 21
61.911417
 31
0.0
210
0.0
220
0.0
230
1.0
 73
     3
  0
TEXT
  8
1
  6
CONTINUOUS
 62
     7
  5
66F
 10
199.264
 20
54.911417
 30
0.0
 40
2.5
  1
TOP OF ROD SHALL BE 4" ABOVE
  7
MONOTXT
 11
199.264
 21
57.411417
 31
0.0
210
0.0
220
0.0
230
1.0
 73
     3
  0
TEXT
  8
1
  6
CONTINUOUS
 62
     7
  5
670
 10
199.264
 20
50.411417
 30
0.0
 40
2.5
  1
FINISHED CONCRETE.
  7
MONOTXT
 11
199.264
 21
52.911417
 31
0.0
210
0.0
220
0.0
230
1.0
 73
     3
  0
TEXT
  8
1
  6
CONTINUOUS
 62
     7
  5
671
 10
205.4055
 20
63.939583
 30
0.0
 40
2.5
  1
/
  7
MONOTXT
 72
     4
 11
206.104333
 21
65.189583
 31
0.0
210
0.0
220
0.0
230
1.0
  0
TEXT
  8
1
  6
CONTINUOUS
 62
     7
  5
672
 10
123.9285
 20
65.95925
 30
0.0
 40
5.0
  1
#
  7
MONOTXT
 72
     4
 11
125.208
 21
68.45925
 31
0.0
210
0.0
220
0.0
230
1.0
  0
TEXT
  8
1
  6
CONTINUOUS
 62
     7
  5
673
 10
57.804667
 20
162.067667
 30
0.0
 40
2.5
  1
STRETCHER BAR
  7
MONOTXT
 11
57.804667
 21
164.567667
 31
0.0
210
0.0
220
0.0
230
1.0
 73
     3
  0
TEXT
  8
1
  6
CONTINUOUS
 62
     7
  5
674
 10
57.804667
 20
157.567667
 30
0.0
 40
2.5
  1
& POST BANDS
  7
MONOTXT
 11
57.804667
 21
160.067667
 31
0.0
210
0.0
220
0.0
230
1.0
 73
     3
  0
TEXT
  8
1
  6
CONTINUOUS
 62
     7
  5
675
 10
53.243583
 20
147.806167
 30
0.0
 40
2.5
  1
1 5/8 " 0 BRACE RAIL
  7
MONOTXT
 72
     4
 11
71.32425
 21
149.056167
 31
0.0
210
0.0
220
0.0
230
1.0
  0
TEXT
  8
1
  6
CONTINUOUS
 62
     7
  5
676
 10
65.733667
 20
143.306167
 30
0.0
 40
2.5
  1
(TYP.)
  7
MONOTXT
 72
     4
 11
71.314333
 21
144.556167
 31
0.0
210
0.0
220
0.0
230
1.0
  0
TEXT
  8
1
  6
CONTINUOUS
 62
     7
  5
677
 10
65.009833
 20
127.960417
 30
0.0
 40
2.5
  1
NO. 7 GUAGE
  7
MONOTXT
 11
65.009833
 21
130.460417
 31
0.0
210
0.0
220
0.0
230
1.0
 73
     3
  0
TEXT
  8
1
  6
CONTINUOUS
 62
     7
  5
678
 10
65.009833
 20
123.460417
 30
0.0
 40
2.5
  1
TENSION WIRE
  7
MONOTXT
 11
65.009833
 21
125.960417
 31
0.0
210
0.0
220
0.0
230
1.0
 73
     3
  0
TEXT
  8
1
  6
CONTINUOUS
 62
     7
  5
679
 10
54.330667
 20
111.614667
 30
0.0
 40
2.5
  1
ALL POSTS 3' MIN.
  7
MONOTXT
 11
54.330667
 21
114.114667
 31
0.0
210
0.0
220
0.0
230
1.0
 73
     3
  0
TEXT
  8
1
  6
CONTINUOUS
 62
     7
  5
67A
 10
54.330667
 20
107.114667
 30
0.0
 40
2.5
  1
IN GROUND IN CONC.
  7
MONOTXT
 11
54.330667
 21
109.614667
 31
0.0
210
0.0
220
0.0
230
1.0
 73
     3
  0
TEXT
  8
1
  6
CONTINUOUS
 62
     7
  5
67B
 10
54.330667
 20
102.614667
 30
0.0
 40
2.5
  1
WITH 3' DEPTH, 1' 0
  7
MONOTXT
 11
54.330667
 21
105.114667
 31
0.0
210
0.0
220
0.0
230
1.0
 73
     3
  0
TEXT
  8
1
  6
CONTINUOUS
 62
     7
  5
67C
 10
62.788083
 20
147.744167
 30
0.0
 40
2.5
  1
/
  7
MONOTXT
 72
     4
 11
63.486917
 21
148.994167
 31
0.0
210
0.0
220
0.0
230
1.0
  0
TEXT
  8
1
  6
CONTINUOUS
 62
     7
  5
67D
 10
88.760833
 20
102.568167
 30
0.0
 40
2.5
  1
/
  7
MONOTXT
 72
     4
 11
89.459667
 21
103.818167
 31
0.0
210
0.0
220
0.0
230
1.0
  0
TEXT
  8
1
  6
CONTINUOUS
 62
     7
  5
67E
 10
56.233167
 20
89.583083
 30
0.0
 40
2.5
  1
LEVELING CONCRETE PAD
  7
MONOTXT
 11
56.233167
 21
92.083083
 31
0.0
210
0.0
220
0.0
230
1.0
 73
     3
  0
TEXT
  8
1
  6
CONTINUOUS
 62
     7
  5
67F
 10
56.233167
 20
85.083083
 30
0.0
 40
2.5
  1
(4'-6"x5'-0")
  7
MONOTXT
 11
56.233167
 21
87.583083
 31
0.0
210
0.0
220
0.0
230
1.0
 73
     3
  0
TEXT
  8
1
  6
CONTINUOUS
 62
     7
  5
680
 10
56.233167
 20
80.583083
 30
0.0
 40
2.5
  1
FOR TRANSFORMER
  7
MONOTXT
 11
56.233167
 21
83.083083
 31
0.0
210
0.0
220
0.0
230
1.0
 73
     3
  0
TEXT
  8
1
  6
CONTINUOUS
 62
     7
  5
681
 10
79.37925
 20
180.970167
 30
0.0
 40
2.5
  1
1 5/8 " 0 TOP RAIL (TYP.)
  7
MONOTXT
 72
     4
 11
102.322083
 21
182.220167
 31
0.0
210
0.0
220
0.0
230
1.0
  0
TEXT
  8
1
  6
CONTINUOUS
 62
     7
  5
682
 10
88.8445
 20
180.970167
 30
0.0
 40
2.5
  1
/
  7
MONOTXT
 72
     4
 11
89.543333
 21
182.220167
 31
0.0
210
0.0
220
0.0
230
1.0
  0
TEXT
  8
1
  6
CONTINUOUS
 62
     7
  5
683
 10
165.651
 20
177.995
 30
0.0
 40
5.0
  1
#
  7
MONOTXT
 72
     4
 11
166.9305
 21
180.495
 31
0.0
210
0.0
220
0.0
230
1.0
  0
TEXT
  8
1
  6
CONTINUOUS
 62
     7
  5
684
 10
166.212917
 20
180.036417
 30
0.0
 40
2.5
  1
 9 GA.-2"
  7
MONOTXT
 11
166.212917
 21
182.536417
 31
0.0
210
0.0
220
0.0
230
1.0
 73
     3
  0
TEXT
  8
1
  6
CONTINUOUS
 62
     7
  5
685
 10
166.212917
 20
175.536417
 30
0.0
 40
2.5
  1
WIRE MESH
  7
MONOTXT
 11
166.212917
 21
178.036417
 31
0.0
210
0.0
220
0.0
230
1.0
 73
     3
  0
TEXT
  8
1
  6
CONTINUOUS
 62
     7
  5
686
 10
166.212917
 20
171.036417
 30
0.0
 40
2.5
  1
FENCE
  7
MONOTXT
 11
166.212917
 21
173.536417
 31
0.0
210
0.0
220
0.0
230
1.0
 73
     3
  0
TEXT
  8
1
  6
CONTINUOUS
 62
     7
  5
687
 10
105.034833
 20
132.629417
 30
0.0
 40
2.5
  1
6'-0"
 50
90.0
  7
MONOTXT
 72
     4
 11
103.784833
 21
137.10775
 31
0.0
210
0.0
220
0.0
230
1.0
  0
TEXT
  8
1
  6
CONTINUOUS
 62
     7
  5
688
 10
105.389333
 20
99.924167
 30
0.0
 40
2.5
  1
1'-2"
 50
90.0
  7
MONOTXT
 72
     4
 11
104.139333
 21
103.93
 31
0.0
210
0.0
220
0.0
230
1.0
  0
TEXT
  8
1
  6
CONTINUOUS
 62
     7
  5
689
 10
109.889333
 20
100.750917
 30
0.0
 40
2.5
  1
MIN.
 50
90.0
  7
MONOTXT
 72
     4
 11
108.639333
 21
103.930083
 31
0.0
210
0.0
220
0.0
230
1.0
  0
TEXT
  8
1
  6
CONTINUOUS
 62
     7
  5
68A
 10
250.427167
 20
142.855
 30
0.0
 40
2.5
  1
6'-0"(MIN.)
 50
90.0
  7
MONOTXT
 72
     4
 11
249.177167
 21
152.549833
 31
0.0
210
0.0
220
0.0
230
1.0
  0
LINE
  8
1
  6
CONTINUOUS
 62
     7
  5
68B
 10
185.075917
 20
38.450083
 30
0.0
 11
210.265
 21
38.450083
 31
0.0
  0
TEXT
  8
1
  6
CONTINUOUS
 62
     7
  5
68C
 10
185.758833
 20
39.172167
 30
0.0
 40
3.0
  1
ELEVATION
  7
MONOTXT
210
0.0
220
0.0
230
1.0
  0
TEXT
  8
1
  6
CONTINUOUS
 62
     7
  5
68D
 10
153.50825
 20
28.732917
 30
0.0
 40
4.0
  1
CONTROL STATION ENCLOSURE
  7
MONOTXT
 72
     4
 11
201.2405
 21
30.732917
 31
0.0
210
0.0
220
0.0
230
1.0
  0
LINE
  8
1
  6
CONTINUOUS
 62
     7
  5
68E
 10
152.613583
 20
27.16325
 30
0.0
 11
250.419917
 21
27.16325
 31
0.0
  0
TEXT
  8
1
  6
CONTINUOUS
 62
     7
  5
68F
 10
474.214417
 20
375.722083
 30
0.0
 40
2.5
  1
GENERAL NOTES:
  7
MONOTXT
 72
     4
 11
490.218333
 21
376.972083
 31
0.0
210
0.0
220
0.0
230
1.0
  0
LINE
  8
1
  6
CONTINUOUS
 62
     7
  5
690
 10
472.640417
 20
374.043083
 30
0.0
 11
506.7075
 21
374.043083
 31
0.0
  0
TEXT
  8
1
  6
CONTINUOUS
 62
     7
  5
691
 10
124.65775
 20
68.0105
 30
0.0
 40
2.5
  1
 4/0 BARE TINNED COPPER
  7
MONOTXT
 11
124.65775
 21
70.5105
 31
0.0
210
0.0
220
0.0
230
1.0
 73
     3
  0
TEXT
  8
1
  6
CONTINUOUS
 62
     7
  5
692
 10
124.65775
 20
63.5105
 30
0.0
 40
2.5
  1
GROUND WIRE. THERMO-WELD TO
  7
MONOTXT
 11
124.65775
 21
66.0105
 31
0.0
210
0.0
220
0.0
230
1.0
 73
     3
  0
TEXT
  8
1
  6
CONTINUOUS
 62
     7
  5
693
 10
124.65775
 20
59.0105
 30
0.0
 40
2.5
  1
GROUND RODS. GROUND WIRES
  7
MONOTXT
 11
124.65775
 21
61.5105
 31
0.0
210
0.0
220
0.0
230
1.0
 73
     3
  0
TEXT
  8
1
  6
CONTINUOUS
 62
     7
  5
694
 10
124.65775
 20
54.5105
 30
0.0
 40
2.5
  1
SHALL BE CONTINUOUS WITHOUT
  7
MONOTXT
 11
124.65775
 21
57.0105
 31
0.0
210
0.0
220
0.0
230
1.0
 73
     3
  0
TEXT
  8
1
  6
CONTINUOUS
 62
     7
  5
695
 10
124.65775
 20
50.0105
 30
0.0
 40
2.5
  1
SPLICES OR BREAKS.
  7
MONOTXT
 11
124.65775
 21
52.5105
 31
0.0
210
0.0
220
0.0
230
1.0
 73
     3
  0
LINE
  8
1
  6
CONTINUOUS
 62
     7
  5
696
 10
252.255
 20
174.962167
 30
0.0
 11
241.196917
 21
174.962167
 31
0.0
  0
LINE
  8
1
  6
CONTINUOUS
 62
     7
  5
697
 10
251.255
 20
174.962167
 30
0.0
 11
251.255
 21
108.857667
 31
0.0
  0
INSERT
  8
1
  6
CONTINUOUS
 62
     1
  5
698
  2
LDR
 10
251.255
 20
174.962167
 30
0.0
 41
240.0
 42
240.0
 50
90.0
210
0.0
220
0.0
230
1.0
  0
INSERT
  8
1
  6
CONTINUOUS
 62
     1
  5
699
  2
LDR
 10
251.255
 20
174.962167
 30
0.0
 41
240.0
 42
240.0
 50
90.0
210
0.0
220
0.0
230
1.0
  0
INSERT
  8
1
  6
CONTINUOUS
 62
     1
  5
69A
  2
LDR
 10
251.255
 20
108.857667
 30
0.0
 41
240.0
 42
240.0
 50
270.0
210
0.0
220
0.0
230
1.0
  0
TEXT
  8
1
  6
CONTINUOUS
 62
     7
  5
69B
 10
257.653917
 20
142.223583
 30
0.0
 40
2.5
  1
10'-0"(MIN.)
 50
90.0
  7
MONOTXT
 72
     4
 11
256.403917
 21
152.686167
 31
0.0
210
0.0
220
0.0
230
1.0
  0
TEXT
  8
1
  6
CONTINUOUS
 62
     7
  5
69C
 10
474.104417
 20
366.271
 30
0.0
 40
2.5
  1
1.    TRANSFORMER SHALL ONLY BE INCLUDED IN THE ENCLOSURE IF CALLED FOR ON
  7
MONOTXT
 11
474.104417
 21
368.771
 31
0.0
210
0.0
220
0.0
230
1.0
 73
     3
  0
TEXT
  8
1
  6
CONTINUOUS
 62
     7
  5
69D
 10
474.104417
 20
361.771
 30
0.0
 40
2.5
  1
   PLANS.
  7
MONOTXT
 11
474.104417
 21
364.271
 31
0.0
210
0.0
220
0.0
230
1.0
 73
     3
  0
TEXT
  8
1
  6
CONTINUOUS
 62
     7
  5
69E
 10
474.104417
 20
357.271
 30
0.0
 40
2.5
  1
 
  7
MONOTXT
 11
474.104417
 21
359.771
 31
0.0
210
0.0
220
0.0
230
1.0
 73
     3
  0
TEXT
  8
1
  6
CONTINUOUS
 62
     7
  5
69F
 10
474.104417
 20
352.771
 30
0.0
 40
2.5
  1
2.    IF TRANSFORMER IS NOT INCLUDED, THE DIMENSIONS OF THE ENCLOSURE SHALL
  7
MONOTXT
 11
474.104417
 21
355.271
 31
0.0
210
0.0
220
0.0
230
1.0
 73
     3
  0
TEXT
  8
1
  6
CONTINUOUS
 62
     7
  5
6A0
 10
474.104417
 20
348.271
 30
0.0
 40
2.5
  1
    BE REDUCED TO 10'-0" x 11'-0" x 0'-14".
  7
MONOTXT
 11
474.104417
 21
350.771
 31
0.0
210
0.0
220
0.0
230
1.0
 73
     3
  0
TEXT
  8
1
  6
CONTINUOUS
 62
     7
  5
6A1
 10
474.104417
 20
343.771
 30
0.0
 40
2.5
  1
 
  7
MONOTXT
 11
474.104417
 21
346.271
 31
0.0
210
0.0
220
0.0
230
1.0
 73
     3
  0
TEXT
  8
1
  6
CONTINUOUS
 62
     7
  5
6A2
 10
474.104417
 20
339.271
 30
0.0
 40
2.5
  1
3.    CONDUIT MOUNTED P.E. UNIT TO BE USED IF SYSTEM EMPLOYS PRIMARY VOLTAGE
  7
MONOTXT
 11
474.104417
 21
341.771
 31
0.0
210
0.0
220
0.0
230
1.0
 73
     3
  0
TEXT
  8
1
  6
CONTINUOUS
 62
     7
  5
6A3
 10
474.104417
 20
334.771
 30
0.0
 40
2.5
  1
    ON METERING POLE OR IF NOTED ON THE CONTRACT PLANS.
  7
MONOTXT
 11
474.104417
 21
337.271
 31
0.0
210
0.0
220
0.0
230
1.0
 73
     3
  0
TEXT
  8
1
  6
CONTINUOUS
 62
     7
  5
6A4
 10
474.104417
 20
330.271
 30
0.0
 40
2.5
  1
 
  7
MONOTXT
 11
474.104417
 21
332.771
 31
0.0
210
0.0
220
0.0
230
1.0
 73
     3
  0
TEXT
  8
1
  6
CONTINUOUS
 62
     7
  5
6A5
 10
474.104417
 20
325.771
 30
0.0
 40
2.5
  1
4.    CONDUIT TO SUPPORT P.E. UNIT SHALL BE 1 1/2 " O.D. GALVANIZED STEEL.
  7
MONOTXT
 11
474.104417
 21
328.271
 31
0.0
210
0.0
220
0.0
230
1.0
 73
     3
  0
TEXT
  8
1
  6
CONTINUOUS
 62
     7
  5
6A6
 10
474.104417
 20
321.271
 30
0.0
 40
2.5
  1
 
  7
MONOTXT
 11
474.104417
 21
323.771
 31
0.0
210
0.0
220
0.0
230
1.0
 73
     3
  0
TEXT
  8
1
  6
CONTINUOUS
 62
     7
  5
6A7
 10
474.104417
 20
316.771
 30
0.0
 40
2.5
  1
5.    REINFORCEMENT IN FOUNDATION SHALL BE  6's SPACED AT 8" DEPTH WISE
  7
MONOTXT
 11
474.104417
 21
319.271
 31
0.0
210
0.0
220
0.0
230
1.0
 73
     3
  0
TEXT
  8
1
  6
CONTINUOUS
 62
     7
  5
6A8
 10
474.104417
 20
312.271
 30
0.0
 40
2.5
  1
    AND 16" LENGTH WISE AT 3" FROM BOTTOM OF FOUNDATION.
  7
MONOTXT
 11
474.104417
 21
314.771
 31
0.0
210
0.0
220
0.0
230
1.0
 73
     3
  0
TEXT
  8
1
  6
CONTINUOUS
 62
     7
  5
6A9
 10
474.104417
 20
307.771
 30
0.0
 40
2.5
  1
 
  7
MONOTXT
 11
474.104417
 21
310.271
 31
0.0
210
0.0
220
0.0
230
1.0
 73
     3
  0
TEXT
  8
1
  6
CONTINUOUS
 62
     7
  5
6AA
 10
474.104417
 20
303.271
 30
0.0
 40
2.5
  1
6.    ALL CONCRETE SHALL BE CLASS "B".
  7
MONOTXT
 11
474.104417
 21
305.771
 31
0.0
210
0.0
220
0.0
230
1.0
 73
     3
  0
TEXT
  8
1
  6
CONTINUOUS
 62
     7
  5
6AB
 10
474.104417
 20
298.771
 30
0.0
 40
2.5
  1
 
  7
MONOTXT
 11
474.104417
 21
301.271
 31
0.0
210
0.0
220
0.0
230
1.0
 73
     3
  0
TEXT
  8
1
  6
CONTINUOUS
 62
     7
  5
6AC
 10
474.104417
 20
294.271
 30
0.0
 40
2.5
  1
7.   THE ENCLOSURE MUST HAVE DOUBLE DOORS AND BE NEMA TYPE 4.  IT MUST
  7
MONOTXT
 11
474.104417
 21
296.771
 31
0.0
210
0.0
220
0.0
230
1.0
 73
     3
  0
TEXT
  8
1
  6
CONTINUOUS
 62
     7
  5
6AD
 10
474.104417
 20
289.771
 30
0.0
 40
2.5
  1
   HAVE ADJUSTABLE MOUNTING CHANNELS ON BOTH SIDES AND ON THE BACK
  7
MONOTXT
 11
474.104417
 21
292.271
 31
0.0
210
0.0
220
0.0
230
1.0
 73
     3
  0
TEXT
  8
1
  6
CONTINUOUS
 62
     7
  5
6AE
 10
474.104417
 20
285.271
 30
0.0
 40
2.5
  1
   WALL.  IT MUST BE OF 0.125 INCH THICK ALUMINUM TYPE 5052-H3 AND BE
  7
MONOTXT
 11
474.104417
 21
287.771
 31
0.0
210
0.0
220
0.0
230
1.0
 73
     3
  0
TEXT
  8
1
  6
CONTINUOUS
 62
     7
  5
6AF
 10
474.104417
 20
280.771
 30
0.0
 40
2.5
  1
   REINFORCED TO SUPPORT LOADING AND DOORWAYS.
  7
MONOTXT
 11
474.104417
 21
283.271
 31
0.0
210
0.0
220
0.0
230
1.0
 73
     3
  0
TEXT
  8
1
  6
CONTINUOUS
 62
     7
  5
6B0
 10
474.104417
 20
276.271
 30
0.0
 40
2.5
  1
 
  7
MONOTXT
 11
474.104417
 21
278.771
 31
0.0
210
0.0
220
0.0
230
1.0
 73
     3
  0
TEXT
  8
1
  6
CONTINUOUS
 62
     7
  5
6B1
 10
474.104417
 20
271.771
 30
0.0
 40
2.5
  1
8.   ENCLOSURE SIZES WILL BE DETERMINED BY COMPONENT REQUIREMENTS AND
  7
MONOTXT
 11
474.104417
 21
274.271
 31
0.0
210
0.0
220
0.0
230
1.0
 73
     3
  0
TEXT
  8
1
  6
CONTINUOUS
 62
     7
  5
6B2
 10
474.104417
 20
267.271
 30
0.0
 40
2.5
  1
   SUBMITTED FOR APPROVAL TO THE ENGINEER.
  7
MONOTXT
 11
474.104417
 21
269.771
 31
0.0
210
0.0
220
0.0
230
1.0
 73
     3
  0
ENDSEC
  0
EOF
