  0
SECTION
  2
HEADER
  9
$ACADVER
  1
AC1009
  9
$INSBASE
 10
0.0
 20
0.0
 30
0.0
  9
$EXTMIN
 10
-26.836417
 20
-376.0565
 30
0.0
  9
$EXTMAX
 10
653.243583
 20
63.9835
 30
0.0
  9
$LIMMIN
 10
0.0
 20
0.0
  9
$LIMMAX
 10
12.0
 20
9.0
  9
$ORTHOMODE
 70
     0
  9
$REGENMODE
 70
     1
  9
$FILLMODE
 70
     1
  9
$QTEXTMODE
 70
     0
  9
$MIRRTEXT
 70
     1
  9
$DRAGMODE
 70
     2
  9
$LTSCALE
 40
1.0
  9
$OSMODE
 70
     0
  9
$ATTMODE
 70
     1
  9
$TEXTSIZE
 40
0.2
  9
$TRACEWID
 40
0.05
  9
$TEXTSTYLE
  7
STANDARD
  9
$CLAYER
  8
0
  9
$CELTYPE
  6
CONTINUOUS
  9
$CECOLOR
 62
   256
  9
$DIMSCALE
 40
1.0
  9
$DIMASZ
 40
0.18
  9
$DIMEXO
 40
0.0625
  9
$DIMDLI
 40
0.38
  9
$DIMRND
 40
0.0
  9
$DIMDLE
 40
0.0
  9
$DIMEXE
 40
0.18
  9
$DIMTP
 40
0.0
  9
$DIMTM
 40
0.0
  9
$DIMTXT
 40
0.18
  9
$DIMCEN
 40
0.09
  9
$DIMTSZ
 40
0.0
  9
$DIMTOL
 70
     0
  9
$DIMLIM
 70
     0
  9
$DIMTIH
 70
     1
  9
$DIMTOH
 70
     1
  9
$DIMSE1
 70
     0
  9
$DIMSE2
 70
     0
  9
$DIMTAD
 70
     0
  9
$DIMZIN
 70
     0
  9
$DIMBLK
  1

  9
$DIMASO
 70
     1
  9
$DIMSHO
 70
     1
  9
$DIMPOST
  1

  9
$DIMAPOST
  1

  9
$DIMALT
 70
     0
  9
$DIMALTD
 70
     2
  9
$DIMALTF
 40
25.4
  9
$DIMLFAC
 40
1.0
  9
$DIMTOFL
 70
     0
  9
$DIMTVP
 40
0.0
  9
$DIMTIX
 70
     0
  9
$DIMSOXD
 70
     0
  9
$DIMSAH
 70
     0
  9
$DIMBLK1
  1

  9
$DIMBLK2
  1

  9
$DIMSTYLE
  2
STANDARD
  9
$DIMCLRD
 70
     0
  9
$DIMCLRE
 70
     0
  9
$DIMCLRT
 70
     0
  9
$DIMTFAC
 40
1.0
  9
$DIMGAP
 40
0.09
  9
$LUNITS
 70
     2
  9
$LUPREC
 70
     4
  9
$AXISMODE
 70
     0
  9
$AXISUNIT
 10
0.0
 20
0.0
  9
$SKETCHINC
 40
0.1
  9
$FILLETRAD
 40
0.0
  9
$AUNITS
 70
     0
  9
$AUPREC
 70
     0
  9
$MENU
  1
acad
  9
$ELEVATION
 40
0.0
  9
$PELEVATION
 40
0.0
  9
$THICKNESS
 40
0.0
  9
$LIMCHECK
 70
     0
  9
$BLIPMODE
 70
     1
  9
$CHAMFERA
 40
0.0
  9
$CHAMFERB
 40
0.0
  9
$SKPOLY
 70
     0
  9
$TDCREATE
 40
2451803.432210648
  9
$TDUPDATE
 40
2451803.432210648
  9
$TDINDWG
 40
0.0000000000
  9
$TDUSRTIMER
 40
0.0000000000
  9
$USRTIMER
 70
     1
  9
$ANGBASE
 50
0.0
  9
$ANGDIR
 70
     0
  9
$PDMODE
 70
     0
  9
$PDSIZE
 40
0.0
  9
$PLINEWID
 40
0.0
  9
$COORDS
 70
     0
  9
$SPLFRAME
 70
     0
  9
$SPLINETYPE
 70
     6
  9
$SPLINESEGS
 70
    10
  9
$ATTDIA
 70
     0
  9
$ATTREQ
 70
     1
  9
$HANDLING
 70
     1
  9
$HANDSEED
  5
58C
  9
$SURFTAB1
 70
     6
  9
$SURFTAB2
 70
     6
  9
$SURFTYPE
 70
     6
  9
$SURFU
 70
     6
  9
$SURFV
 70
     6
  9
$UCSNAME
  2

  9
$UCSORG
 10
0.0
 20
0.0
 30
0.0
  9
$UCSXDIR
 10
1.0
 20
0.0
 30
0.0
  9
$UCSYDIR
 10
0.0
 20
1.0
 30
0.0
  9
$PUCSNAME
  2

  9
$PUCSORG
 10
0.0
 20
0.0
 30
0.0
  9
$PUCSXDIR
 10
1.0
 20
0.0
 30
0.0
  9
$PUCSYDIR
 10
0.0
 20
1.0
 30
0.0
  9
$USERI1
 70
     0
  9
$USERI2
 70
     0
  9
$USERI3
 70
     0
  9
$USERI4
 70
     0
  9
$USERI5
 70
     0
  9
$USERR1
 40
0.0
  9
$USERR2
 40
0.0
  9
$USERR3
 40
0.0
  9
$USERR4
 40
0.0
  9
$USERR5
 40
0.0
  9
$WORLDVIEW
 70
     1
  9
$SHADEDGE
 70
     3
  9
$SHADEDIF
 70
    70
  9
$TILEMODE
 70
     1
  9
$MAXACTVP
 70
    16
  9
$PINSBASE
 10
0.0
 20
0.0
 30
0.0
  9
$PLIMCHECK
 70
     0
  9
$PEXTMIN
 10
-1.000000E+20
 20
-1.000000E+20
 30
-1.000000E+20
  9
$PEXTMAX
 10
-1.000000E+20
 20
-1.000000E+20
 30
-1.000000E+20
  9
$PLIMMIN
 10
0.0
 20
0.0
  9
$PLIMMAX
 10
12.0
 20
9.0
  9
$UNITMODE
 70
     0
  9
$VISRETAIN
 70
     0
  9
$PLINEGEN
 70
     1
  9
$PSLTSCALE
 70
     0
  9
$TREEDEPTH
 70
  3020
  9
$DWGCODEPAGE
  3
ansi_1252
  0
ENDSEC
  0
SECTION
  2
TABLES
  0
TABLE
  2
VPORT
 70
     1
  0
VPORT
  2
*ACTIVE
 70
     0
 10
0.0
 20
0.0
 11
1.0
 21
1.0
 12
0.0
 22
0.0
 13
0.0
 23
0.0
 14
0.0
 24
0.0
 15
0.0
 25
0.0
 16
0.0
 26
0.0
 36
1.0
 17
267.439883
 27
-156.0365
 37
0.0
 40
451.041
 41
1.795122
 42
50.0
 43
0.0
 44
0.0
 50
0.0
 51
0.0
 71
     0
 72
   100
 73
     1
 74
     0
 75
     0
 76
     0
 77
     0
 78
     0
  0
ENDTAB
  0
TABLE
  2
LTYPE
 70
     7
  0
LTYPE
  2
CONTINUOUS
 70
     0
  3
Solid line
 72
    65
 73
     0
 40
0.0
  0
LTYPE
  2
DOT
 70
    64
  3
. . . . . . . . . . . . . . . . . . . . . . . . . . . . . . . . .
 72
    65
 73
     2
 40
0.25
 49
0.0
 49
-0.25
  0
LTYPE
  2
HIDDEN
 70
    64
  3
__ __ __ __ __ __ __ __ __ __ __ __ __ __ __ __ __ __ __ __ __ 
 72
    65
 73
     2
 40
0.375
 49
0.25
 49
-0.125
  0
LTYPE
  2
DASHED
 70
    64
  3
__ __ __ __ __ __ __ __ __ __ __ __ __ __ __ __ __ __ __ __ __
 72
    65
 73
     2
 40
0.75
 49
0.5
 49
-0.25
  0
LTYPE
  2
DASHDOT
 70
    64
  3
__ . __ . __ . __ . __ . __ . __ . __ . __ . __ . __ . __ . _
 72
    65
 73
     4
 40
1.0
 49
0.5
 49
-0.25
 49
0.0
 49
-0.25
  0
LTYPE
  2
DIVIDE
 70
    64
  3
____ . . ____ . . ____ . . ____ . . ____ . . ____ . . ____ . .
 72
    65
 73
     6
 40
1.25
 49
0.5
 49
-0.25
 49
0.0
 49
-0.25
 49
0.0
 49
-0.25
  0
LTYPE
  2
CENTER
 70
    64
  3
____ _ ____ _ ____ _ ____ _ ____ _ ____ _ ____ _ ____ _ ____ _
 72
    65
 73
     4
 40
2.0
 49
1.25
 49
-0.25
 49
0.25
 49
-0.25
  0
ENDTAB
  0
TABLE
  2
LAYER
 70
     6
  0
LAYER
  2
0
 70
     0
 62
     7
  6
CONTINUOUS
  0
LAYER
  2
CONSTRUCTION_CLASS
 70
     0
 62
     7
  6
CONTINUOUS
  0
LAYER
  2
PATTERN_CLASS
 70
     0
 62
     7
  6
CONTINUOUS
  0
LAYER
  2
61
 70
    64
 62
     7
  6
CONTINUOUS
  0
LAYER
  2
1
 70
    64
 62
     7
  6
CONTINUOUS
  0
LAYER
  2
4
 70
    64
 62
     7
  6
CONTINUOUS
  0
ENDTAB
  0
TABLE
  2
STYLE
 70
     4
  0
STYLE
  2
STANDARD
 70
     0
 40
0.0
 41
1.0
 50
0.0
 71
     0
 42
0.0
  3
txt
  4

  0
STYLE
  2
MONOTXT
 70
     0
 40
0.2
 41
1.0
 50
0.0
 71
     0
 42
0.2
  3
MONOTXT
  4

  0
STYLE
  2
txt
 70
     0
 40
0.2
 41
1.0
 50
0.0
 71
     0
 42
0.2
  3
TXT
  4

  0
STYLE
  2
ROMANT
 70
     0
 40
0.2
 41
1.0
 50
0.0
 71
     0
 42
0.2
  3
ROMANT
  4

  0
ENDTAB
  0
TABLE
  2
VIEW
 70
     0
  0
ENDTAB
  0
TABLE
  2
UCS
 70
     0
  0
ENDTAB
  0
TABLE
  2
APPID
 70
     1
  0
APPID
  2
ACAD
 70
     0
  0
ENDTAB
  0
TABLE
  2
DIMSTYLE
 70
     1
  0
DIMSTYLE
  2
STANDARD
 70
     0
  3

  4

  5

  6

  7

 40
1.0
 41
0.18
 42
0.0625
 43
0.38
 44
0.18
 45
0.0
 46
0.0
 47
0.0
 48
0.0
140
0.18
141
0.09
142
0.0
143
25.4
144
1.0
145
0.0
146
1.0
147
0.09
 71
     0
 72
     0
 73
     1
 74
     1
 75
     0
 76
     0
 77
     0
 78
     0
170
     0
171
     2
172
     0
173
     0
174
     0
175
     0
176
     0
177
     0
178
     0
  0
ENDTAB
  0
ENDSEC
  0
SECTION
  2
BLOCKS
  0
BLOCK
  8
1
  6
CONTINUOUS
 62
     1
  5
F3
  2
ARO
 70
     0
 10
0.0
 20
0.0
 30
0.0
  3
ARO
  0
POLYLINE
  8
1
  6
CONTINUOUS
 62
     1
  5
F4
 66
     1
 10
0.0
 20
0.0
 30
0.0
 70
     1
  0
VERTEX
  8
1
  6
CONTINUOUS
 62
     1
  5
F5
 10
0.0
 20
0.0
 30
0.0
  0
VERTEX
  8
1
  6
CONTINUOUS
 62
     1
  5
F6
 10
-0.0185
 20
0.008167
 30
0.0
  0
VERTEX
  8
1
  6
CONTINUOUS
 62
     1
  5
F7
 10
-0.0185
 20
0.003333
 30
0.0
  0
VERTEX
  8
1
  6
CONTINUOUS
 62
     1
  5
F8
 10
-0.0595
 20
0.003333
 30
0.0
  0
VERTEX
  8
1
  6
CONTINUOUS
 62
     1
  5
F9
 10
-0.0595
 20
0.003167
 30
0.0
  0
VERTEX
  8
1
  6
CONTINUOUS
 62
     1
  5
FA
 10
-0.0595
 20
-0.0035
 30
0.0
  0
VERTEX
  8
1
  6
CONTINUOUS
 62
     1
  5
FB
 10
-0.0185
 20
-0.0035
 30
0.0
  0
VERTEX
  8
1
  6
CONTINUOUS
 62
     1
  5
FC
 10
-0.0185
 20
-0.008417
 30
0.0
  0
VERTEX
  8
1
  6
CONTINUOUS
 62
     1
  5
FD
 10
0.0
 20
0.0
 30
0.0
  0
SEQEND
  8
1
  6
CONTINUOUS
 62
     1
  5
FE
  0
ENDBLK
  8
1
  6
CONTINUOUS
 62
     1
  5
FF
  0
BLOCK
  8
1
  6
CONTINUOUS
 62
     1
  5
106
  2
2SPT
 70
     0
 10
0.0
 20
0.0
 30
0.0
  3
2SPT
  0
LINE
  8
1
  6
CONTINUOUS
 62
     1
  5
107
 10
-0.010083
 20
-0.001333
 30
0.0
 11
0.011167
 21
-0.001333
 31
0.0
  0
CIRCLE
  8
4
  6
CONTINUOUS
 62
     1
  5
109
 10
0.004717
 20
0.00039
 30
0.0
 40
0.001708
210
0.0
220
0.0
230
1.0
  0
CIRCLE
  8
4
  6
CONTINUOUS
 62
     1
  5
10A
 10
-0.003853
 20
0.000389
 30
0.0
 40
0.001708
210
0.0
220
0.0
230
1.0
  0
ENDBLK
  8
4
  6
CONTINUOUS
 62
     1
  5
10B
  0
BLOCK
  8
1
  6
CONTINUOUS
 62
     1
  5
13B
  2
LDR
 70
     0
 10
0.0
 20
0.0
 30
0.0
  3
LNR
  0
POLYLINE
  8
1
  6
CONTINUOUS
 62
     1
  5
13C
 66
     1
 10
0.0
 20
0.0
 30
0.0
210
0.0
220
0.0
230
1.0
  0
VERTEX
  8
1
  6
CONTINUOUS
 62
     1
  5
13D
 10
-0.011987
 20
-0.001802
 30
0.0
 42
-0.265147
  0
VERTEX
  8
1
  6
CONTINUOUS
 62
     1
  5
13E
 10
-0.011849
 20
-0.001604
 30
0.0
 42
-0.064653
  0
VERTEX
  8
1
  6
CONTINUOUS
 62
     1
  5
13F
 10
-0.011407
 20
-0.001387
 30
0.0
 42
-0.025822
  0
VERTEX
  8
1
  6
CONTINUOUS
 62
     1
  5
140
 10
-0.010681
 20
-0.00116
 30
0.0
 42
-0.014504
  0
VERTEX
  8
1
  6
CONTINUOUS
 62
     1
  5
141
 10
-0.0097
 20
-0.000933
 30
0.0
 42
-0.009896
  0
VERTEX
  8
1
  6
CONTINUOUS
 62
     1
  5
142
 10
-0.008505
 20
-0.000715
 30
0.0
 42
-0.007708
  0
VERTEX
  8
1
  6
CONTINUOUS
 62
     1
  5
143
 10
-0.007146
 20
-0.000515
 30
0.0
 42
-0.006655
  0
VERTEX
  8
1
  6
CONTINUOUS
 62
     1
  5
144
 10
-0.005679
 20
-0.000342
 30
0.0
 42
-0.006278
  0
VERTEX
  8
1
  6
CONTINUOUS
 62
     1
  5
145
 10
-0.004164
 20
-0.000202
 30
0.0
 42
-0.006439
  0
VERTEX
  8
1
  6
CONTINUOUS
 62
     1
  5
146
 10
-0.002666
 20
-0.000101
 30
0.0
 42
-0.007196
  0
VERTEX
  8
1
  6
CONTINUOUS
 62
     1
  5
147
 10
-0.001246
 20
-0.000044
 30
0.0
 42
-0.008852
  0
VERTEX
  8
1
  6
CONTINUOUS
 62
     1
  5
148
 10
0.000037
 20
-0.000034
 30
0.0
 42
-0.008852
  0
SEQEND
  8
1
  6
CONTINUOUS
 62
     1
  5
149
  0
POLYLINE
  8
1
  6
CONTINUOUS
 62
     1
  5
14A
 66
     1
 10
0.0
 20
0.0
 30
0.0
210
0.0
220
0.0
230
1.0
  0
VERTEX
  8
1
  6
CONTINUOUS
 62
     1
  5
14B
 10
0.000039
 20
0.000014
 30
0.0
 42
-0.005019
  0
VERTEX
  8
1
  6
CONTINUOUS
 62
     1
  5
14C
 10
-0.001103
 20
0.000071
 30
0.0
 42
-0.004038
  0
VERTEX
  8
1
  6
CONTINUOUS
 62
     1
  5
14D
 10
-0.002373
 20
0.000158
 30
0.0
 42
-0.003548
  0
VERTEX
  8
1
  6
CONTINUOUS
 62
     1
  5
14E
 10
-0.003725
 20
0.00027
 30
0.0
 42
-0.003367
  0
VERTEX
  8
1
  6
CONTINUOUS
 62
     1
  5
14F
 10
-0.005111
 20
0.000405
 30
0.0
 42
-0.003436
  0
VERTEX
  8
1
  6
CONTINUOUS
 62
     1
  5
150
 10
-0.006481
 20
0.000556
 30
0.0
 42
-0.003778
  0
VERTEX
  8
1
  6
CONTINUOUS
 62
     1
  5
151
 10
-0.007786
 20
0.00072
 30
0.0
 42
-0.00451
  0
VERTEX
  8
1
  6
CONTINUOUS
 62
     1
  5
152
 10
-0.008979
 20
0.000889
 30
0.0
 42
-0.00594
  0
VERTEX
  8
1
  6
CONTINUOUS
 62
     1
  5
153
 10
-0.010018
 20
0.001058
 30
0.0
 42
-0.008921
  0
VERTEX
  8
1
  6
CONTINUOUS
 62
     1
  5
154
 10
-0.010864
 20
0.00122
 30
0.0
 42
-0.016392
  0
VERTEX
  8
1
  6
CONTINUOUS
 62
     1
  5
155
 10
-0.011488
 20
0.001371
 30
0.0
 42
-0.04458
  0
VERTEX
  8
1
  6
CONTINUOUS
 62
     1
  5
156
 10
-0.011867
 20
0.001503
 30
0.0
 42
-0.317392
  0
VERTEX
  8
1
  6
CONTINUOUS
 62
     1
  5
157
 10
-0.011987
 20
0.001614
 30
0.0
 42
-0.317392
  0
SEQEND
  8
1
  6
CONTINUOUS
 62
     1
  5
158
  0
ENDBLK
  8
1
  6
CONTINUOUS
 62
     1
  5
159
  0
ENDSEC
  0
SECTION
  2
ENTITIES
  0
LINE
  8
61
  6
CONTINUOUS
 62
     1
  5
29
 10
642.263583
 20
53.9835
 30
0.0
 11
3.223583
 21
53.9835
 31
0.0
  0
LINE
  8
61
  6
CONTINUOUS
 62
     1
  5
2A
 10
3.223583
 20
53.9835
 30
0.0
 11
3.223583
 21
-366.0365
 31
0.0
  0
LINE
  8
61
  6
CONTINUOUS
 62
     1
  5
2B
 10
642.283583
 20
-366.0565
 30
0.0
 11
3.223583
 21
-366.0365
 31
0.0
  0
LINE
  8
61
  6
CONTINUOUS
 62
     1
  5
2C
 10
642.263583
 20
53.9835
 30
0.0
 11
642.283583
 21
-366.0565
 31
0.0
  0
LINE
  8
61
  6
CONTINUOUS
 62
     1
  5
2D
 10
636.163583
 20
49.2435
 30
0.0
 11
528.183583
 21
49.2235
 31
0.0
  0
LINE
  8
61
  6
CONTINUOUS
 62
     1
  5
2E
 10
528.183583
 20
49.2235
 30
0.0
 11
528.183583
 21
29.2235
 31
0.0
  0
LINE
  8
61
  6
CONTINUOUS
 62
     1
  5
2F
 10
636.163583
 20
49.2435
 30
0.0
 11
636.163583
 21
29.2435
 31
0.0
  0
LINE
  8
61
  6
CONTINUOUS
 62
     1
  5
30
 10
636.163583
 20
29.2435
 30
0.0
 11
528.183583
 21
29.2235
 31
0.0
  0
LINE
  8
61
  6
CONTINUOUS
 62
     1
  5
31
 10
636.183583
 20
39.2035
 30
0.0
 11
528.163583
 21
39.2235
 31
0.0
  0
LINE
  8
61
  6
CONTINUOUS
 62
     1
  5
32
 10
538.183583
 20
49.2235
 30
0.0
 11
538.183583
 21
29.2235
 31
0.0
  0
LINE
  8
61
  6
CONTINUOUS
 62
     1
  5
33
 10
548.183583
 20
49.2235
 30
0.0
 11
548.183583
 21
29.2235
 31
0.0
  0
LINE
  8
61
  6
CONTINUOUS
 62
     1
  5
34
 10
561.863583
 20
49.2235
 30
0.0
 11
561.863583
 21
29.2235
 31
0.0
  0
LINE
  8
61
  6
CONTINUOUS
 62
     1
  5
35
 10
626.163583
 20
49.2435
 30
0.0
 11
626.163583
 21
29.2435
 31
0.0
  0
LINE
  8
61
  6
CONTINUOUS
 62
     1
  5
36
 10
616.163583
 20
49.2435
 30
0.0
 11
616.163583
 21
29.2435
 31
0.0
  0
LINE
  8
61
  6
CONTINUOUS
 62
     1
  5
37
 10
594.183583
 20
49.2235
 30
0.0
 11
594.183583
 21
29.2235
 31
0.0
  0
LINE
  8
61
  6
CONTINUOUS
 62
     1
  5
38
 10
584.183583
 20
49.2235
 30
0.0
 11
584.183583
 21
29.2235
 31
0.0
  0
TEXT
  8
61
  6
CONTINUOUS
 62
     1
  5
3A
 10
530.223583
 20
46.2035
 30
0.0
 40
1.20075
  1
PUBLIC
 50
0.033272
 41
1.001804
  7
MONOTXT
210
0.0
220
0.0
230
1.0
  0
TEXT
  8
61
  6
CONTINUOUS
 62
     1
  5
3B
 10
530.303583
 20
43.6835
 30
0.0
 40
1.20075
  1
ROADS
 50
0.124322
 41
0.996877
  7
MONOTXT
210
0.0
220
0.0
230
1.0
  0
TEXT
  8
61
  6
CONTINUOUS
 62
     1
  5
3C
 10
531.503583
 20
41.1835
 30
0.0
 40
1.20075
  1
DIV.
 50
359.931522
 41
0.994864
  7
MONOTXT
210
0.0
220
0.0
230
1.0
  0
TEXT
  8
61
  6
CONTINUOUS
 62
     1
  5
3D
 10
540.383583
 20
46.2635
 30
0.0
 40
1.20075
  1
STATE
 50
0.058969
 41
0.998196
  7
MONOTXT
210
0.0
220
0.0
230
1.0
  0
TEXT
  8
61
  6
CONTINUOUS
 62
     1
  5
3E
 10
541.263583
 20
43.7635
 30
0.0
 40
1.20075
  1
DIST.
 50
0.055889
 41
0.999584
  7
MONOTXT
210
0.0
220
0.0
230
1.0
  0
TEXT
  8
61
  6
CONTINUOUS
 62
     1
  5
3F
 10
541.843583
 20
41.2435
 30
0.0
 40
1.20075
  1
NO.
 50
359.852072
 41
0.997779
  7
MONOTXT
210
0.0
220
0.0
230
1.0
  0
TEXT
  8
61
  6
CONTINUOUS
 62
     1
  5
40
 10
552.383583
 20
46.2035
 30
0.0
 40
1.20075
  1
STATE
 50
0.058969
 41
0.998196
  7
MONOTXT
210
0.0
220
0.0
230
1.0
  0
TEXT
  8
61
  6
CONTINUOUS
 62
     1
  5
41
 10
551.303583
 20
43.7835
 30
0.0
 40
1.20075
  1
PROJECT
 50
359.908431
 41
1.000069
  7
MONOTXT
210
0.0
220
0.0
230
1.0
  0
TEXT
  8
61
  6
CONTINUOUS
 62
     1
  5
42
 10
554.043583
 20
41.2435
 30
0.0
 40
1.20075
  1
NO.
 50
0.225453
 41
0.993546
  7
MONOTXT
210
0.0
220
0.0
230
1.0
  0
TEXT
  8
61
  6
CONTINUOUS
 62
     1
  5
43
 10
569.683583
 20
45.0835
 30
0.0
 40
1.20075
  1
FEDERAL
 50
0.006714
 41
0.998543
  7
MONOTXT
210
0.0
220
0.0
230
1.0
  0
TEXT
  8
61
  6
CONTINUOUS
 62
     1
  5
44
 10
568.143583
 20
42.4235
 30
0.0
 40
1.20075
  1
PROJECT NO.
 50
359.921531
 41
1.000694
  7
MONOTXT
210
0.0
220
0.0
230
1.0
  0
TEXT
  8
61
  6
CONTINUOUS
 62
     1
  5
45
 10
586.423583
 20
45.0235
 30
0.0
 40
1.20075
  1
FISCAL
 50
359.941939
 41
0.998959
  7
MONOTXT
210
0.0
220
0.0
230
1.0
  0
TEXT
  8
61
  6
CONTINUOUS
 62
     1
  5
46
 10
586.943583
 20
42.1235
 30
0.0
 40
1.20075
  1
YEAR
 50
0.104606
 41
0.993268
  7
MONOTXT
210
0.0
220
0.0
230
1.0
  0
TEXT
  8
61
  6
CONTINUOUS
 62
     1
  5
47
 10
601.043583
 20
43.4835
 30
0.0
 40
1.20075
  1
COUNTY
 50
0.068575
 41
1.001874
  7
MONOTXT
210
0.0
220
0.0
230
1.0
  0
TEXT
  8
61
  6
CONTINUOUS
 62
     1
  5
48
 10
618.683583
 20
45.1435
 30
0.0
 40
1.20075
  1
SHEET
 50
0.058969
 41
0.997571
  7
MONOTXT
210
0.0
220
0.0
230
1.0
  0
TEXT
  8
61
  6
CONTINUOUS
 62
     1
  5
49
 10
620.103583
 20
42.4235
 30
0.0
 40
1.20075
  1
NO.
 50
359.852072
 41
0.997779
  7
MONOTXT
210
0.0
220
0.0
230
1.0
  0
TEXT
  8
61
  6
CONTINUOUS
 62
     1
  5
4A
 10
628.423583
 20
45.0035
 30
0.0
 40
1.20075
  1
TOTAL
 50
359.926039
 41
0.998543
  7
MONOTXT
210
0.0
220
0.0
230
1.0
  0
TEXT
  8
61
  6
CONTINUOUS
 62
     1
  5
4B
 10
627.963583
 20
42.3035
 30
0.0
 40
1.20075
  1
SHEETS
 50
359.958675
  7
MONOTXT
210
0.0
220
0.0
230
1.0
  0
TEXT
  8
61
  6
CONTINUOUS
 62
     1
  5
4C
 10
540.783583
 20
33.4235
 30
0.0
 40
2.401333
  1
  
 50
0.029406
 41
0.996495
  7
MONOTXT
210
0.0
220
0.0
230
1.0
  0
TEXT
  8
61
  6
CONTINUOUS
 62
     1
  5
4D
 10
617.963583
 20
33.1435
 30
0.0
 40
2.401333
  1
   
 50
0.011508
 41
1.001006
  7
MONOTXT
210
0.0
220
0.0
230
1.0
  0
TEXT
  8
61
  6
CONTINUOUS
 62
     1
  5
4E
 10
627.843583
 20
33.1235
 30
0.0
 40
2.401333
  1
   
 50
359.922128
 41
1.000555
  7
MONOTXT
210
0.0
220
0.0
230
1.0
  0
TEXT
  8
61
  6
CONTINUOUS
 62
     1
  5
4F
 10
551.223583
 20
36.5235
 30
0.0
 40
2.00675
  1
    
 50
0.054383
 41
0.993729
  7
MONOTXT
210
0.0
220
0.0
230
1.0
  0
TEXT
  8
61
  6
CONTINUOUS
 62
     1
  5
50
 10
548.303583
 20
33.5035
 30
0.0
 40
1.989583
  1
       
 50
0.064678
 41
1.000963
  7
MONOTXT
210
0.0
220
0.0
230
1.0
  0
TEXT
  8
61
  6
CONTINUOUS
 62
     1
  5
51
 10
549.263583
 20
30.6035
 30
0.0
 40
1.989583
  1
      
 50
359.958053
 41
1.000293
  7
MONOTXT
210
0.0
220
0.0
230
1.0
  0
TEXT
  8
61
  6
CONTINUOUS
 62
     1
  5
52
 10
560.223583
 20
35.2435
 30
0.0
 40
2.401333
  1
           
 50
0.011508
 41
0.998751
  7
MONOTXT
210
0.0
220
0.0
230
1.0
  0
TEXT
  8
61
  6
CONTINUOUS
 62
     1
  5
53
 10
560.103583
 20
31.5835
 30
0.0
 40
2.401333
  1
           
 50
0.011508
 41
0.999584
  7
MONOTXT
210
0.0
220
0.0
230
1.0
  0
TEXT
  8
61
  6
CONTINUOUS
 62
     1
  5
54
 10
595.443583
 20
33.3235
 30
0.0
 40
2.00675
  1
          
 50
0.009222
 41
0.992774
  7
MONOTXT
210
0.0
220
0.0
230
1.0
  0
ARC
  8
61
  6
CONTINUOUS
 62
     1
  5
55
 10
-15.07866
 20
-34.775205
 30
0.0
 40
2.499998
 50
323.130094
 51
316.232156
210
0.0
220
0.0
230
1.0
  0
ARC
  8
61
  6
CONTINUOUS
 62
     1
  5
56
 10
-15.07866
 20
-89.775205
 30
0.0
 40
2.499998
 50
323.130094
 51
315.375767
210
0.0
220
0.0
230
1.0
  0
ARC
  8
61
  6
CONTINUOUS
 62
     1
  5
57
 10
-15.35866
 20
-238.215205
 30
0.0
 40
2.499998
 50
322.671753
 51
321.716147
210
0.0
220
0.0
230
1.0
  0
ARC
  8
61
  6
CONTINUOUS
 62
     1
  5
58
 10
-15.35866
 20
-293.215205
 30
0.0
 40
2.499998
 50
323.130094
 51
312.314392
210
0.0
220
0.0
230
1.0
  0
LINE
  8
61
  6
CONTINUOUS
 62
     1
  5
59
 10
-13.056417
 20
-34.7765
 30
0.0
 11
-5.076417
 21
-34.7565
 31
0.0
  0
LINE
  8
61
  6
CONTINUOUS
 62
     1
  5
5A
 10
-13.076417
 20
-89.7765
 30
0.0
 11
-5.076417
 21
-89.7765
 31
0.0
  0
LINE
  8
61
  6
CONTINUOUS
 62
     1
  5
5B
 10
-13.356417
 20
-238.1965
 30
0.0
 11
-5.356417
 21
-238.1965
 31
0.0
  0
LINE
  8
61
  6
CONTINUOUS
 62
     1
  5
5C
 10
-13.336417
 20
-293.2165
 30
0.0
 11
-5.356417
 21
-293.2165
 31
0.0
  0
LINE
  8
61
  6
DASHED
 62
     1
  5
5D
 10
-26.776417
 20
63.9835
 30
0.0
 11
653.243583
 21
63.9835
 31
0.0
  0
LINE
  8
61
  6
DASHED
 62
     1
  5
5E
 10
653.223583
 20
-376.0365
 30
0.0
 11
-26.836417
 21
-376.0565
 31
0.0
  0
TEXT
  8
61
  6
CONTINUOUS
 62
     1
  5
5F
 10
615.703583
 20
21.4035
 30
0.0
 40
2.401333
  1
     
 41
1.001388
  7
MONOTXT
210
0.0
220
0.0
230
1.0
  0
LINE
  8
1
  6
HIDDEN
 62
     1
  5
61
 10
653.243583
 20
63.9835
 30
0.0
 11
653.223583
 21
-376.0365
 31
0.0
  0
LINE
  8
1
  6
HIDDEN
 62
     1
  5
62
 10
-26.776417
 20
63.9835
 30
0.0
 11
-26.836417
 21
-376.0565
 31
0.0
  0
TEXT
  8
1
  6
CONTINUOUS
 62
     1
  5
64
 10
608.003583
 20
-368.5565
 30
0.0
 40
1.2
  1
TRAFFIC ENGINEERING DIVISION
  7
txt
210
0.0
220
0.0
230
1.0
  0
LINE
  8
1
  6
CONTINUOUS
 62
     1
  5
65
 10
470.623583
 20
-366.0565
 30
0.0
 11
470.623583
 21
-274.4765
 31
0.0
  0
LINE
  8
1
  6
CONTINUOUS
 62
     1
  5
66
 10
470.623583
 20
-274.4765
 30
0.0
 11
642.283583
 21
-274.4765
 31
0.0
  0
LINE
  8
1
  6
CONTINUOUS
 62
     1
  5
67
 10
505.623583
 20
-366.0965
 30
0.0
 11
505.623583
 21
-321.1365
 31
0.0
  0
LINE
  8
1
  6
CONTINUOUS
 62
     1
  5
68
 10
505.623583
 20
-321.1365
 30
0.0
 11
470.643583
 21
-321.1365
 31
0.0
  0
LINE
  8
1
  6
CONTINUOUS
 62
     1
  5
69
 10
505.623583
 20
-325.6165
 30
0.0
 11
470.643583
 21
-325.6165
 31
0.0
  0
LINE
  8
1
  6
CONTINUOUS
 62
     1
  5
6A
 10
505.623583
 20
-330.1165
 30
0.0
 11
470.643583
 21
-330.1165
 31
0.0
  0
LINE
  8
1
  6
CONTINUOUS
 62
     1
  5
6B
 10
505.623583
 20
-334.6165
 30
0.0
 11
470.643583
 21
-334.6165
 31
0.0
  0
LINE
  8
1
  6
CONTINUOUS
 62
     1
  5
6C
 10
505.623583
 20
-339.1365
 30
0.0
 11
470.643583
 21
-339.1365
 31
0.0
  0
LINE
  8
1
  6
CONTINUOUS
 62
     1
  5
6D
 10
505.623583
 20
-343.6165
 30
0.0
 11
470.643583
 21
-343.6165
 31
0.0
  0
LINE
  8
1
  6
CONTINUOUS
 62
     1
  5
6E
 10
505.623583
 20
-348.0965
 30
0.0
 11
470.643583
 21
-348.0965
 31
0.0
  0
LINE
  8
1
  6
CONTINUOUS
 62
     1
  5
6F
 10
505.623583
 20
-352.5965
 30
0.0
 11
470.643583
 21
-352.5965
 31
0.0
  0
LINE
  8
1
  6
CONTINUOUS
 62
     1
  5
70
 10
505.623583
 20
-357.0965
 30
0.0
 11
470.643583
 21
-357.0965
 31
0.0
  0
LINE
  8
1
  6
CONTINUOUS
 62
     1
  5
71
 10
505.623583
 20
-361.6165
 30
0.0
 11
470.643583
 21
-361.6165
 31
0.0
  0
TEXT
  8
1
  6
CONTINUOUS
 62
     1
  5
72
 10
480.903583
 20
-324.1365
 30
0.0
 40
1.99775
  1
REVISIONS
  7
MONOTXT
210
0.0
220
0.0
230
1.0
  0
TEXT
  8
1
  6
CONTINUOUS
 62
     1
  5
73
 10
472.583583
 20
-320.1365
 30
0.0
 40
1.99775
  1
PREPARED: 07/00/71
  7
MONOTXT
210
0.0
220
0.0
230
1.0
  0
TEXT
  8
1
  6
CONTINUOUS
 62
     1
  5
75
 10
503.243583
 20
-283.0765
 30
0.0
 40
4.794833
  1
WEST VIRGINIA DIVISION OF HIGHWAYS
  7
ROMANT
 72
     1
 11
557.213833
 21
-278.281667
 31
0.0
210
0.0
220
0.0
230
1.0
 73
     3
  0
TEXT
  8
1
  6
CONTINUOUS
 62
     1
  5
76
 10
514.003583
 20
-294.2365
 30
0.0
 40
6.992667
  1
STANDARD DETAIL
  7
txt
 72
     1
 11
558.493667
 21
-287.243833
 31
0.0
210
0.0
220
0.0
230
1.0
 73
     3
  0
TEXT
  8
1
  6
CONTINUOUS
 62
     1
  5
77
 10
509.463583
 20
-362.0165
 30
0.0
 40
6.992667
  1
STANDARD SHEET TEM-1 
  7
txt
210
0.0
220
0.0
230
1.0
  0
TEXT
  8
1
  6
CONTINUOUS
 62
     1
  5
78
 10
480.31725
 20
-329.1965
 30
0.0
 40
2.0
  1
05-00-73
  7
MONOTXT
 72
     1
 11
487.600833
 21
-327.1965
 31
0.0
210
0.0
220
0.0
230
1.0
 73
     3
  0
TEXT
  8
1
  6
CONTINUOUS
 62
     1
  5
79
 10
480.67525
 20
-333.5965
 30
0.0
 40
2.0
  1
10-00-74
  7
MONOTXT
 72
     1
 11
487.580917
 21
-331.5965
 31
0.0
210
0.0
220
0.0
230
1.0
 73
     3
  0
TEXT
  8
1
  6
CONTINUOUS
 62
     1
  5
7A
 10
481.151917
 20
-337.9965
 30
0.0
 40
2.0
  1
11-23-77
  7
MONOTXT
 72
     1
 11
487.592917
 21
-335.9965
 31
0.0
210
0.0
220
0.0
230
1.0
 73
     3
  0
TEXT
  8
1
  6
CONTINUOUS
 62
     1
  5
7B
 10
481.183417
 20
-342.3965
 30
0.0
 40
2.0
  1
01-15-85
  7
MONOTXT
 72
     1
 11
487.600833
 21
-340.3965
 31
0.0
210
0.0
220
0.0
230
1.0
 73
     3
  0
TEXT
  8
1
  6
CONTINUOUS
 62
     1
  5
7C
 10
480.69275
 20
-346.9965
 30
0.0
 40
2.0
  1
12-09-93
  7
MONOTXT
 72
     1
 11
487.440917
 21
-344.9965
 31
0.0
210
0.0
220
0.0
230
1.0
 73
     3
  0
TEXT
  8
1
  6
CONTINUOUS
 62
     1
  5
7D
 10
479.923583
 20
-351.4765
 30
0.0
 40
2.0
  1
        
  7
MONOTXT
 72
     1
 11
487.590417
 21
-349.4765
 31
0.0
210
0.0
220
0.0
230
1.0
 73
     3
  0
TEXT
  8
1
  6
CONTINUOUS
 62
     1
  5
7E
 10
479.823583
 20
-356.0765
 30
0.0
 40
2.0
  1
        
  7
MONOTXT
 72
     1
 11
487.490417
 21
-354.0765
 31
0.0
210
0.0
220
0.0
230
1.0
 73
     3
  0
TEXT
  8
1
  6
CONTINUOUS
 62
     1
  5
7F
 10
479.923583
 20
-360.6565
 30
0.0
 40
2.0
  1
        
  7
MONOTXT
 72
     1
 11
487.590417
 21
-358.6565
 31
0.0
210
0.0
220
0.0
230
1.0
 73
     3
  0
TEXT
  8
1
  6
CONTINUOUS
 62
     1
  5
80
 10
479.923583
 20
-364.6765
 30
0.0
 40
2.0
  1
        
  7
MONOTXT
 72
     1
 11
487.590417
 21
-362.6765
 31
0.0
210
0.0
220
0.0
230
1.0
 73
     3
  0
TEXT
  8
1
  6
CONTINUOUS
 62
     1
  5
81
 10
503.490333
 20
-304.265667
 30
0.0
 40
6.992667
  1
TYPICAL MARKINGS OF
  7
txt
 72
     1
 11
558.87225
 21
-297.273
 31
0.0
210
0.0
220
0.0
230
1.0
 73
     3
  0
TEXT
  8
1
  6
CONTINUOUS
 62
     1
  5
82
 10
507.593833
 20
-314.484
 30
0.0
 40
6.992667
  1
INTERCHANGE RAMPS
  7
txt
 72
     1
 11
559.250583
 21
-307.491333
 31
0.0
210
0.0
220
0.0
230
1.0
 73
     3
  0
POLYLINE
  8
1
  6
CONTINUOUS
 62
     7
  5
83
 66
     1
 10
0.0
 20
0.0
 30
0.0
  0
VERTEX
  8
1
  6
CONTINUOUS
 62
     7
  5
84
 10
472.641
 20
-263.99475
 30
0.0
  0
VERTEX
  8
1
  6
CONTINUOUS
 62
     7
  5
85
 10
470.641
 20
-267.458833
 30
0.0
  0
VERTEX
  8
1
  6
CONTINUOUS
 62
     7
  5
86
 10
474.641
 20
-267.458833
 30
0.0
  0
VERTEX
  8
1
  6
CONTINUOUS
 62
     7
  5
87
 10
472.641
 20
-263.99475
 30
0.0
  0
SEQEND
  8
1
  6
CONTINUOUS
 62
     7
  5
88
  0
POLYLINE
  8
1
  6
CONTINUOUS
 62
     7
  5
89
 66
     1
 10
0.0
 20
0.0
 30
0.0
  0
VERTEX
  8
1
  6
CONTINUOUS
 62
     7
  5
8A
 10
472.696333
 20
-259.15625
 30
0.0
  0
VERTEX
  8
1
  6
CONTINUOUS
 62
     7
  5
8B
 10
470.696333
 20
-262.620333
 30
0.0
  0
VERTEX
  8
1
  6
CONTINUOUS
 62
     7
  5
8C
 10
474.696333
 20
-262.620333
 30
0.0
  0
VERTEX
  8
1
  6
CONTINUOUS
 62
     7
  5
8D
 10
472.696333
 20
-259.15625
 30
0.0
  0
SEQEND
  8
1
  6
CONTINUOUS
 62
     7
  5
8E
  0
POLYLINE
  8
1
  6
CONTINUOUS
 62
     7
  5
8F
 66
     1
 10
0.0
 20
0.0
 30
0.0
  0
VERTEX
  8
1
  6
CONTINUOUS
 62
     7
  5
90
 10
472.629333
 20
-254.317833
 30
0.0
  0
VERTEX
  8
1
  6
CONTINUOUS
 62
     7
  5
91
 10
470.629333
 20
-257.781917
 30
0.0
  0
VERTEX
  8
1
  6
CONTINUOUS
 62
     7
  5
92
 10
474.629333
 20
-257.781917
 30
0.0
  0
VERTEX
  8
1
  6
CONTINUOUS
 62
     7
  5
93
 10
472.629333
 20
-254.317833
 30
0.0
  0
SEQEND
  8
1
  6
CONTINUOUS
 62
     7
  5
94
  0
POLYLINE
  8
1
  6
CONTINUOUS
 62
     7
  5
95
 66
     1
 10
0.0
 20
0.0
 30
0.0
  0
VERTEX
  8
1
  6
CONTINUOUS
 62
     7
  5
96
 10
472.655583
 20
-249.479417
 30
0.0
  0
VERTEX
  8
1
  6
CONTINUOUS
 62
     7
  5
97
 10
470.655583
 20
-252.9435
 30
0.0
  0
VERTEX
  8
1
  6
CONTINUOUS
 62
     7
  5
98
 10
474.655583
 20
-252.9435
 30
0.0
  0
VERTEX
  8
1
  6
CONTINUOUS
 62
     7
  5
99
 10
472.655583
 20
-249.479417
 30
0.0
  0
SEQEND
  8
1
  6
CONTINUOUS
 62
     7
  5
9A
  0
POLYLINE
  8
1
  6
CONTINUOUS
 62
     7
  5
9B
 66
     1
 10
0.0
 20
0.0
 30
0.0
  0
VERTEX
  8
1
  6
CONTINUOUS
 62
     7
  5
9C
 10
475.152833
 20
-339.569667
 30
0.0
  0
VERTEX
  8
1
  6
CONTINUOUS
 62
     7
  5
9D
 10
473.152833
 20
-343.03375
 30
0.0
  0
VERTEX
  8
1
  6
CONTINUOUS
 62
     7
  5
9E
 10
477.152833
 20
-343.03375
 30
0.0
  0
VERTEX
  8
1
  6
CONTINUOUS
 62
     7
  5
9F
 10
475.152833
 20
-339.569667
 30
0.0
  0
SEQEND
  8
1
  6
CONTINUOUS
 62
     7
  5
A0
  0
POLYLINE
  8
1
  6
CONTINUOUS
 62
     7
  5
A1
 66
     1
 10
0.0
 20
0.0
 30
0.0
  0
VERTEX
  8
1
  6
CONTINUOUS
 62
     7
  5
A2
 10
475.116583
 20
-335.03575
 30
0.0
  0
VERTEX
  8
1
  6
CONTINUOUS
 62
     7
  5
A3
 10
473.116583
 20
-338.499833
 30
0.0
  0
VERTEX
  8
1
  6
CONTINUOUS
 62
     7
  5
A4
 10
477.116583
 20
-338.499833
 30
0.0
  0
VERTEX
  8
1
  6
CONTINUOUS
 62
     7
  5
A5
 10
475.116583
 20
-335.03575
 30
0.0
  0
SEQEND
  8
1
  6
CONTINUOUS
 62
     7
  5
A6
  0
POLYLINE
  8
1
  6
CONTINUOUS
 62
     7
  5
A7
 66
     1
 10
0.0
 20
0.0
 30
0.0
  0
VERTEX
  8
1
  6
CONTINUOUS
 62
     7
  5
A8
 10
475.080333
 20
-330.538083
 30
0.0
  0
VERTEX
  8
1
  6
CONTINUOUS
 62
     7
  5
A9
 10
473.080333
 20
-334.002167
 30
0.0
  0
VERTEX
  8
1
  6
CONTINUOUS
 62
     7
  5
AA
 10
477.080333
 20
-334.002167
 30
0.0
  0
VERTEX
  8
1
  6
CONTINUOUS
 62
     7
  5
AB
 10
475.080333
 20
-330.538083
 30
0.0
  0
SEQEND
  8
1
  6
CONTINUOUS
 62
     7
  5
AC
  0
POLYLINE
  8
1
  6
CONTINUOUS
 62
     7
  5
AD
 66
     1
 10
0.0
 20
0.0
 30
0.0
  0
VERTEX
  8
1
  6
CONTINUOUS
 62
     7
  5
AE
 10
475.080333
 20
-325.967917
 30
0.0
  0
VERTEX
  8
1
  6
CONTINUOUS
 62
     7
  5
AF
 10
473.080333
 20
-329.432
 30
0.0
  0
VERTEX
  8
1
  6
CONTINUOUS
 62
     7
  5
B0
 10
477.080333
 20
-329.432
 30
0.0
  0
VERTEX
  8
1
  6
CONTINUOUS
 62
     7
  5
B1
 10
475.080333
 20
-325.967917
 30
0.0
  0
SEQEND
  8
1
  6
CONTINUOUS
 62
     7
  5
B2
  0
TEXT
  8
1
  6
CONTINUOUS
 62
     7
  5
B3
 10
474.758417
 20
-328.88775
 30
0.0
 40
1.5
  1
1
  7
MONOTXT
210
0.0
220
0.0
230
1.0
  0
TEXT
  8
1
  6
CONTINUOUS
 62
     7
  5
B4
 10
474.577167
 20
-333.494167
 30
0.0
 40
1.5
  1
2
  7
MONOTXT
210
0.0
220
0.0
230
1.0
  0
TEXT
  8
1
  6
CONTINUOUS
 62
     7
  5
B5
 10
474.540833
 20
-338.100667
 30
0.0
 40
1.5
  1
3
  7
MONOTXT
210
0.0
220
0.0
230
1.0
  0
TEXT
  8
1
  6
CONTINUOUS
 62
     7
  5
B6
 10
474.504583
 20
-342.417
 30
0.0
 40
1.5
  1
4
  7
MONOTXT
210
0.0
220
0.0
230
1.0
  0
TEXT
  8
1
  6
CONTINUOUS
 62
     7
  5
B7
 10
472.374333
 20
-252.309833
 30
0.0
 40
1.5
  1
1
  7
MONOTXT
210
0.0
220
0.0
230
1.0
  0
TEXT
  8
1
  6
CONTINUOUS
 62
     7
  5
B8
 10
472.117
 20
-257.229917
 30
0.0
 40
1.5
  1
2
  7
MONOTXT
210
0.0
220
0.0
230
1.0
  0
TEXT
  8
1
  6
CONTINUOUS
 62
     7
  5
B9
 10
472.088333
 20
-262.178583
 30
0.0
 40
1.5
  1
3
  7
MONOTXT
210
0.0
220
0.0
230
1.0
  0
TEXT
  8
1
  6
CONTINUOUS
 62
     7
  5
BA
 10
472.031167
 20
-266.927083
 30
0.0
 40
1.5
  1
4
  7
MONOTXT
210
0.0
220
0.0
230
1.0
  0
TEXT
  8
1
  6
CONTINUOUS
 62
     7
  5
BB
 10
475.654667
 20
-252.411083
 30
0.0
 40
2.0
  1
EDGE LINES
  7
MONOTXT
210
0.0
220
0.0
230
1.0
  0
TEXT
  8
1
  6
CONTINUOUS
 62
     7
  5
BC
 10
475.531333
 20
-256.975333
 30
0.0
 40
2.0
  1
RAMP EDGE LINES
  7
MONOTXT
210
0.0
220
0.0
230
1.0
  0
TEXT
  8
1
  6
CONTINUOUS
 62
     7
  5
BD
 10
475.593
 20
-261.786333
 30
0.0
 40
2.0
  1
MODIFIED SPACING & DOTTED LINES
  7
MONOTXT
210
0.0
220
0.0
230
1.0
  0
TEXT
  8
1
  6
CONTINUOUS
 62
     7
  5
BE
 10
475.46975
 20
-266.658917
 30
0.0
 40
2.0
  1
WHOLE SHEET
  7
MONOTXT
210
0.0
220
0.0
230
1.0
  0
LINE
  8
1
  6
CONTINUOUS
 62
     1
  5
BF
 10
14.96
 20
-32.30575
 30
0.0
 11
230.96
 21
-32.30575
 31
0.0
  0
LINE
  8
1
  6
CONTINUOUS
 62
     1
  5
C0
 10
14.96
 20
-28.80575
 30
0.0
 11
230.96
 21
-28.80575
 31
0.0
  0
LINE
  8
1
  6
CONTINUOUS
 62
     1
  5
C1
 10
14.96
 20
-22.80575
 30
0.0
 11
21.96
 21
-22.80575
 31
0.0
  0
LINE
  8
1
  6
CONTINUOUS
 62
     1
  5
C2
 10
35.96
 20
-22.80575
 30
0.0
 11
42.96
 21
-22.80575
 31
0.0
  0
LINE
  8
1
  6
CONTINUOUS
 62
     1
  5
C3
 10
56.96
 20
-22.80575
 30
0.0
 11
63.96
 21
-22.80575
 31
0.0
  0
LINE
  8
1
  6
CONTINUOUS
 62
     1
  5
C4
 10
77.96
 20
-22.80575
 30
0.0
 11
84.96
 21
-22.80575
 31
0.0
  0
LINE
  8
1
  6
CONTINUOUS
 62
     1
  5
C5
 10
98.96
 20
-22.80575
 30
0.0
 11
105.96
 21
-22.80575
 31
0.0
  0
LINE
  8
1
  6
CONTINUOUS
 62
     1
  5
C6
 10
119.96
 20
-22.80575
 30
0.0
 11
126.96
 21
-22.80575
 31
0.0
  0
LINE
  8
1
  6
CONTINUOUS
 62
     1
  5
C7
 10
140.96
 20
-22.80575
 30
0.0
 11
147.96
 21
-22.80575
 31
0.0
  0
LINE
  8
1
  6
CONTINUOUS
 62
     1
  5
C8
 10
161.96
 20
-22.80575
 30
0.0
 11
168.96
 21
-22.80575
 31
0.0
  0
LINE
  8
1
  6
CONTINUOUS
 62
     1
  5
C9
 10
182.96
 20
-22.80575
 30
0.0
 11
189.96
 21
-22.80575
 31
0.0
  0
LINE
  8
1
  6
CONTINUOUS
 62
     1
  5
CA
 10
203.96
 20
-22.80575
 30
0.0
 11
210.96
 21
-22.80575
 31
0.0
  0
LINE
  8
1
  6
CONTINUOUS
 62
     1
  5
CB
 10
224.96
 20
-22.80575
 30
0.0
 11
230.96
 21
-22.80575
 31
0.0
  0
LINE
  8
1
  6
CONTINUOUS
 62
     1
  5
CC
 10
193.61025
 20
-16.80575
 30
0.0
 11
230.96
 21
-16.80575
 31
0.0
  0
LINE
  8
1
  6
CONTINUOUS
 62
     1
  5
CD
 10
180.96
 20
-16.80575
 30
0.0
 11
181.96
 21
-16.80575
 31
0.0
  0
LINE
  8
1
  6
CONTINUOUS
 62
     1
  5
CE
 10
174.46
 20
-16.80575
 30
0.0
 11
175.46
 21
-16.80575
 31
0.0
  0
LINE
  8
1
  6
CONTINUOUS
 62
     1
  5
CF
 10
167.96
 20
-16.80575
 30
0.0
 11
168.96
 21
-16.80575
 31
0.0
  0
LINE
  8
1
  6
CONTINUOUS
 62
     1
  5
D0
 10
161.46
 20
-16.80575
 30
0.0
 11
162.46
 21
-16.80575
 31
0.0
  0
LINE
  8
1
  6
CONTINUOUS
 62
     1
  5
D1
 10
154.96
 20
-16.80575
 30
0.0
 11
155.96
 21
-16.80575
 31
0.0
  0
LINE
  8
1
  6
CONTINUOUS
 62
     1
  5
D2
 10
148.46
 20
-16.80575
 30
0.0
 11
149.46
 21
-16.80575
 31
0.0
  0
LINE
  8
1
  6
CONTINUOUS
 62
     1
  5
D3
 10
141.96
 20
-16.80575
 30
0.0
 11
142.96
 21
-16.80575
 31
0.0
  0
LINE
  8
1
  6
CONTINUOUS
 62
     1
  5
D4
 10
135.46
 20
-16.80575
 30
0.0
 11
136.46
 21
-16.80575
 31
0.0
  0
LINE
  8
1
  6
CONTINUOUS
 62
     1
  5
D5
 10
14.96
 20
-16.80575
 30
0.0
 11
33.46
 21
-16.80575
 31
0.0
  0
LINE
  8
1
  6
CONTINUOUS
 62
     1
  5
D6
 10
33.46
 20
-16.80575
 30
0.0
 11
129.96
 21
-16.80575
 31
0.0
  0
LINE
  8
1
  6
CONTINUOUS
 62
     1
  5
D7
 10
129.96
 20
-16.80575
 30
0.0
 11
33.46
 21
-3.169833
 31
0.0
  0
LINE
  8
1
  6
CONTINUOUS
 62
     1
  5
D8
 10
33.46
 20
-3.169917
 30
0.0
 11
14.96
 21
-0.55575
 31
0.0
  0
LINE
  8
1
  6
CONTINUOUS
 62
     1
  5
D9
 10
192.315167
 20
-16.7215
 30
0.0
 11
14.96
 21
6.44425
 31
0.0
  0
LINE
  8
1
  6
CONTINUOUS
 62
     1
  5
DA
 10
192.67275
 20
-11.2215
 30
0.0
 11
15.672333
 21
11.897917
 31
0.0
  0
LINE
  8
1
  6
CONTINUOUS
 62
     1
  5
DB
 10
193.968
 20
-11.30575
 30
0.0
 11
230.96
 21
-11.30575
 31
0.0
  0
ARC
  8
1
  6
CONTINUOUS
 62
     1
  5
DC
 10
193.967979
 20
-1.30575
 30
0.0
 40
10.0
 50
262.557792
 51
270.0
210
0.0
220
0.0
230
1.0
  0
ARC
  8
1
  6
CONTINUOUS
 62
     1
  5
DD
 10
193.610271
 20
-6.80575
 30
0.0
 40
10.0
 50
262.558922
 51
270.0
210
0.0
220
0.0
230
1.0
  0
LINE
  8
1
  6
CONTINUOUS
 62
     1
  5
DE
 10
59.0135
 20
-10.315583
 30
0.0
 11
14.47025
 21
-4.021333
 31
0.0
  0
LINE
  8
1
  6
CONTINUOUS
 62
     1
  5
DF
 10
14.96
 20
-12.30575
 30
0.0
 11
58.873583
 21
-12.30575
 31
0.0
  0
ARC
  8
1
  6
CONTINUOUS
 62
     1
  5
E0
 10
58.873617
 20
-11.30575
 30
0.0
 40
1.0
 50
270.0
 51
81.957003
210
0.0
220
0.0
230
1.0
  0
LINE
  8
1
  6
CONTINUOUS
 62
     1
  5
E1
 10
37.7025
 20
-16.80575
 30
0.0
 11
42.202583
 21
-12.30575
 31
0.0
  0
LINE
  8
1
  6
CONTINUOUS
 62
     1
  5
E2
 10
43.359333
 20
-16.80575
 30
0.0
 11
47.8595
 21
-12.30575
 31
0.0
  0
LINE
  8
1
  6
CONTINUOUS
 62
     1
  5
E3
 10
49.016167
 20
-16.80575
 30
0.0
 11
53.51625
 21
-12.30575
 31
0.0
  0
LINE
  8
1
  6
CONTINUOUS
 62
     1
  5
E4
 10
54.673167
 20
-16.80575
 30
0.0
 11
59.17325
 21
-12.30575
 31
0.0
  0
LINE
  8
1
  6
CONTINUOUS
 62
     1
  5
E5
 10
60.330083
 20
-16.80575
 30
0.0
 11
68.951083
 21
-8.184917
 31
0.0
  0
LINE
  8
1
  6
CONTINUOUS
 62
     1
  5
E6
 10
65.987
 20
-16.80575
 30
0.0
 11
73.907667
 21
-8.88525
 31
0.0
  0
LINE
  8
1
  6
CONTINUOUS
 62
     1
  5
E7
 10
71.643833
 20
-16.80575
 30
0.0
 11
78.864083
 21
-9.585667
 31
0.0
  0
LINE
  8
1
  6
CONTINUOUS
 62
     1
  5
E8
 10
77.30075
 20
-16.80575
 30
0.0
 11
83.820583
 21
-10.286
 31
0.0
  0
LINE
  8
1
  6
CONTINUOUS
 62
     1
  5
E9
 10
82.957667
 20
-16.80575
 30
0.0
 11
88.777083
 21
-10.986417
 31
0.0
  0
LINE
  8
1
  6
CONTINUOUS
 62
     1
  5
EA
 10
88.6145
 20
-16.80575
 30
0.0
 11
93.733583
 21
-11.68675
 31
0.0
  0
LINE
  8
1
  6
CONTINUOUS
 62
     1
  5
EB
 10
94.271417
 20
-16.80575
 30
0.0
 11
98.690083
 21
-12.387167
 31
0.0
  0
LINE
  8
1
  6
CONTINUOUS
 62
     1
  5
EC
 10
99.92825
 20
-16.80575
 30
0.0
 11
103.646583
 21
-13.0875
 31
0.0
  0
LINE
  8
1
  6
CONTINUOUS
 62
     1
  5
ED
 10
105.585167
 20
-16.80575
 30
0.0
 11
108.603083
 21
-13.787917
 31
0.0
  0
LINE
  8
1
  6
CONTINUOUS
 62
     1
  5
EE
 10
111.242
 20
-16.80575
 30
0.0
 11
113.5595
 21
-14.48825
 31
0.0
  0
LINE
  8
1
  6
CONTINUOUS
 62
     1
  5
EF
 10
116.898917
 20
-16.80575
 30
0.0
 11
118.516083
 21
-15.188667
 31
0.0
  0
LINE
  8
1
  6
CONTINUOUS
 62
     1
  5
F0
 10
122.555667
 20
-16.80575
 30
0.0
 11
123.472417
 21
-15.889
 31
0.0
  0
LINE
  8
1
  6
CONTINUOUS
 62
     1
  5
F1
 10
128.2125
 20
-16.80575
 30
0.0
 11
128.428833
 21
-16.589417
 31
0.0
  0
INSERT
  8
1
  6
CONTINUOUS
 62
     1
  5
100
  2
ARO
 10
86.29225
 20
-6.632583
 30
0.0
 41
240.000002
 42
240.000002
 50
172.80426
210
0.0
220
0.0
230
1.0
  0
INSERT
  8
1
  6
CONTINUOUS
 62
     1
  5
101
  2
ARO
 10
84.848333
 20
-19.775333
 30
0.0
 41
240.0
 42
240.0
 50
180.0
210
0.0
220
0.0
230
1.0
  0
INSERT
  8
1
  6
CONTINUOUS
 62
     1
  5
102
  2
ARO
 10
84.996083
 20
-26.134
 30
0.0
 41
240.0
 42
240.0
 50
180.0
210
0.0
220
0.0
230
1.0
  0
INSERT
  8
1
  6
CONTINUOUS
 62
     1
  5
103
  2
ARO
 10
202.177083
 20
-26.0115
 30
0.0
 41
240.0
 42
240.0
 50
180.0
210
0.0
220
0.0
230
1.0
  0
INSERT
  8
1
  6
CONTINUOUS
 62
     1
  5
104
  2
ARO
 10
202.029333
 20
-19.652833
 30
0.0
 41
240.0
 42
240.0
 50
180.0
210
0.0
220
0.0
230
1.0
  0
INSERT
  8
1
  6
CONTINUOUS
 62
     1
  5
10C
  2
2SPT
 10
43.995833
 20
-10.3155
 30
0.0
 41
174.96
 42
174.96
 50
90.0
210
0.0
220
0.0
230
1.0
  0
TEXT
  8
1
  6
CONTINUOUS
 62
     7
  5
10D
 10
34.863833
 20
22.856583
 30
0.0
 40
2.5
  1
4" SOLID YELLOW
  7
MONOTXT
 11
34.863833
 21
25.356583
 31
0.0
210
0.0
220
0.0
230
1.0
 73
     3
  0
TEXT
  8
1
  6
CONTINUOUS
 62
     7
  5
10E
 10
34.863833
 20
18.356583
 30
0.0
 40
2.5
  1
EDGE LINE
  7
MONOTXT
 11
34.863833
 21
20.856583
 31
0.0
210
0.0
220
0.0
230
1.0
 73
     3
  0
TEXT
  8
1
  6
CONTINUOUS
 62
     7
  5
10F
 10
71.146167
 20
15.218917
 30
0.0
 40
2.5
  1
SEE DETAIL "A"
  7
MONOTXT
 11
71.146167
 21
17.718917
 31
0.0
210
0.0
220
0.0
230
1.0
 73
     3
  0
TEXT
  8
1
  6
CONTINUOUS
 62
     7
  5
110
 10
71.146167
 20
10.718917
 30
0.0
 40
2.5
  1
& NOTE 1
  7
MONOTXT
 11
71.146167
 21
13.218917
 31
0.0
210
0.0
220
0.0
230
1.0
 73
     3
  0
TEXT
  8
1
  6
CONTINUOUS
 62
     7
  5
111
 10
110.121
 20
28.864917
 30
0.0
 40
2.5
  1
FULL RAMP LANE WIDTH
  7
MONOTXT
210
0.0
220
0.0
230
1.0
  0
TEXT
  8
1
  6
CONTINUOUS
 62
     7
  5
112
 10
172.16725
 20
29.251667
 30
0.0
 40
2.5
  1
4" SOLID WHITE
  7
MONOTXT
 11
172.16725
 21
31.751667
 31
0.0
210
0.0
220
0.0
230
1.0
 73
     3
  0
TEXT
  8
1
  6
CONTINUOUS
 62
     7
  5
113
 10
172.16725
 20
24.751667
 30
0.0
 40
2.5
  1
EDGE LINE
  7
MONOTXT
 11
172.16725
 21
27.251667
 31
0.0
210
0.0
220
0.0
230
1.0
 73
     3
  0
TEXT
  8
1
  6
CONTINUOUS
 62
     7
  5
114
 10
166.653667
 20
7.218333
 30
0.0
 40
2.5
  1
4" SOLID YELLOW
  7
MONOTXT
 11
166.653667
 21
9.718333
 31
0.0
210
0.0
220
0.0
230
1.0
 73
     3
  0
TEXT
  8
1
  6
CONTINUOUS
 62
     7
  5
115
 10
166.653667
 20
2.718333
 30
0.0
 40
2.5
  1
EDGE LINE
  7
MONOTXT
 11
166.653667
 21
5.218333
 31
0.0
210
0.0
220
0.0
230
1.0
 73
     3
  0
TEXT
  8
1
  6
CONTINUOUS
 62
     7
  5
116
 10
153.797167
 20
-3.988
 30
0.0
 40
2.5
  1
2'
  7
MONOTXT
210
0.0
220
0.0
230
1.0
  0
TEXT
  8
1
  6
CONTINUOUS
 62
     7
  5
117
 10
13.461417
 20
-10.53775
 30
0.0
 40
2.5
  1
EXIT SIGN
  7
MONOTXT
210
0.0
220
0.0
230
1.0
  0
TEXT
  8
1
  6
CONTINUOUS
 62
     7
  5
118
 10
36.42025
 20
-54.298583
 30
0.0
 40
2.5
  1
4" SOLID WHITE
  7
MONOTXT
 11
36.42025
 21
-51.798583
 31
0.0
210
0.0
220
0.0
230
1.0
 73
     3
  0
TEXT
  8
1
  6
CONTINUOUS
 62
     7
  5
119
 10
36.42025
 20
-58.798583
 30
0.0
 40
2.5
  1
EDGE LINE
  7
MONOTXT
 11
36.42025
 21
-56.298583
 31
0.0
210
0.0
220
0.0
230
1.0
 73
     3
  0
TEXT
  8
1
  6
CONTINUOUS
 62
     7
  5
11A
 10
80.714833
 20
-56.370333
 30
0.0
 40
2.5
  1
6" TO 8" SOLID WHITE
  7
MONOTXT
 11
80.714833
 21
-53.870333
 31
0.0
210
0.0
220
0.0
230
1.0
 73
     3
  0
TEXT
  8
1
  6
CONTINUOUS
 62
     7
  5
11B
 10
80.714833
 20
-60.870333
 30
0.0
 40
2.5
  1
EDGE LINE
  7
MONOTXT
 11
80.714833
 21
-58.370333
 31
0.0
210
0.0
220
0.0
230
1.0
 73
     3
  0
TEXT
  8
1
  6
CONTINUOUS
 62
     7
  5
11C
 10
145.805417
 20
-60.52475
 30
0.0
 40
2.5
  1
THEORETICAL GORE POINT
  7
MONOTXT
210
0.0
220
0.0
230
1.0
  0
TEXT
  8
1
  6
CONTINUOUS
 62
     7
  5
11D
 10
152.659833
 20
-49.834917
 30
0.0
 40
2.5
  1
30'
  7
MONOTXT
210
0.0
220
0.0
230
1.0
  0
TEXT
  8
1
  6
CONTINUOUS
 62
     7
  5
11E
 10
206.715417
 20
-51.901083
 30
0.0
 40
2.5
  1
4" BROKEN WHITE
  7
MONOTXT
 11
206.715417
 21
-49.401083
 31
0.0
210
0.0
220
0.0
230
1.0
 73
     3
  0
TEXT
  8
1
  6
CONTINUOUS
 62
     7
  5
11F
 10
206.715417
 20
-56.401083
 30
0.0
 40
2.5
  1
LANE LINE
  7
MONOTXT
 11
206.715417
 21
-53.901083
 31
0.0
210
0.0
220
0.0
230
1.0
 73
     3
  0
LINE
  8
1
  6
CONTINUOUS
 62
     7
  5
120
 10
21.146333
 20
-1.429917
 30
0.0
 11
28.859583
 21
24.128583
 31
0.0
  0
LINE
  8
1
  6
CONTINUOUS
 62
     7
  5
121
 10
80.560667
 20
-13.545833
 30
0.0
 11
65.217833
 21
16.369667
 31
0.0
  0
LINE
  8
1
  6
CONTINUOUS
 62
     7
  5
122
 10
55.003083
 20
-16.80575
 30
0.0
 11
74.671
 21
-55.158167
 31
0.0
  0
LINE
  8
1
  6
CONTINUOUS
 62
     7
  5
123
 10
74.671
 20
-55.158167
 30
0.0
 11
61.441333
 21
-7.12375
 31
0.0
  0
LINE
  8
1
  6
CONTINUOUS
 62
     7
  5
124
 10
129.96
 20
-16.80575
 30
0.0
 11
140.843083
 21
-59.522583
 31
0.0
  0
LINE
  8
1
  6
CONTINUOUS
 62
     7
  5
125
 10
148.96
 20
-16.80575
 30
0.0
 11
140.67475
 21
19.478083
 31
0.0
  0
LINE
  8
1
  6
CONTINUOUS
 62
     7
  5
126
 10
186.46
 20
-22.80575
 30
0.0
 11
200.092417
 21
-50.79375
 31
0.0
  0
LINE
  8
1
  6
CONTINUOUS
 62
     7
  5
127
 10
222.652583
 20
-28.80575
 30
0.0
 11
208.125667
 21
8.395083
 31
0.0
  0
LINE
  8
1
  6
CONTINUOUS
 62
     7
  5
128
 10
226.971417
 20
-16.80575
 30
0.0
 11
207.863083
 21
30.682
 31
0.0
  0
LINE
  8
1
  6
CONTINUOUS
 62
     7
  5
129
 10
128.860583
 20
-8.433167
 30
0.0
 11
127.806667
 21
-16.5015
 31
0.0
  0
LINE
  8
1
  6
CONTINUOUS
 62
     7
  5
12A
 10
128.350917
 20
-12.335083
 30
0.0
 11
104.194
 21
30.010583
 31
0.0
  0
LINE
  8
1
  6
CONTINUOUS
 62
     7
  5
12B
 10
161.46
 20
-15.80575
 30
0.0
 11
161.46
 21
-2.093667
 31
0.0
  0
LINE
  8
1
  6
CONTINUOUS
 62
     7
  5
12C
 10
162.46
 20
-15.80575
 30
0.0
 11
162.46
 21
-2.093667
 31
0.0
  0
LINE
  8
1
  6
CONTINUOUS
 62
     7
  5
12D
 10
167.96
 20
-15.80575
 30
0.0
 11
167.96
 21
-2.093667
 31
0.0
  0
LINE
  8
1
  6
CONTINUOUS
 62
     7
  5
12E
 10
147.96
 20
-23.80575
 30
0.0
 11
147.96
 21
-51.577333
 31
0.0
  0
LINE
  8
1
  6
CONTINUOUS
 62
     7
  5
12F
 10
161.96
 20
-23.80575
 30
0.0
 11
161.96
 21
-51.577333
 31
0.0
  0
LINE
  8
1
  6
CONTINUOUS
 62
     7
  5
130
 10
168.96
 20
-23.80575
 30
0.0
 11
168.96
 21
-51.577333
 31
0.0
  0
LINE
  8
1
  6
CONTINUOUS
 62
     7
  5
131
 10
202.863083
 20
30.682
 30
0.0
 11
207.863083
 21
30.682
 31
0.0
  0
LINE
  8
1
  6
CONTINUOUS
 62
     7
  5
132
 10
28.859583
 20
24.128583
 30
0.0
 11
33.859583
 21
24.128583
 31
0.0
  0
LINE
  8
1
  6
CONTINUOUS
 62
     7
  5
133
 10
65.217833
 20
16.369667
 30
0.0
 11
70.217833
 21
16.369667
 31
0.0
  0
LINE
  8
1
  6
CONTINUOUS
 62
     7
  5
134
 10
104.194
 20
30.010583
 30
0.0
 11
109.194
 21
30.010583
 31
0.0
  0
LINE
  8
1
  6
CONTINUOUS
 62
     7
  5
135
 10
140.67475
 20
19.478083
 30
0.0
 11
145.67475
 21
19.478083
 31
0.0
  0
LINE
  8
1
  6
CONTINUOUS
 62
     7
  5
136
 10
201.991833
 20
8.395083
 30
0.0
 11
208.125667
 21
8.395083
 31
0.0
  0
LINE
  8
1
  6
CONTINUOUS
 62
     7
  5
137
 10
156.46
 20
-3.093667
 30
0.0
 11
161.46
 21
-3.093667
 31
0.0
  0
LINE
  8
1
  6
CONTINUOUS
 62
     7
  5
138
 10
162.46
 20
-3.093667
 30
0.0
 11
167.96
 21
-3.093667
 31
0.0
  0
LINE
  8
1
  6
CONTINUOUS
 62
     7
  5
139
 10
167.96
 20
-3.093667
 30
0.0
 11
172.96
 21
-3.093667
 31
0.0
  0
INSERT
  8
1
  6
CONTINUOUS
 62
     1
  5
15A
  2
LDR
 10
161.46
 20
-3.093667
 30
0.0
 41
240.0
 42
240.0
210
0.0
220
0.0
230
1.0
  0
INSERT
  8
1
  6
CONTINUOUS
 62
     1
  5
15B
  2
LDR
 10
161.46
 20
-3.093667
 30
0.0
 41
240.0
 42
240.0
210
0.0
220
0.0
230
1.0
  0
INSERT
  8
1
  6
CONTINUOUS
 62
     1
  5
15C
  2
LDR
 10
162.46675
 20
-3.09975
 30
0.0
 41
180.0
 42
180.0
 50
180.0
210
0.0
220
0.0
230
1.0
  0
INSERT
  8
1
  6
CONTINUOUS
 62
     1
  5
15D
  2
LDR
 10
167.95325
 20
-3.087667
 30
0.0
 41
180.0
 42
180.0
210
0.0
220
0.0
230
1.0
  0
INSERT
  8
1
  6
CONTINUOUS
 62
     1
  5
15E
  2
LDR
 10
128.860583
 20
-8.433167
 30
0.0
 41
239.999999
 42
239.999999
 50
82.557942
210
0.0
220
0.0
230
1.0
  0
INSERT
  8
1
  6
CONTINUOUS
 62
     1
  5
15F
  2
LDR
 10
128.860583
 20
-8.433167
 30
0.0
 41
239.999999
 42
239.999999
 50
82.557942
210
0.0
220
0.0
230
1.0
  0
INSERT
  8
1
  6
CONTINUOUS
 62
     1
  5
160
  2
LDR
 10
127.806667
 20
-16.5015
 30
0.0
 41
239.999999
 42
239.999999
 50
262.557942
210
0.0
220
0.0
230
1.0
  0
INSERT
  8
1
  6
CONTINUOUS
 62
     1
  5
161
  2
LDR
 10
129.96
 20
-16.80575
 30
0.0
 41
240.000001
 42
240.000001
 50
104.293324
210
0.0
220
0.0
230
1.0
  0
INSERT
  8
1
  6
CONTINUOUS
 62
     1
  5
162
  2
LDR
 10
129.96
 20
-16.80575
 30
0.0
 41
240.000001
 42
240.000001
 50
104.293324
210
0.0
220
0.0
230
1.0
  0
INSERT
  8
1
  6
CONTINUOUS
 62
     1
  5
163
  2
LDR
 10
148.96
 20
-16.80575
 30
0.0
 41
239.999999
 42
239.999999
 50
282.862699
210
0.0
220
0.0
230
1.0
  0
LINE
  8
1
  6
CONTINUOUS
 62
     7
  5
164
 10
147.96
 20
-50.577333
 30
0.0
 11
161.96
 21
-50.577333
 31
0.0
  0
LINE
  8
1
  6
CONTINUOUS
 62
     7
  5
165
 10
161.96
 20
-50.577333
 30
0.0
 11
168.96
 21
-50.577333
 31
0.0
  0
INSERT
  8
1
  6
CONTINUOUS
 62
     1
  5
166
  2
LDR
 10
161.96
 20
-50.577333
 30
0.0
 41
240.0
 42
240.0
210
0.0
220
0.0
230
1.0
  0
INSERT
  8
1
  6
CONTINUOUS
 62
     1
  5
167
  2
LDR
 10
161.96
 20
-50.577333
 30
0.0
 41
240.0
 42
240.0
210
0.0
220
0.0
230
1.0
  0
INSERT
  8
1
  6
CONTINUOUS
 62
     1
  5
168
  2
LDR
 10
161.96
 20
-50.577333
 30
0.0
 41
240.0
 42
240.0
 50
180.0
210
0.0
220
0.0
230
1.0
  0
INSERT
  8
1
  6
CONTINUOUS
 62
     1
  5
169
  2
LDR
 10
161.96
 20
-50.577333
 30
0.0
 41
240.0
 42
240.0
 50
180.0
210
0.0
220
0.0
230
1.0
  0
INSERT
  8
1
  6
CONTINUOUS
 62
     1
  5
16A
  2
LDR
 10
168.96
 20
-50.577333
 30
0.0
 41
240.0
 42
240.0
210
0.0
220
0.0
230
1.0
  0
INSERT
  8
1
  6
CONTINUOUS
 62
     1
  5
16B
  2
LDR
 10
168.96
 20
-50.577333
 30
0.0
 41
240.0
 42
240.0
210
0.0
220
0.0
230
1.0
  0
INSERT
  8
1
  6
CONTINUOUS
 62
     1
  5
16C
  2
LDR
 10
147.96
 20
-50.577333
 30
0.0
 41
240.0
 42
240.0
 50
180.0
210
0.0
220
0.0
230
1.0
  0
INSERT
  8
1
  6
CONTINUOUS
 62
     1
  5
16D
  2
LDR
 10
21.146333
 20
-1.429917
 30
0.0
 41
239.999998
 42
239.999998
 50
253.206813
210
0.0
220
0.0
230
1.0
  0
INSERT
  8
1
  6
CONTINUOUS
 62
     1
  5
16E
  2
LDR
 10
21.146333
 20
-1.429917
 30
0.0
 41
239.999998
 42
239.999998
 50
253.206813
210
0.0
220
0.0
230
1.0
  0
INSERT
  8
1
  6
CONTINUOUS
 62
     1
  5
16F
  2
LDR
 10
80.560667
 20
-13.545833
 30
0.0
 41
239.999999
 42
239.999999
 50
297.152034
210
0.0
220
0.0
230
1.0
  0
INSERT
  8
1
  6
CONTINUOUS
 62
     1
  5
170
  2
LDR
 10
80.560667
 20
-13.545833
 30
0.0
 41
239.999999
 42
239.999999
 50
297.152034
210
0.0
220
0.0
230
1.0
  0
INSERT
  8
1
  6
CONTINUOUS
 62
     1
  5
171
  2
LDR
 10
222.652583
 20
-28.80575
 30
0.0
 41
240.0
 42
240.0
 50
291.330634
210
0.0
220
0.0
230
1.0
  0
INSERT
  8
1
  6
CONTINUOUS
 62
     1
  5
172
  2
LDR
 10
222.652583
 20
-28.80575
 30
0.0
 41
240.0
 42
240.0
 50
291.330634
210
0.0
220
0.0
230
1.0
  0
INSERT
  8
1
  6
CONTINUOUS
 62
     1
  5
173
  2
LDR
 10
226.971417
 20
-16.80575
 30
0.0
 41
240.0
 42
240.0
 50
291.919089
210
0.0
220
0.0
230
1.0
  0
INSERT
  8
1
  6
CONTINUOUS
 62
     1
  5
174
  2
LDR
 10
55.003083
 20
-16.80575
 30
0.0
 41
240.000001
 42
240.000001
 50
117.149694
210
0.0
220
0.0
230
1.0
  0
INSERT
  8
1
  6
CONTINUOUS
 62
     1
  5
175
  2
LDR
 10
55.003083
 20
-16.80575
 30
0.0
 41
240.000001
 42
240.000001
 50
117.149694
210
0.0
220
0.0
230
1.0
  0
INSERT
  8
1
  6
CONTINUOUS
 62
     1
  5
176
  2
LDR
 10
61.441333
 20
-7.12375
 30
0.0
 41
239.999999
 42
239.999999
 50
105.398652
210
0.0
220
0.0
230
1.0
  0
INSERT
  8
1
  6
CONTINUOUS
 62
     1
  5
177
  2
LDR
 10
61.441333
 20
-7.12375
 30
0.0
 41
239.999999
 42
239.999999
 50
105.398652
210
0.0
220
0.0
230
1.0
  0
INSERT
  8
1
  6
CONTINUOUS
 62
     1
  5
178
  2
LDR
 10
186.46
 20
-22.80575
 30
0.0
 41
239.999999
 42
239.999999
 50
115.969823
210
0.0
220
0.0
230
1.0
  0
LINE
  8
1
  6
CONTINUOUS
 62
     7
  5
179
 10
30.15275
 20
-53.322083
 30
0.0
 11
35.15275
 21
-53.322083
 31
0.0
  0
LINE
  8
1
  6
CONTINUOUS
 62
     7
  5
17A
 10
74.671
 20
-55.158167
 30
0.0
 11
79.671
 21
-55.158167
 31
0.0
  0
LINE
  8
1
  6
CONTINUOUS
 62
     7
  5
17B
 10
140.843083
 20
-59.522583
 30
0.0
 11
145.843083
 21
-59.522583
 31
0.0
  0
LINE
  8
1
  6
CONTINUOUS
 62
     7
  5
17C
 10
200.092417
 20
-50.79375
 30
0.0
 11
205.092417
 21
-50.79375
 31
0.0
  0
LINE
  8
1
  6
CONTINUOUS
 62
     7
  5
17D
 10
44.229167
 20
-10.22075
 30
0.0
 11
32.1895
 21
-9.357833
 31
0.0
  0
INSERT
  8
1
  6
CONTINUOUS
 62
     1
  5
17E
  2
LDR
 10
44.229167
 20
-10.22075
 30
0.0
 41
240.000001
 42
240.000001
 50
355.900461
210
0.0
220
0.0
230
1.0
  0
LINE
  8
1
  6
CONTINUOUS
 62
     7
  5
17F
 10
21.483
 20
-16.80575
 30
0.0
 11
30.15275
 21
-53.322083
 31
0.0
  0
INSERT
  8
1
  6
CONTINUOUS
 62
     1
  5
180
  2
LDR
 10
21.483
 20
-16.80575
 30
0.0
 41
240.000001
 42
240.000001
 50
103.355941
210
0.0
220
0.0
230
1.0
  0
TEXT
  8
1
  6
CONTINUOUS
 62
     7
  5
181
 10
52.233167
 20
-70.47525
 30
0.0
 40
4.0
  1
EXIT RAMP: STRAIGHT TAPERED DECELERATION LANE
  7
txt
210
0.0
220
0.0
230
1.0
  0
LINE
  8
1
  6
CONTINUOUS
 62
     7
  5
182
 10
51.326583
 20
-71.734
 30
0.0
 11
201.776667
 21
-71.734
 31
0.0
  0
LINE
  8
1
  6
CONTINUOUS
 62
     1
  5
183
 10
14.96
 20
-169.479
 30
0.0
 11
230.96
 21
-169.479
 31
0.0
  0
LINE
  8
1
  6
CONTINUOUS
 62
     1
  5
184
 10
14.96
 20
-165.979
 30
0.0
 11
230.96
 21
-165.979
 31
0.0
  0
LINE
  8
1
  6
CONTINUOUS
 62
     1
  5
185
 10
14.96
 20
-159.979
 30
0.0
 11
21.96
 21
-159.979
 31
0.0
  0
LINE
  8
1
  6
CONTINUOUS
 62
     1
  5
186
 10
35.96
 20
-159.979
 30
0.0
 11
42.96
 21
-159.979
 31
0.0
  0
LINE
  8
1
  6
CONTINUOUS
 62
     1
  5
187
 10
56.96
 20
-159.979
 30
0.0
 11
63.96
 21
-159.979
 31
0.0
  0
LINE
  8
1
  6
CONTINUOUS
 62
     1
  5
188
 10
77.96
 20
-159.979
 30
0.0
 11
84.96
 21
-159.979
 31
0.0
  0
LINE
  8
1
  6
CONTINUOUS
 62
     1
  5
189
 10
98.96
 20
-159.979
 30
0.0
 11
105.96
 21
-159.979
 31
0.0
  0
LINE
  8
1
  6
CONTINUOUS
 62
     1
  5
18A
 10
119.96
 20
-159.979
 30
0.0
 11
126.96
 21
-159.979
 31
0.0
  0
LINE
  8
1
  6
CONTINUOUS
 62
     1
  5
18B
 10
140.96
 20
-159.979
 30
0.0
 11
147.96
 21
-159.979
 31
0.0
  0
LINE
  8
1
  6
CONTINUOUS
 62
     1
  5
18C
 10
161.96
 20
-159.979
 30
0.0
 11
168.96
 21
-159.979
 31
0.0
  0
LINE
  8
1
  6
CONTINUOUS
 62
     1
  5
18D
 10
182.96
 20
-159.979
 30
0.0
 11
189.96
 21
-159.979
 31
0.0
  0
LINE
  8
1
  6
CONTINUOUS
 62
     1
  5
18E
 10
203.96
 20
-159.979
 30
0.0
 11
210.96
 21
-159.979
 31
0.0
  0
LINE
  8
1
  6
CONTINUOUS
 62
     1
  5
18F
 10
224.96
 20
-159.979
 30
0.0
 11
230.96
 21
-159.979
 31
0.0
  0
LINE
  8
1
  6
CONTINUOUS
 62
     1
  5
190
 10
220.96
 20
-153.979
 30
0.0
 11
230.96
 21
-153.979
 31
0.0
  0
LINE
  8
1
  6
CONTINUOUS
 62
     1
  5
191
 10
180.96
 20
-153.979
 30
0.0
 11
181.96
 21
-153.979
 31
0.0
  0
LINE
  8
1
  6
CONTINUOUS
 62
     1
  5
192
 10
174.46
 20
-153.979
 30
0.0
 11
175.46
 21
-153.979
 31
0.0
  0
LINE
  8
1
  6
CONTINUOUS
 62
     1
  5
193
 10
167.96
 20
-153.979
 30
0.0
 11
168.96
 21
-153.979
 31
0.0
  0
LINE
  8
1
  6
CONTINUOUS
 62
     1
  5
194
 10
161.46
 20
-153.979
 30
0.0
 11
162.46
 21
-153.979
 31
0.0
  0
LINE
  8
1
  6
CONTINUOUS
 62
     1
  5
195
 10
154.96
 20
-153.979
 30
0.0
 11
155.96
 21
-153.979
 31
0.0
  0
LINE
  8
1
  6
CONTINUOUS
 62
     1
  5
196
 10
14.96
 20
-153.979
 30
0.0
 11
33.46
 21
-153.979
 31
0.0
  0
LINE
  8
1
  6
CONTINUOUS
 62
     1
  5
197
 10
33.46
 20
-153.979
 30
0.0
 11
100.46
 21
-153.979
 31
0.0
  0
LINE
  8
1
  6
CONTINUOUS
 62
     1
  5
198
 10
220.96
 20
-148.479
 30
0.0
 11
230.96
 21
-148.479
 31
0.0
  0
LINE
  8
1
  6
CONTINUOUS
 62
     1
  5
199
 10
14.96
 20
-149.479
 30
0.0
 11
45.285917
 21
-149.479
 31
0.0
  0
LINE
  8
1
  6
CONTINUOUS
 62
     1
  5
19A
 10
37.7025
 20
-153.979
 30
0.0
 11
42.202583
 21
-149.479
 31
0.0
  0
LINE
  8
1
  6
CONTINUOUS
 62
     1
  5
19B
 10
43.359333
 20
-153.979
 30
0.0
 11
51.419
 21
-145.919583
 31
0.0
  0
LINE
  8
1
  6
CONTINUOUS
 62
     1
  5
19C
 10
49.016167
 20
-153.979
 30
0.0
 11
55.481
 21
-147.514333
 31
0.0
  0
LINE
  8
1
  6
CONTINUOUS
 62
     1
  5
19D
 10
54.673167
 20
-153.979
 30
0.0
 11
59.682583
 21
-148.96975
 31
0.0
  0
LINE
  8
1
  6
CONTINUOUS
 62
     1
  5
19E
 10
60.330083
 20
-153.979
 30
0.0
 11
64.032083
 21
-150.277083
 31
0.0
  0
LINE
  8
1
  6
CONTINUOUS
 62
     1
  5
19F
 10
65.987
 20
-153.979
 30
0.0
 11
68.54
 21
-151.426
 31
0.0
  0
LINE
  8
1
  6
CONTINUOUS
 62
     1
  5
1A0
 10
71.643833
 20
-153.979
 30
0.0
 11
73.218917
 21
-152.403917
 31
0.0
  0
INSERT
  8
1
  6
CONTINUOUS
 62
     1
  5
1A1
  2
ARO
 10
53.950917
 20
-143.256667
 30
0.0
 41
240.000003
 42
240.000003
 50
160.416704
210
0.0
220
0.0
230
1.0
  0
INSERT
  8
1
  6
CONTINUOUS
 62
     1
  5
1A2
  2
ARO
 10
24.685833
 20
-156.722667
 30
0.0
 41
240.0
 42
240.0
 50
180.0
210
0.0
220
0.0
230
1.0
  0
INSERT
  8
1
  6
CONTINUOUS
 62
     1
  5
1A3
  2
ARO
 10
24.833583
 20
-163.081333
 30
0.0
 41
240.0
 42
240.0
 50
180.0
210
0.0
220
0.0
230
1.0
  0
INSERT
  8
1
  6
CONTINUOUS
 62
     1
  5
1A4
  2
ARO
 10
214.01375
 20
-163.234917
 30
0.0
 41
240.0
 42
240.0
 50
180.0
210
0.0
220
0.0
230
1.0
  0
INSERT
  8
1
  6
CONTINUOUS
 62
     1
  5
1A5
  2
ARO
 10
213.866
 20
-156.87625
 30
0.0
 41
240.0
 42
240.0
 50
180.0
210
0.0
220
0.0
230
1.0
  0
INSERT
  8
1
  6
CONTINUOUS
 62
     1
  5
1A6
  2
2SPT
 10
42.002167
 20
-147.72675
 30
0.0
 41
127.54584
 42
127.54584
 50
90.0
210
0.0
220
0.0
230
1.0
  0
TEXT
  8
1
  6
CONTINUOUS
 62
     7
  5
1A7
 10
15.487083
 20
-100.19075
 30
0.0
 40
2.5
  1
4" SOLID YELLOW
  7
MONOTXT
 11
15.487083
 21
-97.69075
 31
0.0
210
0.0
220
0.0
230
1.0
 73
     3
  0
TEXT
  8
1
  6
CONTINUOUS
 62
     7
  5
1A8
 10
15.487083
 20
-104.69075
 30
0.0
 40
2.5
  1
EDGE LINE
  7
MONOTXT
 11
15.487083
 21
-102.19075
 31
0.0
210
0.0
220
0.0
230
1.0
 73
     3
  0
TEXT
  8
1
  6
CONTINUOUS
 62
     7
  5
1A9
 10
46.877333
 20
-109.8045
 30
0.0
 40
2.5
  1
SEE DETAIL "A"
  7
MONOTXT
 11
46.877333
 21
-107.3045
 31
0.0
210
0.0
220
0.0
230
1.0
 73
     3
  0
TEXT
  8
1
  6
CONTINUOUS
 62
     7
  5
1AA
 10
46.877333
 20
-114.3045
 30
0.0
 40
2.5
  1
& NOTE 1
  7
MONOTXT
 11
46.877333
 21
-111.8045
 31
0.0
210
0.0
220
0.0
230
1.0
 73
     3
  0
TEXT
  8
1
  6
CONTINUOUS
 62
     7
  5
1AB
 10
172.16725
 20
-107.921583
 30
0.0
 40
2.5
  1
4" SOLID WHITE
  7
MONOTXT
 11
172.16725
 21
-105.421583
 31
0.0
210
0.0
220
0.0
230
1.0
 73
     3
  0
TEXT
  8
1
  6
CONTINUOUS
 62
     7
  5
1AC
 10
172.16725
 20
-112.421583
 30
0.0
 40
2.5
  1
EDGE LINE
  7
MONOTXT
 11
172.16725
 21
-109.921583
 31
0.0
210
0.0
220
0.0
230
1.0
 73
     3
  0
TEXT
  8
1
  6
CONTINUOUS
 62
     7
  5
1AD
 10
213.03
 20
-176.503
 30
0.0
 40
2.5
  1
4" SOLID YELLOW
  7
MONOTXT
 11
213.03
 21
-174.003
 31
0.0
210
0.0
220
0.0
230
1.0
 73
     3
  0
TEXT
  8
1
  6
CONTINUOUS
 62
     7
  5
1AE
 10
213.03
 20
-181.003
 30
0.0
 40
2.5
  1
EDGE LINE
  7
MONOTXT
 11
213.03
 21
-178.503
 31
0.0
210
0.0
220
0.0
230
1.0
 73
     3
  0
TEXT
  8
1
  6
CONTINUOUS
 62
     7
  5
1AF
 10
174.327417
 20
-138.408417
 30
0.0
 40
2.5
  1
2'
  7
MONOTXT
210
0.0
220
0.0
230
1.0
  0
TEXT
  8
1
  6
CONTINUOUS
 62
     7
  5
1B0
 10
13.461417
 20
-147.711
 30
0.0
 40
2.5
  1
EXIT SIGN
  7
MONOTXT
210
0.0
220
0.0
230
1.0
  0
TEXT
  8
1
  6
CONTINUOUS
 62
     7
  5
1B1
 10
36.42025
 20
-191.471833
 30
0.0
 40
2.5
  1
4" SOLID WHITE
  7
MONOTXT
 11
36.42025
 21
-188.971833
 31
0.0
210
0.0
220
0.0
230
1.0
 73
     3
  0
TEXT
  8
1
  6
CONTINUOUS
 62
     7
  5
1B2
 10
36.42025
 20
-195.971833
 30
0.0
 40
2.5
  1
EDGE LINE
  7
MONOTXT
 11
36.42025
 21
-193.471833
 31
0.0
210
0.0
220
0.0
230
1.0
 73
     3
  0
TEXT
  8
1
  6
CONTINUOUS
 62
     7
  5
1B3
 10
78.328167
 20
-187.645333
 30
0.0
 40
2.5
  1
6" TO 8" SOLID WHITE
  7
MONOTXT
 11
78.328167
 21
-185.145333
 31
0.0
210
0.0
220
0.0
230
1.0
 73
     3
  0
TEXT
  8
1
  6
CONTINUOUS
 62
     7
  5
1B4
 10
78.328167
 20
-192.145333
 30
0.0
 40
2.5
  1
EDGE LINE
  7
MONOTXT
 11
78.328167
 21
-189.645333
 31
0.0
210
0.0
220
0.0
230
1.0
 73
     3
  0
TEXT
  8
1
  6
CONTINUOUS
 62
     7
  5
1B5
 10
152.397
 20
-180.8535
 30
0.0
 40
2.5
  1
30'
  7
MONOTXT
210
0.0
220
0.0
230
1.0
  0
TEXT
  8
1
  6
CONTINUOUS
 62
     7
  5
1B6
 10
206.715417
 20
-189.074333
 30
0.0
 40
2.5
  1
4" BROKEN WHITE
  7
MONOTXT
 11
206.715417
 21
-186.574333
 31
0.0
210
0.0
220
0.0
230
1.0
 73
     3
  0
TEXT
  8
1
  6
CONTINUOUS
 62
     7
  5
1B7
 10
206.715417
 20
-193.574333
 30
0.0
 40
2.5
  1
LANE LINE
  7
MONOTXT
 11
206.715417
 21
-191.074333
 31
0.0
210
0.0
220
0.0
230
1.0
 73
     3
  0
LINE
  8
1
  6
CONTINUOUS
 62
     7
  5
1B8
 10
186.46
 20
-159.979
 30
0.0
 11
200.092417
 21
-187.967
 31
0.0
  0
LINE
  8
1
  6
CONTINUOUS
 62
     7
  5
1B9
 10
162.46
 20
-152.979
 30
0.0
 11
162.46
 21
-136.266917
 31
0.0
  0
LINE
  8
1
  6
CONTINUOUS
 62
     7
  5
1BA
 10
167.96
 20
-152.979
 30
0.0
 11
167.96
 21
-136.266917
 31
0.0
  0
LINE
  8
1
  6
CONTINUOUS
 62
     7
  5
1BB
 10
147.96
 20
-160.979
 30
0.0
 11
147.96
 21
-178.750583
 31
0.0
  0
LINE
  8
1
  6
CONTINUOUS
 62
     7
  5
1BC
 10
161.96
 20
-160.979
 30
0.0
 11
161.96
 21
-178.750583
 31
0.0
  0
LINE
  8
1
  6
CONTINUOUS
 62
     7
  5
1BD
 10
168.96
 20
-160.979
 30
0.0
 11
168.96
 21
-178.750583
 31
0.0
  0
LINE
  8
1
  6
CONTINUOUS
 62
     7
  5
1BE
 10
202.863083
 20
-106.49125
 30
0.0
 11
207.863083
 21
-106.49125
 31
0.0
  0
LINE
  8
1
  6
CONTINUOUS
 62
     7
  5
1BF
 10
9.482833
 20
-98.91875
 30
0.0
 11
14.482833
 21
-98.91875
 31
0.0
  0
LINE
  8
1
  6
CONTINUOUS
 62
     7
  5
1C0
 10
36.467833
 20
-108.65375
 30
0.0
 11
45.949
 21
-108.65375
 31
0.0
  0
LINE
  8
1
  6
CONTINUOUS
 62
     7
  5
1C1
 10
52.186917
 20
-121.125
 30
0.0
 11
62.000333
 21
-121.125
 31
0.0
  0
LINE
  8
1
  6
CONTINUOUS
 62
     7
  5
1C2
 10
200.444667
 20
-119.214417
 30
0.0
 11
205.444667
 21
-119.214417
 31
0.0
  0
LINE
  8
1
  6
CONTINUOUS
 62
     7
  5
1C3
 10
208.391583
 20
-175.65025
 30
0.0
 11
211.605667
 21
-175.65025
 31
0.0
  0
LINE
  8
1
  6
CONTINUOUS
 62
     7
  5
1C4
 10
160.56925
 20
-137.266917
 30
0.0
 11
167.96
 21
-137.266917
 31
0.0
  0
LINE
  8
1
  6
CONTINUOUS
 62
     7
  5
1C5
 10
168.96
 20
-137.266917
 30
0.0
 11
173.96
 21
-137.266917
 31
0.0
  0
INSERT
  8
1
  6
CONTINUOUS
 62
     1
  5
1C6
  2
LDR
 10
162.46675
 20
-137.273
 30
0.0
 41
180.0
 42
180.0
 50
180.0
210
0.0
220
0.0
230
1.0
  0
INSERT
  8
1
  6
CONTINUOUS
 62
     1
  5
1C7
  2
LDR
 10
167.95325
 20
-137.260917
 30
0.0
 41
180.0
 42
180.0
210
0.0
220
0.0
230
1.0
  0
INSERT
  8
1
  6
CONTINUOUS
 62
     1
  5
1C8
  2
LDR
 10
186.46
 20
-159.979
 30
0.0
 41
239.999999
 42
239.999999
 50
115.969823
210
0.0
220
0.0
230
1.0
  0
LINE
  8
1
  6
CONTINUOUS
 62
     7
  5
1C9
 10
30.15275
 20
-190.495333
 30
0.0
 11
35.15275
 21
-190.495333
 31
0.0
  0
LINE
  8
1
  6
CONTINUOUS
 62
     7
  5
1CA
 10
72.284333
 20
-186.433167
 30
0.0
 11
77.284333
 21
-186.433167
 31
0.0
  0
LINE
  8
1
  6
CONTINUOUS
 62
     7
  5
1CB
 10
200.092417
 20
-187.967
 30
0.0
 11
205.092417
 21
-187.967
 31
0.0
  0
LINE
  8
1
  6
CONTINUOUS
 62
     7
  5
1CC
 10
21.483
 20
-153.979
 30
0.0
 11
30.15275
 21
-190.495333
 31
0.0
  0
INSERT
  8
1
  6
CONTINUOUS
 62
     1
  5
1CD
  2
LDR
 10
21.483
 20
-153.979
 30
0.0
 41
240.000001
 42
240.000001
 50
103.355941
210
0.0
220
0.0
230
1.0
  0
LINE
  8
1
  6
CONTINUOUS
 62
     7
  5
1CE
 10
64.275083
 20
-208.90725
 30
0.0
 11
187.906
 21
-208.90725
 31
0.0
  0
LINE
  8
1
  6
CONTINUOUS
 62
     1
  5
1CF
 10
107.46
 20
-153.979
 30
0.0
 11
114.46
 21
-153.979
 31
0.0
  0
LINE
  8
1
  6
CONTINUOUS
 62
     1
  5
1D0
 10
128.46
 20
-153.979
 30
0.0
 11
135.46
 21
-153.979
 31
0.0
  0
LINE
  8
1
  6
CONTINUOUS
 62
     1
  5
1D1
 10
149.46
 20
-153.979
 30
0.0
 11
156.46
 21
-153.979
 31
0.0
  0
LINE
  8
1
  6
CONTINUOUS
 62
     1
  5
1D2
 10
187.46
 20
-153.979
 30
0.0
 11
188.46
 21
-153.979
 31
0.0
  0
LINE
  8
1
  6
CONTINUOUS
 62
     1
  5
1D3
 10
206.96
 20
-153.979
 30
0.0
 11
207.96
 21
-153.979
 31
0.0
  0
LINE
  8
1
  6
CONTINUOUS
 62
     1
  5
1D4
 10
200.46
 20
-153.979
 30
0.0
 11
201.46
 21
-153.979
 31
0.0
  0
LINE
  8
1
  6
CONTINUOUS
 62
     1
  5
1D5
 10
193.96
 20
-153.979
 30
0.0
 11
194.96
 21
-153.979
 31
0.0
  0
LINE
  8
1
  6
CONTINUOUS
 62
     1
  5
1D6
 10
213.46
 20
-153.979
 30
0.0
 11
214.46
 21
-153.979
 31
0.0
  0
LINE
  8
1
  6
CONTINUOUS
 62
     7
  5
1D7
 10
168.96
 20
-152.979
 30
0.0
 11
168.96
 21
-136.266917
 31
0.0
  0
INSERT
  8
1
  6
CONTINUOUS
 62
     1
  5
1D8
  2
LDR
 10
168.96925
 20
-137.263667
 30
0.0
 41
240.0
 42
240.0
 50
180.0
210
0.0
220
0.0
230
1.0
  0
LINE
  8
1
  6
CONTINUOUS
 62
     1
  5
1D9
 10
88.96
 20
-147.979
 30
0.0
 11
186.96
 21
-147.979
 31
0.0
  0
LINE
  8
1
  6
CONTINUOUS
 62
     1
  5
1DA
 10
90.950333
 20
-142.479
 30
0.0
 11
186.96
 21
-142.479
 31
0.0
  0
LINE
  8
1
  6
CONTINUOUS
 62
     1
  5
1DB
 10
186.96
 20
-142.479
 30
0.0
 11
220.96
 21
-148.479
 31
0.0
  0
LINE
  8
1
  6
CONTINUOUS
 62
     1
  5
1DC
 10
186.96
 20
-147.979
 30
0.0
 11
220.96
 21
-153.979
 31
0.0
  0
ARC
  8
1
  6
CONTINUOUS
 62
     1
  5
1DD
 10
93.045087
 20
-45.862528
 30
0.0
 40
108.370437
 50
238.213275
 51
266.121003
210
0.0
220
0.0
230
1.0
  0
ARC
  8
1
  6
CONTINUOUS
 62
     1
  5
1DE
 10
91.758576
 20
-45.071304
 30
0.0
 40
108.370437
 50
228.748464
 51
239.011783
210
0.0
220
0.0
230
1.0
  0
ARC
  8
1
  6
CONTINUOUS
 62
     1
  5
1DF
 10
91.758576
 20
-45.071304
 30
0.0
 40
112.370437
 50
228.748464
 51
245.800297
210
0.0
220
0.0
230
1.0
  0
ARC
  8
1
  6
CONTINUOUS
 62
     1
  5
1E0
 10
45.285956
 20
-148.479
 30
0.0
 40
1.0
 50
270.0
 51
65.800297
210
0.0
220
0.0
230
1.0
  0
ARC
  8
1
  6
CONTINUOUS
 62
     1
  5
1E1
 10
96.291254
 20
-39.856861
 30
0.0
 40
108.370437
 50
229.951856
 51
266.121003
210
0.0
220
0.0
230
1.0
  0
ARC
  8
1
  6
CONTINUOUS
 62
     1
  5
1E2
 10
98.281587
 20
-34.235694
 30
0.0
 40
108.370437
 50
230.909206
 51
266.121003
210
0.0
220
0.0
230
1.0
  0
INSERT
  8
1
  6
CONTINUOUS
 62
     1
  5
1E3
  2
ARO
 10
126.703167
 20
-163.129
 30
0.0
 41
240.0
 42
240.0
 50
180.0
210
0.0
220
0.0
230
1.0
  0
INSERT
  8
1
  6
CONTINUOUS
 62
     1
  5
1E4
  2
ARO
 10
126.555417
 20
-156.770333
 30
0.0
 41
240.0
 42
240.0
 50
180.0
210
0.0
220
0.0
230
1.0
  0
INSERT
  8
1
  6
CONTINUOUS
 62
     1
  5
1E5
  2
ARO
 10
126.47275
 20
-150.902167
 30
0.0
 41
240.0
 42
240.0
 50
180.0
210
0.0
220
0.0
230
1.0
  0
LINE
  8
1
  6
CONTINUOUS
 62
     7
  5
1E6
 10
42.17225
 20
-147.65775
 30
0.0
 11
32.148583
 21
-146.447917
 31
0.0
  0
INSERT
  8
1
  6
CONTINUOUS
 62
     1
  5
1E7
  2
LDR
 10
42.17225
 20
-147.65775
 30
0.0
 41
239.999998
 42
239.999998
 50
353.117823
210
0.0
220
0.0
230
1.0
  0
LINE
  8
1
  6
CONTINUOUS
 62
     7
  5
1E8
 10
100.46
 20
-152.979
 30
0.0
 11
100.46
 21
-121.972583
 31
0.0
  0
LINE
  8
1
  6
CONTINUOUS
 62
     7
  5
1E9
 10
155.96
 20
-152.979
 30
0.0
 11
155.96
 21
-121.972583
 31
0.0
  0
LINE
  8
1
  6
CONTINUOUS
 62
     7
  5
1EA
 10
100.46
 20
-122.972583
 30
0.0
 11
155.96
 21
-122.972583
 31
0.0
  0
INSERT
  8
1
  6
CONTINUOUS
 62
     1
  5
1EB
  2
LDR
 10
100.46
 20
-122.972583
 30
0.0
 41
240.0
 42
240.0
 50
180.0
210
0.0
220
0.0
230
1.0
  0
INSERT
  8
1
  6
CONTINUOUS
 62
     1
  5
1EC
  2
LDR
 10
100.46
 20
-122.972583
 30
0.0
 41
240.0
 42
240.0
 50
180.0
210
0.0
220
0.0
230
1.0
  0
INSERT
  8
1
  6
CONTINUOUS
 62
     1
  5
1ED
  2
LDR
 10
155.96
 20
-122.972583
 30
0.0
 41
240.0
 42
240.0
210
0.0
220
0.0
230
1.0
  0
LINE
  8
1
  6
CONTINUOUS
 62
     7
  5
1EE
 10
86.635333
 20
-147.79625
 30
0.0
 11
86.635333
 21
-153.979
 31
0.0
  0
INSERT
  8
1
  6
CONTINUOUS
 62
     1
  5
1EF
  2
LDR
 10
86.628083
 20
-147.804333
 30
0.0
 41
216.0
 42
216.0
 50
90.0
210
0.0
220
0.0
230
1.0
  0
INSERT
  8
1
  6
CONTINUOUS
 62
     1
  5
1F0
  2
LDR
 10
86.642583
 20
-153.970917
 30
0.0
 41
216.0
 42
216.0
 50
270.0
210
0.0
220
0.0
230
1.0
  0
LINE
  8
1
  6
CONTINUOUS
 62
     7
  5
1F1
 10
26.700917
 20
-131.741083
 30
0.0
 11
9.482833
 21
-98.91875
 31
0.0
  0
INSERT
  8
1
  6
CONTINUOUS
 62
     1
  5
1F2
  2
LDR
 10
26.700917
 20
-131.741083
 30
0.0
 41
240.000001
 42
240.000001
 50
297.680801
210
0.0
220
0.0
230
1.0
  0
LINE
  8
1
  6
CONTINUOUS
 62
     7
  5
1F3
 10
52.248583
 20
-150.746667
 30
0.0
 11
36.467833
 21
-108.65375
 31
0.0
  0
LINE
  8
1
  6
CONTINUOUS
 62
     7
  5
1F4
 10
86.635333
 20
-151.120583
 30
0.0
 11
52.186917
 21
-121.125
 31
0.0
  0
INSERT
  8
1
  6
CONTINUOUS
 62
     1
  5
1F5
  2
LDR
 10
86.635333
 20
-151.120583
 30
0.0
 41
239.999998
 42
239.999998
 50
318.952722
210
0.0
220
0.0
230
1.0
  0
TEXT
  8
1
  6
CONTINUOUS
 62
     7
  5
1F6
 10
63.085917
 20
-122.263
 30
0.0
 40
2.5
  1
FULL RAMP
  7
MONOTXT
210
0.0
220
0.0
230
1.0
  0
TEXT
  8
1
  6
CONTINUOUS
 62
     7
  5
1F7
 10
63.085917
 20
-126.763
 30
0.0
 40
2.5
  1
LANE WIDTH
  7
MONOTXT
210
0.0
220
0.0
230
1.0
  0
LINE
  8
1
  6
CONTINUOUS
 62
     7
  5
1F8
 10
128.46
 20
-152.979
 30
0.0
 11
128.46
 21
-131.207417
 31
0.0
  0
LINE
  8
1
  6
CONTINUOUS
 62
     7
  5
1F9
 10
114.46
 20
-152.979
 30
0.0
 11
114.46
 21
-131.207417
 31
0.0
  0
LINE
  8
1
  6
CONTINUOUS
 62
     7
  5
1FA
 10
107.46
 20
-152.979
 30
0.0
 11
107.46
 21
-131.207417
 31
0.0
  0
LINE
  8
1
  6
CONTINUOUS
 62
     7
  5
1FB
 10
128.46
 20
-132.207417
 30
0.0
 11
114.46
 21
-132.207417
 31
0.0
  0
LINE
  8
1
  6
CONTINUOUS
 62
     7
  5
1FC
 10
114.46
 20
-132.207417
 30
0.0
 11
107.46
 21
-132.207417
 31
0.0
  0
INSERT
  8
1
  6
CONTINUOUS
 62
     1
  5
1FD
  2
LDR
 10
114.45075
 20
-132.210667
 30
0.0
 41
240.0
 42
240.0
 50
180.0
210
0.0
220
0.0
230
1.0
  0
INSERT
  8
1
  6
CONTINUOUS
 62
     1
  5
1FE
  2
LDR
 10
114.45075
 20
-132.210667
 30
0.0
 41
240.0
 42
240.0
210
0.0
220
0.0
230
1.0
  0
INSERT
  8
1
  6
CONTINUOUS
 62
     1
  5
1FF
  2
LDR
 10
107.45075
 20
-132.210667
 30
0.0
 41
240.0
 42
240.0
 50
180.0
210
0.0
220
0.0
230
1.0
  0
INSERT
  8
1
  6
CONTINUOUS
 62
     1
  5
200
  2
LDR
 10
128.45075
 20
-132.210667
 30
0.0
 41
240.0
 42
240.0
210
0.0
220
0.0
230
1.0
  0
TEXT
  8
1
  6
CONTINUOUS
 62
     7
  5
201
 10
118.640667
 20
-130.96025
 30
0.0
 40
2.5
  1
30'
  7
MONOTXT
210
0.0
220
0.0
230
1.0
  0
LINE
  8
1
  6
CONTINUOUS
 62
     7
  5
202
 10
225.96
 20
-148.479
 30
0.0
 11
207.863083
 21
-106.49125
 31
0.0
  0
INSERT
  8
1
  6
CONTINUOUS
 62
     1
  5
203
  2
LDR
 10
225.96
 20
-148.479
 30
0.0
 41
239.999999
 42
239.999999
 50
293.316268
210
0.0
220
0.0
230
1.0
  0
TEXT
  8
1
  6
CONTINUOUS
 62
     7
  5
204
 10
101.67525
 20
-107.4985
 30
0.0
 40
2.5
  1
DASHED LINE (OR BROKEN
  7
MONOTXT
 11
101.67525
 21
-104.9985
 31
0.0
210
0.0
220
0.0
230
1.0
 73
     3
  0
TEXT
  8
1
  6
CONTINUOUS
 62
     7
  5
205
 10
101.67525
 20
-111.9985
 30
0.0
 40
2.5
  1
WHITE EDGE LINE) FOR
  7
MONOTXT
 11
101.67525
 21
-109.4985
 31
0.0
210
0.0
220
0.0
230
1.0
 73
     3
  0
TEXT
  8
1
  6
CONTINUOUS
 62
     7
  5
206
 10
101.67525
 20
-116.4985
 30
0.0
 40
2.5
  1
ONE-HALF LENGTH OF FULL
  7
MONOTXT
 11
101.67525
 21
-113.9985
 31
0.0
210
0.0
220
0.0
230
1.0
 73
     3
  0
TEXT
  8
1
  6
CONTINUOUS
 62
     7
  5
207
 10
101.67525
 20
-120.9985
 30
0.0
 40
2.5
  1
WIDTH DECELERATION LANE
  7
MONOTXT
 11
101.67525
 21
-118.4985
 31
0.0
210
0.0
220
0.0
230
1.0
 73
     3
  0
TEXT
  8
1
  6
CONTINUOUS
 62
     7
  5
208
 10
79.642167
 20
-174.851
 30
0.0
 40
2.5
  1
THEORETICAL
  7
MONOTXT
210
0.0
220
0.0
230
1.0
  0
TEXT
  8
1
  6
CONTINUOUS
 62
     7
  5
209
 10
79.642167
 20
-179.351
 30
0.0
 40
2.5
  1
GORE POINT
  7
MONOTXT
210
0.0
220
0.0
230
1.0
  0
LINE
  8
1
  6
CONTINUOUS
 62
     7
  5
20A
 10
57.11825
 20
-148.1045
 30
0.0
 11
72.284333
 21
-186.433167
 31
0.0
  0
LINE
  8
1
  6
CONTINUOUS
 62
     7
  5
20B
 10
72.284333
 20
-186.433167
 30
0.0
 11
51.954167
 21
-153.979
 31
0.0
  0
INSERT
  8
1
  6
CONTINUOUS
 62
     1
  5
20C
  2
LDR
 10
57.11825
 20
-148.1045
 30
0.0
 41
240.000001
 42
240.000001
 50
111.587969
210
0.0
220
0.0
230
1.0
  0
INSERT
  8
1
  6
CONTINUOUS
 62
     1
  5
20D
  2
LDR
 10
51.954167
 20
-153.979
 30
0.0
 41
240.000001
 42
240.000001
 50
122.064141
210
0.0
220
0.0
230
1.0
  0
TEXT
  8
1
  6
CONTINUOUS
 62
     7
  5
20E
 10
141.59625
 20
-194.991167
 30
0.0
 40
2.5
  1
4" WIDE BROKEN
  7
MONOTXT
 11
141.59625
 21
-192.491167
 31
0.0
210
0.0
220
0.0
230
1.0
 73
     3
  0
TEXT
  8
1
  6
CONTINUOUS
 62
     7
  5
20F
 10
141.59625
 20
-199.491167
 30
0.0
 40
2.5
  1
WHITE EDGE LINE
  7
MONOTXT
 11
141.59625
 21
-196.991167
 31
0.0
210
0.0
220
0.0
230
1.0
 73
     3
  0
LINE
  8
1
  6
CONTINUOUS
 62
     7
  5
210
 10
100.46
 20
-153.979
 30
0.0
 11
109.577417
 21
-173.402417
 31
0.0
  0
LINE
  8
1
  6
CONTINUOUS
 62
     7
  5
211
 10
109.577417
 20
-173.402417
 30
0.0
 11
104.972
 21
-173.402417
 31
0.0
  0
LINE
  8
1
  6
CONTINUOUS
 62
     7
  5
212
 10
110.96
 20
-153.979
 30
0.0
 11
135.190417
 21
-193.8045
 31
0.0
  0
LINE
  8
1
  6
CONTINUOUS
 62
     7
  5
213
 10
140.499583
 20
-193.8045
 30
0.0
 11
135.190417
 21
-193.8045
 31
0.0
  0
LINE
  8
1
  6
CONTINUOUS
 62
     7
  5
214
 10
200.210833
 20
-165.979
 30
0.0
 11
208.391583
 21
-175.65025
 31
0.0
  0
TEXT
  8
1
  6
CONTINUOUS
 62
     7
  5
215
 10
167.493667
 20
-120.705167
 30
0.0
 40
2.5
  1
4" WIDE DOTTED
  7
MONOTXT
 11
167.493667
 21
-118.205167
 31
0.0
210
0.0
220
0.0
230
1.0
 73
     3
  0
TEXT
  8
1
  6
CONTINUOUS
 62
     7
  5
216
 10
167.493667
 20
-125.205167
 30
0.0
 40
2.5
  1
WHITE EDGE LINE
  7
MONOTXT
 11
167.493667
 21
-122.705167
 31
0.0
210
0.0
220
0.0
230
1.0
 73
     3
  0
LINE
  8
1
  6
CONTINUOUS
 62
     7
  5
217
 10
207.46
 20
-153.979
 30
0.0
 11
205.444667
 21
-119.214417
 31
0.0
  0
INSERT
  8
1
  6
CONTINUOUS
 62
     1
  5
218
  2
LDR
 10
207.46
 20
-153.979
 30
0.0
 41
239.999999
 42
239.999999
 50
273.317773
210
0.0
220
0.0
230
1.0
  0
INSERT
  8
1
  6
CONTINUOUS
 62
     1
  5
219
  2
LDR
 10
200.210833
 20
-165.979
 30
0.0
 41
240.000001
 42
240.000001
 50
130.227327
210
0.0
220
0.0
230
1.0
  0
POINT
  8
1
  6
CONTINUOUS
 62
     7
  5
21A
 10
184.806333
 20
-121.43025
 30
0.0
  0
LINE
  8
1
  6
CONTINUOUS
 62
     7
  5
21B
 10
184.806333
 20
-121.43025
 30
0.0
 11
199.72975
 21
-121.43025
 31
0.0
  0
TEXT
  8
1
  6
CONTINUOUS
 62
     7
  5
21C
 10
146.425
 20
18.339
 30
0.0
 40
2.5
  1
4" WIDE DOTTED
  7
MONOTXT
 11
146.425
 21
20.839
 31
0.0
210
0.0
220
0.0
230
1.0
 73
     3
  0
TEXT
  8
1
  6
CONTINUOUS
 62
     7
  5
21D
 10
146.425
 20
13.839
 30
0.0
 40
2.5
  1
WHITE EDGE LINE
  7
MONOTXT
 11
146.425
 21
16.339
 31
0.0
210
0.0
220
0.0
230
1.0
 73
     3
  0
LINE
  8
1
  6
CONTINUOUS
 62
     7
  5
21E
 10
163.682
 20
17.569833
 30
0.0
 11
179.090167
 21
17.569833
 31
0.0
  0
TEXT
  8
1
  6
CONTINUOUS
 62
     7
  5
21F
 10
65.354417
 20
-207.6485
 30
0.0
 40
4.0
  1
EXIT RAMP: PARALLEL DECELERATION LANE
  7
txt
210
0.0
220
0.0
230
1.0
  0
LINE
  8
1
  6
CONTINUOUS
 62
     1
  5
220
 10
16.1
 20
-329.49525
 30
0.0
 11
293.611417
 21
-329.49525
 31
0.0
  0
LINE
  8
1
  6
CONTINUOUS
 62
     1
  5
221
 10
16.1
 20
-324.24525
 30
0.0
 11
293.611417
 21
-324.24525
 31
0.0
  0
LINE
  8
1
  6
CONTINUOUS
 62
     1
  5
222
 10
16.1
 20
-315.24525
 30
0.0
 11
26.6
 21
-315.24525
 31
0.0
  0
LINE
  8
1
  6
CONTINUOUS
 62
     1
  5
223
 10
47.6
 20
-315.24525
 30
0.0
 11
58.1
 21
-315.24525
 31
0.0
  0
LINE
  8
1
  6
CONTINUOUS
 62
     1
  5
224
 10
79.1
 20
-315.24525
 30
0.0
 11
89.6
 21
-315.24525
 31
0.0
  0
LINE
  8
1
  6
CONTINUOUS
 62
     1
  5
225
 10
110.6
 20
-315.24525
 30
0.0
 11
121.1
 21
-315.24525
 31
0.0
  0
LINE
  8
1
  6
CONTINUOUS
 62
     1
  5
226
 10
142.1
 20
-315.24525
 30
0.0
 11
152.6
 21
-315.24525
 31
0.0
  0
LINE
  8
1
  6
CONTINUOUS
 62
     1
  5
227
 10
173.6
 20
-315.24525
 30
0.0
 11
184.1
 21
-315.24525
 31
0.0
  0
LINE
  8
1
  6
CONTINUOUS
 62
     1
  5
228
 10
205.1
 20
-315.24525
 30
0.0
 11
215.6
 21
-315.24525
 31
0.0
  0
LINE
  8
1
  6
CONTINUOUS
 62
     1
  5
229
 10
236.6
 20
-315.24525
 30
0.0
 11
247.1
 21
-315.24525
 31
0.0
  0
LINE
  8
1
  6
CONTINUOUS
 62
     1
  5
22A
 10
268.1
 20
-315.24525
 30
0.0
 11
278.6
 21
-315.24525
 31
0.0
  0
LINE
  8
1
  6
CONTINUOUS
 62
     1
  5
22B
 10
16.1
 20
-306.24525
 30
0.0
 11
43.85
 21
-306.24525
 31
0.0
  0
LINE
  8
1
  6
CONTINUOUS
 62
     1
  5
22C
 10
43.85
 20
-306.24525
 30
0.0
 11
188.6
 21
-306.24525
 31
0.0
  0
LINE
  8
1
  6
CONTINUOUS
 62
     1
  5
22D
 10
188.6
 20
-306.24525
 30
0.0
 11
43.85
 21
-285.791333
 31
0.0
  0
LINE
  8
1
  6
CONTINUOUS
 62
     1
  5
22E
 10
43.85
 20
-285.7915
 30
0.0
 11
16.1
 21
-281.87025
 31
0.0
  0
LINE
  8
1
  6
CONTINUOUS
 62
     1
  5
22F
 10
282.13275
 20
-306.118833
 30
0.0
 11
16.1
 21
-271.37025
 31
0.0
  0
LINE
  8
1
  6
CONTINUOUS
 62
     1
  5
230
 10
282.669167
 20
-297.868833
 30
0.0
 11
17.1685
 21
-263.18975
 31
0.0
  0
LINE
  8
1
  6
CONTINUOUS
 62
     1
  5
231
 10
82.18025
 20
-296.51
 30
0.0
 11
15.365417
 21
-287.068583
 31
0.0
  0
LINE
  8
1
  6
CONTINUOUS
 62
     1
  5
232
 10
16.1
 20
-299.49525
 30
0.0
 11
81.970417
 21
-299.49525
 31
0.0
  0
ARC
  8
1
  6
CONTINUOUS
 62
     1
  5
233
 10
81.970425
 20
-297.995208
 30
0.0
 40
1.5
 50
270.0
 51
81.957003
210
0.0
220
0.0
230
1.0
  0
LINE
  8
1
  6
CONTINUOUS
 62
     1
  5
234
 10
50.21375
 20
-306.24525
 30
0.0
 11
56.963917
 21
-299.49525
 31
0.0
  0
LINE
  8
1
  6
CONTINUOUS
 62
     1
  5
235
 10
58.699
 20
-306.24525
 30
0.0
 11
65.44925
 21
-299.49525
 31
0.0
  0
LINE
  8
1
  6
CONTINUOUS
 62
     1
  5
236
 10
67.18425
 20
-306.24525
 30
0.0
 11
73.934417
 21
-299.49525
 31
0.0
  0
LINE
  8
1
  6
CONTINUOUS
 62
     1
  5
237
 10
75.66975
 20
-306.24525
 30
0.0
 11
82.419917
 21
-299.49525
 31
0.0
  0
LINE
  8
1
  6
CONTINUOUS
 62
     1
  5
238
 10
84.155167
 20
-306.24525
 30
0.0
 11
97.086667
 21
-293.314
 31
0.0
  0
LINE
  8
1
  6
CONTINUOUS
 62
     1
  5
239
 10
92.6405
 20
-306.24525
 30
0.0
 11
104.5215
 21
-294.3645
 31
0.0
  0
LINE
  8
1
  6
CONTINUOUS
 62
     1
  5
23A
 10
101.12575
 20
-306.24525
 30
0.0
 11
111.956167
 21
-295.415083
 31
0.0
  0
LINE
  8
1
  6
CONTINUOUS
 62
     1
  5
23B
 10
109.611167
 20
-306.24525
 30
0.0
 11
119.390917
 21
-296.465583
 31
0.0
  0
LINE
  8
1
  6
CONTINUOUS
 62
     1
  5
23C
 10
118.0965
 20
-306.24525
 30
0.0
 11
126.825667
 21
-297.51625
 31
0.0
  0
LINE
  8
1
  6
CONTINUOUS
 62
     1
  5
23D
 10
126.58175
 20
-306.24525
 30
0.0
 11
134.260417
 21
-298.56675
 31
0.0
  0
LINE
  8
1
  6
CONTINUOUS
 62
     1
  5
23E
 10
135.067167
 20
-306.24525
 30
0.0
 11
141.695167
 21
-299.617333
 31
0.0
  0
LINE
  8
1
  6
CONTINUOUS
 62
     1
  5
23F
 10
143.552417
 20
-306.24525
 30
0.0
 11
149.129917
 21
-300.667833
 31
0.0
  0
LINE
  8
1
  6
CONTINUOUS
 62
     1
  5
240
 10
152.03775
 20
-306.24525
 30
0.0
 11
156.564667
 21
-301.7185
 31
0.0
  0
LINE
  8
1
  6
CONTINUOUS
 62
     1
  5
241
 10
160.523
 20
-306.24525
 30
0.0
 11
163.99925
 21
-302.769
 31
0.0
  0
LINE
  8
1
  6
CONTINUOUS
 62
     1
  5
242
 10
169.008417
 20
-306.24525
 30
0.0
 11
171.434167
 21
-303.819583
 31
0.0
  0
LINE
  8
1
  6
CONTINUOUS
 62
     1
  5
243
 10
177.4935
 20
-306.24525
 30
0.0
 11
178.868667
 21
-304.870083
 31
0.0
  0
LINE
  8
1
  6
CONTINUOUS
 62
     1
  5
244
 10
185.97875
 20
-306.24525
 30
0.0
 11
186.30325
 21
-305.92075
 31
0.0
  0
INSERT
  8
1
  6
CONTINUOUS
 62
     1
  5
245
  2
2SPT
 10
59.65375
 20
-296.509833
 30
0.0
 41
262.439999
 42
262.439999
 50
90.0
210
0.0
220
0.0
230
1.0
  0
LINE
  8
1
  6
CONTINUOUS
 62
     7
  5
246
 10
103.068417
 20
-340.865333
 30
0.0
 11
201.473167
 21
-340.865333
 31
0.0
  0
POLYLINE
  8
1
  6
CONTINUOUS
 62
     7
  5
247
 66
     1
 10
0.0
 20
0.0
 30
0.0
 70
     1
  0
VERTEX
  8
1
  6
CONTINUOUS
 62
     7
  5
248
 10
52.975167
 20
-285.095833
 30
0.0
  0
VERTEX
  8
1
  6
CONTINUOUS
 62
     7
  5
249
 10
54.460333
 20
-285.305333
 30
0.0
  0
VERTEX
  8
1
  6
CONTINUOUS
 62
     7
  5
24A
 10
54.250833
 20
-286.790667
 30
0.0
  0
VERTEX
  8
1
  6
CONTINUOUS
 62
     7
  5
24B
 10
54.251
 20
-286.790583
 30
0.0
  0
VERTEX
  8
1
  6
CONTINUOUS
 62
     7
  5
24C
 10
52.765667
 20
-286.581167
 30
0.0
  0
VERTEX
  8
1
  6
CONTINUOUS
 62
     7
  5
24D
 10
52.975167
 20
-285.095833
 30
0.0
  0
SEQEND
  8
1
  6
CONTINUOUS
 62
     7
  5
24E
  0
POLYLINE
  8
1
  6
CONTINUOUS
 62
     7
  5
24F
 66
     1
 10
0.0
 20
0.0
 30
0.0
 70
     1
  0
VERTEX
  8
1
  6
CONTINUOUS
 62
     7
  5
250
 10
51.3635
 20
-306.578167
 30
0.0
  0
VERTEX
  8
1
  6
CONTINUOUS
 62
     7
  5
251
 10
51.37075
 20
-308.07825
 30
0.0
  0
VERTEX
  8
1
  6
CONTINUOUS
 62
     7
  5
252
 10
52.87075
 20
-308.070833
 30
0.0
  0
VERTEX
  8
1
  6
CONTINUOUS
 62
     7
  5
253
 10
52.8635
 20
-306.57075
 30
0.0
  0
VERTEX
  8
1
  6
CONTINUOUS
 62
     7
  5
254
 10
52.863333
 20
-306.571
 30
0.0
  0
VERTEX
  8
1
  6
CONTINUOUS
 62
     7
  5
255
 10
51.3635
 20
-306.578167
 30
0.0
  0
SEQEND
  8
1
  6
CONTINUOUS
 62
     7
  5
256
  0
POLYLINE
  8
1
  6
CONTINUOUS
 62
     7
  5
257
 66
     1
 10
0.0
 20
0.0
 30
0.0
 70
     1
  0
VERTEX
  8
1
  6
CONTINUOUS
 62
     7
  5
258
 10
63.370667
 20
-308.020167
 30
0.0
  0
VERTEX
  8
1
  6
CONTINUOUS
 62
     7
  5
259
 10
63.363417
 20
-306.520083
 30
0.0
  0
VERTEX
  8
1
  6
CONTINUOUS
 62
     7
  5
25A
 10
64.86325
 20
-306.512917
 30
0.0
  0
VERTEX
  8
1
  6
CONTINUOUS
 62
     7
  5
25B
 10
64.863417
 20
-306.512667
 30
0.0
  0
VERTEX
  8
1
  6
CONTINUOUS
 62
     7
  5
25C
 10
64.870667
 20
-308.01275
 30
0.0
  0
VERTEX
  8
1
  6
CONTINUOUS
 62
     7
  5
25D
 10
63.370667
 20
-308.020167
 30
0.0
  0
SEQEND
  8
1
  6
CONTINUOUS
 62
     7
  5
25E
  0
POLYLINE
  8
1
  6
CONTINUOUS
 62
     7
  5
25F
 66
     1
 10
0.0
 20
0.0
 30
0.0
 70
     1
  0
VERTEX
  8
1
  6
CONTINUOUS
 62
     7
  5
260
 10
75.370583
 20
-307.962083
 30
0.0
  0
VERTEX
  8
1
  6
CONTINUOUS
 62
     7
  5
261
 10
75.363333
 20
-306.462
 30
0.0
  0
VERTEX
  8
1
  6
CONTINUOUS
 62
     7
  5
262
 10
76.863167
 20
-306.454833
 30
0.0
  0
VERTEX
  8
1
  6
CONTINUOUS
 62
     7
  5
263
 10
76.863333
 20
-306.454583
 30
0.0
  0
VERTEX
  8
1
  6
CONTINUOUS
 62
     7
  5
264
 10
76.870583
 20
-307.954667
 30
0.0
  0
VERTEX
  8
1
  6
CONTINUOUS
 62
     7
  5
265
 10
75.370583
 20
-307.962083
 30
0.0
  0
SEQEND
  8
1
  6
CONTINUOUS
 62
     7
  5
266
  0
POLYLINE
  8
1
  6
CONTINUOUS
 62
     7
  5
267
 66
     1
 10
0.0
 20
0.0
 30
0.0
 70
     1
  0
VERTEX
  8
1
  6
CONTINUOUS
 62
     7
  5
268
 10
87.3705
 20
-307.904
 30
0.0
  0
VERTEX
  8
1
  6
CONTINUOUS
 62
     7
  5
269
 10
87.36325
 20
-306.403917
 30
0.0
  0
VERTEX
  8
1
  6
CONTINUOUS
 62
     7
  5
26A
 10
88.863083
 20
-306.39675
 30
0.0
  0
VERTEX
  8
1
  6
CONTINUOUS
 62
     7
  5
26B
 10
88.86325
 20
-306.3965
 30
0.0
  0
VERTEX
  8
1
  6
CONTINUOUS
 62
     7
  5
26C
 10
88.8705
 20
-307.896583
 30
0.0
  0
VERTEX
  8
1
  6
CONTINUOUS
 62
     7
  5
26D
 10
87.3705
 20
-307.904
 30
0.0
  0
SEQEND
  8
1
  6
CONTINUOUS
 62
     7
  5
26E
  0
POLYLINE
  8
1
  6
CONTINUOUS
 62
     7
  5
26F
 66
     1
 10
0.0
 20
0.0
 30
0.0
 70
     1
  0
VERTEX
  8
1
  6
CONTINUOUS
 62
     7
  5
270
 10
99.370417
 20
-307.845917
 30
0.0
  0
VERTEX
  8
1
  6
CONTINUOUS
 62
     7
  5
271
 10
99.363167
 20
-306.345833
 30
0.0
  0
VERTEX
  8
1
  6
CONTINUOUS
 62
     7
  5
272
 10
100.863
 20
-306.338667
 30
0.0
  0
VERTEX
  8
1
  6
CONTINUOUS
 62
     7
  5
273
 10
100.863167
 20
-306.338417
 30
0.0
  0
VERTEX
  8
1
  6
CONTINUOUS
 62
     7
  5
274
 10
100.870417
 20
-307.8385
 30
0.0
  0
VERTEX
  8
1
  6
CONTINUOUS
 62
     7
  5
275
 10
99.370417
 20
-307.845917
 30
0.0
  0
SEQEND
  8
1
  6
CONTINUOUS
 62
     7
  5
276
  0
POLYLINE
  8
1
  6
CONTINUOUS
 62
     7
  5
277
 66
     1
 10
0.0
 20
0.0
 30
0.0
 70
     1
  0
VERTEX
  8
1
  6
CONTINUOUS
 62
     7
  5
278
 10
111.363083
 20
-306.28775
 30
0.0
  0
VERTEX
  8
1
  6
CONTINUOUS
 62
     7
  5
279
 10
111.370333
 20
-307.787833
 30
0.0
  0
VERTEX
  8
1
  6
CONTINUOUS
 62
     7
  5
27A
 10
112.870333
 20
-307.780417
 30
0.0
  0
VERTEX
  8
1
  6
CONTINUOUS
 62
     7
  5
27B
 10
112.863083
 20
-306.280333
 30
0.0
  0
VERTEX
  8
1
  6
CONTINUOUS
 62
     7
  5
27C
 10
112.862917
 20
-306.280583
 30
0.0
  0
VERTEX
  8
1
  6
CONTINUOUS
 62
     7
  5
27D
 10
111.363083
 20
-306.28775
 30
0.0
  0
SEQEND
  8
1
  6
CONTINUOUS
 62
     7
  5
27E
  0
POLYLINE
  8
1
  6
CONTINUOUS
 62
     7
  5
27F
 66
     1
 10
0.0
 20
0.0
 30
0.0
 70
     1
  0
VERTEX
  8
1
  6
CONTINUOUS
 62
     7
  5
280
 10
112.177333
 20
-294.961167
 30
0.0
  0
VERTEX
  8
1
  6
CONTINUOUS
 62
     7
  5
281
 10
112.386833
 20
-293.475833
 30
0.0
  0
VERTEX
  8
1
  6
CONTINUOUS
 62
     7
  5
282
 10
113.872
 20
-293.685333
 30
0.0
  0
VERTEX
  8
1
  6
CONTINUOUS
 62
     7
  5
283
 10
113.6625
 20
-295.170667
 30
0.0
  0
VERTEX
  8
1
  6
CONTINUOUS
 62
     7
  5
284
 10
113.662667
 20
-295.170583
 30
0.0
  0
VERTEX
  8
1
  6
CONTINUOUS
 62
     7
  5
285
 10
112.177333
 20
-294.961167
 30
0.0
  0
SEQEND
  8
1
  6
CONTINUOUS
 62
     7
  5
286
  0
POLYLINE
  8
1
  6
CONTINUOUS
 62
     7
  5
287
 66
     1
 10
0.0
 20
0.0
 30
0.0
 70
     1
  0
VERTEX
  8
1
  6
CONTINUOUS
 62
     7
  5
288
 10
100.295
 20
-293.285167
 30
0.0
  0
VERTEX
  8
1
  6
CONTINUOUS
 62
     7
  5
289
 10
100.5045
 20
-291.799833
 30
0.0
  0
VERTEX
  8
1
  6
CONTINUOUS
 62
     7
  5
28A
 10
101.989667
 20
-292.009333
 30
0.0
  0
VERTEX
  8
1
  6
CONTINUOUS
 62
     7
  5
28B
 10
101.780167
 20
-293.494667
 30
0.0
  0
VERTEX
  8
1
  6
CONTINUOUS
 62
     7
  5
28C
 10
101.780333
 20
-293.494583
 30
0.0
  0
VERTEX
  8
1
  6
CONTINUOUS
 62
     7
  5
28D
 10
100.295
 20
-293.285167
 30
0.0
  0
SEQEND
  8
1
  6
CONTINUOUS
 62
     7
  5
28E
  0
POLYLINE
  8
1
  6
CONTINUOUS
 62
     7
  5
28F
 66
     1
 10
0.0
 20
0.0
 30
0.0
 70
     1
  0
VERTEX
  8
1
  6
CONTINUOUS
 62
     7
  5
290
 10
88.412667
 20
-291.609167
 30
0.0
  0
VERTEX
  8
1
  6
CONTINUOUS
 62
     7
  5
291
 10
88.622167
 20
-290.123833
 30
0.0
  0
VERTEX
  8
1
  6
CONTINUOUS
 62
     7
  5
292
 10
90.107333
 20
-290.333333
 30
0.0
  0
VERTEX
  8
1
  6
CONTINUOUS
 62
     7
  5
293
 10
89.897833
 20
-291.818667
 30
0.0
  0
VERTEX
  8
1
  6
CONTINUOUS
 62
     7
  5
294
 10
89.898
 20
-291.818583
 30
0.0
  0
VERTEX
  8
1
  6
CONTINUOUS
 62
     7
  5
295
 10
88.412667
 20
-291.609167
 30
0.0
  0
SEQEND
  8
1
  6
CONTINUOUS
 62
     7
  5
296
  0
POLYLINE
  8
1
  6
CONTINUOUS
 62
     7
  5
297
 66
     1
 10
0.0
 20
0.0
 30
0.0
 70
     1
  0
VERTEX
  8
1
  6
CONTINUOUS
 62
     7
  5
298
 10
76.530333
 20
-289.933167
 30
0.0
  0
VERTEX
  8
1
  6
CONTINUOUS
 62
     7
  5
299
 10
76.739833
 20
-288.447833
 30
0.0
  0
VERTEX
  8
1
  6
CONTINUOUS
 62
     7
  5
29A
 10
78.225
 20
-288.657333
 30
0.0
  0
VERTEX
  8
1
  6
CONTINUOUS
 62
     7
  5
29B
 10
78.0155
 20
-290.142667
 30
0.0
  0
VERTEX
  8
1
  6
CONTINUOUS
 62
     7
  5
29C
 10
78.015667
 20
-290.142583
 30
0.0
  0
VERTEX
  8
1
  6
CONTINUOUS
 62
     7
  5
29D
 10
76.530333
 20
-289.933167
 30
0.0
  0
SEQEND
  8
1
  6
CONTINUOUS
 62
     7
  5
29E
  0
POLYLINE
  8
1
  6
CONTINUOUS
 62
     7
  5
29F
 66
     1
 10
0.0
 20
0.0
 30
0.0
 70
     1
  0
VERTEX
  8
1
  6
CONTINUOUS
 62
     7
  5
2A0
 10
64.648
 20
-288.257167
 30
0.0
  0
VERTEX
  8
1
  6
CONTINUOUS
 62
     7
  5
2A1
 10
64.8575
 20
-286.771833
 30
0.0
  0
VERTEX
  8
1
  6
CONTINUOUS
 62
     7
  5
2A2
 10
66.342667
 20
-286.981333
 30
0.0
  0
VERTEX
  8
1
  6
CONTINUOUS
 62
     7
  5
2A3
 10
66.133167
 20
-288.466667
 30
0.0
  0
VERTEX
  8
1
  6
CONTINUOUS
 62
     7
  5
2A4
 10
66.133333
 20
-288.466583
 30
0.0
  0
VERTEX
  8
1
  6
CONTINUOUS
 62
     7
  5
2A5
 10
64.648
 20
-288.257167
 30
0.0
  0
SEQEND
  8
1
  6
CONTINUOUS
 62
     7
  5
2A6
  0
POLYLINE
  8
1
  6
CONTINUOUS
 62
     7
  5
2A7
 66
     1
 10
0.0
 20
0.0
 30
0.0
 70
     1
  0
VERTEX
  8
1
  6
CONTINUOUS
 62
     7
  5
2A8
 10
124.269167
 20
-295.151833
 30
0.0
  0
VERTEX
  8
1
  6
CONTINUOUS
 62
     7
  5
2A9
 10
125.754333
 20
-295.361333
 30
0.0
  0
VERTEX
  8
1
  6
CONTINUOUS
 62
     7
  5
2AA
 10
125.544833
 20
-296.846667
 30
0.0
  0
VERTEX
  8
1
  6
CONTINUOUS
 62
     7
  5
2AB
 10
125.545
 20
-296.846583
 30
0.0
  0
VERTEX
  8
1
  6
CONTINUOUS
 62
     7
  5
2AC
 10
124.059667
 20
-296.637167
 30
0.0
  0
VERTEX
  8
1
  6
CONTINUOUS
 62
     7
  5
2AD
 10
124.269167
 20
-295.151833
 30
0.0
  0
SEQEND
  8
1
  6
CONTINUOUS
 62
     7
  5
2AE
  0
POLYLINE
  8
1
  6
CONTINUOUS
 62
     7
  5
2AF
 66
     1
 10
0.0
 20
0.0
 30
0.0
 70
     1
  0
VERTEX
  8
1
  6
CONTINUOUS
 62
     7
  5
2B0
 10
136.1515
 20
-296.827833
 30
0.0
  0
VERTEX
  8
1
  6
CONTINUOUS
 62
     7
  5
2B1
 10
137.636667
 20
-297.037333
 30
0.0
  0
VERTEX
  8
1
  6
CONTINUOUS
 62
     7
  5
2B2
 10
137.427167
 20
-298.522667
 30
0.0
  0
VERTEX
  8
1
  6
CONTINUOUS
 62
     7
  5
2B3
 10
137.427333
 20
-298.522583
 30
0.0
  0
VERTEX
  8
1
  6
CONTINUOUS
 62
     7
  5
2B4
 10
135.942
 20
-298.313167
 30
0.0
  0
VERTEX
  8
1
  6
CONTINUOUS
 62
     7
  5
2B5
 10
136.1515
 20
-296.827833
 30
0.0
  0
SEQEND
  8
1
  6
CONTINUOUS
 62
     7
  5
2B6
  0
POLYLINE
  8
1
  6
CONTINUOUS
 62
     7
  5
2B7
 66
     1
 10
0.0
 20
0.0
 30
0.0
 70
     1
  0
VERTEX
  8
1
  6
CONTINUOUS
 62
     7
  5
2B8
 10
148.033833
 20
-298.503833
 30
0.0
  0
VERTEX
  8
1
  6
CONTINUOUS
 62
     7
  5
2B9
 10
149.519
 20
-298.713333
 30
0.0
  0
VERTEX
  8
1
  6
CONTINUOUS
 62
     7
  5
2BA
 10
149.3095
 20
-300.198667
 30
0.0
  0
VERTEX
  8
1
  6
CONTINUOUS
 62
     7
  5
2BB
 10
149.309667
 20
-300.198583
 30
0.0
  0
VERTEX
  8
1
  6
CONTINUOUS
 62
     7
  5
2BC
 10
147.824333
 20
-299.989167
 30
0.0
  0
VERTEX
  8
1
  6
CONTINUOUS
 62
     7
  5
2BD
 10
148.033833
 20
-298.503833
 30
0.0
  0
SEQEND
  8
1
  6
CONTINUOUS
 62
     7
  5
2BE
  0
POLYLINE
  8
1
  6
CONTINUOUS
 62
     7
  5
2BF
 66
     1
 10
0.0
 20
0.0
 30
0.0
 70
     1
  0
VERTEX
  8
1
  6
CONTINUOUS
 62
     7
  5
2C0
 10
159.916167
 20
-300.179833
 30
0.0
  0
VERTEX
  8
1
  6
CONTINUOUS
 62
     7
  5
2C1
 10
161.401333
 20
-300.389333
 30
0.0
  0
VERTEX
  8
1
  6
CONTINUOUS
 62
     7
  5
2C2
 10
161.191833
 20
-301.874667
 30
0.0
  0
VERTEX
  8
1
  6
CONTINUOUS
 62
     7
  5
2C3
 10
161.192
 20
-301.874583
 30
0.0
  0
VERTEX
  8
1
  6
CONTINUOUS
 62
     7
  5
2C4
 10
159.706667
 20
-301.665167
 30
0.0
  0
VERTEX
  8
1
  6
CONTINUOUS
 62
     7
  5
2C5
 10
159.916167
 20
-300.179833
 30
0.0
  0
SEQEND
  8
1
  6
CONTINUOUS
 62
     7
  5
2C6
  0
POLYLINE
  8
1
  6
CONTINUOUS
 62
     7
  5
2C7
 66
     1
 10
0.0
 20
0.0
 30
0.0
 70
     1
  0
VERTEX
  8
1
  6
CONTINUOUS
 62
     7
  5
2C8
 10
173.283667
 20
-302.065333
 30
0.0
  0
VERTEX
  8
1
  6
CONTINUOUS
 62
     7
  5
2C9
 10
171.7985
 20
-301.855833
 30
0.0
  0
VERTEX
  8
1
  6
CONTINUOUS
 62
     7
  5
2CA
 10
171.589
 20
-303.341167
 30
0.0
  0
VERTEX
  8
1
  6
CONTINUOUS
 62
     7
  5
2CB
 10
173.074333
 20
-303.550583
 30
0.0
  0
VERTEX
  8
1
  6
CONTINUOUS
 62
     7
  5
2CC
 10
173.074167
 20
-303.550667
 30
0.0
  0
VERTEX
  8
1
  6
CONTINUOUS
 62
     7
  5
2CD
 10
173.283667
 20
-302.065333
 30
0.0
  0
SEQEND
  8
1
  6
CONTINUOUS
 62
     7
  5
2CE
  0
POLYLINE
  8
1
  6
CONTINUOUS
 62
     7
  5
2CF
 66
     1
 10
0.0
 20
0.0
 30
0.0
 70
     1
  0
VERTEX
  8
1
  6
CONTINUOUS
 62
     7
  5
2D0
 10
188.136667
 20
-304.160333
 30
0.0
  0
VERTEX
  8
1
  6
CONTINUOUS
 62
     7
  5
2D1
 10
189.621833
 20
-304.369833
 30
0.0
  0
VERTEX
  8
1
  6
CONTINUOUS
 62
     7
  5
2D2
 10
189.4125
 20
-305.855083
 30
0.0
  0
VERTEX
  8
1
  6
CONTINUOUS
 62
     7
  5
2D3
 10
187.927167
 20
-305.645667
 30
0.0
  0
VERTEX
  8
1
  6
CONTINUOUS
 62
     7
  5
2D4
 10
188.136667
 20
-304.160333
 30
0.0
  0
SEQEND
  8
1
  6
CONTINUOUS
 62
     7
  5
2D5
  0
POLYLINE
  8
1
  6
CONTINUOUS
 62
     7
  5
2D6
 66
     1
 10
0.0
 20
0.0
 30
0.0
 70
     1
  0
VERTEX
  8
1
  6
CONTINUOUS
 62
     7
  5
2D7
 10
172.869917
 20
-307.49
 30
0.0
  0
VERTEX
  8
1
  6
CONTINUOUS
 62
     7
  5
2D8
 10
171.369917
 20
-307.497417
 30
0.0
  0
VERTEX
  8
1
  6
CONTINUOUS
 62
     7
  5
2D9
 10
171.362667
 20
-305.997333
 30
0.0
  0
VERTEX
  8
1
  6
CONTINUOUS
 62
     7
  5
2DA
 10
172.8625
 20
-305.990167
 30
0.0
  0
VERTEX
  8
1
  6
CONTINUOUS
 62
     7
  5
2DB
 10
172.862667
 20
-305.989917
 30
0.0
  0
VERTEX
  8
1
  6
CONTINUOUS
 62
     7
  5
2DC
 10
172.869917
 20
-307.49
 30
0.0
  0
SEQEND
  8
1
  6
CONTINUOUS
 62
     7
  5
2DD
  0
POLYLINE
  8
1
  6
CONTINUOUS
 62
     7
  5
2DE
 66
     1
 10
0.0
 20
0.0
 30
0.0
 70
     1
  0
VERTEX
  8
1
  6
CONTINUOUS
 62
     7
  5
2DF
 10
159.37
 20
-307.5555
 30
0.0
  0
VERTEX
  8
1
  6
CONTINUOUS
 62
     7
  5
2E0
 10
160.87
 20
-307.548083
 30
0.0
  0
VERTEX
  8
1
  6
CONTINUOUS
 62
     7
  5
2E1
 10
160.86275
 20
-306.048
 30
0.0
  0
VERTEX
  8
1
  6
CONTINUOUS
 62
     7
  5
2E2
 10
160.862583
 20
-306.04825
 30
0.0
  0
VERTEX
  8
1
  6
CONTINUOUS
 62
     7
  5
2E3
 10
159.36275
 20
-306.055417
 30
0.0
  0
VERTEX
  8
1
  6
CONTINUOUS
 62
     7
  5
2E4
 10
159.37
 20
-307.5555
 30
0.0
  0
SEQEND
  8
1
  6
CONTINUOUS
 62
     7
  5
2E5
  0
POLYLINE
  8
1
  6
CONTINUOUS
 62
     7
  5
2E6
 66
     1
 10
0.0
 20
0.0
 30
0.0
 70
     1
  0
VERTEX
  8
1
  6
CONTINUOUS
 62
     7
  5
2E7
 10
148.870083
 20
-307.606167
 30
0.0
  0
VERTEX
  8
1
  6
CONTINUOUS
 62
     7
  5
2E8
 10
147.370083
 20
-307.613583
 30
0.0
  0
VERTEX
  8
1
  6
CONTINUOUS
 62
     7
  5
2E9
 10
147.362833
 20
-306.1135
 30
0.0
  0
VERTEX
  8
1
  6
CONTINUOUS
 62
     7
  5
2EA
 10
148.862667
 20
-306.106333
 30
0.0
  0
VERTEX
  8
1
  6
CONTINUOUS
 62
     7
  5
2EB
 10
148.862833
 20
-306.106083
 30
0.0
  0
VERTEX
  8
1
  6
CONTINUOUS
 62
     7
  5
2EC
 10
148.870083
 20
-307.606167
 30
0.0
  0
SEQEND
  8
1
  6
CONTINUOUS
 62
     7
  5
2ED
  0
POLYLINE
  8
1
  6
CONTINUOUS
 62
     7
  5
2EE
 66
     1
 10
0.0
 20
0.0
 30
0.0
 70
     1
  0
VERTEX
  8
1
  6
CONTINUOUS
 62
     7
  5
2EF
 10
135.370167
 20
-307.671667
 30
0.0
  0
VERTEX
  8
1
  6
CONTINUOUS
 62
     7
  5
2F0
 10
136.870167
 20
-307.66425
 30
0.0
  0
VERTEX
  8
1
  6
CONTINUOUS
 62
     7
  5
2F1
 10
136.862917
 20
-306.164167
 30
0.0
  0
VERTEX
  8
1
  6
CONTINUOUS
 62
     7
  5
2F2
 10
136.86275
 20
-306.164417
 30
0.0
  0
VERTEX
  8
1
  6
CONTINUOUS
 62
     7
  5
2F3
 10
135.362917
 20
-306.171583
 30
0.0
  0
VERTEX
  8
1
  6
CONTINUOUS
 62
     7
  5
2F4
 10
135.370167
 20
-307.671667
 30
0.0
  0
SEQEND
  8
1
  6
CONTINUOUS
 62
     7
  5
2F5
  0
POLYLINE
  8
1
  6
CONTINUOUS
 62
     7
  5
2F6
 66
     1
 10
0.0
 20
0.0
 30
0.0
 70
     1
  0
VERTEX
  8
1
  6
CONTINUOUS
 62
     7
  5
2F7
 10
123.37025
 20
-307.72975
 30
0.0
  0
VERTEX
  8
1
  6
CONTINUOUS
 62
     7
  5
2F8
 10
124.87025
 20
-307.722333
 30
0.0
  0
VERTEX
  8
1
  6
CONTINUOUS
 62
     7
  5
2F9
 10
124.863
 20
-306.22225
 30
0.0
  0
VERTEX
  8
1
  6
CONTINUOUS
 62
     7
  5
2FA
 10
124.862833
 20
-306.2225
 30
0.0
  0
VERTEX
  8
1
  6
CONTINUOUS
 62
     7
  5
2FB
 10
123.363
 20
-306.229667
 30
0.0
  0
VERTEX
  8
1
  6
CONTINUOUS
 62
     7
  5
2FC
 10
123.37025
 20
-307.72975
 30
0.0
  0
SEQEND
  8
1
  6
CONTINUOUS
 62
     7
  5
2FD
  0
POLYLINE
  8
1
  6
CONTINUOUS
 62
     7
  5
2FE
 66
     1
 10
0.0
 20
0.0
 30
0.0
 70
     1
  0
VERTEX
  8
1
  6
CONTINUOUS
 62
     7
  5
2FF
 10
187.850167
 20
-306.752417
 30
0.0
  0
VERTEX
  8
1
  6
CONTINUOUS
 62
     7
  5
300
 10
187.857417
 20
-308.2525
 30
0.0
  0
VERTEX
  8
1
  6
CONTINUOUS
 62
     7
  5
301
 10
189.357417
 20
-308.245083
 30
0.0
  0
VERTEX
  8
1
  6
CONTINUOUS
 62
     7
  5
302
 10
189.35
 20
-306.74525
 30
0.0
  0
VERTEX
  8
1
  6
CONTINUOUS
 62
     7
  5
303
 10
187.850167
 20
-306.752417
 30
0.0
  0
SEQEND
  8
1
  6
CONTINUOUS
 62
     7
  5
304
  0
POLYLINE
  8
1
  6
CONTINUOUS
 62
     7
  5
305
 66
     1
 10
0.0
 20
0.0
 30
0.0
 70
     1
  0
VERTEX
  8
1
  6
CONTINUOUS
 62
     7
  5
306
 10
162.413
 20
-316.011
 30
0.0
  0
VERTEX
  8
1
  6
CONTINUOUS
 62
     7
  5
307
 10
163.913
 20
-316.003583
 30
0.0
  0
VERTEX
  8
1
  6
CONTINUOUS
 62
     7
  5
308
 10
163.90575
 20
-314.5035
 30
0.0
  0
VERTEX
  8
1
  6
CONTINUOUS
 62
     7
  5
309
 10
163.905583
 20
-314.50375
 30
0.0
  0
VERTEX
  8
1
  6
CONTINUOUS
 62
     7
  5
30A
 10
162.40575
 20
-314.510917
 30
0.0
  0
VERTEX
  8
1
  6
CONTINUOUS
 62
     7
  5
30B
 10
162.413
 20
-316.011
 30
0.0
  0
SEQEND
  8
1
  6
CONTINUOUS
 62
     7
  5
30C
  0
POLYLINE
  8
1
  6
CONTINUOUS
 62
     7
  5
30D
 66
     1
 10
0.0
 20
0.0
 30
0.0
 70
     1
  0
VERTEX
  8
1
  6
CONTINUOUS
 62
     7
  5
30E
 10
225.413
 20
-316.011
 30
0.0
  0
VERTEX
  8
1
  6
CONTINUOUS
 62
     7
  5
30F
 10
226.913
 20
-316.003583
 30
0.0
  0
VERTEX
  8
1
  6
CONTINUOUS
 62
     7
  5
310
 10
226.90575
 20
-314.5035
 30
0.0
  0
VERTEX
  8
1
  6
CONTINUOUS
 62
     7
  5
311
 10
226.905583
 20
-314.50375
 30
0.0
  0
VERTEX
  8
1
  6
CONTINUOUS
 62
     7
  5
312
 10
225.40575
 20
-314.510917
 30
0.0
  0
VERTEX
  8
1
  6
CONTINUOUS
 62
     7
  5
313
 10
225.413
 20
-316.011
 30
0.0
  0
SEQEND
  8
1
  6
CONTINUOUS
 62
     7
  5
314
  0
POLYLINE
  8
1
  6
CONTINUOUS
 62
     7
  5
315
 66
     1
 10
0.0
 20
0.0
 30
0.0
 70
     1
  0
VERTEX
  8
1
  6
CONTINUOUS
 62
     7
  5
316
 10
99.413
 20
-316.011
 30
0.0
  0
VERTEX
  8
1
  6
CONTINUOUS
 62
     7
  5
317
 10
100.913
 20
-316.003583
 30
0.0
  0
VERTEX
  8
1
  6
CONTINUOUS
 62
     7
  5
318
 10
100.90575
 20
-314.5035
 30
0.0
  0
VERTEX
  8
1
  6
CONTINUOUS
 62
     7
  5
319
 10
100.905583
 20
-314.50375
 30
0.0
  0
VERTEX
  8
1
  6
CONTINUOUS
 62
     7
  5
31A
 10
99.40575
 20
-314.510917
 30
0.0
  0
VERTEX
  8
1
  6
CONTINUOUS
 62
     7
  5
31B
 10
99.413
 20
-316.011
 30
0.0
  0
SEQEND
  8
1
  6
CONTINUOUS
 62
     7
  5
31C
  0
POLYLINE
  8
1
  6
CONTINUOUS
 62
     7
  5
31D
 66
     1
 10
0.0
 20
0.0
 30
0.0
 70
     1
  0
VERTEX
  8
1
  6
CONTINUOUS
 62
     7
  5
31E
 10
31.608917
 20
-257.954583
 30
0.0
  0
VERTEX
  8
1
  6
CONTINUOUS
 62
     7
  5
31F
 10
33.108917
 20
-257.947167
 30
0.0
  0
VERTEX
  8
1
  6
CONTINUOUS
 62
     7
  5
320
 10
33.101667
 20
-256.447083
 30
0.0
  0
VERTEX
  8
1
  6
CONTINUOUS
 62
     7
  5
321
 10
33.1015
 20
-256.447333
 30
0.0
  0
VERTEX
  8
1
  6
CONTINUOUS
 62
     7
  5
322
 10
31.601667
 20
-256.4545
 30
0.0
  0
VERTEX
  8
1
  6
CONTINUOUS
 62
     7
  5
323
 10
31.608917
 20
-257.954583
 30
0.0
  0
SEQEND
  8
1
  6
CONTINUOUS
 62
     7
  5
324
  0
POLYLINE
  8
1
  6
CONTINUOUS
 62
     7
  5
325
 66
     1
 10
0.0
 20
0.0
 30
0.0
 70
     1
  0
VERTEX
  8
1
  6
CONTINUOUS
 62
     7
  5
326
 10
31.34475
 20
-244.337
 30
0.0
  0
VERTEX
  8
1
  6
CONTINUOUS
 62
     7
  5
327
 10
32.84475
 20
-244.329583
 30
0.0
  0
VERTEX
  8
1
  6
CONTINUOUS
 62
     7
  5
328
 10
32.8375
 20
-242.8295
 30
0.0
  0
VERTEX
  8
1
  6
CONTINUOUS
 62
     7
  5
329
 10
32.837333
 20
-242.82975
 30
0.0
  0
VERTEX
  8
1
  6
CONTINUOUS
 62
     7
  5
32A
 10
31.3375
 20
-242.836917
 30
0.0
  0
VERTEX
  8
1
  6
CONTINUOUS
 62
     7
  5
32B
 10
31.34475
 20
-244.337
 30
0.0
  0
SEQEND
  8
1
  6
CONTINUOUS
 62
     7
  5
32C
  0
TEXT
  8
1
  6
CONTINUOUS
 62
     7
  5
32D
 10
19.142167
 20
-296.030667
 30
0.0
 40
2.5
  1
SEE NOTE 2
  7
MONOTXT
210
0.0
220
0.0
230
1.0
  0
LINE
  8
1
  6
CONTINUOUS
 62
     7
  5
32E
 10
60.00375
 20
-296.367833
 30
0.0
 11
77.5915
 21
-284.603833
 31
0.0
  0
TEXT
  8
1
  6
CONTINUOUS
 62
     7
  5
32F
 10
50.336917
 20
-279.48275
 30
0.0
 40
2.5
  1
EXISTING
 50
352.558289
  7
MONOTXT
210
0.0
220
0.0
230
1.0
  0
TEXT
  8
1
  6
CONTINUOUS
 62
     7
  5
330
 10
49.754083
 20
-283.944833
 30
0.0
 40
2.5
  1
EXIT SIGN
 50
352.558289
  7
MONOTXT
210
0.0
220
0.0
230
1.0
  0
LINE
  8
1
  6
CONTINUOUS
 62
     7
  5
331
 10
77.5915
 20
-284.603833
 30
0.0
 11
67.213083
 21
-280.634333
 31
0.0
  0
LINE
  8
1
  6
CONTINUOUS
 62
     7
  5
332
 10
83.46675
 20
-298.100417
 30
0.0
 11
94.545
 21
-311.43425
 31
0.0
  0
TEXT
  8
1
  6
CONTINUOUS
 62
     7
  5
333
 10
101.459083
 20
-312.691833
 30
0.0
 40
2.5
  1
PHYSICAL GORE
  7
MONOTXT
210
0.0
220
0.0
230
1.0
  0
LINE
  8
1
  6
CONTINUOUS
 62
     7
  5
334
 10
94.545
 20
-311.43425
 30
0.0
 11
100.486917
 21
-311.43425
 31
0.0
  0
INSERT
  8
1
  6
CONTINUOUS
 62
     1
  5
335
  2
LDR
 10
83.46675
 20
-298.100417
 30
0.0
 41
240.000003
 42
240.000003
 50
129.721077
210
0.0
220
0.0
230
1.0
  0
INSERT
  8
1
  6
CONTINUOUS
 62
     1
  5
336
  2
LDR
 10
60.00375
 20
-296.367833
 30
0.0
 41
239.999998
 42
239.999998
 50
213.77756
210
0.0
220
0.0
230
1.0
  0
LINE
  8
1
  6
CONTINUOUS
 62
     7
  5
337
 10
125.940833
 20
-288.742667
 30
0.0
 11
137.840333
 21
-290.296917
 31
0.0
  0
LINE
  8
1
  6
CONTINUOUS
 62
     7
  5
338
 10
125.750583
 20
-290.018417
 30
0.0
 11
126.070417
 21
-287.751167
 31
0.0
  0
LINE
  8
1
  6
CONTINUOUS
 62
     7
  5
339
 10
125.151417
 20
-294.266333
 30
0.0
 11
125.47125
 21
-291.998917
 31
0.0
  0
LINE
  8
1
  6
CONTINUOUS
 62
     7
  5
33A
 10
125.541083
 20
-291.503833
 30
0.0
 11
125.68075
 21
-290.513583
 31
0.0
  0
LINE
  8
1
  6
CONTINUOUS
 62
     7
  5
33B
 10
137.6415
 20
-291.633583
 30
0.0
 11
137.969917
 21
-289.305417
 31
0.0
  0
LINE
  8
1
  6
CONTINUOUS
 62
     7
  5
33C
 10
137.03375
 20
-295.942333
 30
0.0
 11
137.362167
 21
-293.614083
 31
0.0
  0
LINE
  8
1
  6
CONTINUOUS
 62
     7
  5
33D
 10
137.432
 20
-293.119
 30
0.0
 11
137.571667
 21
-292.12875
 31
0.0
  0
INSERT
  8
1
  6
CONTINUOUS
 62
     1
  5
33E
  2
LDR
 10
125.940833
 20
-288.742667
 30
0.0
 41
240.0
 42
240.0
 50
172.558454
210
0.0
220
0.0
230
1.0
  0
INSERT
  8
1
  6
CONTINUOUS
 62
     1
  5
33F
  2
LDR
 10
125.940833
 20
-288.742667
 30
0.0
 41
240.0
 42
240.0
 50
172.558454
210
0.0
220
0.0
230
1.0
  0
INSERT
  8
1
  6
CONTINUOUS
 62
     1
  5
340
  2
LDR
 10
137.840333
 20
-290.296917
 30
0.0
 41
240.0
 42
240.0
 50
352.558454
210
0.0
220
0.0
230
1.0
  0
TEXT
  8
1
  6
CONTINUOUS
 62
     7
  5
341
 10
130.292333
 20
-289.0835
 30
0.0
 40
2.5
  1
12'
 50
352.558456
  7
MONOTXT
210
0.0
220
0.0
230
1.0
  0
TEXT
  8
1
  6
CONTINUOUS
 62
     7
  5
342
 10
128.16325
 20
-291.919833
 30
0.0
 40
2.5
  1
c/c
 50
352.558456
  7
MONOTXT
 11
128.487037
 21
-289.44089
 31
0.0
210
0.0
220
0.0
230
1.0
 73
     3
  0
LINE
  8
1
  6
CONTINUOUS
 62
     7
  5
343
 10
136.120167
 20
-308.668
 30
0.0
 11
136.120167
 21
-310.418
 31
0.0
  0
LINE
  8
1
  6
CONTINUOUS
 62
     7
  5
344
 10
136.120167
 20
-310.918
 30
0.0
 11
136.120167
 21
-311.918
 31
0.0
  0
LINE
  8
1
  6
CONTINUOUS
 62
     7
  5
345
 10
136.120167
 20
-312.418
 30
0.0
 11
136.120167
 21
-314.168
 31
0.0
  0
LINE
  8
1
  6
CONTINUOUS
 62
     7
  5
346
 10
148.120083
 20
-308.609917
 30
0.0
 11
148.120083
 21
-310.418
 31
0.0
  0
LINE
  8
1
  6
CONTINUOUS
 62
     7
  5
347
 10
148.120083
 20
-310.918
 30
0.0
 11
148.120083
 21
-311.918
 31
0.0
  0
LINE
  8
1
  6
CONTINUOUS
 62
     7
  5
348
 10
148.120083
 20
-312.418
 30
0.0
 11
148.120083
 21
-314.168
 31
0.0
  0
LINE
  8
1
  6
CONTINUOUS
 62
     7
  5
349
 10
136.120167
 20
-313.168
 30
0.0
 11
148.120083
 21
-313.168
 31
0.0
  0
INSERT
  8
1
  6
CONTINUOUS
 62
     1
  5
34A
  2
LDR
 10
136.120167
 20
-313.168
 30
0.0
 41
240.0
 42
240.0
 50
180.0
210
0.0
220
0.0
230
1.0
  0
INSERT
  8
1
  6
CONTINUOUS
 62
     1
  5
34B
  2
LDR
 10
136.120167
 20
-313.168
 30
0.0
 41
240.0
 42
240.0
 50
180.0
210
0.0
220
0.0
230
1.0
  0
INSERT
  8
1
  6
CONTINUOUS
 62
     1
  5
34C
  2
LDR
 10
148.120083
 20
-313.168
 30
0.0
 41
240.0
 42
240.0
210
0.0
220
0.0
230
1.0
  0
INSERT
  8
1
  6
CONTINUOUS
 62
     1
  5
34D
  2
LDR
 10
148.120083
 20
-313.168
 30
0.0
 41
240.0
 42
240.0
210
0.0
220
0.0
230
1.0
  0
TEXT
  8
1
  6
CONTINUOUS
 62
     7
  5
34E
 10
140.086
 20
-309.516167
 30
0.0
 40
2.5
  1
12'
  7
MONOTXT
 72
     4
 11
142.084
 21
-308.266167
 31
0.0
210
0.0
220
0.0
230
1.0
  0
TEXT
  8
1
  6
CONTINUOUS
 62
     7
  5
34F
 10
139.091833
 20
-313.016167
 30
0.0
 40
2.5
  1
c/c
  7
MONOTXT
 72
     4
 11
142.09375
 21
-311.766167
 31
0.0
210
0.0
220
0.0
230
1.0
  0
LINE
  8
1
  6
CONTINUOUS
 62
     7
  5
350
 10
48.58725
 20
-295.64
 30
0.0
 11
43.397833
 21
-295.273917
 31
0.0
  0
LINE
  8
1
  6
CONTINUOUS
 62
     7
  5
351
 10
48.58725
 20
-295.64
 30
0.0
 11
53.508333
 21
-286.685917
 31
0.0
  0
LINE
  8
1
  6
CONTINUOUS
 62
     7
  5
352
 10
48.58725
 20
-295.64
 30
0.0
 11
52.113417
 21
-306.574583
 31
0.0
  0
INSERT
  8
1
  6
CONTINUOUS
 62
     1
  5
353
  2
LDR
 10
53.508333
 20
-286.685917
 30
0.0
 41
239.999999
 42
239.999999
 50
61.207202
210
0.0
220
0.0
230
1.0
  0
INSERT
  8
1
  6
CONTINUOUS
 62
     1
  5
354
  2
LDR
 10
53.508333
 20
-286.685917
 30
0.0
 41
239.999999
 42
239.999999
 50
61.207202
210
0.0
220
0.0
230
1.0
  0
INSERT
  8
1
  6
CONTINUOUS
 62
     1
  5
355
  2
LDR
 10
52.113417
 20
-306.574583
 30
0.0
 41
240.000001
 42
240.000001
 50
287.873389
210
0.0
220
0.0
230
1.0
  0
LINE
  8
1
  6
CONTINUOUS
 62
     7
  5
356
 10
52.12075
 20
-309.074583
 30
0.0
 11
52.12075
 21
-314.074583
 31
0.0
  0
LINE
  8
1
  6
CONTINUOUS
 62
     7
  5
357
 10
52.12075
 20
-314.574583
 30
0.0
 11
52.12075
 21
-315.5745
 31
0.0
  0
LINE
  8
1
  6
CONTINUOUS
 62
     7
  5
358
 10
52.12075
 20
-316.0745
 30
0.0
 11
52.12075
 21
-321.074583
 31
0.0
  0
LINE
  8
1
  6
CONTINUOUS
 62
     7
  5
359
 10
188.607417
 20
-309.248833
 30
0.0
 11
188.607417
 21
-314.248833
 31
0.0
  0
LINE
  8
1
  6
CONTINUOUS
 62
     7
  5
35A
 10
188.607417
 20
-314.748833
 30
0.0
 11
188.607417
 21
-315.74875
 31
0.0
  0
LINE
  8
1
  6
CONTINUOUS
 62
     7
  5
35B
 10
188.607417
 20
-316.24875
 30
0.0
 11
188.607417
 21
-321.074583
 31
0.0
  0
LINE
  8
1
  6
CONTINUOUS
 62
     7
  5
35C
 10
52.12075
 20
-320.074583
 30
0.0
 11
188.607417
 21
-320.074583
 31
0.0
  0
INSERT
  8
1
  6
CONTINUOUS
 62
     1
  5
35D
  2
LDR
 10
52.12075
 20
-320.074583
 30
0.0
 41
240.0
 42
240.0
 50
180.0
210
0.0
220
0.0
230
1.0
  0
INSERT
  8
1
  6
CONTINUOUS
 62
     1
  5
35E
  2
LDR
 10
52.12075
 20
-320.074583
 30
0.0
 41
240.0
 42
240.0
 50
180.0
210
0.0
220
0.0
230
1.0
  0
INSERT
  8
1
  6
CONTINUOUS
 62
     1
  5
35F
  2
LDR
 10
188.607417
 20
-320.074583
 30
0.0
 41
240.0
 42
240.0
210
0.0
220
0.0
230
1.0
  0
TEXT
  8
1
  6
CONTINUOUS
 62
     7
  5
360
 10
107.64025
 20
-319.651167
 30
0.0
 40
2.5
  1
VARIABLE
  7
MONOTXT
210
0.0
220
0.0
230
1.0
  0
LINE
  8
1
  6
CONTINUOUS
 62
     7
  5
361
 10
189.6
 20
-306.24525
 30
0.0
 11
193.6
 21
-306.24525
 31
0.0
  0
LINE
  8
1
  6
CONTINUOUS
 62
     7
  5
362
 10
192.6
 20
-306.24525
 30
0.0
 11
192.6
 21
-294.42425
 31
0.0
  0
INSERT
  8
1
  6
CONTINUOUS
 62
     1
  5
363
  2
LDR
 10
192.6
 20
-294.42425
 30
0.0
 41
240.0
 42
240.0
 50
90.0
210
0.0
220
0.0
230
1.0
  0
INSERT
  8
1
  6
CONTINUOUS
 62
     1
  5
364
  2
LDR
 10
192.6
 20
-294.42425
 30
0.0
 41
240.0
 42
240.0
 50
90.0
210
0.0
220
0.0
230
1.0
  0
INSERT
  8
1
  6
CONTINUOUS
 62
     1
  5
365
  2
LDR
 10
192.6
 20
-306.24525
 30
0.0
 41
240.0
 42
240.0
 50
270.0
210
0.0
220
0.0
230
1.0
  0
TEXT
  8
1
  6
CONTINUOUS
 62
     7
  5
366
 10
193.232167
 20
-301.516417
 30
0.0
 40
2.5
  1
16'
  7
MONOTXT
210
0.0
220
0.0
230
1.0
  0
LINE
  8
1
  6
CONTINUOUS
 62
     7
  5
367
 10
188.6
 20
-306.24525
 30
0.0
 11
217.65125
 21
-318.722
 31
0.0
  0
TEXT
  8
1
  6
CONTINUOUS
 62
     7
  5
368
 10
218.760917
 20
-319.3905
 30
0.0
 40
2.5
  1
BEGIN MARKINGS AT
  7
MONOTXT
 11
218.760917
 21
-316.8905
 31
0.0
210
0.0
220
0.0
230
1.0
 73
     3
  0
TEXT
  8
1
  6
CONTINUOUS
 62
     7
  5
369
 10
218.760917
 20
-322.8905
 30
0.0
 40
2.5
  1
THEORETICAL GORE POINT
  7
MONOTXT
 11
218.760917
 21
-320.3905
 31
0.0
210
0.0
220
0.0
230
1.0
 73
     3
  0
INSERT
  8
1
  6
CONTINUOUS
 62
     1
  5
36A
  2
LDR
 10
188.6
 20
-306.24525
 30
0.0
 41
240.0
 42
240.0
 50
156.757746
210
0.0
220
0.0
230
1.0
  0
INSERT
  8
1
  6
CONTINUOUS
 62
     1
  5
36B
  2
ARO
 10
21.976667
 20
-320.08
 30
0.0
 41
240.0
 42
240.0
 50
180.0
210
0.0
220
0.0
230
1.0
  0
INSERT
  8
1
  6
CONTINUOUS
 62
     1
  5
36C
  2
ARO
 10
153.314167
 20
-294.858917
 30
0.0
 41
240.000002
 42
240.000002
 50
172.80426
210
0.0
220
0.0
230
1.0
  0
INSERT
  8
1
  6
CONTINUOUS
 62
     1
  5
36D
  2
ARO
 10
21.685333
 20
-310.465083
 30
0.0
 41
240.0
 42
240.0
 50
180.0
210
0.0
220
0.0
230
1.0
  0
INSERT
  8
1
  6
CONTINUOUS
 62
     1
  5
36E
  2
ARO
 10
270.94525
 20
-320.076083
 30
0.0
 41
240.0
 42
240.0
 50
180.0
210
0.0
220
0.0
230
1.0
  0
INSERT
  8
1
  6
CONTINUOUS
 62
     1
  5
36F
  2
ARO
 10
270.653917
 20
-310.461167
 30
0.0
 41
240.0
 42
240.0
 50
180.0
210
0.0
220
0.0
230
1.0
  0
TEXT
  8
1
  6
CONTINUOUS
 62
     7
  5
370
 10
104.139917
 20
-339.275083
 30
0.0
 40
4.0
  1
GORE AREAS: MARKER PLACEMENT
  7
txt
210
0.0
220
0.0
230
1.0
  0
TEXT
  8
1
  6
CONTINUOUS
 62
     7
  5
371
 10
146.819417
 20
-233.05825
 30
0.0
 40
2.5
  1
NOTES:
  7
MONOTXT
 11
146.819417
 21
-230.55825
 31
0.0
210
0.0
220
0.0
230
1.0
 73
     3
  0
TEXT
  8
1
  6
CONTINUOUS
 62
     7
  5
372
 10
146.819417
 20
-237.55825
 30
0.0
 40
2.5
  1
 
  7
MONOTXT
 11
146.819417
 21
-235.05825
 31
0.0
210
0.0
220
0.0
230
1.0
 73
     3
  0
TEXT
  8
1
  6
CONTINUOUS
 62
     7
  5
373
 10
146.819417
 20
-242.05825
 30
0.0
 40
2.5
  1
1.   MARKER PLACEMENT AT GORES ONLY WHEN SPECIFIED.
  7
MONOTXT
 11
146.819417
 21
-239.55825
 31
0.0
210
0.0
220
0.0
230
1.0
 73
     3
  0
TEXT
  8
1
  6
CONTINUOUS
 62
     7
  5
374
 10
146.819417
 20
-246.55825
 30
0.0
 40
2.5
  1
 
  7
MONOTXT
 11
146.819417
 21
-244.05825
 31
0.0
210
0.0
220
0.0
230
1.0
 73
     3
  0
TEXT
  8
1
  6
CONTINUOUS
 62
     7
  5
375
 10
146.819417
 20
-251.05825
 30
0.0
 40
2.5
  1
2  THE SPACING BETWEEN MARKERS IN THE GORE AREA
  7
MONOTXT
 11
146.819417
 21
-248.55825
 31
0.0
210
0.0
220
0.0
230
1.0
 73
     3
  0
TEXT
  8
1
  6
CONTINUOUS
 62
     7
  5
376
 10
146.819417
 20
-255.55825
 30
0.0
 40
2.5
  1
   SHOULD BE APPROXIMATELY 12' APART AND CENTERED
  7
MONOTXT
 11
146.819417
 21
-253.05825
 31
0.0
210
0.0
220
0.0
230
1.0
 73
     3
  0
TEXT
  8
1
  6
CONTINUOUS
 62
     7
  5
377
 10
146.819417
 20
-260.05825
 30
0.0
 40
2.5
  1
   BETWEEN THE STRIPES (IF THEY ARE EXISTING).
  7
MONOTXT
 11
146.819417
 21
-257.55825
 31
0.0
210
0.0
220
0.0
230
1.0
 73
     3
  0
TEXT
  8
1
  6
CONTINUOUS
 62
     7
  5
378
 10
146.819417
 20
-264.55825
 30
0.0
 40
2.5
  1
 
  7
MONOTXT
 11
146.819417
 21
-262.05825
 31
0.0
210
0.0
220
0.0
230
1.0
 73
     3
  0
TEXT
  8
1
  6
CONTINUOUS
 62
     7
  5
379
 10
146.819417
 20
-269.05825
 30
0.0
 40
2.5
  1
3.   END MARKERS APPROXIMATELY 20' BEYOND EXISTING
  7
MONOTXT
 11
146.819417
 21
-266.55825
 31
0.0
210
0.0
220
0.0
230
1.0
 73
     3
  0
TEXT
  8
1
  6
CONTINUOUS
 62
     7
  5
37A
 10
146.819417
 20
-273.55825
 30
0.0
 40
2.5
  1
   EXIT SIGN OR PHYSICAL GORE IF NO SIGN.
  7
MONOTXT
 11
146.819417
 21
-271.05825
 31
0.0
210
0.0
220
0.0
230
1.0
 73
     3
  0
LINE
  8
1
  6
CONTINUOUS
 62
     3
  5
37B
 10
281.294083
 20
-269.025083
 30
0.0
 11
439.661417
 21
-269.025083
 31
0.0
  0
LINE
  8
1
  6
CONTINUOUS
 62
     3
  5
37C
 10
281.304417
 20
-263.014667
 30
0.0
 11
311.3565
 21
-232.962667
 31
0.0
  0
LINE
  8
1
  6
CONTINUOUS
 62
     3
  5
37D
 10
297.385917
 20
-266.025083
 30
0.0
 11
327.101583
 21
-236.309417
 31
0.0
  0
LINE
  8
1
  6
CONTINUOUS
 62
     3
  5
37E
 10
297.385917
 20
-266.025083
 30
0.0
 11
323.385917
 21
-266.025083
 31
0.0
  0
LINE
  8
1
  6
CONTINUOUS
 62
     3
  5
37F
 10
323.385917
 20
-266.025083
 30
0.0
 11
348.543917
 21
-240.867083
 31
0.0
  0
LINE
  8
1
  6
CONTINUOUS
 62
     3
  5
380
 10
342.4775
 20
-266.025083
 30
0.0
 11
364.289
 21
-244.213833
 31
0.0
  0
LINE
  8
1
  6
CONTINUOUS
 62
     3
  5
381
 10
342.4775
 20
-266.025083
 30
0.0
 11
368.47775
 21
-266.025083
 31
0.0
  0
LINE
  8
1
  6
CONTINUOUS
 62
     3
  5
382
 10
368.47775
 20
-266.025083
 30
0.0
 11
385.731333
 21
-248.7715
 31
0.0
  0
LINE
  8
1
  6
CONTINUOUS
 62
     3
  5
383
 10
387.569583
 20
-266.025083
 30
0.0
 11
401.476417
 21
-252.11825
 31
0.0
  0
LINE
  8
1
  6
CONTINUOUS
 62
     3
  5
384
 10
387.569583
 20
-266.025083
 30
0.0
 11
413.569583
 21
-266.025083
 31
0.0
  0
LINE
  8
1
  6
CONTINUOUS
 62
     3
  5
385
 10
413.569583
 20
-266.025083
 30
0.0
 11
422.91875
 21
-256.675917
 31
0.0
  0
LINE
  8
1
  6
CONTINUOUS
 62
     3
  5
386
 10
432.661417
 20
-266.025083
 30
0.0
 11
438.663917
 21
-260.022667
 31
0.0
  0
LINE
  8
1
  6
CONTINUOUS
 62
     3
  5
387
 10
432.661417
 20
-266.025083
 30
0.0
 11
439.661417
 21
-266.025083
 31
0.0
  0
LINE
  8
1
  6
CONTINUOUS
 62
     3
  5
388
 10
311.3565
 20
-232.962667
 30
0.0
 11
285.924667
 21
-227.556833
 31
0.0
  0
LINE
  8
1
  6
CONTINUOUS
 62
     3
  5
389
 10
348.543917
 20
-240.867083
 30
0.0
 11
327.101667
 21
-236.309333
 31
0.0
  0
LINE
  8
1
  6
CONTINUOUS
 62
     3
  5
38A
 10
385.731333
 20
-248.7715
 30
0.0
 11
364.289083
 21
-244.21375
 31
0.0
  0
LINE
  8
1
  6
CONTINUOUS
 62
     3
  5
38B
 10
441.598333
 20
-260.646333
 30
0.0
 11
438.663917
 21
-260.022667
 31
0.0
  0
LINE
  8
1
  6
CONTINUOUS
 62
     3
  5
38C
 10
422.918833
 20
-256.675833
 30
0.0
 11
401.4765
 21
-252.118167
 31
0.0
  0
LINE
  8
1
  6
CONTINUOUS
 62
     3
  5
38D
 10
277.439333
 20
-236.042083
 30
0.0
 11
285.924583
 21
-227.556833
 31
0.0
  0
LINE
  8
1
  6
CONTINUOUS
 62
     3
  5
38E
 10
441.192833
 20
-257.493833
 30
0.0
 11
277.745
 21
-222.751083
 31
0.0
  0
POLYLINE
  8
1
  6
CONTINUOUS
 62
     3
  5
38F
 66
     1
 10
0.0
 20
0.0
 30
0.0
  0
VERTEX
  8
1
  6
CONTINUOUS
 62
     3
  5
390
 10
277.745
 20
-222.751083
 30
0.0
  0
VERTEX
  8
1
  6
CONTINUOUS
 62
     3
  5
391
 10
277.82875
 20
-223.16875
 30
0.0
  0
VERTEX
  8
1
  6
CONTINUOUS
 62
     3
  5
392
 10
278.179
 20
-223.719333
 30
0.0
  0
VERTEX
  8
1
  6
CONTINUOUS
 62
     3
  5
393
 10
277.728667
 20
-224.620333
 30
0.0
  0
VERTEX
  8
1
  6
CONTINUOUS
 62
     3
  5
394
 10
277.778667
 20
-225.321083
 30
0.0
  0
VERTEX
  8
1
  6
CONTINUOUS
 62
     3
  5
395
 10
278.154
 20
-225.99675
 30
0.0
  0
VERTEX
  8
1
  6
CONTINUOUS
 62
     3
  5
396
 10
277.87875
 20
-226.597417
 30
0.0
  0
VERTEX
  8
1
  6
CONTINUOUS
 62
     3
  5
397
 10
277.5035
 20
-227.198083
 30
0.0
  0
VERTEX
  8
1
  6
CONTINUOUS
 62
     3
  5
398
 10
277.5785
 20
-227.673583
 30
0.0
  0
VERTEX
  8
1
  6
CONTINUOUS
 62
     3
  5
399
 10
277.728667
 20
-228.174083
 30
0.0
  0
VERTEX
  8
1
  6
CONTINUOUS
 62
     3
  5
39A
 10
277.678583
 20
-228.74975
 30
0.0
  0
VERTEX
  8
1
  6
CONTINUOUS
 62
     3
  5
39B
 10
277.328333
 20
-229.350417
 30
0.0
  0
VERTEX
  8
1
  6
CONTINUOUS
 62
     3
  5
39C
 10
277.403417
 20
-229.775833
 30
0.0
  0
VERTEX
  8
1
  6
CONTINUOUS
 62
     3
  5
39D
 10
277.678583
 20
-230.17625
 30
0.0
  0
VERTEX
  8
1
  6
CONTINUOUS
 62
     3
  5
39E
 10
277.728667
 20
-230.551667
 30
0.0
  0
VERTEX
  8
1
  6
CONTINUOUS
 62
     3
  5
39F
 10
277.453417
 20
-231.027167
 30
0.0
  0
VERTEX
  8
1
  6
CONTINUOUS
 62
     3
  5
3A0
 10
277.328333
 20
-231.57775
 30
0.0
  0
VERTEX
  8
1
  6
CONTINUOUS
 62
     3
  5
3A1
 10
277.453417
 20
-232.02825
 30
0.0
  0
VERTEX
  8
1
  6
CONTINUOUS
 62
     3
  5
3A2
 10
277.703667
 20
-232.528833
 30
0.0
  0
VERTEX
  8
1
  6
CONTINUOUS
 62
     3
  5
3A3
 10
277.5035
 20
-233.104417
 30
0.0
  0
VERTEX
  8
1
  6
CONTINUOUS
 62
     3
  5
3A4
 10
277.5035
 20
-233.554917
 30
0.0
  0
VERTEX
  8
1
  6
CONTINUOUS
 62
     3
  5
3A5
 10
277.5785
 20
-234.1055
 30
0.0
  0
VERTEX
  8
1
  6
CONTINUOUS
 62
     3
  5
3A6
 10
277.4785
 20
-234.681083
 30
0.0
  0
VERTEX
  8
1
  6
CONTINUOUS
 62
     3
  5
3A7
 10
277.5285
 20
-235.181667
 30
0.0
  0
VERTEX
  8
1
  6
CONTINUOUS
 62
     3
  5
3A8
 10
277.439333
 20
-236.042083
 30
0.0
  0
SEQEND
  8
1
  6
CONTINUOUS
 62
     3
  5
3A9
  0
POLYLINE
  8
1
  6
CONTINUOUS
 62
     3
  5
3AA
 66
     1
 10
0.0
 20
0.0
 30
0.0
  0
VERTEX
  8
1
  6
CONTINUOUS
 62
     3
  5
3AB
 10
281.304417
 20
-263.014667
 30
0.0
  0
VERTEX
  8
1
  6
CONTINUOUS
 62
     3
  5
3AC
 10
281.106167
 20
-263.687333
 30
0.0
  0
VERTEX
  8
1
  6
CONTINUOUS
 62
     3
  5
3AD
 10
281.186925
 20
-264.065932
 30
0.0
  0
VERTEX
  8
1
  6
CONTINUOUS
 62
     3
  5
3AE
 10
281.533347
 20
-264.551157
 30
0.0
  0
VERTEX
  8
1
  6
CONTINUOUS
 62
     3
  5
3AF
 10
281.606583
 20
-264.788583
 30
0.0
  0
VERTEX
  8
1
  6
CONTINUOUS
 62
     3
  5
3B0
 10
281.362959
 20
-265.12661
 30
0.0
  0
VERTEX
  8
1
  6
CONTINUOUS
 62
     3
  5
3B1
 10
280.847123
 20
-265.545966
 30
0.0
  0
VERTEX
  8
1
  6
CONTINUOUS
 62
     3
  5
3B2
 10
280.806
 20
-265.789667
 30
0.0
  0
VERTEX
  8
1
  6
CONTINUOUS
 62
     3
  5
3B3
 10
281.106167
 20
-266.5905
 30
0.0
  0
VERTEX
  8
1
  6
CONTINUOUS
 62
     3
  5
3B4
 10
281.5065
 20
-267.691667
 30
0.0
  0
VERTEX
  8
1
  6
CONTINUOUS
 62
     3
  5
3B5
 10
281.539569
 20
-267.987332
 30
0.0
  0
VERTEX
  8
1
  6
CONTINUOUS
 62
     3
  5
3B6
 10
281.406417
 20
-268.592667
 30
0.0
  0
VERTEX
  8
1
  6
CONTINUOUS
 62
     3
  5
3B7
 10
281.294083
 20
-269.025083
 30
0.0
  0
SEQEND
  8
1
  6
CONTINUOUS
 62
     3
  5
3B8
  0
POLYLINE
  8
1
  6
CONTINUOUS
 62
     3
  5
3B9
 66
     1
 10
0.0
 20
0.0
 30
0.0
  0
VERTEX
  8
1
  6
CONTINUOUS
 62
     3
  5
3BA
 10
441.192833
 20
-257.493833
 30
0.0
  0
VERTEX
  8
1
  6
CONTINUOUS
 62
     3
  5
3BB
 10
441.2525
 20
-258.000833
 30
0.0
  0
VERTEX
  8
1
  6
CONTINUOUS
 62
     3
  5
3BC
 10
441.247455
 20
-258.064636
 30
0.0
  0
VERTEX
  8
1
  6
CONTINUOUS
 62
     3
  5
3BD
 10
441.231861
 20
-258.105469
 30
0.0
  0
VERTEX
  8
1
  6
CONTINUOUS
 62
     3
  5
3BE
 10
441.179709
 20
-258.183917
 30
0.0
  0
VERTEX
  8
1
  6
CONTINUOUS
 62
     3
  5
3BF
 10
441.112034
 20
-258.259363
 30
0.0
  0
VERTEX
  8
1
  6
CONTINUOUS
 62
     3
  5
3C0
 10
441.023431
 20
-258.357957
 30
0.0
  0
VERTEX
  8
1
  6
CONTINUOUS
 62
     3
  5
3C1
 10
440.989771
 20
-258.407426
 30
0.0
  0
VERTEX
  8
1
  6
CONTINUOUS
 62
     3
  5
3C2
 10
440.965011
 20
-258.483134
 30
0.0
  0
VERTEX
  8
1
  6
CONTINUOUS
 62
     3
  5
3C3
 10
440.96825
 20
-258.522083
 30
0.0
  0
VERTEX
  8
1
  6
CONTINUOUS
 62
     3
  5
3C4
 10
440.992144
 20
-258.599968
 30
0.0
  0
VERTEX
  8
1
  6
CONTINUOUS
 62
     3
  5
3C5
 10
441.064416
 20
-258.755142
 30
0.0
  0
VERTEX
  8
1
  6
CONTINUOUS
 62
     3
  5
3C6
 10
441.23799
 20
-259.069726
 30
0.0
  0
VERTEX
  8
1
  6
CONTINUOUS
 62
     3
  5
3C7
 10
441.299917
 20
-259.232917
 30
0.0
  0
VERTEX
  8
1
  6
CONTINUOUS
 62
     3
  5
3C8
 10
441.465667
 20
-259.896333
 30
0.0
  0
VERTEX
  8
1
  6
CONTINUOUS
 62
     3
  5
3C9
 10
441.489333
 20
-260.014833
 30
0.0
  0
VERTEX
  8
1
  6
CONTINUOUS
 62
     3
  5
3CA
 10
441.598333
 20
-260.646333
 30
0.0
  0
SEQEND
  8
1
  6
CONTINUOUS
 62
     3
  5
3CB
  0
POLYLINE
  8
1
  6
CONTINUOUS
 62
     3
  5
3CC
 66
     1
 10
0.0
 20
0.0
 30
0.0
  0
VERTEX
  8
1
  6
CONTINUOUS
 62
     3
  5
3CD
 10
439.661417
 20
-266.025083
 30
0.0
  0
VERTEX
  8
1
  6
CONTINUOUS
 62
     3
  5
3CE
 10
439.618167
 20
-266.696583
 30
0.0
  0
VERTEX
  8
1
  6
CONTINUOUS
 62
     3
  5
3CF
 10
439.606063
 20
-266.760223
 30
0.0
  0
VERTEX
  8
1
  6
CONTINUOUS
 62
     3
  5
3D0
 10
439.544332
 20
-266.874777
 30
0.0
  0
VERTEX
  8
1
  6
CONTINUOUS
 62
     3
  5
3D1
 10
439.359269
 20
-267.083103
 30
0.0
  0
VERTEX
  8
1
  6
CONTINUOUS
 62
     3
  5
3D2
 10
439.2865
 20
-267.194083
 30
0.0
  0
VERTEX
  8
1
  6
CONTINUOUS
 62
     3
  5
3D3
 10
439.231618
 20
-267.350592
 30
0.0
  0
VERTEX
  8
1
  6
CONTINUOUS
 62
     3
  5
3D4
 10
439.213401
 20
-267.434725
 30
0.0
  0
VERTEX
  8
1
  6
CONTINUOUS
 62
     3
  5
3D5
 10
439.199801
 20
-267.561811
 30
0.0
  0
VERTEX
  8
1
  6
CONTINUOUS
 62
     3
  5
3D6
 10
439.205014
 20
-267.683066
 30
0.0
  0
VERTEX
  8
1
  6
CONTINUOUS
 62
     3
  5
3D7
 10
439.2155
 20
-267.739083
 30
0.0
  0
VERTEX
  8
1
  6
CONTINUOUS
 62
     3
  5
3D8
 10
439.236148
 20
-267.78101
 30
0.0
  0
VERTEX
  8
1
  6
CONTINUOUS
 62
     3
  5
3D9
 10
439.319307
 20
-267.845872
 30
0.0
  0
VERTEX
  8
1
  6
CONTINUOUS
 62
     3
  5
3DA
 10
439.462667
 20
-267.918847
 30
0.0
  0
VERTEX
  8
1
  6
CONTINUOUS
 62
     3
  5
3DB
 10
439.523603
 20
-267.961291
 30
0.0
  0
VERTEX
  8
1
  6
CONTINUOUS
 62
     3
  5
3DC
 10
439.562763
 20
-268.014666
 30
0.0
  0
VERTEX
  8
1
  6
CONTINUOUS
 62
     3
  5
3DD
 10
439.57075
 20
-268.047083
 30
0.0
  0
VERTEX
  8
1
  6
CONTINUOUS
 62
     3
  5
3DE
 10
439.618167
 20
-268.544667
 30
0.0
  0
VERTEX
  8
1
  6
CONTINUOUS
 62
     3
  5
3DF
 10
439.661417
 20
-269.025083
 30
0.0
  0
SEQEND
  8
1
  6
CONTINUOUS
 62
     3
  5
3E0
  0
TEXT
  8
1
  6
CONTINUOUS
 62
     7
  5
3E1
 10
286.460583
 20
-230.843833
 30
0.0
 40
2.5
  1
24"
 50
315.0
  7
MONOTXT
210
0.0
220
0.0
230
1.0
  0
TEXT
  8
1
  6
CONTINUOUS
 62
     7
  5
3E2
 10
283.278583
 20
-234.025833
 30
0.0
 40
2.5
  1
WHITE
 50
315.0
  7
MONOTXT
210
0.0
220
0.0
230
1.0
  0
TEXT
  8
1
  6
CONTINUOUS
 62
     7
  5
3E3
 10
280.096583
 20
-237.207833
 30
0.0
 40
2.5
  1
DIAGONAL
 50
315.0
  7
MONOTXT
210
0.0
220
0.0
230
1.0
  0
TEXT
  8
1
  6
CONTINUOUS
 62
     7
  5
3E4
 10
276.914667
 20
-240.38975
 30
0.0
 40
2.5
  1
STRIPES
 50
315.0
  7
MONOTXT
210
0.0
220
0.0
230
1.0
  0
LINE
  8
1
  6
CONTINUOUS
 62
     7
  5
3E5
 10
314.586
 20
-257.31025
 30
0.0
 11
310.343417
 21
-253.067667
 31
0.0
  0
LINE
  8
1
  6
CONTINUOUS
 62
     7
  5
3E6
 10
300.797417
 20
-243.521667
 30
0.0
 11
292.5735
 21
-235.29775
 31
0.0
  0
INSERT
  8
1
  6
CONTINUOUS
 62
     1
  5
3E7
  2
LDR
 10
300.797417
 20
-243.521667
 30
0.0
 41
239.999999
 42
239.999999
 50
315.0
210
0.0
220
0.0
230
1.0
  0
INSERT
  8
1
  6
CONTINUOUS
 62
     1
  5
3E8
  2
LDR
 10
300.797417
 20
-243.521667
 30
0.0
 41
239.999999
 42
239.999999
 50
315.0
210
0.0
220
0.0
230
1.0
  0
INSERT
  8
1
  6
CONTINUOUS
 62
     1
  5
3E9
  2
LDR
 10
310.343417
 20
-253.067667
 30
0.0
 41
239.999999
 42
239.999999
 50
135.0
210
0.0
220
0.0
230
1.0
  0
INSERT
  8
1
  6
CONTINUOUS
 62
     1
  5
3EA
  2
LDR
 10
355.909917
 20
-252.601667
 30
0.0
 41
239.999999
 42
239.999999
 50
117.993447
210
0.0
220
0.0
230
1.0
  0
INSERT
  8
1
  6
CONTINUOUS
 62
     1
  5
3EB
  2
LDR
 10
355.988917
 20
-266.020583
 30
0.0
 41
239.999999
 42
239.999999
 50
243.806324
210
0.0
220
0.0
230
1.0
  0
TEXT
  8
1
  6
CONTINUOUS
 62
     7
  5
3EC
 10
350.537333
 20
-260.5335
 30
0.0
 40
2.5
  1
45 NORMAL
  7
MONOTXT
210
0.0
220
0.0
230
1.0
  0
ARC
  8
1
  6
CONTINUOUS
 62
     7
  5
3ED
 10
344.727944
 20
-259.361812
 30
0.0
 40
13.075065
 50
8.458094
 51
26.782622
210
0.0
220
0.0
230
1.0
  0
ARC
  8
1
  6
CONTINUOUS
 62
     7
  5
3EE
 10
344.727944
 20
-259.361812
 30
0.0
 40
13.075065
 50
333.764533
 51
352.953689
210
0.0
220
0.0
230
1.0
  0
CIRCLE
  8
1
  6
CONTINUOUS
 62
     7
  5
3EF
 10
355.821083
 20
-258.52
 30
0.0
 40
0.541201
210
0.0
220
0.0
230
1.0
  0
TEXT
  8
1
  6
CONTINUOUS
 62
     7
  5
3F0
 10
387.047083
 20
-240.46825
 30
0.0
 40
2.5
  1
EXIT RAMP
 50
347.999719
  7
MONOTXT
210
0.0
220
0.0
230
1.0
  0
TEXT
  8
1
  6
CONTINUOUS
 62
     7
  5
3F1
 10
384.349333
 20
-276.988583
 30
0.0
 40
2.5
  1
THRU LANE
  7
MONOTXT
 11
384.349333
 21
-274.488583
 31
0.0
210
0.0
220
0.0
230
1.0
 73
     3
  0
TEXT
  8
1
  6
CONTINUOUS
 62
     7
  5
3F2
 10
422.997417
 20
-245.513667
 30
0.0
 40
2.5
  1
6" TO 8" WHITE
  7
MONOTXT
 11
422.997417
 21
-243.013667
 31
0.0
210
0.0
220
0.0
230
1.0
 73
     3
  0
TEXT
  8
1
  6
CONTINUOUS
 62
     7
  5
3F3
 10
422.997417
 20
-250.013667
 30
0.0
 40
2.5
  1
EDGE LINE
  7
MONOTXT
 11
422.997417
 21
-247.513667
 31
0.0
210
0.0
220
0.0
230
1.0
 73
     3
  0
TEXT
  8
1
  6
CONTINUOUS
 62
     7
  5
3F4
 10
422.50675
 20
-276.792917
 30
0.0
 40
2.5
  1
6" TO 8" WHITE
  7
MONOTXT
 11
422.50675
 21
-274.292917
 31
0.0
210
0.0
220
0.0
230
1.0
 73
     3
  0
TEXT
  8
1
  6
CONTINUOUS
 62
     7
  5
3F5
 10
422.50675
 20
-281.292917
 30
0.0
 40
2.5
  1
EDGE LINE
  7
MONOTXT
 11
422.50675
 21
-278.792917
 31
0.0
210
0.0
220
0.0
230
1.0
 73
     3
  0
LINE
  8
1
  6
CONTINUOUS
 62
     7
  5
3F6
 10
421.62925
 20
-244.112583
 30
0.0
 11
415.1325
 21
-244.112583
 31
0.0
  0
LINE
  8
1
  6
CONTINUOUS
 62
     7
  5
3F7
 10
415.1325
 20
-244.112583
 30
0.0
 11
407.076667
 21
-250.242083
 31
0.0
  0
INSERT
  8
1
  6
CONTINUOUS
 62
     1
  5
3F8
  2
LDR
 10
407.076667
 20
-250.242083
 30
0.0
 41
240.0
 42
240.0
 50
217.266679
210
0.0
220
0.0
230
1.0
  0
LINE
  8
1
  6
CONTINUOUS
 62
     7
  5
3F9
 10
421.517417
 20
-275.23525
 30
0.0
 11
415.020667
 21
-275.23525
 31
0.0
  0
LINE
  8
1
  6
CONTINUOUS
 62
     7
  5
3FA
 10
415.020667
 20
-275.23525
 30
0.0
 11
406.964833
 21
-269.10575
 31
0.0
  0
INSERT
  8
1
  6
CONTINUOUS
 62
     1
  5
3FB
  2
LDR
 10
406.964833
 20
-269.10575
 30
0.0
 41
240.0
 42
-240.0
 50
142.733321
210
0.0
220
0.0
230
1.0
  0
LINE
  8
1
  6
CONTINUOUS
 62
     7
  5
3FC
 10
342.4775
 20
-267.025083
 30
0.0
 11
342.4775
 21
-281.025083
 31
0.0
  0
LINE
  8
1
  6
CONTINUOUS
 62
     7
  5
3FD
 10
297.385917
 20
-267.025083
 30
0.0
 11
297.385917
 21
-281.025083
 31
0.0
  0
LINE
  8
1
  6
CONTINUOUS
 62
     7
  5
3FE
 10
297.385917
 20
-280.025083
 30
0.0
 11
342.4775
 21
-280.025083
 31
0.0
  0
INSERT
  8
1
  6
CONTINUOUS
 62
     1
  5
3FF
  2
LDR
 10
297.385917
 20
-280.025083
 30
0.0
 41
240.0
 42
240.0
 50
180.0
210
0.0
220
0.0
230
1.0
  0
INSERT
  8
1
  6
CONTINUOUS
 62
     1
  5
400
  2
LDR
 10
297.385917
 20
-280.025083
 30
0.0
 41
240.0
 42
240.0
 50
180.0
210
0.0
220
0.0
230
1.0
  0
INSERT
  8
1
  6
CONTINUOUS
 62
     1
  5
401
  2
LDR
 10
342.4775
 20
-280.025083
 30
0.0
 41
240.0
 42
240.0
210
0.0
220
0.0
230
1.0
  0
TEXT
  8
1
  6
CONTINUOUS
 62
     7
  5
402
 10
312.221583
 20
-279.079667
 30
0.0
 40
2.5
  1
8' TO 12'
  7
MONOTXT
 72
     4
 11
320.440083
 21
-277.829667
 31
0.0
210
0.0
220
0.0
230
1.0
  0
TEXT
  8
1
  6
CONTINUOUS
 62
     7
  5
403
 10
308.629083
 20
-283.579667
 30
0.0
 40
2.5
  1
SEE NOTE 5
  7
MONOTXT
 72
     4
 11
320.449917
 21
-282.329667
 31
0.0
210
0.0
220
0.0
230
1.0
  0
LINE
  8
1
  6
CONTINUOUS
 62
     7
  5
404
 10
347.500917
 20
-291.233333
 30
0.0
 11
379.6385
 21
-291.233333
 31
0.0
  0
TEXT
  8
1
  6
CONTINUOUS
 62
     7
  5
405
 10
348.58025
 20
-289.974583
 30
0.0
 40
4.0
  1
DETAIL "A"
  7
txt
210
0.0
220
0.0
230
1.0
  0
LINE
  8
1
  6
CONTINUOUS
 62
     1
  5
406
 10
495.053083
 20
-34.195083
 30
0.0
 11
279.053083
 21
-34.195083
 31
0.0
  0
LINE
  8
1
  6
CONTINUOUS
 62
     1
  5
407
 10
495.053083
 20
-30.695083
 30
0.0
 11
279.053083
 21
-30.695083
 31
0.0
  0
LINE
  8
1
  6
CONTINUOUS
 62
     1
  5
408
 10
495.053083
 20
-24.695083
 30
0.0
 11
488.053083
 21
-24.695083
 31
0.0
  0
LINE
  8
1
  6
CONTINUOUS
 62
     1
  5
409
 10
474.053083
 20
-24.695083
 30
0.0
 11
467.053083
 21
-24.695083
 31
0.0
  0
LINE
  8
1
  6
CONTINUOUS
 62
     1
  5
40A
 10
453.053083
 20
-24.695083
 30
0.0
 11
446.053083
 21
-24.695083
 31
0.0
  0
LINE
  8
1
  6
CONTINUOUS
 62
     1
  5
40B
 10
432.053083
 20
-24.695083
 30
0.0
 11
425.053083
 21
-24.695083
 31
0.0
  0
LINE
  8
1
  6
CONTINUOUS
 62
     1
  5
40C
 10
411.053083
 20
-24.695083
 30
0.0
 11
404.053083
 21
-24.695083
 31
0.0
  0
LINE
  8
1
  6
CONTINUOUS
 62
     1
  5
40D
 10
390.053083
 20
-24.695083
 30
0.0
 11
383.053083
 21
-24.695083
 31
0.0
  0
LINE
  8
1
  6
CONTINUOUS
 62
     1
  5
40E
 10
369.053083
 20
-24.695083
 30
0.0
 11
362.053083
 21
-24.695083
 31
0.0
  0
LINE
  8
1
  6
CONTINUOUS
 62
     1
  5
40F
 10
348.053083
 20
-24.695083
 30
0.0
 11
341.053083
 21
-24.695083
 31
0.0
  0
LINE
  8
1
  6
CONTINUOUS
 62
     1
  5
410
 10
327.053083
 20
-24.695083
 30
0.0
 11
320.053083
 21
-24.695083
 31
0.0
  0
LINE
  8
1
  6
CONTINUOUS
 62
     1
  5
411
 10
306.053083
 20
-24.695083
 30
0.0
 11
299.053083
 21
-24.695083
 31
0.0
  0
LINE
  8
1
  6
CONTINUOUS
 62
     1
  5
412
 10
285.053083
 20
-24.695083
 30
0.0
 11
279.053083
 21
-24.695083
 31
0.0
  0
LINE
  8
1
  6
CONTINUOUS
 62
     1
  5
413
 10
316.402833
 20
-18.695083
 30
0.0
 11
279.053083
 21
-18.695083
 31
0.0
  0
LINE
  8
1
  6
CONTINUOUS
 62
     1
  5
414
 10
329.053083
 20
-18.695083
 30
0.0
 11
328.053083
 21
-18.695083
 31
0.0
  0
LINE
  8
1
  6
CONTINUOUS
 62
     1
  5
415
 10
335.553083
 20
-18.695083
 30
0.0
 11
334.553083
 21
-18.695083
 31
0.0
  0
LINE
  8
1
  6
CONTINUOUS
 62
     1
  5
416
 10
342.053083
 20
-18.695083
 30
0.0
 11
341.053083
 21
-18.695083
 31
0.0
  0
LINE
  8
1
  6
CONTINUOUS
 62
     1
  5
417
 10
348.553083
 20
-18.695083
 30
0.0
 11
347.553083
 21
-18.695083
 31
0.0
  0
LINE
  8
1
  6
CONTINUOUS
 62
     1
  5
418
 10
355.053083
 20
-18.695083
 30
0.0
 11
354.053083
 21
-18.695083
 31
0.0
  0
LINE
  8
1
  6
CONTINUOUS
 62
     1
  5
419
 10
361.553083
 20
-18.695083
 30
0.0
 11
360.553083
 21
-18.695083
 31
0.0
  0
LINE
  8
1
  6
CONTINUOUS
 62
     1
  5
41A
 10
368.053083
 20
-18.695083
 30
0.0
 11
367.053083
 21
-18.695083
 31
0.0
  0
LINE
  8
1
  6
CONTINUOUS
 62
     1
  5
41B
 10
374.553083
 20
-18.695083
 30
0.0
 11
373.553083
 21
-18.695083
 31
0.0
  0
LINE
  8
1
  6
CONTINUOUS
 62
     1
  5
41C
 10
495.053083
 20
-18.695083
 30
0.0
 11
476.553083
 21
-18.695083
 31
0.0
  0
LINE
  8
1
  6
CONTINUOUS
 62
     1
  5
41D
 10
476.553083
 20
-18.695083
 30
0.0
 11
429.553083
 21
-18.695083
 31
0.0
  0
LINE
  8
1
  6
CONTINUOUS
 62
     1
  5
41E
 10
428.584083
 20
-11.837417
 30
0.0
 11
476.553083
 21
-5.059167
 31
0.0
  0
LINE
  8
1
  6
CONTINUOUS
 62
     1
  5
41F
 10
476.553083
 20
-5.05925
 30
0.0
 11
495.053083
 21
-2.445083
 31
0.0
  0
LINE
  8
1
  6
CONTINUOUS
 62
     1
  5
420
 10
317.697917
 20
-18.610833
 30
0.0
 11
495.053083
 21
4.554917
 31
0.0
  0
LINE
  8
1
  6
CONTINUOUS
 62
     1
  5
421
 10
317.340333
 20
-13.110833
 30
0.0
 11
494.34075
 21
10.008583
 31
0.0
  0
LINE
  8
1
  6
CONTINUOUS
 62
     1
  5
422
 10
316.045083
 20
-13.195083
 30
0.0
 11
279.053083
 21
-13.195083
 31
0.0
  0
ARC
  8
1
  6
CONTINUOUS
 62
     1
  5
423
 10
316.045104
 20
-3.195083
 30
0.0
 40
10.0
 50
270.0
 51
277.442208
210
0.0
220
0.0
230
1.0
  0
ARC
  8
1
  6
CONTINUOUS
 62
     1
  5
424
 10
316.402813
 20
-8.695083
 30
0.0
 40
10.0
 50
270.0
 51
277.441078
210
0.0
220
0.0
230
1.0
  0
LINE
  8
1
  6
CONTINUOUS
 62
     1
  5
425
 10
465.852
 20
-10.10625
 30
0.0
 11
495.542833
 21
-5.910667
 31
0.0
  0
LINE
  8
1
  6
CONTINUOUS
 62
     1
  5
426
 10
495.053083
 20
-14.195083
 30
0.0
 11
465.852
 21
-14.195083
 31
0.0
  0
INSERT
  8
1
  6
CONTINUOUS
 62
     1
  5
427
  2
ARO
 10
435.443917
 20
-6.698
 30
0.0
 41
240.000002
 42
-240.000002
 50
187.19574
210
0.0
220
0.0
230
1.0
  0
INSERT
  8
1
  6
CONTINUOUS
 62
     1
  5
428
  2
ARO
 10
465.888
 20
-27.79325
 30
0.0
 41
240.0
 42
-240.0
 50
180.0
210
0.0
220
0.0
230
1.0
  0
INSERT
  8
1
  6
CONTINUOUS
 62
     1
  5
429
  2
ARO
 10
466.03575
 20
-21.434583
 30
0.0
 41
240.0
 42
-240.0
 50
180.0
210
0.0
220
0.0
230
1.0
  0
INSERT
  8
1
  6
CONTINUOUS
 62
     1
  5
42A
  2
ARO
 10
292.208083
 20
-21.536917
 30
0.0
 41
240.0
 42
-240.0
 50
180.0
210
0.0
220
0.0
230
1.0
  0
INSERT
  8
1
  6
CONTINUOUS
 62
     1
  5
42B
  2
ARO
 10
292.060333
 20
-27.895583
 30
0.0
 41
240.0
 42
-240.0
 50
180.0
210
0.0
220
0.0
230
1.0
  0
TEXT
  8
1
  6
CONTINUOUS
 62
     7
  5
42C
 10
439.114583
 20
20.96725
 30
0.0
 40
2.5
  1
4" SOLID YELLOW
  7
MONOTXT
 11
439.114583
 21
23.46725
 31
0.0
210
0.0
220
0.0
230
1.0
 73
     3
  0
TEXT
  8
1
  6
CONTINUOUS
 62
     7
  5
42D
 10
439.114583
 20
16.46725
 30
0.0
 40
2.5
  1
EDGE LINE
  7
MONOTXT
 11
439.114583
 21
18.96725
 31
0.0
210
0.0
220
0.0
230
1.0
 73
     3
  0
TEXT
  8
1
  6
CONTINUOUS
 62
     7
  5
42E
 10
292.634833
 20
9.49675
 30
0.0
 40
2.5
  1
4" SOLID WHITE
  7
MONOTXT
 11
292.634833
 21
11.99675
 31
0.0
210
0.0
220
0.0
230
1.0
 73
     3
  0
TEXT
  8
1
  6
CONTINUOUS
 62
     7
  5
42F
 10
292.634833
 20
4.99675
 30
0.0
 40
2.5
  1
EDGE LINE
  7
MONOTXT
 11
292.634833
 21
7.49675
 31
0.0
210
0.0
220
0.0
230
1.0
 73
     3
  0
TEXT
  8
1
  6
CONTINUOUS
 62
     7
  5
430
 10
354.157667
 20
-5.877333
 30
0.0
 40
2.5
  1
2'
  7
MONOTXT
210
0.0
220
0.0
230
1.0
  0
TEXT
  8
1
  6
CONTINUOUS
 62
     7
  5
431
 10
443.827083
 20
-56.480667
 30
0.0
 40
2.5
  1
4" SOLID WHITE
  7
MONOTXT
 11
443.827083
 21
-53.980667
 31
0.0
210
0.0
220
0.0
230
1.0
 73
     3
  0
TEXT
  8
1
  6
CONTINUOUS
 62
     7
  5
432
 10
443.827083
 20
-60.980667
 30
0.0
 40
2.5
  1
EDGE LINE
  7
MONOTXT
 11
443.827083
 21
-58.480667
 31
0.0
210
0.0
220
0.0
230
1.0
 73
     3
  0
TEXT
  8
1
  6
CONTINUOUS
 62
     7
  5
433
 10
385.13325
 20
-58.403917
 30
0.0
 40
2.5
  1
6" TO 8" SOLID WHITE
  7
MONOTXT
 11
385.13325
 21
-55.903917
 31
0.0
210
0.0
220
0.0
230
1.0
 73
     3
  0
TEXT
  8
1
  6
CONTINUOUS
 62
     7
  5
434
 10
385.13325
 20
-62.903917
 30
0.0
 40
2.5
  1
EDGE LINE
  7
MONOTXT
 11
385.13325
 21
-60.403917
 31
0.0
210
0.0
220
0.0
230
1.0
 73
     3
  0
TEXT
  8
1
  6
CONTINUOUS
 62
     7
  5
435
 10
377.64175
 20
-42.777417
 30
0.0
 40
2.5
  1
THEORETICAL GORE POINT
  7
MONOTXT
210
0.0
220
0.0
230
1.0
  0
TEXT
  8
1
  6
CONTINUOUS
 62
     7
  5
436
 10
352.694583
 20
-51.302667
 30
0.0
 40
2.5
  1
30'
  7
MONOTXT
210
0.0
220
0.0
230
1.0
  0
TEXT
  8
1
  6
CONTINUOUS
 62
     7
  5
437
 10
269.967083
 20
-53.698667
 30
0.0
 40
2.5
  1
4" BROKEN WHITE
  7
MONOTXT
 11
269.967083
 21
-51.198667
 31
0.0
210
0.0
220
0.0
230
1.0
 73
     3
  0
TEXT
  8
1
  6
CONTINUOUS
 62
     7
  5
438
 10
269.967083
 20
-58.198667
 30
0.0
 40
2.5
  1
LANE LINE
  7
MONOTXT
 11
269.967083
 21
-55.698667
 31
0.0
210
0.0
220
0.0
230
1.0
 73
     3
  0
LINE
  8
1
  6
CONTINUOUS
 62
     7
  5
439
 10
488.86675
 20
-3.31925
 30
0.0
 11
481.1535
 21
22.23925
 31
0.0
  0
LINE
  8
1
  6
CONTINUOUS
 62
     7
  5
43A
 10
435.342083
 20
-57.0475
 30
0.0
 11
448.57175
 21
-9.013083
 31
0.0
  0
LINE
  8
1
  6
CONTINUOUS
 62
     7
  5
43B
 10
373.0815
 20
-18.5115
 30
0.0
 11
367.201333
 21
-41.591667
 31
0.0
  0
LINE
  8
1
  6
CONTINUOUS
 62
     7
  5
43C
 10
422.106
 20
-12.781833
 30
0.0
 11
432.133417
 21
31.1315
 31
0.0
  0
LINE
  8
1
  6
CONTINUOUS
 62
     7
  5
43D
 10
323.553083
 20
-24.695083
 30
0.0
 11
309.920667
 21
-52.683083
 31
0.0
  0
LINE
  8
1
  6
CONTINUOUS
 62
     7
  5
43E
 10
414.168
 20
-6.010083
 30
0.0
 11
415.133583
 21
-13.402
 31
0.0
  0
LINE
  8
1
  6
CONTINUOUS
 62
     7
  5
43F
 10
348.553083
 20
-17.695083
 30
0.0
 11
348.553083
 21
-3.983
 31
0.0
  0
LINE
  8
1
  6
CONTINUOUS
 62
     7
  5
440
 10
347.553083
 20
-17.695083
 30
0.0
 11
347.553083
 21
-3.983
 31
0.0
  0
LINE
  8
1
  6
CONTINUOUS
 62
     7
  5
441
 10
342.053083
 20
-17.695083
 30
0.0
 11
342.053083
 21
-3.983
 31
0.0
  0
LINE
  8
1
  6
CONTINUOUS
 62
     7
  5
442
 10
362.053083
 20
-25.695083
 30
0.0
 11
362.053083
 21
-53.466667
 31
0.0
  0
LINE
  8
1
  6
CONTINUOUS
 62
     7
  5
443
 10
348.053083
 20
-25.695083
 30
0.0
 11
348.053083
 21
-53.466667
 31
0.0
  0
LINE
  8
1
  6
CONTINUOUS
 62
     7
  5
444
 10
341.053083
 20
-25.695083
 30
0.0
 11
341.053083
 21
-53.466667
 31
0.0
  0
LINE
  8
1
  6
CONTINUOUS
 62
     7
  5
445
 10
481.1535
 20
22.23925
 30
0.0
 11
476.1535
 21
22.23925
 31
0.0
  0
LINE
  8
1
  6
CONTINUOUS
 62
     7
  5
446
 10
432.133417
 20
31.1315
 30
0.0
 11
425.059667
 21
31.1315
 31
0.0
  0
LINE
  8
1
  6
CONTINUOUS
 62
     7
  5
447
 10
353.553083
 20
-4.983
 30
0.0
 11
348.553083
 21
-4.983
 31
0.0
  0
LINE
  8
1
  6
CONTINUOUS
 62
     7
  5
448
 10
347.553083
 20
-4.983
 30
0.0
 11
342.053083
 21
-4.983
 31
0.0
  0
LINE
  8
1
  6
CONTINUOUS
 62
     7
  5
449
 10
342.053083
 20
-4.983
 30
0.0
 11
337.053083
 21
-4.983
 31
0.0
  0
INSERT
  8
1
  6
CONTINUOUS
 62
     1
  5
44A
  2
LDR
 10
348.553083
 20
-4.983
 30
0.0
 41
240.0
 42
-240.0
 50
180.0
210
0.0
220
0.0
230
1.0
  0
INSERT
  8
1
  6
CONTINUOUS
 62
     1
  5
44B
  2
LDR
 10
348.553083
 20
-4.983
 30
0.0
 41
240.0
 42
-240.0
 50
180.0
210
0.0
220
0.0
230
1.0
  0
INSERT
  8
1
  6
CONTINUOUS
 62
     1
  5
44C
  2
LDR
 10
347.546333
 20
-4.989083
 30
0.0
 41
180.0
 42
-180.0
210
0.0
220
0.0
230
1.0
  0
INSERT
  8
1
  6
CONTINUOUS
 62
     1
  5
44D
  2
LDR
 10
342.059833
 20
-4.977
 30
0.0
 41
180.0
 42
-180.0
 50
180.0
210
0.0
220
0.0
230
1.0
  0
INSERT
  8
1
  6
CONTINUOUS
 62
     1
  5
44E
  2
LDR
 10
373.0815
 20
-18.5115
 30
0.0
 41
240.000001
 42
-240.000001
 50
75.706676
210
0.0
220
0.0
230
1.0
  0
INSERT
  8
1
  6
CONTINUOUS
 62
     1
  5
44F
  2
LDR
 10
373.0815
 20
-18.5115
 30
0.0
 41
240.000001
 42
-240.000001
 50
75.706676
210
0.0
220
0.0
230
1.0
  0
INSERT
  8
1
  6
CONTINUOUS
 62
     1
  5
450
  2
LDR
 10
422.106
 20
-12.781833
 30
0.0
 41
239.999999
 42
-239.999999
 50
257.137301
210
0.0
220
0.0
230
1.0
  0
LINE
  8
1
  6
CONTINUOUS
 62
     7
  5
451
 10
362.053083
 20
-52.466667
 30
0.0
 11
348.053083
 21
-52.466667
 31
0.0
  0
LINE
  8
1
  6
CONTINUOUS
 62
     7
  5
452
 10
348.053083
 20
-52.466667
 30
0.0
 11
336.053083
 21
-52.466667
 31
0.0
  0
INSERT
  8
1
  6
CONTINUOUS
 62
     1
  5
453
  2
LDR
 10
348.053083
 20
-52.466667
 30
0.0
 41
240.0
 42
-240.0
 50
180.0
210
0.0
220
0.0
230
1.0
  0
INSERT
  8
1
  6
CONTINUOUS
 62
     1
  5
454
  2
LDR
 10
348.053083
 20
-52.466667
 30
0.0
 41
240.0
 42
-240.0
 50
180.0
210
0.0
220
0.0
230
1.0
  0
INSERT
  8
1
  6
CONTINUOUS
 62
     1
  5
455
  2
LDR
 10
348.053083
 20
-52.466667
 30
0.0
 41
240.0
 42
-240.0
210
0.0
220
0.0
230
1.0
  0
INSERT
  8
1
  6
CONTINUOUS
 62
     1
  5
456
  2
LDR
 10
348.053083
 20
-52.466667
 30
0.0
 41
240.0
 42
-240.0
210
0.0
220
0.0
230
1.0
  0
INSERT
  8
1
  6
CONTINUOUS
 62
     1
  5
457
  2
LDR
 10
341.053083
 20
-52.466667
 30
0.0
 41
240.0
 42
-240.0
 50
180.0
210
0.0
220
0.0
230
1.0
  0
INSERT
  8
1
  6
CONTINUOUS
 62
     1
  5
458
  2
LDR
 10
341.053083
 20
-52.466667
 30
0.0
 41
240.0
 42
-240.0
 50
180.0
210
0.0
220
0.0
230
1.0
  0
INSERT
  8
1
  6
CONTINUOUS
 62
     1
  5
459
  2
LDR
 10
362.053083
 20
-52.466667
 30
0.0
 41
240.0
 42
-240.0
210
0.0
220
0.0
230
1.0
  0
INSERT
  8
1
  6
CONTINUOUS
 62
     1
  5
45A
  2
LDR
 10
488.86675
 20
-3.31925
 30
0.0
 41
239.999998
 42
-239.999998
 50
286.793187
210
0.0
220
0.0
230
1.0
  0
INSERT
  8
1
  6
CONTINUOUS
 62
     1
  5
45B
  2
LDR
 10
488.86675
 20
-3.31925
 30
0.0
 41
239.999998
 42
-239.999998
 50
286.793187
210
0.0
220
0.0
230
1.0
  0
INSERT
  8
1
  6
CONTINUOUS
 62
     1
  5
45C
  2
LDR
 10
448.57175
 20
-9.013083
 30
0.0
 41
239.999999
 42
-239.999999
 50
74.601348
210
0.0
220
0.0
230
1.0
  0
INSERT
  8
1
  6
CONTINUOUS
 62
     1
  5
45D
  2
LDR
 10
448.57175
 20
-9.013083
 30
0.0
 41
239.999999
 42
-239.999999
 50
74.601348
210
0.0
220
0.0
230
1.0
  0
INSERT
  8
1
  6
CONTINUOUS
 62
     1
  5
45E
  2
LDR
 10
323.553083
 20
-24.695083
 30
0.0
 41
239.999999
 42
-239.999999
 50
64.030177
210
0.0
220
0.0
230
1.0
  0
LINE
  8
1
  6
CONTINUOUS
 62
     7
  5
45F
 10
474.860333
 20
-55.211417
 30
0.0
 11
479.860333
 21
-55.211417
 31
0.0
  0
LINE
  8
1
  6
CONTINUOUS
 62
     7
  5
460
 10
435.342083
 20
-57.0475
 30
0.0
 11
430.342083
 21
-57.0475
 31
0.0
  0
LINE
  8
1
  6
CONTINUOUS
 62
     7
  5
461
 10
376.324917
 20
-41.591667
 30
0.0
 11
367.201333
 21
-41.591667
 31
0.0
  0
LINE
  8
1
  6
CONTINUOUS
 62
     7
  5
462
 10
309.920667
 20
-52.683083
 30
0.0
 11
304.920667
 21
-52.683083
 31
0.0
  0
LINE
  8
1
  6
CONTINUOUS
 62
     7
  5
463
 10
488.530083
 20
-18.695083
 30
0.0
 11
479.860333
 21
-55.211417
 31
0.0
  0
INSERT
  8
1
  6
CONTINUOUS
 62
     1
  5
464
  2
LDR
 10
488.530083
 20
-18.695083
 30
0.0
 41
240.000001
 42
-240.000001
 50
76.644059
210
0.0
220
0.0
230
1.0
  0
LINE
  8
1
  6
CONTINUOUS
 62
     7
  5
465
 10
314.276833
 20
-73.972083
 30
0.0
 11
451.945583
 21
-73.972083
 31
0.0
  0
LINE
  8
1
  6
CONTINUOUS
 62
     1
  5
466
 10
495.053083
 20
-167.945167
 30
0.0
 11
279.053083
 21
-167.945167
 31
0.0
  0
LINE
  8
1
  6
CONTINUOUS
 62
     1
  5
467
 10
495.053083
 20
-164.445167
 30
0.0
 11
279.053083
 21
-164.445167
 31
0.0
  0
LINE
  8
1
  6
CONTINUOUS
 62
     1
  5
468
 10
495.053083
 20
-158.445167
 30
0.0
 11
488.053083
 21
-158.445167
 31
0.0
  0
LINE
  8
1
  6
CONTINUOUS
 62
     1
  5
469
 10
474.053083
 20
-158.445167
 30
0.0
 11
467.053083
 21
-158.445167
 31
0.0
  0
LINE
  8
1
  6
CONTINUOUS
 62
     1
  5
46A
 10
453.053083
 20
-158.445167
 30
0.0
 11
446.053083
 21
-158.445167
 31
0.0
  0
LINE
  8
1
  6
CONTINUOUS
 62
     1
  5
46B
 10
432.053083
 20
-158.445167
 30
0.0
 11
425.053083
 21
-158.445167
 31
0.0
  0
LINE
  8
1
  6
CONTINUOUS
 62
     1
  5
46C
 10
411.053083
 20
-158.445167
 30
0.0
 11
404.053083
 21
-158.445167
 31
0.0
  0
LINE
  8
1
  6
CONTINUOUS
 62
     1
  5
46D
 10
390.053083
 20
-158.445167
 30
0.0
 11
383.053083
 21
-158.445167
 31
0.0
  0
LINE
  8
1
  6
CONTINUOUS
 62
     1
  5
46E
 10
369.053083
 20
-158.445167
 30
0.0
 11
362.053083
 21
-158.445167
 31
0.0
  0
LINE
  8
1
  6
CONTINUOUS
 62
     1
  5
46F
 10
348.053083
 20
-158.445167
 30
0.0
 11
341.053083
 21
-158.445167
 31
0.0
  0
LINE
  8
1
  6
CONTINUOUS
 62
     1
  5
470
 10
327.053083
 20
-158.445167
 30
0.0
 11
320.053083
 21
-158.445167
 31
0.0
  0
LINE
  8
1
  6
CONTINUOUS
 62
     1
  5
471
 10
306.053083
 20
-158.445167
 30
0.0
 11
299.053083
 21
-158.445167
 31
0.0
  0
LINE
  8
1
  6
CONTINUOUS
 62
     1
  5
472
 10
285.053083
 20
-158.445167
 30
0.0
 11
279.053083
 21
-158.445167
 31
0.0
  0
LINE
  8
1
  6
CONTINUOUS
 62
     1
  5
473
 10
289.053083
 20
-152.445167
 30
0.0
 11
279.053083
 21
-152.445167
 31
0.0
  0
LINE
  8
1
  6
CONTINUOUS
 62
     1
  5
474
 10
329.053083
 20
-152.445167
 30
0.0
 11
328.053083
 21
-152.445167
 31
0.0
  0
LINE
  8
1
  6
CONTINUOUS
 62
     1
  5
475
 10
335.553083
 20
-152.445167
 30
0.0
 11
334.553083
 21
-152.445167
 31
0.0
  0
LINE
  8
1
  6
CONTINUOUS
 62
     1
  5
476
 10
342.053083
 20
-152.445167
 30
0.0
 11
341.053083
 21
-152.445167
 31
0.0
  0
LINE
  8
1
  6
CONTINUOUS
 62
     1
  5
477
 10
348.553083
 20
-152.445167
 30
0.0
 11
347.553083
 21
-152.445167
 31
0.0
  0
LINE
  8
1
  6
CONTINUOUS
 62
     1
  5
478
 10
355.053083
 20
-152.445167
 30
0.0
 11
354.053083
 21
-152.445167
 31
0.0
  0
LINE
  8
1
  6
CONTINUOUS
 62
     1
  5
479
 10
495.053083
 20
-152.445167
 30
0.0
 11
476.553083
 21
-152.445167
 31
0.0
  0
LINE
  8
1
  6
CONTINUOUS
 62
     1
  5
47A
 10
476.553083
 20
-152.445167
 30
0.0
 11
409.553083
 21
-152.445167
 31
0.0
  0
LINE
  8
1
  6
CONTINUOUS
 62
     1
  5
47B
 10
289.053083
 20
-146.945167
 30
0.0
 11
279.053083
 21
-146.945167
 31
0.0
  0
LINE
  8
1
  6
CONTINUOUS
 62
     1
  5
47C
 10
495.053083
 20
-147.945167
 30
0.0
 11
470.727167
 21
-147.945167
 31
0.0
  0
INSERT
  8
1
  6
CONTINUOUS
 62
     1
  5
47D
  2
ARO
 10
441.172917
 20
-146.639
 30
0.0
 41
240.000005
 42
240.000005
 50
197.6052
210
0.0
220
0.0
230
1.0
  0
INSERT
  8
1
  6
CONTINUOUS
 62
     1
  5
47E
  2
ARO
 10
435.895833
 20
-155.826917
 30
0.0
 41
240.0
 42
240.0
 50
180.0
210
0.0
220
0.0
230
1.0
  0
INSERT
  8
1
  6
CONTINUOUS
 62
     1
  5
47F
  2
ARO
 10
436.029833
 20
-161.274
 30
0.0
 41
240.0
 42
240.0
 50
180.0
210
0.0
220
0.0
230
1.0
  0
INSERT
  8
1
  6
CONTINUOUS
 62
     1
  5
480
  2
ARO
 10
283.7725
 20
-161.701083
 30
0.0
 41
240.0
 42
240.0
 50
180.0
210
0.0
220
0.0
230
1.0
  0
INSERT
  8
1
  6
CONTINUOUS
 62
     1
  5
481
  2
ARO
 10
283.84975
 20
-155.306
 30
0.0
 41
240.0
 42
240.0
 50
180.0
210
0.0
220
0.0
230
1.0
  0
TEXT
  8
1
  6
CONTINUOUS
 62
     7
  5
482
 10
309.098167
 20
-106.38775
 30
0.0
 40
2.5
  1
4" SOLID WHITE
  7
MONOTXT
 11
309.098167
 21
-103.88775
 31
0.0
210
0.0
220
0.0
230
1.0
 73
     3
  0
TEXT
  8
1
  6
CONTINUOUS
 62
     7
  5
483
 10
309.098167
 20
-110.88775
 30
0.0
 40
2.5
  1
EDGE LINE
  7
MONOTXT
 11
309.098167
 21
-108.38775
 31
0.0
210
0.0
220
0.0
230
1.0
 73
     3
  0
TEXT
  8
1
  6
CONTINUOUS
 62
     7
  5
484
 10
263.368833
 20
-175.1845
 30
0.0
 40
2.5
  1
4" SOLID YELLOW
  7
MONOTXT
 11
263.368833
 21
-172.6845
 31
0.0
210
0.0
220
0.0
230
1.0
 73
     3
  0
TEXT
  8
1
  6
CONTINUOUS
 62
     7
  5
485
 10
263.368833
 20
-179.6845
 30
0.0
 40
2.5
  1
EDGE LINE
  7
MONOTXT
 11
263.368833
 21
-177.1845
 31
0.0
210
0.0
220
0.0
230
1.0
 73
     3
  0
TEXT
  8
1
  6
CONTINUOUS
 62
     7
  5
486
 10
328.079083
 20
-136.874583
 30
0.0
 40
2.5
  1
2'
  7
MONOTXT
210
0.0
220
0.0
230
1.0
  0
TEXT
  8
1
  6
CONTINUOUS
 62
     7
  5
487
 10
402.42575
 20
-191.171167
 30
0.0
 40
2.5
  1
6" TO 8" SOLID WHITE
  7
MONOTXT
 11
402.42575
 21
-188.671167
 31
0.0
210
0.0
220
0.0
230
1.0
 73
     3
  0
TEXT
  8
1
  6
CONTINUOUS
 62
     7
  5
488
 10
402.42575
 20
-195.671167
 30
0.0
 40
2.5
  1
EDGE LINE
  7
MONOTXT
 11
402.42575
 21
-193.171167
 31
0.0
210
0.0
220
0.0
230
1.0
 73
     3
  0
TEXT
  8
1
  6
CONTINUOUS
 62
     7
  5
489
 10
478.79225
 20
-185.05275
 30
0.0
 40
2.5
  1
30'
  7
MONOTXT
210
0.0
220
0.0
230
1.0
  0
TEXT
  8
1
  6
CONTINUOUS
 62
     7
  5
48A
 10
269.890333
 20
-187.5405
 30
0.0
 40
2.5
  1
4" BROKEN WHITE
  7
MONOTXT
 11
269.890333
 21
-185.0405
 31
0.0
210
0.0
220
0.0
230
1.0
 73
     3
  0
TEXT
  8
1
  6
CONTINUOUS
 62
     7
  5
48B
 10
269.890333
 20
-192.0405
 30
0.0
 40
2.5
  1
EDGE LINE
  7
MONOTXT
 11
269.890333
 21
-189.5405
 31
0.0
210
0.0
220
0.0
230
1.0
 73
     3
  0
LINE
  8
1
  6
CONTINUOUS
 62
     7
  5
48C
 10
323.553083
 20
-158.445167
 30
0.0
 11
309.920667
 21
-186.433167
 31
0.0
  0
LINE
  8
1
  6
CONTINUOUS
 62
     7
  5
48D
 10
307.15
 20
-104.957417
 30
0.0
 11
302.15
 21
-104.957417
 31
0.0
  0
LINE
  8
1
  6
CONTINUOUS
 62
     7
  5
48E
 10
457.826167
 20
-119.591167
 30
0.0
 11
449.172333
 21
-119.591167
 31
0.0
  0
LINE
  8
1
  6
CONTINUOUS
 62
     7
  5
48F
 10
309.568417
 20
-117.680583
 30
0.0
 11
304.568417
 21
-117.680583
 31
0.0
  0
LINE
  8
1
  6
CONTINUOUS
 62
     7
  5
490
 10
301.6215
 20
-174.116417
 30
0.0
 11
298.407417
 21
-174.116417
 31
0.0
  0
INSERT
  8
1
  6
CONTINUOUS
 62
     1
  5
491
  2
LDR
 10
321.546333
 20
-135.739167
 30
0.0
 41
180.0
 42
-180.0
210
0.0
220
0.0
230
1.0
  0
INSERT
  8
1
  6
CONTINUOUS
 62
     1
  5
492
  2
LDR
 10
316.059833
 20
-135.727083
 30
0.0
 41
180.0
 42
-180.0
 50
180.0
210
0.0
220
0.0
230
1.0
  0
INSERT
  8
1
  6
CONTINUOUS
 62
     1
  5
493
  2
LDR
 10
323.553083
 20
-158.445167
 30
0.0
 41
239.999999
 42
-239.999999
 50
64.030177
210
0.0
220
0.0
230
1.0
  0
LINE
  8
1
  6
CONTINUOUS
 62
     7
  5
494
 10
309.920667
 20
-186.433167
 30
0.0
 11
304.920667
 21
-186.433167
 31
0.0
  0
LINE
  8
1
  6
CONTINUOUS
 62
     7
  5
495
 10
462.9175
 20
-207.373417
 30
0.0
 11
322.107083
 21
-207.373417
 31
0.0
  0
LINE
  8
1
  6
CONTINUOUS
 62
     1
  5
496
 10
402.553083
 20
-152.445167
 30
0.0
 11
395.553083
 21
-152.445167
 31
0.0
  0
LINE
  8
1
  6
CONTINUOUS
 62
     1
  5
497
 10
381.553083
 20
-152.445167
 30
0.0
 11
374.553083
 21
-152.445167
 31
0.0
  0
LINE
  8
1
  6
CONTINUOUS
 62
     1
  5
498
 10
360.553083
 20
-152.445167
 30
0.0
 11
353.553083
 21
-152.445167
 31
0.0
  0
LINE
  8
1
  6
CONTINUOUS
 62
     1
  5
499
 10
322.553083
 20
-152.445167
 30
0.0
 11
321.553083
 21
-152.445167
 31
0.0
  0
LINE
  8
1
  6
CONTINUOUS
 62
     1
  5
49A
 10
303.053083
 20
-152.445167
 30
0.0
 11
302.053083
 21
-152.445167
 31
0.0
  0
LINE
  8
1
  6
CONTINUOUS
 62
     1
  5
49B
 10
309.553083
 20
-152.445167
 30
0.0
 11
308.553083
 21
-152.445167
 31
0.0
  0
LINE
  8
1
  6
CONTINUOUS
 62
     1
  5
49C
 10
316.053083
 20
-152.445167
 30
0.0
 11
315.053083
 21
-152.445167
 31
0.0
  0
LINE
  8
1
  6
CONTINUOUS
 62
     1
  5
49D
 10
296.553083
 20
-152.445167
 30
0.0
 11
295.553083
 21
-152.445167
 31
0.0
  0
LINE
  8
1
  6
CONTINUOUS
 62
     1
  5
49E
 10
421.053083
 20
-146.445167
 30
0.0
 11
323.053083
 21
-146.445167
 31
0.0
  0
LINE
  8
1
  6
CONTINUOUS
 62
     1
  5
49F
 10
419.06275
 20
-140.945167
 30
0.0
 11
323.053083
 21
-140.945167
 31
0.0
  0
LINE
  8
1
  6
CONTINUOUS
 62
     1
  5
4A0
 10
323.053083
 20
-140.945167
 30
0.0
 11
289.053083
 21
-146.945167
 31
0.0
  0
LINE
  8
1
  6
CONTINUOUS
 62
     1
  5
4A1
 10
323.053083
 20
-146.445167
 30
0.0
 11
289.053083
 21
-152.445167
 31
0.0
  0
ARC
  8
1
  6
CONTINUOUS
 62
     1
  5
4A2
 10
416.967996
 20
-44.328694
 30
0.0
 40
108.370437
 50
273.878997
 51
301.786725
210
0.0
220
0.0
230
1.0
  0
ARC
  8
1
  6
CONTINUOUS
 62
     1
  5
4A3
 10
418.254507
 20
-43.53747
 30
0.0
 40
108.370437
 50
300.988217
 51
311.251536
210
0.0
220
0.0
230
1.0
  0
ARC
  8
1
  6
CONTINUOUS
 62
     1
  5
4A4
 10
418.254507
 20
-43.53747
 30
0.0
 40
112.370437
 50
297.837236
 51
311.251536
210
0.0
220
0.0
230
1.0
  0
ARC
  8
1
  6
CONTINUOUS
 62
     1
  5
4A5
 10
413.721829
 20
-38.323028
 30
0.0
 40
108.370437
 50
273.878997
 51
310.048144
210
0.0
220
0.0
230
1.0
  0
ARC
  8
1
  6
CONTINUOUS
 62
     1
  5
4A6
 10
411.731496
 20
-32.701861
 30
0.0
 40
108.370437
 50
273.878997
 51
309.090794
210
0.0
220
0.0
230
1.0
  0
LINE
  8
1
  6
CONTINUOUS
 62
     7
  5
4A7
 10
409.553083
 20
-151.445167
 30
0.0
 11
409.553083
 21
-120.43875
 31
0.0
  0
LINE
  8
1
  6
CONTINUOUS
 62
     7
  5
4A8
 10
354.053083
 20
-151.445167
 30
0.0
 11
354.053083
 21
-120.43875
 31
0.0
  0
LINE
  8
1
  6
CONTINUOUS
 62
     7
  5
4A9
 10
409.553083
 20
-121.43875
 30
0.0
 11
354.053083
 21
-121.43875
 31
0.0
  0
INSERT
  8
1
  6
CONTINUOUS
 62
     1
  5
4AA
  2
LDR
 10
409.553083
 20
-121.43875
 30
0.0
 41
240.0
 42
-240.0
210
0.0
220
0.0
230
1.0
  0
INSERT
  8
1
  6
CONTINUOUS
 62
     1
  5
4AB
  2
LDR
 10
409.553083
 20
-121.43875
 30
0.0
 41
240.0
 42
-240.0
210
0.0
220
0.0
230
1.0
  0
INSERT
  8
1
  6
CONTINUOUS
 62
     1
  5
4AC
  2
LDR
 10
354.053083
 20
-121.43875
 30
0.0
 41
240.0
 42
-240.0
 50
180.0
210
0.0
220
0.0
230
1.0
  0
LINE
  8
1
  6
CONTINUOUS
 62
     7
  5
4AD
 10
423.37775
 20
-146.262417
 30
0.0
 11
423.37775
 21
-152.445167
 31
0.0
  0
INSERT
  8
1
  6
CONTINUOUS
 62
     1
  5
4AE
  2
LDR
 10
423.385
 20
-146.2705
 30
0.0
 41
216.0
 42
-216.0
 50
90.0
210
0.0
220
0.0
230
1.0
  0
INSERT
  8
1
  6
CONTINUOUS
 62
     1
  5
4AF
  2
LDR
 10
423.3705
 20
-152.437083
 30
0.0
 41
216.0
 42
-216.0
 50
270.0
210
0.0
220
0.0
230
1.0
  0
LINE
  8
1
  6
CONTINUOUS
 62
     7
  5
4B0
 10
423.37775
 20
-149.58675
 30
0.0
 11
457.826167
 21
-119.591167
 31
0.0
  0
INSERT
  8
1
  6
CONTINUOUS
 62
     1
  5
4B1
  2
LDR
 10
423.37775
 20
-149.58675
 30
0.0
 41
239.999998
 42
-239.999998
 50
221.047278
210
0.0
220
0.0
230
1.0
  0
TEXT
  8
1
  6
CONTINUOUS
 62
     7
  5
4B2
 10
426.748083
 20
-120.729167
 30
0.0
 40
2.5
  1
FULL RAMP
  7
MONOTXT
210
0.0
220
0.0
230
1.0
  0
TEXT
  8
1
  6
CONTINUOUS
 62
     7
  5
4B3
 10
426.748083
 20
-125.229167
 30
0.0
 40
2.5
  1
LANE WIDTH
  7
MONOTXT
210
0.0
220
0.0
230
1.0
  0
LINE
  8
1
  6
CONTINUOUS
 62
     7
  5
4B4
 10
281.682583
 20
-152.445167
 30
0.0
 11
302.15
 21
-104.957417
 31
0.0
  0
TEXT
  8
1
  6
CONTINUOUS
 62
     7
  5
4B5
 10
354.67075
 20
-105.469917
 30
0.0
 40
2.5
  1
DASHED LINE (OR BROKEN
  7
MONOTXT
 11
354.67075
 21
-102.969917
 31
0.0
210
0.0
220
0.0
230
1.0
 73
     3
  0
TEXT
  8
1
  6
CONTINUOUS
 62
     7
  5
4B6
 10
354.67075
 20
-109.969917
 30
0.0
 40
2.5
  1
WHITE EDGE LINE) FOR
  7
MONOTXT
 11
354.67075
 21
-107.469917
 31
0.0
210
0.0
220
0.0
230
1.0
 73
     3
  0
TEXT
  8
1
  6
CONTINUOUS
 62
     7
  5
4B7
 10
354.67075
 20
-114.469917
 30
0.0
 40
2.5
  1
ONE-HALF LENGTH OF FULL
  7
MONOTXT
 11
354.67075
 21
-111.969917
 31
0.0
210
0.0
220
0.0
230
1.0
 73
     3
  0
TEXT
  8
1
  6
CONTINUOUS
 62
     7
  5
4B8
 10
354.67075
 20
-118.969917
 30
0.0
 40
2.5
  1
WIDTH ACCELERATION LANE
  7
MONOTXT
 11
354.67075
 21
-116.469917
 31
0.0
210
0.0
220
0.0
230
1.0
 73
     3
  0
TEXT
  8
1
  6
CONTINUOUS
 62
     7
  5
4B9
 10
405.535167
 20
-173.142667
 30
0.0
 40
2.5
  1
THEORETICAL
  7
MONOTXT
210
0.0
220
0.0
230
1.0
  0
TEXT
  8
1
  6
CONTINUOUS
 62
     7
  5
4BA
 10
405.535167
 20
-177.642667
 30
0.0
 40
2.5
  1
GORE POINT
  7
MONOTXT
210
0.0
220
0.0
230
1.0
  0
TEXT
  8
1
  6
CONTINUOUS
 62
     7
  5
4BB
 10
344.306833
 20
-177.54075
 30
0.0
 40
2.5
  1
4" WIDE BROKEN
  7
MONOTXT
 11
344.306833
 21
-175.04075
 31
0.0
210
0.0
220
0.0
230
1.0
 73
     3
  0
TEXT
  8
1
  6
CONTINUOUS
 62
     7
  5
4BC
 10
344.306833
 20
-182.04075
 30
0.0
 40
2.5
  1
WHITE EDGE LINE
  7
MONOTXT
 11
344.306833
 21
-179.54075
 31
0.0
210
0.0
220
0.0
230
1.0
 73
     3
  0
LINE
  8
1
  6
CONTINUOUS
 62
     7
  5
4BD
 10
409.553083
 20
-152.445167
 30
0.0
 11
400.435667
 21
-171.868583
 31
0.0
  0
LINE
  8
1
  6
CONTINUOUS
 62
     7
  5
4BE
 10
400.435667
 20
-171.868583
 30
0.0
 11
405.041083
 21
-171.868583
 31
0.0
  0
LINE
  8
1
  6
CONTINUOUS
 62
     7
  5
4BF
 10
399.053083
 20
-152.445167
 30
0.0
 11
384.506583
 21
-176.354083
 31
0.0
  0
LINE
  8
1
  6
CONTINUOUS
 62
     7
  5
4C0
 10
378.26375
 20
-176.354083
 30
0.0
 11
384.506583
 21
-176.354083
 31
0.0
  0
LINE
  8
1
  6
CONTINUOUS
 62
     7
  5
4C1
 10
309.80225
 20
-164.445167
 30
0.0
 11
301.6215
 21
-174.116417
 31
0.0
  0
TEXT
  8
1
  6
CONTINUOUS
 62
     7
  5
4C2
 10
310.257583
 20
-119.025833
 30
0.0
 40
2.5
  1
4" WIDE DOTTED
  7
MONOTXT
 11
310.257583
 21
-116.525833
 31
0.0
210
0.0
220
0.0
230
1.0
 73
     3
  0
TEXT
  8
1
  6
CONTINUOUS
 62
     7
  5
4C3
 10
310.257583
 20
-123.525833
 30
0.0
 40
2.5
  1
WHITE EDGE LINE
  7
MONOTXT
 11
310.257583
 21
-121.025833
 31
0.0
210
0.0
220
0.0
230
1.0
 73
     3
  0
LINE
  8
1
  6
CONTINUOUS
 62
     7
  5
4C4
 10
302.553083
 20
-152.445167
 30
0.0
 11
304.568417
 21
-117.680583
 31
0.0
  0
INSERT
  8
1
  6
CONTINUOUS
 62
     1
  5
4C5
  2
LDR
 10
302.553083
 20
-152.445167
 30
0.0
 41
239.999999
 42
-239.999999
 50
266.682227
210
0.0
220
0.0
230
1.0
  0
INSERT
  8
1
  6
CONTINUOUS
 62
     1
  5
4C6
  2
LDR
 10
309.80225
 20
-164.445167
 30
0.0
 41
240.000001
 42
-240.000001
 50
49.772673
210
0.0
220
0.0
230
1.0
  0
LINE
  8
1
  6
CONTINUOUS
 62
     7
  5
4C7
 10
342.377583
 20
-119.750917
 30
0.0
 11
327.454167
 21
-119.750917
 31
0.0
  0
TEXT
  8
1
  6
CONTINUOUS
 62
     7
  5
4C8
 10
391.74925
 20
30.03425
 30
0.0
 40
2.5
  1
4" WIDE BROKEN
  7
MONOTXT
 11
391.74925
 21
32.53425
 31
0.0
210
0.0
220
0.0
230
1.0
 73
     3
  0
TEXT
  8
1
  6
CONTINUOUS
 62
     7
  5
4C9
 10
391.74925
 20
25.53425
 30
0.0
 40
2.5
  1
WHITE EDGE LINE
  7
MONOTXT
 11
391.74925
 21
28.03425
 31
0.0
210
0.0
220
0.0
230
1.0
 73
     3
  0
LINE
  8
1
  6
CONTINUOUS
 62
     7
  5
4CA
 10
424.134167
 20
29.092167
 30
0.0
 11
408.726
 21
29.092167
 31
0.0
  0
LINE
  8
1
  6
CONTINUOUS
 62
     1
  5
4CB
 10
381.053083
 20
-18.695083
 30
0.0
 11
380.053083
 21
-18.695083
 31
0.0
  0
LINE
  8
1
  6
CONTINUOUS
 62
     1
  5
4CC
 10
387.553083
 20
-18.695083
 30
0.0
 11
386.553083
 21
-18.695083
 31
0.0
  0
LINE
  8
1
  6
CONTINUOUS
 62
     1
  5
4CD
 10
394.053083
 20
-18.695083
 30
0.0
 11
393.053083
 21
-18.695083
 31
0.0
  0
LINE
  8
1
  6
CONTINUOUS
 62
     1
  5
4CE
 10
400.553083
 20
-18.695083
 30
0.0
 11
399.553083
 21
-18.695083
 31
0.0
  0
LINE
  8
1
  6
CONTINUOUS
 62
     1
  5
4CF
 10
407.053083
 20
-18.695083
 30
0.0
 11
406.053083
 21
-18.695083
 31
0.0
  0
LINE
  8
1
  6
CONTINUOUS
 62
     1
  5
4D0
 10
413.553083
 20
-18.695083
 30
0.0
 11
412.553083
 21
-18.695083
 31
0.0
  0
LINE
  8
1
  6
CONTINUOUS
 62
     1
  5
4D1
 10
420.053083
 20
-18.695083
 30
0.0
 11
419.053083
 21
-18.695083
 31
0.0
  0
LINE
  8
1
  6
CONTINUOUS
 62
     1
  5
4D2
 10
426.553083
 20
-18.695083
 30
0.0
 11
425.553083
 21
-18.695083
 31
0.0
  0
LINE
  8
1
  6
CONTINUOUS
 62
     1
  5
4D3
 10
465.852
 20
-10.10625
 30
0.0
 11
465.852
 21
-14.195083
 31
0.0
  0
LINE
  8
1
  6
CONTINUOUS
 62
     1
  5
4D4
 10
422.106
 20
-12.781833
 30
0.0
 11
415.133583
 21
-13.402
 31
0.0
  0
LINE
  8
1
  6
CONTINUOUS
 62
     1
  5
4D5
 10
401.188583
 20
-14.6425
 30
0.0
 11
394.216
 21
-15.262583
 31
0.0
  0
LINE
  8
1
  6
CONTINUOUS
 62
     1
  5
4D6
 10
380.271333
 20
-16.503417
 30
0.0
 11
373.298833
 21
-17.123667
 31
0.0
  0
INSERT
  8
1
  6
CONTINUOUS
 62
     1
  5
4D7
  2
LDR
 10
414.168
 20
-6.010083
 30
0.0
 41
240.000001
 42
240.000001
 50
97.442233
210
0.0
220
0.0
230
1.0
  0
INSERT
  8
1
  6
CONTINUOUS
 62
     1
  5
4D8
  2
LDR
 10
414.168
 20
-6.010083
 30
0.0
 41
240.000001
 42
240.000001
 50
97.442233
210
0.0
220
0.0
230
1.0
  0
INSERT
  8
1
  6
CONTINUOUS
 62
     1
  5
4D9
  2
LDR
 10
415.133583
 20
-13.402
 30
0.0
 41
240.000001
 42
240.000001
 50
277.442233
210
0.0
220
0.0
230
1.0
  0
LINE
  8
1
  6
CONTINUOUS
 62
     7
  5
4DA
 10
476.553083
 20
-5.059167
 30
0.0
 11
471.035667
 21
10.86375
 31
0.0
  0
LINE
  8
1
  6
CONTINUOUS
 62
     7
  5
4DB
 10
471.035667
 20
10.86375
 30
0.0
 11
466.035667
 21
10.86375
 31
0.0
  0
TEXT
  8
1
  6
CONTINUOUS
 62
     7
  5
4DC
 10
441.29275
 20
9.510583
 30
0.0
 40
2.5
  1
SEE NOTE 3
  7
MONOTXT
210
0.0
220
0.0
230
1.0
  0
LINE
  8
1
  6
CONTINUOUS
 62
     7
  5
4DD
 10
424.778
 20
19.076917
 30
0.0
 11
419.778
 21
19.076917
 31
0.0
  0
TEXT
  8
1
  6
CONTINUOUS
 62
     7
  5
4DE
 10
398.088167
 20
17.384083
 30
0.0
 40
2.5
  1
FULL RAMP
  7
MONOTXT
210
0.0
220
0.0
230
1.0
  0
TEXT
  8
1
  6
CONTINUOUS
 62
     7
  5
4DF
 10
398.088167
 20
12.884083
 30
0.0
 40
2.5
  1
LANE WIDTH
  7
MONOTXT
210
0.0
220
0.0
230
1.0
  0
LINE
  8
1
  6
CONTINUOUS
 62
     7
  5
4E0
 10
288.52625
 20
-18.650667
 30
0.0
 11
283.695083
 21
10.695833
 31
0.0
  0
LINE
  8
1
  6
CONTINUOUS
 62
     7
  5
4E1
 10
283.695083
 20
10.695833
 30
0.0
 11
291.5485
 21
10.695833
 31
0.0
  0
INSERT
  8
1
  6
CONTINUOUS
 62
     1
  5
4E2
  2
LDR
 10
288.52625
 20
-18.650667
 30
0.0
 41
239.999998
 42
239.999998
 50
279.348438
210
0.0
220
0.0
230
1.0
  0
LINE
  8
1
  6
CONTINUOUS
 62
     7
  5
4E3
 10
367.553083
 20
-18.695083
 30
0.0
 11
353.2115
 21
21.6085
 31
0.0
  0
LINE
  8
1
  6
CONTINUOUS
 62
     7
  5
4E4
 10
353.2115
 20
21.6085
 30
0.0
 11
349.063583
 21
21.6085
 31
0.0
  0
TEXT
  8
1
  6
CONTINUOUS
 62
     7
  5
4E5
 10
316.189083
 20
19.9075
 30
0.0
 40
2.5
  1
4" WIDE DOTTED
  7
MONOTXT
 11
316.189083
 21
22.4075
 31
0.0
210
0.0
220
0.0
230
1.0
 73
     3
  0
TEXT
  8
1
  6
CONTINUOUS
 62
     7
  5
4E6
 10
316.189083
 20
15.4075
 30
0.0
 40
2.5
  1
WHITE EDGE LINE
  7
MONOTXT
 11
316.189083
 21
17.9075
 31
0.0
210
0.0
220
0.0
230
1.0
 73
     3
  0
LINE
  8
1
  6
CONTINUOUS
 62
     7
  5
4E7
 10
333.1445
 20
19.141333
 30
0.0
 11
348.561833
 21
19.141333
 31
0.0
  0
INSERT
  8
1
  6
CONTINUOUS
 62
     1
  5
4E8
  2
LDR
 10
367.553083
 20
-18.695083
 30
0.0
 41
239.999999
 42
239.999999
 50
289.587538
210
0.0
220
0.0
230
1.0
  0
TEXT
  8
1
  6
CONTINUOUS
 62
     7
  5
4E9
 10
265.197083
 20
-40.760417
 30
0.0
 40
2.5
  1
4" SOLID YELLOW
  7
MONOTXT
 11
265.197083
 21
-38.260417
 31
0.0
210
0.0
220
0.0
230
1.0
 73
     3
  0
TEXT
  8
1
  6
CONTINUOUS
 62
     7
  5
4EA
 10
265.197083
 20
-45.260417
 30
0.0
 40
2.5
  1
EDGE LINE
  7
MONOTXT
 11
265.197083
 21
-42.760417
 31
0.0
210
0.0
220
0.0
230
1.0
 73
     3
  0
LINE
  8
1
  6
CONTINUOUS
 62
     7
  5
4EB
 10
311.220833
 20
-30.704583
 30
0.0
 11
306.083917
 21
-39.605333
 31
0.0
  0
LINE
  8
1
  6
CONTINUOUS
 62
     7
  5
4EC
 10
306.083917
 20
-39.605333
 30
0.0
 11
300.121417
 21
-39.605333
 31
0.0
  0
INSERT
  8
1
  6
CONTINUOUS
 62
     1
  5
4ED
  2
LDR
 10
311.220833
 20
-30.704583
 30
0.0
 41
239.999998
 42
239.999998
 50
60.009337
210
0.0
220
0.0
230
1.0
  0
LINE
  8
1
  6
CONTINUOUS
 62
     7
  5
4EE
 10
414.650833
 20
-9.706
 30
0.0
 11
420.38425
 21
-8.4555
 31
0.0
  0
LINE
  8
1
  6
CONTINUOUS
 62
     7
  5
4EF
 10
420.38425
 20
-8.4555
 30
0.0
 11
424.778
 21
19.076917
 31
0.0
  0
INSERT
  8
1
  6
CONTINUOUS
 62
     1
  5
4F0
  2
LDR
 10
414.650833
 20
-9.706
 30
0.0
 41
240.000001
 42
240.000001
 50
192.30394
210
0.0
220
0.0
230
1.0
  0
LINE
  8
1
  6
CONTINUOUS
 62
     7
  5
4F1
 10
373.210167
 20
-16.127667
 30
0.0
 11
371.620333
 21
1.745
 31
0.0
  0
LINE
  8
1
  6
CONTINUOUS
 62
     7
  5
4F2
 10
380.182667
 20
-15.507417
 30
0.0
 11
378.592833
 21
2.36525
 31
0.0
  0
LINE
  8
1
  6
CONTINUOUS
 62
     7
  5
4F3
 10
394.127333
 20
-14.266583
 30
0.0
 11
392.5375
 21
3.606083
 31
0.0
  0
LINE
  8
1
  6
CONTINUOUS
 62
     7
  5
4F4
 10
371.708917
 20
0.748917
 30
0.0
 11
378.681417
 21
1.369167
 31
0.0
  0
LINE
  8
1
  6
CONTINUOUS
 62
     7
  5
4F5
 10
378.681417
 20
1.369167
 30
0.0
 11
392.626083
 21
2.61
 31
0.0
  0
INSERT
  8
1
  6
CONTINUOUS
 62
     1
  5
4F6
  2
LDR
 10
371.708917
 20
0.748917
 30
0.0
 41
240.0
 42
240.0
 50
185.083458
210
0.0
220
0.0
230
1.0
  0
INSERT
  8
1
  6
CONTINUOUS
 62
     1
  5
4F7
  2
LDR
 10
371.708917
 20
0.748917
 30
0.0
 41
240.0
 42
240.0
 50
185.083458
210
0.0
220
0.0
230
1.0
  0
INSERT
  8
1
  6
CONTINUOUS
 62
     1
  5
4F8
  2
LDR
 10
378.681417
 20
1.369167
 30
0.0
 41
240.0
 42
240.0
 50
5.083458
210
0.0
220
0.0
230
1.0
  0
INSERT
  8
1
  6
CONTINUOUS
 62
     1
  5
4F9
  2
LDR
 10
378.681417
 20
1.369167
 30
0.0
 41
240.0
 42
240.0
 50
5.083458
210
0.0
220
0.0
230
1.0
  0
INSERT
  8
1
  6
CONTINUOUS
 62
     1
  5
4FA
  2
LDR
 10
378.681417
 20
1.369167
 30
0.0
 41
240.0
 42
240.0
 50
185.084938
210
0.0
220
0.0
230
1.0
  0
INSERT
  8
1
  6
CONTINUOUS
 62
     1
  5
4FB
  2
LDR
 10
378.681417
 20
1.369167
 30
0.0
 41
240.0
 42
240.0
 50
185.084938
210
0.0
220
0.0
230
1.0
  0
INSERT
  8
1
  6
CONTINUOUS
 62
     1
  5
4FC
  2
LDR
 10
392.626083
 20
2.61
 30
0.0
 41
240.0
 42
240.0
 50
5.084938
210
0.0
220
0.0
230
1.0
  0
TEXT
  8
1
  6
CONTINUOUS
 62
     7
  5
4FD
 10
373.45225
 20
2.003417
 30
0.0
 40
2.5
  1
10'
 50
5.083458
  7
MONOTXT
210
0.0
220
0.0
230
1.0
  0
TEXT
  8
1
  6
CONTINUOUS
 62
     7
  5
4FE
 10
383.06775
 20
2.5955
 30
0.0
 40
2.5
  1
30'
 50
5.084939
  7
MONOTXT
210
0.0
220
0.0
230
1.0
  0
TEXT
  8
1
  6
CONTINUOUS
 62
     7
  5
4FF
 10
344.03525
 20
-57.74375
 30
0.0
 40
2.5
  1
TYPICAL
  7
MONOTXT
210
0.0
220
0.0
230
1.0
  0
TEXT
  8
1
  6
CONTINUOUS
 62
     7
  5
500
 10
331.803333
 20
-53.127083
 30
0.0
 40
2.5
  1
10'
  7
MONOTXT
210
0.0
220
0.0
230
1.0
  0
TEXT
  8
1
  6
CONTINUOUS
 62
     7
  5
501
 10
338.085667
 20
-2.154083
 30
0.0
 40
2.5
  1
TYPICAL
  7
MONOTXT
210
0.0
220
0.0
230
1.0
  0
TEXT
  8
1
  6
CONTINUOUS
 62
     7
  5
502
 10
332.2715
 20
-5.545583
 30
0.0
 40
2.5
  1
13'
  7
MONOTXT
210
0.0
220
0.0
230
1.0
  0
TEXT
  8
1
  6
CONTINUOUS
 62
     7
  5
503
 10
156.58475
 20
-1.364667
 30
0.0
 40
2.5
  1
TYPICAL
  7
MONOTXT
210
0.0
220
0.0
230
1.0
  0
TEXT
  8
1
  6
CONTINUOUS
 62
     7
  5
504
 10
173.1625
 20
-4.087167
 30
0.0
 40
2.5
  1
13'
  7
MONOTXT
210
0.0
220
0.0
230
1.0
  0
TEXT
  8
1
  6
CONTINUOUS
 62
     7
  5
505
 10
152.057
 20
-54.818833
 30
0.0
 40
2.5
  1
TYPICAL
  7
MONOTXT
210
0.0
220
0.0
230
1.0
  0
TEXT
  8
1
  6
CONTINUOUS
 62
     7
  5
506
 10
163.495667
 20
-49.65425
 30
0.0
 40
2.5
  1
10'
  7
MONOTXT
210
0.0
220
0.0
230
1.0
  0
TEXT
  8
1
  6
CONTINUOUS
 62
     7
  5
507
 10
108.479083
 20
-127.108417
 30
0.0
 40
2.5
  1
TYPICAL
  7
MONOTXT
210
0.0
220
0.0
230
1.0
  0
TEXT
  8
1
  6
CONTINUOUS
 62
     7
  5
508
 10
108.830167
 20
-131.112583
 30
0.0
 40
2.5
  1
10'
  7
MONOTXT
210
0.0
220
0.0
230
1.0
  0
TEXT
  8
1
  6
CONTINUOUS
 62
     7
  5
509
 10
158.618833
 20
-134.608333
 30
0.0
 40
2.5
  1
TYPICAL
  7
MONOTXT
210
0.0
220
0.0
230
1.0
  0
TEXT
  8
1
  6
CONTINUOUS
 62
     7
  5
50A
 10
156.338833
 20
-138.4765
 30
0.0
 40
2.5
  1
13'
  7
MONOTXT
210
0.0
220
0.0
230
1.0
  0
LINE
  8
1
  6
CONTINUOUS
 62
     7
  5
50B
 10
147.96
 20
-177.750583
 30
0.0
 11
161.96
 21
-177.750583
 31
0.0
  0
LINE
  8
1
  6
CONTINUOUS
 62
     7
  5
50C
 10
161.96
 20
-177.750583
 30
0.0
 11
168.96
 21
-177.750583
 31
0.0
  0
INSERT
  8
1
  6
CONTINUOUS
 62
     1
  5
50D
  2
LDR
 10
147.96
 20
-177.750583
 30
0.0
 41
240.0
 42
240.0
 50
180.0
210
0.0
220
0.0
230
1.0
  0
INSERT
  8
1
  6
CONTINUOUS
 62
     1
  5
50E
  2
LDR
 10
147.96
 20
-177.750583
 30
0.0
 41
240.0
 42
240.0
 50
180.0
210
0.0
220
0.0
230
1.0
  0
INSERT
  8
1
  6
CONTINUOUS
 62
     1
  5
50F
  2
LDR
 10
161.96
 20
-177.750583
 30
0.0
 41
240.0
 42
240.0
210
0.0
220
0.0
230
1.0
  0
INSERT
  8
1
  6
CONTINUOUS
 62
     1
  5
510
  2
LDR
 10
161.96
 20
-177.750583
 30
0.0
 41
240.0
 42
240.0
210
0.0
220
0.0
230
1.0
  0
INSERT
  8
1
  6
CONTINUOUS
 62
     1
  5
511
  2
LDR
 10
161.96
 20
-177.750583
 30
0.0
 41
240.0
 42
240.0
 50
180.0
210
0.0
220
0.0
230
1.0
  0
INSERT
  8
1
  6
CONTINUOUS
 62
     1
  5
512
  2
LDR
 10
161.96
 20
-177.750583
 30
0.0
 41
240.0
 42
240.0
 50
180.0
210
0.0
220
0.0
230
1.0
  0
INSERT
  8
1
  6
CONTINUOUS
 62
     1
  5
513
  2
LDR
 10
168.96
 20
-177.750583
 30
0.0
 41
240.0
 42
240.0
210
0.0
220
0.0
230
1.0
  0
TEXT
  8
1
  6
CONTINUOUS
 62
     7
  5
514
 10
152.667583
 20
-184.577583
 30
0.0
 40
2.5
  1
TYPICAL
  7
MONOTXT
210
0.0
220
0.0
230
1.0
  0
TEXT
  8
1
  6
CONTINUOUS
 62
     7
  5
515
 10
163.341333
 20
-181.106167
 30
0.0
 40
2.5
  1
10'
  7
MONOTXT
210
0.0
220
0.0
230
1.0
  0
LINE
  8
1
  6
CONTINUOUS
 62
     1
  5
516
 10
470.727167
 20
-147.945167
 30
0.0
 11
470.727167
 21
-142.904167
 31
0.0
  0
INSERT
  8
1
  6
CONTINUOUS
 62
     1
  5
517
  2
LDR
 10
281.682583
 20
-152.445167
 30
0.0
 41
240.000001
 42
240.000001
 50
246.683758
210
0.0
220
0.0
230
1.0
  0
LINE
  8
1
  6
CONTINUOUS
 62
     7
  5
518
 10
316.053083
 20
-151.445167
 30
0.0
 11
316.053083
 21
-134.733083
 31
0.0
  0
LINE
  8
1
  6
CONTINUOUS
 62
     7
  5
519
 10
321.553083
 20
-151.445167
 30
0.0
 11
321.553083
 21
-134.733083
 31
0.0
  0
LINE
  8
1
  6
CONTINUOUS
 62
     7
  5
51A
 10
322.553083
 20
-151.445167
 30
0.0
 11
322.553083
 21
-134.733083
 31
0.0
  0
LINE
  8
1
  6
CONTINUOUS
 62
     7
  5
51B
 10
311.053083
 20
-135.733083
 30
0.0
 11
321.553083
 21
-135.733083
 31
0.0
  0
LINE
  8
1
  6
CONTINUOUS
 62
     7
  5
51C
 10
322.553083
 20
-135.733083
 30
0.0
 11
327.553083
 21
-135.733083
 31
0.0
  0
INSERT
  8
1
  6
CONTINUOUS
 62
     1
  5
51D
  2
LDR
 10
322.553083
 20
-135.733083
 30
0.0
 41
240.0
 42
240.0
 50
180.0
210
0.0
220
0.0
230
1.0
  0
TEXT
  8
1
  6
CONTINUOUS
 62
     7
  5
51E
 10
307.613917
 20
-136.689083
 30
0.0
 40
2.5
  1
13'
  7
MONOTXT
210
0.0
220
0.0
230
1.0
  0
TEXT
  8
1
  6
CONTINUOUS
 62
     7
  5
51F
 10
312.448583
 20
-133.434417
 30
0.0
 40
2.5
  1
TYPICAL
  7
MONOTXT
210
0.0
220
0.0
230
1.0
  0
TEXT
  8
1
  6
CONTINUOUS
 62
     7
  5
520
 10
429.454917
 20
-110.92175
 30
0.0
 40
2.5
  1
SEE NOTE 2
  7
MONOTXT
 11
429.454917
 21
-108.42175
 31
0.0
210
0.0
220
0.0
230
1.0
 73
     3
  0
TEXT
  8
1
  6
CONTINUOUS
 62
     7
  5
521
 10
378.197083
 20
-91.0835
 30
0.0
 40
2.5
  1
4" SOLID WHITE
  7
MONOTXT
 11
378.197083
 21
-88.5835
 31
0.0
210
0.0
220
0.0
230
1.0
 73
     3
  0
TEXT
  8
1
  6
CONTINUOUS
 62
     7
  5
522
 10
378.197083
 20
-95.5835
 30
0.0
 40
2.5
  1
EDGE LINE
  7
MONOTXT
 11
378.197083
 21
-93.0835
 31
0.0
210
0.0
220
0.0
230
1.0
 73
     3
  0
INSERT
  8
1
  6
CONTINUOUS
 62
     1
  5
523
  2
LDR
 10
399.053083
 20
-152.445167
 30
0.0
 41
239.999999
 42
239.999999
 50
58.683057
210
0.0
220
0.0
230
1.0
  0
INSERT
  8
1
  6
CONTINUOUS
 62
     1
  5
524
  2
LDR
 10
399.053083
 20
-152.445167
 30
0.0
 41
239.999999
 42
239.999999
 50
58.683057
210
0.0
220
0.0
230
1.0
  0
INSERT
  8
1
  6
CONTINUOUS
 62
     1
  5
525
  2
LDR
 10
409.553083
 20
-152.445167
 30
0.0
 41
240.000001
 42
240.000001
 50
64.854482
210
0.0
220
0.0
230
1.0
  0
LINE
  8
1
  6
CONTINUOUS
 62
     7
  5
526
 10
474.053083
 20
-158.445167
 30
0.0
 11
474.053083
 21
-187.21675
 31
0.0
  0
LINE
  8
1
  6
CONTINUOUS
 62
     7
  5
527
 10
488.053083
 20
-158.445167
 30
0.0
 11
488.053083
 21
-187.21675
 31
0.0
  0
LINE
  8
1
  6
CONTINUOUS
 62
     7
  5
528
 10
495.053083
 20
-158.445167
 30
0.0
 11
495.053083
 21
-187.21675
 31
0.0
  0
LINE
  8
1
  6
CONTINUOUS
 62
     7
  5
529
 10
474.053083
 20
-186.21675
 30
0.0
 11
488.053083
 21
-186.21675
 31
0.0
  0
LINE
  8
1
  6
CONTINUOUS
 62
     7
  5
52A
 10
488.053083
 20
-186.21675
 30
0.0
 11
495.053083
 21
-186.21675
 31
0.0
  0
INSERT
  8
1
  6
CONTINUOUS
 62
     1
  5
52B
  2
LDR
 10
488.062083
 20
-186.208667
 30
0.0
 41
240.0
 42
-240.0
 50
180.0
210
0.0
220
0.0
230
1.0
  0
INSERT
  8
1
  6
CONTINUOUS
 62
     1
  5
52C
  2
LDR
 10
495.044083
 20
-186.224833
 30
0.0
 41
240.0
 42
-240.0
210
0.0
220
0.0
230
1.0
  0
INSERT
  8
1
  6
CONTINUOUS
 62
     1
  5
52D
  2
LDR
 10
474.053083
 20
-186.21675
 30
0.0
 41
240.0
 42
240.0
 50
180.0
210
0.0
220
0.0
230
1.0
  0
INSERT
  8
1
  6
CONTINUOUS
 62
     1
  5
52E
  2
LDR
 10
474.053083
 20
-186.21675
 30
0.0
 41
240.0
 42
240.0
 50
180.0
210
0.0
220
0.0
230
1.0
  0
INSERT
  8
1
  6
CONTINUOUS
 62
     1
  5
52F
  2
LDR
 10
488.053083
 20
-186.21675
 30
0.0
 41
240.0
 42
240.0
210
0.0
220
0.0
230
1.0
  0
TEXT
  8
1
  6
CONTINUOUS
 62
     7
  5
530
 10
479.135583
 20
-190.984583
 30
0.0
 40
2.5
  1
TYPICAL
  7
MONOTXT
210
0.0
220
0.0
230
1.0
  0
TEXT
  8
1
  6
CONTINUOUS
 62
     7
  5
531
 10
489.78025
 20
-185.052833
 30
0.0
 40
2.5
  1
10'
  7
MONOTXT
210
0.0
220
0.0
230
1.0
  0
LINE
  8
1
  6
CONTINUOUS
 62
     7
  5
532
 10
452.332917
 20
-146.766333
 30
0.0
 11
456.605333
 21
-189.999167
 31
0.0
  0
LINE
  8
1
  6
CONTINUOUS
 62
     7
  5
533
 10
456.605333
 20
-189.999167
 30
0.0
 11
460.373417
 21
-152.445167
 31
0.0
  0
LINE
  8
1
  6
CONTINUOUS
 62
     7
  5
534
 10
456.605333
 20
-189.999167
 30
0.0
 11
447.535917
 21
-189.999167
 31
0.0
  0
INSERT
  8
1
  6
CONTINUOUS
 62
     1
  5
535
  2
LDR
 10
452.332917
 20
-146.766333
 30
0.0
 41
239.999999
 42
239.999999
 50
95.64384
210
0.0
220
0.0
230
1.0
  0
INSERT
  8
1
  6
CONTINUOUS
 62
     1
  5
536
  2
LDR
 10
452.332917
 20
-146.766333
 30
0.0
 41
239.999999
 42
239.999999
 50
95.64384
210
0.0
220
0.0
230
1.0
  0
INSERT
  8
1
  6
CONTINUOUS
 62
     1
  5
537
  2
LDR
 10
460.373417
 20
-152.445167
 30
0.0
 41
239.999998
 42
239.999998
 50
84.270248
210
0.0
220
0.0
230
1.0
  0
LINE
  8
1
  6
CONTINUOUS
 62
     7
  5
538
 10
417.564833
 20
-146.445167
 30
0.0
 11
415.631583
 21
-90.121833
 31
0.0
  0
LINE
  8
1
  6
CONTINUOUS
 62
     7
  5
539
 10
415.631583
 20
-90.121833
 30
0.0
 11
409.86875
 21
-90.121833
 31
0.0
  0
INSERT
  8
1
  6
CONTINUOUS
 62
     1
  5
53A
  2
LDR
 10
409.553083
 20
-151.445167
 30
0.0
 41
240.0
 42
240.0
 50
270.0
210
0.0
220
0.0
230
1.0
  0
INSERT
  8
1
  6
CONTINUOUS
 62
     1
  5
53B
  2
LDR
 10
423.37775
 20
-146.262417
 30
0.0
 41
240.0
 42
240.0
 50
90.0
210
0.0
220
0.0
230
1.0
  0
INSERT
  8
1
  6
CONTINUOUS
 62
     1
  5
53C
  2
LDR
 10
417.564833
 20
-146.445167
 30
0.0
 41
239.999999
 42
239.999999
 50
271.965857
210
0.0
220
0.0
230
1.0
  0
LINE
  8
1
  6
CONTINUOUS
 62
     7
  5
53D
 10
474.053083
 20
-136.445167
 30
0.0
 11
461.005167
 21
-109.40825
 31
0.0
  0
LINE
  8
1
  6
CONTINUOUS
 62
     7
  5
53E
 10
462.32725
 20
-112.14775
 30
0.0
 11
476.553083
 21
-152.445167
 31
0.0
  0
INSERT
  8
1
  6
CONTINUOUS
 62
     1
  5
53F
  2
LDR
 10
474.053083
 20
-136.445167
 30
0.0
 41
240.000001
 42
240.000001
 50
295.761789
210
0.0
220
0.0
230
1.0
  0
INSERT
  8
1
  6
CONTINUOUS
 62
     1
  5
540
  2
LDR
 10
474.053083
 20
-136.445167
 30
0.0
 41
240.000001
 42
240.000001
 50
295.761789
210
0.0
220
0.0
230
1.0
  0
INSERT
  8
1
  6
CONTINUOUS
 62
     1
  5
541
  2
LDR
 10
476.553083
 20
-152.445167
 30
0.0
 41
240.000001
 42
240.000001
 50
289.444101
210
0.0
220
0.0
230
1.0
  0
LINE
  8
1
  6
CONTINUOUS
 62
     7
  5
542
 10
461.005167
 20
-109.40825
 30
0.0
 11
454.436167
 21
-109.40825
 31
0.0
  0
LINE
  8
1
  6
CONTINUOUS
 62
     7
  5
543
 10
483.195583
 20
-130.294667
 30
0.0
 11
466.800917
 21
-94.299917
 31
0.0
  0
LINE
  8
1
  6
CONTINUOUS
 62
     7
  5
544
 10
466.800917
 20
-94.299917
 30
0.0
 11
459.808
 21
-94.299917
 31
0.0
  0
TEXT
  8
1
  6
CONTINUOUS
 62
     7
  5
545
 10
424.087333
 20
-95.601833
 30
0.0
 40
2.5
  1
4" SOLID YELLOW
  7
MONOTXT
 11
424.087333
 21
-93.101833
 31
0.0
210
0.0
220
0.0
230
1.0
 73
     3
  0
TEXT
  8
1
  6
CONTINUOUS
 62
     7
  5
546
 10
424.087333
 20
-100.101833
 30
0.0
 40
2.5
  1
EDGE LINE
  7
MONOTXT
 11
424.087333
 21
-97.601833
 31
0.0
210
0.0
220
0.0
230
1.0
 73
     3
  0
LINE
  8
1
  6
CONTINUOUS
 62
     7
  5
547
 10
495.057917
 20
-152.434083
 30
0.0
 11
509.2245
 21
-195.287417
 31
0.0
  0
INSERT
  8
1
  6
CONTINUOUS
 62
     1
  5
548
  2
LDR
 10
495.053083
 20
-152.445167
 30
0.0
 41
239.999999
 42
239.999999
 50
108.293011
210
0.0
220
0.0
230
1.0
  0
TEXT
  8
1
  6
CONTINUOUS
 62
     7
  5
549
 10
470.781667
 20
-196.264667
 30
0.0
 40
2.5
  1
4" SOLID WHITE
  7
MONOTXT
 11
470.781667
 21
-193.764667
 31
0.0
210
0.0
220
0.0
230
1.0
 73
     3
  0
TEXT
  8
1
  6
CONTINUOUS
 62
     7
  5
54A
 10
470.781667
 20
-200.764667
 30
0.0
 40
2.5
  1
EDGE LINE
  7
MONOTXT
 11
470.781667
 21
-198.264667
 31
0.0
210
0.0
220
0.0
230
1.0
 73
     3
  0
LINE
  8
1
  6
CONTINUOUS
 62
     7
  5
54B
 10
509.2245
 20
-195.287417
 30
0.0
 11
502.21225
 21
-195.287417
 31
0.0
  0
TEXT
  8
1
  6
CONTINUOUS
 62
     7
  5
54C
 10
324.1725
 20
-205.69075
 30
0.0
 40
4.0
  1
ENTRANCE RAMP: PARALLEL ACCELERATION LANE
  7
txt
210
0.0
220
0.0
230
1.0
  0
TEXT
  8
1
  6
CONTINUOUS
 62
     7
  5
54D
 10
507.308167
 20
2.060333
 30
0.0
 40
2.5
  1
1.   THE 6" TO 8" EDGE LINE SHALL BE EXTENDED TO A POINT
  7
MONOTXT
 11
507.308167
 21
4.560333
 31
0.0
210
0.0
220
0.0
230
1.0
 73
     3
  0
TEXT
  8
1
  6
CONTINUOUS
 62
     7
  5
54E
 10
507.308167
 20
-2.439667
 30
0.0
 40
2.5
  1
   APPROXIMATELY 25' BEYOND THE EXIT SIGN ON BOTH SIDES
  7
MONOTXT
 11
507.308167
 21
0.060333
 31
0.0
210
0.0
220
0.0
230
1.0
 73
     3
  0
TEXT
  8
1
  6
CONTINUOUS
 62
     7
  5
54F
 10
507.308167
 20
-6.939667
 30
0.0
 40
2.5
  1
   OF THE GORE.
  7
MONOTXT
 11
507.308167
 21
-4.439667
 31
0.0
210
0.0
220
0.0
230
1.0
 73
     3
  0
TEXT
  8
1
  6
CONTINUOUS
 62
     7
  5
550
 10
507.308167
 20
-11.439667
 30
0.0
 40
2.5
  1
 
  7
MONOTXT
 11
507.308167
 21
-8.939667
 31
0.0
210
0.0
220
0.0
230
1.0
 73
     3
  0
TEXT
  8
1
  6
CONTINUOUS
 62
     7
  5
551
 10
507.308167
 20
-15.939667
 30
0.0
 40
2.5
  1
2.   THE 6" TO 8" EDGE LINE ON BOTH SIDES OF THE GORE
  7
MONOTXT
 11
507.308167
 21
-13.439667
 31
0.0
210
0.0
220
0.0
230
1.0
 73
     3
  0
TEXT
  8
1
  6
CONTINUOUS
 62
     7
  5
552
 10
507.308167
 20
-20.439667
 30
0.0
 40
2.5
  1
   SHALL BE PLACED BEGINNING AT A POINT APPROXIMATELY
  7
MONOTXT
 11
507.308167
 21
-17.939667
 31
0.0
210
0.0
220
0.0
230
1.0
 73
     3
  0
TEXT
  8
1
  6
CONTINUOUS
 62
     7
  5
553
 10
507.308167
 20
-24.939667
 30
0.0
 40
2.5
  1
   25' BEFORE THE POINT WHERE THE RAMP AND MAINLINE
  7
MONOTXT
 11
507.308167
 21
-22.439667
 31
0.0
210
0.0
220
0.0
230
1.0
 73
     3
  0
TEXT
  8
1
  6
CONTINUOUS
 62
     7
  5
554
 10
507.308167
 20
-29.439667
 30
0.0
 40
2.5
  1
   SHOULDER AREAS JOIN AND EXTEND UNTIL THE 6" TO 8"
  7
MONOTXT
 11
507.308167
 21
-26.939667
 31
0.0
210
0.0
220
0.0
230
1.0
 73
     3
  0
TEXT
  8
1
  6
CONTINUOUS
 62
     7
  5
555
 10
507.308167
 20
-33.939667
 30
0.0
 40
2.5
  1
   LINES MERGE INTO ONE 6" TO 8" LINE.
  7
MONOTXT
 11
507.308167
 21
-31.439667
 31
0.0
210
0.0
220
0.0
230
1.0
 73
     3
  0
TEXT
  8
1
  6
CONTINUOUS
 62
     7
  5
556
 10
507.308167
 20
-38.439667
 30
0.0
 40
2.5
  1
 
  7
MONOTXT
 11
507.308167
 21
-35.939667
 31
0.0
210
0.0
220
0.0
230
1.0
 73
     3
  0
TEXT
  8
1
  6
CONTINUOUS
 62
     7
  5
557
 10
507.308167
 20
-42.939667
 30
0.0
 40
2.5
  1
3.   THE 6" TO 8" EDGE LINE ON THE RIGHT SIDE OF THE GORE
  7
MONOTXT
 11
507.308167
 21
-40.439667
 31
0.0
210
0.0
220
0.0
230
1.0
 73
     3
  0
TEXT
  8
1
  6
CONTINUOUS
 62
     7
  5
558
 10
507.308167
 20
-47.439667
 30
0.0
 40
2.5
  1
   SHALL BE PLACED BEGINNING AT A POINT APPROXIMATELY
  7
MONOTXT
 11
507.308167
 21
-44.939667
 31
0.0
210
0.0
220
0.0
230
1.0
 73
     3
  0
TEXT
  8
1
  6
CONTINUOUS
 62
     7
  5
559
 10
507.308167
 20
-51.939667
 30
0.0
 40
2.5
  1
   25' BEFORE THE POINT WHERE THE RAMP AND MAINLINE
  7
MONOTXT
 11
507.308167
 21
-49.439667
 31
0.0
210
0.0
220
0.0
230
1.0
 73
     3
  0
TEXT
  8
1
  6
CONTINUOUS
 62
     7
  5
55A
 10
507.308167
 20
-56.439667
 30
0.0
 40
2.5
  1
   SHOULDER AREAS JOIN AND EXTEND FOR APPROXIMATELY
  7
MONOTXT
 11
507.308167
 21
-53.939667
 31
0.0
210
0.0
220
0.0
230
1.0
 73
     3
  0
TEXT
  8
1
  6
CONTINUOUS
 62
     7
  5
55B
 10
507.308167
 20
-60.939667
 30
0.0
 40
2.5
  1
   ONE-HALF THE LENGTH TO THE THEORETICAL GORE POINT.
  7
MONOTXT
 11
507.308167
 21
-58.439667
 31
0.0
210
0.0
220
0.0
230
1.0
 73
     3
  0
TEXT
  8
1
  6
CONTINUOUS
 62
     7
  5
55C
 10
507.308167
 20
-65.439667
 30
0.0
 40
2.5
  1
 
  7
MONOTXT
 11
507.308167
 21
-62.939667
 31
0.0
210
0.0
220
0.0
230
1.0
 73
     3
  0
TEXT
  8
1
  6
CONTINUOUS
 62
     7
  5
55D
 10
507.308167
 20
-69.939667
 30
0.0
 40
2.5
  1
4.   IF TYPICAL MARKINGS AS SHOWN ON THIS SHEET DO NOT
  7
MONOTXT
 11
507.308167
 21
-67.439667
 31
0.0
210
0.0
220
0.0
230
1.0
 73
     3
  0
TEXT
  8
1
  6
CONTINUOUS
 62
     7
  5
55E
 10
507.308167
 20
-74.439667
 30
0.0
 40
2.5
  1
   APPLY, MARKINGS WILL BE AS SHOWN ON THE PLAN OR AS
  7
MONOTXT
 11
507.308167
 21
-71.939667
 31
0.0
210
0.0
220
0.0
230
1.0
 73
     3
  0
TEXT
  8
1
  6
CONTINUOUS
 62
     7
  5
55F
 10
507.308167
 20
-78.939667
 30
0.0
 40
2.5
  1
   DIRECTED BY THE ENGINEER.
  7
MONOTXT
 11
507.308167
 21
-76.439667
 31
0.0
210
0.0
220
0.0
230
1.0
 73
     3
  0
TEXT
  8
1
  6
CONTINUOUS
 62
     7
  5
560
 10
507.308167
 20
-83.439667
 30
0.0
 40
2.5
  1
 
  7
MONOTXT
 11
507.308167
 21
-80.939667
 31
0.0
210
0.0
220
0.0
230
1.0
 73
     3
  0
TEXT
  8
1
  6
CONTINUOUS
 62
     7
  5
561
 10
507.308167
 20
-87.939667
 30
0.0
 40
2.5
  1
5.   THIS DIMENSION SHALL BE 12 FEET UNLESS OTHERWISE
  7
MONOTXT
 11
507.308167
 21
-85.439667
 31
0.0
210
0.0
220
0.0
230
1.0
 73
     3
  0
TEXT
  8
1
  6
CONTINUOUS
 62
     7
  5
562
 10
507.308167
 20
-92.439667
 30
0.0
 40
2.5
  1
   SPECIFIED. IN NO CASE SHALL THIS DIMENSION BE LESS
  7
MONOTXT
 11
507.308167
 21
-89.939667
 31
0.0
210
0.0
220
0.0
230
1.0
 73
     3
  0
TEXT
  8
1
  6
CONTINUOUS
 62
     7
  5
563
 10
507.308167
 20
-96.939667
 30
0.0
 40
2.5
  1
   THAN 8 FEET OR GREATER THAN 12 FEET. 
  7
MONOTXT
 11
507.308167
 21
-94.439667
 31
0.0
210
0.0
220
0.0
230
1.0
 73
     3
  0
TEXT
  8
1
  6
CONTINUOUS
 62
     7
  5
564
 10
554.94225
 20
11.122833
 30
0.0
 40
2.5
  1
GENERAL NOTES
  7
MONOTXT
210
0.0
220
0.0
230
1.0
  0
LINE
  8
1
  6
CONTINUOUS
 62
     7
  5
565
 10
553.230833
 20
9.696167
 30
0.0
 11
586.96575
 21
9.696167
 31
0.0
  0
TEXT
  8
1
  6
CONTINUOUS
 62
     1
  5
566
 10
522.743583
 20
-368.4565
 30
0.0
 40
1.2
  1
CATALOG:dt standards  FILENAME:tem1.dgn     DATE:02/24/93
  7
MONOTXT
210
0.0
220
0.0
230
1.0
  0
INSERT
  8
1
  6
CONTINUOUS
 62
     1
  5
567
  2
LDR
 10
52.248583
 20
-150.746667
 30
0.0
 41
239.999999
 42
239.999999
 50
290.55116
210
0.0
220
0.0
230
1.0
  0
INSERT
  8
1
  6
CONTINUOUS
 62
     1
  5
568
  2
LDR
 10
52.248583
 20
-150.746667
 30
0.0
 41
239.999999
 42
239.999999
 50
290.55116
210
0.0
220
0.0
230
1.0
  0
INSERT
  8
1
  6
CONTINUOUS
 62
     1
  5
569
  2
LDR
 10
100.46
 20
-153.979
 30
0.0
 41
240.000001
 42
240.000001
 50
115.145518
210
0.0
220
0.0
230
1.0
  0
INSERT
  8
1
  6
CONTINUOUS
 62
     1
  5
56A
  2
LDR
 10
100.46
 20
-153.979
 30
0.0
 41
240.000001
 42
240.000001
 50
115.145518
210
0.0
220
0.0
230
1.0
  0
INSERT
  8
1
  6
CONTINUOUS
 62
     1
  5
56B
  2
LDR
 10
110.96
 20
-153.979
 30
0.0
 41
239.999999
 42
239.999999
 50
121.316943
210
0.0
220
0.0
230
1.0
  0
TEXT
  8
1
  6
CONTINUOUS
 62
     7
  5
56C
 10
35.2
 20
-244.8705
 30
0.0
 40
2.5
  1
- BI-DIRECTIONAL (WHITE/RED) WITH
  7
MONOTXT
 11
35.2
 21
-242.3705
 31
0.0
210
0.0
220
0.0
230
1.0
 73
     3
  0
TEXT
  8
1
  6
CONTINUOUS
 62
     7
  5
56D
 10
35.2
 20
-249.3705
 30
0.0
 40
2.5
  1
  WHITE REFLECTOR FACING TRAFFIC
  7
MONOTXT
 11
35.2
 21
-246.8705
 31
0.0
210
0.0
220
0.0
230
1.0
 73
     3
  0
TEXT
  8
1
  6
CONTINUOUS
 62
     7
  5
56E
 10
35.2
 20
-253.8705
 30
0.0
 40
2.5
  1
 
  7
MONOTXT
 11
35.2
 21
-251.3705
 31
0.0
210
0.0
220
0.0
230
1.0
 73
     3
  0
TEXT
  8
1
  6
CONTINUOUS
 62
     7
  5
56F
 10
35.2
 20
-258.3705
 30
0.0
 40
2.5
  1
- MONO-DIRECTIONAL WITH WHITE
  7
MONOTXT
 11
35.2
 21
-255.8705
 31
0.0
210
0.0
220
0.0
230
1.0
 73
     3
  0
TEXT
  8
1
  6
CONTINUOUS
 62
     7
  5
570
 10
35.2
 20
-262.8705
 30
0.0
 40
2.5
  1
  REFLECTOR FACING TRAFFIC
  7
MONOTXT
 11
35.2
 21
-260.3705
 31
0.0
210
0.0
220
0.0
230
1.0
 73
     3
  0
INSERT
  8
1
  6
CONTINUOUS
 62
     1
  5
571
  2
LDR
 10
476.553083
 20
-5.059167
 30
0.0
 41
239.999999
 42
239.999999
 50
289.111606
210
0.0
220
0.0
230
1.0
  0
TEXT
  8
1
  6
CONTINUOUS
 62
     7
  5
572
 10
315.183417
 20
-72.713333
 30
0.0
 40
4.0
  1
ENTRANCE RAMP: TAPERED ACCELERATION LANE
  7
txt
210
0.0
220
0.0
230
1.0
  0
LINE
  8
1
  6
CONTINUOUS
 62
     7
  5
573
 10
568.388083
 20
-88.728667
 30
0.0
 11
584.298167
 21
-88.728667
 31
0.0
  0
INSERT
  8
1
  6
CONTINUOUS
 62
     1
  5
574
  2
ARO
 10
369.570917
 20
-235.0535
 30
0.0
 41
240.000001
 42
240.000001
 50
167.545626
210
0.0
220
0.0
230
1.0
  0
INSERT
  8
1
  6
CONTINUOUS
 62
     1
  5
575
  2
ARO
 10
366.399917
 20
-275.967167
 30
0.0
 41
239.999999
 42
239.999999
 50
179.955156
210
0.0
220
0.0
230
1.0
  0
INSERT
  8
1
  6
CONTINUOUS
 62
     1
  5
576
  2
ARO
 10
374.20825
 20
-333.215583
 30
0.0
 41
239.999999
 42
239.999999
 50
179.955156
210
0.0
220
0.0
230
1.0
  0
TEXT
  8
1
  6
CONTINUOUS
 62
     7
  5
577
 10
369.48225
 20
-334.598833
 30
0.0
 40
2.5
  1
         THIS ARROW ONLY
  7
MONOTXT
 11
369.48225
 21
-332.098833
 31
0.0
210
0.0
220
0.0
230
1.0
 73
     3
  0
TEXT
  8
1
  6
CONTINUOUS
 62
     7
  5
578
 10
369.48225
 20
-339.098833
 30
0.0
 40
2.5
  1
INDICATES DIRECTION OF TRAVEL.
  7
MONOTXT
 11
369.48225
 21
-336.598833
 31
0.0
210
0.0
220
0.0
230
1.0
 73
     3
  0
POLYLINE
  8
1
  6
CONTINUOUS
 62
     7
  5
579
 66
     1
 10
0.0
 20
0.0
 30
0.0
  0
VERTEX
  8
1
  6
CONTINUOUS
 62
     7
  5
57A
 10
472.641
 20
-268.885917
 30
0.0
  0
VERTEX
  8
1
  6
CONTINUOUS
 62
     7
  5
57B
 10
470.641
 20
-272.35
 30
0.0
  0
VERTEX
  8
1
  6
CONTINUOUS
 62
     7
  5
57C
 10
474.641
 20
-272.35
 30
0.0
  0
VERTEX
  8
1
  6
CONTINUOUS
 62
     7
  5
57D
 10
472.641
 20
-268.885917
 30
0.0
  0
SEQEND
  8
1
  6
CONTINUOUS
 62
     7
  5
57E
  0
TEXT
  8
1
  6
CONTINUOUS
 62
     7
  5
57F
 10
472.221667
 20
-271.81825
 30
0.0
 40
1.5
  1
5
  7
MONOTXT
210
0.0
220
0.0
230
1.0
  0
TEXT
  8
1
  6
CONTINUOUS
 62
     7
  5
580
 10
475.46975
 20
-271.550083
 30
0.0
 40
2.0
  1
ADDED NOTE ABOUT ARROWS
  7
MONOTXT
210
0.0
220
0.0
230
1.0
  0
POLYLINE
  8
1
  6
CONTINUOUS
 62
     7
  5
581
 66
     1
 10
0.0
 20
0.0
 30
0.0
  0
VERTEX
  8
1
  6
CONTINUOUS
 62
     7
  5
582
 10
475.085083
 20
-344.008417
 30
0.0
  0
VERTEX
  8
1
  6
CONTINUOUS
 62
     7
  5
583
 10
473.085083
 20
-347.4725
 30
0.0
  0
VERTEX
  8
1
  6
CONTINUOUS
 62
     7
  5
584
 10
477.085083
 20
-347.4725
 30
0.0
  0
VERTEX
  8
1
  6
CONTINUOUS
 62
     7
  5
585
 10
475.085083
 20
-344.008417
 30
0.0
  0
SEQEND
  8
1
  6
CONTINUOUS
 62
     7
  5
586
  0
TEXT
  8
1
  6
CONTINUOUS
 62
     7
  5
587
 10
474.436833
 20
-346.85575
 30
0.0
 40
1.5
  1
5
  7
MONOTXT
210
0.0
220
0.0
230
1.0
  0
TEXT
  8
1
  6
CONTINUOUS
 62
     7
  5
588
 10
368.79125
 20
-327.951333
 30
0.0
 40
2.5
  1
NOTE:
  7
MONOTXT
 11
368.79125
 21
-325.451333
 31
0.0
210
0.0
220
0.0
230
1.0
 73
     3
  0
ENDSEC
  0
EOF
