  0
SECTION
  2
HEADER
  9
$ACADVER
  1
AC1009
  9
$INSBASE
 10
0.0
 20
0.0
 30
0.0
  9
$EXTMIN
 10
-295.269333
 20
-101.595583
 30
0.0
  9
$EXTMAX
 10
384.810667
 20
338.444417
 30
0.0
  9
$LIMMIN
 10
0.0
 20
0.0
  9
$LIMMAX
 10
12.0
 20
9.0
  9
$ORTHOMODE
 70
     0
  9
$REGENMODE
 70
     1
  9
$FILLMODE
 70
     1
  9
$QTEXTMODE
 70
     0
  9
$MIRRTEXT
 70
     1
  9
$DRAGMODE
 70
     2
  9
$LTSCALE
 40
1.0
  9
$OSMODE
 70
     0
  9
$ATTMODE
 70
     1
  9
$TEXTSIZE
 40
0.2
  9
$TRACEWID
 40
0.05
  9
$TEXTSTYLE
  7
STANDARD
  9
$CLAYER
  8
0
  9
$CELTYPE
  6
CONTINUOUS
  9
$CECOLOR
 62
   256
  9
$DIMSCALE
 40
1.0
  9
$DIMASZ
 40
0.18
  9
$DIMEXO
 40
0.0625
  9
$DIMDLI
 40
0.38
  9
$DIMRND
 40
0.0
  9
$DIMDLE
 40
0.0
  9
$DIMEXE
 40
0.18
  9
$DIMTP
 40
0.0
  9
$DIMTM
 40
0.0
  9
$DIMTXT
 40
0.18
  9
$DIMCEN
 40
0.09
  9
$DIMTSZ
 40
0.0
  9
$DIMTOL
 70
     0
  9
$DIMLIM
 70
     0
  9
$DIMTIH
 70
     1
  9
$DIMTOH
 70
     1
  9
$DIMSE1
 70
     0
  9
$DIMSE2
 70
     0
  9
$DIMTAD
 70
     0
  9
$DIMZIN
 70
     0
  9
$DIMBLK
  1

  9
$DIMASO
 70
     1
  9
$DIMSHO
 70
     1
  9
$DIMPOST
  1

  9
$DIMAPOST
  1

  9
$DIMALT
 70
     0
  9
$DIMALTD
 70
     2
  9
$DIMALTF
 40
25.4
  9
$DIMLFAC
 40
1.0
  9
$DIMTOFL
 70
     0
  9
$DIMTVP
 40
0.0
  9
$DIMTIX
 70
     0
  9
$DIMSOXD
 70
     0
  9
$DIMSAH
 70
     0
  9
$DIMBLK1
  1

  9
$DIMBLK2
  1

  9
$DIMSTYLE
  2
STANDARD
  9
$DIMCLRD
 70
     0
  9
$DIMCLRE
 70
     0
  9
$DIMCLRT
 70
     0
  9
$DIMTFAC
 40
1.0
  9
$DIMGAP
 40
0.09
  9
$LUNITS
 70
     2
  9
$LUPREC
 70
     4
  9
$AXISMODE
 70
     0
  9
$AXISUNIT
 10
0.0
 20
0.0
  9
$SKETCHINC
 40
0.1
  9
$FILLETRAD
 40
0.0
  9
$AUNITS
 70
     0
  9
$AUPREC
 70
     0
  9
$MENU
  1
acad
  9
$ELEVATION
 40
0.0
  9
$PELEVATION
 40
0.0
  9
$THICKNESS
 40
0.0
  9
$LIMCHECK
 70
     0
  9
$BLIPMODE
 70
     1
  9
$CHAMFERA
 40
0.0
  9
$CHAMFERB
 40
0.0
  9
$SKPOLY
 70
     0
  9
$TDCREATE
 40
2451803.442245370
  9
$TDUPDATE
 40
2451803.442245370
  9
$TDINDWG
 40
0.0000000000
  9
$TDUSRTIMER
 40
0.0000000000
  9
$USRTIMER
 70
     1
  9
$ANGBASE
 50
0.0
  9
$ANGDIR
 70
     0
  9
$PDMODE
 70
     0
  9
$PDSIZE
 40
0.0
  9
$PLINEWID
 40
0.0
  9
$COORDS
 70
     0
  9
$SPLFRAME
 70
     0
  9
$SPLINETYPE
 70
     6
  9
$SPLINESEGS
 70
    10
  9
$ATTDIA
 70
     0
  9
$ATTREQ
 70
     1
  9
$HANDLING
 70
     1
  9
$HANDSEED
  5
5CB
  9
$SURFTAB1
 70
     6
  9
$SURFTAB2
 70
     6
  9
$SURFTYPE
 70
     6
  9
$SURFU
 70
     6
  9
$SURFV
 70
     6
  9
$UCSNAME
  2

  9
$UCSORG
 10
0.0
 20
0.0
 30
0.0
  9
$UCSXDIR
 10
1.0
 20
0.0
 30
0.0
  9
$UCSYDIR
 10
0.0
 20
1.0
 30
0.0
  9
$PUCSNAME
  2

  9
$PUCSORG
 10
0.0
 20
0.0
 30
0.0
  9
$PUCSXDIR
 10
1.0
 20
0.0
 30
0.0
  9
$PUCSYDIR
 10
0.0
 20
1.0
 30
0.0
  9
$USERI1
 70
     0
  9
$USERI2
 70
     0
  9
$USERI3
 70
     0
  9
$USERI4
 70
     0
  9
$USERI5
 70
     0
  9
$USERR1
 40
0.0
  9
$USERR2
 40
0.0
  9
$USERR3
 40
0.0
  9
$USERR4
 40
0.0
  9
$USERR5
 40
0.0
  9
$WORLDVIEW
 70
     1
  9
$SHADEDGE
 70
     3
  9
$SHADEDIF
 70
    70
  9
$TILEMODE
 70
     1
  9
$MAXACTVP
 70
    16
  9
$PINSBASE
 10
0.0
 20
0.0
 30
0.0
  9
$PLIMCHECK
 70
     0
  9
$PEXTMIN
 10
-1.000000E+20
 20
-1.000000E+20
 30
-1.000000E+20
  9
$PEXTMAX
 10
-1.000000E+20
 20
-1.000000E+20
 30
-1.000000E+20
  9
$PLIMMIN
 10
0.0
 20
0.0
  9
$PLIMMAX
 10
12.0
 20
9.0
  9
$UNITMODE
 70
     0
  9
$VISRETAIN
 70
     0
  9
$PLINEGEN
 70
     1
  9
$PSLTSCALE
 70
     0
  9
$TREEDEPTH
 70
  3020
  9
$DWGCODEPAGE
  3
ansi_1252
  0
ENDSEC
  0
SECTION
  2
TABLES
  0
TABLE
  2
VPORT
 70
     1
  0
VPORT
  2
*ACTIVE
 70
     0
 10
0.0
 20
0.0
 11
1.0
 21
1.0
 12
0.0
 22
0.0
 13
0.0
 23
0.0
 14
0.0
 24
0.0
 15
0.0
 25
0.0
 16
0.0
 26
0.0
 36
1.0
 17
-0.993033
 27
118.424417
 37
0.0
 40
451.041
 41
1.795122
 42
50.0
 43
0.0
 44
0.0
 50
0.0
 51
0.0
 71
     0
 72
   100
 73
     1
 74
     0
 75
     0
 76
     0
 77
     0
 78
     0
  0
ENDTAB
  0
TABLE
  2
LTYPE
 70
     7
  0
LTYPE
  2
CONTINUOUS
 70
     0
  3
Solid line
 72
    65
 73
     0
 40
0.0
  0
LTYPE
  2
DOT
 70
    64
  3
. . . . . . . . . . . . . . . . . . . . . . . . . . . . . . . . .
 72
    65
 73
     2
 40
0.25
 49
0.0
 49
-0.25
  0
LTYPE
  2
HIDDEN
 70
    64
  3
__ __ __ __ __ __ __ __ __ __ __ __ __ __ __ __ __ __ __ __ __ 
 72
    65
 73
     2
 40
0.375
 49
0.25
 49
-0.125
  0
LTYPE
  2
DASHED
 70
    64
  3
__ __ __ __ __ __ __ __ __ __ __ __ __ __ __ __ __ __ __ __ __
 72
    65
 73
     2
 40
0.75
 49
0.5
 49
-0.25
  0
LTYPE
  2
DASHDOT
 70
    64
  3
__ . __ . __ . __ . __ . __ . __ . __ . __ . __ . __ . __ . _
 72
    65
 73
     4
 40
1.0
 49
0.5
 49
-0.25
 49
0.0
 49
-0.25
  0
LTYPE
  2
DIVIDE
 70
    64
  3
____ . . ____ . . ____ . . ____ . . ____ . . ____ . . ____ . .
 72
    65
 73
     6
 40
1.25
 49
0.5
 49
-0.25
 49
0.0
 49
-0.25
 49
0.0
 49
-0.25
  0
LTYPE
  2
CENTER
 70
    64
  3
____ _ ____ _ ____ _ ____ _ ____ _ ____ _ ____ _ ____ _ ____ _
 72
    65
 73
     4
 40
2.0
 49
1.25
 49
-0.25
 49
0.25
 49
-0.25
  0
ENDTAB
  0
TABLE
  2
LAYER
 70
     5
  0
LAYER
  2
0
 70
     0
 62
     7
  6
CONTINUOUS
  0
LAYER
  2
CONSTRUCTION_CLASS
 70
     0
 62
     7
  6
CONTINUOUS
  0
LAYER
  2
PATTERN_CLASS
 70
     0
 62
     7
  6
CONTINUOUS
  0
LAYER
  2
1
 70
    64
 62
     7
  6
CONTINUOUS
  0
LAYER
  2
61
 70
    64
 62
     7
  6
CONTINUOUS
  0
ENDTAB
  0
TABLE
  2
STYLE
 70
     4
  0
STYLE
  2
STANDARD
 70
     0
 40
0.0
 41
1.0
 50
0.0
 71
     0
 42
0.0
  3
txt
  4

  0
STYLE
  2
MONOTXT
 70
     0
 40
0.2
 41
1.0
 50
0.0
 71
     0
 42
0.2
  3
MONOTXT
  4

  0
STYLE
  2
txt
 70
     0
 40
0.2
 41
1.0
 50
0.0
 71
     0
 42
0.2
  3
TXT
  4

  0
STYLE
  2
ROMANT
 70
     0
 40
0.2
 41
1.0
 50
0.0
 71
     0
 42
0.2
  3
ROMANT
  4

  0
ENDTAB
  0
TABLE
  2
VIEW
 70
     0
  0
ENDTAB
  0
TABLE
  2
UCS
 70
     0
  0
ENDTAB
  0
TABLE
  2
APPID
 70
     1
  0
APPID
  2
ACAD
 70
     0
  0
ENDTAB
  0
TABLE
  2
DIMSTYLE
 70
     1
  0
DIMSTYLE
  2
STANDARD
 70
     0
  3

  4

  5

  6

  7

 40
1.0
 41
0.18
 42
0.0625
 43
0.38
 44
0.18
 45
0.0
 46
0.0
 47
0.0
 48
0.0
140
0.18
141
0.09
142
0.0
143
25.4
144
1.0
145
0.0
146
1.0
147
0.09
 71
     0
 72
     0
 73
     1
 74
     1
 75
     0
 76
     0
 77
     0
 78
     0
170
     0
171
     2
172
     0
173
     0
174
     0
175
     0
176
     0
177
     0
178
     0
  0
ENDTAB
  0
ENDSEC
  0
SECTION
  2
BLOCKS
  0
BLOCK
  8
1
  6
CONTINUOUS
 62
     1
  5
2A
  2
STDBRD
 70
     0
 10
0.0
 20
0.0
 30
0.0
  3
STDBRD
  0
LINE
  8
61
  6
CONTINUOUS
 62
     1
  5
2C
 10
2.787917
 20
1.791833
 30
0.0
 11
0.12525
 21
1.791833
 31
0.0
  0
LINE
  8
61
  6
CONTINUOUS
 62
     1
  5
2D
 10
0.12525
 20
1.791833
 30
0.0
 11
0.12525
 21
0.04175
 31
0.0
  0
LINE
  8
61
  6
CONTINUOUS
 62
     1
  5
2E
 10
2.788
 20
0.041667
 30
0.0
 11
0.12525
 21
0.04175
 31
0.0
  0
LINE
  8
61
  6
CONTINUOUS
 62
     1
  5
2F
 10
2.787917
 20
1.791833
 30
0.0
 11
2.788
 21
0.041667
 31
0.0
  0
LINE
  8
61
  6
CONTINUOUS
 62
     7
  5
30
 10
2.7625
 20
1.772083
 30
0.0
 11
2.312583
 21
1.772
 31
0.0
  0
LINE
  8
61
  6
CONTINUOUS
 62
     7
  5
31
 10
2.312583
 20
1.772
 30
0.0
 11
2.312583
 21
1.688667
 31
0.0
  0
LINE
  8
61
  6
CONTINUOUS
 62
     7
  5
32
 10
2.7625
 20
1.772083
 30
0.0
 11
2.7625
 21
1.68875
 31
0.0
  0
LINE
  8
61
  6
CONTINUOUS
 62
     7
  5
33
 10
2.7625
 20
1.68875
 30
0.0
 11
2.312583
 21
1.688667
 31
0.0
  0
LINE
  8
61
  6
CONTINUOUS
 62
     7
  5
34
 10
2.762583
 20
1.73025
 30
0.0
 11
2.3125
 21
1.730333
 31
0.0
  0
LINE
  8
61
  6
CONTINUOUS
 62
     7
  5
35
 10
2.35425
 20
1.772
 30
0.0
 11
2.35425
 21
1.688667
 31
0.0
  0
LINE
  8
61
  6
CONTINUOUS
 62
     7
  5
36
 10
2.395917
 20
1.772
 30
0.0
 11
2.395917
 21
1.688667
 31
0.0
  0
LINE
  8
61
  6
CONTINUOUS
 62
     7
  5
37
 10
2.452917
 20
1.772
 30
0.0
 11
2.452917
 21
1.688667
 31
0.0
  0
LINE
  8
61
  6
CONTINUOUS
 62
     7
  5
38
 10
2.720833
 20
1.772083
 30
0.0
 11
2.720833
 21
1.68875
 31
0.0
  0
LINE
  8
61
  6
CONTINUOUS
 62
     7
  5
39
 10
2.679167
 20
1.772083
 30
0.0
 11
2.679167
 21
1.68875
 31
0.0
  0
LINE
  8
61
  6
CONTINUOUS
 62
     7
  5
3A
 10
2.587583
 20
1.772
 30
0.0
 11
2.587583
 21
1.688667
 31
0.0
  0
LINE
  8
61
  6
CONTINUOUS
 62
     7
  5
3B
 10
2.545917
 20
1.772
 30
0.0
 11
2.545917
 21
1.688667
 31
0.0
  0
TEXT
  8
61
  6
CONTINUOUS
 62
     7
  5
3D
 10
2.321083
 20
1.759417
 30
0.0
 40
0.005
  1
PUBLIC
 50
0.033272
  7
MONOTXT
210
0.0
220
0.0
230
1.0
  0
TEXT
  8
61
  6
CONTINUOUS
 62
     7
  5
3E
 10
2.321417
 20
1.748917
 30
0.0
 40
0.005
  1
ROADS
 50
0.124322
  7
MONOTXT
210
0.0
220
0.0
230
1.0
  0
TEXT
  8
61
  6
CONTINUOUS
 62
     7
  5
3F
 10
2.326417
 20
1.7385
 30
0.0
 40
0.005
  1
DIV.
 50
359.931522
  7
MONOTXT
210
0.0
220
0.0
230
1.0
  0
TEXT
  8
61
  6
CONTINUOUS
 62
     7
  5
40
 10
2.363417
 20
1.759667
 30
0.0
 40
0.005
  1
STATE
 50
0.058969
  7
MONOTXT
210
0.0
220
0.0
230
1.0
  0
TEXT
  8
61
  6
CONTINUOUS
 62
     7
  5
41
 10
2.367083
 20
1.74925
 30
0.0
 40
0.005
  1
DIST.
 50
0.055889
  7
MONOTXT
210
0.0
220
0.0
230
1.0
  0
TEXT
  8
61
  6
CONTINUOUS
 62
     7
  5
42
 10
2.3695
 20
1.73875
 30
0.0
 40
0.005
  1
NO.
 50
359.852072
  7
MONOTXT
210
0.0
220
0.0
230
1.0
  0
TEXT
  8
61
  6
CONTINUOUS
 62
     7
  5
43
 10
2.413417
 20
1.759417
 30
0.0
 40
0.005
  1
STATE
 50
0.058969
  7
MONOTXT
210
0.0
220
0.0
230
1.0
  0
TEXT
  8
61
  6
CONTINUOUS
 62
     7
  5
44
 10
2.408917
 20
1.749333
 30
0.0
 40
0.005
  1
PROJECT
 50
359.908431
  7
MONOTXT
210
0.0
220
0.0
230
1.0
  0
TEXT
  8
61
  6
CONTINUOUS
 62
     7
  5
45
 10
2.420333
 20
1.73875
 30
0.0
 40
0.005
  1
NO.
 50
0.225453
  7
MONOTXT
210
0.0
220
0.0
230
1.0
  0
TEXT
  8
61
  6
CONTINUOUS
 62
     7
  5
46
 10
2.4855
 20
1.75475
 30
0.0
 40
0.005
  1
FEDERAL
 50
0.006714
  7
MONOTXT
210
0.0
220
0.0
230
1.0
  0
TEXT
  8
61
  6
CONTINUOUS
 62
     7
  5
47
 10
2.479083
 20
1.743667
 30
0.0
 40
0.005
  1
PROJECT NO.
 50
359.921531
  7
MONOTXT
210
0.0
220
0.0
230
1.0
  0
TEXT
  8
61
  6
CONTINUOUS
 62
     7
  5
48
 10
2.55525
 20
1.7545
 30
0.0
 40
0.005
  1
FISCAL
 50
359.941939
  7
MONOTXT
210
0.0
220
0.0
230
1.0
  0
TEXT
  8
61
  6
CONTINUOUS
 62
     7
  5
49
 10
2.557417
 20
1.742417
 30
0.0
 40
0.005
  1
YEAR
 50
0.104606
  7
MONOTXT
210
0.0
220
0.0
230
1.0
  0
TEXT
  8
61
  6
CONTINUOUS
 62
     7
  5
4A
 10
2.616167
 20
1.748083
 30
0.0
 40
0.005
  1
COUNTY
 50
0.068575
  7
MONOTXT
210
0.0
220
0.0
230
1.0
  0
TEXT
  8
61
  6
CONTINUOUS
 62
     7
  5
4B
 10
2.689667
 20
1.755
 30
0.0
 40
0.005
  1
SHEET
 50
0.058969
  7
MONOTXT
210
0.0
220
0.0
230
1.0
  0
TEXT
  8
61
  6
CONTINUOUS
 62
     7
  5
4C
 10
2.695583
 20
1.743667
 30
0.0
 40
0.005
  1
NO.
 50
359.852072
  7
MONOTXT
210
0.0
220
0.0
230
1.0
  0
TEXT
  8
61
  6
CONTINUOUS
 62
     7
  5
4D
 10
2.73025
 20
1.754417
 30
0.0
 40
0.005
  1
TOTAL
 50
359.926039
  7
MONOTXT
210
0.0
220
0.0
230
1.0
  0
TEXT
  8
61
  6
CONTINUOUS
 62
     7
  5
4E
 10
2.728333
 20
1.743167
 30
0.0
 40
0.005
  1
SHEETS
 50
359.958675
  7
MONOTXT
210
0.0
220
0.0
230
1.0
  0
ATTDEF
  8
61
  6
CONTINUOUS
 62
     7
  5
4F
 10
0.0
 20
0.0
 30
0.0
 40
0.01
  1
  
  3

  2
TAG00
 70
     0
 50
0.029406
  7
MONOTXT
210
0.0
220
0.0
230
1.0
  0
ATTDEF
  8
61
  6
CONTINUOUS
 62
     7
  5
50
 10
0.0
 20
0.0
 30
0.0
 40
0.01
  1
   
  3

  2
TAG10
 70
     0
 50
0.011508
  7
MONOTXT
210
0.0
220
0.0
230
1.0
  0
ATTDEF
  8
61
  6
CONTINUOUS
 62
     7
  5
51
 10
0.0
 20
0.0
 30
0.0
 40
0.01
  1
   
  3

  2
TAG20
 70
     0
 50
359.922128
  7
MONOTXT
210
0.0
220
0.0
230
1.0
  0
ATTDEF
  8
61
  6
CONTINUOUS
 62
     7
  5
52
 10
0.0
 20
0.0
 30
0.0
 40
0.008333
  1
    
  3

  2
TAG30
 70
     0
 50
0.054383
  7
MONOTXT
210
0.0
220
0.0
230
1.0
  0
ATTDEF
  8
61
  6
CONTINUOUS
 62
     7
  5
53
 10
0.0
 20
0.0
 30
0.0
 40
0.00825
  1
       
  3

  2
TAG40
 70
     0
 50
0.064678
 41
1.010101
  7
MONOTXT
210
0.0
220
0.0
230
1.0
  0
ATTDEF
  8
61
  6
CONTINUOUS
 62
     7
  5
54
 10
0.0
 20
0.0
 30
0.0
 40
0.00825
  1
      
  3

  2
TAG50
 70
     0
 50
359.958053
 41
1.010101
  7
MONOTXT
210
0.0
220
0.0
230
1.0
  0
ATTDEF
  8
61
  6
CONTINUOUS
 62
     7
  5
55
 10
0.0
 20
0.0
 30
0.0
 40
0.01
  1
           
  3

  2
TAG60
 70
     0
 50
0.011508
  7
MONOTXT
210
0.0
220
0.0
230
1.0
  0
ATTDEF
  8
61
  6
CONTINUOUS
 62
     7
  5
56
 10
0.0
 20
0.0
 30
0.0
 40
0.01
  1
           
  3

  2
TAG70
 70
     0
 50
0.011508
  7
MONOTXT
210
0.0
220
0.0
230
1.0
  0
ATTDEF
  8
61
  6
CONTINUOUS
 62
     7
  5
57
 10
0.0
 20
0.0
 30
0.0
 40
0.008333
  1
          
  3

  2
TAG80
 70
     0
 50
0.009222
  7
MONOTXT
210
0.0
220
0.0
230
1.0
  0
ARC
  8
61
  6
CONTINUOUS
 62
     3
  5
58
 10
0.048991
 20
1.422005
 30
0.0
 40
0.010417
 50
323.130094
 51
316.232156
210
0.0
220
0.0
230
1.0
  0
ARC
  8
61
  6
CONTINUOUS
 62
     3
  5
59
 10
0.048991
 20
1.192839
 30
0.0
 40
0.010417
 50
323.130094
 51
315.375767
210
0.0
220
0.0
230
1.0
  0
ARC
  8
61
  6
CONTINUOUS
 62
     3
  5
5A
 10
0.047824
 20
0.574339
 30
0.0
 40
0.010417
 50
322.671753
 51
321.716147
210
0.0
220
0.0
230
1.0
  0
ARC
  8
61
  6
CONTINUOUS
 62
     3
  5
5B
 10
0.047824
 20
0.345172
 30
0.0
 40
0.010417
 50
323.130094
 51
312.314392
210
0.0
220
0.0
230
1.0
  0
LINE
  8
61
  6
CONTINUOUS
 62
     2
  5
5C
 10
0.057417
 20
1.422
 30
0.0
 11
0.090667
 21
1.422083
 31
0.0
  0
LINE
  8
61
  6
CONTINUOUS
 62
     2
  5
5D
 10
0.057333
 20
1.192833
 30
0.0
 11
0.090667
 21
1.192833
 31
0.0
  0
LINE
  8
61
  6
CONTINUOUS
 62
     2
  5
5E
 10
0.056167
 20
0.574417
 30
0.0
 11
0.0895
 21
0.574417
 31
0.0
  0
LINE
  8
61
  6
CONTINUOUS
 62
     2
  5
5F
 10
0.05625
 20
0.345167
 30
0.0
 11
0.0895
 21
0.345167
 31
0.0
  0
LINE
  8
61
  6
DASHED
 62
     1
  5
60
 10
0.00025
 20
1.8335
 30
0.0
 11
2.833667
 21
1.8335
 31
0.0
  0
LINE
  8
61
  6
DASHED
 62
     1
  5
61
 10
2.833583
 20
0.000083
 30
0.0
 11
0.0
 21
0.0
 31
0.0
  0
ATTDEF
  8
61
  6
CONTINUOUS
 62
     7
  5
62
 10
0.0
 20
0.0
 30
0.0
 40
0.01
  1
     
  3

  2
TAG90
 70
     0
  7
MONOTXT
210
0.0
220
0.0
230
1.0
  0
LINE
  8
1
  6
HIDDEN
 62
     1
  5
63
 10
2.833667
 20
1.8335
 30
0.0
 11
2.833583
 21
0.000083
 31
0.0
  0
LINE
  8
1
  6
HIDDEN
 62
     1
  5
64
 10
0.00025
 20
1.8335
 30
0.0
 11
0.0
 21
0.0
 31
0.0
  0
TEXT
  8
1
  6
CONTINUOUS
 62
     1
  5
66
 10
2.645167
 20
0.03125
 30
0.0
 40
0.005
  1
TRAFFIC ENGINEERING DIVISION
  7
txt
210
0.0
220
0.0
230
1.0
  0
LINE
  8
1
  6
CONTINUOUS
 62
     7
  5
67
 10
2.07275
 20
0.041667
 30
0.0
 11
2.07275
 21
0.42325
 31
0.0
  0
LINE
  8
1
  6
CONTINUOUS
 62
     7
  5
68
 10
2.07275
 20
0.42325
 30
0.0
 11
2.788
 21
0.42325
 31
0.0
  0
LINE
  8
1
  6
CONTINUOUS
 62
     7
  5
69
 10
2.218583
 20
0.0415
 30
0.0
 11
2.218583
 21
0.228833
 31
0.0
  0
LINE
  8
1
  6
CONTINUOUS
 62
     7
  5
6A
 10
2.218583
 20
0.228833
 30
0.0
 11
2.072833
 21
0.228833
 31
0.0
  0
LINE
  8
1
  6
CONTINUOUS
 62
     7
  5
6B
 10
2.218583
 20
0.210167
 30
0.0
 11
2.072833
 21
0.210167
 31
0.0
  0
LINE
  8
1
  6
CONTINUOUS
 62
     7
  5
6C
 10
2.218583
 20
0.191417
 30
0.0
 11
2.072833
 21
0.191417
 31
0.0
  0
LINE
  8
1
  6
CONTINUOUS
 62
     7
  5
6D
 10
2.218583
 20
0.172667
 30
0.0
 11
2.072833
 21
0.172667
 31
0.0
  0
LINE
  8
1
  6
CONTINUOUS
 62
     7
  5
6E
 10
2.218583
 20
0.153833
 30
0.0
 11
2.072833
 21
0.153833
 31
0.0
  0
LINE
  8
1
  6
CONTINUOUS
 62
     7
  5
6F
 10
2.218583
 20
0.135167
 30
0.0
 11
2.072833
 21
0.135167
 31
0.0
  0
LINE
  8
1
  6
CONTINUOUS
 62
     7
  5
70
 10
2.218583
 20
0.1165
 30
0.0
 11
2.072833
 21
0.1165
 31
0.0
  0
LINE
  8
1
  6
CONTINUOUS
 62
     7
  5
71
 10
2.218583
 20
0.09775
 30
0.0
 11
2.072833
 21
0.09775
 31
0.0
  0
LINE
  8
1
  6
CONTINUOUS
 62
     7
  5
72
 10
2.218583
 20
0.079
 30
0.0
 11
2.072833
 21
0.079
 31
0.0
  0
LINE
  8
1
  6
CONTINUOUS
 62
     7
  5
73
 10
2.218583
 20
0.060167
 30
0.0
 11
2.072833
 21
0.060167
 31
0.0
  0
TEXT
  8
1
  6
CONTINUOUS
 62
     7
  5
74
 10
2.115583
 20
0.216333
 30
0.0
 40
0.008333
  1
REVISIONS
  7
MONOTXT
210
0.0
220
0.0
230
1.0
  0
TEXT
  8
1
  6
CONTINUOUS
 62
     7
  5
75
 10
2.080917
 20
0.233
 30
0.0
 40
0.008333
  1
PREPARED: 
  7
MONOTXT
210
0.0
220
0.0
230
1.0
  0
ATTDEF
  8
1
  6
CONTINUOUS
 62
     7
  5
76
 10
0.0
 20
0.0
 30
0.0
 40
0.008333
  1
01
  3

  2
TAG100
 70
     0
  7
MONOTXT
210
0.0
220
0.0
230
1.0
  0
TEXT
  8
1
  6
CONTINUOUS
 62
     7
  5
77
 10
2.163
 20
0.233
 30
0.0
 40
0.008333
  1
/
  7
MONOTXT
210
0.0
220
0.0
230
1.0
  0
ATTDEF
  8
1
  6
CONTINUOUS
 62
     7
  5
78
 10
0.0
 20
0.0
 30
0.0
 40
0.008333
  1
00
  3

  2
TAG101
 70
     0
  7
MONOTXT
210
0.0
220
0.0
230
1.0
  0
TEXT
  8
1
  6
CONTINUOUS
 62
     7
  5
79
 10
2.18125
 20
0.233
 30
0.0
 40
0.008333
  1
/
  7
MONOTXT
210
0.0
220
0.0
230
1.0
  0
ATTDEF
  8
1
  6
CONTINUOUS
 62
     7
  5
7A
 10
0.0
 20
0.0
 30
0.0
 40
0.008333
  1
73
  3

  2
TAG102
 70
     0
  7
MONOTXT
210
0.0
220
0.0
230
1.0
  0
TEXT
  8
1
  6
CONTINUOUS
 62
     7
  5
7C
 10
2.208667
 20
0.387417
 30
0.0
 40
0.02
  1
WEST VIRGINIA DIVISION OF HIGHWAYS
  7
ROMANT
 72
     1
 11
2.4335
 21
0.407417
 31
0.0
210
0.0
220
0.0
230
1.0
 73
     3
  0
TEXT
  8
1
  6
CONTINUOUS
 62
     7
  5
7D
 10
2.2535
 20
0.340917
 30
0.0
 40
0.029167
  1
STANDARD DETAIL
  7
txt
 72
     1
 11
2.438833
 21
0.370083
 31
0.0
210
0.0
220
0.0
230
1.0
 73
     3
  0
TEXT
  8
1
  6
CONTINUOUS
 62
     7
  5
7E
 10
2.234583
 20
0.0585
 30
0.0
 40
0.029167
  1
STANDARD SHEET 
  7
txt
210
0.0
220
0.0
230
1.0
  0
ATTDEF
  8
1
  6
CONTINUOUS
 62
     7
  5
7F
 10
0.0
 20
0.0
 30
0.0
 40
0.029167
  1
TES-91
  3

  2
TAG110
 70
     0
  7
txt
210
0.0
220
0.0
230
1.0
  0
ATTDEF
  8
1
  6
CONTINUOUS
 62
     1
  5
80
 10
0.0
 20
0.0
 30
0.0
 40
0.008333
  1
        
  3

  2
TAG120
 70
     0
  7
MONOTXT
 72
     1
 11
0.0
 21
0.0
 31
0.0
210
0.0
220
0.0
230
1.0
 74
     3
  0
ATTDEF
  8
1
  6
CONTINUOUS
 62
     1
  5
81
 10
0.0
 20
0.0
 30
0.0
 40
0.008333
  1
        
  3

  2
TAG130
 70
     0
  7
MONOTXT
 72
     1
 11
0.0
 21
0.0
 31
0.0
210
0.0
220
0.0
230
1.0
 74
     3
  0
ATTDEF
  8
1
  6
CONTINUOUS
 62
     1
  5
82
 10
0.0
 20
0.0
 30
0.0
 40
0.008333
  1
        
  3

  2
TAG140
 70
     0
  7
MONOTXT
 72
     1
 11
0.0
 21
0.0
 31
0.0
210
0.0
220
0.0
230
1.0
 74
     3
  0
ATTDEF
  8
1
  6
CONTINUOUS
 62
     1
  5
83
 10
0.0
 20
0.0
 30
0.0
 40
0.008333
  1
        
  3

  2
TAG150
 70
     0
  7
MONOTXT
 72
     1
 11
0.0
 21
0.0
 31
0.0
210
0.0
220
0.0
230
1.0
 74
     3
  0
ATTDEF
  8
1
  6
CONTINUOUS
 62
     1
  5
84
 10
0.0
 20
0.0
 30
0.0
 40
0.008333
  1
        
  3

  2
TAG160
 70
     0
  7
MONOTXT
 72
     1
 11
0.0
 21
0.0
 31
0.0
210
0.0
220
0.0
230
1.0
 74
     3
  0
ATTDEF
  8
1
  6
CONTINUOUS
 62
     1
  5
85
 10
0.0
 20
0.0
 30
0.0
 40
0.008333
  1
        
  3

  2
TAG170
 70
     0
  7
MONOTXT
 72
     1
 11
0.0
 21
0.0
 31
0.0
210
0.0
220
0.0
230
1.0
 74
     3
  0
ATTDEF
  8
1
  6
CONTINUOUS
 62
     1
  5
86
 10
0.0
 20
0.0
 30
0.0
 40
0.008333
  1
        
  3

  2
TAG180
 70
     0
  7
MONOTXT
 72
     1
 11
0.0
 21
0.0
 31
0.0
210
0.0
220
0.0
230
1.0
 74
     3
  0
ATTDEF
  8
1
  6
CONTINUOUS
 62
     1
  5
87
 10
0.0
 20
0.0
 30
0.0
 40
0.008333
  1
        
  3

  2
TAG190
 70
     0
  7
MONOTXT
 72
     1
 11
0.0
 21
0.0
 31
0.0
210
0.0
220
0.0
230
1.0
 74
     3
  0
ATTDEF
  8
1
  6
CONTINUOUS
 62
     1
  5
88
 10
0.0
 20
0.0
 30
0.0
 40
0.008333
  1
        
  3

  2
TAG200
 70
     0
  7
MONOTXT
 72
     1
 11
0.0
 21
0.0
 31
0.0
210
0.0
220
0.0
230
1.0
 74
     3
  0
ENDBLK
  8
1
  6
CONTINUOUS
 62
     1
  5
89
  0
BLOCK
  8
1
  6
CONTINUOUS
 62
     1
  5
589
  2
LDR
 70
     0
 10
0.0
 20
0.0
 30
0.0
  3
LNR
  0
POLYLINE
  8
1
  6
CONTINUOUS
 62
     1
  5
58A
 66
     1
 10
0.0
 20
0.0
 30
0.0
210
0.0
220
0.0
230
1.0
  0
VERTEX
  8
1
  6
CONTINUOUS
 62
     1
  5
58B
 10
-0.011987
 20
-0.001802
 30
0.0
 42
-0.265147
  0
VERTEX
  8
1
  6
CONTINUOUS
 62
     1
  5
58C
 10
-0.011849
 20
-0.001604
 30
0.0
 42
-0.064653
  0
VERTEX
  8
1
  6
CONTINUOUS
 62
     1
  5
58D
 10
-0.011407
 20
-0.001387
 30
0.0
 42
-0.025822
  0
VERTEX
  8
1
  6
CONTINUOUS
 62
     1
  5
58E
 10
-0.010681
 20
-0.00116
 30
0.0
 42
-0.014504
  0
VERTEX
  8
1
  6
CONTINUOUS
 62
     1
  5
58F
 10
-0.0097
 20
-0.000933
 30
0.0
 42
-0.009896
  0
VERTEX
  8
1
  6
CONTINUOUS
 62
     1
  5
590
 10
-0.008505
 20
-0.000715
 30
0.0
 42
-0.007708
  0
VERTEX
  8
1
  6
CONTINUOUS
 62
     1
  5
591
 10
-0.007146
 20
-0.000515
 30
0.0
 42
-0.006655
  0
VERTEX
  8
1
  6
CONTINUOUS
 62
     1
  5
592
 10
-0.005679
 20
-0.000342
 30
0.0
 42
-0.006278
  0
VERTEX
  8
1
  6
CONTINUOUS
 62
     1
  5
593
 10
-0.004164
 20
-0.000202
 30
0.0
 42
-0.006439
  0
VERTEX
  8
1
  6
CONTINUOUS
 62
     1
  5
594
 10
-0.002666
 20
-0.000101
 30
0.0
 42
-0.007196
  0
VERTEX
  8
1
  6
CONTINUOUS
 62
     1
  5
595
 10
-0.001246
 20
-0.000044
 30
0.0
 42
-0.008852
  0
VERTEX
  8
1
  6
CONTINUOUS
 62
     1
  5
596
 10
0.000037
 20
-0.000034
 30
0.0
 42
-0.008852
  0
SEQEND
  8
1
  6
CONTINUOUS
 62
     1
  5
597
  0
POLYLINE
  8
1
  6
CONTINUOUS
 62
     1
  5
598
 66
     1
 10
0.0
 20
0.0
 30
0.0
210
0.0
220
0.0
230
1.0
  0
VERTEX
  8
1
  6
CONTINUOUS
 62
     1
  5
599
 10
0.000039
 20
0.000014
 30
0.0
 42
-0.005019
  0
VERTEX
  8
1
  6
CONTINUOUS
 62
     1
  5
59A
 10
-0.001103
 20
0.000071
 30
0.0
 42
-0.004038
  0
VERTEX
  8
1
  6
CONTINUOUS
 62
     1
  5
59B
 10
-0.002373
 20
0.000158
 30
0.0
 42
-0.003548
  0
VERTEX
  8
1
  6
CONTINUOUS
 62
     1
  5
59C
 10
-0.003725
 20
0.00027
 30
0.0
 42
-0.003367
  0
VERTEX
  8
1
  6
CONTINUOUS
 62
     1
  5
59D
 10
-0.005111
 20
0.000405
 30
0.0
 42
-0.003436
  0
VERTEX
  8
1
  6
CONTINUOUS
 62
     1
  5
59E
 10
-0.006481
 20
0.000556
 30
0.0
 42
-0.003778
  0
VERTEX
  8
1
  6
CONTINUOUS
 62
     1
  5
59F
 10
-0.007786
 20
0.00072
 30
0.0
 42
-0.00451
  0
VERTEX
  8
1
  6
CONTINUOUS
 62
     1
  5
5A0
 10
-0.008979
 20
0.000889
 30
0.0
 42
-0.00594
  0
VERTEX
  8
1
  6
CONTINUOUS
 62
     1
  5
5A1
 10
-0.010018
 20
0.001058
 30
0.0
 42
-0.008921
  0
VERTEX
  8
1
  6
CONTINUOUS
 62
     1
  5
5A2
 10
-0.010864
 20
0.00122
 30
0.0
 42
-0.016392
  0
VERTEX
  8
1
  6
CONTINUOUS
 62
     1
  5
5A3
 10
-0.011488
 20
0.001371
 30
0.0
 42
-0.04458
  0
VERTEX
  8
1
  6
CONTINUOUS
 62
     1
  5
5A4
 10
-0.011867
 20
0.001503
 30
0.0
 42
-0.317392
  0
VERTEX
  8
1
  6
CONTINUOUS
 62
     1
  5
5A5
 10
-0.011987
 20
0.001614
 30
0.0
 42
-0.317392
  0
SEQEND
  8
1
  6
CONTINUOUS
 62
     1
  5
5A6
  0
ENDBLK
  8
1
  6
CONTINUOUS
 62
     1
  5
5A7
  0
ENDSEC
  0
SECTION
  2
ENTITIES
  0
INSERT
  8
1
  6
CONTINUOUS
 62
     1
  5
8A
 66
     1
  2
STDBRD
 10
-295.269333
 20
-101.595583
 30
0.0
 41
240.0
 42
240.0
210
0.0
220
0.0
230
1.0
  0
ATTRIB
  8
61
  6
CONTINUOUS
 62
     7
  5
8B
 10
272.350667
 20
307.884417
 30
0.0
 40
2.401333
  1
  
  2
TAG210
 70
     0
 50
0.029406
 41
0.996495
  7
MONOTXT
210
0.0
220
0.0
230
1.0
  0
ATTRIB
  8
61
  6
CONTINUOUS
 62
     7
  5
8C
 10
349.530667
 20
307.604417
 30
0.0
 40
2.40125
  1
   
  2
TAG220
 70
     0
 50
0.011508
 41
1.001041
  7
MONOTXT
210
0.0
220
0.0
230
1.0
  0
ATTRIB
  8
61
  6
CONTINUOUS
 62
     7
  5
8D
 10
359.410667
 20
307.584417
 30
0.0
 40
2.40125
  1
   
  2
TAG230
 70
     0
 50
359.922128
 41
1.00059
  7
MONOTXT
210
0.0
220
0.0
230
1.0
  0
ATTRIB
  8
61
  6
CONTINUOUS
 62
     7
  5
8E
 10
282.790667
 20
310.984417
 30
0.0
 40
2.006667
  1
    
  2
TAG240
 70
     0
 50
0.054383
 41
0.993729
  7
MONOTXT
210
0.0
220
0.0
230
1.0
  0
ATTRIB
  8
61
  6
CONTINUOUS
 62
     7
  5
8F
 10
279.870667
 20
307.964417
 30
0.0
 40
1.9895
  1
       
  2
TAG250
 70
     0
 50
0.064678
 41
1.000963
  7
MONOTXT
210
0.0
220
0.0
230
1.0
  0
ATTRIB
  8
61
  6
CONTINUOUS
 62
     7
  5
90
 10
280.830667
 20
305.064417
 30
0.0
 40
1.9895
  1
      
  2
TAG260
 70
     0
 50
359.958053
 41
1.000293
  7
MONOTXT
210
0.0
220
0.0
230
1.0
  0
ATTRIB
  8
61
  6
CONTINUOUS
 62
     7
  5
91
 10
291.790667
 20
309.704417
 30
0.0
 40
2.40125
  1
           
  2
TAG270
 70
     0
 50
0.011508
 41
0.998785
  7
MONOTXT
210
0.0
220
0.0
230
1.0
  0
ATTRIB
  8
61
  6
CONTINUOUS
 62
     7
  5
92
 10
291.670667
 20
306.044417
 30
0.0
 40
2.40125
  1
           
  2
TAG280
 70
     0
 50
0.011508
 41
0.999618
  7
MONOTXT
210
0.0
220
0.0
230
1.0
  0
ATTRIB
  8
61
  6
CONTINUOUS
 62
     7
  5
93
 10
327.010667
 20
307.784417
 30
0.0
 40
2.006667
  1
          
  2
TAG290
 70
     0
 50
0.009222
 41
0.992816
  7
MONOTXT
210
0.0
220
0.0
230
1.0
  0
ATTRIB
  8
61
  6
CONTINUOUS
 62
     7
  5
94
 10
360.630667
 20
283.784417
 30
0.0
 40
2.40125
  1
     
  2
TAG300
 70
     0
 41
1.001388
  7
MONOTXT
210
0.0
220
0.0
230
1.0
  0
ATTRIB
  8
1
  6
CONTINUOUS
 62
     7
  5
95
 10
221.401583
 20
-45.675583
 30
0.0
 40
1.99775
  1
01
  2
TAG310
 70
     0
  7
MONOTXT
210
0.0
220
0.0
230
1.0
  0
ATTRIB
  8
1
  6
CONTINUOUS
 62
     7
  5
96
 10
224.97225
 20
-45.675583
 30
0.0
 40
1.99775
  1
00
  2
TAG311
 70
     0
  7
MONOTXT
210
0.0
220
0.0
230
1.0
  0
ATTRIB
  8
1
  6
CONTINUOUS
 62
     7
  5
97
 10
229.392333
 20
-45.675583
 30
0.0
 40
1.99775
  1
73
  2
TAG312
 70
     0
  7
MONOTXT
210
0.0
220
0.0
230
1.0
  0
ATTRIB
  8
1
  6
CONTINUOUS
 62
     7
  5
98
 10
331.046
 20
-87.555583
 30
0.0
 40
6.992667
  1
TES-91
  2
TAG320
 70
     0
  7
txt
210
0.0
220
0.0
230
1.0
  0
ATTRIB
  8
1
  6
CONTINUOUS
 62
     1
  5
99
 10
211.490667
 20
-54.735583
 30
0.0
 40
2.0
  1
        
  2
TAG330
 70
     0
  7
MONOTXT
 72
     1
 11
219.157333
 21
-52.735583
 31
0.0
210
0.0
220
0.0
230
1.0
 74
     3
  0
ATTRIB
  8
1
  6
CONTINUOUS
 62
     1
  5
9A
 10
211.470667
 20
-59.135583
 30
0.0
 40
2.0
  1
        
  2
TAG340
 70
     0
  7
MONOTXT
 72
     1
 11
219.137333
 21
-57.135583
 31
0.0
210
0.0
220
0.0
230
1.0
 74
     3
  0
ATTRIB
  8
1
  6
CONTINUOUS
 62
     1
  5
9B
 10
211.490667
 20
-63.535583
 30
0.0
 40
2.0
  1
        
  2
TAG350
 70
     0
  7
MONOTXT
 72
     1
 11
219.157333
 21
-61.535583
 31
0.0
210
0.0
220
0.0
230
1.0
 74
     3
  0
ATTRIB
  8
1
  6
CONTINUOUS
 62
     1
  5
9C
 10
211.490667
 20
-67.935583
 30
0.0
 40
2.0
  1
        
  2
TAG360
 70
     0
  7
MONOTXT
 72
     1
 11
219.157333
 21
-65.935583
 31
0.0
210
0.0
220
0.0
230
1.0
 74
     3
  0
ATTRIB
  8
1
  6
CONTINUOUS
 62
     1
  5
9D
 10
211.330667
 20
-72.535583
 30
0.0
 40
2.0
  1
        
  2
TAG370
 70
     0
  7
MONOTXT
 72
     1
 11
218.997333
 21
-70.535583
 31
0.0
210
0.0
220
0.0
230
1.0
 74
     3
  0
ATTRIB
  8
1
  6
CONTINUOUS
 62
     1
  5
9E
 10
211.490667
 20
-77.015583
 30
0.0
 40
2.0
  1
        
  2
TAG380
 70
     0
  7
MONOTXT
 72
     1
 11
219.157333
 21
-75.015583
 31
0.0
210
0.0
220
0.0
230
1.0
 74
     3
  0
ATTRIB
  8
1
  6
CONTINUOUS
 62
     1
  5
9F
 10
211.390667
 20
-81.615583
 30
0.0
 40
2.0
  1
        
  2
TAG390
 70
     0
  7
MONOTXT
 72
     1
 11
219.057333
 21
-79.615583
 31
0.0
210
0.0
220
0.0
230
1.0
 74
     3
  0
ATTRIB
  8
1
  6
CONTINUOUS
 62
     1
  5
A0
 10
211.490667
 20
-86.195583
 30
0.0
 40
2.0
  1
        
  2
TAG400
 70
     0
  7
MONOTXT
 72
     1
 11
219.157333
 21
-84.195583
 31
0.0
210
0.0
220
0.0
230
1.0
 74
     3
  0
ATTRIB
  8
1
  6
CONTINUOUS
 62
     1
  5
A1
 10
211.490667
 20
-90.215583
 30
0.0
 40
2.0
  1
        
  2
TAG410
 70
     0
  7
MONOTXT
 72
     1
 11
219.157333
 21
-88.215583
 31
0.0
210
0.0
220
0.0
230
1.0
 74
     3
  0
SEQEND
  8
1
  6
CONTINUOUS
 62
     1
  5
A2
  0
LINE
  8
1
  6
CONTINUOUS
 62
     5
  5
A3
 10
-214.491917
 20
294.15325
 30
0.0
 11
-203.991917
 21
294.15325
 31
0.0
  0
LINE
  8
1
  6
CONTINUOUS
 62
     5
  5
A4
 10
-214.491917
 20
283.65325
 30
0.0
 11
-203.991917
 21
283.65325
 31
0.0
  0
LINE
  8
1
  6
CONTINUOUS
 62
     5
  5
A5
 10
-214.491917
 20
280.65325
 30
0.0
 11
-203.991917
 21
280.65325
 31
0.0
  0
LINE
  8
1
  6
CONTINUOUS
 62
     5
  5
A6
 10
-214.491917
 20
270.15325
 30
0.0
 11
-203.991917
 21
270.15325
 31
0.0
  0
LINE
  8
1
  6
CONTINUOUS
 62
     5
  5
A7
 10
-214.491917
 20
267.15325
 30
0.0
 11
-203.991917
 21
267.15325
 31
0.0
  0
LINE
  8
1
  6
CONTINUOUS
 62
     5
  5
A8
 10
-214.491917
 20
256.65325
 30
0.0
 11
-203.991917
 21
256.65325
 31
0.0
  0
LINE
  8
1
  6
CONTINUOUS
 62
     5
  5
A9
 10
-214.491917
 20
294.15325
 30
0.0
 11
-214.491917
 21
283.65325
 31
0.0
  0
LINE
  8
1
  6
CONTINUOUS
 62
     5
  5
AA
 10
-214.491917
 20
280.65325
 30
0.0
 11
-214.491917
 21
270.15325
 31
0.0
  0
LINE
  8
1
  6
CONTINUOUS
 62
     5
  5
AB
 10
-214.491917
 20
267.15325
 30
0.0
 11
-214.173167
 21
267.166667
 31
0.0
  0
LINE
  8
1
  6
CONTINUOUS
 62
     5
  5
AC
 10
-214.491917
 20
267.15325
 30
0.0
 11
-214.491917
 21
256.65325
 31
0.0
  0
LINE
  8
1
  6
CONTINUOUS
 62
     5
  5
AD
 10
-203.991917
 20
294.65325
 30
0.0
 11
-203.991917
 21
282.65325
 31
0.0
  0
LINE
  8
1
  6
CONTINUOUS
 62
     5
  5
AE
 10
-203.991917
 20
281.15325
 30
0.0
 11
-203.991917
 21
269.15325
 31
0.0
  0
LINE
  8
1
  6
CONTINUOUS
 62
     5
  5
AF
 10
-203.991917
 20
267.65325
 30
0.0
 11
-203.991917
 21
255.65325
 31
0.0
  0
LINE
  8
1
  6
CONTINUOUS
 62
     5
  5
B0
 10
-203.991917
 20
294.65325
 30
0.0
 11
-203.491917
 21
294.65325
 31
0.0
  0
LINE
  8
1
  6
CONTINUOUS
 62
     5
  5
B1
 10
-203.991917
 20
282.65325
 30
0.0
 11
-203.491917
 21
282.65325
 31
0.0
  0
LINE
  8
1
  6
CONTINUOUS
 62
     5
  5
B2
 10
-203.991917
 20
281.15325
 30
0.0
 11
-203.491917
 21
281.15325
 31
0.0
  0
LINE
  8
1
  6
CONTINUOUS
 62
     5
  5
B3
 10
-203.991917
 20
269.15325
 30
0.0
 11
-203.491917
 21
269.15325
 31
0.0
  0
LINE
  8
1
  6
CONTINUOUS
 62
     5
  5
B4
 10
-203.991917
 20
267.65325
 30
0.0
 11
-203.491917
 21
267.65325
 31
0.0
  0
LINE
  8
1
  6
CONTINUOUS
 62
     5
  5
B5
 10
-203.991917
 20
255.65325
 30
0.0
 11
-203.491917
 21
255.65325
 31
0.0
  0
LINE
  8
1
  6
CONTINUOUS
 62
     5
  5
B6
 10
-203.491917
 20
295.15325
 30
0.0
 11
-203.491917
 21
255.15325
 31
0.0
  0
LINE
  8
1
  6
CONTINUOUS
 62
     5
  5
B7
 10
-197.241917
 20
295.15325
 30
0.0
 11
-197.241917
 21
255.15325
 31
0.0
  0
LINE
  8
1
  6
CONTINUOUS
 62
     5
  5
B8
 10
-203.491917
 20
295.15325
 30
0.0
 11
-197.241917
 21
295.15325
 31
0.0
  0
LINE
  8
1
  6
CONTINUOUS
 62
     5
  5
B9
 10
-203.491917
 20
255.15325
 30
0.0
 11
-197.241917
 21
255.15325
 31
0.0
  0
LINE
  8
1
  6
CONTINUOUS
 62
     5
  5
BA
 10
-203.491917
 20
281.82325
 30
0.0
 11
-197.241917
 21
281.82325
 31
0.0
  0
LINE
  8
1
  6
CONTINUOUS
 62
     5
  5
BB
 10
-203.491917
 20
268.48325
 30
0.0
 11
-197.241917
 21
268.48325
 31
0.0
  0
LINE
  8
1
  6
CONTINUOUS
 62
     5
  5
BC
 10
-199.491917
 20
294.90325
 30
0.0
 11
-199.491917
 21
255.40325
 31
0.0
  0
LINE
  8
1
  6
CONTINUOUS
 62
     5
  5
BD
 10
-201.866917
 20
295.90325
 30
0.0
 11
-201.866917
 21
295.15325
 31
0.0
  0
LINE
  8
1
  6
CONTINUOUS
 62
     5
  5
BE
 10
-198.866917
 20
295.90325
 30
0.0
 11
-198.866917
 21
295.15325
 31
0.0
  0
LINE
  8
1
  6
CONTINUOUS
 62
     5
  5
BF
 10
-201.866917
 20
295.90325
 30
0.0
 11
-198.866917
 21
295.90325
 31
0.0
  0
LINE
  8
1
  6
CONTINUOUS
 62
     5
  5
C0
 10
-201.116917
 20
296.40325
 30
0.0
 11
-201.116917
 21
295.15325
 31
0.0
  0
LINE
  8
1
  6
CONTINUOUS
 62
     5
  5
C1
 10
-199.616917
 20
296.40325
 30
0.0
 11
-199.616917
 21
295.15325
 31
0.0
  0
LINE
  8
1
  6
CONTINUOUS
 62
     5
  5
C2
 10
-201.866917
 20
254.407917
 30
0.0
 11
-198.866917
 21
254.407917
 31
0.0
  0
LINE
  8
1
  6
CONTINUOUS
 62
     5
  5
C3
 10
-201.866917
 20
254.407917
 30
0.0
 11
-201.866917
 21
255.157917
 31
0.0
  0
LINE
  8
1
  6
CONTINUOUS
 62
     5
  5
C4
 10
-198.866917
 20
254.407917
 30
0.0
 11
-198.866917
 21
255.157917
 31
0.0
  0
LINE
  8
1
  6
CONTINUOUS
 62
     5
  5
C5
 10
-201.866917
 20
296.40325
 30
0.0
 11
-198.866917
 21
296.40325
 31
0.0
  0
LINE
  8
1
  6
CONTINUOUS
 62
     5
  5
C6
 10
-198.116917
 20
297.15325
 30
0.0
 11
-198.116917
 21
300.15325
 31
0.0
  0
ARC
  8
1
  6
CONTINUOUS
 62
     5
  5
C7
 10
-198.274764
 20
296.561097
 30
0.0
 40
3.595619
 50
87.483914
 51
182.516086
210
0.0
220
0.0
230
1.0
  0
ARC
  8
1
  6
CONTINUOUS
 62
     5
  5
C8
 10
-198.153687
 20
296.44002
 30
0.0
 40
0.714177
 50
87.048753
 51
182.951247
210
0.0
220
0.0
230
1.0
  0
LINE
  8
1
  6
CONTINUOUS
 62
     5
  5
C9
 10
-193.616917
 20
299.40325
 30
0.0
 11
-198.116917
 21
299.40325
 31
0.0
  0
LINE
  8
1
  6
CONTINUOUS
 62
     5
  5
CA
 10
-193.616917
 20
297.90325
 30
0.0
 11
-198.116917
 21
297.90325
 31
0.0
  0
LINE
  8
1
  6
CONTINUOUS
 62
     5
  5
CB
 10
-193.616917
 20
300.15325
 30
0.0
 11
-187.616917
 21
300.15325
 31
0.0
  0
LINE
  8
1
  6
CONTINUOUS
 62
     5
  5
CC
 10
-187.616917
 20
297.15325
 30
0.0
 11
-187.616917
 21
300.15325
 31
0.0
  0
LINE
  8
1
  6
CONTINUOUS
 62
     5
  5
CD
 10
-193.616917
 20
297.15325
 30
0.0
 11
-187.616917
 21
297.15325
 31
0.0
  0
LINE
  8
1
  6
CONTINUOUS
 62
     5
  5
CE
 10
-193.616917
 20
299.90325
 30
0.0
 11
-187.616917
 21
299.90325
 31
0.0
  0
ARC
  8
1
  6
CONTINUOUS
 62
     5
  5
CF
 10
-196.66888
 20
298.52825
 30
0.0
 40
3.347403
 50
335.747022
 51
24.252978
210
0.0
220
0.0
230
1.0
  0
ARC
  8
1
  6
CONTINUOUS
 62
     5
  5
D0
 10
-184.59562
 20
298.52825
 30
0.0
 40
3.347403
 50
155.747022
 51
204.252978
210
0.0
220
0.0
230
1.0
  0
LINE
  8
1
  6
CONTINUOUS
 62
     5
  5
D1
 10
-193.616917
 20
297.15325
 30
0.0
 11
-193.616917
 21
299.90325
 31
0.0
  0
LINE
  8
1
  6
CONTINUOUS
 62
     5
  5
D2
 10
-193.616917
 20
299.90325
 30
0.0
 11
-193.616917
 21
300.15325
 31
0.0
  0
LINE
  8
1
  6
CONTINUOUS
 62
     5
  5
D3
 10
-191.741917
 20
299.22825
 30
0.0
 11
-191.741917
 21
297.82825
 31
0.0
  0
LINE
  8
1
  6
CONTINUOUS
 62
     5
  5
D4
 10
-189.491917
 20
299.22825
 30
0.0
 11
-189.491917
 21
297.92825
 31
0.0
  0
LINE
  8
1
  6
CONTINUOUS
 62
     5
  5
D5
 10
-190.616917
 20
299.90325
 30
0.0
 11
-191.741917
 21
299.22825
 31
0.0
  0
LINE
  8
1
  6
CONTINUOUS
 62
     5
  5
D6
 10
-190.616917
 20
299.90325
 30
0.0
 11
-189.491917
 21
299.22825
 31
0.0
  0
LINE
  8
1
  6
CONTINUOUS
 62
     5
  5
D7
 10
-191.741917
 20
297.82825
 30
0.0
 11
-190.616917
 21
297.15325
 31
0.0
  0
LINE
  8
1
  6
CONTINUOUS
 62
     5
  5
D8
 10
-189.491917
 20
297.92825
 30
0.0
 11
-190.616917
 21
297.15325
 31
0.0
  0
LINE
  8
1
  6
CONTINUOUS
 62
     5
  5
D9
 10
-182.606833
 20
297.161667
 30
0.0
 11
-182.606833
 21
300.161667
 31
0.0
  0
LINE
  8
1
  6
CONTINUOUS
 62
     5
  5
DA
 10
-178.856833
 20
295.911667
 30
0.0
 11
-178.856833
 21
295.161667
 31
0.0
  0
LINE
  8
1
  6
CONTINUOUS
 62
     5
  5
DB
 10
-181.856833
 20
295.911667
 30
0.0
 11
-181.856833
 21
295.161667
 31
0.0
  0
LINE
  8
1
  6
CONTINUOUS
 62
     5
  5
DC
 10
-178.856833
 20
295.911667
 30
0.0
 11
-181.856833
 21
295.911667
 31
0.0
  0
LINE
  8
1
  6
CONTINUOUS
 62
     5
  5
DD
 10
-179.606833
 20
296.411667
 30
0.0
 11
-179.606833
 21
295.161667
 31
0.0
  0
LINE
  8
1
  6
CONTINUOUS
 62
     5
  5
DE
 10
-181.106833
 20
296.411667
 30
0.0
 11
-181.106833
 21
295.161667
 31
0.0
  0
LINE
  8
1
  6
CONTINUOUS
 62
     5
  5
DF
 10
-178.856833
 20
296.411667
 30
0.0
 11
-181.856833
 21
296.411667
 31
0.0
  0
ARC
  8
1
  6
CONTINUOUS
 62
     5
  5
E0
 10
-182.448986
 20
296.569514
 30
0.0
 40
3.595619
 50
357.483914
 51
92.516086
210
0.0
220
0.0
230
1.0
  0
ARC
  8
1
  6
CONTINUOUS
 62
     5
  5
E1
 10
-182.570063
 20
296.448437
 30
0.0
 40
0.714177
 50
357.048753
 51
92.951247
210
0.0
220
0.0
230
1.0
  0
LINE
  8
1
  6
CONTINUOUS
 62
     5
  5
E2
 10
-187.606833
 20
299.411667
 30
0.0
 11
-182.606833
 21
299.411667
 31
0.0
  0
LINE
  8
1
  6
CONTINUOUS
 62
     5
  5
E3
 10
-187.606833
 20
297.911667
 30
0.0
 11
-182.606833
 21
297.911667
 31
0.0
  0
LINE
  8
1
  6
CONTINUOUS
 62
     5
  5
E4
 10
-170.356833
 20
295.161667
 30
0.0
 11
-190.356833
 21
295.161667
 31
0.0
  0
LINE
  8
1
  6
CONTINUOUS
 62
     5
  5
E5
 10
-170.356833
 20
275.161667
 30
0.0
 11
-190.356833
 21
275.161667
 31
0.0
  0
LINE
  8
1
  6
CONTINUOUS
 62
     5
  5
E6
 10
-172.356833
 20
294.161667
 30
0.0
 11
-188.356833
 21
294.161667
 31
0.0
  0
LINE
  8
1
  6
CONTINUOUS
 62
     5
  5
E7
 10
-172.356833
 20
276.161667
 30
0.0
 11
-188.356833
 21
276.161667
 31
0.0
  0
ARC
  8
1
  6
CONTINUOUS
 62
     5
  5
E8
 10
-188.356833
 20
293.161667
 30
0.0
 40
1.0
 50
90.0
 51
180.0
210
0.0
220
0.0
230
1.0
  0
ARC
  8
1
  6
CONTINUOUS
 62
     5
  5
E9
 10
-172.356833
 20
293.161667
 30
0.0
 40
1.0
 50
0.0
 51
90.0
210
0.0
220
0.0
230
1.0
  0
ARC
  8
1
  6
CONTINUOUS
 62
     5
  5
EA
 10
-188.356833
 20
277.161667
 30
0.0
 40
1.0
 50
180.0
 51
270.0
210
0.0
220
0.0
230
1.0
  0
ARC
  8
1
  6
CONTINUOUS
 62
     5
  5
EB
 10
-172.356833
 20
277.161667
 30
0.0
 40
1.0
 50
270.0
 51
0.0
210
0.0
220
0.0
230
1.0
  0
LINE
  8
1
  6
CONTINUOUS
 62
     5
  5
EC
 10
-188.856833
 20
292.161667
 30
0.0
 11
-190.856833
 21
292.161667
 31
0.0
  0
LINE
  8
1
  6
CONTINUOUS
 62
     5
  5
ED
 10
-188.856833
 20
278.161667
 30
0.0
 11
-190.856833
 21
278.161667
 31
0.0
  0
LINE
  8
1
  6
CONTINUOUS
 62
     5
  5
EE
 10
-188.856833
 20
293.161667
 30
0.0
 11
-190.856833
 21
293.161667
 31
0.0
  0
LINE
  8
1
  6
CONTINUOUS
 62
     5
  5
EF
 10
-188.856833
 20
277.161667
 30
0.0
 11
-190.856833
 21
277.161667
 31
0.0
  0
LINE
  8
1
  6
CONTINUOUS
 62
     5
  5
F0
 10
-190.356833
 20
295.161667
 30
0.0
 11
-190.356833
 21
293.161667
 31
0.0
  0
LINE
  8
1
  6
CONTINUOUS
 62
     5
  5
F1
 10
-190.856833
 20
293.161667
 30
0.0
 11
-190.856833
 21
291.661667
 31
0.0
  0
LINE
  8
1
  6
CONTINUOUS
 62
     5
  5
F2
 10
-190.856833
 20
291.661667
 30
0.0
 11
-190.356833
 21
291.661667
 31
0.0
  0
LINE
  8
1
  6
CONTINUOUS
 62
     5
  5
F3
 10
-190.356833
 20
292.161667
 30
0.0
 11
-190.356833
 21
278.161667
 31
0.0
  0
LINE
  8
1
  6
CONTINUOUS
 62
     5
  5
F4
 10
-190.356833
 20
277.161667
 30
0.0
 11
-190.356833
 21
275.161667
 31
0.0
  0
LINE
  8
1
  6
CONTINUOUS
 62
     5
  5
F5
 10
-189.356833
 20
292.161667
 30
0.0
 11
-189.356833
 21
278.161667
 31
0.0
  0
LINE
  8
1
  6
CONTINUOUS
 62
     5
  5
F6
 10
-190.856833
 20
277.161667
 30
0.0
 11
-190.856833
 21
278.661667
 31
0.0
  0
LINE
  8
1
  6
CONTINUOUS
 62
     5
  5
F7
 10
-190.856833
 20
278.661667
 30
0.0
 11
-190.356833
 21
278.661667
 31
0.0
  0
LINE
  8
1
  6
CONTINUOUS
 62
     5
  5
F8
 10
-169.856833
 20
285.661667
 30
0.0
 11
-171.856833
 21
285.661667
 31
0.0
  0
LINE
  8
1
  6
CONTINUOUS
 62
     5
  5
F9
 10
-169.856833
 20
284.661667
 30
0.0
 11
-171.856833
 21
284.661667
 31
0.0
  0
LINE
  8
1
  6
CONTINUOUS
 62
     5
  5
FA
 10
-171.356833
 20
293.161667
 30
0.0
 11
-171.356833
 21
285.661667
 31
0.0
  0
LINE
  8
1
  6
CONTINUOUS
 62
     5
  5
FB
 10
-171.356833
 20
284.661667
 30
0.0
 11
-171.356833
 21
277.161667
 31
0.0
  0
LINE
  8
1
  6
CONTINUOUS
 62
     5
  5
FC
 10
-170.356833
 20
295.161667
 30
0.0
 11
-170.356833
 21
285.661667
 31
0.0
  0
LINE
  8
1
  6
CONTINUOUS
 62
     5
  5
FD
 10
-170.356833
 20
284.661667
 30
0.0
 11
-170.356833
 21
275.161667
 31
0.0
  0
LINE
  8
1
  6
CONTINUOUS
 62
     5
  5
FE
 10
-169.856833
 20
285.661667
 30
0.0
 11
-169.856833
 21
284.661667
 31
0.0
  0
LINE
  8
1
  6
CONTINUOUS
 62
     5
  5
FF
 10
-170.106833
 20
286.161667
 30
0.0
 11
-170.106833
 21
285.661667
 31
0.0
  0
LINE
  8
1
  6
CONTINUOUS
 62
     5
  5
100
 10
-170.106833
 20
284.661667
 30
0.0
 11
-170.106833
 21
284.161667
 31
0.0
  0
CIRCLE
  8
1
  6
CONTINUOUS
 62
     5
  5
101
 10
-180.347833
 20
285.163583
 30
0.0
 40
8.0
210
0.0
220
0.0
230
1.0
  0
TEXT
  8
1
  6
CONTINUOUS
 62
     5
  5
102
 10
-182.574083
 20
282.86275
 30
0.0
 40
5.0
  1
R
  7
txt
210
0.0
220
0.0
230
1.0
  0
LINE
  8
1
  6
CONTINUOUS
 62
     5
  5
103
 10
-173.356833
 20
261.161667
 30
0.0
 11
-187.356833
 21
261.161667
 31
0.0
  0
LINE
  8
1
  6
CONTINUOUS
 62
     5
  5
104
 10
-173.356833
 20
247.161667
 30
0.0
 11
-187.356833
 21
247.161667
 31
0.0
  0
LINE
  8
1
  6
CONTINUOUS
 62
     5
  5
105
 10
-175.106833
 20
274.161667
 30
0.0
 11
-185.606833
 21
274.161667
 31
0.0
  0
LINE
  8
1
  6
CONTINUOUS
 62
     5
  5
106
 10
-175.106833
 20
262.161667
 30
0.0
 11
-185.606833
 21
262.161667
 31
0.0
  0
LINE
  8
1
  6
CONTINUOUS
 62
     5
  5
107
 10
-175.106833
 20
260.161667
 30
0.0
 11
-185.606833
 21
260.161667
 31
0.0
  0
LINE
  8
1
  6
CONTINUOUS
 62
     5
  5
108
 10
-175.106833
 20
248.161667
 30
0.0
 11
-185.606833
 21
248.161667
 31
0.0
  0
ARC
  8
1
  6
CONTINUOUS
 62
     5
  5
109
 10
-185.606833
 20
259.411667
 30
0.0
 40
0.75
 50
90.0
 51
180.0
210
0.0
220
0.0
230
1.0
  0
ARC
  8
1
  6
CONTINUOUS
 62
     5
  5
10A
 10
-175.106833
 20
259.411667
 30
0.0
 40
0.75
 50
0.0
 51
90.0
210
0.0
220
0.0
230
1.0
  0
ARC
  8
1
  6
CONTINUOUS
 62
     5
  5
10B
 10
-185.606833
 20
248.911667
 30
0.0
 40
0.75
 50
180.0
 51
270.0
210
0.0
220
0.0
230
1.0
  0
ARC
  8
1
  6
CONTINUOUS
 62
     5
  5
10C
 10
-175.106833
 20
248.911667
 30
0.0
 40
0.75
 50
270.0
 51
0.0
210
0.0
220
0.0
230
1.0
  0
ARC
  8
1
  6
CONTINUOUS
 62
     5
  5
10D
 10
-185.606833
 20
273.411667
 30
0.0
 40
0.75
 50
90.0
 51
180.0
210
0.0
220
0.0
230
1.0
  0
ARC
  8
1
  6
CONTINUOUS
 62
     5
  5
10E
 10
-175.106833
 20
273.411667
 30
0.0
 40
0.75
 50
0.0
 51
90.0
210
0.0
220
0.0
230
1.0
  0
ARC
  8
1
  6
CONTINUOUS
 62
     5
  5
10F
 10
-185.606833
 20
262.911667
 30
0.0
 40
0.75
 50
180.0
 51
270.0
210
0.0
220
0.0
230
1.0
  0
ARC
  8
1
  6
CONTINUOUS
 62
     5
  5
110
 10
-175.106833
 20
262.911667
 30
0.0
 40
0.75
 50
270.0
 51
0.0
210
0.0
220
0.0
230
1.0
  0
TEXT
  8
1
  6
CONTINUOUS
 62
     5
  5
111
 10
-182.559
 20
265.445083
 30
0.0
 40
5.0
  1
Y
  7
txt
210
0.0
220
0.0
230
1.0
  0
TEXT
  8
1
  6
CONTINUOUS
 62
     5
  5
112
 10
-182.754
 20
251.926667
 30
0.0
 40
5.0
  1
G
  7
txt
210
0.0
220
0.0
230
1.0
  0
LINE
  8
1
  6
CONTINUOUS
 62
     5
  5
113
 10
-187.856833
 20
273.411667
 30
0.0
 11
-185.856833
 21
273.411667
 31
0.0
  0
LINE
  8
1
  6
CONTINUOUS
 62
     5
  5
114
 10
-187.856833
 20
272.411667
 30
0.0
 11
-185.856833
 21
272.411667
 31
0.0
  0
LINE
  8
1
  6
CONTINUOUS
 62
     5
  5
115
 10
-187.856833
 20
262.911667
 30
0.0
 11
-185.856833
 21
262.911667
 31
0.0
  0
LINE
  8
1
  6
CONTINUOUS
 62
     5
  5
116
 10
-187.856833
 20
263.911667
 30
0.0
 11
-185.856833
 21
263.911667
 31
0.0
  0
LINE
  8
1
  6
CONTINUOUS
 62
     5
  5
117
 10
-187.856833
 20
273.411667
 30
0.0
 11
-187.856833
 21
271.911667
 31
0.0
  0
LINE
  8
1
  6
CONTINUOUS
 62
     5
  5
118
 10
-187.856833
 20
264.411667
 30
0.0
 11
-187.856833
 21
262.911667
 31
0.0
  0
LINE
  8
1
  6
CONTINUOUS
 62
     5
  5
119
 10
-187.856833
 20
271.911667
 30
0.0
 11
-187.356833
 21
271.911667
 31
0.0
  0
LINE
  8
1
  6
CONTINUOUS
 62
     5
  5
11A
 10
-187.856833
 20
264.411667
 30
0.0
 11
-187.356833
 21
264.411667
 31
0.0
  0
LINE
  8
1
  6
CONTINUOUS
 62
     5
  5
11B
 10
-187.356833
 20
275.161667
 30
0.0
 11
-187.356833
 21
273.411667
 31
0.0
  0
LINE
  8
1
  6
CONTINUOUS
 62
     5
  5
11C
 10
-187.356833
 20
272.411667
 30
0.0
 11
-187.356833
 21
263.911667
 31
0.0
  0
LINE
  8
1
  6
CONTINUOUS
 62
     5
  5
11D
 10
-186.356833
 20
272.411667
 30
0.0
 11
-186.356833
 21
263.911667
 31
0.0
  0
LINE
  8
1
  6
CONTINUOUS
 62
     5
  5
11E
 10
-174.356833
 20
268.661667
 30
0.0
 11
-172.856833
 21
268.661667
 31
0.0
  0
LINE
  8
1
  6
CONTINUOUS
 62
     5
  5
11F
 10
-174.356833
 20
267.661667
 30
0.0
 11
-172.856833
 21
267.661667
 31
0.0
  0
LINE
  8
1
  6
CONTINUOUS
 62
     5
  5
120
 10
-174.356833
 20
273.411667
 30
0.0
 11
-174.356833
 21
268.661667
 31
0.0
  0
LINE
  8
1
  6
CONTINUOUS
 62
     5
  5
121
 10
-174.356833
 20
267.661667
 30
0.0
 11
-174.356833
 21
262.911667
 31
0.0
  0
LINE
  8
1
  6
CONTINUOUS
 62
     5
  5
122
 10
-173.356833
 20
275.161667
 30
0.0
 11
-173.356833
 21
268.661667
 31
0.0
  0
LINE
  8
1
  6
CONTINUOUS
 62
     5
  5
123
 10
-172.856833
 20
269.161667
 30
0.0
 11
-172.856833
 21
267.161667
 31
0.0
  0
LINE
  8
1
  6
CONTINUOUS
 62
     5
  5
124
 10
-187.856833
 20
259.411667
 30
0.0
 11
-185.856833
 21
259.411667
 31
0.0
  0
LINE
  8
1
  6
CONTINUOUS
 62
     5
  5
125
 10
-187.856833
 20
258.411667
 30
0.0
 11
-185.856833
 21
258.411667
 31
0.0
  0
LINE
  8
1
  6
CONTINUOUS
 62
     5
  5
126
 10
-187.856833
 20
248.911667
 30
0.0
 11
-185.856833
 21
248.911667
 31
0.0
  0
LINE
  8
1
  6
CONTINUOUS
 62
     5
  5
127
 10
-187.856833
 20
249.911667
 30
0.0
 11
-185.856833
 21
249.911667
 31
0.0
  0
LINE
  8
1
  6
CONTINUOUS
 62
     5
  5
128
 10
-187.356833
 20
262.911667
 30
0.0
 11
-187.356833
 21
259.411667
 31
0.0
  0
LINE
  8
1
  6
CONTINUOUS
 62
     5
  5
129
 10
-187.356833
 20
258.411667
 30
0.0
 11
-187.356833
 21
249.911667
 31
0.0
  0
LINE
  8
1
  6
CONTINUOUS
 62
     5
  5
12A
 10
-187.356833
 20
248.911667
 30
0.0
 11
-187.356833
 21
247.161667
 31
0.0
  0
LINE
  8
1
  6
CONTINUOUS
 62
     5
  5
12B
 10
-186.356833
 20
258.411667
 30
0.0
 11
-186.356833
 21
249.911667
 31
0.0
  0
LINE
  8
1
  6
CONTINUOUS
 62
     5
  5
12C
 10
-187.856833
 20
259.411667
 30
0.0
 11
-187.856833
 21
257.911667
 31
0.0
  0
LINE
  8
1
  6
CONTINUOUS
 62
     5
  5
12D
 10
-187.856833
 20
248.911667
 30
0.0
 11
-187.856833
 21
250.411667
 31
0.0
  0
LINE
  8
1
  6
CONTINUOUS
 62
     5
  5
12E
 10
-187.856833
 20
257.911667
 30
0.0
 11
-187.356833
 21
257.911667
 31
0.0
  0
LINE
  8
1
  6
CONTINUOUS
 62
     5
  5
12F
 10
-187.856833
 20
250.411667
 30
0.0
 11
-187.356833
 21
250.411667
 31
0.0
  0
LINE
  8
1
  6
CONTINUOUS
 62
     5
  5
130
 10
-174.356833
 20
254.661667
 30
0.0
 11
-172.856833
 21
254.661667
 31
0.0
  0
LINE
  8
1
  6
CONTINUOUS
 62
     5
  5
131
 10
-174.356833
 20
253.661667
 30
0.0
 11
-172.856833
 21
253.661667
 31
0.0
  0
LINE
  8
1
  6
CONTINUOUS
 62
     5
  5
132
 10
-172.856833
 20
255.161667
 30
0.0
 11
-172.856833
 21
253.161667
 31
0.0
  0
LINE
  8
1
  6
CONTINUOUS
 62
     5
  5
133
 10
-174.356833
 20
259.411667
 30
0.0
 11
-174.356833
 21
254.661667
 31
0.0
  0
LINE
  8
1
  6
CONTINUOUS
 62
     5
  5
134
 10
-174.356833
 20
253.661667
 30
0.0
 11
-174.356833
 21
248.911667
 31
0.0
  0
LINE
  8
1
  6
CONTINUOUS
 62
     5
  5
135
 10
-173.356833
 20
267.661667
 30
0.0
 11
-173.356833
 21
254.661667
 31
0.0
  0
LINE
  8
1
  6
CONTINUOUS
 62
     5
  5
136
 10
-173.356833
 20
253.661667
 30
0.0
 11
-173.356833
 21
247.161667
 31
0.0
  0
LINE
  8
1
  6
CONTINUOUS
 62
     5
  5
137
 10
-191.366917
 20
302.15325
 30
0.0
 11
-191.366917
 21
300.15325
 31
0.0
  0
LINE
  8
1
  6
CONTINUOUS
 62
     5
  5
138
 10
-189.866917
 20
302.15325
 30
0.0
 11
-189.866917
 21
300.15325
 31
0.0
  0
ARC
  8
1
  6
CONTINUOUS
 62
     5
  5
139
 10
-190.991917
 20
301.802968
 30
0.0
 40
0.51315
 50
43.048108
 51
136.951892
210
0.0
220
0.0
230
1.0
  0
ARC
  8
1
  6
CONTINUOUS
 62
     5
  5
13A
 10
-190.241917
 20
301.802968
 30
0.0
 40
0.51315
 50
43.048108
 51
136.951892
210
0.0
220
0.0
230
1.0
  0
ARC
  8
1
  6
CONTINUOUS
 62
     5
  5
13B
 10
-190.241917
 20
302.500032
 30
0.0
 40
0.51315
 50
223.048108
 51
316.951892
210
0.0
220
0.0
230
1.0
  0
LINE
  8
1
  6
CONTINUOUS
 62
     5
  5
13C
 10
-201.116917
 20
247.907917
 30
0.0
 11
-201.116917
 21
254.407917
 31
0.0
  0
LINE
  8
1
  6
CONTINUOUS
 62
     5
  5
13D
 10
-201.116917
 20
254.407917
 30
0.0
 11
-201.116917
 21
255.157917
 31
0.0
  0
LINE
  8
1
  6
CONTINUOUS
 62
     5
  5
13E
 10
-199.616917
 20
247.907917
 30
0.0
 11
-199.616917
 21
254.407917
 31
0.0
  0
LINE
  8
1
  6
CONTINUOUS
 62
     5
  5
13F
 10
-199.616917
 20
254.407917
 30
0.0
 11
-199.616917
 21
255.157917
 31
0.0
  0
LINE
  8
1
  6
CONTINUOUS
 62
     5
  5
140
 10
-201.866917
 20
247.887417
 30
0.0
 11
-198.866917
 21
247.887417
 31
0.0
  0
LINE
  8
1
  6
CONTINUOUS
 62
     5
  5
141
 10
-198.866917
 20
247.887417
 30
0.0
 11
-198.866917
 21
247.061667
 31
0.0
  0
LINE
  8
1
  6
CONTINUOUS
 62
     5
  5
142
 10
-201.116917
 20
247.887417
 30
0.0
 11
-201.116917
 21
247.061667
 31
0.0
  0
LINE
  8
1
  6
CONTINUOUS
 62
     5
  5
143
 10
-199.616917
 20
247.887417
 30
0.0
 11
-199.616917
 21
247.061667
 31
0.0
  0
LINE
  8
1
  6
CONTINUOUS
 62
     5
  5
144
 10
-181.856833
 20
245.911667
 30
0.0
 11
-181.856833
 21
246.661667
 31
0.0
  0
LINE
  8
1
  6
CONTINUOUS
 62
     5
  5
145
 10
-178.856833
 20
245.911667
 30
0.0
 11
-178.856833
 21
247.161667
 31
0.0
  0
LINE
  8
1
  6
CONTINUOUS
 62
     5
  5
146
 10
-181.106833
 20
245.911667
 30
0.0
 11
-181.106833
 21
246.661667
 31
0.0
  0
LINE
  8
1
  6
CONTINUOUS
 62
     5
  5
147
 10
-179.606833
 20
245.911667
 30
0.0
 11
-179.606833
 21
246.661667
 31
0.0
  0
LINE
  8
1
  6
CONTINUOUS
 62
     5
  5
148
 10
-178.856833
 20
246.661667
 30
0.0
 11
-201.866917
 21
246.661667
 31
0.0
  0
LINE
  8
1
  6
CONTINUOUS
 62
     5
  5
149
 10
-181.856833
 20
245.911667
 30
0.0
 11
-178.856833
 21
245.911667
 31
0.0
  0
LINE
  8
1
  6
CONTINUOUS
 62
     5
  5
14A
 10
-178.856833
 20
247.061667
 30
0.0
 11
-201.866917
 21
247.061667
 31
0.0
  0
LINE
  8
1
  6
CONTINUOUS
 62
     5
  5
14B
 10
-201.866917
 20
247.887417
 30
0.0
 11
-201.866917
 21
247.061667
 31
0.0
  0
LINE
  8
1
  6
CONTINUOUS
 62
     5
  5
14C
 10
-201.866917
 20
247.061667
 30
0.0
 11
-201.866917
 21
246.661667
 31
0.0
  0
LINE
  8
1
  6
CONTINUOUS
 62
     5
  5
14D
 10
-201.866917
 20
245.836917
 30
0.0
 11
-198.866917
 21
245.836917
 31
0.0
  0
LINE
  8
1
  6
CONTINUOUS
 62
     5
  5
14E
 10
-198.866917
 20
245.836917
 30
0.0
 11
-198.866917
 21
246.662667
 31
0.0
  0
LINE
  8
1
  6
CONTINUOUS
 62
     5
  5
14F
 10
-201.116917
 20
245.836917
 30
0.0
 11
-201.116917
 21
246.662667
 31
0.0
  0
LINE
  8
1
  6
CONTINUOUS
 62
     5
  5
150
 10
-199.616917
 20
245.836917
 30
0.0
 11
-199.616917
 21
246.662667
 31
0.0
  0
LINE
  8
1
  6
CONTINUOUS
 62
     5
  5
151
 10
-201.866917
 20
245.836917
 30
0.0
 11
-201.866917
 21
246.662667
 31
0.0
  0
LINE
  8
1
  6
CONTINUOUS
 62
     5
  5
152
 10
-132.991917
 20
294.15325
 30
0.0
 11
-122.491917
 21
294.15325
 31
0.0
  0
LINE
  8
1
  6
CONTINUOUS
 62
     5
  5
153
 10
-132.991917
 20
283.65325
 30
0.0
 11
-122.491917
 21
283.65325
 31
0.0
  0
LINE
  8
1
  6
CONTINUOUS
 62
     5
  5
154
 10
-132.991917
 20
280.65325
 30
0.0
 11
-122.491917
 21
280.65325
 31
0.0
  0
LINE
  8
1
  6
CONTINUOUS
 62
     5
  5
155
 10
-132.991917
 20
270.15325
 30
0.0
 11
-122.491917
 21
270.15325
 31
0.0
  0
LINE
  8
1
  6
CONTINUOUS
 62
     5
  5
156
 10
-132.991917
 20
267.15325
 30
0.0
 11
-122.491917
 21
267.15325
 31
0.0
  0
LINE
  8
1
  6
CONTINUOUS
 62
     5
  5
157
 10
-132.991917
 20
256.65325
 30
0.0
 11
-122.491917
 21
256.65325
 31
0.0
  0
LINE
  8
1
  6
CONTINUOUS
 62
     5
  5
158
 10
-132.991917
 20
294.15325
 30
0.0
 11
-132.991917
 21
283.65325
 31
0.0
  0
LINE
  8
1
  6
CONTINUOUS
 62
     5
  5
159
 10
-132.991917
 20
280.65325
 30
0.0
 11
-132.991917
 21
270.15325
 31
0.0
  0
LINE
  8
1
  6
CONTINUOUS
 62
     5
  5
15A
 10
-132.991917
 20
267.15325
 30
0.0
 11
-132.673167
 21
267.166667
 31
0.0
  0
LINE
  8
1
  6
CONTINUOUS
 62
     5
  5
15B
 10
-132.991917
 20
267.15325
 30
0.0
 11
-132.991917
 21
256.65325
 31
0.0
  0
LINE
  8
1
  6
CONTINUOUS
 62
     5
  5
15C
 10
-122.491917
 20
294.65325
 30
0.0
 11
-122.491917
 21
282.65325
 31
0.0
  0
LINE
  8
1
  6
CONTINUOUS
 62
     5
  5
15D
 10
-122.491917
 20
281.15325
 30
0.0
 11
-122.491917
 21
269.15325
 31
0.0
  0
LINE
  8
1
  6
CONTINUOUS
 62
     5
  5
15E
 10
-122.491917
 20
267.65325
 30
0.0
 11
-122.491917
 21
255.65325
 31
0.0
  0
LINE
  8
1
  6
CONTINUOUS
 62
     5
  5
15F
 10
-122.491917
 20
294.65325
 30
0.0
 11
-121.991917
 21
294.65325
 31
0.0
  0
LINE
  8
1
  6
CONTINUOUS
 62
     5
  5
160
 10
-122.491917
 20
282.65325
 30
0.0
 11
-121.991917
 21
282.65325
 31
0.0
  0
LINE
  8
1
  6
CONTINUOUS
 62
     5
  5
161
 10
-122.491917
 20
281.15325
 30
0.0
 11
-121.991917
 21
281.15325
 31
0.0
  0
LINE
  8
1
  6
CONTINUOUS
 62
     5
  5
162
 10
-122.491917
 20
269.15325
 30
0.0
 11
-121.991917
 21
269.15325
 31
0.0
  0
LINE
  8
1
  6
CONTINUOUS
 62
     5
  5
163
 10
-122.491917
 20
267.65325
 30
0.0
 11
-121.991917
 21
267.65325
 31
0.0
  0
LINE
  8
1
  6
CONTINUOUS
 62
     5
  5
164
 10
-122.491917
 20
255.65325
 30
0.0
 11
-121.991917
 21
255.65325
 31
0.0
  0
LINE
  8
1
  6
CONTINUOUS
 62
     5
  5
165
 10
-121.991917
 20
295.15325
 30
0.0
 11
-121.991917
 21
255.15325
 31
0.0
  0
LINE
  8
1
  6
CONTINUOUS
 62
     5
  5
166
 10
-115.741917
 20
295.15325
 30
0.0
 11
-115.741917
 21
255.15325
 31
0.0
  0
LINE
  8
1
  6
CONTINUOUS
 62
     5
  5
167
 10
-121.991917
 20
295.15325
 30
0.0
 11
-115.741917
 21
295.15325
 31
0.0
  0
LINE
  8
1
  6
CONTINUOUS
 62
     5
  5
168
 10
-121.991917
 20
255.15325
 30
0.0
 11
-115.741917
 21
255.15325
 31
0.0
  0
LINE
  8
1
  6
CONTINUOUS
 62
     5
  5
169
 10
-121.991917
 20
281.82325
 30
0.0
 11
-115.741917
 21
281.82325
 31
0.0
  0
LINE
  8
1
  6
CONTINUOUS
 62
     5
  5
16A
 10
-121.991917
 20
268.48325
 30
0.0
 11
-115.741917
 21
268.48325
 31
0.0
  0
LINE
  8
1
  6
CONTINUOUS
 62
     5
  5
16B
 10
-117.991917
 20
294.90325
 30
0.0
 11
-117.991917
 21
255.40325
 31
0.0
  0
LINE
  8
1
  6
CONTINUOUS
 62
     5
  5
16C
 10
-120.366917
 20
295.90325
 30
0.0
 11
-120.366917
 21
295.15325
 31
0.0
  0
LINE
  8
1
  6
CONTINUOUS
 62
     5
  5
16D
 10
-117.366917
 20
295.90325
 30
0.0
 11
-117.366917
 21
295.15325
 31
0.0
  0
LINE
  8
1
  6
CONTINUOUS
 62
     5
  5
16E
 10
-120.366917
 20
295.90325
 30
0.0
 11
-117.366917
 21
295.90325
 31
0.0
  0
LINE
  8
1
  6
CONTINUOUS
 62
     5
  5
16F
 10
-119.616917
 20
296.40325
 30
0.0
 11
-119.616917
 21
295.15325
 31
0.0
  0
LINE
  8
1
  6
CONTINUOUS
 62
     5
  5
170
 10
-118.116917
 20
296.40325
 30
0.0
 11
-118.116917
 21
295.15325
 31
0.0
  0
LINE
  8
1
  6
CONTINUOUS
 62
     5
  5
171
 10
-120.366917
 20
254.407917
 30
0.0
 11
-117.366917
 21
254.407917
 31
0.0
  0
LINE
  8
1
  6
CONTINUOUS
 62
     5
  5
172
 10
-120.366917
 20
254.407917
 30
0.0
 11
-120.366917
 21
255.157917
 31
0.0
  0
LINE
  8
1
  6
CONTINUOUS
 62
     5
  5
173
 10
-117.366917
 20
254.407917
 30
0.0
 11
-117.366917
 21
255.157917
 31
0.0
  0
LINE
  8
1
  6
CONTINUOUS
 62
     5
  5
174
 10
-120.366917
 20
296.40325
 30
0.0
 11
-117.366917
 21
296.40325
 31
0.0
  0
ARC
  8
1
  6
CONTINUOUS
 62
     5
  5
175
 10
-116.653687
 20
296.44002
 30
0.0
 40
0.714177
 50
87.048753
 51
182.951247
210
0.0
220
0.0
230
1.0
  0
LINE
  8
1
  6
CONTINUOUS
 62
     5
  5
176
 10
-112.116917
 20
299.40325
 30
0.0
 11
-116.616917
 21
299.40325
 31
0.0
  0
LINE
  8
1
  6
CONTINUOUS
 62
     5
  5
177
 10
-112.116917
 20
297.90325
 30
0.0
 11
-116.616917
 21
297.90325
 31
0.0
  0
LINE
  8
1
  6
CONTINUOUS
 62
     5
  5
178
 10
-112.116917
 20
300.15325
 30
0.0
 11
-106.116917
 21
300.15325
 31
0.0
  0
LINE
  8
1
  6
CONTINUOUS
 62
     5
  5
179
 10
-106.116917
 20
297.15325
 30
0.0
 11
-106.116917
 21
300.15325
 31
0.0
  0
LINE
  8
1
  6
CONTINUOUS
 62
     5
  5
17A
 10
-112.116917
 20
297.15325
 30
0.0
 11
-106.116917
 21
297.15325
 31
0.0
  0
LINE
  8
1
  6
CONTINUOUS
 62
     5
  5
17B
 10
-112.116917
 20
299.90325
 30
0.0
 11
-106.116917
 21
299.90325
 31
0.0
  0
ARC
  8
1
  6
CONTINUOUS
 62
     5
  5
17C
 10
-115.16888
 20
298.52825
 30
0.0
 40
3.347403
 50
335.747022
 51
24.252978
210
0.0
220
0.0
230
1.0
  0
ARC
  8
1
  6
CONTINUOUS
 62
     5
  5
17D
 10
-103.09562
 20
298.52825
 30
0.0
 40
3.347403
 50
155.747022
 51
204.252978
210
0.0
220
0.0
230
1.0
  0
LINE
  8
1
  6
CONTINUOUS
 62
     5
  5
17E
 10
-112.116917
 20
297.15325
 30
0.0
 11
-112.116917
 21
299.90325
 31
0.0
  0
LINE
  8
1
  6
CONTINUOUS
 62
     5
  5
17F
 10
-112.116917
 20
299.90325
 30
0.0
 11
-112.116917
 21
300.15325
 31
0.0
  0
LINE
  8
1
  6
CONTINUOUS
 62
     5
  5
180
 10
-110.241917
 20
299.22825
 30
0.0
 11
-110.241917
 21
297.82825
 31
0.0
  0
LINE
  8
1
  6
CONTINUOUS
 62
     5
  5
181
 10
-107.991917
 20
299.22825
 30
0.0
 11
-107.991917
 21
297.92825
 31
0.0
  0
LINE
  8
1
  6
CONTINUOUS
 62
     5
  5
182
 10
-109.116917
 20
299.90325
 30
0.0
 11
-110.241917
 21
299.22825
 31
0.0
  0
LINE
  8
1
  6
CONTINUOUS
 62
     5
  5
183
 10
-109.116917
 20
299.90325
 30
0.0
 11
-107.991917
 21
299.22825
 31
0.0
  0
LINE
  8
1
  6
CONTINUOUS
 62
     5
  5
184
 10
-110.241917
 20
297.82825
 30
0.0
 11
-109.116917
 21
297.15325
 31
0.0
  0
LINE
  8
1
  6
CONTINUOUS
 62
     5
  5
185
 10
-107.991917
 20
297.92825
 30
0.0
 11
-109.116917
 21
297.15325
 31
0.0
  0
LINE
  8
1
  6
CONTINUOUS
 62
     5
  5
186
 10
-101.106833
 20
297.161667
 30
0.0
 11
-101.106833
 21
300.161667
 31
0.0
  0
LINE
  8
1
  6
CONTINUOUS
 62
     5
  5
187
 10
-97.356833
 20
295.911667
 30
0.0
 11
-97.356833
 21
295.161667
 31
0.0
  0
LINE
  8
1
  6
CONTINUOUS
 62
     5
  5
188
 10
-100.356833
 20
295.911667
 30
0.0
 11
-100.356833
 21
295.161667
 31
0.0
  0
LINE
  8
1
  6
CONTINUOUS
 62
     5
  5
189
 10
-97.356833
 20
295.911667
 30
0.0
 11
-100.356833
 21
295.911667
 31
0.0
  0
LINE
  8
1
  6
CONTINUOUS
 62
     5
  5
18A
 10
-98.106833
 20
296.411667
 30
0.0
 11
-98.106833
 21
295.161667
 31
0.0
  0
LINE
  8
1
  6
CONTINUOUS
 62
     5
  5
18B
 10
-99.606833
 20
296.411667
 30
0.0
 11
-99.606833
 21
295.161667
 31
0.0
  0
LINE
  8
1
  6
CONTINUOUS
 62
     5
  5
18C
 10
-97.356833
 20
296.411667
 30
0.0
 11
-100.356833
 21
296.411667
 31
0.0
  0
ARC
  8
1
  6
CONTINUOUS
 62
     5
  5
18D
 10
-100.948986
 20
296.569514
 30
0.0
 40
3.595619
 50
357.483914
 51
92.516086
210
0.0
220
0.0
230
1.0
  0
ARC
  8
1
  6
CONTINUOUS
 62
     5
  5
18E
 10
-101.070063
 20
296.448437
 30
0.0
 40
0.714177
 50
357.048753
 51
92.951247
210
0.0
220
0.0
230
1.0
  0
LINE
  8
1
  6
CONTINUOUS
 62
     5
  5
18F
 10
-106.106833
 20
299.411667
 30
0.0
 11
-101.106833
 21
299.411667
 31
0.0
  0
LINE
  8
1
  6
CONTINUOUS
 62
     5
  5
190
 10
-106.106833
 20
297.911667
 30
0.0
 11
-101.106833
 21
297.911667
 31
0.0
  0
LINE
  8
1
  6
CONTINUOUS
 62
     5
  5
191
 10
-88.856833
 20
295.161667
 30
0.0
 11
-108.856833
 21
295.161667
 31
0.0
  0
LINE
  8
1
  6
CONTINUOUS
 62
     5
  5
192
 10
-90.856833
 20
294.161667
 30
0.0
 11
-106.856833
 21
294.161667
 31
0.0
  0
LINE
  8
1
  6
CONTINUOUS
 62
     5
  5
193
 10
-90.856833
 20
276.161667
 30
0.0
 11
-106.856833
 21
276.161667
 31
0.0
  0
ARC
  8
1
  6
CONTINUOUS
 62
     5
  5
194
 10
-106.856833
 20
293.161667
 30
0.0
 40
1.0
 50
90.0
 51
180.0
210
0.0
220
0.0
230
1.0
  0
ARC
  8
1
  6
CONTINUOUS
 62
     5
  5
195
 10
-90.856833
 20
293.161667
 30
0.0
 40
1.0
 50
0.0
 51
90.0
210
0.0
220
0.0
230
1.0
  0
ARC
  8
1
  6
CONTINUOUS
 62
     5
  5
196
 10
-106.856833
 20
277.161667
 30
0.0
 40
1.0
 50
180.0
 51
270.0
210
0.0
220
0.0
230
1.0
  0
ARC
  8
1
  6
CONTINUOUS
 62
     5
  5
197
 10
-90.856833
 20
277.161667
 30
0.0
 40
1.0
 50
270.0
 51
0.0
210
0.0
220
0.0
230
1.0
  0
LINE
  8
1
  6
CONTINUOUS
 62
     5
  5
198
 10
-107.356833
 20
292.161667
 30
0.0
 11
-109.356833
 21
292.161667
 31
0.0
  0
LINE
  8
1
  6
CONTINUOUS
 62
     5
  5
199
 10
-107.356833
 20
278.161667
 30
0.0
 11
-109.356833
 21
278.161667
 31
0.0
  0
LINE
  8
1
  6
CONTINUOUS
 62
     5
  5
19A
 10
-107.356833
 20
293.161667
 30
0.0
 11
-109.356833
 21
293.161667
 31
0.0
  0
LINE
  8
1
  6
CONTINUOUS
 62
     5
  5
19B
 10
-107.356833
 20
277.161667
 30
0.0
 11
-109.356833
 21
277.161667
 31
0.0
  0
LINE
  8
1
  6
CONTINUOUS
 62
     5
  5
19C
 10
-108.856833
 20
295.161667
 30
0.0
 11
-108.856833
 21
293.161667
 31
0.0
  0
LINE
  8
1
  6
CONTINUOUS
 62
     5
  5
19D
 10
-109.356833
 20
293.161667
 30
0.0
 11
-109.356833
 21
291.661667
 31
0.0
  0
LINE
  8
1
  6
CONTINUOUS
 62
     5
  5
19E
 10
-109.356833
 20
291.661667
 30
0.0
 11
-108.856833
 21
291.661667
 31
0.0
  0
LINE
  8
1
  6
CONTINUOUS
 62
     5
  5
19F
 10
-108.856833
 20
292.161667
 30
0.0
 11
-108.856833
 21
278.161667
 31
0.0
  0
LINE
  8
1
  6
CONTINUOUS
 62
     5
  5
1A0
 10
-108.856833
 20
277.161667
 30
0.0
 11
-108.856833
 21
275.161667
 31
0.0
  0
LINE
  8
1
  6
CONTINUOUS
 62
     5
  5
1A1
 10
-107.856833
 20
292.161667
 30
0.0
 11
-107.856833
 21
278.161667
 31
0.0
  0
LINE
  8
1
  6
CONTINUOUS
 62
     5
  5
1A2
 10
-109.356833
 20
277.161667
 30
0.0
 11
-109.356833
 21
278.661667
 31
0.0
  0
LINE
  8
1
  6
CONTINUOUS
 62
     5
  5
1A3
 10
-109.356833
 20
278.661667
 30
0.0
 11
-108.856833
 21
278.661667
 31
0.0
  0
LINE
  8
1
  6
CONTINUOUS
 62
     5
  5
1A4
 10
-88.356833
 20
285.661667
 30
0.0
 11
-90.356833
 21
285.661667
 31
0.0
  0
LINE
  8
1
  6
CONTINUOUS
 62
     5
  5
1A5
 10
-88.356833
 20
284.661667
 30
0.0
 11
-90.356833
 21
284.661667
 31
0.0
  0
LINE
  8
1
  6
CONTINUOUS
 62
     5
  5
1A6
 10
-89.856833
 20
293.161667
 30
0.0
 11
-89.856833
 21
285.661667
 31
0.0
  0
LINE
  8
1
  6
CONTINUOUS
 62
     5
  5
1A7
 10
-89.856833
 20
284.661667
 30
0.0
 11
-89.856833
 21
277.161667
 31
0.0
  0
LINE
  8
1
  6
CONTINUOUS
 62
     5
  5
1A8
 10
-88.856833
 20
295.161667
 30
0.0
 11
-88.856833
 21
285.661667
 31
0.0
  0
LINE
  8
1
  6
CONTINUOUS
 62
     5
  5
1A9
 10
-88.856833
 20
284.661667
 30
0.0
 11
-88.856833
 21
275.161667
 31
0.0
  0
LINE
  8
1
  6
CONTINUOUS
 62
     5
  5
1AA
 10
-88.356833
 20
285.661667
 30
0.0
 11
-88.356833
 21
284.661667
 31
0.0
  0
LINE
  8
1
  6
CONTINUOUS
 62
     5
  5
1AB
 10
-88.606833
 20
286.161667
 30
0.0
 11
-88.606833
 21
285.661667
 31
0.0
  0
LINE
  8
1
  6
CONTINUOUS
 62
     5
  5
1AC
 10
-88.606833
 20
284.661667
 30
0.0
 11
-88.606833
 21
284.161667
 31
0.0
  0
CIRCLE
  8
1
  6
CONTINUOUS
 62
     5
  5
1AD
 10
-98.847833
 20
285.163583
 30
0.0
 40
8.0
210
0.0
220
0.0
230
1.0
  0
TEXT
  8
1
  6
CONTINUOUS
 62
     5
  5
1AE
 10
-100.966833
 20
282.9015
 30
0.0
 40
5.0
  1
R
  7
txt
210
0.0
220
0.0
230
1.0
  0
LINE
  8
1
  6
CONTINUOUS
 62
     5
  5
1AF
 10
-109.866917
 20
302.15325
 30
0.0
 11
-109.866917
 21
300.15325
 31
0.0
  0
LINE
  8
1
  6
CONTINUOUS
 62
     5
  5
1B0
 10
-108.366917
 20
302.15325
 30
0.0
 11
-108.366917
 21
300.15325
 31
0.0
  0
ARC
  8
1
  6
CONTINUOUS
 62
     5
  5
1B1
 10
-109.491917
 20
301.802968
 30
0.0
 40
0.51315
 50
43.048108
 51
136.951892
210
0.0
220
0.0
230
1.0
  0
ARC
  8
1
  6
CONTINUOUS
 62
     5
  5
1B2
 10
-108.741917
 20
301.802968
 30
0.0
 40
0.51315
 50
43.048108
 51
136.951892
210
0.0
220
0.0
230
1.0
  0
ARC
  8
1
  6
CONTINUOUS
 62
     5
  5
1B3
 10
-108.741917
 20
302.500032
 30
0.0
 40
0.51315
 50
223.048108
 51
316.951892
210
0.0
220
0.0
230
1.0
  0
LINE
  8
1
  6
CONTINUOUS
 62
     5
  5
1B4
 10
-119.616917
 20
235.887417
 30
0.0
 11
-119.616917
 21
254.407917
 31
0.0
  0
LINE
  8
1
  6
CONTINUOUS
 62
     5
  5
1B5
 10
-119.616917
 20
254.407917
 30
0.0
 11
-119.616917
 21
255.157917
 31
0.0
  0
LINE
  8
1
  6
CONTINUOUS
 62
     5
  5
1B6
 10
-118.116917
 20
235.887417
 30
0.0
 11
-118.116917
 21
254.407917
 31
0.0
  0
LINE
  8
1
  6
CONTINUOUS
 62
     5
  5
1B7
 10
-118.116917
 20
254.407917
 30
0.0
 11
-118.116917
 21
255.157917
 31
0.0
  0
LINE
  8
1
  6
CONTINUOUS
 62
     5
  5
1B8
 10
-120.366917
 20
235.887417
 30
0.0
 11
-117.366917
 21
235.887417
 31
0.0
  0
LINE
  8
1
  6
CONTINUOUS
 62
     5
  5
1B9
 10
-117.366917
 20
235.887417
 30
0.0
 11
-117.366917
 21
235.061667
 31
0.0
  0
LINE
  8
1
  6
CONTINUOUS
 62
     5
  5
1BA
 10
-119.616917
 20
235.887417
 30
0.0
 11
-119.616917
 21
235.061667
 31
0.0
  0
LINE
  8
1
  6
CONTINUOUS
 62
     5
  5
1BB
 10
-118.116917
 20
235.887417
 30
0.0
 11
-118.116917
 21
235.061667
 31
0.0
  0
LINE
  8
1
  6
CONTINUOUS
 62
     5
  5
1BC
 10
-100.356833
 20
233.911667
 30
0.0
 11
-100.356833
 21
234.661667
 31
0.0
  0
LINE
  8
1
  6
CONTINUOUS
 62
     5
  5
1BD
 10
-97.356833
 20
233.911667
 30
0.0
 11
-97.356833
 21
235.161667
 31
0.0
  0
LINE
  8
1
  6
CONTINUOUS
 62
     5
  5
1BE
 10
-99.606833
 20
233.911667
 30
0.0
 11
-99.606833
 21
234.661667
 31
0.0
  0
LINE
  8
1
  6
CONTINUOUS
 62
     5
  5
1BF
 10
-98.106833
 20
233.911667
 30
0.0
 11
-98.106833
 21
234.661667
 31
0.0
  0
LINE
  8
1
  6
CONTINUOUS
 62
     5
  5
1C0
 10
-97.356833
 20
234.661667
 30
0.0
 11
-120.366917
 21
234.661667
 31
0.0
  0
LINE
  8
1
  6
CONTINUOUS
 62
     5
  5
1C1
 10
-100.356833
 20
233.911667
 30
0.0
 11
-97.356833
 21
233.911667
 31
0.0
  0
LINE
  8
1
  6
CONTINUOUS
 62
     5
  5
1C2
 10
-97.356833
 20
235.061667
 30
0.0
 11
-120.366917
 21
235.061667
 31
0.0
  0
LINE
  8
1
  6
CONTINUOUS
 62
     5
  5
1C3
 10
-120.366917
 20
235.887417
 30
0.0
 11
-120.366917
 21
235.061667
 31
0.0
  0
LINE
  8
1
  6
CONTINUOUS
 62
     5
  5
1C4
 10
-120.366917
 20
235.061667
 30
0.0
 11
-120.366917
 21
234.661667
 31
0.0
  0
LINE
  8
1
  6
CONTINUOUS
 62
     5
  5
1C5
 10
-120.366917
 20
233.836917
 30
0.0
 11
-117.366917
 21
233.836917
 31
0.0
  0
LINE
  8
1
  6
CONTINUOUS
 62
     5
  5
1C6
 10
-117.366917
 20
233.836917
 30
0.0
 11
-117.366917
 21
234.662667
 31
0.0
  0
LINE
  8
1
  6
CONTINUOUS
 62
     5
  5
1C7
 10
-119.616917
 20
233.836917
 30
0.0
 11
-119.616917
 21
234.662667
 31
0.0
  0
LINE
  8
1
  6
CONTINUOUS
 62
     5
  5
1C8
 10
-118.116917
 20
233.836917
 30
0.0
 11
-118.116917
 21
234.662667
 31
0.0
  0
LINE
  8
1
  6
CONTINUOUS
 62
     5
  5
1C9
 10
-120.366917
 20
233.836917
 30
0.0
 11
-120.366917
 21
234.662667
 31
0.0
  0
ARC
  8
1
  6
CONTINUOUS
 62
     5
  5
1CA
 10
-116.774764
 20
296.561097
 30
0.0
 40
3.595619
 50
87.483914
 51
182.516086
210
0.0
220
0.0
230
1.0
  0
LINE
  8
1
  6
CONTINUOUS
 62
     5
  5
1CB
 10
-116.616917
 20
297.15325
 30
0.0
 11
-116.616917
 21
300.15325
 31
0.0
  0
LINE
  8
1
  6
CONTINUOUS
 62
     5
  5
1CC
 10
-88.856833
 20
275.161667
 30
0.0
 11
-108.856833
 21
275.161667
 31
0.0
  0
LINE
  8
1
  6
CONTINUOUS
 62
     5
  5
1CD
 10
-90.856833
 20
274.161667
 30
0.0
 11
-106.856833
 21
274.161667
 31
0.0
  0
LINE
  8
1
  6
CONTINUOUS
 62
     5
  5
1CE
 10
-90.856833
 20
256.161667
 30
0.0
 11
-106.856833
 21
256.161667
 31
0.0
  0
ARC
  8
1
  6
CONTINUOUS
 62
     5
  5
1CF
 10
-106.856833
 20
273.161667
 30
0.0
 40
1.0
 50
90.0
 51
180.0
210
0.0
220
0.0
230
1.0
  0
ARC
  8
1
  6
CONTINUOUS
 62
     5
  5
1D0
 10
-90.856833
 20
273.161667
 30
0.0
 40
1.0
 50
0.0
 51
90.0
210
0.0
220
0.0
230
1.0
  0
ARC
  8
1
  6
CONTINUOUS
 62
     5
  5
1D1
 10
-106.856833
 20
257.161667
 30
0.0
 40
1.0
 50
180.0
 51
270.0
210
0.0
220
0.0
230
1.0
  0
ARC
  8
1
  6
CONTINUOUS
 62
     5
  5
1D2
 10
-90.856833
 20
257.161667
 30
0.0
 40
1.0
 50
270.0
 51
0.0
210
0.0
220
0.0
230
1.0
  0
LINE
  8
1
  6
CONTINUOUS
 62
     5
  5
1D3
 10
-107.356833
 20
272.161667
 30
0.0
 11
-109.356833
 21
272.161667
 31
0.0
  0
LINE
  8
1
  6
CONTINUOUS
 62
     5
  5
1D4
 10
-107.356833
 20
258.161667
 30
0.0
 11
-109.356833
 21
258.161667
 31
0.0
  0
LINE
  8
1
  6
CONTINUOUS
 62
     5
  5
1D5
 10
-107.356833
 20
273.161667
 30
0.0
 11
-109.356833
 21
273.161667
 31
0.0
  0
LINE
  8
1
  6
CONTINUOUS
 62
     5
  5
1D6
 10
-107.356833
 20
257.161667
 30
0.0
 11
-109.356833
 21
257.161667
 31
0.0
  0
LINE
  8
1
  6
CONTINUOUS
 62
     5
  5
1D7
 10
-108.856833
 20
275.161667
 30
0.0
 11
-108.856833
 21
273.161667
 31
0.0
  0
LINE
  8
1
  6
CONTINUOUS
 62
     5
  5
1D8
 10
-109.356833
 20
273.161667
 30
0.0
 11
-109.356833
 21
271.661667
 31
0.0
  0
LINE
  8
1
  6
CONTINUOUS
 62
     5
  5
1D9
 10
-109.356833
 20
271.661667
 30
0.0
 11
-108.856833
 21
271.661667
 31
0.0
  0
LINE
  8
1
  6
CONTINUOUS
 62
     5
  5
1DA
 10
-108.856833
 20
272.161667
 30
0.0
 11
-108.856833
 21
258.161667
 31
0.0
  0
LINE
  8
1
  6
CONTINUOUS
 62
     5
  5
1DB
 10
-108.856833
 20
257.161667
 30
0.0
 11
-108.856833
 21
255.161667
 31
0.0
  0
LINE
  8
1
  6
CONTINUOUS
 62
     5
  5
1DC
 10
-107.856833
 20
272.161667
 30
0.0
 11
-107.856833
 21
258.161667
 31
0.0
  0
LINE
  8
1
  6
CONTINUOUS
 62
     5
  5
1DD
 10
-109.356833
 20
257.161667
 30
0.0
 11
-109.356833
 21
258.661667
 31
0.0
  0
LINE
  8
1
  6
CONTINUOUS
 62
     5
  5
1DE
 10
-109.356833
 20
258.661667
 30
0.0
 11
-108.856833
 21
258.661667
 31
0.0
  0
LINE
  8
1
  6
CONTINUOUS
 62
     5
  5
1DF
 10
-88.356833
 20
265.661667
 30
0.0
 11
-90.356833
 21
265.661667
 31
0.0
  0
LINE
  8
1
  6
CONTINUOUS
 62
     5
  5
1E0
 10
-88.356833
 20
264.661667
 30
0.0
 11
-90.356833
 21
264.661667
 31
0.0
  0
LINE
  8
1
  6
CONTINUOUS
 62
     5
  5
1E1
 10
-89.856833
 20
273.161667
 30
0.0
 11
-89.856833
 21
265.661667
 31
0.0
  0
LINE
  8
1
  6
CONTINUOUS
 62
     5
  5
1E2
 10
-89.856833
 20
264.661667
 30
0.0
 11
-89.856833
 21
257.161667
 31
0.0
  0
LINE
  8
1
  6
CONTINUOUS
 62
     5
  5
1E3
 10
-88.856833
 20
275.161667
 30
0.0
 11
-88.856833
 21
265.661667
 31
0.0
  0
LINE
  8
1
  6
CONTINUOUS
 62
     5
  5
1E4
 10
-88.856833
 20
264.661667
 30
0.0
 11
-88.856833
 21
255.161667
 31
0.0
  0
LINE
  8
1
  6
CONTINUOUS
 62
     5
  5
1E5
 10
-88.356833
 20
265.661667
 30
0.0
 11
-88.356833
 21
264.661667
 31
0.0
  0
LINE
  8
1
  6
CONTINUOUS
 62
     5
  5
1E6
 10
-88.606833
 20
266.161667
 30
0.0
 11
-88.606833
 21
265.661667
 31
0.0
  0
LINE
  8
1
  6
CONTINUOUS
 62
     5
  5
1E7
 10
-88.606833
 20
264.661667
 30
0.0
 11
-88.606833
 21
264.161667
 31
0.0
  0
CIRCLE
  8
1
  6
CONTINUOUS
 62
     5
  5
1E8
 10
-98.847833
 20
265.163583
 30
0.0
 40
8.0
210
0.0
220
0.0
230
1.0
  0
LINE
  8
1
  6
CONTINUOUS
 62
     5
  5
1E9
 10
-88.856833
 20
255.161667
 30
0.0
 11
-108.856833
 21
255.161667
 31
0.0
  0
LINE
  8
1
  6
CONTINUOUS
 62
     5
  5
1EA
 10
-88.856833
 20
235.161667
 30
0.0
 11
-108.856833
 21
235.161667
 31
0.0
  0
LINE
  8
1
  6
CONTINUOUS
 62
     5
  5
1EB
 10
-90.856833
 20
254.161667
 30
0.0
 11
-106.856833
 21
254.161667
 31
0.0
  0
LINE
  8
1
  6
CONTINUOUS
 62
     5
  5
1EC
 10
-90.856833
 20
236.161667
 30
0.0
 11
-106.856833
 21
236.161667
 31
0.0
  0
ARC
  8
1
  6
CONTINUOUS
 62
     5
  5
1ED
 10
-106.856833
 20
253.161667
 30
0.0
 40
1.0
 50
90.0
 51
180.0
210
0.0
220
0.0
230
1.0
  0
ARC
  8
1
  6
CONTINUOUS
 62
     5
  5
1EE
 10
-90.856833
 20
253.161667
 30
0.0
 40
1.0
 50
0.0
 51
90.0
210
0.0
220
0.0
230
1.0
  0
ARC
  8
1
  6
CONTINUOUS
 62
     5
  5
1EF
 10
-106.856833
 20
237.161667
 30
0.0
 40
1.0
 50
180.0
 51
270.0
210
0.0
220
0.0
230
1.0
  0
ARC
  8
1
  6
CONTINUOUS
 62
     5
  5
1F0
 10
-90.856833
 20
237.161667
 30
0.0
 40
1.0
 50
270.0
 51
0.0
210
0.0
220
0.0
230
1.0
  0
LINE
  8
1
  6
CONTINUOUS
 62
     5
  5
1F1
 10
-107.356833
 20
252.161667
 30
0.0
 11
-109.356833
 21
252.161667
 31
0.0
  0
LINE
  8
1
  6
CONTINUOUS
 62
     5
  5
1F2
 10
-107.356833
 20
238.161667
 30
0.0
 11
-109.356833
 21
238.161667
 31
0.0
  0
LINE
  8
1
  6
CONTINUOUS
 62
     5
  5
1F3
 10
-107.356833
 20
253.161667
 30
0.0
 11
-109.356833
 21
253.161667
 31
0.0
  0
LINE
  8
1
  6
CONTINUOUS
 62
     5
  5
1F4
 10
-107.356833
 20
237.161667
 30
0.0
 11
-109.356833
 21
237.161667
 31
0.0
  0
LINE
  8
1
  6
CONTINUOUS
 62
     5
  5
1F5
 10
-108.856833
 20
255.161667
 30
0.0
 11
-108.856833
 21
253.161667
 31
0.0
  0
LINE
  8
1
  6
CONTINUOUS
 62
     5
  5
1F6
 10
-109.356833
 20
253.161667
 30
0.0
 11
-109.356833
 21
251.661667
 31
0.0
  0
LINE
  8
1
  6
CONTINUOUS
 62
     5
  5
1F7
 10
-109.356833
 20
251.661667
 30
0.0
 11
-108.856833
 21
251.661667
 31
0.0
  0
LINE
  8
1
  6
CONTINUOUS
 62
     5
  5
1F8
 10
-108.856833
 20
252.161667
 30
0.0
 11
-108.856833
 21
238.161667
 31
0.0
  0
LINE
  8
1
  6
CONTINUOUS
 62
     5
  5
1F9
 10
-108.856833
 20
237.161667
 30
0.0
 11
-108.856833
 21
235.161667
 31
0.0
  0
LINE
  8
1
  6
CONTINUOUS
 62
     5
  5
1FA
 10
-107.856833
 20
252.161667
 30
0.0
 11
-107.856833
 21
238.161667
 31
0.0
  0
LINE
  8
1
  6
CONTINUOUS
 62
     5
  5
1FB
 10
-109.356833
 20
237.161667
 30
0.0
 11
-109.356833
 21
238.661667
 31
0.0
  0
LINE
  8
1
  6
CONTINUOUS
 62
     5
  5
1FC
 10
-109.356833
 20
238.661667
 30
0.0
 11
-108.856833
 21
238.661667
 31
0.0
  0
LINE
  8
1
  6
CONTINUOUS
 62
     5
  5
1FD
 10
-88.356833
 20
245.661667
 30
0.0
 11
-90.356833
 21
245.661667
 31
0.0
  0
LINE
  8
1
  6
CONTINUOUS
 62
     5
  5
1FE
 10
-88.356833
 20
244.661667
 30
0.0
 11
-90.356833
 21
244.661667
 31
0.0
  0
LINE
  8
1
  6
CONTINUOUS
 62
     5
  5
1FF
 10
-89.856833
 20
253.161667
 30
0.0
 11
-89.856833
 21
245.661667
 31
0.0
  0
LINE
  8
1
  6
CONTINUOUS
 62
     5
  5
200
 10
-89.856833
 20
244.661667
 30
0.0
 11
-89.856833
 21
237.161667
 31
0.0
  0
LINE
  8
1
  6
CONTINUOUS
 62
     5
  5
201
 10
-88.856833
 20
255.161667
 30
0.0
 11
-88.856833
 21
245.661667
 31
0.0
  0
LINE
  8
1
  6
CONTINUOUS
 62
     5
  5
202
 10
-88.856833
 20
244.661667
 30
0.0
 11
-88.856833
 21
235.161667
 31
0.0
  0
LINE
  8
1
  6
CONTINUOUS
 62
     5
  5
203
 10
-88.356833
 20
245.661667
 30
0.0
 11
-88.356833
 21
244.661667
 31
0.0
  0
LINE
  8
1
  6
CONTINUOUS
 62
     5
  5
204
 10
-88.606833
 20
246.161667
 30
0.0
 11
-88.606833
 21
245.661667
 31
0.0
  0
LINE
  8
1
  6
CONTINUOUS
 62
     5
  5
205
 10
-88.606833
 20
244.661667
 30
0.0
 11
-88.606833
 21
244.161667
 31
0.0
  0
CIRCLE
  8
1
  6
CONTINUOUS
 62
     5
  5
206
 10
-98.847833
 20
245.163583
 30
0.0
 40
8.0
210
0.0
220
0.0
230
1.0
  0
POLYLINE
  8
1
  6
CONTINUOUS
 62
     5
  5
207
 66
     1
 10
0.0
 20
0.0
 30
0.0
 70
     1
  0
VERTEX
  8
1
  6
CONTINUOUS
 62
     5
  5
208
 10
-100.659083
 20
270.661667
 30
0.0
  0
VERTEX
  8
1
  6
CONTINUOUS
 62
     5
  5
209
 10
-104.847833
 20
265.161667
 30
0.0
  0
VERTEX
  8
1
  6
CONTINUOUS
 62
     5
  5
20A
 10
-100.6555
 20
259.661667
 30
0.0
  0
VERTEX
  8
1
  6
CONTINUOUS
 62
     5
  5
20B
 10
-99.462583
 20
260.571
 30
0.0
  0
VERTEX
  8
1
  6
CONTINUOUS
 62
     5
  5
20C
 10
-102.962167
 20
265.162167
 30
0.0
  0
VERTEX
  8
1
  6
CONTINUOUS
 62
     5
  5
20D
 10
-99.465833
 20
269.752917
 30
0.0
  0
VERTEX
  8
1
  6
CONTINUOUS
 62
     5
  5
20E
 10
-100.659083
 20
270.661667
 30
0.0
  0
SEQEND
  8
1
  6
CONTINUOUS
 62
     5
  5
20F
  0
POLYLINE
  8
1
  6
CONTINUOUS
 62
     5
  5
210
 66
     1
 10
0.0
 20
0.0
 30
0.0
 70
     1
  0
VERTEX
  8
1
  6
CONTINUOUS
 62
     5
  5
211
 10
-101.347833
 20
264.411667
 30
0.0
  0
VERTEX
  8
1
  6
CONTINUOUS
 62
     5
  5
212
 10
-101.347833
 20
265.911667
 30
0.0
  0
VERTEX
  8
1
  6
CONTINUOUS
 62
     5
  5
213
 10
-94.847833
 20
265.911667
 30
0.0
  0
VERTEX
  8
1
  6
CONTINUOUS
 62
     5
  5
214
 10
-94.847833
 20
264.411667
 30
0.0
  0
VERTEX
  8
1
  6
CONTINUOUS
 62
     5
  5
215
 10
-101.347833
 20
264.411667
 30
0.0
  0
SEQEND
  8
1
  6
CONTINUOUS
 62
     5
  5
216
  0
POLYLINE
  8
1
  6
CONTINUOUS
 62
     5
  5
217
 66
     1
 10
0.0
 20
0.0
 30
0.0
 70
     1
  0
VERTEX
  8
1
  6
CONTINUOUS
 62
     5
  5
218
 10
-100.659083
 20
250.661667
 30
0.0
  0
VERTEX
  8
1
  6
CONTINUOUS
 62
     5
  5
219
 10
-104.847833
 20
245.161667
 30
0.0
  0
VERTEX
  8
1
  6
CONTINUOUS
 62
     5
  5
21A
 10
-100.6555
 20
239.661667
 30
0.0
  0
VERTEX
  8
1
  6
CONTINUOUS
 62
     5
  5
21B
 10
-99.462583
 20
240.571
 30
0.0
  0
VERTEX
  8
1
  6
CONTINUOUS
 62
     5
  5
21C
 10
-102.962167
 20
245.162167
 30
0.0
  0
VERTEX
  8
1
  6
CONTINUOUS
 62
     5
  5
21D
 10
-99.465833
 20
249.752917
 30
0.0
  0
VERTEX
  8
1
  6
CONTINUOUS
 62
     5
  5
21E
 10
-100.659083
 20
250.661667
 30
0.0
  0
SEQEND
  8
1
  6
CONTINUOUS
 62
     5
  5
21F
  0
POLYLINE
  8
1
  6
CONTINUOUS
 62
     5
  5
220
 66
     1
 10
0.0
 20
0.0
 30
0.0
 70
     1
  0
VERTEX
  8
1
  6
CONTINUOUS
 62
     5
  5
221
 10
-101.347833
 20
244.411667
 30
0.0
  0
VERTEX
  8
1
  6
CONTINUOUS
 62
     5
  5
222
 10
-101.347833
 20
245.911667
 30
0.0
  0
VERTEX
  8
1
  6
CONTINUOUS
 62
     5
  5
223
 10
-94.847833
 20
245.911667
 30
0.0
  0
VERTEX
  8
1
  6
CONTINUOUS
 62
     5
  5
224
 10
-94.847833
 20
244.411667
 30
0.0
  0
VERTEX
  8
1
  6
CONTINUOUS
 62
     5
  5
225
 10
-101.347833
 20
244.411667
 30
0.0
  0
SEQEND
  8
1
  6
CONTINUOUS
 62
     5
  5
226
  0
LINE
  8
1
  6
CONTINUOUS
 62
     5
  5
227
 10
-125.856833
 20
156.911667
 30
0.0
 11
-125.856833
 21
156.161667
 31
0.0
  0
LINE
  8
1
  6
CONTINUOUS
 62
     5
  5
228
 10
-122.856833
 20
156.911667
 30
0.0
 11
-122.856833
 21
156.161667
 31
0.0
  0
LINE
  8
1
  6
CONTINUOUS
 62
     5
  5
229
 10
-125.856833
 20
156.911667
 30
0.0
 11
-122.856833
 21
156.911667
 31
0.0
  0
LINE
  8
1
  6
CONTINUOUS
 62
     5
  5
22A
 10
-125.106833
 20
177.40325
 30
0.0
 11
-125.106833
 21
156.161667
 31
0.0
  0
LINE
  8
1
  6
CONTINUOUS
 62
     5
  5
22B
 10
-123.606833
 20
177.40325
 30
0.0
 11
-123.606833
 21
156.161667
 31
0.0
  0
LINE
  8
1
  6
CONTINUOUS
 62
     5
  5
22C
 10
-125.856833
 20
177.40325
 30
0.0
 11
-122.856833
 21
177.40325
 31
0.0
  0
ARC
  8
1
  6
CONTINUOUS
 62
     5
  5
22D
 10
-122.143604
 20
177.44002
 30
0.0
 40
0.714177
 50
87.048753
 51
182.951247
210
0.0
220
0.0
230
1.0
  0
LINE
  8
1
  6
CONTINUOUS
 62
     5
  5
22E
 10
-114.606833
 20
181.15325
 30
0.0
 11
-108.606833
 21
181.15325
 31
0.0
  0
LINE
  8
1
  6
CONTINUOUS
 62
     5
  5
22F
 10
-108.606833
 20
178.15325
 30
0.0
 11
-108.606833
 21
181.15325
 31
0.0
  0
LINE
  8
1
  6
CONTINUOUS
 62
     5
  5
230
 10
-114.606833
 20
178.15325
 30
0.0
 11
-108.606833
 21
178.15325
 31
0.0
  0
LINE
  8
1
  6
CONTINUOUS
 62
     5
  5
231
 10
-114.606833
 20
180.90325
 30
0.0
 11
-108.606833
 21
180.90325
 31
0.0
  0
ARC
  8
1
  6
CONTINUOUS
 62
     5
  5
232
 10
-117.658797
 20
179.52825
 30
0.0
 40
3.347403
 50
335.747022
 51
24.252978
210
0.0
220
0.0
230
1.0
  0
ARC
  8
1
  6
CONTINUOUS
 62
     5
  5
233
 10
-105.585537
 20
179.52825
 30
0.0
 40
3.347403
 50
155.747022
 51
204.252978
210
0.0
220
0.0
230
1.0
  0
LINE
  8
1
  6
CONTINUOUS
 62
     5
  5
234
 10
-114.606833
 20
178.15325
 30
0.0
 11
-114.606833
 21
180.90325
 31
0.0
  0
LINE
  8
1
  6
CONTINUOUS
 62
     5
  5
235
 10
-114.606833
 20
180.90325
 30
0.0
 11
-114.606833
 21
181.15325
 31
0.0
  0
LINE
  8
1
  6
CONTINUOUS
 62
     5
  5
236
 10
-112.731833
 20
180.22825
 30
0.0
 11
-112.731833
 21
178.82825
 31
0.0
  0
LINE
  8
1
  6
CONTINUOUS
 62
     5
  5
237
 10
-110.481833
 20
180.22825
 30
0.0
 11
-110.481833
 21
178.92825
 31
0.0
  0
LINE
  8
1
  6
CONTINUOUS
 62
     5
  5
238
 10
-111.606833
 20
180.90325
 30
0.0
 11
-112.731833
 21
180.22825
 31
0.0
  0
LINE
  8
1
  6
CONTINUOUS
 62
     5
  5
239
 10
-111.606833
 20
180.90325
 30
0.0
 11
-110.481833
 21
180.22825
 31
0.0
  0
LINE
  8
1
  6
CONTINUOUS
 62
     5
  5
23A
 10
-112.731833
 20
178.82825
 30
0.0
 11
-111.606833
 21
178.15325
 31
0.0
  0
LINE
  8
1
  6
CONTINUOUS
 62
     5
  5
23B
 10
-110.481833
 20
178.92825
 30
0.0
 11
-111.606833
 21
178.15325
 31
0.0
  0
LINE
  8
1
  6
CONTINUOUS
 62
     5
  5
23C
 10
-101.106833
 20
178.161667
 30
0.0
 11
-101.106833
 21
181.161667
 31
0.0
  0
LINE
  8
1
  6
CONTINUOUS
 62
     5
  5
23D
 10
-97.356833
 20
176.911667
 30
0.0
 11
-97.356833
 21
176.161667
 31
0.0
  0
LINE
  8
1
  6
CONTINUOUS
 62
     5
  5
23E
 10
-100.356833
 20
176.911667
 30
0.0
 11
-100.356833
 21
176.161667
 31
0.0
  0
LINE
  8
1
  6
CONTINUOUS
 62
     5
  5
23F
 10
-97.356833
 20
176.911667
 30
0.0
 11
-100.356833
 21
176.911667
 31
0.0
  0
LINE
  8
1
  6
CONTINUOUS
 62
     5
  5
240
 10
-98.106833
 20
177.411667
 30
0.0
 11
-98.106833
 21
176.161667
 31
0.0
  0
LINE
  8
1
  6
CONTINUOUS
 62
     5
  5
241
 10
-99.606833
 20
177.411667
 30
0.0
 11
-99.606833
 21
176.161667
 31
0.0
  0
LINE
  8
1
  6
CONTINUOUS
 62
     5
  5
242
 10
-97.356833
 20
177.411667
 30
0.0
 11
-100.356833
 21
177.411667
 31
0.0
  0
ARC
  8
1
  6
CONTINUOUS
 62
     5
  5
243
 10
-100.948986
 20
177.569514
 30
0.0
 40
3.595619
 50
357.483914
 51
92.516086
210
0.0
220
0.0
230
1.0
  0
ARC
  8
1
  6
CONTINUOUS
 62
     5
  5
244
 10
-101.070063
 20
177.448437
 30
0.0
 40
0.714177
 50
357.048753
 51
92.951247
210
0.0
220
0.0
230
1.0
  0
LINE
  8
1
  6
CONTINUOUS
 62
     5
  5
245
 10
-88.856833
 20
176.161667
 30
0.0
 11
-108.856833
 21
176.161667
 31
0.0
  0
LINE
  8
1
  6
CONTINUOUS
 62
     5
  5
246
 10
-90.856833
 20
175.161667
 30
0.0
 11
-106.856833
 21
175.161667
 31
0.0
  0
LINE
  8
1
  6
CONTINUOUS
 62
     5
  5
247
 10
-90.856833
 20
157.161667
 30
0.0
 11
-106.856833
 21
157.161667
 31
0.0
  0
ARC
  8
1
  6
CONTINUOUS
 62
     5
  5
248
 10
-106.856833
 20
174.161667
 30
0.0
 40
1.0
 50
90.0
 51
180.0
210
0.0
220
0.0
230
1.0
  0
ARC
  8
1
  6
CONTINUOUS
 62
     5
  5
249
 10
-90.856833
 20
174.161667
 30
0.0
 40
1.0
 50
0.0
 51
90.0
210
0.0
220
0.0
230
1.0
  0
ARC
  8
1
  6
CONTINUOUS
 62
     5
  5
24A
 10
-106.856833
 20
158.161667
 30
0.0
 40
1.0
 50
180.0
 51
270.0
210
0.0
220
0.0
230
1.0
  0
ARC
  8
1
  6
CONTINUOUS
 62
     5
  5
24B
 10
-90.856833
 20
158.161667
 30
0.0
 40
1.0
 50
270.0
 51
0.0
210
0.0
220
0.0
230
1.0
  0
LINE
  8
1
  6
CONTINUOUS
 62
     5
  5
24C
 10
-107.356833
 20
173.161667
 30
0.0
 11
-109.356833
 21
173.161667
 31
0.0
  0
LINE
  8
1
  6
CONTINUOUS
 62
     5
  5
24D
 10
-107.356833
 20
159.161667
 30
0.0
 11
-109.356833
 21
159.161667
 31
0.0
  0
LINE
  8
1
  6
CONTINUOUS
 62
     5
  5
24E
 10
-107.356833
 20
174.161667
 30
0.0
 11
-109.356833
 21
174.161667
 31
0.0
  0
LINE
  8
1
  6
CONTINUOUS
 62
     5
  5
24F
 10
-107.356833
 20
158.161667
 30
0.0
 11
-109.356833
 21
158.161667
 31
0.0
  0
LINE
  8
1
  6
CONTINUOUS
 62
     5
  5
250
 10
-108.856833
 20
176.161667
 30
0.0
 11
-108.856833
 21
174.161667
 31
0.0
  0
LINE
  8
1
  6
CONTINUOUS
 62
     5
  5
251
 10
-109.356833
 20
174.161667
 30
0.0
 11
-109.356833
 21
172.661667
 31
0.0
  0
LINE
  8
1
  6
CONTINUOUS
 62
     5
  5
252
 10
-109.356833
 20
172.661667
 30
0.0
 11
-108.856833
 21
172.661667
 31
0.0
  0
LINE
  8
1
  6
CONTINUOUS
 62
     5
  5
253
 10
-108.856833
 20
173.161667
 30
0.0
 11
-108.856833
 21
159.161667
 31
0.0
  0
LINE
  8
1
  6
CONTINUOUS
 62
     5
  5
254
 10
-108.856833
 20
158.161667
 30
0.0
 11
-108.856833
 21
156.161667
 31
0.0
  0
LINE
  8
1
  6
CONTINUOUS
 62
     5
  5
255
 10
-107.856833
 20
173.161667
 30
0.0
 11
-107.856833
 21
159.161667
 31
0.0
  0
LINE
  8
1
  6
CONTINUOUS
 62
     5
  5
256
 10
-109.356833
 20
158.161667
 30
0.0
 11
-109.356833
 21
159.661667
 31
0.0
  0
LINE
  8
1
  6
CONTINUOUS
 62
     5
  5
257
 10
-109.356833
 20
159.661667
 30
0.0
 11
-108.856833
 21
159.661667
 31
0.0
  0
LINE
  8
1
  6
CONTINUOUS
 62
     5
  5
258
 10
-88.356833
 20
166.661667
 30
0.0
 11
-90.356833
 21
166.661667
 31
0.0
  0
LINE
  8
1
  6
CONTINUOUS
 62
     5
  5
259
 10
-88.356833
 20
165.661667
 30
0.0
 11
-90.356833
 21
165.661667
 31
0.0
  0
LINE
  8
1
  6
CONTINUOUS
 62
     5
  5
25A
 10
-89.856833
 20
174.161667
 30
0.0
 11
-89.856833
 21
166.661667
 31
0.0
  0
LINE
  8
1
  6
CONTINUOUS
 62
     5
  5
25B
 10
-89.856833
 20
165.661667
 30
0.0
 11
-89.856833
 21
158.161667
 31
0.0
  0
LINE
  8
1
  6
CONTINUOUS
 62
     5
  5
25C
 10
-88.856833
 20
176.161667
 30
0.0
 11
-88.856833
 21
166.661667
 31
0.0
  0
LINE
  8
1
  6
CONTINUOUS
 62
     5
  5
25D
 10
-88.856833
 20
165.661667
 30
0.0
 11
-88.856833
 21
156.161667
 31
0.0
  0
LINE
  8
1
  6
CONTINUOUS
 62
     5
  5
25E
 10
-88.356833
 20
166.661667
 30
0.0
 11
-88.356833
 21
165.661667
 31
0.0
  0
LINE
  8
1
  6
CONTINUOUS
 62
     5
  5
25F
 10
-88.606833
 20
167.161667
 30
0.0
 11
-88.606833
 21
166.661667
 31
0.0
  0
LINE
  8
1
  6
CONTINUOUS
 62
     5
  5
260
 10
-88.606833
 20
165.661667
 30
0.0
 11
-88.606833
 21
165.161667
 31
0.0
  0
CIRCLE
  8
1
  6
CONTINUOUS
 62
     5
  5
261
 10
-98.847833
 20
166.163583
 30
0.0
 40
8.0
210
0.0
220
0.0
230
1.0
  0
TEXT
  8
1
  6
CONTINUOUS
 62
     5
  5
262
 10
-101.037667
 20
163.82875
 30
0.0
 40
5.0
  1
R
  7
txt
210
0.0
220
0.0
230
1.0
  0
LINE
  8
1
  6
CONTINUOUS
 62
     5
  5
263
 10
-112.356833
 20
183.15325
 30
0.0
 11
-112.356833
 21
181.15325
 31
0.0
  0
LINE
  8
1
  6
CONTINUOUS
 62
     5
  5
264
 10
-110.856833
 20
183.15325
 30
0.0
 11
-110.856833
 21
181.15325
 31
0.0
  0
ARC
  8
1
  6
CONTINUOUS
 62
     5
  5
265
 10
-111.981833
 20
182.802968
 30
0.0
 40
0.51315
 50
43.048108
 51
136.951892
210
0.0
220
0.0
230
1.0
  0
ARC
  8
1
  6
CONTINUOUS
 62
     5
  5
266
 10
-111.231833
 20
182.802968
 30
0.0
 40
0.51315
 50
43.048108
 51
136.951892
210
0.0
220
0.0
230
1.0
  0
ARC
  8
1
  6
CONTINUOUS
 62
     5
  5
267
 10
-111.231833
 20
183.500032
 30
0.0
 40
0.51315
 50
223.048108
 51
316.951892
210
0.0
220
0.0
230
1.0
  0
LINE
  8
1
  6
CONTINUOUS
 62
     5
  5
268
 10
-100.356833
 20
114.911667
 30
0.0
 11
-100.356833
 21
115.661667
 31
0.0
  0
LINE
  8
1
  6
CONTINUOUS
 62
     5
  5
269
 10
-97.356833
 20
114.911667
 30
0.0
 11
-97.356833
 21
116.161667
 31
0.0
  0
LINE
  8
1
  6
CONTINUOUS
 62
     5
  5
26A
 10
-99.606833
 20
114.911667
 30
0.0
 11
-99.606833
 21
115.661667
 31
0.0
  0
LINE
  8
1
  6
CONTINUOUS
 62
     5
  5
26B
 10
-98.106833
 20
114.911667
 30
0.0
 11
-98.106833
 21
115.661667
 31
0.0
  0
LINE
  8
1
  6
CONTINUOUS
 62
     5
  5
26C
 10
-97.356833
 20
115.661667
 30
0.0
 11
-125.856833
 21
115.661667
 31
0.0
  0
LINE
  8
1
  6
CONTINUOUS
 62
     5
  5
26D
 10
-100.356833
 20
114.911667
 30
0.0
 11
-97.356833
 21
114.911667
 31
0.0
  0
LINE
  8
1
  6
CONTINUOUS
 62
     5
  5
26E
 10
-97.356833
 20
116.061667
 30
0.0
 11
-125.856833
 21
116.061667
 31
0.0
  0
LINE
  8
1
  6
CONTINUOUS
 62
     5
  5
26F
 10
-125.856833
 20
116.161667
 30
0.0
 11
-125.856833
 21
115.761667
 31
0.0
  0
LINE
  8
1
  6
CONTINUOUS
 62
     5
  5
270
 10
-125.856833
 20
114.936917
 30
0.0
 11
-122.856833
 21
114.936917
 31
0.0
  0
LINE
  8
1
  6
CONTINUOUS
 62
     5
  5
271
 10
-122.856833
 20
114.936917
 30
0.0
 11
-122.856833
 21
115.661667
 31
0.0
  0
LINE
  8
1
  6
CONTINUOUS
 62
     5
  5
272
 10
-125.106833
 20
114.936917
 30
0.0
 11
-125.106833
 21
115.661667
 31
0.0
  0
LINE
  8
1
  6
CONTINUOUS
 62
     5
  5
273
 10
-123.606833
 20
114.936917
 30
0.0
 11
-123.606833
 21
115.661667
 31
0.0
  0
LINE
  8
1
  6
CONTINUOUS
 62
     5
  5
274
 10
-125.856833
 20
114.936917
 30
0.0
 11
-125.856833
 21
115.762667
 31
0.0
  0
ARC
  8
1
  6
CONTINUOUS
 62
     5
  5
275
 10
-122.264681
 20
177.561097
 30
0.0
 40
3.595619
 50
87.483914
 51
182.516086
210
0.0
220
0.0
230
1.0
  0
LINE
  8
1
  6
CONTINUOUS
 62
     5
  5
276
 10
-122.106833
 20
178.15325
 30
0.0
 11
-122.106833
 21
181.15325
 31
0.0
  0
LINE
  8
1
  6
CONTINUOUS
 62
     5
  5
277
 10
-88.856833
 20
156.161667
 30
0.0
 11
-108.856833
 21
156.161667
 31
0.0
  0
LINE
  8
1
  6
CONTINUOUS
 62
     5
  5
278
 10
-90.856833
 20
155.161667
 30
0.0
 11
-106.856833
 21
155.161667
 31
0.0
  0
LINE
  8
1
  6
CONTINUOUS
 62
     5
  5
279
 10
-90.856833
 20
137.161667
 30
0.0
 11
-106.856833
 21
137.161667
 31
0.0
  0
ARC
  8
1
  6
CONTINUOUS
 62
     5
  5
27A
 10
-106.856833
 20
154.161667
 30
0.0
 40
1.0
 50
90.0
 51
180.0
210
0.0
220
0.0
230
1.0
  0
ARC
  8
1
  6
CONTINUOUS
 62
     5
  5
27B
 10
-90.856833
 20
154.161667
 30
0.0
 40
1.0
 50
0.0
 51
90.0
210
0.0
220
0.0
230
1.0
  0
ARC
  8
1
  6
CONTINUOUS
 62
     5
  5
27C
 10
-106.856833
 20
138.161667
 30
0.0
 40
1.0
 50
180.0
 51
270.0
210
0.0
220
0.0
230
1.0
  0
ARC
  8
1
  6
CONTINUOUS
 62
     5
  5
27D
 10
-90.856833
 20
138.161667
 30
0.0
 40
1.0
 50
270.0
 51
0.0
210
0.0
220
0.0
230
1.0
  0
LINE
  8
1
  6
CONTINUOUS
 62
     5
  5
27E
 10
-107.356833
 20
153.161667
 30
0.0
 11
-109.356833
 21
153.161667
 31
0.0
  0
LINE
  8
1
  6
CONTINUOUS
 62
     5
  5
27F
 10
-107.356833
 20
139.161667
 30
0.0
 11
-109.356833
 21
139.161667
 31
0.0
  0
LINE
  8
1
  6
CONTINUOUS
 62
     5
  5
280
 10
-107.356833
 20
154.161667
 30
0.0
 11
-109.356833
 21
154.161667
 31
0.0
  0
LINE
  8
1
  6
CONTINUOUS
 62
     5
  5
281
 10
-107.356833
 20
138.161667
 30
0.0
 11
-109.356833
 21
138.161667
 31
0.0
  0
LINE
  8
1
  6
CONTINUOUS
 62
     5
  5
282
 10
-108.856833
 20
156.161667
 30
0.0
 11
-108.856833
 21
154.161667
 31
0.0
  0
LINE
  8
1
  6
CONTINUOUS
 62
     5
  5
283
 10
-109.356833
 20
154.161667
 30
0.0
 11
-109.356833
 21
152.661667
 31
0.0
  0
LINE
  8
1
  6
CONTINUOUS
 62
     5
  5
284
 10
-109.356833
 20
152.661667
 30
0.0
 11
-108.856833
 21
152.661667
 31
0.0
  0
LINE
  8
1
  6
CONTINUOUS
 62
     5
  5
285
 10
-108.856833
 20
153.161667
 30
0.0
 11
-108.856833
 21
139.161667
 31
0.0
  0
LINE
  8
1
  6
CONTINUOUS
 62
     5
  5
286
 10
-108.856833
 20
138.161667
 30
0.0
 11
-108.856833
 21
136.161667
 31
0.0
  0
LINE
  8
1
  6
CONTINUOUS
 62
     5
  5
287
 10
-107.856833
 20
153.161667
 30
0.0
 11
-107.856833
 21
139.161667
 31
0.0
  0
LINE
  8
1
  6
CONTINUOUS
 62
     5
  5
288
 10
-109.356833
 20
138.161667
 30
0.0
 11
-109.356833
 21
139.661667
 31
0.0
  0
LINE
  8
1
  6
CONTINUOUS
 62
     5
  5
289
 10
-109.356833
 20
139.661667
 30
0.0
 11
-108.856833
 21
139.661667
 31
0.0
  0
LINE
  8
1
  6
CONTINUOUS
 62
     5
  5
28A
 10
-88.356833
 20
146.661667
 30
0.0
 11
-90.356833
 21
146.661667
 31
0.0
  0
LINE
  8
1
  6
CONTINUOUS
 62
     5
  5
28B
 10
-88.356833
 20
145.661667
 30
0.0
 11
-90.356833
 21
145.661667
 31
0.0
  0
LINE
  8
1
  6
CONTINUOUS
 62
     5
  5
28C
 10
-89.856833
 20
154.161667
 30
0.0
 11
-89.856833
 21
146.661667
 31
0.0
  0
LINE
  8
1
  6
CONTINUOUS
 62
     5
  5
28D
 10
-89.856833
 20
145.661667
 30
0.0
 11
-89.856833
 21
138.161667
 31
0.0
  0
LINE
  8
1
  6
CONTINUOUS
 62
     5
  5
28E
 10
-88.856833
 20
156.161667
 30
0.0
 11
-88.856833
 21
146.661667
 31
0.0
  0
LINE
  8
1
  6
CONTINUOUS
 62
     5
  5
28F
 10
-88.856833
 20
145.661667
 30
0.0
 11
-88.856833
 21
136.161667
 31
0.0
  0
LINE
  8
1
  6
CONTINUOUS
 62
     5
  5
290
 10
-88.356833
 20
146.661667
 30
0.0
 11
-88.356833
 21
145.661667
 31
0.0
  0
LINE
  8
1
  6
CONTINUOUS
 62
     5
  5
291
 10
-88.606833
 20
147.161667
 30
0.0
 11
-88.606833
 21
146.661667
 31
0.0
  0
LINE
  8
1
  6
CONTINUOUS
 62
     5
  5
292
 10
-88.606833
 20
145.661667
 30
0.0
 11
-88.606833
 21
145.161667
 31
0.0
  0
CIRCLE
  8
1
  6
CONTINUOUS
 62
     5
  5
293
 10
-98.847833
 20
146.163583
 30
0.0
 40
8.0
210
0.0
220
0.0
230
1.0
  0
LINE
  8
1
  6
CONTINUOUS
 62
     5
  5
294
 10
-88.856833
 20
136.161667
 30
0.0
 11
-108.856833
 21
136.161667
 31
0.0
  0
LINE
  8
1
  6
CONTINUOUS
 62
     5
  5
295
 10
-88.856833
 20
116.161667
 30
0.0
 11
-108.856833
 21
116.161667
 31
0.0
  0
LINE
  8
1
  6
CONTINUOUS
 62
     5
  5
296
 10
-90.856833
 20
135.161667
 30
0.0
 11
-106.856833
 21
135.161667
 31
0.0
  0
LINE
  8
1
  6
CONTINUOUS
 62
     5
  5
297
 10
-90.856833
 20
117.161667
 30
0.0
 11
-106.856833
 21
117.161667
 31
0.0
  0
ARC
  8
1
  6
CONTINUOUS
 62
     5
  5
298
 10
-106.856833
 20
134.161667
 30
0.0
 40
1.0
 50
90.0
 51
180.0
210
0.0
220
0.0
230
1.0
  0
ARC
  8
1
  6
CONTINUOUS
 62
     5
  5
299
 10
-90.856833
 20
134.161667
 30
0.0
 40
1.0
 50
0.0
 51
90.0
210
0.0
220
0.0
230
1.0
  0
ARC
  8
1
  6
CONTINUOUS
 62
     5
  5
29A
 10
-106.856833
 20
118.161667
 30
0.0
 40
1.0
 50
180.0
 51
270.0
210
0.0
220
0.0
230
1.0
  0
ARC
  8
1
  6
CONTINUOUS
 62
     5
  5
29B
 10
-90.856833
 20
118.161667
 30
0.0
 40
1.0
 50
270.0
 51
0.0
210
0.0
220
0.0
230
1.0
  0
LINE
  8
1
  6
CONTINUOUS
 62
     5
  5
29C
 10
-107.356833
 20
133.161667
 30
0.0
 11
-109.356833
 21
133.161667
 31
0.0
  0
LINE
  8
1
  6
CONTINUOUS
 62
     5
  5
29D
 10
-107.356833
 20
119.161667
 30
0.0
 11
-109.356833
 21
119.161667
 31
0.0
  0
LINE
  8
1
  6
CONTINUOUS
 62
     5
  5
29E
 10
-107.356833
 20
134.161667
 30
0.0
 11
-109.356833
 21
134.161667
 31
0.0
  0
LINE
  8
1
  6
CONTINUOUS
 62
     5
  5
29F
 10
-107.356833
 20
118.161667
 30
0.0
 11
-109.356833
 21
118.161667
 31
0.0
  0
LINE
  8
1
  6
CONTINUOUS
 62
     5
  5
2A0
 10
-108.856833
 20
136.161667
 30
0.0
 11
-108.856833
 21
134.161667
 31
0.0
  0
LINE
  8
1
  6
CONTINUOUS
 62
     5
  5
2A1
 10
-109.356833
 20
134.161667
 30
0.0
 11
-109.356833
 21
132.661667
 31
0.0
  0
LINE
  8
1
  6
CONTINUOUS
 62
     5
  5
2A2
 10
-109.356833
 20
132.661667
 30
0.0
 11
-108.856833
 21
132.661667
 31
0.0
  0
LINE
  8
1
  6
CONTINUOUS
 62
     5
  5
2A3
 10
-108.856833
 20
133.161667
 30
0.0
 11
-108.856833
 21
119.161667
 31
0.0
  0
LINE
  8
1
  6
CONTINUOUS
 62
     5
  5
2A4
 10
-108.856833
 20
118.161667
 30
0.0
 11
-108.856833
 21
116.161667
 31
0.0
  0
LINE
  8
1
  6
CONTINUOUS
 62
     5
  5
2A5
 10
-107.856833
 20
133.161667
 30
0.0
 11
-107.856833
 21
119.161667
 31
0.0
  0
LINE
  8
1
  6
CONTINUOUS
 62
     5
  5
2A6
 10
-109.356833
 20
118.161667
 30
0.0
 11
-109.356833
 21
119.661667
 31
0.0
  0
LINE
  8
1
  6
CONTINUOUS
 62
     5
  5
2A7
 10
-109.356833
 20
119.661667
 30
0.0
 11
-108.856833
 21
119.661667
 31
0.0
  0
LINE
  8
1
  6
CONTINUOUS
 62
     5
  5
2A8
 10
-88.356833
 20
126.661667
 30
0.0
 11
-90.356833
 21
126.661667
 31
0.0
  0
LINE
  8
1
  6
CONTINUOUS
 62
     5
  5
2A9
 10
-88.356833
 20
125.661667
 30
0.0
 11
-90.356833
 21
125.661667
 31
0.0
  0
LINE
  8
1
  6
CONTINUOUS
 62
     5
  5
2AA
 10
-89.856833
 20
134.161667
 30
0.0
 11
-89.856833
 21
126.661667
 31
0.0
  0
LINE
  8
1
  6
CONTINUOUS
 62
     5
  5
2AB
 10
-89.856833
 20
125.661667
 30
0.0
 11
-89.856833
 21
118.161667
 31
0.0
  0
LINE
  8
1
  6
CONTINUOUS
 62
     5
  5
2AC
 10
-88.856833
 20
136.161667
 30
0.0
 11
-88.856833
 21
126.661667
 31
0.0
  0
LINE
  8
1
  6
CONTINUOUS
 62
     5
  5
2AD
 10
-88.856833
 20
125.661667
 30
0.0
 11
-88.856833
 21
116.161667
 31
0.0
  0
LINE
  8
1
  6
CONTINUOUS
 62
     5
  5
2AE
 10
-88.356833
 20
126.661667
 30
0.0
 11
-88.356833
 21
125.661667
 31
0.0
  0
LINE
  8
1
  6
CONTINUOUS
 62
     5
  5
2AF
 10
-88.606833
 20
127.161667
 30
0.0
 11
-88.606833
 21
126.661667
 31
0.0
  0
LINE
  8
1
  6
CONTINUOUS
 62
     5
  5
2B0
 10
-88.606833
 20
125.661667
 30
0.0
 11
-88.606833
 21
125.161667
 31
0.0
  0
CIRCLE
  8
1
  6
CONTINUOUS
 62
     5
  5
2B1
 10
-98.847833
 20
126.163583
 30
0.0
 40
8.0
210
0.0
220
0.0
230
1.0
  0
LINE
  8
1
  6
CONTINUOUS
 62
     5
  5
2B2
 10
-214.491917
 20
153.90325
 30
0.0
 11
-203.991917
 21
153.90325
 31
0.0
  0
LINE
  8
1
  6
CONTINUOUS
 62
     5
  5
2B3
 10
-214.491917
 20
143.40325
 30
0.0
 11
-203.991917
 21
143.40325
 31
0.0
  0
LINE
  8
1
  6
CONTINUOUS
 62
     5
  5
2B4
 10
-214.491917
 20
140.40325
 30
0.0
 11
-203.991917
 21
140.40325
 31
0.0
  0
LINE
  8
1
  6
CONTINUOUS
 62
     5
  5
2B5
 10
-214.491917
 20
129.90325
 30
0.0
 11
-203.991917
 21
129.90325
 31
0.0
  0
LINE
  8
1
  6
CONTINUOUS
 62
     5
  5
2B6
 10
-214.491917
 20
153.90325
 30
0.0
 11
-214.491917
 21
143.40325
 31
0.0
  0
LINE
  8
1
  6
CONTINUOUS
 62
     5
  5
2B7
 10
-214.491917
 20
140.40325
 30
0.0
 11
-214.491917
 21
129.90325
 31
0.0
  0
LINE
  8
1
  6
CONTINUOUS
 62
     5
  5
2B8
 10
-203.991917
 20
154.40325
 30
0.0
 11
-203.991917
 21
142.40325
 31
0.0
  0
LINE
  8
1
  6
CONTINUOUS
 62
     5
  5
2B9
 10
-203.991917
 20
140.90325
 30
0.0
 11
-203.991917
 21
128.90325
 31
0.0
  0
LINE
  8
1
  6
CONTINUOUS
 62
     5
  5
2BA
 10
-203.991917
 20
154.40325
 30
0.0
 11
-203.491917
 21
154.40325
 31
0.0
  0
LINE
  8
1
  6
CONTINUOUS
 62
     5
  5
2BB
 10
-203.991917
 20
142.40325
 30
0.0
 11
-203.491917
 21
142.40325
 31
0.0
  0
LINE
  8
1
  6
CONTINUOUS
 62
     5
  5
2BC
 10
-203.991917
 20
140.90325
 30
0.0
 11
-203.491917
 21
140.90325
 31
0.0
  0
LINE
  8
1
  6
CONTINUOUS
 62
     5
  5
2BD
 10
-203.991917
 20
128.90325
 30
0.0
 11
-203.491917
 21
128.90325
 31
0.0
  0
LINE
  8
1
  6
CONTINUOUS
 62
     5
  5
2BE
 10
-203.491917
 20
176.15325
 30
0.0
 11
-203.491917
 21
128.40325
 31
0.0
  0
LINE
  8
1
  6
CONTINUOUS
 62
     5
  5
2BF
 10
-197.241917
 20
155.07325
 30
0.0
 11
-197.241917
 21
128.40325
 31
0.0
  0
LINE
  8
1
  6
CONTINUOUS
 62
     5
  5
2C0
 10
-203.491917
 20
176.15325
 30
0.0
 11
-194.491917
 21
176.15325
 31
0.0
  0
LINE
  8
1
  6
CONTINUOUS
 62
     5
  5
2C1
 10
-203.491917
 20
128.40325
 30
0.0
 11
-197.241917
 21
128.40325
 31
0.0
  0
LINE
  8
1
  6
CONTINUOUS
 62
     5
  5
2C2
 10
-203.491917
 20
155.07325
 30
0.0
 11
-194.491917
 21
155.07325
 31
0.0
  0
LINE
  8
1
  6
CONTINUOUS
 62
     5
  5
2C3
 10
-203.491917
 20
141.73325
 30
0.0
 11
-197.241917
 21
141.73325
 31
0.0
  0
LINE
  8
1
  6
CONTINUOUS
 62
     5
  5
2C4
 10
-199.491917
 20
154.82325
 30
0.0
 11
-199.491917
 21
128.65325
 31
0.0
  0
LINE
  8
1
  6
CONTINUOUS
 62
     5
  5
2C5
 10
-200.491917
 20
176.90325
 30
0.0
 11
-200.491917
 21
176.15325
 31
0.0
  0
LINE
  8
1
  6
CONTINUOUS
 62
     5
  5
2C6
 10
-197.491917
 20
176.90325
 30
0.0
 11
-197.491917
 21
176.15325
 31
0.0
  0
LINE
  8
1
  6
CONTINUOUS
 62
     5
  5
2C7
 10
-200.491917
 20
176.90325
 30
0.0
 11
-197.491917
 21
176.90325
 31
0.0
  0
LINE
  8
1
  6
CONTINUOUS
 62
     5
  5
2C8
 10
-199.741917
 20
177.40325
 30
0.0
 11
-199.741917
 21
176.15325
 31
0.0
  0
LINE
  8
1
  6
CONTINUOUS
 62
     5
  5
2C9
 10
-198.241917
 20
177.40325
 30
0.0
 11
-198.241917
 21
176.15325
 31
0.0
  0
LINE
  8
1
  6
CONTINUOUS
 62
     5
  5
2CA
 10
-201.866917
 20
127.657917
 30
0.0
 11
-198.866917
 21
127.657917
 31
0.0
  0
LINE
  8
1
  6
CONTINUOUS
 62
     5
  5
2CB
 10
-201.866917
 20
127.657917
 30
0.0
 11
-201.866917
 21
128.407917
 31
0.0
  0
LINE
  8
1
  6
CONTINUOUS
 62
     5
  5
2CC
 10
-198.866917
 20
127.657917
 30
0.0
 11
-198.866917
 21
128.407917
 31
0.0
  0
LINE
  8
1
  6
CONTINUOUS
 62
     5
  5
2CD
 10
-200.491917
 20
177.40325
 30
0.0
 11
-197.491917
 21
177.40325
 31
0.0
  0
ARC
  8
1
  6
CONTINUOUS
 62
     5
  5
2CE
 10
-196.778687
 20
177.44002
 30
0.0
 40
0.714177
 50
87.048753
 51
182.951247
210
0.0
220
0.0
230
1.0
  0
LINE
  8
1
  6
CONTINUOUS
 62
     5
  5
2CF
 10
-190.029167
 20
178.90325
 30
0.0
 11
-196.741917
 21
178.90325
 31
0.0
  0
LINE
  8
1
  6
CONTINUOUS
 62
     5
  5
2D0
 10
-190.029167
 20
181.15325
 30
0.0
 11
-184.029167
 21
181.15325
 31
0.0
  0
LINE
  8
1
  6
CONTINUOUS
 62
     5
  5
2D1
 10
-184.029167
 20
178.15325
 30
0.0
 11
-184.029167
 21
181.15325
 31
0.0
  0
LINE
  8
1
  6
CONTINUOUS
 62
     5
  5
2D2
 10
-190.029167
 20
178.15325
 30
0.0
 11
-184.029167
 21
178.15325
 31
0.0
  0
LINE
  8
1
  6
CONTINUOUS
 62
     5
  5
2D3
 10
-190.029167
 20
180.90325
 30
0.0
 11
-184.029167
 21
180.90325
 31
0.0
  0
ARC
  8
1
  6
CONTINUOUS
 62
     5
  5
2D4
 10
-193.08113
 20
179.52825
 30
0.0
 40
3.347403
 50
335.747022
 51
24.252978
210
0.0
220
0.0
230
1.0
  0
ARC
  8
1
  6
CONTINUOUS
 62
     5
  5
2D5
 10
-181.00787
 20
179.52825
 30
0.0
 40
3.347403
 50
155.747022
 51
204.252978
210
0.0
220
0.0
230
1.0
  0
LINE
  8
1
  6
CONTINUOUS
 62
     5
  5
2D6
 10
-190.029167
 20
178.15325
 30
0.0
 11
-190.029167
 21
180.90325
 31
0.0
  0
LINE
  8
1
  6
CONTINUOUS
 62
     5
  5
2D7
 10
-190.029167
 20
180.90325
 30
0.0
 11
-190.029167
 21
181.15325
 31
0.0
  0
LINE
  8
1
  6
CONTINUOUS
 62
     5
  5
2D8
 10
-188.154167
 20
180.22825
 30
0.0
 11
-188.154167
 21
178.82825
 31
0.0
  0
LINE
  8
1
  6
CONTINUOUS
 62
     5
  5
2D9
 10
-185.904167
 20
180.22825
 30
0.0
 11
-185.904167
 21
178.92825
 31
0.0
  0
LINE
  8
1
  6
CONTINUOUS
 62
     5
  5
2DA
 10
-187.029167
 20
180.90325
 30
0.0
 11
-188.154167
 21
180.22825
 31
0.0
  0
LINE
  8
1
  6
CONTINUOUS
 62
     5
  5
2DB
 10
-187.029167
 20
180.90325
 30
0.0
 11
-185.904167
 21
180.22825
 31
0.0
  0
LINE
  8
1
  6
CONTINUOUS
 62
     5
  5
2DC
 10
-188.154167
 20
178.82825
 30
0.0
 11
-187.029167
 21
178.15325
 31
0.0
  0
LINE
  8
1
  6
CONTINUOUS
 62
     5
  5
2DD
 10
-185.904167
 20
178.92825
 30
0.0
 11
-187.029167
 21
178.15325
 31
0.0
  0
LINE
  8
1
  6
CONTINUOUS
 62
     5
  5
2DE
 10
-177.3165
 20
178.256333
 30
0.0
 11
-177.3165
 21
181.256333
 31
0.0
  0
LINE
  8
1
  6
CONTINUOUS
 62
     5
  5
2DF
 10
-173.5665
 20
177.006333
 30
0.0
 11
-173.5665
 21
176.256333
 31
0.0
  0
LINE
  8
1
  6
CONTINUOUS
 62
     5
  5
2E0
 10
-176.5665
 20
177.006333
 30
0.0
 11
-176.5665
 21
176.256333
 31
0.0
  0
LINE
  8
1
  6
CONTINUOUS
 62
     5
  5
2E1
 10
-173.5665
 20
177.006333
 30
0.0
 11
-176.5665
 21
177.006333
 31
0.0
  0
LINE
  8
1
  6
CONTINUOUS
 62
     5
  5
2E2
 10
-174.3165
 20
177.506333
 30
0.0
 11
-174.3165
 21
176.256333
 31
0.0
  0
LINE
  8
1
  6
CONTINUOUS
 62
     5
  5
2E3
 10
-175.8165
 20
177.506333
 30
0.0
 11
-175.8165
 21
176.256333
 31
0.0
  0
LINE
  8
1
  6
CONTINUOUS
 62
     5
  5
2E4
 10
-173.5665
 20
177.506333
 30
0.0
 11
-176.5665
 21
177.506333
 31
0.0
  0
ARC
  8
1
  6
CONTINUOUS
 62
     5
  5
2E5
 10
-177.158653
 20
177.664181
 30
0.0
 40
3.595619
 50
357.483914
 51
92.516086
210
0.0
220
0.0
230
1.0
  0
ARC
  8
1
  6
CONTINUOUS
 62
     5
  5
2E6
 10
-177.27973
 20
177.543104
 30
0.0
 40
0.714177
 50
357.048753
 51
92.951247
210
0.0
220
0.0
230
1.0
  0
LINE
  8
1
  6
CONTINUOUS
 62
     5
  5
2E7
 10
-184.029167
 20
178.911667
 30
0.0
 11
-177.3165
 21
178.911667
 31
0.0
  0
LINE
  8
1
  6
CONTINUOUS
 62
     5
  5
2E8
 10
-165.0665
 20
176.256333
 30
0.0
 11
-185.0665
 21
176.256333
 31
0.0
  0
LINE
  8
1
  6
CONTINUOUS
 62
     5
  5
2E9
 10
-167.0665
 20
175.256333
 30
0.0
 11
-183.0665
 21
175.256333
 31
0.0
  0
LINE
  8
1
  6
CONTINUOUS
 62
     5
  5
2EA
 10
-167.0665
 20
157.256333
 30
0.0
 11
-183.0665
 21
157.256333
 31
0.0
  0
ARC
  8
1
  6
CONTINUOUS
 62
     5
  5
2EB
 10
-183.0665
 20
174.256333
 30
0.0
 40
1.0
 50
90.0
 51
180.0
210
0.0
220
0.0
230
1.0
  0
ARC
  8
1
  6
CONTINUOUS
 62
     5
  5
2EC
 10
-167.0665
 20
174.256333
 30
0.0
 40
1.0
 50
0.0
 51
90.0
210
0.0
220
0.0
230
1.0
  0
ARC
  8
1
  6
CONTINUOUS
 62
     5
  5
2ED
 10
-183.0665
 20
158.256333
 30
0.0
 40
1.0
 50
180.0
 51
270.0
210
0.0
220
0.0
230
1.0
  0
ARC
  8
1
  6
CONTINUOUS
 62
     5
  5
2EE
 10
-167.0665
 20
158.256333
 30
0.0
 40
1.0
 50
270.0
 51
0.0
210
0.0
220
0.0
230
1.0
  0
LINE
  8
1
  6
CONTINUOUS
 62
     5
  5
2EF
 10
-183.5665
 20
173.256333
 30
0.0
 11
-185.5665
 21
173.256333
 31
0.0
  0
LINE
  8
1
  6
CONTINUOUS
 62
     5
  5
2F0
 10
-183.5665
 20
159.256333
 30
0.0
 11
-185.5665
 21
159.256333
 31
0.0
  0
LINE
  8
1
  6
CONTINUOUS
 62
     5
  5
2F1
 10
-183.5665
 20
174.256333
 30
0.0
 11
-185.5665
 21
174.256333
 31
0.0
  0
LINE
  8
1
  6
CONTINUOUS
 62
     5
  5
2F2
 10
-183.5665
 20
158.256333
 30
0.0
 11
-185.5665
 21
158.256333
 31
0.0
  0
LINE
  8
1
  6
CONTINUOUS
 62
     5
  5
2F3
 10
-185.0665
 20
176.256333
 30
0.0
 11
-185.0665
 21
174.256333
 31
0.0
  0
LINE
  8
1
  6
CONTINUOUS
 62
     5
  5
2F4
 10
-185.5665
 20
174.256333
 30
0.0
 11
-185.5665
 21
172.756333
 31
0.0
  0
LINE
  8
1
  6
CONTINUOUS
 62
     5
  5
2F5
 10
-185.5665
 20
172.756333
 30
0.0
 11
-185.0665
 21
172.756333
 31
0.0
  0
LINE
  8
1
  6
CONTINUOUS
 62
     5
  5
2F6
 10
-185.0665
 20
173.256333
 30
0.0
 11
-185.0665
 21
159.256333
 31
0.0
  0
LINE
  8
1
  6
CONTINUOUS
 62
     5
  5
2F7
 10
-185.0665
 20
158.256333
 30
0.0
 11
-185.0665
 21
156.256333
 31
0.0
  0
LINE
  8
1
  6
CONTINUOUS
 62
     5
  5
2F8
 10
-184.0665
 20
173.256333
 30
0.0
 11
-184.0665
 21
159.256333
 31
0.0
  0
LINE
  8
1
  6
CONTINUOUS
 62
     5
  5
2F9
 10
-185.5665
 20
158.256333
 30
0.0
 11
-185.5665
 21
159.756333
 31
0.0
  0
LINE
  8
1
  6
CONTINUOUS
 62
     5
  5
2FA
 10
-185.5665
 20
159.756333
 30
0.0
 11
-185.0665
 21
159.756333
 31
0.0
  0
LINE
  8
1
  6
CONTINUOUS
 62
     5
  5
2FB
 10
-164.5665
 20
166.756333
 30
0.0
 11
-166.5665
 21
166.756333
 31
0.0
  0
LINE
  8
1
  6
CONTINUOUS
 62
     5
  5
2FC
 10
-164.5665
 20
165.756333
 30
0.0
 11
-166.5665
 21
165.756333
 31
0.0
  0
LINE
  8
1
  6
CONTINUOUS
 62
     5
  5
2FD
 10
-166.0665
 20
174.256333
 30
0.0
 11
-166.0665
 21
166.756333
 31
0.0
  0
LINE
  8
1
  6
CONTINUOUS
 62
     5
  5
2FE
 10
-166.0665
 20
165.756333
 30
0.0
 11
-166.0665
 21
158.256333
 31
0.0
  0
LINE
  8
1
  6
CONTINUOUS
 62
     5
  5
2FF
 10
-165.0665
 20
176.256333
 30
0.0
 11
-165.0665
 21
166.756333
 31
0.0
  0
LINE
  8
1
  6
CONTINUOUS
 62
     5
  5
300
 10
-165.0665
 20
165.756333
 30
0.0
 11
-165.0665
 21
156.256333
 31
0.0
  0
LINE
  8
1
  6
CONTINUOUS
 62
     5
  5
301
 10
-164.5665
 20
166.756333
 30
0.0
 11
-164.5665
 21
165.756333
 31
0.0
  0
LINE
  8
1
  6
CONTINUOUS
 62
     5
  5
302
 10
-164.8165
 20
167.256333
 30
0.0
 11
-164.8165
 21
166.756333
 31
0.0
  0
LINE
  8
1
  6
CONTINUOUS
 62
     5
  5
303
 10
-164.8165
 20
165.756333
 30
0.0
 11
-164.8165
 21
165.256333
 31
0.0
  0
CIRCLE
  8
1
  6
CONTINUOUS
 62
     5
  5
304
 10
-175.0575
 20
166.25825
 30
0.0
 40
8.0
210
0.0
220
0.0
230
1.0
  0
TEXT
  8
1
  6
CONTINUOUS
 62
     5
  5
305
 10
-177.296667
 20
164.011833
 30
0.0
 40
5.0
  1
R
  7
txt
210
0.0
220
0.0
230
1.0
  0
LINE
  8
1
  6
CONTINUOUS
 62
     5
  5
306
 10
-187.779167
 20
183.15325
 30
0.0
 11
-187.779167
 21
181.15325
 31
0.0
  0
LINE
  8
1
  6
CONTINUOUS
 62
     5
  5
307
 10
-186.279167
 20
183.15325
 30
0.0
 11
-186.279167
 21
181.15325
 31
0.0
  0
ARC
  8
1
  6
CONTINUOUS
 62
     5
  5
308
 10
-187.404167
 20
182.802968
 30
0.0
 40
0.51315
 50
43.048108
 51
136.951892
210
0.0
220
0.0
230
1.0
  0
ARC
  8
1
  6
CONTINUOUS
 62
     5
  5
309
 10
-186.654167
 20
182.802968
 30
0.0
 40
0.51315
 50
43.048108
 51
136.951892
210
0.0
220
0.0
230
1.0
  0
ARC
  8
1
  6
CONTINUOUS
 62
     5
  5
30A
 10
-186.654167
 20
183.500032
 30
0.0
 40
0.51315
 50
223.048108
 51
316.951892
210
0.0
220
0.0
230
1.0
  0
LINE
  8
1
  6
CONTINUOUS
 62
     5
  5
30B
 10
-201.116917
 20
116.887417
 30
0.0
 11
-201.116917
 21
127.657917
 31
0.0
  0
LINE
  8
1
  6
CONTINUOUS
 62
     5
  5
30C
 10
-201.116917
 20
127.657917
 30
0.0
 11
-201.116917
 21
128.407917
 31
0.0
  0
LINE
  8
1
  6
CONTINUOUS
 62
     5
  5
30D
 10
-199.616917
 20
116.887417
 30
0.0
 11
-199.616917
 21
127.657917
 31
0.0
  0
LINE
  8
1
  6
CONTINUOUS
 62
     5
  5
30E
 10
-199.616917
 20
127.657917
 30
0.0
 11
-199.616917
 21
128.407917
 31
0.0
  0
LINE
  8
1
  6
CONTINUOUS
 62
     5
  5
30F
 10
-201.866917
 20
116.887417
 30
0.0
 11
-198.866917
 21
116.887417
 31
0.0
  0
LINE
  8
1
  6
CONTINUOUS
 62
     5
  5
310
 10
-198.866917
 20
116.887417
 30
0.0
 11
-198.866917
 21
116.061667
 31
0.0
  0
LINE
  8
1
  6
CONTINUOUS
 62
     5
  5
311
 10
-201.116917
 20
116.887417
 30
0.0
 11
-201.116917
 21
116.061667
 31
0.0
  0
LINE
  8
1
  6
CONTINUOUS
 62
     5
  5
312
 10
-199.616917
 20
116.887417
 30
0.0
 11
-199.616917
 21
116.061667
 31
0.0
  0
LINE
  8
1
  6
CONTINUOUS
 62
     5
  5
313
 10
-176.5665
 20
115.006333
 30
0.0
 11
-176.5665
 21
115.756333
 31
0.0
  0
LINE
  8
1
  6
CONTINUOUS
 62
     5
  5
314
 10
-173.5665
 20
115.006333
 30
0.0
 11
-173.5665
 21
116.256333
 31
0.0
  0
LINE
  8
1
  6
CONTINUOUS
 62
     5
  5
315
 10
-175.8165
 20
115.006333
 30
0.0
 11
-175.8165
 21
115.756333
 31
0.0
  0
LINE
  8
1
  6
CONTINUOUS
 62
     5
  5
316
 10
-174.3165
 20
115.006333
 30
0.0
 11
-174.3165
 21
115.756333
 31
0.0
  0
LINE
  8
1
  6
CONTINUOUS
 62
     5
  5
317
 10
-173.5665
 20
115.661667
 30
0.0
 11
-201.866917
 21
115.661667
 31
0.0
  0
LINE
  8
1
  6
CONTINUOUS
 62
     5
  5
318
 10
-176.5665
 20
115.006333
 30
0.0
 11
-173.5665
 21
115.006333
 31
0.0
  0
LINE
  8
1
  6
CONTINUOUS
 62
     5
  5
319
 10
-173.5665
 20
116.061667
 30
0.0
 11
-201.866917
 21
116.061667
 31
0.0
  0
LINE
  8
1
  6
CONTINUOUS
 62
     5
  5
31A
 10
-201.866917
 20
116.887417
 30
0.0
 11
-201.866917
 21
116.061667
 31
0.0
  0
LINE
  8
1
  6
CONTINUOUS
 62
     5
  5
31B
 10
-201.866917
 20
116.061667
 30
0.0
 11
-201.866917
 21
115.661667
 31
0.0
  0
LINE
  8
1
  6
CONTINUOUS
 62
     5
  5
31C
 10
-201.866917
 20
114.836917
 30
0.0
 11
-198.866917
 21
114.836917
 31
0.0
  0
LINE
  8
1
  6
CONTINUOUS
 62
     5
  5
31D
 10
-198.866917
 20
114.836917
 30
0.0
 11
-198.866917
 21
115.662667
 31
0.0
  0
LINE
  8
1
  6
CONTINUOUS
 62
     5
  5
31E
 10
-201.116917
 20
114.836917
 30
0.0
 11
-201.116917
 21
115.662667
 31
0.0
  0
LINE
  8
1
  6
CONTINUOUS
 62
     5
  5
31F
 10
-199.616917
 20
114.836917
 30
0.0
 11
-199.616917
 21
115.662667
 31
0.0
  0
LINE
  8
1
  6
CONTINUOUS
 62
     5
  5
320
 10
-201.866917
 20
114.836917
 30
0.0
 11
-201.866917
 21
115.662667
 31
0.0
  0
ARC
  8
1
  6
CONTINUOUS
 62
     5
  5
321
 10
-196.899764
 20
177.561097
 30
0.0
 40
3.595619
 50
87.483914
 51
182.516086
210
0.0
220
0.0
230
1.0
  0
LINE
  8
1
  6
CONTINUOUS
 62
     5
  5
322
 10
-196.741917
 20
178.15325
 30
0.0
 11
-196.741917
 21
181.15325
 31
0.0
  0
LINE
  8
1
  6
CONTINUOUS
 62
     5
  5
323
 10
-165.0665
 20
156.256333
 30
0.0
 11
-185.0665
 21
156.256333
 31
0.0
  0
LINE
  8
1
  6
CONTINUOUS
 62
     5
  5
324
 10
-167.0665
 20
155.256333
 30
0.0
 11
-183.0665
 21
155.256333
 31
0.0
  0
LINE
  8
1
  6
CONTINUOUS
 62
     5
  5
325
 10
-167.0665
 20
137.256333
 30
0.0
 11
-183.0665
 21
137.256333
 31
0.0
  0
ARC
  8
1
  6
CONTINUOUS
 62
     5
  5
326
 10
-183.0665
 20
154.256333
 30
0.0
 40
1.0
 50
90.0
 51
180.0
210
0.0
220
0.0
230
1.0
  0
ARC
  8
1
  6
CONTINUOUS
 62
     5
  5
327
 10
-167.0665
 20
154.256333
 30
0.0
 40
1.0
 50
0.0
 51
90.0
210
0.0
220
0.0
230
1.0
  0
ARC
  8
1
  6
CONTINUOUS
 62
     5
  5
328
 10
-183.0665
 20
138.256333
 30
0.0
 40
1.0
 50
180.0
 51
270.0
210
0.0
220
0.0
230
1.0
  0
ARC
  8
1
  6
CONTINUOUS
 62
     5
  5
329
 10
-167.0665
 20
138.256333
 30
0.0
 40
1.0
 50
270.0
 51
0.0
210
0.0
220
0.0
230
1.0
  0
LINE
  8
1
  6
CONTINUOUS
 62
     5
  5
32A
 10
-183.5665
 20
153.256333
 30
0.0
 11
-185.5665
 21
153.256333
 31
0.0
  0
LINE
  8
1
  6
CONTINUOUS
 62
     5
  5
32B
 10
-183.5665
 20
139.256333
 30
0.0
 11
-185.5665
 21
139.256333
 31
0.0
  0
LINE
  8
1
  6
CONTINUOUS
 62
     5
  5
32C
 10
-183.5665
 20
154.256333
 30
0.0
 11
-185.5665
 21
154.256333
 31
0.0
  0
LINE
  8
1
  6
CONTINUOUS
 62
     5
  5
32D
 10
-183.5665
 20
138.256333
 30
0.0
 11
-185.5665
 21
138.256333
 31
0.0
  0
LINE
  8
1
  6
CONTINUOUS
 62
     5
  5
32E
 10
-185.0665
 20
156.256333
 30
0.0
 11
-185.0665
 21
154.256333
 31
0.0
  0
LINE
  8
1
  6
CONTINUOUS
 62
     5
  5
32F
 10
-185.5665
 20
154.256333
 30
0.0
 11
-185.5665
 21
152.756333
 31
0.0
  0
LINE
  8
1
  6
CONTINUOUS
 62
     5
  5
330
 10
-185.5665
 20
152.756333
 30
0.0
 11
-185.0665
 21
152.756333
 31
0.0
  0
LINE
  8
1
  6
CONTINUOUS
 62
     5
  5
331
 10
-185.0665
 20
153.256333
 30
0.0
 11
-185.0665
 21
139.256333
 31
0.0
  0
LINE
  8
1
  6
CONTINUOUS
 62
     5
  5
332
 10
-185.0665
 20
138.256333
 30
0.0
 11
-185.0665
 21
136.256333
 31
0.0
  0
LINE
  8
1
  6
CONTINUOUS
 62
     5
  5
333
 10
-184.0665
 20
153.256333
 30
0.0
 11
-184.0665
 21
139.256333
 31
0.0
  0
LINE
  8
1
  6
CONTINUOUS
 62
     5
  5
334
 10
-185.5665
 20
138.256333
 30
0.0
 11
-185.5665
 21
139.756333
 31
0.0
  0
LINE
  8
1
  6
CONTINUOUS
 62
     5
  5
335
 10
-185.5665
 20
139.756333
 30
0.0
 11
-185.0665
 21
139.756333
 31
0.0
  0
LINE
  8
1
  6
CONTINUOUS
 62
     5
  5
336
 10
-164.5665
 20
146.756333
 30
0.0
 11
-166.5665
 21
146.756333
 31
0.0
  0
LINE
  8
1
  6
CONTINUOUS
 62
     5
  5
337
 10
-164.5665
 20
145.756333
 30
0.0
 11
-166.5665
 21
145.756333
 31
0.0
  0
LINE
  8
1
  6
CONTINUOUS
 62
     5
  5
338
 10
-166.0665
 20
154.256333
 30
0.0
 11
-166.0665
 21
146.756333
 31
0.0
  0
LINE
  8
1
  6
CONTINUOUS
 62
     5
  5
339
 10
-166.0665
 20
145.756333
 30
0.0
 11
-166.0665
 21
138.256333
 31
0.0
  0
LINE
  8
1
  6
CONTINUOUS
 62
     5
  5
33A
 10
-165.0665
 20
156.256333
 30
0.0
 11
-165.0665
 21
146.756333
 31
0.0
  0
LINE
  8
1
  6
CONTINUOUS
 62
     5
  5
33B
 10
-165.0665
 20
145.756333
 30
0.0
 11
-165.0665
 21
136.256333
 31
0.0
  0
LINE
  8
1
  6
CONTINUOUS
 62
     5
  5
33C
 10
-164.5665
 20
146.756333
 30
0.0
 11
-164.5665
 21
145.756333
 31
0.0
  0
LINE
  8
1
  6
CONTINUOUS
 62
     5
  5
33D
 10
-164.8165
 20
147.256333
 30
0.0
 11
-164.8165
 21
146.756333
 31
0.0
  0
LINE
  8
1
  6
CONTINUOUS
 62
     5
  5
33E
 10
-164.8165
 20
145.756333
 30
0.0
 11
-164.8165
 21
145.256333
 31
0.0
  0
CIRCLE
  8
1
  6
CONTINUOUS
 62
     5
  5
33F
 10
-175.0575
 20
146.25825
 30
0.0
 40
8.0
210
0.0
220
0.0
230
1.0
  0
LINE
  8
1
  6
CONTINUOUS
 62
     5
  5
340
 10
-165.0665
 20
136.256333
 30
0.0
 11
-185.0665
 21
136.256333
 31
0.0
  0
LINE
  8
1
  6
CONTINUOUS
 62
     5
  5
341
 10
-165.0665
 20
116.256333
 30
0.0
 11
-185.0665
 21
116.256333
 31
0.0
  0
LINE
  8
1
  6
CONTINUOUS
 62
     5
  5
342
 10
-167.0665
 20
135.256333
 30
0.0
 11
-183.0665
 21
135.256333
 31
0.0
  0
LINE
  8
1
  6
CONTINUOUS
 62
     5
  5
343
 10
-167.0665
 20
117.256333
 30
0.0
 11
-183.0665
 21
117.256333
 31
0.0
  0
ARC
  8
1
  6
CONTINUOUS
 62
     5
  5
344
 10
-183.0665
 20
134.256333
 30
0.0
 40
1.0
 50
90.0
 51
180.0
210
0.0
220
0.0
230
1.0
  0
ARC
  8
1
  6
CONTINUOUS
 62
     5
  5
345
 10
-167.0665
 20
134.256333
 30
0.0
 40
1.0
 50
0.0
 51
90.0
210
0.0
220
0.0
230
1.0
  0
ARC
  8
1
  6
CONTINUOUS
 62
     5
  5
346
 10
-183.0665
 20
118.256333
 30
0.0
 40
1.0
 50
180.0
 51
270.0
210
0.0
220
0.0
230
1.0
  0
ARC
  8
1
  6
CONTINUOUS
 62
     5
  5
347
 10
-167.0665
 20
118.256333
 30
0.0
 40
1.0
 50
270.0
 51
0.0
210
0.0
220
0.0
230
1.0
  0
LINE
  8
1
  6
CONTINUOUS
 62
     5
  5
348
 10
-183.5665
 20
133.256333
 30
0.0
 11
-185.5665
 21
133.256333
 31
0.0
  0
LINE
  8
1
  6
CONTINUOUS
 62
     5
  5
349
 10
-183.5665
 20
119.256333
 30
0.0
 11
-185.5665
 21
119.256333
 31
0.0
  0
LINE
  8
1
  6
CONTINUOUS
 62
     5
  5
34A
 10
-183.5665
 20
134.256333
 30
0.0
 11
-185.5665
 21
134.256333
 31
0.0
  0
LINE
  8
1
  6
CONTINUOUS
 62
     5
  5
34B
 10
-183.5665
 20
118.256333
 30
0.0
 11
-185.5665
 21
118.256333
 31
0.0
  0
LINE
  8
1
  6
CONTINUOUS
 62
     5
  5
34C
 10
-185.0665
 20
136.256333
 30
0.0
 11
-185.0665
 21
134.256333
 31
0.0
  0
LINE
  8
1
  6
CONTINUOUS
 62
     5
  5
34D
 10
-185.5665
 20
134.256333
 30
0.0
 11
-185.5665
 21
132.756333
 31
0.0
  0
LINE
  8
1
  6
CONTINUOUS
 62
     5
  5
34E
 10
-185.5665
 20
132.756333
 30
0.0
 11
-185.0665
 21
132.756333
 31
0.0
  0
LINE
  8
1
  6
CONTINUOUS
 62
     5
  5
34F
 10
-185.0665
 20
133.256333
 30
0.0
 11
-185.0665
 21
119.256333
 31
0.0
  0
LINE
  8
1
  6
CONTINUOUS
 62
     5
  5
350
 10
-185.0665
 20
118.256333
 30
0.0
 11
-185.0665
 21
116.256333
 31
0.0
  0
LINE
  8
1
  6
CONTINUOUS
 62
     5
  5
351
 10
-184.0665
 20
133.256333
 30
0.0
 11
-184.0665
 21
119.256333
 31
0.0
  0
LINE
  8
1
  6
CONTINUOUS
 62
     5
  5
352
 10
-185.5665
 20
118.256333
 30
0.0
 11
-185.5665
 21
119.756333
 31
0.0
  0
LINE
  8
1
  6
CONTINUOUS
 62
     5
  5
353
 10
-185.5665
 20
119.756333
 30
0.0
 11
-185.0665
 21
119.756333
 31
0.0
  0
LINE
  8
1
  6
CONTINUOUS
 62
     5
  5
354
 10
-164.5665
 20
126.756333
 30
0.0
 11
-166.5665
 21
126.756333
 31
0.0
  0
LINE
  8
1
  6
CONTINUOUS
 62
     5
  5
355
 10
-164.5665
 20
125.756333
 30
0.0
 11
-166.5665
 21
125.756333
 31
0.0
  0
LINE
  8
1
  6
CONTINUOUS
 62
     5
  5
356
 10
-166.0665
 20
134.256333
 30
0.0
 11
-166.0665
 21
126.756333
 31
0.0
  0
LINE
  8
1
  6
CONTINUOUS
 62
     5
  5
357
 10
-166.0665
 20
125.756333
 30
0.0
 11
-166.0665
 21
118.256333
 31
0.0
  0
LINE
  8
1
  6
CONTINUOUS
 62
     5
  5
358
 10
-165.0665
 20
136.256333
 30
0.0
 11
-165.0665
 21
126.756333
 31
0.0
  0
LINE
  8
1
  6
CONTINUOUS
 62
     5
  5
359
 10
-165.0665
 20
125.756333
 30
0.0
 11
-165.0665
 21
116.256333
 31
0.0
  0
LINE
  8
1
  6
CONTINUOUS
 62
     5
  5
35A
 10
-164.5665
 20
126.756333
 30
0.0
 11
-164.5665
 21
125.756333
 31
0.0
  0
LINE
  8
1
  6
CONTINUOUS
 62
     5
  5
35B
 10
-164.8165
 20
127.256333
 30
0.0
 11
-164.8165
 21
126.756333
 31
0.0
  0
LINE
  8
1
  6
CONTINUOUS
 62
     5
  5
35C
 10
-164.8165
 20
125.756333
 30
0.0
 11
-164.8165
 21
125.256333
 31
0.0
  0
CIRCLE
  8
1
  6
CONTINUOUS
 62
     5
  5
35D
 10
-175.0575
 20
126.25825
 30
0.0
 40
8.0
210
0.0
220
0.0
230
1.0
  0
LINE
  8
1
  6
CONTINUOUS
 62
     5
  5
35E
 10
-203.991917
 20
155.90325
 30
0.0
 11
-203.491917
 21
155.90325
 31
0.0
  0
LINE
  8
1
  6
CONTINUOUS
 62
     5
  5
35F
 10
-203.991917
 20
175.40325
 30
0.0
 11
-203.491917
 21
175.40325
 31
0.0
  0
LINE
  8
1
  6
CONTINUOUS
 62
     5
  5
360
 10
-194.491917
 20
176.15325
 30
0.0
 11
-194.491917
 21
155.07325
 31
0.0
  0
LINE
  8
1
  6
CONTINUOUS
 62
     5
  5
361
 10
-203.991917
 20
175.40325
 30
0.0
 11
-203.991917
 21
155.90325
 31
0.0
  0
LINE
  8
1
  6
CONTINUOUS
 62
     5
  5
362
 10
-198.491917
 20
175.90325
 30
0.0
 11
-198.491917
 21
155.32325
 31
0.0
  0
LINE
  8
1
  6
CONTINUOUS
 62
     5
  5
363
 10
-218.991917
 20
174.90325
 30
0.0
 11
-203.991917
 21
174.90325
 31
0.0
  0
LINE
  8
1
  6
CONTINUOUS
 62
     5
  5
364
 10
-218.991917
 20
156.40325
 30
0.0
 11
-203.991917
 21
156.40325
 31
0.0
  0
LINE
  8
1
  6
CONTINUOUS
 62
     5
  5
365
 10
-218.991917
 20
174.90325
 30
0.0
 11
-218.991917
 21
156.40325
 31
0.0
  0
LINE
  8
1
  6
CONTINUOUS
 62
     5
  5
366
 10
-196.741917
 20
180.411667
 30
0.0
 11
-190.029167
 21
180.411667
 31
0.0
  0
LINE
  8
1
  6
CONTINUOUS
 62
     5
  5
367
 10
-184.029167
 20
180.411667
 30
0.0
 11
-177.3165
 21
180.411667
 31
0.0
  0
TEXT
  8
1
  6
CONTINUOUS
 62
     5
  5
368
 10
-177.254833
 20
143.501667
 30
0.0
 40
5.0
  1
Y
  7
txt
210
0.0
220
0.0
230
1.0
  0
TEXT
  8
1
  6
CONTINUOUS
 62
     5
  5
369
 10
-177.707333
 20
124.122417
 30
0.0
 40
5.0
  1
G
  7
txt
210
0.0
220
0.0
230
1.0
  0
LINE
  8
1
  6
CONTINUOUS
 62
     5
  5
36A
 10
-114.356833
 20
145.661667
 30
0.0
 11
-114.356833
 21
136.161667
 31
0.0
  0
LINE
  8
1
  6
CONTINUOUS
 62
     5
  5
36B
 10
-114.356833
 20
156.161667
 30
0.0
 11
-134.356833
 21
156.161667
 31
0.0
  0
LINE
  8
1
  6
CONTINUOUS
 62
     5
  5
36C
 10
-116.356833
 20
155.161667
 30
0.0
 11
-132.356833
 21
155.161667
 31
0.0
  0
LINE
  8
1
  6
CONTINUOUS
 62
     5
  5
36D
 10
-116.356833
 20
137.161667
 30
0.0
 11
-132.356833
 21
137.161667
 31
0.0
  0
ARC
  8
1
  6
CONTINUOUS
 62
     5
  5
36E
 10
-132.356833
 20
154.161667
 30
0.0
 40
1.0
 50
90.0
 51
180.0
210
0.0
220
0.0
230
1.0
  0
ARC
  8
1
  6
CONTINUOUS
 62
     5
  5
36F
 10
-116.356833
 20
154.161667
 30
0.0
 40
1.0
 50
0.0
 51
90.0
210
0.0
220
0.0
230
1.0
  0
ARC
  8
1
  6
CONTINUOUS
 62
     5
  5
370
 10
-132.356833
 20
138.161667
 30
0.0
 40
1.0
 50
180.0
 51
270.0
210
0.0
220
0.0
230
1.0
  0
ARC
  8
1
  6
CONTINUOUS
 62
     5
  5
371
 10
-116.356833
 20
138.161667
 30
0.0
 40
1.0
 50
270.0
 51
0.0
210
0.0
220
0.0
230
1.0
  0
LINE
  8
1
  6
CONTINUOUS
 62
     5
  5
372
 10
-132.856833
 20
153.161667
 30
0.0
 11
-134.856833
 21
153.161667
 31
0.0
  0
LINE
  8
1
  6
CONTINUOUS
 62
     5
  5
373
 10
-132.856833
 20
139.161667
 30
0.0
 11
-134.856833
 21
139.161667
 31
0.0
  0
LINE
  8
1
  6
CONTINUOUS
 62
     5
  5
374
 10
-132.856833
 20
154.161667
 30
0.0
 11
-134.856833
 21
154.161667
 31
0.0
  0
LINE
  8
1
  6
CONTINUOUS
 62
     5
  5
375
 10
-132.856833
 20
138.161667
 30
0.0
 11
-134.856833
 21
138.161667
 31
0.0
  0
LINE
  8
1
  6
CONTINUOUS
 62
     5
  5
376
 10
-134.356833
 20
156.161667
 30
0.0
 11
-134.356833
 21
154.161667
 31
0.0
  0
LINE
  8
1
  6
CONTINUOUS
 62
     5
  5
377
 10
-134.856833
 20
154.161667
 30
0.0
 11
-134.856833
 21
152.661667
 31
0.0
  0
LINE
  8
1
  6
CONTINUOUS
 62
     5
  5
378
 10
-134.856833
 20
152.661667
 30
0.0
 11
-134.356833
 21
152.661667
 31
0.0
  0
LINE
  8
1
  6
CONTINUOUS
 62
     5
  5
379
 10
-134.356833
 20
153.161667
 30
0.0
 11
-134.356833
 21
139.161667
 31
0.0
  0
LINE
  8
1
  6
CONTINUOUS
 62
     5
  5
37A
 10
-134.356833
 20
138.161667
 30
0.0
 11
-134.356833
 21
136.161667
 31
0.0
  0
LINE
  8
1
  6
CONTINUOUS
 62
     5
  5
37B
 10
-133.356833
 20
153.161667
 30
0.0
 11
-133.356833
 21
139.161667
 31
0.0
  0
LINE
  8
1
  6
CONTINUOUS
 62
     5
  5
37C
 10
-134.856833
 20
138.161667
 30
0.0
 11
-134.856833
 21
139.661667
 31
0.0
  0
LINE
  8
1
  6
CONTINUOUS
 62
     5
  5
37D
 10
-134.856833
 20
139.661667
 30
0.0
 11
-134.356833
 21
139.661667
 31
0.0
  0
LINE
  8
1
  6
CONTINUOUS
 62
     5
  5
37E
 10
-113.856833
 20
146.661667
 30
0.0
 11
-115.856833
 21
146.661667
 31
0.0
  0
LINE
  8
1
  6
CONTINUOUS
 62
     5
  5
37F
 10
-113.856833
 20
145.661667
 30
0.0
 11
-115.856833
 21
145.661667
 31
0.0
  0
LINE
  8
1
  6
CONTINUOUS
 62
     5
  5
380
 10
-115.356833
 20
154.161667
 30
0.0
 11
-115.356833
 21
146.661667
 31
0.0
  0
LINE
  8
1
  6
CONTINUOUS
 62
     5
  5
381
 10
-115.356833
 20
145.661667
 30
0.0
 11
-115.356833
 21
138.161667
 31
0.0
  0
LINE
  8
1
  6
CONTINUOUS
 62
     5
  5
382
 10
-114.356833
 20
156.161667
 30
0.0
 11
-114.356833
 21
146.661667
 31
0.0
  0
LINE
  8
1
  6
CONTINUOUS
 62
     5
  5
383
 10
-113.856833
 20
146.661667
 30
0.0
 11
-113.856833
 21
145.661667
 31
0.0
  0
LINE
  8
1
  6
CONTINUOUS
 62
     5
  5
384
 10
-114.106833
 20
147.161667
 30
0.0
 11
-114.106833
 21
146.661667
 31
0.0
  0
LINE
  8
1
  6
CONTINUOUS
 62
     5
  5
385
 10
-114.106833
 20
145.661667
 30
0.0
 11
-114.106833
 21
145.161667
 31
0.0
  0
CIRCLE
  8
1
  6
CONTINUOUS
 62
     5
  5
386
 10
-124.347833
 20
146.163583
 30
0.0
 40
8.0
210
0.0
220
0.0
230
1.0
  0
LINE
  8
1
  6
CONTINUOUS
 62
     5
  5
387
 10
-114.356833
 20
136.161667
 30
0.0
 11
-134.356833
 21
136.161667
 31
0.0
  0
LINE
  8
1
  6
CONTINUOUS
 62
     5
  5
388
 10
-114.356833
 20
116.161667
 30
0.0
 11
-134.356833
 21
116.161667
 31
0.0
  0
LINE
  8
1
  6
CONTINUOUS
 62
     5
  5
389
 10
-116.356833
 20
135.161667
 30
0.0
 11
-132.356833
 21
135.161667
 31
0.0
  0
LINE
  8
1
  6
CONTINUOUS
 62
     5
  5
38A
 10
-116.356833
 20
117.161667
 30
0.0
 11
-132.356833
 21
117.161667
 31
0.0
  0
ARC
  8
1
  6
CONTINUOUS
 62
     5
  5
38B
 10
-132.356833
 20
134.161667
 30
0.0
 40
1.0
 50
90.0
 51
180.0
210
0.0
220
0.0
230
1.0
  0
ARC
  8
1
  6
CONTINUOUS
 62
     5
  5
38C
 10
-116.356833
 20
134.161667
 30
0.0
 40
1.0
 50
0.0
 51
90.0
210
0.0
220
0.0
230
1.0
  0
ARC
  8
1
  6
CONTINUOUS
 62
     5
  5
38D
 10
-132.356833
 20
118.161667
 30
0.0
 40
1.0
 50
180.0
 51
270.0
210
0.0
220
0.0
230
1.0
  0
ARC
  8
1
  6
CONTINUOUS
 62
     5
  5
38E
 10
-116.356833
 20
118.161667
 30
0.0
 40
1.0
 50
270.0
 51
0.0
210
0.0
220
0.0
230
1.0
  0
LINE
  8
1
  6
CONTINUOUS
 62
     5
  5
38F
 10
-132.856833
 20
133.161667
 30
0.0
 11
-134.856833
 21
133.161667
 31
0.0
  0
LINE
  8
1
  6
CONTINUOUS
 62
     5
  5
390
 10
-132.856833
 20
119.161667
 30
0.0
 11
-134.856833
 21
119.161667
 31
0.0
  0
LINE
  8
1
  6
CONTINUOUS
 62
     5
  5
391
 10
-132.856833
 20
134.161667
 30
0.0
 11
-134.856833
 21
134.161667
 31
0.0
  0
LINE
  8
1
  6
CONTINUOUS
 62
     5
  5
392
 10
-132.856833
 20
118.161667
 30
0.0
 11
-134.856833
 21
118.161667
 31
0.0
  0
LINE
  8
1
  6
CONTINUOUS
 62
     5
  5
393
 10
-134.356833
 20
136.161667
 30
0.0
 11
-134.356833
 21
134.161667
 31
0.0
  0
LINE
  8
1
  6
CONTINUOUS
 62
     5
  5
394
 10
-134.856833
 20
134.161667
 30
0.0
 11
-134.856833
 21
132.661667
 31
0.0
  0
LINE
  8
1
  6
CONTINUOUS
 62
     5
  5
395
 10
-134.856833
 20
132.661667
 30
0.0
 11
-134.356833
 21
132.661667
 31
0.0
  0
LINE
  8
1
  6
CONTINUOUS
 62
     5
  5
396
 10
-134.356833
 20
133.161667
 30
0.0
 11
-134.356833
 21
119.161667
 31
0.0
  0
LINE
  8
1
  6
CONTINUOUS
 62
     5
  5
397
 10
-134.356833
 20
118.161667
 30
0.0
 11
-134.356833
 21
116.161667
 31
0.0
  0
LINE
  8
1
  6
CONTINUOUS
 62
     5
  5
398
 10
-133.356833
 20
133.161667
 30
0.0
 11
-133.356833
 21
119.161667
 31
0.0
  0
LINE
  8
1
  6
CONTINUOUS
 62
     5
  5
399
 10
-134.856833
 20
118.161667
 30
0.0
 11
-134.856833
 21
119.661667
 31
0.0
  0
LINE
  8
1
  6
CONTINUOUS
 62
     5
  5
39A
 10
-134.856833
 20
119.661667
 30
0.0
 11
-134.356833
 21
119.661667
 31
0.0
  0
LINE
  8
1
  6
CONTINUOUS
 62
     5
  5
39B
 10
-113.856833
 20
126.661667
 30
0.0
 11
-115.856833
 21
126.661667
 31
0.0
  0
LINE
  8
1
  6
CONTINUOUS
 62
     5
  5
39C
 10
-113.856833
 20
125.661667
 30
0.0
 11
-115.856833
 21
125.661667
 31
0.0
  0
LINE
  8
1
  6
CONTINUOUS
 62
     5
  5
39D
 10
-115.356833
 20
134.161667
 30
0.0
 11
-115.356833
 21
126.661667
 31
0.0
  0
LINE
  8
1
  6
CONTINUOUS
 62
     5
  5
39E
 10
-115.356833
 20
125.661667
 30
0.0
 11
-115.356833
 21
118.161667
 31
0.0
  0
LINE
  8
1
  6
CONTINUOUS
 62
     5
  5
39F
 10
-114.356833
 20
136.161667
 30
0.0
 11
-114.356833
 21
126.661667
 31
0.0
  0
LINE
  8
1
  6
CONTINUOUS
 62
     5
  5
3A0
 10
-114.356833
 20
125.661667
 30
0.0
 11
-114.356833
 21
116.161667
 31
0.0
  0
LINE
  8
1
  6
CONTINUOUS
 62
     5
  5
3A1
 10
-113.856833
 20
126.661667
 30
0.0
 11
-113.856833
 21
125.661667
 31
0.0
  0
LINE
  8
1
  6
CONTINUOUS
 62
     5
  5
3A2
 10
-114.106833
 20
127.161667
 30
0.0
 11
-114.106833
 21
126.661667
 31
0.0
  0
LINE
  8
1
  6
CONTINUOUS
 62
     5
  5
3A3
 10
-114.106833
 20
125.661667
 30
0.0
 11
-114.106833
 21
125.161667
 31
0.0
  0
CIRCLE
  8
1
  6
CONTINUOUS
 62
     5
  5
3A4
 10
-124.347833
 20
126.163583
 30
0.0
 40
8.0
210
0.0
220
0.0
230
1.0
  0
POLYLINE
  8
1
  6
CONTINUOUS
 62
     5
  5
3A5
 66
     1
 10
0.0
 20
0.0
 30
0.0
 70
     1
  0
VERTEX
  8
1
  6
CONTINUOUS
 62
     5
  5
3A6
 10
-126.159083
 20
151.661667
 30
0.0
  0
VERTEX
  8
1
  6
CONTINUOUS
 62
     5
  5
3A7
 10
-130.347833
 20
146.161667
 30
0.0
  0
VERTEX
  8
1
  6
CONTINUOUS
 62
     5
  5
3A8
 10
-126.1555
 20
140.661667
 30
0.0
  0
VERTEX
  8
1
  6
CONTINUOUS
 62
     5
  5
3A9
 10
-124.962583
 20
141.571
 30
0.0
  0
VERTEX
  8
1
  6
CONTINUOUS
 62
     5
  5
3AA
 10
-128.462167
 20
146.162167
 30
0.0
  0
VERTEX
  8
1
  6
CONTINUOUS
 62
     5
  5
3AB
 10
-124.965833
 20
150.752917
 30
0.0
  0
VERTEX
  8
1
  6
CONTINUOUS
 62
     5
  5
3AC
 10
-126.159083
 20
151.661667
 30
0.0
  0
SEQEND
  8
1
  6
CONTINUOUS
 62
     5
  5
3AD
  0
POLYLINE
  8
1
  6
CONTINUOUS
 62
     5
  5
3AE
 66
     1
 10
0.0
 20
0.0
 30
0.0
 70
     1
  0
VERTEX
  8
1
  6
CONTINUOUS
 62
     5
  5
3AF
 10
-126.847833
 20
145.411667
 30
0.0
  0
VERTEX
  8
1
  6
CONTINUOUS
 62
     5
  5
3B0
 10
-126.847833
 20
146.911667
 30
0.0
  0
VERTEX
  8
1
  6
CONTINUOUS
 62
     5
  5
3B1
 10
-120.347833
 20
146.911667
 30
0.0
  0
VERTEX
  8
1
  6
CONTINUOUS
 62
     5
  5
3B2
 10
-120.347833
 20
145.411667
 30
0.0
  0
VERTEX
  8
1
  6
CONTINUOUS
 62
     5
  5
3B3
 10
-126.847833
 20
145.411667
 30
0.0
  0
SEQEND
  8
1
  6
CONTINUOUS
 62
     5
  5
3B4
  0
POLYLINE
  8
1
  6
CONTINUOUS
 62
     5
  5
3B5
 66
     1
 10
0.0
 20
0.0
 30
0.0
 70
     1
  0
VERTEX
  8
1
  6
CONTINUOUS
 62
     5
  5
3B6
 10
-126.159083
 20
131.661667
 30
0.0
  0
VERTEX
  8
1
  6
CONTINUOUS
 62
     5
  5
3B7
 10
-130.347833
 20
126.161667
 30
0.0
  0
VERTEX
  8
1
  6
CONTINUOUS
 62
     5
  5
3B8
 10
-126.1555
 20
120.661667
 30
0.0
  0
VERTEX
  8
1
  6
CONTINUOUS
 62
     5
  5
3B9
 10
-124.962583
 20
121.571
 30
0.0
  0
VERTEX
  8
1
  6
CONTINUOUS
 62
     5
  5
3BA
 10
-128.462167
 20
126.162167
 30
0.0
  0
VERTEX
  8
1
  6
CONTINUOUS
 62
     5
  5
3BB
 10
-124.965833
 20
130.752917
 30
0.0
  0
VERTEX
  8
1
  6
CONTINUOUS
 62
     5
  5
3BC
 10
-126.159083
 20
131.661667
 30
0.0
  0
SEQEND
  8
1
  6
CONTINUOUS
 62
     5
  5
3BD
  0
POLYLINE
  8
1
  6
CONTINUOUS
 62
     5
  5
3BE
 66
     1
 10
0.0
 20
0.0
 30
0.0
 70
     1
  0
VERTEX
  8
1
  6
CONTINUOUS
 62
     5
  5
3BF
 10
-126.847833
 20
125.411667
 30
0.0
  0
VERTEX
  8
1
  6
CONTINUOUS
 62
     5
  5
3C0
 10
-126.847833
 20
126.911667
 30
0.0
  0
VERTEX
  8
1
  6
CONTINUOUS
 62
     5
  5
3C1
 10
-120.347833
 20
126.911667
 30
0.0
  0
VERTEX
  8
1
  6
CONTINUOUS
 62
     5
  5
3C2
 10
-120.347833
 20
125.411667
 30
0.0
  0
VERTEX
  8
1
  6
CONTINUOUS
 62
     5
  5
3C3
 10
-126.847833
 20
125.411667
 30
0.0
  0
SEQEND
  8
1
  6
CONTINUOUS
 62
     5
  5
3C4
  0
LINE
  8
1
  6
CONTINUOUS
 62
     5
  5
3C5
 10
-101.106833
 20
180.40325
 30
0.0
 11
-108.606833
 21
180.40325
 31
0.0
  0
LINE
  8
1
  6
CONTINUOUS
 62
     5
  5
3C6
 10
-114.606833
 20
180.40325
 30
0.0
 11
-122.106833
 21
180.40325
 31
0.0
  0
LINE
  8
1
  6
CONTINUOUS
 62
     5
  5
3C7
 10
-101.106833
 20
178.90325
 30
0.0
 11
-108.606833
 21
178.90325
 31
0.0
  0
LINE
  8
1
  6
CONTINUOUS
 62
     5
  5
3C8
 10
-114.606833
 20
178.90325
 30
0.0
 11
-122.106833
 21
178.90325
 31
0.0
  0
TEXT
  8
1
  6
CONTINUOUS
 62
     5
  5
3C9
 10
-101.074
 20
143.446083
 30
0.0
 40
5.0
  1
Y
  7
txt
210
0.0
220
0.0
230
1.0
  0
TEXT
  8
1
  6
CONTINUOUS
 62
     5
  5
3CA
 10
-101.278083
 20
124.054667
 30
0.0
 40
5.0
  1
G
  7
txt
210
0.0
220
0.0
230
1.0
  0
TEXT
  8
1
  6
CONTINUOUS
 62
     7
  5
3CB
 10
-229.175583
 20
88.509417
 30
0.0
 40
5.0
  1
TYPICAL COMBINATIONS IN TWO-WAY AND
  7
txt
 72
     4
 11
-153.424833
 21
91.009417
 31
0.0
210
0.0
220
0.0
230
1.0
  0
TEXT
  8
1
  6
CONTINUOUS
 62
     7
  5
3CC
 10
-199.927833
 20
78.509417
 30
0.0
 40
5.0
  1
FIVE SECTION ASSEMBLIES
  7
txt
 72
     4
 11
-153.424833
 21
81.009417
 31
0.0
210
0.0
220
0.0
230
1.0
  0
LINE
  8
1
  6
CONTINUOUS
 62
     7
  5
3CD
 10
-230.882083
 20
86.762333
 30
0.0
 11
-202.060417
 21
86.762333
 31
0.0
  0
LINE
  8
1
  6
CONTINUOUS
 62
     7
  5
3CE
 10
-199.440833
 20
86.762333
 30
0.0
 11
-146.527
 21
86.762333
 31
0.0
  0
LINE
  8
1
  6
CONTINUOUS
 62
     7
  5
3CF
 10
-142.781083
 20
86.5985
 30
0.0
 11
-134.742
 21
86.5985
 31
0.0
  0
LINE
  8
1
  6
CONTINUOUS
 62
     7
  5
3D0
 10
-130.990667
 20
86.762333
 30
0.0
 11
-95.928
 21
86.762333
 31
0.0
  0
LINE
  8
1
  6
CONTINUOUS
 62
     7
  5
3D1
 10
-92.507833
 20
86.762333
 30
0.0
 11
-77.441333
 21
86.762333
 31
0.0
  0
LINE
  8
1
  6
CONTINUOUS
 62
     7
  5
3D2
 10
-200.750833
 20
76.442333
 30
0.0
 11
-185.18025
 21
76.442333
 31
0.0
  0
LINE
  8
1
  6
CONTINUOUS
 62
     7
  5
3D3
 10
-182.082667
 20
76.606083
 30
0.0
 11
-152.917417
 21
76.606083
 31
0.0
  0
LINE
  8
1
  6
CONTINUOUS
 62
     7
  5
3D4
 10
-149.003833
 20
76.606083
 30
0.0
 11
-105.4295
 21
76.606083
 31
0.0
  0
CIRCLE
  8
1
  6
CONTINUOUS
 62
     1
  5
3D5
 10
-227.54375
 20
2.948083
 30
0.0
 40
5.25
210
0.0
220
0.0
230
1.0
  0
CIRCLE
  8
1
  6
CONTINUOUS
 62
     1
  5
3D6
 10
-227.54375
 20
-15.045583
 30
0.0
 40
5.25
210
0.0
220
0.0
230
1.0
  0
CIRCLE
  8
1
  6
CONTINUOUS
 62
     1
  5
3D7
 10
-227.54375
 20
-33.039167
 30
0.0
 40
5.25
210
0.0
220
0.0
230
1.0
  0
CIRCLE
  8
1
  6
CONTINUOUS
 62
     1
  5
3D8
 10
-194.566167
 20
2.948083
 30
0.0
 40
5.25
210
0.0
220
0.0
230
1.0
  0
CIRCLE
  8
1
  6
CONTINUOUS
 62
     1
  5
3D9
 10
-194.566167
 20
-15.045583
 30
0.0
 40
5.25
210
0.0
220
0.0
230
1.0
  0
CIRCLE
  8
1
  6
CONTINUOUS
 62
     1
  5
3DA
 10
-194.566167
 20
-33.039167
 30
0.0
 40
5.25
210
0.0
220
0.0
230
1.0
  0
CIRCLE
  8
1
  6
CONTINUOUS
 62
     1
  5
3DB
 10
-176.559417
 20
-15.041083
 30
0.0
 40
5.25
210
0.0
220
0.0
230
1.0
  0
CIRCLE
  8
1
  6
CONTINUOUS
 62
     1
  5
3DC
 10
-136.934
 20
2.83625
 30
0.0
 40
5.25
210
0.0
220
0.0
230
1.0
  0
CIRCLE
  8
1
  6
CONTINUOUS
 62
     1
  5
3DD
 10
-125.451917
 20
-15.111583
 30
0.0
 40
5.25
210
0.0
220
0.0
230
1.0
  0
CIRCLE
  8
1
  6
CONTINUOUS
 62
     1
  5
3DE
 10
-125.451917
 20
-32.560167
 30
0.0
 40
5.25
210
0.0
220
0.0
230
1.0
  0
CIRCLE
  8
1
  6
CONTINUOUS
 62
     1
  5
3DF
 10
-113.960917
 20
2.712833
 30
0.0
 40
5.25
210
0.0
220
0.0
230
1.0
  0
CIRCLE
  8
1
  6
CONTINUOUS
 62
     1
  5
3E0
 10
-74.464917
 20
3.008083
 30
0.0
 40
5.25
210
0.0
220
0.0
230
1.0
  0
CIRCLE
  8
1
  6
CONTINUOUS
 62
     1
  5
3E1
 10
-74.464917
 20
-15.111583
 30
0.0
 40
5.25
210
0.0
220
0.0
230
1.0
  0
CIRCLE
  8
1
  6
CONTINUOUS
 62
     1
  5
3E2
 10
-74.464917
 20
-32.783917
 30
0.0
 40
5.25
210
0.0
220
0.0
230
1.0
  0
CIRCLE
  8
1
  6
CONTINUOUS
 62
     1
  5
3E3
 10
-56.351083
 20
-15.111583
 30
0.0
 40
5.25
210
0.0
220
0.0
230
1.0
  0
CIRCLE
  8
1
  6
CONTINUOUS
 62
     1
  5
3E4
 10
-56.57475
 20
-33.007583
 30
0.0
 40
5.25
210
0.0
220
0.0
230
1.0
  0
CIRCLE
  8
1
  6
CONTINUOUS
 62
     1
  5
3E5
 10
-23.548417
 20
-15.080333
 30
0.0
 40
5.25
210
0.0
220
0.0
230
1.0
  0
CIRCLE
  8
1
  6
CONTINUOUS
 62
     1
  5
3E6
 10
-23.548417
 20
-33.0875
 30
0.0
 40
5.25
210
0.0
220
0.0
230
1.0
  0
CIRCLE
  8
1
  6
CONTINUOUS
 62
     1
  5
3E7
 10
-5.547083
 20
-33.0875
 30
0.0
 40
5.25
210
0.0
220
0.0
230
1.0
  0
CIRCLE
  8
1
  6
CONTINUOUS
 62
     1
  5
3E8
 10
-5.641833
 20
-15.080333
 30
0.0
 40
5.25
210
0.0
220
0.0
230
1.0
  0
CIRCLE
  8
1
  6
CONTINUOUS
 62
     1
  5
3E9
 10
-5.547083
 20
2.92675
 30
0.0
 40
5.25
210
0.0
220
0.0
230
1.0
  0
CIRCLE
  8
1
  6
CONTINUOUS
 62
     1
  5
3EA
 10
27.897417
 20
3.021583
 30
0.0
 40
5.25
210
0.0
220
0.0
230
1.0
  0
CIRCLE
  8
1
  6
CONTINUOUS
 62
     1
  5
3EB
 10
45.51975
 20
3.021583
 30
0.0
 40
5.25
210
0.0
220
0.0
230
1.0
  0
CIRCLE
  8
1
  6
CONTINUOUS
 62
     1
  5
3EC
 10
63.521083
 20
3.021583
 30
0.0
 40
5.25
210
0.0
220
0.0
230
1.0
  0
CIRCLE
  8
1
  6
CONTINUOUS
 62
     1
  5
3ED
 10
96.46
 20
2.961667
 30
0.0
 40
5.25
210
0.0
220
0.0
230
1.0
  0
CIRCLE
  8
1
  6
CONTINUOUS
 62
     1
  5
3EE
 10
114.483917
 20
2.961667
 30
0.0
 40
5.25
210
0.0
220
0.0
230
1.0
  0
CIRCLE
  8
1
  6
CONTINUOUS
 62
     1
  5
3EF
 10
132.4195
 20
2.961667
 30
0.0
 40
5.25
210
0.0
220
0.0
230
1.0
  0
TEXT
  8
1
  6
CONTINUOUS
 62
     1
  5
3F0
 10
-229.236083
 20
1.034417
 30
0.0
 40
4.0
  1
R
  7
txt
210
0.0
220
0.0
230
1.0
  0
TEXT
  8
1
  6
CONTINUOUS
 62
     1
  5
3F1
 10
-196.20475
 20
1.239583
 30
0.0
 40
4.0
  1
R
  7
txt
210
0.0
220
0.0
230
1.0
  0
TEXT
  8
1
  6
CONTINUOUS
 62
     1
  5
3F2
 10
-229.297167
 20
-17.03925
 30
0.0
 40
4.0
  1
Y
  7
txt
210
0.0
220
0.0
230
1.0
  0
TEXT
  8
1
  6
CONTINUOUS
 62
     1
  5
3F3
 10
-196.35625
 20
-17.416833
 30
0.0
 40
4.0
  1
Y
  7
txt
210
0.0
220
0.0
230
1.0
  0
TEXT
  8
1
  6
CONTINUOUS
 62
     1
  5
3F4
 10
-178.231
 20
-17.227583
 30
0.0
 40
4.0
  1
Y
  7
txt
210
0.0
220
0.0
230
1.0
  0
TEXT
  8
1
  6
CONTINUOUS
 62
     1
  5
3F5
 10
-229.673167
 20
-34.776
 30
0.0
 40
4.0
  1
G
  7
txt
210
0.0
220
0.0
230
1.0
  0
TEXT
  8
1
  6
CONTINUOUS
 62
     1
  5
3F6
 10
-196.609
 20
-34.932333
 30
0.0
 40
4.0
  1
G
  7
txt
210
0.0
220
0.0
230
1.0
  0
TEXT
  8
1
  6
CONTINUOUS
 62
     1
  5
3F7
 10
-138.673833
 20
1.022167
 30
0.0
 40
4.0
  1
R
  7
txt
 72
     4
 11
-136.987167
 21
3.022167
 31
0.0
210
0.0
220
0.0
230
1.0
  0
TEXT
  8
1
  6
CONTINUOUS
 62
     1
  5
3F8
 10
-115.51425
 20
0.89875
 30
0.0
 40
4.0
  1
R
  7
txt
 72
     4
 11
-113.827583
 21
2.89875
 31
0.0
210
0.0
220
0.0
230
1.0
  0
TEXT
  8
1
  6
CONTINUOUS
 62
     1
  5
3F9
 10
-127.262417
 20
-17.048583
 30
0.0
 40
4.0
  1
Y
  7
txt
 72
     4
 11
-125.572083
 21
-15.048583
 31
0.0
210
0.0
220
0.0
230
1.0
  0
TEXT
  8
1
  6
CONTINUOUS
 62
     1
  5
3FA
 10
-127.3615
 20
-34.911167
 30
0.0
 40
4.0
  1
G
  7
txt
 72
     4
 11
-125.508833
 21
-32.911167
 31
0.0
210
0.0
220
0.0
230
1.0
  0
TEXT
  8
1
  6
CONTINUOUS
 62
     1
  5
3FB
 10
-76.384833
 20
1.110083
 30
0.0
 40
4.0
  1
R
  7
txt
 72
     4
 11
-74.698167
 21
3.110083
 31
0.0
210
0.0
220
0.0
230
1.0
  0
TEXT
  8
1
  6
CONTINUOUS
 62
     1
  5
3FC
 10
-76.264417
 20
-17.199917
 30
0.0
 40
4.0
  1
Y
  7
txt
 72
     4
 11
-74.574083
 21
-15.199917
 31
0.0
210
0.0
220
0.0
230
1.0
  0
TEXT
  8
1
  6
CONTINUOUS
 62
     1
  5
3FD
 10
-58.2705
 20
-17.075833
 30
0.0
 40
4.0
  1
Y
  7
txt
 72
     4
 11
-56.580167
 21
-15.075833
 31
0.0
210
0.0
220
0.0
230
1.0
  0
TEXT
  8
1
  6
CONTINUOUS
 62
     1
  5
3FE
 10
-76.426833
 20
-35.075583
 30
0.0
 40
4.0
  1
G
  7
txt
 72
     4
 11
-74.574167
 21
-33.075583
 31
0.0
210
0.0
220
0.0
230
1.0
  0
TEXT
  8
1
  6
CONTINUOUS
 62
     1
  5
3FF
 10
-58.495
 20
-35.075583
 30
0.0
 40
4.0
  1
G
  7
txt
 72
     4
 11
-56.642333
 21
-33.075583
 31
0.0
210
0.0
220
0.0
230
1.0
  0
TEXT
  8
1
  6
CONTINUOUS
 62
     1
  5
400
 10
-7.227083
 20
0.933
 30
0.0
 40
4.0
  1
R
  7
txt
 72
     4
 11
-5.540417
 21
2.933
 31
0.0
210
0.0
220
0.0
230
1.0
  0
TEXT
  8
1
  6
CONTINUOUS
 62
     1
  5
401
 10
-25.232667
 20
-17.074833
 30
0.0
 40
4.0
  1
Y
  7
txt
 72
     4
 11
-23.542333
 21
-15.074833
 31
0.0
210
0.0
220
0.0
230
1.0
  0
TEXT
  8
1
  6
CONTINUOUS
 62
     1
  5
402
 10
-7.23075
 20
-17.074833
 30
0.0
 40
4.0
  1
Y
  7
txt
 72
     4
 11
-5.540417
 21
-15.074833
 31
0.0
210
0.0
220
0.0
230
1.0
  0
TEXT
  8
1
  6
CONTINUOUS
 62
     1
  5
403
 10
-25.395083
 20
-34.882583
 30
0.0
 40
4.0
  1
G
  7
txt
 72
     4
 11
-23.542417
 21
-32.882583
 31
0.0
210
0.0
220
0.0
230
1.0
  0
TEXT
  8
1
  6
CONTINUOUS
 62
     1
  5
404
 10
-7.393167
 20
-34.882583
 30
0.0
 40
4.0
  1
G
  7
txt
 72
     4
 11
-5.5405
 21
-32.882583
 31
0.0
210
0.0
220
0.0
230
1.0
  0
TEXT
  8
1
  6
CONTINUOUS
 62
     1
  5
405
 10
25.768833
 20
0.850583
 30
0.0
 40
4.0
  1
R
  7
txt
 72
     4
 11
27.4555
 21
2.850583
 31
0.0
210
0.0
220
0.0
230
1.0
  0
TEXT
  8
1
  6
CONTINUOUS
 62
     1
  5
406
 10
43.739083
 20
0.944417
 30
0.0
 40
4.0
  1
Y
  7
txt
 72
     4
 11
45.429417
 21
2.944417
 31
0.0
210
0.0
220
0.0
230
1.0
  0
TEXT
  8
1
  6
CONTINUOUS
 62
     1
  5
407
 10
61.5975
 20
0.944417
 30
0.0
 40
4.0
  1
G
  7
txt
 72
     4
 11
63.450167
 21
2.944417
 31
0.0
210
0.0
220
0.0
230
1.0
  0
TEXT
  8
1
  6
CONTINUOUS
 62
     1
  5
408
 10
94.766667
 20
0.896667
 30
0.0
 40
4.0
  1
R
  7
txt
 72
     4
 11
96.453333
 21
2.896667
 31
0.0
210
0.0
220
0.0
230
1.0
  0
TEXT
  8
1
  6
CONTINUOUS
 62
     1
  5
409
 10
112.711417
 20
0.942167
 30
0.0
 40
4.0
  1
Y
  7
txt
 72
     4
 11
114.40175
 21
2.942167
 31
0.0
210
0.0
220
0.0
230
1.0
  0
TEXT
  8
1
  6
CONTINUOUS
 62
     1
  5
40A
 10
130.58825
 20
0.942167
 30
0.0
 40
4.0
  1
G
  7
txt
 72
     4
 11
132.440917
 21
2.942167
 31
0.0
210
0.0
220
0.0
230
1.0
  0
TEXT
  8
1
  6
CONTINUOUS
 62
     1
  5
40B
 10
-187.19825
 20
-16.111667
 30
0.0
 40
2.0
  1
OR
  7
MONOTXT
 72
     4
 11
-185.442417
 21
-15.111667
 31
0.0
210
0.0
220
0.0
230
1.0
  0
TEXT
  8
1
  6
CONTINUOUS
 62
     1
  5
40C
 10
-231.270333
 20
14.342
 30
0.0
 40
4.0
  1
(A)
  7
txt
 72
     4
 11
-227.857
 21
16.342
 31
0.0
210
0.0
220
0.0
230
1.0
  0
TEXT
  8
1
  6
CONTINUOUS
 62
     1
  5
40D
 10
-197.868083
 20
14.1935
 30
0.0
 40
4.0
  1
(B)
  7
txt
 72
     4
 11
-194.56025
 21
16.1935
 31
0.0
210
0.0
220
0.0
230
1.0
  0
TEXT
  8
1
  6
CONTINUOUS
 62
     1
  5
40E
 10
-128.879667
 20
14.251917
 30
0.0
 40
4.0
  1
(C)
  7
txt
 72
     4
 11
-125.47725
 21
16.251917
 31
0.0
210
0.0
220
0.0
230
1.0
  0
TEXT
  8
1
  6
CONTINUOUS
 62
     1
  5
40F
 10
-77.952333
 20
14.252
 30
0.0
 40
4.0
  1
(D)
  7
txt
 72
     4
 11
-74.4875
 21
16.252
 31
0.0
210
0.0
220
0.0
230
1.0
  0
TEXT
  8
1
  6
CONTINUOUS
 62
     1
  5
410
 10
-26.656917
 20
14.310417
 30
0.0
 40
4.0
  1
(E)
  7
txt
 72
     4
 11
-23.51025
 21
16.310417
 31
0.0
210
0.0
220
0.0
230
1.0
  0
TEXT
  8
1
  6
CONTINUOUS
 62
     1
  5
411
 10
42.413167
 20
14.303417
 30
0.0
 40
4.0
  1
(F)
  7
txt
 72
     4
 11
45.430667
 21
16.303417
 31
0.0
210
0.0
220
0.0
230
1.0
  0
TEXT
  8
1
  6
CONTINUOUS
 62
     1
  5
412
 10
110.94775
 20
14.37625
 30
0.0
 40
4.0
  1
(G)
  7
txt
 72
     4
 11
114.541667
 21
16.37625
 31
0.0
210
0.0
220
0.0
230
1.0
  0
LINE
  8
1
  6
CONTINUOUS
 62
     1
  5
413
 10
-199.316167
 20
-15.045667
 30
0.0
 11
-195.902833
 21
-15.045667
 31
0.0
  0
LINE
  8
1
  6
CONTINUOUS
 62
     1
  5
414
 10
-189.816167
 20
-15.045667
 30
0.0
 11
-193.316167
 21
-15.045667
 31
0.0
  0
LINE
  8
1
  6
CONTINUOUS
 62
     1
  5
415
 10
132.441167
 20
-1.822333
 30
0.0
 11
132.441167
 21
0.521667
 31
0.0
  0
LINE
  8
1
  6
CONTINUOUS
 62
     1
  5
416
 10
132.441167
 20
7.782833
 30
0.0
 11
132.441167
 21
4.958167
 31
0.0
  0
LINE
  8
1
  6
CONTINUOUS
 62
     1
  5
417
 10
-18.859417
 20
-15.30175
 30
0.0
 11
-22.359417
 21
-15.30175
 31
0.0
  0
LINE
  8
1
  6
CONTINUOUS
 62
     1
  5
418
 10
-28.359417
 20
-15.30175
 30
0.0
 11
-24.946083
 21
-15.30175
 31
0.0
  0
LINE
  8
1
  6
CONTINUOUS
 62
     1
  5
419
 10
-18.68025
 20
-32.962667
 30
0.0
 11
-21.401583
 21
-32.962667
 31
0.0
  0
LINE
  8
1
  6
CONTINUOUS
 62
     1
  5
41A
 10
-28.18025
 20
-32.962667
 30
0.0
 11
-25.220333
 21
-32.962667
 31
0.0
  0
LINE
  8
1
  6
CONTINUOUS
 62
     1
  5
41B
 10
-61.002333
 20
-15.518667
 30
0.0
 11
-57.502333
 21
-15.518667
 31
0.0
  0
LINE
  8
1
  6
CONTINUOUS
 62
     1
  5
41C
 10
-51.502333
 20
-15.518667
 30
0.0
 11
-54.915667
 21
-15.518667
 31
0.0
  0
LINE
  8
1
  6
CONTINUOUS
 62
     1
  5
41D
 10
-61.094667
 20
-33.266333
 30
0.0
 11
-58.373333
 21
-33.266333
 31
0.0
  0
LINE
  8
1
  6
CONTINUOUS
 62
     1
  5
41E
 10
-51.594667
 20
-33.266333
 30
0.0
 11
-54.554583
 21
-33.266333
 31
0.0
  0
LINE
  8
1
  6
CONTINUOUS
 62
     1
  5
41F
 10
99.782
 20
-0.433333
 30
0.0
 11
98.2815
 21
1.078917
 31
0.0
  0
LINE
  8
1
  6
CONTINUOUS
 62
     1
  5
420
 10
94.896
 20
4.491083
 30
0.0
 11
93.103667
 21
6.2975
 31
0.0
  0
LINE
  8
1
  6
CONTINUOUS
 62
     1
  5
421
 10
93.0885
 20
-0.384333
 30
0.0
 11
94.89375
 21
1.413833
 31
0.0
  0
LINE
  8
1
  6
CONTINUOUS
 62
     1
  5
422
 10
97.923917
 20
4.432167
 30
0.0
 11
99.82525
 21
6.326083
 31
0.0
  0
LINE
  8
1
  6
CONTINUOUS
 62
     1
  5
423
 10
116.344583
 20
5.090667
 30
0.0
 11
117.869167
 21
6.609417
 31
0.0
  0
LINE
  8
1
  6
CONTINUOUS
 62
     1
  5
424
 10
117.864917
 20
-0.47475
 30
0.0
 11
115.061833
 21
2.350333
 31
0.0
  0
LINE
  8
1
  6
CONTINUOUS
 62
     1
  5
425
 10
112.544
 20
4.888
 30
0.0
 11
110.938333
 21
6.50625
 31
0.0
  0
LINE
  8
1
  6
CONTINUOUS
 62
     1
  5
426
 10
110.918417
 20
-0.31425
 30
0.0
 11
113.680667
 21
2.437167
 31
0.0
  0
TEXT
  8
1
  6
CONTINUOUS
 62
     1
  5
427
 10
-153.04625
 20
-62.049417
 30
0.0
 40
5.0
  1
TYPICAL ARRANGEMENTS OF LENSES IN FACES
  7
txt
 72
     4
 11
-70.703917
 21
-59.549417
 31
0.0
210
0.0
220
0.0
230
1.0
  0
LINE
  8
1
  6
CONTINUOUS
 62
     1
  5
428
 10
-154.450333
 20
-64.37675
 30
0.0
 11
-125.569417
 21
-64.37675
 31
0.0
  0
LINE
  8
1
  6
CONTINUOUS
 62
     1
  5
429
 10
-123.492917
 20
-64.37675
 30
0.0
 11
-67.30075
 21
-64.37675
 31
0.0
  0
LINE
  8
1
  6
CONTINUOUS
 62
     1
  5
42A
 10
-64.179583
 20
-64.37675
 30
0.0
 11
-54.290667
 21
-64.37675
 31
0.0
  0
LINE
  8
1
  6
CONTINUOUS
 62
     1
  5
42B
 10
-51.432417
 20
-64.37675
 30
0.0
 11
-25.666167
 21
-64.37675
 31
0.0
  0
LINE
  8
1
  6
CONTINUOUS
 62
     1
  5
42C
 10
-22.035917
 20
-64.116583
 30
0.0
 11
-13.707167
 21
-64.116583
 31
0.0
  0
LINE
  8
1
  6
CONTINUOUS
 62
     1
  5
42D
 10
-9.809083
 20
-64.116583
 30
0.0
 11
12.565
 21
-64.116583
 31
0.0
  0
LINE
  8
1
  6
CONTINUOUS
 62
     1
  5
42E
 10
132.441167
 20
-1.822333
 30
0.0
 11
133.125167
 21
0.057083
 31
0.0
  0
LINE
  8
1
  6
CONTINUOUS
 62
     1
  5
42F
 10
132.441167
 20
-1.822333
 30
0.0
 11
131.757167
 21
0.057083
 31
0.0
  0
LINE
  8
1
  6
CONTINUOUS
 62
     1
  5
430
 10
-199.316167
 20
-15.045667
 30
0.0
 11
-197.43675
 21
-14.361667
 31
0.0
  0
LINE
  8
1
  6
CONTINUOUS
 62
     1
  5
431
 10
-199.316167
 20
-15.045667
 30
0.0
 11
-197.43675
 21
-15.729667
 31
0.0
  0
LINE
  8
1
  6
CONTINUOUS
 62
     1
  5
432
 10
-28.359417
 20
-15.30175
 30
0.0
 11
-26.48
 21
-14.61775
 31
0.0
  0
LINE
  8
1
  6
CONTINUOUS
 62
     1
  5
433
 10
-28.359417
 20
-15.30175
 30
0.0
 11
-26.48
 21
-15.98575
 31
0.0
  0
LINE
  8
1
  6
CONTINUOUS
 62
     1
  5
434
 10
-28.18025
 20
-32.962667
 30
0.0
 11
-26.300833
 21
-32.278667
 31
0.0
  0
LINE
  8
1
  6
CONTINUOUS
 62
     1
  5
435
 10
-28.18025
 20
-32.962667
 30
0.0
 11
-26.300833
 21
-33.646667
 31
0.0
  0
LINE
  8
1
  6
CONTINUOUS
 62
     1
  5
436
 10
-51.502333
 20
-15.518667
 30
0.0
 11
-53.38175
 21
-14.834667
 31
0.0
  0
LINE
  8
1
  6
CONTINUOUS
 62
     1
  5
437
 10
-51.502333
 20
-15.518667
 30
0.0
 11
-53.38175
 21
-16.202667
 31
0.0
  0
LINE
  8
1
  6
CONTINUOUS
 62
     1
  5
438
 10
-51.594667
 20
-33.266333
 30
0.0
 11
-53.474083
 21
-32.582333
 31
0.0
  0
LINE
  8
1
  6
CONTINUOUS
 62
     1
  5
439
 10
-51.594667
 20
-33.266333
 30
0.0
 11
-53.474083
 21
-33.950333
 31
0.0
  0
TEXT
  8
1
  6
CONTINUOUS
 62
     2
  5
43A
 10
259.583833
 20
281.457417
 30
0.0
 40
2.2
  1
GENERAL NOTES
  7
MONOTXT
 72
     4
 11
273.15625
 21
282.557417
 31
0.0
210
0.0
220
0.0
230
1.0
  0
LINE
  8
1
  6
CONTINUOUS
 62
     2
  5
43B
 10
258.741417
 20
280.24625
 30
0.0
 11
287.96675
 21
280.24625
 31
0.0
  0
LINE
  8
1
  6
CONTINUOUS
 62
     2
  5
43C
 10
204.058417
 20
11.22975
 30
0.0
 11
206.058417
 21
7.765667
 31
0.0
  0
LINE
  8
1
  6
CONTINUOUS
 62
     2
  5
43D
 10
204.058417
 20
11.22975
 30
0.0
 11
202.058417
 21
7.765667
 31
0.0
  0
LINE
  8
1
  6
CONTINUOUS
 62
     2
  5
43E
 10
202.058417
 20
7.765667
 30
0.0
 11
206.058417
 21
7.765667
 31
0.0
  0
LINE
  8
1
  6
CONTINUOUS
 62
     2
  5
43F
 10
202.058417
 20
12.753
 30
0.0
 11
206.058417
 21
12.753
 31
0.0
  0
LINE
  8
1
  6
CONTINUOUS
 62
     2
  5
440
 10
204.058417
 20
16.217083
 30
0.0
 11
202.058417
 21
12.753
 31
0.0
  0
LINE
  8
1
  6
CONTINUOUS
 62
     2
  5
441
 10
204.058417
 20
16.217083
 30
0.0
 11
206.058417
 21
12.753
 31
0.0
  0
TEXT
  8
1
  6
CONTINUOUS
 62
     2
  5
442
 10
203.73275
 20
13.078
 30
0.0
 40
2.0
  1
1
  7
MONOTXT
 72
     4
 11
203.968917
 21
14.078
 31
0.0
210
0.0
220
0.0
230
1.0
  0
TEXT
  8
1
  6
CONTINUOUS
 62
     2
  5
443
 10
203.417
 20
8.044333
 30
0.0
 40
2.0
  1
2
  7
MONOTXT
 72
     4
 11
204.08625
 21
9.044333
 31
0.0
210
0.0
220
0.0
230
1.0
  0
TEXT
  8
1
  6
CONTINUOUS
 62
     2
  5
444
 10
207.676917
 20
13.570417
 30
0.0
 40
2.0
  1
WHOLE SHEET
  7
MONOTXT
 72
     4
 11
218.361917
 21
14.570417
 31
0.0
210
0.0
220
0.0
230
1.0
  0
TEXT
  8
1
  6
CONTINUOUS
 62
     2
  5
445
 10
208.050833
 20
8.591417
 30
0.0
 40
2.0
  1
LABELED UPPER LEFT & DELETED CLEARANCE INTERVALS
  7
MONOTXT
 72
     4
 11
253.586167
 21
9.591417
 31
0.0
210
0.0
220
0.0
230
1.0
  0
TEXT
  8
1
  6
CONTINUOUS
 62
     7
  5
446
 10
212.798583
 20
-54.696333
 30
0.0
 40
1.99775
  1
12/03/76
  7
MONOTXT
210
0.0
220
0.0
230
1.0
  0
LINE
  8
1
  6
CONTINUOUS
 62
     2
  5
447
 10
205.736333
 20
-55.065667
 30
0.0
 11
209.736333
 21
-55.065667
 31
0.0
  0
LINE
  8
1
  6
CONTINUOUS
 62
     2
  5
448
 10
207.736333
 20
-51.601583
 30
0.0
 11
205.736333
 21
-55.065667
 31
0.0
  0
LINE
  8
1
  6
CONTINUOUS
 62
     2
  5
449
 10
207.736333
 20
-51.601583
 30
0.0
 11
209.736333
 21
-55.065667
 31
0.0
  0
LINE
  8
1
  6
CONTINUOUS
 62
     2
  5
44A
 10
205.674
 20
-59.678917
 30
0.0
 11
209.674
 21
-59.678917
 31
0.0
  0
LINE
  8
1
  6
CONTINUOUS
 62
     2
  5
44B
 10
207.674
 20
-56.214833
 30
0.0
 11
205.674
 21
-59.678917
 31
0.0
  0
LINE
  8
1
  6
CONTINUOUS
 62
     2
  5
44C
 10
207.674
 20
-56.214833
 30
0.0
 11
209.674
 21
-59.678917
 31
0.0
  0
TEXT
  8
1
  6
CONTINUOUS
 62
     7
  5
44D
 10
212.674
 20
-58.997917
 30
0.0
 40
1.99775
  1
12/10/84
  7
MONOTXT
210
0.0
220
0.0
230
1.0
  0
TEXT
  8
1
  6
CONTINUOUS
 62
     2
  5
44E
 10
207.426333
 20
-54.625333
 30
0.0
 40
2.0
  1
1
  7
MONOTXT
 72
     4
 11
207.6625
 21
-53.625333
 31
0.0
210
0.0
220
0.0
230
1.0
  0
TEXT
  8
1
  6
CONTINUOUS
 62
     2
  5
44F
 10
207.001167
 20
-59.36325
 30
0.0
 40
2.0
  1
2
  7
MONOTXT
 72
     4
 11
207.670417
 21
-58.36325
 31
0.0
210
0.0
220
0.0
230
1.0
  0
LINE
  8
1
  6
CONTINUOUS
 62
     2
  5
450
 10
202.058333
 20
2.927583
 30
0.0
 11
206.058333
 21
2.927583
 31
0.0
  0
LINE
  8
1
  6
CONTINUOUS
 62
     2
  5
451
 10
204.058333
 20
6.391667
 30
0.0
 11
202.058333
 21
2.927583
 31
0.0
  0
LINE
  8
1
  6
CONTINUOUS
 62
     2
  5
452
 10
204.058333
 20
6.391667
 30
0.0
 11
206.058333
 21
2.927583
 31
0.0
  0
TEXT
  8
1
  6
CONTINUOUS
 62
     2
  5
453
 10
203.3075
 20
3.252583
 30
0.0
 40
2.0
  1
3
  7
MONOTXT
 72
     4
 11
203.97675
 21
4.252583
 31
0.0
210
0.0
220
0.0
230
1.0
  0
TEXT
  8
1
  6
CONTINUOUS
 62
     2
  5
454
 10
207.778917
 20
3.654833
 30
0.0
 40
2.0
  1
ADDED DETAIL "A" AND NOTE 3.
  7
MONOTXT
 72
     4
 11
232.952083
 21
4.654833
 31
0.0
210
0.0
220
0.0
230
1.0
  0
LINE
  8
1
  6
CONTINUOUS
 62
     2
  5
455
 10
205.674
 20
-64.177417
 30
0.0
 11
209.674
 21
-64.177417
 31
0.0
  0
LINE
  8
1
  6
CONTINUOUS
 62
     2
  5
456
 10
207.674
 20
-60.713333
 30
0.0
 11
205.674
 21
-64.177417
 31
0.0
  0
LINE
  8
1
  6
CONTINUOUS
 62
     2
  5
457
 10
207.674
 20
-60.713333
 30
0.0
 11
209.674
 21
-64.177417
 31
0.0
  0
TEXT
  8
1
  6
CONTINUOUS
 62
     2
  5
458
 10
207.001167
 20
-63.86175
 30
0.0
 40
2.0
  1
3
  7
MONOTXT
 72
     4
 11
207.670417
 21
-62.86175
 31
0.0
210
0.0
220
0.0
230
1.0
  0
TEXT
  8
1
  6
CONTINUOUS
 62
     7
  5
459
 10
212.83175
 20
-63.4175
 30
0.0
 40
1.99775
  1
12/23/93
  7
MONOTXT
210
0.0
220
0.0
230
1.0
  0
TEXT
  8
1
  6
CONTINUOUS
 62
     7
  5
45A
 10
244.082833
 20
-30.271833
 30
0.0
 40
6.992667
  1
SIGNAL FACES AND
  7
txt
 72
     1
 11
291.405167
 21
-23.279167
 31
0.0
210
0.0
220
0.0
230
1.0
 73
     3
  0
TEXT
  8
1
  6
CONTINUOUS
 62
     7
  5
45B
 10
235.817667
 20
-39.2645
 30
0.0
 40
6.992667
  1
MOUNTING HARDWARE
  7
txt
 72
     1
 11
291.405083
 21
-32.271833
 31
0.0
210
0.0
220
0.0
230
1.0
 73
     3
  0
TEXT
  8
1
  6
CONTINUOUS
 62
     2
  5
45C
 10
209.07975
 20
270.577333
 30
0.0
 40
2.2
  1
1.    COMBINATION SIGNAL HEADS:
  7
MONOTXT
 11
209.07975
 21
272.777333
 31
0.0
210
0.0
220
0.0
230
1.0
 73
     3
  0
TEXT
  8
1
  6
CONTINUOUS
 62
     2
  5
45D
 10
209.07975
 20
266.177333
 30
0.0
 40
2.2
  1
 
  7
MONOTXT
 11
209.07975
 21
268.377333
 31
0.0
210
0.0
220
0.0
230
1.0
 73
     3
  0
TEXT
  8
1
  6
CONTINUOUS
 62
     2
  5
45E
 10
209.07975
 20
261.777333
 30
0.0
 40
2.2
  1
A.    TWO-WAY, THREE-WAY, AND FOUR-WAY SIGNAL HEAD ASSEMBLIES SHALL HAVE
  7
MONOTXT
 11
209.07975
 21
263.977333
 31
0.0
210
0.0
220
0.0
230
1.0
 73
     3
  0
TEXT
  8
1
  6
CONTINUOUS
 62
     2
  5
45F
 10
209.07975
 20
257.377333
 30
0.0
 40
2.2
  1
THE RED SECTIONS LEVEL. IN SUCH CASES THE BOTTOM OF THE LOWEST SIGNAL
  7
MONOTXT
 11
209.07975
 21
259.577333
 31
0.0
210
0.0
220
0.0
230
1.0
 73
     3
  0
TEXT
  8
1
  6
CONTINUOUS
 62
     2
  5
460
 10
209.07975
 20
252.977333
 30
0.0
 40
2.2
  1
HEAD SHALL BE 17 FEET (PLUS OR MINUS THREE INCHES) ABOVE THE PAVEMENT
  7
MONOTXT
 11
209.07975
 21
255.177333
 31
0.0
210
0.0
220
0.0
230
1.0
 73
     3
  0
TEXT
  8
1
  6
CONTINUOUS
 62
     2
  5
461
 10
209.07975
 20
248.577333
 30
0.0
 40
2.2
  1
DIRECTLY BELOW IT, UNLESS OTHERWISE SPECIFIED.
  7
MONOTXT
 11
209.07975
 21
250.777333
 31
0.0
210
0.0
220
0.0
230
1.0
 73
     3
  0
TEXT
  8
1
  6
CONTINUOUS
 62
     2
  5
462
 10
209.07975
 20
244.177333
 30
0.0
 40
2.2
  1
 
  7
MONOTXT
 11
209.07975
 21
246.377333
 31
0.0
210
0.0
220
0.0
230
1.0
 73
     3
  0
TEXT
  8
1
  6
CONTINUOUS
 62
     2
  5
463
 10
209.07975
 20
239.777333
 30
0.0
 40
2.2
  1
B.    THE BOTTOM HORIZONTAL BRACKET OF THE SIGNAL HEAD ASSEMBLIES SHALL
  7
MONOTXT
 11
209.07975
 21
241.977333
 31
0.0
210
0.0
220
0.0
230
1.0
 73
     3
  0
TEXT
  8
1
  6
CONTINUOUS
 62
     2
  5
464
 10
209.07975
 20
235.377333
 30
0.0
 40
2.2
  1
BE ON THE BOTTOM OF THE LOWEST HEAD.
  7
MONOTXT
 11
209.07975
 21
237.577333
 31
0.0
210
0.0
220
0.0
230
1.0
 73
     3
  0
TEXT
  8
1
  6
CONTINUOUS
 62
     2
  5
465
 10
209.07975
 20
230.977333
 30
0.0
 40
2.2
  1
 
  7
MONOTXT
 11
209.07975
 21
233.177333
 31
0.0
210
0.0
220
0.0
230
1.0
 73
     3
  0
TEXT
  8
1
  6
CONTINUOUS
 62
     2
  5
466
 10
209.07975
 20
226.577333
 30
0.0
 40
2.2
  1
C.    PIPING TO COMPENSATE FOR DIFFERENT LENGTH SECTIONS SHALL BE DONE
  7
MONOTXT
 11
209.07975
 21
228.777333
 31
0.0
210
0.0
220
0.0
230
1.0
 73
     3
  0
TEXT
  8
1
  6
CONTINUOUS
 62
     2
  5
467
 10
209.07975
 20
222.177333
 30
0.0
 40
2.2
  1
AT THE BOTTOM AS SHOWN ON TES-90. THE PIPE SHALL BE 1-1/2" GALVANIZED
  7
MONOTXT
 11
209.07975
 21
224.377333
 31
0.0
210
0.0
220
0.0
230
1.0
 73
     3
  0
TEXT
  8
1
  6
CONTINUOUS
 62
     2
  5
468
 10
209.07975
 20
217.777333
 30
0.0
 40
2.2
  1
STEEL PIPE PAINTED TO MATCH SIGNAL HEADS.
  7
MONOTXT
 11
209.07975
 21
219.977333
 31
0.0
210
0.0
220
0.0
230
1.0
 73
     3
  0
TEXT
  8
1
  6
CONTINUOUS
 62
     2
  5
469
 10
209.07975
 20
213.377333
 30
0.0
 40
2.2
  1
 
  7
MONOTXT
 11
209.07975
 21
215.577333
 31
0.0
210
0.0
220
0.0
230
1.0
 73
     3
  0
TEXT
  8
1
  6
CONTINUOUS
 62
     2
  5
46A
 10
209.07975
 20
208.977333
 30
0.0
 40
2.2
  1
2.    LENSE ARRANGEMENT:
  7
MONOTXT
 11
209.07975
 21
211.177333
 31
0.0
210
0.0
220
0.0
230
1.0
 73
     3
  0
TEXT
  8
1
  6
CONTINUOUS
 62
     2
  5
46B
 10
209.07975
 20
204.577333
 30
0.0
 40
2.2
  1
 
  7
MONOTXT
 11
209.07975
 21
206.777333
 31
0.0
210
0.0
220
0.0
230
1.0
 73
     3
  0
TEXT
  8
1
  6
CONTINUOUS
 62
     2
  5
46C
 10
209.07975
 20
200.177333
 30
0.0
 40
2.2
  1
A.    LENSE ARRANGEMENT (A) IS TYPICAL FOR DUAL INDICATIONS ON STANDARD
  7
MONOTXT
 11
209.07975
 21
202.377333
 31
0.0
210
0.0
220
0.0
230
1.0
 73
     3
  0
TEXT
  8
1
  6
CONTINUOUS
 62
     2
  5
46D
 10
209.07975
 20
195.777333
 30
0.0
 40
2.2
  1
LANE TREATMENT.
  7
MONOTXT
 11
209.07975
 21
197.977333
 31
0.0
210
0.0
220
0.0
230
1.0
 73
     3
  0
TEXT
  8
1
  6
CONTINUOUS
 62
     2
  5
46E
 10
209.07975
 20
191.377333
 30
0.0
 40
2.2
  1
 
  7
MONOTXT
 11
209.07975
 21
193.577333
 31
0.0
210
0.0
220
0.0
230
1.0
 73
     3
  0
TEXT
  8
1
  6
CONTINUOUS
 62
     2
  5
46F
 10
209.07975
 20
186.977333
 30
0.0
 40
2.2
  1
B.    LENSE ARRANGEMENT (B) IS TYPICAL FOR EXCLUSIVE (PROTECTED) LEFT TURN
  7
MONOTXT
 11
209.07975
 21
189.177333
 31
0.0
210
0.0
220
0.0
230
1.0
 73
     3
  0
TEXT
  8
1
  6
CONTINUOUS
 62
     2
  5
470
 10
209.07975
 20
182.577333
 30
0.0
 40
2.2
  1
MOVEMENTS.
  7
MONOTXT
 11
209.07975
 21
184.777333
 31
0.0
210
0.0
220
0.0
230
1.0
 73
     3
  0
TEXT
  8
1
  6
CONTINUOUS
 62
     2
  5
471
 10
209.07975
 20
178.177333
 30
0.0
 40
2.2
  1
 
  7
MONOTXT
 11
209.07975
 21
180.377333
 31
0.0
210
0.0
220
0.0
230
1.0
 73
     3
  0
TEXT
  8
1
  6
CONTINUOUS
 62
     2
  5
472
 10
209.07975
 20
173.777333
 30
0.0
 40
2.2
  1
C.    LENSE ARRANGEMENT (C) IS TYPICAL FOR SPECIAL USE LANE TREATMENT
  7
MONOTXT
 11
209.07975
 21
175.977333
 31
0.0
210
0.0
220
0.0
230
1.0
 73
     3
  0
TEXT
  8
1
  6
CONTINUOUS
 62
     2
  5
473
 10
209.07975
 20
169.377333
 30
0.0
 40
2.2
  1
WHERE ONLY ONE SIGNAL HEAD IS USED TO CONTROL THE LANE.
  7
MONOTXT
 11
209.07975
 21
171.577333
 31
0.0
210
0.0
220
0.0
230
1.0
 73
     3
  0
TEXT
  8
1
  6
CONTINUOUS
 62
     2
  5
474
 10
209.07975
 20
164.977333
 30
0.0
 40
2.2
  1
 
  7
MONOTXT
 11
209.07975
 21
167.177333
 31
0.0
210
0.0
220
0.0
230
1.0
 73
     3
  0
TEXT
  8
1
  6
CONTINUOUS
 62
     2
  5
475
 10
209.07975
 20
160.577333
 30
0.0
 40
2.2
  1
D.    LENSE ARRANGEMENT (D) IS TYPICAL FOR SITUATION ALLOWING A RIGHT
  7
MONOTXT
 11
209.07975
 21
162.777333
 31
0.0
210
0.0
220
0.0
230
1.0
 73
     3
  0
TEXT
  8
1
  6
CONTINUOUS
 62
     2
  5
476
 10
209.07975
 20
156.177333
 30
0.0
 40
2.2
  1
TURN ON RED THAT IS EXCLUSIVE (PROTECTED).
  7
MONOTXT
 11
209.07975
 21
158.377333
 31
0.0
210
0.0
220
0.0
230
1.0
 73
     3
  0
TEXT
  8
1
  6
CONTINUOUS
 62
     2
  5
477
 10
209.07975
 20
151.777333
 30
0.0
 40
2.2
  1
 
  7
MONOTXT
 11
209.07975
 21
153.977333
 31
0.0
210
0.0
220
0.0
230
1.0
 73
     3
  0
TEXT
  8
1
  6
CONTINUOUS
 62
     2
  5
478
 10
209.07975
 20
147.377333
 30
0.0
 40
2.2
  1
E.    LENSE ARRANGEMENT (E) IS TYPICAL FOR SITUATION ALLOWING PROTECTED
  7
MONOTXT
 11
209.07975
 21
149.577333
 31
0.0
210
0.0
220
0.0
230
1.0
 73
     3
  0
TEXT
  8
1
  6
CONTINUOUS
 62
     2
  5
479
 10
209.07975
 20
142.977333
 30
0.0
 40
2.2
  1
AND PERMISSIVE LEFT TURN MOVEMENTS DURING THE DIFFERENT PHASES.
  7
MONOTXT
 11
209.07975
 21
145.177333
 31
0.0
210
0.0
220
0.0
230
1.0
 73
     3
  0
TEXT
  8
1
  6
CONTINUOUS
 62
     2
  5
47A
 10
209.07975
 20
138.577333
 30
0.0
 40
2.2
  1
 
  7
MONOTXT
 11
209.07975
 21
140.777333
 31
0.0
210
0.0
220
0.0
230
1.0
 73
     3
  0
TEXT
  8
1
  6
CONTINUOUS
 62
     2
  5
47B
 10
209.07975
 20
134.177333
 30
0.0
 40
2.2
  1
F.    LENSE ARRANGEMENT (F) IS TYPICAL FOR DUAL INDICATIONS ON STANDARD
  7
MONOTXT
 11
209.07975
 21
136.377333
 31
0.0
210
0.0
220
0.0
230
1.0
 73
     3
  0
TEXT
  8
1
  6
CONTINUOUS
 62
     2
  5
47C
 10
209.07975
 20
129.777333
 30
0.0
 40
2.2
  1
LANE TREATMENT WHERE THERE IS A VERTICAL SIGHT DISTANCE OR OBSTRUCTION
  7
MONOTXT
 11
209.07975
 21
131.977333
 31
0.0
210
0.0
220
0.0
230
1.0
 73
     3
  0
TEXT
  8
1
  6
CONTINUOUS
 62
     2
  5
47D
 10
209.07975
 20
125.377333
 30
0.0
 40
2.2
  1
PROBLEM.
  7
MONOTXT
 11
209.07975
 21
127.577333
 31
0.0
210
0.0
220
0.0
230
1.0
 73
     3
  0
TEXT
  8
1
  6
CONTINUOUS
 62
     2
  5
47E
 10
209.07975
 20
120.977333
 30
0.0
 40
2.2
  1
 
  7
MONOTXT
 11
209.07975
 21
123.177333
 31
0.0
210
0.0
220
0.0
230
1.0
 73
     3
  0
TEXT
  8
1
  6
CONTINUOUS
 62
     2
  5
47F
 10
209.07975
 20
116.577333
 30
0.0
 40
2.2
  1
G.    LENSE ARRANGEMENT (G) IS USED FOR REVERSIBLE LANE SITUATIONS.
  7
MONOTXT
 11
209.07975
 21
118.777333
 31
0.0
210
0.0
220
0.0
230
1.0
 73
     3
  0
TEXT
  8
1
  6
CONTINUOUS
 62
     2
  5
480
 10
209.07975
 20
112.177333
 30
0.0
 40
2.2
  1
 
  7
MONOTXT
 11
209.07975
 21
114.377333
 31
0.0
210
0.0
220
0.0
230
1.0
 73
     3
  0
TEXT
  8
1
  6
CONTINUOUS
 62
     2
  5
481
 10
209.07975
 20
107.777333
 30
0.0
 40
2.2
  1
3.   SUPPORT HARDWARE:
  7
MONOTXT
 11
209.07975
 21
109.977333
 31
0.0
210
0.0
220
0.0
230
1.0
 73
     3
  0
TEXT
  8
1
  6
CONTINUOUS
 62
     2
  5
482
 10
209.07975
 20
103.377333
 30
0.0
 40
2.2
  1
 
  7
MONOTXT
 11
209.07975
 21
105.577333
 31
0.0
210
0.0
220
0.0
230
1.0
 73
     3
  0
TEXT
  8
1
  6
CONTINUOUS
 62
     2
  5
483
 10
209.07975
 20
98.977333
 30
0.0
 40
2.2
  1
A.   ALL UPPER SIGNAL SUPPORT HARDWARE AND PIPING UP TO, AND INCLUDING THE
  7
MONOTXT
 11
209.07975
 21
101.177333
 31
0.0
210
0.0
220
0.0
230
1.0
 73
     3
  0
TEXT
  8
1
  6
CONTINUOUS
 62
     2
  5
484
 10
209.07975
 20
94.577333
 30
0.0
 40
2.2
  1
WIRE INLET FITTING MUST BE FERROUS METAL FOR SIGNAL DISPLAYS OF TWO OR
  7
MONOTXT
 11
209.07975
 21
96.777333
 31
0.0
210
0.0
220
0.0
230
1.0
 73
     3
  0
TEXT
  8
1
  6
CONTINUOUS
 62
     2
  5
485
 10
209.07975
 20
90.177333
 30
0.0
 40
2.2
  1
MORE HEADS.
  7
MONOTXT
 11
209.07975
 21
92.377333
 31
0.0
210
0.0
220
0.0
230
1.0
 73
     3
  0
TEXT
  8
1
  6
CONTINUOUS
 62
     2
  5
486
 10
209.07975
 20
85.777333
 30
0.0
 40
2.2
  1
 
  7
MONOTXT
 11
209.07975
 21
87.977333
 31
0.0
210
0.0
220
0.0
230
1.0
 73
     3
  0
TEXT
  8
1
  6
CONTINUOUS
 62
     2
  5
487
 10
209.07975
 20
81.377333
 30
0.0
 40
2.2
  1
B.   FOUR-WAY CENTER HUB REQUIRED FOR ALL APPLICATIONS.
  7
MONOTXT
 11
209.07975
 21
83.577333
 31
0.0
210
0.0
220
0.0
230
1.0
 73
     3
  0
TEXT
  8
1
  6
CONTINUOUS
 62
     7
  5
488
 10
-165.437
 20
309.547833
 30
0.0
 40
2.5
  1
SEE DETAIL "A"
  7
MONOTXT
 72
     4
 11
-150.4665
 21
310.797833
 31
0.0
210
0.0
220
0.0
230
1.0
  0
LINE
  8
1
  6
CONTINUOUS
 62
     7
  5
489
 10
-170.509333
 20
310.658333
 30
0.0
 11
-166.35025
 21
310.658333
 31
0.0
  0
LINE
  8
1
  6
CONTINUOUS
 62
     7
  5
48A
 10
-134.524333
 20
310.658333
 30
0.0
 11
-130.365333
 21
310.658333
 31
0.0
  0
LINE
  8
1
  6
CONTINUOUS
 62
     7
  5
48B
 10
-170.509333
 20
310.658333
 30
0.0
 11
-185.698917
 21
301.252167
 31
0.0
  0
LINE
  8
1
  6
CONTINUOUS
 62
     7
  5
48C
 10
-130.365333
 20
310.658333
 30
0.0
 11
-112.644083
 21
301.433083
 31
0.0
  0
TEXT
  8
1
  6
CONTINUOUS
 62
     7
  5
48D
 10
-164.532917
 20
194.503333
 30
0.0
 40
2.5
  1
SEE DETAIL "A"
  7
MONOTXT
 72
     4
 11
-149.562417
 21
195.753333
 31
0.0
210
0.0
220
0.0
230
1.0
  0
LINE
  8
1
  6
CONTINUOUS
 62
     7
  5
48E
 10
-169.60525
 20
195.613833
 30
0.0
 11
-165.446167
 21
195.613833
 31
0.0
  0
LINE
  8
1
  6
CONTINUOUS
 62
     7
  5
48F
 10
-133.62025
 20
195.613833
 30
0.0
 11
-129.46125
 21
195.613833
 31
0.0
  0
LINE
  8
1
  6
CONTINUOUS
 62
     7
  5
490
 10
-169.60525
 20
195.613833
 30
0.0
 11
-181.359
 21
182.04725
 31
0.0
  0
LINE
  8
1
  6
CONTINUOUS
 62
     7
  5
491
 10
-129.46125
 20
195.613833
 30
0.0
 11
-118.068917
 21
181.6855
 31
0.0
  0
LINE
  8
1
  6
HIDDEN
 62
     7
  5
492
 10
2.724667
 20
292.243917
 30
0.0
 11
2.724667
 21
284.243917
 31
0.0
  0
LINE
  8
1
  6
HIDDEN
 62
     7
  5
493
 10
50.224667
 20
292.243917
 30
0.0
 11
50.224667
 21
284.243917
 31
0.0
  0
LINE
  8
1
  6
CONTINUOUS
 62
     7
  5
494
 10
16.474667
 20
283.243917
 30
0.0
 11
36.474667
 21
283.243917
 31
0.0
  0
LINE
  8
1
  6
HIDDEN
 62
     7
  5
495
 10
19.224667
 20
292.243917
 30
0.0
 11
19.224667
 21
284.243917
 31
0.0
  0
LINE
  8
1
  6
HIDDEN
 62
     7
  5
496
 10
33.724667
 20
292.243917
 30
0.0
 11
33.724667
 21
284.243917
 31
0.0
  0
LINE
  8
1
  6
CONTINUOUS
 62
     7
  5
497
 10
16.474667
 20
293.243917
 30
0.0
 11
36.474667
 21
293.243917
 31
0.0
  0
LINE
  8
1
  6
CONTINUOUS
 62
     7
  5
498
 10
16.474667
 20
294.243917
 30
0.0
 11
16.474667
 21
283.243917
 31
0.0
  0
LINE
  8
1
  6
CONTINUOUS
 62
     7
  5
499
 10
36.474667
 20
294.243917
 30
0.0
 11
36.474667
 21
283.243917
 31
0.0
  0
LINE
  8
1
  6
CONTINUOUS
 62
     7
  5
49A
 10
20.724667
 20
295.243917
 30
0.0
 11
32.224667
 21
295.243917
 31
0.0
  0
LINE
  8
1
  6
CONTINUOUS
 62
     7
  5
49B
 10
20.724667
 20
295.243917
 30
0.0
 11
20.724667
 21
293.243917
 31
0.0
  0
LINE
  8
1
  6
CONTINUOUS
 62
     7
  5
49C
 10
32.224667
 20
295.243917
 30
0.0
 11
32.224667
 21
293.243917
 31
0.0
  0
LINE
  8
1
  6
CONTINUOUS
 62
     7
  5
49D
 10
16.474667
 20
294.243917
 30
0.0
 11
20.724667
 21
294.243917
 31
0.0
  0
LINE
  8
1
  6
CONTINUOUS
 62
     7
  5
49E
 10
32.224667
 20
294.243917
 30
0.0
 11
36.474667
 21
294.243917
 31
0.0
  0
ARC
  8
1
  6
CONTINUOUS
 62
     7
  5
49F
 10
8.071258
 20
288.243917
 30
0.0
 40
9.778409
 50
329.247497
 51
30.752503
210
0.0
220
0.0
230
1.0
  0
ARC
  8
1
  6
CONTINUOUS
 62
     7
  5
4A0
 10
44.878076
 20
288.243917
 30
0.0
 40
9.778409
 50
149.247497
 51
210.752503
210
0.0
220
0.0
230
1.0
  0
LINE
  8
1
  6
HIDDEN
 62
     7
  5
4A1
 10
16.474667
 20
292.243917
 30
0.0
 11
19.224667
 21
292.243917
 31
0.0
  0
LINE
  8
1
  6
HIDDEN
 62
     7
  5
4A2
 10
16.474667
 20
284.243917
 30
0.0
 11
19.224667
 21
284.243917
 31
0.0
  0
LINE
  8
1
  6
HIDDEN
 62
     7
  5
4A3
 10
33.724667
 20
292.243917
 30
0.0
 11
36.474667
 21
292.243917
 31
0.0
  0
LINE
  8
1
  6
HIDDEN
 62
     7
  5
4A4
 10
33.724667
 20
284.243917
 30
0.0
 11
36.474667
 21
284.243917
 31
0.0
  0
LINE
  8
1
  6
CONTINUOUS
 62
     7
  5
4A5
 10
21.724667
 20
295.243917
 30
0.0
 11
21.724667
 21
298.743917
 31
0.0
  0
LINE
  8
1
  6
CONTINUOUS
 62
     7
  5
4A6
 10
31.224667
 20
295.243917
 30
0.0
 11
31.224667
 21
298.743917
 31
0.0
  0
LINE
  8
1
  6
HIDDEN
 62
     7
  5
4A7
 10
21.724667
 20
292.743917
 30
0.0
 11
31.224667
 21
292.743917
 31
0.0
  0
LINE
  8
1
  6
HIDDEN
 62
     7
  5
4A8
 10
21.724667
 20
295.243917
 30
0.0
 11
21.724667
 21
292.743917
 31
0.0
  0
LINE
  8
1
  6
HIDDEN
 62
     7
  5
4A9
 10
31.224667
 20
292.743917
 30
0.0
 11
31.224667
 21
295.243917
 31
0.0
  0
ARC
  8
1
  6
CONTINUOUS
 62
     7
  5
4AA
 10
24.099667
 20
296.83581
 30
0.0
 40
3.046555
 50
38.778864
 51
141.221136
210
0.0
220
0.0
230
1.0
  0
ARC
  8
1
  6
CONTINUOUS
 62
     7
  5
4AB
 10
28.849667
 20
296.83581
 30
0.0
 40
3.046555
 50
38.778864
 51
141.221136
210
0.0
220
0.0
230
1.0
  0
ARC
  8
1
  6
CONTINUOUS
 62
     7
  5
4AC
 10
28.849667
 20
300.652024
 30
0.0
 40
3.046555
 50
218.778864
 51
321.221136
210
0.0
220
0.0
230
1.0
  0
LINE
  8
1
  6
CONTINUOUS
 62
     7
  5
4AD
 10
5.474667
 20
292.743917
 30
0.0
 11
5.474667
 21
283.743917
 31
0.0
  0
LINE
  8
1
  6
CONTINUOUS
 62
     7
  5
4AE
 10
47.474667
 20
292.743917
 30
0.0
 11
47.474667
 21
283.743917
 31
0.0
  0
LINE
  8
1
  6
HIDDEN
 62
     7
  5
4AF
 10
2.724667
 20
292.243917
 30
0.0
 11
5.474667
 21
292.243917
 31
0.0
  0
LINE
  8
1
  6
CONTINUOUS
 62
     7
  5
4B0
 10
5.474667
 20
292.243917
 30
0.0
 11
16.474667
 21
292.243917
 31
0.0
  0
LINE
  8
1
  6
HIDDEN
 62
     7
  5
4B1
 10
2.724667
 20
284.243917
 30
0.0
 11
5.474667
 21
284.243917
 31
0.0
  0
LINE
  8
1
  6
CONTINUOUS
 62
     7
  5
4B2
 10
5.474667
 20
284.243917
 30
0.0
 11
16.474667
 21
284.243917
 31
0.0
  0
LINE
  8
1
  6
CONTINUOUS
 62
     7
  5
4B3
 10
36.474667
 20
292.243917
 30
0.0
 11
47.474667
 21
292.243917
 31
0.0
  0
LINE
  8
1
  6
HIDDEN
 62
     7
  5
4B4
 10
47.474667
 20
292.243917
 30
0.0
 11
50.224667
 21
292.243917
 31
0.0
  0
LINE
  8
1
  6
CONTINUOUS
 62
     7
  5
4B5
 10
36.474667
 20
284.243917
 30
0.0
 11
47.474667
 21
284.243917
 31
0.0
  0
LINE
  8
1
  6
HIDDEN
 62
     7
  5
4B6
 10
47.474667
 20
284.243917
 30
0.0
 11
50.224667
 21
284.243917
 31
0.0
  0
LINE
  8
1
  6
CONTINUOUS
 62
     7
  5
4B7
 10
5.474667
 20
292.743917
 30
0.0
 11
1.474667
 21
292.743917
 31
0.0
  0
LINE
  8
1
  6
CONTINUOUS
 62
     7
  5
4B8
 10
5.474667
 20
283.743917
 30
0.0
 11
1.974667
 21
283.743917
 31
0.0
  0
LINE
  8
1
  6
CONTINUOUS
 62
     7
  5
4B9
 10
-1.025333
 20
280.743917
 30
0.0
 11
-1.025333
 21
278.743917
 31
0.0
  0
LINE
  8
1
  6
CONTINUOUS
 62
     7
  5
4BA
 10
-1.025333
 20
278.743917
 30
0.0
 11
-10.025333
 21
278.743917
 31
0.0
  0
ARC
  8
1
  6
CONTINUOUS
 62
     7
  5
4BB
 10
1.911489
 20
280.661884
 30
0.0
 40
12.089927
 50
92.070608
 51
189.128067
210
0.0
220
0.0
230
1.0
  0
ARC
  8
1
  6
CONTINUOUS
 62
     7
  5
4BC
 10
1.932622
 20
280.785961
 30
0.0
 40
2.958254
 50
89.185653
 51
180.81435
210
0.0
220
0.0
230
1.0
  0
LINE
  8
1
  6
HIDDEN
 62
     7
  5
4BD
 10
-1.525333
 20
281.493917
 30
0.0
 11
-9.525333
 21
281.493917
 31
0.0
  0
LINE
  8
1
  6
HIDDEN
 62
     7
  5
4BE
 10
-1.525333
 20
281.493917
 30
0.0
 11
-1.525333
 21
278.743917
 31
0.0
  0
LINE
  8
1
  6
HIDDEN
 62
     7
  5
4BF
 10
-9.525333
 20
281.493917
 30
0.0
 11
-9.525333
 21
278.743917
 31
0.0
  0
LINE
  8
1
  6
CONTINUOUS
 62
     7
  5
4C0
 10
-9.525333
 20
278.743917
 30
0.0
 11
-9.525333
 21
275.243917
 31
0.0
  0
LINE
  8
1
  6
CONTINUOUS
 62
     7
  5
4C1
 10
-1.525333
 20
278.743917
 30
0.0
 11
-1.525333
 21
275.243917
 31
0.0
  0
ARC
  8
1
  6
CONTINUOUS
 62
     7
  5
4C2
 10
-3.525333
 20
276.39392
 30
0.0
 40
2.307056
 50
209.898972
 51
330.101028
210
0.0
220
0.0
230
1.0
  0
ARC
  8
1
  6
CONTINUOUS
 62
     7
  5
4C3
 10
-7.525333
 20
276.39392
 30
0.0
 40
2.307056
 50
209.898972
 51
330.101028
210
0.0
220
0.0
230
1.0
  0
ARC
  8
1
  6
CONTINUOUS
 62
     7
  5
4C4
 10
-7.525333
 20
274.093913
 30
0.0
 40
2.307056
 50
29.898972
 51
150.101028
210
0.0
220
0.0
230
1.0
  0
ARC
  8
1
  6
CONTINUOUS
 62
     7
  5
4C5
 10
51.037845
 20
280.661884
 30
0.0
 40
12.089927
 50
350.871933
 51
87.929392
210
0.0
220
0.0
230
1.0
  0
LINE
  8
1
  6
CONTINUOUS
 62
     7
  5
4C6
 10
47.474667
 20
292.743917
 30
0.0
 11
51.474667
 21
292.743917
 31
0.0
  0
LINE
  8
1
  6
CONTINUOUS
 62
     7
  5
4C7
 10
47.474667
 20
283.743917
 30
0.0
 11
50.974667
 21
283.743917
 31
0.0
  0
LINE
  8
1
  6
CONTINUOUS
 62
     7
  5
4C8
 10
53.974667
 20
280.743917
 30
0.0
 11
53.974667
 21
278.743917
 31
0.0
  0
LINE
  8
1
  6
CONTINUOUS
 62
     7
  5
4C9
 10
53.974667
 20
278.743917
 30
0.0
 11
62.974667
 21
278.743917
 31
0.0
  0
ARC
  8
1
  6
CONTINUOUS
 62
     7
  5
4CA
 10
51.016711
 20
280.785961
 30
0.0
 40
2.958254
 50
359.18565
 51
90.814347
210
0.0
220
0.0
230
1.0
  0
LINE
  8
1
  6
HIDDEN
 62
     7
  5
4CB
 10
54.474667
 20
281.493917
 30
0.0
 11
62.474667
 21
281.493917
 31
0.0
  0
LINE
  8
1
  6
HIDDEN
 62
     7
  5
4CC
 10
54.474667
 20
281.493917
 30
0.0
 11
54.474667
 21
278.743917
 31
0.0
  0
LINE
  8
1
  6
HIDDEN
 62
     7
  5
4CD
 10
62.474667
 20
281.493917
 30
0.0
 11
62.474667
 21
278.743917
 31
0.0
  0
LINE
  8
1
  6
CONTINUOUS
 62
     7
  5
4CE
 10
62.474667
 20
278.743917
 30
0.0
 11
62.474667
 21
275.243917
 31
0.0
  0
LINE
  8
1
  6
CONTINUOUS
 62
     7
  5
4CF
 10
54.474667
 20
278.743917
 30
0.0
 11
54.474667
 21
275.243917
 31
0.0
  0
ARC
  8
1
  6
CONTINUOUS
 62
     7
  5
4D0
 10
56.474667
 20
276.39392
 30
0.0
 40
2.307056
 50
209.898972
 51
330.101028
210
0.0
220
0.0
230
1.0
  0
ARC
  8
1
  6
CONTINUOUS
 62
     7
  5
4D1
 10
60.474667
 20
276.39392
 30
0.0
 40
2.307056
 50
209.898972
 51
330.101028
210
0.0
220
0.0
230
1.0
  0
ARC
  8
1
  6
CONTINUOUS
 62
     7
  5
4D2
 10
60.474667
 20
274.093913
 30
0.0
 40
2.307056
 50
29.898972
 51
150.101028
210
0.0
220
0.0
230
1.0
  0
CIRCLE
  8
1
  6
CONTINUOUS
 62
     7
  5
4D3
 10
26.474667
 20
287.993917
 30
0.0
 40
4.65
210
0.0
220
0.0
230
1.0
  0
CIRCLE
  8
1
  6
CONTINUOUS
 62
     7
  5
4D4
 10
26.474667
 20
287.993917
 30
0.0
 40
3.65
210
0.0
220
0.0
230
1.0
  0
LINE
  8
1
  6
CONTINUOUS
 62
     7
  5
4D5
 10
15.58175
 20
243.953917
 30
0.0
 11
38.58175
 21
243.953917
 31
0.0
  0
LINE
  8
1
  6
CONTINUOUS
 62
     7
  5
4D6
 10
15.58175
 20
243.953917
 30
0.0
 11
15.58175
 21
239.953917
 31
0.0
  0
LINE
  8
1
  6
CONTINUOUS
 62
     7
  5
4D7
 10
38.58175
 20
243.953917
 30
0.0
 11
38.58175
 21
239.953917
 31
0.0
  0
LINE
  8
1
  6
CONTINUOUS
 62
     7
  5
4D8
 10
6.58175
 20
239.953917
 30
0.0
 11
47.58175
 21
239.953917
 31
0.0
  0
LINE
  8
1
  6
CONTINUOUS
 62
     7
  5
4D9
 10
15.58175
 20
241.953917
 30
0.0
 11
6.58175
 21
241.953917
 31
0.0
  0
LINE
  8
1
  6
CONTINUOUS
 62
     7
  5
4DA
 10
38.58175
 20
241.953917
 30
0.0
 11
47.58175
 21
241.953917
 31
0.0
  0
LINE
  8
1
  6
CONTINUOUS
 62
     7
  5
4DB
 10
6.58175
 20
241.953917
 30
0.0
 11
6.58175
 21
219.453917
 31
0.0
  0
LINE
  8
1
  6
CONTINUOUS
 62
     7
  5
4DC
 10
47.58175
 20
241.953917
 30
0.0
 11
47.58175
 21
219.453917
 31
0.0
  0
LINE
  8
1
  6
CONTINUOUS
 62
     7
  5
4DD
 10
6.58175
 20
219.453917
 30
0.0
 11
47.58175
 21
219.453917
 31
0.0
  0
LINE
  8
1
  6
CONTINUOUS
 62
     7
  5
4DE
 10
7.58175
 20
218.953917
 30
0.0
 11
46.58175
 21
218.953917
 31
0.0
  0
LINE
  8
1
  6
CONTINUOUS
 62
     7
  5
4DF
 10
7.58175
 20
218.953917
 30
0.0
 11
7.58175
 21
219.453917
 31
0.0
  0
LINE
  8
1
  6
CONTINUOUS
 62
     7
  5
4E0
 10
46.58175
 20
218.953917
 30
0.0
 11
46.58175
 21
219.453917
 31
0.0
  0
LINE
  8
1
  6
HIDDEN
 62
     7
  5
4E1
 10
12.58175
 20
239.953917
 30
0.0
 11
12.58175
 21
219.453917
 31
0.0
  0
LINE
  8
1
  6
HIDDEN
 62
     7
  5
4E2
 10
41.58175
 20
239.953917
 30
0.0
 11
41.58175
 21
219.453917
 31
0.0
  0
LINE
  8
1
  6
HIDDEN
 62
     7
  5
4E3
 10
6.58175
 20
237.953917
 30
0.0
 11
12.58175
 21
237.953917
 31
0.0
  0
LINE
  8
1
  6
HIDDEN
 62
     7
  5
4E4
 10
41.58175
 20
237.953917
 30
0.0
 11
47.58175
 21
237.953917
 31
0.0
  0
LINE
  8
1
  6
HIDDEN
 62
     7
  5
4E5
 10
6.58175
 20
221.453917
 30
0.0
 11
12.58175
 21
221.453917
 31
0.0
  0
LINE
  8
1
  6
HIDDEN
 62
     7
  5
4E6
 10
41.58175
 20
221.453917
 30
0.0
 11
47.58175
 21
221.453917
 31
0.0
  0
LINE
  8
1
  6
CONTINUOUS
 62
     7
  5
4E7
 10
6.58175
 20
237.953917
 30
0.0
 11
-0.41825
 21
237.953917
 31
0.0
  0
LINE
  8
1
  6
CONTINUOUS
 62
     7
  5
4E8
 10
6.58175
 20
221.453917
 30
0.0
 11
-0.41825
 21
221.453917
 31
0.0
  0
LINE
  8
1
  6
CONTINUOUS
 62
     7
  5
4E9
 10
54.58175
 20
237.953917
 30
0.0
 11
47.58175
 21
237.953917
 31
0.0
  0
LINE
  8
1
  6
CONTINUOUS
 62
     7
  5
4EA
 10
54.58175
 20
221.453917
 30
0.0
 11
47.58175
 21
221.453917
 31
0.0
  0
ARC
  8
1
  6
CONTINUOUS
 62
     7
  5
4EB
 10
1.540787
 20
233.828917
 30
0.0
 40
4.566558
 50
115.403892
 51
244.596108
210
0.0
220
0.0
230
1.0
  0
ARC
  8
1
  6
CONTINUOUS
 62
     7
  5
4EC
 10
1.540787
 20
225.578917
 30
0.0
 40
4.566558
 50
115.403892
 51
244.596108
210
0.0
220
0.0
230
1.0
  0
ARC
  8
1
  6
CONTINUOUS
 62
     7
  5
4ED
 10
-2.377287
 20
233.828917
 30
0.0
 40
4.566558
 50
295.403892
 51
64.596108
210
0.0
220
0.0
230
1.0
  0
ARC
  8
1
  6
CONTINUOUS
 62
     7
  5
4EE
 10
52.622713
 20
233.828917
 30
0.0
 40
4.566558
 50
295.403892
 51
64.596108
210
0.0
220
0.0
230
1.0
  0
ARC
  8
1
  6
CONTINUOUS
 62
     7
  5
4EF
 10
52.622713
 20
225.578917
 30
0.0
 40
4.566558
 50
295.403892
 51
64.596108
210
0.0
220
0.0
230
1.0
  0
ARC
  8
1
  6
CONTINUOUS
 62
     7
  5
4F0
 10
56.540787
 20
225.578917
 30
0.0
 40
4.566558
 50
115.403892
 51
244.596108
210
0.0
220
0.0
230
1.0
  0
LINE
  8
1
  6
HIDDEN
 62
     7
  5
4F1
 10
18.58175
 20
239.453917
 30
0.0
 11
35.58175
 21
239.453917
 31
0.0
  0
LINE
  8
1
  6
CONTINUOUS
 62
     7
  5
4F2
 10
18.58175
 20
243.953917
 30
0.0
 11
18.58175
 21
250.953917
 31
0.0
  0
LINE
  8
1
  6
CONTINUOUS
 62
     7
  5
4F3
 10
35.58175
 20
243.953917
 30
0.0
 11
35.58175
 21
250.953917
 31
0.0
  0
LINE
  8
1
  6
HIDDEN
 62
     7
  5
4F4
 10
18.58175
 20
243.953917
 30
0.0
 11
18.58175
 21
239.453917
 31
0.0
  0
LINE
  8
1
  6
HIDDEN
 62
     7
  5
4F5
 10
35.58175
 20
243.953917
 30
0.0
 11
35.58175
 21
239.453917
 31
0.0
  0
ARC
  8
1
  6
CONTINUOUS
 62
     7
  5
4F6
 10
22.83175
 20
247.928468
 30
0.0
 40
5.21688
 50
35.445931
 51
144.554067
210
0.0
220
0.0
230
1.0
  0
ARC
  8
1
  6
CONTINUOUS
 62
     7
  5
4F7
 10
31.33175
 20
247.928468
 30
0.0
 40
5.21688
 50
35.445931
 51
144.554067
210
0.0
220
0.0
230
1.0
  0
ARC
  8
1
  6
CONTINUOUS
 62
     7
  5
4F8
 10
31.33175
 20
253.979365
 30
0.0
 40
5.21688
 50
215.445933
 51
324.554069
210
0.0
220
0.0
230
1.0
  0
CIRCLE
  8
1
  6
CONTINUOUS
 62
     7
  5
4F9
 10
27.08175
 20
229.453917
 30
0.0
 40
9.65
210
0.0
220
0.0
230
1.0
  0
CIRCLE
  8
1
  6
CONTINUOUS
 62
     7
  5
4FA
 10
27.08175
 20
229.453917
 30
0.0
 40
7.65
210
0.0
220
0.0
230
1.0
  0
CIRCLE
  8
1
  6
CONTINUOUS
 62
     7
  5
4FB
 10
26.474667
 20
164.590833
 30
0.0
 40
7.65
210
0.0
220
0.0
230
1.0
  0
CIRCLE
  8
1
  6
CONTINUOUS
 62
     7
  5
4FC
 10
26.474667
 20
164.590833
 30
0.0
 40
10.65
210
0.0
220
0.0
230
1.0
  0
LINE
  8
1
  6
CONTINUOUS
 62
     7
  5
4FD
 10
5.974667
 20
156.377667
 30
0.0
 11
-1.025333
 21
156.377667
 31
0.0
  0
LINE
  8
1
  6
HIDDEN
 62
     7
  5
4FE
 10
11.974667
 20
175.877667
 30
0.0
 11
11.974667
 21
153.377667
 31
0.0
  0
LINE
  8
1
  6
HIDDEN
 62
     7
  5
4FF
 10
40.974667
 20
175.877667
 30
0.0
 11
40.974667
 21
153.377667
 31
0.0
  0
LINE
  8
1
  6
HIDDEN
 62
     7
  5
500
 10
5.974667
 20
172.877667
 30
0.0
 11
11.974667
 21
172.877667
 31
0.0
  0
LINE
  8
1
  6
HIDDEN
 62
     7
  5
501
 10
40.974667
 20
172.877667
 30
0.0
 11
46.974667
 21
172.877667
 31
0.0
  0
LINE
  8
1
  6
HIDDEN
 62
     7
  5
502
 10
5.974667
 20
156.377667
 30
0.0
 11
11.974667
 21
156.377667
 31
0.0
  0
LINE
  8
1
  6
HIDDEN
 62
     7
  5
503
 10
40.974667
 20
156.377667
 30
0.0
 11
46.974667
 21
156.377667
 31
0.0
  0
LINE
  8
1
  6
CONTINUOUS
 62
     7
  5
504
 10
5.974667
 20
172.877667
 30
0.0
 11
-1.025333
 21
172.877667
 31
0.0
  0
LINE
  8
1
  6
CONTINUOUS
 62
     7
  5
505
 10
53.974667
 20
172.877667
 30
0.0
 11
46.974667
 21
172.877667
 31
0.0
  0
LINE
  8
1
  6
CONTINUOUS
 62
     7
  5
506
 10
53.974667
 20
156.377667
 30
0.0
 11
46.974667
 21
156.377667
 31
0.0
  0
ARC
  8
1
  6
CONTINUOUS
 62
     7
  5
507
 10
0.933704
 20
168.752667
 30
0.0
 40
4.566558
 50
115.403892
 51
244.596108
210
0.0
220
0.0
230
1.0
  0
ARC
  8
1
  6
CONTINUOUS
 62
     7
  5
508
 10
0.933704
 20
160.502667
 30
0.0
 40
4.566558
 50
115.403892
 51
244.596108
210
0.0
220
0.0
230
1.0
  0
ARC
  8
1
  6
CONTINUOUS
 62
     7
  5
509
 10
-2.984371
 20
168.752667
 30
0.0
 40
4.566558
 50
295.403892
 51
64.596108
210
0.0
220
0.0
230
1.0
  0
ARC
  8
1
  6
CONTINUOUS
 62
     7
  5
50A
 10
52.015629
 20
168.752667
 30
0.0
 40
4.566558
 50
295.403892
 51
64.596108
210
0.0
220
0.0
230
1.0
  0
ARC
  8
1
  6
CONTINUOUS
 62
     7
  5
50B
 10
52.015629
 20
160.502667
 30
0.0
 40
4.566558
 50
295.403892
 51
64.596108
210
0.0
220
0.0
230
1.0
  0
ARC
  8
1
  6
CONTINUOUS
 62
     7
  5
50C
 10
55.933704
 20
160.502667
 30
0.0
 40
4.566558
 50
115.403892
 51
244.596108
210
0.0
220
0.0
230
1.0
  0
LINE
  8
1
  6
HIDDEN
 62
     7
  5
50D
 10
15.224667
 20
150.090833
 30
0.0
 11
37.724667
 21
150.090833
 31
0.0
  0
LINE
  8
1
  6
HIDDEN
 62
     7
  5
50E
 10
15.224667
 20
179.090833
 30
0.0
 11
37.724667
 21
179.090833
 31
0.0
  0
LINE
  8
1
  6
HIDDEN
 62
     7
  5
50F
 10
11.974667
 20
175.877667
 30
0.0
 11
15.224667
 21
179.090833
 31
0.0
  0
LINE
  8
1
  6
HIDDEN
 62
     7
  5
510
 10
37.724667
 20
179.090833
 30
0.0
 11
40.974667
 21
175.877667
 31
0.0
  0
LINE
  8
1
  6
HIDDEN
 62
     7
  5
511
 10
40.974667
 20
153.377667
 30
0.0
 11
37.724667
 21
150.090833
 31
0.0
  0
LINE
  8
1
  6
HIDDEN
 62
     7
  5
512
 10
15.224667
 20
150.090833
 30
0.0
 11
11.974667
 21
153.377667
 31
0.0
  0
LINE
  8
1
  6
CONTINUOUS
 62
     7
  5
513
 10
5.974667
 20
174.377667
 30
0.0
 11
5.974667
 21
154.877667
 31
0.0
  0
LINE
  8
1
  6
CONTINUOUS
 62
     7
  5
514
 10
46.974667
 20
174.377667
 30
0.0
 11
46.974667
 21
154.877667
 31
0.0
  0
CIRCLE
  8
1
  6
CONTINUOUS
 62
     7
  5
515
 10
26.474667
 20
164.590833
 30
0.0
 40
20.500033
210
0.0
220
0.0
230
1.0
  0
LINE
  8
1
  6
CONTINUOUS
 62
     7
  5
516
 10
5.974667
 20
174.377667
 30
0.0
 11
8.461667
 21
174.377667
 31
0.0
  0
LINE
  8
1
  6
CONTINUOUS
 62
     7
  5
517
 10
5.974667
 20
154.877667
 30
0.0
 11
8.421833
 21
154.877667
 31
0.0
  0
LINE
  8
1
  6
CONTINUOUS
 62
     7
  5
518
 10
46.974667
 20
174.377667
 30
0.0
 11
44.487667
 21
174.377667
 31
0.0
  0
LINE
  8
1
  6
CONTINUOUS
 62
     7
  5
519
 10
46.974667
 20
154.877667
 30
0.0
 11
44.5275
 21
154.877667
 31
0.0
  0
LINE
  8
1
  6
CONTINUOUS
 62
     7
  5
51A
 10
5.974667
 20
165.627667
 30
0.0
 11
15.87525
 21
165.627667
 31
0.0
  0
LINE
  8
1
  6
CONTINUOUS
 62
     7
  5
51B
 10
5.974667
 20
163.627667
 30
0.0
 11
15.868333
 21
163.627667
 31
0.0
  0
LINE
  8
1
  6
CONTINUOUS
 62
     7
  5
51C
 10
46.974667
 20
165.627667
 30
0.0
 11
37.074083
 21
165.627667
 31
0.0
  0
LINE
  8
1
  6
CONTINUOUS
 62
     7
  5
51D
 10
46.974667
 20
163.627667
 30
0.0
 11
37.081
 21
163.627667
 31
0.0
  0
LINE
  8
1
  6
CONTINUOUS
 62
     7
  5
51E
 10
36.18475
 20
156.35575
 30
0.0
 11
34.6925
 21
154.846667
 31
0.0
  0
LINE
  8
1
  6
CONTINUOUS
 62
     7
  5
51F
 10
35.118083
 20
157.410417
 30
0.0
 11
33.625833
 21
155.901333
 31
0.0
  0
LINE
  8
1
  6
CONTINUOUS
 62
     7
  5
520
 10
35.118083
 20
157.410417
 30
0.0
 11
36.18475
 21
156.35575
 31
0.0
  0
LINE
  8
1
  6
CONTINUOUS
 62
     7
  5
521
 10
33.625833
 20
155.901333
 30
0.0
 11
34.6925
 21
154.846667
 31
0.0
  0
LINE
  8
1
  6
CONTINUOUS
 62
     7
  5
522
 10
33.71375
 20
155.990167
 30
0.0
 11
33.291083
 21
156.408
 31
0.0
  0
LINE
  8
1
  6
HIDDEN
 62
     7
  5
523
 10
33.291083
 20
156.408
 30
0.0
 11
31.143917
 21
158.531083
 31
0.0
  0
LINE
  8
1
  6
HIDDEN
 62
     7
  5
524
 10
32.476167
 20
159.846917
 30
0.0
 11
34.618917
 21
157.728333
 31
0.0
  0
LINE
  8
1
  6
CONTINUOUS
 62
     7
  5
525
 10
34.618917
 20
157.728333
 30
0.0
 11
35.03025
 21
157.321583
 31
0.0
  0
LINE
  8
1
  6
CONTINUOUS
 62
     7
  5
526
 10
16.724667
 20
185.090833
 30
0.0
 11
16.724667
 21
182.643667
 31
0.0
  0
LINE
  8
1
  6
HIDDEN
 62
     7
  5
527
 10
34.724667
 20
185.090833
 30
0.0
 11
34.724667
 21
179.090833
 31
0.0
  0
LINE
  8
1
  6
HIDDEN
 62
     7
  5
528
 10
18.224667
 20
185.090833
 30
0.0
 11
18.224667
 21
179.090833
 31
0.0
  0
LINE
  8
1
  6
CONTINUOUS
 62
     7
  5
529
 10
36.224667
 20
185.090833
 30
0.0
 11
16.724667
 21
185.090833
 31
0.0
  0
LINE
  8
1
  6
CONTINUOUS
 62
     7
  5
52A
 10
36.224667
 20
185.090833
 30
0.0
 11
36.224667
 21
182.603833
 31
0.0
  0
LINE
  8
1
  6
CONTINUOUS
 62
     7
  5
52B
 10
17.224667
 20
185.090833
 30
0.0
 11
17.224667
 21
186.590833
 31
0.0
  0
LINE
  8
1
  6
CONTINUOUS
 62
     7
  5
52C
 10
35.724667
 20
185.090833
 30
0.0
 11
35.724667
 21
186.590833
 31
0.0
  0
LINE
  8
1
  6
CONTINUOUS
 62
     7
  5
52D
 10
17.224667
 20
186.590833
 30
0.0
 11
35.724667
 21
186.590833
 31
0.0
  0
LINE
  8
1
  6
CONTINUOUS
 62
     7
  5
52E
 10
19.224667
 20
185.090833
 30
0.0
 11
19.224667
 21
186.590833
 31
0.0
  0
LINE
  8
1
  6
CONTINUOUS
 62
     7
  5
52F
 10
33.724667
 20
185.090833
 30
0.0
 11
33.724667
 21
186.590833
 31
0.0
  0
LINE
  8
1
  6
CONTINUOUS
 62
     7
  5
530
 10
26.474667
 20
185.090833
 30
0.0
 11
26.474667
 21
188.590833
 31
0.0
  0
LINE
  8
1
  6
CONTINUOUS
 62
     7
  5
531
 10
26.474667
 20
188.590833
 30
0.0
 11
17.224667
 21
186.590833
 31
0.0
  0
LINE
  8
1
  6
CONTINUOUS
 62
     7
  5
532
 10
26.474667
 20
188.590833
 30
0.0
 11
35.724667
 21
186.590833
 31
0.0
  0
LINE
  8
1
  6
CONTINUOUS
 62
     7
  5
533
 10
19.224667
 20
186.590833
 30
0.0
 11
26.474667
 21
188.590833
 31
0.0
  0
LINE
  8
1
  6
CONTINUOUS
 62
     7
  5
534
 10
26.474667
 20
188.590833
 30
0.0
 11
33.724667
 21
186.590833
 31
0.0
  0
LINE
  8
1
  6
CONTINUOUS
 62
     7
  5
535
 10
26.474667
 20
140.6645
 30
0.0
 11
35.724667
 21
142.6645
 31
0.0
  0
LINE
  8
1
  6
CONTINUOUS
 62
     7
  5
536
 10
16.724667
 20
144.1645
 30
0.0
 11
16.724667
 21
146.611667
 31
0.0
  0
LINE
  8
1
  6
HIDDEN
 62
     7
  5
537
 10
34.724667
 20
144.1645
 30
0.0
 11
34.724667
 21
150.1645
 31
0.0
  0
LINE
  8
1
  6
HIDDEN
 62
     7
  5
538
 10
18.224667
 20
144.1645
 30
0.0
 11
18.224667
 21
150.1645
 31
0.0
  0
LINE
  8
1
  6
CONTINUOUS
 62
     7
  5
539
 10
36.224667
 20
144.1645
 30
0.0
 11
16.724667
 21
144.1645
 31
0.0
  0
LINE
  8
1
  6
CONTINUOUS
 62
     7
  5
53A
 10
36.224667
 20
144.1645
 30
0.0
 11
36.224667
 21
146.6515
 31
0.0
  0
LINE
  8
1
  6
CONTINUOUS
 62
     7
  5
53B
 10
17.224667
 20
144.1645
 30
0.0
 11
17.224667
 21
142.6645
 31
0.0
  0
LINE
  8
1
  6
CONTINUOUS
 62
     7
  5
53C
 10
35.724667
 20
144.1645
 30
0.0
 11
35.724667
 21
142.6645
 31
0.0
  0
LINE
  8
1
  6
CONTINUOUS
 62
     7
  5
53D
 10
17.224667
 20
142.6645
 30
0.0
 11
35.724667
 21
142.6645
 31
0.0
  0
LINE
  8
1
  6
CONTINUOUS
 62
     7
  5
53E
 10
19.224667
 20
144.1645
 30
0.0
 11
19.224667
 21
142.6645
 31
0.0
  0
LINE
  8
1
  6
CONTINUOUS
 62
     7
  5
53F
 10
33.724667
 20
144.1645
 30
0.0
 11
33.724667
 21
142.6645
 31
0.0
  0
LINE
  8
1
  6
CONTINUOUS
 62
     7
  5
540
 10
26.474667
 20
144.1645
 30
0.0
 11
26.474667
 21
140.6645
 31
0.0
  0
LINE
  8
1
  6
CONTINUOUS
 62
     7
  5
541
 10
26.474667
 20
140.6645
 30
0.0
 11
17.224667
 21
142.6645
 31
0.0
  0
LINE
  8
1
  6
CONTINUOUS
 62
     7
  5
542
 10
19.224667
 20
142.6645
 30
0.0
 11
26.474667
 21
140.6645
 31
0.0
  0
LINE
  8
1
  6
CONTINUOUS
 62
     7
  5
543
 10
26.474667
 20
140.6645
 30
0.0
 11
33.724667
 21
142.6645
 31
0.0
  0
CIRCLE
  8
1
  6
CONTINUOUS
 62
     7
  5
544
 10
98.474667
 20
164.590833
 30
0.0
 40
7.65
210
0.0
220
0.0
230
1.0
  0
LINE
  8
1
  6
CONTINUOUS
 62
     7
  5
545
 10
77.974667
 20
156.377667
 30
0.0
 11
70.974667
 21
156.377667
 31
0.0
  0
LINE
  8
1
  6
CONTINUOUS
 62
     7
  5
546
 10
83.974667
 20
175.877667
 30
0.0
 11
83.974667
 21
153.377667
 31
0.0
  0
LINE
  8
1
  6
CONTINUOUS
 62
     7
  5
547
 10
112.974667
 20
175.877667
 30
0.0
 11
112.974667
 21
153.377667
 31
0.0
  0
LINE
  8
1
  6
HIDDEN
 62
     7
  5
548
 10
77.974667
 20
172.877667
 30
0.0
 11
83.974667
 21
172.877667
 31
0.0
  0
LINE
  8
1
  6
HIDDEN
 62
     7
  5
549
 10
112.974667
 20
172.877667
 30
0.0
 11
118.974667
 21
172.877667
 31
0.0
  0
LINE
  8
1
  6
HIDDEN
 62
     7
  5
54A
 10
77.974667
 20
156.377667
 30
0.0
 11
83.974667
 21
156.377667
 31
0.0
  0
LINE
  8
1
  6
HIDDEN
 62
     7
  5
54B
 10
112.974667
 20
156.377667
 30
0.0
 11
118.974667
 21
156.377667
 31
0.0
  0
LINE
  8
1
  6
CONTINUOUS
 62
     7
  5
54C
 10
77.974667
 20
172.877667
 30
0.0
 11
70.974667
 21
172.877667
 31
0.0
  0
LINE
  8
1
  6
CONTINUOUS
 62
     7
  5
54D
 10
125.974667
 20
172.877667
 30
0.0
 11
118.974667
 21
172.877667
 31
0.0
  0
LINE
  8
1
  6
CONTINUOUS
 62
     7
  5
54E
 10
125.974667
 20
156.377667
 30
0.0
 11
118.974667
 21
156.377667
 31
0.0
  0
ARC
  8
1
  6
CONTINUOUS
 62
     7
  5
54F
 10
72.933704
 20
168.752667
 30
0.0
 40
4.566558
 50
115.403892
 51
244.596108
210
0.0
220
0.0
230
1.0
  0
ARC
  8
1
  6
CONTINUOUS
 62
     7
  5
550
 10
72.933704
 20
160.502667
 30
0.0
 40
4.566558
 50
115.403892
 51
244.596108
210
0.0
220
0.0
230
1.0
  0
ARC
  8
1
  6
CONTINUOUS
 62
     7
  5
551
 10
69.015629
 20
168.752667
 30
0.0
 40
4.566558
 50
295.403892
 51
64.596108
210
0.0
220
0.0
230
1.0
  0
ARC
  8
1
  6
CONTINUOUS
 62
     7
  5
552
 10
124.015629
 20
168.752667
 30
0.0
 40
4.566558
 50
295.403892
 51
64.596108
210
0.0
220
0.0
230
1.0
  0
ARC
  8
1
  6
CONTINUOUS
 62
     7
  5
553
 10
124.015629
 20
160.502667
 30
0.0
 40
4.566558
 50
295.403892
 51
64.596108
210
0.0
220
0.0
230
1.0
  0
ARC
  8
1
  6
CONTINUOUS
 62
     7
  5
554
 10
127.933704
 20
160.502667
 30
0.0
 40
4.566558
 50
115.403892
 51
244.596108
210
0.0
220
0.0
230
1.0
  0
LINE
  8
1
  6
CONTINUOUS
 62
     7
  5
555
 10
87.224667
 20
150.090833
 30
0.0
 11
109.724667
 21
150.090833
 31
0.0
  0
LINE
  8
1
  6
CONTINUOUS
 62
     7
  5
556
 10
87.224667
 20
179.090833
 30
0.0
 11
109.724667
 21
179.090833
 31
0.0
  0
LINE
  8
1
  6
CONTINUOUS
 62
     7
  5
557
 10
83.974667
 20
175.877667
 30
0.0
 11
87.224667
 21
179.090833
 31
0.0
  0
LINE
  8
1
  6
CONTINUOUS
 62
     7
  5
558
 10
109.724667
 20
179.090833
 30
0.0
 11
112.974667
 21
175.877667
 31
0.0
  0
LINE
  8
1
  6
CONTINUOUS
 62
     7
  5
559
 10
112.974667
 20
153.377667
 30
0.0
 11
109.724667
 21
150.090833
 31
0.0
  0
LINE
  8
1
  6
CONTINUOUS
 62
     7
  5
55A
 10
87.224667
 20
150.090833
 30
0.0
 11
83.974667
 21
153.377667
 31
0.0
  0
LINE
  8
1
  6
CONTINUOUS
 62
     7
  5
55B
 10
77.974667
 20
174.377667
 30
0.0
 11
77.974667
 21
154.877667
 31
0.0
  0
LINE
  8
1
  6
CONTINUOUS
 62
     7
  5
55C
 10
118.974667
 20
174.377667
 30
0.0
 11
118.974667
 21
154.877667
 31
0.0
  0
CIRCLE
  8
1
  6
CONTINUOUS
 62
     7
  5
55D
 10
98.474667
 20
164.590833
 30
0.0
 40
20.500033
210
0.0
220
0.0
230
1.0
  0
LINE
  8
1
  6
CONTINUOUS
 62
     7
  5
55E
 10
77.974667
 20
174.377667
 30
0.0
 11
80.461667
 21
174.377667
 31
0.0
  0
LINE
  8
1
  6
CONTINUOUS
 62
     7
  5
55F
 10
77.974667
 20
154.877667
 30
0.0
 11
80.421833
 21
154.877667
 31
0.0
  0
LINE
  8
1
  6
CONTINUOUS
 62
     7
  5
560
 10
118.974667
 20
174.377667
 30
0.0
 11
116.487667
 21
174.377667
 31
0.0
  0
LINE
  8
1
  6
CONTINUOUS
 62
     7
  5
561
 10
118.974667
 20
154.877667
 30
0.0
 11
116.5275
 21
154.877667
 31
0.0
  0
LINE
  8
1
  6
CONTINUOUS
 62
     7
  5
562
 10
88.724667
 20
185.090833
 30
0.0
 11
88.724667
 21
182.643667
 31
0.0
  0
LINE
  8
1
  6
HIDDEN
 62
     7
  5
563
 10
106.724667
 20
185.090833
 30
0.0
 11
106.724667
 21
179.090833
 31
0.0
  0
LINE
  8
1
  6
HIDDEN
 62
     7
  5
564
 10
90.224667
 20
185.090833
 30
0.0
 11
90.224667
 21
179.090833
 31
0.0
  0
LINE
  8
1
  6
CONTINUOUS
 62
     7
  5
565
 10
108.224667
 20
185.090833
 30
0.0
 11
88.724667
 21
185.090833
 31
0.0
  0
LINE
  8
1
  6
CONTINUOUS
 62
     7
  5
566
 10
108.224667
 20
185.090833
 30
0.0
 11
108.224667
 21
182.603833
 31
0.0
  0
LINE
  8
1
  6
CONTINUOUS
 62
     7
  5
567
 10
89.224667
 20
185.090833
 30
0.0
 11
89.224667
 21
186.590833
 31
0.0
  0
LINE
  8
1
  6
CONTINUOUS
 62
     7
  5
568
 10
107.724667
 20
185.090833
 30
0.0
 11
107.724667
 21
186.590833
 31
0.0
  0
LINE
  8
1
  6
CONTINUOUS
 62
     7
  5
569
 10
89.224667
 20
186.590833
 30
0.0
 11
107.724667
 21
186.590833
 31
0.0
  0
LINE
  8
1
  6
CONTINUOUS
 62
     7
  5
56A
 10
91.224667
 20
185.090833
 30
0.0
 11
91.224667
 21
186.590833
 31
0.0
  0
LINE
  8
1
  6
CONTINUOUS
 62
     7
  5
56B
 10
105.724667
 20
185.090833
 30
0.0
 11
105.724667
 21
186.590833
 31
0.0
  0
LINE
  8
1
  6
CONTINUOUS
 62
     7
  5
56C
 10
98.474667
 20
185.090833
 30
0.0
 11
98.474667
 21
188.590833
 31
0.0
  0
LINE
  8
1
  6
CONTINUOUS
 62
     7
  5
56D
 10
98.474667
 20
188.590833
 30
0.0
 11
89.224667
 21
186.590833
 31
0.0
  0
LINE
  8
1
  6
CONTINUOUS
 62
     7
  5
56E
 10
98.474667
 20
188.590833
 30
0.0
 11
107.724667
 21
186.590833
 31
0.0
  0
LINE
  8
1
  6
CONTINUOUS
 62
     7
  5
56F
 10
91.224667
 20
186.590833
 30
0.0
 11
98.474667
 21
188.590833
 31
0.0
  0
LINE
  8
1
  6
CONTINUOUS
 62
     7
  5
570
 10
98.474667
 20
188.590833
 30
0.0
 11
105.724667
 21
186.590833
 31
0.0
  0
LINE
  8
1
  6
CONTINUOUS
 62
     7
  5
571
 10
98.474667
 20
140.6645
 30
0.0
 11
107.724667
 21
142.6645
 31
0.0
  0
LINE
  8
1
  6
CONTINUOUS
 62
     7
  5
572
 10
88.724667
 20
144.1645
 30
0.0
 11
88.724667
 21
146.611667
 31
0.0
  0
LINE
  8
1
  6
HIDDEN
 62
     7
  5
573
 10
106.724667
 20
144.1645
 30
0.0
 11
106.724667
 21
150.1645
 31
0.0
  0
LINE
  8
1
  6
HIDDEN
 62
     7
  5
574
 10
90.224667
 20
144.1645
 30
0.0
 11
90.224667
 21
150.1645
 31
0.0
  0
LINE
  8
1
  6
CONTINUOUS
 62
     7
  5
575
 10
108.224667
 20
144.1645
 30
0.0
 11
88.724667
 21
144.1645
 31
0.0
  0
LINE
  8
1
  6
CONTINUOUS
 62
     7
  5
576
 10
108.224667
 20
144.1645
 30
0.0
 11
108.224667
 21
146.6515
 31
0.0
  0
LINE
  8
1
  6
CONTINUOUS
 62
     7
  5
577
 10
89.224667
 20
144.1645
 30
0.0
 11
89.224667
 21
142.6645
 31
0.0
  0
LINE
  8
1
  6
CONTINUOUS
 62
     7
  5
578
 10
107.724667
 20
144.1645
 30
0.0
 11
107.724667
 21
142.6645
 31
0.0
  0
LINE
  8
1
  6
CONTINUOUS
 62
     7
  5
579
 10
89.224667
 20
142.6645
 30
0.0
 11
107.724667
 21
142.6645
 31
0.0
  0
LINE
  8
1
  6
CONTINUOUS
 62
     7
  5
57A
 10
91.224667
 20
144.1645
 30
0.0
 11
91.224667
 21
142.6645
 31
0.0
  0
LINE
  8
1
  6
CONTINUOUS
 62
     7
  5
57B
 10
105.724667
 20
144.1645
 30
0.0
 11
105.724667
 21
142.6645
 31
0.0
  0
LINE
  8
1
  6
CONTINUOUS
 62
     7
  5
57C
 10
98.474667
 20
144.1645
 30
0.0
 11
98.474667
 21
140.6645
 31
0.0
  0
LINE
  8
1
  6
CONTINUOUS
 62
     7
  5
57D
 10
98.474667
 20
140.6645
 30
0.0
 11
89.224667
 21
142.6645
 31
0.0
  0
LINE
  8
1
  6
CONTINUOUS
 62
     7
  5
57E
 10
91.224667
 20
142.6645
 30
0.0
 11
98.474667
 21
140.6645
 31
0.0
  0
LINE
  8
1
  6
CONTINUOUS
 62
     7
  5
57F
 10
98.474667
 20
140.6645
 30
0.0
 11
105.724667
 21
142.6645
 31
0.0
  0
CIRCLE
  8
1
  6
CONTINUOUS
 62
     7
  5
580
 10
98.474667
 20
182.090833
 30
0.0
 40
0.75
210
0.0
220
0.0
230
1.0
  0
CIRCLE
  8
1
  6
CONTINUOUS
 62
     7
  5
581
 10
82.135167
 20
161.148833
 30
0.0
 40
0.75
210
0.0
220
0.0
230
1.0
  0
CIRCLE
  8
1
  6
CONTINUOUS
 62
     7
  5
582
 10
114.814167
 20
161.148833
 30
0.0
 40
0.75
210
0.0
220
0.0
230
1.0
  0
TEXT
  8
1
  6
CONTINUOUS
 62
     7
  5
583
 10
50.72775
 20
299.26275
 30
0.0
 40
2.5
  1
FOUR-WAY CENTER HUB
  7
MONOTXT
 72
     4
 11
74.202083
 21
300.51275
 31
0.0
210
0.0
220
0.0
230
1.0
  0
TEXT
  8
1
  6
CONTINUOUS
 62
     7
  5
584
 10
12.828917
 20
274.565417
 30
0.0
 40
2.5
  1
SMOOTH RADIAL
  7
MONOTXT
 11
12.828917
 21
277.065417
 31
0.0
210
0.0
220
0.0
230
1.0
 73
     3
  0
TEXT
  8
1
  6
CONTINUOUS
 62
     7
  5
585
 10
12.828917
 20
270.065417
 30
0.0
 40
2.5
  1
CABLEWAY INSIDE
  7
MONOTXT
 11
12.828917
 21
272.565417
 31
0.0
210
0.0
220
0.0
230
1.0
 73
     3
  0
LINE
  8
1
  6
CONTINUOUS
 62
     7
  5
586
 10
36.474667
 20
294.243917
 30
0.0
 11
45.224417
 21
300.623417
 31
0.0
  0
LINE
  8
1
  6
CONTINUOUS
 62
     7
  5
587
 10
45.224417
 20
300.623417
 30
0.0
 11
49.647
 21
300.623417
 31
0.0
  0
INSERT
  8
1
  6
CONTINUOUS
 62
     1
  5
5A8
  2
LDR
 10
36.474667
 20
294.243917
 30
0.0
 41
240.000001
 42
240.000001
 50
216.096035
210
0.0
220
0.0
230
1.0
  0
LINE
  8
1
  6
CONTINUOUS
 62
     7
  5
5A9
 10
53.1085
 20
282.87775
 30
0.0
 11
47.767417
 21
276.070083
 31
0.0
  0
LINE
  8
1
  6
CONTINUOUS
 62
     7
  5
5AA
 10
47.767417
 20
276.070083
 30
0.0
 11
43.566
 21
276.070083
 31
0.0
  0
INSERT
  8
1
  6
CONTINUOUS
 62
     1
  5
5AB
  2
LDR
 10
53.1085
 20
282.87775
 30
0.0
 41
240.0
 42
240.0
 50
51.883373
210
0.0
220
0.0
230
1.0
  0
TEXT
  8
1
  6
CONTINUOUS
 62
     7
  5
5AC
 10
-36.354417
 20
209.524833
 30
0.0
 40
2.5
  1
REMOVABLE COVER PLATE
  7
MONOTXT
 72
     4
 11
-10.71475
 21
210.774833
 31
0.0
210
0.0
220
0.0
230
1.0
  0
TEXT
  8
1
  6
CONTINUOUS
 62
     7
  5
5AD
 10
-25.468583
 20
205.024833
 30
0.0
 40
2.5
  1
W/WATER SEAL
  7
MONOTXT
 72
     4
 11
-10.714667
 21
206.274833
 31
0.0
210
0.0
220
0.0
230
1.0
  0
LINE
  8
1
  6
CONTINUOUS
 62
     7
  5
5AE
 10
26.96275
 20
218.953917
 30
0.0
 11
21.5255
 21
210.8045
 31
0.0
  0
LINE
  8
1
  6
CONTINUOUS
 62
     7
  5
5AF
 10
21.5255
 20
210.8045
 30
0.0
 11
16.519583
 21
210.8045
 31
0.0
  0
INSERT
  8
1
  6
CONTINUOUS
 62
     1
  5
5B0
  2
LDR
 10
26.96275
 20
218.953917
 30
0.0
 41
240.0
 42
-240.0
 50
56.288981
210
0.0
220
0.0
230
1.0
  0
TEXT
  8
1
  6
CONTINUOUS
 62
     7
  5
5B1
 10
20.600833
 20
228.460083
 30
0.0
 40
2.0
  1
FRONTAL
  7
MONOTXT
 72
     4
 11
27.128333
 21
229.460083
 31
0.0
210
0.0
220
0.0
230
1.0
  0
TEXT
  8
1
  6
CONTINUOUS
 62
     7
  5
5B2
 10
22.998333
 20
163.230667
 30
0.0
 40
2.5
  1
TOP
  7
MONOTXT
 72
     4
 11
26.433333
 21
164.480667
 31
0.0
210
0.0
220
0.0
230
1.0
  0
TEXT
  8
1
  6
CONTINUOUS
 62
     7
  5
5B3
 10
49.789167
 20
142.820667
 30
0.0
 40
2.5
  1
SET SCREW(S)
  7
MONOTXT
 11
49.789167
 21
145.320667
 31
0.0
210
0.0
220
0.0
230
1.0
 73
     3
  0
TEXT
  8
1
  6
CONTINUOUS
 62
     7
  5
5B4
 10
49.789167
 20
138.320667
 30
0.0
 40
2.5
  1
REQ'D
  7
MONOTXT
 11
49.789167
 21
140.820667
 31
0.0
210
0.0
220
0.0
230
1.0
 73
     3
  0
TEXT
  8
1
  6
CONTINUOUS
 62
     7
  5
5B5
 10
23.57
 20
130.890833
 30
0.0
 40
2.5
  1
PIPING CLOSURE (TYP)
  7
MONOTXT
 72
     4
 11
45.528667
 21
132.140833
 31
0.0
210
0.0
220
0.0
230
1.0
  0
LINE
  8
1
  6
CONTINUOUS
 62
     7
  5
5B6
 10
35.438667
 20
155.60125
 30
0.0
 11
43.856833
 21
144.48725
 31
0.0
  0
LINE
  8
1
  6
CONTINUOUS
 62
     7
  5
5B7
 10
43.856833
 20
144.48725
 30
0.0
 11
48.331583
 21
144.48725
 31
0.0
  0
INSERT
  8
1
  6
CONTINUOUS
 62
     1
  5
5B8
  2
LDR
 10
35.438667
 20
155.60125
 30
0.0
 41
239.999998
 42
239.999998
 50
127.141674
210
0.0
220
0.0
230
1.0
  0
LINE
  8
1
  6
CONTINUOUS
 62
     7
  5
5B9
 10
21.849667
 20
141.6645
 30
0.0
 11
17.126333
 21
132.236667
 31
0.0
  0
LINE
  8
1
  6
CONTINUOUS
 62
     7
  5
5BA
 10
17.126333
 20
132.236667
 30
0.0
 11
22.543083
 21
132.236667
 31
0.0
  0
INSERT
  8
1
  6
CONTINUOUS
 62
     1
  5
5BB
  2
LDR
 10
21.849667
 20
141.6645
 30
0.0
 41
239.999999
 42
239.999999
 50
63.389185
210
0.0
220
0.0
230
1.0
  0
TEXT
  8
1
  6
CONTINUOUS
 62
     7
  5
5BC
 10
92.589917
 20
163.512167
 30
0.0
 40
2.0
  1
BOTTOM
  7
MONOTXT
 72
     4
 11
98.50325
 21
164.512167
 31
0.0
210
0.0
220
0.0
230
1.0
  0
LINE
  8
1
  6
CONTINUOUS
 62
     7
  5
5BD
 10
83.974667
 20
176.877667
 30
0.0
 11
83.974667
 21
202.102417
 31
0.0
  0
LINE
  8
1
  6
CONTINUOUS
 62
     7
  5
5BE
 10
112.974667
 20
176.877667
 30
0.0
 11
112.974667
 21
202.102417
 31
0.0
  0
LINE
  8
1
  6
CONTINUOUS
 62
     7
  5
5BF
 10
83.974667
 20
201.102417
 30
0.0
 11
112.974667
 21
201.102417
 31
0.0
  0
INSERT
  8
1
  6
CONTINUOUS
 62
     1
  5
5C0
  2
LDR
 10
83.974667
 20
201.102417
 30
0.0
 41
240.0
 42
240.0
 50
180.0
210
0.0
220
0.0
230
1.0
  0
INSERT
  8
1
  6
CONTINUOUS
 62
     1
  5
5C1
  2
LDR
 10
83.974667
 20
201.102417
 30
0.0
 41
240.0
 42
240.0
 50
180.0
210
0.0
220
0.0
230
1.0
  0
INSERT
  8
1
  6
CONTINUOUS
 62
     1
  5
5C2
  2
LDR
 10
112.974667
 20
201.102417
 30
0.0
 41
240.0
 42
240.0
210
0.0
220
0.0
230
1.0
  0
TEXT
  8
1
  6
CONTINUOUS
 62
     7
  5
5C3
 10
87.251333
 20
206.643167
 30
0.0
 40
2.5
  1
JB OPENING
  7
MONOTXT
 72
     4
 11
98.3045
 21
207.893167
 31
0.0
210
0.0
220
0.0
230
1.0
  0
TEXT
  8
1
  6
CONTINUOUS
 62
     7
  5
5C4
 10
86.011167
 20
202.143167
 30
0.0
 40
2.5
  1
3 1/4 " SQUARE
  7
MONOTXT
 72
     4
 11
98.304417
 21
203.393167
 31
0.0
210
0.0
220
0.0
230
1.0
  0
TEXT
  8
1
  6
CONTINUOUS
 62
     7
  5
5C5
 10
95.1155
 20
197.643167
 30
0.0
 40
2.5
  1
MIN.
  7
MONOTXT
 72
     4
 11
98.294667
 21
198.893167
 31
0.0
210
0.0
220
0.0
230
1.0
  0
TEXT
  8
1
  6
CONTINUOUS
 62
     7
  5
5C6
 10
45.59975
 20
108.47525
 30
0.0
 40
5.0
  1
DETAIL "A"
  7
txt
 72
     4
 11
64.114917
 21
110.97525
 31
0.0
210
0.0
220
0.0
230
1.0
  0
LINE
  8
1
  6
CONTINUOUS
 62
     7
  5
5C7
 10
43.689583
 20
105.71075
 30
0.0
 11
83.32475
 21
105.71075
 31
0.0
  0
ENDSEC
  0
EOF
