  0
SECTION
  2
HEADER
  9
$ACADVER
  1
AC1009
  9
$INSBASE
 10
0.0
 20
0.0
 30
0.0
  9
$EXTMIN
 10
-65.991167
 20
-389.983083
 30
0.0
  9
$EXTMAX
 10
614.088833
 20
50.056917
 30
0.0
  9
$LIMMIN
 10
0.0
 20
0.0
  9
$LIMMAX
 10
12.0
 20
9.0
  9
$ORTHOMODE
 70
     0
  9
$REGENMODE
 70
     1
  9
$FILLMODE
 70
     1
  9
$QTEXTMODE
 70
     0
  9
$MIRRTEXT
 70
     1
  9
$DRAGMODE
 70
     2
  9
$LTSCALE
 40
1.0
  9
$OSMODE
 70
     0
  9
$ATTMODE
 70
     1
  9
$TEXTSIZE
 40
0.2
  9
$TRACEWID
 40
0.05
  9
$TEXTSTYLE
  7
STANDARD
  9
$CLAYER
  8
0
  9
$CELTYPE
  6
CONTINUOUS
  9
$CECOLOR
 62
   256
  9
$DIMSCALE
 40
1.0
  9
$DIMASZ
 40
0.18
  9
$DIMEXO
 40
0.0625
  9
$DIMDLI
 40
0.38
  9
$DIMRND
 40
0.0
  9
$DIMDLE
 40
0.0
  9
$DIMEXE
 40
0.18
  9
$DIMTP
 40
0.0
  9
$DIMTM
 40
0.0
  9
$DIMTXT
 40
0.18
  9
$DIMCEN
 40
0.09
  9
$DIMTSZ
 40
0.0
  9
$DIMTOL
 70
     0
  9
$DIMLIM
 70
     0
  9
$DIMTIH
 70
     1
  9
$DIMTOH
 70
     1
  9
$DIMSE1
 70
     0
  9
$DIMSE2
 70
     0
  9
$DIMTAD
 70
     0
  9
$DIMZIN
 70
     0
  9
$DIMBLK
  1

  9
$DIMASO
 70
     1
  9
$DIMSHO
 70
     1
  9
$DIMPOST
  1

  9
$DIMAPOST
  1

  9
$DIMALT
 70
     0
  9
$DIMALTD
 70
     2
  9
$DIMALTF
 40
25.4
  9
$DIMLFAC
 40
1.0
  9
$DIMTOFL
 70
     0
  9
$DIMTVP
 40
0.0
  9
$DIMTIX
 70
     0
  9
$DIMSOXD
 70
     0
  9
$DIMSAH
 70
     0
  9
$DIMBLK1
  1

  9
$DIMBLK2
  1

  9
$DIMSTYLE
  2
STANDARD
  9
$DIMCLRD
 70
     0
  9
$DIMCLRE
 70
     0
  9
$DIMCLRT
 70
     0
  9
$DIMTFAC
 40
1.0
  9
$DIMGAP
 40
0.09
  9
$LUNITS
 70
     2
  9
$LUPREC
 70
     4
  9
$AXISMODE
 70
     0
  9
$AXISUNIT
 10
0.0
 20
0.0
  9
$SKETCHINC
 40
0.1
  9
$FILLETRAD
 40
0.0
  9
$AUNITS
 70
     0
  9
$AUPREC
 70
     0
  9
$MENU
  1
acad
  9
$ELEVATION
 40
0.0
  9
$PELEVATION
 40
0.0
  9
$THICKNESS
 40
0.0
  9
$LIMCHECK
 70
     0
  9
$BLIPMODE
 70
     1
  9
$CHAMFERA
 40
0.0
  9
$CHAMFERB
 40
0.0
  9
$SKPOLY
 70
     0
  9
$TDCREATE
 40
2451803.444351852
  9
$TDUPDATE
 40
2451803.444351852
  9
$TDINDWG
 40
0.0000000000
  9
$TDUSRTIMER
 40
0.0000000000
  9
$USRTIMER
 70
     1
  9
$ANGBASE
 50
0.0
  9
$ANGDIR
 70
     0
  9
$PDMODE
 70
     0
  9
$PDSIZE
 40
0.0
  9
$PLINEWID
 40
0.0
  9
$COORDS
 70
     0
  9
$SPLFRAME
 70
     0
  9
$SPLINETYPE
 70
     6
  9
$SPLINESEGS
 70
    10
  9
$ATTDIA
 70
     0
  9
$ATTREQ
 70
     1
  9
$HANDLING
 70
     1
  9
$HANDSEED
  5
322
  9
$SURFTAB1
 70
     6
  9
$SURFTAB2
 70
     6
  9
$SURFTYPE
 70
     6
  9
$SURFU
 70
     6
  9
$SURFV
 70
     6
  9
$UCSNAME
  2

  9
$UCSORG
 10
0.0
 20
0.0
 30
0.0
  9
$UCSXDIR
 10
1.0
 20
0.0
 30
0.0
  9
$UCSYDIR
 10
0.0
 20
1.0
 30
0.0
  9
$PUCSNAME
  2

  9
$PUCSORG
 10
0.0
 20
0.0
 30
0.0
  9
$PUCSXDIR
 10
1.0
 20
0.0
 30
0.0
  9
$PUCSYDIR
 10
0.0
 20
1.0
 30
0.0
  9
$USERI1
 70
     0
  9
$USERI2
 70
     0
  9
$USERI3
 70
     0
  9
$USERI4
 70
     0
  9
$USERI5
 70
     0
  9
$USERR1
 40
0.0
  9
$USERR2
 40
0.0
  9
$USERR3
 40
0.0
  9
$USERR4
 40
0.0
  9
$USERR5
 40
0.0
  9
$WORLDVIEW
 70
     1
  9
$SHADEDGE
 70
     3
  9
$SHADEDIF
 70
    70
  9
$TILEMODE
 70
     1
  9
$MAXACTVP
 70
    16
  9
$PINSBASE
 10
0.0
 20
0.0
 30
0.0
  9
$PLIMCHECK
 70
     0
  9
$PEXTMIN
 10
-1.000000E+20
 20
-1.000000E+20
 30
-1.000000E+20
  9
$PEXTMAX
 10
-1.000000E+20
 20
-1.000000E+20
 30
-1.000000E+20
  9
$PLIMMIN
 10
0.0
 20
0.0
  9
$PLIMMAX
 10
12.0
 20
9.0
  9
$UNITMODE
 70
     0
  9
$VISRETAIN
 70
     0
  9
$PLINEGEN
 70
     1
  9
$PSLTSCALE
 70
     0
  9
$TREEDEPTH
 70
  3020
  9
$DWGCODEPAGE
  3
ansi_1252
  0
ENDSEC
  0
SECTION
  2
TABLES
  0
TABLE
  2
VPORT
 70
     1
  0
VPORT
  2
*ACTIVE
 70
     0
 10
0.0
 20
0.0
 11
1.0
 21
1.0
 12
0.0
 22
0.0
 13
0.0
 23
0.0
 14
0.0
 24
0.0
 15
0.0
 25
0.0
 16
0.0
 26
0.0
 36
1.0
 17
228.285133
 27
-169.963083
 37
0.0
 40
451.041
 41
1.795122
 42
50.0
 43
0.0
 44
0.0
 50
0.0
 51
0.0
 71
     0
 72
   100
 73
     1
 74
     0
 75
     0
 76
     0
 77
     0
 78
     0
  0
ENDTAB
  0
TABLE
  2
LTYPE
 70
     7
  0
LTYPE
  2
CONTINUOUS
 70
     0
  3
Solid line
 72
    65
 73
     0
 40
0.0
  0
LTYPE
  2
DOT
 70
    64
  3
. . . . . . . . . . . . . . . . . . . . . . . . . . . . . . . . .
 72
    65
 73
     2
 40
0.25
 49
0.0
 49
-0.25
  0
LTYPE
  2
HIDDEN
 70
    64
  3
__ __ __ __ __ __ __ __ __ __ __ __ __ __ __ __ __ __ __ __ __ 
 72
    65
 73
     2
 40
0.375
 49
0.25
 49
-0.125
  0
LTYPE
  2
DASHED
 70
    64
  3
__ __ __ __ __ __ __ __ __ __ __ __ __ __ __ __ __ __ __ __ __
 72
    65
 73
     2
 40
0.75
 49
0.5
 49
-0.25
  0
LTYPE
  2
DASHDOT
 70
    64
  3
__ . __ . __ . __ . __ . __ . __ . __ . __ . __ . __ . __ . _
 72
    65
 73
     4
 40
1.0
 49
0.5
 49
-0.25
 49
0.0
 49
-0.25
  0
LTYPE
  2
DIVIDE
 70
    64
  3
____ . . ____ . . ____ . . ____ . . ____ . . ____ . . ____ . .
 72
    65
 73
     6
 40
1.25
 49
0.5
 49
-0.25
 49
0.0
 49
-0.25
 49
0.0
 49
-0.25
  0
LTYPE
  2
CENTER
 70
    64
  3
____ _ ____ _ ____ _ ____ _ ____ _ ____ _ ____ _ ____ _ ____ _
 72
    65
 73
     4
 40
2.0
 49
1.25
 49
-0.25
 49
0.25
 49
-0.25
  0
ENDTAB
  0
TABLE
  2
LAYER
 70
     5
  0
LAYER
  2
0
 70
     0
 62
     7
  6
CONTINUOUS
  0
LAYER
  2
CONSTRUCTION_CLASS
 70
     0
 62
     7
  6
CONTINUOUS
  0
LAYER
  2
PATTERN_CLASS
 70
     0
 62
     7
  6
CONTINUOUS
  0
LAYER
  2
61
 70
    64
 62
     7
  6
CONTINUOUS
  0
LAYER
  2
1
 70
    64
 62
     7
  6
CONTINUOUS
  0
ENDTAB
  0
TABLE
  2
STYLE
 70
     4
  0
STYLE
  2
STANDARD
 70
     0
 40
0.0
 41
1.0
 50
0.0
 71
     0
 42
0.0
  3
txt
  4

  0
STYLE
  2
MONOTXT
 70
     0
 40
0.2
 41
1.0
 50
0.0
 71
     0
 42
0.2
  3
MONOTXT
  4

  0
STYLE
  2
txt
 70
     0
 40
0.2
 41
1.0
 50
0.0
 71
     0
 42
0.2
  3
TXT
  4

  0
STYLE
  2
ROMANT
 70
     0
 40
0.2
 41
1.0
 50
0.0
 71
     0
 42
0.2
  3
ROMANT
  4

  0
ENDTAB
  0
TABLE
  2
VIEW
 70
     0
  0
ENDTAB
  0
TABLE
  2
UCS
 70
     0
  0
ENDTAB
  0
TABLE
  2
APPID
 70
     1
  0
APPID
  2
ACAD
 70
     0
  0
ENDTAB
  0
TABLE
  2
DIMSTYLE
 70
     1
  0
DIMSTYLE
  2
STANDARD
 70
     0
  3

  4

  5

  6

  7

 40
1.0
 41
0.18
 42
0.0625
 43
0.38
 44
0.18
 45
0.0
 46
0.0
 47
0.0
 48
0.0
140
0.18
141
0.09
142
0.0
143
25.4
144
1.0
145
0.0
146
1.0
147
0.09
 71
     0
 72
     0
 73
     1
 74
     1
 75
     0
 76
     0
 77
     0
 78
     0
170
     0
171
     2
172
     0
173
     0
174
     0
175
     0
176
     0
177
     0
178
     0
  0
ENDTAB
  0
ENDSEC
  0
SECTION
  2
BLOCKS
  0
BLOCK
  8
1
  6
CONTINUOUS
 62
     1
  5
C8
  2
LDR
 70
     0
 10
0.0
 20
0.0
 30
0.0
  3
LNR
  0
POLYLINE
  8
1
  6
CONTINUOUS
 62
     1
  5
C9
 66
     1
 10
0.0
 20
0.0
 30
0.0
210
0.0
220
0.0
230
1.0
  0
VERTEX
  8
1
  6
CONTINUOUS
 62
     1
  5
CA
 10
-0.011987
 20
-0.001802
 30
0.0
 42
-0.265147
  0
VERTEX
  8
1
  6
CONTINUOUS
 62
     1
  5
CB
 10
-0.011849
 20
-0.001604
 30
0.0
 42
-0.064653
  0
VERTEX
  8
1
  6
CONTINUOUS
 62
     1
  5
CC
 10
-0.011407
 20
-0.001387
 30
0.0
 42
-0.025822
  0
VERTEX
  8
1
  6
CONTINUOUS
 62
     1
  5
CD
 10
-0.010681
 20
-0.00116
 30
0.0
 42
-0.014504
  0
VERTEX
  8
1
  6
CONTINUOUS
 62
     1
  5
CE
 10
-0.0097
 20
-0.000933
 30
0.0
 42
-0.009896
  0
VERTEX
  8
1
  6
CONTINUOUS
 62
     1
  5
CF
 10
-0.008505
 20
-0.000715
 30
0.0
 42
-0.007708
  0
VERTEX
  8
1
  6
CONTINUOUS
 62
     1
  5
D0
 10
-0.007146
 20
-0.000515
 30
0.0
 42
-0.006655
  0
VERTEX
  8
1
  6
CONTINUOUS
 62
     1
  5
D1
 10
-0.005679
 20
-0.000342
 30
0.0
 42
-0.006278
  0
VERTEX
  8
1
  6
CONTINUOUS
 62
     1
  5
D2
 10
-0.004164
 20
-0.000202
 30
0.0
 42
-0.006439
  0
VERTEX
  8
1
  6
CONTINUOUS
 62
     1
  5
D3
 10
-0.002666
 20
-0.000101
 30
0.0
 42
-0.007196
  0
VERTEX
  8
1
  6
CONTINUOUS
 62
     1
  5
D4
 10
-0.001246
 20
-0.000044
 30
0.0
 42
-0.008852
  0
VERTEX
  8
1
  6
CONTINUOUS
 62
     1
  5
D5
 10
0.000037
 20
-0.000034
 30
0.0
 42
-0.008852
  0
SEQEND
  8
1
  6
CONTINUOUS
 62
     1
  5
D6
  0
POLYLINE
  8
1
  6
CONTINUOUS
 62
     1
  5
D7
 66
     1
 10
0.0
 20
0.0
 30
0.0
210
0.0
220
0.0
230
1.0
  0
VERTEX
  8
1
  6
CONTINUOUS
 62
     1
  5
D8
 10
0.000039
 20
0.000014
 30
0.0
 42
-0.005019
  0
VERTEX
  8
1
  6
CONTINUOUS
 62
     1
  5
D9
 10
-0.001103
 20
0.000071
 30
0.0
 42
-0.004038
  0
VERTEX
  8
1
  6
CONTINUOUS
 62
     1
  5
DA
 10
-0.002373
 20
0.000158
 30
0.0
 42
-0.003548
  0
VERTEX
  8
1
  6
CONTINUOUS
 62
     1
  5
DB
 10
-0.003725
 20
0.00027
 30
0.0
 42
-0.003367
  0
VERTEX
  8
1
  6
CONTINUOUS
 62
     1
  5
DC
 10
-0.005111
 20
0.000405
 30
0.0
 42
-0.003436
  0
VERTEX
  8
1
  6
CONTINUOUS
 62
     1
  5
DD
 10
-0.006481
 20
0.000556
 30
0.0
 42
-0.003778
  0
VERTEX
  8
1
  6
CONTINUOUS
 62
     1
  5
DE
 10
-0.007786
 20
0.00072
 30
0.0
 42
-0.00451
  0
VERTEX
  8
1
  6
CONTINUOUS
 62
     1
  5
DF
 10
-0.008979
 20
0.000889
 30
0.0
 42
-0.00594
  0
VERTEX
  8
1
  6
CONTINUOUS
 62
     1
  5
E0
 10
-0.010018
 20
0.001058
 30
0.0
 42
-0.008921
  0
VERTEX
  8
1
  6
CONTINUOUS
 62
     1
  5
E1
 10
-0.010864
 20
0.00122
 30
0.0
 42
-0.016392
  0
VERTEX
  8
1
  6
CONTINUOUS
 62
     1
  5
E2
 10
-0.011488
 20
0.001371
 30
0.0
 42
-0.04458
  0
VERTEX
  8
1
  6
CONTINUOUS
 62
     1
  5
E3
 10
-0.011867
 20
0.001503
 30
0.0
 42
-0.317392
  0
VERTEX
  8
1
  6
CONTINUOUS
 62
     1
  5
E4
 10
-0.011987
 20
0.001614
 30
0.0
 42
-0.317392
  0
SEQEND
  8
1
  6
CONTINUOUS
 62
     1
  5
E5
  0
ENDBLK
  8
1
  6
CONTINUOUS
 62
     1
  5
E6
  0
ENDSEC
  0
SECTION
  2
ENTITIES
  0
LINE
  8
61
  6
CONTINUOUS
 62
     1
  5
29
 10
603.108833
 20
40.056917
 30
0.0
 11
-35.931167
 21
40.056917
 31
0.0
  0
LINE
  8
61
  6
CONTINUOUS
 62
     1
  5
2A
 10
-35.931167
 20
40.056917
 30
0.0
 11
-35.931167
 21
-379.963083
 31
0.0
  0
LINE
  8
61
  6
CONTINUOUS
 62
     1
  5
2B
 10
603.128833
 20
-379.983083
 30
0.0
 11
-35.931167
 21
-379.963083
 31
0.0
  0
LINE
  8
61
  6
CONTINUOUS
 62
     1
  5
2C
 10
603.108833
 20
40.056917
 30
0.0
 11
603.128833
 21
-379.983083
 31
0.0
  0
LINE
  8
61
  6
CONTINUOUS
 62
     1
  5
2D
 10
597.008833
 20
35.316917
 30
0.0
 11
489.028833
 21
35.296917
 31
0.0
  0
LINE
  8
61
  6
CONTINUOUS
 62
     1
  5
2E
 10
489.028833
 20
35.296917
 30
0.0
 11
489.028833
 21
15.296917
 31
0.0
  0
LINE
  8
61
  6
CONTINUOUS
 62
     1
  5
2F
 10
597.008833
 20
35.316917
 30
0.0
 11
597.008833
 21
15.316917
 31
0.0
  0
LINE
  8
61
  6
CONTINUOUS
 62
     1
  5
30
 10
597.008833
 20
15.316917
 30
0.0
 11
489.028833
 21
15.296917
 31
0.0
  0
LINE
  8
61
  6
CONTINUOUS
 62
     1
  5
31
 10
597.028833
 20
25.276917
 30
0.0
 11
489.008833
 21
25.296917
 31
0.0
  0
LINE
  8
61
  6
CONTINUOUS
 62
     1
  5
32
 10
499.028833
 20
35.296917
 30
0.0
 11
499.028833
 21
15.296917
 31
0.0
  0
LINE
  8
61
  6
CONTINUOUS
 62
     1
  5
33
 10
509.028833
 20
35.296917
 30
0.0
 11
509.028833
 21
15.296917
 31
0.0
  0
LINE
  8
61
  6
CONTINUOUS
 62
     1
  5
34
 10
522.708833
 20
35.296917
 30
0.0
 11
522.708833
 21
15.296917
 31
0.0
  0
LINE
  8
61
  6
CONTINUOUS
 62
     1
  5
35
 10
587.008833
 20
35.316917
 30
0.0
 11
587.008833
 21
15.316917
 31
0.0
  0
LINE
  8
61
  6
CONTINUOUS
 62
     1
  5
36
 10
577.008833
 20
35.316917
 30
0.0
 11
577.008833
 21
15.316917
 31
0.0
  0
LINE
  8
61
  6
CONTINUOUS
 62
     1
  5
37
 10
555.028833
 20
35.296917
 30
0.0
 11
555.028833
 21
15.296917
 31
0.0
  0
LINE
  8
61
  6
CONTINUOUS
 62
     1
  5
38
 10
545.028833
 20
35.296917
 30
0.0
 11
545.028833
 21
15.296917
 31
0.0
  0
TEXT
  8
61
  6
CONTINUOUS
 62
     1
  5
3A
 10
491.068833
 20
32.276917
 30
0.0
 40
1.20075
  1
PUBLIC
 50
0.033272
 41
1.001804
  7
MONOTXT
210
0.0
220
0.0
230
1.0
  0
TEXT
  8
61
  6
CONTINUOUS
 62
     1
  5
3B
 10
491.148833
 20
29.756917
 30
0.0
 40
1.20075
  1
ROADS
 50
0.124322
 41
0.996877
  7
MONOTXT
210
0.0
220
0.0
230
1.0
  0
TEXT
  8
61
  6
CONTINUOUS
 62
     1
  5
3C
 10
492.348833
 20
27.256917
 30
0.0
 40
1.20075
  1
DIV.
 50
359.931522
 41
0.994864
  7
MONOTXT
210
0.0
220
0.0
230
1.0
  0
TEXT
  8
61
  6
CONTINUOUS
 62
     1
  5
3D
 10
501.228833
 20
32.336917
 30
0.0
 40
1.20075
  1
STATE
 50
0.058969
 41
0.998196
  7
MONOTXT
210
0.0
220
0.0
230
1.0
  0
TEXT
  8
61
  6
CONTINUOUS
 62
     1
  5
3E
 10
502.108833
 20
29.836917
 30
0.0
 40
1.20075
  1
DIST.
 50
0.055889
 41
0.999584
  7
MONOTXT
210
0.0
220
0.0
230
1.0
  0
TEXT
  8
61
  6
CONTINUOUS
 62
     1
  5
3F
 10
502.688833
 20
27.316917
 30
0.0
 40
1.20075
  1
NO.
 50
359.852072
 41
0.997779
  7
MONOTXT
210
0.0
220
0.0
230
1.0
  0
TEXT
  8
61
  6
CONTINUOUS
 62
     1
  5
40
 10
513.228833
 20
32.276917
 30
0.0
 40
1.20075
  1
STATE
 50
0.058969
 41
0.998196
  7
MONOTXT
210
0.0
220
0.0
230
1.0
  0
TEXT
  8
61
  6
CONTINUOUS
 62
     1
  5
41
 10
512.148833
 20
29.856917
 30
0.0
 40
1.20075
  1
PROJECT
 50
359.908431
 41
1.000069
  7
MONOTXT
210
0.0
220
0.0
230
1.0
  0
TEXT
  8
61
  6
CONTINUOUS
 62
     1
  5
42
 10
514.888833
 20
27.316917
 30
0.0
 40
1.20075
  1
NO.
 50
0.225453
 41
0.993546
  7
MONOTXT
210
0.0
220
0.0
230
1.0
  0
TEXT
  8
61
  6
CONTINUOUS
 62
     1
  5
43
 10
530.528833
 20
31.156917
 30
0.0
 40
1.20075
  1
FEDERAL
 50
0.006714
 41
0.998543
  7
MONOTXT
210
0.0
220
0.0
230
1.0
  0
TEXT
  8
61
  6
CONTINUOUS
 62
     1
  5
44
 10
528.988833
 20
28.496917
 30
0.0
 40
1.20075
  1
PROJECT NO.
 50
359.921531
 41
1.000694
  7
MONOTXT
210
0.0
220
0.0
230
1.0
  0
TEXT
  8
61
  6
CONTINUOUS
 62
     1
  5
45
 10
547.268833
 20
31.096917
 30
0.0
 40
1.20075
  1
FISCAL
 50
359.941939
 41
0.998959
  7
MONOTXT
210
0.0
220
0.0
230
1.0
  0
TEXT
  8
61
  6
CONTINUOUS
 62
     1
  5
46
 10
547.788833
 20
28.196917
 30
0.0
 40
1.20075
  1
YEAR
 50
0.104606
 41
0.993268
  7
MONOTXT
210
0.0
220
0.0
230
1.0
  0
TEXT
  8
61
  6
CONTINUOUS
 62
     1
  5
47
 10
561.888833
 20
29.556917
 30
0.0
 40
1.20075
  1
COUNTY
 50
0.068575
 41
1.001874
  7
MONOTXT
210
0.0
220
0.0
230
1.0
  0
TEXT
  8
61
  6
CONTINUOUS
 62
     1
  5
48
 10
579.528833
 20
31.216917
 30
0.0
 40
1.20075
  1
SHEET
 50
0.058969
 41
0.997571
  7
MONOTXT
210
0.0
220
0.0
230
1.0
  0
TEXT
  8
61
  6
CONTINUOUS
 62
     1
  5
49
 10
580.948833
 20
28.496917
 30
0.0
 40
1.20075
  1
NO.
 50
359.852072
 41
0.997779
  7
MONOTXT
210
0.0
220
0.0
230
1.0
  0
TEXT
  8
61
  6
CONTINUOUS
 62
     1
  5
4A
 10
589.268833
 20
31.076917
 30
0.0
 40
1.20075
  1
TOTAL
 50
359.926039
 41
0.998543
  7
MONOTXT
210
0.0
220
0.0
230
1.0
  0
TEXT
  8
61
  6
CONTINUOUS
 62
     1
  5
4B
 10
588.808833
 20
28.376917
 30
0.0
 40
1.20075
  1
SHEETS
 50
359.958675
  7
MONOTXT
210
0.0
220
0.0
230
1.0
  0
TEXT
  8
61
  6
CONTINUOUS
 62
     1
  5
4C
 10
501.628833
 20
19.496917
 30
0.0
 40
2.401333
  1
  
 50
0.029406
 41
0.996495
  7
MONOTXT
210
0.0
220
0.0
230
1.0
  0
TEXT
  8
61
  6
CONTINUOUS
 62
     1
  5
4D
 10
578.808833
 20
19.216917
 30
0.0
 40
2.401333
  1
   
 50
0.011508
 41
1.001006
  7
MONOTXT
210
0.0
220
0.0
230
1.0
  0
TEXT
  8
61
  6
CONTINUOUS
 62
     1
  5
4E
 10
588.688833
 20
19.196917
 30
0.0
 40
2.401333
  1
   
 50
359.922128
 41
1.000555
  7
MONOTXT
210
0.0
220
0.0
230
1.0
  0
TEXT
  8
61
  6
CONTINUOUS
 62
     1
  5
4F
 10
512.068833
 20
22.596917
 30
0.0
 40
2.00675
  1
    
 50
0.054383
 41
0.993729
  7
MONOTXT
210
0.0
220
0.0
230
1.0
  0
TEXT
  8
61
  6
CONTINUOUS
 62
     1
  5
50
 10
509.148833
 20
19.576917
 30
0.0
 40
1.989583
  1
       
 50
0.064678
 41
1.000963
  7
MONOTXT
210
0.0
220
0.0
230
1.0
  0
TEXT
  8
61
  6
CONTINUOUS
 62
     1
  5
51
 10
510.108833
 20
16.676917
 30
0.0
 40
1.989583
  1
      
 50
359.958053
 41
1.000293
  7
MONOTXT
210
0.0
220
0.0
230
1.0
  0
TEXT
  8
61
  6
CONTINUOUS
 62
     1
  5
52
 10
521.068833
 20
21.316917
 30
0.0
 40
2.401333
  1
           
 50
0.011508
 41
0.998751
  7
MONOTXT
210
0.0
220
0.0
230
1.0
  0
TEXT
  8
61
  6
CONTINUOUS
 62
     1
  5
53
 10
520.948833
 20
17.656917
 30
0.0
 40
2.401333
  1
           
 50
0.011508
 41
0.999584
  7
MONOTXT
210
0.0
220
0.0
230
1.0
  0
TEXT
  8
61
  6
CONTINUOUS
 62
     1
  5
54
 10
556.288833
 20
19.396917
 30
0.0
 40
2.00675
  1
          
 50
0.009222
 41
0.992774
  7
MONOTXT
210
0.0
220
0.0
230
1.0
  0
ARC
  8
61
  6
CONTINUOUS
 62
     1
  5
55
 10
-54.23341
 20
-48.701788
 30
0.0
 40
2.499998
 50
323.130094
 51
316.232156
210
0.0
220
0.0
230
1.0
  0
ARC
  8
61
  6
CONTINUOUS
 62
     1
  5
56
 10
-54.23341
 20
-103.701788
 30
0.0
 40
2.499998
 50
323.130094
 51
315.375767
210
0.0
220
0.0
230
1.0
  0
ARC
  8
61
  6
CONTINUOUS
 62
     1
  5
57
 10
-54.51341
 20
-252.141788
 30
0.0
 40
2.499998
 50
322.671753
 51
321.716147
210
0.0
220
0.0
230
1.0
  0
ARC
  8
61
  6
CONTINUOUS
 62
     1
  5
58
 10
-54.51341
 20
-307.141788
 30
0.0
 40
2.499998
 50
323.130094
 51
312.314392
210
0.0
220
0.0
230
1.0
  0
LINE
  8
61
  6
CONTINUOUS
 62
     1
  5
59
 10
-52.211167
 20
-48.703083
 30
0.0
 11
-44.231167
 21
-48.683083
 31
0.0
  0
LINE
  8
61
  6
CONTINUOUS
 62
     1
  5
5A
 10
-52.231167
 20
-103.703083
 30
0.0
 11
-44.231167
 21
-103.703083
 31
0.0
  0
LINE
  8
61
  6
CONTINUOUS
 62
     1
  5
5B
 10
-52.511167
 20
-252.123083
 30
0.0
 11
-44.511167
 21
-252.123083
 31
0.0
  0
LINE
  8
61
  6
CONTINUOUS
 62
     1
  5
5C
 10
-52.491167
 20
-307.143083
 30
0.0
 11
-44.511167
 21
-307.143083
 31
0.0
  0
LINE
  8
61
  6
DASHED
 62
     1
  5
5D
 10
-65.931167
 20
50.056917
 30
0.0
 11
614.088833
 21
50.056917
 31
0.0
  0
LINE
  8
61
  6
DASHED
 62
     1
  5
5E
 10
614.068833
 20
-389.963083
 30
0.0
 11
-65.991167
 21
-389.983083
 31
0.0
  0
TEXT
  8
61
  6
CONTINUOUS
 62
     1
  5
5F
 10
576.548833
 20
7.476917
 30
0.0
 40
2.401333
  1
     
 41
1.001388
  7
MONOTXT
210
0.0
220
0.0
230
1.0
  0
LINE
  8
1
  6
HIDDEN
 62
     1
  5
61
 10
614.088833
 20
50.056917
 30
0.0
 11
614.068833
 21
-389.963083
 31
0.0
  0
LINE
  8
1
  6
HIDDEN
 62
     1
  5
62
 10
-65.931167
 20
50.056917
 30
0.0
 11
-65.991167
 21
-389.983083
 31
0.0
  0
TEXT
  8
1
  6
CONTINUOUS
 62
     1
  5
64
 10
568.848833
 20
-382.483083
 30
0.0
 40
1.2
  1
TRAFFIC ENGINEERING DIVISION
  7
txt
210
0.0
220
0.0
230
1.0
  0
LINE
  8
1
  6
CONTINUOUS
 62
     1
  5
65
 10
431.468833
 20
-379.983083
 30
0.0
 11
431.468833
 21
-288.403083
 31
0.0
  0
LINE
  8
1
  6
CONTINUOUS
 62
     1
  5
66
 10
431.468833
 20
-288.403083
 30
0.0
 11
603.128833
 21
-288.403083
 31
0.0
  0
LINE
  8
1
  6
CONTINUOUS
 62
     1
  5
67
 10
466.468833
 20
-380.023083
 30
0.0
 11
466.468833
 21
-335.063083
 31
0.0
  0
LINE
  8
1
  6
CONTINUOUS
 62
     1
  5
68
 10
466.468833
 20
-335.063083
 30
0.0
 11
431.488833
 21
-335.063083
 31
0.0
  0
LINE
  8
1
  6
CONTINUOUS
 62
     1
  5
69
 10
466.468833
 20
-339.543083
 30
0.0
 11
431.488833
 21
-339.543083
 31
0.0
  0
LINE
  8
1
  6
CONTINUOUS
 62
     1
  5
6A
 10
466.468833
 20
-344.043083
 30
0.0
 11
431.488833
 21
-344.043083
 31
0.0
  0
LINE
  8
1
  6
CONTINUOUS
 62
     1
  5
6B
 10
466.468833
 20
-348.543083
 30
0.0
 11
431.488833
 21
-348.543083
 31
0.0
  0
LINE
  8
1
  6
CONTINUOUS
 62
     1
  5
6C
 10
466.468833
 20
-353.063083
 30
0.0
 11
431.488833
 21
-353.063083
 31
0.0
  0
LINE
  8
1
  6
CONTINUOUS
 62
     1
  5
6D
 10
466.468833
 20
-357.543083
 30
0.0
 11
431.488833
 21
-357.543083
 31
0.0
  0
LINE
  8
1
  6
CONTINUOUS
 62
     1
  5
6E
 10
466.468833
 20
-362.023083
 30
0.0
 11
431.488833
 21
-362.023083
 31
0.0
  0
LINE
  8
1
  6
CONTINUOUS
 62
     1
  5
6F
 10
466.468833
 20
-366.523083
 30
0.0
 11
431.488833
 21
-366.523083
 31
0.0
  0
LINE
  8
1
  6
CONTINUOUS
 62
     1
  5
70
 10
466.468833
 20
-371.023083
 30
0.0
 11
431.488833
 21
-371.023083
 31
0.0
  0
LINE
  8
1
  6
CONTINUOUS
 62
     1
  5
71
 10
466.468833
 20
-375.543083
 30
0.0
 11
431.488833
 21
-375.543083
 31
0.0
  0
TEXT
  8
1
  6
CONTINUOUS
 62
     1
  5
72
 10
441.748833
 20
-338.063083
 30
0.0
 40
1.99775
  1
REVISIONS
  7
MONOTXT
210
0.0
220
0.0
230
1.0
  0
TEXT
  8
1
  6
CONTINUOUS
 62
     1
  5
73
 10
433.428833
 20
-334.063083
 30
0.0
 40
1.99775
  1
PREPARED: 10/01/69
  7
MONOTXT
210
0.0
220
0.0
230
1.0
  0
TEXT
  8
1
  6
CONTINUOUS
 62
     1
  5
75
 10
464.088833
 20
-297.003083
 30
0.0
 40
4.794833
  1
WEST VIRGINIA DIVISION OF HIGHWAYS
  7
ROMANT
 72
     1
 11
518.059083
 21
-292.20825
 31
0.0
210
0.0
220
0.0
230
1.0
 73
     3
  0
TEXT
  8
1
  6
CONTINUOUS
 62
     1
  5
76
 10
474.848833
 20
-308.163083
 30
0.0
 40
6.992667
  1
STANDARD DETAIL
  7
txt
 72
     1
 11
519.338917
 21
-301.170417
 31
0.0
210
0.0
220
0.0
230
1.0
 73
     3
  0
TEXT
  8
1
  6
CONTINUOUS
 62
     1
  5
77
 10
470.308833
 20
-375.943083
 30
0.0
 40
6.992667
  1
STANDARD SHEET TP1-3 
  7
txt
210
0.0
220
0.0
230
1.0
  0
TEXT
  8
1
  6
CONTINUOUS
 62
     1
  5
78
 10
441.58775
 20
-343.123083
 30
0.0
 40
2.0
  1
05-01-70
  7
MONOTXT
 72
     1
 11
448.43825
 21
-341.123083
 31
0.0
210
0.0
220
0.0
230
1.0
 73
     3
  0
TEXT
  8
1
  6
CONTINUOUS
 62
     1
  5
79
 10
442.040167
 20
-347.523083
 30
0.0
 40
2.0
  1
11-03-76
  7
MONOTXT
 72
     1
 11
448.426083
 21
-345.523083
 31
0.0
210
0.0
220
0.0
230
1.0
 73
     3
  0
TEXT
  8
1
  6
CONTINUOUS
 62
     1
  5
7A
 10
440.768833
 20
-351.923083
 30
0.0
 40
2.0
  1
        
  7
MONOTXT
 72
     1
 11
448.435667
 21
-349.923083
 31
0.0
210
0.0
220
0.0
230
1.0
 73
     3
  0
TEXT
  8
1
  6
CONTINUOUS
 62
     1
  5
7B
 10
440.768833
 20
-356.323083
 30
0.0
 40
2.0
  1
        
  7
MONOTXT
 72
     1
 11
448.435667
 21
-354.323083
 31
0.0
210
0.0
220
0.0
230
1.0
 73
     3
  0
TEXT
  8
1
  6
CONTINUOUS
 62
     1
  5
7C
 10
440.608833
 20
-360.923083
 30
0.0
 40
2.0
  1
        
  7
MONOTXT
 72
     1
 11
448.275667
 21
-358.923083
 31
0.0
210
0.0
220
0.0
230
1.0
 73
     3
  0
TEXT
  8
1
  6
CONTINUOUS
 62
     1
  5
7D
 10
440.768833
 20
-365.403083
 30
0.0
 40
2.0
  1
        
  7
MONOTXT
 72
     1
 11
448.435667
 21
-363.403083
 31
0.0
210
0.0
220
0.0
230
1.0
 73
     3
  0
TEXT
  8
1
  6
CONTINUOUS
 62
     1
  5
7E
 10
440.668833
 20
-370.003083
 30
0.0
 40
2.0
  1
        
  7
MONOTXT
 72
     1
 11
448.335667
 21
-368.003083
 31
0.0
210
0.0
220
0.0
230
1.0
 73
     3
  0
TEXT
  8
1
  6
CONTINUOUS
 62
     1
  5
7F
 10
440.768833
 20
-374.583083
 30
0.0
 40
2.0
  1
        
  7
MONOTXT
 72
     1
 11
448.435667
 21
-372.583083
 31
0.0
210
0.0
220
0.0
230
1.0
 73
     3
  0
TEXT
  8
1
  6
CONTINUOUS
 62
     1
  5
80
 10
440.768833
 20
-378.603083
 30
0.0
 40
2.0
  1
        
  7
MONOTXT
 72
     1
 11
448.435667
 21
-376.603083
 31
0.0
210
0.0
220
0.0
230
1.0
 73
     3
  0
TEXT
  8
1
  6
CONTINUOUS
 62
     1
  5
81
 10
483.588833
 20
-382.383083
 30
0.0
 40
1.2
  1
CATALOG:dt standa  FILENAME:tp13.dgn     DATE:03 /22/93
  7
MONOTXT
210
0.0
220
0.0
230
1.0
  0
TEXT
  8
1
  6
CONTINUOUS
 62
     1
  5
82
 10
460.223583
 20
-317.59225
 30
0.0
 40
6.992667
  1
PUNCHING DETAILS FOR
  7
txt
 72
     1
 11
519.339167
 21
-310.599583
 31
0.0
210
0.0
220
0.0
230
1.0
 73
     3
  0
TEXT
  8
1
  6
CONTINUOUS
 62
     1
  5
83
 10
433.284667
 20
-327.526583
 30
0.0
 40
6.992667
  1
HORIZONTAL RECTANGULAR SIGNS
  7
txt
 72
     1
 11
516.982667
 21
-320.533917
 31
0.0
210
0.0
220
0.0
230
1.0
 73
     3
  0
POLYLINE
  8
1
  6
CONTINUOUS
 62
     7
  5
84
 66
     1
 10
0.0
 20
0.0
 30
0.0
  0
VERTEX
  8
1
  6
CONTINUOUS
 62
     7
  5
85
 10
436.934333
 20
-344.49125
 30
0.0
  0
VERTEX
  8
1
  6
CONTINUOUS
 62
     7
  5
86
 10
434.934333
 20
-347.955333
 30
0.0
  0
VERTEX
  8
1
  6
CONTINUOUS
 62
     7
  5
87
 10
438.934333
 20
-347.955333
 30
0.0
  0
VERTEX
  8
1
  6
CONTINUOUS
 62
     7
  5
88
 10
436.934333
 20
-344.49125
 30
0.0
  0
SEQEND
  8
1
  6
CONTINUOUS
 62
     7
  5
89
  0
TEXT
  8
1
  6
CONTINUOUS
 62
     7
  5
8A
 10
436.628833
 20
-347.409167
 30
0.0
 40
1.5
  1
1
  7
MONOTXT
210
0.0
220
0.0
230
1.0
  0
POLYLINE
  8
1
  6
CONTINUOUS
 62
     7
  5
8B
 66
     1
 10
0.0
 20
0.0
 30
0.0
  0
VERTEX
  8
1
  6
CONTINUOUS
 62
     7
  5
8C
 10
434.0135
 20
-282.321333
 30
0.0
  0
VERTEX
  8
1
  6
CONTINUOUS
 62
     7
  5
8D
 10
432.0135
 20
-285.785417
 30
0.0
  0
VERTEX
  8
1
  6
CONTINUOUS
 62
     7
  5
8E
 10
436.0135
 20
-285.785417
 30
0.0
  0
VERTEX
  8
1
  6
CONTINUOUS
 62
     7
  5
8F
 10
434.0135
 20
-282.321333
 30
0.0
  0
SEQEND
  8
1
  6
CONTINUOUS
 62
     7
  5
90
  0
TEXT
  8
1
  6
CONTINUOUS
 62
     7
  5
91
 10
433.708
 20
-285.23925
 30
0.0
 40
1.5
  1
1
  7
MONOTXT
210
0.0
220
0.0
230
1.0
  0
TEXT
  8
1
  6
CONTINUOUS
 62
     7
  5
92
 10
437.466417
 20
-284.614333
 30
0.0
 40
2.0
  1
CHANGED 9" TO 6"
  7
MONOTXT
210
0.0
220
0.0
230
1.0
  0
LINE
  8
1
  6
CONTINUOUS
 62
    92
  5
93
 10
-9.5595
 20
-9.330417
 30
0.0
 11
76.4405
 21
-9.330417
 31
0.0
  0
LINE
  8
1
  6
CONTINUOUS
 62
    92
  5
94
 10
76.4405
 20
-9.330417
 30
0.0
 11
76.4405
 21
-59.330417
 31
0.0
  0
LINE
  8
1
  6
CONTINUOUS
 62
    92
  5
95
 10
76.4405
 20
-59.330417
 30
0.0
 11
-9.5595
 21
-59.330417
 31
0.0
  0
LINE
  8
1
  6
CONTINUOUS
 62
    92
  5
96
 10
-9.5595
 20
-59.330417
 30
0.0
 11
-9.5595
 21
-9.330417
 31
0.0
  0
CIRCLE
  8
1
  6
CONTINUOUS
 62
    92
  5
97
 10
33.4405
 20
-17.330417
 30
0.0
 40
1.0
210
0.0
220
0.0
230
1.0
  0
CIRCLE
  8
1
  6
CONTINUOUS
 62
    92
  5
98
 10
-3.5595
 20
-34.330417
 30
0.0
 40
1.0
210
0.0
220
0.0
230
1.0
  0
CIRCLE
  8
1
  6
CONTINUOUS
 62
    92
  5
99
 10
33.4405
 20
-51.330417
 30
0.0
 40
1.0
210
0.0
220
0.0
230
1.0
  0
CIRCLE
  8
1
  6
CONTINUOUS
 62
    92
  5
9A
 10
70.4405
 20
-34.330417
 30
0.0
 40
1.0
210
0.0
220
0.0
230
1.0
  0
LINE
  8
1
  6
CONTINUOUS
 62
     7
  5
9B
 10
-3.5595
 20
-70.830417
 30
0.0
 11
33.4405
 21
-70.830417
 31
0.0
  0
LINE
  8
1
  6
CONTINUOUS
 62
     7
  5
9C
 10
33.4405
 20
-70.830417
 30
0.0
 11
70.4405
 21
-70.830417
 31
0.0
  0
LINE
  8
1
  6
CONTINUOUS
 62
     7
  5
9D
 10
87.9405
 20
-51.330417
 30
0.0
 11
87.9405
 21
-34.330417
 31
0.0
  0
LINE
  8
1
  6
CONTINUOUS
 62
     7
  5
9E
 10
87.9405
 20
-34.330417
 30
0.0
 11
87.9405
 21
-17.330417
 31
0.0
  0
LINE
  8
1
  6
CONTINUOUS
 62
     7
  5
9F
 10
-3.5595
 20
-28.330417
 30
0.0
 11
-3.5595
 21
-32.330417
 31
0.0
  0
LINE
  8
1
  6
CONTINUOUS
 62
     7
  5
A0
 10
-22.0595
 20
-34.330417
 30
0.0
 11
-5.5595
 21
-34.330417
 31
0.0
  0
LINE
  8
1
  6
CONTINUOUS
 62
     7
  5
A1
 10
-3.5595
 20
-33.830417
 30
0.0
 11
-3.5595
 21
-34.830417
 31
0.0
  0
LINE
  8
1
  6
CONTINUOUS
 62
     7
  5
A2
 10
-4.0595
 20
-34.330417
 30
0.0
 11
-3.0595
 21
-34.330417
 31
0.0
  0
LINE
  8
1
  6
CONTINUOUS
 62
     7
  5
A3
 10
32.9405
 20
-17.330417
 30
0.0
 11
33.9405
 21
-17.330417
 31
0.0
  0
LINE
  8
1
  6
CONTINUOUS
 62
     7
  5
A4
 10
33.4405
 20
3.169583
 30
0.0
 11
33.4405
 21
-15.330417
 31
0.0
  0
LINE
  8
1
  6
CONTINUOUS
 62
     7
  5
A5
 10
33.4405
 20
-16.830417
 30
0.0
 11
33.4405
 21
-17.830417
 31
0.0
  0
LINE
  8
1
  6
CONTINUOUS
 62
     7
  5
A6
 10
31.4405
 20
-17.330417
 30
0.0
 11
27.4405
 21
-17.330417
 31
0.0
  0
LINE
  8
1
  6
CONTINUOUS
 62
     7
  5
A7
 10
70.4405
 20
-28.330417
 30
0.0
 11
70.4405
 21
-32.330417
 31
0.0
  0
LINE
  8
1
  6
CONTINUOUS
 62
     7
  5
A8
 10
70.4405
 20
-33.830417
 30
0.0
 11
70.4405
 21
-34.830417
 31
0.0
  0
LINE
  8
1
  6
CONTINUOUS
 62
     7
  5
A9
 10
69.9405
 20
-34.330417
 30
0.0
 11
70.9405
 21
-34.330417
 31
0.0
  0
LINE
  8
1
  6
CONTINUOUS
 62
     7
  5
AA
 10
72.4405
 20
-34.330417
 30
0.0
 11
88.9405
 21
-34.330417
 31
0.0
  0
LINE
  8
1
  6
CONTINUOUS
 62
     7
  5
AB
 10
27.4405
 20
-51.330417
 30
0.0
 11
31.4405
 21
-51.330417
 31
0.0
  0
LINE
  8
1
  6
CONTINUOUS
 62
     7
  5
AC
 10
32.9405
 20
-51.330417
 30
0.0
 11
33.9405
 21
-51.330417
 31
0.0
  0
LINE
  8
1
  6
CONTINUOUS
 62
     7
  5
AD
 10
33.4405
 20
-50.830417
 30
0.0
 11
33.4405
 21
-51.830417
 31
0.0
  0
LINE
  8
1
  6
CONTINUOUS
 62
     7
  5
AE
 10
33.4405
 20
-53.330417
 30
0.0
 11
33.4405
 21
-71.830417
 31
0.0
  0
LINE
  8
1
  6
CONTINUOUS
 62
     7
  5
AF
 10
-9.5595
 20
-8.330417
 30
0.0
 11
-9.5595
 21
3.169583
 31
0.0
  0
LINE
  8
1
  6
CONTINUOUS
 62
     7
  5
B0
 10
-10.5595
 20
-9.330417
 30
0.0
 11
-22.0595
 21
-9.330417
 31
0.0
  0
LINE
  8
1
  6
CONTINUOUS
 62
     7
  5
B1
 10
-9.5595
 20
2.169583
 30
0.0
 11
33.4405
 21
2.169583
 31
0.0
  0
LINE
  8
1
  6
CONTINUOUS
 62
     7
  5
B2
 10
-21.0595
 20
-9.330417
 30
0.0
 11
-21.0595
 21
-34.330417
 31
0.0
  0
LINE
  8
1
  6
CONTINUOUS
 62
     7
  5
B3
 10
33.4405
 20
-19.330417
 30
0.0
 11
33.4405
 21
-32.330417
 31
0.0
  0
LINE
  8
1
  6
CONTINUOUS
 62
     7
  5
B4
 10
33.4405
 20
-36.330417
 30
0.0
 11
33.4405
 21
-49.330417
 31
0.0
  0
LINE
  8
1
  6
CONTINUOUS
 62
     7
  5
B5
 10
32.4405
 20
-34.330417
 30
0.0
 11
34.4405
 21
-34.330417
 31
0.0
  0
LINE
  8
1
  6
CONTINUOUS
 62
     7
  5
B6
 10
33.4405
 20
-33.330417
 30
0.0
 11
33.4405
 21
-35.330417
 31
0.0
  0
LINE
  8
1
  6
CONTINUOUS
 62
     7
  5
B7
 10
-1.5595
 20
-34.330417
 30
0.0
 11
12.9405
 21
-34.330417
 31
0.0
  0
LINE
  8
1
  6
CONTINUOUS
 62
     7
  5
B8
 10
13.9405
 20
-34.330417
 30
0.0
 11
15.9405
 21
-34.330417
 31
0.0
  0
LINE
  8
1
  6
CONTINUOUS
 62
     7
  5
B9
 10
16.9405
 20
-34.330417
 30
0.0
 11
31.4405
 21
-34.330417
 31
0.0
  0
LINE
  8
1
  6
CONTINUOUS
 62
     7
  5
BA
 10
35.4405
 20
-34.330417
 30
0.0
 11
49.9405
 21
-34.330417
 31
0.0
  0
LINE
  8
1
  6
CONTINUOUS
 62
     7
  5
BB
 10
50.9405
 20
-34.330417
 30
0.0
 11
52.9405
 21
-34.330417
 31
0.0
  0
LINE
  8
1
  6
CONTINUOUS
 62
     7
  5
BC
 10
53.9405
 20
-34.330417
 30
0.0
 11
68.4405
 21
-34.330417
 31
0.0
  0
LINE
  8
1
  6
CONTINUOUS
 62
     7
  5
BD
 10
35.4405
 20
-51.330417
 30
0.0
 11
68.4405
 21
-51.330417
 31
0.0
  0
LINE
  8
1
  6
CONTINUOUS
 62
     7
  5
BE
 10
72.4405
 20
-51.330417
 30
0.0
 11
88.9405
 21
-51.330417
 31
0.0
  0
LINE
  8
1
  6
CONTINUOUS
 62
     7
  5
BF
 10
70.4405
 20
-36.330417
 30
0.0
 11
70.4405
 21
-49.330417
 31
0.0
  0
LINE
  8
1
  6
CONTINUOUS
 62
     7
  5
C0
 10
70.4405
 20
-53.330417
 30
0.0
 11
70.4405
 21
-71.830417
 31
0.0
  0
LINE
  8
1
  6
CONTINUOUS
 62
     7
  5
C1
 10
70.4405
 20
-50.330417
 30
0.0
 11
70.4405
 21
-52.330417
 31
0.0
  0
LINE
  8
1
  6
CONTINUOUS
 62
     7
  5
C2
 10
69.4405
 20
-51.330417
 30
0.0
 11
71.4405
 21
-51.330417
 31
0.0
  0
LINE
  8
1
  6
CONTINUOUS
 62
     7
  5
C3
 10
-3.5595
 20
-59.330417
 30
0.0
 11
-3.5595
 21
-71.830417
 31
0.0
  0
LINE
  8
1
  6
CONTINUOUS
 62
     7
  5
C4
 10
-3.5595
 20
-36.330417
 30
0.0
 11
-3.5595
 21
-45.830417
 31
0.0
  0
LINE
  8
1
  6
CONTINUOUS
 62
     7
  5
C5
 10
-3.5595
 20
-46.830417
 30
0.0
 11
-3.5595
 21
-48.830417
 31
0.0
  0
LINE
  8
1
  6
CONTINUOUS
 62
     7
  5
C6
 10
-3.5595
 20
-49.830417
 30
0.0
 11
-3.5595
 21
-59.330417
 31
0.0
  0
INSERT
  8
1
  6
CONTINUOUS
 62
     1
  5
E7
  2
LDR
 10
-9.5595
 20
2.169583
 30
0.0
 41
240.0
 42
240.0
 50
180.0
210
0.0
220
0.0
230
1.0
  0
INSERT
  8
1
  6
CONTINUOUS
 62
     1
  5
E8
  2
LDR
 10
-9.5595
 20
2.169583
 30
0.0
 41
240.0
 42
240.0
 50
180.0
210
0.0
220
0.0
230
1.0
  0
INSERT
  8
1
  6
CONTINUOUS
 62
     1
  5
E9
  2
LDR
 10
33.4405
 20
2.169583
 30
0.0
 41
240.0
 42
240.0
210
0.0
220
0.0
230
1.0
  0
INSERT
  8
1
  6
CONTINUOUS
 62
     1
  5
EA
  2
LDR
 10
33.4405
 20
2.169583
 30
0.0
 41
240.0
 42
240.0
210
0.0
220
0.0
230
1.0
  0
INSERT
  8
1
  6
CONTINUOUS
 62
     1
  5
EB
  2
LDR
 10
-21.0595
 20
-9.330417
 30
0.0
 41
240.0
 42
240.0
 50
90.0
210
0.0
220
0.0
230
1.0
  0
INSERT
  8
1
  6
CONTINUOUS
 62
     1
  5
EC
  2
LDR
 10
-21.0595
 20
-9.330417
 30
0.0
 41
240.0
 42
240.0
 50
90.0
210
0.0
220
0.0
230
1.0
  0
INSERT
  8
1
  6
CONTINUOUS
 62
     1
  5
ED
  2
LDR
 10
-21.0595
 20
-34.330417
 30
0.0
 41
240.0
 42
240.0
 50
270.0
210
0.0
220
0.0
230
1.0
  0
INSERT
  8
1
  6
CONTINUOUS
 62
     1
  5
EE
  2
LDR
 10
-21.0595
 20
-34.330417
 30
0.0
 41
240.0
 42
240.0
 50
270.0
210
0.0
220
0.0
230
1.0
  0
INSERT
  8
1
  6
CONTINUOUS
 62
     1
  5
EF
  2
LDR
 10
87.9405
 20
-17.330417
 30
0.0
 41
240.0
 42
240.0
 50
90.0
210
0.0
220
0.0
230
1.0
  0
INSERT
  8
1
  6
CONTINUOUS
 62
     1
  5
F0
  2
LDR
 10
87.9405
 20
-17.330417
 30
0.0
 41
240.0
 42
240.0
 50
90.0
210
0.0
220
0.0
230
1.0
  0
INSERT
  8
1
  6
CONTINUOUS
 62
     1
  5
F1
  2
LDR
 10
87.9405
 20
-51.330417
 30
0.0
 41
240.0
 42
240.0
 50
270.0
210
0.0
220
0.0
230
1.0
  0
INSERT
  8
1
  6
CONTINUOUS
 62
     1
  5
F2
  2
LDR
 10
87.9405
 20
-51.330417
 30
0.0
 41
240.0
 42
240.0
 50
270.0
210
0.0
220
0.0
230
1.0
  0
INSERT
  8
1
  6
CONTINUOUS
 62
     1
  5
F3
  2
LDR
 10
-3.5595
 20
-70.830417
 30
0.0
 41
240.0
 42
240.0
 50
180.0
210
0.0
220
0.0
230
1.0
  0
INSERT
  8
1
  6
CONTINUOUS
 62
     1
  5
F4
  2
LDR
 10
-3.5595
 20
-70.830417
 30
0.0
 41
240.0
 42
240.0
 50
180.0
210
0.0
220
0.0
230
1.0
  0
INSERT
  8
1
  6
CONTINUOUS
 62
     1
  5
F5
  2
LDR
 10
-3.5595
 20
-70.830417
 30
0.0
 41
240.0
 42
240.0
 50
180.0
210
0.0
220
0.0
230
1.0
  0
INSERT
  8
1
  6
CONTINUOUS
 62
     1
  5
F6
  2
LDR
 10
33.4405
 20
-70.830417
 30
0.0
 41
240.0
 42
240.0
210
0.0
220
0.0
230
1.0
  0
INSERT
  8
1
  6
CONTINUOUS
 62
     1
  5
F7
  2
LDR
 10
33.4405
 20
-70.830417
 30
0.0
 41
240.0
 42
240.0
210
0.0
220
0.0
230
1.0
  0
INSERT
  8
1
  6
CONTINUOUS
 62
     1
  5
F8
  2
LDR
 10
33.4405
 20
-70.830417
 30
0.0
 41
240.0
 42
240.0
 50
180.0
210
0.0
220
0.0
230
1.0
  0
INSERT
  8
1
  6
CONTINUOUS
 62
     1
  5
F9
  2
LDR
 10
33.4405
 20
-70.830417
 30
0.0
 41
240.0
 42
240.0
 50
180.0
210
0.0
220
0.0
230
1.0
  0
INSERT
  8
1
  6
CONTINUOUS
 62
     1
  5
FA
  2
LDR
 10
70.4405
 20
-70.830417
 30
0.0
 41
240.0
 42
240.0
210
0.0
220
0.0
230
1.0
  0
LINE
  8
1
  6
CONTINUOUS
 62
     7
  5
FB
 10
76.4405
 20
-17.330417
 30
0.0
 11
88.9405
 21
-17.330417
 31
0.0
  0
LINE
  8
1
  6
CONTINUOUS
 62
     7
  5
FC
 10
35.4405
 20
-17.330417
 30
0.0
 11
53.9405
 21
-17.330417
 31
0.0
  0
LINE
  8
1
  6
CONTINUOUS
 62
     7
  5
FD
 10
54.9405
 20
-17.330417
 30
0.0
 11
56.9405
 21
-17.330417
 31
0.0
  0
LINE
  8
1
  6
CONTINUOUS
 62
     7
  5
FE
 10
57.9405
 20
-17.330417
 30
0.0
 11
76.4405
 21
-17.330417
 31
0.0
  0
LINE
  8
1
  6
CONTINUOUS
 62
    92
  5
FF
 10
148.4405
 20
-6.830417
 30
0.0
 11
148.4405
 21
-61.830417
 31
0.0
  0
LINE
  8
1
  6
CONTINUOUS
 62
    92
  5
100
 10
245.4405
 20
-6.830417
 30
0.0
 11
245.4405
 21
-61.830417
 31
0.0
  0
LINE
  8
1
  6
CONTINUOUS
 62
    92
  5
101
 10
148.4405
 20
-6.830417
 30
0.0
 11
245.4405
 21
-6.830417
 31
0.0
  0
LINE
  8
1
  6
CONTINUOUS
 62
    92
  5
102
 10
148.4405
 20
-61.830417
 30
0.0
 11
245.4405
 21
-61.830417
 31
0.0
  0
LINE
  8
1
  6
CONTINUOUS
 62
     7
  5
103
 10
195.9405
 20
-34.330417
 30
0.0
 11
197.9405
 21
-34.330417
 31
0.0
  0
LINE
  8
1
  6
CONTINUOUS
 62
     7
  5
104
 10
143.4405
 20
-34.330417
 30
0.0
 11
160.4405
 21
-34.330417
 31
0.0
  0
LINE
  8
1
  6
CONTINUOUS
 62
     7
  5
105
 10
196.9405
 20
5.169583
 30
0.0
 11
196.9405
 21
-15.830417
 31
0.0
  0
LINE
  8
1
  6
CONTINUOUS
 62
     7
  5
106
 10
233.4405
 20
-34.330417
 30
0.0
 11
257.4405
 21
-34.330417
 31
0.0
  0
LINE
  8
1
  6
CONTINUOUS
 62
     7
  5
107
 10
196.9405
 20
-19.830417
 30
0.0
 11
196.9405
 21
-32.330417
 31
0.0
  0
LINE
  8
1
  6
CONTINUOUS
 62
     7
  5
108
 10
196.9405
 20
-36.330417
 30
0.0
 11
196.9405
 21
-48.830417
 31
0.0
  0
LINE
  8
1
  6
CONTINUOUS
 62
     7
  5
109
 10
196.9405
 20
-33.330417
 30
0.0
 11
196.9405
 21
-35.330417
 31
0.0
  0
LINE
  8
1
  6
CONTINUOUS
 62
     7
  5
10A
 10
164.4405
 20
-34.330417
 30
0.0
 11
194.9405
 21
-34.330417
 31
0.0
  0
LINE
  8
1
  6
CONTINUOUS
 62
     7
  5
10B
 10
198.9405
 20
-34.330417
 30
0.0
 11
229.4405
 21
-34.330417
 31
0.0
  0
LINE
  8
1
  6
CONTINUOUS
 62
     7
  5
10C
 10
162.4405
 20
-33.330417
 30
0.0
 11
162.4405
 21
-35.330417
 31
0.0
  0
LINE
  8
1
  6
CONTINUOUS
 62
     7
  5
10D
 10
231.4405
 20
-33.330417
 30
0.0
 11
231.4405
 21
-35.330417
 31
0.0
  0
LINE
  8
1
  6
CONTINUOUS
 62
     7
  5
10E
 10
196.9405
 20
-16.830417
 30
0.0
 11
196.9405
 21
-18.830417
 31
0.0
  0
LINE
  8
1
  6
CONTINUOUS
 62
     7
  5
10F
 10
161.4405
 20
-34.330417
 30
0.0
 11
163.4405
 21
-34.330417
 31
0.0
  0
LINE
  8
1
  6
CONTINUOUS
 62
     7
  5
110
 10
230.4405
 20
-34.330417
 30
0.0
 11
232.4405
 21
-34.330417
 31
0.0
  0
LINE
  8
1
  6
CONTINUOUS
 62
     7
  5
111
 10
196.9405
 20
-49.830417
 30
0.0
 11
196.9405
 21
-51.830417
 31
0.0
  0
LINE
  8
1
  6
CONTINUOUS
 62
     7
  5
112
 10
196.9405
 20
-52.830417
 30
0.0
 11
196.9405
 21
-66.830417
 31
0.0
  0
LINE
  8
1
  6
CONTINUOUS
 62
     7
  5
113
 10
162.9405
 20
-17.830417
 30
0.0
 11
161.9405
 21
-17.830417
 31
0.0
  0
LINE
  8
1
  6
CONTINUOUS
 62
     7
  5
114
 10
162.9405
 20
-50.830417
 30
0.0
 11
161.9405
 21
-50.830417
 31
0.0
  0
LINE
  8
1
  6
CONTINUOUS
 62
     7
  5
115
 10
230.9405
 20
-50.830417
 30
0.0
 11
231.9405
 21
-50.830417
 31
0.0
  0
LINE
  8
1
  6
CONTINUOUS
 62
     7
  5
116
 10
162.4405
 20
-50.330417
 30
0.0
 11
162.4405
 21
-51.330417
 31
0.0
  0
LINE
  8
1
  6
CONTINUOUS
 62
     7
  5
117
 10
231.4405
 20
-50.330417
 30
0.0
 11
231.4405
 21
-51.330417
 31
0.0
  0
LINE
  8
1
  6
CONTINUOUS
 62
     7
  5
118
 10
162.4405
 20
-18.330417
 30
0.0
 11
162.4405
 21
-17.330417
 31
0.0
  0
CIRCLE
  8
1
  6
CONTINUOUS
 62
    92
  5
119
 10
162.4405
 20
-17.830417
 30
0.0
 40
1.0
210
0.0
220
0.0
230
1.0
  0
LINE
  8
1
  6
CONTINUOUS
 62
     7
  5
11A
 10
162.4405
 20
-15.830417
 30
0.0
 11
162.4405
 21
5.169583
 31
0.0
  0
LINE
  8
1
  6
CONTINUOUS
 62
     7
  5
11B
 10
162.4405
 20
-19.830417
 30
0.0
 11
162.4405
 21
-32.330417
 31
0.0
  0
LINE
  8
1
  6
CONTINUOUS
 62
     7
  5
11C
 10
160.4405
 20
-17.830417
 30
0.0
 11
156.4405
 21
-17.830417
 31
0.0
  0
LINE
  8
1
  6
CONTINUOUS
 62
     7
  5
11D
 10
168.4405
 20
-17.830417
 30
0.0
 11
164.4405
 21
-17.830417
 31
0.0
  0
LINE
  8
1
  6
CONTINUOUS
 62
     7
  5
11E
 10
231.4405
 20
-19.830417
 30
0.0
 11
231.4405
 21
-32.330417
 31
0.0
  0
LINE
  8
1
  6
CONTINUOUS
 62
     7
  5
11F
 10
230.9405
 20
-17.830417
 30
0.0
 11
231.9405
 21
-17.830417
 31
0.0
  0
LINE
  8
1
  6
CONTINUOUS
 62
     7
  5
120
 10
231.4405
 20
-18.330417
 30
0.0
 11
231.4405
 21
-17.330417
 31
0.0
  0
CIRCLE
  8
1
  6
CONTINUOUS
 62
    92
  5
121
 10
231.4405
 20
-17.830417
 30
0.0
 40
1.0
210
0.0
220
0.0
230
1.0
  0
LINE
  8
1
  6
CONTINUOUS
 62
     7
  5
122
 10
231.4405
 20
-15.830417
 30
0.0
 11
231.4405
 21
5.169583
 31
0.0
  0
LINE
  8
1
  6
CONTINUOUS
 62
     7
  5
123
 10
233.4405
 20
-17.830417
 30
0.0
 11
257.4405
 21
-17.830417
 31
0.0
  0
LINE
  8
1
  6
CONTINUOUS
 62
     7
  5
124
 10
225.4405
 20
-17.830417
 30
0.0
 11
229.4405
 21
-17.830417
 31
0.0
  0
LINE
  8
1
  6
CONTINUOUS
 62
     7
  5
125
 10
162.4405
 20
-48.830417
 30
0.0
 11
162.4405
 21
-36.330417
 31
0.0
  0
LINE
  8
1
  6
CONTINUOUS
 62
     7
  5
126
 10
162.9405
 20
-50.830417
 30
0.0
 11
161.9405
 21
-50.830417
 31
0.0
  0
LINE
  8
1
  6
CONTINUOUS
 62
     7
  5
127
 10
162.4405
 20
-50.330417
 30
0.0
 11
162.4405
 21
-51.330417
 31
0.0
  0
CIRCLE
  8
1
  6
CONTINUOUS
 62
    92
  5
128
 10
162.4405
 20
-50.830417
 30
0.0
 40
1.0
210
0.0
220
0.0
230
1.0
  0
LINE
  8
1
  6
CONTINUOUS
 62
     7
  5
129
 10
160.4405
 20
-50.830417
 30
0.0
 11
156.4405
 21
-50.830417
 31
0.0
  0
LINE
  8
1
  6
CONTINUOUS
 62
     7
  5
12A
 10
168.4405
 20
-50.830417
 30
0.0
 11
164.4405
 21
-50.830417
 31
0.0
  0
LINE
  8
1
  6
CONTINUOUS
 62
     7
  5
12B
 10
231.4405
 20
-48.830417
 30
0.0
 11
231.4405
 21
-36.330417
 31
0.0
  0
LINE
  8
1
  6
CONTINUOUS
 62
     7
  5
12C
 10
230.9405
 20
-50.830417
 30
0.0
 11
231.9405
 21
-50.830417
 31
0.0
  0
LINE
  8
1
  6
CONTINUOUS
 62
     7
  5
12D
 10
231.4405
 20
-50.330417
 30
0.0
 11
231.4405
 21
-51.330417
 31
0.0
  0
CIRCLE
  8
1
  6
CONTINUOUS
 62
    92
  5
12E
 10
231.4405
 20
-50.830417
 30
0.0
 40
1.0
210
0.0
220
0.0
230
1.0
  0
LINE
  8
1
  6
CONTINUOUS
 62
     7
  5
12F
 10
233.4405
 20
-50.830417
 30
0.0
 11
257.4405
 21
-50.830417
 31
0.0
  0
LINE
  8
1
  6
CONTINUOUS
 62
     7
  5
130
 10
225.4405
 20
-50.830417
 30
0.0
 11
229.4405
 21
-50.830417
 31
0.0
  0
LINE
  8
1
  6
CONTINUOUS
 62
     7
  5
131
 10
162.4405
 20
-52.830417
 30
0.0
 11
162.4405
 21
-56.830417
 31
0.0
  0
LINE
  8
1
  6
CONTINUOUS
 62
     7
  5
132
 10
231.4405
 20
-52.830417
 30
0.0
 11
231.4405
 21
-56.830417
 31
0.0
  0
LINE
  8
1
  6
CONTINUOUS
 62
     7
  5
133
 10
162.4405
 20
4.169583
 30
0.0
 11
196.9405
 21
4.169583
 31
0.0
  0
LINE
  8
1
  6
CONTINUOUS
 62
     7
  5
134
 10
196.9405
 20
4.169583
 30
0.0
 11
231.4405
 21
4.169583
 31
0.0
  0
LINE
  8
1
  6
CONTINUOUS
 62
     7
  5
135
 10
256.4405
 20
-17.830417
 30
0.0
 11
256.4405
 21
-34.330417
 31
0.0
  0
LINE
  8
1
  6
CONTINUOUS
 62
     7
  5
136
 10
256.4405
 20
-34.330417
 30
0.0
 11
256.4405
 21
-50.830417
 31
0.0
  0
INSERT
  8
1
  6
CONTINUOUS
 62
     1
  5
137
  2
LDR
 10
162.4405
 20
4.169583
 30
0.0
 41
240.0
 42
240.0
 50
180.0
210
0.0
220
0.0
230
1.0
  0
INSERT
  8
1
  6
CONTINUOUS
 62
     1
  5
138
  2
LDR
 10
162.4405
 20
4.169583
 30
0.0
 41
240.0
 42
240.0
 50
180.0
210
0.0
220
0.0
230
1.0
  0
INSERT
  8
1
  6
CONTINUOUS
 62
     1
  5
139
  2
LDR
 10
196.9405
 20
4.169583
 30
0.0
 41
240.0
 42
240.0
210
0.0
220
0.0
230
1.0
  0
INSERT
  8
1
  6
CONTINUOUS
 62
     1
  5
13A
  2
LDR
 10
196.9405
 20
4.169583
 30
0.0
 41
240.0
 42
240.0
210
0.0
220
0.0
230
1.0
  0
INSERT
  8
1
  6
CONTINUOUS
 62
     1
  5
13B
  2
LDR
 10
196.9405
 20
4.169583
 30
0.0
 41
240.0
 42
240.0
 50
180.0
210
0.0
220
0.0
230
1.0
  0
INSERT
  8
1
  6
CONTINUOUS
 62
     1
  5
13C
  2
LDR
 10
196.9405
 20
4.169583
 30
0.0
 41
240.0
 42
240.0
 50
180.0
210
0.0
220
0.0
230
1.0
  0
INSERT
  8
1
  6
CONTINUOUS
 62
     1
  5
13D
  2
LDR
 10
231.4405
 20
4.169583
 30
0.0
 41
240.0
 42
240.0
210
0.0
220
0.0
230
1.0
  0
INSERT
  8
1
  6
CONTINUOUS
 62
     1
  5
13E
  2
LDR
 10
231.4405
 20
4.169583
 30
0.0
 41
240.0
 42
240.0
210
0.0
220
0.0
230
1.0
  0
INSERT
  8
1
  6
CONTINUOUS
 62
     1
  5
13F
  2
LDR
 10
256.4405
 20
-17.830417
 30
0.0
 41
240.0
 42
240.0
 50
90.0
210
0.0
220
0.0
230
1.0
  0
INSERT
  8
1
  6
CONTINUOUS
 62
     1
  5
140
  2
LDR
 10
256.4405
 20
-34.330417
 30
0.0
 41
240.0
 42
240.0
 50
270.0
210
0.0
220
0.0
230
1.0
  0
INSERT
  8
1
  6
CONTINUOUS
 62
     1
  5
141
  2
LDR
 10
256.4405
 20
-34.330417
 30
0.0
 41
240.0
 42
240.0
 50
270.0
210
0.0
220
0.0
230
1.0
  0
INSERT
  8
1
  6
CONTINUOUS
 62
     1
  5
142
  2
LDR
 10
256.4405
 20
-34.330417
 30
0.0
 41
240.0
 42
240.0
 50
90.0
210
0.0
220
0.0
230
1.0
  0
INSERT
  8
1
  6
CONTINUOUS
 62
     1
  5
143
  2
LDR
 10
256.4405
 20
-50.830417
 30
0.0
 41
240.0
 42
240.0
 50
270.0
210
0.0
220
0.0
230
1.0
  0
LINE
  8
1
  6
CONTINUOUS
 62
    92
  5
144
 10
-9.5595
 20
-167.330417
 30
0.0
 11
76.4405
 21
-167.330417
 31
0.0
  0
LINE
  8
1
  6
CONTINUOUS
 62
    92
  5
145
 10
76.4405
 20
-167.330417
 30
0.0
 11
76.4405
 21
-217.330417
 31
0.0
  0
LINE
  8
1
  6
CONTINUOUS
 62
    92
  5
146
 10
76.4405
 20
-217.330417
 30
0.0
 11
-9.5595
 21
-217.330417
 31
0.0
  0
LINE
  8
1
  6
CONTINUOUS
 62
    92
  5
147
 10
-9.5595
 20
-217.330417
 30
0.0
 11
-9.5595
 21
-167.330417
 31
0.0
  0
CIRCLE
  8
1
  6
CONTINUOUS
 62
    92
  5
148
 10
33.4405
 20
-175.330417
 30
0.0
 40
1.0
210
0.0
220
0.0
230
1.0
  0
CIRCLE
  8
1
  6
CONTINUOUS
 62
    92
  5
149
 10
-3.5595
 20
-192.330417
 30
0.0
 40
1.0
210
0.0
220
0.0
230
1.0
  0
CIRCLE
  8
1
  6
CONTINUOUS
 62
    92
  5
14A
 10
33.4405
 20
-209.330417
 30
0.0
 40
1.0
210
0.0
220
0.0
230
1.0
  0
CIRCLE
  8
1
  6
CONTINUOUS
 62
    92
  5
14B
 10
70.4405
 20
-192.330417
 30
0.0
 40
1.0
210
0.0
220
0.0
230
1.0
  0
LINE
  8
1
  6
CONTINUOUS
 62
     7
  5
14C
 10
-3.5595
 20
-228.830417
 30
0.0
 11
33.4405
 21
-228.830417
 31
0.0
  0
LINE
  8
1
  6
CONTINUOUS
 62
     7
  5
14D
 10
33.4405
 20
-228.830417
 30
0.0
 11
70.4405
 21
-228.830417
 31
0.0
  0
LINE
  8
1
  6
CONTINUOUS
 62
     7
  5
14E
 10
87.9405
 20
-209.330417
 30
0.0
 11
87.9405
 21
-192.330417
 31
0.0
  0
LINE
  8
1
  6
CONTINUOUS
 62
     7
  5
14F
 10
87.9405
 20
-192.330417
 30
0.0
 11
87.9405
 21
-175.330417
 31
0.0
  0
LINE
  8
1
  6
CONTINUOUS
 62
     7
  5
150
 10
-3.5595
 20
-186.330417
 30
0.0
 11
-3.5595
 21
-190.330417
 31
0.0
  0
LINE
  8
1
  6
CONTINUOUS
 62
     7
  5
151
 10
-22.0595
 20
-192.330417
 30
0.0
 11
-5.5595
 21
-192.330417
 31
0.0
  0
LINE
  8
1
  6
CONTINUOUS
 62
     7
  5
152
 10
-3.5595
 20
-191.830417
 30
0.0
 11
-3.5595
 21
-192.830417
 31
0.0
  0
LINE
  8
1
  6
CONTINUOUS
 62
     7
  5
153
 10
-4.0595
 20
-192.330417
 30
0.0
 11
-3.0595
 21
-192.330417
 31
0.0
  0
LINE
  8
1
  6
CONTINUOUS
 62
     7
  5
154
 10
32.9405
 20
-175.330417
 30
0.0
 11
33.9405
 21
-175.330417
 31
0.0
  0
LINE
  8
1
  6
CONTINUOUS
 62
     7
  5
155
 10
33.4405
 20
-154.830417
 30
0.0
 11
33.4405
 21
-173.330417
 31
0.0
  0
LINE
  8
1
  6
CONTINUOUS
 62
     7
  5
156
 10
33.4405
 20
-174.830417
 30
0.0
 11
33.4405
 21
-175.830417
 31
0.0
  0
LINE
  8
1
  6
CONTINUOUS
 62
     7
  5
157
 10
31.4405
 20
-175.330417
 30
0.0
 11
27.4405
 21
-175.330417
 31
0.0
  0
LINE
  8
1
  6
CONTINUOUS
 62
     7
  5
158
 10
70.4405
 20
-186.330417
 30
0.0
 11
70.4405
 21
-190.330417
 31
0.0
  0
LINE
  8
1
  6
CONTINUOUS
 62
     7
  5
159
 10
70.4405
 20
-191.830417
 30
0.0
 11
70.4405
 21
-192.830417
 31
0.0
  0
LINE
  8
1
  6
CONTINUOUS
 62
     7
  5
15A
 10
69.9405
 20
-192.330417
 30
0.0
 11
70.9405
 21
-192.330417
 31
0.0
  0
LINE
  8
1
  6
CONTINUOUS
 62
     7
  5
15B
 10
72.4405
 20
-192.330417
 30
0.0
 11
88.9405
 21
-192.330417
 31
0.0
  0
LINE
  8
1
  6
CONTINUOUS
 62
     7
  5
15C
 10
27.4405
 20
-209.330417
 30
0.0
 11
31.4405
 21
-209.330417
 31
0.0
  0
LINE
  8
1
  6
CONTINUOUS
 62
     7
  5
15D
 10
32.9405
 20
-209.330417
 30
0.0
 11
33.9405
 21
-209.330417
 31
0.0
  0
LINE
  8
1
  6
CONTINUOUS
 62
     7
  5
15E
 10
33.4405
 20
-208.830417
 30
0.0
 11
33.4405
 21
-209.830417
 31
0.0
  0
LINE
  8
1
  6
CONTINUOUS
 62
     7
  5
15F
 10
33.4405
 20
-211.330417
 30
0.0
 11
33.4405
 21
-229.830417
 31
0.0
  0
LINE
  8
1
  6
CONTINUOUS
 62
     7
  5
160
 10
-9.5595
 20
-166.330417
 30
0.0
 11
-9.5595
 21
-154.830417
 31
0.0
  0
LINE
  8
1
  6
CONTINUOUS
 62
     7
  5
161
 10
-10.5595
 20
-167.330417
 30
0.0
 11
-22.0595
 21
-167.330417
 31
0.0
  0
LINE
  8
1
  6
CONTINUOUS
 62
     7
  5
162
 10
-9.5595
 20
-155.830417
 30
0.0
 11
33.4405
 21
-155.830417
 31
0.0
  0
LINE
  8
1
  6
CONTINUOUS
 62
     7
  5
163
 10
-21.0595
 20
-167.330417
 30
0.0
 11
-21.0595
 21
-192.330417
 31
0.0
  0
LINE
  8
1
  6
CONTINUOUS
 62
     7
  5
164
 10
33.4405
 20
-177.330417
 30
0.0
 11
33.4405
 21
-190.330417
 31
0.0
  0
LINE
  8
1
  6
CONTINUOUS
 62
     7
  5
165
 10
33.4405
 20
-194.330417
 30
0.0
 11
33.4405
 21
-207.330417
 31
0.0
  0
LINE
  8
1
  6
CONTINUOUS
 62
     7
  5
166
 10
32.4405
 20
-192.330417
 30
0.0
 11
34.4405
 21
-192.330417
 31
0.0
  0
LINE
  8
1
  6
CONTINUOUS
 62
     7
  5
167
 10
33.4405
 20
-191.330417
 30
0.0
 11
33.4405
 21
-193.330417
 31
0.0
  0
LINE
  8
1
  6
CONTINUOUS
 62
     7
  5
168
 10
-1.5595
 20
-192.330417
 30
0.0
 11
12.9405
 21
-192.330417
 31
0.0
  0
LINE
  8
1
  6
CONTINUOUS
 62
     7
  5
169
 10
13.9405
 20
-192.330417
 30
0.0
 11
15.9405
 21
-192.330417
 31
0.0
  0
LINE
  8
1
  6
CONTINUOUS
 62
     7
  5
16A
 10
16.9405
 20
-192.330417
 30
0.0
 11
31.4405
 21
-192.330417
 31
0.0
  0
LINE
  8
1
  6
CONTINUOUS
 62
     7
  5
16B
 10
35.4405
 20
-192.330417
 30
0.0
 11
49.9405
 21
-192.330417
 31
0.0
  0
LINE
  8
1
  6
CONTINUOUS
 62
     7
  5
16C
 10
50.9405
 20
-192.330417
 30
0.0
 11
52.9405
 21
-192.330417
 31
0.0
  0
LINE
  8
1
  6
CONTINUOUS
 62
     7
  5
16D
 10
53.9405
 20
-192.330417
 30
0.0
 11
68.4405
 21
-192.330417
 31
0.0
  0
LINE
  8
1
  6
CONTINUOUS
 62
     7
  5
16E
 10
35.4405
 20
-209.330417
 30
0.0
 11
68.4405
 21
-209.330417
 31
0.0
  0
LINE
  8
1
  6
CONTINUOUS
 62
     7
  5
16F
 10
72.4405
 20
-209.330417
 30
0.0
 11
88.9405
 21
-209.330417
 31
0.0
  0
LINE
  8
1
  6
CONTINUOUS
 62
     7
  5
170
 10
70.4405
 20
-194.330417
 30
0.0
 11
70.4405
 21
-207.330417
 31
0.0
  0
LINE
  8
1
  6
CONTINUOUS
 62
     7
  5
171
 10
70.4405
 20
-211.330417
 30
0.0
 11
70.4405
 21
-229.830417
 31
0.0
  0
LINE
  8
1
  6
CONTINUOUS
 62
     7
  5
172
 10
70.4405
 20
-208.330417
 30
0.0
 11
70.4405
 21
-210.330417
 31
0.0
  0
LINE
  8
1
  6
CONTINUOUS
 62
     7
  5
173
 10
69.4405
 20
-209.330417
 30
0.0
 11
71.4405
 21
-209.330417
 31
0.0
  0
LINE
  8
1
  6
CONTINUOUS
 62
     7
  5
174
 10
-3.5595
 20
-217.330417
 30
0.0
 11
-3.5595
 21
-229.830417
 31
0.0
  0
LINE
  8
1
  6
CONTINUOUS
 62
     7
  5
175
 10
-3.5595
 20
-194.330417
 30
0.0
 11
-3.5595
 21
-203.830417
 31
0.0
  0
LINE
  8
1
  6
CONTINUOUS
 62
     7
  5
176
 10
-3.5595
 20
-204.830417
 30
0.0
 11
-3.5595
 21
-206.830417
 31
0.0
  0
LINE
  8
1
  6
CONTINUOUS
 62
     7
  5
177
 10
-3.5595
 20
-207.830417
 30
0.0
 11
-3.5595
 21
-217.330417
 31
0.0
  0
INSERT
  8
1
  6
CONTINUOUS
 62
     1
  5
178
  2
LDR
 10
-9.5595
 20
-155.830417
 30
0.0
 41
240.0
 42
240.0
 50
180.0
210
0.0
220
0.0
230
1.0
  0
INSERT
  8
1
  6
CONTINUOUS
 62
     1
  5
179
  2
LDR
 10
-9.5595
 20
-155.830417
 30
0.0
 41
240.0
 42
240.0
 50
180.0
210
0.0
220
0.0
230
1.0
  0
INSERT
  8
1
  6
CONTINUOUS
 62
     1
  5
17A
  2
LDR
 10
33.4405
 20
-155.830417
 30
0.0
 41
240.0
 42
240.0
210
0.0
220
0.0
230
1.0
  0
INSERT
  8
1
  6
CONTINUOUS
 62
     1
  5
17B
  2
LDR
 10
33.4405
 20
-155.830417
 30
0.0
 41
240.0
 42
240.0
210
0.0
220
0.0
230
1.0
  0
INSERT
  8
1
  6
CONTINUOUS
 62
     1
  5
17C
  2
LDR
 10
-21.0595
 20
-167.330417
 30
0.0
 41
240.0
 42
240.0
 50
90.0
210
0.0
220
0.0
230
1.0
  0
INSERT
  8
1
  6
CONTINUOUS
 62
     1
  5
17D
  2
LDR
 10
-21.0595
 20
-167.330417
 30
0.0
 41
240.0
 42
240.0
 50
90.0
210
0.0
220
0.0
230
1.0
  0
INSERT
  8
1
  6
CONTINUOUS
 62
     1
  5
17E
  2
LDR
 10
-21.0595
 20
-192.330417
 30
0.0
 41
240.0
 42
240.0
 50
270.0
210
0.0
220
0.0
230
1.0
  0
INSERT
  8
1
  6
CONTINUOUS
 62
     1
  5
17F
  2
LDR
 10
-21.0595
 20
-192.330417
 30
0.0
 41
240.0
 42
240.0
 50
270.0
210
0.0
220
0.0
230
1.0
  0
INSERT
  8
1
  6
CONTINUOUS
 62
     1
  5
180
  2
LDR
 10
87.9405
 20
-175.330417
 30
0.0
 41
240.0
 42
240.0
 50
90.0
210
0.0
220
0.0
230
1.0
  0
INSERT
  8
1
  6
CONTINUOUS
 62
     1
  5
181
  2
LDR
 10
87.9405
 20
-175.330417
 30
0.0
 41
240.0
 42
240.0
 50
90.0
210
0.0
220
0.0
230
1.0
  0
INSERT
  8
1
  6
CONTINUOUS
 62
     1
  5
182
  2
LDR
 10
87.9405
 20
-209.330417
 30
0.0
 41
240.0
 42
240.0
 50
270.0
210
0.0
220
0.0
230
1.0
  0
INSERT
  8
1
  6
CONTINUOUS
 62
     1
  5
183
  2
LDR
 10
87.9405
 20
-209.330417
 30
0.0
 41
240.0
 42
240.0
 50
270.0
210
0.0
220
0.0
230
1.0
  0
INSERT
  8
1
  6
CONTINUOUS
 62
     1
  5
184
  2
LDR
 10
-3.5595
 20
-228.830417
 30
0.0
 41
240.0
 42
240.0
 50
180.0
210
0.0
220
0.0
230
1.0
  0
INSERT
  8
1
  6
CONTINUOUS
 62
     1
  5
185
  2
LDR
 10
-3.5595
 20
-228.830417
 30
0.0
 41
240.0
 42
240.0
 50
180.0
210
0.0
220
0.0
230
1.0
  0
INSERT
  8
1
  6
CONTINUOUS
 62
     1
  5
186
  2
LDR
 10
-3.5595
 20
-228.830417
 30
0.0
 41
240.0
 42
240.0
 50
180.0
210
0.0
220
0.0
230
1.0
  0
INSERT
  8
1
  6
CONTINUOUS
 62
     1
  5
187
  2
LDR
 10
33.4405
 20
-228.830417
 30
0.0
 41
240.0
 42
240.0
210
0.0
220
0.0
230
1.0
  0
INSERT
  8
1
  6
CONTINUOUS
 62
     1
  5
188
  2
LDR
 10
33.4405
 20
-228.830417
 30
0.0
 41
240.0
 42
240.0
210
0.0
220
0.0
230
1.0
  0
INSERT
  8
1
  6
CONTINUOUS
 62
     1
  5
189
  2
LDR
 10
33.4405
 20
-228.830417
 30
0.0
 41
240.0
 42
240.0
 50
180.0
210
0.0
220
0.0
230
1.0
  0
INSERT
  8
1
  6
CONTINUOUS
 62
     1
  5
18A
  2
LDR
 10
33.4405
 20
-228.830417
 30
0.0
 41
240.0
 42
240.0
 50
180.0
210
0.0
220
0.0
230
1.0
  0
INSERT
  8
1
  6
CONTINUOUS
 62
     1
  5
18B
  2
LDR
 10
70.4405
 20
-228.830417
 30
0.0
 41
240.0
 42
240.0
210
0.0
220
0.0
230
1.0
  0
LINE
  8
1
  6
CONTINUOUS
 62
     7
  5
18C
 10
76.4405
 20
-175.330417
 30
0.0
 11
88.9405
 21
-175.330417
 31
0.0
  0
LINE
  8
1
  6
CONTINUOUS
 62
     7
  5
18D
 10
35.4405
 20
-175.330417
 30
0.0
 11
53.9405
 21
-175.330417
 31
0.0
  0
LINE
  8
1
  6
CONTINUOUS
 62
     7
  5
18E
 10
54.9405
 20
-175.330417
 30
0.0
 11
56.9405
 21
-175.330417
 31
0.0
  0
LINE
  8
1
  6
CONTINUOUS
 62
     7
  5
18F
 10
57.9405
 20
-175.330417
 30
0.0
 11
76.4405
 21
-175.330417
 31
0.0
  0
LINE
  8
1
  6
CONTINUOUS
 62
    92
  5
190
 10
152.4405
 20
-183.330417
 30
0.0
 11
152.4405
 21
-201.330417
 31
0.0
  0
LINE
  8
1
  6
CONTINUOUS
 62
    92
  5
191
 10
241.4405
 20
-183.330417
 30
0.0
 11
241.4405
 21
-201.330417
 31
0.0
  0
LINE
  8
1
  6
CONTINUOUS
 62
    92
  5
192
 10
152.4405
 20
-183.330417
 30
0.0
 11
241.4405
 21
-183.330417
 31
0.0
  0
LINE
  8
1
  6
CONTINUOUS
 62
    92
  5
193
 10
152.4405
 20
-201.330417
 30
0.0
 11
241.4405
 21
-201.330417
 31
0.0
  0
CIRCLE
  8
1
  6
CONTINUOUS
 62
    92
  5
194
 10
156.4405
 20
-192.330417
 30
0.0
 40
1.0
210
0.0
220
0.0
230
1.0
  0
LINE
  8
1
  6
CONTINUOUS
 62
     7
  5
195
 10
140.4405
 20
-192.330417
 30
0.0
 11
154.4405
 21
-192.330417
 31
0.0
  0
LINE
  8
1
  6
CONTINUOUS
 62
     7
  5
196
 10
155.9405
 20
-192.330417
 30
0.0
 11
156.4405
 21
-192.330417
 31
0.0
  0
LINE
  8
1
  6
CONTINUOUS
 62
     7
  5
197
 10
156.4405
 20
-191.830417
 30
0.0
 11
156.4405
 21
-192.330417
 31
0.0
  0
LINE
  8
1
  6
CONTINUOUS
 62
     7
  5
198
 10
156.4405
 20
-192.330417
 30
0.0
 11
156.9405
 21
-192.330417
 31
0.0
  0
LINE
  8
1
  6
CONTINUOUS
 62
     7
  5
199
 10
158.4405
 20
-192.330417
 30
0.0
 11
194.9405
 21
-192.330417
 31
0.0
  0
LINE
  8
1
  6
CONTINUOUS
 62
     7
  5
19A
 10
156.4405
 20
-192.330417
 30
0.0
 11
156.4405
 21
-192.830417
 31
0.0
  0
LINE
  8
1
  6
CONTINUOUS
 62
     7
  5
19B
 10
156.4405
 20
-194.330417
 30
0.0
 11
156.4405
 21
-213.330417
 31
0.0
  0
LINE
  8
1
  6
CONTINUOUS
 62
     7
  5
19C
 10
156.4405
 20
-190.330417
 30
0.0
 11
156.4405
 21
-186.330417
 31
0.0
  0
LINE
  8
1
  6
CONTINUOUS
 62
     7
  5
19D
 10
235.4405
 20
-192.330417
 30
0.0
 11
198.9405
 21
-192.330417
 31
0.0
  0
CIRCLE
  8
1
  6
CONTINUOUS
 62
    92
  5
19E
 10
237.4405
 20
-192.330417
 30
0.0
 40
1.0
210
0.0
220
0.0
230
1.0
  0
LINE
  8
1
  6
CONTINUOUS
 62
     7
  5
19F
 10
253.4405
 20
-192.330417
 30
0.0
 11
239.4405
 21
-192.330417
 31
0.0
  0
LINE
  8
1
  6
CONTINUOUS
 62
     7
  5
1A0
 10
237.9405
 20
-192.330417
 30
0.0
 11
237.4405
 21
-192.330417
 31
0.0
  0
LINE
  8
1
  6
CONTINUOUS
 62
     7
  5
1A1
 10
237.4405
 20
-191.830417
 30
0.0
 11
237.4405
 21
-192.330417
 31
0.0
  0
LINE
  8
1
  6
CONTINUOUS
 62
     7
  5
1A2
 10
237.4405
 20
-192.330417
 30
0.0
 11
236.9405
 21
-192.330417
 31
0.0
  0
LINE
  8
1
  6
CONTINUOUS
 62
     7
  5
1A3
 10
237.4405
 20
-192.330417
 30
0.0
 11
237.4405
 21
-192.830417
 31
0.0
  0
LINE
  8
1
  6
CONTINUOUS
 62
     7
  5
1A4
 10
237.4405
 20
-190.330417
 30
0.0
 11
237.4405
 21
-187.830417
 31
0.0
  0
CIRCLE
  8
1
  6
CONTINUOUS
 62
    92
  5
1A5
 10
196.9405
 20
-187.330417
 30
0.0
 40
1.0
210
0.0
220
0.0
230
1.0
  0
LINE
  8
1
  6
CONTINUOUS
 62
     7
  5
1A6
 10
196.9405
 20
-185.330417
 30
0.0
 11
196.9405
 21
-171.330417
 31
0.0
  0
LINE
  8
1
  6
CONTINUOUS
 62
     7
  5
1A7
 10
196.4405
 20
-187.330417
 30
0.0
 11
196.9405
 21
-187.330417
 31
0.0
  0
LINE
  8
1
  6
CONTINUOUS
 62
     7
  5
1A8
 10
196.9405
 20
-187.830417
 30
0.0
 11
196.9405
 21
-187.330417
 31
0.0
  0
LINE
  8
1
  6
CONTINUOUS
 62
     7
  5
1A9
 10
196.9405
 20
-187.330417
 30
0.0
 11
197.4405
 21
-187.330417
 31
0.0
  0
LINE
  8
1
  6
CONTINUOUS
 62
     7
  5
1AA
 10
196.9405
 20
-187.330417
 30
0.0
 11
196.9405
 21
-186.830417
 31
0.0
  0
LINE
  8
1
  6
CONTINUOUS
 62
     7
  5
1AB
 10
196.9405
 20
-191.330417
 30
0.0
 11
196.9405
 21
-193.330417
 31
0.0
  0
LINE
  8
1
  6
CONTINUOUS
 62
     7
  5
1AC
 10
194.9405
 20
-187.330417
 30
0.0
 11
190.9405
 21
-187.330417
 31
0.0
  0
LINE
  8
1
  6
CONTINUOUS
 62
     7
  5
1AD
 10
197.9405
 20
-192.330417
 30
0.0
 11
195.9405
 21
-192.330417
 31
0.0
  0
LINE
  8
1
  6
CONTINUOUS
 62
     7
  5
1AE
 10
196.9405
 20
-190.330417
 30
0.0
 11
196.9405
 21
-189.330417
 31
0.0
  0
CIRCLE
  8
1
  6
CONTINUOUS
 62
    92
  5
1AF
 10
196.9405
 20
-197.330417
 30
0.0
 40
1.0
210
0.0
220
0.0
230
1.0
  0
LINE
  8
1
  6
CONTINUOUS
 62
     7
  5
1B0
 10
196.9405
 20
-199.330417
 30
0.0
 11
196.9405
 21
-213.330417
 31
0.0
  0
LINE
  8
1
  6
CONTINUOUS
 62
     7
  5
1B1
 10
196.4405
 20
-197.330417
 30
0.0
 11
196.9405
 21
-197.330417
 31
0.0
  0
LINE
  8
1
  6
CONTINUOUS
 62
     7
  5
1B2
 10
196.9405
 20
-196.830417
 30
0.0
 11
196.9405
 21
-197.330417
 31
0.0
  0
LINE
  8
1
  6
CONTINUOUS
 62
     7
  5
1B3
 10
196.9405
 20
-197.330417
 30
0.0
 11
197.4405
 21
-197.330417
 31
0.0
  0
LINE
  8
1
  6
CONTINUOUS
 62
     7
  5
1B4
 10
196.9405
 20
-197.330417
 30
0.0
 11
196.9405
 21
-197.830417
 31
0.0
  0
LINE
  8
1
  6
CONTINUOUS
 62
     7
  5
1B5
 10
194.9405
 20
-197.330417
 30
0.0
 11
190.9405
 21
-197.330417
 31
0.0
  0
LINE
  8
1
  6
CONTINUOUS
 62
     7
  5
1B6
 10
196.9405
 20
-194.330417
 30
0.0
 11
196.9405
 21
-195.330417
 31
0.0
  0
LINE
  8
1
  6
CONTINUOUS
 62
     7
  5
1B7
 10
241.4405
 20
-187.330417
 30
0.0
 11
253.4405
 21
-187.330417
 31
0.0
  0
LINE
  8
1
  6
CONTINUOUS
 62
     7
  5
1B8
 10
198.9405
 20
-187.330417
 30
0.0
 11
218.1905
 21
-187.330417
 31
0.0
  0
LINE
  8
1
  6
CONTINUOUS
 62
     7
  5
1B9
 10
219.1905
 20
-187.330417
 30
0.0
 11
221.1905
 21
-187.330417
 31
0.0
  0
LINE
  8
1
  6
CONTINUOUS
 62
     7
  5
1BA
 10
222.1905
 20
-187.330417
 30
0.0
 11
241.4405
 21
-187.330417
 31
0.0
  0
LINE
  8
1
  6
CONTINUOUS
 62
     7
  5
1BB
 10
198.9405
 20
-197.330417
 30
0.0
 11
235.4405
 21
-197.330417
 31
0.0
  0
LINE
  8
1
  6
CONTINUOUS
 62
     7
  5
1BC
 10
239.4405
 20
-197.330417
 30
0.0
 11
253.4405
 21
-197.330417
 31
0.0
  0
LINE
  8
1
  6
CONTINUOUS
 62
     7
  5
1BD
 10
237.4405
 20
-194.330417
 30
0.0
 11
237.4405
 21
-195.330417
 31
0.0
  0
LINE
  8
1
  6
CONTINUOUS
 62
     7
  5
1BE
 10
237.4405
 20
-199.330417
 30
0.0
 11
237.4405
 21
-213.330417
 31
0.0
  0
LINE
  8
1
  6
CONTINUOUS
 62
     7
  5
1BF
 10
236.4405
 20
-197.330417
 30
0.0
 11
238.4405
 21
-197.330417
 31
0.0
  0
LINE
  8
1
  6
CONTINUOUS
 62
     7
  5
1C0
 10
237.4405
 20
-196.330417
 30
0.0
 11
237.4405
 21
-198.330417
 31
0.0
  0
LINE
  8
1
  6
CONTINUOUS
 62
     7
  5
1C1
 10
152.4405
 20
-182.330417
 30
0.0
 11
152.4405
 21
-171.330417
 31
0.0
  0
LINE
  8
1
  6
CONTINUOUS
 62
     7
  5
1C2
 10
151.4405
 20
-201.330417
 30
0.0
 11
140.4405
 21
-201.330417
 31
0.0
  0
LINE
  8
1
  6
CONTINUOUS
 62
     7
  5
1C3
 10
152.4405
 20
-172.330417
 30
0.0
 11
196.9405
 21
-172.330417
 31
0.0
  0
LINE
  8
1
  6
CONTINUOUS
 62
     7
  5
1C4
 10
156.4405
 20
-212.330417
 30
0.0
 11
196.9405
 21
-212.330417
 31
0.0
  0
LINE
  8
1
  6
CONTINUOUS
 62
     7
  5
1C5
 10
196.9405
 20
-212.330417
 30
0.0
 11
237.4405
 21
-212.330417
 31
0.0
  0
LINE
  8
1
  6
CONTINUOUS
 62
     7
  5
1C6
 10
252.4405
 20
-197.330417
 30
0.0
 11
252.4405
 21
-192.330417
 31
0.0
  0
LINE
  8
1
  6
CONTINUOUS
 62
     7
  5
1C7
 10
252.4405
 20
-192.330417
 30
0.0
 11
252.4405
 21
-187.330417
 31
0.0
  0
LINE
  8
1
  6
CONTINUOUS
 62
     7
  5
1C8
 10
141.4405
 20
-192.330417
 30
0.0
 11
141.4405
 21
-201.330417
 31
0.0
  0
INSERT
  8
1
  6
CONTINUOUS
 62
     1
  5
1C9
  2
LDR
 10
152.4405
 20
-172.330417
 30
0.0
 41
240.0
 42
240.0
 50
180.0
210
0.0
220
0.0
230
1.0
  0
INSERT
  8
1
  6
CONTINUOUS
 62
     1
  5
1CA
  2
LDR
 10
152.4405
 20
-172.330417
 30
0.0
 41
240.0
 42
240.0
 50
180.0
210
0.0
220
0.0
230
1.0
  0
INSERT
  8
1
  6
CONTINUOUS
 62
     1
  5
1CB
  2
LDR
 10
196.9405
 20
-172.330417
 30
0.0
 41
240.0
 42
240.0
210
0.0
220
0.0
230
1.0
  0
INSERT
  8
1
  6
CONTINUOUS
 62
     1
  5
1CC
  2
LDR
 10
196.9405
 20
-172.330417
 30
0.0
 41
240.0
 42
240.0
210
0.0
220
0.0
230
1.0
  0
INSERT
  8
1
  6
CONTINUOUS
 62
     1
  5
1CD
  2
LDR
 10
141.4405
 20
-192.330417
 30
0.0
 41
240.0
 42
240.0
 50
90.0
210
0.0
220
0.0
230
1.0
  0
INSERT
  8
1
  6
CONTINUOUS
 62
     1
  5
1CE
  2
LDR
 10
141.4405
 20
-192.330417
 30
0.0
 41
240.0
 42
240.0
 50
90.0
210
0.0
220
0.0
230
1.0
  0
INSERT
  8
1
  6
CONTINUOUS
 62
     1
  5
1CF
  2
LDR
 10
141.4405
 20
-201.330417
 30
0.0
 41
240.0
 42
240.0
 50
270.0
210
0.0
220
0.0
230
1.0
  0
INSERT
  8
1
  6
CONTINUOUS
 62
     1
  5
1D0
  2
LDR
 10
141.4405
 20
-201.330417
 30
0.0
 41
240.0
 42
240.0
 50
270.0
210
0.0
220
0.0
230
1.0
  0
INSERT
  8
1
  6
CONTINUOUS
 62
     1
  5
1D1
  2
LDR
 10
156.4405
 20
-212.330417
 30
0.0
 41
240.0
 42
240.0
 50
180.0
210
0.0
220
0.0
230
1.0
  0
INSERT
  8
1
  6
CONTINUOUS
 62
     1
  5
1D2
  2
LDR
 10
156.4405
 20
-212.330417
 30
0.0
 41
240.0
 42
240.0
 50
180.0
210
0.0
220
0.0
230
1.0
  0
INSERT
  8
1
  6
CONTINUOUS
 62
     1
  5
1D3
  2
LDR
 10
196.9405
 20
-212.330417
 30
0.0
 41
240.0
 42
240.0
210
0.0
220
0.0
230
1.0
  0
INSERT
  8
1
  6
CONTINUOUS
 62
     1
  5
1D4
  2
LDR
 10
196.9405
 20
-212.330417
 30
0.0
 41
240.0
 42
240.0
210
0.0
220
0.0
230
1.0
  0
INSERT
  8
1
  6
CONTINUOUS
 62
     1
  5
1D5
  2
LDR
 10
196.9405
 20
-212.330417
 30
0.0
 41
240.0
 42
240.0
 50
180.0
210
0.0
220
0.0
230
1.0
  0
INSERT
  8
1
  6
CONTINUOUS
 62
     1
  5
1D6
  2
LDR
 10
196.9405
 20
-212.330417
 30
0.0
 41
240.0
 42
240.0
 50
180.0
210
0.0
220
0.0
230
1.0
  0
INSERT
  8
1
  6
CONTINUOUS
 62
     1
  5
1D7
  2
LDR
 10
237.4405
 20
-212.330417
 30
0.0
 41
240.0
 42
240.0
210
0.0
220
0.0
230
1.0
  0
INSERT
  8
1
  6
CONTINUOUS
 62
     1
  5
1D8
  2
LDR
 10
237.4405
 20
-212.330417
 30
0.0
 41
240.0
 42
240.0
210
0.0
220
0.0
230
1.0
  0
INSERT
  8
1
  6
CONTINUOUS
 62
     1
  5
1D9
  2
LDR
 10
252.4365
 20
-192.334917
 30
0.0
 41
120.0
 42
120.0
 50
90.0
210
0.0
220
0.0
230
1.0
  0
INSERT
  8
1
  6
CONTINUOUS
 62
     1
  5
1DA
  2
LDR
 10
252.4365
 20
-187.334917
 30
0.0
 41
120.0
 42
120.0
 50
90.0
210
0.0
220
0.0
230
1.0
  0
INSERT
  8
1
  6
CONTINUOUS
 62
     1
  5
1DB
  2
LDR
 10
252.4365
 20
-192.325917
 30
0.0
 41
120.0
 42
-120.0
 50
270.0
210
0.0
220
0.0
230
1.0
  0
INSERT
  8
1
  6
CONTINUOUS
 62
     1
  5
1DC
  2
LDR
 10
252.4365
 20
-197.325917
 30
0.0
 41
120.0
 42
-120.0
 50
270.0
210
0.0
220
0.0
230
1.0
  0
LINE
  8
1
  6
CONTINUOUS
 62
    92
  5
1DD
 10
312.9405
 20
-3.330417
 30
0.0
 11
312.9405
 21
-65.330417
 31
0.0
  0
LINE
  8
1
  6
CONTINUOUS
 62
    92
  5
1DE
 10
423.9405
 20
-3.330417
 30
0.0
 11
423.9405
 21
-65.330417
 31
0.0
  0
LINE
  8
1
  6
CONTINUOUS
 62
    92
  5
1DF
 10
312.9405
 20
-3.330417
 30
0.0
 11
423.9405
 21
-3.330417
 31
0.0
  0
LINE
  8
1
  6
CONTINUOUS
 62
    92
  5
1E0
 10
312.9405
 20
-65.330417
 30
0.0
 11
423.9405
 21
-65.330417
 31
0.0
  0
LINE
  8
1
  6
CONTINUOUS
 62
     7
  5
1E1
 10
367.4405
 20
-34.330417
 30
0.0
 11
369.4405
 21
-34.330417
 31
0.0
  0
LINE
  8
1
  6
CONTINUOUS
 62
     7
  5
1E2
 10
314.9405
 20
-34.330417
 30
0.0
 11
331.9405
 21
-34.330417
 31
0.0
  0
LINE
  8
1
  6
CONTINUOUS
 62
     7
  5
1E3
 10
368.4405
 20
8.669583
 30
0.0
 11
368.4405
 21
-15.830417
 31
0.0
  0
LINE
  8
1
  6
CONTINUOUS
 62
     7
  5
1E4
 10
404.9405
 20
-34.330417
 30
0.0
 11
435.9405
 21
-34.330417
 31
0.0
  0
LINE
  8
1
  6
CONTINUOUS
 62
     7
  5
1E5
 10
368.4405
 20
-19.830417
 30
0.0
 11
368.4405
 21
-32.330417
 31
0.0
  0
LINE
  8
1
  6
CONTINUOUS
 62
     7
  5
1E6
 10
368.4405
 20
-36.330417
 30
0.0
 11
368.4405
 21
-48.830417
 31
0.0
  0
LINE
  8
1
  6
CONTINUOUS
 62
     7
  5
1E7
 10
368.4405
 20
-33.330417
 30
0.0
 11
368.4405
 21
-35.330417
 31
0.0
  0
LINE
  8
1
  6
CONTINUOUS
 62
     7
  5
1E8
 10
335.9405
 20
-34.330417
 30
0.0
 11
366.4405
 21
-34.330417
 31
0.0
  0
LINE
  8
1
  6
CONTINUOUS
 62
     7
  5
1E9
 10
370.4405
 20
-34.330417
 30
0.0
 11
400.9405
 21
-34.330417
 31
0.0
  0
LINE
  8
1
  6
CONTINUOUS
 62
     7
  5
1EA
 10
333.9405
 20
-33.330417
 30
0.0
 11
333.9405
 21
-35.330417
 31
0.0
  0
LINE
  8
1
  6
CONTINUOUS
 62
     7
  5
1EB
 10
402.9405
 20
-33.330417
 30
0.0
 11
402.9405
 21
-35.330417
 31
0.0
  0
LINE
  8
1
  6
CONTINUOUS
 62
     7
  5
1EC
 10
368.4405
 20
-17.330417
 30
0.0
 11
368.4405
 21
-18.330417
 31
0.0
  0
LINE
  8
1
  6
CONTINUOUS
 62
     7
  5
1ED
 10
332.9405
 20
-34.330417
 30
0.0
 11
334.9405
 21
-34.330417
 31
0.0
  0
LINE
  8
1
  6
CONTINUOUS
 62
     7
  5
1EE
 10
401.9405
 20
-34.330417
 30
0.0
 11
403.9405
 21
-34.330417
 31
0.0
  0
LINE
  8
1
  6
CONTINUOUS
 62
     7
  5
1EF
 10
368.4405
 20
-50.330417
 30
0.0
 11
368.4405
 21
-51.330417
 31
0.0
  0
LINE
  8
1
  6
CONTINUOUS
 62
     7
  5
1F0
 10
368.4405
 20
-52.830417
 30
0.0
 11
368.4405
 21
-77.330417
 31
0.0
  0
LINE
  8
1
  6
CONTINUOUS
 62
     7
  5
1F1
 10
334.4405
 20
-17.830417
 30
0.0
 11
333.4405
 21
-17.830417
 31
0.0
  0
LINE
  8
1
  6
CONTINUOUS
 62
     7
  5
1F2
 10
334.4405
 20
-50.830417
 30
0.0
 11
333.4405
 21
-50.830417
 31
0.0
  0
LINE
  8
1
  6
CONTINUOUS
 62
     7
  5
1F3
 10
402.4405
 20
-50.830417
 30
0.0
 11
403.4405
 21
-50.830417
 31
0.0
  0
LINE
  8
1
  6
CONTINUOUS
 62
     7
  5
1F4
 10
333.9405
 20
-50.330417
 30
0.0
 11
333.9405
 21
-51.330417
 31
0.0
  0
LINE
  8
1
  6
CONTINUOUS
 62
     7
  5
1F5
 10
402.9405
 20
-50.330417
 30
0.0
 11
402.9405
 21
-51.330417
 31
0.0
  0
LINE
  8
1
  6
CONTINUOUS
 62
     7
  5
1F6
 10
333.9405
 20
-18.330417
 30
0.0
 11
333.9405
 21
-17.330417
 31
0.0
  0
CIRCLE
  8
1
  6
CONTINUOUS
 62
    92
  5
1F7
 10
333.9405
 20
-17.830417
 30
0.0
 40
1.0
210
0.0
220
0.0
230
1.0
  0
LINE
  8
1
  6
CONTINUOUS
 62
     7
  5
1F8
 10
333.9405
 20
-15.830417
 30
0.0
 11
333.9405
 21
8.669583
 31
0.0
  0
LINE
  8
1
  6
CONTINUOUS
 62
     7
  5
1F9
 10
333.9405
 20
-19.830417
 30
0.0
 11
333.9405
 21
-32.330417
 31
0.0
  0
LINE
  8
1
  6
CONTINUOUS
 62
     7
  5
1FA
 10
331.9405
 20
-17.830417
 30
0.0
 11
327.9405
 21
-17.830417
 31
0.0
  0
LINE
  8
1
  6
CONTINUOUS
 62
     7
  5
1FB
 10
339.9405
 20
-17.830417
 30
0.0
 11
335.9405
 21
-17.830417
 31
0.0
  0
LINE
  8
1
  6
CONTINUOUS
 62
     7
  5
1FC
 10
402.9405
 20
-19.830417
 30
0.0
 11
402.9405
 21
-32.330417
 31
0.0
  0
LINE
  8
1
  6
CONTINUOUS
 62
     7
  5
1FD
 10
402.4405
 20
-17.830417
 30
0.0
 11
403.4405
 21
-17.830417
 31
0.0
  0
LINE
  8
1
  6
CONTINUOUS
 62
     7
  5
1FE
 10
402.9405
 20
-18.330417
 30
0.0
 11
402.9405
 21
-17.330417
 31
0.0
  0
CIRCLE
  8
1
  6
CONTINUOUS
 62
    92
  5
1FF
 10
402.9405
 20
-17.830417
 30
0.0
 40
1.0
210
0.0
220
0.0
230
1.0
  0
LINE
  8
1
  6
CONTINUOUS
 62
     7
  5
200
 10
402.9405
 20
-15.830417
 30
0.0
 11
402.9405
 21
8.669583
 31
0.0
  0
LINE
  8
1
  6
CONTINUOUS
 62
     7
  5
201
 10
404.9405
 20
-17.830417
 30
0.0
 11
435.9405
 21
-17.830417
 31
0.0
  0
LINE
  8
1
  6
CONTINUOUS
 62
     7
  5
202
 10
396.9405
 20
-17.830417
 30
0.0
 11
400.9405
 21
-17.830417
 31
0.0
  0
LINE
  8
1
  6
CONTINUOUS
 62
     7
  5
203
 10
333.9405
 20
-48.830417
 30
0.0
 11
333.9405
 21
-36.330417
 31
0.0
  0
LINE
  8
1
  6
CONTINUOUS
 62
     7
  5
204
 10
334.4405
 20
-50.830417
 30
0.0
 11
333.4405
 21
-50.830417
 31
0.0
  0
LINE
  8
1
  6
CONTINUOUS
 62
     7
  5
205
 10
333.9405
 20
-50.330417
 30
0.0
 11
333.9405
 21
-51.330417
 31
0.0
  0
CIRCLE
  8
1
  6
CONTINUOUS
 62
    92
  5
206
 10
333.9405
 20
-50.830417
 30
0.0
 40
1.0
210
0.0
220
0.0
230
1.0
  0
LINE
  8
1
  6
CONTINUOUS
 62
     7
  5
207
 10
331.9405
 20
-50.830417
 30
0.0
 11
327.9405
 21
-50.830417
 31
0.0
  0
LINE
  8
1
  6
CONTINUOUS
 62
     7
  5
208
 10
339.9405
 20
-50.830417
 30
0.0
 11
335.9405
 21
-50.830417
 31
0.0
  0
LINE
  8
1
  6
CONTINUOUS
 62
     7
  5
209
 10
402.9405
 20
-48.830417
 30
0.0
 11
402.9405
 21
-36.330417
 31
0.0
  0
LINE
  8
1
  6
CONTINUOUS
 62
     7
  5
20A
 10
402.4405
 20
-50.830417
 30
0.0
 11
403.4405
 21
-50.830417
 31
0.0
  0
LINE
  8
1
  6
CONTINUOUS
 62
     7
  5
20B
 10
402.9405
 20
-50.330417
 30
0.0
 11
402.9405
 21
-51.330417
 31
0.0
  0
CIRCLE
  8
1
  6
CONTINUOUS
 62
    92
  5
20C
 10
402.9405
 20
-50.830417
 30
0.0
 40
1.0
210
0.0
220
0.0
230
1.0
  0
LINE
  8
1
  6
CONTINUOUS
 62
     7
  5
20D
 10
404.9405
 20
-50.830417
 30
0.0
 11
435.9405
 21
-50.830417
 31
0.0
  0
LINE
  8
1
  6
CONTINUOUS
 62
     7
  5
20E
 10
396.9405
 20
-50.830417
 30
0.0
 11
400.9405
 21
-50.830417
 31
0.0
  0
LINE
  8
1
  6
CONTINUOUS
 62
     7
  5
20F
 10
333.9405
 20
-52.830417
 30
0.0
 11
333.9405
 21
-56.830417
 31
0.0
  0
LINE
  8
1
  6
CONTINUOUS
 62
     7
  5
210
 10
402.9405
 20
-52.830417
 30
0.0
 11
402.9405
 21
-56.830417
 31
0.0
  0
LINE
  8
1
  6
CONTINUOUS
 62
     7
  5
211
 10
366.4405
 20
-17.830417
 30
0.0
 11
362.4405
 21
-17.830417
 31
0.0
  0
LINE
  8
1
  6
CONTINUOUS
 62
     7
  5
212
 10
368.9405
 20
-17.830417
 30
0.0
 11
367.9405
 21
-17.830417
 31
0.0
  0
CIRCLE
  8
1
  6
CONTINUOUS
 62
    92
  5
213
 10
368.4405
 20
-17.830417
 30
0.0
 40
1.0
210
0.0
220
0.0
230
1.0
  0
LINE
  8
1
  6
CONTINUOUS
 62
     7
  5
214
 10
374.4405
 20
-17.830417
 30
0.0
 11
370.4405
 21
-17.830417
 31
0.0
  0
LINE
  8
1
  6
CONTINUOUS
 62
     7
  5
215
 10
368.9405
 20
-50.830417
 30
0.0
 11
367.9405
 21
-50.830417
 31
0.0
  0
LINE
  8
1
  6
CONTINUOUS
 62
     7
  5
216
 10
366.4405
 20
-50.830417
 30
0.0
 11
362.4405
 21
-50.830417
 31
0.0
  0
CIRCLE
  8
1
  6
CONTINUOUS
 62
    92
  5
217
 10
368.4405
 20
-50.830417
 30
0.0
 40
1.0
210
0.0
220
0.0
230
1.0
  0
LINE
  8
1
  6
CONTINUOUS
 62
     7
  5
218
 10
374.4405
 20
-50.830417
 30
0.0
 11
370.4405
 21
-50.830417
 31
0.0
  0
LINE
  8
1
  6
CONTINUOUS
 62
     7
  5
219
 10
312.9405
 20
-66.330417
 30
0.0
 11
312.9405
 21
-77.330417
 31
0.0
  0
LINE
  8
1
  6
CONTINUOUS
 62
     7
  5
21A
 10
312.9405
 20
-76.330417
 30
0.0
 11
368.4405
 21
-76.330417
 31
0.0
  0
LINE
  8
1
  6
CONTINUOUS
 62
     7
  5
21B
 10
333.9405
 20
7.669583
 30
0.0
 11
368.4405
 21
7.669583
 31
0.0
  0
LINE
  8
1
  6
CONTINUOUS
 62
     7
  5
21C
 10
368.4405
 20
7.669583
 30
0.0
 11
402.9405
 21
7.669583
 31
0.0
  0
LINE
  8
1
  6
CONTINUOUS
 62
     7
  5
21D
 10
434.9405
 20
-17.830417
 30
0.0
 11
434.9405
 21
-34.330417
 31
0.0
  0
LINE
  8
1
  6
CONTINUOUS
 62
     7
  5
21E
 10
434.9405
 20
-34.330417
 30
0.0
 11
434.9405
 21
-50.830417
 31
0.0
  0
INSERT
  8
1
  6
CONTINUOUS
 62
     1
  5
21F
  2
LDR
 10
333.9405
 20
7.669583
 30
0.0
 41
240.0
 42
240.0
 50
180.0
210
0.0
220
0.0
230
1.0
  0
INSERT
  8
1
  6
CONTINUOUS
 62
     1
  5
220
  2
LDR
 10
333.9405
 20
7.669583
 30
0.0
 41
240.0
 42
240.0
 50
180.0
210
0.0
220
0.0
230
1.0
  0
INSERT
  8
1
  6
CONTINUOUS
 62
     1
  5
221
  2
LDR
 10
368.4405
 20
7.669583
 30
0.0
 41
240.0
 42
240.0
210
0.0
220
0.0
230
1.0
  0
INSERT
  8
1
  6
CONTINUOUS
 62
     1
  5
222
  2
LDR
 10
368.4405
 20
7.669583
 30
0.0
 41
240.0
 42
240.0
210
0.0
220
0.0
230
1.0
  0
INSERT
  8
1
  6
CONTINUOUS
 62
     1
  5
223
  2
LDR
 10
368.4405
 20
7.669583
 30
0.0
 41
240.0
 42
240.0
 50
180.0
210
0.0
220
0.0
230
1.0
  0
INSERT
  8
1
  6
CONTINUOUS
 62
     1
  5
224
  2
LDR
 10
368.4405
 20
7.669583
 30
0.0
 41
240.0
 42
240.0
 50
180.0
210
0.0
220
0.0
230
1.0
  0
INSERT
  8
1
  6
CONTINUOUS
 62
     1
  5
225
  2
LDR
 10
402.9405
 20
7.669583
 30
0.0
 41
240.0
 42
240.0
210
0.0
220
0.0
230
1.0
  0
INSERT
  8
1
  6
CONTINUOUS
 62
     1
  5
226
  2
LDR
 10
402.9405
 20
7.669583
 30
0.0
 41
240.0
 42
240.0
210
0.0
220
0.0
230
1.0
  0
INSERT
  8
1
  6
CONTINUOUS
 62
     1
  5
227
  2
LDR
 10
434.9405
 20
-17.830417
 30
0.0
 41
240.0
 42
240.0
 50
90.0
210
0.0
220
0.0
230
1.0
  0
INSERT
  8
1
  6
CONTINUOUS
 62
     1
  5
228
  2
LDR
 10
434.9405
 20
-17.830417
 30
0.0
 41
240.0
 42
240.0
 50
90.0
210
0.0
220
0.0
230
1.0
  0
INSERT
  8
1
  6
CONTINUOUS
 62
     1
  5
229
  2
LDR
 10
434.9405
 20
-34.330417
 30
0.0
 41
240.0
 42
240.0
 50
270.0
210
0.0
220
0.0
230
1.0
  0
INSERT
  8
1
  6
CONTINUOUS
 62
     1
  5
22A
  2
LDR
 10
434.9405
 20
-34.330417
 30
0.0
 41
240.0
 42
240.0
 50
270.0
210
0.0
220
0.0
230
1.0
  0
INSERT
  8
1
  6
CONTINUOUS
 62
     1
  5
22B
  2
LDR
 10
434.9405
 20
-34.330417
 30
0.0
 41
240.0
 42
240.0
 50
90.0
210
0.0
220
0.0
230
1.0
  0
INSERT
  8
1
  6
CONTINUOUS
 62
     1
  5
22C
  2
LDR
 10
434.9405
 20
-34.330417
 30
0.0
 41
240.0
 42
240.0
 50
90.0
210
0.0
220
0.0
230
1.0
  0
INSERT
  8
1
  6
CONTINUOUS
 62
     1
  5
22D
  2
LDR
 10
434.9405
 20
-50.830417
 30
0.0
 41
240.0
 42
240.0
 50
270.0
210
0.0
220
0.0
230
1.0
  0
INSERT
  8
1
  6
CONTINUOUS
 62
     1
  5
22E
  2
LDR
 10
434.9405
 20
-50.830417
 30
0.0
 41
240.0
 42
240.0
 50
270.0
210
0.0
220
0.0
230
1.0
  0
INSERT
  8
1
  6
CONTINUOUS
 62
     1
  5
22F
  2
LDR
 10
368.4405
 20
-76.330417
 30
0.0
 41
240.0
 42
240.0
210
0.0
220
0.0
230
1.0
  0
INSERT
  8
1
  6
CONTINUOUS
 62
     1
  5
230
  2
LDR
 10
368.4405
 20
-76.330417
 30
0.0
 41
240.0
 42
240.0
210
0.0
220
0.0
230
1.0
  0
INSERT
  8
1
  6
CONTINUOUS
 62
     1
  5
231
  2
LDR
 10
312.9405
 20
-76.330417
 30
0.0
 41
240.0
 42
240.0
 50
180.0
210
0.0
220
0.0
230
1.0
  0
LINE
  8
1
  6
CONTINUOUS
 62
     1
  5
232
 10
114.357333
 20
-252.765083
 30
0.0
 11
314.357333
 21
-252.765083
 31
0.0
  0
LINE
  8
1
  6
CONTINUOUS
 62
     1
  5
233
 10
314.357333
 20
-364.765083
 30
0.0
 11
114.357333
 21
-364.765083
 31
0.0
  0
LINE
  8
1
  6
CONTINUOUS
 62
     1
  5
234
 10
114.357333
 20
-264.765083
 30
0.0
 11
314.357333
 21
-264.765083
 31
0.0
  0
LINE
  8
1
  6
CONTINUOUS
 62
     1
  5
235
 10
114.357333
 20
-334.765083
 30
0.0
 11
314.357333
 21
-334.765083
 31
0.0
  0
LINE
  8
1
  6
CONTINUOUS
 62
     1
  5
236
 10
114.357333
 20
-344.765083
 30
0.0
 11
314.357333
 21
-344.765083
 31
0.0
  0
LINE
  8
1
  6
CONTINUOUS
 62
     1
  5
237
 10
114.357333
 20
-354.765083
 30
0.0
 11
314.357333
 21
-354.765083
 31
0.0
  0
LINE
  8
1
  6
CONTINUOUS
 62
     1
  5
238
 10
114.357333
 20
-364.765083
 30
0.0
 11
114.357333
 21
-344.765083
 31
0.0
  0
LINE
  8
1
  6
CONTINUOUS
 62
     1
  5
239
 10
114.357333
 20
-334.765083
 30
0.0
 11
114.357333
 21
-252.765083
 31
0.0
  0
LINE
  8
1
  6
CONTINUOUS
 62
     1
  5
23A
 10
314.357333
 20
-252.765083
 30
0.0
 11
314.357333
 21
-334.765083
 31
0.0
  0
LINE
  8
1
  6
CONTINUOUS
 62
     1
  5
23B
 10
314.357333
 20
-344.765083
 30
0.0
 11
314.357333
 21
-364.765083
 31
0.0
  0
LINE
  8
1
  6
CONTINUOUS
 62
     1
  5
23C
 10
164.357333
 20
-314.765083
 30
0.0
 11
314.357333
 21
-314.765083
 31
0.0
  0
LINE
  8
1
  6
CONTINUOUS
 62
     1
  5
23D
 10
164.357333
 20
-284.765083
 30
0.0
 11
314.357333
 21
-284.765083
 31
0.0
  0
LINE
  8
1
  6
CONTINUOUS
 62
     1
  5
23E
 10
164.357333
 20
-334.765083
 30
0.0
 11
164.357333
 21
-252.765083
 31
0.0
  0
LINE
  8
1
  6
CONTINUOUS
 62
     1
  5
23F
 10
164.357333
 20
-364.765083
 30
0.0
 11
164.357333
 21
-344.765083
 31
0.0
  0
LINE
  8
1
  6
CONTINUOUS
 62
     1
  5
240
 10
189.357333
 20
-334.765083
 30
0.0
 11
189.357333
 21
-258.765083
 31
0.0
  0
LINE
  8
1
  6
CONTINUOUS
 62
     1
  5
241
 10
214.357333
 20
-334.765083
 30
0.0
 11
214.357333
 21
-252.765083
 31
0.0
  0
LINE
  8
1
  6
CONTINUOUS
 62
     1
  5
242
 10
239.357333
 20
-334.765083
 30
0.0
 11
239.357333
 21
-258.765083
 31
0.0
  0
LINE
  8
1
  6
CONTINUOUS
 62
     1
  5
243
 10
264.357333
 20
-334.765083
 30
0.0
 11
264.357333
 21
-258.765083
 31
0.0
  0
LINE
  8
1
  6
CONTINUOUS
 62
     1
  5
244
 10
289.357333
 20
-334.765083
 30
0.0
 11
289.357333
 21
-258.765083
 31
0.0
  0
LINE
  8
1
  6
CONTINUOUS
 62
     1
  5
245
 10
189.357333
 20
-364.765083
 30
0.0
 11
189.357333
 21
-344.765083
 31
0.0
  0
LINE
  8
1
  6
CONTINUOUS
 62
     1
  5
246
 10
214.357333
 20
-364.765083
 30
0.0
 11
214.357333
 21
-344.765083
 31
0.0
  0
LINE
  8
1
  6
CONTINUOUS
 62
     1
  5
247
 10
239.357333
 20
-364.765083
 30
0.0
 11
239.357333
 21
-344.765083
 31
0.0
  0
LINE
  8
1
  6
CONTINUOUS
 62
     1
  5
248
 10
264.357333
 20
-364.765083
 30
0.0
 11
264.357333
 21
-344.765083
 31
0.0
  0
LINE
  8
1
  6
CONTINUOUS
 62
     1
  5
249
 10
289.357333
 20
-364.765083
 30
0.0
 11
289.357333
 21
-344.765083
 31
0.0
  0
LINE
  8
1
  6
CONTINUOUS
 62
     1
  5
24A
 10
164.357333
 20
-258.765083
 30
0.0
 11
314.357333
 21
-258.765083
 31
0.0
  0
LINE
  8
1
  6
CONTINUOUS
 62
     1
  5
24B
 10
164.357333
 20
-294.765083
 30
0.0
 11
189.357333
 21
-294.765083
 31
0.0
  0
LINE
  8
1
  6
CONTINUOUS
 62
     1
  5
24C
 10
214.357333
 20
-294.765083
 30
0.0
 11
314.357333
 21
-294.765083
 31
0.0
  0
LINE
  8
1
  6
CONTINUOUS
 62
     1
  5
24D
 10
164.357333
 20
-304.765083
 30
0.0
 11
189.357333
 21
-304.765083
 31
0.0
  0
LINE
  8
1
  6
CONTINUOUS
 62
     1
  5
24E
 10
214.357333
 20
-304.765083
 30
0.0
 11
314.357333
 21
-304.765083
 31
0.0
  0
LINE
  8
1
  6
CONTINUOUS
 62
     1
  5
24F
 10
164.357333
 20
-324.765083
 30
0.0
 11
189.357333
 21
-324.765083
 31
0.0
  0
LINE
  8
1
  6
CONTINUOUS
 62
     1
  5
250
 10
214.357333
 20
-324.765083
 30
0.0
 11
314.357333
 21
-324.765083
 31
0.0
  0
LINE
  8
1
  6
CONTINUOUS
 62
     1
  5
251
 10
217.357333
 20
-274.991917
 30
0.0
 11
236.357333
 21
-274.991917
 31
0.0
  0
LINE
  8
1
  6
CONTINUOUS
 62
     1
  5
252
 10
245.357333
 20
-274.991917
 30
0.0
 11
258.357333
 21
-274.991917
 31
0.0
  0
LINE
  8
1
  6
CONTINUOUS
 62
     1
  5
253
 10
267.357333
 20
-274.991917
 30
0.0
 11
286.357333
 21
-274.991917
 31
0.0
  0
LINE
  8
1
  6
CONTINUOUS
 62
     1
  5
254
 10
295.357333
 20
-274.991917
 30
0.0
 11
307.357333
 21
-274.991917
 31
0.0
  0
LINE
  8
1
  6
CONTINUOUS
 62
     1
  5
255
 10
217.357333
 20
-289.765083
 30
0.0
 11
236.357333
 21
-289.765083
 31
0.0
  0
LINE
  8
1
  6
CONTINUOUS
 62
     1
  5
256
 10
217.357333
 20
-299.765083
 30
0.0
 11
236.357333
 21
-299.765083
 31
0.0
  0
LINE
  8
1
  6
CONTINUOUS
 62
     1
  5
257
 10
217.357333
 20
-309.765083
 30
0.0
 11
236.357333
 21
-309.765083
 31
0.0
  0
LINE
  8
1
  6
CONTINUOUS
 62
     1
  5
258
 10
217.357333
 20
-319.765083
 30
0.0
 11
236.357333
 21
-319.765083
 31
0.0
  0
LINE
  8
1
  6
CONTINUOUS
 62
     1
  5
259
 10
217.357333
 20
-329.765083
 30
0.0
 11
236.357333
 21
-329.765083
 31
0.0
  0
LINE
  8
1
  6
CONTINUOUS
 62
     1
  5
25A
 10
242.357333
 20
-289.765083
 30
0.0
 11
261.357333
 21
-289.765083
 31
0.0
  0
LINE
  8
1
  6
CONTINUOUS
 62
     1
  5
25B
 10
242.357333
 20
-299.765083
 30
0.0
 11
261.357333
 21
-299.765083
 31
0.0
  0
LINE
  8
1
  6
CONTINUOUS
 62
     1
  5
25C
 10
242.357333
 20
-309.765083
 30
0.0
 11
261.357333
 21
-309.765083
 31
0.0
  0
LINE
  8
1
  6
CONTINUOUS
 62
     1
  5
25D
 10
242.357333
 20
-319.765083
 30
0.0
 11
261.357333
 21
-319.765083
 31
0.0
  0
LINE
  8
1
  6
CONTINUOUS
 62
     1
  5
25E
 10
242.357333
 20
-329.765083
 30
0.0
 11
261.357333
 21
-329.765083
 31
0.0
  0
LINE
  8
1
  6
CONTINUOUS
 62
     1
  5
25F
 10
270.357333
 20
-289.765083
 30
0.0
 11
282.357333
 21
-289.765083
 31
0.0
  0
LINE
  8
1
  6
CONTINUOUS
 62
     1
  5
260
 10
270.357333
 20
-299.765083
 30
0.0
 11
282.357333
 21
-299.765083
 31
0.0
  0
LINE
  8
1
  6
CONTINUOUS
 62
     1
  5
261
 10
270.357333
 20
-309.765083
 30
0.0
 11
282.357333
 21
-309.765083
 31
0.0
  0
LINE
  8
1
  6
CONTINUOUS
 62
     1
  5
262
 10
270.357333
 20
-319.765083
 30
0.0
 11
282.357333
 21
-319.765083
 31
0.0
  0
LINE
  8
1
  6
CONTINUOUS
 62
     1
  5
263
 10
270.357333
 20
-329.765083
 30
0.0
 11
282.357333
 21
-329.765083
 31
0.0
  0
LINE
  8
1
  6
CONTINUOUS
 62
     1
  5
264
 10
295.357333
 20
-289.765083
 30
0.0
 11
307.357333
 21
-289.765083
 31
0.0
  0
LINE
  8
1
  6
CONTINUOUS
 62
     1
  5
265
 10
295.357333
 20
-299.765083
 30
0.0
 11
307.357333
 21
-299.765083
 31
0.0
  0
LINE
  8
1
  6
CONTINUOUS
 62
     1
  5
266
 10
295.357333
 20
-309.765083
 30
0.0
 11
307.357333
 21
-309.765083
 31
0.0
  0
LINE
  8
1
  6
CONTINUOUS
 62
     1
  5
267
 10
295.357333
 20
-319.765083
 30
0.0
 11
307.357333
 21
-319.765083
 31
0.0
  0
LINE
  8
1
  6
CONTINUOUS
 62
     1
  5
268
 10
295.357333
 20
-329.765083
 30
0.0
 11
307.357333
 21
-329.765083
 31
0.0
  0
LINE
  8
1
  6
CONTINUOUS
 62
     1
  5
269
 10
218.357333
 20
-349.765083
 30
0.0
 11
235.357333
 21
-349.765083
 31
0.0
  0
LINE
  8
1
  6
CONTINUOUS
 62
     1
  5
26A
 10
245.357333
 20
-349.765083
 30
0.0
 11
258.357333
 21
-349.765083
 31
0.0
  0
LINE
  8
1
  6
CONTINUOUS
 62
     1
  5
26B
 10
267.357333
 20
-349.765083
 30
0.0
 11
286.357333
 21
-349.765083
 31
0.0
  0
LINE
  8
1
  6
CONTINUOUS
 62
     1
  5
26C
 10
296.357333
 20
-349.765083
 30
0.0
 11
307.357333
 21
-349.765083
 31
0.0
  0
LINE
  8
1
  6
CONTINUOUS
 62
     1
  5
26D
 10
218.357333
 20
-359.765083
 30
0.0
 11
235.357333
 21
-359.765083
 31
0.0
  0
LINE
  8
1
  6
CONTINUOUS
 62
     1
  5
26E
 10
245.357333
 20
-359.765083
 30
0.0
 11
258.357333
 21
-359.765083
 31
0.0
  0
LINE
  8
1
  6
CONTINUOUS
 62
     1
  5
26F
 10
268.357333
 20
-359.765083
 30
0.0
 11
285.357333
 21
-359.765083
 31
0.0
  0
LINE
  8
1
  6
CONTINUOUS
 62
     1
  5
270
 10
296.357333
 20
-359.765083
 30
0.0
 11
307.357333
 21
-359.765083
 31
0.0
  0
TEXT
  8
1
  6
CONTINUOUS
 62
     7
  5
271
 10
120.2165
 20
-260.669083
 30
0.0
 40
4.5
  1
SIGN SHAPE
  7
txt
 72
     4
 11
138.935167
 21
-258.419083
 31
0.0
210
0.0
220
0.0
230
1.0
  0
TEXT
  8
1
  6
CONTINUOUS
 62
     7
  5
272
 10
120.1285
 20
-292.453667
 30
0.0
 40
4.5
  1
HORIZONTAL
  7
txt
 72
     4
 11
138.75575
 21
-290.203667
 31
0.0
210
0.0
220
0.0
230
1.0
  0
TEXT
  8
1
  6
CONTINUOUS
 62
     7
  5
273
 10
137.25575
 20
-301.953667
 30
0.0
 40
4.5
  1
 
  7
txt
 72
     4
 11
138.75575
 21
-299.703667
 31
0.0
210
0.0
220
0.0
230
1.0
  0
TEXT
  8
1
  6
CONTINUOUS
 62
     7
  5
274
 10
121.728
 20
-311.453667
 30
0.0
 40
4.5
  1
RECTANGLE
  7
txt
 72
     4
 11
138.755667
 21
-309.203667
 31
0.0
210
0.0
220
0.0
230
1.0
  0
TEXT
  8
1
  6
CONTINUOUS
 62
     7
  5
275
 10
196.917083
 20
-281.484833
 30
0.0
 40
4.5
  1
42"
  7
txt
 72
     4
 11
201.35775
 21
-279.234833
 31
0.0
210
0.0
220
0.0
230
1.0
  0
TEXT
  8
1
  6
CONTINUOUS
 62
     7
  5
276
 10
191.074583
 20
-301.59475
 30
0.0
 40
4.5
  1
42"-72"
  7
txt
 72
     4
 11
201.537083
 21
-299.34475
 31
0.0
210
0.0
220
0.0
230
1.0
  0
TEXT
  8
1
  6
CONTINUOUS
 62
     7
  5
277
 10
196.917083
 20
-331.363583
 30
0.0
 40
4.5
  1
72"
  7
txt
 72
     4
 11
201.35775
 21
-329.113583
 31
0.0
210
0.0
220
0.0
230
1.0
  0
TEXT
  8
1
  6
CONTINUOUS
 62
     7
  5
278
 10
131.025167
 20
-352.015583
 30
0.0
 40
4.5
  1
D16-1
  7
txt
 72
     4
 11
138.217667
 21
-349.765583
 31
0.0
210
0.0
220
0.0
230
1.0
  0
TEXT
  8
1
  6
CONTINUOUS
 62
     7
  5
279
 10
122.44675
 20
-361.884417
 30
0.0
 40
4.5
  1
"M" SERIES
  7
txt
 72
     4
 11
138.935083
 21
-359.634417
 31
0.0
210
0.0
220
0.0
230
1.0
  0
TEXT
  8
1
  6
CONTINUOUS
 62
     7
  5
27A
 10
180.8475
 20
-256.992417
 30
0.0
 40
2.5
  1
SIGN SIZE
  7
txt
 72
     4
 11
189.3395
 21
-255.742417
 31
0.0
210
0.0
220
0.0
230
1.0
  0
TEXT
  8
1
  6
CONTINUOUS
 62
     7
  5
27B
 10
255.210583
 20
-256.992417
 30
0.0
 40
2.5
  1
DIMENSION
  7
txt
 72
     4
 11
264.3185
 21
-255.742417
 31
0.0
210
0.0
220
0.0
230
1.0
  0
TEXT
  8
1
  6
CONTINUOUS
 62
     7
  5
27C
 10
170.30725
 20
-262.91375
 30
0.0
 40
2.5
  1
HEIGHT
  7
txt
 72
     4
 11
176.245083
 21
-261.66375
 31
0.0
210
0.0
220
0.0
230
1.0
  0
TEXT
  8
1
  6
CONTINUOUS
 62
     7
  5
27D
 10
195.95675
 20
-262.91375
 30
0.0
 40
2.5
  1
WIDTH
  7
txt
 72
     4
 11
201.178333
 21
-261.66375
 31
0.0
210
0.0
220
0.0
230
1.0
  0
TEXT
  8
1
  6
CONTINUOUS
 62
     7
  5
27E
 10
224.957333
 20
-263.093167
 30
0.0
 40
2.5
  1
A
  7
txt
 72
     4
 11
226.1115
 21
-261.843167
 31
0.0
210
0.0
220
0.0
230
1.0
  0
TEXT
  8
1
  6
CONTINUOUS
 62
     7
  5
27F
 10
250.439833
 20
-262.734333
 30
0.0
 40
2.5
  1
B
  7
txt
 72
     4
 11
251.4035
 21
-261.484333
 31
0.0
210
0.0
220
0.0
230
1.0
  0
TEXT
  8
1
  6
CONTINUOUS
 62
     7
  5
280
 10
275.503083
 20
-262.91375
 30
0.0
 40
2.5
  1
C
  7
txt
 72
     4
 11
276.515917
 21
-261.66375
 31
0.0
210
0.0
220
0.0
230
1.0
  0
TEXT
  8
1
  6
CONTINUOUS
 62
     7
  5
281
 10
300.722333
 20
-262.91375
 30
0.0
 40
2.5
  1
D
  7
txt
 72
     4
 11
301.807917
 21
-261.66375
 31
0.0
210
0.0
220
0.0
230
1.0
  0
TEXT
  8
1
  6
CONTINUOUS
 62
     7
  5
282
 10
168.949667
 20
-274.1445
 30
0.0
 40
2.0
  1
6" OR OVER
  7
txt
 72
     4
 11
176.962667
 21
-273.1445
 31
0.0
210
0.0
220
0.0
230
1.0
  0
TEXT
  8
1
  6
CONTINUOUS
 62
     7
  5
283
 10
166.278167
 20
-278.1445
 30
0.0
 40
2.0
  1
BUT UNDER 36"
  7
txt
 72
     4
 11
176.962667
 21
-277.1445
 31
0.0
210
0.0
220
0.0
230
1.0
  0
TEXT
  8
1
  6
CONTINUOUS
 62
     7
  5
284
 10
168.780083
 20
-288.793167
 30
0.0
 40
2.0
  1
6" OR OVER
  7
txt
 72
     4
 11
176.793083
 21
-287.793167
 31
0.0
210
0.0
220
0.0
230
1.0
  0
TEXT
  8
1
  6
CONTINUOUS
 62
     7
  5
285
 10
166.33275
 20
-292.793167
 30
0.0
 40
2.0
  1
BUT UNDER 18"
  7
txt
 72
     4
 11
176.793083
 21
-291.793167
 31
0.0
210
0.0
220
0.0
230
1.0
  0
TEXT
  8
1
  6
CONTINUOUS
 62
     7
  5
286
 10
168.37075
 20
-298.767167
 30
0.0
 40
2.0
  1
18" OR OVER
  7
txt
 72
     4
 11
176.88375
 21
-297.767167
 31
0.0
210
0.0
220
0.0
230
1.0
  0
TEXT
  8
1
  6
CONTINUOUS
 62
     7
  5
287
 10
166.199167
 20
-302.767167
 30
0.0
 40
2.0
  1
BUT UNDER 30"
  7
txt
 72
     4
 11
176.883667
 21
-301.767167
 31
0.0
210
0.0
220
0.0
230
1.0
  0
TEXT
  8
1
  6
CONTINUOUS
 62
     7
  5
288
 10
167.2875
 20
-310.922417
 30
0.0
 40
2.0
  1
30" OR MORE
  7
txt
 72
     4
 11
176.339917
 21
-309.922417
 31
0.0
210
0.0
220
0.0
230
1.0
  0
TEXT
  8
1
  6
CONTINUOUS
 62
     7
  5
289
 10
169.388583
 20
-320.624417
 30
0.0
 40
2.0
  1
UNDER 30"
  7
txt
 72
     4
 11
176.7025
 21
-319.624417
 31
0.0
210
0.0
220
0.0
230
1.0
  0
TEXT
  8
1
  6
CONTINUOUS
 62
     7
  5
28A
 10
167.559417
 20
-330.870333
 30
0.0
 40
2.0
  1
30" OR MORE
  7
txt
 72
     4
 11
176.611833
 21
-329.870333
 31
0.0
210
0.0
220
0.0
230
1.0
  0
TEXT
  8
1
  6
CONTINUOUS
 62
     7
  5
28B
 10
197.587417
 20
-270.296083
 30
0.0
 40
2.0
  1
LESS
  7
txt
 72
     4
 11
200.722833
 21
-269.296083
 31
0.0
210
0.0
220
0.0
230
1.0
  0
TEXT
  8
1
  6
CONTINUOUS
 62
     7
  5
28C
 10
197.21525
 20
-274.296083
 30
0.0
 40
2.0
  1
THAN
  7
txt
 72
     4
 11
200.72275
 21
-273.296083
 31
0.0
210
0.0
220
0.0
230
1.0
  0
TEXT
  8
1
  6
CONTINUOUS
 62
     7
  5
28D
 10
197.06225
 20
-320.2565
 30
0.0
 40
2.0
  1
MORE
  7
txt
 72
     4
 11
200.813417
 21
-319.2565
 31
0.0
210
0.0
220
0.0
230
1.0
  0
TEXT
  8
1
  6
CONTINUOUS
 62
     7
  5
28E
 10
197.305917
 20
-324.2565
 30
0.0
 40
2.0
  1
THAN
  7
txt
 72
     4
 11
200.813417
 21
-323.2565
 31
0.0
210
0.0
220
0.0
230
1.0
  0
TEXT
  8
1
  6
CONTINUOUS
 62
     7
  5
28F
 10
219.048333
 20
-273.572167
 30
0.0
 40
2.0
  1
WIDTH - 3"
  7
txt
 72
     4
 11
226.828
 21
-272.572167
 31
0.0
210
0.0
220
0.0
230
1.0
  0
TEXT
  8
1
  6
CONTINUOUS
 62
     7
  5
290
 10
226.1795
 20
-278.572167
 30
0.0
 40
2.0
  1
2
  7
txt
 72
     4
 11
226.828
 21
-277.572167
 31
0.0
210
0.0
220
0.0
230
1.0
  0
TEXT
  8
1
  6
CONTINUOUS
 62
     7
  5
291
 10
219.048333
 20
-288.56525
 30
0.0
 40
2.0
  1
WIDTH - 6"
  7
txt
 72
     4
 11
226.828
 21
-287.56525
 31
0.0
210
0.0
220
0.0
230
1.0
  0
TEXT
  8
1
  6
CONTINUOUS
 62
     7
  5
292
 10
226.1795
 20
-293.56525
 30
0.0
 40
2.0
  1
2
  7
txt
 72
     4
 11
226.828
 21
-292.56525
 31
0.0
210
0.0
220
0.0
230
1.0
  0
TEXT
  8
1
  6
CONTINUOUS
 62
     7
  5
293
 10
218.867
 20
-298.1765
 30
0.0
 40
2.0
  1
WIDTH - 6"
  7
txt
 72
     4
 11
226.646667
 21
-297.1765
 31
0.0
210
0.0
220
0.0
230
1.0
  0
TEXT
  8
1
  6
CONTINUOUS
 62
     7
  5
294
 10
225.998167
 20
-303.1765
 30
0.0
 40
2.0
  1
2
  7
txt
 72
     4
 11
226.646667
 21
-302.1765
 31
0.0
210
0.0
220
0.0
230
1.0
  0
TEXT
  8
1
  6
CONTINUOUS
 62
     7
  5
295
 10
218.457667
 20
-308.241083
 30
0.0
 40
2.0
  1
WIDTH - 12"
  7
txt
 72
     4
 11
226.737333
 21
-307.241083
 31
0.0
210
0.0
220
0.0
230
1.0
  0
TEXT
  8
1
  6
CONTINUOUS
 62
     7
  5
296
 10
226.088833
 20
-313.241083
 30
0.0
 40
2.0
  1
2
  7
txt
 72
     4
 11
226.737333
 21
-312.241083
 31
0.0
210
0.0
220
0.0
230
1.0
  0
TEXT
  8
1
  6
CONTINUOUS
 62
     7
  5
297
 10
218.77725
 20
-318.396417
 30
0.0
 40
2.0
  1
WIDTH - 24"
  7
txt
 72
     4
 11
227.281167
 21
-317.396417
 31
0.0
210
0.0
220
0.0
230
1.0
  0
TEXT
  8
1
  6
CONTINUOUS
 62
     7
  5
298
 10
226.632667
 20
-323.396417
 30
0.0
 40
2.0
  1
2
  7
txt
 72
     4
 11
227.281167
 21
-322.396417
 31
0.0
210
0.0
220
0.0
230
1.0
  0
TEXT
  8
1
  6
CONTINUOUS
 62
     7
  5
299
 10
218.596
 20
-328.370333
 30
0.0
 40
2.0
  1
WIDTH - 24"
  7
txt
 72
     4
 11
227.099917
 21
-327.370333
 31
0.0
210
0.0
220
0.0
230
1.0
  0
TEXT
  8
1
  6
CONTINUOUS
 62
     7
  5
29A
 10
226.451417
 20
-333.370333
 30
0.0
 40
2.0
  1
2
  7
txt
 72
     4
 11
227.099917
 21
-332.370333
 31
0.0
210
0.0
220
0.0
230
1.0
  0
TEXT
  8
1
  6
CONTINUOUS
 62
     7
  5
29B
 10
246.68375
 20
-273.494
 30
0.0
 40
2.0
  1
HEIGHT
  7
txt
 72
     4
 11
251.434
 21
-272.494
 31
0.0
210
0.0
220
0.0
230
1.0
  0
TEXT
  8
1
  6
CONTINUOUS
 62
     7
  5
29C
 10
250.785583
 20
-278.494
 30
0.0
 40
2.0
  1
2
  7
txt
 72
     4
 11
251.434083
 21
-277.494
 31
0.0
210
0.0
220
0.0
230
1.0
  0
TEXT
  8
1
  6
CONTINUOUS
 62
     7
  5
29D
 10
243.833917
 20
-288.293167
 30
0.0
 40
2.0
  1
HEIGHT - 3"
  7
txt
 72
     4
 11
251.949917
 21
-287.293167
 31
0.0
210
0.0
220
0.0
230
1.0
  0
TEXT
  8
1
  6
CONTINUOUS
 62
     7
  5
29E
 10
251.3015
 20
-293.293167
 30
0.0
 40
2.0
  1
2
  7
txt
 72
     4
 11
251.95
 21
-292.293167
 31
0.0
210
0.0
220
0.0
230
1.0
  0
TEXT
  8
1
  6
CONTINUOUS
 62
     7
  5
29F
 10
243.73075
 20
-298.409417
 30
0.0
 40
2.0
  1
HEIGHT - 6"
  7
txt
 72
     4
 11
251.84675
 21
-297.409417
 31
0.0
210
0.0
220
0.0
230
1.0
  0
TEXT
  8
1
  6
CONTINUOUS
 62
     7
  5
2A0
 10
251.198333
 20
-303.409417
 30
0.0
 40
2.0
  1
2
  7
txt
 72
     4
 11
251.846833
 21
-302.409417
 31
0.0
210
0.0
220
0.0
230
1.0
  0
TEXT
  8
1
  6
CONTINUOUS
 62
     7
  5
2A1
 10
243.627583
 20
-318.229
 30
0.0
 40
2.0
  1
HEIGHT - 6"
  7
txt
 72
     4
 11
251.743583
 21
-317.229
 31
0.0
210
0.0
220
0.0
230
1.0
  0
TEXT
  8
1
  6
CONTINUOUS
 62
     7
  5
2A2
 10
251.095167
 20
-323.229
 30
0.0
 40
2.0
  1
2
  7
txt
 72
     4
 11
251.743667
 21
-322.229
 31
0.0
210
0.0
220
0.0
230
1.0
  0
TEXT
  8
1
  6
CONTINUOUS
 62
     7
  5
2A3
 10
242.921167
 20
-308.319167
 30
0.0
 40
2.0
  1
HEIGHT - 12"
  7
txt
 72
     4
 11
251.537167
 21
-307.319167
 31
0.0
210
0.0
220
0.0
230
1.0
  0
TEXT
  8
1
  6
CONTINUOUS
 62
     7
  5
2A4
 10
250.88875
 20
-313.319167
 30
0.0
 40
2.0
  1
2
  7
txt
 72
     4
 11
251.53725
 21
-312.319167
 31
0.0
210
0.0
220
0.0
230
1.0
  0
TEXT
  8
1
  6
CONTINUOUS
 62
     7
  5
2A5
 10
242.921167
 20
-328.448417
 30
0.0
 40
2.0
  1
HEIGHT - 12"
  7
txt
 72
     4
 11
251.537167
 21
-327.448417
 31
0.0
210
0.0
220
0.0
230
1.0
  0
TEXT
  8
1
  6
CONTINUOUS
 62
     7
  5
2A6
 10
250.88875
 20
-333.448417
 30
0.0
 40
2.0
  1
2
  7
txt
 72
     4
 11
251.53725
 21
-332.448417
 31
0.0
210
0.0
220
0.0
230
1.0
  0
TEXT
  8
1
  6
CONTINUOUS
 62
     7
  5
2A7
 10
268.7035
 20
-273.5165
 30
0.0
 40
2.0
  1
HEIGHT - 3"
  7
txt
 72
     4
 11
276.8195
 21
-272.5165
 31
0.0
210
0.0
220
0.0
230
1.0
  0
TEXT
  8
1
  6
CONTINUOUS
 62
     7
  5
2A8
 10
276.171083
 20
-278.5165
 30
0.0
 40
2.0
  1
2
  7
txt
 72
     4
 11
276.819583
 21
-277.5165
 31
0.0
210
0.0
220
0.0
230
1.0
  0
TEXT
  8
1
  6
CONTINUOUS
 62
     7
  5
2A9
 10
271.92
 20
-318.332167
 30
0.0
 40
2.0
  1
WIDTH
  7
txt
 72
     4
 11
276.09725
 21
-317.332167
 31
0.0
210
0.0
220
0.0
230
1.0
  0
TEXT
  8
1
  6
CONTINUOUS
 62
     7
  5
2AA
 10
275.44875
 20
-323.332167
 30
0.0
 40
2.0
  1
2
  7
txt
 72
     4
 11
276.09725
 21
-322.332167
 31
0.0
210
0.0
220
0.0
230
1.0
  0
TEXT
  8
1
  6
CONTINUOUS
 62
     7
  5
2AB
 10
272.023167
 20
-328.242
 30
0.0
 40
2.0
  1
WIDTH
  7
txt
 72
     4
 11
276.200417
 21
-327.242
 31
0.0
210
0.0
220
0.0
230
1.0
  0
TEXT
  8
1
  6
CONTINUOUS
 62
     7
  5
2AC
 10
275.551917
 20
-333.242
 30
0.0
 40
2.0
  1
2
  7
txt
 72
     4
 11
276.200417
 21
-332.242
 31
0.0
210
0.0
220
0.0
230
1.0
  0
TEXT
  8
1
  6
CONTINUOUS
 62
     7
  5
2AD
 10
297.202417
 20
-273.597167
 30
0.0
 40
2.0
  1
WIDTH
  7
txt
 72
     4
 11
301.379667
 21
-272.597167
 31
0.0
210
0.0
220
0.0
230
1.0
  0
TEXT
  8
1
  6
CONTINUOUS
 62
     7
  5
2AE
 10
300.731167
 20
-278.597167
 30
0.0
 40
2.0
  1
2
  7
txt
 72
     4
 11
301.379667
 21
-277.597167
 31
0.0
210
0.0
220
0.0
230
1.0
  0
TEXT
  8
1
  6
CONTINUOUS
 62
     7
  5
2AF
 10
219.048333
 20
-348.110917
 30
0.0
 40
2.0
  1
WIDTH - 3"
  7
txt
 72
     4
 11
226.828
 21
-347.110917
 31
0.0
210
0.0
220
0.0
230
1.0
  0
TEXT
  8
1
  6
CONTINUOUS
 62
     7
  5
2B0
 10
226.1795
 20
-353.110917
 30
0.0
 40
2.0
  1
2
  7
txt
 72
     4
 11
226.828
 21
-352.110917
 31
0.0
210
0.0
220
0.0
230
1.0
  0
TEXT
  8
1
  6
CONTINUOUS
 62
     7
  5
2B1
 10
219.778167
 20
-358.150083
 30
0.0
 40
2.0
  1
WIDTH - 4"
  7
txt
 72
     4
 11
227.557833
 21
-357.150083
 31
0.0
210
0.0
220
0.0
230
1.0
  0
TEXT
  8
1
  6
CONTINUOUS
 62
     7
  5
2B2
 10
226.909333
 20
-363.150083
 30
0.0
 40
2.0
  1
2
  7
txt
 72
     4
 11
227.557833
 21
-362.150083
 31
0.0
210
0.0
220
0.0
230
1.0
  0
TEXT
  8
1
  6
CONTINUOUS
 62
     7
  5
2B3
 10
247.048667
 20
-347.850167
 30
0.0
 40
2.0
  1
HEIGHT
  7
txt
 72
     4
 11
251.798917
 21
-346.850167
 31
0.0
210
0.0
220
0.0
230
1.0
  0
TEXT
  8
1
  6
CONTINUOUS
 62
     7
  5
2B4
 10
251.1505
 20
-352.850167
 30
0.0
 40
2.0
  1
2
  7
txt
 72
     4
 11
251.799
 21
-351.850167
 31
0.0
210
0.0
220
0.0
230
1.0
  0
TEXT
  8
1
  6
CONTINUOUS
 62
     7
  5
2B5
 10
246.86625
 20
-358.254417
 30
0.0
 40
2.0
  1
HEIGHT
  7
txt
 72
     4
 11
251.6165
 21
-357.254417
 31
0.0
210
0.0
220
0.0
230
1.0
  0
TEXT
  8
1
  6
CONTINUOUS
 62
     7
  5
2B6
 10
250.968083
 20
-363.254417
 30
0.0
 40
2.0
  1
2
  7
txt
 72
     4
 11
251.616583
 21
-362.254417
 31
0.0
210
0.0
220
0.0
230
1.0
  0
TEXT
  8
1
  6
CONTINUOUS
 62
     7
  5
2B7
 10
269.014917
 20
-348.345583
 30
0.0
 40
2.0
  1
HEIGHT - 3"
  7
txt
 72
     4
 11
277.130917
 21
-347.345583
 31
0.0
210
0.0
220
0.0
230
1.0
  0
TEXT
  8
1
  6
CONTINUOUS
 62
     7
  5
2B8
 10
276.4825
 20
-353.345583
 30
0.0
 40
2.0
  1
2
  7
txt
 72
     4
 11
277.131
 21
-352.345583
 31
0.0
210
0.0
220
0.0
230
1.0
  0
TEXT
  8
1
  6
CONTINUOUS
 62
     7
  5
2B9
 10
269.197417
 20
-358.202167
 30
0.0
 40
2.0
  1
HEIGHT - 4"
  7
txt
 72
     4
 11
277.313417
 21
-357.202167
 31
0.0
210
0.0
220
0.0
230
1.0
  0
TEXT
  8
1
  6
CONTINUOUS
 62
     7
  5
2BA
 10
276.665
 20
-363.202167
 30
0.0
 40
2.0
  1
2
  7
txt
 72
     4
 11
277.3135
 21
-362.202167
 31
0.0
210
0.0
220
0.0
230
1.0
  0
TEXT
  8
1
  6
CONTINUOUS
 62
     7
  5
2BB
 10
297.02
 20
-348.501
 30
0.0
 40
2.0
  1
WIDTH
  7
txt
 72
     4
 11
301.19725
 21
-347.501
 31
0.0
210
0.0
220
0.0
230
1.0
  0
TEXT
  8
1
  6
CONTINUOUS
 62
     7
  5
2BC
 10
300.54875
 20
-353.501
 30
0.0
 40
2.0
  1
2
  7
txt
 72
     4
 11
301.19725
 21
-352.501
 31
0.0
210
0.0
220
0.0
230
1.0
  0
TEXT
  8
1
  6
CONTINUOUS
 62
     7
  5
2BD
 10
297.384917
 20
-358.357667
 30
0.0
 40
2.0
  1
WIDTH
  7
txt
 72
     4
 11
301.562167
 21
-357.357667
 31
0.0
210
0.0
220
0.0
230
1.0
  0
TEXT
  8
1
  6
CONTINUOUS
 62
     7
  5
2BE
 10
300.913667
 20
-363.357667
 30
0.0
 40
2.0
  1
2
  7
txt
 72
     4
 11
301.562167
 21
-362.357667
 31
0.0
210
0.0
220
0.0
230
1.0
  0
TEXT
  8
1
  6
CONTINUOUS
 62
     7
  5
2BF
 10
175.395167
 20
-351.082083
 30
0.0
 40
2.0
  1
9"
  7
txt
 72
     4
 11
176.6445
 21
-350.082083
 31
0.0
210
0.0
220
0.0
230
1.0
  0
TEXT
  8
1
  6
CONTINUOUS
 62
     7
  5
2C0
 10
174.306
 20
-360.75625
 30
0.0
 40
2.0
  1
36"
  7
txt
 72
     4
 11
176.279667
 21
-359.75625
 31
0.0
210
0.0
220
0.0
230
1.0
  0
TEXT
  8
1
  6
CONTINUOUS
 62
     7
  5
2C1
 10
195.765167
 20
-350.899583
 30
0.0
 40
2.0
  1
42" - 48"
  7
txt
 72
     4
 11
201.643
 21
-349.899583
 31
0.0
210
0.0
220
0.0
230
1.0
  0
TEXT
  8
1
  6
CONTINUOUS
 62
     7
  5
2C2
 10
199.851917
 20
-360.75625
 30
0.0
 40
2.0
  1
45"
  7
txt
 72
     4
 11
201.825583
 21
-359.75625
 31
0.0
210
0.0
220
0.0
230
1.0
  0
TEXT
  8
1
  6
CONTINUOUS
 62
     7
  5
2C3
 10
149.821333
 20
-338.574833
 30
0.0
 40
2.0
  1
(a) D16-1 SIGNS WITH WIDTHS OF 42" - 48".
  7
txt
 11
149.821333
 21
-336.574833
 31
0.0
210
0.0
220
0.0
230
1.0
 73
     3
  0
TEXT
  8
1
  6
CONTINUOUS
 62
     7
  5
2C4
 10
149.821333
 20
-342.574833
 30
0.0
 40
2.0
  1
(b) "M" SERIES SIGNS WITH 45" WIDTH.
  7
txt
 11
149.821333
 21
-340.574833
 31
0.0
210
0.0
220
0.0
230
1.0
 73
     3
  0
TEXT
  8
1
  6
CONTINUOUS
 62
     7
  5
2C5
 10
131.297417
 20
-340.495417
 30
0.0
 40
2.0
  1
EXCLUDING:
  7
txt
 72
     4
 11
139.055583
 21
-339.495417
 31
0.0
210
0.0
220
0.0
230
1.0
  0
TEXT
  8
1
  6
CONTINUOUS
 62
     7
  5
2C6
 10
-0.953333
 20
-96.088917
 30
0.0
 40
4.5
  1
LESS THAN 42" WIDTH
  7
txt
 72
     4
 11
33.740333
 21
-93.838917
 31
0.0
210
0.0
220
0.0
230
1.0
  0
TEXT
  8
1
  6
CONTINUOUS
 62
     7
  5
2C7
 10
171.57825
 20
-91.371583
 30
0.0
 40
4.5
  1
42" - 72" WIDTHS
  7
txt
 72
     4
 11
197.613417
 21
-89.121583
 31
0.0
210
0.0
220
0.0
230
1.0
  0
TEXT
  8
1
  6
CONTINUOUS
 62
     7
  5
2C8
 10
335.551083
 20
-97.058583
 30
0.0
 40
4.5
  1
MORE THAN 72" WIDTH
  7
txt
 72
     4
 11
371.506083
 21
-94.808583
 31
0.0
210
0.0
220
0.0
230
1.0
  0
TEXT
  8
1
  6
CONTINUOUS
 62
     7
  5
2C9
 10
-12.52175
 20
-252.2305
 30
0.0
 40
4.5
  1
"M" SERIES 45" WIDTHS ONLY
  7
txt
 72
     4
 11
33.329833
 21
-249.9805
 31
0.0
210
0.0
220
0.0
230
1.0
  0
TEXT
  8
1
  6
CONTINUOUS
 62
     7
  5
2CA
 10
152.215417
 20
-235.652
 30
0.0
 40
4.5
  1
D16-1 42" - 48" WIDTHS ONLY
  7
txt
 72
     4
 11
196.855417
 21
-233.402
 31
0.0
210
0.0
220
0.0
230
1.0
  0
LINE
  8
1
  6
CONTINUOUS
 62
     7
  5
2CB
 10
-1.488333
 20
-97.301
 30
0.0
 11
69.714
 21
-97.301
 31
0.0
  0
LINE
  8
1
  6
CONTINUOUS
 62
     7
  5
2CC
 10
170.345667
 20
-92.813167
 30
0.0
 11
224.653583
 21
-92.813167
 31
0.0
  0
LINE
  8
1
  6
CONTINUOUS
 62
     7
  5
2CD
 10
334.158083
 20
-98.555667
 30
0.0
 11
409.857583
 21
-98.555667
 31
0.0
  0
LINE
  8
1
  6
CONTINUOUS
 62
     7
  5
2CE
 10
-13.073583
 20
-253.99075
 30
0.0
 11
80.07825
 21
-253.99075
 31
0.0
  0
LINE
  8
1
  6
CONTINUOUS
 62
     7
  5
2CF
 10
151.0565
 20
-237.082333
 30
0.0
 11
243.099083
 21
-237.082333
 31
0.0
  0
TEXT
  8
1
  6
CONTINUOUS
 62
     7
  5
2D0
 10
151.515
 20
-101.064333
 30
0.0
 40
2.0
  1
EXCLUDING:
  7
txt
 72
     4
 11
159.273167
 21
-100.064333
 31
0.0
210
0.0
220
0.0
230
1.0
  0
TEXT
  8
1
  6
CONTINUOUS
 62
     7
  5
2D1
 10
20.8765
 20
-133.086833
 30
0.0
 40
8.5
  1
PUNCHING DETAILS FOR HORIZONTAL RECTANGULAR SIGNS
  7
txt
 72
     4
 11
198.22125
 21
-128.836833
 31
0.0
210
0.0
220
0.0
230
1.0
  0
TEXT
  8
1
  6
CONTINUOUS
 62
     7
  5
2D2
 10
10.18575
 20
3.00675
 30
0.0
 40
2.5
  1
D
  7
MONOTXT
 72
     4
 11
11.022333
 21
4.25675
 31
0.0
210
0.0
220
0.0
230
1.0
  0
TEXT
  8
1
  6
CONTINUOUS
 62
     7
  5
2D3
 10
-23.447417
 20
-22.763167
 30
0.0
 40
2.5
  1
B
  7
MONOTXT
 72
     4
 11
-22.610833
 21
-21.513167
 31
0.0
210
0.0
220
0.0
230
1.0
  0
TEXT
  8
1
  6
CONTINUOUS
 62
     7
  5
2D4
 10
88.723333
 20
-27.893333
 30
0.0
 40
2.5
  1
C
  7
MONOTXT
 72
     4
 11
89.619
 21
-26.643333
 31
0.0
210
0.0
220
0.0
230
1.0
  0
TEXT
  8
1
  6
CONTINUOUS
 62
     7
  5
2D5
 10
88.842583
 20
-43.164417
 30
0.0
 40
2.5
  1
C
  7
MONOTXT
 72
     4
 11
89.73825
 21
-41.914417
 31
0.0
210
0.0
220
0.0
230
1.0
  0
INSERT
  8
1
  6
CONTINUOUS
 62
     1
  5
2D6
  2
LDR
 10
87.9405
 20
-34.330417
 30
0.0
 41
240.0
 42
240.0
 50
270.0
210
0.0
220
0.0
230
1.0
  0
INSERT
  8
1
  6
CONTINUOUS
 62
     1
  5
2D7
  2
LDR
 10
87.9405
 20
-34.330417
 30
0.0
 41
240.0
 42
240.0
 50
90.0
210
0.0
220
0.0
230
1.0
  0
TEXT
  8
1
  6
CONTINUOUS
 62
     7
  5
2D8
 10
14.232083
 20
-73.945167
 30
0.0
 40
2.5
  1
A
  7
MONOTXT
 72
     4
 11
15.196583
 21
-72.695167
 31
0.0
210
0.0
220
0.0
230
1.0
  0
TEXT
  8
1
  6
CONTINUOUS
 62
     7
  5
2D9
 10
51.44325
 20
-74.0645
 30
0.0
 40
2.5
  1
A
  7
MONOTXT
 72
     4
 11
52.40775
 21
-72.8145
 31
0.0
210
0.0
220
0.0
230
1.0
  0
TEXT
  8
1
  6
CONTINUOUS
 62
     7
  5
2DA
 10
34.45125
 20
-21.092917
 30
0.0
 40
2.5
  1
1
  7
MONOTXT
 72
     4
 11
34.7465
 21
-19.842917
 31
0.0
210
0.0
220
0.0
230
1.0
  0
TEXT
  8
1
  6
CONTINUOUS
 62
     7
  5
2DB
 10
34.873917
 20
-50.203417
 30
0.0
 40
2.5
  1
2
  7
MONOTXT
 72
     4
 11
35.7105
 21
-48.953417
 31
0.0
210
0.0
220
0.0
230
1.0
  0
TEXT
  8
1
  6
CONTINUOUS
 62
     7
  5
2DC
 10
-2.218
 20
-33.262083
 30
0.0
 40
2.5
  1
3
  7
MONOTXT
 72
     4
 11
-1.381417
 21
-32.012083
 31
0.0
210
0.0
220
0.0
230
1.0
  0
TEXT
  8
1
  6
CONTINUOUS
 62
     7
  5
2DD
 10
67.493833
 20
-33.262083
 30
0.0
 40
2.5
  1
4
  7
MONOTXT
 72
     4
 11
68.3895
 21
-32.012083
 31
0.0
210
0.0
220
0.0
230
1.0
  0
TEXT
  8
1
  6
CONTINUOUS
 62
     7
  5
2DE
 10
178.621333
 20
4.862917
 30
0.0
 40
2.5
  1
A
  7
MONOTXT
 72
     4
 11
179.585833
 21
6.112917
 31
0.0
210
0.0
220
0.0
230
1.0
  0
TEXT
  8
1
  6
CONTINUOUS
 62
     7
  5
2DF
 10
213.74
 20
4.862917
 30
0.0
 40
2.5
  1
A
  7
MONOTXT
 72
     4
 11
214.7045
 21
6.112917
 31
0.0
210
0.0
220
0.0
230
1.0
  0
TEXT
  8
1
  6
CONTINUOUS
 62
     7
  5
2E0
 10
257.373167
 20
-27.121083
 30
0.0
 40
2.5
  1
B
  7
MONOTXT
 72
     4
 11
258.20975
 21
-25.871083
 31
0.0
210
0.0
220
0.0
230
1.0
  0
TEXT
  8
1
  6
CONTINUOUS
 62
     7
  5
2E1
 10
257.242083
 20
-43.375333
 30
0.0
 40
2.5
  1
B
  7
MONOTXT
 72
     4
 11
258.078667
 21
-42.125333
 31
0.0
210
0.0
220
0.0
230
1.0
  0
TEXT
  8
1
  6
CONTINUOUS
 62
     7
  5
2E2
 10
163.417667
 20
-21.615667
 30
0.0
 40
2.5
  1
2
  7
MONOTXT
 72
     4
 11
164.25425
 21
-20.365667
 31
0.0
210
0.0
220
0.0
230
1.0
  0
TEXT
  8
1
  6
CONTINUOUS
 62
     7
  5
2E3
 10
232.475583
 20
-21.877833
 30
0.0
 40
2.5
  1
3
  7
MONOTXT
 72
     4
 11
233.312167
 21
-20.627833
 31
0.0
210
0.0
220
0.0
230
1.0
  0
TEXT
  8
1
  6
CONTINUOUS
 62
     7
  5
2E4
 10
163.73875
 20
-49.405083
 30
0.0
 40
2.5
  1
6
  7
MONOTXT
 72
     4
 11
164.51625
 21
-48.155083
 31
0.0
210
0.0
220
0.0
230
1.0
  0
TEXT
  8
1
  6
CONTINUOUS
 62
     7
  5
2E5
 10
232.587
 20
-49.405083
 30
0.0
 40
2.5
  1
7
  7
MONOTXT
 72
     4
 11
233.433417
 21
-48.155083
 31
0.0
210
0.0
220
0.0
230
1.0
  0
TEXT
  8
1
  6
CONTINUOUS
 62
     7
  5
2E6
 10
350.15175
 20
8.381917
 30
0.0
 40
2.5
  1
A
  7
MONOTXT
 72
     4
 11
351.11625
 21
9.631917
 31
0.0
210
0.0
220
0.0
230
1.0
  0
TEXT
  8
1
  6
CONTINUOUS
 62
     7
  5
2E7
 10
384.360167
 20
8.24825
 30
0.0
 40
2.5
  1
A
  7
MONOTXT
 72
     4
 11
385.324667
 21
9.49825
 31
0.0
210
0.0
220
0.0
230
1.0
  0
TEXT
  8
1
  6
CONTINUOUS
 62
     7
  5
2E8
 10
335.313583
 20
-21.4265
 30
0.0
 40
2.5
  1
2
  7
MONOTXT
 72
     4
 11
336.150167
 21
-20.1765
 31
0.0
210
0.0
220
0.0
230
1.0
  0
TEXT
  8
1
  6
CONTINUOUS
 62
     7
  5
2E9
 10
369.655667
 20
-21.560167
 30
0.0
 40
2.5
  1
3
  7
MONOTXT
 72
     4
 11
370.49225
 21
-20.310167
 31
0.0
210
0.0
220
0.0
230
1.0
  0
TEXT
  8
1
  6
CONTINUOUS
 62
     7
  5
2EA
 10
404.205917
 20
-21.4265
 30
0.0
 40
2.5
  1
4
  7
MONOTXT
 72
     4
 11
405.101583
 21
-20.1765
 31
0.0
210
0.0
220
0.0
230
1.0
  0
TEXT
  8
1
  6
CONTINUOUS
 62
     7
  5
2EB
 10
335.16025
 20
-49.630917
 30
0.0
 40
2.5
  1
7
  7
MONOTXT
 72
     4
 11
336.006667
 21
-48.380917
 31
0.0
210
0.0
220
0.0
230
1.0
  0
TEXT
  8
1
  6
CONTINUOUS
 62
     7
  5
2EC
 10
370.0565
 20
-49.363583
 30
0.0
 40
2.5
  1
8
  7
MONOTXT
 72
     4
 11
370.893083
 21
-48.113583
 31
0.0
210
0.0
220
0.0
230
1.0
  0
TEXT
  8
1
  6
CONTINUOUS
 62
     7
  5
2ED
 10
404.8585
 20
-49.49725
 30
0.0
 40
2.5
  1
9
  7
MONOTXT
 72
     4
 11
405.636
 21
-48.24725
 31
0.0
210
0.0
220
0.0
230
1.0
  0
TEXT
  8
1
  6
CONTINUOUS
 62
     7
  5
2EE
 10
435.800833
 20
-27.040667
 30
0.0
 40
2.5
  1
B
  7
MONOTXT
 72
     4
 11
436.637417
 21
-25.790667
 31
0.0
210
0.0
220
0.0
230
1.0
  0
TEXT
  8
1
  6
CONTINUOUS
 62
     7
  5
2EF
 10
435.800833
 20
-43.749417
 30
0.0
 40
2.5
  1
B
  7
MONOTXT
 72
     4
 11
436.637417
 21
-42.499417
 31
0.0
210
0.0
220
0.0
230
1.0
  0
TEXT
  8
1
  6
CONTINUOUS
 62
     7
  5
2F0
 10
338.19425
 20
-79.974
 30
0.0
 40
2.5
  1
C
  7
MONOTXT
 72
     4
 11
339.089917
 21
-78.724
 31
0.0
210
0.0
220
0.0
230
1.0
  0
TEXT
  8
1
  6
CONTINUOUS
 62
     7
  5
2F1
 10
10.789167
 20
-154.5005
 30
0.0
 40
2.5
  1
D
  7
MONOTXT
 72
     4
 11
11.62575
 21
-153.2505
 31
0.0
210
0.0
220
0.0
230
1.0
  0
TEXT
  8
1
  6
CONTINUOUS
 62
     7
  5
2F2
 10
-23.703917
 20
-180.420833
 30
0.0
 40
2.5
  1
B
  7
MONOTXT
 72
     4
 11
-22.867333
 21
-179.170833
 31
0.0
210
0.0
220
0.0
230
1.0
  0
TEXT
  8
1
  6
CONTINUOUS
 62
     7
  5
2F3
 10
13.858083
 20
-232.2615
 30
0.0
 40
2.5
  1
A
  7
MONOTXT
 72
     4
 11
14.822583
 21
-231.0115
 31
0.0
210
0.0
220
0.0
230
1.0
  0
TEXT
  8
1
  6
CONTINUOUS
 62
     7
  5
2F4
 10
50.706833
 20
-232.2615
 30
0.0
 40
2.5
  1
A
  7
MONOTXT
 72
     4
 11
51.671333
 21
-231.0115
 31
0.0
210
0.0
220
0.0
230
1.0
  0
TEXT
  8
1
  6
CONTINUOUS
 62
     7
  5
2F5
 10
89.138833
 20
-186.1435
 30
0.0
 40
2.5
  1
C
  7
MONOTXT
 72
     4
 11
90.0345
 21
-184.8935
 31
0.0
210
0.0
220
0.0
230
1.0
  0
TEXT
  8
1
  6
CONTINUOUS
 62
     7
  5
2F6
 10
88.970583
 20
-201.29175
 30
0.0
 40
2.5
  1
C
  7
MONOTXT
 72
     4
 11
89.86625
 21
-200.04175
 31
0.0
210
0.0
220
0.0
230
1.0
  0
INSERT
  8
1
  6
CONTINUOUS
 62
     1
  5
2F7
  2
LDR
 10
87.9405
 20
-192.330417
 30
0.0
 41
240.0
 42
240.0
 50
270.0
210
0.0
220
0.0
230
1.0
  0
INSERT
  8
1
  6
CONTINUOUS
 62
     1
  5
2F8
  2
LDR
 10
87.9405
 20
-192.330417
 30
0.0
 41
240.0
 42
240.0
 50
270.0
210
0.0
220
0.0
230
1.0
  0
INSERT
  8
1
  6
CONTINUOUS
 62
     1
  5
2F9
  2
LDR
 10
87.9405
 20
-192.330417
 30
0.0
 41
240.0
 42
240.0
 50
90.0
210
0.0
220
0.0
230
1.0
  0
TEXT
  8
1
  6
CONTINUOUS
 62
     7
  5
2FA
 10
172.834333
 20
-171.529
 30
0.0
 40
2.5
  1
D
  7
MONOTXT
 72
     4
 11
173.670917
 21
-170.279
 31
0.0
210
0.0
220
0.0
230
1.0
  0
TEXT
  8
1
  6
CONTINUOUS
 62
     7
  5
2FB
 10
138.991917
 20
-198.028
 30
0.0
 40
2.5
  1
B
  7
MONOTXT
 72
     4
 11
139.8285
 21
-196.778
 31
0.0
210
0.0
220
0.0
230
1.0
  0
TEXT
  8
1
  6
CONTINUOUS
 62
     7
  5
2FC
 10
174.69025
 20
-215.538417
 30
0.0
 40
2.5
  1
A
  7
MONOTXT
 72
     4
 11
175.65475
 21
-214.288417
 31
0.0
210
0.0
220
0.0
230
1.0
  0
TEXT
  8
1
  6
CONTINUOUS
 62
     7
  5
2FD
 10
217.285
 20
-215.304917
 30
0.0
 40
2.5
  1
A
  7
MONOTXT
 72
     4
 11
218.2495
 21
-214.054917
 31
0.0
210
0.0
220
0.0
230
1.0
  0
TEXT
  8
1
  6
CONTINUOUS
 62
     7
  5
2FE
 10
253.530333
 20
-191.140583
 30
0.0
 40
2.5
  1
C
  7
MONOTXT
 72
     4
 11
254.426
 21
-189.890583
 31
0.0
210
0.0
220
0.0
230
1.0
  0
TEXT
  8
1
  6
CONTINUOUS
 62
     7
  5
2FF
 10
253.530333
 20
-196.0435
 30
0.0
 40
2.5
  1
C
  7
MONOTXT
 72
     4
 11
254.426
 21
-194.7935
 31
0.0
210
0.0
220
0.0
230
1.0
  0
TEXT
  8
1
  6
CONTINUOUS
 62
     7
  5
300
 10
198.806083
 20
-190.440167
 30
0.0
 40
2.5
  1
1
  7
MONOTXT
 72
     4
 11
199.101333
 21
-189.190167
 31
0.0
210
0.0
220
0.0
230
1.0
  0
TEXT
  8
1
  6
CONTINUOUS
 62
     7
  5
301
 10
198.39125
 20
-196.277
 30
0.0
 40
2.5
  1
2
  7
MONOTXT
 72
     4
 11
199.227833
 21
-195.027
 31
0.0
210
0.0
220
0.0
230
1.0
  0
TEXT
  8
1
  6
CONTINUOUS
 62
     7
  5
302
 10
157.780333
 20
-191.023833
 30
0.0
 40
2.5
  1
3
  7
MONOTXT
 72
     4
 11
158.616917
 21
-189.773833
 31
0.0
210
0.0
220
0.0
230
1.0
  0
TEXT
  8
1
  6
CONTINUOUS
 62
     7
  5
303
 10
234.1585
 20
-191.374083
 30
0.0
 40
2.5
  1
4
  7
MONOTXT
 72
     4
 11
235.054167
 21
-190.124083
 31
0.0
210
0.0
220
0.0
230
1.0
  0
LINE
  8
1
  6
CONTINUOUS
 62
     7
  5
304
 10
404.016583
 20
-148.61775
 30
0.0
 11
419.089583
 21
-148.61775
 31
0.0
  0
TEXT
  8
1
  6
CONTINUOUS
 62
     7
  5
305
 10
225.963
 20
-94.609917
 30
0.0
 40
8.0
  1
*
  7
txt
 72
     4
 11
228.382333
 21
-90.609917
 31
0.0
210
0.0
220
0.0
230
1.0
  0
TEXT
  8
1
  6
CONTINUOUS
 62
     7
  5
306
 10
147.054
 20
-103.367167
 30
0.0
 40
4.5
  1
*
  7
txt
 72
     4
 11
148.414833
 21
-101.117167
 31
0.0
210
0.0
220
0.0
230
1.0
  0
TEXT
  8
1
  6
CONTINUOUS
 62
     7
  5
307
 10
119.56
 20
-288.673083
 30
0.0
 40
8.0
  1
*
  7
txt
 72
     4
 11
121.979333
 21
-284.673083
 31
0.0
210
0.0
220
0.0
230
1.0
  0
TEXT
  8
1
  6
CONTINUOUS
 62
     7
  5
308
 10
126.584833
 20
-342.7235
 30
0.0
 40
4.5
  1
*
  7
txt
 72
     4
 11
127.945667
 21
-340.4735
 31
0.0
210
0.0
220
0.0
230
1.0
  0
TEXT
  8
1
  6
CONTINUOUS
 62
     7
  5
309
 10
170.038917
 20
-99.14375
 30
0.0
 40
2.0
  1
(a) SIGNS WITH WIDTHS OF 42" - 48" AND HEIGHT OF 9".
  7
txt
 11
170.038917
 21
-97.14375
 31
0.0
210
0.0
220
0.0
230
1.0
 73
     3
  0
TEXT
  8
1
  6
CONTINUOUS
 62
     7
  5
30A
 10
170.038917
 20
-103.14375
 30
0.0
 40
2.0
  1
(b) "M" SERIES SIGNS WITH 45" WIDTH.
  7
txt
 11
170.038917
 21
-101.14375
 31
0.0
210
0.0
220
0.0
230
1.0
 73
     3
  0
TEXT
  8
1
  6
CONTINUOUS
 62
     7
  5
30B
 10
19.6925
 20
-258.890833
 30
0.0
 40
2.0
  1
SINGLE POST MOUNT
  7
txt
 11
19.6925
 21
-256.890833
 31
0.0
210
0.0
220
0.0
230
1.0
 73
     3
  0
TEXT
  8
1
  6
CONTINUOUS
 62
     7
  5
30C
 10
405.149
 20
-147.808167
 30
0.0
 40
2.5
  1
NOTES:
  7
MONOTXT
 11
405.149
 21
-145.308167
 31
0.0
210
0.0
220
0.0
230
1.0
 73
     3
  0
TEXT
  8
1
  6
CONTINUOUS
 62
     7
  5
30D
 10
405.149
 20
-152.308167
 30
0.0
 40
2.5
  1
 
  7
MONOTXT
 11
405.149
 21
-149.808167
 31
0.0
210
0.0
220
0.0
230
1.0
 73
     3
  0
TEXT
  8
1
  6
CONTINUOUS
 62
     7
  5
30E
 10
405.149
 20
-156.808167
 30
0.0
 40
2.5
  1
1.    PUNCHING DETAILS
  7
MONOTXT
 11
405.149
 21
-154.308167
 31
0.0
210
0.0
220
0.0
230
1.0
 73
     3
  0
TEXT
  8
1
  6
CONTINUOUS
 62
     7
  5
30F
 10
405.149
 20
-161.308167
 30
0.0
 40
2.5
  1
 
  7
MONOTXT
 11
405.149
 21
-158.808167
 31
0.0
210
0.0
220
0.0
230
1.0
 73
     3
  0
TEXT
  8
1
  6
CONTINUOUS
 62
     7
  5
310
 10
405.149
 20
-165.808167
 30
0.0
 40
2.5
  1
    1.1    THE SPACING OF THE PUNCHED HOLES WILL BE IN ACCORDANCE WITH
  7
MONOTXT
 11
405.149
 21
-163.308167
 31
0.0
210
0.0
220
0.0
230
1.0
 73
     3
  0
TEXT
  8
1
  6
CONTINUOUS
 62
     7
  5
311
 10
405.149
 20
-170.308167
 30
0.0
 40
2.5
  1
        THE SIGN SIZE TABLE AND ACCOMPANYING DETAIL DRAWINGS.
  7
MONOTXT
 11
405.149
 21
-167.808167
 31
0.0
210
0.0
220
0.0
230
1.0
 73
     3
  0
TEXT
  8
1
  6
CONTINUOUS
 62
     7
  5
312
 10
405.149
 20
-174.808167
 30
0.0
 40
2.5
  1
 
  7
MONOTXT
 11
405.149
 21
-172.308167
 31
0.0
210
0.0
220
0.0
230
1.0
 73
     3
  0
TEXT
  8
1
  6
CONTINUOUS
 62
     7
  5
313
 10
405.149
 20
-179.308167
 30
0.0
 40
2.5
  1
    1.2  ALL HOLES WILL BE  3/8 " DIAMETER, UNLESS OTHERWISE SPECIFIED.
  7
MONOTXT
 11
405.149
 21
-176.808167
 31
0.0
210
0.0
220
0.0
230
1.0
 73
     3
  0
TEXT
  8
1
  6
CONTINUOUS
 62
     7
  5
314
 10
405.149
 20
-183.808167
 30
0.0
 40
2.5
  1
 
  7
MONOTXT
 11
405.149
 21
-181.308167
 31
0.0
210
0.0
220
0.0
230
1.0
 73
     3
  0
TEXT
  8
1
  6
CONTINUOUS
 62
     7
  5
315
 10
405.149
 20
-188.308167
 30
0.0
 40
2.5
  1
    1.3  ALL HORIZONTAL RECTANGLES DESIGNATED AS D16-1 SIGNS AND HAVING
  7
MONOTXT
 11
405.149
 21
-185.808167
 31
0.0
210
0.0
220
0.0
230
1.0
 73
     3
  0
TEXT
  8
1
  6
CONTINUOUS
 62
     7
  5
316
 10
405.149
 20
-192.808167
 30
0.0
 40
2.5
  1
        WIDTHS OF 42" OR 48" SHALL BE PUNCHED IN ACCORDANCE WITH THE
  7
MONOTXT
 11
405.149
 21
-190.308167
 31
0.0
210
0.0
220
0.0
230
1.0
 73
     3
  0
TEXT
  8
1
  6
CONTINUOUS
 62
     7
  5
317
 10
405.149
 20
-197.308167
 30
0.0
 40
2.5
  1
        SIGN SIZE TABLE AND ACCOMPANYING DETAIL DRAWING DESIGNATED
  7
MONOTXT
 11
405.149
 21
-194.808167
 31
0.0
210
0.0
220
0.0
230
1.0
 73
     3
  0
TEXT
  8
1
  6
CONTINUOUS
 62
     7
  5
318
 10
405.149
 20
-201.808167
 30
0.0
 40
2.5
  1
        "D16-1".
  7
MONOTXT
 11
405.149
 21
-199.308167
 31
0.0
210
0.0
220
0.0
230
1.0
 73
     3
  0
TEXT
  8
1
  6
CONTINUOUS
 62
     7
  5
319
 10
405.149
 20
-206.308167
 30
0.0
 40
2.5
  1
 
  7
MONOTXT
 11
405.149
 21
-203.808167
 31
0.0
210
0.0
220
0.0
230
1.0
 73
     3
  0
TEXT
  8
1
  6
CONTINUOUS
 62
     7
  5
31A
 10
405.149
 20
-210.808167
 30
0.0
 40
2.5
  1
    1.4  ALL HORIZONTAL RECTANGLES DESIGNATED AS A "M" SERIES SIGN
  7
MONOTXT
 11
405.149
 21
-208.308167
 31
0.0
210
0.0
220
0.0
230
1.0
 73
     3
  0
TEXT
  8
1
  6
CONTINUOUS
 62
     7
  5
31B
 10
405.149
 20
-215.308167
 30
0.0
 40
2.5
  1
        WITH A WIDTH OF 45" SHALL BE PUNCHED IN ACCORDANCE WITH
  7
MONOTXT
 11
405.149
 21
-212.808167
 31
0.0
210
0.0
220
0.0
230
1.0
 73
     3
  0
TEXT
  8
1
  6
CONTINUOUS
 62
     7
  5
31C
 10
405.149
 20
-219.808167
 30
0.0
 40
2.5
  1
        THE SIGN SIZE TABLE AND ACCOMPANYING DETAIL DRAWING.
  7
MONOTXT
 11
405.149
 21
-217.308167
 31
0.0
210
0.0
220
0.0
230
1.0
 73
     3
  0
TEXT
  8
1
  6
CONTINUOUS
 62
     7
  5
31D
 10
405.149
 20
-224.308167
 30
0.0
 40
2.5
  1
 
  7
MONOTXT
 11
405.149
 21
-221.808167
 31
0.0
210
0.0
220
0.0
230
1.0
 73
     3
  0
TEXT
  8
1
  6
CONTINUOUS
 62
     7
  5
31E
 10
405.149
 20
-228.808167
 30
0.0
 40
2.5
  1
2.    CORNER RADIUS FOR SIGN BLANK MATERIAL SHALL BE 1.5".
  7
MONOTXT
 11
405.149
 21
-226.308167
 31
0.0
210
0.0
220
0.0
230
1.0
 73
     3
  0
ENDSEC
  0
EOF
