  0
SECTION
  2
HEADER
  9
$ACADVER
  1
AC1009
  9
$INSBASE
 10
0.0
 20
0.0
 30
0.0
  9
$EXTMIN
 10
-41.628167
 20
-396.075917
 30
0.0
  9
$EXTMAX
 10
638.451833
 20
43.964083
 30
0.0
  9
$LIMMIN
 10
0.0
 20
0.0
  9
$LIMMAX
 10
12.0
 20
9.0
  9
$ORTHOMODE
 70
     0
  9
$REGENMODE
 70
     1
  9
$FILLMODE
 70
     1
  9
$QTEXTMODE
 70
     0
  9
$MIRRTEXT
 70
     1
  9
$DRAGMODE
 70
     2
  9
$LTSCALE
 40
1.0
  9
$OSMODE
 70
     0
  9
$ATTMODE
 70
     1
  9
$TEXTSIZE
 40
0.2
  9
$TRACEWID
 40
0.05
  9
$TEXTSTYLE
  7
STANDARD
  9
$CLAYER
  8
0
  9
$CELTYPE
  6
CONTINUOUS
  9
$CECOLOR
 62
   256
  9
$DIMSCALE
 40
1.0
  9
$DIMASZ
 40
0.18
  9
$DIMEXO
 40
0.0625
  9
$DIMDLI
 40
0.38
  9
$DIMRND
 40
0.0
  9
$DIMDLE
 40
0.0
  9
$DIMEXE
 40
0.18
  9
$DIMTP
 40
0.0
  9
$DIMTM
 40
0.0
  9
$DIMTXT
 40
0.18
  9
$DIMCEN
 40
0.09
  9
$DIMTSZ
 40
0.0
  9
$DIMTOL
 70
     0
  9
$DIMLIM
 70
     0
  9
$DIMTIH
 70
     1
  9
$DIMTOH
 70
     1
  9
$DIMSE1
 70
     0
  9
$DIMSE2
 70
     0
  9
$DIMTAD
 70
     0
  9
$DIMZIN
 70
     0
  9
$DIMBLK
  1

  9
$DIMASO
 70
     1
  9
$DIMSHO
 70
     1
  9
$DIMPOST
  1

  9
$DIMAPOST
  1

  9
$DIMALT
 70
     0
  9
$DIMALTD
 70
     2
  9
$DIMALTF
 40
25.4
  9
$DIMLFAC
 40
1.0
  9
$DIMTOFL
 70
     0
  9
$DIMTVP
 40
0.0
  9
$DIMTIX
 70
     0
  9
$DIMSOXD
 70
     0
  9
$DIMSAH
 70
     0
  9
$DIMBLK1
  1

  9
$DIMBLK2
  1

  9
$DIMSTYLE
  2
STANDARD
  9
$DIMCLRD
 70
     0
  9
$DIMCLRE
 70
     0
  9
$DIMCLRT
 70
     0
  9
$DIMTFAC
 40
1.0
  9
$DIMGAP
 40
0.09
  9
$LUNITS
 70
     2
  9
$LUPREC
 70
     4
  9
$AXISMODE
 70
     0
  9
$AXISUNIT
 10
0.0
 20
0.0
  9
$SKETCHINC
 40
0.1
  9
$FILLETRAD
 40
0.0
  9
$AUNITS
 70
     0
  9
$AUPREC
 70
     0
  9
$MENU
  1
acad
  9
$ELEVATION
 40
0.0
  9
$PELEVATION
 40
0.0
  9
$THICKNESS
 40
0.0
  9
$LIMCHECK
 70
     0
  9
$BLIPMODE
 70
     1
  9
$CHAMFERA
 40
0.0
  9
$CHAMFERB
 40
0.0
  9
$SKPOLY
 70
     0
  9
$TDCREATE
 40
2451803.445833333
  9
$TDUPDATE
 40
2451803.445833333
  9
$TDINDWG
 40
0.0000000000
  9
$TDUSRTIMER
 40
0.0000000000
  9
$USRTIMER
 70
     1
  9
$ANGBASE
 50
0.0
  9
$ANGDIR
 70
     0
  9
$PDMODE
 70
     0
  9
$PDSIZE
 40
0.0
  9
$PLINEWID
 40
0.0
  9
$COORDS
 70
     0
  9
$SPLFRAME
 70
     0
  9
$SPLINETYPE
 70
     6
  9
$SPLINESEGS
 70
    10
  9
$ATTDIA
 70
     0
  9
$ATTREQ
 70
     1
  9
$HANDLING
 70
     1
  9
$HANDSEED
  5
219
  9
$SURFTAB1
 70
     6
  9
$SURFTAB2
 70
     6
  9
$SURFTYPE
 70
     6
  9
$SURFU
 70
     6
  9
$SURFV
 70
     6
  9
$UCSNAME
  2

  9
$UCSORG
 10
0.0
 20
0.0
 30
0.0
  9
$UCSXDIR
 10
1.0
 20
0.0
 30
0.0
  9
$UCSYDIR
 10
0.0
 20
1.0
 30
0.0
  9
$PUCSNAME
  2

  9
$PUCSORG
 10
0.0
 20
0.0
 30
0.0
  9
$PUCSXDIR
 10
1.0
 20
0.0
 30
0.0
  9
$PUCSYDIR
 10
0.0
 20
1.0
 30
0.0
  9
$USERI1
 70
     0
  9
$USERI2
 70
     0
  9
$USERI3
 70
     0
  9
$USERI4
 70
     0
  9
$USERI5
 70
     0
  9
$USERR1
 40
0.0
  9
$USERR2
 40
0.0
  9
$USERR3
 40
0.0
  9
$USERR4
 40
0.0
  9
$USERR5
 40
0.0
  9
$WORLDVIEW
 70
     1
  9
$SHADEDGE
 70
     3
  9
$SHADEDIF
 70
    70
  9
$TILEMODE
 70
     1
  9
$MAXACTVP
 70
    16
  9
$PINSBASE
 10
0.0
 20
0.0
 30
0.0
  9
$PLIMCHECK
 70
     0
  9
$PEXTMIN
 10
-1.000000E+20
 20
-1.000000E+20
 30
-1.000000E+20
  9
$PEXTMAX
 10
-1.000000E+20
 20
-1.000000E+20
 30
-1.000000E+20
  9
$PLIMMIN
 10
0.0
 20
0.0
  9
$PLIMMAX
 10
12.0
 20
9.0
  9
$UNITMODE
 70
     0
  9
$VISRETAIN
 70
     0
  9
$PLINEGEN
 70
     1
  9
$PSLTSCALE
 70
     0
  9
$TREEDEPTH
 70
  3020
  9
$DWGCODEPAGE
  3
ansi_1252
  0
ENDSEC
  0
SECTION
  2
TABLES
  0
TABLE
  2
VPORT
 70
     1
  0
VPORT
  2
*ACTIVE
 70
     0
 10
0.0
 20
0.0
 11
1.0
 21
1.0
 12
0.0
 22
0.0
 13
0.0
 23
0.0
 14
0.0
 24
0.0
 15
0.0
 25
0.0
 16
0.0
 26
0.0
 36
1.0
 17
252.648133
 27
-176.055917
 37
0.0
 40
451.041
 41
1.795122
 42
50.0
 43
0.0
 44
0.0
 50
0.0
 51
0.0
 71
     0
 72
   100
 73
     1
 74
     0
 75
     0
 76
     0
 77
     0
 78
     0
  0
ENDTAB
  0
TABLE
  2
LTYPE
 70
     7
  0
LTYPE
  2
CONTINUOUS
 70
     0
  3
Solid line
 72
    65
 73
     0
 40
0.0
  0
LTYPE
  2
DOT
 70
    64
  3
. . . . . . . . . . . . . . . . . . . . . . . . . . . . . . . . .
 72
    65
 73
     2
 40
0.25
 49
0.0
 49
-0.25
  0
LTYPE
  2
HIDDEN
 70
    64
  3
__ __ __ __ __ __ __ __ __ __ __ __ __ __ __ __ __ __ __ __ __ 
 72
    65
 73
     2
 40
0.375
 49
0.25
 49
-0.125
  0
LTYPE
  2
DASHED
 70
    64
  3
__ __ __ __ __ __ __ __ __ __ __ __ __ __ __ __ __ __ __ __ __
 72
    65
 73
     2
 40
0.75
 49
0.5
 49
-0.25
  0
LTYPE
  2
DASHDOT
 70
    64
  3
__ . __ . __ . __ . __ . __ . __ . __ . __ . __ . __ . __ . _
 72
    65
 73
     4
 40
1.0
 49
0.5
 49
-0.25
 49
0.0
 49
-0.25
  0
LTYPE
  2
DIVIDE
 70
    64
  3
____ . . ____ . . ____ . . ____ . . ____ . . ____ . . ____ . .
 72
    65
 73
     6
 40
1.25
 49
0.5
 49
-0.25
 49
0.0
 49
-0.25
 49
0.0
 49
-0.25
  0
LTYPE
  2
CENTER
 70
    64
  3
____ _ ____ _ ____ _ ____ _ ____ _ ____ _ ____ _ ____ _ ____ _
 72
    65
 73
     4
 40
2.0
 49
1.25
 49
-0.25
 49
0.25
 49
-0.25
  0
ENDTAB
  0
TABLE
  2
LAYER
 70
     5
  0
LAYER
  2
0
 70
     0
 62
     7
  6
CONTINUOUS
  0
LAYER
  2
CONSTRUCTION_CLASS
 70
     0
 62
     7
  6
CONTINUOUS
  0
LAYER
  2
PATTERN_CLASS
 70
     0
 62
     7
  6
CONTINUOUS
  0
LAYER
  2
61
 70
    64
 62
     7
  6
CONTINUOUS
  0
LAYER
  2
1
 70
    64
 62
     7
  6
CONTINUOUS
  0
ENDTAB
  0
TABLE
  2
STYLE
 70
     4
  0
STYLE
  2
STANDARD
 70
     0
 40
0.0
 41
1.0
 50
0.0
 71
     0
 42
0.0
  3
txt
  4

  0
STYLE
  2
MONOTXT
 70
     0
 40
0.2
 41
1.0
 50
0.0
 71
     0
 42
0.2
  3
MONOTXT
  4

  0
STYLE
  2
txt
 70
     0
 40
0.2
 41
1.0
 50
0.0
 71
     0
 42
0.2
  3
TXT
  4

  0
STYLE
  2
ROMANT
 70
     0
 40
0.2
 41
1.0
 50
0.0
 71
     0
 42
0.2
  3
ROMANT
  4

  0
ENDTAB
  0
TABLE
  2
VIEW
 70
     0
  0
ENDTAB
  0
TABLE
  2
UCS
 70
     0
  0
ENDTAB
  0
TABLE
  2
APPID
 70
     1
  0
APPID
  2
ACAD
 70
     0
  0
ENDTAB
  0
TABLE
  2
DIMSTYLE
 70
     1
  0
DIMSTYLE
  2
STANDARD
 70
     0
  3

  4

  5

  6

  7

 40
1.0
 41
0.18
 42
0.0625
 43
0.38
 44
0.18
 45
0.0
 46
0.0
 47
0.0
 48
0.0
140
0.18
141
0.09
142
0.0
143
25.4
144
1.0
145
0.0
146
1.0
147
0.09
 71
     0
 72
     0
 73
     1
 74
     1
 75
     0
 76
     0
 77
     0
 78
     0
170
     0
171
     2
172
     0
173
     0
174
     0
175
     0
176
     0
177
     0
178
     0
  0
ENDTAB
  0
ENDSEC
  0
SECTION
  2
BLOCKS
  0
BLOCK
  8
1
  6
CONTINUOUS
 62
     1
  5
C6
  2
LDR
 70
     0
 10
0.0
 20
0.0
 30
0.0
  3
LNR
  0
POLYLINE
  8
1
  6
CONTINUOUS
 62
     1
  5
C7
 66
     1
 10
0.0
 20
0.0
 30
0.0
210
0.0
220
0.0
230
1.0
  0
VERTEX
  8
1
  6
CONTINUOUS
 62
     1
  5
C8
 10
-0.011987
 20
-0.001802
 30
0.0
 42
-0.265147
  0
VERTEX
  8
1
  6
CONTINUOUS
 62
     1
  5
C9
 10
-0.011849
 20
-0.001604
 30
0.0
 42
-0.064653
  0
VERTEX
  8
1
  6
CONTINUOUS
 62
     1
  5
CA
 10
-0.011407
 20
-0.001387
 30
0.0
 42
-0.025822
  0
VERTEX
  8
1
  6
CONTINUOUS
 62
     1
  5
CB
 10
-0.010681
 20
-0.00116
 30
0.0
 42
-0.014504
  0
VERTEX
  8
1
  6
CONTINUOUS
 62
     1
  5
CC
 10
-0.0097
 20
-0.000933
 30
0.0
 42
-0.009896
  0
VERTEX
  8
1
  6
CONTINUOUS
 62
     1
  5
CD
 10
-0.008505
 20
-0.000715
 30
0.0
 42
-0.007708
  0
VERTEX
  8
1
  6
CONTINUOUS
 62
     1
  5
CE
 10
-0.007146
 20
-0.000515
 30
0.0
 42
-0.006655
  0
VERTEX
  8
1
  6
CONTINUOUS
 62
     1
  5
CF
 10
-0.005679
 20
-0.000342
 30
0.0
 42
-0.006278
  0
VERTEX
  8
1
  6
CONTINUOUS
 62
     1
  5
D0
 10
-0.004164
 20
-0.000202
 30
0.0
 42
-0.006439
  0
VERTEX
  8
1
  6
CONTINUOUS
 62
     1
  5
D1
 10
-0.002666
 20
-0.000101
 30
0.0
 42
-0.007196
  0
VERTEX
  8
1
  6
CONTINUOUS
 62
     1
  5
D2
 10
-0.001246
 20
-0.000044
 30
0.0
 42
-0.008852
  0
VERTEX
  8
1
  6
CONTINUOUS
 62
     1
  5
D3
 10
0.000037
 20
-0.000034
 30
0.0
 42
-0.008852
  0
SEQEND
  8
1
  6
CONTINUOUS
 62
     1
  5
D4
  0
POLYLINE
  8
1
  6
CONTINUOUS
 62
     1
  5
D5
 66
     1
 10
0.0
 20
0.0
 30
0.0
210
0.0
220
0.0
230
1.0
  0
VERTEX
  8
1
  6
CONTINUOUS
 62
     1
  5
D6
 10
0.000039
 20
0.000014
 30
0.0
 42
-0.005019
  0
VERTEX
  8
1
  6
CONTINUOUS
 62
     1
  5
D7
 10
-0.001103
 20
0.000071
 30
0.0
 42
-0.004038
  0
VERTEX
  8
1
  6
CONTINUOUS
 62
     1
  5
D8
 10
-0.002373
 20
0.000158
 30
0.0
 42
-0.003548
  0
VERTEX
  8
1
  6
CONTINUOUS
 62
     1
  5
D9
 10
-0.003725
 20
0.00027
 30
0.0
 42
-0.003367
  0
VERTEX
  8
1
  6
CONTINUOUS
 62
     1
  5
DA
 10
-0.005111
 20
0.000405
 30
0.0
 42
-0.003436
  0
VERTEX
  8
1
  6
CONTINUOUS
 62
     1
  5
DB
 10
-0.006481
 20
0.000556
 30
0.0
 42
-0.003778
  0
VERTEX
  8
1
  6
CONTINUOUS
 62
     1
  5
DC
 10
-0.007786
 20
0.00072
 30
0.0
 42
-0.00451
  0
VERTEX
  8
1
  6
CONTINUOUS
 62
     1
  5
DD
 10
-0.008979
 20
0.000889
 30
0.0
 42
-0.00594
  0
VERTEX
  8
1
  6
CONTINUOUS
 62
     1
  5
DE
 10
-0.010018
 20
0.001058
 30
0.0
 42
-0.008921
  0
VERTEX
  8
1
  6
CONTINUOUS
 62
     1
  5
DF
 10
-0.010864
 20
0.00122
 30
0.0
 42
-0.016392
  0
VERTEX
  8
1
  6
CONTINUOUS
 62
     1
  5
E0
 10
-0.011488
 20
0.001371
 30
0.0
 42
-0.04458
  0
VERTEX
  8
1
  6
CONTINUOUS
 62
     1
  5
E1
 10
-0.011867
 20
0.001503
 30
0.0
 42
-0.317392
  0
VERTEX
  8
1
  6
CONTINUOUS
 62
     1
  5
E2
 10
-0.011987
 20
0.001614
 30
0.0
 42
-0.317392
  0
SEQEND
  8
1
  6
CONTINUOUS
 62
     1
  5
E3
  0
ENDBLK
  8
1
  6
CONTINUOUS
 62
     1
  5
E4
  0
ENDSEC
  0
SECTION
  2
ENTITIES
  0
LINE
  8
61
  6
CONTINUOUS
 62
     1
  5
29
 10
627.471833
 20
33.964083
 30
0.0
 11
-11.568167
 21
33.964083
 31
0.0
  0
LINE
  8
61
  6
CONTINUOUS
 62
     1
  5
2A
 10
-11.568167
 20
33.964083
 30
0.0
 11
-11.568167
 21
-386.055917
 31
0.0
  0
LINE
  8
61
  6
CONTINUOUS
 62
     1
  5
2B
 10
627.491833
 20
-386.075917
 30
0.0
 11
-11.568167
 21
-386.055917
 31
0.0
  0
LINE
  8
61
  6
CONTINUOUS
 62
     1
  5
2C
 10
627.471833
 20
33.964083
 30
0.0
 11
627.491833
 21
-386.075917
 31
0.0
  0
LINE
  8
61
  6
CONTINUOUS
 62
     1
  5
2D
 10
621.371833
 20
29.224083
 30
0.0
 11
513.391833
 21
29.204083
 31
0.0
  0
LINE
  8
61
  6
CONTINUOUS
 62
     1
  5
2E
 10
513.391833
 20
29.204083
 30
0.0
 11
513.391833
 21
9.204083
 31
0.0
  0
LINE
  8
61
  6
CONTINUOUS
 62
     1
  5
2F
 10
621.371833
 20
29.224083
 30
0.0
 11
621.371833
 21
9.224083
 31
0.0
  0
LINE
  8
61
  6
CONTINUOUS
 62
     1
  5
30
 10
621.371833
 20
9.224083
 30
0.0
 11
513.391833
 21
9.204083
 31
0.0
  0
LINE
  8
61
  6
CONTINUOUS
 62
     1
  5
31
 10
621.391833
 20
19.184083
 30
0.0
 11
513.371833
 21
19.204083
 31
0.0
  0
LINE
  8
61
  6
CONTINUOUS
 62
     1
  5
32
 10
523.391833
 20
29.204083
 30
0.0
 11
523.391833
 21
9.204083
 31
0.0
  0
LINE
  8
61
  6
CONTINUOUS
 62
     1
  5
33
 10
533.391833
 20
29.204083
 30
0.0
 11
533.391833
 21
9.204083
 31
0.0
  0
LINE
  8
61
  6
CONTINUOUS
 62
     1
  5
34
 10
547.071833
 20
29.204083
 30
0.0
 11
547.071833
 21
9.204083
 31
0.0
  0
LINE
  8
61
  6
CONTINUOUS
 62
     1
  5
35
 10
611.371833
 20
29.224083
 30
0.0
 11
611.371833
 21
9.224083
 31
0.0
  0
LINE
  8
61
  6
CONTINUOUS
 62
     1
  5
36
 10
601.371833
 20
29.224083
 30
0.0
 11
601.371833
 21
9.224083
 31
0.0
  0
LINE
  8
61
  6
CONTINUOUS
 62
     1
  5
37
 10
579.391833
 20
29.204083
 30
0.0
 11
579.391833
 21
9.204083
 31
0.0
  0
LINE
  8
61
  6
CONTINUOUS
 62
     1
  5
38
 10
569.391833
 20
29.204083
 30
0.0
 11
569.391833
 21
9.204083
 31
0.0
  0
TEXT
  8
61
  6
CONTINUOUS
 62
     1
  5
3A
 10
515.431833
 20
26.184083
 30
0.0
 40
1.20075
  1
PUBLIC
 50
0.033272
 41
1.001804
  7
MONOTXT
210
0.0
220
0.0
230
1.0
  0
TEXT
  8
61
  6
CONTINUOUS
 62
     1
  5
3B
 10
515.511833
 20
23.664083
 30
0.0
 40
1.20075
  1
ROADS
 50
0.124322
 41
0.996877
  7
MONOTXT
210
0.0
220
0.0
230
1.0
  0
TEXT
  8
61
  6
CONTINUOUS
 62
     1
  5
3C
 10
516.711833
 20
21.164083
 30
0.0
 40
1.20075
  1
DIV.
 50
359.931522
 41
0.994864
  7
MONOTXT
210
0.0
220
0.0
230
1.0
  0
TEXT
  8
61
  6
CONTINUOUS
 62
     1
  5
3D
 10
525.591833
 20
26.244083
 30
0.0
 40
1.20075
  1
STATE
 50
0.058969
 41
0.998196
  7
MONOTXT
210
0.0
220
0.0
230
1.0
  0
TEXT
  8
61
  6
CONTINUOUS
 62
     1
  5
3E
 10
526.471833
 20
23.744083
 30
0.0
 40
1.20075
  1
DIST.
 50
0.055889
 41
0.999584
  7
MONOTXT
210
0.0
220
0.0
230
1.0
  0
TEXT
  8
61
  6
CONTINUOUS
 62
     1
  5
3F
 10
527.051833
 20
21.224083
 30
0.0
 40
1.20075
  1
NO.
 50
359.852072
 41
0.997779
  7
MONOTXT
210
0.0
220
0.0
230
1.0
  0
TEXT
  8
61
  6
CONTINUOUS
 62
     1
  5
40
 10
537.591833
 20
26.184083
 30
0.0
 40
1.20075
  1
STATE
 50
0.058969
 41
0.998196
  7
MONOTXT
210
0.0
220
0.0
230
1.0
  0
TEXT
  8
61
  6
CONTINUOUS
 62
     1
  5
41
 10
536.511833
 20
23.764083
 30
0.0
 40
1.20075
  1
PROJECT
 50
359.908431
 41
1.000069
  7
MONOTXT
210
0.0
220
0.0
230
1.0
  0
TEXT
  8
61
  6
CONTINUOUS
 62
     1
  5
42
 10
539.251833
 20
21.224083
 30
0.0
 40
1.20075
  1
NO.
 50
0.225453
 41
0.993546
  7
MONOTXT
210
0.0
220
0.0
230
1.0
  0
TEXT
  8
61
  6
CONTINUOUS
 62
     1
  5
43
 10
554.891833
 20
25.064083
 30
0.0
 40
1.20075
  1
FEDERAL
 50
0.006714
 41
0.998543
  7
MONOTXT
210
0.0
220
0.0
230
1.0
  0
TEXT
  8
61
  6
CONTINUOUS
 62
     1
  5
44
 10
553.351833
 20
22.404083
 30
0.0
 40
1.20075
  1
PROJECT NO.
 50
359.921531
 41
1.000694
  7
MONOTXT
210
0.0
220
0.0
230
1.0
  0
TEXT
  8
61
  6
CONTINUOUS
 62
     1
  5
45
 10
571.631833
 20
25.004083
 30
0.0
 40
1.20075
  1
FISCAL
 50
359.941939
 41
0.998959
  7
MONOTXT
210
0.0
220
0.0
230
1.0
  0
TEXT
  8
61
  6
CONTINUOUS
 62
     1
  5
46
 10
572.151833
 20
22.104083
 30
0.0
 40
1.20075
  1
YEAR
 50
0.104606
 41
0.993268
  7
MONOTXT
210
0.0
220
0.0
230
1.0
  0
TEXT
  8
61
  6
CONTINUOUS
 62
     1
  5
47
 10
586.251833
 20
23.464083
 30
0.0
 40
1.20075
  1
COUNTY
 50
0.068575
 41
1.001874
  7
MONOTXT
210
0.0
220
0.0
230
1.0
  0
TEXT
  8
61
  6
CONTINUOUS
 62
     1
  5
48
 10
603.891833
 20
25.124083
 30
0.0
 40
1.20075
  1
SHEET
 50
0.058969
 41
0.997571
  7
MONOTXT
210
0.0
220
0.0
230
1.0
  0
TEXT
  8
61
  6
CONTINUOUS
 62
     1
  5
49
 10
605.311833
 20
22.404083
 30
0.0
 40
1.20075
  1
NO.
 50
359.852072
 41
0.997779
  7
MONOTXT
210
0.0
220
0.0
230
1.0
  0
TEXT
  8
61
  6
CONTINUOUS
 62
     1
  5
4A
 10
613.631833
 20
24.984083
 30
0.0
 40
1.20075
  1
TOTAL
 50
359.926039
 41
0.998543
  7
MONOTXT
210
0.0
220
0.0
230
1.0
  0
TEXT
  8
61
  6
CONTINUOUS
 62
     1
  5
4B
 10
613.171833
 20
22.284083
 30
0.0
 40
1.20075
  1
SHEETS
 50
359.958675
  7
MONOTXT
210
0.0
220
0.0
230
1.0
  0
TEXT
  8
61
  6
CONTINUOUS
 62
     1
  5
4C
 10
525.991833
 20
13.404083
 30
0.0
 40
2.401333
  1
  
 50
0.029406
 41
0.996495
  7
MONOTXT
210
0.0
220
0.0
230
1.0
  0
TEXT
  8
61
  6
CONTINUOUS
 62
     1
  5
4D
 10
603.171833
 20
13.124083
 30
0.0
 40
2.401333
  1
   
 50
0.011508
 41
1.001006
  7
MONOTXT
210
0.0
220
0.0
230
1.0
  0
TEXT
  8
61
  6
CONTINUOUS
 62
     1
  5
4E
 10
613.051833
 20
13.104083
 30
0.0
 40
2.401333
  1
   
 50
359.922128
 41
1.000555
  7
MONOTXT
210
0.0
220
0.0
230
1.0
  0
TEXT
  8
61
  6
CONTINUOUS
 62
     1
  5
4F
 10
536.431833
 20
16.504083
 30
0.0
 40
2.00675
  1
    
 50
0.054383
 41
0.993729
  7
MONOTXT
210
0.0
220
0.0
230
1.0
  0
TEXT
  8
61
  6
CONTINUOUS
 62
     1
  5
50
 10
533.511833
 20
13.484083
 30
0.0
 40
1.989583
  1
       
 50
0.064678
 41
1.000963
  7
MONOTXT
210
0.0
220
0.0
230
1.0
  0
TEXT
  8
61
  6
CONTINUOUS
 62
     1
  5
51
 10
534.471833
 20
10.584083
 30
0.0
 40
1.989583
  1
      
 50
359.958053
 41
1.000293
  7
MONOTXT
210
0.0
220
0.0
230
1.0
  0
TEXT
  8
61
  6
CONTINUOUS
 62
     1
  5
52
 10
545.431833
 20
15.224083
 30
0.0
 40
2.401333
  1
           
 50
0.011508
 41
0.998751
  7
MONOTXT
210
0.0
220
0.0
230
1.0
  0
TEXT
  8
61
  6
CONTINUOUS
 62
     1
  5
53
 10
545.311833
 20
11.564083
 30
0.0
 40
2.401333
  1
           
 50
0.011508
 41
0.999584
  7
MONOTXT
210
0.0
220
0.0
230
1.0
  0
TEXT
  8
61
  6
CONTINUOUS
 62
     1
  5
54
 10
580.651833
 20
13.304083
 30
0.0
 40
2.00675
  1
          
 50
0.009222
 41
0.992774
  7
MONOTXT
210
0.0
220
0.0
230
1.0
  0
ARC
  8
61
  6
CONTINUOUS
 62
     1
  5
55
 10
-29.87041
 20
-54.794622
 30
0.0
 40
2.499998
 50
323.130094
 51
316.232156
210
0.0
220
0.0
230
1.0
  0
ARC
  8
61
  6
CONTINUOUS
 62
     1
  5
56
 10
-29.87041
 20
-109.794622
 30
0.0
 40
2.499998
 50
323.130094
 51
315.375767
210
0.0
220
0.0
230
1.0
  0
ARC
  8
61
  6
CONTINUOUS
 62
     1
  5
57
 10
-30.15041
 20
-258.234622
 30
0.0
 40
2.499998
 50
322.671753
 51
321.716147
210
0.0
220
0.0
230
1.0
  0
ARC
  8
61
  6
CONTINUOUS
 62
     1
  5
58
 10
-30.15041
 20
-313.234622
 30
0.0
 40
2.499998
 50
323.130094
 51
312.314392
210
0.0
220
0.0
230
1.0
  0
LINE
  8
61
  6
CONTINUOUS
 62
     1
  5
59
 10
-27.848167
 20
-54.795917
 30
0.0
 11
-19.868167
 21
-54.775917
 31
0.0
  0
LINE
  8
61
  6
CONTINUOUS
 62
     1
  5
5A
 10
-27.868167
 20
-109.795917
 30
0.0
 11
-19.868167
 21
-109.795917
 31
0.0
  0
LINE
  8
61
  6
CONTINUOUS
 62
     1
  5
5B
 10
-28.148167
 20
-258.215917
 30
0.0
 11
-20.148167
 21
-258.215917
 31
0.0
  0
LINE
  8
61
  6
CONTINUOUS
 62
     1
  5
5C
 10
-28.128167
 20
-313.235917
 30
0.0
 11
-20.148167
 21
-313.235917
 31
0.0
  0
LINE
  8
61
  6
DASHED
 62
     1
  5
5D
 10
-41.568167
 20
43.964083
 30
0.0
 11
638.451833
 21
43.964083
 31
0.0
  0
LINE
  8
61
  6
DASHED
 62
     1
  5
5E
 10
638.431833
 20
-396.055917
 30
0.0
 11
-41.628167
 21
-396.075917
 31
0.0
  0
TEXT
  8
61
  6
CONTINUOUS
 62
     1
  5
5F
 10
600.911833
 20
1.384083
 30
0.0
 40
2.401333
  1
     
 41
1.001388
  7
MONOTXT
210
0.0
220
0.0
230
1.0
  0
LINE
  8
1
  6
HIDDEN
 62
     1
  5
61
 10
638.451833
 20
43.964083
 30
0.0
 11
638.431833
 21
-396.055917
 31
0.0
  0
LINE
  8
1
  6
HIDDEN
 62
     1
  5
62
 10
-41.568167
 20
43.964083
 30
0.0
 11
-41.628167
 21
-396.075917
 31
0.0
  0
TEXT
  8
1
  6
CONTINUOUS
 62
     1
  5
64
 10
593.211833
 20
-388.575917
 30
0.0
 40
1.2
  1
TRAFFIC ENGINEERING DIVISION
  7
txt
210
0.0
220
0.0
230
1.0
  0
LINE
  8
1
  6
CONTINUOUS
 62
     1
  5
65
 10
455.831833
 20
-386.075917
 30
0.0
 11
455.831833
 21
-294.495917
 31
0.0
  0
LINE
  8
1
  6
CONTINUOUS
 62
     1
  5
66
 10
455.831833
 20
-294.495917
 30
0.0
 11
627.491833
 21
-294.495917
 31
0.0
  0
LINE
  8
1
  6
CONTINUOUS
 62
     1
  5
67
 10
490.831833
 20
-386.115917
 30
0.0
 11
490.831833
 21
-341.155917
 31
0.0
  0
LINE
  8
1
  6
CONTINUOUS
 62
     1
  5
68
 10
490.831833
 20
-341.155917
 30
0.0
 11
455.851833
 21
-341.155917
 31
0.0
  0
LINE
  8
1
  6
CONTINUOUS
 62
     1
  5
69
 10
490.831833
 20
-345.635917
 30
0.0
 11
455.851833
 21
-345.635917
 31
0.0
  0
LINE
  8
1
  6
CONTINUOUS
 62
     1
  5
6A
 10
490.831833
 20
-350.135917
 30
0.0
 11
455.851833
 21
-350.135917
 31
0.0
  0
LINE
  8
1
  6
CONTINUOUS
 62
     1
  5
6B
 10
490.831833
 20
-354.635917
 30
0.0
 11
455.851833
 21
-354.635917
 31
0.0
  0
LINE
  8
1
  6
CONTINUOUS
 62
     1
  5
6C
 10
490.831833
 20
-359.155917
 30
0.0
 11
455.851833
 21
-359.155917
 31
0.0
  0
LINE
  8
1
  6
CONTINUOUS
 62
     1
  5
6D
 10
490.831833
 20
-363.635917
 30
0.0
 11
455.851833
 21
-363.635917
 31
0.0
  0
LINE
  8
1
  6
CONTINUOUS
 62
     1
  5
6E
 10
490.831833
 20
-368.115917
 30
0.0
 11
455.851833
 21
-368.115917
 31
0.0
  0
LINE
  8
1
  6
CONTINUOUS
 62
     1
  5
6F
 10
490.831833
 20
-372.615917
 30
0.0
 11
455.851833
 21
-372.615917
 31
0.0
  0
LINE
  8
1
  6
CONTINUOUS
 62
     1
  5
70
 10
490.831833
 20
-377.115917
 30
0.0
 11
455.851833
 21
-377.115917
 31
0.0
  0
LINE
  8
1
  6
CONTINUOUS
 62
     1
  5
71
 10
490.831833
 20
-381.635917
 30
0.0
 11
455.851833
 21
-381.635917
 31
0.0
  0
TEXT
  8
1
  6
CONTINUOUS
 62
     1
  5
72
 10
466.111833
 20
-344.155917
 30
0.0
 40
1.99775
  1
REVISIONS
  7
MONOTXT
210
0.0
220
0.0
230
1.0
  0
TEXT
  8
1
  6
CONTINUOUS
 62
     1
  5
73
 10
457.791833
 20
-340.155917
 30
0.0
 40
1.99775
  1
PREPARED: 10/01/69
  7
MONOTXT
210
0.0
220
0.0
230
1.0
  0
TEXT
  8
1
  6
CONTINUOUS
 62
     1
  5
75
 10
488.451833
 20
-303.095917
 30
0.0
 40
4.794833
  1
WEST VIRGINIA DIVISION OF HIGHWAYS
  7
ROMANT
 72
     1
 11
542.422083
 21
-298.301083
 31
0.0
210
0.0
220
0.0
230
1.0
 73
     3
  0
TEXT
  8
1
  6
CONTINUOUS
 62
     1
  5
76
 10
499.211833
 20
-314.255917
 30
0.0
 40
6.992667
  1
STANDARD DETAIL
  7
txt
 72
     1
 11
543.701917
 21
-307.26325
 31
0.0
210
0.0
220
0.0
230
1.0
 73
     3
  0
TEXT
  8
1
  6
CONTINUOUS
 62
     1
  5
77
 10
494.671833
 20
-382.035917
 30
0.0
 40
6.992667
  1
STANDARD SHEET TP2-1 
  7
txt
210
0.0
220
0.0
230
1.0
  0
TEXT
  8
1
  6
CONTINUOUS
 62
     1
  5
78
 10
465.95075
 20
-349.215917
 30
0.0
 40
2.0
  1
05-01-70
  7
MONOTXT
 72
     1
 11
472.80125
 21
-347.215917
 31
0.0
210
0.0
220
0.0
230
1.0
 73
     3
  0
TEXT
  8
1
  6
CONTINUOUS
 62
     1
  5
79
 10
466.403167
 20
-353.615917
 30
0.0
 40
2.0
  1
11-03-76
  7
MONOTXT
 72
     1
 11
472.789083
 21
-351.615917
 31
0.0
210
0.0
220
0.0
230
1.0
 73
     3
  0
TEXT
  8
1
  6
CONTINUOUS
 62
     1
  5
7A
 10
466.061
 20
-358.015917
 30
0.0
 40
2.0
  1
10-26-93
  7
MONOTXT
 72
     1
 11
472.809167
 21
-356.015917
 31
0.0
210
0.0
220
0.0
230
1.0
 73
     3
  0
TEXT
  8
1
  6
CONTINUOUS
 62
     1
  5
7B
 10
465.131833
 20
-362.415917
 30
0.0
 40
2.0
  1
        
  7
MONOTXT
 72
     1
 11
472.798667
 21
-360.415917
 31
0.0
210
0.0
220
0.0
230
1.0
 73
     3
  0
TEXT
  8
1
  6
CONTINUOUS
 62
     1
  5
7C
 10
464.971833
 20
-367.015917
 30
0.0
 40
2.0
  1
        
  7
MONOTXT
 72
     1
 11
472.638667
 21
-365.015917
 31
0.0
210
0.0
220
0.0
230
1.0
 73
     3
  0
TEXT
  8
1
  6
CONTINUOUS
 62
     1
  5
7D
 10
465.131833
 20
-371.495917
 30
0.0
 40
2.0
  1
        
  7
MONOTXT
 72
     1
 11
472.798667
 21
-369.495917
 31
0.0
210
0.0
220
0.0
230
1.0
 73
     3
  0
TEXT
  8
1
  6
CONTINUOUS
 62
     1
  5
7E
 10
465.031833
 20
-376.095917
 30
0.0
 40
2.0
  1
        
  7
MONOTXT
 72
     1
 11
472.698667
 21
-374.095917
 31
0.0
210
0.0
220
0.0
230
1.0
 73
     3
  0
TEXT
  8
1
  6
CONTINUOUS
 62
     1
  5
7F
 10
465.131833
 20
-380.675917
 30
0.0
 40
2.0
  1
        
  7
MONOTXT
 72
     1
 11
472.798667
 21
-378.675917
 31
0.0
210
0.0
220
0.0
230
1.0
 73
     3
  0
TEXT
  8
1
  6
CONTINUOUS
 62
     1
  5
80
 10
465.131833
 20
-384.695917
 30
0.0
 40
2.0
  1
        
  7
MONOTXT
 72
     1
 11
472.798667
 21
-382.695917
 31
0.0
210
0.0
220
0.0
230
1.0
 73
     3
  0
TEXT
  8
1
  6
CONTINUOUS
 62
     1
  5
81
 10
507.951833
 20
-388.475917
 30
0.0
 40
1.2
  1
CATALOG:dt standa  FILENAME:tp21.dgn     DATE:03/25/93
  7
MONOTXT
210
0.0
220
0.0
230
1.0
  0
TEXT
  8
1
  6
CONTINUOUS
 62
     1
  5
82
 10
463.5
 20
-323.629667
 30
0.0
 40
6.992667
  1
PUNCHING FOR XR-3 AND XR-9
  7
txt
 72
     1
 11
541.619667
 21
-316.637
 31
0.0
210
0.0
220
0.0
230
1.0
 73
     3
  0
TEXT
  8
1
  6
CONTINUOUS
 62
     1
  5
83
 10
458.829083
 20
-333.350833
 30
0.0
 40
6.992667
  1
DELINEATOR MOUNTING PLAQUES
  7
txt
 72
     1
 11
541.272583
 21
-326.358167
 31
0.0
210
0.0
220
0.0
230
1.0
 73
     3
  0
POLYLINE
  8
1
  6
CONTINUOUS
 62
     7
  5
84
 66
     1
 10
0.0
 20
0.0
 30
0.0
  0
VERTEX
  8
1
  6
CONTINUOUS
 62
     7
  5
85
 10
458.220083
 20
-288.489917
 30
0.0
  0
VERTEX
  8
1
  6
CONTINUOUS
 62
     7
  5
86
 10
456.220083
 20
-291.954
 30
0.0
  0
VERTEX
  8
1
  6
CONTINUOUS
 62
     7
  5
87
 10
460.220083
 20
-291.954
 30
0.0
  0
VERTEX
  8
1
  6
CONTINUOUS
 62
     7
  5
88
 10
458.220083
 20
-288.489917
 30
0.0
  0
SEQEND
  8
1
  6
CONTINUOUS
 62
     7
  5
89
  0
POLYLINE
  8
1
  6
CONTINUOUS
 62
     7
  5
8A
 66
     1
 10
0.0
 20
0.0
 30
0.0
  0
VERTEX
  8
1
  6
CONTINUOUS
 62
     7
  5
8B
 10
461.505917
 20
-350.656
 30
0.0
  0
VERTEX
  8
1
  6
CONTINUOUS
 62
     7
  5
8C
 10
459.505917
 20
-354.120083
 30
0.0
  0
VERTEX
  8
1
  6
CONTINUOUS
 62
     7
  5
8D
 10
463.505917
 20
-354.120083
 30
0.0
  0
VERTEX
  8
1
  6
CONTINUOUS
 62
     7
  5
8E
 10
461.505917
 20
-350.656
 30
0.0
  0
SEQEND
  8
1
  6
CONTINUOUS
 62
     7
  5
8F
  0
TEXT
  8
1
  6
CONTINUOUS
 62
     7
  5
90
 10
457.721167
 20
-291.335167
 30
0.0
 40
1.5
  1
2
  7
MONOTXT
210
0.0
220
0.0
230
1.0
  0
TEXT
  8
1
  6
CONTINUOUS
 62
     7
  5
91
 10
461.232917
 20
-353.46475
 30
0.0
 40
1.5
  1
1
  7
MONOTXT
210
0.0
220
0.0
230
1.0
  0
LINE
  8
1
  6
CONTINUOUS
 62
     1
  5
92
 10
69.631
 20
-202.23775
 30
0.0
 11
69.631
 21
-181.23775
 31
0.0
  0
LINE
  8
1
  6
CONTINUOUS
 62
     1
  5
93
 10
73.631
 20
-177.23775
 30
0.0
 11
138.131
 21
-177.23775
 31
0.0
  0
LINE
  8
1
  6
CONTINUOUS
 62
     1
  5
94
 10
142.131
 20
-181.23775
 30
0.0
 11
142.131
 21
-202.23775
 31
0.0
  0
LINE
  8
1
  6
CONTINUOUS
 62
     1
  5
95
 10
138.131
 20
-206.23775
 30
0.0
 11
73.631
 21
-206.23775
 31
0.0
  0
ARC
  8
1
  6
CONTINUOUS
 62
     1
  5
96
 10
73.631
 20
-202.23775
 30
0.0
 40
4.0
 50
180.0
 51
270.0
210
0.0
220
0.0
230
1.0
  0
ARC
  8
1
  6
CONTINUOUS
 62
     1
  5
97
 10
73.631
 20
-181.23775
 30
0.0
 40
4.0
 50
90.0
 51
180.0
210
0.0
220
0.0
230
1.0
  0
ARC
  8
1
  6
CONTINUOUS
 62
     1
  5
98
 10
138.131
 20
-181.23775
 30
0.0
 40
4.0
 50
0.0
 51
90.0
210
0.0
220
0.0
230
1.0
  0
ARC
  8
1
  6
CONTINUOUS
 62
     1
  5
99
 10
138.131
 20
-202.23775
 30
0.0
 40
4.0
 50
270.0
 51
360.0
210
0.0
220
0.0
230
1.0
  0
LINE
  8
1
  6
CONTINUOUS
 62
     7
  5
9A
 10
65.631
 20
-191.73775
 30
0.0
 11
142.131
 21
-191.73775
 31
0.0
  0
LINE
  8
1
  6
CONTINUOUS
 62
     7
  5
9B
 10
83.881
 20
-191.73775
 30
0.0
 11
83.881
 21
-170.23775
 31
0.0
  0
LINE
  8
1
  6
CONTINUOUS
 62
     7
  5
9C
 10
127.881
 20
-191.73775
 30
0.0
 11
127.881
 21
-170.23775
 31
0.0
  0
CIRCLE
  8
1
  6
CONTINUOUS
 62
     1
  5
9D
 10
83.881
 20
-191.73775
 30
0.0
 40
7.5
210
0.0
220
0.0
230
1.0
  0
CIRCLE
  8
1
  6
CONTINUOUS
 62
     1
  5
9E
 10
105.881
 20
-191.73775
 30
0.0
 40
7.5
210
0.0
220
0.0
230
1.0
  0
CIRCLE
  8
1
  6
CONTINUOUS
 62
     1
  5
9F
 10
127.881
 20
-191.73775
 30
0.0
 40
7.5
210
0.0
220
0.0
230
1.0
  0
CIRCLE
  8
1
  6
CONTINUOUS
 62
     1
  5
A0
 10
72.631
 20
-191.73775
 30
0.0
 40
1.25
210
0.0
220
0.0
230
1.0
  0
CIRCLE
  8
1
  6
CONTINUOUS
 62
     1
  5
A1
 10
105.881
 20
-203.23775
 30
0.0
 40
1.25
210
0.0
220
0.0
230
1.0
  0
CIRCLE
  8
1
  6
CONTINUOUS
 62
     1
  5
A2
 10
105.881
 20
-180.23775
 30
0.0
 40
1.25
210
0.0
220
0.0
230
1.0
  0
CIRCLE
  8
1
  6
CONTINUOUS
 62
     1
  5
A3
 10
139.131
 20
-191.73775
 30
0.0
 40
1.25
210
0.0
220
0.0
230
1.0
  0
CIRCLE
  8
1
  6
CONTINUOUS
 62
     1
  5
A4
 10
83.881
 20
-191.73775
 30
0.0
 40
1.0
210
0.0
220
0.0
230
1.0
  0
CIRCLE
  8
1
  6
CONTINUOUS
 62
     1
  5
A5
 10
105.881
 20
-191.73775
 30
0.0
 40
1.0
210
0.0
220
0.0
230
1.0
  0
CIRCLE
  8
1
  6
CONTINUOUS
 62
     1
  5
A6
 10
127.881
 20
-191.73775
 30
0.0
 40
1.0
210
0.0
220
0.0
230
1.0
  0
LINE
  8
1
  6
CONTINUOUS
 62
     7
  5
A7
 10
72.631
 20
-191.73775
 30
0.0
 11
72.631
 21
-188.73775
 31
0.0
  0
LINE
  8
1
  6
CONTINUOUS
 62
     7
  5
A8
 10
72.631
 20
-191.73775
 30
0.0
 11
72.631
 21
-194.73775
 31
0.0
  0
LINE
  8
1
  6
CONTINUOUS
 62
     7
  5
A9
 10
105.881
 20
-222.73775
 30
0.0
 11
105.881
 21
-200.48775
 31
0.0
  0
LINE
  8
1
  6
CONTINUOUS
 62
     7
  5
AA
 10
105.881
 20
-191.73775
 30
0.0
 11
105.881
 21
-170.23775
 31
0.0
  0
LINE
  8
1
  6
CONTINUOUS
 62
     7
  5
AB
 10
105.881
 20
-180.23775
 30
0.0
 11
101.881
 21
-180.23775
 31
0.0
  0
LINE
  8
1
  6
CONTINUOUS
 62
     7
  5
AC
 10
105.881
 20
-180.23775
 30
0.0
 11
109.881
 21
-180.23775
 31
0.0
  0
LINE
  8
1
  6
CONTINUOUS
 62
     7
  5
AD
 10
139.131
 20
-191.73775
 30
0.0
 11
139.131
 21
-188.73775
 31
0.0
  0
LINE
  8
1
  6
CONTINUOUS
 62
     7
  5
AE
 10
139.131
 20
-191.73775
 30
0.0
 11
139.131
 21
-194.73775
 31
0.0
  0
LINE
  8
1
  6
CONTINUOUS
 62
     7
  5
AF
 10
105.881
 20
-203.23775
 30
0.0
 11
65.631
 21
-203.23775
 31
0.0
  0
LINE
  8
1
  6
CONTINUOUS
 62
     7
  5
B0
 10
105.881
 20
-203.23775
 30
0.0
 11
109.881
 21
-203.23775
 31
0.0
  0
LINE
  8
1
  6
CONTINUOUS
 62
     7
  5
B1
 10
69.631
 20
-178.23775
 30
0.0
 11
69.631
 21
-164.23775
 31
0.0
  0
LINE
  8
1
  6
CONTINUOUS
 62
     7
  5
B2
 10
142.131
 20
-178.23775
 30
0.0
 11
142.131
 21
-164.23775
 31
0.0
  0
LINE
  8
1
  6
CONTINUOUS
 62
     7
  5
B3
 10
69.631
 20
-222.73775
 30
0.0
 11
69.631
 21
-205.23775
 31
0.0
  0
LINE
  8
1
  6
CONTINUOUS
 62
     7
  5
B4
 10
72.631
 20
-195.73775
 30
0.0
 11
72.631
 21
-214.73775
 31
0.0
  0
LINE
  8
1
  6
CONTINUOUS
 62
     7
  5
B5
 10
76.381
 20
-196.73775
 30
0.0
 11
76.381
 21
-214.73775
 31
0.0
  0
LINE
  8
1
  6
CONTINUOUS
 62
     7
  5
B6
 10
91.381
 20
-196.73775
 30
0.0
 11
91.381
 21
-214.73775
 31
0.0
  0
LINE
  8
1
  6
CONTINUOUS
 62
     7
  5
B7
 10
70.631
 20
-206.23775
 30
0.0
 11
60.631
 21
-206.23775
 31
0.0
  0
LINE
  8
1
  6
CONTINUOUS
 62
     7
  5
B8
 10
70.631
 20
-177.23775
 30
0.0
 11
60.631
 21
-177.23775
 31
0.0
  0
LINE
  8
1
  6
CONTINUOUS
 62
     7
  5
B9
 10
141.131
 20
-177.23775
 30
0.0
 11
151.131
 21
-177.23775
 31
0.0
  0
LINE
  8
1
  6
CONTINUOUS
 62
     7
  5
BA
 10
142.131
 20
-191.73775
 30
0.0
 11
151.131
 21
-191.73775
 31
0.0
  0
LINE
  8
1
  6
CONTINUOUS
 62
     7
  5
BB
 10
78.577667
 20
-186.434417
 30
0.0
 11
53.121833
 21
-160.978583
 31
0.0
  0
LINE
  8
1
  6
CONTINUOUS
 62
     7
  5
BC
 10
106.588083
 20
-192.444833
 30
0.0
 11
121.3335
 21
-232.957417
 31
0.0
  0
LINE
  8
1
  6
CONTINUOUS
 62
     7
  5
BD
 10
138.247083
 20
-192.621667
 30
0.0
 11
126.154917
 21
-225.844667
 31
0.0
  0
LINE
  8
1
  6
CONTINUOUS
 62
     7
  5
BE
 10
140.959417
 20
-205.066167
 30
0.0
 11
143.216833
 21
-217.868667
 31
0.0
  0
LINE
  8
1
  6
CONTINUOUS
 62
     7
  5
BF
 10
150.131
 20
-191.73775
 30
0.0
 11
150.131
 21
-177.23775
 31
0.0
  0
LINE
  8
1
  6
CONTINUOUS
 62
     7
  5
C0
 10
61.631
 20
-206.23775
 30
0.0
 11
61.631
 21
-177.23775
 31
0.0
  0
LINE
  8
1
  6
CONTINUOUS
 62
     7
  5
C1
 10
66.631
 20
-198.23775
 30
0.0
 11
66.631
 21
-203.23775
 31
0.0
  0
LINE
  8
1
  6
CONTINUOUS
 62
     7
  5
C2
 10
66.631
 20
-206.23775
 30
0.0
 11
66.631
 21
-211.23775
 31
0.0
  0
LINE
  8
1
  6
CONTINUOUS
 62
     7
  5
C3
 10
75.881
 20
-213.73775
 30
0.0
 11
72.631
 21
-213.73775
 31
0.0
  0
LINE
  8
1
  6
CONTINUOUS
 62
     7
  5
C4
 10
69.631
 20
-213.73775
 30
0.0
 11
64.631
 21
-213.73775
 31
0.0
  0
INSERT
  8
1
  6
CONTINUOUS
 62
     1
  5
E5
  2
LDR
 10
61.631
 20
-206.23775
 30
0.0
 41
240.0
 42
240.0
 50
270.0
210
0.0
220
0.0
230
1.0
  0
INSERT
  8
1
  6
CONTINUOUS
 62
     1
  5
E6
  2
LDR
 10
61.631
 20
-206.23775
 30
0.0
 41
240.0
 42
240.0
 50
270.0
210
0.0
220
0.0
230
1.0
  0
INSERT
  8
1
  6
CONTINUOUS
 62
     1
  5
E7
  2
LDR
 10
61.631
 20
-177.23775
 30
0.0
 41
240.0
 42
240.0
 50
90.0
210
0.0
220
0.0
230
1.0
  0
INSERT
  8
1
  6
CONTINUOUS
 62
     1
  5
E8
  2
LDR
 10
61.631
 20
-177.23775
 30
0.0
 41
240.0
 42
240.0
 50
90.0
210
0.0
220
0.0
230
1.0
  0
INSERT
  8
1
  6
CONTINUOUS
 62
     1
  5
E9
  2
LDR
 10
66.631
 20
-203.23775
 30
0.0
 41
240.0
 42
240.0
 50
270.0
210
0.0
220
0.0
230
1.0
  0
INSERT
  8
1
  6
CONTINUOUS
 62
     1
  5
EA
  2
LDR
 10
66.631
 20
-203.23775
 30
0.0
 41
240.0
 42
240.0
 50
270.0
210
0.0
220
0.0
230
1.0
  0
INSERT
  8
1
  6
CONTINUOUS
 62
     1
  5
EB
  2
LDR
 10
66.631
 20
-206.23775
 30
0.0
 41
240.0
 42
240.0
 50
90.0
210
0.0
220
0.0
230
1.0
  0
INSERT
  8
1
  6
CONTINUOUS
 62
     1
  5
EC
  2
LDR
 10
66.631
 20
-206.23775
 30
0.0
 41
240.0
 42
240.0
 50
90.0
210
0.0
220
0.0
230
1.0
  0
INSERT
  8
1
  6
CONTINUOUS
 62
     1
  5
ED
  2
LDR
 10
69.631
 20
-213.73775
 30
0.0
 41
240.0
 42
240.0
210
0.0
220
0.0
230
1.0
  0
INSERT
  8
1
  6
CONTINUOUS
 62
     1
  5
EE
  2
LDR
 10
69.631
 20
-213.73775
 30
0.0
 41
240.0
 42
240.0
210
0.0
220
0.0
230
1.0
  0
INSERT
  8
1
  6
CONTINUOUS
 62
     1
  5
EF
  2
LDR
 10
69.631
 20
-221.73775
 30
0.0
 41
240.0
 42
240.0
 50
180.0
210
0.0
220
0.0
230
1.0
  0
INSERT
  8
1
  6
CONTINUOUS
 62
     1
  5
F0
  2
LDR
 10
69.631
 20
-221.73775
 30
0.0
 41
240.0
 42
240.0
 50
180.0
210
0.0
220
0.0
230
1.0
  0
INSERT
  8
1
  6
CONTINUOUS
 62
     1
  5
F1
  2
LDR
 10
105.881
 20
-221.73775
 30
0.0
 41
240.0
 42
240.0
210
0.0
220
0.0
230
1.0
  0
INSERT
  8
1
  6
CONTINUOUS
 62
     1
  5
F2
  2
LDR
 10
105.881
 20
-221.73775
 30
0.0
 41
240.0
 42
240.0
210
0.0
220
0.0
230
1.0
  0
INSERT
  8
1
  6
CONTINUOUS
 62
     1
  5
F3
  2
LDR
 10
72.631
 20
-213.73775
 30
0.0
 41
240.0
 42
240.0
 50
180.0
210
0.0
220
0.0
230
1.0
  0
INSERT
  8
1
  6
CONTINUOUS
 62
     1
  5
F4
  2
LDR
 10
72.631
 20
-213.73775
 30
0.0
 41
240.0
 42
240.0
 50
180.0
210
0.0
220
0.0
230
1.0
  0
INSERT
  8
1
  6
CONTINUOUS
 62
     1
  5
F5
  2
LDR
 10
76.381
 20
-213.73775
 30
0.0
 41
240.0
 42
240.0
 50
180.0
210
0.0
220
0.0
230
1.0
  0
INSERT
  8
1
  6
CONTINUOUS
 62
     1
  5
F6
  2
LDR
 10
76.381
 20
-213.73775
 30
0.0
 41
240.0
 42
240.0
 50
180.0
210
0.0
220
0.0
230
1.0
  0
INSERT
  8
1
  6
CONTINUOUS
 62
     1
  5
F7
  2
LDR
 10
91.381
 20
-213.73775
 30
0.0
 41
240.0
 42
240.0
210
0.0
220
0.0
230
1.0
  0
INSERT
  8
1
  6
CONTINUOUS
 62
     1
  5
F8
  2
LDR
 10
91.381
 20
-213.73775
 30
0.0
 41
240.0
 42
240.0
210
0.0
220
0.0
230
1.0
  0
INSERT
  8
1
  6
CONTINUOUS
 62
     1
  5
F9
  2
LDR
 10
78.577667
 20
-186.434417
 30
0.0
 41
239.999999
 42
239.999999
 50
315.0
210
0.0
220
0.0
230
1.0
  0
INSERT
  8
1
  6
CONTINUOUS
 62
     1
  5
FA
  2
LDR
 10
78.577667
 20
-186.434417
 30
0.0
 41
239.999999
 42
239.999999
 50
315.0
210
0.0
220
0.0
230
1.0
  0
INSERT
  8
1
  6
CONTINUOUS
 62
     1
  5
FB
  2
LDR
 10
69.631
 20
-171.23775
 30
0.0
 41
240.0
 42
240.0
 50
180.0
210
0.0
220
0.0
230
1.0
  0
INSERT
  8
1
  6
CONTINUOUS
 62
     1
  5
FC
  2
LDR
 10
69.631
 20
-171.23775
 30
0.0
 41
240.0
 42
240.0
 50
180.0
210
0.0
220
0.0
230
1.0
  0
INSERT
  8
1
  6
CONTINUOUS
 62
     1
  5
FD
  2
LDR
 10
83.881
 20
-171.23775
 30
0.0
 41
240.0
 42
240.0
210
0.0
220
0.0
230
1.0
  0
INSERT
  8
1
  6
CONTINUOUS
 62
     1
  5
FE
  2
LDR
 10
83.881
 20
-171.23775
 30
0.0
 41
240.0
 42
240.0
210
0.0
220
0.0
230
1.0
  0
INSERT
  8
1
  6
CONTINUOUS
 62
     1
  5
FF
  2
LDR
 10
69.631
 20
-165.23775
 30
0.0
 41
240.0
 42
240.0
 50
180.0
210
0.0
220
0.0
230
1.0
  0
INSERT
  8
1
  6
CONTINUOUS
 62
     1
  5
100
  2
LDR
 10
69.631
 20
-165.23775
 30
0.0
 41
240.0
 42
240.0
 50
180.0
210
0.0
220
0.0
230
1.0
  0
INSERT
  8
1
  6
CONTINUOUS
 62
     1
  5
101
  2
LDR
 10
83.881
 20
-171.23775
 30
0.0
 41
240.0
 42
240.0
 50
180.0
210
0.0
220
0.0
230
1.0
  0
INSERT
  8
1
  6
CONTINUOUS
 62
     1
  5
102
  2
LDR
 10
83.881
 20
-171.23775
 30
0.0
 41
240.0
 42
240.0
 50
180.0
210
0.0
220
0.0
230
1.0
  0
INSERT
  8
1
  6
CONTINUOUS
 62
     1
  5
103
  2
LDR
 10
105.881
 20
-171.23775
 30
0.0
 41
240.0
 42
240.0
210
0.0
220
0.0
230
1.0
  0
INSERT
  8
1
  6
CONTINUOUS
 62
     1
  5
104
  2
LDR
 10
105.881
 20
-171.23775
 30
0.0
 41
240.0
 42
240.0
210
0.0
220
0.0
230
1.0
  0
INSERT
  8
1
  6
CONTINUOUS
 62
     1
  5
105
  2
LDR
 10
105.881
 20
-171.23775
 30
0.0
 41
240.0
 42
240.0
 50
180.0
210
0.0
220
0.0
230
1.0
  0
INSERT
  8
1
  6
CONTINUOUS
 62
     1
  5
106
  2
LDR
 10
105.881
 20
-171.23775
 30
0.0
 41
240.0
 42
240.0
 50
180.0
210
0.0
220
0.0
230
1.0
  0
INSERT
  8
1
  6
CONTINUOUS
 62
     1
  5
107
  2
LDR
 10
127.881
 20
-171.23775
 30
0.0
 41
240.0
 42
240.0
210
0.0
220
0.0
230
1.0
  0
INSERT
  8
1
  6
CONTINUOUS
 62
     1
  5
108
  2
LDR
 10
127.881
 20
-171.23775
 30
0.0
 41
240.0
 42
240.0
210
0.0
220
0.0
230
1.0
  0
INSERT
  8
1
  6
CONTINUOUS
 62
     1
  5
109
  2
LDR
 10
127.881
 20
-171.23775
 30
0.0
 41
240.0
 42
240.0
 50
180.0
210
0.0
220
0.0
230
1.0
  0
INSERT
  8
1
  6
CONTINUOUS
 62
     1
  5
10A
  2
LDR
 10
127.881
 20
-171.23775
 30
0.0
 41
240.0
 42
240.0
 50
180.0
210
0.0
220
0.0
230
1.0
  0
INSERT
  8
1
  6
CONTINUOUS
 62
     1
  5
10B
  2
LDR
 10
142.131
 20
-171.23775
 30
0.0
 41
240.0
 42
240.0
210
0.0
220
0.0
230
1.0
  0
INSERT
  8
1
  6
CONTINUOUS
 62
     1
  5
10C
  2
LDR
 10
142.131
 20
-171.23775
 30
0.0
 41
240.0
 42
240.0
210
0.0
220
0.0
230
1.0
  0
INSERT
  8
1
  6
CONTINUOUS
 62
     1
  5
10D
  2
LDR
 10
142.131
 20
-165.23775
 30
0.0
 41
240.0
 42
240.0
210
0.0
220
0.0
230
1.0
  0
INSERT
  8
1
  6
CONTINUOUS
 62
     1
  5
10E
  2
LDR
 10
142.131
 20
-165.23775
 30
0.0
 41
240.0
 42
240.0
210
0.0
220
0.0
230
1.0
  0
INSERT
  8
1
  6
CONTINUOUS
 62
     1
  5
10F
  2
LDR
 10
150.131
 20
-191.73775
 30
0.0
 41
240.0
 42
240.0
 50
270.0
210
0.0
220
0.0
230
1.0
  0
INSERT
  8
1
  6
CONTINUOUS
 62
     1
  5
110
  2
LDR
 10
150.131
 20
-191.73775
 30
0.0
 41
240.0
 42
240.0
 50
270.0
210
0.0
220
0.0
230
1.0
  0
INSERT
  8
1
  6
CONTINUOUS
 62
     1
  5
111
  2
LDR
 10
150.131
 20
-177.23775
 30
0.0
 41
240.0
 42
240.0
 50
90.0
210
0.0
220
0.0
230
1.0
  0
INSERT
  8
1
  6
CONTINUOUS
 62
     1
  5
112
  2
LDR
 10
150.131
 20
-177.23775
 30
0.0
 41
240.0
 42
240.0
 50
90.0
210
0.0
220
0.0
230
1.0
  0
INSERT
  8
1
  6
CONTINUOUS
 62
     1
  5
113
  2
LDR
 10
138.247083
 20
-192.621667
 30
0.0
 41
240.000002
 42
240.000002
 50
70.000052
210
0.0
220
0.0
230
1.0
  0
INSERT
  8
1
  6
CONTINUOUS
 62
     1
  5
114
  2
LDR
 10
138.247083
 20
-192.621667
 30
0.0
 41
240.000002
 42
240.000002
 50
70.000052
210
0.0
220
0.0
230
1.0
  0
INSERT
  8
1
  6
CONTINUOUS
 62
     1
  5
115
  2
LDR
 10
106.588083
 20
-192.444833
 30
0.0
 41
240.0
 42
240.0
 50
110.000021
210
0.0
220
0.0
230
1.0
  0
INSERT
  8
1
  6
CONTINUOUS
 62
     1
  5
116
  2
LDR
 10
106.588083
 20
-192.444833
 30
0.0
 41
240.0
 42
240.0
 50
110.000021
210
0.0
220
0.0
230
1.0
  0
INSERT
  8
1
  6
CONTINUOUS
 62
     1
  5
117
  2
LDR
 10
140.959417
 20
-205.066167
 30
0.0
 41
239.999998
 42
239.999998
 50
99.999959
210
0.0
220
0.0
230
1.0
  0
TEXT
  8
1
  6
CONTINUOUS
 62
     7
  5
118
 10
19.203917
 20
-162.247667
 30
0.0
 40
2.5
  1
AMBER REFLEX
 50
360.0
  7
MONOTXT
 72
     4
 11
33.386917
 21
-160.997667
 31
0.0
210
0.0
220
0.0
230
1.0
  0
TEXT
  8
1
  6
CONTINUOUS
 62
     7
  5
119
 10
21.507083
 20
-166.747667
 30
0.0
 40
2.5
  1
REFLECTORS
 50
360.0
  7
MONOTXT
 72
     4
 11
33.386917
 21
-165.497667
 31
0.0
210
0.0
220
0.0
230
1.0
  0
TEXT
  8
1
  6
CONTINUOUS
 62
     7
  5
11A
 10
57.018833
 20
-192.521167
 30
0.0
 40
2.5
  1
6"
 50
360.0
  7
MONOTXT
 72
     4
 11
58.721583
 21
-191.271167
 31
0.0
210
0.0
220
0.0
230
1.0
  0
TEXT
  8
1
  6
CONTINUOUS
 62
     7
  5
11B
 10
63.573667
 20
-196.603167
 30
0.0
 40
2.5
  1
 1/2 "
 50
360.0
  7
MONOTXT
 72
     4
 11
66.1425
 21
-195.353167
 31
0.0
210
0.0
220
0.0
230
1.0
  0
TEXT
  8
1
  6
CONTINUOUS
 62
     7
  5
11C
 10
58.922917
 20
-214.560667
 30
0.0
 40
2.5
  1
 1/2 "
 50
360.0
  7
MONOTXT
 72
     4
 11
61.49175
 21
-213.310667
 31
0.0
210
0.0
220
0.0
230
1.0
  0
TEXT
  8
1
  6
CONTINUOUS
 62
     7
  5
11D
 10
83.808
 20
-223.081083
 30
0.0
 40
2.5
  1
7 1/2 "
 50
360.0
  7
MONOTXT
 72
     4
 11
87.636667
 21
-221.831083
 31
0.0
210
0.0
220
0.0
230
1.0
  0
TEXT
  8
1
  6
CONTINUOUS
 62
     7
  5
11E
 10
79.870167
 20
-215.15725
 30
0.0
 40
2.5
  1
3 1/4 "
 50
360.0
  7
MONOTXT
 72
     4
 11
83.679167
 21
-213.90725
 31
0.0
210
0.0
220
0.0
230
1.0
  0
LINE
  8
1
  6
CONTINUOUS
 62
     7
  5
11F
 10
76.381
 20
-213.73775
 30
0.0
 11
79.659833
 21
-213.73775
 31
0.0
  0
LINE
  8
1
  6
CONTINUOUS
 62
     7
  5
120
 10
88.169917
 20
-213.73775
 30
0.0
 11
91.381
 21
-213.73775
 31
0.0
  0
LINE
  8
1
  6
CONTINUOUS
 62
     7
  5
121
 10
69.631
 20
-221.73775
 30
0.0
 11
83.402417
 21
-221.73775
 31
0.0
  0
LINE
  8
1
  6
CONTINUOUS
 62
     7
  5
122
 10
92.437833
 20
-221.73775
 30
0.0
 11
105.881
 21
-221.73775
 31
0.0
  0
TEXT
  8
1
  6
CONTINUOUS
 62
     7
  5
123
 10
74.809167
 20
-172.272667
 30
0.0
 40
2.5
  1
3"
 50
360.0
  7
MONOTXT
 72
     4
 11
76.571
 21
-171.022667
 31
0.0
210
0.0
220
0.0
230
1.0
  0
LINE
  8
1
  6
CONTINUOUS
 62
     7
  5
124
 10
83.881
 20
-171.23775
 30
0.0
 11
79.325583
 21
-171.23775
 31
0.0
  0
LINE
  8
1
  6
CONTINUOUS
 62
     7
  5
125
 10
73.991333
 20
-171.23775
 30
0.0
 11
69.631
 21
-171.23775
 31
0.0
  0
TEXT
  8
1
  6
CONTINUOUS
 62
     7
  5
126
 10
91.355583
 20
-172.100833
 30
0.0
 40
2.5
  1
4 1/2 "
 50
360.0
  7
MONOTXT
 72
     4
 11
95.223667
 21
-170.850833
 31
0.0
210
0.0
220
0.0
230
1.0
  0
TEXT
  8
1
  6
CONTINUOUS
 62
     7
  5
127
 10
113.567833
 20
-172.07275
 30
0.0
 40
2.5
  1
4 1/2 "
 50
360.0
  7
MONOTXT
 72
     4
 11
117.435917
 21
-170.82275
 31
0.0
210
0.0
220
0.0
230
1.0
  0
TEXT
  8
1
  6
CONTINUOUS
 62
     7
  5
128
 10
133.294917
 20
-172.667333
 30
0.0
 40
2.5
  1
3"
 50
360.0
  7
MONOTXT
 72
     4
 11
135.05675
 21
-171.417333
 31
0.0
210
0.0
220
0.0
230
1.0
  0
LINE
  8
1
  6
CONTINUOUS
 62
     7
  5
129
 10
83.881
 20
-171.23775
 30
0.0
 11
90.601583
 21
-171.23775
 31
0.0
  0
LINE
  8
1
  6
CONTINUOUS
 62
     7
  5
12A
 10
99.791333
 20
-171.23775
 30
0.0
 11
105.881
 21
-171.23775
 31
0.0
  0
LINE
  8
1
  6
CONTINUOUS
 62
     7
  5
12B
 10
105.881
 20
-171.23775
 30
0.0
 11
112.714333
 21
-171.23775
 31
0.0
  0
LINE
  8
1
  6
CONTINUOUS
 62
     7
  5
12C
 10
121.678333
 20
-171.23775
 30
0.0
 11
127.881
 21
-171.23775
 31
0.0
  0
LINE
  8
1
  6
CONTINUOUS
 62
     7
  5
12D
 10
127.881
 20
-171.23775
 30
0.0
 11
132.292
 21
-171.23775
 31
0.0
  0
LINE
  8
1
  6
CONTINUOUS
 62
     7
  5
12E
 10
137.827
 20
-171.23775
 30
0.0
 11
142.131
 21
-171.23775
 31
0.0
  0
TEXT
  8
1
  6
CONTINUOUS
 62
     7
  5
12F
 10
103.48075
 20
-166.33075
 30
0.0
 40
2.5
  1
15"
 50
360.0
  7
MONOTXT
 72
     4
 11
105.95125
 21
-165.08075
 31
0.0
210
0.0
220
0.0
230
1.0
  0
LINE
  8
1
  6
CONTINUOUS
 62
     7
  5
130
 10
69.631
 20
-165.23775
 30
0.0
 11
102.034
 21
-165.23775
 31
0.0
  0
LINE
  8
1
  6
CONTINUOUS
 62
     7
  5
131
 10
109.945083
 20
-165.23775
 30
0.0
 11
142.131
 21
-165.23775
 31
0.0
  0
TEXT
  8
1
  6
CONTINUOUS
 62
     7
  5
132
 10
151.091
 20
-185.78375
 30
0.0
 40
2.5
  1
3"
 50
360.0
  7
MONOTXT
 72
     4
 11
152.852833
 21
-184.53375
 31
0.0
210
0.0
220
0.0
230
1.0
  0
TEXT
  8
1
  6
CONTINUOUS
 62
     7
  5
133
 10
126.921167
 20
-234.118333
 30
0.0
 40
2.5
  1
RIVET HOLE
 50
360.0
  7
MONOTXT
 72
     4
 11
138.092333
 21
-232.868333
 31
0.0
210
0.0
220
0.0
230
1.0
  0
TEXT
  8
1
  6
CONTINUOUS
 62
     7
  5
134
 10
132.288917
 20
-226.747167
 30
0.0
 40
2.5
  1
MOUNTING HOLE
 50
360.0
  7
MONOTXT
 72
     4
 11
147.475917
 21
-225.497167
 31
0.0
210
0.0
220
0.0
230
1.0
  0
TEXT
  8
1
  6
CONTINUOUS
 62
     7
  5
135
 10
149.02075
 20
-219.21825
 30
0.0
 40
2.5
  1
 1/2 " (RADIUS)
 50
360.0
  7
MONOTXT
 72
     4
 11
160.70375
 21
-217.96825
 31
0.0
210
0.0
220
0.0
230
1.0
  0
TEXT
  8
1
  6
CONTINUOUS
 62
     7
  5
136
 10
104.17
 20
-246.32725
 30
0.0
 40
3.5
  1
XR-3
 50
360.0
  7
MONOTXT
 72
     4
 11
110.24675
 21
-244.57725
 31
0.0
210
0.0
220
0.0
230
1.0
  0
TEXT
  8
1
  6
CONTINUOUS
 62
     7
  5
137
 10
99.3885
 20
-251.82725
 30
0.0
 40
3.5
  1
6" x 15"
 50
360.0
  7
MONOTXT
 72
     4
 11
110.233
 21
-250.07725
 31
0.0
210
0.0
220
0.0
230
1.0
  0
LINE
  8
1
  6
CONTINUOUS
 62
     1
  5
138
 10
296.954917
 20
-126.699833
 30
0.0
 11
349.280833
 21
-179.02575
 31
0.0
  0
LINE
  8
1
  6
CONTINUOUS
 62
     1
  5
139
 10
349.280833
 20
-187.511
 30
0.0
 11
296.954917
 21
-239.836917
 31
0.0
  0
LINE
  8
1
  6
CONTINUOUS
 62
     1
  5
13A
 10
288.469583
 20
-239.836833
 30
0.0
 11
236.14375
 21
-187.511
 31
0.0
  0
LINE
  8
1
  6
CONTINUOUS
 62
     1
  5
13B
 10
236.14375
 20
-179.025667
 30
0.0
 11
288.469583
 21
-126.699833
 31
0.0
  0
ARC
  8
1
  6
CONTINUOUS
 62
     1
  5
13C
 10
240.386381
 20
-183.268349
 30
0.0
 40
6.0
 50
134.999786
 51
225.0
210
0.0
220
0.0
230
1.0
  0
ARC
  8
1
  6
CONTINUOUS
 62
     1
  5
13D
 10
292.71226
 20
-130.942458
 30
0.0
 40
6.0
 50
45.0
 51
135.000139
210
0.0
220
0.0
230
1.0
  0
ARC
  8
1
  6
CONTINUOUS
 62
     1
  5
13E
 10
345.038157
 20
-183.268355
 30
0.0
 40
6.0
 50
315.000294
 51
45.0
210
0.0
220
0.0
230
1.0
  0
ARC
  8
1
  6
CONTINUOUS
 62
     1
  5
13F
 10
292.712258
 20
-235.594227
 30
0.0
 40
6.0
 50
225.0
 51
314.999886
210
0.0
220
0.0
230
1.0
  0
CIRCLE
  8
1
  6
CONTINUOUS
 62
     1
  5
140
 10
292.71225
 20
-130.942417
 30
0.0
 40
1.25
210
0.0
220
0.0
230
1.0
  0
CIRCLE
  8
1
  6
CONTINUOUS
 62
     1
  5
141
 10
240.386417
 20
-183.268333
 30
0.0
 40
1.25
210
0.0
220
0.0
230
1.0
  0
CIRCLE
  8
1
  6
CONTINUOUS
 62
     1
  5
142
 10
292.71225
 20
-235.59425
 30
0.0
 40
1.25
210
0.0
220
0.0
230
1.0
  0
CIRCLE
  8
1
  6
CONTINUOUS
 62
     1
  5
143
 10
345.038167
 20
-183.268333
 30
0.0
 40
1.25
210
0.0
220
0.0
230
1.0
  0
LINE
  8
1
  6
CONTINUOUS
 62
     7
  5
144
 10
329.481833
 20
-183.268333
 30
0.0
 11
349.987833
 21
-203.774333
 31
0.0
  0
LINE
  8
1
  6
CONTINUOUS
 62
     7
  5
145
 10
313.21825
 20
-240.543917
 30
0.0
 11
292.71225
 21
-220.037917
 31
0.0
  0
LINE
  8
1
  6
CONTINUOUS
 62
     7
  5
146
 10
311.097083
 20
-201.653167
 30
0.0
 11
331.603083
 21
-222.159167
 31
0.0
  0
CIRCLE
  8
1
  6
CONTINUOUS
 62
     1
  5
147
 10
255.942667
 20
-183.268333
 30
0.0
 40
7.5
210
0.0
220
0.0
230
1.0
  0
CIRCLE
  8
1
  6
CONTINUOUS
 62
     1
  5
148
 10
255.942667
 20
-183.268333
 30
0.0
 40
1.0
210
0.0
220
0.0
230
1.0
  0
CIRCLE
  8
1
  6
CONTINUOUS
 62
     1
  5
149
 10
274.3275
 20
-164.883583
 30
0.0
 40
7.5
210
0.0
220
0.0
230
1.0
  0
CIRCLE
  8
1
  6
CONTINUOUS
 62
     1
  5
14A
 10
274.3275
 20
-164.883583
 30
0.0
 40
1.0
210
0.0
220
0.0
230
1.0
  0
CIRCLE
  8
1
  6
CONTINUOUS
 62
     1
  5
14B
 10
292.71225
 20
-146.49875
 30
0.0
 40
7.5
210
0.0
220
0.0
230
1.0
  0
CIRCLE
  8
1
  6
CONTINUOUS
 62
     1
  5
14C
 10
292.71225
 20
-146.49875
 30
0.0
 40
1.0
210
0.0
220
0.0
230
1.0
  0
CIRCLE
  8
1
  6
CONTINUOUS
 62
     1
  5
14D
 10
311.097083
 20
-164.883583
 30
0.0
 40
7.5
210
0.0
220
0.0
230
1.0
  0
CIRCLE
  8
1
  6
CONTINUOUS
 62
     1
  5
14E
 10
311.097083
 20
-164.883583
 30
0.0
 40
1.0
210
0.0
220
0.0
230
1.0
  0
CIRCLE
  8
1
  6
CONTINUOUS
 62
     1
  5
14F
 10
329.481833
 20
-183.268333
 30
0.0
 40
7.5
210
0.0
220
0.0
230
1.0
  0
CIRCLE
  8
1
  6
CONTINUOUS
 62
     1
  5
150
 10
329.481833
 20
-183.268333
 30
0.0
 40
1.0
210
0.0
220
0.0
230
1.0
  0
CIRCLE
  8
1
  6
CONTINUOUS
 62
     1
  5
151
 10
311.097083
 20
-201.653167
 30
0.0
 40
7.5
210
0.0
220
0.0
230
1.0
  0
CIRCLE
  8
1
  6
CONTINUOUS
 62
     1
  5
152
 10
311.097083
 20
-201.653167
 30
0.0
 40
1.0
210
0.0
220
0.0
230
1.0
  0
CIRCLE
  8
1
  6
CONTINUOUS
 62
     1
  5
153
 10
292.71225
 20
-220.037917
 30
0.0
 40
7.5
210
0.0
220
0.0
230
1.0
  0
CIRCLE
  8
1
  6
CONTINUOUS
 62
     1
  5
154
 10
292.71225
 20
-220.037917
 30
0.0
 40
1.0
210
0.0
220
0.0
230
1.0
  0
CIRCLE
  8
1
  6
CONTINUOUS
 62
     1
  5
155
 10
274.3275
 20
-201.653167
 30
0.0
 40
7.5
210
0.0
220
0.0
230
1.0
  0
CIRCLE
  8
1
  6
CONTINUOUS
 62
     1
  5
156
 10
274.3275
 20
-201.653167
 30
0.0
 40
1.0
210
0.0
220
0.0
230
1.0
  0
CIRCLE
  8
1
  6
CONTINUOUS
 62
     1
  5
157
 10
292.712333
 20
-183.268333
 30
0.0
 40
7.5
210
0.0
220
0.0
230
1.0
  0
CIRCLE
  8
1
  6
CONTINUOUS
 62
     1
  5
158
 10
292.712333
 20
-183.268333
 30
0.0
 40
1.0
210
0.0
220
0.0
230
1.0
  0
LINE
  8
1
  6
CONTINUOUS
 62
     7
  5
159
 10
274.3275
 20
-164.883583
 30
0.0
 11
284.5805
 21
-154.6305
 31
0.0
  0
LINE
  8
1
  6
CONTINUOUS
 62
     7
  5
15A
 10
290.944333
 20
-137.659583
 30
0.0
 11
298.015333
 21
-130.588667
 31
0.0
  0
LINE
  8
1
  6
CONTINUOUS
 62
     7
  5
15B
 10
301.551
 20
-148.26625
 30
0.0
 11
308.622
 21
-141.195333
 31
0.0
  0
LINE
  8
1
  6
CONTINUOUS
 62
     7
  5
15C
 10
241.977417
 20
-181.67725
 30
0.0
 11
244.805833
 21
-178.849
 31
0.0
  0
LINE
  8
1
  6
CONTINUOUS
 62
     7
  5
15D
 10
241.977333
 20
-184.85925
 30
0.0
 11
244.805833
 21
-187.68775
 31
0.0
  0
LINE
  8
1
  6
CONTINUOUS
 62
     7
  5
15E
 10
244.098583
 20
-179.555917
 30
0.0
 11
246.926917
 21
-182.38425
 31
0.0
  0
LINE
  8
1
  6
CONTINUOUS
 62
     7
  5
15F
 10
239.855833
 20
-175.313167
 30
0.0
 11
237.027333
 21
-172.484667
 31
0.0
  0
LINE
  8
1
  6
CONTINUOUS
 62
     7
  5
160
 10
244.098667
 20
-186.980583
 30
0.0
 11
246.927083
 21
-184.152167
 31
0.0
  0
LINE
  8
1
  6
CONTINUOUS
 62
     7
  5
161
 10
239.856
 20
-191.22325
 30
0.0
 11
237.0275
 21
-194.051667
 31
0.0
  0
LINE
  8
1
  6
CONTINUOUS
 62
     7
  5
162
 10
293.419333
 20
-123.16425
 30
0.0
 11
284.227
 21
-113.971917
 31
0.0
  0
LINE
  8
1
  6
CONTINUOUS
 62
     7
  5
163
 10
232.608167
 20
-183.975417
 30
0.0
 11
223.415833
 21
-174.783083
 31
0.0
  0
LINE
  8
1
  6
CONTINUOUS
 62
     7
  5
164
 10
240.885417
 20
-149.765917
 30
0.0
 11
237.885417
 21
-149.765917
 31
0.0
  0
LINE
  8
1
  6
CONTINUOUS
 62
     7
  5
165
 10
292.005083
 20
-123.16425
 30
0.0
 11
301.1975
 21
-113.971917
 31
0.0
  0
LINE
  8
1
  6
CONTINUOUS
 62
     7
  5
166
 10
352.816333
 20
-183.9755
 30
0.0
 11
362.00875
 21
-174.783083
 31
0.0
  0
LINE
  8
1
  6
CONTINUOUS
 62
     7
  5
167
 10
352.816333
 20
-182.56125
 30
0.0
 11
362.00875
 21
-191.753667
 31
0.0
  0
LINE
  8
1
  6
CONTINUOUS
 62
     7
  5
168
 10
292.005167
 20
-243.372417
 30
0.0
 11
301.1975
 21
-252.56475
 31
0.0
  0
LINE
  8
1
  6
CONTINUOUS
 62
     7
  5
169
 10
292.71225
 20
-235.59425
 30
0.0
 11
296.21225
 21
-235.59425
 31
0.0
  0
LINE
  8
1
  6
CONTINUOUS
 62
     7
  5
16A
 10
292.71225
 20
-235.59425
 30
0.0
 11
289.21225
 21
-235.59425
 31
0.0
  0
LINE
  8
1
  6
CONTINUOUS
 62
     7
  5
16B
 10
288.21225
 20
-235.59425
 30
0.0
 11
219.386417
 21
-235.59425
 31
0.0
  0
LINE
  8
1
  6
CONTINUOUS
 62
     7
  5
16C
 10
328.774667
 20
-183.975417
 30
0.0
 11
330.188917
 21
-182.56125
 31
0.0
  0
LINE
  8
1
  6
CONTINUOUS
 62
     7
  5
16D
 10
330.896
 20
-181.854
 30
0.0
 11
346.452417
 21
-166.297833
 31
0.0
  0
LINE
  8
1
  6
CONTINUOUS
 62
     7
  5
16E
 10
328.0675
 20
-184.6825
 30
0.0
 11
326.653333
 21
-186.09675
 31
0.0
  0
LINE
  8
1
  6
CONTINUOUS
 62
     7
  5
16F
 10
328.067667
 20
-147.913083
 30
0.0
 11
312.511417
 21
-163.469417
 31
0.0
  0
LINE
  8
1
  6
CONTINUOUS
 62
     7
  5
170
 10
311.804167
 20
-164.1765
 30
0.0
 11
310.39
 21
-165.590667
 31
0.0
  0
LINE
  8
1
  6
CONTINUOUS
 62
     7
  5
171
 10
309.683417
 20
-166.297333
 30
0.0
 11
308.269417
 21
-167.71125
 31
0.0
  0
LINE
  8
1
  6
CONTINUOUS
 62
     7
  5
172
 10
219.386417
 20
-183.268333
 30
0.0
 11
286.712333
 21
-183.268333
 31
0.0
  0
LINE
  8
1
  6
CONTINUOUS
 62
     7
  5
173
 10
292.71225
 20
-117.942417
 30
0.0
 11
292.71225
 21
-177.268333
 31
0.0
  0
LINE
  8
1
  6
CONTINUOUS
 62
     7
  5
174
 10
290.212333
 20
-183.268333
 30
0.0
 11
295.212333
 21
-183.268333
 31
0.0
  0
LINE
  8
1
  6
CONTINUOUS
 62
     7
  5
175
 10
298.712333
 20
-183.268333
 30
0.0
 11
358.038167
 21
-183.268333
 31
0.0
  0
LINE
  8
1
  6
CONTINUOUS
 62
     7
  5
176
 10
292.71225
 20
-180.768333
 30
0.0
 11
292.71225
 21
-185.768333
 31
0.0
  0
LINE
  8
1
  6
CONTINUOUS
 62
     7
  5
177
 10
292.71225
 20
-189.268333
 30
0.0
 11
292.71225
 21
-248.59425
 31
0.0
  0
LINE
  8
1
  6
CONTINUOUS
 62
     7
  5
178
 10
346.288167
 20
-183.268333
 30
0.0
 11
373.86275
 21
-188.1305
 31
0.0
  0
LINE
  8
1
  6
CONTINUOUS
 62
     7
  5
179
 10
373.86275
 20
-188.1305
 30
0.0
 11
376.86275
 21
-188.1305
 31
0.0
  0
INSERT
  8
1
  6
CONTINUOUS
 62
     1
  5
17A
  2
LDR
 10
224.122917
 20
-175.490167
 30
0.0
 41
239.999999
 42
239.999999
 50
225.0
210
0.0
220
0.0
230
1.0
  0
INSERT
  8
1
  6
CONTINUOUS
 62
     1
  5
17B
  2
LDR
 10
224.122917
 20
-175.490167
 30
0.0
 41
239.999999
 42
239.999999
 50
225.0
210
0.0
220
0.0
230
1.0
  0
INSERT
  8
1
  6
CONTINUOUS
 62
     1
  5
17C
  2
LDR
 10
284.934083
 20
-114.679
 30
0.0
 41
239.999999
 42
239.999999
 50
45.0
210
0.0
220
0.0
230
1.0
  0
INSERT
  8
1
  6
CONTINUOUS
 62
     1
  5
17D
  2
LDR
 10
284.934083
 20
-114.679
 30
0.0
 41
239.999999
 42
239.999999
 50
45.0
210
0.0
220
0.0
230
1.0
  0
INSERT
  8
1
  6
CONTINUOUS
 62
     1
  5
17E
  2
LDR
 10
271.852583
 20
-143.316833
 30
0.0
 41
239.999999
 42
239.999999
 50
135.0
210
0.0
220
0.0
230
1.0
  0
INSERT
  8
1
  6
CONTINUOUS
 62
     1
  5
17F
  2
LDR
 10
271.852583
 20
-143.316833
 30
0.0
 41
239.999999
 42
239.999999
 50
135.0
210
0.0
220
0.0
230
1.0
  0
INSERT
  8
1
  6
CONTINUOUS
 62
     1
  5
180
  2
LDR
 10
283.873333
 20
-155.337583
 30
0.0
 41
239.999999
 42
239.999999
 50
315.0
210
0.0
220
0.0
230
1.0
  0
INSERT
  8
1
  6
CONTINUOUS
 62
     1
  5
181
  2
LDR
 10
283.873333
 20
-155.337583
 30
0.0
 41
239.999999
 42
239.999999
 50
315.0
210
0.0
220
0.0
230
1.0
  0
INSERT
  8
1
  6
CONTINUOUS
 62
     1
  5
182
  2
LDR
 10
300.490333
 20
-114.679
 30
0.0
 41
239.999999
 42
239.999999
 50
135.000039
210
0.0
220
0.0
230
1.0
  0
INSERT
  8
1
  6
CONTINUOUS
 62
     1
  5
183
  2
LDR
 10
300.490333
 20
-114.679
 30
0.0
 41
239.999999
 42
239.999999
 50
135.000039
210
0.0
220
0.0
230
1.0
  0
INSERT
  8
1
  6
CONTINUOUS
 62
     1
  5
184
  2
LDR
 10
296.954833
 20
-118.2145
 30
0.0
 41
239.999999
 42
239.999999
 50
135.0
210
0.0
220
0.0
230
1.0
  0
INSERT
  8
1
  6
CONTINUOUS
 62
     1
  5
185
  2
LDR
 10
296.954833
 20
-118.2145
 30
0.0
 41
239.999999
 42
239.999999
 50
135.0
210
0.0
220
0.0
230
1.0
  0
INSERT
  8
1
  6
CONTINUOUS
 62
     1
  5
186
  2
LDR
 10
308.975667
 20
-130.235333
 30
0.0
 41
239.999999
 42
239.999999
 50
315.0
210
0.0
220
0.0
230
1.0
  0
INSERT
  8
1
  6
CONTINUOUS
 62
     1
  5
187
  2
LDR
 10
308.975667
 20
-130.235333
 30
0.0
 41
239.999999
 42
239.999999
 50
315.0
210
0.0
220
0.0
230
1.0
  0
INSERT
  8
1
  6
CONTINUOUS
 62
     1
  5
188
  2
LDR
 10
308.975667
 20
-130.235333
 30
0.0
 41
239.999999
 42
239.999999
 50
135.0
210
0.0
220
0.0
230
1.0
  0
INSERT
  8
1
  6
CONTINUOUS
 62
     1
  5
189
  2
LDR
 10
308.975667
 20
-130.235333
 30
0.0
 41
239.999999
 42
239.999999
 50
135.0
210
0.0
220
0.0
230
1.0
  0
INSERT
  8
1
  6
CONTINUOUS
 62
     1
  5
18A
  2
LDR
 10
327.3605
 20
-148.620167
 30
0.0
 41
239.999999
 42
239.999999
 50
315.0
210
0.0
220
0.0
230
1.0
  0
INSERT
  8
1
  6
CONTINUOUS
 62
     1
  5
18B
  2
LDR
 10
327.3605
 20
-148.620167
 30
0.0
 41
239.999999
 42
239.999999
 50
315.0
210
0.0
220
0.0
230
1.0
  0
INSERT
  8
1
  6
CONTINUOUS
 62
     1
  5
18C
  2
LDR
 10
327.3605
 20
-148.620167
 30
0.0
 41
239.999999
 42
239.999999
 50
135.0
210
0.0
220
0.0
230
1.0
  0
INSERT
  8
1
  6
CONTINUOUS
 62
     1
  5
18D
  2
LDR
 10
327.3605
 20
-148.620167
 30
0.0
 41
239.999999
 42
239.999999
 50
135.0
210
0.0
220
0.0
230
1.0
  0
INSERT
  8
1
  6
CONTINUOUS
 62
     1
  5
18E
  2
LDR
 10
345.74525
 20
-167.004917
 30
0.0
 41
239.999999
 42
239.999999
 50
315.0
210
0.0
220
0.0
230
1.0
  0
INSERT
  8
1
  6
CONTINUOUS
 62
     1
  5
18F
  2
LDR
 10
345.74525
 20
-167.004917
 30
0.0
 41
239.999999
 42
239.999999
 50
315.0
210
0.0
220
0.0
230
1.0
  0
INSERT
  8
1
  6
CONTINUOUS
 62
     1
  5
190
  2
LDR
 10
345.74525
 20
-167.004917
 30
0.0
 41
239.999999
 42
239.999999
 50
135.0
210
0.0
220
0.0
230
1.0
  0
INSERT
  8
1
  6
CONTINUOUS
 62
     1
  5
191
  2
LDR
 10
345.74525
 20
-167.004917
 30
0.0
 41
239.999999
 42
239.999999
 50
135.0
210
0.0
220
0.0
230
1.0
  0
INSERT
  8
1
  6
CONTINUOUS
 62
     1
  5
192
  2
LDR
 10
357.766083
 20
-179.02575
 30
0.0
 41
239.999999
 42
239.999999
 50
315.0
210
0.0
220
0.0
230
1.0
  0
INSERT
  8
1
  6
CONTINUOUS
 62
     1
  5
193
  2
LDR
 10
357.766083
 20
-179.02575
 30
0.0
 41
239.999999
 42
239.999999
 50
315.0
210
0.0
220
0.0
230
1.0
  0
INSERT
  8
1
  6
CONTINUOUS
 62
     1
  5
194
  2
LDR
 10
361.301583
 20
-175.490167
 30
0.0
 41
239.999999
 42
239.999999
 50
315.000039
210
0.0
220
0.0
230
1.0
  0
INSERT
  8
1
  6
CONTINUOUS
 62
     1
  5
195
  2
LDR
 10
361.301583
 20
-175.490167
 30
0.0
 41
239.999999
 42
239.999999
 50
315.000039
210
0.0
220
0.0
230
1.0
  0
INSERT
  8
1
  6
CONTINUOUS
 62
     1
  5
196
  2
LDR
 10
297.308167
 20
-131.29575
 30
0.0
 41
239.999999
 42
239.999999
 50
135.0
210
0.0
220
0.0
230
1.0
  0
INSERT
  8
1
  6
CONTINUOUS
 62
     1
  5
197
  2
LDR
 10
297.308167
 20
-131.29575
 30
0.0
 41
239.999999
 42
239.999999
 50
135.0
210
0.0
220
0.0
230
1.0
  0
INSERT
  8
1
  6
CONTINUOUS
 62
     1
  5
198
  2
LDR
 10
307.914833
 20
-141.902417
 30
0.0
 41
239.999999
 42
239.999999
 50
315.0
210
0.0
220
0.0
230
1.0
  0
INSERT
  8
1
  6
CONTINUOUS
 62
     1
  5
199
  2
LDR
 10
307.914833
 20
-141.902417
 30
0.0
 41
239.999999
 42
239.999999
 50
315.0
210
0.0
220
0.0
230
1.0
  0
INSERT
  8
1
  6
CONTINUOUS
 62
     1
  5
19A
  2
LDR
 10
239.855833
 20
-175.313167
 30
0.0
 41
239.999999
 42
239.999999
 50
315.0
210
0.0
220
0.0
230
1.0
  0
INSERT
  8
1
  6
CONTINUOUS
 62
     1
  5
19B
  2
LDR
 10
239.855833
 20
-175.313167
 30
0.0
 41
239.999999
 42
239.999999
 50
315.0
210
0.0
220
0.0
230
1.0
  0
INSERT
  8
1
  6
CONTINUOUS
 62
     1
  5
19C
  2
LDR
 10
239.856
 20
-191.22325
 30
0.0
 41
239.999999
 42
239.999999
 50
44.999156
210
0.0
220
0.0
230
1.0
  0
INSERT
  8
1
  6
CONTINUOUS
 62
     1
  5
19D
  2
LDR
 10
239.856
 20
-191.22325
 30
0.0
 41
239.999999
 42
239.999999
 50
44.999156
210
0.0
220
0.0
230
1.0
  0
INSERT
  8
1
  6
CONTINUOUS
 62
     1
  5
19E
  2
LDR
 10
244.098583
 20
-179.555917
 30
0.0
 41
239.999999
 42
239.999999
 50
135.0
210
0.0
220
0.0
230
1.0
  0
INSERT
  8
1
  6
CONTINUOUS
 62
     1
  5
19F
  2
LDR
 10
244.098583
 20
-179.555917
 30
0.0
 41
239.999999
 42
239.999999
 50
135.0
210
0.0
220
0.0
230
1.0
  0
INSERT
  8
1
  6
CONTINUOUS
 62
     1
  5
1A0
  2
LDR
 10
244.098667
 20
-186.980583
 30
0.0
 41
239.999999
 42
239.999999
 50
225.0
210
0.0
220
0.0
230
1.0
  0
INSERT
  8
1
  6
CONTINUOUS
 62
     1
  5
1A1
  2
LDR
 10
244.098667
 20
-186.980583
 30
0.0
 41
239.999999
 42
239.999999
 50
225.0
210
0.0
220
0.0
230
1.0
  0
INSERT
  8
1
  6
CONTINUOUS
 62
     1
  5
1A2
  2
LDR
 10
220.386417
 20
-183.268333
 30
0.0
 41
240.0
 42
240.0
 50
90.0
210
0.0
220
0.0
230
1.0
  0
INSERT
  8
1
  6
CONTINUOUS
 62
     1
  5
1A3
  2
LDR
 10
220.386417
 20
-183.268333
 30
0.0
 41
240.0
 42
240.0
 50
90.0
210
0.0
220
0.0
230
1.0
  0
INSERT
  8
1
  6
CONTINUOUS
 62
     1
  5
1A4
  2
LDR
 10
220.386417
 20
-235.59425
 30
0.0
 41
240.0
 42
240.0
 50
270.0
210
0.0
220
0.0
230
1.0
  0
INSERT
  8
1
  6
CONTINUOUS
 62
     1
  5
1A5
  2
LDR
 10
220.386417
 20
-235.59425
 30
0.0
 41
240.0
 42
240.0
 50
270.0
210
0.0
220
0.0
230
1.0
  0
INSERT
  8
1
  6
CONTINUOUS
 62
     1
  5
1A6
  2
LDR
 10
361.301583
 20
-191.0465
 30
0.0
 41
239.999999
 42
239.999999
 50
45.000198
210
0.0
220
0.0
230
1.0
  0
INSERT
  8
1
  6
CONTINUOUS
 62
     1
  5
1A7
  2
LDR
 10
361.301583
 20
-191.0465
 30
0.0
 41
239.999999
 42
239.999999
 50
45.000198
210
0.0
220
0.0
230
1.0
  0
INSERT
  8
1
  6
CONTINUOUS
 62
     1
  5
1A8
  2
LDR
 10
349.280833
 20
-203.067333
 30
0.0
 41
239.999999
 42
239.999999
 50
225.000198
210
0.0
220
0.0
230
1.0
  0
INSERT
  8
1
  6
CONTINUOUS
 62
     1
  5
1A9
  2
LDR
 10
349.280833
 20
-203.067333
 30
0.0
 41
239.999999
 42
239.999999
 50
225.000198
210
0.0
220
0.0
230
1.0
  0
INSERT
  8
1
  6
CONTINUOUS
 62
     1
  5
1AA
  2
LDR
 10
349.280833
 20
-203.067333
 30
0.0
 41
239.999999
 42
239.999999
 50
44.99987
210
0.0
220
0.0
230
1.0
  0
INSERT
  8
1
  6
CONTINUOUS
 62
     1
  5
1AB
  2
LDR
 10
349.280833
 20
-203.067333
 30
0.0
 41
239.999999
 42
239.999999
 50
44.99987
210
0.0
220
0.0
230
1.0
  0
INSERT
  8
1
  6
CONTINUOUS
 62
     1
  5
1AC
  2
LDR
 10
330.896
 20
-221.452083
 30
0.0
 41
239.999999
 42
239.999999
 50
224.99987
210
0.0
220
0.0
230
1.0
  0
INSERT
  8
1
  6
CONTINUOUS
 62
     1
  5
1AD
  2
LDR
 10
330.896
 20
-221.452083
 30
0.0
 41
239.999999
 42
239.999999
 50
224.99987
210
0.0
220
0.0
230
1.0
  0
INSERT
  8
1
  6
CONTINUOUS
 62
     1
  5
1AE
  2
LDR
 10
330.896
 20
-221.452083
 30
0.0
 41
239.999999
 42
239.999999
 50
44.99987
210
0.0
220
0.0
230
1.0
  0
INSERT
  8
1
  6
CONTINUOUS
 62
     1
  5
1AF
  2
LDR
 10
330.896
 20
-221.452083
 30
0.0
 41
239.999999
 42
239.999999
 50
44.99987
210
0.0
220
0.0
230
1.0
  0
INSERT
  8
1
  6
CONTINUOUS
 62
     1
  5
1B0
  2
LDR
 10
312.511167
 20
-239.836833
 30
0.0
 41
239.999999
 42
239.999999
 50
224.99987
210
0.0
220
0.0
230
1.0
  0
INSERT
  8
1
  6
CONTINUOUS
 62
     1
  5
1B1
  2
LDR
 10
312.511167
 20
-239.836833
 30
0.0
 41
239.999999
 42
239.999999
 50
224.99987
210
0.0
220
0.0
230
1.0
  0
INSERT
  8
1
  6
CONTINUOUS
 62
     1
  5
1B2
  2
LDR
 10
312.511167
 20
-239.836833
 30
0.0
 41
239.999999
 42
239.999999
 50
44.999802
210
0.0
220
0.0
230
1.0
  0
INSERT
  8
1
  6
CONTINUOUS
 62
     1
  5
1B3
  2
LDR
 10
312.511167
 20
-239.836833
 30
0.0
 41
239.999999
 42
239.999999
 50
44.999802
210
0.0
220
0.0
230
1.0
  0
INSERT
  8
1
  6
CONTINUOUS
 62
     1
  5
1B4
  2
LDR
 10
300.490333
 20
-251.857583
 30
0.0
 41
239.999999
 42
239.999999
 50
224.999802
210
0.0
220
0.0
230
1.0
  0
INSERT
  8
1
  6
CONTINUOUS
 62
     1
  5
1B5
  2
LDR
 10
346.288167
 20
-183.268333
 30
0.0
 41
239.999998
 42
239.999998
 50
169.999952
210
0.0
220
0.0
230
1.0
  0
LINE
  8
1
  6
CONTINUOUS
 62
     7
  5
1B6
 10
292.71225
 20
-241.59425
 30
0.0
 11
273.918417
 21
-248.434667
 31
0.0
  0
LINE
  8
1
  6
CONTINUOUS
 62
     7
  5
1B7
 10
273.918417
 20
-248.434667
 30
0.0
 11
270.918417
 21
-248.434667
 31
0.0
  0
INSERT
  8
1
  6
CONTINUOUS
 62
     1
  5
1B8
  2
LDR
 10
292.71225
 20
-241.59425
 30
0.0
 41
239.999998
 42
239.999998
 50
20.000056
210
0.0
220
0.0
230
1.0
  0
TEXT
  8
1
  6
CONTINUOUS
 62
     7
  5
1B9
 10
208.571917
 20
-151.259083
 30
0.0
 40
2.5
  1
AMBER REFLEX
  7
MONOTXT
 72
     4
 11
222.754917
 21
-150.009083
 31
0.0
210
0.0
220
0.0
230
1.0
  0
TEXT
  8
1
  6
CONTINUOUS
 62
     7
  5
1BA
 10
210.875083
 20
-155.759083
 30
0.0
 40
2.5
  1
REFLECTORS
  7
MONOTXT
 72
     4
 11
222.754917
 21
-154.509083
 31
0.0
210
0.0
220
0.0
230
1.0
  0
TEXT
  8
1
  6
CONTINUOUS
 62
     7
  5
1BB
 10
252.058
 20
-146.334583
 30
0.0
 40
2.5
  1
18"
  7
MONOTXT
 72
     4
 11
254.5285
 21
-145.084583
 31
0.0
210
0.0
220
0.0
230
1.0
  0
LINE
  8
1
  6
CONTINUOUS
 62
     7
  5
1BC
 10
269.024167
 20
-159.58025
 30
0.0
 11
240.885417
 21
-149.765917
 31
0.0
  0
POINT
  8
1
  6
CONTINUOUS
 62
     7
  5
1BD
 10
240.885417
 20
-149.765917
 30
0.0
  0
LINE
  8
1
  6
CONTINUOUS
 62
     7
  5
1BE
 10
284.934083
 20
-114.679
 30
0.0
 11
256.768083
 21
-142.845083
 31
0.0
  0
LINE
  8
1
  6
CONTINUOUS
 62
     7
  5
1BF
 10
251.933917
 20
-147.67925
 30
0.0
 11
224.122917
 21
-175.490167
 31
0.0
  0
TEXT
  8
1
  6
CONTINUOUS
 62
     7
  5
1C0
 10
276.101167
 20
-150.57725
 30
0.0
 40
2.5
  1
3"
  7
MONOTXT
 72
     4
 11
277.863
 21
-149.32725
 31
0.0
210
0.0
220
0.0
230
1.0
  0
LINE
  8
1
  6
CONTINUOUS
 62
     7
  5
1C1
 10
283.873333
 20
-155.337583
 30
0.0
 11
278.7175
 21
-150.18175
 31
0.0
  0
LINE
  8
1
  6
CONTINUOUS
 62
     7
  5
1C2
 10
275.61725
 20
-147.0815
 30
0.0
 11
271.852583
 21
-143.316833
 31
0.0
  0
TEXT
  8
1
  6
CONTINUOUS
 62
     7
  5
1C3
 10
297.829167
 20
-138.663083
 30
0.0
 40
2.5
  1
3 1/4 "
  7
MONOTXT
 72
     4
 11
301.638167
 21
-137.413083
 31
0.0
210
0.0
220
0.0
230
1.0
  0
LINE
  8
1
  6
CONTINUOUS
 62
     7
  5
1C4
 10
297.308167
 20
-131.29575
 30
0.0
 11
300.4905
 21
-134.478083
 31
0.0
  0
LINE
  8
1
  6
CONTINUOUS
 62
     7
  5
1C5
 10
304.3865
 20
-138.374083
 30
0.0
 11
307.914833
 21
-141.902417
 31
0.0
  0
LINE
  8
1
  6
CONTINUOUS
 62
     7
  5
1C6
 10
290.590917
 20
-148.62
 30
0.0
 11
299.696417
 21
-139.514583
 31
0.0
  0
LINE
  8
1
  6
CONTINUOUS
 62
     7
  5
1C7
 10
303.903
 20
-135.308
 30
0.0
 11
309.682833
 21
-129.52825
 31
0.0
  0
TEXT
  8
1
  6
CONTINUOUS
 62
     7
  5
1C8
 10
328.4255
 20
-146.334583
 30
0.0
 40
2.5
  1
18"
  7
MONOTXT
 72
     4
 11
330.896
 21
-145.084583
 31
0.0
210
0.0
220
0.0
230
1.0
  0
TEXT
  8
1
  6
CONTINUOUS
 62
     7
  5
1C9
 10
301.203417
 20
-125.474917
 30
0.0
 40
2.5
  1
3"
  7
MONOTXT
 72
     4
 11
302.96525
 21
-124.224917
 31
0.0
210
0.0
220
0.0
230
1.0
  0
TEXT
  8
1
  6
CONTINUOUS
 62
     7
  5
1CA
 10
316.465333
 20
-140.67775
 30
0.0
 40
2.5
  1
6"
  7
MONOTXT
 72
     4
 11
318.168083
 21
-139.42775
 31
0.0
210
0.0
220
0.0
230
1.0
  0
TEXT
  8
1
  6
CONTINUOUS
 62
     7
  5
1CB
 10
334.850167
 20
-159.062583
 30
0.0
 40
2.5
  1
6"
  7
MONOTXT
 72
     4
 11
336.552917
 21
-157.812583
 31
0.0
210
0.0
220
0.0
230
1.0
  0
TEXT
  8
1
  6
CONTINUOUS
 62
     7
  5
1CC
 10
349.993833
 20
-174.265333
 30
0.0
 40
2.5
  1
3"
  7
MONOTXT
 72
     4
 11
351.755667
 21
-173.015333
 31
0.0
210
0.0
220
0.0
230
1.0
  0
LINE
  8
1
  6
CONTINUOUS
 62
     7
  5
1CD
 10
300.490333
 20
-114.679
 30
0.0
 11
328.11475
 21
-142.303333
 31
0.0
  0
LINE
  8
1
  6
CONTINUOUS
 62
     7
  5
1CE
 10
332.206583
 20
-146.395167
 30
0.0
 11
361.301583
 21
-175.490167
 31
0.0
  0
LINE
  8
1
  6
CONTINUOUS
 62
     7
  5
1CF
 10
308.975667
 20
-130.235333
 30
0.0
 11
303.968833
 21
-125.2285
 31
0.0
  0
LINE
  8
1
  6
CONTINUOUS
 62
     7
  5
1D0
 10
300.685167
 20
-121.944833
 30
0.0
 11
296.954833
 21
-118.2145
 31
0.0
  0
LINE
  8
1
  6
CONTINUOUS
 62
     7
  5
1D1
 10
308.975667
 20
-130.235333
 30
0.0
 11
315.739333
 21
-136.999
 31
0.0
  0
LINE
  8
1
  6
CONTINUOUS
 62
     7
  5
1D2
 10
319.427083
 20
-140.68675
 30
0.0
 11
327.3605
 21
-148.620167
 31
0.0
  0
LINE
  8
1
  6
CONTINUOUS
 62
     7
  5
1D3
 10
345.74525
 20
-167.004917
 30
0.0
 11
349.434333
 21
-170.694
 31
0.0
  0
LINE
  8
1
  6
CONTINUOUS
 62
     7
  5
1D4
 10
352.465333
 20
-173.725
 30
0.0
 11
357.766083
 21
-179.02575
 31
0.0
  0
LINE
  8
1
  6
CONTINUOUS
 62
     7
  5
1D5
 10
329.481833
 20
-175.768333
 30
0.0
 11
347.82225
 21
-146.942667
 31
0.0
  0
LINE
  8
1
  6
CONTINUOUS
 62
     7
  5
1D6
 10
347.82225
 20
-146.942667
 30
0.0
 11
350.82225
 21
-146.942667
 31
0.0
  0
INSERT
  8
1
  6
CONTINUOUS
 62
     1
  5
1D7
  2
LDR
 10
329.481833
 20
-175.768333
 30
0.0
 41
240.0
 42
240.0
 50
237.53332
210
0.0
220
0.0
230
1.0
  0
INSERT
  8
1
  6
CONTINUOUS
 62
     1
  5
1D8
  2
LDR
 10
329.481833
 20
-175.768333
 30
0.0
 41
240.0
 42
240.0
 50
237.53332
210
0.0
220
0.0
230
1.0
  0
LINE
  8
1
  6
CONTINUOUS
 62
     7
  5
1D9
 10
327.3605
 20
-148.620167
 30
0.0
 11
334.380167
 21
-155.639833
 31
0.0
  0
LINE
  8
1
  6
CONTINUOUS
 62
     7
  5
1DA
 10
337.51225
 20
-158.771917
 30
0.0
 11
345.74525
 21
-167.004917
 31
0.0
  0
TEXT
  8
1
  6
CONTINUOUS
 62
     7
  5
1DB
 10
351.712583
 20
-148.495833
 30
0.0
 40
2.5
  1
RIVET HOLE
  7
MONOTXT
 72
     4
 11
362.88375
 21
-147.245833
 31
0.0
210
0.0
220
0.0
230
1.0
  0
TEXT
  8
1
  6
CONTINUOUS
 62
     7
  5
1DC
 10
378.10325
 20
-188.91625
 30
0.0
 40
2.5
  1
MOUNTING HOLE
  7
MONOTXT
 72
     4
 11
393.29025
 21
-187.66625
 31
0.0
210
0.0
220
0.0
230
1.0
  0
TEXT
  8
1
  6
CONTINUOUS
 62
     7
  5
1DD
 10
353.529417
 20
-198.306917
 30
0.0
 40
2.5
  1
3"
  7
MONOTXT
 72
     4
 11
355.29125
 21
-197.056917
 31
0.0
210
0.0
220
0.0
230
1.0
  0
TEXT
  8
1
  6
CONTINUOUS
 62
     7
  5
1DE
 10
304.738917
 20
-247.09725
 30
0.0
 40
2.5
  1
3"
  7
MONOTXT
 72
     4
 11
306.50075
 21
-245.84725
 31
0.0
210
0.0
220
0.0
230
1.0
  0
TEXT
  8
1
  6
CONTINUOUS
 62
     7
  5
1DF
 10
338.385667
 20
-213.50975
 30
0.0
 40
2.5
  1
6"
  7
MONOTXT
 72
     4
 11
340.088417
 21
-212.25975
 31
0.0
210
0.0
220
0.0
230
1.0
  0
TEXT
  8
1
  6
CONTINUOUS
 62
     7
  5
1E0
 10
320.000833
 20
-231.8945
 30
0.0
 40
2.5
  1
6"
  7
MONOTXT
 72
     4
 11
321.703583
 21
-230.6445
 31
0.0
210
0.0
220
0.0
230
1.0
  0
LINE
  8
1
  6
CONTINUOUS
 62
     7
  5
1E1
 10
361.301583
 20
-191.0465
 30
0.0
 11
357.3015
 21
-195.046583
 31
0.0
  0
LINE
  8
1
  6
CONTINUOUS
 62
     7
  5
1E2
 10
353.3635
 20
-198.984667
 30
0.0
 11
349.280833
 21
-203.067333
 31
0.0
  0
LINE
  8
1
  6
CONTINUOUS
 62
     7
  5
1E3
 10
349.280833
 20
-203.067333
 30
0.0
 11
341.942417
 21
-210.405667
 31
0.0
  0
LINE
  8
1
  6
CONTINUOUS
 62
     7
  5
1E4
 10
338.201583
 20
-214.146583
 30
0.0
 11
330.896
 21
-221.452083
 31
0.0
  0
LINE
  8
1
  6
CONTINUOUS
 62
     7
  5
1E5
 10
330.896
 20
-221.452083
 30
0.0
 11
323.626417
 21
-228.721667
 31
0.0
  0
LINE
  8
1
  6
CONTINUOUS
 62
     7
  5
1E6
 10
319.928083
 20
-232.419917
 30
0.0
 11
312.511167
 21
-239.836833
 31
0.0
  0
LINE
  8
1
  6
CONTINUOUS
 62
     7
  5
1E7
 10
312.511167
 20
-239.836833
 30
0.0
 11
308.463417
 21
-243.8845
 31
0.0
  0
LINE
  8
1
  6
CONTINUOUS
 62
     7
  5
1E8
 10
304.830417
 20
-247.5175
 30
0.0
 11
300.490333
 21
-251.857583
 31
0.0
  0
TEXT
  8
1
  6
CONTINUOUS
 62
     7
  5
1E9
 10
218.447417
 20
-210.681333
 30
0.0
 40
2.5
  1
11"
  7
MONOTXT
 72
     4
 11
220.386417
 21
-209.431333
 31
0.0
210
0.0
220
0.0
230
1.0
  0
LINE
  8
1
  6
CONTINUOUS
 62
     7
  5
1EA
 10
220.386417
 20
-183.268333
 30
0.0
 11
220.386417
 21
-207.719417
 31
0.0
  0
LINE
  8
1
  6
CONTINUOUS
 62
     7
  5
1EB
 10
220.386417
 20
-211.16775
 30
0.0
 11
220.386417
 21
-235.59425
 31
0.0
  0
INSERT
  8
1
  6
CONTINUOUS
 62
     1
  5
1EC
  2
LDR
 10
269.024167
 20
-159.58025
 30
0.0
 41
240.0
 42
240.0
 50
340.772068
210
0.0
220
0.0
230
1.0
  0
TEXT
  8
1
  6
CONTINUOUS
 62
     7
  5
1ED
 10
242.37825
 20
-176.732417
 30
0.0
 40
2.5
  1
1 3/16 "
  7
MONOTXT
 72
     4
 11
246.108583
 21
-175.482417
 31
0.0
210
0.0
220
0.0
230
1.0
  0
TEXT
  8
1
  6
CONTINUOUS
 62
     7
  5
1EE
 10
241.440833
 20
-191.60175
 30
0.0
 40
2.5
  1
1 3/16 "
  7
MONOTXT
 72
     4
 11
245.171167
 21
-190.35175
 31
0.0
210
0.0
220
0.0
230
1.0
  0
TEXT
  8
1
  6
CONTINUOUS
 62
     7
  5
1EF
 10
244.296083
 20
-249.8065
 30
0.0
 40
2.5
  1
1 1/2 " (RADIUS)
  7
MONOTXT
 72
     4
 11
256.68775
 21
-248.5565
 31
0.0
210
0.0
220
0.0
230
1.0
  0
TEXT
  8
1
  6
CONTINUOUS
 62
     7
  5
1F0
 10
286.174417
 20
-264.337417
 30
0.0
 40
3.5
  1
XR-9
  7
MONOTXT
 72
     4
 11
292.168417
 21
-262.587417
 31
0.0
210
0.0
220
0.0
230
1.0
  0
TEXT
  8
1
  6
CONTINUOUS
 62
     7
  5
1F1
 10
280.2355
 20
-269.837417
 30
0.0
 40
3.5
  1
18" x 18"
  7
MONOTXT
 72
     4
 11
292.15475
 21
-268.087417
 31
0.0
210
0.0
220
0.0
230
1.0
  0
TEXT
  8
1
  6
CONTINUOUS
 62
     7
  5
1F2
 10
96.821417
 20
-83.404417
 30
0.0
 40
5.0
  1
PUNCHING DETAILS FOR DELINEATOR MOUNTING PLAQUES
  7
txt
 72
     4
 11
197.98875
 21
-80.904417
 31
0.0
210
0.0
220
0.0
230
1.0
  0
TEXT
  8
1
  6
CONTINUOUS
 62
     7
  5
1F3
 10
96.821417
 20
-83.404417
 30
0.0
 40
5.0
  1
PUNCHING DETAILS FOR DELINEATOR MOUNTING PLAQUES
  7
txt
 72
     4
 11
197.98875
 21
-80.904417
 31
0.0
210
0.0
220
0.0
230
1.0
  0
LINE
  8
1
  6
CONTINUOUS
 62
     7
  5
1F4
 10
95.322083
 20
-84.950167
 30
0.0
 11
302.216917
 21
-84.950167
 31
0.0
  0
TEXT
  8
1
  6
CONTINUOUS
 62
     7
  5
1F5
 10
421.663917
 20
-105.658833
 30
0.0
 40
2.5
  1
1.   PUNCHING DETAILS
  7
MONOTXT
 11
421.663917
 21
-103.158833
 31
0.0
210
0.0
220
0.0
230
1.0
 73
     3
  0
TEXT
  8
1
  6
CONTINUOUS
 62
     7
  5
1F6
 10
421.663917
 20
-110.158833
 30
0.0
 40
2.5
  1
 
  7
MONOTXT
 11
421.663917
 21
-107.658833
 31
0.0
210
0.0
220
0.0
230
1.0
 73
     3
  0
TEXT
  8
1
  6
CONTINUOUS
 62
     7
  5
1F7
 10
421.663917
 20
-114.658833
 30
0.0
 40
2.5
  1
   1.1   THE SPACING OF THE PUNCHED HOLES WILL BE IN ACCORDANCE WITH THE
  7
MONOTXT
 11
421.663917
 21
-112.158833
 31
0.0
210
0.0
220
0.0
230
1.0
 73
     3
  0
TEXT
  8
1
  6
CONTINUOUS
 62
     7
  5
1F8
 10
421.663917
 20
-119.158833
 30
0.0
 40
2.5
  1
       ACCOMPANYING DETAILED DRAWINGS.
  7
MONOTXT
 11
421.663917
 21
-116.658833
 31
0.0
210
0.0
220
0.0
230
1.0
 73
     3
  0
TEXT
  8
1
  6
CONTINUOUS
 62
     7
  5
1F9
 10
421.663917
 20
-123.658833
 30
0.0
 40
2.5
  1
 
  7
MONOTXT
 11
421.663917
 21
-121.158833
 31
0.0
210
0.0
220
0.0
230
1.0
 73
     3
  0
TEXT
  8
1
  6
CONTINUOUS
 62
     7
  5
1FA
 10
421.663917
 20
-128.158833
 30
0.0
 40
2.5
  1
   1.2  ALL MOUNTING HOLES WILL BE  3/8 " DIAMETER.
  7
MONOTXT
 11
421.663917
 21
-125.658833
 31
0.0
210
0.0
220
0.0
230
1.0
 73
     3
  0
TEXT
  8
1
  6
CONTINUOUS
 62
     7
  5
1FB
 10
421.663917
 20
-132.658833
 30
0.0
 40
2.5
  1
 
  7
MONOTXT
 11
421.663917
 21
-130.158833
 31
0.0
210
0.0
220
0.0
230
1.0
 73
     3
  0
TEXT
  8
1
  6
CONTINUOUS
 62
     7
  5
1FC
 10
421.663917
 20
-137.158833
 30
0.0
 40
2.5
  1
   1.3  ALL RIVET HOLES USED TO MOUNT REFLEX REFLECTORS TO PLAQUE WILL
  7
MONOTXT
 11
421.663917
 21
-134.658833
 31
0.0
210
0.0
220
0.0
230
1.0
 73
     3
  0
TEXT
  8
1
  6
CONTINUOUS
 62
     7
  5
1FD
 10
421.663917
 20
-141.658833
 30
0.0
 40
2.5
  1
       HAVE A DIAMETER NO GREATER THAN  1/4 ".
  7
MONOTXT
 11
421.663917
 21
-139.158833
 31
0.0
210
0.0
220
0.0
230
1.0
 73
     3
  0
TEXT
  8
1
  6
CONTINUOUS
 62
     7
  5
1FE
 10
421.663917
 20
-146.158833
 30
0.0
 40
2.5
  1
 
  7
MONOTXT
 11
421.663917
 21
-143.658833
 31
0.0
210
0.0
220
0.0
230
1.0
 73
     3
  0
TEXT
  8
1
  6
CONTINUOUS
 62
     7
  5
1FF
 10
421.663917
 20
-150.658833
 30
0.0
 40
2.5
  1
   1.4  ALL REFLEX REFLECTORS WILL BE MOUNTED WITH RIVETS.
  7
MONOTXT
 11
421.663917
 21
-148.158833
 31
0.0
210
0.0
220
0.0
230
1.0
 73
     3
  0
TEXT
  8
1
  6
CONTINUOUS
 62
     7
  5
200
 10
485.432167
 20
-90.490583
 30
0.0
 40
2.5
  1
GENERAL NOTES
  7
MONOTXT
 72
     4
 11
500.855333
 21
-89.240583
 31
0.0
210
0.0
220
0.0
230
1.0
  0
LINE
  8
1
  6
CONTINUOUS
 62
     7
  5
201
 10
483.896167
 20
-92.02425
 30
0.0
 11
518.071417
 21
-92.02425
 31
0.0
  0
LINE
  8
1
  6
CONTINUOUS
 62
     7
  5
202
 10
53.121833
 20
-160.978583
 30
0.0
 11
49.121833
 21
-160.978583
 31
0.0
  0
LINE
  8
1
  6
CONTINUOUS
 62
     7
  5
203
 10
143.216833
 20
-217.868667
 30
0.0
 11
147.216833
 21
-217.868667
 31
0.0
  0
LINE
  8
1
  6
CONTINUOUS
 62
     7
  5
204
 10
126.154917
 20
-225.844667
 30
0.0
 11
130.154917
 21
-225.844667
 31
0.0
  0
LINE
  8
1
  6
CONTINUOUS
 62
     7
  5
205
 10
121.3335
 20
-232.957417
 30
0.0
 11
125.3335
 21
-232.957417
 31
0.0
  0
POLYLINE
  8
1
  6
CONTINUOUS
 62
     7
  5
206
 66
     1
 10
0.0
 20
0.0
 30
0.0
  0
VERTEX
  8
1
  6
CONTINUOUS
 62
     7
  5
207
 10
461.505917
 20
-355.038667
 30
0.0
  0
VERTEX
  8
1
  6
CONTINUOUS
 62
     7
  5
208
 10
459.505917
 20
-358.50275
 30
0.0
  0
VERTEX
  8
1
  6
CONTINUOUS
 62
     7
  5
209
 10
463.505917
 20
-358.50275
 30
0.0
  0
VERTEX
  8
1
  6
CONTINUOUS
 62
     7
  5
20A
 10
461.505917
 20
-355.038667
 30
0.0
  0
SEQEND
  8
1
  6
CONTINUOUS
 62
     7
  5
20B
  0
TEXT
  8
1
  6
CONTINUOUS
 62
     7
  5
20C
 10
461.0835
 20
-357.996917
 30
0.0
 40
1.5
  1
2
  7
MONOTXT
210
0.0
220
0.0
230
1.0
  0
POLYLINE
  8
1
  6
CONTINUOUS
 62
     7
  5
20D
 66
     1
 10
0.0
 20
0.0
 30
0.0
  0
VERTEX
  8
1
  6
CONTINUOUS
 62
     7
  5
20E
 10
458.220083
 20
-283.606167
 30
0.0
  0
VERTEX
  8
1
  6
CONTINUOUS
 62
     7
  5
20F
 10
456.220083
 20
-287.07025
 30
0.0
  0
VERTEX
  8
1
  6
CONTINUOUS
 62
     7
  5
210
 10
460.220083
 20
-287.07025
 30
0.0
  0
VERTEX
  8
1
  6
CONTINUOUS
 62
     7
  5
211
 10
458.220083
 20
-283.606167
 30
0.0
  0
SEQEND
  8
1
  6
CONTINUOUS
 62
     7
  5
212
  0
TEXT
  8
1
  6
CONTINUOUS
 62
     7
  5
213
 10
458.01175
 20
-286.451417
 30
0.0
 40
1.5
  1
1
  7
MONOTXT
210
0.0
220
0.0
230
1.0
  0
TEXT
  8
1
  6
CONTINUOUS
 62
     7
  5
214
 10
461.44375
 20
-286.108083
 30
0.0
 40
1.5
  1
DELETED FABRICATION SHEETS
  7
MONOTXT
210
0.0
220
0.0
230
1.0
  0
TEXT
  8
1
  6
CONTINUOUS
 62
     7
  5
215
 10
461.44375
 20
-290.991833
 30
0.0
 40
1.5
  1
ROTATED DETAIL XR-3 90 DEGREES
  7
MONOTXT
210
0.0
220
0.0
230
1.0
  0
ENDSEC
  0
EOF
