  0
SECTION
  2
HEADER
  9
$ACADVER
  1
AC1014
  9
$ACADMAINTVER
 70
     0
  9
$DWGCODEPAGE
  3
ANSI_1252
  9
$INSBASE
 10
0.0
 20
0.0
 30
0.0
  9
$EXTMIN
 10
62.7683
 20
11.8535
 30
0.0
  9
$EXTMAX
 10
799.7499
 20
490.8678
 30
0.0
  9
$LIMMIN
 10
0.0
 20
0.0
  9
$LIMMAX
 10
12.0
 20
9.0
  9
$ORTHOMODE
 70
     0
  9
$REGENMODE
 70
     1
  9
$FILLMODE
 70
     1
  9
$QTEXTMODE
 70
     0
  9
$MIRRTEXT
 70
     1
  9
$DRAGMODE
 70
     2
  9
$LTSCALE
 40
1.0
  9
$OSMODE
 70
     0
  9
$ATTMODE
 70
     1
  9
$TEXTSIZE
 40
0.2
  9
$TRACEWID
 40
0.05
  9
$TEXTSTYLE
  7
STANDARD
  9
$CLAYER
  8
0
  9
$CELTYPE
  6
CONTINUOUS
  9
$CECOLOR
 62
   256
  9
$CELTSCALE
 40
1.0
  9
$DELOBJ
 70
     1
  9
$DISPSILH
 70
     0
  9
$DIMSCALE
 40
1.0
  9
$DIMASZ
 40
0.18
  9
$DIMEXO
 40
0.0625
  9
$DIMDLI
 40
0.38
  9
$DIMRND
 40
0.0
  9
$DIMDLE
 40
0.0
  9
$DIMEXE
 40
0.18
  9
$DIMTP
 40
0.0
  9
$DIMTM
 40
0.0
  9
$DIMTXT
 40
0.18
  9
$DIMCEN
 40
0.09
  9
$DIMTSZ
 40
0.0
  9
$DIMTOL
 70
     0
  9
$DIMLIM
 70
     0
  9
$DIMTIH
 70
     1
  9
$DIMTOH
 70
     1
  9
$DIMSE1
 70
     0
  9
$DIMSE2
 70
     0
  9
$DIMTAD
 70
     0
  9
$DIMZIN
 70
     0
  9
$DIMBLK
  1

  9
$DIMASO
 70
     1
  9
$DIMSHO
 70
     1
  9
$DIMPOST
  1

  9
$DIMAPOST
  1

  9
$DIMALT
 70
     0
  9
$DIMALTD
 70
     2
  9
$DIMALTF
 40
25.4
  9
$DIMLFAC
 40
1.0
  9
$DIMTOFL
 70
     0
  9
$DIMTVP
 40
0.0
  9
$DIMTIX
 70
     0
  9
$DIMSOXD
 70
     0
  9
$DIMSAH
 70
     0
  9
$DIMBLK1
  1

  9
$DIMBLK2
  1

  9
$DIMSTYLE
  2
STANDARD
  9
$DIMCLRD
 70
     0
  9
$DIMCLRE
 70
     0
  9
$DIMCLRT
 70
     0
  9
$DIMTFAC
 40
1.0
  9
$DIMGAP
 40
0.09
  9
$DIMJUST
 70
     0
  9
$DIMSD1
 70
     0
  9
$DIMSD2
 70
     0
  9
$DIMTOLJ
 70
     1
  9
$DIMTZIN
 70
     0
  9
$DIMALTZ
 70
     0
  9
$DIMALTTZ
 70
     0
  9
$DIMFIT
 70
     3
  9
$DIMUPT
 70
     0
  9
$DIMUNIT
 70
     2
  9
$DIMDEC
 70
     4
  9
$DIMTDEC
 70
     4
  9
$DIMALTU
 70
     2
  9
$DIMALTTD
 70
     2
  9
$DIMTXSTY
  7
STANDARD
  9
$DIMAUNIT
 70
     0
  9
$LUNITS
 70
     2
  9
$LUPREC
 70
     4
  9
$SKETCHINC
 40
0.1
  9
$FILLETRAD
 40
0.0
  9
$AUNITS
 70
     0
  9
$AUPREC
 70
     0
  9
$MENU
  1
acad
  9
$ELEVATION
 40
0.0
  9
$PELEVATION
 40
0.0
  9
$THICKNESS
 40
0.0
  9
$LIMCHECK
 70
     0
  9
$BLIPMODE
 70
     1
  9
$CHAMFERA
 40
0.0
  9
$CHAMFERB
 40
0.0
  9
$CHAMFERC
 40
0.0
  9
$CHAMFERD
 40
0.0
  9
$SKPOLY
 70
     0
  9
$TDCREATE
 40
2451803.449166667
  9
$TDUPDATE
 40
2451803.449166667
  9
$TDINDWG
 40
0.0000000000
  9
$TDUSRTIMER
 40
0.0000000000
  9
$USRTIMER
 70
     1
  9
$ANGBASE
 50
0.0
  9
$ANGDIR
 70
     0
  9
$PDMODE
 70
     0
  9
$PDSIZE
 40
0.0
  9
$PLINEWID
 40
0.0
  9
$COORDS
 70
     0
  9
$SPLFRAME
 70
     0
  9
$SPLINETYPE
 70
     6
  9
$SPLINESEGS
 70
    10
  9
$ATTDIA
 70
     0
  9
$ATTREQ
 70
     1
  9
$HANDLING
 70
     1
  9
$HANDSEED
  5
511
  9
$SURFTAB1
 70
     6
  9
$SURFTAB2
 70
     6
  9
$SURFTYPE
 70
     6
  9
$SURFU
 70
     6
  9
$SURFV
 70
     6
  9
$UCSNAME
  2

  9
$UCSORG
 10
0.0
 20
0.0
 30
0.0
  9
$UCSXDIR
 10
1.0
 20
0.0
 30
0.0
  9
$UCSYDIR
 10
0.0
 20
1.0
 30
0.0
  9
$PUCSNAME
  2

  9
$PUCSORG
 10
0.0
 20
0.0
 30
0.0
  9
$PUCSXDIR
 10
1.0
 20
0.0
 30
0.0
  9
$PUCSYDIR
 10
0.0
 20
1.0
 30
0.0
  9
$USERI1
 70
     0
  9
$USERI2
 70
     0
  9
$USERI3
 70
     0
  9
$USERI4
 70
     0
  9
$USERI5
 70
     0
  9
$USERR1
 40
0.0
  9
$USERR2
 40
0.0
  9
$USERR3
 40
0.0
  9
$USERR4
 40
0.0
  9
$USERR5
 40
0.0
  9
$WORLDVIEW
 70
     1
  9
$SHADEDGE
 70
     3
  9
$SHADEDIF
 70
    70
  9
$TILEMODE
 70
     1
  9
$MAXACTVP
 70
    16
  9
$PINSBASE
 10
0.0
 20
0.0
 30
0.0
  9
$PLIMCHECK
 70
     0
  9
$PEXTMIN
 10
-1.000000E+20
 20
-1.000000E+20
 30
-1.000000E+20
  9
$PEXTMAX
 10
-1.000000E+20
 20
-1.000000E+20
 30
-1.000000E+20
  9
$PLIMMIN
 10
0.0
 20
0.0
  9
$PLIMMAX
 10
12.0
 20
9.0
  9
$UNITMODE
 70
     0
  9
$VISRETAIN
 70
     0
  9
$PLINEGEN
 70
     1
  9
$PSLTSCALE
 70
     0
  9
$TREEDEPTH
 70
  3020
  9
$PICKSTYLE
 70
     1
  9
$CMLSTYLE
  2
STANDARD
  9
$CMLJUST
 70
     0
  9
$CMLSCALE
 40
1.0
  9
$PROXYGRAPHICS
 70
     0
  9
$MEASUREMENT
 70
     0
  0
ENDSEC
  0
SECTION
  2
CLASSES
  0
CLASS
  1
LWPOLYLINE
  2
AcDbPolyline
  3
"AutoCAD"
 90
        0
280
     0
281
     1
  0
CLASS
  1
IMAGE
  2
AcDbRasterImage
  3
ISM
 90
      127
280
     0
281
     1
  0
CLASS
  1
OLE2FRAME
  2
AcDbOle2Frame
  3
""
 90
        0
280
     0
281
     1
  0
CLASS
  1
HATCH
  2
AcDbHatch
  3
"ACAD_SEDONA"
 90
        0
280
     0
281
     1
  0
CLASS
  1
DICTIONARYVAR
  2
AcDbDictionaryVar
  3
"AutoCAD"
 90
        0
280
     0
281
     0
  0
CLASS
  1
RASTERVARIABLES
  2
AcDbRasterVariables
  3
ISM
 90
        0
280
     0
281
     0
  0
CLASS
  1
IMAGEDEF
  2
AcDbRasterImageDef
  3
ISM
 90
        0
280
     0
281
     0
  0
CLASS
  1
IMAGEDEF_REACTOR
  2
AcDbRasterImageDefReactor
  3
ISM
 90
        1
280
     0
281
     0
  0
CLASS
  1
IDBUFFER
  2
AcDbIdBuffer
  3
"Acad"
 90
        0
280
     0
281
     0
  0
CLASS
  1
SPATIAL_FILTER
  2
AcDbSpatialFilter
  3
"Acad"
 90
        0
280
     0
281
     0
  0
CLASS
  1
XRECORD
  2
AcDbXrecord
  3
"<Built In>"
 90
        0
280
     0
281
     0
  0
CLASS
  1
SORTENTSTABLE
  2
AcDbSortentsTable
  3
"AutoCAD"
 90
        0
280
     0
281
     0
  0
CLASS
  1
LAYER_INDEX
  2
AcDbLayerIndex
  3
"Acad"
 90
        0
280
     0
281
     0
  0
CLASS
  1
SPATIAL_INDEX
  2
AcDbSpatialIndex
  3
"Acad"
 90
        0
280
     0
281
     0
  0
CLASS
  1
OBJECT_PTR
  2
CAseDLPNTableRecord
  3
"ASE-LPNTableRecord"
 90
        1
280
     0
281
     0
  0
ENDSEC
  0
SECTION
  2
TABLES
  0
TABLE
  2
VPORT
  5
7
100
AcDbSymbolTable
 70
     1
  0
VPORT
  5
510
100
AcDbSymbolTableRecord
100
AcDbViewportTableRecord
  2
*ACTIVE
 70
     0
 10
0.0
 20
0.0
 11
1.0
 21
1.0
 12
0.0
 22
0.0
 13
0.0
 23
0.0
 14
0.0
 24
0.0
 15
0.0
 25
0.0
 16
0.0
 26
0.0
 36
1.0
 17
369.4498
 27
252.1016
 37
0.0
 40
565.24
 41
1.545
 42
50.0
 43
0.0
 44
0.0
 50
0.0
 51
0.0
 71
     0
 72
   100
 73
     1
 74
     0
 75
     0
 76
     0
 77
     0
 78
     0
  0
ENDTAB
  0
TABLE
  2
LTYPE
  5
4
100
AcDbSymbolTable
 70
     9
  0
LTYPE
  5
11
100
AcDbSymbolTableRecord
100
AcDbLinetypeTableRecord
  2
BYBLOCK
 70
     0
  3

 72
    65
 73
     0
 40
0.0
  0
LTYPE
  5
12
100
AcDbSymbolTableRecord
100
AcDbLinetypeTableRecord
  2
BYLAYER
 70
     0
  3

 72
    65
 73
     0
 40
0.0
  0
LTYPE
  5
13
100
AcDbSymbolTableRecord
100
AcDbLinetypeTableRecord
  2
CONTINUOUS
 70
     0
  3
Solid line
 72
    65
 73
     0
 40
0.0
  0
LTYPE
  5
22
102
{ACAD_XDICTIONARY
360
24000000B8000000
102
}
100
AcDbSymbolTableRecord
100
AcDbLinetypeTableRecord
  2
DOT
 70
    64
  3
. . . . . . . . . . . . . . . . . . . . . . . . . . . . . . . . .
 72
    65
 73
     2
 40
0.25
 49
0.0
 74
     0
 49
-0.25
 74
     0
  0
LTYPE
  5
23
102
{ACAD_XDICTIONARY
360
24000000B8000000
102
}
100
AcDbSymbolTableRecord
100
AcDbLinetypeTableRecord
  2
HIDDEN
 70
    64
  3
__ __ __ __ __ __ __ __ __ __ __ __ __ __ __ __ __ __ __ __ __ 
 72
    65
 73
     2
 40
0.375
 49
0.25
 74
     0
 49
-0.125
 74
     0
  0
LTYPE
  5
24
102
{ACAD_XDICTIONARY
360
24000000B8000000
102
}
100
AcDbSymbolTableRecord
100
AcDbLinetypeTableRecord
  2
DASHED
 70
    64
  3
__ __ __ __ __ __ __ __ __ __ __ __ __ __ __ __ __ __ __ __ __
 72
    65
 73
     2
 40
0.75
 49
0.5
 74
     0
 49
-0.25
 74
     0
  0
LTYPE
  5
25
102
{ACAD_XDICTIONARY
360
24000000B8000000
102
}
100
AcDbSymbolTableRecord
100
AcDbLinetypeTableRecord
  2
DASHDOT
 70
    64
  3
__ . __ . __ . __ . __ . __ . __ . __ . __ . __ . __ . __ . _
 72
    65
 73
     4
 40
1.0
 49
0.5
 74
     0
 49
-0.25
 74
     0
 49
0.0
 74
     0
 49
-0.25
 74
     0
  0
LTYPE
  5
26
102
{ACAD_XDICTIONARY
360
24000000B8000000
102
}
100
AcDbSymbolTableRecord
100
AcDbLinetypeTableRecord
  2
DIVIDE
 70
    64
  3
____ . . ____ . . ____ . . ____ . . ____ . . ____ . . ____ . .
 72
    65
 73
     6
 40
1.25
 49
0.5
 74
     0
 49
-0.25
 74
     0
 49
0.0
 74
     0
 49
-0.25
 74
     0
 49
0.0
 74
     0
 49
-0.25
 74
     0
  0
LTYPE
  5
27
102
{ACAD_XDICTIONARY
360
24000000B8000000
102
}
100
AcDbSymbolTableRecord
100
AcDbLinetypeTableRecord
  2
CENTER
 70
    64
  3
____ _ ____ _ ____ _ ____ _ ____ _ ____ _ ____ _ ____ _ ____ _
 72
    65
 73
     4
 40
2.0
 49
1.25
 74
     0
 49
-0.25
 74
     0
 49
0.25
 74
     0
 49
-0.25
 74
     0
  0
ENDTAB
  0
TABLE
  2
LAYER
  5
2
100
AcDbSymbolTable
 70
     3
  0
LAYER
  5
14
102
{ACAD_XDICTIONARY
360
5F205F5F5F5F205F
102
}
100
AcDbSymbolTableRecord
100
AcDbLayerTableRecord
  2
0
 70
     0
 62
     7
  6
CONTINUOUS
  0
LAYER
  5
2A
102
{ACAD_XDICTIONARY
360
5F205F5F5F5F205F
102
}
100
AcDbSymbolTableRecord
100
AcDbLayerTableRecord
  2
61
 70
    64
 62
     7
  6
CONTINUOUS
  0
LAYER
  5
2D
102
{ACAD_XDICTIONARY
360
5F205F5F5F5F205F
102
}
100
AcDbSymbolTableRecord
100
AcDbLayerTableRecord
  2
1
 70
    64
 62
     7
  6
CONTINUOUS
  0
ENDTAB
  0
TABLE
  2
STYLE
  5
3
100
AcDbSymbolTable
 70
     3
  0
STYLE
  5
17
100
AcDbSymbolTableRecord
100
AcDbTextStyleTableRecord
  2
STANDARD
 70
     0
 40
0.0
 41
1.0
 50
0.0
 71
     0
 42
0.0
  3
txt
  4

  0
STYLE
  5
2B
100
AcDbSymbolTableRecord
100
AcDbTextStyleTableRecord
  2
MONOTXT
 70
     0
 40
0.2
 41
1.0
 50
0.0
 71
     0
 42
0.2
  3
MONOTXT
  4

  0
STYLE
  5
42
100
AcDbSymbolTableRecord
100
AcDbTextStyleTableRecord
  2
TXT
 70
     0
 40
0.2
 41
1.0
 50
0.0
 71
     0
 42
0.2
  3
TXT
  4

  0
ENDTAB
  0
TABLE
  2
VIEW
  5
5
100
AcDbSymbolTable
 70
     0
  0
ENDTAB
  0
TABLE
  2
UCS
  5
6
100
AcDbSymbolTable
 70
     0
  0
ENDTAB
  0
TABLE
  2
APPID
  5
8
100
AcDbSymbolTable
 70
     1
  0
APPID
  5
16
100
AcDbSymbolTableRecord
100
AcDbRegAppTableRecord
  2
ACAD
 70
     0
  0
ENDTAB
  0
TABLE
  2
DIMSTYLE
  5
9
100
AcDbSymbolTable
 70
     1
  0
DIMSTYLE
105
18
100
AcDbSymbolTableRecord
100
AcDbDimStyleTableRecord
  2
STANDARD
 70
     0
  3

  4

  5

  6

  7

 40
1.0
 41
0.18
 42
0.0625
 43
0.38
 44
0.18
 45
0.0
 46
0.0
 47
0.0
 48
0.0
140
0.18
141
0.09
142
0.0
143
25.4
144
1.0
145
0.0
146
1.0
147
0.09
 71
     0
 72
     0
 73
     1
 74
     1
 75
     0
 76
     0
 77
     0
 78
     0
170
     0
171
     2
172
     0
173
     0
174
     0
175
     0
176
     0
177
     0
178
     0
270
     2
271
     4
272
     4
273
     2
274
     2
340
17
275
     0
280
     0
281
     0
282
     0
283
     1
284
     0
285
     0
286
     0
287
     0
288
     0
  0
ENDTAB
  0
TABLE
  2
BLOCK_RECORD
  5
1
100
AcDbSymbolTable
 70
     1
  0
BLOCK_RECORD
  5
A
100
AcDbSymbolTableRecord
100
AcDbBlockTableRecord
  2
*MODEL_SPACE
  0
BLOCK_RECORD
  5
B
100
AcDbSymbolTableRecord
100
AcDbBlockTableRecord
  2
*PAPER_SPACE
  0
BLOCK_RECORD
  5
AB
102
{ACAD_XDICTIONARY
360
3D59012400000000
102
}
100
AcDbSymbolTableRecord
100
AcDbBlockTableRecord
  2
LDR
  0
ENDTAB
  0
ENDSEC
  0
SECTION
  2
BLOCKS
  0
BLOCK
  5
D
100
AcDbEntity
  8
0
100
AcDbBlockBegin
  2
*MODEL_SPACE
 70
     0
 10
0.0
 20
0.0
 30
0.0
  3
*MODEL_SPACE
  1

  0
ENDBLK
  5
E
100
AcDbEntity
  8
0
100
AcDbBlockEnd
  0
BLOCK
  5
F
100
AcDbEntity
 67
     1
  8
0
100
AcDbBlockBegin
  2
*PAPER_SPACE
 70
     0
 10
0.0
 20
0.0
 30
0.0
  3
*PAPER_SPACE
  1

  0
ENDBLK
  5
10
100
AcDbEntity
 67
     1
  8
0
100
AcDbBlockEnd
  0
BLOCK
  5
AC
100
AcDbEntity
  8
1
  6
CONTINUOUS
 62
     1
100
AcDbBlockBegin
  2
LDR
 70
     0
 10
0.0
 20
0.0
 30
0.0
  3
LNR
  1

  0
ELLIPSE
  5
AD
100
AcDbEntity
  8
1
  6
CONTINUOUS
 62
     1
100
AcDbEllipse
 10
-0.005456
 20
-0.001382
 30
0.0
 11
0.0089285004623472
 21
0.0007807500129699
 31
0.0
210
0.0
220
0.0
230
1.0
 40
0.122415
 41
0.8963533496766982
 42
3.1415926535897931
  0
ELLIPSE
  5
AE
100
AcDbEntity
  8
1
  6
CONTINUOUS
 62
     1
100
AcDbEllipse
 10
-0.005603
 20
0.001058
 30
0.0
 11
0.0087822506056358
 21
-0.0008782502048316
 31
0.0
210
0.0
220
0.0
230
1.0
 40
0.07063
 41
3.1407147529760402
 42
5.4181099545465106
  0
ENDBLK
  5
AF
100
AcDbEntity
  8
1
  6
CONTINUOUS
 62
     1
100
AcDbBlockEnd
  0
ENDSEC
  0
SECTION
  2
ENTITIES
  0
TEXT
  5
2C
100
AcDbEntity
  8
61
  6
CONTINUOUS
 62
     7
100
AcDbText
 10
785.3499
 20
461.8535
 30
0.0
 40
2.881584
  1
     
 41
1.001399
  7
MONOTXT
210
0.0
220
0.0
230
1.0
100
AcDbText
  0
TEXT
  5
2E
100
AcDbEntity
  8
1
  6
CONTINUOUS
 62
     1
100
AcDbText
 10
609.6348
 20
38.7136
 30
0.0
 40
2.400048
  1
06-01-76
  7
MONOTXT
 72
     1
 11
617.7514
 21
41.1136
 31
0.0
210
0.0
220
0.0
230
1.0
100
AcDbText
 73
     3
  0
TEXT
  5
2F
100
AcDbEntity
  8
1
  6
CONTINUOUS
 62
     1
100
AcDbText
 10
610.141
 20
33.0509
 30
0.0
 40
2.400048
  1
10-21-76
  7
MONOTXT
 72
     1
 11
617.8041
 21
35.4509
 31
0.0
210
0.0
220
0.0
230
1.0
100
AcDbText
 73
     3
  0
TEXT
  5
30
100
AcDbEntity
  8
1
  6
CONTINUOUS
 62
     1
100
AcDbText
 10
609.9552
 20
27.4648
 30
0.0
 40
2.400048
  1
12-18-87
  7
MONOTXT
 72
     1
 11
617.6656
 21
29.8648
 31
0.0
210
0.0
220
0.0
230
1.0
100
AcDbText
 73
     3
  0
TEXT
  5
31
100
AcDbEntity
  8
1
  6
CONTINUOUS
 62
     1
100
AcDbText
 10
608.1796
 20
16.0524
 30
0.0
 40
2.400048
  1
        
  7
MONOTXT
 72
     1
 11
617.3798
 21
18.4524
 31
0.0
210
0.0
220
0.0
230
1.0
100
AcDbText
 73
     3
  0
TEXT
  5
32
100
AcDbEntity
  8
1
  6
CONTINUOUS
 62
     1
100
AcDbText
 10
606.3819
 20
28.8935
 30
0.0
 40
2.400048
  1
        
  7
MONOTXT
 72
     1
 11
615.5821
 21
31.2935
 31
0.0
210
0.0
220
0.0
230
1.0
100
AcDbText
 73
     3
  0
TEXT
  5
33
100
AcDbEntity
  8
1
  6
CONTINUOUS
 62
     1
100
AcDbText
 10
606.2619
 20
23.3735
 30
0.0
 40
2.400048
  1
        
  7
MONOTXT
 72
     1
 11
615.4621
 21
25.7735
 31
0.0
210
0.0
220
0.0
230
1.0
100
AcDbText
 73
     3
  0
TEXT
  5
34
100
AcDbEntity
  8
1
  6
CONTINUOUS
 62
     1
100
AcDbText
 10
606.3819
 20
17.8775
 30
0.0
 40
2.400048
  1
        
  7
MONOTXT
 72
     1
 11
615.5821
 21
20.2775
 31
0.0
210
0.0
220
0.0
230
1.0
100
AcDbText
 73
     3
  0
TEXT
  5
35
100
AcDbEntity
  8
1
  6
CONTINUOUS
 62
     1
100
AcDbText
 10
606.3819
 20
13.0535
 30
0.0
 40
2.400048
  1
        
  7
MONOTXT
 72
     1
 11
615.5821
 21
15.4535
 31
0.0
210
0.0
220
0.0
230
1.0
100
AcDbText
 73
     3
  0
LWPOLYLINE
  5
36
100
AcDbEntity
  8
1
  6
CONTINUOUS
 62
     7
100
AcDbPolyline
 90
        4
 70
     0
 10
600.2137
 20
126.8466
 10
597.8137
 20
122.6897
 10
602.6137
 20
122.6897
 10
600.2137
 20
126.8466
  0
LWPOLYLINE
  5
37
100
AcDbEntity
  8
1
  6
CONTINUOUS
 62
     7
100
AcDbPolyline
 90
        4
 70
     0
 10
600.3638
 20
132.6588
 10
597.9638
 20
128.5019
 10
602.7638
 20
128.5019
 10
600.3638
 20
132.6588
  0
LWPOLYLINE
  5
38
100
AcDbEntity
  8
1
  6
CONTINUOUS
 62
     7
100
AcDbPolyline
 90
        4
 70
     0
 10
603.0441
 20
42.323
 10
600.6441
 20
38.1661
 10
605.4441
 20
38.1661
 10
603.0441
 20
42.323
  0
LWPOLYLINE
  5
39
100
AcDbEntity
  8
1
  6
CONTINUOUS
 62
     7
100
AcDbPolyline
 90
        4
 70
     0
 10
603.1694
 20
36.637
 10
600.7694
 20
32.4801
 10
605.5694
 20
32.4801
 10
603.1694
 20
36.637
  0
LWPOLYLINE
  5
3A
100
AcDbEntity
  8
1
  6
CONTINUOUS
 62
     7
100
AcDbPolyline
 90
        4
 70
     0
 10
603.1138
 20
30.9475
 10
600.7138
 20
26.7906
 10
605.5138
 20
26.7906
 10
603.1138
 20
30.9475
  0
TEXT
  5
3B
100
AcDbEntity
  8
1
  6
CONTINUOUS
 62
     7
100
AcDbText
 10
599.9858
 20
129.0759
 30
0.0
 40
2.4
  1
1
  7
MONOTXT
210
0.0
220
0.0
230
1.0
100
AcDbText
  0
TEXT
  5
3C
100
AcDbEntity
  8
1
  6
CONTINUOUS
 62
     7
100
AcDbText
 10
599.3527
 20
123.014
 30
0.0
 40
2.4
  1
2
  7
MONOTXT
210
0.0
220
0.0
230
1.0
100
AcDbText
  0
TEXT
  5
3D
100
AcDbEntity
  8
1
  6
CONTINUOUS
 62
     7
100
AcDbText
 10
603.875
 20
129.7093
 30
0.0
 40
2.4
  1
DELETED SIGN PLACEMENT AND SHIM DETAIL
  7
MONOTXT
210
0.0
220
0.0
230
1.0
100
AcDbText
  0
TEXT
  5
3E
100
AcDbEntity
  8
1
  6
CONTINUOUS
 62
     7
100
AcDbText
 10
603.6037
 20
123.3759
 30
0.0
 40
2.4
  1
ADDED EXTRUDED RIB DETAIL
  7
MONOTXT
210
0.0
220
0.0
230
1.0
100
AcDbText
  0
TEXT
  5
3F
100
AcDbEntity
  8
1
  6
CONTINUOUS
 62
     7
100
AcDbText
 10
602.6765
 20
38.5525
 30
0.0
 40
2.4
  1
1
  7
MONOTXT
210
0.0
220
0.0
230
1.0
100
AcDbText
  0
TEXT
  5
40
100
AcDbEntity
  8
1
  6
CONTINUOUS
 62
     7
100
AcDbText
 10
602.4118
 20
32.7561
 30
0.0
 40
2.4
  1
2
  7
MONOTXT
210
0.0
220
0.0
230
1.0
100
AcDbText
  0
TEXT
  5
41
100
AcDbEntity
  8
1
  6
CONTINUOUS
 62
     7
100
AcDbText
 10
602.2587
 20
27.0363
 30
0.0
 40
2.4
  1
3
  7
MONOTXT
210
0.0
220
0.0
230
1.0
100
AcDbText
  0
TEXT
  5
43
100
AcDbEntity
  8
1
  6
CONTINUOUS
 62
     7
100
AcDbText
 10
641.5367
 20
68.4539
 30
0.0
 40
8.3912
  1
FLAT SHEET SIGNS ON
  7
TXT
 72
     1
 11
707.9479
 21
76.8451
 31
0.0
210
0.0
220
0.0
230
1.0
100
AcDbText
 73
     3
  0
TEXT
  5
44
100
AcDbEntity
  8
1
  6
CONTINUOUS
 62
     7
100
AcDbText
 10
640.5743
 20
56.9632
 30
0.0
 40
8.3912
  1
BREAKAWAY SUPPORTS
  7
TXT
 72
     1
 11
707.948
 21
65.3544
 31
0.0
210
0.0
220
0.0
230
1.0
100
AcDbText
 73
     3
  0
LINE
  5
45
100
AcDbEntity
  8
1
  6
HIDDEN
 62
     3
100
AcDbLine
 10
335.9518
 20
428.8005
 30
0.0
 11
338.3518
 21
428.8005
 31
0.0
  0
LINE
  5
46
100
AcDbEntity
  8
1
  6
HIDDEN
 62
     3
100
AcDbLine
 10
350.3518
 20
428.8005
 30
0.0
 11
352.7518
 21
428.8005
 31
0.0
  0
LINE
  5
47
100
AcDbEntity
  8
1
  6
CONTINUOUS
 62
     3
100
AcDbLine
 10
350.3518
 20
398.8017
 30
0.0
 11
352.7518
 21
398.8017
 31
0.0
  0
LINE
  5
48
100
AcDbEntity
  8
1
  6
CONTINUOUS
 62
     3
100
AcDbLine
 10
335.9518
 20
398.8017
 30
0.0
 11
338.3518
 21
398.8017
 31
0.0
  0
LINE
  5
49
100
AcDbEntity
  8
1
  6
CONTINUOUS
 62
     3
100
AcDbLine
 10
334.4518
 20
330.829
 30
0.0
 11
339.8518
 21
330.829
 31
0.0
  0
LINE
  5
4A
100
AcDbEntity
  8
1
  6
CONTINUOUS
 62
     3
100
AcDbLine
 10
348.8518
 20
326.629
 30
0.0
 11
354.2518
 21
326.629
 31
0.0
  0
LINE
  5
4B
100
AcDbEntity
  8
1
  6
CONTINUOUS
 62
     3
100
AcDbLine
 10
334.4518
 20
329.029
 30
0.0
 11
339.8518
 21
329.029
 31
0.0
  0
LINE
  5
4C
100
AcDbEntity
  8
1
  6
CONTINUOUS
 62
     3
100
AcDbLine
 10
348.8518
 20
324.829
 30
0.0
 11
354.2518
 21
324.829
 31
0.0
  0
LINE
  5
4D
100
AcDbEntity
  8
1
  6
CONTINUOUS
 62
     3
100
AcDbLine
 10
334.4518
 20
330.829
 30
0.0
 11
334.4518
 21
329.029
 31
0.0
  0
LINE
  5
4E
100
AcDbEntity
  8
1
  6
CONTINUOUS
 62
     3
100
AcDbLine
 10
339.8518
 20
330.829
 30
0.0
 11
339.8518
 21
329.029
 31
0.0
  0
LINE
  5
4F
100
AcDbEntity
  8
1
  6
CONTINUOUS
 62
     3
100
AcDbLine
 10
348.8518
 20
326.629
 30
0.0
 11
348.8518
 21
324.829
 31
0.0
  0
LINE
  5
50
100
AcDbEntity
  8
1
  6
CONTINUOUS
 62
     3
100
AcDbLine
 10
354.2518
 20
326.629
 30
0.0
 11
354.2518
 21
324.829
 31
0.0
  0
LINE
  5
51
100
AcDbEntity
  8
1
  6
CONTINUOUS
 62
     3
100
AcDbLine
 10
334.4518
 20
329.929
 30
0.0
 11
339.8518
 21
329.929
 31
0.0
  0
LINE
  5
52
100
AcDbEntity
  8
1
  6
CONTINUOUS
 62
     3
100
AcDbLine
 10
348.8518
 20
325.729
 30
0.0
 11
354.2518
 21
325.729
 31
0.0
  0
LINE
  5
53
100
AcDbEntity
  8
1
  6
DASHED
 62
     3
100
AcDbLine
 10
335.9518
 20
287.2005
 30
0.0
 11
338.3518
 21
287.2005
 31
0.0
  0
LINE
  5
54
100
AcDbEntity
  8
1
  6
DASHED
 62
     3
100
AcDbLine
 10
350.3518
 20
282.4005
 30
0.0
 11
352.7518
 21
282.4005
 31
0.0
  0
LINE
  5
55
100
AcDbEntity
  8
1
  6
CONTINUOUS
 62
     3
100
AcDbLine
 10
307.9621
 20
334.5971
 30
0.0
 11
365.3185
 21
316.1613
 31
0.0
  0
LINE
  5
56
100
AcDbEntity
  8
1
  6
DASHED
 62
     3
100
AcDbLine
 10
335.9518
 20
325.6005
 30
0.0
 11
335.9518
 21
287.2005
 31
0.0
  0
LINE
  5
57
100
AcDbEntity
  8
1
  6
DASHED
 62
     3
100
AcDbLine
 10
338.3518
 20
324.829
 30
0.0
 11
338.3518
 21
287.2005
 31
0.0
  0
LINE
  5
58
100
AcDbEntity
  8
1
  6
DASHED
 62
     3
100
AcDbLine
 10
350.3518
 20
320.9719
 30
0.0
 11
350.3518
 21
282.4005
 31
0.0
  0
LINE
  5
59
100
AcDbEntity
  8
1
  6
DASHED
 62
     3
100
AcDbLine
 10
352.7518
 20
320.2005
 30
0.0
 11
352.7518
 21
282.4005
 31
0.0
  0
LINE
  5
5A
100
AcDbEntity
  8
1
  6
DASHED
 62
     3
100
AcDbLine
 10
332.9518
 20
275.2005
 30
0.0
 11
341.3518
 21
275.2005
 31
0.0
  0
LINE
  5
5B
100
AcDbEntity
  8
1
  6
DASHED
 62
     3
100
AcDbLine
 10
347.3518
 20
270.4005
 30
0.0
 11
355.7518
 21
270.4005
 31
0.0
  0
LINE
  5
5C
100
AcDbEntity
  8
1
  6
CONTINUOUS
 62
     3
100
AcDbLine
 10
335.9518
 20
325.0005
 30
0.0
 11
330.5518
 21
325.0005
 31
0.0
  0
LINE
  5
5D
100
AcDbEntity
  8
1
  6
DASHED
 62
     3
100
AcDbLine
 10
332.9518
 20
275.2005
 30
0.0
 11
332.9518
 21
325.0005
 31
0.0
  0
LINE
  5
5E
100
AcDbEntity
  8
1
  6
DASHED
 62
     3
100
AcDbLine
 10
341.3518
 20
275.2005
 30
0.0
 11
341.3518
 21
323.8648
 31
0.0
  0
LINE
  5
5F
100
AcDbEntity
  8
1
  6
DASHED
 62
     3
100
AcDbLine
 10
347.3518
 20
270.4005
 30
0.0
 11
347.3518
 21
321.9363
 31
0.0
  0
LINE
  5
60
100
AcDbEntity
  8
1
  6
DASHED
 62
     3
100
AcDbLine
 10
355.7518
 20
270.4005
 30
0.0
 11
355.7518
 21
319.2363
 31
0.0
  0
LINE
  5
61
100
AcDbEntity
  8
1
  6
CONTINUOUS
 62
     3
100
AcDbLine
 10
335.9518
 20
325.6005
 30
0.0
 11
335.9518
 21
329.029
 31
0.0
  0
LINE
  5
62
100
AcDbEntity
  8
1
  6
CONTINUOUS
 62
     3
100
AcDbLine
 10
350.3518
 20
320.9719
 30
0.0
 11
350.3518
 21
324.829
 31
0.0
  0
LINE
  5
63
100
AcDbEntity
  8
1
  6
CONTINUOUS
 62
     3
100
AcDbLine
 10
338.3518
 20
324.829
 30
0.0
 11
338.3518
 21
329.029
 31
0.0
  0
LINE
  5
64
100
AcDbEntity
  8
1
  6
CONTINUOUS
 62
     3
100
AcDbLine
 10
352.7518
 20
320.2005
 30
0.0
 11
352.7518
 21
324.829
 31
0.0
  0
LINE
  5
65
100
AcDbEntity
  8
1
  6
HIDDEN
 62
     3
100
AcDbLine
 10
328.466
 20
432.4005
 30
0.0
 11
360.1888
 21
432.4005
 31
0.0
  0
LINE
  5
66
100
AcDbEntity
  8
1
  6
HIDDEN
 62
     3
100
AcDbLine
 10
363.2746
 20
426.9464
 30
0.0
 11
347.4132
 21
400.5485
 31
0.0
  0
LINE
  5
67
100
AcDbEntity
  8
1
  6
HIDDEN
 62
     3
100
AcDbLine
 10
325.3801
 20
426.9464
 30
0.0
 11
341.2416
 21
400.5485
 31
0.0
  0
LINE
  5
68
100
AcDbEntity
  8
1
  6
HIDDEN
 62
     3
100
AcDbLine
 10
335.9518
 20
428.8005
 30
0.0
 11
335.9518
 21
409.3522
 31
0.0
  0
LINE
  5
69
100
AcDbEntity
  8
1
  6
HIDDEN
 62
     3
100
AcDbLine
 10
338.3518
 20
428.8005
 30
0.0
 11
338.3518
 21
405.358
 31
0.0
  0
LINE
  5
6A
100
AcDbEntity
  8
1
  6
CONTINUOUS
 62
     3
100
AcDbLine
 10
338.3518
 20
405.358
 30
0.0
 11
338.3518
 21
330.829
 31
0.0
  0
LINE
  5
6B
100
AcDbEntity
  8
1
  6
HIDDEN
 62
     3
100
AcDbLine
 10
350.3518
 20
428.8005
 30
0.0
 11
350.3518
 21
405.4392
 31
0.0
  0
LINE
  5
6C
100
AcDbEntity
  8
1
  6
CONTINUOUS
 62
     3
100
AcDbLine
 10
350.3518
 20
405.4392
 30
0.0
 11
350.3518
 21
326.629
 31
0.0
  0
LINE
  5
6D
100
AcDbEntity
  8
1
  6
HIDDEN
 62
     3
100
AcDbLine
 10
352.7518
 20
428.8005
 30
0.0
 11
352.7518
 21
409.4335
 31
0.0
  0
LINE
  5
6E
100
AcDbEntity
  8
1
  6
CONTINUOUS
 62
     3
100
AcDbLine
 10
352.7518
 20
409.4335
 30
0.0
 11
352.7518
 21
326.629
 31
0.0
  0
ARC
  5
6F
100
AcDbEntity
  8
1
  6
HIDDEN
 62
     3
100
AcDbCircle
 10
328.465951
 20
428.8005
 30
0.0
 40
3.6
210
0.0
220
0.0
230
1.0
100
AcDbArc
 50
90.0
 51
210.999792
  0
ARC
  5
70
100
AcDbEntity
  8
1
  6
HIDDEN
 62
     3
100
AcDbCircle
 10
360.18884
 20
428.8005
 30
0.0
 40
3.6
210
0.0
220
0.0
230
1.0
100
AcDbArc
 50
329.000144
 51
90.0
  0
ARC
  5
71
100
AcDbEntity
  8
1
  6
HIDDEN
 62
     3
100
AcDbCircle
 10
344.327449
 20
402.402641
 30
0.0
 40
3.6
210
0.0
220
0.0
230
1.0
100
AcDbArc
 50
210.999769
 51
328.999436
  0
LINE
  5
72
100
AcDbEntity
  8
1
  6
CONTINUOUS
 62
     3
100
AcDbLine
 10
335.9518
 20
395.1403
 30
0.0
 11
338.3518
 21
395.1403
 31
0.0
  0
LINE
  5
73
100
AcDbEntity
  8
1
  6
CONTINUOUS
 62
     3
100
AcDbLine
 10
350.3518
 20
395.1403
 30
0.0
 11
352.7518
 21
395.1403
 31
0.0
  0
LINE
  5
74
100
AcDbEntity
  8
1
  6
CONTINUOUS
 62
     7
100
AcDbLine
 10
337.1518
 20
286.0005
 30
0.0
 11
337.1518
 21
353.8005
 31
0.0
  0
LINE
  5
75
100
AcDbEntity
  8
1
  6
CONTINUOUS
 62
     7
100
AcDbLine
 10
351.5518
 20
281.2005
 30
0.0
 11
351.5518
 21
353.8005
 31
0.0
  0
LINE
  5
76
100
AcDbEntity
  8
1
  6
CONTINUOUS
 62
     7
100
AcDbLine
 10
337.1518
 20
378.4005
 30
0.0
 11
337.1518
 21
358.6005
 31
0.0
  0
LINE
  5
77
100
AcDbEntity
  8
1
  6
CONTINUOUS
 62
     7
100
AcDbLine
 10
337.1518
 20
357.4005
 30
0.0
 11
337.1518
 21
355.0005
 31
0.0
  0
LINE
  5
78
100
AcDbEntity
  8
1
  6
CONTINUOUS
 62
     7
100
AcDbLine
 10
351.5518
 20
378.4005
 30
0.0
 11
351.5518
 21
358.6005
 31
0.0
  0
LINE
  5
79
100
AcDbEntity
  8
1
  6
CONTINUOUS
 62
     7
100
AcDbLine
 10
351.5518
 20
357.4005
 30
0.0
 11
351.5518
 21
355.0005
 31
0.0
  0
LINE
  5
7A
100
AcDbEntity
  8
1
  6
CONTINUOUS
 62
     3
100
AcDbLine
 10
429.2518
 20
330.829
 30
0.0
 11
434.6518
 21
330.829
 31
0.0
  0
LINE
  5
7B
100
AcDbEntity
  8
1
  6
CONTINUOUS
 62
     3
100
AcDbLine
 10
450.8518
 20
326.629
 30
0.0
 11
456.2518
 21
326.629
 31
0.0
  0
LINE
  5
7C
100
AcDbEntity
  8
1
  6
CONTINUOUS
 62
     3
100
AcDbLine
 10
429.2518
 20
329.029
 30
0.0
 11
434.6518
 21
329.029
 31
0.0
  0
LINE
  5
7D
100
AcDbEntity
  8
1
  6
CONTINUOUS
 62
     3
100
AcDbLine
 10
450.8518
 20
324.829
 30
0.0
 11
456.2518
 21
324.829
 31
0.0
  0
LINE
  5
7E
100
AcDbEntity
  8
1
  6
CONTINUOUS
 62
     3
100
AcDbLine
 10
429.2518
 20
330.829
 30
0.0
 11
429.2518
 21
329.029
 31
0.0
  0
LINE
  5
7F
100
AcDbEntity
  8
1
  6
CONTINUOUS
 62
     3
100
AcDbLine
 10
434.6518
 20
330.829
 30
0.0
 11
434.6518
 21
329.029
 31
0.0
  0
LINE
  5
80
100
AcDbEntity
  8
1
  6
CONTINUOUS
 62
     3
100
AcDbLine
 10
450.8518
 20
326.629
 30
0.0
 11
450.8518
 21
324.829
 31
0.0
  0
LINE
  5
81
100
AcDbEntity
  8
1
  6
CONTINUOUS
 62
     3
100
AcDbLine
 10
456.2518
 20
326.629
 30
0.0
 11
456.2518
 21
324.829
 31
0.0
  0
LINE
  5
82
100
AcDbEntity
  8
1
  6
CONTINUOUS
 62
     3
100
AcDbLine
 10
429.2518
 20
329.929
 30
0.0
 11
434.6518
 21
329.929
 31
0.0
  0
LINE
  5
83
100
AcDbEntity
  8
1
  6
CONTINUOUS
 62
     3
100
AcDbLine
 10
450.8518
 20
325.729
 30
0.0
 11
456.2518
 21
325.729
 31
0.0
  0
LINE
  5
84
100
AcDbEntity
  8
1
  6
DASHED
 62
     3
100
AcDbLine
 10
430.7518
 20
287.2005
 30
0.0
 11
433.1518
 21
287.2005
 31
0.0
  0
LINE
  5
85
100
AcDbEntity
  8
1
  6
DASHED
 62
     3
100
AcDbLine
 10
452.3518
 20
282.4005
 30
0.0
 11
454.7518
 21
282.4005
 31
0.0
  0
LINE
  5
86
100
AcDbEntity
  8
1
  6
DASHED
 62
     3
100
AcDbLine
 10
430.7518
 20
325.7402
 30
0.0
 11
430.7518
 21
287.2005
 31
0.0
  0
LINE
  5
87
100
AcDbEntity
  8
1
  6
DASHED
 62
     3
100
AcDbLine
 10
433.1518
 20
324.9688
 30
0.0
 11
433.1518
 21
287.2005
 31
0.0
  0
LINE
  5
88
100
AcDbEntity
  8
1
  6
DASHED
 62
     3
100
AcDbLine
 10
452.3518
 20
318.7974
 30
0.0
 11
452.3518
 21
282.4005
 31
0.0
  0
LINE
  5
89
100
AcDbEntity
  8
1
  6
DASHED
 62
     3
100
AcDbLine
 10
454.7518
 20
318.026
 30
0.0
 11
454.7518
 21
282.4005
 31
0.0
  0
LINE
  5
8A
100
AcDbEntity
  8
1
  6
DASHED
 62
     3
100
AcDbLine
 10
427.7518
 20
275.2005
 30
0.0
 11
436.1518
 21
275.2005
 31
0.0
  0
LINE
  5
8B
100
AcDbEntity
  8
1
  6
DASHED
 62
     3
100
AcDbLine
 10
449.3518
 20
270.4005
 30
0.0
 11
457.7518
 21
270.4005
 31
0.0
  0
LINE
  5
8C
100
AcDbEntity
  8
1
  6
CONTINUOUS
 62
     3
100
AcDbLine
 10
430.7518
 20
325.0005
 30
0.0
 11
425.3518
 21
325.0005
 31
0.0
  0
LINE
  5
8D
100
AcDbEntity
  8
1
  6
DASHED
 62
     3
100
AcDbLine
 10
427.7518
 20
275.2005
 30
0.0
 11
427.7518
 21
325.0005
 31
0.0
  0
LINE
  5
8E
100
AcDbEntity
  8
1
  6
DASHED
 62
     3
100
AcDbLine
 10
436.1518
 20
275.2005
 30
0.0
 11
436.1518
 21
324.0045
 31
0.0
  0
LINE
  5
8F
100
AcDbEntity
  8
1
  6
DASHED
 62
     3
100
AcDbLine
 10
449.3518
 20
270.4005
 30
0.0
 11
449.3518
 21
319.7617
 31
0.0
  0
LINE
  5
90
100
AcDbEntity
  8
1
  6
DASHED
 62
     3
100
AcDbLine
 10
457.7518
 20
270.4005
 30
0.0
 11
457.7518
 21
317.0617
 31
0.0
  0
LINE
  5
91
100
AcDbEntity
  8
1
  6
CONTINUOUS
 62
     3
100
AcDbLine
 10
430.7518
 20
325.7402
 30
0.0
 11
430.7518
 21
329.029
 31
0.0
  0
LINE
  5
92
100
AcDbEntity
  8
1
  6
CONTINUOUS
 62
     3
100
AcDbLine
 10
452.3518
 20
318.7974
 30
0.0
 11
452.3518
 21
324.829
 31
0.0
  0
LINE
  5
93
100
AcDbEntity
  8
1
  6
CONTINUOUS
 62
     3
100
AcDbLine
 10
433.1518
 20
324.9688
 30
0.0
 11
433.1518
 21
329.029
 31
0.0
  0
LINE
  5
94
100
AcDbEntity
  8
1
  6
CONTINUOUS
 62
     3
100
AcDbLine
 10
454.7518
 20
318.026
 30
0.0
 11
454.7518
 21
324.829
 31
0.0
  0
LINE
  5
95
100
AcDbEntity
  8
1
  6
CONTINUOUS
 62
     7
100
AcDbLine
 10
431.9518
 20
286.0005
 30
0.0
 11
431.9518
 21
353.8005
 31
0.0
  0
LINE
  5
96
100
AcDbEntity
  8
1
  6
CONTINUOUS
 62
     7
100
AcDbLine
 10
453.5518
 20
281.2005
 30
0.0
 11
453.5518
 21
353.8005
 31
0.0
  0
LINE
  5
97
100
AcDbEntity
  8
1
  6
CONTINUOUS
 62
     7
100
AcDbLine
 10
431.9518
 20
378.4005
 30
0.0
 11
431.9518
 21
358.6005
 31
0.0
  0
LINE
  5
98
100
AcDbEntity
  8
1
  6
CONTINUOUS
 62
     7
100
AcDbLine
 10
431.9518
 20
357.4005
 30
0.0
 11
431.9518
 21
355.0005
 31
0.0
  0
LINE
  5
99
100
AcDbEntity
  8
1
  6
CONTINUOUS
 62
     7
100
AcDbLine
 10
453.5518
 20
378.4005
 30
0.0
 11
453.5518
 21
358.6005
 31
0.0
  0
LINE
  5
9A
100
AcDbEntity
  8
1
  6
CONTINUOUS
 62
     7
100
AcDbLine
 10
453.5518
 20
357.4005
 30
0.0
 11
453.5518
 21
355.0005
 31
0.0
  0
LINE
  5
9B
100
AcDbEntity
  8
1
  6
CONTINUOUS
 62
     3
100
AcDbLine
 10
329.5502
 20
424.0005
 30
0.0
 11
359.1045
 21
424.0005
 31
0.0
  0
LINE
  5
9C
100
AcDbEntity
  8
1
  6
CONTINUOUS
 62
     3
100
AcDbLine
 10
333.3974
 20
415.6005
 30
0.0
 11
355.2573
 21
415.6005
 31
0.0
  0
LINE
  5
9D
100
AcDbEntity
  8
1
  6
CONTINUOUS
 62
     7
100
AcDbLine
 10
324.7327
 20
430.5732
 30
0.0
 11
324.7327
 21
448.5732
 31
0.0
  0
LINE
  5
9E
100
AcDbEntity
  8
1
  6
CONTINUOUS
 62
     7
100
AcDbLine
 10
363.9221
 20
430.5732
 30
0.0
 11
363.9221
 21
448.5732
 31
0.0
  0
LINE
  5
9F
100
AcDbEntity
  8
1
  6
CONTINUOUS
 62
     7
100
AcDbLine
 10
363.9221
 20
447.3732
 30
0.0
 11
324.7327
 21
447.3732
 31
0.0
  0
LINE
  5
A0
100
AcDbEntity
  8
1
  6
CONTINUOUS
 62
     7
100
AcDbLine
 10
337.1518
 20
442.0005
 30
0.0
 11
337.1518
 21
433.6005
 31
0.0
  0
LINE
  5
A1
100
AcDbEntity
  8
1
  6
CONTINUOUS
 62
     7
100
AcDbLine
 10
351.5518
 20
442.0005
 30
0.0
 11
351.5518
 21
433.6005
 31
0.0
  0
LINE
  5
A2
100
AcDbEntity
  8
1
  6
CONTINUOUS
 62
     7
100
AcDbLine
 10
337.1518
 20
440.8005
 30
0.0
 11
351.5518
 21
440.8005
 31
0.0
  0
LINE
  5
A3
100
AcDbEntity
  8
1
  6
CONTINUOUS
 62
     7
100
AcDbLine
 10
330.9974
 20
415.6005
 30
0.0
 11
314.7974
 21
415.6005
 31
0.0
  0
LINE
  5
A4
100
AcDbEntity
  8
1
  6
CONTINUOUS
 62
     7
100
AcDbLine
 10
325.9502
 20
424.0005
 30
0.0
 11
314.7974
 21
424.0005
 31
0.0
  0
LINE
  5
A5
100
AcDbEntity
  8
1
  6
CONTINUOUS
 62
     7
100
AcDbLine
 10
326.1974
 20
432.4005
 30
0.0
 11
314.7974
 21
432.4005
 31
0.0
  0
LINE
  5
A6
100
AcDbEntity
  8
1
  6
CONTINUOUS
 62
     7
100
AcDbLine
 10
315.9974
 20
432.4005
 30
0.0
 11
315.9974
 21
424.0005
 31
0.0
  0
LINE
  5
A7
100
AcDbEntity
  8
1
  6
CONTINUOUS
 62
     7
100
AcDbLine
 10
315.9974
 20
424.0005
 30
0.0
 11
315.9974
 21
415.6005
 31
0.0
  0
LINE
  5
A8
100
AcDbEntity
  8
1
  6
CONTINUOUS
 62
     7
100
AcDbLine
 10
359.1045
 20
424.0005
 30
0.0
 11
367.686
 21
412.6291
 31
0.0
  0
LINE
  5
A9
100
AcDbEntity
  8
1
  6
CONTINUOUS
 62
     7
100
AcDbLine
 10
367.686
 20
412.6291
 30
0.0
 11
355.2573
 21
415.6005
 31
0.0
  0
LINE
  5
AA
100
AcDbEntity
  8
1
  6
CONTINUOUS
 62
     7
100
AcDbLine
 10
367.686
 20
412.6291
 30
0.0
 11
372.2396
 21
412.6291
 31
0.0
  0
INSERT
  5
B0
100
AcDbEntity
  8
1
  6
CONTINUOUS
 62
     1
100
AcDbBlockReference
  2
LDR
 10
324.7327
 20
447.3732
 30
0.0
 41
240.0
 42
240.0
 50
180.0
210
0.0
220
0.0
230
1.0
  0
INSERT
  5
B1
100
AcDbEntity
  8
1
  6
CONTINUOUS
 62
     1
100
AcDbBlockReference
  2
LDR
 10
324.7327
 20
447.3732
 30
0.0
 41
240.0
 42
240.0
 50
180.0
210
0.0
220
0.0
230
1.0
  0
INSERT
  5
B2
100
AcDbEntity
  8
1
  6
CONTINUOUS
 62
     1
100
AcDbBlockReference
  2
LDR
 10
363.9221
 20
447.3732
 30
0.0
 41
240.0
 42
240.0
210
0.0
220
0.0
230
1.0
  0
INSERT
  5
B3
100
AcDbEntity
  8
1
  6
CONTINUOUS
 62
     1
100
AcDbBlockReference
  2
LDR
 10
363.9221
 20
447.3732
 30
0.0
 41
240.0
 42
240.0
210
0.0
220
0.0
230
1.0
  0
INSERT
  5
B4
100
AcDbEntity
  8
1
  6
CONTINUOUS
 62
     1
100
AcDbBlockReference
  2
LDR
 10
337.1518
 20
440.8005
 30
0.0
 41
240.0
 42
240.0
 50
180.0
210
0.0
220
0.0
230
1.0
  0
INSERT
  5
B5
100
AcDbEntity
  8
1
  6
CONTINUOUS
 62
     1
100
AcDbBlockReference
  2
LDR
 10
337.1518
 20
440.8005
 30
0.0
 41
240.0
 42
240.0
 50
180.0
210
0.0
220
0.0
230
1.0
  0
INSERT
  5
B6
100
AcDbEntity
  8
1
  6
CONTINUOUS
 62
     1
100
AcDbBlockReference
  2
LDR
 10
351.5518
 20
440.8005
 30
0.0
 41
240.0
 42
240.0
210
0.0
220
0.0
230
1.0
  0
INSERT
  5
B7
100
AcDbEntity
  8
1
  6
CONTINUOUS
 62
     1
100
AcDbBlockReference
  2
LDR
 10
351.5518
 20
440.8005
 30
0.0
 41
240.0
 42
240.0
210
0.0
220
0.0
230
1.0
  0
INSERT
  5
B8
100
AcDbEntity
  8
1
  6
CONTINUOUS
 62
     1
100
AcDbBlockReference
  2
LDR
 10
315.9974
 20
432.4005
 30
0.0
 41
240.0
 42
240.0
 50
90.0
210
0.0
220
0.0
230
1.0
  0
INSERT
  5
B9
100
AcDbEntity
  8
1
  6
CONTINUOUS
 62
     1
100
AcDbBlockReference
  2
LDR
 10
315.9974
 20
432.4005
 30
0.0
 41
240.0
 42
240.0
 50
90.0
210
0.0
220
0.0
230
1.0
  0
INSERT
  5
BA
100
AcDbEntity
  8
1
  6
CONTINUOUS
 62
     1
100
AcDbBlockReference
  2
LDR
 10
315.9974
 20
424.0005
 30
0.0
 41
240.0
 42
240.0
 50
270.0
210
0.0
220
0.0
230
1.0
  0
INSERT
  5
BB
100
AcDbEntity
  8
1
  6
CONTINUOUS
 62
     1
100
AcDbBlockReference
  2
LDR
 10
315.9974
 20
424.0005
 30
0.0
 41
240.0
 42
240.0
 50
270.0
210
0.0
220
0.0
230
1.0
  0
INSERT
  5
BC
100
AcDbEntity
  8
1
  6
CONTINUOUS
 62
     1
100
AcDbBlockReference
  2
LDR
 10
315.9974
 20
424.0005
 30
0.0
 41
240.0
 42
240.0
 50
90.0
210
0.0
220
0.0
230
1.0
  0
INSERT
  5
BD
100
AcDbEntity
  8
1
  6
CONTINUOUS
 62
     1
100
AcDbBlockReference
  2
LDR
 10
315.9974
 20
424.0005
 30
0.0
 41
240.0
 42
240.0
 50
90.0
210
0.0
220
0.0
230
1.0
  0
INSERT
  5
BE
100
AcDbEntity
  8
1
  6
CONTINUOUS
 62
     1
100
AcDbBlockReference
  2
LDR
 10
315.9974
 20
415.6005
 30
0.0
 41
240.0
 42
240.0
 50
270.0
210
0.0
220
0.0
230
1.0
  0
INSERT
  5
BF
100
AcDbEntity
  8
1
  6
CONTINUOUS
 62
     1
100
AcDbBlockReference
  2
LDR
 10
315.9974
 20
415.6005
 30
0.0
 41
240.0
 42
240.0
 50
270.0
210
0.0
220
0.0
230
1.0
  0
INSERT
  5
C0
100
AcDbEntity
  8
1
  6
CONTINUOUS
 62
     1
100
AcDbBlockReference
  2
LDR
 10
355.2573
 20
415.6005
 30
0.0
 41
240.0
 42
240.0
 50
166.554352
210
0.0
220
0.0
230
1.0
  0
INSERT
  5
C1
100
AcDbEntity
  8
1
  6
CONTINUOUS
 62
     1
100
AcDbBlockReference
  2
LDR
 10
355.2573
 20
415.6005
 30
0.0
 41
240.0
 42
240.0
 50
166.554352
210
0.0
220
0.0
230
1.0
  0
INSERT
  5
C2
100
AcDbEntity
  8
1
  6
CONTINUOUS
 62
     1
100
AcDbBlockReference
  2
LDR
 10
359.1045
 20
424.0005
 30
0.0
 41
240.0
 42
240.0
 50
127.040263
210
0.0
220
0.0
230
1.0
  0
LINE
  5
C3
100
AcDbEntity
  8
1
  6
CONTINUOUS
 62
     7
100
AcDbLine
 10
367.1518
 20
396.971
 30
0.0
 11
353.9518
 21
396.971
 31
0.0
  0
LINE
  5
C4
100
AcDbEntity
  8
1
  6
CONTINUOUS
 62
     3
100
AcDbLine
 10
335.9518
 20
409.3522
 30
0.0
 11
335.9518
 21
338.029
 31
0.0
  0
LINE
  5
C5
100
AcDbEntity
  8
1
  6
CONTINUOUS
 62
     3
100
AcDbLine
 10
335.9518
 20
338.029
 30
0.0
 11
335.9518
 21
330.829
 31
0.0
  0
LINE
  5
C6
100
AcDbEntity
  8
1
  6
CONTINUOUS
 62
     3
100
AcDbLine
 10
508.1518
 20
338.029
 30
0.0
 11
402.7655
 21
338.029
 31
0.0
  0
LINE
  5
C7
100
AcDbEntity
  8
1
  6
CONTINUOUS
 62
     3
100
AcDbLine
 10
402.7655
 20
338.029
 30
0.0
 11
289.7518
 21
338.029
 31
0.0
  0
LINE
  5
C8
100
AcDbEntity
  8
1
  6
HIDDEN
 62
     3
100
AcDbLine
 10
430.7518
 20
424.429
 30
0.0
 11
454.7518
 21
424.429
 31
0.0
  0
LINE
  5
C9
100
AcDbEntity
  8
1
  6
CONTINUOUS
 62
     3
100
AcDbLine
 10
409.0455
 20
332.7171
 30
0.0
 11
467.4625
 21
313.9405
 31
0.0
  0
LINE
  5
CA
100
AcDbEntity
  8
1
  6
HIDDEN
 62
     3
100
AcDbLine
 10
430.7518
 20
395.629
 30
0.0
 11
454.7518
 21
395.629
 31
0.0
  0
LINE
  5
CB
100
AcDbEntity
  8
1
  6
HIDDEN
 62
     3
100
AcDbLine
 10
428.3518
 20
422.029
 30
0.0
 11
428.3518
 21
398.029
 31
0.0
  0
LINE
  5
CC
100
AcDbEntity
  8
1
  6
HIDDEN
 62
     3
100
AcDbLine
 10
457.1518
 20
422.029
 30
0.0
 11
457.1518
 21
398.029
 31
0.0
  0
LINE
  5
CD
100
AcDbEntity
  8
1
  6
HIDDEN
 62
     3
100
AcDbLine
 10
430.7518
 20
420.829
 30
0.0
 11
433.1518
 21
420.829
 31
0.0
  0
LINE
  5
CE
100
AcDbEntity
  8
1
  6
HIDDEN
 62
     3
100
AcDbLine
 10
452.3518
 20
420.829
 30
0.0
 11
454.7518
 21
420.829
 31
0.0
  0
LINE
  5
CF
100
AcDbEntity
  8
1
  6
HIDDEN
 62
     3
100
AcDbLine
 10
430.7518
 20
420.829
 30
0.0
 11
430.7518
 21
395.629
 31
0.0
  0
LINE
  5
D0
100
AcDbEntity
  8
1
  6
CONTINUOUS
 62
     3
100
AcDbLine
 10
430.7518
 20
395.629
 30
0.0
 11
430.7518
 21
330.829
 31
0.0
  0
LINE
  5
D1
100
AcDbEntity
  8
1
  6
HIDDEN
 62
     3
100
AcDbLine
 10
433.1518
 20
420.829
 30
0.0
 11
433.1518
 21
395.629
 31
0.0
  0
LINE
  5
D2
100
AcDbEntity
  8
1
  6
CONTINUOUS
 62
     3
100
AcDbLine
 10
433.1518
 20
395.629
 30
0.0
 11
433.1518
 21
330.829
 31
0.0
  0
LINE
  5
D3
100
AcDbEntity
  8
1
  6
HIDDEN
 62
     3
100
AcDbLine
 10
452.3518
 20
420.829
 30
0.0
 11
452.3518
 21
395.629
 31
0.0
  0
LINE
  5
D4
100
AcDbEntity
  8
1
  6
CONTINUOUS
 62
     3
100
AcDbLine
 10
452.3518
 20
395.629
 30
0.0
 11
452.3518
 21
326.629
 31
0.0
  0
LINE
  5
D5
100
AcDbEntity
  8
1
  6
HIDDEN
 62
     3
100
AcDbLine
 10
454.7518
 20
420.829
 30
0.0
 11
454.7518
 21
395.629
 31
0.0
  0
LINE
  5
D6
100
AcDbEntity
  8
1
  6
CONTINUOUS
 62
     3
100
AcDbLine
 10
454.7518
 20
395.629
 30
0.0
 11
454.7518
 21
326.629
 31
0.0
  0
ARC
  5
D7
100
AcDbEntity
  8
1
  6
HIDDEN
 62
     3
100
AcDbCircle
 10
430.7518
 20
422.029
 30
0.0
 40
2.4
210
0.0
220
0.0
230
1.0
100
AcDbArc
 50
90.0
 51
180.0
  0
ARC
  5
D8
100
AcDbEntity
  8
1
  6
HIDDEN
 62
     3
100
AcDbCircle
 10
454.7518
 20
422.029
 30
0.0
 40
2.4
210
0.0
220
0.0
230
1.0
100
AcDbArc
 50
0.0
 51
90.0
  0
ARC
  5
D9
100
AcDbEntity
  8
1
  6
HIDDEN
 62
     3
100
AcDbCircle
 10
454.7518
 20
398.029
 30
0.0
 40
2.4
210
0.0
220
0.0
230
1.0
100
AcDbArc
 50
270.0
 51
0.0
  0
ARC
  5
DA
100
AcDbEntity
  8
1
  6
HIDDEN
 62
     3
100
AcDbCircle
 10
430.7518
 20
398.029
 30
0.0
 40
2.4
210
0.0
220
0.0
230
1.0
100
AcDbArc
 50
180.0
 51
270.0
  0
LINE
  5
DB
100
AcDbEntity
  8
1
  6
CONTINUOUS
 62
     3
100
AcDbLine
 10
429.5518
 20
417.229
 30
0.0
 11
455.9518
 21
417.229
 31
0.0
  0
LINE
  5
DC
100
AcDbEntity
  8
1
  6
CONTINUOUS
 62
     3
100
AcDbLine
 10
429.5518
 20
400.429
 30
0.0
 11
455.9518
 21
400.429
 31
0.0
  0
LINE
  5
DD
100
AcDbEntity
  8
1
  6
CONTINUOUS
 62
     3
100
AcDbLine
 10
430.7518
 20
395.0858
 30
0.0
 11
433.1518
 21
395.0858
 31
0.0
  0
LINE
  5
DE
100
AcDbEntity
  8
1
  6
CONTINUOUS
 62
     3
100
AcDbLine
 10
452.3518
 20
395.0858
 30
0.0
 11
454.7518
 21
395.0858
 31
0.0
  0
LINE
  5
DF
100
AcDbEntity
  8
1
  6
CONTINUOUS
 62
     3
100
AcDbLine
 10
430.7518
 20
392.6858
 30
0.0
 11
433.1518
 21
392.6858
 31
0.0
  0
LINE
  5
E0
100
AcDbEntity
  8
1
  6
CONTINUOUS
 62
     3
100
AcDbLine
 10
452.3518
 20
392.6858
 30
0.0
 11
454.7518
 21
392.6858
 31
0.0
  0
LINE
  5
E1
100
AcDbEntity
  8
1
  6
CONTINUOUS
 62
     7
100
AcDbLine
 10
365.9518
 20
396.971
 30
0.0
 11
365.9518
 21
338.029
 31
0.0
  0
INSERT
  5
E2
100
AcDbEntity
  8
1
  6
CONTINUOUS
 62
     1
100
AcDbBlockReference
  2
LDR
 10
365.9518
 20
396.971
 30
0.0
 41
240.0
 42
240.0
 50
90.0
210
0.0
220
0.0
230
1.0
  0
INSERT
  5
E3
100
AcDbEntity
  8
1
  6
CONTINUOUS
 62
     1
100
AcDbBlockReference
  2
LDR
 10
365.9518
 20
396.971
 30
0.0
 41
240.0
 42
240.0
 50
90.0
210
0.0
220
0.0
230
1.0
  0
INSERT
  5
E4
100
AcDbEntity
  8
1
  6
CONTINUOUS
 62
     1
100
AcDbBlockReference
  2
LDR
 10
365.9518
 20
338.029
 30
0.0
 41
240.0
 42
240.0
 50
270.0
210
0.0
220
0.0
230
1.0
  0
LINE
  5
E5
100
AcDbEntity
  8
1
  6
CONTINUOUS
 62
     3
100
AcDbLine
 10
558.2518
 20
371.8863
 30
0.0
 11
552.8518
 21
371.8863
 31
0.0
  0
LINE
  5
E6
100
AcDbEntity
  8
1
  6
CONTINUOUS
 62
     3
100
AcDbLine
 10
536.6518
 20
367.6863
 30
0.0
 11
531.2518
 21
367.6863
 31
0.0
  0
LINE
  5
E7
100
AcDbEntity
  8
1
  6
CONTINUOUS
 62
     3
100
AcDbLine
 10
558.2518
 20
370.0863
 30
0.0
 11
552.8518
 21
370.0863
 31
0.0
  0
LINE
  5
E8
100
AcDbEntity
  8
1
  6
CONTINUOUS
 62
     3
100
AcDbLine
 10
536.6518
 20
365.8863
 30
0.0
 11
531.2518
 21
365.8863
 31
0.0
  0
LINE
  5
E9
100
AcDbEntity
  8
1
  6
CONTINUOUS
 62
     3
100
AcDbLine
 10
558.2518
 20
371.8863
 30
0.0
 11
558.2518
 21
370.0863
 31
0.0
  0
LINE
  5
EA
100
AcDbEntity
  8
1
  6
CONTINUOUS
 62
     3
100
AcDbLine
 10
552.8518
 20
371.8863
 30
0.0
 11
552.8518
 21
370.0863
 31
0.0
  0
LINE
  5
EB
100
AcDbEntity
  8
1
  6
CONTINUOUS
 62
     3
100
AcDbLine
 10
536.6518
 20
367.6863
 30
0.0
 11
536.6518
 21
365.8863
 31
0.0
  0
LINE
  5
EC
100
AcDbEntity
  8
1
  6
CONTINUOUS
 62
     3
100
AcDbLine
 10
531.2518
 20
367.6863
 30
0.0
 11
531.2518
 21
365.8863
 31
0.0
  0
LINE
  5
ED
100
AcDbEntity
  8
1
  6
CONTINUOUS
 62
     3
100
AcDbLine
 10
558.2518
 20
370.9863
 30
0.0
 11
552.8518
 21
370.9863
 31
0.0
  0
LINE
  5
EE
100
AcDbEntity
  8
1
  6
CONTINUOUS
 62
     3
100
AcDbLine
 10
536.6518
 20
366.7863
 30
0.0
 11
531.2518
 21
366.7863
 31
0.0
  0
LINE
  5
EF
100
AcDbEntity
  8
1
  6
DASHED
 62
     3
100
AcDbLine
 10
556.7518
 20
328.2578
 30
0.0
 11
554.3518
 21
328.2578
 31
0.0
  0
LINE
  5
F0
100
AcDbEntity
  8
1
  6
DASHED
 62
     3
100
AcDbLine
 10
535.1518
 20
323.4578
 30
0.0
 11
532.7518
 21
323.4578
 31
0.0
  0
LINE
  5
F1
100
AcDbEntity
  8
1
  6
DASHED
 62
     3
100
AcDbLine
 10
556.7518
 20
366.7975
 30
0.0
 11
556.7518
 21
328.2578
 31
0.0
  0
LINE
  5
F2
100
AcDbEntity
  8
1
  6
DASHED
 62
     3
100
AcDbLine
 10
554.3518
 20
366.0261
 30
0.0
 11
554.3518
 21
328.2578
 31
0.0
  0
LINE
  5
F3
100
AcDbEntity
  8
1
  6
DASHED
 62
     3
100
AcDbLine
 10
535.1518
 20
359.8547
 30
0.0
 11
535.1518
 21
323.4578
 31
0.0
  0
LINE
  5
F4
100
AcDbEntity
  8
1
  6
DASHED
 62
     3
100
AcDbLine
 10
532.7518
 20
359.0833
 30
0.0
 11
532.7518
 21
323.4578
 31
0.0
  0
LINE
  5
F5
100
AcDbEntity
  8
1
  6
DASHED
 62
     3
100
AcDbLine
 10
559.7518
 20
316.2578
 30
0.0
 11
551.3518
 21
316.2578
 31
0.0
  0
LINE
  5
F6
100
AcDbEntity
  8
1
  6
DASHED
 62
     3
100
AcDbLine
 10
538.1518
 20
311.4578
 30
0.0
 11
529.7518
 21
311.4578
 31
0.0
  0
LINE
  5
F7
100
AcDbEntity
  8
1
  6
CONTINUOUS
 62
     3
100
AcDbLine
 10
556.7518
 20
366.0578
 30
0.0
 11
562.1518
 21
366.0578
 31
0.0
  0
LINE
  5
F8
100
AcDbEntity
  8
1
  6
DASHED
 62
     3
100
AcDbLine
 10
559.7518
 20
316.2578
 30
0.0
 11
559.7518
 21
366.0578
 31
0.0
  0
LINE
  5
F9
100
AcDbEntity
  8
1
  6
DASHED
 62
     3
100
AcDbLine
 10
551.3518
 20
316.2578
 30
0.0
 11
551.3518
 21
365.0618
 31
0.0
  0
LINE
  5
FA
100
AcDbEntity
  8
1
  6
DASHED
 62
     3
100
AcDbLine
 10
538.1518
 20
311.4578
 30
0.0
 11
538.1518
 21
360.819
 31
0.0
  0
LINE
  5
FB
100
AcDbEntity
  8
1
  6
DASHED
 62
     3
100
AcDbLine
 10
529.7518
 20
311.4578
 30
0.0
 11
529.7518
 21
358.119
 31
0.0
  0
LINE
  5
FC
100
AcDbEntity
  8
1
  6
CONTINUOUS
 62
     3
100
AcDbLine
 10
556.7518
 20
366.7975
 30
0.0
 11
556.7518
 21
370.0863
 31
0.0
  0
LINE
  5
FD
100
AcDbEntity
  8
1
  6
CONTINUOUS
 62
     3
100
AcDbLine
 10
535.1518
 20
359.8547
 30
0.0
 11
535.1518
 21
365.8863
 31
0.0
  0
LINE
  5
FE
100
AcDbEntity
  8
1
  6
CONTINUOUS
 62
     3
100
AcDbLine
 10
554.3518
 20
366.0261
 30
0.0
 11
554.3518
 21
370.0863
 31
0.0
  0
LINE
  5
FF
100
AcDbEntity
  8
1
  6
CONTINUOUS
 62
     3
100
AcDbLine
 10
532.7518
 20
359.0833
 30
0.0
 11
532.7518
 21
365.8863
 31
0.0
  0
LINE
  5
100
100
AcDbEntity
  8
1
  6
CONTINUOUS
 62
     7
100
AcDbLine
 10
555.5518
 20
327.0578
 30
0.0
 11
555.5518
 21
394.8578
 31
0.0
  0
LINE
  5
101
100
AcDbEntity
  8
1
  6
CONTINUOUS
 62
     7
100
AcDbLine
 10
533.9518
 20
322.2578
 30
0.0
 11
533.9518
 21
394.8578
 31
0.0
  0
LINE
  5
102
100
AcDbEntity
  8
1
  6
CONTINUOUS
 62
     7
100
AcDbLine
 10
555.5518
 20
419.4578
 30
0.0
 11
555.5518
 21
399.6578
 31
0.0
  0
LINE
  5
103
100
AcDbEntity
  8
1
  6
CONTINUOUS
 62
     7
100
AcDbLine
 10
555.5518
 20
398.4578
 30
0.0
 11
555.5518
 21
396.0578
 31
0.0
  0
LINE
  5
104
100
AcDbEntity
  8
1
  6
CONTINUOUS
 62
     7
100
AcDbLine
 10
533.9518
 20
419.4578
 30
0.0
 11
533.9518
 21
399.6578
 31
0.0
  0
LINE
  5
105
100
AcDbEntity
  8
1
  6
CONTINUOUS
 62
     7
100
AcDbLine
 10
533.9518
 20
398.4578
 30
0.0
 11
533.9518
 21
396.0578
 31
0.0
  0
LINE
  5
106
100
AcDbEntity
  8
1
  6
HIDDEN
 62
     3
100
AcDbLine
 10
556.7518
 20
465.4863
 30
0.0
 11
532.7518
 21
465.4863
 31
0.0
  0
LINE
  5
107
100
AcDbEntity
  8
1
  6
CONTINUOUS
 62
     3
100
AcDbLine
 10
578.4581
 20
373.7744
 30
0.0
 11
520.0411
 21
354.9978
 31
0.0
  0
LINE
  5
108
100
AcDbEntity
  8
1
  6
HIDDEN
 62
     3
100
AcDbLine
 10
556.7518
 20
436.6863
 30
0.0
 11
532.7518
 21
436.6863
 31
0.0
  0
LINE
  5
109
100
AcDbEntity
  8
1
  6
HIDDEN
 62
     3
100
AcDbLine
 10
559.1518
 20
463.0863
 30
0.0
 11
559.1518
 21
439.0863
 31
0.0
  0
LINE
  5
10A
100
AcDbEntity
  8
1
  6
HIDDEN
 62
     3
100
AcDbLine
 10
530.3518
 20
463.0863
 30
0.0
 11
530.3518
 21
439.0863
 31
0.0
  0
LINE
  5
10B
100
AcDbEntity
  8
1
  6
HIDDEN
 62
     3
100
AcDbLine
 10
556.7518
 20
461.8863
 30
0.0
 11
554.3518
 21
461.8863
 31
0.0
  0
LINE
  5
10C
100
AcDbEntity
  8
1
  6
HIDDEN
 62
     3
100
AcDbLine
 10
535.1518
 20
461.8863
 30
0.0
 11
532.7518
 21
461.8863
 31
0.0
  0
LINE
  5
10D
100
AcDbEntity
  8
1
  6
HIDDEN
 62
     3
100
AcDbLine
 10
556.7518
 20
461.8863
 30
0.0
 11
556.7518
 21
436.6863
 31
0.0
  0
LINE
  5
10E
100
AcDbEntity
  8
1
  6
CONTINUOUS
 62
     3
100
AcDbLine
 10
556.7518
 20
436.6863
 30
0.0
 11
556.7518
 21
371.8863
 31
0.0
  0
LINE
  5
10F
100
AcDbEntity
  8
1
  6
HIDDEN
 62
     3
100
AcDbLine
 10
554.3518
 20
461.8863
 30
0.0
 11
554.3518
 21
436.6863
 31
0.0
  0
LINE
  5
110
100
AcDbEntity
  8
1
  6
CONTINUOUS
 62
     3
100
AcDbLine
 10
554.3518
 20
436.6863
 30
0.0
 11
554.3518
 21
371.8863
 31
0.0
  0
LINE
  5
111
100
AcDbEntity
  8
1
  6
HIDDEN
 62
     3
100
AcDbLine
 10
535.1518
 20
461.8863
 30
0.0
 11
535.1518
 21
436.6863
 31
0.0
  0
LINE
  5
112
100
AcDbEntity
  8
1
  6
CONTINUOUS
 62
     3
100
AcDbLine
 10
535.1518
 20
436.6863
 30
0.0
 11
535.1518
 21
367.6863
 31
0.0
  0
LINE
  5
113
100
AcDbEntity
  8
1
  6
HIDDEN
 62
     3
100
AcDbLine
 10
532.7518
 20
461.8863
 30
0.0
 11
532.7518
 21
436.6863
 31
0.0
  0
LINE
  5
114
100
AcDbEntity
  8
1
  6
CONTINUOUS
 62
     3
100
AcDbLine
 10
532.7518
 20
436.6863
 30
0.0
 11
532.7518
 21
367.6863
 31
0.0
  0
ARC
  5
115
100
AcDbEntity
  8
1
  6
HIDDEN
 62
     3
100
AcDbCircle
 10
556.7518
 20
463.0863
 30
0.0
 40
2.4
210
0.0
220
0.0
230
1.0
100
AcDbArc
 50
0.0
 51
90.0
  0
ARC
  5
116
100
AcDbEntity
  8
1
  6
HIDDEN
 62
     3
100
AcDbCircle
 10
532.7518
 20
463.0863
 30
0.0
 40
2.4
210
0.0
220
0.0
230
1.0
100
AcDbArc
 50
90.0
 51
180.0
  0
ARC
  5
117
100
AcDbEntity
  8
1
  6
HIDDEN
 62
     3
100
AcDbCircle
 10
532.7518
 20
439.0863
 30
0.0
 40
2.4
210
0.0
220
0.0
230
1.0
100
AcDbArc
 50
180.0
 51
270.0
  0
ARC
  5
118
100
AcDbEntity
  8
1
  6
HIDDEN
 62
     3
100
AcDbCircle
 10
556.7518
 20
439.0863
 30
0.0
 40
2.4
210
0.0
220
0.0
230
1.0
100
AcDbArc
 50
270.0
 51
0.0
  0
LINE
  5
119
100
AcDbEntity
  8
1
  6
CONTINUOUS
 62
     3
100
AcDbLine
 10
557.9518
 20
458.2863
 30
0.0
 11
531.5518
 21
458.2863
 31
0.0
  0
LINE
  5
11A
100
AcDbEntity
  8
1
  6
CONTINUOUS
 62
     3
100
AcDbLine
 10
557.9518
 20
441.4863
 30
0.0
 11
531.5518
 21
441.4863
 31
0.0
  0
LINE
  5
11B
100
AcDbEntity
  8
1
  6
CONTINUOUS
 62
     3
100
AcDbLine
 10
556.7518
 20
436.1431
 30
0.0
 11
554.3518
 21
436.1431
 31
0.0
  0
LINE
  5
11C
100
AcDbEntity
  8
1
  6
CONTINUOUS
 62
     3
100
AcDbLine
 10
535.1518
 20
436.1431
 30
0.0
 11
532.7518
 21
436.1431
 31
0.0
  0
LINE
  5
11D
100
AcDbEntity
  8
1
  6
CONTINUOUS
 62
     3
100
AcDbLine
 10
556.7518
 20
433.7431
 30
0.0
 11
554.3518
 21
433.7431
 31
0.0
  0
LINE
  5
11E
100
AcDbEntity
  8
1
  6
CONTINUOUS
 62
     3
100
AcDbLine
 10
535.1518
 20
433.7431
 30
0.0
 11
532.7518
 21
433.7431
 31
0.0
  0
LINE
  5
11F
100
AcDbEntity
  8
1
  6
CONTINUOUS
 62
     3
100
AcDbLine
 10
508.1518
 20
338.029
 30
0.0
 11
609.3151
 21
338.029
 31
0.0
  0
LINE
  5
120
100
AcDbEntity
  8
1
  6
CONTINUOUS
 62
     7
100
AcDbLine
 10
428.3518
 20
425.029
 30
0.0
 11
428.3518
 21
446.029
 31
0.0
  0
LINE
  5
121
100
AcDbEntity
  8
1
  6
CONTINUOUS
 62
     7
100
AcDbLine
 10
457.1518
 20
424.429
 30
0.0
 11
457.1518
 21
446.029
 31
0.0
  0
LINE
  5
122
100
AcDbEntity
  8
1
  6
CONTINUOUS
 62
     7
100
AcDbLine
 10
431.9518
 20
440.029
 30
0.0
 11
431.9518
 21
425.629
 31
0.0
  0
LINE
  5
123
100
AcDbEntity
  8
1
  6
CONTINUOUS
 62
     7
100
AcDbLine
 10
453.5518
 20
440.029
 30
0.0
 11
453.5518
 21
425.629
 31
0.0
  0
LINE
  5
124
100
AcDbEntity
  8
1
  6
CONTINUOUS
 62
     7
100
AcDbLine
 10
427.7518
 20
424.429
 30
0.0
 11
415.1518
 21
424.429
 31
0.0
  0
LINE
  5
125
100
AcDbEntity
  8
1
  6
CONTINUOUS
 62
     7
100
AcDbLine
 10
428.3518
 20
395.629
 30
0.0
 11
415.1518
 21
395.629
 31
0.0
  0
LINE
  5
126
100
AcDbEntity
  8
1
  6
CONTINUOUS
 62
     7
100
AcDbLine
 10
427.1518
 20
417.229
 30
0.0
 11
419.9518
 21
417.229
 31
0.0
  0
LINE
  5
127
100
AcDbEntity
  8
1
  6
CONTINUOUS
 62
     7
100
AcDbLine
 10
427.1518
 20
400.429
 30
0.0
 11
419.9518
 21
400.429
 31
0.0
  0
LINE
  5
128
100
AcDbEntity
  8
1
  6
CONTINUOUS
 62
     7
100
AcDbLine
 10
455.9518
 20
417.229
 30
0.0
 11
472.5215
 21
423.3372
 31
0.0
  0
LINE
  5
129
100
AcDbEntity
  8
1
  6
CONTINUOUS
 62
     7
100
AcDbLine
 10
472.5215
 20
423.3372
 30
0.0
 11
455.9518
 21
400.429
 31
0.0
  0
LINE
  5
12A
100
AcDbEntity
  8
1
  6
CONTINUOUS
 62
     7
100
AcDbLine
 10
472.5215
 20
423.3372
 30
0.0
 11
477.0865
 21
423.3372
 31
0.0
  0
LINE
  5
12B
100
AcDbEntity
  8
1
  6
CONTINUOUS
 62
     7
100
AcDbLine
 10
484.7518
 20
393.8858
 30
0.0
 11
455.9518
 21
393.8858
 31
0.0
  0
LINE
  5
12C
100
AcDbEntity
  8
1
  6
CONTINUOUS
 62
     7
100
AcDbLine
 10
483.5518
 20
393.8858
 30
0.0
 11
483.5518
 21
338.029
 31
0.0
  0
LINE
  5
12D
100
AcDbEntity
  8
1
  6
CONTINUOUS
 62
     7
100
AcDbLine
 10
461.5299
 20
337.9448
 30
0.0
 11
470.3275
 21
325.1995
 31
0.0
  0
LINE
  5
12E
100
AcDbEntity
  8
1
  6
CONTINUOUS
 62
     7
100
AcDbLine
 10
470.3275
 20
325.1995
 30
0.0
 11
477.2793
 21
325.1995
 31
0.0
  0
LINE
  5
12F
100
AcDbEntity
  8
1
  6
CONTINUOUS
 62
     7
100
AcDbLine
 10
428.3518
 20
444.829
 30
0.0
 11
457.1518
 21
444.829
 31
0.0
  0
LINE
  5
130
100
AcDbEntity
  8
1
  6
CONTINUOUS
 62
     7
100
AcDbLine
 10
431.9518
 20
438.829
 30
0.0
 11
453.5518
 21
438.829
 31
0.0
  0
LINE
  5
131
100
AcDbEntity
  8
1
  6
CONTINUOUS
 62
     7
100
AcDbLine
 10
416.3518
 20
424.429
 30
0.0
 11
416.3518
 21
395.629
 31
0.0
  0
LINE
  5
132
100
AcDbEntity
  8
1
  6
CONTINUOUS
 62
     7
100
AcDbLine
 10
421.1518
 20
417.229
 30
0.0
 11
421.1518
 21
400.429
 31
0.0
  0
INSERT
  5
133
100
AcDbEntity
  8
1
  6
CONTINUOUS
 62
     1
100
AcDbBlockReference
  2
LDR
 10
428.3518
 20
444.829
 30
0.0
 41
240.0
 42
240.0
 50
180.0
210
0.0
220
0.0
230
1.0
  0
INSERT
  5
134
100
AcDbEntity
  8
1
  6
CONTINUOUS
 62
     1
100
AcDbBlockReference
  2
LDR
 10
428.3518
 20
444.829
 30
0.0
 41
240.0
 42
240.0
 50
180.0
210
0.0
220
0.0
230
1.0
  0
INSERT
  5
135
100
AcDbEntity
  8
1
  6
CONTINUOUS
 62
     1
100
AcDbBlockReference
  2
LDR
 10
457.1518
 20
444.829
 30
0.0
 41
240.0
 42
240.0
210
0.0
220
0.0
230
1.0
  0
INSERT
  5
136
100
AcDbEntity
  8
1
  6
CONTINUOUS
 62
     1
100
AcDbBlockReference
  2
LDR
 10
457.1518
 20
444.829
 30
0.0
 41
240.0
 42
240.0
210
0.0
220
0.0
230
1.0
  0
INSERT
  5
137
100
AcDbEntity
  8
1
  6
CONTINUOUS
 62
     1
100
AcDbBlockReference
  2
LDR
 10
431.9518
 20
438.829
 30
0.0
 41
240.0
 42
240.0
 50
180.0
210
0.0
220
0.0
230
1.0
  0
INSERT
  5
138
100
AcDbEntity
  8
1
  6
CONTINUOUS
 62
     1
100
AcDbBlockReference
  2
LDR
 10
431.9518
 20
438.829
 30
0.0
 41
240.0
 42
240.0
 50
180.0
210
0.0
220
0.0
230
1.0
  0
INSERT
  5
139
100
AcDbEntity
  8
1
  6
CONTINUOUS
 62
     1
100
AcDbBlockReference
  2
LDR
 10
453.5518
 20
438.829
 30
0.0
 41
240.0
 42
240.0
210
0.0
220
0.0
230
1.0
  0
INSERT
  5
13A
100
AcDbEntity
  8
1
  6
CONTINUOUS
 62
     1
100
AcDbBlockReference
  2
LDR
 10
453.5518
 20
438.829
 30
0.0
 41
240.0
 42
240.0
210
0.0
220
0.0
230
1.0
  0
INSERT
  5
13B
100
AcDbEntity
  8
1
  6
CONTINUOUS
 62
     1
100
AcDbBlockReference
  2
LDR
 10
416.3518
 20
424.429
 30
0.0
 41
240.0
 42
240.0
 50
90.0
210
0.0
220
0.0
230
1.0
  0
INSERT
  5
13C
100
AcDbEntity
  8
1
  6
CONTINUOUS
 62
     1
100
AcDbBlockReference
  2
LDR
 10
416.3518
 20
424.429
 30
0.0
 41
240.0
 42
240.0
 50
90.0
210
0.0
220
0.0
230
1.0
  0
INSERT
  5
13D
100
AcDbEntity
  8
1
  6
CONTINUOUS
 62
     1
100
AcDbBlockReference
  2
LDR
 10
421.1518
 20
417.229
 30
0.0
 41
240.0
 42
240.0
 50
90.0
210
0.0
220
0.0
230
1.0
  0
INSERT
  5
13E
100
AcDbEntity
  8
1
  6
CONTINUOUS
 62
     1
100
AcDbBlockReference
  2
LDR
 10
421.1518
 20
417.229
 30
0.0
 41
240.0
 42
240.0
 50
90.0
210
0.0
220
0.0
230
1.0
  0
INSERT
  5
13F
100
AcDbEntity
  8
1
  6
CONTINUOUS
 62
     1
100
AcDbBlockReference
  2
LDR
 10
421.1518
 20
400.429
 30
0.0
 41
240.0
 42
240.0
 50
270.0
210
0.0
220
0.0
230
1.0
  0
INSERT
  5
140
100
AcDbEntity
  8
1
  6
CONTINUOUS
 62
     1
100
AcDbBlockReference
  2
LDR
 10
421.1518
 20
400.429
 30
0.0
 41
240.0
 42
240.0
 50
270.0
210
0.0
220
0.0
230
1.0
  0
INSERT
  5
141
100
AcDbEntity
  8
1
  6
CONTINUOUS
 62
     1
100
AcDbBlockReference
  2
LDR
 10
416.3518
 20
395.629
 30
0.0
 41
240.0
 42
240.0
 50
270.0
210
0.0
220
0.0
230
1.0
  0
INSERT
  5
142
100
AcDbEntity
  8
1
  6
CONTINUOUS
 62
     1
100
AcDbBlockReference
  2
LDR
 10
416.3518
 20
395.629
 30
0.0
 41
240.0
 42
240.0
 50
270.0
210
0.0
220
0.0
230
1.0
  0
INSERT
  5
143
100
AcDbEntity
  8
1
  6
CONTINUOUS
 62
     1
100
AcDbBlockReference
  2
LDR
 10
455.9518
 20
417.229
 30
0.0
 41
240.000001
 42
240.000001
 50
200.235739
210
0.0
220
0.0
230
1.0
  0
INSERT
  5
144
100
AcDbEntity
  8
1
  6
CONTINUOUS
 62
     1
100
AcDbBlockReference
  2
LDR
 10
455.9518
 20
417.229
 30
0.0
 41
240.000001
 42
240.000001
 50
200.235739
210
0.0
220
0.0
230
1.0
  0
INSERT
  5
145
100
AcDbEntity
  8
1
  6
CONTINUOUS
 62
     1
100
AcDbBlockReference
  2
LDR
 10
455.9518
 20
400.429
 30
0.0
 41
239.999997
 42
239.999997
 50
234.121458
210
0.0
220
0.0
230
1.0
  0
INSERT
  5
146
100
AcDbEntity
  8
1
  6
CONTINUOUS
 62
     1
100
AcDbBlockReference
  2
LDR
 10
455.9518
 20
400.429
 30
0.0
 41
239.999997
 42
239.999997
 50
234.121458
210
0.0
220
0.0
230
1.0
  0
INSERT
  5
147
100
AcDbEntity
  8
1
  6
CONTINUOUS
 62
     1
100
AcDbBlockReference
  2
LDR
 10
483.5518
 20
393.8858
 30
0.0
 41
240.0
 42
240.0
 50
90.0
210
0.0
220
0.0
230
1.0
  0
INSERT
  5
148
100
AcDbEntity
  8
1
  6
CONTINUOUS
 62
     1
100
AcDbBlockReference
  2
LDR
 10
483.5518
 20
338.029
 30
0.0
 41
240.0
 42
240.0
 50
270.0
210
0.0
220
0.0
230
1.0
  0
INSERT
  5
149
100
AcDbEntity
  8
1
  6
CONTINUOUS
 62
     1
100
AcDbBlockReference
  2
LDR
 10
483.5518
 20
338.029
 30
0.0
 41
240.0
 42
240.0
 50
270.0
210
0.0
220
0.0
230
1.0
  0
INSERT
  5
14A
100
AcDbEntity
  8
1
  6
CONTINUOUS
 62
     1
100
AcDbBlockReference
  2
LDR
 10
461.5299
 20
337.9448
 30
0.0
 41
240.000001
 42
240.000001
 50
124.615855
210
0.0
220
0.0
230
1.0
  0
LINE
  5
14B
100
AcDbEntity
  8
1
  6
CONTINUOUS
 62
     7
100
AcDbLine
 10
557.9518
 20
458.2863
 30
0.0
 11
574.5215
 21
464.3945
 31
0.0
  0
LINE
  5
14C
100
AcDbEntity
  8
1
  6
CONTINUOUS
 62
     7
100
AcDbLine
 10
530.3518
 20
466.0863
 30
0.0
 11
530.3518
 21
487.0863
 31
0.0
  0
LINE
  5
14D
100
AcDbEntity
  8
1
  6
CONTINUOUS
 62
     7
100
AcDbLine
 10
559.1518
 20
465.4863
 30
0.0
 11
559.1518
 21
487.0863
 31
0.0
  0
LINE
  5
14E
100
AcDbEntity
  8
1
  6
CONTINUOUS
 62
     7
100
AcDbLine
 10
533.9518
 20
481.0863
 30
0.0
 11
533.9518
 21
466.6863
 31
0.0
  0
LINE
  5
14F
100
AcDbEntity
  8
1
  6
CONTINUOUS
 62
     7
100
AcDbLine
 10
555.5518
 20
481.0863
 30
0.0
 11
555.5518
 21
466.6863
 31
0.0
  0
LINE
  5
150
100
AcDbEntity
  8
1
  6
CONTINUOUS
 62
     7
100
AcDbLine
 10
529.7518
 20
465.4863
 30
0.0
 11
517.1518
 21
465.4863
 31
0.0
  0
LINE
  5
151
100
AcDbEntity
  8
1
  6
CONTINUOUS
 62
     7
100
AcDbLine
 10
530.3518
 20
436.6863
 30
0.0
 11
517.1518
 21
436.6863
 31
0.0
  0
LINE
  5
152
100
AcDbEntity
  8
1
  6
CONTINUOUS
 62
     7
100
AcDbLine
 10
529.1518
 20
458.2863
 30
0.0
 11
521.9518
 21
458.2863
 31
0.0
  0
LINE
  5
153
100
AcDbEntity
  8
1
  6
CONTINUOUS
 62
     7
100
AcDbLine
 10
529.1518
 20
441.4863
 30
0.0
 11
521.9518
 21
441.4863
 31
0.0
  0
LINE
  5
154
100
AcDbEntity
  8
1
  6
CONTINUOUS
 62
     7
100
AcDbLine
 10
574.5215
 20
464.3945
 30
0.0
 11
557.9518
 21
441.4863
 31
0.0
  0
LINE
  5
155
100
AcDbEntity
  8
1
  6
CONTINUOUS
 62
     7
100
AcDbLine
 10
574.5215
 20
464.3945
 30
0.0
 11
579.0865
 21
464.3945
 31
0.0
  0
LINE
  5
156
100
AcDbEntity
  8
1
  6
CONTINUOUS
 62
     7
100
AcDbLine
 10
586.7518
 20
434.9431
 30
0.0
 11
557.9518
 21
434.9431
 31
0.0
  0
LINE
  5
157
100
AcDbEntity
  8
1
  6
CONTINUOUS
 62
     7
100
AcDbLine
 10
585.5518
 20
434.9431
 30
0.0
 11
585.5518
 21
366.0578
 31
0.0
  0
LINE
  5
158
100
AcDbEntity
  8
1
  6
CONTINUOUS
 62
     7
100
AcDbLine
 10
530.3518
 20
485.8863
 30
0.0
 11
559.1518
 21
485.8863
 31
0.0
  0
LINE
  5
159
100
AcDbEntity
  8
1
  6
CONTINUOUS
 62
     7
100
AcDbLine
 10
533.9518
 20
479.8863
 30
0.0
 11
555.5518
 21
479.8863
 31
0.0
  0
LINE
  5
15A
100
AcDbEntity
  8
1
  6
CONTINUOUS
 62
     7
100
AcDbLine
 10
518.3518
 20
465.4863
 30
0.0
 11
518.3518
 21
436.6863
 31
0.0
  0
LINE
  5
15B
100
AcDbEntity
  8
1
  6
CONTINUOUS
 62
     7
100
AcDbLine
 10
523.1518
 20
458.2863
 30
0.0
 11
523.1518
 21
441.4863
 31
0.0
  0
INSERT
  5
15C
100
AcDbEntity
  8
1
  6
CONTINUOUS
 62
     1
100
AcDbBlockReference
  2
LDR
 10
530.3518
 20
485.8863
 30
0.0
 41
240.0
 42
240.0
 50
180.0
210
0.0
220
0.0
230
1.0
  0
INSERT
  5
15D
100
AcDbEntity
  8
1
  6
CONTINUOUS
 62
     1
100
AcDbBlockReference
  2
LDR
 10
530.3518
 20
485.8863
 30
0.0
 41
240.0
 42
240.0
 50
180.0
210
0.0
220
0.0
230
1.0
  0
INSERT
  5
15E
100
AcDbEntity
  8
1
  6
CONTINUOUS
 62
     1
100
AcDbBlockReference
  2
LDR
 10
559.1518
 20
485.8863
 30
0.0
 41
240.0
 42
240.0
210
0.0
220
0.0
230
1.0
  0
INSERT
  5
15F
100
AcDbEntity
  8
1
  6
CONTINUOUS
 62
     1
100
AcDbBlockReference
  2
LDR
 10
559.1518
 20
485.8863
 30
0.0
 41
240.0
 42
240.0
210
0.0
220
0.0
230
1.0
  0
INSERT
  5
160
100
AcDbEntity
  8
1
  6
CONTINUOUS
 62
     1
100
AcDbBlockReference
  2
LDR
 10
533.9518
 20
479.8863
 30
0.0
 41
240.0
 42
240.0
 50
180.0
210
0.0
220
0.0
230
1.0
  0
INSERT
  5
161
100
AcDbEntity
  8
1
  6
CONTINUOUS
 62
     1
100
AcDbBlockReference
  2
LDR
 10
533.9518
 20
479.8863
 30
0.0
 41
240.0
 42
240.0
 50
180.0
210
0.0
220
0.0
230
1.0
  0
INSERT
  5
162
100
AcDbEntity
  8
1
  6
CONTINUOUS
 62
     1
100
AcDbBlockReference
  2
LDR
 10
555.5518
 20
479.8863
 30
0.0
 41
240.0
 42
240.0
210
0.0
220
0.0
230
1.0
  0
INSERT
  5
163
100
AcDbEntity
  8
1
  6
CONTINUOUS
 62
     1
100
AcDbBlockReference
  2
LDR
 10
555.5518
 20
479.8863
 30
0.0
 41
240.0
 42
240.0
210
0.0
220
0.0
230
1.0
  0
INSERT
  5
164
100
AcDbEntity
  8
1
  6
CONTINUOUS
 62
     1
100
AcDbBlockReference
  2
LDR
 10
518.3518
 20
465.4863
 30
0.0
 41
240.0
 42
240.0
 50
90.0
210
0.0
220
0.0
230
1.0
  0
INSERT
  5
165
100
AcDbEntity
  8
1
  6
CONTINUOUS
 62
     1
100
AcDbBlockReference
  2
LDR
 10
523.1518
 20
458.2863
 30
0.0
 41
240.0
 42
240.0
 50
90.0
210
0.0
220
0.0
230
1.0
  0
INSERT
  5
166
100
AcDbEntity
  8
1
  6
CONTINUOUS
 62
     1
100
AcDbBlockReference
  2
LDR
 10
523.1518
 20
458.2863
 30
0.0
 41
240.0
 42
240.0
 50
90.0
210
0.0
220
0.0
230
1.0
  0
INSERT
  5
167
100
AcDbEntity
  8
1
  6
CONTINUOUS
 62
     1
100
AcDbBlockReference
  2
LDR
 10
523.1518
 20
441.4863
 30
0.0
 41
240.0
 42
240.0
 50
270.0
210
0.0
220
0.0
230
1.0
  0
INSERT
  5
168
100
AcDbEntity
  8
1
  6
CONTINUOUS
 62
     1
100
AcDbBlockReference
  2
LDR
 10
523.1518
 20
441.4863
 30
0.0
 41
240.0
 42
240.0
 50
270.0
210
0.0
220
0.0
230
1.0
  0
INSERT
  5
169
100
AcDbEntity
  8
1
  6
CONTINUOUS
 62
     1
100
AcDbBlockReference
  2
LDR
 10
518.3518
 20
436.6863
 30
0.0
 41
240.0
 42
240.0
 50
270.0
210
0.0
220
0.0
230
1.0
  0
INSERT
  5
16A
100
AcDbEntity
  8
1
  6
CONTINUOUS
 62
     1
100
AcDbBlockReference
  2
LDR
 10
518.3518
 20
436.6863
 30
0.0
 41
240.0
 42
240.0
 50
270.0
210
0.0
220
0.0
230
1.0
  0
INSERT
  5
16B
100
AcDbEntity
  8
1
  6
CONTINUOUS
 62
     1
100
AcDbBlockReference
  2
LDR
 10
557.9518
 20
458.2863
 30
0.0
 41
240.000001
 42
240.000001
 50
200.235739
210
0.0
220
0.0
230
1.0
  0
INSERT
  5
16C
100
AcDbEntity
  8
1
  6
CONTINUOUS
 62
     1
100
AcDbBlockReference
  2
LDR
 10
557.9518
 20
441.4863
 30
0.0
 41
239.999997
 42
239.999997
 50
234.121458
210
0.0
220
0.0
230
1.0
  0
INSERT
  5
16D
100
AcDbEntity
  8
1
  6
CONTINUOUS
 62
     1
100
AcDbBlockReference
  2
LDR
 10
585.5518
 20
434.9431
 30
0.0
 41
240.0
 42
240.0
 50
90.0
210
0.0
220
0.0
230
1.0
  0
LINE
  5
16E
100
AcDbEntity
  8
1
  6
CONTINUOUS
 62
     7
100
AcDbLine
 10
563.3518
 20
366.0578
 30
0.0
 11
586.7518
 21
366.0578
 31
0.0
  0
INSERT
  5
16F
100
AcDbEntity
  8
1
  6
CONTINUOUS
 62
     1
100
AcDbBlockReference
  2
LDR
 10
585.5518
 20
366.0578
 30
0.0
 41
240.0
 42
240.0
 50
270.0
210
0.0
220
0.0
230
1.0
  0
TEXT
  5
170
100
AcDbEntity
  8
1
  6
CONTINUOUS
 62
     7
100
AcDbText
 10
342.5713
 20
447.7853
 30
0.0
 40
3.0
  1
W
  7
MONOTXT
210
0.0
220
0.0
230
1.0
100
AcDbText
  0
TEXT
  5
171
100
AcDbEntity
  8
1
  6
CONTINUOUS
 62
     7
100
AcDbText
 10
343.2107
 20
441.3174
 30
0.0
 40
3.0
  1
P
  7
MONOTXT
210
0.0
220
0.0
230
1.0
100
AcDbText
  0
TEXT
  5
172
100
AcDbEntity
  8
1
  6
CONTINUOUS
 62
     7
100
AcDbText
 10
372.982
 20
410.953
 30
0.0
 40
3.0
  1
EXTRUDED RIBS
  7
MONOTXT
 11
372.982
 21
413.953
 31
0.0
210
0.0
220
0.0
230
1.0
100
AcDbText
 73
     3
  0
TEXT
  5
173
100
AcDbEntity
  8
1
  6
CONTINUOUS
 62
     7
100
AcDbText
 10
372.982
 20
405.553
 30
0.0
 40
3.0
  1
(SEE DETAIL)
  7
MONOTXT
 11
372.982
 21
408.553
 31
0.0
210
0.0
220
0.0
230
1.0
100
AcDbText
 73
     3
  0
TEXT
  5
174
100
AcDbEntity
  8
1
  6
CONTINUOUS
 62
     7
100
AcDbText
 10
314.9394
 20
418.5755
 30
0.0
 40
3.0
  1
d
 50
90.0
  7
MONOTXT
 72
     4
 11
313.4394
 21
419.4259
 31
0.0
210
0.0
220
0.0
230
1.0
100
AcDbText
  0
TEXT
  5
175
100
AcDbEntity
  8
1
  6
CONTINUOUS
 62
     7
100
AcDbText
 10
314.8684
 20
427.2468
 30
0.0
 40
3.0
  1
c
 50
90.0
  7
MONOTXT
 72
     4
 11
313.3684
 21
428.109
 31
0.0
210
0.0
220
0.0
230
1.0
100
AcDbText
  0
TEXT
  5
176
100
AcDbEntity
  8
1
  6
CONTINUOUS
 62
     7
100
AcDbText
 10
478.0733
 20
323.6204
 30
0.0
 40
3.0
  1
ELEVATION @ EDGE
  7
MONOTXT
 11
478.0733
 21
326.6204
 31
0.0
210
0.0
220
0.0
230
1.0
100
AcDbText
 73
     3
  0
TEXT
  5
177
100
AcDbEntity
  8
1
  6
CONTINUOUS
 62
     7
100
AcDbText
 10
478.0733
 20
318.2204
 30
0.0
 40
3.0
  1
OF PAVEMENT
  7
MONOTXT
 11
478.0733
 21
321.2204
 31
0.0
210
0.0
220
0.0
230
1.0
100
AcDbText
 73
     3
  0
TEXT
  5
178
100
AcDbEntity
  8
1
  6
CONTINUOUS
 62
     7
100
AcDbText
 10
478.6946
 20
422.0666
 30
0.0
 40
3.0
  1
EXTRUDED RIBS
  7
MONOTXT
 11
478.6946
 21
425.0666
 31
0.0
210
0.0
220
0.0
230
1.0
100
AcDbText
 73
     3
  0
TEXT
  5
179
100
AcDbEntity
  8
1
  6
CONTINUOUS
 62
     7
100
AcDbText
 10
478.6946
 20
416.6666
 30
0.0
 40
3.0
  1
(SEE DETAIL)
  7
MONOTXT
 11
478.6946
 21
419.6666
 31
0.0
210
0.0
220
0.0
230
1.0
100
AcDbText
 73
     3
  0
TEXT
  5
17A
100
AcDbEntity
  8
1
  6
CONTINUOUS
 62
     7
100
AcDbText
 10
581.0406
 20
462.4794
 30
0.0
 40
3.0
  1
EXTRUDED RIBS
  7
MONOTXT
 11
581.0406
 21
465.4794
 31
0.0
210
0.0
220
0.0
230
1.0
100
AcDbText
 73
     3
  0
TEXT
  5
17B
100
AcDbEntity
  8
1
  6
CONTINUOUS
 62
     7
100
AcDbText
 10
581.0406
 20
457.0794
 30
0.0
 40
3.0
  1
(SEE DETAIL)
  7
MONOTXT
 11
581.0406
 21
460.0794
 31
0.0
210
0.0
220
0.0
230
1.0
100
AcDbText
 73
     3
  0
LINE
  5
17C
100
AcDbEntity
  8
1
  6
CONTINUOUS
 62
     7
100
AcDbLine
 10
421.1615
 20
417.2398
 30
0.0
 11
421.1615
 21
424.429
 31
0.0
  0
INSERT
  5
17D
100
AcDbEntity
  8
1
  6
CONTINUOUS
 62
     1
100
AcDbBlockReference
  2
LDR
 10
421.1615
 20
424.429
 30
0.0
 41
240.0
 42
240.0
 50
90.0
210
0.0
220
0.0
230
1.0
  0
INSERT
  5
17E
100
AcDbEntity
  8
1
  6
CONTINUOUS
 62
     1
100
AcDbBlockReference
  2
LDR
 10
421.1615
 20
417.2398
 30
0.0
 41
240.0
 42
240.0
 50
270.0
210
0.0
220
0.0
230
1.0
  0
TEXT
  5
17F
100
AcDbEntity
  8
1
  6
CONTINUOUS
 62
     7
100
AcDbText
 10
415.7958
 20
409.854
 30
0.0
 40
3.0
  1
H
 50
90.0
  7
MONOTXT
 72
     4
 11
414.2958
 21
410.8579
 31
0.0
210
0.0
220
0.0
230
1.0
100
AcDbText
  0
TEXT
  5
180
100
AcDbEntity
  8
1
  6
CONTINUOUS
 62
     7
100
AcDbText
 10
420.6247
 20
408.305
 30
0.0
 40
3.0
  1
d
 50
90.0
  7
MONOTXT
 72
     4
 11
419.1247
 21
409.1554
 31
0.0
210
0.0
220
0.0
230
1.0
100
AcDbText
  0
TEXT
  5
181
100
AcDbEntity
  8
1
  6
CONTINUOUS
 62
     7
100
AcDbText
 10
420.2223
 20
419.737
 30
0.0
 40
3.0
  1
c
 50
90.0
  7
MONOTXT
 72
     4
 11
418.7223
 21
420.5992
 31
0.0
210
0.0
220
0.0
230
1.0
100
AcDbText
  0
TEXT
  5
182
100
AcDbEntity
  8
1
  6
CONTINUOUS
 62
     7
100
AcDbText
 10
440.8053
 20
445.4132
 30
0.0
 40
3.0
  1
W
  7
MONOTXT
 72
     4
 11
442.2344
 21
446.9132
 31
0.0
210
0.0
220
0.0
230
1.0
100
AcDbText
  0
TEXT
  5
183
100
AcDbEntity
  8
1
  6
CONTINUOUS
 62
     7
100
AcDbText
 10
441.6329
 20
439.3751
 30
0.0
 40
3.0
  1
P
  7
MONOTXT
 72
     4
 11
442.6368
 21
440.8751
 31
0.0
210
0.0
220
0.0
230
1.0
100
AcDbText
  0
LINE
  5
184
100
AcDbEntity
  8
1
  6
CONTINUOUS
 62
     7
100
AcDbLine
 10
523.1518
 20
458.2863
 30
0.0
 11
523.1518
 21
465.4863
 31
0.0
  0
INSERT
  5
185
100
AcDbEntity
  8
1
  6
CONTINUOUS
 62
     1
100
AcDbBlockReference
  2
LDR
 10
523.1518
 20
465.4863
 30
0.0
 41
240.0
 42
240.0
 50
90.0
210
0.0
220
0.0
230
1.0
  0
INSERT
  5
186
100
AcDbEntity
  8
1
  6
CONTINUOUS
 62
     1
100
AcDbBlockReference
  2
LDR
 10
523.1518
 20
458.2863
 30
0.0
 41
240.0
 42
240.0
 50
270.0
210
0.0
220
0.0
230
1.0
  0
TEXT
  5
187
100
AcDbEntity
  8
1
  6
CONTINUOUS
 62
     7
100
AcDbText
 10
517.8941
 20
450.1028
 30
0.0
 40
3.0
  1
H
 50
90.0
  7
MONOTXT
 72
     4
 11
516.3941
 21
451.1067
 31
0.0
210
0.0
220
0.0
230
1.0
100
AcDbText
  0
TEXT
  5
188
100
AcDbEntity
  8
1
  6
CONTINUOUS
 62
     7
100
AcDbText
 10
522.7218
 20
448.9366
 30
0.0
 40
3.0
  1
d
 50
90.0
  7
MONOTXT
 72
     4
 11
521.2218
 21
449.787
 31
0.0
210
0.0
220
0.0
230
1.0
100
AcDbText
  0
TEXT
  5
189
100
AcDbEntity
  8
1
  6
CONTINUOUS
 62
     7
100
AcDbText
 10
522.2692
 20
460.7582
 30
0.0
 40
3.0
  1
c
 50
90.0
  7
MONOTXT
 72
     4
 11
520.7692
 21
461.6204
 31
0.0
210
0.0
220
0.0
230
1.0
100
AcDbText
  0
TEXT
  5
18A
100
AcDbEntity
  8
1
  6
CONTINUOUS
 62
     7
100
AcDbText
 10
542.7863
 20
486.3678
 30
0.0
 40
3.0
  1
W
  7
MONOTXT
 72
     4
 11
544.2154
 21
487.8678
 31
0.0
210
0.0
220
0.0
230
1.0
100
AcDbText
  0
TEXT
  5
18B
100
AcDbEntity
  8
1
  6
CONTINUOUS
 62
     7
100
AcDbText
 10
543.111
 20
480.4318
 30
0.0
 40
3.0
  1
P
  7
MONOTXT
 72
     4
 11
544.1149
 21
481.9318
 31
0.0
210
0.0
220
0.0
230
1.0
100
AcDbText
  0
TEXT
  5
18C
100
AcDbEntity
  8
1
  6
CONTINUOUS
 62
     7
100
AcDbText
 10
596.1079
 20
399.3375
 30
0.0
 40
6.0
  1
*
 50
90.0
  7
MONOTXT
 72
     4
 11
593.1079
 21
400.4949
 31
0.0
210
0.0
220
0.0
230
1.0
100
AcDbText
  0
TEXT
  5
18D
100
AcDbEntity
  8
1
  6
CONTINUOUS
 62
     7
100
AcDbText
 10
629.4912
 20
426.7469
 30
0.0
 40
6.0
  1
*
  7
MONOTXT
 72
     4
 11
630.6486
 21
429.7469
 31
0.0
210
0.0
220
0.0
230
1.0
100
AcDbText
  0
TEXT
  5
18E
100
AcDbEntity
  8
1
  6
CONTINUOUS
 62
     7
100
AcDbText
 10
634.4028
 20
428.328
 30
0.0
 40
3.0
  1
- NOTE - SAME CRITERIA APPLY FOR
  7
MONOTXT
 11
634.4028
 21
431.328
 31
0.0
210
0.0
220
0.0
230
1.0
100
AcDbText
 73
     3
  0
TEXT
  5
18F
100
AcDbEntity
  8
1
  6
CONTINUOUS
 62
     7
100
AcDbText
 10
634.4028
 20
422.928
 30
0.0
 40
3.0
  1
        TYPES A, B, G, AND F
  7
MONOTXT
 11
634.4028
 21
425.928
 31
0.0
210
0.0
220
0.0
230
1.0
100
AcDbText
 73
     3
  0
TEXT
  5
190
100
AcDbEntity
  8
1
  6
CONTINUOUS
 62
     7
100
AcDbText
 10
634.4028
 20
417.528
 30
0.0
 40
3.0
  1
        FOR CUT SECTIONS
  7
MONOTXT
 11
634.4028
 21
420.528
 31
0.0
210
0.0
220
0.0
230
1.0
100
AcDbText
 73
     3
  0
TEXT
  5
191
100
AcDbEntity
  8
1
  6
CONTINUOUS
 62
     7
100
AcDbText
 10
325.9753
 20
254.6936
 30
0.0
 40
4.8
  1
TYPE A, B
  7
MONOTXT
 72
     4
 11
344.1737
 21
257.0936
 31
0.0
210
0.0
220
0.0
230
1.0
100
AcDbText
  0
TEXT
  5
192
100
AcDbEntity
  8
1
  6
CONTINUOUS
 62
     7
100
AcDbText
 10
408.1991
 20
252.9591
 30
0.0
 40
4.8
  1
TYPE C, D, E (FILL)
  7
MONOTXT
 72
     4
 11
443.8589
 21
255.3591
 31
0.0
210
0.0
220
0.0
230
1.0
100
AcDbText
  0
TEXT
  5
193
100
AcDbEntity
  8
1
  6
CONTINUOUS
 62
     7
100
AcDbText
 10
509.7505
 20
294.0101
 30
0.0
 40
4.8
  1
TYPE C, D, E (CUT)
  7
MONOTXT
 72
     4
 11
545.2969
 21
296.4101
 31
0.0
210
0.0
220
0.0
230
1.0
100
AcDbText
  0
LINE
  5
194
100
AcDbEntity
  8
1
  6
CONTINUOUS
 62
     7
100
AcDbLine
 10
323.3469
 20
252.7573
 30
0.0
 11
364.7958
 21
252.7573
 31
0.0
  0
LINE
  5
195
100
AcDbEntity
  8
1
  6
CONTINUOUS
 62
     7
100
AcDbLine
 10
405.7112
 20
251.3118
 30
0.0
 11
481.4556
 21
251.3118
 31
0.0
  0
LINE
  5
196
100
AcDbEntity
  8
1
  6
CONTINUOUS
 62
     7
100
AcDbLine
 10
507.7274
 20
291.7846
 30
0.0
 11
582.6382
 21
291.7846
 31
0.0
  0
LINE
  5
197
100
AcDbEntity
  8
1
  6
DASHED
 62
     1
100
AcDbLine
 10
109.5663
 20
184.2361
 30
0.0
 11
111.9663
 21
184.2361
 31
0.0
  0
LINE
  5
198
100
AcDbEntity
  8
1
  6
DASHED
 62
     1
100
AcDbLine
 10
129.9663
 20
184.2361
 30
0.0
 11
132.3663
 21
184.2361
 31
0.0
  0
LINE
  5
199
100
AcDbEntity
  8
1
  6
DASHED
 62
     1
100
AcDbLine
 10
104.1663
 20
173.4361
 30
0.0
 11
117.3663
 21
173.4361
 31
0.0
  0
LINE
  5
19A
100
AcDbEntity
  8
1
  6
DASHED
 62
     1
100
AcDbLine
 10
124.5663
 20
173.4361
 30
0.0
 11
137.7663
 21
173.4361
 31
0.0
  0
LINE
  5
19B
100
AcDbEntity
  8
1
  6
DASHED
 62
     1
100
AcDbLine
 10
104.1663
 20
173.4361
 30
0.0
 11
104.1663
 21
228.1997
 31
0.0
  0
LINE
  5
19C
100
AcDbEntity
  8
1
  6
DASHED
 62
     1
100
AcDbLine
 10
117.3663
 20
173.4361
 30
0.0
 11
117.3663
 21
226.9997
 31
0.0
  0
LINE
  5
19D
100
AcDbEntity
  8
1
  6
DASHED
 62
     1
100
AcDbLine
 10
124.5663
 20
173.4361
 30
0.0
 11
124.5663
 21
225.0361
 31
0.0
  0
LINE
  5
19E
100
AcDbEntity
  8
1
  6
DASHED
 62
     1
100
AcDbLine
 10
137.7663
 20
173.4361
 30
0.0
 11
137.7663
 21
221.4361
 31
0.0
  0
LINE
  5
19F
100
AcDbEntity
  8
1
  6
CONTINUOUS
 62
     1
100
AcDbLine
 10
86.9405
 20
235.2977
 30
0.0
 11
143.5548
 21
219.8574
 31
0.0
  0
LINE
  5
1A0
100
AcDbEntity
  8
1
  6
CONTINUOUS
 62
     1
100
AcDbLine
 10
102.9663
 20
228.1997
 30
0.0
 11
109.5663
 21
228.1997
 31
0.0
  0
LINE
  5
1A1
100
AcDbEntity
  8
1
  6
DASHED
 62
     1
100
AcDbLine
 10
109.5663
 20
229.127
 30
0.0
 11
109.5663
 21
184.2361
 31
0.0
  0
LINE
  5
1A2
100
AcDbEntity
  8
1
  6
DASHED
 62
     1
100
AcDbLine
 10
111.9663
 20
228.4725
 30
0.0
 11
111.9663
 21
184.2361
 31
0.0
  0
LINE
  5
1A3
100
AcDbEntity
  8
1
  6
DASHED
 62
     1
100
AcDbLine
 10
129.9663
 20
223.5634
 30
0.0
 11
129.9663
 21
184.2361
 31
0.0
  0
LINE
  5
1A4
100
AcDbEntity
  8
1
  6
DASHED
 62
     1
100
AcDbLine
 10
132.3663
 20
222.9088
 30
0.0
 11
132.3663
 21
184.2361
 31
0.0
  0
LINE
  5
1A5
100
AcDbEntity
  8
1
  6
CONTINUOUS
 62
     1
100
AcDbLine
 10
108.3663
 20
250.2361
 30
0.0
 11
113.1663
 21
250.2361
 31
0.0
  0
LINE
  5
1A6
100
AcDbEntity
  8
1
  6
CONTINUOUS
 62
     1
100
AcDbLine
 10
128.7663
 20
250.2361
 30
0.0
 11
133.5663
 21
250.2361
 31
0.0
  0
LINE
  5
1A7
100
AcDbEntity
  8
1
  6
CONTINUOUS
 62
     1
100
AcDbLine
 10
108.3663
 20
255.0361
 30
0.0
 11
113.1663
 21
255.0361
 31
0.0
  0
LINE
  5
1A8
100
AcDbEntity
  8
1
  6
CONTINUOUS
 62
     1
100
AcDbLine
 10
128.7663
 20
255.0361
 30
0.0
 11
133.5663
 21
255.0361
 31
0.0
  0
LINE
  5
1A9
100
AcDbEntity
  8
1
  6
CONTINUOUS
 62
     1
100
AcDbLine
 10
84.3663
 20
242.4361
 30
0.0
 11
264.3663
 21
242.4361
 31
0.0
  0
LINE
  5
1AA
100
AcDbEntity
  8
1
  6
CONTINUOUS
 62
     1
100
AcDbLine
 10
108.0663
 20
237.0361
 30
0.0
 11
113.4663
 21
237.0361
 31
0.0
  0
LINE
  5
1AB
100
AcDbEntity
  8
1
  6
CONTINUOUS
 62
     1
100
AcDbLine
 10
128.4663
 20
231.0361
 30
0.0
 11
133.8663
 21
231.0361
 31
0.0
  0
LINE
  5
1AC
100
AcDbEntity
  8
1
  6
CONTINUOUS
 62
     1
100
AcDbLine
 10
108.0663
 20
235.2361
 30
0.0
 11
113.4663
 21
235.2361
 31
0.0
  0
LINE
  5
1AD
100
AcDbEntity
  8
1
  6
CONTINUOUS
 62
     1
100
AcDbLine
 10
128.4663
 20
229.2361
 30
0.0
 11
133.8663
 21
229.2361
 31
0.0
  0
LINE
  5
1AE
100
AcDbEntity
  8
1
  6
CONTINUOUS
 62
     1
100
AcDbLine
 10
108.0663
 20
237.0361
 30
0.0
 11
108.0663
 21
235.2361
 31
0.0
  0
LINE
  5
1AF
100
AcDbEntity
  8
1
  6
CONTINUOUS
 62
     1
100
AcDbLine
 10
113.4663
 20
237.0361
 30
0.0
 11
113.4663
 21
235.2361
 31
0.0
  0
LINE
  5
1B0
100
AcDbEntity
  8
1
  6
CONTINUOUS
 62
     1
100
AcDbLine
 10
128.4663
 20
231.0361
 30
0.0
 11
128.4663
 21
229.2361
 31
0.0
  0
LINE
  5
1B1
100
AcDbEntity
  8
1
  6
CONTINUOUS
 62
     1
100
AcDbLine
 10
133.8663
 20
231.0361
 30
0.0
 11
133.8663
 21
229.2361
 31
0.0
  0
LINE
  5
1B2
100
AcDbEntity
  8
1
  6
CONTINUOUS
 62
     1
100
AcDbLine
 10
109.5663
 20
250.2361
 30
0.0
 11
109.5663
 21
237.0361
 31
0.0
  0
LINE
  5
1B3
100
AcDbEntity
  8
1
  6
CONTINUOUS
 62
     1
100
AcDbLine
 10
109.5663
 20
235.2361
 30
0.0
 11
109.5663
 21
229.127
 31
0.0
  0
LINE
  5
1B4
100
AcDbEntity
  8
1
  6
CONTINUOUS
 62
     1
100
AcDbLine
 10
111.9663
 20
250.2361
 30
0.0
 11
111.9663
 21
237.0361
 31
0.0
  0
LINE
  5
1B5
100
AcDbEntity
  8
1
  6
CONTINUOUS
 62
     1
100
AcDbLine
 10
111.9663
 20
235.2361
 30
0.0
 11
111.9663
 21
228.4725
 31
0.0
  0
LINE
  5
1B6
100
AcDbEntity
  8
1
  6
CONTINUOUS
 62
     1
100
AcDbLine
 10
129.9663
 20
250.2361
 30
0.0
 11
129.9663
 21
231.0361
 31
0.0
  0
LINE
  5
1B7
100
AcDbEntity
  8
1
  6
CONTINUOUS
 62
     1
100
AcDbLine
 10
129.9663
 20
229.2361
 30
0.0
 11
129.9663
 21
223.5634
 31
0.0
  0
LINE
  5
1B8
100
AcDbEntity
  8
1
  6
CONTINUOUS
 62
     1
100
AcDbLine
 10
132.3663
 20
250.2361
 30
0.0
 11
132.3663
 21
231.0361
 31
0.0
  0
LINE
  5
1B9
100
AcDbEntity
  8
1
  6
CONTINUOUS
 62
     1
100
AcDbLine
 10
132.3663
 20
229.2361
 30
0.0
 11
132.3663
 21
222.9088
 31
0.0
  0
LINE
  5
1BA
100
AcDbEntity
  8
1
  6
CONTINUOUS
 62
     1
100
AcDbLine
 10
108.0663
 20
236.1361
 30
0.0
 11
113.4663
 21
236.1361
 31
0.0
  0
LINE
  5
1BB
100
AcDbEntity
  8
1
  6
CONTINUOUS
 62
     1
100
AcDbLine
 10
128.4663
 20
230.1361
 30
0.0
 11
133.8663
 21
230.1361
 31
0.0
  0
LINE
  5
1BC
100
AcDbEntity
  8
1
  6
CONTINUOUS
 62
     7
100
AcDbLine
 10
110.7663
 20
265.8361
 30
0.0
 11
110.7663
 21
262.2361
 31
0.0
  0
LINE
  5
1BD
100
AcDbEntity
  8
1
  6
CONTINUOUS
 62
     7
100
AcDbLine
 10
110.7663
 20
261.0361
 30
0.0
 11
110.7663
 21
258.6361
 31
0.0
  0
LINE
  5
1BE
100
AcDbEntity
  8
1
  6
CONTINUOUS
 62
     7
100
AcDbLine
 10
110.7663
 20
257.4361
 30
0.0
 11
110.7663
 21
255.0361
 31
0.0
  0
LINE
  5
1BF
100
AcDbEntity
  8
1
  6
CONTINUOUS
 62
     7
100
AcDbLine
 10
131.1663
 20
265.8361
 30
0.0
 11
131.1663
 21
262.2361
 31
0.0
  0
LINE
  5
1C0
100
AcDbEntity
  8
1
  6
CONTINUOUS
 62
     7
100
AcDbLine
 10
131.1663
 20
261.0361
 30
0.0
 11
131.1663
 21
258.6361
 31
0.0
  0
LINE
  5
1C1
100
AcDbEntity
  8
1
  6
CONTINUOUS
 62
     7
100
AcDbLine
 10
131.1663
 20
257.4361
 30
0.0
 11
131.1663
 21
255.0361
 31
0.0
  0
LINE
  5
1C2
100
AcDbEntity
  8
1
  6
CONTINUOUS
 62
     7
100
AcDbLine
 10
110.7663
 20
208.2361
 30
0.0
 11
110.7663
 21
250.2361
 31
0.0
  0
LINE
  5
1C3
100
AcDbEntity
  8
1
  6
CONTINUOUS
 62
     7
100
AcDbLine
 10
110.7663
 20
183.0361
 30
0.0
 11
110.7663
 21
203.4361
 31
0.0
  0
LINE
  5
1C4
100
AcDbEntity
  8
1
  6
CONTINUOUS
 62
     7
100
AcDbLine
 10
110.7663
 20
204.6361
 30
0.0
 11
110.7663
 21
207.0361
 31
0.0
  0
LINE
  5
1C5
100
AcDbEntity
  8
1
  6
CONTINUOUS
 62
     7
100
AcDbLine
 10
131.1663
 20
208.2361
 30
0.0
 11
131.1663
 21
250.2361
 31
0.0
  0
LINE
  5
1C6
100
AcDbEntity
  8
1
  6
CONTINUOUS
 62
     7
100
AcDbLine
 10
131.1663
 20
183.0361
 30
0.0
 11
131.1663
 21
203.4361
 31
0.0
  0
LINE
  5
1C7
100
AcDbEntity
  8
1
  6
CONTINUOUS
 62
     7
100
AcDbLine
 10
131.1663
 20
204.6361
 30
0.0
 11
131.1663
 21
207.0361
 31
0.0
  0
LINE
  5
1C8
100
AcDbEntity
  8
1
  6
HIDDEN
 62
     1
100
AcDbLine
 10
109.5663
 20
332.4361
 30
0.0
 11
111.9663
 21
332.4361
 31
0.0
  0
LINE
  5
1C9
100
AcDbEntity
  8
1
  6
HIDDEN
 62
     1
100
AcDbLine
 10
129.9663
 20
332.4361
 30
0.0
 11
132.3663
 21
332.4361
 31
0.0
  0
LINE
  5
1CA
100
AcDbEntity
  8
1
  6
HIDDEN
 62
     1
100
AcDbLine
 10
109.5663
 20
336.6361
 30
0.0
 11
132.3663
 21
336.6361
 31
0.0
  0
LINE
  5
1CB
100
AcDbEntity
  8
1
  6
HIDDEN
 62
     1
100
AcDbLine
 10
109.5663
 20
301.8361
 30
0.0
 11
132.3663
 21
301.8361
 31
0.0
  0
LINE
  5
1CC
100
AcDbEntity
  8
1
  6
HIDDEN
 62
     1
100
AcDbLine
 10
109.5663
 20
267.0361
 30
0.0
 11
132.3663
 21
267.0361
 31
0.0
  0
LINE
  5
1CD
100
AcDbEntity
  8
1
  6
HIDDEN
 62
     1
100
AcDbLine
 10
107.1663
 20
334.2361
 30
0.0
 11
107.1663
 21
304.2361
 31
0.0
  0
LINE
  5
1CE
100
AcDbEntity
  8
1
  6
HIDDEN
 62
     1
100
AcDbLine
 10
107.1663
 20
299.4361
 30
0.0
 11
107.1663
 21
269.4361
 31
0.0
  0
LINE
  5
1CF
100
AcDbEntity
  8
1
  6
HIDDEN
 62
     1
100
AcDbLine
 10
134.7663
 20
334.2361
 30
0.0
 11
134.7663
 21
304.2361
 31
0.0
  0
LINE
  5
1D0
100
AcDbEntity
  8
1
  6
HIDDEN
 62
     1
100
AcDbLine
 10
134.7663
 20
299.4361
 30
0.0
 11
134.7663
 21
269.4361
 31
0.0
  0
ARC
  5
1D1
100
AcDbEntity
  8
1
  6
HIDDEN
 62
     1
100
AcDbCircle
 10
109.5663
 20
334.2361
 30
0.0
 40
2.4
210
0.0
220
0.0
230
1.0
100
AcDbArc
 50
90.0
 51
180.0
  0
ARC
  5
1D2
100
AcDbEntity
  8
1
  6
HIDDEN
 62
     1
100
AcDbCircle
 10
132.3663
 20
334.2361
 30
0.0
 40
2.4
210
0.0
220
0.0
230
1.0
100
AcDbArc
 50
0.0
 51
90.0
  0
ARC
  5
1D3
100
AcDbEntity
  8
1
  6
HIDDEN
 62
     1
100
AcDbCircle
 10
132.3663
 20
304.2361
 30
0.0
 40
2.4
210
0.0
220
0.0
230
1.0
100
AcDbArc
 50
270.0
 51
0.0
  0
ARC
  5
1D4
100
AcDbEntity
  8
1
  6
HIDDEN
 62
     1
100
AcDbCircle
 10
109.5663
 20
304.2361
 30
0.0
 40
2.4
210
0.0
220
0.0
230
1.0
100
AcDbArc
 50
180.0
 51
270.0
  0
ARC
  5
1D5
100
AcDbEntity
  8
1
  6
HIDDEN
 62
     1
100
AcDbCircle
 10
109.5663
 20
299.4361
 30
0.0
 40
2.4
210
0.0
220
0.0
230
1.0
100
AcDbArc
 50
90.0
 51
180.0
  0
ARC
  5
1D6
100
AcDbEntity
  8
1
  6
HIDDEN
 62
     1
100
AcDbCircle
 10
132.3663
 20
299.4361
 30
0.0
 40
2.4
210
0.0
220
0.0
230
1.0
100
AcDbArc
 50
0.0
 51
90.0
  0
ARC
  5
1D7
100
AcDbEntity
  8
1
  6
HIDDEN
 62
     1
100
AcDbCircle
 10
109.5663
 20
269.4361
 30
0.0
 40
2.4
210
0.0
220
0.0
230
1.0
100
AcDbArc
 50
180.0
 51
270.0
  0
ARC
  5
1D8
100
AcDbEntity
  8
1
  6
HIDDEN
 62
     1
100
AcDbCircle
 10
132.3663
 20
269.4361
 30
0.0
 40
2.4
210
0.0
220
0.0
230
1.0
100
AcDbArc
 50
270.0
 51
0.0
  0
LINE
  5
1D9
100
AcDbEntity
  8
1
  6
HIDDEN
 62
     1
100
AcDbLine
 10
109.5663
 20
332.4361
 30
0.0
 11
109.5663
 21
267.0361
 31
0.0
  0
LINE
  5
1DA
100
AcDbEntity
  8
1
  6
CONTINUOUS
 62
     1
100
AcDbLine
 10
109.5663
 20
267.0361
 30
0.0
 11
109.5663
 21
255.0361
 31
0.0
  0
LINE
  5
1DB
100
AcDbEntity
  8
1
  6
HIDDEN
 62
     1
100
AcDbLine
 10
111.9663
 20
332.4361
 30
0.0
 11
111.9663
 21
267.0361
 31
0.0
  0
LINE
  5
1DC
100
AcDbEntity
  8
1
  6
CONTINUOUS
 62
     1
100
AcDbLine
 10
111.9663
 20
267.0361
 30
0.0
 11
111.9663
 21
255.0361
 31
0.0
  0
LINE
  5
1DD
100
AcDbEntity
  8
1
  6
HIDDEN
 62
     1
100
AcDbLine
 10
129.9663
 20
332.4361
 30
0.0
 11
129.9663
 21
267.0361
 31
0.0
  0
LINE
  5
1DE
100
AcDbEntity
  8
1
  6
CONTINUOUS
 62
     1
100
AcDbLine
 10
129.9663
 20
267.0361
 30
0.0
 11
129.9663
 21
255.0361
 31
0.0
  0
LINE
  5
1DF
100
AcDbEntity
  8
1
  6
HIDDEN
 62
     1
100
AcDbLine
 10
132.3663
 20
332.4361
 30
0.0
 11
132.3663
 21
267.0361
 31
0.0
  0
LINE
  5
1E0
100
AcDbEntity
  8
1
  6
CONTINUOUS
 62
     1
100
AcDbLine
 10
108.3663
 20
327.0361
 30
0.0
 11
133.5663
 21
327.0361
 31
0.0
  0
LINE
  5
1E1
100
AcDbEntity
  8
1
  6
CONTINUOUS
 62
     1
100
AcDbLine
 10
108.3663
 20
292.2361
 30
0.0
 11
133.5663
 21
292.2361
 31
0.0
  0
LINE
  5
1E2
100
AcDbEntity
  8
1
  6
CONTINUOUS
 62
     1
100
AcDbLine
 10
108.3663
 20
310.2361
 30
0.0
 11
133.5663
 21
310.2361
 31
0.0
  0
LINE
  5
1E3
100
AcDbEntity
  8
1
  6
CONTINUOUS
 62
     1
100
AcDbLine
 10
108.3663
 20
275.4361
 30
0.0
 11
133.5663
 21
275.4361
 31
0.0
  0
LINE
  5
1E4
100
AcDbEntity
  8
1
  6
CONTINUOUS
 62
     7
100
AcDbLine
 10
107.1663
 20
337.2361
 30
0.0
 11
107.1663
 21
352.2361
 31
0.0
  0
LINE
  5
1E5
100
AcDbEntity
  8
1
  6
CONTINUOUS
 62
     7
100
AcDbLine
 10
134.7663
 20
336.6361
 30
0.0
 11
134.7663
 21
352.2361
 31
0.0
  0
LINE
  5
1E6
100
AcDbEntity
  8
1
  6
CONTINUOUS
 62
     7
100
AcDbLine
 10
134.7663
 20
351.0361
 30
0.0
 11
107.1663
 21
351.0361
 31
0.0
  0
LINE
  5
1E7
100
AcDbEntity
  8
1
  6
CONTINUOUS
 62
     7
100
AcDbLine
 10
110.7663
 20
345.6361
 30
0.0
 11
110.7663
 21
337.8361
 31
0.0
  0
LINE
  5
1E8
100
AcDbEntity
  8
1
  6
CONTINUOUS
 62
     7
100
AcDbLine
 10
131.1663
 20
345.6361
 30
0.0
 11
131.1663
 21
337.8361
 31
0.0
  0
LINE
  5
1E9
100
AcDbEntity
  8
1
  6
CONTINUOUS
 62
     7
100
AcDbLine
 10
110.7663
 20
344.4361
 30
0.0
 11
131.1663
 21
344.4361
 31
0.0
  0
LINE
  5
1EA
100
AcDbEntity
  8
1
  6
CONTINUOUS
 62
     7
100
AcDbLine
 10
106.5663
 20
336.6361
 30
0.0
 11
93.9663
 21
336.6361
 31
0.0
  0
LINE
  5
1EB
100
AcDbEntity
  8
1
  6
CONTINUOUS
 62
     7
100
AcDbLine
 10
106.5663
 20
301.8361
 30
0.0
 11
93.9663
 21
301.8361
 31
0.0
  0
LINE
  5
1EC
100
AcDbEntity
  8
1
  6
CONTINUOUS
 62
     7
100
AcDbLine
 10
106.5663
 20
267.0361
 30
0.0
 11
93.9663
 21
267.0361
 31
0.0
  0
LINE
  5
1ED
100
AcDbEntity
  8
1
  6
CONTINUOUS
 62
     7
100
AcDbLine
 10
105.9663
 20
327.0361
 30
0.0
 11
99.3663
 21
327.0361
 31
0.0
  0
LINE
  5
1EE
100
AcDbEntity
  8
1
  6
CONTINUOUS
 62
     7
100
AcDbLine
 10
105.9663
 20
310.2361
 30
0.0
 11
99.3663
 21
310.2361
 31
0.0
  0
LINE
  5
1EF
100
AcDbEntity
  8
1
  6
CONTINUOUS
 62
     7
100
AcDbLine
 10
105.9663
 20
292.2361
 30
0.0
 11
99.3663
 21
292.2361
 31
0.0
  0
LINE
  5
1F0
100
AcDbEntity
  8
1
  6
CONTINUOUS
 62
     7
100
AcDbLine
 10
105.9663
 20
275.4361
 30
0.0
 11
99.3663
 21
275.4361
 31
0.0
  0
LINE
  5
1F1
100
AcDbEntity
  8
1
  6
CONTINUOUS
 62
     7
100
AcDbLine
 10
95.1663
 20
336.6361
 30
0.0
 11
95.1663
 21
301.8361
 31
0.0
  0
LINE
  5
1F2
100
AcDbEntity
  8
1
  6
CONTINUOUS
 62
     7
100
AcDbLine
 10
95.1663
 20
301.8361
 30
0.0
 11
95.1663
 21
267.0361
 31
0.0
  0
LINE
  5
1F3
100
AcDbEntity
  8
1
  6
CONTINUOUS
 62
     7
100
AcDbLine
 10
100.5663
 20
310.2361
 30
0.0
 11
100.5663
 21
327.0361
 31
0.0
  0
LINE
  5
1F4
100
AcDbEntity
  8
1
  6
CONTINUOUS
 62
     7
100
AcDbLine
 10
100.5663
 20
275.4361
 30
0.0
 11
100.5663
 21
292.2361
 31
0.0
  0
LINE
  5
1F5
100
AcDbEntity
  8
1
  6
CONTINUOUS
 62
     7
100
AcDbLine
 10
100.5663
 20
327.0361
 30
0.0
 11
100.5663
 21
336.6361
 31
0.0
  0
LINE
  5
1F6
100
AcDbEntity
  8
1
  6
CONTINUOUS
 62
     7
100
AcDbLine
 10
100.5663
 20
292.2361
 30
0.0
 11
100.5663
 21
301.8361
 31
0.0
  0
LINE
  5
1F7
100
AcDbEntity
  8
1
  6
CONTINUOUS
 62
     7
100
AcDbLine
 10
133.5663
 20
265.3769
 30
0.0
 11
155.1663
 21
265.3769
 31
0.0
  0
LINE
  5
1F8
100
AcDbEntity
  8
1
  6
CONTINUOUS
 62
     7
100
AcDbLine
 10
153.9663
 20
265.3769
 30
0.0
 11
153.9663
 21
242.4361
 31
0.0
  0
INSERT
  5
1F9
100
AcDbEntity
  8
1
  6
CONTINUOUS
 62
     1
100
AcDbBlockReference
  2
LDR
 10
107.1663
 20
351.0361
 30
0.0
 41
240.0
 42
240.0
 50
180.0
210
0.0
220
0.0
230
1.0
  0
INSERT
  5
1FA
100
AcDbEntity
  8
1
  6
CONTINUOUS
 62
     1
100
AcDbBlockReference
  2
LDR
 10
107.1663
 20
351.0361
 30
0.0
 41
240.0
 42
240.0
 50
180.0
210
0.0
220
0.0
230
1.0
  0
INSERT
  5
1FB
100
AcDbEntity
  8
1
  6
CONTINUOUS
 62
     1
100
AcDbBlockReference
  2
LDR
 10
134.7663
 20
351.0361
 30
0.0
 41
240.0
 42
240.0
210
0.0
220
0.0
230
1.0
  0
INSERT
  5
1FC
100
AcDbEntity
  8
1
  6
CONTINUOUS
 62
     1
100
AcDbBlockReference
  2
LDR
 10
134.7663
 20
351.0361
 30
0.0
 41
240.0
 42
240.0
210
0.0
220
0.0
230
1.0
  0
INSERT
  5
1FD
100
AcDbEntity
  8
1
  6
CONTINUOUS
 62
     1
100
AcDbBlockReference
  2
LDR
 10
110.7663
 20
344.4361
 30
0.0
 41
240.0
 42
240.0
 50
180.0
210
0.0
220
0.0
230
1.0
  0
INSERT
  5
1FE
100
AcDbEntity
  8
1
  6
CONTINUOUS
 62
     1
100
AcDbBlockReference
  2
LDR
 10
110.7663
 20
344.4361
 30
0.0
 41
240.0
 42
240.0
 50
180.0
210
0.0
220
0.0
230
1.0
  0
INSERT
  5
1FF
100
AcDbEntity
  8
1
  6
CONTINUOUS
 62
     1
100
AcDbBlockReference
  2
LDR
 10
131.1663
 20
344.4361
 30
0.0
 41
240.0
 42
240.0
210
0.0
220
0.0
230
1.0
  0
INSERT
  5
200
100
AcDbEntity
  8
1
  6
CONTINUOUS
 62
     1
100
AcDbBlockReference
  2
LDR
 10
131.1663
 20
344.4361
 30
0.0
 41
240.0
 42
240.0
210
0.0
220
0.0
230
1.0
  0
INSERT
  5
201
100
AcDbEntity
  8
1
  6
CONTINUOUS
 62
     1
100
AcDbBlockReference
  2
LDR
 10
95.1663
 20
336.6361
 30
0.0
 41
240.0
 42
240.0
 50
90.0
210
0.0
220
0.0
230
1.0
  0
INSERT
  5
202
100
AcDbEntity
  8
1
  6
CONTINUOUS
 62
     1
100
AcDbBlockReference
  2
LDR
 10
95.1663
 20
336.6361
 30
0.0
 41
240.0
 42
240.0
 50
90.0
210
0.0
220
0.0
230
1.0
  0
INSERT
  5
203
100
AcDbEntity
  8
1
  6
CONTINUOUS
 62
     1
100
AcDbBlockReference
  2
LDR
 10
95.1663
 20
301.8361
 30
0.0
 41
240.0
 42
240.0
 50
270.0
210
0.0
220
0.0
230
1.0
  0
INSERT
  5
204
100
AcDbEntity
  8
1
  6
CONTINUOUS
 62
     1
100
AcDbBlockReference
  2
LDR
 10
95.1663
 20
301.8361
 30
0.0
 41
240.0
 42
240.0
 50
270.0
210
0.0
220
0.0
230
1.0
  0
INSERT
  5
205
100
AcDbEntity
  8
1
  6
CONTINUOUS
 62
     1
100
AcDbBlockReference
  2
LDR
 10
100.5663
 20
336.6361
 30
0.0
 41
240.0
 42
240.0
 50
90.0
210
0.0
220
0.0
230
1.0
  0
INSERT
  5
206
100
AcDbEntity
  8
1
  6
CONTINUOUS
 62
     1
100
AcDbBlockReference
  2
LDR
 10
100.5663
 20
336.6361
 30
0.0
 41
240.0
 42
240.0
 50
90.0
210
0.0
220
0.0
230
1.0
  0
INSERT
  5
207
100
AcDbEntity
  8
1
  6
CONTINUOUS
 62
     1
100
AcDbBlockReference
  2
LDR
 10
100.5663
 20
327.0361
 30
0.0
 41
240.0
 42
240.0
 50
270.0
210
0.0
220
0.0
230
1.0
  0
INSERT
  5
208
100
AcDbEntity
  8
1
  6
CONTINUOUS
 62
     1
100
AcDbBlockReference
  2
LDR
 10
100.5663
 20
327.0361
 30
0.0
 41
240.0
 42
240.0
 50
270.0
210
0.0
220
0.0
230
1.0
  0
INSERT
  5
209
100
AcDbEntity
  8
1
  6
CONTINUOUS
 62
     1
100
AcDbBlockReference
  2
LDR
 10
100.5663
 20
327.0361
 30
0.0
 41
240.0
 42
240.0
 50
90.0
210
0.0
220
0.0
230
1.0
  0
INSERT
  5
20A
100
AcDbEntity
  8
1
  6
CONTINUOUS
 62
     1
100
AcDbBlockReference
  2
LDR
 10
100.5663
 20
327.0361
 30
0.0
 41
240.0
 42
240.0
 50
90.0
210
0.0
220
0.0
230
1.0
  0
INSERT
  5
20B
100
AcDbEntity
  8
1
  6
CONTINUOUS
 62
     1
100
AcDbBlockReference
  2
LDR
 10
100.5663
 20
310.2361
 30
0.0
 41
240.0
 42
240.0
 50
270.0
210
0.0
220
0.0
230
1.0
  0
INSERT
  5
20C
100
AcDbEntity
  8
1
  6
CONTINUOUS
 62
     1
100
AcDbBlockReference
  2
LDR
 10
100.5663
 20
310.2361
 30
0.0
 41
240.0
 42
240.0
 50
270.0
210
0.0
220
0.0
230
1.0
  0
INSERT
  5
20D
100
AcDbEntity
  8
1
  6
CONTINUOUS
 62
     1
100
AcDbBlockReference
  2
LDR
 10
95.1663
 20
301.8361
 30
0.0
 41
240.0
 42
240.0
 50
90.0
210
0.0
220
0.0
230
1.0
  0
INSERT
  5
20E
100
AcDbEntity
  8
1
  6
CONTINUOUS
 62
     1
100
AcDbBlockReference
  2
LDR
 10
95.1663
 20
301.8361
 30
0.0
 41
240.0
 42
240.0
 50
90.0
210
0.0
220
0.0
230
1.0
  0
INSERT
  5
20F
100
AcDbEntity
  8
1
  6
CONTINUOUS
 62
     1
100
AcDbBlockReference
  2
LDR
 10
95.1663
 20
267.0361
 30
0.0
 41
240.0
 42
240.0
 50
270.0
210
0.0
220
0.0
230
1.0
  0
INSERT
  5
210
100
AcDbEntity
  8
1
  6
CONTINUOUS
 62
     1
100
AcDbBlockReference
  2
LDR
 10
95.1663
 20
267.0361
 30
0.0
 41
240.0
 42
240.0
 50
270.0
210
0.0
220
0.0
230
1.0
  0
INSERT
  5
211
100
AcDbEntity
  8
1
  6
CONTINUOUS
 62
     1
100
AcDbBlockReference
  2
LDR
 10
100.5663
 20
301.8361
 30
0.0
 41
240.0
 42
240.0
 50
90.0
210
0.0
220
0.0
230
1.0
  0
INSERT
  5
212
100
AcDbEntity
  8
1
  6
CONTINUOUS
 62
     1
100
AcDbBlockReference
  2
LDR
 10
100.5663
 20
301.8361
 30
0.0
 41
240.0
 42
240.0
 50
90.0
210
0.0
220
0.0
230
1.0
  0
INSERT
  5
213
100
AcDbEntity
  8
1
  6
CONTINUOUS
 62
     1
100
AcDbBlockReference
  2
LDR
 10
100.5663
 20
292.2361
 30
0.0
 41
240.0
 42
240.0
 50
270.0
210
0.0
220
0.0
230
1.0
  0
INSERT
  5
214
100
AcDbEntity
  8
1
  6
CONTINUOUS
 62
     1
100
AcDbBlockReference
  2
LDR
 10
100.5663
 20
292.2361
 30
0.0
 41
240.0
 42
240.0
 50
270.0
210
0.0
220
0.0
230
1.0
  0
INSERT
  5
215
100
AcDbEntity
  8
1
  6
CONTINUOUS
 62
     1
100
AcDbBlockReference
  2
LDR
 10
100.5663
 20
292.2361
 30
0.0
 41
240.0
 42
240.0
 50
90.0
210
0.0
220
0.0
230
1.0
  0
INSERT
  5
216
100
AcDbEntity
  8
1
  6
CONTINUOUS
 62
     1
100
AcDbBlockReference
  2
LDR
 10
100.5663
 20
292.2361
 30
0.0
 41
240.0
 42
240.0
 50
90.0
210
0.0
220
0.0
230
1.0
  0
INSERT
  5
217
100
AcDbEntity
  8
1
  6
CONTINUOUS
 62
     1
100
AcDbBlockReference
  2
LDR
 10
100.5663
 20
275.4361
 30
0.0
 41
240.0
 42
240.0
 50
270.0
210
0.0
220
0.0
230
1.0
  0
INSERT
  5
218
100
AcDbEntity
  8
1
  6
CONTINUOUS
 62
     1
100
AcDbBlockReference
  2
LDR
 10
100.5663
 20
275.4361
 30
0.0
 41
240.0
 42
240.0
 50
270.0
210
0.0
220
0.0
230
1.0
  0
INSERT
  5
219
100
AcDbEntity
  8
1
  6
CONTINUOUS
 62
     1
100
AcDbBlockReference
  2
LDR
 10
153.9663
 20
242.4361
 30
0.0
 41
240.0
 42
240.0
 50
270.0
210
0.0
220
0.0
230
1.0
  0
LINE
  5
21A
100
AcDbEntity
  8
1
  6
DASHED
 62
     1
100
AcDbLine
 10
189.9663
 20
184.2361
 30
0.0
 11
192.3663
 21
184.2361
 31
0.0
  0
LINE
  5
21B
100
AcDbEntity
  8
1
  6
DASHED
 62
     1
100
AcDbLine
 10
210.3663
 20
184.2361
 30
0.0
 11
212.7663
 21
184.2361
 31
0.0
  0
LINE
  5
21C
100
AcDbEntity
  8
1
  6
DASHED
 62
     1
100
AcDbLine
 10
186.3663
 20
173.4361
 30
0.0
 11
195.9663
 21
173.4361
 31
0.0
  0
LINE
  5
21D
100
AcDbEntity
  8
1
  6
DASHED
 62
     1
100
AcDbLine
 10
206.7663
 20
173.4361
 30
0.0
 11
216.3663
 21
173.4361
 31
0.0
  0
LINE
  5
21E
100
AcDbEntity
  8
1
  6
DASHED
 62
     1
100
AcDbLine
 10
186.3663
 20
173.4361
 30
0.0
 11
186.3663
 21
228.1997
 31
0.0
  0
LINE
  5
21F
100
AcDbEntity
  8
1
  6
DASHED
 62
     1
100
AcDbLine
 10
195.9663
 20
173.4361
 30
0.0
 11
195.9663
 21
227.4906
 31
0.0
  0
LINE
  5
220
100
AcDbEntity
  8
1
  6
DASHED
 62
     1
100
AcDbLine
 10
206.7663
 20
173.4361
 30
0.0
 11
206.7663
 21
224.5452
 31
0.0
  0
LINE
  5
221
100
AcDbEntity
  8
1
  6
DASHED
 62
     1
100
AcDbLine
 10
216.3663
 20
173.4361
 30
0.0
 11
216.3663
 21
221.927
 31
0.0
  0
LINE
  5
222
100
AcDbEntity
  8
1
  6
CONTINUOUS
 62
     1
100
AcDbLine
 10
167.3405
 20
235.2977
 30
0.0
 11
223.9548
 21
219.8574
 31
0.0
  0
LINE
  5
223
100
AcDbEntity
  8
1
  6
CONTINUOUS
 62
     1
100
AcDbLine
 10
183.3663
 20
228.1997
 30
0.0
 11
189.9663
 21
228.1997
 31
0.0
  0
LINE
  5
224
100
AcDbEntity
  8
1
  6
DASHED
 62
     1
100
AcDbLine
 10
189.9663
 20
229.127
 30
0.0
 11
189.9663
 21
184.2361
 31
0.0
  0
LINE
  5
225
100
AcDbEntity
  8
1
  6
DASHED
 62
     1
100
AcDbLine
 10
192.3663
 20
228.4725
 30
0.0
 11
192.3663
 21
184.2361
 31
0.0
  0
LINE
  5
226
100
AcDbEntity
  8
1
  6
DASHED
 62
     1
100
AcDbLine
 10
210.3663
 20
223.5634
 30
0.0
 11
210.3663
 21
184.2361
 31
0.0
  0
LINE
  5
227
100
AcDbEntity
  8
1
  6
DASHED
 62
     1
100
AcDbLine
 10
212.7663
 20
222.9088
 30
0.0
 11
212.7663
 21
184.2361
 31
0.0
  0
LINE
  5
228
100
AcDbEntity
  8
1
  6
CONTINUOUS
 62
     1
100
AcDbLine
 10
188.4663
 20
237.0361
 30
0.0
 11
193.8663
 21
237.0361
 31
0.0
  0
LINE
  5
229
100
AcDbEntity
  8
1
  6
CONTINUOUS
 62
     1
100
AcDbLine
 10
208.8663
 20
231.0361
 30
0.0
 11
214.2663
 21
231.0361
 31
0.0
  0
LINE
  5
22A
100
AcDbEntity
  8
1
  6
CONTINUOUS
 62
     1
100
AcDbLine
 10
188.4663
 20
235.2361
 30
0.0
 11
193.8663
 21
235.2361
 31
0.0
  0
LINE
  5
22B
100
AcDbEntity
  8
1
  6
CONTINUOUS
 62
     1
100
AcDbLine
 10
208.8663
 20
229.2361
 30
0.0
 11
214.2663
 21
229.2361
 31
0.0
  0
LINE
  5
22C
100
AcDbEntity
  8
1
  6
CONTINUOUS
 62
     1
100
AcDbLine
 10
188.4663
 20
237.0361
 30
0.0
 11
188.4663
 21
235.2361
 31
0.0
  0
LINE
  5
22D
100
AcDbEntity
  8
1
  6
CONTINUOUS
 62
     1
100
AcDbLine
 10
193.8663
 20
237.0361
 30
0.0
 11
193.8663
 21
235.2361
 31
0.0
  0
LINE
  5
22E
100
AcDbEntity
  8
1
  6
CONTINUOUS
 62
     1
100
AcDbLine
 10
208.8663
 20
231.0361
 30
0.0
 11
208.8663
 21
229.2361
 31
0.0
  0
LINE
  5
22F
100
AcDbEntity
  8
1
  6
CONTINUOUS
 62
     1
100
AcDbLine
 10
214.2663
 20
231.0361
 30
0.0
 11
214.2663
 21
229.2361
 31
0.0
  0
LINE
  5
230
100
AcDbEntity
  8
1
  6
CONTINUOUS
 62
     1
100
AcDbLine
 10
189.9663
 20
235.2361
 30
0.0
 11
189.9663
 21
229.127
 31
0.0
  0
LINE
  5
231
100
AcDbEntity
  8
1
  6
CONTINUOUS
 62
     1
100
AcDbLine
 10
192.3663
 20
235.2361
 30
0.0
 11
192.3663
 21
228.4725
 31
0.0
  0
LINE
  5
232
100
AcDbEntity
  8
1
  6
CONTINUOUS
 62
     1
100
AcDbLine
 10
210.3663
 20
229.2361
 30
0.0
 11
210.3663
 21
223.5634
 31
0.0
  0
LINE
  5
233
100
AcDbEntity
  8
1
  6
CONTINUOUS
 62
     1
100
AcDbLine
 10
212.7663
 20
229.2361
 30
0.0
 11
212.7663
 21
222.9088
 31
0.0
  0
LINE
  5
234
100
AcDbEntity
  8
1
  6
CONTINUOUS
 62
     1
100
AcDbLine
 10
188.4663
 20
236.1361
 30
0.0
 11
193.8663
 21
236.1361
 31
0.0
  0
LINE
  5
235
100
AcDbEntity
  8
1
  6
CONTINUOUS
 62
     1
100
AcDbLine
 10
208.8663
 20
230.1361
 30
0.0
 11
214.2663
 21
230.1361
 31
0.0
  0
LINE
  5
236
100
AcDbEntity
  8
1
  6
CONTINUOUS
 62
     7
100
AcDbLine
 10
191.1663
 20
183.0361
 30
0.0
 11
191.1663
 21
203.4361
 31
0.0
  0
LINE
  5
237
100
AcDbEntity
  8
1
  6
CONTINUOUS
 62
     7
100
AcDbLine
 10
191.1663
 20
204.6361
 30
0.0
 11
191.1663
 21
207.0361
 31
0.0
  0
LINE
  5
238
100
AcDbEntity
  8
1
  6
CONTINUOUS
 62
     7
100
AcDbLine
 10
211.5663
 20
183.0361
 30
0.0
 11
211.5663
 21
203.4361
 31
0.0
  0
LINE
  5
239
100
AcDbEntity
  8
1
  6
CONTINUOUS
 62
     7
100
AcDbLine
 10
211.5663
 20
204.6361
 30
0.0
 11
211.5663
 21
207.0361
 31
0.0
  0
LINE
  5
23A
100
AcDbEntity
  8
1
  6
HIDDEN
 62
     1
100
AcDbLine
 10
189.9663
 20
320.4361
 30
0.0
 11
192.3663
 21
320.4361
 31
0.0
  0
LINE
  5
23B
100
AcDbEntity
  8
1
  6
HIDDEN
 62
     1
100
AcDbLine
 10
210.3663
 20
320.4361
 30
0.0
 11
212.7663
 21
320.4361
 31
0.0
  0
LINE
  5
23C
100
AcDbEntity
  8
1
  6
CONTINUOUS
 62
     1
100
AcDbLine
 10
188.7663
 20
319.2361
 30
0.0
 11
213.9663
 21
319.2361
 31
0.0
  0
LINE
  5
23D
100
AcDbEntity
  8
1
  6
HIDDEN
 62
     1
100
AcDbLine
 10
199.6815
 20
334.9754
 30
0.0
 11
182.1003
 21
317.6453
 31
0.0
  0
LINE
  5
23E
100
AcDbEntity
  8
1
  6
HIDDEN
 62
     1
100
AcDbLine
 10
182.1003
 20
314.2269
 30
0.0
 11
199.6815
 21
296.8969
 31
0.0
  0
LINE
  5
23F
100
AcDbEntity
  8
1
  6
HIDDEN
 62
     1
100
AcDbLine
 10
203.0511
 20
296.8969
 30
0.0
 11
220.6322
 21
314.2269
 31
0.0
  0
LINE
  5
240
100
AcDbEntity
  8
1
  6
HIDDEN
 62
     1
100
AcDbLine
 10
220.6323
 20
317.6454
 30
0.0
 11
203.0511
 21
334.9754
 31
0.0
  0
ARC
  5
241
100
AcDbEntity
  8
1
  6
HIDDEN
 62
     1
100
AcDbCircle
 10
201.36632
 20
333.266152
 30
0.0
 40
2.4
210
0.0
220
0.0
230
1.0
100
AcDbArc
 50
45.412683
 51
134.588008
  0
ARC
  5
242
100
AcDbEntity
  8
1
  6
HIDDEN
 62
     1
100
AcDbCircle
 10
218.947467
 20
315.936157
 30
0.0
 40
2.4
210
0.0
220
0.0
230
1.0
100
AcDbArc
 50
314.586242
 51
45.411856
  0
ARC
  5
243
100
AcDbEntity
  8
1
  6
HIDDEN
 62
     1
100
AcDbCircle
 10
201.366297
 20
298.606103
 30
0.0
 40
2.4
210
0.0
220
0.0
230
1.0
100
AcDbArc
 50
225.411422
 51
314.588667
  0
ARC
  5
244
100
AcDbEntity
  8
1
  6
HIDDEN
 62
     1
100
AcDbCircle
 10
183.785116
 20
315.936104
 30
0.0
 40
2.4
210
0.0
220
0.0
230
1.0
100
AcDbArc
 50
134.587539
 51
225.412592
  0
LINE
  5
245
100
AcDbEntity
  8
1
  6
CONTINUOUS
 62
     1
100
AcDbLine
 10
188.7663
 20
309.6361
 30
0.0
 11
213.9663
 21
309.6361
 31
0.0
  0
LINE
  5
246
100
AcDbEntity
  8
1
  6
HIDDEN
 62
     1
100
AcDbLine
 10
189.9663
 20
320.4361
 30
0.0
 11
189.9663
 21
306.4733
 31
0.0
  0
LINE
  5
247
100
AcDbEntity
  8
1
  6
CONTINUOUS
 62
     1
100
AcDbLine
 10
189.9663
 20
306.4733
 30
0.0
 11
189.9663
 21
237.0361
 31
0.0
  0
LINE
  5
248
100
AcDbEntity
  8
1
  6
HIDDEN
 62
     1
100
AcDbLine
 10
192.3663
 20
320.4361
 30
0.0
 11
192.3663
 21
304.1076
 31
0.0
  0
LINE
  5
249
100
AcDbEntity
  8
1
  6
CONTINUOUS
 62
     1
100
AcDbLine
 10
192.3663
 20
304.1076
 30
0.0
 11
192.3663
 21
237.0361
 31
0.0
  0
LINE
  5
24A
100
AcDbEntity
  8
1
  6
HIDDEN
 62
     1
100
AcDbLine
 10
210.3663
 20
320.4361
 30
0.0
 11
210.3663
 21
304.1076
 31
0.0
  0
LINE
  5
24B
100
AcDbEntity
  8
1
  6
CONTINUOUS
 62
     1
100
AcDbLine
 10
210.3663
 20
304.1076
 30
0.0
 11
210.3663
 21
231.0361
 31
0.0
  0
LINE
  5
24C
100
AcDbEntity
  8
1
  6
HIDDEN
 62
     1
100
AcDbLine
 10
212.7663
 20
320.4361
 30
0.0
 11
212.7663
 21
306.4733
 31
0.0
  0
LINE
  5
24D
100
AcDbEntity
  8
1
  6
CONTINUOUS
 62
     1
100
AcDbLine
 10
212.7663
 20
306.4733
 30
0.0
 11
212.7663
 21
231.0361
 31
0.0
  0
LINE
  5
24E
100
AcDbEntity
  8
1
  6
CONTINUOUS
 62
     1
100
AcDbLine
 10
109.5663
 20
266.5769
 30
0.0
 11
111.9663
 21
266.5769
 31
0.0
  0
LINE
  5
24F
100
AcDbEntity
  8
1
  6
CONTINUOUS
 62
     1
100
AcDbLine
 10
129.9663
 20
266.5769
 30
0.0
 11
132.3663
 21
266.5769
 31
0.0
  0
LINE
  5
250
100
AcDbEntity
  8
1
  6
CONTINUOUS
 62
     1
100
AcDbLine
 10
109.5663
 20
264.1769
 30
0.0
 11
111.9663
 21
264.1769
 31
0.0
  0
LINE
  5
251
100
AcDbEntity
  8
1
  6
CONTINUOUS
 62
     1
100
AcDbLine
 10
129.9663
 20
264.1769
 30
0.0
 11
132.3663
 21
264.1769
 31
0.0
  0
LINE
  5
252
100
AcDbEntity
  8
1
  6
CONTINUOUS
 62
     1
100
AcDbLine
 10
132.3663
 20
267.0361
 30
0.0
 11
132.3663
 21
266.5769
 31
0.0
  0
LINE
  5
253
100
AcDbEntity
  8
1
  6
CONTINUOUS
 62
     1
100
AcDbLine
 10
132.3663
 20
266.5769
 30
0.0
 11
132.3663
 21
264.1769
 31
0.0
  0
LINE
  5
254
100
AcDbEntity
  8
1
  6
CONTINUOUS
 62
     1
100
AcDbLine
 10
132.3663
 20
264.1769
 30
0.0
 11
132.3663
 21
255.0361
 31
0.0
  0
INSERT
  5
255
100
AcDbEntity
  8
1
  6
CONTINUOUS
 62
     1
100
AcDbBlockReference
  2
LDR
 10
153.9663
 20
265.3769
 30
0.0
 41
240.0
 42
240.0
 50
90.0
210
0.0
220
0.0
230
1.0
  0
LINE
  5
256
100
AcDbEntity
  8
1
  6
CONTINUOUS
 62
     1
100
AcDbLine
 10
189.9663
 20
295.0061
 30
0.0
 11
192.3663
 21
295.0061
 31
0.0
  0
LINE
  5
257
100
AcDbEntity
  8
1
  6
CONTINUOUS
 62
     1
100
AcDbLine
 10
210.3663
 20
297.4061
 30
0.0
 11
212.7663
 21
297.4061
 31
0.0
  0
LINE
  5
258
100
AcDbEntity
  8
1
  6
CONTINUOUS
 62
     1
100
AcDbLine
 10
189.9663
 20
297.4061
 30
0.0
 11
192.3663
 21
297.4061
 31
0.0
  0
LINE
  5
259
100
AcDbEntity
  8
1
  6
CONTINUOUS
 62
     1
100
AcDbLine
 10
210.3663
 20
295.0061
 30
0.0
 11
212.7663
 21
295.0061
 31
0.0
  0
LINE
  5
25A
100
AcDbEntity
  8
1
  6
CONTINUOUS
 62
     7
100
AcDbLine
 10
191.1663
 20
275.8061
 30
0.0
 11
191.1663
 21
285.4061
 31
0.0
  0
LINE
  5
25B
100
AcDbEntity
  8
1
  6
CONTINUOUS
 62
     7
100
AcDbLine
 10
191.1663
 20
208.2361
 30
0.0
 11
191.1663
 21
271.0061
 31
0.0
  0
LINE
  5
25C
100
AcDbEntity
  8
1
  6
CONTINUOUS
 62
     7
100
AcDbLine
 10
191.1663
 20
272.2061
 30
0.0
 11
191.1663
 21
274.6061
 31
0.0
  0
LINE
  5
25D
100
AcDbEntity
  8
1
  6
CONTINUOUS
 62
     7
100
AcDbLine
 10
211.5663
 20
275.8061
 30
0.0
 11
211.5663
 21
285.4061
 31
0.0
  0
LINE
  5
25E
100
AcDbEntity
  8
1
  6
CONTINUOUS
 62
     7
100
AcDbLine
 10
211.5663
 20
208.2361
 30
0.0
 11
211.5663
 21
271.0061
 31
0.0
  0
LINE
  5
25F
100
AcDbEntity
  8
1
  6
CONTINUOUS
 62
     7
100
AcDbLine
 10
211.5663
 20
272.2061
 30
0.0
 11
211.5663
 21
274.6061
 31
0.0
  0
LINE
  5
260
100
AcDbEntity
  8
1
  6
CONTINUOUS
 62
     7
100
AcDbLine
 10
191.1663
 20
346.2361
 30
0.0
 11
191.1663
 21
321.6361
 31
0.0
  0
LINE
  5
261
100
AcDbEntity
  8
1
  6
CONTINUOUS
 62
     7
100
AcDbLine
 10
211.5663
 20
346.2361
 30
0.0
 11
211.5663
 21
321.6361
 31
0.0
  0
LINE
  5
262
100
AcDbEntity
  8
1
  6
CONTINUOUS
 62
     7
100
AcDbLine
 10
191.1663
 20
345.0361
 30
0.0
 11
211.5663
 21
345.0361
 31
0.0
  0
LINE
  5
263
100
AcDbEntity
  8
1
  6
CONTINUOUS
 62
     7
100
AcDbLine
 10
203.7663
 20
335.6662
 30
0.0
 11
239.1663
 21
335.6662
 31
0.0
  0
LINE
  5
264
100
AcDbEntity
  8
1
  6
CONTINUOUS
 62
     7
100
AcDbLine
 10
220.2185
 20
319.2361
 30
0.0
 11
229.5663
 21
319.2361
 31
0.0
  0
LINE
  5
265
100
AcDbEntity
  8
1
  6
CONTINUOUS
 62
     7
100
AcDbLine
 10
217.1749
 20
309.6361
 30
0.0
 11
229.5663
 21
309.6361
 31
0.0
  0
LINE
  5
266
100
AcDbEntity
  8
1
  6
CONTINUOUS
 62
     7
100
AcDbLine
 10
237.9663
 20
335.6662
 30
0.0
 11
237.9663
 21
296.2061
 31
0.0
  0
LINE
  5
267
100
AcDbEntity
  8
1
  6
CONTINUOUS
 62
     7
100
AcDbLine
 10
203.7663
 20
296.2061
 30
0.0
 11
209.1663
 21
296.2061
 31
0.0
  0
LINE
  5
268
100
AcDbEntity
  8
1
  6
CONTINUOUS
 62
     7
100
AcDbLine
 10
213.9663
 20
296.2061
 30
0.0
 11
239.1663
 21
296.2061
 31
0.0
  0
LINE
  5
269
100
AcDbEntity
  8
1
  6
CONTINUOUS
 62
     7
100
AcDbLine
 10
228.3663
 20
319.2361
 30
0.0
 11
228.3663
 21
335.6662
 31
0.0
  0
LINE
  5
26A
100
AcDbEntity
  8
1
  6
CONTINUOUS
 62
     7
100
AcDbLine
 10
228.3663
 20
309.6361
 30
0.0
 11
228.3663
 21
296.2061
 31
0.0
  0
LINE
  5
26B
100
AcDbEntity
  8
1
  6
CONTINUOUS
 62
     7
100
AcDbLine
 10
237.9663
 20
296.2061
 30
0.0
 11
237.9663
 21
242.4361
 31
0.0
  0
LINE
  5
26C
100
AcDbEntity
  8
1
  6
CONTINUOUS
 62
     7
100
AcDbLine
 10
180.4031
 20
315.9481
 30
0.0
 11
171.918
 21
307.463
 31
0.0
  0
LINE
  5
26D
100
AcDbEntity
  8
1
  6
CONTINUOUS
 62
     7
100
AcDbLine
 10
201.3539
 20
295.1997
 30
0.0
 11
192.8688
 21
286.7146
 31
0.0
  0
LINE
  5
26E
100
AcDbEntity
  8
1
  6
CONTINUOUS
 62
     7
100
AcDbLine
 10
172.7705
 20
308.3073
 30
0.0
 11
193.7213
 21
287.5589
 31
0.0
  0
INSERT
  5
26F
100
AcDbEntity
  8
1
  6
CONTINUOUS
 62
     1
100
AcDbBlockReference
  2
LDR
 10
172.7705
 20
308.3073
 30
0.0
 41
240.000001
 42
240.000001
 50
135.278101
210
0.0
220
0.0
230
1.0
  0
INSERT
  5
270
100
AcDbEntity
  8
1
  6
CONTINUOUS
 62
     1
100
AcDbBlockReference
  2
LDR
 10
172.7705
 20
308.3073
 30
0.0
 41
240.000001
 42
240.000001
 50
135.278101
210
0.0
220
0.0
230
1.0
  0
INSERT
  5
271
100
AcDbEntity
  8
1
  6
CONTINUOUS
 62
     1
100
AcDbBlockReference
  2
LDR
 10
193.7213
 20
287.5589
 30
0.0
 41
240.000001
 42
240.000001
 50
315.278101
210
0.0
220
0.0
230
1.0
  0
INSERT
  5
272
100
AcDbEntity
  8
1
  6
CONTINUOUS
 62
     1
100
AcDbBlockReference
  2
LDR
 10
193.7213
 20
287.5589
 30
0.0
 41
240.000001
 42
240.000001
 50
315.278101
210
0.0
220
0.0
230
1.0
  0
INSERT
  5
273
100
AcDbEntity
  8
1
  6
CONTINUOUS
 62
     1
100
AcDbBlockReference
  2
LDR
 10
228.3663
 20
335.6662
 30
0.0
 41
240.0
 42
240.0
 50
90.0
210
0.0
220
0.0
230
1.0
  0
INSERT
  5
274
100
AcDbEntity
  8
1
  6
CONTINUOUS
 62
     1
100
AcDbBlockReference
  2
LDR
 10
228.3663
 20
335.6662
 30
0.0
 41
240.0
 42
240.0
 50
90.0
210
0.0
220
0.0
230
1.0
  0
INSERT
  5
275
100
AcDbEntity
  8
1
  6
CONTINUOUS
 62
     1
100
AcDbBlockReference
  2
LDR
 10
237.9663
 20
335.6662
 30
0.0
 41
240.0
 42
240.0
 50
90.0
210
0.0
220
0.0
230
1.0
  0
INSERT
  5
276
100
AcDbEntity
  8
1
  6
CONTINUOUS
 62
     1
100
AcDbBlockReference
  2
LDR
 10
237.9663
 20
335.6662
 30
0.0
 41
240.0
 42
240.0
 50
90.0
210
0.0
220
0.0
230
1.0
  0
INSERT
  5
277
100
AcDbEntity
  8
1
  6
CONTINUOUS
 62
     1
100
AcDbBlockReference
  2
LDR
 10
228.3663
 20
319.2361
 30
0.0
 41
240.0
 42
240.0
 50
270.0
210
0.0
220
0.0
230
1.0
  0
INSERT
  5
278
100
AcDbEntity
  8
1
  6
CONTINUOUS
 62
     1
100
AcDbBlockReference
  2
LDR
 10
228.3663
 20
319.2361
 30
0.0
 41
240.0
 42
240.0
 50
270.0
210
0.0
220
0.0
230
1.0
  0
INSERT
  5
279
100
AcDbEntity
  8
1
  6
CONTINUOUS
 62
     1
100
AcDbBlockReference
  2
LDR
 10
228.3663
 20
309.6361
 30
0.0
 41
240.0
 42
240.0
 50
90.0
210
0.0
220
0.0
230
1.0
  0
INSERT
  5
27A
100
AcDbEntity
  8
1
  6
CONTINUOUS
 62
     1
100
AcDbBlockReference
  2
LDR
 10
228.3663
 20
309.6361
 30
0.0
 41
240.0
 42
240.0
 50
90.0
210
0.0
220
0.0
230
1.0
  0
INSERT
  5
27B
100
AcDbEntity
  8
1
  6
CONTINUOUS
 62
     1
100
AcDbBlockReference
  2
LDR
 10
228.3663
 20
296.2061
 30
0.0
 41
240.0
 42
240.0
 50
270.0
210
0.0
220
0.0
230
1.0
  0
INSERT
  5
27C
100
AcDbEntity
  8
1
  6
CONTINUOUS
 62
     1
100
AcDbBlockReference
  2
LDR
 10
228.3663
 20
296.2061
 30
0.0
 41
240.0
 42
240.0
 50
270.0
210
0.0
220
0.0
230
1.0
  0
INSERT
  5
27D
100
AcDbEntity
  8
1
  6
CONTINUOUS
 62
     1
100
AcDbBlockReference
  2
LDR
 10
237.9663
 20
296.2061
 30
0.0
 41
240.0
 42
240.0
 50
270.0
210
0.0
220
0.0
230
1.0
  0
INSERT
  5
27E
100
AcDbEntity
  8
1
  6
CONTINUOUS
 62
     1
100
AcDbBlockReference
  2
LDR
 10
237.9663
 20
296.2061
 30
0.0
 41
240.0
 42
240.0
 50
270.0
210
0.0
220
0.0
230
1.0
  0
INSERT
  5
27F
100
AcDbEntity
  8
1
  6
CONTINUOUS
 62
     1
100
AcDbBlockReference
  2
LDR
 10
237.9663
 20
296.2061
 30
0.0
 41
240.0
 42
240.0
 50
90.0
210
0.0
220
0.0
230
1.0
  0
INSERT
  5
280
100
AcDbEntity
  8
1
  6
CONTINUOUS
 62
     1
100
AcDbBlockReference
  2
LDR
 10
191.1663
 20
345.0361
 30
0.0
 41
240.0
 42
240.0
 50
180.0
210
0.0
220
0.0
230
1.0
  0
INSERT
  5
281
100
AcDbEntity
  8
1
  6
CONTINUOUS
 62
     1
100
AcDbBlockReference
  2
LDR
 10
191.1663
 20
345.0361
 30
0.0
 41
240.0
 42
240.0
 50
180.0
210
0.0
220
0.0
230
1.0
  0
INSERT
  5
282
100
AcDbEntity
  8
1
  6
CONTINUOUS
 62
     1
100
AcDbBlockReference
  2
LDR
 10
211.5663
 20
345.0361
 30
0.0
 41
240.0
 42
240.0
210
0.0
220
0.0
230
1.0
  0
INSERT
  5
283
100
AcDbEntity
  8
1
  6
CONTINUOUS
 62
     1
100
AcDbBlockReference
  2
LDR
 10
237.9663
 20
242.4361
 30
0.0
 41
240.0
 42
240.0
 50
270.0
210
0.0
220
0.0
230
1.0
  0
LINE
  5
284
100
AcDbEntity
  8
1
  6
CONTINUOUS
 62
     7
100
AcDbLine
 10
133.5663
 20
327.0361
 30
0.0
 11
149.7852
 21
330.3245
 31
0.0
  0
LINE
  5
285
100
AcDbEntity
  8
1
  6
CONTINUOUS
 62
     7
100
AcDbLine
 10
149.7852
 20
330.3245
 30
0.0
 11
133.5663
 21
310.2361
 31
0.0
  0
LINE
  5
286
100
AcDbEntity
  8
1
  6
CONTINUOUS
 62
     7
100
AcDbLine
 10
149.7852
 20
330.3245
 30
0.0
 11
133.5663
 21
292.2361
 31
0.0
  0
LINE
  5
287
100
AcDbEntity
  8
1
  6
CONTINUOUS
 62
     7
100
AcDbLine
 10
149.7852
 20
330.3245
 30
0.0
 11
133.5663
 21
275.4361
 31
0.0
  0
LINE
  5
288
100
AcDbEntity
  8
1
  6
CONTINUOUS
 62
     7
100
AcDbLine
 10
149.7852
 20
330.3245
 30
0.0
 11
151.2044
 21
330.3245
 31
0.0
  0
TEXT
  5
289
100
AcDbEntity
  8
1
  6
CONTINUOUS
 62
     7
100
AcDbText
 10
151.9586
 20
328.4622
 30
0.0
 40
3.0
  1
EXTRUDED
  7
MONOTXT
 72
     4
 11
163.2381
 21
329.9622
 31
0.0
210
0.0
220
0.0
230
1.0
100
AcDbText
  0
TEXT
  5
28A
100
AcDbEntity
  8
1
  6
CONTINUOUS
 62
     7
100
AcDbText
 10
158.7617
 20
323.0622
 30
0.0
 40
3.0
  1
RIBS
  7
MONOTXT
 72
     4
 11
163.2381
 21
324.5622
 31
0.0
210
0.0
220
0.0
230
1.0
100
AcDbText
  0
TEXT
  5
28B
100
AcDbEntity
  8
1
  6
CONTINUOUS
 62
     7
100
AcDbText
 10
148.498
 20
317.6622
 30
0.0
 40
3.0
  1
(SEE DETAIL)
  7
MONOTXT
 72
     4
 11
163.2263
 21
319.1622
 31
0.0
210
0.0
220
0.0
230
1.0
100
AcDbText
  0
LINE
  5
28C
100
AcDbEntity
  8
1
  6
CONTINUOUS
 62
     7
100
AcDbLine
 10
188.7663
 20
319.2361
 30
0.0
 11
182.6783
 21
330.3245
 31
0.0
  0
LINE
  5
28D
100
AcDbEntity
  8
1
  6
CONTINUOUS
 62
     7
100
AcDbLine
 10
182.6783
 20
330.3245
 30
0.0
 11
188.7663
 21
309.6361
 31
0.0
  0
LINE
  5
28E
100
AcDbEntity
  8
1
  6
CONTINUOUS
 62
     7
100
AcDbLine
 10
182.6783
 20
330.3245
 30
0.0
 11
175.4942
 21
330.3245
 31
0.0
  0
INSERT
  5
28F
100
AcDbEntity
  8
1
  6
CONTINUOUS
 62
     1
100
AcDbBlockReference
  2
LDR
 10
133.5663
 20
327.0361
 30
0.0
 41
240.0
 42
240.0
 50
191.461417
210
0.0
220
0.0
230
1.0
  0
INSERT
  5
290
100
AcDbEntity
  8
1
  6
CONTINUOUS
 62
     1
100
AcDbBlockReference
  2
LDR
 10
133.5663
 20
327.0361
 30
0.0
 41
240.0
 42
240.0
 50
191.461417
210
0.0
220
0.0
230
1.0
  0
INSERT
  5
291
100
AcDbEntity
  8
1
  6
CONTINUOUS
 62
     1
100
AcDbBlockReference
  2
LDR
 10
133.5663
 20
310.2361
 30
0.0
 41
240.000003
 42
240.000003
 50
231.083412
210
0.0
220
0.0
230
1.0
  0
INSERT
  5
292
100
AcDbEntity
  8
1
  6
CONTINUOUS
 62
     1
100
AcDbBlockReference
  2
LDR
 10
133.5663
 20
310.2361
 30
0.0
 41
240.000003
 42
240.000003
 50
231.083412
210
0.0
220
0.0
230
1.0
  0
INSERT
  5
293
100
AcDbEntity
  8
1
  6
CONTINUOUS
 62
     1
100
AcDbBlockReference
  2
LDR
 10
133.5663
 20
292.2361
 30
0.0
 41
240.0
 42
240.0
 50
246.934601
210
0.0
220
0.0
230
1.0
  0
INSERT
  5
294
100
AcDbEntity
  8
1
  6
CONTINUOUS
 62
     1
100
AcDbBlockReference
  2
LDR
 10
133.5663
 20
292.2361
 30
0.0
 41
240.0
 42
240.0
 50
246.934601
210
0.0
220
0.0
230
1.0
  0
INSERT
  5
295
100
AcDbEntity
  8
1
  6
CONTINUOUS
 62
     1
100
AcDbBlockReference
  2
LDR
 10
133.5663
 20
275.4361
 30
0.0
 41
240.0
 42
240.0
 50
253.538187
210
0.0
220
0.0
230
1.0
  0
INSERT
  5
296
100
AcDbEntity
  8
1
  6
CONTINUOUS
 62
     1
100
AcDbBlockReference
  2
LDR
 10
133.5663
 20
275.4361
 30
0.0
 41
240.0
 42
240.0
 50
253.538187
210
0.0
220
0.0
230
1.0
  0
INSERT
  5
297
100
AcDbEntity
  8
1
  6
CONTINUOUS
 62
     1
100
AcDbBlockReference
  2
LDR
 10
188.7663
 20
309.6361
 30
0.0
 41
240.0
 42
240.0
 50
286.397637
210
0.0
220
0.0
230
1.0
  0
INSERT
  5
298
100
AcDbEntity
  8
1
  6
CONTINUOUS
 62
     1
100
AcDbBlockReference
  2
LDR
 10
188.7663
 20
309.6361
 30
0.0
 41
240.0
 42
240.0
 50
286.397637
210
0.0
220
0.0
230
1.0
  0
INSERT
  5
299
100
AcDbEntity
  8
1
  6
CONTINUOUS
 62
     1
100
AcDbBlockReference
  2
LDR
 10
188.7663
 20
319.2361
 30
0.0
 41
239.999999
 42
239.999999
 50
298.768646
210
0.0
220
0.0
230
1.0
  0
TEXT
  5
29A
100
AcDbEntity
  8
1
  6
CONTINUOUS
 62
     7
100
AcDbText
 10
119.1481
 20
351.9575
 30
0.0
 40
3.0
  1
W
  7
MONOTXT
 72
     4
 11
120.5772
 21
353.4575
 31
0.0
210
0.0
220
0.0
230
1.0
100
AcDbText
  0
TEXT
  5
29B
100
AcDbEntity
  8
1
  6
CONTINUOUS
 62
     7
100
AcDbText
 10
119.5733
 20
345.1095
 30
0.0
 40
3.0
  1
P
  7
MONOTXT
 72
     4
 11
120.5772
 21
346.6095
 31
0.0
210
0.0
220
0.0
230
1.0
100
AcDbText
  0
TEXT
  5
29C
100
AcDbEntity
  8
1
  6
CONTINUOUS
 62
     7
100
AcDbText
 10
200.7209
 20
345.9446
 30
0.0
 40
3.0
  1
P
  7
MONOTXT
 72
     4
 11
201.7248
 21
347.4446
 31
0.0
210
0.0
220
0.0
230
1.0
100
AcDbText
  0
TEXT
  5
29D
100
AcDbEntity
  8
1
  6
CONTINUOUS
 62
     7
100
AcDbText
 10
94.1813
 20
280.9788
 30
0.0
 40
3.0
  1
H
 50
90.0
  7
MONOTXT
 72
     4
 11
92.6813
 21
281.9827
 31
0.0
210
0.0
220
0.0
230
1.0
100
AcDbText
  0
TEXT
  5
29E
100
AcDbEntity
  8
1
  6
CONTINUOUS
 62
     7
100
AcDbText
 10
94.0143
 20
315.5529
 30
0.0
 40
3.0
  1
H
 50
90.0
  7
MONOTXT
 72
     4
 11
92.5143
 21
316.5568
 31
0.0
210
0.0
220
0.0
230
1.0
100
AcDbText
  0
TEXT
  5
29F
100
AcDbEntity
  8
1
  6
CONTINUOUS
 62
     7
100
AcDbText
 10
236.9411
 20
313.7156
 30
0.0
 40
3.0
  1
H
 50
90.0
  7
MONOTXT
 72
     4
 11
235.4411
 21
314.7195
 31
0.0
210
0.0
220
0.0
230
1.0
100
AcDbText
  0
TEXT
  5
2A0
100
AcDbEntity
  8
1
  6
CONTINUOUS
 62
     7
100
AcDbText
 10
99.6913
 20
281.4545
 30
0.0
 40
3.0
  1
d
 50
90.0
  7
MONOTXT
 72
     4
 11
98.1913
 21
282.3049
 31
0.0
210
0.0
220
0.0
230
1.0
100
AcDbText
  0
TEXT
  5
2A1
100
AcDbEntity
  8
1
  6
CONTINUOUS
 62
     7
100
AcDbText
 10
99.5243
 20
316.6968
 30
0.0
 40
3.0
  1
d
 50
90.0
  7
MONOTXT
 72
     4
 11
98.0243
 21
317.5472
 31
0.0
210
0.0
220
0.0
230
1.0
100
AcDbText
  0
TEXT
  5
2A2
100
AcDbEntity
  8
1
  6
CONTINUOUS
 62
     7
100
AcDbText
 10
99.0234
 20
329.277
 30
0.0
 40
3.0
  1
c
 50
90.0
  7
MONOTXT
 72
     4
 11
97.5234
 21
330.1392
 31
0.0
210
0.0
220
0.0
230
1.0
100
AcDbText
  0
TEXT
  5
2A3
100
AcDbEntity
  8
1
  6
CONTINUOUS
 62
     7
100
AcDbText
 10
99.1904
 20
294.6495
 30
0.0
 40
3.0
  1
c
 50
90.0
  7
MONOTXT
 72
     4
 11
97.6904
 21
295.5117
 31
0.0
210
0.0
220
0.0
230
1.0
100
AcDbText
  0
TEXT
  5
2A4
100
AcDbEntity
  8
1
  6
CONTINUOUS
 62
     7
100
AcDbText
 10
227.4238
 20
326.7182
 30
0.0
 40
3.0
  1
c
 50
90.0
  7
MONOTXT
 72
     4
 11
225.9238
 21
327.5804
 31
0.0
210
0.0
220
0.0
230
1.0
100
AcDbText
  0
TEXT
  5
2A5
100
AcDbEntity
  8
1
  6
CONTINUOUS
 62
     7
100
AcDbText
 10
227.0898
 20
301.8315
 30
0.0
 40
3.0
  1
c
 50
90.0
  7
MONOTXT
 72
     4
 11
225.5898
 21
302.6937
 31
0.0
210
0.0
220
0.0
230
1.0
100
AcDbText
  0
TEXT
  5
2A6
100
AcDbEntity
  8
1
  6
CONTINUOUS
 62
     7
100
AcDbText
 10
182.6882
 20
300.2012
 30
0.0
 40
3.0
  1
W
 50
315.2781
  7
MONOTXT
 72
     1
 11
183.703619
 21
299.19559
 31
0.0
210
0.0
220
0.0
230
1.0
100
AcDbText
  0
LINE
  5
2A7
100
AcDbEntity
  8
1
  6
CONTINUOUS
 62
     7
100
AcDbLine
 10
94.103
 20
318.3901
 30
0.0
 11
90.8762
 21
318.3901
 31
0.0
  0
LINE
  5
2A8
100
AcDbEntity
  8
1
  6
CONTINUOUS
 62
     7
100
AcDbLine
 10
90.8762
 20
318.3901
 30
0.0
 11
90.8762
 21
321.2671
 31
0.0
  0
LINE
  5
2A9
100
AcDbEntity
  8
1
  6
CONTINUOUS
 62
     7
100
AcDbLine
 10
99.5044
 20
319.4428
 30
0.0
 11
97.5402
 21
319.4428
 31
0.0
  0
LINE
  5
2AA
100
AcDbEntity
  8
1
  6
CONTINUOUS
 62
     7
100
AcDbLine
 10
97.5402
 20
319.4428
 30
0.0
 11
97.5402
 21
321.2672
 31
0.0
  0
POLYLINE
  5
2AB
100
AcDbEntity
  8
1
  6
CONTINUOUS
 62
     7
100
AcDb2dPolyline
 66
     1
 10
0.0
 20
0.0
 30
0.0
 70
     1
  0
VERTEX
  5
2AC
100
AcDbEntity
  8
1
  6
CONTINUOUS
 62
     7
100
AcDbVertex
100
AcDb2dVertex
 10
94.103
 20
318.3901
 30
0.0
  0
VERTEX
  5
2AD
100
AcDbEntity
  8
1
  6
CONTINUOUS
 62
     7
100
AcDbVertex
100
AcDb2dVertex
 10
90.8762
 20
321.2671
 30
0.0
  0
VERTEX
  5
2AE
100
AcDbEntity
  8
1
  6
CONTINUOUS
 62
     7
100
AcDbVertex
100
AcDb2dVertex
 10
94.103
 20
321.2671
 30
0.0
  0
VERTEX
  5
2AF
100
AcDbEntity
  8
1
  6
CONTINUOUS
 62
     7
100
AcDbVertex
100
AcDb2dVertex
 10
94.103
 20
318.3901
 30
0.0
  0
SEQEND
  5
2B0
100
AcDbEntity
  8
1
  6
CONTINUOUS
 62
     7
  0
LINE
  5
2B1
100
AcDbEntity
  8
1
  6
CONTINUOUS
 62
     7
100
AcDbLine
 10
99.0134
 20
331.8629
 30
0.0
 11
97.0492
 21
331.8629
 31
0.0
  0
LINE
  5
2B2
100
AcDbEntity
  8
1
  6
CONTINUOUS
 62
     7
100
AcDbLine
 10
97.0492
 20
331.8629
 30
0.0
 11
97.0492
 21
333.6873
 31
0.0
  0
POLYLINE
  5
2B3
100
AcDbEntity
  8
1
  6
CONTINUOUS
 62
     7
100
AcDb2dPolyline
 66
     1
 10
0.0
 20
0.0
 30
0.0
 70
     1
  0
VERTEX
  5
2B4
100
AcDbEntity
  8
1
  6
CONTINUOUS
 62
     7
100
AcDbVertex
100
AcDb2dVertex
 10
99.0134
 20
331.8629
 30
0.0
  0
VERTEX
  5
2B5
100
AcDbEntity
  8
1
  6
CONTINUOUS
 62
     7
100
AcDbVertex
100
AcDb2dVertex
 10
97.0492
 20
333.6873
 30
0.0
  0
VERTEX
  5
2B6
100
AcDbEntity
  8
1
  6
CONTINUOUS
 62
     7
100
AcDbVertex
100
AcDb2dVertex
 10
99.0134
 20
333.6873
 30
0.0
  0
VERTEX
  5
2B7
100
AcDbEntity
  8
1
  6
CONTINUOUS
 62
     7
100
AcDbVertex
100
AcDb2dVertex
 10
99.0134
 20
331.8629
 30
0.0
  0
SEQEND
  5
2B8
100
AcDbEntity
  8
1
  6
CONTINUOUS
 62
     7
  0
POLYLINE
  5
2B9
100
AcDbEntity
  8
1
  6
CONTINUOUS
 62
     7
100
AcDb2dPolyline
 66
     1
 10
0.0
 20
0.0
 30
0.0
 70
     1
  0
VERTEX
  5
2BA
100
AcDbEntity
  8
1
  6
CONTINUOUS
 62
     7
100
AcDbVertex
100
AcDb2dVertex
 10
99.5044
 20
319.4428
 30
0.0
  0
VERTEX
  5
2BB
100
AcDbEntity
  8
1
  6
CONTINUOUS
 62
     7
100
AcDbVertex
100
AcDb2dVertex
 10
97.5402
 20
321.2672
 30
0.0
  0
VERTEX
  5
2BC
100
AcDbEntity
  8
1
  6
CONTINUOUS
 62
     7
100
AcDbVertex
100
AcDb2dVertex
 10
99.5044
 20
321.2672
 30
0.0
  0
VERTEX
  5
2BD
100
AcDbEntity
  8
1
  6
CONTINUOUS
 62
     7
100
AcDbVertex
100
AcDb2dVertex
 10
99.5044
 20
319.4428
 30
0.0
  0
SEQEND
  5
2BE
100
AcDbEntity
  8
1
  6
CONTINUOUS
 62
     7
  0
POLYLINE
  5
2BF
100
AcDbEntity
  8
1
  6
CONTINUOUS
 62
     7
100
AcDb2dPolyline
 66
     1
 10
0.0
 20
0.0
 30
0.0
 70
     1
  0
VERTEX
  5
2C0
100
AcDbEntity
  8
1
  6
CONTINUOUS
 62
     7
100
AcDbVertex
100
AcDb2dVertex
 10
90.9515
 20
285.5953
 30
0.0
  0
VERTEX
  5
2C1
100
AcDbEntity
  8
1
  6
CONTINUOUS
 62
     7
100
AcDbVertex
100
AcDb2dVertex
 10
94.071
 20
287.3963
 30
0.0
  0
VERTEX
  5
2C2
100
AcDbEntity
  8
1
  6
CONTINUOUS
 62
     7
100
AcDbVertex
100
AcDb2dVertex
 10
94.071
 20
283.7963
 30
0.0
  0
VERTEX
  5
2C3
100
AcDbEntity
  8
1
  6
CONTINUOUS
 62
     7
100
AcDbVertex
100
AcDb2dVertex
 10
90.9515
 20
285.5953
 30
0.0
  0
SEQEND
  5
2C4
100
AcDbEntity
  8
1
  6
CONTINUOUS
 62
     7
  0
POLYLINE
  5
2C5
100
AcDbEntity
  8
1
  6
CONTINUOUS
 62
     7
100
AcDb2dPolyline
 66
     1
 10
0.0
 20
0.0
 30
0.0
 70
     1
  0
VERTEX
  5
2C6
100
AcDbEntity
  8
1
  6
CONTINUOUS
 62
     7
100
AcDbVertex
100
AcDb2dVertex
 10
97.0376
 20
298.0976
 30
0.0
  0
VERTEX
  5
2C7
100
AcDbEntity
  8
1
  6
CONTINUOUS
 62
     7
100
AcDbVertex
100
AcDb2dVertex
 10
99.1161
 20
299.2976
 30
0.0
  0
VERTEX
  5
2C8
100
AcDbEntity
  8
1
  6
CONTINUOUS
 62
     7
100
AcDbVertex
100
AcDb2dVertex
 10
99.1161
 20
296.8976
 30
0.0
  0
VERTEX
  5
2C9
100
AcDbEntity
  8
1
  6
CONTINUOUS
 62
     7
100
AcDbVertex
100
AcDb2dVertex
 10
97.0308
 20
298.0976
 30
0.0
  0
VERTEX
  5
2CA
100
AcDbEntity
  8
1
  6
CONTINUOUS
 62
     7
100
AcDbVertex
100
AcDb2dVertex
 10
97.0376
 20
298.0976
 30
0.0
  0
SEQEND
  5
2CB
100
AcDbEntity
  8
1
  6
CONTINUOUS
 62
     7
  0
POLYLINE
  5
2CC
100
AcDbEntity
  8
1
  6
CONTINUOUS
 62
     7
100
AcDb2dPolyline
 66
     1
 10
0.0
 20
0.0
 30
0.0
 70
     1
  0
VERTEX
  5
2CD
100
AcDbEntity
  8
1
  6
CONTINUOUS
 62
     7
100
AcDbVertex
100
AcDb2dVertex
 10
97.5556
 20
284.9216
 30
0.0
  0
VERTEX
  5
2CE
100
AcDbEntity
  8
1
  6
CONTINUOUS
 62
     7
100
AcDbVertex
100
AcDb2dVertex
 10
99.6341
 20
286.1216
 30
0.0
  0
VERTEX
  5
2CF
100
AcDbEntity
  8
1
  6
CONTINUOUS
 62
     7
100
AcDbVertex
100
AcDb2dVertex
 10
99.6341
 20
283.7216
 30
0.0
  0
VERTEX
  5
2D0
100
AcDbEntity
  8
1
  6
CONTINUOUS
 62
     7
100
AcDbVertex
100
AcDb2dVertex
 10
97.5488
 20
284.9216
 30
0.0
  0
VERTEX
  5
2D1
100
AcDbEntity
  8
1
  6
CONTINUOUS
 62
     7
100
AcDbVertex
100
AcDb2dVertex
 10
97.5556
 20
284.9216
 30
0.0
  0
SEQEND
  5
2D2
100
AcDbEntity
  8
1
  6
CONTINUOUS
 62
     7
  0
LINE
  5
2D3
100
AcDbEntity
  8
1
  6
CONTINUOUS
 62
     7
100
AcDbLine
 10
104.6469
 20
154.1499
 30
0.0
 11
135.697
 21
154.1499
 31
0.0
  0
LINE
  5
2D4
100
AcDbEntity
  8
1
  6
CONTINUOUS
 62
     7
100
AcDbLine
 10
184.1141
 20
154.1499
 30
0.0
 11
214.7696
 21
154.1499
 31
0.0
  0
TEXT
  5
2D5
100
AcDbEntity
  8
1
  6
CONTINUOUS
 62
     7
100
AcDbText
 10
106.6734
 20
156.0862
 30
0.0
 40
4.8
  1
TYPE G
  7
MONOTXT
 72
     4
 11
120.2986
 21
158.4862
 31
0.0
210
0.0
220
0.0
230
1.0
100
AcDbText
  0
TEXT
  5
2D6
100
AcDbEntity
  8
1
  6
CONTINUOUS
 62
     7
100
AcDbText
 10
185.648
 20
156.0862
 30
0.0
 40
4.8
  1
TYPE F
  7
MONOTXT
 72
     4
 11
199.0464
 21
158.4862
 31
0.0
210
0.0
220
0.0
230
1.0
100
AcDbText
  0
LINE
  5
2D7
100
AcDbEntity
  8
1
  6
CONTINUOUS
 62
     2
100
AcDbLine
 10
123.0259
 20
103.7768
 30
0.0
 11
123.0259
 21
127.1768
 31
0.0
  0
LINE
  5
2D8
100
AcDbEntity
  8
1
  6
CONTINUOUS
 62
     2
100
AcDbLine
 10
123.0259
 20
96.5768
 30
0.0
 11
123.0259
 21
83.3768
 31
0.0
  0
LINE
  5
2D9
100
AcDbEntity
  8
1
  6
CONTINUOUS
 62
     2
100
AcDbLine
 10
120.0259
 20
101.6768
 30
0.0
 11
121.8259
 21
101.6768
 31
0.0
  0
LINE
  5
2DA
100
AcDbEntity
  8
1
  6
CONTINUOUS
 62
     2
100
AcDbLine
 10
120.0259
 20
101.6768
 30
0.0
 11
120.0259
 21
98.3768
 31
0.0
  0
LINE
  5
2DB
100
AcDbEntity
  8
1
  6
CONTINUOUS
 62
     2
100
AcDbLine
 10
120.0259
 20
98.3768
 30
0.0
 11
121.8259
 21
98.3768
 31
0.0
  0
LINE
  5
2DC
100
AcDbEntity
  8
1
  6
CONTINUOUS
 62
     2
100
AcDbLine
 10
124.2259
 20
96.5768
 30
0.0
 11
124.2259
 21
83.3768
 31
0.0
  0
LINE
  5
2DD
100
AcDbEntity
  8
1
  6
DASHED
 62
     2
100
AcDbLine
 10
124.2259
 20
102.5768
 30
0.0
 11
124.2259
 21
96.5768
 31
0.0
  0
LINE
  5
2DE
100
AcDbEntity
  8
1
  6
CONTINUOUS
 62
     2
100
AcDbLine
 10
124.2259
 20
102.5768
 30
0.0
 11
124.2259
 21
127.1768
 31
0.0
  0
LINE
  5
2DF
100
AcDbEntity
  8
1
  6
CONTINUOUS
 62
     2
100
AcDbLine
 10
126.9259
 20
101.9768
 30
0.0
 11
126.9259
 21
97.1768
 31
0.0
  0
LINE
  5
2E0
100
AcDbEntity
  8
1
  6
CONTINUOUS
 62
     2
100
AcDbLine
 10
123.0259
 20
96.5768
 30
0.0
 11
126.3259
 21
96.5768
 31
0.0
  0
LINE
  5
2E1
100
AcDbEntity
  8
1
  6
CONTINUOUS
 62
     2
100
AcDbLine
 10
123.0259
 20
102.5768
 30
0.0
 11
126.3259
 21
102.5768
 31
0.0
  0
ARC
  5
2E2
100
AcDbEntity
  8
1
  6
CONTINUOUS
 62
     2
100
AcDbCircle
 10
126.3259
 20
101.9768
 30
0.0
 40
0.6
210
0.0
220
0.0
230
1.0
100
AcDbArc
 50
0.0
 51
90.0
  0
ARC
  5
2E3
100
AcDbEntity
  8
1
  6
CONTINUOUS
 62
     2
100
AcDbCircle
 10
126.3259
 20
97.1768
 30
0.0
 40
0.6
210
0.0
220
0.0
230
1.0
100
AcDbArc
 50
270.0
 51
0.0
  0
LINE
  5
2E4
100
AcDbEntity
  8
1
  6
CONTINUOUS
 62
     2
100
AcDbLine
 10
126.9259
 20
99.5768
 30
0.0
 11
128.7259
 21
99.5768
 31
0.0
  0
LINE
  5
2E5
100
AcDbEntity
  8
1
  6
CONTINUOUS
 62
     2
100
AcDbLine
 10
126.9259
 20
101.3768
 30
0.0
 11
128.7259
 21
101.3768
 31
0.0
  0
LINE
  5
2E6
100
AcDbEntity
  8
1
  6
CONTINUOUS
 62
     2
100
AcDbLine
 10
126.9259
 20
97.7768
 30
0.0
 11
128.7259
 21
97.7768
 31
0.0
  0
LINE
  5
2E7
100
AcDbEntity
  8
1
  6
CONTINUOUS
 62
     2
100
AcDbLine
 10
126.9259
 20
100.4768
 30
0.0
 11
130.2259
 21
100.4768
 31
0.0
  0
LINE
  5
2E8
100
AcDbEntity
  8
1
  6
CONTINUOUS
 62
     2
100
AcDbLine
 10
126.9259
 20
98.6768
 30
0.0
 11
130.2259
 21
98.6768
 31
0.0
  0
LINE
  5
2E9
100
AcDbEntity
  8
1
  6
CONTINUOUS
 62
     2
100
AcDbLine
 10
128.7259
 20
101.3768
 30
0.0
 11
128.7259
 21
97.7768
 31
0.0
  0
LINE
  5
2EA
100
AcDbEntity
  8
1
  6
CONTINUOUS
 62
     2
100
AcDbLine
 10
130.5259
 20
100.1768
 30
0.0
 11
130.5259
 21
98.9768
 31
0.0
  0
ARC
  5
2EB
100
AcDbEntity
  8
1
  6
CONTINUOUS
 62
     2
100
AcDbCircle
 10
130.2259
 20
100.1768
 30
0.0
 40
0.3
210
0.0
220
0.0
230
1.0
100
AcDbArc
 50
0.0
 51
90.0
  0
ARC
  5
2EC
100
AcDbEntity
  8
1
  6
CONTINUOUS
 62
     2
100
AcDbCircle
 10
130.2259
 20
98.9768
 30
0.0
 40
0.3
210
0.0
220
0.0
230
1.0
100
AcDbArc
 50
270.0
 51
0.0
  0
LINE
  5
2ED
100
AcDbEntity
  8
1
  6
CONTINUOUS
 62
     2
100
AcDbLine
 10
129.3259
 20
100.4768
 30
0.0
 11
129.3259
 21
98.6768
 31
0.0
  0
LINE
  5
2EE
100
AcDbEntity
  8
1
  6
CONTINUOUS
 62
     2
100
AcDbLine
 10
129.9259
 20
99.8768
 30
0.0
 11
129.9259
 21
99.2768
 31
0.0
  0
LINE
  5
2EF
100
AcDbEntity
  8
1
  6
HIDDEN
 62
     2
100
AcDbLine
 10
126.9259
 20
100.4768
 30
0.0
 11
124.2259
 21
100.4768
 31
0.0
  0
LINE
  5
2F0
100
AcDbEntity
  8
1
  6
HIDDEN
 62
     2
100
AcDbLine
 10
126.9259
 20
98.6768
 30
0.0
 11
124.2259
 21
98.6768
 31
0.0
  0
LINE
  5
2F1
100
AcDbEntity
  8
1
  6
CONTINUOUS
 62
     2
100
AcDbLine
 10
107.7259
 20
107.8268
 30
0.0
 11
106.2259
 21
107.8268
 31
0.0
  0
LINE
  5
2F2
100
AcDbEntity
  8
1
  6
CONTINUOUS
 62
     2
100
AcDbLine
 10
107.7259
 20
106.9268
 30
0.0
 11
106.2259
 21
106.9268
 31
0.0
  0
LINE
  5
2F3
100
AcDbEntity
  8
1
  6
CONTINUOUS
 62
     2
100
AcDbLine
 10
107.7259
 20
107.8268
 30
0.0
 11
107.7259
 21
106.9268
 31
0.0
  0
LINE
  5
2F4
100
AcDbEntity
  8
1
  6
CONTINUOUS
 62
     2
100
AcDbLine
 10
106.9759
 20
108.4268
 30
0.0
 11
106.9759
 21
106.3268
 31
0.0
  0
LINE
  5
2F5
100
AcDbEntity
  8
1
  6
CONTINUOUS
 62
     2
100
AcDbLine
 10
106.9759
 20
108.4268
 30
0.0
 11
106.2259
 21
108.4268
 31
0.0
  0
LINE
  5
2F6
100
AcDbEntity
  8
1
  6
CONTINUOUS
 62
     2
100
AcDbLine
 10
106.9759
 20
106.3268
 30
0.0
 11
106.2259
 21
106.3268
 31
0.0
  0
LINE
  5
2F7
100
AcDbEntity
  8
1
  6
HIDDEN
 62
     2
100
AcDbLine
 10
106.2259
 20
107.8268
 30
0.0
 11
103.2259
 21
107.8268
 31
0.0
  0
LINE
  5
2F8
100
AcDbEntity
  8
1
  6
HIDDEN
 62
     2
100
AcDbLine
 10
106.2259
 20
106.9268
 30
0.0
 11
103.2259
 21
106.9268
 31
0.0
  0
ELLIPSE
  5
2F9
100
AcDbEntity
  8
1
  6
CONTINUOUS
 62
     2
100
AcDbEllipse
 10
103.2259
 20
107.6018
 30
0.0
 11
0.6
 21
-0.0000000000000001
 31
0.0
210
0.0
220
0.0
230
1.0
 40
0.375
 41
1.5707963267948966
 42
4.7123889803846897
  0
ELLIPSE
  5
2FA
100
AcDbEntity
  8
1
  6
CONTINUOUS
 62
     2
100
AcDbEllipse
 10
103.2259
 20
107.1518
 30
0.0
 11
0.6
 21
-0.0000000000000001
 31
0.0
210
0.0
220
0.0
230
1.0
 40
0.375
 41
1.5707963267948966
 42
4.7123889803846897
  0
LINE
  5
2FB
100
AcDbEntity
  8
1
  6
CONTINUOUS
 62
     2
100
AcDbLine
 10
123.0259
 20
127.1768
 30
0.0
 11
127.8259
 21
127.1768
 31
0.0
  0
LINE
  5
2FC
100
AcDbEntity
  8
1
  6
CONTINUOUS
 62
     2
100
AcDbLine
 10
123.0259
 20
83.3768
 30
0.0
 11
126.6259
 21
83.3768
 31
0.0
  0
LINE
  5
2FD
100
AcDbEntity
  8
1
  6
CONTINUOUS
 62
     2
100
AcDbLine
 10
130.2259
 20
127.1768
 30
0.0
 11
134.4259
 21
127.1768
 31
0.0
  0
LINE
  5
2FE
100
AcDbEntity
  8
1
  6
CONTINUOUS
 62
     2
100
AcDbLine
 10
129.0259
 20
83.3768
 30
0.0
 11
134.4259
 21
83.3768
 31
0.0
  0
LINE
  5
2FF
100
AcDbEntity
  8
1
  6
CONTINUOUS
 62
     2
100
AcDbLine
 10
134.4259
 20
127.1768
 30
0.0
 11
134.4259
 21
122.9768
 31
0.0
  0
LINE
  5
300
100
AcDbEntity
  8
1
  6
CONTINUOUS
 62
     2
100
AcDbLine
 10
134.4259
 20
83.3768
 30
0.0
 11
134.4259
 21
92.9768
 31
0.0
  0
LINE
  5
301
100
AcDbEntity
  8
1
  6
CONTINUOUS
 62
     2
100
AcDbLine
 10
134.4259
 20
120.5768
 30
0.0
 11
134.4259
 21
95.3768
 31
0.0
  0
LINE
  5
302
100
AcDbEntity
  8
1
  6
CONTINUOUS
 62
     2
100
AcDbLine
 10
128.4259
 20
128.3768
 30
0.0
 11
129.6259
 21
125.9768
 31
0.0
  0
LINE
  5
303
100
AcDbEntity
  8
1
  6
CONTINUOUS
 62
     2
100
AcDbLine
 10
135.6259
 20
122.3768
 30
0.0
 11
133.2259
 21
121.1768
 31
0.0
  0
LINE
  5
304
100
AcDbEntity
  8
1
  6
CONTINUOUS
 62
     2
100
AcDbLine
 10
128.4259
 20
128.3768
 30
0.0
 11
127.8259
 21
127.1768
 31
0.0
  0
LINE
  5
305
100
AcDbEntity
  8
1
  6
CONTINUOUS
 62
     2
100
AcDbLine
 10
130.2259
 20
127.1768
 30
0.0
 11
129.6259
 21
125.9768
 31
0.0
  0
LINE
  5
306
100
AcDbEntity
  8
1
  6
CONTINUOUS
 62
     2
100
AcDbLine
 10
135.6259
 20
122.3768
 30
0.0
 11
134.4259
 21
122.9768
 31
0.0
  0
LINE
  5
307
100
AcDbEntity
  8
1
  6
CONTINUOUS
 62
     2
100
AcDbLine
 10
133.2259
 20
121.1768
 30
0.0
 11
134.4259
 21
120.5768
 31
0.0
  0
LINE
  5
308
100
AcDbEntity
  8
1
  6
CONTINUOUS
 62
     2
100
AcDbLine
 10
135.6259
 20
94.7768
 30
0.0
 11
133.2259
 21
93.5768
 31
0.0
  0
LINE
  5
309
100
AcDbEntity
  8
1
  6
CONTINUOUS
 62
     2
100
AcDbLine
 10
127.2259
 20
84.5768
 30
0.0
 11
128.4259
 21
82.1768
 31
0.0
  0
LINE
  5
30A
100
AcDbEntity
  8
1
  6
CONTINUOUS
 62
     2
100
AcDbLine
 10
127.2259
 20
84.5768
 30
0.0
 11
126.6259
 21
83.3768
 31
0.0
  0
LINE
  5
30B
100
AcDbEntity
  8
1
  6
CONTINUOUS
 62
     2
100
AcDbLine
 10
128.4259
 20
82.1768
 30
0.0
 11
129.0259
 21
83.3768
 31
0.0
  0
LINE
  5
30C
100
AcDbEntity
  8
1
  6
CONTINUOUS
 62
     2
100
AcDbLine
 10
134.4259
 20
95.3768
 30
0.0
 11
135.6259
 21
94.7768
 31
0.0
  0
LINE
  5
30D
100
AcDbEntity
  8
1
  6
CONTINUOUS
 62
     2
100
AcDbLine
 10
133.2259
 20
93.5768
 30
0.0
 11
134.4259
 21
92.9768
 31
0.0
  0
LINE
  5
30E
100
AcDbEntity
  8
1
  6
CONTINUOUS
 62
     2
100
AcDbLine
 10
102.0259
 20
128.6768
 30
0.0
 11
103.2259
 21
128.6768
 31
0.0
  0
LINE
  5
30F
100
AcDbEntity
  8
1
  6
CONTINUOUS
 62
     2
100
AcDbLine
 10
104.7259
 20
128.6768
 30
0.0
 11
105.9259
 21
128.6768
 31
0.0
  0
LINE
  5
310
100
AcDbEntity
  8
1
  6
CONTINUOUS
 62
     2
100
AcDbLine
 10
102.0259
 20
87.8768
 30
0.0
 11
103.2259
 21
87.8768
 31
0.0
  0
LINE
  5
311
100
AcDbEntity
  8
1
  6
CONTINUOUS
 62
     2
100
AcDbLine
 10
104.7259
 20
87.8768
 30
0.0
 11
105.9259
 21
87.8768
 31
0.0
  0
LINE
  5
312
100
AcDbEntity
  8
1
  6
CONTINUOUS
 62
     2
100
AcDbLine
 10
103.2259
 20
128.6768
 30
0.0
 11
103.8259
 21
128.6768
 31
0.0
  0
LINE
  5
313
100
AcDbEntity
  8
1
  6
CONTINUOUS
 62
     2
100
AcDbLine
 10
103.8259
 20
128.6768
 30
0.0
 11
103.9759
 21
129.5768
 31
0.0
  0
LINE
  5
314
100
AcDbEntity
  8
1
  6
CONTINUOUS
 62
     2
100
AcDbLine
 10
103.9759
 20
129.5768
 30
0.0
 11
103.9759
 21
127.7768
 31
0.0
  0
LINE
  5
315
100
AcDbEntity
  8
1
  6
CONTINUOUS
 62
     2
100
AcDbLine
 10
103.9759
 20
127.7768
 30
0.0
 11
104.1259
 21
128.6768
 31
0.0
  0
LINE
  5
316
100
AcDbEntity
  8
1
  6
CONTINUOUS
 62
     2
100
AcDbLine
 10
104.1259
 20
128.6768
 30
0.0
 11
104.7259
 21
128.6768
 31
0.0
  0
LINE
  5
317
100
AcDbEntity
  8
1
  6
CONTINUOUS
 62
     2
100
AcDbLine
 10
104.7259
 20
87.8768
 30
0.0
 11
104.1259
 21
87.8768
 31
0.0
  0
LINE
  5
318
100
AcDbEntity
  8
1
  6
CONTINUOUS
 62
     2
100
AcDbLine
 10
103.9759
 20
88.7768
 30
0.0
 11
103.9759
 21
86.9768
 31
0.0
  0
LINE
  5
319
100
AcDbEntity
  8
1
  6
CONTINUOUS
 62
     2
100
AcDbLine
 10
103.9759
 20
86.9768
 30
0.0
 11
104.1259
 21
87.8768
 31
0.0
  0
LINE
  5
31A
100
AcDbEntity
  8
1
  6
CONTINUOUS
 62
     2
100
AcDbLine
 10
103.8259
 20
87.8768
 30
0.0
 11
103.9759
 21
88.7768
 31
0.0
  0
LINE
  5
31B
100
AcDbEntity
  8
1
  6
CONTINUOUS
 62
     2
100
AcDbLine
 10
103.8259
 20
87.8768
 30
0.0
 11
103.2259
 21
87.8768
 31
0.0
  0
LINE
  5
31C
100
AcDbEntity
  8
1
  6
CONTINUOUS
 62
     2
100
AcDbLine
 10
103.2259
 20
87.8768
 30
0.0
 11
103.2259
 21
128.6768
 31
0.0
  0
LINE
  5
31D
100
AcDbEntity
  8
1
  6
CONTINUOUS
 62
     2
100
AcDbLine
 10
103.2259
 20
127.919
 30
0.0
 11
103.9759
 21
128.669
 31
0.0
  0
LINE
  5
31E
100
AcDbEntity
  8
1
  6
CONTINUOUS
 62
     2
100
AcDbLine
 10
103.2259
 20
126.222
 30
0.0
 11
104.7259
 21
127.722
 31
0.0
  0
LINE
  5
31F
100
AcDbEntity
  8
1
  6
CONTINUOUS
 62
     2
100
AcDbLine
 10
103.2259
 20
124.5249
 30
0.0
 11
104.7259
 21
126.0249
 31
0.0
  0
LINE
  5
320
100
AcDbEntity
  8
1
  6
CONTINUOUS
 62
     2
100
AcDbLine
 10
103.2259
 20
122.8278
 30
0.0
 11
104.7259
 21
124.3278
 31
0.0
  0
LINE
  5
321
100
AcDbEntity
  8
1
  6
CONTINUOUS
 62
     2
100
AcDbLine
 10
103.2259
 20
121.1308
 30
0.0
 11
104.7259
 21
122.6308
 31
0.0
  0
LINE
  5
322
100
AcDbEntity
  8
1
  6
CONTINUOUS
 62
     2
100
AcDbLine
 10
103.2259
 20
119.4337
 30
0.0
 11
104.7259
 21
120.9337
 31
0.0
  0
LINE
  5
323
100
AcDbEntity
  8
1
  6
CONTINUOUS
 62
     2
100
AcDbLine
 10
103.2259
 20
117.7367
 30
0.0
 11
104.7259
 21
119.2367
 31
0.0
  0
LINE
  5
324
100
AcDbEntity
  8
1
  6
CONTINUOUS
 62
     2
100
AcDbLine
 10
103.2259
 20
116.0396
 30
0.0
 11
104.7259
 21
117.5396
 31
0.0
  0
LINE
  5
325
100
AcDbEntity
  8
1
  6
CONTINUOUS
 62
     2
100
AcDbLine
 10
103.2259
 20
114.3426
 30
0.0
 11
104.7259
 21
115.8426
 31
0.0
  0
LINE
  5
326
100
AcDbEntity
  8
1
  6
CONTINUOUS
 62
     2
100
AcDbLine
 10
103.2259
 20
112.6455
 30
0.0
 11
104.7259
 21
114.1455
 31
0.0
  0
LINE
  5
327
100
AcDbEntity
  8
1
  6
CONTINUOUS
 62
     2
100
AcDbLine
 10
103.2259
 20
110.9485
 30
0.0
 11
104.7259
 21
112.4485
 31
0.0
  0
LINE
  5
328
100
AcDbEntity
  8
1
  6
CONTINUOUS
 62
     2
100
AcDbLine
 10
103.2259
 20
109.2514
 30
0.0
 11
104.7259
 21
110.7514
 31
0.0
  0
LINE
  5
329
100
AcDbEntity
  8
1
  6
CONTINUOUS
 62
     2
100
AcDbLine
 10
103.2259
 20
104.1602
 30
0.0
 11
104.7259
 21
105.6602
 31
0.0
  0
LINE
  5
32A
100
AcDbEntity
  8
1
  6
CONTINUOUS
 62
     2
100
AcDbLine
 10
103.2259
 20
102.4632
 30
0.0
 11
104.7259
 21
103.9632
 31
0.0
  0
LINE
  5
32B
100
AcDbEntity
  8
1
  6
CONTINUOUS
 62
     2
100
AcDbLine
 10
103.2259
 20
100.7661
 30
0.0
 11
104.7259
 21
102.2661
 31
0.0
  0
LINE
  5
32C
100
AcDbEntity
  8
1
  6
CONTINUOUS
 62
     2
100
AcDbLine
 10
103.2259
 20
99.0691
 30
0.0
 11
104.7259
 21
100.5691
 31
0.0
  0
LINE
  5
32D
100
AcDbEntity
  8
1
  6
CONTINUOUS
 62
     2
100
AcDbLine
 10
103.2259
 20
97.372
 30
0.0
 11
104.7259
 21
98.872
 31
0.0
  0
LINE
  5
32E
100
AcDbEntity
  8
1
  6
CONTINUOUS
 62
     2
100
AcDbLine
 10
103.2259
 20
95.6749
 30
0.0
 11
104.7259
 21
97.1749
 31
0.0
  0
LINE
  5
32F
100
AcDbEntity
  8
1
  6
CONTINUOUS
 62
     2
100
AcDbLine
 10
103.2259
 20
93.9779
 30
0.0
 11
104.7259
 21
95.4779
 31
0.0
  0
LINE
  5
330
100
AcDbEntity
  8
1
  6
CONTINUOUS
 62
     2
100
AcDbLine
 10
103.2259
 20
92.2808
 30
0.0
 11
104.7259
 21
93.7808
 31
0.0
  0
LINE
  5
331
100
AcDbEntity
  8
1
  6
CONTINUOUS
 62
     2
100
AcDbLine
 10
103.2259
 20
90.5838
 30
0.0
 11
104.7259
 21
92.0838
 31
0.0
  0
LINE
  5
332
100
AcDbEntity
  8
1
  6
CONTINUOUS
 62
     2
100
AcDbLine
 10
103.2259
 20
88.8867
 30
0.0
 11
104.7259
 21
90.3867
 31
0.0
  0
LINE
  5
333
100
AcDbEntity
  8
1
  6
CONTINUOUS
 62
     2
100
AcDbLine
 10
103.9759
 20
87.9397
 30
0.0
 11
104.7259
 21
88.6897
 31
0.0
  0
LINE
  5
334
100
AcDbEntity
  8
1
  6
CONTINUOUS
 62
     2
100
AcDbLine
 10
104.7259
 20
128.6768
 30
0.0
 11
104.7259
 21
110.9768
 31
0.0
  0
LINE
  5
335
100
AcDbEntity
  8
1
  6
CONTINUOUS
 62
     2
100
AcDbLine
 10
104.7259
 20
102.2768
 30
0.0
 11
104.7259
 21
87.8768
 31
0.0
  0
LINE
  5
336
100
AcDbEntity
  8
1
  6
CONTINUOUS
 62
     2
100
AcDbLine
 10
104.7259
 20
110.9768
 30
0.0
 11
106.2259
 21
110.9768
 31
0.0
  0
LINE
  5
337
100
AcDbEntity
  8
1
  6
CONTINUOUS
 62
     2
100
AcDbLine
 10
106.2259
 20
110.9768
 30
0.0
 11
106.2259
 21
103.7768
 31
0.0
  0
LINE
  5
338
100
AcDbEntity
  8
1
  6
CONTINUOUS
 62
     2
100
AcDbLine
 10
106.2259
 20
103.7768
 30
0.0
 11
123.0259
 21
103.7768
 31
0.0
  0
LINE
  5
339
100
AcDbEntity
  8
1
  6
CONTINUOUS
 62
     2
100
AcDbLine
 10
123.0259
 20
103.7768
 30
0.0
 11
123.0259
 21
96.5768
 31
0.0
  0
LINE
  5
33A
100
AcDbEntity
  8
1
  6
CONTINUOUS
 62
     2
100
AcDbLine
 10
123.0259
 20
96.5768
 30
0.0
 11
118.2259
 21
96.5768
 31
0.0
  0
LINE
  5
33B
100
AcDbEntity
  8
1
  6
CONTINUOUS
 62
     2
100
AcDbLine
 10
118.2259
 20
96.5768
 30
0.0
 11
118.2259
 21
102.2768
 31
0.0
  0
LINE
  5
33C
100
AcDbEntity
  8
1
  6
CONTINUOUS
 62
     2
100
AcDbLine
 10
118.2259
 20
102.2768
 30
0.0
 11
104.7259
 21
102.2768
 31
0.0
  0
LINE
  5
33D
100
AcDbEntity
  8
1
  6
CONTINUOUS
 62
     2
100
AcDbLine
 10
104.7259
 20
102.2768
 30
0.0
 11
104.7259
 21
110.9768
 31
0.0
  0
LINE
  5
33E
100
AcDbEntity
  8
1
  6
CONTINUOUS
 62
     2
100
AcDbLine
 10
119.4259
 20
97.7768
 30
0.0
 11
119.4259
 21
102.2768
 31
0.0
  0
LINE
  5
33F
100
AcDbEntity
  8
1
  6
CONTINUOUS
 62
     2
100
AcDbLine
 10
119.4259
 20
102.2768
 30
0.0
 11
121.8259
 21
102.2768
 31
0.0
  0
LINE
  5
340
100
AcDbEntity
  8
1
  6
CONTINUOUS
 62
     2
100
AcDbLine
 10
121.8259
 20
102.2768
 30
0.0
 11
121.8259
 21
97.7768
 31
0.0
  0
LINE
  5
341
100
AcDbEntity
  8
1
  6
CONTINUOUS
 62
     2
100
AcDbLine
 10
121.8259
 20
101.0768
 30
0.0
 11
123.0259
 21
101.0768
 31
0.0
  0
LINE
  5
342
100
AcDbEntity
  8
1
  6
CONTINUOUS
 62
     2
100
AcDbLine
 10
123.0259
 20
103.7768
 30
0.0
 11
123.0259
 21
96.5768
 31
0.0
  0
LINE
  5
343
100
AcDbEntity
  8
1
  6
CONTINUOUS
 62
     2
100
AcDbLine
 10
123.0259
 20
98.9768
 30
0.0
 11
121.8259
 21
98.9768
 31
0.0
  0
LINE
  5
344
100
AcDbEntity
  8
1
  6
CONTINUOUS
 62
     2
100
AcDbLine
 10
121.8259
 20
97.7768
 30
0.0
 11
119.4259
 21
97.7768
 31
0.0
  0
LINE
  5
345
100
AcDbEntity
  8
1
  6
CONTINUOUS
 62
     2
100
AcDbLine
 10
105.5397
 20
102.2768
 30
0.0
 11
104.7259
 21
103.0906
 31
0.0
  0
LINE
  5
346
100
AcDbEntity
  8
1
  6
CONTINUOUS
 62
     2
100
AcDbLine
 10
107.2367
 20
102.2768
 30
0.0
 11
104.7259
 21
104.7876
 31
0.0
  0
LINE
  5
347
100
AcDbEntity
  8
1
  6
CONTINUOUS
 62
     2
100
AcDbLine
 10
108.9338
 20
102.2768
 30
0.0
 11
107.4338
 21
103.7768
 31
0.0
  0
LINE
  5
348
100
AcDbEntity
  8
1
  6
CONTINUOUS
 62
     2
100
AcDbLine
 10
106.2259
 20
104.9847
 30
0.0
 11
104.7259
 21
106.4847
 31
0.0
  0
LINE
  5
349
100
AcDbEntity
  8
1
  6
CONTINUOUS
 62
     2
100
AcDbLine
 10
110.6309
 20
102.2768
 30
0.0
 11
109.1309
 21
103.7768
 31
0.0
  0
LINE
  5
34A
100
AcDbEntity
  8
1
  6
CONTINUOUS
 62
     2
100
AcDbLine
 10
112.3279
 20
102.2768
 30
0.0
 11
110.8279
 21
103.7768
 31
0.0
  0
LINE
  5
34B
100
AcDbEntity
  8
1
  6
CONTINUOUS
 62
     2
100
AcDbLine
 10
106.2259
 20
108.3788
 30
0.0
 11
104.7259
 21
109.8788
 31
0.0
  0
LINE
  5
34C
100
AcDbEntity
  8
1
  6
CONTINUOUS
 62
     2
100
AcDbLine
 10
119.725
 20
96.5768
 30
0.0
 11
118.2259
 21
98.0759
 31
0.0
  0
LINE
  5
34D
100
AcDbEntity
  8
1
  6
CONTINUOUS
 62
     2
100
AcDbLine
 10
114.025
 20
102.2768
 30
0.0
 11
112.525
 21
103.7768
 31
0.0
  0
LINE
  5
34E
100
AcDbEntity
  8
1
  6
CONTINUOUS
 62
     2
100
AcDbLine
 10
106.2259
 20
110.0759
 30
0.0
 11
105.325
 21
110.9768
 31
0.0
  0
LINE
  5
34F
100
AcDbEntity
  8
1
  6
CONTINUOUS
 62
     2
100
AcDbLine
 10
121.422
 20
96.5768
 30
0.0
 11
120.222
 21
97.7768
 31
0.0
  0
LINE
  5
350
100
AcDbEntity
  8
1
  6
CONTINUOUS
 62
     2
100
AcDbLine
 10
119.4259
 20
98.5729
 30
0.0
 11
118.2259
 21
99.7729
 31
0.0
  0
LINE
  5
351
100
AcDbEntity
  8
1
  6
CONTINUOUS
 62
     2
100
AcDbLine
 10
115.722
 20
102.2768
 30
0.0
 11
114.222
 21
103.7768
 31
0.0
  0
POINT
  5
352
100
AcDbEntity
  8
1
  6
CONTINUOUS
 62
     2
100
AcDbPoint
 10
123.0259
 20
96.67
 30
0.0
  0
POINT
  5
353
100
AcDbEntity
  8
1
  6
CONTINUOUS
 62
     2
100
AcDbPoint
 10
123.0259
 20
96.67
 30
0.0
  0
LINE
  5
354
100
AcDbEntity
  8
1
  6
CONTINUOUS
 62
     2
100
AcDbLine
 10
123.0259
 20
96.67
 30
0.0
 11
121.8259
 21
97.87
 31
0.0
  0
LINE
  5
355
100
AcDbEntity
  8
1
  6
CONTINUOUS
 62
     2
100
AcDbLine
 10
119.4259
 20
100.27
 30
0.0
 11
118.2259
 21
101.47
 31
0.0
  0
LINE
  5
356
100
AcDbEntity
  8
1
  6
CONTINUOUS
 62
     2
100
AcDbLine
 10
117.4191
 20
102.2768
 30
0.0
 11
115.9191
 21
103.7768
 31
0.0
  0
POINT
  5
357
100
AcDbEntity
  8
1
  6
CONTINUOUS
 62
     2
100
AcDbPoint
 10
123.0259
 20
98.367
 30
0.0
  0
POINT
  5
358
100
AcDbEntity
  8
1
  6
CONTINUOUS
 62
     2
100
AcDbPoint
 10
123.0259
 20
98.367
 30
0.0
  0
LINE
  5
359
100
AcDbEntity
  8
1
  6
CONTINUOUS
 62
     2
100
AcDbLine
 10
123.0259
 20
98.367
 30
0.0
 11
122.4161
 21
98.9768
 31
0.0
  0
LINE
  5
35A
100
AcDbEntity
  8
1
  6
CONTINUOUS
 62
     2
100
AcDbLine
 10
119.4259
 20
101.967
 30
0.0
 11
117.6161
 21
103.7768
 31
0.0
  0
LINE
  5
35B
100
AcDbEntity
  8
1
  6
CONTINUOUS
 62
     2
100
AcDbLine
 10
122.0132
 20
101.0768
 30
0.0
 11
121.8259
 21
101.2641
 31
0.0
  0
LINE
  5
35C
100
AcDbEntity
  8
1
  6
CONTINUOUS
 62
     2
100
AcDbLine
 10
120.8132
 20
102.2768
 30
0.0
 11
119.3132
 21
103.7768
 31
0.0
  0
POINT
  5
35D
100
AcDbEntity
  8
1
  6
CONTINUOUS
 62
     2
100
AcDbPoint
 10
123.0259
 20
101.7612
 30
0.0
  0
POINT
  5
35E
100
AcDbEntity
  8
1
  6
CONTINUOUS
 62
     2
100
AcDbPoint
 10
123.0259
 20
101.7612
 30
0.0
  0
LINE
  5
35F
100
AcDbEntity
  8
1
  6
CONTINUOUS
 62
     2
100
AcDbLine
 10
123.0259
 20
101.7612
 30
0.0
 11
121.0103
 21
103.7768
 31
0.0
  0
POINT
  5
360
100
AcDbEntity
  8
1
  6
CONTINUOUS
 62
     2
100
AcDbPoint
 10
123.0259
 20
103.4582
 30
0.0
  0
POINT
  5
361
100
AcDbEntity
  8
1
  6
CONTINUOUS
 62
     2
100
AcDbPoint
 10
123.0259
 20
103.4582
 30
0.0
  0
LINE
  5
362
100
AcDbEntity
  8
1
  6
CONTINUOUS
 62
     2
100
AcDbLine
 10
123.0259
 20
103.4582
 30
0.0
 11
122.7073
 21
103.7768
 31
0.0
  0
LINE
  5
363
100
AcDbEntity
  8
1
  6
CONTINUOUS
 62
     7
100
AcDbLine
 10
111.1965
 20
102.2768
 30
0.0
 11
100.1576
 21
91.3286
 31
0.0
  0
LINE
  5
364
100
AcDbEntity
  8
1
  6
CONTINUOUS
 62
     7
100
AcDbLine
 10
100.1576
 20
91.3286
 30
0.0
 11
95.9627
 21
91.3286
 31
0.0
  0
LINE
  5
365
100
AcDbEntity
  8
1
  6
CONTINUOUS
 62
     7
100
AcDbLine
 10
126.5426
 20
102.5363
 30
0.0
 11
137.4453
 21
111.7503
 31
0.0
  0
LINE
  5
366
100
AcDbEntity
  8
1
  6
CONTINUOUS
 62
     7
100
AcDbLine
 10
137.4453
 20
111.7503
 30
0.0
 11
141.3605
 21
111.7503
 31
0.0
  0
INSERT
  5
367
100
AcDbEntity
  8
1
  6
CONTINUOUS
 62
     1
100
AcDbBlockReference
  2
LDR
 10
111.1965
 20
102.2768
 30
0.0
 41
240.0
 42
240.0
 50
44.763648
210
0.0
220
0.0
230
1.0
  0
INSERT
  5
368
100
AcDbEntity
  8
1
  6
CONTINUOUS
 62
     1
100
AcDbBlockReference
  2
LDR
 10
111.1965
 20
102.2768
 30
0.0
 41
240.0
 42
240.0
 50
44.763648
210
0.0
220
0.0
230
1.0
  0
INSERT
  5
369
100
AcDbEntity
  8
1
  6
CONTINUOUS
 62
     1
100
AcDbBlockReference
  2
LDR
 10
126.5426
 20
102.5363
 30
0.0
 41
239.999998
 42
239.999998
 50
220.201546
210
0.0
220
0.0
230
1.0
  0
TEXT
  5
36A
100
AcDbEntity
  8
1
  6
CONTINUOUS
 62
     7
100
AcDbText
 10
142.386
 20
110.3355
 30
0.0
 40
3.0
  1
FOR POST CLIP
  7
MONOTXT
 11
142.386
 21
113.3355
 31
0.0
210
0.0
220
0.0
230
1.0
100
AcDbText
 73
     3
  0
TEXT
  5
36B
100
AcDbEntity
  8
1
  6
CONTINUOUS
 62
     7
100
AcDbText
 10
142.386
 20
104.9355
 30
0.0
 40
3.0
  1
DETAILS SEE
  7
MONOTXT
 11
142.386
 21
107.9355
 31
0.0
210
0.0
220
0.0
230
1.0
100
AcDbText
 73
     3
  0
TEXT
  5
36C
100
AcDbEntity
  8
1
  6
CONTINUOUS
 62
     7
100
AcDbText
 10
142.386
 20
99.5355
 30
0.0
 40
3.0
  1
TE7-1
  7
MONOTXT
 11
142.386
 21
102.5355
 31
0.0
210
0.0
220
0.0
230
1.0
100
AcDbText
 73
     3
  0
TEXT
  5
36D
100
AcDbEntity
  8
1
  6
CONTINUOUS
 62
     7
100
AcDbText
 10
62.7684
 20
89.6421
 30
0.0
 40
3.0
  1
EXTRUDED RIB
  7
MONOTXT
 72
     4
 11
79.0085
 21
91.1421
 31
0.0
210
0.0
220
0.0
230
1.0
100
AcDbText
  0
TEXT
  5
36E
100
AcDbEntity
  8
1
  6
CONTINUOUS
 62
     7
100
AcDbText
 10
101.4872
 20
69.5034
 30
0.0
 40
4.2
  1
ELEVATION
  7
MONOTXT
 72
     4
 11
118.0722
 21
71.6034
 31
0.0
210
0.0
220
0.0
230
1.0
100
AcDbText
  0
TEXT
  5
36F
100
AcDbEntity
  8
1
  6
CONTINUOUS
 62
     7
100
AcDbText
 10
82.1407
 20
61.7034
 30
0.0
 40
4.2
  1
TYPICAL WIDE FLANGE
  7
MONOTXT
 72
     4
 11
118.0721
 21
63.8034
 31
0.0
210
0.0
220
0.0
230
1.0
100
AcDbText
  0
TEXT
  5
370
100
AcDbEntity
  8
1
  6
CONTINUOUS
 62
     7
100
AcDbText
 10
116.6337
 20
53.9034
 30
0.0
 40
4.2
  1
&
  7
MONOTXT
 72
     4
 11
118.0557
 21
56.0034
 31
0.0
210
0.0
220
0.0
230
1.0
100
AcDbText
  0
TEXT
  5
371
100
AcDbEntity
  8
1
  6
CONTINUOUS
 62
     7
100
AcDbText
 10
95.1376
 20
46.1034
 30
0.0
 40
4.2
  1
RIB ASSEMBLY
  7
MONOTXT
 72
     4
 11
118.0722
 21
48.2034
 31
0.0
210
0.0
220
0.0
230
1.0
100
AcDbText
  0
LINE
  5
372
100
AcDbEntity
  8
1
  6
CONTINUOUS
 62
     7
100
AcDbLine
 10
99.1322
 20
67.7364
 30
0.0
 11
136.4871
 21
67.7364
 31
0.0
  0
LINE
  5
373
100
AcDbEntity
  8
1
  6
CONTINUOUS
 62
     7
100
AcDbLine
 10
80.8612
 20
59.9035
 30
0.0
 11
155.3343
 21
59.9035
 31
0.0
  0
LINE
  5
374
100
AcDbEntity
  8
1
  6
CONTINUOUS
 62
     7
100
AcDbLine
 10
92.7933
 20
44.6105
 30
0.0
 11
141.6334
 21
44.6105
 31
0.0
  0
LINE
  5
375
100
AcDbEntity
  8
1
  6
DASHED
 62
     6
100
AcDbLine
 10
558.0096
 20
244.2725
 30
0.0
 11
558.0096
 21
196.8725
 31
0.0
  0
LINE
  5
376
100
AcDbEntity
  8
1
  6
DASHED
 62
     6
100
AcDbLine
 10
578.4096
 20
238.2725
 30
0.0
 11
578.4096
 21
196.8725
 31
0.0
  0
LINE
  5
377
100
AcDbEntity
  8
1
  6
CONTINUOUS
 62
     6
100
AcDbLine
 10
545.3459
 20
247.997
 30
0.0
 11
583.5901
 21
236.7489
 31
0.0
  0
ARC
  5
378
100
AcDbEntity
  8
1
  6
DASHED
 62
     6
100
AcDbCircle
 10
563.1096
 20
204.805222
 30
0.0
 40
9.430699
210
0.0
220
0.0
230
1.0
100
AcDbArc
 50
237.262767
 51
302.737233
  0
ARC
  5
379
100
AcDbEntity
  8
1
  6
DASHED
 62
     6
100
AcDbCircle
 10
573.3096
 20
204.805222
 30
0.0
 40
9.430699
210
0.0
220
0.0
230
1.0
100
AcDbArc
 50
237.262767
 51
302.737233
  0
ARC
  5
37A
100
AcDbEntity
  8
1
  6
DASHED
 62
     6
100
AcDbCircle
 10
573.3096
 20
188.920378
 30
0.0
 40
9.430699
210
0.0
220
0.0
230
1.0
100
AcDbArc
 50
57.262767
 51
122.737233
  0
LINE
  5
37B
100
AcDbEntity
  8
1
  6
CONTINUOUS
 62
     6
100
AcDbLine
 10
565.2096
 20
241.2725
 30
0.0
 11
568.2096
 21
241.2725
 31
0.0
  0
LINE
  5
37C
100
AcDbEntity
  8
1
  6
DASHED
 62
     6
100
AcDbLine
 10
571.2096
 20
198.1143
 30
0.0
 11
571.2096
 21
237.6725
 31
0.0
  0
LINE
  5
37D
100
AcDbEntity
  8
1
  6
DASHED
 62
     6
100
AcDbLine
 10
565.2096
 20
195.6113
 30
0.0
 11
565.2096
 21
238.8725
 31
0.0
  0
LINE
  5
37E
100
AcDbEntity
  8
1
  6
CONTINUOUS
 62
     6
100
AcDbLine
 10
563.7096
 20
256.2725
 30
0.0
 11
572.7096
 21
256.2725
 31
0.0
  0
LINE
  5
37F
100
AcDbEntity
  8
1
  6
CONTINUOUS
 62
     6
100
AcDbLine
 10
562.8096
 20
247.5725
 30
0.0
 11
573.6096
 21
247.5725
 31
0.0
  0
LINE
  5
380
100
AcDbEntity
  8
1
  6
CONTINUOUS
 62
     6
100
AcDbLine
 10
562.8096
 20
245.7725
 30
0.0
 11
573.6096
 21
245.7725
 31
0.0
  0
LINE
  5
381
100
AcDbEntity
  8
1
  6
CONTINUOUS
 62
     6
100
AcDbLine
 10
562.8096
 20
247.5725
 30
0.0
 11
562.8096
 21
245.7725
 31
0.0
  0
LINE
  5
382
100
AcDbEntity
  8
1
  6
CONTINUOUS
 62
     6
100
AcDbLine
 10
573.6096
 20
247.5725
 30
0.0
 11
573.6096
 21
245.7725
 31
0.0
  0
LINE
  5
383
100
AcDbEntity
  8
1
  6
HIDDEN
 62
     6
100
AcDbLine
 10
567.6096
 20
196.5174
 30
0.0
 11
567.6096
 21
245.7725
 31
0.0
  0
LINE
  5
384
100
AcDbEntity
  8
1
  6
HIDDEN
 62
     6
100
AcDbLine
 10
567.6096
 20
247.5725
 30
0.0
 11
567.6096
 21
256.2725
 31
0.0
  0
LINE
  5
385
100
AcDbEntity
  8
1
  6
HIDDEN
 62
     6
100
AcDbLine
 10
568.8096
 20
197.2082
 30
0.0
 11
568.8096
 21
245.7725
 31
0.0
  0
LINE
  5
386
100
AcDbEntity
  8
1
  6
HIDDEN
 62
     6
100
AcDbLine
 10
568.8096
 20
247.5725
 30
0.0
 11
568.8096
 21
256.2725
 31
0.0
  0
LINE
  5
387
100
AcDbEntity
  8
1
  6
CONTINUOUS
 62
     6
100
AcDbLine
 10
565.2096
 20
241.2725
 30
0.0
 11
565.2096
 21
245.7725
 31
0.0
  0
LINE
  5
388
100
AcDbEntity
  8
1
  6
CONTINUOUS
 62
     6
100
AcDbLine
 10
565.2096
 20
247.5725
 30
0.0
 11
565.2096
 21
256.2725
 31
0.0
  0
LINE
  5
389
100
AcDbEntity
  8
1
  6
CONTINUOUS
 62
     6
100
AcDbLine
 10
571.2096
 20
240.3902
 30
0.0
 11
571.2096
 21
245.7725
 31
0.0
  0
LINE
  5
38A
100
AcDbEntity
  8
1
  6
CONTINUOUS
 62
     6
100
AcDbLine
 10
571.2096
 20
247.5725
 30
0.0
 11
571.2096
 21
256.2725
 31
0.0
  0
LINE
  5
38B
100
AcDbEntity
  8
1
  6
CONTINUOUS
 62
     7
100
AcDbLine
 10
564.0096
 20
241.2725
 30
0.0
 11
541.2096
 21
241.2725
 31
0.0
  0
LINE
  5
38C
100
AcDbEntity
  8
1
  6
CONTINUOUS
 62
     7
100
AcDbLine
 10
542.4096
 20
241.2725
 30
0.0
 11
542.4096
 21
216.6725
 31
0.0
  0
LINE
  5
38D
100
AcDbEntity
  8
1
  6
CONTINUOUS
 62
     7
100
AcDbLine
 10
549.0096
 20
216.6725
 30
0.0
 11
541.2096
 21
216.6725
 31
0.0
  0
LINE
  5
38E
100
AcDbEntity
  8
1
  6
CONTINUOUS
 62
     7
100
AcDbLine
 10
552.6096
 20
216.6725
 30
0.0
 11
550.2096
 21
216.6725
 31
0.0
  0
LINE
  5
38F
100
AcDbEntity
  8
1
  6
CONTINUOUS
 62
     7
100
AcDbLine
 10
563.4096
 20
216.6725
 30
0.0
 11
553.8096
 21
216.6725
 31
0.0
  0
LINE
  5
390
100
AcDbEntity
  8
1
  6
CONTINUOUS
 62
     7
100
AcDbLine
 10
568.2096
 20
216.6725
 30
0.0
 11
567.0096
 21
216.6725
 31
0.0
  0
LINE
  5
391
100
AcDbEntity
  8
1
  6
CONTINUOUS
 62
     7
100
AcDbLine
 10
565.8096
 20
216.6725
 30
0.0
 11
564.6096
 21
216.6725
 31
0.0
  0
LINE
  5
392
100
AcDbEntity
  8
1
  6
CONTINUOUS
 62
     7
100
AcDbLine
 10
568.2096
 20
216.6725
 30
0.0
 11
581.8784
 21
228.1759
 31
0.0
  0
LINE
  5
393
100
AcDbEntity
  8
1
  6
CONTINUOUS
 62
     7
100
AcDbLine
 10
581.8784
 20
228.1759
 30
0.0
 11
597.4784
 21
228.1759
 31
0.0
  0
CIRCLE
  5
394
100
AcDbEntity
  8
1
  6
CONTINUOUS
 62
     7
100
AcDbCircle
 10
581.8784
 20
228.1759
 30
0.0
 40
1.2
210
0.0
220
0.0
230
1.0
  0
LINE
  5
395
100
AcDbEntity
  8
1
  6
CONTINUOUS
 62
     7
100
AcDbLine
 10
591.4784
 20
228.1759
 30
0.0
 11
591.4784
 21
223.3759
 31
0.0
  0
LINE
  5
396
100
AcDbEntity
  8
1
  6
CONTINUOUS
 62
     7
100
AcDbLine
 10
591.4784
 20
228.1759
 30
0.0
 11
596.1382
 21
224.6302
 31
0.0
  0
LINE
  5
397
100
AcDbEntity
  8
1
  6
CONTINUOUS
 62
     7
100
AcDbLine
 10
551.3101
 20
216.6725
 30
0.0
 11
548.6026
 21
210.2401
 31
0.0
  0
LINE
  5
398
100
AcDbEntity
  8
1
  6
CONTINUOUS
 62
     7
100
AcDbLine
 10
548.6026
 20
210.2401
 30
0.0
 11
545.3773
 21
210.2401
 31
0.0
  0
LINE
  5
399
100
AcDbEntity
  8
1
  6
CONTINUOUS
 62
     7
100
AcDbLine
 10
571.2096
 20
252.6817
 30
0.0
 11
578.9656
 21
258.1913
 31
0.0
  0
LINE
  5
39A
100
AcDbEntity
  8
1
  6
CONTINUOUS
 62
     7
100
AcDbLine
 10
578.9656
 20
258.1913
 30
0.0
 11
581.19
 21
258.1913
 31
0.0
  0
INSERT
  5
39B
100
AcDbEntity
  8
1
  6
CONTINUOUS
 62
     1
100
AcDbBlockReference
  2
LDR
 10
571.2096
 20
252.6817
 30
0.0
 41
240.000001
 42
240.000001
 50
215.388698
210
0.0
220
0.0
230
1.0
  0
INSERT
  5
39C
100
AcDbEntity
  8
1
  6
CONTINUOUS
 62
     1
100
AcDbBlockReference
  2
LDR
 10
571.2096
 20
252.6817
 30
0.0
 41
240.000001
 42
240.000001
 50
215.388698
210
0.0
220
0.0
230
1.0
  0
INSERT
  5
39D
100
AcDbEntity
  8
1
  6
CONTINUOUS
 62
     1
100
AcDbBlockReference
  2
LDR
 10
542.4096
 20
241.2725
 30
0.0
 41
240.0
 42
240.0
 50
90.0
210
0.0
220
0.0
230
1.0
  0
INSERT
  5
39E
100
AcDbEntity
  8
1
  6
CONTINUOUS
 62
     1
100
AcDbBlockReference
  2
LDR
 10
542.4096
 20
241.2725
 30
0.0
 41
240.0
 42
240.0
 50
90.0
210
0.0
220
0.0
230
1.0
  0
INSERT
  5
39F
100
AcDbEntity
  8
1
  6
CONTINUOUS
 62
     1
100
AcDbBlockReference
  2
LDR
 10
542.4096
 20
216.6725
 30
0.0
 41
240.0
 42
240.0
 50
270.0
210
0.0
220
0.0
230
1.0
  0
INSERT
  5
3A0
100
AcDbEntity
  8
1
  6
CONTINUOUS
 62
     1
100
AcDbBlockReference
  2
LDR
 10
542.4096
 20
216.6725
 30
0.0
 41
240.0
 42
240.0
 50
270.0
210
0.0
220
0.0
230
1.0
  0
INSERT
  5
3A1
100
AcDbEntity
  8
1
  6
CONTINUOUS
 62
     1
100
AcDbBlockReference
  2
LDR
 10
551.3101
 20
216.6725
 30
0.0
 41
240.0
 42
240.0
 50
67.172996
210
0.0
220
0.0
230
1.0
  0
TEXT
  5
3A2
100
AcDbEntity
  8
1
  6
CONTINUOUS
 62
     7
100
AcDbText
 10
581.8266
 20
256.6913
 30
0.0
 40
3.0
  1
S BEAM POST
  7
MONOTXT
 72
     4
 11
597.9958
 21
258.1913
 31
0.0
210
0.0
220
0.0
230
1.0
100
AcDbText
  0
TEXT
  5
3A3
100
AcDbEntity
  8
1
  6
CONTINUOUS
 62
     7
100
AcDbText
 10
530.1815
 20
208.8513
 30
0.0
 40
3.0
  1
SPLICE
  7
MONOTXT
 72
     4
 11
537.4925
 21
210.3513
 31
0.0
210
0.0
220
0.0
230
1.0
100
AcDbText
  0
TEXT
  5
3A4
100
AcDbEntity
  8
1
  6
CONTINUOUS
 62
     7
100
AcDbText
 10
525.2957
 20
209.9639
 30
0.0
 40
3.0
  1
C
  7
MONOTXT
 72
     4
 11
526.3705
 21
211.4639
 31
0.0
210
0.0
220
0.0
230
1.0
100
AcDbText
  0
TEXT
  5
3A5
100
AcDbEntity
  8
1
  6
CONTINUOUS
 62
     7
100
AcDbText
 10
526.3981
 20
208.5176
 30
0.0
 40
3.0
  1
L
  7
MONOTXT
 72
     4
 11
527.2603
 21
210.0176
 31
0.0
210
0.0
220
0.0
230
1.0
100
AcDbText
  0
TEXT
  5
3A6
100
AcDbEntity
  8
1
  6
CONTINUOUS
 62
     7
100
AcDbText
 10
546.8477
 20
181.8897
 30
0.0
 40
4.8
  1
PERMISSIBLE
  7
MONOTXT
 72
     4
 11
568.8634
 21
184.2897
 31
0.0
210
0.0
220
0.0
230
1.0
100
AcDbText
  0
TEXT
  5
3A7
100
AcDbEntity
  8
1
  6
CONTINUOUS
 62
     7
100
AcDbText
 10
545.0336
 20
173.4897
 30
0.0
 40
4.8
  1
SHOP SPLICE
  7
MONOTXT
 72
     4
 11
568.8634
 21
175.8897
 31
0.0
210
0.0
220
0.0
230
1.0
100
AcDbText
  0
LINE
  5
3A8
100
AcDbEntity
  8
1
  6
CONTINUOUS
 62
     7
100
AcDbLine
 10
545.4885
 20
180.4236
 30
0.0
 11
592.3916
 21
180.4236
 31
0.0
  0
LINE
  5
3A9
100
AcDbEntity
  8
1
  6
CONTINUOUS
 62
     7
100
AcDbLine
 10
543.709
 20
171.7456
 30
0.0
 11
594.1065
 21
171.7456
 31
0.0
  0
POLYLINE
  5
3AA
100
AcDbEntity
  8
1
  6
CONTINUOUS
 62
    30
100
AcDb2dPolyline
 66
     1
 10
0.0
 20
0.0
 30
0.0
  0
VERTEX
  5
3AB
100
AcDbEntity
  8
1
  6
CONTINUOUS
 62
    30
100
AcDbVertex
100
AcDb2dVertex
 10
686.2123
 20
226.9436
 30
0.0
  0
VERTEX
  5
3AC
100
AcDbEntity
  8
1
  6
CONTINUOUS
 62
    30
100
AcDbVertex
100
AcDb2dVertex
 10
686.2123
 20
258.7436
 30
0.0
  0
VERTEX
  5
3AD
100
AcDbEntity
  8
1
  6
CONTINUOUS
 62
    30
100
AcDbVertex
100
AcDb2dVertex
 10
688.6123
 20
258.7436
 30
0.0
  0
VERTEX
  5
3AE
100
AcDbEntity
  8
1
  6
CONTINUOUS
 62
    30
100
AcDbVertex
100
AcDb2dVertex
 10
688.6123
 20
229.3436
 30
0.0
 42
0.414214
  0
VERTEX
  5
3AF
100
AcDbEntity
  8
1
  6
CONTINUOUS
 62
    30
100
AcDbVertex
100
AcDb2dVertex
 10
689.5123
 20
228.4436
 30
0.0
  0
VERTEX
  5
3B0
100
AcDbEntity
  8
1
  6
CONTINUOUS
 62
    30
100
AcDbVertex
100
AcDb2dVertex
 10
744.4123
 20
228.4436
 30
0.0
 42
-0.414214
  0
VERTEX
  5
3B1
100
AcDbEntity
  8
1
  6
CONTINUOUS
 62
    30
100
AcDbVertex
100
AcDb2dVertex
 10
745.6123
 20
227.2436
 30
0.0
  0
VERTEX
  5
3B2
100
AcDbEntity
  8
1
  6
CONTINUOUS
 62
    30
100
AcDbVertex
100
AcDb2dVertex
 10
745.6123
 20
221.8436
 30
0.0
  0
VERTEX
  5
3B3
100
AcDbEntity
  8
1
  6
CONTINUOUS
 62
    30
100
AcDbVertex
100
AcDb2dVertex
 10
740.8123
 20
221.8436
 30
0.0
  0
VERTEX
  5
3B4
100
AcDbEntity
  8
1
  6
CONTINUOUS
 62
    30
100
AcDbVertex
100
AcDb2dVertex
 10
740.8123
 20
226.0436
 30
0.0
  0
VERTEX
  5
3B5
100
AcDbEntity
  8
1
  6
CONTINUOUS
 62
    30
100
AcDbVertex
100
AcDb2dVertex
 10
733.3123
 20
226.0436
 30
0.0
 42
0.414214
  0
VERTEX
  5
3B6
100
AcDbEntity
  8
1
  6
CONTINUOUS
 62
    30
100
AcDbVertex
100
AcDb2dVertex
 10
732.4123
 20
225.1436
 30
0.0
  0
VERTEX
  5
3B7
100
AcDbEntity
  8
1
  6
CONTINUOUS
 62
    30
100
AcDbVertex
100
AcDb2dVertex
 10
732.4123
 20
205.3436
 30
0.0
 42
0.414214
  0
VERTEX
  5
3B8
100
AcDbEntity
  8
1
  6
CONTINUOUS
 62
    30
100
AcDbVertex
100
AcDb2dVertex
 10
733.3123
 20
204.4436
 30
0.0
  0
VERTEX
  5
3B9
100
AcDbEntity
  8
1
  6
CONTINUOUS
 62
    30
100
AcDbVertex
100
AcDb2dVertex
 10
740.8123
 20
204.4436
 30
0.0
  0
VERTEX
  5
3BA
100
AcDbEntity
  8
1
  6
CONTINUOUS
 62
    30
100
AcDbVertex
100
AcDb2dVertex
 10
740.8123
 20
208.6436
 30
0.0
  0
VERTEX
  5
3BB
100
AcDbEntity
  8
1
  6
CONTINUOUS
 62
    30
100
AcDbVertex
100
AcDb2dVertex
 10
745.6123
 20
208.6436
 30
0.0
  0
VERTEX
  5
3BC
100
AcDbEntity
  8
1
  6
CONTINUOUS
 62
    30
100
AcDbVertex
100
AcDb2dVertex
 10
745.6123
 20
202.6436
 30
0.0
 42
-0.414214
  0
VERTEX
  5
3BD
100
AcDbEntity
  8
1
  6
CONTINUOUS
 62
    30
100
AcDbVertex
100
AcDb2dVertex
 10
744.4123
 20
201.4436
 30
0.0
  0
VERTEX
  5
3BE
100
AcDbEntity
  8
1
  6
CONTINUOUS
 62
    30
100
AcDbVertex
100
AcDb2dVertex
 10
730.6123
 20
201.4436
 30
0.0
 42
-0.414214
  0
VERTEX
  5
3BF
100
AcDbEntity
  8
1
  6
CONTINUOUS
 62
    30
100
AcDbVertex
100
AcDb2dVertex
 10
729.4123
 20
202.6436
 30
0.0
  0
VERTEX
  5
3C0
100
AcDbEntity
  8
1
  6
CONTINUOUS
 62
    30
100
AcDbVertex
100
AcDb2dVertex
 10
729.4123
 20
225.1436
 30
0.0
 42
0.414214
  0
VERTEX
  5
3C1
100
AcDbEntity
  8
1
  6
CONTINUOUS
 62
    30
100
AcDbVertex
100
AcDb2dVertex
 10
728.5123
 20
226.0436
 30
0.0
  0
VERTEX
  5
3C2
100
AcDbEntity
  8
1
  6
CONTINUOUS
 62
    30
100
AcDbVertex
100
AcDb2dVertex
 10
687.1123
 20
226.0436
 30
0.0
 42
-0.414214
  0
VERTEX
  5
3C3
100
AcDbEntity
  8
1
  6
CONTINUOUS
 62
    30
100
AcDbVertex
100
AcDb2dVertex
 10
686.2123
 20
226.9436
 30
0.0
  0
SEQEND
  5
3C4
100
AcDbEntity
  8
1
  6
CONTINUOUS
 62
    30
  0
LINE
  5
3C5
100
AcDbEntity
  8
1
  6
CONTINUOUS
 62
    30
100
AcDbLine
 10
686.2123
 20
254.2952
 30
0.0
 11
688.6123
 21
256.6952
 31
0.0
  0
LINE
  5
3C6
100
AcDbEntity
  8
1
  6
CONTINUOUS
 62
    30
100
AcDbLine
 10
686.2123
 20
247.5069
 30
0.0
 11
688.6123
 21
249.9069
 31
0.0
  0
LINE
  5
3C7
100
AcDbEntity
  8
1
  6
CONTINUOUS
 62
    30
100
AcDbLine
 10
686.2123
 20
240.7187
 30
0.0
 11
688.6123
 21
243.1187
 31
0.0
  0
LINE
  5
3C8
100
AcDbEntity
  8
1
  6
CONTINUOUS
 62
    30
100
AcDbLine
 10
686.2123
 20
233.9305
 30
0.0
 11
688.6123
 21
236.3305
 31
0.0
  0
LINE
  5
3C9
100
AcDbEntity
  8
1
  6
CONTINUOUS
 62
    30
100
AcDbLine
 10
686.2123
 20
227.1423
 30
0.0
 11
688.6123
 21
229.5423
 31
0.0
  0
LINE
  5
3CA
100
AcDbEntity
  8
1
  6
CONTINUOUS
 62
    30
100
AcDbLine
 10
691.9019
 20
226.0436
 30
0.0
 11
694.3019
 21
228.4436
 31
0.0
  0
LINE
  5
3CB
100
AcDbEntity
  8
1
  6
CONTINUOUS
 62
    30
100
AcDbLine
 10
698.6901
 20
226.0436
 30
0.0
 11
701.0901
 21
228.4436
 31
0.0
  0
LINE
  5
3CC
100
AcDbEntity
  8
1
  6
CONTINUOUS
 62
    30
100
AcDbLine
 10
705.4783
 20
226.0436
 30
0.0
 11
707.8783
 21
228.4436
 31
0.0
  0
LINE
  5
3CD
100
AcDbEntity
  8
1
  6
CONTINUOUS
 62
    30
100
AcDbLine
 10
712.2665
 20
226.0436
 30
0.0
 11
714.6665
 21
228.4436
 31
0.0
  0
LINE
  5
3CE
100
AcDbEntity
  8
1
  6
CONTINUOUS
 62
    30
100
AcDbLine
 10
719.0548
 20
226.0436
 30
0.0
 11
721.4548
 21
228.4436
 31
0.0
  0
LINE
  5
3CF
100
AcDbEntity
  8
1
  6
CONTINUOUS
 62
    30
100
AcDbLine
 10
725.843
 20
226.0436
 30
0.0
 11
728.243
 21
228.4436
 31
0.0
  0
LINE
  5
3D0
100
AcDbEntity
  8
1
  6
CONTINUOUS
 62
    30
100
AcDbLine
 10
729.4123
 20
222.8247
 30
0.0
 11
735.0312
 21
228.4436
 31
0.0
  0
LINE
  5
3D1
100
AcDbEntity
  8
1
  6
CONTINUOUS
 62
    30
100
AcDbLine
 10
729.4123
 20
216.0364
 30
0.0
 11
732.4123
 21
219.0364
 31
0.0
  0
LINE
  5
3D2
100
AcDbEntity
  8
1
  6
CONTINUOUS
 62
    30
100
AcDbLine
 10
739.4195
 20
226.0436
 30
0.0
 11
741.8195
 21
228.4436
 31
0.0
  0
LINE
  5
3D3
100
AcDbEntity
  8
1
  6
CONTINUOUS
 62
    30
100
AcDbLine
 10
729.4123
 20
209.2482
 30
0.0
 11
732.4123
 21
212.2482
 31
0.0
  0
LINE
  5
3D4
100
AcDbEntity
  8
1
  6
CONTINUOUS
 62
    30
100
AcDbLine
 10
742.0077
 20
221.8436
 30
0.0
 11
745.6123
 21
225.4482
 31
0.0
  0
LINE
  5
3D5
100
AcDbEntity
  8
1
  6
CONTINUOUS
 62
    30
100
AcDbLine
 10
729.4259
 20
202.4736
 30
0.0
 11
732.4123
 21
205.46
 31
0.0
  0
LINE
  5
3D6
100
AcDbEntity
  8
1
  6
CONTINUOUS
 62
    30
100
AcDbLine
 10
735.1841
 20
201.4436
 30
0.0
 11
738.1841
 21
204.4436
 31
0.0
  0
LINE
  5
3D7
100
AcDbEntity
  8
1
  6
CONTINUOUS
 62
    30
100
AcDbLine
 10
740.8123
 20
207.0718
 30
0.0
 11
742.3841
 21
208.6436
 31
0.0
  0
LINE
  5
3D8
100
AcDbEntity
  8
1
  6
CONTINUOUS
 62
    30
100
AcDbLine
 10
741.9724
 20
201.4436
 30
0.0
 11
745.6123
 21
205.0835
 31
0.0
  0
LINE
  5
3D9
100
AcDbEntity
  8
1
  6
CONTINUOUS
 62
     7
100
AcDbLine
 10
685.0123
 20
258.7436
 30
0.0
 11
671.8123
 21
258.7436
 31
0.0
  0
LINE
  5
3DA
100
AcDbEntity
  8
1
  6
CONTINUOUS
 62
     7
100
AcDbLine
 10
686.2123
 20
259.9436
 30
0.0
 11
686.2123
 21
273.1436
 31
0.0
  0
LINE
  5
3DB
100
AcDbEntity
  8
1
  6
CONTINUOUS
 62
     7
100
AcDbLine
 10
685.0123
 20
226.0436
 30
0.0
 11
671.8123
 21
226.0436
 31
0.0
  0
LINE
  5
3DC
100
AcDbEntity
  8
1
  6
CONTINUOUS
 62
     7
100
AcDbLine
 10
688.6123
 20
259.9436
 30
0.0
 11
688.6123
 21
264.7436
 31
0.0
  0
LINE
  5
3DD
100
AcDbEntity
  8
1
  6
CONTINUOUS
 62
     7
100
AcDbLine
 10
745.6123
 20
229.6436
 30
0.0
 11
745.6123
 21
273.1436
 31
0.0
  0
LINE
  5
3DE
100
AcDbEntity
  8
1
  6
CONTINUOUS
 62
     7
100
AcDbLine
 10
686.2123
 20
271.9436
 30
0.0
 11
745.6123
 21
271.9436
 31
0.0
  0
LINE
  5
3DF
100
AcDbEntity
  8
1
  6
CONTINUOUS
 62
     7
100
AcDbLine
 10
688.6123
 20
263.5436
 30
0.0
 11
745.6123
 21
263.5436
 31
0.0
  0
LINE
  5
3E0
100
AcDbEntity
  8
1
  6
CONTINUOUS
 62
     7
100
AcDbLine
 10
685.0123
 20
228.4436
 30
0.0
 11
679.9123
 21
228.4436
 31
0.0
  0
LINE
  5
3E1
100
AcDbEntity
  8
1
  6
CONTINUOUS
 62
     7
100
AcDbLine
 10
673.0123
 20
258.7436
 30
0.0
 11
673.0123
 21
226.0436
 31
0.0
  0
LINE
  5
3E2
100
AcDbEntity
  8
1
  6
CONTINUOUS
 62
     7
100
AcDbLine
 10
681.1123
 20
228.4436
 30
0.0
 11
681.1123
 21
258.7436
 31
0.0
  0
LINE
  5
3E3
100
AcDbEntity
  8
1
  6
CONTINUOUS
 62
     7
100
AcDbLine
 10
746.8123
 20
226.0436
 30
0.0
 11
755.2123
 21
226.0436
 31
0.0
  0
LINE
  5
3E4
100
AcDbEntity
  8
1
  6
CONTINUOUS
 62
     7
100
AcDbLine
 10
746.8123
 20
221.8436
 30
0.0
 11
763.6123
 21
221.8436
 31
0.0
  0
LINE
  5
3E5
100
AcDbEntity
  8
1
  6
CONTINUOUS
 62
     7
100
AcDbLine
 10
746.8123
 20
208.6436
 30
0.0
 11
755.2123
 21
208.6436
 31
0.0
  0
LINE
  5
3E6
100
AcDbEntity
  8
1
  6
CONTINUOUS
 62
     7
100
AcDbLine
 10
746.8123
 20
204.4436
 30
0.0
 11
755.2123
 21
204.4436
 31
0.0
  0
LINE
  5
3E7
100
AcDbEntity
  8
1
  6
CONTINUOUS
 62
     7
100
AcDbLine
 10
728.2123
 20
204.4436
 30
0.0
 11
721.3123
 21
204.4436
 31
0.0
  0
LINE
  5
3E8
100
AcDbEntity
  8
1
  6
CONTINUOUS
 62
     7
100
AcDbLine
 10
728.2123
 20
201.4436
 30
0.0
 11
710.2123
 21
201.4436
 31
0.0
  0
LINE
  5
3E9
100
AcDbEntity
  8
1
  6
CONTINUOUS
 62
     7
100
AcDbLine
 10
745.6123
 20
200.2436
 30
0.0
 11
745.6123
 21
187.0436
 31
0.0
  0
LINE
  5
3EA
100
AcDbEntity
  8
1
  6
CONTINUOUS
 62
     7
100
AcDbLine
 10
732.4123
 20
200.2436
 30
0.0
 11
732.4123
 21
195.1436
 31
0.0
  0
LINE
  5
3EB
100
AcDbEntity
  8
1
  6
CONTINUOUS
 62
     7
100
AcDbLine
 10
740.8791
 20
200.2436
 30
0.0
 11
740.8791
 21
195.1436
 31
0.0
  0
LINE
  5
3EC
100
AcDbEntity
  8
1
  6
CONTINUOUS
 62
     7
100
AcDbLine
 10
711.4123
 20
201.4436
 30
0.0
 11
711.4123
 21
226.0436
 31
0.0
  0
LINE
  5
3ED
100
AcDbEntity
  8
1
  6
CONTINUOUS
 62
     7
100
AcDbLine
 10
722.5123
 20
204.4436
 30
0.0
 11
722.5123
 21
226.0436
 31
0.0
  0
LINE
  5
3EE
100
AcDbEntity
  8
1
  6
CONTINUOUS
 62
     7
100
AcDbLine
 10
729.4123
 20
188.2436
 30
0.0
 11
745.6123
 21
188.2436
 31
0.0
  0
LINE
  5
3EF
100
AcDbEntity
  8
1
  6
CONTINUOUS
 62
     7
100
AcDbLine
 10
754.0123
 20
208.6436
 30
0.0
 11
754.0123
 21
221.8436
 31
0.0
  0
LINE
  5
3F0
100
AcDbEntity
  8
1
  6
CONTINUOUS
 62
     7
100
AcDbLine
 10
762.4123
 20
233.2436
 30
0.0
 11
762.4123
 21
228.4436
 31
0.0
  0
LINE
  5
3F1
100
AcDbEntity
  8
1
  6
CONTINUOUS
 62
     7
100
AcDbLine
 10
762.4123
 20
221.8436
 30
0.0
 11
762.4123
 21
217.0436
 31
0.0
  0
LINE
  5
3F2
100
AcDbEntity
  8
1
  6
CONTINUOUS
 62
     7
100
AcDbLine
 10
754.0123
 20
226.0436
 30
0.0
 11
754.0123
 21
239.1847
 31
0.0
  0
LINE
  5
3F3
100
AcDbEntity
  8
1
  6
CONTINUOUS
 62
     7
100
AcDbLine
 10
746.8123
 20
228.4436
 30
0.0
 11
752.8123
 21
228.4436
 31
0.0
  0
LINE
  5
3F4
100
AcDbEntity
  8
1
  6
CONTINUOUS
 62
     7
100
AcDbLine
 10
755.2123
 20
228.4436
 30
0.0
 11
763.6123
 21
228.4436
 31
0.0
  0
LINE
  5
3F5
100
AcDbEntity
  8
1
  6
CONTINUOUS
 62
     7
100
AcDbLine
 10
754.0123
 20
204.4436
 30
0.0
 11
754.0123
 21
199.6436
 31
0.0
  0
INSERT
  5
3F6
100
AcDbEntity
  8
1
  6
CONTINUOUS
 62
     1
100
AcDbBlockReference
  2
LDR
 10
729.4123
 20
188.2436
 30
0.0
 41
240.0
 42
240.0
 50
180.0
210
0.0
220
0.0
230
1.0
  0
INSERT
  5
3F7
100
AcDbEntity
  8
1
  6
CONTINUOUS
 62
     1
100
AcDbBlockReference
  2
LDR
 10
729.4123
 20
188.2436
 30
0.0
 41
240.0
 42
240.0
 50
180.0
210
0.0
220
0.0
230
1.0
  0
INSERT
  5
3F8
100
AcDbEntity
  8
1
  6
CONTINUOUS
 62
     1
100
AcDbBlockReference
  2
LDR
 10
745.6123
 20
188.2436
 30
0.0
 41
240.0
 42
240.0
210
0.0
220
0.0
230
1.0
  0
INSERT
  5
3F9
100
AcDbEntity
  8
1
  6
CONTINUOUS
 62
     1
100
AcDbBlockReference
  2
LDR
 10
745.6123
 20
188.2436
 30
0.0
 41
240.0
 42
240.0
210
0.0
220
0.0
230
1.0
  0
LINE
  5
3FA
100
AcDbEntity
  8
1
  6
CONTINUOUS
 62
     7
100
AcDbLine
 10
725.8262
 20
196.3436
 30
0.0
 11
732.4123
 21
196.3436
 31
0.0
  0
INSERT
  5
3FB
100
AcDbEntity
  8
1
  6
CONTINUOUS
 62
     1
100
AcDbBlockReference
  2
LDR
 10
732.4123
 20
196.3436
 30
0.0
 41
240.0
 42
240.0
210
0.0
220
0.0
230
1.0
  0
LINE
  5
3FC
100
AcDbEntity
  8
1
  6
CONTINUOUS
 62
     7
100
AcDbLine
 10
729.4123
 20
200.2436
 30
0.0
 11
729.4123
 21
197.5436
 31
0.0
  0
LINE
  5
3FD
100
AcDbEntity
  8
1
  6
CONTINUOUS
 62
     7
100
AcDbLine
 10
729.4123
 20
195.1436
 30
0.0
 11
729.4123
 21
187.0436
 31
0.0
  0
ELLIPSE
  5
3FE
100
AcDbEntity
  8
1
  6
CONTINUOUS
 62
     1
100
AcDbEllipse
 10
742.19934
 20
196.66546
 30
0.0
 11
-2.142840110963327
 21
-0.1873800031127871
 31
0.0
210
0.0
220
0.0
230
1.0
 40
0.122415
 41
0.8963533496766983
 42
1.6307732575427427
  0
ELLIPSE
  5
3FF
100
AcDbEntity
  8
1
  6
CONTINUOUS
 62
     1
100
AcDbEllipse
 10
740.80764
 20
196.46526
 30
0.0
 11
-2.142840110963327
 21
-0.1873800031127871
 31
0.0
210
0.0
220
0.0
230
1.0
 40
0.122415
 41
2.3639969361320174
 42
3.1415926535897931
  0
ELLIPSE
  5
400
100
AcDbEntity
  8
1
  6
CONTINUOUS
 62
     1
100
AcDbEllipse
 10
742.19934
 20
196.02174
 30
0.0
 11
-2.142840110963327
 21
0.1873800031127867
 31
0.0
210
0.0
220
0.0
230
1.0
 40
0.122415
 41
4.652412049636844
 42
5.3868319575028885
  0
ELLIPSE
  5
401
100
AcDbEntity
  8
1
  6
CONTINUOUS
 62
     1
100
AcDbEllipse
 10
740.80764
 20
196.22194
 30
0.0
 11
-2.142840110963327
 21
0.1873800031127867
 31
0.0
210
0.0
220
0.0
230
1.0
 40
0.122415
 41
3.1415926535897931
 42
3.9191883710475688
  0
ELLIPSE
  5
402
100
AcDbEntity
  8
1
  6
CONTINUOUS
 62
     1
100
AcDbEllipse
 10
744.29206
 20
196.66546
 30
0.0
 11
2.142840110963327
 21
-0.1873800031127869
 31
0.0
210
0.0
220
0.0
230
1.0
 40
0.122415
 41
4.652412049636844
 42
5.3868319575028885
  0
ELLIPSE
  5
403
100
AcDbEntity
  8
1
  6
CONTINUOUS
 62
     1
100
AcDbEllipse
 10
745.68376
 20
196.46526
 30
0.0
 11
2.142840110963327
 21
-0.1873800031127869
 31
0.0
210
0.0
220
0.0
230
1.0
 40
0.122415
 41
3.1415926535897931
 42
3.9191883710475688
  0
ELLIPSE
  5
404
100
AcDbEntity
  8
1
  6
CONTINUOUS
 62
     1
100
AcDbEllipse
 10
744.29206
 20
196.02174
 30
0.0
 11
2.142840110963327
 21
0.1873800031127871
 31
0.0
210
0.0
220
0.0
230
1.0
 40
0.122415
 41
0.8963533496766983
 42
1.6307732575427427
  0
ELLIPSE
  5
405
100
AcDbEntity
  8
1
  6
CONTINUOUS
 62
     1
100
AcDbEllipse
 10
745.68376
 20
196.22194
 30
0.0
 11
2.142840110963327
 21
0.1873800031127871
 31
0.0
210
0.0
220
0.0
230
1.0
 40
0.122415
 41
2.3639969361320174
 42
3.1415926535897931
  0
LINE
  5
406
100
AcDbEntity
  8
1
  6
CONTINUOUS
 62
     7
100
AcDbLine
 10
745.6123
 20
196.3436
 30
0.0
 11
740.8791
 21
196.3436
 31
0.0
  0
LINE
  5
407
100
AcDbEntity
  8
1
  6
CONTINUOUS
 62
     7
100
AcDbLine
 10
722.5123
 20
201.4436
 30
0.0
 11
722.5123
 21
196.6436
 31
0.0
  0
INSERT
  5
408
100
AcDbEntity
  8
1
  6
CONTINUOUS
 62
     1
100
AcDbBlockReference
  2
LDR
 10
711.4123
 20
226.0436
 30
0.0
 41
240.0
 42
240.0
 50
90.0
210
0.0
220
0.0
230
1.0
  0
INSERT
  5
409
100
AcDbEntity
  8
1
  6
CONTINUOUS
 62
     1
100
AcDbBlockReference
  2
LDR
 10
711.4123
 20
226.0436
 30
0.0
 41
240.0
 42
240.0
 50
90.0
210
0.0
220
0.0
230
1.0
  0
INSERT
  5
40A
100
AcDbEntity
  8
1
  6
CONTINUOUS
 62
     1
100
AcDbBlockReference
  2
LDR
 10
722.5123
 20
226.0436
 30
0.0
 41
240.0
 42
240.0
 50
90.0
210
0.0
220
0.0
230
1.0
  0
INSERT
  5
40B
100
AcDbEntity
  8
1
  6
CONTINUOUS
 62
     1
100
AcDbBlockReference
  2
LDR
 10
722.5123
 20
226.0436
 30
0.0
 41
240.0
 42
240.0
 50
90.0
210
0.0
220
0.0
230
1.0
  0
INSERT
  5
40C
100
AcDbEntity
  8
1
  6
CONTINUOUS
 62
     1
100
AcDbBlockReference
  2
LDR
 10
722.5123
 20
204.4436
 30
0.0
 41
240.0
 42
240.0
 50
270.0
210
0.0
220
0.0
230
1.0
  0
INSERT
  5
40D
100
AcDbEntity
  8
1
  6
CONTINUOUS
 62
     1
100
AcDbBlockReference
  2
LDR
 10
722.5123
 20
204.4436
 30
0.0
 41
240.0
 42
240.0
 50
270.0
210
0.0
220
0.0
230
1.0
  0
INSERT
  5
40E
100
AcDbEntity
  8
1
  6
CONTINUOUS
 62
     1
100
AcDbBlockReference
  2
LDR
 10
711.4123
 20
201.4436
 30
0.0
 41
240.0
 42
240.0
 50
270.0
210
0.0
220
0.0
230
1.0
  0
INSERT
  5
40F
100
AcDbEntity
  8
1
  6
CONTINUOUS
 62
     1
100
AcDbBlockReference
  2
LDR
 10
711.4123
 20
201.4436
 30
0.0
 41
240.0
 42
240.0
 50
270.0
210
0.0
220
0.0
230
1.0
  0
INSERT
  5
410
100
AcDbEntity
  8
1
  6
CONTINUOUS
 62
     1
100
AcDbBlockReference
  2
LDR
 10
722.5123
 20
201.4436
 30
0.0
 41
240.0
 42
240.0
 50
90.0
210
0.0
220
0.0
230
1.0
  0
INSERT
  5
411
100
AcDbEntity
  8
1
  6
CONTINUOUS
 62
     1
100
AcDbBlockReference
  2
LDR
 10
673.0123
 20
258.7436
 30
0.0
 41
240.0
 42
240.0
 50
90.0
210
0.0
220
0.0
230
1.0
  0
INSERT
  5
412
100
AcDbEntity
  8
1
  6
CONTINUOUS
 62
     1
100
AcDbBlockReference
  2
LDR
 10
673.0123
 20
258.7436
 30
0.0
 41
240.0
 42
240.0
 50
90.0
210
0.0
220
0.0
230
1.0
  0
INSERT
  5
413
100
AcDbEntity
  8
1
  6
CONTINUOUS
 62
     1
100
AcDbBlockReference
  2
LDR
 10
681.1123
 20
258.7436
 30
0.0
 41
240.0
 42
240.0
 50
90.0
210
0.0
220
0.0
230
1.0
  0
INSERT
  5
414
100
AcDbEntity
  8
1
  6
CONTINUOUS
 62
     1
100
AcDbBlockReference
  2
LDR
 10
681.1123
 20
258.7436
 30
0.0
 41
240.0
 42
240.0
 50
90.0
210
0.0
220
0.0
230
1.0
  0
INSERT
  5
415
100
AcDbEntity
  8
1
  6
CONTINUOUS
 62
     1
100
AcDbBlockReference
  2
LDR
 10
681.1123
 20
228.4436
 30
0.0
 41
240.0
 42
240.0
 50
270.0
210
0.0
220
0.0
230
1.0
  0
INSERT
  5
416
100
AcDbEntity
  8
1
  6
CONTINUOUS
 62
     1
100
AcDbBlockReference
  2
LDR
 10
681.1123
 20
228.4436
 30
0.0
 41
240.0
 42
240.0
 50
270.0
210
0.0
220
0.0
230
1.0
  0
INSERT
  5
417
100
AcDbEntity
  8
1
  6
CONTINUOUS
 62
     1
100
AcDbBlockReference
  2
LDR
 10
673.0123
 20
226.0436
 30
0.0
 41
240.0
 42
240.0
 50
270.0
210
0.0
220
0.0
230
1.0
  0
INSERT
  5
418
100
AcDbEntity
  8
1
  6
CONTINUOUS
 62
     1
100
AcDbBlockReference
  2
LDR
 10
673.0123
 20
226.0436
 30
0.0
 41
240.0
 42
240.0
 50
270.0
210
0.0
220
0.0
230
1.0
  0
INSERT
  5
419
100
AcDbEntity
  8
1
  6
CONTINUOUS
 62
     1
100
AcDbBlockReference
  2
LDR
 10
762.4123
 20
228.4436
 30
0.0
 41
240.0
 42
240.0
 50
270.0
210
0.0
220
0.0
230
1.0
  0
INSERT
  5
41A
100
AcDbEntity
  8
1
  6
CONTINUOUS
 62
     1
100
AcDbBlockReference
  2
LDR
 10
762.4123
 20
228.4436
 30
0.0
 41
240.0
 42
240.0
 50
270.0
210
0.0
220
0.0
230
1.0
  0
INSERT
  5
41B
100
AcDbEntity
  8
1
  6
CONTINUOUS
 62
     1
100
AcDbBlockReference
  2
LDR
 10
762.4123
 20
221.8436
 30
0.0
 41
240.0
 42
240.0
 50
90.0
210
0.0
220
0.0
230
1.0
  0
INSERT
  5
41C
100
AcDbEntity
  8
1
  6
CONTINUOUS
 62
     1
100
AcDbBlockReference
  2
LDR
 10
762.4123
 20
221.8436
 30
0.0
 41
240.0
 42
240.0
 50
90.0
210
0.0
220
0.0
230
1.0
  0
INSERT
  5
41D
100
AcDbEntity
  8
1
  6
CONTINUOUS
 62
     1
100
AcDbBlockReference
  2
LDR
 10
754.0123
 20
226.0436
 30
0.0
 41
240.0
 42
240.0
 50
270.0
210
0.0
220
0.0
230
1.0
  0
INSERT
  5
41E
100
AcDbEntity
  8
1
  6
CONTINUOUS
 62
     1
100
AcDbBlockReference
  2
LDR
 10
754.0123
 20
221.8436
 30
0.0
 41
240.0
 42
240.0
 50
90.0
210
0.0
220
0.0
230
1.0
  0
INSERT
  5
41F
100
AcDbEntity
  8
1
  6
CONTINUOUS
 62
     1
100
AcDbBlockReference
  2
LDR
 10
754.0123
 20
221.8436
 30
0.0
 41
240.0
 42
240.0
 50
90.0
210
0.0
220
0.0
230
1.0
  0
INSERT
  5
420
100
AcDbEntity
  8
1
  6
CONTINUOUS
 62
     1
100
AcDbBlockReference
  2
LDR
 10
754.0123
 20
208.6436
 30
0.0
 41
240.0
 42
240.0
 50
270.0
210
0.0
220
0.0
230
1.0
  0
INSERT
  5
421
100
AcDbEntity
  8
1
  6
CONTINUOUS
 62
     1
100
AcDbBlockReference
  2
LDR
 10
754.0123
 20
208.6436
 30
0.0
 41
240.0
 42
240.0
 50
270.0
210
0.0
220
0.0
230
1.0
  0
INSERT
  5
422
100
AcDbEntity
  8
1
  6
CONTINUOUS
 62
     1
100
AcDbBlockReference
  2
LDR
 10
754.0123
 20
204.4436
 30
0.0
 41
240.0
 42
240.0
 50
90.0
210
0.0
220
0.0
230
1.0
  0
LINE
  5
423
100
AcDbEntity
  8
1
  6
CONTINUOUS
 62
     7
100
AcDbLine
 10
681.1123
 20
226.0436
 30
0.0
 11
681.1123
 21
221.2436
 31
0.0
  0
INSERT
  5
424
100
AcDbEntity
  8
1
  6
CONTINUOUS
 62
     1
100
AcDbBlockReference
  2
LDR
 10
681.1123
 20
226.0436
 30
0.0
 41
240.0
 42
240.0
 50
90.0
210
0.0
220
0.0
230
1.0
  0
LINE
  5
425
100
AcDbEntity
  8
1
  6
CONTINUOUS
 62
     7
100
AcDbLine
 10
686.2123
 20
263.5436
 30
0.0
 11
681.4123
 21
263.5436
 31
0.0
  0
INSERT
  5
426
100
AcDbEntity
  8
1
  6
CONTINUOUS
 62
     1
100
AcDbBlockReference
  2
LDR
 10
686.2123
 20
271.9436
 30
0.0
 41
240.0
 42
240.0
 50
180.0
210
0.0
220
0.0
230
1.0
  0
INSERT
  5
427
100
AcDbEntity
  8
1
  6
CONTINUOUS
 62
     1
100
AcDbBlockReference
  2
LDR
 10
745.6123
 20
271.9436
 30
0.0
 41
240.0
 42
240.0
210
0.0
220
0.0
230
1.0
  0
INSERT
  5
428
100
AcDbEntity
  8
1
  6
CONTINUOUS
 62
     1
100
AcDbBlockReference
  2
LDR
 10
745.6123
 20
263.5436
 30
0.0
 41
240.0
 42
240.0
210
0.0
220
0.0
230
1.0
  0
INSERT
  5
429
100
AcDbEntity
  8
1
  6
CONTINUOUS
 62
     1
100
AcDbBlockReference
  2
LDR
 10
745.6123
 20
263.5436
 30
0.0
 41
240.0
 42
240.0
210
0.0
220
0.0
230
1.0
  0
INSERT
  5
42A
100
AcDbEntity
  8
1
  6
CONTINUOUS
 62
     1
100
AcDbBlockReference
  2
LDR
 10
688.6123
 20
263.5436
 30
0.0
 41
240.0
 42
240.0
 50
180.0
210
0.0
220
0.0
230
1.0
  0
INSERT
  5
42B
100
AcDbEntity
  8
1
  6
CONTINUOUS
 62
     1
100
AcDbBlockReference
  2
LDR
 10
688.6123
 20
263.5436
 30
0.0
 41
240.0
 42
240.0
 50
180.0
210
0.0
220
0.0
230
1.0
  0
INSERT
  5
42C
100
AcDbEntity
  8
1
  6
CONTINUOUS
 62
     1
100
AcDbBlockReference
  2
LDR
 10
686.2123
 20
263.5436
 30
0.0
 41
240.0
 42
240.0
210
0.0
220
0.0
230
1.0
  0
TEXT
  5
42D
100
AcDbEntity
  8
1
  6
CONTINUOUS
 62
     7
100
AcDbText
 10
664.5731
 20
262.631
 30
0.0
 40
3.0
  1
1.98mm
  7
MONOTXT
 72
     4
 11
672.6282
 21
264.131
 31
0.0
210
0.0
220
0.0
230
1.0
100
AcDbText
  0
TEXT
  5
42E
100
AcDbEntity
  8
1
  6
CONTINUOUS
 62
     7
100
AcDbText
 10
673.4717
 20
216.8732
 30
0.0
 40
3.0
  1
1.98mm
  7
MONOTXT
 72
     4
 11
681.5268
 21
218.3732
 31
0.0
210
0.0
220
0.0
230
1.0
100
AcDbText
  0
TEXT
  5
42F
100
AcDbEntity
  8
1
  6
CONTINUOUS
 62
     7
100
AcDbText
 10
757.7941
 20
223.7644
 30
0.0
 40
3.0
  1
5.51mm
  7
MONOTXT
 72
     4
 11
765.9201
 21
225.2644
 31
0.0
210
0.0
220
0.0
230
1.0
100
AcDbText
  0
TEXT
  5
430
100
AcDbEntity
  8
1
  6
CONTINUOUS
 62
     7
100
AcDbText
 10
759.1337
 20
237.5959
 30
0.0
 40
3.0
  1
3.53mm
  7
MONOTXT
 72
     4
 11
767.8975
 21
239.0959
 31
0.0
210
0.0
220
0.0
230
1.0
100
AcDbText
  0
LINE
  5
431
100
AcDbEntity
  8
1
  6
CONTINUOUS
 62
     7
100
AcDbLine
 10
754.0123
 20
199.6436
 30
0.0
 11
758.7892
 21
199.6436
 31
0.0
  0
LINE
  5
432
100
AcDbEntity
  8
1
  6
CONTINUOUS
 62
     7
100
AcDbLine
 10
754.0123
 20
239.1847
 30
0.0
 11
758.7892
 21
239.1847
 31
0.0
  0
LINE
  5
433
100
AcDbEntity
  8
1
  6
CONTINUOUS
 62
     7
100
AcDbLine
 10
722.5123
 20
196.6436
 30
0.0
 11
713.7011
 21
196.6436
 31
0.0
  0
LINE
  5
434
100
AcDbEntity
  8
1
  6
CONTINUOUS
 62
     7
100
AcDbLine
 10
725.8262
 20
196.3436
 30
0.0
 11
725.8262
 21
190.7116
 31
0.0
  0
LINE
  5
435
100
AcDbEntity
  8
1
  6
CONTINUOUS
 62
     7
100
AcDbLine
 10
725.8262
 20
190.7116
 30
0.0
 11
719.8798
 21
190.7116
 31
0.0
  0
TEXT
  5
436
100
AcDbEntity
  8
1
  6
CONTINUOUS
 62
     7
100
AcDbText
 10
749.1445
 20
189.9444
 30
0.0
 40
3.0
  1
3.96mm
  7
MONOTXT
 72
     4
 11
757.7665
 21
191.4444
 31
0.0
210
0.0
220
0.0
230
1.0
100
AcDbText
  0
TEXT
  5
437
100
AcDbEntity
  8
1
  6
CONTINUOUS
 62
     7
100
AcDbText
 10
701.9396
 20
189.5349
 30
0.0
 40
3.0
  1
6.76mm
  7
MONOTXT
 72
     4
 11
710.5852
 21
191.0349
 31
0.0
210
0.0
220
0.0
230
1.0
100
AcDbText
  0
TEXT
  5
438
100
AcDbEntity
  8
1
  6
CONTINUOUS
 62
     7
100
AcDbText
 10
682.4532
 20
171.3628
 30
0.0
 40
4.8
  1
EXTRUDED RIB DETAIL
  7
MONOTXT
 72
     4
 11
723.0642
 21
173.7628
 31
0.0
210
0.0
220
0.0
230
1.0
100
AcDbText
  0
LINE
  5
439
100
AcDbEntity
  8
1
  6
CONTINUOUS
 62
     7
100
AcDbLine
 10
680.6344
 20
169.7155
 30
0.0
 11
765.5069
 21
169.7155
 31
0.0
  0
LINE
  5
43A
100
AcDbEntity
  8
1
  6
CONTINUOUS
 62
     4
100
AcDbLine
 10
275.0327
 20
149.7346
 30
0.0
 11
275.0327
 21
89.7346
 31
0.0
  0
LINE
  5
43B
100
AcDbEntity
  8
1
  6
CONTINUOUS
 62
     4
100
AcDbLine
 10
320.6327
 20
149.7346
 30
0.0
 11
320.6327
 21
89.7346
 31
0.0
  0
LINE
  5
43C
100
AcDbEntity
  8
1
  6
CONTINUOUS
 62
     4
100
AcDbLine
 10
275.0327
 20
149.7346
 30
0.0
 11
320.6327
 21
149.7346
 31
0.0
  0
LINE
  5
43D
100
AcDbEntity
  8
1
  6
CONTINUOUS
 62
     4
100
AcDbLine
 10
275.0327
 20
89.7346
 30
0.0
 11
320.6327
 21
89.7346
 31
0.0
  0
LINE
  5
43E
100
AcDbEntity
  8
1
  6
CONTINUOUS
 62
     4
100
AcDbLine
 10
275.0327
 20
141.3346
 30
0.0
 11
320.6327
 21
141.3346
 31
0.0
  0
LINE
  5
43F
100
AcDbEntity
  8
1
  6
CONTINUOUS
 62
     4
100
AcDbLine
 10
275.0327
 20
132.9346
 30
0.0
 11
320.6327
 21
132.9346
 31
0.0
  0
LINE
  5
440
100
AcDbEntity
  8
1
  6
CONTINUOUS
 62
     4
100
AcDbLine
 10
275.0327
 20
131.7346
 30
0.0
 11
320.6327
 21
131.7346
 31
0.0
  0
LINE
  5
441
100
AcDbEntity
  8
1
  6
CONTINUOUS
 62
     4
100
AcDbLine
 10
275.0327
 20
125.7346
 30
0.0
 11
320.6327
 21
125.7346
 31
0.0
  0
LINE
  5
442
100
AcDbEntity
  8
1
  6
CONTINUOUS
 62
     4
100
AcDbLine
 10
275.0327
 20
119.7346
 30
0.0
 11
320.6327
 21
119.7346
 31
0.0
  0
LINE
  5
443
100
AcDbEntity
  8
1
  6
CONTINUOUS
 62
     4
100
AcDbLine
 10
275.0327
 20
113.7346
 30
0.0
 11
320.6327
 21
113.7346
 31
0.0
  0
LINE
  5
444
100
AcDbEntity
  8
1
  6
CONTINUOUS
 62
     4
100
AcDbLine
 10
275.0327
 20
107.7346
 30
0.0
 11
320.6327
 21
107.7346
 31
0.0
  0
LINE
  5
445
100
AcDbEntity
  8
1
  6
CONTINUOUS
 62
     4
100
AcDbLine
 10
275.0327
 20
101.7346
 30
0.0
 11
320.6327
 21
101.7346
 31
0.0
  0
LINE
  5
446
100
AcDbEntity
  8
1
  6
CONTINUOUS
 62
     4
100
AcDbLine
 10
275.0327
 20
95.7346
 30
0.0
 11
320.6327
 21
95.7346
 31
0.0
  0
LINE
  5
447
100
AcDbEntity
  8
1
  6
CONTINUOUS
 62
     4
100
AcDbLine
 10
296.6327
 20
141.3346
 30
0.0
 11
296.6327
 21
89.7346
 31
0.0
  0
TEXT
  5
448
100
AcDbEntity
  8
1
  6
CONTINUOUS
 62
     7
100
AcDbText
 10
277.7658
 20
143.4984
 30
0.0
 40
3.6
  1
POST SPACING
  7
MONOTXT
 72
     4
 11
297.6792
 21
145.2984
 31
0.0
210
0.0
220
0.0
230
1.0
100
AcDbText
  0
TEXT
  5
449
100
AcDbEntity
  8
1
  6
CONTINUOUS
 62
     7
100
AcDbText
 10
307.52
 20
135.0188
 30
0.0
 40
3.6
  1
P
  7
MONOTXT
 72
     4
 11
308.7247
 21
136.8188
 31
0.0
210
0.0
220
0.0
230
1.0
100
AcDbText
  0
TEXT
  5
44A
100
AcDbEntity
  8
1
  6
CONTINUOUS
 62
     7
100
AcDbText
 10
280.3212
 20
137.4614
 30
0.0
 40
3.0
  1
TYPE
  7
MONOTXT
 72
     4
 11
285.8605
 21
138.9614
 31
0.0
210
0.0
220
0.0
230
1.0
100
AcDbText
  0
TEXT
  5
44B
100
AcDbEntity
  8
1
  6
CONTINUOUS
 62
     7
100
AcDbText
 10
281.3134
 20
133.8614
 30
0.0
 40
3.0
  1
SIGN
  7
MONOTXT
 72
     4
 11
285.8606
 21
135.3614
 31
0.0
210
0.0
220
0.0
230
1.0
100
AcDbText
  0
TEXT
  5
44C
100
AcDbEntity
  8
1
  6
CONTINUOUS
 62
     7
100
AcDbText
 10
284.2749
 20
127.3661
 30
0.0
 40
3.0
  1
A
  7
MONOTXT
 72
     4
 11
285.4323
 21
128.8661
 31
0.0
210
0.0
220
0.0
230
1.0
100
AcDbText
  0
TEXT
  5
44D
100
AcDbEntity
  8
1
  6
CONTINUOUS
 62
     7
100
AcDbText
 10
284.4285
 20
121.3661
 30
0.0
 40
3.0
  1
B
  7
MONOTXT
 72
     4
 11
285.4324
 21
122.8661
 31
0.0
210
0.0
220
0.0
230
1.0
100
AcDbText
  0
TEXT
  5
44E
100
AcDbEntity
  8
1
  6
CONTINUOUS
 62
     7
100
AcDbText
 10
284.3576
 20
115.3661
 30
0.0
 40
3.0
  1
C
  7
MONOTXT
 72
     4
 11
285.4324
 21
116.8661
 31
0.0
210
0.0
220
0.0
230
1.0
100
AcDbText
  0
TEXT
  5
44F
100
AcDbEntity
  8
1
  6
CONTINUOUS
 62
     7
100
AcDbText
 10
284.4285
 20
109.3661
 30
0.0
 40
3.0
  1
D
  7
MONOTXT
 72
     4
 11
285.4324
 21
110.8661
 31
0.0
210
0.0
220
0.0
230
1.0
100
AcDbText
  0
TEXT
  5
450
100
AcDbEntity
  8
1
  6
CONTINUOUS
 62
     7
100
AcDbText
 10
284.4993
 20
103.3661
 30
0.0
 40
3.0
  1
E
  7
MONOTXT
 72
     4
 11
285.4323
 21
104.8661
 31
0.0
210
0.0
220
0.0
230
1.0
100
AcDbText
  0
TEXT
  5
451
100
AcDbEntity
  8
1
  6
CONTINUOUS
 62
     7
100
AcDbText
 10
284.4993
 20
97.3661
 30
0.0
 40
3.0
  1
F
  7
MONOTXT
 72
     4
 11
285.4323
 21
98.8661
 31
0.0
210
0.0
220
0.0
230
1.0
100
AcDbText
  0
TEXT
  5
452
100
AcDbEntity
  8
1
  6
CONTINUOUS
 62
     7
100
AcDbText
 10
284.3576
 20
91.3661
 30
0.0
 40
3.0
  1
G
  7
MONOTXT
 72
     4
 11
285.4324
 21
92.8661
 31
0.0
210
0.0
220
0.0
230
1.0
100
AcDbText
  0
TEXT
  5
453
100
AcDbEntity
  8
1
  6
CONTINUOUS
 62
     7
100
AcDbText
 10
300.3366
 20
127.1948
 30
0.0
 40
3.0
  1
750mm
  7
MONOTXT
 72
     4
 11
308.3681
 21
128.6948
 31
0.0
210
0.0
220
0.0
230
1.0
100
AcDbText
  0
TEXT
  5
454
100
AcDbEntity
  8
1
  6
CONTINUOUS
 62
     7
100
AcDbText
 10
300.4311
 20
121.1948
 30
0.0
 40
3.0
  1
600mm
  7
MONOTXT
 72
     4
 11
308.3681
 21
122.6948
 31
0.0
210
0.0
220
0.0
230
1.0
100
AcDbText
  0
TEXT
  5
455
100
AcDbEntity
  8
1
  6
CONTINUOUS
 62
     7
100
AcDbText
 10
300.3366
 20
115.1948
 30
0.0
 40
3.0
  1
750mm
  7
MONOTXT
 72
     4
 11
308.3681
 21
116.6948
 31
0.0
210
0.0
220
0.0
230
1.0
100
AcDbText
  0
TEXT
  5
456
100
AcDbEntity
  8
1
  6
CONTINUOUS
 62
     7
100
AcDbText
 10
300.3366
 20
109.1948
 30
0.0
 40
3.0
  1
750mm
  7
MONOTXT
 72
     4
 11
308.3681
 21
110.6948
 31
0.0
210
0.0
220
0.0
230
1.0
100
AcDbText
  0
TEXT
  5
457
100
AcDbEntity
  8
1
  6
CONTINUOUS
 62
     7
100
AcDbText
 10
300.3366
 20
103.1948
 30
0.0
 40
3.0
  1
750mm
  7
MONOTXT
 72
     4
 11
308.3681
 21
104.6948
 31
0.0
210
0.0
220
0.0
230
1.0
100
AcDbText
  0
TEXT
  5
458
100
AcDbEntity
  8
1
  6
CONTINUOUS
 62
     7
100
AcDbText
 10
300.3366
 20
97.1948
 30
0.0
 40
3.0
  1
750mm
  7
MONOTXT
 72
     4
 11
308.3681
 21
98.6948
 31
0.0
210
0.0
220
0.0
230
1.0
100
AcDbText
  0
TEXT
  5
459
100
AcDbEntity
  8
1
  6
CONTINUOUS
 62
     7
100
AcDbText
 10
300.3366
 20
91.1948
 30
0.0
 40
3.0
  1
750mm
  7
MONOTXT
 72
     4
 11
308.3681
 21
92.6948
 31
0.0
210
0.0
220
0.0
230
1.0
100
AcDbText
  0
LINE
  5
45A
100
AcDbEntity
  8
1
  6
CONTINUOUS
 62
     4
100
AcDbLine
 10
344.6327
 20
160.5346
 30
0.0
 11
489.8327
 21
160.5346
 31
0.0
  0
LINE
  5
45B
100
AcDbEntity
  8
1
  6
CONTINUOUS
 62
     4
100
AcDbLine
 10
344.6327
 20
89.7346
 30
0.0
 11
489.8327
 21
89.7346
 31
0.0
  0
LINE
  5
45C
100
AcDbEntity
  8
1
  6
CONTINUOUS
 62
     4
100
AcDbLine
 10
344.6327
 20
160.5346
 30
0.0
 11
344.6327
 21
89.7346
 31
0.0
  0
LINE
  5
45D
100
AcDbEntity
  8
1
  6
CONTINUOUS
 62
     4
100
AcDbLine
 10
489.8327
 20
160.5346
 30
0.0
 11
489.8327
 21
89.7346
 31
0.0
  0
LINE
  5
45E
100
AcDbEntity
  8
1
  6
CONTINUOUS
 62
     4
100
AcDbLine
 10
344.6327
 20
143.7346
 30
0.0
 11
489.8327
 21
143.7346
 31
0.0
  0
LINE
  5
45F
100
AcDbEntity
  8
1
  6
CONTINUOUS
 62
     4
100
AcDbLine
 10
344.6327
 20
137.7346
 30
0.0
 11
489.8327
 21
137.7346
 31
0.0
  0
LINE
  5
460
100
AcDbEntity
  8
1
  6
CONTINUOUS
 62
     4
100
AcDbLine
 10
344.6327
 20
131.7346
 30
0.0
 11
489.8327
 21
131.7346
 31
0.0
  0
LINE
  5
461
100
AcDbEntity
  8
1
  6
CONTINUOUS
 62
     4
100
AcDbLine
 10
344.6327
 20
125.7346
 30
0.0
 11
489.8327
 21
125.7346
 31
0.0
  0
LINE
  5
462
100
AcDbEntity
  8
1
  6
CONTINUOUS
 62
     4
100
AcDbLine
 10
344.6327
 20
119.7346
 30
0.0
 11
489.8327
 21
119.7346
 31
0.0
  0
LINE
  5
463
100
AcDbEntity
  8
1
  6
CONTINUOUS
 62
     4
100
AcDbLine
 10
344.6327
 20
113.7346
 30
0.0
 11
489.8327
 21
113.7346
 31
0.0
  0
LINE
  5
464
100
AcDbEntity
  8
1
  6
CONTINUOUS
 62
     4
100
AcDbLine
 10
344.6327
 20
107.7346
 30
0.0
 11
489.8327
 21
107.7346
 31
0.0
  0
LINE
  5
465
100
AcDbEntity
  8
1
  6
CONTINUOUS
 62
     4
100
AcDbLine
 10
344.6327
 20
101.7346
 30
0.0
 11
489.8327
 21
101.7346
 31
0.0
  0
LINE
  5
466
100
AcDbEntity
  8
1
  6
CONTINUOUS
 62
     4
100
AcDbLine
 10
366.2327
 20
95.7346
 30
0.0
 11
426.2327
 21
95.7346
 31
0.0
  0
LINE
  5
467
100
AcDbEntity
  8
1
  6
CONTINUOUS
 62
     4
100
AcDbLine
 10
366.2327
 20
160.5346
 30
0.0
 11
366.2327
 21
89.7346
 31
0.0
  0
LINE
  5
468
100
AcDbEntity
  8
1
  6
CONTINUOUS
 62
     4
100
AcDbLine
 10
378.2327
 20
152.1346
 30
0.0
 11
378.2327
 21
89.7346
 31
0.0
  0
LINE
  5
469
100
AcDbEntity
  8
1
  6
CONTINUOUS
 62
     4
100
AcDbLine
 10
390.2327
 20
152.1346
 30
0.0
 11
390.2327
 21
89.7346
 31
0.0
  0
LINE
  5
46A
100
AcDbEntity
  8
1
  6
CONTINUOUS
 62
     4
100
AcDbLine
 10
402.2327
 20
152.1346
 30
0.0
 11
402.2327
 21
89.7346
 31
0.0
  0
LINE
  5
46B
100
AcDbEntity
  8
1
  6
CONTINUOUS
 62
     4
100
AcDbLine
 10
414.2327
 20
152.1346
 30
0.0
 11
414.2327
 21
89.7346
 31
0.0
  0
LINE
  5
46C
100
AcDbEntity
  8
1
  6
CONTINUOUS
 62
     4
100
AcDbLine
 10
426.2327
 20
160.5346
 30
0.0
 11
426.2327
 21
89.7346
 31
0.0
  0
LINE
  5
46D
100
AcDbEntity
  8
1
  6
CONTINUOUS
 62
     4
100
AcDbLine
 10
447.8327
 20
160.5346
 30
0.0
 11
447.8327
 21
89.7346
 31
0.0
  0
LINE
  5
46E
100
AcDbEntity
  8
1
  6
CONTINUOUS
 62
     4
100
AcDbLine
 10
459.8327
 20
152.1346
 30
0.0
 11
459.8327
 21
89.7346
 31
0.0
  0
LINE
  5
46F
100
AcDbEntity
  8
1
  6
CONTINUOUS
 62
     4
100
AcDbLine
 10
366.2327
 20
152.1346
 30
0.0
 11
426.2327
 21
152.1346
 31
0.0
  0
LINE
  5
470
100
AcDbEntity
  8
1
  6
CONTINUOUS
 62
     4
100
AcDbLine
 10
447.8327
 20
152.1346
 30
0.0
 11
489.8327
 21
152.1346
 31
0.0
  0
TEXT
  5
471
100
AcDbEntity
  8
1
  6
CONTINUOUS
 62
     7
100
AcDbText
 10
380.3181
 20
154.46
 30
0.0
 40
3.6
  1
SIGN PANEL
  7
MONOTXT
 72
     4
 11
396.1495
 21
156.26
 31
0.0
210
0.0
220
0.0
230
1.0
100
AcDbText
  0
TEXT
  5
472
100
AcDbEntity
  8
1
  6
CONTINUOUS
 62
     7
100
AcDbText
 10
350.8926
 20
154.4605
 30
0.0
 40
3.0
  1
SIGN
  7
MONOTXT
 72
     4
 11
355.4398
 21
155.9605
 31
0.0
210
0.0
220
0.0
230
1.0
100
AcDbText
  0
TEXT
  5
473
100
AcDbEntity
  8
1
  6
CONTINUOUS
 62
     7
100
AcDbText
 10
347.7154
 20
150.2605
 30
0.0
 40
3.0
  1
STRUC.
  7
MONOTXT
 72
     4
 11
355.428
 21
151.7605
 31
0.0
210
0.0
220
0.0
230
1.0
100
AcDbText
  0
TEXT
  5
474
100
AcDbEntity
  8
1
  6
CONTINUOUS
 62
     7
100
AcDbText
 10
349.9004
 20
146.0605
 30
0.0
 40
3.0
  1
TYPE
  7
MONOTXT
 72
     4
 11
355.4397
 21
147.5605
 31
0.0
210
0.0
220
0.0
230
1.0
100
AcDbText
  0
TEXT
  5
475
100
AcDbEntity
  8
1
  6
CONTINUOUS
 62
     7
100
AcDbText
 10
428.1848
 20
150.7105
 30
0.0
 40
3.0
  1
CLAMPS
  7
MONOTXT
 72
     4
 11
436.6296
 21
152.2105
 31
0.0
210
0.0
220
0.0
230
1.0
100
AcDbText
  0
TEXT
  5
476
100
AcDbEntity
  8
1
  6
CONTINUOUS
 62
     7
100
AcDbText
 10
449.3578
 20
156.5078
 30
0.0
 40
3.0
  1
ZEE SECTION OR
  7
MONOTXT
 72
     4
 11
468.7869
 21
158.0078
 31
0.0
210
0.0
220
0.0
230
1.0
100
AcDbText
  0
TEXT
  5
477
100
AcDbEntity
  8
1
  6
CONTINUOUS
 62
     7
100
AcDbText
 10
452.5468
 20
152.9078
 30
0.0
 40
3.0
  1
EXTRUDED RIB
  7
MONOTXT
 72
     4
 11
468.7869
 21
154.4078
 31
0.0
210
0.0
220
0.0
230
1.0
100
AcDbText
  0
TEXT
  5
478
100
AcDbEntity
  8
1
  6
CONTINUOUS
 62
     7
100
AcDbText
 10
450.6763
 20
146.3383
 30
0.0
 40
3.0
  1
NO.
  7
MONOTXT
 72
     4
 11
453.9951
 21
147.8383
 31
0.0
210
0.0
220
0.0
230
1.0
100
AcDbText
  0
TEXT
  5
479
100
AcDbEntity
  8
1
  6
CONTINUOUS
 62
     7
100
AcDbText
 10
465.4953
 20
146.4233
 30
0.0
 40
3.0
  1
LENGTH
  7
MONOTXT
 72
     4
 11
473.7984
 21
147.9233
 31
0.0
210
0.0
220
0.0
230
1.0
100
AcDbText
  0
TEXT
  5
47A
100
AcDbEntity
  8
1
  6
CONTINUOUS
 62
     7
100
AcDbText
 10
370.974
 20
146.3808
 30
0.0
 40
3.0
  1
W
  7
MONOTXT
 72
     4
 11
372.4031
 21
147.8808
 31
0.0
210
0.0
220
0.0
230
1.0
100
AcDbText
  0
TEXT
  5
47B
100
AcDbEntity
  8
1
  6
CONTINUOUS
 62
     7
100
AcDbText
 10
383.1583
 20
146.3808
 30
0.0
 40
3.0
  1
H
  7
MONOTXT
 72
     4
 11
384.1622
 21
147.8808
 31
0.0
210
0.0
220
0.0
230
1.0
100
AcDbText
  0
TEXT
  5
47C
100
AcDbEntity
  8
1
  6
CONTINUOUS
 62
     7
100
AcDbText
 10
407.0982
 20
146.9409
 30
0.0
 40
3.0
  1
c
  7
MONOTXT
 72
     4
 11
407.9604
 21
148.4409
 31
0.0
210
0.0
220
0.0
230
1.0
100
AcDbText
  0
TEXT
  5
47D
100
AcDbEntity
  8
1
  6
CONTINUOUS
 62
     7
100
AcDbText
 10
419.4173
 20
146.6608
 30
0.0
 40
3.0
  1
d
  7
MONOTXT
 72
     4
 11
420.2677
 21
148.1608
 31
0.0
210
0.0
220
0.0
230
1.0
100
AcDbText
  0
TEXT
  5
47E
100
AcDbEntity
  8
1
  6
CONTINUOUS
 62
     7
100
AcDbText
 10
353.6793
 20
139.1285
 30
0.0
 40
3.0
  1
A
  7
MONOTXT
 72
     4
 11
354.8367
 21
140.6285
 31
0.0
210
0.0
220
0.0
230
1.0
100
AcDbText
  0
TEXT
  5
47F
100
AcDbEntity
  8
1
  6
CONTINUOUS
 62
     7
100
AcDbText
 10
353.8329
 20
133.1285
 30
0.0
 40
3.0
  1
B
  7
MONOTXT
 72
     4
 11
354.8368
 21
134.6285
 31
0.0
210
0.0
220
0.0
230
1.0
100
AcDbText
  0
TEXT
  5
480
100
AcDbEntity
  8
1
  6
CONTINUOUS
 62
     7
100
AcDbText
 10
353.762
 20
127.1285
 30
0.0
 40
3.0
  1
C
  7
MONOTXT
 72
     4
 11
354.8368
 21
128.6285
 31
0.0
210
0.0
220
0.0
230
1.0
100
AcDbText
  0
TEXT
  5
481
100
AcDbEntity
  8
1
  6
CONTINUOUS
 62
     7
100
AcDbText
 10
353.8329
 20
121.1285
 30
0.0
 40
3.0
  1
D
  7
MONOTXT
 72
     4
 11
354.8368
 21
122.6285
 31
0.0
210
0.0
220
0.0
230
1.0
100
AcDbText
  0
TEXT
  5
482
100
AcDbEntity
  8
1
  6
CONTINUOUS
 62
     7
100
AcDbText
 10
353.9037
 20
115.1285
 30
0.0
 40
3.0
  1
E
  7
MONOTXT
 72
     4
 11
354.8367
 21
116.6285
 31
0.0
210
0.0
220
0.0
230
1.0
100
AcDbText
  0
TEXT
  5
483
100
AcDbEntity
  8
1
  6
CONTINUOUS
 62
     7
100
AcDbText
 10
354.186
 20
103.2195
 30
0.0
 40
3.0
  1
F
  7
MONOTXT
 72
     4
 11
355.119
 21
104.7195
 31
0.0
210
0.0
220
0.0
230
1.0
100
AcDbText
  0
TEXT
  5
484
100
AcDbEntity
  8
1
  6
CONTINUOUS
 62
     7
100
AcDbText
 10
353.5738
 20
94.3712
 30
0.0
 40
3.0
  1
G
  7
MONOTXT
 72
     4
 11
354.6486
 21
95.8712
 31
0.0
210
0.0
220
0.0
230
1.0
100
AcDbText
  0
TEXT
  5
485
100
AcDbEntity
  8
1
  6
CONTINUOUS
 62
     7
100
AcDbText
 10
435.9109
 20
139.2226
 30
0.0
 40
3.0
  1
4
  7
MONOTXT
 72
     4
 11
436.9857
 21
140.7226
 31
0.0
210
0.0
220
0.0
230
1.0
100
AcDbText
  0
TEXT
  5
486
100
AcDbEntity
  8
1
  6
CONTINUOUS
 62
     7
100
AcDbText
 10
435.9109
 20
133.2226
 30
0.0
 40
3.0
  1
4
  7
MONOTXT
 72
     4
 11
436.9857
 21
134.7226
 31
0.0
210
0.0
220
0.0
230
1.0
100
AcDbText
  0
TEXT
  5
487
100
AcDbEntity
  8
1
  6
CONTINUOUS
 62
     7
100
AcDbText
 10
435.9109
 20
127.2226
 30
0.0
 40
3.0
  1
4
  7
MONOTXT
 72
     4
 11
436.9857
 21
128.7226
 31
0.0
210
0.0
220
0.0
230
1.0
100
AcDbText
  0
TEXT
  5
488
100
AcDbEntity
  8
1
  6
CONTINUOUS
 62
     7
100
AcDbText
 10
435.9109
 20
121.2226
 30
0.0
 40
3.0
  1
4
  7
MONOTXT
 72
     4
 11
436.9857
 21
122.7226
 31
0.0
210
0.0
220
0.0
230
1.0
100
AcDbText
  0
TEXT
  5
489
100
AcDbEntity
  8
1
  6
CONTINUOUS
 62
     7
100
AcDbText
 10
435.9109
 20
115.2226
 30
0.0
 40
3.0
  1
4
  7
MONOTXT
 72
     4
 11
436.9857
 21
116.7226
 31
0.0
210
0.0
220
0.0
230
1.0
100
AcDbText
  0
TEXT
  5
48A
100
AcDbEntity
  8
1
  6
CONTINUOUS
 62
     7
100
AcDbText
 10
436.2873
 20
103.1253
 30
0.0
 40
3.0
  1
4
  7
MONOTXT
 72
     4
 11
437.3621
 21
104.6253
 31
0.0
210
0.0
220
0.0
230
1.0
100
AcDbText
  0
TEXT
  5
48B
100
AcDbEntity
  8
1
  6
CONTINUOUS
 62
     7
100
AcDbText
 10
436.3814
 20
94.2771
 30
0.0
 40
3.0
  1
4
  7
MONOTXT
 72
     4
 11
437.4562
 21
95.7771
 31
0.0
210
0.0
220
0.0
230
1.0
100
AcDbText
  0
TEXT
  5
48C
100
AcDbEntity
  8
1
  6
CONTINUOUS
 62
     7
100
AcDbText
 10
452.4983
 20
139.3096
 30
0.0
 40
3.0
  1
2
  7
MONOTXT
 72
     4
 11
453.5022
 21
140.8096
 31
0.0
210
0.0
220
0.0
230
1.0
100
AcDbText
  0
TEXT
  5
48D
100
AcDbEntity
  8
1
  6
CONTINUOUS
 62
     7
100
AcDbText
 10
452.4983
 20
133.3096
 30
0.0
 40
3.0
  1
2
  7
MONOTXT
 72
     4
 11
453.5022
 21
134.8096
 31
0.0
210
0.0
220
0.0
230
1.0
100
AcDbText
  0
TEXT
  5
48E
100
AcDbEntity
  8
1
  6
CONTINUOUS
 62
     7
100
AcDbText
 10
452.4983
 20
127.3096
 30
0.0
 40
3.0
  1
2
  7
MONOTXT
 72
     4
 11
453.5022
 21
128.8096
 31
0.0
210
0.0
220
0.0
230
1.0
100
AcDbText
  0
TEXT
  5
48F
100
AcDbEntity
  8
1
  6
CONTINUOUS
 62
     7
100
AcDbText
 10
452.4983
 20
121.3096
 30
0.0
 40
3.0
  1
2
  7
MONOTXT
 72
     4
 11
453.5022
 21
122.8096
 31
0.0
210
0.0
220
0.0
230
1.0
100
AcDbText
  0
TEXT
  5
490
100
AcDbEntity
  8
1
  6
CONTINUOUS
 62
     7
100
AcDbText
 10
452.4983
 20
115.3096
 30
0.0
 40
3.0
  1
2
  7
MONOTXT
 72
     4
 11
453.5022
 21
116.8096
 31
0.0
210
0.0
220
0.0
230
1.0
100
AcDbText
  0
TEXT
  5
491
100
AcDbEntity
  8
1
  6
CONTINUOUS
 62
     7
100
AcDbText
 10
452.6837
 20
103.305
 30
0.0
 40
3.0
  1
2
  7
MONOTXT
 72
     4
 11
453.6876
 21
104.805
 31
0.0
210
0.0
220
0.0
230
1.0
100
AcDbText
  0
TEXT
  5
492
100
AcDbEntity
  8
1
  6
CONTINUOUS
 62
     7
100
AcDbText
 10
452.591
 20
94.5929
 30
0.0
 40
3.0
  1
2
  7
MONOTXT
 72
     4
 11
453.5949
 21
96.0929
 31
0.0
210
0.0
220
0.0
230
1.0
100
AcDbText
  0
TEXT
  5
493
100
AcDbEntity
  8
1
  6
CONTINUOUS
 62
     7
100
AcDbText
 10
466.6781
 20
139.2169
 30
0.0
 40
3.0
  1
950mm
  7
MONOTXT
 72
     4
 11
474.6151
 21
140.7169
 31
0.0
210
0.0
220
0.0
230
1.0
100
AcDbText
  0
TEXT
  5
494
100
AcDbEntity
  8
1
  6
CONTINUOUS
 62
     7
100
AcDbText
 10
466.6073
 20
133.2169
 30
0.0
 40
3.0
  1
800mm
  7
MONOTXT
 72
     4
 11
474.6151
 21
134.7169
 31
0.0
210
0.0
220
0.0
230
1.0
100
AcDbText
  0
TEXT
  5
495
100
AcDbEntity
  8
1
  6
CONTINUOUS
 62
     7
100
AcDbText
 10
466.6781
 20
127.2169
 30
0.0
 40
3.0
  1
950mm
  7
MONOTXT
 72
     4
 11
474.6151
 21
128.7169
 31
0.0
210
0.0
220
0.0
230
1.0
100
AcDbText
  0
TEXT
  5
496
100
AcDbEntity
  8
1
  6
CONTINUOUS
 62
     7
100
AcDbText
 10
466.6781
 20
121.2169
 30
0.0
 40
3.0
  1
950mm
  7
MONOTXT
 72
     4
 11
474.6151
 21
122.7169
 31
0.0
210
0.0
220
0.0
230
1.0
100
AcDbText
  0
TEXT
  5
497
100
AcDbEntity
  8
1
  6
CONTINUOUS
 62
     7
100
AcDbText
 10
466.6781
 20
115.2169
 30
0.0
 40
3.0
  1
950mm
  7
MONOTXT
 72
     4
 11
474.6151
 21
116.7169
 31
0.0
210
0.0
220
0.0
230
1.0
100
AcDbText
  0
LINE
  5
498
100
AcDbEntity
  8
1
  6
CONTINUOUS
 62
     7
100
AcDbLine
 10
402.5942
 20
97.9703
 30
0.0
 11
404.4186
 21
97.9703
 31
0.0
  0
POLYLINE
  5
499
100
AcDbEntity
  8
1
  6
CONTINUOUS
 62
     7
100
AcDb2dPolyline
 66
     1
 10
0.0
 20
0.0
 30
0.0
 70
     1
  0
VERTEX
  5
49A
100
AcDbEntity
  8
1
  6
CONTINUOUS
 62
     7
100
AcDbVertex
100
AcDb2dVertex
 10
402.5942
 20
96.0061
 30
0.0
  0
VERTEX
  5
49B
100
AcDbEntity
  8
1
  6
CONTINUOUS
 62
     7
100
AcDbVertex
100
AcDb2dVertex
 10
404.4186
 20
97.9703
 30
0.0
  0
VERTEX
  5
49C
100
AcDbEntity
  8
1
  6
CONTINUOUS
 62
     7
100
AcDbVertex
100
AcDb2dVertex
 10
404.4186
 20
96.0061
 30
0.0
  0
VERTEX
  5
49D
100
AcDbEntity
  8
1
  6
CONTINUOUS
 62
     7
100
AcDbVertex
100
AcDb2dVertex
 10
402.5942
 20
96.0061
 30
0.0
  0
SEQEND
  5
49E
100
AcDbEntity
  8
1
  6
CONTINUOUS
 62
     7
  0
LINE
  5
49F
100
AcDbEntity
  8
1
  6
CONTINUOUS
 62
     7
100
AcDbLine
 10
402.5942
 20
96.0061
 30
0.0
 11
402.5942
 21
97.9703
 31
0.0
  0
LINE
  5
4A0
100
AcDbEntity
  8
1
  6
CONTINUOUS
 62
     7
100
AcDbLine
 10
414.6774
 20
97.9191
 30
0.0
 11
416.5018
 21
97.9191
 31
0.0
  0
POLYLINE
  5
4A1
100
AcDbEntity
  8
1
  6
CONTINUOUS
 62
     7
100
AcDb2dPolyline
 66
     1
 10
0.0
 20
0.0
 30
0.0
 70
     1
  0
VERTEX
  5
4A2
100
AcDbEntity
  8
1
  6
CONTINUOUS
 62
     7
100
AcDbVertex
100
AcDb2dVertex
 10
414.6774
 20
95.9549
 30
0.0
  0
VERTEX
  5
4A3
100
AcDbEntity
  8
1
  6
CONTINUOUS
 62
     7
100
AcDbVertex
100
AcDb2dVertex
 10
416.5018
 20
97.9191
 30
0.0
  0
VERTEX
  5
4A4
100
AcDbEntity
  8
1
  6
CONTINUOUS
 62
     7
100
AcDbVertex
100
AcDb2dVertex
 10
416.5018
 20
95.9549
 30
0.0
  0
VERTEX
  5
4A5
100
AcDbEntity
  8
1
  6
CONTINUOUS
 62
     7
100
AcDbVertex
100
AcDb2dVertex
 10
414.6774
 20
95.9549
 30
0.0
  0
SEQEND
  5
4A6
100
AcDbEntity
  8
1
  6
CONTINUOUS
 62
     7
  0
LINE
  5
4A7
100
AcDbEntity
  8
1
  6
CONTINUOUS
 62
     7
100
AcDbLine
 10
414.6774
 20
95.9549
 30
0.0
 11
414.6774
 21
97.9191
 31
0.0
  0
POLYLINE
  5
4A8
100
AcDbEntity
  8
1
  6
CONTINUOUS
 62
     7
100
AcDb2dPolyline
 66
     1
 10
0.0
 20
0.0
 30
0.0
 70
     1
  0
VERTEX
  5
4A9
100
AcDbEntity
  8
1
  6
CONTINUOUS
 62
     7
100
AcDbVertex
100
AcDb2dVertex
 10
403.6907
 20
92.1946
 30
0.0
  0
VERTEX
  5
4AA
100
AcDbEntity
  8
1
  6
CONTINUOUS
 62
     7
100
AcDbVertex
100
AcDb2dVertex
 10
404.8907
 20
90.1161
 30
0.0
  0
VERTEX
  5
4AB
100
AcDbEntity
  8
1
  6
CONTINUOUS
 62
     7
100
AcDbVertex
100
AcDb2dVertex
 10
402.4907
 20
90.1161
 30
0.0
  0
VERTEX
  5
4AC
100
AcDbEntity
  8
1
  6
CONTINUOUS
 62
     7
100
AcDbVertex
100
AcDb2dVertex
 10
403.6907
 20
92.2014
 30
0.0
  0
VERTEX
  5
4AD
100
AcDbEntity
  8
1
  6
CONTINUOUS
 62
     7
100
AcDbVertex
100
AcDb2dVertex
 10
403.6907
 20
92.1946
 30
0.0
  0
SEQEND
  5
4AE
100
AcDbEntity
  8
1
  6
CONTINUOUS
 62
     7
  0
POLYLINE
  5
4AF
100
AcDbEntity
  8
1
  6
CONTINUOUS
 62
     7
100
AcDb2dPolyline
 66
     1
 10
0.0
 20
0.0
 30
0.0
 70
     1
  0
VERTEX
  5
4B0
100
AcDbEntity
  8
1
  6
CONTINUOUS
 62
     7
100
AcDbVertex
100
AcDb2dVertex
 10
415.6919
 20
92.1579
 30
0.0
  0
VERTEX
  5
4B1
100
AcDbEntity
  8
1
  6
CONTINUOUS
 62
     7
100
AcDbVertex
100
AcDb2dVertex
 10
416.8919
 20
90.0794
 30
0.0
  0
VERTEX
  5
4B2
100
AcDbEntity
  8
1
  6
CONTINUOUS
 62
     7
100
AcDbVertex
100
AcDb2dVertex
 10
414.4919
 20
90.0794
 30
0.0
  0
VERTEX
  5
4B3
100
AcDbEntity
  8
1
  6
CONTINUOUS
 62
     7
100
AcDbVertex
100
AcDb2dVertex
 10
415.6919
 20
92.1647
 30
0.0
  0
VERTEX
  5
4B4
100
AcDbEntity
  8
1
  6
CONTINUOUS
 62
     7
100
AcDbVertex
100
AcDb2dVertex
 10
415.6919
 20
92.1579
 30
0.0
  0
SEQEND
  5
4B5
100
AcDbEntity
  8
1
  6
CONTINUOUS
 62
     7
  0
TEXT
  5
4B6
100
AcDbEntity
  8
1
  6
CONTINUOUS
 62
     7
100
AcDbText
 10
336.8098
 20
163.2045
 30
0.0
 40
3.0
  1
FOR SIGN PLACEMENT SEE CONTRACT PLANS OR TE1-3C OR TP3-1
  7
MONOTXT
 72
     4
 11
417.0066
 21
164.7045
 31
0.0
210
0.0
220
0.0
230
1.0
100
AcDbText
  0
LINE
  5
4B7
100
AcDbEntity
  8
1
  6
CONTINUOUS
 62
     7
100
AcDbLine
 10
743.2457
 20
196.3436
 30
0.0
 11
743.2457
 21
191.5573
 31
0.0
  0
LINE
  5
4B8
100
AcDbEntity
  8
1
  6
CONTINUOUS
 62
     7
100
AcDbLine
 10
743.2457
 20
191.5573
 30
0.0
 11
748.9369
 21
191.5573
 31
0.0
  0
INSERT
  5
4B9
100
AcDbEntity
  8
1
  6
CONTINUOUS
 62
     1
100
AcDbBlockReference
  2
LDR
 10
743.2457
 20
196.3436
 30
0.0
 41
240.0
 42
240.0
 50
90.0
210
0.0
220
0.0
230
1.0
  0
LWPOLYLINE
  5
4BA
100
AcDbEntity
  8
1
  6
CONTINUOUS
 62
     7
100
AcDbPolyline
 90
        4
 70
     0
 10
600.4064
 20
121.3805
 10
598.0064
 20
117.2236
 10
602.8064
 20
117.2236
 10
600.4064
 20
121.3805
  0
TEXT
  5
4BB
100
AcDbEntity
  8
1
  6
CONTINUOUS
 62
     7
100
AcDbText
 10
599.5454
 20
117.5479
 30
0.0
 40
2.4
  1
4
  7
MONOTXT
210
0.0
220
0.0
230
1.0
100
AcDbText
  0
TEXT
  5
4BC
100
AcDbEntity
  8
1
  6
CONTINUOUS
 62
     7
100
AcDbText
 10
603.7964
 20
117.9098
 30
0.0
 40
2.4
  1
ADDED UPHILL RQMNTS, REVISED RIB
  7
MONOTXT
210
0.0
220
0.0
230
1.0
100
AcDbText
  0
TEXT
  5
4BD
100
AcDbEntity
  8
1
  6
CONTINUOUS
 62
     7
100
AcDbText
 10
118.5307
 20
163.5457
 30
0.0
 40
6.0
  1
*
  7
MONOTXT
 72
     4
 11
119.6881
 21
166.5457
 31
0.0
210
0.0
220
0.0
230
1.0
100
AcDbText
  0
TEXT
  5
4BE
100
AcDbEntity
  8
1
  6
CONTINUOUS
 62
     7
100
AcDbText
 10
121.9982
 20
163.4644
 30
0.0
 40
6.0
  1
*
  7
MONOTXT
 72
     4
 11
123.1556
 21
166.4644
 31
0.0
210
0.0
220
0.0
230
1.0
100
AcDbText
  0
TEXT
  5
4BF
100
AcDbEntity
  8
1
  6
CONTINUOUS
 62
     7
100
AcDbText
 10
202.6682
 20
164.5904
 30
0.0
 40
6.0
  1
*
  7
MONOTXT
 72
     4
 11
203.8256
 21
167.5904
 31
0.0
210
0.0
220
0.0
230
1.0
100
AcDbText
  0
TEXT
  5
4C0
100
AcDbEntity
  8
1
  6
CONTINUOUS
 62
     7
100
AcDbText
 10
199.2007
 20
164.6717
 30
0.0
 40
6.0
  1
*
  7
MONOTXT
 72
     4
 11
200.3581
 21
167.6717
 31
0.0
210
0.0
220
0.0
230
1.0
100
AcDbText
  0
TEXT
  5
4C1
100
AcDbEntity
  8
1
  6
CONTINUOUS
 62
     7
100
AcDbText
 10
339.3733
 20
262.0713
 30
0.0
 40
6.0
  1
*
  7
MONOTXT
 72
     4
 11
340.5307
 21
265.0713
 31
0.0
210
0.0
220
0.0
230
1.0
100
AcDbText
  0
TEXT
  5
4C2
100
AcDbEntity
  8
1
  6
CONTINUOUS
 62
     7
100
AcDbText
 10
342.8408
 20
261.99
 30
0.0
 40
6.0
  1
*
  7
MONOTXT
 72
     4
 11
343.9982
 21
264.99
 31
0.0
210
0.0
220
0.0
230
1.0
100
AcDbText
  0
TEXT
  5
4C3
100
AcDbEntity
  8
1
  6
CONTINUOUS
 62
     7
100
AcDbText
 10
439.0256
 20
262.0713
 30
0.0
 40
6.0
  1
*
  7
MONOTXT
 72
     4
 11
440.183
 21
265.0713
 31
0.0
210
0.0
220
0.0
230
1.0
100
AcDbText
  0
TEXT
  5
4C4
100
AcDbEntity
  8
1
  6
CONTINUOUS
 62
     7
100
AcDbText
 10
442.4931
 20
261.99
 30
0.0
 40
6.0
  1
*
  7
MONOTXT
 72
     4
 11
443.6505
 21
264.99
 31
0.0
210
0.0
220
0.0
230
1.0
100
AcDbText
  0
TEXT
  5
4C5
100
AcDbEntity
  8
1
  6
CONTINUOUS
 62
     7
100
AcDbText
 10
545.0145
 20
303.2305
 30
0.0
 40
6.0
  1
*
  7
MONOTXT
 72
     4
 11
546.1719
 21
306.2305
 31
0.0
210
0.0
220
0.0
230
1.0
100
AcDbText
  0
TEXT
  5
4C6
100
AcDbEntity
  8
1
  6
CONTINUOUS
 62
     7
100
AcDbText
 10
548.482
 20
303.1492
 30
0.0
 40
6.0
  1
*
  7
MONOTXT
 72
     4
 11
549.6394
 21
306.1492
 31
0.0
210
0.0
220
0.0
230
1.0
100
AcDbText
  0
TEXT
  5
4C7
100
AcDbEntity
  8
1
  6
CONTINUOUS
 62
     7
100
AcDbText
 10
629.3662
 20
405.1592
 30
0.0
 40
6.0
  1
*
  7
MONOTXT
 72
     4
 11
630.5236
 21
408.1592
 31
0.0
210
0.0
220
0.0
230
1.0
100
AcDbText
  0
TEXT
  5
4C8
100
AcDbEntity
  8
1
  6
CONTINUOUS
 62
     7
100
AcDbText
 10
632.8337
 20
405.0779
 30
0.0
 40
6.0
  1
*
  7
MONOTXT
 72
     4
 11
633.9911
 21
408.0779
 31
0.0
210
0.0
220
0.0
230
1.0
100
AcDbText
  0
TEXT
  5
4C9
100
AcDbEntity
  8
1
  6
CONTINUOUS
 62
     7
100
AcDbText
 10
638.2907
 20
406.6559
 30
0.0
 40
3.0
  1
- FOR FOOTING DETAILS SEE TE1-3C
  7
MONOTXT
 11
638.2907
 21
409.6559
 31
0.0
210
0.0
220
0.0
230
1.0
100
AcDbText
 73
     3
  0
LWPOLYLINE
  5
4CA
100
AcDbEntity
  8
1
  6
CONTINUOUS
 62
     7
100
AcDbPolyline
 90
        4
 70
     0
 10
600.2369
 20
115.956
 10
597.8369
 20
111.7991
 10
602.6369
 20
111.7991
 10
600.2369
 20
115.956
  0
TEXT
  5
4CB
100
AcDbEntity
  8
1
  6
CONTINUOUS
 62
     7
100
AcDbText
 10
599.3759
 20
112.1234
 30
0.0
 40
2.4
  1
5
  7
MONOTXT
210
0.0
220
0.0
230
1.0
100
AcDbText
  0
TEXT
  5
4CC
100
AcDbEntity
  8
1
  6
CONTINUOUS
 62
     7
100
AcDbText
 10
603.6269
 20
112.4853
 30
0.0
 40
2.4
  1
ADDED METRIC
  7
MONOTXT
210
0.0
220
0.0
230
1.0
100
AcDbText
  0
LWPOLYLINE
  5
4CD
100
AcDbEntity
  8
1
  6
CONTINUOUS
 62
     7
100
AcDbPolyline
 90
        4
 70
     0
 10
603.1825
 20
19.5333
 10
600.7825
 20
15.3764
 10
605.5825
 20
15.3764
 10
603.1825
 20
19.5333
  0
TEXT
  5
4CE
100
AcDbEntity
  8
1
  6
CONTINUOUS
 62
     7
100
AcDbText
 10
602.3274
 20
15.6221
 30
0.0
 40
2.4
  1
5
  7
MONOTXT
210
0.0
220
0.0
230
1.0
100
AcDbText
  0
TEXT
  5
4CF
100
AcDbEntity
  8
1
  6
CONTINUOUS
 62
     1
100
AcDbText
 10
609.0474
 20
16.2909
 30
0.0
 40
2.4
  1
05-16-94
  7
MONOTXT
 72
     1
 11
617.2017
 21
18.6909
 31
0.0
210
0.0
220
0.0
230
1.0
100
AcDbText
 73
     3
  0
LWPOLYLINE
  5
4D0
100
AcDbEntity
  8
1
  6
CONTINUOUS
 62
     7
100
AcDbPolyline
 90
        4
 70
     0
 10
603.1059
 20
25.1976
 10
600.7059
 20
21.0407
 10
605.5059
 20
21.0407
 10
603.1059
 20
25.1976
  0
TEXT
  5
4D1
100
AcDbEntity
  8
1
  6
CONTINUOUS
 62
     1
100
AcDbText
 10
609.7104
 20
21.8787
 30
0.0
 40
2.400048
  1
01-13-93
  7
MONOTXT
 72
     1
 11
617.3546
 21
24.2787
 31
0.0
210
0.0
220
0.0
230
1.0
100
AcDbText
 73
     3
  0
TEXT
  5
4D2
100
AcDbEntity
  8
1
  6
CONTINUOUS
 62
     7
100
AcDbText
 10
602.2508
 20
21.2864
 30
0.0
 40
2.4
  1
4
  7
MONOTXT
210
0.0
220
0.0
230
1.0
100
AcDbText
  0
TEXT
  5
4D3
100
AcDbEntity
  8
1
  6
CONTINUOUS
 62
     7
100
AcDbText
 10
152.6963
 20
250.4777
 30
0.0
 40
3.0
  1
2.1m
 50
90.0
  7
MONOTXT
 72
     4
 11
151.1963
 21
255.1076
 31
0.0
210
0.0
220
0.0
230
1.0
100
AcDbText
  0
TEXT
  5
4D4
100
AcDbEntity
  8
1
  6
CONTINUOUS
 62
     7
100
AcDbText
 10
158.0963
 20
251.2926
 30
0.0
 40
3.0
  1
MIN.
 50
90.0
  7
MONOTXT
 72
     4
 11
156.5963
 21
255.1076
 31
0.0
210
0.0
220
0.0
230
1.0
100
AcDbText
  0
TEXT
  5
4D5
100
AcDbEntity
  8
1
  6
CONTINUOUS
 62
     7
100
AcDbText
 10
236.9084
 20
264.4476
 30
0.0
 40
3.0
  1
2.1m
 50
90.0
  7
MONOTXT
 72
     4
 11
235.4084
 21
269.0775
 31
0.0
210
0.0
220
0.0
230
1.0
100
AcDbText
  0
TEXT
  5
4D6
100
AcDbEntity
  8
1
  6
CONTINUOUS
 62
     7
100
AcDbText
 10
242.3084
 20
265.2625
 30
0.0
 40
3.0
  1
MIN.
 50
90.0
  7
MONOTXT
 72
     4
 11
240.8084
 21
269.0775
 31
0.0
210
0.0
220
0.0
230
1.0
100
AcDbText
  0
TEXT
  5
4D7
100
AcDbEntity
  8
1
  6
CONTINUOUS
 62
     7
100
AcDbText
 10
364.7486
 20
362.6601
 30
0.0
 40
3.0
  1
2.1m
 50
90.0
  7
MONOTXT
 72
     4
 11
363.2486
 21
367.29
 31
0.0
210
0.0
220
0.0
230
1.0
100
AcDbText
  0
TEXT
  5
4D8
100
AcDbEntity
  8
1
  6
CONTINUOUS
 62
     7
100
AcDbText
 10
370.1486
 20
363.475
 30
0.0
 40
3.0
  1
MIN.
 50
90.0
  7
MONOTXT
 72
     4
 11
368.6486
 21
367.29
 31
0.0
210
0.0
220
0.0
230
1.0
100
AcDbText
  0
TEXT
  5
4D9
100
AcDbEntity
  8
1
  6
CONTINUOUS
 62
     7
100
AcDbText
 10
482.2905
 20
360.5289
 30
0.0
 40
3.0
  1
2.1m
 50
90.0
  7
MONOTXT
 72
     4
 11
480.7905
 21
365.1588
 31
0.0
210
0.0
220
0.0
230
1.0
100
AcDbText
  0
TEXT
  5
4DA
100
AcDbEntity
  8
1
  6
CONTINUOUS
 62
     7
100
AcDbText
 10
487.6905
 20
361.3438
 30
0.0
 40
3.0
  1
MIN.
 50
90.0
  7
MONOTXT
 72
     4
 11
486.1905
 21
365.1588
 31
0.0
210
0.0
220
0.0
230
1.0
100
AcDbText
  0
TEXT
  5
4DB
100
AcDbEntity
  8
1
  6
CONTINUOUS
 62
     7
100
AcDbText
 10
584.2076
 20
395.6935
 30
0.0
 40
3.0
  1
2.1m
 50
90.0
  7
MONOTXT
 72
     4
 11
582.7076
 21
400.3234
 31
0.0
210
0.0
220
0.0
230
1.0
100
AcDbText
  0
TEXT
  5
4DC
100
AcDbEntity
  8
1
  6
CONTINUOUS
 62
     7
100
AcDbText
 10
589.6076
 20
396.5084
 30
0.0
 40
3.0
  1
MIN.
 50
90.0
  7
MONOTXT
 72
     4
 11
588.1076
 21
400.3234
 31
0.0
210
0.0
220
0.0
230
1.0
100
AcDbText
  0
TEXT
  5
4DD
100
AcDbEntity
  8
1
  6
CONTINUOUS
 62
     7
100
AcDbText
 10
541.3654
 20
223.7987
 30
0.0
 40
3.0
  1
0.4m
 50
90.0
  7
MONOTXT
 72
     4
 11
539.8654
 21
229.1373
 31
0.0
210
0.0
220
0.0
230
1.0
100
AcDbText
  0
TEXT
  5
4DE
100
AcDbEntity
  8
1
  6
CONTINUOUS
 62
     7
100
AcDbText
 10
546.7654
 20
225.3223
 30
0.0
 40
3.0
  1
MIN.
 50
90.0
  7
MONOTXT
 72
     4
 11
545.2654
 21
229.1373
 31
0.0
210
0.0
220
0.0
230
1.0
100
AcDbText
  0
TEXT
  5
4DF
100
AcDbEntity
  8
1
  6
CONTINUOUS
 62
     7
100
AcDbText
 10
705.6305
 20
273.1057
 30
0.0
 40
3.0
  1
50.75mm
  7
MONOTXT
 72
     4
 11
715.9061
 21
274.6057
 31
0.0
210
0.0
220
0.0
230
1.0
100
AcDbText
  0
TEXT
  5
4E0
100
AcDbEntity
  8
1
  6
CONTINUOUS
 62
     7
100
AcDbText
 10
705.6739
 20
264.5606
 30
0.0
 40
3.0
  1
48.77mm
  7
MONOTXT
 72
     4
 11
716.0439
 21
266.0606
 31
0.0
210
0.0
220
0.0
230
1.0
100
AcDbText
  0
TEXT
  5
4E1
100
AcDbEntity
  8
1
  6
CONTINUOUS
 62
     7
100
AcDbText
 10
672.0765
 20
232.7209
 30
0.0
 40
3.0
  1
28.40mm
 50
90.0
  7
MONOTXT
 72
     4
 11
670.5765
 21
243.0437
 31
0.0
210
0.0
220
0.0
230
1.0
100
AcDbText
  0
TEXT
  5
4E2
100
AcDbEntity
  8
1
  6
CONTINUOUS
 62
     7
100
AcDbText
 10
680.2055
 20
233.6188
 30
0.0
 40
3.0
  1
26.42mm
 50
90.0
  7
MONOTXT
 72
     4
 11
678.7055
 21
243.8708
 31
0.0
210
0.0
220
0.0
230
1.0
100
AcDbText
  0
TEXT
  5
4E3
100
AcDbEntity
  8
1
  6
CONTINUOUS
 62
     7
100
AcDbText
 10
710.3793
 20
204.2108
 30
0.0
 40
3.0
  1
19.43mm
 50
90.0
  7
MONOTXT
 72
     4
 11
708.8793
 21
213.825
 31
0.0
210
0.0
220
0.0
230
1.0
100
AcDbText
  0
TEXT
  5
4E4
100
AcDbEntity
  8
1
  6
CONTINUOUS
 62
     7
100
AcDbText
 10
720.5416
 20
208.9483
 30
0.0
 40
3.0
  1
26.42
 50
90.0
  7
MONOTXT
 72
     4
 11
719.0416
 21
215.1727
 31
0.0
210
0.0
220
0.0
230
1.0
100
AcDbText
  0
TEXT
  5
4E5
100
AcDbEntity
  8
1
  6
CONTINUOUS
 62
     7
100
AcDbText
 10
726.5416
 20
211.6294
 30
0.0
 40
3.0
  1
mm
 50
90.0
  7
MONOTXT
 72
     4
 11
725.0416
 21
215.1727
 31
0.0
210
0.0
220
0.0
230
1.0
100
AcDbText
  0
TEXT
  5
4E6
100
AcDbEntity
  8
1
  6
CONTINUOUS
 62
     7
100
AcDbText
 10
752.2125
 20
209.6384
 30
0.0
 40
3.0
  1
10.39
 50
90.0
  7
MONOTXT
 72
     4
 11
750.7125
 21
215.1541
 31
0.0
210
0.0
220
0.0
230
1.0
100
AcDbText
  0
TEXT
  5
4E7
100
AcDbEntity
  8
1
  6
CONTINUOUS
 62
     7
100
AcDbText
 10
758.2125
 20
211.6108
 30
0.0
 40
3.0
  1
mm
 50
90.0
  7
MONOTXT
 72
     4
 11
756.7125
 21
215.1541
 31
0.0
210
0.0
220
0.0
230
1.0
100
AcDbText
  0
TEXT
  5
4E8
100
AcDbEntity
  8
1
  6
CONTINUOUS
 62
     7
100
AcDbText
 10
759.1337
 20
198.08
 30
0.0
 40
3.0
  1
3.53mm
  7
MONOTXT
 72
     4
 11
767.8975
 21
199.58
 31
0.0
210
0.0
220
0.0
230
1.0
100
AcDbText
  0
TEXT
  5
4E9
100
AcDbEntity
  8
1
  6
CONTINUOUS
 62
     7
100
AcDbText
 10
696.7315
 20
195.7388
 30
0.0
 40
3.0
  1
1.98mm
  7
MONOTXT
 72
     4
 11
704.7866
 21
197.2388
 31
0.0
210
0.0
220
0.0
230
1.0
100
AcDbText
  0
TEXT
  5
4EA
100
AcDbEntity
  8
1
  6
CONTINUOUS
 62
     7
100
AcDbText
 10
733.369
 20
189.8541
 30
0.0
 40
3.0
  1
12.7
  7
MONOTXT
 72
     4
 11
737.4792
 21
191.3541
 31
0.0
210
0.0
220
0.0
230
1.0
100
AcDbText
  0
TEXT
  5
4EB
100
AcDbEntity
  8
1
  6
CONTINUOUS
 62
     7
100
AcDbText
 10
733.9359
 20
183.8541
 30
0.0
 40
3.0
  1
mm
  7
MONOTXT
 72
     4
 11
737.4792
 21
185.3541
 31
0.0
210
0.0
220
0.0
230
1.0
100
AcDbText
  0
TEXT
  5
4EC
100
AcDbEntity
  8
1
  6
CONTINUOUS
 62
     7
100
AcDbText
 10
366.9151
 20
138.9629
 30
0.0
 40
3.0
  1
1500mm
 41
0.583333
  7
MONOTXT
 72
     4
 11
372.0824
 21
140.4629
 31
0.0
210
0.0
220
0.0
230
1.0
100
AcDbText
  0
TEXT
  5
4ED
100
AcDbEntity
  8
1
  6
CONTINUOUS
 62
     7
100
AcDbText
 10
366.9151
 20
132.9629
 30
0.0
 40
3.0
  1
1200mm
 41
0.583333
  7
MONOTXT
 72
     4
 11
372.0824
 21
134.4629
 31
0.0
210
0.0
220
0.0
230
1.0
100
AcDbText
  0
TEXT
  5
4EE
100
AcDbEntity
  8
1
  6
CONTINUOUS
 62
     7
100
AcDbText
 10
366.9151
 20
126.9629
 30
0.0
 40
3.0
  1
1200mm
 41
0.583333
  7
MONOTXT
 72
     4
 11
372.0824
 21
128.4629
 31
0.0
210
0.0
220
0.0
230
1.0
100
AcDbText
  0
TEXT
  5
4EF
100
AcDbEntity
  8
1
  6
CONTINUOUS
 62
     7
100
AcDbText
 10
366.9151
 20
120.9629
 30
0.0
 40
3.0
  1
1200mm
 41
0.583333
  7
MONOTXT
 72
     4
 11
372.0824
 21
122.4629
 31
0.0
210
0.0
220
0.0
230
1.0
100
AcDbText
  0
TEXT
  5
4F0
100
AcDbEntity
  8
1
  6
CONTINUOUS
 62
     7
100
AcDbText
 10
366.9151
 20
114.9629
 30
0.0
 40
3.0
  1
1200mm
 41
0.583333
  7
MONOTXT
 72
     4
 11
372.0824
 21
116.4629
 31
0.0
210
0.0
220
0.0
230
1.0
100
AcDbText
  0
TEXT
  5
4F1
100
AcDbEntity
  8
1
  6
CONTINUOUS
 62
     7
100
AcDbText
 10
371.4968
 20
108.9629
 30
0.0
 40
3.0
  1
 
 41
0.583333
  7
MONOTXT
 72
     4
 11
372.0801
 21
110.4629
 31
0.0
210
0.0
220
0.0
230
1.0
100
AcDbText
  0
TEXT
  5
4F2
100
AcDbEntity
  8
1
  6
CONTINUOUS
 62
     7
100
AcDbText
 10
366.9151
 20
102.9629
 30
0.0
 40
3.0
  1
1200mm
 41
0.583333
  7
MONOTXT
 72
     4
 11
372.0824
 21
104.4629
 31
0.0
210
0.0
220
0.0
230
1.0
100
AcDbText
  0
TEXT
  5
4F3
100
AcDbEntity
  8
1
  6
CONTINUOUS
 62
     7
100
AcDbText
 10
366.9151
 20
96.9629
 30
0.0
 40
3.0
  1
1200mm
 41
0.583333
  7
MONOTXT
 72
     4
 11
372.0824
 21
98.4629
 31
0.0
210
0.0
220
0.0
230
1.0
100
AcDbText
  0
TEXT
  5
4F4
100
AcDbEntity
  8
1
  6
CONTINUOUS
 62
     7
100
AcDbText
 10
366.9151
 20
90.9629
 30
0.0
 40
3.0
  1
1200mm
 41
0.583333
  7
MONOTXT
 72
     4
 11
372.0824
 21
92.4629
 31
0.0
210
0.0
220
0.0
230
1.0
100
AcDbText
  0
TEXT
  5
4F5
100
AcDbEntity
  8
1
  6
CONTINUOUS
 62
     7
100
AcDbText
 10
379.0327
 20
127.1268
 30
0.0
 40
3.0
  1
1200mm
 41
0.583333
  7
MONOTXT
 72
     4
 11
384.2
 21
128.6268
 31
0.0
210
0.0
220
0.0
230
1.0
100
AcDbText
  0
TEXT
  5
4F6
100
AcDbEntity
  8
1
  6
CONTINUOUS
 62
     7
100
AcDbText
 10
379.0327
 20
121.1268
 30
0.0
 40
3.0
  1
1500mm
 41
0.583333
  7
MONOTXT
 72
     4
 11
384.2
 21
122.6268
 31
0.0
210
0.0
220
0.0
230
1.0
100
AcDbText
  0
TEXT
  5
4F7
100
AcDbEntity
  8
1
  6
CONTINUOUS
 62
     7
100
AcDbText
 10
379.5701
 20
115.1268
 30
0.0
 40
3.0
  1
900mm
 41
0.583333
  7
MONOTXT
 72
     4
 11
384.2
 21
116.6268
 31
0.0
210
0.0
220
0.0
230
1.0
100
AcDbText
  0
TEXT
  5
4F8
100
AcDbEntity
  8
1
  6
CONTINUOUS
 62
     7
100
AcDbText
 10
383.6144
 20
109.1268
 30
0.0
 40
3.0
  1
 
 41
0.583333
  7
MONOTXT
 72
     4
 11
384.1977
 21
110.6268
 31
0.0
210
0.0
220
0.0
230
1.0
100
AcDbText
  0
TEXT
  5
4F9
100
AcDbEntity
  8
1
  6
CONTINUOUS
 62
     7
100
AcDbText
 10
383.6144
 20
103.1268
 30
0.0
 40
3.0
  1
 
 41
0.583333
  7
MONOTXT
 72
     4
 11
384.1977
 21
104.6268
 31
0.0
210
0.0
220
0.0
230
1.0
100
AcDbText
  0
TEXT
  5
4FA
100
AcDbEntity
  8
1
  6
CONTINUOUS
 62
     7
100
AcDbText
 10
379.0327
 20
97.1268
 30
0.0
 40
3.0
  1
1500mm
 41
0.583333
  7
MONOTXT
 72
     4
 11
384.2
 21
98.6268
 31
0.0
210
0.0
220
0.0
230
1.0
100
AcDbText
  0
TEXT
  5
4FB
100
AcDbEntity
  8
1
  6
CONTINUOUS
 62
     7
100
AcDbText
 10
379.0327
 20
91.1268
 30
0.0
 40
3.0
  1
1200mm
 41
0.583333
  7
MONOTXT
 72
     4
 11
384.2
 21
92.6268
 31
0.0
210
0.0
220
0.0
230
1.0
100
AcDbText
  0
TEXT
  5
4FC
100
AcDbEntity
  8
1
  6
CONTINUOUS
 62
     7
100
AcDbText
 10
404.752
 20
140.112
 30
0.0
 40
3.0
  1
150mm
 41
0.583333
  7
MONOTXT
 72
     4
 11
409.0512
 21
141.612
 31
0.0
210
0.0
220
0.0
230
1.0
100
AcDbText
  0
TEXT
  5
4FD
100
AcDbEntity
  8
1
  6
CONTINUOUS
 62
     7
100
AcDbText
 10
404.752
 20
134.112
 30
0.0
 40
3.0
  1
150mm
 41
0.583333
  7
MONOTXT
 72
     4
 11
409.0512
 21
135.612
 31
0.0
210
0.0
220
0.0
230
1.0
100
AcDbText
  0
TEXT
  5
4FE
100
AcDbEntity
  8
1
  6
CONTINUOUS
 62
     7
100
AcDbText
 10
404.38
 20
128.112
 30
0.0
 40
3.0
  1
350mm
 41
0.583333
  7
MONOTXT
 72
     4
 11
409.0512
 21
129.612
 31
0.0
210
0.0
220
0.0
230
1.0
100
AcDbText
  0
TEXT
  5
4FF
100
AcDbEntity
  8
1
  6
CONTINUOUS
 62
     7
100
AcDbText
 10
404.3662
 20
122.112
 30
0.0
 40
3.0
  1
375mm
 41
0.583333
  7
MONOTXT
 72
     4
 11
409.0512
 21
123.612
 31
0.0
210
0.0
220
0.0
230
1.0
100
AcDbText
  0
TEXT
  5
500
100
AcDbEntity
  8
1
  6
CONTINUOUS
 62
     7
100
AcDbText
 10
404.38
 20
116.112
 30
0.0
 40
3.0
  1
300mm
 41
0.583333
  7
MONOTXT
 72
     4
 11
409.0512
 21
117.612
 31
0.0
210
0.0
220
0.0
230
1.0
100
AcDbText
  0
TEXT
  5
501
100
AcDbEntity
  8
1
  6
CONTINUOUS
 62
     7
100
AcDbText
 10
408.4656
 20
110.112
 30
0.0
 40
3.0
  1
 
 41
0.583333
  7
MONOTXT
 72
     4
 11
409.0489
 21
111.612
 31
0.0
210
0.0
220
0.0
230
1.0
100
AcDbText
  0
TEXT
  5
502
100
AcDbEntity
  8
1
  6
CONTINUOUS
 62
     7
100
AcDbText
 10
404.38
 20
104.112
 30
0.0
 40
3.0
  1
500mm
 41
0.583333
  7
MONOTXT
 72
     4
 11
409.0512
 21
105.612
 31
0.0
210
0.0
220
0.0
230
1.0
100
AcDbText
  0
TEXT
  5
503
100
AcDbEntity
  8
1
  6
CONTINUOUS
 62
     7
100
AcDbText
 10
404.3662
 20
98.112
 30
0.0
 40
3.0
  1
375mm
 41
0.583333
  7
MONOTXT
 72
     4
 11
409.0512
 21
99.612
 31
0.0
210
0.0
220
0.0
230
1.0
100
AcDbText
  0
TEXT
  5
504
100
AcDbEntity
  8
1
  6
CONTINUOUS
 62
     7
100
AcDbText
 10
404.38
 20
92.112
 30
0.0
 40
3.0
  1
350mm
 41
0.583333
  7
MONOTXT
 72
     4
 11
409.0512
 21
93.612
 31
0.0
210
0.0
220
0.0
230
1.0
100
AcDbText
  0
TEXT
  5
505
100
AcDbEntity
  8
1
  6
CONTINUOUS
 62
     7
100
AcDbText
 10
416.3467
 20
140.1173
 30
0.0
 40
3.0
  1
325mm
 41
0.583333
  7
MONOTXT
 72
     4
 11
421.0179
 21
141.6173
 31
0.0
210
0.0
220
0.0
230
1.0
100
AcDbText
  0
TEXT
  5
506
100
AcDbEntity
  8
1
  6
CONTINUOUS
 62
     7
100
AcDbText
 10
416.3467
 20
134.1173
 30
0.0
 40
3.0
  1
200mm
 41
0.583333
  7
MONOTXT
 72
     4
 11
421.0179
 21
135.6173
 31
0.0
210
0.0
220
0.0
230
1.0
100
AcDbText
  0
TEXT
  5
507
100
AcDbEntity
  8
1
  6
CONTINUOUS
 62
     7
100
AcDbText
 10
416.3467
 20
128.1173
 30
0.0
 40
3.0
  1
500mm
 41
0.583333
  7
MONOTXT
 72
     4
 11
421.0179
 21
129.6173
 31
0.0
210
0.0
220
0.0
230
1.0
100
AcDbText
  0
TEXT
  5
508
100
AcDbEntity
  8
1
  6
CONTINUOUS
 62
     7
100
AcDbText
 10
416.3329
 20
122.1173
 30
0.0
 40
3.0
  1
750mm
 41
0.583333
  7
MONOTXT
 72
     4
 11
421.0179
 21
123.6173
 31
0.0
210
0.0
220
0.0
230
1.0
100
AcDbText
  0
TEXT
  5
509
100
AcDbEntity
  8
1
  6
CONTINUOUS
 62
     7
100
AcDbText
 10
416.3467
 20
116.1173
 30
0.0
 40
3.0
  1
300mm
 41
0.583333
  7
MONOTXT
 72
     4
 11
421.0179
 21
117.6173
 31
0.0
210
0.0
220
0.0
230
1.0
100
AcDbText
  0
TEXT
  5
50A
100
AcDbEntity
  8
1
  6
CONTINUOUS
 62
     7
100
AcDbText
 10
420.4323
 20
110.1173
 30
0.0
 40
3.0
  1
 
 41
0.583333
  7
MONOTXT
 72
     4
 11
421.0156
 21
111.6173
 31
0.0
210
0.0
220
0.0
230
1.0
100
AcDbText
  0
TEXT
  5
50B
100
AcDbEntity
  8
1
  6
CONTINUOUS
 62
     7
100
AcDbText
 10
420.4323
 20
104.1173
 30
0.0
 40
3.0
  1
 
 41
0.583333
  7
MONOTXT
 72
     4
 11
421.0156
 21
105.6173
 31
0.0
210
0.0
220
0.0
230
1.0
100
AcDbText
  0
TEXT
  5
50C
100
AcDbEntity
  8
1
  6
CONTINUOUS
 62
     7
100
AcDbText
 10
416.3329
 20
98.1173
 30
0.0
 40
3.0
  1
750mm
 41
0.583333
  7
MONOTXT
 72
     4
 11
421.0179
 21
99.6173
 31
0.0
210
0.0
220
0.0
230
1.0
100
AcDbText
  0
TEXT
  5
50D
100
AcDbEntity
  8
1
  6
CONTINUOUS
 62
     7
100
AcDbText
 10
416.3467
 20
92.1173
 30
0.0
 40
3.0
  1
500mm
 41
0.583333
  7
MONOTXT
 72
     4
 11
421.0179
 21
93.6173
 31
0.0
210
0.0
220
0.0
230
1.0
100
AcDbText
  0
TEXT
  5
50E
100
AcDbEntity
  8
1
  6
CONTINUOUS
 62
     7
100
AcDbText
 10
466.7456
 20
103.361
 30
0.0
 40
3.0
  1
950mm
  7
MONOTXT
 72
     4
 11
474.6826
 21
104.861
 31
0.0
210
0.0
220
0.0
230
1.0
100
AcDbText
  0
TEXT
  5
50F
100
AcDbEntity
  8
1
  6
CONTINUOUS
 62
     7
100
AcDbText
 10
466.7456
 20
94.481
 30
0.0
 40
3.0
  1
950mm
  7
MONOTXT
 72
     4
 11
474.6826
 21
95.981
 31
0.0
210
0.0
220
0.0
230
1.0
100
AcDbText
  0
ENDSEC
  0
SECTION
  2
OBJECTS
  0
DICTIONARY
  5
19
100
AcDbDictionary
  3
ACAD_GROUP
350
1A
  3
ACAD_MLINESTYLE
350
1B
  0
DICTIONARY
  5
1A
102
{ACAD_REACTORS
330
19
102
}
100
AcDbDictionary
  0
DICTIONARY
  5
1B
102
{ACAD_REACTORS
330
19
102
}
100
AcDbDictionary
  3
STANDARD
350
1C
  0
MLINESTYLE
  5
1C
102
{ACAD_REACTORS
330
1B
102
}
100
AcDbMlineStyle
  2
STANDARD
 70
     0
  3

 62
     0
 51
90.0
 52
90.0
 71
     2
 49
0.5
 62
   256
  6
BYLAYER
 49
-0.5
 62
   256
  6
BYLAYER
  0
ENDSEC
  0
EOF
