  0
SECTION
  2
HEADER
  9
$ACADVER
  1
AC1014
  9
$ACADMAINTVER
 70
     0
  9
$DWGCODEPAGE
  3
ANSI_1252
  9
$INSBASE
 10
0.0
 20
0.0
 30
0.0
  9
$EXTMIN
 10
12.565
 20
-411.9162
 30
0.0
  9
$EXTMAX
 10
721.2685
 20
32.7822
 30
0.0
  9
$LIMMIN
 10
0.0
 20
0.0
  9
$LIMMAX
 10
12.0
 20
9.0
  9
$ORTHOMODE
 70
     0
  9
$REGENMODE
 70
     1
  9
$FILLMODE
 70
     1
  9
$QTEXTMODE
 70
     0
  9
$MIRRTEXT
 70
     1
  9
$DRAGMODE
 70
     2
  9
$LTSCALE
 40
1.0
  9
$OSMODE
 70
     0
  9
$ATTMODE
 70
     1
  9
$TEXTSIZE
 40
0.2
  9
$TRACEWID
 40
0.05
  9
$TEXTSTYLE
  7
STANDARD
  9
$CLAYER
  8
0
  9
$CELTYPE
  6
CONTINUOUS
  9
$CECOLOR
 62
   256
  9
$CELTSCALE
 40
1.0
  9
$DELOBJ
 70
     1
  9
$DISPSILH
 70
     0
  9
$DIMSCALE
 40
1.0
  9
$DIMASZ
 40
0.18
  9
$DIMEXO
 40
0.0625
  9
$DIMDLI
 40
0.38
  9
$DIMRND
 40
0.0
  9
$DIMDLE
 40
0.0
  9
$DIMEXE
 40
0.18
  9
$DIMTP
 40
0.0
  9
$DIMTM
 40
0.0
  9
$DIMTXT
 40
0.18
  9
$DIMCEN
 40
0.09
  9
$DIMTSZ
 40
0.0
  9
$DIMTOL
 70
     0
  9
$DIMLIM
 70
     0
  9
$DIMTIH
 70
     1
  9
$DIMTOH
 70
     1
  9
$DIMSE1
 70
     0
  9
$DIMSE2
 70
     0
  9
$DIMTAD
 70
     0
  9
$DIMZIN
 70
     0
  9
$DIMBLK
  1

  9
$DIMASO
 70
     1
  9
$DIMSHO
 70
     1
  9
$DIMPOST
  1

  9
$DIMAPOST
  1

  9
$DIMALT
 70
     0
  9
$DIMALTD
 70
     2
  9
$DIMALTF
 40
25.4
  9
$DIMLFAC
 40
1.0
  9
$DIMTOFL
 70
     0
  9
$DIMTVP
 40
0.0
  9
$DIMTIX
 70
     0
  9
$DIMSOXD
 70
     0
  9
$DIMSAH
 70
     0
  9
$DIMBLK1
  1

  9
$DIMBLK2
  1

  9
$DIMSTYLE
  2
STANDARD
  9
$DIMCLRD
 70
     0
  9
$DIMCLRE
 70
     0
  9
$DIMCLRT
 70
     0
  9
$DIMTFAC
 40
1.0
  9
$DIMGAP
 40
0.09
  9
$DIMJUST
 70
     0
  9
$DIMSD1
 70
     0
  9
$DIMSD2
 70
     0
  9
$DIMTOLJ
 70
     1
  9
$DIMTZIN
 70
     0
  9
$DIMALTZ
 70
     0
  9
$DIMALTTZ
 70
     0
  9
$DIMFIT
 70
     3
  9
$DIMUPT
 70
     0
  9
$DIMUNIT
 70
     2
  9
$DIMDEC
 70
     4
  9
$DIMTDEC
 70
     4
  9
$DIMALTU
 70
     2
  9
$DIMALTTD
 70
     2
  9
$DIMTXSTY
  7
STANDARD
  9
$DIMAUNIT
 70
     0
  9
$LUNITS
 70
     2
  9
$LUPREC
 70
     4
  9
$SKETCHINC
 40
0.1
  9
$FILLETRAD
 40
0.0
  9
$AUNITS
 70
     0
  9
$AUPREC
 70
     0
  9
$MENU
  1
acad
  9
$ELEVATION
 40
0.0
  9
$PELEVATION
 40
0.0
  9
$THICKNESS
 40
0.0
  9
$LIMCHECK
 70
     0
  9
$BLIPMODE
 70
     1
  9
$CHAMFERA
 40
0.0
  9
$CHAMFERB
 40
0.0
  9
$CHAMFERC
 40
0.0
  9
$CHAMFERD
 40
0.0
  9
$SKPOLY
 70
     0
  9
$TDCREATE
 40
2451803.451458334
  9
$TDUPDATE
 40
2451803.451458334
  9
$TDINDWG
 40
0.0000000000
  9
$TDUSRTIMER
 40
0.0000000000
  9
$USRTIMER
 70
     1
  9
$ANGBASE
 50
0.0
  9
$ANGDIR
 70
     0
  9
$PDMODE
 70
     0
  9
$PDSIZE
 40
0.0
  9
$PLINEWID
 40
0.0
  9
$COORDS
 70
     0
  9
$SPLFRAME
 70
     0
  9
$SPLINETYPE
 70
     6
  9
$SPLINESEGS
 70
    10
  9
$ATTDIA
 70
     0
  9
$ATTREQ
 70
     1
  9
$HANDLING
 70
     1
  9
$HANDSEED
  5
355
  9
$SURFTAB1
 70
     6
  9
$SURFTAB2
 70
     6
  9
$SURFTYPE
 70
     6
  9
$SURFU
 70
     6
  9
$SURFV
 70
     6
  9
$UCSNAME
  2

  9
$UCSORG
 10
0.0
 20
0.0
 30
0.0
  9
$UCSXDIR
 10
1.0
 20
0.0
 30
0.0
  9
$UCSYDIR
 10
0.0
 20
1.0
 30
0.0
  9
$PUCSNAME
  2

  9
$PUCSORG
 10
0.0
 20
0.0
 30
0.0
  9
$PUCSXDIR
 10
1.0
 20
0.0
 30
0.0
  9
$PUCSYDIR
 10
0.0
 20
1.0
 30
0.0
  9
$USERI1
 70
     0
  9
$USERI2
 70
     0
  9
$USERI3
 70
     0
  9
$USERI4
 70
     0
  9
$USERI5
 70
     0
  9
$USERR1
 40
0.0
  9
$USERR2
 40
0.0
  9
$USERR3
 40
0.0
  9
$USERR4
 40
0.0
  9
$USERR5
 40
0.0
  9
$WORLDVIEW
 70
     1
  9
$SHADEDGE
 70
     3
  9
$SHADEDIF
 70
    70
  9
$TILEMODE
 70
     1
  9
$MAXACTVP
 70
    16
  9
$PINSBASE
 10
0.0
 20
0.0
 30
0.0
  9
$PLIMCHECK
 70
     0
  9
$PEXTMIN
 10
-1.000000E+20
 20
-1.000000E+20
 30
-1.000000E+20
  9
$PEXTMAX
 10
-1.000000E+20
 20
-1.000000E+20
 30
-1.000000E+20
  9
$PLIMMIN
 10
0.0
 20
0.0
  9
$PLIMMAX
 10
12.0
 20
9.0
  9
$UNITMODE
 70
     0
  9
$VISRETAIN
 70
     0
  9
$PLINEGEN
 70
     1
  9
$PSLTSCALE
 70
     0
  9
$TREEDEPTH
 70
  3020
  9
$PICKSTYLE
 70
     1
  9
$CMLSTYLE
  2
STANDARD
  9
$CMLJUST
 70
     0
  9
$CMLSCALE
 40
1.0
  9
$PROXYGRAPHICS
 70
     0
  9
$MEASUREMENT
 70
     0
  0
ENDSEC
  0
SECTION
  2
CLASSES
  0
CLASS
  1
LWPOLYLINE
  2
AcDbPolyline
  3
"AutoCAD"
 90
        0
280
     0
281
     1
  0
CLASS
  1
IMAGE
  2
AcDbRasterImage
  3
ISM
 90
      127
280
     0
281
     1
  0
CLASS
  1
OLE2FRAME
  2
AcDbOle2Frame
  3
""
 90
        0
280
     0
281
     1
  0
CLASS
  1
HATCH
  2
AcDbHatch
  3
"ACAD_SEDONA"
 90
        0
280
     0
281
     1
  0
CLASS
  1
DICTIONARYVAR
  2
AcDbDictionaryVar
  3
"AutoCAD"
 90
        0
280
     0
281
     0
  0
CLASS
  1
RASTERVARIABLES
  2
AcDbRasterVariables
  3
ISM
 90
        0
280
     0
281
     0
  0
CLASS
  1
IMAGEDEF
  2
AcDbRasterImageDef
  3
ISM
 90
        0
280
     0
281
     0
  0
CLASS
  1
IMAGEDEF_REACTOR
  2
AcDbRasterImageDefReactor
  3
ISM
 90
        1
280
     0
281
     0
  0
CLASS
  1
IDBUFFER
  2
AcDbIdBuffer
  3
"Acad"
 90
        0
280
     0
281
     0
  0
CLASS
  1
SPATIAL_FILTER
  2
AcDbSpatialFilter
  3
"Acad"
 90
        0
280
     0
281
     0
  0
CLASS
  1
XRECORD
  2
AcDbXrecord
  3
"<Built In>"
 90
        0
280
     0
281
     0
  0
CLASS
  1
SORTENTSTABLE
  2
AcDbSortentsTable
  3
"AutoCAD"
 90
        0
280
     0
281
     0
  0
CLASS
  1
LAYER_INDEX
  2
AcDbLayerIndex
  3
"Acad"
 90
        0
280
     0
281
     0
  0
CLASS
  1
SPATIAL_INDEX
  2
AcDbSpatialIndex
  3
"Acad"
 90
        0
280
     0
281
     0
  0
CLASS
  1
OBJECT_PTR
  2
CAseDLPNTableRecord
  3
"ASE-LPNTableRecord"
 90
        1
280
     0
281
     0
  0
ENDSEC
  0
SECTION
  2
TABLES
  0
TABLE
  2
VPORT
  5
7
100
AcDbSymbolTable
 70
     1
  0
VPORT
  5
354
100
AcDbSymbolTableRecord
100
AcDbViewportTableRecord
  2
*ACTIVE
 70
     0
 10
0.0
 20
0.0
 11
1.0
 21
1.0
 12
0.0
 22
0.0
 13
0.0
 23
0.0
 14
0.0
 24
0.0
 15
0.0
 25
0.0
 16
0.0
 26
0.0
 36
1.0
 17
307.2691
 27
-175.9936
 37
0.0
 40
565.24
 41
1.545
 42
50.0
 43
0.0
 44
0.0
 50
0.0
 51
0.0
 71
     0
 72
   100
 73
     1
 74
     0
 75
     0
 76
     0
 77
     0
 78
     0
  0
ENDTAB
  0
TABLE
  2
LTYPE
  5
4
100
AcDbSymbolTable
 70
     9
  0
LTYPE
  5
11
100
AcDbSymbolTableRecord
100
AcDbLinetypeTableRecord
  2
BYBLOCK
 70
     0
  3

 72
    65
 73
     0
 40
0.0
  0
LTYPE
  5
12
100
AcDbSymbolTableRecord
100
AcDbLinetypeTableRecord
  2
BYLAYER
 70
     0
  3

 72
    65
 73
     0
 40
0.0
  0
LTYPE
  5
13
100
AcDbSymbolTableRecord
100
AcDbLinetypeTableRecord
  2
CONTINUOUS
 70
     0
  3
Solid line
 72
    65
 73
     0
 40
0.0
  0
LTYPE
  5
22
100
AcDbSymbolTableRecord
100
AcDbLinetypeTableRecord
  2
DOT
 70
    64
  3
. . . . . . . . . . . . . . . . . . . . . . . . . . . . . . . . .
 72
    65
 73
     2
 40
0.25
 49
0.0
 74
     0
 49
-0.25
 74
     0
  0
LTYPE
  5
23
100
AcDbSymbolTableRecord
100
AcDbLinetypeTableRecord
  2
HIDDEN
 70
    64
  3
__ __ __ __ __ __ __ __ __ __ __ __ __ __ __ __ __ __ __ __ __ 
 72
    65
 73
     2
 40
0.375
 49
0.25
 74
     0
 49
-0.125
 74
     0
  0
LTYPE
  5
24
100
AcDbSymbolTableRecord
100
AcDbLinetypeTableRecord
  2
DASHED
 70
    64
  3
__ __ __ __ __ __ __ __ __ __ __ __ __ __ __ __ __ __ __ __ __
 72
    65
 73
     2
 40
0.75
 49
0.5
 74
     0
 49
-0.25
 74
     0
  0
LTYPE
  5
25
100
AcDbSymbolTableRecord
100
AcDbLinetypeTableRecord
  2
DASHDOT
 70
    64
  3
__ . __ . __ . __ . __ . __ . __ . __ . __ . __ . __ . __ . _
 72
    65
 73
     4
 40
1.0
 49
0.5
 74
     0
 49
-0.25
 74
     0
 49
0.0
 74
     0
 49
-0.25
 74
     0
  0
LTYPE
  5
26
100
AcDbSymbolTableRecord
100
AcDbLinetypeTableRecord
  2
DIVIDE
 70
    64
  3
____ . . ____ . . ____ . . ____ . . ____ . . ____ . . ____ . .
 72
    65
 73
     6
 40
1.25
 49
0.5
 74
     0
 49
-0.25
 74
     0
 49
0.0
 74
     0
 49
-0.25
 74
     0
 49
0.0
 74
     0
 49
-0.25
 74
     0
  0
LTYPE
  5
27
100
AcDbSymbolTableRecord
100
AcDbLinetypeTableRecord
  2
CENTER
 70
    64
  3
____ _ ____ _ ____ _ ____ _ ____ _ ____ _ ____ _ ____ _ ____ _
 72
    65
 73
     4
 40
2.0
 49
1.25
 74
     0
 49
-0.25
 74
     0
 49
0.25
 74
     0
 49
-0.25
 74
     0
  0
ENDTAB
  0
TABLE
  2
LAYER
  5
2
100
AcDbSymbolTable
 70
     2
  0
LAYER
  5
14
102
{ACAD_XDICTIONARY
360
5F205F5F5F5F205F
102
}
100
AcDbSymbolTableRecord
100
AcDbLayerTableRecord
  2
0
 70
     0
 62
     7
  6
CONTINUOUS
  0
LAYER
  5
2A
102
{ACAD_XDICTIONARY
360
5F205F5F5F5F205F
102
}
100
AcDbSymbolTableRecord
100
AcDbLayerTableRecord
  2
1
 70
    64
 62
     7
  6
CONTINUOUS
  0
ENDTAB
  0
TABLE
  2
STYLE
  5
3
100
AcDbSymbolTable
 70
     3
  0
STYLE
  5
17
100
AcDbSymbolTableRecord
100
AcDbTextStyleTableRecord
  2
STANDARD
 70
     0
 40
0.0
 41
1.0
 50
0.0
 71
     0
 42
0.0
  3
txt
  4

  0
STYLE
  5
2B
100
AcDbSymbolTableRecord
100
AcDbTextStyleTableRecord
  2
MONOTXT
 70
     0
 40
0.2
 41
1.0
 50
0.0
 71
     0
 42
0.2
  3
MONOTXT
  4

  0
STYLE
  5
35
100
AcDbSymbolTableRecord
100
AcDbTextStyleTableRecord
  2
TXT
 70
     0
 40
0.2
 41
1.0
 50
0.0
 71
     0
 42
0.2
  3
TXT
  4

  0
ENDTAB
  0
TABLE
  2
VIEW
  5
5
100
AcDbSymbolTable
 70
     0
  0
ENDTAB
  0
TABLE
  2
UCS
  5
6
100
AcDbSymbolTable
 70
     0
  0
ENDTAB
  0
TABLE
  2
APPID
  5
8
100
AcDbSymbolTable
 70
     1
  0
APPID
  5
16
100
AcDbSymbolTableRecord
100
AcDbRegAppTableRecord
  2
ACAD
 70
     0
  0
ENDTAB
  0
TABLE
  2
DIMSTYLE
  5
9
100
AcDbSymbolTable
 70
     1
  0
DIMSTYLE
105
18
100
AcDbSymbolTableRecord
100
AcDbDimStyleTableRecord
  2
STANDARD
 70
     0
  3

  4

  5

  6

  7

 40
1.0
 41
0.18
 42
0.0625
 43
0.38
 44
0.18
 45
0.0
 46
0.0
 47
0.0
 48
0.0
140
0.18
141
0.09
142
0.0
143
25.4
144
1.0
145
0.0
146
1.0
147
0.09
 71
     0
 72
     0
 73
     1
 74
     1
 75
     0
 76
     0
 77
     0
 78
     0
170
     0
171
     2
172
     0
173
     0
174
     0
175
     0
176
     0
177
     0
178
     0
270
     2
271
     4
272
     4
273
     2
274
     2
340
17
275
     0
280
     0
281
     0
282
     0
283
     1
284
     0
285
     0
286
     0
287
     0
288
     0
  0
ENDTAB
  0
TABLE
  2
BLOCK_RECORD
  5
1
100
AcDbSymbolTable
 70
     1
  0
BLOCK_RECORD
  5
A
100
AcDbSymbolTableRecord
100
AcDbBlockTableRecord
  2
*MODEL_SPACE
  0
BLOCK_RECORD
  5
B
100
AcDbSymbolTableRecord
100
AcDbBlockTableRecord
  2
*PAPER_SPACE
  0
BLOCK_RECORD
  5
103
102
{ACAD_XDICTIONARY
360
6A9B022400000000
102
}
100
AcDbSymbolTableRecord
100
AcDbBlockTableRecord
  2
LDR
  0
ENDTAB
  0
ENDSEC
  0
SECTION
  2
BLOCKS
  0
BLOCK
  5
D
100
AcDbEntity
  8
0
100
AcDbBlockBegin
  2
*MODEL_SPACE
 70
     0
 10
0.0
 20
0.0
 30
0.0
  3
*MODEL_SPACE
  1

  0
ENDBLK
  5
E
100
AcDbEntity
  8
0
100
AcDbBlockEnd
  0
BLOCK
  5
F
100
AcDbEntity
 67
     1
  8
0
100
AcDbBlockBegin
  2
*PAPER_SPACE
 70
     0
 10
0.0
 20
0.0
 30
0.0
  3
*PAPER_SPACE
  1

  0
ENDBLK
  5
10
100
AcDbEntity
 67
     1
  8
0
100
AcDbBlockEnd
  0
BLOCK
  5
104
100
AcDbEntity
  8
1
  6
CONTINUOUS
 62
     1
100
AcDbBlockBegin
  2
LDR
 70
     0
 10
0.0
 20
0.0
 30
0.0
  3
LNR
  1

  0
ELLIPSE
  5
105
100
AcDbEntity
  8
1
  6
CONTINUOUS
 62
     1
100
AcDbEllipse
 10
-0.005456
 20
-0.001382
 30
0.0
 11
0.0089285004623472
 21
0.0007807500129699
 31
0.0
210
0.0
220
0.0
230
1.0
 40
0.122415
 41
0.8963533496766982
 42
3.1415926535897931
  0
ELLIPSE
  5
106
100
AcDbEntity
  8
1
  6
CONTINUOUS
 62
     1
100
AcDbEllipse
 10
-0.005602
 20
0.001058
 30
0.0
 11
0.0087822506056358
 21
-0.0008782502048316
 31
0.0
210
0.0
220
0.0
230
1.0
 40
0.07063
 41
3.1407147529760402
 42
5.4181099545465106
  0
ENDBLK
  5
107
100
AcDbEntity
  8
1
  6
CONTINUOUS
 62
     1
100
AcDbBlockEnd
  0
ENDSEC
  0
SECTION
  2
ENTITIES
  0
TEXT
  5
2C
100
AcDbEntity
  8
1
  6
CONTINUOUS
 62
     1
100
AcDbText
 10
547.5645
 20
-389.3934
 30
0.0
 40
2.400048
  1
04-22-75
  7
MONOTXT
 72
     1
 11
556.3615
 21
-386.9934
 31
0.0
210
0.0
220
0.0
230
1.0
100
AcDbText
 73
     3
  0
TEXT
  5
2D
100
AcDbEntity
  8
1
  6
CONTINUOUS
 62
     1
100
AcDbText
 10
549.1846
 20
-394.8062
 30
0.0
 40
2.400048
  1
11-15-76
  7
MONOTXT
 72
     1
 11
556.3374
 21
-392.4062
 31
0.0
210
0.0
220
0.0
230
1.0
100
AcDbText
 73
     3
  0
TEXT
  5
2E
100
AcDbEntity
  8
1
  6
CONTINUOUS
 62
     1
100
AcDbText
 10
547.7918
 20
-400.6175
 30
0.0
 40
2.400048
  1
09-30-77
  7
MONOTXT
 72
     1
 11
556.4848
 21
-398.2175
 31
0.0
210
0.0
220
0.0
230
1.0
100
AcDbText
 73
     3
  0
TEXT
  5
2F
100
AcDbEntity
  8
1
  6
CONTINUOUS
 62
     1
100
AcDbText
 10
547.68
 20
-406.4288
 30
0.0
 40
2.400048
  1
        
  7
MONOTXT
 72
     1
 11
556.8802
 21
-404.0288
 31
0.0
210
0.0
220
0.0
230
1.0
100
AcDbText
 73
     3
  0
TEXT
  5
30
100
AcDbEntity
  8
1
  6
CONTINUOUS
 62
     1
100
AcDbText
 10
542.0432
 20
-389.5002
 30
0.0
 40
2.400048
  1
        
  7
MONOTXT
 72
     1
 11
551.2434
 21
-387.1002
 31
0.0
210
0.0
220
0.0
230
1.0
100
AcDbText
 73
     3
  0
TEXT
  5
31
100
AcDbEntity
  8
1
  6
CONTINUOUS
 62
     1
100
AcDbText
 10
542.2352
 20
-394.8762
 30
0.0
 40
2.400048
  1
        
  7
MONOTXT
 72
     1
 11
551.4354
 21
-392.4762
 31
0.0
210
0.0
220
0.0
230
1.0
100
AcDbText
 73
     3
  0
TEXT
  5
32
100
AcDbEntity
  8
1
  6
CONTINUOUS
 62
     1
100
AcDbText
 10
542.1152
 20
-400.3962
 30
0.0
 40
2.400048
  1
        
  7
MONOTXT
 72
     1
 11
551.3154
 21
-397.9962
 31
0.0
210
0.0
220
0.0
230
1.0
100
AcDbText
 73
     3
  0
TEXT
  5
33
100
AcDbEntity
  8
1
  6
CONTINUOUS
 62
     1
100
AcDbText
 10
542.2352
 20
-405.8922
 30
0.0
 40
2.400048
  1
        
  7
MONOTXT
 72
     1
 11
551.4354
 21
-403.4922
 31
0.0
210
0.0
220
0.0
230
1.0
100
AcDbText
 73
     3
  0
TEXT
  5
34
100
AcDbEntity
  8
1
  6
CONTINUOUS
 62
     1
100
AcDbText
 10
542.2352
 20
-410.7162
 30
0.0
 40
2.400048
  1
        
  7
MONOTXT
 72
     1
 11
551.4354
 21
-408.3162
 31
0.0
210
0.0
220
0.0
230
1.0
100
AcDbText
 73
     3
  0
TEXT
  5
36
100
AcDbEntity
  8
1
  6
CONTINUOUS
 62
     1
100
AcDbText
 10
591.9079
 20
-371.1194
 30
0.0
 40
8.3912
  1
FOR GUIDE SIGNS
  7
TXT
 72
     1
 11
644.0223
 21
-362.7282
 31
0.0
210
0.0
220
0.0
230
1.0
100
AcDbText
 73
     3
  0
TEXT
  5
37
100
AcDbEntity
  8
1
  6
CONTINUOUS
 62
     1
100
AcDbText
 10
598.2127
 20
-359.745
 30
0.0
 40
8.3912
  1
SHIELD DETAILS
  7
TXT
 72
     1
 11
644.2219
 21
-351.3538
 31
0.0
210
0.0
220
0.0
230
1.0
100
AcDbText
 73
     3
  0
LWPOLYLINE
  5
38
100
AcDbEntity
  8
1
  6
CONTINUOUS
 62
     7
100
AcDbPolyline
 90
        4
 70
     0
 10
541.9395
 20
-391.2025
 10
539.5395
 20
-395.3594
 10
544.3395
 20
-395.3594
 10
541.9395
 20
-391.2025
  0
LWPOLYLINE
  5
39
100
AcDbEntity
  8
1
  6
CONTINUOUS
 62
     7
100
AcDbPolyline
 90
        4
 70
     0
 10
541.9826
 20
-397.1436
 10
539.5826
 20
-401.3005
 10
544.3826
 20
-401.3005
 10
541.9826
 20
-397.1436
  0
TEXT
  5
3A
100
AcDbEntity
  8
1
  6
CONTINUOUS
 62
     7
100
AcDbText
 10
541.6023
 20
-394.5324
 30
0.0
 40
1.8
  1
1
  7
MONOTXT
210
0.0
220
0.0
230
1.0
100
AcDbText
  0
TEXT
  5
3B
100
AcDbEntity
  8
1
  6
CONTINUOUS
 62
     7
100
AcDbText
 10
541.4277
 20
-400.5323
 30
0.0
 40
1.8
  1
2
  7
MONOTXT
210
0.0
220
0.0
230
1.0
100
AcDbText
  0
LWPOLYLINE
  5
3C
100
AcDbEntity
  8
1
  6
CONTINUOUS
 62
     7
100
AcDbPolyline
 90
        4
 70
     0
 10
538.3755
 20
-307.4181
 10
535.9755
 20
-311.575
 10
540.7755
 20
-311.575
 10
538.3755
 20
-307.4181
  0
LWPOLYLINE
  5
3D
100
AcDbEntity
  8
1
  6
CONTINUOUS
 62
     7
100
AcDbPolyline
 90
        4
 70
     0
 10
538.4652
 20
-302.0083
 10
536.0652
 20
-306.1652
 10
540.8652
 20
-306.1652
 10
538.4652
 20
-302.0083
  0
TEXT
  5
3E
100
AcDbEntity
  8
1
  6
CONTINUOUS
 62
     7
100
AcDbText
 10
538.128
 20
-305.3382
 30
0.0
 40
1.8
  1
1
  7
MONOTXT
210
0.0
220
0.0
230
1.0
100
AcDbText
  0
TEXT
  5
3F
100
AcDbEntity
  8
1
  6
CONTINUOUS
 62
     7
100
AcDbText
 10
537.8206
 20
-310.8068
 30
0.0
 40
1.8
  1
2
  7
MONOTXT
210
0.0
220
0.0
230
1.0
100
AcDbText
  0
TEXT
  5
40
100
AcDbEntity
  8
1
  6
CONTINUOUS
 62
     7
100
AcDbText
 10
542.3159
 20
-305.0308
 30
0.0
 40
1.8
  1
SIGNATURE BLOCK
  7
MONOTXT
210
0.0
220
0.0
230
1.0
100
AcDbText
  0
TEXT
  5
41
100
AcDbEntity
  8
1
  6
CONTINUOUS
 62
     7
100
AcDbText
 10
542.3159
 20
-310.4547
 30
0.0
 40
1.8
  1
ADDED DETAIL (OVAL) SHIELD
  7
MONOTXT
210
0.0
220
0.0
230
1.0
100
AcDbText
  0
POINT
  5
42
100
AcDbEntity
  8
1
  6
CONTINUOUS
 62
     2
100
AcDbPoint
 10
86.1408
 20
-102.099
 30
0.0
  0
POINT
  5
43
100
AcDbEntity
  8
1
  6
CONTINUOUS
 62
     2
100
AcDbPoint
 10
119.6322
 20
-102.099
 30
0.0
  0
POINT
  5
44
100
AcDbEntity
  8
1
  6
CONTINUOUS
 62
     2
100
AcDbPoint
 10
102.8865
 20
-102.0514
 30
0.0
  0
POLYLINE
  5
45
100
AcDbEntity
  8
1
  6
CONTINUOUS
 62
     2
100
AcDb2dPolyline
 66
     1
 10
0.0
 20
0.0
 30
0.0
  0
VERTEX
  5
46
100
AcDbEntity
  8
1
  6
CONTINUOUS
 62
     2
100
AcDbVertex
100
AcDb2dVertex
 10
74.676964
 20
-28.829904
 30
0.0
 42
-0.618034
  0
VERTEX
  5
47
100
AcDbEntity
  8
1
  6
CONTINUOUS
 62
     2
100
AcDbVertex
100
AcDb2dVertex
 10
57.735753
 20
21.993726
 30
0.0
 42
0.125
  0
VERTEX
  5
48
100
AcDbEntity
  8
1
  6
CONTINUOUS
 62
     2
100
AcDbVertex
100
AcDb2dVertex
 10
74.676963
 20
21.993726
 30
0.0
 42
0.125
  0
VERTEX
  5
49
100
AcDbEntity
  8
1
  6
CONTINUOUS
 62
     2
100
AcDbVertex
100
AcDb2dVertex
 10
91.618174
 20
21.993726
 30
0.0
 42
-0.618034
  0
VERTEX
  5
4A
100
AcDbEntity
  8
1
  6
CONTINUOUS
 62
     2
100
AcDbVertex
100
AcDb2dVertex
 10
74.676964
 20
-28.829904
 30
0.0
  0
SEQEND
  5
4B
100
AcDbEntity
  8
1
  6
CONTINUOUS
 62
     2
  0
LINE
  5
4C
100
AcDbEntity
  8
1
  6
CONTINUOUS
 62
     2
100
AcDbLine
 10
98.5106
 20
9.2877
 30
0.0
 11
50.8432
 21
9.2877
 31
0.0
  0
ARC
  5
4D
100
AcDbEntity
  8
1
  6
CONTINUOUS
 62
     2
100
AcDbCircle
 10
78.912266
 20
0.817214
 30
0.0
 40
29.319169
210
0.0
220
0.0
230
1.0
100
AcDbArc
 50
135.692364
 51
163.20725
  0
ARC
  5
4E
100
AcDbEntity
  8
1
  6
CONTINUOUS
 62
     2
100
AcDbCircle
 10
66.206359
 20
55.346733
 30
0.0
 40
35.040775
210
0.0
220
0.0
230
1.0
100
AcDbArc
 50
256.340497
 51
283.988964
  0
ARC
  5
4F
100
AcDbEntity
  8
1
  6
CONTINUOUS
 62
     2
100
AcDbCircle
 10
83.147569
 20
55.346733
 30
0.0
 40
35.040775
210
0.0
220
0.0
230
1.0
100
AcDbArc
 50
256.011036
 51
283.659503
  0
ARC
  5
50
100
AcDbEntity
  8
1
  6
CONTINUOUS
 62
     2
100
AcDbCircle
 10
70.441661
 20
0.817214
 30
0.0
 40
29.319169
210
0.0
220
0.0
230
1.0
100
AcDbArc
 50
16.79275
 51
44.307636
  0
LINE
  5
51
100
AcDbEntity
  8
1
  6
CONTINUOUS
 62
     2
100
AcDbLine
 10
50.6614
 20
8.6588
 30
0.0
 11
98.6926
 21
8.6588
 31
0.0
  0
ARC
  5
52
100
AcDbEntity
  8
1
  6
CONTINUOUS
 62
     2
100
AcDbCircle
 10
70.441661
 20
0.817214
 30
0.0
 40
29.319169
210
0.0
220
0.0
230
1.0
100
AcDbArc
 50
278.130103
 51
15.513144
  0
ARC
  5
53
100
AcDbEntity
  8
1
  6
CONTINUOUS
 62
     2
100
AcDbCircle
 10
78.912266
 20
0.817214
 30
0.0
 40
29.319169
210
0.0
220
0.0
230
1.0
100
AcDbArc
 50
164.486856
 51
261.869897
  0
TEXT
  5
54
100
AcDbEntity
  8
1
  6
CONTINUOUS
 62
     1
100
AcDbText
 10
56.5034
 20
12.6817
 30
0.0
 40
4.235303
  1
INTERSTATE
 41
0.900006
  7
TXT
 72
     4
 11
74.692
 21
14.7993
 31
0.0
210
0.0
220
0.0
230
1.0
100
AcDbText
  0
POINT
  5
55
100
AcDbEntity
  8
1
  6
CONTINUOUS
 62
     2
100
AcDbPoint
 10
335.1558
 20
-96.2266
 30
0.0
  0
POINT
  5
56
100
AcDbEntity
  8
1
  6
CONTINUOUS
 62
     2
100
AcDbPoint
 10
377.0188
 20
-96.2266
 30
0.0
  0
POINT
  5
57
100
AcDbEntity
  8
1
  6
CONTINUOUS
 62
     2
100
AcDbPoint
 10
356.0874
 20
-96.179
 30
0.0
  0
ELLIPSE
  5
58
100
AcDbEntity
  8
1
  6
CONTINUOUS
 62
     2
100
AcDbEllipse
 10
229.971021
 20
0.816456
 30
0.0
 11
-37.434203098116782
 21
0.0000000000000046
 31
0.0
210
0.0
220
0.0
230
1.0
 40
0.8
 41
5.497787143782138
 42
1.4288992647971375
  0
ELLIPSE
  5
59
100
AcDbEntity
  8
1
  6
CONTINUOUS
 62
     2
100
AcDbEllipse
 10
214.089034
 20
55.344613
 30
0.0
 11
43.013715646552704
 21
0.0
 31
0.0
210
0.0
220
0.0
230
1.0
 40
0.8
 41
4.4636789801990808
 42
4.9610989805702994
  0
ELLIPSE
  5
5A
100
AcDbEntity
  8
1
  6
CONTINUOUS
 62
     2
100
AcDbEllipse
 10
235.265017
 20
55.344613
 30
0.0
 11
43.013715646552811
 21
0.0
 31
0.0
210
0.0
220
0.0
230
1.0
 40
0.8
 41
4.4636789801990808
 42
4.9610989805702994
  0
ELLIPSE
  5
5B
100
AcDbEntity
  8
1
  6
CONTINUOUS
 62
     2
100
AcDbEllipse
 10
219.38303
 20
0.816456
 30
0.0
 11
-37.434203098116875
 21
0.0000000000000046
 31
0.0
210
0.0
220
0.0
230
1.0
 40
0.8
 41
1.7126933887926561
 42
3.9269908169872418
  0
LINE
  5
5C
100
AcDbEntity
  8
1
  6
CONTINUOUS
 62
     2
100
AcDbLine
 10
254.4686
 20
9.2873
 30
0.0
 11
194.8853
 21
9.2873
 31
0.0
  0
ELLIPSE
  5
5D
100
AcDbEntity
  8
1
  6
CONTINUOUS
 62
     2
100
AcDbEllipse
 10
229.971021
 20
0.816456
 30
0.0
 11
-36.648044728933691
 21
0.0000000000000045
 31
0.0
210
0.0
220
0.0
230
1.0
 40
0.8
 41
5.5098711732651617
 42
5.9900965292153092
  0
ELLIPSE
  5
5E
100
AcDbEntity
  8
1
  6
CONTINUOUS
 62
     2
100
AcDbEllipse
 10
214.089034
 20
55.344613
 30
0.0
 11
43.799874019108074
 21
0.0
 31
0.0
210
0.0
220
0.0
230
1.0
 40
0.8
 41
4.4739856827271565
 42
4.9565424591883911
  0
ELLIPSE
  5
5F
100
AcDbEntity
  8
1
  6
CONTINUOUS
 62
     2
100
AcDbEllipse
 10
235.265017
 20
55.344613
 30
0.0
 11
43.799874019108287
 21
0.0
 31
0.0
210
0.0
220
0.0
230
1.0
 40
0.8
 41
4.4682355015809883
 42
4.9507922780422229
  0
ELLIPSE
  5
60
100
AcDbEntity
  8
1
  6
CONTINUOUS
 62
     2
100
AcDbEllipse
 10
219.38303
 20
0.816456
 30
0.0
 11
-36.648044728933691
 21
0.0000000000000045
 31
0.0
210
0.0
220
0.0
230
1.0
 40
0.8
 41
3.434681431554071
 42
3.9149067875042185
  0
LINE
  5
61
100
AcDbEntity
  8
1
  6
CONTINUOUS
 62
     2
100
AcDbLine
 10
194.6584
 20
8.6578
 30
0.0
 11
254.6955
 21
8.6578
 31
0.0
  0
ELLIPSE
  5
62
100
AcDbEntity
  8
1
  6
CONTINUOUS
 62
     2
100
AcDbEllipse
 10
219.38303
 20
0.816456
 30
0.0
 11
-36.648044728933691
 21
0.0000000000000045
 31
0.0
210
0.0
220
0.0
230
1.0
 40
0.8
 41
1.7126933887926559
 42
3.4123481014828156
  0
ELLIPSE
  5
63
100
AcDbEntity
  8
1
  6
CONTINUOUS
 62
     2
100
AcDbEllipse
 10
229.971021
 20
0.816456
 30
0.0
 11
-36.648044728933691
 21
0.0000000000000045
 31
0.0
210
0.0
220
0.0
230
1.0
 40
0.8
 41
6.0124298592865637
 42
1.4288992647971375
  0
TEXT
  5
64
100
AcDbEntity
  8
1
  6
CONTINUOUS
 62
     1
100
AcDbText
 10
201.9606
 20
12.6809
 30
0.0
 40
4.235303
  1
INTERSTATE
 41
1.124969
  7
TXT
 72
     4
 11
224.6956
 21
14.7985
 31
0.0
210
0.0
220
0.0
230
1.0
100
AcDbText
  0
TEXT
  5
65
100
AcDbEntity
  8
1
  6
CONTINUOUS
 62
     1
100
AcDbText
 10
337.2513
 20
-136.1593
 30
0.0
 40
13.612045
  1
   
 41
1.000011
  7
TXT
 72
     1
 11
357.5088
 21
-136.1593
 31
0.0
210
0.0
220
0.0
230
1.0
100
AcDbText
  0
POINT
  5
66
100
AcDbEntity
  8
1
  6
CONTINUOUS
 62
     2
100
AcDbPoint
 10
117.2306
 20
-257.6071
 30
0.0
  0
POINT
  5
67
100
AcDbEntity
  8
1
  6
CONTINUOUS
 62
     2
100
AcDbPoint
 10
139.0114
 20
-257.6071
 30
0.0
  0
POINT
  5
68
100
AcDbEntity
  8
1
  6
CONTINUOUS
 62
     2
100
AcDbPoint
 10
156.7063
 20
-239.9122
 30
0.0
  0
POLYLINE
  5
69
100
AcDbEntity
  8
1
  6
CONTINUOUS
 62
     2
100
AcDb2dPolyline
 66
     1
 10
0.0
 20
0.0
 30
0.0
  0
VERTEX
  5
6A
100
AcDbEntity
  8
1
  6
CONTINUOUS
 62
     2
100
AcDbVertex
100
AcDb2dVertex
 10
74.629314
 20
-93.801808
 30
0.0
 42
0.204691
  0
VERTEX
  5
6B
100
AcDbEntity
  8
1
  6
CONTINUOUS
 62
     2
100
AcDbVertex
100
AcDb2dVertex
 10
67.416912
 20
-90.72006
 30
0.0
  0
VERTEX
  5
6C
100
AcDbEntity
  8
1
  6
CONTINUOUS
 62
     2
100
AcDbVertex
100
AcDb2dVertex
 10
67.416912
 20
-90.720374
 30
0.0
 42
-0.512515
  0
VERTEX
  5
6D
100
AcDbEntity
  8
1
  6
CONTINUOUS
 62
     2
100
AcDbVertex
100
AcDb2dVertex
 10
56.232894
 20
-75.169721
 30
0.0
  0
VERTEX
  5
6E
100
AcDbEntity
  8
1
  6
CONTINUOUS
 62
     2
100
AcDbVertex
100
AcDb2dVertex
 10
56.232841
 20
-75.169553
 30
0.0
 42
0.234298
  0
VERTEX
  5
6F
100
AcDbEntity
  8
1
  6
CONTINUOUS
 62
     2
100
AcDbVertex
100
AcDb2dVertex
 10
54.145943
 20
-60.690754
 30
0.0
  0
VERTEX
  5
70
100
AcDbEntity
  8
1
  6
CONTINUOUS
 62
     2
100
AcDbVertex
100
AcDb2dVertex
 10
54.0313
 20
-60.7699
 30
0.0
  0
VERTEX
  5
71
100
AcDbEntity
  8
1
  6
CONTINUOUS
 62
     2
100
AcDbVertex
100
AcDb2dVertex
 10
61.9709
 20
-52.8302
 30
0.0
  0
VERTEX
  5
72
100
AcDbEntity
  8
1
  6
CONTINUOUS
 62
     2
100
AcDbVertex
100
AcDb2dVertex
 10
61.971095
 20
-52.829939
 30
0.0
 42
0.333276
  0
VERTEX
  5
73
100
AcDbEntity
  8
1
  6
CONTINUOUS
 62
     2
100
AcDbVertex
100
AcDb2dVertex
 10
74.677003
 20
-52.829939
 30
0.0
 42
0.333276
  0
VERTEX
  5
74
100
AcDbEntity
  8
1
  6
CONTINUOUS
 62
     2
100
AcDbVertex
100
AcDb2dVertex
 10
87.38291
 20
-52.829939
 30
0.0
  0
VERTEX
  5
75
100
AcDbEntity
  8
1
  6
CONTINUOUS
 62
     2
100
AcDbVertex
100
AcDb2dVertex
 10
87.3827
 20
-52.8302
 30
0.0
  0
VERTEX
  5
76
100
AcDbEntity
  8
1
  6
CONTINUOUS
 62
     2
100
AcDbVertex
100
AcDb2dVertex
 10
95.323
 20
-60.7699
 30
0.0
  0
VERTEX
  5
77
100
AcDbEntity
  8
1
  6
CONTINUOUS
 62
     2
100
AcDbVertex
100
AcDb2dVertex
 10
95.208062
 20
-60.690754
 30
0.0
 42
0.234298
  0
VERTEX
  5
78
100
AcDbEntity
  8
1
  6
CONTINUOUS
 62
     2
100
AcDbVertex
100
AcDb2dVertex
 10
93.121164
 20
-75.169553
 30
0.0
  0
VERTEX
  5
79
100
AcDbEntity
  8
1
  6
CONTINUOUS
 62
     2
100
AcDbVertex
100
AcDb2dVertex
 10
93.121112
 20
-75.169721
 30
0.0
 42
-0.512515
  0
VERTEX
  5
7A
100
AcDbEntity
  8
1
  6
CONTINUOUS
 62
     2
100
AcDbVertex
100
AcDb2dVertex
 10
81.937093
 20
-90.720374
 30
0.0
  0
VERTEX
  5
7B
100
AcDbEntity
  8
1
  6
CONTINUOUS
 62
     2
100
AcDbVertex
100
AcDb2dVertex
 10
81.937093
 20
-90.72006
 30
0.0
 42
0.204691
  0
VERTEX
  5
7C
100
AcDbEntity
  8
1
  6
CONTINUOUS
 62
     2
100
AcDbVertex
100
AcDb2dVertex
 10
74.724691
 20
-93.801808
 30
0.0
  0
SEQEND
  5
7D
100
AcDbEntity
  8
1
  6
CONTINUOUS
 62
     2
  0
LINE
  5
7E
100
AcDbEntity
  8
1
  6
CONTINUOUS
 62
     2
100
AcDbLine
 10
52.8493
 20
-161.3618
 30
0.0
 11
52.8493
 21
-117.8018
 31
0.0
  0
LINE
  5
7F
100
AcDbEntity
  8
1
  6
CONTINUOUS
 62
     2
100
AcDbLine
 10
52.8493
 20
-117.8018
 30
0.0
 11
96.4093
 21
-117.8018
 31
0.0
  0
LINE
  5
80
100
AcDbEntity
  8
1
  6
CONTINUOUS
 62
     2
100
AcDbLine
 10
96.4093
 20
-117.8018
 30
0.0
 11
96.4093
 21
-161.3618
 31
0.0
  0
LINE
  5
81
100
AcDbEntity
  8
1
  6
CONTINUOUS
 62
     2
100
AcDbLine
 10
96.4093
 20
-161.3618
 30
0.0
 11
52.8493
 21
-161.3618
 31
0.0
  0
POINT
  5
82
100
AcDbEntity
  8
1
  6
CONTINUOUS
 62
     2
100
AcDbPoint
 10
307.6565
 20
-245.3363
 30
0.0
  0
POINT
  5
83
100
AcDbEntity
  8
1
  6
CONTINUOUS
 62
     2
100
AcDbPoint
 10
325.8069
 20
-245.3363
 30
0.0
  0
POINT
  5
84
100
AcDbEntity
  8
1
  6
CONTINUOUS
 62
     2
100
AcDbPoint
 10
340.5516
 20
-233.5402
 30
0.0
  0
ELLIPSE
  5
85
100
AcDbEntity
  8
1
  6
CONTINUOUS
 62
     2
100
AcDbEllipse
 10
215.602135
 20
-100.699493
 30
0.0
 11
-12.475544353697481
 21
0.0000000000000015
 31
0.0
210
0.0
220
0.0
230
1.0
 40
0.8
 41
3.9047807750350922
 42
4.7123889803846897
  0
ELLIPSE
  5
86
100
AcDbEntity
  8
1
  6
CONTINUOUS
 62
     2
100
AcDbEllipse
 10
215.603345
 20
-78.921875
 30
0.0
 11
14.746871229150138
 21
0.0
 31
0.0
210
0.0
220
0.0
230
1.0
 40
0.8
 41
2.8178693717808301
 42
4.7123069014284784
  0
ELLIPSE
  5
87
100
AcDbEntity
  8
1
  6
CONTINUOUS
 62
     2
100
AcDbEllipse
 10
182.067308
 20
-70.034181
 30
0.0
 11
20.581494924776774
 21
0.0
 31
0.0
210
0.0
220
0.0
230
1.0
 40
0.8
 41
5.9660402198027578
 42
0.6034427892215968
  0
POLYLINE
  5
88
100
AcDbEntity
  8
1
  6
CONTINUOUS
 62
     2
100
AcDb2dPolyline
 66
     1
 10
0.0
 20
0.0
 30
0.0
  0
VERTEX
  5
89
100
AcDbEntity
  8
1
  6
CONTINUOUS
 62
     2
100
AcDbVertex
100
AcDb2dVertex
 10
198.8702
 20
-60.7694
 30
0.0
  0
VERTEX
  5
8A
100
AcDbEntity
  8
1
  6
CONTINUOUS
 62
     2
100
AcDbVertex
100
AcDb2dVertex
 10
208.7946
 20
-52.8303
 30
0.0
  0
SEQEND
  5
8B
100
AcDbEntity
  8
1
  6
CONTINUOUS
 62
     2
  0
ELLIPSE
  5
8C
100
AcDbEntity
  8
1
  6
CONTINUOUS
 62
     2
100
AcDbEllipse
 10
216.736028
 20
-44.357675
 30
0.0
 11
13.23680473510378
 21
0.0
 31
0.0
210
0.0
220
0.0
230
1.0
 40
0.8
 41
4.0689907079667638
 42
5.3557872043212473
  0
ELLIPSE
  5
8D
100
AcDbEntity
  8
1
  6
CONTINUOUS
 62
     2
100
AcDbEllipse
 10
232.618015
 20
-44.357675
 30
0.0
 11
13.236804735104203
 21
0.0
 31
0.0
210
0.0
220
0.0
230
1.0
 40
0.8
 41
4.068990756448132
 42
5.3557872528026156
  0
POLYLINE
  5
8E
100
AcDbEntity
  8
1
  6
CONTINUOUS
 62
     2
100
AcDb2dPolyline
 66
     1
 10
0.0
 20
0.0
 30
0.0
  0
VERTEX
  5
8F
100
AcDbEntity
  8
1
  6
CONTINUOUS
 62
     2
100
AcDbVertex
100
AcDb2dVertex
 10
240.559
 20
-52.8303
 30
0.0
  0
VERTEX
  5
90
100
AcDbEntity
  8
1
  6
CONTINUOUS
 62
     2
100
AcDbVertex
100
AcDb2dVertex
 10
250.4837
 20
-60.7694
 30
0.0
  0
SEQEND
  5
91
100
AcDbEntity
  8
1
  6
CONTINUOUS
 62
     2
  0
ELLIPSE
  5
92
100
AcDbEntity
  8
1
  6
CONTINUOUS
 62
     2
100
AcDbEllipse
 10
267.286735
 20
-70.034181
 30
0.0
 11
20.581494926361373
 21
0.0
 31
0.0
210
0.0
220
0.0
230
1.0
 40
0.8
 41
2.5381498643681968
 42
3.458737740966622
  0
ELLIPSE
  5
93
100
AcDbEntity
  8
1
  6
CONTINUOUS
 62
     2
100
AcDbEllipse
 10
233.750698
 20
-78.921875
 30
0.0
 11
14.746871229150242
 21
0.0
 31
0.0
210
0.0
220
0.0
230
1.0
 40
0.8
 41
4.7124710593409009
 42
0.3237232818089634
  0
ELLIPSE
  5
94
100
AcDbEntity
  8
1
  6
CONTINUOUS
 62
     2
100
AcDbEllipse
 10
233.751908
 20
-100.699493
 30
0.0
 11
-12.475544353697588
 21
0.0000000000000015
 31
0.0
210
0.0
220
0.0
230
1.0
 40
0.8
 41
4.7123889803846897
 42
5.5199971857342875
  0
LINE
  5
95
100
AcDbEntity
  8
1
  6
CONTINUOUS
 62
     2
100
AcDbLine
 10
197.3926
 20
-161.3593
 30
0.0
 11
197.3926
 21
-117.8007
 31
0.0
  0
LINE
  5
96
100
AcDbEntity
  8
1
  6
CONTINUOUS
 62
     2
100
AcDbLine
 10
197.3926
 20
-117.8007
 30
0.0
 11
251.8416
 21
-117.8007
 31
0.0
  0
LINE
  5
97
100
AcDbEntity
  8
1
  6
CONTINUOUS
 62
     2
100
AcDbLine
 10
251.8416
 20
-117.8007
 30
0.0
 11
251.8416
 21
-161.3593
 31
0.0
  0
LINE
  5
98
100
AcDbEntity
  8
1
  6
CONTINUOUS
 62
     2
100
AcDbLine
 10
251.8416
 20
-161.3593
 30
0.0
 11
197.3926
 21
-161.3593
 31
0.0
  0
LINE
  5
99
100
AcDbEntity
  8
1
  6
CONTINUOUS
 62
     7
100
AcDbLine
 10
48.9646
 20
6.9822
 30
0.0
 11
48.9646
 21
30.9822
 31
0.0
  0
LINE
  5
9A
100
AcDbEntity
  8
1
  6
CONTINUOUS
 62
     7
100
AcDbLine
 10
92.8182
 20
21.9937
 30
0.0
 11
131.2182
 21
21.9937
 31
0.0
  0
LINE
  5
9B
100
AcDbEntity
  8
1
  6
CONTINUOUS
 62
     7
100
AcDbLine
 10
78.277
 20
-28.8299
 30
0.0
 11
131.2182
 21
-28.8299
 31
0.0
  0
LINE
  5
9C
100
AcDbEntity
  8
1
  6
CONTINUOUS
 62
     7
100
AcDbLine
 10
100.3893
 20
6.9822
 30
0.0
 11
100.3893
 21
20.7937
 31
0.0
  0
LINE
  5
9D
100
AcDbEntity
  8
1
  6
CONTINUOUS
 62
     7
100
AcDbLine
 10
100.3893
 20
23.1937
 30
0.0
 11
100.3893
 21
30.9822
 31
0.0
  0
LINE
  5
9E
100
AcDbEntity
  8
1
  6
CONTINUOUS
 62
     7
100
AcDbLine
 10
101.5797
 20
1.5937
 30
0.0
 11
116.8182
 21
1.5937
 31
0.0
  0
LINE
  5
9F
100
AcDbEntity
  8
1
  6
CONTINUOUS
 62
     7
100
AcDbLine
 10
96.9426
 20
-15.2063
 30
0.0
 11
116.8182
 21
-15.2063
 31
0.0
  0
TEXT
  5
A0
100
AcDbEntity
  8
1
  6
CONTINUOUS
 62
     7
100
AcDbText
 10
61.7862
 20
-14.4066
 30
0.0
 40
16.8
  1
8
  7
TXT
210
0.0
220
0.0
230
1.0
100
AcDbText
  0
TEXT
  5
A1
100
AcDbEntity
  8
1
  6
CONTINUOUS
 62
     7
100
AcDbText
 10
75.0346
 20
-14.4066
 30
0.0
 40
16.8
  1
0
  7
TXT
210
0.0
220
0.0
230
1.0
100
AcDbText
  0
LINE
  5
A2
100
AcDbEntity
  8
1
  6
CONTINUOUS
 62
     7
100
AcDbLine
 10
247.053
 20
21.9924
 30
0.0
 11
285.453
 21
21.9924
 31
0.0
  0
LINE
  5
A3
100
AcDbEntity
  8
1
  6
CONTINUOUS
 62
     7
100
AcDbLine
 10
231.3118
 20
-28.8312
 30
0.0
 11
285.453
 21
-28.8312
 31
0.0
  0
LINE
  5
A4
100
AcDbEntity
  8
1
  6
CONTINUOUS
 62
     7
100
AcDbLine
 10
256.8147
 20
6.4655
 30
0.0
 11
256.8147
 21
20.7924
 31
0.0
  0
LINE
  5
A5
100
AcDbEntity
  8
1
  6
CONTINUOUS
 62
     7
100
AcDbLine
 10
256.8147
 20
23.1924
 30
0.0
 11
256.8147
 21
30.9809
 31
0.0
  0
LINE
  5
A6
100
AcDbEntity
  8
1
  6
CONTINUOUS
 62
     7
100
AcDbLine
 10
258.0047
 20
1.5924
 30
0.0
 11
271.053
 21
1.5924
 31
0.0
  0
LINE
  5
A7
100
AcDbEntity
  8
1
  6
CONTINUOUS
 62
     7
100
AcDbLine
 10
252.2076
 20
-15.2076
 30
0.0
 11
271.053
 21
-15.2076
 31
0.0
  0
LINE
  5
A8
100
AcDbEntity
  8
1
  6
CONTINUOUS
 62
     7
100
AcDbLine
 10
192.5394
 20
6.4655
 30
0.0
 11
192.5394
 21
30.9809
 31
0.0
  0
LINE
  5
A9
100
AcDbEntity
  8
1
  6
CONTINUOUS
 62
     7
100
AcDbLine
 10
54.1459
 20
-59.4908
 30
0.0
 11
54.1459
 21
-35.5699
 31
0.0
  0
LINE
  5
AA
100
AcDbEntity
  8
1
  6
CONTINUOUS
 62
     7
100
AcDbLine
 10
75.9247
 20
-93.8018
 30
0.0
 11
131.1705
 21
-93.8018
 31
0.0
  0
LINE
  5
AB
100
AcDbEntity
  8
1
  6
CONTINUOUS
 62
     7
100
AcDbLine
 10
88.5829
 20
-52.8299
 30
0.0
 11
131.1705
 21
-52.8299
 31
0.0
  0
LINE
  5
AC
100
AcDbEntity
  8
1
  6
CONTINUOUS
 62
     7
100
AcDbLine
 10
227.1366
 20
-93.8007
 30
0.0
 11
281.1824
 21
-93.8007
 31
0.0
  0
LINE
  5
AD
100
AcDbEntity
  8
1
  6
CONTINUOUS
 62
     7
100
AcDbLine
 10
242.1948
 20
-52.8288
 30
0.0
 11
281.1824
 21
-52.8288
 31
0.0
  0
LINE
  5
AE
100
AcDbEntity
  8
1
  6
CONTINUOUS
 62
     7
100
AcDbLine
 10
198.8702
 20
-59.5694
 30
0.0
 11
198.8702
 21
-36.7694
 31
0.0
  0
LINE
  5
AF
100
AcDbEntity
  8
1
  6
CONTINUOUS
 62
     7
100
AcDbLine
 10
95.323
 20
-59.5699
 30
0.0
 11
95.323
 21
-54.0299
 31
0.0
  0
LINE
  5
B0
100
AcDbEntity
  8
1
  6
CONTINUOUS
 62
     7
100
AcDbLine
 10
95.323
 20
-51.6299
 30
0.0
 11
95.323
 21
-35.5699
 31
0.0
  0
LINE
  5
B1
100
AcDbEntity
  8
1
  6
CONTINUOUS
 62
     7
100
AcDbLine
 10
250.4837
 20
-59.5694
 30
0.0
 11
250.4837
 21
-54.0288
 31
0.0
  0
LINE
  5
B2
100
AcDbEntity
  8
1
  6
CONTINUOUS
 62
     7
100
AcDbLine
 10
250.4837
 20
-51.6288
 30
0.0
 11
250.4837
 21
-36.7694
 31
0.0
  0
LINE
  5
B3
100
AcDbEntity
  8
1
  6
CONTINUOUS
 62
     7
100
AcDbLine
 10
52.8493
 20
-116.6018
 30
0.0
 11
52.8493
 21
-104.6018
 31
0.0
  0
LINE
  5
B4
100
AcDbEntity
  8
1
  6
CONTINUOUS
 62
     7
100
AcDbLine
 10
96.4093
 20
-116.6018
 30
0.0
 11
96.4093
 21
-104.6018
 31
0.0
  0
LINE
  5
B5
100
AcDbEntity
  8
1
  6
CONTINUOUS
 62
     7
100
AcDbLine
 10
97.6093
 20
-117.8018
 30
0.0
 11
131.1705
 21
-117.8018
 31
0.0
  0
LINE
  5
B6
100
AcDbEntity
  8
1
  6
CONTINUOUS
 62
     7
100
AcDbLine
 10
97.6093
 20
-161.3618
 30
0.0
 11
131.1705
 21
-161.3618
 31
0.0
  0
LINE
  5
B7
100
AcDbEntity
  8
1
  6
CONTINUOUS
 62
     7
100
AcDbLine
 10
116.885
 20
-63.8487
 30
0.0
 11
94.7062
 21
-63.8487
 31
0.0
  0
LINE
  5
B8
100
AcDbEntity
  8
1
  6
CONTINUOUS
 62
     7
100
AcDbLine
 10
116.885
 20
-80.6487
 30
0.0
 11
94.807
 21
-80.6487
 31
0.0
  0
LINE
  5
B9
100
AcDbEntity
  8
1
  6
CONTINUOUS
 62
     7
100
AcDbLine
 10
249.4128
 20
-63.8487
 30
0.0
 11
266.8301
 21
-63.8487
 31
0.0
  0
LINE
  5
BA
100
AcDbEntity
  8
1
  6
CONTINUOUS
 62
     7
100
AcDbLine
 10
249.5387
 20
-80.6487
 30
0.0
 11
266.8301
 21
-80.6487
 31
0.0
  0
LINE
  5
BB
100
AcDbEntity
  8
1
  6
CONTINUOUS
 62
     7
100
AcDbLine
 10
97.6093
 20
-131.1818
 30
0.0
 11
116.885
 21
-131.1818
 31
0.0
  0
LINE
  5
BC
100
AcDbEntity
  8
1
  6
CONTINUOUS
 62
     7
100
AcDbLine
 10
97.6093
 20
-147.9818
 30
0.0
 11
116.885
 21
-147.9818
 31
0.0
  0
LINE
  5
BD
100
AcDbEntity
  8
1
  6
CONTINUOUS
 62
     7
100
AcDbLine
 10
253.0416
 20
-161.3593
 30
0.0
 11
286.6028
 21
-161.3593
 31
0.0
  0
LINE
  5
BE
100
AcDbEntity
  8
1
  6
CONTINUOUS
 62
     7
100
AcDbLine
 10
251.8416
 20
-116.5993
 30
0.0
 11
251.8416
 21
-104.5993
 31
0.0
  0
LINE
  5
BF
100
AcDbEntity
  8
1
  6
CONTINUOUS
 62
     7
100
AcDbLine
 10
253.0416
 20
-117.7993
 30
0.0
 11
286.6028
 21
-117.7993
 31
0.0
  0
LINE
  5
C0
100
AcDbEntity
  8
1
  6
CONTINUOUS
 62
     7
100
AcDbLine
 10
253.0416
 20
-131.1793
 30
0.0
 11
272.3173
 21
-131.1793
 31
0.0
  0
LINE
  5
C1
100
AcDbEntity
  8
1
  6
CONTINUOUS
 62
     7
100
AcDbLine
 10
253.0416
 20
-147.9793
 30
0.0
 11
272.3173
 21
-147.9793
 31
0.0
  0
LINE
  5
C2
100
AcDbEntity
  8
1
  6
CONTINUOUS
 62
     7
100
AcDbLine
 10
197.3926
 20
-116.6007
 30
0.0
 11
197.3926
 21
-104.6007
 31
0.0
  0
TEXT
  5
C3
100
AcDbEntity
  8
1
  6
CONTINUOUS
 62
     7
100
AcDbText
 10
62.0596
 20
-80.008
 30
0.0
 40
16.8
  1
2
  7
TXT
210
0.0
220
0.0
230
1.0
100
AcDbText
  0
TEXT
  5
C4
100
AcDbEntity
  8
1
  6
CONTINUOUS
 62
     7
100
AcDbText
 10
75.0352
 20
-80.008
 30
0.0
 40
16.8
  1
2
  7
TXT
210
0.0
220
0.0
230
1.0
100
AcDbText
  0
TEXT
  5
C5
100
AcDbEntity
  8
1
  6
CONTINUOUS
 62
     7
100
AcDbText
 10
62.2448
 20
-147.255
 30
0.0
 40
16.8
  1
7
  7
TXT
210
0.0
220
0.0
230
1.0
100
AcDbText
  0
TEXT
  5
C6
100
AcDbEntity
  8
1
  6
CONTINUOUS
 62
     7
100
AcDbText
 10
74.7466
 20
-147.1892
 30
0.0
 40
16.8
  1
6
  7
TXT
210
0.0
220
0.0
230
1.0
100
AcDbText
  0
TEXT
  5
C7
100
AcDbEntity
  8
1
  6
CONTINUOUS
 62
     7
100
AcDbText
 10
205.5877
 20
-14.4328
 30
0.0
 40
16.8
  1
6
  7
TXT
210
0.0
220
0.0
230
1.0
100
AcDbText
  0
TEXT
  5
C8
100
AcDbEntity
  8
1
  6
CONTINUOUS
 62
     7
100
AcDbText
 10
231.4337
 20
-14.4841
 30
0.0
 40
16.8
  1
0
  7
TXT
210
0.0
220
0.0
230
1.0
100
AcDbText
  0
TEXT
  5
C9
100
AcDbEntity
  8
1
  6
CONTINUOUS
 62
     7
100
AcDbText
 10
218.6132
 20
-14.4841
 30
0.0
 40
16.8
  1
8
  7
TXT
210
0.0
220
0.0
230
1.0
100
AcDbText
  0
TEXT
  5
CA
100
AcDbEntity
  8
1
  6
CONTINUOUS
 62
     7
100
AcDbText
 10
205.4865
 20
-79.8644
 30
0.0
 40
16.8
  1
3
  7
TXT
210
0.0
220
0.0
230
1.0
100
AcDbText
  0
TEXT
  5
CB
100
AcDbEntity
  8
1
  6
CONTINUOUS
 62
     7
100
AcDbText
 10
231.5048
 20
-80.049
 30
0.0
 40
16.8
  1
2
  7
TXT
210
0.0
220
0.0
230
1.0
100
AcDbText
  0
TEXT
  5
CC
100
AcDbEntity
  8
1
  6
CONTINUOUS
 62
     7
100
AcDbText
 10
218.0343
 20
-80.0029
 30
0.0
 40
16.8
  1
2
  7
TXT
210
0.0
220
0.0
230
1.0
100
AcDbText
  0
TEXT
  5
CD
100
AcDbEntity
  8
1
  6
CONTINUOUS
 62
     7
100
AcDbText
 10
205.4175
 20
-147.2193
 30
0.0
 40
16.8
  1
3
  7
TXT
210
0.0
220
0.0
230
1.0
100
AcDbText
  0
TEXT
  5
CE
100
AcDbEntity
  8
1
  6
CONTINUOUS
 62
     7
100
AcDbText
 10
231.37
 20
-147.2193
 30
0.0
 40
16.8
  1
6
  7
TXT
210
0.0
220
0.0
230
1.0
100
AcDbText
  0
TEXT
  5
CF
100
AcDbEntity
  8
1
  6
CONTINUOUS
 62
     7
100
AcDbText
 10
218.7445
 20
-147.2831
 30
0.0
 40
16.8
  1
7
  7
TXT
210
0.0
220
0.0
230
1.0
100
AcDbText
  0
CIRCLE
  5
D0
100
AcDbEntity
  8
1
  6
CONTINUOUS
 62
     3
100
AcDbCircle
 10
470.677
 20
-4.8299
 30
0.0
 40
24.0
210
0.0
220
0.0
230
1.0
  0
CIRCLE
  5
D1
100
AcDbEntity
  8
1
  6
CONTINUOUS
 62
     3
100
AcDbCircle
 10
618.277
 20
-4.8299
 30
0.0
 40
24.0
210
0.0
220
0.0
230
1.0
  0
CIRCLE
  5
D2
100
AcDbEntity
  8
1
  6
CONTINUOUS
 62
     3
100
AcDbCircle
 10
470.6174
 20
-69.8007
 30
0.0
 40
24.0
210
0.0
220
0.0
230
1.0
  0
CIRCLE
  5
D3
100
AcDbEntity
  8
1
  6
CONTINUOUS
 62
     3
100
AcDbCircle
 10
470.6171
 20
-137.3593
 30
0.0
 40
24.0
210
0.0
220
0.0
230
1.0
  0
CIRCLE
  5
D4
100
AcDbEntity
  8
1
  6
CONTINUOUS
 62
     3
100
AcDbCircle
 10
618.2171
 20
-137.3593
 30
0.0
 40
24.0
210
0.0
220
0.0
230
1.0
  0
ELLIPSE
  5
D5
100
AcDbEntity
  8
1
  6
CONTINUOUS
 62
     3
100
AcDbEllipse
 10
618.277
 20
-69.8007
 30
0.0
 11
31.800000000000001
 21
0.0
 31
0.0
210
0.0
220
0.0
230
1.0
 40
0.792453
 41
0.0
 42
6.2831753071795866
  0
LINE
  5
D6
100
AcDbEntity
  8
1
  6
CONTINUOUS
 62
     7
100
AcDbLine
 10
446.677
 20
4.7701
 30
0.0
 11
446.677
 21
28.7701
 31
0.0
  0
LINE
  5
D7
100
AcDbEntity
  8
1
  6
CONTINUOUS
 62
     7
100
AcDbLine
 10
494.677
 20
4.7701
 30
0.0
 11
494.677
 21
28.7701
 31
0.0
  0
LINE
  5
D8
100
AcDbEntity
  8
1
  6
CONTINUOUS
 62
     7
100
AcDbLine
 10
494.677
 20
3.5701
 30
0.0
 11
506.359
 21
3.5701
 31
0.0
  0
LINE
  5
D9
100
AcDbEntity
  8
1
  6
CONTINUOUS
 62
     7
100
AcDbLine
 10
494.677
 20
-13.2299
 30
0.0
 11
506.359
 21
-13.2299
 31
0.0
  0
LINE
  5
DA
100
AcDbEntity
  8
1
  6
CONTINUOUS
 62
     7
100
AcDbLine
 10
594.277
 20
4.7701
 30
0.0
 11
594.277
 21
28.7701
 31
0.0
  0
LINE
  5
DB
100
AcDbEntity
  8
1
  6
CONTINUOUS
 62
     7
100
AcDbLine
 10
642.277
 20
4.7701
 30
0.0
 11
642.277
 21
28.7701
 31
0.0
  0
LINE
  5
DC
100
AcDbEntity
  8
1
  6
CONTINUOUS
 62
     7
100
AcDbLine
 10
642.277
 20
3.5701
 30
0.0
 11
653.959
 21
3.5701
 31
0.0
  0
LINE
  5
DD
100
AcDbEntity
  8
1
  6
CONTINUOUS
 62
     7
100
AcDbLine
 10
642.277
 20
-13.2299
 30
0.0
 11
653.959
 21
-13.2299
 31
0.0
  0
LINE
  5
DE
100
AcDbEntity
  8
1
  6
CONTINUOUS
 62
     7
100
AcDbLine
 10
446.6174
 20
-69.8007
 30
0.0
 11
446.6174
 21
-36.2007
 31
0.0
  0
LINE
  5
DF
100
AcDbEntity
  8
1
  6
CONTINUOUS
 62
     7
100
AcDbLine
 10
494.6174
 20
-60.2007
 30
0.0
 11
494.6174
 21
-36.2007
 31
0.0
  0
LINE
  5
E0
100
AcDbEntity
  8
1
  6
CONTINUOUS
 62
     7
100
AcDbLine
 10
494.6174
 20
-61.4007
 30
0.0
 11
506.2994
 21
-61.4007
 31
0.0
  0
LINE
  5
E1
100
AcDbEntity
  8
1
  6
CONTINUOUS
 62
     7
100
AcDbLine
 10
494.6174
 20
-78.2007
 30
0.0
 11
506.2994
 21
-78.2007
 31
0.0
  0
LINE
  5
E2
100
AcDbEntity
  8
1
  6
CONTINUOUS
 62
     7
100
AcDbLine
 10
650.077
 20
-60.2007
 30
0.0
 11
650.077
 21
-36.2007
 31
0.0
  0
LINE
  5
E3
100
AcDbEntity
  8
1
  6
CONTINUOUS
 62
     7
100
AcDbLine
 10
607.477
 20
-44.6007
 30
0.0
 11
568.3712
 21
-44.6007
 31
0.0
  0
LINE
  5
E4
100
AcDbEntity
  8
1
  6
CONTINUOUS
 62
     7
100
AcDbLine
 10
607.477
 20
-95.0007
 30
0.0
 11
568.3712
 21
-95.0007
 31
0.0
  0
LINE
  5
E5
100
AcDbEntity
  8
1
  6
CONTINUOUS
 62
     7
100
AcDbLine
 10
651.277
 20
-61.4007
 30
0.0
 11
663.4866
 21
-61.4007
 31
0.0
  0
LINE
  5
E6
100
AcDbEntity
  8
1
  6
CONTINUOUS
 62
     7
100
AcDbLine
 10
650.6583
 20
-78.2007
 30
0.0
 11
663.4866
 21
-78.2007
 31
0.0
  0
LINE
  5
E7
100
AcDbEntity
  8
1
  6
CONTINUOUS
 62
     7
100
AcDbLine
 10
586.477
 20
-60.2007
 30
0.0
 11
586.477
 21
-45.8007
 31
0.0
  0
LINE
  5
E8
100
AcDbEntity
  8
1
  6
CONTINUOUS
 62
     7
100
AcDbLine
 10
586.477
 20
-43.4007
 30
0.0
 11
586.477
 21
-36.2007
 31
0.0
  0
LINE
  5
E9
100
AcDbEntity
  8
1
  6
CONTINUOUS
 62
     7
100
AcDbLine
 10
446.6171
 20
-127.7593
 30
0.0
 11
446.6171
 21
-103.7593
 31
0.0
  0
LINE
  5
EA
100
AcDbEntity
  8
1
  6
CONTINUOUS
 62
     7
100
AcDbLine
 10
494.6171
 20
-127.7593
 30
0.0
 11
494.6171
 21
-103.7593
 31
0.0
  0
LINE
  5
EB
100
AcDbEntity
  8
1
  6
CONTINUOUS
 62
     7
100
AcDbLine
 10
489.5247
 20
-121.1593
 30
0.0
 11
506.2994
 21
-121.1593
 31
0.0
  0
LINE
  5
EC
100
AcDbEntity
  8
1
  6
CONTINUOUS
 62
     7
100
AcDbLine
 10
495.2017
 20
-131.9593
 30
0.0
 11
506.2994
 21
-131.9593
 31
0.0
  0
LINE
  5
ED
100
AcDbEntity
  8
1
  6
CONTINUOUS
 62
     7
100
AcDbLine
 10
495.2017
 20
-142.7593
 30
0.0
 11
506.2994
 21
-142.7593
 31
0.0
  0
LINE
  5
EE
100
AcDbEntity
  8
1
  6
CONTINUOUS
 62
     7
100
AcDbLine
 10
489.5247
 20
-153.5593
 30
0.0
 11
506.2994
 21
-153.5593
 31
0.0
  0
LINE
  5
EF
100
AcDbEntity
  8
1
  6
CONTINUOUS
 62
     7
100
AcDbLine
 10
495.7871
 20
-136.1593
 30
0.0
 11
506.2994
 21
-136.1593
 31
0.0
  0
LINE
  5
F0
100
AcDbEntity
  8
1
  6
CONTINUOUS
 62
     7
100
AcDbLine
 10
495.7871
 20
-138.5593
 30
0.0
 11
506.2994
 21
-138.5593
 31
0.0
  0
LINE
  5
F1
100
AcDbEntity
  8
1
  6
CONTINUOUS
 62
     7
100
AcDbLine
 10
454.4171
 20
-139.7593
 30
0.0
 11
454.4171
 21
-142.1593
 31
0.0
  0
LINE
  5
F2
100
AcDbEntity
  8
1
  6
CONTINUOUS
 62
     7
100
AcDbLine
 10
486.8171
 20
-139.7593
 30
0.0
 11
486.8171
 21
-142.1593
 31
0.0
  0
LINE
  5
F3
100
AcDbEntity
  8
1
  6
CONTINUOUS
 62
     7
100
AcDbLine
 10
446.7374
 20
-140.9593
 30
0.0
 11
437.1374
 21
-140.9593
 31
0.0
  0
LINE
  5
F4
100
AcDbEntity
  8
1
  6
CONTINUOUS
 62
     7
100
AcDbLine
 10
594.2171
 20
-127.7593
 30
0.0
 11
594.2171
 21
-103.7593
 31
0.0
  0
LINE
  5
F5
100
AcDbEntity
  8
1
  6
CONTINUOUS
 62
     7
100
AcDbLine
 10
642.2171
 20
-127.7593
 30
0.0
 11
642.2171
 21
-103.7593
 31
0.0
  0
LINE
  5
F6
100
AcDbEntity
  8
1
  6
CONTINUOUS
 62
     7
100
AcDbLine
 10
637.1247
 20
-121.1593
 30
0.0
 11
653.8994
 21
-121.1593
 31
0.0
  0
LINE
  5
F7
100
AcDbEntity
  8
1
  6
CONTINUOUS
 62
     7
100
AcDbLine
 10
642.8017
 20
-131.9593
 30
0.0
 11
653.8994
 21
-131.9593
 31
0.0
  0
LINE
  5
F8
100
AcDbEntity
  8
1
  6
CONTINUOUS
 62
     7
100
AcDbLine
 10
642.8017
 20
-142.7593
 30
0.0
 11
653.8994
 21
-142.7593
 31
0.0
  0
LINE
  5
F9
100
AcDbEntity
  8
1
  6
CONTINUOUS
 62
     7
100
AcDbLine
 10
637.1247
 20
-153.5593
 30
0.0
 11
653.8994
 21
-153.5593
 31
0.0
  0
LINE
  5
FA
100
AcDbEntity
  8
1
  6
CONTINUOUS
 62
     7
100
AcDbLine
 10
643.3871
 20
-136.1593
 30
0.0
 11
653.8994
 21
-136.1593
 31
0.0
  0
LINE
  5
FB
100
AcDbEntity
  8
1
  6
CONTINUOUS
 62
     7
100
AcDbLine
 10
643.3871
 20
-138.5593
 30
0.0
 11
653.8994
 21
-138.5593
 31
0.0
  0
LINE
  5
FC
100
AcDbEntity
  8
1
  6
CONTINUOUS
 62
     7
100
AcDbLine
 10
602.0171
 20
-139.7593
 30
0.0
 11
602.0171
 21
-142.1593
 31
0.0
  0
LINE
  5
FD
100
AcDbEntity
  8
1
  6
CONTINUOUS
 62
     7
100
AcDbLine
 10
634.4171
 20
-139.7593
 30
0.0
 11
634.4171
 21
-142.1593
 31
0.0
  0
LINE
  5
FE
100
AcDbEntity
  8
1
  6
CONTINUOUS
 62
     7
100
AcDbLine
 10
594.3374
 20
-140.9593
 30
0.0
 11
584.7374
 21
-140.9593
 31
0.0
  0
LINE
  5
FF
100
AcDbEntity
  8
1
  6
CONTINUOUS
 62
     7
100
AcDbLine
 10
505.0994
 20
-131.9593
 30
0.0
 11
505.0994
 21
-136.1593
 31
0.0
  0
LINE
  5
100
100
AcDbEntity
  8
1
  6
CONTINUOUS
 62
     7
100
AcDbLine
 10
505.0994
 20
-138.5593
 30
0.0
 11
505.0994
 21
-142.7593
 31
0.0
  0
LINE
  5
101
100
AcDbEntity
  8
1
  6
CONTINUOUS
 62
     7
100
AcDbLine
 10
652.6994
 20
-131.9593
 30
0.0
 11
652.6994
 21
-136.1593
 31
0.0
  0
LINE
  5
102
100
AcDbEntity
  8
1
  6
CONTINUOUS
 62
     7
100
AcDbLine
 10
652.6994
 20
-138.5593
 30
0.0
 11
652.6994
 21
-142.7593
 31
0.0
  0
INSERT
  5
108
100
AcDbEntity
  8
1
  6
CONTINUOUS
 62
     1
100
AcDbBlockReference
  2
LDR
 10
652.6946
 20
-138.5647
 30
0.0
 41
120.0
 42
120.0
 50
90.0
210
0.0
220
0.0
230
1.0
  0
INSERT
  5
109
100
AcDbEntity
  8
1
  6
CONTINUOUS
 62
     1
100
AcDbBlockReference
  2
LDR
 10
652.6946
 20
-131.9647
 30
0.0
 41
120.0
 42
120.0
 50
90.0
210
0.0
220
0.0
230
1.0
  0
INSERT
  5
10A
100
AcDbEntity
  8
1
  6
CONTINUOUS
 62
     1
100
AcDbBlockReference
  2
LDR
 10
652.6946
 20
-136.1539
 30
0.0
 41
120.0
 42
-120.0
 50
270.0
210
0.0
220
0.0
230
1.0
  0
INSERT
  5
10B
100
AcDbEntity
  8
1
  6
CONTINUOUS
 62
     1
100
AcDbBlockReference
  2
LDR
 10
652.6946
 20
-142.7539
 30
0.0
 41
120.0
 42
-120.0
 50
270.0
210
0.0
220
0.0
230
1.0
  0
INSERT
  5
10C
100
AcDbEntity
  8
1
  6
CONTINUOUS
 62
     1
100
AcDbBlockReference
  2
LDR
 10
505.0946
 20
-136.1539
 30
0.0
 41
120.0
 42
-120.0
 50
270.0
210
0.0
220
0.0
230
1.0
  0
INSERT
  5
10D
100
AcDbEntity
  8
1
  6
CONTINUOUS
 62
     1
100
AcDbBlockReference
  2
LDR
 10
505.0946
 20
-142.7539
 30
0.0
 41
120.0
 42
-120.0
 50
270.0
210
0.0
220
0.0
230
1.0
  0
INSERT
  5
10E
100
AcDbEntity
  8
1
  6
CONTINUOUS
 62
     1
100
AcDbBlockReference
  2
LDR
 10
505.0946
 20
-131.9647
 30
0.0
 41
120.0
 42
120.0
 50
90.0
210
0.0
220
0.0
230
1.0
  0
INSERT
  5
10F
100
AcDbEntity
  8
1
  6
CONTINUOUS
 62
     1
100
AcDbBlockReference
  2
LDR
 10
505.0946
 20
-138.5647
 30
0.0
 41
120.0
 42
120.0
 50
90.0
210
0.0
220
0.0
230
1.0
  0
TEXT
  5
110
100
AcDbEntity
  8
1
  6
CONTINUOUS
 62
     7
100
AcDbText
 10
464.4461
 20
-12.5511
 30
0.0
 40
16.8
  1
2
  7
TXT
210
0.0
220
0.0
230
1.0
100
AcDbText
  0
TEXT
  5
111
100
AcDbEntity
  8
1
  6
CONTINUOUS
 62
     7
100
AcDbText
 10
453.0336
 20
-77.5751
 30
0.0
 40
16.8
  1
2
  7
TXT
210
0.0
220
0.0
230
1.0
100
AcDbText
  0
TEXT
  5
112
100
AcDbEntity
  8
1
  6
CONTINUOUS
 62
     7
100
AcDbText
 10
475.9781
 20
-77.5025
 30
0.0
 40
16.8
  1
2
  7
TXT
210
0.0
220
0.0
230
1.0
100
AcDbText
  0
TEXT
  5
113
100
AcDbEntity
  8
1
  6
CONTINUOUS
 62
     7
100
AcDbText
 10
466.6115
 20
-77.5751
 30
0.0
 40
16.8
  1
1
  7
TXT
210
0.0
220
0.0
230
1.0
100
AcDbText
  0
TEXT
  5
114
100
AcDbEntity
  8
1
  6
CONTINUOUS
 62
     7
100
AcDbText
 10
605.2858
 20
-12.4867
 30
0.0
 40
16.8
  1
2
  7
TXT
210
0.0
220
0.0
230
1.0
100
AcDbText
  0
TEXT
  5
115
100
AcDbEntity
  8
1
  6
CONTINUOUS
 62
     7
100
AcDbText
 10
619.0229
 20
-12.4867
 30
0.0
 40
16.8
  1
2
  7
TXT
210
0.0
220
0.0
230
1.0
100
AcDbText
  0
TEXT
  5
116
100
AcDbEntity
  8
1
  6
CONTINUOUS
 62
     7
100
AcDbText
 10
599.2672
 20
-77.5466
 30
0.0
 40
16.8
  1
2
  7
TXT
210
0.0
220
0.0
230
1.0
100
AcDbText
  0
TEXT
  5
117
100
AcDbEntity
  8
1
  6
CONTINUOUS
 62
     7
100
AcDbText
 10
624.9689
 20
-77.5466
 30
0.0
 40
16.8
  1
2
  7
TXT
210
0.0
220
0.0
230
1.0
100
AcDbText
  0
TEXT
  5
118
100
AcDbEntity
  8
1
  6
CONTINUOUS
 62
     7
100
AcDbText
 10
614.0375
 20
-77.4815
 30
0.0
 40
16.8
  1
1
  7
TXT
210
0.0
220
0.0
230
1.0
100
AcDbText
  0
TEXT
  5
119
100
AcDbEntity
  8
1
  6
CONTINUOUS
 62
     7
100
AcDbText
 10
463.7687
 20
-131.509
 30
0.0
 40
10.8
  1
2
  7
TXT
210
0.0
220
0.0
230
1.0
100
AcDbText
  0
TEXT
  5
11A
100
AcDbEntity
  8
1
  6
CONTINUOUS
 62
     7
100
AcDbText
 10
472.0998
 20
-131.424
 30
0.0
 40
10.8
  1
1
  7
TXT
210
0.0
220
0.0
230
1.0
100
AcDbText
  0
TEXT
  5
11B
100
AcDbEntity
  8
1
  6
CONTINUOUS
 62
     7
100
AcDbText
 10
466.7441
 20
-153.109
 30
0.0
 40
10.8
  1
2
  7
TXT
210
0.0
220
0.0
230
1.0
100
AcDbText
  0
POLYLINE
  5
11C
100
AcDbEntity
  8
1
  6
CONTINUOUS
 62
     7
100
AcDb2dPolyline
 66
     1
 10
0.0
 20
0.0
 30
0.0
 70
     1
  0
VERTEX
  5
11D
100
AcDbEntity
  8
1
  6
CONTINUOUS
 62
     7
100
AcDbVertex
100
AcDb2dVertex
 10
486.8171
 20
-136.1593
 30
0.0
  0
VERTEX
  5
11E
100
AcDbEntity
  8
1
  6
CONTINUOUS
 62
     7
100
AcDbVertex
100
AcDb2dVertex
 10
454.4171
 20
-136.1593
 30
0.0
  0
VERTEX
  5
11F
100
AcDbEntity
  8
1
  6
CONTINUOUS
 62
     7
100
AcDbVertex
100
AcDb2dVertex
 10
454.4171
 20
-138.5593
 30
0.0
  0
VERTEX
  5
120
100
AcDbEntity
  8
1
  6
CONTINUOUS
 62
     7
100
AcDbVertex
100
AcDb2dVertex
 10
486.8171
 20
-138.5593
 30
0.0
  0
VERTEX
  5
121
100
AcDbEntity
  8
1
  6
CONTINUOUS
 62
     7
100
AcDbVertex
100
AcDb2dVertex
 10
486.8171
 20
-136.1593
 30
0.0
  0
SEQEND
  5
122
100
AcDbEntity
  8
1
  6
CONTINUOUS
 62
     7
  0
POLYLINE
  5
123
100
AcDbEntity
  8
1
  6
CONTINUOUS
 62
     7
100
AcDb2dPolyline
 66
     1
 10
0.0
 20
0.0
 30
0.0
 70
     1
  0
VERTEX
  5
124
100
AcDbEntity
  8
1
  6
CONTINUOUS
 62
     7
100
AcDbVertex
100
AcDb2dVertex
 10
634.4171
 20
-136.1593
 30
0.0
  0
VERTEX
  5
125
100
AcDbEntity
  8
1
  6
CONTINUOUS
 62
     7
100
AcDbVertex
100
AcDb2dVertex
 10
601.9997
 20
-136.1593
 30
0.0
  0
VERTEX
  5
126
100
AcDbEntity
  8
1
  6
CONTINUOUS
 62
     7
100
AcDbVertex
100
AcDb2dVertex
 10
601.9997
 20
-138.5593
 30
0.0
  0
VERTEX
  5
127
100
AcDbEntity
  8
1
  6
CONTINUOUS
 62
     7
100
AcDbVertex
100
AcDb2dVertex
 10
634.4171
 20
-138.5593
 30
0.0
  0
VERTEX
  5
128
100
AcDbEntity
  8
1
  6
CONTINUOUS
 62
     7
100
AcDbVertex
100
AcDb2dVertex
 10
634.4171
 20
-136.1593
 30
0.0
  0
SEQEND
  5
129
100
AcDbEntity
  8
1
  6
CONTINUOUS
 62
     7
  0
TEXT
  5
12A
100
AcDbEntity
  8
1
  6
CONTINUOUS
 62
     7
100
AcDbText
 10
620.8131
 20
-131.5269
 30
0.0
 40
10.8
  1
9
  7
TXT
210
0.0
220
0.0
230
1.0
100
AcDbText
  0
TEXT
  5
12B
100
AcDbEntity
  8
1
  6
CONTINUOUS
 62
     7
100
AcDbText
 10
607.8528
 20
-131.4532
 30
0.0
 40
10.8
  1
1
  7
TXT
210
0.0
220
0.0
230
1.0
100
AcDbText
  0
TEXT
  5
12C
100
AcDbEntity
  8
1
  6
CONTINUOUS
 62
     7
100
AcDbText
 10
614.2593
 20
-131.6005
 30
0.0
 40
10.8
  1
1
  7
TXT
210
0.0
220
0.0
230
1.0
100
AcDbText
  0
TEXT
  5
12D
100
AcDbEntity
  8
1
  6
CONTINUOUS
 62
     7
100
AcDbText
 10
615.3639
 20
-153.1098
 30
0.0
 40
10.8
  1
1
  7
TXT
210
0.0
220
0.0
230
1.0
100
AcDbText
  0
INSERT
  5
12E
100
AcDbEntity
  8
1
  6
CONTINUOUS
 62
     1
100
AcDbBlockReference
  2
LDR
 10
48.9646
 20
29.7822
 30
0.0
 41
240.0
 42
240.0
 50
180.0
210
0.0
220
0.0
230
1.0
  0
INSERT
  5
12F
100
AcDbEntity
  8
1
  6
CONTINUOUS
 62
     1
100
AcDbBlockReference
  2
LDR
 10
100.3893
 20
29.7822
 30
0.0
 41
240.0
 42
240.0
210
0.0
220
0.0
230
1.0
  0
INSERT
  5
130
100
AcDbEntity
  8
1
  6
CONTINUOUS
 62
     1
100
AcDbBlockReference
  2
LDR
 10
100.3893
 20
29.7822
 30
0.0
 41
240.0
 42
240.0
210
0.0
220
0.0
230
1.0
  0
INSERT
  5
131
100
AcDbEntity
  8
1
  6
CONTINUOUS
 62
     1
100
AcDbBlockReference
  2
LDR
 10
130.0182
 20
21.9937
 30
0.0
 41
240.0
 42
240.0
 50
90.0
210
0.0
220
0.0
230
1.0
  0
INSERT
  5
132
100
AcDbEntity
  8
1
  6
CONTINUOUS
 62
     1
100
AcDbBlockReference
  2
LDR
 10
130.0182
 20
21.9937
 30
0.0
 41
240.0
 42
240.0
 50
90.0
210
0.0
220
0.0
230
1.0
  0
INSERT
  5
133
100
AcDbEntity
  8
1
  6
CONTINUOUS
 62
     1
100
AcDbBlockReference
  2
LDR
 10
130.0182
 20
-28.8299
 30
0.0
 41
240.0
 42
240.0
 50
270.0
210
0.0
220
0.0
230
1.0
  0
INSERT
  5
134
100
AcDbEntity
  8
1
  6
CONTINUOUS
 62
     1
100
AcDbBlockReference
  2
LDR
 10
130.0182
 20
-28.8299
 30
0.0
 41
240.0
 42
240.0
 50
270.0
210
0.0
220
0.0
230
1.0
  0
INSERT
  5
135
100
AcDbEntity
  8
1
  6
CONTINUOUS
 62
     1
100
AcDbBlockReference
  2
LDR
 10
115.6182
 20
21.9937
 30
0.0
 41
240.0
 42
240.0
 50
90.0
210
0.0
220
0.0
230
1.0
  0
INSERT
  5
136
100
AcDbEntity
  8
1
  6
CONTINUOUS
 62
     1
100
AcDbBlockReference
  2
LDR
 10
115.6182
 20
21.9937
 30
0.0
 41
240.0
 42
240.0
 50
90.0
210
0.0
220
0.0
230
1.0
  0
INSERT
  5
137
100
AcDbEntity
  8
1
  6
CONTINUOUS
 62
     1
100
AcDbBlockReference
  2
LDR
 10
115.6182
 20
1.5937
 30
0.0
 41
240.0
 42
240.0
 50
270.0
210
0.0
220
0.0
230
1.0
  0
INSERT
  5
138
100
AcDbEntity
  8
1
  6
CONTINUOUS
 62
     1
100
AcDbBlockReference
  2
LDR
 10
115.6182
 20
1.5937
 30
0.0
 41
240.0
 42
240.0
 50
270.0
210
0.0
220
0.0
230
1.0
  0
INSERT
  5
139
100
AcDbEntity
  8
1
  6
CONTINUOUS
 62
     1
100
AcDbBlockReference
  2
LDR
 10
115.6182
 20
1.5937
 30
0.0
 41
240.0
 42
240.0
 50
90.0
210
0.0
220
0.0
230
1.0
  0
INSERT
  5
13A
100
AcDbEntity
  8
1
  6
CONTINUOUS
 62
     1
100
AcDbBlockReference
  2
LDR
 10
115.6182
 20
1.5937
 30
0.0
 41
240.0
 42
240.0
 50
90.0
210
0.0
220
0.0
230
1.0
  0
INSERT
  5
13B
100
AcDbEntity
  8
1
  6
CONTINUOUS
 62
     1
100
AcDbBlockReference
  2
LDR
 10
115.6182
 20
-15.2063
 30
0.0
 41
240.0
 42
240.0
 50
270.0
210
0.0
220
0.0
230
1.0
  0
INSERT
  5
13C
100
AcDbEntity
  8
1
  6
CONTINUOUS
 62
     1
100
AcDbBlockReference
  2
LDR
 10
115.6182
 20
-15.2063
 30
0.0
 41
240.0
 42
240.0
 50
270.0
210
0.0
220
0.0
230
1.0
  0
INSERT
  5
13D
100
AcDbEntity
  8
1
  6
CONTINUOUS
 62
     1
100
AcDbBlockReference
  2
LDR
 10
115.6182
 20
-15.2063
 30
0.0
 41
240.0
 42
240.0
 50
90.0
210
0.0
220
0.0
230
1.0
  0
INSERT
  5
13E
100
AcDbEntity
  8
1
  6
CONTINUOUS
 62
     1
100
AcDbBlockReference
  2
LDR
 10
115.6182
 20
-15.2063
 30
0.0
 41
240.0
 42
240.0
 50
90.0
210
0.0
220
0.0
230
1.0
  0
INSERT
  5
13F
100
AcDbEntity
  8
1
  6
CONTINUOUS
 62
     1
100
AcDbBlockReference
  2
LDR
 10
115.6182
 20
-28.8299
 30
0.0
 41
240.0
 42
240.0
 50
270.0
210
0.0
220
0.0
230
1.0
  0
INSERT
  5
140
100
AcDbEntity
  8
1
  6
CONTINUOUS
 62
     1
100
AcDbBlockReference
  2
LDR
 10
115.6182
 20
-28.8299
 30
0.0
 41
240.0
 42
240.0
 50
270.0
210
0.0
220
0.0
230
1.0
  0
INSERT
  5
141
100
AcDbEntity
  8
1
  6
CONTINUOUS
 62
     1
100
AcDbBlockReference
  2
LDR
 10
54.1459
 20
-36.7699
 30
0.0
 41
240.0
 42
240.0
 50
180.0
210
0.0
220
0.0
230
1.0
  0
INSERT
  5
142
100
AcDbEntity
  8
1
  6
CONTINUOUS
 62
     1
100
AcDbBlockReference
  2
LDR
 10
54.1459
 20
-36.7699
 30
0.0
 41
240.0
 42
240.0
 50
180.0
210
0.0
220
0.0
230
1.0
  0
INSERT
  5
143
100
AcDbEntity
  8
1
  6
CONTINUOUS
 62
     1
100
AcDbBlockReference
  2
LDR
 10
95.323
 20
-36.7699
 30
0.0
 41
240.0
 42
240.0
210
0.0
220
0.0
230
1.0
  0
INSERT
  5
144
100
AcDbEntity
  8
1
  6
CONTINUOUS
 62
     1
100
AcDbBlockReference
  2
LDR
 10
115.6182
 20
-52.8299
 30
0.0
 41
240.0
 42
240.0
 50
90.0
210
0.0
220
0.0
230
1.0
  0
INSERT
  5
145
100
AcDbEntity
  8
1
  6
CONTINUOUS
 62
     1
100
AcDbBlockReference
  2
LDR
 10
115.6182
 20
-52.8299
 30
0.0
 41
240.0
 42
240.0
 50
90.0
210
0.0
220
0.0
230
1.0
  0
INSERT
  5
146
100
AcDbEntity
  8
1
  6
CONTINUOUS
 62
     1
100
AcDbBlockReference
  2
LDR
 10
115.6182
 20
-63.8487
 30
0.0
 41
240.0
 42
240.0
 50
270.0
210
0.0
220
0.0
230
1.0
  0
INSERT
  5
147
100
AcDbEntity
  8
1
  6
CONTINUOUS
 62
     1
100
AcDbBlockReference
  2
LDR
 10
115.6182
 20
-63.8487
 30
0.0
 41
240.0
 42
240.0
 50
270.0
210
0.0
220
0.0
230
1.0
  0
INSERT
  5
148
100
AcDbEntity
  8
1
  6
CONTINUOUS
 62
     1
100
AcDbBlockReference
  2
LDR
 10
115.6182
 20
-63.8487
 30
0.0
 41
240.0
 42
240.0
 50
90.0
210
0.0
220
0.0
230
1.0
  0
INSERT
  5
149
100
AcDbEntity
  8
1
  6
CONTINUOUS
 62
     1
100
AcDbBlockReference
  2
LDR
 10
115.6182
 20
-63.8487
 30
0.0
 41
240.0
 42
240.0
 50
90.0
210
0.0
220
0.0
230
1.0
  0
INSERT
  5
14A
100
AcDbEntity
  8
1
  6
CONTINUOUS
 62
     1
100
AcDbBlockReference
  2
LDR
 10
115.6182
 20
-80.6487
 30
0.0
 41
240.0
 42
240.0
 50
270.0
210
0.0
220
0.0
230
1.0
  0
INSERT
  5
14B
100
AcDbEntity
  8
1
  6
CONTINUOUS
 62
     1
100
AcDbBlockReference
  2
LDR
 10
115.6182
 20
-80.6487
 30
0.0
 41
240.0
 42
240.0
 50
270.0
210
0.0
220
0.0
230
1.0
  0
INSERT
  5
14C
100
AcDbEntity
  8
1
  6
CONTINUOUS
 62
     1
100
AcDbBlockReference
  2
LDR
 10
115.6182
 20
-80.6487
 30
0.0
 41
240.0
 42
240.0
 50
90.0
210
0.0
220
0.0
230
1.0
  0
INSERT
  5
14D
100
AcDbEntity
  8
1
  6
CONTINUOUS
 62
     1
100
AcDbBlockReference
  2
LDR
 10
115.6182
 20
-80.6487
 30
0.0
 41
240.0
 42
240.0
 50
90.0
210
0.0
220
0.0
230
1.0
  0
INSERT
  5
14E
100
AcDbEntity
  8
1
  6
CONTINUOUS
 62
     1
100
AcDbBlockReference
  2
LDR
 10
115.6182
 20
-93.8018
 30
0.0
 41
240.0
 42
240.0
 50
270.0
210
0.0
220
0.0
230
1.0
  0
INSERT
  5
14F
100
AcDbEntity
  8
1
  6
CONTINUOUS
 62
     1
100
AcDbBlockReference
  2
LDR
 10
115.6182
 20
-93.8018
 30
0.0
 41
240.0
 42
240.0
 50
270.0
210
0.0
220
0.0
230
1.0
  0
INSERT
  5
150
100
AcDbEntity
  8
1
  6
CONTINUOUS
 62
     1
100
AcDbBlockReference
  2
LDR
 10
129.9705
 20
-52.8299
 30
0.0
 41
240.0
 42
240.0
 50
90.0
210
0.0
220
0.0
230
1.0
  0
INSERT
  5
151
100
AcDbEntity
  8
1
  6
CONTINUOUS
 62
     1
100
AcDbBlockReference
  2
LDR
 10
129.9705
 20
-93.8018
 30
0.0
 41
240.0
 42
240.0
 50
270.0
210
0.0
220
0.0
230
1.0
  0
INSERT
  5
152
100
AcDbEntity
  8
1
  6
CONTINUOUS
 62
     1
100
AcDbBlockReference
  2
LDR
 10
52.8493
 20
-105.8018
 30
0.0
 41
240.0
 42
240.0
 50
180.0
210
0.0
220
0.0
230
1.0
  0
INSERT
  5
153
100
AcDbEntity
  8
1
  6
CONTINUOUS
 62
     1
100
AcDbBlockReference
  2
LDR
 10
52.8493
 20
-105.8018
 30
0.0
 41
240.0
 42
240.0
 50
180.0
210
0.0
220
0.0
230
1.0
  0
INSERT
  5
154
100
AcDbEntity
  8
1
  6
CONTINUOUS
 62
     1
100
AcDbBlockReference
  2
LDR
 10
96.4093
 20
-105.8018
 30
0.0
 41
240.0
 42
240.0
210
0.0
220
0.0
230
1.0
  0
INSERT
  5
155
100
AcDbEntity
  8
1
  6
CONTINUOUS
 62
     1
100
AcDbBlockReference
  2
LDR
 10
96.4093
 20
-105.8018
 30
0.0
 41
240.0
 42
240.0
210
0.0
220
0.0
230
1.0
  0
INSERT
  5
156
100
AcDbEntity
  8
1
  6
CONTINUOUS
 62
     1
100
AcDbBlockReference
  2
LDR
 10
115.685
 20
-117.8018
 30
0.0
 41
240.0
 42
240.0
 50
90.0
210
0.0
220
0.0
230
1.0
  0
INSERT
  5
157
100
AcDbEntity
  8
1
  6
CONTINUOUS
 62
     1
100
AcDbBlockReference
  2
LDR
 10
115.685
 20
-117.8018
 30
0.0
 41
240.0
 42
240.0
 50
90.0
210
0.0
220
0.0
230
1.0
  0
INSERT
  5
158
100
AcDbEntity
  8
1
  6
CONTINUOUS
 62
     1
100
AcDbBlockReference
  2
LDR
 10
115.685
 20
-131.1818
 30
0.0
 41
240.0
 42
240.0
 50
270.0
210
0.0
220
0.0
230
1.0
  0
INSERT
  5
159
100
AcDbEntity
  8
1
  6
CONTINUOUS
 62
     1
100
AcDbBlockReference
  2
LDR
 10
115.685
 20
-131.1818
 30
0.0
 41
240.0
 42
240.0
 50
270.0
210
0.0
220
0.0
230
1.0
  0
INSERT
  5
15A
100
AcDbEntity
  8
1
  6
CONTINUOUS
 62
     1
100
AcDbBlockReference
  2
LDR
 10
115.685
 20
-131.1818
 30
0.0
 41
240.0
 42
240.0
 50
90.0
210
0.0
220
0.0
230
1.0
  0
INSERT
  5
15B
100
AcDbEntity
  8
1
  6
CONTINUOUS
 62
     1
100
AcDbBlockReference
  2
LDR
 10
115.685
 20
-131.1818
 30
0.0
 41
240.0
 42
240.0
 50
90.0
210
0.0
220
0.0
230
1.0
  0
INSERT
  5
15C
100
AcDbEntity
  8
1
  6
CONTINUOUS
 62
     1
100
AcDbBlockReference
  2
LDR
 10
115.685
 20
-147.9818
 30
0.0
 41
240.0
 42
240.0
 50
270.0
210
0.0
220
0.0
230
1.0
  0
INSERT
  5
15D
100
AcDbEntity
  8
1
  6
CONTINUOUS
 62
     1
100
AcDbBlockReference
  2
LDR
 10
115.685
 20
-147.9818
 30
0.0
 41
240.0
 42
240.0
 50
270.0
210
0.0
220
0.0
230
1.0
  0
INSERT
  5
15E
100
AcDbEntity
  8
1
  6
CONTINUOUS
 62
     1
100
AcDbBlockReference
  2
LDR
 10
115.685
 20
-147.9818
 30
0.0
 41
240.0
 42
240.0
 50
90.0
210
0.0
220
0.0
230
1.0
  0
INSERT
  5
15F
100
AcDbEntity
  8
1
  6
CONTINUOUS
 62
     1
100
AcDbBlockReference
  2
LDR
 10
115.685
 20
-147.9818
 30
0.0
 41
240.0
 42
240.0
 50
90.0
210
0.0
220
0.0
230
1.0
  0
INSERT
  5
160
100
AcDbEntity
  8
1
  6
CONTINUOUS
 62
     1
100
AcDbBlockReference
  2
LDR
 10
115.685
 20
-161.3618
 30
0.0
 41
240.0
 42
240.0
 50
270.0
210
0.0
220
0.0
230
1.0
  0
INSERT
  5
161
100
AcDbEntity
  8
1
  6
CONTINUOUS
 62
     1
100
AcDbBlockReference
  2
LDR
 10
115.685
 20
-161.3618
 30
0.0
 41
240.0
 42
240.0
 50
270.0
210
0.0
220
0.0
230
1.0
  0
INSERT
  5
162
100
AcDbEntity
  8
1
  6
CONTINUOUS
 62
     1
100
AcDbBlockReference
  2
LDR
 10
129.9705
 20
-117.8018
 30
0.0
 41
240.0
 42
240.0
 50
90.0
210
0.0
220
0.0
230
1.0
  0
INSERT
  5
163
100
AcDbEntity
  8
1
  6
CONTINUOUS
 62
     1
100
AcDbBlockReference
  2
LDR
 10
129.9705
 20
-117.8018
 30
0.0
 41
240.0
 42
240.0
 50
90.0
210
0.0
220
0.0
230
1.0
  0
INSERT
  5
164
100
AcDbEntity
  8
1
  6
CONTINUOUS
 62
     1
100
AcDbBlockReference
  2
LDR
 10
129.9705
 20
-161.3618
 30
0.0
 41
240.0
 42
240.0
 50
270.0
210
0.0
220
0.0
230
1.0
  0
INSERT
  5
165
100
AcDbEntity
  8
1
  6
CONTINUOUS
 62
     1
100
AcDbBlockReference
  2
LDR
 10
192.5394
 20
29.7809
 30
0.0
 41
240.0
 42
240.0
 50
180.0
210
0.0
220
0.0
230
1.0
  0
INSERT
  5
166
100
AcDbEntity
  8
1
  6
CONTINUOUS
 62
     1
100
AcDbBlockReference
  2
LDR
 10
192.5394
 20
29.7809
 30
0.0
 41
240.0
 42
240.0
 50
180.0
210
0.0
220
0.0
230
1.0
  0
INSERT
  5
167
100
AcDbEntity
  8
1
  6
CONTINUOUS
 62
     1
100
AcDbBlockReference
  2
LDR
 10
256.8147
 20
29.7809
 30
0.0
 41
240.0
 42
240.0
210
0.0
220
0.0
230
1.0
  0
INSERT
  5
168
100
AcDbEntity
  8
1
  6
CONTINUOUS
 62
     1
100
AcDbBlockReference
  2
LDR
 10
256.8147
 20
29.7809
 30
0.0
 41
240.0
 42
240.0
210
0.0
220
0.0
230
1.0
  0
INSERT
  5
169
100
AcDbEntity
  8
1
  6
CONTINUOUS
 62
     1
100
AcDbBlockReference
  2
LDR
 10
284.253
 20
21.9924
 30
0.0
 41
240.0
 42
240.0
 50
90.0
210
0.0
220
0.0
230
1.0
  0
INSERT
  5
16A
100
AcDbEntity
  8
1
  6
CONTINUOUS
 62
     1
100
AcDbBlockReference
  2
LDR
 10
284.253
 20
21.9924
 30
0.0
 41
240.0
 42
240.0
 50
90.0
210
0.0
220
0.0
230
1.0
  0
INSERT
  5
16B
100
AcDbEntity
  8
1
  6
CONTINUOUS
 62
     1
100
AcDbBlockReference
  2
LDR
 10
284.253
 20
-28.8312
 30
0.0
 41
240.0
 42
240.0
 50
270.0
210
0.0
220
0.0
230
1.0
  0
INSERT
  5
16C
100
AcDbEntity
  8
1
  6
CONTINUOUS
 62
     1
100
AcDbBlockReference
  2
LDR
 10
284.253
 20
-28.8312
 30
0.0
 41
240.0
 42
240.0
 50
270.0
210
0.0
220
0.0
230
1.0
  0
INSERT
  5
16D
100
AcDbEntity
  8
1
  6
CONTINUOUS
 62
     1
100
AcDbBlockReference
  2
LDR
 10
269.853
 20
-28.8312
 30
0.0
 41
240.0
 42
240.0
 50
270.0
210
0.0
220
0.0
230
1.0
  0
INSERT
  5
16E
100
AcDbEntity
  8
1
  6
CONTINUOUS
 62
     1
100
AcDbBlockReference
  2
LDR
 10
269.853
 20
-28.8312
 30
0.0
 41
240.0
 42
240.0
 50
270.0
210
0.0
220
0.0
230
1.0
  0
INSERT
  5
16F
100
AcDbEntity
  8
1
  6
CONTINUOUS
 62
     1
100
AcDbBlockReference
  2
LDR
 10
269.853
 20
-15.2076
 30
0.0
 41
240.0
 42
240.0
 50
90.0
210
0.0
220
0.0
230
1.0
  0
INSERT
  5
170
100
AcDbEntity
  8
1
  6
CONTINUOUS
 62
     1
100
AcDbBlockReference
  2
LDR
 10
269.853
 20
-15.2076
 30
0.0
 41
240.0
 42
240.0
 50
90.0
210
0.0
220
0.0
230
1.0
  0
INSERT
  5
171
100
AcDbEntity
  8
1
  6
CONTINUOUS
 62
     1
100
AcDbBlockReference
  2
LDR
 10
269.853
 20
-15.2076
 30
0.0
 41
240.0
 42
240.0
 50
270.0
210
0.0
220
0.0
230
1.0
  0
INSERT
  5
172
100
AcDbEntity
  8
1
  6
CONTINUOUS
 62
     1
100
AcDbBlockReference
  2
LDR
 10
269.853
 20
-15.2076
 30
0.0
 41
240.0
 42
240.0
 50
270.0
210
0.0
220
0.0
230
1.0
  0
INSERT
  5
173
100
AcDbEntity
  8
1
  6
CONTINUOUS
 62
     1
100
AcDbBlockReference
  2
LDR
 10
269.853
 20
1.5924
 30
0.0
 41
240.0
 42
240.0
 50
90.0
210
0.0
220
0.0
230
1.0
  0
INSERT
  5
174
100
AcDbEntity
  8
1
  6
CONTINUOUS
 62
     1
100
AcDbBlockReference
  2
LDR
 10
269.853
 20
1.5924
 30
0.0
 41
240.0
 42
240.0
 50
90.0
210
0.0
220
0.0
230
1.0
  0
INSERT
  5
175
100
AcDbEntity
  8
1
  6
CONTINUOUS
 62
     1
100
AcDbBlockReference
  2
LDR
 10
269.853
 20
1.5924
 30
0.0
 41
240.0
 42
240.0
 50
270.0
210
0.0
220
0.0
230
1.0
  0
INSERT
  5
176
100
AcDbEntity
  8
1
  6
CONTINUOUS
 62
     1
100
AcDbBlockReference
  2
LDR
 10
269.853
 20
1.5924
 30
0.0
 41
240.0
 42
240.0
 50
270.0
210
0.0
220
0.0
230
1.0
  0
INSERT
  5
177
100
AcDbEntity
  8
1
  6
CONTINUOUS
 62
     1
100
AcDbBlockReference
  2
LDR
 10
269.853
 20
21.9924
 30
0.0
 41
240.0
 42
240.0
 50
90.0
210
0.0
220
0.0
230
1.0
  0
INSERT
  5
178
100
AcDbEntity
  8
1
  6
CONTINUOUS
 62
     1
100
AcDbBlockReference
  2
LDR
 10
198.8702
 20
-37.9688
 30
0.0
 41
240.0
 42
240.0
 50
180.0
210
0.0
220
0.0
230
1.0
  0
INSERT
  5
179
100
AcDbEntity
  8
1
  6
CONTINUOUS
 62
     1
100
AcDbBlockReference
  2
LDR
 10
198.8702
 20
-37.9688
 30
0.0
 41
240.0
 42
240.0
 50
180.0
210
0.0
220
0.0
230
1.0
  0
INSERT
  5
17A
100
AcDbEntity
  8
1
  6
CONTINUOUS
 62
     1
100
AcDbBlockReference
  2
LDR
 10
250.4837
 20
-37.9688
 30
0.0
 41
240.0
 42
240.0
210
0.0
220
0.0
230
1.0
  0
INSERT
  5
17B
100
AcDbEntity
  8
1
  6
CONTINUOUS
 62
     1
100
AcDbBlockReference
  2
LDR
 10
250.4837
 20
-37.9688
 30
0.0
 41
240.0
 42
240.0
210
0.0
220
0.0
230
1.0
  0
INSERT
  5
17C
100
AcDbEntity
  8
1
  6
CONTINUOUS
 62
     1
100
AcDbBlockReference
  2
LDR
 10
279.9824
 20
-52.8288
 30
0.0
 41
240.0
 42
240.0
 50
90.0
210
0.0
220
0.0
230
1.0
  0
INSERT
  5
17D
100
AcDbEntity
  8
1
  6
CONTINUOUS
 62
     1
100
AcDbBlockReference
  2
LDR
 10
279.9824
 20
-52.8288
 30
0.0
 41
240.0
 42
240.0
 50
90.0
210
0.0
220
0.0
230
1.0
  0
INSERT
  5
17E
100
AcDbEntity
  8
1
  6
CONTINUOUS
 62
     1
100
AcDbBlockReference
  2
LDR
 10
279.9824
 20
-93.8007
 30
0.0
 41
240.0
 42
240.0
 50
270.0
210
0.0
220
0.0
230
1.0
  0
INSERT
  5
17F
100
AcDbEntity
  8
1
  6
CONTINUOUS
 62
     1
100
AcDbBlockReference
  2
LDR
 10
279.9824
 20
-93.8007
 30
0.0
 41
240.0
 42
240.0
 50
270.0
210
0.0
220
0.0
230
1.0
  0
INSERT
  5
180
100
AcDbEntity
  8
1
  6
CONTINUOUS
 62
     1
100
AcDbBlockReference
  2
LDR
 10
265.6301
 20
-52.8288
 30
0.0
 41
240.0
 42
240.0
 50
90.0
210
0.0
220
0.0
230
1.0
  0
INSERT
  5
181
100
AcDbEntity
  8
1
  6
CONTINUOUS
 62
     1
100
AcDbBlockReference
  2
LDR
 10
265.6301
 20
-52.8288
 30
0.0
 41
240.0
 42
240.0
 50
90.0
210
0.0
220
0.0
230
1.0
  0
INSERT
  5
182
100
AcDbEntity
  8
1
  6
CONTINUOUS
 62
     1
100
AcDbBlockReference
  2
LDR
 10
265.6301
 20
-63.8487
 30
0.0
 41
240.0
 42
240.0
 50
270.0
210
0.0
220
0.0
230
1.0
  0
INSERT
  5
183
100
AcDbEntity
  8
1
  6
CONTINUOUS
 62
     1
100
AcDbBlockReference
  2
LDR
 10
265.6301
 20
-63.8487
 30
0.0
 41
240.0
 42
240.0
 50
270.0
210
0.0
220
0.0
230
1.0
  0
INSERT
  5
184
100
AcDbEntity
  8
1
  6
CONTINUOUS
 62
     1
100
AcDbBlockReference
  2
LDR
 10
265.6301
 20
-63.8487
 30
0.0
 41
240.0
 42
240.0
 50
90.0
210
0.0
220
0.0
230
1.0
  0
INSERT
  5
185
100
AcDbEntity
  8
1
  6
CONTINUOUS
 62
     1
100
AcDbBlockReference
  2
LDR
 10
265.6301
 20
-63.8487
 30
0.0
 41
240.0
 42
240.0
 50
90.0
210
0.0
220
0.0
230
1.0
  0
INSERT
  5
186
100
AcDbEntity
  8
1
  6
CONTINUOUS
 62
     1
100
AcDbBlockReference
  2
LDR
 10
265.6301
 20
-80.6487
 30
0.0
 41
240.0
 42
240.0
 50
270.0
210
0.0
220
0.0
230
1.0
  0
INSERT
  5
187
100
AcDbEntity
  8
1
  6
CONTINUOUS
 62
     1
100
AcDbBlockReference
  2
LDR
 10
265.6301
 20
-80.6487
 30
0.0
 41
240.0
 42
240.0
 50
270.0
210
0.0
220
0.0
230
1.0
  0
INSERT
  5
188
100
AcDbEntity
  8
1
  6
CONTINUOUS
 62
     1
100
AcDbBlockReference
  2
LDR
 10
265.6301
 20
-80.6487
 30
0.0
 41
240.0
 42
240.0
 50
90.0
210
0.0
220
0.0
230
1.0
  0
INSERT
  5
189
100
AcDbEntity
  8
1
  6
CONTINUOUS
 62
     1
100
AcDbBlockReference
  2
LDR
 10
265.6301
 20
-80.6487
 30
0.0
 41
240.0
 42
240.0
 50
90.0
210
0.0
220
0.0
230
1.0
  0
INSERT
  5
18A
100
AcDbEntity
  8
1
  6
CONTINUOUS
 62
     1
100
AcDbBlockReference
  2
LDR
 10
265.6301
 20
-93.8007
 30
0.0
 41
240.0
 42
240.0
 50
270.0
210
0.0
220
0.0
230
1.0
  0
INSERT
  5
18B
100
AcDbEntity
  8
1
  6
CONTINUOUS
 62
     1
100
AcDbBlockReference
  2
LDR
 10
197.3926
 20
-105.7993
 30
0.0
 41
240.0
 42
240.0
 50
180.0
210
0.0
220
0.0
230
1.0
  0
INSERT
  5
18C
100
AcDbEntity
  8
1
  6
CONTINUOUS
 62
     1
100
AcDbBlockReference
  2
LDR
 10
197.3926
 20
-105.7993
 30
0.0
 41
240.0
 42
240.0
 50
180.0
210
0.0
220
0.0
230
1.0
  0
INSERT
  5
18D
100
AcDbEntity
  8
1
  6
CONTINUOUS
 62
     1
100
AcDbBlockReference
  2
LDR
 10
251.8416
 20
-105.7993
 30
0.0
 41
240.0
 42
240.0
210
0.0
220
0.0
230
1.0
  0
INSERT
  5
18E
100
AcDbEntity
  8
1
  6
CONTINUOUS
 62
     1
100
AcDbBlockReference
  2
LDR
 10
251.8416
 20
-105.7993
 30
0.0
 41
240.0
 42
240.0
210
0.0
220
0.0
230
1.0
  0
INSERT
  5
18F
100
AcDbEntity
  8
1
  6
CONTINUOUS
 62
     1
100
AcDbBlockReference
  2
LDR
 10
271.1173
 20
-117.7993
 30
0.0
 41
240.0
 42
240.0
 50
90.0
210
0.0
220
0.0
230
1.0
  0
INSERT
  5
190
100
AcDbEntity
  8
1
  6
CONTINUOUS
 62
     1
100
AcDbBlockReference
  2
LDR
 10
271.1173
 20
-117.7993
 30
0.0
 41
240.0
 42
240.0
 50
90.0
210
0.0
220
0.0
230
1.0
  0
INSERT
  5
191
100
AcDbEntity
  8
1
  6
CONTINUOUS
 62
     1
100
AcDbBlockReference
  2
LDR
 10
271.1173
 20
-131.1793
 30
0.0
 41
240.0
 42
240.0
 50
270.0
210
0.0
220
0.0
230
1.0
  0
INSERT
  5
192
100
AcDbEntity
  8
1
  6
CONTINUOUS
 62
     1
100
AcDbBlockReference
  2
LDR
 10
271.1173
 20
-131.1793
 30
0.0
 41
240.0
 42
240.0
 50
270.0
210
0.0
220
0.0
230
1.0
  0
INSERT
  5
193
100
AcDbEntity
  8
1
  6
CONTINUOUS
 62
     1
100
AcDbBlockReference
  2
LDR
 10
271.1173
 20
-131.1793
 30
0.0
 41
240.0
 42
240.0
 50
90.0
210
0.0
220
0.0
230
1.0
  0
INSERT
  5
194
100
AcDbEntity
  8
1
  6
CONTINUOUS
 62
     1
100
AcDbBlockReference
  2
LDR
 10
271.1173
 20
-131.1793
 30
0.0
 41
240.0
 42
240.0
 50
90.0
210
0.0
220
0.0
230
1.0
  0
INSERT
  5
195
100
AcDbEntity
  8
1
  6
CONTINUOUS
 62
     1
100
AcDbBlockReference
  2
LDR
 10
271.1173
 20
-147.9793
 30
0.0
 41
240.0
 42
240.0
 50
270.0
210
0.0
220
0.0
230
1.0
  0
INSERT
  5
196
100
AcDbEntity
  8
1
  6
CONTINUOUS
 62
     1
100
AcDbBlockReference
  2
LDR
 10
271.1173
 20
-147.9793
 30
0.0
 41
240.0
 42
240.0
 50
270.0
210
0.0
220
0.0
230
1.0
  0
INSERT
  5
197
100
AcDbEntity
  8
1
  6
CONTINUOUS
 62
     1
100
AcDbBlockReference
  2
LDR
 10
271.1173
 20
-147.9793
 30
0.0
 41
240.0
 42
240.0
 50
90.0
210
0.0
220
0.0
230
1.0
  0
INSERT
  5
198
100
AcDbEntity
  8
1
  6
CONTINUOUS
 62
     1
100
AcDbBlockReference
  2
LDR
 10
271.1173
 20
-147.9793
 30
0.0
 41
240.0
 42
240.0
 50
90.0
210
0.0
220
0.0
230
1.0
  0
INSERT
  5
199
100
AcDbEntity
  8
1
  6
CONTINUOUS
 62
     1
100
AcDbBlockReference
  2
LDR
 10
271.1173
 20
-161.3593
 30
0.0
 41
240.0
 42
240.0
 50
270.0
210
0.0
220
0.0
230
1.0
  0
INSERT
  5
19A
100
AcDbEntity
  8
1
  6
CONTINUOUS
 62
     1
100
AcDbBlockReference
  2
LDR
 10
271.1173
 20
-161.3593
 30
0.0
 41
240.0
 42
240.0
 50
270.0
210
0.0
220
0.0
230
1.0
  0
INSERT
  5
19B
100
AcDbEntity
  8
1
  6
CONTINUOUS
 62
     1
100
AcDbBlockReference
  2
LDR
 10
285.4028
 20
-117.7993
 30
0.0
 41
240.0
 42
240.0
 50
90.0
210
0.0
220
0.0
230
1.0
  0
INSERT
  5
19C
100
AcDbEntity
  8
1
  6
CONTINUOUS
 62
     1
100
AcDbBlockReference
  2
LDR
 10
285.4028
 20
-117.7993
 30
0.0
 41
240.0
 42
240.0
 50
90.0
210
0.0
220
0.0
230
1.0
  0
INSERT
  5
19D
100
AcDbEntity
  8
1
  6
CONTINUOUS
 62
     1
100
AcDbBlockReference
  2
LDR
 10
285.4028
 20
-161.3593
 30
0.0
 41
240.0
 42
240.0
 50
270.0
210
0.0
220
0.0
230
1.0
  0
INSERT
  5
19E
100
AcDbEntity
  8
1
  6
CONTINUOUS
 62
     1
100
AcDbBlockReference
  2
LDR
 10
285.4028
 20
-161.3593
 30
0.0
 41
240.0
 42
240.0
 50
270.0
210
0.0
220
0.0
230
1.0
  0
INSERT
  5
19F
100
AcDbEntity
  8
1
  6
CONTINUOUS
 62
     1
100
AcDbBlockReference
  2
LDR
 10
446.677
 20
27.5701
 30
0.0
 41
240.0
 42
240.0
 50
180.0
210
0.0
220
0.0
230
1.0
  0
INSERT
  5
1A0
100
AcDbEntity
  8
1
  6
CONTINUOUS
 62
     1
100
AcDbBlockReference
  2
LDR
 10
446.677
 20
27.5701
 30
0.0
 41
240.0
 42
240.0
 50
180.0
210
0.0
220
0.0
230
1.0
  0
INSERT
  5
1A1
100
AcDbEntity
  8
1
  6
CONTINUOUS
 62
     1
100
AcDbBlockReference
  2
LDR
 10
494.677
 20
27.5701
 30
0.0
 41
240.0
 42
240.0
210
0.0
220
0.0
230
1.0
  0
INSERT
  5
1A2
100
AcDbEntity
  8
1
  6
CONTINUOUS
 62
     1
100
AcDbBlockReference
  2
LDR
 10
494.677
 20
27.5701
 30
0.0
 41
240.0
 42
240.0
210
0.0
220
0.0
230
1.0
  0
INSERT
  5
1A3
100
AcDbEntity
  8
1
  6
CONTINUOUS
 62
     1
100
AcDbBlockReference
  2
LDR
 10
505.159
 20
3.5701
 30
0.0
 41
240.0
 42
240.0
 50
90.0
210
0.0
220
0.0
230
1.0
  0
INSERT
  5
1A4
100
AcDbEntity
  8
1
  6
CONTINUOUS
 62
     1
100
AcDbBlockReference
  2
LDR
 10
505.159
 20
3.5701
 30
0.0
 41
240.0
 42
240.0
 50
90.0
210
0.0
220
0.0
230
1.0
  0
INSERT
  5
1A5
100
AcDbEntity
  8
1
  6
CONTINUOUS
 62
     1
100
AcDbBlockReference
  2
LDR
 10
505.159
 20
-13.2299
 30
0.0
 41
240.0
 42
240.0
 50
270.0
210
0.0
220
0.0
230
1.0
  0
INSERT
  5
1A6
100
AcDbEntity
  8
1
  6
CONTINUOUS
 62
     1
100
AcDbBlockReference
  2
LDR
 10
505.159
 20
-13.2299
 30
0.0
 41
240.0
 42
240.0
 50
270.0
210
0.0
220
0.0
230
1.0
  0
INSERT
  5
1A7
100
AcDbEntity
  8
1
  6
CONTINUOUS
 62
     1
100
AcDbBlockReference
  2
LDR
 10
446.6174
 20
-37.4007
 30
0.0
 41
240.0
 42
240.0
 50
180.0
210
0.0
220
0.0
230
1.0
  0
INSERT
  5
1A8
100
AcDbEntity
  8
1
  6
CONTINUOUS
 62
     1
100
AcDbBlockReference
  2
LDR
 10
446.6174
 20
-37.4007
 30
0.0
 41
240.0
 42
240.0
 50
180.0
210
0.0
220
0.0
230
1.0
  0
INSERT
  5
1A9
100
AcDbEntity
  8
1
  6
CONTINUOUS
 62
     1
100
AcDbBlockReference
  2
LDR
 10
494.6174
 20
-37.4007
 30
0.0
 41
240.0
 42
240.0
210
0.0
220
0.0
230
1.0
  0
INSERT
  5
1AA
100
AcDbEntity
  8
1
  6
CONTINUOUS
 62
     1
100
AcDbBlockReference
  2
LDR
 10
494.6174
 20
-37.4007
 30
0.0
 41
240.0
 42
240.0
210
0.0
220
0.0
230
1.0
  0
INSERT
  5
1AB
100
AcDbEntity
  8
1
  6
CONTINUOUS
 62
     1
100
AcDbBlockReference
  2
LDR
 10
505.0994
 20
-61.4007
 30
0.0
 41
240.0
 42
240.0
 50
90.0
210
0.0
220
0.0
230
1.0
  0
INSERT
  5
1AC
100
AcDbEntity
  8
1
  6
CONTINUOUS
 62
     1
100
AcDbBlockReference
  2
LDR
 10
505.0994
 20
-61.4007
 30
0.0
 41
240.0
 42
240.0
 50
90.0
210
0.0
220
0.0
230
1.0
  0
INSERT
  5
1AD
100
AcDbEntity
  8
1
  6
CONTINUOUS
 62
     1
100
AcDbBlockReference
  2
LDR
 10
505.0994
 20
-78.2007
 30
0.0
 41
240.0
 42
240.0
 50
270.0
210
0.0
220
0.0
230
1.0
  0
INSERT
  5
1AE
100
AcDbEntity
  8
1
  6
CONTINUOUS
 62
     1
100
AcDbBlockReference
  2
LDR
 10
505.0994
 20
-78.2007
 30
0.0
 41
240.0
 42
240.0
 50
270.0
210
0.0
220
0.0
230
1.0
  0
INSERT
  5
1AF
100
AcDbEntity
  8
1
  6
CONTINUOUS
 62
     1
100
AcDbBlockReference
  2
LDR
 10
594.277
 20
27.5701
 30
0.0
 41
240.0
 42
240.0
 50
180.0
210
0.0
220
0.0
230
1.0
  0
INSERT
  5
1B0
100
AcDbEntity
  8
1
  6
CONTINUOUS
 62
     1
100
AcDbBlockReference
  2
LDR
 10
594.277
 20
27.5701
 30
0.0
 41
240.0
 42
240.0
 50
180.0
210
0.0
220
0.0
230
1.0
  0
INSERT
  5
1B1
100
AcDbEntity
  8
1
  6
CONTINUOUS
 62
     1
100
AcDbBlockReference
  2
LDR
 10
642.277
 20
27.5701
 30
0.0
 41
240.0
 42
240.0
210
0.0
220
0.0
230
1.0
  0
INSERT
  5
1B2
100
AcDbEntity
  8
1
  6
CONTINUOUS
 62
     1
100
AcDbBlockReference
  2
LDR
 10
642.277
 20
27.5701
 30
0.0
 41
240.0
 42
240.0
210
0.0
220
0.0
230
1.0
  0
INSERT
  5
1B3
100
AcDbEntity
  8
1
  6
CONTINUOUS
 62
     1
100
AcDbBlockReference
  2
LDR
 10
652.759
 20
3.5701
 30
0.0
 41
240.0
 42
240.0
 50
90.0
210
0.0
220
0.0
230
1.0
  0
INSERT
  5
1B4
100
AcDbEntity
  8
1
  6
CONTINUOUS
 62
     1
100
AcDbBlockReference
  2
LDR
 10
652.759
 20
3.5701
 30
0.0
 41
240.0
 42
240.0
 50
90.0
210
0.0
220
0.0
230
1.0
  0
INSERT
  5
1B5
100
AcDbEntity
  8
1
  6
CONTINUOUS
 62
     1
100
AcDbBlockReference
  2
LDR
 10
652.759
 20
-13.2299
 30
0.0
 41
240.0
 42
240.0
 50
270.0
210
0.0
220
0.0
230
1.0
  0
INSERT
  5
1B6
100
AcDbEntity
  8
1
  6
CONTINUOUS
 62
     1
100
AcDbBlockReference
  2
LDR
 10
652.759
 20
-13.2299
 30
0.0
 41
240.0
 42
240.0
 50
270.0
210
0.0
220
0.0
230
1.0
  0
INSERT
  5
1B7
100
AcDbEntity
  8
1
  6
CONTINUOUS
 62
     1
100
AcDbBlockReference
  2
LDR
 10
586.477
 20
-37.4007
 30
0.0
 41
240.0
 42
240.0
 50
180.0
210
0.0
220
0.0
230
1.0
  0
INSERT
  5
1B8
100
AcDbEntity
  8
1
  6
CONTINUOUS
 62
     1
100
AcDbBlockReference
  2
LDR
 10
586.477
 20
-37.4007
 30
0.0
 41
240.0
 42
240.0
 50
180.0
210
0.0
220
0.0
230
1.0
  0
INSERT
  5
1B9
100
AcDbEntity
  8
1
  6
CONTINUOUS
 62
     1
100
AcDbBlockReference
  2
LDR
 10
650.077
 20
-37.4007
 30
0.0
 41
240.0
 42
240.0
210
0.0
220
0.0
230
1.0
  0
INSERT
  5
1BA
100
AcDbEntity
  8
1
  6
CONTINUOUS
 62
     1
100
AcDbBlockReference
  2
LDR
 10
650.077
 20
-37.4007
 30
0.0
 41
240.0
 42
240.0
210
0.0
220
0.0
230
1.0
  0
INSERT
  5
1BB
100
AcDbEntity
  8
1
  6
CONTINUOUS
 62
     1
100
AcDbBlockReference
  2
LDR
 10
569.5712
 20
-44.6007
 30
0.0
 41
240.0
 42
240.0
 50
90.0
210
0.0
220
0.0
230
1.0
  0
INSERT
  5
1BC
100
AcDbEntity
  8
1
  6
CONTINUOUS
 62
     1
100
AcDbBlockReference
  2
LDR
 10
569.5712
 20
-44.6007
 30
0.0
 41
240.0
 42
240.0
 50
90.0
210
0.0
220
0.0
230
1.0
  0
INSERT
  5
1BD
100
AcDbEntity
  8
1
  6
CONTINUOUS
 62
     1
100
AcDbBlockReference
  2
LDR
 10
569.5712
 20
-95.0007
 30
0.0
 41
240.0
 42
240.0
 50
270.0
210
0.0
220
0.0
230
1.0
  0
INSERT
  5
1BE
100
AcDbEntity
  8
1
  6
CONTINUOUS
 62
     1
100
AcDbBlockReference
  2
LDR
 10
569.5712
 20
-95.0007
 30
0.0
 41
240.0
 42
240.0
 50
270.0
210
0.0
220
0.0
230
1.0
  0
INSERT
  5
1BF
100
AcDbEntity
  8
1
  6
CONTINUOUS
 62
     1
100
AcDbBlockReference
  2
LDR
 10
662.2866
 20
-61.4007
 30
0.0
 41
240.0
 42
240.0
 50
90.0
210
0.0
220
0.0
230
1.0
  0
INSERT
  5
1C0
100
AcDbEntity
  8
1
  6
CONTINUOUS
 62
     1
100
AcDbBlockReference
  2
LDR
 10
662.2866
 20
-61.4007
 30
0.0
 41
240.0
 42
240.0
 50
90.0
210
0.0
220
0.0
230
1.0
  0
INSERT
  5
1C1
100
AcDbEntity
  8
1
  6
CONTINUOUS
 62
     1
100
AcDbBlockReference
  2
LDR
 10
662.2866
 20
-78.2007
 30
0.0
 41
240.0
 42
240.0
 50
270.0
210
0.0
220
0.0
230
1.0
  0
INSERT
  5
1C2
100
AcDbEntity
  8
1
  6
CONTINUOUS
 62
     1
100
AcDbBlockReference
  2
LDR
 10
446.6171
 20
-104.9593
 30
0.0
 41
240.0
 42
240.0
 50
180.0
210
0.0
220
0.0
230
1.0
  0
INSERT
  5
1C3
100
AcDbEntity
  8
1
  6
CONTINUOUS
 62
     1
100
AcDbBlockReference
  2
LDR
 10
446.6171
 20
-104.9593
 30
0.0
 41
240.0
 42
240.0
 50
180.0
210
0.0
220
0.0
230
1.0
  0
INSERT
  5
1C4
100
AcDbEntity
  8
1
  6
CONTINUOUS
 62
     1
100
AcDbBlockReference
  2
LDR
 10
494.6171
 20
-104.9593
 30
0.0
 41
240.0
 42
240.0
210
0.0
220
0.0
230
1.0
  0
INSERT
  5
1C5
100
AcDbEntity
  8
1
  6
CONTINUOUS
 62
     1
100
AcDbBlockReference
  2
LDR
 10
494.6171
 20
-104.9593
 30
0.0
 41
240.0
 42
240.0
210
0.0
220
0.0
230
1.0
  0
INSERT
  5
1C6
100
AcDbEntity
  8
1
  6
CONTINUOUS
 62
     1
100
AcDbBlockReference
  2
LDR
 10
505.0994
 20
-121.1593
 30
0.0
 41
240.0
 42
240.0
 50
90.0
210
0.0
220
0.0
230
1.0
  0
INSERT
  5
1C7
100
AcDbEntity
  8
1
  6
CONTINUOUS
 62
     1
100
AcDbBlockReference
  2
LDR
 10
505.0994
 20
-121.1593
 30
0.0
 41
240.0
 42
240.0
 50
90.0
210
0.0
220
0.0
230
1.0
  0
INSERT
  5
1C8
100
AcDbEntity
  8
1
  6
CONTINUOUS
 62
     1
100
AcDbBlockReference
  2
LDR
 10
505.0994
 20
-131.9593
 30
0.0
 41
240.0
 42
240.0
 50
270.0
210
0.0
220
0.0
230
1.0
  0
INSERT
  5
1C9
100
AcDbEntity
  8
1
  6
CONTINUOUS
 62
     1
100
AcDbBlockReference
  2
LDR
 10
505.0994
 20
-131.9593
 30
0.0
 41
240.0
 42
240.0
 50
270.0
210
0.0
220
0.0
230
1.0
  0
INSERT
  5
1CA
100
AcDbEntity
  8
1
  6
CONTINUOUS
 62
     1
100
AcDbBlockReference
  2
LDR
 10
505.0994
 20
-142.7593
 30
0.0
 41
240.0
 42
240.0
 50
90.0
210
0.0
220
0.0
230
1.0
  0
INSERT
  5
1CB
100
AcDbEntity
  8
1
  6
CONTINUOUS
 62
     1
100
AcDbBlockReference
  2
LDR
 10
505.0994
 20
-142.7593
 30
0.0
 41
240.0
 42
240.0
 50
90.0
210
0.0
220
0.0
230
1.0
  0
INSERT
  5
1CC
100
AcDbEntity
  8
1
  6
CONTINUOUS
 62
     1
100
AcDbBlockReference
  2
LDR
 10
505.0994
 20
-153.5593
 30
0.0
 41
240.0
 42
240.0
 50
270.0
210
0.0
220
0.0
230
1.0
  0
INSERT
  5
1CD
100
AcDbEntity
  8
1
  6
CONTINUOUS
 62
     1
100
AcDbBlockReference
  2
LDR
 10
505.0994
 20
-153.5593
 30
0.0
 41
240.0
 42
240.0
 50
270.0
210
0.0
220
0.0
230
1.0
  0
INSERT
  5
1CE
100
AcDbEntity
  8
1
  6
CONTINUOUS
 62
     1
100
AcDbBlockReference
  2
LDR
 10
446.7266
 20
-140.9496
 30
0.0
 41
240.0
 42
240.0
210
0.0
220
0.0
230
1.0
  0
INSERT
  5
1CF
100
AcDbEntity
  8
1
  6
CONTINUOUS
 62
     1
100
AcDbBlockReference
  2
LDR
 10
454.4171
 20
-140.9593
 30
0.0
 41
240.0
 42
240.0
 50
180.0
210
0.0
220
0.0
230
1.0
  0
INSERT
  5
1D0
100
AcDbEntity
  8
1
  6
CONTINUOUS
 62
     1
100
AcDbBlockReference
  2
LDR
 10
454.4171
 20
-140.9593
 30
0.0
 41
240.0
 42
240.0
 50
180.0
210
0.0
220
0.0
230
1.0
  0
INSERT
  5
1D1
100
AcDbEntity
  8
1
  6
CONTINUOUS
 62
     1
100
AcDbBlockReference
  2
LDR
 10
486.8171
 20
-140.9593
 30
0.0
 41
240.0
 42
240.0
210
0.0
220
0.0
230
1.0
  0
INSERT
  5
1D2
100
AcDbEntity
  8
1
  6
CONTINUOUS
 62
     1
100
AcDbBlockReference
  2
LDR
 10
594.2171
 20
-104.9593
 30
0.0
 41
240.0
 42
240.0
 50
180.0
210
0.0
220
0.0
230
1.0
  0
INSERT
  5
1D3
100
AcDbEntity
  8
1
  6
CONTINUOUS
 62
     1
100
AcDbBlockReference
  2
LDR
 10
594.2171
 20
-104.9593
 30
0.0
 41
240.0
 42
240.0
 50
180.0
210
0.0
220
0.0
230
1.0
  0
INSERT
  5
1D4
100
AcDbEntity
  8
1
  6
CONTINUOUS
 62
     1
100
AcDbBlockReference
  2
LDR
 10
642.2171
 20
-104.9593
 30
0.0
 41
240.0
 42
240.0
210
0.0
220
0.0
230
1.0
  0
INSERT
  5
1D5
100
AcDbEntity
  8
1
  6
CONTINUOUS
 62
     1
100
AcDbBlockReference
  2
LDR
 10
642.2171
 20
-104.9593
 30
0.0
 41
240.0
 42
240.0
210
0.0
220
0.0
230
1.0
  0
INSERT
  5
1D6
100
AcDbEntity
  8
1
  6
CONTINUOUS
 62
     1
100
AcDbBlockReference
  2
LDR
 10
652.6994
 20
-121.1593
 30
0.0
 41
240.0
 42
240.0
 50
90.0
210
0.0
220
0.0
230
1.0
  0
INSERT
  5
1D7
100
AcDbEntity
  8
1
  6
CONTINUOUS
 62
     1
100
AcDbBlockReference
  2
LDR
 10
652.6994
 20
-121.1593
 30
0.0
 41
240.0
 42
240.0
 50
90.0
210
0.0
220
0.0
230
1.0
  0
INSERT
  5
1D8
100
AcDbEntity
  8
1
  6
CONTINUOUS
 62
     1
100
AcDbBlockReference
  2
LDR
 10
652.6994
 20
-131.9593
 30
0.0
 41
240.0
 42
240.0
 50
270.0
210
0.0
220
0.0
230
1.0
  0
INSERT
  5
1D9
100
AcDbEntity
  8
1
  6
CONTINUOUS
 62
     1
100
AcDbBlockReference
  2
LDR
 10
652.6994
 20
-131.9593
 30
0.0
 41
240.0
 42
240.0
 50
270.0
210
0.0
220
0.0
230
1.0
  0
INSERT
  5
1DA
100
AcDbEntity
  8
1
  6
CONTINUOUS
 62
     1
100
AcDbBlockReference
  2
LDR
 10
652.6994
 20
-142.7593
 30
0.0
 41
240.0
 42
240.0
 50
90.0
210
0.0
220
0.0
230
1.0
  0
INSERT
  5
1DB
100
AcDbEntity
  8
1
  6
CONTINUOUS
 62
     1
100
AcDbBlockReference
  2
LDR
 10
652.6994
 20
-142.7593
 30
0.0
 41
240.0
 42
240.0
 50
90.0
210
0.0
220
0.0
230
1.0
  0
INSERT
  5
1DC
100
AcDbEntity
  8
1
  6
CONTINUOUS
 62
     1
100
AcDbBlockReference
  2
LDR
 10
652.6994
 20
-153.5593
 30
0.0
 41
240.0
 42
240.0
 50
270.0
210
0.0
220
0.0
230
1.0
  0
INSERT
  5
1DD
100
AcDbEntity
  8
1
  6
CONTINUOUS
 62
     1
100
AcDbBlockReference
  2
LDR
 10
652.6994
 20
-153.5593
 30
0.0
 41
240.0
 42
240.0
 50
270.0
210
0.0
220
0.0
230
1.0
  0
INSERT
  5
1DE
100
AcDbEntity
  8
1
  6
CONTINUOUS
 62
     1
100
AcDbBlockReference
  2
LDR
 10
602.0171
 20
-140.9593
 30
0.0
 41
240.0
 42
240.0
 50
180.0
210
0.0
220
0.0
230
1.0
  0
INSERT
  5
1DF
100
AcDbEntity
  8
1
  6
CONTINUOUS
 62
     1
100
AcDbBlockReference
  2
LDR
 10
602.0171
 20
-140.9593
 30
0.0
 41
240.0
 42
240.0
 50
180.0
210
0.0
220
0.0
230
1.0
  0
INSERT
  5
1E0
100
AcDbEntity
  8
1
  6
CONTINUOUS
 62
     1
100
AcDbBlockReference
  2
LDR
 10
634.4171
 20
-140.9593
 30
0.0
 41
240.0
 42
240.0
210
0.0
220
0.0
230
1.0
  0
INSERT
  5
1E1
100
AcDbEntity
  8
1
  6
CONTINUOUS
 62
     1
100
AcDbBlockReference
  2
LDR
 10
634.4171
 20
-140.9593
 30
0.0
 41
240.0
 42
240.0
210
0.0
220
0.0
230
1.0
  0
INSERT
  5
1E2
100
AcDbEntity
  8
1
  6
CONTINUOUS
 62
     1
100
AcDbBlockReference
  2
LDR
 10
594.3266
 20
-140.9496
 30
0.0
 41
240.0
 42
240.0
210
0.0
220
0.0
230
1.0
  0
LINE
  5
1E3
100
AcDbEntity
  8
1
  6
CONTINUOUS
 62
     7
100
AcDbLine
 10
652.6994
 20
-134.0593
 30
0.0
 11
657.4994
 21
-134.0593
 31
0.0
  0
LINE
  5
1E4
100
AcDbEntity
  8
1
  6
CONTINUOUS
 62
     7
100
AcDbLine
 10
652.6994
 20
-140.6593
 30
0.0
 11
657.4994
 21
-140.6593
 31
0.0
  0
INSERT
  5
1E5
100
AcDbEntity
  8
1
  6
CONTINUOUS
 62
     1
100
AcDbBlockReference
  2
LDR
 10
652.6994
 20
-134.0593
 30
0.0
 41
240.0
 42
240.0
 50
180.0
210
0.0
220
0.0
230
1.0
  0
INSERT
  5
1E6
100
AcDbEntity
  8
1
  6
CONTINUOUS
 62
     1
100
AcDbBlockReference
  2
LDR
 10
652.6994
 20
-140.6593
 30
0.0
 41
240.0
 42
240.0
 50
180.0
210
0.0
220
0.0
230
1.0
  0
LINE
  5
1E7
100
AcDbEntity
  8
1
  6
CONTINUOUS
 62
     7
100
AcDbLine
 10
652.6994
 20
-137.3593
 30
0.0
 11
662.2994
 21
-137.3593
 31
0.0
  0
INSERT
  5
1E8
100
AcDbEntity
  8
1
  6
CONTINUOUS
 62
     1
100
AcDbBlockReference
  2
LDR
 10
652.6994
 20
-137.3593
 30
0.0
 41
240.0
 42
240.0
 50
180.0
210
0.0
220
0.0
230
1.0
  0
LINE
  5
1E9
100
AcDbEntity
  8
1
  6
CONTINUOUS
 62
     7
100
AcDbLine
 10
505.0994
 20
-137.3593
 30
0.0
 11
514.6994
 21
-137.3593
 31
0.0
  0
LINE
  5
1EA
100
AcDbEntity
  8
1
  6
CONTINUOUS
 62
     7
100
AcDbLine
 10
505.0994
 20
-134.0593
 30
0.0
 11
509.8994
 21
-134.0593
 31
0.0
  0
LINE
  5
1EB
100
AcDbEntity
  8
1
  6
CONTINUOUS
 62
     7
100
AcDbLine
 10
505.0994
 20
-140.6593
 30
0.0
 11
509.8994
 21
-140.6593
 31
0.0
  0
INSERT
  5
1EC
100
AcDbEntity
  8
1
  6
CONTINUOUS
 62
     1
100
AcDbBlockReference
  2
LDR
 10
505.0994
 20
-134.0593
 30
0.0
 41
240.0
 42
240.0
 50
180.0
210
0.0
220
0.0
230
1.0
  0
INSERT
  5
1ED
100
AcDbEntity
  8
1
  6
CONTINUOUS
 62
     1
100
AcDbBlockReference
  2
LDR
 10
505.0994
 20
-140.6593
 30
0.0
 41
240.0
 42
240.0
 50
180.0
210
0.0
220
0.0
230
1.0
  0
INSERT
  5
1EE
100
AcDbEntity
  8
1
  6
CONTINUOUS
 62
     1
100
AcDbBlockReference
  2
LDR
 10
505.0994
 20
-137.3593
 30
0.0
 41
240.0
 42
240.0
 50
180.0
210
0.0
220
0.0
230
1.0
  0
LINE
  5
1EF
100
AcDbEntity
  8
1
  6
CONTINUOUS
 62
     7
100
AcDbLine
 10
48.9646
 20
29.7822
 30
0.0
 11
72.877
 21
29.7822
 31
0.0
  0
LINE
  5
1F0
100
AcDbEntity
  8
1
  6
CONTINUOUS
 62
     7
100
AcDbLine
 10
76.477
 20
29.7822
 30
0.0
 11
100.3893
 21
29.7822
 31
0.0
  0
LINE
  5
1F1
100
AcDbEntity
  8
1
  6
CONTINUOUS
 62
     7
100
AcDbLine
 10
115.6182
 20
1.5937
 30
0.0
 11
115.6182
 21
9.6937
 31
0.0
  0
LINE
  5
1F2
100
AcDbEntity
  8
1
  6
CONTINUOUS
 62
     7
100
AcDbLine
 10
115.6182
 20
13.8937
 30
0.0
 11
115.6182
 21
21.9937
 31
0.0
  0
LINE
  5
1F3
100
AcDbEntity
  8
1
  6
CONTINUOUS
 62
     7
100
AcDbLine
 10
130.0182
 20
21.9937
 30
0.0
 11
130.0182
 21
-1.3181
 31
0.0
  0
LINE
  5
1F4
100
AcDbEntity
  8
1
  6
CONTINUOUS
 62
     7
100
AcDbLine
 10
130.0182
 20
-5.5181
 30
0.0
 11
130.0182
 21
-28.8299
 31
0.0
  0
LINE
  5
1F5
100
AcDbEntity
  8
1
  6
CONTINUOUS
 62
     7
100
AcDbLine
 10
115.6182
 20
1.5937
 30
0.0
 11
115.6182
 21
-4.7063
 31
0.0
  0
LINE
  5
1F6
100
AcDbEntity
  8
1
  6
CONTINUOUS
 62
     7
100
AcDbLine
 10
115.6182
 20
-8.9063
 30
0.0
 11
115.6182
 21
-15.2063
 31
0.0
  0
LINE
  5
1F7
100
AcDbEntity
  8
1
  6
CONTINUOUS
 62
     7
100
AcDbLine
 10
115.6182
 20
-15.2063
 30
0.0
 11
115.6182
 21
-19.9181
 31
0.0
  0
LINE
  5
1F8
100
AcDbEntity
  8
1
  6
CONTINUOUS
 62
     7
100
AcDbLine
 10
115.6182
 20
-24.1181
 30
0.0
 11
115.6182
 21
-28.8299
 31
0.0
  0
TEXT
  5
1F9
100
AcDbEntity
  8
1
  6
CONTINUOUS
 62
     7
100
AcDbText
 10
73.5313
 20
28.2822
 30
0.0
 40
3.0
  1
A
  7
MONOTXT
 72
     4
 11
74.6887
 21
29.7822
 31
0.0
210
0.0
220
0.0
230
1.0
100
AcDbText
  0
TEXT
  5
1FA
100
AcDbEntity
  8
1
  6
CONTINUOUS
 62
     7
100
AcDbText
 10
114.6261
 20
10.2937
 30
0.0
 40
3.0
  1
D
  7
MONOTXT
 72
     4
 11
115.63
 21
11.7937
 31
0.0
210
0.0
220
0.0
230
1.0
100
AcDbText
  0
TEXT
  5
1FB
100
AcDbEntity
  8
1
  6
CONTINUOUS
 62
     7
100
AcDbText
 10
128.8725
 20
-4.9181
 30
0.0
 40
3.0
  1
A
  7
MONOTXT
 72
     4
 11
130.0299
 21
-3.4181
 31
0.0
210
0.0
220
0.0
230
1.0
100
AcDbText
  0
TEXT
  5
1FC
100
AcDbEntity
  8
1
  6
CONTINUOUS
 62
     7
100
AcDbText
 10
114.5552
 20
-8.3063
 30
0.0
 40
3.0
  1
C
  7
MONOTXT
 72
     4
 11
115.63
 21
-6.8063
 31
0.0
210
0.0
220
0.0
230
1.0
100
AcDbText
  0
TEXT
  5
1FD
100
AcDbEntity
  8
1
  6
CONTINUOUS
 62
     7
100
AcDbText
 10
114.6969
 20
-23.5181
 30
0.0
 40
3.0
  1
E
  7
MONOTXT
 72
     4
 11
115.6299
 21
-22.0181
 31
0.0
210
0.0
220
0.0
230
1.0
100
AcDbText
  0
LINE
  5
1FE
100
AcDbEntity
  8
1
  6
CONTINUOUS
 62
     7
100
AcDbLine
 10
54.1459
 20
-36.7699
 30
0.0
 11
72.9345
 21
-36.7699
 31
0.0
  0
LINE
  5
1FF
100
AcDbEntity
  8
1
  6
CONTINUOUS
 62
     7
100
AcDbLine
 10
76.5345
 20
-36.7699
 30
0.0
 11
95.323
 21
-36.7699
 31
0.0
  0
LINE
  5
200
100
AcDbEntity
  8
1
  6
CONTINUOUS
 62
     7
100
AcDbLine
 10
115.6182
 20
-63.8487
 30
0.0
 11
115.6182
 21
-60.4393
 31
0.0
  0
LINE
  5
201
100
AcDbEntity
  8
1
  6
CONTINUOUS
 62
     7
100
AcDbLine
 10
115.6182
 20
-56.2393
 30
0.0
 11
115.6182
 21
-52.8299
 31
0.0
  0
LINE
  5
202
100
AcDbEntity
  8
1
  6
CONTINUOUS
 62
     7
100
AcDbLine
 10
115.6182
 20
-63.8487
 30
0.0
 11
115.6182
 21
-70.1487
 31
0.0
  0
LINE
  5
203
100
AcDbEntity
  8
1
  6
CONTINUOUS
 62
     7
100
AcDbLine
 10
115.6182
 20
-74.3487
 30
0.0
 11
115.6182
 21
-80.6487
 31
0.0
  0
LINE
  5
204
100
AcDbEntity
  8
1
  6
CONTINUOUS
 62
     7
100
AcDbLine
 10
115.6182
 20
-80.6487
 30
0.0
 11
115.6182
 21
-85.1253
 31
0.0
  0
LINE
  5
205
100
AcDbEntity
  8
1
  6
CONTINUOUS
 62
     7
100
AcDbLine
 10
115.6182
 20
-89.3253
 30
0.0
 11
115.6182
 21
-93.8018
 31
0.0
  0
LINE
  5
206
100
AcDbEntity
  8
1
  6
CONTINUOUS
 62
     7
100
AcDbLine
 10
129.9705
 20
-52.8299
 30
0.0
 11
129.9705
 21
-71.2159
 31
0.0
  0
LINE
  5
207
100
AcDbEntity
  8
1
  6
CONTINUOUS
 62
     7
100
AcDbLine
 10
129.9705
 20
-75.4159
 30
0.0
 11
129.9705
 21
-93.8018
 31
0.0
  0
TEXT
  5
208
100
AcDbEntity
  8
1
  6
CONTINUOUS
 62
     7
100
AcDbText
 10
73.5888
 20
-38.2699
 30
0.0
 40
3.0
  1
A
  7
MONOTXT
 72
     4
 11
74.7462
 21
-36.7699
 31
0.0
210
0.0
220
0.0
230
1.0
100
AcDbText
  0
TEXT
  5
209
100
AcDbEntity
  8
1
  6
CONTINUOUS
 62
     7
100
AcDbText
 10
128.8248
 20
-74.8159
 30
0.0
 40
3.0
  1
A
  7
MONOTXT
 72
     4
 11
129.9822
 21
-73.3159
 31
0.0
210
0.0
220
0.0
230
1.0
100
AcDbText
  0
TEXT
  5
20A
100
AcDbEntity
  8
1
  6
CONTINUOUS
 62
     7
100
AcDbText
 10
114.6969
 20
-59.8393
 30
0.0
 40
3.0
  1
E
  7
MONOTXT
 72
     4
 11
115.6299
 21
-58.3393
 31
0.0
210
0.0
220
0.0
230
1.0
100
AcDbText
  0
TEXT
  5
20B
100
AcDbEntity
  8
1
  6
CONTINUOUS
 62
     7
100
AcDbText
 10
114.5552
 20
-73.7487
 30
0.0
 40
3.0
  1
C
  7
MONOTXT
 72
     4
 11
115.63
 21
-72.2487
 31
0.0
210
0.0
220
0.0
230
1.0
100
AcDbText
  0
TEXT
  5
20C
100
AcDbEntity
  8
1
  6
CONTINUOUS
 62
     7
100
AcDbText
 10
114.6261
 20
-88.7253
 30
0.0
 40
3.0
  1
D
  7
MONOTXT
 72
     4
 11
115.63
 21
-87.2253
 31
0.0
210
0.0
220
0.0
230
1.0
100
AcDbText
  0
LINE
  5
20D
100
AcDbEntity
  8
1
  6
CONTINUOUS
 62
     7
100
AcDbLine
 10
52.8493
 20
-105.8018
 30
0.0
 11
72.8293
 21
-105.8018
 31
0.0
  0
LINE
  5
20E
100
AcDbEntity
  8
1
  6
CONTINUOUS
 62
     7
100
AcDbLine
 10
76.4293
 20
-105.8018
 30
0.0
 11
96.4093
 21
-105.8018
 31
0.0
  0
LINE
  5
20F
100
AcDbEntity
  8
1
  6
CONTINUOUS
 62
     7
100
AcDbLine
 10
115.685
 20
-131.1818
 30
0.0
 11
115.685
 21
-126.5918
 31
0.0
  0
LINE
  5
210
100
AcDbEntity
  8
1
  6
CONTINUOUS
 62
     7
100
AcDbLine
 10
115.685
 20
-122.3918
 30
0.0
 11
115.685
 21
-117.8018
 31
0.0
  0
LINE
  5
211
100
AcDbEntity
  8
1
  6
CONTINUOUS
 62
     7
100
AcDbLine
 10
115.685
 20
-131.1818
 30
0.0
 11
115.685
 21
-137.4818
 31
0.0
  0
LINE
  5
212
100
AcDbEntity
  8
1
  6
CONTINUOUS
 62
     7
100
AcDbLine
 10
115.685
 20
-141.6818
 30
0.0
 11
115.685
 21
-147.9818
 31
0.0
  0
LINE
  5
213
100
AcDbEntity
  8
1
  6
CONTINUOUS
 62
     7
100
AcDbLine
 10
115.685
 20
-147.9818
 30
0.0
 11
115.685
 21
-152.5718
 31
0.0
  0
LINE
  5
214
100
AcDbEntity
  8
1
  6
CONTINUOUS
 62
     7
100
AcDbLine
 10
115.685
 20
-156.7718
 30
0.0
 11
115.685
 21
-161.3618
 31
0.0
  0
LINE
  5
215
100
AcDbEntity
  8
1
  6
CONTINUOUS
 62
     7
100
AcDbLine
 10
129.9705
 20
-117.8018
 30
0.0
 11
129.9705
 21
-137.4818
 31
0.0
  0
LINE
  5
216
100
AcDbEntity
  8
1
  6
CONTINUOUS
 62
     7
100
AcDbLine
 10
129.9705
 20
-141.6818
 30
0.0
 11
129.9705
 21
-161.3618
 31
0.0
  0
TEXT
  5
217
100
AcDbEntity
  8
1
  6
CONTINUOUS
 62
     7
100
AcDbText
 10
73.4836
 20
-107.3018
 30
0.0
 40
3.0
  1
A
  7
MONOTXT
 72
     4
 11
74.641
 21
-105.8018
 31
0.0
210
0.0
220
0.0
230
1.0
100
AcDbText
  0
TEXT
  5
218
100
AcDbEntity
  8
1
  6
CONTINUOUS
 62
     7
100
AcDbText
 10
128.8248
 20
-141.0818
 30
0.0
 40
3.0
  1
A
  7
MONOTXT
 72
     4
 11
129.9822
 21
-139.5818
 31
0.0
210
0.0
220
0.0
230
1.0
100
AcDbText
  0
TEXT
  5
219
100
AcDbEntity
  8
1
  6
CONTINUOUS
 62
     7
100
AcDbText
 10
114.7637
 20
-125.9918
 30
0.0
 40
3.0
  1
F
  7
MONOTXT
 72
     4
 11
115.6967
 21
-124.4918
 31
0.0
210
0.0
220
0.0
230
1.0
100
AcDbText
  0
TEXT
  5
21A
100
AcDbEntity
  8
1
  6
CONTINUOUS
 62
     7
100
AcDbText
 10
114.622
 20
-141.0818
 30
0.0
 40
3.0
  1
C
  7
MONOTXT
 72
     4
 11
115.6968
 21
-139.5818
 31
0.0
210
0.0
220
0.0
230
1.0
100
AcDbText
  0
TEXT
  5
21B
100
AcDbEntity
  8
1
  6
CONTINUOUS
 62
     7
100
AcDbText
 10
114.7637
 20
-156.1718
 30
0.0
 40
3.0
  1
F
  7
MONOTXT
 72
     4
 11
115.6967
 21
-154.6718
 31
0.0
210
0.0
220
0.0
230
1.0
100
AcDbText
  0
LINE
  5
21C
100
AcDbEntity
  8
1
  6
CONTINUOUS
 62
     7
100
AcDbLine
 10
192.5394
 20
29.7809
 30
0.0
 11
222.8771
 21
29.7809
 31
0.0
  0
LINE
  5
21D
100
AcDbEntity
  8
1
  6
CONTINUOUS
 62
     7
100
AcDbLine
 10
226.4771
 20
29.7809
 30
0.0
 11
256.8147
 21
29.7809
 31
0.0
  0
LINE
  5
21E
100
AcDbEntity
  8
1
  6
CONTINUOUS
 62
     7
100
AcDbLine
 10
269.853
 20
1.5924
 30
0.0
 11
269.853
 21
9.6924
 31
0.0
  0
LINE
  5
21F
100
AcDbEntity
  8
1
  6
CONTINUOUS
 62
     7
100
AcDbLine
 10
269.853
 20
13.8924
 30
0.0
 11
269.853
 21
21.9924
 31
0.0
  0
LINE
  5
220
100
AcDbEntity
  8
1
  6
CONTINUOUS
 62
     7
100
AcDbLine
 10
284.253
 20
21.9924
 30
0.0
 11
284.253
 21
-1.3194
 31
0.0
  0
LINE
  5
221
100
AcDbEntity
  8
1
  6
CONTINUOUS
 62
     7
100
AcDbLine
 10
284.253
 20
-5.5194
 30
0.0
 11
284.253
 21
-28.8312
 31
0.0
  0
LINE
  5
222
100
AcDbEntity
  8
1
  6
CONTINUOUS
 62
     7
100
AcDbLine
 10
269.853
 20
1.5924
 30
0.0
 11
269.853
 21
-4.7076
 31
0.0
  0
LINE
  5
223
100
AcDbEntity
  8
1
  6
CONTINUOUS
 62
     7
100
AcDbLine
 10
269.853
 20
-8.9076
 30
0.0
 11
269.853
 21
-15.2076
 31
0.0
  0
LINE
  5
224
100
AcDbEntity
  8
1
  6
CONTINUOUS
 62
     7
100
AcDbLine
 10
269.853
 20
-15.2076
 30
0.0
 11
269.853
 21
-19.9194
 31
0.0
  0
LINE
  5
225
100
AcDbEntity
  8
1
  6
CONTINUOUS
 62
     7
100
AcDbLine
 10
269.853
 20
-24.1194
 30
0.0
 11
269.853
 21
-28.8312
 31
0.0
  0
LINE
  5
226
100
AcDbEntity
  8
1
  6
CONTINUOUS
 62
     7
100
AcDbLine
 10
198.8702
 20
-37.9688
 30
0.0
 11
222.877
 21
-37.9688
 31
0.0
  0
LINE
  5
227
100
AcDbEntity
  8
1
  6
CONTINUOUS
 62
     7
100
AcDbLine
 10
226.477
 20
-37.9688
 30
0.0
 11
250.4837
 21
-37.9688
 31
0.0
  0
LINE
  5
228
100
AcDbEntity
  8
1
  6
CONTINUOUS
 62
     7
100
AcDbLine
 10
265.6301
 20
-63.8487
 30
0.0
 11
265.6301
 21
-60.4388
 31
0.0
  0
LINE
  5
229
100
AcDbEntity
  8
1
  6
CONTINUOUS
 62
     7
100
AcDbLine
 10
265.6301
 20
-56.2388
 30
0.0
 11
265.6301
 21
-52.8288
 31
0.0
  0
LINE
  5
22A
100
AcDbEntity
  8
1
  6
CONTINUOUS
 62
     7
100
AcDbLine
 10
279.9824
 20
-52.8288
 30
0.0
 11
279.9824
 21
-71.2148
 31
0.0
  0
LINE
  5
22B
100
AcDbEntity
  8
1
  6
CONTINUOUS
 62
     7
100
AcDbLine
 10
279.9824
 20
-75.4148
 30
0.0
 11
279.9824
 21
-93.8007
 31
0.0
  0
LINE
  5
22C
100
AcDbEntity
  8
1
  6
CONTINUOUS
 62
     7
100
AcDbLine
 10
265.6301
 20
-63.8487
 30
0.0
 11
265.6301
 21
-70.1487
 31
0.0
  0
LINE
  5
22D
100
AcDbEntity
  8
1
  6
CONTINUOUS
 62
     7
100
AcDbLine
 10
265.6301
 20
-74.3487
 30
0.0
 11
265.6301
 21
-80.6487
 31
0.0
  0
LINE
  5
22E
100
AcDbEntity
  8
1
  6
CONTINUOUS
 62
     7
100
AcDbLine
 10
265.6301
 20
-80.6487
 30
0.0
 11
265.6301
 21
-85.1247
 31
0.0
  0
LINE
  5
22F
100
AcDbEntity
  8
1
  6
CONTINUOUS
 62
     7
100
AcDbLine
 10
265.6301
 20
-89.3247
 30
0.0
 11
265.6301
 21
-93.8007
 31
0.0
  0
LINE
  5
230
100
AcDbEntity
  8
1
  6
CONTINUOUS
 62
     7
100
AcDbLine
 10
197.3926
 20
-105.7993
 30
0.0
 11
222.8171
 21
-105.7993
 31
0.0
  0
LINE
  5
231
100
AcDbEntity
  8
1
  6
CONTINUOUS
 62
     7
100
AcDbLine
 10
226.4171
 20
-105.7993
 30
0.0
 11
251.8416
 21
-105.7993
 31
0.0
  0
LINE
  5
232
100
AcDbEntity
  8
1
  6
CONTINUOUS
 62
     7
100
AcDbLine
 10
271.1173
 20
-131.1793
 30
0.0
 11
271.1173
 21
-126.5893
 31
0.0
  0
LINE
  5
233
100
AcDbEntity
  8
1
  6
CONTINUOUS
 62
     7
100
AcDbLine
 10
271.1173
 20
-122.3893
 30
0.0
 11
271.1173
 21
-117.7993
 31
0.0
  0
LINE
  5
234
100
AcDbEntity
  8
1
  6
CONTINUOUS
 62
     7
100
AcDbLine
 10
285.4028
 20
-117.7993
 30
0.0
 11
285.4028
 21
-137.4793
 31
0.0
  0
LINE
  5
235
100
AcDbEntity
  8
1
  6
CONTINUOUS
 62
     7
100
AcDbLine
 10
285.4028
 20
-141.6793
 30
0.0
 11
285.4028
 21
-161.3593
 31
0.0
  0
LINE
  5
236
100
AcDbEntity
  8
1
  6
CONTINUOUS
 62
     7
100
AcDbLine
 10
271.1173
 20
-131.1793
 30
0.0
 11
271.1173
 21
-137.4793
 31
0.0
  0
LINE
  5
237
100
AcDbEntity
  8
1
  6
CONTINUOUS
 62
     7
100
AcDbLine
 10
271.1173
 20
-141.6793
 30
0.0
 11
271.1173
 21
-147.9793
 31
0.0
  0
LINE
  5
238
100
AcDbEntity
  8
1
  6
CONTINUOUS
 62
     7
100
AcDbLine
 10
271.1173
 20
-147.9793
 30
0.0
 11
271.1173
 21
-152.5693
 31
0.0
  0
LINE
  5
239
100
AcDbEntity
  8
1
  6
CONTINUOUS
 62
     7
100
AcDbLine
 10
271.1173
 20
-156.7693
 30
0.0
 11
271.1173
 21
-161.3593
 31
0.0
  0
TEXT
  5
23A
100
AcDbEntity
  8
1
  6
CONTINUOUS
 62
     7
100
AcDbText
 10
223.685
 20
28.2809
 30
0.0
 40
3.0
  1
B
  7
MONOTXT
 72
     4
 11
224.6889
 21
29.7809
 31
0.0
210
0.0
220
0.0
230
1.0
100
AcDbText
  0
TEXT
  5
23B
100
AcDbEntity
  8
1
  6
CONTINUOUS
 62
     7
100
AcDbText
 10
283.1073
 20
-4.9194
 30
0.0
 40
3.0
  1
A
  7
MONOTXT
 72
     4
 11
284.2647
 21
-3.4194
 31
0.0
210
0.0
220
0.0
230
1.0
100
AcDbText
  0
TEXT
  5
23C
100
AcDbEntity
  8
1
  6
CONTINUOUS
 62
     7
100
AcDbText
 10
268.8609
 20
10.2924
 30
0.0
 40
3.0
  1
D
  7
MONOTXT
 72
     4
 11
269.8648
 21
11.7924
 31
0.0
210
0.0
220
0.0
230
1.0
100
AcDbText
  0
TEXT
  5
23D
100
AcDbEntity
  8
1
  6
CONTINUOUS
 62
     7
100
AcDbText
 10
268.79
 20
-8.3076
 30
0.0
 40
3.0
  1
G
  7
MONOTXT
 72
     4
 11
269.8648
 21
-6.8076
 31
0.0
210
0.0
220
0.0
230
1.0
100
AcDbText
  0
TEXT
  5
23E
100
AcDbEntity
  8
1
  6
CONTINUOUS
 62
     7
100
AcDbText
 10
268.9317
 20
-23.5194
 30
0.0
 40
3.0
  1
E
  7
MONOTXT
 72
     4
 11
269.8647
 21
-22.0194
 31
0.0
210
0.0
220
0.0
230
1.0
100
AcDbText
  0
TEXT
  5
23F
100
AcDbEntity
  8
1
  6
CONTINUOUS
 62
     7
100
AcDbText
 10
223.6849
 20
-39.4688
 30
0.0
 40
3.0
  1
B
  7
MONOTXT
 72
     4
 11
224.6888
 21
-37.9688
 31
0.0
210
0.0
220
0.0
230
1.0
100
AcDbText
  0
TEXT
  5
240
100
AcDbEntity
  8
1
  6
CONTINUOUS
 62
     7
100
AcDbText
 10
278.8367
 20
-74.8148
 30
0.0
 40
3.0
  1
A
  7
MONOTXT
 72
     4
 11
279.9941
 21
-73.3148
 31
0.0
210
0.0
220
0.0
230
1.0
100
AcDbText
  0
TEXT
  5
241
100
AcDbEntity
  8
1
  6
CONTINUOUS
 62
     7
100
AcDbText
 10
264.7088
 20
-59.8388
 30
0.0
 40
3.0
  1
E
  7
MONOTXT
 72
     4
 11
265.6418
 21
-58.3388
 31
0.0
210
0.0
220
0.0
230
1.0
100
AcDbText
  0
TEXT
  5
242
100
AcDbEntity
  8
1
  6
CONTINUOUS
 62
     7
100
AcDbText
 10
264.5671
 20
-73.7487
 30
0.0
 40
3.0
  1
G
  7
MONOTXT
 72
     4
 11
265.6419
 21
-72.2487
 31
0.0
210
0.0
220
0.0
230
1.0
100
AcDbText
  0
TEXT
  5
243
100
AcDbEntity
  8
1
  6
CONTINUOUS
 62
     7
100
AcDbText
 10
264.638
 20
-88.7247
 30
0.0
 40
3.0
  1
D
  7
MONOTXT
 72
     4
 11
265.6419
 21
-87.2247
 31
0.0
210
0.0
220
0.0
230
1.0
100
AcDbText
  0
TEXT
  5
244
100
AcDbEntity
  8
1
  6
CONTINUOUS
 62
     7
100
AcDbText
 10
223.625
 20
-107.2993
 30
0.0
 40
3.0
  1
B
  7
MONOTXT
 72
     4
 11
224.6289
 21
-105.7993
 31
0.0
210
0.0
220
0.0
230
1.0
100
AcDbText
  0
TEXT
  5
245
100
AcDbEntity
  8
1
  6
CONTINUOUS
 62
     7
100
AcDbText
 10
284.2571
 20
-141.0793
 30
0.0
 40
3.0
  1
A
  7
MONOTXT
 72
     4
 11
285.4145
 21
-139.5793
 31
0.0
210
0.0
220
0.0
230
1.0
100
AcDbText
  0
TEXT
  5
246
100
AcDbEntity
  8
1
  6
CONTINUOUS
 62
     7
100
AcDbText
 10
271.0503
 20
-125.9789
 30
0.0
 40
3.0
  1
F
  7
MONOTXT
 72
     4
 11
271.9833
 21
-124.4789
 31
0.0
210
0.0
220
0.0
230
1.0
100
AcDbText
  0
TEXT
  5
247
100
AcDbEntity
  8
1
  6
CONTINUOUS
 62
     7
100
AcDbText
 10
270.196
 20
-156.1693
 30
0.0
 40
3.0
  1
F
  7
MONOTXT
 72
     4
 11
271.129
 21
-154.6693
 31
0.0
210
0.0
220
0.0
230
1.0
100
AcDbText
  0
TEXT
  5
248
100
AcDbEntity
  8
1
  6
CONTINUOUS
 62
     7
100
AcDbText
 10
270.0543
 20
-141.0793
 30
0.0
 40
3.0
  1
G
  7
MONOTXT
 72
     4
 11
271.1291
 21
-139.5793
 31
0.0
210
0.0
220
0.0
230
1.0
100
AcDbText
  0
LINE
  5
249
100
AcDbEntity
  8
1
  6
CONTINUOUS
 62
     7
100
AcDbLine
 10
446.677
 20
27.5701
 30
0.0
 11
468.877
 21
27.5701
 31
0.0
  0
LINE
  5
24A
100
AcDbEntity
  8
1
  6
CONTINUOUS
 62
     7
100
AcDbLine
 10
472.477
 20
27.5701
 30
0.0
 11
494.677
 21
27.5701
 31
0.0
  0
LINE
  5
24B
100
AcDbEntity
  8
1
  6
CONTINUOUS
 62
     7
100
AcDbLine
 10
594.277
 20
27.5701
 30
0.0
 11
616.477
 21
27.5701
 31
0.0
  0
LINE
  5
24C
100
AcDbEntity
  8
1
  6
CONTINUOUS
 62
     7
100
AcDbLine
 10
620.077
 20
27.5701
 30
0.0
 11
642.277
 21
27.5701
 31
0.0
  0
LINE
  5
24D
100
AcDbEntity
  8
1
  6
CONTINUOUS
 62
     7
100
AcDbLine
 10
505.159
 20
3.5701
 30
0.0
 11
505.159
 21
-2.7299
 31
0.0
  0
LINE
  5
24E
100
AcDbEntity
  8
1
  6
CONTINUOUS
 62
     7
100
AcDbLine
 10
505.159
 20
-6.9299
 30
0.0
 11
505.159
 21
-13.2299
 31
0.0
  0
LINE
  5
24F
100
AcDbEntity
  8
1
  6
CONTINUOUS
 62
     7
100
AcDbLine
 10
652.759
 20
3.5701
 30
0.0
 11
652.759
 21
-2.7299
 31
0.0
  0
LINE
  5
250
100
AcDbEntity
  8
1
  6
CONTINUOUS
 62
     7
100
AcDbLine
 10
652.759
 20
-6.9299
 30
0.0
 11
652.759
 21
-13.2299
 31
0.0
  0
LINE
  5
251
100
AcDbEntity
  8
1
  6
CONTINUOUS
 62
     7
100
AcDbLine
 10
446.6174
 20
-37.4007
 30
0.0
 11
468.8174
 21
-37.4007
 31
0.0
  0
LINE
  5
252
100
AcDbEntity
  8
1
  6
CONTINUOUS
 62
     7
100
AcDbLine
 10
472.4174
 20
-37.4007
 30
0.0
 11
494.6174
 21
-37.4007
 31
0.0
  0
LINE
  5
253
100
AcDbEntity
  8
1
  6
CONTINUOUS
 62
     7
100
AcDbLine
 10
505.0994
 20
-61.4007
 30
0.0
 11
505.0994
 21
-67.7007
 31
0.0
  0
LINE
  5
254
100
AcDbEntity
  8
1
  6
CONTINUOUS
 62
     7
100
AcDbLine
 10
505.0994
 20
-71.9007
 30
0.0
 11
505.0994
 21
-78.2007
 31
0.0
  0
LINE
  5
255
100
AcDbEntity
  8
1
  6
CONTINUOUS
 62
     7
100
AcDbLine
 10
662.2866
 20
-61.4007
 30
0.0
 11
662.2866
 21
-67.7007
 31
0.0
  0
LINE
  5
256
100
AcDbEntity
  8
1
  6
CONTINUOUS
 62
     7
100
AcDbLine
 10
662.2866
 20
-71.9007
 30
0.0
 11
662.2866
 21
-78.2007
 31
0.0
  0
LINE
  5
257
100
AcDbEntity
  8
1
  6
CONTINUOUS
 62
     7
100
AcDbLine
 10
586.477
 20
-37.4007
 30
0.0
 11
616.477
 21
-37.4007
 31
0.0
  0
LINE
  5
258
100
AcDbEntity
  8
1
  6
CONTINUOUS
 62
     7
100
AcDbLine
 10
620.077
 20
-37.4007
 30
0.0
 11
650.077
 21
-37.4007
 31
0.0
  0
LINE
  5
259
100
AcDbEntity
  8
1
  6
CONTINUOUS
 62
     7
100
AcDbLine
 10
569.5712
 20
-44.6007
 30
0.0
 11
569.5712
 21
-67.7007
 31
0.0
  0
LINE
  5
25A
100
AcDbEntity
  8
1
  6
CONTINUOUS
 62
     7
100
AcDbLine
 10
569.5712
 20
-71.9007
 30
0.0
 11
569.5712
 21
-95.0007
 31
0.0
  0
LINE
  5
25B
100
AcDbEntity
  8
1
  6
CONTINUOUS
 62
     7
100
AcDbLine
 10
446.6171
 20
-104.9593
 30
0.0
 11
468.8171
 21
-104.9593
 31
0.0
  0
LINE
  5
25C
100
AcDbEntity
  8
1
  6
CONTINUOUS
 62
     7
100
AcDbLine
 10
472.4171
 20
-104.9593
 30
0.0
 11
494.6171
 21
-104.9593
 31
0.0
  0
LINE
  5
25D
100
AcDbEntity
  8
1
  6
CONTINUOUS
 62
     7
100
AcDbLine
 10
594.2171
 20
-104.9593
 30
0.0
 11
616.4171
 21
-104.9593
 31
0.0
  0
LINE
  5
25E
100
AcDbEntity
  8
1
  6
CONTINUOUS
 62
     7
100
AcDbLine
 10
620.0171
 20
-104.9593
 30
0.0
 11
642.2171
 21
-104.9593
 31
0.0
  0
TEXT
  5
25F
100
AcDbEntity
  8
1
  6
CONTINUOUS
 62
     7
100
AcDbText
 10
469.5313
 20
26.0701
 30
0.0
 40
3.0
  1
A
  7
MONOTXT
 72
     4
 11
470.6887
 21
27.5701
 31
0.0
210
0.0
220
0.0
230
1.0
100
AcDbText
  0
TEXT
  5
260
100
AcDbEntity
  8
1
  6
CONTINUOUS
 62
     7
100
AcDbText
 10
504.1669
 20
-6.3299
 30
0.0
 40
3.0
  1
B
  7
MONOTXT
 72
     4
 11
505.1708
 21
-4.8299
 31
0.0
210
0.0
220
0.0
230
1.0
100
AcDbText
  0
TEXT
  5
261
100
AcDbEntity
  8
1
  6
CONTINUOUS
 62
     7
100
AcDbText
 10
469.4717
 20
-38.9007
 30
0.0
 40
3.0
  1
A
  7
MONOTXT
 72
     4
 11
470.6291
 21
-37.4007
 31
0.0
210
0.0
220
0.0
230
1.0
100
AcDbText
  0
TEXT
  5
262
100
AcDbEntity
  8
1
  6
CONTINUOUS
 62
     7
100
AcDbText
 10
504.1073
 20
-71.3007
 30
0.0
 40
3.0
  1
D
  7
MONOTXT
 72
     4
 11
505.1112
 21
-69.8007
 31
0.0
210
0.0
220
0.0
230
1.0
100
AcDbText
  0
LINE
  5
263
100
AcDbEntity
  8
1
  6
CONTINUOUS
 62
     7
100
AcDbLine
 10
505.0994
 20
-121.1593
 30
0.0
 11
505.0994
 21
-124.4593
 31
0.0
  0
LINE
  5
264
100
AcDbEntity
  8
1
  6
CONTINUOUS
 62
     7
100
AcDbLine
 10
505.0994
 20
-128.6593
 30
0.0
 11
505.0994
 21
-131.9593
 31
0.0
  0
LINE
  5
265
100
AcDbEntity
  8
1
  6
CONTINUOUS
 62
     7
100
AcDbLine
 10
505.0994
 20
-142.7593
 30
0.0
 11
505.0994
 21
-146.0593
 31
0.0
  0
LINE
  5
266
100
AcDbEntity
  8
1
  6
CONTINUOUS
 62
     7
100
AcDbLine
 10
505.0994
 20
-150.2593
 30
0.0
 11
505.0994
 21
-153.5593
 31
0.0
  0
TEXT
  5
267
100
AcDbEntity
  8
1
  6
CONTINUOUS
 62
     7
100
AcDbText
 10
469.4714
 20
-106.4593
 30
0.0
 40
3.0
  1
A
  7
MONOTXT
 72
     4
 11
470.6288
 21
-104.9593
 31
0.0
210
0.0
220
0.0
230
1.0
100
AcDbText
  0
TEXT
  5
268
100
AcDbEntity
  8
1
  6
CONTINUOUS
 62
     7
100
AcDbText
 10
504.0364
 20
-128.0593
 30
0.0
 40
3.0
  1
C
  7
MONOTXT
 72
     4
 11
505.1112
 21
-126.5593
 31
0.0
210
0.0
220
0.0
230
1.0
100
AcDbText
  0
TEXT
  5
269
100
AcDbEntity
  8
1
  6
CONTINUOUS
 62
     7
100
AcDbText
 10
504.0364
 20
-149.6593
 30
0.0
 40
3.0
  1
C
  7
MONOTXT
 72
     4
 11
505.1112
 21
-148.1593
 31
0.0
210
0.0
220
0.0
230
1.0
100
AcDbText
  0
TEXT
  5
26A
100
AcDbEntity
  8
1
  6
CONTINUOUS
 62
     7
100
AcDbText
 10
515.2603
 20
-138.8675
 30
0.0
 40
3.0
  1
E
  7
MONOTXT
 72
     4
 11
516.1933
 21
-137.3675
 31
0.0
210
0.0
220
0.0
230
1.0
100
AcDbText
  0
TEXT
  5
26B
100
AcDbEntity
  8
1
  6
CONTINUOUS
 62
     7
100
AcDbText
 10
510.4363
 20
-135.6809
 30
0.0
 40
3.0
  1
E
  7
MONOTXT
 72
     4
 11
511.3693
 21
-134.1809
 31
0.0
210
0.0
220
0.0
230
1.0
100
AcDbText
  0
TEXT
  5
26C
100
AcDbEntity
  8
1
  6
CONTINUOUS
 62
     7
100
AcDbText
 10
510.5273
 20
-142.1453
 30
0.0
 40
3.0
  1
E
  7
MONOTXT
 72
     4
 11
511.4603
 21
-140.6453
 31
0.0
210
0.0
220
0.0
230
1.0
100
AcDbText
  0
TEXT
  5
26D
100
AcDbEntity
  8
1
  6
CONTINUOUS
 62
     7
100
AcDbText
 10
489.0874
 20
-142.2363
 30
0.0
 40
3.0
  1
G
  7
MONOTXT
 72
     4
 11
490.1622
 21
-140.7363
 31
0.0
210
0.0
220
0.0
230
1.0
100
AcDbText
  0
LINE
  5
26E
100
AcDbEntity
  8
1
  6
CONTINUOUS
 62
     7
100
AcDbLine
 10
454.4171
 20
-140.9593
 30
0.0
 11
476.9731
 21
-140.9593
 31
0.0
  0
LINE
  5
26F
100
AcDbEntity
  8
1
  6
CONTINUOUS
 62
     7
100
AcDbLine
 10
480.5731
 20
-140.9593
 30
0.0
 11
486.8171
 21
-140.9593
 31
0.0
  0
TEXT
  5
270
100
AcDbEntity
  8
1
  6
CONTINUOUS
 62
     7
100
AcDbText
 10
477.8518
 20
-142.4593
 30
0.0
 40
3.0
  1
F
  7
MONOTXT
 72
     4
 11
478.7848
 21
-140.9593
 31
0.0
210
0.0
220
0.0
230
1.0
100
AcDbText
  0
TEXT
  5
271
100
AcDbEntity
  8
1
  6
CONTINUOUS
 62
     7
100
AcDbText
 10
449.6766
 20
-142.6916
 30
0.0
 40
3.0
  1
G
  7
MONOTXT
 72
     4
 11
450.7514
 21
-141.1916
 31
0.0
210
0.0
220
0.0
230
1.0
100
AcDbText
  0
LINE
  5
272
100
AcDbEntity
  8
1
  6
CONTINUOUS
 62
     7
100
AcDbLine
 10
602.0171
 20
-140.9593
 30
0.0
 11
623.2651
 21
-140.9593
 31
0.0
  0
LINE
  5
273
100
AcDbEntity
  8
1
  6
CONTINUOUS
 62
     7
100
AcDbLine
 10
626.8651
 20
-140.9593
 30
0.0
 11
634.4171
 21
-140.9593
 31
0.0
  0
TEXT
  5
274
100
AcDbEntity
  8
1
  6
CONTINUOUS
 62
     7
100
AcDbText
 10
617.0714
 20
-106.4593
 30
0.0
 40
3.0
  1
A
  7
MONOTXT
 72
     4
 11
618.2288
 21
-104.9593
 31
0.0
210
0.0
220
0.0
230
1.0
100
AcDbText
  0
TEXT
  5
275
100
AcDbEntity
  8
1
  6
CONTINUOUS
 62
     7
100
AcDbText
 10
624.1438
 20
-142.4593
 30
0.0
 40
3.0
  1
F
  7
MONOTXT
 72
     4
 11
625.0768
 21
-140.9593
 31
0.0
210
0.0
220
0.0
230
1.0
100
AcDbText
  0
TEXT
  5
276
100
AcDbEntity
  8
1
  6
CONTINUOUS
 62
     7
100
AcDbText
 10
597.004
 20
-142.7222
 30
0.0
 40
3.0
  1
G
  7
MONOTXT
 72
     4
 11
598.0788
 21
-141.2222
 31
0.0
210
0.0
220
0.0
230
1.0
100
AcDbText
  0
TEXT
  5
277
100
AcDbEntity
  8
1
  6
CONTINUOUS
 62
     7
100
AcDbText
 10
636.7907
 20
-142.5035
 30
0.0
 40
3.0
  1
G
  7
MONOTXT
 72
     4
 11
637.8655
 21
-141.0035
 31
0.0
210
0.0
220
0.0
230
1.0
100
AcDbText
  0
LINE
  5
278
100
AcDbEntity
  8
1
  6
CONTINUOUS
 62
     7
100
AcDbLine
 10
652.6994
 20
-121.1593
 30
0.0
 11
652.6994
 21
-124.4593
 31
0.0
  0
LINE
  5
279
100
AcDbEntity
  8
1
  6
CONTINUOUS
 62
     7
100
AcDbLine
 10
652.6994
 20
-128.6593
 30
0.0
 11
652.6994
 21
-131.9593
 31
0.0
  0
LINE
  5
27A
100
AcDbEntity
  8
1
  6
CONTINUOUS
 62
     7
100
AcDbLine
 10
652.6994
 20
-142.7593
 30
0.0
 11
652.6994
 21
-146.0593
 31
0.0
  0
LINE
  5
27B
100
AcDbEntity
  8
1
  6
CONTINUOUS
 62
     7
100
AcDbLine
 10
652.6994
 20
-150.2593
 30
0.0
 11
652.6994
 21
-153.5593
 31
0.0
  0
TEXT
  5
27C
100
AcDbEntity
  8
1
  6
CONTINUOUS
 62
     7
100
AcDbText
 10
651.7073
 20
-128.0593
 30
0.0
 40
3.0
  1
H
  7
MONOTXT
 72
     4
 11
652.7112
 21
-126.5593
 31
0.0
210
0.0
220
0.0
230
1.0
100
AcDbText
  0
TEXT
  5
27D
100
AcDbEntity
  8
1
  6
CONTINUOUS
 62
     7
100
AcDbText
 10
651.7073
 20
-149.6593
 30
0.0
 40
3.0
  1
H
  7
MONOTXT
 72
     4
 11
652.7112
 21
-148.1593
 31
0.0
210
0.0
220
0.0
230
1.0
100
AcDbText
  0
TEXT
  5
27E
100
AcDbEntity
  8
1
  6
CONTINUOUS
 62
     7
100
AcDbText
 10
662.7239
 20
-138.9363
 30
0.0
 40
3.0
  1
E
  7
MONOTXT
 72
     4
 11
663.6569
 21
-137.4363
 31
0.0
210
0.0
220
0.0
230
1.0
100
AcDbText
  0
TEXT
  5
27F
100
AcDbEntity
  8
1
  6
CONTINUOUS
 62
     7
100
AcDbText
 10
657.8975
 20
-135.6569
 30
0.0
 40
3.0
  1
E
  7
MONOTXT
 72
     4
 11
658.8305
 21
-134.1569
 31
0.0
210
0.0
220
0.0
230
1.0
100
AcDbText
  0
TEXT
  5
280
100
AcDbEntity
  8
1
  6
CONTINUOUS
 62
     7
100
AcDbText
 10
657.8975
 20
-142.3068
 30
0.0
 40
3.0
  1
E
  7
MONOTXT
 72
     4
 11
658.8305
 21
-140.8068
 31
0.0
210
0.0
220
0.0
230
1.0
100
AcDbText
  0
TEXT
  5
281
100
AcDbEntity
  8
1
  6
CONTINUOUS
 62
     7
100
AcDbText
 10
617.1313
 20
26.0701
 30
0.0
 40
3.0
  1
A
  7
MONOTXT
 72
     4
 11
618.2887
 21
27.5701
 31
0.0
210
0.0
220
0.0
230
1.0
100
AcDbText
  0
TEXT
  5
282
100
AcDbEntity
  8
1
  6
CONTINUOUS
 62
     7
100
AcDbText
 10
651.7669
 20
-6.3299
 30
0.0
 40
3.0
  1
B
  7
MONOTXT
 72
     4
 11
652.7708
 21
-4.8299
 31
0.0
210
0.0
220
0.0
230
1.0
100
AcDbText
  0
TEXT
  5
283
100
AcDbEntity
  8
1
  6
CONTINUOUS
 62
     7
100
AcDbText
 10
618.277
 20
-38.9007
 30
0.0
 40
3.0
  1
I
  7
MONOTXT
 72
     4
 11
618.277
 21
-37.4007
 31
0.0
210
0.0
220
0.0
230
1.0
100
AcDbText
  0
TEXT
  5
284
100
AcDbEntity
  8
1
  6
CONTINUOUS
 62
     7
100
AcDbText
 10
568.4255
 20
-71.3007
 30
0.0
 40
3.0
  1
A
  7
MONOTXT
 72
     4
 11
569.5829
 21
-69.8007
 31
0.0
210
0.0
220
0.0
230
1.0
100
AcDbText
  0
TEXT
  5
285
100
AcDbEntity
  8
1
  6
CONTINUOUS
 62
     7
100
AcDbText
 10
661.2945
 20
-71.3007
 30
0.0
 40
3.0
  1
D
  7
MONOTXT
 72
     4
 11
662.2984
 21
-69.8007
 31
0.0
210
0.0
220
0.0
230
1.0
100
AcDbText
  0
LINE
  5
286
100
AcDbEntity
  8
1
  6
CONTINUOUS
 62
     1
100
AcDbLine
 10
12.565
 20
-192.4884
 30
0.0
 11
336.565
 21
-192.4884
 31
0.0
  0
LINE
  5
287
100
AcDbEntity
  8
1
  6
CONTINUOUS
 62
     1
100
AcDbLine
 10
336.565
 20
-192.4884
 30
0.0
 11
336.565
 21
-264.4884
 31
0.0
  0
LINE
  5
288
100
AcDbEntity
  8
1
  6
CONTINUOUS
 62
     1
100
AcDbLine
 10
336.565
 20
-264.4884
 30
0.0
 11
12.565
 21
-264.4884
 31
0.0
  0
LINE
  5
289
100
AcDbEntity
  8
1
  6
CONTINUOUS
 62
     1
100
AcDbLine
 10
12.565
 20
-264.4884
 30
0.0
 11
12.565
 21
-192.4884
 31
0.0
  0
LINE
  5
28A
100
AcDbEntity
  8
1
  6
CONTINUOUS
 62
     1
100
AcDbLine
 10
48.565
 20
-264.4884
 30
0.0
 11
48.565
 21
-192.4884
 31
0.0
  0
LINE
  5
28B
100
AcDbEntity
  8
1
  6
CONTINUOUS
 62
     1
100
AcDbLine
 10
66.565
 20
-264.4884
 30
0.0
 11
66.565
 21
-201.4884
 31
0.0
  0
LINE
  5
28C
100
AcDbEntity
  8
1
  6
CONTINUOUS
 62
     1
100
AcDbLine
 10
84.565
 20
-264.4884
 30
0.0
 11
84.565
 21
-201.4884
 31
0.0
  0
LINE
  5
28D
100
AcDbEntity
  8
1
  6
CONTINUOUS
 62
     1
100
AcDbLine
 10
102.565
 20
-264.4884
 30
0.0
 11
102.565
 21
-201.4884
 31
0.0
  0
LINE
  5
28E
100
AcDbEntity
  8
1
  6
CONTINUOUS
 62
     1
100
AcDbLine
 10
120.565
 20
-264.4884
 30
0.0
 11
120.565
 21
-201.4884
 31
0.0
  0
LINE
  5
28F
100
AcDbEntity
  8
1
  6
CONTINUOUS
 62
     1
100
AcDbLine
 10
138.565
 20
-264.4884
 30
0.0
 11
138.565
 21
-201.4884
 31
0.0
  0
LINE
  5
290
100
AcDbEntity
  8
1
  6
CONTINUOUS
 62
     1
100
AcDbLine
 10
156.565
 20
-264.4884
 30
0.0
 11
156.565
 21
-201.4884
 31
0.0
  0
LINE
  5
291
100
AcDbEntity
  8
1
  6
CONTINUOUS
 62
     1
100
AcDbLine
 10
174.565
 20
-264.4884
 30
0.0
 11
174.565
 21
-201.4884
 31
0.0
  0
LINE
  5
292
100
AcDbEntity
  8
1
  6
CONTINUOUS
 62
     1
100
AcDbLine
 10
192.565
 20
-264.4884
 30
0.0
 11
192.565
 21
-201.4884
 31
0.0
  0
LINE
  5
293
100
AcDbEntity
  8
1
  6
CONTINUOUS
 62
     1
100
AcDbLine
 10
210.565
 20
-264.4884
 30
0.0
 11
210.565
 21
-201.4884
 31
0.0
  0
LINE
  5
294
100
AcDbEntity
  8
1
  6
CONTINUOUS
 62
     1
100
AcDbLine
 10
228.565
 20
-264.4884
 30
0.0
 11
228.565
 21
-201.4884
 31
0.0
  0
LINE
  5
295
100
AcDbEntity
  8
1
  6
CONTINUOUS
 62
     1
100
AcDbLine
 10
246.565
 20
-264.4884
 30
0.0
 11
246.565
 21
-201.4884
 31
0.0
  0
LINE
  5
296
100
AcDbEntity
  8
1
  6
CONTINUOUS
 62
     1
100
AcDbLine
 10
264.565
 20
-264.4884
 30
0.0
 11
264.565
 21
-201.4884
 31
0.0
  0
LINE
  5
297
100
AcDbEntity
  8
1
  6
CONTINUOUS
 62
     1
100
AcDbLine
 10
282.565
 20
-264.4884
 30
0.0
 11
282.565
 21
-201.4884
 31
0.0
  0
LINE
  5
298
100
AcDbEntity
  8
1
  6
CONTINUOUS
 62
     1
100
AcDbLine
 10
300.565
 20
-264.4884
 30
0.0
 11
300.565
 21
-201.4884
 31
0.0
  0
LINE
  5
299
100
AcDbEntity
  8
1
  6
CONTINUOUS
 62
     1
100
AcDbLine
 10
318.565
 20
-264.4884
 30
0.0
 11
318.565
 21
-201.4884
 31
0.0
  0
LINE
  5
29A
100
AcDbEntity
  8
1
  6
CONTINUOUS
 62
     1
100
AcDbLine
 10
48.565
 20
-201.4884
 30
0.0
 11
336.565
 21
-201.4884
 31
0.0
  0
LINE
  5
29B
100
AcDbEntity
  8
1
  6
CONTINUOUS
 62
     1
100
AcDbLine
 10
12.565
 20
-219.4884
 30
0.0
 11
336.565
 21
-219.4884
 31
0.0
  0
LINE
  5
29C
100
AcDbEntity
  8
1
  6
CONTINUOUS
 62
     1
100
AcDbLine
 10
12.565
 20
-228.4884
 30
0.0
 11
336.565
 21
-228.4884
 31
0.0
  0
LINE
  5
29D
100
AcDbEntity
  8
1
  6
CONTINUOUS
 62
     1
100
AcDbLine
 10
12.565
 20
-237.4884
 30
0.0
 11
336.565
 21
-237.4884
 31
0.0
  0
LINE
  5
29E
100
AcDbEntity
  8
1
  6
CONTINUOUS
 62
     1
100
AcDbLine
 10
12.565
 20
-246.4884
 30
0.0
 11
336.565
 21
-246.4884
 31
0.0
  0
LINE
  5
29F
100
AcDbEntity
  8
1
  6
CONTINUOUS
 62
     1
100
AcDbLine
 10
12.565
 20
-255.4884
 30
0.0
 11
336.565
 21
-255.4884
 31
0.0
  0
TEXT
  5
2A0
100
AcDbEntity
  8
1
  6
CONTINUOUS
 62
     7
100
AcDbText
 10
158.9386
 20
-199.0908
 30
0.0
 40
4.5
  1
DIMENSION (INCHES)
  7
MONOTXT
 72
     4
 11
192.5114
 21
-196.8408
 31
0.0
210
0.0
220
0.0
230
1.0
100
AcDbText
  0
TEXT
  5
2A1
100
AcDbEntity
  8
1
  6
CONTINUOUS
 62
     7
100
AcDbText
 10
18.4742
 20
-199.7378
 30
0.0
 40
4.5
  1
LEGEND
  7
MONOTXT
 72
     4
 11
30.8226
 21
-197.4878
 31
0.0
210
0.0
220
0.0
230
1.0
100
AcDbText
  0
TEXT
  5
2A2
100
AcDbEntity
  8
1
  6
CONTINUOUS
 62
     7
100
AcDbText
 10
24.2144
 20
-207.8378
 30
0.0
 40
4.5
  1
SIZE
  7
MONOTXT
 72
     4
 11
30.8226
 21
-205.5878
 31
0.0
210
0.0
220
0.0
230
1.0
100
AcDbText
  0
LINE
  5
2A3
100
AcDbEntity
  8
1
  6
CONTINUOUS
 62
     1
100
AcDbLine
 10
12.565
 20
-210.4884
 30
0.0
 11
48.565
 21
-210.4884
 31
0.0
  0
LINE
  5
2A4
100
AcDbEntity
  8
1
  6
CONTINUOUS
 62
     1
100
AcDbLine
 10
48.565
 20
-210.4884
 30
0.0
 11
66.565
 21
-210.4884
 31
0.0
  0
LINE
  5
2A5
100
AcDbEntity
  8
1
  6
CONTINUOUS
 62
     1
100
AcDbLine
 10
66.565
 20
-210.4884
 30
0.0
 11
84.565
 21
-210.4884
 31
0.0
  0
LINE
  5
2A6
100
AcDbEntity
  8
1
  6
CONTINUOUS
 62
     1
100
AcDbLine
 10
84.565
 20
-210.4884
 30
0.0
 11
102.565
 21
-210.4884
 31
0.0
  0
LINE
  5
2A7
100
AcDbEntity
  8
1
  6
CONTINUOUS
 62
     1
100
AcDbLine
 10
102.565
 20
-210.4884
 30
0.0
 11
120.565
 21
-210.4884
 31
0.0
  0
LINE
  5
2A8
100
AcDbEntity
  8
1
  6
CONTINUOUS
 62
     1
100
AcDbLine
 10
120.565
 20
-210.4884
 30
0.0
 11
138.565
 21
-210.4884
 31
0.0
  0
LINE
  5
2A9
100
AcDbEntity
  8
1
  6
CONTINUOUS
 62
     1
100
AcDbLine
 10
138.565
 20
-210.4884
 30
0.0
 11
156.565
 21
-210.4884
 31
0.0
  0
LINE
  5
2AA
100
AcDbEntity
  8
1
  6
CONTINUOUS
 62
     1
100
AcDbLine
 10
156.565
 20
-210.4884
 30
0.0
 11
174.565
 21
-210.4884
 31
0.0
  0
LINE
  5
2AB
100
AcDbEntity
  8
1
  6
CONTINUOUS
 62
     1
100
AcDbLine
 10
174.565
 20
-210.4884
 30
0.0
 11
197.065
 21
-210.4884
 31
0.0
  0
LINE
  5
2AC
100
AcDbEntity
  8
1
  6
CONTINUOUS
 62
     1
100
AcDbLine
 10
192.565
 20
-210.4884
 30
0.0
 11
210.565
 21
-210.4884
 31
0.0
  0
LINE
  5
2AD
100
AcDbEntity
  8
1
  6
CONTINUOUS
 62
     1
100
AcDbLine
 10
206.065
 20
-210.4884
 30
0.0
 11
233.065
 21
-210.4884
 31
0.0
  0
LINE
  5
2AE
100
AcDbEntity
  8
1
  6
CONTINUOUS
 62
     1
100
AcDbLine
 10
228.565
 20
-210.4884
 30
0.0
 11
246.565
 21
-210.4884
 31
0.0
  0
LINE
  5
2AF
100
AcDbEntity
  8
1
  6
CONTINUOUS
 62
     1
100
AcDbLine
 10
246.565
 20
-210.4884
 30
0.0
 11
264.565
 21
-210.4884
 31
0.0
  0
LINE
  5
2B0
100
AcDbEntity
  8
1
  6
CONTINUOUS
 62
     1
100
AcDbLine
 10
264.565
 20
-210.4884
 30
0.0
 11
282.565
 21
-210.4884
 31
0.0
  0
LINE
  5
2B1
100
AcDbEntity
  8
1
  6
CONTINUOUS
 62
     1
100
AcDbLine
 10
282.565
 20
-210.4884
 30
0.0
 11
300.565
 21
-210.4884
 31
0.0
  0
LINE
  5
2B2
100
AcDbEntity
  8
1
  6
CONTINUOUS
 62
     1
100
AcDbLine
 10
300.565
 20
-210.4884
 30
0.0
 11
318.565
 21
-210.4884
 31
0.0
  0
LINE
  5
2B3
100
AcDbEntity
  8
1
  6
CONTINUOUS
 62
     1
100
AcDbLine
 10
318.565
 20
-210.4884
 30
0.0
 11
336.565
 21
-210.4884
 31
0.0
  0
TEXT
  5
2B4
100
AcDbEntity
  8
1
  6
CONTINUOUS
 62
     7
100
AcDbText
 10
56.1902
 20
-207.7884
 30
0.0
 40
3.6
  1
A
  7
MONOTXT
 72
     4
 11
57.5792
 21
-205.9884
 31
0.0
210
0.0
220
0.0
230
1.0
100
AcDbText
  0
TEXT
  5
2B5
100
AcDbEntity
  8
1
  6
CONTINUOUS
 62
     7
100
AcDbText
 10
74.3744
 20
-207.7884
 30
0.0
 40
3.6
  1
B
  7
MONOTXT
 72
     4
 11
75.5791
 21
-205.9884
 31
0.0
210
0.0
220
0.0
230
1.0
100
AcDbText
  0
TEXT
  5
2B6
100
AcDbEntity
  8
1
  6
CONTINUOUS
 62
     7
100
AcDbText
 10
92.2894
 20
-207.7884
 30
0.0
 40
3.6
  1
C
  7
MONOTXT
 72
     4
 11
93.5791
 21
-205.9884
 31
0.0
210
0.0
220
0.0
230
1.0
100
AcDbText
  0
TEXT
  5
2B7
100
AcDbEntity
  8
1
  6
CONTINUOUS
 62
     7
100
AcDbText
 10
110.3744
 20
-207.7884
 30
0.0
 40
3.6
  1
D
  7
MONOTXT
 72
     4
 11
111.5791
 21
-205.9884
 31
0.0
210
0.0
220
0.0
230
1.0
100
AcDbText
  0
TEXT
  5
2B8
100
AcDbEntity
  8
1
  6
CONTINUOUS
 62
     7
100
AcDbText
 10
128.4595
 20
-207.7884
 30
0.0
 40
3.6
  1
E
  7
MONOTXT
 72
     4
 11
129.5791
 21
-205.9884
 31
0.0
210
0.0
220
0.0
230
1.0
100
AcDbText
  0
TEXT
  5
2B9
100
AcDbEntity
  8
1
  6
CONTINUOUS
 62
     7
100
AcDbText
 10
146.4595
 20
-207.7884
 30
0.0
 40
3.6
  1
F
  7
MONOTXT
 72
     4
 11
147.5791
 21
-205.9884
 31
0.0
210
0.0
220
0.0
230
1.0
100
AcDbText
  0
TEXT
  5
2BA
100
AcDbEntity
  8
1
  6
CONTINUOUS
 62
     7
100
AcDbText
 10
164.2894
 20
-207.7884
 30
0.0
 40
3.6
  1
G
  7
MONOTXT
 72
     4
 11
165.5791
 21
-205.9884
 31
0.0
210
0.0
220
0.0
230
1.0
100
AcDbText
  0
TEXT
  5
2BB
100
AcDbEntity
  8
1
  6
CONTINUOUS
 62
     7
100
AcDbText
 10
182.3744
 20
-207.7884
 30
0.0
 40
3.6
  1
H
  7
MONOTXT
 72
     4
 11
183.5791
 21
-205.9884
 31
0.0
210
0.0
220
0.0
230
1.0
100
AcDbText
  0
TEXT
  5
2BC
100
AcDbEntity
  8
1
  6
CONTINUOUS
 62
     7
100
AcDbText
 10
201.565
 20
-207.7884
 30
0.0
 40
3.6
  1
I
  7
MONOTXT
 72
     4
 11
201.565
 21
-205.9884
 31
0.0
210
0.0
220
0.0
230
1.0
100
AcDbText
  0
TEXT
  5
2BD
100
AcDbEntity
  8
1
  6
CONTINUOUS
 62
     7
100
AcDbText
 10
218.7146
 20
-207.7884
 30
0.0
 40
3.6
  1
J
  7
MONOTXT
 72
     4
 11
219.5791
 21
-205.9884
 31
0.0
210
0.0
220
0.0
230
1.0
100
AcDbText
  0
TEXT
  5
2BE
100
AcDbEntity
  8
1
  6
CONTINUOUS
 62
     7
100
AcDbText
 10
236.3744
 20
-207.7884
 30
0.0
 40
3.6
  1
K
  7
MONOTXT
 72
     4
 11
237.5791
 21
-205.9884
 31
0.0
210
0.0
220
0.0
230
1.0
100
AcDbText
  0
TEXT
  5
2BF
100
AcDbEntity
  8
1
  6
CONTINUOUS
 62
     7
100
AcDbText
 10
254.5446
 20
-207.7884
 30
0.0
 40
3.6
  1
L
  7
MONOTXT
 72
     4
 11
255.5792
 21
-205.9884
 31
0.0
210
0.0
220
0.0
230
1.0
100
AcDbText
  0
TEXT
  5
2C0
100
AcDbEntity
  8
1
  6
CONTINUOUS
 62
     7
100
AcDbText
 10
272.2044
 20
-207.7884
 30
0.0
 40
3.6
  1
M
  7
MONOTXT
 72
     4
 11
273.5792
 21
-205.9884
 31
0.0
210
0.0
220
0.0
230
1.0
100
AcDbText
  0
TEXT
  5
2C1
100
AcDbEntity
  8
1
  6
CONTINUOUS
 62
     7
100
AcDbText
 10
290.3744
 20
-207.7884
 30
0.0
 40
3.6
  1
N
  7
MONOTXT
 72
     4
 11
291.5791
 21
-205.9884
 31
0.0
210
0.0
220
0.0
230
1.0
100
AcDbText
  0
TEXT
  5
2C2
100
AcDbEntity
  8
1
  6
CONTINUOUS
 62
     7
100
AcDbText
 10
308.2044
 20
-207.7884
 30
0.0
 40
3.6
  1
O
  7
MONOTXT
 72
     4
 11
309.5792
 21
-205.9884
 31
0.0
210
0.0
220
0.0
230
1.0
100
AcDbText
  0
TEXT
  5
2C3
100
AcDbEntity
  8
1
  6
CONTINUOUS
 62
     7
100
AcDbText
 10
326.3744
 20
-207.7884
 30
0.0
 40
3.6
  1
P
  7
MONOTXT
 72
     4
 11
327.5791
 21
-205.9884
 31
0.0
210
0.0
220
0.0
230
1.0
100
AcDbText
  0
TEXT
  5
2C4
100
AcDbEntity
  8
1
  6
CONTINUOUS
 62
     7
100
AcDbText
 10
76.624
 20
-279.0874
 30
0.0
 40
3.0
  1
U.S. & W.VA. SHIELDS:  SILVER ENCAPSULATED LENS WITH BLACK NUMERALS.
  7
MONOTXT
 11
76.624
 21
-276.0874
 31
0.0
210
0.0
220
0.0
230
1.0
100
AcDbText
 73
     3
  0
TEXT
  5
2C5
100
AcDbEntity
  8
1
  6
CONTINUOUS
 62
     7
100
AcDbText
 10
76.624
 20
-284.4874
 30
0.0
 40
3.0
  1
 
  7
MONOTXT
 11
76.624
 21
-281.4874
 31
0.0
210
0.0
220
0.0
230
1.0
100
AcDbText
 73
     3
  0
TEXT
  5
2C6
100
AcDbEntity
  8
1
  6
CONTINUOUS
 62
     7
100
AcDbText
 10
76.624
 20
-289.8874
 30
0.0
 40
3.0
  1
INTERSTATE SHIELDS:  UPPER SECTION, RED ENCAPSULATED LENS BACKGROUND.
  7
MONOTXT
 11
76.624
 21
-286.8874
 31
0.0
210
0.0
220
0.0
230
1.0
100
AcDbText
 73
     3
  0
TEXT
  5
2C7
100
AcDbEntity
  8
1
  6
CONTINUOUS
 62
     7
100
AcDbText
 10
76.624
 20
-295.2874
 30
0.0
 40
3.0
  1
                  LOWER SECTION, BLUE ENCAPSULATED LENS BACKGROUND.
  7
MONOTXT
 11
76.624
 21
-292.2874
 31
0.0
210
0.0
220
0.0
230
1.0
100
AcDbText
 73
     3
  0
TEXT
  5
2C8
100
AcDbEntity
  8
1
  6
CONTINUOUS
 62
     7
100
AcDbText
 10
76.624
 20
-300.6874
 30
0.0
 40
3.0
  1
                  NUMERALS, SILVER ENCAPSULATED LENS.
  7
MONOTXT
 11
76.624
 21
-297.6874
 31
0.0
210
0.0
220
0.0
230
1.0
100
AcDbText
 73
     3
  0
POINT
  5
2C9
100
AcDbEntity
  8
1
  6
CONTINUOUS
 62
     2
100
AcDbPoint
 10
501.9342
 20
-257.9722
 30
0.0
  0
POINT
  5
2CA
100
AcDbEntity
  8
1
  6
CONTINUOUS
 62
     2
100
AcDbPoint
 10
523.7149
 20
-257.9722
 30
0.0
  0
POINT
  5
2CB
100
AcDbEntity
  8
1
  6
CONTINUOUS
 62
     2
100
AcDbPoint
 10
541.4098
 20
-240.2774
 30
0.0
  0
LINE
  5
2CC
100
AcDbEntity
  8
1
  6
CONTINUOUS
 62
     1
100
AcDbLine
 10
397.2685
 20
-192.8535
 30
0.0
 11
721.2685
 21
-192.8535
 31
0.0
  0
LINE
  5
2CD
100
AcDbEntity
  8
1
  6
CONTINUOUS
 62
     1
100
AcDbLine
 10
721.2685
 20
-192.8535
 30
0.0
 11
721.2685
 21
-264.8535
 31
0.0
  0
LINE
  5
2CE
100
AcDbEntity
  8
1
  6
CONTINUOUS
 62
     1
100
AcDbLine
 10
721.2685
 20
-264.8535
 30
0.0
 11
397.2685
 21
-264.8535
 31
0.0
  0
LINE
  5
2CF
100
AcDbEntity
  8
1
  6
CONTINUOUS
 62
     1
100
AcDbLine
 10
397.2685
 20
-264.8535
 30
0.0
 11
397.2685
 21
-192.8535
 31
0.0
  0
LINE
  5
2D0
100
AcDbEntity
  8
1
  6
CONTINUOUS
 62
     1
100
AcDbLine
 10
433.2685
 20
-264.8535
 30
0.0
 11
433.2685
 21
-192.8535
 31
0.0
  0
LINE
  5
2D1
100
AcDbEntity
  8
1
  6
CONTINUOUS
 62
     1
100
AcDbLine
 10
451.2685
 20
-264.8535
 30
0.0
 11
451.2685
 21
-201.8535
 31
0.0
  0
LINE
  5
2D2
100
AcDbEntity
  8
1
  6
CONTINUOUS
 62
     1
100
AcDbLine
 10
469.2685
 20
-264.8535
 30
0.0
 11
469.2685
 21
-201.8535
 31
0.0
  0
LINE
  5
2D3
100
AcDbEntity
  8
1
  6
CONTINUOUS
 62
     1
100
AcDbLine
 10
487.2685
 20
-264.8535
 30
0.0
 11
487.2685
 21
-201.8535
 31
0.0
  0
LINE
  5
2D4
100
AcDbEntity
  8
1
  6
CONTINUOUS
 62
     1
100
AcDbLine
 10
505.2685
 20
-264.8535
 30
0.0
 11
505.2685
 21
-201.8535
 31
0.0
  0
LINE
  5
2D5
100
AcDbEntity
  8
1
  6
CONTINUOUS
 62
     1
100
AcDbLine
 10
523.2685
 20
-264.8535
 30
0.0
 11
523.2685
 21
-201.8535
 31
0.0
  0
LINE
  5
2D6
100
AcDbEntity
  8
1
  6
CONTINUOUS
 62
     1
100
AcDbLine
 10
541.2685
 20
-264.8535
 30
0.0
 11
541.2685
 21
-201.8535
 31
0.0
  0
LINE
  5
2D7
100
AcDbEntity
  8
1
  6
CONTINUOUS
 62
     1
100
AcDbLine
 10
559.2685
 20
-264.8535
 30
0.0
 11
559.2685
 21
-201.8535
 31
0.0
  0
LINE
  5
2D8
100
AcDbEntity
  8
1
  6
CONTINUOUS
 62
     1
100
AcDbLine
 10
577.2685
 20
-264.8535
 30
0.0
 11
577.2685
 21
-201.8535
 31
0.0
  0
LINE
  5
2D9
100
AcDbEntity
  8
1
  6
CONTINUOUS
 62
     1
100
AcDbLine
 10
595.2685
 20
-264.8535
 30
0.0
 11
595.2685
 21
-201.8535
 31
0.0
  0
LINE
  5
2DA
100
AcDbEntity
  8
1
  6
CONTINUOUS
 62
     1
100
AcDbLine
 10
613.2685
 20
-264.8535
 30
0.0
 11
613.2685
 21
-201.8535
 31
0.0
  0
LINE
  5
2DB
100
AcDbEntity
  8
1
  6
CONTINUOUS
 62
     1
100
AcDbLine
 10
631.2685
 20
-264.8535
 30
0.0
 11
631.2685
 21
-201.8535
 31
0.0
  0
LINE
  5
2DC
100
AcDbEntity
  8
1
  6
CONTINUOUS
 62
     1
100
AcDbLine
 10
649.2685
 20
-264.8535
 30
0.0
 11
649.2685
 21
-201.8535
 31
0.0
  0
LINE
  5
2DD
100
AcDbEntity
  8
1
  6
CONTINUOUS
 62
     1
100
AcDbLine
 10
667.2685
 20
-264.8535
 30
0.0
 11
667.2685
 21
-201.8535
 31
0.0
  0
LINE
  5
2DE
100
AcDbEntity
  8
1
  6
CONTINUOUS
 62
     1
100
AcDbLine
 10
685.2685
 20
-264.8535
 30
0.0
 11
685.2685
 21
-201.8535
 31
0.0
  0
LINE
  5
2DF
100
AcDbEntity
  8
1
  6
CONTINUOUS
 62
     1
100
AcDbLine
 10
703.2685
 20
-264.8535
 30
0.0
 11
703.2685
 21
-201.8535
 31
0.0
  0
LINE
  5
2E0
100
AcDbEntity
  8
1
  6
CONTINUOUS
 62
     1
100
AcDbLine
 10
433.2685
 20
-201.8535
 30
0.0
 11
721.2685
 21
-201.8535
 31
0.0
  0
LINE
  5
2E1
100
AcDbEntity
  8
1
  6
CONTINUOUS
 62
     1
100
AcDbLine
 10
397.2685
 20
-219.8535
 30
0.0
 11
721.2685
 21
-219.8535
 31
0.0
  0
LINE
  5
2E2
100
AcDbEntity
  8
1
  6
CONTINUOUS
 62
     1
100
AcDbLine
 10
397.2685
 20
-228.8535
 30
0.0
 11
721.2685
 21
-228.8535
 31
0.0
  0
LINE
  5
2E3
100
AcDbEntity
  8
1
  6
CONTINUOUS
 62
     1
100
AcDbLine
 10
397.2685
 20
-237.8535
 30
0.0
 11
721.2685
 21
-237.8535
 31
0.0
  0
LINE
  5
2E4
100
AcDbEntity
  8
1
  6
CONTINUOUS
 62
     1
100
AcDbLine
 10
397.2685
 20
-246.8535
 30
0.0
 11
721.2685
 21
-246.8535
 31
0.0
  0
LINE
  5
2E5
100
AcDbEntity
  8
1
  6
CONTINUOUS
 62
     1
100
AcDbLine
 10
397.2685
 20
-255.8535
 30
0.0
 11
721.2685
 21
-255.8535
 31
0.0
  0
TEXT
  5
2E6
100
AcDbEntity
  8
1
  6
CONTINUOUS
 62
     7
100
AcDbText
 10
543.6421
 20
-199.4559
 30
0.0
 40
4.5
  1
DIMENSION (INCHES)
  7
MONOTXT
 72
     4
 11
577.2149
 21
-197.2059
 31
0.0
210
0.0
220
0.0
230
1.0
100
AcDbText
  0
TEXT
  5
2E7
100
AcDbEntity
  8
1
  6
CONTINUOUS
 62
     7
100
AcDbText
 10
404.666
 20
-200.103
 30
0.0
 40
4.5
  1
SHIELD
  7
MONOTXT
 72
     4
 11
415.5262
 21
-197.853
 31
0.0
210
0.0
220
0.0
230
1.0
100
AcDbText
  0
TEXT
  5
2E8
100
AcDbEntity
  8
1
  6
CONTINUOUS
 62
     7
100
AcDbText
 10
408.918
 20
-208.203
 30
0.0
 40
4.5
  1
SIZE
  7
MONOTXT
 72
     4
 11
415.5262
 21
-205.953
 31
0.0
210
0.0
220
0.0
230
1.0
100
AcDbText
  0
LINE
  5
2E9
100
AcDbEntity
  8
1
  6
CONTINUOUS
 62
     1
100
AcDbLine
 10
397.2685
 20
-210.8535
 30
0.0
 11
433.2685
 21
-210.8535
 31
0.0
  0
LINE
  5
2EA
100
AcDbEntity
  8
1
  6
CONTINUOUS
 62
     1
100
AcDbLine
 10
433.2685
 20
-210.8535
 30
0.0
 11
451.2685
 21
-210.8535
 31
0.0
  0
LINE
  5
2EB
100
AcDbEntity
  8
1
  6
CONTINUOUS
 62
     1
100
AcDbLine
 10
451.2685
 20
-210.8535
 30
0.0
 11
469.2685
 21
-210.8535
 31
0.0
  0
LINE
  5
2EC
100
AcDbEntity
  8
1
  6
CONTINUOUS
 62
     1
100
AcDbLine
 10
469.2685
 20
-210.8535
 30
0.0
 11
487.2685
 21
-210.8535
 31
0.0
  0
LINE
  5
2ED
100
AcDbEntity
  8
1
  6
CONTINUOUS
 62
     1
100
AcDbLine
 10
487.2685
 20
-210.8535
 30
0.0
 11
505.2685
 21
-210.8535
 31
0.0
  0
LINE
  5
2EE
100
AcDbEntity
  8
1
  6
CONTINUOUS
 62
     1
100
AcDbLine
 10
505.2685
 20
-210.8535
 30
0.0
 11
523.2685
 21
-210.8535
 31
0.0
  0
LINE
  5
2EF
100
AcDbEntity
  8
1
  6
CONTINUOUS
 62
     1
100
AcDbLine
 10
523.2685
 20
-210.8535
 30
0.0
 11
541.2685
 21
-210.8535
 31
0.0
  0
LINE
  5
2F0
100
AcDbEntity
  8
1
  6
CONTINUOUS
 62
     1
100
AcDbLine
 10
541.2685
 20
-210.8535
 30
0.0
 11
559.2685
 21
-210.8535
 31
0.0
  0
LINE
  5
2F1
100
AcDbEntity
  8
1
  6
CONTINUOUS
 62
     1
100
AcDbLine
 10
559.2685
 20
-210.8535
 30
0.0
 11
581.7685
 21
-210.8535
 31
0.0
  0
LINE
  5
2F2
100
AcDbEntity
  8
1
  6
CONTINUOUS
 62
     1
100
AcDbLine
 10
577.2685
 20
-210.8535
 30
0.0
 11
595.2685
 21
-210.8535
 31
0.0
  0
LINE
  5
2F3
100
AcDbEntity
  8
1
  6
CONTINUOUS
 62
     1
100
AcDbLine
 10
590.7685
 20
-210.8535
 30
0.0
 11
617.7685
 21
-210.8535
 31
0.0
  0
LINE
  5
2F4
100
AcDbEntity
  8
1
  6
CONTINUOUS
 62
     1
100
AcDbLine
 10
613.2685
 20
-210.8535
 30
0.0
 11
631.2685
 21
-210.8535
 31
0.0
  0
LINE
  5
2F5
100
AcDbEntity
  8
1
  6
CONTINUOUS
 62
     1
100
AcDbLine
 10
631.2685
 20
-210.8535
 30
0.0
 11
649.2685
 21
-210.8535
 31
0.0
  0
LINE
  5
2F6
100
AcDbEntity
  8
1
  6
CONTINUOUS
 62
     1
100
AcDbLine
 10
649.2685
 20
-210.8535
 30
0.0
 11
667.2685
 21
-210.8535
 31
0.0
  0
LINE
  5
2F7
100
AcDbEntity
  8
1
  6
CONTINUOUS
 62
     1
100
AcDbLine
 10
667.2685
 20
-210.8535
 30
0.0
 11
685.2685
 21
-210.8535
 31
0.0
  0
LINE
  5
2F8
100
AcDbEntity
  8
1
  6
CONTINUOUS
 62
     1
100
AcDbLine
 10
685.2685
 20
-210.8535
 30
0.0
 11
703.2685
 21
-210.8535
 31
0.0
  0
LINE
  5
2F9
100
AcDbEntity
  8
1
  6
CONTINUOUS
 62
     1
100
AcDbLine
 10
703.2685
 20
-210.8535
 30
0.0
 11
721.2685
 21
-210.8535
 31
0.0
  0
TEXT
  5
2FA
100
AcDbEntity
  8
1
  6
CONTINUOUS
 62
     7
100
AcDbText
 10
440.8938
 20
-208.1535
 30
0.0
 40
3.6
  1
A
  7
MONOTXT
 72
     4
 11
442.2828
 21
-206.3535
 31
0.0
210
0.0
220
0.0
230
1.0
100
AcDbText
  0
TEXT
  5
2FB
100
AcDbEntity
  8
1
  6
CONTINUOUS
 62
     7
100
AcDbText
 10
459.078
 20
-208.1535
 30
0.0
 40
3.6
  1
B
  7
MONOTXT
 72
     4
 11
460.2827
 21
-206.3535
 31
0.0
210
0.0
220
0.0
230
1.0
100
AcDbText
  0
TEXT
  5
2FC
100
AcDbEntity
  8
1
  6
CONTINUOUS
 62
     7
100
AcDbText
 10
476.9929
 20
-208.1535
 30
0.0
 40
3.6
  1
C
  7
MONOTXT
 72
     4
 11
478.2826
 21
-206.3535
 31
0.0
210
0.0
220
0.0
230
1.0
100
AcDbText
  0
TEXT
  5
2FD
100
AcDbEntity
  8
1
  6
CONTINUOUS
 62
     7
100
AcDbText
 10
495.078
 20
-208.1535
 30
0.0
 40
3.6
  1
D
  7
MONOTXT
 72
     4
 11
496.2827
 21
-206.3535
 31
0.0
210
0.0
220
0.0
230
1.0
100
AcDbText
  0
TEXT
  5
2FE
100
AcDbEntity
  8
1
  6
CONTINUOUS
 62
     7
100
AcDbText
 10
513.163
 20
-208.1535
 30
0.0
 40
3.6
  1
E
  7
MONOTXT
 72
     4
 11
514.2826
 21
-206.3535
 31
0.0
210
0.0
220
0.0
230
1.0
100
AcDbText
  0
TEXT
  5
2FF
100
AcDbEntity
  8
1
  6
CONTINUOUS
 62
     7
100
AcDbText
 10
531.163
 20
-208.1535
 30
0.0
 40
3.6
  1
F
  7
MONOTXT
 72
     4
 11
532.2826
 21
-206.3535
 31
0.0
210
0.0
220
0.0
230
1.0
100
AcDbText
  0
TEXT
  5
300
100
AcDbEntity
  8
1
  6
CONTINUOUS
 62
     7
100
AcDbText
 10
548.9929
 20
-208.1535
 30
0.0
 40
3.6
  1
G
  7
MONOTXT
 72
     4
 11
550.2826
 21
-206.3535
 31
0.0
210
0.0
220
0.0
230
1.0
100
AcDbText
  0
TEXT
  5
301
100
AcDbEntity
  8
1
  6
CONTINUOUS
 62
     7
100
AcDbText
 10
567.078
 20
-208.1535
 30
0.0
 40
3.6
  1
H
  7
MONOTXT
 72
     4
 11
568.2827
 21
-206.3535
 31
0.0
210
0.0
220
0.0
230
1.0
100
AcDbText
  0
TEXT
  5
302
100
AcDbEntity
  8
1
  6
CONTINUOUS
 62
     7
100
AcDbText
 10
586.2685
 20
-208.1535
 30
0.0
 40
3.6
  1
I
  7
MONOTXT
 72
     4
 11
586.2685
 21
-206.3535
 31
0.0
210
0.0
220
0.0
230
1.0
100
AcDbText
  0
TEXT
  5
303
100
AcDbEntity
  8
1
  6
CONTINUOUS
 62
     7
100
AcDbText
 10
603.4182
 20
-208.1535
 30
0.0
 40
3.6
  1
J
  7
MONOTXT
 72
     4
 11
604.2827
 21
-206.3535
 31
0.0
210
0.0
220
0.0
230
1.0
100
AcDbText
  0
TEXT
  5
304
100
AcDbEntity
  8
1
  6
CONTINUOUS
 62
     7
100
AcDbText
 10
621.078
 20
-208.1535
 30
0.0
 40
3.6
  1
K
  7
MONOTXT
 72
     4
 11
622.2827
 21
-206.3535
 31
0.0
210
0.0
220
0.0
230
1.0
100
AcDbText
  0
TEXT
  5
305
100
AcDbEntity
  8
1
  6
CONTINUOUS
 62
     7
100
AcDbText
 10
639.248
 20
-208.1535
 30
0.0
 40
3.6
  1
L
  7
MONOTXT
 72
     4
 11
640.2826
 21
-206.3535
 31
0.0
210
0.0
220
0.0
230
1.0
100
AcDbText
  0
TEXT
  5
306
100
AcDbEntity
  8
1
  6
CONTINUOUS
 62
     7
100
AcDbText
 10
656.9078
 20
-208.1535
 30
0.0
 40
3.6
  1
M
  7
MONOTXT
 72
     4
 11
658.2826
 21
-206.3535
 31
0.0
210
0.0
220
0.0
230
1.0
100
AcDbText
  0
TEXT
  5
307
100
AcDbEntity
  8
1
  6
CONTINUOUS
 62
     7
100
AcDbText
 10
675.078
 20
-208.1535
 30
0.0
 40
3.6
  1
N
  7
MONOTXT
 72
     4
 11
676.2827
 21
-206.3535
 31
0.0
210
0.0
220
0.0
230
1.0
100
AcDbText
  0
TEXT
  5
308
100
AcDbEntity
  8
1
  6
CONTINUOUS
 62
     7
100
AcDbText
 10
692.9078
 20
-208.1535
 30
0.0
 40
3.6
  1
O
  7
MONOTXT
 72
     4
 11
694.2826
 21
-206.3535
 31
0.0
210
0.0
220
0.0
230
1.0
100
AcDbText
  0
TEXT
  5
309
100
AcDbEntity
  8
1
  6
CONTINUOUS
 62
     7
100
AcDbText
 10
711.078
 20
-208.1535
 30
0.0
 40
3.6
  1
P
  7
MONOTXT
 72
     4
 11
712.2827
 21
-206.3535
 31
0.0
210
0.0
220
0.0
230
1.0
100
AcDbText
  0
TEXT
  5
30A
100
AcDbEntity
  8
1
  6
CONTINUOUS
 62
     7
100
AcDbText
 10
463.6999
 20
-281.338
 30
0.0
 40
4.8
  1
**
  7
MONOTXT
 72
     4
 11
466.4401
 21
-278.938
 31
0.0
210
0.0
220
0.0
230
1.0
100
AcDbText
  0
TEXT
  5
30B
100
AcDbEntity
  8
1
  6
CONTINUOUS
 62
     7
100
AcDbText
 10
383.2687
 20
-237.0644
 30
0.0
 40
7.2
  1
**
  7
MONOTXT
 72
     4
 11
387.3789
 21
-233.4644
 31
0.0
210
0.0
220
0.0
230
1.0
100
AcDbText
  0
TEXT
  5
30C
100
AcDbEntity
  8
1
  6
CONTINUOUS
 62
     7
100
AcDbText
 10
383.8183
 20
-228.0687
 30
0.0
 40
7.2
  1
**
  7
MONOTXT
 72
     4
 11
387.9285
 21
-224.4687
 31
0.0
210
0.0
220
0.0
230
1.0
100
AcDbText
  0
TEXT
  5
30D
100
AcDbEntity
  8
1
  6
CONTINUOUS
 62
     7
100
AcDbText
 10
383.2687
 20
-246.3651
 30
0.0
 40
7.2
  1
**
  7
MONOTXT
 72
     4
 11
387.3789
 21
-242.7651
 31
0.0
210
0.0
220
0.0
230
1.0
100
AcDbText
  0
TEXT
  5
30E
100
AcDbEntity
  8
1
  6
CONTINUOUS
 62
     7
100
AcDbText
 10
383.2686
 20
-255.3336
 30
0.0
 40
7.2
  1
**
  7
MONOTXT
 72
     4
 11
387.3788
 21
-251.7336
 31
0.0
210
0.0
220
0.0
230
1.0
100
AcDbText
  0
TEXT
  5
30F
100
AcDbEntity
  8
1
  6
CONTINUOUS
 62
     7
100
AcDbText
 10
472.9844
 20
-280.3498
 30
0.0
 40
3.0
  1
SILVER ENCAPSULATED LENS SHEETING WITH BLACK DIRECT APPLY COPY.
  7
MONOTXT
 11
472.9844
 21
-277.3498
 31
0.0
210
0.0
220
0.0
230
1.0
100
AcDbText
 73
     3
  0
LWPOLYLINE
  5
310
100
AcDbEntity
  8
1
  6
CONTINUOUS
 62
     7
100
AcDbPolyline
 90
        4
 70
     0
 10
538.0365
 20
-313.0122
 10
535.6365
 20
-317.1691
 10
540.4365
 20
-317.1691
 10
538.0365
 20
-313.0122
  0
TEXT
  5
311
100
AcDbEntity
  8
1
  6
CONTINUOUS
 62
     7
100
AcDbText
 10
537.4816
 20
-316.4009
 30
0.0
 40
1.8
  1
3
  7
MONOTXT
210
0.0
220
0.0
230
1.0
100
AcDbText
  0
TEXT
  5
312
100
AcDbEntity
  8
1
  6
CONTINUOUS
 62
     7
100
AcDbText
 10
542.1464
 20
-315.8793
 30
0.0
 40
1.8
  1
ADDED METRIC
  7
MONOTXT
210
0.0
220
0.0
230
1.0
100
AcDbText
  0
LWPOLYLINE
  5
313
100
AcDbEntity
  8
1
  6
CONTINUOUS
 62
     7
100
AcDbPolyline
 90
        4
 70
     0
 10
541.9433
 20
-402.9873
 10
539.5433
 20
-407.1442
 10
544.3433
 20
-407.1442
 10
541.9433
 20
-402.9873
  0
TEXT
  5
314
100
AcDbEntity
  8
1
  6
CONTINUOUS
 62
     7
100
AcDbText
 10
541.3884
 20
-406.376
 30
0.0
 40
1.8
  1
3
  7
MONOTXT
210
0.0
220
0.0
230
1.0
100
AcDbText
  0
TEXT
  5
315
100
AcDbEntity
  8
1
  6
CONTINUOUS
 62
     1
100
AcDbText
 10
548.6722
 20
-406.5734
 30
0.0
 40
2.4
  1
05-13-94
  7
MONOTXT
 72
     1
 11
556.8832
 21
-404.1734
 31
0.0
210
0.0
220
0.0
230
1.0
100
AcDbText
 73
     3
  0
TEXT
  5
316
100
AcDbEntity
  8
1
  6
CONTINUOUS
 62
     7
100
AcDbText
 10
22.7154
 20
-216.712
 30
0.0
 40
3.6
  1
300.0
  7
MONOTXT
 72
     4
 11
30.1705
 21
-214.912
 31
0.0
210
0.0
220
0.0
230
1.0
100
AcDbText
  0
TEXT
  5
317
100
AcDbEntity
  8
1
  6
CONTINUOUS
 62
     7
100
AcDbText
 10
22.6303
 20
-226.012
 30
0.0
 40
3.6
  1
450.0
  7
MONOTXT
 72
     4
 11
30.1705
 21
-224.212
 31
0.0
210
0.0
220
0.0
230
1.0
100
AcDbText
  0
TEXT
  5
318
100
AcDbEntity
  8
1
  6
CONTINUOUS
 62
     7
100
AcDbText
 10
22.8002
 20
-235.312
 30
0.0
 40
3.6
  1
600.0
  7
MONOTXT
 72
     4
 11
30.1702
 21
-233.512
 31
0.0
210
0.0
220
0.0
230
1.0
100
AcDbText
  0
TEXT
  5
319
100
AcDbEntity
  8
1
  6
CONTINUOUS
 62
     7
100
AcDbText
 10
69.9904
 20
-216.4456
 30
0.0
 40
3.6
  1
750.0
 41
0.729167
  7
MONOTXT
 72
     4
 11
75.447
 21
-214.6456
 31
0.0
210
0.0
220
0.0
230
1.0
100
AcDbText
  0
TEXT
  5
31A
100
AcDbEntity
  8
1
  6
CONTINUOUS
 62
     7
100
AcDbText
 10
69.0811
 20
-225.7456
 30
0.0
 40
3.6
  1
1 125.0
 41
0.729167
  7
MONOTXT
 72
     4
 11
75.4472
 21
-223.9456
 31
0.0
210
0.0
220
0.0
230
1.0
100
AcDbText
  0
TEXT
  5
31B
100
AcDbEntity
  8
1
  6
CONTINUOUS
 62
     7
100
AcDbText
 10
68.523
 20
-235.0456
 30
0.0
 40
3.6
  1
1 500.0
 41
0.729167
  7
MONOTXT
 72
     4
 11
75.4472
 21
-233.2456
 31
0.0
210
0.0
220
0.0
230
1.0
100
AcDbText
  0
TEXT
  5
31C
100
AcDbEntity
  8
1
  6
CONTINUOUS
 62
     7
100
AcDbText
 10
51.9625
 20
-216.4456
 30
0.0
 40
3.6
  1
600.0
 41
0.729167
  7
MONOTXT
 72
     4
 11
57.3365
 21
-214.6456
 31
0.0
210
0.0
220
0.0
230
1.0
100
AcDbText
  0
TEXT
  5
31D
100
AcDbEntity
  8
1
  6
CONTINUOUS
 62
     7
100
AcDbText
 10
51.9625
 20
-225.7456
 30
0.0
 40
3.6
  1
900.0
 41
0.729167
  7
MONOTXT
 72
     4
 11
57.3365
 21
-223.9456
 31
0.0
210
0.0
220
0.0
230
1.0
100
AcDbText
  0
TEXT
  5
31E
100
AcDbEntity
  8
1
  6
CONTINUOUS
 62
     7
100
AcDbText
 10
50.4122
 20
-235.0456
 30
0.0
 40
3.6
  1
1 200.0
 41
0.729167
  7
MONOTXT
 72
     4
 11
57.3364
 21
-233.2456
 31
0.0
210
0.0
220
0.0
230
1.0
100
AcDbText
  0
TEXT
  5
31F
100
AcDbEntity
  8
1
  6
CONTINUOUS
 62
     7
100
AcDbText
 10
85.7344
 20
-216.1792
 30
0.0
 40
3.6
  1
300.0-D
 41
0.729167
  7
MONOTXT
 72
     4
 11
93.5577
 21
-214.3792
 31
0.0
210
0.0
220
0.0
230
1.0
100
AcDbText
  0
TEXT
  5
320
100
AcDbEntity
  8
1
  6
CONTINUOUS
 62
     7
100
AcDbText
 10
85.6726
 20
-225.4792
 30
0.0
 40
3.6
  1
450.0-D
 41
0.729167
  7
MONOTXT
 72
     4
 11
93.5579
 21
-223.6792
 31
0.0
210
0.0
220
0.0
230
1.0
100
AcDbText
  0
TEXT
  5
321
100
AcDbEntity
  8
1
  6
CONTINUOUS
 62
     7
100
AcDbText
 10
85.7965
 20
-234.7792
 30
0.0
 40
3.6
  1
600.0-D
 41
0.729167
  7
MONOTXT
 72
     4
 11
93.5578
 21
-232.9792
 31
0.0
210
0.0
220
0.0
230
1.0
100
AcDbText
  0
TEXT
  5
322
100
AcDbEntity
  8
1
  6
CONTINUOUS
 62
     7
100
AcDbText
 10
106.3096
 20
-216.1792
 30
0.0
 40
3.6
  1
162.5
 41
0.729167
  7
MONOTXT
 72
     4
 11
111.1358
 21
-214.3792
 31
0.0
210
0.0
220
0.0
230
1.0
100
AcDbText
  0
TEXT
  5
323
100
AcDbEntity
  8
1
  6
CONTINUOUS
 62
     7
100
AcDbText
 10
104.3047
 20
-225.4792
 30
0.0
 40
3.6
  1
243.75
 41
0.729167
  7
MONOTXT
 72
     4
 11
111.1359
 21
-223.6792
 31
0.0
210
0.0
220
0.0
230
1.0
100
AcDbText
  0
TEXT
  5
324
100
AcDbEntity
  8
1
  6
CONTINUOUS
 62
     7
100
AcDbText
 10
105.6998
 20
-234.7792
 30
0.0
 40
3.6
  1
325.0
 41
0.729167
  7
MONOTXT
 72
     4
 11
111.1358
 21
-232.9792
 31
0.0
210
0.0
220
0.0
230
1.0
100
AcDbText
  0
TEXT
  5
325
100
AcDbEntity
  8
1
  6
CONTINUOUS
 62
     7
100
AcDbText
 10
124.0712
 20
-216.1792
 30
0.0
 40
3.6
  1
137.5
 41
0.729167
  7
MONOTXT
 72
     4
 11
128.9802
 21
-214.3792
 31
0.0
210
0.0
220
0.0
230
1.0
100
AcDbText
  0
TEXT
  5
326
100
AcDbEntity
  8
1
  6
CONTINUOUS
 62
     7
100
AcDbText
 10
122.2938
 20
-225.4792
 30
0.0
 40
3.6
  1
206.25
 41
0.729167
  7
MONOTXT
 72
     4
 11
128.9803
 21
-223.6792
 31
0.0
210
0.0
220
0.0
230
1.0
100
AcDbText
  0
TEXT
  5
327
100
AcDbEntity
  8
1
  6
CONTINUOUS
 62
     7
100
AcDbText
 10
123.5234
 20
-234.7792
 30
0.0
 40
3.6
  1
275.0
 41
0.729167
  7
MONOTXT
 72
     4
 11
128.98
 21
-232.9792
 31
0.0
210
0.0
220
0.0
230
1.0
100
AcDbText
  0
TEXT
  5
328
100
AcDbEntity
  8
1
  6
CONTINUOUS
 62
     7
100
AcDbText
 10
142.4792
 20
-215.9128
 30
0.0
 40
3.6
  1
150.0
 41
0.729167
  7
MONOTXT
 72
     4
 11
147.3571
 21
-214.1128
 31
0.0
210
0.0
220
0.0
230
1.0
100
AcDbText
  0
TEXT
  5
329
100
AcDbEntity
  8
1
  6
CONTINUOUS
 62
     7
100
AcDbText
 10
141.9212
 20
-225.2128
 30
0.0
 40
3.6
  1
225.0
 41
0.729167
  7
MONOTXT
 72
     4
 11
147.3572
 21
-223.4128
 31
0.0
210
0.0
220
0.0
230
1.0
100
AcDbText
  0
TEXT
  5
32A
100
AcDbEntity
  8
1
  6
CONTINUOUS
 62
     7
100
AcDbText
 10
141.9212
 20
-234.5128
 30
0.0
 40
3.6
  1
300.0
 41
0.729167
  7
MONOTXT
 72
     4
 11
147.3572
 21
-232.7128
 31
0.0
210
0.0
220
0.0
230
1.0
100
AcDbText
  0
TEXT
  5
32B
100
AcDbEntity
  8
1
  6
CONTINUOUS
 62
     7
100
AcDbText
 10
157.5828
 20
-216.9784
 30
0.0
 40
3.6
  1
300.0-C
 41
0.729167
  7
MONOTXT
 72
     4
 11
165.4681
 21
-215.1784
 31
0.0
210
0.0
220
0.0
230
1.0
100
AcDbText
  0
TEXT
  5
32C
100
AcDbEntity
  8
1
  6
CONTINUOUS
 62
     7
100
AcDbText
 10
157.5206
 20
-226.2784
 30
0.0
 40
3.6
  1
450.0-C
 41
0.729167
  7
MONOTXT
 72
     4
 11
165.4679
 21
-224.4784
 31
0.0
210
0.0
220
0.0
230
1.0
100
AcDbText
  0
TEXT
  5
32D
100
AcDbEntity
  8
1
  6
CONTINUOUS
 62
     7
100
AcDbText
 10
157.6446
 20
-235.5784
 30
0.0
 40
3.6
  1
600.0-C
 41
0.729167
  7
MONOTXT
 72
     4
 11
165.4679
 21
-233.7784
 31
0.0
210
0.0
220
0.0
230
1.0
100
AcDbText
  0
TEXT
  5
32E
100
AcDbEntity
  8
1
  6
CONTINUOUS
 62
     7
100
AcDbText
 10
408.516
 20
-226.0137
 30
0.0
 40
3.6
  1
150.0
  7
MONOTXT
 72
     4
 11
415.2058
 21
-224.2137
 31
0.0
210
0.0
220
0.0
230
1.0
100
AcDbText
  0
TEXT
  5
32F
100
AcDbEntity
  8
1
  6
CONTINUOUS
 62
     7
100
AcDbText
 10
407.7506
 20
-235.3137
 30
0.0
 40
3.6
  1
300.0
  7
MONOTXT
 72
     4
 11
415.2057
 21
-233.5137
 31
0.0
210
0.0
220
0.0
230
1.0
100
AcDbText
  0
TEXT
  5
330
100
AcDbEntity
  8
1
  6
CONTINUOUS
 62
     7
100
AcDbText
 10
407.8356
 20
-244.6137
 30
0.0
 40
3.6
  1
600.0
  7
MONOTXT
 72
     4
 11
415.2056
 21
-242.8137
 31
0.0
210
0.0
220
0.0
230
1.0
100
AcDbText
  0
TEXT
  5
331
100
AcDbEntity
  8
1
  6
CONTINUOUS
 62
     7
100
AcDbText
 10
407.8356
 20
-253.9137
 30
0.0
 40
3.6
  1
900.0
  7
MONOTXT
 72
     4
 11
415.2056
 21
-252.1137
 31
0.0
210
0.0
220
0.0
230
1.0
100
AcDbText
  0
TEXT
  5
332
100
AcDbEntity
  8
1
  6
CONTINUOUS
 62
     7
100
AcDbText
 10
435.1494
 20
-226.0137
 30
0.0
 40
3.6
  1
150.0
  7
MONOTXT
 72
     4
 11
441.8392
 21
-224.2137
 31
0.0
210
0.0
220
0.0
230
1.0
100
AcDbText
  0
TEXT
  5
333
100
AcDbEntity
  8
1
  6
CONTINUOUS
 62
     7
100
AcDbText
 10
434.384
 20
-235.3137
 30
0.0
 40
3.6
  1
300.0
  7
MONOTXT
 72
     4
 11
441.8391
 21
-233.5137
 31
0.0
210
0.0
220
0.0
230
1.0
100
AcDbText
  0
TEXT
  5
334
100
AcDbEntity
  8
1
  6
CONTINUOUS
 62
     7
100
AcDbText
 10
434.469
 20
-244.6137
 30
0.0
 40
3.6
  1
600.0
  7
MONOTXT
 72
     4
 11
441.839
 21
-242.8137
 31
0.0
210
0.0
220
0.0
230
1.0
100
AcDbText
  0
TEXT
  5
335
100
AcDbEntity
  8
1
  6
CONTINUOUS
 62
     7
100
AcDbText
 10
434.469
 20
-253.9137
 30
0.0
 40
3.6
  1
900.0
  7
MONOTXT
 72
     4
 11
441.839
 21
-252.1137
 31
0.0
210
0.0
220
0.0
230
1.0
100
AcDbText
  0
TEXT
  5
336
100
AcDbEntity
  8
1
  6
CONTINUOUS
 62
     7
100
AcDbText
 10
453.0794
 20
-226.0137
 30
0.0
 40
3.6
  1
75.0-C
 41
0.729167
  7
MONOTXT
 72
     4
 11
459.6832
 21
-224.2137
 31
0.0
210
0.0
220
0.0
230
1.0
100
AcDbText
  0
TEXT
  5
337
100
AcDbEntity
  8
1
  6
CONTINUOUS
 62
     7
100
AcDbText
 10
452.3562
 20
-235.3137
 30
0.0
 40
3.6
  1
150.0-C
 41
0.729167
  7
MONOTXT
 72
     4
 11
459.6834
 21
-233.5137
 31
0.0
210
0.0
220
0.0
230
1.0
100
AcDbText
  0
TEXT
  5
338
100
AcDbEntity
  8
1
  6
CONTINUOUS
 62
     7
100
AcDbText
 10
451.86
 20
-244.6137
 30
0.0
 40
3.6
  1
300.0-D
 41
0.729167
  7
MONOTXT
 72
     4
 11
459.6833
 21
-242.8137
 31
0.0
210
0.0
220
0.0
230
1.0
100
AcDbText
  0
TEXT
  5
339
100
AcDbEntity
  8
1
  6
CONTINUOUS
 62
     7
100
AcDbText
 10
451.7982
 20
-253.9137
 30
0.0
 40
3.6
  1
450.0-D
 41
0.729167
  7
MONOTXT
 72
     4
 11
459.6835
 21
-252.1137
 31
0.0
210
0.0
220
0.0
230
1.0
100
AcDbText
  0
TEXT
  5
33A
100
AcDbEntity
  8
1
  6
CONTINUOUS
 62
     7
100
AcDbText
 10
471.2108
 20
-225.7474
 30
0.0
 40
3.6
  1
50.0-C
 41
0.729167
  7
MONOTXT
 72
     4
 11
477.794
 21
-223.9474
 31
0.0
210
0.0
220
0.0
230
1.0
100
AcDbText
  0
TEXT
  5
33B
100
AcDbEntity
  8
1
  6
CONTINUOUS
 62
     7
100
AcDbText
 10
470.4668
 20
-235.0474
 30
0.0
 40
3.6
  1
100.0-C
 41
0.729167
  7
MONOTXT
 72
     4
 11
477.794
 21
-233.2474
 31
0.0
210
0.0
220
0.0
230
1.0
100
AcDbText
  0
TEXT
  5
33C
100
AcDbEntity
  8
1
  6
CONTINUOUS
 62
     7
100
AcDbText
 10
469.9088
 20
-244.3474
 30
0.0
 40
3.6
  1
200.0-C
 41
0.729167
  7
MONOTXT
 72
     4
 11
477.7941
 21
-242.5474
 31
0.0
210
0.0
220
0.0
230
1.0
100
AcDbText
  0
TEXT
  5
33D
100
AcDbEntity
  8
1
  6
CONTINUOUS
 62
     7
100
AcDbText
 10
469.9088
 20
-253.6474
 30
0.0
 40
3.6
  1
300.0-C
 41
0.729167
  7
MONOTXT
 72
     4
 11
477.7941
 21
-251.8474
 31
0.0
210
0.0
220
0.0
230
1.0
100
AcDbText
  0
TEXT
  5
33E
100
AcDbEntity
  8
1
  6
CONTINUOUS
 62
     7
100
AcDbText
 10
489.3216
 20
-225.7474
 30
0.0
 40
3.6
  1
50.0-C
 41
0.729167
  7
MONOTXT
 72
     4
 11
495.9048
 21
-223.9474
 31
0.0
210
0.0
220
0.0
230
1.0
100
AcDbText
  0
TEXT
  5
33F
100
AcDbEntity
  8
1
  6
CONTINUOUS
 62
     7
100
AcDbText
 10
488.5776
 20
-235.0474
 30
0.0
 40
3.6
  1
100.0-C
 41
0.729167
  7
MONOTXT
 72
     4
 11
495.9048
 21
-233.2474
 31
0.0
210
0.0
220
0.0
230
1.0
100
AcDbText
  0
TEXT
  5
340
100
AcDbEntity
  8
1
  6
CONTINUOUS
 62
     7
100
AcDbText
 10
488.0196
 20
-244.3474
 30
0.0
 40
3.6
  1
300.0-C
 41
0.729167
  7
MONOTXT
 72
     4
 11
495.9049
 21
-242.5474
 31
0.0
210
0.0
220
0.0
230
1.0
100
AcDbText
  0
TEXT
  5
341
100
AcDbEntity
  8
1
  6
CONTINUOUS
 62
     7
100
AcDbText
 10
487.9574
 20
-253.6474
 30
0.0
 40
3.6
  1
450.0-C
 41
0.729167
  7
MONOTXT
 72
     4
 11
495.9047
 21
-251.8474
 31
0.0
210
0.0
220
0.0
230
1.0
100
AcDbText
  0
TEXT
  5
342
100
AcDbEntity
  8
1
  6
CONTINUOUS
 62
     7
100
AcDbText
 10
509.4007
 20
-225.6142
 30
0.0
 40
3.6
  1
6.25
 41
0.729167
  7
MONOTXT
 72
     4
 11
513.4829
 21
-223.8142
 31
0.0
210
0.0
220
0.0
230
1.0
100
AcDbText
  0
TEXT
  5
343
100
AcDbEntity
  8
1
  6
CONTINUOUS
 62
     7
100
AcDbText
 10
509.8966
 20
-234.9142
 30
0.0
 40
3.6
  1
12.5
 41
0.729167
  7
MONOTXT
 72
     4
 11
513.4827
 21
-233.1142
 31
0.0
210
0.0
220
0.0
230
1.0
100
AcDbText
  0
TEXT
  5
344
100
AcDbEntity
  8
1
  6
CONTINUOUS
 62
     7
100
AcDbText
 10
509.349
 20
-244.2142
 30
0.0
 40
3.6
  1
25.0
 41
0.729167
  7
MONOTXT
 72
     4
 11
513.4828
 21
-242.4142
 31
0.0
210
0.0
220
0.0
230
1.0
100
AcDbText
  0
TEXT
  5
345
100
AcDbEntity
  8
1
  6
CONTINUOUS
 62
     7
100
AcDbText
 10
509.3179
 20
-253.5142
 30
0.0
 40
3.6
  1
37.5
 41
0.729167
  7
MONOTXT
 72
     4
 11
513.4827
 21
-251.7142
 31
0.0
210
0.0
220
0.0
230
1.0
100
AcDbText
  0
TEXT
  5
346
100
AcDbEntity
  8
1
  6
CONTINUOUS
 62
     7
100
AcDbText
 10
526.9238
 20
-225.8793
 30
0.0
 40
3.6
  1
125.0
 41
0.729167
  7
MONOTXT
 72
     4
 11
531.8017
 21
-224.0793
 31
0.0
210
0.0
220
0.0
230
1.0
100
AcDbText
  0
TEXT
  5
347
100
AcDbEntity
  8
1
  6
CONTINUOUS
 62
     7
100
AcDbText
 10
526.3658
 20
-235.1793
 30
0.0
 40
3.6
  1
250.0
 41
0.729167
  7
MONOTXT
 72
     4
 11
531.8018
 21
-233.3793
 31
0.0
210
0.0
220
0.0
230
1.0
100
AcDbText
  0
TEXT
  5
348
100
AcDbEntity
  8
1
  6
CONTINUOUS
 62
     7
100
AcDbText
 10
526.3658
 20
-244.4793
 30
0.0
 40
3.6
  1
500.0
 41
0.729167
  7
MONOTXT
 72
     4
 11
531.8018
 21
-242.6793
 31
0.0
210
0.0
220
0.0
230
1.0
100
AcDbText
  0
TEXT
  5
349
100
AcDbEntity
  8
1
  6
CONTINUOUS
 62
     7
100
AcDbText
 10
526.3452
 20
-253.7793
 30
0.0
 40
3.6
  1
750.0
 41
0.729167
  7
MONOTXT
 72
     4
 11
531.8018
 21
-251.9793
 31
0.0
210
0.0
220
0.0
230
1.0
100
AcDbText
  0
TEXT
  5
34A
100
AcDbEntity
  8
1
  6
CONTINUOUS
 62
     7
100
AcDbText
 10
548.2902
 20
-225.8793
 30
0.0
 40
3.6
  1
13
 41
0.729167
  7
MONOTXT
 72
     4
 11
549.9127
 21
-224.0793
 31
0.0
210
0.0
220
0.0
230
1.0
100
AcDbText
  0
TEXT
  5
34B
100
AcDbEntity
  8
1
  6
CONTINUOUS
 62
     7
100
AcDbText
 10
547.732
 20
-235.1793
 30
0.0
 40
3.6
  1
25
 41
0.729167
  7
MONOTXT
 72
     4
 11
549.9126
 21
-233.3793
 31
0.0
210
0.0
220
0.0
230
1.0
100
AcDbText
  0
TEXT
  5
34C
100
AcDbEntity
  8
1
  6
CONTINUOUS
 62
     7
100
AcDbText
 10
547.7424
 20
-244.4793
 30
0.0
 40
3.6
  1
50
 41
0.729167
  7
MONOTXT
 72
     4
 11
549.9126
 21
-242.6793
 31
0.0
210
0.0
220
0.0
230
1.0
100
AcDbText
  0
TEXT
  5
34D
100
AcDbEntity
  8
1
  6
CONTINUOUS
 62
     7
100
AcDbText
 10
547.7113
 20
-253.7793
 30
0.0
 40
3.6
  1
75
 41
0.729167
  7
MONOTXT
 72
     4
 11
549.9125
 21
-251.9793
 31
0.0
210
0.0
220
0.0
230
1.0
100
AcDbText
  0
TEXT
  5
34E
100
AcDbEntity
  8
1
  6
CONTINUOUS
 62
     7
100
AcDbText
 10
561.1531
 20
-225.4797
 30
0.0
 40
3.6
  1
37.5-C
 41
0.729167
  7
MONOTXT
 72
     4
 11
567.7569
 21
-223.6797
 31
0.0
210
0.0
220
0.0
230
1.0
100
AcDbText
  0
TEXT
  5
34F
100
AcDbEntity
  8
1
  6
CONTINUOUS
 62
     7
100
AcDbText
 10
561.1531
 20
-234.7797
 30
0.0
 40
3.6
  1
75.0-C
 41
0.729167
  7
MONOTXT
 72
     4
 11
567.7569
 21
-232.9797
 31
0.0
210
0.0
220
0.0
230
1.0
100
AcDbText
  0
TEXT
  5
350
100
AcDbEntity
  8
1
  6
CONTINUOUS
 62
     7
100
AcDbText
 10
560.4298
 20
-244.0797
 30
0.0
 40
3.6
  1
150.0-C
 41
0.729167
  7
MONOTXT
 72
     4
 11
567.757
 21
-242.2797
 31
0.0
210
0.0
220
0.0
230
1.0
100
AcDbText
  0
TEXT
  5
351
100
AcDbEntity
  8
1
  6
CONTINUOUS
 62
     7
100
AcDbText
 10
559.8718
 20
-253.3797
 30
0.0
 40
3.6
  1
225.0-C
 41
0.729167
  7
MONOTXT
 72
     4
 11
567.7571
 21
-251.5797
 31
0.0
210
0.0
220
0.0
230
1.0
100
AcDbText
  0
TEXT
  5
352
100
AcDbEntity
  8
1
  6
CONTINUOUS
 62
     7
100
AcDbText
 10
580.6772
 20
-244.2369
 30
0.0
 40
3.6
  1
750.0
 41
0.729167
  7
MONOTXT
 72
     4
 11
586.1338
 21
-242.4369
 31
0.0
210
0.0
220
0.0
230
1.0
100
AcDbText
  0
TEXT
  5
353
100
AcDbEntity
  8
1
  6
CONTINUOUS
 62
     7
100
AcDbText
 10
579.768
 20
-253.5369
 30
0.0
 40
3.6
  1
1 125.0
 41
0.729167
  7
MONOTXT
 72
     4
 11
586.1341
 21
-251.7369
 31
0.0
210
0.0
220
0.0
230
1.0
100
AcDbText
  0
ENDSEC
  0
SECTION
  2
OBJECTS
  0
DICTIONARY
  5
19
100
AcDbDictionary
  3
ACAD_GROUP
350
1A
  3
ACAD_MLINESTYLE
350
1B
  0
DICTIONARY
  5
1A
102
{ACAD_REACTORS
330
19
102
}
100
AcDbDictionary
  0
DICTIONARY
  5
1B
102
{ACAD_REACTORS
330
19
102
}
100
AcDbDictionary
  3
STANDARD
350
1C
  0
MLINESTYLE
  5
1C
102
{ACAD_REACTORS
330
1B
102
}
100
AcDbMlineStyle
  2
STANDARD
 70
     0
  3

 62
     0
 51
90.0
 52
90.0
 71
     2
 49
0.5
 62
   256
  6
BYLAYER
 49
-0.5
 62
   256
  6
BYLAYER
  0
ENDSEC
  0
EOF
