  0
SECTION
  2
HEADER
  9
$ACADVER
  1
AC1014
  9
$ACADMAINTVER
 70
     0
  9
$DWGCODEPAGE
  3
ANSI_1252
  9
$INSBASE
 10
0.0
 20
0.0
 30
0.0
  9
$EXTMIN
 10
90.2335
 20
-262.9041
 30
0.0
  9
$EXTMAX
 10
843.8525
 20
235.8367
 30
0.0
  9
$LIMMIN
 10
0.0
 20
0.0
  9
$LIMMAX
 10
12.0
 20
9.0
  9
$ORTHOMODE
 70
     0
  9
$REGENMODE
 70
     1
  9
$FILLMODE
 70
     1
  9
$QTEXTMODE
 70
     0
  9
$MIRRTEXT
 70
     1
  9
$DRAGMODE
 70
     2
  9
$LTSCALE
 40
1.0
  9
$OSMODE
 70
     0
  9
$ATTMODE
 70
     1
  9
$TEXTSIZE
 40
0.2
  9
$TRACEWID
 40
0.05
  9
$TEXTSTYLE
  7
STANDARD
  9
$CLAYER
  8
0
  9
$CELTYPE
  6
CONTINUOUS
  9
$CECOLOR
 62
   256
  9
$CELTSCALE
 40
1.0
  9
$DELOBJ
 70
     1
  9
$DISPSILH
 70
     0
  9
$DIMSCALE
 40
1.0
  9
$DIMASZ
 40
0.18
  9
$DIMEXO
 40
0.0625
  9
$DIMDLI
 40
0.38
  9
$DIMRND
 40
0.0
  9
$DIMDLE
 40
0.0
  9
$DIMEXE
 40
0.18
  9
$DIMTP
 40
0.0
  9
$DIMTM
 40
0.0
  9
$DIMTXT
 40
0.18
  9
$DIMCEN
 40
0.09
  9
$DIMTSZ
 40
0.0
  9
$DIMTOL
 70
     0
  9
$DIMLIM
 70
     0
  9
$DIMTIH
 70
     1
  9
$DIMTOH
 70
     1
  9
$DIMSE1
 70
     0
  9
$DIMSE2
 70
     0
  9
$DIMTAD
 70
     0
  9
$DIMZIN
 70
     0
  9
$DIMBLK
  1

  9
$DIMASO
 70
     1
  9
$DIMSHO
 70
     1
  9
$DIMPOST
  1

  9
$DIMAPOST
  1

  9
$DIMALT
 70
     0
  9
$DIMALTD
 70
     2
  9
$DIMALTF
 40
25.4
  9
$DIMLFAC
 40
1.0
  9
$DIMTOFL
 70
     0
  9
$DIMTVP
 40
0.0
  9
$DIMTIX
 70
     0
  9
$DIMSOXD
 70
     0
  9
$DIMSAH
 70
     0
  9
$DIMBLK1
  1

  9
$DIMBLK2
  1

  9
$DIMSTYLE
  2
STANDARD
  9
$DIMCLRD
 70
     0
  9
$DIMCLRE
 70
     0
  9
$DIMCLRT
 70
     0
  9
$DIMTFAC
 40
1.0
  9
$DIMGAP
 40
0.09
  9
$DIMJUST
 70
     0
  9
$DIMSD1
 70
     0
  9
$DIMSD2
 70
     0
  9
$DIMTOLJ
 70
     1
  9
$DIMTZIN
 70
     0
  9
$DIMALTZ
 70
     0
  9
$DIMALTTZ
 70
     0
  9
$DIMFIT
 70
     3
  9
$DIMUPT
 70
     0
  9
$DIMUNIT
 70
     2
  9
$DIMDEC
 70
     4
  9
$DIMTDEC
 70
     4
  9
$DIMALTU
 70
     2
  9
$DIMALTTD
 70
     2
  9
$DIMTXSTY
  7
STANDARD
  9
$DIMAUNIT
 70
     0
  9
$LUNITS
 70
     2
  9
$LUPREC
 70
     4
  9
$SKETCHINC
 40
0.1
  9
$FILLETRAD
 40
0.0
  9
$AUNITS
 70
     0
  9
$AUPREC
 70
     0
  9
$MENU
  1
acad
  9
$ELEVATION
 40
0.0
  9
$PELEVATION
 40
0.0
  9
$THICKNESS
 40
0.0
  9
$LIMCHECK
 70
     0
  9
$BLIPMODE
 70
     1
  9
$CHAMFERA
 40
0.0
  9
$CHAMFERB
 40
0.0
  9
$CHAMFERC
 40
0.0
  9
$CHAMFERD
 40
0.0
  9
$SKPOLY
 70
     0
  9
$TDCREATE
 40
2451803.454247685
  9
$TDUPDATE
 40
2451803.454247685
  9
$TDINDWG
 40
0.0000000000
  9
$TDUSRTIMER
 40
0.0000000000
  9
$USRTIMER
 70
     1
  9
$ANGBASE
 50
0.0
  9
$ANGDIR
 70
     0
  9
$PDMODE
 70
     0
  9
$PDSIZE
 40
0.0
  9
$PLINEWID
 40
0.0
  9
$COORDS
 70
     0
  9
$SPLFRAME
 70
     0
  9
$SPLINETYPE
 70
     6
  9
$SPLINESEGS
 70
    10
  9
$ATTDIA
 70
     0
  9
$ATTREQ
 70
     1
  9
$HANDLING
 70
     1
  9
$HANDSEED
  5
6DF
  9
$SURFTAB1
 70
     6
  9
$SURFTAB2
 70
     6
  9
$SURFTYPE
 70
     6
  9
$SURFU
 70
     6
  9
$SURFV
 70
     6
  9
$UCSNAME
  2

  9
$UCSORG
 10
0.0
 20
0.0
 30
0.0
  9
$UCSXDIR
 10
1.0
 20
0.0
 30
0.0
  9
$UCSYDIR
 10
0.0
 20
1.0
 30
0.0
  9
$PUCSNAME
  2

  9
$PUCSORG
 10
0.0
 20
0.0
 30
0.0
  9
$PUCSXDIR
 10
1.0
 20
0.0
 30
0.0
  9
$PUCSYDIR
 10
0.0
 20
1.0
 30
0.0
  9
$USERI1
 70
     0
  9
$USERI2
 70
     0
  9
$USERI3
 70
     0
  9
$USERI4
 70
     0
  9
$USERI5
 70
     0
  9
$USERR1
 40
0.0
  9
$USERR2
 40
0.0
  9
$USERR3
 40
0.0
  9
$USERR4
 40
0.0
  9
$USERR5
 40
0.0
  9
$WORLDVIEW
 70
     1
  9
$SHADEDGE
 70
     3
  9
$SHADEDIF
 70
    70
  9
$TILEMODE
 70
     1
  9
$MAXACTVP
 70
    16
  9
$PINSBASE
 10
0.0
 20
0.0
 30
0.0
  9
$PLIMCHECK
 70
     0
  9
$PEXTMIN
 10
-1.000000E+20
 20
-1.000000E+20
 30
-1.000000E+20
  9
$PEXTMAX
 10
-1.000000E+20
 20
-1.000000E+20
 30
-1.000000E+20
  9
$PLIMMIN
 10
0.0
 20
0.0
  9
$PLIMMAX
 10
12.0
 20
9.0
  9
$UNITMODE
 70
     0
  9
$VISRETAIN
 70
     0
  9
$PLINEGEN
 70
     1
  9
$PSLTSCALE
 70
     0
  9
$TREEDEPTH
 70
  3020
  9
$PICKSTYLE
 70
     1
  9
$CMLSTYLE
  2
STANDARD
  9
$CMLJUST
 70
     0
  9
$CMLSCALE
 40
1.0
  9
$PROXYGRAPHICS
 70
     0
  9
$MEASUREMENT
 70
     0
  0
ENDSEC
  0
SECTION
  2
CLASSES
  0
CLASS
  1
LWPOLYLINE
  2
AcDbPolyline
  3
"AutoCAD"
 90
        0
280
     0
281
     1
  0
CLASS
  1
IMAGE
  2
AcDbRasterImage
  3
ISM
 90
      127
280
     0
281
     1
  0
CLASS
  1
OLE2FRAME
  2
AcDbOle2Frame
  3
""
 90
        0
280
     0
281
     1
  0
CLASS
  1
HATCH
  2
AcDbHatch
  3
"ACAD_SEDONA"
 90
        0
280
     0
281
     1
  0
CLASS
  1
DICTIONARYVAR
  2
AcDbDictionaryVar
  3
"AutoCAD"
 90
        0
280
     0
281
     0
  0
CLASS
  1
RASTERVARIABLES
  2
AcDbRasterVariables
  3
ISM
 90
        0
280
     0
281
     0
  0
CLASS
  1
IMAGEDEF
  2
AcDbRasterImageDef
  3
ISM
 90
        0
280
     0
281
     0
  0
CLASS
  1
IMAGEDEF_REACTOR
  2
AcDbRasterImageDefReactor
  3
ISM
 90
        1
280
     0
281
     0
  0
CLASS
  1
IDBUFFER
  2
AcDbIdBuffer
  3
"Acad"
 90
        0
280
     0
281
     0
  0
CLASS
  1
SPATIAL_FILTER
  2
AcDbSpatialFilter
  3
"Acad"
 90
        0
280
     0
281
     0
  0
CLASS
  1
XRECORD
  2
AcDbXrecord
  3
"<Built In>"
 90
        0
280
     0
281
     0
  0
CLASS
  1
SORTENTSTABLE
  2
AcDbSortentsTable
  3
"AutoCAD"
 90
        0
280
     0
281
     0
  0
CLASS
  1
LAYER_INDEX
  2
AcDbLayerIndex
  3
"Acad"
 90
        0
280
     0
281
     0
  0
CLASS
  1
SPATIAL_INDEX
  2
AcDbSpatialIndex
  3
"Acad"
 90
        0
280
     0
281
     0
  0
CLASS
  1
OBJECT_PTR
  2
CAseDLPNTableRecord
  3
"ASE-LPNTableRecord"
 90
        1
280
     0
281
     0
  0
ENDSEC
  0
SECTION
  2
TABLES
  0
TABLE
  2
VPORT
  5
7
100
AcDbSymbolTable
 70
     1
  0
VPORT
  5
6DE
100
AcDbSymbolTableRecord
100
AcDbViewportTableRecord
  2
*ACTIVE
 70
     0
 10
0.0
 20
0.0
 11
1.0
 21
1.0
 12
0.0
 22
0.0
 13
0.0
 23
0.0
 14
0.0
 24
0.0
 15
0.0
 25
0.0
 16
0.0
 26
0.0
 36
1.0
 17
414.1505
 27
-11.6505
 37
0.0
 40
565.24
 41
1.545
 42
50.0
 43
0.0
 44
0.0
 50
0.0
 51
0.0
 71
     0
 72
   100
 73
     1
 74
     0
 75
     0
 76
     0
 77
     0
 78
     0
  0
ENDTAB
  0
TABLE
  2
LTYPE
  5
4
100
AcDbSymbolTable
 70
     9
  0
LTYPE
  5
11
100
AcDbSymbolTableRecord
100
AcDbLinetypeTableRecord
  2
BYBLOCK
 70
     0
  3

 72
    65
 73
     0
 40
0.0
  0
LTYPE
  5
12
100
AcDbSymbolTableRecord
100
AcDbLinetypeTableRecord
  2
BYLAYER
 70
     0
  3

 72
    65
 73
     0
 40
0.0
  0
LTYPE
  5
13
100
AcDbSymbolTableRecord
100
AcDbLinetypeTableRecord
  2
CONTINUOUS
 70
     0
  3
Solid line
 72
    65
 73
     0
 40
0.0
  0
LTYPE
  5
22
100
AcDbSymbolTableRecord
100
AcDbLinetypeTableRecord
  2
DOT
 70
    64
  3
. . . . . . . . . . . . . . . . . . . . . . . . . . . . . . . . .
 72
    65
 73
     2
 40
0.25
 49
0.0
 74
     0
 49
-0.25
 74
     0
  0
LTYPE
  5
23
100
AcDbSymbolTableRecord
100
AcDbLinetypeTableRecord
  2
HIDDEN
 70
    64
  3
__ __ __ __ __ __ __ __ __ __ __ __ __ __ __ __ __ __ __ __ __ 
 72
    65
 73
     2
 40
0.375
 49
0.25
 74
     0
 49
-0.125
 74
     0
  0
LTYPE
  5
24
100
AcDbSymbolTableRecord
100
AcDbLinetypeTableRecord
  2
DASHED
 70
    64
  3
__ __ __ __ __ __ __ __ __ __ __ __ __ __ __ __ __ __ __ __ __
 72
    65
 73
     2
 40
0.75
 49
0.5
 74
     0
 49
-0.25
 74
     0
  0
LTYPE
  5
25
100
AcDbSymbolTableRecord
100
AcDbLinetypeTableRecord
  2
DASHDOT
 70
    64
  3
__ . __ . __ . __ . __ . __ . __ . __ . __ . __ . __ . __ . _
 72
    65
 73
     4
 40
1.0
 49
0.5
 74
     0
 49
-0.25
 74
     0
 49
0.0
 74
     0
 49
-0.25
 74
     0
  0
LTYPE
  5
26
100
AcDbSymbolTableRecord
100
AcDbLinetypeTableRecord
  2
DIVIDE
 70
    64
  3
____ . . ____ . . ____ . . ____ . . ____ . . ____ . . ____ . .
 72
    65
 73
     6
 40
1.25
 49
0.5
 74
     0
 49
-0.25
 74
     0
 49
0.0
 74
     0
 49
-0.25
 74
     0
 49
0.0
 74
     0
 49
-0.25
 74
     0
  0
LTYPE
  5
27
100
AcDbSymbolTableRecord
100
AcDbLinetypeTableRecord
  2
CENTER
 70
    64
  3
____ _ ____ _ ____ _ ____ _ ____ _ ____ _ ____ _ ____ _ ____ _
 72
    65
 73
     4
 40
2.0
 49
1.25
 74
     0
 49
-0.25
 74
     0
 49
0.25
 74
     0
 49
-0.25
 74
     0
  0
ENDTAB
  0
TABLE
  2
LAYER
  5
2
100
AcDbSymbolTable
 70
     3
  0
LAYER
  5
14
102
{ACAD_XDICTIONARY
360
5F205F5F5F5F205F
102
}
100
AcDbSymbolTableRecord
100
AcDbLayerTableRecord
  2
0
 70
     0
 62
     7
  6
CONTINUOUS
  0
LAYER
  5
2A
102
{ACAD_XDICTIONARY
360
5F205F5F5F5F205F
102
}
100
AcDbSymbolTableRecord
100
AcDbLayerTableRecord
  2
1
 70
    64
 62
     7
  6
CONTINUOUS
  0
LAYER
  5
46D
102
{ACAD_XDICTIONARY
360
5F205F5F5F5F205F
102
}
100
AcDbSymbolTableRecord
100
AcDbLayerTableRecord
  2
61
 70
    64
 62
     7
  6
CONTINUOUS
  0
ENDTAB
  0
TABLE
  2
STYLE
  5
3
100
AcDbSymbolTable
 70
     3
  0
STYLE
  5
17
100
AcDbSymbolTableRecord
100
AcDbTextStyleTableRecord
  2
STANDARD
 70
     0
 40
0.0
 41
1.0
 50
0.0
 71
     0
 42
0.0
  3
txt
  4

  0
STYLE
  5
46E
100
AcDbSymbolTableRecord
100
AcDbTextStyleTableRecord
  2
MONOTXT
 70
     0
 40
0.2
 41
1.0
 50
0.0
 71
     0
 42
0.2
  3
MONOTXT
  4

  0
STYLE
  5
5BA
100
AcDbSymbolTableRecord
100
AcDbTextStyleTableRecord
  2
TXT
 70
     0
 40
0.2
 41
1.0
 50
0.0
 71
     0
 42
0.2
  3
TXT
  4

  0
ENDTAB
  0
TABLE
  2
VIEW
  5
5
100
AcDbSymbolTable
 70
     0
  0
ENDTAB
  0
TABLE
  2
UCS
  5
6
100
AcDbSymbolTable
 70
     0
  0
ENDTAB
  0
TABLE
  2
APPID
  5
8
100
AcDbSymbolTable
 70
     1
  0
APPID
  5
16
100
AcDbSymbolTableRecord
100
AcDbRegAppTableRecord
  2
ACAD
 70
     0
  0
ENDTAB
  0
TABLE
  2
DIMSTYLE
  5
9
100
AcDbSymbolTable
 70
     1
  0
DIMSTYLE
105
18
100
AcDbSymbolTableRecord
100
AcDbDimStyleTableRecord
  2
STANDARD
 70
     0
  3

  4

  5

  6

  7

 40
1.0
 41
0.18
 42
0.0625
 43
0.38
 44
0.18
 45
0.0
 46
0.0
 47
0.0
 48
0.0
140
0.18
141
0.09
142
0.0
143
25.4
144
1.0
145
0.0
146
1.0
147
0.09
 71
     0
 72
     0
 73
     1
 74
     1
 75
     0
 76
     0
 77
     0
 78
     0
170
     0
171
     2
172
     0
173
     0
174
     0
175
     0
176
     0
177
     0
178
     0
270
     2
271
     4
272
     4
273
     2
274
     2
340
17
275
     0
280
     0
281
     0
282
     0
283
     1
284
     0
285
     0
286
     0
287
     0
288
     0
  0
ENDTAB
  0
TABLE
  2
BLOCK_RECORD
  5
1
100
AcDbSymbolTable
 70
     1
  0
BLOCK_RECORD
  5
A
100
AcDbSymbolTableRecord
100
AcDbBlockTableRecord
  2
*MODEL_SPACE
  0
BLOCK_RECORD
  5
B
100
AcDbSymbolTableRecord
100
AcDbBlockTableRecord
  2
*PAPER_SPACE
  0
BLOCK_RECORD
  5
52
102
{ACAD_XDICTIONARY
360
6A9B022400000080
102
}
100
AcDbSymbolTableRecord
100
AcDbBlockTableRecord
  2
LDR
  0
ENDTAB
  0
ENDSEC
  0
SECTION
  2
BLOCKS
  0
BLOCK
  5
D
100
AcDbEntity
  8
0
100
AcDbBlockBegin
  2
*MODEL_SPACE
 70
     0
 10
0.0
 20
0.0
 30
0.0
  3
*MODEL_SPACE
  1

  0
ENDBLK
  5
E
100
AcDbEntity
  8
0
100
AcDbBlockEnd
  0
BLOCK
  5
F
100
AcDbEntity
 67
     1
  8
0
100
AcDbBlockBegin
  2
*PAPER_SPACE
 70
     0
 10
0.0
 20
0.0
 30
0.0
  3
*PAPER_SPACE
  1

  0
ENDBLK
  5
10
100
AcDbEntity
 67
     1
  8
0
100
AcDbBlockEnd
  0
BLOCK
  5
53
100
AcDbEntity
  8
1
  6
CONTINUOUS
 62
     1
100
AcDbBlockBegin
  2
LDR
 70
     0
 10
0.0
 20
0.0
 30
0.0
  3
LNR
  1

  0
ELLIPSE
  5
54
100
AcDbEntity
  8
1
  6
CONTINUOUS
 62
     1
100
AcDbEllipse
 10
-0.005456
 20
-0.001382
 30
0.0
 11
0.0089285004623472
 21
0.0007807500129699
 31
0.0
210
0.0
220
0.0
230
1.0
 40
0.122415
 41
0.8963533496766982
 42
3.1415926535897931
  0
ELLIPSE
  5
55
100
AcDbEntity
  8
1
  6
CONTINUOUS
 62
     1
100
AcDbEllipse
 10
-0.005603
 20
0.001058
 30
0.0
 11
0.0087822506056358
 21
-0.0008782502048316
 31
0.0
210
0.0
220
0.0
230
1.0
 40
0.07063
 41
3.1407147529760402
 42
5.4181099545465106
  0
ENDBLK
  5
56
100
AcDbEntity
  8
1
  6
CONTINUOUS
 62
     1
100
AcDbBlockEnd
  0
ENDSEC
  0
SECTION
  2
ENTITIES
  0
LINE
  5
2B
100
AcDbEntity
  8
1
  6
CONTINUOUS
 62
     1
100
AcDbLine
 10
93.5855
 20
230.3116
 30
0.0
 11
229.5455
 21
230.3116
 31
0.0
  0
LINE
  5
2C
100
AcDbEntity
  8
1
  6
CONTINUOUS
 62
     1
100
AcDbLine
 10
93.5855
 20
230.3116
 30
0.0
 11
93.5855
 21
180.7936
 31
0.0
  0
LINE
  5
2D
100
AcDbEntity
  8
1
  6
CONTINUOUS
 62
     1
100
AcDbLine
 10
93.5855
 20
221.6996
 30
0.0
 11
228.9975
 21
221.6996
 31
0.0
  0
LINE
  5
2E
100
AcDbEntity
  8
1
  6
CONTINUOUS
 62
     1
100
AcDbLine
 10
93.5855
 20
205.3736
 30
0.0
 11
228.9975
 21
205.3736
 31
0.0
  0
LINE
  5
2F
100
AcDbEntity
  8
1
  6
CONTINUOUS
 62
     1
100
AcDbLine
 10
93.5855
 20
189.2256
 30
0.0
 11
228.9975
 21
189.2256
 31
0.0
  0
LINE
  5
30
100
AcDbEntity
  8
1
  6
CONTINUOUS
 62
     1
100
AcDbLine
 10
93.5855
 20
180.6136
 30
0.0
 11
229.5455
 21
180.6136
 31
0.0
  0
LINE
  5
31
100
AcDbEntity
  8
1
  6
CONTINUOUS
 62
     1
100
AcDbLine
 10
121.5675
 20
230.3116
 30
0.0
 11
121.5675
 21
180.7936
 31
0.0
  0
LINE
  5
32
100
AcDbEntity
  8
1
  6
CONTINUOUS
 62
     1
100
AcDbLine
 10
229.5455
 20
230.3116
 30
0.0
 11
229.5455
 21
180.6136
 31
0.0
  0
LWPOLYLINE
  5
33
100
AcDbEntity
  8
1
  6
CONTINUOUS
 62
     1
100
AcDbPolyline
 90
        4
 70
     1
 10
118.8528
 20
126.4185
 10
131.8648
 20
126.4185
 10
131.8648
 20
119.6845
 10
118.8528
 20
119.6845
  0
LWPOLYLINE
  5
34
100
AcDbEntity
  8
1
  6
CONTINUOUS
 62
     1
100
AcDbPolyline
 90
        4
 70
     1
 10
119.0068
 20
118.3985
 10
132.2448
 20
118.3985
 10
132.2448
 20
105.0045
 10
119.0068
 20
105.0045
  0
LWPOLYLINE
  5
35
100
AcDbEntity
  8
1
  6
CONTINUOUS
 62
     1
100
AcDbPolyline
 90
        4
 70
     1
 10
120.3668
 20
103.5665
 10
130.8828
 20
103.5665
 10
130.8828
 20
97.9665
 10
120.3668
 20
97.9665
  0
LINE
  5
36
100
AcDbEntity
  8
1
  6
CONTINUOUS
 62
     1
100
AcDbLine
 10
124.0648
 20
119.6845
 30
0.0
 11
124.0648
 21
118.3985
 31
0.0
  0
LINE
  5
37
100
AcDbEntity
  8
1
  6
CONTINUOUS
 62
     1
100
AcDbLine
 10
126.5728
 20
119.6845
 30
0.0
 11
126.5728
 21
118.3985
 31
0.0
  0
LINE
  5
38
100
AcDbEntity
  8
1
  6
CONTINUOUS
 62
     1
100
AcDbLine
 10
124.3008
 20
105.0045
 30
0.0
 11
124.3008
 21
103.5665
 31
0.0
  0
LINE
  5
39
100
AcDbEntity
  8
1
  6
CONTINUOUS
 62
     1
100
AcDbLine
 10
126.7448
 20
105.0045
 30
0.0
 11
126.7448
 21
103.5665
 31
0.0
  0
LWPOLYLINE
  5
3A
100
AcDbEntity
  8
1
  6
CONTINUOUS
 62
     1
100
AcDbPolyline
 90
        4
 70
     1
 10
136.3548
 20
126.4185
 10
149.3668
 20
126.4185
 10
149.3668
 20
119.6845
 10
136.3548
 20
119.6845
  0
LWPOLYLINE
  5
3B
100
AcDbEntity
  8
1
  6
CONTINUOUS
 62
     1
100
AcDbPolyline
 90
        4
 70
     1
 10
136.5088
 20
118.3985
 10
149.7468
 20
118.3985
 10
149.7468
 20
105.0045
 10
136.5088
 20
105.0045
  0
LWPOLYLINE
  5
3C
100
AcDbEntity
  8
1
  6
CONTINUOUS
 62
     1
100
AcDbPolyline
 90
        4
 70
     1
 10
137.8688
 20
103.5665
 10
148.3848
 20
103.5665
 10
148.3848
 20
97.9665
 10
137.8688
 20
97.9665
  0
LINE
  5
3D
100
AcDbEntity
  8
1
  6
CONTINUOUS
 62
     1
100
AcDbLine
 10
141.5668
 20
119.6845
 30
0.0
 11
141.5668
 21
118.3985
 31
0.0
  0
LINE
  5
3E
100
AcDbEntity
  8
1
  6
CONTINUOUS
 62
     1
100
AcDbLine
 10
144.0748
 20
119.6845
 30
0.0
 11
144.0748
 21
118.3985
 31
0.0
  0
LINE
  5
3F
100
AcDbEntity
  8
1
  6
CONTINUOUS
 62
     1
100
AcDbLine
 10
141.8028
 20
105.0045
 30
0.0
 11
141.8028
 21
103.5665
 31
0.0
  0
LINE
  5
40
100
AcDbEntity
  8
1
  6
CONTINUOUS
 62
     1
100
AcDbLine
 10
144.2468
 20
105.0045
 30
0.0
 11
144.2468
 21
103.5665
 31
0.0
  0
LINE
  5
41
100
AcDbEntity
  8
1
  6
CONTINUOUS
 62
     1
100
AcDbLine
 10
126.7668
 20
93.3545
 30
0.0
 11
141.7368
 21
93.3545
 31
0.0
  0
LINE
  5
42
100
AcDbEntity
  8
1
  6
CONTINUOUS
 62
     1
100
AcDbLine
 10
124.1628
 20
90.6105
 30
0.0
 11
124.1628
 21
97.9665
 31
0.0
  0
LINE
  5
43
100
AcDbEntity
  8
1
  6
CONTINUOUS
 62
     1
100
AcDbLine
 10
126.7668
 20
93.3545
 30
0.0
 11
126.7668
 21
97.9665
 31
0.0
  0
LINE
  5
44
100
AcDbEntity
  8
1
  6
CONTINUOUS
 62
     1
100
AcDbLine
 10
141.7368
 20
93.3545
 30
0.0
 11
141.7368
 21
97.9665
 31
0.0
  0
LINE
  5
45
100
AcDbEntity
  8
1
  6
CONTINUOUS
 62
     1
100
AcDbLine
 10
144.0988
 20
90.6105
 30
0.0
 11
144.0988
 21
97.9665
 31
0.0
  0
LINE
  5
46
100
AcDbEntity
  8
1
  6
CONTINUOUS
 62
     1
100
AcDbLine
 10
136.2348
 20
69.7065
 30
0.0
 11
136.2348
 21
90.6105
 31
0.0
  0
LINE
  5
47
100
AcDbEntity
  8
1
  6
CONTINUOUS
 62
     1
100
AcDbLine
 10
124.1628
 20
90.6105
 30
0.0
 11
132.9608
 21
90.6105
 31
0.0
  0
LINE
  5
48
100
AcDbEntity
  8
1
  6
CONTINUOUS
 62
     1
100
AcDbLine
 10
136.2348
 20
90.6105
 30
0.0
 11
144.0728
 21
90.6105
 31
0.0
  0
LINE
  5
49
100
AcDbEntity
  8
1
  6
CONTINUOUS
 62
     1
100
AcDbLine
 10
132.9608
 20
69.7065
 30
0.0
 11
132.9608
 21
90.6105
 31
0.0
  0
ARC
  5
4A
100
AcDbEntity
  8
1
  6
CONTINUOUS
 62
     1
100
AcDbCircle
 10
134.5978
 20
89.2283
 30
0.0
 40
2.142486
210
0.0
220
0.0
230
1.0
100
AcDbArc
 50
40.176056
 51
139.823944
  0
ARC
  5
4B
100
AcDbEntity
  8
1
  6
CONTINUOUS
 62
     1
100
AcDbCircle
 10
135.4168
 20
70.2864
 30
0.0
 40
1.0027
210
0.0
220
0.0
230
1.0
100
AcDbArc
 50
215.333731
 51
324.666272
  0
ARC
  5
4C
100
AcDbEntity
  8
1
  6
CONTINUOUS
 62
     1
100
AcDbCircle
 10
133.7808
 20
70.145307
 30
0.0
 40
0.928265
210
0.0
220
0.0
230
1.0
100
AcDbArc
 50
208.210861
 51
331.789142
  0
ARC
  5
4D
100
AcDbEntity
  8
1
  6
CONTINUOUS
 62
     1
100
AcDbCircle
 10
133.7808
 20
69.150292
 30
0.0
 40
0.989187
210
0.0
220
0.0
230
1.0
100
AcDbArc
 50
34.214186
 51
145.785814
  0
LINE
  5
4E
100
AcDbEntity
  8
1
  6
CONTINUOUS
 62
     1
100
AcDbLine
 10
136.3548
 20
128.8185
 30
0.0
 11
136.3548
 21
136.3945
 31
0.0
  0
LINE
  5
4F
100
AcDbEntity
  8
1
  6
CONTINUOUS
 62
     1
100
AcDbLine
 10
131.8648
 20
128.8185
 30
0.0
 11
131.8648
 21
136.3945
 31
0.0
  0
LINE
  5
50
100
AcDbEntity
  8
1
  6
CONTINUOUS
 62
     1
100
AcDbLine
 10
131.9108
 20
133.2185
 30
0.0
 11
126.9108
 21
133.2185
 31
0.0
  0
LINE
  5
51
100
AcDbEntity
  8
1
  6
CONTINUOUS
 62
     1
100
AcDbLine
 10
136.3548
 20
133.2185
 30
0.0
 11
141.1348
 21
133.2185
 31
0.0
  0
INSERT
  5
57
100
AcDbEntity
  8
1
  6
CONTINUOUS
 62
     1
100
AcDbBlockReference
  2
LDR
 10
131.9108
 20
133.2185
 30
0.0
 41
200.0
 42
200.0
210
0.0
220
0.0
230
1.0
  0
INSERT
  5
58
100
AcDbEntity
  8
1
  6
CONTINUOUS
 62
     1
100
AcDbBlockReference
  2
LDR
 10
136.3548
 20
133.2185
 30
0.0
 41
200.0
 42
200.0
 50
180.0
210
0.0
220
0.0
230
1.0
  0
LINE
  5
59
100
AcDbEntity
  8
1
  6
CONTINUOUS
 62
     1
100
AcDbLine
 10
117.9668
 20
97.9665
 30
0.0
 11
111.8768
 21
97.9665
 31
0.0
  0
LINE
  5
5A
100
AcDbEntity
  8
1
  6
CONTINUOUS
 62
     1
100
AcDbLine
 10
126.5628
 20
92.0385
 30
0.0
 11
111.8768
 21
92.0385
 31
0.0
  0
LINE
  5
5B
100
AcDbEntity
  8
1
  6
CONTINUOUS
 62
     1
100
AcDbLine
 10
114.2768
 20
97.9985
 30
0.0
 11
114.2768
 21
103.4985
 31
0.0
  0
LINE
  5
5C
100
AcDbEntity
  8
1
  6
CONTINUOUS
 62
     1
100
AcDbLine
 10
114.2768
 20
86.5385
 30
0.0
 11
114.2768
 21
92.0385
 31
0.0
  0
INSERT
  5
5D
100
AcDbEntity
  8
1
  6
CONTINUOUS
 62
     1
100
AcDbBlockReference
  2
LDR
 10
114.2768
 20
97.9985
 30
0.0
 41
200.0
 42
200.0
 50
270.0
210
0.0
220
0.0
230
1.0
  0
INSERT
  5
5E
100
AcDbEntity
  8
1
  6
CONTINUOUS
 62
     1
100
AcDbBlockReference
  2
LDR
 10
114.2768
 20
97.9985
 30
0.0
 41
200.0
 42
200.0
 50
270.0
210
0.0
220
0.0
230
1.0
  0
INSERT
  5
5F
100
AcDbEntity
  8
1
  6
CONTINUOUS
 62
     1
100
AcDbBlockReference
  2
LDR
 10
114.2768
 20
92.0385
 30
0.0
 41
200.0
 42
200.0
 50
90.0
210
0.0
220
0.0
230
1.0
  0
LINE
  5
60
100
AcDbEntity
  8
1
  6
CONTINUOUS
 62
     1
100
AcDbLine
 10
144.0988
 20
94.5325
 30
0.0
 11
151.7948
 21
95.9685
 31
0.0
  0
LINE
  5
61
100
AcDbEntity
  8
1
  6
CONTINUOUS
 62
     1
100
AcDbLine
 10
151.7948
 20
95.9685
 30
0.0
 11
151.0088
 21
94.3965
 31
0.0
  0
LINE
  5
62
100
AcDbEntity
  8
1
  6
CONTINUOUS
 62
     1
100
AcDbLine
 10
151.0088
 20
94.3965
 30
0.0
 11
157.2948
 21
96.6885
 31
0.0
  0
LINE
  5
63
100
AcDbEntity
  8
1
  6
CONTINUOUS
 62
     1
100
AcDbLine
 10
147.7188
 20
95.2085
 30
0.0
 11
143.0868
 21
86.6685
 31
0.0
  0
LINE
  5
64
100
AcDbEntity
  8
1
  6
CONTINUOUS
 62
     1
100
AcDbLine
 10
143.0868
 20
86.6685
 30
0.0
 11
140.0808
 21
90.6105
 31
0.0
  0
INSERT
  5
65
100
AcDbEntity
  8
1
  6
CONTINUOUS
 62
     1
100
AcDbBlockReference
  2
LDR
 10
144.0988
 20
94.5325
 30
0.0
 41
199.99997
 42
199.99997
 50
190.569308
210
0.0
220
0.0
230
1.0
  0
INSERT
  5
66
100
AcDbEntity
  8
1
  6
CONTINUOUS
 62
     1
100
AcDbBlockReference
  2
LDR
 10
144.0988
 20
94.5325
 30
0.0
 41
199.99997
 42
199.99997
 50
190.569308
210
0.0
220
0.0
230
1.0
  0
INSERT
  5
67
100
AcDbEntity
  8
1
  6
CONTINUOUS
 62
     1
100
AcDbBlockReference
  2
LDR
 10
140.0808
 20
90.6105
 30
0.0
 41
200.00001
 42
200.00001
 50
127.327574
210
0.0
220
0.0
230
1.0
  0
LINE
  5
68
100
AcDbEntity
  8
1
  6
CONTINUOUS
 62
     1
100
AcDbLine
 10
146.4988
 20
90.8605
 30
0.0
 11
160.8968
 21
90.8605
 31
0.0
  0
LINE
  5
69
100
AcDbEntity
  8
1
  6
CONTINUOUS
 62
     1
100
AcDbLine
 10
104.7168
 20
32.3325
 30
0.0
 11
188.1526
 21
32.3325
 31
0.0
  0
LINE
  5
6A
100
AcDbEntity
  8
1
  6
CONTINUOUS
 62
     1
100
AcDbLine
 10
158.4968
 20
32.3325
 30
0.0
 11
158.4968
 21
90.8605
 31
0.0
  0
ARC
  5
6B
100
AcDbEntity
  8
1
  6
CONTINUOUS
 62
     1
100
AcDbCircle
 10
135.4168
 20
61.8906
 30
0.0
 40
1.0027
210
0.0
220
0.0
230
1.0
100
AcDbArc
 50
35.333728
 51
144.666269
  0
ARC
  5
6C
100
AcDbEntity
  8
1
  6
CONTINUOUS
 62
     1
100
AcDbCircle
 10
133.7808
 20
62.031693
 30
0.0
 40
0.928265
210
0.0
220
0.0
230
1.0
100
AcDbArc
 50
28.210858
 51
151.789139
  0
ARC
  5
6D
100
AcDbEntity
  8
1
  6
CONTINUOUS
 62
     1
100
AcDbCircle
 10
133.7808
 20
63.026708
 30
0.0
 40
0.989187
210
0.0
220
0.0
230
1.0
100
AcDbArc
 50
214.214186
 51
325.785814
  0
LWPOLYLINE
  5
6E
100
AcDbEntity
  8
1
  6
CONTINUOUS
 62
     1
100
AcDbPolyline
 90
        4
 70
     1
 10
131.3768
 20
38.3585
 10
137.4308
 20
38.3585
 10
137.4308
 20
36.1205
 10
131.3768
 20
36.1205
  0
LINE
  5
6F
100
AcDbEntity
  8
1
  6
CONTINUOUS
 62
     1
100
AcDbLine
 10
131.3768
 20
37.2405
 30
0.0
 11
137.4308
 21
37.2405
 31
0.0
  0
LINE
  5
70
100
AcDbEntity
  8
1
  6
CONTINUOUS
 62
     1
100
AcDbLine
 10
136.2348
 20
62.4705
 30
0.0
 11
136.2348
 21
38.3585
 31
0.0
  0
LINE
  5
71
100
AcDbEntity
  8
1
  6
CONTINUOUS
 62
     1
100
AcDbLine
 10
132.9628
 20
62.4705
 30
0.0
 11
132.9628
 21
38.3585
 31
0.0
  0
INSERT
  5
72
100
AcDbEntity
  8
1
  6
CONTINUOUS
 62
     1
100
AcDbBlockReference
  2
LDR
 10
158.4968
 20
32.3325
 30
0.0
 41
200.0
 42
200.0
 50
270.0
210
0.0
220
0.0
230
1.0
  0
INSERT
  5
73
100
AcDbEntity
  8
1
  6
CONTINUOUS
 62
     1
100
AcDbBlockReference
  2
LDR
 10
158.4968
 20
90.8605
 30
0.0
 41
200.0
 42
200.0
 50
90.0
210
0.0
220
0.0
230
1.0
  0
LINE
  5
74
100
AcDbEntity
  8
1
  6
CONTINUOUS
 62
     1
100
AcDbLine
 10
139.8308
 20
37.3805
 30
0.0
 11
150.4608
 21
37.3805
 31
0.0
  0
LINE
  5
75
100
AcDbEntity
  8
1
  6
CONTINUOUS
 62
     1
100
AcDbLine
 10
138.6348
 20
3.0985
 30
0.0
 11
150.4608
 21
3.0985
 31
0.0
  0
LINE
  5
76
100
AcDbEntity
  8
1
  6
HIDDEN
 62
     1
100
AcDbLine
 10
132.9628
 20
3.0985
 30
0.0
 11
136.2348
 21
3.0985
 31
0.0
  0
LINE
  5
77
100
AcDbEntity
  8
1
  6
CONTINUOUS
 62
     1
100
AcDbLine
 10
148.0608
 20
37.3805
 30
0.0
 11
148.0608
 21
3.0985
 31
0.0
  0
LINE
  5
78
100
AcDbEntity
  8
1
  6
CONTINUOUS
 62
     1
100
AcDbLine
 10
128.9768
 20
37.4885
 30
0.0
 11
123.1488
 21
37.4885
 31
0.0
  0
LINE
  5
79
100
AcDbEntity
  8
1
  6
CONTINUOUS
 62
     1
100
AcDbLine
 10
125.5488
 20
37.4885
 30
0.0
 11
125.5488
 21
43.0005
 31
0.0
  0
LINE
  5
7A
100
AcDbEntity
  8
1
  6
CONTINUOUS
 62
     1
100
AcDbLine
 10
125.5488
 20
26.8205
 30
0.0
 11
125.5488
 21
32.3325
 31
0.0
  0
INSERT
  5
7B
100
AcDbEntity
  8
1
  6
CONTINUOUS
 62
     1
100
AcDbBlockReference
  2
LDR
 10
125.5488
 20
37.4885
 30
0.0
 41
200.0
 42
200.0
 50
270.0
210
0.0
220
0.0
230
1.0
  0
INSERT
  5
7C
100
AcDbEntity
  8
1
  6
CONTINUOUS
 62
     1
100
AcDbBlockReference
  2
LDR
 10
125.5488
 20
37.4885
 30
0.0
 41
200.0
 42
200.0
 50
270.0
210
0.0
220
0.0
230
1.0
  0
INSERT
  5
7D
100
AcDbEntity
  8
1
  6
CONTINUOUS
 62
     1
100
AcDbBlockReference
  2
LDR
 10
125.5488
 20
32.3325
 30
0.0
 41
200.0
 42
200.0
 50
90.0
210
0.0
220
0.0
230
1.0
  0
INSERT
  5
7E
100
AcDbEntity
  8
1
  6
CONTINUOUS
 62
     1
100
AcDbBlockReference
  2
LDR
 10
148.0608
 20
37.3805
 30
0.0
 41
200.0
 42
200.0
 50
90.0
210
0.0
220
0.0
230
1.0
  0
INSERT
  5
7F
100
AcDbEntity
  8
1
  6
CONTINUOUS
 62
     1
100
AcDbBlockReference
  2
LDR
 10
148.0608
 20
37.3805
 30
0.0
 41
200.0
 42
200.0
 50
90.0
210
0.0
220
0.0
230
1.0
  0
INSERT
  5
80
100
AcDbEntity
  8
1
  6
CONTINUOUS
 62
     1
100
AcDbBlockReference
  2
LDR
 10
148.0608
 20
3.0985
 30
0.0
 41
200.0
 42
200.0
 50
270.0
210
0.0
220
0.0
230
1.0
  0
LINE
  5
81
100
AcDbEntity
  8
1
  6
CONTINUOUS
 62
     1
100
AcDbLine
 10
132.9608
 20
76.2645
 30
0.0
 11
126.9308
 21
73.0305
 31
0.0
  0
LINE
  5
82
100
AcDbEntity
  8
1
  6
CONTINUOUS
 62
     1
100
AcDbLine
 10
126.9308
 20
73.0305
 30
0.0
 11
127.0008
 21
76.6545
 31
0.0
  0
LINE
  5
83
100
AcDbEntity
  8
1
  6
CONTINUOUS
 62
     1
100
AcDbLine
 10
127.0008
 20
76.6545
 30
0.0
 11
121.8448
 21
73.7265
 31
0.0
  0
INSERT
  5
84
100
AcDbEntity
  8
1
  6
CONTINUOUS
 62
     1
100
AcDbBlockReference
  2
LDR
 10
132.9608
 20
76.2645
 30
0.0
 41
199.999947
 42
199.999947
 50
28.205478
210
0.0
220
0.0
230
1.0
  0
LINE
  5
85
100
AcDbEntity
  8
1
  6
CONTINUOUS
 62
     1
100
AcDbLine
 10
154.0288
 20
32.2065
 30
0.0
 11
154.0288
 21
-13.7255
 31
0.0
  0
LINE
  5
86
100
AcDbEntity
  8
1
  6
CONTINUOUS
 62
     1
100
AcDbLine
 10
143.6648
 20
-13.7255
 30
0.0
 11
156.4288
 21
-13.7255
 31
0.0
  0
INSERT
  5
87
100
AcDbEntity
  8
1
  6
CONTINUOUS
 62
     1
100
AcDbBlockReference
  2
LDR
 10
154.0288
 20
32.2065
 30
0.0
 41
200.0
 42
200.0
 50
90.0
210
0.0
220
0.0
230
1.0
  0
INSERT
  5
88
100
AcDbEntity
  8
1
  6
CONTINUOUS
 62
     1
100
AcDbBlockReference
  2
LDR
 10
154.0288
 20
32.2065
 30
0.0
 41
200.0
 42
200.0
 50
90.0
210
0.0
220
0.0
230
1.0
  0
INSERT
  5
89
100
AcDbEntity
  8
1
  6
CONTINUOUS
 62
     1
100
AcDbBlockReference
  2
LDR
 10
154.0288
 20
-13.7255
 30
0.0
 41
200.0
 42
200.0
 50
270.0
210
0.0
220
0.0
230
1.0
  0
LINE
  5
8A
100
AcDbEntity
  8
1
  6
DASHED
 62
     1
100
AcDbLine
 10
127.9008
 20
-13.7255
 30
0.0
 11
141.2648
 21
-13.7255
 31
0.0
  0
LINE
  5
8B
100
AcDbEntity
  8
1
  6
DASHED
 62
     1
100
AcDbLine
 10
127.9008
 20
-13.7255
 30
0.0
 11
127.9008
 21
32.3325
 31
0.0
  0
LINE
  5
8C
100
AcDbEntity
  8
1
  6
DASHED
 62
     1
100
AcDbLine
 10
141.2648
 20
-13.7255
 30
0.0
 11
141.2648
 21
32.3325
 31
0.0
  0
LINE
  5
8D
100
AcDbEntity
  8
1
  6
CONTINUOUS
 62
     1
100
AcDbLine
 10
127.9008
 20
-16.1255
 30
0.0
 11
127.9008
 21
-21.8495
 31
0.0
  0
LINE
  5
8E
100
AcDbEntity
  8
1
  6
CONTINUOUS
 62
     1
100
AcDbLine
 10
141.2648
 20
-16.1255
 30
0.0
 11
141.2648
 21
-21.8495
 31
0.0
  0
LINE
  5
8F
100
AcDbEntity
  8
1
  6
CONTINUOUS
 62
     1
100
AcDbLine
 10
127.9008
 20
-19.4495
 30
0.0
 11
141.2648
 21
-19.4495
 31
0.0
  0
INSERT
  5
90
100
AcDbEntity
  8
1
  6
CONTINUOUS
 62
     1
100
AcDbBlockReference
  2
LDR
 10
127.9008
 20
-19.4495
 30
0.0
 41
200.0
 42
200.0
 50
180.0
210
0.0
220
0.0
230
1.0
  0
INSERT
  5
91
100
AcDbEntity
  8
1
  6
CONTINUOUS
 62
     1
100
AcDbBlockReference
  2
LDR
 10
127.9008
 20
-19.4495
 30
0.0
 41
200.0
 42
200.0
 50
180.0
210
0.0
220
0.0
230
1.0
  0
INSERT
  5
92
100
AcDbEntity
  8
1
  6
CONTINUOUS
 62
     1
100
AcDbBlockReference
  2
LDR
 10
141.2648
 20
-19.4495
 30
0.0
 41
200.0
 42
200.0
210
0.0
220
0.0
230
1.0
  0
LINE
  5
93
100
AcDbEntity
  8
1
  6
CONTINUOUS
 62
     1
100
AcDbLine
 10
132.9628
 20
36.1205
 30
0.0
 11
132.9628
 21
32.3325
 31
0.0
  0
LINE
  5
94
100
AcDbEntity
  8
1
  6
HIDDEN
 62
     1
100
AcDbLine
 10
132.9628
 20
32.3325
 30
0.0
 11
132.9628
 21
3.0985
 31
0.0
  0
LINE
  5
95
100
AcDbEntity
  8
1
  6
CONTINUOUS
 62
     1
100
AcDbLine
 10
136.2348
 20
36.1205
 30
0.0
 11
136.2348
 21
32.3325
 31
0.0
  0
LINE
  5
96
100
AcDbEntity
  8
1
  6
HIDDEN
 62
     1
100
AcDbLine
 10
136.2348
 20
32.3325
 30
0.0
 11
136.2348
 21
3.0985
 31
0.0
  0
LINE
  5
97
100
AcDbEntity
  8
1
  6
DASHED
 62
     1
100
AcDbLine
 10
231.9568
 20
-13.7255
 30
0.0
 11
245.3208
 21
-13.7255
 31
0.0
  0
LWPOLYLINE
  5
98
100
AcDbEntity
  8
1
  6
CONTINUOUS
 62
     1
100
AcDbPolyline
 90
        4
 70
     1
 10
222.9088
 20
126.4185
 10
235.9208
 20
126.4185
 10
235.9208
 20
119.6845
 10
222.9088
 20
119.6845
  0
LWPOLYLINE
  5
99
100
AcDbEntity
  8
1
  6
CONTINUOUS
 62
     1
100
AcDbPolyline
 90
        4
 70
     1
 10
223.0628
 20
118.3985
 10
236.3008
 20
118.3985
 10
236.3008
 20
105.0045
 10
223.0628
 20
105.0045
  0
LWPOLYLINE
  5
9A
100
AcDbEntity
  8
1
  6
CONTINUOUS
 62
     1
100
AcDbPolyline
 90
        4
 70
     1
 10
224.4228
 20
103.5665
 10
234.9388
 20
103.5665
 10
234.9388
 20
97.9665
 10
224.4228
 20
97.9665
  0
LINE
  5
9B
100
AcDbEntity
  8
1
  6
CONTINUOUS
 62
     1
100
AcDbLine
 10
228.1208
 20
119.6845
 30
0.0
 11
228.1208
 21
118.3985
 31
0.0
  0
LINE
  5
9C
100
AcDbEntity
  8
1
  6
CONTINUOUS
 62
     1
100
AcDbLine
 10
230.6288
 20
119.6845
 30
0.0
 11
230.6288
 21
118.3985
 31
0.0
  0
LINE
  5
9D
100
AcDbEntity
  8
1
  6
CONTINUOUS
 62
     1
100
AcDbLine
 10
228.3568
 20
105.0045
 30
0.0
 11
228.3568
 21
103.5665
 31
0.0
  0
LINE
  5
9E
100
AcDbEntity
  8
1
  6
CONTINUOUS
 62
     1
100
AcDbLine
 10
230.8008
 20
105.0045
 30
0.0
 11
230.8008
 21
103.5665
 31
0.0
  0
LWPOLYLINE
  5
9F
100
AcDbEntity
  8
1
  6
CONTINUOUS
 62
     1
100
AcDbPolyline
 90
        4
 70
     1
 10
240.4108
 20
126.4185
 10
253.4228
 20
126.4185
 10
253.4228
 20
119.6845
 10
240.4108
 20
119.6845
  0
LWPOLYLINE
  5
A0
100
AcDbEntity
  8
1
  6
CONTINUOUS
 62
     1
100
AcDbPolyline
 90
        4
 70
     1
 10
240.5648
 20
118.3985
 10
253.8028
 20
118.3985
 10
253.8028
 20
105.0045
 10
240.5648
 20
105.0045
  0
LWPOLYLINE
  5
A1
100
AcDbEntity
  8
1
  6
CONTINUOUS
 62
     1
100
AcDbPolyline
 90
        4
 70
     1
 10
241.9248
 20
103.5665
 10
252.4408
 20
103.5665
 10
252.4408
 20
97.9665
 10
241.9248
 20
97.9665
  0
LINE
  5
A2
100
AcDbEntity
  8
1
  6
CONTINUOUS
 62
     1
100
AcDbLine
 10
230.8228
 20
93.3545
 30
0.0
 11
245.7928
 21
93.3545
 31
0.0
  0
LINE
  5
A3
100
AcDbEntity
  8
1
  6
CONTINUOUS
 62
     1
100
AcDbLine
 10
228.2188
 20
90.6105
 30
0.0
 11
228.2188
 21
97.9665
 31
0.0
  0
LINE
  5
A4
100
AcDbEntity
  8
1
  6
CONTINUOUS
 62
     1
100
AcDbLine
 10
230.8228
 20
93.3545
 30
0.0
 11
230.8228
 21
97.9665
 31
0.0
  0
LINE
  5
A5
100
AcDbEntity
  8
1
  6
CONTINUOUS
 62
     1
100
AcDbLine
 10
245.7928
 20
93.3545
 30
0.0
 11
245.7928
 21
97.9665
 31
0.0
  0
LINE
  5
A6
100
AcDbEntity
  8
1
  6
CONTINUOUS
 62
     1
100
AcDbLine
 10
248.1548
 20
90.6105
 30
0.0
 11
248.1548
 21
97.9665
 31
0.0
  0
LINE
  5
A7
100
AcDbEntity
  8
1
  6
CONTINUOUS
 62
     1
100
AcDbLine
 10
240.2908
 20
69.7065
 30
0.0
 11
240.2908
 21
90.6105
 31
0.0
  0
LINE
  5
A8
100
AcDbEntity
  8
1
  6
CONTINUOUS
 62
     1
100
AcDbLine
 10
228.2188
 20
90.6105
 30
0.0
 11
237.0168
 21
90.6105
 31
0.0
  0
LINE
  5
A9
100
AcDbEntity
  8
1
  6
CONTINUOUS
 62
     1
100
AcDbLine
 10
240.2908
 20
90.6105
 30
0.0
 11
248.1288
 21
90.6105
 31
0.0
  0
LINE
  5
AA
100
AcDbEntity
  8
1
  6
CONTINUOUS
 62
     1
100
AcDbLine
 10
237.0168
 20
69.7065
 30
0.0
 11
237.0168
 21
90.6105
 31
0.0
  0
ARC
  5
AB
100
AcDbEntity
  8
1
  6
CONTINUOUS
 62
     1
100
AcDbCircle
 10
238.6538
 20
89.2283
 30
0.0
 40
2.142486
210
0.0
220
0.0
230
1.0
100
AcDbArc
 50
40.176056
 51
139.823944
  0
ARC
  5
AC
100
AcDbEntity
  8
1
  6
CONTINUOUS
 62
     1
100
AcDbCircle
 10
239.4728
 20
70.2864
 30
0.0
 40
1.0027
210
0.0
220
0.0
230
1.0
100
AcDbArc
 50
215.333731
 51
324.666272
  0
ARC
  5
AD
100
AcDbEntity
  8
1
  6
CONTINUOUS
 62
     1
100
AcDbCircle
 10
237.8368
 20
70.145307
 30
0.0
 40
0.928265
210
0.0
220
0.0
230
1.0
100
AcDbArc
 50
208.210861
 51
331.789142
  0
ARC
  5
AE
100
AcDbEntity
  8
1
  6
CONTINUOUS
 62
     1
100
AcDbCircle
 10
237.8368
 20
69.150292
 30
0.0
 40
0.989187
210
0.0
220
0.0
230
1.0
100
AcDbArc
 50
34.214186
 51
145.785814
  0
LINE
  5
AF
100
AcDbEntity
  8
1
  6
CONTINUOUS
 62
     1
100
AcDbLine
 10
222.0228
 20
97.9665
 30
0.0
 11
215.9328
 21
97.9665
 31
0.0
  0
LINE
  5
B0
100
AcDbEntity
  8
1
  6
CONTINUOUS
 62
     1
100
AcDbLine
 10
230.6188
 20
92.0385
 30
0.0
 11
215.9328
 21
92.0385
 31
0.0
  0
LINE
  5
B1
100
AcDbEntity
  8
1
  6
CONTINUOUS
 62
     1
100
AcDbLine
 10
218.3328
 20
97.9985
 30
0.0
 11
218.3328
 21
103.4985
 31
0.0
  0
LINE
  5
B2
100
AcDbEntity
  8
1
  6
CONTINUOUS
 62
     1
100
AcDbLine
 10
218.3328
 20
86.5385
 30
0.0
 11
218.3328
 21
92.0385
 31
0.0
  0
INSERT
  5
B3
100
AcDbEntity
  8
1
  6
CONTINUOUS
 62
     1
100
AcDbBlockReference
  2
LDR
 10
218.3328
 20
97.9985
 30
0.0
 41
200.0
 42
200.0
 50
270.0
210
0.0
220
0.0
230
1.0
  0
INSERT
  5
B4
100
AcDbEntity
  8
1
  6
CONTINUOUS
 62
     1
100
AcDbBlockReference
  2
LDR
 10
218.3328
 20
97.9985
 30
0.0
 41
200.0
 42
200.0
 50
270.0
210
0.0
220
0.0
230
1.0
  0
INSERT
  5
B5
100
AcDbEntity
  8
1
  6
CONTINUOUS
 62
     1
100
AcDbBlockReference
  2
LDR
 10
218.3328
 20
92.0385
 30
0.0
 41
200.0
 42
200.0
 50
90.0
210
0.0
220
0.0
230
1.0
  0
LINE
  5
B6
100
AcDbEntity
  8
1
  6
CONTINUOUS
 62
     1
100
AcDbLine
 10
248.1548
 20
94.5325
 30
0.0
 11
255.8508
 21
95.9685
 31
0.0
  0
LINE
  5
B7
100
AcDbEntity
  8
1
  6
CONTINUOUS
 62
     1
100
AcDbLine
 10
255.8508
 20
95.9685
 30
0.0
 11
255.0648
 21
94.3965
 31
0.0
  0
LINE
  5
B8
100
AcDbEntity
  8
1
  6
CONTINUOUS
 62
     1
100
AcDbLine
 10
255.0648
 20
94.3965
 30
0.0
 11
261.3508
 21
96.6885
 31
0.0
  0
LINE
  5
B9
100
AcDbEntity
  8
1
  6
CONTINUOUS
 62
     1
100
AcDbLine
 10
251.7748
 20
95.2085
 30
0.0
 11
247.1428
 21
86.6685
 31
0.0
  0
LINE
  5
BA
100
AcDbEntity
  8
1
  6
CONTINUOUS
 62
     1
100
AcDbLine
 10
247.1428
 20
86.6685
 30
0.0
 11
244.1368
 21
90.6105
 31
0.0
  0
INSERT
  5
BB
100
AcDbEntity
  8
1
  6
CONTINUOUS
 62
     1
100
AcDbBlockReference
  2
LDR
 10
248.1548
 20
94.5325
 30
0.0
 41
199.99997
 42
199.99997
 50
190.569308
210
0.0
220
0.0
230
1.0
  0
INSERT
  5
BC
100
AcDbEntity
  8
1
  6
CONTINUOUS
 62
     1
100
AcDbBlockReference
  2
LDR
 10
248.1548
 20
94.5325
 30
0.0
 41
199.99997
 42
199.99997
 50
190.569308
210
0.0
220
0.0
230
1.0
  0
INSERT
  5
BD
100
AcDbEntity
  8
1
  6
CONTINUOUS
 62
     1
100
AcDbBlockReference
  2
LDR
 10
244.1368
 20
90.6105
 30
0.0
 41
200.00001
 42
200.00001
 50
127.327574
210
0.0
220
0.0
230
1.0
  0
LINE
  5
BE
100
AcDbEntity
  8
1
  6
CONTINUOUS
 62
     1
100
AcDbLine
 10
250.5548
 20
90.8605
 30
0.0
 11
264.9528
 21
90.8605
 31
0.0
  0
LINE
  5
BF
100
AcDbEntity
  8
1
  6
CONTINUOUS
 62
     1
100
AcDbLine
 10
208.7728
 20
32.3325
 30
0.0
 11
264.9528
 21
32.3325
 31
0.0
  0
LINE
  5
C0
100
AcDbEntity
  8
1
  6
CONTINUOUS
 62
     1
100
AcDbLine
 10
262.5528
 20
32.3325
 30
0.0
 11
262.5528
 21
90.8605
 31
0.0
  0
ARC
  5
C1
100
AcDbEntity
  8
1
  6
CONTINUOUS
 62
     1
100
AcDbCircle
 10
239.4728
 20
61.8906
 30
0.0
 40
1.0027
210
0.0
220
0.0
230
1.0
100
AcDbArc
 50
35.333728
 51
144.666269
  0
ARC
  5
C2
100
AcDbEntity
  8
1
  6
CONTINUOUS
 62
     1
100
AcDbCircle
 10
237.8368
 20
62.031693
 30
0.0
 40
0.928265
210
0.0
220
0.0
230
1.0
100
AcDbArc
 50
28.210858
 51
151.789139
  0
ARC
  5
C3
100
AcDbEntity
  8
1
  6
CONTINUOUS
 62
     1
100
AcDbCircle
 10
237.8368
 20
63.026708
 30
0.0
 40
0.989187
210
0.0
220
0.0
230
1.0
100
AcDbArc
 50
214.214186
 51
325.785814
  0
LWPOLYLINE
  5
C4
100
AcDbEntity
  8
1
  6
CONTINUOUS
 62
     1
100
AcDbPolyline
 90
        4
 70
     1
 10
235.4328
 20
38.3585
 10
241.4868
 20
38.3585
 10
241.4868
 20
36.1205
 10
235.4328
 20
36.1205
  0
LINE
  5
C5
100
AcDbEntity
  8
1
  6
CONTINUOUS
 62
     1
100
AcDbLine
 10
235.4328
 20
37.2405
 30
0.0
 11
241.4868
 21
37.2405
 31
0.0
  0
LINE
  5
C6
100
AcDbEntity
  8
1
  6
CONTINUOUS
 62
     1
100
AcDbLine
 10
240.2908
 20
62.4705
 30
0.0
 11
240.2908
 21
38.3585
 31
0.0
  0
LINE
  5
C7
100
AcDbEntity
  8
1
  6
CONTINUOUS
 62
     1
100
AcDbLine
 10
237.0188
 20
62.4705
 30
0.0
 11
237.0188
 21
38.3585
 31
0.0
  0
INSERT
  5
C8
100
AcDbEntity
  8
1
  6
CONTINUOUS
 62
     1
100
AcDbBlockReference
  2
LDR
 10
262.5528
 20
32.3325
 30
0.0
 41
200.0
 42
200.0
 50
270.0
210
0.0
220
0.0
230
1.0
  0
INSERT
  5
C9
100
AcDbEntity
  8
1
  6
CONTINUOUS
 62
     1
100
AcDbBlockReference
  2
LDR
 10
262.5528
 20
90.8605
 30
0.0
 41
200.0
 42
200.0
 50
90.0
210
0.0
220
0.0
230
1.0
  0
LINE
  5
CA
100
AcDbEntity
  8
1
  6
CONTINUOUS
 62
     1
100
AcDbLine
 10
243.8868
 20
37.3805
 30
0.0
 11
254.5168
 21
37.3805
 31
0.0
  0
LINE
  5
CB
100
AcDbEntity
  8
1
  6
CONTINUOUS
 62
     1
100
AcDbLine
 10
242.6908
 20
3.0985
 30
0.0
 11
254.5168
 21
3.0985
 31
0.0
  0
LINE
  5
CC
100
AcDbEntity
  8
1
  6
HIDDEN
 62
     1
100
AcDbLine
 10
237.0188
 20
3.0985
 30
0.0
 11
240.2908
 21
3.0985
 31
0.0
  0
LINE
  5
CD
100
AcDbEntity
  8
1
  6
CONTINUOUS
 62
     1
100
AcDbLine
 10
252.1168
 20
37.3805
 30
0.0
 11
252.1168
 21
3.0985
 31
0.0
  0
LINE
  5
CE
100
AcDbEntity
  8
1
  6
CONTINUOUS
 62
     1
100
AcDbLine
 10
233.0328
 20
37.4885
 30
0.0
 11
227.2048
 21
37.4885
 31
0.0
  0
LINE
  5
CF
100
AcDbEntity
  8
1
  6
CONTINUOUS
 62
     1
100
AcDbLine
 10
229.6048
 20
37.4885
 30
0.0
 11
229.6048
 21
43.0005
 31
0.0
  0
LINE
  5
D0
100
AcDbEntity
  8
1
  6
CONTINUOUS
 62
     1
100
AcDbLine
 10
229.6048
 20
26.8205
 30
0.0
 11
229.6048
 21
32.3325
 31
0.0
  0
INSERT
  5
D1
100
AcDbEntity
  8
1
  6
CONTINUOUS
 62
     1
100
AcDbBlockReference
  2
LDR
 10
229.6048
 20
37.4885
 30
0.0
 41
200.0
 42
200.0
 50
270.0
210
0.0
220
0.0
230
1.0
  0
INSERT
  5
D2
100
AcDbEntity
  8
1
  6
CONTINUOUS
 62
     1
100
AcDbBlockReference
  2
LDR
 10
229.6048
 20
37.4885
 30
0.0
 41
200.0
 42
200.0
 50
270.0
210
0.0
220
0.0
230
1.0
  0
INSERT
  5
D3
100
AcDbEntity
  8
1
  6
CONTINUOUS
 62
     1
100
AcDbBlockReference
  2
LDR
 10
229.6048
 20
32.3325
 30
0.0
 41
200.0
 42
200.0
 50
90.0
210
0.0
220
0.0
230
1.0
  0
INSERT
  5
D4
100
AcDbEntity
  8
1
  6
CONTINUOUS
 62
     1
100
AcDbBlockReference
  2
LDR
 10
252.1168
 20
37.3805
 30
0.0
 41
200.0
 42
200.0
 50
90.0
210
0.0
220
0.0
230
1.0
  0
INSERT
  5
D5
100
AcDbEntity
  8
1
  6
CONTINUOUS
 62
     1
100
AcDbBlockReference
  2
LDR
 10
252.1168
 20
3.0985
 30
0.0
 41
200.0
 42
200.0
 50
270.0
210
0.0
220
0.0
230
1.0
  0
LINE
  5
D6
100
AcDbEntity
  8
1
  6
CONTINUOUS
 62
     1
100
AcDbLine
 10
237.0168
 20
76.2645
 30
0.0
 11
230.9868
 21
73.0305
 31
0.0
  0
LINE
  5
D7
100
AcDbEntity
  8
1
  6
CONTINUOUS
 62
     1
100
AcDbLine
 10
230.9868
 20
73.0305
 30
0.0
 11
231.0568
 21
76.6545
 31
0.0
  0
LINE
  5
D8
100
AcDbEntity
  8
1
  6
CONTINUOUS
 62
     1
100
AcDbLine
 10
231.0568
 20
76.6545
 30
0.0
 11
225.9008
 21
73.7265
 31
0.0
  0
INSERT
  5
D9
100
AcDbEntity
  8
1
  6
CONTINUOUS
 62
     1
100
AcDbBlockReference
  2
LDR
 10
237.0168
 20
76.2645
 30
0.0
 41
199.999947
 42
199.999947
 50
28.205478
210
0.0
220
0.0
230
1.0
  0
LINE
  5
DA
100
AcDbEntity
  8
1
  6
CONTINUOUS
 62
     1
100
AcDbLine
 10
258.0848
 20
32.2065
 30
0.0
 11
258.0848
 21
-13.7255
 31
0.0
  0
LINE
  5
DB
100
AcDbEntity
  8
1
  6
CONTINUOUS
 62
     1
100
AcDbLine
 10
247.7208
 20
-13.7255
 30
0.0
 11
260.4848
 21
-13.7255
 31
0.0
  0
INSERT
  5
DC
100
AcDbEntity
  8
1
  6
CONTINUOUS
 62
     1
100
AcDbBlockReference
  2
LDR
 10
258.0848
 20
32.2065
 30
0.0
 41
200.0
 42
200.0
 50
90.0
210
0.0
220
0.0
230
1.0
  0
INSERT
  5
DD
100
AcDbEntity
  8
1
  6
CONTINUOUS
 62
     1
100
AcDbBlockReference
  2
LDR
 10
258.0848
 20
-13.7255
 30
0.0
 41
200.0
 42
200.0
 50
270.0
210
0.0
220
0.0
230
1.0
  0
LINE
  5
DE
100
AcDbEntity
  8
1
  6
DASHED
 62
     1
100
AcDbLine
 10
231.9568
 20
-13.7255
 30
0.0
 11
231.9568
 21
32.3325
 31
0.0
  0
LINE
  5
DF
100
AcDbEntity
  8
1
  6
DASHED
 62
     1
100
AcDbLine
 10
245.3208
 20
-13.7255
 30
0.0
 11
245.3208
 21
32.3325
 31
0.0
  0
LINE
  5
E0
100
AcDbEntity
  8
1
  6
CONTINUOUS
 62
     1
100
AcDbLine
 10
231.9568
 20
-16.1255
 30
0.0
 11
231.9568
 21
-21.8495
 31
0.0
  0
LINE
  5
E1
100
AcDbEntity
  8
1
  6
CONTINUOUS
 62
     1
100
AcDbLine
 10
245.3208
 20
-16.1255
 30
0.0
 11
245.3208
 21
-21.8495
 31
0.0
  0
LINE
  5
E2
100
AcDbEntity
  8
1
  6
CONTINUOUS
 62
     1
100
AcDbLine
 10
231.9568
 20
-19.4495
 30
0.0
 11
245.3208
 21
-19.4495
 31
0.0
  0
INSERT
  5
E3
100
AcDbEntity
  8
1
  6
CONTINUOUS
 62
     1
100
AcDbBlockReference
  2
LDR
 10
231.9568
 20
-19.4495
 30
0.0
 41
200.0
 42
200.0
 50
180.0
210
0.0
220
0.0
230
1.0
  0
INSERT
  5
E4
100
AcDbEntity
  8
1
  6
CONTINUOUS
 62
     1
100
AcDbBlockReference
  2
LDR
 10
231.9568
 20
-19.4495
 30
0.0
 41
200.0
 42
200.0
 50
180.0
210
0.0
220
0.0
230
1.0
  0
INSERT
  5
E5
100
AcDbEntity
  8
1
  6
CONTINUOUS
 62
     1
100
AcDbBlockReference
  2
LDR
 10
245.3208
 20
-19.4495
 30
0.0
 41
200.0
 42
200.0
210
0.0
220
0.0
230
1.0
  0
LINE
  5
E6
100
AcDbEntity
  8
1
  6
CONTINUOUS
 62
     1
100
AcDbLine
 10
237.0188
 20
36.1205
 30
0.0
 11
237.0188
 21
32.3325
 31
0.0
  0
LINE
  5
E7
100
AcDbEntity
  8
1
  6
HIDDEN
 62
     1
100
AcDbLine
 10
237.0188
 20
32.3325
 30
0.0
 11
237.0188
 21
3.0985
 31
0.0
  0
LINE
  5
E8
100
AcDbEntity
  8
1
  6
CONTINUOUS
 62
     1
100
AcDbLine
 10
240.2908
 20
36.1205
 30
0.0
 11
240.2908
 21
32.3325
 31
0.0
  0
LINE
  5
E9
100
AcDbEntity
  8
1
  6
HIDDEN
 62
     1
100
AcDbLine
 10
240.2908
 20
32.3325
 30
0.0
 11
240.2908
 21
3.0985
 31
0.0
  0
LINE
  5
EA
100
AcDbEntity
  8
1
  6
CONTINUOUS
 62
     1
100
AcDbLine
 10
248.1548
 20
105.0045
 30
0.0
 11
248.1548
 21
103.5665
 31
0.0
  0
LINE
  5
EB
100
AcDbEntity
  8
1
  6
CONTINUOUS
 62
     1
100
AcDbLine
 10
245.4748
 20
119.6845
 30
0.0
 11
245.4748
 21
118.3985
 31
0.0
  0
LINE
  5
EC
100
AcDbEntity
  8
1
  6
CONTINUOUS
 62
     1
100
AcDbLine
 10
247.9828
 20
119.6845
 30
0.0
 11
247.9828
 21
118.3985
 31
0.0
  0
LINE
  5
ED
100
AcDbEntity
  8
1
  6
CONTINUOUS
 62
     1
100
AcDbLine
 10
245.7108
 20
105.0045
 30
0.0
 11
245.7108
 21
103.5665
 31
0.0
  0
LWPOLYLINE
  5
EE
100
AcDbEntity
  8
1
  6
CONTINUOUS
 62
     1
100
AcDbPolyline
 90
        4
 70
     1
 10
241.6068
 20
136.6305
 10
252.1228
 20
136.6305
 10
252.1228
 20
131.0305
 10
241.6068
 20
131.0305
  0
LWPOLYLINE
  5
EF
100
AcDbEntity
  8
1
  6
CONTINUOUS
 62
     1
100
AcDbPolyline
 90
        4
 70
     1
 10
240.0928
 20
159.4825
 10
253.1048
 20
159.4825
 10
253.1048
 20
152.7485
 10
240.0928
 20
152.7485
  0
LWPOLYLINE
  5
F0
100
AcDbEntity
  8
1
  6
CONTINUOUS
 62
     1
100
AcDbPolyline
 90
        4
 70
     1
 10
240.2468
 20
151.4625
 10
253.4848
 20
151.4625
 10
253.4848
 20
138.0685
 10
240.2468
 20
138.0685
  0
LINE
  5
F1
100
AcDbEntity
  8
1
  6
CONTINUOUS
 62
     1
100
AcDbLine
 10
245.4748
 20
126.4185
 30
0.0
 11
245.4748
 21
131.0305
 31
0.0
  0
LINE
  5
F2
100
AcDbEntity
  8
1
  6
CONTINUOUS
 62
     1
100
AcDbLine
 10
247.9828
 20
126.4185
 30
0.0
 11
247.9828
 21
131.0305
 31
0.0
  0
LINE
  5
F3
100
AcDbEntity
  8
1
  6
CONTINUOUS
 62
     1
100
AcDbLine
 10
240.0928
 20
161.8825
 30
0.0
 11
240.0928
 21
168.2045
 31
0.0
  0
LINE
  5
F4
100
AcDbEntity
  8
1
  6
CONTINUOUS
 62
     1
100
AcDbLine
 10
239.2068
 20
131.0305
 30
0.0
 11
213.6588
 21
131.0305
 31
0.0
  0
LINE
  5
F5
100
AcDbEntity
  8
1
  6
CONTINUOUS
 62
     1
100
AcDbLine
 10
220.5088
 20
126.4185
 30
0.0
 11
213.6588
 21
126.4185
 31
0.0
  0
LINE
  5
F6
100
AcDbEntity
  8
1
  6
CONTINUOUS
 62
     1
100
AcDbLine
 10
235.9208
 20
128.8185
 30
0.0
 11
235.9208
 21
168.2045
 31
0.0
  0
LINE
  5
F7
100
AcDbEntity
  8
1
  6
CONTINUOUS
 62
     1
100
AcDbLine
 10
240.0928
 20
165.8045
 30
0.0
 11
247.0768
 21
165.8045
 31
0.0
  0
LINE
  5
F8
100
AcDbEntity
  8
1
  6
CONTINUOUS
 62
     1
100
AcDbLine
 10
228.9368
 20
165.8045
 30
0.0
 11
235.9208
 21
165.8045
 31
0.0
  0
INSERT
  5
F9
100
AcDbEntity
  8
1
  6
CONTINUOUS
 62
     1
100
AcDbBlockReference
  2
LDR
 10
240.0928
 20
165.8045
 30
0.0
 41
200.0
 42
200.0
 50
180.0
210
0.0
220
0.0
230
1.0
  0
INSERT
  5
FA
100
AcDbEntity
  8
1
  6
CONTINUOUS
 62
     1
100
AcDbBlockReference
  2
LDR
 10
240.0928
 20
165.8045
 30
0.0
 41
200.0
 42
200.0
 50
180.0
210
0.0
220
0.0
230
1.0
  0
INSERT
  5
FB
100
AcDbEntity
  8
1
  6
CONTINUOUS
 62
     1
100
AcDbBlockReference
  2
LDR
 10
235.9208
 20
165.8045
 30
0.0
 41
200.0
 42
200.0
210
0.0
220
0.0
230
1.0
  0
LINE
  5
FC
100
AcDbEntity
  8
1
  6
CONTINUOUS
 62
     1
100
AcDbLine
 10
216.0588
 20
131.0305
 30
0.0
 11
216.0588
 21
135.6205
 31
0.0
  0
LINE
  5
FD
100
AcDbEntity
  8
1
  6
CONTINUOUS
 62
     1
100
AcDbLine
 10
216.0588
 20
121.8285
 30
0.0
 11
216.0588
 21
126.4185
 31
0.0
  0
INSERT
  5
FE
100
AcDbEntity
  8
1
  6
CONTINUOUS
 62
     1
100
AcDbBlockReference
  2
LDR
 10
216.0588
 20
131.0305
 30
0.0
 41
200.0
 42
200.0
 50
270.0
210
0.0
220
0.0
230
1.0
  0
INSERT
  5
FF
100
AcDbEntity
  8
1
  6
CONTINUOUS
 62
     1
100
AcDbBlockReference
  2
LDR
 10
216.0588
 20
126.4185
 30
0.0
 41
200.0
 42
200.0
 50
90.0
210
0.0
220
0.0
230
1.0
  0
LINE
  5
100
100
AcDbEntity
  8
1
  6
DASHED
 62
     1
100
AcDbLine
 10
345.0128
 20
-13.7255
 30
0.0
 11
345.0128
 21
32.3325
 31
0.0
  0
LWPOLYLINE
  5
101
100
AcDbEntity
  8
1
  6
CONTINUOUS
 62
     1
100
AcDbPolyline
 90
        4
 70
     1
 10
335.9648
 20
126.4185
 10
348.9768
 20
126.4185
 10
348.9768
 20
119.6845
 10
335.9648
 20
119.6845
  0
LWPOLYLINE
  5
102
100
AcDbEntity
  8
1
  6
CONTINUOUS
 62
     1
100
AcDbPolyline
 90
        4
 70
     1
 10
336.1188
 20
118.3985
 10
349.3568
 20
118.3985
 10
349.3568
 20
105.0045
 10
336.1188
 20
105.0045
  0
LWPOLYLINE
  5
103
100
AcDbEntity
  8
1
  6
CONTINUOUS
 62
     1
100
AcDbPolyline
 90
        4
 70
     1
 10
337.4788
 20
103.5665
 10
347.9948
 20
103.5665
 10
347.9948
 20
97.9665
 10
337.4788
 20
97.9665
  0
LINE
  5
104
100
AcDbEntity
  8
1
  6
CONTINUOUS
 62
     1
100
AcDbLine
 10
341.1768
 20
119.6845
 30
0.0
 11
341.1768
 21
118.3985
 31
0.0
  0
LINE
  5
105
100
AcDbEntity
  8
1
  6
CONTINUOUS
 62
     1
100
AcDbLine
 10
343.6848
 20
119.6845
 30
0.0
 11
343.6848
 21
118.3985
 31
0.0
  0
LINE
  5
106
100
AcDbEntity
  8
1
  6
CONTINUOUS
 62
     1
100
AcDbLine
 10
341.4128
 20
105.0045
 30
0.0
 11
341.4128
 21
103.5665
 31
0.0
  0
LINE
  5
107
100
AcDbEntity
  8
1
  6
CONTINUOUS
 62
     1
100
AcDbLine
 10
343.8568
 20
105.0045
 30
0.0
 11
343.8568
 21
103.5665
 31
0.0
  0
LWPOLYLINE
  5
108
100
AcDbEntity
  8
1
  6
CONTINUOUS
 62
     1
100
AcDbPolyline
 90
        4
 70
     1
 10
353.4668
 20
126.4185
 10
366.4788
 20
126.4185
 10
366.4788
 20
119.6845
 10
353.4668
 20
119.6845
  0
LWPOLYLINE
  5
109
100
AcDbEntity
  8
1
  6
CONTINUOUS
 62
     1
100
AcDbPolyline
 90
        4
 70
     1
 10
353.6208
 20
118.3985
 10
366.8588
 20
118.3985
 10
366.8588
 20
105.0045
 10
353.6208
 20
105.0045
  0
LWPOLYLINE
  5
10A
100
AcDbEntity
  8
1
  6
CONTINUOUS
 62
     1
100
AcDbPolyline
 90
        4
 70
     1
 10
354.9808
 20
103.5665
 10
365.4968
 20
103.5665
 10
365.4968
 20
97.9665
 10
354.9808
 20
97.9665
  0
LINE
  5
10B
100
AcDbEntity
  8
1
  6
CONTINUOUS
 62
     1
100
AcDbLine
 10
358.6788
 20
119.6845
 30
0.0
 11
358.6788
 21
118.3985
 31
0.0
  0
LINE
  5
10C
100
AcDbEntity
  8
1
  6
CONTINUOUS
 62
     1
100
AcDbLine
 10
361.1868
 20
119.6845
 30
0.0
 11
361.1868
 21
118.3985
 31
0.0
  0
LINE
  5
10D
100
AcDbEntity
  8
1
  6
CONTINUOUS
 62
     1
100
AcDbLine
 10
358.9148
 20
105.0045
 30
0.0
 11
358.9148
 21
103.5665
 31
0.0
  0
LINE
  5
10E
100
AcDbEntity
  8
1
  6
CONTINUOUS
 62
     1
100
AcDbLine
 10
361.3588
 20
105.0045
 30
0.0
 11
361.3588
 21
103.5665
 31
0.0
  0
LINE
  5
10F
100
AcDbEntity
  8
1
  6
CONTINUOUS
 62
     1
100
AcDbLine
 10
343.8788
 20
93.3545
 30
0.0
 11
358.8488
 21
93.3545
 31
0.0
  0
LINE
  5
110
100
AcDbEntity
  8
1
  6
CONTINUOUS
 62
     1
100
AcDbLine
 10
341.2748
 20
90.6105
 30
0.0
 11
341.2748
 21
97.9665
 31
0.0
  0
LINE
  5
111
100
AcDbEntity
  8
1
  6
CONTINUOUS
 62
     1
100
AcDbLine
 10
343.8788
 20
93.3545
 30
0.0
 11
343.8788
 21
97.9665
 31
0.0
  0
LINE
  5
112
100
AcDbEntity
  8
1
  6
CONTINUOUS
 62
     1
100
AcDbLine
 10
358.8488
 20
93.3545
 30
0.0
 11
358.8488
 21
97.9665
 31
0.0
  0
LINE
  5
113
100
AcDbEntity
  8
1
  6
CONTINUOUS
 62
     1
100
AcDbLine
 10
361.2108
 20
90.6105
 30
0.0
 11
361.2108
 21
97.9665
 31
0.0
  0
LINE
  5
114
100
AcDbEntity
  8
1
  6
CONTINUOUS
 62
     1
100
AcDbLine
 10
353.3468
 20
69.7065
 30
0.0
 11
353.3468
 21
90.6105
 31
0.0
  0
LINE
  5
115
100
AcDbEntity
  8
1
  6
CONTINUOUS
 62
     1
100
AcDbLine
 10
341.2748
 20
90.6105
 30
0.0
 11
350.0728
 21
90.6105
 31
0.0
  0
LINE
  5
116
100
AcDbEntity
  8
1
  6
CONTINUOUS
 62
     1
100
AcDbLine
 10
353.3468
 20
90.6105
 30
0.0
 11
361.1848
 21
90.6105
 31
0.0
  0
LINE
  5
117
100
AcDbEntity
  8
1
  6
CONTINUOUS
 62
     1
100
AcDbLine
 10
350.0728
 20
69.7065
 30
0.0
 11
350.0728
 21
90.6105
 31
0.0
  0
ARC
  5
118
100
AcDbEntity
  8
1
  6
CONTINUOUS
 62
     1
100
AcDbCircle
 10
351.7098
 20
89.2283
 30
0.0
 40
2.142486
210
0.0
220
0.0
230
1.0
100
AcDbArc
 50
40.176056
 51
139.823944
  0
ARC
  5
119
100
AcDbEntity
  8
1
  6
CONTINUOUS
 62
     1
100
AcDbCircle
 10
352.5288
 20
70.2864
 30
0.0
 40
1.0027
210
0.0
220
0.0
230
1.0
100
AcDbArc
 50
215.333731
 51
324.666272
  0
ARC
  5
11A
100
AcDbEntity
  8
1
  6
CONTINUOUS
 62
     1
100
AcDbCircle
 10
350.8928
 20
70.145307
 30
0.0
 40
0.928265
210
0.0
220
0.0
230
1.0
100
AcDbArc
 50
208.210861
 51
331.789142
  0
ARC
  5
11B
100
AcDbEntity
  8
1
  6
CONTINUOUS
 62
     1
100
AcDbCircle
 10
350.8928
 20
69.150292
 30
0.0
 40
0.989187
210
0.0
220
0.0
230
1.0
100
AcDbArc
 50
34.214186
 51
145.785814
  0
LINE
  5
11C
100
AcDbEntity
  8
1
  6
CONTINUOUS
 62
     1
100
AcDbLine
 10
335.0788
 20
97.9665
 30
0.0
 11
328.9888
 21
97.9665
 31
0.0
  0
LINE
  5
11D
100
AcDbEntity
  8
1
  6
CONTINUOUS
 62
     1
100
AcDbLine
 10
343.6748
 20
92.0385
 30
0.0
 11
328.9888
 21
92.0385
 31
0.0
  0
LINE
  5
11E
100
AcDbEntity
  8
1
  6
CONTINUOUS
 62
     1
100
AcDbLine
 10
331.3888
 20
97.9985
 30
0.0
 11
331.3888
 21
103.4985
 31
0.0
  0
LINE
  5
11F
100
AcDbEntity
  8
1
  6
CONTINUOUS
 62
     1
100
AcDbLine
 10
331.3888
 20
86.5385
 30
0.0
 11
331.3888
 21
92.0385
 31
0.0
  0
INSERT
  5
120
100
AcDbEntity
  8
1
  6
CONTINUOUS
 62
     1
100
AcDbBlockReference
  2
LDR
 10
331.3888
 20
97.9985
 30
0.0
 41
200.0
 42
200.0
 50
270.0
210
0.0
220
0.0
230
1.0
  0
INSERT
  5
121
100
AcDbEntity
  8
1
  6
CONTINUOUS
 62
     1
100
AcDbBlockReference
  2
LDR
 10
331.3888
 20
97.9985
 30
0.0
 41
200.0
 42
200.0
 50
270.0
210
0.0
220
0.0
230
1.0
  0
INSERT
  5
122
100
AcDbEntity
  8
1
  6
CONTINUOUS
 62
     1
100
AcDbBlockReference
  2
LDR
 10
331.3888
 20
92.0385
 30
0.0
 41
200.0
 42
200.0
 50
90.0
210
0.0
220
0.0
230
1.0
  0
LINE
  5
123
100
AcDbEntity
  8
1
  6
CONTINUOUS
 62
     1
100
AcDbLine
 10
361.2108
 20
94.5325
 30
0.0
 11
368.9068
 21
95.9685
 31
0.0
  0
LINE
  5
124
100
AcDbEntity
  8
1
  6
CONTINUOUS
 62
     1
100
AcDbLine
 10
368.9068
 20
95.9685
 30
0.0
 11
368.1208
 21
94.3965
 31
0.0
  0
LINE
  5
125
100
AcDbEntity
  8
1
  6
CONTINUOUS
 62
     1
100
AcDbLine
 10
368.1208
 20
94.3965
 30
0.0
 11
374.4068
 21
96.6885
 31
0.0
  0
LINE
  5
126
100
AcDbEntity
  8
1
  6
CONTINUOUS
 62
     1
100
AcDbLine
 10
364.8308
 20
95.2085
 30
0.0
 11
360.1988
 21
86.6685
 31
0.0
  0
LINE
  5
127
100
AcDbEntity
  8
1
  6
CONTINUOUS
 62
     1
100
AcDbLine
 10
360.1988
 20
86.6685
 30
0.0
 11
357.1928
 21
90.6105
 31
0.0
  0
INSERT
  5
128
100
AcDbEntity
  8
1
  6
CONTINUOUS
 62
     1
100
AcDbBlockReference
  2
LDR
 10
361.2108
 20
94.5325
 30
0.0
 41
199.99997
 42
199.99997
 50
190.569308
210
0.0
220
0.0
230
1.0
  0
INSERT
  5
129
100
AcDbEntity
  8
1
  6
CONTINUOUS
 62
     1
100
AcDbBlockReference
  2
LDR
 10
361.2108
 20
94.5325
 30
0.0
 41
199.99997
 42
199.99997
 50
190.569308
210
0.0
220
0.0
230
1.0
  0
INSERT
  5
12A
100
AcDbEntity
  8
1
  6
CONTINUOUS
 62
     1
100
AcDbBlockReference
  2
LDR
 10
357.1928
 20
90.6105
 30
0.0
 41
200.00001
 42
200.00001
 50
127.327574
210
0.0
220
0.0
230
1.0
  0
LINE
  5
12B
100
AcDbEntity
  8
1
  6
CONTINUOUS
 62
     1
100
AcDbLine
 10
363.6108
 20
90.8605
 30
0.0
 11
378.0088
 21
90.8605
 31
0.0
  0
LINE
  5
12C
100
AcDbEntity
  8
1
  6
CONTINUOUS
 62
     1
100
AcDbLine
 10
321.8288
 20
32.3325
 30
0.0
 11
378.0088
 21
32.3325
 31
0.0
  0
LINE
  5
12D
100
AcDbEntity
  8
1
  6
CONTINUOUS
 62
     1
100
AcDbLine
 10
375.6088
 20
32.3325
 30
0.0
 11
375.6088
 21
90.8605
 31
0.0
  0
ARC
  5
12E
100
AcDbEntity
  8
1
  6
CONTINUOUS
 62
     1
100
AcDbCircle
 10
352.5288
 20
61.8906
 30
0.0
 40
1.0027
210
0.0
220
0.0
230
1.0
100
AcDbArc
 50
35.333728
 51
144.666269
  0
ARC
  5
12F
100
AcDbEntity
  8
1
  6
CONTINUOUS
 62
     1
100
AcDbCircle
 10
350.8928
 20
62.031693
 30
0.0
 40
0.928265
210
0.0
220
0.0
230
1.0
100
AcDbArc
 50
28.210858
 51
151.789139
  0
ARC
  5
130
100
AcDbEntity
  8
1
  6
CONTINUOUS
 62
     1
100
AcDbCircle
 10
350.8928
 20
63.026708
 30
0.0
 40
0.989187
210
0.0
220
0.0
230
1.0
100
AcDbArc
 50
214.214186
 51
325.785814
  0
LWPOLYLINE
  5
131
100
AcDbEntity
  8
1
  6
CONTINUOUS
 62
     1
100
AcDbPolyline
 90
        4
 70
     1
 10
348.4888
 20
38.3585
 10
354.5428
 20
38.3585
 10
354.5428
 20
36.1205
 10
348.4888
 20
36.1205
  0
LINE
  5
132
100
AcDbEntity
  8
1
  6
CONTINUOUS
 62
     1
100
AcDbLine
 10
348.4888
 20
37.2405
 30
0.0
 11
354.5428
 21
37.2405
 31
0.0
  0
LINE
  5
133
100
AcDbEntity
  8
1
  6
CONTINUOUS
 62
     1
100
AcDbLine
 10
353.3468
 20
62.4705
 30
0.0
 11
353.3468
 21
38.3585
 31
0.0
  0
LINE
  5
134
100
AcDbEntity
  8
1
  6
CONTINUOUS
 62
     1
100
AcDbLine
 10
350.0748
 20
62.4705
 30
0.0
 11
350.0748
 21
38.3585
 31
0.0
  0
INSERT
  5
135
100
AcDbEntity
  8
1
  6
CONTINUOUS
 62
     1
100
AcDbBlockReference
  2
LDR
 10
375.6088
 20
32.3325
 30
0.0
 41
200.0
 42
200.0
 50
270.0
210
0.0
220
0.0
230
1.0
  0
INSERT
  5
136
100
AcDbEntity
  8
1
  6
CONTINUOUS
 62
     1
100
AcDbBlockReference
  2
LDR
 10
375.6088
 20
90.8605
 30
0.0
 41
200.0
 42
200.0
 50
90.0
210
0.0
220
0.0
230
1.0
  0
LINE
  5
137
100
AcDbEntity
  8
1
  6
CONTINUOUS
 62
     1
100
AcDbLine
 10
356.9428
 20
37.3805
 30
0.0
 11
367.5728
 21
37.3805
 31
0.0
  0
LINE
  5
138
100
AcDbEntity
  8
1
  6
CONTINUOUS
 62
     1
100
AcDbLine
 10
355.7468
 20
3.0985
 30
0.0
 11
367.5728
 21
3.0985
 31
0.0
  0
LINE
  5
139
100
AcDbEntity
  8
1
  6
HIDDEN
 62
     1
100
AcDbLine
 10
350.0748
 20
3.0985
 30
0.0
 11
353.3468
 21
3.0985
 31
0.0
  0
LINE
  5
13A
100
AcDbEntity
  8
1
  6
CONTINUOUS
 62
     1
100
AcDbLine
 10
365.1728
 20
37.3805
 30
0.0
 11
365.1728
 21
3.0985
 31
0.0
  0
LINE
  5
13B
100
AcDbEntity
  8
1
  6
CONTINUOUS
 62
     1
100
AcDbLine
 10
346.0888
 20
37.4885
 30
0.0
 11
340.2608
 21
37.4885
 31
0.0
  0
LINE
  5
13C
100
AcDbEntity
  8
1
  6
CONTINUOUS
 62
     1
100
AcDbLine
 10
342.6608
 20
37.4885
 30
0.0
 11
342.6608
 21
43.0005
 31
0.0
  0
LINE
  5
13D
100
AcDbEntity
  8
1
  6
CONTINUOUS
 62
     1
100
AcDbLine
 10
342.6608
 20
26.8205
 30
0.0
 11
342.6608
 21
32.3325
 31
0.0
  0
INSERT
  5
13E
100
AcDbEntity
  8
1
  6
CONTINUOUS
 62
     1
100
AcDbBlockReference
  2
LDR
 10
342.6608
 20
37.4885
 30
0.0
 41
200.0
 42
200.0
 50
270.0
210
0.0
220
0.0
230
1.0
  0
INSERT
  5
13F
100
AcDbEntity
  8
1
  6
CONTINUOUS
 62
     1
100
AcDbBlockReference
  2
LDR
 10
342.6608
 20
37.4885
 30
0.0
 41
200.0
 42
200.0
 50
270.0
210
0.0
220
0.0
230
1.0
  0
INSERT
  5
140
100
AcDbEntity
  8
1
  6
CONTINUOUS
 62
     1
100
AcDbBlockReference
  2
LDR
 10
342.6608
 20
32.3325
 30
0.0
 41
200.0
 42
200.0
 50
90.0
210
0.0
220
0.0
230
1.0
  0
INSERT
  5
141
100
AcDbEntity
  8
1
  6
CONTINUOUS
 62
     1
100
AcDbBlockReference
  2
LDR
 10
365.1728
 20
37.3805
 30
0.0
 41
200.0
 42
200.0
 50
90.0
210
0.0
220
0.0
230
1.0
  0
INSERT
  5
142
100
AcDbEntity
  8
1
  6
CONTINUOUS
 62
     1
100
AcDbBlockReference
  2
LDR
 10
365.1728
 20
3.0985
 30
0.0
 41
200.0
 42
200.0
 50
270.0
210
0.0
220
0.0
230
1.0
  0
LINE
  5
143
100
AcDbEntity
  8
1
  6
CONTINUOUS
 62
     1
100
AcDbLine
 10
350.0728
 20
76.2645
 30
0.0
 11
344.0428
 21
73.0305
 31
0.0
  0
LINE
  5
144
100
AcDbEntity
  8
1
  6
CONTINUOUS
 62
     1
100
AcDbLine
 10
344.0428
 20
73.0305
 30
0.0
 11
344.1128
 21
76.6545
 31
0.0
  0
LINE
  5
145
100
AcDbEntity
  8
1
  6
CONTINUOUS
 62
     1
100
AcDbLine
 10
344.1128
 20
76.6545
 30
0.0
 11
338.9568
 21
73.7265
 31
0.0
  0
INSERT
  5
146
100
AcDbEntity
  8
1
  6
CONTINUOUS
 62
     1
100
AcDbBlockReference
  2
LDR
 10
350.0728
 20
76.2645
 30
0.0
 41
199.999947
 42
199.999947
 50
28.205478
210
0.0
220
0.0
230
1.0
  0
LINE
  5
147
100
AcDbEntity
  8
1
  6
CONTINUOUS
 62
     1
100
AcDbLine
 10
371.1408
 20
32.2065
 30
0.0
 11
371.1408
 21
-13.7255
 31
0.0
  0
LINE
  5
148
100
AcDbEntity
  8
1
  6
CONTINUOUS
 62
     1
100
AcDbLine
 10
360.7768
 20
-13.7255
 30
0.0
 11
373.5408
 21
-13.7255
 31
0.0
  0
INSERT
  5
149
100
AcDbEntity
  8
1
  6
CONTINUOUS
 62
     1
100
AcDbBlockReference
  2
LDR
 10
371.1408
 20
32.2065
 30
0.0
 41
200.0
 42
200.0
 50
90.0
210
0.0
220
0.0
230
1.0
  0
INSERT
  5
14A
100
AcDbEntity
  8
1
  6
CONTINUOUS
 62
     1
100
AcDbBlockReference
  2
LDR
 10
371.1408
 20
-13.7255
 30
0.0
 41
200.0
 42
200.0
 50
270.0
210
0.0
220
0.0
230
1.0
  0
LINE
  5
14B
100
AcDbEntity
  8
1
  6
DASHED
 62
     1
100
AcDbLine
 10
345.0128
 20
-13.7255
 30
0.0
 11
358.3768
 21
-13.7255
 31
0.0
  0
LINE
  5
14C
100
AcDbEntity
  8
1
  6
DASHED
 62
     1
100
AcDbLine
 10
358.3768
 20
-13.7255
 30
0.0
 11
358.3768
 21
32.3325
 31
0.0
  0
LINE
  5
14D
100
AcDbEntity
  8
1
  6
CONTINUOUS
 62
     1
100
AcDbLine
 10
345.0128
 20
-16.1255
 30
0.0
 11
345.0128
 21
-21.8495
 31
0.0
  0
LINE
  5
14E
100
AcDbEntity
  8
1
  6
CONTINUOUS
 62
     1
100
AcDbLine
 10
358.3768
 20
-16.1255
 30
0.0
 11
358.3768
 21
-21.8495
 31
0.0
  0
LINE
  5
14F
100
AcDbEntity
  8
1
  6
CONTINUOUS
 62
     1
100
AcDbLine
 10
345.0128
 20
-19.4495
 30
0.0
 11
358.3768
 21
-19.4495
 31
0.0
  0
INSERT
  5
150
100
AcDbEntity
  8
1
  6
CONTINUOUS
 62
     1
100
AcDbBlockReference
  2
LDR
 10
345.0128
 20
-19.4495
 30
0.0
 41
200.0
 42
200.0
 50
180.0
210
0.0
220
0.0
230
1.0
  0
INSERT
  5
151
100
AcDbEntity
  8
1
  6
CONTINUOUS
 62
     1
100
AcDbBlockReference
  2
LDR
 10
345.0128
 20
-19.4495
 30
0.0
 41
200.0
 42
200.0
 50
180.0
210
0.0
220
0.0
230
1.0
  0
INSERT
  5
152
100
AcDbEntity
  8
1
  6
CONTINUOUS
 62
     1
100
AcDbBlockReference
  2
LDR
 10
358.3768
 20
-19.4495
 30
0.0
 41
200.0
 42
200.0
210
0.0
220
0.0
230
1.0
  0
LINE
  5
153
100
AcDbEntity
  8
1
  6
CONTINUOUS
 62
     1
100
AcDbLine
 10
350.0748
 20
36.1205
 30
0.0
 11
350.0748
 21
32.3325
 31
0.0
  0
LINE
  5
154
100
AcDbEntity
  8
1
  6
HIDDEN
 62
     1
100
AcDbLine
 10
350.0748
 20
32.3325
 30
0.0
 11
350.0748
 21
3.0985
 31
0.0
  0
LINE
  5
155
100
AcDbEntity
  8
1
  6
CONTINUOUS
 62
     1
100
AcDbLine
 10
353.3468
 20
36.1205
 30
0.0
 11
353.3468
 21
32.3325
 31
0.0
  0
LINE
  5
156
100
AcDbEntity
  8
1
  6
HIDDEN
 62
     1
100
AcDbLine
 10
353.3468
 20
32.3325
 30
0.0
 11
353.3468
 21
3.0985
 31
0.0
  0
LINE
  5
157
100
AcDbEntity
  8
1
  6
CONTINUOUS
 62
     1
100
AcDbLine
 10
245.4748
 20
136.6305
 30
0.0
 11
245.4748
 21
138.0685
 31
0.0
  0
LINE
  5
158
100
AcDbEntity
  8
1
  6
CONTINUOUS
 62
     1
100
AcDbLine
 10
245.4748
 20
151.4625
 30
0.0
 11
245.4748
 21
152.7485
 31
0.0
  0
LINE
  5
159
100
AcDbEntity
  8
1
  6
CONTINUOUS
 62
     1
100
AcDbLine
 10
247.9828
 20
136.6305
 30
0.0
 11
247.9828
 21
138.0685
 31
0.0
  0
LINE
  5
15A
100
AcDbEntity
  8
1
  6
CONTINUOUS
 62
     1
100
AcDbLine
 10
247.9828
 20
151.4625
 30
0.0
 11
247.9828
 21
152.7485
 31
0.0
  0
LINE
  5
15B
100
AcDbEntity
  8
1
  6
CONTINUOUS
 62
     1
100
AcDbLine
 10
358.6788
 20
126.4185
 30
0.0
 11
358.6788
 21
131.0305
 31
0.0
  0
LWPOLYLINE
  5
15C
100
AcDbEntity
  8
1
  6
CONTINUOUS
 62
     1
100
AcDbPolyline
 90
        4
 70
     1
 10
354.8108
 20
136.6305
 10
365.3268
 20
136.6305
 10
365.3268
 20
131.0305
 10
354.8108
 20
131.0305
  0
LWPOLYLINE
  5
15D
100
AcDbEntity
  8
1
  6
CONTINUOUS
 62
     1
100
AcDbPolyline
 90
        4
 70
     1
 10
353.2968
 20
159.4825
 10
366.3088
 20
159.4825
 10
366.3088
 20
152.7485
 10
353.2968
 20
152.7485
  0
LWPOLYLINE
  5
15E
100
AcDbEntity
  8
1
  6
CONTINUOUS
 62
     1
100
AcDbPolyline
 90
        4
 70
     1
 10
353.4508
 20
151.4625
 10
366.6888
 20
151.4625
 10
366.6888
 20
138.0685
 10
353.4508
 20
138.0685
  0
LINE
  5
15F
100
AcDbEntity
  8
1
  6
CONTINUOUS
 62
     1
100
AcDbLine
 10
353.2968
 20
161.8825
 30
0.0
 11
353.2968
 21
168.2045
 31
0.0
  0
LINE
  5
160
100
AcDbEntity
  8
1
  6
CONTINUOUS
 62
     1
100
AcDbLine
 10
349.1248
 20
161.8825
 30
0.0
 11
349.1248
 21
168.2045
 31
0.0
  0
LINE
  5
161
100
AcDbEntity
  8
1
  6
CONTINUOUS
 62
     1
100
AcDbLine
 10
353.2968
 20
165.8045
 30
0.0
 11
360.2808
 21
165.8045
 31
0.0
  0
LINE
  5
162
100
AcDbEntity
  8
1
  6
CONTINUOUS
 62
     1
100
AcDbLine
 10
342.1408
 20
165.8045
 30
0.0
 11
349.1248
 21
165.8045
 31
0.0
  0
INSERT
  5
163
100
AcDbEntity
  8
1
  6
CONTINUOUS
 62
     1
100
AcDbBlockReference
  2
LDR
 10
353.2968
 20
165.8045
 30
0.0
 41
200.0
 42
200.0
 50
180.0
210
0.0
220
0.0
230
1.0
  0
INSERT
  5
164
100
AcDbEntity
  8
1
  6
CONTINUOUS
 62
     1
100
AcDbBlockReference
  2
LDR
 10
353.2968
 20
165.8045
 30
0.0
 41
200.0
 42
200.0
 50
180.0
210
0.0
220
0.0
230
1.0
  0
INSERT
  5
165
100
AcDbEntity
  8
1
  6
CONTINUOUS
 62
     1
100
AcDbBlockReference
  2
LDR
 10
349.1248
 20
165.8045
 30
0.0
 41
200.0
 42
200.0
210
0.0
220
0.0
230
1.0
  0
LINE
  5
166
100
AcDbEntity
  8
1
  6
CONTINUOUS
 62
     1
100
AcDbLine
 10
358.6788
 20
136.6305
 30
0.0
 11
358.6788
 21
138.0685
 31
0.0
  0
LINE
  5
167
100
AcDbEntity
  8
1
  6
CONTINUOUS
 62
     1
100
AcDbLine
 10
358.6788
 20
151.4625
 30
0.0
 11
358.6788
 21
152.7485
 31
0.0
  0
LINE
  5
168
100
AcDbEntity
  8
1
  6
CONTINUOUS
 62
     1
100
AcDbLine
 10
361.1868
 20
136.6305
 30
0.0
 11
361.1868
 21
138.0685
 31
0.0
  0
LINE
  5
169
100
AcDbEntity
  8
1
  6
CONTINUOUS
 62
     1
100
AcDbLine
 10
361.1868
 20
151.4625
 30
0.0
 11
361.1868
 21
152.7485
 31
0.0
  0
LINE
  5
16A
100
AcDbEntity
  8
1
  6
CONTINUOUS
 62
     1
100
AcDbLine
 10
341.1768
 20
126.4185
 30
0.0
 11
341.1768
 21
131.0305
 31
0.0
  0
LWPOLYLINE
  5
16B
100
AcDbEntity
  8
1
  6
CONTINUOUS
 62
     1
100
AcDbPolyline
 90
        4
 70
     1
 10
337.3088
 20
136.6305
 10
347.8248
 20
136.6305
 10
347.8248
 20
131.0305
 10
337.3088
 20
131.0305
  0
LWPOLYLINE
  5
16C
100
AcDbEntity
  8
1
  6
CONTINUOUS
 62
     1
100
AcDbPolyline
 90
        4
 70
     1
 10
335.7948
 20
159.4825
 10
348.8068
 20
159.4825
 10
348.8068
 20
152.7485
 10
335.7948
 20
152.7485
  0
LWPOLYLINE
  5
16D
100
AcDbEntity
  8
1
  6
CONTINUOUS
 62
     1
100
AcDbPolyline
 90
        4
 70
     1
 10
335.9488
 20
151.4625
 10
349.1868
 20
151.4625
 10
349.1868
 20
138.0685
 10
335.9488
 20
138.0685
  0
LINE
  5
16E
100
AcDbEntity
  8
1
  6
CONTINUOUS
 62
     1
100
AcDbLine
 10
341.1768
 20
136.6305
 30
0.0
 11
341.1768
 21
138.0685
 31
0.0
  0
LINE
  5
16F
100
AcDbEntity
  8
1
  6
CONTINUOUS
 62
     1
100
AcDbLine
 10
341.1768
 20
151.4625
 30
0.0
 11
341.1768
 21
152.7485
 31
0.0
  0
LINE
  5
170
100
AcDbEntity
  8
1
  6
CONTINUOUS
 62
     1
100
AcDbLine
 10
343.6848
 20
136.6305
 30
0.0
 11
343.6848
 21
138.0685
 31
0.0
  0
LINE
  5
171
100
AcDbEntity
  8
1
  6
CONTINUOUS
 62
     1
100
AcDbLine
 10
343.6848
 20
151.4625
 30
0.0
 11
343.6848
 21
152.7485
 31
0.0
  0
LINE
  5
172
100
AcDbEntity
  8
1
  6
CONTINUOUS
 62
     1
100
AcDbLine
 10
343.6848
 20
126.4185
 30
0.0
 11
343.6848
 21
131.0305
 31
0.0
  0
LINE
  5
173
100
AcDbEntity
  8
1
  6
CONTINUOUS
 62
     1
100
AcDbLine
 10
361.1868
 20
126.4185
 30
0.0
 11
361.1868
 21
131.0305
 31
0.0
  0
LINE
  5
174
100
AcDbEntity
  8
1
  6
CONTINUOUS
 62
     1
100
AcDbLine
 10
334.9088
 20
131.0305
 30
0.0
 11
328.0588
 21
131.0305
 31
0.0
  0
LINE
  5
175
100
AcDbEntity
  8
1
  6
CONTINUOUS
 62
     1
100
AcDbLine
 10
334.9088
 20
126.4185
 30
0.0
 11
328.0588
 21
126.4185
 31
0.0
  0
LINE
  5
176
100
AcDbEntity
  8
1
  6
CONTINUOUS
 62
     1
100
AcDbLine
 10
330.4588
 20
131.0305
 30
0.0
 11
330.4588
 21
135.6205
 31
0.0
  0
LINE
  5
177
100
AcDbEntity
  8
1
  6
CONTINUOUS
 62
     1
100
AcDbLine
 10
330.4588
 20
121.8285
 30
0.0
 11
330.4588
 21
126.4185
 31
0.0
  0
INSERT
  5
178
100
AcDbEntity
  8
1
  6
CONTINUOUS
 62
     1
100
AcDbBlockReference
  2
LDR
 10
330.4588
 20
131.0305
 30
0.0
 41
200.0
 42
200.0
 50
270.0
210
0.0
220
0.0
230
1.0
  0
INSERT
  5
179
100
AcDbEntity
  8
1
  6
CONTINUOUS
 62
     1
100
AcDbBlockReference
  2
LDR
 10
330.4588
 20
126.4185
 30
0.0
 41
200.0
 42
200.0
 50
90.0
210
0.0
220
0.0
230
1.0
  0
LINE
  5
17A
100
AcDbEntity
  8
1
  6
DASHED
 62
     1
100
AcDbLine
 10
455.1288
 20
-13.7255
 30
0.0
 11
455.1288
 21
32.3325
 31
0.0
  0
LWPOLYLINE
  5
17B
100
AcDbEntity
  8
1
  6
CONTINUOUS
 62
     1
100
AcDbPolyline
 90
        4
 70
     1
 10
446.0808
 20
126.4185
 10
459.0928
 20
126.4185
 10
459.0928
 20
119.6845
 10
446.0808
 20
119.6845
  0
LWPOLYLINE
  5
17C
100
AcDbEntity
  8
1
  6
CONTINUOUS
 62
     1
100
AcDbPolyline
 90
        4
 70
     1
 10
446.2348
 20
118.3985
 10
459.4728
 20
118.3985
 10
459.4728
 20
105.0045
 10
446.2348
 20
105.0045
  0
LWPOLYLINE
  5
17D
100
AcDbEntity
  8
1
  6
CONTINUOUS
 62
     1
100
AcDbPolyline
 90
        4
 70
     1
 10
447.5948
 20
103.5665
 10
458.1108
 20
103.5665
 10
458.1108
 20
97.9665
 10
447.5948
 20
97.9665
  0
LINE
  5
17E
100
AcDbEntity
  8
1
  6
CONTINUOUS
 62
     1
100
AcDbLine
 10
451.2928
 20
119.6845
 30
0.0
 11
451.2928
 21
118.3985
 31
0.0
  0
LINE
  5
17F
100
AcDbEntity
  8
1
  6
CONTINUOUS
 62
     1
100
AcDbLine
 10
453.8008
 20
119.6845
 30
0.0
 11
453.8008
 21
118.3985
 31
0.0
  0
LINE
  5
180
100
AcDbEntity
  8
1
  6
CONTINUOUS
 62
     1
100
AcDbLine
 10
451.5288
 20
105.0045
 30
0.0
 11
451.5288
 21
103.5665
 31
0.0
  0
LINE
  5
181
100
AcDbEntity
  8
1
  6
CONTINUOUS
 62
     1
100
AcDbLine
 10
453.9728
 20
105.0045
 30
0.0
 11
453.9728
 21
103.5665
 31
0.0
  0
LWPOLYLINE
  5
182
100
AcDbEntity
  8
1
  6
CONTINUOUS
 62
     1
100
AcDbPolyline
 90
        4
 70
     1
 10
463.5828
 20
126.4185
 10
476.5948
 20
126.4185
 10
476.5948
 20
119.6845
 10
463.5828
 20
119.6845
  0
LWPOLYLINE
  5
183
100
AcDbEntity
  8
1
  6
CONTINUOUS
 62
     1
100
AcDbPolyline
 90
        4
 70
     1
 10
463.7368
 20
118.3985
 10
476.9748
 20
118.3985
 10
476.9748
 20
105.0045
 10
463.7368
 20
105.0045
  0
LWPOLYLINE
  5
184
100
AcDbEntity
  8
1
  6
CONTINUOUS
 62
     1
100
AcDbPolyline
 90
        4
 70
     1
 10
465.0968
 20
103.5665
 10
475.6128
 20
103.5665
 10
475.6128
 20
97.9665
 10
465.0968
 20
97.9665
  0
LINE
  5
185
100
AcDbEntity
  8
1
  6
CONTINUOUS
 62
     1
100
AcDbLine
 10
468.7948
 20
119.6845
 30
0.0
 11
468.7948
 21
118.3985
 31
0.0
  0
LINE
  5
186
100
AcDbEntity
  8
1
  6
CONTINUOUS
 62
     1
100
AcDbLine
 10
471.3028
 20
119.6845
 30
0.0
 11
471.3028
 21
118.3985
 31
0.0
  0
LINE
  5
187
100
AcDbEntity
  8
1
  6
CONTINUOUS
 62
     1
100
AcDbLine
 10
469.0308
 20
105.0045
 30
0.0
 11
469.0308
 21
103.5665
 31
0.0
  0
LINE
  5
188
100
AcDbEntity
  8
1
  6
CONTINUOUS
 62
     1
100
AcDbLine
 10
471.4748
 20
105.0045
 30
0.0
 11
471.4748
 21
103.5665
 31
0.0
  0
LINE
  5
189
100
AcDbEntity
  8
1
  6
CONTINUOUS
 62
     1
100
AcDbLine
 10
453.9948
 20
93.3545
 30
0.0
 11
468.9648
 21
93.3545
 31
0.0
  0
LINE
  5
18A
100
AcDbEntity
  8
1
  6
CONTINUOUS
 62
     1
100
AcDbLine
 10
451.3908
 20
90.6105
 30
0.0
 11
451.3908
 21
97.9665
 31
0.0
  0
LINE
  5
18B
100
AcDbEntity
  8
1
  6
CONTINUOUS
 62
     1
100
AcDbLine
 10
453.9948
 20
93.3545
 30
0.0
 11
453.9948
 21
97.9665
 31
0.0
  0
LINE
  5
18C
100
AcDbEntity
  8
1
  6
CONTINUOUS
 62
     1
100
AcDbLine
 10
468.9648
 20
93.3545
 30
0.0
 11
468.9648
 21
97.9665
 31
0.0
  0
LINE
  5
18D
100
AcDbEntity
  8
1
  6
CONTINUOUS
 62
     1
100
AcDbLine
 10
471.3268
 20
90.6105
 30
0.0
 11
471.3268
 21
97.9665
 31
0.0
  0
LINE
  5
18E
100
AcDbEntity
  8
1
  6
CONTINUOUS
 62
     1
100
AcDbLine
 10
463.4628
 20
69.7065
 30
0.0
 11
463.4628
 21
90.6105
 31
0.0
  0
LINE
  5
18F
100
AcDbEntity
  8
1
  6
CONTINUOUS
 62
     1
100
AcDbLine
 10
451.3908
 20
90.6105
 30
0.0
 11
460.1888
 21
90.6105
 31
0.0
  0
LINE
  5
190
100
AcDbEntity
  8
1
  6
CONTINUOUS
 62
     1
100
AcDbLine
 10
463.4628
 20
90.6105
 30
0.0
 11
471.3008
 21
90.6105
 31
0.0
  0
LINE
  5
191
100
AcDbEntity
  8
1
  6
CONTINUOUS
 62
     1
100
AcDbLine
 10
460.1888
 20
69.7065
 30
0.0
 11
460.1888
 21
90.6105
 31
0.0
  0
ARC
  5
192
100
AcDbEntity
  8
1
  6
CONTINUOUS
 62
     1
100
AcDbCircle
 10
461.8258
 20
89.2283
 30
0.0
 40
2.142486
210
0.0
220
0.0
230
1.0
100
AcDbArc
 50
40.176056
 51
139.823944
  0
ARC
  5
193
100
AcDbEntity
  8
1
  6
CONTINUOUS
 62
     1
100
AcDbCircle
 10
462.6448
 20
70.2864
 30
0.0
 40
1.0027
210
0.0
220
0.0
230
1.0
100
AcDbArc
 50
215.333731
 51
324.666272
  0
ARC
  5
194
100
AcDbEntity
  8
1
  6
CONTINUOUS
 62
     1
100
AcDbCircle
 10
461.0088
 20
70.145307
 30
0.0
 40
0.928265
210
0.0
220
0.0
230
1.0
100
AcDbArc
 50
208.210861
 51
331.789142
  0
ARC
  5
195
100
AcDbEntity
  8
1
  6
CONTINUOUS
 62
     1
100
AcDbCircle
 10
461.0088
 20
69.150292
 30
0.0
 40
0.989187
210
0.0
220
0.0
230
1.0
100
AcDbArc
 50
34.214186
 51
145.785814
  0
LINE
  5
196
100
AcDbEntity
  8
1
  6
CONTINUOUS
 62
     1
100
AcDbLine
 10
445.1948
 20
97.9665
 30
0.0
 11
439.1048
 21
97.9665
 31
0.0
  0
LINE
  5
197
100
AcDbEntity
  8
1
  6
CONTINUOUS
 62
     1
100
AcDbLine
 10
453.7908
 20
92.0385
 30
0.0
 11
439.1048
 21
92.0385
 31
0.0
  0
LINE
  5
198
100
AcDbEntity
  8
1
  6
CONTINUOUS
 62
     1
100
AcDbLine
 10
441.5048
 20
97.9985
 30
0.0
 11
441.5048
 21
103.4985
 31
0.0
  0
LINE
  5
199
100
AcDbEntity
  8
1
  6
CONTINUOUS
 62
     1
100
AcDbLine
 10
441.5048
 20
86.5385
 30
0.0
 11
441.5048
 21
92.0385
 31
0.0
  0
INSERT
  5
19A
100
AcDbEntity
  8
1
  6
CONTINUOUS
 62
     1
100
AcDbBlockReference
  2
LDR
 10
441.5048
 20
97.9985
 30
0.0
 41
200.0
 42
200.0
 50
270.0
210
0.0
220
0.0
230
1.0
  0
INSERT
  5
19B
100
AcDbEntity
  8
1
  6
CONTINUOUS
 62
     1
100
AcDbBlockReference
  2
LDR
 10
441.5048
 20
97.9985
 30
0.0
 41
200.0
 42
200.0
 50
270.0
210
0.0
220
0.0
230
1.0
  0
INSERT
  5
19C
100
AcDbEntity
  8
1
  6
CONTINUOUS
 62
     1
100
AcDbBlockReference
  2
LDR
 10
441.5048
 20
92.0385
 30
0.0
 41
200.0
 42
200.0
 50
90.0
210
0.0
220
0.0
230
1.0
  0
LINE
  5
19D
100
AcDbEntity
  8
1
  6
CONTINUOUS
 62
     1
100
AcDbLine
 10
471.3268
 20
94.5325
 30
0.0
 11
479.0228
 21
95.9685
 31
0.0
  0
LINE
  5
19E
100
AcDbEntity
  8
1
  6
CONTINUOUS
 62
     1
100
AcDbLine
 10
479.0228
 20
95.9685
 30
0.0
 11
478.2368
 21
94.3965
 31
0.0
  0
LINE
  5
19F
100
AcDbEntity
  8
1
  6
CONTINUOUS
 62
     1
100
AcDbLine
 10
478.2368
 20
94.3965
 30
0.0
 11
484.5228
 21
96.6885
 31
0.0
  0
LINE
  5
1A0
100
AcDbEntity
  8
1
  6
CONTINUOUS
 62
     1
100
AcDbLine
 10
474.9468
 20
95.2085
 30
0.0
 11
470.3148
 21
86.6685
 31
0.0
  0
LINE
  5
1A1
100
AcDbEntity
  8
1
  6
CONTINUOUS
 62
     1
100
AcDbLine
 10
470.3148
 20
86.6685
 30
0.0
 11
467.3088
 21
90.6105
 31
0.0
  0
INSERT
  5
1A2
100
AcDbEntity
  8
1
  6
CONTINUOUS
 62
     1
100
AcDbBlockReference
  2
LDR
 10
471.3268
 20
94.5325
 30
0.0
 41
199.99997
 42
199.99997
 50
190.569308
210
0.0
220
0.0
230
1.0
  0
INSERT
  5
1A3
100
AcDbEntity
  8
1
  6
CONTINUOUS
 62
     1
100
AcDbBlockReference
  2
LDR
 10
471.3268
 20
94.5325
 30
0.0
 41
199.99997
 42
199.99997
 50
190.569308
210
0.0
220
0.0
230
1.0
  0
INSERT
  5
1A4
100
AcDbEntity
  8
1
  6
CONTINUOUS
 62
     1
100
AcDbBlockReference
  2
LDR
 10
467.3088
 20
90.6105
 30
0.0
 41
200.00001
 42
200.00001
 50
127.327574
210
0.0
220
0.0
230
1.0
  0
LINE
  5
1A5
100
AcDbEntity
  8
1
  6
CONTINUOUS
 62
     1
100
AcDbLine
 10
473.7268
 20
90.8605
 30
0.0
 11
488.1248
 21
90.8605
 31
0.0
  0
LINE
  5
1A6
100
AcDbEntity
  8
1
  6
CONTINUOUS
 62
     1
100
AcDbLine
 10
431.9448
 20
32.3325
 30
0.0
 11
488.1248
 21
32.3325
 31
0.0
  0
LINE
  5
1A7
100
AcDbEntity
  8
1
  6
CONTINUOUS
 62
     1
100
AcDbLine
 10
485.7248
 20
32.3325
 30
0.0
 11
485.7248
 21
90.8605
 31
0.0
  0
ARC
  5
1A8
100
AcDbEntity
  8
1
  6
CONTINUOUS
 62
     1
100
AcDbCircle
 10
462.6448
 20
61.8906
 30
0.0
 40
1.0027
210
0.0
220
0.0
230
1.0
100
AcDbArc
 50
35.333728
 51
144.666269
  0
ARC
  5
1A9
100
AcDbEntity
  8
1
  6
CONTINUOUS
 62
     1
100
AcDbCircle
 10
461.0088
 20
62.031693
 30
0.0
 40
0.928265
210
0.0
220
0.0
230
1.0
100
AcDbArc
 50
28.210858
 51
151.789139
  0
ARC
  5
1AA
100
AcDbEntity
  8
1
  6
CONTINUOUS
 62
     1
100
AcDbCircle
 10
461.0088
 20
63.026708
 30
0.0
 40
0.989187
210
0.0
220
0.0
230
1.0
100
AcDbArc
 50
214.214186
 51
325.785814
  0
LWPOLYLINE
  5
1AB
100
AcDbEntity
  8
1
  6
CONTINUOUS
 62
     1
100
AcDbPolyline
 90
        4
 70
     1
 10
458.6048
 20
38.3585
 10
464.6588
 20
38.3585
 10
464.6588
 20
36.1205
 10
458.6048
 20
36.1205
  0
LINE
  5
1AC
100
AcDbEntity
  8
1
  6
CONTINUOUS
 62
     1
100
AcDbLine
 10
458.6048
 20
37.2405
 30
0.0
 11
464.6588
 21
37.2405
 31
0.0
  0
LINE
  5
1AD
100
AcDbEntity
  8
1
  6
CONTINUOUS
 62
     1
100
AcDbLine
 10
463.4628
 20
62.4705
 30
0.0
 11
463.4628
 21
38.3585
 31
0.0
  0
LINE
  5
1AE
100
AcDbEntity
  8
1
  6
CONTINUOUS
 62
     1
100
AcDbLine
 10
460.1908
 20
62.4705
 30
0.0
 11
460.1908
 21
38.3585
 31
0.0
  0
INSERT
  5
1AF
100
AcDbEntity
  8
1
  6
CONTINUOUS
 62
     1
100
AcDbBlockReference
  2
LDR
 10
485.7248
 20
32.3325
 30
0.0
 41
200.0
 42
200.0
 50
270.0
210
0.0
220
0.0
230
1.0
  0
INSERT
  5
1B0
100
AcDbEntity
  8
1
  6
CONTINUOUS
 62
     1
100
AcDbBlockReference
  2
LDR
 10
485.7248
 20
90.8605
 30
0.0
 41
200.0
 42
200.0
 50
90.0
210
0.0
220
0.0
230
1.0
  0
LINE
  5
1B1
100
AcDbEntity
  8
1
  6
CONTINUOUS
 62
     1
100
AcDbLine
 10
467.0588
 20
37.3805
 30
0.0
 11
477.6888
 21
37.3805
 31
0.0
  0
LINE
  5
1B2
100
AcDbEntity
  8
1
  6
CONTINUOUS
 62
     1
100
AcDbLine
 10
465.8628
 20
3.0985
 30
0.0
 11
477.6888
 21
3.0985
 31
0.0
  0
LINE
  5
1B3
100
AcDbEntity
  8
1
  6
HIDDEN
 62
     1
100
AcDbLine
 10
460.1908
 20
3.0985
 30
0.0
 11
463.4628
 21
3.0985
 31
0.0
  0
LINE
  5
1B4
100
AcDbEntity
  8
1
  6
CONTINUOUS
 62
     1
100
AcDbLine
 10
475.2888
 20
37.3805
 30
0.0
 11
475.2888
 21
3.0985
 31
0.0
  0
LINE
  5
1B5
100
AcDbEntity
  8
1
  6
CONTINUOUS
 62
     1
100
AcDbLine
 10
456.2048
 20
37.4885
 30
0.0
 11
450.3768
 21
37.4885
 31
0.0
  0
LINE
  5
1B6
100
AcDbEntity
  8
1
  6
CONTINUOUS
 62
     1
100
AcDbLine
 10
452.7768
 20
37.4885
 30
0.0
 11
452.7768
 21
43.0005
 31
0.0
  0
LINE
  5
1B7
100
AcDbEntity
  8
1
  6
CONTINUOUS
 62
     1
100
AcDbLine
 10
452.7768
 20
26.8205
 30
0.0
 11
452.7768
 21
32.3325
 31
0.0
  0
INSERT
  5
1B8
100
AcDbEntity
  8
1
  6
CONTINUOUS
 62
     1
100
AcDbBlockReference
  2
LDR
 10
452.7768
 20
37.4885
 30
0.0
 41
200.0
 42
200.0
 50
270.0
210
0.0
220
0.0
230
1.0
  0
INSERT
  5
1B9
100
AcDbEntity
  8
1
  6
CONTINUOUS
 62
     1
100
AcDbBlockReference
  2
LDR
 10
452.7768
 20
37.4885
 30
0.0
 41
200.0
 42
200.0
 50
270.0
210
0.0
220
0.0
230
1.0
  0
INSERT
  5
1BA
100
AcDbEntity
  8
1
  6
CONTINUOUS
 62
     1
100
AcDbBlockReference
  2
LDR
 10
452.7768
 20
32.3325
 30
0.0
 41
200.0
 42
200.0
 50
90.0
210
0.0
220
0.0
230
1.0
  0
INSERT
  5
1BB
100
AcDbEntity
  8
1
  6
CONTINUOUS
 62
     1
100
AcDbBlockReference
  2
LDR
 10
475.2888
 20
37.3805
 30
0.0
 41
200.0
 42
200.0
 50
90.0
210
0.0
220
0.0
230
1.0
  0
INSERT
  5
1BC
100
AcDbEntity
  8
1
  6
CONTINUOUS
 62
     1
100
AcDbBlockReference
  2
LDR
 10
475.2888
 20
3.0985
 30
0.0
 41
200.0
 42
200.0
 50
270.0
210
0.0
220
0.0
230
1.0
  0
LINE
  5
1BD
100
AcDbEntity
  8
1
  6
CONTINUOUS
 62
     1
100
AcDbLine
 10
460.1888
 20
76.2645
 30
0.0
 11
454.1588
 21
73.0305
 31
0.0
  0
LINE
  5
1BE
100
AcDbEntity
  8
1
  6
CONTINUOUS
 62
     1
100
AcDbLine
 10
454.1588
 20
73.0305
 30
0.0
 11
454.2288
 21
76.6545
 31
0.0
  0
LINE
  5
1BF
100
AcDbEntity
  8
1
  6
CONTINUOUS
 62
     1
100
AcDbLine
 10
454.2288
 20
76.6545
 30
0.0
 11
449.0728
 21
73.7265
 31
0.0
  0
INSERT
  5
1C0
100
AcDbEntity
  8
1
  6
CONTINUOUS
 62
     1
100
AcDbBlockReference
  2
LDR
 10
460.1888
 20
76.2645
 30
0.0
 41
199.999947
 42
199.999947
 50
28.205478
210
0.0
220
0.0
230
1.0
  0
LINE
  5
1C1
100
AcDbEntity
  8
1
  6
CONTINUOUS
 62
     1
100
AcDbLine
 10
481.2568
 20
32.2065
 30
0.0
 11
481.2568
 21
-13.7255
 31
0.0
  0
LINE
  5
1C2
100
AcDbEntity
  8
1
  6
CONTINUOUS
 62
     1
100
AcDbLine
 10
470.8928
 20
-13.7255
 30
0.0
 11
483.6568
 21
-13.7255
 31
0.0
  0
INSERT
  5
1C3
100
AcDbEntity
  8
1
  6
CONTINUOUS
 62
     1
100
AcDbBlockReference
  2
LDR
 10
481.2568
 20
32.2065
 30
0.0
 41
200.0
 42
200.0
 50
90.0
210
0.0
220
0.0
230
1.0
  0
INSERT
  5
1C4
100
AcDbEntity
  8
1
  6
CONTINUOUS
 62
     1
100
AcDbBlockReference
  2
LDR
 10
481.2568
 20
-13.7255
 30
0.0
 41
200.0
 42
200.0
 50
270.0
210
0.0
220
0.0
230
1.0
  0
LINE
  5
1C5
100
AcDbEntity
  8
1
  6
DASHED
 62
     1
100
AcDbLine
 10
455.1288
 20
-13.7255
 30
0.0
 11
468.4928
 21
-13.7255
 31
0.0
  0
LINE
  5
1C6
100
AcDbEntity
  8
1
  6
DASHED
 62
     1
100
AcDbLine
 10
468.4928
 20
-13.7255
 30
0.0
 11
468.4928
 21
32.3325
 31
0.0
  0
LINE
  5
1C7
100
AcDbEntity
  8
1
  6
CONTINUOUS
 62
     1
100
AcDbLine
 10
455.1288
 20
-16.1255
 30
0.0
 11
455.1288
 21
-21.8495
 31
0.0
  0
LINE
  5
1C8
100
AcDbEntity
  8
1
  6
CONTINUOUS
 62
     1
100
AcDbLine
 10
468.4928
 20
-16.1255
 30
0.0
 11
468.4928
 21
-21.8495
 31
0.0
  0
LINE
  5
1C9
100
AcDbEntity
  8
1
  6
CONTINUOUS
 62
     1
100
AcDbLine
 10
455.1288
 20
-19.4495
 30
0.0
 11
468.4928
 21
-19.4495
 31
0.0
  0
INSERT
  5
1CA
100
AcDbEntity
  8
1
  6
CONTINUOUS
 62
     1
100
AcDbBlockReference
  2
LDR
 10
455.1288
 20
-19.4495
 30
0.0
 41
200.0
 42
200.0
 50
180.0
210
0.0
220
0.0
230
1.0
  0
INSERT
  5
1CB
100
AcDbEntity
  8
1
  6
CONTINUOUS
 62
     1
100
AcDbBlockReference
  2
LDR
 10
455.1288
 20
-19.4495
 30
0.0
 41
200.0
 42
200.0
 50
180.0
210
0.0
220
0.0
230
1.0
  0
INSERT
  5
1CC
100
AcDbEntity
  8
1
  6
CONTINUOUS
 62
     1
100
AcDbBlockReference
  2
LDR
 10
468.4928
 20
-19.4495
 30
0.0
 41
200.0
 42
200.0
210
0.0
220
0.0
230
1.0
  0
LINE
  5
1CD
100
AcDbEntity
  8
1
  6
CONTINUOUS
 62
     1
100
AcDbLine
 10
460.1908
 20
36.1205
 30
0.0
 11
460.1908
 21
32.3325
 31
0.0
  0
LINE
  5
1CE
100
AcDbEntity
  8
1
  6
HIDDEN
 62
     1
100
AcDbLine
 10
460.1908
 20
32.3325
 30
0.0
 11
460.1908
 21
3.0985
 31
0.0
  0
LINE
  5
1CF
100
AcDbEntity
  8
1
  6
CONTINUOUS
 62
     1
100
AcDbLine
 10
463.4628
 20
36.1205
 30
0.0
 11
463.4628
 21
32.3325
 31
0.0
  0
LINE
  5
1D0
100
AcDbEntity
  8
1
  6
HIDDEN
 62
     1
100
AcDbLine
 10
463.4628
 20
32.3325
 30
0.0
 11
463.4628
 21
3.0985
 31
0.0
  0
LINE
  5
1D1
100
AcDbEntity
  8
1
  6
CONTINUOUS
 62
     1
100
AcDbLine
 10
468.7948
 20
126.4185
 30
0.0
 11
468.7948
 21
131.0305
 31
0.0
  0
LWPOLYLINE
  5
1D2
100
AcDbEntity
  8
1
  6
CONTINUOUS
 62
     1
100
AcDbPolyline
 90
        4
 70
     1
 10
464.9268
 20
136.6305
 10
475.4428
 20
136.6305
 10
475.4428
 20
131.0305
 10
464.9268
 20
131.0305
  0
LWPOLYLINE
  5
1D3
100
AcDbEntity
  8
1
  6
CONTINUOUS
 62
     1
100
AcDbPolyline
 90
        4
 70
     1
 10
463.4128
 20
159.4825
 10
476.4248
 20
159.4825
 10
476.4248
 20
152.7485
 10
463.4128
 20
152.7485
  0
LWPOLYLINE
  5
1D4
100
AcDbEntity
  8
1
  6
CONTINUOUS
 62
     1
100
AcDbPolyline
 90
        4
 70
     1
 10
463.5668
 20
151.4625
 10
476.8048
 20
151.4625
 10
476.8048
 20
138.0685
 10
463.5668
 20
138.0685
  0
LINE
  5
1D5
100
AcDbEntity
  8
1
  6
CONTINUOUS
 62
     1
100
AcDbLine
 10
468.7948
 20
136.6305
 30
0.0
 11
468.7948
 21
138.0685
 31
0.0
  0
LINE
  5
1D6
100
AcDbEntity
  8
1
  6
CONTINUOUS
 62
     1
100
AcDbLine
 10
468.7948
 20
151.4625
 30
0.0
 11
468.7948
 21
152.7485
 31
0.0
  0
LINE
  5
1D7
100
AcDbEntity
  8
1
  6
CONTINUOUS
 62
     1
100
AcDbLine
 10
471.3028
 20
136.6305
 30
0.0
 11
471.3028
 21
138.0685
 31
0.0
  0
LINE
  5
1D8
100
AcDbEntity
  8
1
  6
CONTINUOUS
 62
     1
100
AcDbLine
 10
471.3028
 20
151.4625
 30
0.0
 11
471.3028
 21
152.7485
 31
0.0
  0
LINE
  5
1D9
100
AcDbEntity
  8
1
  6
CONTINUOUS
 62
     1
100
AcDbLine
 10
451.2928
 20
126.4185
 30
0.0
 11
451.2928
 21
131.0305
 31
0.0
  0
LWPOLYLINE
  5
1DA
100
AcDbEntity
  8
1
  6
CONTINUOUS
 62
     1
100
AcDbPolyline
 90
        4
 70
     1
 10
447.4248
 20
136.6305
 10
457.9408
 20
136.6305
 10
457.9408
 20
131.0305
 10
447.4248
 20
131.0305
  0
LWPOLYLINE
  5
1DB
100
AcDbEntity
  8
1
  6
CONTINUOUS
 62
     1
100
AcDbPolyline
 90
        4
 70
     1
 10
445.9108
 20
159.4825
 10
458.9228
 20
159.4825
 10
458.9228
 20
152.7485
 10
445.9108
 20
152.7485
  0
LWPOLYLINE
  5
1DC
100
AcDbEntity
  8
1
  6
CONTINUOUS
 62
     1
100
AcDbPolyline
 90
        4
 70
     1
 10
446.0648
 20
151.4625
 10
459.3028
 20
151.4625
 10
459.3028
 20
138.0685
 10
446.0648
 20
138.0685
  0
LINE
  5
1DD
100
AcDbEntity
  8
1
  6
CONTINUOUS
 62
     1
100
AcDbLine
 10
451.2928
 20
136.6305
 30
0.0
 11
451.2928
 21
138.0685
 31
0.0
  0
LINE
  5
1DE
100
AcDbEntity
  8
1
  6
CONTINUOUS
 62
     1
100
AcDbLine
 10
451.2928
 20
151.4625
 30
0.0
 11
451.2928
 21
152.7485
 31
0.0
  0
LINE
  5
1DF
100
AcDbEntity
  8
1
  6
CONTINUOUS
 62
     1
100
AcDbLine
 10
453.8008
 20
136.6305
 30
0.0
 11
453.8008
 21
138.0685
 31
0.0
  0
LINE
  5
1E0
100
AcDbEntity
  8
1
  6
CONTINUOUS
 62
     1
100
AcDbLine
 10
453.8008
 20
151.4625
 30
0.0
 11
453.8008
 21
152.7485
 31
0.0
  0
LINE
  5
1E1
100
AcDbEntity
  8
1
  6
CONTINUOUS
 62
     1
100
AcDbLine
 10
453.8008
 20
126.4185
 30
0.0
 11
453.8008
 21
131.0305
 31
0.0
  0
LINE
  5
1E2
100
AcDbEntity
  8
1
  6
CONTINUOUS
 62
     1
100
AcDbLine
 10
471.3028
 20
126.4185
 30
0.0
 11
471.3028
 21
131.0305
 31
0.0
  0
LINE
  5
1E3
100
AcDbEntity
  8
1
  6
CONTINUOUS
 62
     1
100
AcDbLine
 10
445.0248
 20
131.0305
 30
0.0
 11
438.1748
 21
131.0305
 31
0.0
  0
LINE
  5
1E4
100
AcDbEntity
  8
1
  6
CONTINUOUS
 62
     1
100
AcDbLine
 10
445.0248
 20
126.4185
 30
0.0
 11
438.1748
 21
126.4185
 31
0.0
  0
LINE
  5
1E5
100
AcDbEntity
  8
1
  6
CONTINUOUS
 62
     1
100
AcDbLine
 10
440.5748
 20
131.0305
 30
0.0
 11
440.5748
 21
135.6205
 31
0.0
  0
LINE
  5
1E6
100
AcDbEntity
  8
1
  6
CONTINUOUS
 62
     1
100
AcDbLine
 10
440.5748
 20
121.8285
 30
0.0
 11
440.5748
 21
126.4185
 31
0.0
  0
INSERT
  5
1E7
100
AcDbEntity
  8
1
  6
CONTINUOUS
 62
     1
100
AcDbBlockReference
  2
LDR
 10
440.5748
 20
131.0305
 30
0.0
 41
200.0
 42
200.0
 50
270.0
210
0.0
220
0.0
230
1.0
  0
INSERT
  5
1E8
100
AcDbEntity
  8
1
  6
CONTINUOUS
 62
     1
100
AcDbBlockReference
  2
LDR
 10
440.5748
 20
126.4185
 30
0.0
 41
200.0
 42
200.0
 50
90.0
210
0.0
220
0.0
230
1.0
  0
LINE
  5
1E9
100
AcDbEntity
  8
1
  6
CONTINUOUS
 62
     1
100
AcDbLine
 10
471.3028
 20
159.4825
 30
0.0
 11
471.3028
 21
164.0945
 31
0.0
  0
LINE
  5
1EA
100
AcDbEntity
  8
1
  6
CONTINUOUS
 62
     1
100
AcDbLine
 10
468.7948
 20
159.4825
 30
0.0
 11
468.7948
 21
164.0945
 31
0.0
  0
LWPOLYLINE
  5
1EB
100
AcDbEntity
  8
1
  6
CONTINUOUS
 62
     1
100
AcDbPolyline
 90
        4
 70
     1
 10
464.9268
 20
169.6945
 10
475.4428
 20
169.6945
 10
475.4428
 20
164.0945
 10
464.9268
 20
164.0945
  0
LWPOLYLINE
  5
1EC
100
AcDbEntity
  8
1
  6
CONTINUOUS
 62
     1
100
AcDbPolyline
 90
        4
 70
     1
 10
463.4128
 20
192.5465
 10
476.4248
 20
192.5465
 10
476.4248
 20
185.8125
 10
463.4128
 20
185.8125
  0
LWPOLYLINE
  5
1ED
100
AcDbEntity
  8
1
  6
CONTINUOUS
 62
     1
100
AcDbPolyline
 90
        4
 70
     1
 10
463.5668
 20
184.5265
 10
476.8048
 20
184.5265
 10
476.8048
 20
171.1325
 10
463.5668
 20
171.1325
  0
LINE
  5
1EE
100
AcDbEntity
  8
1
  6
CONTINUOUS
 62
     1
100
AcDbLine
 10
463.4128
 20
194.9465
 30
0.0
 11
463.4128
 21
201.2685
 31
0.0
  0
LINE
  5
1EF
100
AcDbEntity
  8
1
  6
CONTINUOUS
 62
     1
100
AcDbLine
 10
459.2408
 20
194.9465
 30
0.0
 11
459.2408
 21
201.2685
 31
0.0
  0
LINE
  5
1F0
100
AcDbEntity
  8
1
  6
CONTINUOUS
 62
     1
100
AcDbLine
 10
463.4128
 20
198.8685
 30
0.0
 11
470.3968
 21
198.8685
 31
0.0
  0
LINE
  5
1F1
100
AcDbEntity
  8
1
  6
CONTINUOUS
 62
     1
100
AcDbLine
 10
452.2568
 20
198.8685
 30
0.0
 11
459.2408
 21
198.8685
 31
0.0
  0
INSERT
  5
1F2
100
AcDbEntity
  8
1
  6
CONTINUOUS
 62
     1
100
AcDbBlockReference
  2
LDR
 10
463.4128
 20
198.8685
 30
0.0
 41
200.0
 42
200.0
 50
180.0
210
0.0
220
0.0
230
1.0
  0
INSERT
  5
1F3
100
AcDbEntity
  8
1
  6
CONTINUOUS
 62
     1
100
AcDbBlockReference
  2
LDR
 10
463.4128
 20
198.8685
 30
0.0
 41
200.0
 42
200.0
 50
180.0
210
0.0
220
0.0
230
1.0
  0
INSERT
  5
1F4
100
AcDbEntity
  8
1
  6
CONTINUOUS
 62
     1
100
AcDbBlockReference
  2
LDR
 10
459.2408
 20
198.8685
 30
0.0
 41
200.0
 42
200.0
210
0.0
220
0.0
230
1.0
  0
LINE
  5
1F5
100
AcDbEntity
  8
1
  6
CONTINUOUS
 62
     1
100
AcDbLine
 10
468.7948
 20
169.6945
 30
0.0
 11
468.7948
 21
171.1325
 31
0.0
  0
LINE
  5
1F6
100
AcDbEntity
  8
1
  6
CONTINUOUS
 62
     1
100
AcDbLine
 10
468.7948
 20
184.5265
 30
0.0
 11
468.7948
 21
185.8125
 31
0.0
  0
LINE
  5
1F7
100
AcDbEntity
  8
1
  6
CONTINUOUS
 62
     1
100
AcDbLine
 10
471.3028
 20
169.6945
 30
0.0
 11
471.3028
 21
171.1325
 31
0.0
  0
LINE
  5
1F8
100
AcDbEntity
  8
1
  6
CONTINUOUS
 62
     1
100
AcDbLine
 10
471.3028
 20
184.5265
 30
0.0
 11
471.3028
 21
185.8125
 31
0.0
  0
LWPOLYLINE
  5
1F9
100
AcDbEntity
  8
1
  6
CONTINUOUS
 62
     1
100
AcDbPolyline
 90
        4
 70
     1
 10
447.4248
 20
169.6945
 10
457.9408
 20
169.6945
 10
457.9408
 20
164.0945
 10
447.4248
 20
164.0945
  0
LWPOLYLINE
  5
1FA
100
AcDbEntity
  8
1
  6
CONTINUOUS
 62
     1
100
AcDbPolyline
 90
        4
 70
     1
 10
445.9108
 20
192.5465
 10
458.9228
 20
192.5465
 10
458.9228
 20
185.8125
 10
445.9108
 20
185.8125
  0
LWPOLYLINE
  5
1FB
100
AcDbEntity
  8
1
  6
CONTINUOUS
 62
     1
100
AcDbPolyline
 90
        4
 70
     1
 10
446.0648
 20
184.5265
 10
459.3028
 20
184.5265
 10
459.3028
 20
171.1325
 10
446.0648
 20
171.1325
  0
LINE
  5
1FC
100
AcDbEntity
  8
1
  6
CONTINUOUS
 62
     1
100
AcDbLine
 10
451.2928
 20
169.6945
 30
0.0
 11
451.2928
 21
171.1325
 31
0.0
  0
LINE
  5
1FD
100
AcDbEntity
  8
1
  6
CONTINUOUS
 62
     1
100
AcDbLine
 10
451.2928
 20
184.5265
 30
0.0
 11
451.2928
 21
185.8125
 31
0.0
  0
LINE
  5
1FE
100
AcDbEntity
  8
1
  6
CONTINUOUS
 62
     1
100
AcDbLine
 10
453.8008
 20
169.6945
 30
0.0
 11
453.8008
 21
171.1325
 31
0.0
  0
LINE
  5
1FF
100
AcDbEntity
  8
1
  6
CONTINUOUS
 62
     1
100
AcDbLine
 10
453.8008
 20
184.5265
 30
0.0
 11
453.8008
 21
185.8125
 31
0.0
  0
LINE
  5
200
100
AcDbEntity
  8
1
  6
CONTINUOUS
 62
     1
100
AcDbLine
 10
445.0248
 20
164.0945
 30
0.0
 11
438.1748
 21
164.0945
 31
0.0
  0
LINE
  5
201
100
AcDbEntity
  8
1
  6
CONTINUOUS
 62
     1
100
AcDbLine
 10
445.0248
 20
159.4825
 30
0.0
 11
438.1748
 21
159.4825
 31
0.0
  0
LINE
  5
202
100
AcDbEntity
  8
1
  6
CONTINUOUS
 62
     1
100
AcDbLine
 10
440.5748
 20
164.0945
 30
0.0
 11
440.5748
 21
168.6845
 31
0.0
  0
LINE
  5
203
100
AcDbEntity
  8
1
  6
CONTINUOUS
 62
     1
100
AcDbLine
 10
440.5748
 20
154.8925
 30
0.0
 11
440.5748
 21
159.4825
 31
0.0
  0
INSERT
  5
204
100
AcDbEntity
  8
1
  6
CONTINUOUS
 62
     1
100
AcDbBlockReference
  2
LDR
 10
440.5748
 20
164.0945
 30
0.0
 41
200.0
 42
200.0
 50
270.0
210
0.0
220
0.0
230
1.0
  0
INSERT
  5
205
100
AcDbEntity
  8
1
  6
CONTINUOUS
 62
     1
100
AcDbBlockReference
  2
LDR
 10
440.5748
 20
159.4825
 30
0.0
 41
200.0
 42
200.0
 50
90.0
210
0.0
220
0.0
230
1.0
  0
LINE
  5
206
100
AcDbEntity
  8
1
  6
DASHED
 62
     1
100
AcDbLine
 10
562.0888
 20
-13.7255
 30
0.0
 11
562.0888
 21
32.3325
 31
0.0
  0
LINE
  5
207
100
AcDbEntity
  8
1
  6
CONTINUOUS
 62
     1
100
AcDbLine
 10
570.4228
 20
69.7065
 30
0.0
 11
570.4228
 21
90.6105
 31
0.0
  0
LINE
  5
208
100
AcDbEntity
  8
1
  6
CONTINUOUS
 62
     1
100
AcDbLine
 10
567.1488
 20
69.7065
 30
0.0
 11
567.1488
 21
90.6105
 31
0.0
  0
ARC
  5
209
100
AcDbEntity
  8
1
  6
CONTINUOUS
 62
     1
100
AcDbCircle
 10
569.6048
 20
70.2864
 30
0.0
 40
1.0027
210
0.0
220
0.0
230
1.0
100
AcDbArc
 50
215.333731
 51
324.666272
  0
ARC
  5
20A
100
AcDbEntity
  8
1
  6
CONTINUOUS
 62
     1
100
AcDbCircle
 10
567.9688
 20
70.145307
 30
0.0
 40
0.928265
210
0.0
220
0.0
230
1.0
100
AcDbArc
 50
208.210861
 51
331.789142
  0
ARC
  5
20B
100
AcDbEntity
  8
1
  6
CONTINUOUS
 62
     1
100
AcDbCircle
 10
567.9688
 20
69.150292
 30
0.0
 40
0.989187
210
0.0
220
0.0
230
1.0
100
AcDbArc
 50
34.214186
 51
145.785814
  0
LINE
  5
20C
100
AcDbEntity
  8
1
  6
CONTINUOUS
 62
     1
100
AcDbLine
 10
586.9008
 20
90.8605
 30
0.0
 11
595.0848
 21
90.8605
 31
0.0
  0
LINE
  5
20D
100
AcDbEntity
  8
1
  6
CONTINUOUS
 62
     1
100
AcDbLine
 10
530.1988
 20
32.3325
 30
0.0
 11
607.8508
 21
32.3325
 31
0.0
  0
LINE
  5
20E
100
AcDbEntity
  8
1
  6
CONTINUOUS
 62
     1
100
AcDbLine
 10
592.6848
 20
32.3325
 30
0.0
 11
592.6848
 21
90.8605
 31
0.0
  0
ARC
  5
20F
100
AcDbEntity
  8
1
  6
CONTINUOUS
 62
     1
100
AcDbCircle
 10
569.6048
 20
61.8906
 30
0.0
 40
1.0027
210
0.0
220
0.0
230
1.0
100
AcDbArc
 50
35.333728
 51
144.666269
  0
ARC
  5
210
100
AcDbEntity
  8
1
  6
CONTINUOUS
 62
     1
100
AcDbCircle
 10
567.9688
 20
62.031693
 30
0.0
 40
0.928265
210
0.0
220
0.0
230
1.0
100
AcDbArc
 50
28.210858
 51
151.789139
  0
ARC
  5
211
100
AcDbEntity
  8
1
  6
CONTINUOUS
 62
     1
100
AcDbCircle
 10
567.9688
 20
63.026708
 30
0.0
 40
0.989187
210
0.0
220
0.0
230
1.0
100
AcDbArc
 50
214.214186
 51
325.785814
  0
LWPOLYLINE
  5
212
100
AcDbEntity
  8
1
  6
CONTINUOUS
 62
     1
100
AcDbPolyline
 90
        4
 70
     1
 10
565.5648
 20
38.3585
 10
571.6188
 20
38.3585
 10
571.6188
 20
36.1205
 10
565.5648
 20
36.1205
  0
LINE
  5
213
100
AcDbEntity
  8
1
  6
CONTINUOUS
 62
     1
100
AcDbLine
 10
565.5648
 20
37.2405
 30
0.0
 11
571.6188
 21
37.2405
 31
0.0
  0
LINE
  5
214
100
AcDbEntity
  8
1
  6
CONTINUOUS
 62
     1
100
AcDbLine
 10
570.4228
 20
62.4705
 30
0.0
 11
570.4228
 21
38.3585
 31
0.0
  0
LINE
  5
215
100
AcDbEntity
  8
1
  6
CONTINUOUS
 62
     1
100
AcDbLine
 10
567.1508
 20
62.4705
 30
0.0
 11
567.1508
 21
38.3585
 31
0.0
  0
INSERT
  5
216
100
AcDbEntity
  8
1
  6
CONTINUOUS
 62
     1
100
AcDbBlockReference
  2
LDR
 10
592.6848
 20
32.3325
 30
0.0
 41
200.0
 42
200.0
 50
270.0
210
0.0
220
0.0
230
1.0
  0
INSERT
  5
217
100
AcDbEntity
  8
1
  6
CONTINUOUS
 62
     1
100
AcDbBlockReference
  2
LDR
 10
592.6848
 20
90.8605
 30
0.0
 41
200.0
 42
200.0
 50
90.0
210
0.0
220
0.0
230
1.0
  0
LINE
  5
218
100
AcDbEntity
  8
1
  6
CONTINUOUS
 62
     1
100
AcDbLine
 10
574.0188
 20
37.3805
 30
0.0
 11
584.6488
 21
37.3805
 31
0.0
  0
LINE
  5
219
100
AcDbEntity
  8
1
  6
CONTINUOUS
 62
     1
100
AcDbLine
 10
572.8228
 20
3.0985
 30
0.0
 11
584.6488
 21
3.0985
 31
0.0
  0
LINE
  5
21A
100
AcDbEntity
  8
1
  6
HIDDEN
 62
     1
100
AcDbLine
 10
567.1508
 20
3.0985
 30
0.0
 11
570.4228
 21
3.0985
 31
0.0
  0
LINE
  5
21B
100
AcDbEntity
  8
1
  6
CONTINUOUS
 62
     1
100
AcDbLine
 10
582.2488
 20
37.3805
 30
0.0
 11
582.2488
 21
3.0985
 31
0.0
  0
LINE
  5
21C
100
AcDbEntity
  8
1
  6
CONTINUOUS
 62
     1
100
AcDbLine
 10
563.1648
 20
37.4885
 30
0.0
 11
557.3368
 21
37.4885
 31
0.0
  0
LINE
  5
21D
100
AcDbEntity
  8
1
  6
CONTINUOUS
 62
     1
100
AcDbLine
 10
559.7368
 20
37.4885
 30
0.0
 11
559.7368
 21
43.0005
 31
0.0
  0
LINE
  5
21E
100
AcDbEntity
  8
1
  6
CONTINUOUS
 62
     1
100
AcDbLine
 10
559.7368
 20
26.8205
 30
0.0
 11
559.7368
 21
32.3325
 31
0.0
  0
INSERT
  5
21F
100
AcDbEntity
  8
1
  6
CONTINUOUS
 62
     1
100
AcDbBlockReference
  2
LDR
 10
559.7368
 20
37.4885
 30
0.0
 41
200.0
 42
200.0
 50
270.0
210
0.0
220
0.0
230
1.0
  0
INSERT
  5
220
100
AcDbEntity
  8
1
  6
CONTINUOUS
 62
     1
100
AcDbBlockReference
  2
LDR
 10
559.7368
 20
37.4885
 30
0.0
 41
200.0
 42
200.0
 50
270.0
210
0.0
220
0.0
230
1.0
  0
INSERT
  5
221
100
AcDbEntity
  8
1
  6
CONTINUOUS
 62
     1
100
AcDbBlockReference
  2
LDR
 10
559.7368
 20
32.3325
 30
0.0
 41
200.0
 42
200.0
 50
90.0
210
0.0
220
0.0
230
1.0
  0
INSERT
  5
222
100
AcDbEntity
  8
1
  6
CONTINUOUS
 62
     1
100
AcDbBlockReference
  2
LDR
 10
582.2488
 20
37.3805
 30
0.0
 41
200.0
 42
200.0
 50
90.0
210
0.0
220
0.0
230
1.0
  0
INSERT
  5
223
100
AcDbEntity
  8
1
  6
CONTINUOUS
 62
     1
100
AcDbBlockReference
  2
LDR
 10
582.2488
 20
3.0985
 30
0.0
 41
200.0
 42
200.0
 50
270.0
210
0.0
220
0.0
230
1.0
  0
LINE
  5
224
100
AcDbEntity
  8
1
  6
CONTINUOUS
 62
     1
100
AcDbLine
 10
567.1068
 20
76.3385
 30
0.0
 11
560.3308
 21
75.3885
 31
0.0
  0
LINE
  5
225
100
AcDbEntity
  8
1
  6
CONTINUOUS
 62
     1
100
AcDbLine
 10
560.3308
 20
75.3885
 30
0.0
 11
562.5268
 21
72.5045
 31
0.0
  0
LINE
  5
226
100
AcDbEntity
  8
1
  6
CONTINUOUS
 62
     1
100
AcDbLine
 10
562.5268
 20
72.5045
 30
0.0
 11
556.6368
 21
71.8225
 31
0.0
  0
INSERT
  5
227
100
AcDbEntity
  8
1
  6
CONTINUOUS
 62
     1
100
AcDbBlockReference
  2
LDR
 10
567.1068
 20
76.3385
 30
0.0
 41
199.999904
 42
-199.999904
 50
7.978088
210
0.0
220
0.0
230
1.0
  0
LINE
  5
228
100
AcDbEntity
  8
1
  6
CONTINUOUS
 62
     1
100
AcDbLine
 10
588.2168
 20
32.2065
 30
0.0
 11
588.2168
 21
-13.7255
 31
0.0
  0
LINE
  5
229
100
AcDbEntity
  8
1
  6
CONTINUOUS
 62
     1
100
AcDbLine
 10
577.8528
 20
-13.7255
 30
0.0
 11
590.6168
 21
-13.7255
 31
0.0
  0
INSERT
  5
22A
100
AcDbEntity
  8
1
  6
CONTINUOUS
 62
     1
100
AcDbBlockReference
  2
LDR
 10
588.2168
 20
32.2065
 30
0.0
 41
200.0
 42
200.0
 50
90.0
210
0.0
220
0.0
230
1.0
  0
INSERT
  5
22B
100
AcDbEntity
  8
1
  6
CONTINUOUS
 62
     1
100
AcDbBlockReference
  2
LDR
 10
588.2168
 20
-13.7255
 30
0.0
 41
200.0
 42
200.0
 50
270.0
210
0.0
220
0.0
230
1.0
  0
LINE
  5
22C
100
AcDbEntity
  8
1
  6
DASHED
 62
     1
100
AcDbLine
 10
562.0888
 20
-13.7255
 30
0.0
 11
575.4528
 21
-13.7255
 31
0.0
  0
LINE
  5
22D
100
AcDbEntity
  8
1
  6
DASHED
 62
     1
100
AcDbLine
 10
575.4528
 20
-13.7255
 30
0.0
 11
575.4528
 21
32.3325
 31
0.0
  0
LINE
  5
22E
100
AcDbEntity
  8
1
  6
CONTINUOUS
 62
     1
100
AcDbLine
 10
562.0888
 20
-16.1255
 30
0.0
 11
562.0888
 21
-21.8495
 31
0.0
  0
LINE
  5
22F
100
AcDbEntity
  8
1
  6
CONTINUOUS
 62
     1
100
AcDbLine
 10
575.4528
 20
-16.1255
 30
0.0
 11
575.4528
 21
-21.8495
 31
0.0
  0
LINE
  5
230
100
AcDbEntity
  8
1
  6
CONTINUOUS
 62
     1
100
AcDbLine
 10
562.0888
 20
-19.4495
 30
0.0
 11
575.4528
 21
-19.4495
 31
0.0
  0
INSERT
  5
231
100
AcDbEntity
  8
1
  6
CONTINUOUS
 62
     1
100
AcDbBlockReference
  2
LDR
 10
562.0888
 20
-19.4495
 30
0.0
 41
200.0
 42
200.0
 50
180.0
210
0.0
220
0.0
230
1.0
  0
INSERT
  5
232
100
AcDbEntity
  8
1
  6
CONTINUOUS
 62
     1
100
AcDbBlockReference
  2
LDR
 10
562.0888
 20
-19.4495
 30
0.0
 41
200.0
 42
200.0
 50
180.0
210
0.0
220
0.0
230
1.0
  0
INSERT
  5
233
100
AcDbEntity
  8
1
  6
CONTINUOUS
 62
     1
100
AcDbBlockReference
  2
LDR
 10
575.4528
 20
-19.4495
 30
0.0
 41
200.0
 42
200.0
210
0.0
220
0.0
230
1.0
  0
LINE
  5
234
100
AcDbEntity
  8
1
  6
CONTINUOUS
 62
     1
100
AcDbLine
 10
567.1508
 20
36.1205
 30
0.0
 11
567.1508
 21
32.3325
 31
0.0
  0
LINE
  5
235
100
AcDbEntity
  8
1
  6
HIDDEN
 62
     1
100
AcDbLine
 10
567.1508
 20
32.3325
 30
0.0
 11
567.1508
 21
3.0985
 31
0.0
  0
LINE
  5
236
100
AcDbEntity
  8
1
  6
CONTINUOUS
 62
     1
100
AcDbLine
 10
570.4228
 20
36.1205
 30
0.0
 11
570.4228
 21
32.3325
 31
0.0
  0
LINE
  5
237
100
AcDbEntity
  8
1
  6
HIDDEN
 62
     1
100
AcDbLine
 10
570.4228
 20
32.3325
 30
0.0
 11
570.4228
 21
3.0985
 31
0.0
  0
LINE
  5
238
100
AcDbEntity
  8
1
  6
CONTINUOUS
 62
     1
100
AcDbLine
 10
567.1488
 20
90.6105
 30
0.0
 11
553.0708
 21
90.6105
 31
0.0
  0
LINE
  5
239
100
AcDbEntity
  8
1
  6
CONTINUOUS
 62
     1
100
AcDbLine
 10
584.5008
 20
90.6105
 30
0.0
 11
570.4228
 21
90.6105
 31
0.0
  0
LINE
  5
23A
100
AcDbEntity
  8
1
  6
HIDDEN
 62
     1
100
AcDbLine
 10
581.6768
 20
93.5965
 30
0.0
 11
555.8948
 21
93.5965
 31
0.0
  0
LINE
  5
23B
100
AcDbEntity
  8
1
  6
HIDDEN
 62
     1
100
AcDbLine
 10
555.8948
 20
93.5965
 30
0.0
 11
555.8948
 21
111.4625
 31
0.0
  0
LINE
  5
23C
100
AcDbEntity
  8
1
  6
HIDDEN
 62
     1
100
AcDbLine
 10
581.6768
 20
93.5965
 30
0.0
 11
581.6768
 21
111.4625
 31
0.0
  0
LINE
  5
23D
100
AcDbEntity
  8
1
  6
HIDDEN
 62
     1
100
AcDbLine
 10
553.0708
 20
111.4625
 30
0.0
 11
551.8708
 21
111.4625
 31
0.0
  0
LINE
  5
23E
100
AcDbEntity
  8
1
  6
HIDDEN
 62
     1
100
AcDbLine
 10
557.0948
 20
111.4625
 30
0.0
 11
555.8948
 21
111.4625
 31
0.0
  0
LINE
  5
23F
100
AcDbEntity
  8
1
  6
HIDDEN
 62
     1
100
AcDbLine
 10
585.7008
 20
111.4625
 30
0.0
 11
584.5008
 21
111.4625
 31
0.0
  0
LINE
  5
240
100
AcDbEntity
  8
1
  6
HIDDEN
 62
     1
100
AcDbLine
 10
581.6768
 20
111.4625
 30
0.0
 11
580.4768
 21
111.4625
 31
0.0
  0
LINE
  5
241
100
AcDbEntity
  8
1
  6
HIDDEN
 62
     1
100
AcDbLine
 10
551.8708
 20
111.4625
 30
0.0
 11
551.8708
 21
113.8625
 31
0.0
  0
LINE
  5
242
100
AcDbEntity
  8
1
  6
HIDDEN
 62
     1
100
AcDbLine
 10
557.0948
 20
111.4625
 30
0.0
 11
557.0948
 21
113.8625
 31
0.0
  0
LINE
  5
243
100
AcDbEntity
  8
1
  6
HIDDEN
 62
     1
100
AcDbLine
 10
580.4768
 20
111.4625
 30
0.0
 11
580.4768
 21
113.8625
 31
0.0
  0
LINE
  5
244
100
AcDbEntity
  8
1
  6
HIDDEN
 62
     1
100
AcDbLine
 10
585.7008
 20
111.4625
 30
0.0
 11
585.7008
 21
113.8625
 31
0.0
  0
LINE
  5
245
100
AcDbEntity
  8
1
  6
HIDDEN
 62
     1
100
AcDbLine
 10
551.8708
 20
113.8625
 30
0.0
 11
557.0948
 21
113.8625
 31
0.0
  0
LINE
  5
246
100
AcDbEntity
  8
1
  6
HIDDEN
 62
     1
100
AcDbLine
 10
580.4768
 20
113.8625
 30
0.0
 11
585.7008
 21
113.8625
 31
0.0
  0
LINE
  5
247
100
AcDbEntity
  8
1
  6
CONTINUOUS
 62
     1
100
AcDbLine
 10
584.5008
 20
92.1045
 30
0.0
 11
544.6708
 21
92.1045
 31
0.0
  0
LINE
  5
248
100
AcDbEntity
  8
1
  6
CONTINUOUS
 62
     1
100
AcDbLine
 10
592.9008
 20
92.1045
 30
0.0
 11
584.5008
 21
92.1045
 31
0.0
  0
LINE
  5
249
100
AcDbEntity
  8
1
  6
CONTINUOUS
 62
     1
100
AcDbLine
 10
592.9008
 20
117.2425
 30
0.0
 11
544.6708
 21
117.2425
 31
0.0
  0
LINE
  5
24A
100
AcDbEntity
  8
1
  6
CONTINUOUS
 62
     1
100
AcDbLine
 10
544.6708
 20
117.2425
 30
0.0
 11
544.6708
 21
92.1045
 31
0.0
  0
LINE
  5
24B
100
AcDbEntity
  8
1
  6
CONTINUOUS
 62
     1
100
AcDbLine
 10
592.9008
 20
117.2425
 30
0.0
 11
592.9008
 21
92.1045
 31
0.0
  0
LINE
  5
24C
100
AcDbEntity
  8
1
  6
CONTINUOUS
 62
     1
100
AcDbLine
 10
553.0708
 20
90.6105
 30
0.0
 11
553.0708
 21
92.1045
 31
0.0
  0
LINE
  5
24D
100
AcDbEntity
  8
1
  6
HIDDEN
 62
     1
100
AcDbLine
 10
553.0708
 20
92.1045
 30
0.0
 11
553.0708
 21
111.4625
 31
0.0
  0
LINE
  5
24E
100
AcDbEntity
  8
1
  6
CONTINUOUS
 62
     1
100
AcDbLine
 10
584.5008
 20
90.6105
 30
0.0
 11
584.5008
 21
92.1045
 31
0.0
  0
LINE
  5
24F
100
AcDbEntity
  8
1
  6
HIDDEN
 62
     1
100
AcDbLine
 10
584.5008
 20
92.1045
 30
0.0
 11
584.5008
 21
111.4625
 31
0.0
  0
LINE
  5
250
100
AcDbEntity
  8
1
  6
CONTINUOUS
 62
     1
100
AcDbLine
 10
544.6708
 20
119.6425
 30
0.0
 11
544.6708
 21
126.1585
 31
0.0
  0
LINE
  5
251
100
AcDbEntity
  8
1
  6
CONTINUOUS
 62
     1
100
AcDbLine
 10
592.9008
 20
119.6425
 30
0.0
 11
592.9008
 21
126.1585
 31
0.0
  0
LINE
  5
252
100
AcDbEntity
  8
1
  6
CONTINUOUS
 62
     1
100
AcDbLine
 10
554.9908
 20
119.6425
 30
0.0
 11
554.9908
 21
126.1585
 31
0.0
  0
LINE
  5
253
100
AcDbEntity
  8
1
  6
CONTINUOUS
 62
     1
100
AcDbLine
 10
582.5808
 20
119.6425
 30
0.0
 11
582.5808
 21
126.1585
 31
0.0
  0
LINE
  5
254
100
AcDbEntity
  8
1
  6
CONTINUOUS
 62
     1
100
AcDbLine
 10
568.7868
 20
126.1585
 30
0.0
 11
568.7868
 21
119.6425
 31
0.0
  0
LINE
  5
255
100
AcDbEntity
  8
1
  6
CONTINUOUS
 62
     1
100
AcDbLine
 10
554.9908
 20
123.7585
 30
0.0
 11
568.7868
 21
123.7585
 31
0.0
  0
LINE
  5
256
100
AcDbEntity
  8
1
  6
CONTINUOUS
 62
     1
100
AcDbLine
 10
568.7868
 20
123.7585
 30
0.0
 11
582.5808
 21
123.7585
 31
0.0
  0
LINE
  5
257
100
AcDbEntity
  8
1
  6
CONTINUOUS
 62
     1
100
AcDbLine
 10
582.5808
 20
123.7585
 30
0.0
 11
592.9008
 21
123.7585
 31
0.0
  0
LINE
  5
258
100
AcDbEntity
  8
1
  6
CONTINUOUS
 62
     1
100
AcDbLine
 10
554.9908
 20
123.7585
 30
0.0
 11
544.6708
 21
123.7585
 31
0.0
  0
INSERT
  5
259
100
AcDbEntity
  8
1
  6
CONTINUOUS
 62
     1
100
AcDbBlockReference
  2
LDR
 10
544.6708
 20
123.7585
 30
0.0
 41
200.0
 42
200.0
 50
180.0
210
0.0
220
0.0
230
1.0
  0
INSERT
  5
25A
100
AcDbEntity
  8
1
  6
CONTINUOUS
 62
     1
100
AcDbBlockReference
  2
LDR
 10
554.9908
 20
123.7585
 30
0.0
 41
200.0
 42
200.0
210
0.0
220
0.0
230
1.0
  0
INSERT
  5
25B
100
AcDbEntity
  8
1
  6
CONTINUOUS
 62
     1
100
AcDbBlockReference
  2
LDR
 10
554.9908
 20
123.7585
 30
0.0
 41
200.0
 42
200.0
210
0.0
220
0.0
230
1.0
  0
INSERT
  5
25C
100
AcDbEntity
  8
1
  6
CONTINUOUS
 62
     1
100
AcDbBlockReference
  2
LDR
 10
554.9908
 20
123.7585
 30
0.0
 41
200.0
 42
200.0
 50
180.0
210
0.0
220
0.0
230
1.0
  0
INSERT
  5
25D
100
AcDbEntity
  8
1
  6
CONTINUOUS
 62
     1
100
AcDbBlockReference
  2
LDR
 10
554.9908
 20
123.7585
 30
0.0
 41
200.0
 42
200.0
 50
180.0
210
0.0
220
0.0
230
1.0
  0
INSERT
  5
25E
100
AcDbEntity
  8
1
  6
CONTINUOUS
 62
     1
100
AcDbBlockReference
  2
LDR
 10
568.7868
 20
123.7585
 30
0.0
 41
200.0
 42
200.0
210
0.0
220
0.0
230
1.0
  0
INSERT
  5
25F
100
AcDbEntity
  8
1
  6
CONTINUOUS
 62
     1
100
AcDbBlockReference
  2
LDR
 10
568.7868
 20
123.7585
 30
0.0
 41
200.0
 42
200.0
210
0.0
220
0.0
230
1.0
  0
INSERT
  5
260
100
AcDbEntity
  8
1
  6
CONTINUOUS
 62
     1
100
AcDbBlockReference
  2
LDR
 10
568.7868
 20
123.7585
 30
0.0
 41
200.0
 42
200.0
 50
180.0
210
0.0
220
0.0
230
1.0
  0
INSERT
  5
261
100
AcDbEntity
  8
1
  6
CONTINUOUS
 62
     1
100
AcDbBlockReference
  2
LDR
 10
568.7868
 20
123.7585
 30
0.0
 41
200.0
 42
200.0
 50
180.0
210
0.0
220
0.0
230
1.0
  0
INSERT
  5
262
100
AcDbEntity
  8
1
  6
CONTINUOUS
 62
     1
100
AcDbBlockReference
  2
LDR
 10
582.5808
 20
123.7585
 30
0.0
 41
200.0
 42
200.0
210
0.0
220
0.0
230
1.0
  0
INSERT
  5
263
100
AcDbEntity
  8
1
  6
CONTINUOUS
 62
     1
100
AcDbBlockReference
  2
LDR
 10
582.5808
 20
123.7585
 30
0.0
 41
200.0
 42
200.0
210
0.0
220
0.0
230
1.0
  0
INSERT
  5
264
100
AcDbEntity
  8
1
  6
CONTINUOUS
 62
     1
100
AcDbBlockReference
  2
LDR
 10
582.5808
 20
123.7585
 30
0.0
 41
200.0
 42
200.0
 50
180.0
210
0.0
220
0.0
230
1.0
  0
INSERT
  5
265
100
AcDbEntity
  8
1
  6
CONTINUOUS
 62
     1
100
AcDbBlockReference
  2
LDR
 10
582.5808
 20
123.7585
 30
0.0
 41
200.0
 42
200.0
 50
180.0
210
0.0
220
0.0
230
1.0
  0
INSERT
  5
266
100
AcDbEntity
  8
1
  6
CONTINUOUS
 62
     1
100
AcDbBlockReference
  2
LDR
 10
592.9008
 20
123.7585
 30
0.0
 41
200.0
 42
200.0
210
0.0
220
0.0
230
1.0
  0
LINE
  5
267
100
AcDbEntity
  8
1
  6
CONTINUOUS
 62
     1
100
AcDbLine
 10
584.4688
 20
103.3365
 30
0.0
 11
596.5928
 21
104.3065
 31
0.0
  0
LINE
  5
268
100
AcDbEntity
  8
1
  6
CONTINUOUS
 62
     1
100
AcDbLine
 10
596.5928
 20
104.3065
 30
0.0
 11
595.2188
 21
102.6885
 31
0.0
  0
LINE
  5
269
100
AcDbEntity
  8
1
  6
CONTINUOUS
 62
     1
100
AcDbLine
 10
595.2188
 20
102.6885
 30
0.0
 11
604.4348
 21
104.0645
 31
0.0
  0
LINE
  5
26A
100
AcDbEntity
  8
1
  6
CONTINUOUS
 62
     1
100
AcDbLine
 10
604.4348
 20
104.0645
 30
0.0
 11
601.6048
 21
91.6945
 31
0.0
  0
LINE
  5
26B
100
AcDbEntity
  8
1
  6
CONTINUOUS
 62
     1
100
AcDbLine
 10
601.6048
 20
91.6945
 30
0.0
 11
600.5548
 21
94.2805
 31
0.0
  0
LINE
  5
26C
100
AcDbEntity
  8
1
  6
CONTINUOUS
 62
     1
100
AcDbLine
 10
600.5548
 20
94.2805
 30
0.0
 11
596.6748
 21
84.9825
 31
0.0
  0
LINE
  5
26D
100
AcDbEntity
  8
1
  6
CONTINUOUS
 62
     1
100
AcDbLine
 10
596.6748
 20
84.9825
 30
0.0
 11
584.5008
 21
90.6105
 31
0.0
  0
INSERT
  5
26E
100
AcDbEntity
  8
1
  6
CONTINUOUS
 62
     1
100
AcDbBlockReference
  2
LDR
 10
584.4688
 20
103.3365
 30
0.0
 41
200.000021
 42
200.000021
 50
184.574288
210
0.0
220
0.0
230
1.0
  0
INSERT
  5
26F
100
AcDbEntity
  8
1
  6
CONTINUOUS
 62
     1
100
AcDbBlockReference
  2
LDR
 10
584.4688
 20
103.3365
 30
0.0
 41
200.000021
 42
200.000021
 50
184.574288
210
0.0
220
0.0
230
1.0
  0
INSERT
  5
270
100
AcDbEntity
  8
1
  6
CONTINUOUS
 62
     1
100
AcDbBlockReference
  2
LDR
 10
584.5008
 20
90.6105
 30
0.0
 41
199.999998
 42
199.999998
 50
155.189065
210
0.0
220
0.0
230
1.0
  0
LINE
  5
271
100
AcDbEntity
  8
1
  6
CONTINUOUS
 62
     1
100
AcDbLine
 10
604.4348
 20
104.0645
 30
0.0
 11
612.2468
 21
106.3845
 31
0.0
  0
LWPOLYLINE
  5
272
100
AcDbEntity
  8
1
  6
CONTINUOUS
 62
     1
100
AcDbPolyline
 90
        4
 70
     1
 10
555.8186
 20
204.5194
 10
612.8486
 20
204.5194
 10
612.8486
 20
163.3014
 10
555.8186
 20
163.3014
  0
CIRCLE
  5
273
100
AcDbEntity
  8
1
  6
CONTINUOUS
 62
     1
100
AcDbCircle
 10
561.2506
 20
197.9064
 30
0.0
 40
2.365944
210
0.0
220
0.0
230
1.0
  0
CIRCLE
  5
274
100
AcDbEntity
  8
1
  6
CONTINUOUS
 62
     1
100
AcDbCircle
 10
561.2506
 20
169.0884
 30
0.0
 40
2.365944
210
0.0
220
0.0
230
1.0
  0
CIRCLE
  5
275
100
AcDbEntity
  8
1
  6
CONTINUOUS
 62
     1
100
AcDbCircle
 10
606.1186
 20
197.9064
 30
0.0
 40
2.365944
210
0.0
220
0.0
230
1.0
  0
CIRCLE
  5
276
100
AcDbEntity
  8
1
  6
CONTINUOUS
 62
     1
100
AcDbCircle
 10
606.3546
 20
168.9704
 30
0.0
 40
2.365944
210
0.0
220
0.0
230
1.0
  0
CIRCLE
  5
277
100
AcDbEntity
  8
1
  6
CONTINUOUS
 62
     1
100
AcDbCircle
 10
584.5106
 20
183.8504
 30
0.0
 40
2.763249
210
0.0
220
0.0
230
1.0
  0
LINE
  5
278
100
AcDbEntity
  8
1
  6
CONTINUOUS
 62
     1
100
AcDbLine
 10
555.8186
 20
206.9194
 30
0.0
 11
555.8186
 21
221.3154
 31
0.0
  0
LINE
  5
279
100
AcDbEntity
  8
1
  6
CONTINUOUS
 62
     1
100
AcDbLine
 10
612.8486
 20
206.9194
 30
0.0
 11
612.8486
 21
221.3154
 31
0.0
  0
LINE
  5
27A
100
AcDbEntity
  8
1
  6
CONTINUOUS
 62
     1
100
AcDbLine
 10
560.6186
 20
206.9194
 30
0.0
 11
560.6186
 21
211.7154
 31
0.0
  0
LINE
  5
27B
100
AcDbEntity
  8
1
  6
CONTINUOUS
 62
     1
100
AcDbLine
 10
608.0486
 20
206.9194
 30
0.0
 11
608.0486
 21
211.7154
 31
0.0
  0
LINE
  5
27C
100
AcDbEntity
  8
1
  6
CONTINUOUS
 62
     1
100
AcDbLine
 10
555.8186
 20
218.9154
 30
0.0
 11
612.8486
 21
218.9154
 31
0.0
  0
LINE
  5
27D
100
AcDbEntity
  8
1
  6
CONTINUOUS
 62
     1
100
AcDbLine
 10
560.6186
 20
209.3154
 30
0.0
 11
608.0486
 21
209.3154
 31
0.0
  0
INSERT
  5
27E
100
AcDbEntity
  8
1
  6
CONTINUOUS
 62
     1
100
AcDbBlockReference
  2
LDR
 10
555.8186
 20
218.9154
 30
0.0
 41
200.0
 42
200.0
 50
180.0
210
0.0
220
0.0
230
1.0
  0
INSERT
  5
27F
100
AcDbEntity
  8
1
  6
CONTINUOUS
 62
     1
100
AcDbBlockReference
  2
LDR
 10
555.8186
 20
218.9154
 30
0.0
 41
200.0
 42
200.0
 50
180.0
210
0.0
220
0.0
230
1.0
  0
INSERT
  5
280
100
AcDbEntity
  8
1
  6
CONTINUOUS
 62
     1
100
AcDbBlockReference
  2
LDR
 10
612.8486
 20
218.9154
 30
0.0
 41
200.0
 42
200.0
210
0.0
220
0.0
230
1.0
  0
INSERT
  5
281
100
AcDbEntity
  8
1
  6
CONTINUOUS
 62
     1
100
AcDbBlockReference
  2
LDR
 10
612.8486
 20
218.9154
 30
0.0
 41
200.0
 42
200.0
210
0.0
220
0.0
230
1.0
  0
INSERT
  5
282
100
AcDbEntity
  8
1
  6
CONTINUOUS
 62
     1
100
AcDbBlockReference
  2
LDR
 10
560.6186
 20
209.3154
 30
0.0
 41
200.0
 42
200.0
 50
180.0
210
0.0
220
0.0
230
1.0
  0
INSERT
  5
283
100
AcDbEntity
  8
1
  6
CONTINUOUS
 62
     1
100
AcDbBlockReference
  2
LDR
 10
560.6186
 20
209.3154
 30
0.0
 41
200.0
 42
200.0
 50
180.0
210
0.0
220
0.0
230
1.0
  0
INSERT
  5
284
100
AcDbEntity
  8
1
  6
CONTINUOUS
 62
     1
100
AcDbBlockReference
  2
LDR
 10
608.0486
 20
209.3154
 30
0.0
 41
200.0
 42
200.0
210
0.0
220
0.0
230
1.0
  0
LINE
  5
285
100
AcDbEntity
  8
1
  6
CONTINUOUS
 62
     1
100
AcDbLine
 10
555.8186
 20
209.3154
 30
0.0
 11
551.0186
 21
209.3154
 31
0.0
  0
INSERT
  5
286
100
AcDbEntity
  8
1
  6
CONTINUOUS
 62
     1
100
AcDbBlockReference
  2
LDR
 10
555.8186
 20
209.3154
 30
0.0
 41
200.0
 42
200.0
210
0.0
220
0.0
230
1.0
  0
LINE
  5
287
100
AcDbEntity
  8
1
  6
CONTINUOUS
 62
     1
100
AcDbLine
 10
616.9146
 20
209.3154
 30
0.0
 11
612.8486
 21
209.3154
 31
0.0
  0
INSERT
  5
288
100
AcDbEntity
  8
1
  6
CONTINUOUS
 62
     1
100
AcDbBlockReference
  2
LDR
 10
612.8486
 20
209.3154
 30
0.0
 41
200.0
 42
200.0
 50
180.0
210
0.0
220
0.0
230
1.0
  0
LINE
  5
289
100
AcDbEntity
  8
1
  6
CONTINUOUS
 62
     1
100
AcDbLine
 10
629.6446
 20
204.5194
 30
0.0
 11
615.2486
 21
204.5194
 31
0.0
  0
LINE
  5
28A
100
AcDbEntity
  8
1
  6
CONTINUOUS
 62
     1
100
AcDbLine
 10
629.6446
 20
163.3014
 30
0.0
 11
615.2486
 21
163.3014
 31
0.0
  0
LINE
  5
28B
100
AcDbEntity
  8
1
  6
CONTINUOUS
 62
     1
100
AcDbLine
 10
627.2446
 20
204.5194
 30
0.0
 11
627.2446
 21
163.3014
 31
0.0
  0
LINE
  5
28C
100
AcDbEntity
  8
1
  6
CONTINUOUS
 62
     1
100
AcDbLine
 10
618.8486
 20
197.3194
 30
0.0
 11
615.2486
 21
197.3194
 31
0.0
  0
LINE
  5
28D
100
AcDbEntity
  8
1
  6
CONTINUOUS
 62
     1
100
AcDbLine
 10
620.0446
 20
170.5014
 30
0.0
 11
615.2486
 21
170.5014
 31
0.0
  0
LINE
  5
28E
100
AcDbEntity
  8
1
  6
CONTINUOUS
 62
     1
100
AcDbLine
 10
620.0446
 20
197.3194
 30
0.0
 11
615.2486
 21
197.3194
 31
0.0
  0
LINE
  5
28F
100
AcDbEntity
  8
1
  6
CONTINUOUS
 62
     1
100
AcDbLine
 10
620.0446
 20
197.3194
 30
0.0
 11
615.2486
 21
197.3194
 31
0.0
  0
LINE
  5
290
100
AcDbEntity
  8
1
  6
CONTINUOUS
 62
     1
100
AcDbLine
 10
617.6446
 20
197.3194
 30
0.0
 11
617.6446
 21
170.5014
 31
0.0
  0
LINE
  5
291
100
AcDbEntity
  8
1
  6
CONTINUOUS
 62
     1
100
AcDbLine
 10
617.6446
 20
208.4714
 30
0.0
 11
617.6446
 21
204.5194
 31
0.0
  0
INSERT
  5
292
100
AcDbEntity
  8
1
  6
CONTINUOUS
 62
     1
100
AcDbBlockReference
  2
LDR
 10
617.6446
 20
204.5194
 30
0.0
 41
200.0
 42
200.0
 50
270.0
210
0.0
220
0.0
230
1.0
  0
LINE
  5
293
100
AcDbEntity
  8
1
  6
CONTINUOUS
 62
     1
100
AcDbLine
 10
617.6446
 20
163.3014
 30
0.0
 11
617.6446
 21
159.3494
 31
0.0
  0
INSERT
  5
294
100
AcDbEntity
  8
1
  6
CONTINUOUS
 62
     1
100
AcDbBlockReference
  2
LDR
 10
617.6446
 20
197.3194
 30
0.0
 41
200.0
 42
200.0
 50
90.0
210
0.0
220
0.0
230
1.0
  0
INSERT
  5
295
100
AcDbEntity
  8
1
  6
CONTINUOUS
 62
     1
100
AcDbBlockReference
  2
LDR
 10
617.6446
 20
197.3194
 30
0.0
 41
200.0
 42
200.0
 50
90.0
210
0.0
220
0.0
230
1.0
  0
INSERT
  5
296
100
AcDbEntity
  8
1
  6
CONTINUOUS
 62
     1
100
AcDbBlockReference
  2
LDR
 10
627.2446
 20
204.5194
 30
0.0
 41
200.0
 42
200.0
 50
90.0
210
0.0
220
0.0
230
1.0
  0
INSERT
  5
297
100
AcDbEntity
  8
1
  6
CONTINUOUS
 62
     1
100
AcDbBlockReference
  2
LDR
 10
627.2446
 20
204.5194
 30
0.0
 41
200.0
 42
200.0
 50
90.0
210
0.0
220
0.0
230
1.0
  0
INSERT
  5
298
100
AcDbEntity
  8
1
  6
CONTINUOUS
 62
     1
100
AcDbBlockReference
  2
LDR
 10
627.2446
 20
163.3014
 30
0.0
 41
200.0
 42
200.0
 50
270.0
210
0.0
220
0.0
230
1.0
  0
INSERT
  5
299
100
AcDbEntity
  8
1
  6
CONTINUOUS
 62
     1
100
AcDbBlockReference
  2
LDR
 10
627.2446
 20
163.3014
 30
0.0
 41
200.0
 42
200.0
 50
270.0
210
0.0
220
0.0
230
1.0
  0
INSERT
  5
29A
100
AcDbEntity
  8
1
  6
CONTINUOUS
 62
     1
100
AcDbBlockReference
  2
LDR
 10
617.6446
 20
170.5014
 30
0.0
 41
200.0
 42
200.0
 50
270.0
210
0.0
220
0.0
230
1.0
  0
INSERT
  5
29B
100
AcDbEntity
  8
1
  6
CONTINUOUS
 62
     1
100
AcDbBlockReference
  2
LDR
 10
617.6446
 20
170.5014
 30
0.0
 41
200.0
 42
200.0
 50
270.0
210
0.0
220
0.0
230
1.0
  0
INSERT
  5
29C
100
AcDbEntity
  8
1
  6
CONTINUOUS
 62
     1
100
AcDbBlockReference
  2
LDR
 10
617.6446
 20
163.3014
 30
0.0
 41
200.0
 42
200.0
 50
90.0
210
0.0
220
0.0
230
1.0
  0
LINE
  5
29D
100
AcDbEntity
  8
1
  6
CONTINUOUS
 62
     1
100
AcDbLine
 10
558.8846
 20
169.0894
 30
0.0
 11
552.2346
 21
167.3754
 31
0.0
  0
INSERT
  5
29E
100
AcDbEntity
  8
1
  6
CONTINUOUS
 62
     1
100
AcDbBlockReference
  2
LDR
 10
558.8846
 20
169.0894
 30
0.0
 41
199.999988
 42
199.999988
 50
14.4531
210
0.0
220
0.0
230
1.0
  0
LINE
  5
29F
100
AcDbEntity
  8
1
  6
CONTINUOUS
 62
     1
100
AcDbLine
 10
581.7466
 20
183.8514
 30
0.0
 11
559.5586
 21
155.5594
 31
0.0
  0
INSERT
  5
2A0
100
AcDbEntity
  8
1
  6
CONTINUOUS
 62
     1
100
AcDbBlockReference
  2
LDR
 10
581.7466
 20
183.8514
 30
0.0
 41
199.999981
 42
199.999981
 50
51.894679
210
0.0
220
0.0
230
1.0
  0
LINE
  5
2A1
100
AcDbEntity
  8
1
  6
CONTINUOUS
 62
     1
100
AcDbLine
 10
207.2255
 20
-91.6164
 30
0.0
 11
217.6055
 21
-91.6164
 31
0.0
  0
LINE
  5
2A2
100
AcDbEntity
  8
1
  6
CONTINUOUS
 62
     1
100
AcDbLine
 10
217.6055
 20
-91.6164
 30
0.0
 11
217.6055
 21
-97.2584
 31
0.0
  0
LINE
  5
2A3
100
AcDbEntity
  8
1
  6
CONTINUOUS
 62
     1
100
AcDbLine
 10
217.6055
 20
-97.2584
 30
0.0
 11
207.2255
 21
-97.2584
 31
0.0
  0
LINE
  5
2A4
100
AcDbEntity
  8
1
  6
CONTINUOUS
 62
     1
100
AcDbLine
 10
207.2255
 20
-97.2584
 30
0.0
 11
207.2255
 21
-91.6164
 31
0.0
  0
LINE
  5
2A5
100
AcDbEntity
  8
1
  6
CONTINUOUS
 62
     1
100
AcDbLine
 10
207.8255
 20
-97.2584
 30
0.0
 11
207.8255
 21
-118.8604
 31
0.0
  0
LINE
  5
2A6
100
AcDbEntity
  8
1
  6
CONTINUOUS
 62
     1
100
AcDbLine
 10
217.0055
 20
-97.2584
 30
0.0
 11
217.0055
 21
-118.8604
 31
0.0
  0
ARC
  5
2A7
100
AcDbEntity
  8
1
  6
CONTINUOUS
 62
     1
100
AcDbCircle
 10
214.7105
 20
-117.619625
 30
0.0
 40
2.608936
210
0.0
220
0.0
230
1.0
100
AcDbArc
 50
208.397544
 51
331.602453
  0
ARC
  5
2A8
100
AcDbEntity
  8
1
  6
CONTINUOUS
 62
     1
100
AcDbCircle
 10
210.1205
 20
-117.619625
 30
0.0
 40
2.608936
210
0.0
220
0.0
230
1.0
100
AcDbArc
 50
208.397544
 51
331.602453
  0
ARC
  5
2A9
100
AcDbEntity
  8
1
  6
CONTINUOUS
 62
     1
100
AcDbCircle
 10
214.7105
 20
-120.101175
 30
0.0
 40
2.608936
210
0.0
220
0.0
230
1.0
100
AcDbArc
 50
28.397547
 51
151.602456
  0
ARC
  5
2AA
100
AcDbEntity
  8
1
  6
CONTINUOUS
 62
     1
100
AcDbCircle
 10
210.1205
 20
-125.081175
 30
0.0
 40
2.608936
210
0.0
220
0.0
230
1.0
100
AcDbArc
 50
28.397547
 51
151.602456
  0
LINE
  5
2AB
100
AcDbEntity
  8
1
  6
CONTINUOUS
 62
     1
100
AcDbLine
 10
207.8255
 20
-146.6304
 30
0.0
 11
207.8255
 21
-123.8404
 31
0.0
  0
LINE
  5
2AC
100
AcDbEntity
  8
1
  6
CONTINUOUS
 62
     1
100
AcDbLine
 10
217.0055
 20
-155.8104
 30
0.0
 11
217.0055
 21
-123.8404
 31
0.0
  0
ARC
  5
2AD
100
AcDbEntity
  8
1
  6
CONTINUOUS
 62
     1
100
AcDbCircle
 10
214.7105
 20
-125.081175
 30
0.0
 40
2.608936
210
0.0
220
0.0
230
1.0
100
AcDbArc
 50
28.397547
 51
151.602456
  0
ARC
  5
2AE
100
AcDbEntity
  8
1
  6
CONTINUOUS
 62
     1
100
AcDbCircle
 10
214.7105
 20
-122.599625
 30
0.0
 40
2.608936
210
0.0
220
0.0
230
1.0
100
AcDbArc
 50
208.397544
 51
331.602453
  0
LINE
  5
2AF
100
AcDbEntity
  8
1
  6
CONTINUOUS
 62
     1
100
AcDbLine
 10
207.8255
 20
-146.6304
 30
0.0
 11
174.2355
 21
-146.6304
 31
0.0
  0
ARC
  5
2B0
100
AcDbEntity
  8
1
  6
CONTINUOUS
 62
     1
100
AcDbCircle
 10
175.476275
 20
-148.9254
 30
0.0
 40
2.608936
210
0.0
220
0.0
230
1.0
100
AcDbArc
 50
118.397544
 51
241.602453
  0
LINE
  5
2B1
100
AcDbEntity
  8
1
  6
CONTINUOUS
 62
     1
100
AcDbLine
 10
217.0055
 20
-155.8104
 30
0.0
 11
174.2355
 21
-155.8104
 31
0.0
  0
ARC
  5
2B2
100
AcDbEntity
  8
1
  6
CONTINUOUS
 62
     1
100
AcDbCircle
 10
175.476275
 20
-153.5154
 30
0.0
 40
2.608936
210
0.0
220
0.0
230
1.0
100
AcDbArc
 50
118.397544
 51
241.602453
  0
ARC
  5
2B3
100
AcDbEntity
  8
1
  6
CONTINUOUS
 62
     1
100
AcDbCircle
 10
172.994725
 20
-153.5154
 30
0.0
 40
2.608936
210
0.0
220
0.0
230
1.0
100
AcDbArc
 50
298.397547
 51
61.602456
  0
LINE
  5
2B4
100
AcDbEntity
  8
1
  6
CONTINUOUS
 62
     1
100
AcDbLine
 10
207.8255
 20
-146.6304
 30
0.0
 11
217.0055
 21
-155.8104
 31
0.0
  0
ARC
  5
2B5
100
AcDbEntity
  8
1
  6
CONTINUOUS
 62
     1
100
AcDbCircle
 10
166.862725
 20
-153.5154
 30
0.0
 40
2.608936
210
0.0
220
0.0
230
1.0
100
AcDbArc
 50
298.397544
 51
61.602453
  0
LINE
  5
2B6
100
AcDbEntity
  8
1
  6
CONTINUOUS
 62
     1
100
AcDbLine
 10
125.3335
 20
-146.6304
 30
0.0
 11
168.1035
 21
-146.6304
 31
0.0
  0
ARC
  5
2B7
100
AcDbEntity
  8
1
  6
CONTINUOUS
 62
     1
100
AcDbCircle
 10
166.862725
 20
-148.9254
 30
0.0
 40
2.608936
210
0.0
220
0.0
230
1.0
100
AcDbArc
 50
298.397544
 51
61.602453
  0
ARC
  5
2B8
100
AcDbEntity
  8
1
  6
CONTINUOUS
 62
     1
100
AcDbCircle
 10
169.344275
 20
-148.9254
 30
0.0
 40
2.608936
210
0.0
220
0.0
230
1.0
100
AcDbArc
 50
118.397547
 51
241.602456
  0
ARC
  5
2B9
100
AcDbEntity
  8
1
  6
CONTINUOUS
 62
     1
100
AcDbCircle
 10
126.574275
 20
-148.9254
 30
0.0
 40
2.608936
210
0.0
220
0.0
230
1.0
100
AcDbArc
 50
118.397544
 51
241.602453
  0
ARC
  5
2BA
100
AcDbEntity
  8
1
  6
CONTINUOUS
 62
     1
100
AcDbCircle
 10
126.574275
 20
-153.5154
 30
0.0
 40
2.608936
210
0.0
220
0.0
230
1.0
100
AcDbArc
 50
118.397544
 51
241.602453
  0
ARC
  5
2BB
100
AcDbEntity
  8
1
  6
CONTINUOUS
 62
     1
100
AcDbCircle
 10
124.092725
 20
-153.5154
 30
0.0
 40
2.608936
210
0.0
220
0.0
230
1.0
100
AcDbArc
 50
298.397547
 51
61.602456
  0
LINE
  5
2BC
100
AcDbEntity
  8
1
  6
CONTINUOUS
 62
     1
100
AcDbLine
 10
125.3335
 20
-155.8104
 30
0.0
 11
137.3335
 21
-155.8104
 31
0.0
  0
LINE
  5
2BD
100
AcDbEntity
  8
1
  6
CONTINUOUS
 62
     1
100
AcDbLine
 10
156.1035
 20
-155.8104
 30
0.0
 11
168.1035
 21
-155.8104
 31
0.0
  0
ARC
  5
2BE
100
AcDbEntity
  8
1
  6
CONTINUOUS
 62
     1
100
AcDbCircle
 10
146.7185
 20
-164.294139
 30
0.0
 40
12.651168
210
0.0
220
0.0
230
1.0
100
AcDbArc
 50
42.112569
 51
137.887428
  0
LINE
  5
2BF
100
AcDbEntity
  8
1
  6
CONTINUOUS
 62
     1
100
AcDbLine
 10
139.5195
 20
-162.3224
 30
0.0
 11
139.5195
 21
-186.5644
 31
0.0
  0
LINE
  5
2C0
100
AcDbEntity
  8
1
  6
CONTINUOUS
 62
     1
100
AcDbLine
 10
153.9195
 20
-162.3224
 30
0.0
 11
153.9195
 21
-186.5644
 31
0.0
  0
ARC
  5
2C1
100
AcDbEntity
  8
1
  6
CONTINUOUS
 62
     1
100
AcDbCircle
 10
147.897059
 20
-155.887247
 30
0.0
 40
10.563839
210
0.0
220
0.0
230
1.0
100
AcDbArc
 50
179.583194
 51
217.529369
  0
ARC
  5
2C2
100
AcDbEntity
  8
1
  6
CONTINUOUS
 62
     1
100
AcDbCircle
 10
145.541941
 20
-155.887247
 30
0.0
 40
10.563839
210
0.0
220
0.0
230
1.0
100
AcDbArc
 50
322.470631
 51
0.416806
  0
ARC
  5
2C3
100
AcDbEntity
  8
1
  6
CONTINUOUS
 62
     1
100
AcDbCircle
 10
150.3195
 20
-182.829906
 30
0.0
 40
5.187143
210
0.0
220
0.0
230
1.0
100
AcDbArc
 50
226.050528
 51
313.949469
  0
ARC
  5
2C4
100
AcDbEntity
  8
1
  6
CONTINUOUS
 62
     1
100
AcDbCircle
 10
143.1195
 20
-182.829906
 30
0.0
 40
5.187143
210
0.0
220
0.0
230
1.0
100
AcDbArc
 50
226.050528
 51
313.949469
  0
ARC
  5
2C5
100
AcDbEntity
  8
1
  6
CONTINUOUS
 62
     1
100
AcDbCircle
 10
150.3195
 20
-190.298894
 30
0.0
 40
5.187143
210
0.0
220
0.0
230
1.0
100
AcDbArc
 50
46.050531
 51
133.949472
  0
CIRCLE
  5
2C6
100
AcDbEntity
  8
1
  6
CONTINUOUS
 62
     1
100
AcDbCircle
 10
123.2745
 20
-137.1394
 30
0.0
 40
1.169698
210
0.0
220
0.0
230
1.0
  0
LINE
  5
2C7
100
AcDbEntity
  8
1
  6
CONTINUOUS
 62
     1
100
AcDbLine
 10
138.8355
 20
-154.3984
 30
0.0
 11
124.1015
 21
-137.9664
 31
0.0
  0
LINE
  5
2C8
100
AcDbEntity
  8
1
  6
CONTINUOUS
 62
     1
100
AcDbLine
 10
122.1055
 20
-137.1384
 30
0.0
 11
112.4215
 21
-137.1384
 31
0.0
  0
LINE
  5
2C9
100
AcDbEntity
  8
1
  6
CONTINUOUS
 62
     1
100
AcDbLine
 10
113.7175
 20
-137.1384
 30
0.0
 11
113.7175
 21
-139.8904
 31
0.0
  0
LINE
  5
2CA
100
AcDbEntity
  8
1
  6
CONTINUOUS
 62
     1
100
AcDbLine
 10
113.7175
 20
-139.8904
 30
0.0
 11
117.5275
 21
-137.1384
 31
0.0
  0
INSERT
  5
2CB
100
AcDbEntity
  8
1
  6
CONTINUOUS
 62
     1
100
AcDbBlockReference
  2
LDR
 10
138.8355
 20
-154.3984
 30
0.0
 41
200.000004
 42
200.000004
 50
311.881467
210
0.0
220
0.0
230
1.0
  0
LINE
  5
2CC
100
AcDbEntity
  8
1
  6
CONTINUOUS
 62
     1
100
AcDbLine
 10
144.1555
 20
-155.5324
 30
0.0
 11
140.3635
 21
-123.3904
 31
0.0
  0
INSERT
  5
2CD
100
AcDbEntity
  8
1
  6
CONTINUOUS
 62
     1
100
AcDbBlockReference
  2
LDR
 10
144.1555
 20
-155.5324
 30
0.0
 41
199.999959
 42
199.999959
 50
276.728449
210
0.0
220
0.0
230
1.0
  0
LINE
  5
2CE
100
AcDbEntity
  8
1
  6
CONTINUOUS
 62
     1
100
AcDbLine
 10
148.6135
 20
-151.7864
 30
0.0
 11
152.8375
 21
-134.0704
 31
0.0
  0
INSERT
  5
2CF
100
AcDbEntity
  8
1
  6
CONTINUOUS
 62
     1
100
AcDbBlockReference
  2
LDR
 10
148.6135
 20
-151.7864
 30
0.0
 41
200.000002
 42
200.000002
 50
256.58944
210
0.0
220
0.0
230
1.0
  0
LINE
  5
2D0
100
AcDbEntity
  8
1
  6
CONTINUOUS
 62
     1
100
AcDbLine
 10
131.4455
 20
-155.8324
 30
0.0
 11
123.7935
 21
-167.4144
 31
0.0
  0
LINE
  5
2D1
100
AcDbEntity
  8
1
  6
CONTINUOUS
 62
     1
100
AcDbLine
 10
153.9275
 20
-176.2864
 30
0.0
 11
158.3975
 21
-180.0804
 31
0.0
  0
LINE
  5
2D2
100
AcDbEntity
  8
1
  6
CONTINUOUS
 62
     1
100
AcDbLine
 10
207.2255
 20
-94.4364
 30
0.0
 11
186.6795
 21
-94.4364
 31
0.0
  0
LINE
  5
2D3
100
AcDbEntity
  8
1
  6
CONTINUOUS
 62
     1
100
AcDbLine
 10
220.0055
 20
-91.6164
 30
0.0
 11
229.5095
 21
-91.6164
 31
0.0
  0
LINE
  5
2D4
100
AcDbEntity
  8
1
  6
CONTINUOUS
 62
     1
100
AcDbLine
 10
232.5575
 20
-92.7544
 30
0.0
 11
262.5375
 21
-92.7544
 31
0.0
  0
LINE
  5
2D5
100
AcDbEntity
  8
1
  6
CONTINUOUS
 62
     1
100
AcDbLine
 10
199.2295
 20
-87.8924
 30
0.0
 11
234.7575
 21
-87.8924
 31
0.0
  0
LINE
  5
2D6
100
AcDbEntity
  8
1
  6
CONTINUOUS
 62
     1
100
AcDbLine
 10
227.1095
 20
-91.6164
 30
0.0
 11
227.1095
 21
-97.0404
 31
0.0
  0
LINE
  5
2D7
100
AcDbEntity
  8
1
  6
CONTINUOUS
 62
     1
100
AcDbLine
 10
232.5575
 20
-92.7544
 30
0.0
 11
232.7115
 21
-87.8924
 31
0.0
  0
LINE
  5
2D8
100
AcDbEntity
  8
1
  6
CONTINUOUS
 62
     1
100
AcDbLine
 10
227.1095
 20
-82.4684
 30
0.0
 11
227.1095
 21
-87.8924
 31
0.0
  0
INSERT
  5
2D9
100
AcDbEntity
  8
1
  6
CONTINUOUS
 62
     1
100
AcDbBlockReference
  2
LDR
 10
207.2255
 20
-94.4364
 30
0.0
 41
200.0
 42
200.0
210
0.0
220
0.0
230
1.0
  0
INSERT
  5
2DA
100
AcDbEntity
  8
1
  6
CONTINUOUS
 62
     1
100
AcDbBlockReference
  2
LDR
 10
207.2255
 20
-94.4364
 30
0.0
 41
200.0
 42
200.0
210
0.0
220
0.0
230
1.0
  0
INSERT
  5
2DB
100
AcDbEntity
  8
1
  6
CONTINUOUS
 62
     1
100
AcDbBlockReference
  2
LDR
 10
227.1095
 20
-87.8924
 30
0.0
 41
200.0
 42
200.0
 50
270.0
210
0.0
220
0.0
230
1.0
  0
INSERT
  5
2DC
100
AcDbEntity
  8
1
  6
CONTINUOUS
 62
     1
100
AcDbBlockReference
  2
LDR
 10
227.1095
 20
-87.8924
 30
0.0
 41
200.0
 42
200.0
 50
270.0
210
0.0
220
0.0
230
1.0
  0
INSERT
  5
2DD
100
AcDbEntity
  8
1
  6
CONTINUOUS
 62
     1
100
AcDbBlockReference
  2
LDR
 10
227.1095
 20
-91.6164
 30
0.0
 41
200.0
 42
200.0
 50
90.0
210
0.0
220
0.0
230
1.0
  0
INSERT
  5
2DE
100
AcDbEntity
  8
1
  6
CONTINUOUS
 62
     1
100
AcDbBlockReference
  2
LDR
 10
227.1095
 20
-91.6164
 30
0.0
 41
200.0
 42
200.0
 50
90.0
210
0.0
220
0.0
230
1.0
  0
INSERT
  5
2DF
100
AcDbEntity
  8
1
  6
CONTINUOUS
 62
     1
100
AcDbBlockReference
  2
LDR
 10
232.7115
 20
-87.8924
 30
0.0
 41
200.000041
 42
200.000041
 50
88.185799
210
0.0
220
0.0
230
1.0
  0
INSERT
  5
2E0
100
AcDbEntity
  8
1
  6
CONTINUOUS
 62
     1
100
AcDbBlockReference
  2
LDR
 10
131.4455
 20
-155.8324
 30
0.0
 41
199.99999
 42
199.99999
 50
56.54803
210
0.0
220
0.0
230
1.0
  0
INSERT
  5
2E1
100
AcDbEntity
  8
1
  6
CONTINUOUS
 62
     1
100
AcDbBlockReference
  2
LDR
 10
153.9275
 20
-176.2864
 30
0.0
 41
199.999982
 42
199.999982
 50
139.676417
210
0.0
220
0.0
230
1.0
  0
LINE
  5
2E2
100
AcDbEntity
  8
1
  6
CONTINUOUS
 62
     1
100
AcDbLine
 10
217.0055
 20
-111.9904
 30
0.0
 11
224.9875
 21
-115.2764
 31
0.0
  0
INSERT
  5
2E3
100
AcDbEntity
  8
1
  6
CONTINUOUS
 62
     1
100
AcDbBlockReference
  2
LDR
 10
217.0055
 20
-111.9904
 30
0.0
 41
200.000024
 42
200.000024
 50
157.624213
210
0.0
220
0.0
230
1.0
  0
LINE
  5
2E4
100
AcDbEntity
  8
1
  6
CONTINUOUS
 62
     1
100
AcDbLine
 10
212.4615
 20
-151.3684
 30
0.0
 11
223.5375
 21
-148.6704
 31
0.0
  0
CIRCLE
  5
2E5
100
AcDbEntity
  8
1
  6
CONTINUOUS
 62
     1
100
AcDbCircle
 10
224.5655
 20
-148.1424
 30
0.0
 40
1.154984
210
0.0
220
0.0
230
1.0
  0
LINE
  5
2E6
100
AcDbEntity
  8
1
  6
CONTINUOUS
 62
     1
100
AcDbLine
 10
225.7195
 20
-148.1424
 30
0.0
 11
238.2635
 21
-148.1424
 31
0.0
  0
LINE
  5
2E7
100
AcDbEntity
  8
1
  6
CONTINUOUS
 62
     1
100
AcDbLine
 10
214.7715
 20
-153.5764
 30
0.0
 11
209.2835
 21
-165.8604
 31
0.0
  0
LINE
  5
2E8
100
AcDbEntity
  8
1
  6
CONTINUOUS
 62
     1
100
AcDbLine
 10
218.6815
 20
-157.5284
 30
0.0
 11
229.1935
 21
-168.2924
 31
0.0
  0
INSERT
  5
2E9
100
AcDbEntity
  8
1
  6
CONTINUOUS
 62
     1
100
AcDbBlockReference
  2
LDR
 10
214.7715
 20
-153.5764
 30
0.0
 41
199.999975
 42
199.999975
 50
65.926811
210
0.0
220
0.0
230
1.0
  0
LINE
  5
2EA
100
AcDbEntity
  8
1
  6
CONTINUOUS
 62
     1
100
AcDbLine
 10
234.4275
 20
-151.3684
 30
0.0
 11
234.4275
 21
-144.8484
 31
0.0
  0
ARC
  5
2EB
100
AcDbEntity
  8
1
  6
CONTINUOUS
 62
     1
100
AcDbCircle
 10
234.123219
 20
-137.595813
 30
0.0
 40
13.775948
210
0.0
220
0.0
230
1.0
100
AcDbArc
 50
258.358897
 51
283.441622
  0
LINE
  5
2EC
100
AcDbEntity
  8
1
  6
CONTINUOUS
 62
     1
100
AcDbLine
 10
226.2015
 20
-165.2284
 30
0.0
 11
226.2015
 21
-162.0364
 31
0.0
  0
LINE
  5
2ED
100
AcDbEntity
  8
1
  6
CONTINUOUS
 62
     1
100
AcDbLine
 10
226.2015
 20
-162.0364
 30
0.0
 11
223.0835
 21
-162.0364
 31
0.0
  0
LINE
  5
2EE
100
AcDbEntity
  8
1
  6
CONTINUOUS
 62
     1
100
AcDbLine
 10
270.2638
 20
-214.1079
 30
0.0
 11
262.0598
 21
-202.2379
 31
0.0
  0
INSERT
  5
2EF
100
AcDbEntity
  8
1
  6
CONTINUOUS
 62
     1
100
AcDbBlockReference
  2
LDR
 10
270.2638
 20
-214.1079
 30
0.0
 41
199.99996
 42
199.99996
 50
304.650455
210
0.0
220
0.0
230
1.0
  0
LINE
  5
2F0
100
AcDbEntity
  8
1
  6
CONTINUOUS
 62
     1
100
AcDbLine
 10
332.8738
 20
-201.1939
 30
0.0
 11
345.5018
 21
-201.1939
 31
0.0
  0
LINE
  5
2F1
100
AcDbEntity
  8
1
  6
CONTINUOUS
 62
     1
100
AcDbLine
 10
332.8738
 20
-221.9379
 30
0.0
 11
345.5018
 21
-221.9379
 31
0.0
  0
LINE
  5
2F2
100
AcDbEntity
  8
1
  6
CONTINUOUS
 62
     1
100
AcDbLine
 10
343.1018
 20
-201.1939
 30
0.0
 11
343.1018
 21
-221.9379
 31
0.0
  0
INSERT
  5
2F3
100
AcDbEntity
  8
1
  6
CONTINUOUS
 62
     1
100
AcDbBlockReference
  2
LDR
 10
343.1018
 20
-201.1939
 30
0.0
 41
200.0
 42
200.0
 50
90.0
210
0.0
220
0.0
230
1.0
  0
INSERT
  5
2F4
100
AcDbEntity
  8
1
  6
CONTINUOUS
 62
     1
100
AcDbBlockReference
  2
LDR
 10
343.1018
 20
-201.1939
 30
0.0
 41
200.0
 42
200.0
 50
90.0
210
0.0
220
0.0
230
1.0
  0
INSERT
  5
2F5
100
AcDbEntity
  8
1
  6
CONTINUOUS
 62
     1
100
AcDbBlockReference
  2
LDR
 10
343.1018
 20
-221.9379
 30
0.0
 41
200.0
 42
200.0
 50
270.0
210
0.0
220
0.0
230
1.0
  0
LINE
  5
2F6
100
AcDbEntity
  8
1
  6
CONTINUOUS
 62
     1
100
AcDbLine
 10
329.3018
 20
-212.5259
 30
0.0
 11
333.8498
 21
-210.1919
 31
0.0
  0
LINE
  5
2F7
100
AcDbEntity
  8
1
  6
CONTINUOUS
 62
     1
100
AcDbLine
 10
333.8498
 20
-210.1919
 30
0.0
 11
338.2378
 21
-203.3239
 31
0.0
  0
LINE
  5
2F8
100
AcDbEntity
  8
1
  6
CONTINUOUS
 62
     1
100
AcDbLine
 10
338.2378
 20
-203.3239
 30
0.0
 11
339.0878
 21
-203.8899
 31
0.0
  0
LINE
  5
2F9
100
AcDbEntity
  8
1
  6
CONTINUOUS
 62
     1
100
AcDbLine
 10
339.0878
 20
-203.8899
 30
0.0
 11
340.3078
 21
-202.1719
 31
0.0
  0
LINE
  5
2FA
100
AcDbEntity
  8
1
  6
CONTINUOUS
 62
     1
100
AcDbLine
 10
341.6998
 20
-200.2139
 30
0.0
 11
345.9831
 21
-194.1962
 31
0.0
  0
LINE
  5
2FB
100
AcDbEntity
  8
1
  6
CONTINUOUS
 62
     1
100
AcDbLine
 10
271.0098
 20
-224.3379
 30
0.0
 11
271.0098
 21
-243.4139
 31
0.0
  0
LINE
  5
2FC
100
AcDbEntity
  8
1
  6
CONTINUOUS
 62
     1
100
AcDbLine
 10
328.5538
 20
-224.3379
 30
0.0
 11
328.5538
 21
-243.4139
 31
0.0
  0
LINE
  5
2FD
100
AcDbEntity
  8
1
  6
CONTINUOUS
 62
     1
100
AcDbLine
 10
272.1818
 20
-214.9259
 30
0.0
 11
272.1818
 21
-234.8679
 31
0.0
  0
LINE
  5
2FE
100
AcDbEntity
  8
1
  6
CONTINUOUS
 62
     1
100
AcDbLine
 10
327.3818
 20
-214.9259
 30
0.0
 11
327.3818
 21
-234.8679
 31
0.0
  0
LINE
  5
2FF
100
AcDbEntity
  8
1
  6
CONTINUOUS
 62
     1
100
AcDbLine
 10
272.1818
 20
-232.4679
 30
0.0
 11
327.3818
 21
-232.4679
 31
0.0
  0
LINE
  5
300
100
AcDbEntity
  8
1
  6
CONTINUOUS
 62
     1
100
AcDbLine
 10
271.0098
 20
-241.0139
 30
0.0
 11
328.5538
 21
-241.0139
 31
0.0
  0
INSERT
  5
301
100
AcDbEntity
  8
1
  6
CONTINUOUS
 62
     1
100
AcDbBlockReference
  2
LDR
 10
272.1818
 20
-232.4679
 30
0.0
 41
200.0
 42
200.0
 50
180.0
210
0.0
220
0.0
230
1.0
  0
INSERT
  5
302
100
AcDbEntity
  8
1
  6
CONTINUOUS
 62
     1
100
AcDbBlockReference
  2
LDR
 10
272.1818
 20
-232.4679
 30
0.0
 41
200.0
 42
200.0
 50
180.0
210
0.0
220
0.0
230
1.0
  0
INSERT
  5
303
100
AcDbEntity
  8
1
  6
CONTINUOUS
 62
     1
100
AcDbBlockReference
  2
LDR
 10
327.3818
 20
-232.4679
 30
0.0
 41
200.0
 42
200.0
210
0.0
220
0.0
230
1.0
  0
INSERT
  5
304
100
AcDbEntity
  8
1
  6
CONTINUOUS
 62
     1
100
AcDbBlockReference
  2
LDR
 10
327.3818
 20
-232.4679
 30
0.0
 41
200.0
 42
200.0
210
0.0
220
0.0
230
1.0
  0
INSERT
  5
305
100
AcDbEntity
  8
1
  6
CONTINUOUS
 62
     1
100
AcDbBlockReference
  2
LDR
 10
328.5538
 20
-241.0139
 30
0.0
 41
200.0
 42
200.0
210
0.0
220
0.0
230
1.0
  0
INSERT
  5
306
100
AcDbEntity
  8
1
  6
CONTINUOUS
 62
     1
100
AcDbBlockReference
  2
LDR
 10
328.5538
 20
-241.0139
 30
0.0
 41
200.0
 42
200.0
210
0.0
220
0.0
230
1.0
  0
INSERT
  5
307
100
AcDbEntity
  8
1
  6
CONTINUOUS
 62
     1
100
AcDbBlockReference
  2
LDR
 10
271.0098
 20
-241.0139
 30
0.0
 41
200.0
 42
200.0
 50
180.0
210
0.0
220
0.0
230
1.0
  0
INSERT
  5
308
100
AcDbEntity
  8
1
  6
CONTINUOUS
 62
     1
100
AcDbBlockReference
  2
LDR
 10
329.3018
 20
-212.5259
 30
0.0
 41
199.999974
 42
199.999974
 50
207.166572
210
0.0
220
0.0
230
1.0
  0
LINE
  5
309
100
AcDbEntity
  8
1
  6
CONTINUOUS
 62
     1
100
AcDbLine
 10
262.0598
 20
-202.2379
 30
0.0
 11
276.6447
 21
-194.1962
 31
0.0
  0
LINE
  5
30A
100
AcDbEntity
  8
1
  6
CONTINUOUS
 62
     1
100
AcDbLine
 10
335.4347
 20
-67.7609
 30
0.0
 11
402.3332
 21
-67.7609
 31
0.0
  0
LINE
  5
30B
100
AcDbEntity
  8
1
  6
CONTINUOUS
 62
     1
100
AcDbLine
 10
311.1687
 20
-116.5569
 30
0.0
 11
369.8247
 21
-116.5569
 31
0.0
  0
LINE
  5
30C
100
AcDbEntity
  8
1
  6
CONTINUOUS
 62
     1
100
AcDbLine
 10
311.1687
 20
-121.9369
 30
0.0
 11
369.8247
 21
-121.9369
 31
0.0
  0
LINE
  5
30D
100
AcDbEntity
  8
1
  6
CONTINUOUS
 62
     1
100
AcDbLine
 10
311.1687
 20
-116.5569
 30
0.0
 11
311.1687
 21
-121.9369
 31
0.0
  0
LINE
  5
30E
100
AcDbEntity
  8
1
  6
CONTINUOUS
 62
     1
100
AcDbLine
 10
369.8247
 20
-116.5569
 30
0.0
 11
369.8247
 21
-121.9369
 31
0.0
  0
LINE
  5
30F
100
AcDbEntity
  8
1
  6
CONTINUOUS
 62
     1
100
AcDbLine
 10
312.3687
 20
-115.5329
 30
0.0
 11
322.2087
 21
-115.5329
 31
0.0
  0
LINE
  5
310
100
AcDbEntity
  8
1
  6
CONTINUOUS
 62
     1
100
AcDbLine
 10
314.7687
 20
-112.2029
 30
0.0
 11
319.8087
 21
-112.2029
 31
0.0
  0
LINE
  5
311
100
AcDbEntity
  8
1
  6
CONTINUOUS
 62
     1
100
AcDbLine
 10
312.3687
 20
-116.5569
 30
0.0
 11
312.3687
 21
-115.5329
 31
0.0
  0
LINE
  5
312
100
AcDbEntity
  8
1
  6
CONTINUOUS
 62
     1
100
AcDbLine
 10
368.6247
 20
-116.5569
 30
0.0
 11
368.6247
 21
-115.5329
 31
0.0
  0
LINE
  5
313
100
AcDbEntity
  8
1
  6
CONTINUOUS
 62
     1
100
AcDbLine
 10
322.2087
 20
-116.5569
 30
0.0
 11
322.2087
 21
-115.5329
 31
0.0
  0
LINE
  5
314
100
AcDbEntity
  8
1
  6
CONTINUOUS
 62
     1
100
AcDbLine
 10
313.5687
 20
-115.5329
 30
0.0
 11
313.5687
 21
-113.4029
 31
0.0
  0
LINE
  5
315
100
AcDbEntity
  8
1
  6
CONTINUOUS
 62
     1
100
AcDbLine
 10
321.0087
 20
-115.5329
 30
0.0
 11
321.0087
 21
-113.4029
 31
0.0
  0
ARC
  5
316
100
AcDbEntity
  8
1
  6
CONTINUOUS
 62
     1
100
AcDbCircle
 10
314.815099
 20
-113.449299
 30
0.0
 40
1.247262
210
0.0
220
0.0
230
1.0
100
AcDbArc
 50
92.131942
 51
177.868061
  0
ARC
  5
317
100
AcDbEntity
  8
1
  6
CONTINUOUS
 62
     1
100
AcDbCircle
 10
319.762301
 20
-113.449299
 30
0.0
 40
1.247262
210
0.0
220
0.0
230
1.0
100
AcDbArc
 50
2.131939
 51
87.868058
  0
LINE
  5
318
100
AcDbEntity
  8
1
  6
CONTINUOUS
 62
     1
100
AcDbLine
 10
319.3287
 20
-112.2029
 30
0.0
 11
319.3287
 21
-109.8029
 31
0.0
  0
LINE
  5
319
100
AcDbEntity
  8
1
  6
CONTINUOUS
 62
     1
100
AcDbLine
 10
319.3287
 20
-109.8029
 30
0.0
 11
315.2487
 21
-109.8029
 31
0.0
  0
LINE
  5
31A
100
AcDbEntity
  8
1
  6
CONTINUOUS
 62
     1
100
AcDbLine
 10
315.2487
 20
-111.0029
 30
0.0
 11
319.3287
 21
-111.0029
 31
0.0
  0
LINE
  5
31B
100
AcDbEntity
  8
1
  6
CONTINUOUS
 62
     1
100
AcDbLine
 10
315.2487
 20
-112.2029
 30
0.0
 11
315.2487
 21
-111.0029
 31
0.0
  0
LINE
  5
31C
100
AcDbEntity
  8
1
  6
CONTINUOUS
 62
     1
100
AcDbLine
 10
315.2487
 20
-111.0029
 30
0.0
 11
315.2487
 21
-109.8029
 31
0.0
  0
LINE
  5
31D
100
AcDbEntity
  8
1
  6
CONTINUOUS
 62
     1
100
AcDbLine
 10
316.4487
 20
-110.4029
 30
0.0
 11
318.1287
 21
-110.4029
 31
0.0
  0
LINE
  5
31E
100
AcDbEntity
  8
1
  6
CONTINUOUS
 62
     1
100
AcDbLine
 10
316.4487
 20
-111.6029
 30
0.0
 11
318.1287
 21
-111.6029
 31
0.0
  0
LINE
  5
31F
100
AcDbEntity
  8
1
  6
CONTINUOUS
 62
     1
100
AcDbLine
 10
315.2487
 20
-115.5329
 30
0.0
 11
315.2487
 21
-113.4029
 31
0.0
  0
LINE
  5
320
100
AcDbEntity
  8
1
  6
CONTINUOUS
 62
     1
100
AcDbLine
 10
319.3287
 20
-115.5329
 30
0.0
 11
319.3287
 21
-113.4029
 31
0.0
  0
ARC
  5
321
100
AcDbEntity
  8
1
  6
CONTINUOUS
 62
     1
100
AcDbCircle
 10
317.2887
 20
-116.371707
 30
0.0
 40
3.60214
210
0.0
220
0.0
230
1.0
100
AcDbArc
 50
55.505303
 51
124.494697
  0
ARC
  5
322
100
AcDbEntity
  8
1
  6
CONTINUOUS
 62
     1
100
AcDbCircle
 10
301.278695
 20
-118.294903
 30
0.0
 40
14.801782
210
0.0
220
0.0
230
1.0
100
AcDbArc
 50
19.299181
 51
24.303639
  0
ARC
  5
323
100
AcDbEntity
  8
1
  6
CONTINUOUS
 62
     1
100
AcDbCircle
 10
333.298705
 20
-118.294903
 30
0.0
 40
14.801782
210
0.0
220
0.0
230
1.0
100
AcDbArc
 50
155.696361
 51
160.700819
  0
LINE
  5
324
100
AcDbEntity
  8
1
  6
CONTINUOUS
 62
     1
100
AcDbLine
 10
315.2487
 20
-121.9369
 30
0.0
 11
315.2487
 21
-125.5369
 31
0.0
  0
LINE
  5
325
100
AcDbEntity
  8
1
  6
CONTINUOUS
 62
     1
100
AcDbLine
 10
319.3287
 20
-121.9369
 30
0.0
 11
319.3287
 21
-125.5369
 31
0.0
  0
ARC
  5
326
100
AcDbEntity
  8
1
  6
CONTINUOUS
 62
     1
100
AcDbCircle
 10
316.2687
 20
-125.051085
 30
0.0
 40
1.129786
210
0.0
220
0.0
230
1.0
100
AcDbArc
 50
205.467958
 51
334.532042
  0
ARC
  5
327
100
AcDbEntity
  8
1
  6
CONTINUOUS
 62
     1
100
AcDbCircle
 10
318.3087
 20
-125.051085
 30
0.0
 40
1.129786
210
0.0
220
0.0
230
1.0
100
AcDbArc
 50
205.467958
 51
334.532042
  0
ARC
  5
328
100
AcDbEntity
  8
1
  6
CONTINUOUS
 62
     1
100
AcDbCircle
 10
318.3087
 20
-126.022715
 30
0.0
 40
1.129786
210
0.0
220
0.0
230
1.0
100
AcDbArc
 50
25.467958
 51
154.532042
  0
LINE
  5
329
100
AcDbEntity
  8
1
  6
CONTINUOUS
 62
     1
100
AcDbLine
 10
358.7847
 20
-115.5329
 30
0.0
 11
368.6247
 21
-115.5329
 31
0.0
  0
LINE
  5
32A
100
AcDbEntity
  8
1
  6
CONTINUOUS
 62
     1
100
AcDbLine
 10
361.1847
 20
-112.2029
 30
0.0
 11
366.2247
 21
-112.2029
 31
0.0
  0
LINE
  5
32B
100
AcDbEntity
  8
1
  6
CONTINUOUS
 62
     1
100
AcDbLine
 10
358.7847
 20
-116.5569
 30
0.0
 11
358.7847
 21
-115.5329
 31
0.0
  0
LINE
  5
32C
100
AcDbEntity
  8
1
  6
CONTINUOUS
 62
     1
100
AcDbLine
 10
359.9847
 20
-115.5329
 30
0.0
 11
359.9847
 21
-113.4029
 31
0.0
  0
LINE
  5
32D
100
AcDbEntity
  8
1
  6
CONTINUOUS
 62
     1
100
AcDbLine
 10
367.4247
 20
-115.5329
 30
0.0
 11
367.4247
 21
-113.4029
 31
0.0
  0
ARC
  5
32E
100
AcDbEntity
  8
1
  6
CONTINUOUS
 62
     1
100
AcDbCircle
 10
361.231099
 20
-113.449299
 30
0.0
 40
1.247262
210
0.0
220
0.0
230
1.0
100
AcDbArc
 50
92.131942
 51
177.868061
  0
ARC
  5
32F
100
AcDbEntity
  8
1
  6
CONTINUOUS
 62
     1
100
AcDbCircle
 10
366.178301
 20
-113.449299
 30
0.0
 40
1.247262
210
0.0
220
0.0
230
1.0
100
AcDbArc
 50
2.131939
 51
87.868058
  0
LINE
  5
330
100
AcDbEntity
  8
1
  6
CONTINUOUS
 62
     1
100
AcDbLine
 10
365.7447
 20
-112.2029
 30
0.0
 11
365.7447
 21
-109.8029
 31
0.0
  0
LINE
  5
331
100
AcDbEntity
  8
1
  6
CONTINUOUS
 62
     1
100
AcDbLine
 10
365.7447
 20
-109.8029
 30
0.0
 11
361.6647
 21
-109.8029
 31
0.0
  0
LINE
  5
332
100
AcDbEntity
  8
1
  6
CONTINUOUS
 62
     1
100
AcDbLine
 10
361.6647
 20
-111.0029
 30
0.0
 11
365.7447
 21
-111.0029
 31
0.0
  0
LINE
  5
333
100
AcDbEntity
  8
1
  6
CONTINUOUS
 62
     1
100
AcDbLine
 10
361.6647
 20
-112.2029
 30
0.0
 11
361.6647
 21
-111.0029
 31
0.0
  0
LINE
  5
334
100
AcDbEntity
  8
1
  6
CONTINUOUS
 62
     1
100
AcDbLine
 10
361.6647
 20
-111.0029
 30
0.0
 11
361.6647
 21
-109.8029
 31
0.0
  0
LINE
  5
335
100
AcDbEntity
  8
1
  6
CONTINUOUS
 62
     1
100
AcDbLine
 10
362.8647
 20
-110.4029
 30
0.0
 11
364.5447
 21
-110.4029
 31
0.0
  0
LINE
  5
336
100
AcDbEntity
  8
1
  6
CONTINUOUS
 62
     1
100
AcDbLine
 10
362.8647
 20
-111.6029
 30
0.0
 11
364.5447
 21
-111.6029
 31
0.0
  0
LINE
  5
337
100
AcDbEntity
  8
1
  6
CONTINUOUS
 62
     1
100
AcDbLine
 10
361.6647
 20
-115.5329
 30
0.0
 11
361.6647
 21
-113.4029
 31
0.0
  0
LINE
  5
338
100
AcDbEntity
  8
1
  6
CONTINUOUS
 62
     1
100
AcDbLine
 10
365.7447
 20
-115.5329
 30
0.0
 11
365.7447
 21
-113.4029
 31
0.0
  0
ARC
  5
339
100
AcDbEntity
  8
1
  6
CONTINUOUS
 62
     1
100
AcDbCircle
 10
363.7047
 20
-116.371707
 30
0.0
 40
3.60214
210
0.0
220
0.0
230
1.0
100
AcDbArc
 50
55.505303
 51
124.494697
  0
ARC
  5
33A
100
AcDbEntity
  8
1
  6
CONTINUOUS
 62
     1
100
AcDbCircle
 10
347.694695
 20
-118.294903
 30
0.0
 40
14.801782
210
0.0
220
0.0
230
1.0
100
AcDbArc
 50
19.299181
 51
24.303639
  0
ARC
  5
33B
100
AcDbEntity
  8
1
  6
CONTINUOUS
 62
     1
100
AcDbCircle
 10
379.714705
 20
-118.294903
 30
0.0
 40
14.801782
210
0.0
220
0.0
230
1.0
100
AcDbArc
 50
155.696361
 51
160.700819
  0
LINE
  5
33C
100
AcDbEntity
  8
1
  6
CONTINUOUS
 62
     1
100
AcDbLine
 10
361.6647
 20
-121.9369
 30
0.0
 11
361.6647
 21
-125.5369
 31
0.0
  0
LINE
  5
33D
100
AcDbEntity
  8
1
  6
CONTINUOUS
 62
     1
100
AcDbLine
 10
365.7447
 20
-121.9369
 30
0.0
 11
365.7447
 21
-125.5369
 31
0.0
  0
ARC
  5
33E
100
AcDbEntity
  8
1
  6
CONTINUOUS
 62
     1
100
AcDbCircle
 10
362.6847
 20
-125.051085
 30
0.0
 40
1.129786
210
0.0
220
0.0
230
1.0
100
AcDbArc
 50
205.467958
 51
334.532042
  0
ARC
  5
33F
100
AcDbEntity
  8
1
  6
CONTINUOUS
 62
     1
100
AcDbCircle
 10
364.7247
 20
-125.051085
 30
0.0
 40
1.129786
210
0.0
220
0.0
230
1.0
100
AcDbArc
 50
205.467958
 51
334.532042
  0
ARC
  5
340
100
AcDbEntity
  8
1
  6
CONTINUOUS
 62
     1
100
AcDbCircle
 10
364.7247
 20
-126.022715
 30
0.0
 40
1.129786
210
0.0
220
0.0
230
1.0
100
AcDbArc
 50
25.467958
 51
154.532042
  0
LINE
  5
341
100
AcDbEntity
  8
1
  6
CONTINUOUS
 62
     1
100
AcDbLine
 10
325.8547
 20
-116.5569
 30
0.0
 11
325.8547
 21
-85.0949
 31
0.0
  0
LINE
  5
342
100
AcDbEntity
  8
1
  6
CONTINUOUS
 62
     1
100
AcDbLine
 10
355.4067
 20
-116.5569
 30
0.0
 11
355.4067
 21
-85.0949
 31
0.0
  0
ARC
  5
343
100
AcDbEntity
  8
1
  6
CONTINUOUS
 62
     1
100
AcDbCircle
 10
333.2427
 20
-91.312794
 30
0.0
 40
9.656332
210
0.0
220
0.0
230
1.0
100
AcDbArc
 50
40.084658
 51
139.915342
  0
ARC
  5
344
100
AcDbEntity
  8
1
  6
CONTINUOUS
 62
     1
100
AcDbCircle
 10
348.0187
 20
-91.312794
 30
0.0
 40
9.656332
210
0.0
220
0.0
230
1.0
100
AcDbArc
 50
40.084658
 51
139.915342
  0
ARC
  5
345
100
AcDbEntity
  8
1
  6
CONTINUOUS
 62
     1
100
AcDbCircle
 10
333.2427
 20
-78.877006
 30
0.0
 40
9.656332
210
0.0
220
0.0
230
1.0
100
AcDbArc
 50
220.084658
 51
319.915342
  0
LINE
  5
346
100
AcDbEntity
  8
1
  6
CONTINUOUS
 62
     1
100
AcDbLine
 10
311.1687
 20
-127.7149
 30
0.0
 11
369.8247
 21
-127.7149
 31
0.0
  0
LINE
  5
347
100
AcDbEntity
  8
1
  6
CONTINUOUS
 62
     1
100
AcDbLine
 10
311.1687
 20
-129.3409
 30
0.0
 11
369.8247
 21
-129.3409
 31
0.0
  0
LINE
  5
348
100
AcDbEntity
  8
1
  6
CONTINUOUS
 62
     1
100
AcDbLine
 10
311.1687
 20
-127.7149
 30
0.0
 11
311.1687
 21
-129.3409
 31
0.0
  0
LINE
  5
349
100
AcDbEntity
  8
1
  6
CONTINUOUS
 62
     1
100
AcDbLine
 10
369.8247
 20
-127.7149
 30
0.0
 11
369.8247
 21
-129.3409
 31
0.0
  0
LINE
  5
34A
100
AcDbEntity
  8
1
  6
CONTINUOUS
 62
     1
100
AcDbLine
 10
311.1687
 20
-141.2929
 30
0.0
 11
369.8247
 21
-141.2929
 31
0.0
  0
LINE
  5
34B
100
AcDbEntity
  8
1
  6
CONTINUOUS
 62
     1
100
AcDbLine
 10
311.1687
 20
-146.6729
 30
0.0
 11
369.8247
 21
-146.6729
 31
0.0
  0
LINE
  5
34C
100
AcDbEntity
  8
1
  6
CONTINUOUS
 62
     1
100
AcDbLine
 10
311.1687
 20
-146.6729
 30
0.0
 11
311.1687
 21
-141.2929
 31
0.0
  0
LINE
  5
34D
100
AcDbEntity
  8
1
  6
CONTINUOUS
 62
     1
100
AcDbLine
 10
369.8247
 20
-146.6729
 30
0.0
 11
369.8247
 21
-141.2929
 31
0.0
  0
LINE
  5
34E
100
AcDbEntity
  8
1
  6
CONTINUOUS
 62
     1
100
AcDbLine
 10
312.3687
 20
-147.6969
 30
0.0
 11
322.2087
 21
-147.6969
 31
0.0
  0
LINE
  5
34F
100
AcDbEntity
  8
1
  6
CONTINUOUS
 62
     1
100
AcDbLine
 10
314.7687
 20
-151.0269
 30
0.0
 11
319.8087
 21
-151.0269
 31
0.0
  0
LINE
  5
350
100
AcDbEntity
  8
1
  6
CONTINUOUS
 62
     1
100
AcDbLine
 10
312.3687
 20
-146.6729
 30
0.0
 11
312.3687
 21
-147.6969
 31
0.0
  0
LINE
  5
351
100
AcDbEntity
  8
1
  6
CONTINUOUS
 62
     1
100
AcDbLine
 10
368.6247
 20
-146.6729
 30
0.0
 11
368.6247
 21
-147.6969
 31
0.0
  0
LINE
  5
352
100
AcDbEntity
  8
1
  6
CONTINUOUS
 62
     1
100
AcDbLine
 10
322.2087
 20
-146.6729
 30
0.0
 11
322.2087
 21
-147.6969
 31
0.0
  0
LINE
  5
353
100
AcDbEntity
  8
1
  6
CONTINUOUS
 62
     1
100
AcDbLine
 10
313.5687
 20
-147.6969
 30
0.0
 11
313.5687
 21
-149.8269
 31
0.0
  0
LINE
  5
354
100
AcDbEntity
  8
1
  6
CONTINUOUS
 62
     1
100
AcDbLine
 10
321.0087
 20
-147.6969
 30
0.0
 11
321.0087
 21
-149.8269
 31
0.0
  0
ARC
  5
355
100
AcDbEntity
  8
1
  6
CONTINUOUS
 62
     1
100
AcDbCircle
 10
314.815099
 20
-149.780501
 30
0.0
 40
1.247262
210
0.0
220
0.0
230
1.0
100
AcDbArc
 50
182.131939
 51
267.868058
  0
ARC
  5
356
100
AcDbEntity
  8
1
  6
CONTINUOUS
 62
     1
100
AcDbCircle
 10
319.762301
 20
-149.780501
 30
0.0
 40
1.247262
210
0.0
220
0.0
230
1.0
100
AcDbArc
 50
272.131942
 51
357.868061
  0
LINE
  5
357
100
AcDbEntity
  8
1
  6
CONTINUOUS
 62
     1
100
AcDbLine
 10
319.3287
 20
-151.0269
 30
0.0
 11
319.3287
 21
-153.4269
 31
0.0
  0
LINE
  5
358
100
AcDbEntity
  8
1
  6
CONTINUOUS
 62
     1
100
AcDbLine
 10
319.3287
 20
-153.4269
 30
0.0
 11
315.2487
 21
-153.4269
 31
0.0
  0
LINE
  5
359
100
AcDbEntity
  8
1
  6
CONTINUOUS
 62
     1
100
AcDbLine
 10
315.2487
 20
-152.2269
 30
0.0
 11
319.3287
 21
-152.2269
 31
0.0
  0
LINE
  5
35A
100
AcDbEntity
  8
1
  6
CONTINUOUS
 62
     1
100
AcDbLine
 10
315.2487
 20
-151.0269
 30
0.0
 11
315.2487
 21
-152.2269
 31
0.0
  0
LINE
  5
35B
100
AcDbEntity
  8
1
  6
CONTINUOUS
 62
     1
100
AcDbLine
 10
315.2487
 20
-152.2269
 30
0.0
 11
315.2487
 21
-153.4269
 31
0.0
  0
LINE
  5
35C
100
AcDbEntity
  8
1
  6
CONTINUOUS
 62
     1
100
AcDbLine
 10
316.4487
 20
-152.8269
 30
0.0
 11
318.1287
 21
-152.8269
 31
0.0
  0
LINE
  5
35D
100
AcDbEntity
  8
1
  6
CONTINUOUS
 62
     1
100
AcDbLine
 10
316.4487
 20
-151.6269
 30
0.0
 11
318.1287
 21
-151.6269
 31
0.0
  0
LINE
  5
35E
100
AcDbEntity
  8
1
  6
CONTINUOUS
 62
     1
100
AcDbLine
 10
315.2487
 20
-147.6969
 30
0.0
 11
315.2487
 21
-149.8269
 31
0.0
  0
LINE
  5
35F
100
AcDbEntity
  8
1
  6
CONTINUOUS
 62
     1
100
AcDbLine
 10
319.3287
 20
-147.6969
 30
0.0
 11
319.3287
 21
-149.8269
 31
0.0
  0
ARC
  5
360
100
AcDbEntity
  8
1
  6
CONTINUOUS
 62
     1
100
AcDbCircle
 10
317.2887
 20
-146.858093
 30
0.0
 40
3.60214
210
0.0
220
0.0
230
1.0
100
AcDbArc
 50
235.505303
 51
304.494697
  0
ARC
  5
361
100
AcDbEntity
  8
1
  6
CONTINUOUS
 62
     1
100
AcDbCircle
 10
301.278695
 20
-144.934897
 30
0.0
 40
14.801782
210
0.0
220
0.0
230
1.0
100
AcDbArc
 50
335.696361
 51
340.700819
  0
ARC
  5
362
100
AcDbEntity
  8
1
  6
CONTINUOUS
 62
     1
100
AcDbCircle
 10
333.298705
 20
-144.934897
 30
0.0
 40
14.801782
210
0.0
220
0.0
230
1.0
100
AcDbArc
 50
199.299181
 51
204.303639
  0
LINE
  5
363
100
AcDbEntity
  8
1
  6
CONTINUOUS
 62
     1
100
AcDbLine
 10
315.2487
 20
-140.2689
 30
0.0
 11
315.2487
 21
-137.6929
 31
0.0
  0
LINE
  5
364
100
AcDbEntity
  8
1
  6
CONTINUOUS
 62
     1
100
AcDbLine
 10
319.3287
 20
-140.2689
 30
0.0
 11
319.3287
 21
-137.6929
 31
0.0
  0
ARC
  5
365
100
AcDbEntity
  8
1
  6
CONTINUOUS
 62
     1
100
AcDbCircle
 10
316.2687
 20
-138.178715
 30
0.0
 40
1.129786
210
0.0
220
0.0
230
1.0
100
AcDbArc
 50
25.467958
 51
154.532042
  0
ARC
  5
366
100
AcDbEntity
  8
1
  6
CONTINUOUS
 62
     1
100
AcDbCircle
 10
318.3087
 20
-138.178715
 30
0.0
 40
1.129786
210
0.0
220
0.0
230
1.0
100
AcDbArc
 50
25.467958
 51
154.532042
  0
ARC
  5
367
100
AcDbEntity
  8
1
  6
CONTINUOUS
 62
     1
100
AcDbCircle
 10
318.3087
 20
-137.207085
 30
0.0
 40
1.129786
210
0.0
220
0.0
230
1.0
100
AcDbArc
 50
205.467958
 51
334.532042
  0
LINE
  5
368
100
AcDbEntity
  8
1
  6
CONTINUOUS
 62
     1
100
AcDbLine
 10
358.7847
 20
-147.6969
 30
0.0
 11
368.6247
 21
-147.6969
 31
0.0
  0
LINE
  5
369
100
AcDbEntity
  8
1
  6
CONTINUOUS
 62
     1
100
AcDbLine
 10
361.1847
 20
-151.0269
 30
0.0
 11
366.2247
 21
-151.0269
 31
0.0
  0
LINE
  5
36A
100
AcDbEntity
  8
1
  6
CONTINUOUS
 62
     1
100
AcDbLine
 10
358.7847
 20
-146.6729
 30
0.0
 11
358.7847
 21
-147.6969
 31
0.0
  0
LINE
  5
36B
100
AcDbEntity
  8
1
  6
CONTINUOUS
 62
     1
100
AcDbLine
 10
359.9847
 20
-147.6969
 30
0.0
 11
359.9847
 21
-149.8269
 31
0.0
  0
LINE
  5
36C
100
AcDbEntity
  8
1
  6
CONTINUOUS
 62
     1
100
AcDbLine
 10
367.4247
 20
-147.6969
 30
0.0
 11
367.4247
 21
-149.8269
 31
0.0
  0
ARC
  5
36D
100
AcDbEntity
  8
1
  6
CONTINUOUS
 62
     1
100
AcDbCircle
 10
361.231099
 20
-149.780501
 30
0.0
 40
1.247262
210
0.0
220
0.0
230
1.0
100
AcDbArc
 50
182.131939
 51
267.868058
  0
ARC
  5
36E
100
AcDbEntity
  8
1
  6
CONTINUOUS
 62
     1
100
AcDbCircle
 10
366.178301
 20
-149.780501
 30
0.0
 40
1.247262
210
0.0
220
0.0
230
1.0
100
AcDbArc
 50
272.131942
 51
357.868061
  0
LINE
  5
36F
100
AcDbEntity
  8
1
  6
CONTINUOUS
 62
     1
100
AcDbLine
 10
365.7447
 20
-151.0269
 30
0.0
 11
365.7447
 21
-153.4269
 31
0.0
  0
LINE
  5
370
100
AcDbEntity
  8
1
  6
CONTINUOUS
 62
     1
100
AcDbLine
 10
365.7447
 20
-153.4269
 30
0.0
 11
361.6647
 21
-153.4269
 31
0.0
  0
LINE
  5
371
100
AcDbEntity
  8
1
  6
CONTINUOUS
 62
     1
100
AcDbLine
 10
361.6647
 20
-152.2269
 30
0.0
 11
365.7447
 21
-152.2269
 31
0.0
  0
LINE
  5
372
100
AcDbEntity
  8
1
  6
CONTINUOUS
 62
     1
100
AcDbLine
 10
361.6647
 20
-151.0269
 30
0.0
 11
361.6647
 21
-152.2269
 31
0.0
  0
LINE
  5
373
100
AcDbEntity
  8
1
  6
CONTINUOUS
 62
     1
100
AcDbLine
 10
361.6647
 20
-152.2269
 30
0.0
 11
361.6647
 21
-153.4269
 31
0.0
  0
LINE
  5
374
100
AcDbEntity
  8
1
  6
CONTINUOUS
 62
     1
100
AcDbLine
 10
362.8647
 20
-152.8269
 30
0.0
 11
364.5447
 21
-152.8269
 31
0.0
  0
LINE
  5
375
100
AcDbEntity
  8
1
  6
CONTINUOUS
 62
     1
100
AcDbLine
 10
362.8647
 20
-151.6269
 30
0.0
 11
364.5447
 21
-151.6269
 31
0.0
  0
LINE
  5
376
100
AcDbEntity
  8
1
  6
CONTINUOUS
 62
     1
100
AcDbLine
 10
361.6647
 20
-147.6969
 30
0.0
 11
361.6647
 21
-149.8269
 31
0.0
  0
LINE
  5
377
100
AcDbEntity
  8
1
  6
CONTINUOUS
 62
     1
100
AcDbLine
 10
365.7447
 20
-147.6969
 30
0.0
 11
365.7447
 21
-149.8269
 31
0.0
  0
ARC
  5
378
100
AcDbEntity
  8
1
  6
CONTINUOUS
 62
     1
100
AcDbCircle
 10
363.7047
 20
-146.858093
 30
0.0
 40
3.60214
210
0.0
220
0.0
230
1.0
100
AcDbArc
 50
235.505303
 51
304.494697
  0
ARC
  5
379
100
AcDbEntity
  8
1
  6
CONTINUOUS
 62
     1
100
AcDbCircle
 10
347.694695
 20
-144.934897
 30
0.0
 40
14.801782
210
0.0
220
0.0
230
1.0
100
AcDbArc
 50
335.696361
 51
340.700819
  0
ARC
  5
37A
100
AcDbEntity
  8
1
  6
CONTINUOUS
 62
     1
100
AcDbCircle
 10
379.714705
 20
-144.934897
 30
0.0
 40
14.801782
210
0.0
220
0.0
230
1.0
100
AcDbArc
 50
199.299181
 51
204.303639
  0
LINE
  5
37B
100
AcDbEntity
  8
1
  6
CONTINUOUS
 62
     1
100
AcDbLine
 10
361.6647
 20
-140.2689
 30
0.0
 11
361.6647
 21
-137.6929
 31
0.0
  0
LINE
  5
37C
100
AcDbEntity
  8
1
  6
CONTINUOUS
 62
     1
100
AcDbLine
 10
365.7447
 20
-140.2689
 30
0.0
 11
365.7447
 21
-137.6929
 31
0.0
  0
ARC
  5
37D
100
AcDbEntity
  8
1
  6
CONTINUOUS
 62
     1
100
AcDbCircle
 10
362.6847
 20
-138.178715
 30
0.0
 40
1.129786
210
0.0
220
0.0
230
1.0
100
AcDbArc
 50
25.467958
 51
154.532042
  0
ARC
  5
37E
100
AcDbEntity
  8
1
  6
CONTINUOUS
 62
     1
100
AcDbCircle
 10
364.7247
 20
-138.178715
 30
0.0
 40
1.129786
210
0.0
220
0.0
230
1.0
100
AcDbArc
 50
25.467958
 51
154.532042
  0
ARC
  5
37F
100
AcDbEntity
  8
1
  6
CONTINUOUS
 62
     1
100
AcDbCircle
 10
364.7247
 20
-137.207085
 30
0.0
 40
1.129786
210
0.0
220
0.0
230
1.0
100
AcDbArc
 50
205.467958
 51
334.532042
  0
LINE
  5
380
100
AcDbEntity
  8
1
  6
CONTINUOUS
 62
     1
100
AcDbLine
 10
325.8547
 20
-146.6729
 30
0.0
 11
325.8547
 21
-165.7589
 31
0.0
  0
LINE
  5
381
100
AcDbEntity
  8
1
  6
CONTINUOUS
 62
     1
100
AcDbLine
 10
355.4067
 20
-146.6729
 30
0.0
 11
355.4067
 21
-165.7589
 31
0.0
  0
LINE
  5
382
100
AcDbEntity
  8
1
  6
CONTINUOUS
 62
     1
100
AcDbLine
 10
312.3687
 20
-140.2689
 30
0.0
 11
322.2087
 21
-140.2689
 31
0.0
  0
LINE
  5
383
100
AcDbEntity
  8
1
  6
CONTINUOUS
 62
     1
100
AcDbLine
 10
312.3687
 20
-141.2929
 30
0.0
 11
312.3687
 21
-140.2689
 31
0.0
  0
LINE
  5
384
100
AcDbEntity
  8
1
  6
CONTINUOUS
 62
     1
100
AcDbLine
 10
322.2087
 20
-141.2929
 30
0.0
 11
322.2087
 21
-140.2689
 31
0.0
  0
LINE
  5
385
100
AcDbEntity
  8
1
  6
CONTINUOUS
 62
     1
100
AcDbLine
 10
358.7847
 20
-140.2689
 30
0.0
 11
368.6247
 21
-140.2689
 31
0.0
  0
LINE
  5
386
100
AcDbEntity
  8
1
  6
CONTINUOUS
 62
     1
100
AcDbLine
 10
368.6247
 20
-141.2929
 30
0.0
 11
368.6247
 21
-140.2689
 31
0.0
  0
LINE
  5
387
100
AcDbEntity
  8
1
  6
CONTINUOUS
 62
     1
100
AcDbLine
 10
358.7847
 20
-141.2929
 30
0.0
 11
358.7847
 21
-140.2689
 31
0.0
  0
ARC
  5
388
100
AcDbEntity
  8
1
  6
CONTINUOUS
 62
     1
100
AcDbCircle
 10
333.2427
 20
-159.541006
 30
0.0
 40
9.656332
210
0.0
220
0.0
230
1.0
100
AcDbArc
 50
220.084658
 51
319.915342
  0
ARC
  5
389
100
AcDbEntity
  8
1
  6
CONTINUOUS
 62
     1
100
AcDbCircle
 10
348.0187
 20
-159.541006
 30
0.0
 40
9.656332
210
0.0
220
0.0
230
1.0
100
AcDbArc
 50
220.084658
 51
319.915342
  0
ARC
  5
38A
100
AcDbEntity
  8
1
  6
CONTINUOUS
 62
     1
100
AcDbCircle
 10
348.0187
 20
-171.976794
 30
0.0
 40
9.656332
210
0.0
220
0.0
230
1.0
100
AcDbArc
 50
40.084658
 51
139.915342
  0
CIRCLE
  5
38B
100
AcDbEntity
  8
1
  6
CONTINUOUS
 62
     1
100
AcDbCircle
 10
301.768093
 20
-97.074663
 30
0.0
 40
2.348761
210
0.0
220
0.0
230
1.0
  0
LINE
  5
38C
100
AcDbEntity
  8
1
  6
CONTINUOUS
 62
     1
100
AcDbLine
 10
304.1167
 20
-97.0735
 30
0.0
 11
310.9328
 21
-97.0735
 31
0.0
  0
LINE
  5
38D
100
AcDbEntity
  8
1
  6
CONTINUOUS
 62
     1
100
AcDbLine
 10
301.7693
 20
-99.4233
 30
0.0
 11
301.7693
 21
-105.7583
 31
0.0
  0
INSERT
  5
38E
100
AcDbEntity
  8
1
  6
CONTINUOUS
 62
     1
100
AcDbBlockReference
  2
LDR
 10
301.7693
 20
-105.7583
 30
0.0
 41
243.0
 42
243.0
 50
270.0
210
0.0
220
0.0
230
1.0
  0
LINE
  5
38F
100
AcDbEntity
  8
1
  6
CONTINUOUS
 62
     1
100
AcDbLine
 10
338.4568
 20
-97.1658
 30
0.0
 11
331.6407
 21
-97.1658
 31
0.0
  0
CIRCLE
  5
390
100
AcDbEntity
  8
1
  6
CONTINUOUS
 62
     1
100
AcDbCircle
 10
340.805471
 20
-97.167002
 30
0.0
 40
2.348761
210
0.0
220
0.0
230
1.0
  0
LINE
  5
391
100
AcDbEntity
  8
1
  6
CONTINUOUS
 62
     1
100
AcDbLine
 10
340.8042
 20
-99.5156
 30
0.0
 11
340.8042
 21
-105.8506
 31
0.0
  0
INSERT
  5
392
100
AcDbEntity
  8
1
  6
CONTINUOUS
 62
     1
100
AcDbBlockReference
  2
LDR
 10
340.8042
 20
-105.8506
 30
0.0
 41
243.0
 42
-243.0
 50
270.0
210
0.0
220
0.0
230
1.0
  0
CIRCLE
  5
393
100
AcDbEntity
  8
1
  6
CONTINUOUS
 62
     1
100
AcDbCircle
 10
340.572169
 20
-132.169807
 30
0.0
 40
2.348761
210
0.0
220
0.0
230
1.0
  0
LINE
  5
394
100
AcDbEntity
  8
1
  6
CONTINUOUS
 62
     1
100
AcDbLine
 10
342.9208
 20
-132.1687
 30
0.0
 11
349.737
 21
-132.1687
 31
0.0
  0
LINE
  5
395
100
AcDbEntity
  8
1
  6
CONTINUOUS
 62
     1
100
AcDbLine
 10
340.5734
 20
-134.5185
 30
0.0
 11
340.5734
 21
-140.8535
 31
0.0
  0
INSERT
  5
396
100
AcDbEntity
  8
1
  6
CONTINUOUS
 62
     1
100
AcDbBlockReference
  2
LDR
 10
340.5734
 20
-140.8535
 30
0.0
 41
243.0
 42
243.0
 50
270.0
210
0.0
220
0.0
230
1.0
  0
LINE
  5
397
100
AcDbEntity
  8
1
  6
CONTINUOUS
 62
     1
100
AcDbLine
 10
382.3453
 20
-132.2087
 30
0.0
 11
375.5292
 21
-132.2087
 31
0.0
  0
CIRCLE
  5
398
100
AcDbEntity
  8
1
  6
CONTINUOUS
 62
     1
100
AcDbCircle
 10
384.693868
 20
-132.209874
 30
0.0
 40
2.348761
210
0.0
220
0.0
230
1.0
  0
LINE
  5
399
100
AcDbEntity
  8
1
  6
CONTINUOUS
 62
     1
100
AcDbLine
 10
384.6927
 20
-134.5585
 30
0.0
 11
384.6927
 21
-140.8935
 31
0.0
  0
INSERT
  5
39A
100
AcDbEntity
  8
1
  6
CONTINUOUS
 62
     1
100
AcDbBlockReference
  2
LDR
 10
384.6927
 20
-140.8935
 30
0.0
 41
243.0
 42
-243.0
 50
270.0
210
0.0
220
0.0
230
1.0
  0
LINE
  5
39B
100
AcDbEntity
  8
1
  6
CONTINUOUS
 62
     1
100
AcDbLine
 10
367.4247
 20
-113.4029
 30
0.0
 11
379.4447
 21
-103.0769
 31
0.0
  0
LINE
  5
39C
100
AcDbEntity
  8
1
  6
CONTINUOUS
 62
     1
100
AcDbLine
 10
369.8247
 20
-127.7149
 30
0.0
 11
384.1427
 21
-123.5289
 31
0.0
  0
LINE
  5
39D
100
AcDbEntity
  8
1
  6
CONTINUOUS
 62
     1
100
AcDbLine
 10
325.8547
 20
-165.7589
 30
0.0
 11
311.0247
 21
-165.7589
 31
0.0
  0
LINE
  5
39E
100
AcDbEntity
  8
1
  6
CONTINUOUS
 62
     1
100
AcDbLine
 10
315.2487
 20
-121.9369
 30
0.0
 11
307.5947
 21
-133.1789
 31
0.0
  0
LINE
  5
39F
100
AcDbEntity
  8
1
  6
CONTINUOUS
 62
     1
100
AcDbLine
 10
307.5947
 20
-133.1789
 30
0.0
 11
312.3687
 21
-140.2689
 31
0.0
  0
INSERT
  5
3A0
100
AcDbEntity
  8
1
  6
CONTINUOUS
 62
     1
100
AcDbBlockReference
  2
LDR
 10
315.2487
 20
-121.9369
 30
0.0
 41
200.000042
 42
200.000042
 50
55.751407
210
0.0
220
0.0
230
1.0
  0
INSERT
  5
3A1
100
AcDbEntity
  8
1
  6
CONTINUOUS
 62
     1
100
AcDbBlockReference
  2
LDR
 10
315.2487
 20
-121.9369
 30
0.0
 41
200.000042
 42
200.000042
 50
55.751407
210
0.0
220
0.0
230
1.0
  0
INSERT
  5
3A2
100
AcDbEntity
  8
1
  6
CONTINUOUS
 62
     1
100
AcDbBlockReference
  2
LDR
 10
312.3687
 20
-140.2689
 30
0.0
 41
200.000024
 42
200.000024
 50
303.954065
210
0.0
220
0.0
230
1.0
  0
LINE
  5
3A3
100
AcDbEntity
  8
1
  6
CONTINUOUS
 62
     1
100
AcDbLine
 10
307.5947
 20
-133.1789
 30
0.0
 11
296.4567
 21
-133.1789
 31
0.0
  0
LINE
  5
3A4
100
AcDbEntity
  8
1
  6
CONTINUOUS
 62
     1
100
AcDbLine
 10
340.4967
 20
-121.9369
 30
0.0
 11
333.9047
 21
-133.8109
 31
0.0
  0
LINE
  5
3A5
100
AcDbEntity
  8
1
  6
CONTINUOUS
 62
     1
100
AcDbLine
 10
333.9047
 20
-133.8109
 30
0.0
 11
340.4967
 21
-141.2929
 31
0.0
  0
LINE
  5
3A6
100
AcDbEntity
  8
1
  6
CONTINUOUS
 62
     1
100
AcDbLine
 10
333.9047
 20
-133.8109
 30
0.0
 11
327.8747
 21
-133.8109
 31
0.0
  0
INSERT
  5
3A7
100
AcDbEntity
  8
1
  6
CONTINUOUS
 62
     1
100
AcDbBlockReference
  2
LDR
 10
340.4967
 20
-121.9369
 30
0.0
 41
199.999984
 42
199.999984
 50
60.96259
210
0.0
220
0.0
230
1.0
  0
INSERT
  5
3A8
100
AcDbEntity
  8
1
  6
CONTINUOUS
 62
     1
100
AcDbBlockReference
  2
LDR
 10
340.4967
 20
-121.9369
 30
0.0
 41
199.999984
 42
199.999984
 50
60.96259
210
0.0
220
0.0
230
1.0
  0
INSERT
  5
3A9
100
AcDbEntity
  8
1
  6
CONTINUOUS
 62
     1
100
AcDbBlockReference
  2
LDR
 10
340.4967
 20
-141.2929
 30
0.0
 41
199.999996
 42
199.999996
 50
311.381579
210
0.0
220
0.0
230
1.0
  0
INSERT
  5
3AA
100
AcDbEntity
  8
1
  6
CONTINUOUS
 62
     1
100
AcDbBlockReference
  2
LDR
 10
367.4247
 20
-113.4029
 30
0.0
 41
200.000049
 42
200.000049
 50
220.66483
210
0.0
220
0.0
230
1.0
  0
INSERT
  5
3AB
100
AcDbEntity
  8
1
  6
CONTINUOUS
 62
     1
100
AcDbBlockReference
  2
LDR
 10
367.4247
 20
-113.4029
 30
0.0
 41
200.000049
 42
200.000049
 50
220.66483
210
0.0
220
0.0
230
1.0
  0
INSERT
  5
3AC
100
AcDbEntity
  8
1
  6
CONTINUOUS
 62
     1
100
AcDbBlockReference
  2
LDR
 10
369.8247
 20
-127.7149
 30
0.0
 41
200.000033
 42
200.000033
 50
196.296769
210
0.0
220
0.0
230
1.0
  0
INSERT
  5
3AD
100
AcDbEntity
  8
1
  6
CONTINUOUS
 62
     1
100
AcDbBlockReference
  2
LDR
 10
335.4707
 20
-67.7929
 30
0.0
 41
800.0
 42
800.0
 50
180.0
210
0.0
220
0.0
230
1.0
  0
INSERT
  5
3AE
100
AcDbEntity
  8
1
  6
CONTINUOUS
 62
     1
100
AcDbBlockReference
  2
LDR
 10
325.8547
 20
-165.7589
 30
0.0
 41
200.0
 42
200.0
210
0.0
220
0.0
230
1.0
  0
LINE
  5
3AF
100
AcDbEntity
  8
1
  6
DASHED
 62
     1
100
AcDbLine
 10
287.4947
 20
-159.6089
 30
0.0
 11
392.1047
 21
-159.6089
 31
0.0
  0
LINE
  5
3B0
100
AcDbEntity
  8
1
  6
CONTINUOUS
 62
     1
100
AcDbLine
 10
366.2727
 20
-159.5829
 30
0.0
 11
373.1007
 21
-169.3989
 31
0.0
  0
INSERT
  5
3B1
100
AcDbEntity
  8
1
  6
CONTINUOUS
 62
     1
100
AcDbBlockReference
  2
LDR
 10
366.2727
 20
-159.5829
 30
0.0
 41
199.999945
 42
199.999945
 50
124.822434
210
0.0
220
0.0
230
1.0
  0
LINE
  5
3B2
100
AcDbEntity
  8
1
  6
CONTINUOUS
 62
     1
100
AcDbLine
 10
383.4857
 20
-208.9454
 30
0.0
 11
409.8857
 21
-208.9454
 31
0.0
  0
LINE
  5
3B3
100
AcDbEntity
  8
1
  6
CONTINUOUS
 62
     1
100
AcDbLine
 10
383.4857
 20
-235.3454
 30
0.0
 11
409.8857
 21
-235.3454
 31
0.0
  0
LINE
  5
3B4
100
AcDbEntity
  8
1
  6
CONTINUOUS
 62
     1
100
AcDbLine
 10
383.4857
 20
-208.9454
 30
0.0
 11
383.4857
 21
-235.3454
 31
0.0
  0
LINE
  5
3B5
100
AcDbEntity
  8
1
  6
CONTINUOUS
 62
     1
100
AcDbLine
 10
409.8857
 20
-208.9454
 30
0.0
 11
409.8857
 21
-217.3454
 31
0.0
  0
LINE
  5
3B6
100
AcDbEntity
  8
1
  6
CONTINUOUS
 62
     1
100
AcDbLine
 10
409.8857
 20
-226.9454
 30
0.0
 11
409.8857
 21
-235.3454
 31
0.0
  0
LINE
  5
3B7
100
AcDbEntity
  8
1
  6
CONTINUOUS
 62
     1
100
AcDbLine
 10
409.8857
 20
-217.3454
 30
0.0
 11
395.4977
 21
-217.3454
 31
0.0
  0
LINE
  5
3B8
100
AcDbEntity
  8
1
  6
CONTINUOUS
 62
     1
100
AcDbLine
 10
409.8857
 20
-226.9454
 30
0.0
 11
395.4977
 21
-226.9454
 31
0.0
  0
ARC
  5
3B9
100
AcDbEntity
  8
1
  6
CONTINUOUS
 62
     1
100
AcDbCircle
 10
395.557263
 20
-222.1454
 30
0.0
 40
4.80037
210
0.0
220
0.0
230
1.0
100
AcDbArc
 50
90.710942
 51
269.289056
  0
LINE
  5
3BA
100
AcDbEntity
  8
1
  6
CONTINUOUS
 62
     1
100
AcDbLine
 10
412.2857
 20
-208.9454
 30
0.0
 11
424.2157
 21
-208.9454
 31
0.0
  0
LINE
  5
3BB
100
AcDbEntity
  8
1
  6
CONTINUOUS
 62
     1
100
AcDbLine
 10
412.2857
 20
-235.3454
 30
0.0
 11
424.2157
 21
-235.3454
 31
0.0
  0
LINE
  5
3BC
100
AcDbEntity
  8
1
  6
CONTINUOUS
 62
     1
100
AcDbLine
 10
421.8157
 20
-208.9454
 30
0.0
 11
421.8157
 21
-235.3454
 31
0.0
  0
LINE
  5
3BD
100
AcDbEntity
  8
1
  6
CONTINUOUS
 62
     1
100
AcDbLine
 10
412.2857
 20
-217.3454
 30
0.0
 11
418.3357
 21
-217.3454
 31
0.0
  0
LINE
  5
3BE
100
AcDbEntity
  8
1
  6
CONTINUOUS
 62
     1
100
AcDbLine
 10
412.2857
 20
-226.9454
 30
0.0
 11
418.3357
 21
-226.9454
 31
0.0
  0
LINE
  5
3BF
100
AcDbEntity
  8
1
  6
CONTINUOUS
 62
     1
100
AcDbLine
 10
415.9357
 20
-217.3454
 30
0.0
 11
415.9357
 21
-226.9454
 31
0.0
  0
INSERT
  5
3C0
100
AcDbEntity
  8
1
  6
CONTINUOUS
 62
     1
100
AcDbBlockReference
  2
LDR
 10
415.9357
 20
-217.3454
 30
0.0
 41
200.0
 42
200.0
 50
90.0
210
0.0
220
0.0
230
1.0
  0
INSERT
  5
3C1
100
AcDbEntity
  8
1
  6
CONTINUOUS
 62
     1
100
AcDbBlockReference
  2
LDR
 10
415.9357
 20
-217.3454
 30
0.0
 41
200.0
 42
200.0
 50
90.0
210
0.0
220
0.0
230
1.0
  0
INSERT
  5
3C2
100
AcDbEntity
  8
1
  6
CONTINUOUS
 62
     1
100
AcDbBlockReference
  2
LDR
 10
415.9357
 20
-226.9454
 30
0.0
 41
200.0
 42
200.0
 50
270.0
210
0.0
220
0.0
230
1.0
  0
INSERT
  5
3C3
100
AcDbEntity
  8
1
  6
CONTINUOUS
 62
     1
100
AcDbBlockReference
  2
LDR
 10
415.9357
 20
-226.9454
 30
0.0
 41
200.0
 42
200.0
 50
270.0
210
0.0
220
0.0
230
1.0
  0
INSERT
  5
3C4
100
AcDbEntity
  8
1
  6
CONTINUOUS
 62
     1
100
AcDbBlockReference
  2
LDR
 10
421.8157
 20
-208.9454
 30
0.0
 41
200.0
 42
200.0
 50
90.0
210
0.0
220
0.0
230
1.0
  0
INSERT
  5
3C5
100
AcDbEntity
  8
1
  6
CONTINUOUS
 62
     1
100
AcDbBlockReference
  2
LDR
 10
421.8157
 20
-208.9454
 30
0.0
 41
200.0
 42
200.0
 50
90.0
210
0.0
220
0.0
230
1.0
  0
INSERT
  5
3C6
100
AcDbEntity
  8
1
  6
CONTINUOUS
 62
     1
100
AcDbBlockReference
  2
LDR
 10
421.8157
 20
-235.3454
 30
0.0
 41
200.0
 42
200.0
 50
270.0
210
0.0
220
0.0
230
1.0
  0
LINE
  5
3C7
100
AcDbEntity
  8
1
  6
CONTINUOUS
 62
     1
100
AcDbLine
 10
383.4857
 20
-206.5454
 30
0.0
 11
383.4857
 21
-197.4894
 31
0.0
  0
LINE
  5
3C8
100
AcDbEntity
  8
1
  6
CONTINUOUS
 62
     1
100
AcDbLine
 10
409.8857
 20
-206.5454
 30
0.0
 11
409.8857
 21
-197.4894
 31
0.0
  0
LINE
  5
3C9
100
AcDbEntity
  8
1
  6
CONTINUOUS
 62
     1
100
AcDbLine
 10
383.4857
 20
-199.8894
 30
0.0
 11
409.8857
 21
-199.8894
 31
0.0
  0
INSERT
  5
3CA
100
AcDbEntity
  8
1
  6
CONTINUOUS
 62
     1
100
AcDbBlockReference
  2
LDR
 10
383.4857
 20
-199.8894
 30
0.0
 41
200.0
 42
200.0
 50
180.0
210
0.0
220
0.0
230
1.0
  0
INSERT
  5
3CB
100
AcDbEntity
  8
1
  6
CONTINUOUS
 62
     1
100
AcDbBlockReference
  2
LDR
 10
383.4857
 20
-199.8894
 30
0.0
 41
200.0
 42
200.0
 50
180.0
210
0.0
220
0.0
230
1.0
  0
INSERT
  5
3CC
100
AcDbEntity
  8
1
  6
CONTINUOUS
 62
     1
100
AcDbBlockReference
  2
LDR
 10
409.8857
 20
-199.8894
 30
0.0
 41
200.0
 42
200.0
210
0.0
220
0.0
230
1.0
  0
LINE
  5
3CD
100
AcDbEntity
  8
1
  6
CONTINUOUS
 62
     1
100
AcDbLine
 10
390.7577
 20
-219.7454
 30
0.0
 11
390.7577
 21
-214.0394
 31
0.0
  0
LINE
  5
3CE
100
AcDbEntity
  8
1
  6
CONTINUOUS
 62
     1
100
AcDbLine
 10
390.7577
 20
-216.4394
 30
0.0
 11
383.4857
 21
-216.4394
 31
0.0
  0
INSERT
  5
3CF
100
AcDbEntity
  8
1
  6
CONTINUOUS
 62
     1
100
AcDbBlockReference
  2
LDR
 10
383.4857
 20
-216.4394
 30
0.0
 41
200.0
 42
200.0
 50
180.0
210
0.0
220
0.0
230
1.0
  0
INSERT
  5
3D0
100
AcDbEntity
  8
1
  6
CONTINUOUS
 62
     1
100
AcDbBlockReference
  2
LDR
 10
383.4857
 20
-216.4394
 30
0.0
 41
200.0
 42
200.0
 50
180.0
210
0.0
220
0.0
230
1.0
  0
INSERT
  5
3D1
100
AcDbEntity
  8
1
  6
CONTINUOUS
 62
     1
100
AcDbBlockReference
  2
LDR
 10
390.7577
 20
-216.4394
 30
0.0
 41
200.0
 42
200.0
210
0.0
220
0.0
230
1.0
  0
LINE
  5
3D2
100
AcDbEntity
  8
1
  6
CONTINUOUS
 62
     1
100
AcDbLine
 10
489.0527
 20
-76.6354
 30
0.0
 11
546.9687
 21
-76.6354
 31
0.0
  0
LINE
  5
3D3
100
AcDbEntity
  8
1
  6
CONTINUOUS
 62
     1
100
AcDbLine
 10
489.0527
 20
-118.9854
 30
0.0
 11
546.9687
 21
-118.9854
 31
0.0
  0
LINE
  5
3D4
100
AcDbEntity
  8
1
  6
CONTINUOUS
 62
     1
100
AcDbLine
 10
489.0527
 20
-76.6354
 30
0.0
 11
489.0527
 21
-80.7554
 31
0.0
  0
LINE
  5
3D5
100
AcDbEntity
  8
1
  6
CONTINUOUS
 62
     1
100
AcDbLine
 10
546.9687
 20
-76.6354
 30
0.0
 11
546.9687
 21
-83.1554
 31
0.0
  0
LINE
  5
3D6
100
AcDbEntity
  8
1
  6
CONTINUOUS
 62
     1
100
AcDbLine
 10
489.0527
 20
-112.4654
 30
0.0
 11
489.0527
 21
-118.9854
 31
0.0
  0
LINE
  5
3D7
100
AcDbEntity
  8
1
  6
CONTINUOUS
 62
     1
100
AcDbLine
 10
546.9687
 20
-114.8654
 30
0.0
 11
546.9687
 21
-118.9854
 31
0.0
  0
LINE
  5
3D8
100
AcDbEntity
  8
1
  6
CONTINUOUS
 62
     1
100
AcDbLine
 10
489.0527
 20
-80.7554
 30
0.0
 11
495.0587
 21
-82.7174
 31
0.0
  0
LINE
  5
3D9
100
AcDbEntity
  8
1
  6
CONTINUOUS
 62
     1
100
AcDbLine
 10
489.0527
 20
-86.3514
 30
0.0
 11
495.0587
 21
-86.3514
 31
0.0
  0
ARC
  5
3DA
100
AcDbEntity
  8
1
  6
CONTINUOUS
 62
     1
100
AcDbCircle
 10
494.525004
 20
-84.5344
 30
0.0
 40
1.893758
210
0.0
220
0.0
230
1.0
100
AcDbArc
 50
286.368758
 51
73.631242
  0
LINE
  5
3DB
100
AcDbEntity
  8
1
  6
CONTINUOUS
 62
     1
100
AcDbLine
 10
489.0527
 20
-86.3514
 30
0.0
 11
489.0527
 21
-106.8674
 31
0.0
  0
LINE
  5
3DC
100
AcDbEntity
  8
1
  6
CONTINUOUS
 62
     1
100
AcDbLine
 10
546.9687
 20
-114.8654
 30
0.0
 11
540.9627
 21
-112.9034
 31
0.0
  0
LINE
  5
3DD
100
AcDbEntity
  8
1
  6
CONTINUOUS
 62
     1
100
AcDbLine
 10
546.9687
 20
-109.2694
 30
0.0
 11
540.9627
 21
-109.2694
 31
0.0
  0
ARC
  5
3DE
100
AcDbEntity
  8
1
  6
CONTINUOUS
 62
     1
100
AcDbCircle
 10
541.496396
 20
-111.0864
 30
0.0
 40
1.893758
210
0.0
220
0.0
230
1.0
100
AcDbArc
 50
106.368758
 51
253.631242
  0
LINE
  5
3DF
100
AcDbEntity
  8
1
  6
CONTINUOUS
 62
     1
100
AcDbLine
 10
546.9687
 20
-88.7514
 30
0.0
 11
546.9687
 21
-109.2694
 31
0.0
  0
LINE
  5
3E0
100
AcDbEntity
  8
1
  6
CONTINUOUS
 62
     1
100
AcDbLine
 10
484.2527
 20
-97.8094
 30
0.0
 11
552.7367
 21
-97.8094
 31
0.0
  0
LINE
  5
3E1
100
AcDbEntity
  8
1
  6
CONTINUOUS
 62
     1
100
AcDbLine
 10
495.0587
 20
-67.0354
 30
0.0
 11
495.0587
 21
-114.8654
 31
0.0
  0
ARC
  5
3E2
100
AcDbEntity
  8
1
  6
CONTINUOUS
 62
     1
100
AcDbCircle
 10
541.496396
 20
-84.9724
 30
0.0
 40
1.893758
210
0.0
220
0.0
230
1.0
100
AcDbArc
 50
106.368758
 51
253.631242
  0
LINE
  5
3E3
100
AcDbEntity
  8
1
  6
CONTINUOUS
 62
     1
100
AcDbLine
 10
546.9687
 20
-88.7514
 30
0.0
 11
540.9627
 21
-86.7894
 31
0.0
  0
LINE
  5
3E4
100
AcDbEntity
  8
1
  6
CONTINUOUS
 62
     1
100
AcDbLine
 10
546.9687
 20
-83.1554
 30
0.0
 11
540.9627
 21
-83.1554
 31
0.0
  0
LINE
  5
3E5
100
AcDbEntity
  8
1
  6
CONTINUOUS
 62
     1
100
AcDbLine
 10
540.9627
 20
-67.0354
 30
0.0
 11
540.9627
 21
-115.3034
 31
0.0
  0
LINE
  5
3E6
100
AcDbEntity
  8
1
  6
CONTINUOUS
 62
     1
100
AcDbLine
 10
489.0527
 20
-112.4654
 30
0.0
 11
495.0587
 21
-112.4654
 31
0.0
  0
ARC
  5
3E7
100
AcDbEntity
  8
1
  6
CONTINUOUS
 62
     1
100
AcDbCircle
 10
494.525004
 20
-110.6484
 30
0.0
 40
1.893758
210
0.0
220
0.0
230
1.0
100
AcDbArc
 50
286.368758
 51
73.631242
  0
LINE
  5
3E8
100
AcDbEntity
  8
1
  6
CONTINUOUS
 62
     1
100
AcDbLine
 10
492.6587
 20
-84.0734
 30
0.0
 11
563.3947
 21
-84.0734
 31
0.0
  0
LINE
  5
3E9
100
AcDbEntity
  8
1
  6
CONTINUOUS
 62
     1
100
AcDbLine
 10
492.6587
 20
-111.3674
 30
0.0
 11
563.3947
 21
-111.3674
 31
0.0
  0
LINE
  5
3EA
100
AcDbEntity
  8
1
  6
CONTINUOUS
 62
     1
100
AcDbLine
 10
495.0587
 20
-69.4354
 30
0.0
 11
540.9627
 21
-69.4354
 31
0.0
  0
INSERT
  5
3EB
100
AcDbEntity
  8
1
  6
CONTINUOUS
 62
     1
100
AcDbBlockReference
  2
LDR
 10
495.0587
 20
-69.4354
 30
0.0
 41
200.0
 42
200.0
 50
180.0
210
0.0
220
0.0
230
1.0
  0
INSERT
  5
3EC
100
AcDbEntity
  8
1
  6
CONTINUOUS
 62
     1
100
AcDbBlockReference
  2
LDR
 10
540.9627
 20
-69.4354
 30
0.0
 41
200.0
 42
200.0
210
0.0
220
0.0
230
1.0
  0
LINE
  5
3ED
100
AcDbEntity
  8
1
  6
CONTINUOUS
 62
     1
100
AcDbLine
 10
489.0527
 20
-74.2354
 30
0.0
 11
489.0527
 21
-59.8354
 31
0.0
  0
LINE
  5
3EE
100
AcDbEntity
  8
1
  6
CONTINUOUS
 62
     1
100
AcDbLine
 10
546.9687
 20
-74.2354
 30
0.0
 11
546.9687
 21
-59.8354
 31
0.0
  0
LINE
  5
3EF
100
AcDbEntity
  8
1
  6
CONTINUOUS
 62
     1
100
AcDbLine
 10
489.0527
 20
-62.2354
 30
0.0
 11
546.9687
 21
-62.2354
 31
0.0
  0
INSERT
  5
3F0
100
AcDbEntity
  8
1
  6
CONTINUOUS
 62
     1
100
AcDbBlockReference
  2
LDR
 10
489.0527
 20
-62.2354
 30
0.0
 41
200.0
 42
200.0
 50
180.0
210
0.0
220
0.0
230
1.0
  0
INSERT
  5
3F1
100
AcDbEntity
  8
1
  6
CONTINUOUS
 62
     1
100
AcDbBlockReference
  2
LDR
 10
489.0527
 20
-62.2354
 30
0.0
 41
200.0
 42
200.0
 50
180.0
210
0.0
220
0.0
230
1.0
  0
INSERT
  5
3F2
100
AcDbEntity
  8
1
  6
CONTINUOUS
 62
     1
100
AcDbBlockReference
  2
LDR
 10
546.9687
 20
-62.2354
 30
0.0
 41
200.0
 42
200.0
210
0.0
220
0.0
230
1.0
  0
LINE
  5
3F3
100
AcDbEntity
  8
1
  6
CONTINUOUS
 62
     1
100
AcDbLine
 10
489.0527
 20
-69.4354
 30
0.0
 11
481.8527
 21
-69.4354
 31
0.0
  0
LINE
  5
3F4
100
AcDbEntity
  8
1
  6
CONTINUOUS
 62
     1
100
AcDbLine
 10
546.9687
 20
-69.4354
 30
0.0
 11
554.1687
 21
-69.4354
 31
0.0
  0
INSERT
  5
3F5
100
AcDbEntity
  8
1
  6
CONTINUOUS
 62
     1
100
AcDbBlockReference
  2
LDR
 10
489.0527
 20
-69.4354
 30
0.0
 41
200.0
 42
200.0
210
0.0
220
0.0
230
1.0
  0
INSERT
  5
3F6
100
AcDbEntity
  8
1
  6
CONTINUOUS
 62
     1
100
AcDbBlockReference
  2
LDR
 10
546.9687
 20
-69.4354
 30
0.0
 41
200.0
 42
200.0
 50
180.0
210
0.0
220
0.0
230
1.0
  0
LINE
  5
3F7
100
AcDbEntity
  8
1
  6
CONTINUOUS
 62
     1
100
AcDbLine
 10
511.4767
 20
-94.0834
 30
0.0
 11
474.5747
 21
-89.5854
 31
0.0
  0
LINE
  5
3F8
100
AcDbEntity
  8
1
  6
CONTINUOUS
 62
     1
100
AcDbLine
 10
544.3467
 20
-76.4034
 30
0.0
 11
562.9324
 21
-68.0077
 31
0.0
  0
INSERT
  5
3F9
100
AcDbEntity
  8
1
  6
CONTINUOUS
 62
     1
100
AcDbBlockReference
  2
LDR
 10
544.3467
 20
-76.4034
 30
0.0
 41
199.99998
 42
199.99998
 50
204.30999
210
0.0
220
0.0
230
1.0
  0
LINE
  5
3FA
100
AcDbEntity
  8
1
  6
CONTINUOUS
 62
     1
100
AcDbLine
 10
461.0028
 20
-97.7063
 30
0.0
 11
486.7707
 21
-106.1254
 31
0.0
  0
LINE
  5
3FB
100
AcDbEntity
  8
1
  6
CONTINUOUS
 62
     1
100
AcDbLine
 10
489.0527
 20
-106.8674
 30
0.0
 11
495.0587
 21
-108.8314
 31
0.0
  0
LINE
  5
3FC
100
AcDbEntity
  8
1
  6
CONTINUOUS
 62
     1
100
AcDbLine
 10
477.4627
 20
-103.0834
 30
0.0
 11
477.4627
 21
-100.5514
 31
0.0
  0
LINE
  5
3FD
100
AcDbEntity
  8
1
  6
CONTINUOUS
 62
     1
100
AcDbLine
 10
477.4627
 20
-100.5514
 30
0.0
 11
469.7107
 21
-100.5514
 31
0.0
  0
LINE
  5
3FE
100
AcDbEntity
  8
1
  6
CONTINUOUS
 62
     1
100
AcDbLine
 10
496.0727
 20
-109.5554
 30
0.0
 11
500.0987
 21
-106.0954
 31
0.0
  0
INSERT
  5
3FF
100
AcDbEntity
  8
1
  6
CONTINUOUS
 62
     1
100
AcDbBlockReference
  2
LDR
 10
496.0727
 20
-109.5554
 30
0.0
 41
199.999945
 42
199.999945
 50
220.676218
210
0.0
220
0.0
230
1.0
  0
LINE
  5
400
100
AcDbEntity
  8
1
  6
CONTINUOUS
 62
     1
100
AcDbLine
 10
512.5827
 20
-113.7294
 30
0.0
 11
539.4867
 21
-126.6934
 31
0.0
  0
LINE
  5
401
100
AcDbEntity
  8
1
  6
CONTINUOUS
 62
     1
100
AcDbLine
 10
539.4867
 20
-126.6934
 30
0.0
 11
525.3167
 21
-112.9594
 31
0.0
  0
INSERT
  5
402
100
AcDbEntity
  8
1
  6
CONTINUOUS
 62
     1
100
AcDbBlockReference
  2
LDR
 10
512.5827
 20
-113.7294
 30
0.0
 41
200.000027
 42
200.000027
 50
154.272381
210
0.0
220
0.0
230
1.0
  0
INSERT
  5
403
100
AcDbEntity
  8
1
  6
CONTINUOUS
 62
     1
100
AcDbBlockReference
  2
LDR
 10
512.5827
 20
-113.7294
 30
0.0
 41
200.000027
 42
200.000027
 50
154.272381
210
0.0
220
0.0
230
1.0
  0
INSERT
  5
404
100
AcDbEntity
  8
1
  6
CONTINUOUS
 62
     1
100
AcDbBlockReference
  2
LDR
 10
525.3167
 20
-112.9594
 30
0.0
 41
200.000021
 42
200.000021
 50
135.895169
210
0.0
220
0.0
230
1.0
  0
LINE
  5
405
100
AcDbEntity
  8
1
  6
CONTINUOUS
 62
     1
100
AcDbLine
 10
539.4867
 20
-126.6934
 30
0.0
 11
551.5087
 21
-126.6934
 31
0.0
  0
LINE
  5
406
100
AcDbEntity
  8
1
  6
CONTINUOUS
 62
     1
100
AcDbLine
 10
551.5087
 20
-126.6934
 30
0.0
 11
554.4067
 21
-123.7954
 31
0.0
  0
LINE
  5
407
100
AcDbEntity
  8
1
  6
CONTINUOUS
 62
     1
100
AcDbLine
 10
551.5087
 20
-126.6934
 30
0.0
 11
554.4067
 21
-129.5914
 31
0.0
  0
LINE
  5
408
100
AcDbEntity
  8
1
  6
CONTINUOUS
 62
     1
100
AcDbLine
 10
543.2967
 20
-126.6934
 30
0.0
 11
543.2967
 21
-129.4134
 31
0.0
  0
LINE
  5
409
100
AcDbEntity
  8
1
  6
CONTINUOUS
 62
     1
100
AcDbLine
 10
543.2967
 20
-129.4134
 30
0.0
 11
545.5807
 21
-126.6934
 31
0.0
  0
LINE
  5
40A
100
AcDbEntity
  8
1
  6
CONTINUOUS
 62
     1
100
AcDbLine
 10
560.9947
 20
-84.0734
 30
0.0
 11
560.9947
 21
-111.3674
 31
0.0
  0
LINE
  5
40B
100
AcDbEntity
  8
1
  6
CONTINUOUS
 62
     1
100
AcDbLine
 10
549.3687
 20
-76.6354
 30
0.0
 11
571.3307
 21
-76.6354
 31
0.0
  0
LINE
  5
40C
100
AcDbEntity
  8
1
  6
CONTINUOUS
 62
     1
100
AcDbLine
 10
549.3687
 20
-118.9854
 30
0.0
 11
571.3307
 21
-118.9854
 31
0.0
  0
LINE
  5
40D
100
AcDbEntity
  8
1
  6
CONTINUOUS
 62
     1
100
AcDbLine
 10
568.9307
 20
-76.6354
 30
0.0
 11
568.9307
 21
-118.9854
 31
0.0
  0
LINE
  5
40E
100
AcDbEntity
  8
1
  6
CONTINUOUS
 62
     1
100
AcDbLine
 10
560.9947
 20
-76.6354
 30
0.0
 11
560.9947
 21
-69.4354
 31
0.0
  0
INSERT
  5
40F
100
AcDbEntity
  8
1
  6
CONTINUOUS
 62
     1
100
AcDbBlockReference
  2
LDR
 10
560.9947
 20
-76.6354
 30
0.0
 41
200.0
 42
200.0
 50
270.0
210
0.0
220
0.0
230
1.0
  0
INSERT
  5
410
100
AcDbEntity
  8
1
  6
CONTINUOUS
 62
     1
100
AcDbBlockReference
  2
LDR
 10
560.9947
 20
-76.6354
 30
0.0
 41
200.0
 42
200.0
 50
270.0
210
0.0
220
0.0
230
1.0
  0
LINE
  5
411
100
AcDbEntity
  8
1
  6
CONTINUOUS
 62
     1
100
AcDbLine
 10
560.9947
 20
-118.9854
 30
0.0
 11
560.9947
 21
-126.1854
 31
0.0
  0
INSERT
  5
412
100
AcDbEntity
  8
1
  6
CONTINUOUS
 62
     1
100
AcDbBlockReference
  2
LDR
 10
560.9947
 20
-118.9854
 30
0.0
 41
200.0
 42
200.0
 50
90.0
210
0.0
220
0.0
230
1.0
  0
INSERT
  5
413
100
AcDbEntity
  8
1
  6
CONTINUOUS
 62
     1
100
AcDbBlockReference
  2
LDR
 10
560.9947
 20
-118.9854
 30
0.0
 41
200.0
 42
200.0
 50
90.0
210
0.0
220
0.0
230
1.0
  0
INSERT
  5
414
100
AcDbEntity
  8
1
  6
CONTINUOUS
 62
     1
100
AcDbBlockReference
  2
LDR
 10
560.9947
 20
-84.0734
 30
0.0
 41
200.0
 42
200.0
 50
90.0
210
0.0
220
0.0
230
1.0
  0
INSERT
  5
415
100
AcDbEntity
  8
1
  6
CONTINUOUS
 62
     1
100
AcDbBlockReference
  2
LDR
 10
560.9947
 20
-84.0734
 30
0.0
 41
200.0
 42
200.0
 50
90.0
210
0.0
220
0.0
230
1.0
  0
INSERT
  5
416
100
AcDbEntity
  8
1
  6
CONTINUOUS
 62
     1
100
AcDbBlockReference
  2
LDR
 10
560.9947
 20
-111.3674
 30
0.0
 41
200.0
 42
200.0
 50
270.0
210
0.0
220
0.0
230
1.0
  0
INSERT
  5
417
100
AcDbEntity
  8
1
  6
CONTINUOUS
 62
     1
100
AcDbBlockReference
  2
LDR
 10
560.9947
 20
-111.3674
 30
0.0
 41
200.0
 42
200.0
 50
270.0
210
0.0
220
0.0
230
1.0
  0
INSERT
  5
418
100
AcDbEntity
  8
1
  6
CONTINUOUS
 62
     1
100
AcDbBlockReference
  2
LDR
 10
568.9307
 20
-118.9854
 30
0.0
 41
200.0
 42
200.0
 50
270.0
210
0.0
220
0.0
230
1.0
  0
INSERT
  5
419
100
AcDbEntity
  8
1
  6
CONTINUOUS
 62
     1
100
AcDbBlockReference
  2
LDR
 10
568.9307
 20
-118.9854
 30
0.0
 41
200.0
 42
200.0
 50
270.0
210
0.0
220
0.0
230
1.0
  0
INSERT
  5
41A
100
AcDbEntity
  8
1
  6
CONTINUOUS
 62
     1
100
AcDbBlockReference
  2
LDR
 10
568.9307
 20
-76.6354
 30
0.0
 41
200.0
 42
200.0
 50
90.0
210
0.0
220
0.0
230
1.0
  0
ARC
  5
41B
100
AcDbEntity
  8
1
  6
HIDDEN
 62
     1
100
AcDbCircle
 10
518.0107
 20
-97.8094
 30
0.0
 40
14.928696
210
0.0
220
0.0
230
1.0
100
AcDbArc
 50
270.0
 51
90.0
  0
ARC
  5
41C
100
AcDbEntity
  8
1
  6
HIDDEN
 62
     1
100
AcDbCircle
 10
518.0107
 20
-97.8094
 30
0.0
 40
16.819361
210
0.0
220
0.0
230
1.0
100
AcDbArc
 50
270.0
 51
90.0
  0
LINE
  5
41D
100
AcDbEntity
  8
1
  6
CONTINUOUS
 62
     1
100
AcDbLine
 10
631.6444
 20
-81.1889
 30
0.0
 11
687.3824
 21
-81.1889
 31
0.0
  0
LINE
  5
41E
100
AcDbEntity
  8
1
  6
CONTINUOUS
 62
     1
100
AcDbLine
 10
631.6444
 20
-82.4969
 30
0.0
 11
687.3824
 21
-82.4969
 31
0.0
  0
LINE
  5
41F
100
AcDbEntity
  8
1
  6
CONTINUOUS
 62
     1
100
AcDbLine
 10
631.6444
 20
-81.1889
 30
0.0
 11
631.6444
 21
-82.4969
 31
0.0
  0
LINE
  5
420
100
AcDbEntity
  8
1
  6
CONTINUOUS
 62
     1
100
AcDbLine
 10
687.3824
 20
-81.1889
 30
0.0
 11
687.3824
 21
-82.4969
 31
0.0
  0
LINE
  5
421
100
AcDbEntity
  8
1
  6
CONTINUOUS
 62
     1
100
AcDbLine
 10
658.3144
 20
-80.8309
 30
0.0
 11
660.7144
 21
-80.8309
 31
0.0
  0
LINE
  5
422
100
AcDbEntity
  8
1
  6
CONTINUOUS
 62
     1
100
AcDbLine
 10
658.7944
 20
-80.1949
 30
0.0
 11
660.2344
 21
-80.1949
 31
0.0
  0
LINE
  5
423
100
AcDbEntity
  8
1
  6
CONTINUOUS
 62
     1
100
AcDbLine
 10
658.7944
 20
-80.1949
 30
0.0
 11
658.7944
 21
-80.8309
 31
0.0
  0
LINE
  5
424
100
AcDbEntity
  8
1
  6
CONTINUOUS
 62
     1
100
AcDbLine
 10
660.2344
 20
-80.1949
 30
0.0
 11
660.2344
 21
-80.8309
 31
0.0
  0
LINE
  5
425
100
AcDbEntity
  8
1
  6
CONTINUOUS
 62
     1
100
AcDbLine
 10
658.3144
 20
-80.8309
 30
0.0
 11
658.3144
 21
-81.1889
 31
0.0
  0
LINE
  5
426
100
AcDbEntity
  8
1
  6
CONTINUOUS
 62
     1
100
AcDbLine
 10
660.7144
 20
-80.8309
 30
0.0
 11
660.7144
 21
-81.1889
 31
0.0
  0
LINE
  5
427
100
AcDbEntity
  8
1
  6
CONTINUOUS
 62
     1
100
AcDbLine
 10
658.7944
 20
-80.8309
 30
0.0
 11
658.7944
 21
-84.9489
 31
0.0
  0
LINE
  5
428
100
AcDbEntity
  8
1
  6
CONTINUOUS
 62
     1
100
AcDbLine
 10
660.2344
 20
-80.8309
 30
0.0
 11
660.2344
 21
-84.9489
 31
0.0
  0
LINE
  5
429
100
AcDbEntity
  8
1
  6
CONTINUOUS
 62
     1
100
AcDbLine
 10
658.7944
 20
-84.9489
 30
0.0
 11
660.2344
 21
-84.9489
 31
0.0
  0
LINE
  5
42A
100
AcDbEntity
  8
1
  6
CONTINUOUS
 62
     1
100
AcDbLine
 10
657.8344
 20
-83.5309
 30
0.0
 11
661.1944
 21
-83.5309
 31
0.0
  0
LINE
  5
42B
100
AcDbEntity
  8
1
  6
CONTINUOUS
 62
     1
100
AcDbLine
 10
655.1944
 20
-82.4969
 30
0.0
 11
655.1944
 21
-86.1489
 31
0.0
  0
LINE
  5
42C
100
AcDbEntity
  8
1
  6
CONTINUOUS
 62
     1
100
AcDbLine
 10
663.8344
 20
-82.4969
 30
0.0
 11
663.8344
 21
-86.1489
 31
0.0
  0
LINE
  5
42D
100
AcDbEntity
  8
1
  6
CONTINUOUS
 62
     1
100
AcDbLine
 10
656.8744
 20
-84.2509
 30
0.0
 11
656.8744
 21
-86.7809
 31
0.0
  0
LINE
  5
42E
100
AcDbEntity
  8
1
  6
CONTINUOUS
 62
     1
100
AcDbLine
 10
662.1544
 20
-84.2509
 30
0.0
 11
662.1544
 21
-86.9329
 31
0.0
  0
CIRCLE
  5
42F
100
AcDbEntity
  8
1
  6
CONTINUOUS
 62
     1
100
AcDbCircle
 10
658.9064
 20
-107.9559
 30
0.0
 40
21.273183
210
0.0
220
0.0
230
1.0
  0
ARC
  5
430
100
AcDbEntity
  8
1
  6
CONTINUOUS
 62
     1
100
AcDbCircle
 10
657.816628
 20
-84.507204
 30
0.0
 40
0.976465
210
0.0
220
0.0
230
1.0
100
AcDbArc
 50
88.957119
 51
164.782678
  0
ARC
  5
431
100
AcDbEntity
  8
1
  6
CONTINUOUS
 62
     1
100
AcDbCircle
 10
661.212172
 20
-84.507204
 30
0.0
 40
0.976465
210
0.0
220
0.0
230
1.0
100
AcDbArc
 50
15.217322
 51
91.042881
  0
LINE
  5
432
100
AcDbEntity
  8
1
  6
CONTINUOUS
 62
     1
100
AcDbLine
 10
656.8784
 20
-85.6729
 30
0.0
 11
662.1544
 21
-85.6729
 31
0.0
  0
LINE
  5
433
100
AcDbEntity
  8
1
  6
CONTINUOUS
 62
     1
100
AcDbLine
 10
654.4744
 20
-86.5349
 30
0.0
 11
654.4744
 21
-87.1489
 31
0.0
  0
LINE
  5
434
100
AcDbEntity
  8
1
  6
CONTINUOUS
 62
     1
100
AcDbLine
 10
664.5544
 20
-86.5349
 30
0.0
 11
664.5544
 21
-87.4469
 31
0.0
  0
LINE
  5
435
100
AcDbEntity
  8
1
  6
CONTINUOUS
 62
     1
100
AcDbLine
 10
654.4744
 20
-86.5349
 30
0.0
 11
655.1944
 21
-86.1489
 31
0.0
  0
LINE
  5
436
100
AcDbEntity
  8
1
  6
CONTINUOUS
 62
     1
100
AcDbLine
 10
664.5544
 20
-86.5349
 30
0.0
 11
663.8344
 21
-86.1489
 31
0.0
  0
LINE
  5
437
100
AcDbEntity
  8
1
  6
CONTINUOUS
 62
     1
100
AcDbLine
 10
651.0604
 20
-88.1829
 30
0.0
 11
655.1944
 21
-85.9689
 31
0.0
  0
LINE
  5
438
100
AcDbEntity
  8
1
  6
CONTINUOUS
 62
     1
100
AcDbLine
 10
668.6804
 20
-89.0609
 30
0.0
 11
663.8344
 21
-85.9609
 31
0.0
  0
LINE
  5
439
100
AcDbEntity
  8
1
  6
CONTINUOUS
 62
     1
100
AcDbLine
 10
679.8584
 20
-104.2689
 30
0.0
 11
681.3304
 21
-104.2689
 31
0.0
  0
LINE
  5
43A
100
AcDbEntity
  8
1
  6
CONTINUOUS
 62
     1
100
AcDbLine
 10
680.1744
 20
-107.4449
 30
0.0
 11
681.3304
 21
-107.4449
 31
0.0
  0
LINE
  5
43B
100
AcDbEntity
  8
1
  6
CONTINUOUS
 62
     1
100
AcDbLine
 10
681.3304
 20
-104.2689
 30
0.0
 11
681.3304
 21
-107.4449
 31
0.0
  0
LINE
  5
43C
100
AcDbEntity
  8
1
  6
CONTINUOUS
 62
     1
100
AcDbLine
 10
681.8104
 20
-105.3769
 30
0.0
 11
681.3304
 21
-105.3769
 31
0.0
  0
LINE
  5
43D
100
AcDbEntity
  8
1
  6
CONTINUOUS
 62
     1
100
AcDbLine
 10
681.8104
 20
-106.3369
 30
0.0
 11
681.3304
 21
-106.3369
 31
0.0
  0
LINE
  5
43E
100
AcDbEntity
  8
1
  6
CONTINUOUS
 62
     1
100
AcDbLine
 10
681.8104
 20
-105.3769
 30
0.0
 11
681.8104
 21
-106.3369
 31
0.0
  0
ARC
  5
43F
100
AcDbEntity
  8
1
  6
CONTINUOUS
 62
     1
100
AcDbCircle
 10
699.543871
 20
-112.677249
 30
0.0
 40
18.950145
210
0.0
220
0.0
230
1.0
100
AcDbArc
 50
163.97175
 51
189.254767
  0
ARC
  5
440
100
AcDbEntity
  8
1
  6
CONTINUOUS
 62
     1
100
AcDbCircle
 10
665.166941
 20
-115.811463
 30
0.0
 40
18.200461
210
0.0
220
0.0
230
1.0
100
AcDbArc
 50
1.040683
 51
27.367081
  0
ARC
  5
441
100
AcDbEntity
  8
1
  6
CONTINUOUS
 62
     1
100
AcDbCircle
 10
682.117044
 20
-115.754383
 30
0.0
 40
1.276985
210
0.0
220
0.0
230
1.0
100
AcDbArc
 50
178.677017
 51
12.366456
  0
LINE
  5
442
100
AcDbEntity
  8
1
  6
CONTINUOUS
 62
     1
100
AcDbLine
 10
843.8525
 20
-144.5981
 30
0.0
 11
710.6565
 21
-144.5981
 31
0.0
  0
LINE
  5
443
100
AcDbEntity
  8
1
  6
CONTINUOUS
 62
     1
100
AcDbLine
 10
710.6565
 20
-144.5981
 30
0.0
 11
710.6565
 21
-84.8441
 31
0.0
  0
LINE
  5
444
100
AcDbEntity
  8
1
  6
CONTINUOUS
 62
     1
100
AcDbLine
 10
843.8525
 20
-136.1981
 30
0.0
 11
710.6565
 21
-136.1981
 31
0.0
  0
LINE
  5
445
100
AcDbEntity
  8
1
  6
CONTINUOUS
 62
     1
100
AcDbLine
 10
843.8525
 20
-127.7981
 30
0.0
 11
710.6565
 21
-127.7981
 31
0.0
  0
LINE
  5
446
100
AcDbEntity
  8
1
  6
CONTINUOUS
 62
     1
100
AcDbLine
 10
843.8525
 20
-119.3981
 30
0.0
 11
710.6565
 21
-119.3981
 31
0.0
  0
LINE
  5
447
100
AcDbEntity
  8
1
  6
CONTINUOUS
 62
     1
100
AcDbLine
 10
843.8525
 20
-110.9981
 30
0.0
 11
710.6565
 21
-110.9981
 31
0.0
  0
LINE
  5
448
100
AcDbEntity
  8
1
  6
CONTINUOUS
 62
     1
100
AcDbLine
 10
843.8525
 20
-102.5981
 30
0.0
 11
710.6565
 21
-102.5981
 31
0.0
  0
LINE
  5
449
100
AcDbEntity
  8
1
  6
CONTINUOUS
 62
     1
100
AcDbLine
 10
819.8525
 20
-84.8441
 30
0.0
 11
819.8525
 21
-144.5981
 31
0.0
  0
LINE
  5
44A
100
AcDbEntity
  8
1
  6
CONTINUOUS
 62
     1
100
AcDbLine
 10
795.8525
 20
-93.7201
 30
0.0
 11
795.8525
 21
-144.5981
 31
0.0
  0
LINE
  5
44B
100
AcDbEntity
  8
1
  6
CONTINUOUS
 62
     1
100
AcDbLine
 10
771.8525
 20
-84.8441
 30
0.0
 11
771.8525
 21
-144.5981
 31
0.0
  0
LINE
  5
44C
100
AcDbEntity
  8
1
  6
CONTINUOUS
 62
     1
100
AcDbLine
 10
734.6565
 20
-144.5981
 30
0.0
 11
734.6565
 21
-84.8441
 31
0.0
  0
LINE
  5
44D
100
AcDbEntity
  8
1
  6
CONTINUOUS
 62
     1
100
AcDbLine
 10
710.6565
 20
-84.8441
 30
0.0
 11
734.6565
 21
-84.8441
 31
0.0
  0
LINE
  5
44E
100
AcDbEntity
  8
1
  6
CONTINUOUS
 62
     1
100
AcDbLine
 10
734.6565
 20
-84.8441
 30
0.0
 11
771.8525
 21
-84.8441
 31
0.0
  0
LINE
  5
44F
100
AcDbEntity
  8
1
  6
CONTINUOUS
 62
     1
100
AcDbLine
 10
771.8525
 20
-84.8441
 30
0.0
 11
843.8525
 21
-84.8441
 31
0.0
  0
LINE
  5
450
100
AcDbEntity
  8
1
  6
CONTINUOUS
 62
     1
100
AcDbLine
 10
753.2545
 20
-84.8441
 30
0.0
 11
753.2545
 21
-144.5981
 31
0.0
  0
LINE
  5
451
100
AcDbEntity
  8
1
  6
CONTINUOUS
 62
     1
100
AcDbLine
 10
734.6565
 20
-96.9241
 30
0.0
 11
753.2545
 21
-96.9241
 31
0.0
  0
LINE
  5
452
100
AcDbEntity
  8
1
  6
CONTINUOUS
 62
     1
100
AcDbLine
 10
753.2545
 20
-96.9241
 30
0.0
 11
771.8525
 21
-96.9241
 31
0.0
  0
LINE
  5
453
100
AcDbEntity
  8
1
  6
CONTINUOUS
 62
     1
100
AcDbLine
 10
743.3565
 20
-96.9241
 30
0.0
 11
743.3565
 21
-144.5981
 31
0.0
  0
LINE
  5
454
100
AcDbEntity
  8
1
  6
CONTINUOUS
 62
     1
100
AcDbLine
 10
761.9545
 20
-96.9241
 30
0.0
 11
761.9545
 21
-144.5981
 31
0.0
  0
LINE
  5
455
100
AcDbEntity
  8
1
  6
CONTINUOUS
 62
     1
100
AcDbLine
 10
843.8525
 20
-84.8441
 30
0.0
 11
843.8525
 21
-102.5981
 31
0.0
  0
LINE
  5
456
100
AcDbEntity
  8
1
  6
CONTINUOUS
 62
     1
100
AcDbLine
 10
843.8525
 20
-102.5981
 30
0.0
 11
843.8525
 21
-144.5981
 31
0.0
  0
LINE
  5
457
100
AcDbEntity
  8
1
  6
CONTINUOUS
 62
     1
100
AcDbLine
 10
843.8525
 20
-93.7201
 30
0.0
 11
771.8525
 21
-93.7201
 31
0.0
  0
LINE
  5
458
100
AcDbEntity
  8
1
  6
CONTINUOUS
 62
     1
100
AcDbLine
 10
441.9194
 20
-191.8943
 30
0.0
 11
573.5496
 21
-191.8943
 31
0.0
  0
LINE
  5
459
100
AcDbEntity
  8
1
  6
CONTINUOUS
 62
     1
100
AcDbLine
 10
573.5496
 20
-191.8943
 30
0.0
 11
573.5496
 21
-234.6383
 31
0.0
  0
LINE
  5
45A
100
AcDbEntity
  8
1
  6
CONTINUOUS
 62
     1
100
AcDbLine
 10
573.5496
 20
-234.6383
 30
0.0
 11
441.9194
 21
-234.6383
 31
0.0
  0
LINE
  5
45B
100
AcDbEntity
  8
1
  6
CONTINUOUS
 62
     1
100
AcDbLine
 10
441.9194
 20
-234.6383
 30
0.0
 11
441.9194
 21
-191.8943
 31
0.0
  0
LINE
  5
45C
100
AcDbEntity
  8
1
  6
CONTINUOUS
 62
     1
100
AcDbLine
 10
573.5496
 20
-228.0863
 30
0.0
 11
441.9194
 21
-228.0863
 31
0.0
  0
LINE
  5
45D
100
AcDbEntity
  8
1
  6
CONTINUOUS
 62
     1
100
AcDbLine
 10
573.5496
 20
-221.5343
 30
0.0
 11
441.9194
 21
-221.5343
 31
0.0
  0
LINE
  5
45E
100
AcDbEntity
  8
1
  6
CONTINUOUS
 62
     1
100
AcDbLine
 10
573.5496
 20
-214.9823
 30
0.0
 11
441.9194
 21
-214.9823
 31
0.0
  0
LINE
  5
45F
100
AcDbEntity
  8
1
  6
CONTINUOUS
 62
     1
100
AcDbLine
 10
470.3114
 20
-234.6383
 30
0.0
 11
470.3114
 21
-202.1903
 31
0.0
  0
LINE
  5
460
100
AcDbEntity
  8
1
  6
CONTINUOUS
 62
     1
100
AcDbLine
 10
492.4634
 20
-234.6383
 30
0.0
 11
492.4634
 21
-202.1903
 31
0.0
  0
LINE
  5
461
100
AcDbEntity
  8
1
  6
CONTINUOUS
 62
     1
100
AcDbLine
 10
492.4634
 20
-202.1903
 30
0.0
 11
441.9194
 21
-202.1903
 31
0.0
  0
LINE
  5
462
100
AcDbEntity
  8
1
  6
CONTINUOUS
 62
     1
100
AcDbLine
 10
533.0078
 20
-202.1903
 30
0.0
 11
533.0078
 21
-234.6383
 31
0.0
  0
LINE
  5
463
100
AcDbEntity
  8
1
  6
CONTINUOUS
 62
     1
100
AcDbLine
 10
512.7356
 20
-202.1903
 30
0.0
 11
512.7356
 21
-234.6383
 31
0.0
  0
LINE
  5
464
100
AcDbEntity
  8
1
  6
CONTINUOUS
 62
     1
100
AcDbLine
 10
553.28
 20
-202.1903
 30
0.0
 11
553.28
 21
-234.6383
 31
0.0
  0
LINE
  5
465
100
AcDbEntity
  8
1
  6
CONTINUOUS
 62
     1
100
AcDbLine
 10
533.0078
 20
-202.1903
 30
0.0
 11
512.7356
 21
-202.1903
 31
0.0
  0
LINE
  5
466
100
AcDbEntity
  8
1
  6
CONTINUOUS
 62
     1
100
AcDbLine
 10
512.7356
 20
-202.1903
 30
0.0
 11
492.4634
 21
-202.1903
 31
0.0
  0
LINE
  5
467
100
AcDbEntity
  8
1
  6
CONTINUOUS
 62
     1
100
AcDbLine
 10
573.5496
 20
-202.1903
 30
0.0
 11
553.28
 21
-202.1903
 31
0.0
  0
LINE
  5
468
100
AcDbEntity
  8
1
  6
CONTINUOUS
 62
     1
100
AcDbLine
 10
553.28
 20
-202.1903
 30
0.0
 11
533.0078
 21
-202.1903
 31
0.0
  0
LINE
  5
469
100
AcDbEntity
  8
1
  6
CONTINUOUS
 62
     1
100
AcDbLine
 10
502.6008
 20
-202.1903
 30
0.0
 11
502.6008
 21
-234.6383
 31
0.0
  0
LINE
  5
46A
100
AcDbEntity
  8
1
  6
CONTINUOUS
 62
     1
100
AcDbLine
 10
522.873
 20
-202.1903
 30
0.0
 11
522.873
 21
-234.6383
 31
0.0
  0
LINE
  5
46B
100
AcDbEntity
  8
1
  6
CONTINUOUS
 62
     1
100
AcDbLine
 10
543.1452
 20
-202.1903
 30
0.0
 11
543.1452
 21
-234.6383
 31
0.0
  0
LINE
  5
46C
100
AcDbEntity
  8
1
  6
CONTINUOUS
 62
     1
100
AcDbLine
 10
563.4148
 20
-202.1903
 30
0.0
 11
563.4148
 21
-234.6383
 31
0.0
  0
TEXT
  5
46F
100
AcDbEntity
  8
61
  6
CONTINUOUS
 62
     1
100
AcDbText
 10
821.3024
 20
201.5919
 30
0.0
 40
2.881584
  1
     
 41
1.001399
  7
MONOTXT
210
0.0
220
0.0
230
1.0
100
AcDbText
  0
TEXT
  5
470
100
AcDbEntity
  8
1
  6
CONTINUOUS
 62
     1
100
AcDbText
 10
657.4654
 20
-225.2332
 30
0.0
 40
2.400048
  1
02-06-76
  7
MONOTXT
 72
     1
 11
666.0923
 21
-222.8332
 31
0.0
210
0.0
220
0.0
230
1.0
100
AcDbText
 73
     3
  0
TEXT
  5
471
100
AcDbEntity
  8
1
  6
CONTINUOUS
 62
     1
100
AcDbText
 10
658.4052
 20
-230.5132
 30
0.0
 40
2.400048
  1
11-08-76
  7
MONOTXT
 72
     1
 11
666.0683
 21
-228.1132
 31
0.0
210
0.0
220
0.0
230
1.0
100
AcDbText
 73
     3
  0
TEXT
  5
472
100
AcDbEntity
  8
1
  6
CONTINUOUS
 62
     1
100
AcDbText
 10
657.2333
 20
-236.4976
 30
0.0
 40
2.400048
  1
07-07-89
  7
MONOTXT
 72
     1
 11
665.9358
 21
-234.0976
 31
0.0
210
0.0
220
0.0
230
1.0
100
AcDbText
 73
     3
  0
TEXT
  5
473
100
AcDbEntity
  8
1
  6
CONTINUOUS
 62
     1
100
AcDbText
 10
656.958
 20
-241.7776
 30
0.0
 40
2.400048
  1
03-02-93
  7
MONOTXT
 72
     1
 11
665.6227
 21
-239.3776
 31
0.0
210
0.0
220
0.0
230
1.0
100
AcDbText
 73
     3
  0
TEXT
  5
474
100
AcDbEntity
  8
1
  6
CONTINUOUS
 62
     1
100
AcDbText
 10
657.5678
 20
-247.7672
 30
0.0
 40
2.400048
  1
09-10-93
  7
MONOTXT
 72
     1
 11
665.6656
 21
-245.3672
 31
0.0
210
0.0
220
0.0
230
1.0
100
AcDbText
 73
     3
  0
TEXT
  5
475
100
AcDbEntity
  8
1
  6
CONTINUOUS
 62
     1
100
AcDbText
 10
658.3664
 20
-245.8641
 30
0.0
 40
2.400048
  1
        
  7
MONOTXT
 72
     1
 11
667.5666
 21
-243.4641
 31
0.0
210
0.0
220
0.0
230
1.0
100
AcDbText
 73
     3
  0
TEXT
  5
476
100
AcDbEntity
  8
1
  6
CONTINUOUS
 62
     1
100
AcDbText
 10
658.2464
 20
-251.3841
 30
0.0
 40
2.400048
  1
        
  7
MONOTXT
 72
     1
 11
667.4466
 21
-248.9841
 31
0.0
210
0.0
220
0.0
230
1.0
100
AcDbText
 73
     3
  0
TEXT
  5
477
100
AcDbEntity
  8
1
  6
CONTINUOUS
 62
     1
100
AcDbText
 10
658.3664
 20
-256.8801
 30
0.0
 40
2.400048
  1
        
  7
MONOTXT
 72
     1
 11
667.5666
 21
-254.4801
 31
0.0
210
0.0
220
0.0
230
1.0
100
AcDbText
 73
     3
  0
TEXT
  5
478
100
AcDbEntity
  8
1
  6
CONTINUOUS
 62
     1
100
AcDbText
 10
658.3664
 20
-261.7041
 30
0.0
 40
2.400048
  1
        
  7
MONOTXT
 72
     1
 11
667.5666
 21
-259.3041
 31
0.0
210
0.0
220
0.0
230
1.0
100
AcDbText
 73
     3
  0
TEXT
  5
479
100
AcDbEntity
  8
1
  6
CONTINUOUS
 62
     7
100
AcDbText
 10
98.8904
 20
224.5169
 30
0.0
 40
3.0
  1
MARKER
  7
MONOTXT
 72
     4
 11
107.3352
 21
226.0169
 31
0.0
210
0.0
220
0.0
230
1.0
100
AcDbText
  0
TEXT
  5
47A
100
AcDbEntity
  8
1
  6
CONTINUOUS
 62
     7
100
AcDbText
 10
160.7397
 20
224.5169
 30
0.0
 40
3.0
  1
DESCRIPTION
  7
MONOTXT
 72
     4
 11
174.7829
 21
226.0169
 31
0.0
210
0.0
220
0.0
230
1.0
100
AcDbText
  0
TEXT
  5
47B
100
AcDbEntity
  8
1
  6
CONTINUOUS
 62
     7
100
AcDbText
 10
189.49
 20
217.601
 30
0.0
 40
3.0
  1
CARDINAL
  7
MONOTXT
 72
     4
 11
199.7065
 21
219.101
 31
0.0
210
0.0
220
0.0
230
1.0
100
AcDbText
  0
TEXT
  5
47C
100
AcDbEntity
  8
1
  6
CONTINUOUS
 62
     7
100
AcDbText
 10
197.0727
 20
212.201
 30
0.0
 40
3.0
  1
TO
  7
MONOTXT
 72
     4
 11
199.7065
 21
213.701
 31
0.0
210
0.0
220
0.0
230
1.0
100
AcDbText
  0
TEXT
  5
47D
100
AcDbEntity
  8
1
  6
CONTINUOUS
 62
     7
100
AcDbText
 10
195.9388
 20
206.801
 30
0.0
 40
3.0
  1
JCT
  7
MONOTXT
 72
     4
 11
199.7064
 21
208.301
 31
0.0
210
0.0
220
0.0
230
1.0
100
AcDbText
  0
TEXT
  5
47E
100
AcDbEntity
  8
1
  6
CONTINUOUS
 62
     7
100
AcDbText
 10
176.7447
 20
183.4194
 30
0.0
 40
3.0
  1
DIRECTIONAL ARROW
  7
MONOTXT
 72
     4
 11
199.8589
 21
184.9194
 31
0.0
210
0.0
220
0.0
230
1.0
100
AcDbText
  0
TEXT
  5
47F
100
AcDbEntity
  8
1
  6
CONTINUOUS
 62
     7
100
AcDbText
 10
106.3314
 20
211.7994
 30
0.0
 40
3.0
  1
P
  7
MONOTXT
 72
     4
 11
107.3353
 21
213.2994
 31
0.0
210
0.0
220
0.0
230
1.0
100
AcDbText
  0
TEXT
  5
480
100
AcDbEntity
  8
1
  6
CONTINUOUS
 62
     7
100
AcDbText
 10
105.6543
 20
195.6014
 30
0.0
 40
3.0
  1
Q
  7
MONOTXT
 72
     4
 11
106.7999
 21
197.1014
 31
0.0
210
0.0
220
0.0
230
1.0
100
AcDbText
  0
TEXT
  5
481
100
AcDbEntity
  8
1
  6
CONTINUOUS
 62
     7
100
AcDbText
 10
106.0637
 20
183.1516
 30
0.0
 40
3.0
  1
R
  7
MONOTXT
 72
     4
 11
107.0676
 21
184.6516
 31
0.0
210
0.0
220
0.0
230
1.0
100
AcDbText
  0
LINE
  5
482
100
AcDbEntity
  8
1
  6
CONTINUOUS
 62
     7
100
AcDbLine
 10
241.7374
 20
224.8521
 30
0.0
 11
258.905
 21
224.8521
 31
0.0
  0
TEXT
  5
483
100
AcDbEntity
  8
1
  6
CONTINUOUS
 62
     7
100
AcDbText
 10
124.5254
 20
121.3768
 30
0.0
 40
3.0
  1
P
  7
MONOTXT
 72
     4
 11
125.5293
 21
122.8768
 31
0.0
210
0.0
220
0.0
230
1.0
100
AcDbText
  0
TEXT
  5
484
100
AcDbEntity
  8
1
  6
CONTINUOUS
 62
     7
100
AcDbText
 10
141.7747
 20
121.3768
 30
0.0
 40
3.0
  1
P
  7
MONOTXT
 72
     4
 11
142.7786
 21
122.8768
 31
0.0
210
0.0
220
0.0
230
1.0
100
AcDbText
  0
TEXT
  5
485
100
AcDbEntity
  8
1
  6
CONTINUOUS
 62
     7
100
AcDbText
 10
124.1473
 20
110.2675
 30
0.0
 40
3.0
  1
Q
  7
MONOTXT
 72
     4
 11
125.2929
 21
111.7675
 31
0.0
210
0.0
220
0.0
230
1.0
100
AcDbText
  0
TEXT
  5
486
100
AcDbEntity
  8
1
  6
CONTINUOUS
 62
     7
100
AcDbText
 10
142.3418
 20
110.2675
 30
0.0
 40
3.0
  1
Q
  7
MONOTXT
 72
     4
 11
143.4874
 21
111.7675
 31
0.0
210
0.0
220
0.0
230
1.0
100
AcDbText
  0
TEXT
  5
487
100
AcDbEntity
  8
1
  6
CONTINUOUS
 62
     7
100
AcDbText
 10
124.2891
 20
99.1582
 30
0.0
 40
3.0
  1
R
  7
MONOTXT
 72
     4
 11
125.293
 21
100.6582
 31
0.0
210
0.0
220
0.0
230
1.0
100
AcDbText
  0
TEXT
  5
488
100
AcDbEntity
  8
1
  6
CONTINUOUS
 62
     7
100
AcDbText
 10
141.7747
 20
99.1582
 30
0.0
 40
3.0
  1
R
  7
MONOTXT
 72
     4
 11
142.7786
 21
100.6582
 31
0.0
210
0.0
220
0.0
230
1.0
100
AcDbText
  0
TEXT
  5
489
100
AcDbEntity
  8
1
  6
CONTINUOUS
 62
     7
100
AcDbText
 10
158.8605
 20
95.3763
 30
0.0
 40
3.0
  1
PIPE B
  7
MONOTXT
 72
     4
 11
166.1715
 21
96.8763
 31
0.0
210
0.0
220
0.0
230
1.0
100
AcDbText
  0
TEXT
  5
48A
100
AcDbEntity
  8
1
  6
CONTINUOUS
 62
     7
100
AcDbText
 10
106.2501
 20
72.2122
 30
0.0
 40
3.0
  1
PIPE A
  7
MONOTXT
 72
     4
 11
113.7147
 21
73.7122
 31
0.0
210
0.0
220
0.0
230
1.0
100
AcDbText
  0
TEXT
  5
48B
100
AcDbEntity
  8
1
  6
CONTINUOUS
 62
     7
100
AcDbText
 10
116.8326
 20
34.2053
 30
0.0
 40
3.0
  1
90mm
  7
MONOTXT
 72
     4
 11
123.2814
 21
35.7053
 31
0.0
210
0.0
220
0.0
230
1.0
100
AcDbText
  0
TEXT
  5
48C
100
AcDbEntity
  8
1
  6
CONTINUOUS
 62
     7
100
AcDbText
 10
149.4777
 20
19.0293
 30
0.0
 40
3.0
  1
L
  7
MONOTXT
 72
     4
 11
150.3399
 21
20.5293
 31
0.0
210
0.0
220
0.0
230
1.0
100
AcDbText
  0
TEXT
  5
48D
100
AcDbEntity
  8
1
  6
CONTINUOUS
 62
     7
100
AcDbText
 10
155.4796
 20
8.6291
 30
0.0
 40
3.0
  1
H
  7
MONOTXT
 72
     4
 11
156.4835
 21
10.1291
 31
0.0
210
0.0
220
0.0
230
1.0
100
AcDbText
  0
TEXT
  5
48E
100
AcDbEntity
  8
1
  6
CONTINUOUS
 62
     7
100
AcDbText
 10
132.1815
 20
-23.7534
 30
0.0
 40
3.0
  1
D1
  7
MONOTXT
 72
     4
 11
134.024
 21
-22.2534
 31
0.0
210
0.0
220
0.0
230
1.0
100
AcDbText
  0
TEXT
  5
48F
100
AcDbEntity
  8
1
  6
CONTINUOUS
 62
     7
100
AcDbText
 10
228.5883
 20
110.2745
 30
0.0
 40
3.0
  1
Q
  7
MONOTXT
 72
     4
 11
229.7339
 21
111.7745
 31
0.0
210
0.0
220
0.0
230
1.0
100
AcDbText
  0
TEXT
  5
490
100
AcDbEntity
  8
1
  6
CONTINUOUS
 62
     7
100
AcDbText
 10
228.9664
 20
121.3838
 30
0.0
 40
3.0
  1
P
  7
MONOTXT
 72
     4
 11
229.9703
 21
122.8838
 31
0.0
210
0.0
220
0.0
230
1.0
100
AcDbText
  0
TEXT
  5
491
100
AcDbEntity
  8
1
  6
CONTINUOUS
 62
     7
100
AcDbText
 10
228.7301
 20
99.1652
 30
0.0
 40
3.0
  1
R
  7
MONOTXT
 72
     4
 11
229.734
 21
100.6652
 31
0.0
210
0.0
220
0.0
230
1.0
100
AcDbText
  0
TEXT
  5
492
100
AcDbEntity
  8
1
  6
CONTINUOUS
 62
     7
100
AcDbText
 10
246.1956
 20
110.241
 30
0.0
 40
3.0
  1
Q
  7
MONOTXT
 72
     4
 11
247.3412
 21
111.741
 31
0.0
210
0.0
220
0.0
230
1.0
100
AcDbText
  0
TEXT
  5
493
100
AcDbEntity
  8
1
  6
CONTINUOUS
 62
     7
100
AcDbText
 10
246.5737
 20
121.3503
 30
0.0
 40
3.0
  1
P
  7
MONOTXT
 72
     4
 11
247.5776
 21
122.8503
 31
0.0
210
0.0
220
0.0
230
1.0
100
AcDbText
  0
TEXT
  5
494
100
AcDbEntity
  8
1
  6
CONTINUOUS
 62
     7
100
AcDbText
 10
246.3374
 20
99.1317
 30
0.0
 40
3.0
  1
R
  7
MONOTXT
 72
     4
 11
247.3413
 21
100.6317
 31
0.0
210
0.0
220
0.0
230
1.0
100
AcDbText
  0
TEXT
  5
495
100
AcDbEntity
  8
1
  6
CONTINUOUS
 62
     7
100
AcDbText
 10
245.8506
 20
132.2435
 30
0.0
 40
3.0
  1
R
  7
MONOTXT
 72
     4
 11
246.8545
 21
133.7435
 31
0.0
210
0.0
220
0.0
230
1.0
100
AcDbText
  0
TEXT
  5
496
100
AcDbEntity
  8
1
  6
CONTINUOUS
 62
     7
100
AcDbText
 10
245.7088
 20
143.3528
 30
0.0
 40
3.0
  1
Q
  7
MONOTXT
 72
     4
 11
246.8544
 21
144.8528
 31
0.0
210
0.0
220
0.0
230
1.0
100
AcDbText
  0
TEXT
  5
497
100
AcDbEntity
  8
1
  6
CONTINUOUS
 62
     7
100
AcDbText
 10
246.0869
 20
154.4621
 30
0.0
 40
3.0
  1
P
  7
MONOTXT
 72
     4
 11
247.0908
 21
155.9621
 31
0.0
210
0.0
220
0.0
230
1.0
100
AcDbText
  0
TEXT
  5
498
100
AcDbEntity
  8
1
  6
CONTINUOUS
 62
     7
100
AcDbText
 10
263.1938
 20
95.5386
 30
0.0
 40
3.0
  1
PIPE B
  7
MONOTXT
 72
     4
 11
270.5048
 21
97.0386
 31
0.0
210
0.0
220
0.0
230
1.0
100
AcDbText
  0
TEXT
  5
499
100
AcDbEntity
  8
1
  6
CONTINUOUS
 62
     7
100
AcDbText
 10
210.1131
 20
72.2133
 30
0.0
 40
3.0
  1
PIPE A
  7
MONOTXT
 72
     4
 11
217.5777
 21
73.7133
 31
0.0
210
0.0
220
0.0
230
1.0
100
AcDbText
  0
TEXT
  5
49A
100
AcDbEntity
  8
1
  6
CONTINUOUS
 62
     7
100
AcDbText
 10
376.1269
 20
95.214
 30
0.0
 40
3.0
  1
PIPE B
  7
MONOTXT
 72
     4
 11
383.4379
 21
96.714
 31
0.0
210
0.0
220
0.0
230
1.0
100
AcDbText
  0
TEXT
  5
49B
100
AcDbEntity
  8
1
  6
CONTINUOUS
 62
     7
100
AcDbText
 10
322.0727
 20
72.5379
 30
0.0
 40
3.0
  1
PIPE A
  7
MONOTXT
 72
     4
 11
329.5373
 21
74.0379
 31
0.0
210
0.0
220
0.0
230
1.0
100
AcDbText
  0
TEXT
  5
49C
100
AcDbEntity
  8
1
  6
CONTINUOUS
 62
     7
100
AcDbText
 10
253.6487
 20
18.0554
 30
0.0
 40
3.0
  1
L
  7
MONOTXT
 72
     4
 11
254.5109
 21
19.5554
 31
0.0
210
0.0
220
0.0
230
1.0
100
AcDbText
  0
TEXT
  5
49D
100
AcDbEntity
  8
1
  6
CONTINUOUS
 62
     7
100
AcDbText
 10
366.5819
 20
17.7308
 30
0.0
 40
3.0
  1
L
  7
MONOTXT
 72
     4
 11
367.4441
 21
19.2308
 31
0.0
210
0.0
220
0.0
230
1.0
100
AcDbText
  0
TEXT
  5
49E
100
AcDbEntity
  8
1
  6
CONTINUOUS
 62
     7
100
AcDbText
 10
259.6507
 20
7.6552
 30
0.0
 40
3.0
  1
H
  7
MONOTXT
 72
     4
 11
260.6546
 21
9.1552
 31
0.0
210
0.0
220
0.0
230
1.0
100
AcDbText
  0
TEXT
  5
49F
100
AcDbEntity
  8
1
  6
CONTINUOUS
 62
     7
100
AcDbText
 10
373.2329
 20
8.6291
 30
0.0
 40
3.0
  1
H
  7
MONOTXT
 72
     4
 11
374.2368
 21
10.1291
 31
0.0
210
0.0
220
0.0
230
1.0
100
AcDbText
  0
TEXT
  5
4A0
100
AcDbEntity
  8
1
  6
CONTINUOUS
 62
     7
100
AcDbText
 10
236.6771
 20
-23.7534
 30
0.0
 40
3.0
  1
D1
  7
MONOTXT
 72
     4
 11
238.5196
 21
-22.2534
 31
0.0
210
0.0
220
0.0
230
1.0
100
AcDbText
  0
TEXT
  5
4A1
100
AcDbEntity
  8
1
  6
CONTINUOUS
 62
     7
100
AcDbText
 10
349.9347
 20
-23.7534
 30
0.0
 40
3.0
  1
D1
  7
MONOTXT
 72
     4
 11
351.7772
 21
-22.2534
 31
0.0
210
0.0
220
0.0
230
1.0
100
AcDbText
  0
TEXT
  5
4A2
100
AcDbEntity
  8
1
  6
CONTINUOUS
 62
     7
100
AcDbText
 10
341.3613
 20
132.0619
 30
0.0
 40
3.0
  1
R
  7
MONOTXT
 72
     4
 11
342.3652
 21
133.5619
 31
0.0
210
0.0
220
0.0
230
1.0
100
AcDbText
  0
TEXT
  5
4A3
100
AcDbEntity
  8
1
  6
CONTINUOUS
 62
     7
100
AcDbText
 10
341.2195
 20
143.1712
 30
0.0
 40
3.0
  1
Q
  7
MONOTXT
 72
     4
 11
342.3651
 21
144.6712
 31
0.0
210
0.0
220
0.0
230
1.0
100
AcDbText
  0
TEXT
  5
4A4
100
AcDbEntity
  8
1
  6
CONTINUOUS
 62
     7
100
AcDbText
 10
341.5976
 20
154.2805
 30
0.0
 40
3.0
  1
P
  7
MONOTXT
 72
     4
 11
342.6015
 21
155.7805
 31
0.0
210
0.0
220
0.0
230
1.0
100
AcDbText
  0
TEXT
  5
4A5
100
AcDbEntity
  8
1
  6
CONTINUOUS
 62
     7
100
AcDbText
 10
358.8629
 20
132.2129
 30
0.0
 40
3.0
  1
R
  7
MONOTXT
 72
     4
 11
359.8668
 21
133.7129
 31
0.0
210
0.0
220
0.0
230
1.0
100
AcDbText
  0
TEXT
  5
4A6
100
AcDbEntity
  8
1
  6
CONTINUOUS
 62
     7
100
AcDbText
 10
358.7211
 20
143.3222
 30
0.0
 40
3.0
  1
Q
  7
MONOTXT
 72
     4
 11
359.8667
 21
144.8222
 31
0.0
210
0.0
220
0.0
230
1.0
100
AcDbText
  0
TEXT
  5
4A7
100
AcDbEntity
  8
1
  6
CONTINUOUS
 62
     7
100
AcDbText
 10
359.0992
 20
154.4315
 30
0.0
 40
3.0
  1
P
  7
MONOTXT
 72
     4
 11
360.1031
 21
155.9315
 31
0.0
210
0.0
220
0.0
230
1.0
100
AcDbText
  0
TEXT
  5
4A8
100
AcDbEntity
  8
1
  6
CONTINUOUS
 62
     7
100
AcDbText
 10
359.293
 20
99.0142
 30
0.0
 40
3.0
  1
R
  7
MONOTXT
 72
     4
 11
360.2969
 21
100.5142
 31
0.0
210
0.0
220
0.0
230
1.0
100
AcDbText
  0
TEXT
  5
4A9
100
AcDbEntity
  8
1
  6
CONTINUOUS
 62
     7
100
AcDbText
 10
359.1512
 20
110.1235
 30
0.0
 40
3.0
  1
Q
  7
MONOTXT
 72
     4
 11
360.2968
 21
111.6235
 31
0.0
210
0.0
220
0.0
230
1.0
100
AcDbText
  0
TEXT
  5
4AA
100
AcDbEntity
  8
1
  6
CONTINUOUS
 62
     7
100
AcDbText
 10
359.5293
 20
121.2328
 30
0.0
 40
3.0
  1
P
  7
MONOTXT
 72
     4
 11
360.5332
 21
122.7328
 31
0.0
210
0.0
220
0.0
230
1.0
100
AcDbText
  0
TEXT
  5
4AB
100
AcDbEntity
  8
1
  6
CONTINUOUS
 62
     7
100
AcDbText
 10
341.8369
 20
99.252
 30
0.0
 40
3.0
  1
R
  7
MONOTXT
 72
     4
 11
342.8408
 21
100.752
 31
0.0
210
0.0
220
0.0
230
1.0
100
AcDbText
  0
TEXT
  5
4AC
100
AcDbEntity
  8
1
  6
CONTINUOUS
 62
     7
100
AcDbText
 10
341.6951
 20
110.3613
 30
0.0
 40
3.0
  1
Q
  7
MONOTXT
 72
     4
 11
342.8407
 21
111.8613
 31
0.0
210
0.0
220
0.0
230
1.0
100
AcDbText
  0
TEXT
  5
4AD
100
AcDbEntity
  8
1
  6
CONTINUOUS
 62
     7
100
AcDbText
 10
342.0732
 20
121.4706
 30
0.0
 40
3.0
  1
P
  7
MONOTXT
 72
     4
 11
343.0771
 21
122.9706
 31
0.0
210
0.0
220
0.0
230
1.0
100
AcDbText
  0
TEXT
  5
4AE
100
AcDbEntity
  8
1
  6
CONTINUOUS
 62
     7
100
AcDbText
 10
486.2422
 20
95.2735
 30
0.0
 40
3.0
  1
PIPE B
  7
MONOTXT
 72
     4
 11
493.5532
 21
96.7735
 31
0.0
210
0.0
220
0.0
230
1.0
100
AcDbText
  0
TEXT
  5
4AF
100
AcDbEntity
  8
1
  6
CONTINUOUS
 62
     7
100
AcDbText
 10
432.188
 20
72.5974
 30
0.0
 40
3.0
  1
PIPE A
  7
MONOTXT
 72
     4
 11
439.6526
 21
74.0974
 31
0.0
210
0.0
220
0.0
230
1.0
100
AcDbText
  0
TEXT
  5
4B0
100
AcDbEntity
  8
1
  6
CONTINUOUS
 62
     7
100
AcDbText
 10
476.6972
 20
17.7903
 30
0.0
 40
3.0
  1
L
  7
MONOTXT
 72
     4
 11
477.5594
 21
19.2903
 31
0.0
210
0.0
220
0.0
230
1.0
100
AcDbText
  0
TEXT
  5
4B1
100
AcDbEntity
  8
1
  6
CONTINUOUS
 62
     7
100
AcDbText
 10
483.3482
 20
8.6886
 30
0.0
 40
3.0
  1
H
  7
MONOTXT
 72
     4
 11
484.3521
 21
10.1886
 31
0.0
210
0.0
220
0.0
230
1.0
100
AcDbText
  0
TEXT
  5
4B2
100
AcDbEntity
  8
1
  6
CONTINUOUS
 62
     7
100
AcDbText
 10
460.05
 20
-23.6939
 30
0.0
 40
3.0
  1
D1
  7
MONOTXT
 72
     4
 11
461.8925
 21
-22.1939
 31
0.0
210
0.0
220
0.0
230
1.0
100
AcDbText
  0
TEXT
  5
4B3
100
AcDbEntity
  8
1
  6
CONTINUOUS
 62
     7
100
AcDbText
 10
451.4766
 20
132.1214
 30
0.0
 40
3.0
  1
R
  7
MONOTXT
 72
     4
 11
452.4805
 21
133.6214
 31
0.0
210
0.0
220
0.0
230
1.0
100
AcDbText
  0
TEXT
  5
4B4
100
AcDbEntity
  8
1
  6
CONTINUOUS
 62
     7
100
AcDbText
 10
451.3348
 20
143.2307
 30
0.0
 40
3.0
  1
Q
  7
MONOTXT
 72
     4
 11
452.4804
 21
144.7307
 31
0.0
210
0.0
220
0.0
230
1.0
100
AcDbText
  0
TEXT
  5
4B5
100
AcDbEntity
  8
1
  6
CONTINUOUS
 62
     7
100
AcDbText
 10
451.7129
 20
154.34
 30
0.0
 40
3.0
  1
P
  7
MONOTXT
 72
     4
 11
452.7168
 21
155.84
 31
0.0
210
0.0
220
0.0
230
1.0
100
AcDbText
  0
TEXT
  5
4B6
100
AcDbEntity
  8
1
  6
CONTINUOUS
 62
     7
100
AcDbText
 10
468.9782
 20
132.2724
 30
0.0
 40
3.0
  1
R
  7
MONOTXT
 72
     4
 11
469.9821
 21
133.7724
 31
0.0
210
0.0
220
0.0
230
1.0
100
AcDbText
  0
TEXT
  5
4B7
100
AcDbEntity
  8
1
  6
CONTINUOUS
 62
     7
100
AcDbText
 10
468.8364
 20
143.3817
 30
0.0
 40
3.0
  1
Q
  7
MONOTXT
 72
     4
 11
469.982
 21
144.8817
 31
0.0
210
0.0
220
0.0
230
1.0
100
AcDbText
  0
TEXT
  5
4B8
100
AcDbEntity
  8
1
  6
CONTINUOUS
 62
     7
100
AcDbText
 10
469.2145
 20
154.491
 30
0.0
 40
3.0
  1
P
  7
MONOTXT
 72
     4
 11
470.2184
 21
155.991
 31
0.0
210
0.0
220
0.0
230
1.0
100
AcDbText
  0
TEXT
  5
4B9
100
AcDbEntity
  8
1
  6
CONTINUOUS
 62
     7
100
AcDbText
 10
469.4083
 20
99.0737
 30
0.0
 40
3.0
  1
R
  7
MONOTXT
 72
     4
 11
470.4122
 21
100.5737
 31
0.0
210
0.0
220
0.0
230
1.0
100
AcDbText
  0
TEXT
  5
4BA
100
AcDbEntity
  8
1
  6
CONTINUOUS
 62
     7
100
AcDbText
 10
469.2665
 20
110.183
 30
0.0
 40
3.0
  1
Q
  7
MONOTXT
 72
     4
 11
470.4121
 21
111.683
 31
0.0
210
0.0
220
0.0
230
1.0
100
AcDbText
  0
TEXT
  5
4BB
100
AcDbEntity
  8
1
  6
CONTINUOUS
 62
     7
100
AcDbText
 10
469.6446
 20
121.2923
 30
0.0
 40
3.0
  1
P
  7
MONOTXT
 72
     4
 11
470.6485
 21
122.7923
 31
0.0
210
0.0
220
0.0
230
1.0
100
AcDbText
  0
TEXT
  5
4BC
100
AcDbEntity
  8
1
  6
CONTINUOUS
 62
     7
100
AcDbText
 10
451.9522
 20
99.3115
 30
0.0
 40
3.0
  1
R
  7
MONOTXT
 72
     4
 11
452.9561
 21
100.8115
 31
0.0
210
0.0
220
0.0
230
1.0
100
AcDbText
  0
TEXT
  5
4BD
100
AcDbEntity
  8
1
  6
CONTINUOUS
 62
     7
100
AcDbText
 10
451.8104
 20
110.4208
 30
0.0
 40
3.0
  1
Q
  7
MONOTXT
 72
     4
 11
452.956
 21
111.9208
 31
0.0
210
0.0
220
0.0
230
1.0
100
AcDbText
  0
TEXT
  5
4BE
100
AcDbEntity
  8
1
  6
CONTINUOUS
 62
     7
100
AcDbText
 10
452.1885
 20
121.5301
 30
0.0
 40
3.0
  1
P
  7
MONOTXT
 72
     4
 11
453.1924
 21
123.0301
 31
0.0
210
0.0
220
0.0
230
1.0
100
AcDbText
  0
TEXT
  5
4BF
100
AcDbEntity
  8
1
  6
CONTINUOUS
 62
     7
100
AcDbText
 10
451.6204
 20
165.3504
 30
0.0
 40
3.0
  1
R
  7
MONOTXT
 72
     4
 11
452.6243
 21
166.8504
 31
0.0
210
0.0
220
0.0
230
1.0
100
AcDbText
  0
TEXT
  5
4C0
100
AcDbEntity
  8
1
  6
CONTINUOUS
 62
     7
100
AcDbText
 10
451.4786
 20
176.4597
 30
0.0
 40
3.0
  1
Q
  7
MONOTXT
 72
     4
 11
452.6242
 21
177.9597
 31
0.0
210
0.0
220
0.0
230
1.0
100
AcDbText
  0
TEXT
  5
4C1
100
AcDbEntity
  8
1
  6
CONTINUOUS
 62
     7
100
AcDbText
 10
451.8567
 20
187.569
 30
0.0
 40
3.0
  1
P
  7
MONOTXT
 72
     4
 11
452.8606
 21
189.069
 31
0.0
210
0.0
220
0.0
230
1.0
100
AcDbText
  0
TEXT
  5
4C2
100
AcDbEntity
  8
1
  6
CONTINUOUS
 62
     7
100
AcDbText
 10
469.122
 20
165.5014
 30
0.0
 40
3.0
  1
R
  7
MONOTXT
 72
     4
 11
470.1259
 21
167.0014
 31
0.0
210
0.0
220
0.0
230
1.0
100
AcDbText
  0
TEXT
  5
4C3
100
AcDbEntity
  8
1
  6
CONTINUOUS
 62
     7
100
AcDbText
 10
468.9802
 20
176.6107
 30
0.0
 40
3.0
  1
Q
  7
MONOTXT
 72
     4
 11
470.1258
 21
178.1107
 31
0.0
210
0.0
220
0.0
230
1.0
100
AcDbText
  0
TEXT
  5
4C4
100
AcDbEntity
  8
1
  6
CONTINUOUS
 62
     7
100
AcDbText
 10
469.3583
 20
187.72
 30
0.0
 40
3.0
  1
P
  7
MONOTXT
 72
     4
 11
470.3622
 21
189.22
 31
0.0
210
0.0
220
0.0
230
1.0
100
AcDbText
  0
TEXT
  5
4C5
100
AcDbEntity
  8
1
  6
CONTINUOUS
 62
     7
100
AcDbText
 10
614.2259
 20
105.6306
 30
0.0
 40
3.0
  1
PIPE B
  7
MONOTXT
 72
     4
 11
621.5369
 21
107.1306
 31
0.0
210
0.0
220
0.0
230
1.0
100
AcDbText
  0
TEXT
  5
4C6
100
AcDbEntity
  8
1
  6
CONTINUOUS
 62
     7
100
AcDbText
 10
540.6146
 20
70.5835
 30
0.0
 40
3.0
  1
PIPE A
  7
MONOTXT
 72
     4
 11
548.0792
 21
72.0835
 31
0.0
210
0.0
220
0.0
230
1.0
100
AcDbText
  0
TEXT
  5
4C7
100
AcDbEntity
  8
1
  6
CONTINUOUS
 62
     7
100
AcDbText
 10
583.5674
 20
17.4614
 30
0.0
 40
3.0
  1
L
  7
MONOTXT
 72
     4
 11
584.4296
 21
18.9614
 31
0.0
210
0.0
220
0.0
230
1.0
100
AcDbText
  0
TEXT
  5
4C8
100
AcDbEntity
  8
1
  6
CONTINUOUS
 62
     7
100
AcDbText
 10
589.5607
 20
7.7018
 30
0.0
 40
3.0
  1
H
  7
MONOTXT
 72
     4
 11
590.5646
 21
9.2018
 31
0.0
210
0.0
220
0.0
230
1.0
100
AcDbText
  0
TEXT
  5
4C9
100
AcDbEntity
  8
1
  6
CONTINUOUS
 62
     7
100
AcDbText
 10
566.9201
 20
-23.3649
 30
0.0
 40
3.0
  1
D1
  7
MONOTXT
 72
     4
 11
568.7626
 21
-21.8649
 31
0.0
210
0.0
220
0.0
230
1.0
100
AcDbText
  0
TEXT
  5
4CA
100
AcDbEntity
  8
1
  6
CONTINUOUS
 62
     7
100
AcDbText
 10
546.0984
 20
125.01
 30
0.0
 40
3.0
  1
.2W
  7
MONOTXT
 72
     4
 11
549.7716
 21
126.51
 31
0.0
210
0.0
220
0.0
230
1.0
100
AcDbText
  0
TEXT
  5
4CB
100
AcDbEntity
  8
1
  6
CONTINUOUS
 62
     7
100
AcDbText
 10
584.0077
 20
125.087
 30
0.0
 40
3.0
  1
.2W
  7
MONOTXT
 72
     4
 11
587.6809
 21
126.587
 31
0.0
210
0.0
220
0.0
230
1.0
100
AcDbText
  0
TEXT
  5
4CC
100
AcDbEntity
  8
1
  6
CONTINUOUS
 62
     7
100
AcDbText
 10
558.2725
 20
124.9329
 30
0.0
 40
3.0
  1
.3W
  7
MONOTXT
 72
     4
 11
561.9457
 21
126.4329
 31
0.0
210
0.0
220
0.0
230
1.0
100
AcDbText
  0
TEXT
  5
4CD
100
AcDbEntity
  8
1
  6
CONTINUOUS
 62
     7
100
AcDbText
 10
572.2188
 20
124.8558
 30
0.0
 40
3.0
  1
.3W
  7
MONOTXT
 72
     4
 11
575.892
 21
126.3558
 31
0.0
210
0.0
220
0.0
230
1.0
100
AcDbText
  0
TEXT
  5
4CE
100
AcDbEntity
  8
1
  6
CONTINUOUS
 62
     7
100
AcDbText
 10
582.3946
 20
220.0875
 30
0.0
 40
3.0
  1
B
  7
MONOTXT
 72
     4
 11
583.3985
 21
221.5875
 31
0.0
210
0.0
220
0.0
230
1.0
100
AcDbText
  0
TEXT
  5
4CF
100
AcDbEntity
  8
1
  6
CONTINUOUS
 62
     7
100
AcDbText
 10
582.4654
 20
210.4398
 30
0.0
 40
3.0
  1
F
  7
MONOTXT
 72
     4
 11
583.3984
 21
211.9398
 31
0.0
210
0.0
220
0.0
230
1.0
100
AcDbText
  0
TEXT
  5
4D0
100
AcDbEntity
  8
1
  6
CONTINUOUS
 62
     7
100
AcDbText
 10
557.4682
 20
207.8802
 30
0.0
 40
3.0
  1
E
  7
MONOTXT
 72
     4
 11
558.4012
 21
209.3802
 31
0.0
210
0.0
220
0.0
230
1.0
100
AcDbText
  0
TEXT
  5
4D1
100
AcDbEntity
  8
1
  6
CONTINUOUS
 62
     7
100
AcDbText
 10
609.6278
 20
208.0771
 30
0.0
 40
3.0
  1
E
  7
MONOTXT
 72
     4
 11
610.5608
 21
209.5771
 31
0.0
210
0.0
220
0.0
230
1.0
100
AcDbText
  0
TEXT
  5
4D2
100
AcDbEntity
  8
1
  6
CONTINUOUS
 62
     7
100
AcDbText
 10
616.7688
 20
199.4138
 30
0.0
 40
3.0
  1
C
  7
MONOTXT
 72
     4
 11
617.8436
 21
200.9138
 31
0.0
210
0.0
220
0.0
230
1.0
100
AcDbText
  0
TEXT
  5
4D3
100
AcDbEntity
  8
1
  6
CONTINUOUS
 62
     7
100
AcDbText
 10
616.7688
 20
165.5483
 30
0.0
 40
3.0
  1
C
  7
MONOTXT
 72
     4
 11
617.8436
 21
167.0483
 31
0.0
210
0.0
220
0.0
230
1.0
100
AcDbText
  0
TEXT
  5
4D4
100
AcDbEntity
  8
1
  6
CONTINUOUS
 62
     7
100
AcDbText
 10
618.6111
 20
182.8748
 30
0.0
 40
3.0
  1
D
  7
MONOTXT
 72
     4
 11
619.615
 21
184.3748
 31
0.0
210
0.0
220
0.0
230
1.0
100
AcDbText
  0
TEXT
  5
4D5
100
AcDbEntity
  8
1
  6
CONTINUOUS
 62
     7
100
AcDbText
 10
628.8894
 20
182.8749
 30
0.0
 40
3.0
  1
A
  7
MONOTXT
 72
     4
 11
630.0468
 21
184.3749
 31
0.0
210
0.0
220
0.0
230
1.0
100
AcDbText
  0
LINE
  5
4D6
100
AcDbEntity
  8
1
  6
CONTINUOUS
 62
     7
100
AcDbLine
 10
559.5586
 20
155.5594
 30
0.0
 11
565.3164
 21
155.5594
 31
0.0
  0
TEXT
  5
4D7
100
AcDbEntity
  8
1
  6
CONTINUOUS
 62
     7
100
AcDbText
 10
556.9278
 20
228.6367
 30
0.0
 40
4.8
  1
KEEPER PLATE
  7
MONOTXT
 72
     4
 11
583.9325
 21
231.0367
 31
0.0
210
0.0
220
0.0
230
1.0
100
AcDbText
  0
TEXT
  5
4D8
100
AcDbEntity
  8
1
  6
CONTINUOUS
 62
     7
100
AcDbText
 10
121.9482
 20
-36.1099
 30
0.0
 40
4.8
  1
TYPE 1
  7
MONOTXT
 72
     4
 11
134.4206
 21
-33.7099
 31
0.0
210
0.0
220
0.0
230
1.0
100
AcDbText
  0
TEXT
  5
4D9
100
AcDbEntity
  8
1
  6
CONTINUOUS
 62
     7
100
AcDbText
 10
225.8888
 20
-36.5666
 30
0.0
 40
4.8
  1
TYPE 2
  7
MONOTXT
 72
     4
 11
239.4006
 21
-34.1666
 31
0.0
210
0.0
220
0.0
230
1.0
100
AcDbText
  0
TEXT
  5
4DA
100
AcDbEntity
  8
1
  6
CONTINUOUS
 62
     7
100
AcDbText
 10
339.1026
 20
-36.8039
 30
0.0
 40
4.8
  1
TYPE 3
  7
MONOTXT
 72
     4
 11
352.6144
 21
-34.4039
 31
0.0
210
0.0
220
0.0
230
1.0
100
AcDbText
  0
TEXT
  5
4DB
100
AcDbEntity
  8
1
  6
CONTINUOUS
 62
     7
100
AcDbText
 10
449.4814
 20
-36.9468
 30
0.0
 40
4.8
  1
TYPE 4
  7
MONOTXT
 72
     4
 11
463.1066
 21
-34.5468
 31
0.0
210
0.0
220
0.0
230
1.0
100
AcDbText
  0
TEXT
  5
4DC
100
AcDbEntity
  8
1
  6
CONTINUOUS
 62
     7
100
AcDbText
 10
557.2671
 20
-36.9796
 30
0.0
 40
4.8
  1
TYPE 5
  7
MONOTXT
 72
     4
 11
570.7789
 21
-34.5796
 31
0.0
210
0.0
220
0.0
230
1.0
100
AcDbText
  0
LINE
  5
4DD
100
AcDbEntity
  8
1
  6
CONTINUOUS
 62
     7
100
AcDbLine
 10
119.6751
 20
-37.8373
 30
0.0
 11
148.9883
 21
-37.8373
 31
0.0
  0
LINE
  5
4DE
100
AcDbEntity
  8
1
  6
CONTINUOUS
 62
     7
100
AcDbLine
 10
224.1169
 20
-37.8373
 30
0.0
 11
254.95
 21
-37.8373
 31
0.0
  0
LINE
  5
4DF
100
AcDbEntity
  8
1
  6
CONTINUOUS
 62
     7
100
AcDbLine
 10
336.3582
 20
-37.8373
 30
0.0
 11
368.6902
 21
-37.8373
 31
0.0
  0
LINE
  5
4E0
100
AcDbEntity
  8
1
  6
CONTINUOUS
 62
     7
100
AcDbLine
 10
447.6549
 20
-37.8373
 30
0.0
 11
478.7434
 21
-37.8373
 31
0.0
  0
LINE
  5
4E1
100
AcDbEntity
  8
1
  6
CONTINUOUS
 62
     7
100
AcDbLine
 10
556.1537
 20
-37.8373
 30
0.0
 11
587.8639
 21
-37.8373
 31
0.0
  0
LINE
  5
4E2
100
AcDbEntity
  8
1
  6
CONTINUOUS
 62
     7
100
AcDbLine
 10
555.2701
 20
227.4068
 30
0.0
 11
612.1512
 21
227.4068
 31
0.0
  0
TEXT
  5
4E3
100
AcDbEntity
  8
1
  6
CONTINUOUS
 62
     7
100
AcDbText
 10
129.1277
 20
-73.8436
 30
0.0
 40
4.8
  1
WELDED PIPE MOUNT DETAILS
  7
MONOTXT
 72
     4
 11
184.7056
 21
-71.4436
 31
0.0
210
0.0
220
0.0
230
1.0
100
AcDbText
  0
TEXT
  5
4E4
100
AcDbEntity
  8
1
  6
CONTINUOUS
 62
     7
100
AcDbText
 10
276.8185
 20
-61.0576
 30
0.0
 40
4.8
  1
SIGN POST AND STUB POST ELEVATION
  7
MONOTXT
 72
     4
 11
351.7854
 21
-58.6576
 31
0.0
210
0.0
220
0.0
230
1.0
100
AcDbText
  0
TEXT
  5
4E5
100
AcDbEntity
  8
1
  6
CONTINUOUS
 62
     7
100
AcDbText
 10
260.6735
 20
-252.3795
 30
0.0
 40
4.8
  1
FRICTION CAP DETAIL
  7
MONOTXT
 72
     4
 11
300.1506
 21
-249.9795
 31
0.0
210
0.0
220
0.0
230
1.0
100
AcDbText
  0
TEXT
  5
4E6
100
AcDbEntity
  8
1
  6
CONTINUOUS
 62
     7
100
AcDbText
 10
382.5109
 20
-245.787
 30
0.0
 40
4.8
  1
SHIM DETAIL
  7
MONOTXT
 72
     4
 11
404.7533
 21
-243.387
 31
0.0
210
0.0
220
0.0
230
1.0
100
AcDbText
  0
TEXT
  5
4E7
100
AcDbEntity
  8
1
  6
CONTINUOUS
 62
     7
100
AcDbText
 10
462.783
 20
-143.3364
 30
0.0
 40
4.8
  1
SECTION A - A
  7
MONOTXT
 72
     4
 11
490.7893
 21
-140.9364
 31
0.0
210
0.0
220
0.0
230
1.0
100
AcDbText
  0
TEXT
  5
4E8
100
AcDbEntity
  8
1
  6
CONTINUOUS
 62
     7
100
AcDbText
 10
538.5207
 20
-143.3364
 30
0.0
 40
4.8
  1
SECTION B - B
  7
MONOTXT
 72
     4
 11
566.5081
 21
-140.9364
 31
0.0
210
0.0
220
0.0
230
1.0
100
AcDbText
  0
TEXT
  5
4E9
100
AcDbEntity
  8
1
  6
CONTINUOUS
 62
     7
100
AcDbText
 10
632.7162
 20
-139.0706
 30
0.0
 40
4.8
  1
CLAMP DETAIL
  7
MONOTXT
 72
     4
 11
658.4736
 21
-136.6706
 31
0.0
210
0.0
220
0.0
230
1.0
100
AcDbText
  0
TEXT
  5
4EA
100
AcDbEntity
  8
1
  6
CONTINUOUS
 62
     7
100
AcDbText
 10
154.1243
 20
-96.517
 30
0.0
 40
3.0
  1
FRICTION CAP
  7
MONOTXT
 72
     4
 11
169.6557
 21
-95.017
 31
0.0
210
0.0
220
0.0
230
1.0
100
AcDbText
  0
TEXT
  5
4EB
100
AcDbEntity
  8
1
  6
CONTINUOUS
 62
     7
100
AcDbText
 10
238.6621
 20
-91.5813
 30
0.0
 40
3.0
  1
TOP OF
  7
MONOTXT
 72
     4
 11
247.3195
 21
-90.0813
 31
0.0
210
0.0
220
0.0
230
1.0
100
AcDbText
  0
TEXT
  5
4EC
100
AcDbEntity
  8
1
  6
CONTINUOUS
 62
     7
100
AcDbText
 10
242.7724
 20
-96.9813
 30
0.0
 40
3.0
  1
SIGN
  7
MONOTXT
 72
     4
 11
247.3196
 21
-95.4813
 31
0.0
210
0.0
220
0.0
230
1.0
100
AcDbText
  0
TEXT
  5
4ED
100
AcDbEntity
  8
1
  6
CONTINUOUS
 62
     7
100
AcDbText
 10
226.6482
 20
-117.0119
 30
0.0
 40
3.0
  1
END
  7
MONOTXT
 72
     4
 11
230.5576
 21
-115.5119
 31
0.0
210
0.0
220
0.0
230
1.0
100
AcDbText
  0
TEXT
  5
4EE
100
AcDbEntity
  8
1
  6
CONTINUOUS
 62
     7
100
AcDbText
 10
221.5458
 20
-122.4119
 30
0.0
 40
3.0
  1
UPRIGHT
  7
MONOTXT
 72
     4
 11
230.5576
 21
-120.9119
 31
0.0
210
0.0
220
0.0
230
1.0
100
AcDbText
  0
TEXT
  5
4EF
100
AcDbEntity
  8
1
  6
CONTINUOUS
 62
     7
100
AcDbText
 10
173.7044
 20
-167.4992
 30
0.0
 40
3.0
  1
MITER JOINT
  7
MONOTXT
 72
     4
 11
187.535
 21
-165.9992
 31
0.0
210
0.0
220
0.0
230
1.0
100
AcDbText
  0
TEXT
  5
4F0
100
AcDbEntity
  8
1
  6
CONTINUOUS
 62
     7
100
AcDbText
 10
167.3979
 20
-182.0308
 30
0.0
 40
3.0
  1
POST
  7
MONOTXT
 72
     4
 11
173.0081
 21
-180.5308
 31
0.0
210
0.0
220
0.0
230
1.0
100
AcDbText
  0
TEXT
  5
4F1
100
AcDbEntity
  8
1
  6
CONTINUOUS
 62
     7
100
AcDbText
 10
90.2335
 20
-169.1759
 30
0.0
 40
3.0
  1
CROSS-ARM
  7
MONOTXT
 72
     4
 11
103.1665
 21
-167.6759
 31
0.0
210
0.0
220
0.0
230
1.0
100
AcDbText
  0
TEXT
  5
4F2
100
AcDbEntity
  8
1
  6
CONTINUOUS
 62
     7
100
AcDbText
 10
97.8468
 20
-108.6364
 30
0.0
 40
3.0
  1
PROVIDE HOLE IN
  7
MONOTXT
 11
97.8468
 21
-105.6364
 31
0.0
210
0.0
220
0.0
230
1.0
100
AcDbText
 73
     3
  0
TEXT
  5
4F3
100
AcDbEntity
  8
1
  6
CONTINUOUS
 62
     7
100
AcDbText
 10
97.8468
 20
-114.0364
 30
0.0
 40
3.0
  1
CROSS-ARM FOR
  7
MONOTXT
 11
97.8468
 21
-111.0364
 31
0.0
210
0.0
220
0.0
230
1.0
100
AcDbText
 73
     3
  0
TEXT
  5
4F4
100
AcDbEntity
  8
1
  6
CONTINUOUS
 62
     7
100
AcDbText
 10
97.8468
 20
-119.4364
 30
0.0
 40
3.0
  1
GALVANIZING
  7
MONOTXT
 11
97.8468
 21
-116.4364
 31
0.0
210
0.0
220
0.0
230
1.0
100
AcDbText
 73
     3
  0
TEXT
  5
4F5
100
AcDbEntity
  8
1
  6
CONTINUOUS
 62
     7
100
AcDbText
 10
97.8468
 20
-124.8364
 30
0.0
 40
3.0
  1
DRAINAGE
  7
MONOTXT
 11
97.8468
 21
-121.8364
 31
0.0
210
0.0
220
0.0
230
1.0
100
AcDbText
 73
     3
  0
LINE
  5
4F6
100
AcDbEntity
  8
1
  6
CONTINUOUS
 62
     7
100
AcDbLine
 10
140.3635
 20
-123.3904
 30
0.0
 11
119.9167
 21
-123.3904
 31
0.0
  0
TEXT
  5
4F7
100
AcDbEntity
  8
1
  6
CONTINUOUS
 62
     7
100
AcDbText
 10
161.8217
 20
-127.3599
 30
0.0
 40
3.0
  1
CRIMP AND TRIM
  7
MONOTXT
 11
161.8217
 21
-124.3599
 31
0.0
210
0.0
220
0.0
230
1.0
100
AcDbText
 73
     3
  0
TEXT
  5
4F8
100
AcDbEntity
  8
1
  6
CONTINUOUS
 62
     7
100
AcDbText
 10
161.8217
 20
-132.7599
 30
0.0
 40
3.0
  1
POST TO FIT
  7
MONOTXT
 11
161.8217
 21
-129.7599
 31
0.0
210
0.0
220
0.0
230
1.0
100
AcDbText
 73
     3
  0
TEXT
  5
4F9
100
AcDbEntity
  8
1
  6
CONTINUOUS
 62
     7
100
AcDbText
 10
161.8217
 20
-138.1599
 30
0.0
 40
3.0
  1
DIAMETER OF
  7
MONOTXT
 11
161.8217
 21
-135.1599
 31
0.0
210
0.0
220
0.0
230
1.0
100
AcDbText
 73
     3
  0
TEXT
  5
4FA
100
AcDbEntity
  8
1
  6
CONTINUOUS
 62
     7
100
AcDbText
 10
161.8217
 20
-143.5599
 30
0.0
 40
3.0
  1
CROSS-ARM
  7
MONOTXT
 11
161.8217
 21
-140.5599
 31
0.0
210
0.0
220
0.0
230
1.0
100
AcDbText
 73
     3
  0
LINE
  5
4FB
100
AcDbEntity
  8
1
  6
CONTINUOUS
 62
     7
100
AcDbLine
 10
152.8375
 20
-134.0704
 30
0.0
 11
160.2018
 21
-134.0704
 31
0.0
  0
LINE
  5
4FC
100
AcDbEntity
  8
1
  6
CONTINUOUS
 62
     7
100
AcDbLine
 10
209.2835
 20
-165.8604
 30
0.0
 11
202.5728
 21
-165.8604
 31
0.0
  0
LINE
  5
4FD
100
AcDbEntity
  8
1
  6
CONTINUOUS
 62
     7
100
AcDbLine
 10
158.3975
 20
-180.0804
 30
0.0
 11
165.769
 21
-180.0804
 31
0.0
  0
LINE
  5
4FE
100
AcDbEntity
  8
1
  6
CONTINUOUS
 62
     7
100
AcDbLine
 10
123.7935
 20
-167.4144
 30
0.0
 11
118.5134
 21
-167.4144
 31
0.0
  0
LINE
  5
4FF
100
AcDbEntity
  8
1
  6
CONTINUOUS
 62
     7
100
AcDbLine
 10
126.3422
 20
-75.1755
 30
0.0
 11
243.2674
 21
-75.1755
 31
0.0
  0
LINE
  5
500
100
AcDbEntity
  8
1
  6
CONTINUOUS
 62
     1
100
AcDbLine
 10
271.0098
 20
-221.9379
 30
0.0
 11
328.5538
 21
-221.9379
 31
0.0
  0
POLYLINE
  5
501
100
AcDbEntity
  8
1
  6
CONTINUOUS
 62
     7
100
AcDb2dPolyline
 66
     1
 10
0.0
 20
0.0
 30
0.0
  0
VERTEX
  5
502
100
AcDbEntity
  8
1
  6
CONTINUOUS
 62
     7
100
AcDbVertex
100
AcDb2dVertex
 10
330.4738
 20
-201.1939
 30
0.0
  0
VERTEX
  5
503
100
AcDbEntity
  8
1
  6
CONTINUOUS
 62
     7
100
AcDbVertex
100
AcDb2dVertex
 10
269.0898
 20
-201.1939
 30
0.0
  0
VERTEX
  5
504
100
AcDbEntity
  8
1
  6
CONTINUOUS
 62
     7
100
AcDbVertex
100
AcDb2dVertex
 10
269.0898
 20
-209.5859
 30
0.0
 42
-0.398777
  0
VERTEX
  5
505
100
AcDbEntity
  8
1
  6
CONTINUOUS
 62
     7
100
AcDbVertex
100
AcDb2dVertex
 10
269.0898
 20
-215.4659
 30
0.0
  0
VERTEX
  5
506
100
AcDbEntity
  8
1
  6
CONTINUOUS
 62
     7
100
AcDbVertex
100
AcDb2dVertex
 10
269.0898
 20
-221.9379
 30
0.0
  0
VERTEX
  5
507
100
AcDbEntity
  8
1
  6
CONTINUOUS
 62
     7
100
AcDbVertex
100
AcDb2dVertex
 10
271.0098
 20
-221.9379
 30
0.0
  0
VERTEX
  5
508
100
AcDbEntity
  8
1
  6
CONTINUOUS
 62
     7
100
AcDbVertex
100
AcDb2dVertex
 10
271.0098
 20
-215.4659
 30
0.0
 42
0.398777
  0
VERTEX
  5
509
100
AcDbEntity
  8
1
  6
CONTINUOUS
 62
     7
100
AcDbVertex
100
AcDb2dVertex
 10
271.0098
 20
-209.5859
 30
0.0
  0
VERTEX
  5
50A
100
AcDbEntity
  8
1
  6
CONTINUOUS
 62
     7
100
AcDbVertex
100
AcDb2dVertex
 10
271.0098
 20
-203.1139
 30
0.0
  0
VERTEX
  5
50B
100
AcDbEntity
  8
1
  6
CONTINUOUS
 62
     7
100
AcDbVertex
100
AcDb2dVertex
 10
328.5538
 20
-203.1139
 30
0.0
  0
VERTEX
  5
50C
100
AcDbEntity
  8
1
  6
CONTINUOUS
 62
     7
100
AcDbVertex
100
AcDb2dVertex
 10
328.5538
 20
-209.5859
 30
0.0
 42
0.398777
  0
VERTEX
  5
50D
100
AcDbEntity
  8
1
  6
CONTINUOUS
 62
     7
100
AcDbVertex
100
AcDb2dVertex
 10
328.5538
 20
-215.4659
 30
0.0
  0
VERTEX
  5
50E
100
AcDbEntity
  8
1
  6
CONTINUOUS
 62
     7
100
AcDbVertex
100
AcDb2dVertex
 10
328.5538
 20
-221.9379
 30
0.0
  0
VERTEX
  5
50F
100
AcDbEntity
  8
1
  6
CONTINUOUS
 62
     7
100
AcDbVertex
100
AcDb2dVertex
 10
330.4738
 20
-221.9379
 30
0.0
  0
VERTEX
  5
510
100
AcDbEntity
  8
1
  6
CONTINUOUS
 62
     7
100
AcDbVertex
100
AcDb2dVertex
 10
330.4738
 20
-215.4659
 30
0.0
 42
-0.398777
  0
VERTEX
  5
511
100
AcDbEntity
  8
1
  6
CONTINUOUS
 62
     7
100
AcDbVertex
100
AcDb2dVertex
 10
330.4738
 20
-209.5859
 30
0.0
  0
VERTEX
  5
512
100
AcDbEntity
  8
1
  6
CONTINUOUS
 62
     7
100
AcDbVertex
100
AcDb2dVertex
 10
330.4738
 20
-201.1939
 30
0.0
  0
SEQEND
  5
513
100
AcDbEntity
  8
1
  6
CONTINUOUS
 62
     7
  0
LINE
  5
514
100
AcDbEntity
  8
1
  6
CONTINUOUS
 62
     7
100
AcDbLine
 10
269.0898
 20
-203.9423
 30
0.0
 11
271.8382
 21
-201.1939
 31
0.0
  0
LINE
  5
515
100
AcDbEntity
  8
1
  6
CONTINUOUS
 62
     7
100
AcDbLine
 10
269.0898
 20
-205.6393
 30
0.0
 11
271.0098
 21
-203.7193
 31
0.0
  0
LINE
  5
516
100
AcDbEntity
  8
1
  6
CONTINUOUS
 62
     7
100
AcDbLine
 10
271.6152
 20
-203.1139
 30
0.0
 11
273.5352
 21
-201.1939
 31
0.0
  0
LINE
  5
517
100
AcDbEntity
  8
1
  6
CONTINUOUS
 62
     7
100
AcDbLine
 10
269.5849
 20
-210.2354
 30
0.0
 11
271.0098
 21
-208.8105
 31
0.0
  0
LINE
  5
518
100
AcDbEntity
  8
1
  6
CONTINUOUS
 62
     7
100
AcDbLine
 10
276.7064
 20
-203.1139
 30
0.0
 11
278.6264
 21
-201.1939
 31
0.0
  0
LINE
  5
519
100
AcDbEntity
  8
1
  6
CONTINUOUS
 62
     7
100
AcDbLine
 10
270.1043
 20
-211.4131
 30
0.0
 11
271.4198
 21
-210.0975
 31
0.0
  0
LINE
  5
51A
100
AcDbEntity
  8
1
  6
CONTINUOUS
 62
     7
100
AcDbLine
 10
278.4035
 20
-203.1139
 30
0.0
 11
280.3235
 21
-201.1939
 31
0.0
  0
LINE
  5
51B
100
AcDbEntity
  8
1
  6
CONTINUOUS
 62
     7
100
AcDbLine
 10
269.0898
 20
-217.5187
 30
0.0
 11
271.0098
 21
-215.5987
 31
0.0
  0
LINE
  5
51C
100
AcDbEntity
  8
1
  6
CONTINUOUS
 62
     7
100
AcDbLine
 10
283.4946
 20
-203.1139
 30
0.0
 11
285.4146
 21
-201.1939
 31
0.0
  0
LINE
  5
51D
100
AcDbEntity
  8
1
  6
CONTINUOUS
 62
     7
100
AcDbLine
 10
269.0898
 20
-219.2158
 30
0.0
 11
271.0098
 21
-217.2958
 31
0.0
  0
LINE
  5
51E
100
AcDbEntity
  8
1
  6
CONTINUOUS
 62
     7
100
AcDbLine
 10
285.1917
 20
-203.1139
 30
0.0
 11
287.1117
 21
-201.1939
 31
0.0
  0
LINE
  5
51F
100
AcDbEntity
  8
1
  6
CONTINUOUS
 62
     7
100
AcDbLine
 10
290.2829
 20
-203.1139
 30
0.0
 11
292.2029
 21
-201.1939
 31
0.0
  0
LINE
  5
520
100
AcDbEntity
  8
1
  6
CONTINUOUS
 62
     7
100
AcDbLine
 10
291.9799
 20
-203.1139
 30
0.0
 11
293.8999
 21
-201.1939
 31
0.0
  0
LINE
  5
521
100
AcDbEntity
  8
1
  6
CONTINUOUS
 62
     7
100
AcDbLine
 10
297.0711
 20
-203.1139
 30
0.0
 11
298.9911
 21
-201.1939
 31
0.0
  0
LINE
  5
522
100
AcDbEntity
  8
1
  6
CONTINUOUS
 62
     7
100
AcDbLine
 10
298.7681
 20
-203.1139
 30
0.0
 11
300.6881
 21
-201.1939
 31
0.0
  0
LINE
  5
523
100
AcDbEntity
  8
1
  6
CONTINUOUS
 62
     7
100
AcDbLine
 10
303.8593
 20
-203.1139
 30
0.0
 11
305.7793
 21
-201.1939
 31
0.0
  0
LINE
  5
524
100
AcDbEntity
  8
1
  6
CONTINUOUS
 62
     7
100
AcDbLine
 10
305.5564
 20
-203.1139
 30
0.0
 11
307.4764
 21
-201.1939
 31
0.0
  0
LINE
  5
525
100
AcDbEntity
  8
1
  6
CONTINUOUS
 62
     7
100
AcDbLine
 10
310.6475
 20
-203.1139
 30
0.0
 11
312.5675
 21
-201.1939
 31
0.0
  0
LINE
  5
526
100
AcDbEntity
  8
1
  6
CONTINUOUS
 62
     7
100
AcDbLine
 10
312.3446
 20
-203.1139
 30
0.0
 11
314.2646
 21
-201.1939
 31
0.0
  0
LINE
  5
527
100
AcDbEntity
  8
1
  6
CONTINUOUS
 62
     7
100
AcDbLine
 10
317.4358
 20
-203.1139
 30
0.0
 11
319.3558
 21
-201.1939
 31
0.0
  0
LINE
  5
528
100
AcDbEntity
  8
1
  6
CONTINUOUS
 62
     7
100
AcDbLine
 10
319.1328
 20
-203.1139
 30
0.0
 11
321.0528
 21
-201.1939
 31
0.0
  0
LINE
  5
529
100
AcDbEntity
  8
1
  6
CONTINUOUS
 62
     7
100
AcDbLine
 10
324.224
 20
-203.1139
 30
0.0
 11
326.144
 21
-201.1939
 31
0.0
  0
LINE
  5
52A
100
AcDbEntity
  8
1
  6
CONTINUOUS
 62
     7
100
AcDbLine
 10
325.921
 20
-203.1139
 30
0.0
 11
327.841
 21
-201.1939
 31
0.0
  0
LINE
  5
52B
100
AcDbEntity
  8
1
  6
CONTINUOUS
 62
     7
100
AcDbLine
 10
328.5538
 20
-205.5723
 30
0.0
 11
330.4738
 21
-203.6523
 31
0.0
  0
LINE
  5
52C
100
AcDbEntity
  8
1
  6
CONTINUOUS
 62
     7
100
AcDbLine
 10
328.5538
 20
-207.2694
 30
0.0
 11
330.4738
 21
-205.3494
 31
0.0
  0
LINE
  5
52D
100
AcDbEntity
  8
1
  6
CONTINUOUS
 62
     7
100
AcDbLine
 10
327.4893
 20
-213.425
 30
0.0
 11
329.4435
 21
-211.4708
 31
0.0
  0
LINE
  5
52E
100
AcDbEntity
  8
1
  6
CONTINUOUS
 62
     7
100
AcDbLine
 10
327.9609
 20
-214.6505
 30
0.0
 11
329.3656
 21
-213.2458
 31
0.0
  0
LINE
  5
52F
100
AcDbEntity
  8
1
  6
CONTINUOUS
 62
     7
100
AcDbLine
 10
328.5538
 20
-219.1488
 30
0.0
 11
330.4738
 21
-217.2288
 31
0.0
  0
LINE
  5
530
100
AcDbEntity
  8
1
  6
CONTINUOUS
 62
     7
100
AcDbLine
 10
328.5538
 20
-220.8458
 30
0.0
 11
330.4738
 21
-218.9258
 31
0.0
  0
TEXT
  5
531
100
AcDbEntity
  8
1
  6
CONTINUOUS
 62
     7
100
AcDbText
 10
290.2647
 20
-193.2236
 30
0.0
 40
3.0
  1
ROLLED CRIMP TO
  7
MONOTXT
 11
290.2647
 21
-190.2236
 31
0.0
210
0.0
220
0.0
230
1.0
100
AcDbText
 73
     3
  0
TEXT
  5
532
100
AcDbEntity
  8
1
  6
CONTINUOUS
 62
     7
100
AcDbText
 10
290.2647
 20
-198.6236
 30
0.0
 40
3.0
  1
ENGAGE PIPE O.D.
  7
MONOTXT
 11
290.2647
 21
-195.6236
 31
0.0
210
0.0
220
0.0
230
1.0
100
AcDbText
 73
     3
  0
LINE
  5
533
100
AcDbEntity
  8
1
  6
CONTINUOUS
 62
     7
100
AcDbLine
 10
276.6447
 20
-194.1962
 30
0.0
 11
289.0428
 21
-194.1962
 31
0.0
  0
LINE
  5
534
100
AcDbEntity
  8
1
  6
CONTINUOUS
 62
     7
100
AcDbLine
 10
333.6435
 20
-194.1962
 30
0.0
 11
345.9831
 21
-194.1962
 31
0.0
  0
LINE
  5
535
100
AcDbEntity
  8
1
  6
CONTINUOUS
 62
     7
100
AcDbLine
 10
259.3421
 20
-253.484
 30
0.0
 11
341.4225
 21
-253.484
 31
0.0
  0
TEXT
  5
536
100
AcDbEntity
  8
1
  6
CONTINUOUS
 62
     7
100
AcDbText
 10
348.1743
 20
-73.755
 30
0.0
 40
3.0
  1
DIRECTION OF TRAFFIC
  7
MONOTXT
 72
     4
 11
374.4774
 21
-72.255
 31
0.0
210
0.0
220
0.0
230
1.0
100
AcDbText
  0
TEXT
  5
537
100
AcDbEntity
  8
1
  6
CONTINUOUS
 62
     7
100
AcDbText
 10
300.5292
 20
-98.3896
 30
0.0
 40
3.0
  1
A
  7
MONOTXT
 72
     4
 11
301.6866
 21
-96.8896
 31
0.0
210
0.0
220
0.0
230
1.0
100
AcDbText
  0
TEXT
  5
538
100
AcDbEntity
  8
1
  6
CONTINUOUS
 62
     7
100
AcDbText
 10
339.6762
 20
-98.4005
 30
0.0
 40
3.0
  1
A
  7
MONOTXT
 72
     4
 11
340.8336
 21
-96.9005
 31
0.0
210
0.0
220
0.0
230
1.0
100
AcDbText
  0
TEXT
  5
539
100
AcDbEntity
  8
1
  6
CONTINUOUS
 62
     7
100
AcDbText
 10
339.7759
 20
-133.6211
 30
0.0
 40
3.0
  1
B
  7
MONOTXT
 72
     4
 11
340.7798
 21
-132.1211
 31
0.0
210
0.0
220
0.0
230
1.0
100
AcDbText
  0
TEXT
  5
53A
100
AcDbEntity
  8
1
  6
CONTINUOUS
 62
     7
100
AcDbText
 10
383.791
 20
-133.6322
 30
0.0
 40
3.0
  1
B
  7
MONOTXT
 72
     4
 11
384.7949
 21
-132.1322
 31
0.0
210
0.0
220
0.0
230
1.0
100
AcDbText
  0
TEXT
  5
53B
100
AcDbEntity
  8
1
  6
CONTINUOUS
 62
     7
100
AcDbText
 10
385.6976
 20
-104.7986
 30
0.0
 40
3.0
  1
H.S. BOLT WITH HEX. HD.,
  7
MONOTXT
 11
385.6976
 21
-101.7986
 31
0.0
210
0.0
220
0.0
230
1.0
100
AcDbText
 73
     3
  0
TEXT
  5
53C
100
AcDbEntity
  8
1
  6
CONTINUOUS
 62
     7
100
AcDbText
 10
385.6976
 20
-110.1986
 30
0.0
 40
3.0
  1
HEX. NUT & WASHERS
  7
MONOTXT
 11
385.6976
 21
-107.1986
 31
0.0
210
0.0
220
0.0
230
1.0
100
AcDbText
 73
     3
  0
TEXT
  5
53D
100
AcDbEntity
  8
1
  6
CONTINUOUS
 62
     7
100
AcDbText
 10
385.6976
 20
-115.5986
 30
0.0
 40
3.0
  1
WITH EACH BOLT.
  7
MONOTXT
 11
385.6976
 21
-112.5986
 31
0.0
210
0.0
220
0.0
230
1.0
100
AcDbText
 73
     3
  0
LINE
  5
53E
100
AcDbEntity
  8
1
  6
CONTINUOUS
 62
     7
100
AcDbLine
 10
379.4447
 20
-103.0769
 30
0.0
 11
384.5226
 21
-103.0769
 31
0.0
  0
TEXT
  5
53F
100
AcDbEntity
  8
1
  6
CONTINUOUS
 62
     7
100
AcDbText
 10
319.5933
 20
-134.9241
 30
0.0
 40
3.0
  1
W.P.
  7
MONOTXT
 72
     4
 11
323.9515
 21
-133.4241
 31
0.0
210
0.0
220
0.0
230
1.0
100
AcDbText
  0
TEXT
  5
540
100
AcDbEntity
  8
1
  6
CONTINUOUS
 62
     7
100
AcDbText
 10
266.8069
 20
-134.7907
 30
0.0
 40
3.0
  1
REMOVE ALL
  7
MONOTXT
 11
266.8069
 21
-131.7907
 31
0.0
210
0.0
220
0.0
230
1.0
100
AcDbText
 73
     3
  0
TEXT
  5
541
100
AcDbEntity
  8
1
  6
CONTINUOUS
 62
     7
100
AcDbText
 10
266.8069
 20
-140.1907
 30
0.0
 40
3.0
  1
GALVANIZING
  7
MONOTXT
 11
266.8069
 21
-137.1907
 31
0.0
210
0.0
220
0.0
230
1.0
100
AcDbText
 73
     3
  0
TEXT
  5
542
100
AcDbEntity
  8
1
  6
CONTINUOUS
 62
     7
100
AcDbText
 10
266.8069
 20
-145.5907
 30
0.0
 40
3.0
  1
RUNS OR BEADS
  7
MONOTXT
 11
266.8069
 21
-142.5907
 31
0.0
210
0.0
220
0.0
230
1.0
100
AcDbText
 73
     3
  0
TEXT
  5
543
100
AcDbEntity
  8
1
  6
CONTINUOUS
 62
     7
100
AcDbText
 10
266.8069
 20
-150.9907
 30
0.0
 40
3.0
  1
IN WASHER AREA.
  7
MONOTXT
 11
266.8069
 21
-147.9907
 31
0.0
210
0.0
220
0.0
230
1.0
100
AcDbText
 73
     3
  0
TEXT
  5
544
100
AcDbEntity
  8
1
  6
CONTINUOUS
 62
     7
100
AcDbText
 10
283.3047
 20
-167.1434
 30
0.0
 40
3.0
  1
STUB POST
  7
MONOTXT
 72
     4
 11
296.3559
 21
-165.6434
 31
0.0
210
0.0
220
0.0
230
1.0
100
AcDbText
  0
TEXT
  5
545
100
AcDbEntity
  8
1
  6
CONTINUOUS
 62
     7
100
AcDbText
 10
381.2079
 20
-170.3824
 30
0.0
 40
3.0
  1
TOP OF
  7
MONOTXT
 72
     4
 11
389.8653
 21
-168.8824
 31
0.0
210
0.0
220
0.0
230
1.0
100
AcDbText
  0
TEXT
  5
546
100
AcDbEntity
  8
1
  6
CONTINUOUS
 62
     7
100
AcDbText
 10
376.3182
 20
-175.7824
 30
0.0
 40
3.0
  1
FOUNDATION
  7
MONOTXT
 72
     4
 11
389.8654
 21
-174.2824
 31
0.0
210
0.0
220
0.0
230
1.0
100
AcDbText
  0
LINE
  5
547
100
AcDbEntity
  8
1
  6
CONTINUOUS
 62
     7
100
AcDbLine
 10
373.1007
 20
-169.3989
 30
0.0
 11
380.1412
 21
-169.3989
 31
0.0
  0
LINE
  5
548
100
AcDbEntity
  8
1
  6
CONTINUOUS
 62
     7
100
AcDbLine
 10
275.5641
 20
-63.1948
 30
0.0
 11
428.4799
 21
-63.1948
 31
0.0
  0
LINE
  5
549
100
AcDbEntity
  8
1
  6
CONTINUOUS
 62
     7
100
AcDbLine
 10
381.2088
 20
-246.5612
 30
0.0
 11
428.965
 21
-246.5612
 31
0.0
  0
TEXT
  5
54A
100
AcDbEntity
  8
1
  6
CONTINUOUS
 62
     7
100
AcDbText
 10
517.0968
 20
-60.9648
 30
0.0
 40
3.0
  1
B
  7
MONOTXT
 72
     4
 11
518.1007
 21
-59.4648
 31
0.0
210
0.0
220
0.0
230
1.0
100
AcDbText
  0
TEXT
  5
54B
100
AcDbEntity
  8
1
  6
CONTINUOUS
 62
     7
100
AcDbText
 10
517.1676
 20
-68.3351
 30
0.0
 40
3.0
  1
F
  7
MONOTXT
 72
     4
 11
518.1006
 21
-66.8351
 31
0.0
210
0.0
220
0.0
230
1.0
100
AcDbText
  0
TEXT
  5
54C
100
AcDbEntity
  8
1
  6
CONTINUOUS
 62
     7
100
AcDbText
 10
490.8536
 20
-70.8621
 30
0.0
 40
3.0
  1
E
  7
MONOTXT
 72
     4
 11
491.7866
 21
-69.3621
 31
0.0
210
0.0
220
0.0
230
1.0
100
AcDbText
  0
TEXT
  5
54D
100
AcDbEntity
  8
1
  6
CONTINUOUS
 62
     7
100
AcDbText
 10
543.0607
 20
-70.6515
 30
0.0
 40
3.0
  1
E
  7
MONOTXT
 72
     4
 11
543.9937
 21
-69.1515
 31
0.0
210
0.0
220
0.0
230
1.0
100
AcDbText
  0
TEXT
  5
54E
100
AcDbEntity
  8
1
  6
CONTINUOUS
 62
     7
100
AcDbText
 10
560.181
 20
-82.0229
 30
0.0
 40
3.0
  1
C
  7
MONOTXT
 72
     4
 11
561.2558
 21
-80.5229
 31
0.0
210
0.0
220
0.0
230
1.0
100
AcDbText
  0
TEXT
  5
54F
100
AcDbEntity
  8
1
  6
CONTINUOUS
 62
     7
100
AcDbText
 10
560.181
 20
-116.9793
 30
0.0
 40
3.0
  1
C
  7
MONOTXT
 72
     4
 11
561.2558
 21
-115.4793
 31
0.0
210
0.0
220
0.0
230
1.0
100
AcDbText
  0
TEXT
  5
550
100
AcDbEntity
  8
1
  6
CONTINUOUS
 62
     7
100
AcDbText
 10
562.778
 20
-99.2905
 30
0.0
 40
3.0
  1
D
  7
MONOTXT
 72
     4
 11
563.7819
 21
-97.7905
 31
0.0
210
0.0
220
0.0
230
1.0
100
AcDbText
  0
TEXT
  5
551
100
AcDbEntity
  8
1
  6
CONTINUOUS
 62
     7
100
AcDbText
 10
570.6239
 20
-99.0799
 30
0.0
 40
3.0
  1
A
  7
MONOTXT
 72
     4
 11
571.7813
 21
-97.5799
 31
0.0
210
0.0
220
0.0
230
1.0
100
AcDbText
  0
TEXT
  5
552
100
AcDbEntity
  8
1
  6
CONTINUOUS
 62
     7
100
AcDbText
 10
471.6178
 20
-99.2905
 30
0.0
 40
3.0
  1
12
  7
MONOTXT
 72
     4
 11
473.4721
 21
-97.7905
 31
0.0
210
0.0
220
0.0
230
1.0
100
AcDbText
  0
TEXT
  5
553
100
AcDbEntity
  8
1
  6
CONTINUOUS
 62
     7
100
AcDbText
 10
459.3515
 20
-101.9841
 30
0.0
 40
3.0
  1
(TYP. BEVEL)
 50
341.906408
  7
MONOTXT
 72
     1
 11
474.305731
 21
-103.713979
 31
0.0
210
0.0
220
0.0
230
1.0
100
AcDbText
 73
     3
  0
TEXT
  5
554
100
AcDbEntity
  8
1
  6
CONTINUOUS
 62
     7
100
AcDbText
 10
554.9633
 20
-128.3507
 30
0.0
 40
3.0
  1
TYP.
  7
MONOTXT
 72
     4
 11
559.7703
 21
-126.8507
 31
0.0
210
0.0
220
0.0
230
1.0
100
AcDbText
  0
TEXT
  5
555
100
AcDbEntity
  8
1
  6
CONTINUOUS
 62
     7
100
AcDbText
 10
538.3544
 20
-130.667
 30
0.0
 40
3.0
  1
W
  7
MONOTXT
 72
     4
 11
539.7835
 21
-129.167
 31
0.0
210
0.0
220
0.0
230
1.0
100
AcDbText
  0
LINE
  5
556
100
AcDbEntity
  8
1
  6
CONTINUOUS
 62
     7
100
AcDbLine
 10
500.0987
 20
-106.0954
 30
0.0
 11
511.9841
 21
-123.9025
 31
0.0
  0
LINE
  5
557
100
AcDbEntity
  8
1
  6
CONTINUOUS
 62
     7
100
AcDbLine
 10
511.9841
 20
-123.9025
 30
0.0
 11
503.5636
 21
-123.9025
 31
0.0
  0
INSERT
  5
558
100
AcDbEntity
  8
1
  6
CONTINUOUS
 62
     1
100
AcDbBlockReference
  2
LDR
 10
511.4767
 20
-94.0834
 30
0.0
 41
240.000001
 42
240.000001
 50
353.050476
210
0.0
220
0.0
230
1.0
  0
LINE
  5
559
100
AcDbEntity
  8
1
  6
CONTINUOUS
 62
     7
100
AcDbLine
 10
562.9324
 20
-68.0077
 30
0.0
 11
588.3794
 21
-68.0077
 31
0.0
  0
TEXT
  5
55A
100
AcDbEntity
  8
1
  6
CONTINUOUS
 62
     7
100
AcDbText
 10
590.0693
 20
-69.5236
 30
0.0
 40
3.0
  1
PLATE
  7
MONOTXT
 72
     4
 11
596.7425
 21
-68.0236
 31
0.0
210
0.0
220
0.0
230
1.0
100
AcDbText
  0
TEXT
  5
55B
100
AcDbEntity
  8
1
  6
CONTINUOUS
 62
     7
100
AcDbText
 10
578.8724
 20
-74.9236
 30
0.0
 40
3.0
  1
THICKNESS   T
  7
MONOTXT
 72
     4
 11
596.7424
 21
-73.4236
 31
0.0
210
0.0
220
0.0
230
1.0
100
AcDbText
  0
TEXT
  5
55C
100
AcDbEntity
  8
1
  6
CONTINUOUS
 62
     7
100
AcDbText
 10
457.8001
 20
-156.8227
 30
0.0
 40
3.0
  1
SECTIONS SHOWN ARE FOR INSTALLATIONS ON RIGHT SHOULDER
  7
MONOTXT
 11
457.8001
 21
-153.8227
 31
0.0
210
0.0
220
0.0
230
1.0
100
AcDbText
 73
     3
  0
TEXT
  5
55D
100
AcDbEntity
  8
1
  6
CONTINUOUS
 62
     7
100
AcDbText
 10
457.8001
 20
-162.2227
 30
0.0
 40
3.0
  1
AND IN GORE. PLATE SLOT BEVELS ARE OPPOSITE HAND FROM
  7
MONOTXT
 11
457.8001
 21
-159.2227
 31
0.0
210
0.0
220
0.0
230
1.0
100
AcDbText
 73
     3
  0
TEXT
  5
55E
100
AcDbEntity
  8
1
  6
CONTINUOUS
 62
     7
100
AcDbText
 10
457.8001
 20
-167.6227
 30
0.0
 40
3.0
  1
THAT SHOWN FOR INSTALLATIONS ON LEFT SHOULDER.
  7
MONOTXT
 11
457.8001
 21
-164.6227
 31
0.0
210
0.0
220
0.0
230
1.0
100
AcDbText
 73
     3
  0
TEXT
  5
55F
100
AcDbEntity
  8
1
  6
CONTINUOUS
 62
     7
100
AcDbText
 10
495.287
 20
-151.4859
 30
0.0
 40
3.0
  1
(SEE TABLE FOR DIMENSIONS)
  7
MONOTXT
 72
     4
 11
530.0704
 21
-149.9859
 31
0.0
210
0.0
220
0.0
230
1.0
100
AcDbText
  0
LINE
  5
560
100
AcDbEntity
  8
1
  6
CONTINUOUS
 62
     7
100
AcDbLine
 10
461.0301
 20
-145.1394
 30
0.0
 11
520.5825
 21
-145.1394
 31
0.0
  0
LINE
  5
561
100
AcDbEntity
  8
1
  6
CONTINUOUS
 62
     7
100
AcDbLine
 10
537.1361
 20
-145.1394
 30
0.0
 11
596.8775
 21
-145.1394
 31
0.0
  0
LINE
  5
562
100
AcDbEntity
  8
1
  6
CONTINUOUS
 62
     1
100
AcDbLine
 10
518.0107
 20
-72.0996
 30
0.0
 11
518.0107
 21
-80.99
 31
0.0
  0
LINE
  5
563
100
AcDbEntity
  8
1
  6
CONTINUOUS
 62
     1
100
AcDbLine
 10
518.0107
 20
-82.8807
 30
0.0
 11
518.0107
 21
-112.7381
 31
0.0
  0
LINE
  5
564
100
AcDbEntity
  8
1
  6
CONTINUOUS
 62
     1
100
AcDbLine
 10
518.0107
 20
-114.6288
 30
0.0
 11
518.0107
 21
-128.5854
 31
0.0
  0
POLYLINE
  5
565
100
AcDbEntity
  8
1
  6
CONTINUOUS
 62
     7
100
AcDb2dPolyline
 66
     1
 10
0.0
 20
0.0
 30
0.0
  0
VERTEX
  5
566
100
AcDbEntity
  8
1
  6
CONTINUOUS
 62
     7
100
AcDbVertex
100
AcDb2dVertex
 10
518.0107
 20
-114.628761
 30
0.0
 42
-1.0
  0
VERTEX
  5
567
100
AcDbEntity
  8
1
  6
CONTINUOUS
 62
     7
100
AcDbVertex
100
AcDb2dVertex
 10
518.0107
 20
-80.99
 30
0.0
  0
VERTEX
  5
568
100
AcDbEntity
  8
1
  6
CONTINUOUS
 62
     7
100
AcDbVertex
100
AcDb2dVertex
 10
518.0107
 20
-82.880704
 30
0.0
 42
1.0
  0
VERTEX
  5
569
100
AcDbEntity
  8
1
  6
CONTINUOUS
 62
     7
100
AcDbVertex
100
AcDb2dVertex
 10
518.0107
 20
-112.7381
 30
0.0
  0
VERTEX
  5
56A
100
AcDbEntity
  8
1
  6
CONTINUOUS
 62
     7
100
AcDbVertex
100
AcDb2dVertex
 10
518.0107
 20
-114.6288
 30
0.0
  0
SEQEND
  5
56B
100
AcDbEntity
  8
1
  6
CONTINUOUS
 62
     7
  0
LINE
  5
56C
100
AcDbEntity
  8
1
  6
CONTINUOUS
 62
     7
100
AcDbLine
 10
512.0142
 20
-113.5161
 30
0.0
 11
502.2942
 21
-103.7962
 31
0.0
  0
LINE
  5
56D
100
AcDbEntity
  8
1
  6
CONTINUOUS
 62
     7
100
AcDbLine
 10
514.4321
 20
-114.237
 30
0.0
 11
511.354
 21
-111.1589
 31
0.0
  0
LINE
  5
56E
100
AcDbEntity
  8
1
  6
CONTINUOUS
 62
     7
100
AcDbLine
 10
504.6599
 20
-104.4647
 30
0.0
 11
501.5772
 21
-101.3821
 31
0.0
  0
LINE
  5
56F
100
AcDbEntity
  8
1
  6
CONTINUOUS
 62
     7
100
AcDbLine
 10
503.0937
 20
-97.8074
 30
0.0
 11
501.2959
 21
-96.0096
 31
0.0
  0
LINE
  5
570
100
AcDbEntity
  8
1
  6
CONTINUOUS
 62
     7
100
AcDbLine
 10
503.1782
 20
-96.1949
 30
0.0
 11
501.5236
 21
-94.5403
 31
0.0
  0
LINE
  5
571
100
AcDbEntity
  8
1
  6
CONTINUOUS
 62
     7
100
AcDbLine
 10
504.2119
 20
-92.1374
 30
0.0
 11
502.7788
 21
-90.7043
 31
0.0
  0
LINE
  5
572
100
AcDbEntity
  8
1
  6
CONTINUOUS
 62
     7
100
AcDbLine
 10
504.7492
 20
-90.9776
 30
0.0
 11
503.3542
 21
-89.5826
 31
0.0
  0
LINE
  5
573
100
AcDbEntity
  8
1
  6
CONTINUOUS
 62
     7
100
AcDbLine
 10
506.8147
 20
-87.952
 30
0.0
 11
505.4756
 21
-86.6128
 31
0.0
  0
LINE
  5
574
100
AcDbEntity
  8
1
  6
CONTINUOUS
 62
     7
100
AcDbLine
 10
507.6435
 20
-87.0838
 30
0.0
 11
506.3063
 21
-85.7465
 31
0.0
  0
LINE
  5
575
100
AcDbEntity
  8
1
  6
CONTINUOUS
 62
     7
100
AcDbLine
 10
510.5458
 20
-84.8949
 30
0.0
 11
509.1653
 21
-83.5143
 31
0.0
  0
LINE
  5
576
100
AcDbEntity
  8
1
  6
CONTINUOUS
 62
     7
100
AcDbLine
 10
511.6601
 20
-84.3121
 30
0.0
 11
510.2467
 21
-82.8987
 31
0.0
  0
LINE
  5
577
100
AcDbEntity
  8
1
  6
CONTINUOUS
 62
     7
100
AcDbLine
 10
515.5309
 20
-83.0917
 30
0.0
 11
513.9403
 21
-81.5012
 31
0.0
  0
LINE
  5
578
100
AcDbEntity
  8
1
  6
CONTINUOUS
 62
     7
100
AcDbLine
 10
517.0553
 20
-82.919
 30
0.0
 11
515.3502
 21
-81.2139
 31
0.0
  0
TEXT
  5
579
100
AcDbEntity
  8
1
  6
CONTINUOUS
 62
     7
100
AcDbText
 10
496.4325
 20
-74.0369
 30
0.0
 40
2.4
  1
SIGN POST
  7
MONOTXT
 72
     4
 11
506.1364
 21
-72.8369
 31
0.0
210
0.0
220
0.0
230
1.0
100
AcDbText
  0
TEXT
  5
57A
100
AcDbEntity
  8
1
  6
CONTINUOUS
 62
     7
100
AcDbText
 10
519.1404
 20
-74.0369
 30
0.0
 40
2.4
  1
STUB POST
  7
MONOTXT
 72
     4
 11
529.5813
 21
-72.8369
 31
0.0
210
0.0
220
0.0
230
1.0
100
AcDbText
  0
LINE
  5
57B
100
AcDbEntity
  8
1
  6
CONTINUOUS
 62
     7
100
AcDbLine
 10
511.6321
 20
-82.2465
 30
0.0
 11
505.1828
 21
-74.6358
 31
0.0
  0
LINE
  5
57C
100
AcDbEntity
  8
1
  6
CONTINUOUS
 62
     7
100
AcDbLine
 10
526.2459
 20
-83.144
 30
0.0
 11
529.1309
 21
-74.2332
 31
0.0
  0
INSERT
  5
57D
100
AcDbEntity
  8
1
  6
CONTINUOUS
 62
     1
100
AcDbBlockReference
  2
LDR
 10
511.6321
 20
-82.2465
 30
0.0
 41
239.999999
 42
239.999999
 50
310.277909
210
0.0
220
0.0
230
1.0
  0
INSERT
  5
57E
100
AcDbEntity
  8
1
  6
CONTINUOUS
 62
     1
100
AcDbBlockReference
  2
LDR
 10
511.6321
 20
-82.2465
 30
0.0
 41
239.999999
 42
239.999999
 50
310.277909
210
0.0
220
0.0
230
1.0
  0
INSERT
  5
57F
100
AcDbEntity
  8
1
  6
CONTINUOUS
 62
     1
100
AcDbBlockReference
  2
LDR
 10
526.2459
 20
-83.144
 30
0.0
 41
240.000001
 42
240.000001
 50
252.059892
210
0.0
220
0.0
230
1.0
  0
TEXT
  5
580
100
AcDbEntity
  8
1
  6
CONTINUOUS
 62
     7
100
AcDbText
 10
625.4077
 20
-147.1824
 30
0.0
 40
3.0
  1
(STAINLESS STEEL BANDING)
  7
MONOTXT
 72
     4
 11
658.2777
 21
-145.6824
 31
0.0
210
0.0
220
0.0
230
1.0
100
AcDbText
  0
LINE
  5
581
100
AcDbEntity
  8
1
  6
CONTINUOUS
 62
     7
100
AcDbLine
 10
631.0874
 20
-141.1043
 30
0.0
 11
685.8496
 21
-141.1043
 31
0.0
  0
TEXT
  5
582
100
AcDbEntity
  8
1
  6
CONTINUOUS
 62
     7
100
AcDbText
 10
454.0576
 20
-198.8667
 30
0.0
 40
3.9
  1
  BASE CONNECTION DATA TABLE
  7
MONOTXT
 72
     4
 11
505.8784
 21
-196.9167
 31
0.0
210
0.0
220
0.0
230
1.0
100
AcDbText
  0
TEXT
  5
583
100
AcDbEntity
  8
1
  6
CONTINUOUS
 62
     7
100
AcDbText
 10
450.3634
 20
-207.5354
 30
0.0
 40
3.9
  1
PIPE
  7
MONOTXT
 72
     4
 11
456.0906
 21
-205.5854
 31
0.0
210
0.0
220
0.0
230
1.0
100
AcDbText
  0
TEXT
  5
584
100
AcDbEntity
  8
1
  6
CONTINUOUS
 62
     7
100
AcDbText
 10
450.3634
 20
-213.7754
 30
0.0
 40
3.9
  1
SIZE
  7
MONOTXT
 72
     4
 11
456.0906
 21
-211.8254
 31
0.0
210
0.0
220
0.0
230
1.0
100
AcDbText
  0
TEXT
  5
585
100
AcDbEntity
  8
1
  6
CONTINUOUS
 62
     7
100
AcDbText
 10
474.5376
 20
-207.403
 30
0.0
 40
3.9
  1
BOLT
  7
MONOTXT
 72
     4
 11
481.6466
 21
-205.453
 31
0.0
210
0.0
220
0.0
230
1.0
100
AcDbText
  0
TEXT
  5
586
100
AcDbEntity
  8
1
  6
CONTINUOUS
 62
     7
100
AcDbText
 10
475.9195
 20
-213.643
 30
0.0
 40
3.9
  1
SIZE
  7
MONOTXT
 72
     4
 11
481.6467
 21
-211.693
 31
0.0
210
0.0
220
0.0
230
1.0
100
AcDbText
  0
TEXT
  5
587
100
AcDbEntity
  8
1
  6
CONTINUOUS
 62
     7
100
AcDbText
 10
495.8992
 20
-210.3906
 30
0.0
 40
3.9
  1
A
  7
MONOTXT
 72
     4
 11
497.4039
 21
-208.4406
 31
0.0
210
0.0
220
0.0
230
1.0
100
AcDbText
  0
TEXT
  5
588
100
AcDbEntity
  8
1
  6
CONTINUOUS
 62
     7
100
AcDbText
 10
506.4272
 20
-210.3906
 30
0.0
 40
3.9
  1
B
  7
MONOTXT
 72
     4
 11
507.7323
 21
-208.4406
 31
0.0
210
0.0
220
0.0
230
1.0
100
AcDbText
  0
TEXT
  5
589
100
AcDbEntity
  8
1
  6
CONTINUOUS
 62
     7
100
AcDbText
 10
516.3986
 20
-210.3906
 30
0.0
 40
3.9
  1
C
  7
MONOTXT
 72
     4
 11
517.7958
 21
-208.4406
 31
0.0
210
0.0
220
0.0
230
1.0
100
AcDbText
  0
TEXT
  5
58A
100
AcDbEntity
  8
1
  6
CONTINUOUS
 62
     7
100
AcDbText
 10
526.6867
 20
-210.6554
 30
0.0
 40
3.9
  1
D
  7
MONOTXT
 72
     4
 11
527.9918
 21
-208.7054
 31
0.0
210
0.0
220
0.0
230
1.0
100
AcDbText
  0
TEXT
  5
58B
100
AcDbEntity
  8
1
  6
CONTINUOUS
 62
     7
100
AcDbText
 10
536.8422
 20
-210.9203
 30
0.0
 40
3.9
  1
E
  7
MONOTXT
 72
     4
 11
538.0552
 21
-208.9703
 31
0.0
210
0.0
220
0.0
230
1.0
100
AcDbText
  0
TEXT
  5
58C
100
AcDbEntity
  8
1
  6
CONTINUOUS
 62
     7
100
AcDbText
 10
547.1705
 20
-211.0528
 30
0.0
 40
3.9
  1
F
  7
MONOTXT
 72
     4
 11
548.3835
 21
-209.1028
 31
0.0
210
0.0
220
0.0
230
1.0
100
AcDbText
  0
TEXT
  5
58D
100
AcDbEntity
  8
1
  6
CONTINUOUS
 62
     7
100
AcDbText
 10
557.142
 20
-211.1852
 30
0.0
 40
3.9
  1
T
  7
MONOTXT
 72
     4
 11
558.4471
 21
-209.2352
 31
0.0
210
0.0
220
0.0
230
1.0
100
AcDbText
  0
TEXT
  5
58E
100
AcDbEntity
  8
1
  6
CONTINUOUS
 62
     7
100
AcDbText
 10
566.5204
 20
-211.0528
 30
0.0
 40
3.9
  1
W
  7
MONOTXT
 72
     4
 11
568.3782
 21
-209.1028
 31
0.0
210
0.0
220
0.0
230
1.0
100
AcDbText
  0
TEXT
  5
58F
100
AcDbEntity
  8
1
  6
CONTINUOUS
 62
     7
100
AcDbText
 10
454.3884
 20
-220.1924
 30
0.0
 40
3.9
  1
3
  7
MONOTXT
 72
     4
 11
455.6935
 21
-218.2424
 31
0.0
210
0.0
220
0.0
230
1.0
100
AcDbText
  0
TEXT
  5
590
100
AcDbEntity
  8
1
  6
CONTINUOUS
 62
     7
100
AcDbText
 10
453.8989
 20
-226.6828
 30
0.0
 40
3.9
  1
4
  7
MONOTXT
 72
     4
 11
455.2961
 21
-224.7328
 31
0.0
210
0.0
220
0.0
230
1.0
100
AcDbText
  0
TEXT
  5
591
100
AcDbEntity
  8
1
  6
CONTINUOUS
 62
     7
100
AcDbText
 10
454.4804
 20
-233.3056
 30
0.0
 40
3.9
  1
6
  7
MONOTXT
 72
     4
 11
455.6934
 21
-231.3556
 31
0.0
210
0.0
220
0.0
230
1.0
100
AcDbText
  0
TEXT
  5
592
100
AcDbEntity
  8
1
  6
CONTINUOUS
 62
     7
100
AcDbText
 10
472.3509
 20
-239.4057
 30
0.0
 40
2.4
  1
  DIMENSIONS A,B,C,D,E & F ALSO
  7
MONOTXT
 11
472.3509
 21
-237.0057
 31
0.0
210
0.0
220
0.0
230
1.0
100
AcDbText
 73
     3
  0
TEXT
  5
593
100
AcDbEntity
  8
1
  6
CONTINUOUS
 62
     7
100
AcDbText
 10
472.3509
 20
-243.6057
 30
0.0
 40
2.4
  1
  APPLY TO KEEPER PLATE.
  7
MONOTXT
 11
472.3509
 21
-241.2057
 31
0.0
210
0.0
220
0.0
230
1.0
100
AcDbText
 73
     3
  0
TEXT
  5
594
100
AcDbEntity
  8
1
  6
CONTINUOUS
 62
     7
100
AcDbText
 10
717.4555
 20
-90.3322
 30
0.0
 40
3.0
  1
TYPE
  7
MONOTXT
 72
     4
 11
722.9948
 21
-88.8322
 31
0.0
210
0.0
220
0.0
230
1.0
100
AcDbText
  0
TEXT
  5
595
100
AcDbEntity
  8
1
  6
CONTINUOUS
 62
     7
100
AcDbText
 10
720.4319
 20
-95.1322
 30
0.0
 40
3.0
  1
OF
  7
MONOTXT
 72
     4
 11
722.9949
 21
-93.6322
 31
0.0
210
0.0
220
0.0
230
1.0
100
AcDbText
  0
TEXT
  5
596
100
AcDbEntity
  8
1
  6
CONTINUOUS
 62
     7
100
AcDbText
 10
715.7548
 20
-99.9322
 30
0.0
 40
3.0
  1
MOUNT
  7
MONOTXT
 72
     4
 11
722.9949
 21
-98.4322
 31
0.0
210
0.0
220
0.0
230
1.0
100
AcDbText
  0
TEXT
  5
597
100
AcDbEntity
  8
1
  6
CONTINUOUS
 62
     7
100
AcDbText
 10
739.6011
 20
-89.9735
 30
0.0
 40
3.0
  1
PIPE
  7
MONOTXT
 72
     4
 11
744.0065
 21
-88.4735
 31
0.0
210
0.0
220
0.0
230
1.0
100
AcDbText
  0
TEXT
  5
598
100
AcDbEntity
  8
1
  6
CONTINUOUS
 62
     7
100
AcDbText
 10
742.8491
 20
-94.7735
 30
0.0
 40
3.0
  1
A
  7
MONOTXT
 72
     4
 11
744.0065
 21
-93.2735
 31
0.0
210
0.0
220
0.0
230
1.0
100
AcDbText
  0
TEXT
  5
599
100
AcDbEntity
  8
1
  6
CONTINUOUS
 62
     7
100
AcDbText
 10
758.249
 20
-90.1049
 30
0.0
 40
3.0
  1
PIPE
  7
MONOTXT
 72
     4
 11
762.6544
 21
-88.6049
 31
0.0
210
0.0
220
0.0
230
1.0
100
AcDbText
  0
TEXT
  5
59A
100
AcDbEntity
  8
1
  6
CONTINUOUS
 62
     7
100
AcDbText
 10
761.6506
 20
-94.9049
 30
0.0
 40
3.0
  1
B
  7
MONOTXT
 72
     4
 11
762.6545
 21
-93.4049
 31
0.0
210
0.0
220
0.0
230
1.0
100
AcDbText
  0
TEXT
  5
59B
100
AcDbEntity
  8
1
  6
CONTINUOUS
 62
     7
100
AcDbText
 10
782.7261
 20
-90.7971
 30
0.0
 40
3.0
  1
FOUNDATION
  7
MONOTXT
 72
     4
 11
796.2733
 21
-89.2971
 31
0.0
210
0.0
220
0.0
230
1.0
100
AcDbText
  0
TEXT
  5
59C
100
AcDbEntity
  8
1
  6
CONTINUOUS
 62
     7
100
AcDbText
 10
826.6765
 20
-88.5285
 30
0.0
 40
2.7
  1
STUB
  7
MONOTXT
 72
     4
 11
831.5981
 21
-87.1785
 31
0.0
210
0.0
220
0.0
230
1.0
100
AcDbText
  0
TEXT
  5
59D
100
AcDbEntity
  8
1
  6
CONTINUOUS
 62
     7
100
AcDbText
 10
826.5489
 20
-93.0285
 30
0.0
 40
2.7
  1
POST
  7
MONOTXT
 72
     4
 11
831.5981
 21
-91.6785
 31
0.0
210
0.0
220
0.0
230
1.0
100
AcDbText
  0
TEXT
  5
59E
100
AcDbEntity
  8
1
  6
CONTINUOUS
 62
     7
100
AcDbText
 10
735.8937
 20
-101.1563
 30
0.0
 40
2.7
  1
DIA.
  7
MONOTXT
 72
     4
 11
739.1358
 21
-99.8063
 31
0.0
210
0.0
220
0.0
230
1.0
100
AcDbText
  0
TEXT
  5
59F
100
AcDbEntity
  8
1
  6
CONTINUOUS
 62
     7
100
AcDbText
 10
754.673
 20
-101.1563
 30
0.0
 40
2.7
  1
DIA.
  7
MONOTXT
 72
     4
 11
757.9151
 21
-99.8063
 31
0.0
210
0.0
220
0.0
230
1.0
100
AcDbText
  0
TEXT
  5
5A0
100
AcDbEntity
  8
1
  6
CONTINUOUS
 62
     7
100
AcDbText
 10
744.0659
 20
-101.1564
 30
0.0
 40
2.7
  1
SCH.
  7
MONOTXT
 72
     4
 11
748.3285
 21
-99.8064
 31
0.0
210
0.0
220
0.0
230
1.0
100
AcDbText
  0
TEXT
  5
5A1
100
AcDbEntity
  8
1
  6
CONTINUOUS
 62
     7
100
AcDbText
 10
762.7138
 20
-101.025
 30
0.0
 40
2.7
  1
SCH.
  7
MONOTXT
 72
     4
 11
766.9764
 21
-99.675
 31
0.0
210
0.0
220
0.0
230
1.0
100
AcDbText
  0
TEXT
  5
5A2
100
AcDbEntity
  8
1
  6
CONTINUOUS
 62
     7
100
AcDbText
 10
781.1554
 20
-99.8614
 30
0.0
 40
3.0
  1
D1
  7
MONOTXT
 72
     4
 11
782.9979
 21
-98.3614
 31
0.0
210
0.0
220
0.0
230
1.0
100
AcDbText
  0
TEXT
  5
5A3
100
AcDbEntity
  8
1
  6
CONTINUOUS
 62
     7
100
AcDbText
 10
806.8259
 20
-99.5986
 30
0.0
 40
3.0
  1
H
  7
MONOTXT
 72
     4
 11
807.8298
 21
-98.0986
 31
0.0
210
0.0
220
0.0
230
1.0
100
AcDbText
  0
TEXT
  5
5A4
100
AcDbEntity
  8
1
  6
CONTINUOUS
 62
     7
100
AcDbText
 10
830.8685
 20
-99.73
 30
0.0
 40
3.0
  1
L
  7
MONOTXT
 72
     4
 11
831.7307
 21
-98.23
 31
0.0
210
0.0
220
0.0
230
1.0
100
AcDbText
  0
TEXT
  5
5A5
100
AcDbEntity
  8
1
  6
CONTINUOUS
 62
     7
100
AcDbText
 10
721.7095
 20
-108.7942
 30
0.0
 40
3.0
  1
1
  7
MONOTXT
 72
     4
 11
722.0638
 21
-107.2942
 31
0.0
210
0.0
220
0.0
230
1.0
100
AcDbText
  0
TEXT
  5
5A6
100
AcDbEntity
  8
1
  6
CONTINUOUS
 62
     7
100
AcDbText
 10
721.4657
 20
-117.0703
 30
0.0
 40
3.0
  1
2
  7
MONOTXT
 72
     4
 11
722.4696
 21
-115.5703
 31
0.0
210
0.0
220
0.0
230
1.0
100
AcDbText
  0
TEXT
  5
5A7
100
AcDbEntity
  8
1
  6
CONTINUOUS
 62
     7
100
AcDbText
 10
721.4657
 20
-125.6091
 30
0.0
 40
3.0
  1
3
  7
MONOTXT
 72
     4
 11
722.4696
 21
-124.1091
 31
0.0
210
0.0
220
0.0
230
1.0
100
AcDbText
  0
TEXT
  5
5A8
100
AcDbEntity
  8
1
  6
CONTINUOUS
 62
     7
100
AcDbText
 10
721.3948
 20
-133.7538
 30
0.0
 40
3.0
  1
4
  7
MONOTXT
 72
     4
 11
722.4696
 21
-132.2538
 31
0.0
210
0.0
220
0.0
230
1.0
100
AcDbText
  0
TEXT
  5
5A9
100
AcDbEntity
  8
1
  6
CONTINUOUS
 62
     7
100
AcDbText
 10
721.7283
 20
-142.424
 30
0.0
 40
3.0
  1
5
  7
MONOTXT
 72
     4
 11
722.7322
 21
-140.924
 31
0.0
210
0.0
220
0.0
230
1.0
100
AcDbText
  0
LWPOLYLINE
  5
5AA
100
AcDbEntity
  8
1
  6
CONTINUOUS
 62
     7
100
AcDbPolyline
 90
        4
 70
     0
 10
650.5615
 20
-238.47
 10
648.1615
 20
-242.6269
 10
652.9615
 20
-242.6269
 10
650.5615
 20
-238.47
  0
TEXT
  5
5AB
100
AcDbEntity
  8
1
  6
CONTINUOUS
 62
     7
100
AcDbText
 10
649.9237
 20
-242.0521
 30
0.0
 40
1.8
  1
4
  7
MONOTXT
 72
     4
 11
650.5685
 21
-241.1521
 31
0.0
210
0.0
220
0.0
230
1.0
100
AcDbText
  0
LWPOLYLINE
  5
5AC
100
AcDbEntity
  8
1
  6
CONTINUOUS
 62
     7
100
AcDbPolyline
 90
        4
 70
     0
 10
582.8109
 20
-184.6242
 10
580.4109
 20
-188.7811
 10
585.2109
 20
-188.7811
 10
582.8109
 20
-184.6242
  0
TEXT
  5
5AD
100
AcDbEntity
  8
1
  6
CONTINUOUS
 62
     7
100
AcDbText
 10
582.5983
 20
-188.2063
 30
0.0
 40
1.8
  1
1
  7
MONOTXT
 72
     4
 11
582.8109
 21
-187.3063
 31
0.0
210
0.0
220
0.0
230
1.0
100
AcDbText
  0
LWPOLYLINE
  5
5AE
100
AcDbEntity
  8
1
  6
CONTINUOUS
 62
     7
100
AcDbPolyline
 90
        4
 70
     0
 10
650.4666
 20
-221.3911
 10
648.0666
 20
-225.548
 10
652.8666
 20
-225.548
 10
650.4666
 20
-221.3911
  0
TEXT
  5
5AF
100
AcDbEntity
  8
1
  6
CONTINUOUS
 62
     7
100
AcDbText
 10
650.254
 20
-224.9732
 30
0.0
 40
1.8
  1
1
  7
MONOTXT
 72
     4
 11
650.4666
 21
-224.0732
 31
0.0
210
0.0
220
0.0
230
1.0
100
AcDbText
  0
LWPOLYLINE
  5
5B0
100
AcDbEntity
  8
1
  6
CONTINUOUS
 62
     7
100
AcDbPolyline
 90
        4
 70
     0
 10
582.8108
 20
-190.2706
 10
580.4108
 20
-194.4275
 10
585.2108
 20
-194.4275
 10
582.8108
 20
-190.2706
  0
TEXT
  5
5B1
100
AcDbEntity
  8
1
  6
CONTINUOUS
 62
     7
100
AcDbText
 10
582.0744
 20
-193.8527
 30
0.0
 40
1.8
  1
2
  7
MONOTXT
 72
     4
 11
582.6767
 21
-192.9527
 31
0.0
210
0.0
220
0.0
230
1.0
100
AcDbText
  0
LWPOLYLINE
  5
5B2
100
AcDbEntity
  8
1
  6
CONTINUOUS
 62
     7
100
AcDbPolyline
 90
        4
 70
     0
 10
650.6077
 20
-226.8963
 10
648.2077
 20
-231.0532
 10
653.0077
 20
-231.0532
 10
650.6077
 20
-226.8963
  0
TEXT
  5
5B3
100
AcDbEntity
  8
1
  6
CONTINUOUS
 62
     7
100
AcDbText
 10
649.8713
 20
-230.4784
 30
0.0
 40
1.8
  1
2
  7
MONOTXT
 72
     4
 11
650.4736
 21
-229.5784
 31
0.0
210
0.0
220
0.0
230
1.0
100
AcDbText
  0
LWPOLYLINE
  5
5B4
100
AcDbEntity
  8
1
  6
CONTINUOUS
 62
     7
100
AcDbPolyline
 90
        4
 70
     0
 10
582.5286
 20
-196.0582
 10
580.1286
 20
-200.2151
 10
584.9286
 20
-200.2151
 10
582.5286
 20
-196.0582
  0
TEXT
  5
5B5
100
AcDbEntity
  8
1
  6
CONTINUOUS
 62
     7
100
AcDbText
 10
581.7921
 20
-199.9227
 30
0.0
 40
1.8
  1
3
  7
MONOTXT
 72
     4
 11
582.3944
 21
-199.0227
 31
0.0
210
0.0
220
0.0
230
1.0
100
AcDbText
  0
LWPOLYLINE
  5
5B6
100
AcDbEntity
  8
1
  6
CONTINUOUS
 62
     7
100
AcDbPolyline
 90
        4
 70
     0
 10
650.5923
 20
-232.9648
 10
648.1923
 20
-237.1217
 10
652.9923
 20
-237.1217
 10
650.5923
 20
-232.9648
  0
TEXT
  5
5B7
100
AcDbEntity
  8
1
  6
CONTINUOUS
 62
     7
100
AcDbText
 10
649.8558
 20
-236.8293
 30
0.0
 40
1.8
  1
3
  7
MONOTXT
 72
     4
 11
650.4581
 21
-235.9293
 31
0.0
210
0.0
220
0.0
230
1.0
100
AcDbText
  0
LWPOLYLINE
  5
5B8
100
AcDbEntity
  8
1
  6
CONTINUOUS
 62
     7
100
AcDbPolyline
 90
        4
 70
     0
 10
582.0998
 20
-205.1142
 10
579.6998
 20
-209.2711
 10
584.4998
 20
-209.2711
 10
582.0998
 20
-205.1142
  0
TEXT
  5
5B9
100
AcDbEntity
  8
1
  6
CONTINUOUS
 62
     7
100
AcDbText
 10
581.462
 20
-208.6963
 30
0.0
 40
1.8
  1
4
  7
MONOTXT
 72
     4
 11
582.1068
 21
-207.7963
 31
0.0
210
0.0
220
0.0
230
1.0
100
AcDbText
  0
TEXT
  5
5BB
100
AcDbEntity
  8
1
  6
CONTINUOUS
 62
     1
100
AcDbText
 10
723.685
 20
-194.6986
 30
0.0
 40
8.3912
  1
PIPE POSTS
  7
TXT
 72
     1
 11
756.4068
 21
-186.3074
 31
0.0
210
0.0
220
0.0
230
1.0
100
AcDbText
 73
     3
  0
TEXT
  5
5BC
100
AcDbEntity
  8
1
  6
CONTINUOUS
 62
     1
100
AcDbText
 10
721.511
 20
-206.4722
 30
0.0
 40
8.3912
  1
BREAKAWAY
  7
TXT
 72
     1
 11
756.2073
 21
-198.081
 31
0.0
210
0.0
220
0.0
230
1.0
100
AcDbText
 73
     3
  0
TEXT
  5
5BD
100
AcDbEntity
  8
1
  6
CONTINUOUS
 62
     7
100
AcDbText
 10
299.6026
 20
-236.5807
 30
0.0
 40
4.8
  1
+
  7
MONOTXT
 72
     4
 11
300.6798
 21
-234.1807
 31
0.0
210
0.0
220
0.0
230
1.0
100
AcDbText
  0
TEXT
  5
5BE
100
AcDbEntity
  8
1
  6
CONTINUOUS
 62
     7
100
AcDbText
 10
299.7213
 20
-238.1835
 30
0.0
 40
4.8
  1
-
  7
MONOTXT
 72
     4
 11
300.7985
 21
-235.7835
 31
0.0
210
0.0
220
0.0
230
1.0
100
AcDbText
  0
TEXT
  5
5BF
100
AcDbEntity
  8
1
  6
CONTINUOUS
 62
     7
100
AcDbText
 10
246.0111
 20
-203.1708
 30
0.0
 40
4.8
  1
+
  7
MONOTXT
 72
     4
 11
247.0883
 21
-200.7708
 31
0.0
210
0.0
220
0.0
230
1.0
100
AcDbText
  0
TEXT
  5
5C0
100
AcDbEntity
  8
1
  6
CONTINUOUS
 62
     7
100
AcDbText
 10
245.9523
 20
-204.9512
 30
0.0
 40
4.8
  1
-
  7
MONOTXT
 72
     4
 11
247.0295
 21
-202.5512
 31
0.0
210
0.0
220
0.0
230
1.0
100
AcDbText
  0
TEXT
  5
5C1
100
AcDbEntity
  8
1
  6
CONTINUOUS
 62
     7
100
AcDbText
 10
525.2731
 20
165.281
 30
0.0
 40
4.8
  1
=
  7
MONOTXT
 72
     4
 11
526.3503
 21
167.681
 31
0.0
210
0.0
220
0.0
230
1.0
100
AcDbText
  0
TEXT
  5
5C2
100
AcDbEntity
  8
1
  6
CONTINUOUS
 62
     7
100
AcDbText
 10
531.3853
 20
159.5717
 30
0.0
 40
4.8
  1
+
  7
MONOTXT
 72
     4
 11
532.4625
 21
161.9717
 31
0.0
210
0.0
220
0.0
230
1.0
100
AcDbText
  0
TEXT
  5
5C3
100
AcDbEntity
  8
1
  6
CONTINUOUS
 62
     7
100
AcDbText
 10
606.1262
 20
-75.4231
 30
0.0
 40
4.8
  1
=
  7
MONOTXT
 72
     4
 11
607.2034
 21
-73.0231
 31
0.0
210
0.0
220
0.0
230
1.0
100
AcDbText
  0
TEXT
  5
5C4
100
AcDbEntity
  8
1
  6
CONTINUOUS
 62
     7
100
AcDbText
 10
475.5397
 20
-126.3239
 30
0.0
 40
4.8
  1
=
  7
MONOTXT
 72
     4
 11
476.6169
 21
-123.9239
 31
0.0
210
0.0
220
0.0
230
1.0
100
AcDbText
  0
TEXT
  5
5C5
100
AcDbEntity
  8
1
  6
CONTINUOUS
 62
     7
100
AcDbText
 10
481.4237
 20
-132.1151
 30
0.0
 40
4.8
  1
+
  7
MONOTXT
 72
     4
 11
482.5009
 21
-129.7151
 31
0.0
210
0.0
220
0.0
230
1.0
100
AcDbText
  0
TEXT
  5
5C6
100
AcDbEntity
  8
1
  6
CONTINUOUS
 62
     7
100
AcDbText
 10
456.3498
 20
-200.0289
 30
0.0
 40
6.24
  1
*
  7
MONOTXT
 72
     4
 11
457.5536
 21
-196.9089
 31
0.0
210
0.0
220
0.0
230
1.0
100
AcDbText
  0
TEXT
  5
5C7
100
AcDbEntity
  8
1
  6
CONTINUOUS
 62
     7
100
AcDbText
 10
473.2678
 20
-240.529
 30
0.0
 40
4.8
  1
*
  7
MONOTXT
 72
     4
 11
474.1938
 21
-238.129
 31
0.0
210
0.0
220
0.0
230
1.0
100
AcDbText
  0
LINE
  5
5C8
100
AcDbEntity
  8
1
  6
CONTINUOUS
 62
     7
100
AcDbLine
 10
669.7391
 20
194.559
 30
0.0
 11
701.7956
 21
194.559
 31
0.0
  0
LINE
  5
5C9
100
AcDbEntity
  8
1
  6
CONTINUOUS
 62
     7
100
AcDbLine
 10
669.9122
 20
114.8006
 30
0.0
 11
704.6254
 21
114.8006
 31
0.0
  0
LINE
  5
5CA
100
AcDbEntity
  8
1
  6
CONTINUOUS
 62
     7
100
AcDbLine
 10
669.9727
 20
81.2342
 30
0.0
 11
712.6359
 21
81.2342
 31
0.0
  0
LINE
  5
5CB
100
AcDbEntity
  8
1
  6
CONTINUOUS
 62
     7
100
AcDbLine
 10
669.9169
 20
73.0647
 30
0.0
 11
698.2353
 21
73.0647
 31
0.0
  0
LINE
  5
5CC
100
AcDbEntity
  8
1
  6
CONTINUOUS
 62
     7
100
AcDbLine
 10
669.7934
 20
1.4344
 30
0.0
 11
688.1984
 21
1.4344
 31
0.0
  0
LINE
  5
5CD
100
AcDbEntity
  8
1
  6
CONTINUOUS
 62
     7
100
AcDbLine
 10
670.0169
 20
-19.5223
 30
0.0
 11
767.0194
 21
-19.5223
 31
0.0
  0
LINE
  5
5CE
100
AcDbEntity
  8
1
  6
CONTINUOUS
 62
     7
100
AcDbLine
 10
762.397
 20
-27.8695
 30
0.0
 11
818.3981
 21
-27.8695
 31
0.0
  0
LINE
  5
5CF
100
AcDbEntity
  8
1
  6
CONTINUOUS
 62
     7
100
AcDbLine
 10
674.124
 20
-32.1319
 30
0.0
 11
721.4838
 21
-32.1319
 31
0.0
  0
TEXT
  5
5D0
100
AcDbEntity
  8
1
  6
CONTINUOUS
 62
     7
100
AcDbText
 10
782.1467
 20
127.8747
 30
0.0
 40
4.8
  1
+
  7
MONOTXT
 72
     4
 11
783.2239
 21
130.2747
 31
0.0
210
0.0
220
0.0
230
1.0
100
AcDbText
  0
TEXT
  5
5D1
100
AcDbEntity
  8
1
  6
CONTINUOUS
 62
     7
100
AcDbText
 10
827.7859
 20
127.9746
 30
0.0
 40
4.8
  1
+
  7
MONOTXT
 72
     4
 11
828.8631
 21
130.3746
 31
0.0
210
0.0
220
0.0
230
1.0
100
AcDbText
  0
TEXT
  5
5D2
100
AcDbEntity
  8
1
  6
CONTINUOUS
 62
     7
100
AcDbText
 10
782.1467
 20
126.0437
 30
0.0
 40
4.8
  1
-
  7
MONOTXT
 72
     4
 11
783.2239
 21
128.4437
 31
0.0
210
0.0
220
0.0
230
1.0
100
AcDbText
  0
TEXT
  5
5D3
100
AcDbEntity
  8
1
  6
CONTINUOUS
 62
     7
100
AcDbText
 10
827.9523
 20
126.1436
 30
0.0
 40
4.8
  1
-
  7
MONOTXT
 72
     4
 11
829.0295
 21
128.5436
 31
0.0
210
0.0
220
0.0
230
1.0
100
AcDbText
  0
SPLINE
  5
5D4
100
AcDbEntity
  8
1
  6
CONTINUOUS
 62
     7
100
AcDbSpline
210
0.0
220
0.0
230
1.0
 70
     8
 71
     3
 72
    20
 73
    16
 74
     0
 42
0.0
 43
0.0
 12
0.993404394624045
 22
-0.1146634586153534
 32
0.0
 13
0.9135841825981489
 23
0.4066496542559355
 33
0.0
 40
0.0
 40
0.0
 40
0.0
 40
0.0
 40
0.2036890264106268
 40
0.2036890264106268
 40
0.2036890264106268
 40
0.4228340896990156
 40
0.4228340896990156
 40
0.4228340896990156
 40
0.6569227851388473
 40
0.6569227851388473
 40
0.6569227851388473
 40
0.9233515295393241
 40
0.9233515295393241
 40
0.9233515295393241
 40
1.0
 40
1.0
 40
1.0
 40
1.0
 10
766.91520000000003
 20
129.48349999999999
 30
0.0
 10
767.07490000000007
 20
129.46506666666667
 30
0.0
 10
767.2346
 20
129.44663333333332
 30
0.0
 10
767.39430000000004
 20
129.4282
 30
0.0
 10
767.56611812503058
 20
129.40836793505702
 30
0.0
 10
767.7254796470595
 20
129.59572482298924
 30
0.0
 10
767.89179999999999
 20
129.57560000000001
 30
0.0
 10
768.06946183668811
 20
129.55410285336652
 30
0.0
 10
768.2476703751297
 20
129.46323559961621
 30
0.0
 10
768.42610000000002
 20
129.4282
 30
0.0
 10
768.62918020781922
 20
129.38832412817493
 30
0.0
 10
768.86049403208312
 20
129.26889082972093
 30
0.0
 10
769.05259999999998
 20
129.3544
 30
0.0
 10
769.10786666666672
 20
129.37900000000002
 30
0.0
 10
769.16313333333335
 20
129.40360000000001
 30
0.0
 10
769.21840000000009
 20
129.4282
 30
0.0
  0
SPLINE
  5
5D5
100
AcDbEntity
  8
1
  6
CONTINUOUS
 62
     7
100
AcDbSpline
210
0.0
220
0.0
230
1.0
 70
     8
 71
     3
 72
    20
 73
    16
 74
     0
 42
0.0
 43
0.0
 12
0.9934043946240263
 22
-0.1146634586155145
 32
0.0
 13
0.9135841825976637
 23
0.4066496542570259
 33
0.0
 40
0.0
 40
0.0
 40
0.0
 40
0.0
 40
0.2036890264106268
 40
0.2036890264106268
 40
0.2036890264106268
 40
0.4228340896990156
 40
0.4228340896990156
 40
0.4228340896990156
 40
0.6569227851388473
 40
0.6569227851388473
 40
0.6569227851388473
 40
0.9233515295393241
 40
0.9233515295393241
 40
0.9233515295393241
 40
1.0
 40
1.0
 40
1.0
 40
1.0
 10
812.70540000000005
 20
129.2758
 30
0.0
 10
812.86509999999998
 20
129.25736666666668
 30
0.0
 10
813.02480000000003
 20
129.23893333333334
 30
0.0
 10
813.18450000000007
 20
129.22050000000002
 30
0.0
 10
813.3563181250305
 20
129.20066793505703
 30
0.0
 10
813.51567964705953
 20
129.38802482298925
 30
0.0
 10
813.68200000000002
 20
129.36790000000002
 30
0.0
 10
813.85966183668802
 20
129.34640285336653
 30
0.0
 10
814.03787037512973
 20
129.25553559961619
 30
0.0
 10
814.21630000000005
 20
129.22050000000002
 30
0.0
 10
814.41938020781924
 20
129.18062412817494
 30
0.0
 10
814.65069403208315
 20
129.06119082972094
 30
0.0
 10
814.84280000000001
 20
129.14670000000001
 30
0.0
 10
814.89806666666675
 20
129.1713
 30
0.0
 10
814.95333333333338
 20
129.19589999999999
 30
0.0
 10
815.0086
 20
129.22050000000002
 30
0.0
  0
TEXT
  5
5D6
100
AcDbEntity
  8
1
  6
CONTINUOUS
 62
     7
100
AcDbText
 10
409.2094
 20
226.8312
 30
0.0
 40
3.0
  1
NOTE:  TYPE 4 SUPPORT TO HAVE CROSS-ARM
  7
MONOTXT
 11
409.2094
 21
229.8312
 31
0.0
210
0.0
220
0.0
230
1.0
100
AcDbText
 73
     3
  0
TEXT
  5
5D7
100
AcDbEntity
  8
1
  6
CONTINUOUS
 62
     7
100
AcDbText
 10
409.2094
 20
221.4312
 30
0.0
 40
3.0
  1
      (E.G. 2.98kG/m U-CHANNEL, TELESPAR) AT
  7
MONOTXT
 11
409.2094
 21
224.4312
 31
0.0
210
0.0
220
0.0
230
1.0
100
AcDbText
 73
     3
  0
TEXT
  5
5D8
100
AcDbEntity
  8
1
  6
CONTINUOUS
 62
     7
100
AcDbText
 10
409.2094
 20
216.0312
 30
0.0
 40
3.0
  1
      TOP, AND BOTTOM AS APPROPRIATE.
  7
MONOTXT
 11
409.2094
 21
219.0312
 31
0.0
210
0.0
220
0.0
230
1.0
100
AcDbText
 73
     3
  0
LINE
  5
5D9
100
AcDbEntity
  8
1
  6
CONTINUOUS
 62
     1
100
AcDbLine
 10
463.9148
 20
176.5755
 30
0.0
 11
459.3028
 21
176.5755
 31
0.0
  0
LINE
  5
5DA
100
AcDbEntity
  8
1
  6
CONTINUOUS
 62
     1
100
AcDbLine
 10
463.9148
 20
179.0835
 30
0.0
 11
459.3028
 21
179.0835
 31
0.0
  0
LINE
  5
5DB
100
AcDbEntity
  8
1
  6
CONTINUOUS
 62
     1
100
AcDbLine
 10
464.0848
 20
110.4475
 30
0.0
 11
459.4728
 21
110.4475
 31
0.0
  0
LINE
  5
5DC
100
AcDbEntity
  8
1
  6
CONTINUOUS
 62
     1
100
AcDbLine
 10
464.0848
 20
112.9555
 30
0.0
 11
459.4728
 21
112.9555
 31
0.0
  0
LWPOLYLINE
  5
5DD
100
AcDbEntity
  8
1
  6
CONTINUOUS
 62
     7
100
AcDbPolyline
 90
        4
 70
     0
 10
236.9551
 20
230.0333
 10
234.5551
 20
225.8764
 10
239.3551
 20
225.8764
 10
236.9551
 20
230.0333
  0
TEXT
  5
5DE
100
AcDbEntity
  8
1
  6
CONTINUOUS
 62
     7
100
AcDbText
 10
236.3598
 20
226.4512
 30
0.0
 40
1.8
  1
5
  7
MONOTXT
 72
     4
 11
236.9621
 21
227.3512
 31
0.0
210
0.0
220
0.0
230
1.0
100
AcDbText
  0
LWPOLYLINE
  5
5DF
100
AcDbEntity
  8
1
  6
CONTINUOUS
 62
     7
100
AcDbPolyline
 90
        4
 70
     0
 10
650.8776
 20
-244.0624
 10
648.4776
 20
-248.2193
 10
653.2776
 20
-248.2193
 10
650.8776
 20
-244.0624
  0
TEXT
  5
5E0
100
AcDbEntity
  8
1
  6
CONTINUOUS
 62
     7
100
AcDbText
 10
650.2823
 20
-247.6445
 30
0.0
 40
1.8
  1
5
  7
MONOTXT
 72
     4
 11
650.8846
 21
-246.7445
 31
0.0
210
0.0
220
0.0
230
1.0
100
AcDbText
  0
LWPOLYLINE
  5
5E1
100
AcDbEntity
  8
1
  6
CONTINUOUS
 62
     7
100
AcDbPolyline
 90
        4
 70
     0
 10
581.6602
 20
-217.1368
 10
579.2602
 20
-221.2937
 10
584.0602
 20
-221.2937
 10
581.6602
 20
-217.1368
  0
TEXT
  5
5E2
100
AcDbEntity
  8
1
  6
CONTINUOUS
 62
     7
100
AcDbText
 10
581.0649
 20
-220.7189
 30
0.0
 40
1.8
  1
5
  7
MONOTXT
 72
     4
 11
581.6672
 21
-219.8189
 31
0.0
210
0.0
220
0.0
230
1.0
100
AcDbText
  0
LWPOLYLINE
  5
5E3
100
AcDbEntity
  8
1
  6
CONTINUOUS
 62
     7
100
AcDbPolyline
 90
        4
 70
     0
 10
194.2271
 20
90.8442
 10
191.8271
 20
86.6873
 10
196.6271
 20
86.6873
 10
194.2271
 20
90.8442
  0
TEXT
  5
5E4
100
AcDbEntity
  8
1
  6
CONTINUOUS
 62
     7
100
AcDbText
 10
193.6318
 20
87.2621
 30
0.0
 40
1.8
  1
5
  7
MONOTXT
 72
     4
 11
194.2341
 21
88.1621
 31
0.0
210
0.0
220
0.0
230
1.0
100
AcDbText
  0
LWPOLYLINE
  5
5E5
100
AcDbEntity
  8
1
  6
CONTINUOUS
 62
     7
100
AcDbPolyline
 90
        4
 70
     0
 10
380.9776
 20
-118.1622
 10
378.5776
 20
-122.3191
 10
383.3776
 20
-122.3191
 10
380.9776
 20
-118.1622
  0
TEXT
  5
5E6
100
AcDbEntity
  8
1
  6
CONTINUOUS
 62
     7
100
AcDbText
 10
380.3823
 20
-121.7443
 30
0.0
 40
1.8
  1
5
  7
MONOTXT
 72
     4
 11
380.9846
 21
-120.8443
 31
0.0
210
0.0
220
0.0
230
1.0
100
AcDbText
  0
LWPOLYLINE
  5
5E7
100
AcDbEntity
  8
1
  6
CONTINUOUS
 62
     7
100
AcDbPolyline
 90
        4
 70
     0
 10
662.5999
 20
163.1555
 10
660.1999
 20
158.9986
 10
664.9999
 20
158.9986
 10
662.5999
 20
163.1555
  0
TEXT
  5
5E8
100
AcDbEntity
  8
1
  6
CONTINUOUS
 62
     7
100
AcDbText
 10
662.0046
 20
159.5734
 30
0.0
 40
1.8
  1
5
  7
MONOTXT
 72
     4
 11
662.6069
 21
160.4734
 31
0.0
210
0.0
220
0.0
230
1.0
100
AcDbText
  0
LINE
  5
5E9
100
AcDbEntity
  8
1
  6
CONTINUOUS
 62
     7
100
AcDbLine
 10
151.7667
 20
126.414
 30
0.0
 11
188.1526
 21
126.3463
 31
0.0
  0
LINE
  5
5EA
100
AcDbEntity
  8
1
  6
CONTINUOUS
 62
     7
100
AcDbLine
 10
185.7526
 20
126.3463
 30
0.0
 11
185.7526
 21
32.3325
 31
0.0
  0
INSERT
  5
5EB
100
AcDbEntity
  8
1
  6
CONTINUOUS
 62
     1
100
AcDbBlockReference
  2
LDR
 10
185.7526
 20
126.3463
 30
0.0
 41
240.0
 42
240.0
 50
90.0
210
0.0
220
0.0
230
1.0
  0
INSERT
  5
5EC
100
AcDbEntity
  8
1
  6
CONTINUOUS
 62
     1
100
AcDbBlockReference
  2
LDR
 10
185.7526
 20
126.3463
 30
0.0
 41
240.0
 42
240.0
 50
90.0
210
0.0
220
0.0
230
1.0
  0
INSERT
  5
5ED
100
AcDbEntity
  8
1
  6
CONTINUOUS
 62
     1
100
AcDbBlockReference
  2
LDR
 10
185.7526
 20
32.3325
 30
0.0
 41
240.0
 42
240.0
 50
270.0
210
0.0
220
0.0
230
1.0
  0
TEXT
  5
5EE
100
AcDbEntity
  8
1
  6
CONTINUOUS
 62
     7
100
AcDbText
 10
386.8457
 20
-124.8184
 30
0.0
 40
3.0
  1
GALV. STEEL 0.9mm
  7
MONOTXT
 72
     4
 11
410.0189
 21
-123.3184
 31
0.0
210
0.0
220
0.0
230
1.0
100
AcDbText
  0
TEXT
  5
5EF
100
AcDbEntity
  8
1
  6
CONTINUOUS
 62
     7
100
AcDbText
 10
393.141
 20
-129.6184
 30
0.0
 40
3.0
  1
KEEPER PLATE
  7
MONOTXT
 72
     4
 11
410.0189
 21
-128.1184
 31
0.0
210
0.0
220
0.0
230
1.0
100
AcDbText
  0
LWPOLYLINE
  5
5F0
100
AcDbEntity
  8
1
  6
CONTINUOUS
 62
     7
100
AcDbPolyline
 90
        4
 70
     0
 10
662.9413
 20
101.0015
 10
660.5413
 20
96.8446
 10
665.3413
 20
96.8446
 10
662.9413
 20
101.0015
  0
TEXT
  5
5F1
100
AcDbEntity
  8
1
  6
CONTINUOUS
 62
     7
100
AcDbText
 10
662.346
 20
97.4194
 30
0.0
 40
1.8
  1
5
  7
MONOTXT
 72
     4
 11
662.9483
 21
98.3194
 31
0.0
210
0.0
220
0.0
230
1.0
100
AcDbText
  0
LWPOLYLINE
  5
5F2
100
AcDbEntity
  8
1
  6
CONTINUOUS
 62
     7
100
AcDbPolyline
 90
        4
 70
     0
 10
662.5999
 20
21.7722
 10
660.1999
 20
17.6153
 10
664.9999
 20
17.6153
 10
662.5999
 20
21.7722
  0
TEXT
  5
5F3
100
AcDbEntity
  8
1
  6
CONTINUOUS
 62
     7
100
AcDbText
 10
662.0046
 20
18.1901
 30
0.0
 40
1.8
  1
5
  7
MONOTXT
 72
     4
 11
662.6069
 21
19.0901
 31
0.0
210
0.0
220
0.0
230
1.0
100
AcDbText
  0
LWPOLYLINE
  5
5F4
100
AcDbEntity
  8
1
  6
CONTINUOUS
 62
     7
100
AcDbPolyline
 90
        4
 70
     0
 10
581.5589
 20
-228.7686
 10
579.1589
 20
-232.9255
 10
583.9589
 20
-232.9255
 10
581.5589
 20
-228.7686
  0
TEXT
  5
5F5
100
AcDbEntity
  8
1
  6
CONTINUOUS
 62
     7
100
AcDbText
 10
580.9991
 20
-232.3507
 30
0.0
 40
1.8
  1
6
  7
MONOTXT
 72
     4
 11
581.5589
 21
-231.4507
 31
0.0
210
0.0
220
0.0
230
1.0
100
AcDbText
  0
TEXT
  5
5F6
100
AcDbEntity
  8
1
  6
CONTINUOUS
 62
     7
100
AcDbText
 10
586.4798
 20
-187.5535
 30
0.0
 40
1.8
  1
NOTES, MAX. ON TYPE 5
  7
MONOTXT
 11
586.4798
 21
-185.7535
 31
0.0
210
0.0
220
0.0
230
1.0
100
AcDbText
 73
     3
  0
TEXT
  5
5F7
100
AcDbEntity
  8
1
  6
CONTINUOUS
 62
     7
100
AcDbText
 10
586.4798
 20
-190.5535
 30
0.0
 40
1.8
  1
 
  7
MONOTXT
 11
586.4798
 21
-188.7535
 31
0.0
210
0.0
220
0.0
230
1.0
100
AcDbText
 73
     3
  0
TEXT
  5
5F8
100
AcDbEntity
  8
1
  6
CONTINUOUS
 62
     7
100
AcDbText
 10
586.4798
 20
-193.5535
 30
0.0
 40
1.8
  1
DELETED SIGNATURE BLOCK
  7
MONOTXT
 11
586.4798
 21
-191.7535
 31
0.0
210
0.0
220
0.0
230
1.0
100
AcDbText
 73
     3
  0
TEXT
  5
5F9
100
AcDbEntity
  8
1
  6
CONTINUOUS
 62
     7
100
AcDbText
 10
586.4798
 20
-196.5535
 30
0.0
 40
1.8
  1
 
  7
MONOTXT
 11
586.4798
 21
-194.7535
 31
0.0
210
0.0
220
0.0
230
1.0
100
AcDbText
 73
     3
  0
TEXT
  5
5FA
100
AcDbEntity
  8
1
  6
CONTINUOUS
 62
     7
100
AcDbText
 10
586.4798
 20
-199.5535
 30
0.0
 40
1.8
  1
NOTES, MODIFIED BASE
  7
MONOTXT
 11
586.4798
 21
-197.7535
 31
0.0
210
0.0
220
0.0
230
1.0
100
AcDbText
 73
     3
  0
TEXT
  5
5FB
100
AcDbEntity
  8
1
  6
CONTINUOUS
 62
     7
100
AcDbText
 10
586.4798
 20
-202.5535
 30
0.0
 40
1.8
  1
CONNECTION DATA TABLE
  7
MONOTXT
 11
586.4798
 21
-200.7535
 31
0.0
210
0.0
220
0.0
230
1.0
100
AcDbText
 73
     3
  0
TEXT
  5
5FC
100
AcDbEntity
  8
1
  6
CONTINUOUS
 62
     7
100
AcDbText
 10
586.4798
 20
-205.5535
 30
0.0
 40
1.8
  1
 
  7
MONOTXT
 11
586.4798
 21
-203.7535
 31
0.0
210
0.0
220
0.0
230
1.0
100
AcDbText
 73
     3
  0
TEXT
  5
5FD
100
AcDbEntity
  8
1
  6
CONTINUOUS
 62
     7
100
AcDbText
 10
586.4798
 20
-208.5535
 30
0.0
 40
1.8
  1
REVISED TORQUE NOTE, TYPE 5
  7
MONOTXT
 11
586.4798
 21
-206.7535
 31
0.0
210
0.0
220
0.0
230
1.0
100
AcDbText
 73
     3
  0
TEXT
  5
5FE
100
AcDbEntity
  8
1
  6
CONTINUOUS
 62
     7
100
AcDbText
 10
586.4798
 20
-211.5535
 30
0.0
 40
1.8
  1
MAX. LOAD, TYPE 4 CROSS-ARMS,
  7
MONOTXT
 11
586.4798
 21
-209.7535
 31
0.0
210
0.0
220
0.0
230
1.0
100
AcDbText
 73
     3
  0
TEXT
  5
5FF
100
AcDbEntity
  8
1
  6
CONTINUOUS
 62
     7
100
AcDbText
 10
586.4798
 20
-214.5535
 30
0.0
 40
1.8
  1
AND DESCRIPTION
  7
MONOTXT
 11
586.4798
 21
-212.7535
 31
0.0
210
0.0
220
0.0
230
1.0
100
AcDbText
 73
     3
  0
TEXT
  5
600
100
AcDbEntity
  8
1
  6
CONTINUOUS
 62
     7
100
AcDbText
 10
586.4798
 20
-217.5535
 30
0.0
 40
1.8
  1
 
  7
MONOTXT
 11
586.4798
 21
-215.7535
 31
0.0
210
0.0
220
0.0
230
1.0
100
AcDbText
 73
     3
  0
TEXT
  5
601
100
AcDbEntity
  8
1
  6
CONTINUOUS
 62
     7
100
AcDbText
 10
586.4798
 20
-220.5535
 30
0.0
 40
1.8
  1
ADDED 9' NOTE, KEEPER PLATE INFO.,
  7
MONOTXT
 11
586.4798
 21
-218.7535
 31
0.0
210
0.0
220
0.0
230
1.0
100
AcDbText
 73
     3
  0
TEXT
  5
602
100
AcDbEntity
  8
1
  6
CONTINUOUS
 62
     7
100
AcDbText
 10
586.4798
 20
-223.5535
 30
0.0
 40
1.8
  1
REVISED H.S. BOLTS NOTES, TORQUE,
  7
MONOTXT
 11
586.4798
 21
-221.7535
 31
0.0
210
0.0
220
0.0
230
1.0
100
AcDbText
 73
     3
  0
TEXT
  5
603
100
AcDbEntity
  8
1
  6
CONTINUOUS
 62
     7
100
AcDbText
 10
586.4798
 20
-226.5535
 30
0.0
 40
1.8
  1
CAPS ASTM
  7
MONOTXT
 11
586.4798
 21
-224.7535
 31
0.0
210
0.0
220
0.0
230
1.0
100
AcDbText
 73
     3
  0
TEXT
  5
604
100
AcDbEntity
  8
1
  6
CONTINUOUS
 62
     7
100
AcDbText
 10
586.4798
 20
-229.5535
 30
0.0
 40
1.8
  1
 
  7
MONOTXT
 11
586.4798
 21
-227.7535
 31
0.0
210
0.0
220
0.0
230
1.0
100
AcDbText
 73
     3
  0
TEXT
  5
605
100
AcDbEntity
  8
1
  6
CONTINUOUS
 62
     7
100
AcDbText
 10
586.4798
 20
-232.5535
 30
0.0
 40
1.8
  1
ADDED METRIC
  7
MONOTXT
 11
586.4798
 21
-230.7535
 31
0.0
210
0.0
220
0.0
230
1.0
100
AcDbText
 73
     3
  0
LWPOLYLINE
  5
606
100
AcDbEntity
  8
1
  6
CONTINUOUS
 62
     7
100
AcDbPolyline
 90
        4
 70
     0
 10
650.8895
 20
-249.9799
 10
648.4895
 20
-254.1368
 10
653.2895
 20
-254.1368
 10
650.8895
 20
-249.9799
  0
TEXT
  5
607
100
AcDbEntity
  8
1
  6
CONTINUOUS
 62
     7
100
AcDbText
 10
650.3297
 20
-253.562
 30
0.0
 40
1.8
  1
6
  7
MONOTXT
 72
     4
 11
650.8895
 21
-252.662
 31
0.0
210
0.0
220
0.0
230
1.0
100
AcDbText
  0
TEXT
  5
608
100
AcDbEntity
  8
1
  6
CONTINUOUS
 62
     7
100
AcDbText
 10
657.5788
 20
-253.6769
 30
0.0
 40
2.4
  1
06-07-94
  7
MONOTXT
 72
     1
 11
666.2622
 21
-251.2769
 31
0.0
210
0.0
220
0.0
230
1.0
100
AcDbText
 73
     3
  0
TEXT
  5
609
100
AcDbEntity
  8
1
  6
CONTINUOUS
 62
     7
100
AcDbText
 10
139.6736
 20
217.5572
 30
0.0
 40
3.0
  1
600mm x 300mm
  7
MONOTXT
 72
     4
 11
160.65
 21
219.0572
 31
0.0
210
0.0
220
0.0
230
1.0
100
AcDbText
  0
TEXT
  5
60A
100
AcDbEntity
  8
1
  6
CONTINUOUS
 62
     7
100
AcDbText
 10
139.6736
 20
212.1572
 30
0.0
 40
3.0
  1
600mm x 300mm
  7
MONOTXT
 72
     4
 11
160.65
 21
213.6572
 31
0.0
210
0.0
220
0.0
230
1.0
100
AcDbText
  0
TEXT
  5
60B
100
AcDbEntity
  8
1
  6
CONTINUOUS
 62
     7
100
AcDbText
 10
139.5792
 20
206.7572
 30
0.0
 40
3.0
  1
525mm x 375mm
  7
MONOTXT
 72
     4
 11
160.65
 21
208.2572
 31
0.0
210
0.0
220
0.0
230
1.0
100
AcDbText
  0
TEXT
  5
60C
100
AcDbEntity
  8
1
  6
CONTINUOUS
 62
     7
100
AcDbText
 10
123.2399
 20
201.1352
 30
0.0
 40
3.0
  1
600mm x 600mm
  7
MONOTXT
 72
     4
 11
144.1454
 21
202.6352
 31
0.0
210
0.0
220
0.0
230
1.0
100
AcDbText
  0
TEXT
  5
60D
100
AcDbEntity
  8
1
  6
CONTINUOUS
 62
     7
100
AcDbText
 10
141.5116
 20
195.7352
 30
0.0
 40
3.0
  1
OR
  7
MONOTXT
 72
     4
 11
144.1454
 21
197.2352
 31
0.0
210
0.0
220
0.0
230
1.0
100
AcDbText
  0
TEXT
  5
60E
100
AcDbEntity
  8
1
  6
CONTINUOUS
 62
     7
100
AcDbText
 10
123.1454
 20
190.3352
 30
0.0
 40
3.0
  1
750mm x 600mm
  7
MONOTXT
 72
     4
 11
144.1454
 21
191.8352
 31
0.0
210
0.0
220
0.0
230
1.0
100
AcDbText
  0
TEXT
  5
60F
100
AcDbEntity
  8
1
  6
CONTINUOUS
 62
     7
100
AcDbText
 10
125.8717
 20
183.3756
 30
0.0
 40
3.0
  1
525mm x 375mm
  7
MONOTXT
 72
     4
 11
146.9425
 21
184.8756
 31
0.0
210
0.0
220
0.0
230
1.0
100
AcDbText
  0
TEXT
  5
610
100
AcDbEntity
  8
1
  6
CONTINUOUS
 62
     7
100
AcDbText
 10
169.8232
 20
198.7467
 30
0.0
 40
3.0
  1
US OR STATE OR INTER-
  7
MONOTXT
 72
     4
 11
199.268
 21
200.2467
 31
0.0
210
0.0
220
0.0
230
1.0
100
AcDbText
  0
TEXT
  5
611
100
AcDbEntity
  8
1
  6
CONTINUOUS
 62
     7
100
AcDbText
 10
173.1775
 20
193.3467
 30
0.0
 40
3.0
  1
STATE ROUTE MARKER
  7
MONOTXT
 72
     4
 11
199.268
 21
194.8467
 31
0.0
210
0.0
220
0.0
230
1.0
100
AcDbText
  0
TEXT
  5
612
100
AcDbEntity
  8
1
  6
CONTINUOUS
 62
     7
100
AcDbText
 10
242.888
 20
226.3636
 30
0.0
 40
3.0
  1
NOTES:   MINIMUM DISTANCE FROM GROUND TO TOP
  7
MONOTXT
 11
242.888
 21
229.3636
 31
0.0
210
0.0
220
0.0
230
1.0
100
AcDbText
 73
     3
  0
TEXT
  5
613
100
AcDbEntity
  8
1
  6
CONTINUOUS
 62
     7
100
AcDbText
 10
242.888
 20
220.9636
 30
0.0
 40
3.0
  1
       OF SIGN(S) (ALL 5 TYPES) IS 2.7m.
  7
MONOTXT
 11
242.888
 21
223.9636
 31
0.0
210
0.0
220
0.0
230
1.0
100
AcDbText
 73
     3
  0
TEXT
  5
614
100
AcDbEntity
  8
1
  6
CONTINUOUS
 62
     7
100
AcDbText
 10
242.888
 20
215.5636
 30
0.0
 40
3.0
  1
       
  7
MONOTXT
 11
242.888
 21
218.5636
 31
0.0
210
0.0
220
0.0
230
1.0
100
AcDbText
 73
     3
  0
TEXT
  5
615
100
AcDbEntity
  8
1
  6
CONTINUOUS
 62
     7
100
AcDbText
 10
242.888
 20
210.1636
 30
0.0
 40
3.0
  1
       VERTICAL SPACING BETWEEN P & Q AND Q & R
  7
MONOTXT
 11
242.888
 21
213.1636
 31
0.0
210
0.0
220
0.0
230
1.0
100
AcDbText
 73
     3
  0
TEXT
  5
616
100
AcDbEntity
  8
1
  6
CONTINUOUS
 62
     7
100
AcDbText
 10
242.888
 20
204.7636
 30
0.0
 40
3.0
  1
       PANELS SHALL BE (25mm).
  7
MONOTXT
 11
242.888
 21
207.7636
 31
0.0
210
0.0
220
0.0
230
1.0
100
AcDbText
 73
     3
  0
TEXT
  5
617
100
AcDbEntity
  8
1
  6
CONTINUOUS
 62
     7
100
AcDbText
 10
242.888
 20
199.3636
 30
0.0
 40
3.0
  1
 
  7
MONOTXT
 11
242.888
 21
202.3636
 31
0.0
210
0.0
220
0.0
230
1.0
100
AcDbText
 73
     3
  0
TEXT
  5
618
100
AcDbEntity
  8
1
  6
CONTINUOUS
 62
     7
100
AcDbText
 10
242.888
 20
193.9636
 30
0.0
 40
3.0
  1
       TYPE OF SUPPORT TO BE DETERMINED BY NUMBER
  7
MONOTXT
 11
242.888
 21
196.9636
 31
0.0
210
0.0
220
0.0
230
1.0
100
AcDbText
 73
     3
  0
TEXT
  5
619
100
AcDbEntity
  8
1
  6
CONTINUOUS
 62
     7
100
AcDbText
 10
242.888
 20
188.5636
 30
0.0
 40
3.0
  1
       OF ROUTE MARKER SHIELDS
  7
MONOTXT
 11
242.888
 21
191.5636
 31
0.0
210
0.0
220
0.0
230
1.0
100
AcDbText
 73
     3
  0
TEXT
  5
61A
100
AcDbEntity
  8
1
  6
CONTINUOUS
 62
     7
100
AcDbText
 10
519.8133
 20
166.0825
 30
0.0
 40
3.0
  1
R    1/2  BOLT
  7
MONOTXT
 72
     4
 11
536.1479
 21
167.5825
 31
0.0
210
0.0
220
0.0
230
1.0
100
AcDbText
  0
TEXT
  5
61B
100
AcDbEntity
  8
1
  6
CONTINUOUS
 62
     7
100
AcDbText
 10
521.6912
 20
160.6825
 30
0.0
 40
3.0
  1
DIA.    0.8mm
  7
MONOTXT
 72
     4
 11
536.1479
 21
162.1825
 31
0.0
210
0.0
220
0.0
230
1.0
100
AcDbText
  0
TEXT
  5
61C
100
AcDbEntity
  8
1
  6
CONTINUOUS
 62
     7
100
AcDbText
 10
566.1478
 20
154.0204
 30
0.0
 40
3.0
  1
PROVIDE 20mm MAX. HOLE
  7
MONOTXT
 72
     4
 11
597.6478
 21
155.5204
 31
0.0
210
0.0
220
0.0
230
1.0
100
AcDbText
  0
TEXT
  5
61D
100
AcDbEntity
  8
1
  6
CONTINUOUS
 62
     7
100
AcDbText
 10
112.701
 20
132.7813
 30
0.0
 40
3.0
  1
75mm
  7
MONOTXT
 72
     4
 11
119.2443
 21
134.2813
 31
0.0
210
0.0
220
0.0
230
1.0
100
AcDbText
  0
TEXT
  5
61E
100
AcDbEntity
  8
1
  6
CONTINUOUS
 62
     7
100
AcDbText
 10
214.7957
 20
164.5715
 30
0.0
 40
3.0
  1
75mm
  7
MONOTXT
 72
     4
 11
221.339
 21
166.0715
 31
0.0
210
0.0
220
0.0
230
1.0
100
AcDbText
  0
TEXT
  5
61F
100
AcDbEntity
  8
1
  6
CONTINUOUS
 62
     7
100
AcDbText
 10
327.5437
 20
164.9267
 30
0.0
 40
3.0
  1
75mm
  7
MONOTXT
 72
     4
 11
334.087
 21
166.4267
 31
0.0
210
0.0
220
0.0
230
1.0
100
AcDbText
  0
TEXT
  5
620
100
AcDbEntity
  8
1
  6
CONTINUOUS
 62
     7
100
AcDbText
 10
106.5692
 20
93.4854
 30
0.0
 40
3.0
  1
100mm
  7
MONOTXT
 72
     4
 11
113.9392
 21
94.9854
 31
0.0
210
0.0
220
0.0
230
1.0
100
AcDbText
  0
TEXT
  5
621
100
AcDbEntity
  8
1
  6
CONTINUOUS
 62
     7
100
AcDbText
 10
205.6454
 20
127.5845
 30
0.0
 40
3.0
  1
100mm
  7
MONOTXT
 72
     4
 11
213.0154
 21
129.0845
 31
0.0
210
0.0
220
0.0
230
1.0
100
AcDbText
  0
TEXT
  5
622
100
AcDbEntity
  8
1
  6
CONTINUOUS
 62
     7
100
AcDbText
 10
208.4862
 20
94.0182
 30
0.0
 40
3.0
  1
100mm
  7
MONOTXT
 72
     4
 11
215.8562
 21
95.5182
 31
0.0
210
0.0
220
0.0
230
1.0
100
AcDbText
  0
TEXT
  5
623
100
AcDbEntity
  8
1
  6
CONTINUOUS
 62
     7
100
AcDbText
 10
319.4587
 20
127.5845
 30
0.0
 40
3.0
  1
100mm
  7
MONOTXT
 72
     4
 11
326.8287
 21
129.0845
 31
0.0
210
0.0
220
0.0
230
1.0
100
AcDbText
  0
TEXT
  5
624
100
AcDbEntity
  8
1
  6
CONTINUOUS
 62
     7
100
AcDbText
 10
321.4119
 20
94.0182
 30
0.0
 40
3.0
  1
100mm
  7
MONOTXT
 72
     4
 11
328.7819
 21
95.5182
 31
0.0
210
0.0
220
0.0
230
1.0
100
AcDbText
  0
TEXT
  5
625
100
AcDbEntity
  8
1
  6
CONTINUOUS
 62
     7
100
AcDbText
 10
221.0578
 20
34.0277
 30
0.0
 40
3.0
  1
90mm
  7
MONOTXT
 72
     4
 11
227.5066
 21
35.5277
 31
0.0
210
0.0
220
0.0
230
1.0
100
AcDbText
  0
TEXT
  5
626
100
AcDbEntity
  8
1
  6
CONTINUOUS
 62
     7
100
AcDbText
 10
333.2731
 20
34.0277
 30
0.0
 40
3.0
  1
90mm
  7
MONOTXT
 72
     4
 11
339.7219
 21
35.5277
 31
0.0
210
0.0
220
0.0
230
1.0
100
AcDbText
  0
TEXT
  5
627
100
AcDbEntity
  8
1
  6
CONTINUOUS
 62
     7
100
AcDbText
 10
162.8779
 20
51.5692
 30
0.0
 40
3.0
  1
2.1m MIN.
 50
90.0
  7
MONOTXT
 72
     4
 11
161.3779
 21
62.4944
 31
0.0
210
0.0
220
0.0
230
1.0
100
AcDbText
  0
TEXT
  5
628
100
AcDbEntity
  8
1
  6
CONTINUOUS
 62
     7
100
AcDbText
 10
266.2144
 20
54.5919
 30
0.0
 40
3.0
  1
2.1m MIN.
 50
90.0
  7
MONOTXT
 72
     4
 11
264.7144
 21
65.5171
 31
0.0
210
0.0
220
0.0
230
1.0
100
AcDbText
  0
TEXT
  5
629
100
AcDbEntity
  8
1
  6
CONTINUOUS
 62
     7
100
AcDbText
 10
379.6738
 20
52.9896
 30
0.0
 40
3.0
  1
2.1m MIN.
 50
90.0
  7
MONOTXT
 72
     4
 11
378.1738
 21
63.9148
 31
0.0
210
0.0
220
0.0
230
1.0
100
AcDbText
  0
TEXT
  5
62A
100
AcDbEntity
  8
1
  6
CONTINUOUS
 62
     7
100
AcDbText
 10
190.2954
 20
67.1749
 30
0.0
 40
3.0
  1
2.74m MIN.
 50
90.0
  7
MONOTXT
 72
     4
 11
188.7954
 21
80.3205
 31
0.0
210
0.0
220
0.0
230
1.0
100
AcDbText
  0
TEXT
  5
62B
100
AcDbEntity
  8
1
  6
CONTINUOUS
 62
     7
100
AcDbText
 10
437.8059
 20
197.605
 30
0.0
 40
3.0
  1
75mm
  7
MONOTXT
 72
     4
 11
444.3492
 21
199.105
 31
0.0
210
0.0
220
0.0
230
1.0
100
AcDbText
  0
TEXT
  5
62C
100
AcDbEntity
  8
1
  6
CONTINUOUS
 62
     7
100
AcDbText
 10
429.3658
 20
160.9731
 30
0.0
 40
3.0
  1
100mm
  7
MONOTXT
 72
     4
 11
436.7358
 21
162.4731
 31
0.0
210
0.0
220
0.0
230
1.0
100
AcDbText
  0
TEXT
  5
62D
100
AcDbEntity
  8
1
  6
CONTINUOUS
 62
     7
100
AcDbText
 10
430.0761
 20
127.7621
 30
0.0
 40
3.0
  1
100mm
  7
MONOTXT
 72
     4
 11
437.4461
 21
129.2621
 31
0.0
210
0.0
220
0.0
230
1.0
100
AcDbText
  0
TEXT
  5
62E
100
AcDbEntity
  8
1
  6
CONTINUOUS
 62
     7
100
AcDbText
 10
431.8516
 20
94.0182
 30
0.0
 40
3.0
  1
100mm
  7
MONOTXT
 72
     4
 11
439.2216
 21
95.5182
 31
0.0
210
0.0
220
0.0
230
1.0
100
AcDbText
  0
TEXT
  5
62F
100
AcDbEntity
  8
1
  6
CONTINUOUS
 62
     7
100
AcDbText
 10
489.4033
 20
52.2792
 30
0.0
 40
3.0
  1
2.1m MIN.
 50
90.0
  7
MONOTXT
 72
     4
 11
487.9033
 21
63.2044
 31
0.0
210
0.0
220
0.0
230
1.0
100
AcDbText
  0
TEXT
  5
630
100
AcDbEntity
  8
1
  6
CONTINUOUS
 62
     7
100
AcDbText
 10
443.5354
 20
34.2053
 30
0.0
 40
3.0
  1
90mm
  7
MONOTXT
 72
     4
 11
449.9842
 21
35.7053
 31
0.0
210
0.0
220
0.0
230
1.0
100
AcDbText
  0
TEXT
  5
631
100
AcDbEntity
  8
1
  6
CONTINUOUS
 62
     7
100
AcDbText
 10
550.0689
 20
34.2053
 30
0.0
 40
3.0
  1
90mm
  7
MONOTXT
 72
     4
 11
556.5177
 21
35.7053
 31
0.0
210
0.0
220
0.0
230
1.0
100
AcDbText
  0
TEXT
  5
632
100
AcDbEntity
  8
1
  6
CONTINUOUS
 62
     7
100
AcDbText
 10
596.8246
 20
54.4104
 30
0.0
 40
3.0
  1
2.1m MIN.
 50
90.0
  7
MONOTXT
 72
     4
 11
595.3246
 21
65.3356
 31
0.0
210
0.0
220
0.0
230
1.0
100
AcDbText
  0
TEXT
  5
633
100
AcDbEntity
  8
1
  6
CONTINUOUS
 62
     7
100
AcDbText
 10
518.5374
 20
147.5843
 30
0.0
 40
3.0
  1
KEEPER PLATE SHALL BE FABRICATED FROM 0.4mm
  7
MONOTXT
 11
518.5374
 21
150.5843
 31
0.0
210
0.0
220
0.0
230
1.0
100
AcDbText
 73
     3
  0
TEXT
  5
634
100
AcDbEntity
  8
1
  6
CONTINUOUS
 62
     7
100
AcDbText
 10
518.5374
 20
142.1843
 30
0.0
 40
3.0
  1
GUAGE COMMERCIAL GRADE SHEET STEEL (GALV.).
  7
MONOTXT
 11
518.5374
 21
145.1843
 31
0.0
210
0.0
220
0.0
230
1.0
100
AcDbText
 73
     3
  0
TEXT
  5
635
100
AcDbEntity
  8
1
  6
CONTINUOUS
 62
     7
100
AcDbText
 10
543.8699
 20
130.3517
 30
0.0
 40
3.0
  1
2.44m x 0.91m MAX.
  7
MONOTXT
 72
     4
 11
569.0628
 21
131.8517
 31
0.0
210
0.0
220
0.0
230
1.0
100
AcDbText
  0
TEXT
  5
636
100
AcDbEntity
  8
1
  6
CONTINUOUS
 62
     7
100
AcDbText
 10
240.2087
 20
-192.1297
 30
0.0
 40
3.0
  1
SKIRT
  7
MONOTXT
 72
     4
 11
246.1732
 21
-190.6297
 31
0.0
210
0.0
220
0.0
230
1.0
100
AcDbText
  0
TEXT
  5
637
100
AcDbEntity
  8
1
  6
CONTINUOUS
 62
     7
100
AcDbText
 10
235.1063
 20
-197.5297
 30
0.0
 40
3.0
  1
VARIATION
  7
MONOTXT
 72
     4
 11
246.1732
 21
-196.0297
 31
0.0
210
0.0
220
0.0
230
1.0
100
AcDbText
  0
TEXT
  5
638
100
AcDbEntity
  8
1
  6
CONTINUOUS
 62
     7
100
AcDbText
 10
229.189
 20
-202.9297
 30
0.0
 40
3.0
  1
DEPTH  1.3mm
  7
MONOTXT
 72
     4
 11
246.1732
 21
-201.4297
 31
0.0
210
0.0
220
0.0
230
1.0
100
AcDbText
  0
TEXT
  5
639
100
AcDbEntity
  8
1
  6
CONTINUOUS
 62
     7
100
AcDbText
 10
345.5093
 20
-209.5307
 30
0.0
 40
3.0
  1
25mm MIN.
  7
MONOTXT
 72
     4
 11
358.3243
 21
-208.0307
 31
0.0
210
0.0
220
0.0
230
1.0
100
AcDbText
  0
TEXT
  5
63A
100
AcDbEntity
  8
1
  6
CONTINUOUS
 62
     7
100
AcDbText
 10
344.5173
 20
-214.9307
 30
0.0
 40
3.0
  1
45mm MAX.
  7
MONOTXT
 72
     4
 11
358.3243
 21
-213.4307
 31
0.0
210
0.0
220
0.0
230
1.0
100
AcDbText
  0
TEXT
  5
63B
100
AcDbEntity
  8
1
  6
CONTINUOUS
 62
     7
100
AcDbText
 10
288.9889
 20
-231.1906
 30
0.0
 40
3.0
  1
PIPE O.D. -
  7
MONOTXT
 72
     4
 11
301.355
 21
-229.6906
 31
0.0
210
0.0
220
0.0
230
1.0
100
AcDbText
  0
TEXT
  5
63C
100
AcDbEntity
  8
1
  6
CONTINUOUS
 62
     7
100
AcDbText
 10
279.4102
 20
-235.9906
 30
0.0
 40
3.0
  1
0.65mm  0.25mm
  7
MONOTXT
 72
     4
 11
301.355
 21
-234.4906
 31
0.0
210
0.0
220
0.0
230
1.0
100
AcDbText
  0
TEXT
  5
63D
100
AcDbEntity
  8
1
  6
CONTINUOUS
 62
     7
100
AcDbText
 10
288.7225
 20
-240.2482
 30
0.0
 40
3.0
  1
PIPE O.D. -
  7
MONOTXT
 72
     4
 11
301.0886
 21
-238.7482
 31
0.0
210
0.0
220
0.0
230
1.0
100
AcDbText
  0
TEXT
  5
63E
100
AcDbEntity
  8
1
  6
CONTINUOUS
 62
     7
100
AcDbText
 10
279.1438
 20
-245.0482
 30
0.0
 40
3.0
  1
0.65mm  0.25mm
  7
MONOTXT
 72
     4
 11
301.0886
 21
-243.5482
 31
0.0
210
0.0
220
0.0
230
1.0
100
AcDbText
  0
TEXT
  5
63F
100
AcDbEntity
  8
1
  6
CONTINUOUS
 62
     7
100
AcDbText
 10
299.3362
 20
-245.6383
 30
0.0
 40
4.8
  1
+
  7
MONOTXT
 72
     4
 11
300.4134
 21
-243.2383
 31
0.0
210
0.0
220
0.0
230
1.0
100
AcDbText
  0
TEXT
  5
640
100
AcDbEntity
  8
1
  6
CONTINUOUS
 62
     7
100
AcDbText
 10
299.4549
 20
-247.2411
 30
0.0
 40
4.8
  1
-
  7
MONOTXT
 72
     4
 11
300.5321
 21
-244.8411
 31
0.0
210
0.0
220
0.0
230
1.0
100
AcDbText
  0
TEXT
  5
641
100
AcDbEntity
  8
1
  6
CONTINUOUS
 62
     7
100
AcDbText
 10
389.5144
 20
-199.1738
 30
0.0
 40
3.0
  1
45mm
  7
MONOTXT
 72
     4
 11
396.105
 21
-197.6738
 31
0.0
210
0.0
220
0.0
230
1.0
100
AcDbText
  0
TEXT
  5
642
100
AcDbEntity
  8
1
  6
CONTINUOUS
 62
     7
100
AcDbText
 10
384.0087
 20
-212.9377
 30
0.0
 40
3.0
  1
12mm
  7
MONOTXT
 72
     4
 11
389.8906
 21
-211.4377
 31
0.0
210
0.0
220
0.0
230
1.0
100
AcDbText
  0
TEXT
  5
643
100
AcDbEntity
  8
1
  6
CONTINUOUS
 62
     7
100
AcDbText
 10
403.0073
 20
-223.0609
 30
0.0
 40
3.0
  1
21mm
  7
MONOTXT
 72
     4
 11
408.8892
 21
-221.5609
 31
0.0
210
0.0
220
0.0
230
1.0
100
AcDbText
  0
TEXT
  5
644
100
AcDbEntity
  8
1
  6
CONTINUOUS
 62
     7
100
AcDbText
 10
422.3623
 20
-223.4161
 30
0.0
 40
3.0
  1
45mm
  7
MONOTXT
 72
     4
 11
428.9529
 21
-221.9161
 31
0.0
210
0.0
220
0.0
230
1.0
100
AcDbText
  0
TEXT
  5
645
100
AcDbEntity
  8
1
  6
CONTINUOUS
 62
     7
100
AcDbText
 10
447.0445
 20
-74.8071
 30
0.0
 40
3.0
  1
PROVIDE 20mm
  7
MONOTXT
 11
447.0445
 21
-71.8071
 31
0.0
210
0.0
220
0.0
230
1.0
100
AcDbText
 73
     3
  0
TEXT
  5
646
100
AcDbEntity
  8
1
  6
CONTINUOUS
 62
     7
100
AcDbText
 10
447.0445
 20
-80.2071
 30
0.0
 40
3.0
  1
MAX. HOLE
  7
MONOTXT
 11
447.0445
 21
-77.2071
 31
0.0
210
0.0
220
0.0
230
1.0
100
AcDbText
 73
     3
  0
TEXT
  5
647
100
AcDbEntity
  8
1
  6
CONTINUOUS
 62
     7
100
AcDbText
 10
447.0445
 20
-85.6071
 30
0.0
 40
3.0
  1
IN BASE PL.
  7
MONOTXT
 11
447.0445
 21
-82.6071
 31
0.0
210
0.0
220
0.0
230
1.0
100
AcDbText
 73
     3
  0
TEXT
  5
648
100
AcDbEntity
  8
1
  6
CONTINUOUS
 62
     7
100
AcDbText
 10
447.0445
 20
-91.0071
 30
0.0
 40
3.0
  1
GALV. DRAIN
  7
MONOTXT
 11
447.0445
 21
-88.0071
 31
0.0
210
0.0
220
0.0
230
1.0
100
AcDbText
 73
     3
  0
TEXT
  5
649
100
AcDbEntity
  8
1
  6
CONTINUOUS
 62
     7
100
AcDbText
 10
477.8445
 20
-102.4753
 30
0.0
 40
3.0
  1
3.1875
 50
341.906408
 41
0.666633
  7
MONOTXT
 72
     1
 11
482.342505
 21
-103.944918
 31
0.0
210
0.0
220
0.0
230
1.0
100
AcDbText
  0
TEXT
  5
64A
100
AcDbEntity
  8
1
  6
CONTINUOUS
 62
     7
100
AcDbText
 10
470.1775
 20
-125.6506
 30
0.0
 40
3.0
  1
R    1/2  BOLT
  7
MONOTXT
 72
     4
 11
486.5121
 21
-124.1506
 31
0.0
210
0.0
220
0.0
230
1.0
100
AcDbText
  0
TEXT
  5
64B
100
AcDbEntity
  8
1
  6
CONTINUOUS
 62
     7
100
AcDbText
 10
472.8113
 20
-131.0506
 30
0.0
 40
3.0
  1
DIA.   0.8mm
  7
MONOTXT
 72
     4
 11
486.5121
 21
-129.5506
 31
0.0
210
0.0
220
0.0
230
1.0
100
AcDbText
  0
TEXT
  5
64C
100
AcDbEntity
  8
1
  6
CONTINUOUS
 62
     7
100
AcDbText
 10
470.6164
 20
-219.398
 30
0.0
 40
3.12
  1
12.7mmx64mm
 41
0.625
  7
MONOTXT
 72
     4
 11
481.2876
 21
-217.838
 31
0.0
210
0.0
220
0.0
230
1.0
100
AcDbText
  0
TEXT
  5
64D
100
AcDbEntity
  8
1
  6
CONTINUOUS
 62
     7
100
AcDbText
 10
470.7317
 20
-226.3244
 30
0.0
 40
3.12
  1
12.7mmx64mm
 41
0.625
  7
MONOTXT
 72
     4
 11
481.4029
 21
-224.7644
 31
0.0
210
0.0
220
0.0
230
1.0
100
AcDbText
  0
TEXT
  5
64E
100
AcDbEntity
  8
1
  6
CONTINUOUS
 62
     7
100
AcDbText
 10
470.6624
 20
-232.9045
 30
0.0
 40
3.12
  1
15.9mmx70mm
 41
0.625
  7
MONOTXT
 72
     4
 11
481.2876
 21
-231.3445
 31
0.0
210
0.0
220
0.0
230
1.0
100
AcDbText
  0
TEXT
  5
64F
100
AcDbEntity
  8
1
  6
CONTINUOUS
 62
     7
100
AcDbText
 10
494.1824
 20
-218.2185
 30
0.0
 40
2.599999
  1
114.3
 41
0.75
  7
MONOTXT
 72
     4
 11
497.4452
 21
-216.9185
 31
0.0
210
0.0
220
0.0
230
1.0
100
AcDbText
  0
TEXT
  5
650
100
AcDbEntity
  8
1
  6
CONTINUOUS
 62
     7
100
AcDbText
 10
495.142
 20
-220.981
 30
0.0
 40
2.599999
  1
mm
 41
0.75
  7
MONOTXT
 72
     4
 11
497.4452
 21
-219.681
 31
0.0
210
0.0
220
0.0
230
1.0
100
AcDbText
  0
TEXT
  5
651
100
AcDbEntity
  8
1
  6
CONTINUOUS
 62
     7
100
AcDbText
 10
493.7368
 20
-224.7986
 30
0.0
 40
2.599999
  1
139.7
 41
0.75
  7
MONOTXT
 72
     4
 11
497.3297
 21
-223.4986
 31
0.0
210
0.0
220
0.0
230
1.0
100
AcDbText
  0
TEXT
  5
652
100
AcDbEntity
  8
1
  6
CONTINUOUS
 62
     7
100
AcDbText
 10
495.0266
 20
-227.5611
 30
0.0
 40
2.599999
  1
mm
 41
0.75
  7
MONOTXT
 72
     4
 11
497.3298
 21
-226.2611
 31
0.0
210
0.0
220
0.0
230
1.0
100
AcDbText
  0
TEXT
  5
653
100
AcDbEntity
  8
1
  6
CONTINUOUS
 62
     7
100
AcDbText
 10
493.3993
 20
-231.3787
 30
0.0
 40
2.599999
  1
203.2
 41
0.75
  7
MONOTXT
 72
     4
 11
497.4451
 21
-230.0787
 31
0.0
210
0.0
220
0.0
230
1.0
100
AcDbText
  0
TEXT
  5
654
100
AcDbEntity
  8
1
  6
CONTINUOUS
 62
     7
100
AcDbText
 10
495.142
 20
-234.1412
 30
0.0
 40
2.599999
  1
mm
 41
0.75
  7
MONOTXT
 72
     4
 11
497.4452
 21
-232.8412
 31
0.0
210
0.0
220
0.0
230
1.0
100
AcDbText
  0
TEXT
  5
655
100
AcDbEntity
  8
1
  6
CONTINUOUS
 62
     7
100
AcDbText
 10
503.7085
 20
-218.2185
 30
0.0
 40
2.599999
  1
177.8
 41
0.75
  7
MONOTXT
 72
     4
 11
507.3705
 21
-216.9185
 31
0.0
210
0.0
220
0.0
230
1.0
100
AcDbText
  0
TEXT
  5
656
100
AcDbEntity
  8
1
  6
CONTINUOUS
 62
     7
100
AcDbText
 10
505.0674
 20
-220.981
 30
0.0
 40
2.599999
  1
mm
 41
0.75
  7
MONOTXT
 72
     4
 11
507.3706
 21
-219.681
 31
0.0
210
0.0
220
0.0
230
1.0
100
AcDbText
  0
TEXT
  5
657
100
AcDbEntity
  8
1
  6
CONTINUOUS
 62
     7
100
AcDbText
 10
503.0949
 20
-224.6831
 30
0.0
 40
2.599999
  1
196.85
 41
0.75
  7
MONOTXT
 72
     4
 11
507.6013
 21
-223.3831
 31
0.0
210
0.0
220
0.0
230
1.0
100
AcDbText
  0
TEXT
  5
658
100
AcDbEntity
  8
1
  6
CONTINUOUS
 62
     7
100
AcDbText
 10
505.2983
 20
-227.4456
 30
0.0
 40
2.599999
  1
mm
 41
0.75
  7
MONOTXT
 72
     4
 11
507.6015
 21
-226.1456
 31
0.0
210
0.0
220
0.0
230
1.0
100
AcDbText
  0
TEXT
  5
659
100
AcDbEntity
  8
1
  6
CONTINUOUS
 62
     7
100
AcDbText
 10
503.6325
 20
-231.3787
 30
0.0
 40
2.599999
  1
254.0
 41
0.75
  7
MONOTXT
 72
     4
 11
507.7167
 21
-230.0787
 31
0.0
210
0.0
220
0.0
230
1.0
100
AcDbText
  0
TEXT
  5
65A
100
AcDbEntity
  8
1
  6
CONTINUOUS
 62
     7
100
AcDbText
 10
505.4136
 20
-234.1412
 30
0.0
 40
2.599999
  1
mm
 41
0.75
  7
MONOTXT
 72
     4
 11
507.7168
 21
-232.8412
 31
0.0
210
0.0
220
0.0
230
1.0
100
AcDbText
  0
TEXT
  5
65B
100
AcDbEntity
  8
1
  6
CONTINUOUS
 62
     7
100
AcDbText
 10
514.633
 20
-218.2185
 30
0.0
 40
2.599999
  1
25.4
 41
0.75
  7
MONOTXT
 72
     4
 11
517.7576
 21
-216.9185
 31
0.0
210
0.0
220
0.0
230
1.0
100
AcDbText
  0
TEXT
  5
65C
100
AcDbEntity
  8
1
  6
CONTINUOUS
 62
     7
100
AcDbText
 10
515.4544
 20
-220.981
 30
0.0
 40
2.599999
  1
mm
 41
0.75
  7
MONOTXT
 72
     4
 11
517.7576
 21
-219.681
 31
0.0
210
0.0
220
0.0
230
1.0
100
AcDbText
  0
TEXT
  5
65D
100
AcDbEntity
  8
1
  6
CONTINUOUS
 62
     7
100
AcDbText
 10
514.633
 20
-224.7986
 30
0.0
 40
2.599999
  1
25.4
 41
0.75
  7
MONOTXT
 72
     4
 11
517.7576
 21
-223.4986
 31
0.0
210
0.0
220
0.0
230
1.0
100
AcDbText
  0
TEXT
  5
65E
100
AcDbEntity
  8
1
  6
CONTINUOUS
 62
     7
100
AcDbText
 10
515.4544
 20
-227.5611
 30
0.0
 40
2.599999
  1
mm
 41
0.75
  7
MONOTXT
 72
     4
 11
517.7576
 21
-226.2611
 31
0.0
210
0.0
220
0.0
230
1.0
100
AcDbText
  0
TEXT
  5
65F
100
AcDbEntity
  8
1
  6
CONTINUOUS
 62
     7
100
AcDbText
 10
513.9956
 20
-231.3787
 30
0.0
 40
2.599999
  1
31.75
 41
0.75
  7
MONOTXT
 72
     4
 11
517.6422
 21
-230.0787
 31
0.0
210
0.0
220
0.0
230
1.0
100
AcDbText
  0
TEXT
  5
660
100
AcDbEntity
  8
1
  6
CONTINUOUS
 62
     7
100
AcDbText
 10
515.3391
 20
-234.1412
 30
0.0
 40
2.599999
  1
mm
 41
0.75
  7
MONOTXT
 72
     4
 11
517.6423
 21
-232.8412
 31
0.0
210
0.0
220
0.0
230
1.0
100
AcDbText
  0
TEXT
  5
661
100
AcDbEntity
  8
1
  6
CONTINUOUS
 62
     7
100
AcDbText
 10
524.9968
 20
-218.2185
 30
0.0
 40
2.599999
  1
63.5
 41
0.75
  7
MONOTXT
 72
     4
 11
528.0292
 21
-216.9185
 31
0.0
210
0.0
220
0.0
230
1.0
100
AcDbText
  0
TEXT
  5
662
100
AcDbEntity
  8
1
  6
CONTINUOUS
 62
     7
100
AcDbText
 10
525.7261
 20
-220.981
 30
0.0
 40
2.599999
  1
mm
 41
0.75
  7
MONOTXT
 72
     4
 11
528.0293
 21
-219.681
 31
0.0
210
0.0
220
0.0
230
1.0
100
AcDbText
  0
TEXT
  5
663
100
AcDbEntity
  8
1
  6
CONTINUOUS
 62
     7
100
AcDbText
 10
524.9968
 20
-224.7986
 30
0.0
 40
2.599999
  1
88.9
 41
0.75
  7
MONOTXT
 72
     4
 11
528.0292
 21
-223.4986
 31
0.0
210
0.0
220
0.0
230
1.0
100
AcDbText
  0
TEXT
  5
664
100
AcDbEntity
  8
1
  6
CONTINUOUS
 62
     7
100
AcDbText
 10
525.7261
 20
-227.5611
 30
0.0
 40
2.599999
  1
mm
 41
0.75
  7
MONOTXT
 72
     4
 11
528.0293
 21
-226.2611
 31
0.0
210
0.0
220
0.0
230
1.0
100
AcDbText
  0
TEXT
  5
665
100
AcDbEntity
  8
1
  6
CONTINUOUS
 62
     7
100
AcDbText
 10
524.0899
 20
-231.3787
 30
0.0
 40
2.599999
  1
139.7
 41
0.75
  7
MONOTXT
 72
     4
 11
527.6828
 21
-230.0787
 31
0.0
210
0.0
220
0.0
230
1.0
100
AcDbText
  0
TEXT
  5
666
100
AcDbEntity
  8
1
  6
CONTINUOUS
 62
     7
100
AcDbText
 10
525.3798
 20
-234.1412
 30
0.0
 40
2.599999
  1
mm
 41
0.75
  7
MONOTXT
 72
     4
 11
527.683
 21
-232.8412
 31
0.0
210
0.0
220
0.0
230
1.0
100
AcDbText
  0
TEXT
  5
667
100
AcDbEntity
  8
1
  6
CONTINUOUS
 62
     7
100
AcDbText
 10
534.254
 20
-218.1031
 30
0.0
 40
2.599999
  1
19.05
 41
0.75
  7
MONOTXT
 72
     4
 11
537.8392
 21
-216.8031
 31
0.0
210
0.0
220
0.0
230
1.0
100
AcDbText
  0
TEXT
  5
668
100
AcDbEntity
  8
1
  6
CONTINUOUS
 62
     7
100
AcDbText
 10
535.536
 20
-220.8656
 30
0.0
 40
2.599999
  1
mm
 41
0.75
  7
MONOTXT
 72
     4
 11
537.8392
 21
-219.5656
 31
0.0
210
0.0
220
0.0
230
1.0
100
AcDbText
  0
TEXT
  5
669
100
AcDbEntity
  8
1
  6
CONTINUOUS
 62
     7
100
AcDbText
 10
534.3693
 20
-224.7986
 30
0.0
 40
2.599999
  1
19.05
 41
0.75
  7
MONOTXT
 72
     4
 11
537.9545
 21
-223.4986
 31
0.0
210
0.0
220
0.0
230
1.0
100
AcDbText
  0
TEXT
  5
66A
100
AcDbEntity
  8
1
  6
CONTINUOUS
 62
     7
100
AcDbText
 10
535.6514
 20
-227.5611
 30
0.0
 40
2.599999
  1
mm
 41
0.75
  7
MONOTXT
 72
     4
 11
537.9546
 21
-226.2611
 31
0.0
210
0.0
220
0.0
230
1.0
100
AcDbText
  0
TEXT
  5
66B
100
AcDbEntity
  8
1
  6
CONTINUOUS
 62
     7
100
AcDbText
 10
534.83
 20
-231.4941
 30
0.0
 40
2.599999
  1
25.4
 41
0.75
  7
MONOTXT
 72
     4
 11
537.9546
 21
-230.1941
 31
0.0
210
0.0
220
0.0
230
1.0
100
AcDbText
  0
TEXT
  5
66C
100
AcDbEntity
  8
1
  6
CONTINUOUS
 62
     7
100
AcDbText
 10
535.6515
 20
-234.2566
 30
0.0
 40
2.599999
  1
mm
 41
0.75
  7
MONOTXT
 72
     4
 11
537.9547
 21
-232.9566
 31
0.0
210
0.0
220
0.0
230
1.0
100
AcDbText
  0
TEXT
  5
66D
100
AcDbEntity
  8
1
  6
CONTINUOUS
 62
     7
100
AcDbText
 10
544.7486
 20
-218.1031
 30
0.0
 40
2.599999
  1
139.7
 41
0.75
  7
MONOTXT
 72
     4
 11
548.3415
 21
-216.8031
 31
0.0
210
0.0
220
0.0
230
1.0
100
AcDbText
  0
TEXT
  5
66E
100
AcDbEntity
  8
1
  6
CONTINUOUS
 62
     7
100
AcDbText
 10
546.0385
 20
-220.8656
 30
0.0
 40
2.599999
  1
mm
 41
0.75
  7
MONOTXT
 72
     4
 11
548.3417
 21
-219.5656
 31
0.0
210
0.0
220
0.0
230
1.0
100
AcDbText
  0
TEXT
  5
66F
100
AcDbEntity
  8
1
  6
CONTINUOUS
 62
     7
100
AcDbText
 10
544.2957
 20
-231.6095
 30
0.0
 40
2.599999
  1
203.2
 41
0.75
  7
MONOTXT
 72
     4
 11
548.3415
 21
-230.3095
 31
0.0
210
0.0
220
0.0
230
1.0
100
AcDbText
  0
TEXT
  5
670
100
AcDbEntity
  8
1
  6
CONTINUOUS
 62
     7
100
AcDbText
 10
546.0385
 20
-234.372
 30
0.0
 40
2.599999
  1
mm
 41
0.75
  7
MONOTXT
 72
     4
 11
548.3417
 21
-233.072
 31
0.0
210
0.0
220
0.0
230
1.0
100
AcDbText
  0
TEXT
  5
671
100
AcDbEntity
  8
1
  6
CONTINUOUS
 62
     7
100
AcDbText
 10
543.4967
 20
-224.7986
 30
0.0
 40
2.599999
  1
158.75
 41
0.75
  7
MONOTXT
 72
     4
 11
548.1107
 21
-223.4986
 31
0.0
210
0.0
220
0.0
230
1.0
100
AcDbText
  0
TEXT
  5
672
100
AcDbEntity
  8
1
  6
CONTINUOUS
 62
     7
100
AcDbText
 10
545.8076
 20
-227.5611
 30
0.0
 40
2.599999
  1
mm
 41
0.75
  7
MONOTXT
 72
     4
 11
548.1108
 21
-226.2611
 31
0.0
210
0.0
220
0.0
230
1.0
100
AcDbText
  0
TEXT
  5
673
100
AcDbEntity
  8
1
  6
CONTINUOUS
 62
     7
100
AcDbText
 10
556.9923
 20
-218.2185
 30
0.0
 40
2.599999
  1
19
 41
0.75
  7
MONOTXT
 72
     4
 11
558.1515
 21
-216.9185
 31
0.0
210
0.0
220
0.0
230
1.0
100
AcDbText
  0
TEXT
  5
674
100
AcDbEntity
  8
1
  6
CONTINUOUS
 62
     7
100
AcDbText
 10
555.8484
 20
-220.981
 30
0.0
 40
2.599999
  1
mm
 41
0.75
  7
MONOTXT
 72
     4
 11
558.1516
 21
-219.681
 31
0.0
210
0.0
220
0.0
230
1.0
100
AcDbText
  0
TEXT
  5
675
100
AcDbEntity
  8
1
  6
CONTINUOUS
 62
     7
100
AcDbText
 10
556.877
 20
-224.6831
 30
0.0
 40
2.599999
  1
19
 41
0.75
  7
MONOTXT
 72
     4
 11
558.0362
 21
-223.3831
 31
0.0
210
0.0
220
0.0
230
1.0
100
AcDbText
  0
TEXT
  5
676
100
AcDbEntity
  8
1
  6
CONTINUOUS
 62
     7
100
AcDbText
 10
555.7331
 20
-227.4456
 30
0.0
 40
2.599999
  1
mm
 41
0.75
  7
MONOTXT
 72
     4
 11
558.0363
 21
-226.1456
 31
0.0
210
0.0
220
0.0
230
1.0
100
AcDbText
  0
TEXT
  5
677
100
AcDbEntity
  8
1
  6
CONTINUOUS
 62
     7
100
AcDbText
 10
556.9923
 20
-231.3787
 30
0.0
 40
2.599999
  1
19
 41
0.75
  7
MONOTXT
 72
     4
 11
558.1515
 21
-230.0787
 31
0.0
210
0.0
220
0.0
230
1.0
100
AcDbText
  0
TEXT
  5
678
100
AcDbEntity
  8
1
  6
CONTINUOUS
 62
     7
100
AcDbText
 10
555.8484
 20
-234.1412
 30
0.0
 40
2.599999
  1
mm
 41
0.75
  7
MONOTXT
 72
     4
 11
558.1516
 21
-232.8412
 31
0.0
210
0.0
220
0.0
230
1.0
100
AcDbText
  0
TEXT
  5
679
100
AcDbEntity
  8
1
  6
CONTINUOUS
 62
     7
100
AcDbText
 10
565.2139
 20
-218.1031
 30
0.0
 40
2.599999
  1
7.94
 41
0.75
  7
MONOTXT
 72
     4
 11
568.3077
 21
-216.8031
 31
0.0
210
0.0
220
0.0
230
1.0
100
AcDbText
  0
TEXT
  5
67A
100
AcDbEntity
  8
1
  6
CONTINUOUS
 62
     7
100
AcDbText
 10
566.0047
 20
-220.8656
 30
0.0
 40
2.599999
  1
mm
 41
0.75
  7
MONOTXT
 72
     4
 11
568.3079
 21
-219.5656
 31
0.0
210
0.0
220
0.0
230
1.0
100
AcDbText
  0
TEXT
  5
67B
100
AcDbEntity
  8
1
  6
CONTINUOUS
 62
     7
100
AcDbText
 10
565.5062
 20
-224.7986
 30
0.0
 40
2.599999
  1
9.53
 41
0.75
  7
MONOTXT
 72
     4
 11
568.5386
 21
-223.4986
 31
0.0
210
0.0
220
0.0
230
1.0
100
AcDbText
  0
TEXT
  5
67C
100
AcDbEntity
  8
1
  6
CONTINUOUS
 62
     7
100
AcDbText
 10
566.2355
 20
-227.5611
 30
0.0
 40
2.599999
  1
mm
 41
0.75
  7
MONOTXT
 72
     4
 11
568.5387
 21
-226.2611
 31
0.0
210
0.0
220
0.0
230
1.0
100
AcDbText
  0
TEXT
  5
67D
100
AcDbEntity
  8
1
  6
CONTINUOUS
 62
     7
100
AcDbText
 10
565.4662
 20
-231.2632
 30
0.0
 40
2.599999
  1
11.11
 41
0.75
  7
MONOTXT
 72
     4
 11
567.8461
 21
-229.9632
 31
0.0
210
0.0
220
0.0
230
1.0
100
AcDbText
  0
TEXT
  5
67E
100
AcDbEntity
  8
1
  6
CONTINUOUS
 62
     7
100
AcDbText
 10
565.543
 20
-234.0257
 30
0.0
 40
2.599999
  1
mm
 41
0.75
  7
MONOTXT
 72
     4
 11
567.8462
 21
-232.7257
 31
0.0
210
0.0
220
0.0
230
1.0
100
AcDbText
  0
TEXT
  5
67F
100
AcDbEntity
  8
1
  6
CONTINUOUS
 62
     7
100
AcDbText
 10
735.3286
 20
-108.4351
 30
0.0
 40
3.0
  1
DN80
 41
0.666633
  7
MONOTXT
 72
     4
 11
738.9662
 21
-106.9351
 31
0.0
210
0.0
220
0.0
230
1.0
100
AcDbText
  0
TEXT
  5
680
100
AcDbEntity
  8
1
  6
CONTINUOUS
 62
     7
100
AcDbText
 10
735.2871
 20
-116.6047
 30
0.0
 40
3.0
  1
DN100
 41
0.583333
  7
MONOTXT
 72
     4
 11
738.9662
 21
-115.1047
 31
0.0
210
0.0
220
0.0
230
1.0
100
AcDbText
  0
TEXT
  5
681
100
AcDbEntity
  8
1
  6
CONTINUOUS
 62
     7
100
AcDbText
 10
735.3759
 20
-141.7794
 30
0.0
 40
3.0
  1
DN100
 41
0.583333
  7
MONOTXT
 72
     4
 11
739.055
 21
-140.2794
 31
0.0
210
0.0
220
0.0
230
1.0
100
AcDbText
  0
TEXT
  5
682
100
AcDbEntity
  8
1
  6
CONTINUOUS
 62
     7
100
AcDbText
 10
735.4647
 20
-124.9519
 30
0.0
 40
3.0
  1
DN150
 41
0.583333
  7
MONOTXT
 72
     4
 11
739.1438
 21
-123.4519
 31
0.0
210
0.0
220
0.0
230
1.0
100
AcDbText
  0
TEXT
  5
683
100
AcDbEntity
  8
1
  6
CONTINUOUS
 62
     7
100
AcDbText
 10
735.3315
 20
-133.4767
 30
0.0
 40
3.0
  1
DN150
 41
0.583333
  7
MONOTXT
 72
     4
 11
739.0106
 21
-131.9767
 31
0.0
210
0.0
220
0.0
230
1.0
100
AcDbText
  0
TEXT
  5
684
100
AcDbEntity
  8
1
  6
CONTINUOUS
 62
     7
100
AcDbText
 10
745.4704
 20
-107.7742
 30
0.0
 40
3.0
  1
40
  7
MONOTXT
 72
     4
 11
748.0216
 21
-106.2742
 31
0.0
210
0.0
220
0.0
230
1.0
100
AcDbText
  0
TEXT
  5
685
100
AcDbEntity
  8
1
  6
CONTINUOUS
 62
     7
100
AcDbText
 10
745.4704
 20
-116.2742
 30
0.0
 40
3.0
  1
40
  7
MONOTXT
 72
     4
 11
748.0216
 21
-114.7742
 31
0.0
210
0.0
220
0.0
230
1.0
100
AcDbText
  0
TEXT
  5
686
100
AcDbEntity
  8
1
  6
CONTINUOUS
 62
     7
100
AcDbText
 10
745.4704
 20
-124.7742
 30
0.0
 40
3.0
  1
40
  7
MONOTXT
 72
     4
 11
748.0216
 21
-123.2742
 31
0.0
210
0.0
220
0.0
230
1.0
100
AcDbText
  0
TEXT
  5
687
100
AcDbEntity
  8
1
  6
CONTINUOUS
 62
     7
100
AcDbText
 10
745.4704
 20
-133.2742
 30
0.0
 40
3.0
  1
40
  7
MONOTXT
 72
     4
 11
748.0216
 21
-131.7742
 31
0.0
210
0.0
220
0.0
230
1.0
100
AcDbText
  0
TEXT
  5
688
100
AcDbEntity
  8
1
  6
CONTINUOUS
 62
     7
100
AcDbText
 10
745.4704
 20
-141.7742
 30
0.0
 40
3.0
  1
40
  7
MONOTXT
 72
     4
 11
748.0216
 21
-140.2742
 31
0.0
210
0.0
220
0.0
230
1.0
100
AcDbText
  0
TEXT
  5
689
100
AcDbEntity
  8
1
  6
CONTINUOUS
 62
     7
100
AcDbText
 10
763.7587
 20
-108.1294
 30
0.0
 40
3.0
  1
40
  7
MONOTXT
 72
     4
 11
766.3099
 21
-106.6294
 31
0.0
210
0.0
220
0.0
230
1.0
100
AcDbText
  0
TEXT
  5
68A
100
AcDbEntity
  8
1
  6
CONTINUOUS
 62
     7
100
AcDbText
 10
763.7587
 20
-116.6294
 30
0.0
 40
3.0
  1
40
  7
MONOTXT
 72
     4
 11
766.3099
 21
-115.1294
 31
0.0
210
0.0
220
0.0
230
1.0
100
AcDbText
  0
TEXT
  5
68B
100
AcDbEntity
  8
1
  6
CONTINUOUS
 62
     7
100
AcDbText
 10
763.7587
 20
-125.1294
 30
0.0
 40
3.0
  1
40
  7
MONOTXT
 72
     4
 11
766.3099
 21
-123.6294
 31
0.0
210
0.0
220
0.0
230
1.0
100
AcDbText
  0
TEXT
  5
68C
100
AcDbEntity
  8
1
  6
CONTINUOUS
 62
     7
100
AcDbText
 10
763.7587
 20
-133.6294
 30
0.0
 40
3.0
  1
40
  7
MONOTXT
 72
     4
 11
766.3099
 21
-132.1294
 31
0.0
210
0.0
220
0.0
230
1.0
100
AcDbText
  0
TEXT
  5
68D
100
AcDbEntity
  8
1
  6
CONTINUOUS
 62
     7
100
AcDbText
 10
763.7587
 20
-142.1294
 30
0.0
 40
3.0
  1
40
  7
MONOTXT
 72
     4
 11
766.3099
 21
-140.6294
 31
0.0
210
0.0
220
0.0
230
1.0
100
AcDbText
  0
TEXT
  5
68E
100
AcDbEntity
  8
1
  6
CONTINUOUS
 62
     7
100
AcDbText
 10
753.9691
 20
-108.2629
 30
0.0
 40
3.0
  1
DN40
 41
0.666633
  7
MONOTXT
 72
     4
 11
757.6539
 21
-106.7629
 31
0.0
210
0.0
220
0.0
230
1.0
100
AcDbText
  0
TEXT
  5
68F
100
AcDbEntity
  8
1
  6
CONTINUOUS
 62
     7
100
AcDbText
 10
753.9275
 20
-116.6989
 30
0.0
 40
3.0
  1
DN50
 41
0.666633
  7
MONOTXT
 72
     4
 11
757.5651
 21
-115.1989
 31
0.0
210
0.0
220
0.0
230
1.0
100
AcDbText
  0
TEXT
  5
690
100
AcDbEntity
  8
1
  6
CONTINUOUS
 62
     7
100
AcDbText
 10
754.0163
 20
-141.8293
 30
0.0
 40
3.0
  1
DN50
 41
0.666633
  7
MONOTXT
 72
     4
 11
757.6539
 21
-140.3293
 31
0.0
210
0.0
220
0.0
230
1.0
100
AcDbText
  0
TEXT
  5
691
100
AcDbEntity
  8
1
  6
CONTINUOUS
 62
     7
100
AcDbText
 10
753.9275
 20
-125.3125
 30
0.0
 40
3.0
  1
DN80
 41
0.666633
  7
MONOTXT
 72
     4
 11
757.5651
 21
-123.8125
 31
0.0
210
0.0
220
0.0
230
1.0
100
AcDbText
  0
TEXT
  5
692
100
AcDbEntity
  8
1
  6
CONTINUOUS
 62
     7
100
AcDbText
 10
754.0163
 20
-133.3045
 30
0.0
 40
3.0
  1
DN80
 41
0.666633
  7
MONOTXT
 72
     4
 11
757.6539
 21
-131.8045
 31
0.0
210
0.0
220
0.0
230
1.0
100
AcDbText
  0
TEXT
  5
693
100
AcDbEntity
  8
1
  6
CONTINUOUS
 62
     7
100
AcDbText
 10
802.8051
 20
-107.7804
 30
0.0
 40
3.0
  1
1.4m
  7
MONOTXT
 72
     4
 11
807.5059
 21
-106.2804
 31
0.0
210
0.0
220
0.0
230
1.0
100
AcDbText
  0
TEXT
  5
694
100
AcDbEntity
  8
1
  6
CONTINUOUS
 62
     7
100
AcDbText
 10
802.8523
 20
-116.2804
 30
0.0
 40
3.0
  1
1.7m
  7
MONOTXT
 72
     4
 11
807.5059
 21
-114.7804
 31
0.0
210
0.0
220
0.0
230
1.0
100
AcDbText
  0
TEXT
  5
695
100
AcDbEntity
  8
1
  6
CONTINUOUS
 62
     7
100
AcDbText
 10
802.8051
 20
-124.7804
 30
0.0
 40
3.0
  1
1.4m
  7
MONOTXT
 72
     4
 11
807.5059
 21
-123.2804
 31
0.0
210
0.0
220
0.0
230
1.0
100
AcDbText
  0
TEXT
  5
696
100
AcDbEntity
  8
1
  6
CONTINUOUS
 62
     7
100
AcDbText
 10
802.8051
 20
-133.2804
 30
0.0
 40
3.0
  1
1.4m
  7
MONOTXT
 72
     4
 11
807.5059
 21
-131.7804
 31
0.0
210
0.0
220
0.0
230
1.0
100
AcDbText
  0
TEXT
  5
697
100
AcDbEntity
  8
1
  6
CONTINUOUS
 62
     7
100
AcDbText
 10
802.8523
 20
-141.7804
 30
0.0
 40
3.0
  1
1.7m
  7
MONOTXT
 72
     4
 11
807.5059
 21
-140.2804
 31
0.0
210
0.0
220
0.0
230
1.0
100
AcDbText
  0
TEXT
  5
698
100
AcDbEntity
  8
1
  6
CONTINUOUS
 62
     7
100
AcDbText
 10
826.7573
 20
-107.8692
 30
0.0
 40
3.0
  1
1.3m
  7
MONOTXT
 72
     4
 11
831.3872
 21
-106.3692
 31
0.0
210
0.0
220
0.0
230
1.0
100
AcDbText
  0
TEXT
  5
699
100
AcDbEntity
  8
1
  6
CONTINUOUS
 62
     7
100
AcDbText
 10
826.8282
 20
-116.3692
 30
0.0
 40
3.0
  1
1.6m
  7
MONOTXT
 72
     4
 11
831.3872
 21
-114.8692
 31
0.0
210
0.0
220
0.0
230
1.0
100
AcDbText
  0
TEXT
  5
69A
100
AcDbEntity
  8
1
  6
CONTINUOUS
 62
     7
100
AcDbText
 10
826.6864
 20
-124.8692
 30
0.0
 40
3.0
  1
1.4m
  7
MONOTXT
 72
     4
 11
831.3872
 21
-123.3692
 31
0.0
210
0.0
220
0.0
230
1.0
100
AcDbText
  0
TEXT
  5
69B
100
AcDbEntity
  8
1
  6
CONTINUOUS
 62
     7
100
AcDbText
 10
826.6864
 20
-133.3692
 30
0.0
 40
3.0
  1
1.4m
  7
MONOTXT
 72
     4
 11
831.3872
 21
-131.8692
 31
0.0
210
0.0
220
0.0
230
1.0
100
AcDbText
  0
TEXT
  5
69C
100
AcDbEntity
  8
1
  6
CONTINUOUS
 62
     7
100
AcDbText
 10
826.8282
 20
-141.8692
 30
0.0
 40
3.0
  1
1.6m
  7
MONOTXT
 72
     4
 11
831.3872
 21
-140.3692
 31
0.0
210
0.0
220
0.0
230
1.0
100
AcDbText
  0
TEXT
  5
69D
100
AcDbEntity
  8
1
  6
CONTINUOUS
 62
     7
100
AcDbText
 10
778.0905
 20
-107.6916
 30
0.0
 40
3.0
  1
0.3m
  7
MONOTXT
 72
     4
 11
783.3582
 21
-106.1916
 31
0.0
210
0.0
220
0.0
230
1.0
100
AcDbText
  0
TEXT
  5
69E
100
AcDbEntity
  8
1
  6
CONTINUOUS
 62
     7
100
AcDbText
 10
778.0905
 20
-116.1916
 30
0.0
 40
3.0
  1
0.5m
  7
MONOTXT
 72
     4
 11
783.3582
 21
-114.6916
 31
0.0
210
0.0
220
0.0
230
1.0
100
AcDbText
  0
TEXT
  5
69F
100
AcDbEntity
  8
1
  6
CONTINUOUS
 62
     7
100
AcDbText
 10
778.1614
 20
-124.6916
 30
0.0
 40
3.0
  1
0.6m
  7
MONOTXT
 72
     4
 11
783.3582
 21
-123.1916
 31
0.0
210
0.0
220
0.0
230
1.0
100
AcDbText
  0
TEXT
  5
6A0
100
AcDbEntity
  8
1
  6
CONTINUOUS
 62
     7
100
AcDbText
 10
778.1614
 20
-133.1916
 30
0.0
 40
3.0
  1
0.6m
  7
MONOTXT
 72
     4
 11
783.3582
 21
-131.6916
 31
0.0
210
0.0
220
0.0
230
1.0
100
AcDbText
  0
TEXT
  5
6A1
100
AcDbEntity
  8
1
  6
CONTINUOUS
 62
     7
100
AcDbText
 10
778.0905
 20
-141.6916
 30
0.0
 40
3.0
  1
0.5m
  7
MONOTXT
 72
     4
 11
783.3582
 21
-140.1916
 31
0.0
210
0.0
220
0.0
230
1.0
100
AcDbText
  0
TEXT
  5
6A2
100
AcDbEntity
  8
1
  6
CONTINUOUS
 62
     7
100
AcDbText
 10
670.4367
 20
195.5176
 30
0.0
 40
2.4
  1
GENERAL NOTES:
  7
MONOTXT
 11
670.4367
 21
197.9176
 31
0.0
210
0.0
220
0.0
230
1.0
100
AcDbText
 73
     3
  0
TEXT
  5
6A3
100
AcDbEntity
  8
1
  6
CONTINUOUS
 62
     7
100
AcDbText
 10
670.4367
 20
191.3176
 30
0.0
 40
2.4
  1
 
  7
MONOTXT
 11
670.4367
 21
193.7176
 31
0.0
210
0.0
220
0.0
230
1.0
100
AcDbText
 73
     3
  0
TEXT
  5
6A4
100
AcDbEntity
  8
1
  6
CONTINUOUS
 62
     7
100
AcDbText
 10
670.4367
 20
187.1176
 30
0.0
 40
2.4
  1
PIPE SHALL CONFORM TO THE REQUIREMENTS OF ASTM A-53, TYPE E OR S, 
  7
MONOTXT
 11
670.4367
 21
189.5176
 31
0.0
210
0.0
220
0.0
230
1.0
100
AcDbText
 73
     3
  0
TEXT
  5
6A5
100
AcDbEntity
  8
1
  6
CONTINUOUS
 62
     7
100
AcDbText
 10
670.4367
 20
182.9176
 30
0.0
 40
2.4
  1
GRADE B. HYDROSTATIC TESTS ARE NOT REQUIRED.
  7
MONOTXT
 11
670.4367
 21
185.3176
 31
0.0
210
0.0
220
0.0
230
1.0
100
AcDbText
 73
     3
  0
TEXT
  5
6A6
100
AcDbEntity
  8
1
  6
CONTINUOUS
 62
     7
100
AcDbText
 10
670.4367
 20
178.7176
 30
0.0
 40
2.4
  1
 
  7
MONOTXT
 11
670.4367
 21
181.1176
 31
0.0
210
0.0
220
0.0
230
1.0
100
AcDbText
 73
     3
  0
TEXT
  5
6A7
100
AcDbEntity
  8
1
  6
CONTINUOUS
 62
     7
100
AcDbText
 10
670.4367
 20
174.5176
 30
0.0
 40
2.4
  1
PLATES FOR BASE CONNECTION SHALL CONFORM TO THE REQUIREMENTS OF
  7
MONOTXT
 11
670.4367
 21
176.9176
 31
0.0
210
0.0
220
0.0
230
1.0
100
AcDbText
 73
     3
  0
TEXT
  5
6A8
100
AcDbEntity
  8
1
  6
CONTINUOUS
 62
     7
100
AcDbText
 10
670.4367
 20
170.3176
 30
0.0
 40
2.4
  1
AASHTO M270/M, GRADE 250.
  7
MONOTXT
 11
670.4367
 21
172.7176
 31
0.0
210
0.0
220
0.0
230
1.0
100
AcDbText
 73
     3
  0
TEXT
  5
6A9
100
AcDbEntity
  8
1
  6
CONTINUOUS
 62
     7
100
AcDbText
 10
670.4367
 20
166.1176
 30
0.0
 40
2.4
  1
 
  7
MONOTXT
 11
670.4367
 21
168.5176
 31
0.0
210
0.0
220
0.0
230
1.0
100
AcDbText
 73
     3
  0
TEXT
  5
6AA
100
AcDbEntity
  8
1
  6
CONTINUOUS
 62
     7
100
AcDbText
 10
670.4367
 20
161.9176
 30
0.0
 40
2.4
  1
ALL HIGH STRENGTH BOLTS, SHALL CONFORM TO THE REQUIREMENTS OF
  7
MONOTXT
 11
670.4367
 21
164.3176
 31
0.0
210
0.0
220
0.0
230
1.0
100
AcDbText
 73
     3
  0
TEXT
  5
6AB
100
AcDbEntity
  8
1
  6
CONTINUOUS
 62
     7
100
AcDbText
 10
670.4367
 20
157.7176
 30
0.0
 40
2.4
  1
ASTM A 325M AND THE REQUIREMENTS OF SECTION 709.24 OF THE SPEC-
  7
MONOTXT
 11
670.4367
 21
160.1176
 31
0.0
210
0.0
220
0.0
230
1.0
100
AcDbText
 73
     3
  0
TEXT
  5
6AC
100
AcDbEntity
  8
1
  6
CONTINUOUS
 62
     7
100
AcDbText
 10
670.4367
 20
153.5176
 30
0.0
 40
2.4
  1
IFICATIONS. NUTS AND WASHERS SHALL BE AS RECOMMENDED IN ASTM A 325M.
  7
MONOTXT
 11
670.4367
 21
155.9176
 31
0.0
210
0.0
220
0.0
230
1.0
100
AcDbText
 73
     3
  0
TEXT
  5
6AD
100
AcDbEntity
  8
1
  6
CONTINUOUS
 62
     7
100
AcDbText
 10
670.4367
 20
149.3176
 30
0.0
 40
2.4
  1
 
  7
MONOTXT
 11
670.4367
 21
151.7176
 31
0.0
210
0.0
220
0.0
230
1.0
100
AcDbText
 73
     3
  0
TEXT
  5
6AE
100
AcDbEntity
  8
1
  6
CONTINUOUS
 62
     7
100
AcDbText
 10
670.4367
 20
145.1176
 30
0.0
 40
2.4
  1
ALL SHAPES AND PLATES SHALL BE GALVANIZED PER ASTM A123. ALL BOLTS,
  7
MONOTXT
 11
670.4367
 21
147.5176
 31
0.0
210
0.0
220
0.0
230
1.0
100
AcDbText
 73
     3
  0
TEXT
  5
6AF
100
AcDbEntity
  8
1
  6
CONTINUOUS
 62
     7
100
AcDbText
 10
670.4367
 20
140.9176
 30
0.0
 40
2.4
  1
NUTS, AND WASHERS SHALL BE GALVANIZED PER ASTM 153.
  7
MONOTXT
 11
670.4367
 21
143.3176
 31
0.0
210
0.0
220
0.0
230
1.0
100
AcDbText
 73
     3
  0
TEXT
  5
6B0
100
AcDbEntity
  8
1
  6
CONTINUOUS
 62
     7
100
AcDbText
 10
670.4367
 20
136.7176
 30
0.0
 40
2.4
  1
 
  7
MONOTXT
 11
670.4367
 21
139.1176
 31
0.0
210
0.0
220
0.0
230
1.0
100
AcDbText
 73
     3
  0
TEXT
  5
6B1
100
AcDbEntity
  8
1
  6
CONTINUOUS
 62
     7
100
AcDbText
 10
670.4367
 20
132.5176
 30
0.0
 40
2.4
  1
SHIMS SHALL BE FABRICATED FROM BRASS SHIM STOCK OR STRIP CONFORMING
  7
MONOTXT
 11
670.4367
 21
134.9176
 31
0.0
210
0.0
220
0.0
230
1.0
100
AcDbText
 73
     3
  0
TEXT
  5
6B2
100
AcDbEntity
  8
1
  6
CONTINUOUS
 62
     7
100
AcDbText
 10
670.4367
 20
128.3176
 30
0.0
 40
2.4
  1
TO THE REQUIREMENTS OF ASTM B-36. FURNISH 2 0.3mm  THICK AND 2 0.8mm 
  7
MONOTXT
 11
670.4367
 21
130.7176
 31
0.0
210
0.0
220
0.0
230
1.0
100
AcDbText
 73
     3
  0
TEXT
  5
6B3
100
AcDbEntity
  8
1
  6
CONTINUOUS
 62
     7
100
AcDbText
 10
670.4367
 20
124.1176
 30
0.0
 40
2.4
  1
THICK SHIMS PER POST.
  7
MONOTXT
 11
670.4367
 21
126.5176
 31
0.0
210
0.0
220
0.0
230
1.0
100
AcDbText
 73
     3
  0
TEXT
  5
6B4
100
AcDbEntity
  8
1
  6
CONTINUOUS
 62
     7
100
AcDbText
 10
670.4367
 20
119.9176
 30
0.0
 40
2.4
  1
 
  7
MONOTXT
 11
670.4367
 21
122.3176
 31
0.0
210
0.0
220
0.0
230
1.0
100
AcDbText
 73
     3
  0
TEXT
  5
6B5
100
AcDbEntity
  8
1
  6
CONTINUOUS
 62
     7
100
AcDbText
 10
670.4367
 20
115.7176
 30
0.0
 40
2.4
  1
BASE CONNECTION
  7
MONOTXT
 11
670.4367
 21
118.1176
 31
0.0
210
0.0
220
0.0
230
1.0
100
AcDbText
 73
     3
  0
TEXT
  5
6B6
100
AcDbEntity
  8
1
  6
CONTINUOUS
 62
     7
100
AcDbText
 10
670.4367
 20
111.5176
 30
0.0
 40
2.4
  1
 
  7
MONOTXT
 11
670.4367
 21
113.9176
 31
0.0
210
0.0
220
0.0
230
1.0
100
AcDbText
 73
     3
  0
TEXT
  5
6B7
100
AcDbEntity
  8
1
  6
CONTINUOUS
 62
     7
100
AcDbText
 10
670.4367
 20
107.3176
 30
0.0
 40
2.4
  1
TIGHTEN THE HIGH STRENGTH BOLTS IN THE BASE CONNECTION TO THE
  7
MONOTXT
 11
670.4367
 21
109.7176
 31
0.0
210
0.0
220
0.0
230
1.0
100
AcDbText
 73
     3
  0
TEXT
  5
6B8
100
AcDbEntity
  8
1
  6
CONTINUOUS
 62
     7
100
AcDbText
 10
670.4367
 20
103.1176
 30
0.0
 40
2.4
  1
TORQUES AS FOLLOWS:
  7
MONOTXT
 11
670.4367
 21
105.5176
 31
0.0
210
0.0
220
0.0
230
1.0
100
AcDbText
 73
     3
  0
TEXT
  5
6B9
100
AcDbEntity
  8
1
  6
CONTINUOUS
 62
     7
100
AcDbText
 10
670.4367
 20
98.9176
 30
0.0
 40
2.4
  1
 
  7
MONOTXT
 11
670.4367
 21
101.3176
 31
0.0
210
0.0
220
0.0
230
1.0
100
AcDbText
 73
     3
  0
TEXT
  5
6BA
100
AcDbEntity
  8
1
  6
CONTINUOUS
 62
     7
100
AcDbText
 10
670.4367
 20
94.7176
 30
0.0
 40
2.4
  1
 12.7mm DIAMETER, TORQUE 10.85 TO 14.91 MEWTON-METER.
  7
MONOTXT
 11
670.4367
 21
97.1176
 31
0.0
210
0.0
220
0.0
230
1.0
100
AcDbText
 73
     3
  0
TEXT
  5
6BB
100
AcDbEntity
  8
1
  6
CONTINUOUS
 62
     7
100
AcDbText
 10
670.4367
 20
90.5176
 30
0.0
 40
2.4
  1
 15.875mm DIAMETER, TORQUE 25.76 TO 37.96 NEWTON-METER.
  7
MONOTXT
 11
670.4367
 21
92.9176
 31
0.0
210
0.0
220
0.0
230
1.0
100
AcDbText
 73
     3
  0
TEXT
  5
6BC
100
AcDbEntity
  8
1
  6
CONTINUOUS
 62
     7
100
AcDbText
 10
670.4367
 20
86.3176
 30
0.0
 40
2.4
  1
 
  7
MONOTXT
 11
670.4367
 21
88.7176
 31
0.0
210
0.0
220
0.0
230
1.0
100
AcDbText
 73
     3
  0
TEXT
  5
6BD
100
AcDbEntity
  8
1
  6
CONTINUOUS
 62
     7
100
AcDbText
 10
670.4367
 20
82.1176
 30
0.0
 40
2.4
  1
DO NOT OVERTIGHTEN
  7
MONOTXT
 11
670.4367
 21
84.5176
 31
0.0
210
0.0
220
0.0
230
1.0
100
AcDbText
 73
     3
  0
TEXT
  5
6BE
100
AcDbEntity
  8
1
  6
CONTINUOUS
 62
     7
100
AcDbText
 10
670.4367
 20
77.9176
 30
0.0
 40
2.4
  1
 
  7
MONOTXT
 11
670.4367
 21
80.3176
 31
0.0
210
0.0
220
0.0
230
1.0
100
AcDbText
 73
     3
  0
TEXT
  5
6BF
100
AcDbEntity
  8
1
  6
CONTINUOUS
 62
     7
100
AcDbText
 10
670.4367
 20
73.7176
 30
0.0
 40
2.4
  1
FRICTION CAPS
  7
MONOTXT
 11
670.4367
 21
76.1176
 31
0.0
210
0.0
220
0.0
230
1.0
100
AcDbText
 73
     3
  0
TEXT
  5
6C0
100
AcDbEntity
  8
1
  6
CONTINUOUS
 62
     7
100
AcDbText
 10
670.4367
 20
69.5176
 30
0.0
 40
2.4
  1
 
  7
MONOTXT
 11
670.4367
 21
71.9176
 31
0.0
210
0.0
220
0.0
230
1.0
100
AcDbText
 73
     3
  0
TEXT
  5
6C1
100
AcDbEntity
  8
1
  6
CONTINUOUS
 62
     7
100
AcDbText
 10
670.4367
 20
65.3176
 30
0.0
 40
2.4
  1
CAPS MAY BE FABRICATED FROM EITHER HOT ROLLED OR COLD ROLLED
  7
MONOTXT
 11
670.4367
 21
67.7176
 31
0.0
210
0.0
220
0.0
230
1.0
100
AcDbText
 73
     3
  0
TEXT
  5
6C2
100
AcDbEntity
  8
1
  6
CONTINUOUS
 62
     7
100
AcDbText
 10
670.4367
 20
61.1176
 30
0.0
 40
2.4
  1
STEEL SHEETS. FOR PIPE SIZES DN80 AND SMALLER THE MINIMUM SHEET
  7
MONOTXT
 11
670.4367
 21
63.5176
 31
0.0
210
0.0
220
0.0
230
1.0
100
AcDbText
 73
     3
  0
TEXT
  5
6C3
100
AcDbEntity
  8
1
  6
CONTINUOUS
 62
     7
100
AcDbText
 10
670.4367
 20
56.9176
 30
0.0
 40
2.4
  1
METAL THICKNESS SHALL BE 0.6mm.
  7
MONOTXT
 11
670.4367
 21
59.3176
 31
0.0
210
0.0
220
0.0
230
1.0
100
AcDbText
 73
     3
  0
TEXT
  5
6C4
100
AcDbEntity
  8
1
  6
CONTINUOUS
 62
     7
100
AcDbText
 10
670.4367
 20
52.7176
 30
0.0
 40
2.4
  1
 
  7
MONOTXT
 11
670.4367
 21
55.1176
 31
0.0
210
0.0
220
0.0
230
1.0
100
AcDbText
 73
     3
  0
TEXT
  5
6C5
100
AcDbEntity
  8
1
  6
CONTINUOUS
 62
     7
100
AcDbText
 10
670.4367
 20
48.5176
 30
0.0
 40
2.4
  1
THE RIM EDGES SHALL BE REASONABLY STRAIGHT AND SMOOTH.
  7
MONOTXT
 11
670.4367
 21
50.9176
 31
0.0
210
0.0
220
0.0
230
1.0
100
AcDbText
 73
     3
  0
TEXT
  5
6C6
100
AcDbEntity
  8
1
  6
CONTINUOUS
 62
     7
100
AcDbText
 10
670.4367
 20
44.3176
 30
0.0
 40
2.4
  1
 
  7
MONOTXT
 11
670.4367
 21
46.7176
 31
0.0
210
0.0
220
0.0
230
1.0
100
AcDbText
 73
     3
  0
TEXT
  5
6C7
100
AcDbEntity
  8
1
  6
CONTINUOUS
 62
     7
100
AcDbText
 10
670.4367
 20
40.1176
 30
0.0
 40
2.4
  1
CAPS SHALL BE SIZED AND FORMED IN SUCH A MANNER AS TO PRODUCE A
  7
MONOTXT
 11
670.4367
 21
42.5176
 31
0.0
210
0.0
220
0.0
230
1.0
100
AcDbText
 73
     3
  0
TEXT
  5
6C8
100
AcDbEntity
  8
1
  6
CONTINUOUS
 62
     7
100
AcDbText
 10
670.4367
 20
35.9176
 30
0.0
 40
2.4
  1
DRIVE-ON FRICTION FITAND HAVE NO TENDENCY TO ROCK WHEN SEATED ON
  7
MONOTXT
 11
670.4367
 21
38.3176
 31
0.0
210
0.0
220
0.0
230
1.0
100
AcDbText
 73
     3
  0
TEXT
  5
6C9
100
AcDbEntity
  8
1
  6
CONTINUOUS
 62
     7
100
AcDbText
 10
670.4367
 20
31.7176
 30
0.0
 40
2.4
  1
THE PIPE. THE DEPTH SHALL BE SUFFICIENT TO GIVE POSITIVE PROTECTION
  7
MONOTXT
 11
670.4367
 21
34.1176
 31
0.0
210
0.0
220
0.0
230
1.0
100
AcDbText
 73
     3
  0
TEXT
  5
6CA
100
AcDbEntity
  8
1
  6
CONTINUOUS
 62
     7
100
AcDbText
 10
670.4367
 20
27.5176
 30
0.0
 40
2.4
  1
AGAINST THE ENTRANCE OF RAINWATER. THEY SHALL BE FREE OF SHARP
  7
MONOTXT
 11
670.4367
 21
29.9176
 31
0.0
210
0.0
220
0.0
230
1.0
100
AcDbText
 73
     3
  0
TEXT
  5
6CB
100
AcDbEntity
  8
1
  6
CONTINUOUS
 62
     7
100
AcDbText
 10
670.4367
 20
23.3176
 30
0.0
 40
2.4
  1
CREASES OR INDENTATIONS AND SHOW NO EVIDENCE OF METAL FAILURE.
  7
MONOTXT
 11
670.4367
 21
25.7176
 31
0.0
210
0.0
220
0.0
230
1.0
100
AcDbText
 73
     3
  0
TEXT
  5
6CC
100
AcDbEntity
  8
1
  6
CONTINUOUS
 62
     7
100
AcDbText
 10
670.4367
 20
19.1176
 30
0.0
 40
2.4
  1
 
  7
MONOTXT
 11
670.4367
 21
21.5176
 31
0.0
210
0.0
220
0.0
230
1.0
100
AcDbText
 73
     3
  0
TEXT
  5
6CD
100
AcDbEntity
  8
1
  6
CONTINUOUS
 62
     7
100
AcDbText
 10
670.4367
 20
14.9176
 30
0.0
 40
2.4
  1
CAPS SHALL HAVE AN ELECTRODEPOSITED COATING OF ZINC IN ACCORDANCE
  7
MONOTXT
 11
670.4367
 21
17.3176
 31
0.0
210
0.0
220
0.0
230
1.0
100
AcDbText
 73
     3
  0
TEXT
  5
6CE
100
AcDbEntity
  8
1
  6
CONTINUOUS
 62
     7
100
AcDbText
 10
670.4367
 20
10.7176
 30
0.0
 40
2.4
  1
WITH THE REQUIREMENTS OF ASTM B 633, CLASS 12..
  7
MONOTXT
 11
670.4367
 21
13.1176
 31
0.0
210
0.0
220
0.0
230
1.0
100
AcDbText
 73
     3
  0
TEXT
  5
6CF
100
AcDbEntity
  8
1
  6
CONTINUOUS
 62
     7
100
AcDbText
 10
670.4367
 20
6.5176
 30
0.0
 40
2.4
  1
 
  7
MONOTXT
 11
670.4367
 21
8.9176
 31
0.0
210
0.0
220
0.0
230
1.0
100
AcDbText
 73
     3
  0
TEXT
  5
6D0
100
AcDbEntity
  8
1
  6
CONTINUOUS
 62
     7
100
AcDbText
 10
670.4367
 20
2.3176
 30
0.0
 40
2.4
  1
FOOTINGS
  7
MONOTXT
 11
670.4367
 21
4.7176
 31
0.0
210
0.0
220
0.0
230
1.0
100
AcDbText
 73
     3
  0
TEXT
  5
6D1
100
AcDbEntity
  8
1
  6
CONTINUOUS
 62
     7
100
AcDbText
 10
670.4367
 20
-1.8824
 30
0.0
 40
2.4
  1
 
  7
MONOTXT
 11
670.4367
 21
0.5176
 31
0.0
210
0.0
220
0.0
230
1.0
100
AcDbText
 73
     3
  0
TEXT
  5
6D2
100
AcDbEntity
  8
1
  6
CONTINUOUS
 62
     7
100
AcDbText
 10
670.4367
 20
-6.0824
 30
0.0
 40
2.4
  1
ALL FOOTINGS SHALL BE CONCRETE IN ACCORDANCE WITH SECTION 657 AND
  7
MONOTXT
 11
670.4367
 21
-3.6824
 31
0.0
210
0.0
220
0.0
230
1.0
100
AcDbText
 73
     3
  0
TEXT
  5
6D3
100
AcDbEntity
  8
1
  6
CONTINUOUS
 62
     7
100
AcDbText
 10
670.4367
 20
-10.2824
 30
0.0
 40
2.4
  1
ARTICLE 657.5.1 OF THE SPECIFICATIONS.
  7
MONOTXT
 11
670.4367
 21
-7.8824
 31
0.0
210
0.0
220
0.0
230
1.0
100
AcDbText
 73
     3
  0
TEXT
  5
6D4
100
AcDbEntity
  8
1
  6
CONTINUOUS
 62
     7
100
AcDbText
 10
670.4367
 20
-14.4824
 30
0.0
 40
2.4
  1
 
  7
MONOTXT
 11
670.4367
 21
-12.0824
 31
0.0
210
0.0
220
0.0
230
1.0
100
AcDbText
 73
     3
  0
TEXT
  5
6D5
100
AcDbEntity
  8
1
  6
CONTINUOUS
 62
     7
100
AcDbText
 10
670.4367
 20
-18.6824
 30
0.0
 40
2.4
  1
PROCEDURE FOR ASSEMBLY OF BASE CONNECTION
  7
MONOTXT
 11
670.4367
 21
-16.2824
 31
0.0
210
0.0
220
0.0
230
1.0
100
AcDbText
 73
     3
  0
TEXT
  5
6D6
100
AcDbEntity
  8
1
  6
CONTINUOUS
 62
     7
100
AcDbText
 10
670.4367
 20
-22.8824
 30
0.0
 40
2.4
  1
 
  7
MONOTXT
 11
670.4367
 21
-20.4824
 31
0.0
210
0.0
220
0.0
230
1.0
100
AcDbText
 73
     3
  0
TEXT
  5
6D7
100
AcDbEntity
  8
1
  6
CONTINUOUS
 62
     7
100
AcDbText
 10
670.4367
 20
-27.0824
 30
0.0
 40
2.4
  1
1.  ASSEMBLY POST TO STUB WITH BOLTS AND ONE FLAT WASHER ON EACH
  7
MONOTXT
 11
670.4367
 21
-24.6824
 31
0.0
210
0.0
220
0.0
230
1.0
100
AcDbText
 73
     3
  0
TEXT
  5
6D8
100
AcDbEntity
  8
1
  6
CONTINUOUS
 62
     7
100
AcDbText
 10
670.4367
 20
-31.2824
 30
0.0
 40
2.4
  1
  BOLT BETWEEN PLATES.
  7
MONOTXT
 11
670.4367
 21
-28.8824
 31
0.0
210
0.0
220
0.0
230
1.0
100
AcDbText
 73
     3
  0
TEXT
  5
6D9
100
AcDbEntity
  8
1
  6
CONTINUOUS
 62
     7
100
AcDbText
 10
670.4367
 20
-35.4824
 30
0.0
 40
2.4
  1
 
  7
MONOTXT
 11
670.4367
 21
-33.0824
 31
0.0
210
0.0
220
0.0
230
1.0
100
AcDbText
 73
     3
  0
TEXT
  5
6DA
100
AcDbEntity
  8
1
  6
CONTINUOUS
 62
     7
100
AcDbText
 10
670.4367
 20
-39.6824
 30
0.0
 40
2.4
  1
2.  SHIM AS REQUIRED TO PLUMB POST.
  7
MONOTXT
 11
670.4367
 21
-37.2824
 31
0.0
210
0.0
220
0.0
230
1.0
100
AcDbText
 73
     3
  0
TEXT
  5
6DB
100
AcDbEntity
  8
1
  6
CONTINUOUS
 62
     7
100
AcDbText
 10
670.4367
 20
-43.8824
 30
0.0
 40
2.4
  1
 
  7
MONOTXT
 11
670.4367
 21
-41.4824
 31
0.0
210
0.0
220
0.0
230
1.0
100
AcDbText
 73
     3
  0
TEXT
  5
6DC
100
AcDbEntity
  8
1
  6
CONTINUOUS
 62
     7
100
AcDbText
 10
670.4367
 20
-48.0824
 30
0.0
 40
2.4
  1
3.  BASE PLATE BOLTS ARE TO BE TORQUED (TENSIONED) USING THE CALIBRATED
  7
MONOTXT
 11
670.4367
 21
-45.6824
 31
0.0
210
0.0
220
0.0
230
1.0
100
AcDbText
 73
     3
  0
TEXT
  5
6DD
100
AcDbEntity
  8
1
  6
CONTINUOUS
 62
     7
100
AcDbText
 10
670.4367
 20
-52.2824
 30
0.0
 40
2.4
  1
   WRENCH PROCEDURE OF THE A.I.S.C. SPECIFICATIONS FOR STRUCTURAL CONNECTIONS.
  7
MONOTXT
 11
670.4367
 21
-49.8824
 31
0.0
210
0.0
220
0.0
230
1.0
100
AcDbText
 73
     3
  0
ENDSEC
  0
SECTION
  2
OBJECTS
  0
DICTIONARY
  5
19
100
AcDbDictionary
  3
ACAD_GROUP
350
1A
  3
ACAD_MLINESTYLE
350
1B
  0
DICTIONARY
  5
1A
102
{ACAD_REACTORS
330
19
102
}
100
AcDbDictionary
  0
DICTIONARY
  5
1B
102
{ACAD_REACTORS
330
19
102
}
100
AcDbDictionary
  3
STANDARD
350
1C
  0
MLINESTYLE
  5
1C
102
{ACAD_REACTORS
330
1B
102
}
100
AcDbMlineStyle
  2
STANDARD
 70
     0
  3

 62
     0
 51
90.0
 52
90.0
 71
     2
 49
0.5
 62
   256
  6
BYLAYER
 49
-0.5
 62
   256
  6
BYLAYER
  0
ENDSEC
  0
EOF
