  0
SECTION
  2
HEADER
  9
$ACADVER
  1
AC1014
  9
$ACADMAINTVER
 70
     0
  9
$DWGCODEPAGE
  3
ANSI_1252
  9
$INSBASE
 10
0.0
 20
0.0
 30
0.0
  9
$EXTMIN
 10
-10.249
 20
-430.717
 30
0.0
  9
$EXTMAX
 10
720.4767
 20
55.2793
 30
0.0
  9
$LIMMIN
 10
0.0
 20
0.0
  9
$LIMMAX
 10
12.0
 20
9.0
  9
$ORTHOMODE
 70
     0
  9
$REGENMODE
 70
     1
  9
$FILLMODE
 70
     1
  9
$QTEXTMODE
 70
     0
  9
$MIRRTEXT
 70
     1
  9
$DRAGMODE
 70
     2
  9
$LTSCALE
 40
1.0
  9
$OSMODE
 70
     0
  9
$ATTMODE
 70
     1
  9
$TEXTSIZE
 40
0.2
  9
$TRACEWID
 40
0.05
  9
$TEXTSTYLE
  7
STANDARD
  9
$CLAYER
  8
0
  9
$CELTYPE
  6
CONTINUOUS
  9
$CECOLOR
 62
   256
  9
$CELTSCALE
 40
1.0
  9
$DELOBJ
 70
     1
  9
$DISPSILH
 70
     0
  9
$DIMSCALE
 40
1.0
  9
$DIMASZ
 40
0.18
  9
$DIMEXO
 40
0.0625
  9
$DIMDLI
 40
0.38
  9
$DIMRND
 40
0.0
  9
$DIMDLE
 40
0.0
  9
$DIMEXE
 40
0.18
  9
$DIMTP
 40
0.0
  9
$DIMTM
 40
0.0
  9
$DIMTXT
 40
0.18
  9
$DIMCEN
 40
0.09
  9
$DIMTSZ
 40
0.0
  9
$DIMTOL
 70
     0
  9
$DIMLIM
 70
     0
  9
$DIMTIH
 70
     1
  9
$DIMTOH
 70
     1
  9
$DIMSE1
 70
     0
  9
$DIMSE2
 70
     0
  9
$DIMTAD
 70
     0
  9
$DIMZIN
 70
     0
  9
$DIMBLK
  1

  9
$DIMASO
 70
     1
  9
$DIMSHO
 70
     1
  9
$DIMPOST
  1

  9
$DIMAPOST
  1

  9
$DIMALT
 70
     0
  9
$DIMALTD
 70
     2
  9
$DIMALTF
 40
25.4
  9
$DIMLFAC
 40
1.0
  9
$DIMTOFL
 70
     0
  9
$DIMTVP
 40
0.0
  9
$DIMTIX
 70
     0
  9
$DIMSOXD
 70
     0
  9
$DIMSAH
 70
     0
  9
$DIMBLK1
  1

  9
$DIMBLK2
  1

  9
$DIMSTYLE
  2
STANDARD
  9
$DIMCLRD
 70
     0
  9
$DIMCLRE
 70
     0
  9
$DIMCLRT
 70
     0
  9
$DIMTFAC
 40
1.0
  9
$DIMGAP
 40
0.09
  9
$DIMJUST
 70
     0
  9
$DIMSD1
 70
     0
  9
$DIMSD2
 70
     0
  9
$DIMTOLJ
 70
     1
  9
$DIMTZIN
 70
     0
  9
$DIMALTZ
 70
     0
  9
$DIMALTTZ
 70
     0
  9
$DIMFIT
 70
     3
  9
$DIMUPT
 70
     0
  9
$DIMUNIT
 70
     2
  9
$DIMDEC
 70
     4
  9
$DIMTDEC
 70
     4
  9
$DIMALTU
 70
     2
  9
$DIMALTTD
 70
     2
  9
$DIMTXSTY
  7
STANDARD
  9
$DIMAUNIT
 70
     0
  9
$LUNITS
 70
     2
  9
$LUPREC
 70
     4
  9
$SKETCHINC
 40
0.1
  9
$FILLETRAD
 40
0.0
  9
$AUNITS
 70
     0
  9
$AUPREC
 70
     0
  9
$MENU
  1
acad
  9
$ELEVATION
 40
0.0
  9
$PELEVATION
 40
0.0
  9
$THICKNESS
 40
0.0
  9
$LIMCHECK
 70
     0
  9
$BLIPMODE
 70
     1
  9
$CHAMFERA
 40
0.0
  9
$CHAMFERB
 40
0.0
  9
$CHAMFERC
 40
0.0
  9
$CHAMFERD
 40
0.0
  9
$SKPOLY
 70
     0
  9
$TDCREATE
 40
2451803.474826389
  9
$TDUPDATE
 40
2451803.474826389
  9
$TDINDWG
 40
0.0000000000
  9
$TDUSRTIMER
 40
0.0000000000
  9
$USRTIMER
 70
     1
  9
$ANGBASE
 50
0.0
  9
$ANGDIR
 70
     0
  9
$PDMODE
 70
     0
  9
$PDSIZE
 40
0.0
  9
$PLINEWID
 40
0.0
  9
$COORDS
 70
     0
  9
$SPLFRAME
 70
     0
  9
$SPLINETYPE
 70
     6
  9
$SPLINESEGS
 70
    10
  9
$ATTDIA
 70
     0
  9
$ATTREQ
 70
     1
  9
$HANDLING
 70
     1
  9
$HANDSEED
  5
6DE
  9
$SURFTAB1
 70
     6
  9
$SURFTAB2
 70
     6
  9
$SURFTYPE
 70
     6
  9
$SURFU
 70
     6
  9
$SURFV
 70
     6
  9
$UCSNAME
  2

  9
$UCSORG
 10
0.0
 20
0.0
 30
0.0
  9
$UCSXDIR
 10
1.0
 20
0.0
 30
0.0
  9
$UCSYDIR
 10
0.0
 20
1.0
 30
0.0
  9
$PUCSNAME
  2

  9
$PUCSORG
 10
0.0
 20
0.0
 30
0.0
  9
$PUCSXDIR
 10
1.0
 20
0.0
 30
0.0
  9
$PUCSYDIR
 10
0.0
 20
1.0
 30
0.0
  9
$USERI1
 70
     0
  9
$USERI2
 70
     0
  9
$USERI3
 70
     0
  9
$USERI4
 70
     0
  9
$USERI5
 70
     0
  9
$USERR1
 40
0.0
  9
$USERR2
 40
0.0
  9
$USERR3
 40
0.0
  9
$USERR4
 40
0.0
  9
$USERR5
 40
0.0
  9
$WORLDVIEW
 70
     1
  9
$SHADEDGE
 70
     3
  9
$SHADEDIF
 70
    70
  9
$TILEMODE
 70
     1
  9
$MAXACTVP
 70
    16
  9
$PINSBASE
 10
0.0
 20
0.0
 30
0.0
  9
$PLIMCHECK
 70
     0
  9
$PEXTMIN
 10
-1.000000E+20
 20
-1.000000E+20
 30
-1.000000E+20
  9
$PEXTMAX
 10
-1.000000E+20
 20
-1.000000E+20
 30
-1.000000E+20
  9
$PLIMMIN
 10
0.0
 20
0.0
  9
$PLIMMAX
 10
12.0
 20
9.0
  9
$UNITMODE
 70
     0
  9
$VISRETAIN
 70
     0
  9
$PLINEGEN
 70
     1
  9
$PSLTSCALE
 70
     0
  9
$TREEDEPTH
 70
  3020
  9
$PICKSTYLE
 70
     1
  9
$CMLSTYLE
  2
STANDARD
  9
$CMLJUST
 70
     0
  9
$CMLSCALE
 40
1.0
  9
$PROXYGRAPHICS
 70
     0
  9
$MEASUREMENT
 70
     0
  0
ENDSEC
  0
SECTION
  2
CLASSES
  0
CLASS
  1
LWPOLYLINE
  2
AcDbPolyline
  3
"AutoCAD"
 90
        0
280
     0
281
     1
  0
CLASS
  1
IMAGE
  2
AcDbRasterImage
  3
ISM
 90
      127
280
     0
281
     1
  0
CLASS
  1
OLE2FRAME
  2
AcDbOle2Frame
  3
""
 90
        0
280
     0
281
     1
  0
CLASS
  1
HATCH
  2
AcDbHatch
  3
"ACAD_SEDONA"
 90
        0
280
     0
281
     1
  0
CLASS
  1
DICTIONARYVAR
  2
AcDbDictionaryVar
  3
"AutoCAD"
 90
        0
280
     0
281
     0
  0
CLASS
  1
RASTERVARIABLES
  2
AcDbRasterVariables
  3
ISM
 90
        0
280
     0
281
     0
  0
CLASS
  1
IMAGEDEF
  2
AcDbRasterImageDef
  3
ISM
 90
        0
280
     0
281
     0
  0
CLASS
  1
IMAGEDEF_REACTOR
  2
AcDbRasterImageDefReactor
  3
ISM
 90
        1
280
     0
281
     0
  0
CLASS
  1
IDBUFFER
  2
AcDbIdBuffer
  3
"Acad"
 90
        0
280
     0
281
     0
  0
CLASS
  1
SPATIAL_FILTER
  2
AcDbSpatialFilter
  3
"Acad"
 90
        0
280
     0
281
     0
  0
CLASS
  1
XRECORD
  2
AcDbXrecord
  3
"<Built In>"
 90
        0
280
     0
281
     0
  0
CLASS
  1
SORTENTSTABLE
  2
AcDbSortentsTable
  3
"AutoCAD"
 90
        0
280
     0
281
     0
  0
CLASS
  1
LAYER_INDEX
  2
AcDbLayerIndex
  3
"Acad"
 90
        0
280
     0
281
     0
  0
CLASS
  1
SPATIAL_INDEX
  2
AcDbSpatialIndex
  3
"Acad"
 90
        0
280
     0
281
     0
  0
CLASS
  1
OBJECT_PTR
  2
CAseDLPNTableRecord
  3
"ASE-LPNTableRecord"
 90
        1
280
     0
281
     0
  0
ENDSEC
  0
SECTION
  2
TABLES
  0
TABLE
  2
VPORT
  5
7
100
AcDbSymbolTable
 70
     1
  0
VPORT
  5
6DD
100
AcDbSymbolTableRecord
100
AcDbViewportTableRecord
  2
*ACTIVE
 70
     0
 10
0.0
 20
0.0
 11
1.0
 21
1.0
 12
0.0
 22
0.0
 13
0.0
 23
0.0
 14
0.0
 24
0.0
 15
0.0
 25
0.0
 16
0.0
 26
0.0
 36
1.0
 17
306.9607
 27
-177.7553
 37
0.0
 40
565.24
 41
1.545
 42
50.0
 43
0.0
 44
0.0
 50
0.0
 51
0.0
 71
     0
 72
   100
 73
     1
 74
     0
 75
     0
 76
     0
 77
     0
 78
     0
  0
ENDTAB
  0
TABLE
  2
LTYPE
  5
4
100
AcDbSymbolTable
 70
     9
  0
LTYPE
  5
11
100
AcDbSymbolTableRecord
100
AcDbLinetypeTableRecord
  2
BYBLOCK
 70
     0
  3

 72
    65
 73
     0
 40
0.0
  0
LTYPE
  5
12
100
AcDbSymbolTableRecord
100
AcDbLinetypeTableRecord
  2
BYLAYER
 70
     0
  3

 72
    65
 73
     0
 40
0.0
  0
LTYPE
  5
13
100
AcDbSymbolTableRecord
100
AcDbLinetypeTableRecord
  2
CONTINUOUS
 70
     0
  3
Solid line
 72
    65
 73
     0
 40
0.0
  0
LTYPE
  5
22
100
AcDbSymbolTableRecord
100
AcDbLinetypeTableRecord
  2
DOT
 70
    64
  3
. . . . . . . . . . . . . . . . . . . . . . . . . . . . . . . . .
 72
    65
 73
     2
 40
0.25
 49
0.0
 74
     0
 49
-0.25
 74
     0
  0
LTYPE
  5
23
100
AcDbSymbolTableRecord
100
AcDbLinetypeTableRecord
  2
HIDDEN
 70
    64
  3
__ __ __ __ __ __ __ __ __ __ __ __ __ __ __ __ __ __ __ __ __ 
 72
    65
 73
     2
 40
0.375
 49
0.25
 74
     0
 49
-0.125
 74
     0
  0
LTYPE
  5
24
100
AcDbSymbolTableRecord
100
AcDbLinetypeTableRecord
  2
DASHED
 70
    64
  3
__ __ __ __ __ __ __ __ __ __ __ __ __ __ __ __ __ __ __ __ __
 72
    65
 73
     2
 40
0.75
 49
0.5
 74
     0
 49
-0.25
 74
     0
  0
LTYPE
  5
25
100
AcDbSymbolTableRecord
100
AcDbLinetypeTableRecord
  2
DASHDOT
 70
    64
  3
__ . __ . __ . __ . __ . __ . __ . __ . __ . __ . __ . __ . _
 72
    65
 73
     4
 40
1.0
 49
0.5
 74
     0
 49
-0.25
 74
     0
 49
0.0
 74
     0
 49
-0.25
 74
     0
  0
LTYPE
  5
26
100
AcDbSymbolTableRecord
100
AcDbLinetypeTableRecord
  2
DIVIDE
 70
    64
  3
____ . . ____ . . ____ . . ____ . . ____ . . ____ . . ____ . .
 72
    65
 73
     6
 40
1.25
 49
0.5
 74
     0
 49
-0.25
 74
     0
 49
0.0
 74
     0
 49
-0.25
 74
     0
 49
0.0
 74
     0
 49
-0.25
 74
     0
  0
LTYPE
  5
27
100
AcDbSymbolTableRecord
100
AcDbLinetypeTableRecord
  2
CENTER
 70
    64
  3
____ _ ____ _ ____ _ ____ _ ____ _ ____ _ ____ _ ____ _ ____ _
 72
    65
 73
     4
 40
2.0
 49
1.25
 74
     0
 49
-0.25
 74
     0
 49
0.25
 74
     0
 49
-0.25
 74
     0
  0
ENDTAB
  0
TABLE
  2
LAYER
  5
2
100
AcDbSymbolTable
 70
     3
  0
LAYER
  5
14
102
{ACAD_XDICTIONARY
360
5F205F5F5F5F205F
102
}
100
AcDbSymbolTableRecord
100
AcDbLayerTableRecord
  2
0
 70
     0
 62
     7
  6
CONTINUOUS
  0
LAYER
  5
2A
102
{ACAD_XDICTIONARY
360
5F205F5F5F5F205F
102
}
100
AcDbSymbolTableRecord
100
AcDbLayerTableRecord
  2
61
 70
    64
 62
     7
  6
CONTINUOUS
  0
LAYER
  5
2D
102
{ACAD_XDICTIONARY
360
5F205F5F5F5F205F
102
}
100
AcDbSymbolTableRecord
100
AcDbLayerTableRecord
  2
1
 70
    64
 62
     7
  6
CONTINUOUS
  0
ENDTAB
  0
TABLE
  2
STYLE
  5
3
100
AcDbSymbolTable
 70
     3
  0
STYLE
  5
17
100
AcDbSymbolTableRecord
100
AcDbTextStyleTableRecord
  2
STANDARD
 70
     0
 40
0.0
 41
1.0
 50
0.0
 71
     0
 42
0.0
  3
txt
  4

  0
STYLE
  5
2B
100
AcDbSymbolTableRecord
100
AcDbTextStyleTableRecord
  2
MONOTXT
 70
     0
 40
0.2
 41
1.0
 50
0.0
 71
     0
 42
0.2
  3
MONOTXT
  4

  0
STYLE
  5
37
100
AcDbSymbolTableRecord
100
AcDbTextStyleTableRecord
  2
TXT
 70
     0
 40
0.2
 41
1.0
 50
0.0
 71
     0
 42
0.2
  3
TXT
  4

  0
ENDTAB
  0
TABLE
  2
VIEW
  5
5
100
AcDbSymbolTable
 70
     0
  0
ENDTAB
  0
TABLE
  2
UCS
  5
6
100
AcDbSymbolTable
 70
     0
  0
ENDTAB
  0
TABLE
  2
APPID
  5
8
100
AcDbSymbolTable
 70
     1
  0
APPID
  5
16
100
AcDbSymbolTableRecord
100
AcDbRegAppTableRecord
  2
ACAD
 70
     0
  0
ENDTAB
  0
TABLE
  2
DIMSTYLE
  5
9
100
AcDbSymbolTable
 70
     1
  0
DIMSTYLE
105
18
100
AcDbSymbolTableRecord
100
AcDbDimStyleTableRecord
  2
STANDARD
 70
     0
  3

  4

  5

  6

  7

 40
1.0
 41
0.18
 42
0.0625
 43
0.38
 44
0.18
 45
0.0
 46
0.0
 47
0.0
 48
0.0
140
0.18
141
0.09
142
0.0
143
25.4
144
1.0
145
0.0
146
1.0
147
0.09
 71
     0
 72
     0
 73
     1
 74
     1
 75
     0
 76
     0
 77
     0
 78
     0
170
     0
171
     2
172
     0
173
     0
174
     0
175
     0
176
     0
177
     0
178
     0
270
     2
271
     4
272
     4
273
     2
274
     2
340
17
275
     0
280
     0
281
     0
282
     0
283
     1
284
     0
285
     0
286
     0
287
     0
288
     0
  0
ENDTAB
  0
TABLE
  2
BLOCK_RECORD
  5
1
100
AcDbSymbolTable
 70
     1
  0
BLOCK_RECORD
  5
A
100
AcDbSymbolTableRecord
100
AcDbBlockTableRecord
  2
*MODEL_SPACE
  0
BLOCK_RECORD
  5
B
100
AcDbSymbolTableRecord
100
AcDbBlockTableRecord
  2
*PAPER_SPACE
  0
BLOCK_RECORD
  5
5B0
102
{ACAD_XDICTIONARY
360
6A9B02286B9B022C
102
}
100
AcDbSymbolTableRecord
100
AcDbBlockTableRecord
  2
LDR
  0
ENDTAB
  0
ENDSEC
  0
SECTION
  2
BLOCKS
  0
BLOCK
  5
D
100
AcDbEntity
  8
0
100
AcDbBlockBegin
  2
*MODEL_SPACE
 70
     0
 10
0.0
 20
0.0
 30
0.0
  3
*MODEL_SPACE
  1

  0
ENDBLK
  5
E
100
AcDbEntity
  8
0
100
AcDbBlockEnd
  0
BLOCK
  5
F
100
AcDbEntity
 67
     1
  8
0
100
AcDbBlockBegin
  2
*PAPER_SPACE
 70
     0
 10
0.0
 20
0.0
 30
0.0
  3
*PAPER_SPACE
  1

  0
ENDBLK
  5
10
100
AcDbEntity
 67
     1
  8
0
100
AcDbBlockEnd
  0
BLOCK
  5
5B1
100
AcDbEntity
  8
1
  6
CONTINUOUS
 62
     1
100
AcDbBlockBegin
  2
LDR
 70
     0
 10
0.0
 20
0.0
 30
0.0
  3
LNR
  1

  0
ELLIPSE
  5
5B2
100
AcDbEntity
  8
1
  6
CONTINUOUS
 62
     1
100
AcDbEllipse
 10
-0.005456
 20
-0.001381
 30
0.0
 11
0.0089285004623472
 21
0.0007807500129699
 31
0.0
210
0.0
220
0.0
230
1.0
 40
0.122415
 41
0.8963533496766982
 42
3.1415926535897931
  0
ELLIPSE
  5
5B3
100
AcDbEntity
  8
1
  6
CONTINUOUS
 62
     1
100
AcDbEllipse
 10
-0.005602
 20
0.001058
 30
0.0
 11
0.0087822506056358
 21
-0.0008782502048316
 31
0.0
210
0.0
220
0.0
230
1.0
 40
0.07063
 41
3.1407147529760402
 42
5.4181099545465106
  0
ENDBLK
  5
5B4
100
AcDbEntity
  8
1
  6
CONTINUOUS
 62
     1
100
AcDbBlockEnd
  0
ENDSEC
  0
SECTION
  2
ENTITIES
  0
TEXT
  5
2C
100
AcDbEntity
  8
61
  6
CONTINUOUS
 62
     1
100
AcDbText
 10
706.7374
 20
33.779
 30
0.0
 40
2.881584
  1
     
 41
1.001399
  7
MONOTXT
210
0.0
220
0.0
230
1.0
100
AcDbText
  0
TEXT
  5
2E
100
AcDbEntity
  8
1
  6
CONTINUOUS
 62
     1
100
AcDbText
 10
547.4546
 20
-391.191
 30
0.0
 40
2.400048
  1
11-15-76
  7
MONOTXT
 72
     1
 11
554.6074
 21
-388.791
 31
0.0
210
0.0
220
0.0
230
1.0
100
AcDbText
 73
     3
  0
TEXT
  5
2F
100
AcDbEntity
  8
1
  6
CONTINUOUS
 62
     1
100
AcDbText
 10
546.2581
 20
-396.7746
 30
0.0
 40
2.400048
  1
09-21-93
  7
MONOTXT
 72
     1
 11
554.3559
 21
-394.3746
 31
0.0
210
0.0
220
0.0
230
1.0
100
AcDbText
 73
     3
  0
TEXT
  5
30
100
AcDbEntity
  8
1
  6
CONTINUOUS
 62
     1
100
AcDbText
 10
545.0913
 20
-402.5858
 30
0.0
 40
2.400048
  1
        
  7
MONOTXT
 72
     1
 11
554.2915
 21
-400.1858
 31
0.0
210
0.0
220
0.0
230
1.0
100
AcDbText
 73
     3
  0
TEXT
  5
31
100
AcDbEntity
  8
1
  6
CONTINUOUS
 62
     1
100
AcDbText
 10
543.8014
 20
-402.781
 30
0.0
 40
2.400048
  1
        
  7
MONOTXT
 72
     1
 11
553.0016
 21
-400.381
 31
0.0
210
0.0
220
0.0
230
1.0
100
AcDbText
 73
     3
  0
TEXT
  5
32
100
AcDbEntity
  8
1
  6
CONTINUOUS
 62
     1
100
AcDbText
 10
543.6094
 20
-408.301
 30
0.0
 40
2.400048
  1
        
  7
MONOTXT
 72
     1
 11
552.8096
 21
-405.901
 31
0.0
210
0.0
220
0.0
230
1.0
100
AcDbText
 73
     3
  0
TEXT
  5
33
100
AcDbEntity
  8
1
  6
CONTINUOUS
 62
     1
100
AcDbText
 10
543.8014
 20
-413.677
 30
0.0
 40
2.400048
  1
        
  7
MONOTXT
 72
     1
 11
553.0016
 21
-411.277
 31
0.0
210
0.0
220
0.0
230
1.0
100
AcDbText
 73
     3
  0
TEXT
  5
34
100
AcDbEntity
  8
1
  6
CONTINUOUS
 62
     1
100
AcDbText
 10
543.6814
 20
-419.197
 30
0.0
 40
2.400048
  1
        
  7
MONOTXT
 72
     1
 11
552.8816
 21
-416.797
 31
0.0
210
0.0
220
0.0
230
1.0
100
AcDbText
 73
     3
  0
TEXT
  5
35
100
AcDbEntity
  8
1
  6
CONTINUOUS
 62
     1
100
AcDbText
 10
543.8014
 20
-424.693
 30
0.0
 40
2.400048
  1
        
  7
MONOTXT
 72
     1
 11
553.0016
 21
-422.293
 31
0.0
210
0.0
220
0.0
230
1.0
100
AcDbText
 73
     3
  0
TEXT
  5
36
100
AcDbEntity
  8
1
  6
CONTINUOUS
 62
     1
100
AcDbText
 10
543.8014
 20
-429.517
 30
0.0
 40
2.400048
  1
        
  7
MONOTXT
 72
     1
 11
553.0016
 21
-427.117
 31
0.0
210
0.0
220
0.0
230
1.0
100
AcDbText
 73
     3
  0
TEXT
  5
38
100
AcDbEntity
  8
1
  6
CONTINUOUS
 62
     1
100
AcDbText
 10
594.3185
 20
-376.7303
 30
0.0
 40
8.3912
  1
SUPPORT DETAILS
  7
TXT
 72
     1
 11
645.754
 21
-368.3391
 31
0.0
210
0.0
220
0.0
230
1.0
100
AcDbText
 73
     3
  0
TEXT
  5
39
100
AcDbEntity
  8
1
  6
CONTINUOUS
 62
     1
100
AcDbText
 10
596.7939
 20
-365.3728
 30
0.0
 40
8.3912
  1
"ONE WAY" SIGN
  7
TXT
 72
     1
 11
645.754
 21
-356.9816
 31
0.0
210
0.0
220
0.0
230
1.0
100
AcDbText
 73
     3
  0
LINE
  5
3A
100
AcDbEntity
  8
1
  6
CONTINUOUS
 62
    92
100
AcDbLine
 10
-10.249
 20
-7.4802
 30
0.0
 11
-10.249
 21
-8.5692
 31
0.0
  0
LINE
  5
3B
100
AcDbEntity
  8
1
  6
CONTINUOUS
 62
    92
100
AcDbLine
 10
-10.249
 20
-20.1852
 30
0.0
 11
-10.249
 21
-21.2742
 31
0.0
  0
LINE
  5
3C
100
AcDbEntity
  8
1
  6
CONTINUOUS
 62
    92
100
AcDbLine
 10
120.431
 20
-7.4802
 30
0.0
 11
120.431
 21
-8.5692
 31
0.0
  0
LINE
  5
3D
100
AcDbEntity
  8
1
  6
CONTINUOUS
 62
    92
100
AcDbLine
 10
120.431
 20
-20.1852
 30
0.0
 11
120.431
 21
-21.2742
 31
0.0
  0
LINE
  5
3E
100
AcDbEntity
  8
1
  6
CONTINUOUS
 62
    92
100
AcDbLine
 10
52.7315
 20
-79.7172
 30
0.0
 11
52.7315
 21
50.9628
 31
0.0
  0
LINE
  5
3F
100
AcDbEntity
  8
1
  6
CONTINUOUS
 62
    92
100
AcDbLine
 10
57.4505
 20
-79.7172
 30
0.0
 11
57.4505
 21
50.9628
 31
0.0
  0
LINE
  5
40
100
AcDbEntity
  8
1
  6
CONTINUOUS
 62
    92
100
AcDbLine
 10
51.6425
 20
-79.7172
 30
0.0
 11
51.6425
 21
50.9628
 31
0.0
  0
LINE
  5
41
100
AcDbEntity
  8
1
  6
CONTINUOUS
 62
    92
100
AcDbLine
 10
58.5395
 20
-79.7172
 30
0.0
 11
58.5395
 21
50.9628
 31
0.0
  0
LINE
  5
42
100
AcDbEntity
  8
1
  6
CONTINUOUS
 62
    92
100
AcDbLine
 10
51.6425
 20
50.9628
 30
0.0
 11
52.7315
 21
50.9628
 31
0.0
  0
LINE
  5
43
100
AcDbEntity
  8
1
  6
CONTINUOUS
 62
    92
100
AcDbLine
 10
57.4505
 20
50.9628
 30
0.0
 11
58.5395
 21
50.9628
 31
0.0
  0
LINE
  5
44
100
AcDbEntity
  8
1
  6
CONTINUOUS
 62
    92
100
AcDbLine
 10
51.6425
 20
-79.7172
 30
0.0
 11
52.7315
 21
-79.7172
 31
0.0
  0
LINE
  5
45
100
AcDbEntity
  8
1
  6
CONTINUOUS
 62
    92
100
AcDbLine
 10
57.4505
 20
-79.7172
 30
0.0
 11
58.5395
 21
-79.7172
 31
0.0
  0
LINE
  5
46
100
AcDbEntity
  8
1
  6
CONTINUOUS
 62
    92
100
AcDbLine
 10
-10.249
 20
-7.4802
 30
0.0
 11
51.6425
 21
-7.4802
 31
0.0
  0
LINE
  5
47
100
AcDbEntity
  8
1
  6
CONTINUOUS
 62
    92
100
AcDbLine
 10
52.7315
 20
-7.4802
 30
0.0
 11
57.4505
 21
-7.4802
 31
0.0
  0
LINE
  5
48
100
AcDbEntity
  8
1
  6
CONTINUOUS
 62
    92
100
AcDbLine
 10
58.5395
 20
-7.4802
 30
0.0
 11
120.431
 21
-7.4802
 31
0.0
  0
LINE
  5
49
100
AcDbEntity
  8
1
  6
CONTINUOUS
 62
    92
100
AcDbLine
 10
-10.249
 20
-8.5692
 30
0.0
 11
51.6425
 21
-8.5692
 31
0.0
  0
LINE
  5
4A
100
AcDbEntity
  8
1
  6
CONTINUOUS
 62
    92
100
AcDbLine
 10
52.7315
 20
-8.5692
 30
0.0
 11
57.4505
 21
-8.5692
 31
0.0
  0
LINE
  5
4B
100
AcDbEntity
  8
1
  6
CONTINUOUS
 62
    92
100
AcDbLine
 10
58.5395
 20
-8.5692
 30
0.0
 11
120.431
 21
-8.5692
 31
0.0
  0
LINE
  5
4C
100
AcDbEntity
  8
1
  6
CONTINUOUS
 62
    92
100
AcDbLine
 10
-10.249
 20
-20.1852
 30
0.0
 11
51.6425
 21
-20.1852
 31
0.0
  0
LINE
  5
4D
100
AcDbEntity
  8
1
  6
CONTINUOUS
 62
    92
100
AcDbLine
 10
52.7315
 20
-20.1852
 30
0.0
 11
57.4505
 21
-20.1852
 31
0.0
  0
LINE
  5
4E
100
AcDbEntity
  8
1
  6
CONTINUOUS
 62
    92
100
AcDbLine
 10
58.5395
 20
-20.1852
 30
0.0
 11
120.431
 21
-20.1852
 31
0.0
  0
LINE
  5
4F
100
AcDbEntity
  8
1
  6
CONTINUOUS
 62
    92
100
AcDbLine
 10
-10.249
 20
-21.2742
 30
0.0
 11
51.6425
 21
-21.2742
 31
0.0
  0
LINE
  5
50
100
AcDbEntity
  8
1
  6
CONTINUOUS
 62
    92
100
AcDbLine
 10
52.7315
 20
-21.2742
 30
0.0
 11
57.4505
 21
-21.2742
 31
0.0
  0
LINE
  5
51
100
AcDbEntity
  8
1
  6
CONTINUOUS
 62
    92
100
AcDbLine
 10
58.5395
 20
-21.2742
 30
0.0
 11
120.431
 21
-21.2742
 31
0.0
  0
LINE
  5
52
100
AcDbEntity
  8
1
  6
CONTINUOUS
 62
    92
100
AcDbLine
 10
53.639
 20
-6.3912
 30
0.0
 11
56.543
 21
-6.3912
 31
0.0
  0
LINE
  5
53
100
AcDbEntity
  8
1
  6
CONTINUOUS
 62
    92
100
AcDbLine
 10
53.639
 20
-6.3912
 30
0.0
 11
53.639
 21
-7.4802
 31
0.0
  0
LINE
  5
54
100
AcDbEntity
  8
1
  6
CONTINUOUS
 62
    92
100
AcDbLine
 10
56.543
 20
-6.3912
 30
0.0
 11
56.543
 21
-7.4802
 31
0.0
  0
ARC
  5
55
100
AcDbEntity
  8
1
  6
CONTINUOUS
 62
    92
100
AcDbCircle
 10
55.090927
 20
-6.965499
 30
0.0
 40
1.394249
210
0.0
220
0.0
230
1.0
100
AcDbArc
 50
24.322303
 51
155.677694
  0
LINE
  5
56
100
AcDbEntity
  8
1
  6
CONTINUOUS
 62
    92
100
AcDbLine
 10
50.9165
 20
-9.6582
 30
0.0
 11
50.9165
 21
-8.5692
 31
0.0
  0
LINE
  5
57
100
AcDbEntity
  8
1
  6
CONTINUOUS
 62
    92
100
AcDbLine
 10
59.2655
 20
-9.6582
 30
0.0
 11
59.2655
 21
-8.5692
 31
0.0
  0
LINE
  5
58
100
AcDbEntity
  8
1
  6
CONTINUOUS
 62
    92
100
AcDbLine
 10
50.9165
 20
-9.6582
 30
0.0
 11
51.6425
 21
-9.6582
 31
0.0
  0
LINE
  5
59
100
AcDbEntity
  8
1
  6
CONTINUOUS
 62
    92
100
AcDbLine
 10
52.7315
 20
-9.6582
 30
0.0
 11
57.4505
 21
-9.6582
 31
0.0
  0
LINE
  5
5A
100
AcDbEntity
  8
1
  6
CONTINUOUS
 62
    92
100
AcDbLine
 10
58.5395
 20
-9.6582
 30
0.0
 11
59.2655
 21
-9.6582
 31
0.0
  0
LINE
  5
5B
100
AcDbEntity
  8
1
  6
CONTINUOUS
 62
    92
100
AcDbLine
 10
53.4575
 20
-13.6512
 30
0.0
 11
56.7245
 21
-13.6512
 31
0.0
  0
LINE
  5
5C
100
AcDbEntity
  8
1
  6
CONTINUOUS
 62
    92
100
AcDbLine
 10
51.2795
 20
-9.6582
 30
0.0
 11
51.6425
 21
-10.3239
 31
0.0
  0
LINE
  5
5D
100
AcDbEntity
  8
1
  6
CONTINUOUS
 62
    92
100
AcDbLine
 10
52.7315
 20
-12.3201
 30
0.0
 11
53.4575
 21
-13.6512
 31
0.0
  0
LINE
  5
5E
100
AcDbEntity
  8
1
  6
CONTINUOUS
 62
    92
100
AcDbLine
 10
58.9025
 20
-9.6582
 30
0.0
 11
58.5395
 21
-10.3239
 31
0.0
  0
LINE
  5
5F
100
AcDbEntity
  8
1
  6
CONTINUOUS
 62
    92
100
AcDbLine
 10
57.4505
 20
-12.3202
 30
0.0
 11
56.7245
 21
-13.6512
 31
0.0
  0
LINE
  5
60
100
AcDbEntity
  8
1
  6
CONTINUOUS
 62
    92
100
AcDbLine
 10
53.4575
 20
-14.3772
 30
0.0
 11
56.7245
 21
-14.3772
 31
0.0
  0
LINE
  5
61
100
AcDbEntity
  8
1
  6
CONTINUOUS
 62
    92
100
AcDbLine
 10
52.7315
 20
-15.8292
 30
0.0
 11
57.4505
 21
-15.8292
 31
0.0
  0
ARC
  5
62
100
AcDbEntity
  8
1
  6
CONTINUOUS
 62
    92
100
AcDbCircle
 10
53.524893
 20
-14.610892
 30
0.0
 40
0.243187
210
0.0
220
0.0
230
1.0
100
AcDbArc
 50
106.106561
 51
252.911756
  0
ARC
  5
63
100
AcDbEntity
  8
1
  6
CONTINUOUS
 62
    92
100
AcDbCircle
 10
56.656961
 20
-14.610892
 30
0.0
 40
0.243187
210
0.0
220
0.0
230
1.0
100
AcDbArc
 50
287.088244
 51
73.893439
  0
ARC
  5
64
100
AcDbEntity
  8
1
  6
CONTINUOUS
 62
    92
100
AcDbCircle
 10
52.861184
 20
-15.368038
 30
0.0
 40
0.791243
210
0.0
220
0.0
230
1.0
100
AcDbArc
 50
326.084492
 51
41.538897
  0
ARC
  5
65
100
AcDbEntity
  8
1
  6
CONTINUOUS
 62
    92
100
AcDbCircle
 10
57.32067
 20
-15.368038
 30
0.0
 40
0.791243
210
0.0
220
0.0
230
1.0
100
AcDbArc
 50
138.461103
 51
213.915508
  0
LINE
  5
66
100
AcDbEntity
  8
1
  6
CONTINUOUS
 62
    92
100
AcDbLine
 10
53.4575
 20
-16.5552
 30
0.0
 11
56.7245
 21
-16.5552
 31
0.0
  0
LINE
  5
67
100
AcDbEntity
  8
1
  6
CONTINUOUS
 62
    92
100
AcDbLine
 10
53.4575
 20
-19.4592
 30
0.0
 11
56.7245
 21
-19.4592
 31
0.0
  0
LINE
  5
68
100
AcDbEntity
  8
1
  6
CONTINUOUS
 62
    92
100
AcDbLine
 10
53.4575
 20
-16.5552
 30
0.0
 11
53.4575
 21
-19.4592
 31
0.0
  0
LINE
  5
69
100
AcDbEntity
  8
1
  6
CONTINUOUS
 62
    92
100
AcDbLine
 10
56.7245
 20
-16.5552
 30
0.0
 11
56.7245
 21
-19.4592
 31
0.0
  0
LINE
  5
6A
100
AcDbEntity
  8
1
  6
CONTINUOUS
 62
    92
100
AcDbLine
 10
54.365
 20
-9.6582
 30
0.0
 11
54.365
 21
-13.6512
 31
0.0
  0
LINE
  5
6B
100
AcDbEntity
  8
1
  6
CONTINUOUS
 62
    92
100
AcDbLine
 10
55.817
 20
-9.6582
 30
0.0
 11
55.817
 21
-13.6512
 31
0.0
  0
LINE
  5
6C
100
AcDbEntity
  8
1
  6
CONTINUOUS
 62
    92
100
AcDbLine
 10
54.365
 20
-16.5552
 30
0.0
 11
54.365
 21
-19.4592
 31
0.0
  0
LINE
  5
6D
100
AcDbEntity
  8
1
  6
CONTINUOUS
 62
    92
100
AcDbLine
 10
55.817
 20
-16.5552
 30
0.0
 11
55.817
 21
-19.4592
 31
0.0
  0
LINE
  5
6E
100
AcDbEntity
  8
1
  6
CONTINUOUS
 62
    92
100
AcDbLine
 10
53.4575
 20
-17.5281
 30
0.0
 11
54.365
 21
-17.5281
 31
0.0
  0
LINE
  5
6F
100
AcDbEntity
  8
1
  6
CONTINUOUS
 62
    92
100
AcDbLine
 10
55.817
 20
-17.5281
 30
0.0
 11
56.7245
 21
-17.5281
 31
0.0
  0
LINE
  5
70
100
AcDbEntity
  8
1
  6
CONTINUOUS
 62
    92
100
AcDbLine
 10
53.4575
 20
-18.4864
 30
0.0
 11
54.365
 21
-18.4864
 31
0.0
  0
LINE
  5
71
100
AcDbEntity
  8
1
  6
CONTINUOUS
 62
    92
100
AcDbLine
 10
55.817
 20
-18.4864
 30
0.0
 11
56.7245
 21
-18.4864
 31
0.0
  0
LINE
  5
72
100
AcDbEntity
  8
1
  6
CONTINUOUS
 62
    92
100
AcDbLine
 10
53.639
 20
-22.3632
 30
0.0
 11
56.543
 21
-22.3632
 31
0.0
  0
LINE
  5
73
100
AcDbEntity
  8
1
  6
CONTINUOUS
 62
    92
100
AcDbLine
 10
53.639
 20
-22.3632
 30
0.0
 11
53.639
 21
-21.2742
 31
0.0
  0
LINE
  5
74
100
AcDbEntity
  8
1
  6
CONTINUOUS
 62
    92
100
AcDbLine
 10
56.543
 20
-22.3632
 30
0.0
 11
56.543
 21
-21.2742
 31
0.0
  0
LINE
  5
75
100
AcDbEntity
  8
1
  6
CONTINUOUS
 62
    92
100
AcDbLine
 10
54.365
 20
-22.3632
 30
0.0
 11
54.365
 21
-23.0892
 31
0.0
  0
LINE
  5
76
100
AcDbEntity
  8
1
  6
CONTINUOUS
 62
    92
100
AcDbLine
 10
55.817
 20
-22.3632
 30
0.0
 11
55.817
 21
-23.0892
 31
0.0
  0
LINE
  5
77
100
AcDbEntity
  8
1
  6
CONTINUOUS
 62
    92
100
AcDbLine
 10
54.365
 20
-23.0892
 30
0.0
 11
55.817
 21
-23.0892
 31
0.0
  0
LINE
  5
78
100
AcDbEntity
  8
1
  6
CONTINUOUS
 62
    92
100
AcDbLine
 10
54.728
 20
-22.7262
 30
0.0
 11
55.454
 21
-22.7262
 31
0.0
  0
LINE
  5
79
100
AcDbEntity
  8
1
  6
CONTINUOUS
 62
    92
100
AcDbLine
 10
52.7315
 20
-14.8433
 30
0.0
 11
53.4534
 21
-14.8433
 31
0.0
  0
LINE
  5
7A
100
AcDbEntity
  8
1
  6
CONTINUOUS
 62
    92
100
AcDbLine
 10
56.7284
 20
-14.8433
 30
0.0
 11
57.4505
 21
-14.8433
 31
0.0
  0
LINE
  5
7B
100
AcDbEntity
  8
1
  6
CONTINUOUS
 62
    92
100
AcDbLine
 10
59.6285
 20
-16.5552
 30
0.0
 11
59.6285
 21
-19.4592
 31
0.0
  0
LINE
  5
7C
100
AcDbEntity
  8
1
  6
CONTINUOUS
 62
    92
100
AcDbLine
 10
59.6285
 20
-16.5552
 30
0.0
 11
58.5395
 21
-16.5552
 31
0.0
  0
LINE
  5
7D
100
AcDbEntity
  8
1
  6
CONTINUOUS
 62
    92
100
AcDbLine
 10
59.6285
 20
-19.4592
 30
0.0
 11
58.5395
 21
-19.4592
 31
0.0
  0
ARC
  5
7E
100
AcDbEntity
  8
1
  6
CONTINUOUS
 62
    92
100
AcDbCircle
 10
59.054179
 20
-18.007251
 30
0.0
 40
1.394249
210
0.0
220
0.0
230
1.0
100
AcDbArc
 50
294.322303
 51
65.677694
  0
LINE
  5
7F
100
AcDbEntity
  8
1
  6
CONTINUOUS
 62
    92
100
AcDbLine
 10
50.5535
 20
-16.5552
 30
0.0
 11
50.5535
 21
-19.4592
 31
0.0
  0
LINE
  5
80
100
AcDbEntity
  8
1
  6
CONTINUOUS
 62
    92
100
AcDbLine
 10
50.5535
 20
-16.5552
 30
0.0
 11
51.6425
 21
-16.5552
 31
0.0
  0
LINE
  5
81
100
AcDbEntity
  8
1
  6
CONTINUOUS
 62
    92
100
AcDbLine
 10
50.5535
 20
-19.4592
 30
0.0
 11
51.6425
 21
-19.4592
 31
0.0
  0
LINE
  5
82
100
AcDbEntity
  8
1
  6
CONTINUOUS
 62
    92
100
AcDbLine
 10
50.5535
 20
-17.2812
 30
0.0
 11
49.8275
 21
-17.2812
 31
0.0
  0
LINE
  5
83
100
AcDbEntity
  8
1
  6
CONTINUOUS
 62
    92
100
AcDbLine
 10
50.5535
 20
-18.7332
 30
0.0
 11
49.8275
 21
-18.7332
 31
0.0
  0
LINE
  5
84
100
AcDbEntity
  8
1
  6
CONTINUOUS
 62
    92
100
AcDbLine
 10
49.8275
 20
-17.2812
 30
0.0
 11
49.8275
 21
-18.7332
 31
0.0
  0
LINE
  5
85
100
AcDbEntity
  8
1
  6
CONTINUOUS
 62
    92
100
AcDbLine
 10
50.1905
 20
-17.6442
 30
0.0
 11
50.1905
 21
-18.3702
 31
0.0
  0
LINE
  5
86
100
AcDbEntity
  8
1
  6
CONTINUOUS
 62
    92
100
AcDbLine
 10
58.5395
 20
-75.7242
 30
0.0
 11
59.6285
 21
-75.7242
 31
0.0
  0
LINE
  5
87
100
AcDbEntity
  8
1
  6
CONTINUOUS
 62
    92
100
AcDbLine
 10
58.5395
 20
-72.4572
 30
0.0
 11
59.6285
 21
-72.4572
 31
0.0
  0
LINE
  5
88
100
AcDbEntity
  8
1
  6
CONTINUOUS
 62
    92
100
AcDbLine
 10
59.6285
 20
-72.4572
 30
0.0
 11
59.6285
 21
-75.7242
 31
0.0
  0
LINE
  5
89
100
AcDbEntity
  8
1
  6
CONTINUOUS
 62
    92
100
AcDbLine
 10
60.7175
 20
-72.8202
 30
0.0
 11
60.7175
 21
-75.3612
 31
0.0
  0
LINE
  5
8A
100
AcDbEntity
  8
1
  6
CONTINUOUS
 62
    92
100
AcDbLine
 10
60.7175
 20
-72.8202
 30
0.0
 11
59.6285
 21
-72.8202
 31
0.0
  0
LINE
  5
8B
100
AcDbEntity
  8
1
  6
CONTINUOUS
 62
    92
100
AcDbLine
 10
60.7175
 20
-75.3612
 30
0.0
 11
59.6285
 21
-75.3612
 31
0.0
  0
LINE
  5
8C
100
AcDbEntity
  8
1
  6
CONTINUOUS
 62
    92
100
AcDbLine
 10
60.7175
 20
-73.5462
 30
0.0
 11
59.6285
 21
-73.5462
 31
0.0
  0
LINE
  5
8D
100
AcDbEntity
  8
1
  6
CONTINUOUS
 62
    92
100
AcDbLine
 10
60.7175
 20
-74.6352
 30
0.0
 11
59.6285
 21
-74.6352
 31
0.0
  0
LINE
  5
8E
100
AcDbEntity
  8
1
  6
CONTINUOUS
 62
    92
100
AcDbLine
 10
56.3615
 20
-72.8202
 30
0.0
 11
56.3615
 21
-75.3612
 31
0.0
  0
LINE
  5
8F
100
AcDbEntity
  8
1
  6
CONTINUOUS
 62
    92
100
AcDbLine
 10
56.3615
 20
-72.8202
 30
0.0
 11
57.4505
 21
-72.8202
 31
0.0
  0
LINE
  5
90
100
AcDbEntity
  8
1
  6
CONTINUOUS
 62
    92
100
AcDbLine
 10
56.3615
 20
-75.3612
 30
0.0
 11
57.4505
 21
-75.3612
 31
0.0
  0
LINE
  5
91
100
AcDbEntity
  8
1
  6
CONTINUOUS
 62
    92
100
AcDbLine
 10
53.8205
 20
-72.8202
 30
0.0
 11
53.8205
 21
-75.3612
 31
0.0
  0
LINE
  5
92
100
AcDbEntity
  8
1
  6
CONTINUOUS
 62
    92
100
AcDbLine
 10
51.6425
 20
-75.7242
 30
0.0
 11
50.5535
 21
-75.7242
 31
0.0
  0
LINE
  5
93
100
AcDbEntity
  8
1
  6
CONTINUOUS
 62
    92
100
AcDbLine
 10
51.6425
 20
-72.4572
 30
0.0
 11
50.5535
 21
-72.4572
 31
0.0
  0
LINE
  5
94
100
AcDbEntity
  8
1
  6
CONTINUOUS
 62
    92
100
AcDbLine
 10
50.5535
 20
-72.4572
 30
0.0
 11
50.5535
 21
-75.7242
 31
0.0
  0
LINE
  5
95
100
AcDbEntity
  8
1
  6
CONTINUOUS
 62
    92
100
AcDbLine
 10
49.4645
 20
-72.8202
 30
0.0
 11
49.4645
 21
-75.3612
 31
0.0
  0
LINE
  5
96
100
AcDbEntity
  8
1
  6
CONTINUOUS
 62
    92
100
AcDbLine
 10
49.4645
 20
-72.8202
 30
0.0
 11
50.5535
 21
-72.8202
 31
0.0
  0
LINE
  5
97
100
AcDbEntity
  8
1
  6
CONTINUOUS
 62
    92
100
AcDbLine
 10
49.4645
 20
-75.3612
 30
0.0
 11
50.5535
 21
-75.3612
 31
0.0
  0
LINE
  5
98
100
AcDbEntity
  8
1
  6
CONTINUOUS
 62
    92
100
AcDbLine
 10
48.7385
 20
-73.5462
 30
0.0
 11
50.5535
 21
-73.5462
 31
0.0
  0
LINE
  5
99
100
AcDbEntity
  8
1
  6
CONTINUOUS
 62
    92
100
AcDbLine
 10
48.7385
 20
-74.6352
 30
0.0
 11
50.5535
 21
-74.6352
 31
0.0
  0
LINE
  5
9A
100
AcDbEntity
  8
1
  6
CONTINUOUS
 62
    92
100
AcDbLine
 10
53.8205
 20
-72.8202
 30
0.0
 11
52.7315
 21
-72.8202
 31
0.0
  0
LINE
  5
9B
100
AcDbEntity
  8
1
  6
CONTINUOUS
 62
    92
100
AcDbLine
 10
53.8205
 20
-75.3612
 30
0.0
 11
52.7315
 21
-75.3612
 31
0.0
  0
LINE
  5
9C
100
AcDbEntity
  8
1
  6
CONTINUOUS
 62
    92
100
AcDbLine
 10
53.8205
 20
-73.5462
 30
0.0
 11
52.7315
 21
-73.5462
 31
0.0
  0
LINE
  5
9D
100
AcDbEntity
  8
1
  6
CONTINUOUS
 62
    92
100
AcDbLine
 10
53.8205
 20
-74.6352
 30
0.0
 11
52.7315
 21
-74.6352
 31
0.0
  0
LINE
  5
9E
100
AcDbEntity
  8
1
  6
CONTINUOUS
 62
    92
100
AcDbLine
 10
48.7385
 20
-73.5462
 30
0.0
 11
48.7385
 21
-74.6352
 31
0.0
  0
LINE
  5
9F
100
AcDbEntity
  8
1
  6
CONTINUOUS
 62
    92
100
AcDbLine
 10
49.1015
 20
-73.9092
 30
0.0
 11
49.1015
 21
-74.2722
 31
0.0
  0
LINE
  5
A0
100
AcDbEntity
  8
1
  6
CONTINUOUS
 62
    92
100
AcDbLine
 10
56.3615
 20
-73.5462
 30
0.0
 11
57.4505
 21
-73.5462
 31
0.0
  0
LINE
  5
A1
100
AcDbEntity
  8
1
  6
CONTINUOUS
 62
    92
100
AcDbLine
 10
56.3615
 20
-74.6352
 30
0.0
 11
57.4505
 21
-74.6352
 31
0.0
  0
LINE
  5
A2
100
AcDbEntity
  8
1
  6
CONTINUOUS
 62
    92
100
AcDbLine
 10
55.091
 20
-73.5462
 30
0.0
 11
55.091
 21
-74.6352
 31
0.0
  0
LINE
  5
A3
100
AcDbEntity
  8
1
  6
CONTINUOUS
 62
    92
100
AcDbLine
 10
53.8205
 20
-73.5462
 30
0.0
 11
55.091
 21
-73.5462
 31
0.0
  0
LINE
  5
A4
100
AcDbEntity
  8
1
  6
CONTINUOUS
 62
    92
100
AcDbLine
 10
55.091
 20
-73.5462
 30
0.0
 11
56.3615
 21
-73.5462
 31
0.0
  0
LINE
  5
A5
100
AcDbEntity
  8
1
  6
CONTINUOUS
 62
    92
100
AcDbLine
 10
53.8205
 20
-74.6352
 30
0.0
 11
55.091
 21
-74.6352
 31
0.0
  0
LINE
  5
A6
100
AcDbEntity
  8
1
  6
CONTINUOUS
 62
    92
100
AcDbLine
 10
55.091
 20
-74.6352
 30
0.0
 11
56.3615
 21
-74.6352
 31
0.0
  0
LINE
  5
A7
100
AcDbEntity
  8
1
  6
CONTINUOUS
 62
    92
100
AcDbLine
 10
54.4557
 20
-73.5462
 30
0.0
 11
54.4557
 21
-74.6352
 31
0.0
  0
LINE
  5
A8
100
AcDbEntity
  8
1
  6
CONTINUOUS
 62
    92
100
AcDbLine
 10
55.7262
 20
-73.5462
 30
0.0
 11
55.7262
 21
-74.6352
 31
0.0
  0
LINE
  5
A9
100
AcDbEntity
  8
1
  6
CONTINUOUS
 62
    92
100
AcDbLine
 10
55.091
 20
44.7918
 30
0.0
 11
55.091
 21
45.8808
 31
0.0
  0
LINE
  5
AA
100
AcDbEntity
  8
1
  6
CONTINUOUS
 62
    92
100
AcDbLine
 10
58.5395
 20
46.9698
 30
0.0
 11
59.6285
 21
46.9698
 31
0.0
  0
LINE
  5
AB
100
AcDbEntity
  8
1
  6
CONTINUOUS
 62
    92
100
AcDbLine
 10
58.5395
 20
43.7028
 30
0.0
 11
59.6285
 21
43.7028
 31
0.0
  0
LINE
  5
AC
100
AcDbEntity
  8
1
  6
CONTINUOUS
 62
    92
100
AcDbLine
 10
59.6285
 20
43.7028
 30
0.0
 11
59.6285
 21
46.9698
 31
0.0
  0
LINE
  5
AD
100
AcDbEntity
  8
1
  6
CONTINUOUS
 62
    92
100
AcDbLine
 10
60.7175
 20
44.0658
 30
0.0
 11
60.7175
 21
46.6068
 31
0.0
  0
LINE
  5
AE
100
AcDbEntity
  8
1
  6
CONTINUOUS
 62
    92
100
AcDbLine
 10
60.7175
 20
44.0658
 30
0.0
 11
59.6285
 21
44.0658
 31
0.0
  0
LINE
  5
AF
100
AcDbEntity
  8
1
  6
CONTINUOUS
 62
    92
100
AcDbLine
 10
60.7175
 20
46.6068
 30
0.0
 11
59.6285
 21
46.6068
 31
0.0
  0
LINE
  5
B0
100
AcDbEntity
  8
1
  6
CONTINUOUS
 62
    92
100
AcDbLine
 10
60.7175
 20
44.7918
 30
0.0
 11
59.6285
 21
44.7918
 31
0.0
  0
LINE
  5
B1
100
AcDbEntity
  8
1
  6
CONTINUOUS
 62
    92
100
AcDbLine
 10
60.7175
 20
45.8808
 30
0.0
 11
59.6285
 21
45.8808
 31
0.0
  0
LINE
  5
B2
100
AcDbEntity
  8
1
  6
CONTINUOUS
 62
    92
100
AcDbLine
 10
56.3615
 20
44.0658
 30
0.0
 11
56.3615
 21
46.6068
 31
0.0
  0
LINE
  5
B3
100
AcDbEntity
  8
1
  6
CONTINUOUS
 62
    92
100
AcDbLine
 10
56.3615
 20
44.0658
 30
0.0
 11
57.4505
 21
44.0658
 31
0.0
  0
LINE
  5
B4
100
AcDbEntity
  8
1
  6
CONTINUOUS
 62
    92
100
AcDbLine
 10
56.3615
 20
46.6068
 30
0.0
 11
57.4505
 21
46.6068
 31
0.0
  0
LINE
  5
B5
100
AcDbEntity
  8
1
  6
CONTINUOUS
 62
    92
100
AcDbLine
 10
53.8205
 20
44.0658
 30
0.0
 11
53.8205
 21
46.6068
 31
0.0
  0
LINE
  5
B6
100
AcDbEntity
  8
1
  6
CONTINUOUS
 62
    92
100
AcDbLine
 10
51.6425
 20
46.9698
 30
0.0
 11
50.5535
 21
46.9698
 31
0.0
  0
LINE
  5
B7
100
AcDbEntity
  8
1
  6
CONTINUOUS
 62
    92
100
AcDbLine
 10
51.6425
 20
43.7028
 30
0.0
 11
50.5535
 21
43.7028
 31
0.0
  0
LINE
  5
B8
100
AcDbEntity
  8
1
  6
CONTINUOUS
 62
    92
100
AcDbLine
 10
50.5535
 20
43.7028
 30
0.0
 11
50.5535
 21
46.9698
 31
0.0
  0
LINE
  5
B9
100
AcDbEntity
  8
1
  6
CONTINUOUS
 62
    92
100
AcDbLine
 10
49.4645
 20
44.0658
 30
0.0
 11
49.4645
 21
46.6068
 31
0.0
  0
LINE
  5
BA
100
AcDbEntity
  8
1
  6
CONTINUOUS
 62
    92
100
AcDbLine
 10
49.4645
 20
44.0658
 30
0.0
 11
50.5535
 21
44.0658
 31
0.0
  0
LINE
  5
BB
100
AcDbEntity
  8
1
  6
CONTINUOUS
 62
    92
100
AcDbLine
 10
49.4645
 20
46.6068
 30
0.0
 11
50.5535
 21
46.6068
 31
0.0
  0
LINE
  5
BC
100
AcDbEntity
  8
1
  6
CONTINUOUS
 62
    92
100
AcDbLine
 10
48.7385
 20
44.7918
 30
0.0
 11
50.5535
 21
44.7918
 31
0.0
  0
LINE
  5
BD
100
AcDbEntity
  8
1
  6
CONTINUOUS
 62
    92
100
AcDbLine
 10
48.7385
 20
45.8808
 30
0.0
 11
50.5535
 21
45.8808
 31
0.0
  0
LINE
  5
BE
100
AcDbEntity
  8
1
  6
CONTINUOUS
 62
    92
100
AcDbLine
 10
53.8205
 20
44.0658
 30
0.0
 11
52.7315
 21
44.0658
 31
0.0
  0
LINE
  5
BF
100
AcDbEntity
  8
1
  6
CONTINUOUS
 62
    92
100
AcDbLine
 10
53.8205
 20
46.6068
 30
0.0
 11
52.7315
 21
46.6068
 31
0.0
  0
LINE
  5
C0
100
AcDbEntity
  8
1
  6
CONTINUOUS
 62
    92
100
AcDbLine
 10
53.8205
 20
44.7918
 30
0.0
 11
52.7315
 21
44.7918
 31
0.0
  0
LINE
  5
C1
100
AcDbEntity
  8
1
  6
CONTINUOUS
 62
    92
100
AcDbLine
 10
53.8205
 20
45.8808
 30
0.0
 11
52.7315
 21
45.8808
 31
0.0
  0
LINE
  5
C2
100
AcDbEntity
  8
1
  6
CONTINUOUS
 62
    92
100
AcDbLine
 10
48.7385
 20
44.7918
 30
0.0
 11
48.7385
 21
45.8808
 31
0.0
  0
LINE
  5
C3
100
AcDbEntity
  8
1
  6
CONTINUOUS
 62
    92
100
AcDbLine
 10
49.1015
 20
45.1548
 30
0.0
 11
49.1015
 21
45.5178
 31
0.0
  0
LINE
  5
C4
100
AcDbEntity
  8
1
  6
CONTINUOUS
 62
    92
100
AcDbLine
 10
56.3615
 20
44.7918
 30
0.0
 11
57.4505
 21
44.7918
 31
0.0
  0
LINE
  5
C5
100
AcDbEntity
  8
1
  6
CONTINUOUS
 62
    92
100
AcDbLine
 10
56.3615
 20
45.8808
 30
0.0
 11
57.4505
 21
45.8808
 31
0.0
  0
LINE
  5
C6
100
AcDbEntity
  8
1
  6
CONTINUOUS
 62
    92
100
AcDbLine
 10
53.8205
 20
44.7918
 30
0.0
 11
55.091
 21
44.7918
 31
0.0
  0
LINE
  5
C7
100
AcDbEntity
  8
1
  6
CONTINUOUS
 62
    92
100
AcDbLine
 10
55.091
 20
44.7918
 30
0.0
 11
56.3615
 21
44.7918
 31
0.0
  0
LINE
  5
C8
100
AcDbEntity
  8
1
  6
CONTINUOUS
 62
    92
100
AcDbLine
 10
53.8205
 20
45.8808
 30
0.0
 11
55.091
 21
45.8808
 31
0.0
  0
LINE
  5
C9
100
AcDbEntity
  8
1
  6
CONTINUOUS
 62
    92
100
AcDbLine
 10
55.091
 20
45.8808
 30
0.0
 11
56.3615
 21
45.8808
 31
0.0
  0
LINE
  5
CA
100
AcDbEntity
  8
1
  6
CONTINUOUS
 62
    92
100
AcDbLine
 10
54.4557
 20
44.7918
 30
0.0
 11
54.4557
 21
45.8808
 31
0.0
  0
LINE
  5
CB
100
AcDbEntity
  8
1
  6
CONTINUOUS
 62
    92
100
AcDbLine
 10
55.7262
 20
44.7918
 30
0.0
 11
55.7262
 21
45.8808
 31
0.0
  0
LINE
  5
CC
100
AcDbEntity
  8
1
  6
CONTINUOUS
 62
     7
100
AcDbLine
 10
55.091
 20
47.3328
 30
0.0
 11
55.091
 21
52.4148
 31
0.0
  0
LINE
  5
CD
100
AcDbEntity
  8
1
  6
CONTINUOUS
 62
     7
100
AcDbLine
 10
55.091
 20
43.3398
 30
0.0
 11
55.091
 21
23.2402
 31
0.0
  0
LINE
  5
CE
100
AcDbEntity
  8
1
  6
CONTINUOUS
 62
     7
100
AcDbLine
 10
55.091
 20
15.9802
 30
0.0
 11
55.091
 21
-4.1192
 31
0.0
  0
LINE
  5
CF
100
AcDbEntity
  8
1
  6
CONTINUOUS
 62
     7
100
AcDbLine
 10
55.091
 20
19.6102
 30
0.0
 11
55.091
 21
21.0622
 31
0.0
  0
LINE
  5
D0
100
AcDbEntity
  8
1
  6
CONTINUOUS
 62
     7
100
AcDbLine
 10
55.091
 20
19.6102
 30
0.0
 11
55.091
 21
18.1582
 31
0.0
  0
LINE
  5
D1
100
AcDbEntity
  8
1
  6
CONTINUOUS
 62
     7
100
AcDbLine
 10
55.091
 20
-24.5412
 30
0.0
 11
55.091
 21
-72.0942
 31
0.0
  0
LINE
  5
D2
100
AcDbEntity
  8
1
  6
CONTINUOUS
 62
     7
100
AcDbLine
 10
55.091
 20
-74.6352
 30
0.0
 11
55.091
 21
-79.7172
 31
0.0
  0
LINE
  5
D3
100
AcDbEntity
  8
1
  6
CONTINUOUS
 62
     7
100
AcDbLine
 10
55.091
 20
-83.3472
 30
0.0
 11
55.091
 21
-84.7992
 31
0.0
  0
LINE
  5
D4
100
AcDbEntity
  8
1
  6
CONTINUOUS
 62
     7
100
AcDbLine
 10
55.091
 20
-83.3472
 30
0.0
 11
55.091
 21
-81.8952
 31
0.0
  0
LINE
  5
D5
100
AcDbEntity
  8
1
  6
CONTINUOUS
 62
     7
100
AcDbLine
 10
55.091
 20
-86.9772
 30
0.0
 11
55.091
 21
-97.1412
 31
0.0
  0
LINE
  5
D6
100
AcDbEntity
  8
1
  6
CONTINUOUS
 62
    92
100
AcDbLine
 10
52.7315
 20
-98.5932
 30
0.0
 11
52.7315
 21
-157.7892
 31
0.0
  0
LINE
  5
D7
100
AcDbEntity
  8
1
  6
CONTINUOUS
 62
    92
100
AcDbLine
 10
57.4505
 20
-98.5932
 30
0.0
 11
57.4505
 21
-157.7892
 31
0.0
  0
LINE
  5
D8
100
AcDbEntity
  8
1
  6
CONTINUOUS
 62
    92
100
AcDbLine
 10
51.6425
 20
-98.5932
 30
0.0
 11
58.5395
 21
-98.5932
 31
0.0
  0
LINE
  5
D9
100
AcDbEntity
  8
1
  6
CONTINUOUS
 62
    92
100
AcDbLine
 10
51.6425
 20
-98.5932
 30
0.0
 11
51.6425
 21
-153.5532
 31
0.0
  0
LINE
  5
DA
100
AcDbEntity
  8
1
  6
CONTINUOUS
 62
    92
100
AcDbLine
 10
58.5395
 20
-98.5932
 30
0.0
 11
58.5395
 21
-153.5532
 31
0.0
  0
LINE
  5
DB
100
AcDbEntity
  8
1
  6
CONTINUOUS
 62
    92
100
AcDbLine
 10
7.8155
 20
-157.7892
 30
0.0
 11
103.8155
 21
-157.7892
 31
0.0
  0
LINE
  5
DC
100
AcDbEntity
  8
1
  6
CONTINUOUS
 62
    92
100
AcDbLine
 10
1.8155
 20
-163.7892
 30
0.0
 11
1.8155
 21
-259.7892
 31
0.0
  0
LINE
  5
DD
100
AcDbEntity
  8
1
  6
CONTINUOUS
 62
    92
100
AcDbLine
 10
109.8155
 20
-163.7892
 30
0.0
 11
109.8155
 21
-259.7892
 31
0.0
  0
LINE
  5
DE
100
AcDbEntity
  8
1
  6
CONTINUOUS
 62
    92
100
AcDbLine
 10
51.6425
 20
-153.5532
 30
0.0
 11
52.7315
 21
-153.5532
 31
0.0
  0
LINE
  5
DF
100
AcDbEntity
  8
1
  6
CONTINUOUS
 62
    92
100
AcDbLine
 10
57.4505
 20
-153.5532
 30
0.0
 11
58.5395
 21
-153.5532
 31
0.0
  0
LINE
  5
E0
100
AcDbEntity
  8
1
  6
DASHED
 62
    92
100
AcDbLine
 10
52.7315
 20
-157.7892
 30
0.0
 11
52.7315
 21
-265.7892
 31
0.0
  0
LINE
  5
E1
100
AcDbEntity
  8
1
  6
DASHED
 62
    92
100
AcDbLine
 10
57.4505
 20
-157.7892
 30
0.0
 11
57.4505
 21
-265.7892
 31
0.0
  0
LINE
  5
E2
100
AcDbEntity
  8
1
  6
DASHED
 62
    92
100
AcDbLine
 10
50.9165
 20
-157.7892
 30
0.0
 11
50.9165
 21
-265.7892
 31
0.0
  0
LINE
  5
E3
100
AcDbEntity
  8
1
  6
CONTINUOUS
 62
    92
100
AcDbLine
 10
50.9165
 20
-265.7892
 30
0.0
 11
50.9165
 21
-380.2812
 31
0.0
  0
LINE
  5
E4
100
AcDbEntity
  8
1
  6
CONTINUOUS
 62
    92
100
AcDbLine
 10
52.7315
 20
-265.7892
 30
0.0
 11
52.7315
 21
-380.2812
 31
0.0
  0
LINE
  5
E5
100
AcDbEntity
  8
1
  6
CONTINUOUS
 62
    92
100
AcDbLine
 10
57.4505
 20
-265.7892
 30
0.0
 11
57.4505
 21
-380.2812
 31
0.0
  0
LINE
  5
E6
100
AcDbEntity
  8
1
  6
CONTINUOUS
 62
    92
100
AcDbLine
 10
59.2655
 20
-265.7892
 30
0.0
 11
59.2655
 21
-380.2812
 31
0.0
  0
LINE
  5
E7
100
AcDbEntity
  8
1
  6
CONTINUOUS
 62
    92
100
AcDbLine
 10
55.091
 20
-375.1992
 30
0.0
 11
55.091
 21
-385.3632
 31
0.0
  0
LINE
  5
E8
100
AcDbEntity
  8
1
  6
CONTINUOUS
 62
    92
100
AcDbLine
 10
48.0125
 20
-380.2812
 30
0.0
 11
53.639
 21
-380.2812
 31
0.0
  0
LINE
  5
E9
100
AcDbEntity
  8
1
  6
CONTINUOUS
 62
    92
100
AcDbLine
 10
56.543
 20
-380.2812
 30
0.0
 11
62.1695
 21
-380.2812
 31
0.0
  0
LINE
  5
EA
100
AcDbEntity
  8
1
  6
CONTINUOUS
 62
    92
100
AcDbLine
 10
55.091
 20
-375.1992
 30
0.0
 11
56.543
 21
-380.2812
 31
0.0
  0
LINE
  5
EB
100
AcDbEntity
  8
1
  6
CONTINUOUS
 62
    92
100
AcDbLine
 10
55.091
 20
-385.3632
 30
0.0
 11
53.639
 21
-380.2812
 31
0.0
  0
LINE
  5
EC
100
AcDbEntity
  8
1
  6
CONTINUOUS
 62
    92
100
AcDbLine
 10
7.8155
 20
-265.7892
 30
0.0
 11
59.2655
 21
-265.7892
 31
0.0
  0
LINE
  5
ED
100
AcDbEntity
  8
1
  6
CONTINUOUS
 62
    92
100
AcDbLine
 10
59.2655
 20
-265.7892
 30
0.0
 11
103.8155
 21
-265.7892
 31
0.0
  0
LINE
  5
EE
100
AcDbEntity
  8
1
  6
DASHED
 62
    92
100
AcDbLine
 10
59.2655
 20
-157.7892
 30
0.0
 11
59.2655
 21
-265.7892
 31
0.0
  0
ARC
  5
EF
100
AcDbEntity
  8
1
  6
CONTINUOUS
 62
    92
100
AcDbCircle
 10
103.8155
 20
-163.7892
 30
0.0
 40
6.0
210
0.0
220
0.0
230
1.0
100
AcDbArc
 50
0.0
 51
90.0
  0
ARC
  5
F0
100
AcDbEntity
  8
1
  6
CONTINUOUS
 62
    92
100
AcDbCircle
 10
103.8155
 20
-259.7892
 30
0.0
 40
6.0
210
0.0
220
0.0
230
1.0
100
AcDbArc
 50
270.0
 51
0.0
  0
ARC
  5
F1
100
AcDbEntity
  8
1
  6
CONTINUOUS
 62
    92
100
AcDbCircle
 10
7.8155
 20
-259.7892
 30
0.0
 40
6.0
210
0.0
220
0.0
230
1.0
100
AcDbArc
 50
180.0
 51
270.0
  0
CIRCLE
  5
F2
100
AcDbEntity
  8
1
  6
CONTINUOUS
 62
    92
100
AcDbCircle
 10
55.091
 20
-101.5932
 30
0.0
 40
0.9
210
0.0
220
0.0
230
1.0
  0
CIRCLE
  5
F3
100
AcDbEntity
  8
1
  6
CONTINUOUS
 62
    92
100
AcDbCircle
 10
55.091
 20
-105.1932
 30
0.0
 40
0.9
210
0.0
220
0.0
230
1.0
  0
CIRCLE
  5
F4
100
AcDbEntity
  8
1
  6
CONTINUOUS
 62
    92
100
AcDbCircle
 10
55.091
 20
-108.7932
 30
0.0
 40
0.9
210
0.0
220
0.0
230
1.0
  0
CIRCLE
  5
F5
100
AcDbEntity
  8
1
  6
CONTINUOUS
 62
    92
100
AcDbCircle
 10
55.091
 20
-112.3932
 30
0.0
 40
0.9
210
0.0
220
0.0
230
1.0
  0
CIRCLE
  5
F6
100
AcDbEntity
  8
1
  6
CONTINUOUS
 62
    92
100
AcDbCircle
 10
55.091
 20
-115.9932
 30
0.0
 40
0.9
210
0.0
220
0.0
230
1.0
  0
CIRCLE
  5
F7
100
AcDbEntity
  8
1
  6
CONTINUOUS
 62
    92
100
AcDbCircle
 10
55.091
 20
-119.5932
 30
0.0
 40
0.9
210
0.0
220
0.0
230
1.0
  0
CIRCLE
  5
F8
100
AcDbEntity
  8
1
  6
CONTINUOUS
 62
    92
100
AcDbCircle
 10
55.091
 20
-123.1932
 30
0.0
 40
0.9
210
0.0
220
0.0
230
1.0
  0
CIRCLE
  5
F9
100
AcDbEntity
  8
1
  6
CONTINUOUS
 62
    92
100
AcDbCircle
 10
55.091
 20
-126.7932
 30
0.0
 40
0.9
210
0.0
220
0.0
230
1.0
  0
CIRCLE
  5
FA
100
AcDbEntity
  8
1
  6
CONTINUOUS
 62
    92
100
AcDbCircle
 10
55.091
 20
-130.3932
 30
0.0
 40
0.9
210
0.0
220
0.0
230
1.0
  0
CIRCLE
  5
FB
100
AcDbEntity
  8
1
  6
CONTINUOUS
 62
    92
100
AcDbCircle
 10
55.091
 20
-133.9932
 30
0.0
 40
0.9
210
0.0
220
0.0
230
1.0
  0
CIRCLE
  5
FC
100
AcDbEntity
  8
1
  6
CONTINUOUS
 62
    92
100
AcDbCircle
 10
55.091
 20
-137.5932
 30
0.0
 40
0.9
210
0.0
220
0.0
230
1.0
  0
CIRCLE
  5
FD
100
AcDbEntity
  8
1
  6
CONTINUOUS
 62
    92
100
AcDbCircle
 10
55.091
 20
-141.1932
 30
0.0
 40
0.9
210
0.0
220
0.0
230
1.0
  0
CIRCLE
  5
FE
100
AcDbEntity
  8
1
  6
CONTINUOUS
 62
    92
100
AcDbCircle
 10
55.091
 20
-144.7932
 30
0.0
 40
0.9
210
0.0
220
0.0
230
1.0
  0
CIRCLE
  5
FF
100
AcDbEntity
  8
1
  6
CONTINUOUS
 62
    92
100
AcDbCircle
 10
55.091
 20
-148.3932
 30
0.0
 40
0.9
210
0.0
220
0.0
230
1.0
  0
CIRCLE
  5
100
100
AcDbEntity
  8
1
  6
CONTINUOUS
 62
    92
100
AcDbCircle
 10
55.091
 20
-151.9932
 30
0.0
 40
0.9
210
0.0
220
0.0
230
1.0
  0
CIRCLE
  5
101
100
AcDbEntity
  8
1
  6
CONTINUOUS
 62
    92
100
AcDbCircle
 10
55.091
 20
-155.5932
 30
0.0
 40
0.9
210
0.0
220
0.0
230
1.0
  0
CIRCLE
  5
102
100
AcDbEntity
  8
1
  6
HIDDEN
 62
    92
100
AcDbCircle
 10
55.091
 20
-159.1932
 30
0.0
 40
0.9
210
0.0
220
0.0
230
1.0
  0
CIRCLE
  5
103
100
AcDbEntity
  8
1
  6
HIDDEN
 62
    92
100
AcDbCircle
 10
55.091
 20
-162.7932
 30
0.0
 40
1.2
210
0.0
220
0.0
230
1.0
  0
CIRCLE
  5
104
100
AcDbEntity
  8
1
  6
CONTINUOUS
 62
    92
100
AcDbCircle
 10
55.091
 20
-166.3932
 30
0.0
 40
1.5
210
0.0
220
0.0
230
1.0
  0
LWPOLYLINE
  5
105
100
AcDbEntity
  8
1
  6
CONTINUOUS
 62
    92
100
AcDbPolyline
 90
        6
 70
     1
 10
56.4178
 20
-166.3932
 10
55.7544
 20
-165.2442
 10
54.4276
 20
-165.2442
 10
53.7642
 20
-166.3932
 10
54.4276
 20
-167.5422
 10
55.7544
 20
-167.5422
  0
CIRCLE
  5
106
100
AcDbEntity
  8
1
  6
HIDDEN
 62
    92
100
AcDbCircle
 10
55.091
 20
-169.3932
 30
0.0
 40
0.9
210
0.0
220
0.0
230
1.0
  0
CIRCLE
  5
107
100
AcDbEntity
  8
1
  6
HIDDEN
 62
    92
100
AcDbCircle
 10
55.091
 20
-172.3932
 30
0.0
 40
1.2
210
0.0
220
0.0
230
1.0
  0
CIRCLE
  5
108
100
AcDbEntity
  8
1
  6
HIDDEN
 62
    92
100
AcDbCircle
 10
55.091
 20
-175.3932
 30
0.0
 40
0.9
210
0.0
220
0.0
230
1.0
  0
LINE
  5
109
100
AcDbEntity
  8
1
  6
HIDDEN
 62
    92
100
AcDbLine
 10
52.7315
 20
-178.3932
 30
0.0
 11
57.4505
 21
-178.3932
 31
0.0
  0
LINE
  5
10A
100
AcDbEntity
  8
1
  6
HIDDEN
 62
    92
100
AcDbLine
 10
52.7315
 20
-178.9932
 30
0.0
 11
57.4505
 21
-178.9932
 31
0.0
  0
LINE
  5
10B
100
AcDbEntity
  8
1
  6
CONTINUOUS
 62
     7
100
AcDbLine
 10
55.091
 20
-163.9932
 30
0.0
 11
55.091
 21
-170.725
 31
0.0
  0
CIRCLE
  5
10C
100
AcDbEntity
  8
1
  6
HIDDEN
 62
    92
100
AcDbCircle
 10
55.091
 20
-190.3932
 30
0.0
 40
1.2
210
0.0
220
0.0
230
1.0
  0
CIRCLE
  5
10D
100
AcDbEntity
  8
1
  6
HIDDEN
 62
    92
100
AcDbCircle
 10
55.091
 20
-226.9932
 30
0.0
 40
1.2
210
0.0
220
0.0
230
1.0
  0
CIRCLE
  5
10E
100
AcDbEntity
  8
1
  6
CONTINUOUS
 62
    92
100
AcDbCircle
 10
55.091
 20
-258.1932
 30
0.0
 40
1.5
210
0.0
220
0.0
230
1.0
  0
LWPOLYLINE
  5
10F
100
AcDbEntity
  8
1
  6
CONTINUOUS
 62
    92
100
AcDbPolyline
 90
        6
 70
     1
 10
56.4178
 20
-258.1932
 10
55.7544
 20
-257.0442
 10
54.4276
 20
-257.0442
 10
53.7642
 20
-258.1932
 10
54.4276
 20
-259.3422
 10
55.7544
 20
-259.3422
  0
CIRCLE
  5
110
100
AcDbEntity
  8
1
  6
CONTINUOUS
 62
    92
100
AcDbCircle
 10
55.091
 20
-291.7932
 30
0.0
 40
1.2
210
0.0
220
0.0
230
1.0
  0
CIRCLE
  5
111
100
AcDbEntity
  8
1
  6
CONTINUOUS
 62
    92
100
AcDbCircle
 10
55.091
 20
-355.5972
 30
0.0
 40
1.2
210
0.0
220
0.0
230
1.0
  0
LINE
  5
112
100
AcDbEntity
  8
1
  6
CONTINUOUS
 62
    92
100
AcDbLine
 10
53.891
 20
-291.7932
 30
0.0
 11
56.291
 21
-291.7932
 31
0.0
  0
LINE
  5
113
100
AcDbEntity
  8
1
  6
CONTINUOUS
 62
    92
100
AcDbLine
 10
53.891
 20
-355.5972
 30
0.0
 11
56.291
 21
-355.5972
 31
0.0
  0
LINE
  5
114
100
AcDbEntity
  8
1
  6
CONTINUOUS
 62
    92
100
AcDbLine
 10
53.591
 20
-258.1932
 30
0.0
 11
56.591
 21
-258.1932
 31
0.0
  0
LINE
  5
115
100
AcDbEntity
  8
1
  6
CONTINUOUS
 62
    92
100
AcDbLine
 10
53.891
 20
-162.7932
 30
0.0
 11
56.291
 21
-162.7932
 31
0.0
  0
LINE
  5
116
100
AcDbEntity
  8
1
  6
CONTINUOUS
 62
    92
100
AcDbLine
 10
53.891
 20
-172.3932
 30
0.0
 11
56.291
 21
-172.3932
 31
0.0
  0
LINE
  5
117
100
AcDbEntity
  8
1
  6
CONTINUOUS
 62
    92
100
AcDbLine
 10
53.891
 20
-190.3932
 30
0.0
 11
56.291
 21
-190.3932
 31
0.0
  0
LINE
  5
118
100
AcDbEntity
  8
1
  6
CONTINUOUS
 62
    92
100
AcDbLine
 10
53.891
 20
-226.9932
 30
0.0
 11
56.291
 21
-226.9932
 31
0.0
  0
LINE
  5
119
100
AcDbEntity
  8
1
  6
CONTINUOUS
 62
     7
100
AcDbLine
 10
55.091
 20
-355.5972
 30
0.0
 11
55.091
 21
-373.3992
 31
0.0
  0
LINE
  5
11A
100
AcDbEntity
  8
1
  6
CONTINUOUS
 62
     7
100
AcDbLine
 10
55.091
 20
-343.0962
 30
0.0
 11
55.091
 21
-349.0971
 31
0.0
  0
LINE
  5
11B
100
AcDbEntity
  8
1
  6
CONTINUOUS
 62
     7
100
AcDbLine
 10
55.091
 20
-336.0363
 30
0.0
 11
55.091
 21
-341.8019
 31
0.0
  0
LINE
  5
11C
100
AcDbEntity
  8
1
  6
CONTINUOUS
 62
     7
100
AcDbLine
 10
55.091
 20
-292.9932
 30
0.0
 11
55.091
 21
-334.9774
 31
0.0
  0
LINE
  5
11D
100
AcDbEntity
  8
1
  6
CONTINUOUS
 62
     7
100
AcDbLine
 10
55.091
 20
-283.6263
 30
0.0
 11
55.091
 21
-286.9704
 31
0.0
  0
LINE
  5
11E
100
AcDbEntity
  8
1
  6
CONTINUOUS
 62
     7
100
AcDbLine
 10
55.091
 20
-279.7858
 30
0.0
 11
55.091
 21
-282.8033
 31
0.0
  0
LINE
  5
11F
100
AcDbEntity
  8
1
  6
CONTINUOUS
 62
     7
100
AcDbLine
 10
55.091
 20
-264.6435
 30
0.0
 11
55.091
 21
-279.1823
 31
0.0
  0
LINE
  5
120
100
AcDbEntity
  8
1
  6
CONTINUOUS
 62
     7
100
AcDbLine
 10
55.091
 20
-255.9202
 30
0.0
 11
55.091
 21
-260.1995
 31
0.0
  0
LINE
  5
121
100
AcDbEntity
  8
1
  6
CONTINUOUS
 62
     7
100
AcDbLine
 10
55.091
 20
-246.9774
 30
0.0
 11
55.091
 21
-250.3789
 31
0.0
  0
LINE
  5
122
100
AcDbEntity
  8
1
  6
CONTINUOUS
 62
     7
100
AcDbLine
 10
55.091
 20
-234.9074
 30
0.0
 11
55.091
 21
-244.2342
 31
0.0
  0
LINE
  5
123
100
AcDbEntity
  8
1
  6
CONTINUOUS
 62
     7
100
AcDbLine
 10
55.091
 20
-228.1932
 30
0.0
 11
55.091
 21
-232.8226
 31
0.0
  0
LINE
  5
124
100
AcDbEntity
  8
1
  6
CONTINUOUS
 62
     7
100
AcDbLine
 10
55.091
 20
-174.0218
 30
0.0
 11
55.091
 21
-196.614
 31
0.0
  0
LINE
  5
125
100
AcDbEntity
  8
1
  6
CONTINUOUS
 62
     7
100
AcDbLine
 10
55.091
 20
-198.4465
 30
0.0
 11
55.091
 21
-220.3137
 31
0.0
  0
LINE
  5
126
100
AcDbEntity
  8
1
  6
CONTINUOUS
 62
    92
100
AcDbLine
 10
1.8155
 20
-187.7892
 30
0.0
 11
31.8155
 21
-157.7892
 31
0.0
  0
LINE
  5
127
100
AcDbEntity
  8
1
  6
CONTINUOUS
 62
    92
100
AcDbLine
 10
79.8155
 20
-157.7892
 30
0.0
 11
109.8155
 21
-187.7892
 31
0.0
  0
LINE
  5
128
100
AcDbEntity
  8
1
  6
CONTINUOUS
 62
    92
100
AcDbLine
 10
109.8155
 20
-235.7892
 30
0.0
 11
79.8155
 21
-265.7892
 31
0.0
  0
LINE
  5
129
100
AcDbEntity
  8
1
  6
CONTINUOUS
 62
    92
100
AcDbLine
 10
31.8155
 20
-265.7892
 30
0.0
 11
1.8155
 21
-235.7892
 31
0.0
  0
LINE
  5
12A
100
AcDbEntity
  8
1
  6
CONTINUOUS
 62
    92
100
AcDbLine
 10
90.9764
 20
-61.2101
 30
0.0
 11
93.9764
 21
-61.2101
 31
0.0
  0
LINE
  5
12B
100
AcDbEntity
  8
1
  6
CONTINUOUS
 62
    92
100
AcDbLine
 10
93.9764
 20
-67.2101
 30
0.0
 11
93.9764
 21
-55.2101
 31
0.0
  0
LINE
  5
12C
100
AcDbEntity
  8
1
  6
CONTINUOUS
 62
    92
100
AcDbLine
 10
93.9764
 20
-55.2101
 30
0.0
 11
95.7764
 21
-55.2101
 31
0.0
  0
LINE
  5
12D
100
AcDbEntity
  8
1
  6
CONTINUOUS
 62
    92
100
AcDbLine
 10
93.9764
 20
-67.2101
 30
0.0
 11
95.7764
 21
-67.2101
 31
0.0
  0
LINE
  5
12E
100
AcDbEntity
  8
1
  6
CONTINUOUS
 62
    92
100
AcDbLine
 10
94.8764
 20
-55.2101
 30
0.0
 11
94.8764
 21
-67.2101
 31
0.0
  0
LINE
  5
12F
100
AcDbEntity
  8
1
  6
CONTINUOUS
 62
    92
100
AcDbLine
 10
90.9764
 20
-57.6101
 30
0.0
 11
93.9764
 21
-57.6101
 31
0.0
  0
LINE
  5
130
100
AcDbEntity
  8
1
  6
CONTINUOUS
 62
    92
100
AcDbLine
 10
90.9764
 20
-64.8101
 30
0.0
 11
93.9764
 21
-64.8101
 31
0.0
  0
ARC
  5
131
100
AcDbEntity
  8
1
  6
CONTINUOUS
 62
    92
100
AcDbCircle
 10
94.588737
 20
-59.4101
 30
0.0
 40
4.03596
210
0.0
220
0.0
230
1.0
100
AcDbArc
 50
153.513272
 51
206.486728
  0
ARC
  5
132
100
AcDbEntity
  8
1
  6
CONTINUOUS
 62
    92
100
AcDbCircle
 10
94.588737
 20
-63.0101
 30
0.0
 40
4.03596
210
0.0
220
0.0
230
1.0
100
AcDbArc
 50
153.513272
 51
206.486728
  0
LINE
  5
133
100
AcDbEntity
  8
1
  6
CONTINUOUS
 62
    92
100
AcDbLine
 10
90.5976
 20
-58.8101
 30
0.0
 11
90.5976
 21
-63.6101
 31
0.0
  0
LINE
  5
134
100
AcDbEntity
  8
1
  6
CONTINUOUS
 62
    92
100
AcDbLine
 10
89.6976
 20
-58.8101
 30
0.0
 11
89.6976
 21
-63.6101
 31
0.0
  0
LINE
  5
135
100
AcDbEntity
  8
1
  6
CONTINUOUS
 62
    92
100
AcDbLine
 10
100.6552
 20
-58.8101
 30
0.0
 11
117.8976
 21
-58.8101
 31
0.0
  0
LINE
  5
136
100
AcDbEntity
  8
1
  6
CONTINUOUS
 62
    92
100
AcDbLine
 10
100.6552
 20
-63.6101
 30
0.0
 11
117.8976
 21
-63.6101
 31
0.0
  0
LINE
  5
137
100
AcDbEntity
  8
1
  6
CONTINUOUS
 62
    92
100
AcDbLine
 10
89.6976
 20
-58.8101
 30
0.0
 11
90.5976
 21
-58.8101
 31
0.0
  0
LINE
  5
138
100
AcDbEntity
  8
1
  6
HIDDEN
 62
    92
100
AcDbLine
 10
90.5976
 20
-58.8101
 30
0.0
 11
93.9764
 21
-58.8101
 31
0.0
  0
LINE
  5
139
100
AcDbEntity
  8
1
  6
CONTINUOUS
 62
    92
100
AcDbLine
 10
89.6976
 20
-63.6101
 30
0.0
 11
90.5976
 21
-63.6101
 31
0.0
  0
LINE
  5
13A
100
AcDbEntity
  8
1
  6
HIDDEN
 62
    92
100
AcDbLine
 10
90.5976
 20
-63.6101
 30
0.0
 11
93.9764
 21
-63.6101
 31
0.0
  0
LINE
  5
13B
100
AcDbEntity
  8
1
  6
CONTINUOUS
 62
    92
100
AcDbLine
 10
89.6976
 20
-58.8101
 30
0.0
 11
90.5528
 21
-63.0101
 31
0.0
  0
LINE
  5
13C
100
AcDbEntity
  8
1
  6
CONTINUOUS
 62
    92
100
AcDbLine
 10
100.2764
 20
-61.2101
 30
0.0
 11
97.2764
 21
-61.2101
 31
0.0
  0
LINE
  5
13D
100
AcDbEntity
  8
1
  6
CONTINUOUS
 62
    92
100
AcDbLine
 10
100.2764
 20
-57.6101
 30
0.0
 11
97.2764
 21
-57.6101
 31
0.0
  0
LINE
  5
13E
100
AcDbEntity
  8
1
  6
CONTINUOUS
 62
    92
100
AcDbLine
 10
100.2764
 20
-64.8101
 30
0.0
 11
97.2764
 21
-64.8101
 31
0.0
  0
ARC
  5
13F
100
AcDbEntity
  8
1
  6
CONTINUOUS
 62
    92
100
AcDbCircle
 10
96.664063
 20
-59.4101
 30
0.0
 40
4.03596
210
0.0
220
0.0
230
1.0
100
AcDbArc
 50
333.513272
 51
26.486728
  0
ARC
  5
140
100
AcDbEntity
  8
1
  6
CONTINUOUS
 62
    92
100
AcDbCircle
 10
96.664063
 20
-63.0101
 30
0.0
 40
4.03596
210
0.0
220
0.0
230
1.0
100
AcDbArc
 50
333.513272
 51
26.486728
  0
LINE
  5
141
100
AcDbEntity
  8
1
  6
CONTINUOUS
 62
    92
100
AcDbLine
 10
100.6552
 20
-58.8101
 30
0.0
 11
100.6552
 21
-63.6101
 31
0.0
  0
LINE
  5
142
100
AcDbEntity
  8
1
  6
HIDDEN
 62
    92
100
AcDbLine
 10
100.6552
 20
-58.8101
 30
0.0
 11
97.2764
 21
-58.8101
 31
0.0
  0
LINE
  5
143
100
AcDbEntity
  8
1
  6
HIDDEN
 62
    92
100
AcDbLine
 10
100.6552
 20
-63.6101
 30
0.0
 11
97.2764
 21
-63.6101
 31
0.0
  0
LINE
  5
144
100
AcDbEntity
  8
1
  6
CONTINUOUS
 62
    92
100
AcDbLine
 10
127.5764
 20
-61.2101
 30
0.0
 11
124.5764
 21
-61.2101
 31
0.0
  0
LINE
  5
145
100
AcDbEntity
  8
1
  6
CONTINUOUS
 62
    92
100
AcDbLine
 10
124.5764
 20
-67.2101
 30
0.0
 11
124.5764
 21
-55.2101
 31
0.0
  0
LINE
  5
146
100
AcDbEntity
  8
1
  6
CONTINUOUS
 62
    92
100
AcDbLine
 10
124.5764
 20
-55.2101
 30
0.0
 11
122.7764
 21
-55.2101
 31
0.0
  0
LINE
  5
147
100
AcDbEntity
  8
1
  6
CONTINUOUS
 62
    92
100
AcDbLine
 10
124.5764
 20
-67.2101
 30
0.0
 11
122.7764
 21
-67.2101
 31
0.0
  0
LINE
  5
148
100
AcDbEntity
  8
1
  6
CONTINUOUS
 62
    92
100
AcDbLine
 10
123.6764
 20
-55.2101
 30
0.0
 11
123.6764
 21
-67.2101
 31
0.0
  0
LINE
  5
149
100
AcDbEntity
  8
1
  6
CONTINUOUS
 62
    92
100
AcDbLine
 10
127.5764
 20
-57.6101
 30
0.0
 11
124.5764
 21
-57.6101
 31
0.0
  0
LINE
  5
14A
100
AcDbEntity
  8
1
  6
CONTINUOUS
 62
    92
100
AcDbLine
 10
127.5764
 20
-64.8101
 30
0.0
 11
124.5764
 21
-64.8101
 31
0.0
  0
ARC
  5
14B
100
AcDbEntity
  8
1
  6
CONTINUOUS
 62
    92
100
AcDbCircle
 10
123.964063
 20
-59.4101
 30
0.0
 40
4.03596
210
0.0
220
0.0
230
1.0
100
AcDbArc
 50
333.513272
 51
26.486728
  0
ARC
  5
14C
100
AcDbEntity
  8
1
  6
CONTINUOUS
 62
    92
100
AcDbCircle
 10
123.964063
 20
-63.0101
 30
0.0
 40
4.03596
210
0.0
220
0.0
230
1.0
100
AcDbArc
 50
333.513272
 51
26.486728
  0
LINE
  5
14D
100
AcDbEntity
  8
1
  6
CONTINUOUS
 62
    92
100
AcDbLine
 10
127.9552
 20
-58.8101
 30
0.0
 11
127.9552
 21
-63.6101
 31
0.0
  0
LINE
  5
14E
100
AcDbEntity
  8
1
  6
HIDDEN
 62
    92
100
AcDbLine
 10
127.9552
 20
-58.8101
 30
0.0
 11
124.5764
 21
-58.8101
 31
0.0
  0
LINE
  5
14F
100
AcDbEntity
  8
1
  6
HIDDEN
 62
    92
100
AcDbLine
 10
127.9552
 20
-63.6101
 30
0.0
 11
124.5764
 21
-63.6101
 31
0.0
  0
LINE
  5
150
100
AcDbEntity
  8
1
  6
CONTINUOUS
 62
    92
100
AcDbLine
 10
118.2764
 20
-61.2101
 30
0.0
 11
121.2764
 21
-61.2101
 31
0.0
  0
LINE
  5
151
100
AcDbEntity
  8
1
  6
CONTINUOUS
 62
    92
100
AcDbLine
 10
118.2764
 20
-57.6101
 30
0.0
 11
121.2764
 21
-57.6101
 31
0.0
  0
LINE
  5
152
100
AcDbEntity
  8
1
  6
CONTINUOUS
 62
    92
100
AcDbLine
 10
118.2764
 20
-64.8101
 30
0.0
 11
121.2764
 21
-64.8101
 31
0.0
  0
ARC
  5
153
100
AcDbEntity
  8
1
  6
CONTINUOUS
 62
    92
100
AcDbCircle
 10
121.888737
 20
-59.4101
 30
0.0
 40
4.03596
210
0.0
220
0.0
230
1.0
100
AcDbArc
 50
153.513272
 51
206.486728
  0
ARC
  5
154
100
AcDbEntity
  8
1
  6
CONTINUOUS
 62
    92
100
AcDbCircle
 10
121.888737
 20
-63.0101
 30
0.0
 40
4.03596
210
0.0
220
0.0
230
1.0
100
AcDbArc
 50
153.513272
 51
206.486728
  0
LINE
  5
155
100
AcDbEntity
  8
1
  6
CONTINUOUS
 62
    92
100
AcDbLine
 10
117.8976
 20
-58.8101
 30
0.0
 11
117.8976
 21
-63.6101
 31
0.0
  0
LINE
  5
156
100
AcDbEntity
  8
1
  6
HIDDEN
 62
    92
100
AcDbLine
 10
117.8976
 20
-58.8101
 30
0.0
 11
121.2764
 21
-58.8101
 31
0.0
  0
LINE
  5
157
100
AcDbEntity
  8
1
  6
HIDDEN
 62
    92
100
AcDbLine
 10
117.8976
 20
-63.6101
 30
0.0
 11
121.2764
 21
-63.6101
 31
0.0
  0
LINE
  5
158
100
AcDbEntity
  8
1
  6
CONTINUOUS
 62
    92
100
AcDbLine
 10
100.6552
 20
-58.8101
 30
0.0
 11
101.4836
 21
-63.6101
 31
0.0
  0
LINE
  5
159
100
AcDbEntity
  8
1
  6
CONTINUOUS
 62
    92
100
AcDbLine
 10
101.5684
 20
-58.8101
 30
0.0
 11
102.3968
 21
-63.6101
 31
0.0
  0
LINE
  5
15A
100
AcDbEntity
  8
1
  6
CONTINUOUS
 62
    92
100
AcDbLine
 10
102.4817
 20
-58.8101
 30
0.0
 11
103.3101
 21
-63.6101
 31
0.0
  0
LINE
  5
15B
100
AcDbEntity
  8
1
  6
CONTINUOUS
 62
    92
100
AcDbLine
 10
103.3951
 20
-58.8101
 30
0.0
 11
104.2235
 21
-63.6101
 31
0.0
  0
LINE
  5
15C
100
AcDbEntity
  8
1
  6
CONTINUOUS
 62
    92
100
AcDbLine
 10
104.3084
 20
-58.8101
 30
0.0
 11
105.1368
 21
-63.6101
 31
0.0
  0
LINE
  5
15D
100
AcDbEntity
  8
1
  6
CONTINUOUS
 62
    92
100
AcDbLine
 10
105.2217
 20
-58.8101
 30
0.0
 11
106.0501
 21
-63.6101
 31
0.0
  0
LINE
  5
15E
100
AcDbEntity
  8
1
  6
CONTINUOUS
 62
    92
100
AcDbLine
 10
106.135
 20
-58.8101
 30
0.0
 11
106.9634
 21
-63.6101
 31
0.0
  0
LINE
  5
15F
100
AcDbEntity
  8
1
  6
CONTINUOUS
 62
    92
100
AcDbLine
 10
107.0483
 20
-58.8101
 30
0.0
 11
107.8767
 21
-63.6101
 31
0.0
  0
LINE
  5
160
100
AcDbEntity
  8
1
  6
CONTINUOUS
 62
    92
100
AcDbLine
 10
107.9616
 20
-58.8101
 30
0.0
 11
108.79
 21
-63.6101
 31
0.0
  0
LINE
  5
161
100
AcDbEntity
  8
1
  6
CONTINUOUS
 62
    92
100
AcDbLine
 10
108.875
 20
-58.8101
 30
0.0
 11
109.7034
 21
-63.6101
 31
0.0
  0
LINE
  5
162
100
AcDbEntity
  8
1
  6
CONTINUOUS
 62
    92
100
AcDbLine
 10
109.7882
 20
-58.8101
 30
0.0
 11
110.6166
 21
-63.6101
 31
0.0
  0
LINE
  5
163
100
AcDbEntity
  8
1
  6
CONTINUOUS
 62
    92
100
AcDbLine
 10
110.7015
 20
-58.8101
 30
0.0
 11
111.5299
 21
-63.6101
 31
0.0
  0
LINE
  5
164
100
AcDbEntity
  8
1
  6
CONTINUOUS
 62
    92
100
AcDbLine
 10
111.6148
 20
-58.8101
 30
0.0
 11
112.4432
 21
-63.6101
 31
0.0
  0
LINE
  5
165
100
AcDbEntity
  8
1
  6
CONTINUOUS
 62
    92
100
AcDbLine
 10
112.5281
 20
-58.8101
 30
0.0
 11
113.3565
 21
-63.6101
 31
0.0
  0
LINE
  5
166
100
AcDbEntity
  8
1
  6
CONTINUOUS
 62
    92
100
AcDbLine
 10
113.4414
 20
-58.8101
 30
0.0
 11
114.2698
 21
-63.6101
 31
0.0
  0
LINE
  5
167
100
AcDbEntity
  8
1
  6
CONTINUOUS
 62
    92
100
AcDbLine
 10
114.3548
 20
-58.8101
 30
0.0
 11
115.1832
 21
-63.6101
 31
0.0
  0
LINE
  5
168
100
AcDbEntity
  8
1
  6
CONTINUOUS
 62
    92
100
AcDbLine
 10
115.268
 20
-58.8101
 30
0.0
 11
116.0964
 21
-63.6101
 31
0.0
  0
LINE
  5
169
100
AcDbEntity
  8
1
  6
CONTINUOUS
 62
    92
100
AcDbLine
 10
116.1813
 20
-58.8101
 30
0.0
 11
117.0097
 21
-63.6101
 31
0.0
  0
LINE
  5
16A
100
AcDbEntity
  8
1
  6
CONTINUOUS
 62
    92
100
AcDbLine
 10
117.0947
 20
-58.8101
 30
0.0
 11
117.8594
 21
-63.2413
 31
0.0
  0
LINE
  5
16B
100
AcDbEntity
  8
1
  6
CONTINUOUS
 62
    92
100
AcDbLine
 10
95.7764
 20
-73.2101
 30
0.0
 11
95.7764
 21
-49.2101
 31
0.0
  0
LINE
  5
16C
100
AcDbEntity
  8
1
  6
CONTINUOUS
 62
    92
100
AcDbLine
 10
97.2764
 20
-49.2101
 30
0.0
 11
97.2764
 21
-73.2101
 31
0.0
  0
LINE
  5
16D
100
AcDbEntity
  8
1
  6
CONTINUOUS
 62
    92
100
AcDbLine
 10
121.2764
 20
-73.2101
 30
0.0
 11
121.2764
 21
-49.2101
 31
0.0
  0
LINE
  5
16E
100
AcDbEntity
  8
1
  6
CONTINUOUS
 62
    92
100
AcDbLine
 10
122.7764
 20
-49.2101
 30
0.0
 11
122.7764
 21
-73.2101
 31
0.0
  0
LINE
  5
16F
100
AcDbEntity
  8
1
  6
CONTINUOUS
 62
    92
100
AcDbLine
 10
97.2764
 20
-72.8831
 30
0.0
 11
95.7764
 21
-71.3831
 31
0.0
  0
LINE
  5
170
100
AcDbEntity
  8
1
  6
CONTINUOUS
 62
    92
100
AcDbLine
 10
97.2764
 20
-70.7618
 30
0.0
 11
95.7764
 21
-69.2618
 31
0.0
  0
LINE
  5
171
100
AcDbEntity
  8
1
  6
CONTINUOUS
 62
    92
100
AcDbLine
 10
97.2764
 20
-68.6404
 30
0.0
 11
95.7764
 21
-67.1404
 31
0.0
  0
LINE
  5
172
100
AcDbEntity
  8
1
  6
CONTINUOUS
 62
    92
100
AcDbLine
 10
97.2764
 20
-66.5191
 30
0.0
 11
95.7764
 21
-65.0191
 31
0.0
  0
LINE
  5
173
100
AcDbEntity
  8
1
  6
CONTINUOUS
 62
    92
100
AcDbLine
 10
97.2764
 20
-64.3978
 30
0.0
 11
95.7764
 21
-62.8978
 31
0.0
  0
LINE
  5
174
100
AcDbEntity
  8
1
  6
CONTINUOUS
 62
    92
100
AcDbLine
 10
97.2764
 20
-62.2765
 30
0.0
 11
95.7764
 21
-60.7765
 31
0.0
  0
LINE
  5
175
100
AcDbEntity
  8
1
  6
CONTINUOUS
 62
    92
100
AcDbLine
 10
97.2764
 20
-60.1552
 30
0.0
 11
95.7764
 21
-58.6552
 31
0.0
  0
LINE
  5
176
100
AcDbEntity
  8
1
  6
CONTINUOUS
 62
    92
100
AcDbLine
 10
97.2764
 20
-58.0338
 30
0.0
 11
95.7764
 21
-56.5338
 31
0.0
  0
LINE
  5
177
100
AcDbEntity
  8
1
  6
CONTINUOUS
 62
    92
100
AcDbLine
 10
97.2764
 20
-55.9125
 30
0.0
 11
95.7764
 21
-54.4125
 31
0.0
  0
LINE
  5
178
100
AcDbEntity
  8
1
  6
CONTINUOUS
 62
    92
100
AcDbLine
 10
97.2764
 20
-53.7912
 30
0.0
 11
95.7764
 21
-52.2912
 31
0.0
  0
LINE
  5
179
100
AcDbEntity
  8
1
  6
CONTINUOUS
 62
    92
100
AcDbLine
 10
97.2764
 20
-51.6699
 30
0.0
 11
95.7764
 21
-50.1699
 31
0.0
  0
LINE
  5
17A
100
AcDbEntity
  8
1
  6
CONTINUOUS
 62
    92
100
AcDbLine
 10
97.2764
 20
-49.5486
 30
0.0
 11
96.9379
 21
-49.2101
 31
0.0
  0
LINE
  5
17B
100
AcDbEntity
  8
1
  6
CONTINUOUS
 62
    92
100
AcDbLine
 10
122.7764
 20
-73.1588
 30
0.0
 11
121.2764
 21
-71.6588
 31
0.0
  0
LINE
  5
17C
100
AcDbEntity
  8
1
  6
CONTINUOUS
 62
    92
100
AcDbLine
 10
122.7764
 20
-71.0375
 30
0.0
 11
121.2764
 21
-69.5375
 31
0.0
  0
LINE
  5
17D
100
AcDbEntity
  8
1
  6
CONTINUOUS
 62
    92
100
AcDbLine
 10
122.7764
 20
-68.9162
 30
0.0
 11
121.2764
 21
-67.4162
 31
0.0
  0
LINE
  5
17E
100
AcDbEntity
  8
1
  6
CONTINUOUS
 62
    92
100
AcDbLine
 10
122.7764
 20
-66.7949
 30
0.0
 11
121.2764
 21
-65.2949
 31
0.0
  0
LINE
  5
17F
100
AcDbEntity
  8
1
  6
CONTINUOUS
 62
    92
100
AcDbLine
 10
122.7764
 20
-64.6736
 30
0.0
 11
121.2764
 21
-63.1736
 31
0.0
  0
LINE
  5
180
100
AcDbEntity
  8
1
  6
CONTINUOUS
 62
    92
100
AcDbLine
 10
122.7764
 20
-62.5522
 30
0.0
 11
121.2764
 21
-61.0522
 31
0.0
  0
LINE
  5
181
100
AcDbEntity
  8
1
  6
CONTINUOUS
 62
    92
100
AcDbLine
 10
122.7764
 20
-60.4309
 30
0.0
 11
121.2764
 21
-58.9309
 31
0.0
  0
LINE
  5
182
100
AcDbEntity
  8
1
  6
CONTINUOUS
 62
    92
100
AcDbLine
 10
122.7764
 20
-58.3096
 30
0.0
 11
121.2764
 21
-56.8096
 31
0.0
  0
LINE
  5
183
100
AcDbEntity
  8
1
  6
CONTINUOUS
 62
    92
100
AcDbLine
 10
122.7764
 20
-56.1883
 30
0.0
 11
121.2764
 21
-54.6883
 31
0.0
  0
LINE
  5
184
100
AcDbEntity
  8
1
  6
CONTINUOUS
 62
    92
100
AcDbLine
 10
122.7764
 20
-54.067
 30
0.0
 11
121.2764
 21
-52.567
 31
0.0
  0
LINE
  5
185
100
AcDbEntity
  8
1
  6
CONTINUOUS
 62
    92
100
AcDbLine
 10
122.7764
 20
-51.9456
 30
0.0
 11
121.2764
 21
-50.4456
 31
0.0
  0
LINE
  5
186
100
AcDbEntity
  8
1
  6
CONTINUOUS
 62
    92
100
AcDbLine
 10
122.7764
 20
-49.8243
 30
0.0
 11
122.1622
 21
-49.2101
 31
0.0
  0
LINE
  5
187
100
AcDbEntity
  8
1
  6
CONTINUOUS
 62
    92
100
AcDbLine
 10
242.6492
 20
-31.5184
 30
0.0
 11
242.6492
 21
-266.7424
 31
0.0
  0
LINE
  5
188
100
AcDbEntity
  8
1
  6
DASHED
 62
    92
100
AcDbLine
 10
241.7417
 20
-55.4764
 30
0.0
 11
241.7417
 21
-268.711
 31
0.0
  0
LINE
  5
189
100
AcDbEntity
  8
1
  6
DASHED
 62
    92
100
AcDbLine
 10
243.5567
 20
-34.4224
 30
0.0
 11
243.5567
 21
-274.0024
 31
0.0
  0
LINE
  5
18A
100
AcDbEntity
  8
1
  6
CONTINUOUS
 62
    92
100
AcDbLine
 10
237.5672
 20
-31.5184
 30
0.0
 11
237.5672
 21
-274.0024
 31
0.0
  0
LINE
  5
18B
100
AcDbEntity
  8
1
  6
CONTINUOUS
 62
    92
100
AcDbLine
 10
247.7312
 20
-34.4224
 30
0.0
 11
247.7312
 21
-274.0024
 31
0.0
  0
LINE
  5
18C
100
AcDbEntity
  8
1
  6
CONTINUOUS
 62
    92
100
AcDbLine
 10
236.1152
 20
-34.4224
 30
0.0
 11
236.1152
 21
-274.0024
 31
0.0
  0
LINE
  5
18D
100
AcDbEntity
  8
1
  6
CONTINUOUS
 62
    92
100
AcDbLine
 10
249.1832
 20
-34.4224
 30
0.0
 11
249.1832
 21
-274.0024
 31
0.0
  0
LINE
  5
18E
100
AcDbEntity
  8
1
  6
CONTINUOUS
 62
    92
100
AcDbLine
 10
234.6632
 20
-34.4224
 30
0.0
 11
234.6632
 21
-166.5544
 31
0.0
  0
LINE
  5
18F
100
AcDbEntity
  8
1
  6
CONTINUOUS
 62
    92
100
AcDbLine
 10
250.6352
 20
-34.4224
 30
0.0
 11
250.6352
 21
-166.5544
 31
0.0
  0
LINE
  5
190
100
AcDbEntity
  8
1
  6
CONTINUOUS
 62
    92
100
AcDbLine
 10
234.6632
 20
-34.4224
 30
0.0
 11
236.1152
 21
-34.4224
 31
0.0
  0
LINE
  5
191
100
AcDbEntity
  8
1
  6
CONTINUOUS
 62
    92
100
AcDbLine
 10
250.6352
 20
-34.4224
 30
0.0
 11
242.6492
 21
-34.4224
 31
0.0
  0
LINE
  5
192
100
AcDbEntity
  8
1
  6
CONTINUOUS
 62
    92
100
AcDbLine
 10
182.3912
 20
-31.5184
 30
0.0
 11
297.8252
 21
-31.5184
 31
0.0
  0
LINE
  5
193
100
AcDbEntity
  8
1
  6
DASHED
 62
    92
100
AcDbLine
 10
237.5672
 20
-31.5184
 30
0.0
 11
237.5672
 21
12.0416
 31
0.0
  0
LINE
  5
194
100
AcDbEntity
  8
1
  6
DASHED
 62
    92
100
AcDbLine
 10
242.6492
 20
-31.5184
 30
0.0
 11
242.6492
 21
12.0416
 31
0.0
  0
LINE
  5
195
100
AcDbEntity
  8
1
  6
CONTINUOUS
 62
    92
100
AcDbLine
 10
182.3912
 20
12.0416
 30
0.0
 11
297.8252
 21
12.0416
 31
0.0
  0
LINE
  5
196
100
AcDbEntity
  8
1
  6
CONTINUOUS
 62
    92
100
AcDbLine
 10
305.0852
 20
4.7816
 30
0.0
 11
305.0852
 21
-24.2584
 31
0.0
  0
LINE
  5
197
100
AcDbEntity
  8
1
  6
CONTINUOUS
 62
    92
100
AcDbLine
 10
175.1312
 20
4.7816
 30
0.0
 11
175.1312
 21
-24.2584
 31
0.0
  0
LINE
  5
198
100
AcDbEntity
  8
1
  6
HIDDEN
 62
    92
100
AcDbLine
 10
236.1152
 20
-37.3264
 30
0.0
 11
245.0087
 21
-37.3264
 31
0.0
  0
LINE
  5
199
100
AcDbEntity
  8
1
  6
HIDDEN
 62
    92
100
AcDbLine
 10
236.1152
 20
-38.7784
 30
0.0
 11
245.0087
 21
-38.7784
 31
0.0
  0
LINE
  5
19A
100
AcDbEntity
  8
1
  6
CONTINUOUS
 62
    92
100
AcDbLine
 10
236.1152
 20
-39.5044
 30
0.0
 11
237.5672
 21
-39.5044
 31
0.0
  0
LINE
  5
19B
100
AcDbEntity
  8
1
  6
CONTINUOUS
 62
    92
100
AcDbLine
 10
243.5567
 20
-39.5044
 30
0.0
 11
245.0087
 21
-39.5044
 31
0.0
  0
LINE
  5
19C
100
AcDbEntity
  8
1
  6
CONTINUOUS
 62
    92
100
AcDbLine
 10
236.1152
 20
-36.6004
 30
0.0
 11
237.5672
 21
-36.6004
 31
0.0
  0
LINE
  5
19D
100
AcDbEntity
  8
1
  6
CONTINUOUS
 62
    92
100
AcDbLine
 10
243.5567
 20
-36.6004
 30
0.0
 11
245.0087
 21
-36.6004
 31
0.0
  0
LINE
  5
19E
100
AcDbEntity
  8
1
  6
CONTINUOUS
 62
    92
100
AcDbLine
 10
245.0087
 20
-36.6004
 30
0.0
 11
245.0087
 21
-39.5044
 31
0.0
  0
LINE
  5
19F
100
AcDbEntity
  8
1
  6
CONTINUOUS
 62
    92
100
AcDbLine
 10
236.1152
 20
-51.1204
 30
0.0
 11
237.5672
 21
-51.1204
 31
0.0
  0
LINE
  5
1A0
100
AcDbEntity
  8
1
  6
CONTINUOUS
 62
    92
100
AcDbLine
 10
243.5567
 20
-51.1204
 30
0.0
 11
245.0087
 21
-51.1204
 31
0.0
  0
LINE
  5
1A1
100
AcDbEntity
  8
1
  6
CONTINUOUS
 62
    92
100
AcDbLine
 10
236.1152
 20
-48.2164
 30
0.0
 11
237.5672
 21
-48.2164
 31
0.0
  0
LINE
  5
1A2
100
AcDbEntity
  8
1
  6
CONTINUOUS
 62
    92
100
AcDbLine
 10
243.5567
 20
-48.2164
 30
0.0
 11
245.0087
 21
-48.2164
 31
0.0
  0
LINE
  5
1A3
100
AcDbEntity
  8
1
  6
CONTINUOUS
 62
    92
100
AcDbLine
 10
245.0087
 20
-48.2164
 30
0.0
 11
245.0087
 21
-51.1204
 31
0.0
  0
LINE
  5
1A4
100
AcDbEntity
  8
1
  6
HIDDEN
 62
    92
100
AcDbLine
 10
237.5672
 20
-41.6824
 30
0.0
 11
247.7312
 21
-41.6824
 31
0.0
  0
LINE
  5
1A5
100
AcDbEntity
  8
1
  6
HIDDEN
 62
    92
100
AcDbLine
 10
237.5672
 20
-43.1344
 30
0.0
 11
247.7312
 21
-43.1344
 31
0.0
  0
LINE
  5
1A6
100
AcDbEntity
  8
1
  6
CONTINUOUS
 62
    92
100
AcDbLine
 10
233.2112
 20
-41.6824
 30
0.0
 11
230.3072
 21
-41.6824
 31
0.0
  0
LINE
  5
1A7
100
AcDbEntity
  8
1
  6
CONTINUOUS
 62
    92
100
AcDbLine
 10
233.2112
 20
-43.1344
 30
0.0
 11
230.3072
 21
-43.1344
 31
0.0
  0
LINE
  5
1A8
100
AcDbEntity
  8
1
  6
CONTINUOUS
 62
    92
100
AcDbLine
 10
234.6632
 20
-40.2304
 30
0.0
 11
233.2112
 21
-40.2304
 31
0.0
  0
LINE
  5
1A9
100
AcDbEntity
  8
1
  6
CONTINUOUS
 62
    92
100
AcDbLine
 10
234.6632
 20
-44.5864
 30
0.0
 11
233.2112
 21
-44.5864
 31
0.0
  0
LINE
  5
1AA
100
AcDbEntity
  8
1
  6
CONTINUOUS
 62
    92
100
AcDbLine
 10
250.6352
 20
-40.2304
 30
0.0
 11
252.0872
 21
-40.2304
 31
0.0
  0
LINE
  5
1AB
100
AcDbEntity
  8
1
  6
CONTINUOUS
 62
    92
100
AcDbLine
 10
250.6352
 20
-44.5864
 30
0.0
 11
252.0872
 21
-44.5864
 31
0.0
  0
LINE
  5
1AC
100
AcDbEntity
  8
1
  6
CONTINUOUS
 62
    92
100
AcDbLine
 10
233.2112
 20
-40.2304
 30
0.0
 11
233.2112
 21
-44.5864
 31
0.0
  0
LINE
  5
1AD
100
AcDbEntity
  8
1
  6
CONTINUOUS
 62
    92
100
AcDbLine
 10
252.0872
 20
-40.2304
 30
0.0
 11
252.0872
 21
-44.5864
 31
0.0
  0
LINE
  5
1AE
100
AcDbEntity
  8
1
  6
CONTINUOUS
 62
    92
100
AcDbLine
 10
231.7592
 20
-40.9564
 30
0.0
 11
231.7592
 21
-43.8604
 31
0.0
  0
LINE
  5
1AF
100
AcDbEntity
  8
1
  6
CONTINUOUS
 62
    92
100
AcDbLine
 10
230.3072
 20
-41.6824
 30
0.0
 11
230.3072
 21
-43.1344
 31
0.0
  0
LINE
  5
1B0
100
AcDbEntity
  8
1
  6
CONTINUOUS
 62
    92
100
AcDbLine
 10
231.7592
 20
-40.9564
 30
0.0
 11
233.2112
 21
-40.9564
 31
0.0
  0
LINE
  5
1B1
100
AcDbEntity
  8
1
  6
CONTINUOUS
 62
    92
100
AcDbLine
 10
231.7592
 20
-43.8604
 30
0.0
 11
233.2112
 21
-43.8604
 31
0.0
  0
LINE
  5
1B2
100
AcDbEntity
  8
1
  6
CONTINUOUS
 62
    92
100
AcDbLine
 10
231.0332
 20
-42.0454
 30
0.0
 11
231.0332
 21
-42.7714
 31
0.0
  0
ARC
  5
1B3
100
AcDbEntity
  8
1
  6
CONTINUOUS
 62
    92
100
AcDbCircle
 10
251.519786
 20
-42.408316
 30
0.0
 40
1.558942
210
0.0
220
0.0
230
1.0
100
AcDbArc
 50
291.345756
 51
68.65425
  0
LINE
  5
1B4
100
AcDbEntity
  8
1
  6
CONTINUOUS
 62
    92
100
AcDbLine
 10
242.6492
 20
-55.4764
 30
0.0
 11
236.1152
 21
-55.4764
 31
0.0
  0
LINE
  5
1B5
100
AcDbEntity
  8
1
  6
CONTINUOUS
 62
    92
100
AcDbLine
 10
242.6492
 20
-55.1134
 30
0.0
 11
237.5672
 21
-55.1134
 31
0.0
  0
LINE
  5
1B6
100
AcDbEntity
  8
1
  6
HIDDEN
 62
    92
100
AcDbLine
 10
237.5672
 20
-157.8424
 30
0.0
 11
247.7312
 21
-157.8424
 31
0.0
  0
LINE
  5
1B7
100
AcDbEntity
  8
1
  6
HIDDEN
 62
    92
100
AcDbLine
 10
237.5672
 20
-159.2944
 30
0.0
 11
247.7312
 21
-159.2944
 31
0.0
  0
LINE
  5
1B8
100
AcDbEntity
  8
1
  6
CONTINUOUS
 62
    92
100
AcDbLine
 10
233.2112
 20
-157.8424
 30
0.0
 11
230.3072
 21
-157.8424
 31
0.0
  0
LINE
  5
1B9
100
AcDbEntity
  8
1
  6
CONTINUOUS
 62
    92
100
AcDbLine
 10
233.2112
 20
-159.2944
 30
0.0
 11
230.3072
 21
-159.2944
 31
0.0
  0
LINE
  5
1BA
100
AcDbEntity
  8
1
  6
CONTINUOUS
 62
    92
100
AcDbLine
 10
234.6632
 20
-156.3904
 30
0.0
 11
233.2112
 21
-156.3904
 31
0.0
  0
LINE
  5
1BB
100
AcDbEntity
  8
1
  6
CONTINUOUS
 62
    92
100
AcDbLine
 10
234.6632
 20
-160.7464
 30
0.0
 11
233.2112
 21
-160.7464
 31
0.0
  0
LINE
  5
1BC
100
AcDbEntity
  8
1
  6
CONTINUOUS
 62
    92
100
AcDbLine
 10
250.6352
 20
-156.3904
 30
0.0
 11
252.0872
 21
-156.3904
 31
0.0
  0
LINE
  5
1BD
100
AcDbEntity
  8
1
  6
CONTINUOUS
 62
    92
100
AcDbLine
 10
250.6352
 20
-160.7464
 30
0.0
 11
252.0872
 21
-160.7464
 31
0.0
  0
LINE
  5
1BE
100
AcDbEntity
  8
1
  6
CONTINUOUS
 62
    92
100
AcDbLine
 10
233.2112
 20
-156.3904
 30
0.0
 11
233.2112
 21
-160.7464
 31
0.0
  0
LINE
  5
1BF
100
AcDbEntity
  8
1
  6
CONTINUOUS
 62
    92
100
AcDbLine
 10
252.0872
 20
-156.3904
 30
0.0
 11
252.0872
 21
-160.7464
 31
0.0
  0
LINE
  5
1C0
100
AcDbEntity
  8
1
  6
CONTINUOUS
 62
    92
100
AcDbLine
 10
231.7592
 20
-157.1164
 30
0.0
 11
231.7592
 21
-160.0204
 31
0.0
  0
LINE
  5
1C1
100
AcDbEntity
  8
1
  6
CONTINUOUS
 62
    92
100
AcDbLine
 10
230.3072
 20
-157.8424
 30
0.0
 11
230.3072
 21
-159.2944
 31
0.0
  0
LINE
  5
1C2
100
AcDbEntity
  8
1
  6
CONTINUOUS
 62
    92
100
AcDbLine
 10
231.7592
 20
-157.1164
 30
0.0
 11
233.2112
 21
-157.1164
 31
0.0
  0
LINE
  5
1C3
100
AcDbEntity
  8
1
  6
CONTINUOUS
 62
    92
100
AcDbLine
 10
231.7592
 20
-160.0204
 30
0.0
 11
233.2112
 21
-160.0204
 31
0.0
  0
LINE
  5
1C4
100
AcDbEntity
  8
1
  6
CONTINUOUS
 62
    92
100
AcDbLine
 10
231.0332
 20
-158.2054
 30
0.0
 11
231.0332
 21
-158.9314
 31
0.0
  0
ARC
  5
1C5
100
AcDbEntity
  8
1
  6
CONTINUOUS
 62
    92
100
AcDbCircle
 10
251.519786
 20
-158.568316
 30
0.0
 40
1.558942
210
0.0
220
0.0
230
1.0
100
AcDbArc
 50
291.345756
 51
68.65425
  0
LINE
  5
1C6
100
AcDbEntity
  8
1
  6
CONTINUOUS
 62
    92
100
AcDbLine
 10
234.6632
 20
-166.5544
 30
0.0
 11
236.1152
 21
-166.5544
 31
0.0
  0
LINE
  5
1C7
100
AcDbEntity
  8
1
  6
CONTINUOUS
 62
    92
100
AcDbLine
 10
249.1832
 20
-166.5544
 30
0.0
 11
250.6352
 21
-166.5544
 31
0.0
  0
LINE
  5
1C8
100
AcDbEntity
  8
1
  6
HIDDEN
 62
    92
100
AcDbLine
 10
241.7417
 20
-69.4519
 30
0.0
 11
243.5567
 21
-69.4519
 31
0.0
  0
LINE
  5
1C9
100
AcDbEntity
  8
1
  6
HIDDEN
 62
    92
100
AcDbLine
 10
241.7417
 20
-70.5409
 30
0.0
 11
243.5567
 21
-70.5409
 31
0.0
  0
LINE
  5
1CA
100
AcDbEntity
  8
1
  6
HIDDEN
 62
    92
100
AcDbLine
 10
236.1152
 20
-48.9424
 30
0.0
 11
243.5567
 21
-48.9424
 31
0.0
  0
LINE
  5
1CB
100
AcDbEntity
  8
1
  6
HIDDEN
 62
    92
100
AcDbLine
 10
243.5567
 20
-48.9424
 30
0.0
 11
245.0087
 21
-48.9424
 31
0.0
  0
LINE
  5
1CC
100
AcDbEntity
  8
1
  6
HIDDEN
 62
    92
100
AcDbLine
 10
236.1152
 20
-50.3944
 30
0.0
 11
243.5567
 21
-50.3944
 31
0.0
  0
LINE
  5
1CD
100
AcDbEntity
  8
1
  6
HIDDEN
 62
    92
100
AcDbLine
 10
243.5567
 20
-50.3944
 30
0.0
 11
245.0087
 21
-50.3944
 31
0.0
  0
LINE
  5
1CE
100
AcDbEntity
  8
1
  6
HIDDEN
 62
    92
100
AcDbLine
 10
243.5567
 20
-69.4519
 30
0.0
 11
244.8272
 21
-69.4519
 31
0.0
  0
LINE
  5
1CF
100
AcDbEntity
  8
1
  6
CONTINUOUS
 62
    92
100
AcDbLine
 10
243.5567
 20
-71.2669
 30
0.0
 11
244.8272
 21
-71.2669
 31
0.0
  0
LINE
  5
1D0
100
AcDbEntity
  8
1
  6
CONTINUOUS
 62
    92
100
AcDbLine
 10
243.5567
 20
-68.7259
 30
0.0
 11
244.8272
 21
-68.7259
 31
0.0
  0
LINE
  5
1D1
100
AcDbEntity
  8
1
  6
CONTINUOUS
 62
    92
100
AcDbLine
 10
244.8272
 20
-68.7259
 30
0.0
 11
244.8272
 21
-71.2669
 31
0.0
  0
LINE
  5
1D2
100
AcDbEntity
  8
1
  6
HIDDEN
 62
    92
100
AcDbLine
 10
243.5567
 20
-70.5409
 30
0.0
 11
244.8272
 21
-70.5409
 31
0.0
  0
LINE
  5
1D3
100
AcDbEntity
  8
1
  6
CONTINUOUS
 62
    92
100
AcDbLine
 10
240.4712
 20
-68.7259
 30
0.0
 11
240.4712
 21
-71.2669
 31
0.0
  0
LINE
  5
1D4
100
AcDbEntity
  8
1
  6
HIDDEN
 62
    92
100
AcDbLine
 10
241.7417
 20
-69.4519
 30
0.0
 11
240.4712
 21
-69.4519
 31
0.0
  0
LINE
  5
1D5
100
AcDbEntity
  8
1
  6
CONTINUOUS
 62
    92
100
AcDbLine
 10
241.7417
 20
-71.2669
 30
0.0
 11
240.4712
 21
-71.2669
 31
0.0
  0
LINE
  5
1D6
100
AcDbEntity
  8
1
  6
CONTINUOUS
 62
    92
100
AcDbLine
 10
241.7417
 20
-68.7259
 30
0.0
 11
240.4712
 21
-68.7259
 31
0.0
  0
LINE
  5
1D7
100
AcDbEntity
  8
1
  6
HIDDEN
 62
    92
100
AcDbLine
 10
241.7417
 20
-70.5409
 30
0.0
 11
240.4712
 21
-70.5409
 31
0.0
  0
LINE
  5
1D8
100
AcDbEntity
  8
1
  6
CONTINUOUS
 62
    92
100
AcDbLine
 10
241.7417
 20
-114.8269
 30
0.0
 11
240.4712
 21
-114.8269
 31
0.0
  0
LINE
  5
1D9
100
AcDbEntity
  8
1
  6
HIDDEN
 62
    92
100
AcDbLine
 10
241.7417
 20
-115.5529
 30
0.0
 11
243.5567
 21
-115.5529
 31
0.0
  0
LINE
  5
1DA
100
AcDbEntity
  8
1
  6
HIDDEN
 62
    92
100
AcDbLine
 10
241.7417
 20
-116.6419
 30
0.0
 11
243.5567
 21
-116.6419
 31
0.0
  0
LINE
  5
1DB
100
AcDbEntity
  8
1
  6
HIDDEN
 62
    92
100
AcDbLine
 10
243.5567
 20
-115.5529
 30
0.0
 11
244.8272
 21
-115.5529
 31
0.0
  0
LINE
  5
1DC
100
AcDbEntity
  8
1
  6
CONTINUOUS
 62
    92
100
AcDbLine
 10
243.5567
 20
-117.3679
 30
0.0
 11
244.8272
 21
-117.3679
 31
0.0
  0
LINE
  5
1DD
100
AcDbEntity
  8
1
  6
CONTINUOUS
 62
    92
100
AcDbLine
 10
243.5567
 20
-114.8269
 30
0.0
 11
244.8272
 21
-114.8269
 31
0.0
  0
LINE
  5
1DE
100
AcDbEntity
  8
1
  6
CONTINUOUS
 62
    92
100
AcDbLine
 10
244.8272
 20
-114.8269
 30
0.0
 11
244.8272
 21
-117.3679
 31
0.0
  0
LINE
  5
1DF
100
AcDbEntity
  8
1
  6
HIDDEN
 62
    92
100
AcDbLine
 10
243.5567
 20
-116.6419
 30
0.0
 11
244.8272
 21
-116.6419
 31
0.0
  0
LINE
  5
1E0
100
AcDbEntity
  8
1
  6
CONTINUOUS
 62
    92
100
AcDbLine
 10
240.4712
 20
-114.8269
 30
0.0
 11
240.4712
 21
-117.3679
 31
0.0
  0
LINE
  5
1E1
100
AcDbEntity
  8
1
  6
HIDDEN
 62
    92
100
AcDbLine
 10
241.7417
 20
-115.5529
 30
0.0
 11
240.4712
 21
-115.5529
 31
0.0
  0
LINE
  5
1E2
100
AcDbEntity
  8
1
  6
CONTINUOUS
 62
    92
100
AcDbLine
 10
241.7417
 20
-117.3679
 30
0.0
 11
240.4712
 21
-117.3679
 31
0.0
  0
LINE
  5
1E3
100
AcDbEntity
  8
1
  6
HIDDEN
 62
    92
100
AcDbLine
 10
241.7417
 20
-116.6419
 30
0.0
 11
240.4712
 21
-116.6419
 31
0.0
  0
LINE
  5
1E4
100
AcDbEntity
  8
1
  6
CONTINUOUS
 62
    92
100
AcDbLine
 10
240.4712
 20
-245.5069
 30
0.0
 11
240.4712
 21
-248.0479
 31
0.0
  0
LINE
  5
1E5
100
AcDbEntity
  8
1
  6
CONTINUOUS
 62
    92
100
AcDbLine
 10
241.7417
 20
-245.5069
 30
0.0
 11
240.4712
 21
-245.5069
 31
0.0
  0
LINE
  5
1E6
100
AcDbEntity
  8
1
  6
HIDDEN
 62
    92
100
AcDbLine
 10
241.7417
 20
-246.2329
 30
0.0
 11
243.5567
 21
-246.2329
 31
0.0
  0
LINE
  5
1E7
100
AcDbEntity
  8
1
  6
HIDDEN
 62
    92
100
AcDbLine
 10
241.7417
 20
-247.3219
 30
0.0
 11
243.5567
 21
-247.3219
 31
0.0
  0
LINE
  5
1E8
100
AcDbEntity
  8
1
  6
HIDDEN
 62
    92
100
AcDbLine
 10
243.5567
 20
-246.2329
 30
0.0
 11
244.8272
 21
-246.2329
 31
0.0
  0
LINE
  5
1E9
100
AcDbEntity
  8
1
  6
CONTINUOUS
 62
    92
100
AcDbLine
 10
243.5567
 20
-248.0479
 30
0.0
 11
244.8272
 21
-248.0479
 31
0.0
  0
LINE
  5
1EA
100
AcDbEntity
  8
1
  6
CONTINUOUS
 62
    92
100
AcDbLine
 10
243.5567
 20
-245.5069
 30
0.0
 11
244.8272
 21
-245.5069
 31
0.0
  0
LINE
  5
1EB
100
AcDbEntity
  8
1
  6
CONTINUOUS
 62
    92
100
AcDbLine
 10
244.8272
 20
-245.5069
 30
0.0
 11
244.8272
 21
-248.0479
 31
0.0
  0
LINE
  5
1EC
100
AcDbEntity
  8
1
  6
HIDDEN
 62
    92
100
AcDbLine
 10
243.5567
 20
-247.3219
 30
0.0
 11
244.8272
 21
-247.3219
 31
0.0
  0
LINE
  5
1ED
100
AcDbEntity
  8
1
  6
HIDDEN
 62
    92
100
AcDbLine
 10
241.7417
 20
-246.2329
 30
0.0
 11
240.4712
 21
-246.2329
 31
0.0
  0
LINE
  5
1EE
100
AcDbEntity
  8
1
  6
CONTINUOUS
 62
    92
100
AcDbLine
 10
241.7417
 20
-248.0479
 30
0.0
 11
240.4712
 21
-248.0479
 31
0.0
  0
LINE
  5
1EF
100
AcDbEntity
  8
1
  6
HIDDEN
 62
    92
100
AcDbLine
 10
241.7417
 20
-247.3219
 30
0.0
 11
240.4712
 21
-247.3219
 31
0.0
  0
LINE
  5
1F0
100
AcDbEntity
  8
1
  6
CONTINUOUS
 62
    92
100
AcDbLine
 10
242.6492
 20
-268.1944
 30
0.0
 11
242.6492
 21
-279.8104
 31
0.0
  0
LINE
  5
1F1
100
AcDbEntity
  8
1
  6
CONTINUOUS
 62
    92
100
AcDbLine
 10
231.7592
 20
-274.0024
 30
0.0
 11
241.1972
 21
-274.0024
 31
0.0
  0
LINE
  5
1F2
100
AcDbEntity
  8
1
  6
CONTINUOUS
 62
    92
100
AcDbLine
 10
244.1012
 20
-274.0024
 30
0.0
 11
253.5392
 21
-274.0024
 31
0.0
  0
LINE
  5
1F3
100
AcDbEntity
  8
1
  6
CONTINUOUS
 62
    92
100
AcDbLine
 10
242.6492
 20
-268.1944
 30
0.0
 11
241.1972
 21
-274.0024
 31
0.0
  0
LINE
  5
1F4
100
AcDbEntity
  8
1
  6
CONTINUOUS
 62
    92
100
AcDbLine
 10
242.6492
 20
-279.8104
 30
0.0
 11
244.1012
 21
-274.0024
 31
0.0
  0
ARC
  5
1F5
100
AcDbEntity
  8
1
  6
CONTINUOUS
 62
    92
100
AcDbCircle
 10
7.8155
 20
-163.7892
 30
0.0
 40
6.0
210
0.0
220
0.0
230
1.0
100
AcDbArc
 50
90.0
 51
180.0
  0
ARC
  5
1F6
100
AcDbEntity
  8
1
  6
CONTINUOUS
 62
    92
100
AcDbCircle
 10
182.391233
 20
4.781684
 30
0.0
 40
7.26
210
0.0
220
0.0
230
1.0
100
AcDbArc
 50
90.0
 51
180.0
  0
ARC
  5
1F7
100
AcDbEntity
  8
1
  6
CONTINUOUS
 62
    92
100
AcDbCircle
 10
297.825233
 20
4.781684
 30
0.0
 40
7.26
210
0.0
220
0.0
230
1.0
100
AcDbArc
 50
0.0
 51
90.0
  0
ARC
  5
1F8
100
AcDbEntity
  8
1
  6
CONTINUOUS
 62
    92
100
AcDbCircle
 10
297.825233
 20
-24.258316
 30
0.0
 40
7.26
210
0.0
220
0.0
230
1.0
100
AcDbArc
 50
270.0
 51
0.0
  0
ARC
  5
1F9
100
AcDbEntity
  8
1
  6
CONTINUOUS
 62
    92
100
AcDbCircle
 10
182.391233
 20
-24.258316
 30
0.0
 40
7.26
210
0.0
220
0.0
230
1.0
100
AcDbArc
 50
180.0
 51
270.0
  0
CIRCLE
  5
1FA
100
AcDbEntity
  8
1
  6
CONTINUOUS
 62
     3
100
AcDbCircle
 10
180.939233
 20
-9.738316
 30
0.0
 40
0.9075
210
0.0
220
0.0
230
1.0
  0
CIRCLE
  5
1FB
100
AcDbEntity
  8
1
  6
CONTINUOUS
 62
     3
100
AcDbCircle
 10
299.277233
 20
-9.738316
 30
0.0
 40
0.9075
210
0.0
220
0.0
230
1.0
  0
LINE
  5
1FC
100
AcDbEntity
  8
1
  6
CONTINUOUS
 62
     7
100
AcDbLine
 10
173.6792
 20
-9.7384
 30
0.0
 11
179.1242
 21
-9.7384
 31
0.0
  0
LINE
  5
1FD
100
AcDbEntity
  8
1
  6
CONTINUOUS
 62
     7
100
AcDbLine
 10
182.7542
 20
-9.7384
 30
0.0
 11
188.1992
 21
-9.7384
 31
0.0
  0
LINE
  5
1FE
100
AcDbEntity
  8
1
  6
CONTINUOUS
 62
     7
100
AcDbLine
 10
180.9392
 20
-2.4784
 30
0.0
 11
180.9392
 21
-7.9234
 31
0.0
  0
LINE
  5
1FF
100
AcDbEntity
  8
1
  6
CONTINUOUS
 62
     7
100
AcDbLine
 10
180.9392
 20
-11.5534
 30
0.0
 11
180.9392
 21
-16.9984
 31
0.0
  0
LINE
  5
200
100
AcDbEntity
  8
1
  6
CONTINUOUS
 62
     7
100
AcDbLine
 10
179.6687
 20
-9.7384
 30
0.0
 11
182.2097
 21
-9.7384
 31
0.0
  0
LINE
  5
201
100
AcDbEntity
  8
1
  6
CONTINUOUS
 62
     7
100
AcDbLine
 10
180.9392
 20
-8.4679
 30
0.0
 11
180.9392
 21
-11.0089
 31
0.0
  0
LINE
  5
202
100
AcDbEntity
  8
1
  6
CONTINUOUS
 62
     7
100
AcDbLine
 10
299.2772
 20
-2.4784
 30
0.0
 11
299.2772
 21
-7.9234
 31
0.0
  0
LINE
  5
203
100
AcDbEntity
  8
1
  6
CONTINUOUS
 62
     7
100
AcDbLine
 10
299.2772
 20
-11.5534
 30
0.0
 11
299.2772
 21
-16.9984
 31
0.0
  0
LINE
  5
204
100
AcDbEntity
  8
1
  6
CONTINUOUS
 62
     7
100
AcDbLine
 10
299.2772
 20
-8.4679
 30
0.0
 11
299.2772
 21
-11.0089
 31
0.0
  0
LINE
  5
205
100
AcDbEntity
  8
1
  6
CONTINUOUS
 62
     7
100
AcDbLine
 10
292.1987
 20
-9.7384
 30
0.0
 11
297.4622
 21
-9.7384
 31
0.0
  0
LINE
  5
206
100
AcDbEntity
  8
1
  6
CONTINUOUS
 62
     7
100
AcDbLine
 10
298.0067
 20
-9.7384
 30
0.0
 11
299.4587
 21
-9.7384
 31
0.0
  0
LINE
  5
207
100
AcDbEntity
  8
1
  6
CONTINUOUS
 62
     7
100
AcDbLine
 10
299.0957
 20
-9.7384
 30
0.0
 11
300.5477
 21
-9.7384
 31
0.0
  0
LINE
  5
208
100
AcDbEntity
  8
1
  6
CONTINUOUS
 62
     7
100
AcDbLine
 10
301.0922
 20
-9.7384
 30
0.0
 11
306.5372
 21
-9.7384
 31
0.0
  0
CIRCLE
  5
209
100
AcDbEntity
  8
1
  6
HIDDEN
 62
    92
100
AcDbCircle
 10
240.108233
 20
8.411684
 30
0.0
 40
1.089
210
0.0
220
0.0
230
1.0
  0
CIRCLE
  5
20A
100
AcDbEntity
  8
1
  6
CONTINUOUS
 62
    92
100
AcDbCircle
 10
240.108233
 20
2.603684
 30
0.0
 40
1.815
210
0.0
220
0.0
230
1.0
  0
LWPOLYLINE
  5
20B
100
AcDbEntity
  8
1
  6
CONTINUOUS
 62
    92
100
AcDbPolyline
 90
        6
 70
     1
 10
241.7137
 20
2.6036
 10
240.911
 20
3.9939
 10
239.3055
 20
3.9939
 10
238.5029
 20
2.6036
 10
239.3055
 20
1.2134
 10
240.911
 20
1.2134
  0
CIRCLE
  5
20C
100
AcDbEntity
  8
1
  6
HIDDEN
 62
    92
100
AcDbCircle
 10
240.108233
 20
-3.204316
 30
0.0
 40
1.089
210
0.0
220
0.0
230
1.0
  0
CIRCLE
  5
20D
100
AcDbEntity
  8
1
  6
HIDDEN
 62
    92
100
AcDbCircle
 10
240.108233
 20
-27.888316
 30
0.0
 40
1.089
210
0.0
220
0.0
230
1.0
  0
CIRCLE
  5
20E
100
AcDbEntity
  8
1
  6
HIDDEN
 62
    92
100
AcDbCircle
 10
240.108233
 20
-16.272316
 30
0.0
 40
1.089
210
0.0
220
0.0
230
1.0
  0
CIRCLE
  5
20F
100
AcDbEntity
  8
1
  6
CONTINUOUS
 62
    92
100
AcDbCircle
 10
240.108233
 20
-22.080316
 30
0.0
 40
1.815
210
0.0
220
0.0
230
1.0
  0
LWPOLYLINE
  5
210
100
AcDbEntity
  8
1
  6
CONTINUOUS
 62
    92
100
AcDbPolyline
 90
        6
 70
     1
 10
241.7137
 20
-22.0804
 10
240.911
 20
-20.6901
 10
239.3055
 20
-20.6901
 10
238.5029
 20
-22.0804
 10
239.3055
 20
-23.4706
 10
240.911
 20
-23.4706
  0
CIRCLE
  5
211
100
AcDbEntity
  8
1
  6
HIDDEN
 62
    92
100
AcDbCircle
 10
240.108233
 20
-9.738316
 30
0.0
 40
1.089
210
0.0
220
0.0
230
1.0
  0
CIRCLE
  5
212
100
AcDbEntity
  8
1
  6
CONTINUOUS
 62
    92
100
AcDbCircle
 10
240.108233
 20
-33.696316
 30
0.0
 40
1.089
210
0.0
220
0.0
230
1.0
  0
CIRCLE
  5
213
100
AcDbEntity
  8
1
  6
CONTINUOUS
 62
    92
100
AcDbCircle
 10
240.108233
 20
-39.504316
 30
0.0
 40
1.089
210
0.0
220
0.0
230
1.0
  0
CIRCLE
  5
214
100
AcDbEntity
  8
1
  6
CONTINUOUS
 62
    92
100
AcDbCircle
 10
240.108233
 20
-45.312316
 30
0.0
 40
1.089
210
0.0
220
0.0
230
1.0
  0
CIRCLE
  5
215
100
AcDbEntity
  8
1
  6
CONTINUOUS
 62
    92
100
AcDbCircle
 10
240.108233
 20
-51.120316
 30
0.0
 40
1.089
210
0.0
220
0.0
230
1.0
  0
LINE
  5
216
100
AcDbEntity
  8
1
  6
CONTINUOUS
 62
    92
100
AcDbLine
 10
636.7289
 20
-99.666
 30
0.0
 11
636.7289
 21
-281.4699
 31
0.0
  0
LINE
  5
217
100
AcDbEntity
  8
1
  6
DASHED
 62
    92
100
AcDbLine
 10
635.8214
 20
-123.624
 30
0.0
 11
635.8214
 21
-281.4699
 31
0.0
  0
LINE
  5
218
100
AcDbEntity
  8
1
  6
DASHED
 62
    92
100
AcDbLine
 10
637.6364
 20
-102.57
 30
0.0
 11
637.6364
 21
-281.4699
 31
0.0
  0
LINE
  5
219
100
AcDbEntity
  8
1
  6
CONTINUOUS
 62
    92
100
AcDbLine
 10
631.6469
 20
-99.666
 30
0.0
 11
631.6469
 21
-281.2964
 31
0.0
  0
LINE
  5
21A
100
AcDbEntity
  8
1
  6
CONTINUOUS
 62
    92
100
AcDbLine
 10
641.8109
 20
-102.57
 30
0.0
 11
641.8109
 21
-281.2964
 31
0.0
  0
LINE
  5
21B
100
AcDbEntity
  8
1
  6
CONTINUOUS
 62
    92
100
AcDbLine
 10
630.1949
 20
-135.7569
 30
0.0
 11
630.1949
 21
-281.2964
 31
0.0
  0
LINE
  5
21C
100
AcDbEntity
  8
1
  6
CONTINUOUS
 62
    92
100
AcDbLine
 10
643.2629
 20
-102.57
 30
0.0
 11
643.2629
 21
-281.2964
 31
0.0
  0
LINE
  5
21D
100
AcDbEntity
  8
1
  6
CONTINUOUS
 62
    92
100
AcDbLine
 10
644.7149
 20
-102.57
 30
0.0
 11
644.7149
 21
-234.702
 31
0.0
  0
LINE
  5
21E
100
AcDbEntity
  8
1
  6
CONTINUOUS
 62
    92
100
AcDbLine
 10
644.7149
 20
-102.57
 30
0.0
 11
636.7289
 21
-102.57
 31
0.0
  0
LINE
  5
21F
100
AcDbEntity
  8
1
  6
CONTINUOUS
 62
    92
100
AcDbLine
 10
576.4709
 20
-99.666
 30
0.0
 11
691.9049
 21
-99.666
 31
0.0
  0
LINE
  5
220
100
AcDbEntity
  8
1
  6
DASHED
 62
    92
100
AcDbLine
 10
631.6469
 20
-99.666
 30
0.0
 11
631.6469
 21
-56.106
 31
0.0
  0
LINE
  5
221
100
AcDbEntity
  8
1
  6
DASHED
 62
    92
100
AcDbLine
 10
636.7289
 20
-99.666
 30
0.0
 11
636.7289
 21
-56.106
 31
0.0
  0
LINE
  5
222
100
AcDbEntity
  8
1
  6
CONTINUOUS
 62
    92
100
AcDbLine
 10
576.4709
 20
-56.106
 30
0.0
 11
691.9049
 21
-56.106
 31
0.0
  0
LINE
  5
223
100
AcDbEntity
  8
1
  6
CONTINUOUS
 62
    92
100
AcDbLine
 10
699.1649
 20
-63.366
 30
0.0
 11
699.1649
 21
-92.406
 31
0.0
  0
LINE
  5
224
100
AcDbEntity
  8
1
  6
CONTINUOUS
 62
    92
100
AcDbLine
 10
569.2109
 20
-63.366
 30
0.0
 11
569.2109
 21
-92.406
 31
0.0
  0
LINE
  5
225
100
AcDbEntity
  8
1
  6
HIDDEN
 62
    92
100
AcDbLine
 10
631.6469
 20
-105.474
 30
0.0
 11
639.0884
 21
-105.474
 31
0.0
  0
LINE
  5
226
100
AcDbEntity
  8
1
  6
HIDDEN
 62
    92
100
AcDbLine
 10
631.6469
 20
-106.926
 30
0.0
 11
639.0884
 21
-106.926
 31
0.0
  0
LINE
  5
227
100
AcDbEntity
  8
1
  6
CONTINUOUS
 62
    92
100
AcDbLine
 10
630.1949
 20
-107.652
 30
0.0
 11
631.6469
 21
-107.652
 31
0.0
  0
LINE
  5
228
100
AcDbEntity
  8
1
  6
CONTINUOUS
 62
    92
100
AcDbLine
 10
637.6364
 20
-107.652
 30
0.0
 11
640.5404
 21
-107.652
 31
0.0
  0
LINE
  5
229
100
AcDbEntity
  8
1
  6
CONTINUOUS
 62
    92
100
AcDbLine
 10
630.1949
 20
-104.748
 30
0.0
 11
631.6469
 21
-104.748
 31
0.0
  0
LINE
  5
22A
100
AcDbEntity
  8
1
  6
CONTINUOUS
 62
    92
100
AcDbLine
 10
637.6364
 20
-104.748
 30
0.0
 11
640.5404
 21
-104.748
 31
0.0
  0
LINE
  5
22B
100
AcDbEntity
  8
1
  6
CONTINUOUS
 62
    92
100
AcDbLine
 10
639.0884
 20
-104.748
 30
0.0
 11
639.0884
 21
-107.652
 31
0.0
  0
LINE
  5
22C
100
AcDbEntity
  8
1
  6
HIDDEN
 62
    92
100
AcDbLine
 10
631.6469
 20
-109.83
 30
0.0
 11
641.8109
 21
-109.83
 31
0.0
  0
LINE
  5
22D
100
AcDbEntity
  8
1
  6
HIDDEN
 62
    92
100
AcDbLine
 10
631.6469
 20
-111.282
 30
0.0
 11
641.8109
 21
-111.282
 31
0.0
  0
LINE
  5
22E
100
AcDbEntity
  8
1
  6
CONTINUOUS
 62
    92
100
AcDbLine
 10
644.7149
 20
-108.378
 30
0.0
 11
646.1669
 21
-108.378
 31
0.0
  0
LINE
  5
22F
100
AcDbEntity
  8
1
  6
CONTINUOUS
 62
    92
100
AcDbLine
 10
644.7149
 20
-112.734
 30
0.0
 11
646.1669
 21
-112.734
 31
0.0
  0
LINE
  5
230
100
AcDbEntity
  8
1
  6
CONTINUOUS
 62
    92
100
AcDbLine
 10
646.1669
 20
-108.378
 30
0.0
 11
646.1669
 21
-112.734
 31
0.0
  0
ARC
  5
231
100
AcDbEntity
  8
1
  6
CONTINUOUS
 62
    92
100
AcDbCircle
 10
645.599474
 20
-110.55604
 30
0.0
 40
1.558942
210
0.0
220
0.0
230
1.0
100
AcDbArc
 50
291.345756
 51
68.65425
  0
LINE
  5
232
100
AcDbEntity
  8
1
  6
CONTINUOUS
 62
    92
100
AcDbLine
 10
636.7289
 20
-135.7569
 30
0.0
 11
630.1949
 21
-135.7569
 31
0.0
  0
LINE
  5
233
100
AcDbEntity
  8
1
  6
CONTINUOUS
 62
    92
100
AcDbLine
 10
636.7289
 20
-135.3939
 30
0.0
 11
631.6469
 21
-135.3939
 31
0.0
  0
LINE
  5
234
100
AcDbEntity
  8
1
  6
HIDDEN
 62
    92
100
AcDbLine
 10
634.3694
 20
-225.99
 30
0.0
 11
641.8109
 21
-225.99
 31
0.0
  0
LINE
  5
235
100
AcDbEntity
  8
1
  6
HIDDEN
 62
    92
100
AcDbLine
 10
634.3694
 20
-227.442
 30
0.0
 11
641.8109
 21
-227.442
 31
0.0
  0
LINE
  5
236
100
AcDbEntity
  8
1
  6
CONTINUOUS
 62
    92
100
AcDbLine
 10
634.3694
 20
-225.99
 30
0.0
 11
632.1914
 21
-225.99
 31
0.0
  0
LINE
  5
237
100
AcDbEntity
  8
1
  6
CONTINUOUS
 62
    92
100
AcDbLine
 10
634.3694
 20
-227.442
 30
0.0
 11
632.1914
 21
-227.442
 31
0.0
  0
LINE
  5
238
100
AcDbEntity
  8
1
  6
CONTINUOUS
 62
    92
100
AcDbLine
 10
635.8214
 20
-224.538
 30
0.0
 11
634.7324
 21
-224.538
 31
0.0
  0
LINE
  5
239
100
AcDbEntity
  8
1
  6
CONTINUOUS
 62
    92
100
AcDbLine
 10
635.8214
 20
-228.894
 30
0.0
 11
634.7324
 21
-228.894
 31
0.0
  0
LINE
  5
23A
100
AcDbEntity
  8
1
  6
CONTINUOUS
 62
    92
100
AcDbLine
 10
644.7149
 20
-224.538
 30
0.0
 11
645.8039
 21
-224.538
 31
0.0
  0
LINE
  5
23B
100
AcDbEntity
  8
1
  6
CONTINUOUS
 62
    92
100
AcDbLine
 10
644.7149
 20
-228.894
 30
0.0
 11
645.8039
 21
-228.894
 31
0.0
  0
LINE
  5
23C
100
AcDbEntity
  8
1
  6
CONTINUOUS
 62
    92
100
AcDbLine
 10
634.7324
 20
-224.538
 30
0.0
 11
634.7324
 21
-228.894
 31
0.0
  0
LINE
  5
23D
100
AcDbEntity
  8
1
  6
CONTINUOUS
 62
    92
100
AcDbLine
 10
645.8039
 20
-224.538
 30
0.0
 11
645.8039
 21
-228.894
 31
0.0
  0
LINE
  5
23E
100
AcDbEntity
  8
1
  6
CONTINUOUS
 62
    92
100
AcDbLine
 10
633.2804
 20
-225.264
 30
0.0
 11
633.2804
 21
-228.168
 31
0.0
  0
LINE
  5
23F
100
AcDbEntity
  8
1
  6
CONTINUOUS
 62
    92
100
AcDbLine
 10
632.1914
 20
-225.99
 30
0.0
 11
632.1914
 21
-227.442
 31
0.0
  0
LINE
  5
240
100
AcDbEntity
  8
1
  6
CONTINUOUS
 62
    92
100
AcDbLine
 10
633.2804
 20
-225.264
 30
0.0
 11
634.7324
 21
-225.264
 31
0.0
  0
LINE
  5
241
100
AcDbEntity
  8
1
  6
CONTINUOUS
 62
    92
100
AcDbLine
 10
633.2804
 20
-228.168
 30
0.0
 11
634.7324
 21
-228.168
 31
0.0
  0
LINE
  5
242
100
AcDbEntity
  8
1
  6
CONTINUOUS
 62
    92
100
AcDbLine
 10
632.7359
 20
-226.353
 30
0.0
 11
632.7359
 21
-227.079
 31
0.0
  0
ARC
  5
243
100
AcDbEntity
  8
1
  6
CONTINUOUS
 62
    92
100
AcDbCircle
 10
645.343559
 20
-226.664857
 30
0.0
 40
1.558942
210
0.0
220
0.0
230
1.0
100
AcDbArc
 50
291.345756
 51
68.65425
  0
LINE
  5
244
100
AcDbEntity
  8
1
  6
CONTINUOUS
 62
    92
100
AcDbLine
 10
643.2629
 20
-234.702
 30
0.0
 11
644.7149
 21
-234.702
 31
0.0
  0
LINE
  5
245
100
AcDbEntity
  8
1
  6
HIDDEN
 62
    92
100
AcDbLine
 10
635.8214
 20
-137.5995
 30
0.0
 11
637.6364
 21
-137.5995
 31
0.0
  0
LINE
  5
246
100
AcDbEntity
  8
1
  6
HIDDEN
 62
    92
100
AcDbLine
 10
635.8214
 20
-138.6885
 30
0.0
 11
637.6364
 21
-138.6885
 31
0.0
  0
LINE
  5
247
100
AcDbEntity
  8
1
  6
HIDDEN
 62
    92
100
AcDbLine
 10
637.6364
 20
-137.5995
 30
0.0
 11
638.9069
 21
-137.5995
 31
0.0
  0
LINE
  5
248
100
AcDbEntity
  8
1
  6
CONTINUOUS
 62
    92
100
AcDbLine
 10
637.6364
 20
-139.4145
 30
0.0
 11
638.9069
 21
-139.4145
 31
0.0
  0
LINE
  5
249
100
AcDbEntity
  8
1
  6
CONTINUOUS
 62
    92
100
AcDbLine
 10
637.6364
 20
-136.8735
 30
0.0
 11
638.9069
 21
-136.8735
 31
0.0
  0
LINE
  5
24A
100
AcDbEntity
  8
1
  6
CONTINUOUS
 62
    92
100
AcDbLine
 10
638.9069
 20
-136.8735
 30
0.0
 11
638.9069
 21
-139.4145
 31
0.0
  0
LINE
  5
24B
100
AcDbEntity
  8
1
  6
HIDDEN
 62
    92
100
AcDbLine
 10
637.6364
 20
-138.6885
 30
0.0
 11
638.9069
 21
-138.6885
 31
0.0
  0
LINE
  5
24C
100
AcDbEntity
  8
1
  6
CONTINUOUS
 62
    92
100
AcDbLine
 10
634.5509
 20
-136.8735
 30
0.0
 11
634.5509
 21
-139.4145
 31
0.0
  0
LINE
  5
24D
100
AcDbEntity
  8
1
  6
HIDDEN
 62
    92
100
AcDbLine
 10
635.8214
 20
-137.5995
 30
0.0
 11
634.5509
 21
-137.5995
 31
0.0
  0
LINE
  5
24E
100
AcDbEntity
  8
1
  6
CONTINUOUS
 62
    92
100
AcDbLine
 10
635.8214
 20
-139.4145
 30
0.0
 11
634.5509
 21
-139.4145
 31
0.0
  0
LINE
  5
24F
100
AcDbEntity
  8
1
  6
CONTINUOUS
 62
    92
100
AcDbLine
 10
635.8214
 20
-136.8735
 30
0.0
 11
634.5509
 21
-136.8735
 31
0.0
  0
LINE
  5
250
100
AcDbEntity
  8
1
  6
HIDDEN
 62
    92
100
AcDbLine
 10
635.8214
 20
-138.6885
 30
0.0
 11
634.5509
 21
-138.6885
 31
0.0
  0
LINE
  5
251
100
AcDbEntity
  8
1
  6
CONTINUOUS
 62
    92
100
AcDbLine
 10
635.8214
 20
-182.9745
 30
0.0
 11
634.5509
 21
-182.9745
 31
0.0
  0
LINE
  5
252
100
AcDbEntity
  8
1
  6
HIDDEN
 62
    92
100
AcDbLine
 10
635.8214
 20
-183.7005
 30
0.0
 11
637.6364
 21
-183.7005
 31
0.0
  0
LINE
  5
253
100
AcDbEntity
  8
1
  6
HIDDEN
 62
    92
100
AcDbLine
 10
635.8214
 20
-184.7895
 30
0.0
 11
637.6364
 21
-184.7895
 31
0.0
  0
LINE
  5
254
100
AcDbEntity
  8
1
  6
HIDDEN
 62
    92
100
AcDbLine
 10
637.6364
 20
-183.7005
 30
0.0
 11
638.9069
 21
-183.7005
 31
0.0
  0
LINE
  5
255
100
AcDbEntity
  8
1
  6
CONTINUOUS
 62
    92
100
AcDbLine
 10
637.6364
 20
-185.5155
 30
0.0
 11
638.9069
 21
-185.5155
 31
0.0
  0
LINE
  5
256
100
AcDbEntity
  8
1
  6
CONTINUOUS
 62
    92
100
AcDbLine
 10
637.6364
 20
-182.9745
 30
0.0
 11
638.9069
 21
-182.9745
 31
0.0
  0
LINE
  5
257
100
AcDbEntity
  8
1
  6
CONTINUOUS
 62
    92
100
AcDbLine
 10
638.9069
 20
-182.9745
 30
0.0
 11
638.9069
 21
-185.5155
 31
0.0
  0
LINE
  5
258
100
AcDbEntity
  8
1
  6
HIDDEN
 62
    92
100
AcDbLine
 10
637.6364
 20
-184.7895
 30
0.0
 11
638.9069
 21
-184.7895
 31
0.0
  0
LINE
  5
259
100
AcDbEntity
  8
1
  6
CONTINUOUS
 62
    92
100
AcDbLine
 10
634.5509
 20
-182.9745
 30
0.0
 11
634.5509
 21
-185.5155
 31
0.0
  0
LINE
  5
25A
100
AcDbEntity
  8
1
  6
HIDDEN
 62
    92
100
AcDbLine
 10
635.8214
 20
-183.7005
 30
0.0
 11
634.5509
 21
-183.7005
 31
0.0
  0
LINE
  5
25B
100
AcDbEntity
  8
1
  6
CONTINUOUS
 62
    92
100
AcDbLine
 10
635.8214
 20
-185.5155
 30
0.0
 11
634.5509
 21
-185.5155
 31
0.0
  0
LINE
  5
25C
100
AcDbEntity
  8
1
  6
HIDDEN
 62
    92
100
AcDbLine
 10
635.8214
 20
-184.7895
 30
0.0
 11
634.5509
 21
-184.7895
 31
0.0
  0
LINE
  5
25D
100
AcDbEntity
  8
1
  6
CONTINUOUS
 62
    92
100
AcDbLine
 10
634.5509
 20
-270.276
 30
0.0
 11
634.5509
 21
-272.817
 31
0.0
  0
LINE
  5
25E
100
AcDbEntity
  8
1
  6
CONTINUOUS
 62
    92
100
AcDbLine
 10
635.8214
 20
-270.276
 30
0.0
 11
634.5509
 21
-270.276
 31
0.0
  0
LINE
  5
25F
100
AcDbEntity
  8
1
  6
HIDDEN
 62
    92
100
AcDbLine
 10
635.8214
 20
-271.002
 30
0.0
 11
637.6364
 21
-271.002
 31
0.0
  0
LINE
  5
260
100
AcDbEntity
  8
1
  6
HIDDEN
 62
    92
100
AcDbLine
 10
635.8214
 20
-272.091
 30
0.0
 11
637.6364
 21
-272.091
 31
0.0
  0
LINE
  5
261
100
AcDbEntity
  8
1
  6
HIDDEN
 62
    92
100
AcDbLine
 10
637.6364
 20
-271.002
 30
0.0
 11
638.9069
 21
-271.002
 31
0.0
  0
LINE
  5
262
100
AcDbEntity
  8
1
  6
CONTINUOUS
 62
    92
100
AcDbLine
 10
637.6364
 20
-272.817
 30
0.0
 11
638.9069
 21
-272.817
 31
0.0
  0
LINE
  5
263
100
AcDbEntity
  8
1
  6
CONTINUOUS
 62
    92
100
AcDbLine
 10
637.6364
 20
-270.276
 30
0.0
 11
638.9069
 21
-270.276
 31
0.0
  0
LINE
  5
264
100
AcDbEntity
  8
1
  6
CONTINUOUS
 62
    92
100
AcDbLine
 10
638.9069
 20
-270.276
 30
0.0
 11
638.9069
 21
-272.817
 31
0.0
  0
LINE
  5
265
100
AcDbEntity
  8
1
  6
HIDDEN
 62
    92
100
AcDbLine
 10
637.6364
 20
-272.091
 30
0.0
 11
638.9069
 21
-272.091
 31
0.0
  0
LINE
  5
266
100
AcDbEntity
  8
1
  6
HIDDEN
 62
    92
100
AcDbLine
 10
635.8214
 20
-271.002
 30
0.0
 11
634.5509
 21
-271.002
 31
0.0
  0
LINE
  5
267
100
AcDbEntity
  8
1
  6
CONTINUOUS
 62
    92
100
AcDbLine
 10
635.8214
 20
-272.817
 30
0.0
 11
634.5509
 21
-272.817
 31
0.0
  0
LINE
  5
268
100
AcDbEntity
  8
1
  6
HIDDEN
 62
    92
100
AcDbLine
 10
635.8214
 20
-272.091
 30
0.0
 11
634.5509
 21
-272.091
 31
0.0
  0
LINE
  5
269
100
AcDbEntity
  8
1
  6
CONTINUOUS
 62
    92
100
AcDbLine
 10
625.8389
 20
-281.2964
 30
0.0
 11
632.3729
 21
-281.2964
 31
0.0
  0
LINE
  5
26A
100
AcDbEntity
  8
1
  6
CONTINUOUS
 62
    92
100
AcDbLine
 10
641.0849
 20
-281.2964
 30
0.0
 11
647.6189
 21
-281.2964
 31
0.0
  0
ARC
  5
26B
100
AcDbEntity
  8
1
  6
CONTINUOUS
 62
    92
100
AcDbCircle
 10
576.470921
 20
-63.36604
 30
0.0
 40
7.26
210
0.0
220
0.0
230
1.0
100
AcDbArc
 50
90.0
 51
180.0
  0
ARC
  5
26C
100
AcDbEntity
  8
1
  6
CONTINUOUS
 62
    92
100
AcDbCircle
 10
691.904921
 20
-63.36604
 30
0.0
 40
7.26
210
0.0
220
0.0
230
1.0
100
AcDbArc
 50
0.0
 51
90.0
  0
ARC
  5
26D
100
AcDbEntity
  8
1
  6
CONTINUOUS
 62
    92
100
AcDbCircle
 10
691.904921
 20
-92.40604
 30
0.0
 40
7.26
210
0.0
220
0.0
230
1.0
100
AcDbArc
 50
270.0
 51
0.0
  0
ARC
  5
26E
100
AcDbEntity
  8
1
  6
CONTINUOUS
 62
    92
100
AcDbCircle
 10
576.470921
 20
-92.40604
 30
0.0
 40
7.26
210
0.0
220
0.0
230
1.0
100
AcDbArc
 50
180.0
 51
270.0
  0
CIRCLE
  5
26F
100
AcDbEntity
  8
1
  6
CONTINUOUS
 62
     3
100
AcDbCircle
 10
575.018921
 20
-77.88604
 30
0.0
 40
0.9075
210
0.0
220
0.0
230
1.0
  0
CIRCLE
  5
270
100
AcDbEntity
  8
1
  6
CONTINUOUS
 62
     3
100
AcDbCircle
 10
693.356921
 20
-77.88604
 30
0.0
 40
0.9075
210
0.0
220
0.0
230
1.0
  0
CIRCLE
  5
271
100
AcDbEntity
  8
1
  6
HIDDEN
 62
    92
100
AcDbCircle
 10
634.187921
 20
-59.73604
 30
0.0
 40
1.089
210
0.0
220
0.0
230
1.0
  0
CIRCLE
  5
272
100
AcDbEntity
  8
1
  6
CONTINUOUS
 62
    92
100
AcDbCircle
 10
634.187921
 20
-65.54404
 30
0.0
 40
1.815
210
0.0
220
0.0
230
1.0
  0
LWPOLYLINE
  5
273
100
AcDbEntity
  8
1
  6
CONTINUOUS
 62
    92
100
AcDbPolyline
 90
        6
 70
     1
 10
635.7934
 20
-65.544
 10
634.9907
 20
-64.1537
 10
633.3852
 20
-64.1537
 10
632.5825
 20
-65.544
 10
633.3852
 20
-66.9343
 10
634.9907
 20
-66.9343
  0
CIRCLE
  5
274
100
AcDbEntity
  8
1
  6
HIDDEN
 62
    92
100
AcDbCircle
 10
634.187921
 20
-71.35204
 30
0.0
 40
1.089
210
0.0
220
0.0
230
1.0
  0
CIRCLE
  5
275
100
AcDbEntity
  8
1
  6
HIDDEN
 62
    92
100
AcDbCircle
 10
634.187921
 20
-96.03604
 30
0.0
 40
1.089
210
0.0
220
0.0
230
1.0
  0
CIRCLE
  5
276
100
AcDbEntity
  8
1
  6
HIDDEN
 62
    92
100
AcDbCircle
 10
634.187921
 20
-84.42004
 30
0.0
 40
1.089
210
0.0
220
0.0
230
1.0
  0
CIRCLE
  5
277
100
AcDbEntity
  8
1
  6
CONTINUOUS
 62
    92
100
AcDbCircle
 10
634.187921
 20
-90.22804
 30
0.0
 40
1.815
210
0.0
220
0.0
230
1.0
  0
LWPOLYLINE
  5
278
100
AcDbEntity
  8
1
  6
CONTINUOUS
 62
    92
100
AcDbPolyline
 90
        6
 70
     1
 10
635.7934
 20
-90.228
 10
634.9907
 20
-88.8378
 10
633.3852
 20
-88.8378
 10
632.5825
 20
-90.228
 10
633.3852
 20
-91.6183
 10
634.9907
 20
-91.6183
  0
CIRCLE
  5
279
100
AcDbEntity
  8
1
  6
HIDDEN
 62
    92
100
AcDbCircle
 10
634.187921
 20
-77.88604
 30
0.0
 40
1.089
210
0.0
220
0.0
230
1.0
  0
CIRCLE
  5
27A
100
AcDbEntity
  8
1
  6
CONTINUOUS
 62
    92
100
AcDbCircle
 10
634.187921
 20
-101.84404
 30
0.0
 40
1.089
210
0.0
220
0.0
230
1.0
  0
CIRCLE
  5
27B
100
AcDbEntity
  8
1
  6
CONTINUOUS
 62
    92
100
AcDbCircle
 10
634.187921
 20
-107.65204
 30
0.0
 40
1.089
210
0.0
220
0.0
230
1.0
  0
CIRCLE
  5
27C
100
AcDbEntity
  8
1
  6
CONTINUOUS
 62
    92
100
AcDbCircle
 10
634.187921
 20
-113.46004
 30
0.0
 40
1.089
210
0.0
220
0.0
230
1.0
  0
CIRCLE
  5
27D
100
AcDbEntity
  8
1
  6
CONTINUOUS
 62
    92
100
AcDbCircle
 10
634.187921
 20
-119.26804
 30
0.0
 40
1.089
210
0.0
220
0.0
230
1.0
  0
LINE
  5
27E
100
AcDbEntity
  8
1
  6
CONTINUOUS
 62
    92
100
AcDbLine
 10
628.7429
 20
-104.748
 30
0.0
 11
630.1949
 21
-104.748
 31
0.0
  0
LINE
  5
27F
100
AcDbEntity
  8
1
  6
CONTINUOUS
 62
    92
100
AcDbLine
 10
631.6469
 20
-105.474
 30
0.0
 11
627.2909
 21
-105.474
 31
0.0
  0
LINE
  5
280
100
AcDbEntity
  8
1
  6
CONTINUOUS
 62
    92
100
AcDbLine
 10
631.6469
 20
-106.926
 30
0.0
 11
627.2909
 21
-106.926
 31
0.0
  0
LINE
  5
281
100
AcDbEntity
  8
1
  6
CONTINUOUS
 62
    92
100
AcDbLine
 10
628.7429
 20
-104.748
 30
0.0
 11
628.7429
 21
-107.652
 31
0.0
  0
LINE
  5
282
100
AcDbEntity
  8
1
  6
CONTINUOUS
 62
    92
100
AcDbLine
 10
627.2909
 20
-105.474
 30
0.0
 11
627.2909
 21
-106.926
 31
0.0
  0
LINE
  5
283
100
AcDbEntity
  8
1
  6
CONTINUOUS
 62
    92
100
AcDbLine
 10
628.7429
 20
-107.652
 30
0.0
 11
630.1949
 21
-107.652
 31
0.0
  0
LINE
  5
284
100
AcDbEntity
  8
1
  6
CONTINUOUS
 62
    92
100
AcDbLine
 10
628.0169
 20
-105.837
 30
0.0
 11
628.0169
 21
-106.563
 31
0.0
  0
LINE
  5
285
100
AcDbEntity
  8
1
  6
CONTINUOUS
 62
    92
100
AcDbLine
 10
630.1949
 20
-104.748
 30
0.0
 11
630.1949
 21
-107.652
 31
0.0
  0
LINE
  5
286
100
AcDbEntity
  8
1
  6
CONTINUOUS
 62
    92
100
AcDbLine
 10
640.5404
 20
-104.748
 30
0.0
 11
640.5404
 21
-107.652
 31
0.0
  0
LINE
  5
287
100
AcDbEntity
  8
1
  6
CONTINUOUS
 62
    92
100
AcDbLine
 10
631.6469
 20
-109.83
 30
0.0
 11
627.2909
 21
-109.83
 31
0.0
  0
LINE
  5
288
100
AcDbEntity
  8
1
  6
CONTINUOUS
 62
    92
100
AcDbLine
 10
630.1949
 20
-109.104
 30
0.0
 11
631.6469
 21
-109.104
 31
0.0
  0
LINE
  5
289
100
AcDbEntity
  8
1
  6
CONTINUOUS
 62
    92
100
AcDbLine
 10
630.1949
 20
-112.008
 30
0.0
 11
631.6469
 21
-112.008
 31
0.0
  0
LINE
  5
28A
100
AcDbEntity
  8
1
  6
CONTINUOUS
 62
    92
100
AcDbLine
 10
628.7429
 20
-109.104
 30
0.0
 11
630.1949
 21
-109.104
 31
0.0
  0
LINE
  5
28B
100
AcDbEntity
  8
1
  6
CONTINUOUS
 62
    92
100
AcDbLine
 10
631.6469
 20
-111.282
 30
0.0
 11
627.2909
 21
-111.282
 31
0.0
  0
LINE
  5
28C
100
AcDbEntity
  8
1
  6
CONTINUOUS
 62
    92
100
AcDbLine
 10
628.7429
 20
-109.104
 30
0.0
 11
628.7429
 21
-112.008
 31
0.0
  0
LINE
  5
28D
100
AcDbEntity
  8
1
  6
CONTINUOUS
 62
    92
100
AcDbLine
 10
627.2909
 20
-109.83
 30
0.0
 11
627.2909
 21
-111.282
 31
0.0
  0
LINE
  5
28E
100
AcDbEntity
  8
1
  6
CONTINUOUS
 62
    92
100
AcDbLine
 10
628.7429
 20
-112.008
 30
0.0
 11
630.1949
 21
-112.008
 31
0.0
  0
LINE
  5
28F
100
AcDbEntity
  8
1
  6
CONTINUOUS
 62
    92
100
AcDbLine
 10
628.0169
 20
-110.193
 30
0.0
 11
628.0169
 21
-110.919
 31
0.0
  0
LINE
  5
290
100
AcDbEntity
  8
1
  6
CONTINUOUS
 62
    92
100
AcDbLine
 10
630.1949
 20
-109.104
 30
0.0
 11
630.1949
 21
-112.008
 31
0.0
  0
LINE
  5
291
100
AcDbEntity
  8
1
  6
CONTINUOUS
 62
     3
100
AcDbLine
 10
639.0884
 20
-105.474
 30
0.0
 11
640.5404
 21
-105.474
 31
0.0
  0
LINE
  5
292
100
AcDbEntity
  8
1
  6
CONTINUOUS
 62
     3
100
AcDbLine
 10
639.0884
 20
-106.926
 30
0.0
 11
640.5404
 21
-106.926
 31
0.0
  0
LINE
  5
293
100
AcDbEntity
  8
1
  6
HIDDEN
 62
    92
100
AcDbLine
 10
631.6469
 20
-128.706
 30
0.0
 11
639.0884
 21
-128.706
 31
0.0
  0
LINE
  5
294
100
AcDbEntity
  8
1
  6
HIDDEN
 62
    92
100
AcDbLine
 10
631.6469
 20
-130.158
 30
0.0
 11
639.0884
 21
-130.158
 31
0.0
  0
LINE
  5
295
100
AcDbEntity
  8
1
  6
CONTINUOUS
 62
    92
100
AcDbLine
 10
630.1949
 20
-130.884
 30
0.0
 11
631.6469
 21
-130.884
 31
0.0
  0
LINE
  5
296
100
AcDbEntity
  8
1
  6
CONTINUOUS
 62
    92
100
AcDbLine
 10
637.6364
 20
-130.884
 30
0.0
 11
640.5404
 21
-130.884
 31
0.0
  0
LINE
  5
297
100
AcDbEntity
  8
1
  6
CONTINUOUS
 62
    92
100
AcDbLine
 10
630.1949
 20
-127.98
 30
0.0
 11
631.6469
 21
-127.98
 31
0.0
  0
LINE
  5
298
100
AcDbEntity
  8
1
  6
CONTINUOUS
 62
    92
100
AcDbLine
 10
637.6364
 20
-127.98
 30
0.0
 11
640.5404
 21
-127.98
 31
0.0
  0
LINE
  5
299
100
AcDbEntity
  8
1
  6
CONTINUOUS
 62
    92
100
AcDbLine
 10
639.0884
 20
-127.98
 30
0.0
 11
639.0884
 21
-130.884
 31
0.0
  0
LINE
  5
29A
100
AcDbEntity
  8
1
  6
CONTINUOUS
 62
    92
100
AcDbLine
 10
628.7429
 20
-127.98
 30
0.0
 11
630.1949
 21
-127.98
 31
0.0
  0
LINE
  5
29B
100
AcDbEntity
  8
1
  6
CONTINUOUS
 62
    92
100
AcDbLine
 10
631.6469
 20
-128.706
 30
0.0
 11
627.2909
 21
-128.706
 31
0.0
  0
LINE
  5
29C
100
AcDbEntity
  8
1
  6
CONTINUOUS
 62
    92
100
AcDbLine
 10
631.6469
 20
-130.158
 30
0.0
 11
627.2909
 21
-130.158
 31
0.0
  0
LINE
  5
29D
100
AcDbEntity
  8
1
  6
CONTINUOUS
 62
    92
100
AcDbLine
 10
628.7429
 20
-127.98
 30
0.0
 11
628.7429
 21
-130.884
 31
0.0
  0
LINE
  5
29E
100
AcDbEntity
  8
1
  6
CONTINUOUS
 62
    92
100
AcDbLine
 10
627.2909
 20
-128.706
 30
0.0
 11
627.2909
 21
-130.158
 31
0.0
  0
LINE
  5
29F
100
AcDbEntity
  8
1
  6
CONTINUOUS
 62
    92
100
AcDbLine
 10
628.7429
 20
-130.884
 30
0.0
 11
630.1949
 21
-130.884
 31
0.0
  0
LINE
  5
2A0
100
AcDbEntity
  8
1
  6
CONTINUOUS
 62
    92
100
AcDbLine
 10
628.0169
 20
-129.069
 30
0.0
 11
628.0169
 21
-129.795
 31
0.0
  0
LINE
  5
2A1
100
AcDbEntity
  8
1
  6
CONTINUOUS
 62
    92
100
AcDbLine
 10
630.1949
 20
-127.98
 30
0.0
 11
630.1949
 21
-130.884
 31
0.0
  0
LINE
  5
2A2
100
AcDbEntity
  8
1
  6
CONTINUOUS
 62
    92
100
AcDbLine
 10
640.5404
 20
-127.98
 30
0.0
 11
640.5404
 21
-130.884
 31
0.0
  0
LINE
  5
2A3
100
AcDbEntity
  8
1
  6
CONTINUOUS
 62
     3
100
AcDbLine
 10
639.0884
 20
-128.706
 30
0.0
 11
640.5404
 21
-128.706
 31
0.0
  0
LINE
  5
2A4
100
AcDbEntity
  8
1
  6
CONTINUOUS
 62
     3
100
AcDbLine
 10
639.0884
 20
-130.158
 30
0.0
 11
640.5404
 21
-130.158
 31
0.0
  0
LINE
  5
2A5
100
AcDbEntity
  8
1
  6
CONTINUOUS
 62
    92
100
AcDbLine
 10
631.6469
 20
-225.99
 30
0.0
 11
631.6469
 21
-227.442
 31
0.0
  0
LINE
  5
2A6
100
AcDbEntity
  8
1
  6
CONTINUOUS
 62
    92
100
AcDbLine
 10
640.3374
 20
-278.3055
 30
0.0
 11
640.3374
 21
-284.1135
 31
0.0
  0
LINE
  5
2A7
100
AcDbEntity
  8
1
  6
CONTINUOUS
 62
    92
100
AcDbLine
 10
640.3374
 20
-278.3055
 30
0.0
 11
641.0849
 21
-281.2964
 31
0.0
  0
LINE
  5
2A8
100
AcDbEntity
  8
1
  6
CONTINUOUS
 62
    92
100
AcDbLine
 10
640.3374
 20
-284.1135
 30
0.0
 11
639.6764
 21
-281.4699
 31
0.0
  0
LINE
  5
2A9
100
AcDbEntity
  8
1
  6
CONTINUOUS
 62
    92
100
AcDbLine
 10
633.1207
 20
-284.287
 30
0.0
 11
632.3729
 21
-281.2964
 31
0.0
  0
LINE
  5
2AA
100
AcDbEntity
  8
1
  6
CONTINUOUS
 62
    92
100
AcDbLine
 10
633.1207
 20
-278.479
 30
0.0
 11
633.1207
 21
-284.287
 31
0.0
  0
LINE
  5
2AB
100
AcDbEntity
  8
1
  6
CONTINUOUS
 62
    92
100
AcDbLine
 10
633.1207
 20
-278.479
 30
0.0
 11
633.8683
 21
-281.4699
 31
0.0
  0
LINE
  5
2AC
100
AcDbEntity
  8
1
  6
CONTINUOUS
 62
     3
100
AcDbLine
 10
633.8683
 20
-281.4699
 30
0.0
 11
639.6764
 21
-281.4699
 31
0.0
  0
CIRCLE
  5
2AD
100
AcDbEntity
  8
1
  6
CONTINUOUS
 62
    92
100
AcDbCircle
 10
634.187921
 20
-125.07604
 30
0.0
 40
1.089
210
0.0
220
0.0
230
1.0
  0
CIRCLE
  5
2AE
100
AcDbEntity
  8
1
  6
CONTINUOUS
 62
    92
100
AcDbCircle
 10
634.187921
 20
-130.88404
 30
0.0
 40
1.089
210
0.0
220
0.0
230
1.0
  0
LINE
  5
2AF
100
AcDbEntity
  8
1
  6
CONTINUOUS
 62
     3
100
AcDbLine
 10
384.5273
 20
17.7315
 30
0.0
 11
384.5273
 21
-45.2685
 31
0.0
  0
LINE
  5
2B0
100
AcDbEntity
  8
1
  6
CONTINUOUS
 62
     3
100
AcDbLine
 10
384.5273
 20
17.7315
 30
0.0
 11
389.3273
 21
17.7315
 31
0.0
  0
LINE
  5
2B1
100
AcDbEntity
  8
1
  6
CONTINUOUS
 62
     3
100
AcDbLine
 10
389.3273
 20
17.7315
 30
0.0
 11
389.3273
 21
12.9315
 31
0.0
  0
LINE
  5
2B2
100
AcDbEntity
  8
1
  6
CONTINUOUS
 62
     3
100
AcDbLine
 10
383.3273
 20
14.1315
 30
0.0
 11
384.5273
 21
14.1315
 31
0.0
  0
ARC
  5
2B3
100
AcDbEntity
  8
1
  6
CONTINUOUS
 62
     3
100
AcDbCircle
 10
393.342596
 20
9.219399
 30
0.0
 40
5.468299
210
0.0
220
0.0
230
1.0
100
AcDbArc
 50
137.246928
 51
239.013278
  0
ARC
  5
2B4
100
AcDbEntity
  8
1
  6
CONTINUOUS
 62
     3
100
AcDbCircle
 10
391.321008
 20
8.95892
 30
0.0
 40
6.896421
210
0.0
220
0.0
230
1.0
100
AcDbArc
 50
192.249606
 51
258.917819
  0
LINE
  5
2B5
100
AcDbEntity
  8
1
  6
CONTINUOUS
 62
     3
100
AcDbLine
 10
384.5273
 20
-45.2685
 30
0.0
 11
389.3273
 21
-45.2685
 31
0.0
  0
LINE
  5
2B6
100
AcDbEntity
  8
1
  6
CONTINUOUS
 62
     3
100
AcDbLine
 10
389.3273
 20
-45.2685
 30
0.0
 11
389.3273
 21
-40.4685
 31
0.0
  0
ARC
  5
2B7
100
AcDbEntity
  8
1
  6
CONTINUOUS
 62
     3
100
AcDbCircle
 10
393.342596
 20
-36.756399
 30
0.0
 40
5.468299
210
0.0
220
0.0
230
1.0
100
AcDbArc
 50
120.986722
 51
222.753072
  0
ARC
  5
2B8
100
AcDbEntity
  8
1
  6
CONTINUOUS
 62
     3
100
AcDbCircle
 10
391.321008
 20
-36.49592
 30
0.0
 40
6.896421
210
0.0
220
0.0
230
1.0
100
AcDbArc
 50
101.082181
 51
167.750394
  0
ARC
  5
2B9
100
AcDbEntity
  8
1
  6
CONTINUOUS
 62
     3
100
AcDbCircle
 10
412.7954
 20
-6.682412
 30
0.0
 40
3.6
210
0.0
220
0.0
230
1.0
100
AcDbArc
 50
0.0
 51
77.195517
  0
ARC
  5
2BA
100
AcDbEntity
  8
1
  6
CONTINUOUS
 62
     3
100
AcDbCircle
 10
412.7954
 20
-20.854581
 30
0.0
 40
3.6
210
0.0
220
0.0
230
1.0
100
AcDbArc
 50
282.804336
 51
0.0
  0
LINE
  5
2BB
100
AcDbEntity
  8
1
  6
CONTINUOUS
 62
     3
100
AcDbLine
 10
389.9954
 20
2.1911
 30
0.0
 11
394.1659
 21
1.2433
 31
0.0
  0
LINE
  5
2BC
100
AcDbEntity
  8
1
  6
CONTINUOUS
 62
     3
100
AcDbLine
 10
404.7259
 20
-1.1567
 30
0.0
 11
413.5932
 21
-3.1719
 31
0.0
  0
LINE
  5
2BD
100
AcDbEntity
  8
1
  6
CONTINUOUS
 62
     3
100
AcDbLine
 10
390.5273
 20
4.5315
 30
0.0
 11
404.9957
 21
1.2433
 31
0.0
  0
LINE
  5
2BE
100
AcDbEntity
  8
1
  6
CONTINUOUS
 62
     3
100
AcDbLine
 10
415.5554
 20
-1.1567
 30
0.0
 11
418.1954
 21
-1.7567
 31
0.0
  0
LINE
  5
2BF
100
AcDbEntity
  8
1
  6
CONTINUOUS
 62
     3
100
AcDbLine
 10
389.9954
 20
-29.7281
 30
0.0
 11
394.1659
 21
-28.7803
 31
0.0
  0
LINE
  5
2C0
100
AcDbEntity
  8
1
  6
CONTINUOUS
 62
     3
100
AcDbLine
 10
404.7262
 20
-26.3803
 30
0.0
 11
413.5932
 21
-24.3651
 31
0.0
  0
LINE
  5
2C1
100
AcDbEntity
  8
1
  6
CONTINUOUS
 62
     3
100
AcDbLine
 10
390.5273
 20
-32.0685
 30
0.0
 11
404.9951
 21
-28.7803
 31
0.0
  0
LINE
  5
2C2
100
AcDbEntity
  8
1
  6
CONTINUOUS
 62
     3
100
AcDbLine
 10
415.5554
 20
-26.3803
 30
0.0
 11
418.1954
 21
-25.7803
 31
0.0
  0
LINE
  5
2C3
100
AcDbEntity
  8
1
  6
CONTINUOUS
 62
     3
100
AcDbLine
 10
383.3273
 20
-41.6685
 30
0.0
 11
384.5273
 21
-41.6685
 31
0.0
  0
LINE
  5
2C4
100
AcDbEntity
  8
1
  6
CONTINUOUS
 62
     3
100
AcDbLine
 10
454.1273
 20
14.1315
 30
0.0
 11
452.9273
 21
14.1315
 31
0.0
  0
LINE
  5
2C5
100
AcDbEntity
  8
1
  6
CONTINUOUS
 62
     3
100
AcDbLine
 10
454.1273
 20
-41.6685
 30
0.0
 11
452.9273
 21
-41.6685
 31
0.0
  0
LINE
  5
2C6
100
AcDbEntity
  8
1
  6
HIDDEN
 62
     3
100
AcDbLine
 10
419.3954
 20
-6.206
 30
0.0
 11
419.3954
 21
-21.331
 31
0.0
  0
ARC
  5
2C7
100
AcDbEntity
  8
1
  6
HIDDEN
 62
     3
100
AcDbCircle
 10
420.60573
 20
-6.120019
 30
0.0
 40
1.21338
210
0.0
220
0.0
230
1.0
100
AcDbArc
 50
91.57875
 51
184.063417
  0
ARC
  5
2C8
100
AcDbEntity
  8
1
  6
HIDDEN
 62
     3
100
AcDbCircle
 10
420.60573
 20
-21.416981
 30
0.0
 40
1.21338
210
0.0
220
0.0
230
1.0
100
AcDbArc
 50
175.936583
 51
268.42125
  0
LINE
  5
2C9
100
AcDbEntity
  8
1
  6
HIDDEN
 62
     3
100
AcDbLine
 10
404.9957
 20
1.2433
 30
0.0
 11
415.5554
 21
-1.1567
 31
0.0
  0
LINE
  5
2CA
100
AcDbEntity
  8
1
  6
HIDDEN
 62
     3
100
AcDbLine
 10
394.1659
 20
1.2433
 30
0.0
 11
404.7259
 21
-1.1567
 31
0.0
  0
LINE
  5
2CB
100
AcDbEntity
  8
1
  6
HIDDEN
 62
     3
100
AcDbLine
 10
404.7262
 20
-26.3803
 30
0.0
 11
394.1659
 21
-28.7803
 31
0.0
  0
LINE
  5
2CC
100
AcDbEntity
  8
1
  6
HIDDEN
 62
     3
100
AcDbLine
 10
415.5554
 20
-26.3803
 30
0.0
 11
404.9951
 21
-28.7803
 31
0.0
  0
LINE
  5
2CD
100
AcDbEntity
  8
1
  6
CONTINUOUS
 62
     3
100
AcDbLine
 10
392.9954
 20
-11.3685
 30
0.0
 11
418.1954
 21
-11.3685
 31
0.0
  0
LINE
  5
2CE
100
AcDbEntity
  8
1
  6
CONTINUOUS
 62
     3
100
AcDbLine
 10
392.9954
 20
-16.1685
 30
0.0
 11
418.1954
 21
-16.1685
 31
0.0
  0
LINE
  5
2CF
100
AcDbEntity
  8
1
  6
CONTINUOUS
 62
     3
100
AcDbLine
 10
416.3954
 20
-6.6824
 30
0.0
 11
416.3954
 21
-11.3685
 31
0.0
  0
LINE
  5
2D0
100
AcDbEntity
  8
1
  6
CONTINUOUS
 62
     3
100
AcDbLine
 10
416.3954
 20
-16.1685
 30
0.0
 11
416.3954
 21
-20.8546
 31
0.0
  0
LINE
  5
2D1
100
AcDbEntity
  8
1
  6
HIDDEN
 62
     3
100
AcDbLine
 10
418.1954
 20
-11.3685
 30
0.0
 11
424.1954
 21
-11.3685
 31
0.0
  0
LINE
  5
2D2
100
AcDbEntity
  8
1
  6
HIDDEN
 62
     3
100
AcDbLine
 10
418.1954
 20
-16.1685
 30
0.0
 11
424.1954
 21
-16.1685
 31
0.0
  0
LINE
  5
2D3
100
AcDbEntity
  8
1
  6
CONTINUOUS
 62
     3
100
AcDbLine
 10
424.1954
 20
-11.3685
 30
0.0
 11
452.9273
 21
-11.3685
 31
0.0
  0
LINE
  5
2D4
100
AcDbEntity
  8
1
  6
CONTINUOUS
 62
     3
100
AcDbLine
 10
424.1954
 20
-16.1685
 30
0.0
 11
452.9273
 21
-16.1685
 31
0.0
  0
LINE
  5
2D5
100
AcDbEntity
  8
1
  6
HIDDEN
 62
     3
100
AcDbLine
 10
392.9954
 20
-11.3685
 30
0.0
 11
380.9273
 21
-11.3685
 31
0.0
  0
LINE
  5
2D6
100
AcDbEntity
  8
1
  6
HIDDEN
 62
     3
100
AcDbLine
 10
392.9954
 20
-16.1685
 30
0.0
 11
380.9273
 21
-16.1685
 31
0.0
  0
LINE
  5
2D7
100
AcDbEntity
  8
1
  6
CONTINUOUS
 62
     3
100
AcDbLine
 10
390.5954
 20
-7.7685
 30
0.0
 11
384.5273
 21
-7.7685
 31
0.0
  0
LINE
  5
2D8
100
AcDbEntity
  8
1
  6
CONTINUOUS
 62
     3
100
AcDbLine
 10
390.5954
 20
-19.7685
 30
0.0
 11
384.5273
 21
-19.7685
 31
0.0
  0
LINE
  5
2D9
100
AcDbEntity
  8
1
  6
CONTINUOUS
 62
     3
100
AcDbLine
 10
380.0273
 20
-2.3685
 30
0.0
 11
380.0273
 21
-25.1685
 31
0.0
  0
LINE
  5
2DA
100
AcDbEntity
  8
1
  6
CONTINUOUS
 62
     3
100
AcDbLine
 10
379.1273
 20
-2.3685
 30
0.0
 11
379.1273
 21
-25.1685
 31
0.0
  0
LINE
  5
2DB
100
AcDbEntity
  8
1
  6
CONTINUOUS
 62
     3
100
AcDbLine
 10
379.1273
 20
-2.3685
 30
0.0
 11
380.9273
 21
-2.3685
 31
0.0
  0
LINE
  5
2DC
100
AcDbEntity
  8
1
  6
CONTINUOUS
 62
     3
100
AcDbLine
 10
379.1273
 20
-25.1685
 30
0.0
 11
380.9273
 21
-25.1685
 31
0.0
  0
LINE
  5
2DD
100
AcDbEntity
  8
1
  6
CONTINUOUS
 62
     3
100
AcDbLine
 10
379.1273
 20
-7.7685
 30
0.0
 11
374.9273
 21
-7.7685
 31
0.0
  0
LINE
  5
2DE
100
AcDbEntity
  8
1
  6
CONTINUOUS
 62
     3
100
AcDbLine
 10
379.1273
 20
-19.7685
 30
0.0
 11
374.9273
 21
-19.7685
 31
0.0
  0
LINE
  5
2DF
100
AcDbEntity
  8
1
  6
CONTINUOUS
 62
     3
100
AcDbLine
 10
379.1273
 20
-11.3685
 30
0.0
 11
372.3199
 21
-11.3685
 31
0.0
  0
LINE
  5
2E0
100
AcDbEntity
  8
1
  6
CONTINUOUS
 62
     3
100
AcDbLine
 10
379.1273
 20
-16.1685
 30
0.0
 11
372.3199
 21
-16.1685
 31
0.0
  0
LINE
  5
2E1
100
AcDbEntity
  8
1
  6
CONTINUOUS
 62
     3
100
AcDbLine
 10
372.3199
 20
-11.3685
 30
0.0
 11
372.3199
 21
-16.1685
 31
0.0
  0
LINE
  5
2E2
100
AcDbEntity
  8
1
  6
CONTINUOUS
 62
     3
100
AcDbLine
 10
373.5199
 20
-11.3685
 30
0.0
 11
373.5199
 21
-16.1685
 31
0.0
  0
LINE
  5
2E3
100
AcDbEntity
  8
1
  6
CONTINUOUS
 62
     3
100
AcDbLine
 10
377.9273
 20
-7.7685
 30
0.0
 11
377.9273
 21
-19.7685
 31
0.0
  0
ARC
  5
2E4
100
AcDbEntity
  8
1
  6
CONTINUOUS
 62
     3
100
AcDbCircle
 10
376.530014
 20
-9.5685
 30
0.0
 40
2.410123
210
0.0
220
0.0
230
1.0
100
AcDbArc
 50
131.681767
 51
180.154525
  0
ARC
  5
2E5
100
AcDbEntity
  8
1
  6
CONTINUOUS
 62
     3
100
AcDbCircle
 10
376.530014
 20
-17.9685
 30
0.0
 40
2.410123
210
0.0
220
0.0
230
1.0
100
AcDbArc
 50
179.845475
 51
228.318233
  0
POLYLINE
  5
2E6
100
AcDbEntity
  8
1
  6
CONTINUOUS
 62
     3
100
AcDb2dPolyline
 66
     1
 10
0.0
 20
0.0
 30
0.0
  0
VERTEX
  5
2E7
100
AcDbEntity
  8
1
  6
CONTINUOUS
 62
     3
100
AcDbVertex
100
AcDb2dVertex
 10
374.1199
 20
-9.575
 30
0.0
  0
VERTEX
  5
2E8
100
AcDbEntity
  8
1
  6
CONTINUOUS
 62
     3
100
AcDbVertex
100
AcDb2dVertex
 10
374.1199
 20
-17.962
 30
0.0
 42
-0.213303
  0
VERTEX
  5
2E9
100
AcDbEntity
  8
1
  6
CONTINUOUS
 62
     3
100
AcDbVertex
100
AcDb2dVertex
 10
374.9273
 20
-16.1685
 30
0.0
 42
-0.336417
  0
VERTEX
  5
2EA
100
AcDbEntity
  8
1
  6
CONTINUOUS
 62
     3
100
AcDbVertex
100
AcDb2dVertex
 10
374.9273
 20
-11.3685
 30
0.0
 42
-0.213303
  0
VERTEX
  5
2EB
100
AcDbEntity
  8
1
  6
CONTINUOUS
 62
     3
100
AcDbVertex
100
AcDb2dVertex
 10
374.1199
 20
-9.575
 30
0.0
  0
SEQEND
  5
2EC
100
AcDbEntity
  8
1
  6
CONTINUOUS
 62
     3
  0
ARC
  5
2ED
100
AcDbEntity
  8
1
  6
CONTINUOUS
 62
     3
100
AcDbCircle
 10
376.530014
 20
-9.5815
 30
0.0
 40
2.410123
210
0.0
220
0.0
230
1.0
100
AcDbArc
 50
179.845475
 51
228.318233
  0
ARC
  5
2EE
100
AcDbEntity
  8
1
  6
CONTINUOUS
 62
     3
100
AcDbCircle
 10
376.530014
 20
-17.9555
 30
0.0
 40
2.410123
210
0.0
220
0.0
230
1.0
100
AcDbArc
 50
131.681767
 51
180.154525
  0
ARC
  5
2EF
100
AcDbEntity
  8
1
  6
CONTINUOUS
 62
     3
100
AcDbCircle
 10
378.090605
 20
-13.7685
 30
0.0
 40
3.970705
210
0.0
220
0.0
230
1.0
100
AcDbArc
 50
142.812406
 51
217.187594
  0
LINE
  5
2F0
100
AcDbEntity
  8
1
  6
CONTINUOUS
 62
     3
100
AcDbLine
 10
457.4273
 20
-2.3685
 30
0.0
 11
457.4273
 21
-25.1685
 31
0.0
  0
LINE
  5
2F1
100
AcDbEntity
  8
1
  6
CONTINUOUS
 62
     3
100
AcDbLine
 10
458.3273
 20
-2.3685
 30
0.0
 11
458.3273
 21
-25.1685
 31
0.0
  0
LINE
  5
2F2
100
AcDbEntity
  8
1
  6
CONTINUOUS
 62
     3
100
AcDbLine
 10
458.3273
 20
-2.3685
 30
0.0
 11
456.5273
 21
-2.3685
 31
0.0
  0
LINE
  5
2F3
100
AcDbEntity
  8
1
  6
CONTINUOUS
 62
     3
100
AcDbLine
 10
458.3273
 20
-25.1685
 30
0.0
 11
456.5273
 21
-25.1685
 31
0.0
  0
LINE
  5
2F4
100
AcDbEntity
  8
1
  6
CONTINUOUS
 62
     3
100
AcDbLine
 10
460.7273
 20
-12.8685
 30
0.0
 11
460.7273
 21
-14.6685
 31
0.0
  0
LINE
  5
2F5
100
AcDbEntity
  8
1
  6
CONTINUOUS
 62
     3
100
AcDbLine
 10
460.7273
 20
-12.8685
 30
0.0
 11
461.8675
 21
-12.8685
 31
0.0
  0
LINE
  5
2F6
100
AcDbEntity
  8
1
  6
CONTINUOUS
 62
     3
100
AcDbLine
 10
460.7273
 20
-14.6685
 30
0.0
 11
461.8675
 21
-14.6685
 31
0.0
  0
ARC
  5
2F7
100
AcDbEntity
  8
1
  6
CONTINUOUS
 62
     3
100
AcDbCircle
 10
455.1273
 20
-13.7685
 30
0.0
 40
6.8
210
0.0
220
0.0
230
1.0
100
AcDbArc
 50
7.605581
 51
61.927514
  0
ARC
  5
2F8
100
AcDbEntity
  8
1
  6
CONTINUOUS
 62
     3
100
AcDbCircle
 10
455.1273
 20
-13.7685
 30
0.0
 40
6.8
210
0.0
220
0.0
230
1.0
100
AcDbArc
 50
298.072489
 51
352.394419
  0
LINE
  5
2F9
100
AcDbEntity
  8
1
  6
CONTINUOUS
 62
     7
100
AcDbLine
 10
365.1199
 20
-13.7685
 30
0.0
 11
377.9273
 21
-13.7685
 31
0.0
  0
LINE
  5
2FA
100
AcDbEntity
  8
1
  6
CONTINUOUS
 62
     7
100
AcDbLine
 10
381.5273
 20
-13.7685
 30
0.0
 11
382.7273
 21
-13.7685
 31
0.0
  0
LINE
  5
2FB
100
AcDbEntity
  8
1
  6
CONTINUOUS
 62
     3
100
AcDbLine
 10
394.7954
 20
-11.3685
 30
0.0
 11
394.7954
 21
-16.1685
 31
0.0
  0
LINE
  5
2FC
100
AcDbEntity
  8
1
  6
CONTINUOUS
 62
     3
100
AcDbLine
 10
393.8954
 20
-12.2685
 30
0.0
 11
393.8954
 21
-15.2685
 31
0.0
  0
LINE
  5
2FD
100
AcDbEntity
  8
1
  6
CONTINUOUS
 62
     3
100
AcDbLine
 10
395.6954
 20
-12.2685
 30
0.0
 11
395.6954
 21
-15.2685
 31
0.0
  0
LINE
  5
2FE
100
AcDbEntity
  8
1
  6
CONTINUOUS
 62
     3
100
AcDbLine
 10
396.5954
 20
-11.3685
 30
0.0
 11
396.5954
 21
-16.1685
 31
0.0
  0
LINE
  5
2FF
100
AcDbEntity
  8
1
  6
CONTINUOUS
 62
     3
100
AcDbLine
 10
397.4954
 20
-12.2685
 30
0.0
 11
397.4954
 21
-15.2685
 31
0.0
  0
LINE
  5
300
100
AcDbEntity
  8
1
  6
CONTINUOUS
 62
     3
100
AcDbLine
 10
398.3954
 20
-11.3685
 30
0.0
 11
398.3954
 21
-16.1685
 31
0.0
  0
LINE
  5
301
100
AcDbEntity
  8
1
  6
CONTINUOUS
 62
     3
100
AcDbLine
 10
399.2954
 20
-12.2685
 30
0.0
 11
399.2954
 21
-15.2685
 31
0.0
  0
LINE
  5
302
100
AcDbEntity
  8
1
  6
CONTINUOUS
 62
     3
100
AcDbLine
 10
400.1954
 20
-11.3685
 30
0.0
 11
400.1954
 21
-16.1685
 31
0.0
  0
LINE
  5
303
100
AcDbEntity
  8
1
  6
CONTINUOUS
 62
     3
100
AcDbLine
 10
401.0954
 20
-12.2685
 30
0.0
 11
401.0954
 21
-15.2685
 31
0.0
  0
LINE
  5
304
100
AcDbEntity
  8
1
  6
CONTINUOUS
 62
     3
100
AcDbLine
 10
401.9954
 20
-11.3685
 30
0.0
 11
401.9954
 21
-16.1685
 31
0.0
  0
LINE
  5
305
100
AcDbEntity
  8
1
  6
CONTINUOUS
 62
     7
100
AcDbLine
 10
385.1273
 20
-13.7685
 30
0.0
 11
404.3954
 21
-13.7685
 31
0.0
  0
LINE
  5
306
100
AcDbEntity
  8
1
  6
CONTINUOUS
 62
     7
100
AcDbLine
 10
405.5954
 20
-13.7685
 30
0.0
 11
408.5954
 21
-13.7685
 31
0.0
  0
LINE
  5
307
100
AcDbEntity
  8
1
  6
CONTINUOUS
 62
     7
100
AcDbLine
 10
409.7954
 20
-13.7685
 30
0.0
 11
416.9954
 21
-13.7685
 31
0.0
  0
LINE
  5
308
100
AcDbEntity
  8
1
  6
CONTINUOUS
 62
     7
100
AcDbLine
 10
418.1954
 20
-13.7685
 30
0.0
 11
425.3954
 21
-13.7685
 31
0.0
  0
LINE
  5
309
100
AcDbEntity
  8
1
  6
CONTINUOUS
 62
     7
100
AcDbLine
 10
426.5954
 20
-13.7685
 30
0.0
 11
429.5954
 21
-13.7685
 31
0.0
  0
LINE
  5
30A
100
AcDbEntity
  8
1
  6
CONTINUOUS
 62
     7
100
AcDbLine
 10
430.7954
 20
-13.7685
 30
0.0
 11
445.1273
 21
-13.7685
 31
0.0
  0
LINE
  5
30B
100
AcDbEntity
  8
1
  6
CONTINUOUS
 62
     7
100
AcDbLine
 10
449.3273
 20
-13.7685
 30
0.0
 11
446.3273
 21
-13.7685
 31
0.0
  0
LINE
  5
30C
100
AcDbEntity
  8
1
  6
CONTINUOUS
 62
     7
100
AcDbLine
 10
450.5273
 20
-13.7685
 30
0.0
 11
457.4273
 21
-13.7685
 31
0.0
  0
LINE
  5
30D
100
AcDbEntity
  8
1
  6
CONTINUOUS
 62
     7
100
AcDbLine
 10
458.3273
 20
-13.7685
 30
0.0
 11
469.1273
 21
-13.7685
 31
0.0
  0
LINE
  5
30E
100
AcDbEntity
  8
1
  6
CONTINUOUS
 62
     3
100
AcDbLine
 10
379.7273
 20
38.1315
 30
0.0
 11
380.9273
 21
38.1315
 31
0.0
  0
LINE
  5
30F
100
AcDbEntity
  8
1
  6
CONTINUOUS
 62
     3
100
AcDbLine
 10
383.3273
 20
38.1315
 30
0.0
 11
384.5273
 21
38.1315
 31
0.0
  0
LINE
  5
310
100
AcDbEntity
  8
1
  6
CONTINUOUS
 62
     3
100
AcDbLine
 10
379.7273
 20
-65.6685
 30
0.0
 11
380.9273
 21
-65.6685
 31
0.0
  0
LINE
  5
311
100
AcDbEntity
  8
1
  6
CONTINUOUS
 62
     3
100
AcDbLine
 10
383.3273
 20
-65.6685
 30
0.0
 11
384.5273
 21
-65.6685
 31
0.0
  0
POLYLINE
  5
312
100
AcDbEntity
  8
1
  6
CONTINUOUS
 62
     3
100
AcDb2dPolyline
 66
     1
 10
0.0
 20
0.0
 30
0.0
 70
     1
  0
VERTEX
  5
313
100
AcDbEntity
  8
1
  6
CONTINUOUS
 62
     3
100
AcDbVertex
100
AcDb2dVertex
 10
380.9273
 20
-65.6685
 30
0.0
  0
VERTEX
  5
314
100
AcDbEntity
  8
1
  6
CONTINUOUS
 62
     3
100
AcDbVertex
100
AcDb2dVertex
 10
380.9273
 20
38.1315
 30
0.0
  0
VERTEX
  5
315
100
AcDbEntity
  8
1
  6
CONTINUOUS
 62
     3
100
AcDbVertex
100
AcDb2dVertex
 10
381.5273
 20
38.1315
 30
0.0
  0
VERTEX
  5
316
100
AcDbEntity
  8
1
  6
CONTINUOUS
 62
     3
100
AcDbVertex
100
AcDb2dVertex
 10
382.1273
 20
39.3315
 30
0.0
  0
VERTEX
  5
317
100
AcDbEntity
  8
1
  6
CONTINUOUS
 62
     3
100
AcDbVertex
100
AcDb2dVertex
 10
382.1273
 20
36.9315
 30
0.0
  0
VERTEX
  5
318
100
AcDbEntity
  8
1
  6
CONTINUOUS
 62
     3
100
AcDbVertex
100
AcDb2dVertex
 10
382.7273
 20
38.1315
 30
0.0
  0
VERTEX
  5
319
100
AcDbEntity
  8
1
  6
CONTINUOUS
 62
     3
100
AcDbVertex
100
AcDb2dVertex
 10
383.3273
 20
38.1315
 30
0.0
  0
VERTEX
  5
31A
100
AcDbEntity
  8
1
  6
CONTINUOUS
 62
     3
100
AcDbVertex
100
AcDb2dVertex
 10
383.3273
 20
-65.6685
 30
0.0
  0
VERTEX
  5
31B
100
AcDbEntity
  8
1
  6
CONTINUOUS
 62
     3
100
AcDbVertex
100
AcDb2dVertex
 10
382.7273
 20
-65.6685
 30
0.0
  0
VERTEX
  5
31C
100
AcDbEntity
  8
1
  6
CONTINUOUS
 62
     3
100
AcDbVertex
100
AcDb2dVertex
 10
382.1273
 20
-64.4685
 30
0.0
  0
VERTEX
  5
31D
100
AcDbEntity
  8
1
  6
CONTINUOUS
 62
     3
100
AcDbVertex
100
AcDb2dVertex
 10
382.1273
 20
-66.8685
 30
0.0
  0
VERTEX
  5
31E
100
AcDbEntity
  8
1
  6
CONTINUOUS
 62
     3
100
AcDbVertex
100
AcDb2dVertex
 10
381.5273
 20
-65.6685
 30
0.0
  0
VERTEX
  5
31F
100
AcDbEntity
  8
1
  6
CONTINUOUS
 62
     3
100
AcDbVertex
100
AcDb2dVertex
 10
380.9273
 20
-65.6685
 30
0.0
  0
SEQEND
  5
320
100
AcDbEntity
  8
1
  6
CONTINUOUS
 62
     3
  0
LINE
  5
321
100
AcDbEntity
  8
1
  6
CONTINUOUS
 62
     3
100
AcDbLine
 10
380.9273
 20
34.9735
 30
0.0
 11
383.3273
 21
37.3735
 31
0.0
  0
LINE
  5
322
100
AcDbEntity
  8
1
  6
CONTINUOUS
 62
     3
100
AcDbLine
 10
380.9273
 20
31.5794
 30
0.0
 11
383.3273
 21
33.9794
 31
0.0
  0
LINE
  5
323
100
AcDbEntity
  8
1
  6
CONTINUOUS
 62
     3
100
AcDbLine
 10
380.9273
 20
28.1852
 30
0.0
 11
383.3273
 21
30.5852
 31
0.0
  0
LINE
  5
324
100
AcDbEntity
  8
1
  6
CONTINUOUS
 62
     3
100
AcDbLine
 10
380.9273
 20
24.7911
 30
0.0
 11
383.3273
 21
27.1911
 31
0.0
  0
LINE
  5
325
100
AcDbEntity
  8
1
  6
CONTINUOUS
 62
     3
100
AcDbLine
 10
380.9273
 20
21.397
 30
0.0
 11
383.3273
 21
23.797
 31
0.0
  0
LINE
  5
326
100
AcDbEntity
  8
1
  6
CONTINUOUS
 62
     3
100
AcDbLine
 10
380.9273
 20
18.0029
 30
0.0
 11
383.3273
 21
20.4029
 31
0.0
  0
LINE
  5
327
100
AcDbEntity
  8
1
  6
CONTINUOUS
 62
     3
100
AcDbLine
 10
380.9273
 20
14.6088
 30
0.0
 11
383.3273
 21
17.0088
 31
0.0
  0
LINE
  5
328
100
AcDbEntity
  8
1
  6
CONTINUOUS
 62
     3
100
AcDbLine
 10
380.9273
 20
11.2147
 30
0.0
 11
383.3273
 21
13.6147
 31
0.0
  0
LINE
  5
329
100
AcDbEntity
  8
1
  6
CONTINUOUS
 62
     3
100
AcDbLine
 10
380.9273
 20
7.8206
 30
0.0
 11
383.3273
 21
10.2206
 31
0.0
  0
LINE
  5
32A
100
AcDbEntity
  8
1
  6
CONTINUOUS
 62
     3
100
AcDbLine
 10
380.9273
 20
4.4265
 30
0.0
 11
383.3273
 21
6.8265
 31
0.0
  0
LINE
  5
32B
100
AcDbEntity
  8
1
  6
CONTINUOUS
 62
     3
100
AcDbLine
 10
380.9273
 20
1.0323
 30
0.0
 11
383.3273
 21
3.4323
 31
0.0
  0
LINE
  5
32C
100
AcDbEntity
  8
1
  6
CONTINUOUS
 62
     3
100
AcDbLine
 10
380.9273
 20
-2.3618
 30
0.0
 11
383.3273
 21
0.0382
 31
0.0
  0
LINE
  5
32D
100
AcDbEntity
  8
1
  6
CONTINUOUS
 62
     3
100
AcDbLine
 10
380.9273
 20
-5.7559
 30
0.0
 11
383.3273
 21
-3.3559
 31
0.0
  0
LINE
  5
32E
100
AcDbEntity
  8
1
  6
CONTINUOUS
 62
     3
100
AcDbLine
 10
380.9273
 20
-9.15
 30
0.0
 11
383.3273
 21
-6.75
 31
0.0
  0
LINE
  5
32F
100
AcDbEntity
  8
1
  6
CONTINUOUS
 62
     3
100
AcDbLine
 10
380.9273
 20
-12.5441
 30
0.0
 11
383.3273
 21
-10.1441
 31
0.0
  0
LINE
  5
330
100
AcDbEntity
  8
1
  6
CONTINUOUS
 62
     3
100
AcDbLine
 10
380.9273
 20
-15.9382
 30
0.0
 11
383.3273
 21
-13.5382
 31
0.0
  0
LINE
  5
331
100
AcDbEntity
  8
1
  6
CONTINUOUS
 62
     3
100
AcDbLine
 10
380.9273
 20
-19.3323
 30
0.0
 11
383.3273
 21
-16.9323
 31
0.0
  0
LINE
  5
332
100
AcDbEntity
  8
1
  6
CONTINUOUS
 62
     3
100
AcDbLine
 10
380.9273
 20
-22.7264
 30
0.0
 11
383.3273
 21
-20.3264
 31
0.0
  0
LINE
  5
333
100
AcDbEntity
  8
1
  6
CONTINUOUS
 62
     3
100
AcDbLine
 10
380.9273
 20
-26.1206
 30
0.0
 11
383.3273
 21
-23.7206
 31
0.0
  0
LINE
  5
334
100
AcDbEntity
  8
1
  6
CONTINUOUS
 62
     3
100
AcDbLine
 10
380.9273
 20
-29.5147
 30
0.0
 11
383.3273
 21
-27.1147
 31
0.0
  0
LINE
  5
335
100
AcDbEntity
  8
1
  6
CONTINUOUS
 62
     3
100
AcDbLine
 10
380.9273
 20
-32.9088
 30
0.0
 11
383.3273
 21
-30.5088
 31
0.0
  0
LINE
  5
336
100
AcDbEntity
  8
1
  6
CONTINUOUS
 62
     3
100
AcDbLine
 10
380.9273
 20
-36.3029
 30
0.0
 11
383.3273
 21
-33.9029
 31
0.0
  0
LINE
  5
337
100
AcDbEntity
  8
1
  6
CONTINUOUS
 62
     3
100
AcDbLine
 10
380.9273
 20
-39.697
 30
0.0
 11
383.3273
 21
-37.297
 31
0.0
  0
LINE
  5
338
100
AcDbEntity
  8
1
  6
CONTINUOUS
 62
     3
100
AcDbLine
 10
380.9273
 20
-43.0911
 30
0.0
 11
383.3273
 21
-40.6911
 31
0.0
  0
LINE
  5
339
100
AcDbEntity
  8
1
  6
CONTINUOUS
 62
     3
100
AcDbLine
 10
380.9273
 20
-46.4852
 30
0.0
 11
383.3273
 21
-44.0852
 31
0.0
  0
LINE
  5
33A
100
AcDbEntity
  8
1
  6
CONTINUOUS
 62
     3
100
AcDbLine
 10
380.9273
 20
-49.8794
 30
0.0
 11
383.3273
 21
-47.4794
 31
0.0
  0
LINE
  5
33B
100
AcDbEntity
  8
1
  6
CONTINUOUS
 62
     3
100
AcDbLine
 10
380.9273
 20
-53.2735
 30
0.0
 11
383.3273
 21
-50.8735
 31
0.0
  0
LINE
  5
33C
100
AcDbEntity
  8
1
  6
CONTINUOUS
 62
     3
100
AcDbLine
 10
380.9273
 20
-56.6676
 30
0.0
 11
383.3273
 21
-54.2676
 31
0.0
  0
LINE
  5
33D
100
AcDbEntity
  8
1
  6
CONTINUOUS
 62
     3
100
AcDbLine
 10
380.9273
 20
-60.0617
 30
0.0
 11
383.3273
 21
-57.6617
 31
0.0
  0
LINE
  5
33E
100
AcDbEntity
  8
1
  6
CONTINUOUS
 62
     3
100
AcDbLine
 10
380.9273
 20
-63.4558
 30
0.0
 11
383.3273
 21
-61.0558
 31
0.0
  0
LINE
  5
33F
100
AcDbEntity
  8
1
  6
CONTINUOUS
 62
     3
100
AcDbLine
 10
381.7211
 20
-66.0561
 30
0.0
 11
382.1273
 21
-65.6499
 31
0.0
  0
LINE
  5
340
100
AcDbEntity
  8
1
  6
CONTINUOUS
 62
     3
100
AcDbLine
 10
382.5211
 20
-65.2561
 30
0.0
 11
383.3273
 21
-64.4499
 31
0.0
  0
LINE
  5
341
100
AcDbEntity
  8
1
  6
CONTINUOUS
 62
     3
100
AcDbLine
 10
382.1273
 20
-65.1131
 30
0.0
 11
380.9273
 21
-63.9131
 31
0.0
  0
LINE
  5
342
100
AcDbEntity
  8
1
  6
CONTINUOUS
 62
     3
100
AcDbLine
 10
383.3273
 20
-62.919
 30
0.0
 11
380.9273
 21
-60.519
 31
0.0
  0
LINE
  5
343
100
AcDbEntity
  8
1
  6
CONTINUOUS
 62
     3
100
AcDbLine
 10
383.3273
 20
-59.5249
 30
0.0
 11
380.9273
 21
-57.1249
 31
0.0
  0
LINE
  5
344
100
AcDbEntity
  8
1
  6
CONTINUOUS
 62
     3
100
AcDbLine
 10
383.3273
 20
-56.1308
 30
0.0
 11
380.9273
 21
-53.7308
 31
0.0
  0
LINE
  5
345
100
AcDbEntity
  8
1
  6
CONTINUOUS
 62
     3
100
AcDbLine
 10
383.3273
 20
-52.7367
 30
0.0
 11
380.9273
 21
-50.3367
 31
0.0
  0
LINE
  5
346
100
AcDbEntity
  8
1
  6
CONTINUOUS
 62
     3
100
AcDbLine
 10
383.3273
 20
-49.3426
 30
0.0
 11
380.9273
 21
-46.9426
 31
0.0
  0
LINE
  5
347
100
AcDbEntity
  8
1
  6
CONTINUOUS
 62
     3
100
AcDbLine
 10
383.3273
 20
-45.9484
 30
0.0
 11
380.9273
 21
-43.5484
 31
0.0
  0
LINE
  5
348
100
AcDbEntity
  8
1
  6
CONTINUOUS
 62
     3
100
AcDbLine
 10
383.3273
 20
-42.5543
 30
0.0
 11
380.9273
 21
-40.1543
 31
0.0
  0
LINE
  5
349
100
AcDbEntity
  8
1
  6
CONTINUOUS
 62
     3
100
AcDbLine
 10
383.3273
 20
-39.1602
 30
0.0
 11
380.9273
 21
-36.7602
 31
0.0
  0
LINE
  5
34A
100
AcDbEntity
  8
1
  6
CONTINUOUS
 62
     3
100
AcDbLine
 10
383.3273
 20
-35.7661
 30
0.0
 11
380.9273
 21
-33.3661
 31
0.0
  0
LINE
  5
34B
100
AcDbEntity
  8
1
  6
CONTINUOUS
 62
     3
100
AcDbLine
 10
383.3273
 20
-32.372
 30
0.0
 11
380.9273
 21
-29.972
 31
0.0
  0
LINE
  5
34C
100
AcDbEntity
  8
1
  6
CONTINUOUS
 62
     3
100
AcDbLine
 10
383.3273
 20
-28.9779
 30
0.0
 11
380.9273
 21
-26.5779
 31
0.0
  0
LINE
  5
34D
100
AcDbEntity
  8
1
  6
CONTINUOUS
 62
     3
100
AcDbLine
 10
383.3273
 20
-25.5838
 30
0.0
 11
380.9273
 21
-23.1838
 31
0.0
  0
LINE
  5
34E
100
AcDbEntity
  8
1
  6
CONTINUOUS
 62
     3
100
AcDbLine
 10
383.3273
 20
-22.1897
 30
0.0
 11
380.9273
 21
-19.7897
 31
0.0
  0
LINE
  5
34F
100
AcDbEntity
  8
1
  6
CONTINUOUS
 62
     3
100
AcDbLine
 10
383.3273
 20
-18.7955
 30
0.0
 11
380.9273
 21
-16.3955
 31
0.0
  0
LINE
  5
350
100
AcDbEntity
  8
1
  6
CONTINUOUS
 62
     3
100
AcDbLine
 10
383.3273
 20
-15.4014
 30
0.0
 11
380.9273
 21
-13.0014
 31
0.0
  0
LINE
  5
351
100
AcDbEntity
  8
1
  6
CONTINUOUS
 62
     3
100
AcDbLine
 10
383.3273
 20
-12.0073
 30
0.0
 11
380.9273
 21
-9.6073
 31
0.0
  0
LINE
  5
352
100
AcDbEntity
  8
1
  6
CONTINUOUS
 62
     3
100
AcDbLine
 10
383.3273
 20
-8.6132
 30
0.0
 11
380.9273
 21
-6.2132
 31
0.0
  0
LINE
  5
353
100
AcDbEntity
  8
1
  6
CONTINUOUS
 62
     3
100
AcDbLine
 10
383.3273
 20
-5.2191
 30
0.0
 11
380.9273
 21
-2.8191
 31
0.0
  0
LINE
  5
354
100
AcDbEntity
  8
1
  6
CONTINUOUS
 62
     3
100
AcDbLine
 10
383.3273
 20
-1.825
 30
0.0
 11
380.9273
 21
0.575
 31
0.0
  0
LINE
  5
355
100
AcDbEntity
  8
1
  6
CONTINUOUS
 62
     3
100
AcDbLine
 10
383.3273
 20
1.5691
 30
0.0
 11
380.9273
 21
3.9691
 31
0.0
  0
LINE
  5
356
100
AcDbEntity
  8
1
  6
CONTINUOUS
 62
     3
100
AcDbLine
 10
383.3273
 20
4.9632
 30
0.0
 11
380.9273
 21
7.3632
 31
0.0
  0
LINE
  5
357
100
AcDbEntity
  8
1
  6
CONTINUOUS
 62
     3
100
AcDbLine
 10
383.3273
 20
8.3574
 30
0.0
 11
380.9273
 21
10.7574
 31
0.0
  0
LINE
  5
358
100
AcDbEntity
  8
1
  6
CONTINUOUS
 62
     3
100
AcDbLine
 10
383.3273
 20
11.7515
 30
0.0
 11
380.9273
 21
14.1515
 31
0.0
  0
LINE
  5
359
100
AcDbEntity
  8
1
  6
CONTINUOUS
 62
     3
100
AcDbLine
 10
383.3273
 20
15.1456
 30
0.0
 11
380.9273
 21
17.5456
 31
0.0
  0
LINE
  5
35A
100
AcDbEntity
  8
1
  6
CONTINUOUS
 62
     3
100
AcDbLine
 10
383.3273
 20
18.5397
 30
0.0
 11
380.9273
 21
20.9397
 31
0.0
  0
LINE
  5
35B
100
AcDbEntity
  8
1
  6
CONTINUOUS
 62
     3
100
AcDbLine
 10
383.3273
 20
21.9338
 30
0.0
 11
380.9273
 21
24.3338
 31
0.0
  0
LINE
  5
35C
100
AcDbEntity
  8
1
  6
CONTINUOUS
 62
     3
100
AcDbLine
 10
383.3273
 20
25.3279
 30
0.0
 11
380.9273
 21
27.7279
 31
0.0
  0
LINE
  5
35D
100
AcDbEntity
  8
1
  6
CONTINUOUS
 62
     3
100
AcDbLine
 10
383.3273
 20
28.722
 30
0.0
 11
380.9273
 21
31.122
 31
0.0
  0
LINE
  5
35E
100
AcDbEntity
  8
1
  6
CONTINUOUS
 62
     3
100
AcDbLine
 10
383.3273
 20
32.1161
 30
0.0
 11
380.9273
 21
34.5161
 31
0.0
  0
LINE
  5
35F
100
AcDbEntity
  8
1
  6
CONTINUOUS
 62
     3
100
AcDbLine
 10
383.3273
 20
35.5103
 30
0.0
 11
380.9273
 21
37.9103
 31
0.0
  0
LINE
  5
360
100
AcDbEntity
  8
1
  6
CONTINUOUS
 62
     3
100
AcDbLine
 10
454.1273
 20
38.1315
 30
0.0
 11
452.9273
 21
38.1315
 31
0.0
  0
LINE
  5
361
100
AcDbEntity
  8
1
  6
CONTINUOUS
 62
     3
100
AcDbLine
 10
457.7273
 20
38.1315
 30
0.0
 11
456.5273
 21
38.1315
 31
0.0
  0
LINE
  5
362
100
AcDbEntity
  8
1
  6
CONTINUOUS
 62
     3
100
AcDbLine
 10
454.1273
 20
-65.6685
 30
0.0
 11
452.9273
 21
-65.6685
 31
0.0
  0
POLYLINE
  5
363
100
AcDbEntity
  8
1
  6
CONTINUOUS
 62
     3
100
AcDb2dPolyline
 66
     1
 10
0.0
 20
0.0
 30
0.0
 70
     1
  0
VERTEX
  5
364
100
AcDbEntity
  8
1
  6
CONTINUOUS
 62
     3
100
AcDbVertex
100
AcDb2dVertex
 10
454.1273
 20
-65.6685
 30
0.0
  0
VERTEX
  5
365
100
AcDbEntity
  8
1
  6
CONTINUOUS
 62
     3
100
AcDbVertex
100
AcDb2dVertex
 10
454.1273
 20
38.1315
 30
0.0
  0
VERTEX
  5
366
100
AcDbEntity
  8
1
  6
CONTINUOUS
 62
     3
100
AcDbVertex
100
AcDb2dVertex
 10
454.7273
 20
38.1315
 30
0.0
  0
VERTEX
  5
367
100
AcDbEntity
  8
1
  6
CONTINUOUS
 62
     3
100
AcDbVertex
100
AcDb2dVertex
 10
455.3273
 20
36.9315
 30
0.0
  0
VERTEX
  5
368
100
AcDbEntity
  8
1
  6
CONTINUOUS
 62
     3
100
AcDbVertex
100
AcDb2dVertex
 10
455.3273
 20
39.3315
 30
0.0
  0
VERTEX
  5
369
100
AcDbEntity
  8
1
  6
CONTINUOUS
 62
     3
100
AcDbVertex
100
AcDb2dVertex
 10
455.9273
 20
38.1315
 30
0.0
  0
VERTEX
  5
36A
100
AcDbEntity
  8
1
  6
CONTINUOUS
 62
     3
100
AcDbVertex
100
AcDb2dVertex
 10
456.5273
 20
38.1315
 30
0.0
  0
VERTEX
  5
36B
100
AcDbEntity
  8
1
  6
CONTINUOUS
 62
     3
100
AcDbVertex
100
AcDb2dVertex
 10
456.5273
 20
-65.6685
 30
0.0
  0
VERTEX
  5
36C
100
AcDbEntity
  8
1
  6
CONTINUOUS
 62
     3
100
AcDbVertex
100
AcDb2dVertex
 10
457.7273
 20
-65.6685
 30
0.0
  0
VERTEX
  5
36D
100
AcDbEntity
  8
1
  6
CONTINUOUS
 62
     3
100
AcDbVertex
100
AcDb2dVertex
 10
454.1273
 20
-65.6685
 30
0.0
  0
SEQEND
  5
36E
100
AcDbEntity
  8
1
  6
CONTINUOUS
 62
     3
  0
POLYLINE
  5
36F
100
AcDbEntity
  8
1
  6
CONTINUOUS
 62
     3
100
AcDb2dPolyline
 66
     1
 10
0.0
 20
0.0
 30
0.0
 70
     1
  0
VERTEX
  5
370
100
AcDbEntity
  8
1
  6
CONTINUOUS
 62
     3
100
AcDbVertex
100
AcDb2dVertex
 10
454.1273
 20
-65.6685
 30
0.0
  0
VERTEX
  5
371
100
AcDbEntity
  8
1
  6
CONTINUOUS
 62
     3
100
AcDbVertex
100
AcDb2dVertex
 10
454.1273
 20
38.1315
 30
0.0
  0
VERTEX
  5
372
100
AcDbEntity
  8
1
  6
CONTINUOUS
 62
     3
100
AcDbVertex
100
AcDb2dVertex
 10
454.7273
 20
38.1315
 30
0.0
  0
VERTEX
  5
373
100
AcDbEntity
  8
1
  6
CONTINUOUS
 62
     3
100
AcDbVertex
100
AcDb2dVertex
 10
455.3273
 20
36.9315
 30
0.0
  0
VERTEX
  5
374
100
AcDbEntity
  8
1
  6
CONTINUOUS
 62
     3
100
AcDbVertex
100
AcDb2dVertex
 10
455.3273
 20
39.3315
 30
0.0
  0
VERTEX
  5
375
100
AcDbEntity
  8
1
  6
CONTINUOUS
 62
     3
100
AcDbVertex
100
AcDb2dVertex
 10
455.9273
 20
38.1315
 30
0.0
  0
VERTEX
  5
376
100
AcDbEntity
  8
1
  6
CONTINUOUS
 62
     3
100
AcDbVertex
100
AcDb2dVertex
 10
456.5273
 20
38.1315
 30
0.0
  0
VERTEX
  5
377
100
AcDbEntity
  8
1
  6
CONTINUOUS
 62
     3
100
AcDbVertex
100
AcDb2dVertex
 10
456.5273
 20
-65.6685
 30
0.0
  0
VERTEX
  5
378
100
AcDbEntity
  8
1
  6
CONTINUOUS
 62
     3
100
AcDbVertex
100
AcDb2dVertex
 10
455.9273
 20
-65.6685
 30
0.0
  0
VERTEX
  5
379
100
AcDbEntity
  8
1
  6
CONTINUOUS
 62
     3
100
AcDbVertex
100
AcDb2dVertex
 10
455.3273
 20
-66.8685
 30
0.0
  0
VERTEX
  5
37A
100
AcDbEntity
  8
1
  6
CONTINUOUS
 62
     3
100
AcDbVertex
100
AcDb2dVertex
 10
455.3273
 20
-64.4685
 30
0.0
  0
VERTEX
  5
37B
100
AcDbEntity
  8
1
  6
CONTINUOUS
 62
     3
100
AcDbVertex
100
AcDb2dVertex
 10
454.7273
 20
-65.6685
 30
0.0
  0
VERTEX
  5
37C
100
AcDbEntity
  8
1
  6
CONTINUOUS
 62
     3
100
AcDbVertex
100
AcDb2dVertex
 10
454.1273
 20
-65.6685
 30
0.0
  0
SEQEND
  5
37D
100
AcDbEntity
  8
1
  6
CONTINUOUS
 62
     3
  0
LINE
  5
37E
100
AcDbEntity
  8
1
  6
CONTINUOUS
 62
     3
100
AcDbLine
 10
454.1273
 20
37.9274
 30
0.0
 11
454.3314
 21
38.1315
 31
0.0
  0
LINE
  5
37F
100
AcDbEntity
  8
1
  6
CONTINUOUS
 62
     3
100
AcDbLine
 10
455.3273
 20
39.1274
 30
0.0
 11
455.3953
 21
39.1954
 31
0.0
  0
LINE
  5
380
100
AcDbEntity
  8
1
  6
CONTINUOUS
 62
     3
100
AcDbLine
 10
454.1273
 20
34.5333
 30
0.0
 11
456.5273
 21
36.9333
 31
0.0
  0
LINE
  5
381
100
AcDbEntity
  8
1
  6
CONTINUOUS
 62
     3
100
AcDbLine
 10
454.1273
 20
31.1392
 30
0.0
 11
456.5273
 21
33.5392
 31
0.0
  0
LINE
  5
382
100
AcDbEntity
  8
1
  6
CONTINUOUS
 62
     3
100
AcDbLine
 10
454.1273
 20
27.7451
 30
0.0
 11
456.5273
 21
30.1451
 31
0.0
  0
LINE
  5
383
100
AcDbEntity
  8
1
  6
CONTINUOUS
 62
     3
100
AcDbLine
 10
454.1273
 20
24.3509
 30
0.0
 11
456.5273
 21
26.7509
 31
0.0
  0
LINE
  5
384
100
AcDbEntity
  8
1
  6
CONTINUOUS
 62
     3
100
AcDbLine
 10
454.1273
 20
20.9568
 30
0.0
 11
456.5273
 21
23.3568
 31
0.0
  0
LINE
  5
385
100
AcDbEntity
  8
1
  6
CONTINUOUS
 62
     3
100
AcDbLine
 10
454.1273
 20
17.5627
 30
0.0
 11
456.5273
 21
19.9627
 31
0.0
  0
LINE
  5
386
100
AcDbEntity
  8
1
  6
CONTINUOUS
 62
     3
100
AcDbLine
 10
454.1273
 20
14.1686
 30
0.0
 11
456.5273
 21
16.5686
 31
0.0
  0
LINE
  5
387
100
AcDbEntity
  8
1
  6
CONTINUOUS
 62
     3
100
AcDbLine
 10
454.1273
 20
10.7745
 30
0.0
 11
456.5273
 21
13.1745
 31
0.0
  0
LINE
  5
388
100
AcDbEntity
  8
1
  6
CONTINUOUS
 62
     3
100
AcDbLine
 10
454.1273
 20
7.3804
 30
0.0
 11
456.5273
 21
9.7804
 31
0.0
  0
LINE
  5
389
100
AcDbEntity
  8
1
  6
CONTINUOUS
 62
     3
100
AcDbLine
 10
454.1273
 20
3.9863
 30
0.0
 11
456.5273
 21
6.3863
 31
0.0
  0
LINE
  5
38A
100
AcDbEntity
  8
1
  6
CONTINUOUS
 62
     3
100
AcDbLine
 10
454.1273
 20
0.5922
 30
0.0
 11
456.5273
 21
2.9922
 31
0.0
  0
LINE
  5
38B
100
AcDbEntity
  8
1
  6
CONTINUOUS
 62
     3
100
AcDbLine
 10
454.1273
 20
-2.802
 30
0.0
 11
456.5273
 21
-0.402
 31
0.0
  0
LINE
  5
38C
100
AcDbEntity
  8
1
  6
CONTINUOUS
 62
     3
100
AcDbLine
 10
454.1273
 20
-6.1961
 30
0.0
 11
456.5273
 21
-3.7961
 31
0.0
  0
LINE
  5
38D
100
AcDbEntity
  8
1
  6
CONTINUOUS
 62
     3
100
AcDbLine
 10
454.1273
 20
-9.5902
 30
0.0
 11
456.5273
 21
-7.1902
 31
0.0
  0
LINE
  5
38E
100
AcDbEntity
  8
1
  6
CONTINUOUS
 62
     3
100
AcDbLine
 10
454.1273
 20
-12.9843
 30
0.0
 11
456.5273
 21
-10.5843
 31
0.0
  0
LINE
  5
38F
100
AcDbEntity
  8
1
  6
CONTINUOUS
 62
     3
100
AcDbLine
 10
454.1273
 20
-16.3784
 30
0.0
 11
456.5273
 21
-13.9784
 31
0.0
  0
LINE
  5
390
100
AcDbEntity
  8
1
  6
CONTINUOUS
 62
     3
100
AcDbLine
 10
454.1273
 20
-19.7725
 30
0.0
 11
456.5273
 21
-17.3725
 31
0.0
  0
LINE
  5
391
100
AcDbEntity
  8
1
  6
CONTINUOUS
 62
     3
100
AcDbLine
 10
454.1273
 20
-23.1666
 30
0.0
 11
456.5273
 21
-20.7666
 31
0.0
  0
LINE
  5
392
100
AcDbEntity
  8
1
  6
CONTINUOUS
 62
     3
100
AcDbLine
 10
454.1273
 20
-26.5607
 30
0.0
 11
456.5273
 21
-24.1607
 31
0.0
  0
LINE
  5
393
100
AcDbEntity
  8
1
  6
CONTINUOUS
 62
     3
100
AcDbLine
 10
454.1273
 20
-29.9549
 30
0.0
 11
456.5273
 21
-27.5549
 31
0.0
  0
LINE
  5
394
100
AcDbEntity
  8
1
  6
CONTINUOUS
 62
     3
100
AcDbLine
 10
454.1273
 20
-33.349
 30
0.0
 11
456.5273
 21
-30.949
 31
0.0
  0
LINE
  5
395
100
AcDbEntity
  8
1
  6
CONTINUOUS
 62
     3
100
AcDbLine
 10
454.1273
 20
-36.7431
 30
0.0
 11
456.5273
 21
-34.3431
 31
0.0
  0
LINE
  5
396
100
AcDbEntity
  8
1
  6
CONTINUOUS
 62
     3
100
AcDbLine
 10
454.1273
 20
-40.1372
 30
0.0
 11
456.5273
 21
-37.7372
 31
0.0
  0
LINE
  5
397
100
AcDbEntity
  8
1
  6
CONTINUOUS
 62
     3
100
AcDbLine
 10
454.1273
 20
-43.5313
 30
0.0
 11
456.5273
 21
-41.1313
 31
0.0
  0
LINE
  5
398
100
AcDbEntity
  8
1
  6
CONTINUOUS
 62
     3
100
AcDbLine
 10
454.1273
 20
-46.9254
 30
0.0
 11
456.5273
 21
-44.5254
 31
0.0
  0
LINE
  5
399
100
AcDbEntity
  8
1
  6
CONTINUOUS
 62
     3
100
AcDbLine
 10
454.1273
 20
-50.3195
 30
0.0
 11
456.5273
 21
-47.9195
 31
0.0
  0
LINE
  5
39A
100
AcDbEntity
  8
1
  6
CONTINUOUS
 62
     3
100
AcDbLine
 10
454.1273
 20
-53.7137
 30
0.0
 11
456.5273
 21
-51.3137
 31
0.0
  0
LINE
  5
39B
100
AcDbEntity
  8
1
  6
CONTINUOUS
 62
     3
100
AcDbLine
 10
454.1273
 20
-57.1078
 30
0.0
 11
456.5273
 21
-54.7078
 31
0.0
  0
LINE
  5
39C
100
AcDbEntity
  8
1
  6
CONTINUOUS
 62
     3
100
AcDbLine
 10
454.1273
 20
-60.5019
 30
0.0
 11
456.5273
 21
-58.1019
 31
0.0
  0
LINE
  5
39D
100
AcDbEntity
  8
1
  6
CONTINUOUS
 62
     3
100
AcDbLine
 10
454.1273
 20
-63.896
 30
0.0
 11
456.5273
 21
-61.496
 31
0.0
  0
LINE
  5
39E
100
AcDbEntity
  8
1
  6
CONTINUOUS
 62
     3
100
AcDbLine
 10
455.7489
 20
-65.6685
 30
0.0
 11
456.5273
 21
-64.8901
 31
0.0
  0
LINE
  5
39F
100
AcDbEntity
  8
1
  6
CONTINUOUS
 62
     3
100
AcDbLine
 10
454.827
 20
-65.6685
 30
0.0
 11
454.1273
 21
-64.9688
 31
0.0
  0
LINE
  5
3A0
100
AcDbEntity
  8
1
  6
CONTINUOUS
 62
     3
100
AcDbLine
 10
456.5273
 20
-63.9746
 30
0.0
 11
454.1273
 21
-61.5746
 31
0.0
  0
LINE
  5
3A1
100
AcDbEntity
  8
1
  6
CONTINUOUS
 62
     3
100
AcDbLine
 10
456.5273
 20
-60.5805
 30
0.0
 11
454.1273
 21
-58.1805
 31
0.0
  0
LINE
  5
3A2
100
AcDbEntity
  8
1
  6
CONTINUOUS
 62
     3
100
AcDbLine
 10
456.5273
 20
-57.1864
 30
0.0
 11
454.1273
 21
-54.7864
 31
0.0
  0
LINE
  5
3A3
100
AcDbEntity
  8
1
  6
CONTINUOUS
 62
     3
100
AcDbLine
 10
456.5273
 20
-53.7923
 30
0.0
 11
454.1273
 21
-51.3923
 31
0.0
  0
LINE
  5
3A4
100
AcDbEntity
  8
1
  6
CONTINUOUS
 62
     3
100
AcDbLine
 10
456.5273
 20
-50.3982
 30
0.0
 11
454.1273
 21
-47.9982
 31
0.0
  0
LINE
  5
3A5
100
AcDbEntity
  8
1
  6
CONTINUOUS
 62
     3
100
AcDbLine
 10
456.5273
 20
-47.0041
 30
0.0
 11
454.1273
 21
-44.6041
 31
0.0
  0
LINE
  5
3A6
100
AcDbEntity
  8
1
  6
CONTINUOUS
 62
     3
100
AcDbLine
 10
456.5273
 20
-43.61
 30
0.0
 11
454.1273
 21
-41.21
 31
0.0
  0
LINE
  5
3A7
100
AcDbEntity
  8
1
  6
CONTINUOUS
 62
     3
100
AcDbLine
 10
456.5273
 20
-40.2159
 30
0.0
 11
454.1273
 21
-37.8159
 31
0.0
  0
LINE
  5
3A8
100
AcDbEntity
  8
1
  6
CONTINUOUS
 62
     3
100
AcDbLine
 10
456.5273
 20
-36.8217
 30
0.0
 11
454.1273
 21
-34.4217
 31
0.0
  0
LINE
  5
3A9
100
AcDbEntity
  8
1
  6
CONTINUOUS
 62
     3
100
AcDbLine
 10
456.5273
 20
-33.4276
 30
0.0
 11
454.1273
 21
-31.0276
 31
0.0
  0
LINE
  5
3AA
100
AcDbEntity
  8
1
  6
CONTINUOUS
 62
     3
100
AcDbLine
 10
456.5273
 20
-30.0335
 30
0.0
 11
454.1273
 21
-27.6335
 31
0.0
  0
LINE
  5
3AB
100
AcDbEntity
  8
1
  6
CONTINUOUS
 62
     3
100
AcDbLine
 10
456.5273
 20
-26.6394
 30
0.0
 11
454.1273
 21
-24.2394
 31
0.0
  0
LINE
  5
3AC
100
AcDbEntity
  8
1
  6
CONTINUOUS
 62
     3
100
AcDbLine
 10
456.5273
 20
-23.2453
 30
0.0
 11
454.1273
 21
-20.8453
 31
0.0
  0
LINE
  5
3AD
100
AcDbEntity
  8
1
  6
CONTINUOUS
 62
     3
100
AcDbLine
 10
456.5273
 20
-19.8512
 30
0.0
 11
454.1273
 21
-17.4512
 31
0.0
  0
LINE
  5
3AE
100
AcDbEntity
  8
1
  6
CONTINUOUS
 62
     3
100
AcDbLine
 10
456.5273
 20
-16.4571
 30
0.0
 11
454.1273
 21
-14.0571
 31
0.0
  0
LINE
  5
3AF
100
AcDbEntity
  8
1
  6
CONTINUOUS
 62
     3
100
AcDbLine
 10
456.5273
 20
-13.0629
 30
0.0
 11
454.1273
 21
-10.6629
 31
0.0
  0
LINE
  5
3B0
100
AcDbEntity
  8
1
  6
CONTINUOUS
 62
     3
100
AcDbLine
 10
456.5273
 20
-9.6688
 30
0.0
 11
454.1273
 21
-7.2688
 31
0.0
  0
LINE
  5
3B1
100
AcDbEntity
  8
1
  6
CONTINUOUS
 62
     3
100
AcDbLine
 10
456.5273
 20
-6.2747
 30
0.0
 11
454.1273
 21
-3.8747
 31
0.0
  0
LINE
  5
3B2
100
AcDbEntity
  8
1
  6
CONTINUOUS
 62
     3
100
AcDbLine
 10
456.5273
 20
-2.8806
 30
0.0
 11
454.1273
 21
-0.4806
 31
0.0
  0
LINE
  5
3B3
100
AcDbEntity
  8
1
  6
CONTINUOUS
 62
     3
100
AcDbLine
 10
456.5273
 20
0.5135
 30
0.0
 11
454.1273
 21
2.9135
 31
0.0
  0
LINE
  5
3B4
100
AcDbEntity
  8
1
  6
CONTINUOUS
 62
     3
100
AcDbLine
 10
456.5273
 20
3.9076
 30
0.0
 11
454.1273
 21
6.3076
 31
0.0
  0
LINE
  5
3B5
100
AcDbEntity
  8
1
  6
CONTINUOUS
 62
     3
100
AcDbLine
 10
456.5273
 20
7.3017
 30
0.0
 11
454.1273
 21
9.7017
 31
0.0
  0
LINE
  5
3B6
100
AcDbEntity
  8
1
  6
CONTINUOUS
 62
     3
100
AcDbLine
 10
456.5273
 20
10.6958
 30
0.0
 11
454.1273
 21
13.0958
 31
0.0
  0
LINE
  5
3B7
100
AcDbEntity
  8
1
  6
CONTINUOUS
 62
     3
100
AcDbLine
 10
456.5273
 20
14.09
 30
0.0
 11
454.1273
 21
16.49
 31
0.0
  0
LINE
  5
3B8
100
AcDbEntity
  8
1
  6
CONTINUOUS
 62
     3
100
AcDbLine
 10
456.5273
 20
17.4841
 30
0.0
 11
454.1273
 21
19.8841
 31
0.0
  0
LINE
  5
3B9
100
AcDbEntity
  8
1
  6
CONTINUOUS
 62
     3
100
AcDbLine
 10
456.5273
 20
20.8782
 30
0.0
 11
454.1273
 21
23.2782
 31
0.0
  0
LINE
  5
3BA
100
AcDbEntity
  8
1
  6
CONTINUOUS
 62
     3
100
AcDbLine
 10
456.5273
 20
24.2723
 30
0.0
 11
454.1273
 21
26.6723
 31
0.0
  0
LINE
  5
3BB
100
AcDbEntity
  8
1
  6
CONTINUOUS
 62
     3
100
AcDbLine
 10
456.5273
 20
27.6664
 30
0.0
 11
454.1273
 21
30.0664
 31
0.0
  0
LINE
  5
3BC
100
AcDbEntity
  8
1
  6
CONTINUOUS
 62
     3
100
AcDbLine
 10
456.5273
 20
31.0605
 30
0.0
 11
454.1273
 21
33.4605
 31
0.0
  0
LINE
  5
3BD
100
AcDbEntity
  8
1
  6
CONTINUOUS
 62
     3
100
AcDbLine
 10
456.5273
 20
34.4546
 30
0.0
 11
454.1273
 21
36.8546
 31
0.0
  0
LINE
  5
3BE
100
AcDbEntity
  8
1
  6
CONTINUOUS
 62
     3
100
AcDbLine
 10
456.5273
 20
37.8487
 30
0.0
 11
456.2445
 21
38.1315
 31
0.0
  0
LINE
  5
3BF
100
AcDbEntity
  8
1
  6
CONTINUOUS
 62
     3
100
AcDbLine
 10
455.6101
 20
38.766
 30
0.0
 11
455.3273
 21
39.0487
 31
0.0
  0
POLYLINE
  5
3C0
100
AcDbEntity
  8
1
  6
CONTINUOUS
 62
     3
100
AcDb2dPolyline
 66
     1
 10
0.0
 20
0.0
 30
0.0
 70
     1
  0
VERTEX
  5
3C1
100
AcDbEntity
  8
1
  6
CONTINUOUS
 62
     3
100
AcDbVertex
100
AcDb2dVertex
 10
392.9954
 20
-26.3803
 30
0.0
  0
VERTEX
  5
3C2
100
AcDbEntity
  8
1
  6
CONTINUOUS
 62
     3
100
AcDbVertex
100
AcDb2dVertex
 10
392.9954
 20
-1.1567
 30
0.0
  0
VERTEX
  5
3C3
100
AcDbEntity
  8
1
  6
CONTINUOUS
 62
     3
100
AcDbVertex
100
AcDb2dVertex
 10
418.1954
 20
-1.1567
 30
0.0
  0
VERTEX
  5
3C4
100
AcDbEntity
  8
1
  6
CONTINUOUS
 62
     3
100
AcDbVertex
100
AcDb2dVertex
 10
418.1954
 20
-26.3803
 30
0.0
  0
VERTEX
  5
3C5
100
AcDbEntity
  8
1
  6
CONTINUOUS
 62
     3
100
AcDbVertex
100
AcDb2dVertex
 10
392.9954
 20
-26.3803
 30
0.0
  0
SEQEND
  5
3C6
100
AcDbEntity
  8
1
  6
CONTINUOUS
 62
     3
  0
LINE
  5
3C7
100
AcDbEntity
  8
1
  6
CONTINUOUS
 62
     3
100
AcDbLine
 10
394.2246
 20
-28.7803
 30
0.0
 11
390.5954
 21
-25.1511
 31
0.0
  0
LINE
  5
3C8
100
AcDbEntity
  8
1
  6
CONTINUOUS
 62
     3
100
AcDbLine
 10
397.6187
 20
-28.7803
 30
0.0
 11
395.2187
 21
-26.3803
 31
0.0
  0
LINE
  5
3C9
100
AcDbEntity
  8
1
  6
CONTINUOUS
 62
     3
100
AcDbLine
 10
392.9954
 20
-24.157
 30
0.0
 11
390.5954
 21
-21.757
 31
0.0
  0
LINE
  5
3CA
100
AcDbEntity
  8
1
  6
CONTINUOUS
 62
     3
100
AcDbLine
 10
401.0128
 20
-28.7803
 30
0.0
 11
398.6128
 21
-26.3803
 31
0.0
  0
LINE
  5
3CB
100
AcDbEntity
  8
1
  6
CONTINUOUS
 62
     3
100
AcDbLine
 10
392.9954
 20
-20.7629
 30
0.0
 11
390.5954
 21
-18.3629
 31
0.0
  0
LINE
  5
3CC
100
AcDbEntity
  8
1
  6
CONTINUOUS
 62
     3
100
AcDbLine
 10
404.4069
 20
-28.7803
 30
0.0
 11
402.0069
 21
-26.3803
 31
0.0
  0
LINE
  5
3CD
100
AcDbEntity
  8
1
  6
CONTINUOUS
 62
     3
100
AcDbLine
 10
392.9954
 20
-17.3688
 30
0.0
 11
390.5954
 21
-14.9688
 31
0.0
  0
LINE
  5
3CE
100
AcDbEntity
  8
1
  6
CONTINUOUS
 62
     3
100
AcDbLine
 10
407.8011
 20
-28.7803
 30
0.0
 11
405.4011
 21
-26.3803
 31
0.0
  0
LINE
  5
3CF
100
AcDbEntity
  8
1
  6
CONTINUOUS
 62
     3
100
AcDbLine
 10
392.9954
 20
-13.9746
 30
0.0
 11
390.5954
 21
-11.5746
 31
0.0
  0
LINE
  5
3D0
100
AcDbEntity
  8
1
  6
CONTINUOUS
 62
     3
100
AcDbLine
 10
411.1952
 20
-28.7803
 30
0.0
 11
408.7952
 21
-26.3803
 31
0.0
  0
LINE
  5
3D1
100
AcDbEntity
  8
1
  6
CONTINUOUS
 62
     3
100
AcDbLine
 10
392.9954
 20
-10.5805
 30
0.0
 11
390.5954
 21
-8.1805
 31
0.0
  0
LINE
  5
3D2
100
AcDbEntity
  8
1
  6
CONTINUOUS
 62
     3
100
AcDbLine
 10
414.5893
 20
-28.7803
 30
0.0
 11
412.1893
 21
-26.3803
 31
0.0
  0
LINE
  5
3D3
100
AcDbEntity
  8
1
  6
CONTINUOUS
 62
     3
100
AcDbLine
 10
392.9954
 20
-7.1864
 30
0.0
 11
390.5954
 21
-4.7864
 31
0.0
  0
LINE
  5
3D4
100
AcDbEntity
  8
1
  6
CONTINUOUS
 62
     3
100
AcDbLine
 10
417.9834
 20
-28.7803
 30
0.0
 11
415.5834
 21
-26.3803
 31
0.0
  0
LINE
  5
3D5
100
AcDbEntity
  8
1
  6
CONTINUOUS
 62
     3
100
AcDbLine
 10
392.9954
 20
-3.7923
 30
0.0
 11
390.5954
 21
-1.3923
 31
0.0
  0
LINE
  5
3D6
100
AcDbEntity
  8
1
  6
CONTINUOUS
 62
     3
100
AcDbLine
 10
420.5249
 20
-27.9277
 30
0.0
 11
418.1954
 21
-25.5982
 31
0.0
  0
LINE
  5
3D7
100
AcDbEntity
  8
1
  6
CONTINUOUS
 62
     3
100
AcDbLine
 10
393.7539
 20
-1.1567
 30
0.0
 11
391.4233
 21
1.1739
 31
0.0
  0
LINE
  5
3D8
100
AcDbEntity
  8
1
  6
CONTINUOUS
 62
     3
100
AcDbLine
 10
420.5954
 20
-24.6041
 30
0.0
 11
418.1954
 21
-22.2041
 31
0.0
  0
LINE
  5
3D9
100
AcDbEntity
  8
1
  6
CONTINUOUS
 62
     3
100
AcDbLine
 10
397.148
 20
-1.1567
 30
0.0
 11
394.748
 21
1.2433
 31
0.0
  0
LINE
  5
3DA
100
AcDbEntity
  8
1
  6
CONTINUOUS
 62
     3
100
AcDbLine
 10
420.5954
 20
-21.21
 30
0.0
 11
418.1954
 21
-18.81
 31
0.0
  0
LINE
  5
3DB
100
AcDbEntity
  8
1
  6
CONTINUOUS
 62
     3
100
AcDbLine
 10
400.5421
 20
-1.1567
 30
0.0
 11
398.1421
 21
1.2433
 31
0.0
  0
LINE
  5
3DC
100
AcDbEntity
  8
1
  6
CONTINUOUS
 62
     3
100
AcDbLine
 10
420.5954
 20
-17.8159
 30
0.0
 11
418.1954
 21
-15.4159
 31
0.0
  0
LINE
  5
3DD
100
AcDbEntity
  8
1
  6
CONTINUOUS
 62
     3
100
AcDbLine
 10
403.9362
 20
-1.1567
 30
0.0
 11
401.5362
 21
1.2433
 31
0.0
  0
LINE
  5
3DE
100
AcDbEntity
  8
1
  6
CONTINUOUS
 62
     3
100
AcDbLine
 10
420.5954
 20
-14.4217
 30
0.0
 11
418.1954
 21
-12.0217
 31
0.0
  0
LINE
  5
3DF
100
AcDbEntity
  8
1
  6
CONTINUOUS
 62
     3
100
AcDbLine
 10
407.3304
 20
-1.1567
 30
0.0
 11
404.9304
 21
1.2433
 31
0.0
  0
LINE
  5
3E0
100
AcDbEntity
  8
1
  6
CONTINUOUS
 62
     3
100
AcDbLine
 10
420.5954
 20
-11.0276
 30
0.0
 11
418.1954
 21
-8.6276
 31
0.0
  0
LINE
  5
3E1
100
AcDbEntity
  8
1
  6
CONTINUOUS
 62
     3
100
AcDbLine
 10
410.7245
 20
-1.1567
 30
0.0
 11
408.3245
 21
1.2433
 31
0.0
  0
LINE
  5
3E2
100
AcDbEntity
  8
1
  6
CONTINUOUS
 62
     3
100
AcDbLine
 10
420.5954
 20
-7.6335
 30
0.0
 11
418.1954
 21
-5.2335
 31
0.0
  0
LINE
  5
3E3
100
AcDbEntity
  8
1
  6
CONTINUOUS
 62
     3
100
AcDbLine
 10
414.1186
 20
-1.1567
 30
0.0
 11
411.7186
 21
1.2433
 31
0.0
  0
LINE
  5
3E4
100
AcDbEntity
  8
1
  6
CONTINUOUS
 62
     3
100
AcDbLine
 10
420.5954
 20
-4.2394
 30
0.0
 11
418.1954
 21
-1.8394
 31
0.0
  0
LINE
  5
3E5
100
AcDbEntity
  8
1
  6
CONTINUOUS
 62
     3
100
AcDbLine
 10
417.5127
 20
-1.1567
 30
0.0
 11
415.1127
 21
1.2433
 31
0.0
  0
LINE
  5
3E6
100
AcDbEntity
  8
1
  6
CONTINUOUS
 62
     3
100
AcDbLine
 10
420.5954
 20
-0.8453
 30
0.0
 11
418.5068
 21
1.2433
 31
0.0
  0
LINE
  5
3E7
100
AcDbEntity
  8
1
  6
CONTINUOUS
 62
     3
100
AcDbLine
 10
420.5954
 20
-4.9067
 30
0.0
 11
420.5954
 21
-22.6303
 31
0.0
  0
LINE
  5
3E8
100
AcDbEntity
  8
1
  6
CONTINUOUS
 62
     3
100
AcDbLine
 10
420.5954
 20
-25.7803
 30
0.0
 11
420.5954
 21
-27.5803
 31
0.0
  0
ARC
  5
3E9
100
AcDbEntity
  8
1
  6
CONTINUOUS
 62
     3
100
AcDbCircle
 10
419.3954
 20
-27.5803
 30
0.0
 40
1.2
210
0.0
220
0.0
230
1.0
100
AcDbArc
 50
270.0
 51
0.0
  0
LINE
  5
3EA
100
AcDbEntity
  8
1
  6
CONTINUOUS
 62
     3
100
AcDbLine
 10
419.3954
 20
-28.7803
 30
0.0
 11
391.7954
 21
-28.7803
 31
0.0
  0
ARC
  5
3EB
100
AcDbEntity
  8
1
  6
CONTINUOUS
 62
     3
100
AcDbCircle
 10
391.7954
 20
-27.5803
 30
0.0
 40
1.2
210
0.0
220
0.0
230
1.0
100
AcDbArc
 50
180.0
 51
270.0
  0
LINE
  5
3EC
100
AcDbEntity
  8
1
  6
CONTINUOUS
 62
     3
100
AcDbLine
 10
390.5954
 20
-27.5803
 30
0.0
 11
390.5954
 21
0.0433
 31
0.0
  0
ARC
  5
3ED
100
AcDbEntity
  8
1
  6
CONTINUOUS
 62
     3
100
AcDbCircle
 10
391.7954
 20
0.0433
 30
0.0
 40
1.2
210
0.0
220
0.0
230
1.0
100
AcDbArc
 50
90.0
 51
180.0
  0
LINE
  5
3EE
100
AcDbEntity
  8
1
  6
CONTINUOUS
 62
     3
100
AcDbLine
 10
391.7954
 20
1.2433
 30
0.0
 11
419.3954
 21
1.2433
 31
0.0
  0
ARC
  5
3EF
100
AcDbEntity
  8
1
  6
CONTINUOUS
 62
     3
100
AcDbCircle
 10
419.3954
 20
0.0433
 30
0.0
 40
1.2
210
0.0
220
0.0
230
1.0
100
AcDbArc
 50
0.0
 51
90.0
  0
LINE
  5
3F0
100
AcDbEntity
  8
1
  6
CONTINUOUS
 62
     3
100
AcDbLine
 10
420.5954
 20
0.0433
 30
0.0
 11
420.5954
 21
-1.7567
 31
0.0
  0
LINE
  5
3F1
100
AcDbEntity
  8
1
  6
CONTINUOUS
 62
     3
100
AcDbLine
 10
452.9273
 20
7.7731
 30
0.0
 11
452.9273
 21
-35.3101
 31
0.0
  0
POLYLINE
  5
3F2
100
AcDbEntity
  8
1
  6
CONTINUOUS
 62
     3
100
AcDb2dPolyline
 66
     1
 10
0.0
 20
0.0
 30
0.0
  0
VERTEX
  5
3F3
100
AcDbEntity
  8
1
  6
CONTINUOUS
 62
     3
100
AcDbVertex
100
AcDb2dVertex
 10
446.9273
 20
4.5315
 30
0.0
  0
VERTEX
  5
3F4
100
AcDbEntity
  8
1
  6
CONTINUOUS
 62
     3
100
AcDbVertex
100
AcDb2dVertex
 10
420.5954
 20
-1.7567
 30
0.0
  0
VERTEX
  5
3F5
100
AcDbEntity
  8
1
  6
CONTINUOUS
 62
     3
100
AcDbVertex
100
AcDb2dVertex
 10
420.5954
 20
-4.9067
 30
0.0
  0
VERTEX
  5
3F6
100
AcDbEntity
  8
1
  6
CONTINUOUS
 62
     3
100
AcDbVertex
100
AcDb2dVertex
 10
420.6185
 20
-4.9071
 30
0.0
 42
-0.426973
  0
VERTEX
  5
3F7
100
AcDbEntity
  8
1
  6
CONTINUOUS
 62
     3
100
AcDbVertex
100
AcDb2dVertex
 10
421.7954
 20
-6.206
 30
0.0
  0
VERTEX
  5
3F8
100
AcDbEntity
  8
1
  6
CONTINUOUS
 62
     3
100
AcDbVertex
100
AcDb2dVertex
 10
421.7954
 20
-21.331
 30
0.0
 42
-0.426973
  0
VERTEX
  5
3F9
100
AcDbEntity
  8
1
  6
CONTINUOUS
 62
     3
100
AcDbVertex
100
AcDb2dVertex
 10
420.6185
 20
-22.6299
 30
0.0
  0
VERTEX
  5
3FA
100
AcDbEntity
  8
1
  6
CONTINUOUS
 62
     3
100
AcDbVertex
100
AcDb2dVertex
 10
420.5954
 20
-22.6303
 30
0.0
  0
VERTEX
  5
3FB
100
AcDbEntity
  8
1
  6
CONTINUOUS
 62
     3
100
AcDbVertex
100
AcDb2dVertex
 10
420.5954
 20
-25.7803
 30
0.0
  0
VERTEX
  5
3FC
100
AcDbEntity
  8
1
  6
CONTINUOUS
 62
     3
100
AcDbVertex
100
AcDb2dVertex
 10
446.9273
 20
-32.0685
 30
0.0
 42
-0.475725
  0
VERTEX
  5
3FD
100
AcDbEntity
  8
1
  6
CONTINUOUS
 62
     3
100
AcDbVertex
100
AcDb2dVertex
 10
448.1273
 20
-40.4685
 30
0.0
  0
VERTEX
  5
3FE
100
AcDbEntity
  8
1
  6
CONTINUOUS
 62
     3
100
AcDbVertex
100
AcDb2dVertex
 10
448.1273
 20
-45.2685
 30
0.0
  0
VERTEX
  5
3FF
100
AcDbEntity
  8
1
  6
CONTINUOUS
 62
     3
100
AcDbVertex
100
AcDb2dVertex
 10
452.9273
 20
-45.2685
 30
0.0
  0
VERTEX
  5
400
100
AcDbEntity
  8
1
  6
CONTINUOUS
 62
     3
100
AcDbVertex
100
AcDb2dVertex
 10
452.9273
 20
-35.310102
 30
0.0
 42
0.288337
  0
VERTEX
  5
401
100
AcDbEntity
  8
1
  6
CONTINUOUS
 62
     3
100
AcDbVertex
100
AcDb2dVertex
 10
448.007
 20
-29.8588
 30
0.0
  0
VERTEX
  5
402
100
AcDbEntity
  8
1
  6
CONTINUOUS
 62
     3
100
AcDbVertex
100
AcDb2dVertex
 10
426.959232
 20
-24.8325
 30
0.0
 42
-0.347109
  0
VERTEX
  5
403
100
AcDbEntity
  8
1
  6
CONTINUOUS
 62
     3
100
AcDbVertex
100
AcDb2dVertex
 10
424.1954
 20
-21.331
 30
0.0
  0
VERTEX
  5
404
100
AcDbEntity
  8
1
  6
CONTINUOUS
 62
     3
100
AcDbVertex
100
AcDb2dVertex
 10
424.1954
 20
-6.205969
 30
0.0
 42
-0.34711
  0
VERTEX
  5
405
100
AcDbEntity
  8
1
  6
CONTINUOUS
 62
     3
100
AcDbVertex
100
AcDb2dVertex
 10
426.9592
 20
-2.7044
 30
0.0
  0
VERTEX
  5
406
100
AcDbEntity
  8
1
  6
CONTINUOUS
 62
     3
100
AcDbVertex
100
AcDb2dVertex
 10
448.006902
 20
2.321802
 30
0.0
 42
0.288339
  0
VERTEX
  5
407
100
AcDbEntity
  8
1
  6
CONTINUOUS
 62
     3
100
AcDbVertex
100
AcDb2dVertex
 10
452.9273
 20
7.7731
 30
0.0
  0
VERTEX
  5
408
100
AcDbEntity
  8
1
  6
CONTINUOUS
 62
     3
100
AcDbVertex
100
AcDb2dVertex
 10
452.9273
 20
17.7315
 30
0.0
  0
VERTEX
  5
409
100
AcDbEntity
  8
1
  6
CONTINUOUS
 62
     3
100
AcDbVertex
100
AcDb2dVertex
 10
448.1273
 20
17.7315
 30
0.0
  0
VERTEX
  5
40A
100
AcDbEntity
  8
1
  6
CONTINUOUS
 62
     3
100
AcDbVertex
100
AcDb2dVertex
 10
448.1273
 20
12.9315
 30
0.0
 42
-0.475725
  0
VERTEX
  5
40B
100
AcDbEntity
  8
1
  6
CONTINUOUS
 62
     3
100
AcDbVertex
100
AcDb2dVertex
 10
446.9273
 20
4.5315
 30
0.0
  0
SEQEND
  5
40C
100
AcDbEntity
  8
1
  6
CONTINUOUS
 62
     3
  0
LINE
  5
40D
100
AcDbEntity
  8
1
  6
CONTINUOUS
 62
     3
100
AcDbLine
 10
420.5954
 20
-2.3099
 30
0.0
 11
421.3222
 21
-1.5831
 31
0.0
  0
LINE
  5
40E
100
AcDbEntity
  8
1
  6
CONTINUOUS
 62
     3
100
AcDbLine
 10
421.2014
 20
-5.098
 30
0.0
 11
425.7811
 21
-0.5183
 31
0.0
  0
LINE
  5
40F
100
AcDbEntity
  8
1
  6
CONTINUOUS
 62
     3
100
AcDbLine
 10
421.7954
 20
-7.8982
 30
0.0
 11
424.2883
 21
-5.4053
 31
0.0
  0
LINE
  5
410
100
AcDbEntity
  8
1
  6
CONTINUOUS
 62
     3
100
AcDbLine
 10
426.9986
 20
-2.695
 30
0.0
 11
430.2401
 21
0.5465
 31
0.0
  0
LINE
  5
411
100
AcDbEntity
  8
1
  6
CONTINUOUS
 62
     3
100
AcDbLine
 10
421.7954
 20
-11.2923
 30
0.0
 11
424.1954
 21
-8.8923
 31
0.0
  0
LINE
  5
412
100
AcDbEntity
  8
1
  6
CONTINUOUS
 62
     3
100
AcDbLine
 10
431.4575
 20
-1.6302
 30
0.0
 11
434.699
 21
1.6113
 31
0.0
  0
LINE
  5
413
100
AcDbEntity
  8
1
  6
CONTINUOUS
 62
     3
100
AcDbLine
 10
448.1273
 20
15.0396
 30
0.0
 11
450.8192
 21
17.7315
 31
0.0
  0
LINE
  5
414
100
AcDbEntity
  8
1
  6
CONTINUOUS
 62
     3
100
AcDbLine
 10
421.7954
 20
-14.6864
 30
0.0
 11
424.1954
 21
-12.2864
 31
0.0
  0
LINE
  5
415
100
AcDbEntity
  8
1
  6
CONTINUOUS
 62
     3
100
AcDbLine
 10
435.9164
 20
-0.5654
 30
0.0
 11
439.1579
 21
2.6761
 31
0.0
  0
LINE
  5
416
100
AcDbEntity
  8
1
  6
CONTINUOUS
 62
     3
100
AcDbLine
 10
448.6843
 20
12.2025
 30
0.0
 11
452.9273
 21
16.4455
 31
0.0
  0
LINE
  5
417
100
AcDbEntity
  8
1
  6
CONTINUOUS
 62
     3
100
AcDbLine
 10
421.7954
 20
-18.0805
 30
0.0
 11
424.1954
 21
-15.6805
 31
0.0
  0
LINE
  5
418
100
AcDbEntity
  8
1
  6
CONTINUOUS
 62
     3
100
AcDbLine
 10
440.3753
 20
0.4994
 30
0.0
 11
443.6169
 21
3.7409
 31
0.0
  0
LINE
  5
419
100
AcDbEntity
  8
1
  6
CONTINUOUS
 62
     3
100
AcDbLine
 10
449.5384
 20
9.6625
 30
0.0
 11
452.9273
 21
13.0514
 31
0.0
  0
LINE
  5
41A
100
AcDbEntity
  8
1
  6
CONTINUOUS
 62
     3
100
AcDbLine
 10
420.5954
 20
-22.6746
 30
0.0
 11
420.641
 21
-22.6291
 31
0.0
  0
LINE
  5
41B
100
AcDbEntity
  8
1
  6
CONTINUOUS
 62
     3
100
AcDbLine
 10
421.7741
 20
-21.4959
 30
0.0
 11
424.1954
 21
-19.0746
 31
0.0
  0
LINE
  5
41C
100
AcDbEntity
  8
1
  6
CONTINUOUS
 62
     3
100
AcDbLine
 10
444.8342
 20
1.5642
 30
0.0
 11
452.9273
 21
9.6573
 31
0.0
  0
LINE
  5
41D
100
AcDbEntity
  8
1
  6
CONTINUOUS
 62
     3
100
AcDbLine
 10
420.8282
 20
-25.8359
 30
0.0
 11
424.3551
 21
-22.3091
 31
0.0
  0
LINE
  5
41E
100
AcDbEntity
  8
1
  6
CONTINUOUS
 62
     3
100
AcDbLine
 10
449.8115
 20
3.1473
 30
0.0
 11
451.9337
 21
5.2696
 31
0.0
  0
LINE
  5
41F
100
AcDbEntity
  8
1
  6
CONTINUOUS
 62
     3
100
AcDbLine
 10
423.5681
 20
-26.4902
 30
0.0
 11
425.7756
 21
-24.2827
 31
0.0
  0
LINE
  5
420
100
AcDbEntity
  8
1
  6
CONTINUOUS
 62
     3
100
AcDbLine
 10
426.3079
 20
-27.1445
 30
0.0
 11
428.2997
 21
-25.1526
 31
0.0
  0
LINE
  5
421
100
AcDbEntity
  8
1
  6
CONTINUOUS
 62
     3
100
AcDbLine
 10
429.0477
 20
-27.7988
 30
0.0
 11
431.0396
 21
-25.8069
 31
0.0
  0
LINE
  5
422
100
AcDbEntity
  8
1
  6
CONTINUOUS
 62
     3
100
AcDbLine
 10
431.7875
 20
-28.453
 30
0.0
 11
433.7794
 21
-26.4612
 31
0.0
  0
LINE
  5
423
100
AcDbEntity
  8
1
  6
CONTINUOUS
 62
     3
100
AcDbLine
 10
434.5274
 20
-29.1073
 30
0.0
 11
436.5192
 21
-27.1155
 31
0.0
  0
LINE
  5
424
100
AcDbEntity
  8
1
  6
CONTINUOUS
 62
     3
100
AcDbLine
 10
437.2672
 20
-29.7616
 30
0.0
 11
439.2591
 21
-27.7698
 31
0.0
  0
LINE
  5
425
100
AcDbEntity
  8
1
  6
CONTINUOUS
 62
     3
100
AcDbLine
 10
440.007
 20
-30.4159
 30
0.0
 11
441.9989
 21
-28.424
 31
0.0
  0
LINE
  5
426
100
AcDbEntity
  8
1
  6
CONTINUOUS
 62
     3
100
AcDbLine
 10
442.7469
 20
-31.0702
 30
0.0
 11
444.7387
 21
-29.0783
 31
0.0
  0
LINE
  5
427
100
AcDbEntity
  8
1
  6
CONTINUOUS
 62
     3
100
AcDbLine
 10
445.4867
 20
-31.7245
 30
0.0
 11
447.4785
 21
-29.7326
 31
0.0
  0
LINE
  5
428
100
AcDbEntity
  8
1
  6
CONTINUOUS
 62
     3
100
AcDbLine
 10
447.8375
 20
-32.7677
 30
0.0
 11
449.8869
 21
-30.7183
 31
0.0
  0
LINE
  5
429
100
AcDbEntity
  8
1
  6
CONTINUOUS
 62
     3
100
AcDbLine
 10
449.1946
 20
-34.8048
 30
0.0
 11
451.6367
 21
-32.3626
 31
0.0
  0
LINE
  5
42A
100
AcDbEntity
  8
1
  6
CONTINUOUS
 62
     3
100
AcDbLine
 10
449.4229
 20
-37.9706
 30
0.0
 11
452.7521
 21
-34.6414
 31
0.0
  0
LINE
  5
42B
100
AcDbEntity
  8
1
  6
CONTINUOUS
 62
     3
100
AcDbLine
 10
448.1273
 20
-42.6603
 30
0.0
 11
452.9273
 21
-37.8603
 31
0.0
  0
LINE
  5
42C
100
AcDbEntity
  8
1
  6
CONTINUOUS
 62
     3
100
AcDbLine
 10
448.9132
 20
-45.2685
 30
0.0
 11
452.9273
 21
-41.2544
 31
0.0
  0
LINE
  5
42D
100
AcDbEntity
  8
1
  6
CONTINUOUS
 62
     3
100
AcDbLine
 10
452.3073
 20
-45.2685
 30
0.0
 11
452.9273
 21
-44.6485
 31
0.0
  0
LINE
  5
42E
100
AcDbEntity
  8
1
  6
CONTINUOUS
 62
     3
100
AcDbLine
 10
378.2277
 20
-172.4958
 30
0.0
 11
378.2277
 21
-235.4958
 31
0.0
  0
LINE
  5
42F
100
AcDbEntity
  8
1
  6
CONTINUOUS
 62
     3
100
AcDbLine
 10
378.2277
 20
-172.4958
 30
0.0
 11
383.0277
 21
-172.4958
 31
0.0
  0
LINE
  5
430
100
AcDbEntity
  8
1
  6
CONTINUOUS
 62
     3
100
AcDbLine
 10
383.0277
 20
-172.4958
 30
0.0
 11
383.0277
 21
-177.2958
 31
0.0
  0
LINE
  5
431
100
AcDbEntity
  8
1
  6
CONTINUOUS
 62
     3
100
AcDbLine
 10
377.0277
 20
-176.0958
 30
0.0
 11
378.2277
 21
-176.0958
 31
0.0
  0
ARC
  5
432
100
AcDbEntity
  8
1
  6
CONTINUOUS
 62
     3
100
AcDbCircle
 10
387.042996
 20
-181.007901
 30
0.0
 40
5.468299
210
0.0
220
0.0
230
1.0
100
AcDbArc
 50
137.246928
 51
239.013278
  0
ARC
  5
433
100
AcDbEntity
  8
1
  6
CONTINUOUS
 62
     3
100
AcDbCircle
 10
385.021408
 20
-181.26838
 30
0.0
 40
6.896421
210
0.0
220
0.0
230
1.0
100
AcDbArc
 50
192.249606
 51
258.917819
  0
LINE
  5
434
100
AcDbEntity
  8
1
  6
CONTINUOUS
 62
     3
100
AcDbLine
 10
378.2277
 20
-235.4958
 30
0.0
 11
383.0277
 21
-235.4958
 31
0.0
  0
LINE
  5
435
100
AcDbEntity
  8
1
  6
CONTINUOUS
 62
     3
100
AcDbLine
 10
383.0277
 20
-235.4958
 30
0.0
 11
383.0277
 21
-230.6958
 31
0.0
  0
ARC
  5
436
100
AcDbEntity
  8
1
  6
CONTINUOUS
 62
     3
100
AcDbCircle
 10
387.042996
 20
-226.983699
 30
0.0
 40
5.468299
210
0.0
220
0.0
230
1.0
100
AcDbArc
 50
120.986722
 51
222.753072
  0
ARC
  5
437
100
AcDbEntity
  8
1
  6
CONTINUOUS
 62
     3
100
AcDbCircle
 10
385.021408
 20
-226.72322
 30
0.0
 40
6.896421
210
0.0
220
0.0
230
1.0
100
AcDbArc
 50
101.082181
 51
167.750394
  0
ARC
  5
438
100
AcDbEntity
  8
1
  6
CONTINUOUS
 62
     3
100
AcDbCircle
 10
406.4958
 20
-196.909712
 30
0.0
 40
3.6
210
0.0
220
0.0
230
1.0
100
AcDbArc
 50
0.0
 51
77.195517
  0
ARC
  5
439
100
AcDbEntity
  8
1
  6
CONTINUOUS
 62
     3
100
AcDbCircle
 10
406.4958
 20
-211.081881
 30
0.0
 40
3.6
210
0.0
220
0.0
230
1.0
100
AcDbArc
 50
282.804336
 51
0.0
  0
LINE
  5
43A
100
AcDbEntity
  8
1
  6
CONTINUOUS
 62
     3
100
AcDbLine
 10
383.6958
 20
-188.0362
 30
0.0
 11
387.8663
 21
-188.984
 31
0.0
  0
LINE
  5
43B
100
AcDbEntity
  8
1
  6
CONTINUOUS
 62
     3
100
AcDbLine
 10
398.4263
 20
-191.384
 30
0.0
 11
407.2936
 21
-193.3992
 31
0.0
  0
LINE
  5
43C
100
AcDbEntity
  8
1
  6
CONTINUOUS
 62
     3
100
AcDbLine
 10
384.2277
 20
-185.6958
 30
0.0
 11
398.6961
 21
-188.984
 31
0.0
  0
LINE
  5
43D
100
AcDbEntity
  8
1
  6
CONTINUOUS
 62
     3
100
AcDbLine
 10
409.2558
 20
-191.384
 30
0.0
 11
411.8958
 21
-191.984
 31
0.0
  0
LINE
  5
43E
100
AcDbEntity
  8
1
  6
CONTINUOUS
 62
     3
100
AcDbLine
 10
383.6958
 20
-219.9554
 30
0.0
 11
387.8663
 21
-219.0076
 31
0.0
  0
LINE
  5
43F
100
AcDbEntity
  8
1
  6
CONTINUOUS
 62
     3
100
AcDbLine
 10
398.4266
 20
-216.6076
 30
0.0
 11
407.2936
 21
-214.5924
 31
0.0
  0
LINE
  5
440
100
AcDbEntity
  8
1
  6
CONTINUOUS
 62
     3
100
AcDbLine
 10
384.2277
 20
-222.2958
 30
0.0
 11
398.6955
 21
-219.0076
 31
0.0
  0
LINE
  5
441
100
AcDbEntity
  8
1
  6
CONTINUOUS
 62
     3
100
AcDbLine
 10
409.2558
 20
-216.6076
 30
0.0
 11
411.8958
 21
-216.0076
 31
0.0
  0
LINE
  5
442
100
AcDbEntity
  8
1
  6
CONTINUOUS
 62
     3
100
AcDbLine
 10
377.0277
 20
-231.8958
 30
0.0
 11
378.2277
 21
-231.8958
 31
0.0
  0
LINE
  5
443
100
AcDbEntity
  8
1
  6
CONTINUOUS
 62
     3
100
AcDbLine
 10
447.8277
 20
-176.0958
 30
0.0
 11
446.6277
 21
-176.0958
 31
0.0
  0
LINE
  5
444
100
AcDbEntity
  8
1
  6
CONTINUOUS
 62
     3
100
AcDbLine
 10
447.8277
 20
-231.8958
 30
0.0
 11
446.6277
 21
-231.8958
 31
0.0
  0
LINE
  5
445
100
AcDbEntity
  8
1
  6
HIDDEN
 62
     3
100
AcDbLine
 10
413.0958
 20
-196.4333
 30
0.0
 11
413.0958
 21
-211.5583
 31
0.0
  0
ARC
  5
446
100
AcDbEntity
  8
1
  6
HIDDEN
 62
     3
100
AcDbCircle
 10
414.30613
 20
-196.347319
 30
0.0
 40
1.21338
210
0.0
220
0.0
230
1.0
100
AcDbArc
 50
91.57875
 51
184.063417
  0
ARC
  5
447
100
AcDbEntity
  8
1
  6
HIDDEN
 62
     3
100
AcDbCircle
 10
414.30613
 20
-211.644281
 30
0.0
 40
1.21338
210
0.0
220
0.0
230
1.0
100
AcDbArc
 50
175.936583
 51
268.42125
  0
LINE
  5
448
100
AcDbEntity
  8
1
  6
HIDDEN
 62
     3
100
AcDbLine
 10
398.6961
 20
-188.984
 30
0.0
 11
409.2558
 21
-191.384
 31
0.0
  0
LINE
  5
449
100
AcDbEntity
  8
1
  6
HIDDEN
 62
     3
100
AcDbLine
 10
387.8663
 20
-188.984
 30
0.0
 11
398.4263
 21
-191.384
 31
0.0
  0
LINE
  5
44A
100
AcDbEntity
  8
1
  6
HIDDEN
 62
     3
100
AcDbLine
 10
398.4266
 20
-216.6076
 30
0.0
 11
387.8663
 21
-219.0076
 31
0.0
  0
LINE
  5
44B
100
AcDbEntity
  8
1
  6
HIDDEN
 62
     3
100
AcDbLine
 10
409.2558
 20
-216.6076
 30
0.0
 11
398.6955
 21
-219.0076
 31
0.0
  0
LINE
  5
44C
100
AcDbEntity
  8
1
  6
CONTINUOUS
 62
     3
100
AcDbLine
 10
386.6958
 20
-201.5958
 30
0.0
 11
411.8958
 21
-201.5958
 31
0.0
  0
LINE
  5
44D
100
AcDbEntity
  8
1
  6
CONTINUOUS
 62
     3
100
AcDbLine
 10
386.6958
 20
-206.3958
 30
0.0
 11
411.8958
 21
-206.3958
 31
0.0
  0
LINE
  5
44E
100
AcDbEntity
  8
1
  6
CONTINUOUS
 62
     3
100
AcDbLine
 10
410.0958
 20
-196.9097
 30
0.0
 11
410.0958
 21
-201.5958
 31
0.0
  0
LINE
  5
44F
100
AcDbEntity
  8
1
  6
CONTINUOUS
 62
     3
100
AcDbLine
 10
410.0958
 20
-206.3958
 30
0.0
 11
410.0958
 21
-211.0819
 31
0.0
  0
LINE
  5
450
100
AcDbEntity
  8
1
  6
HIDDEN
 62
     3
100
AcDbLine
 10
411.8958
 20
-201.5958
 30
0.0
 11
417.8958
 21
-201.5958
 31
0.0
  0
LINE
  5
451
100
AcDbEntity
  8
1
  6
HIDDEN
 62
     3
100
AcDbLine
 10
411.8958
 20
-206.3958
 30
0.0
 11
417.8958
 21
-206.3958
 31
0.0
  0
LINE
  5
452
100
AcDbEntity
  8
1
  6
HIDDEN
 62
     3
100
AcDbLine
 10
386.6958
 20
-201.5958
 30
0.0
 11
384.2958
 21
-201.5958
 31
0.0
  0
LINE
  5
453
100
AcDbEntity
  8
1
  6
HIDDEN
 62
     3
100
AcDbLine
 10
386.6958
 20
-206.3958
 30
0.0
 11
384.2958
 21
-206.3958
 31
0.0
  0
LINE
  5
454
100
AcDbEntity
  8
1
  6
CONTINUOUS
 62
     7
100
AcDbLine
 10
358.8203
 20
-203.9958
 30
0.0
 11
374.0277
 21
-203.9958
 31
0.0
  0
LINE
  5
455
100
AcDbEntity
  8
1
  6
CONTINUOUS
 62
     7
100
AcDbLine
 10
376.4277
 20
-203.9958
 30
0.0
 11
377.6277
 21
-203.9958
 31
0.0
  0
LINE
  5
456
100
AcDbEntity
  8
1
  6
CONTINUOUS
 62
     3
100
AcDbLine
 10
388.4958
 20
-201.5958
 30
0.0
 11
388.4958
 21
-206.3958
 31
0.0
  0
LINE
  5
457
100
AcDbEntity
  8
1
  6
CONTINUOUS
 62
     3
100
AcDbLine
 10
387.5958
 20
-202.4958
 30
0.0
 11
387.5958
 21
-205.4958
 31
0.0
  0
LINE
  5
458
100
AcDbEntity
  8
1
  6
CONTINUOUS
 62
     3
100
AcDbLine
 10
389.3958
 20
-202.4958
 30
0.0
 11
389.3958
 21
-205.4958
 31
0.0
  0
LINE
  5
459
100
AcDbEntity
  8
1
  6
CONTINUOUS
 62
     3
100
AcDbLine
 10
390.2958
 20
-201.5958
 30
0.0
 11
390.2958
 21
-206.3958
 31
0.0
  0
LINE
  5
45A
100
AcDbEntity
  8
1
  6
CONTINUOUS
 62
     3
100
AcDbLine
 10
391.1958
 20
-202.4958
 30
0.0
 11
391.1958
 21
-205.4958
 31
0.0
  0
LINE
  5
45B
100
AcDbEntity
  8
1
  6
CONTINUOUS
 62
     3
100
AcDbLine
 10
392.0958
 20
-201.5958
 30
0.0
 11
392.0958
 21
-206.3958
 31
0.0
  0
LINE
  5
45C
100
AcDbEntity
  8
1
  6
CONTINUOUS
 62
     3
100
AcDbLine
 10
392.9958
 20
-202.4958
 30
0.0
 11
392.9958
 21
-205.4958
 31
0.0
  0
LINE
  5
45D
100
AcDbEntity
  8
1
  6
CONTINUOUS
 62
     3
100
AcDbLine
 10
393.8958
 20
-201.5958
 30
0.0
 11
393.8958
 21
-206.3958
 31
0.0
  0
LINE
  5
45E
100
AcDbEntity
  8
1
  6
CONTINUOUS
 62
     3
100
AcDbLine
 10
394.7958
 20
-202.4958
 30
0.0
 11
394.7958
 21
-205.4958
 31
0.0
  0
LINE
  5
45F
100
AcDbEntity
  8
1
  6
CONTINUOUS
 62
     3
100
AcDbLine
 10
395.6958
 20
-201.5958
 30
0.0
 11
395.6958
 21
-206.3958
 31
0.0
  0
LINE
  5
460
100
AcDbEntity
  8
1
  6
CONTINUOUS
 62
     7
100
AcDbLine
 10
380.3806
 20
-203.9958
 30
0.0
 11
398.0958
 21
-203.9958
 31
0.0
  0
LINE
  5
461
100
AcDbEntity
  8
1
  6
CONTINUOUS
 62
     7
100
AcDbLine
 10
399.2958
 20
-203.9958
 30
0.0
 11
402.2958
 21
-203.9958
 31
0.0
  0
LINE
  5
462
100
AcDbEntity
  8
1
  6
CONTINUOUS
 62
     7
100
AcDbLine
 10
403.4958
 20
-203.9958
 30
0.0
 11
410.6958
 21
-203.9958
 31
0.0
  0
LINE
  5
463
100
AcDbEntity
  8
1
  6
CONTINUOUS
 62
     7
100
AcDbLine
 10
414.8515
 20
-203.9958
 30
0.0
 11
416.6379
 21
-203.9958
 31
0.0
  0
LINE
  5
464
100
AcDbEntity
  8
1
  6
CONTINUOUS
 62
     3
100
AcDbLine
 10
373.4277
 20
-152.0958
 30
0.0
 11
374.6277
 21
-152.0958
 31
0.0
  0
LINE
  5
465
100
AcDbEntity
  8
1
  6
CONTINUOUS
 62
     3
100
AcDbLine
 10
377.0277
 20
-152.0958
 30
0.0
 11
378.2277
 21
-152.0958
 31
0.0
  0
LINE
  5
466
100
AcDbEntity
  8
1
  6
CONTINUOUS
 62
     3
100
AcDbLine
 10
373.4277
 20
-255.8958
 30
0.0
 11
374.6277
 21
-255.8958
 31
0.0
  0
LINE
  5
467
100
AcDbEntity
  8
1
  6
CONTINUOUS
 62
     3
100
AcDbLine
 10
377.0277
 20
-255.8958
 30
0.0
 11
378.2277
 21
-255.8958
 31
0.0
  0
POLYLINE
  5
468
100
AcDbEntity
  8
1
  6
CONTINUOUS
 62
     3
100
AcDb2dPolyline
 66
     1
 10
0.0
 20
0.0
 30
0.0
 70
     1
  0
VERTEX
  5
469
100
AcDbEntity
  8
1
  6
CONTINUOUS
 62
     3
100
AcDbVertex
100
AcDb2dVertex
 10
374.6277
 20
-255.8958
 30
0.0
  0
VERTEX
  5
46A
100
AcDbEntity
  8
1
  6
CONTINUOUS
 62
     3
100
AcDbVertex
100
AcDb2dVertex
 10
374.6277
 20
-152.0958
 30
0.0
  0
VERTEX
  5
46B
100
AcDbEntity
  8
1
  6
CONTINUOUS
 62
     3
100
AcDbVertex
100
AcDb2dVertex
 10
375.2277
 20
-152.0958
 30
0.0
  0
VERTEX
  5
46C
100
AcDbEntity
  8
1
  6
CONTINUOUS
 62
     3
100
AcDbVertex
100
AcDb2dVertex
 10
375.8277
 20
-150.8958
 30
0.0
  0
VERTEX
  5
46D
100
AcDbEntity
  8
1
  6
CONTINUOUS
 62
     3
100
AcDbVertex
100
AcDb2dVertex
 10
375.8277
 20
-153.2958
 30
0.0
  0
VERTEX
  5
46E
100
AcDbEntity
  8
1
  6
CONTINUOUS
 62
     3
100
AcDbVertex
100
AcDb2dVertex
 10
376.4277
 20
-152.0958
 30
0.0
  0
VERTEX
  5
46F
100
AcDbEntity
  8
1
  6
CONTINUOUS
 62
     3
100
AcDbVertex
100
AcDb2dVertex
 10
377.0277
 20
-152.0958
 30
0.0
  0
VERTEX
  5
470
100
AcDbEntity
  8
1
  6
CONTINUOUS
 62
     3
100
AcDbVertex
100
AcDb2dVertex
 10
377.0277
 20
-255.8958
 30
0.0
  0
VERTEX
  5
471
100
AcDbEntity
  8
1
  6
CONTINUOUS
 62
     3
100
AcDbVertex
100
AcDb2dVertex
 10
376.4277
 20
-255.8958
 30
0.0
  0
VERTEX
  5
472
100
AcDbEntity
  8
1
  6
CONTINUOUS
 62
     3
100
AcDbVertex
100
AcDb2dVertex
 10
375.8277
 20
-254.6958
 30
0.0
  0
VERTEX
  5
473
100
AcDbEntity
  8
1
  6
CONTINUOUS
 62
     3
100
AcDbVertex
100
AcDb2dVertex
 10
375.8277
 20
-257.0958
 30
0.0
  0
VERTEX
  5
474
100
AcDbEntity
  8
1
  6
CONTINUOUS
 62
     3
100
AcDbVertex
100
AcDb2dVertex
 10
375.2277
 20
-255.8958
 30
0.0
  0
VERTEX
  5
475
100
AcDbEntity
  8
1
  6
CONTINUOUS
 62
     3
100
AcDbVertex
100
AcDb2dVertex
 10
374.6277
 20
-255.8958
 30
0.0
  0
SEQEND
  5
476
100
AcDbEntity
  8
1
  6
CONTINUOUS
 62
     3
  0
LINE
  5
477
100
AcDbEntity
  8
1
  6
CONTINUOUS
 62
     3
100
AcDbLine
 10
374.6277
 20
-155.2538
 30
0.0
 11
377.0277
 21
-152.8538
 31
0.0
  0
LINE
  5
478
100
AcDbEntity
  8
1
  6
CONTINUOUS
 62
     3
100
AcDbLine
 10
374.6277
 20
-158.6479
 30
0.0
 11
377.0277
 21
-156.2479
 31
0.0
  0
LINE
  5
479
100
AcDbEntity
  8
1
  6
CONTINUOUS
 62
     3
100
AcDbLine
 10
374.6277
 20
-162.0421
 30
0.0
 11
377.0277
 21
-159.6421
 31
0.0
  0
LINE
  5
47A
100
AcDbEntity
  8
1
  6
CONTINUOUS
 62
     3
100
AcDbLine
 10
374.6277
 20
-165.4362
 30
0.0
 11
377.0277
 21
-163.0362
 31
0.0
  0
LINE
  5
47B
100
AcDbEntity
  8
1
  6
CONTINUOUS
 62
     3
100
AcDbLine
 10
374.6277
 20
-168.8303
 30
0.0
 11
377.0277
 21
-166.4303
 31
0.0
  0
LINE
  5
47C
100
AcDbEntity
  8
1
  6
CONTINUOUS
 62
     3
100
AcDbLine
 10
374.6277
 20
-172.2244
 30
0.0
 11
377.0277
 21
-169.8244
 31
0.0
  0
LINE
  5
47D
100
AcDbEntity
  8
1
  6
CONTINUOUS
 62
     3
100
AcDbLine
 10
374.6277
 20
-175.6185
 30
0.0
 11
377.0277
 21
-173.2185
 31
0.0
  0
LINE
  5
47E
100
AcDbEntity
  8
1
  6
CONTINUOUS
 62
     3
100
AcDbLine
 10
374.6277
 20
-179.0126
 30
0.0
 11
377.0277
 21
-176.6126
 31
0.0
  0
LINE
  5
47F
100
AcDbEntity
  8
1
  6
CONTINUOUS
 62
     3
100
AcDbLine
 10
374.6277
 20
-182.4067
 30
0.0
 11
377.0277
 21
-180.0067
 31
0.0
  0
LINE
  5
480
100
AcDbEntity
  8
1
  6
CONTINUOUS
 62
     3
100
AcDbLine
 10
374.6277
 20
-185.8008
 30
0.0
 11
377.0277
 21
-183.4008
 31
0.0
  0
LINE
  5
481
100
AcDbEntity
  8
1
  6
CONTINUOUS
 62
     3
100
AcDbLine
 10
374.6277
 20
-189.195
 30
0.0
 11
377.0277
 21
-186.795
 31
0.0
  0
LINE
  5
482
100
AcDbEntity
  8
1
  6
CONTINUOUS
 62
     3
100
AcDbLine
 10
374.6277
 20
-192.5891
 30
0.0
 11
377.0277
 21
-190.1891
 31
0.0
  0
LINE
  5
483
100
AcDbEntity
  8
1
  6
CONTINUOUS
 62
     3
100
AcDbLine
 10
374.6277
 20
-195.9832
 30
0.0
 11
377.0277
 21
-193.5832
 31
0.0
  0
LINE
  5
484
100
AcDbEntity
  8
1
  6
CONTINUOUS
 62
     3
100
AcDbLine
 10
374.6277
 20
-199.3773
 30
0.0
 11
377.0277
 21
-196.9773
 31
0.0
  0
LINE
  5
485
100
AcDbEntity
  8
1
  6
CONTINUOUS
 62
     3
100
AcDbLine
 10
374.6277
 20
-202.7714
 30
0.0
 11
377.0277
 21
-200.3714
 31
0.0
  0
LINE
  5
486
100
AcDbEntity
  8
1
  6
CONTINUOUS
 62
     3
100
AcDbLine
 10
374.6277
 20
-206.1655
 30
0.0
 11
377.0277
 21
-203.7655
 31
0.0
  0
LINE
  5
487
100
AcDbEntity
  8
1
  6
CONTINUOUS
 62
     3
100
AcDbLine
 10
374.6277
 20
-209.5596
 30
0.0
 11
377.0277
 21
-207.1596
 31
0.0
  0
LINE
  5
488
100
AcDbEntity
  8
1
  6
CONTINUOUS
 62
     3
100
AcDbLine
 10
374.6277
 20
-212.9537
 30
0.0
 11
377.0277
 21
-210.5537
 31
0.0
  0
LINE
  5
489
100
AcDbEntity
  8
1
  6
CONTINUOUS
 62
     3
100
AcDbLine
 10
374.6277
 20
-216.3479
 30
0.0
 11
377.0277
 21
-213.9479
 31
0.0
  0
LINE
  5
48A
100
AcDbEntity
  8
1
  6
CONTINUOUS
 62
     3
100
AcDbLine
 10
374.6277
 20
-219.742
 30
0.0
 11
377.0277
 21
-217.342
 31
0.0
  0
LINE
  5
48B
100
AcDbEntity
  8
1
  6
CONTINUOUS
 62
     3
100
AcDbLine
 10
374.6277
 20
-223.1361
 30
0.0
 11
377.0277
 21
-220.7361
 31
0.0
  0
LINE
  5
48C
100
AcDbEntity
  8
1
  6
CONTINUOUS
 62
     3
100
AcDbLine
 10
374.6277
 20
-226.5302
 30
0.0
 11
377.0277
 21
-224.1302
 31
0.0
  0
LINE
  5
48D
100
AcDbEntity
  8
1
  6
CONTINUOUS
 62
     3
100
AcDbLine
 10
374.6277
 20
-229.9243
 30
0.0
 11
377.0277
 21
-227.5243
 31
0.0
  0
LINE
  5
48E
100
AcDbEntity
  8
1
  6
CONTINUOUS
 62
     3
100
AcDbLine
 10
374.6277
 20
-233.3184
 30
0.0
 11
377.0277
 21
-230.9184
 31
0.0
  0
LINE
  5
48F
100
AcDbEntity
  8
1
  6
CONTINUOUS
 62
     3
100
AcDbLine
 10
374.6277
 20
-236.7125
 30
0.0
 11
377.0277
 21
-234.3125
 31
0.0
  0
LINE
  5
490
100
AcDbEntity
  8
1
  6
CONTINUOUS
 62
     3
100
AcDbLine
 10
374.6277
 20
-240.1067
 30
0.0
 11
377.0277
 21
-237.7067
 31
0.0
  0
LINE
  5
491
100
AcDbEntity
  8
1
  6
CONTINUOUS
 62
     3
100
AcDbLine
 10
374.6277
 20
-243.5008
 30
0.0
 11
377.0277
 21
-241.1008
 31
0.0
  0
LINE
  5
492
100
AcDbEntity
  8
1
  6
CONTINUOUS
 62
     3
100
AcDbLine
 10
374.6277
 20
-246.8949
 30
0.0
 11
377.0277
 21
-244.4949
 31
0.0
  0
LINE
  5
493
100
AcDbEntity
  8
1
  6
CONTINUOUS
 62
     3
100
AcDbLine
 10
374.6277
 20
-250.289
 30
0.0
 11
377.0277
 21
-247.889
 31
0.0
  0
LINE
  5
494
100
AcDbEntity
  8
1
  6
CONTINUOUS
 62
     3
100
AcDbLine
 10
374.6277
 20
-253.6831
 30
0.0
 11
377.0277
 21
-251.2831
 31
0.0
  0
LINE
  5
495
100
AcDbEntity
  8
1
  6
CONTINUOUS
 62
     3
100
AcDbLine
 10
375.4215
 20
-256.2834
 30
0.0
 11
375.8277
 21
-255.8772
 31
0.0
  0
LINE
  5
496
100
AcDbEntity
  8
1
  6
CONTINUOUS
 62
     3
100
AcDbLine
 10
376.2215
 20
-255.4834
 30
0.0
 11
377.0277
 21
-254.6772
 31
0.0
  0
LINE
  5
497
100
AcDbEntity
  8
1
  6
CONTINUOUS
 62
     3
100
AcDbLine
 10
375.8277
 20
-255.3404
 30
0.0
 11
374.6277
 21
-254.1404
 31
0.0
  0
LINE
  5
498
100
AcDbEntity
  8
1
  6
CONTINUOUS
 62
     3
100
AcDbLine
 10
377.0277
 20
-253.1463
 30
0.0
 11
374.6277
 21
-250.7463
 31
0.0
  0
LINE
  5
499
100
AcDbEntity
  8
1
  6
CONTINUOUS
 62
     3
100
AcDbLine
 10
377.0277
 20
-249.7522
 30
0.0
 11
374.6277
 21
-247.3522
 31
0.0
  0
LINE
  5
49A
100
AcDbEntity
  8
1
  6
CONTINUOUS
 62
     3
100
AcDbLine
 10
377.0277
 20
-246.3581
 30
0.0
 11
374.6277
 21
-243.9581
 31
0.0
  0
LINE
  5
49B
100
AcDbEntity
  8
1
  6
CONTINUOUS
 62
     3
100
AcDbLine
 10
377.0277
 20
-242.964
 30
0.0
 11
374.6277
 21
-240.564
 31
0.0
  0
LINE
  5
49C
100
AcDbEntity
  8
1
  6
CONTINUOUS
 62
     3
100
AcDbLine
 10
377.0277
 20
-239.5699
 30
0.0
 11
374.6277
 21
-237.1699
 31
0.0
  0
LINE
  5
49D
100
AcDbEntity
  8
1
  6
CONTINUOUS
 62
     3
100
AcDbLine
 10
377.0277
 20
-236.1757
 30
0.0
 11
374.6277
 21
-233.7757
 31
0.0
  0
LINE
  5
49E
100
AcDbEntity
  8
1
  6
CONTINUOUS
 62
     3
100
AcDbLine
 10
377.0277
 20
-232.7816
 30
0.0
 11
374.6277
 21
-230.3816
 31
0.0
  0
LINE
  5
49F
100
AcDbEntity
  8
1
  6
CONTINUOUS
 62
     3
100
AcDbLine
 10
377.0277
 20
-229.3875
 30
0.0
 11
374.6277
 21
-226.9875
 31
0.0
  0
LINE
  5
4A0
100
AcDbEntity
  8
1
  6
CONTINUOUS
 62
     3
100
AcDbLine
 10
377.0277
 20
-225.9934
 30
0.0
 11
374.6277
 21
-223.5934
 31
0.0
  0
LINE
  5
4A1
100
AcDbEntity
  8
1
  6
CONTINUOUS
 62
     3
100
AcDbLine
 10
377.0277
 20
-222.5993
 30
0.0
 11
374.6277
 21
-220.1993
 31
0.0
  0
LINE
  5
4A2
100
AcDbEntity
  8
1
  6
CONTINUOUS
 62
     3
100
AcDbLine
 10
377.0277
 20
-219.2052
 30
0.0
 11
374.6277
 21
-216.8052
 31
0.0
  0
LINE
  5
4A3
100
AcDbEntity
  8
1
  6
CONTINUOUS
 62
     3
100
AcDbLine
 10
377.0277
 20
-215.8111
 30
0.0
 11
374.6277
 21
-213.4111
 31
0.0
  0
LINE
  5
4A4
100
AcDbEntity
  8
1
  6
CONTINUOUS
 62
     3
100
AcDbLine
 10
377.0277
 20
-212.417
 30
0.0
 11
374.6277
 21
-210.017
 31
0.0
  0
LINE
  5
4A5
100
AcDbEntity
  8
1
  6
CONTINUOUS
 62
     3
100
AcDbLine
 10
377.0277
 20
-209.0228
 30
0.0
 11
374.6277
 21
-206.6228
 31
0.0
  0
LINE
  5
4A6
100
AcDbEntity
  8
1
  6
CONTINUOUS
 62
     3
100
AcDbLine
 10
377.0277
 20
-205.6287
 30
0.0
 11
374.6277
 21
-203.2287
 31
0.0
  0
LINE
  5
4A7
100
AcDbEntity
  8
1
  6
CONTINUOUS
 62
     3
100
AcDbLine
 10
377.0277
 20
-202.2346
 30
0.0
 11
374.6277
 21
-199.8346
 31
0.0
  0
LINE
  5
4A8
100
AcDbEntity
  8
1
  6
CONTINUOUS
 62
     3
100
AcDbLine
 10
377.0277
 20
-198.8405
 30
0.0
 11
374.6277
 21
-196.4405
 31
0.0
  0
LINE
  5
4A9
100
AcDbEntity
  8
1
  6
CONTINUOUS
 62
     3
100
AcDbLine
 10
377.0277
 20
-195.4464
 30
0.0
 11
374.6277
 21
-193.0464
 31
0.0
  0
LINE
  5
4AA
100
AcDbEntity
  8
1
  6
CONTINUOUS
 62
     3
100
AcDbLine
 10
377.0277
 20
-192.0523
 30
0.0
 11
374.6277
 21
-189.6523
 31
0.0
  0
LINE
  5
4AB
100
AcDbEntity
  8
1
  6
CONTINUOUS
 62
     3
100
AcDbLine
 10
377.0277
 20
-188.6582
 30
0.0
 11
374.6277
 21
-186.2582
 31
0.0
  0
LINE
  5
4AC
100
AcDbEntity
  8
1
  6
CONTINUOUS
 62
     3
100
AcDbLine
 10
377.0277
 20
-185.2641
 30
0.0
 11
374.6277
 21
-182.8641
 31
0.0
  0
LINE
  5
4AD
100
AcDbEntity
  8
1
  6
CONTINUOUS
 62
     3
100
AcDbLine
 10
377.0277
 20
-181.8699
 30
0.0
 11
374.6277
 21
-179.4699
 31
0.0
  0
LINE
  5
4AE
100
AcDbEntity
  8
1
  6
CONTINUOUS
 62
     3
100
AcDbLine
 10
377.0277
 20
-178.4758
 30
0.0
 11
374.6277
 21
-176.0758
 31
0.0
  0
LINE
  5
4AF
100
AcDbEntity
  8
1
  6
CONTINUOUS
 62
     3
100
AcDbLine
 10
377.0277
 20
-175.0817
 30
0.0
 11
374.6277
 21
-172.6817
 31
0.0
  0
LINE
  5
4B0
100
AcDbEntity
  8
1
  6
CONTINUOUS
 62
     3
100
AcDbLine
 10
377.0277
 20
-171.6876
 30
0.0
 11
374.6277
 21
-169.2876
 31
0.0
  0
LINE
  5
4B1
100
AcDbEntity
  8
1
  6
CONTINUOUS
 62
     3
100
AcDbLine
 10
377.0277
 20
-168.2935
 30
0.0
 11
374.6277
 21
-165.8935
 31
0.0
  0
LINE
  5
4B2
100
AcDbEntity
  8
1
  6
CONTINUOUS
 62
     3
100
AcDbLine
 10
377.0277
 20
-164.8994
 30
0.0
 11
374.6277
 21
-162.4994
 31
0.0
  0
LINE
  5
4B3
100
AcDbEntity
  8
1
  6
CONTINUOUS
 62
     3
100
AcDbLine
 10
377.0277
 20
-161.5053
 30
0.0
 11
374.6277
 21
-159.1053
 31
0.0
  0
LINE
  5
4B4
100
AcDbEntity
  8
1
  6
CONTINUOUS
 62
     3
100
AcDbLine
 10
377.0277
 20
-158.1112
 30
0.0
 11
374.6277
 21
-155.7112
 31
0.0
  0
LINE
  5
4B5
100
AcDbEntity
  8
1
  6
CONTINUOUS
 62
     3
100
AcDbLine
 10
377.0277
 20
-154.717
 30
0.0
 11
374.6277
 21
-152.317
 31
0.0
  0
LINE
  5
4B6
100
AcDbEntity
  8
1
  6
CONTINUOUS
 62
     3
100
AcDbLine
 10
447.8277
 20
-152.0958
 30
0.0
 11
446.6277
 21
-152.0958
 31
0.0
  0
LINE
  5
4B7
100
AcDbEntity
  8
1
  6
CONTINUOUS
 62
     3
100
AcDbLine
 10
451.4277
 20
-152.0958
 30
0.0
 11
450.2277
 21
-152.0958
 31
0.0
  0
LINE
  5
4B8
100
AcDbEntity
  8
1
  6
CONTINUOUS
 62
     3
100
AcDbLine
 10
447.8277
 20
-255.8958
 30
0.0
 11
446.6277
 21
-255.8958
 31
0.0
  0
POLYLINE
  5
4B9
100
AcDbEntity
  8
1
  6
CONTINUOUS
 62
     3
100
AcDb2dPolyline
 66
     1
 10
0.0
 20
0.0
 30
0.0
 70
     1
  0
VERTEX
  5
4BA
100
AcDbEntity
  8
1
  6
CONTINUOUS
 62
     3
100
AcDbVertex
100
AcDb2dVertex
 10
447.8277
 20
-255.8958
 30
0.0
  0
VERTEX
  5
4BB
100
AcDbEntity
  8
1
  6
CONTINUOUS
 62
     3
100
AcDbVertex
100
AcDb2dVertex
 10
447.8277
 20
-152.0958
 30
0.0
  0
VERTEX
  5
4BC
100
AcDbEntity
  8
1
  6
CONTINUOUS
 62
     3
100
AcDbVertex
100
AcDb2dVertex
 10
448.4277
 20
-152.0958
 30
0.0
  0
VERTEX
  5
4BD
100
AcDbEntity
  8
1
  6
CONTINUOUS
 62
     3
100
AcDbVertex
100
AcDb2dVertex
 10
449.0277
 20
-153.2958
 30
0.0
  0
VERTEX
  5
4BE
100
AcDbEntity
  8
1
  6
CONTINUOUS
 62
     3
100
AcDbVertex
100
AcDb2dVertex
 10
449.0277
 20
-150.8958
 30
0.0
  0
VERTEX
  5
4BF
100
AcDbEntity
  8
1
  6
CONTINUOUS
 62
     3
100
AcDbVertex
100
AcDb2dVertex
 10
449.6277
 20
-152.0958
 30
0.0
  0
VERTEX
  5
4C0
100
AcDbEntity
  8
1
  6
CONTINUOUS
 62
     3
100
AcDbVertex
100
AcDb2dVertex
 10
450.2277
 20
-152.0958
 30
0.0
  0
VERTEX
  5
4C1
100
AcDbEntity
  8
1
  6
CONTINUOUS
 62
     3
100
AcDbVertex
100
AcDb2dVertex
 10
450.2277
 20
-255.8958
 30
0.0
  0
VERTEX
  5
4C2
100
AcDbEntity
  8
1
  6
CONTINUOUS
 62
     3
100
AcDbVertex
100
AcDb2dVertex
 10
451.4277
 20
-255.8958
 30
0.0
  0
VERTEX
  5
4C3
100
AcDbEntity
  8
1
  6
CONTINUOUS
 62
     3
100
AcDbVertex
100
AcDb2dVertex
 10
447.8277
 20
-255.8958
 30
0.0
  0
SEQEND
  5
4C4
100
AcDbEntity
  8
1
  6
CONTINUOUS
 62
     3
  0
POLYLINE
  5
4C5
100
AcDbEntity
  8
1
  6
CONTINUOUS
 62
     3
100
AcDb2dPolyline
 66
     1
 10
0.0
 20
0.0
 30
0.0
 70
     1
  0
VERTEX
  5
4C6
100
AcDbEntity
  8
1
  6
CONTINUOUS
 62
     3
100
AcDbVertex
100
AcDb2dVertex
 10
447.8277
 20
-255.8958
 30
0.0
  0
VERTEX
  5
4C7
100
AcDbEntity
  8
1
  6
CONTINUOUS
 62
     3
100
AcDbVertex
100
AcDb2dVertex
 10
447.8277
 20
-152.0958
 30
0.0
  0
VERTEX
  5
4C8
100
AcDbEntity
  8
1
  6
CONTINUOUS
 62
     3
100
AcDbVertex
100
AcDb2dVertex
 10
448.4277
 20
-152.0958
 30
0.0
  0
VERTEX
  5
4C9
100
AcDbEntity
  8
1
  6
CONTINUOUS
 62
     3
100
AcDbVertex
100
AcDb2dVertex
 10
449.0277
 20
-153.2958
 30
0.0
  0
VERTEX
  5
4CA
100
AcDbEntity
  8
1
  6
CONTINUOUS
 62
     3
100
AcDbVertex
100
AcDb2dVertex
 10
449.0277
 20
-150.8958
 30
0.0
  0
VERTEX
  5
4CB
100
AcDbEntity
  8
1
  6
CONTINUOUS
 62
     3
100
AcDbVertex
100
AcDb2dVertex
 10
449.6277
 20
-152.0958
 30
0.0
  0
VERTEX
  5
4CC
100
AcDbEntity
  8
1
  6
CONTINUOUS
 62
     3
100
AcDbVertex
100
AcDb2dVertex
 10
450.2277
 20
-152.0958
 30
0.0
  0
VERTEX
  5
4CD
100
AcDbEntity
  8
1
  6
CONTINUOUS
 62
     3
100
AcDbVertex
100
AcDb2dVertex
 10
450.2277
 20
-255.8958
 30
0.0
  0
VERTEX
  5
4CE
100
AcDbEntity
  8
1
  6
CONTINUOUS
 62
     3
100
AcDbVertex
100
AcDb2dVertex
 10
449.6277
 20
-255.8958
 30
0.0
  0
VERTEX
  5
4CF
100
AcDbEntity
  8
1
  6
CONTINUOUS
 62
     3
100
AcDbVertex
100
AcDb2dVertex
 10
449.0277
 20
-257.0958
 30
0.0
  0
VERTEX
  5
4D0
100
AcDbEntity
  8
1
  6
CONTINUOUS
 62
     3
100
AcDbVertex
100
AcDb2dVertex
 10
449.0277
 20
-254.6958
 30
0.0
  0
VERTEX
  5
4D1
100
AcDbEntity
  8
1
  6
CONTINUOUS
 62
     3
100
AcDbVertex
100
AcDb2dVertex
 10
448.4277
 20
-255.8958
 30
0.0
  0
VERTEX
  5
4D2
100
AcDbEntity
  8
1
  6
CONTINUOUS
 62
     3
100
AcDbVertex
100
AcDb2dVertex
 10
447.8277
 20
-255.8958
 30
0.0
  0
SEQEND
  5
4D3
100
AcDbEntity
  8
1
  6
CONTINUOUS
 62
     3
  0
LINE
  5
4D4
100
AcDbEntity
  8
1
  6
CONTINUOUS
 62
     3
100
AcDbLine
 10
447.8277
 20
-152.2999
 30
0.0
 11
448.0318
 21
-152.0958
 31
0.0
  0
LINE
  5
4D5
100
AcDbEntity
  8
1
  6
CONTINUOUS
 62
     3
100
AcDbLine
 10
449.0277
 20
-151.0999
 30
0.0
 11
449.0957
 21
-151.0319
 31
0.0
  0
LINE
  5
4D6
100
AcDbEntity
  8
1
  6
CONTINUOUS
 62
     3
100
AcDbLine
 10
447.8277
 20
-155.694
 30
0.0
 11
450.2277
 21
-153.294
 31
0.0
  0
LINE
  5
4D7
100
AcDbEntity
  8
1
  6
CONTINUOUS
 62
     3
100
AcDbLine
 10
447.8277
 20
-159.0881
 30
0.0
 11
450.2277
 21
-156.6881
 31
0.0
  0
LINE
  5
4D8
100
AcDbEntity
  8
1
  6
CONTINUOUS
 62
     3
100
AcDbLine
 10
447.8277
 20
-162.4822
 30
0.0
 11
450.2277
 21
-160.0822
 31
0.0
  0
LINE
  5
4D9
100
AcDbEntity
  8
1
  6
CONTINUOUS
 62
     3
100
AcDbLine
 10
447.8277
 20
-165.8764
 30
0.0
 11
450.2277
 21
-163.4764
 31
0.0
  0
LINE
  5
4DA
100
AcDbEntity
  8
1
  6
CONTINUOUS
 62
     3
100
AcDbLine
 10
447.8277
 20
-169.2705
 30
0.0
 11
450.2277
 21
-166.8705
 31
0.0
  0
LINE
  5
4DB
100
AcDbEntity
  8
1
  6
CONTINUOUS
 62
     3
100
AcDbLine
 10
447.8277
 20
-172.6646
 30
0.0
 11
450.2277
 21
-170.2646
 31
0.0
  0
LINE
  5
4DC
100
AcDbEntity
  8
1
  6
CONTINUOUS
 62
     3
100
AcDbLine
 10
447.8277
 20
-176.0587
 30
0.0
 11
450.2277
 21
-173.6587
 31
0.0
  0
LINE
  5
4DD
100
AcDbEntity
  8
1
  6
CONTINUOUS
 62
     3
100
AcDbLine
 10
447.8277
 20
-179.4528
 30
0.0
 11
450.2277
 21
-177.0528
 31
0.0
  0
LINE
  5
4DE
100
AcDbEntity
  8
1
  6
CONTINUOUS
 62
     3
100
AcDbLine
 10
447.8277
 20
-182.8469
 30
0.0
 11
450.2277
 21
-180.4469
 31
0.0
  0
LINE
  5
4DF
100
AcDbEntity
  8
1
  6
CONTINUOUS
 62
     3
100
AcDbLine
 10
447.8277
 20
-186.241
 30
0.0
 11
450.2277
 21
-183.841
 31
0.0
  0
LINE
  5
4E0
100
AcDbEntity
  8
1
  6
CONTINUOUS
 62
     3
100
AcDbLine
 10
447.8277
 20
-189.6351
 30
0.0
 11
450.2277
 21
-187.2351
 31
0.0
  0
LINE
  5
4E1
100
AcDbEntity
  8
1
  6
CONTINUOUS
 62
     3
100
AcDbLine
 10
447.8277
 20
-193.0293
 30
0.0
 11
450.2277
 21
-190.6293
 31
0.0
  0
LINE
  5
4E2
100
AcDbEntity
  8
1
  6
CONTINUOUS
 62
     3
100
AcDbLine
 10
447.8277
 20
-196.4234
 30
0.0
 11
450.2277
 21
-194.0234
 31
0.0
  0
LINE
  5
4E3
100
AcDbEntity
  8
1
  6
CONTINUOUS
 62
     3
100
AcDbLine
 10
447.8277
 20
-199.8175
 30
0.0
 11
450.2277
 21
-197.4175
 31
0.0
  0
LINE
  5
4E4
100
AcDbEntity
  8
1
  6
CONTINUOUS
 62
     3
100
AcDbLine
 10
447.8277
 20
-203.2116
 30
0.0
 11
450.2277
 21
-200.8116
 31
0.0
  0
LINE
  5
4E5
100
AcDbEntity
  8
1
  6
CONTINUOUS
 62
     3
100
AcDbLine
 10
447.8277
 20
-206.6057
 30
0.0
 11
450.2277
 21
-204.2057
 31
0.0
  0
LINE
  5
4E6
100
AcDbEntity
  8
1
  6
CONTINUOUS
 62
     3
100
AcDbLine
 10
447.8277
 20
-209.9998
 30
0.0
 11
450.2277
 21
-207.5998
 31
0.0
  0
LINE
  5
4E7
100
AcDbEntity
  8
1
  6
CONTINUOUS
 62
     3
100
AcDbLine
 10
447.8277
 20
-213.3939
 30
0.0
 11
450.2277
 21
-210.9939
 31
0.0
  0
LINE
  5
4E8
100
AcDbEntity
  8
1
  6
CONTINUOUS
 62
     3
100
AcDbLine
 10
447.8277
 20
-216.788
 30
0.0
 11
450.2277
 21
-214.388
 31
0.0
  0
LINE
  5
4E9
100
AcDbEntity
  8
1
  6
CONTINUOUS
 62
     3
100
AcDbLine
 10
447.8277
 20
-220.1822
 30
0.0
 11
450.2277
 21
-217.7822
 31
0.0
  0
LINE
  5
4EA
100
AcDbEntity
  8
1
  6
CONTINUOUS
 62
     3
100
AcDbLine
 10
447.8277
 20
-223.5763
 30
0.0
 11
450.2277
 21
-221.1763
 31
0.0
  0
LINE
  5
4EB
100
AcDbEntity
  8
1
  6
CONTINUOUS
 62
     3
100
AcDbLine
 10
447.8277
 20
-226.9704
 30
0.0
 11
450.2277
 21
-224.5704
 31
0.0
  0
LINE
  5
4EC
100
AcDbEntity
  8
1
  6
CONTINUOUS
 62
     3
100
AcDbLine
 10
447.8277
 20
-230.3645
 30
0.0
 11
450.2277
 21
-227.9645
 31
0.0
  0
LINE
  5
4ED
100
AcDbEntity
  8
1
  6
CONTINUOUS
 62
     3
100
AcDbLine
 10
447.8277
 20
-233.7586
 30
0.0
 11
450.2277
 21
-231.3586
 31
0.0
  0
LINE
  5
4EE
100
AcDbEntity
  8
1
  6
CONTINUOUS
 62
     3
100
AcDbLine
 10
447.8277
 20
-237.1527
 30
0.0
 11
450.2277
 21
-234.7527
 31
0.0
  0
LINE
  5
4EF
100
AcDbEntity
  8
1
  6
CONTINUOUS
 62
     3
100
AcDbLine
 10
447.8277
 20
-240.5468
 30
0.0
 11
450.2277
 21
-238.1468
 31
0.0
  0
LINE
  5
4F0
100
AcDbEntity
  8
1
  6
CONTINUOUS
 62
     3
100
AcDbLine
 10
447.8277
 20
-243.941
 30
0.0
 11
450.2277
 21
-241.541
 31
0.0
  0
LINE
  5
4F1
100
AcDbEntity
  8
1
  6
CONTINUOUS
 62
     3
100
AcDbLine
 10
447.8277
 20
-247.3351
 30
0.0
 11
450.2277
 21
-244.9351
 31
0.0
  0
LINE
  5
4F2
100
AcDbEntity
  8
1
  6
CONTINUOUS
 62
     3
100
AcDbLine
 10
447.8277
 20
-250.7292
 30
0.0
 11
450.2277
 21
-248.3292
 31
0.0
  0
LINE
  5
4F3
100
AcDbEntity
  8
1
  6
CONTINUOUS
 62
     3
100
AcDbLine
 10
447.8277
 20
-254.1233
 30
0.0
 11
450.2277
 21
-251.7233
 31
0.0
  0
LINE
  5
4F4
100
AcDbEntity
  8
1
  6
CONTINUOUS
 62
     3
100
AcDbLine
 10
449.4493
 20
-255.8958
 30
0.0
 11
450.2277
 21
-255.1174
 31
0.0
  0
LINE
  5
4F5
100
AcDbEntity
  8
1
  6
CONTINUOUS
 62
     3
100
AcDbLine
 10
448.5274
 20
-255.8958
 30
0.0
 11
447.8277
 21
-255.1961
 31
0.0
  0
LINE
  5
4F6
100
AcDbEntity
  8
1
  6
CONTINUOUS
 62
     3
100
AcDbLine
 10
450.2277
 20
-254.2019
 30
0.0
 11
447.8277
 21
-251.8019
 31
0.0
  0
LINE
  5
4F7
100
AcDbEntity
  8
1
  6
CONTINUOUS
 62
     3
100
AcDbLine
 10
450.2277
 20
-250.8078
 30
0.0
 11
447.8277
 21
-248.4078
 31
0.0
  0
LINE
  5
4F8
100
AcDbEntity
  8
1
  6
CONTINUOUS
 62
     3
100
AcDbLine
 10
450.2277
 20
-247.4137
 30
0.0
 11
447.8277
 21
-245.0137
 31
0.0
  0
LINE
  5
4F9
100
AcDbEntity
  8
1
  6
CONTINUOUS
 62
     3
100
AcDbLine
 10
450.2277
 20
-244.0196
 30
0.0
 11
447.8277
 21
-241.6196
 31
0.0
  0
LINE
  5
4FA
100
AcDbEntity
  8
1
  6
CONTINUOUS
 62
     3
100
AcDbLine
 10
450.2277
 20
-240.6255
 30
0.0
 11
447.8277
 21
-238.2255
 31
0.0
  0
LINE
  5
4FB
100
AcDbEntity
  8
1
  6
CONTINUOUS
 62
     3
100
AcDbLine
 10
450.2277
 20
-237.2314
 30
0.0
 11
447.8277
 21
-234.8314
 31
0.0
  0
LINE
  5
4FC
100
AcDbEntity
  8
1
  6
CONTINUOUS
 62
     3
100
AcDbLine
 10
450.2277
 20
-233.8373
 30
0.0
 11
447.8277
 21
-231.4373
 31
0.0
  0
LINE
  5
4FD
100
AcDbEntity
  8
1
  6
CONTINUOUS
 62
     3
100
AcDbLine
 10
450.2277
 20
-230.4432
 30
0.0
 11
447.8277
 21
-228.0432
 31
0.0
  0
LINE
  5
4FE
100
AcDbEntity
  8
1
  6
CONTINUOUS
 62
     3
100
AcDbLine
 10
450.2277
 20
-227.049
 30
0.0
 11
447.8277
 21
-224.649
 31
0.0
  0
LINE
  5
4FF
100
AcDbEntity
  8
1
  6
CONTINUOUS
 62
     3
100
AcDbLine
 10
450.2277
 20
-223.6549
 30
0.0
 11
447.8277
 21
-221.2549
 31
0.0
  0
LINE
  5
500
100
AcDbEntity
  8
1
  6
CONTINUOUS
 62
     3
100
AcDbLine
 10
450.2277
 20
-220.2608
 30
0.0
 11
447.8277
 21
-217.8608
 31
0.0
  0
LINE
  5
501
100
AcDbEntity
  8
1
  6
CONTINUOUS
 62
     3
100
AcDbLine
 10
450.2277
 20
-216.8667
 30
0.0
 11
447.8277
 21
-214.4667
 31
0.0
  0
LINE
  5
502
100
AcDbEntity
  8
1
  6
CONTINUOUS
 62
     3
100
AcDbLine
 10
450.2277
 20
-213.4726
 30
0.0
 11
447.8277
 21
-211.0726
 31
0.0
  0
LINE
  5
503
100
AcDbEntity
  8
1
  6
CONTINUOUS
 62
     3
100
AcDbLine
 10
450.2277
 20
-210.0785
 30
0.0
 11
447.8277
 21
-207.6785
 31
0.0
  0
LINE
  5
504
100
AcDbEntity
  8
1
  6
CONTINUOUS
 62
     3
100
AcDbLine
 10
450.2277
 20
-206.6844
 30
0.0
 11
447.8277
 21
-204.2844
 31
0.0
  0
LINE
  5
505
100
AcDbEntity
  8
1
  6
CONTINUOUS
 62
     3
100
AcDbLine
 10
450.2277
 20
-203.2902
 30
0.0
 11
447.8277
 21
-200.8902
 31
0.0
  0
LINE
  5
506
100
AcDbEntity
  8
1
  6
CONTINUOUS
 62
     3
100
AcDbLine
 10
450.2277
 20
-199.8961
 30
0.0
 11
447.8277
 21
-197.4961
 31
0.0
  0
LINE
  5
507
100
AcDbEntity
  8
1
  6
CONTINUOUS
 62
     3
100
AcDbLine
 10
450.2277
 20
-196.502
 30
0.0
 11
447.8277
 21
-194.102
 31
0.0
  0
LINE
  5
508
100
AcDbEntity
  8
1
  6
CONTINUOUS
 62
     3
100
AcDbLine
 10
450.2277
 20
-193.1079
 30
0.0
 11
447.8277
 21
-190.7079
 31
0.0
  0
LINE
  5
509
100
AcDbEntity
  8
1
  6
CONTINUOUS
 62
     3
100
AcDbLine
 10
450.2277
 20
-189.7138
 30
0.0
 11
447.8277
 21
-187.3138
 31
0.0
  0
LINE
  5
50A
100
AcDbEntity
  8
1
  6
CONTINUOUS
 62
     3
100
AcDbLine
 10
450.2277
 20
-186.3197
 30
0.0
 11
447.8277
 21
-183.9197
 31
0.0
  0
LINE
  5
50B
100
AcDbEntity
  8
1
  6
CONTINUOUS
 62
     3
100
AcDbLine
 10
450.2277
 20
-182.9256
 30
0.0
 11
447.8277
 21
-180.5256
 31
0.0
  0
LINE
  5
50C
100
AcDbEntity
  8
1
  6
CONTINUOUS
 62
     3
100
AcDbLine
 10
450.2277
 20
-179.5315
 30
0.0
 11
447.8277
 21
-177.1315
 31
0.0
  0
LINE
  5
50D
100
AcDbEntity
  8
1
  6
CONTINUOUS
 62
     3
100
AcDbLine
 10
450.2277
 20
-176.1373
 30
0.0
 11
447.8277
 21
-173.7373
 31
0.0
  0
LINE
  5
50E
100
AcDbEntity
  8
1
  6
CONTINUOUS
 62
     3
100
AcDbLine
 10
450.2277
 20
-172.7432
 30
0.0
 11
447.8277
 21
-170.3432
 31
0.0
  0
LINE
  5
50F
100
AcDbEntity
  8
1
  6
CONTINUOUS
 62
     3
100
AcDbLine
 10
450.2277
 20
-169.3491
 30
0.0
 11
447.8277
 21
-166.9491
 31
0.0
  0
LINE
  5
510
100
AcDbEntity
  8
1
  6
CONTINUOUS
 62
     3
100
AcDbLine
 10
450.2277
 20
-165.955
 30
0.0
 11
447.8277
 21
-163.555
 31
0.0
  0
LINE
  5
511
100
AcDbEntity
  8
1
  6
CONTINUOUS
 62
     3
100
AcDbLine
 10
450.2277
 20
-162.5609
 30
0.0
 11
447.8277
 21
-160.1609
 31
0.0
  0
LINE
  5
512
100
AcDbEntity
  8
1
  6
CONTINUOUS
 62
     3
100
AcDbLine
 10
450.2277
 20
-159.1668
 30
0.0
 11
447.8277
 21
-156.7668
 31
0.0
  0
LINE
  5
513
100
AcDbEntity
  8
1
  6
CONTINUOUS
 62
     3
100
AcDbLine
 10
450.2277
 20
-155.7727
 30
0.0
 11
447.8277
 21
-153.3727
 31
0.0
  0
LINE
  5
514
100
AcDbEntity
  8
1
  6
CONTINUOUS
 62
     3
100
AcDbLine
 10
450.2277
 20
-152.3786
 30
0.0
 11
449.9449
 21
-152.0958
 31
0.0
  0
LINE
  5
515
100
AcDbEntity
  8
1
  6
CONTINUOUS
 62
     3
100
AcDbLine
 10
449.3105
 20
-151.4613
 30
0.0
 11
449.0277
 21
-151.1786
 31
0.0
  0
POLYLINE
  5
516
100
AcDbEntity
  8
1
  6
CONTINUOUS
 62
     3
100
AcDb2dPolyline
 66
     1
 10
0.0
 20
0.0
 30
0.0
 70
     1
  0
VERTEX
  5
517
100
AcDbEntity
  8
1
  6
CONTINUOUS
 62
     3
100
AcDbVertex
100
AcDb2dVertex
 10
386.6958
 20
-216.6076
 30
0.0
  0
VERTEX
  5
518
100
AcDbEntity
  8
1
  6
CONTINUOUS
 62
     3
100
AcDbVertex
100
AcDb2dVertex
 10
386.6958
 20
-191.384
 30
0.0
  0
VERTEX
  5
519
100
AcDbEntity
  8
1
  6
CONTINUOUS
 62
     3
100
AcDbVertex
100
AcDb2dVertex
 10
411.8958
 20
-191.384
 30
0.0
  0
VERTEX
  5
51A
100
AcDbEntity
  8
1
  6
CONTINUOUS
 62
     3
100
AcDbVertex
100
AcDb2dVertex
 10
411.8958
 20
-216.6076
 30
0.0
  0
VERTEX
  5
51B
100
AcDbEntity
  8
1
  6
CONTINUOUS
 62
     3
100
AcDbVertex
100
AcDb2dVertex
 10
386.6958
 20
-216.6076
 30
0.0
  0
SEQEND
  5
51C
100
AcDbEntity
  8
1
  6
CONTINUOUS
 62
     3
  0
LINE
  5
51D
100
AcDbEntity
  8
1
  6
CONTINUOUS
 62
     3
100
AcDbLine
 10
387.925
 20
-219.0076
 30
0.0
 11
384.2958
 21
-215.3784
 31
0.0
  0
LINE
  5
51E
100
AcDbEntity
  8
1
  6
CONTINUOUS
 62
     3
100
AcDbLine
 10
391.3191
 20
-219.0076
 30
0.0
 11
388.9191
 21
-216.6076
 31
0.0
  0
LINE
  5
51F
100
AcDbEntity
  8
1
  6
CONTINUOUS
 62
     3
100
AcDbLine
 10
386.6958
 20
-214.3843
 30
0.0
 11
384.2958
 21
-211.9843
 31
0.0
  0
LINE
  5
520
100
AcDbEntity
  8
1
  6
CONTINUOUS
 62
     3
100
AcDbLine
 10
394.7132
 20
-219.0076
 30
0.0
 11
392.3132
 21
-216.6076
 31
0.0
  0
LINE
  5
521
100
AcDbEntity
  8
1
  6
CONTINUOUS
 62
     3
100
AcDbLine
 10
386.6958
 20
-210.9902
 30
0.0
 11
384.2958
 21
-208.5902
 31
0.0
  0
LINE
  5
522
100
AcDbEntity
  8
1
  6
CONTINUOUS
 62
     3
100
AcDbLine
 10
398.1073
 20
-219.0076
 30
0.0
 11
395.7073
 21
-216.6076
 31
0.0
  0
LINE
  5
523
100
AcDbEntity
  8
1
  6
CONTINUOUS
 62
     3
100
AcDbLine
 10
386.6958
 20
-207.5961
 30
0.0
 11
384.2958
 21
-205.1961
 31
0.0
  0
LINE
  5
524
100
AcDbEntity
  8
1
  6
CONTINUOUS
 62
     3
100
AcDbLine
 10
401.5015
 20
-219.0076
 30
0.0
 11
399.1015
 21
-216.6076
 31
0.0
  0
LINE
  5
525
100
AcDbEntity
  8
1
  6
CONTINUOUS
 62
     3
100
AcDbLine
 10
386.6958
 20
-204.2019
 30
0.0
 11
384.2958
 21
-201.8019
 31
0.0
  0
LINE
  5
526
100
AcDbEntity
  8
1
  6
CONTINUOUS
 62
     3
100
AcDbLine
 10
404.8956
 20
-219.0076
 30
0.0
 11
402.4956
 21
-216.6076
 31
0.0
  0
LINE
  5
527
100
AcDbEntity
  8
1
  6
CONTINUOUS
 62
     3
100
AcDbLine
 10
386.6958
 20
-200.8078
 30
0.0
 11
384.2958
 21
-198.4078
 31
0.0
  0
LINE
  5
528
100
AcDbEntity
  8
1
  6
CONTINUOUS
 62
     3
100
AcDbLine
 10
408.2897
 20
-219.0076
 30
0.0
 11
405.8897
 21
-216.6076
 31
0.0
  0
LINE
  5
529
100
AcDbEntity
  8
1
  6
CONTINUOUS
 62
     3
100
AcDbLine
 10
386.6958
 20
-197.4137
 30
0.0
 11
384.2958
 21
-195.0137
 31
0.0
  0
LINE
  5
52A
100
AcDbEntity
  8
1
  6
CONTINUOUS
 62
     3
100
AcDbLine
 10
411.6838
 20
-219.0076
 30
0.0
 11
409.2838
 21
-216.6076
 31
0.0
  0
LINE
  5
52B
100
AcDbEntity
  8
1
  6
CONTINUOUS
 62
     3
100
AcDbLine
 10
386.6958
 20
-194.0196
 30
0.0
 11
384.2958
 21
-191.6196
 31
0.0
  0
LINE
  5
52C
100
AcDbEntity
  8
1
  6
CONTINUOUS
 62
     3
100
AcDbLine
 10
414.2253
 20
-218.155
 30
0.0
 11
411.8958
 21
-215.8255
 31
0.0
  0
LINE
  5
52D
100
AcDbEntity
  8
1
  6
CONTINUOUS
 62
     3
100
AcDbLine
 10
387.4543
 20
-191.384
 30
0.0
 11
385.1237
 21
-189.0534
 31
0.0
  0
LINE
  5
52E
100
AcDbEntity
  8
1
  6
CONTINUOUS
 62
     3
100
AcDbLine
 10
414.2958
 20
-214.8314
 30
0.0
 11
411.8958
 21
-212.4314
 31
0.0
  0
LINE
  5
52F
100
AcDbEntity
  8
1
  6
CONTINUOUS
 62
     3
100
AcDbLine
 10
390.8484
 20
-191.384
 30
0.0
 11
388.4484
 21
-188.984
 31
0.0
  0
LINE
  5
530
100
AcDbEntity
  8
1
  6
CONTINUOUS
 62
     3
100
AcDbLine
 10
414.2958
 20
-211.4373
 30
0.0
 11
411.8958
 21
-209.0373
 31
0.0
  0
LINE
  5
531
100
AcDbEntity
  8
1
  6
CONTINUOUS
 62
     3
100
AcDbLine
 10
394.2425
 20
-191.384
 30
0.0
 11
391.8425
 21
-188.984
 31
0.0
  0
LINE
  5
532
100
AcDbEntity
  8
1
  6
CONTINUOUS
 62
     3
100
AcDbLine
 10
414.2958
 20
-208.0432
 30
0.0
 11
411.8958
 21
-205.6432
 31
0.0
  0
LINE
  5
533
100
AcDbEntity
  8
1
  6
CONTINUOUS
 62
     3
100
AcDbLine
 10
397.6366
 20
-191.384
 30
0.0
 11
395.2366
 21
-188.984
 31
0.0
  0
LINE
  5
534
100
AcDbEntity
  8
1
  6
CONTINUOUS
 62
     3
100
AcDbLine
 10
414.2958
 20
-204.649
 30
0.0
 11
411.8958
 21
-202.249
 31
0.0
  0
LINE
  5
535
100
AcDbEntity
  8
1
  6
CONTINUOUS
 62
     3
100
AcDbLine
 10
401.0308
 20
-191.384
 30
0.0
 11
398.6308
 21
-188.984
 31
0.0
  0
LINE
  5
536
100
AcDbEntity
  8
1
  6
CONTINUOUS
 62
     3
100
AcDbLine
 10
414.2958
 20
-201.2549
 30
0.0
 11
411.8958
 21
-198.8549
 31
0.0
  0
LINE
  5
537
100
AcDbEntity
  8
1
  6
CONTINUOUS
 62
     3
100
AcDbLine
 10
404.4249
 20
-191.384
 30
0.0
 11
402.0249
 21
-188.984
 31
0.0
  0
LINE
  5
538
100
AcDbEntity
  8
1
  6
CONTINUOUS
 62
     3
100
AcDbLine
 10
414.2958
 20
-197.8608
 30
0.0
 11
411.8958
 21
-195.4608
 31
0.0
  0
LINE
  5
539
100
AcDbEntity
  8
1
  6
CONTINUOUS
 62
     3
100
AcDbLine
 10
407.819
 20
-191.384
 30
0.0
 11
405.419
 21
-188.984
 31
0.0
  0
LINE
  5
53A
100
AcDbEntity
  8
1
  6
CONTINUOUS
 62
     3
100
AcDbLine
 10
414.2958
 20
-194.4667
 30
0.0
 11
411.8958
 21
-192.0667
 31
0.0
  0
LINE
  5
53B
100
AcDbEntity
  8
1
  6
CONTINUOUS
 62
     3
100
AcDbLine
 10
411.2131
 20
-191.384
 30
0.0
 11
408.8131
 21
-188.984
 31
0.0
  0
LINE
  5
53C
100
AcDbEntity
  8
1
  6
CONTINUOUS
 62
     3
100
AcDbLine
 10
414.2958
 20
-191.0726
 30
0.0
 11
412.2072
 21
-188.984
 31
0.0
  0
LINE
  5
53D
100
AcDbEntity
  8
1
  6
CONTINUOUS
 62
     3
100
AcDbLine
 10
414.2958
 20
-195.134
 30
0.0
 11
414.2958
 21
-212.8576
 31
0.0
  0
LINE
  5
53E
100
AcDbEntity
  8
1
  6
CONTINUOUS
 62
     3
100
AcDbLine
 10
414.2958
 20
-216.0076
 30
0.0
 11
414.2958
 21
-217.8076
 31
0.0
  0
ARC
  5
53F
100
AcDbEntity
  8
1
  6
CONTINUOUS
 62
     3
100
AcDbCircle
 10
413.0958
 20
-217.8076
 30
0.0
 40
1.2
210
0.0
220
0.0
230
1.0
100
AcDbArc
 50
270.0
 51
0.0
  0
LINE
  5
540
100
AcDbEntity
  8
1
  6
CONTINUOUS
 62
     3
100
AcDbLine
 10
413.0958
 20
-219.0076
 30
0.0
 11
385.4958
 21
-219.0076
 31
0.0
  0
ARC
  5
541
100
AcDbEntity
  8
1
  6
CONTINUOUS
 62
     3
100
AcDbCircle
 10
385.4958
 20
-217.8076
 30
0.0
 40
1.2
210
0.0
220
0.0
230
1.0
100
AcDbArc
 50
180.0
 51
270.0
  0
LINE
  5
542
100
AcDbEntity
  8
1
  6
CONTINUOUS
 62
     3
100
AcDbLine
 10
384.2958
 20
-217.8076
 30
0.0
 11
384.2958
 21
-190.184
 31
0.0
  0
ARC
  5
543
100
AcDbEntity
  8
1
  6
CONTINUOUS
 62
     3
100
AcDbCircle
 10
385.4958
 20
-190.184
 30
0.0
 40
1.2
210
0.0
220
0.0
230
1.0
100
AcDbArc
 50
90.0
 51
180.0
  0
LINE
  5
544
100
AcDbEntity
  8
1
  6
CONTINUOUS
 62
     3
100
AcDbLine
 10
385.4958
 20
-188.984
 30
0.0
 11
413.0958
 21
-188.984
 31
0.0
  0
ARC
  5
545
100
AcDbEntity
  8
1
  6
CONTINUOUS
 62
     3
100
AcDbCircle
 10
413.0958
 20
-190.184
 30
0.0
 40
1.2
210
0.0
220
0.0
230
1.0
100
AcDbArc
 50
0.0
 51
90.0
  0
LINE
  5
546
100
AcDbEntity
  8
1
  6
CONTINUOUS
 62
     3
100
AcDbLine
 10
414.2958
 20
-190.184
 30
0.0
 11
414.2958
 21
-191.984
 31
0.0
  0
LINE
  5
547
100
AcDbEntity
  8
1
  6
CONTINUOUS
 62
     3
100
AcDbLine
 10
446.6277
 20
-182.4542
 30
0.0
 11
446.6277
 21
-225.5374
 31
0.0
  0
POLYLINE
  5
548
100
AcDbEntity
  8
1
  6
CONTINUOUS
 62
     3
100
AcDb2dPolyline
 66
     1
 10
0.0
 20
0.0
 30
0.0
  0
VERTEX
  5
549
100
AcDbEntity
  8
1
  6
CONTINUOUS
 62
     3
100
AcDbVertex
100
AcDb2dVertex
 10
440.6277
 20
-185.6958
 30
0.0
  0
VERTEX
  5
54A
100
AcDbEntity
  8
1
  6
CONTINUOUS
 62
     3
100
AcDbVertex
100
AcDb2dVertex
 10
414.2958
 20
-191.984
 30
0.0
  0
VERTEX
  5
54B
100
AcDbEntity
  8
1
  6
CONTINUOUS
 62
     3
100
AcDbVertex
100
AcDb2dVertex
 10
414.2958
 20
-195.134
 30
0.0
  0
VERTEX
  5
54C
100
AcDbEntity
  8
1
  6
CONTINUOUS
 62
     3
100
AcDbVertex
100
AcDb2dVertex
 10
414.3189
 20
-195.1344
 30
0.0
 42
-0.426973
  0
VERTEX
  5
54D
100
AcDbEntity
  8
1
  6
CONTINUOUS
 62
     3
100
AcDbVertex
100
AcDb2dVertex
 10
415.4958
 20
-196.4333
 30
0.0
  0
VERTEX
  5
54E
100
AcDbEntity
  8
1
  6
CONTINUOUS
 62
     3
100
AcDbVertex
100
AcDb2dVertex
 10
415.4958
 20
-211.5583
 30
0.0
 42
-0.426973
  0
VERTEX
  5
54F
100
AcDbEntity
  8
1
  6
CONTINUOUS
 62
     3
100
AcDbVertex
100
AcDb2dVertex
 10
414.3189
 20
-212.8572
 30
0.0
  0
VERTEX
  5
550
100
AcDbEntity
  8
1
  6
CONTINUOUS
 62
     3
100
AcDbVertex
100
AcDb2dVertex
 10
414.2958
 20
-212.8576
 30
0.0
  0
VERTEX
  5
551
100
AcDbEntity
  8
1
  6
CONTINUOUS
 62
     3
100
AcDbVertex
100
AcDb2dVertex
 10
414.2958
 20
-216.0076
 30
0.0
  0
VERTEX
  5
552
100
AcDbEntity
  8
1
  6
CONTINUOUS
 62
     3
100
AcDbVertex
100
AcDb2dVertex
 10
440.6277
 20
-222.2958
 30
0.0
 42
-0.475725
  0
VERTEX
  5
553
100
AcDbEntity
  8
1
  6
CONTINUOUS
 62
     3
100
AcDbVertex
100
AcDb2dVertex
 10
441.8277
 20
-230.6958
 30
0.0
  0
VERTEX
  5
554
100
AcDbEntity
  8
1
  6
CONTINUOUS
 62
     3
100
AcDbVertex
100
AcDb2dVertex
 10
441.8277
 20
-235.4958
 30
0.0
  0
VERTEX
  5
555
100
AcDbEntity
  8
1
  6
CONTINUOUS
 62
     3
100
AcDbVertex
100
AcDb2dVertex
 10
446.6277
 20
-235.4958
 30
0.0
  0
VERTEX
  5
556
100
AcDbEntity
  8
1
  6
CONTINUOUS
 62
     3
100
AcDbVertex
100
AcDb2dVertex
 10
446.6277
 20
-225.537402
 30
0.0
 42
0.288337
  0
VERTEX
  5
557
100
AcDbEntity
  8
1
  6
CONTINUOUS
 62
     3
100
AcDbVertex
100
AcDb2dVertex
 10
441.7074
 20
-220.0861
 30
0.0
  0
VERTEX
  5
558
100
AcDbEntity
  8
1
  6
CONTINUOUS
 62
     3
100
AcDbVertex
100
AcDb2dVertex
 10
420.659632
 20
-215.0598
 30
0.0
 42
-0.347109
  0
VERTEX
  5
559
100
AcDbEntity
  8
1
  6
CONTINUOUS
 62
     3
100
AcDbVertex
100
AcDb2dVertex
 10
417.8958
 20
-211.5583
 30
0.0
  0
VERTEX
  5
55A
100
AcDbEntity
  8
1
  6
CONTINUOUS
 62
     3
100
AcDbVertex
100
AcDb2dVertex
 10
417.8958
 20
-196.433269
 30
0.0
 42
-0.34711
  0
VERTEX
  5
55B
100
AcDbEntity
  8
1
  6
CONTINUOUS
 62
     3
100
AcDbVertex
100
AcDb2dVertex
 10
420.6596
 20
-192.9317
 30
0.0
  0
VERTEX
  5
55C
100
AcDbEntity
  8
1
  6
CONTINUOUS
 62
     3
100
AcDbVertex
100
AcDb2dVertex
 10
441.707302
 20
-187.905498
 30
0.0
 42
0.288339
  0
VERTEX
  5
55D
100
AcDbEntity
  8
1
  6
CONTINUOUS
 62
     3
100
AcDbVertex
100
AcDb2dVertex
 10
446.6277
 20
-182.4542
 30
0.0
  0
VERTEX
  5
55E
100
AcDbEntity
  8
1
  6
CONTINUOUS
 62
     3
100
AcDbVertex
100
AcDb2dVertex
 10
446.6277
 20
-172.4958
 30
0.0
  0
VERTEX
  5
55F
100
AcDbEntity
  8
1
  6
CONTINUOUS
 62
     3
100
AcDbVertex
100
AcDb2dVertex
 10
441.8277
 20
-172.4958
 30
0.0
  0
VERTEX
  5
560
100
AcDbEntity
  8
1
  6
CONTINUOUS
 62
     3
100
AcDbVertex
100
AcDb2dVertex
 10
441.8277
 20
-177.2958
 30
0.0
 42
-0.475725
  0
VERTEX
  5
561
100
AcDbEntity
  8
1
  6
CONTINUOUS
 62
     3
100
AcDbVertex
100
AcDb2dVertex
 10
440.6277
 20
-185.6958
 30
0.0
  0
SEQEND
  5
562
100
AcDbEntity
  8
1
  6
CONTINUOUS
 62
     3
  0
LINE
  5
563
100
AcDbEntity
  8
1
  6
CONTINUOUS
 62
     3
100
AcDbLine
 10
414.2958
 20
-192.5372
 30
0.0
 11
415.0226
 21
-191.8104
 31
0.0
  0
LINE
  5
564
100
AcDbEntity
  8
1
  6
CONTINUOUS
 62
     3
100
AcDbLine
 10
414.9018
 20
-195.3253
 30
0.0
 11
419.4815
 21
-190.7456
 31
0.0
  0
LINE
  5
565
100
AcDbEntity
  8
1
  6
CONTINUOUS
 62
     3
100
AcDbLine
 10
415.4958
 20
-198.1255
 30
0.0
 11
417.9887
 21
-195.6326
 31
0.0
  0
LINE
  5
566
100
AcDbEntity
  8
1
  6
CONTINUOUS
 62
     3
100
AcDbLine
 10
420.699
 20
-192.9223
 30
0.0
 11
423.9405
 21
-189.6808
 31
0.0
  0
LINE
  5
567
100
AcDbEntity
  8
1
  6
CONTINUOUS
 62
     3
100
AcDbLine
 10
415.4958
 20
-201.5196
 30
0.0
 11
417.8958
 21
-199.1196
 31
0.0
  0
LINE
  5
568
100
AcDbEntity
  8
1
  6
CONTINUOUS
 62
     3
100
AcDbLine
 10
425.1579
 20
-191.8575
 30
0.0
 11
428.3994
 21
-188.616
 31
0.0
  0
LINE
  5
569
100
AcDbEntity
  8
1
  6
CONTINUOUS
 62
     3
100
AcDbLine
 10
441.8277
 20
-175.1877
 30
0.0
 11
444.5196
 21
-172.4958
 31
0.0
  0
LINE
  5
56A
100
AcDbEntity
  8
1
  6
CONTINUOUS
 62
     3
100
AcDbLine
 10
415.4958
 20
-204.9137
 30
0.0
 11
417.8958
 21
-202.5137
 31
0.0
  0
LINE
  5
56B
100
AcDbEntity
  8
1
  6
CONTINUOUS
 62
     3
100
AcDbLine
 10
429.6168
 20
-190.7927
 30
0.0
 11
432.8583
 21
-187.5512
 31
0.0
  0
LINE
  5
56C
100
AcDbEntity
  8
1
  6
CONTINUOUS
 62
     3
100
AcDbLine
 10
442.3847
 20
-178.0248
 30
0.0
 11
446.6277
 21
-173.7818
 31
0.0
  0
LINE
  5
56D
100
AcDbEntity
  8
1
  6
CONTINUOUS
 62
     3
100
AcDbLine
 10
415.4958
 20
-208.3078
 30
0.0
 11
417.8958
 21
-205.9078
 31
0.0
  0
LINE
  5
56E
100
AcDbEntity
  8
1
  6
CONTINUOUS
 62
     3
100
AcDbLine
 10
434.0757
 20
-189.7279
 30
0.0
 11
437.3173
 21
-186.4864
 31
0.0
  0
LINE
  5
56F
100
AcDbEntity
  8
1
  6
CONTINUOUS
 62
     3
100
AcDbLine
 10
443.2388
 20
-180.5648
 30
0.0
 11
446.6277
 21
-177.1759
 31
0.0
  0
LINE
  5
570
100
AcDbEntity
  8
1
  6
CONTINUOUS
 62
     3
100
AcDbLine
 10
414.2958
 20
-212.9019
 30
0.0
 11
414.3414
 21
-212.8564
 31
0.0
  0
LINE
  5
571
100
AcDbEntity
  8
1
  6
CONTINUOUS
 62
     3
100
AcDbLine
 10
415.4745
 20
-211.7232
 30
0.0
 11
417.8958
 21
-209.3019
 31
0.0
  0
LINE
  5
572
100
AcDbEntity
  8
1
  6
CONTINUOUS
 62
     3
100
AcDbLine
 10
438.5346
 20
-188.6631
 30
0.0
 11
446.6277
 21
-180.57
 31
0.0
  0
LINE
  5
573
100
AcDbEntity
  8
1
  6
CONTINUOUS
 62
     3
100
AcDbLine
 10
414.5286
 20
-216.0632
 30
0.0
 11
418.0555
 21
-212.5364
 31
0.0
  0
LINE
  5
574
100
AcDbEntity
  8
1
  6
CONTINUOUS
 62
     3
100
AcDbLine
 10
443.5119
 20
-187.08
 30
0.0
 11
445.6341
 21
-184.9577
 31
0.0
  0
LINE
  5
575
100
AcDbEntity
  8
1
  6
CONTINUOUS
 62
     3
100
AcDbLine
 10
417.2685
 20
-216.7175
 30
0.0
 11
419.476
 21
-214.51
 31
0.0
  0
LINE
  5
576
100
AcDbEntity
  8
1
  6
CONTINUOUS
 62
     3
100
AcDbLine
 10
420.0083
 20
-217.3718
 30
0.0
 11
422.0001
 21
-215.3799
 31
0.0
  0
LINE
  5
577
100
AcDbEntity
  8
1
  6
CONTINUOUS
 62
     3
100
AcDbLine
 10
422.7481
 20
-218.0261
 30
0.0
 11
424.74
 21
-216.0342
 31
0.0
  0
LINE
  5
578
100
AcDbEntity
  8
1
  6
CONTINUOUS
 62
     3
100
AcDbLine
 10
425.4879
 20
-218.6803
 30
0.0
 11
427.4798
 21
-216.6885
 31
0.0
  0
LINE
  5
579
100
AcDbEntity
  8
1
  6
CONTINUOUS
 62
     3
100
AcDbLine
 10
428.2278
 20
-219.3346
 30
0.0
 11
430.2196
 21
-217.3428
 31
0.0
  0
LINE
  5
57A
100
AcDbEntity
  8
1
  6
CONTINUOUS
 62
     3
100
AcDbLine
 10
430.9676
 20
-219.9889
 30
0.0
 11
432.9595
 21
-217.9971
 31
0.0
  0
LINE
  5
57B
100
AcDbEntity
  8
1
  6
CONTINUOUS
 62
     3
100
AcDbLine
 10
433.7074
 20
-220.6432
 30
0.0
 11
435.6993
 21
-218.6513
 31
0.0
  0
LINE
  5
57C
100
AcDbEntity
  8
1
  6
CONTINUOUS
 62
     3
100
AcDbLine
 10
436.4473
 20
-221.2975
 30
0.0
 11
438.4391
 21
-219.3056
 31
0.0
  0
LINE
  5
57D
100
AcDbEntity
  8
1
  6
CONTINUOUS
 62
     3
100
AcDbLine
 10
439.1871
 20
-221.9518
 30
0.0
 11
441.1789
 21
-219.9599
 31
0.0
  0
LINE
  5
57E
100
AcDbEntity
  8
1
  6
CONTINUOUS
 62
     3
100
AcDbLine
 10
441.5379
 20
-222.995
 30
0.0
 11
443.5873
 21
-220.9456
 31
0.0
  0
LINE
  5
57F
100
AcDbEntity
  8
1
  6
CONTINUOUS
 62
     3
100
AcDbLine
 10
442.895
 20
-225.0321
 30
0.0
 11
445.3371
 21
-222.5899
 31
0.0
  0
LINE
  5
580
100
AcDbEntity
  8
1
  6
CONTINUOUS
 62
     3
100
AcDbLine
 10
443.1233
 20
-228.1979
 30
0.0
 11
446.4525
 21
-224.8687
 31
0.0
  0
LINE
  5
581
100
AcDbEntity
  8
1
  6
CONTINUOUS
 62
     3
100
AcDbLine
 10
441.8277
 20
-232.8876
 30
0.0
 11
446.6277
 21
-228.0876
 31
0.0
  0
LINE
  5
582
100
AcDbEntity
  8
1
  6
CONTINUOUS
 62
     3
100
AcDbLine
 10
442.6136
 20
-235.4958
 30
0.0
 11
446.6277
 21
-231.4817
 31
0.0
  0
LINE
  5
583
100
AcDbEntity
  8
1
  6
CONTINUOUS
 62
     3
100
AcDbLine
 10
446.0077
 20
-235.4958
 30
0.0
 11
446.6277
 21
-234.8758
 31
0.0
  0
LINE
  5
584
100
AcDbEntity
  8
1
  6
CONTINUOUS
 62
     3
100
AcDbLine
 10
384.2958
 20
-197.9958
 30
0.0
 11
380.0958
 21
-197.9958
 31
0.0
  0
LINE
  5
585
100
AcDbEntity
  8
1
  6
CONTINUOUS
 62
     3
100
AcDbLine
 10
384.2958
 20
-209.9958
 30
0.0
 11
380.0958
 21
-209.9958
 31
0.0
  0
LINE
  5
586
100
AcDbEntity
  8
1
  6
CONTINUOUS
 62
     3
100
AcDbLine
 10
383.0958
 20
-201.5958
 30
0.0
 11
380.0958
 21
-201.5958
 31
0.0
  0
LINE
  5
587
100
AcDbEntity
  8
1
  6
CONTINUOUS
 62
     3
100
AcDbLine
 10
383.0958
 20
-206.3958
 30
0.0
 11
380.0958
 21
-206.3958
 31
0.0
  0
LINE
  5
588
100
AcDbEntity
  8
1
  6
CONTINUOUS
 62
     3
100
AcDbLine
 10
383.0958
 20
-197.9958
 30
0.0
 11
383.0958
 21
-209.9958
 31
0.0
  0
ARC
  5
589
100
AcDbEntity
  8
1
  6
CONTINUOUS
 62
     3
100
AcDbCircle
 10
381.698514
 20
-199.7958
 30
0.0
 40
2.410123
210
0.0
220
0.0
230
1.0
100
AcDbArc
 50
131.681767
 51
180.154525
  0
ARC
  5
58A
100
AcDbEntity
  8
1
  6
CONTINUOUS
 62
     3
100
AcDbCircle
 10
381.698514
 20
-208.1958
 30
0.0
 40
2.410123
210
0.0
220
0.0
230
1.0
100
AcDbArc
 50
179.845475
 51
228.318233
  0
POLYLINE
  5
58B
100
AcDbEntity
  8
1
  6
CONTINUOUS
 62
     3
100
AcDb2dPolyline
 66
     1
 10
0.0
 20
0.0
 30
0.0
  0
VERTEX
  5
58C
100
AcDbEntity
  8
1
  6
CONTINUOUS
 62
     3
100
AcDbVertex
100
AcDb2dVertex
 10
379.2884
 20
-199.8023
 30
0.0
  0
VERTEX
  5
58D
100
AcDbEntity
  8
1
  6
CONTINUOUS
 62
     3
100
AcDbVertex
100
AcDb2dVertex
 10
379.2884
 20
-208.1893
 30
0.0
 42
-0.213303
  0
VERTEX
  5
58E
100
AcDbEntity
  8
1
  6
CONTINUOUS
 62
     3
100
AcDbVertex
100
AcDb2dVertex
 10
380.0958
 20
-206.3958
 30
0.0
 42
-0.336417
  0
VERTEX
  5
58F
100
AcDbEntity
  8
1
  6
CONTINUOUS
 62
     3
100
AcDbVertex
100
AcDb2dVertex
 10
380.0958
 20
-201.5958
 30
0.0
 42
-0.213303
  0
VERTEX
  5
590
100
AcDbEntity
  8
1
  6
CONTINUOUS
 62
     3
100
AcDbVertex
100
AcDb2dVertex
 10
379.2884
 20
-199.8023
 30
0.0
  0
SEQEND
  5
591
100
AcDbEntity
  8
1
  6
CONTINUOUS
 62
     3
  0
ARC
  5
592
100
AcDbEntity
  8
1
  6
CONTINUOUS
 62
     3
100
AcDbCircle
 10
381.698514
 20
-199.8088
 30
0.0
 40
2.410123
210
0.0
220
0.0
230
1.0
100
AcDbArc
 50
179.845475
 51
228.318233
  0
ARC
  5
593
100
AcDbEntity
  8
1
  6
CONTINUOUS
 62
     3
100
AcDbCircle
 10
381.698514
 20
-208.1828
 30
0.0
 40
2.410123
210
0.0
220
0.0
230
1.0
100
AcDbArc
 50
131.681767
 51
180.154525
  0
ARC
  5
594
100
AcDbEntity
  8
1
  6
CONTINUOUS
 62
     3
100
AcDbCircle
 10
383.259105
 20
-203.9958
 30
0.0
 40
3.970705
210
0.0
220
0.0
230
1.0
100
AcDbArc
 50
142.812406
 51
217.187594
  0
POLYLINE
  5
595
100
AcDbEntity
  8
1
  6
CONTINUOUS
 62
     3
100
AcDb2dPolyline
 66
     1
 10
0.0
 20
0.0
 30
0.0
  0
VERTEX
  5
596
100
AcDbEntity
  8
1
  6
CONTINUOUS
 62
     3
100
AcDbVertex
100
AcDb2dVertex
 10
422.9032
 20
-199.8023
 30
0.0
  0
VERTEX
  5
597
100
AcDbEntity
  8
1
  6
CONTINUOUS
 62
     3
100
AcDbVertex
100
AcDb2dVertex
 10
422.9032
 20
-208.1893
 30
0.0
 42
0.213303
  0
VERTEX
  5
598
100
AcDbEntity
  8
1
  6
CONTINUOUS
 62
     3
100
AcDbVertex
100
AcDb2dVertex
 10
422.0958
 20
-206.3958
 30
0.0
 42
0.336417
  0
VERTEX
  5
599
100
AcDbEntity
  8
1
  6
CONTINUOUS
 62
     3
100
AcDbVertex
100
AcDb2dVertex
 10
422.0958
 20
-201.5958
 30
0.0
 42
0.213303
  0
VERTEX
  5
59A
100
AcDbEntity
  8
1
  6
CONTINUOUS
 62
     3
100
AcDbVertex
100
AcDb2dVertex
 10
422.9032
 20
-199.8023
 30
0.0
  0
SEQEND
  5
59B
100
AcDbEntity
  8
1
  6
CONTINUOUS
 62
     3
  0
LINE
  5
59C
100
AcDbEntity
  8
1
  6
CONTINUOUS
 62
     3
100
AcDbLine
 10
417.8958
 20
-197.9958
 30
0.0
 11
422.0958
 21
-197.9958
 31
0.0
  0
LINE
  5
59D
100
AcDbEntity
  8
1
  6
CONTINUOUS
 62
     3
100
AcDbLine
 10
417.8958
 20
-209.9958
 30
0.0
 11
422.0958
 21
-209.9958
 31
0.0
  0
LINE
  5
59E
100
AcDbEntity
  8
1
  6
CONTINUOUS
 62
     3
100
AcDbLine
 10
419.0958
 20
-201.5958
 30
0.0
 11
422.0958
 21
-201.5958
 31
0.0
  0
LINE
  5
59F
100
AcDbEntity
  8
1
  6
CONTINUOUS
 62
     3
100
AcDbLine
 10
419.0958
 20
-206.3958
 30
0.0
 11
422.0958
 21
-206.3958
 31
0.0
  0
LINE
  5
5A0
100
AcDbEntity
  8
1
  6
CONTINUOUS
 62
     3
100
AcDbLine
 10
419.0958
 20
-197.9958
 30
0.0
 11
419.0958
 21
-209.9958
 31
0.0
  0
ARC
  5
5A1
100
AcDbEntity
  8
1
  6
CONTINUOUS
 62
     3
100
AcDbCircle
 10
420.493086
 20
-199.7958
 30
0.0
 40
2.410123
210
0.0
220
0.0
230
1.0
100
AcDbArc
 50
359.845475
 51
48.318233
  0
ARC
  5
5A2
100
AcDbEntity
  8
1
  6
CONTINUOUS
 62
     3
100
AcDbCircle
 10
420.493086
 20
-208.1958
 30
0.0
 40
2.410123
210
0.0
220
0.0
230
1.0
100
AcDbArc
 50
311.681767
 51
0.154525
  0
ARC
  5
5A3
100
AcDbEntity
  8
1
  6
CONTINUOUS
 62
     3
100
AcDbCircle
 10
420.493086
 20
-199.8088
 30
0.0
 40
2.410123
210
0.0
220
0.0
230
1.0
100
AcDbArc
 50
311.681767
 51
0.154525
  0
ARC
  5
5A4
100
AcDbEntity
  8
1
  6
CONTINUOUS
 62
     3
100
AcDbCircle
 10
420.493086
 20
-208.1828
 30
0.0
 40
2.410123
210
0.0
220
0.0
230
1.0
100
AcDbArc
 50
359.845475
 51
48.318233
  0
ARC
  5
5A5
100
AcDbEntity
  8
1
  6
CONTINUOUS
 62
     3
100
AcDbCircle
 10
418.932495
 20
-203.9958
 30
0.0
 40
3.970705
210
0.0
220
0.0
230
1.0
100
AcDbArc
 50
322.812406
 51
37.187594
  0
LINE
  5
5A6
100
AcDbEntity
  8
1
  6
CONTINUOUS
 62
     7
100
AcDbLine
 10
89.6976
 20
-61.2101
 30
0.0
 11
80.0065
 21
-61.2264
 31
0.0
  0
LINE
  5
5A7
100
AcDbEntity
  8
1
  6
CONTINUOUS
 62
     7
100
AcDbLine
 10
80.0065
 20
-61.2264
 30
0.0
 11
60.7175
 21
-74.0907
 31
0.0
  0
LINE
  5
5A8
100
AcDbEntity
  8
1
  6
CONTINUOUS
 62
     7
100
AcDbLine
 10
93.9764
 20
-67.2101
 30
0.0
 11
78.2512
 21
-87.6757
 31
0.0
  0
LINE
  5
5A9
100
AcDbEntity
  8
1
  6
CONTINUOUS
 62
     7
100
AcDbLine
 10
124.5764
 20
-67.2101
 30
0.0
 11
140.3016
 21
-87.6757
 31
0.0
  0
LINE
  5
5AA
100
AcDbEntity
  8
1
  6
CONTINUOUS
 62
     7
100
AcDbLine
 10
109.2764
 20
-67.5002
 30
0.0
 11
109.2764
 21
-68.7002
 31
0.0
  0
LINE
  5
5AB
100
AcDbEntity
  8
1
  6
CONTINUOUS
 62
     7
100
AcDbLine
 10
100.2764
 20
-64.8101
 30
0.0
 11
109.2764
 21
-67.5002
 31
0.0
  0
LINE
  5
5AC
100
AcDbEntity
  8
1
  6
CONTINUOUS
 62
     7
100
AcDbLine
 10
118.2764
 20
-64.8101
 30
0.0
 11
109.2764
 21
-67.5002
 31
0.0
  0
LINE
  5
5AD
100
AcDbEntity
  8
1
  6
CONTINUOUS
 62
     7
100
AcDbLine
 10
109.2764
 20
-58.8101
 30
0.0
 11
109.2764
 21
-46.1912
 31
0.0
  0
LINE
  5
5AE
100
AcDbEntity
  8
1
  6
CONTINUOUS
 62
     7
100
AcDbLine
 10
90.9764
 20
-51.6101
 30
0.0
 11
95.7764
 21
-51.6101
 31
0.0
  0
LINE
  5
5AF
100
AcDbEntity
  8
1
  6
CONTINUOUS
 62
     7
100
AcDbLine
 10
122.7764
 20
-51.6101
 30
0.0
 11
127.5764
 21
-51.6101
 31
0.0
  0
INSERT
  5
5B5
100
AcDbEntity
  8
1
  6
CONTINUOUS
 62
     1
100
AcDbBlockReference
  2
LDR
 10
95.7764
 20
-51.6101
 30
0.0
 41
240.0
 42
240.0
210
0.0
220
0.0
230
1.0
  0
INSERT
  5
5B6
100
AcDbEntity
  8
1
  6
CONTINUOUS
 62
     1
100
AcDbBlockReference
  2
LDR
 10
109.2764
 20
-58.8101
 30
0.0
 41
240.0
 42
240.0
 50
270.0
210
0.0
220
0.0
230
1.0
  0
INSERT
  5
5B7
100
AcDbEntity
  8
1
  6
CONTINUOUS
 62
     1
100
AcDbBlockReference
  2
LDR
 10
109.2764
 20
-58.8101
 30
0.0
 41
240.0
 42
240.0
 50
270.0
210
0.0
220
0.0
230
1.0
  0
INSERT
  5
5B8
100
AcDbEntity
  8
1
  6
CONTINUOUS
 62
     1
100
AcDbBlockReference
  2
LDR
 10
122.7764
 20
-51.6101
 30
0.0
 41
240.0
 42
240.0
 50
180.0
210
0.0
220
0.0
230
1.0
  0
INSERT
  5
5B9
100
AcDbEntity
  8
1
  6
CONTINUOUS
 62
     1
100
AcDbBlockReference
  2
LDR
 10
122.7764
 20
-51.6101
 30
0.0
 41
240.0
 42
240.0
 50
180.0
210
0.0
220
0.0
230
1.0
  0
INSERT
  5
5BA
100
AcDbEntity
  8
1
  6
CONTINUOUS
 62
     1
100
AcDbBlockReference
  2
LDR
 10
100.2764
 20
-64.8101
 30
0.0
 41
240.0
 42
240.0
 50
163.358594
210
0.0
220
0.0
230
1.0
  0
INSERT
  5
5BB
100
AcDbEntity
  8
1
  6
CONTINUOUS
 62
     1
100
AcDbBlockReference
  2
LDR
 10
100.2764
 20
-64.8101
 30
0.0
 41
240.0
 42
240.0
 50
163.358594
210
0.0
220
0.0
230
1.0
  0
INSERT
  5
5BC
100
AcDbEntity
  8
1
  6
CONTINUOUS
 62
     1
100
AcDbBlockReference
  2
LDR
 10
118.2764
 20
-64.8101
 30
0.0
 41
240.0
 42
240.0
 50
16.641406
210
0.0
220
0.0
230
1.0
  0
INSERT
  5
5BD
100
AcDbEntity
  8
1
  6
CONTINUOUS
 62
     1
100
AcDbBlockReference
  2
LDR
 10
118.2764
 20
-64.8101
 30
0.0
 41
240.0
 42
240.0
 50
16.641406
210
0.0
220
0.0
230
1.0
  0
INSERT
  5
5BE
100
AcDbEntity
  8
1
  6
CONTINUOUS
 62
     1
100
AcDbBlockReference
  2
LDR
 10
60.7175
 20
-74.0907
 30
0.0
 41
239.999999
 42
239.999999
 50
213.70028
210
0.0
220
0.0
230
1.0
  0
INSERT
  5
5BF
100
AcDbEntity
  8
1
  6
CONTINUOUS
 62
     1
100
AcDbBlockReference
  2
LDR
 10
60.7175
 20
-74.0907
 30
0.0
 41
239.999999
 42
239.999999
 50
213.70028
210
0.0
220
0.0
230
1.0
  0
INSERT
  5
5C0
100
AcDbEntity
  8
1
  6
CONTINUOUS
 62
     1
100
AcDbBlockReference
  2
LDR
 10
93.9764
 20
-67.2101
 30
0.0
 41
240.0
 42
240.0
 50
52.462382
210
0.0
220
0.0
230
1.0
  0
INSERT
  5
5C1
100
AcDbEntity
  8
1
  6
CONTINUOUS
 62
     1
100
AcDbBlockReference
  2
LDR
 10
93.9764
 20
-67.2101
 30
0.0
 41
240.0
 42
240.0
 50
52.462382
210
0.0
220
0.0
230
1.0
  0
INSERT
  5
5C2
100
AcDbEntity
  8
1
  6
CONTINUOUS
 62
     1
100
AcDbBlockReference
  2
LDR
 10
124.5764
 20
-67.2101
 30
0.0
 41
240.0
 42
240.0
 50
127.537618
210
0.0
220
0.0
230
1.0
  0
TEXT
  5
5C3
100
AcDbEntity
  8
1
  6
CONTINUOUS
 62
     7
100
AcDbText
 10
66.8157
 20
-53.3585
 30
0.0
 40
3.0
  1
SIGN FACE
  7
MONOTXT
 72
     4
 11
78.6621
 21
-51.8585
 31
0.0
210
0.0
220
0.0
230
1.0
100
AcDbText
  0
TEXT
  5
5C4
100
AcDbEntity
  8
1
  6
CONTINUOUS
 62
     7
100
AcDbText
 10
128.4558
 20
-52.9051
 30
0.0
 40
3.0
  1
SIGN FACE
  7
MONOTXT
 72
     4
 11
140.3022
 21
-51.4051
 31
0.0
210
0.0
220
0.0
230
1.0
100
AcDbText
  0
TEXT
  5
5C5
100
AcDbEntity
  8
1
  6
CONTINUOUS
 62
     7
100
AcDbText
 10
105.2752
 20
-72.6272
 30
0.0
 40
3.0
  1
NUT
  7
MONOTXT
 72
     4
 11
109.2554
 21
-71.1272
 31
0.0
210
0.0
220
0.0
230
1.0
100
AcDbText
  0
LINE
  5
5C6
100
AcDbEntity
  8
1
  6
CONTINUOUS
 62
     7
100
AcDbLine
 10
78.2512
 20
-87.6757
 30
0.0
 11
84.769
 21
-87.6757
 31
0.0
  0
LINE
  5
5C7
100
AcDbEntity
  8
1
  6
CONTINUOUS
 62
     7
100
AcDbLine
 10
134.1717
 20
-87.6757
 30
0.0
 11
140.3016
 21
-87.6757
 31
0.0
  0
LINE
  5
5C8
100
AcDbEntity
  8
1
  6
CONTINUOUS
 62
     7
100
AcDbLine
 10
51.6425
 20
-98.5932
 30
0.0
 11
16.2155
 21
-98.5932
 31
0.0
  0
LINE
  5
5C9
100
AcDbEntity
  8
1
  6
CONTINUOUS
 62
     7
100
AcDbLine
 10
17.4155
 20
-98.5932
 30
0.0
 11
17.4155
 21
-157.7892
 31
0.0
  0
INSERT
  5
5CA
100
AcDbEntity
  8
1
  6
CONTINUOUS
 62
     1
100
AcDbBlockReference
  2
LDR
 10
17.4155
 20
-98.5932
 30
0.0
 41
240.0
 42
240.0
 50
90.0
210
0.0
220
0.0
230
1.0
  0
INSERT
  5
5CB
100
AcDbEntity
  8
1
  6
CONTINUOUS
 62
     1
100
AcDbBlockReference
  2
LDR
 10
17.4155
 20
-98.5932
 30
0.0
 41
240.0
 42
240.0
 50
90.0
210
0.0
220
0.0
230
1.0
  0
INSERT
  5
5CC
100
AcDbEntity
  8
1
  6
CONTINUOUS
 62
     1
100
AcDbBlockReference
  2
LDR
 10
17.4155
 20
-157.7892
 30
0.0
 41
240.0
 42
240.0
 50
270.0
210
0.0
220
0.0
230
1.0
  0
LINE
  5
5CD
100
AcDbEntity
  8
1
  6
CONTINUOUS
 62
     7
100
AcDbLine
 10
56.591
 20
-166.3932
 30
0.0
 11
64.9569
 21
-166.3932
 31
0.0
  0
LINE
  5
5CE
100
AcDbEntity
  8
1
  6
CONTINUOUS
 62
     7
100
AcDbLine
 10
63.7569
 20
-171.1932
 30
0.0
 11
63.7569
 21
-166.3932
 31
0.0
  0
LINE
  5
5CF
100
AcDbEntity
  8
1
  6
CONTINUOUS
 62
     7
100
AcDbLine
 10
63.7569
 20
-157.7892
 30
0.0
 11
63.7569
 21
-152.9892
 31
0.0
  0
INSERT
  5
5D0
100
AcDbEntity
  8
1
  6
CONTINUOUS
 62
     1
100
AcDbBlockReference
  2
LDR
 10
63.7569
 20
-157.7892
 30
0.0
 41
240.0
 42
240.0
 50
270.0
210
0.0
220
0.0
230
1.0
  0
INSERT
  5
5D1
100
AcDbEntity
  8
1
  6
CONTINUOUS
 62
     1
100
AcDbBlockReference
  2
LDR
 10
63.7569
 20
-157.7892
 30
0.0
 41
240.0
 42
240.0
 50
270.0
210
0.0
220
0.0
230
1.0
  0
INSERT
  5
5D2
100
AcDbEntity
  8
1
  6
CONTINUOUS
 62
     1
100
AcDbBlockReference
  2
LDR
 10
63.7569
 20
-166.3932
 30
0.0
 41
240.0
 42
240.0
 50
90.0
210
0.0
220
0.0
230
1.0
  0
LINE
  5
5D3
100
AcDbEntity
  8
1
  6
CONTINUOUS
 62
     7
100
AcDbLine
 10
63.7569
 20
-152.9892
 30
0.0
 11
69.8598
 21
-152.9892
 31
0.0
  0
LINE
  5
5D4
100
AcDbEntity
  8
1
  6
CONTINUOUS
 62
     7
100
AcDbLine
 10
109.8155
 20
-169.7892
 30
0.0
 11
114.6155
 21
-169.7892
 31
0.0
  0
INSERT
  5
5D5
100
AcDbEntity
  8
1
  6
CONTINUOUS
 62
     1
100
AcDbBlockReference
  2
LDR
 10
109.8155
 20
-169.7892
 30
0.0
 41
240.0
 42
240.0
 50
180.0
210
0.0
220
0.0
230
1.0
  0
TEXT
  5
5D6
100
AcDbEntity
  8
1
  6
CONTINUOUS
 62
     7
100
AcDbText
 10
115.5056
 20
-171.1268
 30
0.0
 40
3.0
  1
"DO NOT ENTER" SIGN
  7
MONOTXT
 72
     4
 11
141.7378
 21
-169.6268
 31
0.0
210
0.0
220
0.0
230
1.0
100
AcDbText
  0
LINE
  5
5D7
100
AcDbEntity
  8
1
  6
CONTINUOUS
 62
     7
100
AcDbLine
 10
109.8155
 20
-211.7892
 30
0.0
 11
114.6155
 21
-211.7892
 31
0.0
  0
INSERT
  5
5D8
100
AcDbEntity
  8
1
  6
CONTINUOUS
 62
     1
100
AcDbBlockReference
  2
LDR
 10
109.8155
 20
-211.7892
 30
0.0
 41
240.0
 42
240.0
 50
180.0
210
0.0
220
0.0
230
1.0
  0
TEXT
  5
5D9
100
AcDbEntity
  8
1
  6
CONTINUOUS
 62
     7
100
AcDbText
 10
115.4657
 20
-213.1562
 30
0.0
 40
3.0
  1
"STOP" SIGN
  7
MONOTXT
 72
     4
 11
129.6507
 21
-211.6562
 31
0.0
210
0.0
220
0.0
230
1.0
100
AcDbText
  0
LINE
  5
5DA
100
AcDbEntity
  8
1
  6
CONTINUOUS
 62
     7
100
AcDbLine
 10
172.2272
 20
-9.7384
 30
0.0
 11
147.7872
 21
-9.7384
 31
0.0
  0
LINE
  5
5DB
100
AcDbEntity
  8
1
  6
CONTINUOUS
 62
     7
100
AcDbLine
 10
176.5832
 20
12.0416
 30
0.0
 11
147.7872
 21
12.0416
 31
0.0
  0
LINE
  5
5DC
100
AcDbEntity
  8
1
  6
CONTINUOUS
 62
     7
100
AcDbLine
 10
149.2392
 20
12.0416
 30
0.0
 11
149.2392
 21
-9.7384
 31
0.0
  0
LINE
  5
5DD
100
AcDbEntity
  8
1
  6
CONTINUOUS
 62
     7
100
AcDbLine
 10
186.7472
 20
-15.5464
 30
0.0
 11
180.9392
 21
-15.5464
 31
0.0
  0
LINE
  5
5DE
100
AcDbEntity
  8
1
  6
CONTINUOUS
 62
     7
100
AcDbLine
 10
175.1312
 20
-15.5464
 30
0.0
 11
169.3232
 21
-15.5464
 31
0.0
  0
LINE
  5
5DF
100
AcDbEntity
  8
1
  6
CONTINUOUS
 62
     7
100
AcDbLine
 10
238.2932
 20
2.6036
 30
0.0
 11
224.3032
 21
2.6036
 31
0.0
  0
LINE
  5
5E0
100
AcDbEntity
  8
1
  6
CONTINUOUS
 62
     7
100
AcDbLine
 10
225.7552
 20
-3.2044
 30
0.0
 11
225.7552
 21
2.6036
 31
0.0
  0
LINE
  5
5E1
100
AcDbEntity
  8
1
  6
CONTINUOUS
 62
     7
100
AcDbLine
 10
225.7552
 20
12.0416
 30
0.0
 11
225.7552
 21
17.8496
 31
0.0
  0
LINE
  5
5E2
100
AcDbEntity
  8
1
  6
CONTINUOUS
 62
     7
100
AcDbLine
 10
258.6816
 20
12.0416
 30
0.0
 11
280.8672
 21
40.5759
 31
0.0
  0
LINE
  5
5E3
100
AcDbEntity
  8
1
  6
CONTINUOUS
 62
     7
100
AcDbLine
 10
270.9877
 20
40.5759
 30
0.0
 11
280.8672
 21
40.5759
 31
0.0
  0
TEXT
  5
5E4
100
AcDbEntity
  8
1
  6
CONTINUOUS
 62
     7
100
AcDbText
 10
187.9649
 20
-17.1564
 30
0.0
 40
3.0
  1
TYP.
  7
MONOTXT
 72
     4
 11
192.7719
 21
-15.6564
 31
0.0
210
0.0
220
0.0
230
1.0
100
AcDbText
  0
TEXT
  5
5E5
100
AcDbEntity
  8
1
  6
CONTINUOUS
 62
     7
100
AcDbText
 10
228.643
 20
39.116
 30
0.0
 40
3.0
  1
"ONE WAY" SIGNS
  7
MONOTXT
 72
     4
 11
249.1351
 21
40.616
 31
0.0
210
0.0
220
0.0
230
1.0
100
AcDbText
  0
LINE
  5
5E6
100
AcDbEntity
  8
1
  6
CONTINUOUS
 62
     7
100
AcDbLine
 10
252.0872
 20
-34.4224
 30
0.0
 11
261.2937
 21
-34.4224
 31
0.0
  0
LINE
  5
5E7
100
AcDbEntity
  8
1
  6
CONTINUOUS
 62
     7
100
AcDbLine
 10
259.8417
 20
-40.2304
 30
0.0
 11
259.8417
 21
-34.4224
 31
0.0
  0
LINE
  5
5E8
100
AcDbEntity
  8
1
  6
CONTINUOUS
 62
     7
100
AcDbLine
 10
259.8417
 20
-31.5184
 30
0.0
 11
259.8417
 21
-25.7104
 31
0.0
  0
LINE
  5
5E9
100
AcDbEntity
  8
1
  6
CONTINUOUS
 62
     7
100
AcDbLine
 10
259.8417
 20
-40.2304
 30
0.0
 11
266.1966
 21
-40.2304
 31
0.0
  0
LINE
  5
5EA
100
AcDbEntity
  8
1
  6
CONTINUOUS
 62
     7
100
AcDbLine
 10
227.4032
 20
-39.7277
 30
0.0
 11
257.8952
 21
-39.7277
 31
0.0
  0
LINE
  5
5EB
100
AcDbEntity
  8
1
  6
CONTINUOUS
 62
     7
100
AcDbLine
 10
227.4032
 20
-39.7277
 30
0.0
 11
227.4032
 21
-45.5357
 31
0.0
  0
LINE
  5
5EC
100
AcDbEntity
  8
1
  6
CONTINUOUS
 62
     7
100
AcDbLine
 10
257.8952
 20
-39.7277
 30
0.0
 11
257.8952
 21
-45.5357
 31
0.0
  0
INSERT
  5
5ED
100
AcDbEntity
  8
1
  6
CONTINUOUS
 62
     1
100
AcDbBlockReference
  2
LDR
 10
227.4032
 20
-45.5357
 30
0.0
 41
290.399999
 42
290.399999
 50
270.0
210
0.0
220
0.0
230
1.0
  0
INSERT
  5
5EE
100
AcDbEntity
  8
1
  6
CONTINUOUS
 62
     1
100
AcDbBlockReference
  2
LDR
 10
257.8952
 20
-45.5357
 30
0.0
 41
290.399999
 42
290.399999
 50
270.0
210
0.0
220
0.0
230
1.0
  0
LINE
  5
5EF
100
AcDbEntity
  8
1
  6
CONTINUOUS
 62
     7
100
AcDbLine
 10
228.8552
 20
-47.6672
 30
0.0
 11
256.4432
 21
-47.6672
 31
0.0
  0
LINE
  5
5F0
100
AcDbEntity
  8
1
  6
CONTINUOUS
 62
     7
100
AcDbLine
 10
228.8552
 20
-47.6672
 30
0.0
 11
228.8552
 21
-53.4752
 31
0.0
  0
LINE
  5
5F1
100
AcDbEntity
  8
1
  6
CONTINUOUS
 62
     7
100
AcDbLine
 10
256.4432
 20
-47.6672
 30
0.0
 11
256.4432
 21
-53.4752
 31
0.0
  0
INSERT
  5
5F2
100
AcDbEntity
  8
1
  6
CONTINUOUS
 62
     1
100
AcDbBlockReference
  2
LDR
 10
228.8552
 20
-53.4752
 30
0.0
 41
290.399999
 42
290.399999
 50
270.0
210
0.0
220
0.0
230
1.0
  0
INSERT
  5
5F3
100
AcDbEntity
  8
1
  6
CONTINUOUS
 62
     1
100
AcDbBlockReference
  2
LDR
 10
256.4432
 20
-53.4752
 30
0.0
 41
290.399999
 42
290.399999
 50
270.0
210
0.0
220
0.0
230
1.0
  0
LINE
  5
5F4
100
AcDbEntity
  8
1
  6
CONTINUOUS
 62
     7
100
AcDbLine
 10
230.3072
 20
-42.4084
 30
0.0
 11
219.3252
 21
-42.4084
 31
0.0
  0
LINE
  5
5F5
100
AcDbEntity
  8
1
  6
CONTINUOUS
 62
     7
100
AcDbLine
 10
239.7452
 20
-100.4884
 30
0.0
 11
219.3252
 21
-100.4884
 31
0.0
  0
LINE
  5
5F6
100
AcDbEntity
  8
1
  6
CONTINUOUS
 62
     7
100
AcDbLine
 10
241.1972
 20
-100.4884
 30
0.0
 11
244.1012
 21
-100.4884
 31
0.0
  0
LINE
  5
5F7
100
AcDbEntity
  8
1
  6
CONTINUOUS
 62
     7
100
AcDbLine
 10
245.5532
 20
-100.4884
 30
0.0
 11
251.3612
 21
-100.4884
 31
0.0
  0
LINE
  5
5F8
100
AcDbEntity
  8
1
  6
CONTINUOUS
 62
     7
100
AcDbLine
 10
220.7772
 20
-42.4084
 30
0.0
 11
220.7772
 21
-100.4884
 31
0.0
  0
LINE
  5
5F9
100
AcDbEntity
  8
1
  6
CONTINUOUS
 62
     7
100
AcDbLine
 10
261.2785
 20
-93.0469
 30
0.0
 11
267.8596
 21
-93.0469
 31
0.0
  0
LINE
  5
5FA
100
AcDbEntity
  8
1
  6
CONTINUOUS
 62
     7
100
AcDbLine
 10
242.6492
 20
-70.5409
 30
0.0
 11
261.2785
 21
-93.0469
 31
0.0
  0
LINE
  5
5FB
100
AcDbEntity
  8
1
  6
CONTINUOUS
 62
     7
100
AcDbLine
 10
261.2785
 20
-93.0469
 30
0.0
 11
242.6492
 21
-115.5529
 31
0.0
  0
LINE
  5
5FC
100
AcDbEntity
  8
1
  6
HIDDEN
 62
    92
100
AcDbLine
 10
241.7417
 20
-202.6729
 30
0.0
 11
243.5567
 21
-202.6729
 31
0.0
  0
LINE
  5
5FD
100
AcDbEntity
  8
1
  6
HIDDEN
 62
    92
100
AcDbLine
 10
241.7417
 20
-202.6729
 30
0.0
 11
243.5567
 21
-202.6729
 31
0.0
  0
LINE
  5
5FE
100
AcDbEntity
  8
1
  6
CONTINUOUS
 62
    92
100
AcDbLine
 10
240.4712
 20
-201.9469
 30
0.0
 11
240.4712
 21
-204.4879
 31
0.0
  0
LINE
  5
5FF
100
AcDbEntity
  8
1
  6
CONTINUOUS
 62
    92
100
AcDbLine
 10
241.7417
 20
-201.9469
 30
0.0
 11
240.4712
 21
-201.9469
 31
0.0
  0
LINE
  5
600
100
AcDbEntity
  8
1
  6
HIDDEN
 62
    92
100
AcDbLine
 10
241.7417
 20
-203.7619
 30
0.0
 11
243.5567
 21
-203.7619
 31
0.0
  0
LINE
  5
601
100
AcDbEntity
  8
1
  6
HIDDEN
 62
    92
100
AcDbLine
 10
243.5567
 20
-202.6729
 30
0.0
 11
244.8272
 21
-202.6729
 31
0.0
  0
LINE
  5
602
100
AcDbEntity
  8
1
  6
CONTINUOUS
 62
    92
100
AcDbLine
 10
243.5567
 20
-204.4879
 30
0.0
 11
244.8272
 21
-204.4879
 31
0.0
  0
LINE
  5
603
100
AcDbEntity
  8
1
  6
CONTINUOUS
 62
    92
100
AcDbLine
 10
243.5567
 20
-201.9469
 30
0.0
 11
244.8272
 21
-201.9469
 31
0.0
  0
LINE
  5
604
100
AcDbEntity
  8
1
  6
CONTINUOUS
 62
    92
100
AcDbLine
 10
244.8272
 20
-201.9469
 30
0.0
 11
244.8272
 21
-204.4879
 31
0.0
  0
LINE
  5
605
100
AcDbEntity
  8
1
  6
HIDDEN
 62
    92
100
AcDbLine
 10
243.5567
 20
-203.7619
 30
0.0
 11
244.8272
 21
-203.7619
 31
0.0
  0
LINE
  5
606
100
AcDbEntity
  8
1
  6
HIDDEN
 62
    92
100
AcDbLine
 10
241.7417
 20
-202.6729
 30
0.0
 11
240.4712
 21
-202.6729
 31
0.0
  0
LINE
  5
607
100
AcDbEntity
  8
1
  6
CONTINUOUS
 62
    92
100
AcDbLine
 10
241.7417
 20
-204.4879
 30
0.0
 11
240.4712
 21
-204.4879
 31
0.0
  0
LINE
  5
608
100
AcDbEntity
  8
1
  6
HIDDEN
 62
    92
100
AcDbLine
 10
241.7417
 20
-203.7619
 30
0.0
 11
240.4712
 21
-203.7619
 31
0.0
  0
LINE
  5
609
100
AcDbEntity
  8
1
  6
CONTINUOUS
 62
     7
100
AcDbLine
 10
239.0192
 20
-203.2174
 30
0.0
 11
219.3252
 21
-203.2174
 31
0.0
  0
LINE
  5
60A
100
AcDbEntity
  8
1
  6
CONTINUOUS
 62
     7
100
AcDbLine
 10
239.0192
 20
-246.7774
 30
0.0
 11
219.3252
 21
-246.7774
 31
0.0
  0
LINE
  5
60B
100
AcDbEntity
  8
1
  6
CONTINUOUS
 62
     7
100
AcDbLine
 10
220.7772
 20
-203.2174
 30
0.0
 11
220.7772
 21
-246.7774
 31
0.0
  0
LINE
  5
60C
100
AcDbEntity
  8
1
  6
CONTINUOUS
 62
     7
100
AcDbLine
 10
249.1832
 20
-224.9974
 30
0.0
 11
263.7919
 21
-224.9974
 31
0.0
  0
TEXT
  5
60D
100
AcDbEntity
  8
1
  6
CONTINUOUS
 62
     7
100
AcDbText
 10
223.0974
 20
-47.1174
 30
0.0
 40
3.63
  1
A
  7
TXT
 72
     4
 11
224.7524
 21
-45.3024
 31
0.0
210
0.0
220
0.0
230
1.0
100
AcDbText
  0
TEXT
  5
60E
100
AcDbEntity
  8
1
  6
CONTINUOUS
 62
     7
100
AcDbText
 10
259.0843
 20
-47.1174
 30
0.0
 40
3.63
  1
A
  7
TXT
 72
     4
 11
260.7393
 21
-45.3024
 31
0.0
210
0.0
220
0.0
230
1.0
100
AcDbText
  0
TEXT
  5
60F
100
AcDbEntity
  8
1
  6
CONTINUOUS
 62
     7
100
AcDbText
 10
224.2146
 20
-55.2989
 30
0.0
 40
3.63
  1
B
  7
TXT
 72
     4
 11
225.687
 21
-53.4839
 31
0.0
210
0.0
220
0.0
230
1.0
100
AcDbText
  0
TEXT
  5
610
100
AcDbEntity
  8
1
  6
CONTINUOUS
 62
     7
100
AcDbText
 10
257.9817
 20
-55.182
 30
0.0
 40
3.63
  1
B
  7
TXT
 72
     4
 11
259.4541
 21
-53.367
 31
0.0
210
0.0
220
0.0
230
1.0
100
AcDbText
  0
LINE
  5
611
100
AcDbEntity
  8
1
  6
CONTINUOUS
 62
     7
100
AcDbLine
 10
397.7615
 20
2.8874
 30
0.0
 11
384.4218
 21
49.4677
 31
0.0
  0
LINE
  5
612
100
AcDbEntity
  8
1
  6
CONTINUOUS
 62
     7
100
AcDbLine
 10
384.4218
 20
49.4677
 30
0.0
 11
395.2996
 21
49.4677
 31
0.0
  0
INSERT
  5
613
100
AcDbEntity
  8
1
  6
CONTINUOUS
 62
     1
100
AcDbBlockReference
  2
LDR
 10
397.7615
 20
2.8874
 30
0.0
 41
240.000001
 42
240.000001
 50
285.980692
210
0.0
220
0.0
230
1.0
  0
LINE
  5
614
100
AcDbEntity
  8
1
  6
CONTINUOUS
 62
     3
100
AcDbLine
 10
405.5954
 20
6.0433
 30
0.0
 11
405.5954
 21
-5.9567
 31
0.0
  0
LINE
  5
615
100
AcDbEntity
  8
1
  6
CONTINUOUS
 62
     3
100
AcDbLine
 10
405.5954
 20
-21.5803
 30
0.0
 11
405.5954
 21
-33.5803
 31
0.0
  0
LINE
  5
616
100
AcDbEntity
  8
1
  6
CONTINUOUS
 62
     7
100
AcDbLine
 10
405.5954
 20
1.2433
 30
0.0
 11
397.3145
 21
21.3556
 31
0.0
  0
LINE
  5
617
100
AcDbEntity
  8
1
  6
CONTINUOUS
 62
     7
100
AcDbLine
 10
397.3145
 20
21.3556
 30
0.0
 11
401.8272
 21
21.3556
 31
0.0
  0
INSERT
  5
618
100
AcDbEntity
  8
1
  6
CONTINUOUS
 62
     1
100
AcDbBlockReference
  2
LDR
 10
405.5954
 20
1.2433
 30
0.0
 41
239.999998
 42
239.999998
 50
292.378588
210
0.0
220
0.0
230
1.0
  0
LINE
  5
619
100
AcDbEntity
  8
1
  6
CONTINUOUS
 62
     7
100
AcDbLine
 10
379.1273
 20
-22.1272
 30
0.0
 11
371.7885
 21
-33.8062
 31
0.0
  0
LINE
  5
61A
100
AcDbEntity
  8
1
  6
CONTINUOUS
 62
     7
100
AcDbLine
 10
371.7885
 20
-33.8062
 30
0.0
 11
367.0384
 21
-33.8062
 31
0.0
  0
INSERT
  5
61B
100
AcDbEntity
  8
1
  6
CONTINUOUS
 62
     1
100
AcDbBlockReference
  2
LDR
 10
379.1273
 20
-22.1272
 30
0.0
 41
240.0
 42
240.0
 50
57.855743
210
0.0
220
0.0
230
1.0
  0
LINE
  5
61C
100
AcDbEntity
  8
1
  6
CONTINUOUS
 62
     7
100
AcDbLine
 10
460.7134
 20
-9.8909
 30
0.0
 11
468.5339
 21
0.5646
 31
0.0
  0
LINE
  5
61D
100
AcDbEntity
  8
1
  6
CONTINUOUS
 62
     7
100
AcDbLine
 10
468.5339
 20
0.5646
 30
0.0
 11
474.2341
 21
0.5646
 31
0.0
  0
LINE
  5
61E
100
AcDbEntity
  8
1
  6
CONTINUOUS
 62
     7
100
AcDbLine
 10
458.3273
 20
-25.1685
 30
0.0
 11
465.3671
 21
-36.0237
 31
0.0
  0
LINE
  5
61F
100
AcDbEntity
  8
1
  6
CONTINUOUS
 62
     7
100
AcDbLine
 10
465.3671
 20
-36.0237
 30
0.0
 11
470.9089
 21
-36.0237
 31
0.0
  0
INSERT
  5
620
100
AcDbEntity
  8
1
  6
CONTINUOUS
 62
     1
100
AcDbBlockReference
  2
LDR
 10
460.7134
 20
-9.8909
 30
0.0
 41
240.000002
 42
240.000002
 50
233.204263
210
0.0
220
0.0
230
1.0
  0
INSERT
  5
621
100
AcDbEntity
  8
1
  6
CONTINUOUS
 62
     1
100
AcDbBlockReference
  2
LDR
 10
460.7134
 20
-9.8909
 30
0.0
 41
240.000002
 42
240.000002
 50
233.204263
210
0.0
220
0.0
230
1.0
  0
INSERT
  5
622
100
AcDbEntity
  8
1
  6
CONTINUOUS
 62
     1
100
AcDbBlockReference
  2
LDR
 10
458.3273
 20
-25.1685
 30
0.0
 41
240.000002
 42
240.000002
 50
122.964163
210
0.0
220
0.0
230
1.0
  0
LINE
  5
623
100
AcDbEntity
  8
1
  6
CONTINUOUS
 62
     7
100
AcDbLine
 10
383.9273
 20
-41.6685
 30
0.0
 11
384.3168
 21
-59.2413
 31
0.0
  0
LINE
  5
624
100
AcDbEntity
  8
1
  6
CONTINUOUS
 62
     7
100
AcDbLine
 10
453.5273
 20
-41.6685
 30
0.0
 11
453.1378
 21
-59.2413
 31
0.0
  0
INSERT
  5
625
100
AcDbEntity
  8
1
  6
CONTINUOUS
 62
     1
100
AcDbBlockReference
  2
LDR
 10
383.9273
 20
-41.6685
 30
0.0
 41
239.999998
 42
239.999998
 50
91.26975
210
0.0
220
0.0
230
1.0
  0
INSERT
  5
626
100
AcDbEntity
  8
1
  6
CONTINUOUS
 62
     1
100
AcDbBlockReference
  2
LDR
 10
453.5273
 20
-41.6685
 30
0.0
 41
239.999998
 42
239.999998
 50
88.73025
210
0.0
220
0.0
230
1.0
  0
LINE
  5
627
100
AcDbEntity
  8
1
  6
CONTINUOUS
 62
     7
100
AcDbLine
 10
384.3168
 20
-59.2413
 30
0.0
 11
386.7252
 21
-59.2413
 31
0.0
  0
LINE
  5
628
100
AcDbEntity
  8
1
  6
CONTINUOUS
 62
     7
100
AcDbLine
 10
450.2902
 20
-59.2413
 30
0.0
 11
453.1378
 21
-59.2413
 31
0.0
  0
TEXT
  5
629
100
AcDbEntity
  8
1
  6
CONTINUOUS
 62
     7
100
AcDbText
 10
472.3243
 20
-31.8007
 30
0.0
 40
3.0
  1
NYLON WASHER AND
  7
MONOTXT
 11
472.3243
 21
-28.8007
 31
0.0
210
0.0
220
0.0
230
1.0
100
AcDbText
 73
     3
  0
TEXT
  5
62A
100
AcDbEntity
  8
1
  6
CONTINUOUS
 62
     7
100
AcDbText
 10
472.3243
 20
-37.2007
 30
0.0
 40
3.0
  1
CADMIUM PLATED OR
  7
MONOTXT
 11
472.3243
 21
-34.2007
 31
0.0
210
0.0
220
0.0
230
1.0
100
AcDbText
 73
     3
  0
TEXT
  5
62B
100
AcDbEntity
  8
1
  6
CONTINUOUS
 62
     7
100
AcDbText
 10
472.3243
 20
-42.6007
 30
0.0
 40
3.0
  1
ZINC PLATED WASHER
  7
MONOTXT
 11
472.3243
 21
-39.6007
 31
0.0
210
0.0
220
0.0
230
1.0
100
AcDbText
 73
     3
  0
TEXT
  5
62C
100
AcDbEntity
  8
1
  6
CONTINUOUS
 62
     7
100
AcDbText
 10
317.0457
 20
-30.1154
 30
0.0
 40
3.0
  1
NYLON WASHER AND
  7
MONOTXT
 11
317.0457
 21
-27.1154
 31
0.0
210
0.0
220
0.0
230
1.0
100
AcDbText
 73
     3
  0
TEXT
  5
62D
100
AcDbEntity
  8
1
  6
CONTINUOUS
 62
     7
100
AcDbText
 10
317.0457
 20
-35.5154
 30
0.0
 40
3.0
  1
CADMIUM PLATED OR
  7
MONOTXT
 11
317.0457
 21
-32.5154
 31
0.0
210
0.0
220
0.0
230
1.0
100
AcDbText
 73
     3
  0
TEXT
  5
62E
100
AcDbEntity
  8
1
  6
CONTINUOUS
 62
     7
100
AcDbText
 10
317.0457
 20
-40.9154
 30
0.0
 40
3.0
  1
ZINC PLATED WASHER
  7
MONOTXT
 11
317.0457
 21
-37.9154
 31
0.0
210
0.0
220
0.0
230
1.0
100
AcDbText
 73
     3
  0
LINE
  5
62F
100
AcDbEntity
  8
1
  6
CONTINUOUS
 62
     3
100
AcDbLine
 10
399.2958
 20
-184.184
 30
0.0
 11
399.2958
 21
-196.184
 31
0.0
  0
LINE
  5
630
100
AcDbEntity
  8
1
  6
CONTINUOUS
 62
     3
100
AcDbLine
 10
399.2958
 20
-211.8076
 30
0.0
 11
399.2958
 21
-223.8076
 31
0.0
  0
LINE
  5
631
100
AcDbEntity
  8
1
  6
CONTINUOUS
 62
     7
100
AcDbLine
 10
386.6958
 20
-206.3958
 30
0.0
 11
389.5472
 21
-226.0098
 31
0.0
  0
LINE
  5
632
100
AcDbEntity
  8
1
  6
CONTINUOUS
 62
     7
100
AcDbLine
 10
389.5472
 20
-226.0098
 30
0.0
 11
393.2561
 21
-226.0098
 31
0.0
  0
INSERT
  5
633
100
AcDbEntity
  8
1
  6
CONTINUOUS
 62
     1
100
AcDbBlockReference
  2
LDR
 10
386.6958
 20
-206.3958
 30
0.0
 41
239.999999
 42
239.999999
 50
98.271441
210
0.0
220
0.0
230
1.0
  0
LINE
  5
634
100
AcDbEntity
  8
1
  6
CONTINUOUS
 62
     7
100
AcDbLine
 10
651.5297
 20
-56.106
 30
0.0
 11
667.8139
 21
-36.8303
 31
0.0
  0
LINE
  5
635
100
AcDbEntity
  8
1
  6
CONTINUOUS
 62
     7
100
AcDbLine
 10
667.8139
 20
-36.8303
 30
0.0
 11
656.0998
 21
-36.8303
 31
0.0
  0
LINE
  5
636
100
AcDbEntity
  8
1
  6
CONTINUOUS
 62
     7
100
AcDbLine
 10
632.3729
 20
-65.544
 30
0.0
 11
620.1192
 21
-65.544
 31
0.0
  0
LINE
  5
637
100
AcDbEntity
  8
1
  6
CONTINUOUS
 62
     7
100
AcDbLine
 10
621.5712
 20
-71.352
 30
0.0
 11
621.5712
 21
-65.544
 31
0.0
  0
LINE
  5
638
100
AcDbEntity
  8
1
  6
CONTINUOUS
 62
     7
100
AcDbLine
 10
621.5712
 20
-56.106
 30
0.0
 11
621.5712
 21
-50.298
 31
0.0
  0
LINE
  5
639
100
AcDbEntity
  8
1
  6
CONTINUOUS
 62
     7
100
AcDbLine
 10
570.6629
 20
-56.106
 30
0.0
 11
548.3541
 21
-56.106
 31
0.0
  0
LINE
  5
63A
100
AcDbEntity
  8
1
  6
CONTINUOUS
 62
     7
100
AcDbLine
 10
628.7429
 20
-135.7569
 30
0.0
 11
548.3541
 21
-135.7569
 31
0.0
  0
LINE
  5
63B
100
AcDbEntity
  8
1
  6
CONTINUOUS
 62
     7
100
AcDbLine
 10
549.8061
 20
-56.106
 30
0.0
 11
549.8061
 21
-135.7569
 31
0.0
  0
LINE
  5
63C
100
AcDbEntity
  8
1
  6
CONTINUOUS
 62
     7
100
AcDbLine
 10
630.1949
 20
-102.57
 30
0.0
 11
609.3015
 21
-102.57
 31
0.0
  0
LINE
  5
63D
100
AcDbEntity
  8
1
  6
CONTINUOUS
 62
     7
100
AcDbLine
 10
610.7535
 20
-102.57
 30
0.0
 11
610.7535
 21
-135.7569
 31
0.0
  0
LINE
  5
63E
100
AcDbEntity
  8
1
  6
CONTINUOUS
 62
     7
100
AcDbLine
 10
644.7149
 20
-102.57
 30
0.0
 11
655.5402
 21
-102.57
 31
0.0
  0
LINE
  5
63F
100
AcDbEntity
  8
1
  6
CONTINUOUS
 62
     7
100
AcDbLine
 10
654.0882
 20
-108.378
 30
0.0
 11
654.0882
 21
-102.57
 31
0.0
  0
LINE
  5
640
100
AcDbEntity
  8
1
  6
CONTINUOUS
 62
     7
100
AcDbLine
 10
654.0882
 20
-99.666
 30
0.0
 11
654.0882
 21
-93.858
 31
0.0
  0
LINE
  5
641
100
AcDbEntity
  8
1
  6
CONTINUOUS
 62
     7
100
AcDbLine
 10
654.0882
 20
-108.378
 30
0.0
 11
659.6387
 21
-108.378
 31
0.0
  0
TEXT
  5
642
100
AcDbEntity
  8
1
  6
CONTINUOUS
 62
     7
100
AcDbText
 10
613.0561
 20
-38.506
 30
0.0
 40
3.0
  1
"ONE WAY" SIGNS
  7
MONOTXT
 72
     4
 11
633.5482
 21
-37.006
 31
0.0
210
0.0
220
0.0
230
1.0
100
AcDbText
  0
LINE
  5
643
100
AcDbEntity
  8
1
  6
CONTINUOUS
 62
     7
100
AcDbLine
 10
644.7149
 20
-168.636
 30
0.0
 11
650.5229
 21
-168.636
 31
0.0
  0
TEXT
  5
644
100
AcDbEntity
  8
1
  6
CONTINUOUS
 62
     7
100
AcDbText
 10
651.8864
 20
-168.7599
 30
0.0
 40
3.0
  1
"DO NOT ENTER" SIGN
  7
MONOTXT
 72
     4
 11
678.1186
 21
-167.2599
 31
0.0
210
0.0
220
0.0
230
1.0
100
AcDbText
  0
LWPOLYLINE
  5
645
100
AcDbEntity
  8
1
  6
CONTINUOUS
 62
     7
100
AcDbPolyline
 90
        4
 70
     0
 10
537.6681
 20
-309.0852
 10
535.2681
 20
-313.2421
 10
540.0681
 20
-313.2421
 10
537.6681
 20
-309.0852
  0
LWPOLYLINE
  5
646
100
AcDbEntity
  8
1
  6
CONTINUOUS
 62
     7
100
AcDbPolyline
 90
        4
 70
     0
 10
541.1098
 20
-387.3918
 10
538.7098
 20
-391.5487
 10
543.5098
 20
-391.5487
 10
541.1098
 20
-387.3918
  0
TEXT
  5
647
100
AcDbEntity
  8
1
  6
CONTINUOUS
 62
     7
100
AcDbText
 10
537.0727
 20
-312.6071
 30
0.0
 40
1.8
  1
2
  7
MONOTXT
 72
     4
 11
537.675
 21
-311.7071
 31
0.0
210
0.0
220
0.0
230
1.0
100
AcDbText
  0
TEXT
  5
648
100
AcDbEntity
  8
1
  6
CONTINUOUS
 62
     7
100
AcDbText
 10
540.8972
 20
-390.7928
 30
0.0
 40
1.8
  1
1
  7
MONOTXT
 72
     4
 11
541.1098
 21
-389.8928
 31
0.0
210
0.0
220
0.0
230
1.0
100
AcDbText
  0
TEXT
  5
649
100
AcDbEntity
  8
1
  6
CONTINUOUS
 62
     7
100
AcDbText
 10
89.9602
 20
-361.3631
 30
0.0
 40
4.8
  1
"ONE WAY", "STOP", "DO NOT ENTER",
  7
MONOTXT
 72
     4
 11
162.6972
 21
-358.9631
 31
0.0
210
0.0
220
0.0
230
1.0
100
AcDbText
  0
TEXT
  5
64A
100
AcDbEntity
  8
1
  6
CONTINUOUS
 62
     7
100
AcDbText
 10
128.1145
 20
-369.7631
 30
0.0
 40
4.8
  1
SIGN INSTALLATION
  7
MONOTXT
 72
     4
 11
162.7161
 21
-367.3631
 31
0.0
210
0.0
220
0.0
230
1.0
100
AcDbText
  0
TEXT
  5
64B
100
AcDbEntity
  8
1
  6
CONTINUOUS
 62
     7
100
AcDbText
 10
396.1146
 20
-85.7159
 30
0.0
 40
4.8
  1
SECTION A-A
  7
MONOTXT
 72
     4
 11
419.8878
 21
-83.3159
 31
0.0
210
0.0
220
0.0
230
1.0
100
AcDbText
  0
TEXT
  5
64C
100
AcDbEntity
  8
1
  6
CONTINUOUS
 62
     7
100
AcDbText
 10
387.5047
 20
-275.1957
 30
0.0
 40
4.8
  1
SECTION B-B
  7
MONOTXT
 72
     4
 11
411.1456
 21
-272.7957
 31
0.0
210
0.0
220
0.0
230
1.0
100
AcDbText
  0
TEXT
  5
64D
100
AcDbEntity
  8
1
  6
CONTINUOUS
 62
     7
100
AcDbText
 10
582.5081
 20
-294.168
 30
0.0
 40
4.8
  1
"ONE WAY", "DO NOT ENTER"
  7
MONOTXT
 72
     4
 11
638.0861
 21
-291.768
 31
0.0
210
0.0
220
0.0
230
1.0
100
AcDbText
  0
TEXT
  5
64E
100
AcDbEntity
  8
1
  6
CONTINUOUS
 62
     7
100
AcDbText
 10
603.5034
 20
-302.568
 30
0.0
 40
4.8
  1
SIGN INSTALLATION
  7
MONOTXT
 72
     4
 11
638.105
 21
-300.168
 31
0.0
210
0.0
220
0.0
230
1.0
100
AcDbText
  0
LINE
  5
64F
100
AcDbEntity
  8
1
  6
CONTINUOUS
 62
     7
100
AcDbLine
 10
394.6905
 20
-87.1187
 30
0.0
 11
445.1719
 21
-87.1187
 31
0.0
  0
LINE
  5
650
100
AcDbEntity
  8
1
  6
CONTINUOUS
 62
     7
100
AcDbLine
 10
385.8369
 20
-278.3193
 30
0.0
 11
436.3183
 21
-278.3193
 31
0.0
  0
LINE
  5
651
100
AcDbEntity
  8
1
  6
CONTINUOUS
 62
     7
100
AcDbLine
 10
581.6031
 20
-295.8631
 30
0.0
 11
695.8736
 21
-295.8631
 31
0.0
  0
LINE
  5
652
100
AcDbEntity
  8
1
  6
CONTINUOUS
 62
     7
100
AcDbLine
 10
602.1991
 20
-304.1262
 30
0.0
 11
675.111
 21
-304.1262
 31
0.0
  0
LINE
  5
653
100
AcDbEntity
  8
1
  6
CONTINUOUS
 62
     7
100
AcDbLine
 10
87.7898
 20
-363.2162
 30
0.0
 11
239.0656
 21
-363.2162
 31
0.0
  0
LINE
  5
654
100
AcDbEntity
  8
1
  6
CONTINUOUS
 62
     7
100
AcDbLine
 10
126.2018
 20
-371.5842
 30
0.0
 11
199.953
 21
-371.5842
 31
0.0
  0
LINE
  5
655
100
AcDbEntity
  8
1
  6
CONTINUOUS
 62
     7
100
AcDbLine
 10
582.6734
 20
26.3316
 30
0.0
 11
600.9197
 21
26.3316
 31
0.0
  0
LINE
  5
656
100
AcDbEntity
  8
1
  6
CONTINUOUS
 62
     7
100
AcDbLine
 10
583.1841
 20
15.8579
 30
0.0
 11
608.9048
 21
15.8579
 31
0.0
  0
LINE
  5
657
100
AcDbEntity
  8
1
  6
CONTINUOUS
 62
     7
100
AcDbLine
 10
266.5477
 20
-303.9318
 30
0.0
 11
314.8858
 21
-303.9318
 31
0.0
  0
INSERT
  5
658
100
AcDbEntity
  8
1
  6
CONTINUOUS
 62
     1
100
AcDbBlockReference
  2
LDR
 10
258.6816
 20
12.0416
 30
0.0
 41
239.999997
 42
239.999997
 50
232.134707
210
0.0
220
0.0
230
1.0
  0
INSERT
  5
659
100
AcDbEntity
  8
1
  6
CONTINUOUS
 62
     1
100
AcDbBlockReference
  2
LDR
 10
258.6816
 20
12.0416
 30
0.0
 41
239.999997
 42
239.999997
 50
232.134707
210
0.0
220
0.0
230
1.0
  0
INSERT
  5
65A
100
AcDbEntity
  8
1
  6
CONTINUOUS
 62
     1
100
AcDbBlockReference
  2
LDR
 10
225.7552
 20
12.0416
 30
0.0
 41
240.0
 42
240.0
 50
270.0
210
0.0
220
0.0
230
1.0
  0
INSERT
  5
65B
100
AcDbEntity
  8
1
  6
CONTINUOUS
 62
     1
100
AcDbBlockReference
  2
LDR
 10
225.7552
 20
12.0416
 30
0.0
 41
240.0
 42
240.0
 50
270.0
210
0.0
220
0.0
230
1.0
  0
INSERT
  5
65C
100
AcDbEntity
  8
1
  6
CONTINUOUS
 62
     1
100
AcDbBlockReference
  2
LDR
 10
225.7552
 20
2.6036
 30
0.0
 41
240.0
 42
240.0
 50
90.0
210
0.0
220
0.0
230
1.0
  0
INSERT
  5
65D
100
AcDbEntity
  8
1
  6
CONTINUOUS
 62
     1
100
AcDbBlockReference
  2
LDR
 10
225.7552
 20
2.6036
 30
0.0
 41
240.0
 42
240.0
 50
90.0
210
0.0
220
0.0
230
1.0
  0
INSERT
  5
65E
100
AcDbEntity
  8
1
  6
CONTINUOUS
 62
     1
100
AcDbBlockReference
  2
LDR
 10
149.2392
 20
12.0416
 30
0.0
 41
240.0
 42
240.0
 50
90.0
210
0.0
220
0.0
230
1.0
  0
INSERT
  5
65F
100
AcDbEntity
  8
1
  6
CONTINUOUS
 62
     1
100
AcDbBlockReference
  2
LDR
 10
149.2392
 20
-9.7384
 30
0.0
 41
240.0
 42
240.0
 50
270.0
210
0.0
220
0.0
230
1.0
  0
INSERT
  5
660
100
AcDbEntity
  8
1
  6
CONTINUOUS
 62
     1
100
AcDbBlockReference
  2
LDR
 10
180.9392
 20
-15.5464
 30
0.0
 41
240.0
 42
240.0
 50
180.0
210
0.0
220
0.0
230
1.0
  0
INSERT
  5
661
100
AcDbEntity
  8
1
  6
CONTINUOUS
 62
     1
100
AcDbBlockReference
  2
LDR
 10
180.9392
 20
-15.5464
 30
0.0
 41
240.0
 42
240.0
 50
180.0
210
0.0
220
0.0
230
1.0
  0
INSERT
  5
662
100
AcDbEntity
  8
1
  6
CONTINUOUS
 62
     1
100
AcDbBlockReference
  2
LDR
 10
175.1312
 20
-15.5464
 30
0.0
 41
240.0
 42
240.0
210
0.0
220
0.0
230
1.0
  0
INSERT
  5
663
100
AcDbEntity
  8
1
  6
CONTINUOUS
 62
     1
100
AcDbBlockReference
  2
LDR
 10
175.1312
 20
-15.5464
 30
0.0
 41
240.0
 42
240.0
210
0.0
220
0.0
230
1.0
  0
INSERT
  5
664
100
AcDbEntity
  8
1
  6
CONTINUOUS
 62
     1
100
AcDbBlockReference
  2
LDR
 10
259.8417
 20
-31.5184
 30
0.0
 41
240.0
 42
240.0
 50
270.0
210
0.0
220
0.0
230
1.0
  0
INSERT
  5
665
100
AcDbEntity
  8
1
  6
CONTINUOUS
 62
     1
100
AcDbBlockReference
  2
LDR
 10
259.8417
 20
-31.5184
 30
0.0
 41
240.0
 42
240.0
 50
270.0
210
0.0
220
0.0
230
1.0
  0
INSERT
  5
666
100
AcDbEntity
  8
1
  6
CONTINUOUS
 62
     1
100
AcDbBlockReference
  2
LDR
 10
259.8417
 20
-34.4224
 30
0.0
 41
240.0
 42
240.0
 50
90.0
210
0.0
220
0.0
230
1.0
  0
INSERT
  5
667
100
AcDbEntity
  8
1
  6
CONTINUOUS
 62
     1
100
AcDbBlockReference
  2
LDR
 10
220.7772
 20
-42.4084
 30
0.0
 41
240.0
 42
240.0
 50
90.0
210
0.0
220
0.0
230
1.0
  0
INSERT
  5
668
100
AcDbEntity
  8
1
  6
CONTINUOUS
 62
     1
100
AcDbBlockReference
  2
LDR
 10
220.7772
 20
-42.4084
 30
0.0
 41
240.0
 42
240.0
 50
90.0
210
0.0
220
0.0
230
1.0
  0
INSERT
  5
669
100
AcDbEntity
  8
1
  6
CONTINUOUS
 62
     1
100
AcDbBlockReference
  2
LDR
 10
220.7772
 20
-100.4884
 30
0.0
 41
240.0
 42
240.0
 50
270.0
210
0.0
220
0.0
230
1.0
  0
INSERT
  5
66A
100
AcDbEntity
  8
1
  6
CONTINUOUS
 62
     1
100
AcDbBlockReference
  2
LDR
 10
220.7772
 20
-100.4884
 30
0.0
 41
240.0
 42
240.0
 50
270.0
210
0.0
220
0.0
230
1.0
  0
INSERT
  5
66B
100
AcDbEntity
  8
1
  6
CONTINUOUS
 62
     1
100
AcDbBlockReference
  2
LDR
 10
242.6492
 20
-70.5409
 30
0.0
 41
240.0
 42
240.0
 50
129.616195
210
0.0
220
0.0
230
1.0
  0
INSERT
  5
66C
100
AcDbEntity
  8
1
  6
CONTINUOUS
 62
     1
100
AcDbBlockReference
  2
LDR
 10
242.6492
 20
-70.5409
 30
0.0
 41
240.0
 42
240.0
 50
129.616195
210
0.0
220
0.0
230
1.0
  0
INSERT
  5
66D
100
AcDbEntity
  8
1
  6
CONTINUOUS
 62
     1
100
AcDbBlockReference
  2
LDR
 10
242.6492
 20
-115.5529
 30
0.0
 41
240.0
 42
240.0
 50
230.383805
210
0.0
220
0.0
230
1.0
  0
INSERT
  5
66E
100
AcDbEntity
  8
1
  6
CONTINUOUS
 62
     1
100
AcDbBlockReference
  2
LDR
 10
220.7772
 20
-203.2174
 30
0.0
 41
240.0
 42
240.0
 50
90.0
210
0.0
220
0.0
230
1.0
  0
INSERT
  5
66F
100
AcDbEntity
  8
1
  6
CONTINUOUS
 62
     1
100
AcDbBlockReference
  2
LDR
 10
220.7772
 20
-203.2174
 30
0.0
 41
240.0
 42
240.0
 50
90.0
210
0.0
220
0.0
230
1.0
  0
INSERT
  5
670
100
AcDbEntity
  8
1
  6
CONTINUOUS
 62
     1
100
AcDbBlockReference
  2
LDR
 10
220.7772
 20
-246.7774
 30
0.0
 41
240.0
 42
240.0
 50
270.0
210
0.0
220
0.0
230
1.0
  0
INSERT
  5
671
100
AcDbEntity
  8
1
  6
CONTINUOUS
 62
     1
100
AcDbBlockReference
  2
LDR
 10
220.7772
 20
-246.7774
 30
0.0
 41
240.0
 42
240.0
 50
270.0
210
0.0
220
0.0
230
1.0
  0
INSERT
  5
672
100
AcDbEntity
  8
1
  6
CONTINUOUS
 62
     1
100
AcDbBlockReference
  2
LDR
 10
249.1832
 20
-224.9974
 30
0.0
 41
240.0
 42
240.0
 50
180.0
210
0.0
220
0.0
230
1.0
  0
INSERT
  5
673
100
AcDbEntity
  8
1
  6
CONTINUOUS
 62
     1
100
AcDbBlockReference
  2
LDR
 10
651.5297
 20
-56.106
 30
0.0
 41
240.000001
 42
240.000001
 50
229.808723
210
0.0
220
0.0
230
1.0
  0
INSERT
  5
674
100
AcDbEntity
  8
1
  6
CONTINUOUS
 62
     1
100
AcDbBlockReference
  2
LDR
 10
651.5297
 20
-56.106
 30
0.0
 41
240.000001
 42
240.000001
 50
229.808723
210
0.0
220
0.0
230
1.0
  0
INSERT
  5
675
100
AcDbEntity
  8
1
  6
CONTINUOUS
 62
     1
100
AcDbBlockReference
  2
LDR
 10
621.5712
 20
-56.106
 30
0.0
 41
240.0
 42
240.0
 50
270.0
210
0.0
220
0.0
230
1.0
  0
INSERT
  5
676
100
AcDbEntity
  8
1
  6
CONTINUOUS
 62
     1
100
AcDbBlockReference
  2
LDR
 10
549.8061
 20
-56.106
 30
0.0
 41
240.0
 42
240.0
 50
90.0
210
0.0
220
0.0
230
1.0
  0
INSERT
  5
677
100
AcDbEntity
  8
1
  6
CONTINUOUS
 62
     1
100
AcDbBlockReference
  2
LDR
 10
549.8061
 20
-56.106
 30
0.0
 41
240.0
 42
240.0
 50
90.0
210
0.0
220
0.0
230
1.0
  0
INSERT
  5
678
100
AcDbEntity
  8
1
  6
CONTINUOUS
 62
     1
100
AcDbBlockReference
  2
LDR
 10
621.5712
 20
-65.544
 30
0.0
 41
240.0
 42
240.0
 50
90.0
210
0.0
220
0.0
230
1.0
  0
INSERT
  5
679
100
AcDbEntity
  8
1
  6
CONTINUOUS
 62
     1
100
AcDbBlockReference
  2
LDR
 10
549.8061
 20
-135.7569
 30
0.0
 41
240.0
 42
240.0
 50
270.0
210
0.0
220
0.0
230
1.0
  0
INSERT
  5
67A
100
AcDbEntity
  8
1
  6
CONTINUOUS
 62
     1
100
AcDbBlockReference
  2
LDR
 10
549.8061
 20
-135.7569
 30
0.0
 41
240.0
 42
240.0
 50
270.0
210
0.0
220
0.0
230
1.0
  0
INSERT
  5
67B
100
AcDbEntity
  8
1
  6
CONTINUOUS
 62
     1
100
AcDbBlockReference
  2
LDR
 10
610.7535
 20
-102.57
 30
0.0
 41
240.0
 42
240.0
 50
90.0
210
0.0
220
0.0
230
1.0
  0
INSERT
  5
67C
100
AcDbEntity
  8
1
  6
CONTINUOUS
 62
     1
100
AcDbBlockReference
  2
LDR
 10
610.7535
 20
-102.57
 30
0.0
 41
240.0
 42
240.0
 50
90.0
210
0.0
220
0.0
230
1.0
  0
INSERT
  5
67D
100
AcDbEntity
  8
1
  6
CONTINUOUS
 62
     1
100
AcDbBlockReference
  2
LDR
 10
610.7535
 20
-135.7569
 30
0.0
 41
240.0
 42
240.0
 50
270.0
210
0.0
220
0.0
230
1.0
  0
INSERT
  5
67E
100
AcDbEntity
  8
1
  6
CONTINUOUS
 62
     1
100
AcDbBlockReference
  2
LDR
 10
610.7535
 20
-135.7569
 30
0.0
 41
240.0
 42
240.0
 50
270.0
210
0.0
220
0.0
230
1.0
  0
INSERT
  5
67F
100
AcDbEntity
  8
1
  6
CONTINUOUS
 62
     1
100
AcDbBlockReference
  2
LDR
 10
654.0882
 20
-99.666
 30
0.0
 41
240.0
 42
240.0
 50
270.0
210
0.0
220
0.0
230
1.0
  0
INSERT
  5
680
100
AcDbEntity
  8
1
  6
CONTINUOUS
 62
     1
100
AcDbBlockReference
  2
LDR
 10
654.0882
 20
-108.378
 30
0.0
 41
240.0
 42
240.0
 50
270.0
210
0.0
220
0.0
230
1.0
  0
INSERT
  5
681
100
AcDbEntity
  8
1
  6
CONTINUOUS
 62
     1
100
AcDbBlockReference
  2
LDR
 10
644.7149
 20
-168.636
 30
0.0
 41
240.0
 42
240.0
 50
180.0
210
0.0
220
0.0
230
1.0
  0
LWPOLYLINE
  5
682
100
AcDbEntity
  8
1
  6
CONTINUOUS
 62
     7
100
AcDbPolyline
 90
        4
 70
     0
 10
537.5937
 20
-303.9488
 10
535.1937
 20
-308.1057
 10
539.9937
 20
-308.1057
 10
537.5937
 20
-303.9488
  0
TEXT
  5
683
100
AcDbEntity
  8
1
  6
CONTINUOUS
 62
     7
100
AcDbText
 10
537.381
 20
-307.4707
 30
0.0
 40
1.8
  1
1
  7
MONOTXT
 72
     4
 11
537.5936
 21
-306.5707
 31
0.0
210
0.0
220
0.0
230
1.0
100
AcDbText
  0
TEXT
  5
684
100
AcDbEntity
  8
1
  6
CONTINUOUS
 62
     7
100
AcDbText
 10
541.4018
 20
-306.9187
 30
0.0
 40
1.8
  1
DELETED 8# BB
  7
MONOTXT
 72
     4
 11
552.223
 21
-306.0187
 31
0.0
210
0.0
220
0.0
230
1.0
100
AcDbText
  0
TEXT
  5
685
100
AcDbEntity
  8
1
  6
CONTINUOUS
 62
     7
100
AcDbText
 10
541.7055
 20
-312.4273
 30
0.0
 40
1.8
  1
DELETED GALV. BOLT, GAVE CADMIUM PLATED SPEC.
  7
MONOTXT
 72
     4
 11
578.6338
 21
-311.5273
 31
0.0
210
0.0
220
0.0
230
1.0
100
AcDbText
  0
LWPOLYLINE
  5
686
100
AcDbEntity
  8
1
  6
CONTINUOUS
 62
     7
100
AcDbPolyline
 90
        4
 70
     0
 10
540.9264
 20
-393.201
 10
538.5264
 20
-397.3579
 10
543.3264
 20
-397.3579
 10
540.9264
 20
-393.201
  0
TEXT
  5
687
100
AcDbEntity
  8
1
  6
CONTINUOUS
 62
     7
100
AcDbText
 10
540.3311
 20
-396.602
 30
0.0
 40
1.8
  1
2
  7
MONOTXT
 72
     4
 11
540.9334
 21
-395.702
 31
0.0
210
0.0
220
0.0
230
1.0
100
AcDbText
  0
TEXT
  5
688
100
AcDbEntity
  8
1
  6
CONTINUOUS
 62
     7
100
AcDbText
 10
85.9144
 20
-86.4757
 30
0.0
 40
3.0
  1
NYLON WASHER AND
  7
MONOTXT
 72
     4
 11
109.5954
 21
-84.9757
 31
0.0
210
0.0
220
0.0
230
1.0
100
AcDbText
  0
TEXT
  5
689
100
AcDbEntity
  8
1
  6
CONTINUOUS
 62
     7
100
AcDbText
 10
79.3947
 20
-91.8757
 30
0.0
 40
3.0
  1
CADMIUM PLATED WASHER
  7
MONOTXT
 72
     4
 11
109.5955
 21
-90.3757
 31
0.0
210
0.0
220
0.0
230
1.0
100
AcDbText
  0
TEXT
  5
68A
100
AcDbEntity
  8
1
  6
CONTINUOUS
 62
     7
100
AcDbText
 10
584.461
 20
27.6743
 30
0.0
 40
3.0
  1
NOTES:
  7
MONOTXT
 11
584.461
 21
30.6743
 31
0.0
210
0.0
220
0.0
230
1.0
100
AcDbText
 73
     3
  0
TEXT
  5
68B
100
AcDbEntity
  8
1
  6
CONTINUOUS
 62
     7
100
AcDbText
 10
584.461
 20
22.2743
 30
0.0
 40
3.0
  1
 
  7
MONOTXT
 11
584.461
 21
25.2743
 31
0.0
210
0.0
220
0.0
230
1.0
100
AcDbText
 73
     3
  0
TEXT
  5
68C
100
AcDbEntity
  8
1
  6
CONTINUOUS
 62
     7
100
AcDbText
 10
584.461
 20
16.8743
 30
0.0
 40
3.0
  1
MATERIALS
  7
MONOTXT
 11
584.461
 21
19.8743
 31
0.0
210
0.0
220
0.0
230
1.0
100
AcDbText
 73
     3
  0
TEXT
  5
68D
100
AcDbEntity
  8
1
  6
CONTINUOUS
 62
     7
100
AcDbText
 10
584.461
 20
11.4743
 30
0.0
 40
3.0
  1
ALL SIGN MATERIALS SHALL BE IN ACCORDANCE WITH
  7
MONOTXT
 11
584.461
 21
14.4743
 31
0.0
210
0.0
220
0.0
230
1.0
100
AcDbText
 73
     3
  0
TEXT
  5
68E
100
AcDbEntity
  8
1
  6
CONTINUOUS
 62
     7
100
AcDbText
 10
584.461
 20
6.0743
 30
0.0
 40
3.0
  1
SECTION 661.
  7
MONOTXT
 11
584.461
 21
9.0743
 31
0.0
210
0.0
220
0.0
230
1.0
100
AcDbText
 73
     3
  0
TEXT
  5
68F
100
AcDbEntity
  8
1
  6
CONTINUOUS
 62
     7
100
AcDbText
 10
584.461
 20
0.6743
 30
0.0
 40
3.0
  1
 
  7
MONOTXT
 11
584.461
 21
3.6743
 31
0.0
210
0.0
220
0.0
230
1.0
100
AcDbText
 73
     3
  0
TEXT
  5
690
100
AcDbEntity
  8
1
  6
CONTINUOUS
 62
     7
100
AcDbText
 10
584.461
 20
-4.7257
 30
0.0
 40
3.0
  1
ALL STRUCTURAL MATERIALS SHALL BE IN ACCORDANCE
  7
MONOTXT
 11
584.461
 21
-1.7257
 31
0.0
210
0.0
220
0.0
230
1.0
100
AcDbText
 73
     3
  0
TEXT
  5
691
100
AcDbEntity
  8
1
  6
CONTINUOUS
 62
     7
100
AcDbText
 10
584.461
 20
-10.1257
 30
0.0
 40
3.0
  1
WITH SPECIAL PROVISIONS SECTION 657, EXCEPT SQUARE
  7
MONOTXT
 11
584.461
 21
-7.1257
 31
0.0
210
0.0
220
0.0
230
1.0
100
AcDbText
 73
     3
  0
TEXT
  5
692
100
AcDbEntity
  8
1
  6
CONTINUOUS
 62
     7
100
AcDbText
 10
584.461
 20
-15.5257
 30
0.0
 40
3.0
  1
TUBULAR SUPPORTS WHICH SHALL BE AS NOTED BELOW.
  7
MONOTXT
 11
584.461
 21
-12.5257
 31
0.0
210
0.0
220
0.0
230
1.0
100
AcDbText
 73
     3
  0
LWPOLYLINE
  5
693
100
AcDbEntity
  8
1
  6
CONTINUOUS
 62
     7
100
AcDbPolyline
 90
        4
 70
     0
 10
537.4986
 20
-314.5098
 10
535.0986
 20
-318.6667
 10
539.8986
 20
-318.6667
 10
537.4986
 20
-314.5098
  0
TEXT
  5
694
100
AcDbEntity
  8
1
  6
CONTINUOUS
 62
     7
100
AcDbText
 10
536.9032
 20
-318.0317
 30
0.0
 40
1.8
  1
3
  7
MONOTXT
 72
     4
 11
537.5055
 21
-317.1317
 31
0.0
210
0.0
220
0.0
230
1.0
100
AcDbText
  0
TEXT
  5
695
100
AcDbEntity
  8
1
  6
CONTINUOUS
 62
     7
100
AcDbText
 10
541.536
 20
-317.8519
 30
0.0
 40
1.8
  1
DELETED GALV. BOLT, GAVE CADMIUM PLATED SPEC.
  7
MONOTXT
 72
     4
 11
578.4643
 21
-316.9519
 31
0.0
210
0.0
220
0.0
230
1.0
100
AcDbText
  0
LWPOLYLINE
  5
696
100
AcDbEntity
  8
1
  6
CONTINUOUS
 62
     7
100
AcDbPolyline
 90
        4
 70
     0
 10
540.6811
 20
-398.9873
 10
538.2811
 20
-403.1442
 10
543.0811
 20
-403.1442
 10
540.6811
 20
-398.9873
  0
TEXT
  5
697
100
AcDbEntity
  8
1
  6
CONTINUOUS
 62
     7
100
AcDbText
 10
540.0858
 20
-402.3883
 30
0.0
 40
1.8
  1
3
  7
MONOTXT
 72
     4
 11
540.6881
 21
-401.4883
 31
0.0
210
0.0
220
0.0
230
1.0
100
AcDbText
  0
TEXT
  5
698
100
AcDbEntity
  8
1
  6
CONTINUOUS
 62
     1
100
AcDbText
 10
546.0691
 20
-403.0694
 30
0.0
 40
2.4
  1
05-13-94
  7
MONOTXT
 72
     1
 11
554.2801
 21
-400.6694
 31
0.0
210
0.0
220
0.0
230
1.0
100
AcDbText
 73
     3
  0
TEXT
  5
699
100
AcDbEntity
  8
1
  6
CONTINUOUS
 62
     7
100
AcDbText
 10
15.9041
 20
-141.5086
 30
0.0
 40
3.0
  1
325mm TYP.
 50
90.0
  7
MONOTXT
 72
     4
 11
14.4041
 21
-126.2134
 31
0.0
210
0.0
220
0.0
230
1.0
100
AcDbText
  0
TEXT
  5
69A
100
AcDbEntity
  8
1
  6
CONTINUOUS
 62
     7
100
AcDbText
 10
69.7997
 20
-154.1545
 30
0.0
 40
3.0
  1
25mm TYP.
  7
MONOTXT
 72
     4
 11
83.6067
 21
-152.6545
 31
0.0
210
0.0
220
0.0
230
1.0
100
AcDbText
  0
TEXT
  5
69B
100
AcDbEntity
  8
1
  6
CONTINUOUS
 62
     7
100
AcDbText
 10
146.9775
 20
-13.804
 30
0.0
 40
3.0
  1
150mm TYP.
 50
90.0
  7
MONOTXT
 72
     4
 11
145.4775
 21
0.8534
 31
0.0
210
0.0
220
0.0
230
1.0
100
AcDbText
  0
TEXT
  5
69C
100
AcDbEntity
  8
1
  6
CONTINUOUS
 62
     7
100
AcDbText
 10
207.8819
 20
5.3453
 30
0.0
 40
3.0
  1
50mm TYP.
  7
MONOTXT
 72
     4
 11
221.6889
 21
6.8453
 31
0.0
210
0.0
220
0.0
230
1.0
100
AcDbText
  0
TEXT
  5
69D
100
AcDbEntity
  8
1
  6
CONTINUOUS
 62
     7
100
AcDbText
 10
266.9004
 20
-41.4235
 30
0.0
 40
3.0
  1
25mm TYP.
  7
MONOTXT
 72
     4
 11
280.7074
 21
-39.9235
 31
0.0
210
0.0
220
0.0
230
1.0
100
AcDbText
  0
TEXT
  5
69E
100
AcDbEntity
  8
1
  6
CONTINUOUS
 62
     7
100
AcDbText
 10
218.9609
 20
-86.2802
 30
0.0
 40
3.0
  1
400mm TYP.
 50
90.0
  7
MONOTXT
 72
     4
 11
217.4609
 21
-70.9141
 31
0.0
210
0.0
220
0.0
230
1.0
100
AcDbText
  0
TEXT
  5
69F
100
AcDbEntity
  8
1
  6
CONTINUOUS
 62
     7
100
AcDbText
 10
219.4968
 20
-246.6514
 30
0.0
 40
3.0
  1
450mm C/C TYP.
 50
90.0
  7
MONOTXT
 72
     4
 11
217.9968
 21
-225.2144
 31
0.0
210
0.0
220
0.0
230
1.0
100
AcDbText
  0
TEXT
  5
6A0
100
AcDbEntity
  8
1
  6
CONTINUOUS
 62
     7
100
AcDbText
 10
264.9067
 20
-226.5111
 30
0.0
 40
3.0
  1
STRUCTURAL SUPPORT
  7
MONOTXT
 72
     4
 11
291.0681
 21
-225.0111
 31
0.0
210
0.0
220
0.0
230
1.0
100
AcDbText
  0
TEXT
  5
6A1
100
AcDbEntity
  8
1
  6
CONTINUOUS
 62
     7
100
AcDbText
 10
252.6705
 20
-231.9111
 30
0.0
 40
3.0
  1
(6.00kg/m OR 9.00kg/m POST)
  7
MONOTXT
 72
     4
 11
291.0681
 21
-230.4111
 31
0.0
210
0.0
220
0.0
230
1.0
100
AcDbText
  0
TEXT
  5
6A2
100
AcDbEntity
  8
1
  6
CONTINUOUS
 62
     7
100
AcDbText
 10
267.3457
 20
-302.9498
 30
0.0
 40
3.0
  1
TUBULAR SUPPORTS
  7
MONOTXT
 11
267.3457
 21
-299.9498
 31
0.0
210
0.0
220
0.0
230
1.0
100
AcDbText
 73
     3
  0
TEXT
  5
6A3
100
AcDbEntity
  8
1
  6
CONTINUOUS
 62
     7
100
AcDbText
 10
267.3457
 20
-308.3498
 30
0.0
 40
3.0
  1
 
  7
MONOTXT
 11
267.3457
 21
-305.3498
 31
0.0
210
0.0
220
0.0
230
1.0
100
AcDbText
 73
     3
  0
TEXT
  5
6A4
100
AcDbEntity
  8
1
  6
CONTINUOUS
 62
     7
100
AcDbText
 10
267.3457
 20
-313.7498
 30
0.0
 40
3.0
  1
TUBULAR SUPPORTS SHALL BE FABRICATED FROM COLD ROLLED
  7
MONOTXT
 11
267.3457
 21
-310.7498
 31
0.0
210
0.0
220
0.0
230
1.0
100
AcDbText
 73
     3
  0
TEXT
  5
6A5
100
AcDbEntity
  8
1
  6
CONTINUOUS
 62
     7
100
AcDbText
 10
267.3457
 20
-319.1498
 30
0.0
 40
3.0
  1
STEEL CONFORMING TO C-1010. THE CROSS SECTION OF THE 
  7
MONOTXT
 11
267.3457
 21
-316.1498
 31
0.0
210
0.0
220
0.0
230
1.0
100
AcDbText
 73
     3
  0
TEXT
  5
6A6
100
AcDbEntity
  8
1
  6
CONTINUOUS
 62
     7
100
AcDbText
 10
267.3457
 20
-324.5498
 30
0.0
 40
3.0
  1
POST SHALL BE A SQUARE TUBE FORMED OF 2.66mm STEEL
  7
MONOTXT
 11
267.3457
 21
-321.5498
 31
0.0
210
0.0
220
0.0
230
1.0
100
AcDbText
 73
     3
  0
TEXT
  5
6A7
100
AcDbEntity
  8
1
  6
CONTINUOUS
 62
     7
100
AcDbText
 10
267.3457
 20
-329.9498
 30
0.0
 40
3.0
  1
ROLLED TO SIZE AND WELDED IN THE CORNER. THE MEMBERS
  7
MONOTXT
 11
267.3457
 21
-326.9498
 31
0.0
210
0.0
220
0.0
230
1.0
100
AcDbText
 73
     3
  0
TEXT
  5
6A8
100
AcDbEntity
  8
1
  6
CONTINUOUS
 62
     7
100
AcDbText
 10
267.3457
 20
-335.3498
 30
0.0
 40
3.0
  1
SHALL BE STRAIGHT AND HAVE A SMOOTH UNIFORM FINISH.
  7
MONOTXT
 11
267.3457
 21
-332.3498
 31
0.0
210
0.0
220
0.0
230
1.0
100
AcDbText
 73
     3
  0
TEXT
  5
6A9
100
AcDbEntity
  8
1
  6
CONTINUOUS
 62
     7
100
AcDbText
 10
267.3457
 20
-340.7498
 30
0.0
 40
3.0
  1
NOMINAL SIZE OF TUBE SHALL BE 44.5mmx44.5mm. TUBES SHALL
  7
MONOTXT
 11
267.3457
 21
-337.7498
 31
0.0
210
0.0
220
0.0
230
1.0
100
AcDbText
 73
     3
  0
TEXT
  5
6AA
100
AcDbEntity
  8
1
  6
CONTINUOUS
 62
     7
100
AcDbText
 10
267.3457
 20
-346.1498
 30
0.0
 40
3.0
  1
BE GALVANIZED IN ACCORDANCE WITH ASTM A 653M COATING
  7
MONOTXT
 11
267.3457
 21
-343.1498
 31
0.0
210
0.0
220
0.0
230
1.0
100
AcDbText
 73
     3
  0
TEXT
  5
6AB
100
AcDbEntity
  8
1
  6
CONTINUOUS
 62
     7
100
AcDbText
 10
267.3457
 20
-351.5498
 30
0.0
 40
3.0
  1
DESIGNATION G90.
  7
MONOTXT
 11
267.3457
 21
-348.5498
 31
0.0
210
0.0
220
0.0
230
1.0
100
AcDbText
 73
     3
  0
TEXT
  5
6AC
100
AcDbEntity
  8
1
  6
CONTINUOUS
 62
     7
100
AcDbText
 10
267.3457
 20
-356.9498
 30
0.0
 40
3.0
  1
 
  7
MONOTXT
 11
267.3457
 21
-353.9498
 31
0.0
210
0.0
220
0.0
230
1.0
100
AcDbText
 73
     3
  0
TEXT
  5
6AD
100
AcDbEntity
  8
1
  6
CONTINUOUS
 62
     7
100
AcDbText
 10
267.3457
 20
-362.3498
 30
0.0
 40
3.0
  1
CADIUM PLATED BOLTS SHALL MEET THE REQUIREMENTS OF
  7
MONOTXT
 11
267.3457
 21
-359.3498
 31
0.0
210
0.0
220
0.0
230
1.0
100
AcDbText
 73
     3
  0
TEXT
  5
6AE
100
AcDbEntity
  8
1
  6
CONTINUOUS
 62
     7
100
AcDbText
 10
267.3457
 20
-367.7498
 30
0.0
 40
3.0
  1
ASTM B 766, CLASS 8, TYPE 2.
  7
MONOTXT
 11
267.3457
 21
-364.7498
 31
0.0
210
0.0
220
0.0
230
1.0
100
AcDbText
 73
     3
  0
TEXT
  5
6AF
100
AcDbEntity
  8
1
  6
CONTINUOUS
 62
     7
100
AcDbText
 10
267.3457
 20
-373.1498
 30
0.0
 40
3.0
  1
 
  7
MONOTXT
 11
267.3457
 21
-370.1498
 31
0.0
210
0.0
220
0.0
230
1.0
100
AcDbText
 73
     3
  0
TEXT
  5
6B0
100
AcDbEntity
  8
1
  6
CONTINUOUS
 62
     7
100
AcDbText
 10
267.3457
 20
-378.5498
 30
0.0
 40
3.0
  1
BRACKETS (T, L, AND SQUARE) SHALL BE FABRICATED FROM STEEL
  7
MONOTXT
 11
267.3457
 21
-375.5498
 31
0.0
210
0.0
220
0.0
230
1.0
100
AcDbText
 73
     3
  0
TEXT
  5
6B1
100
AcDbEntity
  8
1
  6
CONTINUOUS
 62
     7
100
AcDbText
 10
267.3457
 20
-383.9498
 30
0.0
 40
3.0
  1
CONFORMING TO C-1010. GALVANIZATION SHALL BE IN ACCORDANCE
  7
MONOTXT
 11
267.3457
 21
-380.9498
 31
0.0
210
0.0
220
0.0
230
1.0
100
AcDbText
 73
     3
  0
TEXT
  5
6B2
100
AcDbEntity
  8
1
  6
CONTINUOUS
 62
     7
100
AcDbText
 10
267.3457
 20
-389.3498
 30
0.0
 40
3.0
  1
WITH ASTM A 653M COATING DESIGNATION G90.
  7
MONOTXT
 11
267.3457
 21
-386.3498
 31
0.0
210
0.0
220
0.0
230
1.0
100
AcDbText
 73
     3
  0
TEXT
  5
6B3
100
AcDbEntity
  8
1
  6
CONTINUOUS
 62
     7
100
AcDbText
 10
267.3457
 20
-394.7498
 30
0.0
 40
3.0
  1
 
  7
MONOTXT
 11
267.3457
 21
-391.7498
 31
0.0
210
0.0
220
0.0
230
1.0
100
AcDbText
 73
     3
  0
TEXT
  5
6B4
100
AcDbEntity
  8
1
  6
CONTINUOUS
 62
     7
100
AcDbText
 10
267.3457
 20
-400.1498
 30
0.0
 40
3.0
  1
PAYMENT FOR TUBULAR SUPPORTS SHALL BE INCIDENTAL TO THE
  7
MONOTXT
 11
267.3457
 21
-397.1498
 31
0.0
210
0.0
220
0.0
230
1.0
100
AcDbText
 73
     3
  0
TEXT
  5
6B5
100
AcDbEntity
  8
1
  6
CONTINUOUS
 62
     7
100
AcDbText
 10
267.3457
 20
-405.5498
 30
0.0
 40
3.0
  1
AMOUNT BID FOR CHANNEL POSTS.
  7
MONOTXT
 11
267.3457
 21
-402.5498
 31
0.0
210
0.0
220
0.0
230
1.0
100
AcDbText
 73
     3
  0
TEXT
  5
6B6
100
AcDbEntity
  8
1
  6
CONTINUOUS
 62
     7
100
AcDbText
 10
396.7909
 20
50.7793
 30
0.0
 40
3.0
  1
44.5mmx44.5mm, 2.66mm SQUARE STEEL POST (9.00kg/m POST)
  7
MONOTXT
 11
396.7909
 21
53.7793
 31
0.0
210
0.0
220
0.0
230
1.0
100
AcDbText
 73
     3
  0
TEXT
  5
6B7
100
AcDbEntity
  8
1
  6
CONTINUOUS
 62
     7
100
AcDbText
 10
396.7909
 20
45.3793
 30
0.0
 40
3.0
  1
38.1mmx38.1mm, 2.65mm SQUARE STEEL POST (6.00kg/m POST)
  7
MONOTXT
 11
396.7909
 21
48.3793
 31
0.0
210
0.0
220
0.0
230
1.0
100
AcDbText
 73
     3
  0
TEXT
  5
6B8
100
AcDbEntity
  8
1
  6
CONTINUOUS
 62
     7
100
AcDbText
 10
403.53
 20
23.2526
 30
0.0
 40
3.0
  1
11.11mm DIA. HOLES,
  7
MONOTXT
 11
403.53
 21
26.2526
 31
0.0
210
0.0
220
0.0
230
1.0
100
AcDbText
 73
     3
  0
TEXT
  5
6B9
100
AcDbEntity
  8
1
  6
CONTINUOUS
 62
     7
100
AcDbText
 10
403.53
 20
17.8526
 30
0.0
 40
3.0
  1
25mm C/C TYP.
  7
MONOTXT
 11
403.53
 21
20.8526
 31
0.0
210
0.0
220
0.0
230
1.0
100
AcDbText
 73
     3
  0
LINE
  5
6BA
100
AcDbEntity
  8
1
  6
CONTINUOUS
 62
     7
100
AcDbLine
 10
391.4619
 20
-187.3399
 30
0.0
 11
378.1222
 21
-140.7596
 31
0.0
  0
LINE
  5
6BB
100
AcDbEntity
  8
1
  6
CONTINUOUS
 62
     7
100
AcDbLine
 10
378.1222
 20
-140.7596
 30
0.0
 11
389.0
 21
-140.7596
 31
0.0
  0
INSERT
  5
6BC
100
AcDbEntity
  8
1
  6
CONTINUOUS
 62
     1
100
AcDbBlockReference
  2
LDR
 10
391.4619
 20
-187.3399
 30
0.0
 41
240.000001
 42
240.000001
 50
285.980692
210
0.0
220
0.0
230
1.0
  0
LINE
  5
6BD
100
AcDbEntity
  8
1
  6
CONTINUOUS
 62
     3
100
AcDbLine
 10
399.2958
 20
-184.184
 30
0.0
 11
399.2958
 21
-196.184
 31
0.0
  0
LINE
  5
6BE
100
AcDbEntity
  8
1
  6
CONTINUOUS
 62
     3
100
AcDbLine
 10
399.2958
 20
-211.8076
 30
0.0
 11
399.2958
 21
-223.8076
 31
0.0
  0
LINE
  5
6BF
100
AcDbEntity
  8
1
  6
CONTINUOUS
 62
     7
100
AcDbLine
 10
399.2958
 20
-188.984
 30
0.0
 11
391.0149
 21
-168.8717
 31
0.0
  0
LINE
  5
6C0
100
AcDbEntity
  8
1
  6
CONTINUOUS
 62
     7
100
AcDbLine
 10
391.0149
 20
-168.8717
 30
0.0
 11
395.5276
 21
-168.8717
 31
0.0
  0
INSERT
  5
6C1
100
AcDbEntity
  8
1
  6
CONTINUOUS
 62
     1
100
AcDbBlockReference
  2
LDR
 10
399.2958
 20
-188.984
 30
0.0
 41
239.999998
 42
239.999998
 50
292.378588
210
0.0
220
0.0
230
1.0
  0
LINE
  5
6C2
100
AcDbEntity
  8
1
  6
CONTINUOUS
 62
     7
100
AcDbLine
 10
377.6277
 20
-231.8958
 30
0.0
 11
378.0172
 21
-249.4686
 31
0.0
  0
LINE
  5
6C3
100
AcDbEntity
  8
1
  6
CONTINUOUS
 62
     7
100
AcDbLine
 10
447.2277
 20
-231.8958
 30
0.0
 11
446.8382
 21
-249.4686
 31
0.0
  0
INSERT
  5
6C4
100
AcDbEntity
  8
1
  6
CONTINUOUS
 62
     1
100
AcDbBlockReference
  2
LDR
 10
377.6277
 20
-231.8958
 30
0.0
 41
239.999998
 42
239.999998
 50
91.26975
210
0.0
220
0.0
230
1.0
  0
INSERT
  5
6C5
100
AcDbEntity
  8
1
  6
CONTINUOUS
 62
     1
100
AcDbBlockReference
  2
LDR
 10
447.2277
 20
-231.8958
 30
0.0
 41
239.999998
 42
239.999998
 50
88.73025
210
0.0
220
0.0
230
1.0
  0
LINE
  5
6C6
100
AcDbEntity
  8
1
  6
CONTINUOUS
 62
     7
100
AcDbLine
 10
378.0172
 20
-249.4686
 30
0.0
 11
380.69
 21
-249.4686
 31
0.0
  0
LINE
  5
6C7
100
AcDbEntity
  8
1
  6
CONTINUOUS
 62
     7
100
AcDbLine
 10
444.255
 20
-249.4686
 30
0.0
 11
446.8382
 21
-249.4686
 31
0.0
  0
TEXT
  5
6C8
100
AcDbEntity
  8
1
  6
CONTINUOUS
 62
     7
100
AcDbText
 10
390.4913
 20
-139.448
 30
0.0
 40
3.0
  1
44.5mmx44.5mm, 2.66mm SQUARE STEEL POST (9.00kg/m POST)
 41
0.833333
  7
MONOTXT
 11
390.4913
 21
-136.448
 31
0.0
210
0.0
220
0.0
230
1.0
100
AcDbText
 73
     3
  0
TEXT
  5
6C9
100
AcDbEntity
  8
1
  6
CONTINUOUS
 62
     7
100
AcDbText
 10
390.4913
 20
-144.848
 30
0.0
 40
3.0
  1
38.1mmx38.1mm, 2.65mm SQUARE STEEL POST (6.00kg/m POST)
 41
0.833333
  7
MONOTXT
 11
390.4913
 21
-141.848
 31
0.0
210
0.0
220
0.0
230
1.0
100
AcDbText
 73
     3
  0
TEXT
  5
6CA
100
AcDbEntity
  8
1
  6
CONTINUOUS
 62
     7
100
AcDbText
 10
397.2304
 20
-166.9747
 30
0.0
 40
3.0
  1
11.11mm DIA. HOLES,
  7
MONOTXT
 11
397.2304
 21
-163.9747
 31
0.0
210
0.0
220
0.0
230
1.0
100
AcDbText
 73
     3
  0
TEXT
  5
6CB
100
AcDbEntity
  8
1
  6
CONTINUOUS
 62
     7
100
AcDbText
 10
397.2304
 20
-172.3747
 30
0.0
 40
3.0
  1
25mm C/C TYP.
  7
MONOTXT
 11
397.2304
 21
-169.3747
 31
0.0
210
0.0
220
0.0
230
1.0
100
AcDbText
 73
     3
  0
TEXT
  5
6CC
100
AcDbEntity
  8
1
  6
CONTINUOUS
 62
     7
100
AcDbText
 10
602.3419
 20
-62.398
 30
0.0
 40
3.0
  1
50mm TYP.
  7
MONOTXT
 72
     4
 11
616.1489
 21
-60.898
 31
0.0
210
0.0
220
0.0
230
1.0
100
AcDbText
  0
TEXT
  5
6CD
100
AcDbEntity
  8
1
  6
CONTINUOUS
 62
     7
100
AcDbText
 10
547.322
 20
-108.6879
 30
0.0
 40
3.0
  1
550mm TYP.
 50
90.0
  7
MONOTXT
 72
     4
 11
545.822
 21
-93.3927
 31
0.0
210
0.0
220
0.0
230
1.0
100
AcDbText
  0
TEXT
  5
6CE
100
AcDbEntity
  8
1
  6
CONTINUOUS
 62
     7
100
AcDbText
 10
608.1737
 20
-134.3989
 30
0.0
 40
3.0
  1
225mm TYP.
 50
90.0
  7
MONOTXT
 72
     4
 11
606.6737
 21
-119.1037
 31
0.0
210
0.0
220
0.0
230
1.0
100
AcDbText
  0
TEXT
  5
6CF
100
AcDbEntity
  8
1
  6
CONTINUOUS
 62
     7
100
AcDbText
 10
659.7393
 20
-109.3701
 30
0.0
 40
3.0
  1
25mm TYP.
  7
MONOTXT
 72
     4
 11
673.5463
 21
-107.8701
 31
0.0
210
0.0
220
0.0
230
1.0
100
AcDbText
  0
TEXT
  5
6D0
100
AcDbEntity
  8
1
  6
CONTINUOUS
 62
     7
100
AcDbText
 10
87.5044
 20
-39.7773
 30
0.0
 40
3.0
  1
7.94mm DIAMETER
  7
MONOTXT
 72
     4
 11
109.1304
 21
-38.2773
 31
0.0
210
0.0
220
0.0
230
1.0
100
AcDbText
  0
TEXT
  5
6D1
100
AcDbEntity
  8
1
  6
CONTINUOUS
 62
     7
100
AcDbText
 10
92.3234
 20
-45.1773
 30
0.0
 40
3.0
  1
CADMIUM BOLT
  7
MONOTXT
 72
     4
 11
109.1304
 21
-43.6773
 31
0.0
210
0.0
220
0.0
230
1.0
100
AcDbText
  0
TEXT
  5
6D2
100
AcDbEntity
  8
1
  6
CONTINUOUS
 62
     7
100
AcDbText
 10
269.1494
 20
-91.7677
 30
0.0
 40
3.0
  1
7.94mm CADMIUM PLATED HEX. NUTS
  7
MONOTXT
 11
269.1494
 21
-88.7677
 31
0.0
210
0.0
220
0.0
230
1.0
100
AcDbText
 73
     3
  0
TEXT
  5
6D3
100
AcDbEntity
  8
1
  6
CONTINUOUS
 62
     7
100
AcDbText
 10
269.1494
 20
-97.1677
 30
0.0
 40
3.0
  1
AND LOCKWASHERS TYP.
  7
MONOTXT
 11
269.1494
 21
-94.1677
 31
0.0
210
0.0
220
0.0
230
1.0
100
AcDbText
 73
     3
  0
TEXT
  5
6D4
100
AcDbEntity
  8
1
  6
CONTINUOUS
 62
     7
100
AcDbText
 10
475.6938
 20
4.4334
 30
0.0
 40
3.0
  1
7.94mm SLOTTED CADMIUM PLATED
  7
MONOTXT
 11
475.6938
 21
7.4334
 31
0.0
210
0.0
220
0.0
230
1.0
100
AcDbText
 73
     3
  0
TEXT
  5
6D5
100
AcDbEntity
  8
1
  6
CONTINUOUS
 62
     7
100
AcDbText
 10
475.6938
 20
-0.9666
 30
0.0
 40
3.0
  1
ROUND-HEAD BOLTS HEX. NUTS
  7
MONOTXT
 11
475.6938
 21
2.0334
 31
0.0
210
0.0
220
0.0
230
1.0
100
AcDbText
 73
     3
  0
TEXT
  5
6D6
100
AcDbEntity
  8
1
  6
CONTINUOUS
 62
     7
100
AcDbText
 10
475.6938
 20
-6.3666
 30
0.0
 40
3.0
  1
AND LOCKWASHERS
  7
MONOTXT
 11
475.6938
 21
-3.3666
 31
0.0
210
0.0
220
0.0
230
1.0
100
AcDbText
 73
     3
  0
TEXT
  5
6D7
100
AcDbEntity
  8
1
  6
CONTINUOUS
 62
     7
100
AcDbText
 10
387.3694
 20
-60.8468
 30
0.0
 40
3.0
  1
3.175mm ALUMINUM PLATE
  7
MONOTXT
 72
     4
 11
418.7748
 21
-59.3468
 31
0.0
210
0.0
220
0.0
230
1.0
100
AcDbText
  0
TEXT
  5
6D8
100
AcDbEntity
  8
1
  6
CONTINUOUS
 62
     7
100
AcDbText
 10
394.8366
 20
-227.8504
 30
0.0
 40
3.0
  1
7.94mm STEEL HEX.
  7
MONOTXT
 11
394.8366
 21
-224.8504
 31
0.0
210
0.0
220
0.0
230
1.0
100
AcDbText
 73
     3
  0
TEXT
  5
6D9
100
AcDbEntity
  8
1
  6
CONTINUOUS
 62
     7
100
AcDbText
 10
394.8366
 20
-233.2504
 30
0.0
 40
3.0
  1
HEAD BOLTS WITH
  7
MONOTXT
 11
394.8366
 21
-230.2504
 31
0.0
210
0.0
220
0.0
230
1.0
100
AcDbText
 73
     3
  0
TEXT
  5
6DA
100
AcDbEntity
  8
1
  6
CONTINUOUS
 62
     7
100
AcDbText
 10
394.8366
 20
-238.6504
 30
0.0
 40
3.0
  1
HEX. NUTS AND
  7
MONOTXT
 11
394.8366
 21
-235.6504
 31
0.0
210
0.0
220
0.0
230
1.0
100
AcDbText
 73
     3
  0
TEXT
  5
6DB
100
AcDbEntity
  8
1
  6
CONTINUOUS
 62
     7
100
AcDbText
 10
394.8366
 20
-244.0504
 30
0.0
 40
3.0
  1
LOCKWASHERS
  7
MONOTXT
 11
394.8366
 21
-241.0504
 31
0.0
210
0.0
220
0.0
230
1.0
100
AcDbText
 73
     3
  0
TEXT
  5
6DC
100
AcDbEntity
  8
1
  6
CONTINUOUS
 62
     7
100
AcDbText
 10
381.0698
 20
-251.0741
 30
0.0
 40
3.0
  1
3.175mm ALUMINUM PLATE
  7
MONOTXT
 72
     4
 11
412.4752
 21
-249.5741
 31
0.0
210
0.0
220
0.0
230
1.0
100
AcDbText
  0
ENDSEC
  0
SECTION
  2
OBJECTS
  0
DICTIONARY
  5
19
100
AcDbDictionary
  3
ACAD_GROUP
350
1A
  3
ACAD_MLINESTYLE
350
1B
  0
DICTIONARY
  5
1A
102
{ACAD_REACTORS
330
19
102
}
100
AcDbDictionary
  0
DICTIONARY
  5
1B
102
{ACAD_REACTORS
330
19
102
}
100
AcDbDictionary
  3
STANDARD
350
1C
  0
MLINESTYLE
  5
1C
102
{ACAD_REACTORS
330
1B
102
}
100
AcDbMlineStyle
  2
STANDARD
 70
     0
  3

 62
     0
 51
90.0
 52
90.0
 71
     2
 49
0.5
 62
   256
  6
BYLAYER
 49
-0.5
 62
   256
  6
BYLAYER
  0
ENDSEC
  0
EOF
