  0
SECTION
  2
HEADER
  9
$ACADVER
  1
AC1014
  9
$ACADMAINTVER
 70
     0
  9
$DWGCODEPAGE
  3
ANSI_1252
  9
$INSBASE
 10
0.0
 20
0.0
 30
0.0
  9
$EXTMIN
 10
-65.6064
 20
-435.2063
 30
0.0
  9
$EXTMAX
 10
732.3936
 20
102.1937
 30
0.0
  9
$LIMMIN
 10
0.0
 20
0.0
  9
$LIMMAX
 10
12.0
 20
9.0
  9
$ORTHOMODE
 70
     0
  9
$REGENMODE
 70
     1
  9
$FILLMODE
 70
     1
  9
$QTEXTMODE
 70
     0
  9
$MIRRTEXT
 70
     1
  9
$DRAGMODE
 70
     2
  9
$LTSCALE
 40
1.0
  9
$OSMODE
 70
     0
  9
$ATTMODE
 70
     1
  9
$TEXTSIZE
 40
0.2
  9
$TRACEWID
 40
0.05
  9
$TEXTSTYLE
  7
STANDARD
  9
$CLAYER
  8
0
  9
$CELTYPE
  6
CONTINUOUS
  9
$CECOLOR
 62
   256
  9
$CELTSCALE
 40
1.0
  9
$DELOBJ
 70
     1
  9
$DISPSILH
 70
     0
  9
$DIMSCALE
 40
1.0
  9
$DIMASZ
 40
0.18
  9
$DIMEXO
 40
0.0625
  9
$DIMDLI
 40
0.38
  9
$DIMRND
 40
0.0
  9
$DIMDLE
 40
0.0
  9
$DIMEXE
 40
0.18
  9
$DIMTP
 40
0.0
  9
$DIMTM
 40
0.0
  9
$DIMTXT
 40
0.18
  9
$DIMCEN
 40
0.09
  9
$DIMTSZ
 40
0.0
  9
$DIMTOL
 70
     0
  9
$DIMLIM
 70
     0
  9
$DIMTIH
 70
     1
  9
$DIMTOH
 70
     1
  9
$DIMSE1
 70
     0
  9
$DIMSE2
 70
     0
  9
$DIMTAD
 70
     0
  9
$DIMZIN
 70
     0
  9
$DIMBLK
  1

  9
$DIMASO
 70
     1
  9
$DIMSHO
 70
     1
  9
$DIMPOST
  1

  9
$DIMAPOST
  1

  9
$DIMALT
 70
     0
  9
$DIMALTD
 70
     2
  9
$DIMALTF
 40
25.4
  9
$DIMLFAC
 40
1.0
  9
$DIMTOFL
 70
     0
  9
$DIMTVP
 40
0.0
  9
$DIMTIX
 70
     0
  9
$DIMSOXD
 70
     0
  9
$DIMSAH
 70
     0
  9
$DIMBLK1
  1

  9
$DIMBLK2
  1

  9
$DIMSTYLE
  2
STANDARD
  9
$DIMCLRD
 70
     0
  9
$DIMCLRE
 70
     0
  9
$DIMCLRT
 70
     0
  9
$DIMTFAC
 40
1.0
  9
$DIMGAP
 40
0.09
  9
$DIMJUST
 70
     0
  9
$DIMSD1
 70
     0
  9
$DIMSD2
 70
     0
  9
$DIMTOLJ
 70
     1
  9
$DIMTZIN
 70
     0
  9
$DIMALTZ
 70
     0
  9
$DIMALTTZ
 70
     0
  9
$DIMFIT
 70
     3
  9
$DIMUPT
 70
     0
  9
$DIMUNIT
 70
     2
  9
$DIMDEC
 70
     4
  9
$DIMTDEC
 70
     4
  9
$DIMALTU
 70
     2
  9
$DIMALTTD
 70
     2
  9
$DIMTXSTY
  7
STANDARD
  9
$DIMAUNIT
 70
     0
  9
$LUNITS
 70
     2
  9
$LUPREC
 70
     4
  9
$SKETCHINC
 40
0.1
  9
$FILLETRAD
 40
0.0
  9
$AUNITS
 70
     0
  9
$AUPREC
 70
     0
  9
$MENU
  1
acad
  9
$ELEVATION
 40
0.0
  9
$PELEVATION
 40
0.0
  9
$THICKNESS
 40
0.0
  9
$LIMCHECK
 70
     0
  9
$BLIPMODE
 70
     1
  9
$CHAMFERA
 40
0.0
  9
$CHAMFERB
 40
0.0
  9
$CHAMFERC
 40
0.0
  9
$CHAMFERD
 40
0.0
  9
$SKPOLY
 70
     0
  9
$TDCREATE
 40
2451803.476747685
  9
$TDUPDATE
 40
2451803.476747685
  9
$TDINDWG
 40
0.0000000000
  9
$TDUSRTIMER
 40
0.0000000000
  9
$USRTIMER
 70
     1
  9
$ANGBASE
 50
0.0
  9
$ANGDIR
 70
     0
  9
$PDMODE
 70
     0
  9
$PDSIZE
 40
0.0
  9
$PLINEWID
 40
0.0
  9
$COORDS
 70
     0
  9
$SPLFRAME
 70
     0
  9
$SPLINETYPE
 70
     6
  9
$SPLINESEGS
 70
    10
  9
$ATTDIA
 70
     0
  9
$ATTREQ
 70
     1
  9
$HANDLING
 70
     1
  9
$HANDSEED
  5
191
  9
$SURFTAB1
 70
     6
  9
$SURFTAB2
 70
     6
  9
$SURFTYPE
 70
     6
  9
$SURFU
 70
     6
  9
$SURFV
 70
     6
  9
$UCSNAME
  2

  9
$UCSORG
 10
0.0
 20
0.0
 30
0.0
  9
$UCSXDIR
 10
1.0
 20
0.0
 30
0.0
  9
$UCSYDIR
 10
0.0
 20
1.0
 30
0.0
  9
$PUCSNAME
  2

  9
$PUCSORG
 10
0.0
 20
0.0
 30
0.0
  9
$PUCSXDIR
 10
1.0
 20
0.0
 30
0.0
  9
$PUCSYDIR
 10
0.0
 20
1.0
 30
0.0
  9
$USERI1
 70
     0
  9
$USERI2
 70
     0
  9
$USERI3
 70
     0
  9
$USERI4
 70
     0
  9
$USERI5
 70
     0
  9
$USERR1
 40
0.0
  9
$USERR2
 40
0.0
  9
$USERR3
 40
0.0
  9
$USERR4
 40
0.0
  9
$USERR5
 40
0.0
  9
$WORLDVIEW
 70
     1
  9
$SHADEDGE
 70
     3
  9
$SHADEDIF
 70
    70
  9
$TILEMODE
 70
     1
  9
$MAXACTVP
 70
    16
  9
$PINSBASE
 10
0.0
 20
0.0
 30
0.0
  9
$PLIMCHECK
 70
     0
  9
$PEXTMIN
 10
-1.000000E+20
 20
-1.000000E+20
 30
-1.000000E+20
  9
$PEXTMAX
 10
-1.000000E+20
 20
-1.000000E+20
 30
-1.000000E+20
  9
$PLIMMIN
 10
0.0
 20
0.0
  9
$PLIMMAX
 10
12.0
 20
9.0
  9
$UNITMODE
 70
     0
  9
$VISRETAIN
 70
     0
  9
$PLINEGEN
 70
     1
  9
$PSLTSCALE
 70
     0
  9
$TREEDEPTH
 70
  3020
  9
$PICKSTYLE
 70
     1
  9
$CMLSTYLE
  2
STANDARD
  9
$CMLJUST
 70
     0
  9
$CMLSCALE
 40
1.0
  9
$PROXYGRAPHICS
 70
     0
  9
$MEASUREMENT
 70
     0
  0
ENDSEC
  0
SECTION
  2
CLASSES
  0
CLASS
  1
LWPOLYLINE
  2
AcDbPolyline
  3
"AutoCAD"
 90
        0
280
     0
281
     1
  0
CLASS
  1
IMAGE
  2
AcDbRasterImage
  3
ISM
 90
      127
280
     0
281
     1
  0
CLASS
  1
OLE2FRAME
  2
AcDbOle2Frame
  3
""
 90
        0
280
     0
281
     1
  0
CLASS
  1
HATCH
  2
AcDbHatch
  3
"ACAD_SEDONA"
 90
        0
280
     0
281
     1
  0
CLASS
  1
DICTIONARYVAR
  2
AcDbDictionaryVar
  3
"AutoCAD"
 90
        0
280
     0
281
     0
  0
CLASS
  1
RASTERVARIABLES
  2
AcDbRasterVariables
  3
ISM
 90
        0
280
     0
281
     0
  0
CLASS
  1
IMAGEDEF
  2
AcDbRasterImageDef
  3
ISM
 90
        0
280
     0
281
     0
  0
CLASS
  1
IMAGEDEF_REACTOR
  2
AcDbRasterImageDefReactor
  3
ISM
 90
        1
280
     0
281
     0
  0
CLASS
  1
IDBUFFER
  2
AcDbIdBuffer
  3
"Acad"
 90
        0
280
     0
281
     0
  0
CLASS
  1
SPATIAL_FILTER
  2
AcDbSpatialFilter
  3
"Acad"
 90
        0
280
     0
281
     0
  0
CLASS
  1
XRECORD
  2
AcDbXrecord
  3
"<Built In>"
 90
        0
280
     0
281
     0
  0
CLASS
  1
SORTENTSTABLE
  2
AcDbSortentsTable
  3
"AutoCAD"
 90
        0
280
     0
281
     0
  0
CLASS
  1
LAYER_INDEX
  2
AcDbLayerIndex
  3
"Acad"
 90
        0
280
     0
281
     0
  0
CLASS
  1
SPATIAL_INDEX
  2
AcDbSpatialIndex
  3
"Acad"
 90
        0
280
     0
281
     0
  0
CLASS
  1
OBJECT_PTR
  2
CAseDLPNTableRecord
  3
"ASE-LPNTableRecord"
 90
        1
280
     0
281
     0
  0
ENDSEC
  0
SECTION
  2
TABLES
  0
TABLE
  2
VPORT
  5
7
100
AcDbSymbolTable
 70
     1
  0
VPORT
  5
190
100
AcDbSymbolTableRecord
100
AcDbViewportTableRecord
  2
*ACTIVE
 70
     0
 10
0.0
 20
0.0
 11
1.0
 21
1.0
 12
0.0
 22
0.0
 13
0.0
 23
0.0
 14
0.0
 24
0.0
 15
0.0
 25
0.0
 16
0.0
 26
0.0
 36
1.0
 17
280.236
 27
-163.4563
 37
0.0
 40
565.24
 41
1.545
 42
50.0
 43
0.0
 44
0.0
 50
0.0
 51
0.0
 71
     0
 72
   100
 73
     1
 74
     0
 75
     0
 76
     0
 77
     0
 78
     0
  0
ENDTAB
  0
TABLE
  2
LTYPE
  5
4
100
AcDbSymbolTable
 70
     9
  0
LTYPE
  5
11
100
AcDbSymbolTableRecord
100
AcDbLinetypeTableRecord
  2
BYBLOCK
 70
     0
  3

 72
    65
 73
     0
 40
0.0
  0
LTYPE
  5
12
100
AcDbSymbolTableRecord
100
AcDbLinetypeTableRecord
  2
BYLAYER
 70
     0
  3

 72
    65
 73
     0
 40
0.0
  0
LTYPE
  5
13
100
AcDbSymbolTableRecord
100
AcDbLinetypeTableRecord
  2
CONTINUOUS
 70
     0
  3
Solid line
 72
    65
 73
     0
 40
0.0
  0
LTYPE
  5
22
100
AcDbSymbolTableRecord
100
AcDbLinetypeTableRecord
  2
DOT
 70
    64
  3
. . . . . . . . . . . . . . . . . . . . . . . . . . . . . . . . .
 72
    65
 73
     2
 40
0.25
 49
0.0
 74
     0
 49
-0.25
 74
     0
  0
LTYPE
  5
23
100
AcDbSymbolTableRecord
100
AcDbLinetypeTableRecord
  2
HIDDEN
 70
    64
  3
__ __ __ __ __ __ __ __ __ __ __ __ __ __ __ __ __ __ __ __ __ 
 72
    65
 73
     2
 40
0.375
 49
0.25
 74
     0
 49
-0.125
 74
     0
  0
LTYPE
  5
24
100
AcDbSymbolTableRecord
100
AcDbLinetypeTableRecord
  2
DASHED
 70
    64
  3
__ __ __ __ __ __ __ __ __ __ __ __ __ __ __ __ __ __ __ __ __
 72
    65
 73
     2
 40
0.75
 49
0.5
 74
     0
 49
-0.25
 74
     0
  0
LTYPE
  5
25
100
AcDbSymbolTableRecord
100
AcDbLinetypeTableRecord
  2
DASHDOT
 70
    64
  3
__ . __ . __ . __ . __ . __ . __ . __ . __ . __ . __ . __ . _
 72
    65
 73
     4
 40
1.0
 49
0.5
 74
     0
 49
-0.25
 74
     0
 49
0.0
 74
     0
 49
-0.25
 74
     0
  0
LTYPE
  5
26
100
AcDbSymbolTableRecord
100
AcDbLinetypeTableRecord
  2
DIVIDE
 70
    64
  3
____ . . ____ . . ____ . . ____ . . ____ . . ____ . . ____ . .
 72
    65
 73
     6
 40
1.25
 49
0.5
 74
     0
 49
-0.25
 74
     0
 49
0.0
 74
     0
 49
-0.25
 74
     0
 49
0.0
 74
     0
 49
-0.25
 74
     0
  0
LTYPE
  5
27
100
AcDbSymbolTableRecord
100
AcDbLinetypeTableRecord
  2
CENTER
 70
    64
  3
____ _ ____ _ ____ _ ____ _ ____ _ ____ _ ____ _ ____ _ ____ _
 72
    65
 73
     4
 40
2.0
 49
1.25
 74
     0
 49
-0.25
 74
     0
 49
0.25
 74
     0
 49
-0.25
 74
     0
  0
ENDTAB
  0
TABLE
  2
LAYER
  5
2
100
AcDbSymbolTable
 70
     5
  0
LAYER
  5
14
102
{ACAD_XDICTIONARY
360
5F205F5F5F5F205F
102
}
100
AcDbSymbolTableRecord
100
AcDbLayerTableRecord
  2
0
 70
     0
 62
     7
  6
CONTINUOUS
  0
LAYER
  5
1E
102
{ACAD_XDICTIONARY
360
5F205F5F5F5F205F
102
}
100
AcDbSymbolTableRecord
100
AcDbLayerTableRecord
  2
CONSTRUCTION_CLASS
 70
    64
 62
     7
  6
CONTINUOUS
  0
LAYER
  5
1F
102
{ACAD_XDICTIONARY
360
5F205F5F5F5F205F
102
}
100
AcDbSymbolTableRecord
100
AcDbLayerTableRecord
  2
PATTERN_CLASS
 70
    64
 62
     7
  6
CONTINUOUS
  0
LAYER
  5
2A
102
{ACAD_XDICTIONARY
360
5F205F5F5F5F205F
102
}
100
AcDbSymbolTableRecord
100
AcDbLayerTableRecord
  2
1
 70
    64
 62
     7
  6
CONTINUOUS
  0
LAYER
  5
118
102
{ACAD_XDICTIONARY
360
5F205F5F5F5F205F
102
}
100
AcDbSymbolTableRecord
100
AcDbLayerTableRecord
  2
61
 70
    64
 62
     7
  6
CONTINUOUS
  0
ENDTAB
  0
TABLE
  2
STYLE
  5
3
100
AcDbSymbolTable
 70
     4
  0
STYLE
  5
17
100
AcDbSymbolTableRecord
100
AcDbTextStyleTableRecord
  2
STANDARD
 70
     0
 40
0.0
 41
1.0
 50
0.0
 71
     0
 42
0.0
  3
txt
  4

  0
STYLE
  5
2B
100
AcDbSymbolTableRecord
100
AcDbTextStyleTableRecord
  2
MONOTXT
 70
     0
 40
0.2
 41
1.0
 50
0.0
 71
     0
 42
0.2
  3
MONOTXT
  4

  0
STYLE
  5
34
100
AcDbSymbolTableRecord
100
AcDbTextStyleTableRecord
  2
TXT
 70
     0
 40
0.2
 41
1.0
 50
0.0
 71
     0
 42
0.2
  3
TXT
  4

  0
STYLE
  5
14F
100
AcDbSymbolTableRecord
100
AcDbTextStyleTableRecord
  2
ROMANT
 70
     0
 40
0.2
 41
1.0
 50
0.0
 71
     0
 42
0.2
  3
ROMANT
  4

  0
ENDTAB
  0
TABLE
  2
VIEW
  5
5
100
AcDbSymbolTable
 70
     0
  0
ENDTAB
  0
TABLE
  2
UCS
  5
6
100
AcDbSymbolTable
 70
     0
  0
ENDTAB
  0
TABLE
  2
APPID
  5
8
100
AcDbSymbolTable
 70
     1
  0
APPID
  5
16
100
AcDbSymbolTableRecord
100
AcDbRegAppTableRecord
  2
ACAD
 70
     0
  0
ENDTAB
  0
TABLE
  2
DIMSTYLE
  5
9
100
AcDbSymbolTable
 70
     1
  0
DIMSTYLE
105
18
100
AcDbSymbolTableRecord
100
AcDbDimStyleTableRecord
  2
STANDARD
 70
     0
  3

  4

  5

  6

  7

 40
1.0
 41
0.18
 42
0.0625
 43
0.38
 44
0.18
 45
0.0
 46
0.0
 47
0.0
 48
0.0
140
0.18
141
0.09
142
0.0
143
25.4
144
1.0
145
0.0
146
1.0
147
0.09
 71
     0
 72
     0
 73
     1
 74
     1
 75
     0
 76
     0
 77
     0
 78
     0
170
     0
171
     2
172
     0
173
     0
174
     0
175
     0
176
     0
177
     0
178
     0
270
     2
271
     4
272
     4
273
     2
274
     2
340
17
275
     0
280
     0
281
     0
282
     0
283
     1
284
     0
285
     0
286
     0
287
     0
288
     0
  0
ENDTAB
  0
TABLE
  2
BLOCK_RECORD
  5
1
100
AcDbSymbolTable
 70
     2
  0
BLOCK_RECORD
  5
A
100
AcDbSymbolTableRecord
100
AcDbBlockTableRecord
  2
*MODEL_SPACE
  0
BLOCK_RECORD
  5
B
100
AcDbSymbolTableRecord
100
AcDbBlockTableRecord
  2
*PAPER_SPACE
  0
BLOCK_RECORD
  5
A4
102
{ACAD_XDICTIONARY
360
6A9B022400000040
102
}
100
AcDbSymbolTableRecord
100
AcDbBlockTableRecord
  2
LDR
  0
BLOCK_RECORD
  5
162
102
{ACAD_XDICTIONARY
360
6A9B022400000040
102
}
100
AcDbSymbolTableRecord
100
AcDbBlockTableRecord
  2
PT
  0
ENDTAB
  0
ENDSEC
  0
SECTION
  2
BLOCKS
  0
BLOCK
  5
D
100
AcDbEntity
  8
0
100
AcDbBlockBegin
  2
*MODEL_SPACE
 70
     0
 10
0.0
 20
0.0
 30
0.0
  3
*MODEL_SPACE
  1

  0
ENDBLK
  5
E
100
AcDbEntity
  8
0
100
AcDbBlockEnd
  0
BLOCK
  5
F
100
AcDbEntity
 67
     1
  8
0
100
AcDbBlockBegin
  2
*PAPER_SPACE
 70
     0
 10
0.0
 20
0.0
 30
0.0
  3
*PAPER_SPACE
  1

  0
ENDBLK
  5
10
100
AcDbEntity
 67
     1
  8
0
100
AcDbBlockEnd
  0
BLOCK
  5
A5
100
AcDbEntity
  8
1
  6
CONTINUOUS
 62
     1
100
AcDbBlockBegin
  2
LDR
 70
     0
 10
0.0
 20
0.0
 30
0.0
  3
LNR
  1

  0
ELLIPSE
  5
A6
100
AcDbEntity
  8
1
  6
CONTINUOUS
 62
     1
100
AcDbEllipse
 10
-0.005456
 20
-0.001381
 30
0.0
 11
0.0089285004623472
 21
0.0007807500129699
 31
0.0
210
0.0
220
0.0
230
1.0
 40
0.122415
 41
0.8963533496766982
 42
3.1415926535897931
  0
ELLIPSE
  5
A7
100
AcDbEntity
  8
1
  6
CONTINUOUS
 62
     1
100
AcDbEllipse
 10
-0.005603
 20
0.001058
 30
0.0
 11
0.0087822506056358
 21
-0.0008782502048316
 31
0.0
210
0.0
220
0.0
230
1.0
 40
0.07063
 41
3.1407147529760402
 42
5.4181099545465106
  0
ENDBLK
  5
A8
100
AcDbEntity
  8
1
  6
CONTINUOUS
 62
     1
100
AcDbBlockEnd
  0
BLOCK
  5
163
100
AcDbEntity
  8
1
  6
CONTINUOUS
 62
     1
100
AcDbBlockBegin
  2
PT
 70
     0
 10
0.0
 20
0.0
 30
0.0
  3
PT
  1

  0
POINT
  5
164
100
AcDbEntity
  8
1
  6
CONTINUOUS
 62
     1
100
AcDbPoint
 10
0.0
 20
0.0
 30
0.0
  0
ENDBLK
  5
165
100
AcDbEntity
  8
1
  6
CONTINUOUS
 62
     1
100
AcDbBlockEnd
  0
ENDSEC
  0
SECTION
  2
ENTITIES
  0
TEXT
  5
2C
100
AcDbEntity
  8
1
  6
CONTINUOUS
 62
     1
100
AcDbText
 10
527.8406
 20
-387.2849
 30
0.0
 40
2.400048
  1
        
  7
MONOTXT
 72
     1
 11
537.0408
 21
-384.8849
 31
0.0
210
0.0
220
0.0
230
1.0
100
AcDbText
 73
     3
  0
TEXT
  5
2D
100
AcDbEntity
  8
1
  6
CONTINUOUS
 62
     1
100
AcDbText
 10
527.8646
 20
-392.5649
 30
0.0
 40
2.400048
  1
        
  7
MONOTXT
 72
     1
 11
537.0648
 21
-390.1649
 31
0.0
210
0.0
220
0.0
230
1.0
100
AcDbText
 73
     3
  0
TEXT
  5
2E
100
AcDbEntity
  8
1
  6
CONTINUOUS
 62
     1
100
AcDbText
 10
527.8646
 20
-397.8449
 30
0.0
 40
2.400048
  1
        
  7
MONOTXT
 72
     1
 11
537.0648
 21
-395.4449
 31
0.0
210
0.0
220
0.0
230
1.0
100
AcDbText
 73
     3
  0
TEXT
  5
2F
100
AcDbEntity
  8
1
  6
CONTINUOUS
 62
     1
100
AcDbText
 10
527.6726
 20
-403.3649
 30
0.0
 40
2.400048
  1
        
  7
MONOTXT
 72
     1
 11
536.8728
 21
-400.9649
 31
0.0
210
0.0
220
0.0
230
1.0
100
AcDbText
 73
     3
  0
TEXT
  5
30
100
AcDbEntity
  8
1
  6
CONTINUOUS
 62
     1
100
AcDbText
 10
527.8646
 20
-408.7409
 30
0.0
 40
2.400048
  1
        
  7
MONOTXT
 72
     1
 11
537.0648
 21
-406.3409
 31
0.0
210
0.0
220
0.0
230
1.0
100
AcDbText
 73
     3
  0
TEXT
  5
31
100
AcDbEntity
  8
1
  6
CONTINUOUS
 62
     1
100
AcDbText
 10
527.7446
 20
-414.2609
 30
0.0
 40
2.400048
  1
        
  7
MONOTXT
 72
     1
 11
536.9448
 21
-411.8609
 31
0.0
210
0.0
220
0.0
230
1.0
100
AcDbText
 73
     3
  0
TEXT
  5
32
100
AcDbEntity
  8
1
  6
CONTINUOUS
 62
     1
100
AcDbText
 10
527.8646
 20
-419.7569
 30
0.0
 40
2.400048
  1
        
  7
MONOTXT
 72
     1
 11
537.0648
 21
-417.3569
 31
0.0
210
0.0
220
0.0
230
1.0
100
AcDbText
 73
     3
  0
TEXT
  5
33
100
AcDbEntity
  8
1
  6
CONTINUOUS
 62
     1
100
AcDbText
 10
527.8646
 20
-424.5809
 30
0.0
 40
2.400048
  1
        
  7
MONOTXT
 72
     1
 11
537.0648
 21
-422.1809
 31
0.0
210
0.0
220
0.0
230
1.0
100
AcDbText
 73
     3
  0
TEXT
  5
35
100
AcDbEntity
  8
1
  6
CONTINUOUS
 62
     1
100
AcDbText
 10
523.3275
 20
-345.5983
 30
0.0
 40
8.3912
  1
CANTILEVER MAILBOX SUPPORT
  7
TXT
 72
     1
 11
615.9917
 21
-337.2071
 31
0.0
210
0.0
220
0.0
230
1.0
100
AcDbText
 73
     3
  0
LINE
  5
36
100
AcDbEntity
  8
1
  6
CONTINUOUS
 62
     4
100
AcDbLine
 10
228.4678
 20
-44.3417
 30
0.0
 11
228.4678
 21
-98.3417
 31
0.0
  0
LINE
  5
37
100
AcDbEntity
  8
1
  6
CONTINUOUS
 62
     4
100
AcDbLine
 10
222.1678
 20
18.6584
 30
0.0
 11
222.1678
 21
-98.3417
 31
0.0
  0
LINE
  5
38
100
AcDbEntity
  8
1
  6
CONTINUOUS
 62
     4
100
AcDbLine
 10
209.5678
 20
-44.3417
 30
0.0
 11
209.5678
 21
-98.3417
 31
0.0
  0
LINE
  5
39
100
AcDbEntity
  8
1
  6
CONTINUOUS
 62
     4
100
AcDbLine
 10
209.5678
 20
-98.3417
 30
0.0
 11
228.4678
 21
-98.3417
 31
0.0
  0
LINE
  5
3A
100
AcDbEntity
  8
1
  6
CONTINUOUS
 62
     4
100
AcDbLine
 10
222.1678
 20
18.6584
 30
0.0
 11
144.7678
 21
18.6584
 31
0.0
  0
LINE
  5
3B
100
AcDbEntity
  8
1
  6
CONTINUOUS
 62
     4
100
AcDbLine
 10
192.4678
 20
18.6584
 30
0.0
 11
222.1678
 21
-11.0416
 31
0.0
  0
LINE
  5
3C
100
AcDbEntity
  8
1
  6
CONTINUOUS
 62
     4
100
AcDbLine
 10
205.1956
 20
18.6584
 30
0.0
 11
222.1678
 21
1.6863
 31
0.0
  0
LINE
  5
3D
100
AcDbEntity
  8
1
  6
CONTINUOUS
 62
     4
100
AcDbLine
 10
196.0678
 20
15.0584
 30
0.0
 11
144.7678
 21
15.0584
 31
0.0
  0
LINE
  5
3E
100
AcDbEntity
  8
1
  6
CONTINUOUS
 62
     4
100
AcDbLine
 10
222.1678
 20
15.0584
 30
0.0
 11
208.7956
 21
15.0584
 31
0.0
  0
LINE
  5
3F
100
AcDbEntity
  8
1
  6
HIDDEN
 62
     4
100
AcDbLine
 10
208.7956
 20
15.0584
 30
0.0
 11
196.0678
 21
15.0584
 31
0.0
  0
LINE
  5
40
100
AcDbEntity
  8
1
  6
CONTINUOUS
 62
     4
100
AcDbLine
 10
215.8678
 20
15.0584
 30
0.0
 11
215.8678
 21
7.9863
 31
0.0
  0
LINE
  5
41
100
AcDbEntity
  8
1
  6
HIDDEN
 62
     4
100
AcDbLine
 10
215.8678
 20
7.9863
 30
0.0
 11
215.8678
 21
-4.7416
 31
0.0
  0
LINE
  5
42
100
AcDbEntity
  8
1
  6
CONTINUOUS
 62
     4
100
AcDbLine
 10
215.8678
 20
-4.7416
 30
0.0
 11
215.8678
 21
-98.3417
 31
0.0
  0
LINE
  5
43
100
AcDbEntity
  8
1
  6
CONTINUOUS
 62
     4
100
AcDbLine
 10
217.6678
 20
18.6584
 30
0.0
 11
217.6678
 21
17.7584
 31
0.0
  0
LINE
  5
44
100
AcDbEntity
  8
1
  6
CONTINUOUS
 62
     4
100
AcDbLine
 10
220.3678
 20
18.6584
 30
0.0
 11
220.3678
 21
17.7584
 31
0.0
  0
LINE
  5
45
100
AcDbEntity
  8
1
  6
CONTINUOUS
 62
     4
100
AcDbLine
 10
217.6678
 20
15.0584
 30
0.0
 11
217.6678
 21
13.2584
 31
0.0
  0
LINE
  5
46
100
AcDbEntity
  8
1
  6
CONTINUOUS
 62
     4
100
AcDbLine
 10
220.3678
 20
15.0584
 30
0.0
 11
220.3678
 21
13.2584
 31
0.0
  0
CIRCLE
  5
47
100
AcDbEntity
  8
1
  6
CONTINUOUS
 62
     4
100
AcDbCircle
 10
196.0678
 20
16.85835
 30
0.0
 40
0.225
210
0.0
220
0.0
230
1.0
  0
CIRCLE
  5
48
100
AcDbEntity
  8
1
  6
CONTINUOUS
 62
     4
100
AcDbCircle
 10
199.2178
 20
16.85835
 30
0.0
 40
0.225
210
0.0
220
0.0
230
1.0
  0
CIRCLE
  5
49
100
AcDbEntity
  8
1
  6
CONTINUOUS
 62
     4
100
AcDbCircle
 10
202.0456
 20
16.85835
 30
0.0
 40
0.225
210
0.0
220
0.0
230
1.0
  0
CIRCLE
  5
4A
100
AcDbEntity
  8
1
  6
CONTINUOUS
 62
     4
100
AcDbCircle
 10
205.1956
 20
16.85835
 30
0.0
 40
0.225
210
0.0
220
0.0
230
1.0
  0
CIRCLE
  5
4B
100
AcDbEntity
  8
1
  6
CONTINUOUS
 62
     4
100
AcDbCircle
 10
217.2178
 20
4.72695
 30
0.0
 40
0.225
210
0.0
220
0.0
230
1.0
  0
CIRCLE
  5
4C
100
AcDbEntity
  8
1
  6
CONTINUOUS
 62
     4
100
AcDbCircle
 10
220.8178
 20
1.1271
 30
0.0
 40
0.225
210
0.0
220
0.0
230
1.0
  0
CIRCLE
  5
4D
100
AcDbEntity
  8
1
  6
CONTINUOUS
 62
     4
100
AcDbCircle
 10
220.8178
 20
-7.78245
 30
0.0
 40
0.225
210
0.0
220
0.0
230
1.0
  0
CIRCLE
  5
4E
100
AcDbEntity
  8
1
  6
CONTINUOUS
 62
     4
100
AcDbCircle
 10
217.2178
 20
-4.18245
 30
0.0
 40
0.225
210
0.0
220
0.0
230
1.0
  0
LINE
  5
4F
100
AcDbEntity
  8
1
  6
CONTINUOUS
 62
     4
100
AcDbLine
 10
144.7678
 20
18.6584
 30
0.0
 11
144.7678
 21
15.0584
 31
0.0
  0
LINE
  5
50
100
AcDbEntity
  8
1
  6
CONTINUOUS
 62
     4
100
AcDbLine
 10
161.8678
 20
-44.3417
 30
0.0
 11
161.8678
 21
-4.7416
 31
0.0
  0
LINE
  5
51
100
AcDbEntity
  8
1
  6
CONTINUOUS
 62
     4
100
AcDbLine
 10
152.8678
 20
-44.3417
 30
0.0
 11
152.8678
 21
-4.7416
 31
0.0
  0
LINE
  5
52
100
AcDbEntity
  8
1
  6
CONTINUOUS
 62
     4
100
AcDbLine
 10
161.8678
 20
-4.7416
 30
0.0
 11
152.8678
 21
-4.7416
 31
0.0
  0
LINE
  5
53
100
AcDbEntity
  8
1
  6
CONTINUOUS
 62
     4
100
AcDbLine
 10
152.8678
 20
-4.7416
 30
0.0
 11
146.5678
 21
-4.7416
 31
0.0
  0
LINE
  5
54
100
AcDbEntity
  8
1
  6
CONTINUOUS
 62
     4
100
AcDbLine
 10
152.8678
 20
-14.6416
 30
0.0
 11
146.5678
 21
-14.6416
 31
0.0
  0
LINE
  5
55
100
AcDbEntity
  8
1
  6
CONTINUOUS
 62
     4
100
AcDbLine
 10
146.5678
 20
-4.7416
 30
0.0
 11
146.5678
 21
-14.6416
 31
0.0
  0
ARC
  5
56
100
AcDbEntity
  8
1
  6
CONTINUOUS
 62
     4
100
AcDbCircle
 10
147.369362
 20
-7.21665
 30
0.0
 40
2.601563
210
0.0
220
0.0
230
1.0
100
AcDbArc
 50
107.945253
 51
252.054747
  0
ARC
  5
57
100
AcDbEntity
  8
1
  6
CONTINUOUS
 62
     4
100
AcDbCircle
 10
147.369362
 20
-12.16665
 30
0.0
 40
2.601563
210
0.0
220
0.0
230
1.0
100
AcDbArc
 50
107.945253
 51
252.054747
  0
LINE
  5
58
100
AcDbEntity
  8
1
  6
HIDDEN
 62
     4
100
AcDbLine
 10
209.5678
 20
-44.3417
 30
0.0
 11
182.5678
 21
-65.9417
 31
0.0
  0
LINE
  5
59
100
AcDbEntity
  8
1
  6
HIDDEN
 62
     4
100
AcDbLine
 10
145.6678
 20
-44.3417
 30
0.0
 11
182.5678
 21
-65.9417
 31
0.0
  0
LINE
  5
5A
100
AcDbEntity
  8
1
  6
HIDDEN
 62
     4
100
AcDbLine
 10
175.3678
 20
20.4584
 30
0.0
 11
143.8678
 21
20.4584
 31
0.0
  0
LINE
  5
5B
100
AcDbEntity
  8
1
  6
HIDDEN
 62
     4
100
AcDbLine
 10
175.3678
 20
22.2584
 30
0.0
 11
143.8678
 21
22.2584
 31
0.0
  0
LINE
  5
5C
100
AcDbEntity
  8
1
  6
HIDDEN
 62
     4
100
AcDbLine
 10
175.3678
 20
38.0084
 30
0.0
 11
143.8678
 21
38.0084
 31
0.0
  0
LINE
  5
5D
100
AcDbEntity
  8
1
  6
HIDDEN
 62
     4
100
AcDbLine
 10
143.8678
 20
38.0084
 30
0.0
 11
143.8678
 21
22.2584
 31
0.0
  0
LINE
  5
5E
100
AcDbEntity
  8
1
  6
HIDDEN
 62
     4
100
AcDbLine
 10
175.3678
 20
38.0084
 30
0.0
 11
175.3678
 21
22.2584
 31
0.0
  0
LINE
  5
5F
100
AcDbEntity
  8
1
  6
HIDDEN
 62
     4
100
AcDbLine
 10
143.8678
 20
20.4584
 30
0.0
 11
143.8678
 21
18.6584
 31
0.0
  0
LINE
  5
60
100
AcDbEntity
  8
1
  6
HIDDEN
 62
     4
100
AcDbLine
 10
37.6678
 20
-44.3417
 30
0.0
 11
37.6678
 21
-55.1417
 31
0.0
  0
LINE
  5
61
100
AcDbEntity
  8
1
  6
HIDDEN
 62
     4
100
AcDbLine
 10
37.6678
 20
-55.1417
 30
0.0
 11
-11.8322
 21
-55.1417
 31
0.0
  0
LINE
  5
62
100
AcDbEntity
  8
1
  6
HIDDEN
 62
     4
100
AcDbLine
 10
35.8678
 20
-47.9417
 30
0.0
 11
-11.8322
 21
-47.9417
 31
0.0
  0
ARC
  5
63
100
AcDbEntity
  8
1
  6
CONTINUOUS
 62
     4
100
AcDbCircle
 10
-9.770314
 20
-46.197131
 30
0.0
 40
2.189244
210
0.0
220
0.0
230
1.0
100
AcDbArc
 50
122.054442
 51
201.601528
  0
ARC
  5
64
100
AcDbEntity
  8
1
  6
HIDDEN
 62
     4
100
AcDbCircle
 10
-15.514781
 20
-51.54165
 30
0.0
 40
5.149894
210
0.0
220
0.0
230
1.0
100
AcDbArc
 50
315.649681
 51
44.350317
  0
LINE
  5
65
100
AcDbEntity
  8
1
  6
CONTINUOUS
 62
     7
100
AcDbLine
 10
143.8678
 20
39.8084
 30
0.0
 11
143.8678
 21
47.0084
 31
0.0
  0
LINE
  5
66
100
AcDbEntity
  8
1
  6
CONTINUOUS
 62
     7
100
AcDbLine
 10
37.6678
 20
-42.5417
 30
0.0
 11
37.6678
 21
47.0084
 31
0.0
  0
LINE
  5
67
100
AcDbEntity
  8
1
  6
CONTINUOUS
 62
     7
100
AcDbLine
 10
37.6678
 20
45.2084
 30
0.0
 11
143.8678
 21
45.2084
 31
0.0
  0
LINE
  5
68
100
AcDbEntity
  8
1
  6
CONTINUOUS
 62
     7
100
AcDbLine
 10
142.0678
 20
18.6584
 30
0.0
 11
123.1678
 21
18.6584
 31
0.0
  0
LINE
  5
69
100
AcDbEntity
  8
1
  6
CONTINUOUS
 62
     7
100
AcDbLine
 10
144.6553
 20
13.2584
 30
0.0
 11
144.6553
 21
-20.9416
 31
0.0
  0
LINE
  5
6A
100
AcDbEntity
  8
1
  6
CONTINUOUS
 62
     7
100
AcDbLine
 10
124.9678
 20
18.6584
 30
0.0
 11
124.9678
 21
-44.3417
 31
0.0
  0
LINE
  5
6B
100
AcDbEntity
  8
1
  6
CONTINUOUS
 62
     7
100
AcDbLine
 10
144.6553
 20
-19.1416
 30
0.0
 11
151.0678
 21
-19.1416
 31
0.0
  0
LINE
  5
6C
100
AcDbEntity
  8
1
  6
CONTINUOUS
 62
     7
100
AcDbLine
 10
154.6678
 20
-19.1416
 30
0.0
 11
160.0678
 21
-19.1416
 31
0.0
  0
LINE
  5
6D
100
AcDbEntity
  8
1
  6
CONTINUOUS
 62
     7
100
AcDbLine
 10
163.6678
 20
-19.1416
 30
0.0
 11
215.8678
 21
-19.1416
 31
0.0
  0
LINE
  5
6E
100
AcDbEntity
  8
1
  6
CONTINUOUS
 62
     7
100
AcDbLine
 10
192.4678
 20
20.4584
 30
0.0
 11
192.4678
 21
27.6584
 31
0.0
  0
LINE
  5
6F
100
AcDbEntity
  8
1
  6
CONTINUOUS
 62
     7
100
AcDbLine
 10
222.1678
 20
20.4584
 30
0.0
 11
222.1678
 21
27.6584
 31
0.0
  0
LINE
  5
70
100
AcDbEntity
  8
1
  6
CONTINUOUS
 62
     7
100
AcDbLine
 10
223.9678
 20
18.6584
 30
0.0
 11
231.1678
 21
18.6584
 31
0.0
  0
LINE
  5
71
100
AcDbEntity
  8
1
  6
CONTINUOUS
 62
     7
100
AcDbLine
 10
223.9678
 20
-11.0416
 30
0.0
 11
231.1678
 21
-11.0416
 31
0.0
  0
LINE
  5
72
100
AcDbEntity
  8
1
  6
CONTINUOUS
 62
     7
100
AcDbLine
 10
192.4678
 20
25.8584
 30
0.0
 11
222.1678
 21
25.8584
 31
0.0
  0
LINE
  5
73
100
AcDbEntity
  8
1
  6
CONTINUOUS
 62
     7
100
AcDbLine
 10
229.3678
 20
18.6584
 30
0.0
 11
229.3678
 21
-11.0416
 31
0.0
  0
LINE
  5
74
100
AcDbEntity
  8
1
  6
CONTINUOUS
 62
     7
100
AcDbLine
 10
230.2678
 20
-98.3417
 30
0.0
 11
241.0678
 21
-98.3417
 31
0.0
  0
LINE
  5
75
100
AcDbEntity
  8
1
  6
CONTINUOUS
 62
     7
100
AcDbLine
 10
239.2678
 20
-98.3417
 30
0.0
 11
239.2678
 21
-44.3417
 31
0.0
  0
LINE
  5
76
100
AcDbEntity
  8
1
  6
CONTINUOUS
 62
     7
100
AcDbLine
 10
209.5678
 20
-100.1417
 30
0.0
 11
209.5678
 21
-111.8417
 31
0.0
  0
LINE
  5
77
100
AcDbEntity
  8
1
  6
CONTINUOUS
 62
     7
100
AcDbLine
 10
228.4678
 20
-100.1417
 30
0.0
 11
228.4678
 21
-111.8417
 31
0.0
  0
LINE
  5
78
100
AcDbEntity
  8
1
  6
CONTINUOUS
 62
     7
100
AcDbLine
 10
209.5678
 20
-110.0417
 30
0.0
 11
228.4678
 21
-110.0417
 31
0.0
  0
CIRCLE
  5
79
100
AcDbEntity
  8
1
  6
CONTINUOUS
 62
     7
100
AcDbCircle
 10
159.2971
 20
29.96175
 30
0.0
 40
0.9
210
0.0
220
0.0
230
1.0
  0
CIRCLE
  5
7A
100
AcDbEntity
  8
1
  6
CONTINUOUS
 62
     7
100
AcDbCircle
 10
174.4246
 20
16.7553
 30
0.0
 40
0.9
210
0.0
220
0.0
230
1.0
  0
CIRCLE
  5
7B
100
AcDbEntity
  8
1
  6
CONTINUOUS
 62
     7
100
AcDbCircle
 10
209.08045
 20
6.85035
 30
0.0
 40
0.9
210
0.0
220
0.0
230
1.0
  0
CIRCLE
  5
7C
100
AcDbEntity
  8
1
  6
CONTINUOUS
 62
     7
100
AcDbCircle
 10
219.2572
 20
-27.2664
 30
0.0
 40
0.9
210
0.0
220
0.0
230
1.0
  0
CIRCLE
  5
7D
100
AcDbEntity
  8
1
  6
CONTINUOUS
 62
     7
100
AcDbCircle
 10
212.65615
 20
-83.94435
 30
0.0
 40
0.9
210
0.0
220
0.0
230
1.0
  0
LINE
  5
7E
100
AcDbEntity
  8
1
  6
CONTINUOUS
 62
     7
100
AcDbLine
 10
159.2971
 20
29.9618
 30
0.0
 11
170.3959
 21
45.2084
 31
0.0
  0
LINE
  5
7F
100
AcDbEntity
  8
1
  6
CONTINUOUS
 62
     7
100
AcDbLine
 10
170.3959
 20
45.2084
 30
0.0
 11
173.9959
 21
45.2084
 31
0.0
  0
LINE
  5
80
100
AcDbEntity
  8
1
  6
HIDDEN
 62
     4
100
AcDbLine
 10
175.3678
 20
20.4584
 30
0.0
 11
175.3678
 21
18.6584
 31
0.0
  0
LINE
  5
81
100
AcDbEntity
  8
1
  6
CONTINUOUS
 62
     7
100
AcDbLine
 10
167.5618
 20
19.6206
 30
0.0
 11
180.4489
 21
36.5898
 31
0.0
  0
LINE
  5
82
100
AcDbEntity
  8
1
  6
CONTINUOUS
 62
     7
100
AcDbLine
 10
180.4489
 20
36.5898
 30
0.0
 11
227.868
 21
36.5898
 31
0.0
  0
LINE
  5
83
100
AcDbEntity
  8
1
  6
CONTINUOUS
 62
     7
100
AcDbLine
 10
220.3678
 20
17.7584
 30
0.0
 11
229.5931
 21
25.7036
 31
0.0
  0
LINE
  5
84
100
AcDbEntity
  8
1
  6
CONTINUOUS
 62
     7
100
AcDbLine
 10
229.5931
 20
25.7036
 30
0.0
 11
233.1931
 21
25.7036
 31
0.0
  0
LINE
  5
85
100
AcDbEntity
  8
1
  6
CONTINUOUS
 62
     7
100
AcDbLine
 10
174.4246
 20
16.7553
 30
0.0
 11
171.9388
 21
9.4016
 31
0.0
  0
LINE
  5
86
100
AcDbEntity
  8
1
  6
CONTINUOUS
 62
     7
100
AcDbLine
 10
171.9388
 20
9.4016
 30
0.0
 11
160.2606
 21
9.4016
 31
0.0
  0
LINE
  5
87
100
AcDbEntity
  8
1
  6
CONTINUOUS
 62
     7
100
AcDbLine
 10
199.2178
 20
16.6334
 30
0.0
 11
189.9484
 21
3.4565
 31
0.0
  0
LINE
  5
88
100
AcDbEntity
  8
1
  6
CONTINUOUS
 62
     7
100
AcDbLine
 10
189.9484
 20
3.4565
 30
0.0
 11
186.3484
 21
3.4565
 31
0.0
  0
LINE
  5
89
100
AcDbEntity
  8
1
  6
CONTINUOUS
 62
     7
100
AcDbLine
 10
209.0805
 20
6.8504
 30
0.0
 11
202.1949
 21
-2.8489
 31
0.0
  0
LINE
  5
8A
100
AcDbEntity
  8
1
  6
CONTINUOUS
 62
     7
100
AcDbLine
 10
202.1949
 20
-2.8489
 30
0.0
 11
181.5673
 21
-2.8489
 31
0.0
  0
LINE
  5
8B
100
AcDbEntity
  8
1
  6
CONTINUOUS
 62
     7
100
AcDbLine
 10
212.6562
 20
-83.9444
 30
0.0
 11
194.3694
 21
-83.9444
 31
0.0
  0
TEXT
  5
8C
100
AcDbEntity
  8
1
  6
CONTINUOUS
 62
     7
100
AcDbText
 10
35.5621
 20
-15.904
 30
0.0
 40
2.4
  1
EDGE OF PAVEMENT
 50
90.0
  7
MONOTXT
210
0.0
220
0.0
230
1.0
100
AcDbText
  0
TEXT
  5
8D
100
AcDbEntity
  8
1
  6
CONTINUOUS
 62
     7
100
AcDbText
 10
116.1879
 20
-12.0249
 30
0.0
 40
2.4
  1
1.0m
  7
MONOTXT
210
0.0
220
0.0
230
1.0
100
AcDbText
  0
TEXT
  5
8E
100
AcDbEntity
  8
1
  6
CONTINUOUS
 62
     7
100
AcDbText
 10
175.4062
 20
46.7814
 30
0.0
 40
2.4
  1
EXISTING MAILBOX
  7
MONOTXT
 11
175.4062
 21
49.1814
 31
0.0
210
0.0
220
0.0
230
1.0
100
AcDbText
 73
     3
  0
TEXT
  5
8F
100
AcDbEntity
  8
1
  6
CONTINUOUS
 62
     7
100
AcDbText
 10
175.4062
 20
41.9814
 30
0.0
 40
2.4
  1
(RELOCATED)
  7
MONOTXT
 11
175.4062
 21
44.3814
 31
0.0
210
0.0
220
0.0
230
1.0
100
AcDbText
 73
     3
  0
TEXT
  5
90
100
AcDbEntity
  8
1
  6
CONTINUOUS
 62
     7
100
AcDbText
 10
229.358
 20
37.8677
 30
0.0
 40
2.4
  1
SPACER BOARD, NAILED
  7
MONOTXT
 11
229.358
 21
40.2677
 31
0.0
210
0.0
220
0.0
230
1.0
100
AcDbText
 73
     3
  0
TEXT
  5
91
100
AcDbEntity
  8
1
  6
CONTINUOUS
 62
     7
100
AcDbText
 10
229.358
 20
33.0677
 30
0.0
 40
2.4
  1
(IF REQUIRED)
  7
MONOTXT
 11
229.358
 21
35.4677
 31
0.0
210
0.0
220
0.0
230
1.0
100
AcDbText
 73
     3
  0
TEXT
  5
92
100
AcDbEntity
  8
1
  6
CONTINUOUS
 62
     7
100
AcDbText
 10
234.6584
 20
24.7476
 30
0.0
 40
2.4
  1
2-10d NAILS
  7
MONOTXT
210
0.0
220
0.0
230
1.0
100
AcDbText
  0
TEXT
  5
93
100
AcDbEntity
  8
1
  6
CONTINUOUS
 62
     7
100
AcDbText
 10
163.6344
 20
2.3476
 30
0.0
 40
2.4
  1
4-5d NAILS
  7
MONOTXT
210
0.0
220
0.0
230
1.0
100
AcDbText
  0
LINE
  5
94
100
AcDbEntity
  8
1
  6
CONTINUOUS
 62
     7
100
AcDbLine
 10
217.2178
 20
-4.1824
 30
0.0
 11
207.3454
 21
-8.5128
 31
0.0
  0
LINE
  5
95
100
AcDbEntity
  8
1
  6
CONTINUOUS
 62
     7
100
AcDbLine
 10
207.3454
 20
-8.5128
 30
0.0
 11
203.7454
 21
-8.5128
 31
0.0
  0
TEXT
  5
96
100
AcDbEntity
  8
1
  6
CONTINUOUS
 62
     7
100
AcDbText
 10
181.3742
 20
-9.8391
 30
0.0
 40
2.4
  1
4-5d NAILS
  7
MONOTXT
210
0.0
220
0.0
230
1.0
100
AcDbText
  0
TEXT
  5
97
100
AcDbEntity
  8
1
  6
CONTINUOUS
 62
     7
100
AcDbText
 10
162.3542
 20
-85.1869
 30
0.0
 40
2.4
  1
CRUSHED STONE
  7
MONOTXT
210
0.0
220
0.0
230
1.0
100
AcDbText
  0
LINE
  5
98
100
AcDbEntity
  8
1
  6
CONTINUOUS
 62
     7
100
AcDbLine
 10
110.26
 20
8.9859
 30
0.0
 11
100.9414
 21
8.9859
 31
0.0
  0
TEXT
  5
99
100
AcDbEntity
  8
1
  6
CONTINUOUS
 62
     7
100
AcDbText
 10
64.2983
 20
9.8878
 30
0.0
 40
2.4
  1
BOX TO BE FLUSH
  7
MONOTXT
 11
64.2983
 21
12.2878
 31
0.0
210
0.0
220
0.0
230
1.0
100
AcDbText
 73
     3
  0
TEXT
  5
9A
100
AcDbEntity
  8
1
  6
CONTINUOUS
 62
     7
100
AcDbText
 10
64.2983
 20
5.0878
 30
0.0
 40
2.4
  1
WITH FACE OF G.R.
  7
MONOTXT
 11
64.2983
 21
7.4878
 31
0.0
210
0.0
220
0.0
230
1.0
100
AcDbText
 73
     3
  0
LINE
  5
9B
100
AcDbEntity
  8
1
  6
CONTINUOUS
 62
     7
100
AcDbLine
 10
144.6381
 20
-9.6573
 30
0.0
 11
126.55
 21
0.152
 31
0.0
  0
LINE
  5
9C
100
AcDbEntity
  8
1
  6
CONTINUOUS
 62
     7
100
AcDbLine
 10
123.3855
 20
1.868
 30
0.0
 11
110.26
 21
8.9859
 31
0.0
  0
TEXT
  5
9D
100
AcDbEntity
  8
1
  6
CONTINUOUS
 62
     7
100
AcDbText
 10
-4.6914
 20
-83.247
 30
0.0
 40
2.4
  1
NOTES:
  7
MONOTXT
 11
-4.6914
 21
-80.847
 31
0.0
210
0.0
220
0.0
230
1.0
100
AcDbText
 73
     3
  0
TEXT
  5
9E
100
AcDbEntity
  8
1
  6
CONTINUOUS
 62
     7
100
AcDbText
 10
-4.6914
 20
-88.047
 30
0.0
 40
2.4
  1
ALL WOOD IS TO BE PRESSURE TREATED PINE.
  7
MONOTXT
 11
-4.6914
 21
-85.647
 31
0.0
210
0.0
220
0.0
230
1.0
100
AcDbText
 73
     3
  0
TEXT
  5
9F
100
AcDbEntity
  8
1
  6
CONTINUOUS
 62
     7
100
AcDbText
 10
-4.6914
 20
-92.847
 30
0.0
 40
2.4
  1
TESTING OF THE MATERIALS WILL NOT BE REQUIRED.
  7
MONOTXT
 11
-4.6914
 21
-90.447
 31
0.0
210
0.0
220
0.0
230
1.0
100
AcDbText
 73
     3
  0
TEXT
  5
A0
100
AcDbEntity
  8
1
  6
CONTINUOUS
 62
     7
100
AcDbText
 10
-4.6914
 20
-97.647
 30
0.0
 40
2.4
  1
THE COST OF ALL WORK AND MATERIALS SHALL INCLUDE
  7
MONOTXT
 11
-4.6914
 21
-95.247
 31
0.0
210
0.0
220
0.0
230
1.0
100
AcDbText
 73
     3
  0
TEXT
  5
A1
100
AcDbEntity
  8
1
  6
CONTINUOUS
 62
     7
100
AcDbText
 10
-4.6914
 20
-102.447
 30
0.0
 40
2.4
  1
THE MAILBOX SUPPORT, REMOVING EXISTING MAILBOX SUPPORT(S),
  7
MONOTXT
 11
-4.6914
 21
-100.047
 31
0.0
210
0.0
220
0.0
230
1.0
100
AcDbText
 73
     3
  0
TEXT
  5
A2
100
AcDbEntity
  8
1
  6
CONTINUOUS
 62
     7
100
AcDbText
 10
-4.6914
 20
-107.247
 30
0.0
 40
2.4
  1
AND RELOCATING EXISTING MAILBOX(ES) ONTO NEW SUPPORTS.
  7
MONOTXT
 11
-4.6914
 21
-104.847
 31
0.0
210
0.0
220
0.0
230
1.0
100
AcDbText
 73
     3
  0
LINE
  5
A3
100
AcDbEntity
  8
1
  6
CONTINUOUS
 62
     7
100
AcDbLine
 10
-5.1125
 20
-83.9486
 30
0.0
 11
7.8309
 21
-83.9486
 31
0.0
  0
INSERT
  5
A9
100
AcDbEntity
  8
1
  6
CONTINUOUS
 62
     1
100
AcDbBlockReference
  2
LDR
 10
37.6678
 20
45.2084
 30
0.0
 41
240.0
 42
240.0
 50
180.0
210
0.0
220
0.0
230
1.0
  0
INSERT
  5
AA
100
AcDbEntity
  8
1
  6
CONTINUOUS
 62
     1
100
AcDbBlockReference
  2
LDR
 10
37.6678
 20
45.2084
 30
0.0
 41
240.0
 42
240.0
 50
180.0
210
0.0
220
0.0
230
1.0
  0
INSERT
  5
AB
100
AcDbEntity
  8
1
  6
CONTINUOUS
 62
     1
100
AcDbBlockReference
  2
LDR
 10
143.8678
 20
45.2084
 30
0.0
 41
240.0
 42
240.0
210
0.0
220
0.0
230
1.0
  0
INSERT
  5
AC
100
AcDbEntity
  8
1
  6
CONTINUOUS
 62
     1
100
AcDbBlockReference
  2
LDR
 10
143.8678
 20
45.2084
 30
0.0
 41
240.0
 42
240.0
210
0.0
220
0.0
230
1.0
  0
INSERT
  5
AD
100
AcDbEntity
  8
1
  6
CONTINUOUS
 62
     1
100
AcDbBlockReference
  2
LDR
 10
124.9678
 20
18.6584
 30
0.0
 41
240.0
 42
240.0
 50
90.0
210
0.0
220
0.0
230
1.0
  0
INSERT
  5
AE
100
AcDbEntity
  8
1
  6
CONTINUOUS
 62
     1
100
AcDbBlockReference
  2
LDR
 10
124.9678
 20
18.6584
 30
0.0
 41
240.0
 42
240.0
 50
90.0
210
0.0
220
0.0
230
1.0
  0
INSERT
  5
AF
100
AcDbEntity
  8
1
  6
CONTINUOUS
 62
     1
100
AcDbBlockReference
  2
LDR
 10
124.9678
 20
-44.3417
 30
0.0
 41
240.0
 42
240.0
 50
270.0
210
0.0
220
0.0
230
1.0
  0
INSERT
  5
B0
100
AcDbEntity
  8
1
  6
CONTINUOUS
 62
     1
100
AcDbBlockReference
  2
LDR
 10
124.9678
 20
-44.3417
 30
0.0
 41
240.0
 42
240.0
 50
270.0
210
0.0
220
0.0
230
1.0
  0
INSERT
  5
B1
100
AcDbEntity
  8
1
  6
CONTINUOUS
 62
     1
100
AcDbBlockReference
  2
LDR
 10
144.6381
 20
-9.6573
 30
0.0
 41
240.0
 42
240.0
 50
331.528721
210
0.0
220
0.0
230
1.0
  0
INSERT
  5
B2
100
AcDbEntity
  8
1
  6
CONTINUOUS
 62
     1
100
AcDbBlockReference
  2
LDR
 10
144.6381
 20
-9.6573
 30
0.0
 41
240.0
 42
240.0
 50
331.528721
210
0.0
220
0.0
230
1.0
  0
INSERT
  5
B3
100
AcDbEntity
  8
1
  6
CONTINUOUS
 62
     1
100
AcDbBlockReference
  2
LDR
 10
144.6553
 20
-19.1416
 30
0.0
 41
240.0
 42
240.0
 50
180.0
210
0.0
220
0.0
230
1.0
  0
INSERT
  5
B4
100
AcDbEntity
  8
1
  6
CONTINUOUS
 62
     1
100
AcDbBlockReference
  2
LDR
 10
215.8678
 20
-19.1416
 30
0.0
 41
240.0
 42
240.0
210
0.0
220
0.0
230
1.0
  0
INSERT
  5
B5
100
AcDbEntity
  8
1
  6
CONTINUOUS
 62
     1
100
AcDbBlockReference
  2
LDR
 10
215.8678
 20
-19.1416
 30
0.0
 41
240.0
 42
240.0
210
0.0
220
0.0
230
1.0
  0
INSERT
  5
B6
100
AcDbEntity
  8
1
  6
CONTINUOUS
 62
     1
100
AcDbBlockReference
  2
LDR
 10
167.5618
 20
19.6206
 30
0.0
 41
239.999999
 42
239.999999
 50
232.785487
210
0.0
220
0.0
230
1.0
  0
INSERT
  5
B7
100
AcDbEntity
  8
1
  6
CONTINUOUS
 62
     1
100
AcDbBlockReference
  2
LDR
 10
167.5618
 20
19.6206
 30
0.0
 41
239.999999
 42
239.999999
 50
232.785487
210
0.0
220
0.0
230
1.0
  0
INSERT
  5
B8
100
AcDbEntity
  8
1
  6
CONTINUOUS
 62
     1
100
AcDbBlockReference
  2
LDR
 10
192.4678
 20
25.8584
 30
0.0
 41
240.0
 42
240.0
 50
180.0
210
0.0
220
0.0
230
1.0
  0
INSERT
  5
B9
100
AcDbEntity
  8
1
  6
CONTINUOUS
 62
     1
100
AcDbBlockReference
  2
LDR
 10
192.4678
 20
25.8584
 30
0.0
 41
240.0
 42
240.0
 50
180.0
210
0.0
220
0.0
230
1.0
  0
INSERT
  5
BA
100
AcDbEntity
  8
1
  6
CONTINUOUS
 62
     1
100
AcDbBlockReference
  2
LDR
 10
222.1678
 20
25.8584
 30
0.0
 41
240.0
 42
240.0
210
0.0
220
0.0
230
1.0
  0
INSERT
  5
BB
100
AcDbEntity
  8
1
  6
CONTINUOUS
 62
     1
100
AcDbBlockReference
  2
LDR
 10
222.1678
 20
25.8584
 30
0.0
 41
240.0
 42
240.0
210
0.0
220
0.0
230
1.0
  0
INSERT
  5
BC
100
AcDbEntity
  8
1
  6
CONTINUOUS
 62
     1
100
AcDbBlockReference
  2
LDR
 10
220.3678
 20
17.7584
 30
0.0
 41
240.000001
 42
240.000001
 50
220.736356
210
0.0
220
0.0
230
1.0
  0
INSERT
  5
BD
100
AcDbEntity
  8
1
  6
CONTINUOUS
 62
     1
100
AcDbBlockReference
  2
LDR
 10
220.3678
 20
17.7584
 30
0.0
 41
240.000001
 42
240.000001
 50
220.736356
210
0.0
220
0.0
230
1.0
  0
INSERT
  5
BE
100
AcDbEntity
  8
1
  6
CONTINUOUS
 62
     1
100
AcDbBlockReference
  2
LDR
 10
199.2178
 20
16.6334
 30
0.0
 41
240.000001
 42
240.000001
 50
54.875211
210
0.0
220
0.0
230
1.0
  0
INSERT
  5
BF
100
AcDbEntity
  8
1
  6
CONTINUOUS
 62
     1
100
AcDbBlockReference
  2
LDR
 10
199.2178
 20
16.6334
 30
0.0
 41
240.000001
 42
240.000001
 50
54.875211
210
0.0
220
0.0
230
1.0
  0
INSERT
  5
C0
100
AcDbEntity
  8
1
  6
CONTINUOUS
 62
     1
100
AcDbBlockReference
  2
LDR
 10
217.2178
 20
-4.1824
 30
0.0
 41
239.999998
 42
239.999998
 50
23.684034
210
0.0
220
0.0
230
1.0
  0
INSERT
  5
C1
100
AcDbEntity
  8
1
  6
CONTINUOUS
 62
     1
100
AcDbBlockReference
  2
LDR
 10
217.2178
 20
-4.1824
 30
0.0
 41
239.999998
 42
239.999998
 50
23.684034
210
0.0
220
0.0
230
1.0
  0
INSERT
  5
C2
100
AcDbEntity
  8
1
  6
CONTINUOUS
 62
     1
100
AcDbBlockReference
  2
LDR
 10
229.3678
 20
18.6584
 30
0.0
 41
240.0
 42
240.0
 50
90.0
210
0.0
220
0.0
230
1.0
  0
INSERT
  5
C3
100
AcDbEntity
  8
1
  6
CONTINUOUS
 62
     1
100
AcDbBlockReference
  2
LDR
 10
229.3678
 20
18.6584
 30
0.0
 41
240.0
 42
240.0
 50
90.0
210
0.0
220
0.0
230
1.0
  0
INSERT
  5
C4
100
AcDbEntity
  8
1
  6
CONTINUOUS
 62
     1
100
AcDbBlockReference
  2
LDR
 10
229.3678
 20
-11.0416
 30
0.0
 41
240.0
 42
240.0
 50
270.0
210
0.0
220
0.0
230
1.0
  0
INSERT
  5
C5
100
AcDbEntity
  8
1
  6
CONTINUOUS
 62
     1
100
AcDbBlockReference
  2
LDR
 10
229.3678
 20
-11.0416
 30
0.0
 41
240.0
 42
240.0
 50
270.0
210
0.0
220
0.0
230
1.0
  0
INSERT
  5
C6
100
AcDbEntity
  8
1
  6
CONTINUOUS
 62
     1
100
AcDbBlockReference
  2
LDR
 10
239.2678
 20
-44.3417
 30
0.0
 41
240.0
 42
240.0
 50
90.0
210
0.0
220
0.0
230
1.0
  0
INSERT
  5
C7
100
AcDbEntity
  8
1
  6
CONTINUOUS
 62
     1
100
AcDbBlockReference
  2
LDR
 10
239.2678
 20
-44.3417
 30
0.0
 41
240.0
 42
240.0
 50
90.0
210
0.0
220
0.0
230
1.0
  0
INSERT
  5
C8
100
AcDbEntity
  8
1
  6
CONTINUOUS
 62
     1
100
AcDbBlockReference
  2
LDR
 10
239.2678
 20
-98.3417
 30
0.0
 41
240.0
 42
240.0
 50
270.0
210
0.0
220
0.0
230
1.0
  0
INSERT
  5
C9
100
AcDbEntity
  8
1
  6
CONTINUOUS
 62
     1
100
AcDbBlockReference
  2
LDR
 10
239.2678
 20
-98.3417
 30
0.0
 41
240.0
 42
240.0
 50
270.0
210
0.0
220
0.0
230
1.0
  0
INSERT
  5
CA
100
AcDbEntity
  8
1
  6
CONTINUOUS
 62
     1
100
AcDbBlockReference
  2
LDR
 10
228.4678
 20
-110.0417
 30
0.0
 41
240.0
 42
240.0
210
0.0
220
0.0
230
1.0
  0
INSERT
  5
CB
100
AcDbEntity
  8
1
  6
CONTINUOUS
 62
     1
100
AcDbBlockReference
  2
LDR
 10
228.4678
 20
-110.0417
 30
0.0
 41
240.0
 42
240.0
210
0.0
220
0.0
230
1.0
  0
INSERT
  5
CC
100
AcDbEntity
  8
1
  6
CONTINUOUS
 62
     1
100
AcDbBlockReference
  2
LDR
 10
209.5678
 20
-110.0417
 30
0.0
 41
240.0
 42
240.0
 50
180.0
210
0.0
220
0.0
230
1.0
  0
LINE
  5
CD
100
AcDbEntity
  8
1
  6
CONTINUOUS
 62
     7
100
AcDbLine
 10
219.2572
 20
-27.2664
 30
0.0
 11
238.7059
 21
-27.2664
 31
0.0
  0
LINE
  5
CE
100
AcDbEntity
  8
1
  6
HIDDEN
 62
     4
100
AcDbLine
 10
152.8678
 20
-44.3417
 30
0.0
 11
152.8678
 21
-67.6979
 31
0.0
  0
LINE
  5
CF
100
AcDbEntity
  8
1
  6
HIDDEN
 62
     4
100
AcDbLine
 10
161.8678
 20
-44.3417
 30
0.0
 11
161.8678
 21
-67.6979
 31
0.0
  0
LINE
  5
D0
100
AcDbEntity
  8
1
  6
CONTINUOUS
 62
     4
100
AcDbLine
 10
149.4296
 20
-68.2988
 30
0.0
 11
158.6699
 21
-66.6835
 31
0.0
  0
LINE
  5
D1
100
AcDbEntity
  8
1
  6
CONTINUOUS
 62
     4
100
AcDbLine
 10
156.0654
 20
-68.712
 30
0.0
 11
165.3059
 21
-67.0969
 31
0.0
  0
LINE
  5
D2
100
AcDbEntity
  8
1
  6
CONTINUOUS
 62
     4
100
AcDbLine
 10
158.6699
 20
-66.6835
 30
0.0
 11
156.0654
 21
-68.712
 31
0.0
  0
TEXT
  5
D3
100
AcDbEntity
  8
1
  6
CONTINUOUS
 62
     7
100
AcDbText
 10
178.6066
 20
-69.1873
 30
0.0
 40
2.4
  1
DITCH
  7
MONOTXT
 72
     4
 11
183.4349
 21
-67.9873
 31
0.0
210
0.0
220
0.0
230
1.0
100
AcDbText
  0
TEXT
  5
D4
100
AcDbEntity
  8
1
  6
CONTINUOUS
 62
     7
100
AcDbText
 10
168.0712
 20
-73.9873
 30
0.0
 40
2.4
  1
(AS APPLICABLE)
  7
MONOTXT
 72
     4
 11
183.4256
 21
-72.7873
 31
0.0
210
0.0
220
0.0
230
1.0
100
AcDbText
  0
LINE
  5
D5
100
AcDbEntity
  8
1
  6
CONTINUOUS
 62
     4
100
AcDbLine
 10
-10.9322
 20
-44.3417
 30
0.0
 11
176.731
 21
-44.3417
 31
0.0
  0
LINE
  5
D6
100
AcDbEntity
  8
1
  6
CONTINUOUS
 62
     4
100
AcDbLine
 10
209.5678
 20
-44.3417
 30
0.0
 11
215.8678
 21
-44.3417
 31
0.0
  0
LINE
  5
D7
100
AcDbEntity
  8
PATTERN_CLASS
  6
CONTINUOUS
 62
     4
100
AcDbLine
 10
163.4045
 20
-44.3417
 30
0.0
 11
176.731
 21
-44.3417
 31
0.0
  0
LINE
  5
D8
100
AcDbEntity
  8
1
  6
CONTINUOUS
 62
     4
100
AcDbLine
 10
176.731
 20
-44.3417
 30
0.0
 11
209.5678
 21
-44.3417
 31
0.0
  0
LINE
  5
D9
100
AcDbEntity
  8
PATTERN_CLASS
  6
CONTINUOUS
 62
     4
100
AcDbLine
 10
191.121
 20
-44.3417
 30
0.0
 11
209.5678
 21
-44.3417
 31
0.0
  0
LINE
  5
DA
100
AcDbEntity
  8
1
  6
CONTINUOUS
 62
     7
100
AcDbLine
 10
164.9885
 20
-44.3897
 30
0.0
 11
163.4045
 21
-45.9737
 31
0.0
  0
LINE
  5
DB
100
AcDbEntity
  8
1
  6
CONTINUOUS
 62
     7
100
AcDbLine
 10
166.6925
 20
-44.3897
 30
0.0
 11
163.5485
 21
-47.5337
 31
0.0
  0
LINE
  5
DC
100
AcDbEntity
  8
1
  6
CONTINUOUS
 62
     7
100
AcDbLine
 10
166.5725
 20
-44.3897
 30
0.0
 11
169.2125
 21
-47.0297
 31
0.0
  0
LINE
  5
DD
100
AcDbEntity
  8
1
  6
CONTINUOUS
 62
     7
100
AcDbLine
 10
165.9965
 20
-45.5417
 30
0.0
 11
168.2285
 21
-47.7497
 31
0.0
  0
LINE
  5
DE
100
AcDbEntity
  8
1
  6
CONTINUOUS
 62
     7
100
AcDbLine
 10
165.4445
 20
-46.6937
 30
0.0
 11
166.9805
 21
-48.2297
 31
0.0
  0
LINE
  5
DF
100
AcDbEntity
  8
1
  6
CONTINUOUS
 62
     7
100
AcDbLine
 10
164.8445
 20
-47.7977
 30
0.0
 11
165.8765
 21
-48.8057
 31
0.0
  0
LINE
  5
E0
100
AcDbEntity
  8
1
  6
CONTINUOUS
 62
     7
100
AcDbLine
 10
171.8285
 20
-44.3897
 30
0.0
 11
169.2125
 21
-47.0297
 31
0.0
  0
LINE
  5
E1
100
AcDbEntity
  8
1
  6
CONTINUOUS
 62
     7
100
AcDbLine
 10
170.1245
 20
-44.3897
 30
0.0
 11
168.4685
 21
-46.0457
 31
0.0
  0
LINE
  5
E2
100
AcDbEntity
  8
1
  6
CONTINUOUS
 62
     7
100
AcDbLine
 10
168.3965
 20
-44.3897
 30
0.0
 11
167.7245
 21
-45.0857
 31
0.0
  0
LINE
  5
E3
100
AcDbEntity
  8
1
  6
CONTINUOUS
 62
     7
100
AcDbLine
 10
171.8285
 20
-44.3897
 30
0.0
 11
174.3965
 21
-46.9577
 31
0.0
  0
LINE
  5
E4
100
AcDbEntity
  8
1
  6
CONTINUOUS
 62
     7
100
AcDbLine
 10
171.2045
 20
-45.4697
 30
0.0
 11
173.4125
 21
-47.6777
 31
0.0
  0
LINE
  5
E5
100
AcDbEntity
  8
1
  6
CONTINUOUS
 62
     7
100
AcDbLine
 10
170.6525
 20
-46.6217
 30
0.0
 11
172.1885
 21
-48.1577
 31
0.0
  0
LINE
  5
E6
100
AcDbEntity
  8
1
  6
CONTINUOUS
 62
     7
100
AcDbLine
 10
170.0285
 20
-47.7257
 30
0.0
 11
171.0605
 21
-48.7577
 31
0.0
  0
LINE
  5
E7
100
AcDbEntity
  8
1
  6
CONTINUOUS
 62
     7
100
AcDbLine
 10
176.9645
 20
-44.3897
 30
0.0
 11
174.3965
 21
-46.9577
 31
0.0
  0
LINE
  5
E8
100
AcDbEntity
  8
1
  6
CONTINUOUS
 62
     7
100
AcDbLine
 10
175.2605
 20
-44.3897
 30
0.0
 11
173.6765
 21
-45.9737
 31
0.0
  0
LINE
  5
E9
100
AcDbEntity
  8
1
  6
CONTINUOUS
 62
     7
100
AcDbLine
 10
173.5325
 20
-44.3897
 30
0.0
 11
172.9085
 21
-45.0137
 31
0.0
  0
LINE
  5
EA
100
AcDbEntity
  8
1
  6
CONTINUOUS
 62
     7
100
AcDbLine
 10
192.705
 20
-44.3897
 30
0.0
 11
191.121
 21
-45.9737
 31
0.0
  0
LINE
  5
EB
100
AcDbEntity
  8
1
  6
CONTINUOUS
 62
     7
100
AcDbLine
 10
194.409
 20
-44.3897
 30
0.0
 11
191.265
 21
-47.5337
 31
0.0
  0
LINE
  5
EC
100
AcDbEntity
  8
1
  6
CONTINUOUS
 62
     7
100
AcDbLine
 10
194.289
 20
-44.3897
 30
0.0
 11
196.929
 21
-47.0297
 31
0.0
  0
LINE
  5
ED
100
AcDbEntity
  8
1
  6
CONTINUOUS
 62
     7
100
AcDbLine
 10
193.713
 20
-45.5417
 30
0.0
 11
195.945
 21
-47.7497
 31
0.0
  0
LINE
  5
EE
100
AcDbEntity
  8
1
  6
CONTINUOUS
 62
     7
100
AcDbLine
 10
193.161
 20
-46.6937
 30
0.0
 11
194.697
 21
-48.2297
 31
0.0
  0
LINE
  5
EF
100
AcDbEntity
  8
1
  6
CONTINUOUS
 62
     7
100
AcDbLine
 10
192.561
 20
-47.7977
 30
0.0
 11
193.593
 21
-48.8057
 31
0.0
  0
LINE
  5
F0
100
AcDbEntity
  8
1
  6
CONTINUOUS
 62
     7
100
AcDbLine
 10
199.545
 20
-44.3897
 30
0.0
 11
196.929
 21
-47.0297
 31
0.0
  0
LINE
  5
F1
100
AcDbEntity
  8
1
  6
CONTINUOUS
 62
     7
100
AcDbLine
 10
197.841
 20
-44.3897
 30
0.0
 11
196.185
 21
-46.0457
 31
0.0
  0
LINE
  5
F2
100
AcDbEntity
  8
1
  6
CONTINUOUS
 62
     7
100
AcDbLine
 10
196.113
 20
-44.3897
 30
0.0
 11
195.441
 21
-45.0857
 31
0.0
  0
LINE
  5
F3
100
AcDbEntity
  8
1
  6
CONTINUOUS
 62
     7
100
AcDbLine
 10
199.545
 20
-44.3897
 30
0.0
 11
202.113
 21
-46.9577
 31
0.0
  0
LINE
  5
F4
100
AcDbEntity
  8
1
  6
CONTINUOUS
 62
     7
100
AcDbLine
 10
198.921
 20
-45.4697
 30
0.0
 11
201.129
 21
-47.6777
 31
0.0
  0
LINE
  5
F5
100
AcDbEntity
  8
1
  6
CONTINUOUS
 62
     7
100
AcDbLine
 10
198.369
 20
-46.6217
 30
0.0
 11
199.905
 21
-48.1577
 31
0.0
  0
LINE
  5
F6
100
AcDbEntity
  8
1
  6
CONTINUOUS
 62
     7
100
AcDbLine
 10
197.745
 20
-47.7257
 30
0.0
 11
198.777
 21
-48.7577
 31
0.0
  0
LINE
  5
F7
100
AcDbEntity
  8
1
  6
CONTINUOUS
 62
     7
100
AcDbLine
 10
204.681
 20
-44.3897
 30
0.0
 11
202.113
 21
-46.9577
 31
0.0
  0
LINE
  5
F8
100
AcDbEntity
  8
1
  6
CONTINUOUS
 62
     7
100
AcDbLine
 10
202.977
 20
-44.3897
 30
0.0
 11
201.393
 21
-45.9737
 31
0.0
  0
LINE
  5
F9
100
AcDbEntity
  8
1
  6
CONTINUOUS
 62
     7
100
AcDbLine
 10
201.249
 20
-44.3897
 30
0.0
 11
200.625
 21
-45.0137
 31
0.0
  0
LINE
  5
FA
100
AcDbEntity
  8
1
  6
CONTINUOUS
 62
     7
100
AcDbLine
 10
206.265
 20
-44.3897
 30
0.0
 11
204.681
 21
-45.9737
 31
0.0
  0
LINE
  5
FB
100
AcDbEntity
  8
1
  6
CONTINUOUS
 62
     7
100
AcDbLine
 10
207.969
 20
-44.3897
 30
0.0
 11
204.825
 21
-47.5337
 31
0.0
  0
LINE
  5
FC
100
AcDbEntity
  8
1
  6
CONTINUOUS
 62
     4
100
AcDbLine
 10
228.4678
 20
-44.3417
 30
0.0
 11
269.8678
 21
-44.3417
 31
0.0
  0
LINE
  5
FD
100
AcDbEntity
  8
1
  6
CONTINUOUS
 62
     4
100
AcDbLine
 10
222.1678
 20
-44.3417
 30
0.0
 11
228.4678
 21
-44.3417
 31
0.0
  0
LINE
  5
FE
100
AcDbEntity
  8
PATTERN_CLASS
  6
CONTINUOUS
 62
     4
100
AcDbLine
 10
228.4678
 20
-44.3417
 30
0.0
 11
250.0474
 21
-44.3417
 31
0.0
  0
LINE
  5
FF
100
AcDbEntity
  8
1
  6
CONTINUOUS
 62
     7
100
AcDbLine
 10
230.0518
 20
-44.3897
 30
0.0
 11
228.4678
 21
-45.9737
 31
0.0
  0
LINE
  5
100
100
AcDbEntity
  8
1
  6
CONTINUOUS
 62
     7
100
AcDbLine
 10
231.7558
 20
-44.3897
 30
0.0
 11
228.6118
 21
-47.5337
 31
0.0
  0
LINE
  5
101
100
AcDbEntity
  8
1
  6
CONTINUOUS
 62
     7
100
AcDbLine
 10
231.6358
 20
-44.3897
 30
0.0
 11
234.2758
 21
-47.0297
 31
0.0
  0
LINE
  5
102
100
AcDbEntity
  8
1
  6
CONTINUOUS
 62
     7
100
AcDbLine
 10
231.0598
 20
-45.5417
 30
0.0
 11
233.2918
 21
-47.7497
 31
0.0
  0
LINE
  5
103
100
AcDbEntity
  8
1
  6
CONTINUOUS
 62
     7
100
AcDbLine
 10
230.5078
 20
-46.6937
 30
0.0
 11
232.0438
 21
-48.2297
 31
0.0
  0
LINE
  5
104
100
AcDbEntity
  8
1
  6
CONTINUOUS
 62
     7
100
AcDbLine
 10
229.9078
 20
-47.7977
 30
0.0
 11
230.9398
 21
-48.8057
 31
0.0
  0
LINE
  5
105
100
AcDbEntity
  8
1
  6
CONTINUOUS
 62
     7
100
AcDbLine
 10
236.8918
 20
-44.3897
 30
0.0
 11
234.2758
 21
-47.0297
 31
0.0
  0
LINE
  5
106
100
AcDbEntity
  8
1
  6
CONTINUOUS
 62
     7
100
AcDbLine
 10
235.1878
 20
-44.3897
 30
0.0
 11
233.5318
 21
-46.0457
 31
0.0
  0
LINE
  5
107
100
AcDbEntity
  8
1
  6
CONTINUOUS
 62
     7
100
AcDbLine
 10
233.4598
 20
-44.3897
 30
0.0
 11
232.7878
 21
-45.0857
 31
0.0
  0
LINE
  5
108
100
AcDbEntity
  8
1
  6
CONTINUOUS
 62
     7
100
AcDbLine
 10
235.7158
 20
-46.6217
 30
0.0
 11
237.2518
 21
-48.1577
 31
0.0
  0
LINE
  5
109
100
AcDbEntity
  8
1
  6
CONTINUOUS
 62
     7
100
AcDbLine
 10
235.0918
 20
-47.7257
 30
0.0
 11
236.1238
 21
-48.7577
 31
0.0
  0
LINE
  5
10A
100
AcDbEntity
  8
1
  6
CONTINUOUS
 62
     7
100
AcDbLine
 10
243.6118
 20
-44.3897
 30
0.0
 11
242.0278
 21
-45.9737
 31
0.0
  0
LINE
  5
10B
100
AcDbEntity
  8
1
  6
CONTINUOUS
 62
     7
100
AcDbLine
 10
245.3158
 20
-44.3897
 30
0.0
 11
242.1718
 21
-47.5337
 31
0.0
  0
LINE
  5
10C
100
AcDbEntity
  8
1
  6
CONTINUOUS
 62
     7
100
AcDbLine
 10
245.1958
 20
-44.3897
 30
0.0
 11
247.8358
 21
-47.0297
 31
0.0
  0
LINE
  5
10D
100
AcDbEntity
  8
1
  6
CONTINUOUS
 62
     7
100
AcDbLine
 10
244.6198
 20
-45.5417
 30
0.0
 11
246.8518
 21
-47.7497
 31
0.0
  0
LINE
  5
10E
100
AcDbEntity
  8
1
  6
CONTINUOUS
 62
     7
100
AcDbLine
 10
244.0678
 20
-46.6937
 30
0.0
 11
245.6038
 21
-48.2297
 31
0.0
  0
LINE
  5
10F
100
AcDbEntity
  8
1
  6
CONTINUOUS
 62
     7
100
AcDbLine
 10
243.4678
 20
-47.7977
 30
0.0
 11
244.4998
 21
-48.8057
 31
0.0
  0
LINE
  5
110
100
AcDbEntity
  8
1
  6
CONTINUOUS
 62
     7
100
AcDbLine
 10
250.4518
 20
-44.3897
 30
0.0
 11
247.8358
 21
-47.0297
 31
0.0
  0
LINE
  5
111
100
AcDbEntity
  8
1
  6
CONTINUOUS
 62
     7
100
AcDbLine
 10
248.7478
 20
-44.3897
 30
0.0
 11
247.0918
 21
-46.0457
 31
0.0
  0
LINE
  5
112
100
AcDbEntity
  8
1
  6
CONTINUOUS
 62
     7
100
AcDbLine
 10
247.0198
 20
-44.3897
 30
0.0
 11
246.3478
 21
-45.0857
 31
0.0
  0
LINE
  5
113
100
AcDbEntity
  8
1
  6
CONTINUOUS
 62
     7
100
AcDbLine
 10
249.2758
 20
-46.6217
 30
0.0
 11
250.8118
 21
-48.1577
 31
0.0
  0
LINE
  5
114
100
AcDbEntity
  8
1
  6
CONTINUOUS
 62
     7
100
AcDbLine
 10
248.6518
 20
-47.7257
 30
0.0
 11
249.6838
 21
-48.7577
 31
0.0
  0
LINE
  5
115
100
AcDbEntity
  8
1
  6
CONTINUOUS
 62
     7
100
AcDbLine
 10
189.8712
 20
-67.9961
 30
0.0
 11
197.2123
 21
-67.9961
 31
0.0
  0
LINE
  5
116
100
AcDbEntity
  8
1
  6
CONTINUOUS
 62
     7
100
AcDbLine
 10
197.2123
 20
-67.9961
 30
0.0
 11
196.0678
 21
-55.1417
 31
0.0
  0
INSERT
  5
117
100
AcDbEntity
  8
1
  6
CONTINUOUS
 62
     1
100
AcDbBlockReference
  2
LDR
 10
196.0678
 20
-55.1417
 30
0.0
 41
240.000001
 42
240.000001
 50
95.087951
210
0.0
220
0.0
230
1.0
  0
LINE
  5
119
100
AcDbEntity
  8
61
  6
CONTINUOUS
 62
     2
100
AcDbLine
 10
722.9936
 20
99.1937
 30
0.0
 11
585.8936
 21
99.1937
 31
0.0
  0
LINE
  5
11A
100
AcDbEntity
  8
61
  6
CONTINUOUS
 62
     2
100
AcDbLine
 10
585.8936
 20
99.1937
 30
0.0
 11
585.8936
 21
73.7937
 31
0.0
  0
LINE
  5
11B
100
AcDbEntity
  8
61
  6
CONTINUOUS
 62
     2
100
AcDbLine
 10
722.9936
 20
99.1937
 30
0.0
 11
722.9936
 21
73.7937
 31
0.0
  0
LINE
  5
11C
100
AcDbEntity
  8
61
  6
CONTINUOUS
 62
     2
100
AcDbLine
 10
722.9936
 20
73.7937
 30
0.0
 11
585.8936
 21
73.7937
 31
0.0
  0
LINE
  5
11D
100
AcDbEntity
  8
61
  6
CONTINUOUS
 62
     2
100
AcDbLine
 10
722.9936
 20
86.4937
 30
0.0
 11
585.8936
 21
86.4937
 31
0.0
  0
LINE
  5
11E
100
AcDbEntity
  8
61
  6
CONTINUOUS
 62
     2
100
AcDbLine
 10
598.5936
 20
99.1937
 30
0.0
 11
598.5936
 21
73.7937
 31
0.0
  0
LINE
  5
11F
100
AcDbEntity
  8
61
  6
CONTINUOUS
 62
     2
100
AcDbLine
 10
611.2936
 20
99.1937
 30
0.0
 11
611.2936
 21
73.7937
 31
0.0
  0
LINE
  5
120
100
AcDbEntity
  8
61
  6
CONTINUOUS
 62
     2
100
AcDbLine
 10
628.6936
 20
99.1937
 30
0.0
 11
628.6936
 21
73.7937
 31
0.0
  0
LINE
  5
121
100
AcDbEntity
  8
61
  6
CONTINUOUS
 62
     2
100
AcDbLine
 10
710.2936
 20
99.1937
 30
0.0
 11
710.2936
 21
73.7937
 31
0.0
  0
LINE
  5
122
100
AcDbEntity
  8
61
  6
CONTINUOUS
 62
     2
100
AcDbLine
 10
697.5936
 20
99.1937
 30
0.0
 11
697.5936
 21
73.7937
 31
0.0
  0
LINE
  5
123
100
AcDbEntity
  8
61
  6
CONTINUOUS
 62
     2
100
AcDbLine
 10
669.6936
 20
99.1937
 30
0.0
 11
669.6936
 21
73.7937
 31
0.0
  0
LINE
  5
124
100
AcDbEntity
  8
61
  6
CONTINUOUS
 62
     2
100
AcDbLine
 10
656.9936
 20
99.1937
 30
0.0
 11
656.9936
 21
73.7937
 31
0.0
  0
TEXT
  5
125
100
AcDbEntity
  8
61
  6
CONTINUOUS
 62
     2
100
AcDbText
 10
588.4936
 20
95.2937
 30
0.0
 40
1.5246
  1
PUBLIC
 50
0.033272
 41
1.001968
  7
MONOTXT
210
0.0
220
0.0
230
1.0
100
AcDbText
  0
TEXT
  5
126
100
AcDbEntity
  8
61
  6
CONTINUOUS
 62
     2
100
AcDbText
 10
588.5936
 20
92.0937
 30
0.0
 40
1.5246
  1
ROADS
 50
0.124322
 41
0.996852
  7
MONOTXT
210
0.0
220
0.0
230
1.0
100
AcDbText
  0
TEXT
  5
127
100
AcDbEntity
  8
61
  6
CONTINUOUS
 62
     2
100
AcDbText
 10
590.0936
 20
88.9937
 30
0.0
 40
1.5246
  1
DIV.
 50
359.931522
 41
0.994884
  7
MONOTXT
210
0.0
220
0.0
230
1.0
100
AcDbText
  0
TEXT
  5
128
100
AcDbEntity
  8
61
  6
CONTINUOUS
 62
     2
100
AcDbText
 10
601.3936
 20
95.3937
 30
0.0
 40
1.5246
  1
STATE
 50
0.058969
 41
0.998032
  7
MONOTXT
210
0.0
220
0.0
230
1.0
100
AcDbText
  0
TEXT
  5
129
100
AcDbEntity
  8
61
  6
CONTINUOUS
 62
     2
100
AcDbText
 10
602.4936
 20
92.1937
 30
0.0
 40
1.5246
  1
DIST.
 50
0.055889
 41
0.999606
  7
MONOTXT
210
0.0
220
0.0
230
1.0
100
AcDbText
  0
TEXT
  5
12A
100
AcDbEntity
  8
61
  6
CONTINUOUS
 62
     2
100
AcDbText
 10
603.1936
 20
88.9937
 30
0.0
 40
1.5246
  1
NO.
 50
359.852072
 41
0.997639
  7
MONOTXT
210
0.0
220
0.0
230
1.0
100
AcDbText
  0
TEXT
  5
12B
100
AcDbEntity
  8
61
  6
CONTINUOUS
 62
     2
100
AcDbText
 10
616.5936
 20
95.2937
 30
0.0
 40
1.5246
  1
STATE
 50
0.058969
 41
0.998032
  7
MONOTXT
210
0.0
220
0.0
230
1.0
100
AcDbText
  0
TEXT
  5
12C
100
AcDbEntity
  8
61
  6
CONTINUOUS
 62
     2
100
AcDbText
 10
615.1936
 20
92.2937
 30
0.0
 40
1.5246
  1
PROJECT
 50
359.908431
  7
MONOTXT
210
0.0
220
0.0
230
1.0
100
AcDbText
  0
TEXT
  5
12D
100
AcDbEntity
  8
61
  6
CONTINUOUS
 62
     2
100
AcDbText
 10
618.6936
 20
88.9937
 30
0.0
 40
1.5246
  1
NO.
 50
0.225453
 41
0.993703
  7
MONOTXT
210
0.0
220
0.0
230
1.0
100
AcDbText
  0
TEXT
  5
12E
100
AcDbEntity
  8
61
  6
CONTINUOUS
 62
     2
100
AcDbText
 10
638.5936
 20
93.8937
 30
0.0
 40
1.5234
  1
FEDERAL
 50
0.006714
 41
0.998425
  7
MONOTXT
210
0.0
220
0.0
230
1.0
100
AcDbText
  0
TEXT
  5
12F
100
AcDbEntity
  8
61
  6
CONTINUOUS
 62
     2
100
AcDbText
 10
636.5936
 20
90.4937
 30
0.0
 40
1.5246
  1
PROJECT NO.
 50
359.921531
 41
1.000787
  7
MONOTXT
210
0.0
220
0.0
230
1.0
100
AcDbText
  0
TEXT
  5
130
100
AcDbEntity
  8
61
  6
CONTINUOUS
 62
     2
100
AcDbText
 10
659.7936
 20
93.7937
 30
0.0
 40
1.5246
  1
FISCAL
 50
359.941939
 41
0.998819
  7
MONOTXT
210
0.0
220
0.0
230
1.0
100
AcDbText
  0
TEXT
  5
131
100
AcDbEntity
  8
61
  6
CONTINUOUS
 62
     2
100
AcDbText
 10
660.4936
 20
90.1937
 30
0.0
 40
1.5234
  1
YEAR
 50
0.104606
 41
0.993304
  7
MONOTXT
210
0.0
220
0.0
230
1.0
100
AcDbText
  0
TEXT
  5
132
100
AcDbEntity
  8
61
  6
CONTINUOUS
 62
     2
100
AcDbText
 10
678.3936
 20
91.8937
 30
0.0
 40
1.523399
  1
COUNTY
 50
0.068575
 41
1.001969
  7
MONOTXT
210
0.0
220
0.0
230
1.0
100
AcDbText
  0
TEXT
  5
133
100
AcDbEntity
  8
61
  6
CONTINUOUS
 62
     2
100
AcDbText
 10
700.7936
 20
93.9937
 30
0.0
 40
1.5246
  1
SHEET
 50
0.058969
 41
0.997639
  7
MONOTXT
210
0.0
220
0.0
230
1.0
100
AcDbText
  0
TEXT
  5
134
100
AcDbEntity
  8
61
  6
CONTINUOUS
 62
     2
100
AcDbText
 10
702.5936
 20
90.4937
 30
0.0
 40
1.5246
  1
NO.
 50
359.852072
 41
0.997639
  7
MONOTXT
210
0.0
220
0.0
230
1.0
100
AcDbText
  0
TEXT
  5
135
100
AcDbEntity
  8
61
  6
CONTINUOUS
 62
     2
100
AcDbText
 10
713.1936
 20
93.7937
 30
0.0
 40
1.5246
  1
TOTAL
 50
359.926039
 41
0.998426
  7
MONOTXT
210
0.0
220
0.0
230
1.0
100
AcDbText
  0
TEXT
  5
136
100
AcDbEntity
  8
61
  6
CONTINUOUS
 62
     2
100
AcDbText
 10
712.5936
 20
90.3937
 30
0.0
 40
1.523399
  1
SHEETS
 50
359.958675
  7
MONOTXT
210
0.0
220
0.0
230
1.0
100
AcDbText
  0
TEXT
  5
137
100
AcDbEntity
  8
61
  6
CONTINUOUS
 62
     2
100
AcDbText
 10
601.8936
 20
79.0937
 30
0.0
 40
3.0492
  1
  
 50
0.029406
 41
0.996655
  7
MONOTXT
210
0.0
220
0.0
230
1.0
100
AcDbText
  0
TEXT
  5
138
100
AcDbEntity
  8
61
  6
CONTINUOUS
 62
     2
100
AcDbText
 10
699.8936
 20
78.7937
 30
0.0
 40
3.049199
  1
   
 50
0.011508
 41
1.000984
  7
MONOTXT
210
0.0
220
0.0
230
1.0
100
AcDbText
  0
TEXT
  5
139
100
AcDbEntity
  8
61
  6
CONTINUOUS
 62
     2
100
AcDbText
 10
712.4936
 20
78.6937
 30
0.0
 40
3.0492
  1
   
 50
359.922128
 41
1.00059
  7
MONOTXT
210
0.0
220
0.0
230
1.0
100
AcDbText
  0
TEXT
  5
13A
100
AcDbEntity
  8
61
  6
CONTINUOUS
 62
     2
100
AcDbText
 10
615.0936
 20
83.0937
 30
0.0
 40
2.5482
  1
    
 50
0.054383
 41
0.993643
  7
MONOTXT
210
0.0
220
0.0
230
1.0
100
AcDbText
  0
TEXT
  5
13B
100
AcDbEntity
  8
61
  6
CONTINUOUS
 62
     2
100
AcDbText
 10
611.3936
 20
79.1937
 30
0.0
 40
2.5266
  1
       
 50
0.064678
 41
1.00095
  7
MONOTXT
210
0.0
220
0.0
230
1.0
100
AcDbText
  0
TEXT
  5
13C
100
AcDbEntity
  8
61
  6
CONTINUOUS
 62
     2
100
AcDbText
 10
612.6936
 20
75.4937
 30
0.0
 40
2.526599
  1
      
 50
359.958053
 41
1.000237
  7
MONOTXT
210
0.0
220
0.0
230
1.0
100
AcDbText
  0
TEXT
  5
13D
100
AcDbEntity
  8
61
  6
CONTINUOUS
 62
     2
100
AcDbText
 10
626.5936
 20
81.3937
 30
0.0
 40
3.049199
  1
           
 50
0.011508
 41
0.998819
  7
MONOTXT
210
0.0
220
0.0
230
1.0
100
AcDbText
  0
TEXT
  5
13E
100
AcDbEntity
  8
61
  6
CONTINUOUS
 62
     2
100
AcDbText
 10
626.3936
 20
76.7937
 30
0.0
 40
3.049199
  1
           
 50
0.011508
 41
0.999606
  7
MONOTXT
210
0.0
220
0.0
230
1.0
100
AcDbText
  0
TEXT
  5
13F
100
AcDbEntity
  8
61
  6
CONTINUOUS
 62
     2
100
AcDbText
 10
671.2936
 20
78.9937
 30
0.0
 40
2.5482
  1
          
 50
0.009222
 41
0.992701
  7
MONOTXT
210
0.0
220
0.0
230
1.0
100
AcDbText
  0
LINE
  5
140
100
AcDbEntity
  8
1
  6
CONTINUOUS
 62
     2
100
AcDbLine
 10
508.0936
 20
-423.9063
 30
0.0
 11
508.0936
 21
-307.6063
 31
0.0
  0
LINE
  5
141
100
AcDbEntity
  8
1
  6
CONTINUOUS
 62
     2
100
AcDbLine
 10
508.0936
 20
-307.6063
 30
0.0
 11
726.0936
 21
-307.6063
 31
0.0
  0
LINE
  5
142
100
AcDbEntity
  8
1
  6
CONTINUOUS
 62
     2
100
AcDbLine
 10
552.5936
 20
-423.9063
 30
0.0
 11
552.5936
 21
-366.8063
 31
0.0
  0
LINE
  5
143
100
AcDbEntity
  8
1
  6
CONTINUOUS
 62
     2
100
AcDbLine
 10
552.5936
 20
-366.8063
 30
0.0
 11
508.0936
 21
-366.8063
 31
0.0
  0
LINE
  5
144
100
AcDbEntity
  8
1
  6
CONTINUOUS
 62
     2
100
AcDbLine
 10
552.5936
 20
-372.5063
 30
0.0
 11
508.0936
 21
-372.5063
 31
0.0
  0
LINE
  5
145
100
AcDbEntity
  8
1
  6
CONTINUOUS
 62
     2
100
AcDbLine
 10
552.5936
 20
-378.2063
 30
0.0
 11
508.0936
 21
-378.2063
 31
0.0
  0
LINE
  5
146
100
AcDbEntity
  8
1
  6
CONTINUOUS
 62
     2
100
AcDbLine
 10
552.5936
 20
-384.0063
 30
0.0
 11
508.0936
 21
-384.0063
 31
0.0
  0
LINE
  5
147
100
AcDbEntity
  8
1
  6
CONTINUOUS
 62
     2
100
AcDbLine
 10
552.5936
 20
-389.7063
 30
0.0
 11
508.0936
 21
-389.7063
 31
0.0
  0
LINE
  5
148
100
AcDbEntity
  8
1
  6
CONTINUOUS
 62
     2
100
AcDbLine
 10
552.5936
 20
-395.4063
 30
0.0
 11
508.0936
 21
-395.4063
 31
0.0
  0
LINE
  5
149
100
AcDbEntity
  8
1
  6
CONTINUOUS
 62
     2
100
AcDbLine
 10
552.5936
 20
-401.1063
 30
0.0
 11
508.0936
 21
-401.1063
 31
0.0
  0
LINE
  5
14A
100
AcDbEntity
  8
1
  6
CONTINUOUS
 62
     2
100
AcDbLine
 10
552.5936
 20
-406.8063
 30
0.0
 11
508.0936
 21
-406.8063
 31
0.0
  0
LINE
  5
14B
100
AcDbEntity
  8
1
  6
CONTINUOUS
 62
     2
100
AcDbLine
 10
552.5936
 20
-412.5063
 30
0.0
 11
508.0936
 21
-412.5063
 31
0.0
  0
LINE
  5
14C
100
AcDbEntity
  8
1
  6
CONTINUOUS
 62
     2
100
AcDbLine
 10
552.5936
 20
-418.2063
 30
0.0
 11
508.0936
 21
-418.2063
 31
0.0
  0
TEXT
  5
14D
100
AcDbEntity
  8
1
  6
CONTINUOUS
 62
     2
100
AcDbText
 10
521.1936
 20
-370.6063
 30
0.0
 40
2.5368
  1
REVISIONS
  7
MONOTXT
210
0.0
220
0.0
230
1.0
100
AcDbText
  0
TEXT
  5
14E
100
AcDbEntity
  8
1
  6
CONTINUOUS
 62
     2
100
AcDbText
 10
510.5936
 20
-365.6063
 30
0.0
 40
2.5368
  1
PREPARED:   /  /  
  7
MONOTXT
210
0.0
220
0.0
230
1.0
100
AcDbText
  0
TEXT
  5
150
100
AcDbEntity
  8
1
  6
CONTINUOUS
 62
     2
100
AcDbText
 10
549.4936
 20
-318.5063
 30
0.0
 40
6.0894
  1
WEST VIRGINIA DIVISION OF HIGHWAYS
  7
ROMANT
 72
     1
 11
618.0352
 21
-312.4169
 31
0.0
210
0.0
220
0.0
230
1.0
100
AcDbText
 73
     3
  0
TEXT
  5
151
100
AcDbEntity
  8
1
  6
CONTINUOUS
 62
     2
100
AcDbText
 10
563.1936
 20
-332.7063
 30
0.0
 40
8.8806
  1
STANDARD DETAIL
  7
TXT
 72
     1
 11
619.6957
 21
-323.8257
 31
0.0
210
0.0
220
0.0
230
1.0
100
AcDbText
 73
     3
  0
TEXT
  5
152
100
AcDbEntity
  8
1
  6
CONTINUOUS
 62
     2
100
AcDbText
 10
557.3936
 20
-418.7063
 30
0.0
 40
8.8806
  1
STANDARD SHEET TE1-9 
  7
TXT
210
0.0
220
0.0
230
1.0
100
AcDbText
  0
TEXT
  5
153
100
AcDbEntity
  8
1
  6
CONTINUOUS
 62
     2
100
AcDbText
 10
520.4636
 20
-377.1063
 30
0.0
 40
2.5398
  1
06-02-94
  7
MONOTXT
 72
     1
 11
529.6328
 21
-374.5665
 31
0.0
210
0.0
220
0.0
230
1.0
100
AcDbText
 73
     3
  0
TEXT
  5
154
100
AcDbEntity
  8
1
  6
CONTINUOUS
 62
     2
100
AcDbText
 10
519.8936
 20
-382.7063
 30
0.0
 40
2.5398
  1
        
  7
MONOTXT
 72
     1
 11
529.6295
 21
-380.1665
 31
0.0
210
0.0
220
0.0
230
1.0
100
AcDbText
 73
     3
  0
TEXT
  5
155
100
AcDbEntity
  8
1
  6
CONTINUOUS
 62
     2
100
AcDbText
 10
519.8936
 20
-388.2063
 30
0.0
 40
2.5398
  1
        
  7
MONOTXT
 72
     1
 11
529.6295
 21
-385.6665
 31
0.0
210
0.0
220
0.0
230
1.0
100
AcDbText
 73
     3
  0
TEXT
  5
156
100
AcDbEntity
  8
1
  6
CONTINUOUS
 62
     2
100
AcDbText
 10
519.8936
 20
-393.8063
 30
0.0
 40
2.5398
  1
        
  7
MONOTXT
 72
     1
 11
529.6295
 21
-391.2665
 31
0.0
210
0.0
220
0.0
230
1.0
100
AcDbText
 73
     3
  0
TEXT
  5
157
100
AcDbEntity
  8
1
  6
CONTINUOUS
 62
     2
100
AcDbText
 10
519.6936
 20
-399.7063
 30
0.0
 40
2.5398
  1
        
  7
MONOTXT
 72
     1
 11
529.4295
 21
-397.1665
 31
0.0
210
0.0
220
0.0
230
1.0
100
AcDbText
 73
     3
  0
TEXT
  5
158
100
AcDbEntity
  8
1
  6
CONTINUOUS
 62
     2
100
AcDbText
 10
519.8936
 20
-405.4063
 30
0.0
 40
2.5398
  1
        
  7
MONOTXT
 72
     1
 11
529.6295
 21
-402.8665
 31
0.0
210
0.0
220
0.0
230
1.0
100
AcDbText
 73
     3
  0
TEXT
  5
159
100
AcDbEntity
  8
1
  6
CONTINUOUS
 62
     2
100
AcDbText
 10
519.7936
 20
-411.2063
 30
0.0
 40
2.5398
  1
        
  7
MONOTXT
 72
     1
 11
529.5295
 21
-408.6665
 31
0.0
210
0.0
220
0.0
230
1.0
100
AcDbText
 73
     3
  0
TEXT
  5
15A
100
AcDbEntity
  8
1
  6
CONTINUOUS
 62
     2
100
AcDbText
 10
519.8936
 20
-417.0063
 30
0.0
 40
2.5398
  1
        
  7
MONOTXT
 72
     1
 11
529.6295
 21
-414.4665
 31
0.0
210
0.0
220
0.0
230
1.0
100
AcDbText
 73
     3
  0
TEXT
  5
15B
100
AcDbEntity
  8
1
  6
CONTINUOUS
 62
     2
100
AcDbText
 10
519.8936
 20
-422.1063
 30
0.0
 40
2.5398
  1
        
  7
MONOTXT
 72
     1
 11
529.6295
 21
-419.5665
 31
0.0
210
0.0
220
0.0
230
1.0
100
AcDbText
 73
     3
  0
LINE
  5
15C
100
AcDbEntity
  8
1
  6
CONTINUOUS
 62
     2
100
AcDbLine
 10
726.0936
 20
-423.9063
 30
0.0
 11
726.0936
 21
-307.6063
 31
0.0
  0
LINE
  5
15D
100
AcDbEntity
  8
1
  6
CONTINUOUS
 62
     7
100
AcDbLine
 10
726.0936
 20
102.1937
 30
0.0
 11
-65.6064
 21
102.0937
 31
0.0
  0
LINE
  5
15E
100
AcDbEntity
  8
1
  6
CONTINUOUS
 62
     7
100
AcDbLine
 10
-65.6064
 20
102.0937
 30
0.0
 11
-65.5064
 21
-423.9063
 31
0.0
  0
LINE
  5
15F
100
AcDbEntity
  8
1
  6
CONTINUOUS
 62
     7
100
AcDbLine
 10
726.0936
 20
-423.9063
 30
0.0
 11
726.0936
 21
102.1937
 31
0.0
  0
LINE
  5
160
100
AcDbEntity
  8
61
  6
CONTINUOUS
 62
     2
100
AcDbLine
 10
726.0936
 20
-423.9063
 30
0.0
 11
573.3936
 21
-423.9063
 31
0.0
  0
TEXT
  5
161
100
AcDbEntity
  8
61
  6
CONTINUOUS
 62
     2
100
AcDbText
 10
695.5936
 20
62.0937
 30
0.0
 40
3.0546
  1
     
 41
1.001375
  7
MONOTXT
210
0.0
220
0.0
230
1.0
100
AcDbText
  0
INSERT
  5
166
100
AcDbEntity
  8
1
  6
CONTINUOUS
 62
     1
100
AcDbBlockReference
  2
PT
 10
732.3936
 20
-435.2063
 30
0.0
 41
269.385512
 42
269.385512
210
0.0
220
0.0
230
1.0
  0
LINE
  5
167
100
AcDbEntity
  8
1
  6
CONTINUOUS
 62
     7
100
AcDbLine
 10
726.0936
 20
-423.9063
 30
0.0
 11
-65.5064
 21
-423.9063
 31
0.0
  0
LINE
  5
168
100
AcDbEntity
  8
1
  6
CONTINUOUS
 62
     2
100
AcDbLine
 10
726.0936
 20
-423.9063
 30
0.0
 11
726.0936
 21
102.1937
 31
0.0
  0
TEXT
  5
169
100
AcDbEntity
  8
CONSTRUCTION_CLASS
  6
CONTINUOUS
 62
     3
100
AcDbText
 10
588.9936
 20
78.3937
 30
0.0
 40
3.048
  1
WV
  7
MONOTXT
210
0.0
220
0.0
230
1.0
100
AcDbText
  0
TEXT
  5
16A
100
AcDbEntity
  8
61
  6
CONTINUOUS
 62
     2
100
AcDbText
 10
660.4936
 20
78.8937
 30
0.0
 40
3.0492
  1
  
 50
0.029406
 41
0.996655
  7
MONOTXT
210
0.0
220
0.0
230
1.0
100
AcDbText
  0
LINE
  5
16B
100
AcDbEntity
  8
61
  6
CONTINUOUS
 62
     2
100
AcDbLine
 10
726.0936
 20
-423.9063
 30
0.0
 11
573.3936
 21
-423.9063
 31
0.0
  0
LINE
  5
16C
100
AcDbEntity
  8
61
  6
CONTINUOUS
 62
     2
100
AcDbLine
 10
726.0936
 20
-423.9063
 30
0.0
 11
573.6936
 21
-423.9063
 31
0.0
  0
LINE
  5
16D
100
AcDbEntity
  8
61
  6
CONTINUOUS
 62
     2
100
AcDbLine
 10
726.0936
 20
-423.9063
 30
0.0
 11
573.3936
 21
-423.9063
 31
0.0
  0
LINE
  5
16E
100
AcDbEntity
  8
61
  6
CONTINUOUS
 62
     2
100
AcDbLine
 10
726.0936
 20
-423.9063
 30
0.0
 11
573.6936
 21
-423.9063
 31
0.0
  0
TEXT
  5
16F
100
AcDbEntity
  8
1
  6
CONTINUOUS
 62
     2
100
AcDbText
 10
667.3936
 20
-427.7063
 30
0.0
 40
2.031
  1
TRAFFIC ENGINEERING DIVISION
  7
TXT
210
0.0
220
0.0
230
1.0
100
AcDbText
  0
TEXT
  5
170
100
AcDbEntity
  8
1
  6
CONTINUOUS
 62
     7
100
AcDbText
 10
453.0936
 20
-427.7063
 30
0.0
 40
2.2002
  1
$$$$$$$$$FILENAME$$$$$$$$
  7
MONOTXT
210
0.0
220
0.0
230
1.0
100
AcDbText
  0
TEXT
  5
171
100
AcDbEntity
  8
1
  6
CONTINUOUS
 62
     7
100
AcDbText
 10
573.8936
 20
-427.7063
 30
0.0
 40
2.2002
  1
$USERNAME$
  7
MONOTXT
210
0.0
220
0.0
230
1.0
100
AcDbText
  0
TEXT
  5
172
100
AcDbEntity
  8
1
  6
CONTINUOUS
 62
     7
100
AcDbText
 10
618.9936
 20
-427.7063
 30
0.0
 40
2.2002
  1
DD-MMM-YYYY HH:MM
  7
MONOTXT
210
0.0
220
0.0
230
1.0
100
AcDbText
  0
POLYLINE
  5
173
100
AcDbEntity
  8
1
  6
CONTINUOUS
 62
     7
100
AcDb2dPolyline
 66
     1
 10
0.0
 20
0.0
 30
0.0
 70
     1
  0
VERTEX
  5
174
100
AcDbEntity
  8
1
  6
CONTINUOUS
 62
     7
100
AcDbVertex
100
AcDb2dVertex
 10
511.7492
 20
-377.4025
 30
0.0
  0
VERTEX
  5
175
100
AcDbEntity
  8
1
  6
CONTINUOUS
 62
     7
100
AcDbVertex
100
AcDb2dVertex
 10
514.2492
 20
-373.0724
 30
0.0
  0
VERTEX
  5
176
100
AcDbEntity
  8
1
  6
CONTINUOUS
 62
     7
100
AcDbVertex
100
AcDb2dVertex
 10
516.7492
 20
-377.4025
 30
0.0
  0
VERTEX
  5
177
100
AcDbEntity
  8
1
  6
CONTINUOUS
 62
     7
100
AcDbVertex
100
AcDb2dVertex
 10
511.7492
 20
-377.4025
 30
0.0
  0
SEQEND
  5
178
100
AcDbEntity
  8
1
  6
CONTINUOUS
 62
     7
  0
TEXT
  5
179
100
AcDbEntity
  8
1
  6
CONTINUOUS
 62
     7
100
AcDbText
 10
513.799
 20
-376.9649
 30
0.0
 40
2.5398
  1
1
  7
MONOTXT
 72
     1
 11
514.099
 21
-374.4251
 31
0.0
210
0.0
220
0.0
230
1.0
100
AcDbText
 73
     3
  0
POLYLINE
  5
17A
100
AcDbEntity
  8
1
  6
CONTINUOUS
 62
     7
100
AcDb2dPolyline
 66
     1
 10
0.0
 20
0.0
 30
0.0
 70
     1
  0
VERTEX
  5
17B
100
AcDbEntity
  8
1
  6
CONTINUOUS
 62
     7
100
AcDbVertex
100
AcDb2dVertex
 10
509.0443
 20
-303.4502
 30
0.0
  0
VERTEX
  5
17C
100
AcDbEntity
  8
1
  6
CONTINUOUS
 62
     7
100
AcDbVertex
100
AcDb2dVertex
 10
511.5443
 20
-299.1201
 30
0.0
  0
VERTEX
  5
17D
100
AcDbEntity
  8
1
  6
CONTINUOUS
 62
     7
100
AcDbVertex
100
AcDb2dVertex
 10
514.0443
 20
-303.4502
 30
0.0
  0
VERTEX
  5
17E
100
AcDbEntity
  8
1
  6
CONTINUOUS
 62
     7
100
AcDbVertex
100
AcDb2dVertex
 10
509.0443
 20
-303.4502
 30
0.0
  0
SEQEND
  5
17F
100
AcDbEntity
  8
1
  6
CONTINUOUS
 62
     7
  0
TEXT
  5
180
100
AcDbEntity
  8
1
  6
CONTINUOUS
 62
     7
100
AcDbText
 10
511.0941
 20
-303.0126
 30
0.0
 40
2.5398
  1
1
  7
MONOTXT
 72
     1
 11
511.3941
 21
-300.4728
 31
0.0
210
0.0
220
0.0
230
1.0
100
AcDbText
 73
     3
  0
TEXT
  5
181
100
AcDbEntity
  8
1
  6
CONTINUOUS
 62
     2
100
AcDbText
 10
515.9142
 20
-303.154
 30
0.0
 40
2.5398
  1
ADDED METRIC
  7
MONOTXT
 72
     1
 11
529.7831
 21
-300.6142
 31
0.0
210
0.0
220
0.0
230
1.0
100
AcDbText
 73
     3
  0
TEXT
  5
182
100
AcDbEntity
  8
1
  6
CONTINUOUS
 62
     7
100
AcDbText
 10
73.0794
 20
46.9724
 30
0.0
 40
2.4
  1
2.4m MIN. DESIRABLE
  7
MONOTXT
210
0.0
220
0.0
230
1.0
100
AcDbText
  0
TEXT
  5
183
100
AcDbEntity
  8
1
  6
CONTINUOUS
 62
     7
100
AcDbText
 10
200.478
 20
26.8677
 30
0.0
 40
2.4
  1
460mm
  7
MONOTXT
210
0.0
220
0.0
230
1.0
100
AcDbText
  0
TEXT
  5
184
100
AcDbEntity
  8
1
  6
CONTINUOUS
 62
     7
100
AcDbText
 10
146.596
 20
8.6503
 30
0.0
 40
2.4
  1
40mmx
  7
MONOTXT
210
0.0
220
0.0
230
1.0
100
AcDbText
  0
TEXT
  5
185
100
AcDbEntity
  8
1
  6
CONTINUOUS
 62
     7
100
AcDbText
 10
146.596
 20
3.8503
 30
0.0
 40
2.4
  1
90mm
  7
MONOTXT
210
0.0
220
0.0
230
1.0
100
AcDbText
  0
TEXT
  5
186
100
AcDbEntity
  8
1
  6
CONTINUOUS
 62
     7
100
AcDbText
 10
164.7892
 20
-3.615
 30
0.0
 40
2.4
  1
2-16mmx
  7
MONOTXT
210
0.0
220
0.0
230
1.0
100
AcDbText
  0
TEXT
  5
187
100
AcDbEntity
  8
1
  6
CONTINUOUS
 62
     7
100
AcDbText
 10
164.7892
 20
-8.415
 30
0.0
 40
2.4
  1
140mm
  7
MONOTXT
210
0.0
220
0.0
230
1.0
100
AcDbText
  0
TEXT
  5
188
100
AcDbEntity
  8
1
  6
CONTINUOUS
 62
     7
100
AcDbText
 10
175.3576
 20
-17.8427
 30
0.0
 40
2.4
  1
0.6m WITH G.R.
  7
MONOTXT
 11
175.3576
 21
-15.4427
 31
0.0
210
0.0
220
0.0
230
1.0
100
AcDbText
 73
     3
  0
TEXT
  5
189
100
AcDbEntity
  8
1
  6
CONTINUOUS
 62
     7
100
AcDbText
 10
175.3576
 20
-22.6427
 30
0.0
 40
2.4
  1
1.2m W/O G.R.
  7
MONOTXT
 11
175.3576
 21
-20.2427
 31
0.0
210
0.0
220
0.0
230
1.0
100
AcDbText
 73
     3
  0
TEXT
  5
18A
100
AcDbEntity
  8
1
  6
CONTINUOUS
 62
     7
100
AcDbText
 10
230.9338
 20
3.0993
 30
0.0
 40
2.4
  1
460mm
  7
MONOTXT
210
0.0
220
0.0
230
1.0
100
AcDbText
  0
TEXT
  5
18B
100
AcDbEntity
  8
1
  6
CONTINUOUS
 62
     7
100
AcDbText
 10
239.8444
 20
-28.1946
 30
0.0
 40
2.4
  1
90mmx90mm
  7
MONOTXT
210
0.0
220
0.0
230
1.0
100
AcDbText
  0
TEXT
  5
18C
100
AcDbEntity
  8
1
  6
CONTINUOUS
 62
     7
100
AcDbText
 10
239.8444
 20
-32.9946
 30
0.0
 40
2.4
  1
WOOD POST
  7
MONOTXT
210
0.0
220
0.0
230
1.0
100
AcDbText
  0
TEXT
  5
18D
100
AcDbEntity
  8
1
  6
CONTINUOUS
 62
     7
100
AcDbText
 10
240.888
 20
-72.2685
 30
0.0
 40
2.4
  1
900mm
  7
MONOTXT
210
0.0
220
0.0
230
1.0
100
AcDbText
  0
TEXT
  5
18E
100
AcDbEntity
  8
1
  6
CONTINUOUS
 62
     7
100
AcDbText
 10
213.2262
 20
-108.6489
 30
0.0
 40
2.4
  1
300mm
  7
MONOTXT
 72
     4
 11
219.6324
 21
-107.4489
 31
0.0
210
0.0
220
0.0
230
1.0
100
AcDbText
  0
TEXT
  5
18F
100
AcDbEntity
  8
1
  6
CONTINUOUS
 62
     7
100
AcDbText
 10
216.7505
 20
-113.4489
 30
0.0
 40
2.4
  1
DIA.
  7
MONOTXT
 72
     4
 11
219.6324
 21
-112.2489
 31
0.0
210
0.0
220
0.0
230
1.0
100
AcDbText
  0
ENDSEC
  0
SECTION
  2
OBJECTS
  0
DICTIONARY
  5
19
100
AcDbDictionary
  3
ACAD_GROUP
350
1A
  3
ACAD_MLINESTYLE
350
1B
  0
DICTIONARY
  5
1A
102
{ACAD_REACTORS
330
19
102
}
100
AcDbDictionary
  0
DICTIONARY
  5
1B
102
{ACAD_REACTORS
330
19
102
}
100
AcDbDictionary
  3
STANDARD
350
1C
  0
MLINESTYLE
  5
1C
102
{ACAD_REACTORS
330
1B
102
}
100
AcDbMlineStyle
  2
STANDARD
 70
     0
  3

 62
     0
 51
90.0
 52
90.0
 71
     2
 49
0.5
 62
   256
  6
BYLAYER
 49
-0.5
 62
   256
  6
BYLAYER
  0
ENDSEC
  0
EOF
