  0
SECTION
  2
HEADER
  9
$ACADVER
  1
AC1014
  9
$ACADMAINTVER
 70
     0
  9
$DWGCODEPAGE
  3
ANSI_1252
  9
$INSBASE
 10
0.0
 20
0.0
 30
0.0
  9
$EXTMIN
 10
-107.1477
 20
-487.9882
 30
0.0
  9
$EXTMAX
 10
747.8523
 20
55.5118
 30
0.0
  9
$LIMMIN
 10
0.0
 20
0.0
  9
$LIMMAX
 10
12.0
 20
9.0
  9
$ORTHOMODE
 70
     0
  9
$REGENMODE
 70
     1
  9
$FILLMODE
 70
     1
  9
$QTEXTMODE
 70
     0
  9
$MIRRTEXT
 70
     1
  9
$DRAGMODE
 70
     2
  9
$LTSCALE
 40
1.0
  9
$OSMODE
 70
     0
  9
$ATTMODE
 70
     1
  9
$TEXTSIZE
 40
0.2
  9
$TRACEWID
 40
0.05
  9
$TEXTSTYLE
  7
STANDARD
  9
$CLAYER
  8
0
  9
$CELTYPE
  6
CONTINUOUS
  9
$CECOLOR
 62
   256
  9
$CELTSCALE
 40
1.0
  9
$DELOBJ
 70
     1
  9
$DISPSILH
 70
     0
  9
$DIMSCALE
 40
1.0
  9
$DIMASZ
 40
0.18
  9
$DIMEXO
 40
0.0625
  9
$DIMDLI
 40
0.38
  9
$DIMRND
 40
0.0
  9
$DIMDLE
 40
0.0
  9
$DIMEXE
 40
0.18
  9
$DIMTP
 40
0.0
  9
$DIMTM
 40
0.0
  9
$DIMTXT
 40
0.18
  9
$DIMCEN
 40
0.09
  9
$DIMTSZ
 40
0.0
  9
$DIMTOL
 70
     0
  9
$DIMLIM
 70
     0
  9
$DIMTIH
 70
     1
  9
$DIMTOH
 70
     1
  9
$DIMSE1
 70
     0
  9
$DIMSE2
 70
     0
  9
$DIMTAD
 70
     0
  9
$DIMZIN
 70
     0
  9
$DIMBLK
  1

  9
$DIMASO
 70
     1
  9
$DIMSHO
 70
     1
  9
$DIMPOST
  1

  9
$DIMAPOST
  1

  9
$DIMALT
 70
     0
  9
$DIMALTD
 70
     2
  9
$DIMALTF
 40
25.4
  9
$DIMLFAC
 40
1.0
  9
$DIMTOFL
 70
     0
  9
$DIMTVP
 40
0.0
  9
$DIMTIX
 70
     0
  9
$DIMSOXD
 70
     0
  9
$DIMSAH
 70
     0
  9
$DIMBLK1
  1

  9
$DIMBLK2
  1

  9
$DIMSTYLE
  2
STANDARD
  9
$DIMCLRD
 70
     0
  9
$DIMCLRE
 70
     0
  9
$DIMCLRT
 70
     0
  9
$DIMTFAC
 40
1.0
  9
$DIMGAP
 40
0.09
  9
$DIMJUST
 70
     0
  9
$DIMSD1
 70
     0
  9
$DIMSD2
 70
     0
  9
$DIMTOLJ
 70
     1
  9
$DIMTZIN
 70
     0
  9
$DIMALTZ
 70
     0
  9
$DIMALTTZ
 70
     0
  9
$DIMFIT
 70
     3
  9
$DIMUPT
 70
     0
  9
$DIMUNIT
 70
     2
  9
$DIMDEC
 70
     4
  9
$DIMTDEC
 70
     4
  9
$DIMALTU
 70
     2
  9
$DIMALTTD
 70
     2
  9
$DIMTXSTY
  7
STANDARD
  9
$DIMAUNIT
 70
     0
  9
$LUNITS
 70
     2
  9
$LUPREC
 70
     4
  9
$SKETCHINC
 40
0.1
  9
$FILLETRAD
 40
0.0
  9
$AUNITS
 70
     0
  9
$AUPREC
 70
     0
  9
$MENU
  1
acad
  9
$ELEVATION
 40
0.0
  9
$PELEVATION
 40
0.0
  9
$THICKNESS
 40
0.0
  9
$LIMCHECK
 70
     0
  9
$BLIPMODE
 70
     1
  9
$CHAMFERA
 40
0.0
  9
$CHAMFERB
 40
0.0
  9
$CHAMFERC
 40
0.0
  9
$CHAMFERD
 40
0.0
  9
$SKPOLY
 70
     0
  9
$TDCREATE
 40
2451813.693101852
  9
$TDUPDATE
 40
2451813.693101852
  9
$TDINDWG
 40
0.0000000000
  9
$TDUSRTIMER
 40
0.0000000000
  9
$USRTIMER
 70
     1
  9
$ANGBASE
 50
0.0
  9
$ANGDIR
 70
     0
  9
$PDMODE
 70
     0
  9
$PDSIZE
 40
0.0
  9
$PLINEWID
 40
0.0
  9
$COORDS
 70
     0
  9
$SPLFRAME
 70
     0
  9
$SPLINETYPE
 70
     6
  9
$SPLINESEGS
 70
    10
  9
$ATTDIA
 70
     0
  9
$ATTREQ
 70
     1
  9
$HANDLING
 70
     1
  9
$HANDSEED
  5
5D9
  9
$SURFTAB1
 70
     6
  9
$SURFTAB2
 70
     6
  9
$SURFTYPE
 70
     6
  9
$SURFU
 70
     6
  9
$SURFV
 70
     6
  9
$UCSNAME
  2

  9
$UCSORG
 10
0.0
 20
0.0
 30
0.0
  9
$UCSXDIR
 10
1.0
 20
0.0
 30
0.0
  9
$UCSYDIR
 10
0.0
 20
1.0
 30
0.0
  9
$PUCSNAME
  2

  9
$PUCSORG
 10
0.0
 20
0.0
 30
0.0
  9
$PUCSXDIR
 10
1.0
 20
0.0
 30
0.0
  9
$PUCSYDIR
 10
0.0
 20
1.0
 30
0.0
  9
$USERI1
 70
     0
  9
$USERI2
 70
     0
  9
$USERI3
 70
     0
  9
$USERI4
 70
     0
  9
$USERI5
 70
     0
  9
$USERR1
 40
0.0
  9
$USERR2
 40
0.0
  9
$USERR3
 40
0.0
  9
$USERR4
 40
0.0
  9
$USERR5
 40
0.0
  9
$WORLDVIEW
 70
     1
  9
$SHADEDGE
 70
     3
  9
$SHADEDIF
 70
    70
  9
$TILEMODE
 70
     1
  9
$MAXACTVP
 70
    16
  9
$PINSBASE
 10
0.0
 20
0.0
 30
0.0
  9
$PLIMCHECK
 70
     0
  9
$PEXTMIN
 10
-1.000000E+20
 20
-1.000000E+20
 30
-1.000000E+20
  9
$PEXTMAX
 10
-1.000000E+20
 20
-1.000000E+20
 30
-1.000000E+20
  9
$PLIMMIN
 10
0.0
 20
0.0
  9
$PLIMMAX
 10
12.0
 20
9.0
  9
$UNITMODE
 70
     0
  9
$VISRETAIN
 70
     0
  9
$PLINEGEN
 70
     1
  9
$PSLTSCALE
 70
     0
  9
$TREEDEPTH
 70
  3020
  9
$PICKSTYLE
 70
     1
  9
$CMLSTYLE
  2
STANDARD
  9
$CMLJUST
 70
     0
  9
$CMLSCALE
 40
1.0
  9
$PROXYGRAPHICS
 70
     0
  9
$MEASUREMENT
 70
     0
  0
ENDSEC
  0
SECTION
  2
CLASSES
  0
CLASS
  1
LWPOLYLINE
  2
AcDbPolyline
  3
"AutoCAD"
 90
        0
280
     0
281
     1
  0
CLASS
  1
IMAGE
  2
AcDbRasterImage
  3
ISM
 90
      127
280
     0
281
     1
  0
CLASS
  1
OLE2FRAME
  2
AcDbOle2Frame
  3
""
 90
        0
280
     0
281
     1
  0
CLASS
  1
HATCH
  2
AcDbHatch
  3
"ACAD_SEDONA"
 90
        0
280
     0
281
     1
  0
CLASS
  1
DICTIONARYVAR
  2
AcDbDictionaryVar
  3
"AutoCAD"
 90
        0
280
     0
281
     0
  0
CLASS
  1
RASTERVARIABLES
  2
AcDbRasterVariables
  3
ISM
 90
        0
280
     0
281
     0
  0
CLASS
  1
IMAGEDEF
  2
AcDbRasterImageDef
  3
ISM
 90
        0
280
     0
281
     0
  0
CLASS
  1
IMAGEDEF_REACTOR
  2
AcDbRasterImageDefReactor
  3
ISM
 90
        1
280
     0
281
     0
  0
CLASS
  1
IDBUFFER
  2
AcDbIdBuffer
  3
"Acad"
 90
        0
280
     0
281
     0
  0
CLASS
  1
SPATIAL_FILTER
  2
AcDbSpatialFilter
  3
"Acad"
 90
        0
280
     0
281
     0
  0
CLASS
  1
XRECORD
  2
AcDbXrecord
  3
"<Built In>"
 90
        0
280
     0
281
     0
  0
CLASS
  1
SORTENTSTABLE
  2
AcDbSortentsTable
  3
"AutoCAD"
 90
        0
280
     0
281
     0
  0
CLASS
  1
LAYER_INDEX
  2
AcDbLayerIndex
  3
"Acad"
 90
        0
280
     0
281
     0
  0
CLASS
  1
SPATIAL_INDEX
  2
AcDbSpatialIndex
  3
"Acad"
 90
        0
280
     0
281
     0
  0
CLASS
  1
OBJECT_PTR
  2
CAseDLPNTableRecord
  3
"ASE-LPNTableRecord"
 90
        1
280
     0
281
     0
  0
ENDSEC
  0
SECTION
  2
TABLES
  0
TABLE
  2
VPORT
  5
7
100
AcDbSymbolTable
 70
     1
  0
VPORT
  5
5D8
100
AcDbSymbolTableRecord
100
AcDbViewportTableRecord
  2
*ACTIVE
 70
     0
 10
0.0
 20
0.0
 11
1.0
 21
1.0
 12
0.0
 22
0.0
 13
0.0
 23
0.0
 14
0.0
 24
0.0
 15
0.0
 25
0.0
 16
0.0
 26
0.0
 36
1.0
 17
296.000687
 27
-216.04015
 37
0.0
 40
565.6361
 41
1.545
 42
50.0
 43
0.0004
 44
0.0
 50
0.0
 51
0.0
 71
     0
 72
   100
 73
     1
 74
     0
 75
     0
 76
     0
 77
     0
 78
     0
  0
ENDTAB
  0
TABLE
  2
LTYPE
  5
4
100
AcDbSymbolTable
 70
     9
  0
LTYPE
  5
11
100
AcDbSymbolTableRecord
100
AcDbLinetypeTableRecord
  2
BYBLOCK
 70
     0
  3

 72
    65
 73
     0
 40
0.0
  0
LTYPE
  5
12
100
AcDbSymbolTableRecord
100
AcDbLinetypeTableRecord
  2
BYLAYER
 70
     0
  3

 72
    65
 73
     0
 40
0.0
  0
LTYPE
  5
13
100
AcDbSymbolTableRecord
100
AcDbLinetypeTableRecord
  2
CONTINUOUS
 70
     0
  3
Solid line
 72
    65
 73
     0
 40
0.0
  0
LTYPE
  5
22
102
{ACAD_XDICTIONARY
360
423637374231304D
102
}
100
AcDbSymbolTableRecord
100
AcDbLinetypeTableRecord
  2
DOT
 70
    64
  3
. . . . . . . . . . . . . . . . . . . . . . . . . . . . . . . . .
 72
    65
 73
     2
 40
0.25
 49
0.0
 74
     0
 49
-0.25
 74
     0
  0
LTYPE
  5
23
102
{ACAD_XDICTIONARY
360
423637374231304D
102
}
100
AcDbSymbolTableRecord
100
AcDbLinetypeTableRecord
  2
HIDDEN
 70
    64
  3
__ __ __ __ __ __ __ __ __ __ __ __ __ __ __ __ __ __ __ __ __ 
 72
    65
 73
     2
 40
0.375
 49
0.25
 74
     0
 49
-0.125
 74
     0
  0
LTYPE
  5
24
102
{ACAD_XDICTIONARY
360
423637374231304D
102
}
100
AcDbSymbolTableRecord
100
AcDbLinetypeTableRecord
  2
DASHED
 70
    64
  3
__ __ __ __ __ __ __ __ __ __ __ __ __ __ __ __ __ __ __ __ __
 72
    65
 73
     2
 40
0.75
 49
0.5
 74
     0
 49
-0.25
 74
     0
  0
LTYPE
  5
25
102
{ACAD_XDICTIONARY
360
423637374231304D
102
}
100
AcDbSymbolTableRecord
100
AcDbLinetypeTableRecord
  2
DASHDOT
 70
    64
  3
__ . __ . __ . __ . __ . __ . __ . __ . __ . __ . __ . __ . _
 72
    65
 73
     4
 40
1.0
 49
0.5
 74
     0
 49
-0.25
 74
     0
 49
0.0
 74
     0
 49
-0.25
 74
     0
  0
LTYPE
  5
26
102
{ACAD_XDICTIONARY
360
423637374231304D
102
}
100
AcDbSymbolTableRecord
100
AcDbLinetypeTableRecord
  2
DIVIDE
 70
    64
  3
____ . . ____ . . ____ . . ____ . . ____ . . ____ . . ____ . .
 72
    65
 73
     6
 40
1.25
 49
0.5
 74
     0
 49
-0.25
 74
     0
 49
0.0
 74
     0
 49
-0.25
 74
     0
 49
0.0
 74
     0
 49
-0.25
 74
     0
  0
LTYPE
  5
27
102
{ACAD_XDICTIONARY
360
423637374231304D
102
}
100
AcDbSymbolTableRecord
100
AcDbLinetypeTableRecord
  2
CENTER
 70
    64
  3
____ _ ____ _ ____ _ ____ _ ____ _ ____ _ ____ _ ____ _ ____ _
 72
    65
 73
     4
 40
2.0
 49
1.25
 74
     0
 49
-0.25
 74
     0
 49
0.25
 74
     0
 49
-0.25
 74
     0
  0
ENDTAB
  0
TABLE
  2
LAYER
  5
2
100
AcDbSymbolTable
 70
     4
  0
LAYER
  5
14
102
{ACAD_XDICTIONARY
360
5F205F5F5F5F205F
102
}
100
AcDbSymbolTableRecord
100
AcDbLayerTableRecord
  2
0
 70
     0
 62
     7
  6
CONTINUOUS
  0
LAYER
  5
1E
102
{ACAD_XDICTIONARY
360
5F205F5F5F5F205F
102
}
100
AcDbSymbolTableRecord
100
AcDbLayerTableRecord
  2
CONSTRUCTION_CLASS
 70
    64
 62
     7
  6
CONTINUOUS
  0
LAYER
  5
2A
102
{ACAD_XDICTIONARY
360
5F205F5F5F5F205F
102
}
100
AcDbSymbolTableRecord
100
AcDbLayerTableRecord
  2
61
 70
    64
 62
     7
  6
CONTINUOUS
  0
LAYER
  5
2D
102
{ACAD_XDICTIONARY
360
5F205F5F5F5F205F
102
}
100
AcDbSymbolTableRecord
100
AcDbLayerTableRecord
  2
1
 70
    64
 62
     7
  6
CONTINUOUS
  0
ENDTAB
  0
TABLE
  2
STYLE
  5
3
100
AcDbSymbolTable
 70
     4
  0
STYLE
  5
17
100
AcDbSymbolTableRecord
100
AcDbTextStyleTableRecord
  2
STANDARD
 70
     0
 40
0.0
 41
1.0
 50
0.0
 71
     0
 42
0.0
  3
txt
  4

  0
STYLE
  5
2B
100
AcDbSymbolTableRecord
100
AcDbTextStyleTableRecord
  2
MONOTXT
 70
     0
 40
0.2
 41
1.0
 50
0.0
 71
     0
 42
0.2
  3
MONOTXT
  4

  0
STYLE
  5
37
100
AcDbSymbolTableRecord
100
AcDbTextStyleTableRecord
  2
TXT
 70
     0
 40
0.2
 41
1.0
 50
0.0
 71
     0
 42
0.2
  3
TXT
  4

  0
STYLE
  5
539
100
AcDbSymbolTableRecord
100
AcDbTextStyleTableRecord
  2
ROMANT
 70
     0
 40
0.2
 41
1.0
 50
0.0
 71
     0
 42
0.2
  3
ROMANT
  4

  0
ENDTAB
  0
TABLE
  2
VIEW
  5
5
100
AcDbSymbolTable
 70
     0
  0
ENDTAB
  0
TABLE
  2
UCS
  5
6
100
AcDbSymbolTable
 70
     0
  0
ENDTAB
  0
TABLE
  2
APPID
  5
8
100
AcDbSymbolTable
 70
     1
  0
APPID
  5
16
100
AcDbSymbolTableRecord
100
AcDbRegAppTableRecord
  2
ACAD
 70
     0
  0
ENDTAB
  0
TABLE
  2
DIMSTYLE
  5
9
100
AcDbSymbolTable
 70
     1
  0
DIMSTYLE
105
18
100
AcDbSymbolTableRecord
100
AcDbDimStyleTableRecord
  2
STANDARD
 70
     0
  3

  4

  5

  6

  7

 40
1.0
 41
0.18
 42
0.0625
 43
0.38
 44
0.18
 45
0.0
 46
0.0
 47
0.0
 48
0.0
140
0.18
141
0.09
142
0.0
143
25.4
144
1.0
145
0.0
146
1.0
147
0.09
 71
     0
 72
     0
 73
     1
 74
     1
 75
     0
 76
     0
 77
     0
 78
     0
170
     0
171
     2
172
     0
173
     0
174
     0
175
     0
176
     0
177
     0
178
     0
270
     2
271
     4
272
     4
273
     2
274
     2
340
17
275
     0
280
     0
281
     0
282
     0
283
     1
284
     0
285
     0
286
     0
287
     0
288
     0
  0
ENDTAB
  0
TABLE
  2
BLOCK_RECORD
  5
1
100
AcDbSymbolTable
 70
     4
  0
BLOCK_RECORD
  5
A
100
AcDbSymbolTableRecord
100
AcDbBlockTableRecord
  2
*MODEL_SPACE
  0
BLOCK_RECORD
  5
B
100
AcDbSymbolTableRecord
100
AcDbBlockTableRecord
  2
*PAPER_SPACE
  0
BLOCK_RECORD
  5
44
102
{ACAD_XDICTIONARY
360
80014CFC31340CC3
102
}
100
AcDbSymbolTableRecord
100
AcDbBlockTableRecord
  2
BAND
  0
BLOCK_RECORD
  5
39F
102
{ACAD_XDICTIONARY
360
80014CFC31340CC3
102
}
100
AcDbSymbolTableRecord
100
AcDbBlockTableRecord
  2
LDR
  0
BLOCK_RECORD
  5
4FC
102
{ACAD_XDICTIONARY
360
80014CFC31340CC3
102
}
100
AcDbSymbolTableRecord
100
AcDbBlockTableRecord
  2
MTSD97
  0
BLOCK_RECORD
  5
54D
102
{ACAD_XDICTIONARY
360
80014CFC31340CC3
102
}
100
AcDbSymbolTableRecord
100
AcDbBlockTableRecord
  2
PT
  0
ENDTAB
  0
ENDSEC
  0
SECTION
  2
BLOCKS
  0
BLOCK
  5
D
100
AcDbEntity
  8
0
100
AcDbBlockBegin
  2
*MODEL_SPACE
 70
     0
 10
0.0
 20
0.0
 30
0.0
  3
*MODEL_SPACE
  1

  0
ENDBLK
  5
E
100
AcDbEntity
  8
0
100
AcDbBlockEnd
  0
BLOCK
  5
F
100
AcDbEntity
 67
     1
  8
0
100
AcDbBlockBegin
  2
*PAPER_SPACE
 70
     0
 10
0.0
 20
0.0
 30
0.0
  3
*PAPER_SPACE
  1

  0
ENDBLK
  5
10
100
AcDbEntity
 67
     1
  8
0
100
AcDbBlockEnd
  0
BLOCK
  5
45
100
AcDbEntity
  8
1
  6
CONTINUOUS
 62
     1
100
AcDbBlockBegin
  2
BAND
 70
     0
 10
0.0
 20
0.0
 30
0.0
  3
BAND
  1

  0
LINE
  5
46
100
AcDbEntity
  8
1
  6
CONTINUOUS
 62
     1
100
AcDbLine
 10
-0.117
 20
-0.0088
 30
0.0
 11
0.1171
 21
-0.0088
 31
0.0
  0
LINE
  5
47
100
AcDbEntity
  8
1
  6
CONTINUOUS
 62
     1
100
AcDbLine
 10
-0.117
 20
-0.0143
 30
0.0
 11
0.1171
 21
-0.0143
 31
0.0
  0
LINE
  5
48
100
AcDbEntity
  8
1
  6
CONTINUOUS
 62
     1
100
AcDbLine
 10
-0.117
 20
-0.0088
 30
0.0
 11
-0.117
 21
-0.0143
 31
0.0
  0
LINE
  5
49
100
AcDbEntity
  8
1
  6
CONTINUOUS
 62
     1
100
AcDbLine
 10
0.1171
 20
-0.0088
 30
0.0
 11
0.1171
 21
-0.0143
 31
0.0
  0
LINE
  5
4A
100
AcDbEntity
  8
1
  6
CONTINUOUS
 62
     1
100
AcDbLine
 10
-0.005
 20
-0.0073
 30
0.0
 11
0.0051
 21
-0.0073
 31
0.0
  0
LINE
  5
4B
100
AcDbEntity
  8
1
  6
CONTINUOUS
 62
     1
100
AcDbLine
 10
-0.0029
 20
-0.0047
 30
0.0
 11
0.0031
 21
-0.0047
 31
0.0
  0
LINE
  5
4C
100
AcDbEntity
  8
1
  6
CONTINUOUS
 62
     1
100
AcDbLine
 10
-0.0029
 20
-0.0047
 30
0.0
 11
-0.0029
 21
-0.0073
 31
0.0
  0
LINE
  5
4D
100
AcDbEntity
  8
1
  6
CONTINUOUS
 62
     1
100
AcDbLine
 10
0.0031
 20
-0.0047
 30
0.0
 11
0.0031
 21
-0.0073
 31
0.0
  0
LINE
  5
4E
100
AcDbEntity
  8
1
  6
CONTINUOUS
 62
     1
100
AcDbLine
 10
-0.005
 20
-0.0073
 30
0.0
 11
-0.005
 21
-0.0088
 31
0.0
  0
LINE
  5
4F
100
AcDbEntity
  8
1
  6
CONTINUOUS
 62
     1
100
AcDbLine
 10
0.0051
 20
-0.0073
 30
0.0
 11
0.0051
 21
-0.0088
 31
0.0
  0
LINE
  5
50
100
AcDbEntity
  8
1
  6
CONTINUOUS
 62
     1
100
AcDbLine
 10
-0.0029
 20
-0.0073
 30
0.0
 11
-0.0029
 21
-0.0246
 31
0.0
  0
LINE
  5
51
100
AcDbEntity
  8
1
  6
CONTINUOUS
 62
     1
100
AcDbLine
 10
0.0031
 20
-0.0073
 30
0.0
 11
0.0031
 21
-0.0246
 31
0.0
  0
LINE
  5
52
100
AcDbEntity
  8
1
  6
CONTINUOUS
 62
     1
100
AcDbLine
 10
-0.0029
 20
-0.0246
 30
0.0
 11
0.0031
 21
-0.0246
 31
0.0
  0
LINE
  5
53
100
AcDbEntity
  8
1
  6
CONTINUOUS
 62
     1
100
AcDbLine
 10
-0.007
 20
-0.0187
 30
0.0
 11
0.0071
 21
-0.0187
 31
0.0
  0
LINE
  5
54
100
AcDbEntity
  8
1
  6
CONTINUOUS
 62
     1
100
AcDbLine
 10
-0.0181
 20
-0.0143
 30
0.0
 11
-0.0181
 21
-0.0297
 31
0.0
  0
LINE
  5
55
100
AcDbEntity
  8
1
  6
CONTINUOUS
 62
     1
100
AcDbLine
 10
0.0182
 20
-0.0143
 30
0.0
 11
0.0182
 21
-0.0297
 31
0.0
  0
LINE
  5
56
100
AcDbEntity
  8
1
  6
CONTINUOUS
 62
     1
100
AcDbLine
 10
-0.011
 20
-0.0217
 30
0.0
 11
-0.011
 21
-0.0323
 31
0.0
  0
LINE
  5
57
100
AcDbEntity
  8
1
  6
CONTINUOUS
 62
     1
100
AcDbLine
 10
0.0112
 20
-0.0217
 30
0.0
 11
0.0112
 21
-0.033
 31
0.0
  0
CIRCLE
  5
58
100
AcDbEntity
  8
1
  6
CONTINUOUS
 62
     1
100
AcDbCircle
 10
-0.002467
 20
-0.121254
 30
0.0
 40
0.089347
210
0.0
220
0.0
230
1.0
  0
ARC
  5
59
100
AcDbEntity
  8
1
  6
CONTINUOUS
 62
     1
100
AcDbCircle
 10
-0.007044
 20
-0.022769
 30
0.0
 40
0.004101
210
0.0
220
0.0
230
1.0
100
AcDbArc
 50
88.957119
 51
164.782678
  0
ARC
  5
5A
100
AcDbEntity
  8
1
  6
CONTINUOUS
 62
     1
100
AcDbCircle
 10
0.007218
 20
-0.022769
 30
0.0
 40
0.004101
210
0.0
220
0.0
230
1.0
100
AcDbArc
 50
15.217322
 51
91.042881
  0
LINE
  5
5B
100
AcDbEntity
  8
1
  6
CONTINUOUS
 62
     1
100
AcDbLine
 10
-0.011
 20
-0.0277
 30
0.0
 11
0.0112
 21
-0.0277
 31
0.0
  0
LINE
  5
5C
100
AcDbEntity
  8
1
  6
CONTINUOUS
 62
     1
100
AcDbLine
 10
-0.0211
 20
-0.0313
 30
0.0
 11
-0.0211
 21
-0.0339
 31
0.0
  0
LINE
  5
5D
100
AcDbEntity
  8
1
  6
CONTINUOUS
 62
     1
100
AcDbLine
 10
0.0213
 20
-0.0313
 30
0.0
 11
0.0213
 21
-0.0351
 31
0.0
  0
LINE
  5
5E
100
AcDbEntity
  8
1
  6
CONTINUOUS
 62
     1
100
AcDbLine
 10
-0.0211
 20
-0.0313
 30
0.0
 11
-0.0181
 21
-0.0297
 31
0.0
  0
LINE
  5
5F
100
AcDbEntity
  8
1
  6
CONTINUOUS
 62
     1
100
AcDbLine
 10
0.0213
 20
-0.0313
 30
0.0
 11
0.0182
 21
-0.0297
 31
0.0
  0
LINE
  5
60
100
AcDbEntity
  8
1
  6
CONTINUOUS
 62
     1
100
AcDbLine
 10
-0.0354
 20
-0.0382
 30
0.0
 11
-0.0181
 21
-0.0289
 31
0.0
  0
LINE
  5
61
100
AcDbEntity
  8
1
  6
CONTINUOUS
 62
     1
100
AcDbLine
 10
0.0386
 20
-0.0419
 30
0.0
 11
0.0182
 21
-0.0289
 31
0.0
  0
LINE
  5
62
100
AcDbEntity
  8
1
  6
CONTINUOUS
 62
     1
100
AcDbLine
 10
0.0855
 20
-0.1058
 30
0.0
 11
0.0917
 21
-0.1058
 31
0.0
  0
LINE
  5
63
100
AcDbEntity
  8
1
  6
CONTINUOUS
 62
     1
100
AcDbLine
 10
0.0869
 20
-0.1191
 30
0.0
 11
0.0917
 21
-0.1191
 31
0.0
  0
LINE
  5
64
100
AcDbEntity
  8
1
  6
CONTINUOUS
 62
     1
100
AcDbLine
 10
0.0917
 20
-0.1058
 30
0.0
 11
0.0917
 21
-0.1191
 31
0.0
  0
LINE
  5
65
100
AcDbEntity
  8
1
  6
CONTINUOUS
 62
     1
100
AcDbLine
 10
0.0937
 20
-0.1104
 30
0.0
 11
0.0917
 21
-0.1104
 31
0.0
  0
LINE
  5
66
100
AcDbEntity
  8
1
  6
CONTINUOUS
 62
     1
100
AcDbLine
 10
0.0937
 20
-0.1145
 30
0.0
 11
0.0917
 21
-0.1145
 31
0.0
  0
LINE
  5
67
100
AcDbEntity
  8
1
  6
CONTINUOUS
 62
     1
100
AcDbLine
 10
0.0937
 20
-0.1104
 30
0.0
 11
0.0937
 21
-0.1145
 31
0.0
  0
ARC
  5
68
100
AcDbEntity
  8
1
  6
CONTINUOUS
 62
     1
100
AcDbCircle
 10
0.168211
 20
-0.141084
 30
0.0
 40
0.079591
210
0.0
220
0.0
230
1.0
100
AcDbArc
 50
163.97175
 51
189.254767
  0
ARC
  5
69
100
AcDbEntity
  8
1
  6
CONTINUOUS
 62
     1
100
AcDbCircle
 10
0.023828
 20
-0.154247
 30
0.0
 40
0.076442
210
0.0
220
0.0
230
1.0
100
AcDbArc
 50
1.040683
 51
27.367081
  0
ARC
  5
6A
100
AcDbEntity
  8
1
  6
CONTINUOUS
 62
     1
100
AcDbCircle
 10
0.095018
 20
-0.154008
 30
0.0
 40
0.005363
210
0.0
220
0.0
230
1.0
100
AcDbArc
 50
178.677017
 51
12.366456
  0
ENDBLK
  5
6B
100
AcDbEntity
  8
1
  6
CONTINUOUS
 62
     1
100
AcDbBlockEnd
  0
BLOCK
  5
3A0
100
AcDbEntity
  8
1
  6
CONTINUOUS
 62
     1
100
AcDbBlockBegin
  2
LDR
 70
     0
 10
0.0
 20
0.0
 30
0.0
  3
LNR
  1

  0
ELLIPSE
  5
3A1
100
AcDbEntity
  8
1
  6
CONTINUOUS
 62
     1
100
AcDbEllipse
 10
-0.005456
 20
-0.001382
 30
0.0
 11
0.0089285004237569
 21
0.0007807500095954
 31
0.0
210
0.0
220
0.0
230
1.0
 40
0.122415
 41
0.8963533496766982
 42
3.1415926535897931
  0
ELLIPSE
  5
3A2
100
AcDbEntity
  8
1
  6
CONTINUOUS
 62
     1
100
AcDbEllipse
 10
-0.005602
 20
0.001058
 30
0.0
 11
0.0087822505676776
 21
-0.0008782502010357
 31
0.0
210
0.0
220
0.0
230
1.0
 40
0.07063
 41
3.1407147529760402
 42
5.4181099545465106
  0
ENDBLK
  5
3A3
100
AcDbEntity
  8
1
  6
CONTINUOUS
 62
     1
100
AcDbBlockEnd
  0
BLOCK
  5
4FD
100
AcDbEntity
  8
1
  6
CONTINUOUS
 62
     2
100
AcDbBlockBegin
  2
MTSD97
 70
     0
 10
0.0
 20
0.0
 30
0.0
  3
MTSD97
  1

  0
LINE
  5
4FE
100
AcDbEntity
  8
61
  6
CONTINUOUS
 62
     2
100
AcDbLine
 10
0.8456
 20
-0.0091
 30
0.0
 11
0.7085
 21
-0.0091
 31
0.0
  0
LINE
  5
4FF
100
AcDbEntity
  8
61
  6
CONTINUOUS
 62
     2
100
AcDbLine
 10
0.7085
 20
-0.0091
 30
0.0
 11
0.7085
 21
-0.0345
 31
0.0
  0
LINE
  5
500
100
AcDbEntity
  8
61
  6
CONTINUOUS
 62
     2
100
AcDbLine
 10
0.8456
 20
-0.0091
 30
0.0
 11
0.8456
 21
-0.0345
 31
0.0
  0
LINE
  5
501
100
AcDbEntity
  8
61
  6
CONTINUOUS
 62
     2
100
AcDbLine
 10
0.8456
 20
-0.0345
 30
0.0
 11
0.7085
 21
-0.0345
 31
0.0
  0
LINE
  5
502
100
AcDbEntity
  8
61
  6
CONTINUOUS
 62
     2
100
AcDbLine
 10
0.8456
 20
-0.0218
 30
0.0
 11
0.7085
 21
-0.0218
 31
0.0
  0
LINE
  5
503
100
AcDbEntity
  8
61
  6
CONTINUOUS
 62
     2
100
AcDbLine
 10
0.7212
 20
-0.0091
 30
0.0
 11
0.7212
 21
-0.0345
 31
0.0
  0
LINE
  5
504
100
AcDbEntity
  8
61
  6
CONTINUOUS
 62
     2
100
AcDbLine
 10
0.7339
 20
-0.0091
 30
0.0
 11
0.7339
 21
-0.0345
 31
0.0
  0
LINE
  5
505
100
AcDbEntity
  8
61
  6
CONTINUOUS
 62
     2
100
AcDbLine
 10
0.7513
 20
-0.0091
 30
0.0
 11
0.7513
 21
-0.0345
 31
0.0
  0
LINE
  5
506
100
AcDbEntity
  8
61
  6
CONTINUOUS
 62
     2
100
AcDbLine
 10
0.8329
 20
-0.0091
 30
0.0
 11
0.8329
 21
-0.0345
 31
0.0
  0
LINE
  5
507
100
AcDbEntity
  8
61
  6
CONTINUOUS
 62
     2
100
AcDbLine
 10
0.8202
 20
-0.0091
 30
0.0
 11
0.8202
 21
-0.0345
 31
0.0
  0
LINE
  5
508
100
AcDbEntity
  8
61
  6
CONTINUOUS
 62
     2
100
AcDbLine
 10
0.7923
 20
-0.0091
 30
0.0
 11
0.7923
 21
-0.0345
 31
0.0
  0
LINE
  5
509
100
AcDbEntity
  8
61
  6
CONTINUOUS
 62
     2
100
AcDbLine
 10
0.7796
 20
-0.0091
 30
0.0
 11
0.7796
 21
-0.0345
 31
0.0
  0
TEXT
  5
50A
100
AcDbEntity
  8
61
  6
CONTINUOUS
 62
     2
100
AcDbText
 10
0.7111
 20
-0.013
 30
0.0
 40
0.001525
  1
PUBLIC
 50
0.033272
 41
1.001968
  7
MONOTXT
210
0.0
220
0.0
230
1.0
100
AcDbText
  0
TEXT
  5
50B
100
AcDbEntity
  8
61
  6
CONTINUOUS
 62
     2
100
AcDbText
 10
0.7112
 20
-0.0162
 30
0.0
 40
0.001525
  1
ROADS
 50
0.124322
 41
0.996852
  7
MONOTXT
210
0.0
220
0.0
230
1.0
100
AcDbText
  0
TEXT
  5
50C
100
AcDbEntity
  8
61
  6
CONTINUOUS
 62
     2
100
AcDbText
 10
0.7127
 20
-0.0193
 30
0.0
 40
0.001525
  1
DIV.
 50
359.931522
 41
0.994884
  7
MONOTXT
210
0.0
220
0.0
230
1.0
100
AcDbText
  0
TEXT
  5
50D
100
AcDbEntity
  8
61
  6
CONTINUOUS
 62
     2
100
AcDbText
 10
0.724
 20
-0.0129
 30
0.0
 40
0.001525
  1
STATE
 50
0.058969
 41
0.998032
  7
MONOTXT
210
0.0
220
0.0
230
1.0
100
AcDbText
  0
TEXT
  5
50E
100
AcDbEntity
  8
61
  6
CONTINUOUS
 62
     2
100
AcDbText
 10
0.7251
 20
-0.0161
 30
0.0
 40
0.001525
  1
DIST.
 50
0.055889
 41
0.999606
  7
MONOTXT
210
0.0
220
0.0
230
1.0
100
AcDbText
  0
TEXT
  5
50F
100
AcDbEntity
  8
61
  6
CONTINUOUS
 62
     2
100
AcDbText
 10
0.7258
 20
-0.0193
 30
0.0
 40
0.001525
  1
NO.
 50
359.852072
 41
0.997639
  7
MONOTXT
210
0.0
220
0.0
230
1.0
100
AcDbText
  0
TEXT
  5
510
100
AcDbEntity
  8
61
  6
CONTINUOUS
 62
     2
100
AcDbText
 10
0.7392
 20
-0.013
 30
0.0
 40
0.001525
  1
STATE
 50
0.058969
 41
0.998032
  7
MONOTXT
210
0.0
220
0.0
230
1.0
100
AcDbText
  0
TEXT
  5
511
100
AcDbEntity
  8
61
  6
CONTINUOUS
 62
     2
100
AcDbText
 10
0.7378
 20
-0.016
 30
0.0
 40
0.001525
  1
PROJECT
 50
359.908431
  7
MONOTXT
210
0.0
220
0.0
230
1.0
100
AcDbText
  0
TEXT
  5
512
100
AcDbEntity
  8
61
  6
CONTINUOUS
 62
     2
100
AcDbText
 10
0.7413
 20
-0.0193
 30
0.0
 40
0.001525
  1
NO.
 50
0.225453
 41
0.993703
  7
MONOTXT
210
0.0
220
0.0
230
1.0
100
AcDbText
  0
TEXT
  5
513
100
AcDbEntity
  8
61
  6
CONTINUOUS
 62
     2
100
AcDbText
 10
0.7612
 20
-0.0144
 30
0.0
 40
0.001523
  1
FEDERAL
 50
0.006714
 41
0.998425
  7
MONOTXT
210
0.0
220
0.0
230
1.0
100
AcDbText
  0
TEXT
  5
514
100
AcDbEntity
  8
61
  6
CONTINUOUS
 62
     2
100
AcDbText
 10
0.7592
 20
-0.0178
 30
0.0
 40
0.001525
  1
PROJECT NO.
 50
359.921531
 41
1.000787
  7
MONOTXT
210
0.0
220
0.0
230
1.0
100
AcDbText
  0
TEXT
  5
515
100
AcDbEntity
  8
61
  6
CONTINUOUS
 62
     2
100
AcDbText
 10
0.7824
 20
-0.0145
 30
0.0
 40
0.001525
  1
FISCAL
 50
359.941939
 41
0.998819
  7
MONOTXT
210
0.0
220
0.0
230
1.0
100
AcDbText
  0
TEXT
  5
516
100
AcDbEntity
  8
61
  6
CONTINUOUS
 62
     2
100
AcDbText
 10
0.7831
 20
-0.0181
 30
0.0
 40
0.001523
  1
YEAR
 50
0.104606
 41
0.993304
  7
MONOTXT
210
0.0
220
0.0
230
1.0
100
AcDbText
  0
TEXT
  5
517
100
AcDbEntity
  8
61
  6
CONTINUOUS
 62
     2
100
AcDbText
 10
0.801
 20
-0.0164
 30
0.0
 40
0.001523
  1
COUNTY
 50
0.068575
 41
1.001969
  7
MONOTXT
210
0.0
220
0.0
230
1.0
100
AcDbText
  0
TEXT
  5
518
100
AcDbEntity
  8
61
  6
CONTINUOUS
 62
     2
100
AcDbText
 10
0.8234
 20
-0.0143
 30
0.0
 40
0.001525
  1
SHEET
 50
0.058969
 41
0.997639
  7
MONOTXT
210
0.0
220
0.0
230
1.0
100
AcDbText
  0
TEXT
  5
519
100
AcDbEntity
  8
61
  6
CONTINUOUS
 62
     2
100
AcDbText
 10
0.8252
 20
-0.0178
 30
0.0
 40
0.001525
  1
NO.
 50
359.852072
 41
0.997639
  7
MONOTXT
210
0.0
220
0.0
230
1.0
100
AcDbText
  0
TEXT
  5
51A
100
AcDbEntity
  8
61
  6
CONTINUOUS
 62
     2
100
AcDbText
 10
0.8358
 20
-0.0145
 30
0.0
 40
0.001525
  1
TOTAL
 50
359.926039
 41
0.998426
  7
MONOTXT
210
0.0
220
0.0
230
1.0
100
AcDbText
  0
TEXT
  5
51B
100
AcDbEntity
  8
61
  6
CONTINUOUS
 62
     2
100
AcDbText
 10
0.8352
 20
-0.0179
 30
0.0
 40
0.001523
  1
SHEETS
 50
359.958675
  7
MONOTXT
210
0.0
220
0.0
230
1.0
100
AcDbText
  0
ATTDEF
  5
51C
100
AcDbEntity
  8
61
  6
CONTINUOUS
 62
     2
100
AcDbText
 10
0.0
 20
0.0
 30
0.0
 40
0.003049
  1
  
 50
0.029406
 41
0.996655
  7
MONOTXT
210
0.0
220
0.0
230
1.0
100
AcDbAttributeDefinition
  3

  2
TAG00
 70
     0
  0
ATTDEF
  5
51D
100
AcDbEntity
  8
61
  6
CONTINUOUS
 62
     2
100
AcDbText
 10
0.0
 20
0.0
 30
0.0
 40
0.003049
  1
   
 50
0.011508
 41
1.000984
  7
MONOTXT
210
0.0
220
0.0
230
1.0
100
AcDbAttributeDefinition
  3

  2
TAG10
 70
     0
  0
ATTDEF
  5
51E
100
AcDbEntity
  8
61
  6
CONTINUOUS
 62
     2
100
AcDbText
 10
0.0
 20
0.0
 30
0.0
 40
0.003049
  1
   
 50
359.922128
 41
1.00059
  7
MONOTXT
210
0.0
220
0.0
230
1.0
100
AcDbAttributeDefinition
  3

  2
TAG20
 70
     0
  0
ATTDEF
  5
51F
100
AcDbEntity
  8
61
  6
CONTINUOUS
 62
     2
100
AcDbText
 10
0.0
 20
0.0
 30
0.0
 40
0.002548
  1
    
 50
0.054383
 41
0.993643
  7
MONOTXT
210
0.0
220
0.0
230
1.0
100
AcDbAttributeDefinition
  3

  2
TAG30
 70
     0
  0
ATTDEF
  5
520
100
AcDbEntity
  8
61
  6
CONTINUOUS
 62
     2
100
AcDbText
 10
0.0
 20
0.0
 30
0.0
 40
0.002527
  1
       
 50
0.064678
 41
1.00095
  7
MONOTXT
210
0.0
220
0.0
230
1.0
100
AcDbAttributeDefinition
  3

  2
TAG40
 70
     0
  0
ATTDEF
  5
521
100
AcDbEntity
  8
61
  6
CONTINUOUS
 62
     2
100
AcDbText
 10
0.0
 20
0.0
 30
0.0
 40
0.002527
  1
      
 50
359.958053
 41
1.000237
  7
MONOTXT
210
0.0
220
0.0
230
1.0
100
AcDbAttributeDefinition
  3

  2
TAG50
 70
     0
  0
ATTDEF
  5
522
100
AcDbEntity
  8
61
  6
CONTINUOUS
 62
     2
100
AcDbText
 10
0.0
 20
0.0
 30
0.0
 40
0.003049
  1
           
 50
0.011508
 41
0.998819
  7
MONOTXT
210
0.0
220
0.0
230
1.0
100
AcDbAttributeDefinition
  3

  2
TAG60
 70
     0
  0
ATTDEF
  5
523
100
AcDbEntity
  8
61
  6
CONTINUOUS
 62
     2
100
AcDbText
 10
0.0
 20
0.0
 30
0.0
 40
0.003049
  1
           
 50
0.011508
 41
0.999606
  7
MONOTXT
210
0.0
220
0.0
230
1.0
100
AcDbAttributeDefinition
  3

  2
TAG70
 70
     0
  0
ATTDEF
  5
524
100
AcDbEntity
  8
61
  6
CONTINUOUS
 62
     2
100
AcDbText
 10
0.0
 20
0.0
 30
0.0
 40
0.002548
  1
          
 50
0.009222
 41
0.992701
  7
MONOTXT
210
0.0
220
0.0
230
1.0
100
AcDbAttributeDefinition
  3

  2
TAG80
 70
     0
  0
LINE
  5
525
100
AcDbEntity
  8
1
  6
CONTINUOUS
 62
     2
100
AcDbLine
 10
0.6307
 20
-0.5322
 30
0.0
 11
0.6307
 21
-0.4159
 31
0.0
  0
LINE
  5
526
100
AcDbEntity
  8
1
  6
CONTINUOUS
 62
     2
100
AcDbLine
 10
0.6307
 20
-0.4159
 30
0.0
 11
0.8487
 21
-0.4159
 31
0.0
  0
LINE
  5
527
100
AcDbEntity
  8
1
  6
CONTINUOUS
 62
     2
100
AcDbLine
 10
0.6752
 20
-0.5322
 30
0.0
 11
0.6752
 21
-0.4751
 31
0.0
  0
LINE
  5
528
100
AcDbEntity
  8
1
  6
CONTINUOUS
 62
     2
100
AcDbLine
 10
0.6752
 20
-0.4751
 30
0.0
 11
0.6307
 21
-0.4751
 31
0.0
  0
LINE
  5
529
100
AcDbEntity
  8
1
  6
CONTINUOUS
 62
     2
100
AcDbLine
 10
0.6752
 20
-0.4808
 30
0.0
 11
0.6307
 21
-0.4808
 31
0.0
  0
LINE
  5
52A
100
AcDbEntity
  8
1
  6
CONTINUOUS
 62
     2
100
AcDbLine
 10
0.6752
 20
-0.4865
 30
0.0
 11
0.6307
 21
-0.4865
 31
0.0
  0
LINE
  5
52B
100
AcDbEntity
  8
1
  6
CONTINUOUS
 62
     2
100
AcDbLine
 10
0.6752
 20
-0.4923
 30
0.0
 11
0.6307
 21
-0.4923
 31
0.0
  0
LINE
  5
52C
100
AcDbEntity
  8
1
  6
CONTINUOUS
 62
     2
100
AcDbLine
 10
0.6752
 20
-0.498
 30
0.0
 11
0.6307
 21
-0.498
 31
0.0
  0
LINE
  5
52D
100
AcDbEntity
  8
1
  6
CONTINUOUS
 62
     2
100
AcDbLine
 10
0.6752
 20
-0.5037
 30
0.0
 11
0.6307
 21
-0.5037
 31
0.0
  0
LINE
  5
52E
100
AcDbEntity
  8
1
  6
CONTINUOUS
 62
     2
100
AcDbLine
 10
0.6752
 20
-0.5094
 30
0.0
 11
0.6307
 21
-0.5094
 31
0.0
  0
LINE
  5
52F
100
AcDbEntity
  8
1
  6
CONTINUOUS
 62
     2
100
AcDbLine
 10
0.6752
 20
-0.5151
 30
0.0
 11
0.6307
 21
-0.5151
 31
0.0
  0
LINE
  5
530
100
AcDbEntity
  8
1
  6
CONTINUOUS
 62
     2
100
AcDbLine
 10
0.6752
 20
-0.5208
 30
0.0
 11
0.6307
 21
-0.5208
 31
0.0
  0
LINE
  5
531
100
AcDbEntity
  8
1
  6
CONTINUOUS
 62
     2
100
AcDbLine
 10
0.6752
 20
-0.5265
 30
0.0
 11
0.6307
 21
-0.5265
 31
0.0
  0
TEXT
  5
532
100
AcDbEntity
  8
1
  6
CONTINUOUS
 62
     2
100
AcDbText
 10
0.6438
 20
-0.4789
 30
0.0
 40
0.002537
  1
REVISIONS
  7
MONOTXT
210
0.0
220
0.0
230
1.0
100
AcDbText
  0
TEXT
  5
533
100
AcDbEntity
  8
1
  6
CONTINUOUS
 62
     2
100
AcDbText
 10
0.6332
 20
-0.4739
 30
0.0
 40
0.002537
  1
PREPARED: 
  7
MONOTXT
210
0.0
220
0.0
230
1.0
100
AcDbText
  0
ATTDEF
  5
534
100
AcDbEntity
  8
1
  6
CONTINUOUS
 62
     2
100
AcDbText
 10
0.0
 20
0.0
 30
0.0
 40
0.002537
  1
05
  7
MONOTXT
210
0.0
220
0.0
230
1.0
100
AcDbAttributeDefinition
  3

  2
TAG90
 70
     0
  0
TEXT
  5
535
100
AcDbEntity
  8
1
  6
CONTINUOUS
 62
     2
100
AcDbText
 10
0.6591
 20
-0.4739
 30
0.0
 40
0.002537
  1
/
  7
MONOTXT
210
0.0
220
0.0
230
1.0
100
AcDbText
  0
ATTDEF
  5
536
100
AcDbEntity
  8
1
  6
CONTINUOUS
 62
     2
100
AcDbText
 10
0.0
 20
0.0
 30
0.0
 40
0.002537
  1
00
  7
MONOTXT
210
0.0
220
0.0
230
1.0
100
AcDbAttributeDefinition
  3

  2
TAG91
 70
     0
  0
TEXT
  5
537
100
AcDbEntity
  8
1
  6
CONTINUOUS
 62
     2
100
AcDbText
 10
0.6646
 20
-0.4739
 30
0.0
 40
0.002537
  1
/
  7
MONOTXT
210
0.0
220
0.0
230
1.0
100
AcDbText
  0
ATTDEF
  5
538
100
AcDbEntity
  8
1
  6
CONTINUOUS
 62
     2
100
AcDbText
 10
0.0
 20
0.0
 30
0.0
 40
0.002537
  1
67
  7
MONOTXT
210
0.0
220
0.0
230
1.0
100
AcDbAttributeDefinition
  3

  2
TAG92
 70
     0
  0
TEXT
  5
53A
100
AcDbEntity
  8
1
  6
CONTINUOUS
 62
     2
100
AcDbText
 10
0.6721
 20
-0.4268
 30
0.0
 40
0.006089
  1
WEST VIRGINIA DIVISION OF HIGHWAYS
  7
ROMANT
 72
     1
 11
0.7406
 21
-0.4207
 31
0.0
210
0.0
220
0.0
230
1.0
100
AcDbText
 73
     3
  0
TEXT
  5
53B
100
AcDbEntity
  8
1
  6
CONTINUOUS
 62
     2
100
AcDbText
 10
0.6858
 20
-0.441
 30
0.0
 40
0.008881
  1
STANDARD DETAIL
  7
TXT
 72
     1
 11
0.7422
 21
-0.4321
 31
0.0
210
0.0
220
0.0
230
1.0
100
AcDbText
 73
     3
  0
TEXT
  5
53C
100
AcDbEntity
  8
1
  6
CONTINUOUS
 62
     2
100
AcDbText
 10
0.68
 20
-0.527
 30
0.0
 40
0.008881
  1
STANDARD SHEET 
  7
TXT
210
0.0
220
0.0
230
1.0
100
AcDbText
  0
ATTDEF
  5
53D
100
AcDbEntity
  8
1
  6
CONTINUOUS
 62
     2
100
AcDbText
 10
0.0
 20
0.0
 30
0.0
 40
0.008881
  1
TE9-1 
  7
TXT
210
0.0
220
0.0
230
1.0
100
AcDbAttributeDefinition
  3

  2
TAG100
 70
     0
  0
ATTDEF
  5
53E
100
AcDbEntity
  8
1
  6
CONTINUOUS
 62
     2
100
AcDbText
 10
0.0
 20
0.0
 30
0.0
 40
0.00254
  1
        
  7
MONOTXT
 72
     1
 11
0.0
 21
0.0
 31
0.0
210
0.0
220
0.0
230
1.0
100
AcDbAttributeDefinition
  3

  2
TAG110
 70
     0
 74
     3
  0
ATTDEF
  5
53F
100
AcDbEntity
  8
1
  6
CONTINUOUS
 62
     2
100
AcDbText
 10
0.0
 20
0.0
 30
0.0
 40
0.00254
  1
        
  7
MONOTXT
 72
     1
 11
0.0
 21
0.0
 31
0.0
210
0.0
220
0.0
230
1.0
100
AcDbAttributeDefinition
  3

  2
TAG120
 70
     0
 74
     3
  0
ATTDEF
  5
540
100
AcDbEntity
  8
1
  6
CONTINUOUS
 62
     2
100
AcDbText
 10
0.0
 20
0.0
 30
0.0
 40
0.00254
  1
        
  7
MONOTXT
 72
     1
 11
0.0
 21
0.0
 31
0.0
210
0.0
220
0.0
230
1.0
100
AcDbAttributeDefinition
  3

  2
TAG130
 70
     0
 74
     3
  0
ATTDEF
  5
541
100
AcDbEntity
  8
1
  6
CONTINUOUS
 62
     2
100
AcDbText
 10
0.0
 20
0.0
 30
0.0
 40
0.00254
  1
        
  7
MONOTXT
 72
     1
 11
0.0
 21
0.0
 31
0.0
210
0.0
220
0.0
230
1.0
100
AcDbAttributeDefinition
  3

  2
TAG140
 70
     0
 74
     3
  0
ATTDEF
  5
542
100
AcDbEntity
  8
1
  6
CONTINUOUS
 62
     2
100
AcDbText
 10
0.0
 20
0.0
 30
0.0
 40
0.00254
  1
        
  7
MONOTXT
 72
     1
 11
0.0
 21
0.0
 31
0.0
210
0.0
220
0.0
230
1.0
100
AcDbAttributeDefinition
  3

  2
TAG150
 70
     0
 74
     3
  0
ATTDEF
  5
543
100
AcDbEntity
  8
1
  6
CONTINUOUS
 62
     2
100
AcDbText
 10
0.0
 20
0.0
 30
0.0
 40
0.00254
  1
        
  7
MONOTXT
 72
     1
 11
0.0
 21
0.0
 31
0.0
210
0.0
220
0.0
230
1.0
100
AcDbAttributeDefinition
  3

  2
TAG160
 70
     0
 74
     3
  0
ATTDEF
  5
544
100
AcDbEntity
  8
1
  6
CONTINUOUS
 62
     2
100
AcDbText
 10
0.0
 20
0.0
 30
0.0
 40
0.00254
  1
        
  7
MONOTXT
 72
     1
 11
0.0
 21
0.0
 31
0.0
210
0.0
220
0.0
230
1.0
100
AcDbAttributeDefinition
  3

  2
TAG170
 70
     0
 74
     3
  0
ATTDEF
  5
545
100
AcDbEntity
  8
1
  6
CONTINUOUS
 62
     2
100
AcDbText
 10
0.0
 20
0.0
 30
0.0
 40
0.00254
  1
        
  7
MONOTXT
 72
     1
 11
0.0
 21
0.0
 31
0.0
210
0.0
220
0.0
230
1.0
100
AcDbAttributeDefinition
  3

  2
TAG180
 70
     0
 74
     3
  0
ATTDEF
  5
546
100
AcDbEntity
  8
1
  6
CONTINUOUS
 62
     2
100
AcDbText
 10
0.0
 20
0.0
 30
0.0
 40
0.00254
  1
        
  7
MONOTXT
 72
     1
 11
0.0
 21
0.0
 31
0.0
210
0.0
220
0.0
230
1.0
100
AcDbAttributeDefinition
  3

  2
TAG190
 70
     0
 74
     3
  0
LINE
  5
547
100
AcDbEntity
  8
1
  6
CONTINUOUS
 62
     2
100
AcDbLine
 10
0.8487
 20
-0.5322
 30
0.0
 11
0.8487
 21
-0.4159
 31
0.0
  0
LINE
  5
548
100
AcDbEntity
  8
1
  6
CONTINUOUS
 62
     7
100
AcDbLine
 10
0.8487
 20
-0.0061
 30
0.0
 11
0.057
 21
-0.0062
 31
0.0
  0
LINE
  5
549
100
AcDbEntity
  8
1
  6
CONTINUOUS
 62
     7
100
AcDbLine
 10
0.057
 20
-0.0062
 30
0.0
 11
0.0571
 21
-0.5322
 31
0.0
  0
LINE
  5
54A
100
AcDbEntity
  8
1
  6
CONTINUOUS
 62
     7
100
AcDbLine
 10
0.8487
 20
-0.5322
 30
0.0
 11
0.8487
 21
-0.0061
 31
0.0
  0
LINE
  5
54B
100
AcDbEntity
  8
61
  6
CONTINUOUS
 62
     2
100
AcDbLine
 10
0.8487
 20
-0.5322
 30
0.0
 11
0.696
 21
-0.5322
 31
0.0
  0
ATTDEF
  5
54C
100
AcDbEntity
  8
61
  6
CONTINUOUS
 62
     2
100
AcDbText
 10
0.0
 20
0.0
 30
0.0
 40
0.003055
  1
     
 41
1.001375
  7
MONOTXT
210
0.0
220
0.0
230
1.0
100
AcDbAttributeDefinition
  3

  2
TAG200
 70
     0
  0
INSERT
  5
551
100
AcDbEntity
  8
1
  6
CONTINUOUS
 62
     1
100
AcDbBlockReference
  2
PT
 10
0.0
 20
0.0
 30
0.0
 41
0.269386
 42
0.269386
210
0.0
220
0.0
230
1.0
  0
INSERT
  5
552
100
AcDbEntity
  8
1
  6
CONTINUOUS
 62
     1
100
AcDbBlockReference
  2
PT
 10
0.855
 20
-0.5435
 30
0.0
 41
0.269386
 42
0.269386
210
0.0
220
0.0
230
1.0
  0
LINE
  5
553
100
AcDbEntity
  8
1
  6
CONTINUOUS
 62
     7
100
AcDbLine
 10
0.8487
 20
-0.5322
 30
0.0
 11
0.0571
 21
-0.5322
 31
0.0
  0
LINE
  5
554
100
AcDbEntity
  8
1
  6
CONTINUOUS
 62
     2
100
AcDbLine
 10
0.8487
 20
-0.5322
 30
0.0
 11
0.8487
 21
-0.0061
 31
0.0
  0
TEXT
  5
555
100
AcDbEntity
  8
CONSTRUCTION_CLASS
  6
CONTINUOUS
 62
     3
100
AcDbText
 10
0.7116
 20
-0.0299
 30
0.0
 40
0.003048
  1
WV
  7
MONOTXT
210
0.0
220
0.0
230
1.0
100
AcDbText
  0
TEXT
  5
556
100
AcDbEntity
  8
61
  6
CONTINUOUS
 62
     2
100
AcDbText
 10
0.7831
 20
-0.0294
 30
0.0
 40
0.003049
  1
  
 50
0.029406
 41
0.996655
  7
MONOTXT
210
0.0
220
0.0
230
1.0
100
AcDbText
  0
LINE
  5
557
100
AcDbEntity
  8
61
  6
CONTINUOUS
 62
     2
100
AcDbLine
 10
0.8487
 20
-0.5322
 30
0.0
 11
0.696
 21
-0.5322
 31
0.0
  0
LINE
  5
558
100
AcDbEntity
  8
61
  6
CONTINUOUS
 62
     2
100
AcDbLine
 10
0.8487
 20
-0.5322
 30
0.0
 11
0.6963
 21
-0.5322
 31
0.0
  0
LINE
  5
559
100
AcDbEntity
  8
61
  6
CONTINUOUS
 62
     2
100
AcDbLine
 10
0.8487
 20
-0.5322
 30
0.0
 11
0.696
 21
-0.5322
 31
0.0
  0
LINE
  5
55A
100
AcDbEntity
  8
61
  6
CONTINUOUS
 62
     2
100
AcDbLine
 10
0.8487
 20
-0.5322
 30
0.0
 11
0.6963
 21
-0.5322
 31
0.0
  0
TEXT
  5
55B
100
AcDbEntity
  8
1
  6
CONTINUOUS
 62
     2
100
AcDbText
 10
0.79
 20
-0.536
 30
0.0
 40
0.002031
  1
TRAFFIC ENGINEERING DIVISION
  7
TXT
210
0.0
220
0.0
230
1.0
100
AcDbText
  0
TEXT
  5
55C
100
AcDbEntity
  8
1
  6
CONTINUOUS
 62
     7
100
AcDbText
 10
0.5757
 20
-0.536
 30
0.0
 40
0.0022
  1
$$$$$$$$$FILENAME$$$$$$$$
  7
MONOTXT
210
0.0
220
0.0
230
1.0
100
AcDbText
  0
TEXT
  5
55D
100
AcDbEntity
  8
1
  6
CONTINUOUS
 62
     7
100
AcDbText
 10
0.6965
 20
-0.536
 30
0.0
 40
0.0022
  1
$USERNAME$
  7
MONOTXT
210
0.0
220
0.0
230
1.0
100
AcDbText
  0
TEXT
  5
55E
100
AcDbEntity
  8
1
  6
CONTINUOUS
 62
     7
100
AcDbText
 10
0.7416
 20
-0.536
 30
0.0
 40
0.0022
  1
DD-MMM-YYYY HH:MM
  7
MONOTXT
210
0.0
220
0.0
230
1.0
100
AcDbText
  0
ENDBLK
  5
55F
100
AcDbEntity
  8
1
  6
CONTINUOUS
 62
     7
100
AcDbBlockEnd
  0
BLOCK
  5
54E
100
AcDbEntity
  8
1
  6
CONTINUOUS
 62
     1
100
AcDbBlockBegin
  2
PT
 70
     0
 10
0.0
 20
0.0
 30
0.0
  3
PT
  1

  0
POINT
  5
54F
100
AcDbEntity
  8
1
  6
CONTINUOUS
 62
     1
100
AcDbPoint
 10
0.0
 20
0.0
 30
0.0
  0
ENDBLK
  5
550
100
AcDbEntity
  8
1
  6
CONTINUOUS
 62
     1
100
AcDbBlockEnd
  0
ENDSEC
  0
SECTION
  2
ENTITIES
  0
TEXT
  5
2C
100
AcDbEntity
  8
61
  6
CONTINUOUS
 62
     1
100
AcDbText
 10
697.8623
 20
5.5777
 30
0.0
 40
2.881584
  1
     
 41
1.001399
  7
MONOTXT
210
0.0
220
0.0
230
1.0
100
AcDbText
  0
TEXT
  5
2E
100
AcDbEntity
  8
1
  6
CONTINUOUS
 62
     1
100
AcDbText
 10
535.7786
 20
-429.6342
 30
0.0
 40
2.400048
  1
11-06-78
  7
MONOTXT
 72
     1
 11
543.4417
 21
-427.2342
 31
0.0
210
0.0
220
0.0
230
1.0
100
AcDbText
 73
     3
  0
TEXT
  5
2F
100
AcDbEntity
  8
1
  6
CONTINUOUS
 62
     1
100
AcDbText
 10
535.0309
 20
-435.3792
 30
0.0
 40
2.400048
  1
03-10-93
  7
MONOTXT
 72
     1
 11
543.1853
 21
-432.9792
 31
0.0
210
0.0
220
0.0
230
1.0
100
AcDbText
 73
     3
  0
TEXT
  5
30
100
AcDbEntity
  8
1
  6
CONTINUOUS
 62
     1
100
AcDbText
 10
533.8416
 20
-441.2017
 30
0.0
 40
2.400048
  1
        
  7
MONOTXT
 72
     1
 11
543.0418
 21
-438.8017
 31
0.0
210
0.0
220
0.0
230
1.0
100
AcDbText
 73
     3
  0
TEXT
  5
31
100
AcDbEntity
  8
1
  6
CONTINUOUS
 62
     1
100
AcDbText
 10
534.9263
 20
-430.9823
 30
0.0
 40
2.400048
  1
        
  7
MONOTXT
 72
     1
 11
544.1265
 21
-428.5823
 31
0.0
210
0.0
220
0.0
230
1.0
100
AcDbText
 73
     3
  0
TEXT
  5
32
100
AcDbEntity
  8
1
  6
CONTINUOUS
 62
     1
100
AcDbText
 10
534.7343
 20
-436.5023
 30
0.0
 40
2.400048
  1
        
  7
MONOTXT
 72
     1
 11
543.9345
 21
-434.1023
 31
0.0
210
0.0
220
0.0
230
1.0
100
AcDbText
 73
     3
  0
TEXT
  5
33
100
AcDbEntity
  8
1
  6
CONTINUOUS
 62
     1
100
AcDbText
 10
534.9263
 20
-441.8783
 30
0.0
 40
2.400048
  1
        
  7
MONOTXT
 72
     1
 11
544.1265
 21
-439.4783
 31
0.0
210
0.0
220
0.0
230
1.0
100
AcDbText
 73
     3
  0
TEXT
  5
34
100
AcDbEntity
  8
1
  6
CONTINUOUS
 62
     1
100
AcDbText
 10
534.8063
 20
-447.3983
 30
0.0
 40
2.400048
  1
        
  7
MONOTXT
 72
     1
 11
544.0065
 21
-444.9983
 31
0.0
210
0.0
220
0.0
230
1.0
100
AcDbText
 73
     3
  0
TEXT
  5
35
100
AcDbEntity
  8
1
  6
CONTINUOUS
 62
     1
100
AcDbText
 10
534.9263
 20
-452.8943
 30
0.0
 40
2.400048
  1
        
  7
MONOTXT
 72
     1
 11
544.1265
 21
-450.4943
 31
0.0
210
0.0
220
0.0
230
1.0
100
AcDbText
 73
     3
  0
TEXT
  5
36
100
AcDbEntity
  8
1
  6
CONTINUOUS
 62
     1
100
AcDbText
 10
534.9263
 20
-457.7183
 30
0.0
 40
2.400048
  1
        
  7
MONOTXT
 72
     1
 11
544.1265
 21
-455.3183
 31
0.0
210
0.0
220
0.0
230
1.0
100
AcDbText
 73
     3
  0
TEXT
  5
38
100
AcDbEntity
  8
1
  6
CONTINUOUS
 62
     1
100
AcDbText
 10
542.4251
 20
-397.7756
 30
0.0
 40
7.2
  1
ROADSIDE SIGN SUPPORTS-CLAMPS
  7
TXT
210
0.0
220
0.0
230
1.0
100
AcDbText
  0
TEXT
  5
39
100
AcDbEntity
  8
1
  6
CONTINUOUS
 62
     1
100
AcDbText
 10
610.8884
 20
-408.6528
 30
0.0
 40
7.2
  1
TUBULAR
  7
TXT
210
0.0
220
0.0
230
1.0
100
AcDbText
  0
LWPOLYLINE
  5
3A
100
AcDbEntity
  8
1
  6
CONTINUOUS
 62
     7
100
AcDbPolyline
 90
        4
 70
     0
 10
529.8171
 20
-425.9084
 10
527.4171
 20
-430.0653
 10
532.2171
 20
-430.0653
 10
529.8171
 20
-425.9084
  0
LWPOLYLINE
  5
3B
100
AcDbEntity
  8
1
  6
CONTINUOUS
 62
     7
100
AcDbPolyline
 90
        4
 70
     0
 10
529.6179
 20
-431.7102
 10
527.2179
 20
-435.8671
 10
532.0179
 20
-435.8671
 10
529.6179
 20
-431.7102
  0
TEXT
  5
3C
100
AcDbEntity
  8
1
  6
CONTINUOUS
 62
     7
100
AcDbText
 10
529.4415
 20
-429.3258
 30
0.0
 40
1.8
  1
1
  7
MONOTXT
210
0.0
220
0.0
230
1.0
100
AcDbText
  0
TEXT
  5
3D
100
AcDbEntity
  8
1
  6
CONTINUOUS
 62
     7
100
AcDbText
 10
528.9768
 20
-435.1355
 30
0.0
 40
1.8
  1
2
  7
MONOTXT
210
0.0
220
0.0
230
1.0
100
AcDbText
  0
LWPOLYLINE
  5
3E
100
AcDbEntity
  8
1
  6
CONTINUOUS
 62
     7
100
AcDbPolyline
 90
        4
 70
     0
 10
526.7419
 20
-346.9991
 10
524.3419
 20
-351.156
 10
529.1419
 20
-351.156
 10
526.7419
 20
-346.9991
  0
LWPOLYLINE
  5
3F
100
AcDbEntity
  8
1
  6
CONTINUOUS
 62
     7
100
AcDbPolyline
 90
        4
 70
     0
 10
526.7087
 20
-341.6623
 10
524.3087
 20
-345.8192
 10
529.1087
 20
-345.8192
 10
526.7087
 20
-341.6623
  0
TEXT
  5
40
100
AcDbEntity
  8
1
  6
CONTINUOUS
 62
     7
100
AcDbText
 10
526.3331
 20
-345.0797
 30
0.0
 40
1.8
  1
1
  7
MONOTXT
210
0.0
220
0.0
230
1.0
100
AcDbText
  0
TEXT
  5
41
100
AcDbEntity
  8
1
  6
CONTINUOUS
 62
     7
100
AcDbText
 10
526.1008
 20
-350.4244
 30
0.0
 40
1.8
  1
2
  7
MONOTXT
210
0.0
220
0.0
230
1.0
100
AcDbText
  0
TEXT
  5
42
100
AcDbEntity
  8
1
  6
CONTINUOUS
 62
     7
100
AcDbText
 10
530.7238
 20
-344.5488
 30
0.0
 40
1.8
  1
WHOLE SHEET GENERALLY
  7
MONOTXT
210
0.0
220
0.0
230
1.0
100
AcDbText
  0
TEXT
  5
43
100
AcDbEntity
  8
1
  6
CONTINUOUS
 62
     7
100
AcDbText
 10
530.5905
 20
-350.1498
 30
0.0
 40
1.8
  1
ADDED TYPE II ALTERNATES
  7
MONOTXT
210
0.0
220
0.0
230
1.0
100
AcDbText
  0
INSERT
  5
6C
100
AcDbEntity
  8
1
  6
CONTINUOUS
 62
     1
100
AcDbBlockReference
  2
BAND
 10
102.0474
 20
-64.0959
 30
0.0
 41
540.0
 42
540.0
 50
270.0
210
0.0
220
0.0
230
1.0
  0
LINE
  5
6D
100
AcDbEntity
  8
1
  6
CONTINUOUS
 62
     1
100
AcDbLine
 10
221.5667
 20
-2.518
 30
0.0
 11
220.1807
 21
13.3223
 31
0.0
  0
LINE
  5
6E
100
AcDbEntity
  8
1
  6
CONTINUOUS
 62
     1
100
AcDbLine
 10
224.5333
 20
-4.8284
 30
0.0
 11
222.9244
 21
13.5623
 31
0.0
  0
LINE
  5
6F
100
AcDbEntity
  8
1
  6
CONTINUOUS
 62
     1
100
AcDbLine
 10
248.1304
 20
-2.5181
 30
0.0
 11
249.5162
 21
13.3223
 31
0.0
  0
LINE
  5
70
100
AcDbEntity
  8
1
  6
CONTINUOUS
 62
     1
100
AcDbLine
 10
245.1635
 20
-4.8284
 30
0.0
 11
246.7727
 21
13.5623
 31
0.0
  0
LINE
  5
71
100
AcDbEntity
  8
1
  6
CONTINUOUS
 62
     1
100
AcDbLine
 10
220.1807
 20
13.3223
 30
0.0
 11
222.9244
 21
13.5623
 31
0.0
  0
LINE
  5
72
100
AcDbEntity
  8
1
  6
CONTINUOUS
 62
     1
100
AcDbLine
 10
246.7727
 20
13.5623
 30
0.0
 11
249.5162
 21
13.3223
 31
0.0
  0
LINE
  5
73
100
AcDbEntity
  8
1
  6
CONTINUOUS
 62
     1
100
AcDbLine
 10
8.5582
 20
-216.887
 30
0.0
 11
8.5582
 21
-226.5076
 31
0.0
  0
LINE
  5
74
100
AcDbEntity
  8
1
  6
CONTINUOUS
 62
     1
100
AcDbLine
 10
10.6102
 20
-216.887
 30
0.0
 11
10.6102
 21
-225.1453
 31
0.0
  0
ARC
  5
75
100
AcDbEntity
  8
1
  6
CONTINUOUS
 62
     1
100
AcDbCircle
 10
12.178843
 20
-216.119234
 30
0.0
 40
3.675893
210
0.0
220
0.0
230
1.0
100
AcDbArc
 50
39.669258
 51
191.654219
  0
ARC
  5
76
100
AcDbEntity
  8
1
  6
CONTINUOUS
 62
     1
100
AcDbCircle
 10
15.508546
 20
-220.366814
 30
0.0
 40
4.198131
210
0.0
220
0.0
230
1.0
100
AcDbArc
 50
284.902108
 51
26.983797
  0
LINE
  5
77
100
AcDbEntity
  8
1
  6
CONTINUOUS
 62
     1
100
AcDbLine
 10
14.9842
 20
-213.755
 30
0.0
 11
19.2502
 21
-218.453
 31
0.0
  0
LINE
  5
78
100
AcDbEntity
  8
1
  6
CONTINUOUS
 62
     1
100
AcDbLine
 10
13.4722
 20
-215.159
 30
0.0
 11
17.7382
 21
-219.857
 31
0.0
  0
ARC
  5
79
100
AcDbEntity
  8
1
  6
CONTINUOUS
 62
     1
100
AcDbCircle
 10
12.219002
 20
-216.272512
 30
0.0
 40
1.704191
210
0.0
220
0.0
230
1.0
100
AcDbArc
 50
41.549244
 51
200.229233
  0
ARC
  5
7A
100
AcDbEntity
  8
1
  6
CONTINUOUS
 62
     1
100
AcDbCircle
 10
16.323855
 20
-220.729909
 30
0.0
 40
1.673642
210
0.0
220
0.0
230
1.0
100
AcDbArc
 50
279.086756
 51
32.475119
  0
ARC
  5
7B
100
AcDbEntity
  8
1
  6
CONTINUOUS
 62
     1
100
AcDbCircle
 10
12.219002
 20
-283.639954
 30
0.0
 40
1.704191
210
0.0
220
0.0
230
1.0
100
AcDbArc
 50
159.770767
 51
318.450756
  0
LINE
  5
7C
100
AcDbEntity
  8
1
  6
CONTINUOUS
 62
     1
100
AcDbLine
 10
8.5582
 20
-283.037
 30
0.0
 11
8.5582
 21
-273.5245
 31
0.0
  0
LINE
  5
7D
100
AcDbEntity
  8
1
  6
CONTINUOUS
 62
     1
100
AcDbLine
 10
10.6102
 20
-283.037
 30
0.0
 11
10.6102
 21
-274.8869
 31
0.0
  0
ARC
  5
7E
100
AcDbEntity
  8
1
  6
CONTINUOUS
 62
     1
100
AcDbCircle
 10
12.178843
 20
-283.793232
 30
0.0
 40
3.675893
210
0.0
220
0.0
230
1.0
100
AcDbArc
 50
168.345781
 51
320.330742
  0
LINE
  5
7F
100
AcDbEntity
  8
1
  6
CONTINUOUS
 62
     1
100
AcDbLine
 10
14.9842
 20
-286.115
 30
0.0
 11
19.2502
 21
-281.471
 31
0.0
  0
LINE
  5
80
100
AcDbEntity
  8
1
  6
CONTINUOUS
 62
     1
100
AcDbLine
 10
13.4722
 20
-284.765
 30
0.0
 11
17.7382
 21
-280.067
 31
0.0
  0
LINE
  5
81
100
AcDbEntity
  8
1
  6
CONTINUOUS
 62
     1
100
AcDbLine
 10
42.6906
 20
-216.887
 30
0.0
 11
42.6906
 21
-226.4779
 31
0.0
  0
LINE
  5
82
100
AcDbEntity
  8
1
  6
CONTINUOUS
 62
     1
100
AcDbLine
 10
40.6926
 20
-216.887
 30
0.0
 11
40.6926
 21
-225.1531
 31
0.0
  0
ARC
  5
83
100
AcDbEntity
  8
1
  6
CONTINUOUS
 62
     1
100
AcDbCircle
 10
39.111131
 20
-216.119234
 30
0.0
 40
3.675893
210
0.0
220
0.0
230
1.0
100
AcDbArc
 50
348.345781
 51
140.330742
  0
ARC
  5
84
100
AcDbEntity
  8
1
  6
CONTINUOUS
 62
     1
100
AcDbCircle
 10
35.781428
 20
-220.366814
 30
0.0
 40
4.198131
210
0.0
220
0.0
230
1.0
100
AcDbArc
 50
153.016203
 51
255.097892
  0
LINE
  5
85
100
AcDbEntity
  8
1
  6
CONTINUOUS
 62
     1
100
AcDbLine
 10
36.2646
 20
-213.755
 30
0.0
 11
32.0526
 21
-218.453
 31
0.0
  0
LINE
  5
86
100
AcDbEntity
  8
1
  6
CONTINUOUS
 62
     1
100
AcDbLine
 10
37.7766
 20
-215.159
 30
0.0
 11
33.5646
 21
-219.857
 31
0.0
  0
ARC
  5
87
100
AcDbEntity
  8
1
  6
CONTINUOUS
 62
     1
100
AcDbCircle
 10
39.070973
 20
-216.272512
 30
0.0
 40
1.704191
210
0.0
220
0.0
230
1.0
100
AcDbArc
 50
339.770767
 51
138.450756
  0
ARC
  5
88
100
AcDbEntity
  8
1
  6
CONTINUOUS
 62
     1
100
AcDbCircle
 10
34.966119
 20
-220.729909
 30
0.0
 40
1.673642
210
0.0
220
0.0
230
1.0
100
AcDbArc
 50
147.524881
 51
260.913244
  0
ARC
  5
89
100
AcDbEntity
  8
1
  6
CONTINUOUS
 62
     1
100
AcDbCircle
 10
39.070973
 20
-283.639954
 30
0.0
 40
1.704191
210
0.0
220
0.0
230
1.0
100
AcDbArc
 50
221.549244
 51
20.229233
  0
LINE
  5
8A
100
AcDbEntity
  8
1
  6
CONTINUOUS
 62
     1
100
AcDbLine
 10
42.6906
 20
-283.037
 30
0.0
 11
42.6906
 21
-273.5542
 31
0.0
  0
LINE
  5
8B
100
AcDbEntity
  8
1
  6
CONTINUOUS
 62
     1
100
AcDbLine
 10
40.6926
 20
-283.037
 30
0.0
 11
40.6926
 21
-274.879
 31
0.0
  0
ARC
  5
8C
100
AcDbEntity
  8
1
  6
CONTINUOUS
 62
     1
100
AcDbCircle
 10
39.111131
 20
-283.793232
 30
0.0
 40
3.675893
210
0.0
220
0.0
230
1.0
100
AcDbArc
 50
219.669258
 51
11.654219
  0
LINE
  5
8D
100
AcDbEntity
  8
1
  6
CONTINUOUS
 62
     1
100
AcDbLine
 10
36.2646
 20
-286.115
 30
0.0
 11
32.0526
 21
-281.471
 31
0.0
  0
LINE
  5
8E
100
AcDbEntity
  8
1
  6
CONTINUOUS
 62
     1
100
AcDbLine
 10
37.7766
 20
-284.765
 30
0.0
 11
33.5646
 21
-280.067
 31
0.0
  0
LINE
  5
8F
100
AcDbEntity
  8
1
  6
CONTINUOUS
 62
     1
100
AcDbLine
 10
5.8582
 20
-216.887
 30
0.0
 11
8.5582
 21
-216.887
 31
0.0
  0
LINE
  5
90
100
AcDbEntity
  8
1
  6
CONTINUOUS
 62
     1
100
AcDbLine
 10
42.6906
 20
-216.887
 30
0.0
 11
45.4446
 21
-216.887
 31
0.0
  0
LINE
  5
91
100
AcDbEntity
  8
1
  6
CONTINUOUS
 62
     1
100
AcDbLine
 10
5.8582
 20
-225.041
 30
0.0
 11
8.5582
 21
-225.041
 31
0.0
  0
LINE
  5
92
100
AcDbEntity
  8
1
  6
CONTINUOUS
 62
     1
100
AcDbLine
 10
42.6906
 20
-225.041
 30
0.0
 11
45.4446
 21
-225.041
 31
0.0
  0
LINE
  5
93
100
AcDbEntity
  8
1
  6
CONTINUOUS
 62
     1
100
AcDbLine
 10
5.8582
 20
-216.887
 30
0.0
 11
5.8582
 21
-225.041
 31
0.0
  0
LINE
  5
94
100
AcDbEntity
  8
1
  6
CONTINUOUS
 62
     1
100
AcDbLine
 10
45.4446
 20
-216.887
 30
0.0
 11
45.4446
 21
-225.041
 31
0.0
  0
LINE
  5
95
100
AcDbEntity
  8
1
  6
CONTINUOUS
 62
     1
100
AcDbLine
 10
42.6906
 20
-218.885
 30
0.0
 11
48.1446
 21
-218.885
 31
0.0
  0
LINE
  5
96
100
AcDbEntity
  8
1
  6
CONTINUOUS
 62
     1
100
AcDbLine
 10
42.6906
 20
-222.989
 30
0.0
 11
48.1446
 21
-222.989
 31
0.0
  0
LINE
  5
97
100
AcDbEntity
  8
1
  6
CONTINUOUS
 62
     1
100
AcDbLine
 10
5.8582
 20
-225.041
 30
0.0
 11
6.5602
 21
-222.989
 31
0.0
  0
LINE
  5
98
100
AcDbEntity
  8
1
  6
CONTINUOUS
 62
     1
100
AcDbLine
 10
5.8582
 20
-216.887
 30
0.0
 11
6.5602
 21
-218.885
 31
0.0
  0
LINE
  5
99
100
AcDbEntity
  8
1
  6
CONTINUOUS
 62
     1
100
AcDbLine
 10
5.8582
 20
-220.937
 30
0.0
 11
6.5602
 21
-218.885
 31
0.0
  0
LINE
  5
9A
100
AcDbEntity
  8
1
  6
CONTINUOUS
 62
     1
100
AcDbLine
 10
5.8582
 20
-220.937
 30
0.0
 11
6.5602
 21
-222.989
 31
0.0
  0
LINE
  5
9B
100
AcDbEntity
  8
1
  6
CONTINUOUS
 62
     1
100
AcDbLine
 10
6.5602
 20
-218.885
 30
0.0
 11
8.5582
 21
-218.885
 31
0.0
  0
LINE
  5
9C
100
AcDbEntity
  8
1
  6
CONTINUOUS
 62
     1
100
AcDbLine
 10
6.5602
 20
-222.989
 30
0.0
 11
8.5582
 21
-222.989
 31
0.0
  0
LINE
  5
9D
100
AcDbEntity
  8
1
  6
CONTINUOUS
 62
     1
100
AcDbLine
 10
48.1446
 20
-218.885
 30
0.0
 11
48.1446
 21
-222.989
 31
0.0
  0
LINE
  5
9E
100
AcDbEntity
  8
1
  6
CONTINUOUS
 62
     1
100
AcDbLine
 10
46.7946
 20
-218.885
 30
0.0
 11
46.7946
 21
-222.989
 31
0.0
  0
LINE
  5
9F
100
AcDbEntity
  8
1
  6
CONTINUOUS
 62
     1
100
AcDbLine
 10
47.4966
 20
-219.587
 30
0.0
 11
47.4966
 21
-222.287
 31
0.0
  0
LINE
  5
A0
100
AcDbEntity
  8
1
  6
CONTINUOUS
 62
     1
100
AcDbLine
 10
46.0926
 20
-219.587
 30
0.0
 11
46.0926
 21
-222.287
 31
0.0
  0
LINE
  5
A1
100
AcDbEntity
  8
1
  6
CONTINUOUS
 62
     1
100
AcDbLine
 10
10.6102
 20
-218.885
 30
0.0
 11
16.8742
 21
-218.885
 31
0.0
  0
LINE
  5
A2
100
AcDbEntity
  8
1
  6
CONTINUOUS
 62
     1
100
AcDbLine
 10
10.6102
 20
-222.989
 30
0.0
 11
15.4269
 21
-222.989
 31
0.0
  0
LINE
  5
A3
100
AcDbEntity
  8
1
  6
CONTINUOUS
 62
     1
100
AcDbLine
 10
19.489
 20
-218.885
 30
0.0
 11
31.855
 21
-218.885
 31
0.0
  0
LINE
  5
A4
100
AcDbEntity
  8
1
  6
CONTINUOUS
 62
     1
100
AcDbLine
 10
34.3746
 20
-218.885
 30
0.0
 11
40.6926
 21
-218.885
 31
0.0
  0
LINE
  5
A5
100
AcDbEntity
  8
1
  6
CONTINUOUS
 62
     1
100
AcDbLine
 10
18.787
 20
-222.989
 30
0.0
 11
32.503
 21
-222.989
 31
0.0
  0
LINE
  5
A6
100
AcDbEntity
  8
1
  6
CONTINUOUS
 62
     1
100
AcDbLine
 10
35.8632
 20
-222.989
 30
0.0
 11
40.6926
 21
-222.989
 31
0.0
  0
LINE
  5
A7
100
AcDbEntity
  8
1
  6
CONTINUOUS
 62
     1
100
AcDbLine
 10
25.618
 20
-222.989
 30
0.0
 11
25.618
 21
-218.885
 31
0.0
  0
LINE
  5
A8
100
AcDbEntity
  8
1
  6
CONTINUOUS
 62
     1
100
AcDbLine
 10
28.318
 20
-222.989
 30
0.0
 11
28.318
 21
-218.885
 31
0.0
  0
LINE
  5
A9
100
AcDbEntity
  8
1
  6
CONTINUOUS
 62
     1
100
AcDbLine
 10
31.072
 20
-222.989
 30
0.0
 11
31.072
 21
-218.885
 31
0.0
  0
LINE
  5
AA
100
AcDbEntity
  8
1
  6
CONTINUOUS
 62
     1
100
AcDbLine
 10
34.8066
 20
-222.449
 30
0.0
 11
34.8066
 21
-218.885
 31
0.0
  0
LINE
  5
AB
100
AcDbEntity
  8
1
  6
CONTINUOUS
 62
     1
100
AcDbLine
 10
37.5066
 20
-222.989
 30
0.0
 11
37.5066
 21
-218.885
 31
0.0
  0
LINE
  5
AC
100
AcDbEntity
  8
1
  6
CONTINUOUS
 62
     1
100
AcDbLine
 10
40.2606
 20
-222.989
 30
0.0
 11
40.2606
 21
-218.885
 31
0.0
  0
LINE
  5
AD
100
AcDbEntity
  8
1
  6
CONTINUOUS
 62
     1
100
AcDbLine
 10
26.968
 20
-222.287
 30
0.0
 11
26.968
 21
-219.587
 31
0.0
  0
LINE
  5
AE
100
AcDbEntity
  8
1
  6
CONTINUOUS
 62
     1
100
AcDbLine
 10
29.722
 20
-222.287
 30
0.0
 11
29.722
 21
-219.587
 31
0.0
  0
LINE
  5
AF
100
AcDbEntity
  8
1
  6
CONTINUOUS
 62
     1
100
AcDbLine
 10
36.1566
 20
-222.287
 30
0.0
 11
36.1566
 21
-219.587
 31
0.0
  0
LINE
  5
B0
100
AcDbEntity
  8
1
  6
CONTINUOUS
 62
     1
100
AcDbLine
 10
38.8566
 20
-222.287
 30
0.0
 11
38.8566
 21
-219.587
 31
0.0
  0
LINE
  5
B1
100
AcDbEntity
  8
1
  6
CONTINUOUS
 62
     1
100
AcDbLine
 10
19.489
 20
-281.093
 30
0.0
 11
31.855
 21
-281.093
 31
0.0
  0
LINE
  5
B2
100
AcDbEntity
  8
1
  6
CONTINUOUS
 62
     1
100
AcDbLine
 10
5.8582
 20
-283.145
 30
0.0
 11
8.5582
 21
-283.145
 31
0.0
  0
LINE
  5
B3
100
AcDbEntity
  8
1
  6
CONTINUOUS
 62
     1
100
AcDbLine
 10
42.6906
 20
-283.145
 30
0.0
 11
45.4446
 21
-283.145
 31
0.0
  0
LINE
  5
B4
100
AcDbEntity
  8
1
  6
CONTINUOUS
 62
     1
100
AcDbLine
 10
5.8582
 20
-274.991
 30
0.0
 11
8.5582
 21
-274.991
 31
0.0
  0
LINE
  5
B5
100
AcDbEntity
  8
1
  6
CONTINUOUS
 62
     1
100
AcDbLine
 10
42.6906
 20
-274.991
 30
0.0
 11
45.4446
 21
-274.991
 31
0.0
  0
LINE
  5
B6
100
AcDbEntity
  8
1
  6
CONTINUOUS
 62
     1
100
AcDbLine
 10
5.8582
 20
-283.145
 30
0.0
 11
5.8582
 21
-274.991
 31
0.0
  0
LINE
  5
B7
100
AcDbEntity
  8
1
  6
CONTINUOUS
 62
     1
100
AcDbLine
 10
45.4446
 20
-283.145
 30
0.0
 11
45.4446
 21
-274.991
 31
0.0
  0
LINE
  5
B8
100
AcDbEntity
  8
1
  6
CONTINUOUS
 62
     1
100
AcDbLine
 10
42.6906
 20
-281.093
 30
0.0
 11
48.1446
 21
-281.093
 31
0.0
  0
LINE
  5
B9
100
AcDbEntity
  8
1
  6
CONTINUOUS
 62
     1
100
AcDbLine
 10
42.6906
 20
-277.043
 30
0.0
 11
48.1446
 21
-277.043
 31
0.0
  0
LINE
  5
BA
100
AcDbEntity
  8
1
  6
CONTINUOUS
 62
     1
100
AcDbLine
 10
5.8582
 20
-274.991
 30
0.0
 11
6.5602
 21
-277.043
 31
0.0
  0
LINE
  5
BB
100
AcDbEntity
  8
1
  6
CONTINUOUS
 62
     1
100
AcDbLine
 10
5.8582
 20
-283.145
 30
0.0
 11
6.5602
 21
-281.093
 31
0.0
  0
LINE
  5
BC
100
AcDbEntity
  8
1
  6
CONTINUOUS
 62
     1
100
AcDbLine
 10
5.8582
 20
-279.041
 30
0.0
 11
6.5602
 21
-281.093
 31
0.0
  0
LINE
  5
BD
100
AcDbEntity
  8
1
  6
CONTINUOUS
 62
     1
100
AcDbLine
 10
5.8582
 20
-279.041
 30
0.0
 11
6.5602
 21
-277.043
 31
0.0
  0
LINE
  5
BE
100
AcDbEntity
  8
1
  6
CONTINUOUS
 62
     1
100
AcDbLine
 10
6.5602
 20
-281.093
 30
0.0
 11
8.5582
 21
-281.093
 31
0.0
  0
LINE
  5
BF
100
AcDbEntity
  8
1
  6
CONTINUOUS
 62
     1
100
AcDbLine
 10
6.5602
 20
-277.043
 30
0.0
 11
8.5582
 21
-277.043
 31
0.0
  0
LINE
  5
C0
100
AcDbEntity
  8
1
  6
CONTINUOUS
 62
     1
100
AcDbLine
 10
48.1446
 20
-281.093
 30
0.0
 11
48.1446
 21
-277.043
 31
0.0
  0
LINE
  5
C1
100
AcDbEntity
  8
1
  6
CONTINUOUS
 62
     1
100
AcDbLine
 10
46.7946
 20
-281.093
 30
0.0
 11
46.7946
 21
-277.043
 31
0.0
  0
LINE
  5
C2
100
AcDbEntity
  8
1
  6
CONTINUOUS
 62
     1
100
AcDbLine
 10
47.4966
 20
-280.445
 30
0.0
 11
47.4966
 21
-277.691
 31
0.0
  0
LINE
  5
C3
100
AcDbEntity
  8
1
  6
CONTINUOUS
 62
     1
100
AcDbLine
 10
46.0926
 20
-280.445
 30
0.0
 11
46.0926
 21
-277.691
 31
0.0
  0
LINE
  5
C4
100
AcDbEntity
  8
1
  6
CONTINUOUS
 62
     1
100
AcDbLine
 10
10.6102
 20
-281.093
 30
0.0
 11
16.8066
 21
-281.093
 31
0.0
  0
LINE
  5
C5
100
AcDbEntity
  8
1
  6
CONTINUOUS
 62
     1
100
AcDbLine
 10
10.6102
 20
-277.043
 30
0.0
 11
14.9613
 21
-277.043
 31
0.0
  0
LINE
  5
C6
100
AcDbEntity
  8
1
  6
CONTINUOUS
 62
     1
100
AcDbLine
 10
34.4844
 20
-281.093
 30
0.0
 11
40.6926
 21
-281.093
 31
0.0
  0
LINE
  5
C7
100
AcDbEntity
  8
1
  6
CONTINUOUS
 62
     1
100
AcDbLine
 10
18.9819
 20
-277.043
 30
0.0
 11
32.3329
 21
-277.043
 31
0.0
  0
LINE
  5
C8
100
AcDbEntity
  8
1
  6
CONTINUOUS
 62
     1
100
AcDbLine
 10
36.3286
 20
-277.043
 30
0.0
 11
40.6926
 21
-277.043
 31
0.0
  0
LINE
  5
C9
100
AcDbEntity
  8
1
  6
CONTINUOUS
 62
     1
100
AcDbLine
 10
25.618
 20
-277.043
 30
0.0
 11
25.618
 21
-281.093
 31
0.0
  0
LINE
  5
CA
100
AcDbEntity
  8
1
  6
CONTINUOUS
 62
     1
100
AcDbLine
 10
28.318
 20
-277.043
 30
0.0
 11
28.318
 21
-281.093
 31
0.0
  0
LINE
  5
CB
100
AcDbEntity
  8
1
  6
CONTINUOUS
 62
     1
100
AcDbLine
 10
31.072
 20
-277.043
 30
0.0
 11
31.072
 21
-281.093
 31
0.0
  0
LINE
  5
CC
100
AcDbEntity
  8
1
  6
CONTINUOUS
 62
     1
100
AcDbLine
 10
34.8066
 20
-277.583
 30
0.0
 11
34.8066
 21
-281.093
 31
0.0
  0
LINE
  5
CD
100
AcDbEntity
  8
1
  6
CONTINUOUS
 62
     1
100
AcDbLine
 10
37.5066
 20
-277.043
 30
0.0
 11
37.5066
 21
-281.093
 31
0.0
  0
LINE
  5
CE
100
AcDbEntity
  8
1
  6
CONTINUOUS
 62
     1
100
AcDbLine
 10
40.2606
 20
-277.043
 30
0.0
 11
40.2606
 21
-281.093
 31
0.0
  0
LINE
  5
CF
100
AcDbEntity
  8
1
  6
CONTINUOUS
 62
     1
100
AcDbLine
 10
26.968
 20
-277.691
 30
0.0
 11
26.968
 21
-280.445
 31
0.0
  0
LINE
  5
D0
100
AcDbEntity
  8
1
  6
CONTINUOUS
 62
     1
100
AcDbLine
 10
29.722
 20
-277.691
 30
0.0
 11
29.722
 21
-280.445
 31
0.0
  0
LINE
  5
D1
100
AcDbEntity
  8
1
  6
CONTINUOUS
 62
     1
100
AcDbLine
 10
36.1566
 20
-277.691
 30
0.0
 11
36.1566
 21
-280.445
 31
0.0
  0
LINE
  5
D2
100
AcDbEntity
  8
1
  6
CONTINUOUS
 62
     1
100
AcDbLine
 10
38.8566
 20
-277.691
 30
0.0
 11
38.8566
 21
-280.445
 31
0.0
  0
LINE
  5
D3
100
AcDbEntity
  8
1
  6
CONTINUOUS
 62
     1
100
AcDbLine
 10
245.7038
 20
-68.5258
 30
0.0
 11
224.1038
 21
-68.5258
 31
0.0
  0
LINE
  5
D4
100
AcDbEntity
  8
1
  6
CONTINUOUS
 62
     1
100
AcDbLine
 10
221.3498
 20
-62.062
 30
0.0
 11
221.3498
 21
-78.6238
 31
0.0
  0
LINE
  5
D5
100
AcDbEntity
  8
1
  6
CONTINUOUS
 62
     1
100
AcDbLine
 10
224.1038
 20
-59.6617
 30
0.0
 11
224.1038
 21
-78.6238
 31
0.0
  0
LINE
  5
D6
100
AcDbEntity
  8
1
  6
CONTINUOUS
 62
     1
100
AcDbLine
 10
248.4578
 20
-62.0009
 30
0.0
 11
248.4578
 21
-78.6238
 31
0.0
  0
LINE
  5
D7
100
AcDbEntity
  8
1
  6
CONTINUOUS
 62
     1
100
AcDbLine
 10
245.7038
 20
-59.6068
 30
0.0
 11
245.7038
 21
-78.6238
 31
0.0
  0
LINE
  5
D8
100
AcDbEntity
  8
1
  6
CONTINUOUS
 62
     1
100
AcDbLine
 10
221.3498
 20
-78.6238
 30
0.0
 11
224.1038
 21
-78.6238
 31
0.0
  0
LINE
  5
D9
100
AcDbEntity
  8
1
  6
CONTINUOUS
 62
     1
100
AcDbLine
 10
245.7038
 20
-78.6238
 30
0.0
 11
248.4578
 21
-78.6238
 31
0.0
  0
LINE
  5
DA
100
AcDbEntity
  8
1
  6
CONTINUOUS
 62
     1
100
AcDbLine
 10
236.4158
 20
-72.6298
 30
0.0
 11
236.4158
 21
-68.5258
 31
0.0
  0
LINE
  5
DB
100
AcDbEntity
  8
1
  6
CONTINUOUS
 62
     1
100
AcDbLine
 10
239.4938
 20
-72.6298
 30
0.0
 11
239.4938
 21
-68.5258
 31
0.0
  0
LINE
  5
DC
100
AcDbEntity
  8
1
  6
CONTINUOUS
 62
     1
100
AcDbLine
 10
242.6258
 20
-72.6298
 30
0.0
 11
242.6258
 21
-68.5258
 31
0.0
  0
LINE
  5
DD
100
AcDbEntity
  8
1
  6
CONTINUOUS
 62
     1
100
AcDbLine
 10
237.9278
 20
-71.9548
 30
0.0
 11
237.9278
 21
-69.2008
 31
0.0
  0
LINE
  5
DE
100
AcDbEntity
  8
1
  6
CONTINUOUS
 62
     1
100
AcDbLine
 10
241.0598
 20
-71.9548
 30
0.0
 11
241.0598
 21
-69.2008
 31
0.0
  0
LINE
  5
DF
100
AcDbEntity
  8
1
  6
CONTINUOUS
 62
     1
100
AcDbLine
 10
244.1918
 20
-71.9548
 30
0.0
 11
244.1918
 21
-69.2008
 31
0.0
  0
LINE
  5
E0
100
AcDbEntity
  8
1
  6
CONTINUOUS
 62
     1
100
AcDbLine
 10
245.7038
 20
-72.6298
 30
0.0
 11
224.1038
 21
-72.6298
 31
0.0
  0
LINE
  5
E1
100
AcDbEntity
  8
1
  6
CONTINUOUS
 62
     1
100
AcDbLine
 10
253.9118
 20
-65.8258
 30
0.0
 11
248.4578
 21
-65.8258
 31
0.0
  0
LINE
  5
E2
100
AcDbEntity
  8
1
  6
CONTINUOUS
 62
     1
100
AcDbLine
 10
253.9118
 20
-75.3838
 30
0.0
 11
248.4578
 21
-75.3838
 31
0.0
  0
LINE
  5
E3
100
AcDbEntity
  8
1
  6
CONTINUOUS
 62
     1
100
AcDbLine
 10
253.9118
 20
-65.8258
 30
0.0
 11
253.9118
 21
-75.3838
 31
0.0
  0
LINE
  5
E4
100
AcDbEntity
  8
1
  6
CONTINUOUS
 62
     1
100
AcDbLine
 10
258.1238
 20
-68.5258
 30
0.0
 11
253.9118
 21
-68.5258
 31
0.0
  0
LINE
  5
E5
100
AcDbEntity
  8
1
  6
CONTINUOUS
 62
     1
100
AcDbLine
 10
253.9118
 20
-68.5258
 30
0.0
 11
248.4578
 21
-68.5258
 31
0.0
  0
LINE
  5
E6
100
AcDbEntity
  8
1
  6
CONTINUOUS
 62
     1
100
AcDbLine
 10
258.1238
 20
-72.6298
 30
0.0
 11
253.9118
 21
-72.6298
 31
0.0
  0
LINE
  5
E7
100
AcDbEntity
  8
1
  6
CONTINUOUS
 62
     1
100
AcDbLine
 10
253.9118
 20
-72.6298
 30
0.0
 11
248.4578
 21
-72.6298
 31
0.0
  0
LINE
  5
E8
100
AcDbEntity
  8
1
  6
CONTINUOUS
 62
     1
100
AcDbLine
 10
258.1238
 20
-72.6298
 30
0.0
 11
258.1238
 21
-68.5258
 31
0.0
  0
ARC
  5
E9
100
AcDbEntity
  8
1
  6
CONTINUOUS
 62
     1
100
AcDbCircle
 10
234.848375
 20
-32.4692
 30
0.0
 40
27.634604
210
0.0
220
0.0
230
1.0
100
AcDbArc
 50
115.386097
 51
243.691022
  0
ARC
  5
EA
100
AcDbEntity
  8
1
  6
CONTINUOUS
 62
     1
100
AcDbCircle
 10
234.848375
 20
-32.4692
 30
0.0
 40
27.634604
210
0.0
220
0.0
230
1.0
100
AcDbArc
 50
296.542464
 51
64.613897
  0
ARC
  5
EB
100
AcDbEntity
  8
1
  6
CONTINUOUS
 62
     1
100
AcDbCircle
 10
234.848375
 20
-32.4692
 30
0.0
 40
31.036064
210
0.0
220
0.0
230
1.0
100
AcDbArc
 50
118.256781
 51
241.304261
  0
ARC
  5
EC
100
AcDbEntity
  8
1
  6
CONTINUOUS
 62
     1
100
AcDbCircle
 10
234.848375
 20
-32.4692
 30
0.0
 40
31.036064
210
0.0
220
0.0
230
1.0
100
AcDbArc
 50
298.910292
 51
61.742828
  0
ARC
  5
ED
100
AcDbEntity
  8
1
  6
CONTINUOUS
 62
     1
100
AcDbCircle
 10
218.876915
 20
-2.753304
 30
0.0
 40
2.7
210
0.0
220
0.0
230
1.0
100
AcDbArc
 50
298.256781
 51
5.000594
  0
ARC
  5
EE
100
AcDbEntity
  8
1
  6
CONTINUOUS
 62
     1
100
AcDbCircle
 10
250.820038
 20
-2.753413
 30
0.0
 40
2.7
210
0.0
220
0.0
230
1.0
100
AcDbArc
 50
175.000167
 51
241.742828
  0
ARC
  5
EF
100
AcDbEntity
  8
1
  6
CONTINUOUS
 62
     1
100
AcDbCircle
 10
221.843447
 20
-5.063726
 30
0.0
 40
2.7
210
0.0
220
0.0
230
1.0
100
AcDbArc
 50
295.386097
 51
4.999717
  0
ARC
  5
F0
100
AcDbEntity
  8
1
  6
CONTINUOUS
 62
     1
100
AcDbCircle
 10
247.853306
 20
-5.063727
 30
0.0
 40
2.7
210
0.0
220
0.0
230
1.0
100
AcDbArc
 50
174.999597
 51
244.613897
  0
ARC
  5
F1
100
AcDbEntity
  8
1
  6
CONTINUOUS
 62
     1
100
AcDbCircle
 10
221.403725
 20
-59.661654
 30
0.0
 40
2.7
210
0.0
220
0.0
230
1.0
100
AcDbArc
 50
0.0
 51
63.691022
  0
ARC
  5
F2
100
AcDbEntity
  8
1
  6
CONTINUOUS
 62
     1
100
AcDbCircle
 10
218.649725
 20
-62.061863
 30
0.0
 40
2.7
210
0.0
220
0.0
230
1.0
100
AcDbArc
 50
0.0
 51
61.304261
  0
ARC
  5
F3
100
AcDbEntity
  8
1
  6
CONTINUOUS
 62
     1
100
AcDbCircle
 10
248.403725
 20
-59.60664
 30
0.0
 40
2.7
210
0.0
220
0.0
230
1.0
100
AcDbArc
 50
116.542464
 51
180.0
  0
ARC
  5
F4
100
AcDbEntity
  8
1
  6
CONTINUOUS
 62
     1
100
AcDbCircle
 10
251.157725
 20
-62.000998
 30
0.0
 40
2.7
210
0.0
220
0.0
230
1.0
100
AcDbArc
 50
118.910292
 51
180.0
  0
LINE
  5
F5
100
AcDbEntity
  8
1
  6
CONTINUOUS
 62
     1
100
AcDbLine
 10
215.8958
 20
-72.6298
 30
0.0
 11
221.3498
 21
-72.6298
 31
0.0
  0
LINE
  5
F6
100
AcDbEntity
  8
1
  6
CONTINUOUS
 62
     1
100
AcDbLine
 10
215.8958
 20
-65.7718
 30
0.0
 11
215.8958
 21
-75.3298
 31
0.0
  0
LINE
  5
F7
100
AcDbEntity
  8
1
  6
CONTINUOUS
 62
     1
100
AcDbLine
 10
215.8958
 20
-65.7718
 30
0.0
 11
221.3498
 21
-65.7718
 31
0.0
  0
LINE
  5
F8
100
AcDbEntity
  8
1
  6
CONTINUOUS
 62
     1
100
AcDbLine
 10
215.8958
 20
-75.3298
 30
0.0
 11
221.3498
 21
-75.3298
 31
0.0
  0
LINE
  5
F9
100
AcDbEntity
  8
1
  6
CONTINUOUS
 62
     1
100
AcDbLine
 10
215.8958
 20
-68.5258
 30
0.0
 11
221.3498
 21
-68.5258
 31
0.0
  0
LINE
  5
FA
100
AcDbEntity
  8
1
  6
CONTINUOUS
 62
     1
100
AcDbLine
 10
255.994
 20
-71.9548
 30
0.0
 11
255.994
 21
-69.2008
 31
0.0
  0
LINE
  5
FB
100
AcDbEntity
  8
1
  6
CONTINUOUS
 62
     1
100
AcDbLine
 10
215.8
 20
10.4455
 30
0.0
 11
220.4324
 21
10.4455
 31
0.0
  0
LINE
  5
FC
100
AcDbEntity
  8
1
  6
CONTINUOUS
 62
     1
100
AcDbLine
 10
246.2591
 20
7.6915
 30
0.0
 11
223.438
 21
7.6915
 31
0.0
  0
LINE
  5
FD
100
AcDbEntity
  8
1
  6
CONTINUOUS
 62
     1
100
AcDbLine
 10
236.32
 20
3.5875
 30
0.0
 11
236.32
 21
7.6915
 31
0.0
  0
LINE
  5
FE
100
AcDbEntity
  8
1
  6
CONTINUOUS
 62
     1
100
AcDbLine
 10
239.398
 20
3.5875
 30
0.0
 11
239.398
 21
7.6915
 31
0.0
  0
LINE
  5
FF
100
AcDbEntity
  8
1
  6
CONTINUOUS
 62
     1
100
AcDbLine
 10
242.53
 20
3.5875
 30
0.0
 11
242.53
 21
7.6915
 31
0.0
  0
LINE
  5
100
100
AcDbEntity
  8
1
  6
CONTINUOUS
 62
     1
100
AcDbLine
 10
237.832
 20
4.2625
 30
0.0
 11
237.832
 21
7.0165
 31
0.0
  0
LINE
  5
101
100
AcDbEntity
  8
1
  6
CONTINUOUS
 62
     1
100
AcDbLine
 10
240.964
 20
4.2625
 30
0.0
 11
240.964
 21
7.0165
 31
0.0
  0
LINE
  5
102
100
AcDbEntity
  8
1
  6
CONTINUOUS
 62
     1
100
AcDbLine
 10
244.096
 20
4.2625
 30
0.0
 11
244.096
 21
7.0165
 31
0.0
  0
LINE
  5
103
100
AcDbEntity
  8
1
  6
CONTINUOUS
 62
     1
100
AcDbLine
 10
245.9
 20
3.5875
 30
0.0
 11
223.7971
 21
3.5875
 31
0.0
  0
LINE
  5
104
100
AcDbEntity
  8
1
  6
CONTINUOUS
 62
     1
100
AcDbLine
 10
253.816
 20
10.3915
 30
0.0
 11
249.2597
 21
10.3915
 31
0.0
  0
LINE
  5
105
100
AcDbEntity
  8
1
  6
CONTINUOUS
 62
     1
100
AcDbLine
 10
253.816
 20
0.8335
 30
0.0
 11
248.4236
 21
0.8335
 31
0.0
  0
LINE
  5
106
100
AcDbEntity
  8
1
  6
CONTINUOUS
 62
     1
100
AcDbLine
 10
253.816
 20
10.3915
 30
0.0
 11
253.816
 21
0.8335
 31
0.0
  0
LINE
  5
107
100
AcDbEntity
  8
1
  6
CONTINUOUS
 62
     1
100
AcDbLine
 10
258.028
 20
7.6915
 30
0.0
 11
253.816
 21
7.6915
 31
0.0
  0
LINE
  5
108
100
AcDbEntity
  8
1
  6
CONTINUOUS
 62
     1
100
AcDbLine
 10
253.816
 20
7.6915
 30
0.0
 11
249.0236
 21
7.6915
 31
0.0
  0
LINE
  5
109
100
AcDbEntity
  8
1
  6
CONTINUOUS
 62
     1
100
AcDbLine
 10
258.028
 20
3.5875
 30
0.0
 11
253.816
 21
3.5875
 31
0.0
  0
LINE
  5
10A
100
AcDbEntity
  8
1
  6
CONTINUOUS
 62
     1
100
AcDbLine
 10
253.816
 20
3.5875
 30
0.0
 11
248.6645
 21
3.5875
 31
0.0
  0
LINE
  5
10B
100
AcDbEntity
  8
1
  6
CONTINUOUS
 62
     1
100
AcDbLine
 10
258.028
 20
3.5875
 30
0.0
 11
258.028
 21
7.6915
 31
0.0
  0
LINE
  5
10C
100
AcDbEntity
  8
1
  6
CONTINUOUS
 62
     1
100
AcDbLine
 10
215.8
 20
3.5875
 30
0.0
 11
221.0326
 21
3.5875
 31
0.0
  0
LINE
  5
10D
100
AcDbEntity
  8
1
  6
CONTINUOUS
 62
     1
100
AcDbLine
 10
215.8
 20
10.4455
 30
0.0
 11
215.8
 21
0.8875
 31
0.0
  0
LINE
  5
10E
100
AcDbEntity
  8
1
  6
CONTINUOUS
 62
     1
100
AcDbLine
 10
215.8
 20
0.8875
 30
0.0
 11
221.2688
 21
0.8875
 31
0.0
  0
LINE
  5
10F
100
AcDbEntity
  8
1
  6
CONTINUOUS
 62
     1
100
AcDbLine
 10
215.8
 20
7.6915
 30
0.0
 11
220.6735
 21
7.6915
 31
0.0
  0
LINE
  5
110
100
AcDbEntity
  8
1
  6
CONTINUOUS
 62
     1
100
AcDbLine
 10
255.8981
 20
4.2625
 30
0.0
 11
255.8981
 21
7.0165
 31
0.0
  0
LINE
  5
111
100
AcDbEntity
  8
1
  6
CONTINUOUS
 62
     7
100
AcDbLine
 10
213.1
 20
5.6665
 30
0.0
 11
234.214
 21
5.6665
 31
0.0
  0
LINE
  5
112
100
AcDbEntity
  8
1
  6
CONTINUOUS
 62
     7
100
AcDbLine
 10
239.614
 20
5.6665
 30
0.0
 11
260.728
 21
5.6665
 31
0.0
  0
LINE
  5
113
100
AcDbEntity
  8
1
  6
CONTINUOUS
 62
     7
100
AcDbLine
 10
235.564
 20
5.6665
 30
0.0
 11
238.264
 21
5.6665
 31
0.0
  0
LINE
  5
114
100
AcDbEntity
  8
1
  6
CONTINUOUS
 62
     7
100
AcDbLine
 10
213.1958
 20
-70.5508
 30
0.0
 11
234.214
 21
-70.5508
 31
0.0
  0
LINE
  5
115
100
AcDbEntity
  8
1
  6
CONTINUOUS
 62
     7
100
AcDbLine
 10
235.564
 20
-70.5508
 30
0.0
 11
238.264
 21
-70.5508
 31
0.0
  0
LINE
  5
116
100
AcDbEntity
  8
1
  6
CONTINUOUS
 62
     7
100
AcDbLine
 10
239.614
 20
-70.5508
 30
0.0
 11
260.8238
 21
-70.5508
 31
0.0
  0
LINE
  5
117
100
AcDbEntity
  8
1
  6
CONTINUOUS
 62
     1
100
AcDbLine
 10
267.1969
 20
-30.9424
 30
0.0
 11
280.7341
 21
-30.9424
 31
0.0
  0
LINE
  5
118
100
AcDbEntity
  8
1
  6
CONTINUOUS
 62
     1
100
AcDbLine
 10
267.2122
 20
-33.6424
 30
0.0
 11
280.7341
 21
-33.6424
 31
0.0
  0
LINE
  5
119
100
AcDbEntity
  8
1
  6
CONTINUOUS
 62
     1
100
AcDbLine
 10
267.1969
 20
-30.9424
 30
0.0
 11
267.2122
 21
-33.6424
 31
0.0
  0
LINE
  5
11A
100
AcDbEntity
  8
1
  6
CONTINUOUS
 62
     1
100
AcDbLine
 10
267.1969
 20
-30.9424
 30
0.0
 11
265.7446
 21
-29.5247
 31
0.0
  0
LINE
  5
11B
100
AcDbEntity
  8
1
  6
CONTINUOUS
 62
     1
100
AcDbLine
 10
267.1969
 20
-33.6424
 30
0.0
 11
265.7446
 21
-35.0602
 31
0.0
  0
ARC
  5
11C
100
AcDbEntity
  8
1
  6
CONTINUOUS
 62
     1
100
AcDbCircle
 10
277.964305
 20
-32.29235
 30
0.0
 40
3.081164
210
0.0
220
0.0
230
1.0
100
AcDbArc
 50
334.014344
 51
25.985656
  0
LINE
  5
11D
100
AcDbEntity
  8
1
  6
CONTINUOUS
 62
     1
100
AcDbLine
 10
280.7341
 20
-33.6424
 30
0.0
 11
280.7341
 21
-35.6674
 31
0.0
  0
LINE
  5
11E
100
AcDbEntity
  8
1
  6
CONTINUOUS
 62
     1
100
AcDbLine
 10
275.3341
 20
-33.6424
 30
0.0
 11
275.3341
 21
-35.6674
 31
0.0
  0
LINE
  5
11F
100
AcDbEntity
  8
1
  6
CONTINUOUS
 62
     1
100
AcDbLine
 10
275.3341
 20
-35.6674
 30
0.0
 11
280.7341
 21
-35.6674
 31
0.0
  0
LINE
  5
120
100
AcDbEntity
  8
1
  6
CONTINUOUS
 62
     1
100
AcDbLine
 10
276.6841
 20
-35.6674
 30
0.0
 11
276.6841
 21
-37.0174
 31
0.0
  0
LINE
  5
121
100
AcDbEntity
  8
1
  6
CONTINUOUS
 62
     1
100
AcDbLine
 10
279.3841
 20
-35.6674
 30
0.0
 11
279.3841
 21
-37.0174
 31
0.0
  0
LINE
  5
122
100
AcDbEntity
  8
1
  6
CONTINUOUS
 62
     1
100
AcDbLine
 10
276.6841
 20
-37.0174
 30
0.0
 11
279.3841
 21
-37.0174
 31
0.0
  0
LINE
  5
123
100
AcDbEntity
  8
1
  6
HIDDEN
 62
     1
100
AcDbLine
 10
275.3341
 20
-33.6424
 30
0.0
 11
275.3341
 21
-26.8924
 31
0.0
  0
ARC
  5
124
100
AcDbEntity
  8
1
  6
CONTINUOUS
 62
     1
100
AcDbCircle
 10
278.103645
 20
-25.54235
 30
0.0
 40
3.081164
210
0.0
220
0.0
230
1.0
100
AcDbArc
 50
154.014344
 51
205.985656
  0
ARC
  5
125
100
AcDbEntity
  8
1
  6
CONTINUOUS
 62
     1
100
AcDbCircle
 10
277.964305
 20
-25.54235
 30
0.0
 40
3.081164
210
0.0
220
0.0
230
1.0
100
AcDbArc
 50
334.014344
 51
25.985656
  0
LINE
  5
126
100
AcDbEntity
  8
1
  6
CONTINUOUS
 62
     1
100
AcDbLine
 10
275.3341
 20
-24.1924
 30
0.0
 11
280.7341
 21
-24.1924
 31
0.0
  0
ARC
  5
127
100
AcDbEntity
  8
1
  6
CONTINUOUS
 62
     1
100
AcDbCircle
 10
284.484593
 20
-28.91735
 30
0.0
 40
4.262365
210
0.0
220
0.0
230
1.0
100
AcDbArc
 50
151.634897
 51
208.3651
  0
LINE
  5
128
100
AcDbEntity
  8
1
  6
CONTINUOUS
 62
     1
100
AcDbLine
 10
273.3091
 20
-27.6694
 30
0.0
 11
273.3091
 21
-30.3694
 31
0.0
  0
LINE
  5
129
100
AcDbEntity
  8
1
  6
CONTINUOUS
 62
     1
100
AcDbLine
 10
273.3091
 20
-27.6694
 30
0.0
 11
275.3341
 21
-27.6694
 31
0.0
  0
LINE
  5
12A
100
AcDbEntity
  8
1
  6
HIDDEN
 62
     1
100
AcDbLine
 10
280.4092
 20
-27.6694
 30
0.0
 11
287.2273
 21
-27.6694
 31
0.0
  0
LINE
  5
12B
100
AcDbEntity
  8
1
  6
CONTINUOUS
 62
     1
100
AcDbLine
 10
273.3091
 20
-30.3694
 30
0.0
 11
275.3341
 21
-30.3694
 31
0.0
  0
LINE
  5
12C
100
AcDbEntity
  8
1
  6
HIDDEN
 62
     1
100
AcDbLine
 10
280.4773
 20
-30.3694
 30
0.0
 11
287.2273
 21
-30.3694
 31
0.0
  0
LINE
  5
12D
100
AcDbEntity
  8
1
  6
DASHED
 62
     1
100
AcDbLine
 10
287.2273
 20
-27.6694
 30
0.0
 11
287.2273
 21
-16.8694
 31
0.0
  0
LINE
  5
12E
100
AcDbEntity
  8
1
  6
DASHED
 62
     1
100
AcDbLine
 10
287.2273
 20
-41.1694
 30
0.0
 11
287.2273
 21
-30.3694
 31
0.0
  0
LINE
  5
12F
100
AcDbEntity
  8
1
  6
DASHED
 62
     1
100
AcDbLine
 10
289.9273
 20
-41.1694
 30
0.0
 11
289.9273
 21
-16.8694
 31
0.0
  0
LINE
  5
130
100
AcDbEntity
  8
1
  6
CONTINUOUS
 62
     1
100
AcDbLine
 10
287.2273
 20
-16.8694
 30
0.0
 11
289.9273
 21
-16.8694
 31
0.0
  0
LINE
  5
131
100
AcDbEntity
  8
1
  6
CONTINUOUS
 62
     1
100
AcDbLine
 10
287.2273
 20
-41.1694
 30
0.0
 11
289.9273
 21
-41.1694
 31
0.0
  0
LINE
  5
132
100
AcDbEntity
  8
1
  6
CONTINUOUS
 62
     1
100
AcDbLine
 10
276.6841
 20
-35.3299
 30
0.0
 11
276.6841
 21
-33.9799
 31
0.0
  0
LINE
  5
133
100
AcDbEntity
  8
1
  6
CONTINUOUS
 62
     1
100
AcDbLine
 10
276.6841
 20
-26.2174
 30
0.0
 11
276.6841
 21
-24.8674
 31
0.0
  0
LINE
  5
134
100
AcDbEntity
  8
1
  6
CONTINUOUS
 62
     1
100
AcDbLine
 10
279.3841
 20
-35.3299
 30
0.0
 11
279.3841
 21
-33.9799
 31
0.0
  0
LINE
  5
135
100
AcDbEntity
  8
1
  6
CONTINUOUS
 62
     1
100
AcDbLine
 10
279.3841
 20
-26.2174
 30
0.0
 11
279.3841
 21
-24.8674
 31
0.0
  0
LINE
  5
136
100
AcDbEntity
  8
1
  6
CONTINUOUS
 62
     1
100
AcDbLine
 10
278.0341
 20
-24.8674
 30
0.0
 11
278.0341
 21
-26.2174
 31
0.0
  0
LINE
  5
137
100
AcDbEntity
  8
1
  6
CONTINUOUS
 62
     7
100
AcDbLine
 10
278.0341
 20
-24.1924
 30
0.0
 11
278.0341
 21
-21.4924
 31
0.0
  0
LINE
  5
138
100
AcDbEntity
  8
1
  6
HIDDEN
 62
     7
100
AcDbLine
 10
278.0341
 20
-42.4174
 30
0.0
 11
278.0341
 21
-28.8175
 31
0.0
  0
LINE
  5
139
100
AcDbEntity
  8
1
  6
CONTINUOUS
 62
     1
100
AcDbLine
 10
279.3841
 20
-32.9674
 30
0.0
 11
279.3841
 21
-31.6174
 31
0.0
  0
LINE
  5
13A
100
AcDbEntity
  8
1
  6
CONTINUOUS
 62
     1
100
AcDbLine
 10
276.6841
 20
-32.9674
 30
0.0
 11
276.6841
 21
-31.6174
 31
0.0
  0
LINE
  5
13B
100
AcDbEntity
  8
1
  6
HIDDEN
 62
     1
100
AcDbLine
 10
176.5273
 20
-41.1694
 30
0.0
 11
176.5273
 21
-22.2694
 31
0.0
  0
LINE
  5
13C
100
AcDbEntity
  8
1
  6
HIDDEN
 62
     1
100
AcDbLine
 10
193.8206
 20
-27.6694
 30
0.0
 11
179.2273
 21
-27.6694
 31
0.0
  0
LINE
  5
13D
100
AcDbEntity
  8
1
  6
HIDDEN
 62
     1
100
AcDbLine
 10
193.8206
 20
-30.3694
 30
0.0
 11
179.2273
 21
-30.3694
 31
0.0
  0
LINE
  5
13E
100
AcDbEntity
  8
1
  6
HIDDEN
 62
     1
100
AcDbLine
 10
179.2273
 20
-27.6694
 30
0.0
 11
179.2273
 21
-22.2694
 31
0.0
  0
LINE
  5
13F
100
AcDbEntity
  8
1
  6
HIDDEN
 62
     1
100
AcDbLine
 10
179.2273
 20
-41.1694
 30
0.0
 11
179.2273
 21
-30.3694
 31
0.0
  0
LINE
  5
140
100
AcDbEntity
  8
1
  6
HIDDEN
 62
     1
100
AcDbLine
 10
179.2273
 20
-22.2694
 30
0.0
 11
176.5273
 21
-22.2694
 31
0.0
  0
LINE
  5
141
100
AcDbEntity
  8
1
  6
HIDDEN
 62
     1
100
AcDbLine
 10
179.2273
 20
-41.1694
 30
0.0
 11
176.5273
 21
-41.1694
 31
0.0
  0
LINE
  5
142
100
AcDbEntity
  8
1
  6
HIDDEN
 62
     1
100
AcDbLine
 10
193.8206
 20
-30.3694
 30
0.0
 11
193.8206
 21
-22.2694
 31
0.0
  0
LINE
  5
143
100
AcDbEntity
  8
1
  6
HIDDEN
 62
     1
100
AcDbLine
 10
196.5206
 20
-33.0694
 30
0.0
 11
179.2273
 21
-33.0694
 31
0.0
  0
LINE
  5
144
100
AcDbEntity
  8
1
  6
HIDDEN
 62
     1
100
AcDbLine
 10
193.8206
 20
-22.2694
 30
0.0
 11
196.5206
 21
-22.2694
 31
0.0
  0
LINE
  5
145
100
AcDbEntity
  8
1
  6
HIDDEN
 62
     1
100
AcDbLine
 10
196.5206
 20
-19.5694
 30
0.0
 11
196.5206
 21
-46.5694
 31
0.0
  0
LINE
  5
146
100
AcDbEntity
  8
1
  6
HIDDEN
 62
     1
100
AcDbLine
 10
196.5206
 20
-19.5694
 30
0.0
 11
206.6201
 21
-19.5694
 31
0.0
  0
LINE
  5
147
100
AcDbEntity
  8
1
  6
HIDDEN
 62
     1
100
AcDbLine
 10
196.5206
 20
-46.5694
 30
0.0
 11
207.2002
 21
-46.5694
 31
0.0
  0
LINE
  5
148
100
AcDbEntity
  8
1
  6
HIDDEN
 62
     1
100
AcDbLine
 10
199.2206
 20
-22.2694
 30
0.0
 11
209.1652
 21
-22.2694
 31
0.0
  0
LINE
  5
149
100
AcDbEntity
  8
1
  6
HIDDEN
 62
     1
100
AcDbLine
 10
199.2206
 20
-43.8694
 30
0.0
 11
209.6747
 21
-43.8694
 31
0.0
  0
LINE
  5
14A
100
AcDbEntity
  8
1
  6
HIDDEN
 62
     1
100
AcDbLine
 10
199.2206
 20
-22.2694
 30
0.0
 11
199.2206
 21
-43.8694
 31
0.0
  0
LINE
  5
14B
100
AcDbEntity
  8
1
  6
CONTINUOUS
 62
     1
100
AcDbLine
 10
245.7038
 20
-146.1627
 30
0.0
 11
224.1038
 21
-146.1627
 31
0.0
  0
LINE
  5
14C
100
AcDbEntity
  8
1
  6
CONTINUOUS
 62
     1
100
AcDbLine
 10
236.4158
 20
-150.2667
 30
0.0
 11
236.4158
 21
-146.1627
 31
0.0
  0
LINE
  5
14D
100
AcDbEntity
  8
1
  6
CONTINUOUS
 62
     1
100
AcDbLine
 10
239.4938
 20
-150.2667
 30
0.0
 11
239.4938
 21
-146.1627
 31
0.0
  0
LINE
  5
14E
100
AcDbEntity
  8
1
  6
CONTINUOUS
 62
     1
100
AcDbLine
 10
242.6258
 20
-150.2667
 30
0.0
 11
242.6258
 21
-146.1627
 31
0.0
  0
LINE
  5
14F
100
AcDbEntity
  8
1
  6
CONTINUOUS
 62
     1
100
AcDbLine
 10
237.9278
 20
-149.5917
 30
0.0
 11
237.9278
 21
-146.8377
 31
0.0
  0
LINE
  5
150
100
AcDbEntity
  8
1
  6
CONTINUOUS
 62
     1
100
AcDbLine
 10
241.0598
 20
-149.5917
 30
0.0
 11
241.0598
 21
-146.8377
 31
0.0
  0
LINE
  5
151
100
AcDbEntity
  8
1
  6
CONTINUOUS
 62
     1
100
AcDbLine
 10
244.1918
 20
-149.5917
 30
0.0
 11
244.1918
 21
-146.8377
 31
0.0
  0
LINE
  5
152
100
AcDbEntity
  8
1
  6
CONTINUOUS
 62
     1
100
AcDbLine
 10
245.7038
 20
-150.2667
 30
0.0
 11
226.8038
 21
-150.2667
 31
0.0
  0
LINE
  5
153
100
AcDbEntity
  8
1
  6
CONTINUOUS
 62
     1
100
AcDbLine
 10
253.9118
 20
-143.4627
 30
0.0
 11
248.4578
 21
-143.4627
 31
0.0
  0
LINE
  5
154
100
AcDbEntity
  8
1
  6
CONTINUOUS
 62
     1
100
AcDbLine
 10
253.9118
 20
-153.0207
 30
0.0
 11
248.4578
 21
-153.0207
 31
0.0
  0
LINE
  5
155
100
AcDbEntity
  8
1
  6
CONTINUOUS
 62
     1
100
AcDbLine
 10
253.9118
 20
-143.4627
 30
0.0
 11
253.9118
 21
-153.0207
 31
0.0
  0
LINE
  5
156
100
AcDbEntity
  8
1
  6
CONTINUOUS
 62
     1
100
AcDbLine
 10
258.1238
 20
-146.1627
 30
0.0
 11
253.9118
 21
-146.1627
 31
0.0
  0
LINE
  5
157
100
AcDbEntity
  8
1
  6
CONTINUOUS
 62
     1
100
AcDbLine
 10
253.9118
 20
-146.1627
 30
0.0
 11
248.4578
 21
-146.1627
 31
0.0
  0
LINE
  5
158
100
AcDbEntity
  8
1
  6
CONTINUOUS
 62
     1
100
AcDbLine
 10
258.1238
 20
-150.2667
 30
0.0
 11
253.9118
 21
-150.2667
 31
0.0
  0
LINE
  5
159
100
AcDbEntity
  8
1
  6
CONTINUOUS
 62
     1
100
AcDbLine
 10
253.9118
 20
-150.2667
 30
0.0
 11
248.4578
 21
-150.2667
 31
0.0
  0
LINE
  5
15A
100
AcDbEntity
  8
1
  6
CONTINUOUS
 62
     1
100
AcDbLine
 10
258.1238
 20
-150.2667
 30
0.0
 11
258.1238
 21
-146.1627
 31
0.0
  0
LINE
  5
15B
100
AcDbEntity
  8
1
  6
CONTINUOUS
 62
     1
100
AcDbLine
 10
215.8958
 20
-150.2667
 30
0.0
 11
221.3498
 21
-150.2667
 31
0.0
  0
LINE
  5
15C
100
AcDbEntity
  8
1
  6
CONTINUOUS
 62
     1
100
AcDbLine
 10
215.8958
 20
-143.4087
 30
0.0
 11
215.8958
 21
-152.9667
 31
0.0
  0
LINE
  5
15D
100
AcDbEntity
  8
1
  6
CONTINUOUS
 62
     1
100
AcDbLine
 10
215.8958
 20
-143.4087
 30
0.0
 11
221.3498
 21
-143.4087
 31
0.0
  0
LINE
  5
15E
100
AcDbEntity
  8
1
  6
CONTINUOUS
 62
     1
100
AcDbLine
 10
215.8958
 20
-152.9667
 30
0.0
 11
221.3498
 21
-152.9667
 31
0.0
  0
LINE
  5
15F
100
AcDbEntity
  8
1
  6
CONTINUOUS
 62
     1
100
AcDbLine
 10
215.8958
 20
-146.1627
 30
0.0
 11
221.3498
 21
-146.1627
 31
0.0
  0
LINE
  5
160
100
AcDbEntity
  8
1
  6
CONTINUOUS
 62
     1
100
AcDbLine
 10
255.994
 20
-149.5917
 30
0.0
 11
255.994
 21
-146.8377
 31
0.0
  0
LINE
  5
161
100
AcDbEntity
  8
1
  6
CONTINUOUS
 62
     7
100
AcDbLine
 10
209.2646
 20
-148.1877
 30
0.0
 11
234.214
 21
-148.1877
 31
0.0
  0
LINE
  5
162
100
AcDbEntity
  8
1
  6
CONTINUOUS
 62
     7
100
AcDbLine
 10
235.564
 20
-148.1877
 30
0.0
 11
238.264
 21
-148.1877
 31
0.0
  0
LINE
  5
163
100
AcDbEntity
  8
1
  6
CONTINUOUS
 62
     7
100
AcDbLine
 10
239.614
 20
-148.1877
 30
0.0
 11
259.4738
 21
-148.1877
 31
0.0
  0
LINE
  5
164
100
AcDbEntity
  8
1
  6
CONTINUOUS
 62
     1
100
AcDbLine
 10
221.3498
 20
-138.0087
 30
0.0
 11
221.3498
 21
-158.3667
 31
0.0
  0
LINE
  5
165
100
AcDbEntity
  8
1
  6
CONTINUOUS
 62
     1
100
AcDbLine
 10
224.1038
 20
-138.0087
 30
0.0
 11
224.1038
 21
-158.3667
 31
0.0
  0
LINE
  5
166
100
AcDbEntity
  8
1
  6
CONTINUOUS
 62
     1
100
AcDbLine
 10
245.7038
 20
-138.0087
 30
0.0
 11
245.7038
 21
-158.3667
 31
0.0
  0
LINE
  5
167
100
AcDbEntity
  8
1
  6
CONTINUOUS
 62
     1
100
AcDbLine
 10
248.4578
 20
-138.0087
 30
0.0
 11
248.4578
 21
-158.3667
 31
0.0
  0
LINE
  5
168
100
AcDbEntity
  8
1
  6
CONTINUOUS
 62
     1
100
AcDbLine
 10
243.0038
 20
-138.0087
 30
0.0
 11
243.0038
 21
-158.3667
 31
0.0
  0
LINE
  5
169
100
AcDbEntity
  8
1
  6
CONTINUOUS
 62
     1
100
AcDbLine
 10
203.8538
 20
-138.0087
 30
0.0
 11
203.8538
 21
-158.3667
 31
0.0
  0
LINE
  5
16A
100
AcDbEntity
  8
1
  6
CONTINUOUS
 62
     1
100
AcDbLine
 10
203.8538
 20
-138.0087
 30
0.0
 11
226.8038
 21
-138.0087
 31
0.0
  0
LINE
  5
16B
100
AcDbEntity
  8
1
  6
CONTINUOUS
 62
     1
100
AcDbLine
 10
203.8538
 20
-158.3667
 30
0.0
 11
226.8038
 21
-158.3667
 31
0.0
  0
LINE
  5
16C
100
AcDbEntity
  8
1
  6
CONTINUOUS
 62
     1
100
AcDbLine
 10
267.3038
 20
-138.0087
 30
0.0
 11
267.3038
 21
-158.3667
 31
0.0
  0
LINE
  5
16D
100
AcDbEntity
  8
1
  6
CONTINUOUS
 62
     1
100
AcDbLine
 10
243.0038
 20
-138.0087
 30
0.0
 11
272.7038
 21
-138.0087
 31
0.0
  0
LINE
  5
16E
100
AcDbEntity
  8
1
  6
CONTINUOUS
 62
     1
100
AcDbLine
 10
243.0038
 20
-158.3667
 30
0.0
 11
272.7038
 21
-158.3667
 31
0.0
  0
LINE
  5
16F
100
AcDbEntity
  8
1
  6
HIDDEN
 62
     1
100
AcDbLine
 10
206.5538
 20
-138.0087
 30
0.0
 11
206.5538
 21
-158.3667
 31
0.0
  0
LINE
  5
170
100
AcDbEntity
  8
1
  6
HIDDEN
 62
     1
100
AcDbLine
 10
272.7038
 20
-138.0087
 30
0.0
 11
272.7038
 21
-158.3667
 31
0.0
  0
LINE
  5
171
100
AcDbEntity
  8
1
  6
CONTINUOUS
 62
     1
100
AcDbLine
 10
275.4038
 20
-140.7087
 30
0.0
 11
275.4038
 21
-155.6667
 31
0.0
  0
LINE
  5
172
100
AcDbEntity
  8
1
  6
CONTINUOUS
 62
     1
100
AcDbLine
 10
275.4038
 20
-140.7087
 30
0.0
 11
289.9273
 21
-140.7087
 31
0.0
  0
LINE
  5
173
100
AcDbEntity
  8
1
  6
CONTINUOUS
 62
     1
100
AcDbLine
 10
275.4038
 20
-155.6667
 30
0.0
 11
289.9273
 21
-155.6667
 31
0.0
  0
LINE
  5
174
100
AcDbEntity
  8
1
  6
CONTINUOUS
 62
     1
100
AcDbLine
 10
226.8038
 20
-138.0087
 30
0.0
 11
226.8038
 21
-146.1627
 31
0.0
  0
LINE
  5
175
100
AcDbEntity
  8
1
  6
CONTINUOUS
 62
     1
100
AcDbLine
 10
226.8038
 20
-150.2667
 30
0.0
 11
226.8038
 21
-158.3667
 31
0.0
  0
LINE
  5
176
100
AcDbEntity
  8
1
  6
CONTINUOUS
 62
     1
100
AcDbLine
 10
289.9273
 20
-140.7087
 30
0.0
 11
289.9273
 21
-155.6667
 31
0.0
  0
LINE
  5
177
100
AcDbEntity
  8
1
  6
HIDDEN
 62
     1
100
AcDbLine
 10
176.5273
 20
-105.6087
 30
0.0
 11
176.5273
 21
-190.7667
 31
0.0
  0
LINE
  5
178
100
AcDbEntity
  8
1
  6
HIDDEN
 62
     1
100
AcDbLine
 10
179.2273
 20
-105.6087
 30
0.0
 11
179.2273
 21
-190.7667
 31
0.0
  0
LINE
  5
179
100
AcDbEntity
  8
1
  6
HIDDEN
 62
     1
100
AcDbLine
 10
194.0773
 20
-105.6087
 30
0.0
 11
194.0773
 21
-190.7667
 31
0.0
  0
LINE
  5
17A
100
AcDbEntity
  8
1
  6
HIDDEN
 62
     1
100
AcDbLine
 10
196.7773
 20
-117.7587
 30
0.0
 11
196.7773
 21
-178.6167
 31
0.0
  0
LINE
  5
17B
100
AcDbEntity
  8
1
  6
HIDDEN
 62
     1
100
AcDbLine
 10
196.7773
 20
-117.7587
 30
0.0
 11
179.2273
 21
-117.7587
 31
0.0
  0
LINE
  5
17C
100
AcDbEntity
  8
1
  6
HIDDEN
 62
     1
100
AcDbLine
 10
196.7773
 20
-178.6167
 30
0.0
 11
179.2273
 21
-178.6167
 31
0.0
  0
LINE
  5
17D
100
AcDbEntity
  8
1
  6
HIDDEN
 62
     1
100
AcDbLine
 10
199.4773
 20
-138.0087
 30
0.0
 11
199.4773
 21
-158.3667
 31
0.0
  0
LINE
  5
17E
100
AcDbEntity
  8
1
  6
HIDDEN
 62
     1
100
AcDbLine
 10
203.8538
 20
-138.0087
 30
0.0
 11
196.7773
 21
-138.0087
 31
0.0
  0
LINE
  5
17F
100
AcDbEntity
  8
1
  6
HIDDEN
 62
     1
100
AcDbLine
 10
203.8538
 20
-158.3667
 30
0.0
 11
196.7773
 21
-158.3667
 31
0.0
  0
LINE
  5
180
100
AcDbEntity
  8
1
  6
CONTINUOUS
 62
     1
100
AcDbLine
 10
272.7038
 20
-138.0087
 30
0.0
 11
275.4038
 21
-140.7087
 31
0.0
  0
LINE
  5
181
100
AcDbEntity
  8
1
  6
CONTINUOUS
 62
     1
100
AcDbLine
 10
272.7038
 20
-158.3667
 30
0.0
 11
275.4038
 21
-155.6667
 31
0.0
  0
LINE
  5
182
100
AcDbEntity
  8
1
  6
CONTINUOUS
 62
     1
100
AcDbLine
 10
185.3023
 20
-111.0087
 30
0.0
 11
185.3023
 21
-100.2087
 31
0.0
  0
LINE
  5
183
100
AcDbEntity
  8
1
  6
CONTINUOUS
 62
     1
100
AcDbLine
 10
185.3023
 20
-100.2087
 30
0.0
 11
181.9903
 21
-105.6087
 31
0.0
  0
LINE
  5
184
100
AcDbEntity
  8
1
  6
CONTINUOUS
 62
     1
100
AcDbLine
 10
185.3023
 20
-111.0087
 30
0.0
 11
188.6143
 21
-105.6087
 31
0.0
  0
LINE
  5
185
100
AcDbEntity
  8
1
  6
CONTINUOUS
 62
     1
100
AcDbLine
 10
172.4773
 20
-105.6087
 30
0.0
 11
181.9903
 21
-105.6087
 31
0.0
  0
LINE
  5
186
100
AcDbEntity
  8
1
  6
CONTINUOUS
 62
     1
100
AcDbLine
 10
188.6143
 20
-105.6087
 30
0.0
 11
198.1273
 21
-105.6087
 31
0.0
  0
LINE
  5
187
100
AcDbEntity
  8
1
  6
CONTINUOUS
 62
     1
100
AcDbLine
 10
185.3023
 20
-196.1667
 30
0.0
 11
185.3023
 21
-185.3667
 31
0.0
  0
LINE
  5
188
100
AcDbEntity
  8
1
  6
CONTINUOUS
 62
     1
100
AcDbLine
 10
185.3023
 20
-185.3667
 30
0.0
 11
181.9903
 21
-190.7667
 31
0.0
  0
LINE
  5
189
100
AcDbEntity
  8
1
  6
CONTINUOUS
 62
     1
100
AcDbLine
 10
185.3023
 20
-196.1667
 30
0.0
 11
188.6143
 21
-190.7667
 31
0.0
  0
LINE
  5
18A
100
AcDbEntity
  8
1
  6
CONTINUOUS
 62
     1
100
AcDbLine
 10
172.4773
 20
-190.7667
 30
0.0
 11
181.9903
 21
-190.7667
 31
0.0
  0
LINE
  5
18B
100
AcDbEntity
  8
1
  6
CONTINUOUS
 62
     1
100
AcDbLine
 10
188.6143
 20
-190.7667
 30
0.0
 11
198.1273
 21
-190.7667
 31
0.0
  0
LINE
  5
18C
100
AcDbEntity
  8
1
  6
CONTINUOUS
 62
     7
100
AcDbLine
 10
199.4773
 20
-128.5587
 30
0.0
 11
189.3523
 21
-128.5587
 31
0.0
  0
LINE
  5
18D
100
AcDbEntity
  8
1
  6
CONTINUOUS
 62
     7
100
AcDbLine
 10
181.2523
 20
-128.5587
 30
0.0
 11
177.8773
 21
-128.5587
 31
0.0
  0
LINE
  5
18E
100
AcDbEntity
  8
1
  6
CONTINUOUS
 62
     7
100
AcDbLine
 10
185.3023
 20
-116.4087
 30
0.0
 11
185.3023
 21
-124.5087
 31
0.0
  0
LINE
  5
18F
100
AcDbEntity
  8
1
  6
CONTINUOUS
 62
     7
100
AcDbLine
 10
185.3023
 20
-132.6087
 30
0.0
 11
185.3023
 21
-163.7667
 31
0.0
  0
LINE
  5
190
100
AcDbEntity
  8
1
  6
CONTINUOUS
 62
     7
100
AcDbLine
 10
185.3023
 20
-171.8667
 30
0.0
 11
185.3023
 21
-179.9667
 31
0.0
  0
LINE
  5
191
100
AcDbEntity
  8
1
  6
CONTINUOUS
 62
     7
100
AcDbLine
 10
199.4773
 20
-167.8167
 30
0.0
 11
189.3523
 21
-167.8167
 31
0.0
  0
LINE
  5
192
100
AcDbEntity
  8
1
  6
CONTINUOUS
 62
     7
100
AcDbLine
 10
181.2523
 20
-167.8167
 30
0.0
 11
177.8773
 21
-167.8167
 31
0.0
  0
LINE
  5
193
100
AcDbEntity
  8
1
  6
CONTINUOUS
 62
     7
100
AcDbLine
 10
183.9523
 20
-128.5587
 30
0.0
 11
186.6523
 21
-128.5587
 31
0.0
  0
LINE
  5
194
100
AcDbEntity
  8
1
  6
CONTINUOUS
 62
     7
100
AcDbLine
 10
185.3023
 20
-127.2087
 30
0.0
 11
185.3023
 21
-129.9087
 31
0.0
  0
LINE
  5
195
100
AcDbEntity
  8
1
  6
CONTINUOUS
 62
     7
100
AcDbLine
 10
185.3023
 20
-166.4667
 30
0.0
 11
185.3023
 21
-169.1667
 31
0.0
  0
LINE
  5
196
100
AcDbEntity
  8
1
  6
CONTINUOUS
 62
     7
100
AcDbLine
 10
183.9523
 20
-167.8167
 30
0.0
 11
186.6523
 21
-167.8167
 31
0.0
  0
CIRCLE
  5
197
100
AcDbEntity
  8
1
  6
HIDDEN
 62
     1
100
AcDbCircle
 10
185.30225
 20
-128.558575
 30
0.0
 40
2.7
210
0.0
220
0.0
230
1.0
  0
CIRCLE
  5
198
100
AcDbEntity
  8
1
  6
HIDDEN
 62
     1
100
AcDbCircle
 10
185.30225
 20
-167.816575
 30
0.0
 40
2.7
210
0.0
220
0.0
230
1.0
  0
LINE
  5
199
100
AcDbEntity
  8
1
  6
CONTINUOUS
 62
     7
100
AcDbLine
 10
260.8238
 20
-148.1877
 30
0.0
 11
263.5238
 21
-148.1877
 31
0.0
  0
LINE
  5
19A
100
AcDbEntity
  8
1
  6
CONTINUOUS
 62
     7
100
AcDbLine
 10
264.8738
 20
-148.1877
 30
0.0
 11
276.0788
 21
-148.1877
 31
0.0
  0
LINE
  5
19B
100
AcDbEntity
  8
1
  6
CONTINUOUS
 62
     7
100
AcDbLine
 10
288.7406
 20
-148.1877
 30
0.0
 11
293.9773
 21
-148.1877
 31
0.0
  0
LINE
  5
19C
100
AcDbEntity
  8
1
  6
CONTINUOUS
 62
     7
100
AcDbLine
 10
276.7538
 20
-148.1877
 30
0.0
 11
280.6406
 21
-148.1877
 31
0.0
  0
LINE
  5
19D
100
AcDbEntity
  8
1
  6
CONTINUOUS
 62
     7
100
AcDbLine
 10
283.3406
 20
-148.1877
 30
0.0
 11
286.0406
 21
-148.1877
 31
0.0
  0
CIRCLE
  5
19E
100
AcDbEntity
  8
1
  6
CONTINUOUS
 62
     1
100
AcDbCircle
 10
284.6906
 20
-148.187575
 30
0.0
 40
2.7
210
0.0
220
0.0
230
1.0
  0
LINE
  5
19F
100
AcDbEntity
  8
1
  6
CONTINUOUS
 62
     7
100
AcDbLine
 10
284.6906
 20
-146.8377
 30
0.0
 11
284.6906
 21
-149.5377
 31
0.0
  0
LINE
  5
1A0
100
AcDbEntity
  8
1
  6
CONTINUOUS
 62
     7
100
AcDbLine
 10
284.6906
 20
-144.1377
 30
0.0
 11
284.6906
 21
-138.0087
 31
0.0
  0
LINE
  5
1A1
100
AcDbEntity
  8
1
  6
CONTINUOUS
 62
     7
100
AcDbLine
 10
284.6906
 20
-152.2377
 30
0.0
 11
284.6906
 21
-158.3667
 31
0.0
  0
LINE
  5
1A2
100
AcDbEntity
  8
1
  6
CONTINUOUS
 62
     1
100
AcDbLine
 10
447.5968
 20
0.1871
 30
0.0
 11
446.2108
 21
16.0274
 31
0.0
  0
LINE
  5
1A3
100
AcDbEntity
  8
1
  6
CONTINUOUS
 62
     1
100
AcDbLine
 10
450.5634
 20
-2.1234
 30
0.0
 11
448.9545
 21
16.2674
 31
0.0
  0
LINE
  5
1A4
100
AcDbEntity
  8
1
  6
CONTINUOUS
 62
     1
100
AcDbLine
 10
474.1605
 20
0.1869
 30
0.0
 11
475.5463
 21
16.0274
 31
0.0
  0
LINE
  5
1A5
100
AcDbEntity
  8
1
  6
CONTINUOUS
 62
     1
100
AcDbLine
 10
471.1936
 20
-2.1234
 30
0.0
 11
472.8028
 21
16.2674
 31
0.0
  0
LINE
  5
1A6
100
AcDbEntity
  8
1
  6
CONTINUOUS
 62
     1
100
AcDbLine
 10
446.2108
 20
16.0274
 30
0.0
 11
448.9545
 21
16.2674
 31
0.0
  0
LINE
  5
1A7
100
AcDbEntity
  8
1
  6
CONTINUOUS
 62
     1
100
AcDbLine
 10
472.8028
 20
16.2674
 30
0.0
 11
475.5463
 21
16.0274
 31
0.0
  0
ARC
  5
1A8
100
AcDbEntity
  8
1
  6
CONTINUOUS
 62
     1
100
AcDbCircle
 10
460.878475
 20
-29.76415
 30
0.0
 40
27.634604
210
0.0
220
0.0
230
1.0
100
AcDbArc
 50
115.386097
 51
243.691022
  0
ARC
  5
1A9
100
AcDbEntity
  8
1
  6
CONTINUOUS
 62
     1
100
AcDbCircle
 10
460.878475
 20
-29.76415
 30
0.0
 40
31.036064
210
0.0
220
0.0
230
1.0
100
AcDbArc
 50
118.256781
 51
241.304261
  0
ARC
  5
1AA
100
AcDbEntity
  8
1
  6
CONTINUOUS
 62
     1
100
AcDbCircle
 10
444.907015
 20
-0.048254
 30
0.0
 40
2.7
210
0.0
220
0.0
230
1.0
100
AcDbArc
 50
298.256781
 51
5.000594
  0
ARC
  5
1AB
100
AcDbEntity
  8
1
  6
CONTINUOUS
 62
     1
100
AcDbCircle
 10
476.850138
 20
-0.048363
 30
0.0
 40
2.7
210
0.0
220
0.0
230
1.0
100
AcDbArc
 50
175.000167
 51
241.742828
  0
ARC
  5
1AC
100
AcDbEntity
  8
1
  6
CONTINUOUS
 62
     1
100
AcDbCircle
 10
447.873547
 20
-2.358676
 30
0.0
 40
2.7
210
0.0
220
0.0
230
1.0
100
AcDbArc
 50
295.386097
 51
4.999717
  0
ARC
  5
1AD
100
AcDbEntity
  8
1
  6
CONTINUOUS
 62
     1
100
AcDbCircle
 10
473.883406
 20
-2.358677
 30
0.0
 40
2.7
210
0.0
220
0.0
230
1.0
100
AcDbArc
 50
174.999597
 51
244.613897
  0
LINE
  5
1AE
100
AcDbEntity
  8
1
  6
CONTINUOUS
 62
     1
100
AcDbLine
 10
441.8301
 20
13.1505
 30
0.0
 11
446.4625
 21
13.1505
 31
0.0
  0
LINE
  5
1AF
100
AcDbEntity
  8
1
  6
CONTINUOUS
 62
     1
100
AcDbLine
 10
472.2892
 20
10.3965
 30
0.0
 11
449.4681
 21
10.3965
 31
0.0
  0
LINE
  5
1B0
100
AcDbEntity
  8
1
  6
CONTINUOUS
 62
     1
100
AcDbLine
 10
462.3501
 20
6.2925
 30
0.0
 11
462.3501
 21
10.3965
 31
0.0
  0
LINE
  5
1B1
100
AcDbEntity
  8
1
  6
CONTINUOUS
 62
     1
100
AcDbLine
 10
465.4281
 20
6.2925
 30
0.0
 11
465.4281
 21
10.3965
 31
0.0
  0
LINE
  5
1B2
100
AcDbEntity
  8
1
  6
CONTINUOUS
 62
     1
100
AcDbLine
 10
468.5601
 20
6.2925
 30
0.0
 11
468.5601
 21
10.3965
 31
0.0
  0
LINE
  5
1B3
100
AcDbEntity
  8
1
  6
CONTINUOUS
 62
     1
100
AcDbLine
 10
463.8621
 20
6.9675
 30
0.0
 11
463.8621
 21
9.7215
 31
0.0
  0
LINE
  5
1B4
100
AcDbEntity
  8
1
  6
CONTINUOUS
 62
     1
100
AcDbLine
 10
466.9941
 20
6.9675
 30
0.0
 11
466.9941
 21
9.7215
 31
0.0
  0
LINE
  5
1B5
100
AcDbEntity
  8
1
  6
CONTINUOUS
 62
     1
100
AcDbLine
 10
470.1261
 20
6.9675
 30
0.0
 11
470.1261
 21
9.7215
 31
0.0
  0
LINE
  5
1B6
100
AcDbEntity
  8
1
  6
CONTINUOUS
 62
     1
100
AcDbLine
 10
471.9301
 20
6.2925
 30
0.0
 11
449.8272
 21
6.2925
 31
0.0
  0
LINE
  5
1B7
100
AcDbEntity
  8
1
  6
CONTINUOUS
 62
     1
100
AcDbLine
 10
479.8461
 20
13.0965
 30
0.0
 11
475.2898
 21
13.0965
 31
0.0
  0
LINE
  5
1B8
100
AcDbEntity
  8
1
  6
CONTINUOUS
 62
     1
100
AcDbLine
 10
479.8461
 20
3.5385
 30
0.0
 11
474.4537
 21
3.5385
 31
0.0
  0
LINE
  5
1B9
100
AcDbEntity
  8
1
  6
CONTINUOUS
 62
     1
100
AcDbLine
 10
479.8461
 20
13.0965
 30
0.0
 11
479.8461
 21
3.5385
 31
0.0
  0
LINE
  5
1BA
100
AcDbEntity
  8
1
  6
CONTINUOUS
 62
     1
100
AcDbLine
 10
484.0581
 20
10.3965
 30
0.0
 11
479.8461
 21
10.3965
 31
0.0
  0
LINE
  5
1BB
100
AcDbEntity
  8
1
  6
CONTINUOUS
 62
     1
100
AcDbLine
 10
479.8461
 20
10.3965
 30
0.0
 11
475.0537
 21
10.3965
 31
0.0
  0
LINE
  5
1BC
100
AcDbEntity
  8
1
  6
CONTINUOUS
 62
     1
100
AcDbLine
 10
484.0581
 20
6.2925
 30
0.0
 11
479.8461
 21
6.2925
 31
0.0
  0
LINE
  5
1BD
100
AcDbEntity
  8
1
  6
CONTINUOUS
 62
     1
100
AcDbLine
 10
479.8461
 20
6.2925
 30
0.0
 11
474.6946
 21
6.2925
 31
0.0
  0
LINE
  5
1BE
100
AcDbEntity
  8
1
  6
CONTINUOUS
 62
     1
100
AcDbLine
 10
484.0581
 20
6.2925
 30
0.0
 11
484.0581
 21
10.3965
 31
0.0
  0
LINE
  5
1BF
100
AcDbEntity
  8
1
  6
CONTINUOUS
 62
     1
100
AcDbLine
 10
441.8301
 20
6.2925
 30
0.0
 11
447.0627
 21
6.2925
 31
0.0
  0
LINE
  5
1C0
100
AcDbEntity
  8
1
  6
CONTINUOUS
 62
     1
100
AcDbLine
 10
441.8301
 20
13.1505
 30
0.0
 11
441.8301
 21
3.5925
 31
0.0
  0
LINE
  5
1C1
100
AcDbEntity
  8
1
  6
CONTINUOUS
 62
     1
100
AcDbLine
 10
441.8301
 20
3.5925
 30
0.0
 11
447.2989
 21
3.5925
 31
0.0
  0
LINE
  5
1C2
100
AcDbEntity
  8
1
  6
CONTINUOUS
 62
     1
100
AcDbLine
 10
441.8301
 20
10.3965
 30
0.0
 11
446.7036
 21
10.3965
 31
0.0
  0
LINE
  5
1C3
100
AcDbEntity
  8
1
  6
CONTINUOUS
 62
     1
100
AcDbLine
 10
481.9282
 20
6.9675
 30
0.0
 11
481.9282
 21
9.7215
 31
0.0
  0
LINE
  5
1C4
100
AcDbEntity
  8
1
  6
CONTINUOUS
 62
     7
100
AcDbLine
 10
439.1301
 20
8.3715
 30
0.0
 11
460.2441
 21
8.3715
 31
0.0
  0
LINE
  5
1C5
100
AcDbEntity
  8
1
  6
CONTINUOUS
 62
     7
100
AcDbLine
 10
465.6441
 20
8.3715
 30
0.0
 11
486.7581
 21
8.3715
 31
0.0
  0
LINE
  5
1C6
100
AcDbEntity
  8
1
  6
CONTINUOUS
 62
     7
100
AcDbLine
 10
461.5941
 20
8.3715
 30
0.0
 11
464.2941
 21
8.3715
 31
0.0
  0
LINE
  5
1C7
100
AcDbEntity
  8
1
  6
CONTINUOUS
 62
     1
100
AcDbLine
 10
468.2893
 20
-133.1269
 30
0.0
 11
446.6893
 21
-133.1269
 31
0.0
  0
LINE
  5
1C8
100
AcDbEntity
  8
1
  6
CONTINUOUS
 62
     1
100
AcDbLine
 10
459.0013
 20
-137.2309
 30
0.0
 11
459.0013
 21
-133.1269
 31
0.0
  0
LINE
  5
1C9
100
AcDbEntity
  8
1
  6
CONTINUOUS
 62
     1
100
AcDbLine
 10
462.0793
 20
-137.2309
 30
0.0
 11
462.0793
 21
-133.1269
 31
0.0
  0
LINE
  5
1CA
100
AcDbEntity
  8
1
  6
CONTINUOUS
 62
     1
100
AcDbLine
 10
465.2113
 20
-137.2309
 30
0.0
 11
465.2113
 21
-133.1269
 31
0.0
  0
LINE
  5
1CB
100
AcDbEntity
  8
1
  6
CONTINUOUS
 62
     1
100
AcDbLine
 10
460.5133
 20
-136.5559
 30
0.0
 11
460.5133
 21
-133.8019
 31
0.0
  0
LINE
  5
1CC
100
AcDbEntity
  8
1
  6
CONTINUOUS
 62
     1
100
AcDbLine
 10
463.6453
 20
-136.5559
 30
0.0
 11
463.6453
 21
-133.8019
 31
0.0
  0
LINE
  5
1CD
100
AcDbEntity
  8
1
  6
CONTINUOUS
 62
     1
100
AcDbLine
 10
466.7773
 20
-136.5559
 30
0.0
 11
466.7773
 21
-133.8019
 31
0.0
  0
LINE
  5
1CE
100
AcDbEntity
  8
1
  6
CONTINUOUS
 62
     1
100
AcDbLine
 10
468.2893
 20
-137.2309
 30
0.0
 11
446.6893
 21
-137.2309
 31
0.0
  0
LINE
  5
1CF
100
AcDbEntity
  8
1
  6
CONTINUOUS
 62
     1
100
AcDbLine
 10
476.4973
 20
-130.4269
 30
0.0
 11
471.0433
 21
-130.4269
 31
0.0
  0
LINE
  5
1D0
100
AcDbEntity
  8
1
  6
CONTINUOUS
 62
     1
100
AcDbLine
 10
476.4973
 20
-139.9849
 30
0.0
 11
471.0433
 21
-139.9849
 31
0.0
  0
LINE
  5
1D1
100
AcDbEntity
  8
1
  6
CONTINUOUS
 62
     1
100
AcDbLine
 10
476.4973
 20
-130.4269
 30
0.0
 11
476.4973
 21
-139.9849
 31
0.0
  0
LINE
  5
1D2
100
AcDbEntity
  8
1
  6
CONTINUOUS
 62
     1
100
AcDbLine
 10
480.7093
 20
-133.1269
 30
0.0
 11
476.4973
 21
-133.1269
 31
0.0
  0
LINE
  5
1D3
100
AcDbEntity
  8
1
  6
CONTINUOUS
 62
     1
100
AcDbLine
 10
476.4973
 20
-133.1269
 30
0.0
 11
471.0433
 21
-133.1269
 31
0.0
  0
LINE
  5
1D4
100
AcDbEntity
  8
1
  6
CONTINUOUS
 62
     1
100
AcDbLine
 10
480.7093
 20
-137.2309
 30
0.0
 11
476.4973
 21
-137.2309
 31
0.0
  0
LINE
  5
1D5
100
AcDbEntity
  8
1
  6
CONTINUOUS
 62
     1
100
AcDbLine
 10
476.4973
 20
-137.2309
 30
0.0
 11
471.0433
 21
-137.2309
 31
0.0
  0
LINE
  5
1D6
100
AcDbEntity
  8
1
  6
CONTINUOUS
 62
     1
100
AcDbLine
 10
480.7093
 20
-137.2309
 30
0.0
 11
480.7093
 21
-133.1269
 31
0.0
  0
LINE
  5
1D7
100
AcDbEntity
  8
1
  6
CONTINUOUS
 62
     1
100
AcDbLine
 10
438.4813
 20
-137.2309
 30
0.0
 11
443.9353
 21
-137.2309
 31
0.0
  0
LINE
  5
1D8
100
AcDbEntity
  8
1
  6
CONTINUOUS
 62
     1
100
AcDbLine
 10
438.4813
 20
-130.3729
 30
0.0
 11
438.4813
 21
-139.9309
 31
0.0
  0
LINE
  5
1D9
100
AcDbEntity
  8
1
  6
CONTINUOUS
 62
     1
100
AcDbLine
 10
438.4813
 20
-130.3729
 30
0.0
 11
443.9353
 21
-130.3729
 31
0.0
  0
LINE
  5
1DA
100
AcDbEntity
  8
1
  6
CONTINUOUS
 62
     1
100
AcDbLine
 10
438.4813
 20
-139.9309
 30
0.0
 11
443.9353
 21
-139.9309
 31
0.0
  0
LINE
  5
1DB
100
AcDbEntity
  8
1
  6
CONTINUOUS
 62
     1
100
AcDbLine
 10
438.4813
 20
-133.1269
 30
0.0
 11
443.9353
 21
-133.1269
 31
0.0
  0
LINE
  5
1DC
100
AcDbEntity
  8
1
  6
CONTINUOUS
 62
     1
100
AcDbLine
 10
478.5795
 20
-136.5559
 30
0.0
 11
478.5795
 21
-133.8019
 31
0.0
  0
LINE
  5
1DD
100
AcDbEntity
  8
1
  6
CONTINUOUS
 62
     1
100
AcDbLine
 10
431.8501
 20
-135.1519
 30
0.0
 11
456.7995
 21
-135.1519
 31
0.0
  0
LINE
  5
1DE
100
AcDbEntity
  8
1
  6
CONTINUOUS
 62
     1
100
AcDbLine
 10
458.1495
 20
-135.1519
 30
0.0
 11
460.8495
 21
-135.1519
 31
0.0
  0
LINE
  5
1DF
100
AcDbEntity
  8
1
  6
CONTINUOUS
 62
     1
100
AcDbLine
 10
462.1995
 20
-135.1519
 30
0.0
 11
482.0593
 21
-135.1519
 31
0.0
  0
LINE
  5
1E0
100
AcDbEntity
  8
1
  6
CONTINUOUS
 62
     1
100
AcDbLine
 10
443.9353
 20
-124.9729
 30
0.0
 11
443.9353
 21
-145.3309
 31
0.0
  0
LINE
  5
1E1
100
AcDbEntity
  8
1
  6
CONTINUOUS
 62
     1
100
AcDbLine
 10
446.6893
 20
-124.9729
 30
0.0
 11
446.6893
 21
-145.3309
 31
0.0
  0
LINE
  5
1E2
100
AcDbEntity
  8
1
  6
CONTINUOUS
 62
     1
100
AcDbLine
 10
468.2893
 20
-124.9729
 30
0.0
 11
468.2893
 21
-145.3309
 31
0.0
  0
LINE
  5
1E3
100
AcDbEntity
  8
1
  6
CONTINUOUS
 62
     1
100
AcDbLine
 10
471.0433
 20
-124.9729
 30
0.0
 11
471.0433
 21
-145.3309
 31
0.0
  0
LINE
  5
1E4
100
AcDbEntity
  8
1
  6
CONTINUOUS
 62
     1
100
AcDbLine
 10
426.4393
 20
-124.9729
 30
0.0
 11
426.4393
 21
-145.3309
 31
0.0
  0
LINE
  5
1E5
100
AcDbEntity
  8
1
  6
CONTINUOUS
 62
     1
100
AcDbLine
 10
426.4393
 20
-124.9729
 30
0.0
 11
449.3893
 21
-124.9729
 31
0.0
  0
LINE
  5
1E6
100
AcDbEntity
  8
1
  6
CONTINUOUS
 62
     1
100
AcDbLine
 10
426.4393
 20
-145.3309
 30
0.0
 11
449.3893
 21
-145.3309
 31
0.0
  0
LINE
  5
1E7
100
AcDbEntity
  8
1
  6
CONTINUOUS
 62
     1
100
AcDbLine
 10
489.8893
 20
-124.9729
 30
0.0
 11
489.8893
 21
-145.3309
 31
0.0
  0
LINE
  5
1E8
100
AcDbEntity
  8
1
  6
HIDDEN
 62
     1
100
AcDbLine
 10
429.1393
 20
-124.9729
 30
0.0
 11
429.1393
 21
-145.3309
 31
0.0
  0
LINE
  5
1E9
100
AcDbEntity
  8
1
  6
HIDDEN
 62
     1
100
AcDbLine
 10
495.2893
 20
-124.9729
 30
0.0
 11
495.2893
 21
-145.3309
 31
0.0
  0
LINE
  5
1EA
100
AcDbEntity
  8
1
  6
CONTINUOUS
 62
     1
100
AcDbLine
 10
449.3893
 20
-124.9729
 30
0.0
 11
449.3893
 21
-133.1269
 31
0.0
  0
LINE
  5
1EB
100
AcDbEntity
  8
1
  6
CONTINUOUS
 62
     1
100
AcDbLine
 10
449.3893
 20
-137.2309
 30
0.0
 11
449.3893
 21
-145.3309
 31
0.0
  0
LINE
  5
1EC
100
AcDbEntity
  8
1
  6
CONTINUOUS
 62
     1
100
AcDbLine
 10
483.4093
 20
-135.1519
 30
0.0
 11
486.1093
 21
-135.1519
 31
0.0
  0
LINE
  5
1ED
100
AcDbEntity
  8
1
  6
CONTINUOUS
 62
     1
100
AcDbLine
 10
487.4593
 20
-135.1519
 30
0.0
 11
492.4525
 21
-135.1519
 31
0.0
  0
LINE
  5
1EE
100
AcDbEntity
  8
1
  6
CONTINUOUS
 62
     1
100
AcDbLine
 10
471.5296
 20
-65.6268
 30
0.0
 11
449.4267
 21
-65.6268
 31
0.0
  0
LINE
  5
1EF
100
AcDbEntity
  8
1
  6
CONTINUOUS
 62
     1
100
AcDbLine
 10
447.1963
 20
-59.5213
 30
0.0
 11
445.8103
 21
-75.3616
 31
0.0
  0
LINE
  5
1F0
100
AcDbEntity
  8
1
  6
CONTINUOUS
 62
     1
100
AcDbLine
 10
450.1629
 20
-57.2109
 30
0.0
 11
448.554
 21
-75.6016
 31
0.0
  0
LINE
  5
1F1
100
AcDbEntity
  8
1
  6
CONTINUOUS
 62
     1
100
AcDbLine
 10
473.794
 20
-59.9095
 30
0.0
 11
475.1458
 21
-75.3616
 31
0.0
  0
LINE
  5
1F2
100
AcDbEntity
  8
1
  6
CONTINUOUS
 62
     1
100
AcDbLine
 10
470.8251
 20
-57.5769
 30
0.0
 11
472.4023
 21
-75.6016
 31
0.0
  0
LINE
  5
1F3
100
AcDbEntity
  8
1
  6
CONTINUOUS
 62
     1
100
AcDbLine
 10
445.8103
 20
-75.3616
 30
0.0
 11
448.554
 21
-75.6016
 31
0.0
  0
LINE
  5
1F4
100
AcDbEntity
  8
1
  6
CONTINUOUS
 62
     1
100
AcDbLine
 10
472.4023
 20
-75.6016
 30
0.0
 11
475.1458
 21
-75.3616
 31
0.0
  0
ARC
  5
1F5
100
AcDbEntity
  8
1
  6
CONTINUOUS
 62
     1
100
AcDbCircle
 10
444.506515
 20
-59.285871
 30
0.0
 40
2.7
210
0.0
220
0.0
230
1.0
100
AcDbArc
 50
354.999406
 51
61.743219
  0
ARC
  5
1F6
100
AcDbEntity
  8
1
  6
CONTINUOUS
 62
     1
100
AcDbCircle
 10
447.473047
 20
-56.975449
 30
0.0
 40
2.7
210
0.0
220
0.0
230
1.0
100
AcDbArc
 50
355.000283
 51
64.613903
  0
LINE
  5
1F7
100
AcDbEntity
  8
1
  6
CONTINUOUS
 62
     1
100
AcDbLine
 10
441.4296
 20
-72.4848
 30
0.0
 11
446.062
 21
-72.4848
 31
0.0
  0
LINE
  5
1F8
100
AcDbEntity
  8
1
  6
CONTINUOUS
 62
     1
100
AcDbLine
 10
471.8887
 20
-69.7308
 30
0.0
 11
449.0676
 21
-69.7308
 31
0.0
  0
LINE
  5
1F9
100
AcDbEntity
  8
1
  6
CONTINUOUS
 62
     1
100
AcDbLine
 10
461.9496
 20
-65.6268
 30
0.0
 11
461.9496
 21
-69.7308
 31
0.0
  0
LINE
  5
1FA
100
AcDbEntity
  8
1
  6
CONTINUOUS
 62
     1
100
AcDbLine
 10
465.0276
 20
-65.6268
 30
0.0
 11
465.0276
 21
-69.7308
 31
0.0
  0
LINE
  5
1FB
100
AcDbEntity
  8
1
  6
CONTINUOUS
 62
     1
100
AcDbLine
 10
468.1596
 20
-65.6268
 30
0.0
 11
468.1596
 21
-69.7308
 31
0.0
  0
LINE
  5
1FC
100
AcDbEntity
  8
1
  6
CONTINUOUS
 62
     1
100
AcDbLine
 10
463.4616
 20
-66.3018
 30
0.0
 11
463.4616
 21
-69.0558
 31
0.0
  0
LINE
  5
1FD
100
AcDbEntity
  8
1
  6
CONTINUOUS
 62
     1
100
AcDbLine
 10
466.5936
 20
-66.3018
 30
0.0
 11
466.5936
 21
-69.0558
 31
0.0
  0
LINE
  5
1FE
100
AcDbEntity
  8
1
  6
CONTINUOUS
 62
     1
100
AcDbLine
 10
469.7256
 20
-66.3018
 30
0.0
 11
469.7256
 21
-69.0558
 31
0.0
  0
LINE
  5
1FF
100
AcDbEntity
  8
1
  6
CONTINUOUS
 62
     1
100
AcDbLine
 10
479.4456
 20
-72.4308
 30
0.0
 11
474.8893
 21
-72.4308
 31
0.0
  0
LINE
  5
200
100
AcDbEntity
  8
1
  6
CONTINUOUS
 62
     1
100
AcDbLine
 10
479.4456
 20
-62.8728
 30
0.0
 11
474.0532
 21
-62.8728
 31
0.0
  0
LINE
  5
201
100
AcDbEntity
  8
1
  6
CONTINUOUS
 62
     1
100
AcDbLine
 10
479.4456
 20
-72.4308
 30
0.0
 11
479.4456
 21
-62.8728
 31
0.0
  0
LINE
  5
202
100
AcDbEntity
  8
1
  6
CONTINUOUS
 62
     1
100
AcDbLine
 10
483.6576
 20
-69.7308
 30
0.0
 11
479.4456
 21
-69.7308
 31
0.0
  0
LINE
  5
203
100
AcDbEntity
  8
1
  6
CONTINUOUS
 62
     1
100
AcDbLine
 10
479.4456
 20
-69.7308
 30
0.0
 11
474.6532
 21
-69.7308
 31
0.0
  0
LINE
  5
204
100
AcDbEntity
  8
1
  6
CONTINUOUS
 62
     1
100
AcDbLine
 10
483.6576
 20
-65.6268
 30
0.0
 11
479.4456
 21
-65.6268
 31
0.0
  0
LINE
  5
205
100
AcDbEntity
  8
1
  6
CONTINUOUS
 62
     1
100
AcDbLine
 10
479.4456
 20
-65.6268
 30
0.0
 11
474.2941
 21
-65.6268
 31
0.0
  0
LINE
  5
206
100
AcDbEntity
  8
1
  6
CONTINUOUS
 62
     1
100
AcDbLine
 10
483.6576
 20
-65.6268
 30
0.0
 11
483.6576
 21
-69.7308
 31
0.0
  0
LINE
  5
207
100
AcDbEntity
  8
1
  6
CONTINUOUS
 62
     1
100
AcDbLine
 10
441.4296
 20
-65.6268
 30
0.0
 11
446.6622
 21
-65.6268
 31
0.0
  0
LINE
  5
208
100
AcDbEntity
  8
1
  6
CONTINUOUS
 62
     1
100
AcDbLine
 10
441.4296
 20
-72.4848
 30
0.0
 11
441.4296
 21
-62.9268
 31
0.0
  0
LINE
  5
209
100
AcDbEntity
  8
1
  6
CONTINUOUS
 62
     1
100
AcDbLine
 10
441.4296
 20
-62.9268
 30
0.0
 11
446.8984
 21
-62.9268
 31
0.0
  0
LINE
  5
20A
100
AcDbEntity
  8
1
  6
CONTINUOUS
 62
     1
100
AcDbLine
 10
441.4296
 20
-69.7308
 30
0.0
 11
446.3031
 21
-69.7308
 31
0.0
  0
LINE
  5
20B
100
AcDbEntity
  8
1
  6
CONTINUOUS
 62
     1
100
AcDbLine
 10
481.5277
 20
-66.3018
 30
0.0
 11
481.5277
 21
-69.0558
 31
0.0
  0
LINE
  5
20C
100
AcDbEntity
  8
1
  6
CONTINUOUS
 62
     7
100
AcDbLine
 10
438.7296
 20
-67.7058
 30
0.0
 11
459.8436
 21
-67.7058
 31
0.0
  0
LINE
  5
20D
100
AcDbEntity
  8
1
  6
CONTINUOUS
 62
     7
100
AcDbLine
 10
465.2436
 20
-67.7058
 30
0.0
 11
486.3576
 21
-67.7058
 31
0.0
  0
LINE
  5
20E
100
AcDbEntity
  8
1
  6
CONTINUOUS
 62
     7
100
AcDbLine
 10
461.1936
 20
-67.7058
 30
0.0
 11
463.8936
 21
-67.7058
 31
0.0
  0
ARC
  5
20F
100
AcDbEntity
  8
1
  6
CONTINUOUS
 62
     1
100
AcDbCircle
 10
473.514854
 20
-57.341497
 30
0.0
 40
2.7
210
0.0
220
0.0
230
1.0
100
AcDbArc
 50
114.618006
 51
185.000653
  0
ARC
  5
210
100
AcDbEntity
  8
1
  6
CONTINUOUS
 62
     1
100
AcDbCircle
 10
476.483643
 20
-59.674027
 30
0.0
 40
2.7
210
0.0
220
0.0
230
1.0
100
AcDbArc
 50
117.552833
 51
184.999694
  0
ARC
  5
211
100
AcDbEntity
  8
1
  6
CONTINUOUS
 62
     1
100
AcDbCircle
 10
460.878475
 20
-29.76415
 30
0.0
 40
31.036064
210
0.0
220
0.0
230
1.0
100
AcDbArc
 50
297.552833
 51
328.845989
  0
ARC
  5
212
100
AcDbEntity
  8
1
  6
CONTINUOUS
 62
     1
100
AcDbCircle
 10
460.878475
 20
-29.76415
 30
0.0
 40
31.036064
210
0.0
220
0.0
230
1.0
100
AcDbArc
 50
31.539708
 51
61.742828
  0
ARC
  5
213
100
AcDbEntity
  8
1
  6
CONTINUOUS
 62
     1
100
AcDbCircle
 10
489.749116
 20
-47.217175
 30
0.0
 40
2.7
210
0.0
220
0.0
230
1.0
100
AcDbArc
 50
90.0
 51
148.845989
  0
ARC
  5
214
100
AcDbEntity
  8
1
  6
CONTINUOUS
 62
     1
100
AcDbCircle
 10
489.630975
 20
-12.117175
 30
0.0
 40
2.7
210
0.0
220
0.0
230
1.0
100
AcDbArc
 50
211.539708
 51
270.0
  0
LINE
  5
215
100
AcDbEntity
  8
1
  6
CONTINUOUS
 62
     1
100
AcDbLine
 10
487.2751
 20
-17.5173
 30
0.0
 11
494.6143
 21
-17.5173
 31
0.0
  0
LINE
  5
216
100
AcDbEntity
  8
1
  6
CONTINUOUS
 62
     1
100
AcDbLine
 10
494.6143
 20
-17.5173
 30
0.0
 11
494.6143
 21
-41.8173
 31
0.0
  0
LINE
  5
217
100
AcDbEntity
  8
1
  6
CONTINUOUS
 62
     1
100
AcDbLine
 10
487.384
 20
-41.8173
 30
0.0
 11
494.6143
 21
-41.8173
 31
0.0
  0
ARC
  5
218
100
AcDbEntity
  8
1
  6
CONTINUOUS
 62
     1
100
AcDbCircle
 10
460.878475
 20
-29.76415
 30
0.0
 40
27.634604
210
0.0
220
0.0
230
1.0
100
AcDbArc
 50
294.618006
 51
330.899494
  0
ARC
  5
219
100
AcDbEntity
  8
1
  6
CONTINUOUS
 62
     1
100
AcDbCircle
 10
460.878475
 20
-29.76415
 30
0.0
 40
27.634604
210
0.0
220
0.0
230
1.0
100
AcDbArc
 50
29.520622
 51
64.613897
  0
ARC
  5
21A
100
AcDbEntity
  8
1
  6
CONTINUOUS
 62
     1
100
AcDbCircle
 10
487.383879
 20
-44.517175
 30
0.0
 40
2.7
210
0.0
220
0.0
230
1.0
100
AcDbArc
 50
90.0
 51
150.899494
  0
ARC
  5
21B
100
AcDbEntity
  8
1
  6
CONTINUOUS
 62
     1
100
AcDbCircle
 10
487.274992
 20
-14.817175
 30
0.0
 40
2.7
210
0.0
220
0.0
230
1.0
100
AcDbArc
 50
209.520622
 51
270.0
  0
LINE
  5
21C
100
AcDbEntity
  8
1
  6
CONTINUOUS
 62
     1
100
AcDbLine
 10
513.5143
 20
-1.3173
 30
0.0
 11
513.5143
 21
-58.0173
 31
0.0
  0
LINE
  5
21D
100
AcDbEntity
  8
1
  6
CONTINUOUS
 62
     1
100
AcDbLine
 10
497.3143
 20
-58.0173
 30
0.0
 11
513.5143
 21
-58.0173
 31
0.0
  0
LINE
  5
21E
100
AcDbEntity
  8
1
  6
HIDDEN
 62
     1
100
AcDbLine
 10
500.0143
 20
-1.3173
 30
0.0
 11
500.0143
 21
-58.0173
 31
0.0
  0
LINE
  5
21F
100
AcDbEntity
  8
1
  6
CONTINUOUS
 62
     1
100
AcDbLine
 10
497.3143
 20
-1.3173
 30
0.0
 11
500.0143
 21
-1.3173
 31
0.0
  0
LINE
  5
220
100
AcDbEntity
  8
1
  6
CONTINUOUS
 62
     1
100
AcDbLine
 10
500.0143
 20
-1.3173
 30
0.0
 11
513.5143
 21
-1.3173
 31
0.0
  0
LINE
  5
221
100
AcDbEntity
  8
1
  6
CONTINUOUS
 62
     7
100
AcDbLine
 10
510.8143
 20
-6.7173
 30
0.0
 11
532.4143
 21
-6.7173
 31
0.0
  0
LINE
  5
222
100
AcDbEntity
  8
1
  6
CONTINUOUS
 62
     7
100
AcDbLine
 10
510.8143
 20
-52.6173
 30
0.0
 11
532.4143
 21
-52.6173
 31
0.0
  0
CIRCLE
  5
223
100
AcDbEntity
  8
1
  6
CONTINUOUS
 62
     1
100
AcDbCircle
 10
506.7643
 20
-6.717175
 30
0.0
 40
2.7
210
0.0
220
0.0
230
1.0
  0
LINE
  5
224
100
AcDbEntity
  8
1
  6
CONTINUOUS
 62
     7
100
AcDbLine
 10
505.4143
 20
-6.7173
 30
0.0
 11
508.1143
 21
-6.7173
 31
0.0
  0
LINE
  5
225
100
AcDbEntity
  8
1
  6
CONTINUOUS
 62
     7
100
AcDbLine
 10
506.7643
 20
-5.3673
 30
0.0
 11
506.7643
 21
-8.0673
 31
0.0
  0
CIRCLE
  5
226
100
AcDbEntity
  8
1
  6
CONTINUOUS
 62
     1
100
AcDbCircle
 10
506.7643
 20
-52.617175
 30
0.0
 40
2.7
210
0.0
220
0.0
230
1.0
  0
LINE
  5
227
100
AcDbEntity
  8
1
  6
CONTINUOUS
 62
     7
100
AcDbLine
 10
505.4143
 20
-52.6173
 30
0.0
 11
508.1143
 21
-52.6173
 31
0.0
  0
LINE
  5
228
100
AcDbEntity
  8
1
  6
CONTINUOUS
 62
     7
100
AcDbLine
 10
506.7643
 20
-51.2673
 30
0.0
 11
506.7643
 21
-53.9673
 31
0.0
  0
LINE
  5
229
100
AcDbEntity
  8
1
  6
CONTINUOUS
 62
     7
100
AcDbLine
 10
502.7143
 20
-6.7173
 30
0.0
 11
489.1548
 21
-6.7173
 31
0.0
  0
LINE
  5
22A
100
AcDbEntity
  8
1
  6
CONTINUOUS
 62
     7
100
AcDbLine
 10
502.7143
 20
-52.6173
 30
0.0
 11
492.8196
 21
-52.6173
 31
0.0
  0
LINE
  5
22B
100
AcDbEntity
  8
1
  6
CONTINUOUS
 62
     7
100
AcDbLine
 10
506.7643
 20
6.7827
 30
0.0
 11
506.7643
 21
-2.6673
 31
0.0
  0
LINE
  5
22C
100
AcDbEntity
  8
1
  6
CONTINUOUS
 62
     7
100
AcDbLine
 10
506.7643
 20
-56.6673
 30
0.0
 11
506.7643
 21
-66.1173
 31
0.0
  0
LINE
  5
22D
100
AcDbEntity
  8
1
  6
CONTINUOUS
 62
     7
100
AcDbLine
 10
506.7643
 20
-10.7673
 30
0.0
 11
506.7643
 21
-16.1673
 31
0.0
  0
LINE
  5
22E
100
AcDbEntity
  8
1
  6
CONTINUOUS
 62
     7
100
AcDbLine
 10
506.7643
 20
-17.5173
 30
0.0
 11
506.7643
 21
-20.2173
 31
0.0
  0
LINE
  5
22F
100
AcDbEntity
  8
1
  6
CONTINUOUS
 62
     7
100
AcDbLine
 10
506.7643
 20
-21.5673
 30
0.0
 11
506.7643
 21
-37.7673
 31
0.0
  0
LINE
  5
230
100
AcDbEntity
  8
1
  6
CONTINUOUS
 62
     7
100
AcDbLine
 10
506.7643
 20
-39.1173
 30
0.0
 11
506.7643
 21
-41.8173
 31
0.0
  0
LINE
  5
231
100
AcDbEntity
  8
1
  6
CONTINUOUS
 62
     7
100
AcDbLine
 10
506.7643
 20
-43.1673
 30
0.0
 11
506.7643
 21
-48.5673
 31
0.0
  0
LINE
  5
232
100
AcDbEntity
  8
1
  6
CONTINUOUS
 62
     1
100
AcDbLine
 10
465.5893
 20
-124.9729
 30
0.0
 11
465.5893
 21
-133.1269
 31
0.0
  0
LINE
  5
233
100
AcDbEntity
  8
1
  6
CONTINUOUS
 62
     1
100
AcDbLine
 10
465.5893
 20
-137.2309
 30
0.0
 11
465.5893
 21
-145.3309
 31
0.0
  0
LINE
  5
234
100
AcDbEntity
  8
1
  6
CONTINUOUS
 62
     1
100
AcDbLine
 10
497.9893
 20
-116.8729
 30
0.0
 11
510.8143
 21
-116.8729
 31
0.0
  0
LINE
  5
235
100
AcDbEntity
  8
1
  6
CONTINUOUS
 62
     1
100
AcDbLine
 10
510.8143
 20
-116.8729
 30
0.0
 11
510.8143
 21
-110.1229
 31
0.0
  0
LINE
  5
236
100
AcDbEntity
  8
1
  6
CONTINUOUS
 62
     1
100
AcDbLine
 10
510.8143
 20
-110.1229
 30
0.0
 11
513.5143
 21
-110.1229
 31
0.0
  0
LINE
  5
237
100
AcDbEntity
  8
1
  6
HIDDEN
 62
     1
100
AcDbLine
 10
513.5143
 20
-131.7229
 30
0.0
 11
510.8143
 21
-131.7229
 31
0.0
  0
LINE
  5
238
100
AcDbEntity
  8
1
  6
HIDDEN
 62
     1
100
AcDbLine
 10
510.8143
 20
-131.7229
 30
0.0
 11
510.8143
 21
-126.3229
 31
0.0
  0
LINE
  5
239
100
AcDbEntity
  8
1
  6
CONTINUOUS
 62
     1
100
AcDbLine
 10
497.9893
 20
-148.0309
 30
0.0
 11
500.6893
 21
-148.0309
 31
0.0
  0
LINE
  5
23A
100
AcDbEntity
  8
1
  6
CONTINUOUS
 62
     1
100
AcDbLine
 10
500.6893
 20
-148.0309
 30
0.0
 11
500.6893
 21
-122.2729
 31
0.0
  0
LINE
  5
23B
100
AcDbEntity
  8
1
  6
HIDDEN
 62
     1
100
AcDbLine
 10
500.6893
 20
-126.3229
 30
0.0
 11
510.8143
 21
-126.3229
 31
0.0
  0
LINE
  5
23C
100
AcDbEntity
  8
1
  6
CONTINUOUS
 62
     1
100
AcDbLine
 10
497.9893
 20
-119.5729
 30
0.0
 11
513.5143
 21
-119.5729
 31
0.0
  0
LINE
  5
23D
100
AcDbEntity
  8
1
  6
CONTINUOUS
 62
     1
100
AcDbLine
 10
500.6893
 20
-122.2729
 30
0.0
 11
513.5143
 21
-122.2729
 31
0.0
  0
LINE
  5
23E
100
AcDbEntity
  8
1
  6
CONTINUOUS
 62
     1
100
AcDbLine
 10
513.5143
 20
-110.1229
 30
0.0
 11
513.5143
 21
-122.2729
 31
0.0
  0
LINE
  5
23F
100
AcDbEntity
  8
1
  6
HIDDEN
 62
     1
100
AcDbLine
 10
513.5143
 20
-122.2729
 30
0.0
 11
513.5143
 21
-131.7229
 31
0.0
  0
LINE
  5
240
100
AcDbEntity
  8
1
  6
CONTINUOUS
 62
     1
100
AcDbLine
 10
465.5893
 20
-145.3309
 30
0.0
 11
497.9893
 21
-145.3309
 31
0.0
  0
POLYLINE
  5
241
100
AcDbEntity
  8
1
  6
CONTINUOUS
 62
     1
100
AcDb2dPolyline
 66
     1
 10
0.0
 20
0.0
 30
0.0
 70
     1
  0
VERTEX
  5
242
100
AcDbEntity
  8
1
  6
CONTINUOUS
 62
     1
100
AcDbVertex
100
AcDb2dVertex
 10
497.9893
 20
-145.3309
 30
0.0
  0
VERTEX
  5
243
100
AcDbEntity
  8
1
  6
CONTINUOUS
 62
     1
100
AcDbVertex
100
AcDb2dVertex
 10
495.2893
 20
-145.3309
 30
0.0
  0
VERTEX
  5
244
100
AcDbEntity
  8
1
  6
CONTINUOUS
 62
     1
100
AcDbVertex
100
AcDb2dVertex
 10
497.9893
 20
-148.0309
 30
0.0
  0
VERTEX
  5
245
100
AcDbEntity
  8
1
  6
CONTINUOUS
 62
     1
100
AcDbVertex
100
AcDb2dVertex
 10
497.9893
 20
-145.3309
 30
0.0
  0
SEQEND
  5
246
100
AcDbEntity
  8
1
  6
CONTINUOUS
 62
     1
  0
LINE
  5
247
100
AcDbEntity
  8
1
  6
CONTINUOUS
 62
     1
100
AcDbLine
 10
465.5893
 20
-124.9729
 30
0.0
 11
497.9893
 21
-124.9729
 31
0.0
  0
LINE
  5
248
100
AcDbEntity
  8
1
  6
CONTINUOUS
 62
     1
100
AcDbLine
 10
497.9893
 20
-124.9729
 30
0.0
 11
497.9893
 21
-148.0309
 31
0.0
  0
LINE
  5
249
100
AcDbEntity
  8
1
  6
CONTINUOUS
 62
     1
100
AcDbLine
 10
497.9893
 20
-116.8729
 30
0.0
 11
497.9893
 21
-124.9729
 31
0.0
  0
POLYLINE
  5
24A
100
AcDbEntity
  8
1
  6
CONTINUOUS
 62
     1
100
AcDb2dPolyline
 66
     1
 10
0.0
 20
0.0
 30
0.0
 70
     1
  0
VERTEX
  5
24B
100
AcDbEntity
  8
1
  6
CONTINUOUS
 62
     1
100
AcDbVertex
100
AcDb2dVertex
 10
497.9893
 20
-122.2729
 30
0.0
  0
VERTEX
  5
24C
100
AcDbEntity
  8
1
  6
CONTINUOUS
 62
     1
100
AcDbVertex
100
AcDb2dVertex
 10
495.2893
 20
-124.9729
 30
0.0
  0
VERTEX
  5
24D
100
AcDbEntity
  8
1
  6
CONTINUOUS
 62
     1
100
AcDbVertex
100
AcDb2dVertex
 10
497.9893
 20
-124.9729
 30
0.0
  0
VERTEX
  5
24E
100
AcDbEntity
  8
1
  6
CONTINUOUS
 62
     1
100
AcDbVertex
100
AcDb2dVertex
 10
497.9893
 20
-122.2729
 30
0.0
  0
SEQEND
  5
24F
100
AcDbEntity
  8
1
  6
CONTINUOUS
 62
     1
  0
ARC
  5
250
100
AcDbEntity
  8
1
  6
CONTINUOUS
 62
     1
100
AcDbCircle
 10
25.644925
 20
-250.016
 30
0.0
 40
29.061978
210
0.0
220
0.0
230
1.0
100
AcDbArc
 50
108.146297
 51
251.7801
  0
ARC
  5
251
100
AcDbEntity
  8
1
  6
CONTINUOUS
 62
     1
100
AcDbCircle
 10
25.644925
 20
-250.016
 30
0.0
 40
27.128394
210
0.0
220
0.0
230
1.0
100
AcDbArc
 50
109.488133
 51
251.7801
  0
ARC
  5
252
100
AcDbEntity
  8
1
  6
CONTINUOUS
 62
     1
100
AcDbCircle
 10
25.644925
 20
-250.016
 30
0.0
 40
27.151332
210
0.0
220
0.0
230
1.0
100
AcDbArc
 50
288.220322
 51
70.511419
  0
ARC
  5
253
100
AcDbEntity
  8
1
  6
CONTINUOUS
 62
     1
100
AcDbCircle
 10
15.973178
 20
-279.447445
 30
0.0
 40
3.851447
210
0.0
220
0.0
230
1.0
100
AcDbArc
 50
328.304744
 51
72.007289
  0
ARC
  5
254
100
AcDbEntity
  8
1
  6
CONTINUOUS
 62
     1
100
AcDbCircle
 10
16.223113
 20
-279.290284
 30
0.0
 40
1.702579
210
0.0
220
0.0
230
1.0
100
AcDbArc
 50
332.857844
 51
78.646022
  0
ARC
  5
255
100
AcDbEntity
  8
1
  6
CONTINUOUS
 62
     1
100
AcDbCircle
 10
35.324097
 20
-279.469045
 30
0.0
 40
3.851447
210
0.0
220
0.0
230
1.0
100
AcDbArc
 50
107.992711
 51
211.695256
  0
ARC
  5
256
100
AcDbEntity
  8
1
  6
CONTINUOUS
 62
     1
100
AcDbCircle
 10
35.074162
 20
-279.311884
 30
0.0
 40
1.702579
210
0.0
220
0.0
230
1.0
100
AcDbArc
 50
101.353978
 51
207.142156
  0
ARC
  5
257
100
AcDbEntity
  8
1
  6
CONTINUOUS
 62
     1
100
AcDbCircle
 10
25.644925
 20
-250.016
 30
0.0
 40
29.061978
210
0.0
220
0.0
230
1.0
100
AcDbArc
 50
351.989342
 51
71.853281
  0
ARC
  5
258
100
AcDbEntity
  8
1
  6
CONTINUOUS
 62
     1
100
AcDbCircle
 10
25.644925
 20
-250.016
 30
0.0
 40
29.061978
210
0.0
220
0.0
230
1.0
100
AcDbArc
 50
288.220322
 51
351.989331
  0
POLYLINE
  5
259
100
AcDbEntity
  8
1
  6
CONTINUOUS
 62
     1
100
AcDb2dPolyline
 66
     1
 10
0.0
 20
0.0
 30
0.0
  0
VERTEX
  5
25A
100
AcDbEntity
  8
1
  6
CONTINUOUS
 62
     1
100
AcDbVertex
100
AcDb2dVertex
 10
54.42332
 20
-254.066005
 30
0.0
 42
0.07002
  0
VERTEX
  5
25B
100
AcDbEntity
  8
1
  6
CONTINUOUS
 62
     1
100
AcDbVertex
100
AcDb2dVertex
 10
54.42332
 20
-245.965995
 30
0.0
 42
-0.10349
  0
VERTEX
  5
25C
100
AcDbEntity
  8
1
  6
CONTINUOUS
 62
     1
100
AcDbVertex
100
AcDb2dVertex
 10
55.6944
 20
-247.991
 30
0.0
  0
VERTEX
  5
25D
100
AcDbEntity
  8
1
  6
CONTINUOUS
 62
     1
100
AcDbVertex
100
AcDb2dVertex
 10
55.6974
 20
-252.0332
 30
0.0
  0
VERTEX
  5
25E
100
AcDbEntity
  8
1
  6
CONTINUOUS
 62
     1
100
AcDbVertex
100
AcDb2dVertex
 10
55.697244
 20
-252.033114
 30
0.0
 42
-0.103854
  0
VERTEX
  5
25F
100
AcDbEntity
  8
1
  6
CONTINUOUS
 62
     1
100
AcDbVertex
100
AcDb2dVertex
 10
54.42332
 20
-254.066005
 30
0.0
  0
SEQEND
  5
260
100
AcDbEntity
  8
1
  6
CONTINUOUS
 62
     1
  0
LINE
  5
261
100
AcDbEntity
  8
1
  6
CONTINUOUS
 62
     1
100
AcDbLine
 10
55.6705
 20
-248.3285
 30
0.0
 11
69.1705
 21
-248.3285
 31
0.0
  0
LINE
  5
262
100
AcDbEntity
  8
1
  6
CONTINUOUS
 62
     1
100
AcDbLine
 10
55.6705
 20
-251.7035
 30
0.0
 11
69.1705
 21
-251.7035
 31
0.0
  0
LINE
  5
263
100
AcDbEntity
  8
1
  6
CONTINUOUS
 62
     1
100
AcDbLine
 10
69.1705
 20
-248.3285
 30
0.0
 11
69.1705
 21
-251.7035
 31
0.0
  0
LINE
  5
264
100
AcDbEntity
  8
1
  6
CONTINUOUS
 62
     1
100
AcDbLine
 10
66.4705
 20
-248.3285
 30
0.0
 11
66.4705
 21
-257.1035
 31
0.0
  0
LINE
  5
265
100
AcDbEntity
  8
1
  6
CONTINUOUS
 62
     1
100
AcDbLine
 10
63.0955
 20
-257.1035
 30
0.0
 11
66.4705
 21
-257.1035
 31
0.0
  0
LINE
  5
266
100
AcDbEntity
  8
1
  6
CONTINUOUS
 62
     1
100
AcDbLine
 10
61.7455
 20
-254.4035
 30
0.0
 11
67.8205
 21
-254.4035
 31
0.0
  0
LINE
  5
267
100
AcDbEntity
  8
1
  6
CONTINUOUS
 62
     1
100
AcDbLine
 10
61.7455
 20
-254.4035
 30
0.0
 11
61.7455
 21
-251.7035
 31
0.0
  0
LINE
  5
268
100
AcDbEntity
  8
1
  6
CONTINUOUS
 62
     1
100
AcDbLine
 10
67.8205
 20
-254.4035
 30
0.0
 11
67.8205
 21
-251.7035
 31
0.0
  0
LINE
  5
269
100
AcDbEntity
  8
1
  6
CONTINUOUS
 62
     1
100
AcDbLine
 10
63.0955
 20
-255.7535
 30
0.0
 11
66.4705
 21
-255.7535
 31
0.0
  0
LINE
  5
26A
100
AcDbEntity
  8
1
  6
CONTINUOUS
 62
     1
100
AcDbLine
 10
63.7705
 20
-255.0785
 30
0.0
 11
65.7955
 21
-255.0785
 31
0.0
  0
LINE
  5
26B
100
AcDbEntity
  8
1
  6
CONTINUOUS
 62
     1
100
AcDbLine
 10
63.7705
 20
-256.4285
 30
0.0
 11
65.7955
 21
-256.4285
 31
0.0
  0
LINE
  5
26C
100
AcDbEntity
  8
1
  6
CONTINUOUS
 62
     1
100
AcDbLine
 10
63.0955
 20
-244.2785
 30
0.0
 11
63.0955
 21
-246.9785
 31
0.0
  0
LINE
  5
26D
100
AcDbEntity
  8
1
  6
CONTINUOUS
 62
     1
100
AcDbLine
 10
63.0955
 20
-248.3285
 30
0.0
 11
63.0955
 21
-257.1035
 31
0.0
  0
LINE
  5
26E
100
AcDbEntity
  8
1
  6
CONTINUOUS
 62
     1
100
AcDbLine
 10
61.7455
 20
-244.2785
 30
0.0
 11
61.7455
 21
-242.9285
 31
0.0
  0
LINE
  5
26F
100
AcDbEntity
  8
1
  6
CONTINUOUS
 62
     1
100
AcDbLine
 10
61.7455
 20
-242.9285
 30
0.0
 11
69.1705
 21
-242.9285
 31
0.0
  0
LINE
  5
270
100
AcDbEntity
  8
1
  6
CONTINUOUS
 62
     1
100
AcDbLine
 10
69.1705
 20
-242.9285
 30
0.0
 11
69.1705
 21
-244.2785
 31
0.0
  0
LINE
  5
271
100
AcDbEntity
  8
1
  6
CONTINUOUS
 62
     1
100
AcDbLine
 10
61.7455
 20
-244.2785
 30
0.0
 11
60.3955
 21
-244.2785
 31
0.0
  0
LINE
  5
272
100
AcDbEntity
  8
1
  6
CONTINUOUS
 62
     1
100
AcDbLine
 10
60.3955
 20
-244.2785
 30
0.0
 11
60.3955
 21
-246.9785
 31
0.0
  0
LINE
  5
273
100
AcDbEntity
  8
1
  6
CONTINUOUS
 62
     1
100
AcDbLine
 10
66.4705
 20
-246.9785
 30
0.0
 11
66.4705
 21
-242.9285
 31
0.0
  0
LINE
  5
274
100
AcDbEntity
  8
1
  6
HIDDEN
 62
     1
100
AcDbLine
 10
73.8955
 20
-244.2785
 30
0.0
 11
73.8955
 21
-234.8285
 31
0.0
  0
LINE
  5
275
100
AcDbEntity
  8
1
  6
HIDDEN
 62
     1
100
AcDbLine
 10
73.8955
 20
-246.9785
 30
0.0
 11
73.8955
 21
-257.7785
 31
0.0
  0
LINE
  5
276
100
AcDbEntity
  8
1
  6
HIDDEN
 62
     1
100
AcDbLine
 10
77.9455
 20
-234.8285
 30
0.0
 11
77.9455
 21
-257.7785
 31
0.0
  0
LINE
  5
277
100
AcDbEntity
  8
1
  6
HIDDEN
 62
     1
100
AcDbLine
 10
73.8955
 20
-234.8285
 30
0.0
 11
77.9455
 21
-234.8285
 31
0.0
  0
LINE
  5
278
100
AcDbEntity
  8
1
  6
HIDDEN
 62
     1
100
AcDbLine
 10
73.8955
 20
-257.7785
 30
0.0
 11
77.9455
 21
-257.7785
 31
0.0
  0
LINE
  5
279
100
AcDbEntity
  8
1
  6
CONTINUOUS
 62
     1
100
AcDbLine
 10
63.0955
 20
-244.2785
 30
0.0
 11
64.783
 21
-244.2785
 31
0.0
  0
LINE
  5
27A
100
AcDbEntity
  8
1
  6
HIDDEN
 62
     1
100
AcDbLine
 10
66.4705
 20
-244.2785
 30
0.0
 11
73.8955
 21
-244.2785
 31
0.0
  0
LINE
  5
27B
100
AcDbEntity
  8
1
  6
CONTINUOUS
 62
     1
100
AcDbLine
 10
60.3955
 20
-246.9785
 30
0.0
 11
64.783
 21
-246.9785
 31
0.0
  0
LINE
  5
27C
100
AcDbEntity
  8
1
  6
HIDDEN
 62
     1
100
AcDbLine
 10
66.4705
 20
-246.9785
 30
0.0
 11
73.8955
 21
-246.9785
 31
0.0
  0
LINE
  5
27D
100
AcDbEntity
  8
1
  6
CONTINUOUS
 62
     7
100
AcDbLine
 10
64.783
 20
-237.5285
 30
0.0
 11
64.783
 21
-247.991
 31
0.0
  0
LINE
  5
27E
100
AcDbEntity
  8
1
  6
CONTINUOUS
 62
     7
100
AcDbLine
 10
64.783
 20
-249.341
 30
0.0
 11
64.783
 21
-250.691
 31
0.0
  0
LINE
  5
27F
100
AcDbEntity
  8
1
  6
CONTINUOUS
 62
     7
100
AcDbLine
 10
64.783
 20
-252.041
 30
0.0
 11
64.783
 21
-262.5035
 31
0.0
  0
LINE
  5
280
100
AcDbEntity
  8
1
  6
CONTINUOUS
 62
     7
100
AcDbLine
 10
0.4582
 20
-220.964
 30
0.0
 11
20.92
 21
-220.964
 31
0.0
  0
LINE
  5
281
100
AcDbEntity
  8
1
  6
CONTINUOUS
 62
     7
100
AcDbLine
 10
22.27
 20
-220.964
 30
0.0
 11
23.62
 21
-220.964
 31
0.0
  0
LINE
  5
282
100
AcDbEntity
  8
1
  6
CONTINUOUS
 62
     7
100
AcDbLine
 10
24.97
 20
-220.964
 30
0.0
 11
53.5446
 21
-220.964
 31
0.0
  0
LINE
  5
283
100
AcDbEntity
  8
1
  6
CONTINUOUS
 62
     7
100
AcDbLine
 10
0.4582
 20
-279.068
 30
0.0
 11
20.92
 21
-279.068
 31
0.0
  0
LINE
  5
284
100
AcDbEntity
  8
1
  6
CONTINUOUS
 62
     7
100
AcDbLine
 10
22.27
 20
-279.068
 30
0.0
 11
23.62
 21
-279.068
 31
0.0
  0
LINE
  5
285
100
AcDbEntity
  8
1
  6
CONTINUOUS
 62
     7
100
AcDbLine
 10
24.97
 20
-279.068
 30
0.0
 11
53.5446
 21
-279.068
 31
0.0
  0
LINE
  5
286
100
AcDbEntity
  8
1
  6
CONTINUOUS
 62
     7
100
AcDbLine
 10
1.9597
 20
-263.2433
 30
0.0
 11
25.1695
 21
-250.1069
 31
0.0
  0
LINE
  5
287
100
AcDbEntity
  8
1
  6
CONTINUOUS
 62
     7
100
AcDbLine
 10
13.8096
 20
-238.4212
 30
0.0
 11
4.3524
 21
-233.2061
 31
0.0
  0
LINE
  5
288
100
AcDbEntity
  8
1
  6
CONTINUOUS
 62
     7
100
AcDbLine
 10
2.6376
 20
-232.2607
 30
0.0
 11
-6.8201
 21
-227.0452
 31
0.0
  0
LINE
  5
289
100
AcDbEntity
  8
1
  6
CONTINUOUS
 62
     1
100
AcDbLine
 10
54.9955
 20
-343.5764
 30
0.0
 11
36.0955
 21
-343.5764
 31
0.0
  0
LINE
  5
28A
100
AcDbEntity
  8
1
  6
CONTINUOUS
 62
     1
100
AcDbLine
 10
36.0955
 20
-367.8764
 30
0.0
 11
54.9955
 21
-367.8764
 31
0.0
  0
LINE
  5
28B
100
AcDbEntity
  8
1
  6
CONTINUOUS
 62
     1
100
AcDbLine
 10
69.1705
 20
-365.1764
 30
0.0
 11
69.1705
 21
-346.2764
 31
0.0
  0
LINE
  5
28C
100
AcDbEntity
  8
1
  6
CONTINUOUS
 62
     1
100
AcDbLine
 10
58.3705
 20
-346.2764
 30
0.0
 11
69.1705
 21
-346.2764
 31
0.0
  0
LINE
  5
28D
100
AcDbEntity
  8
1
  6
CONTINUOUS
 62
     1
100
AcDbLine
 10
58.3705
 20
-365.1764
 30
0.0
 11
69.1705
 21
-365.1764
 31
0.0
  0
LINE
  5
28E
100
AcDbEntity
  8
1
  6
CONTINUOUS
 62
     1
100
AcDbLine
 10
44.1955
 20
-343.5764
 30
0.0
 11
44.1955
 21
-367.8764
 31
0.0
  0
LINE
  5
28F
100
AcDbEntity
  8
1
  6
CONTINUOUS
 62
     7
100
AcDbLine
 10
52.9705
 20
-355.7264
 30
0.0
 11
78.6205
 21
-355.7264
 31
0.0
  0
CIRCLE
  5
290
100
AcDbEntity
  8
1
  6
CONTINUOUS
 62
     1
100
AcDbCircle
 10
64.4455
 20
-355.726275
 30
0.0
 40
2.7
210
0.0
220
0.0
230
1.0
  0
LINE
  5
291
100
AcDbEntity
  8
1
  6
CONTINUOUS
 62
     7
100
AcDbLine
 10
64.4455
 20
-350.3264
 30
0.0
 11
64.4455
 21
-361.1264
 31
0.0
  0
LINE
  5
292
100
AcDbEntity
  8
1
  6
CONTINUOUS
 62
     7
100
AcDbLine
 10
50.2705
 20
-355.7264
 30
0.0
 11
25.2955
 21
-355.7264
 31
0.0
  0
LINE
  5
293
100
AcDbEntity
  8
1
  6
CONTINUOUS
 62
     7
100
AcDbLine
 10
22.5955
 20
-355.7264
 30
0.0
 11
3.358
 21
-355.7264
 31
0.0
  0
LINE
  5
294
100
AcDbEntity
  8
1
  6
CONTINUOUS
 62
     7
100
AcDbLine
 10
-3.392
 20
-355.7264
 30
0.0
 11
-15.8795
 21
-355.7264
 31
0.0
  0
LINE
  5
295
100
AcDbEntity
  8
1
  6
CONTINUOUS
 62
     1
100
AcDbLine
 10
46.8955
 20
-351.0014
 30
0.0
 11
44.1955
 21
-351.0014
 31
0.0
  0
LINE
  5
296
100
AcDbEntity
  8
1
  6
CONTINUOUS
 62
     1
100
AcDbLine
 10
46.8955
 20
-360.4514
 30
0.0
 11
44.1955
 21
-360.4514
 31
0.0
  0
LINE
  5
297
100
AcDbEntity
  8
1
  6
CONTINUOUS
 62
     1
100
AcDbLine
 10
46.8955
 20
-351.0014
 30
0.0
 11
46.8955
 21
-360.4514
 31
0.0
  0
LINE
  5
298
100
AcDbEntity
  8
1
  6
CONTINUOUS
 62
     1
100
AcDbLine
 10
49.5955
 20
-353.7014
 30
0.0
 11
44.1955
 21
-353.7014
 31
0.0
  0
LINE
  5
299
100
AcDbEntity
  8
1
  6
CONTINUOUS
 62
     1
100
AcDbLine
 10
49.5955
 20
-357.7514
 30
0.0
 11
44.1955
 21
-357.7514
 31
0.0
  0
LINE
  5
29A
100
AcDbEntity
  8
1
  6
CONTINUOUS
 62
     1
100
AcDbLine
 10
49.5955
 20
-353.7014
 30
0.0
 11
49.5955
 21
-357.7514
 31
0.0
  0
LINE
  5
29B
100
AcDbEntity
  8
1
  6
CONTINUOUS
 62
     1
100
AcDbLine
 10
48.2455
 20
-354.7139
 30
0.0
 11
48.2455
 21
-356.7389
 31
0.0
  0
LINE
  5
29C
100
AcDbEntity
  8
1
  6
CONTINUOUS
 62
     1
100
AcDbLine
 10
36.0955
 20
-352.3514
 30
0.0
 11
21.9205
 21
-352.3514
 31
0.0
  0
LINE
  5
29D
100
AcDbEntity
  8
1
  6
CONTINUOUS
 62
     1
100
AcDbLine
 10
36.0955
 20
-359.1014
 30
0.0
 11
21.9205
 21
-359.1014
 31
0.0
  0
LINE
  5
29E
100
AcDbEntity
  8
1
  6
CONTINUOUS
 62
     1
100
AcDbLine
 10
21.9205
 20
-343.5764
 30
0.0
 11
21.9205
 21
-352.3514
 31
0.0
  0
LINE
  5
29F
100
AcDbEntity
  8
1
  6
CONTINUOUS
 62
     1
100
AcDbLine
 10
21.9205
 20
-359.1014
 30
0.0
 11
21.9205
 21
-367.8764
 31
0.0
  0
LINE
  5
2A0
100
AcDbEntity
  8
1
  6
CONTINUOUS
 62
     1
100
AcDbLine
 10
36.0955
 20
-343.5764
 30
0.0
 11
36.0955
 21
-352.3514
 31
0.0
  0
LINE
  5
2A1
100
AcDbEntity
  8
1
  6
CONTINUOUS
 62
     1
100
AcDbLine
 10
36.0955
 20
-359.1014
 30
0.0
 11
36.0955
 21
-367.8764
 31
0.0
  0
ARC
  5
2A2
100
AcDbEntity
  8
1
  6
CONTINUOUS
 62
     1
100
AcDbCircle
 10
35.154487
 20
-355.726275
 30
0.0
 40
3.503731
210
0.0
220
0.0
230
1.0
100
AcDbArc
 50
285.579456
 51
74.420544
  0
ARC
  5
2A3
100
AcDbEntity
  8
1
  6
CONTINUOUS
 62
     1
100
AcDbCircle
 10
22.861513
 20
-355.726275
 30
0.0
 40
3.503731
210
0.0
220
0.0
230
1.0
100
AcDbArc
 50
105.579456
 51
254.420544
  0
LINE
  5
2A4
100
AcDbEntity
  8
1
  6
CONTINUOUS
 62
     1
100
AcDbLine
 10
21.9205
 20
-343.5764
 30
0.0
 11
-5.0795
 21
-343.5764
 31
0.0
  0
LINE
  5
2A5
100
AcDbEntity
  8
1
  6
CONTINUOUS
 62
     1
100
AcDbLine
 10
21.9205
 20
-367.8764
 30
0.0
 11
-5.0795
 21
-367.8764
 31
0.0
  0
LINE
  5
2A6
100
AcDbEntity
  8
1
  6
CONTINUOUS
 62
     1
100
AcDbLine
 10
-5.0795
 20
-343.5764
 30
0.0
 11
-5.0795
 21
-367.8764
 31
0.0
  0
LINE
  5
2A7
100
AcDbEntity
  8
1
  6
CONTINUOUS
 62
     1
100
AcDbLine
 10
8.4205
 20
-343.5764
 30
0.0
 11
8.4205
 21
-367.8764
 31
0.0
  0
LINE
  5
2A8
100
AcDbEntity
  8
1
  6
CONTINUOUS
 62
     1
100
AcDbLine
 10
5.0455
 20
-351.0014
 30
0.0
 11
5.0455
 21
-360.4514
 31
0.0
  0
LINE
  5
2A9
100
AcDbEntity
  8
1
  6
CONTINUOUS
 62
     1
100
AcDbLine
 10
5.0455
 20
-351.0014
 30
0.0
 11
8.4205
 21
-351.0014
 31
0.0
  0
LINE
  5
2AA
100
AcDbEntity
  8
1
  6
CONTINUOUS
 62
     1
100
AcDbLine
 10
5.0455
 20
-360.4514
 30
0.0
 11
8.4205
 21
-360.4514
 31
0.0
  0
LINE
  5
2AB
100
AcDbEntity
  8
1
  6
CONTINUOUS
 62
     1
100
AcDbLine
 10
8.4205
 20
-353.7014
 30
0.0
 11
5.0455
 21
-353.7014
 31
0.0
  0
LINE
  5
2AC
100
AcDbEntity
  8
1
  6
CONTINUOUS
 62
     1
100
AcDbLine
 10
8.4205
 20
-357.7514
 30
0.0
 11
5.0455
 21
-357.7514
 31
0.0
  0
LINE
  5
2AD
100
AcDbEntity
  8
1
  6
CONTINUOUS
 62
     7
100
AcDbLine
 10
-1.367
 20
-355.7264
 30
0.0
 11
1.333
 21
-355.7264
 31
0.0
  0
LINE
  5
2AE
100
AcDbEntity
  8
1
  6
CONTINUOUS
 62
     1
100
AcDbLine
 10
32.0455
 20
-352.3514
 30
0.0
 11
32.0455
 21
-359.1014
 31
0.0
  0
LINE
  5
2AF
100
AcDbEntity
  8
1
  6
CONTINUOUS
 62
     1
100
AcDbLine
 10
33.3955
 20
-353.7014
 30
0.0
 11
33.3955
 21
-357.7514
 31
0.0
  0
LINE
  5
2B0
100
AcDbEntity
  8
1
  6
CONTINUOUS
 62
     1
100
AcDbLine
 10
34.7455
 20
-352.3514
 30
0.0
 11
34.7455
 21
-359.1014
 31
0.0
  0
LINE
  5
2B1
100
AcDbEntity
  8
1
  6
CONTINUOUS
 62
     1
100
AcDbLine
 10
36.0955
 20
-353.7014
 30
0.0
 11
36.0955
 21
-357.7514
 31
0.0
  0
POLYLINE
  5
2B2
100
AcDbEntity
  8
1
  6
CONTINUOUS
 62
     1
100
AcDb2dPolyline
 66
     1
 10
0.0
 20
0.0
 30
0.0
 70
     1
  0
VERTEX
  5
2B3
100
AcDbEntity
  8
1
  6
CONTINUOUS
 62
     1
100
AcDbVertex
100
AcDb2dVertex
 10
54.9955
 20
-367.8764
 30
0.0
  0
VERTEX
  5
2B4
100
AcDbEntity
  8
1
  6
CONTINUOUS
 62
     1
100
AcDbVertex
100
AcDb2dVertex
 10
54.9955
 20
-343.5764
 30
0.0
  0
VERTEX
  5
2B5
100
AcDbEntity
  8
1
  6
CONTINUOUS
 62
     1
100
AcDbVertex
100
AcDb2dVertex
 10
58.3705
 20
-346.2764
 30
0.0
  0
VERTEX
  5
2B6
100
AcDbEntity
  8
1
  6
CONTINUOUS
 62
     1
100
AcDbVertex
100
AcDb2dVertex
 10
58.3705
 20
-365.1764
 30
0.0
  0
VERTEX
  5
2B7
100
AcDbEntity
  8
1
  6
CONTINUOUS
 62
     1
100
AcDbVertex
100
AcDb2dVertex
 10
54.9955
 20
-367.8764
 30
0.0
  0
SEQEND
  5
2B8
100
AcDbEntity
  8
1
  6
CONTINUOUS
 62
     1
  0
LINE
  5
2B9
100
AcDbEntity
  8
1
  6
CONTINUOUS
 62
     1
100
AcDbLine
 10
54.9955
 20
-343.5764
 30
0.0
 11
58.3705
 21
-346.2764
 31
0.0
  0
LINE
  5
2BA
100
AcDbEntity
  8
1
  6
CONTINUOUS
 62
     1
100
AcDbLine
 10
58.3705
 20
-365.1764
 30
0.0
 11
54.9955
 21
-367.8764
 31
0.0
  0
LINE
  5
2BB
100
AcDbEntity
  8
1
  6
CONTINUOUS
 62
     7
100
AcDbLine
 10
-7.7795
 20
-343.5764
 30
0.0
 11
-23.9795
 21
-343.5764
 31
0.0
  0
LINE
  5
2BC
100
AcDbEntity
  8
1
  6
CONTINUOUS
 62
     7
100
AcDbLine
 10
-7.7795
 20
-367.8764
 30
0.0
 11
-23.9795
 21
-367.8764
 31
0.0
  0
LINE
  5
2BD
100
AcDbEntity
  8
1
  6
CONTINUOUS
 62
     7
100
AcDbLine
 10
-21.2795
 20
-343.5764
 30
0.0
 11
-21.2795
 21
-367.8764
 31
0.0
  0
LINE
  5
2BE
100
AcDbEntity
  8
1
  6
CONTINUOUS
 62
     7
100
AcDbLine
 10
56.683
 20
-344.9264
 30
0.0
 11
69.081
 21
-335.936
 31
0.0
  0
LINE
  5
2BF
100
AcDbEntity
  8
1
  6
CONTINUOUS
 62
     7
100
AcDbLine
 10
69.081
 20
-335.936
 30
0.0
 11
127.7577
 21
-335.936
 31
0.0
  0
CIRCLE
  5
2C0
100
AcDbEntity
  8
1
  6
CONTINUOUS
 62
     7
100
AcDbCircle
 10
69.08095
 20
-335.93595
 30
0.0
 40
3.375
210
0.0
220
0.0
230
1.0
  0
LINE
  5
2C1
100
AcDbEntity
  8
1
  6
CONTINUOUS
 62
     7
100
AcDbLine
 10
104.6902
 20
-335.936
 30
0.0
 11
104.6902
 21
-343.0775
 31
0.0
  0
LINE
  5
2C2
100
AcDbEntity
  8
1
  6
CONTINUOUS
 62
     7
100
AcDbLine
 10
104.6902
 20
-343.0775
 30
0.0
 11
117.31
 21
-335.936
 31
0.0
  0
LINE
  5
2C3
100
AcDbEntity
  8
1
  6
CONTINUOUS
 62
     7
100
AcDbLine
 10
66.3547
 20
-357.6354
 30
0.0
 11
81.6228
 21
-365.8439
 31
0.0
  0
LINE
  5
2C4
100
AcDbEntity
  8
1
  6
CONTINUOUS
 62
     7
100
AcDbLine
 10
81.6228
 20
-365.8439
 30
0.0
 11
90.5856
 21
-365.8439
 31
0.0
  0
LINE
  5
2C5
100
AcDbEntity
  8
1
  6
CONTINUOUS
 62
     7
100
AcDbLine
 10
45.4446
 20
-283.145
 30
0.0
 11
49.059
 21
-299.6465
 31
0.0
  0
LINE
  5
2C6
100
AcDbEntity
  8
1
  6
CONTINUOUS
 62
     7
100
AcDbLine
 10
49.059
 20
-299.6465
 30
0.0
 11
38.1924
 21
-299.6465
 31
0.0
  0
LINE
  5
2C7
100
AcDbEntity
  8
1
  6
CONTINUOUS
 62
     7
100
AcDbLine
 10
64.8285
 20
-272.4715
 30
0.0
 11
72.9121
 21
-272.4715
 31
0.0
  0
LINE
  5
2C8
100
AcDbEntity
  8
1
  6
CONTINUOUS
 62
     7
100
AcDbLine
 10
77.9455
 20
-245.4405
 30
0.0
 11
89.0793
 21
-237.831
 31
0.0
  0
LINE
  5
2C9
100
AcDbEntity
  8
1
  6
CONTINUOUS
 62
     7
100
AcDbLine
 10
89.0793
 20
-237.831
 30
0.0
 11
99.2832
 21
-237.831
 31
0.0
  0
LINE
  5
2CA
100
AcDbEntity
  8
1
  6
CONTINUOUS
 62
     7
100
AcDbLine
 10
437.8287
 20
-14.5203
 30
0.0
 11
461.2509
 21
-29.3488
 31
0.0
  0
LINE
  5
2CB
100
AcDbEntity
  8
1
  6
CONTINUOUS
 62
     7
100
AcDbLine
 10
422.0548
 20
-13.6608
 30
0.0
 11
431.5329
 21
-19.6612
 31
0.0
  0
LINE
  5
2CC
100
AcDbEntity
  8
1
  6
CONTINUOUS
 62
     7
100
AcDbLine
 10
441.8301
 20
13.1505
 30
0.0
 11
433.3351
 21
28.3011
 31
0.0
  0
LINE
  5
2CD
100
AcDbEntity
  8
1
  6
CONTINUOUS
 62
     7
100
AcDbLine
 10
433.3351
 20
28.3011
 30
0.0
 11
445.5184
 21
28.3011
 31
0.0
  0
LINE
  5
2CE
100
AcDbEntity
  8
1
  6
CONTINUOUS
 62
     7
100
AcDbLine
 10
508.6735
 20
-4.8081
 30
0.0
 11
518.9385
 21
7.2866
 31
0.0
  0
LINE
  5
2CF
100
AcDbEntity
  8
1
  6
CONTINUOUS
 62
     7
100
AcDbLine
 10
518.9385
 20
7.2866
 30
0.0
 11
523.5052
 21
7.2866
 31
0.0
  0
LINE
  5
2D0
100
AcDbEntity
  8
1
  6
CONTINUOUS
 62
     7
100
AcDbLine
 10
516.2143
 20
-1.3173
 30
0.0
 11
550.2843
 21
-1.3173
 31
0.0
  0
LINE
  5
2D1
100
AcDbEntity
  8
1
  6
CONTINUOUS
 62
     7
100
AcDbLine
 10
516.2143
 20
-58.0173
 30
0.0
 11
550.2843
 21
-58.0173
 31
0.0
  0
LINE
  5
2D2
100
AcDbEntity
  8
1
  6
CONTINUOUS
 62
     7
100
AcDbLine
 10
547.5843
 20
-1.3173
 30
0.0
 11
547.5843
 21
-58.0173
 31
0.0
  0
LINE
  5
2D3
100
AcDbEntity
  8
1
  6
CONTINUOUS
 62
     7
100
AcDbLine
 10
529.7143
 20
-6.7173
 30
0.0
 11
529.7143
 21
-52.6173
 31
0.0
  0
LINE
  5
2D4
100
AcDbEntity
  8
1
  6
CONTINUOUS
 62
     7
100
AcDbLine
 10
422.0548
 20
-13.6608
 30
0.0
 11
409.845
 21
-13.6608
 31
0.0
  0
LINE
  5
2D5
100
AcDbEntity
  8
1
  6
CONTINUOUS
 62
     7
100
AcDbLine
 10
431.0761
 20
-59.1243
 30
0.0
 11
438.6886
 21
-51.4632
 31
0.0
  0
LINE
  5
2D6
100
AcDbEntity
  8
1
  6
CONTINUOUS
 62
     7
100
AcDbLine
 10
441.0864
 20
-49.0501
 30
0.0
 11
448.6989
 21
-41.389
 31
0.0
  0
LINE
  5
2D7
100
AcDbEntity
  8
1
  6
CONTINUOUS
 62
     1
100
AcDbLine
 10
497.3143
 20
-1.3173
 30
0.0
 11
497.3143
 21
-14.8173
 31
0.0
  0
LINE
  5
2D8
100
AcDbEntity
  8
1
  6
CONTINUOUS
 62
     1
100
AcDbLine
 10
489.631
 20
-14.8173
 30
0.0
 11
497.3143
 21
-14.8173
 31
0.0
  0
LINE
  5
2D9
100
AcDbEntity
  8
1
  6
CONTINUOUS
 62
     1
100
AcDbLine
 10
489.7492
 20
-44.5173
 30
0.0
 11
497.3143
 21
-44.5173
 31
0.0
  0
LINE
  5
2DA
100
AcDbEntity
  8
1
  6
CONTINUOUS
 62
     1
100
AcDbLine
 10
497.3143
 20
-14.8173
 30
0.0
 11
497.3143
 21
-44.5173
 31
0.0
  0
LINE
  5
2DB
100
AcDbEntity
  8
1
  6
CONTINUOUS
 62
     1
100
AcDbLine
 10
497.3143
 20
-44.5173
 30
0.0
 11
497.3143
 21
-58.0173
 31
0.0
  0
POLYLINE
  5
2DC
100
AcDbEntity
  8
1
  6
CONTINUOUS
 62
     1
100
AcDb2dPolyline
 66
     1
 10
0.0
 20
0.0
 30
0.0
 70
     1
  0
VERTEX
  5
2DD
100
AcDbEntity
  8
1
  6
CONTINUOUS
 62
     1
100
AcDbVertex
100
AcDb2dVertex
 10
497.3143
 20
-44.5173
 30
0.0
  0
VERTEX
  5
2DE
100
AcDbEntity
  8
1
  6
CONTINUOUS
 62
     1
100
AcDbVertex
100
AcDb2dVertex
 10
493.8843
 20
-44.5173
 30
0.0
  0
VERTEX
  5
2DF
100
AcDbEntity
  8
1
  6
CONTINUOUS
 62
     1
100
AcDbVertex
100
AcDb2dVertex
 10
497.3143
 20
-47.9485
 30
0.0
  0
VERTEX
  5
2E0
100
AcDbEntity
  8
1
  6
CONTINUOUS
 62
     1
100
AcDbVertex
100
AcDb2dVertex
 10
497.3143
 20
-44.5173
 30
0.0
  0
SEQEND
  5
2E1
100
AcDbEntity
  8
1
  6
CONTINUOUS
 62
     1
  0
POLYLINE
  5
2E2
100
AcDbEntity
  8
1
  6
CONTINUOUS
 62
     1
100
AcDb2dPolyline
 66
     1
 10
0.0
 20
0.0
 30
0.0
 70
     1
  0
VERTEX
  5
2E3
100
AcDbEntity
  8
1
  6
CONTINUOUS
 62
     1
100
AcDbVertex
100
AcDb2dVertex
 10
493.8843
 20
-14.8173
 30
0.0
  0
VERTEX
  5
2E4
100
AcDbEntity
  8
1
  6
CONTINUOUS
 62
     1
100
AcDbVertex
100
AcDb2dVertex
 10
497.3143
 20
-11.386
 30
0.0
  0
VERTEX
  5
2E5
100
AcDbEntity
  8
1
  6
CONTINUOUS
 62
     1
100
AcDbVertex
100
AcDb2dVertex
 10
497.3143
 20
-14.8173
 30
0.0
  0
VERTEX
  5
2E6
100
AcDbEntity
  8
1
  6
CONTINUOUS
 62
     1
100
AcDbVertex
100
AcDb2dVertex
 10
493.8843
 20
-14.8173
 30
0.0
  0
SEQEND
  5
2E7
100
AcDbEntity
  8
1
  6
CONTINUOUS
 62
     1
  0
LINE
  5
2E8
100
AcDbEntity
  8
1
  6
CONTINUOUS
 62
     7
100
AcDbLine
 10
495.5994
 20
-46.2328
 30
0.0
 11
488.9299
 21
-74.6074
 31
0.0
  0
LINE
  5
2E9
100
AcDbEntity
  8
1
  6
CONTINUOUS
 62
     7
100
AcDbLine
 10
488.9299
 20
-74.6074
 30
0.0
 11
530.9274
 21
-74.6074
 31
0.0
  0
CIRCLE
  5
2EA
100
AcDbEntity
  8
1
  6
CONTINUOUS
 62
     7
100
AcDbCircle
 10
488.9299
 20
-74.607325
 30
0.0
 40
3.375
210
0.0
220
0.0
230
1.0
  0
LINE
  5
2EB
100
AcDbEntity
  8
1
  6
CONTINUOUS
 62
     7
100
AcDbLine
 10
513.7132
 20
-74.6074
 30
0.0
 11
513.7132
 21
-83.5426
 31
0.0
  0
LINE
  5
2EC
100
AcDbEntity
  8
1
  6
CONTINUOUS
 62
     7
100
AcDbLine
 10
513.7132
 20
-83.5426
 30
0.0
 11
523.2612
 21
-74.6074
 31
0.0
  0
LINE
  5
2ED
100
AcDbEntity
  8
1
  6
CONTINUOUS
 62
     7
100
AcDbLine
 10
423.7393
 20
-124.9729
 30
0.0
 11
407.5393
 21
-124.9729
 31
0.0
  0
LINE
  5
2EE
100
AcDbEntity
  8
1
  6
CONTINUOUS
 62
     7
100
AcDbLine
 10
423.7393
 20
-145.3309
 30
0.0
 11
407.5393
 21
-145.3309
 31
0.0
  0
LINE
  5
2EF
100
AcDbEntity
  8
1
  6
CONTINUOUS
 62
     7
100
AcDbLine
 10
410.2393
 20
-124.9729
 30
0.0
 11
410.2393
 21
-145.3309
 31
0.0
  0
LINE
  5
2F0
100
AcDbEntity
  8
1
  6
CONTINUOUS
 62
     7
100
AcDbLine
 10
523.126
 20
-116.603
 30
0.0
 11
512.8297
 21
-120.9243
 31
0.0
  0
LINE
  5
2F1
100
AcDbEntity
  8
1
  6
CONTINUOUS
 62
     7
100
AcDbLine
 10
523.126
 20
-116.603
 30
0.0
 11
526.3418
 21
-116.603
 31
0.0
  0
LINE
  5
2F2
100
AcDbEntity
  8
1
  6
CONTINUOUS
 62
     7
100
AcDbLine
 10
234.8486
 20
7.6915
 30
0.0
 11
249.0484
 21
30.7001
 31
0.0
  0
LINE
  5
2F3
100
AcDbEntity
  8
1
  6
CONTINUOUS
 62
     7
100
AcDbLine
 10
249.0484
 20
30.7001
 30
0.0
 11
259.2344
 21
30.7001
 31
0.0
  0
LINE
  5
2F4
100
AcDbEntity
  8
1
  6
CONTINUOUS
 62
     7
100
AcDbLine
 10
213.6683
 20
-9.7837
 30
0.0
 11
190.2554
 21
24.086
 31
0.0
  0
LINE
  5
2F5
100
AcDbEntity
  8
1
  6
CONTINUOUS
 62
     7
100
AcDbLine
 10
190.2554
 20
24.086
 30
0.0
 11
180.0692
 21
24.086
 31
0.0
  0
LINE
  5
2F6
100
AcDbEntity
  8
1
  6
CONTINUOUS
 62
     7
100
AcDbLine
 10
192.5975
 20
-33.0694
 30
0.0
 11
180.9629
 21
-62.6129
 31
0.0
  0
LINE
  5
2F7
100
AcDbEntity
  8
1
  6
CONTINUOUS
 62
     7
100
AcDbLine
 10
180.9629
 20
-62.6129
 30
0.0
 11
176.976
 21
-62.6129
 31
0.0
  0
LINE
  5
2F8
100
AcDbEntity
  8
1
  6
CONTINUOUS
 62
     7
100
AcDbLine
 10
289.9273
 20
-29.0194
 30
0.0
 11
299.2251
 21
-22.8014
 31
0.0
  0
LINE
  5
2F9
100
AcDbEntity
  8
1
  6
CONTINUOUS
 62
     7
100
AcDbLine
 10
299.2251
 20
-22.8014
 30
0.0
 11
304.684
 21
-22.8014
 31
0.0
  0
LINE
  5
2FA
100
AcDbEntity
  8
1
  6
CONTINUOUS
 62
     7
100
AcDbLine
 10
271.5838
 20
-33.6424
 30
0.0
 11
278.808
 21
-58.6802
 31
0.0
  0
LINE
  5
2FB
100
AcDbEntity
  8
1
  6
CONTINUOUS
 62
     7
100
AcDbLine
 10
278.808
 20
-58.6802
 30
0.0
 11
286.3452
 21
-58.6802
 31
0.0
  0
LINE
  5
2FC
100
AcDbEntity
  8
1
  6
CONTINUOUS
 62
     7
100
AcDbLine
 10
212.5447
 20
-17.3657
 30
0.0
 11
236.069
 21
-31.864
 31
0.0
  0
LINE
  5
2FD
100
AcDbEntity
  8
1
  6
CONTINUOUS
 62
     7
100
AcDbLine
 10
203.9713
 20
-60.6401
 30
0.0
 11
212.4596
 21
-53.9629
 31
0.0
  0
LINE
  5
2FE
100
AcDbEntity
  8
1
  6
CONTINUOUS
 62
     7
100
AcDbLine
 10
215.1475
 20
-51.8483
 30
0.0
 11
223.636
 21
-45.1708
 31
0.0
  0
LINE
  5
2FF
100
AcDbEntity
  8
1
  6
CONTINUOUS
 62
     7
100
AcDbLine
 10
183.3932
 20
-126.6495
 30
0.0
 11
170.8937
 21
-111.2613
 31
0.0
  0
LINE
  5
300
100
AcDbEntity
  8
1
  6
CONTINUOUS
 62
     7
100
AcDbLine
 10
274.0538
 20
-139.3587
 30
0.0
 11
282.8888
 21
-130.9213
 31
0.0
  0
LINE
  5
301
100
AcDbEntity
  8
1
  6
CONTINUOUS
 62
     7
100
AcDbLine
 10
282.8888
 20
-130.9213
 30
0.0
 11
327.8
 21
-130.9213
 31
0.0
  0
CIRCLE
  5
302
100
AcDbEntity
  8
1
  6
CONTINUOUS
 62
     7
100
AcDbCircle
 10
282.8888
 20
-130.9213
 30
0.0
 40
3.375
210
0.0
220
0.0
230
1.0
  0
LINE
  5
303
100
AcDbEntity
  8
1
  6
CONTINUOUS
 62
     7
100
AcDbLine
 10
314.0806
 20
-130.9213
 30
0.0
 11
314.0806
 21
-138.1612
 31
0.0
  0
LINE
  5
304
100
AcDbEntity
  8
1
  6
CONTINUOUS
 62
     7
100
AcDbLine
 10
314.0806
 20
-138.1612
 30
0.0
 11
323.2358
 21
-130.9213
 31
0.0
  0
LINE
  5
305
100
AcDbEntity
  8
1
  6
CONTINUOUS
 62
     7
100
AcDbLine
 10
97.2954
 20
-19.0665
 30
0.0
 11
107.401
 21
-13.9599
 31
0.0
  0
LINE
  5
306
100
AcDbEntity
  8
1
  6
CONTINUOUS
 62
     7
100
AcDbLine
 10
107.401
 20
-13.9599
 30
0.0
 11
111.9351
 21
-13.9599
 31
0.0
  0
LINE
  5
307
100
AcDbEntity
  8
1
  6
CONTINUOUS
 62
     7
100
AcDbLine
 10
0.696
 20
-95.0265
 30
0.0
 11
-13.5652
 21
-123.9903
 31
0.0
  0
LINE
  5
308
100
AcDbEntity
  8
1
  6
CONTINUOUS
 62
     7
100
AcDbLine
 10
-13.5652
 20
-123.9903
 30
0.0
 11
-6.0461
 21
-123.9903
 31
0.0
  0
LINE
  5
309
100
AcDbEntity
  8
1
  6
CONTINUOUS
 62
     1
100
AcDbLine
 10
228.34
 20
-248.7981
 30
0.0
 11
228.34
 21
-258.3889
 31
0.0
  0
LINE
  5
30A
100
AcDbEntity
  8
1
  6
CONTINUOUS
 62
     1
100
AcDbLine
 10
226.342
 20
-248.7981
 30
0.0
 11
226.342
 21
-257.0641
 31
0.0
  0
ARC
  5
30B
100
AcDbEntity
  8
1
  6
CONTINUOUS
 62
     1
100
AcDbCircle
 10
224.760606
 20
-248.030209
 30
0.0
 40
3.675893
210
0.0
220
0.0
230
1.0
100
AcDbArc
 50
348.345781
 51
140.330742
  0
ARC
  5
30C
100
AcDbEntity
  8
1
  6
CONTINUOUS
 62
     1
100
AcDbCircle
 10
221.430903
 20
-252.277789
 30
0.0
 40
4.198131
210
0.0
220
0.0
230
1.0
100
AcDbArc
 50
153.016203
 51
255.097892
  0
LINE
  5
30D
100
AcDbEntity
  8
1
  6
CONTINUOUS
 62
     1
100
AcDbLine
 10
221.914
 20
-245.666
 30
0.0
 11
217.702
 21
-250.3641
 31
0.0
  0
LINE
  5
30E
100
AcDbEntity
  8
1
  6
CONTINUOUS
 62
     1
100
AcDbLine
 10
223.426
 20
-247.0701
 30
0.0
 11
219.214
 21
-251.7681
 31
0.0
  0
ARC
  5
30F
100
AcDbEntity
  8
1
  6
CONTINUOUS
 62
     1
100
AcDbCircle
 10
224.720448
 20
-248.183487
 30
0.0
 40
1.704191
210
0.0
220
0.0
230
1.0
100
AcDbArc
 50
339.770767
 51
138.450756
  0
ARC
  5
310
100
AcDbEntity
  8
1
  6
CONTINUOUS
 62
     1
100
AcDbCircle
 10
220.615594
 20
-252.640884
 30
0.0
 40
1.673642
210
0.0
220
0.0
230
1.0
100
AcDbArc
 50
147.524881
 51
260.913244
  0
ARC
  5
311
100
AcDbEntity
  8
1
  6
CONTINUOUS
 62
     1
100
AcDbCircle
 10
224.720448
 20
-315.550929
 30
0.0
 40
1.704191
210
0.0
220
0.0
230
1.0
100
AcDbArc
 50
221.549244
 51
20.229233
  0
LINE
  5
312
100
AcDbEntity
  8
1
  6
CONTINUOUS
 62
     1
100
AcDbLine
 10
228.34
 20
-314.9481
 30
0.0
 11
228.34
 21
-305.4652
 31
0.0
  0
LINE
  5
313
100
AcDbEntity
  8
1
  6
CONTINUOUS
 62
     1
100
AcDbLine
 10
226.342
 20
-314.9481
 30
0.0
 11
226.342
 21
-306.79
 31
0.0
  0
ARC
  5
314
100
AcDbEntity
  8
1
  6
CONTINUOUS
 62
     1
100
AcDbCircle
 10
224.760606
 20
-315.704207
 30
0.0
 40
3.675893
210
0.0
220
0.0
230
1.0
100
AcDbArc
 50
219.669258
 51
11.654219
  0
LINE
  5
315
100
AcDbEntity
  8
1
  6
CONTINUOUS
 62
     1
100
AcDbLine
 10
221.914
 20
-318.0261
 30
0.0
 11
217.702
 21
-313.3821
 31
0.0
  0
LINE
  5
316
100
AcDbEntity
  8
1
  6
CONTINUOUS
 62
     1
100
AcDbLine
 10
223.426
 20
-316.6761
 30
0.0
 11
219.214
 21
-311.9781
 31
0.0
  0
LINE
  5
317
100
AcDbEntity
  8
1
  6
CONTINUOUS
 62
     1
100
AcDbLine
 10
228.34
 20
-248.7981
 30
0.0
 11
231.094
 21
-248.7981
 31
0.0
  0
LINE
  5
318
100
AcDbEntity
  8
1
  6
CONTINUOUS
 62
     1
100
AcDbLine
 10
228.34
 20
-256.9521
 30
0.0
 11
231.094
 21
-256.9521
 31
0.0
  0
LINE
  5
319
100
AcDbEntity
  8
1
  6
CONTINUOUS
 62
     1
100
AcDbLine
 10
231.094
 20
-248.7981
 30
0.0
 11
231.094
 21
-256.9521
 31
0.0
  0
LINE
  5
31A
100
AcDbEntity
  8
1
  6
CONTINUOUS
 62
     1
100
AcDbLine
 10
228.34
 20
-250.7961
 30
0.0
 11
233.794
 21
-250.7961
 31
0.0
  0
LINE
  5
31B
100
AcDbEntity
  8
1
  6
CONTINUOUS
 62
     1
100
AcDbLine
 10
228.34
 20
-254.9001
 30
0.0
 11
233.794
 21
-254.9001
 31
0.0
  0
LINE
  5
31C
100
AcDbEntity
  8
1
  6
CONTINUOUS
 62
     1
100
AcDbLine
 10
233.794
 20
-250.7961
 30
0.0
 11
233.794
 21
-254.9001
 31
0.0
  0
LINE
  5
31D
100
AcDbEntity
  8
1
  6
CONTINUOUS
 62
     1
100
AcDbLine
 10
232.444
 20
-250.7961
 30
0.0
 11
232.444
 21
-254.9001
 31
0.0
  0
LINE
  5
31E
100
AcDbEntity
  8
1
  6
CONTINUOUS
 62
     1
100
AcDbLine
 10
233.146
 20
-251.4981
 30
0.0
 11
233.146
 21
-254.1981
 31
0.0
  0
LINE
  5
31F
100
AcDbEntity
  8
1
  6
CONTINUOUS
 62
     1
100
AcDbLine
 10
231.742
 20
-251.4981
 30
0.0
 11
231.742
 21
-254.1981
 31
0.0
  0
LINE
  5
320
100
AcDbEntity
  8
1
  6
CONTINUOUS
 62
     1
100
AcDbLine
 10
210.9601
 20
-250.7961
 30
0.0
 11
217.5044
 21
-250.7961
 31
0.0
  0
LINE
  5
321
100
AcDbEntity
  8
1
  6
CONTINUOUS
 62
     1
100
AcDbLine
 10
220.024
 20
-250.7961
 30
0.0
 11
226.342
 21
-250.7961
 31
0.0
  0
LINE
  5
322
100
AcDbEntity
  8
1
  6
CONTINUOUS
 62
     1
100
AcDbLine
 10
210.9601
 20
-254.9001
 30
0.0
 11
218.1524
 21
-254.9001
 31
0.0
  0
LINE
  5
323
100
AcDbEntity
  8
1
  6
CONTINUOUS
 62
     1
100
AcDbLine
 10
221.5126
 20
-254.9001
 30
0.0
 11
226.342
 21
-254.9001
 31
0.0
  0
LINE
  5
324
100
AcDbEntity
  8
1
  6
CONTINUOUS
 62
     1
100
AcDbLine
 10
213.9674
 20
-254.9001
 30
0.0
 11
213.9674
 21
-250.7961
 31
0.0
  0
LINE
  5
325
100
AcDbEntity
  8
1
  6
CONTINUOUS
 62
     1
100
AcDbLine
 10
216.7214
 20
-254.9001
 30
0.0
 11
216.7214
 21
-250.7961
 31
0.0
  0
LINE
  5
326
100
AcDbEntity
  8
1
  6
CONTINUOUS
 62
     1
100
AcDbLine
 10
220.456
 20
-254.3601
 30
0.0
 11
220.456
 21
-250.7961
 31
0.0
  0
LINE
  5
327
100
AcDbEntity
  8
1
  6
CONTINUOUS
 62
     1
100
AcDbLine
 10
223.156
 20
-254.9001
 30
0.0
 11
223.156
 21
-250.7961
 31
0.0
  0
LINE
  5
328
100
AcDbEntity
  8
1
  6
CONTINUOUS
 62
     1
100
AcDbLine
 10
225.91
 20
-254.9001
 30
0.0
 11
225.91
 21
-250.7961
 31
0.0
  0
LINE
  5
329
100
AcDbEntity
  8
1
  6
CONTINUOUS
 62
     1
100
AcDbLine
 10
215.3714
 20
-254.1981
 30
0.0
 11
215.3714
 21
-251.4981
 31
0.0
  0
LINE
  5
32A
100
AcDbEntity
  8
1
  6
CONTINUOUS
 62
     1
100
AcDbLine
 10
221.806
 20
-254.1981
 30
0.0
 11
221.806
 21
-251.4981
 31
0.0
  0
LINE
  5
32B
100
AcDbEntity
  8
1
  6
CONTINUOUS
 62
     1
100
AcDbLine
 10
224.506
 20
-254.1981
 30
0.0
 11
224.506
 21
-251.4981
 31
0.0
  0
LINE
  5
32C
100
AcDbEntity
  8
1
  6
CONTINUOUS
 62
     1
100
AcDbLine
 10
228.34
 20
-315.0561
 30
0.0
 11
231.094
 21
-315.0561
 31
0.0
  0
LINE
  5
32D
100
AcDbEntity
  8
1
  6
CONTINUOUS
 62
     1
100
AcDbLine
 10
228.34
 20
-306.9021
 30
0.0
 11
231.094
 21
-306.9021
 31
0.0
  0
LINE
  5
32E
100
AcDbEntity
  8
1
  6
CONTINUOUS
 62
     1
100
AcDbLine
 10
231.094
 20
-315.0561
 30
0.0
 11
231.094
 21
-306.9021
 31
0.0
  0
LINE
  5
32F
100
AcDbEntity
  8
1
  6
CONTINUOUS
 62
     1
100
AcDbLine
 10
228.34
 20
-313.0041
 30
0.0
 11
233.794
 21
-313.0041
 31
0.0
  0
LINE
  5
330
100
AcDbEntity
  8
1
  6
CONTINUOUS
 62
     1
100
AcDbLine
 10
228.34
 20
-308.9541
 30
0.0
 11
233.794
 21
-308.9541
 31
0.0
  0
LINE
  5
331
100
AcDbEntity
  8
1
  6
CONTINUOUS
 62
     1
100
AcDbLine
 10
233.794
 20
-313.0041
 30
0.0
 11
233.794
 21
-308.9541
 31
0.0
  0
LINE
  5
332
100
AcDbEntity
  8
1
  6
CONTINUOUS
 62
     1
100
AcDbLine
 10
232.444
 20
-313.0041
 30
0.0
 11
232.444
 21
-308.9541
 31
0.0
  0
LINE
  5
333
100
AcDbEntity
  8
1
  6
CONTINUOUS
 62
     1
100
AcDbLine
 10
233.146
 20
-312.3561
 30
0.0
 11
233.146
 21
-309.6021
 31
0.0
  0
LINE
  5
334
100
AcDbEntity
  8
1
  6
CONTINUOUS
 62
     1
100
AcDbLine
 10
231.742
 20
-312.3561
 30
0.0
 11
231.742
 21
-309.6021
 31
0.0
  0
LINE
  5
335
100
AcDbEntity
  8
1
  6
CONTINUOUS
 62
     1
100
AcDbLine
 10
220.1338
 20
-313.0041
 30
0.0
 11
226.342
 21
-313.0041
 31
0.0
  0
LINE
  5
336
100
AcDbEntity
  8
1
  6
CONTINUOUS
 62
     1
100
AcDbLine
 10
210.9601
 20
-308.9541
 30
0.0
 11
217.9823
 21
-308.9541
 31
0.0
  0
LINE
  5
337
100
AcDbEntity
  8
1
  6
CONTINUOUS
 62
     1
100
AcDbLine
 10
221.9782
 20
-308.9541
 30
0.0
 11
226.342
 21
-308.9541
 31
0.0
  0
LINE
  5
338
100
AcDbEntity
  8
1
  6
CONTINUOUS
 62
     1
100
AcDbLine
 10
213.9674
 20
-308.9541
 30
0.0
 11
213.9674
 21
-313.0041
 31
0.0
  0
LINE
  5
339
100
AcDbEntity
  8
1
  6
CONTINUOUS
 62
     1
100
AcDbLine
 10
216.7214
 20
-308.9541
 30
0.0
 11
216.7214
 21
-313.0041
 31
0.0
  0
LINE
  5
33A
100
AcDbEntity
  8
1
  6
CONTINUOUS
 62
     1
100
AcDbLine
 10
220.456
 20
-309.4941
 30
0.0
 11
220.456
 21
-313.0041
 31
0.0
  0
LINE
  5
33B
100
AcDbEntity
  8
1
  6
CONTINUOUS
 62
     1
100
AcDbLine
 10
223.156
 20
-308.9541
 30
0.0
 11
223.156
 21
-313.0041
 31
0.0
  0
LINE
  5
33C
100
AcDbEntity
  8
1
  6
CONTINUOUS
 62
     1
100
AcDbLine
 10
225.91
 20
-308.9541
 30
0.0
 11
225.91
 21
-313.0041
 31
0.0
  0
LINE
  5
33D
100
AcDbEntity
  8
1
  6
CONTINUOUS
 62
     1
100
AcDbLine
 10
215.3714
 20
-309.6021
 30
0.0
 11
215.3714
 21
-312.3561
 31
0.0
  0
LINE
  5
33E
100
AcDbEntity
  8
1
  6
CONTINUOUS
 62
     1
100
AcDbLine
 10
221.806
 20
-309.6021
 30
0.0
 11
221.806
 21
-312.3561
 31
0.0
  0
LINE
  5
33F
100
AcDbEntity
  8
1
  6
CONTINUOUS
 62
     1
100
AcDbLine
 10
224.506
 20
-309.6021
 30
0.0
 11
224.506
 21
-312.3561
 31
0.0
  0
ARC
  5
340
100
AcDbEntity
  8
1
  6
CONTINUOUS
 62
     1
100
AcDbCircle
 10
211.2944
 20
-281.926975
 30
0.0
 40
27.151332
210
0.0
220
0.0
230
1.0
100
AcDbArc
 50
288.220322
 51
70.511419
  0
ARC
  5
341
100
AcDbEntity
  8
1
  6
CONTINUOUS
 62
     1
100
AcDbCircle
 10
220.973572
 20
-311.38002
 30
0.0
 40
3.851447
210
0.0
220
0.0
230
1.0
100
AcDbArc
 50
107.992711
 51
211.695256
  0
ARC
  5
342
100
AcDbEntity
  8
1
  6
CONTINUOUS
 62
     1
100
AcDbCircle
 10
220.723637
 20
-311.222859
 30
0.0
 40
1.702579
210
0.0
220
0.0
230
1.0
100
AcDbArc
 50
101.353978
 51
207.142156
  0
ARC
  5
343
100
AcDbEntity
  8
1
  6
CONTINUOUS
 62
     1
100
AcDbCircle
 10
211.2944
 20
-281.926975
 30
0.0
 40
29.061978
210
0.0
220
0.0
230
1.0
100
AcDbArc
 50
351.989342
 51
71.853281
  0
ARC
  5
344
100
AcDbEntity
  8
1
  6
CONTINUOUS
 62
     1
100
AcDbCircle
 10
211.2944
 20
-281.926975
 30
0.0
 40
29.061978
210
0.0
220
0.0
230
1.0
100
AcDbArc
 50
288.220322
 51
351.989331
  0
POLYLINE
  5
345
100
AcDbEntity
  8
1
  6
CONTINUOUS
 62
     1
100
AcDb2dPolyline
 66
     1
 10
0.0
 20
0.0
 30
0.0
  0
VERTEX
  5
346
100
AcDbEntity
  8
1
  6
CONTINUOUS
 62
     1
100
AcDbVertex
100
AcDb2dVertex
 10
240.072795
 20
-285.97698
 30
0.0
 42
0.07002
  0
VERTEX
  5
347
100
AcDbEntity
  8
1
  6
CONTINUOUS
 62
     1
100
AcDbVertex
100
AcDb2dVertex
 10
240.072795
 20
-277.87697
 30
0.0
 42
-0.10349
  0
VERTEX
  5
348
100
AcDbEntity
  8
1
  6
CONTINUOUS
 62
     1
100
AcDbVertex
100
AcDb2dVertex
 10
241.34381
 20
-279.901981
 30
0.0
  0
VERTEX
  5
349
100
AcDbEntity
  8
1
  6
CONTINUOUS
 62
     1
100
AcDbVertex
100
AcDb2dVertex
 10
241.3439
 20
-279.9021
 30
0.0
  0
VERTEX
  5
34A
100
AcDbEntity
  8
1
  6
CONTINUOUS
 62
     1
100
AcDbVertex
100
AcDb2dVertex
 10
241.346719
 20
-283.944089
 30
0.0
 42
-0.103854
  0
VERTEX
  5
34B
100
AcDbEntity
  8
1
  6
CONTINUOUS
 62
     1
100
AcDbVertex
100
AcDb2dVertex
 10
240.072795
 20
-285.97698
 30
0.0
  0
SEQEND
  5
34C
100
AcDbEntity
  8
1
  6
CONTINUOUS
 62
     1
  0
LINE
  5
34D
100
AcDbEntity
  8
1
  6
CONTINUOUS
 62
     1
100
AcDbLine
 10
241.3201
 20
-280.2396
 30
0.0
 11
254.8201
 21
-280.2396
 31
0.0
  0
LINE
  5
34E
100
AcDbEntity
  8
1
  6
CONTINUOUS
 62
     1
100
AcDbLine
 10
241.3201
 20
-283.6146
 30
0.0
 11
254.8201
 21
-283.6146
 31
0.0
  0
LINE
  5
34F
100
AcDbEntity
  8
1
  6
CONTINUOUS
 62
     1
100
AcDbLine
 10
254.8201
 20
-280.2396
 30
0.0
 11
254.8201
 21
-283.6146
 31
0.0
  0
LINE
  5
350
100
AcDbEntity
  8
1
  6
CONTINUOUS
 62
     1
100
AcDbLine
 10
252.1201
 20
-280.2396
 30
0.0
 11
252.1201
 21
-289.0146
 31
0.0
  0
LINE
  5
351
100
AcDbEntity
  8
1
  6
CONTINUOUS
 62
     1
100
AcDbLine
 10
248.7451
 20
-289.0146
 30
0.0
 11
252.1201
 21
-289.0146
 31
0.0
  0
LINE
  5
352
100
AcDbEntity
  8
1
  6
CONTINUOUS
 62
     1
100
AcDbLine
 10
247.3951
 20
-286.3146
 30
0.0
 11
253.4701
 21
-286.3146
 31
0.0
  0
LINE
  5
353
100
AcDbEntity
  8
1
  6
CONTINUOUS
 62
     1
100
AcDbLine
 10
247.3951
 20
-286.3146
 30
0.0
 11
247.3951
 21
-283.6146
 31
0.0
  0
LINE
  5
354
100
AcDbEntity
  8
1
  6
CONTINUOUS
 62
     1
100
AcDbLine
 10
253.4701
 20
-286.3146
 30
0.0
 11
253.4701
 21
-283.6146
 31
0.0
  0
LINE
  5
355
100
AcDbEntity
  8
1
  6
CONTINUOUS
 62
     1
100
AcDbLine
 10
248.7451
 20
-287.6646
 30
0.0
 11
252.1201
 21
-287.6646
 31
0.0
  0
LINE
  5
356
100
AcDbEntity
  8
1
  6
CONTINUOUS
 62
     1
100
AcDbLine
 10
249.4201
 20
-286.9896
 30
0.0
 11
251.4451
 21
-286.9896
 31
0.0
  0
LINE
  5
357
100
AcDbEntity
  8
1
  6
CONTINUOUS
 62
     1
100
AcDbLine
 10
249.4201
 20
-288.3396
 30
0.0
 11
251.4451
 21
-288.3396
 31
0.0
  0
LINE
  5
358
100
AcDbEntity
  8
1
  6
CONTINUOUS
 62
     1
100
AcDbLine
 10
248.7451
 20
-276.1896
 30
0.0
 11
248.7451
 21
-278.8896
 31
0.0
  0
LINE
  5
359
100
AcDbEntity
  8
1
  6
CONTINUOUS
 62
     1
100
AcDbLine
 10
248.7451
 20
-280.2396
 30
0.0
 11
248.7451
 21
-289.0146
 31
0.0
  0
LINE
  5
35A
100
AcDbEntity
  8
1
  6
CONTINUOUS
 62
     1
100
AcDbLine
 10
247.3951
 20
-276.1896
 30
0.0
 11
247.3951
 21
-274.8396
 31
0.0
  0
LINE
  5
35B
100
AcDbEntity
  8
1
  6
CONTINUOUS
 62
     1
100
AcDbLine
 10
247.3951
 20
-274.8396
 30
0.0
 11
254.8201
 21
-274.8396
 31
0.0
  0
LINE
  5
35C
100
AcDbEntity
  8
1
  6
CONTINUOUS
 62
     1
100
AcDbLine
 10
254.8201
 20
-274.8396
 30
0.0
 11
254.8201
 21
-276.1896
 31
0.0
  0
LINE
  5
35D
100
AcDbEntity
  8
1
  6
CONTINUOUS
 62
     1
100
AcDbLine
 10
247.3951
 20
-276.1896
 30
0.0
 11
246.0451
 21
-276.1896
 31
0.0
  0
LINE
  5
35E
100
AcDbEntity
  8
1
  6
CONTINUOUS
 62
     1
100
AcDbLine
 10
246.0451
 20
-276.1896
 30
0.0
 11
246.0451
 21
-278.8896
 31
0.0
  0
LINE
  5
35F
100
AcDbEntity
  8
1
  6
CONTINUOUS
 62
     1
100
AcDbLine
 10
252.1201
 20
-278.8896
 30
0.0
 11
252.1201
 21
-274.8396
 31
0.0
  0
LINE
  5
360
100
AcDbEntity
  8
1
  6
HIDDEN
 62
     1
100
AcDbLine
 10
259.5451
 20
-276.1896
 30
0.0
 11
259.5451
 21
-266.7396
 31
0.0
  0
LINE
  5
361
100
AcDbEntity
  8
1
  6
HIDDEN
 62
     1
100
AcDbLine
 10
259.5451
 20
-278.8896
 30
0.0
 11
259.5451
 21
-289.6896
 31
0.0
  0
LINE
  5
362
100
AcDbEntity
  8
1
  6
HIDDEN
 62
     1
100
AcDbLine
 10
263.5951
 20
-266.7396
 30
0.0
 11
263.5951
 21
-289.6896
 31
0.0
  0
LINE
  5
363
100
AcDbEntity
  8
1
  6
HIDDEN
 62
     1
100
AcDbLine
 10
259.5451
 20
-266.7396
 30
0.0
 11
263.5951
 21
-266.7396
 31
0.0
  0
LINE
  5
364
100
AcDbEntity
  8
1
  6
HIDDEN
 62
     1
100
AcDbLine
 10
259.5451
 20
-289.6896
 30
0.0
 11
263.5951
 21
-289.6896
 31
0.0
  0
LINE
  5
365
100
AcDbEntity
  8
1
  6
CONTINUOUS
 62
     1
100
AcDbLine
 10
248.7451
 20
-276.1896
 30
0.0
 11
250.4326
 21
-276.1896
 31
0.0
  0
LINE
  5
366
100
AcDbEntity
  8
1
  6
HIDDEN
 62
     1
100
AcDbLine
 10
252.1201
 20
-276.1896
 30
0.0
 11
259.5451
 21
-276.1896
 31
0.0
  0
LINE
  5
367
100
AcDbEntity
  8
1
  6
CONTINUOUS
 62
     1
100
AcDbLine
 10
246.0451
 20
-278.8896
 30
0.0
 11
250.4326
 21
-278.8896
 31
0.0
  0
LINE
  5
368
100
AcDbEntity
  8
1
  6
HIDDEN
 62
     1
100
AcDbLine
 10
252.1201
 20
-278.8896
 30
0.0
 11
259.5451
 21
-278.8896
 31
0.0
  0
LINE
  5
369
100
AcDbEntity
  8
1
  6
CONTINUOUS
 62
     7
100
AcDbLine
 10
250.4326
 20
-269.4396
 30
0.0
 11
250.4326
 21
-279.9021
 31
0.0
  0
LINE
  5
36A
100
AcDbEntity
  8
1
  6
CONTINUOUS
 62
     7
100
AcDbLine
 10
250.4326
 20
-281.2521
 30
0.0
 11
250.4326
 21
-282.6021
 31
0.0
  0
LINE
  5
36B
100
AcDbEntity
  8
1
  6
CONTINUOUS
 62
     7
100
AcDbLine
 10
250.4326
 20
-283.9521
 30
0.0
 11
250.4326
 21
-294.4146
 31
0.0
  0
LINE
  5
36C
100
AcDbEntity
  8
1
  6
CONTINUOUS
 62
     7
100
AcDbLine
 10
187.6091
 20
-295.1544
 30
0.0
 11
210.8191
 21
-282.018
 31
0.0
  0
LINE
  5
36D
100
AcDbEntity
  8
1
  6
CONTINUOUS
 62
     1
100
AcDbLine
 10
248.2303
 20
-360.817
 30
0.0
 11
229.3303
 21
-360.817
 31
0.0
  0
LINE
  5
36E
100
AcDbEntity
  8
1
  6
CONTINUOUS
 62
     1
100
AcDbLine
 10
229.3303
 20
-385.117
 30
0.0
 11
248.2303
 21
-385.117
 31
0.0
  0
LINE
  5
36F
100
AcDbEntity
  8
1
  6
CONTINUOUS
 62
     1
100
AcDbLine
 10
262.4053
 20
-382.417
 30
0.0
 11
262.4053
 21
-363.517
 31
0.0
  0
LINE
  5
370
100
AcDbEntity
  8
1
  6
CONTINUOUS
 62
     1
100
AcDbLine
 10
251.6053
 20
-363.517
 30
0.0
 11
262.4053
 21
-363.517
 31
0.0
  0
LINE
  5
371
100
AcDbEntity
  8
1
  6
CONTINUOUS
 62
     1
100
AcDbLine
 10
251.6053
 20
-382.417
 30
0.0
 11
262.4053
 21
-382.417
 31
0.0
  0
LINE
  5
372
100
AcDbEntity
  8
1
  6
CONTINUOUS
 62
     1
100
AcDbLine
 10
237.4303
 20
-360.817
 30
0.0
 11
237.4303
 21
-385.117
 31
0.0
  0
LINE
  5
373
100
AcDbEntity
  8
1
  6
CONTINUOUS
 62
     7
100
AcDbLine
 10
246.2053
 20
-372.967
 30
0.0
 11
271.8553
 21
-372.967
 31
0.0
  0
CIRCLE
  5
374
100
AcDbEntity
  8
1
  6
CONTINUOUS
 62
     1
100
AcDbCircle
 10
257.680175
 20
-372.96695
 30
0.0
 40
2.7
210
0.0
220
0.0
230
1.0
  0
LINE
  5
375
100
AcDbEntity
  8
1
  6
CONTINUOUS
 62
     7
100
AcDbLine
 10
257.6803
 20
-367.567
 30
0.0
 11
257.6803
 21
-378.367
 31
0.0
  0
LINE
  5
376
100
AcDbEntity
  8
1
  6
CONTINUOUS
 62
     7
100
AcDbLine
 10
243.5053
 20
-372.967
 30
0.0
 11
218.5303
 21
-372.967
 31
0.0
  0
LINE
  5
377
100
AcDbEntity
  8
1
  6
CONTINUOUS
 62
     1
100
AcDbLine
 10
240.1303
 20
-368.242
 30
0.0
 11
237.4303
 21
-368.242
 31
0.0
  0
LINE
  5
378
100
AcDbEntity
  8
1
  6
CONTINUOUS
 62
     1
100
AcDbLine
 10
240.1303
 20
-377.692
 30
0.0
 11
237.4303
 21
-377.692
 31
0.0
  0
LINE
  5
379
100
AcDbEntity
  8
1
  6
CONTINUOUS
 62
     1
100
AcDbLine
 10
240.1303
 20
-368.242
 30
0.0
 11
240.1303
 21
-377.692
 31
0.0
  0
LINE
  5
37A
100
AcDbEntity
  8
1
  6
CONTINUOUS
 62
     1
100
AcDbLine
 10
242.8303
 20
-370.942
 30
0.0
 11
237.4303
 21
-370.942
 31
0.0
  0
LINE
  5
37B
100
AcDbEntity
  8
1
  6
CONTINUOUS
 62
     1
100
AcDbLine
 10
242.8303
 20
-374.992
 30
0.0
 11
237.4303
 21
-374.992
 31
0.0
  0
LINE
  5
37C
100
AcDbEntity
  8
1
  6
CONTINUOUS
 62
     1
100
AcDbLine
 10
242.8303
 20
-370.942
 30
0.0
 11
242.8303
 21
-374.992
 31
0.0
  0
LINE
  5
37D
100
AcDbEntity
  8
1
  6
CONTINUOUS
 62
     1
100
AcDbLine
 10
241.4803
 20
-371.9545
 30
0.0
 11
241.4803
 21
-373.9795
 31
0.0
  0
LINE
  5
37E
100
AcDbEntity
  8
1
  6
CONTINUOUS
 62
     1
100
AcDbLine
 10
229.3303
 20
-360.817
 30
0.0
 11
229.3303
 21
-369.592
 31
0.0
  0
LINE
  5
37F
100
AcDbEntity
  8
1
  6
CONTINUOUS
 62
     1
100
AcDbLine
 10
229.3303
 20
-376.342
 30
0.0
 11
229.3303
 21
-385.117
 31
0.0
  0
ARC
  5
380
100
AcDbEntity
  8
1
  6
CONTINUOUS
 62
     1
100
AcDbCircle
 10
228.389162
 20
-372.96695
 30
0.0
 40
3.503731
210
0.0
220
0.0
230
1.0
100
AcDbArc
 50
285.579456
 51
74.420544
  0
ARC
  5
381
100
AcDbEntity
  8
1
  6
CONTINUOUS
 62
     1
100
AcDbCircle
 10
162.771188
 20
-372.96695
 30
0.0
 40
3.503731
210
0.0
220
0.0
230
1.0
100
AcDbArc
 50
105.579456
 51
254.420544
  0
LINE
  5
382
100
AcDbEntity
  8
1
  6
CONTINUOUS
 62
     1
100
AcDbLine
 10
225.2803
 20
-369.592
 30
0.0
 11
225.2803
 21
-376.342
 31
0.0
  0
LINE
  5
383
100
AcDbEntity
  8
1
  6
CONTINUOUS
 62
     1
100
AcDbLine
 10
226.6303
 20
-370.942
 30
0.0
 11
226.6303
 21
-374.992
 31
0.0
  0
LINE
  5
384
100
AcDbEntity
  8
1
  6
CONTINUOUS
 62
     1
100
AcDbLine
 10
227.9803
 20
-369.592
 30
0.0
 11
227.9803
 21
-376.342
 31
0.0
  0
LINE
  5
385
100
AcDbEntity
  8
1
  6
CONTINUOUS
 62
     1
100
AcDbLine
 10
229.3303
 20
-370.942
 30
0.0
 11
229.3303
 21
-374.992
 31
0.0
  0
POLYLINE
  5
386
100
AcDbEntity
  8
1
  6
CONTINUOUS
 62
     1
100
AcDb2dPolyline
 66
     1
 10
0.0
 20
0.0
 30
0.0
 70
     1
  0
VERTEX
  5
387
100
AcDbEntity
  8
1
  6
CONTINUOUS
 62
     1
100
AcDbVertex
100
AcDb2dVertex
 10
248.2303
 20
-385.117
 30
0.0
  0
VERTEX
  5
388
100
AcDbEntity
  8
1
  6
CONTINUOUS
 62
     1
100
AcDbVertex
100
AcDb2dVertex
 10
248.2303
 20
-360.817
 30
0.0
  0
VERTEX
  5
389
100
AcDbEntity
  8
1
  6
CONTINUOUS
 62
     1
100
AcDbVertex
100
AcDb2dVertex
 10
251.6053
 20
-363.517
 30
0.0
  0
VERTEX
  5
38A
100
AcDbEntity
  8
1
  6
CONTINUOUS
 62
     1
100
AcDbVertex
100
AcDb2dVertex
 10
251.6053
 20
-382.417
 30
0.0
  0
VERTEX
  5
38B
100
AcDbEntity
  8
1
  6
CONTINUOUS
 62
     1
100
AcDbVertex
100
AcDb2dVertex
 10
248.2303
 20
-385.117
 30
0.0
  0
SEQEND
  5
38C
100
AcDbEntity
  8
1
  6
CONTINUOUS
 62
     1
  0
LINE
  5
38D
100
AcDbEntity
  8
1
  6
CONTINUOUS
 62
     1
100
AcDbLine
 10
248.2303
 20
-360.817
 30
0.0
 11
251.6053
 21
-363.517
 31
0.0
  0
LINE
  5
38E
100
AcDbEntity
  8
1
  6
CONTINUOUS
 62
     1
100
AcDbLine
 10
251.6053
 20
-382.417
 30
0.0
 11
248.2303
 21
-385.117
 31
0.0
  0
LINE
  5
38F
100
AcDbEntity
  8
1
  6
CONTINUOUS
 62
     7
100
AcDbLine
 10
249.9178
 20
-362.167
 30
0.0
 11
262.3157
 21
-353.1767
 31
0.0
  0
LINE
  5
390
100
AcDbEntity
  8
1
  6
CONTINUOUS
 62
     7
100
AcDbLine
 10
262.3157
 20
-353.1767
 30
0.0
 11
294.0964
 21
-353.1767
 31
0.0
  0
CIRCLE
  5
391
100
AcDbEntity
  8
1
  6
CONTINUOUS
 62
     7
100
AcDbCircle
 10
262.315625
 20
-353.176625
 30
0.0
 40
3.375
210
0.0
220
0.0
230
1.0
  0
LINE
  5
392
100
AcDbEntity
  8
1
  6
CONTINUOUS
 62
     7
100
AcDbLine
 10
281.859
 20
-353.26
 30
0.0
 11
281.859
 21
-360.4015
 31
0.0
  0
LINE
  5
393
100
AcDbEntity
  8
1
  6
CONTINUOUS
 62
     7
100
AcDbLine
 10
259.5893
 20
-374.8762
 30
0.0
 11
268.8916
 21
-379.8773
 31
0.0
  0
LINE
  5
394
100
AcDbEntity
  8
1
  6
CONTINUOUS
 62
     1
100
AcDbLine
 10
210.9601
 20
-313.0041
 30
0.0
 11
217.3591
 21
-313.0041
 31
0.0
  0
ARC
  5
395
100
AcDbEntity
  8
1
  6
CONTINUOUS
 62
     1
100
AcDbCircle
 10
210.96005
 20
-281.926975
 30
0.0
 40
27.021983
210
0.0
220
0.0
230
1.0
100
AcDbArc
 50
90.0
 51
270.0
  0
ARC
  5
396
100
AcDbEntity
  8
1
  6
CONTINUOUS
 62
     1
100
AcDbCircle
 10
210.96005
 20
-281.926975
 30
0.0
 40
31.131
210
0.0
220
0.0
230
1.0
100
AcDbArc
 50
90.0
 51
270.0
  0
LINE
  5
397
100
AcDbEntity
  8
1
  6
CONTINUOUS
 62
     7
100
AcDbLine
 10
235.9615
 20
-266.5605
 30
0.0
 11
252.9908
 21
-246.0624
 31
0.0
  0
LINE
  5
398
100
AcDbEntity
  8
1
  6
CONTINUOUS
 62
     7
100
AcDbLine
 10
252.9908
 20
-246.0624
 30
0.0
 11
258.0405
 21
-246.0624
 31
0.0
  0
LINE
  5
399
100
AcDbEntity
  8
1
  6
CONTINUOUS
 62
     7
100
AcDbLine
 10
263.5951
 20
-278.2146
 30
0.0
 11
269.3788
 21
-272.0086
 31
0.0
  0
LINE
  5
39A
100
AcDbEntity
  8
1
  6
CONTINUOUS
 62
     7
100
AcDbLine
 10
269.3788
 20
-272.0086
 30
0.0
 11
274.6
 21
-272.0086
 31
0.0
  0
LINE
  5
39B
100
AcDbEntity
  8
1
  6
CONTINUOUS
 62
     7
100
AcDbLine
 10
210.9601
 20
-250.7961
 30
0.0
 11
218.7641
 21
-237.0495
 31
0.0
  0
LINE
  5
39C
100
AcDbEntity
  8
1
  6
CONTINUOUS
 62
     7
100
AcDbLine
 10
210.6346
 20
-237.0495
 30
0.0
 11
218.7641
 21
-237.0495
 31
0.0
  0
LINE
  5
39D
100
AcDbEntity
  8
1
  6
CONTINUOUS
 62
     1
100
AcDbLine
 10
229.3303
 20
-376.342
 30
0.0
 11
161.8303
 21
-376.342
 31
0.0
  0
LINE
  5
39E
100
AcDbEntity
  8
1
  6
CONTINUOUS
 62
     1
100
AcDbLine
 10
229.3303
 20
-369.592
 30
0.0
 11
161.8303
 21
-369.592
 31
0.0
  0
INSERT
  5
3A4
100
AcDbEntity
  8
1
  6
CONTINUOUS
 62
     1
100
AcDbBlockReference
  2
LDR
 10
0.696
 20
-95.0265
 30
0.0
 41
240.000001
 42
240.000001
 50
63.785397
210
0.0
220
0.0
230
1.0
  0
INSERT
  5
3A5
100
AcDbEntity
  8
1
  6
CONTINUOUS
 62
     1
100
AcDbBlockReference
  2
LDR
 10
0.696
 20
-95.0265
 30
0.0
 41
240.000001
 42
240.000001
 50
63.785397
210
0.0
220
0.0
230
1.0
  0
INSERT
  5
3A6
100
AcDbEntity
  8
1
  6
CONTINUOUS
 62
     1
100
AcDbBlockReference
  2
LDR
 10
97.2954
 20
-19.0665
 30
0.0
 41
240.0
 42
240.0
 50
206.808509
210
0.0
220
0.0
230
1.0
  0
TEXT
  5
3A7
100
AcDbEntity
  8
1
  6
CONTINUOUS
 62
     7
100
AcDbText
 10
113.6304
 20
-15.3426
 30
0.0
 40
3.0
  1
SIGN FACE
  7
MONOTXT
210
0.0
220
0.0
230
1.0
100
AcDbText
  0
TEXT
  5
3A8
100
AcDbEntity
  8
1
  6
CONTINUOUS
 62
     7
100
AcDbText
 10
149.4834
 20
22.1311
 30
0.0
 40
3.0
  1
ASTM A 575
  7
MONOTXT
 11
149.4834
 21
25.1311
 31
0.0
210
0.0
220
0.0
230
1.0
100
AcDbText
 73
     3
  0
TEXT
  5
3A9
100
AcDbEntity
  8
1
  6
CONTINUOUS
 62
     7
100
AcDbText
 10
149.4834
 20
16.7311
 30
0.0
 40
3.0
  1
GRADE 1020
  7
MONOTXT
 11
149.4834
 21
19.7311
 31
0.0
210
0.0
220
0.0
230
1.0
100
AcDbText
 73
     3
  0
TEXT
  5
3AA
100
AcDbEntity
  8
1
  6
CONTINUOUS
 62
     7
100
AcDbText
 10
149.4834
 20
11.3311
 30
0.0
 40
3.0
  1
OR APPROVED
  7
MONOTXT
 11
149.4834
 21
14.3311
 31
0.0
210
0.0
220
0.0
230
1.0
100
AcDbText
 73
     3
  0
TEXT
  5
3AB
100
AcDbEntity
  8
1
  6
CONTINUOUS
 62
     7
100
AcDbText
 10
149.4834
 20
5.9311
 30
0.0
 40
3.0
  1
EQUAL
  7
MONOTXT
 11
149.4834
 21
8.9311
 31
0.0
210
0.0
220
0.0
230
1.0
100
AcDbText
 73
     3
  0
TEXT
  5
3AC
100
AcDbEntity
  8
1
  6
CONTINUOUS
 62
     7
100
AcDbText
 10
285.0566
 20
28.5338
 30
0.0
 40
3.0
  1
/
  7
MONOTXT
210
0.0
220
0.0
230
1.0
100
AcDbText
  0
TEXT
  5
3AD
100
AcDbEntity
  8
1
  6
CONTINUOUS
 62
     7
100
AcDbText
 10
219.3178
 20
-20.3089
 30
0.0
 40
3.0
  1
TO FIT
 50
328.353989
  7
MONOTXT
 72
     1
 11
225.843315
 21
-24.330651
 31
0.0
210
0.0
220
0.0
230
1.0
100
AcDbText
  0
TEXT
  5
3AE
100
AcDbEntity
  8
1
  6
CONTINUOUS
 62
     7
100
AcDbText
 10
213.7195
 20
-23.2018
 30
0.0
 40
3.0
  1
TUBE DIA.
 50
328.353989
  7
MONOTXT
 72
     1
 11
223.000096
 21
-28.921539
 31
0.0
210
0.0
220
0.0
230
1.0
100
AcDbText
  0
INSERT
  5
3AF
100
AcDbEntity
  8
1
  6
CONTINUOUS
 62
     1
100
AcDbBlockReference
  2
LDR
 10
213.6683
 20
-9.7837
 30
0.0
 41
239.999999
 42
239.999999
 50
304.654705
210
0.0
220
0.0
230
1.0
  0
INSERT
  5
3B0
100
AcDbEntity
  8
1
  6
CONTINUOUS
 62
     1
100
AcDbBlockReference
  2
LDR
 10
213.6683
 20
-9.7837
 30
0.0
 41
239.999999
 42
239.999999
 50
304.654705
210
0.0
220
0.0
230
1.0
  0
INSERT
  5
3B1
100
AcDbEntity
  8
1
  6
CONTINUOUS
 62
     1
100
AcDbBlockReference
  2
LDR
 10
234.8486
 20
7.6915
 30
0.0
 41
239.999999
 42
239.999999
 50
238.319113
210
0.0
220
0.0
230
1.0
  0
INSERT
  5
3B2
100
AcDbEntity
  8
1
  6
CONTINUOUS
 62
     1
100
AcDbBlockReference
  2
LDR
 10
234.8486
 20
7.6915
 30
0.0
 41
239.999999
 42
239.999999
 50
238.319113
210
0.0
220
0.0
230
1.0
  0
INSERT
  5
3B3
100
AcDbEntity
  8
1
  6
CONTINUOUS
 62
     1
100
AcDbBlockReference
  2
LDR
 10
289.9273
 20
-29.0194
 30
0.0
 41
240.0
 42
240.0
 50
213.77287
210
0.0
220
0.0
230
1.0
  0
INSERT
  5
3B4
100
AcDbEntity
  8
1
  6
CONTINUOUS
 62
     1
100
AcDbBlockReference
  2
LDR
 10
289.9273
 20
-29.0194
 30
0.0
 41
240.0
 42
240.0
 50
213.77287
210
0.0
220
0.0
230
1.0
  0
INSERT
  5
3B5
100
AcDbEntity
  8
1
  6
CONTINUOUS
 62
     1
100
AcDbBlockReference
  2
LDR
 10
212.5447
 20
-17.3657
 30
0.0
 41
240.000001
 42
240.000001
 50
148.353988
210
0.0
220
0.0
230
1.0
  0
INSERT
  5
3B6
100
AcDbEntity
  8
1
  6
CONTINUOUS
 62
     1
100
AcDbBlockReference
  2
LDR
 10
212.5447
 20
-17.3657
 30
0.0
 41
240.000001
 42
240.000001
 50
148.353988
210
0.0
220
0.0
230
1.0
  0
INSERT
  5
3B7
100
AcDbEntity
  8
1
  6
CONTINUOUS
 62
     1
100
AcDbBlockReference
  2
LDR
 10
215.1475
 20
-51.8483
 30
0.0
 41
239.999999
 42
239.999999
 50
218.19045
210
0.0
220
0.0
230
1.0
  0
INSERT
  5
3B8
100
AcDbEntity
  8
1
  6
CONTINUOUS
 62
     1
100
AcDbBlockReference
  2
LDR
 10
215.1475
 20
-51.8483
 30
0.0
 41
239.999999
 42
239.999999
 50
218.19045
210
0.0
220
0.0
230
1.0
  0
INSERT
  5
3B9
100
AcDbEntity
  8
1
  6
CONTINUOUS
 62
     1
100
AcDbBlockReference
  2
LDR
 10
212.4596
 20
-53.9629
 30
0.0
 41
240.000001
 42
240.000001
 50
38.189855
210
0.0
220
0.0
230
1.0
  0
INSERT
  5
3BA
100
AcDbEntity
  8
1
  6
CONTINUOUS
 62
     1
100
AcDbBlockReference
  2
LDR
 10
212.4596
 20
-53.9629
 30
0.0
 41
240.000001
 42
240.000001
 50
38.189855
210
0.0
220
0.0
230
1.0
  0
INSERT
  5
3BB
100
AcDbEntity
  8
1
  6
CONTINUOUS
 62
     1
100
AcDbBlockReference
  2
LDR
 10
192.5975
 20
-33.0694
 30
0.0
 41
240.000003
 42
240.000003
 50
68.504859
210
0.0
220
0.0
230
1.0
  0
INSERT
  5
3BC
100
AcDbEntity
  8
1
  6
CONTINUOUS
 62
     1
100
AcDbBlockReference
  2
LDR
 10
183.3932
 20
-126.6495
 30
0.0
 41
240.000001
 42
240.000001
 50
309.086038
210
0.0
220
0.0
230
1.0
  0
INSERT
  5
3BD
100
AcDbEntity
  8
1
  6
CONTINUOUS
 62
     1
100
AcDbBlockReference
  2
LDR
 10
274.0538
 20
-139.3587
 30
0.0
 41
239.999998
 42
239.999998
 50
223.681319
210
0.0
220
0.0
230
1.0
  0
INSERT
  5
3BE
100
AcDbEntity
  8
1
  6
CONTINUOUS
 62
     1
100
AcDbBlockReference
  2
LDR
 10
210.9601
 20
-250.7961
 30
0.0
 41
240.000001
 42
240.000001
 50
240.416063
210
0.0
220
0.0
230
1.0
  0
INSERT
  5
3BF
100
AcDbEntity
  8
1
  6
CONTINUOUS
 62
     1
100
AcDbBlockReference
  2
LDR
 10
210.9601
 20
-250.7961
 30
0.0
 41
240.000001
 42
240.000001
 50
240.416063
210
0.0
220
0.0
230
1.0
  0
INSERT
  5
3C0
100
AcDbEntity
  8
1
  6
CONTINUOUS
 62
     1
100
AcDbBlockReference
  2
LDR
 10
235.9615
 20
-266.5605
 30
0.0
 41
240.0
 42
240.0
 50
230.281095
210
0.0
220
0.0
230
1.0
  0
INSERT
  5
3C1
100
AcDbEntity
  8
1
  6
CONTINUOUS
 62
     1
100
AcDbBlockReference
  2
LDR
 10
235.9615
 20
-266.5605
 30
0.0
 41
240.0
 42
240.0
 50
230.281095
210
0.0
220
0.0
230
1.0
  0
INSERT
  5
3C2
100
AcDbEntity
  8
1
  6
CONTINUOUS
 62
     1
100
AcDbBlockReference
  2
LDR
 10
263.5951
 20
-278.2146
 30
0.0
 41
240.0
 42
240.0
 50
227.016975
210
0.0
220
0.0
230
1.0
  0
INSERT
  5
3C3
100
AcDbEntity
  8
1
  6
CONTINUOUS
 62
     1
100
AcDbBlockReference
  2
LDR
 10
263.5951
 20
-278.2146
 30
0.0
 41
240.0
 42
240.0
 50
227.016975
210
0.0
220
0.0
230
1.0
  0
INSERT
  5
3C4
100
AcDbEntity
  8
1
  6
CONTINUOUS
 62
     1
100
AcDbBlockReference
  2
LDR
 10
187.6091
 20
-295.1544
 30
0.0
 41
240.0
 42
240.0
 50
209.509001
210
0.0
220
0.0
230
1.0
  0
INSERT
  5
3C5
100
AcDbEntity
  8
1
  6
CONTINUOUS
 62
     1
100
AcDbBlockReference
  2
LDR
 10
187.6091
 20
-295.1544
 30
0.0
 41
240.0
 42
240.0
 50
209.509001
210
0.0
220
0.0
230
1.0
  0
INSERT
  5
3C6
100
AcDbEntity
  8
1
  6
CONTINUOUS
 62
     1
100
AcDbBlockReference
  2
LDR
 10
249.9178
 20
-362.167
 30
0.0
 41
240.000001
 42
240.000001
 50
215.947632
210
0.0
220
0.0
230
1.0
  0
INSERT
  5
3C7
100
AcDbEntity
  8
1
  6
CONTINUOUS
 62
     1
100
AcDbBlockReference
  2
LDR
 10
259.5893
 20
-374.8762
 30
0.0
 41
239.999998
 42
239.999998
 50
151.736741
210
0.0
220
0.0
230
1.0
  0
INSERT
  5
3C8
100
AcDbEntity
  8
1
  6
CONTINUOUS
 62
     1
100
AcDbBlockReference
  2
LDR
 10
259.5893
 20
-374.8762
 30
0.0
 41
239.999998
 42
239.999998
 50
151.736741
210
0.0
220
0.0
230
1.0
  0
TEXT
  5
3C9
100
AcDbEntity
  8
1
  6
CONTINUOUS
 62
     7
100
AcDbText
 10
207.8636
 20
-279.2759
 30
0.0
 40
3.0
  1
TO FIT
 50
29.509
  7
MONOTXT
 72
     1
 11
214.534545
 21
-275.500278
 31
0.0
210
0.0
220
0.0
230
1.0
100
AcDbText
  0
TEXT
  5
3CA
100
AcDbEntity
  8
1
  6
CONTINUOUS
 62
     7
100
AcDbText
 10
212.4969
 20
-282.8584
 30
0.0
 40
3.0
  1
TUBE
 50
29.509
  7
MONOTXT
 72
     1
 11
217.194314
 21
-280.199757
 31
0.0
210
0.0
220
0.0
230
1.0
100
AcDbText
  0
TEXT
  5
3CB
100
AcDbEntity
  8
1
  6
CONTINUOUS
 62
     7
100
AcDbText
 10
215.2904
 20
-287.4822
 30
0.0
 40
3.0
  1
DIAM.
 50
29.509
  7
MONOTXT
 72
     1
 11
219.84387
 21
-284.905026
 31
0.0
210
0.0
220
0.0
230
1.0
100
AcDbText
  0
INSERT
  5
3CC
100
AcDbEntity
  8
1
  6
CONTINUOUS
 62
     1
100
AcDbBlockReference
  2
LDR
 10
441.8301
 20
13.1505
 30
0.0
 41
239.999999
 42
239.999999
 50
299.279518
210
0.0
220
0.0
230
1.0
  0
INSERT
  5
3CD
100
AcDbEntity
  8
1
  6
CONTINUOUS
 62
     1
100
AcDbBlockReference
  2
LDR
 10
441.8301
 20
13.1505
 30
0.0
 41
239.999999
 42
239.999999
 50
299.279518
210
0.0
220
0.0
230
1.0
  0
INSERT
  5
3CE
100
AcDbEntity
  8
1
  6
CONTINUOUS
 62
     1
100
AcDbBlockReference
  2
LDR
 10
431.5329
 20
-19.6612
 30
0.0
 41
239.999999
 42
239.999999
 50
327.662898
210
0.0
220
0.0
230
1.0
  0
INSERT
  5
3CF
100
AcDbEntity
  8
1
  6
CONTINUOUS
 62
     1
100
AcDbBlockReference
  2
LDR
 10
431.5329
 20
-19.6612
 30
0.0
 41
239.999999
 42
239.999999
 50
327.662898
210
0.0
220
0.0
230
1.0
  0
INSERT
  5
3D0
100
AcDbEntity
  8
1
  6
CONTINUOUS
 62
     1
100
AcDbBlockReference
  2
LDR
 10
437.8287
 20
-14.5203
 30
0.0
 41
240.000001
 42
240.000001
 50
147.662265
210
0.0
220
0.0
230
1.0
  0
INSERT
  5
3D1
100
AcDbEntity
  8
1
  6
CONTINUOUS
 62
     1
100
AcDbBlockReference
  2
LDR
 10
437.8287
 20
-14.5203
 30
0.0
 41
240.000001
 42
240.000001
 50
147.662265
210
0.0
220
0.0
230
1.0
  0
INSERT
  5
3D2
100
AcDbEntity
  8
1
  6
CONTINUOUS
 62
     1
100
AcDbBlockReference
  2
LDR
 10
441.0864
 20
-49.0501
 30
0.0
 41
239.999999
 42
239.999999
 50
225.182312
210
0.0
220
0.0
230
1.0
  0
INSERT
  5
3D3
100
AcDbEntity
  8
1
  6
CONTINUOUS
 62
     1
100
AcDbBlockReference
  2
LDR
 10
441.0864
 20
-49.0501
 30
0.0
 41
239.999999
 42
239.999999
 50
225.182312
210
0.0
220
0.0
230
1.0
  0
INSERT
  5
3D4
100
AcDbEntity
  8
1
  6
CONTINUOUS
 62
     1
100
AcDbBlockReference
  2
LDR
 10
438.6886
 20
-51.4632
 30
0.0
 41
239.999999
 42
239.999999
 50
45.182312
210
0.0
220
0.0
230
1.0
  0
INSERT
  5
3D5
100
AcDbEntity
  8
1
  6
CONTINUOUS
 62
     1
100
AcDbBlockReference
  2
LDR
 10
438.6886
 20
-51.4632
 30
0.0
 41
239.999999
 42
239.999999
 50
45.182312
210
0.0
220
0.0
230
1.0
  0
INSERT
  5
3D6
100
AcDbEntity
  8
1
  6
CONTINUOUS
 62
     1
100
AcDbBlockReference
  2
LDR
 10
495.5994
 20
-46.2328
 30
0.0
 41
239.999999
 42
239.999999
 50
76.772638
210
0.0
220
0.0
230
1.0
  0
INSERT
  5
3D7
100
AcDbEntity
  8
1
  6
CONTINUOUS
 62
     1
100
AcDbBlockReference
  2
LDR
 10
495.5994
 20
-46.2328
 30
0.0
 41
239.999999
 42
239.999999
 50
76.772638
210
0.0
220
0.0
230
1.0
  0
INSERT
  5
3D8
100
AcDbEntity
  8
1
  6
CONTINUOUS
 62
     1
100
AcDbBlockReference
  2
LDR
 10
508.6735
 20
-4.8081
 30
0.0
 41
240.000002
 42
240.000002
 50
229.678106
210
0.0
220
0.0
230
1.0
  0
INSERT
  5
3D9
100
AcDbEntity
  8
1
  6
CONTINUOUS
 62
     1
100
AcDbBlockReference
  2
LDR
 10
508.6735
 20
-4.8081
 30
0.0
 41
240.000002
 42
240.000002
 50
229.678106
210
0.0
220
0.0
230
1.0
  0
INSERT
  5
3DA
100
AcDbEntity
  8
1
  6
CONTINUOUS
 62
     1
100
AcDbBlockReference
  2
LDR
 10
529.7143
 20
-6.7173
 30
0.0
 41
240.0
 42
240.0
 50
90.0
210
0.0
220
0.0
230
1.0
  0
INSERT
  5
3DB
100
AcDbEntity
  8
1
  6
CONTINUOUS
 62
     1
100
AcDbBlockReference
  2
LDR
 10
529.7143
 20
-6.7173
 30
0.0
 41
240.0
 42
240.0
 50
90.0
210
0.0
220
0.0
230
1.0
  0
INSERT
  5
3DC
100
AcDbEntity
  8
1
  6
CONTINUOUS
 62
     1
100
AcDbBlockReference
  2
LDR
 10
529.7143
 20
-52.6173
 30
0.0
 41
240.0
 42
240.0
 50
270.0
210
0.0
220
0.0
230
1.0
  0
INSERT
  5
3DD
100
AcDbEntity
  8
1
  6
CONTINUOUS
 62
     1
100
AcDbBlockReference
  2
LDR
 10
529.7143
 20
-52.6173
 30
0.0
 41
240.0
 42
240.0
 50
270.0
210
0.0
220
0.0
230
1.0
  0
INSERT
  5
3DE
100
AcDbEntity
  8
1
  6
CONTINUOUS
 62
     1
100
AcDbBlockReference
  2
LDR
 10
547.5843
 20
-1.3173
 30
0.0
 41
240.0
 42
240.0
 50
90.0
210
0.0
220
0.0
230
1.0
  0
INSERT
  5
3DF
100
AcDbEntity
  8
1
  6
CONTINUOUS
 62
     1
100
AcDbBlockReference
  2
LDR
 10
547.5843
 20
-1.3173
 30
0.0
 41
240.0
 42
240.0
 50
90.0
210
0.0
220
0.0
230
1.0
  0
INSERT
  5
3E0
100
AcDbEntity
  8
1
  6
CONTINUOUS
 62
     1
100
AcDbBlockReference
  2
LDR
 10
547.5843
 20
-58.0173
 30
0.0
 41
240.0
 42
240.0
 50
270.0
210
0.0
220
0.0
230
1.0
  0
INSERT
  5
3E1
100
AcDbEntity
  8
1
  6
CONTINUOUS
 62
     1
100
AcDbBlockReference
  2
LDR
 10
547.5843
 20
-58.0173
 30
0.0
 41
240.0
 42
240.0
 50
270.0
210
0.0
220
0.0
230
1.0
  0
TEXT
  5
3E2
100
AcDbEntity
  8
1
  6
CONTINUOUS
 62
     7
100
AcDbText
 10
544.3464
 20
6.4293
 30
0.0
 40
3.0
  1
/
  7
MONOTXT
 72
     4
 11
545.185
 21
7.9293
 31
0.0
210
0.0
220
0.0
230
1.0
100
AcDbText
  0
TEXT
  5
3E3
100
AcDbEntity
  8
1
  6
CONTINUOUS
 62
     7
100
AcDbText
 10
383.0343
 20
-15.3278
 30
0.0
 40
3.0
  1
ASTM A575
  7
MONOTXT
 11
383.0343
 21
-12.3278
 31
0.0
210
0.0
220
0.0
230
1.0
100
AcDbText
 73
     3
  0
TEXT
  5
3E4
100
AcDbEntity
  8
1
  6
CONTINUOUS
 62
     7
100
AcDbText
 10
383.0343
 20
-20.7278
 30
0.0
 40
3.0
  1
GRADE 1020
  7
MONOTXT
 11
383.0343
 21
-17.7278
 31
0.0
210
0.0
220
0.0
230
1.0
100
AcDbText
 73
     3
  0
TEXT
  5
3E5
100
AcDbEntity
  8
1
  6
CONTINUOUS
 62
     7
100
AcDbText
 10
383.0343
 20
-26.1278
 30
0.0
 40
3.0
  1
OR APPROVED
  7
MONOTXT
 11
383.0343
 21
-23.1278
 31
0.0
210
0.0
220
0.0
230
1.0
100
AcDbText
 73
     3
  0
TEXT
  5
3E6
100
AcDbEntity
  8
1
  6
CONTINUOUS
 62
     7
100
AcDbText
 10
383.0343
 20
-31.5278
 30
0.0
 40
3.0
  1
EQUAL
  7
MONOTXT
 11
383.0343
 21
-28.5278
 31
0.0
210
0.0
220
0.0
230
1.0
100
AcDbText
 73
     3
  0
TEXT
  5
3E7
100
AcDbEntity
  8
1
  6
CONTINUOUS
 62
     7
100
AcDbText
 10
461.6658
 20
-25.1511
 30
0.0
 40
3.0
  1
TO FIT
 50
327.662264
  7
MONOTXT
 72
     1
 11
468.142286
 21
-29.251337
 31
0.0
210
0.0
220
0.0
230
1.0
100
AcDbText
  0
TEXT
  5
3E8
100
AcDbEntity
  8
1
  6
CONTINUOUS
 62
     7
100
AcDbText
 10
460.6933
 20
-30.9266
 30
0.0
 40
3.0
  1
TUBE
 50
327.662264
  7
MONOTXT
 72
     1
 11
465.253785
 21
-33.813824
 31
0.0
210
0.0
220
0.0
230
1.0
100
AcDbText
  0
TEXT
  5
3E9
100
AcDbEntity
  8
1
  6
CONTINUOUS
 62
     7
100
AcDbText
 10
457.9346
 20
-35.5712
 30
0.0
 40
3.0
  1
DIAM.
 50
327.662264
  7
MONOTXT
 72
     1
 11
462.355337
 21
-38.369951
 31
0.0
210
0.0
220
0.0
230
1.0
100
AcDbText
  0
TEXT
  5
3EA
100
AcDbEntity
  8
1
  6
CONTINUOUS
 62
     7
100
AcDbText
 10
527.9067
 20
-39.801
 30
0.0
 40
3.0
  1
VARIABLE
 50
90.0
  7
MONOTXT
 72
     4
 11
526.4067
 21
-29.5845
 31
0.0
210
0.0
220
0.0
230
1.0
100
AcDbText
  0
TEXT
  5
3EB
100
AcDbEntity
  8
1
  6
CONTINUOUS
 62
     7
100
AcDbText
 10
545.618
 20
-39.3525
 30
0.0
 40
3.0
  1
VARIABLE
 50
90.0
  7
MONOTXT
 72
     4
 11
544.118
 21
-29.136
 31
0.0
210
0.0
220
0.0
230
1.0
100
AcDbText
  0
INSERT
  5
3EC
100
AcDbEntity
  8
1
  6
CONTINUOUS
 62
     1
100
AcDbBlockReference
  2
LDR
 10
410.2393
 20
-124.9729
 30
0.0
 41
240.0
 42
240.0
 50
90.0
210
0.0
220
0.0
230
1.0
  0
INSERT
  5
3ED
100
AcDbEntity
  8
1
  6
CONTINUOUS
 62
     1
100
AcDbBlockReference
  2
LDR
 10
410.2393
 20
-124.9729
 30
0.0
 41
240.0
 42
240.0
 50
90.0
210
0.0
220
0.0
230
1.0
  0
INSERT
  5
3EE
100
AcDbEntity
  8
1
  6
CONTINUOUS
 62
     1
100
AcDbBlockReference
  2
LDR
 10
410.2393
 20
-145.3309
 30
0.0
 41
240.0
 42
240.0
 50
270.0
210
0.0
220
0.0
230
1.0
  0
INSERT
  5
3EF
100
AcDbEntity
  8
1
  6
CONTINUOUS
 62
     1
100
AcDbBlockReference
  2
LDR
 10
410.2393
 20
-145.3309
 30
0.0
 41
240.0
 42
240.0
 50
270.0
210
0.0
220
0.0
230
1.0
  0
INSERT
  5
3F0
100
AcDbEntity
  8
1
  6
CONTINUOUS
 62
     1
100
AcDbBlockReference
  2
LDR
 10
512.8297
 20
-120.9243
 30
0.0
 41
240.0
 42
240.0
 50
202.767404
210
0.0
220
0.0
230
1.0
  0
INSERT
  5
3F1
100
AcDbEntity
  8
1
  6
CONTINUOUS
 62
     1
100
AcDbBlockReference
  2
LDR
 10
77.9455
 20
-245.4405
 30
0.0
 41
240.0
 42
-240.0
 50
214.35102
210
0.0
220
0.0
230
1.0
  0
INSERT
  5
3F2
100
AcDbEntity
  8
1
  6
CONTINUOUS
 62
     1
100
AcDbBlockReference
  2
LDR
 10
77.9455
 20
-245.4405
 30
0.0
 41
240.0
 42
-240.0
 50
214.35102
210
0.0
220
0.0
230
1.0
  0
INSERT
  5
3F3
100
AcDbEntity
  8
1
  6
CONTINUOUS
 62
     1
100
AcDbBlockReference
  2
LDR
 10
45.4446
 20
-283.145
 30
0.0
 41
240.000002
 42
240.000002
 50
102.35465
210
0.0
220
0.0
230
1.0
  0
INSERT
  5
3F4
100
AcDbEntity
  8
1
  6
CONTINUOUS
 62
     1
100
AcDbBlockReference
  2
LDR
 10
1.9597
 20
-263.2433
 30
0.0
 41
239.999997
 42
239.999997
 50
209.509213
210
0.0
220
0.0
230
1.0
  0
INSERT
  5
3F5
100
AcDbEntity
  8
1
  6
CONTINUOUS
 62
     1
100
AcDbBlockReference
  2
LDR
 10
1.9597
 20
-263.2433
 30
0.0
 41
239.999997
 42
239.999997
 50
209.509213
210
0.0
220
0.0
230
1.0
  0
INSERT
  5
3F6
100
AcDbEntity
  8
1
  6
CONTINUOUS
 62
     1
100
AcDbBlockReference
  2
LDR
 10
4.3524
 20
-233.2061
 30
0.0
 41
240.000001
 42
240.000001
 50
151.1258
210
0.0
220
0.0
230
1.0
  0
INSERT
  5
3F7
100
AcDbEntity
  8
1
  6
CONTINUOUS
 62
     1
100
AcDbBlockReference
  2
LDR
 10
4.3524
 20
-233.2061
 30
0.0
 41
240.000001
 42
240.000001
 50
151.1258
210
0.0
220
0.0
230
1.0
  0
INSERT
  5
3F8
100
AcDbEntity
  8
1
  6
CONTINUOUS
 62
     1
100
AcDbBlockReference
  2
LDR
 10
4.3524
 20
-233.2061
 30
0.0
 41
240.000001
 42
240.000001
 50
151.1258
210
0.0
220
0.0
230
1.0
  0
INSERT
  5
3F9
100
AcDbEntity
  8
1
  6
CONTINUOUS
 62
     1
100
AcDbBlockReference
  2
LDR
 10
2.6376
 20
-232.2607
 30
0.0
 41
240.0
 42
240.0
 50
331.125222
210
0.0
220
0.0
230
1.0
  0
TEXT
  5
3FA
100
AcDbEntity
  8
1
  6
CONTINUOUS
 62
     7
100
AcDbText
 10
21.9848
 20
-247.5928
 30
0.0
 40
3.0
  1
TO FIT
 50
29.509214
  7
MONOTXT
 72
     1
 11
28.65573
 21
-243.817153
 31
0.0
210
0.0
220
0.0
230
1.0
100
AcDbText
  0
TEXT
  5
3FB
100
AcDbEntity
  8
1
  6
CONTINUOUS
 62
     7
100
AcDbText
 10
26.6181
 20
-251.1753
 30
0.0
 40
3.0
  1
TUBE
 50
29.509214
  7
MONOTXT
 72
     1
 11
31.315504
 21
-248.516639
 31
0.0
210
0.0
220
0.0
230
1.0
100
AcDbText
  0
TEXT
  5
3FC
100
AcDbEntity
  8
1
  6
CONTINUOUS
 62
     7
100
AcDbText
 10
29.4117
 20
-255.7992
 30
0.0
 40
3.0
  1
DIAM.
 50
29.509214
  7
MONOTXT
 72
     1
 11
33.965161
 21
-253.222009
 31
0.0
210
0.0
220
0.0
230
1.0
100
AcDbText
  0
INSERT
  5
3FD
100
AcDbEntity
  8
1
  6
CONTINUOUS
 62
     1
100
AcDbBlockReference
  2
LDR
 10
56.683
 20
-344.9264
 30
0.0
 41
240.000002
 42
240.000002
 50
215.947716
210
0.0
220
0.0
230
1.0
  0
INSERT
  5
3FE
100
AcDbEntity
  8
1
  6
CONTINUOUS
 62
     1
100
AcDbBlockReference
  2
LDR
 10
56.683
 20
-344.9264
 30
0.0
 41
240.000002
 42
240.000002
 50
215.947716
210
0.0
220
0.0
230
1.0
  0
INSERT
  5
3FF
100
AcDbEntity
  8
1
  6
CONTINUOUS
 62
     1
100
AcDbBlockReference
  2
LDR
 10
66.3547
 20
-357.6354
 30
0.0
 41
239.999999
 42
239.999999
 50
151.736449
210
0.0
220
0.0
230
1.0
  0
INSERT
  5
400
100
AcDbEntity
  8
1
  6
CONTINUOUS
 62
     1
100
AcDbBlockReference
  2
LDR
 10
66.3547
 20
-357.6354
 30
0.0
 41
239.999999
 42
239.999999
 50
151.736449
210
0.0
220
0.0
230
1.0
  0
INSERT
  5
401
100
AcDbEntity
  8
1
  6
CONTINUOUS
 62
     1
100
AcDbBlockReference
  2
LDR
 10
-21.2795
 20
-343.5764
 30
0.0
 41
240.0
 42
240.0
 50
90.0
210
0.0
220
0.0
230
1.0
  0
INSERT
  5
402
100
AcDbEntity
  8
1
  6
CONTINUOUS
 62
     1
100
AcDbBlockReference
  2
LDR
 10
-21.2795
 20
-343.5764
 30
0.0
 41
240.0
 42
240.0
 50
90.0
210
0.0
220
0.0
230
1.0
  0
INSERT
  5
403
100
AcDbEntity
  8
1
  6
CONTINUOUS
 62
     1
100
AcDbBlockReference
  2
LDR
 10
-21.2795
 20
-367.8764
 30
0.0
 41
240.0
 42
240.0
 50
270.0
210
0.0
220
0.0
230
1.0
  0
TEXT
  5
404
100
AcDbEntity
  8
1
  6
CONTINUOUS
 62
     7
100
AcDbText
 10
111.6203
 20
-367.5223
 30
0.0
 40
3.0
  1
/
  7
MONOTXT
 72
     4
 11
112.4589
 21
-366.0223
 31
0.0
210
0.0
220
0.0
230
1.0
100
AcDbText
  0
TEXT
  5
405
100
AcDbEntity
  8
1
  6
CONTINUOUS
 62
     7
100
AcDbText
 10
3.8861
 20
-375.1613
 30
0.0
 40
3.0
  1
GALVANIZED STEEL
  7
MONOTXT
 72
     4
 11
25.7955
 21
-373.6613
 31
0.0
210
0.0
220
0.0
230
1.0
100
AcDbText
  0
LINE
  5
406
100
AcDbEntity
  8
1
  6
CONTINUOUS
 62
     7
100
AcDbLine
 10
24.5079
 20
-148.8679
 30
0.0
 11
66.3355
 21
-148.8679
 31
0.0
  0
TEXT
  5
407
100
AcDbEntity
  8
1
  6
CONTINUOUS
 62
     7
100
AcDbText
 10
226.3957
 20
-91.6954
 30
0.0
 40
4.8
  1
PLAN
  7
MONOTXT
 72
     4
 11
234.8051
 21
-89.2954
 31
0.0
210
0.0
220
0.0
230
1.0
100
AcDbText
  0
TEXT
  5
408
100
AcDbEntity
  8
1
  6
CONTINUOUS
 62
     7
100
AcDbText
 10
452.6902
 20
-87.7999
 30
0.0
 40
4.8
  1
PLAN
  7
MONOTXT
 72
     4
 11
461.0996
 21
-85.3999
 31
0.0
210
0.0
220
0.0
230
1.0
100
AcDbText
  0
TEXT
  5
409
100
AcDbEntity
  8
1
  6
CONTINUOUS
 62
     7
100
AcDbText
 10
11.6847
 20
-387.9149
 30
0.0
 40
4.8
  1
ELEVATION
  7
MONOTXT
 72
     4
 11
30.639
 21
-385.5149
 31
0.0
210
0.0
220
0.0
230
1.0
100
AcDbText
  0
TEXT
  5
40A
100
AcDbEntity
  8
1
  6
CONTINUOUS
 62
     7
100
AcDbText
 10
17.9209
 20
-396.3149
 30
0.0
 40
4.8
  1
TYPE II
  7
MONOTXT
 72
     4
 11
30.6201
 21
-393.9149
 31
0.0
210
0.0
220
0.0
230
1.0
100
AcDbText
  0
TEXT
  5
40B
100
AcDbEntity
  8
1
  6
CONTINUOUS
 62
     7
100
AcDbText
 10
205.748
 20
-331.8496
 30
0.0
 40
4.8
  1
PLAN
  7
MONOTXT
 72
     4
 11
214.1574
 21
-329.4496
 31
0.0
210
0.0
220
0.0
230
1.0
100
AcDbText
  0
TEXT
  5
40C
100
AcDbEntity
  8
1
  6
CONTINUOUS
 62
     7
100
AcDbText
 10
149.7467
 20
-431.3773
 30
0.0
 40
4.8
  1
TYPICAL CLAMPS FOR TUBULAR SUPPORTS
  7
MONOTXT
 72
     4
 11
230.4963
 21
-428.9773
 31
0.0
210
0.0
220
0.0
230
1.0
100
AcDbText
  0
TEXT
  5
40D
100
AcDbEntity
  8
1
  6
CONTINUOUS
 62
     7
100
AcDbText
 10
206.3451
 20
-439.7773
 30
0.0
 40
4.8
  1
(GALVANIZED)
  7
MONOTXT
 72
     4
 11
230.4773
 21
-437.3773
 31
0.0
210
0.0
220
0.0
230
1.0
100
AcDbText
  0
LINE
  5
40E
100
AcDbEntity
  8
1
  6
CONTINUOUS
 62
     7
100
AcDbLine
 10
223.3272
 20
-93.925
 30
0.0
 11
246.272
 21
-93.925
 31
0.0
  0
LINE
  5
40F
100
AcDbEntity
  8
1
  6
CONTINUOUS
 62
     7
100
AcDbLine
 10
449.8944
 20
-90.4701
 30
0.0
 11
472.8392
 21
-90.4701
 31
0.0
  0
LINE
  5
410
100
AcDbEntity
  8
1
  6
CONTINUOUS
 62
     7
100
AcDbLine
 10
147.7784
 20
-432.767
 30
0.0
 11
313.5262
 21
-432.767
 31
0.0
  0
LINE
  5
411
100
AcDbEntity
  8
1
  6
CONTINUOUS
 62
     7
100
AcDbLine
 10
205.306
 20
-441.4127
 30
0.0
 11
256.126
 21
-441.4127
 31
0.0
  0
LINE
  5
412
100
AcDbEntity
  8
1
  6
CONTINUOUS
 62
     7
100
AcDbLine
 10
218.6522
 20
-203.8122
 30
0.0
 11
261.703
 21
-203.8122
 31
0.0
  0
LINE
  5
413
100
AcDbEntity
  8
1
  6
CONTINUOUS
 62
     7
100
AcDbLine
 10
222.3404
 20
-211.9288
 30
0.0
 11
258.1328
 21
-211.9288
 31
0.0
  0
TEXT
  5
414
100
AcDbEntity
  8
1
  6
CONTINUOUS
 62
     7
100
AcDbText
 10
15.7433
 20
-318.2497
 30
0.0
 40
4.8
  1
PLAN
  7
MONOTXT
 72
     4
 11
24.1527
 21
-315.8497
 31
0.0
210
0.0
220
0.0
230
1.0
100
AcDbText
  0
LINE
  5
415
100
AcDbEntity
  8
1
  6
CONTINUOUS
 62
     7
100
AcDbLine
 10
12.9475
 20
-320.6243
 30
0.0
 11
35.8923
 21
-320.6243
 31
0.0
  0
LINE
  5
416
100
AcDbEntity
  8
1
  6
CONTINUOUS
 62
     7
100
AcDbLine
 10
10.3241
 20
-389.5563
 30
0.0
 11
51.8194
 21
-389.5563
 31
0.0
  0
LINE
  5
417
100
AcDbEntity
  8
1
  6
CONTINUOUS
 62
     7
100
AcDbLine
 10
16.3167
 20
-397.6179
 30
0.0
 11
46.1189
 21
-397.6179
 31
0.0
  0
LINE
  5
418
100
AcDbEntity
  8
1
  6
CONTINUOUS
 62
     7
100
AcDbLine
 10
202.8415
 20
-333.5627
 30
0.0
 11
224.9752
 21
-333.5627
 31
0.0
  0
LINE
  5
419
100
AcDbEntity
  8
1
  6
CONTINUOUS
 62
     7
100
AcDbLine
 10
191.7783
 20
-400.815
 30
0.0
 11
233.2915
 21
-400.815
 31
0.0
  0
LINE
  5
41A
100
AcDbEntity
  8
1
  6
CONTINUOUS
 62
     7
100
AcDbLine
 10
183.4773
 20
-408.7604
 30
0.0
 11
240.6324
 21
-408.7604
 31
0.0
  0
LINE
  5
41B
100
AcDbEntity
  8
1
  6
CONTINUOUS
 62
     7
100
AcDbLine
 10
592.4643
 20
6.7881
 30
0.0
 11
609.3625
 21
6.7881
 31
0.0
  0
TEXT
  5
41C
100
AcDbEntity
  8
1
  6
CONTINUOUS
 62
     7
100
AcDbText
 10
305.4757
 20
-24.5431
 30
0.0
 40
3.0
  1
ALUM. T OR ANGLE
  7
MONOTXT
 11
305.4757
 21
-21.5431
 31
0.0
210
0.0
220
0.0
230
1.0
100
AcDbText
 73
     3
  0
TEXT
  5
41D
100
AcDbEntity
  8
1
  6
CONTINUOUS
 62
     7
100
AcDbText
 10
305.4757
 20
-29.9431
 30
0.0
 40
3.0
  1
SIGN BRACKET
  7
MONOTXT
 11
305.4757
 21
-26.9431
 31
0.0
210
0.0
220
0.0
230
1.0
100
AcDbText
 73
     3
  0
TEXT
  5
41E
100
AcDbEntity
  8
1
  6
CONTINUOUS
 62
     7
100
AcDbText
 10
305.4757
 20
-35.3431
 30
0.0
 40
3.0
  1
(SIZE AS REQUIRED)
  7
MONOTXT
 11
305.4757
 21
-32.3431
 31
0.0
210
0.0
220
0.0
230
1.0
100
AcDbText
 73
     3
  0
TEXT
  5
41F
100
AcDbEntity
  8
1
  6
CONTINUOUS
 62
     7
100
AcDbText
 10
99.8176
 20
-239.206
 30
0.0
 40
3.0
  1
ALUM. T OR ANGLE
  7
MONOTXT
 11
99.8176
 21
-236.206
 31
0.0
210
0.0
220
0.0
230
1.0
100
AcDbText
 73
     3
  0
TEXT
  5
420
100
AcDbEntity
  8
1
  6
CONTINUOUS
 62
     7
100
AcDbText
 10
99.8176
 20
-244.606
 30
0.0
 40
3.0
  1
SIGN BRACKET
  7
MONOTXT
 11
99.8176
 21
-241.606
 31
0.0
210
0.0
220
0.0
230
1.0
100
AcDbText
 73
     3
  0
TEXT
  5
421
100
AcDbEntity
  8
1
  6
CONTINUOUS
 62
     7
100
AcDbText
 10
99.8176
 20
-250.006
 30
0.0
 40
3.0
  1
(SIZE AS REQUIRED)
  7
MONOTXT
 11
99.8176
 21
-247.006
 31
0.0
210
0.0
220
0.0
230
1.0
100
AcDbText
 73
     3
  0
TEXT
  5
422
100
AcDbEntity
  8
1
  6
CONTINUOUS
 62
     7
100
AcDbText
 10
275.7167
 20
-273.2922
 30
0.0
 40
3.0
  1
ALUM. TEE
  7
MONOTXT
 72
     4
 11
286.9489
 21
-271.7922
 31
0.0
210
0.0
220
0.0
230
1.0
100
AcDbText
  0
TEXT
  5
423
100
AcDbEntity
  8
1
  6
CONTINUOUS
 62
     7
100
AcDbText
 10
275.5986
 20
-279.8922
 30
0.0
 40
3.0
  1
OR ANGLE
  7
MONOTXT
 72
     4
 11
286.949
 21
-278.3922
 31
0.0
210
0.0
220
0.0
230
1.0
100
AcDbText
  0
INSERT
  5
424
100
AcDbEntity
  8
1
  6
CONTINUOUS
 62
     1
100
AcDbBlockReference
  2
LDR
 10
271.5838
 20
-33.6424
 30
0.0
 41
240.0
 42
240.0
 50
106.094529
210
0.0
220
0.0
230
1.0
  0
LINE
  5
425
100
AcDbEntity
  8
1
  6
CONTINUOUS
 62
     7
100
AcDbLine
 10
523.126
 20
-116.603
 30
0.0
 11
513.5143
 21
-116.8917
 31
0.0
  0
INSERT
  5
426
100
AcDbEntity
  8
1
  6
CONTINUOUS
 62
     1
100
AcDbBlockReference
  2
LDR
 10
513.5143
 20
-116.8917
 30
0.0
 41
240.000001
 42
240.000001
 50
181.720436
210
0.0
220
0.0
230
1.0
  0
LINE
  5
427
100
AcDbEntity
  8
1
  6
CONTINUOUS
 62
     7
100
AcDbLine
 10
64.8285
 20
-272.4715
 30
0.0
 11
58.6172
 21
-251.7035
 31
0.0
  0
INSERT
  5
428
100
AcDbEntity
  8
1
  6
CONTINUOUS
 62
     1
100
AcDbBlockReference
  2
LDR
 10
58.6172
 20
-251.7035
 30
0.0
 41
239.999999
 42
239.999999
 50
106.650889
210
0.0
220
0.0
230
1.0
  0
LINE
  5
429
100
AcDbEntity
  8
1
  6
CONTINUOUS
 62
     7
100
AcDbLine
 10
253.4418
 20
-311.3163
 30
0.0
 11
247.2305
 21
-290.5483
 31
0.0
  0
INSERT
  5
42A
100
AcDbEntity
  8
1
  6
CONTINUOUS
 62
     1
100
AcDbBlockReference
  2
LDR
 10
247.2305
 20
-290.5483
 30
0.0
 41
239.999999
 42
239.999999
 50
106.650889
210
0.0
220
0.0
230
1.0
  0
LINE
  5
42B
100
AcDbEntity
  8
1
  6
CONTINUOUS
 62
     7
100
AcDbLine
 10
253.4418
 20
-311.3163
 30
0.0
 11
259.6343
 21
-311.3163
 31
0.0
  0
LINE
  5
42C
100
AcDbEntity
  8
1
  6
CONTINUOUS
 62
     7
100
AcDbLine
 10
281.859
 20
-360.4015
 30
0.0
 11
288.7017
 21
-353.1767
 31
0.0
  0
TEXT
  5
42D
100
AcDbEntity
  8
1
  6
CONTINUOUS
 62
     7
100
AcDbText
 10
193.1923
 20
-398.8087
 30
0.0
 40
4.8
  1
ELEVATION
  7
MONOTXT
 72
     4
 11
212.1466
 21
-396.4087
 31
0.0
210
0.0
220
0.0
230
1.0
100
AcDbText
  0
TEXT
  5
42E
100
AcDbEntity
  8
1
  6
CONTINUOUS
 62
     7
100
AcDbText
 10
185.123
 20
-407.2087
 30
0.0
 40
4.8
  1
TYPE II (ALT. 1)
  7
MONOTXT
 72
     4
 11
212.1277
 21
-404.8087
 31
0.0
210
0.0
220
0.0
230
1.0
100
AcDbText
  0
LINE
  5
42F
100
AcDbEntity
  8
1
  6
CONTINUOUS
 62
     1
100
AcDbLine
 10
466.7127
 20
-192.3401
 30
0.0
 11
466.7127
 21
-303.026
 31
0.0
  0
LINE
  5
430
100
AcDbEntity
  8
1
  6
CONTINUOUS
 62
     1
100
AcDbLine
 10
439.0412
 20
-193.6616
 30
0.0
 11
439.0412
 21
-301.7044
 31
0.0
  0
LINE
  5
431
100
AcDbEntity
  8
1
  6
CONTINUOUS
 62
     1
100
AcDbLine
 10
436.4058
 20
-192.3401
 30
0.0
 11
436.4058
 21
-303.026
 31
0.0
  0
LINE
  5
432
100
AcDbEntity
  8
1
  6
HIDDEN
 62
     1
100
AcDbLine
 10
464.0773
 20
-192.3785
 30
0.0
 11
464.0773
 21
-302.9874
 31
0.0
  0
SPLINE
  5
433
100
AcDbEntity
  8
1
  6
CONTINUOUS
 62
     1
100
AcDbSpline
210
0.0
220
0.0
230
1.0
 70
     8
 71
     3
 72
    50
 73
    46
 74
     0
 42
0.0
 43
0.0
 12
0.6477357400984969
 22
-0.7618650871375146
 32
0.0
 13
0.9998857791507618
 23
0.0151138562939389
 33
0.0
 40
0.0
 40
0.0
 40
0.0
 40
0.0
 40
0.0719840002793377
 40
0.0719840002793377
 40
0.0719840002793377
 40
0.108073088014072
 40
0.108073088014072
 40
0.108073088014072
 40
0.1802730916823149
 40
0.1802730916823149
 40
0.1802730916823149
 40
0.2355413895466015
 40
0.2355413895466015
 40
0.2355413895466015
 40
0.2991323162599406
 40
0.2991323162599406
 40
0.2991323162599406
 40
0.3674915595980289
 40
0.3674915595980289
 40
0.3674915595980289
 40
0.4292917823018578
 40
0.4292917823018578
 40
0.4292917823018578
 40
0.525264270407247
 40
0.525264270407247
 40
0.525264270407247
 40
0.5528969189283681
 40
0.5528969189283681
 40
0.5528969189283681
 40
0.6518658128392014
 40
0.6518658128392014
 40
0.6518658128392014
 40
0.7218567210880953
 40
0.7218567210880953
 40
0.7218567210880953
 40
0.7854456919701471
 40
0.7854456919701471
 40
0.7854456919701471
 40
0.8594751613431891
 40
0.8594751613431891
 40
0.8594751613431891
 40
0.9201715794393046
 40
0.9201715794393046
 40
0.9201715794393046
 40
1.0
 40
1.0
 40
1.0
 40
1.0
 10
436.4058
 20
-192.34010000000001
 30
0.0
 10
436.90824776809654
 20
-192.9310777536202
 30
0.0
 10
437.24965620815317
 20
-193.954722897777
 30
0.0
 10
437.91330000000005
 20
-194.1129
 30
0.0
 10
438.24601697787887
 20
-194.19220189066459
 30
0.0
 10
438.63544133592762
 20
-193.82398156307386
 30
0.0
 10
438.99650000000003
 20
-193.67950000000002
 30
0.0
 10
439.71883571161703
 20
-193.39044948532367
 30
0.0
 10
440.44113097947616
 20
-193.10131617973633
 30
0.0
 10
441.1635
 20
-192.81230000000002
 30
0.0
 10
441.7164654316598
 20
-192.59106133659682
 30
0.0
 10
442.32626976602501
 20
-193.379801929553
 30
0.0
 10
442.89680000000004
 20
-193.24590000000001
 30
0.0
 10
443.55324406827111
 20
-193.09183432188038
 30
0.0
 10
444.17877111566293
 20
-192.76499325656656
 30
0.0
 10
444.84700000000004
 20
-192.59560000000002
 30
0.0
 10
445.56533551216921
 20
-192.41350492065538
 30
0.0
 10
446.29474806385855
 20
-192.23976298525173
 30
0.0
 10
447.01400000000001
 20
-192.16220000000001
 30
0.0
 10
447.66424022594674
 20
-192.09207912785368
 30
0.0
 10
448.31381084047501
 20
-192.58671220418611
 30
0.0
 10
448.96430000000004
 20
-192.59560000000002
 30
0.0
 10
449.97447537468088
 20
-192.60940227838529
 30
0.0
 10
450.9869066854672
 20
-191.85898417712107
 30
0.0
 10
451.99800000000005
 20
-191.94540000000001
 30
0.0
 10
452.28911661825276
 20
-191.97028106860014
 30
0.0
 10
452.57814745560512
 20
-192.06424624015327
 30
0.0
 10
452.8646
 20
-192.16220000000001
 30
0.0
 10
453.89055635937819
 20
-192.51303047718102
 30
0.0
 10
454.66757224645346
 20
-193.89564688625805
 30
0.0
 10
455.6814
 20
-193.67950000000002
 30
0.0
 10
456.39838007802928
 20
-193.52664068949787
 30
0.0
 10
457.13049866301225
 20
-193.26282654259498
 30
0.0
 10
457.84860000000003
 20
-193.0292
 30
0.0
 10
458.50101795185316
 20
-192.81694283994835
 30
0.0
 10
459.12208975002471
 20
-192.57608443757934
 30
0.0
 10
459.7987
 20
-192.37880000000001
 30
0.0
 10
460.58640102870419
 20
-192.14912397242836
 30
0.0
 10
461.38905425263783
 20
-192.13134413982198
 30
0.0
 10
462.18210000000005
 20
-192.16220000000001
 30
0.0
 10
462.83231452482232
 20
-192.18749857644454
 30
0.0
 10
463.47831317291792
 20
-192.38856020091652
 30
0.0
 10
464.13230000000004
 20
-192.37880000000001
 30
0.0
 10
464.99242877054439
 20
-192.36596330472278
 30
0.0
 10
465.8525681942964
 20
-192.35310139353547
 30
0.0
 10
466.71270000000004
 20
-192.34010000000001
 30
0.0
  0
SPLINE
  5
434
100
AcDbEntity
  8
1
  6
CONTINUOUS
 62
     1
100
AcDbSpline
210
0.0
220
0.0
230
1.0
 70
     8
 71
     3
 72
    50
 73
    46
 74
     0
 42
0.0
 43
0.0
 12
0.6477569345430191
 22
0.7618470671673093
 32
0.0
 13
0.9998875263086395
 23
-0.0149978242551961
 33
0.0
 40
0.0
 40
0.0
 40
0.0
 40
0.0
 40
0.0719884412596586
 40
0.0719884412596586
 40
0.0719884412596586
 40
0.1080796912130522
 40
0.1080796912130522
 40
0.1080796912130522
 40
0.1802771236347517
 40
0.1802771236347517
 40
0.1802771236347517
 40
0.2355444619785067
 40
0.2355444619785067
 40
0.2355444619785067
 40
0.2991351483091885
 40
0.2991351483091885
 40
0.2991351483091885
 40
0.3674947399502282
 40
0.3674947399502282
 40
0.3674947399502282
 40
0.4292954001421518
 40
0.4292954001421518
 40
0.4292954001421518
 40
0.5252675254580219
 40
0.5252675254580219
 40
0.5252675254580219
 40
0.5528993189659733
 40
0.5528993189659733
 40
0.5528993189659733
 40
0.6518678387604517
 40
0.6518678387604517
 40
0.6518678387604517
 40
0.7218593715212396
 40
0.7218593715212396
 40
0.7218593715212396
 40
0.7854451665993445
 40
0.7854451665993445
 40
0.7854451665993445
 40
0.8594749163063353
 40
0.8594749163063353
 40
0.8594749163063353
 40
0.9201717881885532
 40
0.9201717881885532
 40
0.9201717881885532
 40
1.0
 40
1.0
 40
1.0
 40
1.0
 10
436.4058
 20
-303.02600000000001
 30
0.0
 10
436.90829710277546
 20
-302.43499753658426
 30
0.0
 10
437.39898033809646
 20
-301.82715179534205
 30
0.0
 10
437.91330000000005
 20
-301.25300000000004
 30
0.0
 10
438.17115305458628
 20
-300.96515023420028
 30
0.0
 10
438.63541130434214
 20
-301.54210767127967
 30
0.0
 10
438.99650000000003
 20
-301.6866
 30
0.0
 10
439.71882678936487
 20
-301.9756444401819
 30
0.0
 10
440.44106873053931
 20
-302.26473890040478
 30
0.0
 10
441.1635
 20
-302.55360000000002
 30
0.0
 10
441.71652317631174
 20
-302.77472398724143
 30
0.0
 10
442.32627373294486
 20
-301.98618764704889
 30
0.0
 10
442.89680000000004
 20
-302.12010000000004
 30
0.0
 10
443.55324841924647
 20
-302.27417976369969
 30
0.0
 10
444.17877550406587
 20
-302.60098325812237
 30
0.0
 10
444.84700000000004
 20
-302.7704
 30
0.0
 10
445.56533717014878
 20
-302.95252194206694
 30
0.0
 10
446.29474840751413
 20
-303.12629431590233
 30
0.0
 10
447.01400000000001
 20
-303.20390000000003
 30
0.0
 10
447.6642412052596
 20
-303.2740596132561
 30
0.0
 10
448.3138073058962
 20
-302.77927233540464
 30
0.0
 10
448.96430000000004
 20
-302.7704
 30
0.0
 10
449.97446989400623
 20
-302.75662188043538
 30
0.0
 10
450.98690706922258
 20
-303.50690861499686
 30
0.0
 10
451.99800000000005
 20
-303.42060000000004
 30
0.0
 10
452.28910860042583
 20
-303.39575047395584
 30
0.0
 10
452.57814091585811
 20
-303.30182680178586
 30
0.0
 10
452.8646
 20
-303.20390000000003
 30
0.0
 10
453.89060765060896
 20
-302.85315654868668
 30
0.0
 10
454.66753958529983
 20
-301.46990170376642
 30
0.0
 10
455.6814
 20
-301.6866
 30
0.0
 10
456.39841228408511
 20
-301.83985121494732
 30
0.0
 10
457.1304740168199
 20
-302.10343605418586
 30
0.0
 10
457.84860000000003
 20
-302.33699999999999
 30
0.0
 10
458.5010019378575
 20
-302.54918779772879
 30
0.0
 10
459.12215771825129
 20
-302.7897795519084
 30
0.0
 10
459.7987
 20
-302.9871
 30
0.0
 10
460.58636422158503
 20
-303.21683029379204
 30
0.0
 10
461.38905640616969
 20
-303.23469689616195
 30
0.0
 10
462.18210000000005
 20
-303.20390000000003
 30
0.0
 10
462.83231515812571
 20
-303.17864967471718
 30
0.0
 10
463.47830532870881
 20
-302.97727179975294
 30
0.0
 10
464.13230000000004
 20
-302.9871
 30
0.0
 10
464.9924304074566
 20
-303.00002599810705
 30
0.0
 10
465.85256568733399
 20
-303.01309840565284
 30
0.0
 10
466.71270000000004
 20
-303.02600000000001
 30
0.0
  0
LINE
  5
435
100
AcDbEntity
  8
1
  6
CONTINUOUS
 62
     1
100
AcDbLine
 10
408.7343
 20
-275.3545
 30
0.0
 11
436.4058
 21
-275.3545
 31
0.0
  0
CIRCLE
  5
436
100
AcDbEntity
  8
1
  6
CONTINUOUS
 62
     1
100
AcDbCircle
 10
408.734219
 20
-247.682963
 30
0.0
 40
27.67149
210
0.0
220
0.0
230
1.0
  0
CIRCLE
  5
437
100
AcDbEntity
  8
1
  6
CONTINUOUS
 62
     1
100
AcDbCircle
 10
408.734219
 20
-247.682963
 30
0.0
 40
24.377265
210
0.0
220
0.0
230
1.0
  0
ARC
  5
438
100
AcDbEntity
  8
1
  6
CONTINUOUS
 62
     1
100
AcDbCircle
 10
408.734219
 20
-247.682963
 30
0.0
 40
31.62456
210
0.0
220
0.0
230
1.0
100
AcDbArc
 50
90.0
 51
270.0
  0
LINE
  5
439
100
AcDbEntity
  8
1
  6
CONTINUOUS
 62
     1
100
AcDbLine
 10
408.7343
 20
-279.3076
 30
0.0
 11
436.4058
 21
-279.3076
 31
0.0
  0
LINE
  5
43A
100
AcDbEntity
  8
1
  6
CONTINUOUS
 62
     1
100
AcDbLine
 10
396.337
 20
-272.3955
 30
0.0
 11
384.0194
 21
-260.078
 31
0.0
  0
LINE
  5
43B
100
AcDbEntity
  8
1
  6
CONTINUOUS
 62
     1
100
AcDbLine
 10
402.2258
 20
-274.5573
 30
0.0
 11
396.3258
 21
-268.6571
 31
0.0
  0
LINE
  5
43C
100
AcDbEntity
  8
1
  6
CONTINUOUS
 62
     1
100
AcDbLine
 10
387.8133
 20
-260.1446
 30
0.0
 11
381.8618
 21
-254.193
 31
0.0
  0
LINE
  5
43D
100
AcDbEntity
  8
1
  6
CONTINUOUS
 62
     1
100
AcDbLine
 10
406.6607
 20
-275.2653
 30
0.0
 11
402.6927
 21
-271.297
 31
0.0
  0
LINE
  5
43E
100
AcDbEntity
  8
1
  6
CONTINUOUS
 62
     1
100
AcDbLine
 10
385.153
 20
-253.7576
 30
0.0
 11
381.1544
 21
-249.7585
 31
0.0
  0
LINE
  5
43F
100
AcDbEntity
  8
1
  6
CONTINUOUS
 62
     1
100
AcDbLine
 10
410.4035
 20
-275.2808
 30
0.0
 11
407.1255
 21
-272.0027
 31
0.0
  0
LINE
  5
440
100
AcDbEntity
  8
1
  6
CONTINUOUS
 62
     1
100
AcDbLine
 10
384.438
 20
-249.3157
 30
0.0
 11
381.1353
 21
-246.0127
 31
0.0
  0
LINE
  5
441
100
AcDbEntity
  8
1
  6
CONTINUOUS
 62
     1
100
AcDbLine
 10
413.7406
 20
-274.8911
 30
0.0
 11
410.7966
 21
-271.9471
 31
0.0
  0
LINE
  5
442
100
AcDbEntity
  8
1
  6
CONTINUOUS
 62
     1
100
AcDbLine
 10
384.4581
 20
-245.6087
 30
0.0
 11
381.5285
 21
-242.6786
 31
0.0
  0
LINE
  5
443
100
AcDbEntity
  8
1
  6
CONTINUOUS
 62
     1
100
AcDbLine
 10
416.7269
 20
-274.1504
 30
0.0
 11
414.0477
 21
-271.4711
 31
0.0
  0
LINE
  5
444
100
AcDbEntity
  8
1
  6
CONTINUOUS
 62
     1
100
AcDbLine
 10
384.9651
 20
-242.3889
 30
0.0
 11
382.2678
 21
-239.6912
 31
0.0
  0
LINE
  5
445
100
AcDbEntity
  8
1
  6
CONTINUOUS
 62
     1
100
AcDbLine
 10
419.4647
 20
-273.161
 30
0.0
 11
416.9221
 21
-270.6185
 31
0.0
  0
LINE
  5
446
100
AcDbEntity
  8
1
  6
CONTINUOUS
 62
     1
100
AcDbLine
 10
385.7865
 20
-239.4831
 30
0.0
 11
383.2561
 21
-236.9524
 31
0.0
  0
LINE
  5
447
100
AcDbEntity
  8
1
  6
CONTINUOUS
 62
     1
100
AcDbLine
 10
421.9825
 20
-271.952
 30
0.0
 11
419.5381
 21
-269.5075
 31
0.0
  0
LINE
  5
448
100
AcDbEntity
  8
1
  6
CONTINUOUS
 62
     1
100
AcDbLine
 10
386.902
 20
-236.8714
 30
0.0
 11
384.4643
 21
-234.4337
 31
0.0
  0
LINE
  5
449
100
AcDbEntity
  8
1
  6
CONTINUOUS
 62
     1
100
AcDbLine
 10
424.3008
 20
-270.5434
 30
0.0
 11
421.9232
 21
-268.1657
 31
0.0
  0
LINE
  5
44A
100
AcDbEntity
  8
1
  6
CONTINUOUS
 62
     1
100
AcDbLine
 10
388.2579
 20
-234.5005
 30
0.0
 11
385.8728
 21
-232.1152
 31
0.0
  0
LINE
  5
44B
100
AcDbEntity
  8
1
  6
CONTINUOUS
 62
     1
100
AcDbLine
 10
426.4315
 20
-268.947
 30
0.0
 11
424.0955
 21
-266.611
 31
0.0
  0
LINE
  5
44C
100
AcDbEntity
  8
1
  6
CONTINUOUS
 62
     1
100
AcDbLine
 10
389.8246
 20
-232.34
 30
0.0
 11
387.4684
 21
-229.9839
 31
0.0
  0
LINE
  5
44D
100
AcDbEntity
  8
1
  6
CONTINUOUS
 62
     1
100
AcDbLine
 10
428.379
 20
-267.1675
 30
0.0
 11
426.0414
 21
-264.8298
 31
0.0
  0
LINE
  5
44E
100
AcDbEntity
  8
1
  6
CONTINUOUS
 62
     1
100
AcDbLine
 10
391.5925
 20
-230.3809
 30
0.0
 11
389.2519
 21
-228.0401
 31
0.0
  0
LINE
  5
44F
100
AcDbEntity
  8
1
  6
CONTINUOUS
 62
     1
100
AcDbLine
 10
430.14
 20
-265.2014
 30
0.0
 11
427.7886
 21
-262.8503
 31
0.0
  0
LINE
  5
450
100
AcDbEntity
  8
1
  6
CONTINUOUS
 62
     1
100
AcDbLine
 10
393.5582
 20
-228.6197
 30
0.0
 11
391.2175
 21
-226.2789
 31
0.0
  0
LINE
  5
451
100
AcDbEntity
  8
1
  6
CONTINUOUS
 62
     1
100
AcDbLine
 10
431.721
 20
-263.0553
 30
0.0
 11
429.3338
 21
-260.6684
 31
0.0
  0
LINE
  5
452
100
AcDbEntity
  8
1
  6
CONTINUOUS
 62
     1
100
AcDbLine
 10
395.7341
 20
-227.0686
 30
0.0
 11
393.363
 21
-224.6974
 31
0.0
  0
LINE
  5
453
100
AcDbEntity
  8
1
  6
CONTINUOUS
 62
     1
100
AcDbLine
 10
433.1142
 20
-260.7216
 30
0.0
 11
430.6669
 21
-258.2744
 31
0.0
  0
LINE
  5
454
100
AcDbEntity
  8
1
  6
CONTINUOUS
 62
     1
100
AcDbLine
 10
398.1428
 20
-225.7503
 30
0.0
 11
395.6962
 21
-223.3037
 31
0.0
  0
LINE
  5
455
100
AcDbEntity
  8
1
  6
CONTINUOUS
 62
     1
100
AcDbLine
 10
434.3064
 20
-258.1868
 30
0.0
 11
431.7701
 21
-255.6508
 31
0.0
  0
LINE
  5
456
100
AcDbEntity
  8
1
  6
CONTINUOUS
 62
     1
100
AcDbLine
 10
400.7852
 20
-224.6659
 30
0.0
 11
398.2302
 21
-222.1109
 31
0.0
  0
LINE
  5
457
100
AcDbEntity
  8
1
  6
CONTINUOUS
 62
     1
100
AcDbLine
 10
435.2771
 20
-255.4306
 30
0.0
 11
432.563
 21
-252.7164
 31
0.0
  0
LINE
  5
458
100
AcDbEntity
  8
1
  6
CONTINUOUS
 62
     1
100
AcDbLine
 10
403.6916
 20
-223.8452
 30
0.0
 11
400.9856
 21
-221.1391
 31
0.0
  0
LINE
  5
459
100
AcDbEntity
  8
1
  6
CONTINUOUS
 62
     1
100
AcDbLine
 10
435.9962
 20
-252.4227
 30
0.0
 11
433.0286
 21
-249.4551
 31
0.0
  0
LINE
  5
45A
100
AcDbEntity
  8
1
  6
CONTINUOUS
 62
     1
100
AcDbLine
 10
406.9667
 20
-223.3934
 30
0.0
 11
403.997
 21
-220.4236
 31
0.0
  0
LINE
  5
45B
100
AcDbEntity
  8
1
  6
CONTINUOUS
 62
     1
100
AcDbLine
 10
436.3476
 20
-249.0469
 30
0.0
 11
433.0202
 21
-245.7197
 31
0.0
  0
LINE
  5
45C
100
AcDbEntity
  8
1
  6
CONTINUOUS
 62
     1
100
AcDbLine
 10
410.6874
 20
-223.3867
 30
0.0
 11
407.3715
 21
-220.071
 31
0.0
  0
LINE
  5
45D
100
AcDbEntity
  8
1
  6
CONTINUOUS
 62
     1
100
AcDbLine
 10
436.3005
 20
-245.2732
 30
0.0
 11
432.2221
 21
-241.1948
 31
0.0
  0
LINE
  5
45E
100
AcDbEntity
  8
1
  6
CONTINUOUS
 62
     1
100
AcDbLine
 10
415.209
 20
-224.1813
 30
0.0
 11
411.1445
 21
-220.1172
 31
0.0
  0
LINE
  5
45F
100
AcDbEntity
  8
1
  6
CONTINUOUS
 62
     1
100
AcDbLine
 10
435.5161
 20
-240.7616
 30
0.0
 11
429.1551
 21
-234.4005
 31
0.0
  0
LINE
  5
460
100
AcDbEntity
  8
1
  6
CONTINUOUS
 62
     1
100
AcDbLine
 10
422.0382
 20
-227.2837
 30
0.0
 11
415.6551
 21
-220.9006
 31
0.0
  0
LINE
  5
461
100
AcDbEntity
  8
1
  6
CONTINUOUS
 62
     1
100
AcDbLine
 10
433.1
 20
-234.6187
 30
0.0
 11
421.7986
 21
-223.3169
 31
0.0
  0
LINE
  5
462
100
AcDbEntity
  8
1
  6
CONTINUOUS
 62
     1
100
AcDbLine
 10
408.7343
 20
-216.0585
 30
0.0
 11
436.4058
 21
-216.0585
 31
0.0
  0
LINE
  5
463
100
AcDbEntity
  8
1
  6
CONTINUOUS
 62
     1
100
AcDbLine
 10
442.3354
 20
-216.0585
 30
0.0
 11
449.5827
 21
-216.0585
 31
0.0
  0
LINE
  5
464
100
AcDbEntity
  8
1
  6
CONTINUOUS
 62
     1
100
AcDbLine
 10
408.7343
 20
-220.0116
 30
0.0
 11
436.4058
 21
-220.0116
 31
0.0
  0
LINE
  5
465
100
AcDbEntity
  8
1
  6
CONTINUOUS
 62
     1
100
AcDbLine
 10
442.3354
 20
-220.0116
 30
0.0
 11
449.5827
 21
-220.0116
 31
0.0
  0
LINE
  5
466
100
AcDbEntity
  8
1
  6
CONTINUOUS
 62
     1
100
AcDbLine
 10
449.5827
 20
-216.0585
 30
0.0
 11
449.5827
 21
-220.0116
 31
0.0
  0
LINE
  5
467
100
AcDbEntity
  8
1
  6
CONTINUOUS
 62
     1
100
AcDbLine
 10
445.6296
 20
-213.4231
 30
0.0
 11
445.6296
 21
-222.6469
 31
0.0
  0
LINE
  5
468
100
AcDbEntity
  8
1
  6
CONTINUOUS
 62
     1
100
AcDbLine
 10
445.6296
 20
-213.4231
 30
0.0
 11
442.3354
 21
-213.4231
 31
0.0
  0
LINE
  5
469
100
AcDbEntity
  8
1
  6
CONTINUOUS
 62
     1
100
AcDbLine
 10
445.6296
 20
-222.6469
 30
0.0
 11
442.3354
 21
-222.6469
 31
0.0
  0
LINE
  5
46A
100
AcDbEntity
  8
1
  6
CONTINUOUS
 62
     1
100
AcDbLine
 10
442.3354
 20
-212.1054
 30
0.0
 11
442.3354
 21
-223.9646
 31
0.0
  0
LINE
  5
46B
100
AcDbEntity
  8
1
  6
CONTINUOUS
 62
     1
100
AcDbLine
 10
442.3354
 20
-212.1054
 30
0.0
 11
439.0412
 21
-212.1054
 31
0.0
  0
LINE
  5
46C
100
AcDbEntity
  8
1
  6
CONTINUOUS
 62
     1
100
AcDbLine
 10
442.3354
 20
-223.9646
 30
0.0
 11
439.0412
 21
-223.9646
 31
0.0
  0
LINE
  5
46D
100
AcDbEntity
  8
1
  6
CONTINUOUS
 62
     1
100
AcDbLine
 10
447.6061
 20
-216.0585
 30
0.0
 11
447.6061
 21
-220.0116
 31
0.0
  0
LINE
  5
46E
100
AcDbEntity
  8
1
  6
CONTINUOUS
 62
     1
100
AcDbLine
 10
446.618
 20
-217.3762
 30
0.0
 11
446.618
 21
-218.6939
 31
0.0
  0
LINE
  5
46F
100
AcDbEntity
  8
1
  6
CONTINUOUS
 62
     1
100
AcDbLine
 10
448.5945
 20
-217.3762
 30
0.0
 11
448.5945
 21
-218.6939
 31
0.0
  0
LINE
  5
470
100
AcDbEntity
  8
1
  6
CONTINUOUS
 62
     1
100
AcDbLine
 10
442.3354
 20
-218.0351
 30
0.0
 11
439.0412
 21
-218.0351
 31
0.0
  0
LINE
  5
471
100
AcDbEntity
  8
1
  6
CONTINUOUS
 62
     1
100
AcDbLine
 10
442.3354
 20
-275.3545
 30
0.0
 11
449.5827
 21
-275.3545
 31
0.0
  0
LINE
  5
472
100
AcDbEntity
  8
1
  6
CONTINUOUS
 62
     1
100
AcDbLine
 10
442.3354
 20
-279.3076
 30
0.0
 11
449.5827
 21
-279.3076
 31
0.0
  0
LINE
  5
473
100
AcDbEntity
  8
1
  6
CONTINUOUS
 62
     1
100
AcDbLine
 10
449.5827
 20
-275.3545
 30
0.0
 11
449.5827
 21
-279.3076
 31
0.0
  0
LINE
  5
474
100
AcDbEntity
  8
1
  6
CONTINUOUS
 62
     1
100
AcDbLine
 10
445.6296
 20
-272.7192
 30
0.0
 11
445.6296
 21
-281.943
 31
0.0
  0
LINE
  5
475
100
AcDbEntity
  8
1
  6
CONTINUOUS
 62
     1
100
AcDbLine
 10
445.6296
 20
-272.7192
 30
0.0
 11
442.3354
 21
-272.7192
 31
0.0
  0
LINE
  5
476
100
AcDbEntity
  8
1
  6
CONTINUOUS
 62
     1
100
AcDbLine
 10
445.6296
 20
-281.943
 30
0.0
 11
442.3354
 21
-281.943
 31
0.0
  0
LINE
  5
477
100
AcDbEntity
  8
1
  6
CONTINUOUS
 62
     1
100
AcDbLine
 10
442.3354
 20
-271.4015
 30
0.0
 11
442.3354
 21
-283.2607
 31
0.0
  0
LINE
  5
478
100
AcDbEntity
  8
1
  6
CONTINUOUS
 62
     1
100
AcDbLine
 10
442.3354
 20
-271.4015
 30
0.0
 11
439.0412
 21
-271.4015
 31
0.0
  0
LINE
  5
479
100
AcDbEntity
  8
1
  6
CONTINUOUS
 62
     1
100
AcDbLine
 10
442.3354
 20
-283.2607
 30
0.0
 11
439.0412
 21
-283.2607
 31
0.0
  0
LINE
  5
47A
100
AcDbEntity
  8
1
  6
CONTINUOUS
 62
     1
100
AcDbLine
 10
447.6061
 20
-275.3545
 30
0.0
 11
447.6061
 21
-279.3076
 31
0.0
  0
LINE
  5
47B
100
AcDbEntity
  8
1
  6
CONTINUOUS
 62
     1
100
AcDbLine
 10
446.618
 20
-276.6722
 30
0.0
 11
446.618
 21
-277.9899
 31
0.0
  0
LINE
  5
47C
100
AcDbEntity
  8
1
  6
CONTINUOUS
 62
     1
100
AcDbLine
 10
448.5945
 20
-276.6722
 30
0.0
 11
448.5945
 21
-277.9899
 31
0.0
  0
LINE
  5
47D
100
AcDbEntity
  8
1
  6
CONTINUOUS
 62
     1
100
AcDbLine
 10
442.3354
 20
-277.3311
 30
0.0
 11
439.0412
 21
-277.3311
 31
0.0
  0
LINE
  5
47E
100
AcDbEntity
  8
1
  6
HIDDEN
 62
     1
100
AcDbLine
 10
433.1115
 20
-313.9156
 30
0.0
 11
433.1115
 21
-397.4785
 31
0.0
  0
LINE
  5
47F
100
AcDbEntity
  8
1
  6
CONTINUOUS
 62
     1
100
AcDbLine
 10
381.0628
 20
-316.2029
 30
0.0
 11
381.0628
 21
-400.5351
 31
0.0
  0
LINE
  5
480
100
AcDbEntity
  8
1
  6
HIDDEN
 62
     1
100
AcDbLine
 10
384.357
 20
-319.1817
 30
0.0
 11
384.357
 21
-402.8223
 31
0.0
  0
ARC
  5
481
100
AcDbEntity
  8
1
  6
CONTINUOUS
 62
     1
100
AcDbCircle
 10
422.352013
 20
-332.927105
 30
0.0
 40
21.845075
210
0.0
220
0.0
230
1.0
100
AcDbArc
 50
49.959064
 51
119.832294
  0
ARC
  5
482
100
AcDbEntity
  8
1
  6
CONTINUOUS
 62
     1
100
AcDbCircle
 10
395.282405
 20
-292.847478
 30
0.0
 40
26.626492
210
0.0
220
0.0
230
1.0
100
AcDbArc
 50
279.681717
 51
307.481858
  0
ARC
  5
483
100
AcDbEntity
  8
1
  6
CONTINUOUS
 62
     1
100
AcDbCircle
 10
390.331598
 20
-333.949339
 30
0.0
 40
27.373691
210
0.0
220
0.0
230
1.0
100
AcDbArc
 50
43.844686
 51
70.484444
  0
ARC
  5
484
100
AcDbEntity
  8
1
  6
CONTINUOUS
 62
     1
100
AcDbCircle
 10
393.533282
 20
-322.32471
 30
0.0
 40
15.371715
210
0.0
220
0.0
230
1.0
100
AcDbArc
 50
67.256322
 51
105.218836
  0
ARC
  5
485
100
AcDbEntity
  8
1
  6
CONTINUOUS
 62
     1
100
AcDbCircle
 10
391.8459
 20
-299.272724
 30
0.0
 40
21.343616
210
0.0
220
0.0
230
1.0
100
AcDbArc
 50
270.671856
 51
291.765536
  0
ARC
  5
486
100
AcDbEntity
  8
1
  6
CONTINUOUS
 62
     1
100
AcDbCircle
 10
393.533282
 20
-322.32471
 30
0.0
 40
15.371715
210
0.0
220
0.0
230
1.0
100
AcDbArc
 50
105.218836
 51
142.110147
  0
ARC
  5
487
100
AcDbEntity
  8
1
  6
CONTINUOUS
 62
     1
100
AcDbCircle
 10
392.151635
 20
-315.636939
 30
0.0
 40
8.566212
210
0.0
220
0.0
230
1.0
100
AcDbArc
 50
108.045172
 51
168.0109
  0
ARC
  5
488
100
AcDbEntity
  8
1
  6
CONTINUOUS
 62
     1
100
AcDbCircle
 10
393.829847
 20
-308.56273
 30
0.0
 40
12.176197
210
0.0
220
0.0
230
1.0
100
AcDbArc
 50
224.557461
 51
261.814275
  0
ARC
  5
489
100
AcDbEntity
  8
1
  6
CONTINUOUS
 62
     1
100
AcDbCircle
 10
391.8459
 20
-299.272724
 30
0.0
 40
21.343616
210
0.0
220
0.0
230
1.0
100
AcDbArc
 50
246.739369
 51
270.671856
  0
ARC
  5
48A
100
AcDbEntity
  8
1
  6
CONTINUOUS
 62
     1
100
AcDbCircle
 10
385.191058
 20
-314.948348
 30
0.0
 40
4.314726
210
0.0
220
0.0
230
1.0
100
AcDbArc
 50
151.42145
 51
245.722075
  0
LINE
  5
48B
100
AcDbEntity
  8
1
  6
CONTINUOUS
 62
     1
100
AcDbLine
 10
387.0719
 20
-320.0498
 30
0.0
 11
381.0041
 21
-313.9822
 31
0.0
  0
LINE
  5
48C
100
AcDbEntity
  8
1
  6
CONTINUOUS
 62
     1
100
AcDbLine
 10
391.3351
 20
-320.5859
 30
0.0
 11
391.1178
 21
-320.3687
 31
0.0
  0
LINE
  5
48D
100
AcDbEntity
  8
1
  6
CONTINUOUS
 62
     1
100
AcDbLine
 10
383.9534
 20
-313.2043
 30
0.0
 11
382.4443
 21
-311.6956
 31
0.0
  0
LINE
  5
48E
100
AcDbEntity
  8
1
  6
CONTINUOUS
 62
     1
100
AcDbLine
 10
385.167
 20
-310.6908
 30
0.0
 11
384.4383
 21
-309.9624
 31
0.0
  0
LINE
  5
48F
100
AcDbEntity
  8
1
  6
CONTINUOUS
 62
     1
100
AcDbLine
 10
387.0049
 20
-308.802
 30
0.0
 11
386.7486
 21
-308.5456
 31
0.0
  0
LINE
  5
490
100
AcDbEntity
  8
1
  6
CONTINUOUS
 62
     1
100
AcDbLine
 10
389.4443
 20
-307.5146
 30
0.0
 11
389.4398
 21
-307.5098
 31
0.0
  0
ARC
  5
491
100
AcDbEntity
  8
1
  6
CONTINUOUS
 62
     1
100
AcDbCircle
 10
389.220867
 20
-313.458247
 30
0.0
 40
5.463199
210
0.0
220
0.0
230
1.0
100
AcDbArc
 50
184.191117
 51
221.887247
  0
ARC
  5
492
100
AcDbEntity
  8
1
  6
CONTINUOUS
 62
     1
100
AcDbCircle
 10
422.186033
 20
-423.890369
 30
0.0
 40
26.626492
210
0.0
220
0.0
230
1.0
100
AcDbArc
 50
99.681717
 51
127.481858
  0
ARC
  5
493
100
AcDbEntity
  8
1
  6
CONTINUOUS
 62
     1
100
AcDbCircle
 10
395.116425
 20
-383.810742
 30
0.0
 40
21.845075
210
0.0
220
0.0
230
1.0
100
AcDbArc
 50
229.959064
 51
299.832294
  0
ARC
  5
494
100
AcDbEntity
  8
1
  6
CONTINUOUS
 62
     1
100
AcDbCircle
 10
427.136839
 20
-382.788508
 30
0.0
 40
27.373691
210
0.0
220
0.0
230
1.0
100
AcDbArc
 50
223.844686
 51
250.484444
  0
ARC
  5
495
100
AcDbEntity
  8
1
  6
CONTINUOUS
 62
     1
100
AcDbCircle
 10
423.935156
 20
-394.413137
 30
0.0
 40
15.371715
210
0.0
220
0.0
230
1.0
100
AcDbArc
 50
247.256322
 51
285.218836
  0
ARC
  5
496
100
AcDbEntity
  8
1
  6
CONTINUOUS
 62
     1
100
AcDbCircle
 10
425.622537
 20
-417.465122
 30
0.0
 40
21.343616
210
0.0
220
0.0
230
1.0
100
AcDbArc
 50
90.671856
 51
111.765536
  0
ARC
  5
497
100
AcDbEntity
  8
1
  6
CONTINUOUS
 62
     1
100
AcDbCircle
 10
423.935156
 20
-394.413137
 30
0.0
 40
15.371715
210
0.0
220
0.0
230
1.0
100
AcDbArc
 50
285.218836
 51
322.110147
  0
ARC
  5
498
100
AcDbEntity
  8
1
  6
CONTINUOUS
 62
     1
100
AcDbCircle
 10
425.316802
 20
-401.100907
 30
0.0
 40
8.566212
210
0.0
220
0.0
230
1.0
100
AcDbArc
 50
288.045172
 51
348.0109
  0
ARC
  5
499
100
AcDbEntity
  8
1
  6
CONTINUOUS
 62
     1
100
AcDbCircle
 10
423.638591
 20
-408.175116
 30
0.0
 40
12.176197
210
0.0
220
0.0
230
1.0
100
AcDbArc
 50
44.557461
 51
81.814275
  0
ARC
  5
49A
100
AcDbEntity
  8
1
  6
CONTINUOUS
 62
     1
100
AcDbCircle
 10
425.622537
 20
-417.465122
 30
0.0
 40
21.343616
210
0.0
220
0.0
230
1.0
100
AcDbArc
 50
66.739369
 51
90.671856
  0
ARC
  5
49B
100
AcDbEntity
  8
1
  6
CONTINUOUS
 62
     1
100
AcDbCircle
 10
432.277379
 20
-401.789498
 30
0.0
 40
4.314726
210
0.0
220
0.0
230
1.0
100
AcDbArc
 50
331.42145
 51
65.722075
  0
LINE
  5
49C
100
AcDbEntity
  8
1
  6
CONTINUOUS
 62
     1
100
AcDbLine
 10
430.3967
 20
-396.6881
 30
0.0
 11
436.4643
 21
-402.7559
 31
0.0
  0
LINE
  5
49D
100
AcDbEntity
  8
1
  6
CONTINUOUS
 62
     1
100
AcDbLine
 10
433.5152
 20
-403.5337
 30
0.0
 11
435.0241
 21
-405.0424
 31
0.0
  0
LINE
  5
49E
100
AcDbEntity
  8
1
  6
CONTINUOUS
 62
     1
100
AcDbLine
 10
432.3016
 20
-406.0473
 30
0.0
 11
433.0302
 21
-406.7757
 31
0.0
  0
LINE
  5
49F
100
AcDbEntity
  8
1
  6
CONTINUOUS
 62
     1
100
AcDbLine
 10
430.4636
 20
-407.9362
 30
0.0
 11
430.7199
 21
-408.1923
 31
0.0
  0
ARC
  5
4A0
100
AcDbEntity
  8
1
  6
CONTINUOUS
 62
     1
100
AcDbCircle
 10
428.247571
 20
-403.279599
 30
0.0
 40
5.463199
210
0.0
220
0.0
230
1.0
100
AcDbArc
 50
4.191117
 51
41.887247
  0
LINE
  5
4A1
100
AcDbEntity
  8
1
  6
CONTINUOUS
 62
     1
100
AcDbLine
 10
379.0862
 20
-353.7206
 30
0.0
 11
433.1115
 21
-353.7206
 31
0.0
  0
LINE
  5
4A2
100
AcDbEntity
  8
1
  6
CONTINUOUS
 62
     1
100
AcDbLine
 10
379.0862
 20
-357.6737
 30
0.0
 11
433.1115
 21
-357.6737
 31
0.0
  0
LINE
  5
4A3
100
AcDbEntity
  8
1
  6
CONTINUOUS
 62
     1
100
AcDbLine
 10
442.9914
 20
-353.7206
 30
0.0
 11
450.2386
 21
-353.7206
 31
0.0
  0
LINE
  5
4A4
100
AcDbEntity
  8
1
  6
CONTINUOUS
 62
     1
100
AcDbLine
 10
442.9914
 20
-357.6737
 30
0.0
 11
450.2386
 21
-357.6737
 31
0.0
  0
LINE
  5
4A5
100
AcDbEntity
  8
1
  6
CONTINUOUS
 62
     1
100
AcDbLine
 10
450.2386
 20
-353.7206
 30
0.0
 11
450.2386
 21
-357.6737
 31
0.0
  0
LINE
  5
4A6
100
AcDbEntity
  8
1
  6
CONTINUOUS
 62
     1
100
AcDbLine
 10
446.2856
 20
-351.0852
 30
0.0
 11
446.2856
 21
-360.3091
 31
0.0
  0
LINE
  5
4A7
100
AcDbEntity
  8
1
  6
CONTINUOUS
 62
     1
100
AcDbLine
 10
446.2856
 20
-351.0852
 30
0.0
 11
442.9914
 21
-351.0852
 31
0.0
  0
LINE
  5
4A8
100
AcDbEntity
  8
1
  6
CONTINUOUS
 62
     1
100
AcDbLine
 10
446.2856
 20
-360.3091
 30
0.0
 11
442.9914
 21
-360.3091
 31
0.0
  0
LINE
  5
4A9
100
AcDbEntity
  8
1
  6
CONTINUOUS
 62
     1
100
AcDbLine
 10
442.9914
 20
-349.7676
 30
0.0
 11
442.9914
 21
-361.6268
 31
0.0
  0
LINE
  5
4AA
100
AcDbEntity
  8
1
  6
CONTINUOUS
 62
     1
100
AcDbLine
 10
442.9914
 20
-349.7676
 30
0.0
 11
439.6971
 21
-349.7676
 31
0.0
  0
LINE
  5
4AB
100
AcDbEntity
  8
1
  6
CONTINUOUS
 62
     1
100
AcDbLine
 10
442.9914
 20
-361.6268
 30
0.0
 11
439.6971
 21
-361.6268
 31
0.0
  0
LINE
  5
4AC
100
AcDbEntity
  8
1
  6
CONTINUOUS
 62
     1
100
AcDbLine
 10
448.2622
 20
-353.7206
 30
0.0
 11
448.2622
 21
-357.6737
 31
0.0
  0
LINE
  5
4AD
100
AcDbEntity
  8
1
  6
CONTINUOUS
 62
     1
100
AcDbLine
 10
447.2739
 20
-355.0383
 30
0.0
 11
447.2739
 21
-356.356
 31
0.0
  0
LINE
  5
4AE
100
AcDbEntity
  8
1
  6
CONTINUOUS
 62
     1
100
AcDbLine
 10
449.2504
 20
-355.0383
 30
0.0
 11
449.2504
 21
-356.356
 31
0.0
  0
LINE
  5
4AF
100
AcDbEntity
  8
1
  6
CONTINUOUS
 62
     1
100
AcDbLine
 10
442.9914
 20
-355.6972
 30
0.0
 11
439.6971
 21
-355.6972
 31
0.0
  0
ARC
  5
4B0
100
AcDbEntity
  8
1
  6
CONTINUOUS
 62
     1
100
AcDbCircle
 10
428.744978
 20
-213.851322
 30
0.0
 40
7.672694
210
0.0
220
0.0
230
1.0
100
AcDbArc
 50
3.199981
 51
28.357747
  0
ARC
  5
4B1
100
AcDbEntity
  8
1
  6
CONTINUOUS
 62
     1
100
AcDbCircle
 10
438.003285
 20
-208.413995
 30
0.0
 40
3.081648
210
0.0
220
0.0
230
1.0
100
AcDbArc
 50
166.554328
 51
215.57915
  0
ARC
  5
4B2
100
AcDbEntity
  8
1
  6
CONTINUOUS
 62
     1
100
AcDbCircle
 10
438.003285
 20
-286.951931
 30
0.0
 40
3.081648
210
0.0
220
0.0
230
1.0
100
AcDbArc
 50
144.42085
 51
193.445672
  0
ARC
  5
4B3
100
AcDbEntity
  8
1
  6
CONTINUOUS
 62
     1
100
AcDbCircle
 10
428.744978
 20
-281.514605
 30
0.0
 40
7.672694
210
0.0
220
0.0
230
1.0
100
AcDbArc
 50
331.642253
 51
356.800019
  0
ARC
  5
4B4
100
AcDbEntity
  8
1
  6
CONTINUOUS
 62
     1
100
AcDbCircle
 10
439.713646
 20
-343.776214
 30
0.0
 40
3.081648
210
0.0
220
0.0
230
1.0
100
AcDbArc
 50
144.42085
 51
193.445672
  0
ARC
  5
4B5
100
AcDbEntity
  8
1
  6
CONTINUOUS
 62
     1
100
AcDbCircle
 10
430.45534
 20
-338.338888
 30
0.0
 40
7.672694
210
0.0
220
0.0
230
1.0
100
AcDbArc
 50
331.642253
 51
356.800019
  0
ARC
  5
4B6
100
AcDbEntity
  8
1
  6
CONTINUOUS
 62
     1
100
AcDbCircle
 10
430.45534
 20
-373.055286
 30
0.0
 40
7.672694
210
0.0
220
0.0
230
1.0
100
AcDbArc
 50
3.199981
 51
28.357747
  0
ARC
  5
4B7
100
AcDbEntity
  8
1
  6
CONTINUOUS
 62
     1
100
AcDbCircle
 10
439.713646
 20
-367.61796
 30
0.0
 40
3.081648
210
0.0
220
0.0
230
1.0
100
AcDbArc
 50
166.554328
 51
215.57915
  0
LINE
  5
4B8
100
AcDbEntity
  8
1
  6
CONTINUOUS
 62
     1
100
AcDbLine
 10
436.4058
 20
-316.2029
 30
0.0
 11
436.4058
 21
-347.1322
 31
0.0
  0
LINE
  5
4B9
100
AcDbEntity
  8
1
  6
CONTINUOUS
 62
     1
100
AcDbLine
 10
436.4058
 20
-366.9016
 30
0.0
 11
436.4058
 21
-400.5351
 31
0.0
  0
POLYLINE
  5
4BA
100
AcDbEntity
  8
1
  6
CONTINUOUS
 62
     1
100
AcDb2dPolyline
 66
     1
 10
0.0
 20
0.0
 30
0.0
  0
VERTEX
  5
4BB
100
AcDbEntity
  8
1
  6
CONTINUOUS
 62
     1
100
AcDbVertex
100
AcDb2dVertex
 10
439.0412
 20
-344.4968
 30
0.0
  0
VERTEX
  5
4BC
100
AcDbEntity
  8
1
  6
CONTINUOUS
 62
     1
100
AcDbVertex
100
AcDb2dVertex
 10
460.780119
 20
-344.496722
 30
0.0
 42
0.414214
  0
VERTEX
  5
4BD
100
AcDbEntity
  8
1
  6
CONTINUOUS
 62
     1
100
AcDbVertex
100
AcDb2dVertex
 10
462.0979
 20
-343.1791
 30
0.0
  0
VERTEX
  5
4BE
100
AcDbEntity
  8
1
  6
CONTINUOUS
 62
     1
100
AcDbVertex
100
AcDb2dVertex
 10
462.097809
 20
-327.366752
 30
0.0
 42
-0.512644
  0
VERTEX
  5
4BF
100
AcDbEntity
  8
1
  6
CONTINUOUS
 62
     1
100
AcDbVertex
100
AcDb2dVertex
 10
464.7332
 20
-326.0491
 30
0.0
  0
VERTEX
  5
4C0
100
AcDbEntity
  8
1
  6
CONTINUOUS
 62
     1
100
AcDbVertex
100
AcDb2dVertex
 10
464.733189
 20
-344.496722
 30
0.0
 42
-0.414214
  0
VERTEX
  5
4C1
100
AcDbEntity
  8
1
  6
CONTINUOUS
 62
     1
100
AcDbVertex
100
AcDb2dVertex
 10
462.0979
 20
-347.1322
 30
0.0
  0
VERTEX
  5
4C2
100
AcDbEntity
  8
1
  6
CONTINUOUS
 62
     1
100
AcDbVertex
100
AcDb2dVertex
 10
441.014769
 20
-347.132102
 30
0.0
 42
0.414214
  0
VERTEX
  5
4C3
100
AcDbEntity
  8
1
  6
CONTINUOUS
 62
     1
100
AcDbVertex
100
AcDb2dVertex
 10
439.697079
 20
-348.449792
 30
0.0
  0
VERTEX
  5
4C4
100
AcDbEntity
  8
1
  6
CONTINUOUS
 62
     1
100
AcDbVertex
100
AcDb2dVertex
 10
439.6971
 20
-348.4499
 30
0.0
  0
VERTEX
  5
4C5
100
AcDbEntity
  8
1
  6
CONTINUOUS
 62
     1
100
AcDbVertex
100
AcDb2dVertex
 10
439.6971
 20
-366.9016
 30
0.0
  0
VERTEX
  5
4C6
100
AcDbEntity
  8
1
  6
CONTINUOUS
 62
     1
100
AcDbVertex
100
AcDb2dVertex
 10
436.4058
 20
-366.9016
 30
0.0
  0
VERTEX
  5
4C7
100
AcDbEntity
  8
1
  6
CONTINUOUS
 62
     1
100
AcDbVertex
100
AcDb2dVertex
 10
436.405709
 20
-347.132102
 30
0.0
 42
-0.414214
  0
VERTEX
  5
4C8
100
AcDbEntity
  8
1
  6
CONTINUOUS
 62
     1
100
AcDbVertex
100
AcDb2dVertex
 10
439.041089
 20
-344.496722
 30
0.0
  0
SEQEND
  5
4C9
100
AcDbEntity
  8
1
  6
CONTINUOUS
 62
     1
  0
LINE
  5
4CA
100
AcDbEntity
  8
1
  6
CONTINUOUS
 62
     1
100
AcDbLine
 10
438.5613
 20
-366.9016
 30
0.0
 11
436.4058
 21
-364.7458
 31
0.0
  0
LINE
  5
4CB
100
AcDbEntity
  8
1
  6
CONTINUOUS
 62
     1
100
AcDbLine
 10
439.6971
 20
-364.3102
 30
0.0
 11
436.4058
 21
-361.0189
 31
0.0
  0
LINE
  5
4CC
100
AcDbEntity
  8
1
  6
CONTINUOUS
 62
     1
100
AcDbLine
 10
439.6971
 20
-360.5833
 30
0.0
 11
436.4058
 21
-357.292
 31
0.0
  0
LINE
  5
4CD
100
AcDbEntity
  8
1
  6
CONTINUOUS
 62
     1
100
AcDbLine
 10
439.6971
 20
-356.8564
 30
0.0
 11
436.4058
 21
-353.5649
 31
0.0
  0
LINE
  5
4CE
100
AcDbEntity
  8
1
  6
CONTINUOUS
 62
     1
100
AcDbLine
 10
439.6971
 20
-353.1293
 30
0.0
 11
436.4058
 21
-349.838
 31
0.0
  0
LINE
  5
4CF
100
AcDbEntity
  8
1
  6
CONTINUOUS
 62
     1
100
AcDbLine
 10
439.6971
 20
-349.4021
 30
0.0
 11
436.5667
 21
-346.2719
 31
0.0
  0
LINE
  5
4D0
100
AcDbEntity
  8
1
  6
CONTINUOUS
 62
     1
100
AcDbLine
 10
441.1541
 20
-347.1322
 30
0.0
 11
438.5698
 21
-344.5479
 31
0.0
  0
LINE
  5
4D1
100
AcDbEntity
  8
1
  6
CONTINUOUS
 62
     1
100
AcDbLine
 10
444.8809
 20
-347.1322
 30
0.0
 11
442.2455
 21
-344.4968
 31
0.0
  0
LINE
  5
4D2
100
AcDbEntity
  8
1
  6
CONTINUOUS
 62
     1
100
AcDbLine
 10
448.608
 20
-347.1322
 30
0.0
 11
445.9726
 21
-344.4968
 31
0.0
  0
LINE
  5
4D3
100
AcDbEntity
  8
1
  6
CONTINUOUS
 62
     1
100
AcDbLine
 10
452.3348
 20
-347.1322
 30
0.0
 11
449.6994
 21
-344.4968
 31
0.0
  0
LINE
  5
4D4
100
AcDbEntity
  8
1
  6
CONTINUOUS
 62
     1
100
AcDbLine
 10
456.0619
 20
-347.1322
 30
0.0
 11
453.4266
 21
-344.4968
 31
0.0
  0
LINE
  5
4D5
100
AcDbEntity
  8
1
  6
CONTINUOUS
 62
     1
100
AcDbLine
 10
459.7892
 20
-347.1322
 30
0.0
 11
457.1538
 21
-344.4968
 31
0.0
  0
LINE
  5
4D6
100
AcDbEntity
  8
1
  6
CONTINUOUS
 62
     1
100
AcDbLine
 10
463.2468
 20
-346.8631
 30
0.0
 11
460.8637
 21
-344.4797
 31
0.0
  0
LINE
  5
4D7
100
AcDbEntity
  8
1
  6
CONTINUOUS
 62
     1
100
AcDbLine
 10
464.7176
 20
-344.6068
 30
0.0
 11
462.0979
 21
-341.987
 31
0.0
  0
LINE
  5
4D8
100
AcDbEntity
  8
1
  6
CONTINUOUS
 62
     1
100
AcDbLine
 10
464.7332
 20
-340.8955
 30
0.0
 11
462.0979
 21
-338.2601
 31
0.0
  0
LINE
  5
4D9
100
AcDbEntity
  8
1
  6
CONTINUOUS
 62
     1
100
AcDbLine
 10
464.7332
 20
-337.1684
 30
0.0
 11
462.0979
 21
-334.533
 31
0.0
  0
LINE
  5
4DA
100
AcDbEntity
  8
1
  6
CONTINUOUS
 62
     1
100
AcDbLine
 10
464.7332
 20
-333.4416
 30
0.0
 11
462.0979
 21
-330.8062
 31
0.0
  0
LINE
  5
4DB
100
AcDbEntity
  8
1
  6
CONTINUOUS
 62
     1
100
AcDbLine
 10
464.7332
 20
-329.7146
 30
0.0
 11
462.1714
 21
-327.1527
 31
0.0
  0
ARC
  5
4DC
100
AcDbEntity
  8
1
  6
CONTINUOUS
 62
     1
100
AcDbCircle
 10
378.767989
 20
-355.697087
 30
0.0
 40
2.001985
210
0.0
220
0.0
230
1.0
100
AcDbArc
 50
80.854367
 51
279.145633
  0
TEXT
  5
4DD
100
AcDbEntity
  8
1
  6
CONTINUOUS
 62
     7
100
AcDbText
 10
403.2158
 20
-422.5033
 30
0.0
 40
4.8
  1
ELEVATION
  7
MONOTXT
 72
     4
 11
422.1701
 21
-420.1033
 31
0.0
210
0.0
220
0.0
230
1.0
100
AcDbText
  0
TEXT
  5
4DE
100
AcDbEntity
  8
1
  6
CONTINUOUS
 62
     7
100
AcDbText
 10
394.126
 20
-430.9033
 30
0.0
 40
4.8
  1
TYPE II (ALT. 2)
  7
MONOTXT
 72
     4
 11
422.1512
 21
-428.5033
 31
0.0
210
0.0
220
0.0
230
1.0
100
AcDbText
  0
LINE
  5
4DF
100
AcDbEntity
  8
1
  6
CONTINUOUS
 62
     7
100
AcDbLine
 10
401.8018
 20
-424.5096
 30
0.0
 11
443.315
 21
-424.5096
 31
0.0
  0
LINE
  5
4E0
100
AcDbEntity
  8
1
  6
CONTINUOUS
 62
     7
100
AcDbLine
 10
393.5008
 20
-432.455
 30
0.0
 11
451.4322
 21
-432.455
 31
0.0
  0
LINE
  5
4E1
100
AcDbEntity
  8
1
  6
CONTINUOUS
 62
     7
100
AcDbLine
 10
466.7127
 20
-231.2756
 30
0.0
 11
484.7713
 21
-215.3363
 31
0.0
  0
LINE
  5
4E2
100
AcDbEntity
  8
1
  6
CONTINUOUS
 62
     7
100
AcDbLine
 10
484.7713
 20
-215.3363
 30
0.0
 11
494.4517
 21
-215.3363
 31
0.0
  0
LINE
  5
4E3
100
AcDbEntity
  8
1
  6
CONTINUOUS
 62
     7
100
AcDbLine
 10
434.9789
 20
-209.0055
 30
0.0
 11
416.7614
 21
-193.3288
 31
0.0
  0
LINE
  5
4E4
100
AcDbEntity
  8
1
  6
CONTINUOUS
 62
     7
100
AcDbLine
 10
416.7614
 20
-193.3288
 30
0.0
 11
407.5559
 21
-193.3288
 31
0.0
  0
LINE
  5
4E5
100
AcDbEntity
  8
1
  6
CONTINUOUS
 62
     7
100
AcDbLine
 10
376.766
 20
-355.6971
 30
0.0
 11
364.5936
 21
-340.2563
 31
0.0
  0
LINE
  5
4E6
100
AcDbEntity
  8
1
  6
CONTINUOUS
 62
     7
100
AcDbLine
 10
364.5936
 20
-340.2563
 30
0.0
 11
357.2411
 21
-340.2563
 31
0.0
  0
LINE
  5
4E7
100
AcDbEntity
  8
1
  6
CONTINUOUS
 62
     7
100
AcDbLine
 10
464.7332
 20
-335.273
 30
0.0
 11
481.7743
 21
-320.49
 31
0.0
  0
LINE
  5
4E8
100
AcDbEntity
  8
1
  6
CONTINUOUS
 62
     7
100
AcDbLine
 10
481.7743
 20
-320.49
 30
0.0
 11
490.3522
 21
-320.49
 31
0.0
  0
TEXT
  5
4E9
100
AcDbEntity
  8
1
  6
CONTINUOUS
 62
     7
100
AcDbText
 10
404.2862
 20
-290.6726
 30
0.0
 40
4.8
  1
PLAN
  7
MONOTXT
 72
     4
 11
412.6956
 21
-288.2726
 31
0.0
210
0.0
220
0.0
230
1.0
100
AcDbText
  0
LINE
  5
4EA
100
AcDbEntity
  8
1
  6
CONTINUOUS
 62
     7
100
AcDbLine
 10
401.4904
 20
-293.3428
 30
0.0
 11
424.4352
 21
-293.3428
 31
0.0
  0
INSERT
  5
4EB
100
AcDbEntity
  8
1
  6
CONTINUOUS
 62
     1
100
AcDbBlockReference
  2
LDR
 10
434.9789
 20
-209.0055
 30
0.0
 41
240.0
 42
240.0
 50
319.287027
210
0.0
220
0.0
230
1.0
  0
INSERT
  5
4EC
100
AcDbEntity
  8
1
  6
CONTINUOUS
 62
     1
100
AcDbBlockReference
  2
LDR
 10
434.9789
 20
-209.0055
 30
0.0
 41
240.0
 42
240.0
 50
319.287027
210
0.0
220
0.0
230
1.0
  0
INSERT
  5
4ED
100
AcDbEntity
  8
1
  6
CONTINUOUS
 62
     1
100
AcDbBlockReference
  2
LDR
 10
466.7127
 20
-231.2756
 30
0.0
 41
240.000001
 42
240.000001
 50
221.433014
210
0.0
220
0.0
230
1.0
  0
TEXT
  5
4EE
100
AcDbEntity
  8
1
  6
CONTINUOUS
 62
     7
100
AcDbText
 10
389.2944
 20
-194.8599
 30
0.0
 40
3.0
  1
GASKET
  7
MONOTXT
 72
     4
 11
397.6684
 21
-193.3599
 31
0.0
210
0.0
220
0.0
230
1.0
100
AcDbText
  0
TEXT
  5
4EF
100
AcDbEntity
  8
1
  6
CONTINUOUS
 62
     7
100
AcDbText
 10
383.4834
 20
-200.2599
 30
0.0
 40
3.0
  1
SEE NOTE 5
  7
MONOTXT
 72
     4
 11
397.6684
 21
-198.7599
 31
0.0
210
0.0
220
0.0
230
1.0
100
AcDbText
  0
TEXT
  5
4F0
100
AcDbEntity
  8
1
  6
CONTINUOUS
 62
     7
100
AcDbText
 10
495.4182
 20
-216.8005
 30
0.0
 40
3.0
  1
ALUM. ANGLE
  7
MONOTXT
 72
     4
 11
509.556
 21
-215.3005
 31
0.0
210
0.0
220
0.0
230
1.0
100
AcDbText
  0
INSERT
  5
4F1
100
AcDbEntity
  8
1
  6
CONTINUOUS
 62
     1
100
AcDbBlockReference
  2
LDR
 10
464.7332
 20
-335.273
 30
0.0
 41
240.000001
 42
240.000001
 50
220.941342
210
0.0
220
0.0
230
1.0
  0
TEXT
  5
4F2
100
AcDbEntity
  8
1
  6
CONTINUOUS
 62
     7
100
AcDbText
 10
491.3241
 20
-321.8623
 30
0.0
 40
3.0
  1
SIGN BRACKET
  7
MONOTXT
 72
     4
 11
507.7059
 21
-320.3623
 31
0.0
210
0.0
220
0.0
230
1.0
100
AcDbText
  0
INSERT
  5
4F3
100
AcDbEntity
  8
1
  6
CONTINUOUS
 62
     1
100
AcDbBlockReference
  2
LDR
 10
376.766
 20
-355.6971
 30
0.0
 41
240.0
 42
240.0
 50
308.249667
210
0.0
220
0.0
230
1.0
  0
TEXT
  5
4F4
100
AcDbEntity
  8
1
  6
CONTINUOUS
 62
     7
100
AcDbText
 10
321.8234
 20
-318.6469
 30
0.0
 40
4.8
  1
+
  7
MONOTXT
 72
     4
 11
322.9006
 21
-316.2469
 31
0.0
210
0.0
220
0.0
230
1.0
100
AcDbText
  0
TEXT
  5
4F5
100
AcDbEntity
  8
1
  6
CONTINUOUS
 62
     7
100
AcDbText
 10
321.8234
 20
-320.6039
 30
0.0
 40
4.8
  1
-
  7
MONOTXT
 72
     4
 11
322.9006
 21
-318.2039
 31
0.0
210
0.0
220
0.0
230
1.0
100
AcDbText
  0
LWPOLYLINE
  5
4F6
100
AcDbEntity
  8
1
  6
CONTINUOUS
 62
     7
100
AcDbPolyline
 90
        4
 70
     0
 10
526.6737
 20
-352.2759
 10
524.2737
 20
-356.4328
 10
529.0737
 20
-356.4328
 10
526.6737
 20
-352.2759
  0
TEXT
  5
4F7
100
AcDbEntity
  8
1
  6
CONTINUOUS
 62
     7
100
AcDbText
 10
526.0326
 20
-355.7012
 30
0.0
 40
1.8
  1
3
  7
MONOTXT
210
0.0
220
0.0
230
1.0
100
AcDbText
  0
TEXT
  5
4F8
100
AcDbEntity
  8
1
  6
CONTINUOUS
 62
     7
100
AcDbText
 10
530.5905
 20
-355.5746
 30
0.0
 40
1.8
  1
ADDED METRIC
  7
MONOTXT
210
0.0
220
0.0
230
1.0
100
AcDbText
  0
LWPOLYLINE
  5
4F9
100
AcDbEntity
  8
1
  6
CONTINUOUS
 62
     7
100
AcDbPolyline
 90
        4
 70
     0
 10
529.4628
 20
-437.3675
 10
527.0628
 20
-441.5244
 10
531.8628
 20
-441.5244
 10
529.4628
 20
-437.3675
  0
TEXT
  5
4FA
100
AcDbEntity
  8
1
  6
CONTINUOUS
 62
     7
100
AcDbText
 10
528.8217
 20
-440.7928
 30
0.0
 40
1.8
  1
3
  7
MONOTXT
210
0.0
220
0.0
230
1.0
100
AcDbText
  0
TEXT
  5
4FB
100
AcDbEntity
  8
1
  6
CONTINUOUS
 62
     1
100
AcDbText
 10
534.876
 20
-441.0365
 30
0.0
 40
2.4
  1
05-16-94
  7
MONOTXT
 72
     1
 11
543.0303
 21
-438.6365
 31
0.0
210
0.0
220
0.0
230
1.0
100
AcDbText
 73
     3
  0
INSERT
  5
560
100
AcDbEntity
  8
1
  6
CONTINUOUS
 62
     2
100
AcDbBlockReference
 66
     1
  2
MTSD97
 10
-107.1477
 20
55.5118
 30
0.0
 41
1000.0
 42
1000.0
210
0.0
220
0.0
230
1.0
  0
ATTRIB
  5
561
100
AcDbEntity
  8
61
  6
CONTINUOUS
 62
     2
100
AcDbText
 10
617.3523
 20
26.3118
 30
0.0
 40
3.0492
  1
  
 50
0.029406
 41
0.996655
  7
MONOTXT
210
0.0
220
0.0
230
1.0
100
AcDbAttribute
  2
TAG00
 70
     0
  0
ATTRIB
  5
562
100
AcDbEntity
  8
61
  6
CONTINUOUS
 62
     2
100
AcDbText
 10
715.3523
 20
26.0118
 30
0.0
 40
3.049199
  1
   
 50
0.011508
 41
1.000984
  7
MONOTXT
210
0.0
220
0.0
230
1.0
100
AcDbAttribute
  2
TAG10
 70
     0
  0
ATTRIB
  5
563
100
AcDbEntity
  8
61
  6
CONTINUOUS
 62
     2
100
AcDbText
 10
727.9523
 20
25.9118
 30
0.0
 40
3.0492
  1
   
 50
359.922128
 41
1.00059
  7
MONOTXT
210
0.0
220
0.0
230
1.0
100
AcDbAttribute
  2
TAG20
 70
     0
  0
ATTRIB
  5
564
100
AcDbEntity
  8
61
  6
CONTINUOUS
 62
     2
100
AcDbText
 10
630.5523
 20
30.3118
 30
0.0
 40
2.5482
  1
    
 50
0.054383
 41
0.993643
  7
MONOTXT
210
0.0
220
0.0
230
1.0
100
AcDbAttribute
  2
TAG30
 70
     0
  0
ATTRIB
  5
565
100
AcDbEntity
  8
61
  6
CONTINUOUS
 62
     2
100
AcDbText
 10
626.8523
 20
26.4118
 30
0.0
 40
2.5266
  1
       
 50
0.064678
 41
1.00095
  7
MONOTXT
210
0.0
220
0.0
230
1.0
100
AcDbAttribute
  2
TAG40
 70
     0
  0
ATTRIB
  5
566
100
AcDbEntity
  8
61
  6
CONTINUOUS
 62
     2
100
AcDbText
 10
628.1523
 20
22.7118
 30
0.0
 40
2.526599
  1
      
 50
359.958053
 41
1.000237
  7
MONOTXT
210
0.0
220
0.0
230
1.0
100
AcDbAttribute
  2
TAG50
 70
     0
  0
ATTRIB
  5
567
100
AcDbEntity
  8
61
  6
CONTINUOUS
 62
     2
100
AcDbText
 10
642.0523
 20
28.6118
 30
0.0
 40
3.049199
  1
           
 50
0.011508
 41
0.998819
  7
MONOTXT
210
0.0
220
0.0
230
1.0
100
AcDbAttribute
  2
TAG60
 70
     0
  0
ATTRIB
  5
568
100
AcDbEntity
  8
61
  6
CONTINUOUS
 62
     2
100
AcDbText
 10
641.8523
 20
24.0118
 30
0.0
 40
3.049199
  1
           
 50
0.011508
 41
0.999606
  7
MONOTXT
210
0.0
220
0.0
230
1.0
100
AcDbAttribute
  2
TAG70
 70
     0
  0
ATTRIB
  5
569
100
AcDbEntity
  8
61
  6
CONTINUOUS
 62
     2
100
AcDbText
 10
686.7523
 20
26.2118
 30
0.0
 40
2.5482
  1
          
 50
0.009222
 41
0.992701
  7
MONOTXT
210
0.0
220
0.0
230
1.0
100
AcDbAttribute
  2
TAG80
 70
     0
  0
ATTRIB
  5
56A
100
AcDbEntity
  8
1
  6
CONTINUOUS
 62
     2
100
AcDbText
 10
547.9579
 20
-418.3882
 30
0.0
 40
2.5368
  1
05
  7
MONOTXT
210
0.0
220
0.0
230
1.0
100
AcDbAttribute
  2
TAG90
 70
     0
  0
ATTRIB
  5
56B
100
AcDbEntity
  8
1
  6
CONTINUOUS
 62
     2
100
AcDbText
 10
553.5907
 20
-418.3882
 30
0.0
 40
2.5368
  1
00
  7
MONOTXT
210
0.0
220
0.0
230
1.0
100
AcDbAttribute
  2
TAG91
 70
     0
  0
ATTRIB
  5
56C
100
AcDbEntity
  8
1
  6
CONTINUOUS
 62
     2
100
AcDbText
 10
559.2035
 20
-418.3882
 30
0.0
 40
2.5368
  1
67
  7
MONOTXT
210
0.0
220
0.0
230
1.0
100
AcDbAttribute
  2
TAG92
 70
     0
  0
ATTRIB
  5
56D
100
AcDbEntity
  8
1
  6
CONTINUOUS
 62
     2
100
AcDbText
 10
687.1707
 20
-471.4882
 30
0.0
 40
8.8806
  1
TE9-1 
  7
TXT
210
0.0
220
0.0
230
1.0
100
AcDbAttribute
  2
TAG100
 70
     0
  0
ATTRIB
  5
56E
100
AcDbEntity
  8
1
  6
CONTINUOUS
 62
     2
100
AcDbText
 10
535.3523
 20
-429.8882
 30
0.0
 40
2.5398
  1
        
  7
MONOTXT
 72
     1
 11
545.0882
 21
-427.3484
 31
0.0
210
0.0
220
0.0
230
1.0
100
AcDbAttribute
  2
TAG110
 70
     0
 74
     3
  0
ATTRIB
  5
56F
100
AcDbEntity
  8
1
  6
CONTINUOUS
 62
     2
100
AcDbText
 10
535.3523
 20
-435.4882
 30
0.0
 40
2.5398
  1
        
  7
MONOTXT
 72
     1
 11
545.0882
 21
-432.9484
 31
0.0
210
0.0
220
0.0
230
1.0
100
AcDbAttribute
  2
TAG120
 70
     0
 74
     3
  0
ATTRIB
  5
570
100
AcDbEntity
  8
1
  6
CONTINUOUS
 62
     2
100
AcDbText
 10
535.3523
 20
-440.9882
 30
0.0
 40
2.5398
  1
        
  7
MONOTXT
 72
     1
 11
545.0882
 21
-438.4484
 31
0.0
210
0.0
220
0.0
230
1.0
100
AcDbAttribute
  2
TAG130
 70
     0
 74
     3
  0
ATTRIB
  5
571
100
AcDbEntity
  8
1
  6
CONTINUOUS
 62
     2
100
AcDbText
 10
535.3523
 20
-446.5882
 30
0.0
 40
2.5398
  1
        
  7
MONOTXT
 72
     1
 11
545.0882
 21
-444.0484
 31
0.0
210
0.0
220
0.0
230
1.0
100
AcDbAttribute
  2
TAG140
 70
     0
 74
     3
  0
ATTRIB
  5
572
100
AcDbEntity
  8
1
  6
CONTINUOUS
 62
     2
100
AcDbText
 10
535.1523
 20
-452.4882
 30
0.0
 40
2.5398
  1
        
  7
MONOTXT
 72
     1
 11
544.8882
 21
-449.9484
 31
0.0
210
0.0
220
0.0
230
1.0
100
AcDbAttribute
  2
TAG150
 70
     0
 74
     3
  0
ATTRIB
  5
573
100
AcDbEntity
  8
1
  6
CONTINUOUS
 62
     2
100
AcDbText
 10
535.3523
 20
-458.1882
 30
0.0
 40
2.5398
  1
        
  7
MONOTXT
 72
     1
 11
545.0882
 21
-455.6484
 31
0.0
210
0.0
220
0.0
230
1.0
100
AcDbAttribute
  2
TAG160
 70
     0
 74
     3
  0
ATTRIB
  5
574
100
AcDbEntity
  8
1
  6
CONTINUOUS
 62
     2
100
AcDbText
 10
535.2523
 20
-463.9882
 30
0.0
 40
2.5398
  1
        
  7
MONOTXT
 72
     1
 11
544.9882
 21
-461.4484
 31
0.0
210
0.0
220
0.0
230
1.0
100
AcDbAttribute
  2
TAG170
 70
     0
 74
     3
  0
ATTRIB
  5
575
100
AcDbEntity
  8
1
  6
CONTINUOUS
 62
     2
100
AcDbText
 10
535.3523
 20
-469.7882
 30
0.0
 40
2.5398
  1
        
  7
MONOTXT
 72
     1
 11
545.0882
 21
-467.2484
 31
0.0
210
0.0
220
0.0
230
1.0
100
AcDbAttribute
  2
TAG180
 70
     0
 74
     3
  0
ATTRIB
  5
576
100
AcDbEntity
  8
1
  6
CONTINUOUS
 62
     2
100
AcDbText
 10
535.3523
 20
-474.8882
 30
0.0
 40
2.5398
  1
        
  7
MONOTXT
 72
     1
 11
545.0882
 21
-472.3484
 31
0.0
210
0.0
220
0.0
230
1.0
100
AcDbAttribute
  2
TAG190
 70
     0
 74
     3
  0
ATTRIB
  5
577
100
AcDbEntity
  8
61
  6
CONTINUOUS
 62
     2
100
AcDbText
 10
711.0523
 20
9.3118
 30
0.0
 40
3.0546
  1
     
 41
1.001375
  7
MONOTXT
210
0.0
220
0.0
230
1.0
100
AcDbAttribute
  2
TAG200
 70
     0
  0
ATTRIB
  5
578
100
AcDbEntity
  8
61
  6
CONTINUOUS
 62
     2
100
AcDbText
 10
675.9523
 20
26.1118
 30
0.0
 40
3.0492
  1
  
 50
0.029406
 41
0.996655
  7
MONOTXT
210
0.0
220
0.0
230
1.0
100
AcDbAttribute
  2
TAG210
 70
     0
  0
SEQEND
  5
579
100
AcDbEntity
  8
61
  6
CONTINUOUS
 62
     2
  0
TEXT
  5
57A
100
AcDbEntity
  8
1
  6
CONTINUOUS
 62
     7
100
AcDbText
 10
593.1773
 20
7.3448
 30
0.0
 40
3.0
  1
NOTES:
  7
MONOTXT
 11
593.1773
 21
10.3448
 31
0.0
210
0.0
220
0.0
230
1.0
100
AcDbText
 73
     3
  0
TEXT
  5
57B
100
AcDbEntity
  8
1
  6
CONTINUOUS
 62
     7
100
AcDbText
 10
593.1773
 20
1.9448
 30
0.0
 40
3.0
  1
 
  7
MONOTXT
 11
593.1773
 21
4.9448
 31
0.0
210
0.0
220
0.0
230
1.0
100
AcDbText
 73
     3
  0
TEXT
  5
57C
100
AcDbEntity
  8
1
  6
CONTINUOUS
 62
     7
100
AcDbText
 10
593.1773
 20
-3.4552
 30
0.0
 40
3.0
  1
1.   NORMALLY THERE WILL BE 2 CLAMPS (BRACES)
  7
MONOTXT
 11
593.1773
 21
-0.4552
 31
0.0
210
0.0
220
0.0
230
1.0
100
AcDbText
 73
     3
  0
TEXT
  5
57D
100
AcDbEntity
  8
1
  6
CONTINUOUS
 62
     7
100
AcDbText
 10
593.1773
 20
-8.8552
 30
0.0
 40
3.0
  1
   PER SIGN. FOLLOW PUNCHING AND MOUNTING AS
  7
MONOTXT
 11
593.1773
 21
-5.8552
 31
0.0
210
0.0
220
0.0
230
1.0
100
AcDbText
 73
     3
  0
TEXT
  5
57E
100
AcDbEntity
  8
1
  6
CONTINUOUS
 62
     7
100
AcDbText
 10
593.1773
 20
-14.2552
 30
0.0
 40
3.0
  1
   DETAILED IN THE TP SERIES.
  7
MONOTXT
 11
593.1773
 21
-11.2552
 31
0.0
210
0.0
220
0.0
230
1.0
100
AcDbText
 73
     3
  0
TEXT
  5
57F
100
AcDbEntity
  8
1
  6
CONTINUOUS
 62
     7
100
AcDbText
 10
593.1773
 20
-19.6552
 30
0.0
 40
3.0
  1
 
  7
MONOTXT
 11
593.1773
 21
-16.6552
 31
0.0
210
0.0
220
0.0
230
1.0
100
AcDbText
 73
     3
  0
TEXT
  5
580
100
AcDbEntity
  8
1
  6
CONTINUOUS
 62
     7
100
AcDbText
 10
593.1773
 20
-25.0552
 30
0.0
 40
3.0
  1
2.  TYPE I-A CLAMPS SHALL BE USED WITH EXTRUD-
  7
MONOTXT
 11
593.1773
 21
-22.0552
 31
0.0
210
0.0
220
0.0
230
1.0
100
AcDbText
 73
     3
  0
TEXT
  5
581
100
AcDbEntity
  8
1
  6
CONTINUOUS
 62
     7
100
AcDbText
 10
593.1773
 20
-30.4552
 30
0.0
 40
3.0
  1
   ED PANEL SIGNS. FOR BRACKET ATTACHMENT TO
  7
MONOTXT
 11
593.1773
 21
-27.4552
 31
0.0
210
0.0
220
0.0
230
1.0
100
AcDbText
 73
     3
  0
TEXT
  5
582
100
AcDbEntity
  8
1
  6
CONTINUOUS
 62
     7
100
AcDbText
 10
593.1773
 20
-35.8552
 30
0.0
 40
3.0
  1
   EXTRUDED PANEL SIGNS SEE SHEET TE7-1.
  7
MONOTXT
 11
593.1773
 21
-32.8552
 31
0.0
210
0.0
220
0.0
230
1.0
100
AcDbText
 73
     3
  0
TEXT
  5
583
100
AcDbEntity
  8
1
  6
CONTINUOUS
 62
     7
100
AcDbText
 10
593.1773
 20
-41.2552
 30
0.0
 40
3.0
  1
 
  7
MONOTXT
 11
593.1773
 21
-38.2552
 31
0.0
210
0.0
220
0.0
230
1.0
100
AcDbText
 73
     3
  0
TEXT
  5
584
100
AcDbEntity
  8
1
  6
CONTINUOUS
 62
     7
100
AcDbText
 10
593.1773
 20
-46.6552
 30
0.0
 40
3.0
  1
3.   TYPE I-B CLAMPS SHALL BE USED WITH FLAT
  7
MONOTXT
 11
593.1773
 21
-43.6552
 31
0.0
210
0.0
220
0.0
230
1.0
100
AcDbText
 73
     3
  0
TEXT
  5
585
100
AcDbEntity
  8
1
  6
CONTINUOUS
 62
     7
100
AcDbText
 10
593.1773
 20
-52.0552
 30
0.0
 40
3.0
  1
   SHEET SIGNS.
  7
MONOTXT
 11
593.1773
 21
-49.0552
 31
0.0
210
0.0
220
0.0
230
1.0
100
AcDbText
 73
     3
  0
TEXT
  5
586
100
AcDbEntity
  8
1
  6
CONTINUOUS
 62
     7
100
AcDbText
 10
593.1773
 20
-57.4552
 30
0.0
 40
3.0
  1
 
  7
MONOTXT
 11
593.1773
 21
-54.4552
 31
0.0
210
0.0
220
0.0
230
1.0
100
AcDbText
 73
     3
  0
TEXT
  5
587
100
AcDbEntity
  8
1
  6
CONTINUOUS
 62
     7
100
AcDbText
 10
593.1773
 20
-62.8552
 30
0.0
 40
3.0
  1
4.   WHEN ONLY ONE TYPE I  CLAMP IS NECESSARY
  7
MONOTXT
 11
593.1773
 21
-59.8552
 31
0.0
210
0.0
220
0.0
230
1.0
100
AcDbText
 73
     3
  0
TEXT
  5
588
100
AcDbEntity
  8
1
  6
CONTINUOUS
 62
     7
100
AcDbText
 10
593.1773
 20
-68.2552
 30
0.0
 40
3.0
  1
   FOR LONG NARROW SIGNS A 300mm ANGLE,
  7
MONOTXT
 11
593.1773
 21
-65.2552
 31
0.0
210
0.0
220
0.0
230
1.0
100
AcDbText
 73
     3
  0
TEXT
  5
589
100
AcDbEntity
  8
1
  6
CONTINUOUS
 62
     7
100
AcDbText
 10
593.1773
 20
-73.6552
 30
0.0
 40
3.0
  1
   MOUNTED VERTICALLY SHALL BE SUBSTITUTED
  7
MONOTXT
 11
593.1773
 21
-70.6552
 31
0.0
210
0.0
220
0.0
230
1.0
100
AcDbText
 73
     3
  0
TEXT
  5
58A
100
AcDbEntity
  8
1
  6
CONTINUOUS
 62
     7
100
AcDbText
 10
593.1773
 20
-79.0552
 30
0.0
 40
3.0
  1
   FOR THE MOUNTING LUG.
  7
MONOTXT
 11
593.1773
 21
-76.0552
 31
0.0
210
0.0
220
0.0
230
1.0
100
AcDbText
 73
     3
  0
TEXT
  5
58B
100
AcDbEntity
  8
1
  6
CONTINUOUS
 62
     7
100
AcDbText
 10
593.1773
 20
-84.4552
 30
0.0
 40
3.0
  1
 
  7
MONOTXT
 11
593.1773
 21
-81.4552
 31
0.0
210
0.0
220
0.0
230
1.0
100
AcDbText
 73
     3
  0
TEXT
  5
58C
100
AcDbEntity
  8
1
  6
CONTINUOUS
 62
     7
100
AcDbText
 10
593.1773
 20
-89.8552
 30
0.0
 40
3.0
  1
5.   CONTACT BETWEEN ALUMINUM AND GALVANIZED
  7
MONOTXT
 11
593.1773
 21
-86.8552
 31
0.0
210
0.0
220
0.0
230
1.0
100
AcDbText
 73
     3
  0
TEXT
  5
58D
100
AcDbEntity
  8
1
  6
CONTINUOUS
 62
     7
100
AcDbText
 10
593.1773
 20
-95.2552
 30
0.0
 40
3.0
  1
   PARTS SHALL BE PREVENTED WITH A MINIMUM
  7
MONOTXT
 11
593.1773
 21
-92.2552
 31
0.0
210
0.0
220
0.0
230
1.0
100
AcDbText
 73
     3
  0
TEXT
  5
58E
100
AcDbEntity
  8
1
  6
CONTINUOUS
 62
     7
100
AcDbText
 10
593.1773
 20
-100.6552
 30
0.0
 40
3.0
  1
   1.6mm THICK CHLOROPRENE GASKET OR
  7
MONOTXT
 11
593.1773
 21
-97.6552
 31
0.0
210
0.0
220
0.0
230
1.0
100
AcDbText
 73
     3
  0
TEXT
  5
58F
100
AcDbEntity
  8
1
  6
CONTINUOUS
 62
     7
100
AcDbText
 10
593.1773
 20
-106.0552
 30
0.0
 40
3.0
  1
   APPROVED SUBSITUTE. GASKETS ARE NOT
  7
MONOTXT
 11
593.1773
 21
-103.0552
 31
0.0
210
0.0
220
0.0
230
1.0
100
AcDbText
 73
     3
  0
TEXT
  5
590
100
AcDbEntity
  8
1
  6
CONTINUOUS
 62
     7
100
AcDbText
 10
593.1773
 20
-111.4552
 30
0.0
 40
3.0
  1
   REQUIRED BETWEEN STAINLESS STEEL AND
  7
MONOTXT
 11
593.1773
 21
-108.4552
 31
0.0
210
0.0
220
0.0
230
1.0
100
AcDbText
 73
     3
  0
TEXT
  5
591
100
AcDbEntity
  8
1
  6
CONTINUOUS
 62
     7
100
AcDbText
 10
593.1773
 20
-116.8552
 30
0.0
 40
3.0
  1
   ALUMINUM.
  7
MONOTXT
 11
593.1773
 21
-113.8552
 31
0.0
210
0.0
220
0.0
230
1.0
100
AcDbText
 73
     3
  0
TEXT
  5
592
100
AcDbEntity
  8
1
  6
CONTINUOUS
 62
     7
100
AcDbText
 10
593.1773
 20
-122.2552
 30
0.0
 40
3.0
  1
 
  7
MONOTXT
 11
593.1773
 21
-119.2552
 31
0.0
210
0.0
220
0.0
230
1.0
100
AcDbText
 73
     3
  0
TEXT
  5
593
100
AcDbEntity
  8
1
  6
CONTINUOUS
 62
     7
100
AcDbText
 10
593.1773
 20
-127.6552
 30
0.0
 40
3.0
  1
6.   U-BOLTS, OTHER BOLTS, NUTS AND WASHERS
  7
MONOTXT
 11
593.1773
 21
-124.6552
 31
0.0
210
0.0
220
0.0
230
1.0
100
AcDbText
 73
     3
  0
TEXT
  5
594
100
AcDbEntity
  8
1
  6
CONTINUOUS
 62
     7
100
AcDbText
 10
593.1773
 20
-133.0552
 30
0.0
 40
3.0
  1
   SHALL BE STAINLESS STEEL FOR USE WITH
  7
MONOTXT
 11
593.1773
 21
-130.0552
 31
0.0
210
0.0
220
0.0
230
1.0
100
AcDbText
 73
     3
  0
TEXT
  5
595
100
AcDbEntity
  8
1
  6
CONTINUOUS
 62
     7
100
AcDbText
 10
593.1773
 20
-138.4552
 30
0.0
 40
3.0
  1
   ALUMINUM MEMBERS. WHEN USED WITH
  7
MONOTXT
 11
593.1773
 21
-135.4552
 31
0.0
210
0.0
220
0.0
230
1.0
100
AcDbText
 73
     3
  0
TEXT
  5
596
100
AcDbEntity
  8
1
  6
CONTINUOUS
 62
     7
100
AcDbText
 10
593.1773
 20
-143.8552
 30
0.0
 40
3.0
  1
   GALVANIZED STEEL MEMBERS, THE U-BOLTS,
  7
MONOTXT
 11
593.1773
 21
-140.8552
 31
0.0
210
0.0
220
0.0
230
1.0
100
AcDbText
 73
     3
  0
TEXT
  5
597
100
AcDbEntity
  8
1
  6
CONTINUOUS
 62
     7
100
AcDbText
 10
593.1773
 20
-149.2552
 30
0.0
 40
3.0
  1
   NUTS AND WASHERS MAY BE GALVANIZED STEEL.
  7
MONOTXT
 11
593.1773
 21
-146.2552
 31
0.0
210
0.0
220
0.0
230
1.0
100
AcDbText
 73
     3
  0
TEXT
  5
598
100
AcDbEntity
  8
1
  6
CONTINUOUS
 62
     7
100
AcDbText
 10
26.2107
 20
-147.4789
 30
0.0
 40
4.8
  1
ELEVATION
  7
MONOTXT
 72
     4
 11
45.165
 21
-145.0789
 31
0.0
210
0.0
220
0.0
230
1.0
100
AcDbText
  0
TEXT
  5
599
100
AcDbEntity
  8
1
  6
CONTINUOUS
 62
     7
100
AcDbText
 10
-16.6492
 20
-155.8789
 30
0.0
 40
4.8
  1
STAINLESS STEEL BANDING TYPE
  7
MONOTXT
 72
     4
 11
45.165
 21
-153.4789
 31
0.0
210
0.0
220
0.0
230
1.0
100
AcDbText
  0
TEXT
  5
59A
100
AcDbEntity
  8
1
  6
CONTINUOUS
 62
     7
100
AcDbText
 10
17.7068
 20
-164.2789
 30
0.0
 40
4.8
  1
(MAX.-0.84m )
  7
MONOTXT
 72
     4
 11
45.165
 21
-161.8789
 31
0.0
210
0.0
220
0.0
230
1.0
100
AcDbText
  0
TEXT
  5
59B
100
AcDbEntity
  8
1
  6
CONTINUOUS
 62
     7
100
AcDbText
 10
65.1116
 20
-160.6065
 30
0.0
 40
2.4
  1
2
  7
MONOTXT
 72
     4
 11
65.9147
 21
-159.4065
 31
0.0
210
0.0
220
0.0
230
1.0
100
AcDbText
  0
TEXT
  5
59C
100
AcDbEntity
  8
1
  6
CONTINUOUS
 62
     7
100
AcDbText
 10
-23.6337
 20
-219.0103
 30
0.0
 40
3.0
  1
4.76mm
 50
331.1258
  7
MONOTXT
 72
     1
 11
-15.938731
 21
-223.253631
 31
0.0
210
0.0
220
0.0
230
1.0
100
AcDbText
  0
TEXT
  5
59D
100
AcDbEntity
  8
1
  6
CONTINUOUS
 62
     7
100
AcDbText
 10
73.9471
 20
-273.9799
 30
0.0
 40
3.0
  1
MOUNTING LUG
  7
MONOTXT
 11
73.9471
 21
-270.9799
 31
0.0
210
0.0
220
0.0
230
1.0
100
AcDbText
 73
     3
  0
TEXT
  5
59E
100
AcDbEntity
  8
1
  6
CONTINUOUS
 62
     7
100
AcDbText
 10
73.9471
 20
-279.3799
 30
0.0
 40
3.0
  1
63.5mmx38.1mmx9.5mm
  7
MONOTXT
 11
73.9471
 21
-276.3799
 31
0.0
210
0.0
220
0.0
230
1.0
100
AcDbText
 73
     3
  0
TEXT
  5
59F
100
AcDbEntity
  8
1
  6
CONTINUOUS
 62
     7
100
AcDbText
 10
-18.0808
 20
-301.082
 30
0.0
 40
3.0
  1
15.875mm BOLTS WITH
  7
MONOTXT
 11
-18.0808
 21
-298.082
 31
0.0
210
0.0
220
0.0
230
1.0
100
AcDbText
 73
     3
  0
TEXT
  5
5A0
100
AcDbEntity
  8
1
  6
CONTINUOUS
 62
     7
100
AcDbText
 10
-18.0808
 20
-306.482
 30
0.0
 40
3.0
  1
HEX NUT
  7
MONOTXT
 11
-18.0808
 21
-303.482
 31
0.0
210
0.0
220
0.0
230
1.0
100
AcDbText
 73
     3
  0
TEXT
  5
5A1
100
AcDbEntity
  8
1
  6
CONTINUOUS
 62
     7
100
AcDbText
 10
-39.8724
 20
-356.1362
 30
0.0
 40
3.0
  1
76.2mm
  7
MONOTXT
 72
     4
 11
-31.1558
 21
-354.6362
 31
0.0
210
0.0
220
0.0
230
1.0
100
AcDbText
  0
TEXT
  5
5A2
100
AcDbEntity
  8
1
  6
CONTINUOUS
 62
     7
100
AcDbText
 10
81.1283
 20
-341.1328
 30
0.0
 40
3.0
  1
4.76mm
  7
MONOTXT
 72
     4
 11
89.9157
 21
-339.6328
 31
0.0
210
0.0
220
0.0
230
1.0
100
AcDbText
  0
TEXT
  5
5A3
100
AcDbEntity
  8
1
  6
CONTINUOUS
 62
     7
100
AcDbText
 10
91.1674
 20
-367.468
 30
0.0
 40
3.0
  1
11.11mm 0 HOLE-TYP.
  7
MONOTXT
 72
     4
 11
116.2422
 21
-365.968
 31
0.0
210
0.0
220
0.0
230
1.0
100
AcDbText
  0
TEXT
  5
5A4
100
AcDbEntity
  8
1
  6
CONTINUOUS
 62
     7
100
AcDbText
 10
260.7404
 20
28.543
 30
0.0
 40
3.0
  1
15.88mm 0 BOLTS WITH
  7
MONOTXT
 11
260.7404
 21
31.543
 31
0.0
210
0.0
220
0.0
230
1.0
100
AcDbText
 73
     3
  0
TEXT
  5
5A5
100
AcDbEntity
  8
1
  6
CONTINUOUS
 62
     7
100
AcDbText
 10
260.7404
 20
23.143
 30
0.0
 40
3.0
  1
HEX. NUTS
  7
MONOTXT
 11
260.7404
 21
26.143
 31
0.0
210
0.0
220
0.0
230
1.0
100
AcDbText
 73
     3
  0
TEXT
  5
5A6
100
AcDbEntity
  8
1
  6
CONTINUOUS
 62
     7
100
AcDbText
 10
225.0821
 20
-45.9215
 30
0.0
 40
3.0
  1
6.35mm
 50
38.19045
  7
MONOTXT
 72
     1
 11
231.914371
 21
-40.546876
 31
0.0
210
0.0
220
0.0
230
1.0
100
AcDbText
  0
TEXT
  5
5A7
100
AcDbEntity
  8
1
  6
CONTINUOUS
 62
     7
100
AcDbText
 10
231.4749
 20
-47.7631
 30
0.0
 40
3.0
  1
TYP.
 50
38.19045
  7
MONOTXT
 72
     1
 11
235.25301
 21
-44.791041
 31
0.0
210
0.0
220
0.0
230
1.0
100
AcDbText
  0
TEXT
  5
5A8
100
AcDbEntity
  8
1
  6
CONTINUOUS
 62
     7
100
AcDbText
 10
116.7204
 20
-64.0703
 30
0.0
 40
3.0
  1
63.5mmx50.8mmx6.35mm
  7
MONOTXT
 11
116.7204
 21
-61.0703
 31
0.0
210
0.0
220
0.0
230
1.0
100
AcDbText
 73
     3
  0
TEXT
  5
5A9
100
AcDbEntity
  8
1
  6
CONTINUOUS
 62
     7
100
AcDbText
 10
116.7204
 20
-69.4703
 30
0.0
 40
3.0
  1
(OR 63.5mmx63.5mmx6.35mm
  7
MONOTXT
 11
116.7204
 21
-66.4703
 31
0.0
210
0.0
220
0.0
230
1.0
100
AcDbText
 73
     3
  0
TEXT
  5
5AA
100
AcDbEntity
  8
1
  6
CONTINUOUS
 62
     7
100
AcDbText
 10
116.7204
 20
-74.8703
 30
0.0
 40
3.0
  1
A-36 GALV. STEEL OR
  7
MONOTXT
 11
116.7204
 21
-71.8703
 31
0.0
210
0.0
220
0.0
230
1.0
100
AcDbText
 73
     3
  0
TEXT
  5
5AB
100
AcDbEntity
  8
1
  6
CONTINUOUS
 62
     7
100
AcDbText
 10
116.7204
 20
-80.2703
 30
0.0
 40
3.0
  1
APPROPRIATE ALUM.
  7
MONOTXT
 11
116.7204
 21
-77.2703
 31
0.0
210
0.0
220
0.0
230
1.0
100
AcDbText
 73
     3
  0
TEXT
  5
5AC
100
AcDbEntity
  8
1
  6
CONTINUOUS
 62
     7
100
AcDbText
 10
287.0833
 20
-60.1288
 30
0.0
 40
3.0
  1
MOUNTING LUG
  7
MONOTXT
 11
287.0833
 21
-57.1288
 31
0.0
210
0.0
220
0.0
230
1.0
100
AcDbText
 73
     3
  0
TEXT
  5
5AD
100
AcDbEntity
  8
1
  6
CONTINUOUS
 62
     7
100
AcDbText
 10
287.0833
 20
-65.5288
 30
0.0
 40
3.0
  1
31.75mmx31.75mmx9.5mm
  7
MONOTXT
 11
287.0833
 21
-62.5288
 31
0.0
210
0.0
220
0.0
230
1.0
100
AcDbText
 73
     3
  0
TEXT
  5
5AE
100
AcDbEntity
  8
1
  6
CONTINUOUS
 62
     7
100
AcDbText
 10
417.3752
 20
-71.4958
 30
0.0
 40
3.0
  1
6.35mm
 50
38.19045
  7
MONOTXT
 72
     1
 11
424.207471
 21
-66.121176
 31
0.0
210
0.0
220
0.0
230
1.0
100
AcDbText
  0
TEXT
  5
5AF
100
AcDbEntity
  8
1
  6
CONTINUOUS
 62
     7
100
AcDbText
 10
423.768
 20
-73.3374
 30
0.0
 40
3.0
  1
TYP.
 50
38.19045
  7
MONOTXT
 72
     1
 11
427.54611
 21
-70.365341
 31
0.0
210
0.0
220
0.0
230
1.0
100
AcDbText
  0
TEXT
  5
5B0
100
AcDbEntity
  8
1
  6
CONTINUOUS
 62
     7
100
AcDbText
 10
447.5292
 20
27.4774
 30
0.0
 40
3.0
  1
15.88mm 0 BOLTS WITH
  7
MONOTXT
 11
447.5292
 21
30.4774
 31
0.0
210
0.0
220
0.0
230
1.0
100
AcDbText
 73
     3
  0
TEXT
  5
5B1
100
AcDbEntity
  8
1
  6
CONTINUOUS
 62
     7
100
AcDbText
 10
447.5292
 20
22.0774
 30
0.0
 40
3.0
  1
HEX. NUTS
  7
MONOTXT
 11
447.5292
 21
25.0774
 31
0.0
210
0.0
220
0.0
230
1.0
100
AcDbText
 73
     3
  0
TEXT
  5
5B2
100
AcDbEntity
  8
1
  6
CONTINUOUS
 62
     7
100
AcDbText
 10
471.8454
 20
27.4682
 30
0.0
 40
3.0
  1
/
  7
MONOTXT
210
0.0
220
0.0
230
1.0
100
AcDbText
  0
TEXT
  5
5B3
100
AcDbEntity
  8
1
  6
CONTINUOUS
 62
     7
100
AcDbText
 10
523.8862
 20
6.2941
 30
0.0
 40
3.0
  1
11.11mm 0 HOLES
  7
MONOTXT
 72
     4
 11
543.9294
 21
7.7941
 31
0.0
210
0.0
220
0.0
230
1.0
100
AcDbText
  0
TEXT
  5
5B4
100
AcDbEntity
  8
1
  6
CONTINUOUS
 62
     7
100
AcDbText
 10
495.2942
 20
-79.3138
 30
0.0
 40
3.0
  1
6.35mm
  7
MONOTXT
 72
     4
 11
503.9871
 21
-77.8138
 31
0.0
210
0.0
220
0.0
230
1.0
100
AcDbText
  0
TEXT
  5
5B5
100
AcDbEntity
  8
1
  6
CONTINUOUS
 62
     7
100
AcDbText
 10
408.6115
 20
-143.1765
 30
0.0
 40
3.0
  1
38.1mm
 50
90.0
  7
MONOTXT
 72
     4
 11
407.1115
 21
-135.0505
 31
0.0
210
0.0
220
0.0
230
1.0
100
AcDbText
  0
TEXT
  5
5B6
100
AcDbEntity
  8
1
  6
CONTINUOUS
 62
     7
100
AcDbText
 10
527.1184
 20
-118.2758
 30
0.0
 40
3.0
  1
63.5mmx50.8mmx6.35mm
  7
MONOTXT
 11
527.1184
 21
-115.2758
 31
0.0
210
0.0
220
0.0
230
1.0
100
AcDbText
 73
     3
  0
TEXT
  5
5B7
100
AcDbEntity
  8
1
  6
CONTINUOUS
 62
     7
100
AcDbText
 10
527.1184
 20
-123.6758
 30
0.0
 40
3.0
  1
(OR 63.5mmx63.5mmx
  7
MONOTXT
 11
527.1184
 21
-120.6758
 31
0.0
210
0.0
220
0.0
230
1.0
100
AcDbText
 73
     3
  0
TEXT
  5
5B8
100
AcDbEntity
  8
1
  6
CONTINUOUS
 62
     7
100
AcDbText
 10
527.1184
 20
-129.0758
 30
0.0
 40
3.0
  1
6.35mm)
  7
MONOTXT
 11
527.1184
 21
-126.0758
 31
0.0
210
0.0
220
0.0
230
1.0
100
AcDbText
 73
     3
  0
TEXT
  5
5B9
100
AcDbEntity
  8
1
  6
CONTINUOUS
 62
     7
100
AcDbText
 10
527.1184
 20
-134.4758
 30
0.0
 40
3.0
  1
A-36 STEEL GALV. OR
  7
MONOTXT
 11
527.1184
 21
-131.4758
 31
0.0
210
0.0
220
0.0
230
1.0
100
AcDbText
 73
     3
  0
TEXT
  5
5BA
100
AcDbEntity
  8
1
  6
CONTINUOUS
 62
     7
100
AcDbText
 10
527.1184
 20
-139.8758
 30
0.0
 40
3.0
  1
APPROPRIATE ALUM.
  7
MONOTXT
 11
527.1184
 21
-136.8758
 31
0.0
210
0.0
220
0.0
230
1.0
100
AcDbText
 73
     3
  0
TEXT
  5
5BB
100
AcDbEntity
  8
1
  6
CONTINUOUS
 62
     7
100
AcDbText
 10
258.6475
 20
-216.7279
 30
0.0
 40
2.4
  1
2
  7
MONOTXT
 72
     4
 11
259.4506
 21
-215.5279
 31
0.0
210
0.0
220
0.0
230
1.0
100
AcDbText
  0
TEXT
  5
5BC
100
AcDbEntity
  8
1
  6
CONTINUOUS
 62
     7
100
AcDbText
 10
220.2963
 20
-202.4903
 30
0.0
 40
4.8
  1
ELEVATION
  7
MONOTXT
 72
     4
 11
239.2506
 21
-200.0903
 31
0.0
210
0.0
220
0.0
230
1.0
100
AcDbText
  0
TEXT
  5
5BD
100
AcDbEntity
  8
1
  6
CONTINUOUS
 62
     7
100
AcDbText
 10
222.734
 20
-210.8903
 30
0.0
 40
4.8
  1
TYPE I-A
  7
MONOTXT
 72
     4
 11
239.2506
 21
-208.4903
 31
0.0
210
0.0
220
0.0
230
1.0
100
AcDbText
  0
TEXT
  5
5BE
100
AcDbEntity
  8
1
  6
CONTINUOUS
 62
     7
100
AcDbText
 10
213.0396
 20
-219.2903
 30
0.0
 40
4.8
  1
(MAX.-1.86m )
  7
MONOTXT
 72
     4
 11
239.2506
 21
-216.8903
 31
0.0
210
0.0
220
0.0
230
1.0
100
AcDbText
  0
TEXT
  5
5BF
100
AcDbEntity
  8
1
  6
CONTINUOUS
 62
     7
100
AcDbText
 10
145.2008
 20
-112.7399
 30
0.0
 40
3.0
  1
/
  7
MONOTXT
 72
     4
 11
146.0394
 21
-111.2399
 31
0.0
210
0.0
220
0.0
230
1.0
100
AcDbText
  0
LINE
  5
5C0
100
AcDbEntity
  8
1
  6
CONTINUOUS
 62
     7
100
AcDbLine
 10
166.327
 20
-111.2613
 30
0.0
 11
170.8937
 21
-111.2613
 31
0.0
  0
TEXT
  5
5C1
100
AcDbEntity
  8
1
  6
CONTINUOUS
 62
     7
100
AcDbText
 10
124.7406
 20
-112.8751
 30
0.0
 40
3.0
  1
11.11mm 0 HOLES
  7
MONOTXT
 72
     4
 11
144.7838
 21
-111.3751
 31
0.0
210
0.0
220
0.0
230
1.0
100
AcDbText
  0
TEXT
  5
5C2
100
AcDbEntity
  8
1
  6
CONTINUOUS
 62
     7
100
AcDbText
 10
288.1153
 20
-135.0781
 30
0.0
 40
3.0
  1
4.7675mm
  7
MONOTXT
 72
     1
 11
299.9027
 21
-132.0781
 31
0.0
210
0.0
220
0.0
230
1.0
100
AcDbText
 73
     3
  0
TEXT
  5
5C3
100
AcDbEntity
  8
1
  6
CONTINUOUS
 62
     7
100
AcDbText
 10
441.8861
 20
-161.6424
 30
0.0
 40
4.8
  1
ELEVATION
  7
MONOTXT
 72
     4
 11
460.8404
 21
-159.2424
 31
0.0
210
0.0
220
0.0
230
1.0
100
AcDbText
  0
TEXT
  5
5C4
100
AcDbEntity
  8
1
  6
CONTINUOUS
 62
     7
100
AcDbText
 10
444.5696
 20
-170.0424
 30
0.0
 40
4.8
  1
TYPE I-B
  7
MONOTXT
 72
     4
 11
460.8404
 21
-167.6424
 31
0.0
210
0.0
220
0.0
230
1.0
100
AcDbText
  0
TEXT
  5
5C5
100
AcDbEntity
  8
1
  6
CONTINUOUS
 62
     7
100
AcDbText
 10
434.6294
 20
-178.4424
 30
0.0
 40
4.8
  1
(MAX.-1.86m )
  7
MONOTXT
 72
     4
 11
460.8404
 21
-176.0424
 31
0.0
210
0.0
220
0.0
230
1.0
100
AcDbText
  0
LINE
  5
5C6
100
AcDbEntity
  8
1
  6
CONTINUOUS
 62
     7
100
AcDbLine
 10
440.242
 20
-162.9643
 30
0.0
 11
483.2928
 21
-162.9643
 31
0.0
  0
LINE
  5
5C7
100
AcDbEntity
  8
1
  6
CONTINUOUS
 62
     7
100
AcDbLine
 10
443.9302
 20
-171.0809
 30
0.0
 11
479.7226
 21
-171.0809
 31
0.0
  0
TEXT
  5
5C8
100
AcDbEntity
  8
1
  6
CONTINUOUS
 62
     7
100
AcDbText
 10
480.2373
 20
-175.88
 30
0.0
 40
2.4
  1
2
  7
MONOTXT
 72
     4
 11
481.0404
 21
-174.68
 31
0.0
210
0.0
220
0.0
230
1.0
100
AcDbText
  0
TEXT
  5
5C9
100
AcDbEntity
  8
1
  6
CONTINUOUS
 62
     7
100
AcDbText
 10
339.3662
 20
-341.4667
 30
0.0
 40
3.0
  1
12.7mm
  7
MONOTXT
 72
     4
 11
347.5158
 21
-339.9667
 31
0.0
210
0.0
220
0.0
230
1.0
100
AcDbText
  0
TEXT
  5
5CA
100
AcDbEntity
  8
1
  6
CONTINUOUS
 62
     7
100
AcDbText
 10
332.9292
 20
-348.0667
 30
0.0
 40
3.0
  1
DIA. U-BOLTS
  7
MONOTXT
 72
     4
 11
347.5158
 21
-346.5667
 31
0.0
210
0.0
220
0.0
230
1.0
100
AcDbText
  0
TEXT
  5
5CB
100
AcDbEntity
  8
1
  6
CONTINUOUS
 62
     7
100
AcDbText
 10
270.3364
 20
-381.05
 30
0.0
 40
3.0
  1
11.11mm 0 HOLES
  7
MONOTXT
 72
     4
 11
290.3796
 21
-379.55
 31
0.0
210
0.0
220
0.0
230
1.0
100
AcDbText
  0
TEXT
  5
5CC
100
AcDbEntity
  8
1
  6
CONTINUOUS
 62
     7
100
AcDbText
 10
290.7966
 20
-380.9148
 30
0.0
 40
3.0
  1
/
  7
MONOTXT
 72
     4
 11
291.6352
 21
-379.4148
 31
0.0
210
0.0
220
0.0
230
1.0
100
AcDbText
  0
TEXT
  5
5CD
100
AcDbEntity
  8
1
  6
CONTINUOUS
 62
     7
100
AcDbText
 10
266.5104
 20
-351.8334
 30
0.0
 40
3.0
  1
4.76mm
  7
MONOTXT
 72
     4
 11
275.2978
 21
-350.3334
 31
0.0
210
0.0
220
0.0
230
1.0
100
AcDbText
  0
TEXT
  5
5CE
100
AcDbEntity
  8
1
  6
CONTINUOUS
 62
     7
100
AcDbText
 10
183.4006
 20
-233.3791
 30
0.0
 40
3.0
  1
15.88mm
  7
MONOTXT
 72
     4
 11
193.0148
 21
-231.8791
 31
0.0
210
0.0
220
0.0
230
1.0
100
AcDbText
  0
TEXT
  5
5CF
100
AcDbEntity
  8
1
  6
CONTINUOUS
 62
     7
100
AcDbText
 10
176.7983
 20
-238.7791
 30
0.0
 40
3.0
  1
DIAM. U-BOLTS
  7
MONOTXT
 72
     4
 11
193.0148
 21
-237.2791
 31
0.0
210
0.0
220
0.0
230
1.0
100
AcDbText
  0
TEXT
  5
5D0
100
AcDbEntity
  8
1
  6
CONTINUOUS
 62
     7
100
AcDbText
 10
174.7904
 20
-244.1791
 30
0.0
 40
3.0
  1
WITH HEX NUTS
  7
MONOTXT
 72
     4
 11
193.0148
 21
-242.6791
 31
0.0
210
0.0
220
0.0
230
1.0
100
AcDbText
  0
TEXT
  5
5D1
100
AcDbEntity
  8
1
  6
CONTINUOUS
 62
     7
100
AcDbText
 10
259.227
 20
-247.4003
 30
0.0
 40
3.0
  1
76.2mmx4.76mm
  7
MONOTXT
 11
259.227
 21
-244.4003
 31
0.0
210
0.0
220
0.0
230
1.0
100
AcDbText
 73
     3
  0
TEXT
  5
5D2
100
AcDbEntity
  8
1
  6
CONTINUOUS
 62
     7
100
AcDbText
 10
259.227
 20
-252.8003
 30
0.0
 40
3.0
  1
STEEL CLAMP
  7
MONOTXT
 11
259.227
 21
-249.8003
 31
0.0
210
0.0
220
0.0
230
1.0
100
AcDbText
 73
     3
  0
TEXT
  5
5D3
100
AcDbEntity
  8
1
  6
CONTINUOUS
 62
     7
100
AcDbText
 10
259.227
 20
-258.2003
 30
0.0
 40
3.0
  1
B86, ASTM A606 TYPE 4
  7
MONOTXT
 11
259.227
 21
-255.2003
 31
0.0
210
0.0
220
0.0
230
1.0
100
AcDbText
 73
     3
  0
TEXT
  5
5D4
100
AcDbEntity
  8
1
  6
CONTINUOUS
 62
     7
100
AcDbText
 10
259.227
 20
-263.6003
 30
0.0
 40
3.0
  1
OR EQUIVALENT
  7
MONOTXT
 11
259.227
 21
-260.6003
 31
0.0
210
0.0
220
0.0
230
1.0
100
AcDbText
 73
     3
  0
TEXT
  5
5D5
100
AcDbEntity
  8
1
  6
CONTINUOUS
 62
     7
100
AcDbText
 10
261.8229
 20
-312.8247
 30
0.0
 40
3.0
  1
MOUNTING LUG
  7
MONOTXT
 11
261.8229
 21
-309.8247
 31
0.0
210
0.0
220
0.0
230
1.0
100
AcDbText
 73
     3
  0
TEXT
  5
5D6
100
AcDbEntity
  8
1
  6
CONTINUOUS
 62
     7
100
AcDbText
 10
261.8229
 20
-318.2247
 30
0.0
 40
3.0
  1
69.88mmx50.8mmx9.5mm
  7
MONOTXT
 11
261.8229
 21
-315.2247
 31
0.0
210
0.0
220
0.0
230
1.0
100
AcDbText
 73
     3
  0
TEXT
  5
5D7
100
AcDbEntity
  8
1
  6
CONTINUOUS
 62
     7
100
AcDbText
 10
-4.799
 20
-125.6468
 30
0.0
 40
3.0
  1
0.51mmx19.05mm TYP.
  7
MONOTXT
210
0.0
220
0.0
230
1.0
100
AcDbText
  0
ENDSEC
  0
SECTION
  2
OBJECTS
  0
DICTIONARY
  5
19
100
AcDbDictionary
  3
ACAD_GROUP
350
1A
  3
ACAD_MLINESTYLE
350
1B
  0
DICTIONARY
  5
1A
102
{ACAD_REACTORS
330
19
102
}
100
AcDbDictionary
  0
DICTIONARY
  5
1B
102
{ACAD_REACTORS
330
19
102
}
100
AcDbDictionary
  3
STANDARD
350
1C
  0
MLINESTYLE
  5
1C
102
{ACAD_REACTORS
330
1B
102
}
100
AcDbMlineStyle
  2
STANDARD
 70
     0
  3

 62
     0
 51
90.0
 52
90.0
 71
     2
 49
0.5
 62
   256
  6
BYLAYER
 49
-0.5
 62
   256
  6
BYLAYER
  0
ENDSEC
  0
EOF
