  0
SECTION
  2
HEADER
  9
$ACADVER
  1
AC1014
  9
$ACADMAINTVER
 70
     0
  9
$DWGCODEPAGE
  3
ANSI_1252
  9
$INSBASE
 10
0.0
 20
0.0
 30
0.0
  9
$EXTMIN
 10
17.5957
 20
-9.2829
 30
0.0
  9
$EXTMAX
 10
815.5957
 20
528.1171
 30
0.0
  9
$LIMMIN
 10
0.0
 20
0.0
  9
$LIMMAX
 10
12.0
 20
9.0
  9
$ORTHOMODE
 70
     0
  9
$REGENMODE
 70
     1
  9
$FILLMODE
 70
     1
  9
$QTEXTMODE
 70
     0
  9
$MIRRTEXT
 70
     1
  9
$DRAGMODE
 70
     2
  9
$LTSCALE
 40
1.0
  9
$OSMODE
 70
     0
  9
$ATTMODE
 70
     1
  9
$TEXTSIZE
 40
0.2
  9
$TRACEWID
 40
0.05
  9
$TEXTSTYLE
  7
STANDARD
  9
$CLAYER
  8
0
  9
$CELTYPE
  6
CONTINUOUS
  9
$CECOLOR
 62
   256
  9
$CELTSCALE
 40
1.0
  9
$DELOBJ
 70
     1
  9
$DISPSILH
 70
     0
  9
$DIMSCALE
 40
1.0
  9
$DIMASZ
 40
0.18
  9
$DIMEXO
 40
0.0625
  9
$DIMDLI
 40
0.38
  9
$DIMRND
 40
0.0
  9
$DIMDLE
 40
0.0
  9
$DIMEXE
 40
0.18
  9
$DIMTP
 40
0.0
  9
$DIMTM
 40
0.0
  9
$DIMTXT
 40
0.18
  9
$DIMCEN
 40
0.09
  9
$DIMTSZ
 40
0.0
  9
$DIMTOL
 70
     0
  9
$DIMLIM
 70
     0
  9
$DIMTIH
 70
     1
  9
$DIMTOH
 70
     1
  9
$DIMSE1
 70
     0
  9
$DIMSE2
 70
     0
  9
$DIMTAD
 70
     0
  9
$DIMZIN
 70
     0
  9
$DIMBLK
  1

  9
$DIMASO
 70
     1
  9
$DIMSHO
 70
     1
  9
$DIMPOST
  1

  9
$DIMAPOST
  1

  9
$DIMALT
 70
     0
  9
$DIMALTD
 70
     2
  9
$DIMALTF
 40
25.4
  9
$DIMLFAC
 40
1.0
  9
$DIMTOFL
 70
     0
  9
$DIMTVP
 40
0.0
  9
$DIMTIX
 70
     0
  9
$DIMSOXD
 70
     0
  9
$DIMSAH
 70
     0
  9
$DIMBLK1
  1

  9
$DIMBLK2
  1

  9
$DIMSTYLE
  2
STANDARD
  9
$DIMCLRD
 70
     0
  9
$DIMCLRE
 70
     0
  9
$DIMCLRT
 70
     0
  9
$DIMTFAC
 40
1.0
  9
$DIMGAP
 40
0.09
  9
$DIMJUST
 70
     0
  9
$DIMSD1
 70
     0
  9
$DIMSD2
 70
     0
  9
$DIMTOLJ
 70
     1
  9
$DIMTZIN
 70
     0
  9
$DIMALTZ
 70
     0
  9
$DIMALTTZ
 70
     0
  9
$DIMFIT
 70
     3
  9
$DIMUPT
 70
     0
  9
$DIMUNIT
 70
     2
  9
$DIMDEC
 70
     4
  9
$DIMTDEC
 70
     4
  9
$DIMALTU
 70
     2
  9
$DIMALTTD
 70
     2
  9
$DIMTXSTY
  7
STANDARD
  9
$DIMAUNIT
 70
     0
  9
$LUNITS
 70
     2
  9
$LUPREC
 70
     4
  9
$SKETCHINC
 40
0.1
  9
$FILLETRAD
 40
0.0
  9
$AUNITS
 70
     0
  9
$AUPREC
 70
     0
  9
$MENU
  1
acad
  9
$ELEVATION
 40
0.0
  9
$PELEVATION
 40
0.0
  9
$THICKNESS
 40
0.0
  9
$LIMCHECK
 70
     0
  9
$BLIPMODE
 70
     1
  9
$CHAMFERA
 40
0.0
  9
$CHAMFERB
 40
0.0
  9
$CHAMFERC
 40
0.0
  9
$CHAMFERD
 40
0.0
  9
$SKPOLY
 70
     0
  9
$TDCREATE
 40
2451803.540868056
  9
$TDUPDATE
 40
2451803.540868056
  9
$TDINDWG
 40
0.0000000000
  9
$TDUSRTIMER
 40
0.0000000000
  9
$USRTIMER
 70
     1
  9
$ANGBASE
 50
0.0
  9
$ANGDIR
 70
     0
  9
$PDMODE
 70
     0
  9
$PDSIZE
 40
0.0
  9
$PLINEWID
 40
0.0
  9
$COORDS
 70
     0
  9
$SPLFRAME
 70
     0
  9
$SPLINETYPE
 70
     6
  9
$SPLINESEGS
 70
    10
  9
$ATTDIA
 70
     0
  9
$ATTREQ
 70
     1
  9
$HANDLING
 70
     1
  9
$HANDSEED
  5
67F
  9
$SURFTAB1
 70
     6
  9
$SURFTAB2
 70
     6
  9
$SURFTYPE
 70
     6
  9
$SURFU
 70
     6
  9
$SURFV
 70
     6
  9
$UCSNAME
  2

  9
$UCSORG
 10
0.0
 20
0.0
 30
0.0
  9
$UCSXDIR
 10
1.0
 20
0.0
 30
0.0
  9
$UCSYDIR
 10
0.0
 20
1.0
 30
0.0
  9
$PUCSNAME
  2

  9
$PUCSORG
 10
0.0
 20
0.0
 30
0.0
  9
$PUCSXDIR
 10
1.0
 20
0.0
 30
0.0
  9
$PUCSYDIR
 10
0.0
 20
1.0
 30
0.0
  9
$USERI1
 70
     0
  9
$USERI2
 70
     0
  9
$USERI3
 70
     0
  9
$USERI4
 70
     0
  9
$USERI5
 70
     0
  9
$USERR1
 40
0.0
  9
$USERR2
 40
0.0
  9
$USERR3
 40
0.0
  9
$USERR4
 40
0.0
  9
$USERR5
 40
0.0
  9
$WORLDVIEW
 70
     1
  9
$SHADEDGE
 70
     3
  9
$SHADEDIF
 70
    70
  9
$TILEMODE
 70
     1
  9
$MAXACTVP
 70
    16
  9
$PINSBASE
 10
0.0
 20
0.0
 30
0.0
  9
$PLIMCHECK
 70
     0
  9
$PEXTMIN
 10
-1.000000E+20
 20
-1.000000E+20
 30
-1.000000E+20
  9
$PEXTMAX
 10
-1.000000E+20
 20
-1.000000E+20
 30
-1.000000E+20
  9
$PLIMMIN
 10
0.0
 20
0.0
  9
$PLIMMAX
 10
12.0
 20
9.0
  9
$UNITMODE
 70
     0
  9
$VISRETAIN
 70
     0
  9
$PLINEGEN
 70
     1
  9
$PSLTSCALE
 70
     0
  9
$TREEDEPTH
 70
  3020
  9
$PICKSTYLE
 70
     1
  9
$CMLSTYLE
  2
STANDARD
  9
$CMLJUST
 70
     0
  9
$CMLSCALE
 40
1.0
  9
$PROXYGRAPHICS
 70
     0
  9
$MEASUREMENT
 70
     0
  0
ENDSEC
  0
SECTION
  2
CLASSES
  0
CLASS
  1
LWPOLYLINE
  2
AcDbPolyline
  3
"AutoCAD"
 90
        0
280
     0
281
     1
  0
CLASS
  1
IMAGE
  2
AcDbRasterImage
  3
ISM
 90
      127
280
     0
281
     1
  0
CLASS
  1
OLE2FRAME
  2
AcDbOle2Frame
  3
""
 90
        0
280
     0
281
     1
  0
CLASS
  1
HATCH
  2
AcDbHatch
  3
"ACAD_SEDONA"
 90
        0
280
     0
281
     1
  0
CLASS
  1
DICTIONARYVAR
  2
AcDbDictionaryVar
  3
"AutoCAD"
 90
        0
280
     0
281
     0
  0
CLASS
  1
RASTERVARIABLES
  2
AcDbRasterVariables
  3
ISM
 90
        0
280
     0
281
     0
  0
CLASS
  1
IMAGEDEF
  2
AcDbRasterImageDef
  3
ISM
 90
        0
280
     0
281
     0
  0
CLASS
  1
IMAGEDEF_REACTOR
  2
AcDbRasterImageDefReactor
  3
ISM
 90
        1
280
     0
281
     0
  0
CLASS
  1
IDBUFFER
  2
AcDbIdBuffer
  3
"Acad"
 90
        0
280
     0
281
     0
  0
CLASS
  1
SPATIAL_FILTER
  2
AcDbSpatialFilter
  3
"Acad"
 90
        0
280
     0
281
     0
  0
CLASS
  1
XRECORD
  2
AcDbXrecord
  3
"<Built In>"
 90
        0
280
     0
281
     0
  0
CLASS
  1
SORTENTSTABLE
  2
AcDbSortentsTable
  3
"AutoCAD"
 90
        0
280
     0
281
     0
  0
CLASS
  1
LAYER_INDEX
  2
AcDbLayerIndex
  3
"Acad"
 90
        0
280
     0
281
     0
  0
CLASS
  1
SPATIAL_INDEX
  2
AcDbSpatialIndex
  3
"Acad"
 90
        0
280
     0
281
     0
  0
CLASS
  1
OBJECT_PTR
  2
CAseDLPNTableRecord
  3
"ASE-LPNTableRecord"
 90
        1
280
     0
281
     0
  0
ENDSEC
  0
SECTION
  2
TABLES
  0
TABLE
  2
VPORT
  5
7
100
AcDbSymbolTable
 70
     1
  0
VPORT
  5
67E
100
AcDbSymbolTableRecord
100
AcDbViewportTableRecord
  2
*ACTIVE
 70
     0
 10
0.0
 20
0.0
 11
1.0
 21
1.0
 12
0.0
 22
0.0
 13
0.0
 23
0.0
 14
0.0
 24
0.0
 15
0.0
 25
0.0
 16
0.0
 26
0.0
 36
1.0
 17
360.837233
 27
262.4671
 37
0.0
 40
565.24
 41
1.546667
 42
50.0
 43
0.0
 44
0.0
 50
0.0
 51
0.0
 71
     0
 72
   100
 73
     1
 74
     0
 75
     0
 76
     0
 77
     0
 78
     0
  0
ENDTAB
  0
TABLE
  2
LTYPE
  5
4
100
AcDbSymbolTable
 70
     9
  0
LTYPE
  5
11
100
AcDbSymbolTableRecord
100
AcDbLinetypeTableRecord
  2
BYBLOCK
 70
     0
  3

 72
    65
 73
     0
 40
0.0
  0
LTYPE
  5
12
100
AcDbSymbolTableRecord
100
AcDbLinetypeTableRecord
  2
BYLAYER
 70
     0
  3

 72
    65
 73
     0
 40
0.0
  0
LTYPE
  5
13
100
AcDbSymbolTableRecord
100
AcDbLinetypeTableRecord
  2
CONTINUOUS
 70
     0
  3
Solid line
 72
    65
 73
     0
 40
0.0
  0
LTYPE
  5
22
102
{ACAD_XDICTIONARY
360
2100000000000000
102
}
100
AcDbSymbolTableRecord
100
AcDbLinetypeTableRecord
  2
DOT
 70
    64
  3
. . . . . . . . . . . . . . . . . . . . . . . . . . . . . . . . .
 72
    65
 73
     2
 40
0.25
 49
0.0
 74
     0
 49
-0.25
 74
     0
  0
LTYPE
  5
23
102
{ACAD_XDICTIONARY
360
2100000000000000
102
}
100
AcDbSymbolTableRecord
100
AcDbLinetypeTableRecord
  2
HIDDEN
 70
    64
  3
__ __ __ __ __ __ __ __ __ __ __ __ __ __ __ __ __ __ __ __ __ 
 72
    65
 73
     2
 40
0.375
 49
0.25
 74
     0
 49
-0.125
 74
     0
  0
LTYPE
  5
24
102
{ACAD_XDICTIONARY
360
2100000000000000
102
}
100
AcDbSymbolTableRecord
100
AcDbLinetypeTableRecord
  2
DASHED
 70
    64
  3
__ __ __ __ __ __ __ __ __ __ __ __ __ __ __ __ __ __ __ __ __
 72
    65
 73
     2
 40
0.75
 49
0.5
 74
     0
 49
-0.25
 74
     0
  0
LTYPE
  5
25
102
{ACAD_XDICTIONARY
360
2100000000000000
102
}
100
AcDbSymbolTableRecord
100
AcDbLinetypeTableRecord
  2
DASHDOT
 70
    64
  3
__ . __ . __ . __ . __ . __ . __ . __ . __ . __ . __ . __ . _
 72
    65
 73
     4
 40
1.0
 49
0.5
 74
     0
 49
-0.25
 74
     0
 49
0.0
 74
     0
 49
-0.25
 74
     0
  0
LTYPE
  5
26
102
{ACAD_XDICTIONARY
360
2100000000000000
102
}
100
AcDbSymbolTableRecord
100
AcDbLinetypeTableRecord
  2
DIVIDE
 70
    64
  3
____ . . ____ . . ____ . . ____ . . ____ . . ____ . . ____ . .
 72
    65
 73
     6
 40
1.25
 49
0.5
 74
     0
 49
-0.25
 74
     0
 49
0.0
 74
     0
 49
-0.25
 74
     0
 49
0.0
 74
     0
 49
-0.25
 74
     0
  0
LTYPE
  5
27
102
{ACAD_XDICTIONARY
360
2100000000000000
102
}
100
AcDbSymbolTableRecord
100
AcDbLinetypeTableRecord
  2
CENTER
 70
    64
  3
____ _ ____ _ ____ _ ____ _ ____ _ ____ _ ____ _ ____ _ ____ _
 72
    65
 73
     4
 40
2.0
 49
1.25
 74
     0
 49
-0.25
 74
     0
 49
0.25
 74
     0
 49
-0.25
 74
     0
  0
ENDTAB
  0
TABLE
  2
LAYER
  5
2
100
AcDbSymbolTable
 70
     4
  0
LAYER
  5
14
102
{ACAD_XDICTIONARY
360
5F205F5F5F5F205F
102
}
100
AcDbSymbolTableRecord
100
AcDbLayerTableRecord
  2
0
 70
     0
 62
     7
  6
CONTINUOUS
  0
LAYER
  5
1E
102
{ACAD_XDICTIONARY
360
5F205F5F5F5F205F
102
}
100
AcDbSymbolTableRecord
100
AcDbLayerTableRecord
  2
CONSTRUCTION_CLASS
 70
    64
 62
     7
  6
CONTINUOUS
  0
LAYER
  5
2A
102
{ACAD_XDICTIONARY
360
5F205F5F5F5F205F
102
}
100
AcDbSymbolTableRecord
100
AcDbLayerTableRecord
  2
61
 70
    64
 62
     7
  6
CONTINUOUS
  0
LAYER
  5
2D
102
{ACAD_XDICTIONARY
360
5F205F5F5F5F205F
102
}
100
AcDbSymbolTableRecord
100
AcDbLayerTableRecord
  2
1
 70
    64
 62
     7
  6
CONTINUOUS
  0
ENDTAB
  0
TABLE
  2
STYLE
  5
3
100
AcDbSymbolTable
 70
     4
  0
STYLE
  5
17
100
AcDbSymbolTableRecord
100
AcDbTextStyleTableRecord
  2
STANDARD
 70
     0
 40
0.0
 41
1.0
 50
0.0
 71
     0
 42
0.0
  3
txt
  4

  0
STYLE
  5
2B
100
AcDbSymbolTableRecord
100
AcDbTextStyleTableRecord
  2
MONOTXT
 70
     0
 40
0.2
 41
1.0
 50
0.0
 71
     0
 42
0.2
  3
MONOTXT
  4

  0
STYLE
  5
43
100
AcDbSymbolTableRecord
100
AcDbTextStyleTableRecord
  2
TXT
 70
     0
 40
0.2
 41
1.0
 50
0.0
 71
     0
 42
0.2
  3
TXT
  4

  0
STYLE
  5
5F5
100
AcDbSymbolTableRecord
100
AcDbTextStyleTableRecord
  2
ROMANT
 70
     0
 40
0.2
 41
1.0
 50
0.0
 71
     0
 42
0.2
  3
ROMANT
  4

  0
ENDTAB
  0
TABLE
  2
VIEW
  5
5
100
AcDbSymbolTable
 70
     0
  0
ENDTAB
  0
TABLE
  2
UCS
  5
6
100
AcDbSymbolTable
 70
     0
  0
ENDTAB
  0
TABLE
  2
APPID
  5
8
100
AcDbSymbolTable
 70
     1
  0
APPID
  5
16
100
AcDbSymbolTableRecord
100
AcDbRegAppTableRecord
  2
ACAD
 70
     0
  0
ENDTAB
  0
TABLE
  2
DIMSTYLE
  5
9
100
AcDbSymbolTable
 70
     1
  0
DIMSTYLE
105
18
100
AcDbSymbolTableRecord
100
AcDbDimStyleTableRecord
  2
STANDARD
 70
     0
  3

  4

  5

  6

  7

 40
1.0
 41
0.18
 42
0.0625
 43
0.38
 44
0.18
 45
0.0
 46
0.0
 47
0.0
 48
0.0
140
0.18
141
0.09
142
0.0
143
25.4
144
1.0
145
0.0
146
1.0
147
0.09
 71
     0
 72
     0
 73
     1
 74
     1
 75
     0
 76
     0
 77
     0
 78
     0
170
     0
171
     2
172
     0
173
     0
174
     0
175
     0
176
     0
177
     0
178
     0
270
     2
271
     4
272
     4
273
     2
274
     2
340
17
275
     0
280
     0
281
     0
282
     0
283
     1
284
     0
285
     0
286
     0
287
     0
288
     0
  0
ENDTAB
  0
TABLE
  2
BLOCK_RECORD
  5
1
100
AcDbSymbolTable
 70
     2
  0
BLOCK_RECORD
  5
A
100
AcDbSymbolTableRecord
100
AcDbBlockTableRecord
  2
*MODEL_SPACE
  0
BLOCK_RECORD
  5
B
100
AcDbSymbolTableRecord
100
AcDbBlockTableRecord
  2
*PAPER_SPACE
  0
BLOCK_RECORD
  5
C4
102
{ACAD_XDICTIONARY
360
6E0002000200E6FF
102
}
100
AcDbSymbolTableRecord
100
AcDbBlockTableRecord
  2
LDR
  0
BLOCK_RECORD
  5
607
102
{ACAD_XDICTIONARY
360
6E0002000200E6FF
102
}
100
AcDbSymbolTableRecord
100
AcDbBlockTableRecord
  2
PT
  0
ENDTAB
  0
ENDSEC
  0
SECTION
  2
BLOCKS
  0
BLOCK
  5
D
100
AcDbEntity
  8
0
100
AcDbBlockBegin
  2
*MODEL_SPACE
 70
     0
 10
0.0
 20
0.0
 30
0.0
  3
*MODEL_SPACE
  1

  0
ENDBLK
  5
E
100
AcDbEntity
  8
0
100
AcDbBlockEnd
  0
BLOCK
  5
F
100
AcDbEntity
 67
     1
  8
0
100
AcDbBlockBegin
  2
*PAPER_SPACE
 70
     0
 10
0.0
 20
0.0
 30
0.0
  3
*PAPER_SPACE
  1

  0
ENDBLK
  5
10
100
AcDbEntity
 67
     1
  8
0
100
AcDbBlockEnd
  0
BLOCK
  5
C5
100
AcDbEntity
  8
1
  6
CONTINUOUS
 62
     1
100
AcDbBlockBegin
  2
LDR
 70
     0
 10
0.0
 20
0.0
 30
0.0
  3
LNR
  1

  0
ELLIPSE
  5
C6
100
AcDbEntity
  8
1
  6
CONTINUOUS
 62
     1
100
AcDbEllipse
 10
-0.005456
 20
-0.001382
 30
0.0
 11
0.0089285004623472
 21
0.0007807500129699
 31
0.0
210
0.0
220
0.0
230
1.0
 40
0.122415
 41
0.8963533496766982
 42
3.1415926535897931
  0
ELLIPSE
  5
C7
100
AcDbEntity
  8
1
  6
CONTINUOUS
 62
     1
100
AcDbEllipse
 10
-0.005603
 20
0.001058
 30
0.0
 11
0.0087822506056358
 21
-0.0008782502048316
 31
0.0
210
0.0
220
0.0
230
1.0
 40
0.07063
 41
3.1407147529760402
 42
5.4181099545465106
  0
ENDBLK
  5
C8
100
AcDbEntity
  8
1
  6
CONTINUOUS
 62
     1
100
AcDbBlockEnd
  0
BLOCK
  5
608
100
AcDbEntity
  8
1
  6
CONTINUOUS
 62
     1
100
AcDbBlockBegin
  2
PT
 70
     0
 10
0.0
 20
0.0
 30
0.0
  3
PT
  1

  0
POINT
  5
609
100
AcDbEntity
  8
1
  6
CONTINUOUS
 62
     1
100
AcDbPoint
 10
0.0
 20
0.0
 30
0.0
  0
ENDBLK
  5
60A
100
AcDbEntity
  8
1
  6
CONTINUOUS
 62
     1
100
AcDbBlockEnd
  0
ENDSEC
  0
SECTION
  2
ENTITIES
  0
TEXT
  5
2C
100
AcDbEntity
  8
61
  6
CONTINUOUS
 62
     7
100
AcDbText
 10
785.3563
 20
461.9632
 30
0.0
 40
2.881584
  1
     
 41
1.001399
  7
MONOTXT
210
0.0
220
0.0
230
1.0
100
AcDbText
  0
TEXT
  5
2E
100
AcDbEntity
  8
1
  6
CONTINUOUS
 62
     1
100
AcDbText
 10
604.6217
 20
49.0534
 30
0.0
 40
2.400048
  1
07-22-76
  7
MONOTXT
 72
     1
 11
613.3242
 21
51.4534
 31
0.0
210
0.0
220
0.0
230
1.0
100
AcDbText
 73
     3
  0
TEXT
  5
2F
100
AcDbEntity
  8
1
  6
CONTINUOUS
 62
     1
100
AcDbText
 10
605.5616
 20
43.4588
 30
0.0
 40
2.400048
  1
08-11-77
  7
MONOTXT
 72
     1
 11
613.2908
 21
45.8588
 31
0.0
210
0.0
220
0.0
230
1.0
100
AcDbText
 73
     3
  0
TEXT
  5
30
100
AcDbEntity
  8
1
  6
CONTINUOUS
 62
     1
100
AcDbText
 10
604.5371
 20
37.4709
 30
0.0
 40
2.400048
  1
09-14-93
  7
MONOTXT
 72
     1
 11
612.6915
 21
39.8709
 31
0.0
210
0.0
220
0.0
230
1.0
100
AcDbText
 73
     3
  0
TEXT
  5
31
100
AcDbEntity
  8
1
  6
CONTINUOUS
 62
     1
100
AcDbText
 10
606.3883
 20
39.8992
 30
0.0
 40
2.400048
  1
        
  7
MONOTXT
 72
     1
 11
615.5885
 21
42.2992
 31
0.0
210
0.0
220
0.0
230
1.0
100
AcDbText
 73
     3
  0
TEXT
  5
32
100
AcDbEntity
  8
1
  6
CONTINUOUS
 62
     1
100
AcDbText
 10
606.1963
 20
34.3792
 30
0.0
 40
2.400048
  1
        
  7
MONOTXT
 72
     1
 11
615.3965
 21
36.7792
 31
0.0
210
0.0
220
0.0
230
1.0
100
AcDbText
 73
     3
  0
TEXT
  5
33
100
AcDbEntity
  8
1
  6
CONTINUOUS
 62
     1
100
AcDbText
 10
606.3883
 20
29.0032
 30
0.0
 40
2.400048
  1
        
  7
MONOTXT
 72
     1
 11
615.5885
 21
31.4032
 31
0.0
210
0.0
220
0.0
230
1.0
100
AcDbText
 73
     3
  0
TEXT
  5
34
100
AcDbEntity
  8
1
  6
CONTINUOUS
 62
     1
100
AcDbText
 10
606.2683
 20
23.4832
 30
0.0
 40
2.400048
  1
        
  7
MONOTXT
 72
     1
 11
615.4685
 21
25.8832
 31
0.0
210
0.0
220
0.0
230
1.0
100
AcDbText
 73
     3
  0
TEXT
  5
35
100
AcDbEntity
  8
1
  6
CONTINUOUS
 62
     1
100
AcDbText
 10
606.3883
 20
17.9872
 30
0.0
 40
2.400048
  1
        
  7
MONOTXT
 72
     1
 11
615.5885
 21
20.3872
 31
0.0
210
0.0
220
0.0
230
1.0
100
AcDbText
 73
     3
  0
TEXT
  5
36
100
AcDbEntity
  8
1
  6
CONTINUOUS
 62
     1
100
AcDbText
 10
606.3883
 20
13.1632
 30
0.0
 40
2.400048
  1
        
  7
MONOTXT
 72
     1
 11
615.5885
 21
15.5632
 31
0.0
210
0.0
220
0.0
230
1.0
100
AcDbText
 73
     3
  0
LINE
  5
37
100
AcDbEntity
  8
1
  6
CONTINUOUS
 62
     7
100
AcDbLine
 10
595.7497
 20
131.346
 30
0.0
 11
590.9497
 21
131.346
 31
0.0
  0
LINE
  5
38
100
AcDbEntity
  8
1
  6
CONTINUOUS
 62
     7
100
AcDbLine
 10
593.3497
 20
135.5029
 30
0.0
 11
590.9497
 21
131.346
 31
0.0
  0
LINE
  5
39
100
AcDbEntity
  8
1
  6
CONTINUOUS
 62
     7
100
AcDbLine
 10
593.3497
 20
135.5029
 30
0.0
 11
595.7497
 21
131.346
 31
0.0
  0
LINE
  5
3A
100
AcDbEntity
  8
1
  6
CONTINUOUS
 62
     7
100
AcDbLine
 10
595.8516
 20
137.1066
 30
0.0
 11
591.0516
 21
137.1066
 31
0.0
  0
LINE
  5
3B
100
AcDbEntity
  8
1
  6
CONTINUOUS
 62
     7
100
AcDbLine
 10
593.4516
 20
141.2635
 30
0.0
 11
591.0516
 21
137.1066
 31
0.0
  0
LINE
  5
3C
100
AcDbEntity
  8
1
  6
CONTINUOUS
 62
     7
100
AcDbLine
 10
593.4516
 20
141.2635
 30
0.0
 11
595.8516
 21
137.1066
 31
0.0
  0
LINE
  5
3D
100
AcDbEntity
  8
1
  6
CONTINUOUS
 62
     7
100
AcDbLine
 10
598.6444
 20
48.5235
 30
0.0
 11
593.8444
 21
48.5235
 31
0.0
  0
LINE
  5
3E
100
AcDbEntity
  8
1
  6
CONTINUOUS
 62
     7
100
AcDbLine
 10
596.2444
 20
52.6804
 30
0.0
 11
593.8444
 21
48.5235
 31
0.0
  0
LINE
  5
3F
100
AcDbEntity
  8
1
  6
CONTINUOUS
 62
     7
100
AcDbLine
 10
596.2444
 20
52.6804
 30
0.0
 11
598.6444
 21
48.5235
 31
0.0
  0
LINE
  5
40
100
AcDbEntity
  8
1
  6
CONTINUOUS
 62
     7
100
AcDbLine
 10
598.6376
 20
42.708
 30
0.0
 11
593.8376
 21
42.708
 31
0.0
  0
LINE
  5
41
100
AcDbEntity
  8
1
  6
CONTINUOUS
 62
     7
100
AcDbLine
 10
596.2376
 20
46.8649
 30
0.0
 11
593.8376
 21
42.708
 31
0.0
  0
LINE
  5
42
100
AcDbEntity
  8
1
  6
CONTINUOUS
 62
     7
100
AcDbLine
 10
596.2376
 20
46.8649
 30
0.0
 11
598.6376
 21
42.708
 31
0.0
  0
TEXT
  5
44
100
AcDbEntity
  8
1
  6
CONTINUOUS
 62
     7
100
AcDbText
 10
657.0505
 20
80.6779
 30
0.0
 40
8.3912
  1
LIGHTING POLE
  7
TXT
 72
     1
 11
701.3229
 21
89.0691
 31
0.0
210
0.0
220
0.0
230
1.0
100
AcDbText
 73
     3
  0
TEXT
  5
45
100
AcDbEntity
  8
1
  6
CONTINUOUS
 62
     7
100
AcDbText
 10
629.2904
 20
69.3279
 30
0.0
 40
8.3912
  1
SUPPORT BASE - TYPE F
  7
TXT
 72
     1
 11
701.1203
 21
77.7191
 31
0.0
210
0.0
220
0.0
230
1.0
100
AcDbText
 73
     3
  0
TEXT
  5
46
100
AcDbEntity
  8
1
  6
CONTINUOUS
 62
     7
100
AcDbText
 10
593.0229
 20
137.6282
 30
0.0
 40
2.4
  1
1
  7
MONOTXT
210
0.0
220
0.0
230
1.0
100
AcDbText
  0
TEXT
  5
47
100
AcDbEntity
  8
1
  6
CONTINUOUS
 62
     7
100
AcDbText
 10
592.4325
 20
131.7218
 30
0.0
 40
2.4
  1
2
  7
MONOTXT
210
0.0
220
0.0
230
1.0
100
AcDbText
  0
TEXT
  5
48
100
AcDbEntity
  8
1
  6
CONTINUOUS
 62
     7
100
AcDbText
 10
597.6284
 20
137.8645
 30
0.0
 40
2.4
  1
DELETED WELDS AND ADDED HEX. HEADS FOR ANCHOR PLATE
  7
MONOTXT
210
0.0
220
0.0
230
1.0
100
AcDbText
  0
TEXT
  5
49
100
AcDbEntity
  8
1
  6
CONTINUOUS
 62
     7
100
AcDbText
 10
597.1561
 20
132.3125
 30
0.0
 40
2.4
  1
CHANGED ALL DIMENSIONS
  7
MONOTXT
210
0.0
220
0.0
230
1.0
100
AcDbText
  0
TEXT
  5
4A
100
AcDbEntity
  8
1
  6
CONTINUOUS
 62
     7
100
AcDbText
 10
595.7691
 20
48.9392
 30
0.0
 40
2.4
  1
1
  7
MONOTXT
210
0.0
220
0.0
230
1.0
100
AcDbText
  0
TEXT
  5
4B
100
AcDbEntity
  8
1
  6
CONTINUOUS
 62
     7
100
AcDbText
 10
595.5381
 20
43.0299
 30
0.0
 40
2.4
  1
2
  7
MONOTXT
210
0.0
220
0.0
230
1.0
100
AcDbText
  0
LINE
  5
4C
100
AcDbEntity
  8
1
  6
CONTINUOUS
 62
     3
100
AcDbLine
 10
84.8293
 20
459.8053
 30
0.0
 11
156.8293
 21
459.8053
 31
0.0
  0
LINE
  5
4D
100
AcDbEntity
  8
1
  6
CONTINUOUS
 62
     3
100
AcDbLine
 10
156.8293
 20
371.0053
 30
0.0
 11
84.8293
 21
371.0053
 31
0.0
  0
LINE
  5
4E
100
AcDbEntity
  8
1
  6
CONTINUOUS
 62
     3
100
AcDbLine
 10
84.8293
 20
453.8053
 30
0.0
 11
156.8293
 21
453.8053
 31
0.0
  0
LINE
  5
4F
100
AcDbEntity
  8
1
  6
CONTINUOUS
 62
     3
100
AcDbLine
 10
156.8293
 20
377.0053
 30
0.0
 11
84.8293
 21
377.0053
 31
0.0
  0
LINE
  5
50
100
AcDbEntity
  8
1
  6
HIDDEN
 62
     3
100
AcDbLine
 10
87.8293
 20
377.0053
 30
0.0
 11
87.8293
 21
453.8053
 31
0.0
  0
LINE
  5
51
100
AcDbEntity
  8
1
  6
HIDDEN
 62
     3
100
AcDbLine
 10
153.8293
 20
453.8053
 30
0.0
 11
153.8293
 21
377.0053
 31
0.0
  0
LINE
  5
52
100
AcDbEntity
  8
1
  6
CONTINUOUS
 62
     3
100
AcDbLine
 10
96.8293
 20
378.5053
 30
0.0
 11
96.8293
 21
449.0053
 31
0.0
  0
LINE
  5
53
100
AcDbEntity
  8
1
  6
CONTINUOUS
 62
     3
100
AcDbLine
 10
144.8293
 20
449.0053
 30
0.0
 11
144.8293
 21
378.5053
 31
0.0
  0
LINE
  5
54
100
AcDbEntity
  8
1
  6
CONTINUOUS
 62
     3
100
AcDbLine
 10
96.8293
 20
449.0053
 30
0.0
 11
144.8293
 21
449.0053
 31
0.0
  0
LINE
  5
55
100
AcDbEntity
  8
1
  6
CONTINUOUS
 62
     3
100
AcDbLine
 10
144.8293
 20
378.5053
 30
0.0
 11
96.8293
 21
378.5053
 31
0.0
  0
LINE
  5
56
100
AcDbEntity
  8
1
  6
CONTINUOUS
 62
     3
100
AcDbLine
 10
143.3293
 20
380.0053
 30
0.0
 11
98.3293
 21
380.0053
 31
0.0
  0
LINE
  5
57
100
AcDbEntity
  8
1
  6
CONTINUOUS
 62
     3
100
AcDbLine
 10
98.3293
 20
380.0053
 30
0.0
 11
98.3293
 21
447.5053
 31
0.0
  0
LINE
  5
58
100
AcDbEntity
  8
1
  6
CONTINUOUS
 62
     3
100
AcDbLine
 10
143.3293
 20
447.5053
 30
0.0
 11
143.3293
 21
380.0053
 31
0.0
  0
LINE
  5
59
100
AcDbEntity
  8
1
  6
CONTINUOUS
 62
     3
100
AcDbLine
 10
98.3293
 20
447.5053
 30
0.0
 11
143.3293
 21
447.5053
 31
0.0
  0
LINE
  5
5A
100
AcDbEntity
  8
1
  6
HIDDEN
 62
     3
100
AcDbLine
 10
102.8293
 20
386.0053
 30
0.0
 11
102.8293
 21
441.5053
 31
0.0
  0
LINE
  5
5B
100
AcDbEntity
  8
1
  6
HIDDEN
 62
     3
100
AcDbLine
 10
138.8293
 20
441.5053
 30
0.0
 11
138.8293
 21
386.0053
 31
0.0
  0
LINE
  5
5C
100
AcDbEntity
  8
1
  6
HIDDEN
 62
     3
100
AcDbLine
 10
138.8293
 20
386.0053
 30
0.0
 11
102.8293
 21
386.0053
 31
0.0
  0
LINE
  5
5D
100
AcDbEntity
  8
1
  6
HIDDEN
 62
     3
100
AcDbLine
 10
102.8293
 20
441.5053
 30
0.0
 11
138.8293
 21
441.5053
 31
0.0
  0
LINE
  5
5E
100
AcDbEntity
  8
1
  6
CONTINUOUS
 62
     3
100
AcDbLine
 10
84.8293
 20
453.8053
 30
0.0
 11
84.8293
 21
459.8053
 31
0.0
  0
POLYLINE
  5
5F
100
AcDbEntity
  8
1
  6
CONTINUOUS
 62
     3
100
AcDb2dPolyline
 66
     1
 10
0.0
 20
0.0
 30
0.0
 70
     1
  0
VERTEX
  5
60
100
AcDbEntity
  8
1
  6
CONTINUOUS
 62
     3
100
AcDbVertex
100
AcDb2dVertex
 10
84.8293
 20
453.8053
 30
0.0
  0
VERTEX
  5
61
100
AcDbEntity
  8
1
  6
CONTINUOUS
 62
     3
100
AcDbVertex
100
AcDb2dVertex
 10
87.8293
 20
453.8053
 30
0.0
  0
VERTEX
  5
62
100
AcDbEntity
  8
1
  6
CONTINUOUS
 62
     3
100
AcDbVertex
100
AcDb2dVertex
 10
84.8293
 20
450.8053
 30
0.0
  0
VERTEX
  5
63
100
AcDbEntity
  8
1
  6
CONTINUOUS
 62
     3
100
AcDbVertex
100
AcDb2dVertex
 10
84.8293
 20
453.8053
 30
0.0
  0
SEQEND
  5
64
100
AcDbEntity
  8
1
  6
CONTINUOUS
 62
     3
  0
LINE
  5
65
100
AcDbEntity
  8
1
  6
CONTINUOUS
 62
     3
100
AcDbLine
 10
156.8293
 20
459.8053
 30
0.0
 11
156.8293
 21
453.8053
 31
0.0
  0
POLYLINE
  5
66
100
AcDbEntity
  8
1
  6
CONTINUOUS
 62
     3
100
AcDb2dPolyline
 66
     1
 10
0.0
 20
0.0
 30
0.0
 70
     1
  0
VERTEX
  5
67
100
AcDbEntity
  8
1
  6
CONTINUOUS
 62
     3
100
AcDbVertex
100
AcDb2dVertex
 10
153.8293
 20
453.8053
 30
0.0
  0
VERTEX
  5
68
100
AcDbEntity
  8
1
  6
CONTINUOUS
 62
     3
100
AcDbVertex
100
AcDb2dVertex
 10
156.8293
 20
453.8053
 30
0.0
  0
VERTEX
  5
69
100
AcDbEntity
  8
1
  6
CONTINUOUS
 62
     3
100
AcDbVertex
100
AcDb2dVertex
 10
156.8293
 20
450.8053
 30
0.0
  0
VERTEX
  5
6A
100
AcDbEntity
  8
1
  6
CONTINUOUS
 62
     3
100
AcDbVertex
100
AcDb2dVertex
 10
153.8293
 20
453.8053
 30
0.0
  0
SEQEND
  5
6B
100
AcDbEntity
  8
1
  6
CONTINUOUS
 62
     3
  0
LINE
  5
6C
100
AcDbEntity
  8
1
  6
CONTINUOUS
 62
     3
100
AcDbLine
 10
84.8293
 20
371.0053
 30
0.0
 11
84.8293
 21
380.0053
 31
0.0
  0
POLYLINE
  5
6D
100
AcDbEntity
  8
1
  6
CONTINUOUS
 62
     3
100
AcDb2dPolyline
 66
     1
 10
0.0
 20
0.0
 30
0.0
 70
     1
  0
VERTEX
  5
6E
100
AcDbEntity
  8
1
  6
CONTINUOUS
 62
     3
100
AcDbVertex
100
AcDb2dVertex
 10
84.8293
 20
377.0053
 30
0.0
  0
VERTEX
  5
6F
100
AcDbEntity
  8
1
  6
CONTINUOUS
 62
     3
100
AcDbVertex
100
AcDb2dVertex
 10
84.8293
 20
380.0053
 30
0.0
  0
VERTEX
  5
70
100
AcDbEntity
  8
1
  6
CONTINUOUS
 62
     3
100
AcDbVertex
100
AcDb2dVertex
 10
87.8293
 20
377.0053
 30
0.0
  0
VERTEX
  5
71
100
AcDbEntity
  8
1
  6
CONTINUOUS
 62
     3
100
AcDbVertex
100
AcDb2dVertex
 10
84.8293
 20
377.0053
 30
0.0
  0
SEQEND
  5
72
100
AcDbEntity
  8
1
  6
CONTINUOUS
 62
     3
  0
LINE
  5
73
100
AcDbEntity
  8
1
  6
CONTINUOUS
 62
     3
100
AcDbLine
 10
156.8293
 20
453.8053
 30
0.0
 11
156.8293
 21
380.0053
 31
0.0
  0
LINE
  5
74
100
AcDbEntity
  8
1
  6
CONTINUOUS
 62
     3
100
AcDbLine
 10
156.8293
 20
380.0053
 30
0.0
 11
156.8293
 21
371.0053
 31
0.0
  0
POLYLINE
  5
75
100
AcDbEntity
  8
1
  6
CONTINUOUS
 62
     3
100
AcDb2dPolyline
 66
     1
 10
0.0
 20
0.0
 30
0.0
 70
     1
  0
VERTEX
  5
76
100
AcDbEntity
  8
1
  6
CONTINUOUS
 62
     3
100
AcDbVertex
100
AcDb2dVertex
 10
156.8293
 20
377.0053
 30
0.0
  0
VERTEX
  5
77
100
AcDbEntity
  8
1
  6
CONTINUOUS
 62
     3
100
AcDbVertex
100
AcDb2dVertex
 10
153.8293
 20
377.0053
 30
0.0
  0
VERTEX
  5
78
100
AcDbEntity
  8
1
  6
CONTINUOUS
 62
     3
100
AcDbVertex
100
AcDb2dVertex
 10
156.8293
 20
380.0053
 30
0.0
  0
VERTEX
  5
79
100
AcDbEntity
  8
1
  6
CONTINUOUS
 62
     3
100
AcDbVertex
100
AcDb2dVertex
 10
156.8293
 20
377.0053
 30
0.0
  0
SEQEND
  5
7A
100
AcDbEntity
  8
1
  6
CONTINUOUS
 62
     3
  0
LINE
  5
7B
100
AcDbEntity
  8
1
  6
CONTINUOUS
 62
     7
100
AcDbLine
 10
101.9293
 20
383.0053
 30
0.0
 11
100.7293
 21
383.0053
 31
0.0
  0
LINE
  5
7C
100
AcDbEntity
  8
1
  6
CONTINUOUS
 62
     7
100
AcDbLine
 10
140.3293
 20
445.1053
 30
0.0
 11
140.3293
 21
443.9053
 31
0.0
  0
CIRCLE
  5
7D
100
AcDbEntity
  8
1
  6
CONTINUOUS
 62
     3
100
AcDbCircle
 10
101.3293
 20
444.5053
 30
0.0
 40
1.5
210
0.0
220
0.0
230
1.0
  0
CIRCLE
  5
7E
100
AcDbEntity
  8
1
  6
CONTINUOUS
 62
     3
100
AcDbCircle
 10
140.3293
 20
444.5053
 30
0.0
 40
1.5
210
0.0
220
0.0
230
1.0
  0
CIRCLE
  5
7F
100
AcDbEntity
  8
1
  6
CONTINUOUS
 62
     3
100
AcDbCircle
 10
140.3293
 20
383.0053
 30
0.0
 40
1.5
210
0.0
220
0.0
230
1.0
  0
CIRCLE
  5
80
100
AcDbEntity
  8
1
  6
CONTINUOUS
 62
     3
100
AcDbCircle
 10
101.3293
 20
383.0053
 30
0.0
 40
1.5
210
0.0
220
0.0
230
1.0
  0
LINE
  5
81
100
AcDbEntity
  8
1
  6
CONTINUOUS
 62
     7
100
AcDbLine
 10
100.7293
 20
444.5053
 30
0.0
 11
101.9293
 21
444.5053
 31
0.0
  0
LINE
  5
82
100
AcDbEntity
  8
1
  6
CONTINUOUS
 62
     7
100
AcDbLine
 10
139.7293
 20
444.5053
 30
0.0
 11
140.9293
 21
444.5053
 31
0.0
  0
LINE
  5
83
100
AcDbEntity
  8
1
  6
CONTINUOUS
 62
     7
100
AcDbLine
 10
101.3293
 20
382.4053
 30
0.0
 11
101.3293
 21
383.6053
 31
0.0
  0
LINE
  5
84
100
AcDbEntity
  8
1
  6
CONTINUOUS
 62
     7
100
AcDbLine
 10
101.3293
 20
443.9053
 30
0.0
 11
101.3293
 21
445.1053
 31
0.0
  0
LINE
  5
85
100
AcDbEntity
  8
1
  6
CONTINUOUS
 62
     7
100
AcDbLine
 10
101.3293
 20
445.7053
 30
0.0
 11
101.3293
 21
446.9053
 31
0.0
  0
LINE
  5
86
100
AcDbEntity
  8
1
  6
CONTINUOUS
 62
     7
100
AcDbLine
 10
102.5293
 20
444.5053
 30
0.0
 11
103.7293
 21
444.5053
 31
0.0
  0
LINE
  5
87
100
AcDbEntity
  8
1
  6
CONTINUOUS
 62
     7
100
AcDbLine
 10
101.3293
 20
443.3053
 30
0.0
 11
101.3293
 21
442.1053
 31
0.0
  0
LINE
  5
88
100
AcDbEntity
  8
1
  6
CONTINUOUS
 62
     7
100
AcDbLine
 10
100.1293
 20
444.5053
 30
0.0
 11
98.9293
 21
444.5053
 31
0.0
  0
LINE
  5
89
100
AcDbEntity
  8
1
  6
CONTINUOUS
 62
     7
100
AcDbLine
 10
139.1293
 20
444.5053
 30
0.0
 11
137.9293
 21
444.5053
 31
0.0
  0
LINE
  5
8A
100
AcDbEntity
  8
1
  6
CONTINUOUS
 62
     7
100
AcDbLine
 10
140.3293
 20
445.7053
 30
0.0
 11
140.3293
 21
446.9053
 31
0.0
  0
LINE
  5
8B
100
AcDbEntity
  8
1
  6
CONTINUOUS
 62
     7
100
AcDbLine
 10
141.5293
 20
444.5053
 30
0.0
 11
142.7293
 21
444.5053
 31
0.0
  0
LINE
  5
8C
100
AcDbEntity
  8
1
  6
CONTINUOUS
 62
     7
100
AcDbLine
 10
140.3293
 20
443.3053
 30
0.0
 11
140.3293
 21
442.1053
 31
0.0
  0
LINE
  5
8D
100
AcDbEntity
  8
1
  6
CONTINUOUS
 62
     7
100
AcDbLine
 10
101.3293
 20
381.8053
 30
0.0
 11
101.3293
 21
380.6053
 31
0.0
  0
LINE
  5
8E
100
AcDbEntity
  8
1
  6
CONTINUOUS
 62
     7
100
AcDbLine
 10
100.1293
 20
383.0053
 30
0.0
 11
98.9293
 21
383.0053
 31
0.0
  0
LINE
  5
8F
100
AcDbEntity
  8
1
  6
CONTINUOUS
 62
     7
100
AcDbLine
 10
101.3293
 20
384.2053
 30
0.0
 11
101.3293
 21
385.4053
 31
0.0
  0
LINE
  5
90
100
AcDbEntity
  8
1
  6
CONTINUOUS
 62
     7
100
AcDbLine
 10
102.5293
 20
383.0053
 30
0.0
 11
103.7293
 21
383.0053
 31
0.0
  0
LINE
  5
91
100
AcDbEntity
  8
1
  6
CONTINUOUS
 62
     7
100
AcDbLine
 10
139.7293
 20
383.0053
 30
0.0
 11
140.9293
 21
383.0053
 31
0.0
  0
LINE
  5
92
100
AcDbEntity
  8
1
  6
CONTINUOUS
 62
     7
100
AcDbLine
 10
140.3293
 20
383.6053
 30
0.0
 11
140.3293
 21
382.4053
 31
0.0
  0
LINE
  5
93
100
AcDbEntity
  8
1
  6
CONTINUOUS
 62
     7
100
AcDbLine
 10
140.3293
 20
381.8053
 30
0.0
 11
140.3293
 21
380.6053
 31
0.0
  0
LINE
  5
94
100
AcDbEntity
  8
1
  6
CONTINUOUS
 62
     7
100
AcDbLine
 10
139.1293
 20
383.0053
 30
0.0
 11
137.9293
 21
383.0053
 31
0.0
  0
LINE
  5
95
100
AcDbEntity
  8
1
  6
CONTINUOUS
 62
     7
100
AcDbLine
 10
140.3293
 20
384.2053
 30
0.0
 11
140.3293
 21
385.4053
 31
0.0
  0
LINE
  5
96
100
AcDbEntity
  8
1
  6
CONTINUOUS
 62
     7
100
AcDbLine
 10
141.5293
 20
383.0053
 30
0.0
 11
142.7293
 21
383.0053
 31
0.0
  0
LINE
  5
97
100
AcDbEntity
  8
1
  6
CONTINUOUS
 62
     3
100
AcDbLine
 10
100.012
 20
443.788
 30
0.0
 11
102.0466
 21
445.8226
 31
0.0
  0
LINE
  5
98
100
AcDbEntity
  8
1
  6
CONTINUOUS
 62
     3
100
AcDbLine
 10
102.6466
 20
445.2226
 30
0.0
 11
100.612
 21
443.188
 31
0.0
  0
LINE
  5
99
100
AcDbEntity
  8
1
  6
CONTINUOUS
 62
     3
100
AcDbLine
 10
139.012
 20
443.788
 30
0.0
 11
141.0466
 21
445.8226
 31
0.0
  0
LINE
  5
9A
100
AcDbEntity
  8
1
  6
CONTINUOUS
 62
     3
100
AcDbLine
 10
141.6466
 20
445.2226
 30
0.0
 11
139.612
 21
443.188
 31
0.0
  0
LINE
  5
9B
100
AcDbEntity
  8
1
  6
CONTINUOUS
 62
     3
100
AcDbLine
 10
100.012
 20
382.288
 30
0.0
 11
102.0466
 21
384.3226
 31
0.0
  0
LINE
  5
9C
100
AcDbEntity
  8
1
  6
CONTINUOUS
 62
     3
100
AcDbLine
 10
102.6466
 20
383.7226
 30
0.0
 11
100.612
 21
381.688
 31
0.0
  0
LINE
  5
9D
100
AcDbEntity
  8
1
  6
CONTINUOUS
 62
     3
100
AcDbLine
 10
139.012
 20
382.288
 30
0.0
 11
141.0466
 21
384.3226
 31
0.0
  0
LINE
  5
9E
100
AcDbEntity
  8
1
  6
CONTINUOUS
 62
     3
100
AcDbLine
 10
139.612
 20
381.688
 30
0.0
 11
141.6466
 21
383.7226
 31
0.0
  0
LINE
  5
9F
100
AcDbEntity
  8
1
  6
CONTINUOUS
 62
     7
100
AcDbLine
 10
120.8293
 20
386.0053
 30
0.0
 11
120.8293
 21
441.5053
 31
0.0
  0
LINE
  5
A0
100
AcDbEntity
  8
1
  6
CONTINUOUS
 62
     3
100
AcDbLine
 10
75.2293
 20
422.0053
 30
0.0
 11
84.8047
 21
422.0053
 31
0.0
  0
LINE
  5
A1
100
AcDbEntity
  8
1
  6
CONTINUOUS
 62
     3
100
AcDbLine
 10
75.2293
 20
408.8053
 30
0.0
 11
84.8293
 21
408.8053
 31
0.0
  0
LINE
  5
A2
100
AcDbEntity
  8
1
  6
CONTINUOUS
 62
     3
100
AcDbLine
 10
76.4293
 20
420.8053
 30
0.0
 11
76.4293
 21
410.0053
 31
0.0
  0
LINE
  5
A3
100
AcDbEntity
  8
1
  6
CONTINUOUS
 62
     3
100
AcDbLine
 10
75.2293
 20
422.0053
 30
0.0
 11
75.2293
 21
408.8053
 31
0.0
  0
LINE
  5
A4
100
AcDbEntity
  8
1
  6
CONTINUOUS
 62
     3
100
AcDbLine
 10
77.6293
 20
422.0053
 30
0.0
 11
77.6293
 21
408.8053
 31
0.0
  0
LINE
  5
A5
100
AcDbEntity
  8
1
  6
CONTINUOUS
 62
     3
100
AcDbLine
 10
78.8293
 20
420.8053
 30
0.0
 11
78.8293
 21
410.0053
 31
0.0
  0
LINE
  5
A6
100
AcDbEntity
  8
1
  6
CONTINUOUS
 62
     3
100
AcDbLine
 10
80.0293
 20
422.0053
 30
0.0
 11
80.0293
 21
408.8053
 31
0.0
  0
LINE
  5
A7
100
AcDbEntity
  8
1
  6
CONTINUOUS
 62
     3
100
AcDbLine
 10
81.2293
 20
420.8053
 30
0.0
 11
81.2293
 21
410.0053
 31
0.0
  0
LINE
  5
A8
100
AcDbEntity
  8
1
  6
CONTINUOUS
 62
     3
100
AcDbLine
 10
82.4293
 20
422.0053
 30
0.0
 11
82.4293
 21
408.8053
 31
0.0
  0
LINE
  5
A9
100
AcDbEntity
  8
1
  6
CONTINUOUS
 62
     3
100
AcDbLine
 10
83.6293
 20
420.8053
 30
0.0
 11
83.6293
 21
410.0053
 31
0.0
  0
LINE
  5
AA
100
AcDbEntity
  8
1
  6
CONTINUOUS
 62
     3
100
AcDbLine
 10
74.0293
 20
421.1053
 30
0.0
 11
74.0293
 21
409.7053
 31
0.0
  0
LINE
  5
AB
100
AcDbEntity
  8
1
  6
CONTINUOUS
 62
     3
100
AcDbLine
 10
74.0293
 20
421.1053
 30
0.0
 11
75.2293
 21
422.0053
 31
0.0
  0
LINE
  5
AC
100
AcDbEntity
  8
1
  6
CONTINUOUS
 62
     3
100
AcDbLine
 10
74.0293
 20
409.7053
 30
0.0
 11
75.2293
 21
408.8053
 31
0.0
  0
LINE
  5
AD
100
AcDbEntity
  8
1
  6
CONTINUOUS
 62
     3
100
AcDbLine
 10
167.6293
 20
421.1053
 30
0.0
 11
167.6293
 21
409.7053
 31
0.0
  0
LINE
  5
AE
100
AcDbEntity
  8
1
  6
CONTINUOUS
 62
     3
100
AcDbLine
 10
166.4293
 20
422.0053
 30
0.0
 11
156.8293
 21
422.0053
 31
0.0
  0
LINE
  5
AF
100
AcDbEntity
  8
1
  6
CONTINUOUS
 62
     3
100
AcDbLine
 10
166.4293
 20
408.8053
 30
0.0
 11
156.8293
 21
408.8053
 31
0.0
  0
LINE
  5
B0
100
AcDbEntity
  8
1
  6
CONTINUOUS
 62
     3
100
AcDbLine
 10
165.2293
 20
420.8053
 30
0.0
 11
165.2293
 21
410.0053
 31
0.0
  0
LINE
  5
B1
100
AcDbEntity
  8
1
  6
CONTINUOUS
 62
     3
100
AcDbLine
 10
166.4293
 20
422.0053
 30
0.0
 11
166.4293
 21
408.8053
 31
0.0
  0
LINE
  5
B2
100
AcDbEntity
  8
1
  6
CONTINUOUS
 62
     3
100
AcDbLine
 10
164.0293
 20
422.0053
 30
0.0
 11
164.0293
 21
408.8053
 31
0.0
  0
LINE
  5
B3
100
AcDbEntity
  8
1
  6
CONTINUOUS
 62
     3
100
AcDbLine
 10
162.8293
 20
420.8053
 30
0.0
 11
162.8293
 21
410.0053
 31
0.0
  0
LINE
  5
B4
100
AcDbEntity
  8
1
  6
CONTINUOUS
 62
     3
100
AcDbLine
 10
161.6293
 20
422.0053
 30
0.0
 11
161.6293
 21
408.8053
 31
0.0
  0
LINE
  5
B5
100
AcDbEntity
  8
1
  6
CONTINUOUS
 62
     3
100
AcDbLine
 10
160.4293
 20
420.8053
 30
0.0
 11
160.4293
 21
410.0053
 31
0.0
  0
LINE
  5
B6
100
AcDbEntity
  8
1
  6
CONTINUOUS
 62
     3
100
AcDbLine
 10
159.2293
 20
422.0053
 30
0.0
 11
159.2293
 21
408.8053
 31
0.0
  0
LINE
  5
B7
100
AcDbEntity
  8
1
  6
CONTINUOUS
 62
     3
100
AcDbLine
 10
158.0293
 20
420.8053
 30
0.0
 11
158.0293
 21
410.0053
 31
0.0
  0
LINE
  5
B8
100
AcDbEntity
  8
1
  6
CONTINUOUS
 62
     3
100
AcDbLine
 10
167.6293
 20
421.1053
 30
0.0
 11
166.4293
 21
422.0053
 31
0.0
  0
LINE
  5
B9
100
AcDbEntity
  8
1
  6
CONTINUOUS
 62
     3
100
AcDbLine
 10
167.6293
 20
409.7053
 30
0.0
 11
166.4293
 21
408.8053
 31
0.0
  0
LINE
  5
BA
100
AcDbEntity
  8
1
  6
HIDDEN
 62
     3
100
AcDbLine
 10
84.8293
 20
422.0053
 30
0.0
 11
91.4293
 21
422.0053
 31
0.0
  0
LINE
  5
BB
100
AcDbEntity
  8
1
  6
HIDDEN
 62
     3
100
AcDbLine
 10
84.8293
 20
408.8053
 30
0.0
 11
91.4293
 21
408.8053
 31
0.0
  0
LINE
  5
BC
100
AcDbEntity
  8
1
  6
HIDDEN
 62
     3
100
AcDbLine
 10
92.6293
 20
421.1053
 30
0.0
 11
92.6293
 21
409.7053
 31
0.0
  0
LINE
  5
BD
100
AcDbEntity
  8
1
  6
HIDDEN
 62
     3
100
AcDbLine
 10
92.6293
 20
421.1053
 30
0.0
 11
91.4293
 21
422.0053
 31
0.0
  0
LINE
  5
BE
100
AcDbEntity
  8
1
  6
HIDDEN
 62
     3
100
AcDbLine
 10
92.6293
 20
409.7053
 30
0.0
 11
91.4293
 21
408.8053
 31
0.0
  0
LINE
  5
BF
100
AcDbEntity
  8
1
  6
HIDDEN
 62
     3
100
AcDbLine
 10
149.0293
 20
421.1053
 30
0.0
 11
149.0293
 21
409.7053
 31
0.0
  0
LINE
  5
C0
100
AcDbEntity
  8
1
  6
HIDDEN
 62
     3
100
AcDbLine
 10
156.8293
 20
422.0053
 30
0.0
 11
150.2293
 21
422.0053
 31
0.0
  0
LINE
  5
C1
100
AcDbEntity
  8
1
  6
HIDDEN
 62
     3
100
AcDbLine
 10
156.8293
 20
408.8053
 30
0.0
 11
150.2293
 21
408.8053
 31
0.0
  0
LINE
  5
C2
100
AcDbEntity
  8
1
  6
HIDDEN
 62
     3
100
AcDbLine
 10
149.0293
 20
421.1053
 30
0.0
 11
150.2293
 21
422.0053
 31
0.0
  0
LINE
  5
C3
100
AcDbEntity
  8
1
  6
HIDDEN
 62
     3
100
AcDbLine
 10
149.0293
 20
409.7053
 30
0.0
 11
150.2293
 21
408.8053
 31
0.0
  0
INSERT
  5
C9
100
AcDbEntity
  8
1
  6
CONTINUOUS
 62
     1
100
AcDbBlockReference
  2
LDR
 10
120.8293
 20
441.5053
 30
0.0
 41
240.0
 42
240.0
 50
90.0
210
0.0
220
0.0
230
1.0
  0
INSERT
  5
CA
100
AcDbEntity
  8
1
  6
CONTINUOUS
 62
     1
100
AcDbBlockReference
  2
LDR
 10
120.8293
 20
441.5053
 30
0.0
 41
240.0
 42
240.0
 50
90.0
210
0.0
220
0.0
230
1.0
  0
INSERT
  5
CB
100
AcDbEntity
  8
1
  6
CONTINUOUS
 62
     1
100
AcDbBlockReference
  2
LDR
 10
120.8293
 20
386.0053
 30
0.0
 41
240.0
 42
240.0
 50
270.0
210
0.0
220
0.0
230
1.0
  0
LINE
  5
CC
100
AcDbEntity
  8
1
  6
CONTINUOUS
 62
     3
100
AcDbLine
 10
84.8293
 20
380.0053
 30
0.0
 11
84.8293
 21
422.0053
 31
0.0
  0
LINE
  5
CD
100
AcDbEntity
  8
1
  6
CONTINUOUS
 62
     3
100
AcDbLine
 10
84.8293
 20
422.0108
 30
0.0
 11
84.8293
 21
453.8053
 31
0.0
  0
POLYLINE
  5
CE
100
AcDbEntity
  8
1
  6
CONTINUOUS
 62
     3
100
AcDb2dPolyline
 66
     1
 10
0.0
 20
0.0
 30
0.0
  0
VERTEX
  5
CF
100
AcDbEntity
  8
1
  6
CONTINUOUS
 62
     3
100
AcDbVertex
100
AcDb2dVertex
 10
82.4293
 20
422.0053
 30
0.0
 42
0.168643
  0
VERTEX
  5
D0
100
AcDbEntity
  8
1
  6
CONTINUOUS
 62
     3
100
AcDbVertex
100
AcDb2dVertex
 10
84.8293
 20
424.4053
 30
0.0
  0
VERTEX
  5
D1
100
AcDbEntity
  8
1
  6
CONTINUOUS
 62
     3
100
AcDbVertex
100
AcDb2dVertex
 10
84.8293
 20
422.0053
 30
0.0
  0
VERTEX
  5
D2
100
AcDbEntity
  8
1
  6
CONTINUOUS
 62
     3
100
AcDbVertex
100
AcDb2dVertex
 10
82.4293
 20
422.0053
 30
0.0
  0
SEQEND
  5
D3
100
AcDbEntity
  8
1
  6
CONTINUOUS
 62
     3
  0
POLYLINE
  5
D4
100
AcDbEntity
  8
1
  6
CONTINUOUS
 62
     3
100
AcDb2dPolyline
 66
     1
 10
0.0
 20
0.0
 30
0.0
  0
VERTEX
  5
D5
100
AcDbEntity
  8
1
  6
CONTINUOUS
 62
     3
100
AcDbVertex
100
AcDb2dVertex
 10
82.4293
 20
408.8053
 30
0.0
 42
-0.168643
  0
VERTEX
  5
D6
100
AcDbEntity
  8
1
  6
CONTINUOUS
 62
     3
100
AcDbVertex
100
AcDb2dVertex
 10
84.8293
 20
406.4053
 30
0.0
  0
VERTEX
  5
D7
100
AcDbEntity
  8
1
  6
CONTINUOUS
 62
     3
100
AcDbVertex
100
AcDb2dVertex
 10
84.8293
 20
408.8053
 30
0.0
  0
VERTEX
  5
D8
100
AcDbEntity
  8
1
  6
CONTINUOUS
 62
     3
100
AcDbVertex
100
AcDb2dVertex
 10
82.4293
 20
408.8053
 30
0.0
  0
SEQEND
  5
D9
100
AcDbEntity
  8
1
  6
CONTINUOUS
 62
     3
  0
POLYLINE
  5
DA
100
AcDbEntity
  8
1
  6
CONTINUOUS
 62
     3
100
AcDb2dPolyline
 66
     1
 10
0.0
 20
0.0
 30
0.0
  0
VERTEX
  5
DB
100
AcDbEntity
  8
1
  6
CONTINUOUS
 62
     3
100
AcDbVertex
100
AcDb2dVertex
 10
159.2293
 20
422.0053
 30
0.0
 42
-0.168643
  0
VERTEX
  5
DC
100
AcDbEntity
  8
1
  6
CONTINUOUS
 62
     3
100
AcDbVertex
100
AcDb2dVertex
 10
156.8293
 20
424.4053
 30
0.0
  0
VERTEX
  5
DD
100
AcDbEntity
  8
1
  6
CONTINUOUS
 62
     3
100
AcDbVertex
100
AcDb2dVertex
 10
156.8293
 20
422.0053
 30
0.0
  0
VERTEX
  5
DE
100
AcDbEntity
  8
1
  6
CONTINUOUS
 62
     3
100
AcDbVertex
100
AcDb2dVertex
 10
159.2293
 20
422.0053
 30
0.0
  0
SEQEND
  5
DF
100
AcDbEntity
  8
1
  6
CONTINUOUS
 62
     3
  0
POLYLINE
  5
E0
100
AcDbEntity
  8
1
  6
CONTINUOUS
 62
     3
100
AcDb2dPolyline
 66
     1
 10
0.0
 20
0.0
 30
0.0
  0
VERTEX
  5
E1
100
AcDbEntity
  8
1
  6
CONTINUOUS
 62
     3
100
AcDbVertex
100
AcDb2dVertex
 10
159.2293
 20
408.8053
 30
0.0
 42
0.168643
  0
VERTEX
  5
E2
100
AcDbEntity
  8
1
  6
CONTINUOUS
 62
     3
100
AcDbVertex
100
AcDb2dVertex
 10
156.8293
 20
406.4053
 30
0.0
  0
VERTEX
  5
E3
100
AcDbEntity
  8
1
  6
CONTINUOUS
 62
     3
100
AcDbVertex
100
AcDb2dVertex
 10
156.8293
 20
408.8053
 30
0.0
  0
VERTEX
  5
E4
100
AcDbEntity
  8
1
  6
CONTINUOUS
 62
     3
100
AcDbVertex
100
AcDb2dVertex
 10
159.2293
 20
408.8053
 30
0.0
  0
SEQEND
  5
E5
100
AcDbEntity
  8
1
  6
CONTINUOUS
 62
     3
  0
LINE
  5
E6
100
AcDbEntity
  8
1
  6
CONTINUOUS
 62
     7
100
AcDbLine
 10
96.8293
 20
461.0053
 30
0.0
 11
96.8293
 21
480.2053
 31
0.0
  0
LINE
  5
E7
100
AcDbEntity
  8
1
  6
CONTINUOUS
 62
     7
100
AcDbLine
 10
98.3293
 20
461.0053
 30
0.0
 11
98.3293
 21
480.2053
 31
0.0
  0
LINE
  5
E8
100
AcDbEntity
  8
1
  6
CONTINUOUS
 62
     7
100
AcDbLine
 10
144.8293
 20
461.0053
 30
0.0
 11
144.8293
 21
480.2053
 31
0.0
  0
LINE
  5
E9
100
AcDbEntity
  8
1
  6
CONTINUOUS
 62
     7
100
AcDbLine
 10
143.3293
 20
461.0053
 30
0.0
 11
143.3293
 21
480.2053
 31
0.0
  0
LINE
  5
EA
100
AcDbEntity
  8
1
  6
CONTINUOUS
 62
     7
100
AcDbLine
 10
101.3293
 20
461.0053
 30
0.0
 11
101.3293
 21
470.0053
 31
0.0
  0
LINE
  5
EB
100
AcDbEntity
  8
1
  6
CONTINUOUS
 62
     7
100
AcDbLine
 10
140.3293
 20
461.0053
 30
0.0
 11
140.3293
 21
470.0053
 31
0.0
  0
LINE
  5
EC
100
AcDbEntity
  8
1
  6
CONTINUOUS
 62
     7
100
AcDbLine
 10
101.3293
 20
468.8053
 30
0.0
 11
140.3293
 21
468.8053
 31
0.0
  0
LINE
  5
ED
100
AcDbEntity
  8
1
  6
CONTINUOUS
 62
     7
100
AcDbLine
 10
98.3293
 20
479.0053
 30
0.0
 11
143.3293
 21
479.0053
 31
0.0
  0
LINE
  5
EE
100
AcDbEntity
  8
1
  6
CONTINUOUS
 62
     7
100
AcDbLine
 10
101.3293
 20
471.2053
 30
0.0
 11
101.3293
 21
473.6053
 31
0.0
  0
LINE
  5
EF
100
AcDbEntity
  8
1
  6
CONTINUOUS
 62
     7
100
AcDbLine
 10
101.3293
 20
474.8053
 30
0.0
 11
101.3293
 21
498.8053
 31
0.0
  0
LINE
  5
F0
100
AcDbEntity
  8
1
  6
CONTINUOUS
 62
     7
100
AcDbLine
 10
96.8293
 20
479.0053
 30
0.0
 11
90.8293
 21
479.0053
 31
0.0
  0
LINE
  5
F1
100
AcDbEntity
  8
1
  6
CONTINUOUS
 62
     7
100
AcDbLine
 10
144.8293
 20
479.0053
 30
0.0
 11
150.8293
 21
479.0053
 31
0.0
  0
INSERT
  5
F2
100
AcDbEntity
  8
1
  6
CONTINUOUS
 62
     1
100
AcDbBlockReference
  2
LDR
 10
96.8293
 20
479.0053
 30
0.0
 41
240.0
 42
240.0
210
0.0
220
0.0
230
1.0
  0
INSERT
  5
F3
100
AcDbEntity
  8
1
  6
CONTINUOUS
 62
     1
100
AcDbBlockReference
  2
LDR
 10
98.3293
 20
479.0053
 30
0.0
 41
240.0
 42
240.0
 50
180.0
210
0.0
220
0.0
230
1.0
  0
INSERT
  5
F4
100
AcDbEntity
  8
1
  6
CONTINUOUS
 62
     1
100
AcDbBlockReference
  2
LDR
 10
98.3293
 20
479.0053
 30
0.0
 41
240.0
 42
240.0
 50
180.0
210
0.0
220
0.0
230
1.0
  0
INSERT
  5
F5
100
AcDbEntity
  8
1
  6
CONTINUOUS
 62
     1
100
AcDbBlockReference
  2
LDR
 10
143.3293
 20
479.0053
 30
0.0
 41
240.0
 42
240.0
210
0.0
220
0.0
230
1.0
  0
INSERT
  5
F6
100
AcDbEntity
  8
1
  6
CONTINUOUS
 62
     1
100
AcDbBlockReference
  2
LDR
 10
144.8293
 20
479.0053
 30
0.0
 41
240.0
 42
240.0
 50
180.0
210
0.0
220
0.0
230
1.0
  0
INSERT
  5
F7
100
AcDbEntity
  8
1
  6
CONTINUOUS
 62
     1
100
AcDbBlockReference
  2
LDR
 10
101.3293
 20
468.8053
 30
0.0
 41
240.0
 42
240.0
 50
180.0
210
0.0
220
0.0
230
1.0
  0
INSERT
  5
F8
100
AcDbEntity
  8
1
  6
CONTINUOUS
 62
     1
100
AcDbBlockReference
  2
LDR
 10
140.3293
 20
468.8053
 30
0.0
 41
240.0
 42
240.0
210
0.0
220
0.0
230
1.0
  0
INSERT
  5
F9
100
AcDbEntity
  8
1
  6
CONTINUOUS
 62
     1
100
AcDbBlockReference
  2
LDR
 10
140.3293
 20
468.8053
 30
0.0
 41
240.0
 42
240.0
210
0.0
220
0.0
230
1.0
  0
LINE
  5
FA
100
AcDbEntity
  8
1
  6
CONTINUOUS
 62
     7
100
AcDbLine
 10
84.8293
 20
453.8053
 30
0.0
 11
58.4293
 21
453.8053
 31
0.0
  0
LINE
  5
FB
100
AcDbEntity
  8
1
  6
CONTINUOUS
 62
     7
100
AcDbLine
 10
98.9293
 20
444.5053
 30
0.0
 11
70.4293
 21
444.5053
 31
0.0
  0
LINE
  5
FC
100
AcDbEntity
  8
1
  6
CONTINUOUS
 62
     7
100
AcDbLine
 10
98.9293
 20
383.0053
 30
0.0
 11
70.4293
 21
383.0053
 31
0.0
  0
LINE
  5
FD
100
AcDbEntity
  8
1
  6
CONTINUOUS
 62
     7
100
AcDbLine
 10
98.3293
 20
380.0053
 30
0.0
 11
54.8293
 21
380.0053
 31
0.0
  0
LINE
  5
FE
100
AcDbEntity
  8
1
  6
CONTINUOUS
 62
     7
100
AcDbLine
 10
96.8293
 20
378.5053
 30
0.0
 11
54.8293
 21
378.5053
 31
0.0
  0
LINE
  5
FF
100
AcDbEntity
  8
1
  6
CONTINUOUS
 62
     7
100
AcDbLine
 10
56.0293
 20
455.0053
 30
0.0
 11
56.0293
 21
449.0053
 31
0.0
  0
LINE
  5
100
100
AcDbEntity
  8
1
  6
CONTINUOUS
 62
     7
100
AcDbLine
 10
56.0293
 20
447.5053
 30
0.0
 11
56.0293
 21
441.5053
 31
0.0
  0
LINE
  5
101
100
AcDbEntity
  8
1
  6
CONTINUOUS
 62
     7
100
AcDbLine
 10
56.0293
 20
386.0053
 30
0.0
 11
56.0293
 21
380.0053
 31
0.0
  0
LINE
  5
102
100
AcDbEntity
  8
1
  6
CONTINUOUS
 62
     7
100
AcDbLine
 10
56.0293
 20
378.5053
 30
0.0
 11
56.0293
 21
372.5053
 31
0.0
  0
LINE
  5
103
100
AcDbEntity
  8
1
  6
CONTINUOUS
 62
     7
100
AcDbLine
 10
59.6293
 20
453.8053
 30
0.0
 11
59.6293
 21
449.0053
 31
0.0
  0
LINE
  5
104
100
AcDbEntity
  8
1
  6
CONTINUOUS
 62
     7
100
AcDbLine
 10
59.6293
 20
447.5053
 30
0.0
 11
59.6293
 21
380.0053
 31
0.0
  0
LINE
  5
105
100
AcDbEntity
  8
1
  6
CONTINUOUS
 62
     7
100
AcDbLine
 10
71.6293
 20
457.1802
 30
0.0
 11
71.6293
 21
444.5053
 31
0.0
  0
LINE
  5
106
100
AcDbEntity
  8
1
  6
CONTINUOUS
 62
     7
100
AcDbLine
 10
71.6293
 20
444.5053
 30
0.0
 11
71.6293
 21
383.0053
 31
0.0
  0
LINE
  5
107
100
AcDbEntity
  8
1
  6
CONTINUOUS
 62
     7
100
AcDbLine
 10
96.8293
 20
449.0053
 30
0.0
 11
73.203
 21
449.0053
 31
0.0
  0
LINE
  5
108
100
AcDbEntity
  8
1
  6
CONTINUOUS
 62
     7
100
AcDbLine
 10
65.1015
 20
449.0053
 30
0.0
 11
54.8293
 21
449.0053
 31
0.0
  0
LINE
  5
109
100
AcDbEntity
  8
1
  6
CONTINUOUS
 62
     7
100
AcDbLine
 10
98.3293
 20
447.5053
 30
0.0
 11
73.203
 21
447.5053
 31
0.0
  0
LINE
  5
10A
100
AcDbEntity
  8
1
  6
CONTINUOUS
 62
     7
100
AcDbLine
 10
65.1015
 20
447.5053
 30
0.0
 11
54.8293
 21
447.5053
 31
0.0
  0
INSERT
  5
10B
100
AcDbEntity
  8
1
  6
CONTINUOUS
 62
     1
100
AcDbBlockReference
  2
LDR
 10
56.0293
 20
449.0053
 30
0.0
 41
240.0
 42
240.0
 50
270.0
210
0.0
220
0.0
230
1.0
  0
INSERT
  5
10C
100
AcDbEntity
  8
1
  6
CONTINUOUS
 62
     1
100
AcDbBlockReference
  2
LDR
 10
56.0293
 20
447.5053
 30
0.0
 41
240.0
 42
240.0
 50
90.0
210
0.0
220
0.0
230
1.0
  0
INSERT
  5
10D
100
AcDbEntity
  8
1
  6
CONTINUOUS
 62
     1
100
AcDbBlockReference
  2
LDR
 10
56.0293
 20
380.0053
 30
0.0
 41
240.0
 42
240.0
 50
270.0
210
0.0
220
0.0
230
1.0
  0
INSERT
  5
10E
100
AcDbEntity
  8
1
  6
CONTINUOUS
 62
     1
100
AcDbBlockReference
  2
LDR
 10
56.0293
 20
378.5053
 30
0.0
 41
240.0
 42
240.0
 50
90.0
210
0.0
220
0.0
230
1.0
  0
INSERT
  5
10F
100
AcDbEntity
  8
1
  6
CONTINUOUS
 62
     1
100
AcDbBlockReference
  2
LDR
 10
59.6293
 20
447.5053
 30
0.0
 41
240.0
 42
240.0
 50
90.0
210
0.0
220
0.0
230
1.0
  0
INSERT
  5
110
100
AcDbEntity
  8
1
  6
CONTINUOUS
 62
     1
100
AcDbBlockReference
  2
LDR
 10
59.6293
 20
380.0053
 30
0.0
 41
240.0
 42
240.0
 50
270.0
210
0.0
220
0.0
230
1.0
  0
INSERT
  5
111
100
AcDbEntity
  8
1
  6
CONTINUOUS
 62
     1
100
AcDbBlockReference
  2
LDR
 10
71.6293
 20
453.8053
 30
0.0
 41
240.0
 42
240.0
 50
90.0
210
0.0
220
0.0
230
1.0
  0
INSERT
  5
112
100
AcDbEntity
  8
1
  6
CONTINUOUS
 62
     1
100
AcDbBlockReference
  2
LDR
 10
71.6293
 20
444.5053
 30
0.0
 41
240.0
 42
240.0
 50
270.0
210
0.0
220
0.0
230
1.0
  0
INSERT
  5
113
100
AcDbEntity
  8
1
  6
CONTINUOUS
 62
     1
100
AcDbBlockReference
  2
LDR
 10
71.6293
 20
444.5053
 30
0.0
 41
240.0
 42
240.0
 50
90.0
210
0.0
220
0.0
230
1.0
  0
INSERT
  5
114
100
AcDbEntity
  8
1
  6
CONTINUOUS
 62
     1
100
AcDbBlockReference
  2
LDR
 10
71.6293
 20
383.0053
 30
0.0
 41
240.0
 42
240.0
 50
270.0
210
0.0
220
0.0
230
1.0
  0
ELLIPSE
  5
115
100
AcDbEntity
  8
1
  6
CONTINUOUS
 62
     1
100
AcDbEllipse
 10
59.69932
 20
448.7187
 30
0.0
 11
-0.2107800491595953
 21
-2.1077401453526035
 31
0.0
210
0.0
220
0.0
230
1.0
 40
0.07063
 41
3.1407147529760406
 42
4.1144708854661776
  0
ELLIPSE
  5
116
100
AcDbEntity
  8
1
  6
CONTINUOUS
 62
     1
100
AcDbEllipse
 10
59.46404
 20
448.68354
 30
0.0
 11
0.1873800031127879
 21
-2.142840110963327
 31
0.0
210
0.0
220
0.0
230
1.0
 40
0.122415
 41
2.1736985002806879
 42
3.1415926535897931
  0
ELLIPSE
  5
117
100
AcDbEntity
  8
1
  6
CONTINUOUS
 62
     1
100
AcDbEllipse
 10
59.31254
 20
449.88354
 30
0.0
 11
0.1873800031127879
 21
-2.142840110963327
 31
0.0
210
0.0
220
0.0
230
1.0
 40
0.122415
 41
1.1378214455007338
 42
1.5759401029887325
  0
ELLIPSE
  5
118
100
AcDbEntity
  8
1
  6
CONTINUOUS
 62
     1
100
AcDbEllipse
 10
59.95626
 20
449.88354
 30
0.0
 11
-0.1873800031127868
 21
-2.142840110963327
 31
0.0
210
0.0
220
0.0
230
1.0
 40
0.122415
 41
4.7072452041908539
 42
5.1459978525296393
  0
ELLIPSE
  5
119
100
AcDbEntity
  8
1
  6
CONTINUOUS
 62
     1
100
AcDbEllipse
 10
59.55928
 20
454.0919
 30
0.0
 11
0.2107800491595956
 21
2.1077401453526035
 31
0.0
210
0.0
220
0.0
230
1.0
 40
0.07063
 41
3.1407147529760406
 42
4.1144708854661776
  0
ELLIPSE
  5
11A
100
AcDbEntity
  8
1
  6
CONTINUOUS
 62
     1
100
AcDbEllipse
 10
59.79456
 20
454.12706
 30
0.0
 11
-0.1873800031127872
 21
2.142840110963327
 31
0.0
210
0.0
220
0.0
230
1.0
 40
0.122415
 41
2.1736985002806879
 42
3.1415926535897931
  0
ELLIPSE
  5
11B
100
AcDbEntity
  8
1
  6
CONTINUOUS
 62
     1
100
AcDbEllipse
 10
59.94606
 20
452.92706
 30
0.0
 11
-0.1873800031127872
 21
2.142840110963327
 31
0.0
210
0.0
220
0.0
230
1.0
 40
0.122415
 41
1.1378214455007338
 42
1.5759401029887325
  0
ELLIPSE
  5
11C
100
AcDbEntity
  8
1
  6
CONTINUOUS
 62
     1
100
AcDbEllipse
 10
59.30234
 20
452.92706
 30
0.0
 11
0.1873800031127871
 21
2.142840110963327
 31
0.0
210
0.0
220
0.0
230
1.0
 40
0.122415
 41
4.7072452041908539
 42
5.1459978525296393
  0
LINE
  5
11D
100
AcDbEntity
  8
1
  6
CONTINUOUS
 62
     7
100
AcDbLine
 10
158.0293
 20
453.8053
 30
0.0
 11
182.0293
 21
453.8053
 31
0.0
  0
LINE
  5
11E
100
AcDbEntity
  8
1
  6
CONTINUOUS
 62
     7
100
AcDbLine
 10
158.0293
 20
377.0053
 30
0.0
 11
182.0293
 21
377.0053
 31
0.0
  0
LINE
  5
11F
100
AcDbEntity
  8
1
  6
CONTINUOUS
 62
     7
100
AcDbLine
 10
180.8293
 20
453.8053
 30
0.0
 11
180.8293
 21
377.0053
 31
0.0
  0
INSERT
  5
120
100
AcDbEntity
  8
1
  6
CONTINUOUS
 62
     1
100
AcDbBlockReference
  2
LDR
 10
180.8293
 20
453.8053
 30
0.0
 41
240.0
 42
240.0
 50
90.0
210
0.0
220
0.0
230
1.0
  0
INSERT
  5
121
100
AcDbEntity
  8
1
  6
CONTINUOUS
 62
     1
100
AcDbBlockReference
  2
LDR
 10
180.8293
 20
453.8053
 30
0.0
 41
240.0
 42
240.0
 50
90.0
210
0.0
220
0.0
230
1.0
  0
INSERT
  5
122
100
AcDbEntity
  8
1
  6
CONTINUOUS
 62
     1
100
AcDbBlockReference
  2
LDR
 10
180.8293
 20
377.0053
 30
0.0
 41
240.0
 42
240.0
 50
270.0
210
0.0
220
0.0
230
1.0
  0
INSERT
  5
123
100
AcDbEntity
  8
1
  6
CONTINUOUS
 62
     1
100
AcDbBlockReference
  2
LDR
 10
180.8293
 20
377.0053
 30
0.0
 41
240.0
 42
240.0
 50
270.0
210
0.0
220
0.0
230
1.0
  0
LINE
  5
124
100
AcDbEntity
  8
1
  6
CONTINUOUS
 62
     7
100
AcDbLine
 10
84.8293
 20
369.8053
 30
0.0
 11
84.8293
 21
359.0053
 31
0.0
  0
LINE
  5
125
100
AcDbEntity
  8
1
  6
CONTINUOUS
 62
     7
100
AcDbLine
 10
156.8293
 20
369.8053
 30
0.0
 11
156.8293
 21
359.0053
 31
0.0
  0
LINE
  5
126
100
AcDbEntity
  8
1
  6
CONTINUOUS
 62
     7
100
AcDbLine
 10
84.8293
 20
360.2053
 30
0.0
 11
156.8293
 21
360.2053
 31
0.0
  0
INSERT
  5
127
100
AcDbEntity
  8
1
  6
CONTINUOUS
 62
     1
100
AcDbBlockReference
  2
LDR
 10
84.8293
 20
360.2053
 30
0.0
 41
240.0
 42
240.0
 50
180.0
210
0.0
220
0.0
230
1.0
  0
INSERT
  5
128
100
AcDbEntity
  8
1
  6
CONTINUOUS
 62
     1
100
AcDbBlockReference
  2
LDR
 10
84.8293
 20
360.2053
 30
0.0
 41
240.0
 42
240.0
 50
180.0
210
0.0
220
0.0
230
1.0
  0
INSERT
  5
129
100
AcDbEntity
  8
1
  6
CONTINUOUS
 62
     1
100
AcDbBlockReference
  2
LDR
 10
156.8293
 20
360.2053
 30
0.0
 41
240.0
 42
240.0
210
0.0
220
0.0
230
1.0
  0
LINE
  5
12A
100
AcDbEntity
  8
1
  6
CONTINUOUS
 62
     7
100
AcDbLine
 10
59.6946
 20
451.3601
 30
0.0
 11
63.878
 21
451.3601
 31
0.0
  0
LINE
  5
12B
100
AcDbEntity
  8
1
  6
CONTINUOUS
 62
     7
100
AcDbLine
 10
63.878
 20
451.3601
 30
0.0
 11
63.878
 21
460.7755
 31
0.0
  0
INSERT
  5
12C
100
AcDbEntity
  8
1
  6
CONTINUOUS
 62
     1
100
AcDbBlockReference
  2
LDR
 10
59.6946
 20
451.3601
 30
0.0
 41
240.0
 42
240.0
 50
180.0
210
0.0
220
0.0
230
1.0
  0
TEXT
  5
12D
100
AcDbEntity
  8
1
  6
CONTINUOUS
 62
     7
100
AcDbText
 10
78.362
 20
340.463
 30
0.0
 40
4.8
  1
TYPE "F" FRONT VIEW
  7
MONOTXT
 72
     4
 11
120.5604
 21
342.863
 31
0.0
210
0.0
220
0.0
230
1.0
100
AcDbText
  0
LINE
  5
12E
100
AcDbEntity
  8
1
  6
CONTINUOUS
 62
     7
100
AcDbLine
 10
76.2817
 20
338.1434
 30
0.0
 11
164.8431
 21
338.1434
 31
0.0
  0
LINE
  5
12F
100
AcDbEntity
  8
1
  6
CONTINUOUS
 62
     1
100
AcDbLine
 10
248.8046
 20
371.0053
 30
0.0
 11
331.0046
 21
371.0053
 31
0.0
  0
LINE
  5
130
100
AcDbEntity
  8
1
  6
CONTINUOUS
 62
     1
100
AcDbLine
 10
248.8046
 20
459.8053
 30
0.0
 11
321.4046
 21
459.8053
 31
0.0
  0
LINE
  5
131
100
AcDbEntity
  8
1
  6
HIDDEN
 62
     1
100
AcDbLine
 10
322.586
 20
433.5234
 30
0.0
 11
327.6836
 21
386.3722
 31
0.0
  0
LINE
  5
132
100
AcDbEntity
  8
1
  6
CONTINUOUS
 62
     1
100
AcDbLine
 10
319.301
 20
437.3928
 30
0.0
 11
322.1347
 21
437.6991
 31
0.0
  0
LINE
  5
133
100
AcDbEntity
  8
1
  6
CONTINUOUS
 62
     1
100
AcDbLine
 10
321.4898
 20
443.6643
 30
0.0
 11
323.1304
 21
443.8416
 31
0.0
  0
LINE
  5
134
100
AcDbEntity
  8
1
  6
CONTINUOUS
 62
     1
100
AcDbLine
 10
321.4898
 20
443.6643
 30
0.0
 11
322.5863
 21
433.5234
 31
0.0
  0
LINE
  5
135
100
AcDbEntity
  8
1
  6
CONTINUOUS
 62
     1
100
AcDbLine
 10
322.1347
 20
437.6991
 30
0.0
 11
323.7108
 21
438.4729
 31
0.0
  0
LINE
  5
136
100
AcDbEntity
  8
1
  6
CONTINUOUS
 62
     1
100
AcDbLine
 10
322.3281
 20
435.9095
 30
0.0
 11
324.0332
 21
435.4902
 31
0.0
  0
LINE
  5
137
100
AcDbEntity
  8
1
  6
CONTINUOUS
 62
     1
100
AcDbLine
 10
321.6833
 20
441.8748
 30
0.0
 11
323.3239
 21
442.0521
 31
0.0
  0
LINE
  5
138
100
AcDbEntity
  8
1
  6
CONTINUOUS
 62
     1
100
AcDbLine
 10
319.4944
 20
435.6032
 30
0.0
 11
322.3281
 21
435.9095
 31
0.0
  0
LINE
  5
139
100
AcDbEntity
  8
1
  6
CONTINUOUS
 62
     1
100
AcDbLine
 10
319.301
 20
437.3928
 30
0.0
 11
319.4944
 21
435.6032
 31
0.0
  0
SPLINE
  5
13A
100
AcDbEntity
  8
1
  6
CONTINUOUS
 62
     1
100
AcDbSpline
210
0.0
220
0.0
230
1.0
 70
     8
 71
     3
 72
    56
 73
    52
 74
     0
 42
0.0
 43
0.0
 12
-0.0404281305165813
 22
-0.9991824489365965
 32
0.0
 13
0.8778069201776008
 23
-0.4790146249211136
 33
0.0
 40
0.0
 40
0.0
 40
0.0
 40
0.0
 40
0.0881054520903669
 40
0.0881054520903669
 40
0.0881054520903669
 40
0.1592417005325
 40
0.1592417005325
 40
0.1592417005325
 40
0.2375224623572796
 40
0.2375224623572796
 40
0.2375224623572796
 40
0.2806247315447196
 40
0.2806247315447196
 40
0.2806247315447196
 40
0.3365407980739869
 40
0.3365407980739869
 40
0.3365407980739869
 40
0.3973211988698238
 40
0.3973211988698238
 40
0.3973211988698238
 40
0.4872352035230834
 40
0.4872352035230834
 40
0.4872352035230834
 40
0.5857137724165575
 40
0.5857137724165575
 40
0.5857137724165575
 40
0.6538190147418802
 40
0.6538190147418802
 40
0.6538190147418802
 40
0.718995123100855
 40
0.718995123100855
 40
0.718995123100855
 40
0.7819382711538491
 40
0.7819382711538491
 40
0.7819382711538491
 40
0.834226811634876
 40
0.834226811634876
 40
0.834226811634876
 40
0.8746456605399502
 40
0.8746456605399502
 40
0.8746456605399502
 40
0.9281606296130868
 40
0.9281606296130868
 40
0.9281606296130868
 40
0.956165311134515
 40
0.956165311134515
 40
0.956165311134515
 40
0.9805746330865103
 40
0.9805746330865103
 40
0.9805746330865103
 40
1.0
 40
1.0
 40
1.0
 40
1.0
 10
299.25319999999999
 20
453.80530000000005
 30
0.0
 10
299.20840000000004
 20
452.6980666666667
 30
0.0
 10
299.16360000000003
 20
451.59083333333331
 30
0.0
 10
299.11880000000002
 20
450.48360000000002
 30
0.0
 10
299.08262852758151
 20
449.58962098264448
 30
0.0
 10
299.6782649290368
 20
448.77216761019389
 30
0.0
 10
299.87909999999999
 20
447.90940000000001
 30
0.0
 10
300.10010578397697
 20
446.95998100078674
 30
0.0
 10
299.88694954077698
 20
445.91187509256531
 30
0.0
 10
300.2885
 20
444.98420000000004
 30
0.0
 10
300.50959820577003
 20
444.47341164503064
 30
0.0
 10
300.90316897781821
 20
444.09051390252654
 30
0.0
 10
301.28280000000001
 20
443.69720000000001
 30
0.0
 10
301.7752908570493
 20
443.18695850331881
 30
0.0
 10
302.34126400094129
 20
442.76302531279549
 30
0.0
 10
302.80340000000001
 20
442.2346
 30
0.0
 10
303.3057388265388
 20
441.66020512038949
 30
0.0
 10
303.71770089312844
 20
441.01124776535426
 30
0.0
 10
304.20699999999999
 20
440.42090000000002
 30
0.0
 10
304.93083270916338
 20
439.54758342054208
 30
0.0
 10
305.68568778663808
 20
438.70828960097333
 30
0.0
 10
306.54640000000001
 20
437.96380000000005
 30
0.0
 10
307.48909749554463
 20
437.14839565067035
 30
0.0
 10
308.81980304744724
 20
436.91488409405252
 30
0.0
 10
309.82159999999999
 20
436.20870000000002
 30
0.0
 10
310.51441697511444
 20
435.7203212654984
 30
0.0
 10
311.02773676752128
 20
434.99335956189981
 30
0.0
 10
311.7516
 20
434.512
 30
0.0
 10
312.44433064548764
 20
434.05134320039349
 30
0.0
 10
313.1693759514925
 20
433.62791043145734
 30
0.0
 10
313.97399999999999
 20
433.459
 30
0.0
 10
314.75105729733457
 20
433.29587650946644
 30
0.0
 10
315.53796642549281
 20
433.20431097069979
 30
0.0
 10
316.3134
 20
433.04940000000005
 30
0.0
 10
316.95757321194088
 20
432.92071135297567
 30
0.0
 10
317.59565564097483
 20
432.7658287655911
 30
0.0
 10
318.24340000000001
 20
432.63990000000001
 30
0.0
 10
318.74410400006775
 20
432.5425575287357
 30
0.0
 10
319.25768040411612
 20
432.53274921439095
 30
0.0
 10
319.76400000000001
 20
432.52289999999999
 30
0.0
 10
320.43437232006505
 20
432.50985953947719
 30
0.0
 10
321.09691381232136
 20
432.67160905741616
 30
0.0
 10
321.7525
 20
432.87390000000005
 30
0.0
 10
322.0955719051841
 20
432.97975997749512
 30
0.0
 10
322.26234487510243
 20
433.41247330239241
 30
0.0
 10
322.58600000000001
 20
433.52340000000004
 30
0.0
 10
322.86810290979361
 20
433.62008545856895
 30
0.0
 10
323.23750774598227
 20
433.66456050728266
 30
0.0
 10
323.50700000000001
 20
433.51750000000004
 30
0.0
 10
323.72146666666669
 20
433.40046666666672
 30
0.0
 10
323.93593333333337
 20
433.28343333333333
 30
0.0
 10
324.15039999999999
 20
433.16640000000001
 30
0.0
  0
LINE
  5
13B
100
AcDbEntity
  8
1
  6
CONTINUOUS
 62
     7
100
AcDbLine
 10
318.2046
 20
436.369
 30
0.0
 11
326.2581
 21
437.2393
 31
0.0
  0
LINE
  5
13C
100
AcDbEntity
  8
1
  6
CONTINUOUS
 62
     1
100
AcDbLine
 10
319.8975
 20
437.4572
 30
0.0
 11
320.0909
 21
435.6676
 31
0.0
  0
LINE
  5
13D
100
AcDbEntity
  8
1
  6
CONTINUOUS
 62
     1
100
AcDbLine
 10
321.0905
 20
437.5861
 30
0.0
 11
321.2839
 21
435.7965
 31
0.0
  0
LINE
  5
13E
100
AcDbEntity
  8
1
  6
CONTINUOUS
 62
     1
100
AcDbLine
 10
321.687
 20
437.6505
 30
0.0
 11
321.8804
 21
435.8609
 31
0.0
  0
LINE
  5
13F
100
AcDbEntity
  8
1
  6
CONTINUOUS
 62
     1
100
AcDbLine
 10
319.6314
 20
437.1266
 30
0.0
 11
319.7604
 21
435.9335
 31
0.0
  0
LINE
  5
140
100
AcDbEntity
  8
1
  6
CONTINUOUS
 62
     1
100
AcDbLine
 10
320.2279
 20
437.1911
 30
0.0
 11
320.3569
 21
435.998
 31
0.0
  0
LINE
  5
141
100
AcDbEntity
  8
1
  6
CONTINUOUS
 62
     1
100
AcDbLine
 10
320.8244
 20
437.2555
 30
0.0
 11
320.9534
 21
436.0624
 31
0.0
  0
LINE
  5
142
100
AcDbEntity
  8
1
  6
CONTINUOUS
 62
     1
100
AcDbLine
 10
321.4209
 20
437.32
 30
0.0
 11
321.5499
 21
436.1269
 31
0.0
  0
LINE
  5
143
100
AcDbEntity
  8
1
  6
CONTINUOUS
 62
     1
100
AcDbLine
 10
321.9419
 20
437.3762
 30
0.0
 11
322.0709
 21
436.1831
 31
0.0
  0
LINE
  5
144
100
AcDbEntity
  8
1
  6
CONTINUOUS
 62
     1
100
AcDbLine
 10
323.3238
 20
442.0521
 30
0.0
 11
329.84
 21
381.7774
 31
0.0
  0
LINE
  5
145
100
AcDbEntity
  8
1
  6
CONTINUOUS
 62
     1
100
AcDbLine
 10
327.6833
 20
386.3722
 30
0.0
 11
328.3929
 21
379.8106
 31
0.0
  0
LINE
  5
146
100
AcDbEntity
  8
1
  6
CONTINUOUS
 62
     1
100
AcDbLine
 10
326.0432
 20
386.195
 30
0.0
 11
327.6833
 21
386.3722
 31
0.0
  0
LINE
  5
147
100
AcDbEntity
  8
1
  6
CONTINUOUS
 62
     1
100
AcDbLine
 10
328.3929
 20
379.8106
 30
0.0
 11
330.0335
 21
379.9879
 31
0.0
  0
LINE
  5
148
100
AcDbEntity
  8
1
  6
CONTINUOUS
 62
     1
100
AcDbLine
 10
328.1999
 20
381.6002
 30
0.0
 11
329.84
 21
381.7774
 31
0.0
  0
LINE
  5
149
100
AcDbEntity
  8
1
  6
HIDDEN
 62
     1
100
AcDbLine
 10
328.1022
 20
382.5453
 30
0.0
 11
329.8073
 21
382.126
 31
0.0
  0
LINE
  5
14A
100
AcDbEntity
  8
1
  6
HIDDEN
 62
     1
100
AcDbLine
 10
325.0751
 20
384.0286
 30
0.0
 11
327.9088
 21
384.3349
 31
0.0
  0
LINE
  5
14B
100
AcDbEntity
  8
1
  6
HIDDEN
 62
     1
100
AcDbLine
 10
327.9088
 20
384.3349
 30
0.0
 11
329.4849
 21
385.1087
 31
0.0
  0
LINE
  5
14C
100
AcDbEntity
  8
1
  6
HIDDEN
 62
     1
100
AcDbLine
 10
325.2685
 20
382.239
 30
0.0
 11
328.1022
 21
382.5453
 31
0.0
  0
LINE
  5
14D
100
AcDbEntity
  8
1
  6
HIDDEN
 62
     1
100
AcDbLine
 10
325.0751
 20
384.0286
 30
0.0
 11
325.2685
 21
382.239
 31
0.0
  0
LINE
  5
14E
100
AcDbEntity
  8
1
  6
CONTINUOUS
 62
     7
100
AcDbLine
 10
323.9787
 20
383.0048
 30
0.0
 11
332.0322
 21
383.8751
 31
0.0
  0
LINE
  5
14F
100
AcDbEntity
  8
1
  6
HIDDEN
 62
     1
100
AcDbLine
 10
265.0046
 20
377.0053
 30
0.0
 11
265.0046
 21
401.0053
 31
0.0
  0
LINE
  5
150
100
AcDbEntity
  8
1
  6
HIDDEN
 62
     1
100
AcDbLine
 10
248.8046
 20
399.2053
 30
0.0
 11
257.2629
 21
395.5402
 31
0.0
  0
ARC
  5
151
100
AcDbEntity
  8
1
  6
HIDDEN
 62
     1
100
AcDbCircle
 10
251.561537
 20
388.621279
 30
0.0
 40
8.965323
210
0.0
220
0.0
230
1.0
100
AcDbArc
 50
355.961628
 51
50.510631
  0
LINE
  5
152
100
AcDbEntity
  8
1
  6
HIDDEN
 62
     1
100
AcDbLine
 10
260.5046
 20
379.4053
 30
0.0
 11
260.5046
 21
387.9899
 31
0.0
  0
LINE
  5
153
100
AcDbEntity
  8
1
  6
CONTINUOUS
 62
     7
100
AcDbLine
 10
285.1046
 20
416.6053
 30
0.0
 11
285.1046
 21
414.2053
 31
0.0
  0
LINE
  5
154
100
AcDbEntity
  8
1
  6
HIDDEN
 62
     1
100
AcDbLine
 10
285.1046
 20
377.0053
 30
0.0
 11
285.1046
 21
371.0053
 31
0.0
  0
LINE
  5
155
100
AcDbEntity
  8
1
  6
HIDDEN
 62
     1
100
AcDbLine
 10
303.1046
 20
377.0053
 30
0.0
 11
303.1046
 21
371.0053
 31
0.0
  0
LINE
  5
156
100
AcDbEntity
  8
1
  6
HIDDEN
 62
     1
100
AcDbLine
 10
273.1046
 20
377.0053
 30
0.0
 11
273.1046
 21
371.0053
 31
0.0
  0
LINE
  5
157
100
AcDbEntity
  8
1
  6
HIDDEN
 62
     1
100
AcDbLine
 10
266.8046
 20
377.0053
 30
0.0
 11
266.8046
 21
371.0053
 31
0.0
  0
LINE
  5
158
100
AcDbEntity
  8
1
  6
HIDDEN
 62
     1
100
AcDbLine
 10
312.7046
 20
377.0053
 30
0.0
 11
312.7046
 21
371.0053
 31
0.0
  0
LINE
  5
159
100
AcDbEntity
  8
1
  6
HIDDEN
 62
     1
100
AcDbLine
 10
319.9046
 20
377.0053
 30
0.0
 11
319.9046
 21
371.0053
 31
0.0
  0
LINE
  5
15A
100
AcDbEntity
  8
1
  6
HIDDEN
 62
     1
100
AcDbLine
 10
276.1046
 20
459.8053
 30
0.0
 11
276.1046
 21
453.8053
 31
0.0
  0
LINE
  5
15B
100
AcDbEntity
  8
1
  6
HIDDEN
 62
     1
100
AcDbLine
 10
294.1046
 20
459.8053
 30
0.0
 11
294.1046
 21
453.8053
 31
0.0
  0
LINE
  5
15C
100
AcDbEntity
  8
1
  6
HIDDEN
 62
     1
100
AcDbLine
 10
260.5046
 20
459.8053
 30
0.0
 11
260.5046
 21
449.6053
 31
0.0
  0
LINE
  5
15D
100
AcDbEntity
  8
1
  6
HIDDEN
 62
     1
100
AcDbLine
 10
254.5046
 20
459.8053
 30
0.0
 11
254.5046
 21
449.6053
 31
0.0
  0
LINE
  5
15E
100
AcDbEntity
  8
1
  6
CONTINUOUS
 62
     1
100
AcDbLine
 10
254.5046
 20
459.8053
 30
0.0
 11
254.5046
 21
477.8053
 31
0.0
  0
LINE
  5
15F
100
AcDbEntity
  8
1
  6
CONTINUOUS
 62
     1
100
AcDbLine
 10
260.5046
 20
459.8053
 30
0.0
 11
260.5046
 21
477.8053
 31
0.0
  0
LINE
  5
160
100
AcDbEntity
  8
1
  6
CONTINUOUS
 62
     1
100
AcDbLine
 10
307.3046
 20
459.8053
 30
0.0
 11
307.3046
 21
477.8053
 31
0.0
  0
LINE
  5
161
100
AcDbEntity
  8
1
  6
CONTINUOUS
 62
     1
100
AcDbLine
 10
313.3046
 20
459.8053
 30
0.0
 11
313.3046
 21
477.8053
 31
0.0
  0
LINE
  5
162
100
AcDbEntity
  8
1
  6
CONTINUOUS
 62
     1
100
AcDbLine
 10
313.3046
 20
477.8053
 30
0.0
 11
307.3046
 21
477.8053
 31
0.0
  0
LINE
  5
163
100
AcDbEntity
  8
1
  6
CONTINUOUS
 62
     1
100
AcDbLine
 10
254.5046
 20
477.8053
 30
0.0
 11
260.5046
 21
477.8053
 31
0.0
  0
LINE
  5
164
100
AcDbEntity
  8
1
  6
HIDDEN
 62
     1
100
AcDbLine
 10
262.3046
 20
453.8053
 30
0.0
 11
262.3046
 21
449.6053
 31
0.0
  0
LINE
  5
165
100
AcDbEntity
  8
1
  6
HIDDEN
 62
     1
100
AcDbLine
 10
252.7046
 20
453.8053
 30
0.0
 11
252.7046
 21
449.6053
 31
0.0
  0
LINE
  5
166
100
AcDbEntity
  8
1
  6
HIDDEN
 62
     1
100
AcDbLine
 10
252.7046
 20
449.6053
 30
0.0
 11
262.3046
 21
449.6053
 31
0.0
  0
LINE
  5
167
100
AcDbEntity
  8
1
  6
CONTINUOUS
 62
     1
100
AcDbLine
 10
315.1046
 20
453.8053
 30
0.0
 11
315.1046
 21
449.6053
 31
0.0
  0
LINE
  5
168
100
AcDbEntity
  8
1
  6
CONTINUOUS
 62
     1
100
AcDbLine
 10
305.5046
 20
453.8053
 30
0.0
 11
305.5046
 21
449.6053
 31
0.0
  0
LINE
  5
169
100
AcDbEntity
  8
1
  6
CONTINUOUS
 62
     1
100
AcDbLine
 10
305.5046
 20
449.6053
 30
0.0
 11
315.1046
 21
449.6053
 31
0.0
  0
LINE
  5
16A
100
AcDbEntity
  8
1
  6
HIDDEN
 62
     1
100
AcDbLine
 10
307.3046
 20
459.8053
 30
0.0
 11
307.3046
 21
453.8053
 31
0.0
  0
LINE
  5
16B
100
AcDbEntity
  8
1
  6
CONTINUOUS
 62
     1
100
AcDbLine
 10
307.3046
 20
453.8053
 30
0.0
 11
307.3046
 21
449.6053
 31
0.0
  0
LINE
  5
16C
100
AcDbEntity
  8
1
  6
HIDDEN
 62
     1
100
AcDbLine
 10
313.3046
 20
459.8053
 30
0.0
 11
313.3046
 21
453.8053
 31
0.0
  0
LINE
  5
16D
100
AcDbEntity
  8
1
  6
CONTINUOUS
 62
     1
100
AcDbLine
 10
313.3046
 20
453.8053
 30
0.0
 11
313.3046
 21
449.6053
 31
0.0
  0
LINE
  5
16E
100
AcDbEntity
  8
1
  6
CONTINUOUS
 62
     1
100
AcDbLine
 10
254.5046
 20
476.6053
 30
0.0
 11
260.5046
 21
476.6053
 31
0.0
  0
LINE
  5
16F
100
AcDbEntity
  8
1
  6
CONTINUOUS
 62
     1
100
AcDbLine
 10
256.3046
 20
475.4053
 30
0.0
 11
258.7046
 21
475.4053
 31
0.0
  0
LINE
  5
170
100
AcDbEntity
  8
1
  6
CONTINUOUS
 62
     1
100
AcDbLine
 10
254.5046
 20
474.2053
 30
0.0
 11
260.5046
 21
474.2053
 31
0.0
  0
LINE
  5
171
100
AcDbEntity
  8
1
  6
CONTINUOUS
 62
     1
100
AcDbLine
 10
256.3046
 20
473.0053
 30
0.0
 11
258.7046
 21
473.0053
 31
0.0
  0
LINE
  5
172
100
AcDbEntity
  8
1
  6
CONTINUOUS
 62
     1
100
AcDbLine
 10
254.5046
 20
471.8053
 30
0.0
 11
260.5046
 21
471.8053
 31
0.0
  0
LINE
  5
173
100
AcDbEntity
  8
1
  6
CONTINUOUS
 62
     1
100
AcDbLine
 10
256.3046
 20
470.6053
 30
0.0
 11
258.7046
 21
470.6053
 31
0.0
  0
LINE
  5
174
100
AcDbEntity
  8
1
  6
CONTINUOUS
 62
     1
100
AcDbLine
 10
254.5046
 20
469.4053
 30
0.0
 11
260.5046
 21
469.4053
 31
0.0
  0
LINE
  5
175
100
AcDbEntity
  8
1
  6
CONTINUOUS
 62
     1
100
AcDbLine
 10
256.3046
 20
468.2053
 30
0.0
 11
258.7046
 21
468.2053
 31
0.0
  0
LINE
  5
176
100
AcDbEntity
  8
1
  6
CONTINUOUS
 62
     1
100
AcDbLine
 10
254.5046
 20
467.0053
 30
0.0
 11
260.5046
 21
467.0053
 31
0.0
  0
LINE
  5
177
100
AcDbEntity
  8
1
  6
CONTINUOUS
 62
     1
100
AcDbLine
 10
256.3046
 20
465.8053
 30
0.0
 11
258.7046
 21
465.8053
 31
0.0
  0
LINE
  5
178
100
AcDbEntity
  8
1
  6
CONTINUOUS
 62
     1
100
AcDbLine
 10
254.5046
 20
464.6053
 30
0.0
 11
260.5046
 21
464.6053
 31
0.0
  0
LINE
  5
179
100
AcDbEntity
  8
1
  6
CONTINUOUS
 62
     1
100
AcDbLine
 10
256.3046
 20
463.4053
 30
0.0
 11
258.7046
 21
463.4053
 31
0.0
  0
LINE
  5
17A
100
AcDbEntity
  8
1
  6
CONTINUOUS
 62
     1
100
AcDbLine
 10
254.5046
 20
462.2053
 30
0.0
 11
260.5046
 21
462.2053
 31
0.0
  0
LINE
  5
17B
100
AcDbEntity
  8
1
  6
CONTINUOUS
 62
     1
100
AcDbLine
 10
256.3046
 20
461.0053
 30
0.0
 11
258.7046
 21
461.0053
 31
0.0
  0
LINE
  5
17C
100
AcDbEntity
  8
1
  6
CONTINUOUS
 62
     1
100
AcDbLine
 10
313.3046
 20
476.6053
 30
0.0
 11
307.3046
 21
476.6053
 31
0.0
  0
LINE
  5
17D
100
AcDbEntity
  8
1
  6
CONTINUOUS
 62
     1
100
AcDbLine
 10
311.5046
 20
475.4053
 30
0.0
 11
309.1046
 21
475.4053
 31
0.0
  0
LINE
  5
17E
100
AcDbEntity
  8
1
  6
CONTINUOUS
 62
     1
100
AcDbLine
 10
313.3046
 20
474.2053
 30
0.0
 11
307.3046
 21
474.2053
 31
0.0
  0
LINE
  5
17F
100
AcDbEntity
  8
1
  6
CONTINUOUS
 62
     1
100
AcDbLine
 10
311.5046
 20
473.0053
 30
0.0
 11
309.1046
 21
473.0053
 31
0.0
  0
LINE
  5
180
100
AcDbEntity
  8
1
  6
CONTINUOUS
 62
     1
100
AcDbLine
 10
313.3046
 20
471.8053
 30
0.0
 11
307.3046
 21
471.8053
 31
0.0
  0
LINE
  5
181
100
AcDbEntity
  8
1
  6
CONTINUOUS
 62
     1
100
AcDbLine
 10
311.5046
 20
470.6053
 30
0.0
 11
309.1046
 21
470.6053
 31
0.0
  0
LINE
  5
182
100
AcDbEntity
  8
1
  6
CONTINUOUS
 62
     1
100
AcDbLine
 10
313.3046
 20
469.4053
 30
0.0
 11
307.3046
 21
469.4053
 31
0.0
  0
LINE
  5
183
100
AcDbEntity
  8
1
  6
CONTINUOUS
 62
     1
100
AcDbLine
 10
311.5046
 20
468.2053
 30
0.0
 11
309.1046
 21
468.2053
 31
0.0
  0
LINE
  5
184
100
AcDbEntity
  8
1
  6
CONTINUOUS
 62
     1
100
AcDbLine
 10
313.3046
 20
467.0053
 30
0.0
 11
307.3046
 21
467.0053
 31
0.0
  0
LINE
  5
185
100
AcDbEntity
  8
1
  6
CONTINUOUS
 62
     1
100
AcDbLine
 10
311.5046
 20
465.8053
 30
0.0
 11
309.1046
 21
465.8053
 31
0.0
  0
LINE
  5
186
100
AcDbEntity
  8
1
  6
CONTINUOUS
 62
     1
100
AcDbLine
 10
313.3046
 20
464.6053
 30
0.0
 11
307.3046
 21
464.6053
 31
0.0
  0
LINE
  5
187
100
AcDbEntity
  8
1
  6
CONTINUOUS
 62
     1
100
AcDbLine
 10
311.5046
 20
463.4053
 30
0.0
 11
309.1046
 21
463.4053
 31
0.0
  0
LINE
  5
188
100
AcDbEntity
  8
1
  6
CONTINUOUS
 62
     1
100
AcDbLine
 10
313.3046
 20
462.2053
 30
0.0
 11
307.3046
 21
462.2053
 31
0.0
  0
LINE
  5
189
100
AcDbEntity
  8
1
  6
CONTINUOUS
 62
     1
100
AcDbLine
 10
311.5046
 20
461.0053
 30
0.0
 11
309.1046
 21
461.0053
 31
0.0
  0
LINE
  5
18A
100
AcDbEntity
  8
1
  6
CONTINUOUS
 62
     1
100
AcDbLine
 10
256.3046
 20
458.6053
 30
0.0
 11
258.7046
 21
458.6053
 31
0.0
  0
LINE
  5
18B
100
AcDbEntity
  8
1
  6
CONTINUOUS
 62
     1
100
AcDbLine
 10
255.1046
 20
457.4053
 30
0.0
 11
259.9046
 21
457.4053
 31
0.0
  0
LINE
  5
18C
100
AcDbEntity
  8
1
  6
CONTINUOUS
 62
     1
100
AcDbLine
 10
256.3046
 20
456.2053
 30
0.0
 11
258.7046
 21
456.2053
 31
0.0
  0
LINE
  5
18D
100
AcDbEntity
  8
1
  6
CONTINUOUS
 62
     1
100
AcDbLine
 10
255.1046
 20
455.0053
 30
0.0
 11
259.9046
 21
455.0053
 31
0.0
  0
LINE
  5
18E
100
AcDbEntity
  8
1
  6
CONTINUOUS
 62
     1
100
AcDbLine
 10
311.5046
 20
458.6053
 30
0.0
 11
309.1046
 21
458.6053
 31
0.0
  0
LINE
  5
18F
100
AcDbEntity
  8
1
  6
CONTINUOUS
 62
     1
100
AcDbLine
 10
312.7046
 20
457.4053
 30
0.0
 11
307.9046
 21
457.4053
 31
0.0
  0
LINE
  5
190
100
AcDbEntity
  8
1
  6
CONTINUOUS
 62
     1
100
AcDbLine
 10
311.5046
 20
456.2053
 30
0.0
 11
309.1046
 21
456.2053
 31
0.0
  0
LINE
  5
191
100
AcDbEntity
  8
1
  6
CONTINUOUS
 62
     1
100
AcDbLine
 10
312.7046
 20
455.0053
 30
0.0
 11
307.9046
 21
455.0053
 31
0.0
  0
LINE
  5
192
100
AcDbEntity
  8
1
  6
CONTINUOUS
 62
     1
100
AcDbLine
 10
321.4046
 20
459.8053
 30
0.0
 11
322.0532
 21
453.8053
 31
0.0
  0
LINE
  5
193
100
AcDbEntity
  8
1
  6
CONTINUOUS
 62
     1
100
AcDbLine
 10
322.0532
 20
453.8053
 30
0.0
 11
323.1304
 21
443.8416
 31
0.0
  0
POLYLINE
  5
194
100
AcDbEntity
  8
1
  6
CONTINUOUS
 62
     1
100
AcDb2dPolyline
 66
     1
 10
0.0
 20
0.0
 30
0.0
 70
     1
  0
VERTEX
  5
195
100
AcDbEntity
  8
1
  6
CONTINUOUS
 62
     1
100
AcDbVertex
100
AcDb2dVertex
 10
322.2467
 20
452.0157
 30
0.0
  0
VERTEX
  5
196
100
AcDbEntity
  8
1
  6
CONTINUOUS
 62
     1
100
AcDbVertex
100
AcDb2dVertex
 10
318.734
 20
453.8053
 30
0.0
  0
VERTEX
  5
197
100
AcDbEntity
  8
1
  6
CONTINUOUS
 62
     1
100
AcDbVertex
100
AcDb2dVertex
 10
322.0533
 20
453.8053
 30
0.0
  0
VERTEX
  5
198
100
AcDbEntity
  8
1
  6
CONTINUOUS
 62
     1
100
AcDbVertex
100
AcDb2dVertex
 10
322.0532
 20
453.8053
 30
0.0
  0
VERTEX
  5
199
100
AcDbEntity
  8
1
  6
CONTINUOUS
 62
     1
100
AcDbVertex
100
AcDb2dVertex
 10
322.2467
 20
452.0157
 30
0.0
  0
SEQEND
  5
19A
100
AcDbEntity
  8
1
  6
CONTINUOUS
 62
     1
  0
LINE
  5
19B
100
AcDbEntity
  8
1
  6
CONTINUOUS
 62
     1
100
AcDbLine
 10
320.4944
 20
437.5218
 30
0.0
 11
321.9288
 21
439.6046
 31
0.0
  0
LINE
  5
19C
100
AcDbEntity
  8
1
  6
CONTINUOUS
 62
     1
100
AcDbLine
 10
318.734
 20
453.8053
 30
0.0
 11
320.4944
 21
437.5218
 31
0.0
  0
LINE
  5
19D
100
AcDbEntity
  8
1
  6
CONTINUOUS
 62
     1
100
AcDbLine
 10
320.4944
 20
437.5218
 30
0.0
 11
327.0367
 21
377.0053
 31
0.0
  0
LINE
  5
19E
100
AcDbEntity
  8
1
  6
CONTINUOUS
 62
     1
100
AcDbLine
 10
320.3461
 20
438.8933
 30
0.0
 11
321.7805
 21
440.976
 31
0.0
  0
LINE
  5
19F
100
AcDbEntity
  8
1
  6
CONTINUOUS
 62
     1
100
AcDbLine
 10
320.0002
 20
442.0934
 30
0.0
 11
322.8691
 21
446.259
 31
0.0
  0
LINE
  5
1A0
100
AcDbEntity
  8
1
  6
CONTINUOUS
 62
     1
100
AcDbLine
 10
319.8519
 20
443.4648
 30
0.0
 11
322.7208
 21
447.6304
 31
0.0
  0
LINE
  5
1A1
100
AcDbEntity
  8
1
  6
CONTINUOUS
 62
     1
100
AcDbLine
 10
319.5059
 20
446.6649
 30
0.0
 11
322.3748
 21
450.8305
 31
0.0
  0
LINE
  5
1A2
100
AcDbEntity
  8
1
  6
CONTINUOUS
 62
     1
100
AcDbLine
 10
319.3577
 20
448.0364
 30
0.0
 11
322.1368
 21
452.0717
 31
0.0
  0
LINE
  5
1A3
100
AcDbEntity
  8
1
  6
CONTINUOUS
 62
     1
100
AcDbLine
 10
319.0117
 20
451.2365
 30
0.0
 11
320.2492
 21
453.0334
 31
0.0
  0
LINE
  5
1A4
100
AcDbEntity
  8
1
  6
CONTINUOUS
 62
     1
100
AcDbLine
 10
318.8634
 20
452.608
 30
0.0
 11
319.4402
 21
453.4455
 31
0.0
  0
LINE
  5
1A5
100
AcDbEntity
  8
1
  6
CONTINUOUS
 62
     1
100
AcDbLine
 10
321.1037
 20
432.6925
 30
0.0
 11
322.4628
 21
434.6659
 31
0.0
  0
LINE
  5
1A6
100
AcDbEntity
  8
1
  6
CONTINUOUS
 62
     1
100
AcDbLine
 10
320.88
 20
433.9546
 30
0.0
 11
322.2182
 21
435.8976
 31
0.0
  0
LINE
  5
1A7
100
AcDbEntity
  8
1
  6
CONTINUOUS
 62
     1
100
AcDbLine
 10
324.2278
 20
433.69
 30
0.0
 11
322.7749
 21
435.7996
 31
0.0
  0
LINE
  5
1A8
100
AcDbEntity
  8
1
  6
CONTINUOUS
 62
     1
100
AcDbLine
 10
323.1919
 20
433.6073
 30
0.0
 11
322.4627
 21
434.6661
 31
0.0
  0
LINE
  5
1A9
100
AcDbEntity
  8
1
  6
CONTINUOUS
 62
     1
100
AcDbLine
 10
324.0833
 20
433.203
 30
0.0
 11
324.1504
 21
433.1664
 31
0.0
  0
LINE
  5
1AA
100
AcDbEntity
  8
1
  6
CONTINUOUS
 62
     1
100
AcDbLine
 10
324.1504
 20
433.1664
 30
0.0
 11
324.2918
 21
433.0846
 31
0.0
  0
LINE
  5
1AB
100
AcDbEntity
  8
1
  6
CONTINUOUS
 62
     1
100
AcDbLine
 10
323.6939
 20
438.6285
 30
0.0
 11
321.7252
 21
441.487
 31
0.0
  0
LINE
  5
1AC
100
AcDbEntity
  8
1
  6
CONTINUOUS
 62
     1
100
AcDbLine
 10
323.4905
 20
440.5105
 30
0.0
 11
322.4907
 21
441.9621
 31
0.0
  0
LINE
  5
1AD
100
AcDbEntity
  8
1
  6
CONTINUOUS
 62
     1
100
AcDbLine
 10
248.8046
 20
459.8053
 30
0.0
 11
248.8046
 21
453.8053
 31
0.0
  0
LINE
  5
1AE
100
AcDbEntity
  8
1
  6
CONTINUOUS
 62
     1
100
AcDbLine
 10
248.8046
 20
453.8053
 30
0.0
 11
322.0532
 21
453.8053
 31
0.0
  0
POLYLINE
  5
1AF
100
AcDbEntity
  8
1
  6
CONTINUOUS
 62
     1
100
AcDb2dPolyline
 66
     1
 10
0.0
 20
0.0
 30
0.0
 70
     1
  0
VERTEX
  5
1B0
100
AcDbEntity
  8
1
  6
CONTINUOUS
 62
     1
100
AcDbVertex
100
AcDb2dVertex
 10
248.8046
 20
453.8053
 30
0.0
  0
VERTEX
  5
1B1
100
AcDbEntity
  8
1
  6
CONTINUOUS
 62
     1
100
AcDbVertex
100
AcDb2dVertex
 10
251.8046
 20
453.8053
 30
0.0
  0
VERTEX
  5
1B2
100
AcDbEntity
  8
1
  6
CONTINUOUS
 62
     1
100
AcDbVertex
100
AcDb2dVertex
 10
248.8046
 20
452.0053
 30
0.0
  0
VERTEX
  5
1B3
100
AcDbEntity
  8
1
  6
CONTINUOUS
 62
     1
100
AcDbVertex
100
AcDb2dVertex
 10
248.8046
 20
453.8053
 30
0.0
  0
SEQEND
  5
1B4
100
AcDbEntity
  8
1
  6
CONTINUOUS
 62
     1
  0
LINE
  5
1B5
100
AcDbEntity
  8
1
  6
CONTINUOUS
 62
     1
100
AcDbLine
 10
330.3559
 20
377.0053
 30
0.0
 11
331.0046
 21
371.0053
 31
0.0
  0
LINE
  5
1B6
100
AcDbEntity
  8
1
  6
CONTINUOUS
 62
     1
100
AcDbLine
 10
327.0367
 20
377.0053
 30
0.0
 11
330.3559
 21
377.0053
 31
0.0
  0
LINE
  5
1B7
100
AcDbEntity
  8
1
  6
CONTINUOUS
 62
     1
100
AcDbLine
 10
330.0335
 20
379.9879
 30
0.0
 11
330.3557
 21
377.0053
 31
0.0
  0
POLYLINE
  5
1B8
100
AcDbEntity
  8
1
  6
CONTINUOUS
 62
     1
100
AcDb2dPolyline
 66
     1
 10
0.0
 20
0.0
 30
0.0
 70
     1
  0
VERTEX
  5
1B9
100
AcDbEntity
  8
1
  6
CONTINUOUS
 62
     1
100
AcDbVertex
100
AcDb2dVertex
 10
328.2367
 20
377.0053
 30
0.0
  0
VERTEX
  5
1BA
100
AcDbEntity
  8
1
  6
CONTINUOUS
 62
     1
100
AcDbVertex
100
AcDb2dVertex
 10
330.1624
 20
378.7948
 30
0.0
  0
VERTEX
  5
1BB
100
AcDbEntity
  8
1
  6
CONTINUOUS
 62
     1
100
AcDbVertex
100
AcDb2dVertex
 10
330.3558
 20
377.0053
 30
0.0
  0
VERTEX
  5
1BC
100
AcDbEntity
  8
1
  6
CONTINUOUS
 62
     1
100
AcDbVertex
100
AcDb2dVertex
 10
328.2367
 20
377.0053
 30
0.0
  0
SEQEND
  5
1BD
100
AcDbEntity
  8
1
  6
CONTINUOUS
 62
     1
  0
LINE
  5
1BE
100
AcDbEntity
  8
1
  6
HIDDEN
 62
     1
100
AcDbLine
 10
251.8046
 20
453.8053
 30
0.0
 11
251.8046
 21
401.0053
 31
0.0
  0
LINE
  5
1BF
100
AcDbEntity
  8
1
  6
HIDDEN
 62
     1
100
AcDbLine
 10
251.8046
 20
401.0053
 30
0.0
 11
251.8046
 21
377.0053
 31
0.0
  0
LINE
  5
1C0
100
AcDbEntity
  8
1
  6
CONTINUOUS
 62
     1
100
AcDbLine
 10
248.8046
 20
453.8053
 30
0.0
 11
248.8046
 21
401.0053
 31
0.0
  0
POLYLINE
  5
1C1
100
AcDbEntity
  8
1
  6
CONTINUOUS
 62
     1
100
AcDb2dPolyline
 66
     1
 10
0.0
 20
0.0
 30
0.0
  0
VERTEX
  5
1C2
100
AcDbEntity
  8
1
  6
CONTINUOUS
 62
     1
100
AcDbVertex
100
AcDb2dVertex
 10
248.8046
 20
403.4053
 30
0.0
 42
0.143486
  0
VERTEX
  5
1C3
100
AcDbEntity
  8
1
  6
CONTINUOUS
 62
     1
100
AcDbVertex
100
AcDb2dVertex
 10
251.8046
 20
401.0053
 30
0.0
  0
VERTEX
  5
1C4
100
AcDbEntity
  8
1
  6
CONTINUOUS
 62
     1
100
AcDbVertex
100
AcDb2dVertex
 10
248.8046
 20
401.0053
 30
0.0
  0
VERTEX
  5
1C5
100
AcDbEntity
  8
1
  6
CONTINUOUS
 62
     1
100
AcDbVertex
100
AcDb2dVertex
 10
248.8046
 20
403.4053
 30
0.0
  0
SEQEND
  5
1C6
100
AcDbEntity
  8
1
  6
CONTINUOUS
 62
     1
  0
LINE
  5
1C7
100
AcDbEntity
  8
1
  6
HIDDEN
 62
     1
100
AcDbLine
 10
265.0046
 20
401.0053
 30
0.0
 11
251.8046
 21
401.0053
 31
0.0
  0
LINE
  5
1C8
100
AcDbEntity
  8
1
  6
CONTINUOUS
 62
     1
100
AcDbLine
 10
251.8046
 20
401.0053
 30
0.0
 11
248.8046
 21
401.0053
 31
0.0
  0
LINE
  5
1C9
100
AcDbEntity
  8
1
  6
CONTINUOUS
 62
     1
100
AcDbLine
 10
265.5787
 20
377.0053
 30
0.0
 11
327.0367
 21
377.0053
 31
0.0
  0
POLYLINE
  5
1CA
100
AcDbEntity
  8
1
  6
CONTINUOUS
 62
     1
100
AcDb2dPolyline
 66
     1
 10
0.0
 20
0.0
 30
0.0
  0
VERTEX
  5
1CB
100
AcDbEntity
  8
1
  6
CONTINUOUS
 62
     1
100
AcDbVertex
100
AcDb2dVertex
 10
260.5046
 20
377.0053
 30
0.0
  0
VERTEX
  5
1CC
100
AcDbEntity
  8
1
  6
CONTINUOUS
 62
     1
100
AcDbVertex
100
AcDb2dVertex
 10
260.5046
 20
379.4053
 30
0.0
 42
0.108006
  0
VERTEX
  5
1CD
100
AcDbEntity
  8
1
  6
CONTINUOUS
 62
     1
100
AcDbVertex
100
AcDb2dVertex
 10
265.5787
 20
377.0053
 30
0.0
  0
VERTEX
  5
1CE
100
AcDbEntity
  8
1
  6
CONTINUOUS
 62
     1
100
AcDbVertex
100
AcDb2dVertex
 10
260.5046
 20
377.0053
 30
0.0
  0
SEQEND
  5
1CF
100
AcDbEntity
  8
1
  6
CONTINUOUS
 62
     1
  0
LINE
  5
1D0
100
AcDbEntity
  8
1
  6
CONTINUOUS
 62
     1
100
AcDbLine
 10
260.5046
 20
379.4053
 30
0.0
 11
260.5046
 21
377.0053
 31
0.0
  0
LINE
  5
1D1
100
AcDbEntity
  8
1
  6
CONTINUOUS
 62
     1
100
AcDbLine
 10
248.8046
 20
401.0053
 30
0.0
 11
248.8046
 21
377.0053
 31
0.0
  0
LINE
  5
1D2
100
AcDbEntity
  8
1
  6
CONTINUOUS
 62
     1
100
AcDbLine
 10
248.8046
 20
377.0053
 30
0.0
 11
248.8046
 21
371.0053
 31
0.0
  0
LINE
  5
1D3
100
AcDbEntity
  8
1
  6
CONTINUOUS
 62
     1
100
AcDbLine
 10
248.8046
 20
377.0053
 30
0.0
 11
265.5787
 21
377.0053
 31
0.0
  0
POLYLINE
  5
1D4
100
AcDbEntity
  8
1
  6
CONTINUOUS
 62
     1
100
AcDb2dPolyline
 66
     1
 10
0.0
 20
0.0
 30
0.0
  0
VERTEX
  5
1D5
100
AcDbEntity
  8
1
  6
CONTINUOUS
 62
     1
100
AcDbVertex
100
AcDb2dVertex
 10
248.8046
 20
377.0053
 30
0.0
  0
VERTEX
  5
1D6
100
AcDbEntity
  8
1
  6
CONTINUOUS
 62
     1
100
AcDbVertex
100
AcDb2dVertex
 10
248.8046
 20
380.0053
 30
0.0
 42
0.124536
  0
VERTEX
  5
1D7
100
AcDbEntity
  8
1
  6
CONTINUOUS
 62
     1
100
AcDbVertex
100
AcDb2dVertex
 10
251.8046
 20
377.0053
 30
0.0
  0
VERTEX
  5
1D8
100
AcDbEntity
  8
1
  6
CONTINUOUS
 62
     1
100
AcDbVertex
100
AcDb2dVertex
 10
248.8046
 20
377.0053
 30
0.0
  0
SEQEND
  5
1D9
100
AcDbEntity
  8
1
  6
CONTINUOUS
 62
     1
  0
LINE
  5
1DA
100
AcDbEntity
  8
1
  6
CONTINUOUS
 62
     7
100
AcDbLine
 10
286.3046
 20
415.4053
 30
0.0
 11
283.9046
 21
415.4053
 31
0.0
  0
CIRCLE
  5
1DB
100
AcDbEntity
  8
1
  6
CONTINUOUS
 62
     1
100
AcDbCircle
 10
285.1046
 20
415.4053
 30
0.0
 40
6.0
210
0.0
220
0.0
230
1.0
  0
CIRCLE
  5
1DC
100
AcDbEntity
  8
1
  6
CONTINUOUS
 62
     1
100
AcDbCircle
 10
285.1046
 20
415.4053
 30
0.0
 40
6.9
210
0.0
220
0.0
230
1.0
  0
LINE
  5
1DD
100
AcDbEntity
  8
1
  6
CONTINUOUS
 62
     7
100
AcDbLine
 10
285.1046
 20
419.0053
 30
0.0
 11
285.1046
 21
431.0053
 31
0.0
  0
LINE
  5
1DE
100
AcDbEntity
  8
1
  6
CONTINUOUS
 62
     7
100
AcDbLine
 10
281.5046
 20
415.4053
 30
0.0
 11
269.5046
 21
415.4053
 31
0.0
  0
LINE
  5
1DF
100
AcDbEntity
  8
1
  6
CONTINUOUS
 62
     7
100
AcDbLine
 10
285.1046
 20
411.8053
 30
0.0
 11
285.1046
 21
399.8053
 31
0.0
  0
LINE
  5
1E0
100
AcDbEntity
  8
1
  6
CONTINUOUS
 62
     7
100
AcDbLine
 10
288.7046
 20
415.4053
 30
0.0
 11
344.2045
 21
415.4053
 31
0.0
  0
LINE
  5
1E1
100
AcDbEntity
  8
1
  6
CONTINUOUS
 62
     7
100
AcDbLine
 10
332.2046
 20
371.0053
 30
0.0
 11
344.2045
 21
371.0053
 31
0.0
  0
LINE
  5
1E2
100
AcDbEntity
  8
1
  6
CONTINUOUS
 62
     7
100
AcDbLine
 10
343.0045
 20
415.4053
 30
0.0
 11
343.0045
 21
371.0053
 31
0.0
  0
INSERT
  5
1E3
100
AcDbEntity
  8
1
  6
CONTINUOUS
 62
     1
100
AcDbBlockReference
  2
LDR
 10
343.0045
 20
415.4053
 30
0.0
 41
240.0
 42
240.0
 50
90.0
210
0.0
220
0.0
230
1.0
  0
INSERT
  5
1E4
100
AcDbEntity
  8
1
  6
CONTINUOUS
 62
     1
100
AcDbBlockReference
  2
LDR
 10
343.0045
 20
371.0053
 30
0.0
 41
240.0
 42
240.0
 50
270.0
210
0.0
220
0.0
230
1.0
  0
LINE
  5
1E5
100
AcDbEntity
  8
1
  6
CONTINUOUS
 62
     7
100
AcDbLine
 10
331.0046
 20
373.4053
 30
0.0
 11
331.0046
 21
494.6053
 31
0.0
  0
LINE
  5
1E6
100
AcDbEntity
  8
1
  6
CONTINUOUS
 62
     7
100
AcDbLine
 10
248.8046
 20
461.0053
 30
0.0
 11
248.8046
 21
494.6053
 31
0.0
  0
LINE
  5
1E7
100
AcDbEntity
  8
1
  6
CONTINUOUS
 62
     7
100
AcDbLine
 10
321.4046
 20
461.0053
 30
0.0
 11
321.4046
 21
494.6053
 31
0.0
  0
LINE
  5
1E8
100
AcDbEntity
  8
1
  6
CONTINUOUS
 62
     7
100
AcDbLine
 10
248.8046
 20
493.4053
 30
0.0
 11
321.4046
 21
493.4053
 31
0.0
  0
LINE
  5
1E9
100
AcDbEntity
  8
1
  6
CONTINUOUS
 62
     7
100
AcDbLine
 10
321.4046
 20
493.4053
 30
0.0
 11
331.0046
 21
493.4053
 31
0.0
  0
LINE
  5
1EA
100
AcDbEntity
  8
1
  6
CONTINUOUS
 62
     7
100
AcDbLine
 10
285.1046
 20
483.8053
 30
0.0
 11
248.8046
 21
483.8053
 31
0.0
  0
LINE
  5
1EB
100
AcDbEntity
  8
1
  6
CONTINUOUS
 62
     7
100
AcDbLine
 10
285.1046
 20
485.0053
 30
0.0
 11
285.1046
 21
458.0053
 31
0.0
  0
LINE
  5
1EC
100
AcDbEntity
  8
1
  6
CONTINUOUS
 62
     7
100
AcDbLine
 10
285.1046
 20
457.4053
 30
0.0
 11
285.1046
 21
456.2053
 31
0.0
  0
LINE
  5
1ED
100
AcDbEntity
  8
1
  6
CONTINUOUS
 62
     7
100
AcDbLine
 10
285.1046
 20
455.6053
 30
0.0
 11
285.1046
 21
449.0053
 31
0.0
  0
LINE
  5
1EE
100
AcDbEntity
  8
1
  6
CONTINUOUS
 62
     7
100
AcDbLine
 10
247.6046
 20
459.8053
 30
0.0
 11
234.4046
 21
459.8053
 31
0.0
  0
LINE
  5
1EF
100
AcDbEntity
  8
1
  6
CONTINUOUS
 62
     7
100
AcDbLine
 10
253.3046
 20
477.8053
 30
0.0
 11
234.4046
 21
477.8053
 31
0.0
  0
LINE
  5
1F0
100
AcDbEntity
  8
1
  6
CONTINUOUS
 62
     7
100
AcDbLine
 10
235.6046
 20
477.8053
 30
0.0
 11
235.6046
 21
459.8053
 31
0.0
  0
INSERT
  5
1F1
100
AcDbEntity
  8
1
  6
CONTINUOUS
 62
     1
100
AcDbBlockReference
  2
LDR
 10
235.6046
 20
477.8053
 30
0.0
 41
240.0
 42
240.0
 50
90.0
210
0.0
220
0.0
230
1.0
  0
INSERT
  5
1F2
100
AcDbEntity
  8
1
  6
CONTINUOUS
 62
     1
100
AcDbBlockReference
  2
LDR
 10
235.6046
 20
459.8053
 30
0.0
 41
240.0
 42
240.0
 50
270.0
210
0.0
220
0.0
230
1.0
  0
LINE
  5
1F3
100
AcDbEntity
  8
1
  6
CONTINUOUS
 62
     7
100
AcDbLine
 10
247.6046
 20
453.8053
 30
0.0
 11
222.4046
 21
453.8053
 31
0.0
  0
LINE
  5
1F4
100
AcDbEntity
  8
1
  6
CONTINUOUS
 62
     7
100
AcDbLine
 10
248.8046
 20
377.0053
 30
0.0
 11
222.4046
 21
377.0053
 31
0.0
  0
LINE
  5
1F5
100
AcDbEntity
  8
1
  6
CONTINUOUS
 62
     7
100
AcDbLine
 10
223.6046
 20
453.8053
 30
0.0
 11
223.6046
 21
377.0053
 31
0.0
  0
INSERT
  5
1F6
100
AcDbEntity
  8
1
  6
CONTINUOUS
 62
     1
100
AcDbBlockReference
  2
LDR
 10
223.6046
 20
453.8053
 30
0.0
 41
240.0
 42
240.0
 50
90.0
210
0.0
220
0.0
230
1.0
  0
INSERT
  5
1F7
100
AcDbEntity
  8
1
  6
CONTINUOUS
 62
     1
100
AcDbBlockReference
  2
LDR
 10
223.6046
 20
453.8053
 30
0.0
 41
240.0
 42
240.0
 50
90.0
210
0.0
220
0.0
230
1.0
  0
INSERT
  5
1F8
100
AcDbEntity
  8
1
  6
CONTINUOUS
 62
     1
100
AcDbBlockReference
  2
LDR
 10
223.6046
 20
377.0053
 30
0.0
 41
240.0
 42
240.0
 50
270.0
210
0.0
220
0.0
230
1.0
  0
LINE
  5
1F9
100
AcDbEntity
  8
1
  6
CONTINUOUS
 62
     7
100
AcDbLine
 10
247.6046
 20
401.0053
 30
0.0
 11
233.2046
 21
401.0053
 31
0.0
  0
LINE
  5
1FA
100
AcDbEntity
  8
1
  6
CONTINUOUS
 62
     7
100
AcDbLine
 10
234.4046
 20
401.0053
 30
0.0
 11
234.4046
 21
453.8053
 31
0.0
  0
LINE
  5
1FB
100
AcDbEntity
  8
1
  6
CONTINUOUS
 62
     7
100
AcDbLine
 10
234.4046
 20
401.0053
 30
0.0
 11
234.4046
 21
377.0053
 31
0.0
  0
INSERT
  5
1FC
100
AcDbEntity
  8
1
  6
CONTINUOUS
 62
     1
100
AcDbBlockReference
  2
LDR
 10
234.4046
 20
453.8053
 30
0.0
 41
240.0
 42
240.0
 50
90.0
210
0.0
220
0.0
230
1.0
  0
INSERT
  5
1FD
100
AcDbEntity
  8
1
  6
CONTINUOUS
 62
     1
100
AcDbBlockReference
  2
LDR
 10
234.4046
 20
401.0053
 30
0.0
 41
240.0
 42
240.0
 50
270.0
210
0.0
220
0.0
230
1.0
  0
INSERT
  5
1FE
100
AcDbEntity
  8
1
  6
CONTINUOUS
 62
     1
100
AcDbBlockReference
  2
LDR
 10
234.4046
 20
401.0053
 30
0.0
 41
240.0
 42
240.0
 50
90.0
210
0.0
220
0.0
230
1.0
  0
INSERT
  5
1FF
100
AcDbEntity
  8
1
  6
CONTINUOUS
 62
     1
100
AcDbBlockReference
  2
LDR
 10
234.4046
 20
377.0053
 30
0.0
 41
240.0
 42
240.0
 50
270.0
210
0.0
220
0.0
230
1.0
  0
LINE
  5
200
100
AcDbEntity
  8
1
  6
CONTINUOUS
 62
     7
100
AcDbLine
 10
247.6046
 20
371.0053
 30
0.0
 11
233.2046
 21
371.0053
 31
0.0
  0
LINE
  5
201
100
AcDbEntity
  8
1
  6
CONTINUOUS
 62
     7
100
AcDbLine
 10
234.4046
 20
371.0053
 30
0.0
 11
234.4046
 21
365.0053
 31
0.0
  0
INSERT
  5
202
100
AcDbEntity
  8
1
  6
CONTINUOUS
 62
     1
100
AcDbBlockReference
  2
LDR
 10
234.4046
 20
371.0053
 30
0.0
 41
240.0
 42
240.0
 50
90.0
210
0.0
220
0.0
230
1.0
  0
LINE
  5
203
100
AcDbEntity
  8
1
  6
CONTINUOUS
 62
     7
100
AcDbLine
 10
242.8046
 20
427.4053
 30
0.0
 11
248.8046
 21
427.4053
 31
0.0
  0
LINE
  5
204
100
AcDbEntity
  8
1
  6
CONTINUOUS
 62
     7
100
AcDbLine
 10
251.8046
 20
427.4053
 30
0.0
 11
257.8046
 21
427.4053
 31
0.0
  0
INSERT
  5
205
100
AcDbEntity
  8
1
  6
CONTINUOUS
 62
     1
100
AcDbBlockReference
  2
LDR
 10
248.8046
 20
427.4053
 30
0.0
 41
240.0
 42
240.0
210
0.0
220
0.0
230
1.0
  0
INSERT
  5
206
100
AcDbEntity
  8
1
  6
CONTINUOUS
 62
     1
100
AcDbBlockReference
  2
LDR
 10
251.8046
 20
427.4053
 30
0.0
 41
240.0
 42
240.0
 50
180.0
210
0.0
220
0.0
230
1.0
  0
LINE
  5
207
100
AcDbEntity
  8
1
  6
CONTINUOUS
 62
     7
100
AcDbLine
 10
248.8046
 20
369.8053
 30
0.0
 11
248.8046
 21
336.2053
 31
0.0
  0
LINE
  5
208
100
AcDbEntity
  8
1
  6
CONTINUOUS
 62
     7
100
AcDbLine
 10
248.8046
 20
337.4053
 30
0.0
 11
294.1046
 21
337.4053
 31
0.0
  0
INSERT
  5
209
100
AcDbEntity
  8
1
  6
CONTINUOUS
 62
     1
100
AcDbBlockReference
  2
LDR
 10
248.8046
 20
337.4053
 30
0.0
 41
240.0
 42
240.0
 50
180.0
210
0.0
220
0.0
230
1.0
  0
INSERT
  5
20A
100
AcDbEntity
  8
1
  6
CONTINUOUS
 62
     1
100
AcDbBlockReference
  2
LDR
 10
294.1046
 20
337.4053
 30
0.0
 41
240.0
 42
240.0
210
0.0
220
0.0
230
1.0
  0
LINE
  5
20B
100
AcDbEntity
  8
1
  6
CONTINUOUS
 62
     7
100
AcDbLine
 10
248.8046
 20
348.2053
 30
0.0
 11
269.9546
 21
348.2053
 31
0.0
  0
LINE
  5
20C
100
AcDbEntity
  8
1
  6
CONTINUOUS
 62
     7
100
AcDbLine
 10
269.9546
 20
348.2053
 30
0.0
 11
316.3046
 21
348.2053
 31
0.0
  0
INSERT
  5
20D
100
AcDbEntity
  8
1
  6
CONTINUOUS
 62
     1
100
AcDbBlockReference
  2
LDR
 10
248.8046
 20
348.2053
 30
0.0
 41
240.0
 42
240.0
 50
180.0
210
0.0
220
0.0
230
1.0
  0
INSERT
  5
20E
100
AcDbEntity
  8
1
  6
CONTINUOUS
 62
     1
100
AcDbBlockReference
  2
LDR
 10
248.8046
 20
348.2053
 30
0.0
 41
240.0
 42
240.0
 50
180.0
210
0.0
220
0.0
230
1.0
  0
INSERT
  5
20F
100
AcDbEntity
  8
1
  6
CONTINUOUS
 62
     1
100
AcDbBlockReference
  2
LDR
 10
269.9546
 20
348.2053
 30
0.0
 41
240.0
 42
240.0
210
0.0
220
0.0
230
1.0
  0
INSERT
  5
210
100
AcDbEntity
  8
1
  6
CONTINUOUS
 62
     1
100
AcDbBlockReference
  2
LDR
 10
269.9546
 20
348.2053
 30
0.0
 41
240.0
 42
240.0
210
0.0
220
0.0
230
1.0
  0
INSERT
  5
211
100
AcDbEntity
  8
1
  6
CONTINUOUS
 62
     1
100
AcDbBlockReference
  2
LDR
 10
269.9546
 20
348.2053
 30
0.0
 41
240.0
 42
240.0
 50
180.0
210
0.0
220
0.0
230
1.0
  0
INSERT
  5
212
100
AcDbEntity
  8
1
  6
CONTINUOUS
 62
     1
100
AcDbBlockReference
  2
LDR
 10
269.9546
 20
348.2053
 30
0.0
 41
240.0
 42
240.0
 50
180.0
210
0.0
220
0.0
230
1.0
  0
INSERT
  5
213
100
AcDbEntity
  8
1
  6
CONTINUOUS
 62
     1
100
AcDbBlockReference
  2
LDR
 10
316.3046
 20
348.2053
 30
0.0
 41
240.0
 42
240.0
210
0.0
220
0.0
230
1.0
  0
LINE
  5
214
100
AcDbEntity
  8
1
  6
CONTINUOUS
 62
     7
100
AcDbLine
 10
294.1046
 20
347.5247
 30
0.0
 11
294.1046
 21
336.2053
 31
0.0
  0
LINE
  5
215
100
AcDbEntity
  8
1
  6
CONTINUOUS
 62
     7
100
AcDbLine
 10
269.9546
 20
380.6053
 30
0.0
 11
269.9546
 21
375.2053
 31
0.0
  0
LINE
  5
216
100
AcDbEntity
  8
1
  6
CONTINUOUS
 62
     7
100
AcDbLine
 10
269.9546
 20
374.6053
 30
0.0
 11
269.9546
 21
373.4053
 31
0.0
  0
LINE
  5
217
100
AcDbEntity
  8
1
  6
CONTINUOUS
 62
     7
100
AcDbLine
 10
294.1046
 20
383.0053
 30
0.0
 11
294.1046
 21
375.2053
 31
0.0
  0
LINE
  5
218
100
AcDbEntity
  8
1
  6
CONTINUOUS
 62
     7
100
AcDbLine
 10
294.1046
 20
374.6053
 30
0.0
 11
294.1046
 21
373.4053
 31
0.0
  0
LINE
  5
219
100
AcDbEntity
  8
1
  6
CONTINUOUS
 62
     7
100
AcDbLine
 10
294.1046
 20
372.8053
 30
0.0
 11
294.1046
 21
354.0877
 31
0.0
  0
LINE
  5
21A
100
AcDbEntity
  8
1
  6
CONTINUOUS
 62
     7
100
AcDbLine
 10
316.3046
 20
380.6053
 30
0.0
 11
316.3046
 21
375.2053
 31
0.0
  0
LINE
  5
21B
100
AcDbEntity
  8
1
  6
CONTINUOUS
 62
     7
100
AcDbLine
 10
316.3046
 20
374.6053
 30
0.0
 11
316.3046
 21
373.4053
 31
0.0
  0
LINE
  5
21C
100
AcDbEntity
  8
1
  6
CONTINUOUS
 62
     7
100
AcDbLine
 10
316.3046
 20
372.8053
 30
0.0
 11
316.3046
 21
347.0053
 31
0.0
  0
LINE
  5
21D
100
AcDbEntity
  8
1
  6
CONTINUOUS
 62
     7
100
AcDbLine
 10
330.2669
 20
377.8275
 30
0.0
 11
342.3995
 21
367.346
 31
0.0
  0
LINE
  5
21E
100
AcDbEntity
  8
1
  6
CONTINUOUS
 62
     7
100
AcDbLine
 10
342.3995
 20
367.346
 30
0.0
 11
345.186
 21
367.346
 31
0.0
  0
INSERT
  5
21F
100
AcDbEntity
  8
1
  6
CONTINUOUS
 62
     1
100
AcDbBlockReference
  2
LDR
 10
330.2669
 20
377.8275
 30
0.0
 41
240.0
 42
240.0
 50
139.175868
210
0.0
220
0.0
230
1.0
  0
LINE
  5
220
100
AcDbEntity
  8
1
  6
CONTINUOUS
 62
     7
100
AcDbLine
 10
265.0046
 20
394.8156
 30
0.0
 11
239.1068
 21
347.1228
 31
0.0
  0
LINE
  5
221
100
AcDbEntity
  8
1
  6
CONTINUOUS
 62
     7
100
AcDbLine
 10
248.8046
 20
390.8566
 30
0.0
 11
239.1068
 21
347.1228
 31
0.0
  0
INSERT
  5
222
100
AcDbEntity
  8
1
  6
CONTINUOUS
 62
     1
100
AcDbBlockReference
  2
LDR
 10
248.8046
 20
390.8566
 30
0.0
 41
240.000002
 42
240.000002
 50
77.497191
210
0.0
220
0.0
230
1.0
  0
INSERT
  5
223
100
AcDbEntity
  8
1
  6
CONTINUOUS
 62
     1
100
AcDbBlockReference
  2
LDR
 10
248.8046
 20
390.8566
 30
0.0
 41
240.000002
 42
240.000002
 50
77.497191
210
0.0
220
0.0
230
1.0
  0
INSERT
  5
224
100
AcDbEntity
  8
1
  6
CONTINUOUS
 62
     1
100
AcDbBlockReference
  2
LDR
 10
265.0046
 20
394.8156
 30
0.0
 41
240.0
 42
240.0
 50
61.497474
210
0.0
220
0.0
230
1.0
  0
LINE
  5
225
100
AcDbEntity
  8
1
  6
CONTINUOUS
 62
     7
100
AcDbLine
 10
239.1068
 20
347.1228
 30
0.0
 11
230.0215
 21
347.1228
 31
0.0
  0
LINE
  5
226
100
AcDbEntity
  8
1
  6
CONTINUOUS
 62
     7
100
AcDbLine
 10
315.5405
 20
427.5218
 30
0.0
 11
323.146
 21
428.344
 31
0.0
  0
LINE
  5
227
100
AcDbEntity
  8
1
  6
CONTINUOUS
 62
     7
100
AcDbLine
 10
324.7866
 20
428.5213
 30
0.0
 11
331.2066
 21
429.215
 31
0.0
  0
LINE
  5
228
100
AcDbEntity
  8
1
  6
CONTINUOUS
 62
     7
100
AcDbLine
 10
316.2881
 20
420.6064
 30
0.0
 11
322.2534
 21
421.2513
 31
0.0
  0
LINE
  5
229
100
AcDbEntity
  8
1
  6
CONTINUOUS
 62
     7
100
AcDbLine
 10
325.5342
 20
421.6058
 30
0.0
 11
331.6161
 21
422.263
 31
0.0
  0
INSERT
  5
22A
100
AcDbEntity
  8
1
  6
CONTINUOUS
 62
     1
100
AcDbBlockReference
  2
LDR
 10
323.146
 20
428.344
 30
0.0
 41
240.000002
 42
240.000002
 50
6.170055
210
0.0
220
0.0
230
1.0
  0
INSERT
  5
22B
100
AcDbEntity
  8
1
  6
CONTINUOUS
 62
     1
100
AcDbBlockReference
  2
LDR
 10
323.146
 20
428.344
 30
0.0
 41
240.000002
 42
240.000002
 50
6.170055
210
0.0
220
0.0
230
1.0
  0
INSERT
  5
22C
100
AcDbEntity
  8
1
  6
CONTINUOUS
 62
     1
100
AcDbBlockReference
  2
LDR
 10
324.7866
 20
428.5213
 30
0.0
 41
240.0
 42
240.0
 50
186.167455
210
0.0
220
0.0
230
1.0
  0
INSERT
  5
22D
100
AcDbEntity
  8
1
  6
CONTINUOUS
 62
     1
100
AcDbBlockReference
  2
LDR
 10
324.7866
 20
428.5213
 30
0.0
 41
240.0
 42
240.0
 50
186.167455
210
0.0
220
0.0
230
1.0
  0
INSERT
  5
22E
100
AcDbEntity
  8
1
  6
CONTINUOUS
 62
     1
100
AcDbBlockReference
  2
LDR
 10
325.5342
 20
421.6058
 30
0.0
 41
240.0
 42
240.0
 50
186.167455
210
0.0
220
0.0
230
1.0
  0
INSERT
  5
22F
100
AcDbEntity
  8
1
  6
CONTINUOUS
 62
     1
100
AcDbBlockReference
  2
LDR
 10
325.5342
 20
421.6058
 30
0.0
 41
240.0
 42
240.0
 50
186.167455
210
0.0
220
0.0
230
1.0
  0
INSERT
  5
230
100
AcDbEntity
  8
1
  6
CONTINUOUS
 62
     1
100
AcDbBlockReference
  2
LDR
 10
322.2534
 20
421.2513
 30
0.0
 41
240.000002
 42
240.000002
 50
6.170201
210
0.0
220
0.0
230
1.0
  0
INSERT
  5
231
100
AcDbEntity
  8
1
  6
CONTINUOUS
 62
     1
100
AcDbBlockReference
  2
LDR
 10
322.2534
 20
421.2513
 30
0.0
 41
240.000002
 42
240.000002
 50
6.170201
210
0.0
220
0.0
230
1.0
  0
INSERT
  5
232
100
AcDbEntity
  8
1
  6
CONTINUOUS
 62
     1
100
AcDbBlockReference
  2
LDR
 10
248.8046
 20
493.4053
 30
0.0
 41
240.0
 42
240.0
 50
180.0
210
0.0
220
0.0
230
1.0
  0
INSERT
  5
233
100
AcDbEntity
  8
1
  6
CONTINUOUS
 62
     1
100
AcDbBlockReference
  2
LDR
 10
248.8046
 20
493.4053
 30
0.0
 41
240.0
 42
240.0
 50
180.0
210
0.0
220
0.0
230
1.0
  0
INSERT
  5
234
100
AcDbEntity
  8
1
  6
CONTINUOUS
 62
     1
100
AcDbBlockReference
  2
LDR
 10
248.8046
 20
483.8053
 30
0.0
 41
240.0
 42
240.0
 50
180.0
210
0.0
220
0.0
230
1.0
  0
INSERT
  5
235
100
AcDbEntity
  8
1
  6
CONTINUOUS
 62
     1
100
AcDbBlockReference
  2
LDR
 10
248.8046
 20
483.8053
 30
0.0
 41
240.0
 42
240.0
 50
180.0
210
0.0
220
0.0
230
1.0
  0
INSERT
  5
236
100
AcDbEntity
  8
1
  6
CONTINUOUS
 62
     1
100
AcDbBlockReference
  2
LDR
 10
285.1046
 20
483.8053
 30
0.0
 41
240.0
 42
240.0
210
0.0
220
0.0
230
1.0
  0
INSERT
  5
237
100
AcDbEntity
  8
1
  6
CONTINUOUS
 62
     1
100
AcDbBlockReference
  2
LDR
 10
285.1046
 20
483.8053
 30
0.0
 41
240.0
 42
240.0
210
0.0
220
0.0
230
1.0
  0
INSERT
  5
238
100
AcDbEntity
  8
1
  6
CONTINUOUS
 62
     1
100
AcDbBlockReference
  2
LDR
 10
321.4046
 20
493.4053
 30
0.0
 41
240.0
 42
240.0
210
0.0
220
0.0
230
1.0
  0
INSERT
  5
239
100
AcDbEntity
  8
1
  6
CONTINUOUS
 62
     1
100
AcDbBlockReference
  2
LDR
 10
321.4046
 20
493.4053
 30
0.0
 41
240.0
 42
240.0
210
0.0
220
0.0
230
1.0
  0
INSERT
  5
23A
100
AcDbEntity
  8
1
  6
CONTINUOUS
 62
     1
100
AcDbBlockReference
  2
LDR
 10
321.4046
 20
493.4053
 30
0.0
 41
240.0
 42
240.0
 50
180.0
210
0.0
220
0.0
230
1.0
  0
INSERT
  5
23B
100
AcDbEntity
  8
1
  6
CONTINUOUS
 62
     1
100
AcDbBlockReference
  2
LDR
 10
321.4046
 20
493.4053
 30
0.0
 41
240.0
 42
240.0
 50
180.0
210
0.0
220
0.0
230
1.0
  0
INSERT
  5
23C
100
AcDbEntity
  8
1
  6
CONTINUOUS
 62
     1
100
AcDbBlockReference
  2
LDR
 10
331.0046
 20
493.4053
 30
0.0
 41
240.0
 42
240.0
210
0.0
220
0.0
230
1.0
  0
LINE
  5
23D
100
AcDbEntity
  8
1
  6
CONTINUOUS
 62
     7
100
AcDbLine
 10
283.5221
 20
408.6892
 30
0.0
 11
278.6821
 21
391.2957
 31
0.0
  0
LINE
  5
23E
100
AcDbEntity
  8
1
  6
CONTINUOUS
 62
     7
100
AcDbLine
 10
278.6821
 20
391.2957
 30
0.0
 11
282.4409
 21
391.2957
 31
0.0
  0
INSERT
  5
23F
100
AcDbEntity
  8
1
  6
CONTINUOUS
 62
     1
100
AcDbBlockReference
  2
LDR
 10
283.5221
 20
408.6892
 30
0.0
 41
240.000002
 42
240.000002
 50
74.449983
210
0.0
220
0.0
230
1.0
  0
LINE
  5
240
100
AcDbEntity
  8
1
  6
CONTINUOUS
 62
     7
100
AcDbLine
 10
260.5046
 20
369.8053
 30
0.0
 11
260.5046
 21
356.8998
 31
0.0
  0
LINE
  5
241
100
AcDbEntity
  8
1
  6
CONTINUOUS
 62
     7
100
AcDbLine
 10
260.5046
 20
358.0998
 30
0.0
 11
248.8046
 21
358.0998
 31
0.0
  0
INSERT
  5
242
100
AcDbEntity
  8
1
  6
CONTINUOUS
 62
     1
100
AcDbBlockReference
  2
LDR
 10
248.8046
 20
358.0998
 30
0.0
 41
240.0
 42
240.0
 50
180.0
210
0.0
220
0.0
230
1.0
  0
INSERT
  5
243
100
AcDbEntity
  8
1
  6
CONTINUOUS
 62
     1
100
AcDbBlockReference
  2
LDR
 10
248.8046
 20
358.0998
 30
0.0
 41
240.0
 42
240.0
 50
180.0
210
0.0
220
0.0
230
1.0
  0
INSERT
  5
244
100
AcDbEntity
  8
1
  6
CONTINUOUS
 62
     1
100
AcDbBlockReference
  2
LDR
 10
260.5046
 20
358.0998
 30
0.0
 41
240.0
 42
240.0
210
0.0
220
0.0
230
1.0
  0
TEXT
  5
245
100
AcDbEntity
  8
1
  6
CONTINUOUS
 62
     7
100
AcDbText
 10
192.679
 20
346.0717
 30
0.0
 40
3.0
  1
VARIES AS PER
  7
MONOTXT
 72
     4
 11
210.4073
 21
347.5717
 31
0.0
210
0.0
220
0.0
230
1.0
100
AcDbText
  0
TEXT
  5
246
100
AcDbEntity
  8
1
  6
CONTINUOUS
 62
     7
100
AcDbText
 10
195.8679
 20
340.6717
 30
0.0
 40
3.0
  1
WALL DETAIL
  7
MONOTXT
 72
     4
 11
210.4072
 21
342.1717
 31
0.0
210
0.0
220
0.0
230
1.0
100
AcDbText
  0
TEXT
  5
247
100
AcDbEntity
  8
1
  6
CONTINUOUS
 62
     7
100
AcDbText
 10
236.2639
 20
372.2894
 30
0.0
 40
3.0
  1
1"
 50
90.0
  7
MONOTXT
 72
     4
 11
234.7639
 21
373.7658
 31
0.0
210
0.0
220
0.0
230
1.0
100
AcDbText
  0
LINE
  5
248
100
AcDbEntity
  8
1
  6
CONTINUOUS
 62
     7
100
AcDbLine
 10
257.383
 20
316.7146
 30
0.0
 11
334.2721
 21
316.7146
 31
0.0
  0
TEXT
  5
249
100
AcDbEntity
  8
1
  6
CONTINUOUS
 62
     7
100
AcDbText
 10
258.1377
 20
319.0342
 30
0.0
 40
4.8
  1
TYPE "F" SIDE VIEW
  7
MONOTXT
 72
     4
 11
296.0274
 21
321.4342
 31
0.0
210
0.0
220
0.0
230
1.0
100
AcDbText
  0
LINE
  5
24A
100
AcDbEntity
  8
1
  6
CONTINUOUS
 62
     2
100
AcDbLine
 10
410.8652
 20
459.8053
 30
0.0
 11
410.8652
 21
387.8053
 31
0.0
  0
LINE
  5
24B
100
AcDbEntity
  8
1
  6
CONTINUOUS
 62
     2
100
AcDbLine
 10
410.8652
 20
387.8053
 30
0.0
 11
482.8652
 21
387.8053
 31
0.0
  0
LINE
  5
24C
100
AcDbEntity
  8
1
  6
CONTINUOUS
 62
     2
100
AcDbLine
 10
482.8652
 20
387.8053
 30
0.0
 11
482.8652
 21
459.8053
 31
0.0
  0
LINE
  5
24D
100
AcDbEntity
  8
1
  6
CONTINUOUS
 62
     2
100
AcDbLine
 10
482.8652
 20
459.8053
 30
0.0
 11
410.8652
 21
459.8053
 31
0.0
  0
LINE
  5
24E
100
AcDbEntity
  8
1
  6
HIDDEN
 62
     2
100
AcDbLine
 10
413.8652
 20
456.8053
 30
0.0
 11
413.8652
 21
390.8053
 31
0.0
  0
LINE
  5
24F
100
AcDbEntity
  8
1
  6
HIDDEN
 62
     2
100
AcDbLine
 10
479.8652
 20
456.8053
 30
0.0
 11
413.8652
 21
456.8053
 31
0.0
  0
LINE
  5
250
100
AcDbEntity
  8
1
  6
HIDDEN
 62
     2
100
AcDbLine
 10
479.8652
 20
390.8053
 30
0.0
 11
479.8652
 21
456.8053
 31
0.0
  0
LINE
  5
251
100
AcDbEntity
  8
1
  6
HIDDEN
 62
     2
100
AcDbLine
 10
413.8652
 20
390.8053
 30
0.0
 11
479.8652
 21
390.8053
 31
0.0
  0
LINE
  5
252
100
AcDbEntity
  8
1
  6
CONTINUOUS
 62
     2
100
AcDbLine
 10
422.8652
 20
449.0053
 30
0.0
 11
422.8652
 21
446.6053
 31
0.0
  0
LINE
  5
253
100
AcDbEntity
  8
1
  6
CONTINUOUS
 62
     2
100
AcDbLine
 10
422.8652
 20
401.0053
 30
0.0
 11
422.8652
 21
398.6053
 31
0.0
  0
LINE
  5
254
100
AcDbEntity
  8
1
  6
CONTINUOUS
 62
     2
100
AcDbLine
 10
472.0652
 20
447.8053
 30
0.0
 11
469.6652
 21
447.8053
 31
0.0
  0
LINE
  5
255
100
AcDbEntity
  8
1
  6
CONTINUOUS
 62
     2
100
AcDbLine
 10
424.0652
 20
447.8053
 30
0.0
 11
421.6652
 21
447.8053
 31
0.0
  0
LINE
  5
256
100
AcDbEntity
  8
1
  6
CONTINUOUS
 62
     2
100
AcDbLine
 10
470.8652
 20
398.6053
 30
0.0
 11
470.8652
 21
401.0053
 31
0.0
  0
LINE
  5
257
100
AcDbEntity
  8
1
  6
CONTINUOUS
 62
     2
100
AcDbLine
 10
470.8652
 20
446.6053
 30
0.0
 11
470.8652
 21
449.0053
 31
0.0
  0
LINE
  5
258
100
AcDbEntity
  8
1
  6
CONTINUOUS
 62
     2
100
AcDbLine
 10
421.6652
 20
399.8053
 30
0.0
 11
424.0652
 21
399.8053
 31
0.0
  0
LINE
  5
259
100
AcDbEntity
  8
1
  6
CONTINUOUS
 62
     2
100
AcDbLine
 10
469.6652
 20
399.8053
 30
0.0
 11
472.0652
 21
399.8053
 31
0.0
  0
LINE
  5
25A
100
AcDbEntity
  8
1
  6
CONTINUOUS
 62
     7
100
AcDbLine
 10
422.8652
 20
450.2053
 30
0.0
 11
422.8652
 21
456.2053
 31
0.0
  0
LINE
  5
25B
100
AcDbEntity
  8
1
  6
CONTINUOUS
 62
     7
100
AcDbLine
 10
425.2652
 20
447.8053
 30
0.0
 11
431.2652
 21
447.8053
 31
0.0
  0
LINE
  5
25C
100
AcDbEntity
  8
1
  6
CONTINUOUS
 62
     7
100
AcDbLine
 10
422.8652
 20
445.4053
 30
0.0
 11
422.8652
 21
439.4053
 31
0.0
  0
LINE
  5
25D
100
AcDbEntity
  8
1
  6
CONTINUOUS
 62
     7
100
AcDbLine
 10
420.4652
 20
447.8053
 30
0.0
 11
414.4652
 21
447.8053
 31
0.0
  0
LINE
  5
25E
100
AcDbEntity
  8
1
  6
CONTINUOUS
 62
     7
100
AcDbLine
 10
470.8652
 20
450.2053
 30
0.0
 11
470.8652
 21
456.2053
 31
0.0
  0
LINE
  5
25F
100
AcDbEntity
  8
1
  6
CONTINUOUS
 62
     7
100
AcDbLine
 10
473.2652
 20
447.8053
 30
0.0
 11
479.2652
 21
447.8053
 31
0.0
  0
LINE
  5
260
100
AcDbEntity
  8
1
  6
CONTINUOUS
 62
     7
100
AcDbLine
 10
470.8652
 20
445.4053
 30
0.0
 11
470.8652
 21
439.4053
 31
0.0
  0
LINE
  5
261
100
AcDbEntity
  8
1
  6
CONTINUOUS
 62
     7
100
AcDbLine
 10
468.4652
 20
447.8053
 30
0.0
 11
462.4652
 21
447.8053
 31
0.0
  0
LINE
  5
262
100
AcDbEntity
  8
1
  6
CONTINUOUS
 62
     7
100
AcDbLine
 10
422.8652
 20
402.2053
 30
0.0
 11
422.8652
 21
408.2053
 31
0.0
  0
LINE
  5
263
100
AcDbEntity
  8
1
  6
CONTINUOUS
 62
     7
100
AcDbLine
 10
425.2652
 20
399.8053
 30
0.0
 11
431.2652
 21
399.8053
 31
0.0
  0
LINE
  5
264
100
AcDbEntity
  8
1
  6
CONTINUOUS
 62
     7
100
AcDbLine
 10
422.8652
 20
397.4053
 30
0.0
 11
422.8652
 21
391.4053
 31
0.0
  0
LINE
  5
265
100
AcDbEntity
  8
1
  6
CONTINUOUS
 62
     7
100
AcDbLine
 10
420.4652
 20
399.8053
 30
0.0
 11
414.4652
 21
399.8053
 31
0.0
  0
LINE
  5
266
100
AcDbEntity
  8
1
  6
CONTINUOUS
 62
     7
100
AcDbLine
 10
470.8652
 20
402.2053
 30
0.0
 11
470.8652
 21
408.2053
 31
0.0
  0
LINE
  5
267
100
AcDbEntity
  8
1
  6
CONTINUOUS
 62
     7
100
AcDbLine
 10
473.2652
 20
399.8053
 30
0.0
 11
479.2652
 21
399.8053
 31
0.0
  0
LINE
  5
268
100
AcDbEntity
  8
1
  6
CONTINUOUS
 62
     7
100
AcDbLine
 10
470.8652
 20
397.4053
 30
0.0
 11
470.8652
 21
391.4053
 31
0.0
  0
LINE
  5
269
100
AcDbEntity
  8
1
  6
CONTINUOUS
 62
     7
100
AcDbLine
 10
468.4652
 20
399.8053
 30
0.0
 11
462.4652
 21
399.8053
 31
0.0
  0
CIRCLE
  5
26A
100
AcDbEntity
  8
1
  6
CONTINUOUS
 62
     2
100
AcDbCircle
 10
422.8652
 20
447.8053
 30
0.0
 40
2.7
210
0.0
220
0.0
230
1.0
  0
CIRCLE
  5
26B
100
AcDbEntity
  8
1
  6
CONTINUOUS
 62
     2
100
AcDbCircle
 10
470.8652
 20
447.8053
 30
0.0
 40
2.7
210
0.0
220
0.0
230
1.0
  0
CIRCLE
  5
26C
100
AcDbEntity
  8
1
  6
CONTINUOUS
 62
     2
100
AcDbCircle
 10
422.8652
 20
399.8053
 30
0.0
 40
2.7
210
0.0
220
0.0
230
1.0
  0
CIRCLE
  5
26D
100
AcDbEntity
  8
1
  6
CONTINUOUS
 62
     2
100
AcDbCircle
 10
470.8652
 20
399.8053
 30
0.0
 40
2.7
210
0.0
220
0.0
230
1.0
  0
ARC
  5
26E
100
AcDbEntity
  8
1
  6
CONTINUOUS
 62
     7
100
AcDbCircle
 10
446.8652
 20
423.8053
 30
0.0
 40
34.2
210
0.0
220
0.0
230
1.0
100
AcDbArc
 50
118.694414
 51
151.305586
  0
ARC
  5
26F
100
AcDbEntity
  8
1
  6
CONTINUOUS
 62
     7
100
AcDbCircle
 10
446.8652
 20
423.8053
 30
0.0
 40
34.2
210
0.0
220
0.0
230
1.0
100
AcDbArc
 50
28.694414
 51
61.305586
  0
ARC
  5
270
100
AcDbEntity
  8
1
  6
CONTINUOUS
 62
     7
100
AcDbCircle
 10
446.8652
 20
423.8053
 30
0.0
 40
34.2
210
0.0
220
0.0
230
1.0
100
AcDbArc
 50
208.694414
 51
241.305586
  0
ARC
  5
271
100
AcDbEntity
  8
1
  6
CONTINUOUS
 62
     7
100
AcDbCircle
 10
446.8652
 20
423.8053
 30
0.0
 40
34.2
210
0.0
220
0.0
230
1.0
100
AcDbArc
 50
298.694414
 51
331.305586
  0
INSERT
  5
272
100
AcDbEntity
  8
1
  6
CONTINUOUS
 62
     1
100
AcDbBlockReference
  2
LDR
 10
418.6652
 20
404.4559
 30
0.0
 41
240.000001
 42
240.000001
 50
214.455925
210
0.0
220
0.0
230
1.0
  0
INSERT
  5
273
100
AcDbEntity
  8
1
  6
CONTINUOUS
 62
     1
100
AcDbBlockReference
  2
LDR
 10
475.0652
 20
443.1547
 30
0.0
 41
240.000001
 42
240.000001
 50
34.455925
210
0.0
220
0.0
230
1.0
  0
LINE
  5
274
100
AcDbEntity
  8
1
  6
CONTINUOUS
 62
     2
100
AcDbLine
 10
437.8652
 20
432.8053
 30
0.0
 11
437.8652
 21
414.8053
 31
0.0
  0
LINE
  5
275
100
AcDbEntity
  8
1
  6
CONTINUOUS
 62
     2
100
AcDbLine
 10
455.8652
 20
414.8053
 30
0.0
 11
455.8652
 21
432.8053
 31
0.0
  0
LINE
  5
276
100
AcDbEntity
  8
1
  6
CONTINUOUS
 62
     2
100
AcDbLine
 10
455.8652
 20
432.8053
 30
0.0
 11
437.8652
 21
432.8053
 31
0.0
  0
LINE
  5
277
100
AcDbEntity
  8
1
  6
CONTINUOUS
 62
     2
100
AcDbLine
 10
437.8652
 20
414.8053
 30
0.0
 11
455.8652
 21
414.8053
 31
0.0
  0
LINE
  5
278
100
AcDbEntity
  8
1
  6
CONTINUOUS
 62
     7
100
AcDbLine
 10
418.6652
 20
404.4559
 30
0.0
 11
439.444
 21
418.7132
 31
0.0
  0
LINE
  5
279
100
AcDbEntity
  8
1
  6
CONTINUOUS
 62
     7
100
AcDbLine
 10
441.423
 20
420.0712
 30
0.0
 11
452.3073
 21
427.5394
 31
0.0
  0
LINE
  5
27A
100
AcDbEntity
  8
1
  6
CONTINUOUS
 62
     7
100
AcDbLine
 10
454.2861
 20
428.8971
 30
0.0
 11
475.0652
 21
443.1547
 31
0.0
  0
LINE
  5
27B
100
AcDbEntity
  8
1
  6
CONTINUOUS
 62
     7
100
AcDbLine
 10
437.8652
 20
413.6053
 30
0.0
 11
437.8652
 21
402.8053
 31
0.0
  0
LINE
  5
27C
100
AcDbEntity
  8
1
  6
CONTINUOUS
 62
     7
100
AcDbLine
 10
455.8652
 20
413.6053
 30
0.0
 11
455.8652
 21
402.8053
 31
0.0
  0
LINE
  5
27D
100
AcDbEntity
  8
1
  6
CONTINUOUS
 62
     7
100
AcDbLine
 10
437.8652
 20
404.0053
 30
0.0
 11
455.8652
 21
404.0053
 31
0.0
  0
INSERT
  5
27E
100
AcDbEntity
  8
1
  6
CONTINUOUS
 62
     1
100
AcDbBlockReference
  2
LDR
 10
437.8652
 20
404.0053
 30
0.0
 41
240.0
 42
240.0
 50
180.0
210
0.0
220
0.0
230
1.0
  0
INSERT
  5
27F
100
AcDbEntity
  8
1
  6
CONTINUOUS
 62
     1
100
AcDbBlockReference
  2
LDR
 10
437.8652
 20
404.0053
 30
0.0
 41
240.0
 42
240.0
 50
180.0
210
0.0
220
0.0
230
1.0
  0
INSERT
  5
280
100
AcDbEntity
  8
1
  6
CONTINUOUS
 62
     1
100
AcDbBlockReference
  2
LDR
 10
455.8652
 20
404.0053
 30
0.0
 41
240.0
 42
240.0
210
0.0
220
0.0
230
1.0
  0
LINE
  5
281
100
AcDbEntity
  8
1
  6
CONTINUOUS
 62
     7
100
AcDbLine
 10
484.0652
 20
459.8053
 30
0.0
 11
511.6652
 21
459.8053
 31
0.0
  0
LINE
  5
282
100
AcDbEntity
  8
1
  6
CONTINUOUS
 62
     7
100
AcDbLine
 10
484.0652
 20
387.8053
 30
0.0
 11
511.6652
 21
387.8053
 31
0.0
  0
LINE
  5
283
100
AcDbEntity
  8
1
  6
CONTINUOUS
 62
     7
100
AcDbLine
 10
484.0652
 20
399.8053
 30
0.0
 11
500.8652
 21
399.8053
 31
0.0
  0
LINE
  5
284
100
AcDbEntity
  8
1
  6
CONTINUOUS
 62
     7
100
AcDbLine
 10
484.0652
 20
447.8053
 30
0.0
 11
500.8652
 21
447.8053
 31
0.0
  0
LINE
  5
285
100
AcDbEntity
  8
1
  6
CONTINUOUS
 62
     7
100
AcDbLine
 10
510.4652
 20
459.8053
 30
0.0
 11
510.4652
 21
387.8053
 31
0.0
  0
LINE
  5
286
100
AcDbEntity
  8
1
  6
CONTINUOUS
 62
     7
100
AcDbLine
 10
499.6652
 20
447.8053
 30
0.0
 11
499.6652
 21
399.8053
 31
0.0
  0
INSERT
  5
287
100
AcDbEntity
  8
1
  6
CONTINUOUS
 62
     1
100
AcDbBlockReference
  2
LDR
 10
510.4652
 20
459.8053
 30
0.0
 41
240.0
 42
240.0
 50
90.0
210
0.0
220
0.0
230
1.0
  0
INSERT
  5
288
100
AcDbEntity
  8
1
  6
CONTINUOUS
 62
     1
100
AcDbBlockReference
  2
LDR
 10
510.4652
 20
459.8053
 30
0.0
 41
240.0
 42
240.0
 50
90.0
210
0.0
220
0.0
230
1.0
  0
INSERT
  5
289
100
AcDbEntity
  8
1
  6
CONTINUOUS
 62
     1
100
AcDbBlockReference
  2
LDR
 10
499.6652
 20
447.8053
 30
0.0
 41
240.0
 42
240.0
 50
90.0
210
0.0
220
0.0
230
1.0
  0
INSERT
  5
28A
100
AcDbEntity
  8
1
  6
CONTINUOUS
 62
     1
100
AcDbBlockReference
  2
LDR
 10
499.6652
 20
447.8053
 30
0.0
 41
240.0
 42
240.0
 50
90.0
210
0.0
220
0.0
230
1.0
  0
INSERT
  5
28B
100
AcDbEntity
  8
1
  6
CONTINUOUS
 62
     1
100
AcDbBlockReference
  2
LDR
 10
499.6652
 20
399.8053
 30
0.0
 41
240.0
 42
240.0
 50
270.0
210
0.0
220
0.0
230
1.0
  0
INSERT
  5
28C
100
AcDbEntity
  8
1
  6
CONTINUOUS
 62
     1
100
AcDbBlockReference
  2
LDR
 10
499.6652
 20
399.8053
 30
0.0
 41
240.0
 42
240.0
 50
270.0
210
0.0
220
0.0
230
1.0
  0
INSERT
  5
28D
100
AcDbEntity
  8
1
  6
CONTINUOUS
 62
     1
100
AcDbBlockReference
  2
LDR
 10
510.4652
 20
387.8053
 30
0.0
 41
240.0
 42
240.0
 50
270.0
210
0.0
220
0.0
230
1.0
  0
LINE
  5
28E
100
AcDbEntity
  8
1
  6
CONTINUOUS
 62
     7
100
AcDbLine
 10
410.8652
 20
386.6053
 30
0.0
 11
410.8652
 21
359.0053
 31
0.0
  0
LINE
  5
28F
100
AcDbEntity
  8
1
  6
CONTINUOUS
 62
     7
100
AcDbLine
 10
482.8652
 20
386.6053
 30
0.0
 11
482.8652
 21
359.0053
 31
0.0
  0
LINE
  5
290
100
AcDbEntity
  8
1
  6
CONTINUOUS
 62
     7
100
AcDbLine
 10
422.8652
 20
386.6053
 30
0.0
 11
422.8652
 21
369.8053
 31
0.0
  0
LINE
  5
291
100
AcDbEntity
  8
1
  6
CONTINUOUS
 62
     7
100
AcDbLine
 10
470.8652
 20
386.6053
 30
0.0
 11
470.8652
 21
369.8053
 31
0.0
  0
LINE
  5
292
100
AcDbEntity
  8
1
  6
CONTINUOUS
 62
     7
100
AcDbLine
 10
422.8652
 20
371.0053
 30
0.0
 11
470.8652
 21
371.0053
 31
0.0
  0
LINE
  5
293
100
AcDbEntity
  8
1
  6
CONTINUOUS
 62
     7
100
AcDbLine
 10
410.8652
 20
360.2053
 30
0.0
 11
482.8652
 21
360.2053
 31
0.0
  0
INSERT
  5
294
100
AcDbEntity
  8
1
  6
CONTINUOUS
 62
     1
100
AcDbBlockReference
  2
LDR
 10
422.8652
 20
371.0053
 30
0.0
 41
240.0
 42
240.0
 50
180.0
210
0.0
220
0.0
230
1.0
  0
INSERT
  5
295
100
AcDbEntity
  8
1
  6
CONTINUOUS
 62
     1
100
AcDbBlockReference
  2
LDR
 10
422.8652
 20
371.0053
 30
0.0
 41
240.0
 42
240.0
 50
180.0
210
0.0
220
0.0
230
1.0
  0
INSERT
  5
296
100
AcDbEntity
  8
1
  6
CONTINUOUS
 62
     1
100
AcDbBlockReference
  2
LDR
 10
470.8652
 20
371.0053
 30
0.0
 41
240.0
 42
240.0
210
0.0
220
0.0
230
1.0
  0
INSERT
  5
297
100
AcDbEntity
  8
1
  6
CONTINUOUS
 62
     1
100
AcDbBlockReference
  2
LDR
 10
470.8652
 20
371.0053
 30
0.0
 41
240.0
 42
240.0
210
0.0
220
0.0
230
1.0
  0
INSERT
  5
298
100
AcDbEntity
  8
1
  6
CONTINUOUS
 62
     1
100
AcDbBlockReference
  2
LDR
 10
482.8652
 20
360.2053
 30
0.0
 41
240.0
 42
240.0
210
0.0
220
0.0
230
1.0
  0
INSERT
  5
299
100
AcDbEntity
  8
1
  6
CONTINUOUS
 62
     1
100
AcDbBlockReference
  2
LDR
 10
482.8652
 20
360.2053
 30
0.0
 41
240.0
 42
240.0
210
0.0
220
0.0
230
1.0
  0
INSERT
  5
29A
100
AcDbEntity
  8
1
  6
CONTINUOUS
 62
     1
100
AcDbBlockReference
  2
LDR
 10
410.8652
 20
360.2053
 30
0.0
 41
240.0
 42
240.0
 50
180.0
210
0.0
220
0.0
230
1.0
  0
LINE
  5
29B
100
AcDbEntity
  8
1
  6
CONTINUOUS
 62
     7
100
AcDbLine
 10
423.918
 20
450.2916
 30
0.0
 11
436.2359
 21
472.8042
 31
0.0
  0
LINE
  5
29C
100
AcDbEntity
  8
1
  6
CONTINUOUS
 62
     7
100
AcDbLine
 10
436.2359
 20
472.8042
 30
0.0
 11
427.3246
 21
472.8042
 31
0.0
  0
INSERT
  5
29D
100
AcDbEntity
  8
1
  6
CONTINUOUS
 62
     1
100
AcDbBlockReference
  2
LDR
 10
423.918
 20
450.2916
 30
0.0
 41
239.999999
 42
239.999999
 50
241.314469
210
0.0
220
0.0
230
1.0
  0
TEXT
  5
29E
100
AcDbEntity
  8
1
  6
CONTINUOUS
 62
     7
100
AcDbText
 10
438.8033
 20
371.8793
 30
0.0
 40
3.0
  1
VARIES
  7
MONOTXT
 72
     4
 11
446.256
 21
373.3793
 31
0.0
210
0.0
220
0.0
230
1.0
100
AcDbText
  0
TEXT
  5
29F
100
AcDbEntity
  8
1
  6
CONTINUOUS
 62
     7
100
AcDbText
 10
498.8489
 20
415.3364
 30
0.0
 40
3.0
  1
VARIES
 50
90.0
  7
MONOTXT
 72
     4
 11
497.3489
 21
422.7891
 31
0.0
210
0.0
220
0.0
230
1.0
100
AcDbText
  0
TEXT
  5
2A0
100
AcDbEntity
  8
1
  6
CONTINUOUS
 62
     7
100
AcDbText
 10
410.8818
 20
337.4842
 30
0.0
 40
4.8
  1
TYPE "F" TOP VIEW
  7
MONOTXT
 72
     4
 11
448.4314
 21
339.8842
 31
0.0
210
0.0
220
0.0
230
1.0
100
AcDbText
  0
LINE
  5
2A1
100
AcDbEntity
  8
1
  6
CONTINUOUS
 62
     7
100
AcDbLine
 10
409.787
 20
335.1646
 30
0.0
 11
486.6761
 21
335.1646
 31
0.0
  0
LINE
  5
2A2
100
AcDbEntity
  8
1
  6
CONTINUOUS
 62
     6
100
AcDbLine
 10
560.8123
 20
387.8053
 30
0.0
 11
560.8123
 21
459.8053
 31
0.0
  0
LINE
  5
2A3
100
AcDbEntity
  8
1
  6
CONTINUOUS
 62
     6
100
AcDbLine
 10
560.8123
 20
459.8053
 30
0.0
 11
641.8123
 21
459.8053
 31
0.0
  0
LINE
  5
2A4
100
AcDbEntity
  8
1
  6
CONTINUOUS
 62
     6
100
AcDbLine
 10
641.8123
 20
459.8053
 30
0.0
 11
641.8123
 21
387.8053
 31
0.0
  0
LINE
  5
2A5
100
AcDbEntity
  8
1
  6
CONTINUOUS
 62
     6
100
AcDbLine
 10
641.8123
 20
387.8053
 30
0.0
 11
560.8123
 21
387.8053
 31
0.0
  0
LINE
  5
2A6
100
AcDbEntity
  8
1
  6
HIDDEN
 62
     6
100
AcDbLine
 10
563.8123
 20
456.8053
 30
0.0
 11
638.2123
 21
456.8053
 31
0.0
  0
LINE
  5
2A7
100
AcDbEntity
  8
1
  6
HIDDEN
 62
     6
100
AcDbLine
 10
563.8123
 20
387.8053
 30
0.0
 11
563.8123
 21
456.8053
 31
0.0
  0
LINE
  5
2A8
100
AcDbEntity
  8
1
  6
HIDDEN
 62
     6
100
AcDbLine
 10
638.2123
 20
390.8053
 30
0.0
 11
560.8123
 21
390.8053
 31
0.0
  0
LINE
  5
2A9
100
AcDbEntity
  8
1
  6
HIDDEN
 62
     6
100
AcDbLine
 10
638.2123
 20
459.8053
 30
0.0
 11
638.2123
 21
387.8053
 31
0.0
  0
LINE
  5
2AA
100
AcDbEntity
  8
1
  6
HIDDEN
 62
     6
100
AcDbLine
 10
640.6123
 20
459.8053
 30
0.0
 11
640.6123
 21
387.8053
 31
0.0
  0
LINE
  5
2AB
100
AcDbEntity
  8
1
  6
CONTINUOUS
 62
     7
100
AcDbLine
 10
605.8123
 20
421.4053
 30
0.0
 11
605.8123
 21
426.2053
 31
0.0
  0
LINE
  5
2AC
100
AcDbEntity
  8
1
  6
HIDDEN
 62
     6
100
AcDbLine
 10
627.4123
 20
387.8053
 30
0.0
 11
627.4123
 21
459.8053
 31
0.0
  0
LINE
  5
2AD
100
AcDbEntity
  8
1
  6
HIDDEN
 62
     6
100
AcDbLine
 10
631.0123
 20
387.8053
 30
0.0
 11
631.0123
 21
459.8053
 31
0.0
  0
LINE
  5
2AE
100
AcDbEntity
  8
1
  6
CONTINUOUS
 62
     7
100
AcDbLine
 10
603.4123
 20
423.8053
 30
0.0
 11
608.2123
 21
423.8053
 31
0.0
  0
CIRCLE
  5
2AF
100
AcDbEntity
  8
1
  6
CONTINUOUS
 62
     6
100
AcDbCircle
 10
581.8123
 20
446.6053
 30
0.0
 40
3.9
210
0.0
220
0.0
230
1.0
  0
CIRCLE
  5
2B0
100
AcDbEntity
  8
1
  6
CONTINUOUS
 62
     6
100
AcDbCircle
 10
629.8123
 20
446.6053
 30
0.0
 40
3.9
210
0.0
220
0.0
230
1.0
  0
CIRCLE
  5
2B1
100
AcDbEntity
  8
1
  6
CONTINUOUS
 62
     6
100
AcDbCircle
 10
581.8123
 20
401.0053
 30
0.0
 40
3.9
210
0.0
220
0.0
230
1.0
  0
CIRCLE
  5
2B2
100
AcDbEntity
  8
1
  6
CONTINUOUS
 62
     6
100
AcDbCircle
 10
629.8123
 20
401.0053
 30
0.0
 40
3.9
210
0.0
220
0.0
230
1.0
  0
CIRCLE
  5
2B3
100
AcDbEntity
  8
1
  6
CONTINUOUS
 62
     6
100
AcDbCircle
 10
605.8123
 20
423.8053
 30
0.0
 40
9.0
210
0.0
220
0.0
230
1.0
  0
LINE
  5
2B4
100
AcDbEntity
  8
1
  6
CONTINUOUS
 62
     7
100
AcDbLine
 10
580.6123
 20
446.6053
 30
0.0
 11
583.0123
 21
446.6053
 31
0.0
  0
LINE
  5
2B5
100
AcDbEntity
  8
1
  6
CONTINUOUS
 62
     7
100
AcDbLine
 10
628.6123
 20
446.6053
 30
0.0
 11
631.0123
 21
446.6053
 31
0.0
  0
LINE
  5
2B6
100
AcDbEntity
  8
1
  6
CONTINUOUS
 62
     7
100
AcDbLine
 10
580.6123
 20
401.0053
 30
0.0
 11
583.0123
 21
401.0053
 31
0.0
  0
LINE
  5
2B7
100
AcDbEntity
  8
1
  6
CONTINUOUS
 62
     7
100
AcDbLine
 10
628.6123
 20
401.0053
 30
0.0
 11
631.0123
 21
401.0053
 31
0.0
  0
LINE
  5
2B8
100
AcDbEntity
  8
1
  6
CONTINUOUS
 62
     7
100
AcDbLine
 10
629.8123
 20
399.8053
 30
0.0
 11
629.8123
 21
402.2053
 31
0.0
  0
LINE
  5
2B9
100
AcDbEntity
  8
1
  6
CONTINUOUS
 62
     7
100
AcDbLine
 10
629.8123
 20
445.4053
 30
0.0
 11
629.8123
 21
447.8053
 31
0.0
  0
LINE
  5
2BA
100
AcDbEntity
  8
1
  6
CONTINUOUS
 62
     7
100
AcDbLine
 10
581.8123
 20
399.8053
 30
0.0
 11
581.8123
 21
402.2053
 31
0.0
  0
LINE
  5
2BB
100
AcDbEntity
  8
1
  6
CONTINUOUS
 62
     7
100
AcDbLine
 10
581.8123
 20
445.4053
 30
0.0
 11
581.8123
 21
447.8053
 31
0.0
  0
LINE
  5
2BC
100
AcDbEntity
  8
1
  6
CONTINUOUS
 62
     7
100
AcDbLine
 10
598.1259
 20
416.1189
 30
0.0
 11
612.1763
 21
430.1693
 31
0.0
  0
INSERT
  5
2BD
100
AcDbEntity
  8
1
  6
CONTINUOUS
 62
     1
100
AcDbBlockReference
  2
LDR
 10
612.1763
 20
430.1693
 30
0.0
 41
239.999999
 42
239.999999
 50
45.0
210
0.0
220
0.0
230
1.0
  0
INSERT
  5
2BE
100
AcDbEntity
  8
1
  6
CONTINUOUS
 62
     1
100
AcDbBlockReference
  2
LDR
 10
612.1763
 20
430.1693
 30
0.0
 41
239.999999
 42
239.999999
 50
45.0
210
0.0
220
0.0
230
1.0
  0
INSERT
  5
2BF
100
AcDbEntity
  8
1
  6
CONTINUOUS
 62
     1
100
AcDbBlockReference
  2
LDR
 10
599.4483
 20
417.4413
 30
0.0
 41
239.999999
 42
239.999999
 50
225.0
210
0.0
220
0.0
230
1.0
  0
LINE
  5
2C0
100
AcDbEntity
  8
1
  6
CONTINUOUS
 62
     7
100
AcDbLine
 10
605.8123
 20
431.0053
 30
0.0
 11
605.8123
 21
445.4053
 31
0.0
  0
LINE
  5
2C1
100
AcDbEntity
  8
1
  6
CONTINUOUS
 62
     7
100
AcDbLine
 10
605.8123
 20
416.6053
 30
0.0
 11
605.8123
 21
402.2053
 31
0.0
  0
LINE
  5
2C2
100
AcDbEntity
  8
1
  6
CONTINUOUS
 62
     7
100
AcDbLine
 10
598.6123
 20
423.8053
 30
0.0
 11
584.2123
 21
423.8053
 31
0.0
  0
LINE
  5
2C3
100
AcDbEntity
  8
1
  6
CONTINUOUS
 62
     7
100
AcDbLine
 10
605.8123
 20
446.6053
 30
0.0
 11
605.8123
 21
447.8053
 31
0.0
  0
LINE
  5
2C4
100
AcDbEntity
  8
1
  6
CONTINUOUS
 62
     7
100
AcDbLine
 10
605.8123
 20
449.0053
 30
0.0
 11
605.8123
 21
476.6053
 31
0.0
  0
LINE
  5
2C5
100
AcDbEntity
  8
1
  6
CONTINUOUS
 62
     7
100
AcDbLine
 10
585.1123
 20
446.6053
 30
0.0
 11
604.3123
 21
446.6053
 31
0.0
  0
LINE
  5
2C6
100
AcDbEntity
  8
1
  6
CONTINUOUS
 62
     7
100
AcDbLine
 10
626.5123
 20
446.6053
 30
0.0
 11
609.7123
 21
446.6053
 31
0.0
  0
LINE
  5
2C7
100
AcDbEntity
  8
1
  6
CONTINUOUS
 62
     7
100
AcDbLine
 10
608.5123
 20
446.6053
 30
0.0
 11
607.3123
 21
446.6053
 31
0.0
  0
LINE
  5
2C8
100
AcDbEntity
  8
1
  6
CONTINUOUS
 62
     7
100
AcDbLine
 10
633.1123
 20
446.6053
 30
0.0
 11
670.3123
 21
446.6053
 31
0.0
  0
LINE
  5
2C9
100
AcDbEntity
  8
1
  6
CONTINUOUS
 62
     7
100
AcDbLine
 10
633.1123
 20
401.0053
 30
0.0
 11
670.3123
 21
401.0053
 31
0.0
  0
LINE
  5
2CA
100
AcDbEntity
  8
1
  6
CONTINUOUS
 62
     7
100
AcDbLine
 10
643.0123
 20
459.8053
 30
0.0
 11
685.0123
 21
459.8053
 31
0.0
  0
LINE
  5
2CB
100
AcDbEntity
  8
1
  6
CONTINUOUS
 62
     7
100
AcDbLine
 10
683.8123
 20
459.8053
 30
0.0
 11
683.8123
 21
387.8053
 31
0.0
  0
LINE
  5
2CC
100
AcDbEntity
  8
1
  6
CONTINUOUS
 62
     7
100
AcDbLine
 10
669.1123
 20
446.6053
 30
0.0
 11
669.1123
 21
401.0053
 31
0.0
  0
LINE
  5
2CD
100
AcDbEntity
  8
1
  6
CONTINUOUS
 62
     7
100
AcDbLine
 10
643.0123
 20
387.8053
 30
0.0
 11
685.0123
 21
387.8053
 31
0.0
  0
LINE
  5
2CE
100
AcDbEntity
  8
1
  6
CONTINUOUS
 62
     7
100
AcDbLine
 10
676.4623
 20
387.8053
 30
0.0
 11
676.4623
 21
423.8053
 31
0.0
  0
LINE
  5
2CF
100
AcDbEntity
  8
1
  6
CONTINUOUS
 62
     7
100
AcDbLine
 10
613.0123
 20
423.8053
 30
0.0
 11
661.7742
 21
423.8053
 31
0.0
  0
LINE
  5
2D0
100
AcDbEntity
  8
1
  6
CONTINUOUS
 62
     7
100
AcDbLine
 10
670.3123
 20
423.8053
 30
0.0
 11
677.6623
 21
423.8053
 31
0.0
  0
INSERT
  5
2D1
100
AcDbEntity
  8
1
  6
CONTINUOUS
 62
     1
100
AcDbBlockReference
  2
LDR
 10
683.8123
 20
459.8053
 30
0.0
 41
240.0
 42
240.0
 50
90.0
210
0.0
220
0.0
230
1.0
  0
INSERT
  5
2D2
100
AcDbEntity
  8
1
  6
CONTINUOUS
 62
     1
100
AcDbBlockReference
  2
LDR
 10
683.8123
 20
459.8053
 30
0.0
 41
240.0
 42
240.0
 50
90.0
210
0.0
220
0.0
230
1.0
  0
INSERT
  5
2D3
100
AcDbEntity
  8
1
  6
CONTINUOUS
 62
     1
100
AcDbBlockReference
  2
LDR
 10
669.1123
 20
446.6053
 30
0.0
 41
240.0
 42
240.0
 50
90.0
210
0.0
220
0.0
230
1.0
  0
INSERT
  5
2D4
100
AcDbEntity
  8
1
  6
CONTINUOUS
 62
     1
100
AcDbBlockReference
  2
LDR
 10
669.1123
 20
446.6053
 30
0.0
 41
240.0
 42
240.0
 50
90.0
210
0.0
220
0.0
230
1.0
  0
INSERT
  5
2D5
100
AcDbEntity
  8
1
  6
CONTINUOUS
 62
     1
100
AcDbBlockReference
  2
LDR
 10
669.1123
 20
401.0053
 30
0.0
 41
240.0
 42
240.0
 50
270.0
210
0.0
220
0.0
230
1.0
  0
INSERT
  5
2D6
100
AcDbEntity
  8
1
  6
CONTINUOUS
 62
     1
100
AcDbBlockReference
  2
LDR
 10
669.1123
 20
401.0053
 30
0.0
 41
240.0
 42
240.0
 50
270.0
210
0.0
220
0.0
230
1.0
  0
INSERT
  5
2D7
100
AcDbEntity
  8
1
  6
CONTINUOUS
 62
     1
100
AcDbBlockReference
  2
LDR
 10
676.4623
 20
423.8053
 30
0.0
 41
240.0
 42
240.0
 50
90.0
210
0.0
220
0.0
230
1.0
  0
INSERT
  5
2D8
100
AcDbEntity
  8
1
  6
CONTINUOUS
 62
     1
100
AcDbBlockReference
  2
LDR
 10
676.4623
 20
423.8053
 30
0.0
 41
240.0
 42
240.0
 50
90.0
210
0.0
220
0.0
230
1.0
  0
INSERT
  5
2D9
100
AcDbEntity
  8
1
  6
CONTINUOUS
 62
     1
100
AcDbBlockReference
  2
LDR
 10
676.4623
 20
387.8053
 30
0.0
 41
240.0
 42
240.0
 50
270.0
210
0.0
220
0.0
230
1.0
  0
INSERT
  5
2DA
100
AcDbEntity
  8
1
  6
CONTINUOUS
 62
     1
100
AcDbBlockReference
  2
LDR
 10
676.4623
 20
387.8053
 30
0.0
 41
240.0
 42
240.0
 50
270.0
210
0.0
220
0.0
230
1.0
  0
INSERT
  5
2DB
100
AcDbEntity
  8
1
  6
CONTINUOUS
 62
     1
100
AcDbBlockReference
  2
LDR
 10
683.8123
 20
387.8053
 30
0.0
 41
240.0
 42
240.0
 50
270.0
210
0.0
220
0.0
230
1.0
  0
LINE
  5
2DC
100
AcDbEntity
  8
1
  6
CONTINUOUS
 62
     7
100
AcDbLine
 10
559.6123
 20
459.8053
 30
0.0
 11
547.6123
 21
459.8053
 31
0.0
  0
LINE
  5
2DD
100
AcDbEntity
  8
1
  6
CONTINUOUS
 62
     7
100
AcDbLine
 10
559.6123
 20
456.8053
 30
0.0
 11
547.6123
 21
456.8053
 31
0.0
  0
LINE
  5
2DE
100
AcDbEntity
  8
1
  6
CONTINUOUS
 62
     7
100
AcDbLine
 10
559.6123
 20
387.8053
 30
0.0
 11
547.6123
 21
387.8053
 31
0.0
  0
LINE
  5
2DF
100
AcDbEntity
  8
1
  6
CONTINUOUS
 62
     7
100
AcDbLine
 10
559.6123
 20
390.8053
 30
0.0
 11
547.6123
 21
390.8053
 31
0.0
  0
LINE
  5
2E0
100
AcDbEntity
  8
1
  6
CONTINUOUS
 62
     7
100
AcDbLine
 10
548.8123
 20
459.8053
 30
0.0
 11
548.8123
 21
465.8053
 31
0.0
  0
LINE
  5
2E1
100
AcDbEntity
  8
1
  6
CONTINUOUS
 62
     7
100
AcDbLine
 10
548.8123
 20
456.8053
 30
0.0
 11
548.8123
 21
450.8053
 31
0.0
  0
LINE
  5
2E2
100
AcDbEntity
  8
1
  6
CONTINUOUS
 62
     7
100
AcDbLine
 10
548.8123
 20
390.8053
 30
0.0
 11
548.8123
 21
396.8053
 31
0.0
  0
LINE
  5
2E3
100
AcDbEntity
  8
1
  6
CONTINUOUS
 62
     7
100
AcDbLine
 10
548.8123
 20
387.8053
 30
0.0
 11
548.8123
 21
381.8053
 31
0.0
  0
INSERT
  5
2E4
100
AcDbEntity
  8
1
  6
CONTINUOUS
 62
     1
100
AcDbBlockReference
  2
LDR
 10
548.8123
 20
459.8053
 30
0.0
 41
240.0
 42
240.0
 50
270.0
210
0.0
220
0.0
230
1.0
  0
INSERT
  5
2E5
100
AcDbEntity
  8
1
  6
CONTINUOUS
 62
     1
100
AcDbBlockReference
  2
LDR
 10
548.8123
 20
459.8053
 30
0.0
 41
240.0
 42
240.0
 50
270.0
210
0.0
220
0.0
230
1.0
  0
INSERT
  5
2E6
100
AcDbEntity
  8
1
  6
CONTINUOUS
 62
     1
100
AcDbBlockReference
  2
LDR
 10
548.8123
 20
456.8053
 30
0.0
 41
240.0
 42
240.0
 50
90.0
210
0.0
220
0.0
230
1.0
  0
INSERT
  5
2E7
100
AcDbEntity
  8
1
  6
CONTINUOUS
 62
     1
100
AcDbBlockReference
  2
LDR
 10
548.8123
 20
456.8053
 30
0.0
 41
240.0
 42
240.0
 50
90.0
210
0.0
220
0.0
230
1.0
  0
INSERT
  5
2E8
100
AcDbEntity
  8
1
  6
CONTINUOUS
 62
     1
100
AcDbBlockReference
  2
LDR
 10
548.8123
 20
390.8053
 30
0.0
 41
240.0
 42
240.0
 50
270.0
210
0.0
220
0.0
230
1.0
  0
INSERT
  5
2E9
100
AcDbEntity
  8
1
  6
CONTINUOUS
 62
     1
100
AcDbBlockReference
  2
LDR
 10
548.8123
 20
390.8053
 30
0.0
 41
240.0
 42
240.0
 50
270.0
210
0.0
220
0.0
230
1.0
  0
INSERT
  5
2EA
100
AcDbEntity
  8
1
  6
CONTINUOUS
 62
     1
100
AcDbBlockReference
  2
LDR
 10
548.8123
 20
387.8053
 30
0.0
 41
240.0
 42
240.0
 50
90.0
210
0.0
220
0.0
230
1.0
  0
LINE
  5
2EB
100
AcDbEntity
  8
1
  6
CONTINUOUS
 62
     7
100
AcDbLine
 10
578.5123
 20
446.6053
 30
0.0
 11
555.7123
 21
446.6053
 31
0.0
  0
LINE
  5
2EC
100
AcDbEntity
  8
1
  6
CONTINUOUS
 62
     7
100
AcDbLine
 10
560.8123
 20
461.0053
 30
0.0
 11
560.8123
 21
486.2053
 31
0.0
  0
LINE
  5
2ED
100
AcDbEntity
  8
1
  6
CONTINUOUS
 62
     7
100
AcDbLine
 10
641.8123
 20
461.0053
 30
0.0
 11
641.8123
 21
486.2053
 31
0.0
  0
LINE
  5
2EE
100
AcDbEntity
  8
1
  6
CONTINUOUS
 62
     7
100
AcDbLine
 10
560.8123
 20
485.0053
 30
0.0
 11
641.8123
 21
485.0053
 31
0.0
  0
INSERT
  5
2EF
100
AcDbEntity
  8
1
  6
CONTINUOUS
 62
     1
100
AcDbBlockReference
  2
LDR
 10
560.8123
 20
485.0053
 30
0.0
 41
240.0
 42
240.0
 50
180.0
210
0.0
220
0.0
230
1.0
  0
INSERT
  5
2F0
100
AcDbEntity
  8
1
  6
CONTINUOUS
 62
     1
100
AcDbBlockReference
  2
LDR
 10
641.8123
 20
485.0053
 30
0.0
 41
240.0
 42
240.0
210
0.0
220
0.0
230
1.0
  0
LINE
  5
2F1
100
AcDbEntity
  8
1
  6
CONTINUOUS
 62
     7
100
AcDbLine
 10
605.8123
 20
475.4053
 30
0.0
 11
560.8123
 21
475.4053
 31
0.0
  0
INSERT
  5
2F2
100
AcDbEntity
  8
1
  6
CONTINUOUS
 62
     1
100
AcDbBlockReference
  2
LDR
 10
560.8123
 20
475.4053
 30
0.0
 41
240.0
 42
240.0
 50
180.0
210
0.0
220
0.0
230
1.0
  0
INSERT
  5
2F3
100
AcDbEntity
  8
1
  6
CONTINUOUS
 62
     1
100
AcDbBlockReference
  2
LDR
 10
560.8123
 20
475.4053
 30
0.0
 41
240.0
 42
240.0
 50
180.0
210
0.0
220
0.0
230
1.0
  0
INSERT
  5
2F4
100
AcDbEntity
  8
1
  6
CONTINUOUS
 62
     1
100
AcDbBlockReference
  2
LDR
 10
605.8123
 20
475.4053
 30
0.0
 41
240.0
 42
240.0
210
0.0
220
0.0
230
1.0
  0
LINE
  5
2F5
100
AcDbEntity
  8
1
  6
CONTINUOUS
 62
     7
100
AcDbLine
 10
581.8123
 20
397.7053
 30
0.0
 11
581.8123
 21
372.5053
 31
0.0
  0
LINE
  5
2F6
100
AcDbEntity
  8
1
  6
CONTINUOUS
 62
     7
100
AcDbLine
 10
629.8123
 20
397.7053
 30
0.0
 11
629.8123
 21
372.5053
 31
0.0
  0
LINE
  5
2F7
100
AcDbEntity
  8
1
  6
CONTINUOUS
 62
     7
100
AcDbLine
 10
581.8123
 20
373.7053
 30
0.0
 11
629.8123
 21
373.7053
 31
0.0
  0
INSERT
  5
2F8
100
AcDbEntity
  8
1
  6
CONTINUOUS
 62
     1
100
AcDbBlockReference
  2
LDR
 10
581.8123
 20
373.7053
 30
0.0
 41
240.0
 42
240.0
 50
180.0
210
0.0
220
0.0
230
1.0
  0
INSERT
  5
2F9
100
AcDbEntity
  8
1
  6
CONTINUOUS
 62
     1
100
AcDbBlockReference
  2
LDR
 10
581.8123
 20
373.7053
 30
0.0
 41
240.0
 42
240.0
 50
180.0
210
0.0
220
0.0
230
1.0
  0
INSERT
  5
2FA
100
AcDbEntity
  8
1
  6
CONTINUOUS
 62
     1
100
AcDbBlockReference
  2
LDR
 10
629.8123
 20
373.7053
 30
0.0
 41
240.0
 42
240.0
210
0.0
220
0.0
230
1.0
  0
LINE
  5
2FB
100
AcDbEntity
  8
1
  6
CONTINUOUS
 62
     7
100
AcDbLine
 10
581.8123
 20
449.9053
 30
0.0
 11
581.8123
 21
458.3053
 31
0.0
  0
LINE
  5
2FC
100
AcDbEntity
  8
1
  6
CONTINUOUS
 62
     7
100
AcDbLine
 10
629.8123
 20
449.9053
 30
0.0
 11
629.8123
 21
458.3053
 31
0.0
  0
LINE
  5
2FD
100
AcDbEntity
  8
1
  6
CONTINUOUS
 62
     7
100
AcDbLine
 10
581.8123
 20
443.3053
 30
0.0
 11
581.8123
 21
426.2053
 31
0.0
  0
LINE
  5
2FE
100
AcDbEntity
  8
1
  6
CONTINUOUS
 62
     7
100
AcDbLine
 10
581.8123
 20
425.0053
 30
0.0
 11
581.8123
 21
422.6053
 31
0.0
  0
LINE
  5
2FF
100
AcDbEntity
  8
1
  6
CONTINUOUS
 62
     7
100
AcDbLine
 10
581.8123
 20
421.4053
 30
0.0
 11
581.8123
 21
404.3053
 31
0.0
  0
LINE
  5
300
100
AcDbEntity
  8
1
  6
CONTINUOUS
 62
     7
100
AcDbLine
 10
629.8123
 20
443.3053
 30
0.0
 11
629.8123
 21
430.9888
 31
0.0
  0
LINE
  5
301
100
AcDbEntity
  8
1
  6
CONTINUOUS
 62
     7
100
AcDbLine
 10
629.8123
 20
429.7888
 30
0.0
 11
629.8123
 21
427.3888
 31
0.0
  0
LINE
  5
302
100
AcDbEntity
  8
1
  6
CONTINUOUS
 62
     7
100
AcDbLine
 10
629.8123
 20
426.1888
 30
0.0
 11
629.8123
 21
404.3053
 31
0.0
  0
LINE
  5
303
100
AcDbEntity
  8
1
  6
CONTINUOUS
 62
     7
100
AcDbLine
 10
578.5123
 20
401.0053
 30
0.0
 11
572.5123
 21
401.0053
 31
0.0
  0
LINE
  5
304
100
AcDbEntity
  8
1
  6
CONTINUOUS
 62
     7
100
AcDbLine
 10
605.2123
 20
401.0053
 30
0.0
 11
606.4123
 21
401.0053
 31
0.0
  0
LINE
  5
305
100
AcDbEntity
  8
1
  6
CONTINUOUS
 62
     7
100
AcDbLine
 10
607.6123
 20
401.0053
 30
0.0
 11
626.5123
 21
401.0053
 31
0.0
  0
LINE
  5
306
100
AcDbEntity
  8
1
  6
CONTINUOUS
 62
     7
100
AcDbLine
 10
585.1123
 20
401.0053
 30
0.0
 11
604.0123
 21
401.0053
 31
0.0
  0
TEXT
  5
307
100
AcDbEntity
  8
1
  6
CONTINUOUS
 62
     7
100
AcDbText
 10
553.2379
 20
434.5988
 30
0.0
 40
3.0
  1
/
  7
MONOTXT
 72
     4
 11
554.0765
 21
436.0988
 31
0.0
210
0.0
220
0.0
230
1.0
100
AcDbText
  0
TEXT
  5
308
100
AcDbEntity
  8
1
  6
CONTINUOUS
 62
     7
100
AcDbText
 10
597.4494
 20
413.3747
 30
0.0
 40
3.0
  1
/
 50
45.0
  7
MONOTXT
 72
     1
 11
598.04238
 21
413.96768
 31
0.0
210
0.0
220
0.0
230
1.0
100
AcDbText
  0
LINE
  5
309
100
AcDbEntity
  8
1
  6
CONTINUOUS
 62
     7
100
AcDbLine
 10
556.3781
 20
353.2458
 30
0.0
 11
651.1942
 21
353.2458
 31
0.0
  0
TEXT
  5
30A
100
AcDbEntity
  8
1
  6
CONTINUOUS
 62
     7
100
AcDbText
 10
558.4424
 20
355.5654
 30
0.0
 40
4.8
  1
TYPE "F" BOTTOM VIEW
  7
MONOTXT
 72
     4
 11
603.8156
 21
357.9654
 31
0.0
210
0.0
220
0.0
230
1.0
100
AcDbText
  0
LINE
  5
30B
100
AcDbEntity
  8
1
  6
CONTINUOUS
 62
    30
100
AcDbLine
 10
72.2676
 20
182.8809
 30
0.0
 11
95.0676
 21
182.8809
 31
0.0
  0
LINE
  5
30C
100
AcDbEntity
  8
1
  6
CONTINUOUS
 62
    30
100
AcDbLine
 10
95.0676
 20
182.8809
 30
0.0
 11
95.0676
 21
229.6809
 31
0.0
  0
LINE
  5
30D
100
AcDbEntity
  8
1
  6
CONTINUOUS
 62
    30
100
AcDbLine
 10
95.0676
 20
229.6809
 30
0.0
 11
114.2676
 21
229.6809
 31
0.0
  0
LINE
  5
30E
100
AcDbEntity
  8
1
  6
CONTINUOUS
 62
    30
100
AcDbLine
 10
95.0676
 20
228.4809
 30
0.0
 11
114.5386
 21
228.4809
 31
0.0
  0
LINE
  5
30F
100
AcDbEntity
  8
1
  6
CONTINUOUS
 62
    30
100
AcDbLine
 10
95.0676
 20
212.8809
 30
0.0
 11
118.0611
 21
212.8809
 31
0.0
  0
LINE
  5
310
100
AcDbEntity
  8
1
  6
CONTINUOUS
 62
    30
100
AcDbLine
 10
95.0676
 20
211.0809
 30
0.0
 11
118.4676
 21
211.0809
 31
0.0
  0
LINE
  5
311
100
AcDbEntity
  8
1
  6
CONTINUOUS
 62
    30
100
AcDbLine
 10
114.2676
 20
229.6809
 30
0.0
 11
119.1283
 21
208.1546
 31
0.0
  0
LINE
  5
312
100
AcDbEntity
  8
1
  6
CONTINUOUS
 62
    30
100
AcDbLine
 10
132.2676
 20
182.8809
 30
0.0
 11
132.2676
 21
188.2809
 31
0.0
  0
LINE
  5
313
100
AcDbEntity
  8
1
  6
CONTINUOUS
 62
    30
100
AcDbLine
 10
119.1283
 20
208.1546
 30
0.0
 11
132.2676
 21
188.2809
 31
0.0
  0
LINE
  5
314
100
AcDbEntity
  8
1
  6
CONTINUOUS
 62
    30
100
AcDbLine
 10
132.2676
 20
182.8809
 30
0.0
 11
189.8325
 21
184.8911
 31
0.0
  0
LINE
  5
315
100
AcDbEntity
  8
1
  6
CONTINUOUS
 62
    30
100
AcDbLine
 10
132.2676
 20
184.682
 30
0.0
 11
189.8325
 21
186.6922
 31
0.0
  0
LINE
  5
316
100
AcDbEntity
  8
1
  6
CONTINUOUS
 62
    30
100
AcDbLine
 10
72.2676
 20
171.4809
 30
0.0
 11
131.0676
 21
171.4809
 31
0.0
  0
LINE
  5
317
100
AcDbEntity
  8
1
  6
CONTINUOUS
 62
    30
100
AcDbLine
 10
161.4478
 20
172.4929
 30
0.0
 11
189.8325
 21
173.4841
 31
0.0
  0
LINE
  5
318
100
AcDbEntity
  8
1
  6
CONTINUOUS
 62
    30
100
AcDbLine
 10
137.0676
 20
165.4809
 30
0.0
 11
137.0676
 21
145.0809
 31
0.0
  0
LINE
  5
319
100
AcDbEntity
  8
1
  6
CONTINUOUS
 62
    30
100
AcDbLine
 10
155.6607
 20
166.2871
 30
0.0
 11
155.6607
 21
145.0809
 31
0.0
  0
LINE
  5
31A
100
AcDbEntity
  8
1
  6
CONTINUOUS
 62
    30
100
AcDbLine
 10
131.0676
 20
171.4809
 30
0.0
 11
137.0676
 21
165.4809
 31
0.0
  0
LINE
  5
31B
100
AcDbEntity
  8
1
  6
CONTINUOUS
 62
    30
100
AcDbLine
 10
161.4478
 20
172.4929
 30
0.0
 11
155.6607
 21
166.2871
 31
0.0
  0
SPLINE
  5
31C
100
AcDbEntity
  8
1
  6
CONTINUOUS
 62
    30
100
AcDbSpline
210
0.0
220
0.0
230
1.0
 70
     8
 71
     3
 72
   116
 73
   112
 74
     0
 42
0.0
 43
0.0
 12
0.9987071640793033
 22
-0.0508330642070258
 32
0.0
 13
0.9744330486498367
 23
0.2246780667955491
 33
0.0
 40
0.0
 40
0.0
 40
0.0
 40
0.0
 40
0.0361563943420351
 40
0.0361563943420351
 40
0.0361563943420351
 40
0.0596379352994875
 40
0.0596379352994875
 40
0.0596379352994875
 40
0.0786574945568299
 40
0.0786574945568299
 40
0.0786574945568299
 40
0.0986381091754444
 40
0.0986381091754444
 40
0.0986381091754444
 40
0.1060618109728754
 40
0.1060618109728754
 40
0.1060618109728754
 40
0.1246714339162748
 40
0.1246714339162748
 40
0.1246714339162748
 40
0.1488465936682024
 40
0.1488465936682024
 40
0.1488465936682024
 40
0.169046523367186
 40
0.169046523367186
 40
0.169046523367186
 40
0.1934037194250395
 40
0.1934037194250395
 40
0.1934037194250395
 40
0.2175815480818338
 40
0.2175815480818338
 40
0.2175815480818338
 40
0.239634160437962
 40
0.239634160437962
 40
0.239634160437962
 40
0.2607418680602278
 40
0.2607418680602278
 40
0.2607418680602278
 40
0.2785923290855032
 40
0.2785923290855032
 40
0.2785923290855032
 40
0.3027674888374307
 40
0.3027674888374307
 40
0.3027674888374307
 40
0.3366357128068383
 40
0.3366357128068383
 40
0.3366357128068383
 40
0.3692066211711628
 40
0.3692066211711628
 40
0.3692066211711628
 40
0.3944088434567731
 40
0.3944088434567731
 40
0.3944088434567731
 40
0.4175351686490009
 40
0.4175351686490009
 40
0.4175351686490009
 40
0.4522047919424269
 40
0.4522047919424269
 40
0.4522047919424269
 40
0.473233758023355
 40
0.473233758023355
 40
0.473233758023355
 40
0.5016660989447563
 40
0.5016660989447563
 40
0.5016660989447563
 40
0.5377539128834172
 40
0.5377539128834172
 40
0.5377539128834172
 40
0.5789245390389954
 40
0.5789245390389954
 40
0.5789245390389954
 40
0.6114785225849407
 40
0.6114785225849407
 40
0.6114785225849407
 40
0.6644975598761531
 40
0.6644975598761531
 40
0.6644975598761531
 40
0.6803876235062073
 40
0.6803876235062073
 40
0.6803876235062073
 40
0.7067264304241561
 40
0.7067264304241561
 40
0.7067264304241561
 40
0.742982383011376
 40
0.742982383011376
 40
0.742982383011376
 40
0.7652591554316953
 40
0.7652591554316953
 40
0.7652591554316953
 40
0.7936330889559101
 40
0.7936330889559101
 40
0.7936330889559101
 40
0.8283503679421829
 40
0.8283503679421829
 40
0.8283503679421829
 40
0.8621017508663624
 40
0.8621017508663624
 40
0.8621017508663624
 40
0.8937631792854012
 40
0.8937631792854012
 40
0.8937631792854012
 40
0.9231836197771799
 40
0.9231836197771799
 40
0.9231836197771799
 40
0.9432469507752411
 40
0.9432469507752411
 40
0.9432469507752411
 40
0.973116683207745
 40
0.973116683207745
 40
0.973116683207745
 40
1.0
 40
1.0
 40
1.0
 40
1.0
 10
95.067599999999999
 20
182.8809
 30
0.0
 10
95.518166666666673
 20
182.85796666666667
 30
0.0
 10
95.968733333333347
 20
182.83503333333334
 30
0.0
 10
96.419300000000007
 20
182.81210000000002
 30
0.0
 10
96.711917663622941
 20
182.79720609213788
 30
0.0
 10
96.993609044718667
 20
182.69841785935395
 30
0.0
 10
97.284100000000009
 20
182.65480000000002
 30
0.0
 10
97.519391625354018
 20
182.61947044210754
 30
0.0
 10
97.755230175774145
 20
182.58547086245758
 30
0.0
 10
97.991700000000009
 20
182.5761
 30
0.0
 10
98.240118607542897
 20
182.56625562932479
 30
0.0
 10
98.489922975426836
 20
182.59048851246291
 30
0.0
 10
98.738600000000005
 20
182.6155
 30
0.0
 10
98.830994759097337
 20
182.62479289856842
 30
0.0
 10
98.922507609898247
 20
182.63816627489749
 30
0.0
 10
99.0137
 20
182.65480000000002
 30
0.0
 10
99.242299698830621
 20
182.69649716951847
 30
0.0
 10
99.452497651341588
 20
182.80881900014097
 30
0.0
 10
99.682000000000002
 20
182.85140000000001
 30
0.0
 10
99.980139084232647
 20
182.90671560081145
 30
0.0
 10
100.2878392712382
 20
182.93172665779954
 30
0.0
 10
100.5861
 20
182.89070000000001
 30
0.0
 10
100.83531637808312
 20
182.85641953973257
 30
0.0
 10
101.08345375617331
 20
182.80852209710761
 30
0.0
 10
101.333
 20
182.77280000000002
 30
0.0
 10
101.6339043534787
 20
182.72972608163428
 30
0.0
 10
101.93391332721798
 20
182.67422346678316
 30
0.0
 10
102.2371
 20
182.65480000000002
 30
0.0
 10
102.53805399356052
 20
182.63551956843108
 30
0.0
 10
102.83972919897535
 20
182.68931074491303
 30
0.0
 10
103.1413
 20
182.69410000000002
 30
0.0
 10
103.41636291269273
 20
182.69846828250408
 30
0.0
 10
103.69185149543704
 20
182.68577904382124
 30
0.0
 10
103.96680000000001
 20
182.69410000000002
 30
0.0
 10
104.22996758086404
 20
182.70206442196161
 30
0.0
 10
104.48983245790993
 20
182.7648349657407
 30
0.0
 10
104.753
 20
182.77280000000002
 30
0.0
 10
104.97555670948564
 20
182.77953590596169
 30
0.0
 10
105.19855555050754
 20
182.769193003487
 30
0.0
 10
105.4212
 20
182.77280000000002
 30
0.0
 10
105.72273087512637
 20
182.77768501203428
 30
0.0
 10
106.02417018193736
 20
182.81522163702314
 30
0.0
 10
106.3253
 20
182.81210000000002
 30
0.0
 10
106.74716824106507
 20
182.80772673823313
 30
0.0
 10
107.1611375637498
 20
182.67468522715373
 30
0.0
 10
107.58330000000001
 20
182.65480000000002
 30
0.0
 10
107.98929158781947
 20
182.63567647253035
 30
0.0
 10
108.39551524507425
 20
182.61983338980508
 30
0.0
 10
108.8019
 20
182.6155
 30
0.0
 10
109.11634621723663
 20
182.61214697551893
 30
0.0
 10
109.43098760849345
 20
182.60578140067847
 30
0.0
 10
109.7453
 20
182.6155
 30
0.0
 10
110.03372260398909
 20
182.62441808213484
 30
0.0
 10
110.32173973980839
 20
182.64474439115816
 30
0.0
 10
110.6101
 20
182.65480000000002
 30
0.0
 10
111.04239270152254
 20
182.66987477593761
 30
0.0
 10
111.47499462971038
 20
182.67771799783088
 30
0.0
 10
111.90730000000001
 20
182.69410000000002
 30
0.0
 10
112.16951614499479
 20
182.70403655353672
 30
0.0
 10
112.43146878798602
 20
182.71978227271998
 30
0.0
 10
112.6935
 20
182.73340000000002
 30
0.0
 10
113.04778088681861
 20
182.75181193062514
 30
0.0
 10
113.40170485578068
 20
182.81357959176688
 30
0.0
 10
113.75490000000001
 20
182.81210000000002
 30
0.0
 10
114.20319374703479
 20
182.81022202475572
 30
0.0
 10
114.64442884266413
 20
182.66767311289644
 30
0.0
 10
115.09140000000001
 20
182.6155
 30
0.0
 10
115.60132510802346
 20
182.55597853022954
 30
0.0
 10
116.11250192712639
 20
182.49811944924923
 30
0.0
 10
116.62450000000001
 20
182.45820000000001
 30
0.0
 10
117.02934147063732
 20
182.42663533326134
 30
0.0
 10
117.4402520301895
 20
182.44278210902473
 30
0.0
 10
117.84310000000001
 20
182.45820000000001
 30
0.0
 10
118.49919824689897
 20
182.48331034434284
 30
0.0
 10
119.15305959131544
 20
182.77174026285169
 30
0.0
 10
119.80860000000001
 20
182.73340000000002
 30
0.0
 10
120.00506865236078
 20
182.72190923654159
 30
0.0
 10
120.20159046822752
 20
182.67564419711186
 30
0.0
 10
120.3982
 20
182.65480000000002
 30
0.0
 10
120.72409299930742
 20
182.62024939681356
 30
0.0
 10
121.05545385406681
 20
182.59046941969879
 30
0.0
 10
121.381
 20
182.5761
 30
0.0
 10
121.82912149877079
 20
182.55632017470541
 30
0.0
 10
122.27068437159546
 20
182.83449045648868
 30
0.0
 10
122.7175
 20
182.81210000000002
 30
0.0
 10
122.99203726512536
 20
182.79834261485382
 30
0.0
 10
123.26569940383926
 20
182.7112434349782
 30
0.0
 10
123.54300000000001
 20
182.69410000000002
 30
0.0
 10
123.89619787504378
 20
182.67226440033281
 30
0.0
 10
124.25091921522115
 20
182.64165392511399
 30
0.0
 10
124.60440000000001
 20
182.65480000000002
 30
0.0
 10
125.03690580716916
 20
182.67088504330226
 30
0.0
 10
125.46992328102661
 20
182.69378917024622
 30
0.0
 10
125.9016
 20
182.73340000000002
 30
0.0
 10
126.32126670968901
 20
182.7719087864603
 30
0.0
 10
126.74029303488851
 20
182.81155845709324
 30
0.0
 10
127.15950000000001
 20
182.85140000000001
 30
0.0
 10
127.55274881438062
 20
182.88877447326772
 30
0.0
 10
127.94551290869077
 20
182.93444309187174
 30
0.0
 10
128.33879999999999
 20
182.96940000000001
 30
0.0
 10
128.70425033006441
 20
183.00188266697742
 30
0.0
 10
129.07307075000088
 20
182.9598317446281
 30
0.0
 10
129.43940000000001
 20
182.93010000000001
 30
0.0
 10
129.68921899910907
 20
182.90982437449435
 30
0.0
 10
129.93815984423321
 20
182.88025040904844
 30
0.0
 10
130.18630000000002
 20
182.85140000000001
 30
0.0
 10
130.55572420275229
 20
182.80844830873156
 30
0.0
 10
130.92382234785663
 20
182.57106099617621
 30
0.0
 10
131.28700000000001
 20
182.65480000000002
 30
0.0
 10
131.61386666666667
 20
182.73016666666669
 30
0.0
 10
131.94073333333333
 20
182.80553333333333
 30
0.0
 10
132.26760000000002
 20
182.8809
 30
0.0
  0
LINE
  5
31D
100
AcDbEntity
  8
1
  6
CONTINUOUS
 62
    30
100
AcDbLine
 10
95.6676
 20
231.7809
 30
0.0
 11
113.6676
 21
231.7809
 31
0.0
  0
LINE
  5
31E
100
AcDbEntity
  8
1
  6
CONTINUOUS
 62
    30
100
AcDbLine
 10
95.6676
 20
231.7809
 30
0.0
 11
95.6676
 21
229.6809
 31
0.0
  0
LINE
  5
31F
100
AcDbEntity
  8
1
  6
CONTINUOUS
 62
    30
100
AcDbLine
 10
113.6676
 20
231.7809
 30
0.0
 11
113.6676
 21
229.6809
 31
0.0
  0
LINE
  5
320
100
AcDbEntity
  8
1
  6
CONTINUOUS
 62
    30
100
AcDbLine
 10
97.4676
 20
232.6809
 30
0.0
 11
97.4676
 21
226.9809
 31
0.0
  0
LINE
  5
321
100
AcDbEntity
  8
1
  6
CONTINUOUS
 62
    30
100
AcDbLine
 10
111.2676
 20
232.6809
 30
0.0
 11
111.2676
 21
226.9809
 31
0.0
  0
LINE
  5
322
100
AcDbEntity
  8
1
  6
HIDDEN
 62
    30
100
AcDbLine
 10
102.2676
 20
231.7809
 30
0.0
 11
102.2676
 21
229.6809
 31
0.0
  0
LINE
  5
323
100
AcDbEntity
  8
1
  6
CONTINUOUS
 62
    30
100
AcDbLine
 10
102.2676
 20
229.6809
 30
0.0
 11
102.2676
 21
228.4809
 31
0.0
  0
LINE
  5
324
100
AcDbEntity
  8
1
  6
HIDDEN
 62
    30
100
AcDbLine
 10
106.4676
 20
231.7809
 30
0.0
 11
106.4676
 21
229.6809
 31
0.0
  0
LINE
  5
325
100
AcDbEntity
  8
1
  6
CONTINUOUS
 62
    30
100
AcDbLine
 10
106.4676
 20
229.6809
 30
0.0
 11
106.4676
 21
228.4809
 31
0.0
  0
LINE
  5
326
100
AcDbEntity
  8
1
  6
HIDDEN
 62
    30
100
AcDbLine
 10
95.9676
 20
212.8809
 30
0.0
 11
95.9676
 21
228.4809
 31
0.0
  0
LINE
  5
327
100
AcDbEntity
  8
1
  6
CONTINUOUS
 62
    30
100
AcDbLine
 10
113.6159
 20
228.4809
 30
0.0
 11
117.1384
 21
212.8809
 31
0.0
  0
LINE
  5
328
100
AcDbEntity
  8
1
  6
CONTINUOUS
 62
    30
100
AcDbLine
 10
98.3676
 20
265.3809
 30
0.0
 11
98.3676
 21
231.7809
 31
0.0
  0
LINE
  5
329
100
AcDbEntity
  8
1
  6
CONTINUOUS
 62
    30
100
AcDbLine
 10
110.0676
 20
265.3809
 30
0.0
 11
110.0676
 21
231.7809
 31
0.0
  0
LINE
  5
32A
100
AcDbEntity
  8
1
  6
CONTINUOUS
 62
     7
100
AcDbLine
 10
104.2176
 20
221.2809
 30
0.0
 11
104.2176
 21
220.0809
 31
0.0
  0
ARC
  5
32B
100
AcDbEntity
  8
1
  6
CONTINUOUS
 62
    30
100
AcDbCircle
 10
107.1426
 20
263.42949
 30
0.0
 40
3.516195
210
0.0
220
0.0
230
1.0
100
AcDbArc
 50
33.709189
 51
146.290814
  0
ARC
  5
32C
100
AcDbEntity
  8
1
  6
CONTINUOUS
 62
    30
100
AcDbCircle
 10
101.2926
 20
263.531388
 30
0.0
 40
3.460682
210
0.0
220
0.0
230
1.0
100
AcDbArc
 50
32.30565
 51
147.69435
  0
ARC
  5
32D
100
AcDbEntity
  8
1
  6
CONTINUOUS
 62
    30
100
AcDbCircle
 10
101.2926
 20
267.057097
 30
0.0
 40
3.380527
210
0.0
220
0.0
230
1.0
100
AcDbArc
 50
210.088761
 51
329.911236
  0
LINE
  5
32E
100
AcDbEntity
  8
1
  6
CONTINUOUS
 62
     7
100
AcDbLine
 10
103.6176
 20
220.6809
 30
0.0
 11
104.8176
 21
220.6809
 31
0.0
  0
CIRCLE
  5
32F
100
AcDbEntity
  8
1
  6
CONTINUOUS
 62
    30
100
AcDbCircle
 10
104.2176
 20
220.6809
 30
0.0
 40
2.1
210
0.0
220
0.0
230
1.0
  0
LINE
  5
330
100
AcDbEntity
  8
1
  6
CONTINUOUS
 62
     7
100
AcDbLine
 10
102.7176
 20
220.6809
 30
0.0
 11
100.3176
 21
220.6809
 31
0.0
  0
LINE
  5
331
100
AcDbEntity
  8
1
  6
CONTINUOUS
 62
     7
100
AcDbLine
 10
104.2176
 20
222.1809
 30
0.0
 11
104.2176
 21
236.5809
 31
0.0
  0
LINE
  5
332
100
AcDbEntity
  8
1
  6
CONTINUOUS
 62
     7
100
AcDbLine
 10
104.2176
 20
237.7809
 30
0.0
 11
104.2176
 21
240.1809
 31
0.0
  0
LINE
  5
333
100
AcDbEntity
  8
1
  6
CONTINUOUS
 62
     7
100
AcDbLine
 10
104.2176
 20
241.3809
 30
0.0
 11
104.2176
 21
255.7809
 31
0.0
  0
CIRCLE
  5
334
100
AcDbEntity
  8
1
  6
HIDDEN
 62
    30
100
AcDbCircle
 10
119.5542
 20
195.1405
 30
0.0
 40
2.1
210
0.0
220
0.0
230
1.0
  0
LINE
  5
335
100
AcDbEntity
  8
1
  6
CONTINUOUS
 62
     7
100
AcDbLine
 10
104.2176
 20
219.1809
 30
0.0
 11
104.2176
 21
218.5809
 31
0.0
  0
LINE
  5
336
100
AcDbEntity
  8
1
  6
CONTINUOUS
 62
     7
100
AcDbLine
 10
104.2176
 20
218.5809
 30
0.0
 11
104.2176
 21
214.3809
 31
0.0
  0
LINE
  5
337
100
AcDbEntity
  8
1
  6
CONTINUOUS
 62
     7
100
AcDbLine
 10
105.7176
 20
220.6809
 30
0.0
 11
106.3176
 21
220.6809
 31
0.0
  0
LINE
  5
338
100
AcDbEntity
  8
1
  6
CONTINUOUS
 62
     7
100
AcDbLine
 10
106.3176
 20
220.6809
 30
0.0
 11
108.1176
 21
220.6809
 31
0.0
  0
LINE
  5
339
100
AcDbEntity
  8
1
  6
CONTINUOUS
 62
     7
100
AcDbLine
 10
114.7542
 20
195.1405
 30
0.0
 11
117.4542
 21
195.1405
 31
0.0
  0
LINE
  5
33A
100
AcDbEntity
  8
1
  6
CONTINUOUS
 62
     7
100
AcDbLine
 10
117.4542
 20
195.1405
 30
0.0
 11
124.9542
 21
195.1405
 31
0.0
  0
LINE
  5
33B
100
AcDbEntity
  8
1
  6
CONTINUOUS
 62
     7
100
AcDbLine
 10
119.5542
 20
189.7405
 30
0.0
 11
119.5542
 21
197.2405
 31
0.0
  0
LINE
  5
33C
100
AcDbEntity
  8
1
  6
CONTINUOUS
 62
     7
100
AcDbLine
 10
119.5542
 20
197.2405
 30
0.0
 11
119.5542
 21
200.5405
 31
0.0
  0
LINE
  5
33D
100
AcDbEntity
  8
1
  6
HIDDEN
 62
    30
100
AcDbLine
 10
104.2176
 20
218.5809
 30
0.0
 11
117.5033
 21
195.5921
 31
0.0
  0
LINE
  5
33E
100
AcDbEntity
  8
1
  6
HIDDEN
 62
    30
100
AcDbLine
 10
106.3176
 20
220.6809
 30
0.0
 11
119.879
 21
197.2152
 31
0.0
  0
LINE
  5
33F
100
AcDbEntity
  8
1
  6
HIDDEN
 62
    30
100
AcDbLine
 10
101.0676
 20
168.4809
 30
0.0
 11
101.0676
 21
213.4809
 31
0.0
  0
LINE
  5
340
100
AcDbEntity
  8
1
  6
HIDDEN
 62
    30
100
AcDbLine
 10
102.8676
 20
168.4809
 30
0.0
 11
102.8676
 21
213.4809
 31
0.0
  0
LINE
  5
341
100
AcDbEntity
  8
1
  6
HIDDEN
 62
    30
100
AcDbLine
 10
113.0676
 20
168.4809
 30
0.0
 11
113.0676
 21
213.4809
 31
0.0
  0
LINE
  5
342
100
AcDbEntity
  8
1
  6
HIDDEN
 62
    30
100
AcDbLine
 10
114.8676
 20
168.4809
 30
0.0
 11
114.8676
 21
213.4809
 31
0.0
  0
LINE
  5
343
100
AcDbEntity
  8
1
  6
HIDDEN
 62
    30
100
AcDbLine
 10
101.0676
 20
213.4809
 30
0.0
 11
102.8676
 21
213.4809
 31
0.0
  0
LINE
  5
344
100
AcDbEntity
  8
1
  6
HIDDEN
 62
    30
100
AcDbLine
 10
113.0676
 20
213.4809
 30
0.0
 11
114.8676
 21
213.4809
 31
0.0
  0
LINE
  5
345
100
AcDbEntity
  8
1
  6
CONTINUOUS
 62
    30
100
AcDbLine
 10
101.3676
 20
212.2809
 30
0.0
 11
102.5676
 21
212.2809
 31
0.0
  0
LINE
  5
346
100
AcDbEntity
  8
1
  6
CONTINUOUS
 62
    30
100
AcDbLine
 10
101.3676
 20
211.6809
 30
0.0
 11
102.5676
 21
211.6809
 31
0.0
  0
LINE
  5
347
100
AcDbEntity
  8
1
  6
CONTINUOUS
 62
    30
100
AcDbLine
 10
101.3676
 20
210.4809
 30
0.0
 11
102.5676
 21
210.4809
 31
0.0
  0
LINE
  5
348
100
AcDbEntity
  8
1
  6
CONTINUOUS
 62
    30
100
AcDbLine
 10
101.0676
 20
209.8809
 30
0.0
 11
102.8676
 21
209.8809
 31
0.0
  0
LINE
  5
349
100
AcDbEntity
  8
1
  6
CONTINUOUS
 62
    30
100
AcDbLine
 10
101.6676
 20
212.5809
 30
0.0
 11
102.2676
 21
212.5809
 31
0.0
  0
LINE
  5
34A
100
AcDbEntity
  8
1
  6
CONTINUOUS
 62
    30
100
AcDbLine
 10
101.6676
 20
211.9809
 30
0.0
 11
102.2676
 21
211.9809
 31
0.0
  0
LINE
  5
34B
100
AcDbEntity
  8
1
  6
CONTINUOUS
 62
    30
100
AcDbLine
 10
101.6676
 20
211.3809
 30
0.0
 11
102.2676
 21
211.3809
 31
0.0
  0
LINE
  5
34C
100
AcDbEntity
  8
1
  6
CONTINUOUS
 62
    30
100
AcDbLine
 10
101.6676
 20
210.7809
 30
0.0
 11
102.2676
 21
210.7809
 31
0.0
  0
LINE
  5
34D
100
AcDbEntity
  8
1
  6
CONTINUOUS
 62
    30
100
AcDbLine
 10
101.6676
 20
210.1809
 30
0.0
 11
102.2676
 21
210.1809
 31
0.0
  0
LINE
  5
34E
100
AcDbEntity
  8
1
  6
CONTINUOUS
 62
    30
100
AcDbLine
 10
101.6676
 20
213.1809
 30
0.0
 11
102.2676
 21
213.1809
 31
0.0
  0
LINE
  5
34F
100
AcDbEntity
  8
1
  6
CONTINUOUS
 62
    30
100
AcDbLine
 10
113.6676
 20
213.1809
 30
0.0
 11
114.2676
 21
213.1809
 31
0.0
  0
LINE
  5
350
100
AcDbEntity
  8
1
  6
HIDDEN
 62
    30
100
AcDbLine
 10
113.0676
 20
212.8809
 30
0.0
 11
114.8676
 21
212.8809
 31
0.0
  0
LINE
  5
351
100
AcDbEntity
  8
1
  6
CONTINUOUS
 62
    30
100
AcDbLine
 10
113.6676
 20
212.5809
 30
0.0
 11
114.2676
 21
212.5809
 31
0.0
  0
LINE
  5
352
100
AcDbEntity
  8
1
  6
CONTINUOUS
 62
    30
100
AcDbLine
 10
113.3676
 20
212.2809
 30
0.0
 11
114.5676
 21
212.2809
 31
0.0
  0
LINE
  5
353
100
AcDbEntity
  8
1
  6
CONTINUOUS
 62
    30
100
AcDbLine
 10
113.6676
 20
211.9809
 30
0.0
 11
114.2676
 21
211.9809
 31
0.0
  0
LINE
  5
354
100
AcDbEntity
  8
1
  6
CONTINUOUS
 62
    30
100
AcDbLine
 10
113.3676
 20
211.6809
 30
0.0
 11
114.5676
 21
211.6809
 31
0.0
  0
LINE
  5
355
100
AcDbEntity
  8
1
  6
CONTINUOUS
 62
    30
100
AcDbLine
 10
113.6676
 20
211.3809
 30
0.0
 11
114.2676
 21
211.3809
 31
0.0
  0
LINE
  5
356
100
AcDbEntity
  8
1
  6
HIDDEN
 62
    30
100
AcDbLine
 10
113.0676
 20
211.0809
 30
0.0
 11
114.8676
 21
211.0809
 31
0.0
  0
LINE
  5
357
100
AcDbEntity
  8
1
  6
CONTINUOUS
 62
    30
100
AcDbLine
 10
113.6676
 20
210.7809
 30
0.0
 11
114.2676
 21
210.7809
 31
0.0
  0
LINE
  5
358
100
AcDbEntity
  8
1
  6
CONTINUOUS
 62
    30
100
AcDbLine
 10
113.3676
 20
210.4809
 30
0.0
 11
114.5676
 21
210.4809
 31
0.0
  0
LINE
  5
359
100
AcDbEntity
  8
1
  6
CONTINUOUS
 62
    30
100
AcDbLine
 10
113.6676
 20
210.1809
 30
0.0
 11
114.2676
 21
210.1809
 31
0.0
  0
LINE
  5
35A
100
AcDbEntity
  8
1
  6
CONTINUOUS
 62
    30
100
AcDbLine
 10
113.0676
 20
209.8809
 30
0.0
 11
114.8676
 21
209.8809
 31
0.0
  0
LINE
  5
35B
100
AcDbEntity
  8
1
  6
HIDDEN
 62
    30
100
AcDbLine
 10
98.6676
 20
174.7809
 30
0.0
 11
117.2676
 21
174.7809
 31
0.0
  0
LINE
  5
35C
100
AcDbEntity
  8
1
  6
HIDDEN
 62
    30
100
AcDbLine
 10
98.6676
 20
176.8809
 30
0.0
 11
117.2676
 21
176.8809
 31
0.0
  0
LINE
  5
35D
100
AcDbEntity
  8
1
  6
HIDDEN
 62
    30
100
AcDbLine
 10
98.6676
 20
176.8809
 30
0.0
 11
98.6676
 21
174.7809
 31
0.0
  0
LINE
  5
35E
100
AcDbEntity
  8
1
  6
HIDDEN
 62
    30
100
AcDbLine
 10
117.2676
 20
176.8809
 30
0.0
 11
117.2676
 21
174.7809
 31
0.0
  0
LINE
  5
35F
100
AcDbEntity
  8
1
  6
CONTINUOUS
 62
    30
100
AcDbLine
 10
98.6676
 20
175.354
 30
0.0
 11
100.1945
 21
176.8809
 31
0.0
  0
LINE
  5
360
100
AcDbEntity
  8
1
  6
CONTINUOUS
 62
    30
100
AcDbLine
 10
101.4886
 20
174.7809
 30
0.0
 11
103.5886
 21
176.8809
 31
0.0
  0
LINE
  5
361
100
AcDbEntity
  8
1
  6
CONTINUOUS
 62
    30
100
AcDbLine
 10
108.2768
 20
174.7809
 30
0.0
 11
110.3768
 21
176.8809
 31
0.0
  0
LINE
  5
362
100
AcDbEntity
  8
1
  6
CONTINUOUS
 62
    30
100
AcDbLine
 10
111.6709
 20
174.7809
 30
0.0
 11
113.7709
 21
176.8809
 31
0.0
  0
LINE
  5
363
100
AcDbEntity
  8
1
  6
CONTINUOUS
 62
    30
100
AcDbLine
 10
115.0651
 20
174.7809
 30
0.0
 11
117.1651
 21
176.8809
 31
0.0
  0
LINE
  5
364
100
AcDbEntity
  8
1
  6
HIDDEN
 62
    30
100
AcDbLine
 10
100.4676
 20
173.5809
 30
0.0
 11
103.4676
 21
173.5809
 31
0.0
  0
LINE
  5
365
100
AcDbEntity
  8
1
  6
HIDDEN
 62
    30
100
AcDbLine
 10
112.4676
 20
173.5809
 30
0.0
 11
115.4676
 21
173.5809
 31
0.0
  0
LINE
  5
366
100
AcDbEntity
  8
1
  6
HIDDEN
 62
    30
100
AcDbLine
 10
100.4676
 20
173.5809
 30
0.0
 11
100.4676
 21
174.7809
 31
0.0
  0
LINE
  5
367
100
AcDbEntity
  8
1
  6
HIDDEN
 62
    30
100
AcDbLine
 10
103.4676
 20
173.5809
 30
0.0
 11
103.4676
 21
174.7809
 31
0.0
  0
LINE
  5
368
100
AcDbEntity
  8
1
  6
HIDDEN
 62
    30
100
AcDbLine
 10
112.4676
 20
173.5809
 30
0.0
 11
112.4676
 21
174.7809
 31
0.0
  0
LINE
  5
369
100
AcDbEntity
  8
1
  6
HIDDEN
 62
    30
100
AcDbLine
 10
115.4676
 20
173.5809
 30
0.0
 11
115.4676
 21
174.7809
 31
0.0
  0
LINE
  5
36A
100
AcDbEntity
  8
1
  6
CONTINUOUS
 62
    30
100
AcDbLine
 10
98.6676
 20
168.4809
 30
0.0
 11
117.2676
 21
168.4809
 31
0.0
  0
LINE
  5
36B
100
AcDbEntity
  8
1
  6
CONTINUOUS
 62
    30
100
AcDbLine
 10
98.6676
 20
171.4809
 30
0.0
 11
98.6676
 21
168.4809
 31
0.0
  0
LINE
  5
36C
100
AcDbEntity
  8
1
  6
CONTINUOUS
 62
    30
100
AcDbLine
 10
117.2676
 20
171.4809
 30
0.0
 11
117.2676
 21
168.4809
 31
0.0
  0
LINE
  5
36D
100
AcDbEntity
  8
1
  6
CONTINUOUS
 62
    30
100
AcDbLine
 10
98.6676
 20
168.5657
 30
0.0
 11
101.5828
 21
171.4809
 31
0.0
  0
LINE
  5
36E
100
AcDbEntity
  8
1
  6
CONTINUOUS
 62
    30
100
AcDbLine
 10
104.8828
 20
174.7809
 30
0.0
 11
106.9828
 21
176.8809
 31
0.0
  0
LINE
  5
36F
100
AcDbEntity
  8
1
  6
CONTINUOUS
 62
    30
100
AcDbLine
 10
101.9769
 20
168.4809
 30
0.0
 11
104.9769
 21
171.4809
 31
0.0
  0
LINE
  5
370
100
AcDbEntity
  8
1
  6
CONTINUOUS
 62
    30
100
AcDbLine
 10
105.3711
 20
168.4809
 30
0.0
 11
108.3711
 21
171.4809
 31
0.0
  0
LINE
  5
371
100
AcDbEntity
  8
1
  6
CONTINUOUS
 62
    30
100
AcDbLine
 10
108.7651
 20
168.4809
 30
0.0
 11
111.7651
 21
171.4809
 31
0.0
  0
LINE
  5
372
100
AcDbEntity
  8
1
  6
CONTINUOUS
 62
    30
100
AcDbLine
 10
112.1593
 20
168.4809
 30
0.0
 11
115.1593
 21
171.4809
 31
0.0
  0
LINE
  5
373
100
AcDbEntity
  8
1
  6
CONTINUOUS
 62
    30
100
AcDbLine
 10
115.5533
 20
168.4809
 30
0.0
 11
117.2676
 21
170.1952
 31
0.0
  0
LINE
  5
374
100
AcDbEntity
  8
1
  6
CONTINUOUS
 62
    30
100
AcDbLine
 10
101.0676
 20
168.4809
 30
0.0
 11
101.0676
 21
167.2809
 31
0.0
  0
LINE
  5
375
100
AcDbEntity
  8
1
  6
CONTINUOUS
 62
    30
100
AcDbLine
 10
102.8676
 20
168.4809
 30
0.0
 11
102.8676
 21
167.2809
 31
0.0
  0
LINE
  5
376
100
AcDbEntity
  8
1
  6
CONTINUOUS
 62
    30
100
AcDbLine
 10
113.0676
 20
168.4809
 30
0.0
 11
113.0676
 21
167.2809
 31
0.0
  0
LINE
  5
377
100
AcDbEntity
  8
1
  6
CONTINUOUS
 62
    30
100
AcDbLine
 10
114.8676
 20
168.4809
 30
0.0
 11
114.8676
 21
167.2809
 31
0.0
  0
LINE
  5
378
100
AcDbEntity
  8
1
  6
CONTINUOUS
 62
    30
100
AcDbLine
 10
100.4676
 20
167.2809
 30
0.0
 11
103.4676
 21
167.2809
 31
0.0
  0
LINE
  5
379
100
AcDbEntity
  8
1
  6
CONTINUOUS
 62
    30
100
AcDbLine
 10
112.4676
 20
167.2809
 30
0.0
 11
115.4676
 21
167.2809
 31
0.0
  0
LINE
  5
37A
100
AcDbEntity
  8
1
  6
CONTINUOUS
 62
    30
100
AcDbLine
 10
100.4676
 20
168.4809
 30
0.0
 11
100.4676
 21
167.2809
 31
0.0
  0
LINE
  5
37B
100
AcDbEntity
  8
1
  6
CONTINUOUS
 62
    30
100
AcDbLine
 10
103.4676
 20
168.4809
 30
0.0
 11
103.4676
 21
167.2809
 31
0.0
  0
LINE
  5
37C
100
AcDbEntity
  8
1
  6
CONTINUOUS
 62
    30
100
AcDbLine
 10
112.4676
 20
168.4809
 30
0.0
 11
112.4676
 21
167.2809
 31
0.0
  0
LINE
  5
37D
100
AcDbEntity
  8
1
  6
CONTINUOUS
 62
    30
100
AcDbLine
 10
115.4676
 20
168.4809
 30
0.0
 11
115.4676
 21
167.2809
 31
0.0
  0
LINE
  5
37E
100
AcDbEntity
  8
1
  6
CONTINUOUS
 62
     7
100
AcDbLine
 10
146.3642
 20
164.2809
 30
0.0
 11
146.3642
 21
175.0809
 31
0.0
  0
LINE
  5
37F
100
AcDbEntity
  8
1
  6
CONTINUOUS
 62
     7
100
AcDbLine
 10
146.3642
 20
142.6809
 30
0.0
 11
146.3642
 21
159.4809
 31
0.0
  0
LINE
  5
380
100
AcDbEntity
  8
1
  6
CONTINUOUS
 62
     7
100
AcDbLine
 10
146.3642
 20
160.6809
 30
0.0
 11
146.3642
 21
163.0809
 31
0.0
  0
LINE
  5
381
100
AcDbEntity
  8
1
  6
CONTINUOUS
 62
    30
100
AcDbLine
 10
143.9642
 20
145.0809
 30
0.0
 11
143.9642
 21
142.6809
 31
0.0
  0
LINE
  5
382
100
AcDbEntity
  8
1
  6
CONTINUOUS
 62
    30
100
AcDbLine
 10
151.1642
 20
145.0809
 30
0.0
 11
151.1642
 21
147.4809
 31
0.0
  0
LINE
  5
383
100
AcDbEntity
  8
1
  6
CONTINUOUS
 62
    30
100
AcDbLine
 10
141.5642
 20
147.4809
 30
0.0
 11
141.5642
 21
145.0809
 31
0.0
  0
LINE
  5
384
100
AcDbEntity
  8
1
  6
CONTINUOUS
 62
    30
100
AcDbLine
 10
153.5642
 20
142.6809
 30
0.0
 11
153.5642
 21
145.0809
 31
0.0
  0
LINE
  5
385
100
AcDbEntity
  8
1
  6
CONTINUOUS
 62
    30
100
AcDbLine
 10
134.6676
 20
145.0809
 30
0.0
 11
141.5642
 21
145.0809
 31
0.0
  0
LINE
  5
386
100
AcDbEntity
  8
1
  6
CONTINUOUS
 62
    30
100
AcDbLine
 10
143.9642
 20
145.0809
 30
0.0
 11
146.3642
 21
145.0809
 31
0.0
  0
LINE
  5
387
100
AcDbEntity
  8
1
  6
CONTINUOUS
 62
    30
100
AcDbLine
 10
146.3642
 20
145.0809
 30
0.0
 11
151.1642
 21
145.0809
 31
0.0
  0
LINE
  5
388
100
AcDbEntity
  8
1
  6
CONTINUOUS
 62
    30
100
AcDbLine
 10
153.5642
 20
145.0809
 30
0.0
 11
158.0607
 21
145.0809
 31
0.0
  0
LINE
  5
389
100
AcDbEntity
  8
1
  6
CONTINUOUS
 62
    30
100
AcDbLine
 10
141.5642
 20
147.4809
 30
0.0
 11
143.9642
 21
142.6809
 31
0.0
  0
LINE
  5
38A
100
AcDbEntity
  8
1
  6
CONTINUOUS
 62
    30
100
AcDbLine
 10
151.1642
 20
147.4809
 30
0.0
 11
153.5642
 21
142.6809
 31
0.0
  0
LINE
  5
38B
100
AcDbEntity
  8
1
  6
CONTINUOUS
 62
    30
100
AcDbLine
 10
192.2325
 20
180.3876
 30
0.0
 11
189.8325
 21
180.3876
 31
0.0
  0
LINE
  5
38C
100
AcDbEntity
  8
1
  6
CONTINUOUS
 62
    30
100
AcDbLine
 10
189.8325
 20
177.9876
 30
0.0
 11
187.4325
 21
177.9876
 31
0.0
  0
LINE
  5
38D
100
AcDbEntity
  8
1
  6
CONTINUOUS
 62
    30
100
AcDbLine
 10
187.4325
 20
177.9876
 30
0.0
 11
192.2325
 21
180.3876
 31
0.0
  0
LINE
  5
38E
100
AcDbEntity
  8
1
  6
CONTINUOUS
 62
    30
100
AcDbLine
 10
69.8676
 20
175.9809
 30
0.0
 11
74.6676
 21
178.3809
 31
0.0
  0
LINE
  5
38F
100
AcDbEntity
  8
1
  6
CONTINUOUS
 62
    30
100
AcDbLine
 10
72.2676
 20
175.9809
 30
0.0
 11
69.8676
 21
175.9809
 31
0.0
  0
LINE
  5
390
100
AcDbEntity
  8
1
  6
CONTINUOUS
 62
    30
100
AcDbLine
 10
74.6676
 20
178.3809
 30
0.0
 11
72.2676
 21
178.3809
 31
0.0
  0
LINE
  5
391
100
AcDbEntity
  8
1
  6
CONTINUOUS
 62
    30
100
AcDbLine
 10
189.8325
 20
184.8911
 30
0.0
 11
189.8325
 21
189.0922
 31
0.0
  0
LINE
  5
392
100
AcDbEntity
  8
1
  6
CONTINUOUS
 62
    30
100
AcDbLine
 10
189.8325
 20
171.0841
 30
0.0
 11
189.8325
 21
173.4841
 31
0.0
  0
LINE
  5
393
100
AcDbEntity
  8
1
  6
CONTINUOUS
 62
    30
100
AcDbLine
 10
189.8325
 20
173.4841
 30
0.0
 11
189.8325
 21
177.9876
 31
0.0
  0
LINE
  5
394
100
AcDbEntity
  8
1
  6
CONTINUOUS
 62
    30
100
AcDbLine
 10
189.8325
 20
180.3876
 30
0.0
 11
189.8325
 21
184.8911
 31
0.0
  0
LINE
  5
395
100
AcDbEntity
  8
1
  6
CONTINUOUS
 62
    30
100
AcDbLine
 10
72.2676
 20
185.2809
 30
0.0
 11
72.2676
 21
178.3809
 31
0.0
  0
LINE
  5
396
100
AcDbEntity
  8
1
  6
CONTINUOUS
 62
    30
100
AcDbLine
 10
72.2676
 20
175.9809
 30
0.0
 11
72.2676
 21
169.0809
 31
0.0
  0
CIRCLE
  5
397
100
AcDbEntity
  8
1
  6
CONTINUOUS
 62
     7
100
AcDbCircle
 10
99.656
 20
220.9336
 30
0.0
 40
0.3
210
0.0
220
0.0
230
1.0
  0
CIRCLE
  5
398
100
AcDbEntity
  8
1
  6
CONTINUOUS
 62
     7
100
AcDbCircle
 10
107.6927
 20
215.9557
 30
0.0
 40
0.3
210
0.0
220
0.0
230
1.0
  0
LINE
  5
399
100
AcDbEntity
  8
1
  6
CONTINUOUS
 62
    30
100
AcDbLine
 10
110.0676
 20
253.3809
 30
0.0
 11
111.2676
 21
253.3809
 31
0.0
  0
LINE
  5
39A
100
AcDbEntity
  8
1
  6
CONTINUOUS
 62
    30
100
AcDbLine
 10
110.0676
 20
246.1809
 30
0.0
 11
111.2676
 21
246.1809
 31
0.0
  0
LINE
  5
39B
100
AcDbEntity
  8
1
  6
CONTINUOUS
 62
    30
100
AcDbLine
 10
111.2676
 20
253.3809
 30
0.0
 11
111.2676
 21
246.1809
 31
0.0
  0
ARC
  5
39C
100
AcDbEntity
  8
1
  6
CONTINUOUS
 62
    30
100
AcDbCircle
 10
97.4676
 20
249.7809
 30
0.0
 40
1.5
210
0.0
220
0.0
230
1.0
100
AcDbArc
 50
306.869897
 51
53.130103
  0
LINE
  5
39D
100
AcDbEntity
  8
1
  6
CONTINUOUS
 62
     7
100
AcDbLine
 10
98.3676
 20
249.7395
 30
0.0
 11
93.6304
 21
253.9141
 31
0.0
  0
LINE
  5
39E
100
AcDbEntity
  8
1
  6
CONTINUOUS
 62
     7
100
AcDbLine
 10
93.6304
 20
253.9141
 30
0.0
 11
91.2421
 21
253.9141
 31
0.0
  0
LINE
  5
39F
100
AcDbEntity
  8
1
  6
CONTINUOUS
 62
     7
100
AcDbLine
 10
111.2676
 20
249.7277
 30
0.0
 11
117.1253
 21
254.1363
 31
0.0
  0
LINE
  5
3A0
100
AcDbEntity
  8
1
  6
CONTINUOUS
 62
     7
100
AcDbLine
 10
117.1253
 20
254.1363
 30
0.0
 11
119.347
 21
254.1363
 31
0.0
  0
INSERT
  5
3A1
100
AcDbEntity
  8
1
  6
CONTINUOUS
 62
     1
100
AcDbBlockReference
  2
LDR
 10
98.3676
 20
249.7395
 30
0.0
 41
240.000002
 42
240.000002
 50
318.612277
210
0.0
220
0.0
230
1.0
  0
INSERT
  5
3A2
100
AcDbEntity
  8
1
  6
CONTINUOUS
 62
     1
100
AcDbBlockReference
  2
LDR
 10
111.2676
 20
249.7277
 30
0.0
 41
239.999998
 42
239.999998
 50
216.965712
210
0.0
220
0.0
230
1.0
  0
LINE
  5
3A3
100
AcDbEntity
  8
1
  6
CONTINUOUS
 62
     7
100
AcDbLine
 10
99.656
 20
220.9336
 30
0.0
 11
91.756
 21
220.9229
 31
0.0
  0
LINE
  5
3A4
100
AcDbEntity
  8
1
  6
CONTINUOUS
 62
     7
100
AcDbLine
 10
107.6354
 20
215.986
 30
0.0
 11
120.873
 21
232.891
 31
0.0
  0
LINE
  5
3A5
100
AcDbEntity
  8
1
  6
CONTINUOUS
 62
     7
100
AcDbLine
 10
120.873
 20
232.891
 30
0.0
 11
124.1836
 21
232.891
 31
0.0
  0
LINE
  5
3A6
100
AcDbEntity
  8
1
  6
CONTINUOUS
 62
     7
100
AcDbLine
 10
113.9745
 20
213.4809
 30
0.0
 11
118.7144
 21
222.4368
 31
0.0
  0
LINE
  5
3A7
100
AcDbEntity
  8
1
  6
CONTINUOUS
 62
     7
100
AcDbLine
 10
118.7144
 20
222.4368
 30
0.0
 11
129.3967
 21
222.4368
 31
0.0
  0
INSERT
  5
3A8
100
AcDbEntity
  8
1
  6
CONTINUOUS
 62
     1
100
AcDbBlockReference
  2
LDR
 10
113.9745
 20
213.4809
 30
0.0
 41
240.000001
 42
240.000001
 50
242.110019
210
0.0
220
0.0
230
1.0
  0
LINE
  5
3A9
100
AcDbEntity
  8
1
  6
CONTINUOUS
 62
     7
100
AcDbLine
 10
120.8735
 20
196.7743
 30
0.0
 11
127.0857
 21
207.7232
 31
0.0
  0
LINE
  5
3AA
100
AcDbEntity
  8
1
  6
CONTINUOUS
 62
     7
100
AcDbLine
 10
127.0857
 20
207.7232
 30
0.0
 11
130.9639
 21
207.7232
 31
0.0
  0
LINE
  5
3AB
100
AcDbEntity
  8
1
  6
CONTINUOUS
 62
     7
100
AcDbLine
 10
122.7215
 20
182.8118
 30
0.0
 11
130.2072
 21
197.6933
 31
0.0
  0
LINE
  5
3AC
100
AcDbEntity
  8
1
  6
CONTINUOUS
 62
     7
100
AcDbLine
 10
130.2072
 20
197.6933
 30
0.0
 11
134.2746
 21
197.6933
 31
0.0
  0
INSERT
  5
3AD
100
AcDbEntity
  8
1
  6
CONTINUOUS
 62
     1
100
AcDbBlockReference
  2
LDR
 10
122.7215
 20
182.8118
 30
0.0
 41
240.000001
 42
240.000001
 50
243.296666
210
0.0
220
0.0
230
1.0
  0
LINE
  5
3AE
100
AcDbEntity
  8
1
  6
CONTINUOUS
 62
     7
100
AcDbLine
 10
85.3074
 20
182.8809
 30
0.0
 11
89.1548
 21
197.4094
 31
0.0
  0
LINE
  5
3AF
100
AcDbEntity
  8
1
  6
CONTINUOUS
 62
     7
100
AcDbLine
 10
89.1548
 20
197.4094
 30
0.0
 11
74.9082
 21
197.4094
 31
0.0
  0
INSERT
  5
3B0
100
AcDbEntity
  8
1
  6
CONTINUOUS
 62
     1
100
AcDbBlockReference
  2
LDR
 10
85.3074
 20
182.8809
 30
0.0
 41
239.999998
 42
239.999998
 50
255.167548
210
0.0
220
0.0
230
1.0
  0
LINE
  5
3B1
100
AcDbEntity
  8
1
  6
CONTINUOUS
 62
     7
100
AcDbLine
 10
162.4462
 20
185.7359
 30
0.0
 11
170.0508
 21
200.8997
 31
0.0
  0
LINE
  5
3B2
100
AcDbEntity
  8
1
  6
CONTINUOUS
 62
     7
100
AcDbLine
 10
173.4518
 20
200.8997
 30
0.0
 11
170.0508
 21
200.8997
 31
0.0
  0
INSERT
  5
3B3
100
AcDbEntity
  8
1
  6
CONTINUOUS
 62
     1
100
AcDbBlockReference
  2
LDR
 10
162.4462
 20
185.7359
 30
0.0
 41
239.999999
 42
239.999999
 50
243.366373
210
0.0
220
0.0
230
1.0
  0
LINE
  5
3B4
100
AcDbEntity
  8
1
  6
CONTINUOUS
 62
     7
100
AcDbLine
 10
117.2676
 20
175.8309
 30
0.0
 11
125.1711
 21
175.8309
 31
0.0
  0
INSERT
  5
3B5
100
AcDbEntity
  8
1
  6
CONTINUOUS
 62
     1
100
AcDbBlockReference
  2
LDR
 10
117.2676
 20
175.8309
 30
0.0
 41
240.0
 42
240.0
 50
180.0
210
0.0
220
0.0
230
1.0
  0
LINE
  5
3B6
100
AcDbEntity
  8
1
  6
CONTINUOUS
 62
     7
100
AcDbLine
 10
98.5693
 20
170.027
 30
0.0
 11
69.0743
 21
178.3076
 31
0.0
  0
LINE
  5
3B7
100
AcDbEntity
  8
1
  6
CONTINUOUS
 62
     7
100
AcDbLine
 10
69.0743
 20
178.3076
 30
0.0
 11
62.1161
 21
178.3076
 31
0.0
  0
INSERT
  5
3B8
100
AcDbEntity
  8
1
  6
CONTINUOUS
 62
     1
100
AcDbBlockReference
  2
LDR
 10
98.5693
 20
170.027
 30
0.0
 41
240.000002
 42
240.000002
 50
344.318132
210
0.0
220
0.0
230
1.0
  0
TEXT
  5
3B9
100
AcDbEntity
  8
1
  6
CONTINUOUS
 62
     7
100
AcDbText
 10
42.4261
 20
252.418
 30
0.0
 40
3.0
  1
GROUND CONNECTOR
  7
MONOTXT
 72
     4
 11
66.3197
 21
253.918
 31
0.0
210
0.0
220
0.0
230
1.0
100
AcDbText
  0
TEXT
  5
3BA
100
AcDbEntity
  8
1
  6
CONTINUOUS
 62
     7
100
AcDbText
 10
120.4171
 20
252.8277
 30
0.0
 40
3.0
  1
HAND HOLE (AS DESIGNATED)
  7
MONOTXT
 72
     4
 11
154.5627
 21
254.3277
 31
0.0
210
0.0
220
0.0
230
1.0
100
AcDbText
  0
TEXT
  5
3BB
100
AcDbEntity
  8
1
  6
CONTINUOUS
 62
     7
100
AcDbText
 10
126.6504
 20
231.306
 30
0.0
 40
3.0
  1
3
  7
MONOTXT
 72
     4
 11
127.6543
 21
232.806
 31
0.0
210
0.0
220
0.0
230
1.0
100
AcDbText
  0
TEXT
  5
3BC
100
AcDbEntity
  8
1
  6
CONTINUOUS
 62
     7
100
AcDbText
 10
135.6511
 20
196.1257
 30
0.0
 40
3.0
  1
CONST.
  7
MONOTXT
 72
     4
 11
143.5054
 21
197.6257
 31
0.0
210
0.0
220
0.0
230
1.0
100
AcDbText
  0
TEXT
  5
3BD
100
AcDbEntity
  8
1
  6
CONTINUOUS
 62
     7
100
AcDbText
 10
137.6944
 20
190.7257
 30
0.0
 40
3.0
  1
JOINT
  7
MONOTXT
 72
     4
 11
143.5172
 21
192.2257
 31
0.0
210
0.0
220
0.0
230
1.0
100
AcDbText
  0
TEXT
  5
3BE
100
AcDbEntity
  8
1
  6
CONTINUOUS
 62
     7
100
AcDbText
 10
174.585
 20
198.9934
 30
0.0
 40
3.0
  1
ROADWAY
  7
MONOTXT
 72
     4
 11
185.085
 21
200.4934
 31
0.0
210
0.0
220
0.0
230
1.0
100
AcDbText
  0
TEXT
  5
3BF
100
AcDbEntity
  8
1
  6
CONTINUOUS
 62
     7
100
AcDbText
 10
178.3763
 20
193.5934
 30
0.0
 40
3.0
  1
(TYP.)
  7
MONOTXT
 72
     4
 11
185.0731
 21
195.0934
 31
0.0
210
0.0
220
0.0
230
1.0
100
AcDbText
  0
TEXT
  5
3C0
100
AcDbEntity
  8
1
  6
CONTINUOUS
 62
     7
100
AcDbText
 10
49.2363
 20
200.8741
 30
0.0
 40
3.0
  1
PEDESTRIAN
  7
MONOTXT
 72
     4
 11
62.4291
 21
202.3741
 31
0.0
210
0.0
220
0.0
230
1.0
100
AcDbText
  0
TEXT
  5
3C1
100
AcDbEntity
  8
1
  6
CONTINUOUS
 62
     7
100
AcDbText
 10
51.7875
 20
195.4741
 30
0.0
 40
3.0
  1
WALKWAY
  7
MONOTXT
 72
     4
 11
62.4292
 21
196.9741
 31
0.0
210
0.0
220
0.0
230
1.0
100
AcDbText
  0
TEXT
  5
3C2
100
AcDbEntity
  8
1
  6
CONTINUOUS
 62
     7
100
AcDbText
 10
43.2245
 20
190.0741
 30
0.0
 40
3.0
  1
(AS APPLICABLE)
  7
MONOTXT
 72
     4
 11
62.4174
 21
191.5741
 31
0.0
210
0.0
220
0.0
230
1.0
100
AcDbText
  0
TEXT
  5
3C3
100
AcDbEntity
  8
1
  6
CONTINUOUS
 62
     7
100
AcDbText
 10
125.9475
 20
174.581
 30
0.0
 40
3.0
  1
ALT.
  7
MONOTXT
 72
     4
 11
130.4002
 21
176.081
 31
0.0
210
0.0
220
0.0
230
1.0
100
AcDbText
  0
TEXT
  5
3C4
100
AcDbEntity
  8
1
  6
CONTINUOUS
 62
     7
100
AcDbText
 10
87.5163
 20
219.3206
 30
0.0
 40
3.0
  1
1
  7
MONOTXT
 72
     4
 11
87.8706
 21
220.8206
 31
0.0
210
0.0
220
0.0
230
1.0
100
AcDbText
  0
TEXT
  5
3C5
100
AcDbEntity
  8
1
  6
CONTINUOUS
 62
     7
100
AcDbText
 10
57.3734
 20
176.8342
 30
0.0
 40
3.0
  1
4
  7
MONOTXT
 72
     4
 11
58.4482
 21
178.3342
 31
0.0
210
0.0
220
0.0
230
1.0
100
AcDbText
  0
LINE
  5
3C6
100
AcDbEntity
  8
1
  6
CONTINUOUS
 62
     7
100
AcDbLine
 10
118.2473
 20
161.9603
 30
0.0
 11
113.4473
 21
161.9603
 31
0.0
  0
LINE
  5
3C7
100
AcDbEntity
  8
1
  6
CONTINUOUS
 62
     7
100
AcDbLine
 10
115.8473
 20
166.1172
 30
0.0
 11
113.4473
 21
161.9603
 31
0.0
  0
LINE
  5
3C8
100
AcDbEntity
  8
1
  6
CONTINUOUS
 62
     7
100
AcDbLine
 10
115.8473
 20
166.1172
 30
0.0
 11
118.2473
 21
161.9603
 31
0.0
  0
TEXT
  5
3C9
100
AcDbEntity
  8
1
  6
CONTINUOUS
 62
     7
100
AcDbText
 10
115.4049
 20
162.2267
 30
0.0
 40
3.0
  1
1
  7
MONOTXT
 72
     4
 11
115.7592
 21
163.7267
 31
0.0
210
0.0
220
0.0
230
1.0
100
AcDbText
  0
TEXT
  5
3CA
100
AcDbEntity
  8
1
  6
CONTINUOUS
 62
     7
100
AcDbText
 10
66.9322
 20
127.8373
 30
0.0
 40
4.8
  1
TYPE "F" INSTALLATION DETAILS ON
  7
MONOTXT
 72
     4
 11
135.3227
 21
130.2373
 31
0.0
210
0.0
220
0.0
230
1.0
100
AcDbText
  0
TEXT
  5
3CB
100
AcDbEntity
  8
1
  6
CONTINUOUS
 62
     7
100
AcDbText
 10
119.77
 20
120.6373
 30
0.0
 40
4.8
  1
PARAPET
  7
MONOTXT
 72
     4
 11
135.3227
 21
123.0373
 31
0.0
210
0.0
220
0.0
230
1.0
100
AcDbText
  0
LINE
  5
3CC
100
AcDbEntity
  8
1
  6
CONTINUOUS
 62
     7
100
AcDbLine
 10
65.3646
 20
126.6373
 30
0.0
 11
205.457
 21
126.6373
 31
0.0
  0
LINE
  5
3CD
100
AcDbEntity
  8
1
  6
CONTINUOUS
 62
     7
100
AcDbLine
 10
117.867
 20
119.7369
 30
0.0
 11
152.0438
 21
119.7369
 31
0.0
  0
TEXT
  5
3CE
100
AcDbEntity
  8
1
  6
CONTINUOUS
 62
     7
100
AcDbText
 10
111.7646
 20
91.2959
 30
0.0
 40
3.6
  1
LEGEND:
  7
MONOTXT
 72
     4
 11
122.4796
 21
93.0959
 31
0.0
210
0.0
220
0.0
230
1.0
100
AcDbText
  0
CIRCLE
  5
3CF
100
AcDbEntity
  8
1
  6
CONTINUOUS
 62
     7
100
AcDbCircle
 10
66.5823
 20
78.0278
 30
0.0
 40
3.6
210
0.0
220
0.0
230
1.0
  0
CIRCLE
  5
3D0
100
AcDbEntity
  8
1
  6
CONTINUOUS
 62
     7
100
AcDbCircle
 10
58.5161
 20
178.3076
 30
0.0
 40
3.6
210
0.0
220
0.0
230
1.0
  0
CIRCLE
  5
3D1
100
AcDbEntity
  8
1
  6
CONTINUOUS
 62
     7
100
AcDbCircle
 10
88.156
 20
220.9229
 30
0.0
 40
3.6
210
0.0
220
0.0
230
1.0
  0
CIRCLE
  5
3D2
100
AcDbEntity
  8
1
  6
CONTINUOUS
 62
     7
100
AcDbCircle
 10
127.7836
 20
232.891
 30
0.0
 40
3.6
210
0.0
220
0.0
230
1.0
  0
CIRCLE
  5
3D3
100
AcDbEntity
  8
1
  6
CONTINUOUS
 62
     7
100
AcDbCircle
 10
66.9048
 20
65.9091
 30
0.0
 40
3.6
210
0.0
220
0.0
230
1.0
  0
CIRCLE
  5
3D4
100
AcDbEntity
  8
1
  6
CONTINUOUS
 62
     7
100
AcDbCircle
 10
67.2544
 20
54.0519
 30
0.0
 40
3.6
210
0.0
220
0.0
230
1.0
  0
CIRCLE
  5
3D5
100
AcDbEntity
  8
1
  6
CONTINUOUS
 62
     7
100
AcDbCircle
 10
67.9537
 20
41.8075
 30
0.0
 40
3.6
210
0.0
220
0.0
230
1.0
  0
TEXT
  5
3D6
100
AcDbEntity
  8
1
  6
CONTINUOUS
 62
     7
100
AcDbText
 10
65.8224
 20
76.1397
 30
0.0
 40
3.6
  1
1
  7
MONOTXT
 72
     4
 11
66.2476
 21
77.9397
 31
0.0
210
0.0
220
0.0
230
1.0
100
AcDbText
  0
TEXT
  5
3D7
100
AcDbEntity
  8
1
  6
CONTINUOUS
 62
     7
100
AcDbText
 10
65.6409
 20
64.1668
 30
0.0
 40
3.6
  1
2
  7
MONOTXT
 72
     4
 11
66.8456
 21
65.9668
 31
0.0
210
0.0
220
0.0
230
1.0
100
AcDbText
  0
TEXT
  5
3D8
100
AcDbEntity
  8
1
  6
CONTINUOUS
 62
     7
100
AcDbText
 10
65.9328
 20
52.0478
 30
0.0
 40
3.6
  1
3
  7
MONOTXT
 72
     4
 11
67.1375
 21
53.8478
 31
0.0
210
0.0
220
0.0
230
1.0
100
AcDbText
  0
TEXT
  5
3D9
100
AcDbEntity
  8
1
  6
CONTINUOUS
 62
     7
100
AcDbText
 10
66.5776
 20
40.0749
 30
0.0
 40
3.6
  1
4
  7
MONOTXT
 72
     4
 11
67.8673
 21
41.8749
 31
0.0
210
0.0
220
0.0
230
1.0
100
AcDbText
  0
LINE
  5
3DA
100
AcDbEntity
  8
1
  6
CONTINUOUS
 62
     4
100
AcDbLine
 10
278.8077
 20
152.7952
 30
0.0
 11
278.8077
 21
169.5952
 31
0.0
  0
LINE
  5
3DB
100
AcDbEntity
  8
1
  6
CONTINUOUS
 62
     4
100
AcDbLine
 10
278.8077
 20
169.5952
 30
0.0
 11
298.0077
 21
169.5952
 31
0.0
  0
LINE
  5
3DC
100
AcDbEntity
  8
1
  6
CONTINUOUS
 62
     4
100
AcDbLine
 10
278.8077
 20
168.3952
 30
0.0
 11
298.2787
 21
168.3952
 31
0.0
  0
LINE
  5
3DD
100
AcDbEntity
  8
1
  6
CONTINUOUS
 62
     4
100
AcDbLine
 10
281.8077
 20
149.7952
 30
0.0
 11
302.4786
 21
149.7952
 31
0.0
  0
LINE
  5
3DE
100
AcDbEntity
  8
1
  6
CONTINUOUS
 62
     4
100
AcDbLine
 10
281.8077
 20
147.9952
 30
0.0
 11
302.885
 21
147.9952
 31
0.0
  0
LINE
  5
3DF
100
AcDbEntity
  8
1
  6
CONTINUOUS
 62
     4
100
AcDbLine
 10
298.0077
 20
169.5952
 30
0.0
 11
303.9422
 21
143.3131
 31
0.0
  0
LINE
  5
3E0
100
AcDbEntity
  8
1
  6
CONTINUOUS
 62
     4
100
AcDbLine
 10
279.4077
 20
171.6952
 30
0.0
 11
297.4077
 21
171.6952
 31
0.0
  0
LINE
  5
3E1
100
AcDbEntity
  8
1
  6
CONTINUOUS
 62
     4
100
AcDbLine
 10
279.4077
 20
171.6952
 30
0.0
 11
279.4077
 21
169.5952
 31
0.0
  0
LINE
  5
3E2
100
AcDbEntity
  8
1
  6
CONTINUOUS
 62
     4
100
AcDbLine
 10
297.4077
 20
171.6952
 30
0.0
 11
297.4077
 21
169.5952
 31
0.0
  0
LINE
  5
3E3
100
AcDbEntity
  8
1
  6
CONTINUOUS
 62
     4
100
AcDbLine
 10
281.2077
 20
172.5952
 30
0.0
 11
281.2077
 21
166.8952
 31
0.0
  0
LINE
  5
3E4
100
AcDbEntity
  8
1
  6
CONTINUOUS
 62
     4
100
AcDbLine
 10
295.0077
 20
172.5952
 30
0.0
 11
295.0077
 21
166.8952
 31
0.0
  0
LINE
  5
3E5
100
AcDbEntity
  8
1
  6
HIDDEN
 62
     4
100
AcDbLine
 10
279.7077
 20
153.1678
 30
0.0
 11
279.7077
 21
168.3952
 31
0.0
  0
LINE
  5
3E6
100
AcDbEntity
  8
1
  6
CONTINUOUS
 62
     4
100
AcDbLine
 10
297.356
 20
168.3952
 30
0.0
 11
301.5559
 21
149.7952
 31
0.0
  0
LINE
  5
3E7
100
AcDbEntity
  8
1
  6
HIDDEN
 62
     4
100
AcDbLine
 10
284.8077
 20
114.9952
 30
0.0
 11
284.8077
 21
149.7952
 31
0.0
  0
LINE
  5
3E8
100
AcDbEntity
  8
1
  6
HIDDEN
 62
     4
100
AcDbLine
 10
286.6077
 20
114.9952
 30
0.0
 11
286.6077
 21
149.7952
 31
0.0
  0
LINE
  5
3E9
100
AcDbEntity
  8
1
  6
HIDDEN
 62
     4
100
AcDbLine
 10
296.8077
 20
88.5952
 30
0.0
 11
296.8077
 21
149.7952
 31
0.0
  0
LINE
  5
3EA
100
AcDbEntity
  8
1
  6
HIDDEN
 62
     4
100
AcDbLine
 10
298.6077
 20
89.1952
 30
0.0
 11
298.6077
 21
149.7952
 31
0.0
  0
LINE
  5
3EB
100
AcDbEntity
  8
1
  6
HIDDEN
 62
     4
100
AcDbLine
 10
296.8077
 20
149.7952
 30
0.0
 11
298.6077
 21
149.7952
 31
0.0
  0
LINE
  5
3EC
100
AcDbEntity
  8
1
  6
HIDDEN
 62
     4
100
AcDbLine
 10
296.8077
 20
147.9952
 30
0.0
 11
298.6077
 21
147.9952
 31
0.0
  0
LINE
  5
3ED
100
AcDbEntity
  8
1
  6
CONTINUOUS
 62
     4
100
AcDbLine
 10
293.608
 20
190.2952
 30
0.0
 11
295.0077
 21
190.2952
 31
0.0
  0
LINE
  5
3EE
100
AcDbEntity
  8
1
  6
CONTINUOUS
 62
     4
100
AcDbLine
 10
293.6853
 20
183.0952
 30
0.0
 11
295.0077
 21
183.0952
 31
0.0
  0
LINE
  5
3EF
100
AcDbEntity
  8
1
  6
CONTINUOUS
 62
     4
100
AcDbLine
 10
295.0077
 20
190.2952
 30
0.0
 11
295.0077
 21
183.0952
 31
0.0
  0
ARC
  5
3F0
100
AcDbEntity
  8
1
  6
CONTINUOUS
 62
     4
100
AcDbCircle
 10
281.4619
 20
186.6952
 30
0.0
 40
1.5
210
0.0
220
0.0
230
1.0
100
AcDbArc
 50
301.923256
 51
56.846514
  0
LINE
  5
3F1
100
AcDbEntity
  8
1
  6
CONTINUOUS
 62
     4
100
AcDbLine
 10
286.7577
 20
271.8952
 30
0.0
 11
286.7577
 21
269.4952
 31
0.0
  0
LINE
  5
3F2
100
AcDbEntity
  8
1
  6
CONTINUOUS
 62
     4
100
AcDbLine
 10
289.1577
 20
269.4952
 30
0.0
 11
289.1577
 21
267.0952
 31
0.0
  0
LINE
  5
3F3
100
AcDbEntity
  8
1
  6
CONTINUOUS
 62
     4
100
AcDbLine
 10
289.1577
 20
267.0952
 30
0.0
 11
286.7577
 21
271.8952
 31
0.0
  0
LINE
  5
3F4
100
AcDbEntity
  8
1
  6
CONTINUOUS
 62
     4
100
AcDbLine
 10
278.8077
 20
152.7952
 30
0.0
 11
281.8077
 21
149.7952
 31
0.0
  0
LINE
  5
3F5
100
AcDbEntity
  8
1
  6
HIDDEN
 62
     4
100
AcDbLine
 10
279.7077
 20
153.1678
 30
0.0
 11
283.0803
 21
149.7952
 31
0.0
  0
LINE
  5
3F6
100
AcDbEntity
  8
1
  6
CONTINUOUS
 62
     4
100
AcDbLine
 10
281.8077
 20
149.7952
 30
0.0
 11
281.8077
 21
111.9952
 31
0.0
  0
LINE
  5
3F7
100
AcDbEntity
  8
1
  6
CONTINUOUS
 62
     7
100
AcDbLine
 10
287.9577
 20
210.9625
 30
0.0
 11
287.9577
 21
266.0277
 31
0.0
  0
LINE
  5
3F8
100
AcDbEntity
  8
1
  6
CONTINUOUS
 62
     7
100
AcDbLine
 10
287.9577
 20
155.4777
 30
0.0
 11
287.9577
 21
206.1625
 31
0.0
  0
LINE
  5
3F9
100
AcDbEntity
  8
1
  6
CONTINUOUS
 62
     4
100
AcDbLine
 10
280.7577
 20
269.4952
 30
0.0
 11
286.7577
 21
269.4952
 31
0.0
  0
LINE
  5
3FA
100
AcDbEntity
  8
1
  6
CONTINUOUS
 62
     4
100
AcDbLine
 10
289.1577
 20
269.4952
 30
0.0
 11
295.1577
 21
269.4952
 31
0.0
  0
LINE
  5
3FB
100
AcDbEntity
  8
1
  6
CONTINUOUS
 62
     4
100
AcDbLine
 10
284.8077
 20
149.7952
 30
0.0
 11
284.8077
 21
152.1952
 31
0.0
  0
LINE
  5
3FC
100
AcDbEntity
  8
1
  6
CONTINUOUS
 62
     4
100
AcDbLine
 10
286.6077
 20
149.7952
 30
0.0
 11
286.6077
 21
152.1952
 31
0.0
  0
LINE
  5
3FD
100
AcDbEntity
  8
1
  6
CONTINUOUS
 62
     4
100
AcDbLine
 10
296.8077
 20
149.7952
 30
0.0
 11
296.8077
 21
152.1952
 31
0.0
  0
LINE
  5
3FE
100
AcDbEntity
  8
1
  6
CONTINUOUS
 62
     4
100
AcDbLine
 10
298.6077
 20
149.7952
 30
0.0
 11
298.6077
 21
152.1952
 31
0.0
  0
LINE
  5
3FF
100
AcDbEntity
  8
1
  6
CONTINUOUS
 62
     4
100
AcDbLine
 10
284.8077
 20
152.1952
 30
0.0
 11
286.6077
 21
152.1952
 31
0.0
  0
LINE
  5
400
100
AcDbEntity
  8
1
  6
CONTINUOUS
 62
     4
100
AcDbLine
 10
296.8077
 20
152.1952
 30
0.0
 11
298.6077
 21
152.1952
 31
0.0
  0
LINE
  5
401
100
AcDbEntity
  8
1
  6
CONTINUOUS
 62
     4
100
AcDbLine
 10
284.8077
 20
151.5952
 30
0.0
 11
286.6077
 21
151.5952
 31
0.0
  0
LINE
  5
402
100
AcDbEntity
  8
1
  6
CONTINUOUS
 62
     4
100
AcDbLine
 10
284.8077
 20
150.9952
 30
0.0
 11
286.6077
 21
150.9952
 31
0.0
  0
LINE
  5
403
100
AcDbEntity
  8
1
  6
CONTINUOUS
 62
     4
100
AcDbLine
 10
284.8077
 20
150.3952
 30
0.0
 11
286.6077
 21
150.3952
 31
0.0
  0
LINE
  5
404
100
AcDbEntity
  8
1
  6
CONTINUOUS
 62
     4
100
AcDbLine
 10
296.8077
 20
151.5952
 30
0.0
 11
298.6077
 21
151.5952
 31
0.0
  0
LINE
  5
405
100
AcDbEntity
  8
1
  6
CONTINUOUS
 62
     4
100
AcDbLine
 10
296.8077
 20
150.9952
 30
0.0
 11
298.6077
 21
150.9952
 31
0.0
  0
LINE
  5
406
100
AcDbEntity
  8
1
  6
CONTINUOUS
 62
     4
100
AcDbLine
 10
296.8077
 20
150.3952
 30
0.0
 11
298.6077
 21
150.3952
 31
0.0
  0
LINE
  5
407
100
AcDbEntity
  8
1
  6
CONTINUOUS
 62
     4
100
AcDbLine
 10
285.4077
 20
151.8952
 30
0.0
 11
286.0077
 21
151.8952
 31
0.0
  0
LINE
  5
408
100
AcDbEntity
  8
1
  6
CONTINUOUS
 62
     4
100
AcDbLine
 10
285.4077
 20
151.2952
 30
0.0
 11
286.0077
 21
151.2952
 31
0.0
  0
LINE
  5
409
100
AcDbEntity
  8
1
  6
CONTINUOUS
 62
     4
100
AcDbLine
 10
285.4077
 20
150.6952
 30
0.0
 11
286.0077
 21
150.6952
 31
0.0
  0
LINE
  5
40A
100
AcDbEntity
  8
1
  6
CONTINUOUS
 62
     4
100
AcDbLine
 10
285.4077
 20
150.0952
 30
0.0
 11
286.0077
 21
150.0952
 31
0.0
  0
LINE
  5
40B
100
AcDbEntity
  8
1
  6
CONTINUOUS
 62
     4
100
AcDbLine
 10
297.4077
 20
151.8952
 30
0.0
 11
298.0077
 21
151.8952
 31
0.0
  0
LINE
  5
40C
100
AcDbEntity
  8
1
  6
CONTINUOUS
 62
     4
100
AcDbLine
 10
297.4077
 20
151.2952
 30
0.0
 11
298.0077
 21
151.2952
 31
0.0
  0
LINE
  5
40D
100
AcDbEntity
  8
1
  6
CONTINUOUS
 62
     4
100
AcDbLine
 10
297.4077
 20
150.6952
 30
0.0
 11
298.0077
 21
150.6952
 31
0.0
  0
LINE
  5
40E
100
AcDbEntity
  8
1
  6
CONTINUOUS
 62
     4
100
AcDbLine
 10
297.4077
 20
150.0952
 30
0.0
 11
298.0077
 21
150.0952
 31
0.0
  0
LINE
  5
40F
100
AcDbEntity
  8
1
  6
CONTINUOUS
 62
     4
100
AcDbLine
 10
289.0077
 20
147.9952
 30
0.0
 11
289.0077
 21
149.7952
 31
0.0
  0
LINE
  5
410
100
AcDbEntity
  8
1
  6
CONTINUOUS
 62
     4
100
AcDbLine
 10
296.6618
 20
147.9952
 30
0.0
 11
296.6618
 21
149.7952
 31
0.0
  0
LINE
  5
411
100
AcDbEntity
  8
1
  6
CONTINUOUS
 62
     4
100
AcDbLine
 10
291.4215
 20
144.3952
 30
0.0
 11
291.4215
 21
150.9952
 31
0.0
  0
LINE
  5
412
100
AcDbEntity
  8
1
  6
CONTINUOUS
 62
     4
100
AcDbLine
 10
295.0215
 20
144.3952
 30
0.0
 11
295.0215
 21
150.9952
 31
0.0
  0
LINE
  5
413
100
AcDbEntity
  8
1
  6
CONTINUOUS
 62
     4
100
AcDbLine
 10
290.5215
 20
152.1952
 30
0.0
 11
295.9215
 21
152.1952
 31
0.0
  0
LINE
  5
414
100
AcDbEntity
  8
1
  6
CONTINUOUS
 62
     4
100
AcDbLine
 10
290.5215
 20
150.9952
 30
0.0
 11
295.9215
 21
150.9952
 31
0.0
  0
LINE
  5
415
100
AcDbEntity
  8
1
  6
CONTINUOUS
 62
     4
100
AcDbLine
 10
290.5215
 20
152.1952
 30
0.0
 11
290.5215
 21
150.9952
 31
0.0
  0
LINE
  5
416
100
AcDbEntity
  8
1
  6
CONTINUOUS
 62
     4
100
AcDbLine
 10
295.9215
 20
152.1952
 30
0.0
 11
295.9215
 21
150.9952
 31
0.0
  0
LINE
  5
417
100
AcDbEntity
  8
1
  6
CONTINUOUS
 62
     7
100
AcDbLine
 10
293.2215
 20
143.1952
 30
0.0
 11
293.2215
 21
155.7952
 31
0.0
  0
ARC
  5
418
100
AcDbEntity
  8
1
  6
CONTINUOUS
 62
     4
100
AcDbCircle
 10
292.3215
 20
144.887145
 30
0.0
 40
1.025675
210
0.0
220
0.0
230
1.0
100
AcDbArc
 50
208.661239
 51
331.338758
  0
ARC
  5
419
100
AcDbEntity
  8
1
  6
CONTINUOUS
 62
     4
100
AcDbCircle
 10
294.1215
 20
144.887145
 30
0.0
 40
1.025675
210
0.0
220
0.0
230
1.0
100
AcDbArc
 50
208.661239
 51
331.338758
  0
ARC
  5
41A
100
AcDbEntity
  8
1
  6
CONTINUOUS
 62
     4
100
AcDbCircle
 10
292.3215
 20
143.903255
 30
0.0
 40
1.025675
210
0.0
220
0.0
230
1.0
100
AcDbArc
 50
28.661242
 51
151.338761
  0
ARC
  5
41B
100
AcDbEntity
  8
1
  6
CONTINUOUS
 62
     4
100
AcDbCircle
 10
294.1215
 20
139.103255
 30
0.0
 40
1.025675
210
0.0
220
0.0
230
1.0
100
AcDbArc
 50
28.661239
 51
151.338758
  0
ARC
  5
41C
100
AcDbEntity
  8
1
  6
CONTINUOUS
 62
     4
100
AcDbCircle
 10
292.3215
 20
139.103255
 30
0.0
 40
1.025675
210
0.0
220
0.0
230
1.0
100
AcDbArc
 50
28.661239
 51
151.338758
  0
ARC
  5
41D
100
AcDbEntity
  8
1
  6
CONTINUOUS
 62
     4
100
AcDbCircle
 10
294.1215
 20
140.087145
 30
0.0
 40
1.025675
210
0.0
220
0.0
230
1.0
100
AcDbArc
 50
208.661242
 51
331.338761
  0
SPLINE
  5
41E
100
AcDbEntity
  8
1
  6
CONTINUOUS
 62
     4
100
AcDbSpline
210
0.0
220
0.0
230
1.0
 70
     8
 71
     3
 72
   122
 73
   118
 74
     0
 42
0.0
 43
0.0
 12
-0.0228568501050107
 22
0.9997387480753545
 32
0.0
 13
0.1880722707877987
 23
-0.9821551918921575
 33
0.0
 40
0.0
 40
0.0
 40
0.0
 40
0.0
 40
0.0166039886261955
 40
0.0166039886261955
 40
0.0166039886261955
 40
0.030129855411356
 40
0.030129855411356
 40
0.030129855411356
 40
0.0681969893162089
 40
0.0681969893162089
 40
0.0681969893162089
 40
0.0878300150149625
 40
0.0878300150149625
 40
0.0878300150149625
 40
0.1064249108830117
 40
0.1064249108830117
 40
0.1064249108830117
 40
0.1270923442329562
 40
0.1270923442329562
 40
0.1270923442329562
 40
0.1380326215657726
 40
0.1380326215657726
 40
0.1380326215657726
 40
0.1615944989690528
 40
0.1615944989690528
 40
0.1615944989690528
 40
0.1796249759856969
 40
0.1796249759856969
 40
0.1796249759856969
 40
0.1940634139558502
 40
0.1940634139558502
 40
0.1940634139558502
 40
0.2091535690648308
 40
0.2091535690648308
 40
0.2091535690648308
 40
0.2369158926618403
 40
0.2369158926618403
 40
0.2369158926618403
 40
0.2527891195355894
 40
0.2527891195355894
 40
0.2527891195355894
 40
0.2647292959473787
 40
0.2647292959473787
 40
0.2647292959473787
 40
0.2861920261029114
 40
0.2861920261029114
 40
0.2861920261029114
 40
0.3161186043782213
 40
0.3161186043782213
 40
0.3161186043782213
 40
0.3312142205096882
 40
0.3312142205096882
 40
0.3312142205096882
 40
0.3559604119642376
 40
0.3559604119642376
 40
0.3559604119642376
 40
0.377149301521508
 40
0.377149301521508
 40
0.377149301521508
 40
0.4078513002720807
 40
0.4078513002720807
 40
0.4078513002720807
 40
0.4256431792978093
 40
0.4256431792978093
 40
0.4256431792978093
 40
0.4390415533180433
 40
0.4390415533180433
 40
0.4390415533180433
 40
0.4663341808783057
 40
0.4663341808783057
 40
0.4663341808783057
 40
0.4828887773889745
 40
0.4828887773889745
 40
0.4828887773889745
 40
0.499582268934426
 40
0.499582268934426
 40
0.499582268934426
 40
0.5181716674471641
 40
0.5181716674471641
 40
0.5181716674471641
 40
0.555102762047422
 40
0.555102762047422
 40
0.555102762047422
 40
0.5661058551102125
 40
0.5661058551102125
 40
0.5661058551102125
 40
0.5782452808562573
 40
0.5782452808562573
 40
0.5782452808562573
 40
0.6616700949025904
 40
0.6616700949025904
 40
0.6616700949025904
 40
0.7295052185856737
 40
0.7295052185856737
 40
0.7295052185856737
 40
0.7404400705765895
 40
0.7404400705765895
 40
0.7404400705765895
 40
0.7891769947163552
 40
0.7891769947163552
 40
0.7891769947163552
 40
0.8358912535279076
 40
0.8358912535279076
 40
0.8358912535279076
 40
0.8658621485997073
 40
0.8658621485997073
 40
0.8658621485997073
 40
0.8939240709171935
 40
0.8939240709171935
 40
0.8939240709171935
 40
0.9340911199416232
 40
0.9340911199416232
 40
0.9340911199416232
 40
0.9739425056393792
 40
0.9739425056393792
 40
0.9739425056393792
 40
1.0
 40
1.0
 40
1.0
 40
1.0
 10
289.0077
 20
149.79519999999999
 30
0.0
 10
289.00540000000001
 20
149.89580000000001
 30
0.0
 10
289.00310000000002
 20
149.99639999999999
 30
0.0
 10
289.00080000000003
 20
150.09700000000001
 30
0.0
 10
288.99892638431004
 20
150.17895032104761
 30
0.0
 10
289.04290769899484
 20
150.25600867782666
 30
0.0
 10
289.05529999999999
 20
150.33680000000001
 30
0.0
 10
289.09017683186926
 20
150.56417870543694
 30
0.0
 10
289.10636203837549
 20
150.79603103492332
 30
0.0
 10
289.14240000000001
 20
151.02340000000001
 30
0.0
 10
289.16098648535171
 20
151.14066495474043
 30
0.0
 10
289.1978946622587
 20
151.25515954288579
 30
0.0
 10
289.21870000000001
 20
151.37210000000002
 30
0.0
 10
289.2384052199053
 20
151.48285703033073
 30
0.0
 10
289.24742903915438
 20
151.59944709754902
 30
0.0
 10
289.2296
 20
151.71000000000001
 30
0.0
 10
289.20978378370972
 20
151.83287483400082
 30
0.0
 10
289.15350170016416
 20
151.949559896663
 30
0.0
 10
289.12060000000002
 20
152.06960000000001
 30
0.0
 10
289.10318353040645
 20
152.13314306310468
 30
0.0
 10
289.08598379740164
 20
152.20241026096471
 30
0.0
 10
289.08789999999999
 20
152.26580000000001
 30
0.0
 10
289.09202689087579
 20
152.40232133436285
 30
0.0
 10
289.4355732427162
 20
152.19556625291611
 30
0.0
 10
289.51280000000003
 20
152.3203
 30
0.0
 10
289.57189695770171
 20
152.41575117825303
 30
0.0
 10
289.61077382382854
 20
152.52068826012129
 30
0.0
 10
289.6327
 20
152.62540000000001
 30
0.0
 10
289.65025803433724
 20
152.70925102399625
 30
0.0
 10
289.5713338106342
 20
152.80605829760279
 30
0.0
 10
289.61090000000002
 20
152.887
 30
0.0
 10
289.65225211411621
 20
152.97159522051373
 30
0.0
 10
289.82377261018809
 20
152.78709781862676
 30
0.0
 10
289.88330000000002
 20
152.85429999999999
 30
0.0
 10
289.99281634671138
 20
152.97793615166546
 30
0.0
 10
290.08679169887336
 20
153.12754555094398
 30
0.0
 10
290.15559999999999
 20
153.27930000000001
 30
0.0
 10
290.19494143951471
 20
153.36606625321184
 30
0.0
 10
290.15600159272043
 20
153.48204522514803
 30
0.0
 10
290.21010000000001
 20
153.56270000000001
 30
0.0
 10
290.25079396422365
 20
153.62337022463961
 30
0.0
 10
290.37317495550548
 20
153.44058773062449
 30
0.0
 10
290.4171
 20
153.4973
 30
0.0
 10
290.49605623519642
 20
153.59924155363677
 30
0.0
 10
290.57239641444585
 20
153.70446877846794
 30
0.0
 10
290.64590000000004
 20
153.8134
 30
0.0
 10
290.74838979466557
 20
153.96528835270166
 30
0.0
 10
290.84582914204026
 20
154.11778521871312
 30
0.0
 10
290.94010000000003
 20
154.27110000000002
 30
0.0
 10
290.98765226845694
 20
154.34843530590422
 30
0.0
 10
290.89920622579353
 20
154.47327948906405
 30
0.0
 10
290.97280000000001
 20
154.5436
 30
0.0
 10
291.09344202020742
 20
154.65887617101862
 30
0.0
 10
291.28617469655063
 20
154.4273428466349
 30
0.0
 10
291.4194
 20
154.48910000000001
 30
0.0
 10
291.53347396755208
 20
154.54197947054109
 30
0.0
 10
291.6485958577191
 20
154.59897241458381
 30
0.0
 10
291.75720000000001
 20
154.67430000000002
 30
0.0
 10
291.9145638029309
 20
154.78344717484751
 30
0.0
 10
292.07075812438171
 20
154.87710292243102
 30
0.0
 10
292.19300000000004
 20
155.0231
 30
0.0
 10
292.26383944861539
 20
155.10770564288731
 30
0.0
 10
292.31243946459995
 20
155.20320507698372
 30
0.0
 10
292.3673
 20
155.29560000000001
 30
0.0
 10
292.40861334139458
 20
155.36517903290331
 30
0.0
 10
292.40803884053537
 20
155.46159365326662
 30
0.0
 10
292.47620000000001
 20
155.51349999999999
 30
0.0
 10
292.61504499242483
 20
155.61923376943122
 30
0.0
 10
292.79208024581493
 20
155.61710834272324
 30
0.0
 10
292.94470000000001
 20
155.67700000000002
 30
0.0
 10
293.0372729281475
 20
155.71332784049036
 30
0.0
 10
293.12404976191863
 20
155.77021579842094
 30
0.0
 10
293.22149999999999
 20
155.79519999999999
 30
0.0
 10
293.31976785717586
 20
155.82039382200352
 30
0.0
 10
293.42173992108604
 20
155.76028380919988
 30
0.0
 10
293.52210000000002
 20
155.7533
 30
0.0
 10
293.6338581361947
 20
155.7455230282383
 30
0.0
 10
293.74914832055828
 20
155.81113594094603
 30
0.0
 10
293.85990000000004
 20
155.76420000000002
 30
0.0
 10
294.07992760055947
 20
155.6709535362136
 30
0.0
 10
294.19155089824955
 20
155.45690728744168
 30
0.0
 10
294.3066
 20
155.2629
 30
0.0
 10
294.3408772394659
 20
155.20509829491419
 30
0.0
 10
294.37047978503119
 20
155.14646183385506
 30
0.0
 10
294.40460000000002
 20
155.08850000000001
 30
0.0
 10
294.44224394372469
 20
155.02455221966474
 30
0.0
 10
294.48301351851688
 20
154.96285083020095
 30
0.0
 10
294.52449999999999
 20
154.9032
 30
0.0
 10
294.80960426074279
 20
154.49326632427861
 30
0.0
 10
295.60346296655553
 20
156.31163103638792
 30
0.0
 10
295.73380000000003
 20
155.81870000000001
 30
0.0
 10
295.83978080301722
 20
155.41788354984843
 30
0.0
 10
295.90227545955855
 20
155.01439279937321
 30
0.0
 10
295.9735
 20
154.60890000000001
 30
0.0
 10
295.98498121748088
 20
154.54353557661892
 30
0.0
 10
295.9971382398241
 20
154.47842876999707
 30
0.0
 10
296.00620000000004
 20
154.4128
 30
0.0
 10
296.04658850444741
 20
154.12029083870635
 30
0.0
 10
295.90818442501893
 20
153.82363565431939
 30
0.0
 10
295.92990000000003
 20
153.53
 30
0.0
 10
295.95071434164782
 20
153.24855072526043
 30
0.0
 10
295.98860994523164
 20
152.9682327904342
 30
0.0
 10
296.06060000000002
 20
152.6908
 30
0.0
 10
296.10678731908774
 20
152.51280490250477
 30
0.0
 10
296.15940989728244
 20
152.3408998404135
 30
0.0
 10
296.21320000000003
 20
152.1677
 30
0.0
 10
296.26356398413509
 20
152.00553198815248
 30
0.0
 10
296.34015669579742
 20
151.85162130140878
 30
0.0
 10
296.38749999999999
 20
151.68819999999999
 30
0.0
 10
296.4552658785941
 20
151.45428332989252
 30
0.0
 10
296.32378855295218
 20
151.19456010176089
 30
0.0
 10
296.3766
 20
150.958
 30
0.0
 10
296.42899641439135
 20
150.72329896806113
 30
0.0
 10
296.52727789844096
 20
150.49770430814189
 30
0.0
 10
296.5727
 20
150.26050000000001
 30
0.0
 10
296.60239999999999
 20
150.1054
 30
0.0
 10
296.63210000000004
 20
149.9503
 30
0.0
 10
296.66180000000003
 20
149.79519999999999
 30
0.0
  0
LINE
  5
41F
100
AcDbEntity
  8
1
  6
CONTINUOUS
 62
     4
100
AcDbLine
 10
289.0077
 20
147.9952
 30
0.0
 11
290.5018
 21
149.7952
 31
0.0
  0
LINE
  5
420
100
AcDbEntity
  8
1
  6
CONTINUOUS
 62
     4
100
AcDbLine
 10
290.5672
 20
147.9952
 30
0.0
 11
291.4215
 21
149.0244
 31
0.0
  0
LINE
  5
421
100
AcDbEntity
  8
1
  6
CONTINUOUS
 62
     4
100
AcDbLine
 10
289.0077
 20
148.9346
 30
0.0
 11
289.722
 21
149.7952
 31
0.0
  0
LINE
  5
422
100
AcDbEntity
  8
1
  6
CONTINUOUS
 62
     4
100
AcDbLine
 10
289.7874
 20
147.9952
 30
0.0
 11
291.2815
 21
149.7952
 31
0.0
  0
LINE
  5
423
100
AcDbEntity
  8
1
  6
CONTINUOUS
 62
     4
100
AcDbLine
 10
295.0215
 20
148.6644
 30
0.0
 11
295.9601
 21
149.7952
 31
0.0
  0
LINE
  5
424
100
AcDbEntity
  8
1
  6
CONTINUOUS
 62
     4
100
AcDbLine
 10
295.2459
 20
147.9952
 30
0.0
 11
296.6618
 21
149.701
 31
0.0
  0
LINE
  5
425
100
AcDbEntity
  8
1
  6
CONTINUOUS
 62
     4
100
AcDbLine
 10
296.0256
 20
147.9952
 30
0.0
 11
296.6618
 21
148.7616
 31
0.0
  0
CIRCLE
  5
426
100
AcDbEntity
  8
1
  6
HIDDEN
 62
     4
100
AcDbCircle
 10
285.7077
 20
114.9952
 30
0.0
 40
0.9
210
0.0
220
0.0
230
1.0
  0
LINE
  5
427
100
AcDbEntity
  8
1
  6
CONTINUOUS
 62
     4
100
AcDbLine
 10
291.4215
 20
139.5952
 30
0.0
 11
291.4215
 21
100.5952
 31
0.0
  0
LINE
  5
428
100
AcDbEntity
  8
1
  6
CONTINUOUS
 62
     4
100
AcDbLine
 10
295.0215
 20
139.5952
 30
0.0
 11
295.0215
 21
100.5952
 31
0.0
  0
LINE
  5
429
100
AcDbEntity
  8
1
  6
CONTINUOUS
 62
     4
100
AcDbLine
 10
283.0077
 20
110.7952
 30
0.0
 11
287.8077
 21
110.7952
 31
0.0
  0
LINE
  5
42A
100
AcDbEntity
  8
1
  6
CONTINUOUS
 62
     4
100
AcDbLine
 10
287.8077
 20
110.7952
 30
0.0
 11
287.8077
 21
75.3952
 31
0.0
  0
LINE
  5
42B
100
AcDbEntity
  8
1
  6
CONTINUOUS
 62
     4
100
AcDbLine
 10
281.8077
 20
111.9952
 30
0.0
 11
283.0077
 21
110.7952
 31
0.0
  0
LINE
  5
42C
100
AcDbEntity
  8
1
  6
CONTINUOUS
 62
     4
100
AcDbLine
 10
303.9422
 20
143.3131
 30
0.0
 11
316.0077
 21
129.3952
 31
0.0
  0
LINE
  5
42D
100
AcDbEntity
  8
1
  6
CONTINUOUS
 62
     4
100
AcDbLine
 10
283.0077
 20
75.3952
 30
0.0
 11
300.7077
 21
75.3952
 31
0.0
  0
LINE
  5
42E
100
AcDbEntity
  8
1
  6
CONTINUOUS
 62
     4
100
AcDbLine
 10
303.1077
 20
75.3952
 30
0.0
 11
320.8077
 21
75.3952
 31
0.0
  0
LINE
  5
42F
100
AcDbEntity
  8
1
  6
CONTINUOUS
 62
     4
100
AcDbLine
 10
300.7077
 20
77.7952
 30
0.0
 11
300.7077
 21
75.3952
 31
0.0
  0
LINE
  5
430
100
AcDbEntity
  8
1
  6
CONTINUOUS
 62
     4
100
AcDbLine
 10
303.1077
 20
75.3952
 30
0.0
 11
303.1077
 21
72.9952
 31
0.0
  0
LINE
  5
431
100
AcDbEntity
  8
1
  6
CONTINUOUS
 62
     4
100
AcDbLine
 10
303.1077
 20
72.9952
 30
0.0
 11
300.7077
 21
77.7952
 31
0.0
  0
LINE
  5
432
100
AcDbEntity
  8
1
  6
CONTINUOUS
 62
     4
100
AcDbLine
 10
309.4215
 20
82.5952
 30
0.0
 11
318.4077
 21
82.5952
 31
0.0
  0
LINE
  5
433
100
AcDbEntity
  8
1
  6
CONTINUOUS
 62
     4
100
AcDbLine
 10
309.4215
 20
86.1952
 30
0.0
 11
318.4077
 21
86.1952
 31
0.0
  0
LINE
  5
434
100
AcDbEntity
  8
1
  6
CONTINUOUS
 62
     7
100
AcDbLine
 10
309.4215
 20
84.3952
 30
0.0
 11
324.4077
 21
84.3952
 31
0.0
  0
LINE
  5
435
100
AcDbEntity
  8
1
  6
CONTINUOUS
 62
     4
100
AcDbLine
 10
316.0077
 20
129.3952
 30
0.0
 11
316.0077
 21
86.1952
 31
0.0
  0
LINE
  5
436
100
AcDbEntity
  8
1
  6
CONTINUOUS
 62
     4
100
AcDbLine
 10
316.0077
 20
82.5952
 30
0.0
 11
316.0077
 21
75.3952
 31
0.0
  0
ARC
  5
437
100
AcDbEntity
  8
1
  6
CONTINUOUS
 62
     4
100
AcDbCircle
 10
309.4215
 20
100.5952
 30
0.0
 40
18.0
210
0.0
220
0.0
230
1.0
100
AcDbArc
 50
180.0
 51
270.0
  0
ARC
  5
438
100
AcDbEntity
  8
1
  6
CONTINUOUS
 62
     4
100
AcDbCircle
 10
309.4215
 20
100.5952
 30
0.0
 40
14.4
210
0.0
220
0.0
230
1.0
100
AcDbArc
 50
180.0
 51
270.0
  0
ARC
  5
439
100
AcDbEntity
  8
1
  6
CONTINUOUS
 62
     7
100
AcDbCircle
 10
309.4215
 20
100.5952
 30
0.0
 40
16.2
210
0.0
220
0.0
230
1.0
100
AcDbArc
 50
180.0
 51
270.0
  0
LINE
  5
43A
100
AcDbEntity
  8
1
  6
HIDDEN
 62
     4
100
AcDbLine
 10
300.4077
 20
84.9952
 30
0.0
 11
305.2077
 21
84.9952
 31
0.0
  0
LINE
  5
43B
100
AcDbEntity
  8
1
  6
HIDDEN
 62
     4
100
AcDbLine
 10
301.0077
 20
86.7952
 30
0.0
 11
305.2077
 21
86.7952
 31
0.0
  0
ARC
  5
43C
100
AcDbEntity
  8
1
  6
HIDDEN
 62
     4
100
AcDbCircle
 10
300.4077
 20
88.5952
 30
0.0
 40
3.6
210
0.0
220
0.0
230
1.0
100
AcDbArc
 50
180.0
 51
270.0
  0
ARC
  5
43D
100
AcDbEntity
  8
1
  6
HIDDEN
 62
     4
100
AcDbCircle
 10
301.0077
 20
89.1952
 30
0.0
 40
2.4
210
0.0
220
0.0
230
1.0
100
AcDbArc
 50
180.0
 51
270.0
  0
LINE
  5
43E
100
AcDbEntity
  8
1
  6
HIDDEN
 62
     4
100
AcDbLine
 10
305.2077
 20
86.7952
 30
0.0
 11
305.2077
 21
84.9952
 31
0.0
  0
LINE
  5
43F
100
AcDbEntity
  8
1
  6
CONTINUOUS
 62
     4
100
AcDbLine
 10
318.4077
 20
86.4952
 30
0.0
 11
318.4077
 21
82.2952
 31
0.0
  0
LINE
  5
440
100
AcDbEntity
  8
1
  6
CONTINUOUS
 62
     4
100
AcDbLine
 10
323.2077
 20
86.4952
 30
0.0
 11
323.2077
 21
82.2952
 31
0.0
  0
LINE
  5
441
100
AcDbEntity
  8
1
  6
CONTINUOUS
 62
     4
100
AcDbLine
 10
318.4077
 20
86.4952
 30
0.0
 11
323.2077
 21
86.4952
 31
0.0
  0
LINE
  5
442
100
AcDbEntity
  8
1
  6
CONTINUOUS
 62
     4
100
AcDbLine
 10
318.4077
 20
82.2952
 30
0.0
 11
323.2077
 21
82.2952
 31
0.0
  0
LINE
  5
443
100
AcDbEntity
  8
1
  6
CONTINUOUS
 62
     4
100
AcDbLine
 10
323.2077
 20
86.1952
 30
0.0
 11
324.4077
 21
86.1952
 31
0.0
  0
LINE
  5
444
100
AcDbEntity
  8
1
  6
CONTINUOUS
 62
     4
100
AcDbLine
 10
323.2077
 20
82.5952
 30
0.0
 11
324.4077
 21
82.5952
 31
0.0
  0
LINE
  5
445
100
AcDbEntity
  8
1
  6
CONTINUOUS
 62
     7
100
AcDbLine
 10
300.7171
 20
85.8952
 30
0.0
 11
296.2265
 21
85.8952
 31
0.0
  0
LINE
  5
446
100
AcDbEntity
  8
1
  6
CONTINUOUS
 62
     7
100
AcDbLine
 10
307.6077
 20
85.8952
 30
0.0
 11
303.1171
 21
85.8952
 31
0.0
  0
LINE
  5
447
100
AcDbEntity
  8
1
  6
CONTINUOUS
 62
     7
100
AcDbLine
 10
302.5171
 20
85.8952
 30
0.0
 11
301.3171
 21
85.8952
 31
0.0
  0
SPLINE
  5
448
100
AcDbEntity
  8
1
  6
CONTINUOUS
 62
     4
100
AcDbSpline
210
0.0
220
0.0
230
1.0
 70
     8
 71
     3
 72
    32
 73
    28
 74
     0
 42
0.0
 43
0.0
 12
0.9964353324417054
 22
0.0843601106079661
 32
0.0
 13
0.9998045035489405
 23
0.0197725740169776
 33
0.0
 40
0.0
 40
0.0
 40
0.0
 40
0.0
 40
0.1495205314687878
 40
0.1495205314687878
 40
0.1495205314687878
 40
0.2480986025502662
 40
0.2480986025502662
 40
0.2480986025502662
 40
0.3766095706726566
 40
0.3766095706726566
 40
0.3766095706726566
 40
0.4311448369364631
 40
0.4311448369364631
 40
0.4311448369364631
 40
0.5749801222889863
 40
0.5749801222889863
 40
0.5749801222889863
 40
0.6278915852635333
 40
0.6278915852635333
 40
0.6278915852635333
 40
0.7747055672264143
 40
0.7747055672264143
 40
0.7747055672264143
 40
0.8729658124510761
 40
0.8729658124510761
 40
0.8729658124510761
 40
1.0
 40
1.0
 40
1.0
 40
1.0
 10
287.80770000000001
 20
110.79520000000001
 30
0.0
 10
287.9896
 20
110.81060000000001
 30
0.0
 10
288.17150000000004
 20
110.82600000000001
 30
0.0
 10
288.35340000000002
 20
110.84140000000001
 30
0.0
 10
288.4733256781231
 20
110.85155313602581
 30
0.0
 10
288.59339870059404
 20
110.82085547546816
 30
0.0
 10
288.71340000000004
 20
110.81370000000001
 30
0.0
 10
288.86983928708918
 20
110.80437178866757
 30
0.0
 10
289.02765814073422
 20
110.82523503301245
 30
0.0
 10
289.1841
 20
110.81370000000001
 30
0.0
 10
289.25048809569734
 20
110.80880496181075
 30
0.0
 10
289.2839001782832
 20
110.70929544247986
 30
0.0
 10
289.3503
 20
110.7029
 30
0.0
 10
289.52542772850131
 20
110.6860321939533
 30
0.0
 10
289.70081814819406
 20
110.67788651761343
 30
0.0
 10
289.87639999999999
 20
110.6752
 30
0.0
 10
289.94098980234276
 20
110.6742117336168
 30
0.0
 10
290.00568394478614
 20
110.67249393777605
 30
0.0
 10
290.0702
 20
110.6752
 30
0.0
 10
290.24921336372125
 20
110.68270853875897
 30
0.0
 10
290.41718843945608
 20
110.78276616194786
 30
0.0
 10
290.59640000000002
 20
110.786
 30
0.0
 10
290.71634342535168
 20
110.78816435598145
 30
0.0
 10
290.83635678639092
 20
110.78362795020378
 30
0.0
 10
290.9563
 20
110.786
 30
0.0
 10
291.11136666666664
 20
110.78906666666668
 30
0.0
 10
291.26643333333334
 20
110.79213333333333
 30
0.0
 10
291.42150000000004
 20
110.79520000000001
 30
0.0
  0
SPLINE
  5
449
100
AcDbEntity
  8
1
  6
CONTINUOUS
 62
     4
100
AcDbSpline
210
0.0
220
0.0
230
1.0
 70
     8
 71
     3
 72
   155
 73
   151
 74
     0
 42
0.0
 43
0.0
 12
0.9996291127754284
 22
-0.0272330110676334
 32
0.0
 13
0.9955288383380602
 23
-0.0944580967269209
 33
0.0
 40
0.0
 40
0.0
 40
0.0
 40
0.0
 40
0.0132020197746836
 40
0.0132020197746836
 40
0.0132020197746836
 40
0.0186145207489748
 40
0.0186145207489748
 40
0.0186145207489748
 40
0.0296500679563583
 40
0.0296500679563583
 40
0.0296500679563583
 40
0.0375270308225325
 40
0.0375270308225325
 40
0.0375270308225325
 40
0.0494836362759175
 40
0.0494836362759175
 40
0.0494836362759175
 40
0.0572896561924399
 40
0.0572896561924399
 40
0.0572896561924399
 40
0.0749114826597805
 40
0.0749114826597805
 40
0.0749114826597805
 40
0.0879014849980796
 40
0.0879014849980796
 40
0.0879014849980796
 40
0.1095785345071602
 40
0.1095785345071602
 40
0.1095785345071602
 40
0.1212853970967972
 40
0.1212853970967972
 40
0.1212853970967972
 40
0.1335297257303814
 40
0.1335297257303814
 40
0.1335297257303814
 40
0.1512809516297569
 40
0.1512809516297569
 40
0.1512809516297569
 40
0.1574490326696149
 40
0.1574490326696149
 40
0.1574490326696149
 40
0.1777590599257931
 40
0.1777590599257931
 40
0.1777590599257931
 40
0.1885801539314339
 40
0.1885801539314339
 40
0.1885801539314339
 40
0.2069787493010825
 40
0.2069787493010825
 40
0.2069787493010825
 40
0.2254052609676492
 40
0.2254052609676492
 40
0.2254052609676492
 40
0.2416388559475813
 40
0.2416388559475813
 40
0.2416388559475813
 40
0.2594881152838196
 40
0.2594881152838196
 40
0.2594881152838196
 40
0.2803027020718297
 40
0.2803027020718297
 40
0.2803027020718297
 40
0.3055662233059847
 40
0.3055662233059847
 40
0.3055662233059847
 40
0.3283166795813683
 40
0.3283166795813683
 40
0.3283166795813683
 40
0.3543342721932962
 40
0.3543342721932962
 40
0.3543342721932962
 40
0.3742869598417195
 40
0.3742869598417195
 40
0.3742869598417195
 40
0.3953014876095393
 40
0.3953014876095393
 40
0.3953014876095393
 40
0.4136961750362462
 40
0.4136961750362462
 40
0.4136961750362462
 40
0.429191397952781
 40
0.429191397952781
 40
0.429191397952781
 40
0.4433629731316497
 40
0.4433629731316497
 40
0.4433629731316497
 40
0.472991839366886
 40
0.472991839366886
 40
0.472991839366886
 40
0.4799232226016087
 40
0.4799232226016087
 40
0.4799232226016087
 40
0.5044593393827253
 40
0.5044593393827253
 40
0.5044593393827253
 40
0.5305293963386188
 40
0.5305293963386188
 40
0.5305293963386188
 40
0.536841402900998
 40
0.536841402900998
 40
0.536841402900998
 40
0.5483528344153623
 40
0.5483528344153623
 40
0.5483528344153623
 40
0.5792627263440595
 40
0.5792627263440595
 40
0.5792627263440595
 40
0.6085625125868954
 40
0.6085625125868954
 40
0.6085625125868954
 40
0.638880125887308
 40
0.638880125887308
 40
0.638880125887308
 40
0.6759273196498926
 40
0.6759273196498926
 40
0.6759273196498926
 40
0.7033263178588778
 40
0.7033263178588778
 40
0.7033263178588778
 40
0.7303813195683966
 40
0.7303813195683966
 40
0.7303813195683966
 40
0.7672382440958184
 40
0.7672382440958184
 40
0.7672382440958184
 40
0.792222253911742
 40
0.792222253911742
 40
0.792222253911742
 40
0.8158568999690353
 40
0.8158568999690353
 40
0.8158568999690353
 40
0.8558976833499656
 40
0.8558976833499656
 40
0.8558976833499656
 40
0.8808813545190748
 40
0.8808813545190748
 40
0.8808813545190748
 40
0.910814200815003
 40
0.910814200815003
 40
0.910814200815003
 40
0.9253339696779149
 40
0.9253339696779149
 40
0.9253339696779149
 40
0.943855625981111
 40
0.943855625981111
 40
0.943855625981111
 40
0.9579658053001597
 40
0.9579658053001597
 40
0.9579658053001597
 40
1.0
 40
1.0
 40
1.0
 40
1.0
 10
295.0215
 20
110.79520000000001
 30
0.0
 10
295.13406666666668
 20
110.79213333333333
 30
0.0
 10
295.24663333333336
 20
110.78906666666668
 30
0.0
 10
295.35919999999999
 20
110.786
 30
0.0
 10
295.40534954403978
 20
110.78474274265571
 30
0.0
 10
295.45155043967674
 20
110.78832910153098
 30
0.0
 10
295.49770000000001
 20
110.786
 30
0.0
 10
295.59179432976856
 20
110.78125119533132
 30
0.0
 10
295.68294826390388
 20
110.7528846222763
 30
0.0
 10
295.77460000000002
 20
110.73060000000001
 30
0.0
 10
295.84001925908007
 20
110.71469366215754
 30
0.0
 10
295.90377189949658
 20
110.69247887390732
 30
0.0
 10
295.96840000000003
 20
110.6752
 30
0.0
 10
296.0665003353767
 20
110.64897203860188
 30
0.0
 10
296.17856855705804
 20
110.69832420907149
 30
0.0
 10
296.2731
 20
110.64750000000001
 30
0.0
 10
296.33481603882217
 20
110.61431877730263
 30
0.0
 10
296.1552562919282
 20
110.5465153809353
 30
0.0
 10
296.16230000000002
 20
110.4813
 30
0.0
 10
296.17820093320995
 20
110.33407847890051
 30
0.0
 10
296.24364663988916
 20
110.18838665470609
 30
0.0
 10
296.24540000000002
 20
110.0381
 30
0.0
 10
296.24669249666499
 20
109.9273155702665
 30
0.0
 10
296.2466928754277
 20
109.81648710900832
 30
0.0
 10
296.24540000000002
 20
109.70570000000001
 30
0.0
 10
296.24324251581135
 20
109.5208241559164
 30
0.0
 10
296.19936290440978
 20
109.3360621880318
 30
0.0
 10
296.21770000000004
 20
109.15170000000001
 30
0.0
 10
296.22760309397404
 20
109.05213373748309
 30
0.0
 10
296.31509634761551
 20
108.97762943939549
 30
0.0
 10
296.38380000000001
 20
108.9024
 30
0.0
 10
296.45565786043721
 20
108.82371675145021
 30
0.0
 10
296.53076532619161
 20
108.75279745516603
 30
0.0
 10
296.6053
 20
108.6808
 30
0.0
 10
296.713356707044
 20
108.57642162785088
 30
0.0
 10
296.85645946328378
 20
108.43453085442067
 30
0.0
 10
296.96530000000001
 20
108.4038
 30
0.0
 10
297.00311920497728
 20
108.39312184168207
 30
0.0
 10
296.75553973950161
 20
108.39967660244312
 30
0.0
 10
296.80770000000001
 20
108.3952
 30
0.0
 10
296.97945136084724
 20
108.38045961039626
 30
0.0
 10
297.15206284719756
 20
108.34840000000001
 30
0.0
 10
297.32530000000003
 20
108.34840000000001
 30
0.0
 10
297.41759999999999
 20
108.34840000000001
 30
0.0
 10
297.50990000000002
 20
108.34840000000001
 30
0.0
 10
297.60220000000004
 20
108.34840000000001
 30
0.0
 10
297.75913333333335
 20
108.34840000000001
 30
0.0
 10
297.91606666666667
 20
108.34840000000001
 30
0.0
 10
298.07300000000004
 20
108.34840000000001
 30
0.0
 10
298.2301714492026
 20
108.34840000000001
 30
0.0
 10
298.38678516282653
 20
108.32813323928744
 30
0.0
 10
298.5437
 20
108.3207
 30
0.0
 10
298.68194059372223
 20
108.31415138145707
 30
0.0
 10
298.82100247303725
 20
108.31638535605677
 30
0.0
 10
298.95910000000003
 20
108.3207
 30
0.0
 10
299.11094181787826
 20
108.32544406308534
 30
0.0
 10
299.25202789159579
 20
108.45163713932853
 30
0.0
 10
299.40219999999999
 20
108.4315
 30
0.0
 10
299.57732045315925
 20
108.40801744387149
 30
0.0
 10
299.7531884596242
 20
108.37786159855995
 30
0.0
 10
299.92830000000004
 20
108.34840000000001
 30
0.0
 10
300.1408400885295
 20
108.31264124445077
 30
0.0
 10
300.35273220711508
 20
108.2717329644006
 30
0.0
 10
300.5652
 20
108.2376
 30
0.0
 10
300.75653275948179
 20
108.2068623800559
 30
0.0
 10
300.95624021779946
 20
108.24182922195151
 30
0.0
 10
301.14670000000001
 20
108.26530000000001
 30
0.0
 10
301.36451123693826
 20
108.29214135799999
 30
0.0
 10
301.56719861502359
 20
108.5025023893744
 30
0.0
 10
301.78360000000004
 20
108.45920000000001
 30
0.0
 10
301.94955652432276
 20
108.4259917373254
 30
0.0
 10
302.11567426478086
 20
108.38400545551173
 30
0.0
 10
302.28200000000004
 20
108.34840000000001
 30
0.0
 10
302.45717724142503
 20
108.31089969694706
 30
0.0
 10
302.63242865922757
 20
108.27269702758676
 30
0.0
 10
302.8082
 20
108.2376
 30
0.0
 10
302.96205826927945
 20
108.20687845064151
 30
0.0
 10
303.12534753091893
 20
108.20536448645198
 30
0.0
 10
303.27890000000002
 20
108.2376
 30
0.0
 10
303.40824874524372
 20
108.26475438738746
 30
0.0
 10
303.53736425116182
 20
108.29311445957117
 30
0.0
 10
303.66660000000002
 20
108.3207
 30
0.0
 10
303.7847960492162
 20
108.34592910203632
 30
0.0
 10
303.90336033504974
 20
108.36857294229675
 30
0.0
 10
304.0215
 20
108.3952
 30
0.0
 10
304.26849754866396
 20
108.45086985468942
 30
0.0
 10
303.83198344329412
 20
108.94719300111028
 30
0.0
 10
303.97120000000001
 20
109.15170000000001
 30
0.0
 10
304.00376835072552
 20
109.19954241058143
 30
0.0
 10
304.04130505974297
 20
109.24680180401195
 30
0.0
 10
304.08199999999999
 20
109.2902
 30
0.0
 10
304.22605433558266
 20
109.44382347871901
 30
0.0
 10
304.42714215254688
 20
109.53487850815375
 30
0.0
 10
304.55270000000002
 20
109.70570000000001
 30
0.0
 10
304.68610742806061
 20
109.88720084878754
 30
0.0
 10
304.54452075644957
 20
110.17196046185657
 30
0.0
 10
304.60810000000004
 20
110.37050000000001
 30
0.0
 10
304.62349362200865
 20
110.41856981702317
 30
0.0
 10
304.67397046671999
 20
110.46202147111926
 30
0.0
 10
304.69120000000004
 20
110.509
 30
0.0
 10
304.72262211441279
 20
110.59467641882371
 30
0.0
 10
304.52364477251172
 20
110.74132236226865
 30
0.0
 10
304.62150000000003
 20
110.79520000000001
 30
0.0
 10
304.88425572265248
 20
110.9398694060223
 30
0.0
 10
305.14817013529802
 20
110.85714374588892
 30
0.0
 10
305.41110000000003
 20
110.84140000000001
 30
0.0
 10
305.66033376796003
 20
110.82647635063006
 30
0.0
 10
305.90949243217005
 20
110.78749156009046
 30
0.0
 10
306.15880000000004
 20
110.786
 30
0.0
 10
306.41676810842552
 20
110.78445662553092
 30
0.0
 10
306.67609814605692
 20
110.78920631298413
 30
0.0
 10
306.9341
 20
110.81370000000001
 30
0.0
 10
307.24937035388388
 20
110.84363053443374
 30
0.0
 10
307.56209992211836
 20
110.88553368439865
 30
0.0
 10
307.87560000000002
 20
110.92450000000001
 30
0.0
 10
308.10745529590832
 20
110.9533183234124
 30
0.0
 10
308.33796627284306
 20
111.01442038632351
 30
0.0
 10
308.56790000000001
 20
111.03530000000001
 30
0.0
 10
308.79494689178262
 20
111.05591746854404
 30
0.0
 10
309.00763512095131
 20
110.87325328496512
 30
0.0
 10
309.23250000000002
 20
110.84140000000001
 30
0.0
 10
309.53883255783722
 20
110.79800639269166
 30
0.0
 10
309.87181536903279
 20
110.87258211836838
 30
0.0
 10
310.17400000000004
 20
110.786
 30
0.0
 10
310.37884030838467
 20
110.72730903424703
 30
0.0
 10
310.57914164556013
 20
110.6538749458945
 30
0.0
 10
310.78320000000002
 20
110.5921
 30
0.0
 10
310.97623734739761
 20
110.53366146302447
 30
0.0
 10
311.16546658642477
 20
110.46759433438305
 30
0.0
 10
311.36470000000003
 20
110.4259
 30
0.0
 10
311.7022325332087
 20
110.35526328273346
 30
0.0
 10
312.04861128796443
 20
110.40582468437711
 30
0.0
 10
312.38929999999999
 20
110.4259
 30
0.0
 10
312.60187463100931
 20
110.43842610567997
 30
0.0
 10
312.81408797365987
 20
110.45524088981867
 30
0.0
 10
313.02620000000002
 20
110.4813
 30
0.0
 10
313.28033065353696
 20
110.51252132589669
 30
0.0
 10
313.52819281993118
 20
110.57546564337568
 30
0.0
 10
313.77390000000003
 20
110.64750000000001
 30
0.0
 10
313.89308717743336
 20
110.68244229042014
 30
0.0
 10
313.98375840989934
 20
110.79314590676925
 30
0.0
 10
314.1062
 20
110.81370000000001
 30
0.0
 10
314.26238850895447
 20
110.83991913985258
 30
0.0
 10
314.41939198180609
 20
110.85481411048563
 30
0.0
 10
314.57690000000002
 20
110.8691
 30
0.0
 10
314.69689285293509
 20
110.87998328492228
 30
0.0
 10
314.8170834227052
 20
110.90816847614229
 30
0.0
 10
314.93690000000004
 20
110.8968
 30
0.0
 10
315.29383333333334
 20
110.86293333333333
 30
0.0
 10
315.65076666666664
 20
110.82906666666668
 30
0.0
 10
316.0077
 20
110.79520000000001
 30
0.0
  0
LINE
  5
44A
100
AcDbEntity
  8
1
  6
CONTINUOUS
 62
     7
100
AcDbLine
 10
293.2215
 20
137.5043
 30
0.0
 11
293.2215
 21
123.473
 31
0.0
  0
LINE
  5
44B
100
AcDbEntity
  8
1
  6
CONTINUOUS
 62
     7
100
AcDbLine
 10
293.2215
 20
122.873
 30
0.0
 11
293.2215
 21
121.673
 31
0.0
  0
LINE
  5
44C
100
AcDbEntity
  8
1
  6
CONTINUOUS
 62
     7
100
AcDbLine
 10
293.2215
 20
121.073
 30
0.0
 11
293.2215
 21
100.5952
 31
0.0
  0
LINE
  5
44D
100
AcDbEntity
  8
1
  6
CONTINUOUS
 62
     7
100
AcDbLine
 10
285.7077
 20
153.9952
 30
0.0
 11
285.7077
 21
142.869
 31
0.0
  0
LINE
  5
44E
100
AcDbEntity
  8
1
  6
CONTINUOUS
 62
     7
100
AcDbLine
 10
285.7077
 20
142.269
 30
0.0
 11
285.7077
 21
141.069
 31
0.0
  0
LINE
  5
44F
100
AcDbEntity
  8
1
  6
CONTINUOUS
 62
     7
100
AcDbLine
 10
285.7077
 20
140.469
 30
0.0
 11
285.7077
 21
123.8612
 31
0.0
  0
LINE
  5
450
100
AcDbEntity
  8
1
  6
CONTINUOUS
 62
     7
100
AcDbLine
 10
285.7077
 20
123.2612
 30
0.0
 11
285.7077
 21
122.0612
 31
0.0
  0
LINE
  5
451
100
AcDbEntity
  8
1
  6
CONTINUOUS
 62
     7
100
AcDbLine
 10
285.7077
 20
121.4612
 30
0.0
 11
285.7077
 21
111.3563
 31
0.0
  0
LINE
  5
452
100
AcDbEntity
  8
1
  6
CONTINUOUS
 62
     7
100
AcDbLine
 10
283.3077
 20
114.9952
 30
0.0
 11
288.1077
 21
114.9952
 31
0.0
  0
LINE
  5
453
100
AcDbEntity
  8
1
  6
CONTINUOUS
 62
     7
100
AcDbLine
 10
297.7077
 20
153.9952
 30
0.0
 11
297.7077
 21
133.3893
 31
0.0
  0
LINE
  5
454
100
AcDbEntity
  8
1
  6
CONTINUOUS
 62
     7
100
AcDbLine
 10
297.7077
 20
132.7893
 30
0.0
 11
297.7077
 21
131.5893
 31
0.0
  0
LINE
  5
455
100
AcDbEntity
  8
1
  6
CONTINUOUS
 62
     7
100
AcDbLine
 10
297.7077
 20
130.9893
 30
0.0
 11
297.7077
 21
103.1939
 31
0.0
  0
LINE
  5
456
100
AcDbEntity
  8
1
  6
CONTINUOUS
 62
     7
100
AcDbLine
 10
297.7077
 20
102.5939
 30
0.0
 11
297.7077
 21
101.3939
 31
0.0
  0
LINE
  5
457
100
AcDbEntity
  8
1
  6
CONTINUOUS
 62
     7
100
AcDbLine
 10
297.7077
 20
100.7939
 30
0.0
 11
297.7077
 21
85.8952
 31
0.0
  0
LINE
  5
458
100
AcDbEntity
  8
1
  6
CONTINUOUS
 62
     7
100
AcDbLine
 10
287.9577
 20
209.7625
 30
0.0
 11
287.9577
 21
207.3625
 31
0.0
  0
LINE
  5
459
100
AcDbEntity
  8
1
  6
CONTINUOUS
 62
     4
100
AcDbLine
 10
282.1077
 20
171.6952
 30
0.0
 11
283.1577
 21
269.4952
 31
0.0
  0
LINE
  5
45A
100
AcDbEntity
  8
1
  6
CONTINUOUS
 62
     4
100
AcDbLine
 10
293.8077
 20
171.6952
 30
0.0
 11
292.7577
 21
269.4952
 31
0.0
  0
LINE
  5
45B
100
AcDbEntity
  8
1
  6
CONTINUOUS
 62
     4
100
AcDbLine
 10
373.0077
 20
171.6952
 30
0.0
 11
391.0077
 21
171.6952
 31
0.0
  0
LINE
  5
45C
100
AcDbEntity
  8
1
  6
CONTINUOUS
 62
     4
100
AcDbLine
 10
372.4077
 20
169.5952
 30
0.0
 11
391.6077
 21
169.5952
 31
0.0
  0
LINE
  5
45D
100
AcDbEntity
  8
1
  6
CONTINUOUS
 62
     4
100
AcDbLine
 10
372.4077
 20
168.3952
 30
0.0
 11
391.6077
 21
168.3952
 31
0.0
  0
LINE
  5
45E
100
AcDbEntity
  8
1
  6
CONTINUOUS
 62
     4
100
AcDbLine
 10
373.0077
 20
171.6952
 30
0.0
 11
373.0077
 21
169.5952
 31
0.0
  0
LINE
  5
45F
100
AcDbEntity
  8
1
  6
CONTINUOUS
 62
     4
100
AcDbLine
 10
391.0077
 20
171.6952
 30
0.0
 11
391.0077
 21
169.5952
 31
0.0
  0
LINE
  5
460
100
AcDbEntity
  8
1
  6
CONTINUOUS
 62
     4
100
AcDbLine
 10
374.8077
 20
172.5952
 30
0.0
 11
374.8077
 21
166.8952
 31
0.0
  0
LINE
  5
461
100
AcDbEntity
  8
1
  6
CONTINUOUS
 62
     4
100
AcDbLine
 10
388.6077
 20
172.5952
 30
0.0
 11
388.6077
 21
166.8952
 31
0.0
  0
LINE
  5
462
100
AcDbEntity
  8
1
  6
CONTINUOUS
 62
     4
100
AcDbLine
 10
380.3577
 20
271.8952
 30
0.0
 11
380.3577
 21
269.4952
 31
0.0
  0
LINE
  5
463
100
AcDbEntity
  8
1
  6
CONTINUOUS
 62
     4
100
AcDbLine
 10
382.7577
 20
269.4952
 30
0.0
 11
382.7577
 21
267.0952
 31
0.0
  0
LINE
  5
464
100
AcDbEntity
  8
1
  6
CONTINUOUS
 62
     4
100
AcDbLine
 10
382.7577
 20
267.0952
 30
0.0
 11
380.3577
 21
271.8952
 31
0.0
  0
LINE
  5
465
100
AcDbEntity
  8
1
  6
CONTINUOUS
 62
     7
100
AcDbLine
 10
381.5577
 20
210.9625
 30
0.0
 11
381.5577
 21
266.0277
 31
0.0
  0
LINE
  5
466
100
AcDbEntity
  8
1
  6
CONTINUOUS
 62
     4
100
AcDbLine
 10
374.3577
 20
269.4952
 30
0.0
 11
380.3577
 21
269.4952
 31
0.0
  0
LINE
  5
467
100
AcDbEntity
  8
1
  6
CONTINUOUS
 62
     4
100
AcDbLine
 10
382.7577
 20
269.4952
 30
0.0
 11
388.7577
 21
269.4952
 31
0.0
  0
LINE
  5
468
100
AcDbEntity
  8
1
  6
CONTINUOUS
 62
     7
100
AcDbLine
 10
381.5577
 20
209.7625
 30
0.0
 11
381.5577
 21
207.3625
 31
0.0
  0
LINE
  5
469
100
AcDbEntity
  8
1
  6
CONTINUOUS
 62
     4
100
AcDbLine
 10
375.7077
 20
171.6952
 30
0.0
 11
376.7577
 21
269.4952
 31
0.0
  0
LINE
  5
46A
100
AcDbEntity
  8
1
  6
CONTINUOUS
 62
     4
100
AcDbLine
 10
387.4077
 20
171.6952
 30
0.0
 11
386.3577
 21
269.4952
 31
0.0
  0
LINE
  5
46B
100
AcDbEntity
  8
1
  6
CONTINUOUS
 62
     4
100
AcDbLine
 10
372.4077
 20
169.5952
 30
0.0
 11
372.4077
 21
143.7952
 31
0.0
  0
LINE
  5
46C
100
AcDbEntity
  8
1
  6
CONTINUOUS
 62
     4
100
AcDbLine
 10
391.6077
 20
169.5952
 30
0.0
 11
391.6077
 21
143.7952
 31
0.0
  0
LINE
  5
46D
100
AcDbEntity
  8
1
  6
CONTINUOUS
 62
     4
100
AcDbLine
 10
370.0077
 20
143.7952
 30
0.0
 11
394.0077
 21
143.7952
 31
0.0
  0
LINE
  5
46E
100
AcDbEntity
  8
1
  6
CONTINUOUS
 62
     4
100
AcDbLine
 10
370.0077
 20
169.5952
 30
0.0
 11
370.0077
 21
143.7952
 31
0.0
  0
LINE
  5
46F
100
AcDbEntity
  8
1
  6
CONTINUOUS
 62
     4
100
AcDbLine
 10
394.0077
 20
169.5952
 30
0.0
 11
394.0077
 21
143.7952
 31
0.0
  0
LINE
  5
470
100
AcDbEntity
  8
1
  6
CONTINUOUS
 62
     4
100
AcDbLine
 10
370.0077
 20
169.5952
 30
0.0
 11
334.0077
 21
169.5952
 31
0.0
  0
LINE
  5
471
100
AcDbEntity
  8
1
  6
CONTINUOUS
 62
     4
100
AcDbLine
 10
394.0077
 20
169.5952
 30
0.0
 11
412.6077
 21
169.5952
 31
0.0
  0
LINE
  5
472
100
AcDbEntity
  8
1
  6
CONTINUOUS
 62
     4
100
AcDbLine
 10
376.9077
 20
166.5952
 30
0.0
 11
387.1077
 21
166.5952
 31
0.0
  0
LINE
  5
473
100
AcDbEntity
  8
1
  6
CONTINUOUS
 62
     4
100
AcDbLine
 10
376.9077
 20
166.5952
 30
0.0
 11
376.9077
 21
146.4952
 31
0.0
  0
LINE
  5
474
100
AcDbEntity
  8
1
  6
CONTINUOUS
 62
     4
100
AcDbLine
 10
387.1077
 20
166.5952
 30
0.0
 11
387.1077
 21
146.4952
 31
0.0
  0
LINE
  5
475
100
AcDbEntity
  8
1
  6
CONTINUOUS
 62
     4
100
AcDbLine
 10
372.4077
 20
145.2952
 30
0.0
 11
391.6077
 21
145.2952
 31
0.0
  0
LINE
  5
476
100
AcDbEntity
  8
1
  6
CONTINUOUS
 62
     4
100
AcDbLine
 10
376.9077
 20
146.4952
 30
0.0
 11
387.1077
 21
146.4952
 31
0.0
  0
LINE
  5
477
100
AcDbEntity
  8
1
  6
CONTINUOUS
 62
     7
100
AcDbLine
 10
374.8077
 20
147.6952
 30
0.0
 11
374.8077
 21
137.1952
 31
0.0
  0
LINE
  5
478
100
AcDbEntity
  8
1
  6
CONTINUOUS
 62
     7
100
AcDbLine
 10
388.6077
 20
147.6952
 30
0.0
 11
388.6077
 21
137.1952
 31
0.0
  0
CIRCLE
  5
479
100
AcDbEntity
  8
1
  6
CONTINUOUS
 62
     4
100
AcDbCircle
 10
377.5077
 20
165.9952
 30
0.0
 40
0.3
210
0.0
220
0.0
230
1.0
  0
CIRCLE
  5
47A
100
AcDbEntity
  8
1
  6
CONTINUOUS
 62
     4
100
AcDbCircle
 10
386.5077
 20
165.9952
 30
0.0
 40
0.3
210
0.0
220
0.0
230
1.0
  0
CIRCLE
  5
47B
100
AcDbEntity
  8
1
  6
CONTINUOUS
 62
     4
100
AcDbCircle
 10
386.5077
 20
147.0952
 30
0.0
 40
0.3
210
0.0
220
0.0
230
1.0
  0
CIRCLE
  5
47C
100
AcDbEntity
  8
1
  6
CONTINUOUS
 62
     4
100
AcDbCircle
 10
377.5077
 20
147.0952
 30
0.0
 40
0.3
210
0.0
220
0.0
230
1.0
  0
LINE
  5
47D
100
AcDbEntity
  8
1
  6
CONTINUOUS
 62
     7
100
AcDbLine
 10
373.9077
 20
165.9952
 30
0.0
 11
381.1077
 21
165.9952
 31
0.0
  0
LINE
  5
47E
100
AcDbEntity
  8
1
  6
CONTINUOUS
 62
     7
100
AcDbLine
 10
382.9077
 20
165.9952
 30
0.0
 11
390.1077
 21
165.9952
 31
0.0
  0
LINE
  5
47F
100
AcDbEntity
  8
1
  6
CONTINUOUS
 62
     7
100
AcDbLine
 10
373.9077
 20
147.0952
 30
0.0
 11
381.1077
 21
147.0952
 31
0.0
  0
LINE
  5
480
100
AcDbEntity
  8
1
  6
CONTINUOUS
 62
     7
100
AcDbLine
 10
382.9077
 20
147.0952
 30
0.0
 11
390.1077
 21
147.0952
 31
0.0
  0
LINE
  5
481
100
AcDbEntity
  8
1
  6
CONTINUOUS
 62
     7
100
AcDbLine
 10
377.5077
 20
167.1952
 30
0.0
 11
377.5077
 21
164.7952
 31
0.0
  0
LINE
  5
482
100
AcDbEntity
  8
1
  6
CONTINUOUS
 62
     7
100
AcDbLine
 10
377.5077
 20
148.2952
 30
0.0
 11
377.5077
 21
145.8952
 31
0.0
  0
LINE
  5
483
100
AcDbEntity
  8
1
  6
CONTINUOUS
 62
     7
100
AcDbLine
 10
386.5077
 20
167.1952
 30
0.0
 11
386.5077
 21
164.7952
 31
0.0
  0
LINE
  5
484
100
AcDbEntity
  8
1
  6
CONTINUOUS
 62
     7
100
AcDbLine
 10
386.5077
 20
148.2952
 30
0.0
 11
386.5077
 21
145.8952
 31
0.0
  0
LINE
  5
485
100
AcDbEntity
  8
1
  6
CONTINUOUS
 62
     4
100
AcDbLine
 10
331.6077
 20
153.9952
 30
0.0
 11
334.0077
 21
153.9952
 31
0.0
  0
LINE
  5
486
100
AcDbEntity
  8
1
  6
CONTINUOUS
 62
     4
100
AcDbLine
 10
334.0077
 20
156.3952
 30
0.0
 11
336.4077
 21
156.3952
 31
0.0
  0
LINE
  5
487
100
AcDbEntity
  8
1
  6
CONTINUOUS
 62
     4
100
AcDbLine
 10
336.4077
 20
156.3952
 30
0.0
 11
331.6077
 21
153.9952
 31
0.0
  0
LINE
  5
488
100
AcDbEntity
  8
1
  6
CONTINUOUS
 62
     4
100
AcDbLine
 10
410.2077
 20
153.9952
 30
0.0
 11
412.6077
 21
153.9952
 31
0.0
  0
LINE
  5
489
100
AcDbEntity
  8
1
  6
CONTINUOUS
 62
     4
100
AcDbLine
 10
412.6077
 20
156.3952
 30
0.0
 11
415.0077
 21
156.3952
 31
0.0
  0
LINE
  5
48A
100
AcDbEntity
  8
1
  6
CONTINUOUS
 62
     4
100
AcDbLine
 10
415.0077
 20
156.3952
 30
0.0
 11
410.2077
 21
153.9952
 31
0.0
  0
LINE
  5
48B
100
AcDbEntity
  8
1
  6
CONTINUOUS
 62
     4
100
AcDbLine
 10
334.0077
 20
171.9952
 30
0.0
 11
334.0077
 21
156.3952
 31
0.0
  0
LINE
  5
48C
100
AcDbEntity
  8
1
  6
CONTINUOUS
 62
     4
100
AcDbLine
 10
334.0077
 20
153.9952
 30
0.0
 11
334.0077
 21
138.3952
 31
0.0
  0
LINE
  5
48D
100
AcDbEntity
  8
1
  6
CONTINUOUS
 62
     4
100
AcDbLine
 10
412.6077
 20
171.9952
 30
0.0
 11
412.6077
 21
156.3952
 31
0.0
  0
LINE
  5
48E
100
AcDbEntity
  8
1
  6
CONTINUOUS
 62
     4
100
AcDbLine
 10
412.6077
 20
153.9952
 30
0.0
 11
412.6077
 21
138.3952
 31
0.0
  0
LINE
  5
48F
100
AcDbEntity
  8
1
  6
CONTINUOUS
 62
     7
100
AcDbLine
 10
395.2077
 20
143.7952
 30
0.0
 11
411.4077
 21
143.7952
 31
0.0
  0
LINE
  5
490
100
AcDbEntity
  8
1
  6
CONTINUOUS
 62
     7
100
AcDbLine
 10
403.3077
 20
143.7952
 30
0.0
 11
403.3077
 21
169.5952
 31
0.0
  0
LINE
  5
491
100
AcDbEntity
  8
1
  6
CONTINUOUS
 62
     7
100
AcDbLine
 10
394.0077
 20
142.5952
 30
0.0
 11
394.0077
 21
131.7952
 31
0.0
  0
LINE
  5
492
100
AcDbEntity
  8
1
  6
CONTINUOUS
 62
     7
100
AcDbLine
 10
370.0077
 20
142.5952
 30
0.0
 11
370.0077
 21
131.7952
 31
0.0
  0
LINE
  5
493
100
AcDbEntity
  8
1
  6
CONTINUOUS
 62
     7
100
AcDbLine
 10
370.0077
 20
132.9952
 30
0.0
 11
394.0077
 21
132.9952
 31
0.0
  0
INSERT
  5
494
100
AcDbEntity
  8
1
  6
CONTINUOUS
 62
     1
100
AcDbBlockReference
  2
LDR
 10
370.0077
 20
132.9952
 30
0.0
 41
240.0
 42
240.0
 50
180.0
210
0.0
220
0.0
230
1.0
  0
INSERT
  5
495
100
AcDbEntity
  8
1
  6
CONTINUOUS
 62
     1
100
AcDbBlockReference
  2
LDR
 10
370.0077
 20
132.9952
 30
0.0
 41
240.0
 42
240.0
 50
180.0
210
0.0
220
0.0
230
1.0
  0
INSERT
  5
496
100
AcDbEntity
  8
1
  6
CONTINUOUS
 62
     1
100
AcDbBlockReference
  2
LDR
 10
394.0077
 20
132.9952
 30
0.0
 41
240.0
 42
240.0
210
0.0
220
0.0
230
1.0
  0
INSERT
  5
497
100
AcDbEntity
  8
1
  6
CONTINUOUS
 62
     1
100
AcDbBlockReference
  2
LDR
 10
394.0077
 20
132.9952
 30
0.0
 41
240.0
 42
240.0
210
0.0
220
0.0
230
1.0
  0
INSERT
  5
498
100
AcDbEntity
  8
1
  6
CONTINUOUS
 62
     1
100
AcDbBlockReference
  2
LDR
 10
403.3077
 20
169.5952
 30
0.0
 41
240.0
 42
240.0
 50
90.0
210
0.0
220
0.0
230
1.0
  0
INSERT
  5
499
100
AcDbEntity
  8
1
  6
CONTINUOUS
 62
     1
100
AcDbBlockReference
  2
LDR
 10
403.3077
 20
169.5952
 30
0.0
 41
240.0
 42
240.0
 50
90.0
210
0.0
220
0.0
230
1.0
  0
INSERT
  5
49A
100
AcDbEntity
  8
1
  6
CONTINUOUS
 62
     1
100
AcDbBlockReference
  2
LDR
 10
403.3077
 20
143.7952
 30
0.0
 41
240.0
 42
240.0
 50
270.0
210
0.0
220
0.0
230
1.0
  0
LINE
  5
49B
100
AcDbEntity
  8
1
  6
CONTINUOUS
 62
     7
100
AcDbLine
 10
381.5577
 20
140.7952
 30
0.0
 11
381.5577
 21
155.3452
 31
0.0
  0
LINE
  5
49C
100
AcDbEntity
  8
1
  6
CONTINUOUS
 62
     7
100
AcDbLine
 10
381.5577
 20
155.9452
 30
0.0
 11
381.5577
 21
157.1452
 31
0.0
  0
LINE
  5
49D
100
AcDbEntity
  8
1
  6
CONTINUOUS
 62
     7
100
AcDbLine
 10
362.3397
 20
169.9493
 30
0.0
 11
370.8099
 21
181.5749
 31
0.0
  0
LINE
  5
49E
100
AcDbEntity
  8
1
  6
CONTINUOUS
 62
     7
100
AcDbLine
 10
370.8099
 20
181.5749
 30
0.0
 11
364.3095
 21
181.5749
 31
0.0
  0
INSERT
  5
49F
100
AcDbEntity
  8
1
  6
CONTINUOUS
 62
     1
100
AcDbBlockReference
  2
LDR
 10
362.3397
 20
169.9493
 30
0.0
 41
240.0
 42
240.0
 50
233.923601
210
0.0
220
0.0
230
1.0
  0
LINE
  5
4A0
100
AcDbEntity
  8
1
  6
CONTINUOUS
 62
     4
100
AcDbLine
 10
379.7577
 20
189.0952
 30
0.0
 11
379.7577
 21
193.8952
 31
0.0
  0
LINE
  5
4A1
100
AcDbEntity
  8
1
  6
CONTINUOUS
 62
     4
100
AcDbLine
 10
383.3577
 20
189.0952
 30
0.0
 11
383.3577
 21
193.8952
 31
0.0
  0
LINE
  5
4A2
100
AcDbEntity
  8
1
  6
CONTINUOUS
 62
     7
100
AcDbLine
 10
381.5577
 20
195.6952
 30
0.0
 11
381.5577
 21
206.1625
 31
0.0
  0
LINE
  5
4A3
100
AcDbEntity
  8
1
  6
CONTINUOUS
 62
     7
100
AcDbLine
 10
381.5577
 20
157.7452
 30
0.0
 11
381.5577
 21
187.2952
 31
0.0
  0
LINE
  5
4A4
100
AcDbEntity
  8
1
  6
CONTINUOUS
 62
     7
100
AcDbLine
 10
381.5577
 20
187.2952
 30
0.0
 11
381.5577
 21
195.6952
 31
0.0
  0
ARC
  5
4A5
100
AcDbEntity
  8
1
  6
CONTINUOUS
 62
     4
100
AcDbCircle
 10
381.5577
 20
193.8952
 30
0.0
 40
1.8
210
0.0
220
0.0
230
1.0
100
AcDbArc
 50
0.0
 51
180.0
  0
ARC
  5
4A6
100
AcDbEntity
  8
1
  6
CONTINUOUS
 62
     4
100
AcDbCircle
 10
381.5577
 20
189.0952
 30
0.0
 40
1.8
210
0.0
220
0.0
230
1.0
100
AcDbArc
 50
180.0
 51
360.0
  0
TEXT
  5
4A7
100
AcDbEntity
  8
1
  6
CONTINUOUS
 62
     7
100
AcDbText
 10
332.4367
 20
180.0055
 30
0.0
 40
3.0
  1
TOP OF WALL
  7
MONOTXT
 72
     4
 11
348.5351
 21
181.5055
 31
0.0
210
0.0
220
0.0
230
1.0
100
AcDbText
  0
TEXT
  5
4A8
100
AcDbEntity
  8
1
  6
CONTINUOUS
 62
     7
100
AcDbText
 10
374.0934
 20
133.7505
 30
0.0
 40
3.0
  1
380mm
  7
MONOTXT
 72
     4
 11
382.1012
 21
135.2505
 31
0.0
210
0.0
220
0.0
230
1.0
100
AcDbText
  0
TEXT
  5
4A9
100
AcDbEntity
  8
1
  6
CONTINUOUS
 62
     7
100
AcDbText
 10
375.4044
 20
128.3505
 30
0.0
 40
3.0
  1
(TYP.)
  7
MONOTXT
 72
     4
 11
382.1012
 21
129.8505
 31
0.0
210
0.0
220
0.0
230
1.0
100
AcDbText
  0
TEXT
  5
4AA
100
AcDbEntity
  8
1
  6
CONTINUOUS
 62
     7
100
AcDbText
 10
395.9678
 20
131.3169
 30
0.0
 40
3.0
  1
WALL NICHE
  7
MONOTXT
 72
     4
 11
409.3024
 21
132.8169
 31
0.0
210
0.0
220
0.0
230
1.0
100
AcDbText
  0
TEXT
  5
4AB
100
AcDbEntity
  8
1
  6
CONTINUOUS
 62
     7
100
AcDbText
 10
316.5406
 20
223.2617
 30
0.0
 40
3.0
  1
LIGHTING POLE
  7
MONOTXT
 72
     4
 11
333.4185
 21
224.7617
 31
0.0
210
0.0
220
0.0
230
1.0
100
AcDbText
  0
CIRCLE
  5
4AC
100
AcDbEntity
  8
1
  6
CONTINUOUS
 62
     7
100
AcDbCircle
 10
378.6936
 20
206.4892
 30
0.0
 40
0.3
210
0.0
220
0.0
230
1.0
  0
CIRCLE
  5
4AD
100
AcDbEntity
  8
1
  6
CONTINUOUS
 62
     7
100
AcDbCircle
 10
290.5559
 20
206.4359
 30
0.0
 40
0.3
210
0.0
220
0.0
230
1.0
  0
LINE
  5
4AE
100
AcDbEntity
  8
1
  6
CONTINUOUS
 62
     7
100
AcDbLine
 10
302.8362
 20
224.9229
 30
0.0
 11
315.5595
 21
224.9229
 31
0.0
  0
LINE
  5
4AF
100
AcDbEntity
  8
1
  6
CONTINUOUS
 62
     7
100
AcDbLine
 10
350.7802
 20
224.9229
 30
0.0
 11
366.6792
 21
224.9229
 31
0.0
  0
LINE
  5
4B0
100
AcDbEntity
  8
1
  6
CONTINUOUS
 62
     7
100
AcDbLine
 10
290.5559
 20
206.4359
 30
0.0
 11
302.8362
 21
224.9229
 31
0.0
  0
LINE
  5
4B1
100
AcDbEntity
  8
1
  6
CONTINUOUS
 62
     7
100
AcDbLine
 10
378.9936
 20
206.4892
 30
0.0
 11
366.6792
 21
224.9229
 31
0.0
  0
TEXT
  5
4B2
100
AcDbEntity
  8
1
  6
CONTINUOUS
 62
     7
100
AcDbText
 10
402.694
 20
148.3046
 30
0.0
 40
3.0
  1
430mm
 50
90.0
  7
MONOTXT
 72
     4
 11
401.194
 21
156.3834
 31
0.0
210
0.0
220
0.0
230
1.0
100
AcDbText
  0
CIRCLE
  5
4B3
100
AcDbEntity
  8
1
  6
CONTINUOUS
 62
     7
100
AcDbCircle
 10
294.0753
 20
93.2049
 30
0.0
 40
0.3
210
0.0
220
0.0
230
1.0
  0
CIRCLE
  5
4B4
100
AcDbEntity
  8
1
  6
CONTINUOUS
 62
     7
100
AcDbCircle
 10
283.8688
 20
159.9335
 30
0.0
 40
0.3
210
0.0
220
0.0
230
1.0
  0
CIRCLE
  5
4B5
100
AcDbEntity
  8
1
  6
CONTINUOUS
 62
     7
100
AcDbCircle
 10
320.8822
 20
83.4073
 30
0.0
 40
0.3
210
0.0
220
0.0
230
1.0
  0
LINE
  5
4B6
100
AcDbEntity
  8
1
  6
CONTINUOUS
 62
     7
100
AcDbLine
 10
295.0077
 20
186.7588
 30
0.0
 11
304.9727
 21
193.8197
 31
0.0
  0
LINE
  5
4B7
100
AcDbEntity
  8
1
  6
CONTINUOUS
 62
     7
100
AcDbLine
 10
304.9727
 20
193.8197
 30
0.0
 11
308.6888
 21
193.8197
 31
0.0
  0
INSERT
  5
4B8
100
AcDbEntity
  8
1
  6
CONTINUOUS
 62
     1
100
AcDbBlockReference
  2
LDR
 10
295.0077
 20
186.7588
 30
0.0
 41
239.999999
 42
239.999999
 50
215.320242
210
0.0
220
0.0
230
1.0
  0
LINE
  5
4B9
100
AcDbEntity
  8
1
  6
CONTINUOUS
 62
     7
100
AcDbLine
 10
282.0707
 20
186.7588
 30
0.0
 11
272.1057
 21
193.8197
 31
0.0
  0
LINE
  5
4BA
100
AcDbEntity
  8
1
  6
CONTINUOUS
 62
     7
100
AcDbLine
 10
272.1057
 20
193.8197
 30
0.0
 11
268.3896
 21
193.8197
 31
0.0
  0
INSERT
  5
4BB
100
AcDbEntity
  8
1
  6
CONTINUOUS
 62
     1
100
AcDbBlockReference
  2
LDR
 10
282.0707
 20
186.7588
 30
0.0
 41
239.999999
 42
-239.999999
 50
324.679758
210
0.0
220
0.0
230
1.0
  0
LINE
  5
4BC
100
AcDbEntity
  8
1
  6
CONTINUOUS
 62
     7
100
AcDbLine
 10
284.1688
 20
159.9335
 30
0.0
 11
267.6463
 21
164.5767
 31
0.0
  0
LINE
  5
4BD
100
AcDbEntity
  8
1
  6
CONTINUOUS
 62
     7
100
AcDbLine
 10
304.085
 20
147.9952
 30
0.0
 11
314.885
 21
147.9952
 31
0.0
  0
LINE
  5
4BE
100
AcDbEntity
  8
1
  6
CONTINUOUS
 62
     7
100
AcDbLine
 10
303.1366
 20
152.1952
 30
0.0
 11
314.885
 21
152.1952
 31
0.0
  0
LINE
  5
4BF
100
AcDbEntity
  8
1
  6
CONTINUOUS
 62
     7
100
AcDbLine
 10
313.685
 20
152.1952
 30
0.0
 11
313.685
 21
158.1952
 31
0.0
  0
LINE
  5
4C0
100
AcDbEntity
  8
1
  6
CONTINUOUS
 62
     7
100
AcDbLine
 10
313.685
 20
147.9952
 30
0.0
 11
313.685
 21
141.9952
 31
0.0
  0
INSERT
  5
4C1
100
AcDbEntity
  8
1
  6
CONTINUOUS
 62
     1
100
AcDbBlockReference
  2
LDR
 10
313.685
 20
152.1952
 30
0.0
 41
240.0
 42
240.0
 50
270.0
210
0.0
220
0.0
230
1.0
  0
INSERT
  5
4C2
100
AcDbEntity
  8
1
  6
CONTINUOUS
 62
     1
100
AcDbBlockReference
  2
LDR
 10
313.685
 20
152.1952
 30
0.0
 41
240.0
 42
240.0
 50
270.0
210
0.0
220
0.0
230
1.0
  0
INSERT
  5
4C3
100
AcDbEntity
  8
1
  6
CONTINUOUS
 62
     1
100
AcDbBlockReference
  2
LDR
 10
313.685
 20
147.9952
 30
0.0
 41
240.0
 42
240.0
 50
90.0
210
0.0
220
0.0
230
1.0
  0
LINE
  5
4C4
100
AcDbEntity
  8
1
  6
CONTINUOUS
 62
     7
100
AcDbLine
 10
281.8077
 20
110.7952
 30
0.0
 11
245.8077
 21
110.7952
 31
0.0
  0
LINE
  5
4C5
100
AcDbEntity
  8
1
  6
CONTINUOUS
 62
     7
100
AcDbLine
 10
287.8077
 20
103.2627
 30
0.0
 11
263.9498
 21
103.2627
 31
0.0
  0
LINE
  5
4C6
100
AcDbEntity
  8
1
  6
CONTINUOUS
 62
     7
100
AcDbLine
 10
291.4215
 20
103.2627
 30
0.0
 11
301.0215
 21
103.2627
 31
0.0
  0
INSERT
  5
4C7
100
AcDbEntity
  8
1
  6
CONTINUOUS
 62
     1
100
AcDbBlockReference
  2
LDR
 10
287.8077
 20
103.2627
 30
0.0
 41
240.0
 42
240.0
210
0.0
220
0.0
230
1.0
  0
INSERT
  5
4C8
100
AcDbEntity
  8
1
  6
CONTINUOUS
 62
     1
100
AcDbBlockReference
  2
LDR
 10
287.8077
 20
103.2627
 30
0.0
 41
240.0
 42
240.0
210
0.0
220
0.0
230
1.0
  0
INSERT
  5
4C9
100
AcDbEntity
  8
1
  6
CONTINUOUS
 62
     1
100
AcDbBlockReference
  2
LDR
 10
291.4215
 20
103.2627
 30
0.0
 41
240.0
 42
240.0
 50
180.0
210
0.0
220
0.0
230
1.0
  0
LINE
  5
4CA
100
AcDbEntity
  8
1
  6
CONTINUOUS
 62
     7
100
AcDbLine
 10
294.0753
 20
93.2049
 30
0.0
 11
276.6356
 21
88.1453
 31
0.0
  0
LINE
  5
4CB
100
AcDbEntity
  8
1
  6
CONTINUOUS
 62
     7
100
AcDbLine
 10
320.5822
 20
83.4073
 30
0.0
 11
308.7194
 21
68.4198
 31
0.0
  0
CIRCLE
  5
4CC
100
AcDbEntity
  8
1
  6
CONTINUOUS
 62
     7
100
AcDbCircle
 10
264.0463
 20
164.5767
 30
0.0
 40
3.6
210
0.0
220
0.0
230
1.0
  0
CIRCLE
  5
4CD
100
AcDbEntity
  8
1
  6
CONTINUOUS
 62
     7
100
AcDbCircle
 10
273.0356
 20
88.1453
 30
0.0
 40
3.6
210
0.0
220
0.0
230
1.0
  0
CIRCLE
  5
4CE
100
AcDbEntity
  8
1
  6
CONTINUOUS
 62
     7
100
AcDbCircle
 10
308.7194
 20
64.8198
 30
0.0
 40
3.6
210
0.0
220
0.0
230
1.0
  0
TEXT
  5
4CF
100
AcDbEntity
  8
1
  6
CONTINUOUS
 62
     7
100
AcDbText
 10
218.7142
 20
191.8483
 30
0.0
 40
3.0
  1
GROUND CONNECTOR
  7
MONOTXT
 72
     4
 11
242.6078
 21
193.3483
 31
0.0
210
0.0
220
0.0
230
1.0
100
AcDbText
  0
TEXT
  5
4D0
100
AcDbEntity
  8
1
  6
CONTINUOUS
 62
     7
100
AcDbText
 10
310.4172
 20
192.5709
 30
0.0
 40
3.0
  1
HANDHOLE
  7
MONOTXT
 72
     4
 11
321.6967
 21
194.0709
 31
0.0
210
0.0
220
0.0
230
1.0
100
AcDbText
  0
TEXT
  5
4D1
100
AcDbEntity
  8
1
  6
CONTINUOUS
 62
     7
100
AcDbText
 10
263.1877
 20
162.9481
 30
0.0
 40
3.0
  1
1
  7
MONOTXT
 72
     4
 11
263.542
 21
164.4481
 31
0.0
210
0.0
220
0.0
230
1.0
100
AcDbText
  0
TEXT
  5
4D2
100
AcDbEntity
  8
1
  6
CONTINUOUS
 62
     7
100
AcDbText
 10
247.2528
 20
112.3726
 30
0.0
 40
3.0
  1
CONS'T JOINT
  7
MONOTXT
 72
     4
 11
262.8315
 21
113.8726
 31
0.0
210
0.0
220
0.0
230
1.0
100
AcDbText
  0
TEXT
  5
4D3
100
AcDbEntity
  8
1
  6
CONTINUOUS
 62
     7
100
AcDbText
 10
271.9395
 20
86.7236
 30
0.0
 40
3.0
  1
3
  7
MONOTXT
 72
     4
 11
272.9434
 21
88.2236
 31
0.0
210
0.0
220
0.0
230
1.0
100
AcDbText
  0
TEXT
  5
4D4
100
AcDbEntity
  8
1
  6
CONTINUOUS
 62
     7
100
AcDbText
 10
307.6919
 20
63.6034
 30
0.0
 40
3.0
  1
2
  7
MONOTXT
 72
     4
 11
308.6958
 21
65.1034
 31
0.0
210
0.0
220
0.0
230
1.0
100
AcDbText
  0
LINE
  5
4D5
100
AcDbEntity
  8
1
  6
CONTINUOUS
 62
     7
100
AcDbLine
 10
233.0222
 20
39.2873
 30
0.0
 11
396.1114
 21
39.2873
 31
0.0
  0
LINE
  5
4D6
100
AcDbEntity
  8
1
  6
CONTINUOUS
 62
     7
100
AcDbLine
 10
360.1411
 20
107.3743
 30
0.0
 11
402.1552
 21
107.3743
 31
0.0
  0
TEXT
  5
4D7
100
AcDbEntity
  8
1
  6
CONTINUOUS
 62
     7
100
AcDbText
 10
362.0544
 20
109.6939
 30
0.0
 40
4.8
  1
ELEVATION
  7
MONOTXT
 72
     4
 11
381.0087
 21
112.0939
 31
0.0
210
0.0
220
0.0
230
1.0
100
AcDbText
  0
TEXT
  5
4D8
100
AcDbEntity
  8
1
  6
CONTINUOUS
 62
     7
100
AcDbText
 10
234.271
 20
41.6069
 30
0.0
 40
4.8
  1
TYPE "F" INSTALLATION DETAILS ON WALL
  7
MONOTXT
 72
     4
 11
314.6804
 21
44.0069
 31
0.0
210
0.0
220
0.0
230
1.0
100
AcDbText
  0
LINE
  5
4D9
100
AcDbEntity
  8
1
  6
CONTINUOUS
 62
     3
100
AcDbLine
 10
579.9244
 20
144.4533
 30
0.0
 11
579.9244
 21
137.2533
 31
0.0
  0
LINE
  5
4DA
100
AcDbEntity
  8
1
  6
CONTINUOUS
 62
     3
100
AcDbLine
 10
465.3244
 20
137.2533
 30
0.0
 11
509.1244
 21
137.2533
 31
0.0
  0
LINE
  5
4DB
100
AcDbEntity
  8
1
  6
CONTINUOUS
 62
     3
100
AcDbLine
 10
471.3244
 20
144.4533
 30
0.0
 11
503.1244
 21
144.4533
 31
0.0
  0
LINE
  5
4DC
100
AcDbEntity
  8
1
  6
CONTINUOUS
 62
     3
100
AcDbLine
 10
549.3244
 20
137.2533
 30
0.0
 11
579.9244
 21
137.2533
 31
0.0
  0
LINE
  5
4DD
100
AcDbEntity
  8
1
  6
CONTINUOUS
 62
     3
100
AcDbLine
 10
555.3244
 20
144.4533
 30
0.0
 11
579.9244
 21
144.4533
 31
0.0
  0
LINE
  5
4DE
100
AcDbEntity
  8
1
  6
CONTINUOUS
 62
     3
100
AcDbLine
 10
460.5244
 20
215.2533
 30
0.0
 11
467.7244
 21
215.2533
 31
0.0
  0
LINE
  5
4DF
100
AcDbEntity
  8
1
  6
CONTINUOUS
 62
     3
100
AcDbLine
 10
506.7244
 20
215.2533
 30
0.0
 11
513.9244
 21
215.2533
 31
0.0
  0
LINE
  5
4E0
100
AcDbEntity
  8
1
  6
CONTINUOUS
 62
     3
100
AcDbLine
 10
544.5244
 20
215.2533
 30
0.0
 11
551.7244
 21
215.2533
 31
0.0
  0
ARC
  5
4E1
100
AcDbEntity
  8
1
  6
CONTINUOUS
 62
     3
100
AcDbCircle
 10
471.3244
 20
148.0533
 30
0.0
 40
3.6
210
0.0
220
0.0
230
1.0
100
AcDbArc
 50
180.0
 51
270.0
  0
ARC
  5
4E2
100
AcDbEntity
  8
1
  6
CONTINUOUS
 62
     3
100
AcDbCircle
 10
465.3244
 20
142.0533
 30
0.0
 40
4.8
210
0.0
220
0.0
230
1.0
100
AcDbArc
 50
180.0
 51
270.0
  0
ARC
  5
4E3
100
AcDbEntity
  8
1
  6
CONTINUOUS
 62
     3
100
AcDbCircle
 10
509.1244
 20
142.0533
 30
0.0
 40
4.8
210
0.0
220
0.0
230
1.0
100
AcDbArc
 50
270.0
 51
0.0
  0
ARC
  5
4E4
100
AcDbEntity
  8
1
  6
CONTINUOUS
 62
     3
100
AcDbCircle
 10
549.3244
 20
142.0533
 30
0.0
 40
4.8
210
0.0
220
0.0
230
1.0
100
AcDbArc
 50
180.0
 51
270.0
  0
ARC
  5
4E5
100
AcDbEntity
  8
1
  6
CONTINUOUS
 62
     3
100
AcDbCircle
 10
503.1244
 20
148.0533
 30
0.0
 40
3.6
210
0.0
220
0.0
230
1.0
100
AcDbArc
 50
270.0
 51
0.0
  0
ARC
  5
4E6
100
AcDbEntity
  8
1
  6
CONTINUOUS
 62
     3
100
AcDbCircle
 10
555.3244
 20
148.0533
 30
0.0
 40
3.6
210
0.0
220
0.0
230
1.0
100
AcDbArc
 50
180.0
 51
270.0
  0
LINE
  5
4E7
100
AcDbEntity
  8
1
  6
CONTINUOUS
 62
     3
100
AcDbLine
 10
460.5244
 20
215.2533
 30
0.0
 11
460.5244
 21
160.0533
 31
0.0
  0
LINE
  5
4E8
100
AcDbEntity
  8
1
  6
CONTINUOUS
 62
     3
100
AcDbLine
 10
460.5244
 20
156.4533
 30
0.0
 11
460.5244
 21
142.0533
 31
0.0
  0
LINE
  5
4E9
100
AcDbEntity
  8
1
  6
CONTINUOUS
 62
     3
100
AcDbLine
 10
467.7244
 20
215.2533
 30
0.0
 11
467.7244
 21
160.0533
 31
0.0
  0
LINE
  5
4EA
100
AcDbEntity
  8
1
  6
CONTINUOUS
 62
     3
100
AcDbLine
 10
467.7244
 20
156.4533
 30
0.0
 11
467.7244
 21
148.0533
 31
0.0
  0
LINE
  5
4EB
100
AcDbEntity
  8
1
  6
CONTINUOUS
 62
     3
100
AcDbLine
 10
506.7244
 20
215.2533
 30
0.0
 11
506.7244
 21
160.0533
 31
0.0
  0
LINE
  5
4EC
100
AcDbEntity
  8
1
  6
CONTINUOUS
 62
     3
100
AcDbLine
 10
506.7244
 20
156.4533
 30
0.0
 11
506.7244
 21
148.0533
 31
0.0
  0
LINE
  5
4ED
100
AcDbEntity
  8
1
  6
CONTINUOUS
 62
     3
100
AcDbLine
 10
513.9244
 20
215.2533
 30
0.0
 11
513.9244
 21
160.0533
 31
0.0
  0
LINE
  5
4EE
100
AcDbEntity
  8
1
  6
CONTINUOUS
 62
     3
100
AcDbLine
 10
513.9244
 20
156.4533
 30
0.0
 11
513.9244
 21
142.0533
 31
0.0
  0
LINE
  5
4EF
100
AcDbEntity
  8
1
  6
CONTINUOUS
 62
     3
100
AcDbLine
 10
544.5244
 20
215.2533
 30
0.0
 11
544.5244
 21
160.0533
 31
0.0
  0
LINE
  5
4F0
100
AcDbEntity
  8
1
  6
CONTINUOUS
 62
     3
100
AcDbLine
 10
544.5244
 20
156.4533
 30
0.0
 11
544.5244
 21
142.0533
 31
0.0
  0
LINE
  5
4F1
100
AcDbEntity
  8
1
  6
CONTINUOUS
 62
     3
100
AcDbLine
 10
551.7244
 20
215.2533
 30
0.0
 11
551.7244
 21
160.0533
 31
0.0
  0
LINE
  5
4F2
100
AcDbEntity
  8
1
  6
CONTINUOUS
 62
     3
100
AcDbLine
 10
551.7244
 20
156.4533
 30
0.0
 11
551.7244
 21
148.0533
 31
0.0
  0
LINE
  5
4F3
100
AcDbEntity
  8
1
  6
CONTINUOUS
 62
     7
100
AcDbLine
 10
464.1244
 20
154.0533
 30
0.0
 11
464.1244
 21
125.2533
 31
0.0
  0
LINE
  5
4F4
100
AcDbEntity
  8
1
  6
CONTINUOUS
 62
     7
100
AcDbLine
 10
510.3244
 20
154.0533
 30
0.0
 11
510.3244
 21
125.2533
 31
0.0
  0
LINE
  5
4F5
100
AcDbEntity
  8
1
  6
CONTINUOUS
 62
     7
100
AcDbLine
 10
548.1244
 20
141.4533
 30
0.0
 11
548.1244
 21
140.2533
 31
0.0
  0
LINE
  5
4F6
100
AcDbEntity
  8
1
  6
CONTINUOUS
 62
     3
100
AcDbLine
 10
460.5244
 20
166.6533
 30
0.0
 11
467.7244
 21
166.6533
 31
0.0
  0
LINE
  5
4F7
100
AcDbEntity
  8
1
  6
CONTINUOUS
 62
     3
100
AcDbLine
 10
506.7244
 20
166.6533
 30
0.0
 11
513.9244
 21
166.6533
 31
0.0
  0
LINE
  5
4F8
100
AcDbEntity
  8
1
  6
CONTINUOUS
 62
     3
100
AcDbLine
 10
544.5244
 20
166.6533
 30
0.0
 11
551.7244
 21
166.6533
 31
0.0
  0
LINE
  5
4F9
100
AcDbEntity
  8
1
  6
CONTINUOUS
 62
     3
100
AcDbLine
 10
462.3244
 20
214.0533
 30
0.0
 11
465.9244
 21
214.0533
 31
0.0
  0
LINE
  5
4FA
100
AcDbEntity
  8
1
  6
CONTINUOUS
 62
     3
100
AcDbLine
 10
460.5244
 20
212.8533
 30
0.0
 11
467.7244
 21
212.8533
 31
0.0
  0
LINE
  5
4FB
100
AcDbEntity
  8
1
  6
CONTINUOUS
 62
     3
100
AcDbLine
 10
462.3244
 20
211.6533
 30
0.0
 11
465.9244
 21
211.6533
 31
0.0
  0
LINE
  5
4FC
100
AcDbEntity
  8
1
  6
CONTINUOUS
 62
     3
100
AcDbLine
 10
460.5244
 20
210.4533
 30
0.0
 11
467.7244
 21
210.4533
 31
0.0
  0
LINE
  5
4FD
100
AcDbEntity
  8
1
  6
CONTINUOUS
 62
     3
100
AcDbLine
 10
462.3244
 20
209.2533
 30
0.0
 11
465.9244
 21
209.2533
 31
0.0
  0
LINE
  5
4FE
100
AcDbEntity
  8
1
  6
CONTINUOUS
 62
     3
100
AcDbLine
 10
460.5244
 20
208.0533
 30
0.0
 11
467.7244
 21
208.0533
 31
0.0
  0
LINE
  5
4FF
100
AcDbEntity
  8
1
  6
CONTINUOUS
 62
     3
100
AcDbLine
 10
462.3244
 20
206.8533
 30
0.0
 11
465.9244
 21
206.8533
 31
0.0
  0
LINE
  5
500
100
AcDbEntity
  8
1
  6
CONTINUOUS
 62
     3
100
AcDbLine
 10
460.5244
 20
205.6533
 30
0.0
 11
467.7244
 21
205.6533
 31
0.0
  0
LINE
  5
501
100
AcDbEntity
  8
1
  6
CONTINUOUS
 62
     3
100
AcDbLine
 10
462.3244
 20
204.4533
 30
0.0
 11
465.9244
 21
204.4533
 31
0.0
  0
LINE
  5
502
100
AcDbEntity
  8
1
  6
CONTINUOUS
 62
     3
100
AcDbLine
 10
460.5244
 20
203.2533
 30
0.0
 11
467.7244
 21
203.2533
 31
0.0
  0
LINE
  5
503
100
AcDbEntity
  8
1
  6
CONTINUOUS
 62
     3
100
AcDbLine
 10
462.3244
 20
202.0533
 30
0.0
 11
465.9244
 21
202.0533
 31
0.0
  0
LINE
  5
504
100
AcDbEntity
  8
1
  6
CONTINUOUS
 62
     3
100
AcDbLine
 10
460.5244
 20
200.8533
 30
0.0
 11
467.7244
 21
200.8533
 31
0.0
  0
LINE
  5
505
100
AcDbEntity
  8
1
  6
CONTINUOUS
 62
     3
100
AcDbLine
 10
508.5244
 20
214.0533
 30
0.0
 11
512.1244
 21
214.0533
 31
0.0
  0
LINE
  5
506
100
AcDbEntity
  8
1
  6
CONTINUOUS
 62
     3
100
AcDbLine
 10
506.7244
 20
212.8533
 30
0.0
 11
513.9244
 21
212.8533
 31
0.0
  0
LINE
  5
507
100
AcDbEntity
  8
1
  6
CONTINUOUS
 62
     3
100
AcDbLine
 10
508.5244
 20
211.6533
 30
0.0
 11
512.1244
 21
211.6533
 31
0.0
  0
LINE
  5
508
100
AcDbEntity
  8
1
  6
CONTINUOUS
 62
     3
100
AcDbLine
 10
506.7244
 20
210.4533
 30
0.0
 11
513.9244
 21
210.4533
 31
0.0
  0
LINE
  5
509
100
AcDbEntity
  8
1
  6
CONTINUOUS
 62
     3
100
AcDbLine
 10
508.5244
 20
209.2533
 30
0.0
 11
512.1244
 21
209.2533
 31
0.0
  0
LINE
  5
50A
100
AcDbEntity
  8
1
  6
CONTINUOUS
 62
     3
100
AcDbLine
 10
506.7244
 20
208.0533
 30
0.0
 11
513.9244
 21
208.0533
 31
0.0
  0
LINE
  5
50B
100
AcDbEntity
  8
1
  6
CONTINUOUS
 62
     3
100
AcDbLine
 10
508.5244
 20
206.8533
 30
0.0
 11
512.1244
 21
206.8533
 31
0.0
  0
LINE
  5
50C
100
AcDbEntity
  8
1
  6
CONTINUOUS
 62
     3
100
AcDbLine
 10
506.7244
 20
205.6533
 30
0.0
 11
513.9244
 21
205.6533
 31
0.0
  0
LINE
  5
50D
100
AcDbEntity
  8
1
  6
CONTINUOUS
 62
     3
100
AcDbLine
 10
508.5244
 20
204.4533
 30
0.0
 11
512.1244
 21
204.4533
 31
0.0
  0
LINE
  5
50E
100
AcDbEntity
  8
1
  6
CONTINUOUS
 62
     3
100
AcDbLine
 10
506.7244
 20
203.2533
 30
0.0
 11
513.9244
 21
203.2533
 31
0.0
  0
LINE
  5
50F
100
AcDbEntity
  8
1
  6
CONTINUOUS
 62
     3
100
AcDbLine
 10
508.5244
 20
202.0533
 30
0.0
 11
512.1244
 21
202.0533
 31
0.0
  0
LINE
  5
510
100
AcDbEntity
  8
1
  6
CONTINUOUS
 62
     3
100
AcDbLine
 10
506.7244
 20
200.8533
 30
0.0
 11
513.9244
 21
200.8533
 31
0.0
  0
LINE
  5
511
100
AcDbEntity
  8
1
  6
CONTINUOUS
 62
     3
100
AcDbLine
 10
546.3244
 20
214.0533
 30
0.0
 11
549.9244
 21
214.0533
 31
0.0
  0
LINE
  5
512
100
AcDbEntity
  8
1
  6
CONTINUOUS
 62
     3
100
AcDbLine
 10
544.5244
 20
212.8533
 30
0.0
 11
551.7244
 21
212.8533
 31
0.0
  0
LINE
  5
513
100
AcDbEntity
  8
1
  6
CONTINUOUS
 62
     3
100
AcDbLine
 10
546.3244
 20
211.6533
 30
0.0
 11
549.9244
 21
211.6533
 31
0.0
  0
LINE
  5
514
100
AcDbEntity
  8
1
  6
CONTINUOUS
 62
     3
100
AcDbLine
 10
544.5244
 20
210.4533
 30
0.0
 11
551.7244
 21
210.4533
 31
0.0
  0
LINE
  5
515
100
AcDbEntity
  8
1
  6
CONTINUOUS
 62
     3
100
AcDbLine
 10
546.3244
 20
209.2533
 30
0.0
 11
549.9244
 21
209.2533
 31
0.0
  0
LINE
  5
516
100
AcDbEntity
  8
1
  6
CONTINUOUS
 62
     3
100
AcDbLine
 10
544.5244
 20
208.0533
 30
0.0
 11
551.7244
 21
208.0533
 31
0.0
  0
LINE
  5
517
100
AcDbEntity
  8
1
  6
CONTINUOUS
 62
     3
100
AcDbLine
 10
546.3244
 20
206.8533
 30
0.0
 11
549.9244
 21
206.8533
 31
0.0
  0
LINE
  5
518
100
AcDbEntity
  8
1
  6
CONTINUOUS
 62
     3
100
AcDbLine
 10
544.5244
 20
205.6533
 30
0.0
 11
551.7244
 21
205.6533
 31
0.0
  0
LINE
  5
519
100
AcDbEntity
  8
1
  6
CONTINUOUS
 62
     3
100
AcDbLine
 10
546.3244
 20
204.4533
 30
0.0
 11
549.9244
 21
204.4533
 31
0.0
  0
LINE
  5
51A
100
AcDbEntity
  8
1
  6
CONTINUOUS
 62
     3
100
AcDbLine
 10
544.5244
 20
203.2533
 30
0.0
 11
551.7244
 21
203.2533
 31
0.0
  0
LINE
  5
51B
100
AcDbEntity
  8
1
  6
CONTINUOUS
 62
     3
100
AcDbLine
 10
546.3244
 20
202.0533
 30
0.0
 11
549.9244
 21
202.0533
 31
0.0
  0
LINE
  5
51C
100
AcDbEntity
  8
1
  6
CONTINUOUS
 62
     3
100
AcDbLine
 10
544.5244
 20
200.8533
 30
0.0
 11
551.7244
 21
200.8533
 31
0.0
  0
LINE
  5
51D
100
AcDbEntity
  8
1
  6
CONTINUOUS
 62
     3
100
AcDbLine
 10
456.9244
 20
160.0533
 30
0.0
 11
462.9244
 21
160.0533
 31
0.0
  0
LINE
  5
51E
100
AcDbEntity
  8
1
  6
CONTINUOUS
 62
     3
100
AcDbLine
 10
465.3244
 20
160.0533
 30
0.0
 11
471.3244
 21
160.0533
 31
0.0
  0
LINE
  5
51F
100
AcDbEntity
  8
1
  6
CONTINUOUS
 62
     3
100
AcDbLine
 10
456.9244
 20
156.4533
 30
0.0
 11
462.9244
 21
156.4533
 31
0.0
  0
LINE
  5
520
100
AcDbEntity
  8
1
  6
CONTINUOUS
 62
     3
100
AcDbLine
 10
465.3244
 20
156.4533
 30
0.0
 11
471.3244
 21
156.4533
 31
0.0
  0
LINE
  5
521
100
AcDbEntity
  8
1
  6
CONTINUOUS
 62
     3
100
AcDbLine
 10
462.9244
 20
160.0533
 30
0.0
 11
462.9244
 21
162.4533
 31
0.0
  0
LINE
  5
522
100
AcDbEntity
  8
1
  6
CONTINUOUS
 62
     3
100
AcDbLine
 10
465.3244
 20
160.0533
 30
0.0
 11
465.3244
 21
157.6533
 31
0.0
  0
LINE
  5
523
100
AcDbEntity
  8
1
  6
CONTINUOUS
 62
     3
100
AcDbLine
 10
462.9244
 20
156.4533
 30
0.0
 11
462.9244
 21
158.8533
 31
0.0
  0
LINE
  5
524
100
AcDbEntity
  8
1
  6
CONTINUOUS
 62
     3
100
AcDbLine
 10
465.3244
 20
156.4533
 30
0.0
 11
465.3244
 21
154.0533
 31
0.0
  0
LINE
  5
525
100
AcDbEntity
  8
1
  6
CONTINUOUS
 62
     3
100
AcDbLine
 10
462.9244
 20
162.4533
 30
0.0
 11
465.3244
 21
157.6533
 31
0.0
  0
LINE
  5
526
100
AcDbEntity
  8
1
  6
CONTINUOUS
 62
     3
100
AcDbLine
 10
462.9244
 20
158.8533
 30
0.0
 11
465.3244
 21
154.0533
 31
0.0
  0
LINE
  5
527
100
AcDbEntity
  8
1
  6
CONTINUOUS
 62
     3
100
AcDbLine
 10
503.1244
 20
160.0533
 30
0.0
 11
509.1244
 21
160.0533
 31
0.0
  0
LINE
  5
528
100
AcDbEntity
  8
1
  6
CONTINUOUS
 62
     3
100
AcDbLine
 10
511.5244
 20
160.0533
 30
0.0
 11
517.5244
 21
160.0533
 31
0.0
  0
LINE
  5
529
100
AcDbEntity
  8
1
  6
CONTINUOUS
 62
     3
100
AcDbLine
 10
509.1244
 20
160.0533
 30
0.0
 11
509.1244
 21
162.4533
 31
0.0
  0
LINE
  5
52A
100
AcDbEntity
  8
1
  6
CONTINUOUS
 62
     3
100
AcDbLine
 10
511.5244
 20
160.0533
 30
0.0
 11
511.5244
 21
157.6533
 31
0.0
  0
LINE
  5
52B
100
AcDbEntity
  8
1
  6
CONTINUOUS
 62
     3
100
AcDbLine
 10
509.1244
 20
156.4533
 30
0.0
 11
509.1244
 21
158.8533
 31
0.0
  0
LINE
  5
52C
100
AcDbEntity
  8
1
  6
CONTINUOUS
 62
     3
100
AcDbLine
 10
511.5244
 20
156.4533
 30
0.0
 11
511.5244
 21
154.0533
 31
0.0
  0
LINE
  5
52D
100
AcDbEntity
  8
1
  6
CONTINUOUS
 62
     3
100
AcDbLine
 10
509.1244
 20
162.4533
 30
0.0
 11
511.5244
 21
157.6533
 31
0.0
  0
LINE
  5
52E
100
AcDbEntity
  8
1
  6
CONTINUOUS
 62
     3
100
AcDbLine
 10
509.1244
 20
158.8533
 30
0.0
 11
511.5244
 21
154.0533
 31
0.0
  0
LINE
  5
52F
100
AcDbEntity
  8
1
  6
CONTINUOUS
 62
     3
100
AcDbLine
 10
503.1244
 20
156.4533
 30
0.0
 11
509.1244
 21
156.4533
 31
0.0
  0
LINE
  5
530
100
AcDbEntity
  8
1
  6
CONTINUOUS
 62
     3
100
AcDbLine
 10
511.5244
 20
156.4533
 30
0.0
 11
517.5244
 21
156.4533
 31
0.0
  0
LINE
  5
531
100
AcDbEntity
  8
1
  6
CONTINUOUS
 62
     3
100
AcDbLine
 10
540.9244
 20
160.0533
 30
0.0
 11
546.9244
 21
160.0533
 31
0.0
  0
LINE
  5
532
100
AcDbEntity
  8
1
  6
CONTINUOUS
 62
     3
100
AcDbLine
 10
549.3244
 20
160.0533
 30
0.0
 11
555.3244
 21
160.0533
 31
0.0
  0
LINE
  5
533
100
AcDbEntity
  8
1
  6
CONTINUOUS
 62
     3
100
AcDbLine
 10
540.9244
 20
156.4533
 30
0.0
 11
546.9244
 21
156.4533
 31
0.0
  0
LINE
  5
534
100
AcDbEntity
  8
1
  6
CONTINUOUS
 62
     3
100
AcDbLine
 10
549.3244
 20
156.4533
 30
0.0
 11
555.3244
 21
156.4533
 31
0.0
  0
LINE
  5
535
100
AcDbEntity
  8
1
  6
CONTINUOUS
 62
     3
100
AcDbLine
 10
546.9244
 20
160.0533
 30
0.0
 11
546.9244
 21
162.4533
 31
0.0
  0
LINE
  5
536
100
AcDbEntity
  8
1
  6
CONTINUOUS
 62
     3
100
AcDbLine
 10
549.3244
 20
160.0533
 30
0.0
 11
549.3244
 21
157.6533
 31
0.0
  0
LINE
  5
537
100
AcDbEntity
  8
1
  6
CONTINUOUS
 62
     3
100
AcDbLine
 10
546.9244
 20
156.4533
 30
0.0
 11
546.9244
 21
158.8533
 31
0.0
  0
LINE
  5
538
100
AcDbEntity
  8
1
  6
CONTINUOUS
 62
     3
100
AcDbLine
 10
549.3244
 20
156.4533
 30
0.0
 11
549.3244
 21
154.0533
 31
0.0
  0
LINE
  5
539
100
AcDbEntity
  8
1
  6
CONTINUOUS
 62
     3
100
AcDbLine
 10
546.9244
 20
162.4533
 30
0.0
 11
549.3244
 21
157.6533
 31
0.0
  0
LINE
  5
53A
100
AcDbEntity
  8
1
  6
CONTINUOUS
 62
     3
100
AcDbLine
 10
546.9244
 20
158.8533
 30
0.0
 11
549.3244
 21
154.0533
 31
0.0
  0
LINE
  5
53B
100
AcDbEntity
  8
1
  6
CONTINUOUS
 62
     7
100
AcDbLine
 10
464.1244
 20
217.6533
 30
0.0
 11
464.1244
 21
200.8533
 31
0.0
  0
LINE
  5
53C
100
AcDbEntity
  8
1
  6
CONTINUOUS
 62
     7
100
AcDbLine
 10
464.1244
 20
166.6533
 30
0.0
 11
464.1244
 21
162.4533
 31
0.0
  0
LINE
  5
53D
100
AcDbEntity
  8
1
  6
CONTINUOUS
 62
     7
100
AcDbLine
 10
464.1244
 20
200.8533
 30
0.0
 11
464.1244
 21
185.5533
 31
0.0
  0
LINE
  5
53E
100
AcDbEntity
  8
1
  6
CONTINUOUS
 62
     7
100
AcDbLine
 10
464.1244
 20
184.3533
 30
0.0
 11
464.1244
 21
183.1533
 31
0.0
  0
LINE
  5
53F
100
AcDbEntity
  8
1
  6
CONTINUOUS
 62
     7
100
AcDbLine
 10
464.1244
 20
181.9533
 30
0.0
 11
464.1244
 21
166.6533
 31
0.0
  0
LINE
  5
540
100
AcDbEntity
  8
1
  6
CONTINUOUS
 62
     7
100
AcDbLine
 10
510.3244
 20
217.6533
 30
0.0
 11
510.3244
 21
185.5533
 31
0.0
  0
LINE
  5
541
100
AcDbEntity
  8
1
  6
CONTINUOUS
 62
     7
100
AcDbLine
 10
510.3244
 20
184.3533
 30
0.0
 11
510.3244
 21
183.1533
 31
0.0
  0
LINE
  5
542
100
AcDbEntity
  8
1
  6
CONTINUOUS
 62
     7
100
AcDbLine
 10
510.3244
 20
181.9533
 30
0.0
 11
510.3244
 21
162.4533
 31
0.0
  0
LINE
  5
543
100
AcDbEntity
  8
1
  6
CONTINUOUS
 62
     7
100
AcDbLine
 10
548.1244
 20
217.6533
 30
0.0
 11
548.1244
 21
185.5533
 31
0.0
  0
LINE
  5
544
100
AcDbEntity
  8
1
  6
CONTINUOUS
 62
     7
100
AcDbLine
 10
548.1244
 20
184.3533
 30
0.0
 11
548.1244
 21
183.1533
 31
0.0
  0
LINE
  5
545
100
AcDbEntity
  8
1
  6
CONTINUOUS
 62
     7
100
AcDbLine
 10
548.1244
 20
181.9533
 30
0.0
 11
548.1244
 21
162.4533
 31
0.0
  0
LINE
  5
546
100
AcDbEntity
  8
1
  6
CONTINUOUS
 62
     7
100
AcDbLine
 10
485.4244
 20
140.8533
 30
0.0
 11
438.9244
 21
140.8533
 31
0.0
  0
LINE
  5
547
100
AcDbEntity
  8
1
  6
CONTINUOUS
 62
     7
100
AcDbLine
 10
522.3244
 20
140.8533
 30
0.0
 11
489.0244
 21
140.8533
 31
0.0
  0
LINE
  5
548
100
AcDbEntity
  8
1
  6
CONTINUOUS
 62
     7
100
AcDbLine
 10
487.8244
 20
140.8533
 30
0.0
 11
486.6244
 21
140.8533
 31
0.0
  0
LINE
  5
549
100
AcDbEntity
  8
1
  6
CONTINUOUS
 62
     7
100
AcDbLine
 10
583.5244
 20
140.8533
 30
0.0
 11
569.4244
 21
140.8533
 31
0.0
  0
LINE
  5
54A
100
AcDbEntity
  8
1
  6
CONTINUOUS
 62
     7
100
AcDbLine
 10
568.2244
 20
140.8533
 30
0.0
 11
567.0244
 21
140.8533
 31
0.0
  0
LINE
  5
54B
100
AcDbEntity
  8
1
  6
CONTINUOUS
 62
     7
100
AcDbLine
 10
565.8244
 20
140.8533
 30
0.0
 11
549.9244
 21
140.8533
 31
0.0
  0
LINE
  5
54C
100
AcDbEntity
  8
1
  6
CONTINUOUS
 62
     7
100
AcDbLine
 10
548.7244
 20
140.8533
 30
0.0
 11
547.5244
 21
140.8533
 31
0.0
  0
LINE
  5
54D
100
AcDbEntity
  8
1
  6
CONTINUOUS
 62
     7
100
AcDbLine
 10
548.1244
 20
142.6533
 30
0.0
 11
548.1244
 21
154.0533
 31
0.0
  0
LINE
  5
54E
100
AcDbEntity
  8
1
  6
CONTINUOUS
 62
     7
100
AcDbLine
 10
548.1244
 20
139.0533
 30
0.0
 11
548.1244
 21
127.0533
 31
0.0
  0
LINE
  5
54F
100
AcDbEntity
  8
1
  6
CONTINUOUS
 62
     7
100
AcDbLine
 10
546.3244
 20
140.8533
 30
0.0
 11
534.3244
 21
140.8533
 31
0.0
  0
LINE
  5
550
100
AcDbEntity
  8
1
  6
CONTINUOUS
 62
     7
100
AcDbLine
 10
579.9244
 20
136.0533
 30
0.0
 11
579.9244
 21
127.0533
 31
0.0
  0
LINE
  5
551
100
AcDbEntity
  8
1
  6
CONTINUOUS
 62
     7
100
AcDbLine
 10
548.1244
 20
128.2533
 30
0.0
 11
579.9244
 21
128.2533
 31
0.0
  0
LINE
  5
552
100
AcDbEntity
  8
1
  6
CONTINUOUS
 62
     7
100
AcDbLine
 10
543.3244
 20
215.2533
 30
0.0
 11
534.3244
 21
215.2533
 31
0.0
  0
LINE
  5
553
100
AcDbEntity
  8
1
  6
CONTINUOUS
 62
     7
100
AcDbLine
 10
535.5244
 20
215.2533
 30
0.0
 11
535.5244
 21
140.8533
 31
0.0
  0
LINE
  5
554
100
AcDbEntity
  8
1
  6
CONTINUOUS
 62
     7
100
AcDbLine
 10
552.9244
 20
166.6533
 30
0.0
 11
570.9244
 21
166.6533
 31
0.0
  0
LINE
  5
555
100
AcDbEntity
  8
1
  6
CONTINUOUS
 62
     7
100
AcDbLine
 10
552.9244
 20
215.2533
 30
0.0
 11
570.9244
 21
215.2533
 31
0.0
  0
LINE
  5
556
100
AcDbEntity
  8
1
  6
CONTINUOUS
 62
     7
100
AcDbLine
 10
569.7244
 20
215.2533
 30
0.0
 11
569.7244
 21
166.6533
 31
0.0
  0
LINE
  5
557
100
AcDbEntity
  8
1
  6
CONTINUOUS
 62
     7
100
AcDbLine
 10
552.9244
 20
200.8533
 30
0.0
 11
561.3244
 21
200.8533
 31
0.0
  0
LINE
  5
558
100
AcDbEntity
  8
1
  6
CONTINUOUS
 62
     7
100
AcDbLine
 10
560.1244
 20
198.4392
 30
0.0
 11
560.1244
 21
215.2533
 31
0.0
  0
LINE
  5
559
100
AcDbEntity
  8
1
  6
CONTINUOUS
 62
     7
100
AcDbLine
 10
544.5244
 20
216.4533
 30
0.0
 11
544.5244
 21
223.6533
 31
0.0
  0
LINE
  5
55A
100
AcDbEntity
  8
1
  6
CONTINUOUS
 62
     7
100
AcDbLine
 10
551.7244
 20
216.4533
 30
0.0
 11
551.7244
 21
223.6533
 31
0.0
  0
LINE
  5
55B
100
AcDbEntity
  8
1
  6
CONTINUOUS
 62
     7
100
AcDbLine
 10
538.5244
 20
222.4533
 30
0.0
 11
544.5244
 21
222.4533
 31
0.0
  0
LINE
  5
55C
100
AcDbEntity
  8
1
  6
CONTINUOUS
 62
     7
100
AcDbLine
 10
551.7244
 20
222.4533
 30
0.0
 11
557.7244
 21
222.4533
 31
0.0
  0
LINE
  5
55D
100
AcDbEntity
  8
1
  6
CONTINUOUS
 62
     7
100
AcDbLine
 10
459.3244
 20
215.2533
 30
0.0
 11
438.9244
 21
215.2533
 31
0.0
  0
LINE
  5
55E
100
AcDbEntity
  8
1
  6
CONTINUOUS
 62
     7
100
AcDbLine
 10
440.1244
 20
215.2533
 30
0.0
 11
440.1244
 21
140.8533
 31
0.0
  0
LINE
  5
55F
100
AcDbEntity
  8
1
  6
CONTINUOUS
 62
     7
100
AcDbLine
 10
464.1244
 20
126.4533
 30
0.0
 11
510.3244
 21
126.4533
 31
0.0
  0
LINE
  5
560
100
AcDbEntity
  8
1
  6
CONTINUOUS
 62
     7
100
AcDbLine
 10
515.1244
 20
166.6533
 30
0.0
 11
529.5244
 21
166.6533
 31
0.0
  0
LINE
  5
561
100
AcDbEntity
  8
1
  6
CONTINUOUS
 62
     7
100
AcDbLine
 10
515.1244
 20
215.2533
 30
0.0
 11
529.5244
 21
215.2533
 31
0.0
  0
LINE
  5
562
100
AcDbEntity
  8
1
  6
CONTINUOUS
 62
     7
100
AcDbLine
 10
515.1244
 20
200.8533
 30
0.0
 11
522.3244
 21
200.8533
 31
0.0
  0
LINE
  5
563
100
AcDbEntity
  8
1
  6
CONTINUOUS
 62
     7
100
AcDbLine
 10
528.3244
 20
215.2533
 30
0.0
 11
528.3244
 21
166.6533
 31
0.0
  0
LINE
  5
564
100
AcDbEntity
  8
1
  6
CONTINUOUS
 62
     7
100
AcDbLine
 10
521.1244
 20
200.8533
 30
0.0
 11
521.1244
 21
215.2533
 31
0.0
  0
LINE
  5
565
100
AcDbEntity
  8
1
  6
CONTINUOUS
 62
     7
100
AcDbLine
 10
506.7244
 20
215.2533
 30
0.0
 11
506.7244
 21
223.6533
 31
0.0
  0
LINE
  5
566
100
AcDbEntity
  8
1
  6
CONTINUOUS
 62
     7
100
AcDbLine
 10
513.9244
 20
215.2533
 30
0.0
 11
513.9244
 21
223.6533
 31
0.0
  0
LINE
  5
567
100
AcDbEntity
  8
1
  6
CONTINUOUS
 62
     7
100
AcDbLine
 10
500.7244
 20
222.4533
 30
0.0
 11
506.7244
 21
222.4533
 31
0.0
  0
LINE
  5
568
100
AcDbEntity
  8
1
  6
CONTINUOUS
 62
     7
100
AcDbLine
 10
513.9244
 20
222.4533
 30
0.0
 11
519.9244
 21
222.4533
 31
0.0
  0
INSERT
  5
569
100
AcDbEntity
  8
1
  6
CONTINUOUS
 62
     1
100
AcDbBlockReference
  2
LDR
 10
440.1244
 20
215.2533
 30
0.0
 41
240.0
 42
240.0
 50
90.0
210
0.0
220
0.0
230
1.0
  0
INSERT
  5
56A
100
AcDbEntity
  8
1
  6
CONTINUOUS
 62
     1
100
AcDbBlockReference
  2
LDR
 10
440.1244
 20
215.2533
 30
0.0
 41
240.0
 42
240.0
 50
90.0
210
0.0
220
0.0
230
1.0
  0
INSERT
  5
56B
100
AcDbEntity
  8
1
  6
CONTINUOUS
 62
     1
100
AcDbBlockReference
  2
LDR
 10
440.1244
 20
140.8533
 30
0.0
 41
240.0
 42
240.0
 50
270.0
210
0.0
220
0.0
230
1.0
  0
INSERT
  5
56C
100
AcDbEntity
  8
1
  6
CONTINUOUS
 62
     1
100
AcDbBlockReference
  2
LDR
 10
440.1244
 20
140.8533
 30
0.0
 41
240.0
 42
240.0
 50
270.0
210
0.0
220
0.0
230
1.0
  0
INSERT
  5
56D
100
AcDbEntity
  8
1
  6
CONTINUOUS
 62
     1
100
AcDbBlockReference
  2
LDR
 10
464.1244
 20
126.4533
 30
0.0
 41
240.0
 42
240.0
 50
180.0
210
0.0
220
0.0
230
1.0
  0
INSERT
  5
56E
100
AcDbEntity
  8
1
  6
CONTINUOUS
 62
     1
100
AcDbBlockReference
  2
LDR
 10
464.1244
 20
126.4533
 30
0.0
 41
240.0
 42
240.0
 50
180.0
210
0.0
220
0.0
230
1.0
  0
INSERT
  5
56F
100
AcDbEntity
  8
1
  6
CONTINUOUS
 62
     1
100
AcDbBlockReference
  2
LDR
 10
510.3244
 20
126.4533
 30
0.0
 41
240.0
 42
240.0
210
0.0
220
0.0
230
1.0
  0
INSERT
  5
570
100
AcDbEntity
  8
1
  6
CONTINUOUS
 62
     1
100
AcDbBlockReference
  2
LDR
 10
510.3244
 20
126.4533
 30
0.0
 41
240.0
 42
240.0
210
0.0
220
0.0
230
1.0
  0
INSERT
  5
571
100
AcDbEntity
  8
1
  6
CONTINUOUS
 62
     1
100
AcDbBlockReference
  2
LDR
 10
506.7244
 20
222.4533
 30
0.0
 41
240.0
 42
240.0
210
0.0
220
0.0
230
1.0
  0
INSERT
  5
572
100
AcDbEntity
  8
1
  6
CONTINUOUS
 62
     1
100
AcDbBlockReference
  2
LDR
 10
506.7244
 20
222.4533
 30
0.0
 41
240.0
 42
240.0
210
0.0
220
0.0
230
1.0
  0
INSERT
  5
573
100
AcDbEntity
  8
1
  6
CONTINUOUS
 62
     1
100
AcDbBlockReference
  2
LDR
 10
513.9244
 20
222.4533
 30
0.0
 41
240.0
 42
240.0
 50
180.0
210
0.0
220
0.0
230
1.0
  0
INSERT
  5
574
100
AcDbEntity
  8
1
  6
CONTINUOUS
 62
     1
100
AcDbBlockReference
  2
LDR
 10
513.9244
 20
222.4533
 30
0.0
 41
240.0
 42
240.0
 50
180.0
210
0.0
220
0.0
230
1.0
  0
INSERT
  5
575
100
AcDbEntity
  8
1
  6
CONTINUOUS
 62
     1
100
AcDbBlockReference
  2
LDR
 10
521.1244
 20
215.2533
 30
0.0
 41
240.0
 42
240.0
 50
90.0
210
0.0
220
0.0
230
1.0
  0
INSERT
  5
576
100
AcDbEntity
  8
1
  6
CONTINUOUS
 62
     1
100
AcDbBlockReference
  2
LDR
 10
521.1244
 20
215.2533
 30
0.0
 41
240.0
 42
240.0
 50
90.0
210
0.0
220
0.0
230
1.0
  0
INSERT
  5
577
100
AcDbEntity
  8
1
  6
CONTINUOUS
 62
     1
100
AcDbBlockReference
  2
LDR
 10
521.1244
 20
200.8533
 30
0.0
 41
240.0
 42
240.0
 50
270.0
210
0.0
220
0.0
230
1.0
  0
INSERT
  5
578
100
AcDbEntity
  8
1
  6
CONTINUOUS
 62
     1
100
AcDbBlockReference
  2
LDR
 10
521.1244
 20
200.8533
 30
0.0
 41
240.0
 42
240.0
 50
270.0
210
0.0
220
0.0
230
1.0
  0
INSERT
  5
579
100
AcDbEntity
  8
1
  6
CONTINUOUS
 62
     1
100
AcDbBlockReference
  2
LDR
 10
528.3244
 20
215.2533
 30
0.0
 41
240.0
 42
240.0
 50
90.0
210
0.0
220
0.0
230
1.0
  0
INSERT
  5
57A
100
AcDbEntity
  8
1
  6
CONTINUOUS
 62
     1
100
AcDbBlockReference
  2
LDR
 10
528.3244
 20
215.2533
 30
0.0
 41
240.0
 42
240.0
 50
90.0
210
0.0
220
0.0
230
1.0
  0
INSERT
  5
57B
100
AcDbEntity
  8
1
  6
CONTINUOUS
 62
     1
100
AcDbBlockReference
  2
LDR
 10
528.3244
 20
166.6533
 30
0.0
 41
240.0
 42
240.0
 50
270.0
210
0.0
220
0.0
230
1.0
  0
INSERT
  5
57C
100
AcDbEntity
  8
1
  6
CONTINUOUS
 62
     1
100
AcDbBlockReference
  2
LDR
 10
528.3244
 20
166.6533
 30
0.0
 41
240.0
 42
240.0
 50
270.0
210
0.0
220
0.0
230
1.0
  0
INSERT
  5
57D
100
AcDbEntity
  8
1
  6
CONTINUOUS
 62
     1
100
AcDbBlockReference
  2
LDR
 10
544.5244
 20
222.4533
 30
0.0
 41
240.0
 42
240.0
210
0.0
220
0.0
230
1.0
  0
INSERT
  5
57E
100
AcDbEntity
  8
1
  6
CONTINUOUS
 62
     1
100
AcDbBlockReference
  2
LDR
 10
551.7244
 20
222.4533
 30
0.0
 41
240.0
 42
240.0
 50
180.0
210
0.0
220
0.0
230
1.0
  0
INSERT
  5
57F
100
AcDbEntity
  8
1
  6
CONTINUOUS
 62
     1
100
AcDbBlockReference
  2
LDR
 10
535.5244
 20
215.2533
 30
0.0
 41
240.0
 42
240.0
 50
90.0
210
0.0
220
0.0
230
1.0
  0
INSERT
  5
580
100
AcDbEntity
  8
1
  6
CONTINUOUS
 62
     1
100
AcDbBlockReference
  2
LDR
 10
535.5244
 20
215.2533
 30
0.0
 41
240.0
 42
240.0
 50
90.0
210
0.0
220
0.0
230
1.0
  0
INSERT
  5
581
100
AcDbEntity
  8
1
  6
CONTINUOUS
 62
     1
100
AcDbBlockReference
  2
LDR
 10
535.5244
 20
140.8533
 30
0.0
 41
240.0
 42
240.0
 50
270.0
210
0.0
220
0.0
230
1.0
  0
INSERT
  5
582
100
AcDbEntity
  8
1
  6
CONTINUOUS
 62
     1
100
AcDbBlockReference
  2
LDR
 10
535.5244
 20
140.8533
 30
0.0
 41
240.0
 42
240.0
 50
270.0
210
0.0
220
0.0
230
1.0
  0
INSERT
  5
583
100
AcDbEntity
  8
1
  6
CONTINUOUS
 62
     1
100
AcDbBlockReference
  2
LDR
 10
548.1244
 20
128.2533
 30
0.0
 41
240.0
 42
240.0
 50
180.0
210
0.0
220
0.0
230
1.0
  0
INSERT
  5
584
100
AcDbEntity
  8
1
  6
CONTINUOUS
 62
     1
100
AcDbBlockReference
  2
LDR
 10
548.1244
 20
128.2533
 30
0.0
 41
240.0
 42
240.0
 50
180.0
210
0.0
220
0.0
230
1.0
  0
INSERT
  5
585
100
AcDbEntity
  8
1
  6
CONTINUOUS
 62
     1
100
AcDbBlockReference
  2
LDR
 10
579.9244
 20
128.2533
 30
0.0
 41
240.0
 42
240.0
210
0.0
220
0.0
230
1.0
  0
INSERT
  5
586
100
AcDbEntity
  8
1
  6
CONTINUOUS
 62
     1
100
AcDbBlockReference
  2
LDR
 10
579.9244
 20
128.2533
 30
0.0
 41
240.0
 42
240.0
210
0.0
220
0.0
230
1.0
  0
INSERT
  5
587
100
AcDbEntity
  8
1
  6
CONTINUOUS
 62
     1
100
AcDbBlockReference
  2
LDR
 10
560.1244
 20
215.2533
 30
0.0
 41
240.0
 42
240.0
 50
90.0
210
0.0
220
0.0
230
1.0
  0
INSERT
  5
588
100
AcDbEntity
  8
1
  6
CONTINUOUS
 62
     1
100
AcDbBlockReference
  2
LDR
 10
560.1244
 20
215.2533
 30
0.0
 41
240.0
 42
240.0
 50
90.0
210
0.0
220
0.0
230
1.0
  0
INSERT
  5
589
100
AcDbEntity
  8
1
  6
CONTINUOUS
 62
     1
100
AcDbBlockReference
  2
LDR
 10
560.1244
 20
200.8533
 30
0.0
 41
240.0
 42
240.0
 50
270.0
210
0.0
220
0.0
230
1.0
  0
INSERT
  5
58A
100
AcDbEntity
  8
1
  6
CONTINUOUS
 62
     1
100
AcDbBlockReference
  2
LDR
 10
560.1244
 20
200.8533
 30
0.0
 41
240.0
 42
240.0
 50
270.0
210
0.0
220
0.0
230
1.0
  0
INSERT
  5
58B
100
AcDbEntity
  8
1
  6
CONTINUOUS
 62
     1
100
AcDbBlockReference
  2
LDR
 10
569.7244
 20
215.2533
 30
0.0
 41
240.0
 42
240.0
 50
90.0
210
0.0
220
0.0
230
1.0
  0
INSERT
  5
58C
100
AcDbEntity
  8
1
  6
CONTINUOUS
 62
     1
100
AcDbBlockReference
  2
LDR
 10
569.7244
 20
215.2533
 30
0.0
 41
240.0
 42
240.0
 50
90.0
210
0.0
220
0.0
230
1.0
  0
INSERT
  5
58D
100
AcDbEntity
  8
1
  6
CONTINUOUS
 62
     1
100
AcDbBlockReference
  2
LDR
 10
569.7244
 20
166.6533
 30
0.0
 41
240.0
 42
240.0
 50
270.0
210
0.0
220
0.0
230
1.0
  0
INSERT
  5
58E
100
AcDbEntity
  8
1
  6
CONTINUOUS
 62
     1
100
AcDbBlockReference
  2
LDR
 10
569.7244
 20
166.6533
 30
0.0
 41
240.0
 42
240.0
 50
270.0
210
0.0
220
0.0
230
1.0
  0
TEXT
  5
58F
100
AcDbEntity
  8
1
  6
CONTINUOUS
 62
     7
100
AcDbText
 10
148.3298
 20
206.555
 30
0.0
 40
3.0
  1
/
  7
MONOTXT
 72
     4
 11
149.1684
 21
208.055
 31
0.0
210
0.0
220
0.0
230
1.0
100
AcDbText
  0
TEXT
  5
590
100
AcDbEntity
  8
1
  6
CONTINUOUS
 62
     7
100
AcDbText
 10
497.8523
 20
220.9688
 30
0.0
 40
3.0
  1
/
  7
MONOTXT
 72
     4
 11
498.6909
 21
222.4688
 31
0.0
210
0.0
220
0.0
230
1.0
100
AcDbText
  0
TEXT
  5
591
100
AcDbEntity
  8
1
  6
CONTINUOUS
 62
     7
100
AcDbText
 10
498.4675
 20
107.1398
 30
0.0
 40
4.8
  1
ANCHOR BOLTS
  7
MONOTXT
 72
     4
 11
526.4927
 21
109.5398
 31
0.0
210
0.0
220
0.0
230
1.0
100
AcDbText
  0
TEXT
  5
592
100
AcDbEntity
  8
1
  6
CONTINUOUS
 62
     7
100
AcDbText
 10
487.8092
 20
99.9398
 30
0.0
 40
4.8
  1
FOR WALL MOUNTING
  7
MONOTXT
 72
     4
 11
526.4926
 21
102.3398
 31
0.0
210
0.0
220
0.0
230
1.0
100
AcDbText
  0
LINE
  5
593
100
AcDbEntity
  8
1
  6
CONTINUOUS
 62
     7
100
AcDbLine
 10
485.5647
 20
98.4075
 30
0.0
 11
566.9115
 21
98.4075
 31
0.0
  0
TEXT
  5
594
100
AcDbEntity
  8
1
  6
CONTINUOUS
 62
     7
100
AcDbText
 10
605.3613
 20
323.5858
 30
0.0
 40
3.0
  1
NOTES:
  7
MONOTXT
 72
     4
 11
613.0857
 21
325.0858
 31
0.0
210
0.0
220
0.0
230
1.0
100
AcDbText
  0
TEXT
  5
595
100
AcDbEntity
  8
1
  6
CONTINUOUS
 62
     7
100
AcDbText
 10
605.4097
 20
311.5474
 30
0.0
 40
3.0
  1
1.
  7
MONOTXT
 72
     4
 11
606.4609
 21
313.0474
 31
0.0
210
0.0
220
0.0
230
1.0
100
AcDbText
  0
TEXT
  5
596
100
AcDbEntity
  8
1
  6
CONTINUOUS
 62
     7
100
AcDbText
 10
604.0807
 20
289.9719
 30
0.0
 40
3.0
  1
2.
  7
MONOTXT
 72
     4
 11
605.7697
 21
291.4719
 31
0.0
210
0.0
220
0.0
230
1.0
100
AcDbText
  0
TEXT
  5
597
100
AcDbEntity
  8
1
  6
CONTINUOUS
 62
     7
100
AcDbText
 10
604.0966
 20
268.3764
 30
0.0
 40
3.0
  1
3.
  7
MONOTXT
 72
     4
 11
605.7856
 21
269.8764
 31
0.0
210
0.0
220
0.0
230
1.0
100
AcDbText
  0
TEXT
  5
598
100
AcDbEntity
  8
1
  6
CONTINUOUS
 62
     7
100
AcDbText
 10
603.9585
 20
252.1932
 30
0.0
 40
3.0
  1
4.
  7
MONOTXT
 72
     4
 11
605.7183
 21
253.6932
 31
0.0
210
0.0
220
0.0
230
1.0
100
AcDbText
  0
TEXT
  5
599
100
AcDbEntity
  8
1
  6
CONTINUOUS
 62
     7
100
AcDbText
 10
603.8252
 20
209.572
 30
0.0
 40
3.0
  1
5.
  7
MONOTXT
 72
     4
 11
605.5142
 21
211.072
 31
0.0
210
0.0
220
0.0
230
1.0
100
AcDbText
  0
INSERT
  5
59A
100
AcDbEntity
  8
1
  6
CONTINUOUS
 62
     1
100
AcDbBlockReference
  2
LDR
 10
120.8735
 20
196.7743
 30
0.0
 41
240.000001
 42
240.000001
 50
240.430239
210
0.0
220
0.0
230
1.0
  0
TEXT
  5
59B
100
AcDbEntity
  8
1
  6
CONTINUOUS
 62
     7
100
AcDbText
 10
613.2218
 20
311.5914
 30
0.0
 40
3.0
  1
ALL TYPE "F" BOXES AND PLATES ARE TO BE FABRICATED
  7
MONOTXT
 11
613.2218
 21
314.5914
 31
0.0
210
0.0
220
0.0
230
1.0
100
AcDbText
 73
     3
  0
TEXT
  5
59C
100
AcDbEntity
  8
1
  6
CONTINUOUS
 62
     7
100
AcDbText
 10
613.2218
 20
300.7914
 30
0.0
 40
3.0
  1
GALVANIZED, AFTER ASSEMBLY.
  7
MONOTXT
 11
613.2218
 21
303.7914
 31
0.0
210
0.0
220
0.0
230
1.0
100
AcDbText
 73
     3
  0
TEXT
  5
59D
100
AcDbEntity
  8
1
  6
CONTINUOUS
 62
     7
100
AcDbText
 10
613.2218
 20
295.3914
 30
0.0
 40
3.0
  1
 
  7
MONOTXT
 11
613.2218
 21
298.3914
 31
0.0
210
0.0
220
0.0
230
1.0
100
AcDbText
 73
     3
  0
TEXT
  5
59E
100
AcDbEntity
  8
1
  6
CONTINUOUS
 62
     7
100
AcDbText
 10
613.2218
 20
289.9914
 30
0.0
 40
3.0
  1
FOR ADDITIONAL STEEL REINFORCING BARS NEEDED TO SUPPORT
  7
MONOTXT
 11
613.2218
 21
292.9914
 31
0.0
210
0.0
220
0.0
230
1.0
100
AcDbText
 73
     3
  0
TEXT
  5
59F
100
AcDbEntity
  8
1
  6
CONTINUOUS
 62
     7
100
AcDbText
 10
613.2218
 20
284.5914
 30
0.0
 40
3.0
  1
LIGHTING POLES, SEE INDIVIDUAL BRIDGE DESIGN OR WALL DESIGN
  7
MONOTXT
 11
613.2218
 21
287.5914
 31
0.0
210
0.0
220
0.0
230
1.0
100
AcDbText
 73
     3
  0
TEXT
  5
5A0
100
AcDbEntity
  8
1
  6
CONTINUOUS
 62
     7
100
AcDbText
 10
613.2218
 20
279.1914
 30
0.0
 40
3.0
  1
DRAWINGS.
  7
MONOTXT
 11
613.2218
 21
282.1914
 31
0.0
210
0.0
220
0.0
230
1.0
100
AcDbText
 73
     3
  0
TEXT
  5
5A1
100
AcDbEntity
  8
1
  6
CONTINUOUS
 62
     7
100
AcDbText
 10
613.2218
 20
273.7914
 30
0.0
 40
3.0
  1
 
  7
MONOTXT
 11
613.2218
 21
276.7914
 31
0.0
210
0.0
220
0.0
230
1.0
100
AcDbText
 73
     3
  0
TEXT
  5
5A2
100
AcDbEntity
  8
1
  6
CONTINUOUS
 62
     7
100
AcDbText
 10
613.2218
 20
268.3914
 30
0.0
 40
3.0
  1
EACH LIGHTING POLE TO BE SUPPLIED WITH A MINIMUM OF
  7
MONOTXT
 11
613.2218
 21
271.3914
 31
0.0
210
0.0
220
0.0
230
1.0
100
AcDbText
 73
     3
  0
TEXT
  5
5A3
100
AcDbEntity
  8
1
  6
CONTINUOUS
 62
     7
100
AcDbText
 10
613.2218
 20
257.5914
 30
0.0
 40
3.0
  1
 
  7
MONOTXT
 11
613.2218
 21
260.5914
 31
0.0
210
0.0
220
0.0
230
1.0
100
AcDbText
 73
     3
  0
TEXT
  5
5A4
100
AcDbEntity
  8
1
  6
CONTINUOUS
 62
     7
100
AcDbText
 10
613.2218
 20
230.5914
 30
0.0
 40
3.0
  1
 
  7
MONOTXT
 11
613.2218
 21
233.5914
 31
0.0
210
0.0
220
0.0
230
1.0
100
AcDbText
 73
     3
  0
TEXT
  5
5A5
100
AcDbEntity
  8
1
  6
CONTINUOUS
 62
     7
100
AcDbText
 10
613.2218
 20
181.9914
 30
0.0
 40
3.0
  1
 
  7
MONOTXT
 11
613.2218
 21
184.9914
 31
0.0
210
0.0
220
0.0
230
1.0
100
AcDbText
 73
     3
  0
TEXT
  5
5A6
100
AcDbEntity
  8
1
  6
CONTINUOUS
 62
     7
100
AcDbText
 10
613.4771
 20
229.9452
 30
0.0
 40
3.0
  1
TIGHTEN ALL HIGH STRENGTH BOLTS BY TURN OF NUT
  7
MONOTXT
 11
613.4771
 21
232.9452
 31
0.0
210
0.0
220
0.0
230
1.0
100
AcDbText
 73
     3
  0
TEXT
  5
5A7
100
AcDbEntity
  8
1
  6
CONTINUOUS
 62
     7
100
AcDbText
 10
613.4771
 20
224.5452
 30
0.0
 40
3.0
  1
METHOD IN ACCORDANCE WITH SECTION 615 OF THE
  7
MONOTXT
 11
613.4771
 21
227.5452
 31
0.0
210
0.0
220
0.0
230
1.0
100
AcDbText
 73
     3
  0
TEXT
  5
5A8
100
AcDbEntity
  8
1
  6
CONTINUOUS
 62
     7
100
AcDbText
 10
613.4771
 20
219.1452
 30
0.0
 40
3.0
  1
SPECIFICATIONS.
  7
MONOTXT
 11
613.4771
 21
222.1452
 31
0.0
210
0.0
220
0.0
230
1.0
100
AcDbText
 73
     3
  0
LINE
  5
5A9
100
AcDbEntity
  8
1
  6
CONTINUOUS
 62
     7
100
AcDbLine
 10
596.1727
 20
126.2677
 30
0.0
 11
591.3727
 21
126.2677
 31
0.0
  0
LINE
  5
5AA
100
AcDbEntity
  8
1
  6
CONTINUOUS
 62
     7
100
AcDbLine
 10
593.7727
 20
130.4246
 30
0.0
 11
591.3727
 21
126.2677
 31
0.0
  0
LINE
  5
5AB
100
AcDbEntity
  8
1
  6
CONTINUOUS
 62
     7
100
AcDbLine
 10
593.7727
 20
130.4246
 30
0.0
 11
596.1727
 21
126.2677
 31
0.0
  0
TEXT
  5
5AC
100
AcDbEntity
  8
1
  6
CONTINUOUS
 62
     7
100
AcDbText
 10
592.8555
 20
126.6435
 30
0.0
 40
2.4
  1
3
  7
MONOTXT
210
0.0
220
0.0
230
1.0
100
AcDbText
  0
TEXT
  5
5AD
100
AcDbEntity
  8
1
  6
CONTINUOUS
 62
     7
100
AcDbText
 10
597.5791
 20
127.2342
 30
0.0
 40
2.4
  1
REVISED H.S. BOLT NOTE AND A.B. WASHER SPEC.
  7
MONOTXT
210
0.0
220
0.0
230
1.0
100
AcDbText
  0
LINE
  5
5AE
100
AcDbEntity
  8
1
  6
CONTINUOUS
 62
     7
100
AcDbLine
 10
596.1075
 20
41.0452
 30
0.0
 11
598.5075
 21
36.8883
 31
0.0
  0
LINE
  5
5AF
100
AcDbEntity
  8
1
  6
CONTINUOUS
 62
     7
100
AcDbLine
 10
598.5075
 20
36.8883
 30
0.0
 11
593.7075
 21
36.8883
 31
0.0
  0
LINE
  5
5B0
100
AcDbEntity
  8
1
  6
CONTINUOUS
 62
     7
100
AcDbLine
 10
596.1075
 20
41.0452
 30
0.0
 11
593.7075
 21
36.8883
 31
0.0
  0
TEXT
  5
5B1
100
AcDbEntity
  8
1
  6
CONTINUOUS
 62
     7
100
AcDbText
 10
595.1903
 20
37.2641
 30
0.0
 40
2.4
  1
3
  7
MONOTXT
210
0.0
220
0.0
230
1.0
100
AcDbText
  0
TEXT
  5
5B2
100
AcDbEntity
  8
1
  6
CONTINUOUS
 62
     7
100
AcDbText
 10
613.2218
 20
252.1914
 30
0.0
 40
3.0
  1
ANCHOR BOLTS AND NUTS FOR LIGHTING POLE CONNECTION
  7
MONOTXT
 11
613.2218
 21
255.1914
 31
0.0
210
0.0
220
0.0
230
1.0
100
AcDbText
 73
     3
  0
TEXT
  5
5B3
100
AcDbEntity
  8
1
  6
CONTINUOUS
 62
     7
100
AcDbText
 10
613.2218
 20
246.7914
 30
0.0
 40
3.0
  1
TO LIGHTING POLE SUPPORT BASE SHALL MEET THE REQUIRE-
  7
MONOTXT
 11
613.2218
 21
249.7914
 31
0.0
210
0.0
220
0.0
230
1.0
100
AcDbText
 73
     3
  0
TEXT
  5
5B4
100
AcDbEntity
  8
1
  6
CONTINUOUS
 62
     7
100
AcDbText
 10
613.2218
 20
241.3914
 30
0.0
 40
3.0
  1
MENTS OF SECTION 709.24.
  7
MONOTXT
 11
613.2218
 21
244.3914
 31
0.0
210
0.0
220
0.0
230
1.0
100
AcDbText
 73
     3
  0
LINE
  5
5B5
100
AcDbEntity
  8
1
  6
CONTINUOUS
 62
     7
100
AcDbLine
 10
593.9815
 20
124.7846
 30
0.0
 11
596.3815
 21
120.6277
 31
0.0
  0
LINE
  5
5B6
100
AcDbEntity
  8
1
  6
CONTINUOUS
 62
     7
100
AcDbLine
 10
596.3815
 20
120.6277
 30
0.0
 11
591.5815
 21
120.6277
 31
0.0
  0
LINE
  5
5B7
100
AcDbEntity
  8
1
  6
CONTINUOUS
 62
     7
100
AcDbLine
 10
593.9815
 20
124.7846
 30
0.0
 11
591.5815
 21
120.6277
 31
0.0
  0
TEXT
  5
5B8
100
AcDbEntity
  8
1
  6
CONTINUOUS
 62
     7
100
AcDbText
 10
593.0643
 20
121.0035
 30
0.0
 40
2.4
  1
4
  7
MONOTXT
210
0.0
220
0.0
230
1.0
100
AcDbText
  0
TEXT
  5
5B9
100
AcDbEntity
  8
1
  6
CONTINUOUS
 62
     7
100
AcDbText
 10
597.7879
 20
121.5942
 30
0.0
 40
2.4
  1
ADDED METRIC
  7
MONOTXT
210
0.0
220
0.0
230
1.0
100
AcDbText
  0
LINE
  5
5BA
100
AcDbEntity
  8
1
  6
CONTINUOUS
 62
     7
100
AcDbLine
 10
595.949
 20
35.4568
 30
0.0
 11
598.349
 21
31.2999
 31
0.0
  0
TEXT
  5
5BB
100
AcDbEntity
  8
1
  6
CONTINUOUS
 62
     1
100
AcDbText
 10
603.7551
 20
31.8825
 30
0.0
 40
2.4
  1
04-22-94
  7
MONOTXT
 72
     1
 11
612.533
 21
34.2825
 31
0.0
210
0.0
220
0.0
230
1.0
100
AcDbText
 73
     3
  0
LINE
  5
5BC
100
AcDbEntity
  8
1
  6
CONTINUOUS
 62
     7
100
AcDbLine
 10
598.349
 20
31.2999
 30
0.0
 11
593.549
 21
31.2999
 31
0.0
  0
LINE
  5
5BD
100
AcDbEntity
  8
1
  6
CONTINUOUS
 62
     7
100
AcDbLine
 10
595.949
 20
35.4568
 30
0.0
 11
593.549
 21
31.2999
 31
0.0
  0
TEXT
  5
5BE
100
AcDbEntity
  8
1
  6
CONTINUOUS
 62
     7
100
AcDbText
 10
595.0318
 20
31.6757
 30
0.0
 40
2.4
  1
4
  7
MONOTXT
210
0.0
220
0.0
230
1.0
100
AcDbText
  0
LINE
  5
5BF
100
AcDbEntity
  8
61
  6
CONTINUOUS
 62
     2
100
AcDbLine
 10
806.1957
 20
525.1171
 30
0.0
 11
669.0957
 21
525.1171
 31
0.0
  0
LINE
  5
5C0
100
AcDbEntity
  8
61
  6
CONTINUOUS
 62
     2
100
AcDbLine
 10
669.0957
 20
525.1171
 30
0.0
 11
669.0957
 21
499.7171
 31
0.0
  0
LINE
  5
5C1
100
AcDbEntity
  8
61
  6
CONTINUOUS
 62
     2
100
AcDbLine
 10
806.1957
 20
525.1171
 30
0.0
 11
806.1957
 21
499.7171
 31
0.0
  0
LINE
  5
5C2
100
AcDbEntity
  8
61
  6
CONTINUOUS
 62
     2
100
AcDbLine
 10
806.1957
 20
499.7171
 30
0.0
 11
669.0957
 21
499.7171
 31
0.0
  0
LINE
  5
5C3
100
AcDbEntity
  8
61
  6
CONTINUOUS
 62
     2
100
AcDbLine
 10
806.1957
 20
512.4171
 30
0.0
 11
669.0957
 21
512.4171
 31
0.0
  0
LINE
  5
5C4
100
AcDbEntity
  8
61
  6
CONTINUOUS
 62
     2
100
AcDbLine
 10
681.7957
 20
525.1171
 30
0.0
 11
681.7957
 21
499.7171
 31
0.0
  0
LINE
  5
5C5
100
AcDbEntity
  8
61
  6
CONTINUOUS
 62
     2
100
AcDbLine
 10
694.4957
 20
525.1171
 30
0.0
 11
694.4957
 21
499.7171
 31
0.0
  0
LINE
  5
5C6
100
AcDbEntity
  8
61
  6
CONTINUOUS
 62
     2
100
AcDbLine
 10
711.8957
 20
525.1171
 30
0.0
 11
711.8957
 21
499.7171
 31
0.0
  0
LINE
  5
5C7
100
AcDbEntity
  8
61
  6
CONTINUOUS
 62
     2
100
AcDbLine
 10
793.4957
 20
525.1171
 30
0.0
 11
793.4957
 21
499.7171
 31
0.0
  0
LINE
  5
5C8
100
AcDbEntity
  8
61
  6
CONTINUOUS
 62
     2
100
AcDbLine
 10
780.7957
 20
525.1171
 30
0.0
 11
780.7957
 21
499.7171
 31
0.0
  0
LINE
  5
5C9
100
AcDbEntity
  8
61
  6
CONTINUOUS
 62
     2
100
AcDbLine
 10
752.8957
 20
525.1171
 30
0.0
 11
752.8957
 21
499.7171
 31
0.0
  0
LINE
  5
5CA
100
AcDbEntity
  8
61
  6
CONTINUOUS
 62
     2
100
AcDbLine
 10
740.1957
 20
525.1171
 30
0.0
 11
740.1957
 21
499.7171
 31
0.0
  0
TEXT
  5
5CB
100
AcDbEntity
  8
61
  6
CONTINUOUS
 62
     2
100
AcDbText
 10
671.6957
 20
521.2171
 30
0.0
 40
1.5246
  1
PUBLIC
 50
0.033272
 41
1.001968
  7
MONOTXT
210
0.0
220
0.0
230
1.0
100
AcDbText
  0
TEXT
  5
5CC
100
AcDbEntity
  8
61
  6
CONTINUOUS
 62
     2
100
AcDbText
 10
671.7957
 20
518.0171
 30
0.0
 40
1.5246
  1
ROADS
 50
0.124322
 41
0.996852
  7
MONOTXT
210
0.0
220
0.0
230
1.0
100
AcDbText
  0
TEXT
  5
5CD
100
AcDbEntity
  8
61
  6
CONTINUOUS
 62
     2
100
AcDbText
 10
673.2957
 20
514.9171
 30
0.0
 40
1.5246
  1
DIV.
 50
359.931522
 41
0.994884
  7
MONOTXT
210
0.0
220
0.0
230
1.0
100
AcDbText
  0
TEXT
  5
5CE
100
AcDbEntity
  8
61
  6
CONTINUOUS
 62
     2
100
AcDbText
 10
684.5957
 20
521.3171
 30
0.0
 40
1.5246
  1
STATE
 50
0.058969
 41
0.998032
  7
MONOTXT
210
0.0
220
0.0
230
1.0
100
AcDbText
  0
TEXT
  5
5CF
100
AcDbEntity
  8
61
  6
CONTINUOUS
 62
     2
100
AcDbText
 10
685.6957
 20
518.1171
 30
0.0
 40
1.5246
  1
DIST.
 50
0.055889
 41
0.999606
  7
MONOTXT
210
0.0
220
0.0
230
1.0
100
AcDbText
  0
TEXT
  5
5D0
100
AcDbEntity
  8
61
  6
CONTINUOUS
 62
     2
100
AcDbText
 10
686.3957
 20
514.9171
 30
0.0
 40
1.5246
  1
NO.
 50
359.852072
 41
0.997639
  7
MONOTXT
210
0.0
220
0.0
230
1.0
100
AcDbText
  0
TEXT
  5
5D1
100
AcDbEntity
  8
61
  6
CONTINUOUS
 62
     2
100
AcDbText
 10
699.7957
 20
521.2171
 30
0.0
 40
1.5246
  1
STATE
 50
0.058969
 41
0.998032
  7
MONOTXT
210
0.0
220
0.0
230
1.0
100
AcDbText
  0
TEXT
  5
5D2
100
AcDbEntity
  8
61
  6
CONTINUOUS
 62
     2
100
AcDbText
 10
698.3957
 20
518.2171
 30
0.0
 40
1.5246
  1
PROJECT
 50
359.908431
  7
MONOTXT
210
0.0
220
0.0
230
1.0
100
AcDbText
  0
TEXT
  5
5D3
100
AcDbEntity
  8
61
  6
CONTINUOUS
 62
     2
100
AcDbText
 10
701.8957
 20
514.9171
 30
0.0
 40
1.5246
  1
NO.
 50
0.225453
 41
0.993703
  7
MONOTXT
210
0.0
220
0.0
230
1.0
100
AcDbText
  0
TEXT
  5
5D4
100
AcDbEntity
  8
61
  6
CONTINUOUS
 62
     2
100
AcDbText
 10
721.7957
 20
519.8171
 30
0.0
 40
1.5234
  1
FEDERAL
 50
0.006714
 41
0.998425
  7
MONOTXT
210
0.0
220
0.0
230
1.0
100
AcDbText
  0
TEXT
  5
5D5
100
AcDbEntity
  8
61
  6
CONTINUOUS
 62
     2
100
AcDbText
 10
719.7957
 20
516.4171
 30
0.0
 40
1.5246
  1
PROJECT NO.
 50
359.921531
 41
1.000787
  7
MONOTXT
210
0.0
220
0.0
230
1.0
100
AcDbText
  0
TEXT
  5
5D6
100
AcDbEntity
  8
61
  6
CONTINUOUS
 62
     2
100
AcDbText
 10
742.9957
 20
519.7171
 30
0.0
 40
1.5246
  1
FISCAL
 50
359.941939
 41
0.998819
  7
MONOTXT
210
0.0
220
0.0
230
1.0
100
AcDbText
  0
TEXT
  5
5D7
100
AcDbEntity
  8
61
  6
CONTINUOUS
 62
     2
100
AcDbText
 10
743.6957
 20
516.1171
 30
0.0
 40
1.5234
  1
YEAR
 50
0.104606
 41
0.993304
  7
MONOTXT
210
0.0
220
0.0
230
1.0
100
AcDbText
  0
TEXT
  5
5D8
100
AcDbEntity
  8
61
  6
CONTINUOUS
 62
     2
100
AcDbText
 10
761.5957
 20
517.8171
 30
0.0
 40
1.523399
  1
COUNTY
 50
0.068575
 41
1.001969
  7
MONOTXT
210
0.0
220
0.0
230
1.0
100
AcDbText
  0
TEXT
  5
5D9
100
AcDbEntity
  8
61
  6
CONTINUOUS
 62
     2
100
AcDbText
 10
783.9957
 20
519.9171
 30
0.0
 40
1.5246
  1
SHEET
 50
0.058969
 41
0.997639
  7
MONOTXT
210
0.0
220
0.0
230
1.0
100
AcDbText
  0
TEXT
  5
5DA
100
AcDbEntity
  8
61
  6
CONTINUOUS
 62
     2
100
AcDbText
 10
785.7957
 20
516.4171
 30
0.0
 40
1.5246
  1
NO.
 50
359.852072
 41
0.997639
  7
MONOTXT
210
0.0
220
0.0
230
1.0
100
AcDbText
  0
TEXT
  5
5DB
100
AcDbEntity
  8
61
  6
CONTINUOUS
 62
     2
100
AcDbText
 10
796.3957
 20
519.7171
 30
0.0
 40
1.5246
  1
TOTAL
 50
359.926039
 41
0.998426
  7
MONOTXT
210
0.0
220
0.0
230
1.0
100
AcDbText
  0
TEXT
  5
5DC
100
AcDbEntity
  8
61
  6
CONTINUOUS
 62
     2
100
AcDbText
 10
795.7957
 20
516.3171
 30
0.0
 40
1.523399
  1
SHEETS
 50
359.958675
  7
MONOTXT
210
0.0
220
0.0
230
1.0
100
AcDbText
  0
TEXT
  5
5DD
100
AcDbEntity
  8
61
  6
CONTINUOUS
 62
     2
100
AcDbText
 10
685.0957
 20
505.0171
 30
0.0
 40
3.0492
  1
  
 50
0.029406
 41
0.996655
  7
MONOTXT
210
0.0
220
0.0
230
1.0
100
AcDbText
  0
TEXT
  5
5DE
100
AcDbEntity
  8
61
  6
CONTINUOUS
 62
     2
100
AcDbText
 10
783.0957
 20
504.7171
 30
0.0
 40
3.049199
  1
   
 50
0.011508
 41
1.000984
  7
MONOTXT
210
0.0
220
0.0
230
1.0
100
AcDbText
  0
TEXT
  5
5DF
100
AcDbEntity
  8
61
  6
CONTINUOUS
 62
     2
100
AcDbText
 10
795.6957
 20
504.6171
 30
0.0
 40
3.0492
  1
   
 50
359.922128
 41
1.00059
  7
MONOTXT
210
0.0
220
0.0
230
1.0
100
AcDbText
  0
TEXT
  5
5E0
100
AcDbEntity
  8
61
  6
CONTINUOUS
 62
     2
100
AcDbText
 10
698.2957
 20
509.0171
 30
0.0
 40
2.5482
  1
    
 50
0.054383
 41
0.993643
  7
MONOTXT
210
0.0
220
0.0
230
1.0
100
AcDbText
  0
TEXT
  5
5E1
100
AcDbEntity
  8
61
  6
CONTINUOUS
 62
     2
100
AcDbText
 10
694.5957
 20
505.1171
 30
0.0
 40
2.5266
  1
       
 50
0.064678
 41
1.00095
  7
MONOTXT
210
0.0
220
0.0
230
1.0
100
AcDbText
  0
TEXT
  5
5E2
100
AcDbEntity
  8
61
  6
CONTINUOUS
 62
     2
100
AcDbText
 10
695.8957
 20
501.4171
 30
0.0
 40
2.526599
  1
      
 50
359.958053
 41
1.000237
  7
MONOTXT
210
0.0
220
0.0
230
1.0
100
AcDbText
  0
TEXT
  5
5E3
100
AcDbEntity
  8
61
  6
CONTINUOUS
 62
     2
100
AcDbText
 10
709.7957
 20
507.3171
 30
0.0
 40
3.049199
  1
           
 50
0.011508
 41
0.998819
  7
MONOTXT
210
0.0
220
0.0
230
1.0
100
AcDbText
  0
TEXT
  5
5E4
100
AcDbEntity
  8
61
  6
CONTINUOUS
 62
     2
100
AcDbText
 10
709.5957
 20
502.7171
 30
0.0
 40
3.049199
  1
           
 50
0.011508
 41
0.999606
  7
MONOTXT
210
0.0
220
0.0
230
1.0
100
AcDbText
  0
TEXT
  5
5E5
100
AcDbEntity
  8
61
  6
CONTINUOUS
 62
     2
100
AcDbText
 10
754.4957
 20
504.9171
 30
0.0
 40
2.5482
  1
          
 50
0.009222
 41
0.992701
  7
MONOTXT
210
0.0
220
0.0
230
1.0
100
AcDbText
  0
LINE
  5
5E6
100
AcDbEntity
  8
1
  6
CONTINUOUS
 62
     2
100
AcDbLine
 10
591.2957
 20
2.0171
 30
0.0
 11
591.2957
 21
118.3171
 31
0.0
  0
LINE
  5
5E7
100
AcDbEntity
  8
1
  6
CONTINUOUS
 62
     2
100
AcDbLine
 10
591.2957
 20
118.3171
 30
0.0
 11
809.2957
 21
118.3171
 31
0.0
  0
LINE
  5
5E8
100
AcDbEntity
  8
1
  6
CONTINUOUS
 62
     2
100
AcDbLine
 10
635.7957
 20
2.0171
 30
0.0
 11
635.7957
 21
59.1171
 31
0.0
  0
LINE
  5
5E9
100
AcDbEntity
  8
1
  6
CONTINUOUS
 62
     2
100
AcDbLine
 10
635.7957
 20
59.1171
 30
0.0
 11
591.2957
 21
59.1171
 31
0.0
  0
LINE
  5
5EA
100
AcDbEntity
  8
1
  6
CONTINUOUS
 62
     2
100
AcDbLine
 10
635.7957
 20
53.4171
 30
0.0
 11
591.2957
 21
53.4171
 31
0.0
  0
LINE
  5
5EB
100
AcDbEntity
  8
1
  6
CONTINUOUS
 62
     2
100
AcDbLine
 10
635.7957
 20
47.7171
 30
0.0
 11
591.2957
 21
47.7171
 31
0.0
  0
LINE
  5
5EC
100
AcDbEntity
  8
1
  6
CONTINUOUS
 62
     2
100
AcDbLine
 10
635.7957
 20
41.9171
 30
0.0
 11
591.2957
 21
41.9171
 31
0.0
  0
LINE
  5
5ED
100
AcDbEntity
  8
1
  6
CONTINUOUS
 62
     2
100
AcDbLine
 10
635.7957
 20
36.2171
 30
0.0
 11
591.2957
 21
36.2171
 31
0.0
  0
LINE
  5
5EE
100
AcDbEntity
  8
1
  6
CONTINUOUS
 62
     2
100
AcDbLine
 10
635.7957
 20
30.5171
 30
0.0
 11
591.2957
 21
30.5171
 31
0.0
  0
LINE
  5
5EF
100
AcDbEntity
  8
1
  6
CONTINUOUS
 62
     2
100
AcDbLine
 10
635.7957
 20
24.8171
 30
0.0
 11
591.2957
 21
24.8171
 31
0.0
  0
LINE
  5
5F0
100
AcDbEntity
  8
1
  6
CONTINUOUS
 62
     2
100
AcDbLine
 10
635.7957
 20
19.1171
 30
0.0
 11
591.2957
 21
19.1171
 31
0.0
  0
LINE
  5
5F1
100
AcDbEntity
  8
1
  6
CONTINUOUS
 62
     2
100
AcDbLine
 10
635.7957
 20
13.4171
 30
0.0
 11
591.2957
 21
13.4171
 31
0.0
  0
LINE
  5
5F2
100
AcDbEntity
  8
1
  6
CONTINUOUS
 62
     2
100
AcDbLine
 10
635.7957
 20
7.7171
 30
0.0
 11
591.2957
 21
7.7171
 31
0.0
  0
TEXT
  5
5F3
100
AcDbEntity
  8
1
  6
CONTINUOUS
 62
     2
100
AcDbText
 10
604.3957
 20
55.3171
 30
0.0
 40
2.5368
  1
REVISIONS
  7
MONOTXT
210
0.0
220
0.0
230
1.0
100
AcDbText
  0
TEXT
  5
5F4
100
AcDbEntity
  8
1
  6
CONTINUOUS
 62
     2
100
AcDbText
 10
593.7957
 20
60.3171
 30
0.0
 40
2.5368
  1
PREPARED: 07/18/75
  7
MONOTXT
210
0.0
220
0.0
230
1.0
100
AcDbText
  0
TEXT
  5
5F6
100
AcDbEntity
  8
1
  6
CONTINUOUS
 62
     2
100
AcDbText
 10
632.6957
 20
107.4171
 30
0.0
 40
6.0894
  1
WEST VIRGINIA DIVISION OF HIGHWAYS
  7
ROMANT
 72
     1
 11
701.2373
 21
113.5065
 31
0.0
210
0.0
220
0.0
230
1.0
100
AcDbText
 73
     3
  0
TEXT
  5
5F7
100
AcDbEntity
  8
1
  6
CONTINUOUS
 62
     2
100
AcDbText
 10
646.3957
 20
93.2171
 30
0.0
 40
8.8806
  1
STANDARD DETAIL
  7
TXT
 72
     1
 11
702.8978
 21
102.0977
 31
0.0
210
0.0
220
0.0
230
1.0
100
AcDbText
 73
     3
  0
TEXT
  5
5F8
100
AcDbEntity
  8
1
  6
CONTINUOUS
 62
     2
100
AcDbText
 10
603.0957
 20
48.8171
 30
0.0
 40
2.5398
  1
        
  7
MONOTXT
 72
     1
 11
612.8316
 21
51.3569
 31
0.0
210
0.0
220
0.0
230
1.0
100
AcDbText
 73
     3
  0
TEXT
  5
5F9
100
AcDbEntity
  8
1
  6
CONTINUOUS
 62
     2
100
AcDbText
 10
603.0957
 20
43.2171
 30
0.0
 40
2.5398
  1
        
  7
MONOTXT
 72
     1
 11
612.8316
 21
45.7569
 31
0.0
210
0.0
220
0.0
230
1.0
100
AcDbText
 73
     3
  0
TEXT
  5
5FA
100
AcDbEntity
  8
1
  6
CONTINUOUS
 62
     2
100
AcDbText
 10
603.0957
 20
37.7171
 30
0.0
 40
2.5398
  1
        
  7
MONOTXT
 72
     1
 11
612.8316
 21
40.2569
 31
0.0
210
0.0
220
0.0
230
1.0
100
AcDbText
 73
     3
  0
TEXT
  5
5FB
100
AcDbEntity
  8
1
  6
CONTINUOUS
 62
     2
100
AcDbText
 10
603.0957
 20
32.1171
 30
0.0
 40
2.5398
  1
        
  7
MONOTXT
 72
     1
 11
612.8316
 21
34.6569
 31
0.0
210
0.0
220
0.0
230
1.0
100
AcDbText
 73
     3
  0
TEXT
  5
5FC
100
AcDbEntity
  8
1
  6
CONTINUOUS
 62
     2
100
AcDbText
 10
602.8957
 20
26.2171
 30
0.0
 40
2.5398
  1
        
  7
MONOTXT
 72
     1
 11
612.6316
 21
28.7569
 31
0.0
210
0.0
220
0.0
230
1.0
100
AcDbText
 73
     3
  0
TEXT
  5
5FD
100
AcDbEntity
  8
1
  6
CONTINUOUS
 62
     2
100
AcDbText
 10
603.0957
 20
20.5171
 30
0.0
 40
2.5398
  1
        
  7
MONOTXT
 72
     1
 11
612.8316
 21
23.0569
 31
0.0
210
0.0
220
0.0
230
1.0
100
AcDbText
 73
     3
  0
TEXT
  5
5FE
100
AcDbEntity
  8
1
  6
CONTINUOUS
 62
     2
100
AcDbText
 10
602.9957
 20
14.7171
 30
0.0
 40
2.5398
  1
        
  7
MONOTXT
 72
     1
 11
612.7316
 21
17.2569
 31
0.0
210
0.0
220
0.0
230
1.0
100
AcDbText
 73
     3
  0
TEXT
  5
5FF
100
AcDbEntity
  8
1
  6
CONTINUOUS
 62
     2
100
AcDbText
 10
603.0957
 20
8.9171
 30
0.0
 40
2.5398
  1
        
  7
MONOTXT
 72
     1
 11
612.8316
 21
11.4569
 31
0.0
210
0.0
220
0.0
230
1.0
100
AcDbText
 73
     3
  0
TEXT
  5
600
100
AcDbEntity
  8
1
  6
CONTINUOUS
 62
     2
100
AcDbText
 10
603.0957
 20
3.8171
 30
0.0
 40
2.5398
  1
        
  7
MONOTXT
 72
     1
 11
612.8316
 21
6.3569
 31
0.0
210
0.0
220
0.0
230
1.0
100
AcDbText
 73
     3
  0
LINE
  5
601
100
AcDbEntity
  8
1
  6
CONTINUOUS
 62
     2
100
AcDbLine
 10
809.2957
 20
2.0171
 30
0.0
 11
809.2957
 21
118.3171
 31
0.0
  0
LINE
  5
602
100
AcDbEntity
  8
1
  6
CONTINUOUS
 62
     7
100
AcDbLine
 10
809.2957
 20
528.1171
 30
0.0
 11
17.5957
 21
528.0171
 31
0.0
  0
LINE
  5
603
100
AcDbEntity
  8
1
  6
CONTINUOUS
 62
     7
100
AcDbLine
 10
17.5957
 20
528.0171
 30
0.0
 11
17.6957
 21
2.0171
 31
0.0
  0
LINE
  5
604
100
AcDbEntity
  8
1
  6
CONTINUOUS
 62
     7
100
AcDbLine
 10
809.2957
 20
2.0171
 30
0.0
 11
809.2957
 21
528.1171
 31
0.0
  0
LINE
  5
605
100
AcDbEntity
  8
61
  6
CONTINUOUS
 62
     2
100
AcDbLine
 10
809.2957
 20
2.0171
 30
0.0
 11
656.5957
 21
2.0171
 31
0.0
  0
TEXT
  5
606
100
AcDbEntity
  8
61
  6
CONTINUOUS
 62
     2
100
AcDbText
 10
778.7957
 20
488.0171
 30
0.0
 40
3.0546
  1
     
 41
1.001375
  7
MONOTXT
210
0.0
220
0.0
230
1.0
100
AcDbText
  0
INSERT
  5
60B
100
AcDbEntity
  8
1
  6
CONTINUOUS
 62
     1
100
AcDbBlockReference
  2
PT
 10
815.5957
 20
-9.2829
 30
0.0
 41
269.385512
 42
269.385512
210
0.0
220
0.0
230
1.0
  0
LINE
  5
60C
100
AcDbEntity
  8
1
  6
CONTINUOUS
 62
     7
100
AcDbLine
 10
809.2957
 20
2.0171
 30
0.0
 11
17.6957
 21
2.0171
 31
0.0
  0
LINE
  5
60D
100
AcDbEntity
  8
1
  6
CONTINUOUS
 62
     2
100
AcDbLine
 10
809.2957
 20
2.0171
 30
0.0
 11
809.2957
 21
528.1171
 31
0.0
  0
TEXT
  5
60E
100
AcDbEntity
  8
CONSTRUCTION_CLASS
  6
CONTINUOUS
 62
     3
100
AcDbText
 10
672.1957
 20
504.3171
 30
0.0
 40
3.048
  1
WV
  7
MONOTXT
210
0.0
220
0.0
230
1.0
100
AcDbText
  0
TEXT
  5
60F
100
AcDbEntity
  8
61
  6
CONTINUOUS
 62
     2
100
AcDbText
 10
743.6957
 20
504.8171
 30
0.0
 40
3.0492
  1
  
 50
0.029406
 41
0.996655
  7
MONOTXT
210
0.0
220
0.0
230
1.0
100
AcDbText
  0
LINE
  5
610
100
AcDbEntity
  8
61
  6
CONTINUOUS
 62
     2
100
AcDbLine
 10
809.2957
 20
2.0171
 30
0.0
 11
656.5957
 21
2.0171
 31
0.0
  0
LINE
  5
611
100
AcDbEntity
  8
61
  6
CONTINUOUS
 62
     2
100
AcDbLine
 10
809.2957
 20
2.0171
 30
0.0
 11
656.8957
 21
2.0171
 31
0.0
  0
LINE
  5
612
100
AcDbEntity
  8
61
  6
CONTINUOUS
 62
     2
100
AcDbLine
 10
809.2957
 20
2.0171
 30
0.0
 11
656.5957
 21
2.0171
 31
0.0
  0
LINE
  5
613
100
AcDbEntity
  8
61
  6
CONTINUOUS
 62
     2
100
AcDbLine
 10
809.2957
 20
2.0171
 30
0.0
 11
656.8957
 21
2.0171
 31
0.0
  0
TEXT
  5
614
100
AcDbEntity
  8
1
  6
CONTINUOUS
 62
     2
100
AcDbText
 10
750.5957
 20
-1.7829
 30
0.0
 40
2.031
  1
TRAFFIC ENGINEERING DIVISION
  7
TXT
210
0.0
220
0.0
230
1.0
100
AcDbText
  0
TEXT
  5
615
100
AcDbEntity
  8
1
  6
CONTINUOUS
 62
     7
100
AcDbText
 10
536.2957
 20
-1.7829
 30
0.0
 40
2.2002
  1
$$$$$$$$$FILENAME$$$$$$$$
  7
MONOTXT
210
0.0
220
0.0
230
1.0
100
AcDbText
  0
TEXT
  5
616
100
AcDbEntity
  8
1
  6
CONTINUOUS
 62
     7
100
AcDbText
 10
657.0957
 20
-1.7829
 30
0.0
 40
2.2002
  1
$USERNAME$
  7
MONOTXT
210
0.0
220
0.0
230
1.0
100
AcDbText
  0
TEXT
  5
617
100
AcDbEntity
  8
1
  6
CONTINUOUS
 62
     7
100
AcDbText
 10
702.1957
 20
-1.7829
 30
0.0
 40
2.2002
  1
DD-MMM-YYYY HH:MM
  7
MONOTXT
210
0.0
220
0.0
230
1.0
100
AcDbText
  0
TEXT
  5
618
100
AcDbEntity
  8
1
  6
CONTINUOUS
 62
     2
100
AcDbText
 10
640.5957
 20
7.2171
 30
0.0
 40
8.8806
  1
STANDARD SHEET TEL-17C
  7
TXT
210
0.0
220
0.0
230
1.0
100
AcDbText
  0
TEXT
  5
619
100
AcDbEntity
  8
1
  6
CONTINUOUS
 62
     7
100
AcDbText
 10
151.7117
 20
477.6464
 30
0.0
 40
3.0
  1
6.35mm
  7
MONOTXT
 72
     4
 11
160.4046
 21
479.1464
 31
0.0
210
0.0
220
0.0
230
1.0
100
AcDbText
  0
TEXT
  5
61A
100
AcDbEntity
  8
1
  6
CONTINUOUS
 62
     7
100
AcDbText
 10
112.9251
 20
480.2581
 30
0.0
 40
3.0
  1
190.5mm
  7
MONOTXT
 72
     4
 11
122.4684
 21
481.7581
 31
0.0
210
0.0
220
0.0
230
1.0
100
AcDbText
  0
TEXT
  5
61B
100
AcDbEntity
  8
1
  6
CONTINUOUS
 62
     7
100
AcDbText
 10
112.4791
 20
469.8046
 30
0.0
 40
3.0
  1
165.1mm
  7
MONOTXT
 72
     4
 11
121.3846
 21
471.3046
 31
0.0
210
0.0
220
0.0
230
1.0
100
AcDbText
  0
TEXT
  5
61C
100
AcDbEntity
  8
1
  6
CONTINUOUS
 62
     7
100
AcDbText
 10
57.3415
 20
456.2285
 30
0.0
 40
3.0
  1
6.35mm
 50
90.0
  7
MONOTXT
 72
     4
 11
55.8415
 21
464.9214
 31
0.0
210
0.0
220
0.0
230
1.0
100
AcDbText
  0
TEXT
  5
61D
100
AcDbEntity
  8
1
  6
CONTINUOUS
 62
     7
100
AcDbText
 10
73.4282
 20
457.8413
 30
0.0
 40
3.0
  1
38.1mm
 50
90.0
  7
MONOTXT
 72
     4
 11
71.9282
 21
465.9673
 31
0.0
210
0.0
220
0.0
230
1.0
100
AcDbText
  0
TEXT
  5
61E
100
AcDbEntity
  8
1
  6
CONTINUOUS
 62
     7
100
AcDbText
 10
58.1035
 20
404.7237
 30
0.0
 40
3.0
  1
279.4mm
 50
90.0
  7
MONOTXT
 72
     4
 11
56.6035
 21
414.9993
 31
0.0
210
0.0
220
0.0
230
1.0
100
AcDbText
  0
TEXT
  5
61F
100
AcDbEntity
  8
1
  6
CONTINUOUS
 62
     7
100
AcDbText
 10
70.1889
 20
404.9788
 30
0.0
 40
3.0
  1
254.0mm
 50
90.0
  7
MONOTXT
 72
     4
 11
68.6889
 21
415.3016
 31
0.0
210
0.0
220
0.0
230
1.0
100
AcDbText
  0
TEXT
  5
620
100
AcDbEntity
  8
1
  6
CONTINUOUS
 62
     7
100
AcDbText
 10
119.7046
 20
402.3312
 30
0.0
 40
3.0
  1
228.6mm
 50
90.0
  7
MONOTXT
 72
     4
 11
118.2046
 21
412.5123
 31
0.0
210
0.0
220
0.0
230
1.0
100
AcDbText
  0
TEXT
  5
621
100
AcDbEntity
  8
1
  6
CONTINUOUS
 62
     7
100
AcDbText
 10
179.7283
 20
405.412
 30
0.0
 40
3.0
  1
323.8mm
 50
90.0
  7
MONOTXT
 72
     4
 11
178.2283
 21
415.664
 31
0.0
210
0.0
220
0.0
230
1.0
100
AcDbText
  0
TEXT
  5
622
100
AcDbEntity
  8
1
  6
CONTINUOUS
 62
     7
100
AcDbText
 10
109.5883
 20
355.9041
 30
0.0
 40
3.0
  1
304.8mm
  7
MONOTXT
 72
     4
 11
119.9111
 21
357.4041
 31
0.0
210
0.0
220
0.0
230
1.0
100
AcDbText
  0
TEXT
  5
623
100
AcDbEntity
  8
1
  6
CONTINUOUS
 62
     7
100
AcDbText
 10
275.379
 20
494.2165
 30
0.0
 40
3.0
  1
304.8mm
  7
MONOTXT
 72
     4
 11
285.7018
 21
495.7165
 31
0.0
210
0.0
220
0.0
230
1.0
100
AcDbText
  0
TEXT
  5
624
100
AcDbEntity
  8
1
  6
CONTINUOUS
 62
     7
100
AcDbText
 10
317.4464
 20
495.3287
 30
0.0
 40
3.0
  1
32.7mm
  7
MONOTXT
 72
     4
 11
326.2338
 21
496.8287
 31
0.0
210
0.0
220
0.0
230
1.0
100
AcDbText
  0
TEXT
  5
625
100
AcDbEntity
  8
1
  6
CONTINUOUS
 62
     7
100
AcDbText
 10
256.908
 20
484.5099
 30
0.0
 40
3.0
  1
152.4mm
  7
MONOTXT
 72
     4
 11
266.593
 21
486.0099
 31
0.0
210
0.0
220
0.0
230
1.0
100
AcDbText
  0
TEXT
  5
626
100
AcDbEntity
  8
1
  6
CONTINUOUS
 62
     7
100
AcDbText
 10
233.831
 20
459.8492
 30
0.0
 40
3.0
  1
76.2mm
 50
90.0
  7
MONOTXT
 72
     4
 11
232.331
 21
468.5658
 31
0.0
210
0.0
220
0.0
230
1.0
100
AcDbText
  0
TEXT
  5
627
100
AcDbEntity
  8
1
  6
CONTINUOUS
 62
     7
100
AcDbText
 10
221.8559
 20
404.6369
 30
0.0
 40
3.0
  1
323.85mm
 50
90.0
  7
MONOTXT
 72
     4
 11
220.3559
 21
416.3771
 31
0.0
210
0.0
220
0.0
230
1.0
100
AcDbText
  0
TEXT
  5
628
100
AcDbEntity
  8
1
  6
CONTINUOUS
 62
     7
100
AcDbText
 10
233.1946
 20
414.4855
 30
0.0
 40
3.0
  1
222.25mm
 50
90.0
  7
MONOTXT
 72
     4
 11
231.6946
 21
426.2257
 31
0.0
210
0.0
220
0.0
230
1.0
100
AcDbText
  0
TEXT
  5
629
100
AcDbEntity
  8
1
  6
CONTINUOUS
 62
     7
100
AcDbText
 10
232.5571
 20
379.6592
 30
0.0
 40
3.0
  1
101.6mm
 50
90.0
  7
MONOTXT
 72
     4
 11
231.0571
 21
388.5647
 31
0.0
210
0.0
220
0.0
230
1.0
100
AcDbText
  0
TEXT
  5
62A
100
AcDbEntity
  8
1
  6
CONTINUOUS
 62
     7
100
AcDbText
 10
331.8456
 20
428.2864
 30
0.0
 40
3.0
  1
6.35mm
 50
6.0
  7
MONOTXT
 72
     4
 11
340.334087
 21
430.686838
 31
0.0
210
0.0
220
0.0
230
1.0
100
AcDbText
  0
TEXT
  5
62B
100
AcDbEntity
  8
1
  6
CONTINUOUS
 62
     7
100
AcDbText
 10
347.4392
 20
385.7449
 30
0.0
 40
3.0
  1
190mm
 50
90.0
  7
MONOTXT
 72
     4
 11
345.9392
 21
393.0441
 31
0.0
210
0.0
220
0.0
230
1.0
100
AcDbText
  0
TEXT
  5
62C
100
AcDbEntity
  8
1
  6
CONTINUOUS
 62
     7
100
AcDbText
 10
263.9639
 20
362.9435
 30
0.0
 40
3.0
  1
50mm
  7
MONOTXT
 72
     4
 11
270.4836
 21
364.4435
 31
0.0
210
0.0
220
0.0
230
1.0
100
AcDbText
  0
TEXT
  5
62D
100
AcDbEntity
  8
1
  6
CONTINUOUS
 62
     7
100
AcDbText
 10
265.6766
 20
357.5435
 30
0.0
 40
3.0
  1
TYP.
  7
MONOTXT
 72
     4
 11
270.4836
 21
359.0435
 31
0.0
210
0.0
220
0.0
230
1.0
100
AcDbText
  0
LINE
  5
62E
100
AcDbEntity
  8
1
  6
CONTINUOUS
 62
     7
100
AcDbLine
 10
254.6546
 20
358.0998
 30
0.0
 11
254.6072
 21
364.2734
 31
0.0
  0
LINE
  5
62F
100
AcDbEntity
  8
1
  6
CONTINUOUS
 62
     7
100
AcDbLine
 10
254.6072
 20
364.2734
 30
0.0
 11
263.485
 21
364.2734
 31
0.0
  0
INSERT
  5
630
100
AcDbEntity
  8
1
  6
CONTINUOUS
 62
   253
100
AcDbBlockReference
  2
LDR
 10
254.6546
 20
358.0998
 30
0.0
 41
240.0
 42
240.0
 50
270.4399
210
0.0
220
0.0
230
1.0
  0
LINE
  5
631
100
AcDbEntity
  8
1
  6
CONTINUOUS
 62
     7
100
AcDbLine
 10
269.9546
 20
372.8053
 30
0.0
 11
269.9546
 21
366.4045
 31
0.0
  0
LINE
  5
632
100
AcDbEntity
  8
1
  6
CONTINUOUS
 62
     7
100
AcDbLine
 10
269.9546
 20
356.5477
 30
0.0
 11
269.9546
 21
347.0053
 31
0.0
  0
TEXT
  5
633
100
AcDbEntity
  8
1
  6
CONTINUOUS
 62
     7
100
AcDbText
 10
251.2419
 20
349.4931
 30
0.0
 40
3.0
  1
92.08mm
 41
0.833333
  7
MONOTXT
 72
     4
 11
259.7261
 21
350.9931
 31
0.0
210
0.0
220
0.0
230
1.0
100
AcDbText
  0
TEXT
  5
634
100
AcDbEntity
  8
1
  6
CONTINUOUS
 62
     7
100
AcDbText
 10
283.1208
 20
349.3761
 30
0.0
 40
3.0
  1
196.85mm
  7
MONOTXT
 72
     4
 11
294.0814
 21
350.8761
 31
0.0
210
0.0
220
0.0
230
1.0
100
AcDbText
  0
TEXT
  5
635
100
AcDbEntity
  8
1
  6
CONTINUOUS
 62
     7
100
AcDbText
 10
262.1212
 20
333.3278
 30
0.0
 40
3.0
  1
190.5mm
  7
MONOTXT
 72
     4
 11
271.6645
 21
334.8278
 31
0.0
210
0.0
220
0.0
230
1.0
100
AcDbText
  0
TEXT
  5
636
100
AcDbEntity
  8
1
  6
CONTINUOUS
 62
     7
100
AcDbText
 10
346.466
 20
365.4595
 30
0.0
 40
3.0
  1
15mm DRAIN OPENING
  7
MONOTXT
 11
346.466
 21
368.4595
 31
0.0
210
0.0
220
0.0
230
1.0
100
AcDbText
 73
     3
  0
TEXT
  5
637
100
AcDbEntity
  8
1
  6
CONTINUOUS
 62
     7
100
AcDbText
 10
346.466
 20
360.0595
 30
0.0
 40
3.0
  1
AT CENTER OF PLATE
  7
MONOTXT
 11
346.466
 21
363.0595
 31
0.0
210
0.0
220
0.0
230
1.0
100
AcDbText
 73
     3
  0
TEXT
  5
638
100
AcDbEntity
  8
1
  6
CONTINUOUS
 62
     7
100
AcDbText
 10
355.1934
 20
471.8208
 30
0.0
 40
3.0
  1
DRILL (AND TAP) FOR 25.4mm
  7
MONOTXT
 72
     4
 11
390.6737
 21
473.3208
 31
0.0
210
0.0
220
0.0
230
1.0
100
AcDbText
  0
TEXT
  5
639
100
AcDbEntity
  8
1
  6
CONTINUOUS
 62
     7
100
AcDbText
 10
368.032
 20
466.4208
 30
0.0
 40
3.0
  1
STEEL BOLT (TYP.)
  7
MONOTXT
 72
     4
 11
390.6737
 21
467.9208
 31
0.0
210
0.0
220
0.0
230
1.0
100
AcDbText
  0
TEXT
  5
63A
100
AcDbEntity
  8
1
  6
CONTINUOUS
 62
     7
100
AcDbText
 10
433.8206
 20
416.6213
 30
0.0
 40
3.0
  1
241.3mm TO
 50
34.455828
  7
MONOTXT
 72
     1
 11
446.023467
 21
424.994254
 31
0.0
210
0.0
220
0.0
230
1.0
100
AcDbText
  0
TEXT
  5
63B
100
AcDbEntity
  8
1
  6
CONTINUOUS
 62
     7
100
AcDbText
 10
435.785
 20
411.4202
 30
0.0
 40
3.0
  1
317.5mm B.C.
 50
34.455828
  7
MONOTXT
 72
     1
 11
449.078598
 21
420.541555
 31
0.0
210
0.0
220
0.0
230
1.0
100
AcDbText
  0
TEXT
  5
63C
100
AcDbEntity
  8
1
  6
CONTINUOUS
 62
     7
100
AcDbText
 10
440.3226
 20
410.664
 30
0.0
 40
3.0
  1
75mm
  7
MONOTXT
 72
     4
 11
446.8659
 21
412.164
 31
0.0
210
0.0
220
0.0
230
1.0
100
AcDbText
  0
TEXT
  5
63D
100
AcDbEntity
  8
1
  6
CONTINUOUS
 62
     7
100
AcDbText
 10
438.4211
 20
405.264
 30
0.0
 40
3.0
  1
SQUARE
  7
MONOTXT
 72
     4
 11
446.8659
 21
406.764
 31
0.0
210
0.0
220
0.0
230
1.0
100
AcDbText
  0
TEXT
  5
63E
100
AcDbEntity
  8
1
  6
CONTINUOUS
 62
     7
100
AcDbText
 10
444.2321
 20
399.864
 30
0.0
 40
3.0
  1
OR
  7
MONOTXT
 72
     4
 11
446.8659
 21
401.364
 31
0.0
210
0.0
220
0.0
230
1.0
100
AcDbText
  0
TEXT
  5
63F
100
AcDbEntity
  8
1
  6
CONTINUOUS
 62
     7
100
AcDbText
 10
439.7675
 20
394.464
 30
0.0
 40
3.0
  1
ROUND
  7
MONOTXT
 72
     4
 11
446.8659
 21
395.964
 31
0.0
210
0.0
220
0.0
230
1.0
100
AcDbText
  0
TEXT
  5
640
100
AcDbEntity
  8
1
  6
CONTINUOUS
 62
     7
100
AcDbText
 10
437.0698
 20
360.9657
 30
0.0
 40
3.0
  1
304.8mm
  7
MONOTXT
 72
     4
 11
447.3926
 21
362.4657
 31
0.0
210
0.0
220
0.0
230
1.0
100
AcDbText
  0
TEXT
  5
641
100
AcDbEntity
  8
1
  6
CONTINUOUS
 62
     7
100
AcDbText
 10
509.6153
 20
414.1777
 30
0.0
 40
3.0
  1
304.8mm
 50
90.0
  7
MONOTXT
 72
     4
 11
508.1153
 21
424.5005
 31
0.0
210
0.0
220
0.0
230
1.0
100
AcDbText
  0
TEXT
  5
642
100
AcDbEntity
  8
1
  6
CONTINUOUS
 62
     7
100
AcDbText
 10
591.6184
 20
486.3065
 30
0.0
 40
3.0
  1
337.5mm
  7
MONOTXT
 72
     4
 11
601.894
 21
487.8065
 31
0.0
210
0.0
220
0.0
230
1.0
100
AcDbText
  0
TEXT
  5
643
100
AcDbEntity
  8
1
  6
CONTINUOUS
 62
     7
100
AcDbText
 10
575.7274
 20
476.5791
 30
0.0
 40
3.0
  1
190mm
  7
MONOTXT
 72
     4
 11
583.0266
 21
478.0791
 31
0.0
210
0.0
220
0.0
230
1.0
100
AcDbText
  0
TEXT
  5
644
100
AcDbEntity
  8
1
  6
CONTINUOUS
 62
     7
100
AcDbText
 10
586.9319
 20
402.7132
 30
0.0
 40
3.0
  1
75mm 0
 50
45.0
 41
0.833333
  7
MONOTXT
 72
     1
 11
592.833696
 21
408.614996
 31
0.0
210
0.0
220
0.0
230
1.0
100
AcDbText
  0
TEXT
  5
645
100
AcDbEntity
  8
1
  6
CONTINUOUS
 62
     7
100
AcDbText
 10
594.4358
 20
369.6506
 30
0.0
 40
3.0
  1
196.85mm
  7
MONOTXT
 72
     4
 11
605.3964
 21
371.1506
 31
0.0
210
0.0
220
0.0
230
1.0
100
AcDbText
  0
TEXT
  5
646
100
AcDbEntity
  8
1
  6
CONTINUOUS
 62
     7
100
AcDbText
 10
667.4611
 20
412.8729
 30
0.0
 40
3.0
  1
196.85mm
 50
90.0
  7
MONOTXT
 72
     4
 11
665.9611
 21
423.8335
 31
0.0
210
0.0
220
0.0
230
1.0
100
AcDbText
  0
TEXT
  5
647
100
AcDbEntity
  8
1
  6
CONTINUOUS
 62
     7
100
AcDbText
 10
675.8348
 20
397.2136
 30
0.0
 40
3.0
  1
152.4mm
 50
90.0
  7
MONOTXT
 72
     4
 11
674.3348
 21
406.8986
 31
0.0
210
0.0
220
0.0
230
1.0
100
AcDbText
  0
TEXT
  5
648
100
AcDbEntity
  8
1
  6
CONTINUOUS
 62
     7
100
AcDbText
 10
682.5702
 20
416.2423
 30
0.0
 40
3.0
  1
304.8mm
 50
90.0
  7
MONOTXT
 72
     4
 11
681.0702
 21
426.5651
 31
0.0
210
0.0
220
0.0
230
1.0
100
AcDbText
  0
TEXT
  5
649
100
AcDbEntity
  8
1
  6
CONTINUOUS
 62
     7
100
AcDbText
 10
130.2472
 20
221.0043
 30
0.0
 40
3.0
  1
31.75mm ANCHOR BOLT
  7
MONOTXT
 72
     4
 11
158.3928
 21
222.5043
 31
0.0
210
0.0
220
0.0
230
1.0
100
AcDbText
  0
TEXT
  5
64A
100
AcDbEntity
  8
1
  6
CONTINUOUS
 62
     7
100
AcDbText
 10
121.8614
 20
215.6043
 30
0.0
 40
3.0
  1
ASSEMBLIES ON 279.4mm B.C.
  7
MONOTXT
 72
     4
 11
158.3928
 21
217.1043
 31
0.0
210
0.0
220
0.0
230
1.0
100
AcDbText
  0
TEXT
  5
64B
100
AcDbEntity
  8
1
  6
CONTINUOUS
 62
     7
100
AcDbText
 10
131.5328
 20
206.5079
 30
0.0
 40
3.0
  1
51mm 0 CONDUIT (TYP.)
  7
MONOTXT
 72
     4
 11
160.6942
 21
208.0079
 31
0.0
210
0.0
220
0.0
230
1.0
100
AcDbText
  0
TEXT
  5
64C
100
AcDbEntity
  8
1
  6
CONTINUOUS
 62
     7
100
AcDbText
 10
78.0258
 20
76.7239
 30
0.0
 40
3.6
  1
TYPE "F" LIGHTING POLE SUPPORT BASE
  7
MONOTXT
 11
78.0258
 21
80.3239
 31
0.0
210
0.0
220
0.0
230
1.0
100
AcDbText
 73
     3
  0
TEXT
  5
64D
100
AcDbEntity
  8
1
  6
CONTINUOUS
 62
     7
100
AcDbText
 10
78.0258
 20
70.7239
 30
0.0
 40
3.6
  1
 
  7
MONOTXT
 11
78.0258
 21
74.3239
 31
0.0
210
0.0
220
0.0
230
1.0
100
AcDbText
 73
     3
  0
TEXT
  5
64E
100
AcDbEntity
  8
1
  6
CONTINUOUS
 62
     7
100
AcDbText
 10
78.0258
 20
64.7239
 30
0.0
 40
3.6
  1
CONDUIT COUPLING (AS REQUIRED)
  7
MONOTXT
 11
78.0258
 21
68.3239
 31
0.0
210
0.0
220
0.0
230
1.0
100
AcDbText
 73
     3
  0
TEXT
  5
64F
100
AcDbEntity
  8
1
  6
CONTINUOUS
 62
     7
100
AcDbText
 10
78.0258
 20
58.7239
 30
0.0
 40
3.6
  1
 
  7
MONOTXT
 11
78.0258
 21
62.3239
 31
0.0
210
0.0
220
0.0
230
1.0
100
AcDbText
 73
     3
  0
TEXT
  5
650
100
AcDbEntity
  8
1
  6
CONTINUOUS
 62
     7
100
AcDbText
 10
78.0258
 20
52.7239
 30
0.0
 40
3.6
  1
25mm METAL CONDUIT (TYP.)
  7
MONOTXT
 11
78.0258
 21
56.3239
 31
0.0
210
0.0
220
0.0
230
1.0
100
AcDbText
 73
     3
  0
TEXT
  5
651
100
AcDbEntity
  8
1
  6
CONTINUOUS
 62
     7
100
AcDbText
 10
78.0258
 20
46.7239
 30
0.0
 40
3.6
  1
 
  7
MONOTXT
 11
78.0258
 21
50.3239
 31
0.0
210
0.0
220
0.0
230
1.0
100
AcDbText
 73
     3
  0
TEXT
  5
652
100
AcDbEntity
  8
1
  6
CONTINUOUS
 62
     7
100
AcDbText
 10
78.0258
 20
40.7239
 30
0.0
 40
3.6
  1
ANCHOR PLATE (25mm) ASTM AASHTO
  7
MONOTXT
 11
78.0258
 21
44.3239
 31
0.0
210
0.0
220
0.0
230
1.0
100
AcDbText
 73
     3
  0
TEXT
  5
653
100
AcDbEntity
  8
1
  6
CONTINUOUS
 62
     7
100
AcDbText
 10
78.0258
 20
34.7239
 30
0.0
 40
3.6
  1
M183M GALVANIZED)
  7
MONOTXT
 11
78.0258
 21
38.3239
 31
0.0
210
0.0
220
0.0
230
1.0
100
AcDbText
 73
     3
  0
TEXT
  5
654
100
AcDbEntity
  8
1
  6
CONTINUOUS
 62
     7
100
AcDbText
 10
315.2432
 20
158.9051
 30
0.0
 40
3.0
  1
75mm
 50
90.0
  7
MONOTXT
 72
     4
 11
313.7432
 21
165.4484
 31
0.0
210
0.0
220
0.0
230
1.0
100
AcDbText
  0
TEXT
  5
655
100
AcDbEntity
  8
1
  6
CONTINUOUS
 62
     7
100
AcDbText
 10
260.8152
 20
104.5962
 30
0.0
 40
3.0
  1
75mm MIN.
  7
MONOTXT
 72
     4
 11
273.6538
 21
106.0962
 31
0.0
210
0.0
220
0.0
230
1.0
100
AcDbText
  0
TEXT
  5
656
100
AcDbEntity
  8
1
  6
CONTINUOUS
 62
     7
100
AcDbText
 10
266.4137
 20
99.1962
 30
0.0
 40
3.0
  1
COVER
  7
MONOTXT
 72
     4
 11
273.6538
 21
100.6962
 31
0.0
210
0.0
220
0.0
230
1.0
100
AcDbText
  0
TEXT
  5
657
100
AcDbEntity
  8
1
  6
CONTINUOUS
 62
     7
100
AcDbText
 10
438.6587
 20
169.222
 30
0.0
 40
3.0
  1
610.7mm
 50
90.0
  7
MONOTXT
 72
     4
 11
437.1587
 21
178.7889
 31
0.0
210
0.0
220
0.0
230
1.0
100
AcDbText
  0
TEXT
  5
658
100
AcDbEntity
  8
1
  6
CONTINUOUS
 62
     7
100
AcDbText
 10
473.6281
 20
220.9033
 30
0.0
 40
3.0
  1
31.75mm 0
  7
MONOTXT
 72
     4
 11
486.7383
 21
222.4033
 31
0.0
210
0.0
220
0.0
230
1.0
100
AcDbText
  0
TEXT
  5
659
100
AcDbEntity
  8
1
  6
CONTINUOUS
 62
     7
100
AcDbText
 10
558.1447
 20
220.9033
 30
0.0
 40
3.0
  1
31.75mm 0
  7
MONOTXT
 72
     4
 11
571.2549
 21
222.4033
 31
0.0
210
0.0
220
0.0
230
1.0
100
AcDbText
  0
TEXT
  5
65A
100
AcDbEntity
  8
1
  6
CONTINUOUS
 62
     7
100
AcDbText
 10
582.3689
 20
220.9688
 30
0.0
 40
3.0
  1
/
  7
MONOTXT
 72
     4
 11
583.2075
 21
222.4688
 31
0.0
210
0.0
220
0.0
230
1.0
100
AcDbText
  0
TEXT
  5
65B
100
AcDbEntity
  8
1
  6
CONTINUOUS
 62
     7
100
AcDbText
 10
529.1354
 20
221.3295
 30
0.0
 40
3.0
  1
71mm MIN.
 50
90.0
  7
MONOTXT
 72
     4
 11
527.6354
 21
233.5303
 31
0.0
210
0.0
220
0.0
230
1.0
100
AcDbText
  0
TEXT
  5
65C
100
AcDbEntity
  8
1
  6
CONTINUOUS
 62
     7
100
AcDbText
 10
561.9832
 20
173.7329
 30
0.0
 40
3.0
  1
71mm MIN.
 50
90.0
  7
MONOTXT
 72
     4
 11
560.4832
 21
185.9337
 31
0.0
210
0.0
220
0.0
230
1.0
100
AcDbText
  0
LINE
  5
65D
100
AcDbEntity
  8
1
  6
CONTINUOUS
 62
     7
100
AcDbLine
 10
521.1205
 20
215.2644
 30
0.0
 11
525.1678
 21
221.5271
 31
0.0
  0
TEXT
  5
65E
100
AcDbEntity
  8
1
  6
CONTINUOUS
 62
     7
100
AcDbText
 10
527.0472
 20
176.2652
 30
0.0
 40
3.0
  1
200mm MIN.
 50
90.0
  7
MONOTXT
 72
     4
 11
525.5472
 21
190.5683
 31
0.0
210
0.0
220
0.0
230
1.0
100
AcDbText
  0
TEXT
  5
65F
100
AcDbEntity
  8
1
  6
CONTINUOUS
 62
     7
100
AcDbText
 10
532.4472
 20
184.4148
 30
0.0
 40
3.0
  1
GALV.
 50
90.0
  7
MONOTXT
 72
     4
 11
530.9472
 21
190.5683
 31
0.0
210
0.0
220
0.0
230
1.0
100
AcDbText
  0
TEXT
  5
660
100
AcDbEntity
  8
1
  6
CONTINUOUS
 62
     7
100
AcDbText
 10
568.7729
 20
177.686
 30
0.0
 40
3.0
  1
200mm MIN.
 50
90.0
  7
MONOTXT
 72
     4
 11
567.2729
 21
191.9891
 31
0.0
210
0.0
220
0.0
230
1.0
100
AcDbText
  0
TEXT
  5
661
100
AcDbEntity
  8
1
  6
CONTINUOUS
 62
     7
100
AcDbText
 10
574.1729
 20
185.8356
 30
0.0
 40
3.0
  1
GALV.
 50
90.0
  7
MONOTXT
 72
     4
 11
572.6729
 21
191.9891
 31
0.0
210
0.0
220
0.0
230
1.0
100
AcDbText
  0
TEXT
  5
662
100
AcDbEntity
  8
1
  6
CONTINUOUS
 62
     7
100
AcDbText
 10
539.3982
 20
169.0454
 30
0.0
 40
3.0
  1
1117.6mm
 50
90.0
  7
MONOTXT
 72
     4
 11
537.8982
 21
178.8249
 31
0.0
210
0.0
220
0.0
230
1.0
100
AcDbText
  0
TEXT
  5
663
100
AcDbEntity
  8
1
  6
CONTINUOUS
 62
     7
100
AcDbText
 10
475.8002
 20
122.1323
 30
0.0
 40
3.0
  1
196.85mm
  7
MONOTXT
 72
     4
 11
486.7608
 21
123.6323
 31
0.0
210
0.0
220
0.0
230
1.0
100
AcDbText
  0
TEXT
  5
664
100
AcDbEntity
  8
1
  6
CONTINUOUS
 62
     7
100
AcDbText
 10
555.2435
 20
124.2938
 30
0.0
 40
3.0
  1
101.6mm
  7
MONOTXT
 72
     4
 11
564.149
 21
125.7938
 31
0.0
210
0.0
220
0.0
230
1.0
100
AcDbText
  0
TEXT
  5
665
100
AcDbEntity
  8
1
  6
CONTINUOUS
 62
     7
100
AcDbText
 10
528.7541
 20
445.3302
 30
0.0
 40
3.0
  1
DRILL FOUR
  7
MONOTXT
 72
     4
 11
541.8053
 21
446.8302
 31
0.0
210
0.0
220
0.0
230
1.0
100
AcDbText
  0
TEXT
  5
666
100
AcDbEntity
  8
1
  6
CONTINUOUS
 62
     7
100
AcDbText
 10
528.8959
 20
439.9302
 30
0.0
 40
3.0
  1
HOLES FOR
  7
MONOTXT
 72
     4
 11
541.8053
 21
441.4302
 31
0.0
210
0.0
220
0.0
230
1.0
100
AcDbText
  0
TEXT
  5
667
100
AcDbEntity
  8
1
  6
CONTINUOUS
 62
     7
100
AcDbText
 10
528.6951
 20
434.5302
 30
0.0
 40
3.0
  1
31.75mm 0
  7
MONOTXT
 72
     4
 11
541.8053
 21
436.0302
 31
0.0
210
0.0
220
0.0
230
1.0
100
AcDbText
  0
TEXT
  5
668
100
AcDbEntity
  8
1
  6
CONTINUOUS
 62
     7
100
AcDbText
 10
534.8487
 20
429.1302
 30
0.0
 40
3.0
  1
BOLTS
  7
MONOTXT
 72
     4
 11
541.8053
 21
430.6302
 31
0.0
210
0.0
220
0.0
230
1.0
100
AcDbText
  0
TEXT
  5
669
100
AcDbEntity
  8
1
  6
CONTINUOUS
 62
     7
100
AcDbText
 10
613.2218
 20
306.1914
 30
0.0
 40
3.0
  1
FROM STEEL CONFORMING TO AASHTO M183/M AND HOT DIPPED
  7
MONOTXT
 11
613.2218
 21
309.1914
 31
0.0
210
0.0
220
0.0
230
1.0
100
AcDbText
 73
     3
  0
TEXT
  5
66A
100
AcDbEntity
  8
1
  6
CONTINUOUS
 62
     7
100
AcDbText
 10
613.2218
 20
262.9914
 30
0.0
 40
3.0
  1
FOUR 1.6mm THICK STANDARD GALVANIZED STEEL SHIMS.
  7
MONOTXT
 11
613.2218
 21
265.9914
 31
0.0
210
0.0
220
0.0
230
1.0
100
AcDbText
 73
     3
  0
TEXT
  5
66B
100
AcDbEntity
  8
1
  6
CONTINUOUS
 62
     7
100
AcDbText
 10
612.7146
 20
209.2322
 30
0.0
 40
3.0
  1
ANCHOR BOLTS FOR LIGHTING POLE SUPPORT BASE CONNECTION TO
  7
MONOTXT
 11
612.7146
 21
212.2322
 31
0.0
210
0.0
220
0.0
230
1.0
100
AcDbText
 73
     3
  0
TEXT
  5
66C
100
AcDbEntity
  8
1
  6
CONTINUOUS
 62
     7
100
AcDbText
 10
612.7146
 20
203.2322
 30
0.0
 40
3.0
  1
BRIDGE OR WALL SHALL BE FABRICATED FROM HIGH STRENGTH STEEL
  7
MONOTXT
 11
612.7146
 21
206.2322
 31
0.0
210
0.0
220
0.0
230
1.0
100
AcDbText
 73
     3
  0
TEXT
  5
66D
100
AcDbEntity
  8
1
  6
CONTINUOUS
 62
     7
100
AcDbText
 10
612.7146
 20
197.2322
 30
0.0
 40
3.0
  1
MEETING AASHTO M 314, GRADE 370.  THE PHYSICAL, CHEMICAL, AND
  7
MONOTXT
 11
612.7146
 21
200.2322
 31
0.0
210
0.0
220
0.0
230
1.0
100
AcDbText
 73
     3
  0
TEXT
  5
66E
100
AcDbEntity
  8
1
  6
CONTINUOUS
 62
     7
100
AcDbText
 10
612.7146
 20
191.2322
 30
0.0
 40
3.0
  1
DIMENSIONAL CHARACTERISTICS OF THE NUTS SHALL BE IN ACCORDANCE
  7
MONOTXT
 11
612.7146
 21
194.2322
 31
0.0
210
0.0
220
0.0
230
1.0
100
AcDbText
 73
     3
  0
TEXT
  5
66F
100
AcDbEntity
  8
1
  6
CONTINUOUS
 62
     7
100
AcDbText
 10
612.7146
 20
185.2322
 30
0.0
 40
3.0
  1
WITH THE REQUIREMENTS OF ASTM A-307.  WASHERS SHALL MEET ASTM
  7
MONOTXT
 11
612.7146
 21
188.2322
 31
0.0
210
0.0
220
0.0
230
1.0
100
AcDbText
 73
     3
  0
TEXT
  5
670
100
AcDbEntity
  8
1
  6
CONTINUOUS
 62
     7
100
AcDbText
 10
612.7146
 20
179.2322
 30
0.0
 40
3.0
  1
F844.
  7
MONOTXT
 11
612.7146
 21
182.2322
 31
0.0
210
0.0
220
0.0
230
1.0
100
AcDbText
 73
     3
  0
TEXT
  5
671
100
AcDbEntity
  8
1
  6
CONTINUOUS
 62
     7
100
AcDbText
 10
550.2547
 20
466.1784
 30
0.0
 40
3.0
  1
12.7mm
 50
90.0
  7
MONOTXT
 72
     4
 11
548.7547
 21
474.328
 31
0.0
210
0.0
220
0.0
230
1.0
100
AcDbText
  0
TEXT
  5
672
100
AcDbEntity
  8
1
  6
CONTINUOUS
 62
     7
100
AcDbText
 10
550.2547
 20
364.4343
 30
0.0
 40
3.0
  1
12.7mm
 50
90.0
  7
MONOTXT
 72
     4
 11
548.7547
 21
372.5839
 31
0.0
210
0.0
220
0.0
230
1.0
100
AcDbText
  0
TEXT
  5
673
100
AcDbEntity
  8
1
  6
CONTINUOUS
 62
     7
100
AcDbText
 10
229.1385
 20
455.2931
 30
0.0
 40
3.0
  1
25.4mm
  7
MONOTXT
 72
     4
 11
237.9731
 21
456.7931
 31
0.0
210
0.0
220
0.0
230
1.0
100
AcDbText
  0
TEXT
  5
674
100
AcDbEntity
  8
1
  6
CONTINUOUS
 62
     7
100
AcDbText
 10
258.096
 20
426.1559
 30
0.0
 40
3.0
  1
12.7mm
  7
MONOTXT
 72
     4
 11
266.2456
 21
427.6559
 31
0.0
210
0.0
220
0.0
230
1.0
100
AcDbText
  0
TEXT
  5
675
100
AcDbEntity
  8
1
  6
CONTINUOUS
 62
     7
100
AcDbText
 10
282.706
 20
392.5109
 30
0.0
 40
3.0
  1
50.8mm CONDUIT
  7
MONOTXT
 11
282.706
 21
395.5109
 31
0.0
210
0.0
220
0.0
230
1.0
100
AcDbText
 73
     3
  0
TEXT
  5
676
100
AcDbEntity
  8
1
  6
CONTINUOUS
 62
     7
100
AcDbText
 10
282.706
 20
387.1109
 30
0.0
 40
3.0
  1
HUB (TYP.)
  7
MONOTXT
 11
282.706
 21
390.1109
 31
0.0
210
0.0
220
0.0
230
1.0
100
AcDbText
 73
     3
  0
TEXT
  5
677
100
AcDbEntity
  8
1
  6
CONTINUOUS
 62
     7
100
AcDbText
 10
331.5938
 20
421.2629
 30
0.0
 40
3.0
  1
12.7mm
 50
6.0
  7
MONOTXT
 72
     4
 11
339.541963
 21
423.606548
 31
0.0
210
0.0
220
0.0
230
1.0
100
AcDbText
  0
TEXT
  5
678
100
AcDbEntity
  8
1
  6
CONTINUOUS
 62
     7
100
AcDbText
 10
104.0384
 20
499.9797
 30
0.0
 40
3.0
  1
DRILL AND TAP FOR 6.4mm
  7
MONOTXT
 11
104.0384
 21
502.9797
 31
0.0
210
0.0
220
0.0
230
1.0
100
AcDbText
 73
     3
  0
TEXT
  5
679
100
AcDbEntity
  8
1
  6
CONTINUOUS
 62
     7
100
AcDbText
 10
104.0384
 20
494.5797
 30
0.0
 40
3.0
  1
x 12.7mm LG. S.S. FLAT HEAD
  7
MONOTXT
 11
104.0384
 21
497.5797
 31
0.0
210
0.0
220
0.0
230
1.0
100
AcDbText
 73
     3
  0
TEXT
  5
67A
100
AcDbEntity
  8
1
  6
CONTINUOUS
 62
     7
100
AcDbText
 10
104.0384
 20
489.1797
 30
0.0
 40
3.0
  1
MACHINE SCREW - 4 REQ'D.
  7
MONOTXT
 11
104.0384
 21
492.1797
 31
0.0
210
0.0
220
0.0
230
1.0
100
AcDbText
 73
     3
  0
TEXT
  5
67B
100
AcDbEntity
  8
1
  6
CONTINUOUS
 62
     7
100
AcDbText
 10
72.3818
 20
478.1754
 30
0.0
 40
3.0
  1
6.35mm
  7
MONOTXT
 72
     4
 11
81.0747
 21
479.6754
 31
0.0
210
0.0
220
0.0
230
1.0
100
AcDbText
  0
TEXT
  5
67C
100
AcDbEntity
  8
1
  6
CONTINUOUS
 62
     7
100
AcDbText
 10
65.3813
 20
461.6472
 30
0.0
 40
3.0
  1
19.05mm
 50
90.0
  7
MONOTXT
 72
     4
 11
63.8813
 21
471.1905
 31
0.0
210
0.0
220
0.0
230
1.0
100
AcDbText
  0
TEXT
  5
67D
100
AcDbEntity
  8
1
  6
CONTINUOUS
 62
     7
100
AcDbText
 10
56.8126
 20
353.7791
 30
0.0
 40
3.0
  1
6.35mm
 50
90.0
  7
MONOTXT
 72
     4
 11
55.3126
 21
362.472
 31
0.0
210
0.0
220
0.0
230
1.0
100
AcDbText
  0
ENDSEC
  0
SECTION
  2
OBJECTS
  0
DICTIONARY
  5
19
100
AcDbDictionary
  3
ACAD_GROUP
350
1A
  3
ACAD_MLINESTYLE
350
1B
  0
DICTIONARY
  5
1A
102
{ACAD_REACTORS
330
19
102
}
100
AcDbDictionary
  0
DICTIONARY
  5
1B
102
{ACAD_REACTORS
330
19
102
}
100
AcDbDictionary
  3
STANDARD
350
1C
  0
MLINESTYLE
  5
1C
102
{ACAD_REACTORS
330
1B
102
}
100
AcDbMlineStyle
  2
STANDARD
 70
     0
  3

 62
     0
 51
90.0
 52
90.0
 71
     2
 49
0.5
 62
   256
  6
BYLAYER
 49
-0.5
 62
   256
  6
BYLAYER
  0
ENDSEC
  0
EOF
