  0
SECTION
  2
HEADER
  9
$ACADVER
  1
AC1014
  9
$ACADMAINTVER
 70
     0
  9
$DWGCODEPAGE
  3
ANSI_1252
  9
$INSBASE
 10
0.0
 20
0.0
 30
0.0
  9
$EXTMIN
 10
37.575417
 20
2.99425
 30
0.0
  9
$EXTMAX
 10
665.60725
 20
441.3865
 30
0.0
  9
$LIMMIN
 10
0.0
 20
0.0
  9
$LIMMAX
 10
12.0
 20
9.0
  9
$ORTHOMODE
 70
     0
  9
$REGENMODE
 70
     1
  9
$FILLMODE
 70
     1
  9
$QTEXTMODE
 70
     0
  9
$MIRRTEXT
 70
     1
  9
$DRAGMODE
 70
     2
  9
$LTSCALE
 40
1.0
  9
$OSMODE
 70
     0
  9
$ATTMODE
 70
     1
  9
$TEXTSIZE
 40
0.2
  9
$TRACEWID
 40
0.05
  9
$TEXTSTYLE
  7
STANDARD
  9
$CLAYER
  8
0
  9
$CELTYPE
  6
CONTINUOUS
  9
$CECOLOR
 62
   256
  9
$CELTSCALE
 40
1.0
  9
$DELOBJ
 70
     1
  9
$DISPSILH
 70
     0
  9
$DIMSCALE
 40
1.0
  9
$DIMASZ
 40
0.18
  9
$DIMEXO
 40
0.0625
  9
$DIMDLI
 40
0.38
  9
$DIMRND
 40
0.0
  9
$DIMDLE
 40
0.0
  9
$DIMEXE
 40
0.18
  9
$DIMTP
 40
0.0
  9
$DIMTM
 40
0.0
  9
$DIMTXT
 40
0.18
  9
$DIMCEN
 40
0.09
  9
$DIMTSZ
 40
0.0
  9
$DIMTOL
 70
     0
  9
$DIMLIM
 70
     0
  9
$DIMTIH
 70
     1
  9
$DIMTOH
 70
     1
  9
$DIMSE1
 70
     0
  9
$DIMSE2
 70
     0
  9
$DIMTAD
 70
     0
  9
$DIMZIN
 70
     0
  9
$DIMBLK
  1

  9
$DIMASO
 70
     1
  9
$DIMSHO
 70
     1
  9
$DIMPOST
  1

  9
$DIMAPOST
  1

  9
$DIMALT
 70
     0
  9
$DIMALTD
 70
     2
  9
$DIMALTF
 40
25.4
  9
$DIMLFAC
 40
1.0
  9
$DIMTOFL
 70
     0
  9
$DIMTVP
 40
0.0
  9
$DIMTIX
 70
     0
  9
$DIMSOXD
 70
     0
  9
$DIMSAH
 70
     0
  9
$DIMBLK1
  1

  9
$DIMBLK2
  1

  9
$DIMSTYLE
  2
STANDARD
  9
$DIMCLRD
 70
     0
  9
$DIMCLRE
 70
     0
  9
$DIMCLRT
 70
     0
  9
$DIMTFAC
 40
1.0
  9
$DIMGAP
 40
0.09
  9
$DIMJUST
 70
     0
  9
$DIMSD1
 70
     0
  9
$DIMSD2
 70
     0
  9
$DIMTOLJ
 70
     1
  9
$DIMTZIN
 70
     0
  9
$DIMALTZ
 70
     0
  9
$DIMALTTZ
 70
     0
  9
$DIMFIT
 70
     3
  9
$DIMUPT
 70
     0
  9
$DIMUNIT
 70
     2
  9
$DIMDEC
 70
     4
  9
$DIMTDEC
 70
     4
  9
$DIMALTU
 70
     2
  9
$DIMALTTD
 70
     2
  9
$DIMTXSTY
  7
STANDARD
  9
$DIMAUNIT
 70
     0
  9
$LUNITS
 70
     2
  9
$LUPREC
 70
     4
  9
$SKETCHINC
 40
0.1
  9
$FILLETRAD
 40
0.0
  9
$AUNITS
 70
     0
  9
$AUPREC
 70
     0
  9
$MENU
  1
acad
  9
$ELEVATION
 40
0.0
  9
$PELEVATION
 40
0.0
  9
$THICKNESS
 40
0.0
  9
$LIMCHECK
 70
     0
  9
$BLIPMODE
 70
     1
  9
$CHAMFERA
 40
0.0
  9
$CHAMFERB
 40
0.0
  9
$CHAMFERC
 40
0.0
  9
$CHAMFERD
 40
0.0
  9
$SKPOLY
 70
     0
  9
$TDCREATE
 40
2451803.541956019
  9
$TDUPDATE
 40
2451803.541956019
  9
$TDINDWG
 40
0.0000000000
  9
$TDUSRTIMER
 40
0.0000000000
  9
$USRTIMER
 70
     1
  9
$ANGBASE
 50
0.0
  9
$ANGDIR
 70
     0
  9
$PDMODE
 70
     0
  9
$PDSIZE
 40
0.0
  9
$PLINEWID
 40
0.0
  9
$COORDS
 70
     0
  9
$SPLFRAME
 70
     0
  9
$SPLINETYPE
 70
     6
  9
$SPLINESEGS
 70
    10
  9
$ATTDIA
 70
     0
  9
$ATTREQ
 70
     1
  9
$HANDLING
 70
     1
  9
$HANDSEED
  5
485
  9
$SURFTAB1
 70
     6
  9
$SURFTAB2
 70
     6
  9
$SURFTYPE
 70
     6
  9
$SURFU
 70
     6
  9
$SURFV
 70
     6
  9
$UCSNAME
  2

  9
$UCSORG
 10
0.0
 20
0.0
 30
0.0
  9
$UCSXDIR
 10
1.0
 20
0.0
 30
0.0
  9
$UCSYDIR
 10
0.0
 20
1.0
 30
0.0
  9
$PUCSNAME
  2

  9
$PUCSORG
 10
0.0
 20
0.0
 30
0.0
  9
$PUCSXDIR
 10
1.0
 20
0.0
 30
0.0
  9
$PUCSYDIR
 10
0.0
 20
1.0
 30
0.0
  9
$USERI1
 70
     0
  9
$USERI2
 70
     0
  9
$USERI3
 70
     0
  9
$USERI4
 70
     0
  9
$USERI5
 70
     0
  9
$USERR1
 40
0.0
  9
$USERR2
 40
0.0
  9
$USERR3
 40
0.0
  9
$USERR4
 40
0.0
  9
$USERR5
 40
0.0
  9
$WORLDVIEW
 70
     1
  9
$SHADEDGE
 70
     3
  9
$SHADEDIF
 70
    70
  9
$TILEMODE
 70
     1
  9
$MAXACTVP
 70
    16
  9
$PINSBASE
 10
0.0
 20
0.0
 30
0.0
  9
$PLIMCHECK
 70
     0
  9
$PEXTMIN
 10
-1.000000E+20
 20
-1.000000E+20
 30
-1.000000E+20
  9
$PEXTMAX
 10
-1.000000E+20
 20
-1.000000E+20
 30
-1.000000E+20
  9
$PLIMMIN
 10
0.0
 20
0.0
  9
$PLIMMAX
 10
12.0
 20
9.0
  9
$UNITMODE
 70
     0
  9
$VISRETAIN
 70
     0
  9
$PLINEGEN
 70
     1
  9
$PSLTSCALE
 70
     0
  9
$TREEDEPTH
 70
  3020
  9
$PICKSTYLE
 70
     1
  9
$CMLSTYLE
  2
STANDARD
  9
$CMLJUST
 70
     0
  9
$CMLSCALE
 40
1.0
  9
$PROXYGRAPHICS
 70
     0
  9
$MEASUREMENT
 70
     0
  0
ENDSEC
  0
SECTION
  2
CLASSES
  0
CLASS
  1
LWPOLYLINE
  2
AcDbPolyline
  3
"AutoCAD"
 90
        0
280
     0
281
     1
  0
CLASS
  1
IMAGE
  2
AcDbRasterImage
  3
ISM
 90
      127
280
     0
281
     1
  0
CLASS
  1
OLE2FRAME
  2
AcDbOle2Frame
  3
""
 90
        0
280
     0
281
     1
  0
CLASS
  1
HATCH
  2
AcDbHatch
  3
"ACAD_SEDONA"
 90
        0
280
     0
281
     1
  0
CLASS
  1
DICTIONARYVAR
  2
AcDbDictionaryVar
  3
"AutoCAD"
 90
        0
280
     0
281
     0
  0
CLASS
  1
RASTERVARIABLES
  2
AcDbRasterVariables
  3
ISM
 90
        0
280
     0
281
     0
  0
CLASS
  1
IMAGEDEF
  2
AcDbRasterImageDef
  3
ISM
 90
        0
280
     0
281
     0
  0
CLASS
  1
IMAGEDEF_REACTOR
  2
AcDbRasterImageDefReactor
  3
ISM
 90
        1
280
     0
281
     0
  0
CLASS
  1
IDBUFFER
  2
AcDbIdBuffer
  3
"Acad"
 90
        0
280
     0
281
     0
  0
CLASS
  1
SPATIAL_FILTER
  2
AcDbSpatialFilter
  3
"Acad"
 90
        0
280
     0
281
     0
  0
CLASS
  1
XRECORD
  2
AcDbXrecord
  3
"<Built In>"
 90
        0
280
     0
281
     0
  0
CLASS
  1
SORTENTSTABLE
  2
AcDbSortentsTable
  3
"AutoCAD"
 90
        0
280
     0
281
     0
  0
CLASS
  1
LAYER_INDEX
  2
AcDbLayerIndex
  3
"Acad"
 90
        0
280
     0
281
     0
  0
CLASS
  1
SPATIAL_INDEX
  2
AcDbSpatialIndex
  3
"Acad"
 90
        0
280
     0
281
     0
  0
CLASS
  1
OBJECT_PTR
  2
CAseDLPNTableRecord
  3
"ASE-LPNTableRecord"
 90
        1
280
     0
281
     0
  0
ENDSEC
  0
SECTION
  2
TABLES
  0
TABLE
  2
VPORT
  5
7
100
AcDbSymbolTable
 70
     1
  0
VPORT
  5
484
100
AcDbSymbolTableRecord
100
AcDbViewportTableRecord
  2
*ACTIVE
 70
     0
 10
0.0
 20
0.0
 11
1.0
 21
1.0
 12
0.0
 22
0.0
 13
0.0
 23
0.0
 14
0.0
 24
0.0
 15
0.0
 25
0.0
 16
0.0
 26
0.0
 36
1.0
 17
303.218917
 27
220.035917
 37
0.0
 40
471.033333
 41
1.545
 42
50.0
 43
0.0
 44
0.0
 50
0.0
 51
0.0
 71
     0
 72
   100
 73
     1
 74
     0
 75
     0
 76
     0
 77
     0
 78
     0
  0
ENDTAB
  0
TABLE
  2
LTYPE
  5
4
100
AcDbSymbolTable
 70
     9
  0
LTYPE
  5
11
100
AcDbSymbolTableRecord
100
AcDbLinetypeTableRecord
  2
BYBLOCK
 70
     0
  3

 72
    65
 73
     0
 40
0.0
  0
LTYPE
  5
12
100
AcDbSymbolTableRecord
100
AcDbLinetypeTableRecord
  2
BYLAYER
 70
     0
  3

 72
    65
 73
     0
 40
0.0
  0
LTYPE
  5
13
100
AcDbSymbolTableRecord
100
AcDbLinetypeTableRecord
  2
CONTINUOUS
 70
     0
  3
Solid line
 72
    65
 73
     0
 40
0.0
  0
LTYPE
  5
22
102
{ACAD_XDICTIONARY
360
2100000000000000
102
}
100
AcDbSymbolTableRecord
100
AcDbLinetypeTableRecord
  2
DOT
 70
    64
  3
. . . . . . . . . . . . . . . . . . . . . . . . . . . . . . . . .
 72
    65
 73
     2
 40
0.25
 49
0.0
 74
     0
 49
-0.25
 74
     0
  0
LTYPE
  5
23
102
{ACAD_XDICTIONARY
360
2100000000000000
102
}
100
AcDbSymbolTableRecord
100
AcDbLinetypeTableRecord
  2
HIDDEN
 70
    64
  3
__ __ __ __ __ __ __ __ __ __ __ __ __ __ __ __ __ __ __ __ __ 
 72
    65
 73
     2
 40
0.375
 49
0.25
 74
     0
 49
-0.125
 74
     0
  0
LTYPE
  5
24
102
{ACAD_XDICTIONARY
360
2100000000000000
102
}
100
AcDbSymbolTableRecord
100
AcDbLinetypeTableRecord
  2
DASHED
 70
    64
  3
__ __ __ __ __ __ __ __ __ __ __ __ __ __ __ __ __ __ __ __ __
 72
    65
 73
     2
 40
0.75
 49
0.5
 74
     0
 49
-0.25
 74
     0
  0
LTYPE
  5
25
102
{ACAD_XDICTIONARY
360
2100000000000000
102
}
100
AcDbSymbolTableRecord
100
AcDbLinetypeTableRecord
  2
DASHDOT
 70
    64
  3
__ . __ . __ . __ . __ . __ . __ . __ . __ . __ . __ . __ . _
 72
    65
 73
     4
 40
1.0
 49
0.5
 74
     0
 49
-0.25
 74
     0
 49
0.0
 74
     0
 49
-0.25
 74
     0
  0
LTYPE
  5
26
102
{ACAD_XDICTIONARY
360
2100000000000000
102
}
100
AcDbSymbolTableRecord
100
AcDbLinetypeTableRecord
  2
DIVIDE
 70
    64
  3
____ . . ____ . . ____ . . ____ . . ____ . . ____ . . ____ . .
 72
    65
 73
     6
 40
1.25
 49
0.5
 74
     0
 49
-0.25
 74
     0
 49
0.0
 74
     0
 49
-0.25
 74
     0
 49
0.0
 74
     0
 49
-0.25
 74
     0
  0
LTYPE
  5
27
102
{ACAD_XDICTIONARY
360
2100000000000000
102
}
100
AcDbSymbolTableRecord
100
AcDbLinetypeTableRecord
  2
CENTER
 70
    64
  3
____ _ ____ _ ____ _ ____ _ ____ _ ____ _ ____ _ ____ _ ____ _
 72
    65
 73
     4
 40
2.0
 49
1.25
 74
     0
 49
-0.25
 74
     0
 49
0.25
 74
     0
 49
-0.25
 74
     0
  0
ENDTAB
  0
TABLE
  2
LAYER
  5
2
100
AcDbSymbolTable
 70
     3
  0
LAYER
  5
14
102
{ACAD_XDICTIONARY
360
5F205F5F5F5F205F
102
}
100
AcDbSymbolTableRecord
100
AcDbLayerTableRecord
  2
0
 70
     0
 62
     7
  6
CONTINUOUS
  0
LAYER
  5
1F
102
{ACAD_XDICTIONARY
360
5F205F5F5F5F205F
102
}
100
AcDbSymbolTableRecord
100
AcDbLayerTableRecord
  2
PATTERN_CLASS
 70
    64
 62
     7
  6
CONTINUOUS
  0
LAYER
  5
2A
102
{ACAD_XDICTIONARY
360
5F205F5F5F5F205F
102
}
100
AcDbSymbolTableRecord
100
AcDbLayerTableRecord
  2
1
 70
    64
 62
     7
  6
CONTINUOUS
  0
ENDTAB
  0
TABLE
  2
STYLE
  5
3
100
AcDbSymbolTable
 70
     3
  0
STYLE
  5
17
100
AcDbSymbolTableRecord
100
AcDbTextStyleTableRecord
  2
STANDARD
 70
     0
 40
0.0
 41
1.0
 50
0.0
 71
     0
 42
0.0
  3
txt
  4

  0
STYLE
  5
37
100
AcDbSymbolTableRecord
100
AcDbTextStyleTableRecord
  2
MONOTXT
 70
     0
 40
0.2
 41
1.0
 50
0.0
 71
     0
 42
0.2
  3
MONOTXT
  4

  0
STYLE
  5
3F
100
AcDbSymbolTableRecord
100
AcDbTextStyleTableRecord
  2
TXT
 70
     0
 40
0.2
 41
1.0
 50
0.0
 71
     0
 42
0.2
  3
TXT
  4

  0
ENDTAB
  0
TABLE
  2
VIEW
  5
5
100
AcDbSymbolTable
 70
     0
  0
ENDTAB
  0
TABLE
  2
UCS
  5
6
100
AcDbSymbolTable
 70
     0
  0
ENDTAB
  0
TABLE
  2
APPID
  5
8
100
AcDbSymbolTable
 70
     1
  0
APPID
  5
16
100
AcDbSymbolTableRecord
100
AcDbRegAppTableRecord
  2
ACAD
 70
     0
  0
ENDTAB
  0
TABLE
  2
DIMSTYLE
  5
9
100
AcDbSymbolTable
 70
     1
  0
DIMSTYLE
105
18
100
AcDbSymbolTableRecord
100
AcDbDimStyleTableRecord
  2
STANDARD
 70
     0
  3

  4

  5

  6

  7

 40
1.0
 41
0.18
 42
0.0625
 43
0.38
 44
0.18
 45
0.0
 46
0.0
 47
0.0
 48
0.0
140
0.18
141
0.09
142
0.0
143
25.4
144
1.0
145
0.0
146
1.0
147
0.09
 71
     0
 72
     0
 73
     1
 74
     1
 75
     0
 76
     0
 77
     0
 78
     0
170
     0
171
     2
172
     0
173
     0
174
     0
175
     0
176
     0
177
     0
178
     0
270
     2
271
     4
272
     4
273
     2
274
     2
340
17
275
     0
280
     0
281
     0
282
     0
283
     1
284
     0
285
     0
286
     0
287
     0
288
     0
  0
ENDTAB
  0
TABLE
  2
BLOCK_RECORD
  5
1
100
AcDbSymbolTable
 70
     1
  0
BLOCK_RECORD
  5
A
100
AcDbSymbolTableRecord
100
AcDbBlockTableRecord
  2
*MODEL_SPACE
  0
BLOCK_RECORD
  5
B
100
AcDbSymbolTableRecord
100
AcDbBlockTableRecord
  2
*PAPER_SPACE
  0
BLOCK_RECORD
  5
BC
102
{ACAD_XDICTIONARY
360
FAC8022400000000
102
}
100
AcDbSymbolTableRecord
100
AcDbBlockTableRecord
  2
LDR
  0
ENDTAB
  0
ENDSEC
  0
SECTION
  2
BLOCKS
  0
BLOCK
  5
D
100
AcDbEntity
  8
0
100
AcDbBlockBegin
  2
*MODEL_SPACE
 70
     0
 10
0.0
 20
0.0
 30
0.0
  3
*MODEL_SPACE
  1

  0
ENDBLK
  5
E
100
AcDbEntity
  8
0
100
AcDbBlockEnd
  0
BLOCK
  5
F
100
AcDbEntity
 67
     1
  8
0
100
AcDbBlockBegin
  2
*PAPER_SPACE
 70
     0
 10
0.0
 20
0.0
 30
0.0
  3
*PAPER_SPACE
  1

  0
ENDBLK
  5
10
100
AcDbEntity
 67
     1
  8
0
100
AcDbBlockEnd
  0
BLOCK
  5
BD
100
AcDbEntity
  8
1
  6
CONTINUOUS
 62
     1
100
AcDbBlockBegin
  2
LDR
 70
     0
 10
0.0
 20
0.0
 30
0.0
  3
LNR
  1

  0
ELLIPSE
  5
BE
100
AcDbEntity
  8
1
  6
CONTINUOUS
 62
     1
100
AcDbEllipse
 10
-0.004547
 20
-0.001151
 30
0.0
 11
0.007440417051956
 21
0.0006506250108083
 31
0.0
210
0.0
220
0.0
230
1.0
 40
0.122415
 41
0.8963533496766982
 42
3.1415926535897931
  0
ELLIPSE
  5
BF
100
AcDbEntity
  8
1
  6
CONTINUOUS
 62
     1
100
AcDbEllipse
 10
-0.004669
 20
0.000882
 30
0.0
 11
0.0073185421713632
 21
-0.000731875170693
 31
0.0
210
0.0
220
0.0
230
1.0
 40
0.07063
 41
3.1407147529760402
 42
5.4181099545465106
  0
ENDBLK
  5
C0
100
AcDbEntity
  8
1
  6
CONTINUOUS
 62
     1
100
AcDbBlockEnd
  0
ENDSEC
  0
SECTION
  2
ENTITIES
  0
LINE
  5
2B
100
AcDbEntity
  8
1
  6
CONTINUOUS
 62
     7
100
AcDbLine
 10
497.767417
 20
120.6345
 30
0.0
 11
493.767417
 21
120.6345
 31
0.0
  0
LINE
  5
2C
100
AcDbEntity
  8
1
  6
CONTINUOUS
 62
     7
100
AcDbLine
 10
495.767417
 20
124.098583
 30
0.0
 11
493.767417
 21
120.6345
 31
0.0
  0
LINE
  5
2D
100
AcDbEntity
  8
1
  6
CONTINUOUS
 62
     7
100
AcDbLine
 10
495.767417
 20
124.098583
 30
0.0
 11
497.767417
 21
120.6345
 31
0.0
  0
LINE
  5
2E
100
AcDbEntity
  8
1
  6
CONTINUOUS
 62
     7
100
AcDbLine
 10
497.515333
 20
125.97125
 30
0.0
 11
493.515333
 21
125.97125
 31
0.0
  0
LINE
  5
2F
100
AcDbEntity
  8
1
  6
CONTINUOUS
 62
     7
100
AcDbLine
 10
495.515333
 20
129.435333
 30
0.0
 11
493.515333
 21
125.97125
 31
0.0
  0
LINE
  5
30
100
AcDbEntity
  8
1
  6
CONTINUOUS
 62
     7
100
AcDbLine
 10
495.515333
 20
129.435333
 30
0.0
 11
497.515333
 21
125.97125
 31
0.0
  0
LINE
  5
31
100
AcDbEntity
  8
1
  6
CONTINUOUS
 62
     7
100
AcDbLine
 10
499.754
 20
41.87975
 30
0.0
 11
495.754
 21
41.87975
 31
0.0
  0
LINE
  5
32
100
AcDbEntity
  8
1
  6
CONTINUOUS
 62
     7
100
AcDbLine
 10
497.754
 20
45.343833
 30
0.0
 11
495.754
 21
41.87975
 31
0.0
  0
LINE
  5
33
100
AcDbEntity
  8
1
  6
CONTINUOUS
 62
     7
100
AcDbLine
 10
497.754
 20
45.343833
 30
0.0
 11
499.754
 21
41.87975
 31
0.0
  0
LINE
  5
34
100
AcDbEntity
  8
1
  6
CONTINUOUS
 62
     7
100
AcDbLine
 10
499.701
 20
37.138917
 30
0.0
 11
495.701
 21
37.138917
 31
0.0
  0
LINE
  5
35
100
AcDbEntity
  8
1
  6
CONTINUOUS
 62
     7
100
AcDbLine
 10
497.701
 20
40.603
 30
0.0
 11
495.701
 21
37.138917
 31
0.0
  0
LINE
  5
36
100
AcDbEntity
  8
1
  6
CONTINUOUS
 62
     7
100
AcDbLine
 10
497.701
 20
40.603
 30
0.0
 11
499.701
 21
37.138917
 31
0.0
  0
TEXT
  5
38
100
AcDbEntity
  8
1
  6
CONTINUOUS
 62
     7
100
AcDbText
 10
495.202167
 20
126.373
 30
0.0
 40
2.0
  1
1
  7
MONOTXT
210
0.0
220
0.0
230
1.0
100
AcDbText
  0
TEXT
  5
39
100
AcDbEntity
  8
1
  6
CONTINUOUS
 62
     7
100
AcDbText
 10
495.094083
 20
120.917833
 30
0.0
 40
2.0
  1
2
  7
MONOTXT
210
0.0
220
0.0
230
1.0
100
AcDbText
  0
TEXT
  5
3A
100
AcDbEntity
  8
1
  6
CONTINUOUS
 62
     7
100
AcDbText
 10
498.711667
 20
121.348333
 30
0.0
 40
2.0
  1
MODIFY SERVICE POLE AND CONTROL
  7
MONOTXT
 11
498.711667
 21
123.348333
 31
0.0
210
0.0
220
0.0
230
1.0
100
AcDbText
 73
     3
  0
TEXT
  5
3B
100
AcDbEntity
  8
1
  6
CONTINUOUS
 62
     7
100
AcDbText
 10
498.711667
 20
117.348333
 30
0.0
 40
2.0
  1
STATION DETAILS. CHANGE NOTE 3.
  7
MONOTXT
 11
498.711667
 21
119.348333
 31
0.0
210
0.0
220
0.0
230
1.0
100
AcDbText
 73
     3
  0
TEXT
  5
3C
100
AcDbEntity
  8
1
  6
CONTINUOUS
 62
     7
100
AcDbText
 10
498.441667
 20
126.697
 30
0.0
 40
2.0
  1
SIGNATURE BLOCK
  7
MONOTXT
210
0.0
220
0.0
230
1.0
100
AcDbText
  0
TEXT
  5
3D
100
AcDbEntity
  8
1
  6
CONTINUOUS
 62
     7
100
AcDbText
 10
497.442333
 20
42.280083
 30
0.0
 40
2.0
  1
1
  7
MONOTXT
210
0.0
220
0.0
230
1.0
100
AcDbText
  0
TEXT
  5
3E
100
AcDbEntity
  8
1
  6
CONTINUOUS
 62
     7
100
AcDbText
 10
496.993667
 20
37.45125
 30
0.0
 40
2.0
  1
2
  7
MONOTXT
210
0.0
220
0.0
230
1.0
100
AcDbText
  0
TEXT
  5
40
100
AcDbEntity
  8
1
  6
CONTINUOUS
 62
     7
100
AcDbText
 10
509.719167
 20
68.72325
 30
0.0
 40
5.5
  1
SERVICE POLE AND CONTROL STATION
  7
TXT
 72
     4
 11
584.039167
 21
71.47325
 31
0.0
210
0.0
220
0.0
230
1.0
100
AcDbText
  0
TEXT
  5
41
100
AcDbEntity
  8
1
  6
CONTINUOUS
 62
     7
100
AcDbText
 10
527.459167
 20
61.22325
 30
0.0
 40
5.5
  1
(POLE MOUNTED ENCLOSURE)
  7
TXT
 72
     4
 11
584.039167
 21
63.97325
 31
0.0
210
0.0
220
0.0
230
1.0
100
AcDbText
  0
LINE
  5
42
100
AcDbEntity
  8
1
  6
CONTINUOUS
 62
     4
100
AcDbLine
 10
104.341667
 20
398.923917
 30
0.0
 11
104.341667
 21
328.923917
 31
0.0
  0
LINE
  5
43
100
AcDbEntity
  8
1
  6
CONTINUOUS
 62
     4
100
AcDbLine
 10
114.341667
 20
400.923917
 30
0.0
 11
114.341667
 21
328.923917
 31
0.0
  0
LINE
  5
44
100
AcDbEntity
  8
1
  6
CONTINUOUS
 62
     4
100
AcDbLine
 10
114.341667
 20
400.923917
 30
0.0
 11
104.341667
 21
398.923917
 31
0.0
  0
ARC
  5
45
100
AcDbEntity
  8
1
  6
CONTINUOUS
 62
     4
100
AcDbCircle
 10
106.841667
 20
330.116209
 30
0.0
 40
2.769758
210
0.0
220
0.0
230
1.0
100
AcDbArc
 50
205.497267
 51
334.502733
  0
ARC
  5
46
100
AcDbEntity
  8
1
  6
CONTINUOUS
 62
     4
100
AcDbCircle
 10
111.841667
 20
330.116209
 30
0.0
 40
2.769758
210
0.0
220
0.0
230
1.0
100
AcDbArc
 50
205.497267
 51
334.502733
  0
ARC
  5
47
100
AcDbEntity
  8
1
  6
CONTINUOUS
 62
     4
100
AcDbCircle
 10
111.841667
 20
327.731624
 30
0.0
 40
2.769758
210
0.0
220
0.0
230
1.0
100
AcDbArc
 50
25.497267
 51
154.502733
  0
LINE
  5
48
100
AcDbEntity
  8
1
  6
CONTINUOUS
 62
     4
100
AcDbLine
 10
119.341667
 20
348.923917
 30
0.0
 11
119.341667
 21
328.923917
 31
0.0
  0
ARC
  5
49
100
AcDbEntity
  8
1
  6
CONTINUOUS
 62
     4
100
AcDbCircle
 10
115.591667
 20
329.579887
 30
0.0
 40
1.411665
210
0.0
220
0.0
230
1.0
100
AcDbArc
 50
207.689433
 51
332.310567
  0
ARC
  5
4A
100
AcDbEntity
  8
1
  6
CONTINUOUS
 62
     4
100
AcDbCircle
 10
118.091667
 20
329.579887
 30
0.0
 40
1.411665
210
0.0
220
0.0
230
1.0
100
AcDbArc
 50
207.689433
 51
332.310567
  0
ARC
  5
4B
100
AcDbEntity
  8
1
  6
CONTINUOUS
 62
     4
100
AcDbCircle
 10
118.091667
 20
328.267946
 30
0.0
 40
1.411665
210
0.0
220
0.0
230
1.0
100
AcDbArc
 50
27.689433
 51
152.310567
  0
LINE
  5
4C
100
AcDbEntity
  8
1
  6
CONTINUOUS
 62
     4
100
AcDbLine
 10
119.341667
 20
348.923917
 30
0.0
 11
114.341667
 21
348.923917
 31
0.0
  0
LINE
  5
4D
100
AcDbEntity
  8
1
  6
CONTINUOUS
 62
     4
100
AcDbLine
 10
119.341667
 20
347.923917
 30
0.0
 11
114.341667
 21
347.923917
 31
0.0
  0
LINE
  5
4E
100
AcDbEntity
  8
1
  6
CONTINUOUS
 62
     4
100
AcDbLine
 10
113.841667
 20
347.673917
 30
0.0
 11
104.841667
 21
347.673917
 31
0.0
  0
LINE
  5
4F
100
AcDbEntity
  8
1
  6
CONTINUOUS
 62
     4
100
AcDbLine
 10
107.841667
 20
374.173917
 30
0.0
 11
104.841667
 21
374.173917
 31
0.0
  0
LINE
  5
50
100
AcDbEntity
  8
1
  6
CONTINUOUS
 62
     4
100
AcDbLine
 10
113.841667
 20
374.173917
 30
0.0
 11
110.841667
 21
374.173917
 31
0.0
  0
LINE
  5
51
100
AcDbEntity
  8
1
  6
CONTINUOUS
 62
     4
100
AcDbLine
 10
109.841667
 20
374.173917
 30
0.0
 11
108.841667
 21
374.173917
 31
0.0
  0
LINE
  5
52
100
AcDbEntity
  8
1
  6
CONTINUOUS
 62
     4
100
AcDbLine
 10
125.341667
 20
350.423917
 30
0.0
 11
121.341667
 21
346.923917
 31
0.0
  0
LINE
  5
53
100
AcDbEntity
  8
1
  6
CONTINUOUS
 62
     4
100
AcDbLine
 10
119.341667
 20
348.923917
 30
0.0
 11
121.341667
 21
346.923917
 31
0.0
  0
LINE
  5
54
100
AcDbEntity
  8
1
  6
CONTINUOUS
 62
     4
100
AcDbLine
 10
123.341667
 20
352.423917
 30
0.0
 11
125.341667
 21
350.423917
 31
0.0
  0
ARC
  5
55
100
AcDbEntity
  8
1
  6
CONTINUOUS
 62
     4
100
AcDbCircle
 10
119.703097
 20
348.458811
 30
0.0
 40
5.381566
210
0.0
220
0.0
230
1.0
100
AcDbArc
 50
47.459022
 51
175.041986
  0
LINE
  5
56
100
AcDbEntity
  8
1
  6
CONTINUOUS
 62
     4
100
AcDbLine
 10
124.341667
 20
347.673917
 30
0.0
 11
136.341667
 21
347.673917
 31
0.0
  0
LINE
  5
57
100
AcDbEntity
  8
1
  6
CONTINUOUS
 62
     4
100
AcDbLine
 10
130.341667
 20
332.673917
 30
0.0
 11
130.341667
 21
347.673917
 31
0.0
  0
LINE
  5
58
100
AcDbEntity
  8
1
  6
CONTINUOUS
 62
     4
100
AcDbLine
 10
114.341667
 20
398.423917
 30
0.0
 11
116.091667
 21
398.423917
 31
0.0
  0
LINE
  5
59
100
AcDbEntity
  8
1
  6
CONTINUOUS
 62
     4
100
AcDbLine
 10
116.091667
 20
402.173917
 30
0.0
 11
116.091667
 21
398.173917
 31
0.0
  0
LINE
  5
5A
100
AcDbEntity
  8
1
  6
CONTINUOUS
 62
     4
100
AcDbLine
 10
120.091667
 20
402.173917
 30
0.0
 11
120.091667
 21
398.173917
 31
0.0
  0
LINE
  5
5B
100
AcDbEntity
  8
1
  6
CONTINUOUS
 62
     4
100
AcDbLine
 10
116.091667
 20
402.173917
 30
0.0
 11
120.091667
 21
402.173917
 31
0.0
  0
LINE
  5
5C
100
AcDbEntity
  8
1
  6
CONTINUOUS
 62
     4
100
AcDbLine
 10
116.091667
 20
398.173917
 30
0.0
 11
120.091667
 21
398.173917
 31
0.0
  0
LINE
  5
5D
100
AcDbEntity
  8
1
  6
CONTINUOUS
 62
     4
100
AcDbLine
 10
114.341667
 20
393.423917
 30
0.0
 11
119.841667
 21
393.423917
 31
0.0
  0
LINE
  5
5E
100
AcDbEntity
  8
1
  6
CONTINUOUS
 62
     4
100
AcDbLine
 10
119.841667
 20
393.423917
 30
0.0
 11
119.841667
 21
392.423917
 31
0.0
  0
LINE
  5
5F
100
AcDbEntity
  8
1
  6
CONTINUOUS
 62
     4
100
AcDbLine
 10
119.841667
 20
392.423917
 30
0.0
 11
115.591667
 21
392.423917
 31
0.0
  0
LINE
  5
60
100
AcDbEntity
  8
1
  6
CONTINUOUS
 62
     4
100
AcDbLine
 10
115.591667
 20
392.423917
 30
0.0
 11
115.591667
 21
387.423917
 31
0.0
  0
LINE
  5
61
100
AcDbEntity
  8
1
  6
CONTINUOUS
 62
     4
100
AcDbLine
 10
115.591667
 20
387.423917
 30
0.0
 11
119.841667
 21
387.423917
 31
0.0
  0
LINE
  5
62
100
AcDbEntity
  8
1
  6
CONTINUOUS
 62
     4
100
AcDbLine
 10
119.841667
 20
387.423917
 30
0.0
 11
119.841667
 21
386.423917
 31
0.0
  0
LINE
  5
63
100
AcDbEntity
  8
1
  6
CONTINUOUS
 62
     4
100
AcDbLine
 10
119.841667
 20
386.423917
 30
0.0
 11
115.591667
 21
386.423917
 31
0.0
  0
LINE
  5
64
100
AcDbEntity
  8
1
  6
CONTINUOUS
 62
     4
100
AcDbLine
 10
115.591667
 20
386.423917
 30
0.0
 11
115.591667
 21
378.923917
 31
0.0
  0
LINE
  5
65
100
AcDbEntity
  8
1
  6
CONTINUOUS
 62
     4
100
AcDbLine
 10
115.591667
 20
378.923917
 30
0.0
 11
119.841667
 21
378.923917
 31
0.0
  0
LINE
  5
66
100
AcDbEntity
  8
1
  6
CONTINUOUS
 62
     4
100
AcDbLine
 10
119.841667
 20
378.923917
 30
0.0
 11
119.841667
 21
377.923917
 31
0.0
  0
LINE
  5
67
100
AcDbEntity
  8
1
  6
CONTINUOUS
 62
     4
100
AcDbLine
 10
119.841667
 20
377.923917
 30
0.0
 11
115.591667
 21
377.923917
 31
0.0
  0
LINE
  5
68
100
AcDbEntity
  8
1
  6
CONTINUOUS
 62
     4
100
AcDbLine
 10
115.591667
 20
377.923917
 30
0.0
 11
115.591667
 21
371.923917
 31
0.0
  0
LINE
  5
69
100
AcDbEntity
  8
1
  6
CONTINUOUS
 62
     4
100
AcDbLine
 10
115.591667
 20
371.923917
 30
0.0
 11
119.841667
 21
371.923917
 31
0.0
  0
LINE
  5
6A
100
AcDbEntity
  8
1
  6
CONTINUOUS
 62
     4
100
AcDbLine
 10
119.841667
 20
371.923917
 30
0.0
 11
119.841667
 21
370.923917
 31
0.0
  0
LINE
  5
6B
100
AcDbEntity
  8
1
  6
CONTINUOUS
 62
     4
100
AcDbLine
 10
119.841667
 20
370.923917
 30
0.0
 11
114.341667
 21
370.923917
 31
0.0
  0
LINE
  5
6C
100
AcDbEntity
  8
1
  6
CONTINUOUS
 62
     4
100
AcDbLine
 10
119.341667
 20
391.673917
 30
0.0
 11
115.591667
 21
391.673917
 31
0.0
  0
LINE
  5
6D
100
AcDbEntity
  8
1
  6
CONTINUOUS
 62
     4
100
AcDbLine
 10
115.591667
 20
388.173917
 30
0.0
 11
119.341667
 21
388.173917
 31
0.0
  0
LINE
  5
6E
100
AcDbEntity
  8
1
  6
CONTINUOUS
 62
     4
100
AcDbLine
 10
119.341667
 20
385.673917
 30
0.0
 11
115.591667
 21
385.673917
 31
0.0
  0
LINE
  5
6F
100
AcDbEntity
  8
1
  6
CONTINUOUS
 62
     4
100
AcDbLine
 10
115.591667
 20
379.673917
 30
0.0
 11
119.341667
 21
379.673917
 31
0.0
  0
LINE
  5
70
100
AcDbEntity
  8
1
  6
CONTINUOUS
 62
     4
100
AcDbLine
 10
119.341667
 20
377.173917
 30
0.0
 11
115.591667
 21
377.173917
 31
0.0
  0
LINE
  5
71
100
AcDbEntity
  8
1
  6
CONTINUOUS
 62
     4
100
AcDbLine
 10
115.591667
 20
372.673917
 30
0.0
 11
119.341667
 21
372.673917
 31
0.0
  0
LINE
  5
72
100
AcDbEntity
  8
1
  6
CONTINUOUS
 62
     4
100
AcDbLine
 10
119.341667
 20
391.673917
 30
0.0
 11
119.341667
 21
392.423917
 31
0.0
  0
LINE
  5
73
100
AcDbEntity
  8
1
  6
CONTINUOUS
 62
     4
100
AcDbLine
 10
119.341667
 20
388.173917
 30
0.0
 11
119.341667
 21
387.423917
 31
0.0
  0
LINE
  5
74
100
AcDbEntity
  8
1
  6
CONTINUOUS
 62
     4
100
AcDbLine
 10
119.341667
 20
385.673917
 30
0.0
 11
119.341667
 21
386.423917
 31
0.0
  0
LINE
  5
75
100
AcDbEntity
  8
1
  6
CONTINUOUS
 62
     4
100
AcDbLine
 10
119.341667
 20
379.673917
 30
0.0
 11
119.341667
 21
378.923917
 31
0.0
  0
LINE
  5
76
100
AcDbEntity
  8
1
  6
CONTINUOUS
 62
     4
100
AcDbLine
 10
119.341667
 20
377.173917
 30
0.0
 11
119.341667
 21
377.923917
 31
0.0
  0
LINE
  5
77
100
AcDbEntity
  8
1
  6
CONTINUOUS
 62
     4
100
AcDbLine
 10
119.341667
 20
372.673917
 30
0.0
 11
119.341667
 21
371.923917
 31
0.0
  0
ARC
  5
78
100
AcDbEntity
  8
1
  6
CONTINUOUS
 62
     4
100
AcDbCircle
 10
112.309391
 20
389.923917
 30
0.0
 40
3.719655
210
0.0
220
0.0
230
1.0
100
AcDbArc
 50
331.934944
 51
28.065056
  0
ARC
  5
79
100
AcDbEntity
  8
1
  6
CONTINUOUS
 62
     4
100
AcDbCircle
 10
122.623942
 20
389.923917
 30
0.0
 40
3.719655
210
0.0
220
0.0
230
1.0
100
AcDbArc
 50
151.934944
 51
208.065056
  0
ARC
  5
7A
100
AcDbEntity
  8
1
  6
CONTINUOUS
 62
     4
100
AcDbCircle
 10
109.50979
 20
382.673917
 30
0.0
 40
6.781535
210
0.0
220
0.0
230
1.0
100
AcDbArc
 50
333.744317
 51
26.255689
  0
ARC
  5
7B
100
AcDbEntity
  8
1
  6
CONTINUOUS
 62
     4
100
AcDbCircle
 10
125.423543
 20
382.673917
 30
0.0
 40
6.781535
210
0.0
220
0.0
230
1.0
100
AcDbArc
 50
153.744311
 51
206.255683
  0
ARC
  5
7C
100
AcDbEntity
  8
1
  6
CONTINUOUS
 62
     4
100
AcDbCircle
 10
111.503347
 20
374.923917
 30
0.0
 40
4.666568
210
0.0
220
0.0
230
1.0
100
AcDbArc
 50
331.173881
 51
28.826117
  0
ARC
  5
7D
100
AcDbEntity
  8
1
  6
CONTINUOUS
 62
     4
100
AcDbCircle
 10
123.429986
 20
374.923917
 30
0.0
 40
4.666568
210
0.0
220
0.0
230
1.0
100
AcDbArc
 50
151.173883
 51
208.826119
  0
LINE
  5
7E
100
AcDbEntity
  8
1
  6
CONTINUOUS
 62
     4
100
AcDbLine
 10
119.120583
 20
391.173917
 30
0.0
 11
115.81275
 21
391.173917
 31
0.0
  0
LINE
  5
7F
100
AcDbEntity
  8
1
  6
CONTINUOUS
 62
     4
100
AcDbLine
 10
115.81275
 20
388.673917
 30
0.0
 11
119.120583
 21
388.673917
 31
0.0
  0
LINE
  5
80
100
AcDbEntity
  8
1
  6
CONTINUOUS
 62
     4
100
AcDbLine
 10
119.119667
 20
385.173917
 30
0.0
 11
115.813667
 21
385.173917
 31
0.0
  0
LINE
  5
81
100
AcDbEntity
  8
1
  6
CONTINUOUS
 62
     4
100
AcDbLine
 10
115.813667
 20
380.173917
 30
0.0
 11
119.119667
 21
380.173917
 31
0.0
  0
LINE
  5
82
100
AcDbEntity
  8
1
  6
CONTINUOUS
 62
     4
100
AcDbLine
 10
119.104
 20
376.673917
 30
0.0
 11
115.829333
 21
376.673917
 31
0.0
  0
LINE
  5
83
100
AcDbEntity
  8
1
  6
CONTINUOUS
 62
     4
100
AcDbLine
 10
115.829333
 20
373.173917
 30
0.0
 11
119.104
 21
373.173917
 31
0.0
  0
CIRCLE
  5
84
100
AcDbEntity
  8
1
  6
CONTINUOUS
 62
     4
100
AcDbCircle
 10
122.831417
 20
389.564167
 30
0.0
 40
0.5
210
0.0
220
0.0
230
1.0
  0
CIRCLE
  5
85
100
AcDbEntity
  8
1
  6
CONTINUOUS
 62
     4
100
AcDbCircle
 10
122.831417
 20
382.318667
 30
0.0
 40
0.5
210
0.0
220
0.0
230
1.0
  0
CIRCLE
  5
86
100
AcDbEntity
  8
1
  6
CONTINUOUS
 62
     4
100
AcDbCircle
 10
122.801333
 20
374.562
 30
0.0
 40
0.5
210
0.0
220
0.0
230
1.0
  0
LWPOLYLINE
  5
87
100
AcDbEntity
  8
1
  6
CONTINUOUS
 62
     4
100
AcDbPolyline
 90
       90
 70
     0
 10
115.779083
 20
389.923917
 10
115.868083
 20
389.916917
 10
115.936333
 20
389.916917
 10
116.004583
 20
389.909333
 10
116.050083
 20
389.909333
 10
116.10325
 20
389.909333
 10
116.156333
 20
389.909333
 10
116.217
 20
389.916917
 10
116.338333
 20
389.939667
 10
116.361083
 20
389.932083
 10
116.399
 20
389.916917
 10
116.436917
 20
389.9245
 10
116.459667
 20
389.916917
 10
116.581
 20
389.916917
 10
116.649333
 20
389.85625
 10
116.64175
 20
389.848667
 10
116.672083
 20
389.871417
 10
116.73275
 20
389.848667
 10
116.793417
 20
389.848667
 10
116.854083
 20
389.879
 10
116.861667
 20
389.886583
 10
116.922333
 20
389.90175
 10
116.952667
 20
389.886583
 10
116.990583
 20
389.863833
 10
117.020917
 20
389.85625
 10
117.172667
 20
389.841083
 10
117.22575
 20
389.85625
 10
117.331917
 20
389.8335
 10
117.36225
 20
389.863833
 10
117.422917
 20
389.863833
 10
117.536667
 20
389.825917
 10
117.551833
 20
389.825917
 10
117.605
 20
389.825917
 10
117.8325
 20
389.848667
 10
117.840083
 20
389.848667
 10
117.893167
 20
389.8335
 10
118.022083
 20
389.81075
 10
118.1435
 20
389.818333
 10
118.2345
 20
389.818333
 10
118.317917
 20
389.825917
 10
118.39375
 20
389.8335
 10
118.454417
 20
389.803167
 10
118.56825
 20
389.7955
 10
118.591
 20
389.75
 10
118.674417
 20
389.742417
 10
118.8185
 20
389.734833
 10
118.856417
 20
389.75
 10
118.947417
 20
389.780333
 10
119.068833
 20
389.803167
 10
119.144667
 20
389.765167
 10
119.15225
 20
389.765167
 10
119.175
 20
389.719667
 10
119.394917
 20
389.77275
 10
119.417667
 20
389.75
 10
119.448
 20
389.742417
 10
119.577
 20
389.742417
 10
119.59975
 20
389.734833
 10
119.705917
 20
389.757583
 10
119.751417
 20
389.75
 10
119.819667
 20
389.734833
 10
119.857583
 20
389.75
 10
119.941
 20
389.742417
 10
120.039667
 20
389.75
 10
120.153417
 20
389.742417
 10
120.214083
 20
389.712083
 10
120.252
 20
389.674167
 10
120.259583
 20
389.666583
 10
120.3885
 20
389.68175
 10
120.441583
 20
389.674167
 10
120.563
 20
389.674167
 10
120.616083
 20
389.659
 10
120.714667
 20
389.666583
 10
120.980083
 20
389.666583
 10
121.018083
 20
389.666583
 10
121.086333
 20
389.674167
 10
121.177333
 20
389.666583
 10
121.21525
 20
389.643833
 10
121.291083
 20
389.63625
 10
121.412417
 20
389.605833
 10
121.52625
 20
389.628667
 10
121.57175
 20
389.63625
 10
121.6855
 20
389.628667
 10
121.768917
 20
389.613417
 10
121.79925
 20
389.5755
 10
121.897833
 20
389.583083
 10
122.042
 20
389.583083
 10
122.148167
 20
389.5755
 10
122.193667
 20
389.59825
 10
122.299833
 20
389.590667
 10
122.375667
 20
389.613417
  0
LWPOLYLINE
  5
88
100
AcDbEntity
  8
1
  6
CONTINUOUS
 62
     4
100
AcDbPolyline
 90
       90
 70
     0
 10
115.3835
 20
382.673333
 10
115.4725
 20
382.666333
 10
115.54075
 20
382.666333
 10
115.609
 20
382.65875
 10
115.6545
 20
382.65875
 10
115.707667
 20
382.65875
 10
115.76075
 20
382.65875
 10
115.821417
 20
382.666333
 10
115.94275
 20
382.689083
 10
115.9655
 20
382.6815
 10
116.003417
 20
382.666333
 10
116.041333
 20
382.673917
 10
116.064083
 20
382.666333
 10
116.185417
 20
382.666333
 10
116.25375
 20
382.605667
 10
116.246167
 20
382.598083
 10
116.2765
 20
382.620833
 10
116.337167
 20
382.598083
 10
116.397833
 20
382.598083
 10
116.4585
 20
382.628417
 10
116.466083
 20
382.636
 10
116.52675
 20
382.651167
 10
116.557083
 20
382.636
 10
116.595
 20
382.61325
 10
116.625333
 20
382.605667
 10
116.777083
 20
382.5905
 10
116.830167
 20
382.605667
 10
116.936333
 20
382.582917
 10
116.966667
 20
382.61325
 10
117.027333
 20
382.61325
 10
117.141083
 20
382.575333
 10
117.15625
 20
382.575333
 10
117.209417
 20
382.575333
 10
117.436917
 20
382.598083
 10
117.4445
 20
382.598083
 10
117.497583
 20
382.582917
 10
117.6265
 20
382.560167
 10
117.747917
 20
382.56775
 10
117.838917
 20
382.56775
 10
117.922333
 20
382.575333
 10
117.998167
 20
382.582917
 10
118.058833
 20
382.552583
 10
118.172667
 20
382.544917
 10
118.195417
 20
382.499417
 10
118.278833
 20
382.491833
 10
118.422917
 20
382.48425
 10
118.460833
 20
382.499417
 10
118.551833
 20
382.52975
 10
118.67325
 20
382.552583
 10
118.749083
 20
382.514583
 10
118.756667
 20
382.514583
 10
118.779417
 20
382.469083
 10
118.999333
 20
382.522167
 10
119.022083
 20
382.499417
 10
119.052417
 20
382.491833
 10
119.181417
 20
382.491833
 10
119.204167
 20
382.48425
 10
119.310333
 20
382.507
 10
119.355833
 20
382.499417
 10
119.424083
 20
382.48425
 10
119.462
 20
382.499417
 10
119.545417
 20
382.491833
 10
119.644083
 20
382.499417
 10
119.757833
 20
382.491833
 10
119.8185
 20
382.4615
 10
119.856417
 20
382.423583
 10
119.864
 20
382.416
 10
119.992917
 20
382.431167
 10
120.046
 20
382.423583
 10
120.167417
 20
382.423583
 10
120.2205
 20
382.408417
 10
120.319083
 20
382.416
 10
120.5845
 20
382.416
 10
120.6225
 20
382.416
 10
120.69075
 20
382.423583
 10
120.78175
 20
382.416
 10
120.819667
 20
382.39325
 10
120.8955
 20
382.385667
 10
121.016833
 20
382.35525
 10
121.130667
 20
382.378083
 10
121.176167
 20
382.385667
 10
121.289917
 20
382.378083
 10
121.373333
 20
382.362833
 10
121.403667
 20
382.324917
 10
121.50225
 20
382.3325
 10
121.646417
 20
382.3325
 10
121.752583
 20
382.324917
 10
121.798083
 20
382.347667
 10
121.90425
 20
382.340083
 10
121.980083
 20
382.362833
  0
LWPOLYLINE
  5
89
100
AcDbEntity
  8
1
  6
CONTINUOUS
 62
     4
100
AcDbPolyline
 90
        5
 70
     0
 10
121.980083
 20
382.362833
 10
122.173667
 20
382.352333
 10
122.243833
 20
382.33475
 10
122.2965
 20
382.326
 10
122.401833
 20
382.3435
  0
LWPOLYLINE
  5
8A
100
AcDbEntity
  8
1
  6
CONTINUOUS
 62
     4
100
AcDbPolyline
 90
       90
 70
     0
 10
115.919917
 20
374.923917
 10
116.008917
 20
374.916917
 10
116.077167
 20
374.916917
 10
116.145417
 20
374.909333
 10
116.190917
 20
374.909333
 10
116.244083
 20
374.909333
 10
116.297167
 20
374.909333
 10
116.357833
 20
374.916917
 10
116.479167
 20
374.939667
 10
116.501917
 20
374.932083
 10
116.539833
 20
374.916917
 10
116.57775
 20
374.9245
 10
116.6005
 20
374.916917
 10
116.721833
 20
374.916917
 10
116.790167
 20
374.85625
 10
116.782583
 20
374.848667
 10
116.812917
 20
374.871417
 10
116.873583
 20
374.848667
 10
116.93425
 20
374.848667
 10
116.994917
 20
374.879
 10
117.0025
 20
374.886583
 10
117.063167
 20
374.90175
 10
117.0935
 20
374.886583
 10
117.131417
 20
374.863833
 10
117.16175
 20
374.85625
 10
117.3135
 20
374.841083
 10
117.366583
 20
374.85625
 10
117.47275
 20
374.8335
 10
117.503083
 20
374.863833
 10
117.56375
 20
374.863833
 10
117.6775
 20
374.825917
 10
117.692667
 20
374.825917
 10
117.745833
 20
374.825917
 10
117.973333
 20
374.848667
 10
117.980917
 20
374.848667
 10
118.034
 20
374.8335
 10
118.162917
 20
374.81075
 10
118.284333
 20
374.818333
 10
118.375333
 20
374.818333
 10
118.45875
 20
374.825917
 10
118.534583
 20
374.8335
 10
118.59525
 20
374.803167
 10
118.709083
 20
374.7955
 10
118.731833
 20
374.75
 10
118.81525
 20
374.742417
 10
118.959333
 20
374.734833
 10
118.99725
 20
374.75
 10
119.08825
 20
374.780333
 10
119.209667
 20
374.803167
 10
119.2855
 20
374.765167
 10
119.293083
 20
374.765167
 10
119.315833
 20
374.719667
 10
119.53575
 20
374.77275
 10
119.5585
 20
374.75
 10
119.588833
 20
374.742417
 10
119.717833
 20
374.742417
 10
119.740583
 20
374.734833
 10
119.84675
 20
374.757583
 10
119.89225
 20
374.75
 10
119.9605
 20
374.734833
 10
119.998417
 20
374.75
 10
120.081833
 20
374.742417
 10
120.1805
 20
374.75
 10
120.29425
 20
374.742417
 10
120.354917
 20
374.712083
 10
120.392833
 20
374.674167
 10
120.400417
 20
374.666583
 10
120.529333
 20
374.68175
 10
120.582417
 20
374.674167
 10
120.703833
 20
374.674167
 10
120.756917
 20
374.659
 10
120.8555
 20
374.666583
 10
121.120917
 20
374.666583
 10
121.158917
 20
374.666583
 10
121.227167
 20
374.674167
 10
121.318167
 20
374.666583
 10
121.356083
 20
374.643833
 10
121.431917
 20
374.63625
 10
121.55325
 20
374.605833
 10
121.667083
 20
374.628667
 10
121.712583
 20
374.63625
 10
121.826333
 20
374.628667
 10
121.90975
 20
374.613417
 10
121.940083
 20
374.5755
 10
122.038667
 20
374.583083
 10
122.182833
 20
374.583083
 10
122.289
 20
374.5755
 10
122.3345
 20
374.59825
 10
122.440667
 20
374.590667
 10
122.5165
 20
374.613417
  0
LINE
  5
8B
100
AcDbEntity
  8
1
  6
CONTINUOUS
 62
     4
100
AcDbLine
 10
123.331417
 20
389.569167
 30
0.0
 11
163.772833
 21
387.449833
 31
0.0
  0
POLYLINE
  5
8C
100
AcDbEntity
  8
1
  6
CONTINUOUS
 62
     4
100
AcDb2dPolyline
 66
     1
 10
0.0
 20
0.0
 30
0.0
 70
     1
  0
VERTEX
  5
8D
100
AcDbEntity
  8
1
  6
CONTINUOUS
 62
     4
100
AcDbVertex
100
AcDb2dVertex
 10
132.319
 20
390.098167
 30
0.0
  0
VERTEX
  5
8E
100
AcDbEntity
  8
1
  6
CONTINUOUS
 62
     4
100
AcDbVertex
100
AcDb2dVertex
 10
134.319
 20
390.098167
 30
0.0
  0
VERTEX
  5
8F
100
AcDbEntity
  8
1
  6
CONTINUOUS
 62
     4
100
AcDbVertex
100
AcDb2dVertex
 10
134.319
 20
388.098167
 30
0.0
  0
VERTEX
  5
90
100
AcDbEntity
  8
1
  6
CONTINUOUS
 62
     4
100
AcDbVertex
100
AcDb2dVertex
 10
132.319
 20
388.098167
 30
0.0
  0
VERTEX
  5
91
100
AcDbEntity
  8
1
  6
CONTINUOUS
 62
     4
100
AcDbVertex
100
AcDb2dVertex
 10
132.319
 20
390.098167
 30
0.0
  0
SEQEND
  5
92
100
AcDbEntity
  8
1
  6
CONTINUOUS
 62
     4
  0
POLYLINE
  5
93
100
AcDbEntity
  8
1
  6
CONTINUOUS
 62
     4
100
AcDb2dPolyline
 66
     1
 10
0.0
 20
0.0
 30
0.0
 70
     1
  0
VERTEX
  5
94
100
AcDbEntity
  8
1
  6
CONTINUOUS
 62
     4
100
AcDbVertex
100
AcDb2dVertex
 10
141.774
 20
374.550083
 30
0.0
  0
VERTEX
  5
95
100
AcDbEntity
  8
1
  6
CONTINUOUS
 62
     4
100
AcDbVertex
100
AcDb2dVertex
 10
143.774
 20
374.550083
 30
0.0
  0
VERTEX
  5
96
100
AcDbEntity
  8
1
  6
CONTINUOUS
 62
     4
100
AcDbVertex
100
AcDb2dVertex
 10
143.774
 20
372.550083
 30
0.0
  0
VERTEX
  5
97
100
AcDbEntity
  8
1
  6
CONTINUOUS
 62
     4
100
AcDbVertex
100
AcDb2dVertex
 10
141.774
 20
372.550083
 30
0.0
  0
VERTEX
  5
98
100
AcDbEntity
  8
1
  6
CONTINUOUS
 62
     4
100
AcDbVertex
100
AcDb2dVertex
 10
141.774
 20
374.550083
 30
0.0
  0
SEQEND
  5
99
100
AcDbEntity
  8
1
  6
CONTINUOUS
 62
     4
  0
POLYLINE
  5
9A
100
AcDbEntity
  8
1
  6
CONTINUOUS
 62
     4
100
AcDb2dPolyline
 66
     1
 10
0.0
 20
0.0
 30
0.0
 70
     1
  0
VERTEX
  5
9B
100
AcDbEntity
  8
1
  6
CONTINUOUS
 62
     4
100
AcDbVertex
100
AcDb2dVertex
 10
137.061333
 20
382.565167
 30
0.0
  0
VERTEX
  5
9C
100
AcDbEntity
  8
1
  6
CONTINUOUS
 62
     4
100
AcDbVertex
100
AcDb2dVertex
 10
139.061333
 20
382.565167
 30
0.0
  0
VERTEX
  5
9D
100
AcDbEntity
  8
1
  6
CONTINUOUS
 62
     4
100
AcDbVertex
100
AcDb2dVertex
 10
139.061333
 20
380.565167
 30
0.0
  0
VERTEX
  5
9E
100
AcDbEntity
  8
1
  6
CONTINUOUS
 62
     4
100
AcDbVertex
100
AcDb2dVertex
 10
137.061333
 20
380.565167
 30
0.0
  0
VERTEX
  5
9F
100
AcDbEntity
  8
1
  6
CONTINUOUS
 62
     4
100
AcDbVertex
100
AcDb2dVertex
 10
137.061333
 20
382.565167
 30
0.0
  0
SEQEND
  5
A0
100
AcDbEntity
  8
1
  6
CONTINUOUS
 62
     4
  0
LINE
  5
A1
100
AcDbEntity
  8
1
  6
CONTINUOUS
 62
     4
100
AcDbLine
 10
112.341667
 20
394.923917
 30
0.0
 11
112.341667
 21
376.923917
 31
0.0
  0
ARC
  5
A2
100
AcDbEntity
  8
1
  6
CONTINUOUS
 62
     4
100
AcDbCircle
 10
111.831293
 20
400.370972
 30
0.0
 40
5.470914
210
0.0
220
0.0
230
1.0
100
AcDbArc
 50
275.352822
 51
336.322483
  0
ARC
  5
A3
100
AcDbEntity
  8
1
  6
CONTINUOUS
 62
     4
100
AcDbCircle
 10
140.86318
 20
390.913943
 30
0.0
 40
25.094627
210
0.0
220
0.0
230
1.0
100
AcDbArc
 50
163.183714
 51
211.999731
  0
ARC
  5
A4
100
AcDbEntity
  8
1
  6
CONTINUOUS
 62
     4
100
AcDbCircle
 10
113.044588
 20
382.149168
 30
0.0
 40
9.819391
210
0.0
220
0.0
230
1.0
100
AcDbArc
 50
331.258975
 51
358.403436
  0
ARC
  5
A5
100
AcDbEntity
  8
1
  6
CONTINUOUS
 62
     4
100
AcDbCircle
 10
120.691113
 20
378.326407
 30
0.0
 40
1.317447
210
0.0
220
0.0
230
1.0
100
AcDbArc
 50
212.635525
 51
316.975622
  0
ARC
  5
A6
100
AcDbEntity
  8
1
  6
CONTINUOUS
 62
     4
100
AcDbCircle
 10
133.837883
 20
384.911051
 30
0.0
 40
22.932109
210
0.0
220
0.0
230
1.0
100
AcDbArc
 50
200.383053
 51
225.614103
  0
ARC
  5
A7
100
AcDbEntity
  8
1
  6
CONTINUOUS
 62
     4
100
AcDbCircle
 10
108.375867
 20
373.16472
 30
0.0
 40
14.472251
210
0.0
220
0.0
230
1.0
100
AcDbArc
 50
343.687875
 51
3.629989
  0
ARC
  5
A8
100
AcDbEntity
  8
1
  6
CONTINUOUS
 62
     4
100
AcDbCircle
 10
137.125189
 20
393.750692
 30
0.0
 40
19.054038
210
0.0
220
0.0
230
1.0
100
AcDbArc
 50
166.576842
 51
205.987889
  0
ARC
  5
A9
100
AcDbEntity
  8
1
  6
CONTINUOUS
 62
     4
100
AcDbCircle
 10
115.503742
 20
388.037179
 30
0.0
 40
7.389874
210
0.0
220
0.0
230
1.0
100
AcDbArc
 50
338.284317
 51
8.162625
  0
ELLIPSE
  5
AA
100
AcDbEntity
  8
1
  6
CONTINUOUS
 62
     4
100
AcDbEllipse
 10
129.779792
 20
347.463542
 30
0.0
 11
-0.3861476270689929
 21
14.797732485957058
 31
0.0
210
0.0
220
0.0
230
1.0
 40
0.544805
 41
1.5707963267948966
 42
4.1650300680516299
  0
ARC
  5
AB
100
AcDbEntity
  8
1
  6
CONTINUOUS
 62
     4
100
AcDbCircle
 10
11.494147
 20
367.091719
 30
0.0
 40
128.276735
210
0.0
220
0.0
230
1.0
100
AcDbArc
 50
347.780925
 51
6.029139
  0
ARC
  5
AC
100
AcDbEntity
  8
1
  6
CONTINUOUS
 62
     4
100
AcDbCircle
 10
-49.495589
 20
354.235186
 30
0.0
 40
186.907744
210
0.0
220
0.0
230
1.0
100
AcDbArc
 50
355.614178
 51
10.438197
  0
LINE
  5
AD
100
AcDbEntity
  8
1
  6
CONTINUOUS
 62
     4
100
AcDbLine
 10
123.33025
 20
382.28475
 30
0.0
 11
134.672917
 21
381.690333
 31
0.0
  0
LINE
  5
AE
100
AcDbEntity
  8
1
  6
CONTINUOUS
 62
     4
100
AcDbLine
 10
135.922083
 20
381.624833
 30
0.0
 11
162.274833
 21
380.243833
 31
0.0
  0
LINE
  5
AF
100
AcDbEntity
  8
1
  6
CONTINUOUS
 62
     4
100
AcDbLine
 10
123.299417
 20
374.51825
 30
0.0
 11
135.644667
 21
373.871333
 31
0.0
  0
LINE
  5
B0
100
AcDbEntity
  8
1
  6
CONTINUOUS
 62
     4
100
AcDbLine
 10
136.994417
 20
373.800583
 30
0.0
 11
138.84675
 21
373.7035
 31
0.0
  0
LINE
  5
B1
100
AcDbEntity
  8
1
  6
CONTINUOUS
 62
     4
100
AcDbLine
 10
140.153583
 20
373.635
 30
0.0
 11
162.249417
 21
372.477083
 31
0.0
  0
ARC
  5
B2
100
AcDbEntity
  8
1
  6
CONTINUOUS
 62
     4
100
AcDbCircle
 10
130.21636
 20
339.984765
 30
0.0
 40
7.311922
210
0.0
220
0.0
230
1.0
100
AcDbArc
 50
270.98195
 51
333.073517
  0
ARC
  5
B3
100
AcDbEntity
  8
1
  6
CONTINUOUS
 62
     4
100
AcDbCircle
 10
-744.561708
 20
452.114195
 30
0.0
 40
890.833602
210
0.0
220
0.0
230
1.0
100
AcDbArc
 50
353.559325
 51
354.874758
  0
ARC
  5
B4
100
AcDbEntity
  8
1
  6
CONTINUOUS
 62
     4
100
AcDbCircle
 10
108.278844
 20
351.18818
 30
0.0
 40
31.944632
210
0.0
220
0.0
230
1.0
100
AcDbArc
 50
332.975769
 51
353.721119
  0
ARC
  5
B5
100
AcDbEntity
  8
1
  6
CONTINUOUS
 62
     4
100
AcDbCircle
 10
44.516156
 20
363.11758
 30
0.0
 40
96.75286
210
0.0
220
0.0
230
1.0
100
AcDbArc
 50
350.827525
 51
353.512261
  0
ARC
  5
B6
100
AcDbEntity
  8
1
  6
CONTINUOUS
 62
     4
100
AcDbCircle
 10
121.211441
 20
386.024794
 30
0.0
 40
1.364345
210
0.0
220
0.0
230
1.0
100
AcDbArc
 50
207.179772
 51
328.055206
  0
ARC
  5
B7
100
AcDbEntity
  8
1
  6
CONTINUOUS
 62
     4
100
AcDbCircle
 10
119.875001
 20
370.021974
 30
0.0
 40
2.56224
210
0.0
220
0.0
230
1.0
100
AcDbArc
 50
215.811653
 51
338.908153
  0
ARC
  5
B8
100
AcDbEntity
  8
1
  6
CONTINUOUS
 62
     4
100
AcDbCircle
 10
164.610814
 20
386.277822
 30
0.0
 40
1.147339
210
0.0
220
0.0
230
1.0
100
AcDbArc
 50
314.460811
 51
81.613144
  0
ARC
  5
B9
100
AcDbEntity
  8
1
  6
CONTINUOUS
 62
     4
100
AcDbCircle
 10
170.122613
 20
382.388033
 30
0.0
 40
5.621153
210
0.0
220
0.0
230
1.0
100
AcDbArc
 50
146.885686
 51
207.163097
  0
ARC
  5
BA
100
AcDbEntity
  8
1
  6
CONTINUOUS
 62
     4
100
AcDbCircle
 10
169.479787
 20
376.271953
 30
0.0
 40
5.621153
210
0.0
220
0.0
230
1.0
100
AcDbArc
 50
140.836903
 51
201.114314
  0
ARC
  5
BB
100
AcDbEntity
  8
1
  6
CONTINUOUS
 62
     4
100
AcDbCircle
 10
163.279702
 20
373.613132
 30
0.0
 40
1.147339
210
0.0
220
0.0
230
1.0
100
AcDbArc
 50
266.386856
 51
33.539189
  0
INSERT
  5
C1
100
AcDbEntity
  8
1
  6
CONTINUOUS
 62
     1
100
AcDbBlockReference
  2
LDR
 10
130.341667
 20
347.673917
 30
0.0
 41
240.0
 42
240.0
 50
90.0
210
0.0
220
0.0
230
1.0
  0
INSERT
  5
C2
100
AcDbEntity
  8
1
  6
CONTINUOUS
 62
     1
100
AcDbBlockReference
  2
LDR
 10
130.341667
 20
347.673917
 30
0.0
 41
240.0
 42
240.0
 50
90.0
210
0.0
220
0.0
230
1.0
  0
INSERT
  5
C3
100
AcDbEntity
  8
1
  6
CONTINUOUS
 62
     1
100
AcDbBlockReference
  2
LDR
 10
130.341667
 20
332.673917
 30
0.0
 41
240.0
 42
240.0
 50
270.0
210
0.0
220
0.0
230
1.0
  0
INSERT
  5
C4
100
AcDbEntity
  8
1
  6
CONTINUOUS
 62
     1
100
AcDbBlockReference
  2
LDR
 10
130.341667
 20
332.673917
 30
0.0
 41
240.0
 42
240.0
 50
270.0
210
0.0
220
0.0
230
1.0
  0
LINE
  5
C5
100
AcDbEntity
  8
1
  6
CONTINUOUS
 62
     4
100
AcDbLine
 10
120.091667
 20
402.173917
 30
0.0
 11
126.701083
 21
408.5995
 31
0.0
  0
LINE
  5
C6
100
AcDbEntity
  8
1
  6
CONTINUOUS
 62
     4
100
AcDbLine
 10
126.701083
 20
408.5995
 30
0.0
 11
130.591333
 21
408.617083
 31
0.0
  0
INSERT
  5
C7
100
AcDbEntity
  8
1
  6
CONTINUOUS
 62
     1
100
AcDbBlockReference
  2
LDR
 10
120.091667
 20
402.173917
 30
0.0
 41
239.999998
 42
239.999998
 50
224.192008
210
0.0
220
0.0
230
1.0
  0
LINE
  5
C8
100
AcDbEntity
  8
1
  6
CONTINUOUS
 62
     4
100
AcDbLine
 10
145.292083
 20
388.418333
 30
0.0
 11
156.003333
 21
395.805
 31
0.0
  0
LINE
  5
C9
100
AcDbEntity
  8
1
  6
CONTINUOUS
 62
     4
100
AcDbLine
 10
156.003333
 20
395.805
 30
0.0
 11
149.141167
 21
380.932083
 31
0.0
  0
LINE
  5
CA
100
AcDbEntity
  8
1
  6
CONTINUOUS
 62
     4
100
AcDbLine
 10
156.003333
 20
395.805
 30
0.0
 11
162.040167
 21
395.805
 31
0.0
  0
INSERT
  5
CB
100
AcDbEntity
  8
1
  6
CONTINUOUS
 62
     1
100
AcDbBlockReference
  2
LDR
 10
145.292083
 20
388.418333
 30
0.0
 41
240.000001
 42
240.000001
 50
214.59083
210
0.0
220
0.0
230
1.0
  0
INSERT
  5
CC
100
AcDbEntity
  8
1
  6
CONTINUOUS
 62
     1
100
AcDbBlockReference
  2
LDR
 10
145.292083
 20
388.418333
 30
0.0
 41
240.000001
 42
240.000001
 50
214.59083
210
0.0
220
0.0
230
1.0
  0
INSERT
  5
CD
100
AcDbEntity
  8
1
  6
CONTINUOUS
 62
     1
100
AcDbBlockReference
  2
LDR
 10
149.141167
 20
380.932083
 30
0.0
 41
240.0
 42
240.0
 50
245.232026
210
0.0
220
0.0
230
1.0
  0
LINE
  5
CE
100
AcDbEntity
  8
1
  6
CONTINUOUS
 62
     4
100
AcDbLine
 10
149.640167
 20
373.037
 30
0.0
 11
152.33225
 21
362.346667
 31
0.0
  0
LINE
  5
CF
100
AcDbEntity
  8
1
  6
CONTINUOUS
 62
     4
100
AcDbLine
 10
152.33225
 20
362.346667
 30
0.0
 11
158.04275
 21
362.346667
 31
0.0
  0
INSERT
  5
D0
100
AcDbEntity
  8
1
  6
CONTINUOUS
 62
     1
100
AcDbBlockReference
  2
LDR
 10
149.640167
 20
373.037
 30
0.0
 41
239.999998
 42
239.999998
 50
104.134565
210
0.0
220
0.0
230
1.0
  0
INSERT
  5
D1
100
AcDbEntity
  8
1
  6
CONTINUOUS
 62
     1
100
AcDbBlockReference
  2
LDR
 10
149.640167
 20
373.037
 30
0.0
 41
239.999998
 42
239.999998
 50
104.134565
210
0.0
220
0.0
230
1.0
  0
LINE
  5
D2
100
AcDbEntity
  8
1
  6
CONTINUOUS
 62
     4
100
AcDbLine
 10
112.195333
 20
347.673917
 30
0.0
 11
112.195333
 21
374.173917
 31
0.0
  0
INSERT
  5
D3
100
AcDbEntity
  8
1
  6
CONTINUOUS
 62
     1
100
AcDbBlockReference
  2
LDR
 10
112.195333
 20
374.173917
 30
0.0
 41
240.0
 42
240.0
 50
90.0
210
0.0
220
0.0
230
1.0
  0
INSERT
  5
D4
100
AcDbEntity
  8
1
  6
CONTINUOUS
 62
     1
100
AcDbBlockReference
  2
LDR
 10
112.195333
 20
374.173917
 30
0.0
 41
240.0
 42
240.0
 50
90.0
210
0.0
220
0.0
230
1.0
  0
INSERT
  5
D5
100
AcDbEntity
  8
1
  6
CONTINUOUS
 62
     1
100
AcDbBlockReference
  2
LDR
 10
112.195333
 20
347.673917
 30
0.0
 41
240.0
 42
240.0
 50
270.0
210
0.0
220
0.0
230
1.0
  0
LINE
  5
D6
100
AcDbEntity
  8
1
  6
CONTINUOUS
 62
     4
100
AcDbLine
 10
120.438417
 20
347.883
 30
0.0
 11
100.605083
 21
335.534333
 31
0.0
  0
LINE
  5
D7
100
AcDbEntity
  8
1
  6
CONTINUOUS
 62
     4
100
AcDbLine
 10
100.605083
 20
335.534333
 30
0.0
 11
95.105583
 21
335.534333
 31
0.0
  0
INSERT
  5
D8
100
AcDbEntity
  8
1
  6
CONTINUOUS
 62
     1
100
AcDbBlockReference
  2
LDR
 10
120.438417
 20
347.883
 30
0.0
 41
239.999999
 42
239.999999
 50
31.907295
210
0.0
220
0.0
230
1.0
  0
LINE
  5
D9
100
AcDbEntity
  8
1
  6
CONTINUOUS
 62
     4
100
AcDbLine
 10
112.195333
 20
360.923917
 30
0.0
 11
91.946417
 21
360.923917
 31
0.0
  0
LINE
  5
DA
100
AcDbEntity
  8
1
  6
CONTINUOUS
 62
     4
100
AcDbLine
 10
130.325917
 20
340.450333
 30
0.0
 11
146.239333
 21
346.771
 31
0.0
  0
LINE
  5
DB
100
AcDbEntity
  8
1
  6
CONTINUOUS
 62
     4
100
AcDbLine
 10
146.239333
 20
346.771
 30
0.0
 11
152.557917
 21
346.771
 31
0.0
  0
TEXT
  5
DC
100
AcDbEntity
  8
1
  6
CONTINUOUS
 62
     7
100
AcDbText
 10
131.385167
 20
407.51025
 30
0.0
 40
2.5
  1
2 - POLE, SECONDARY LIGHTNING ARRESTER
  7
MONOTXT
210
0.0
220
0.0
230
1.0
100
AcDbText
  0
TEXT
  5
DD
100
AcDbEntity
  8
1
  6
CONTINUOUS
 62
     7
100
AcDbText
 10
167.947917
 20
382.45375
 30
0.0
 40
2.5
  1
MAY BE SHOWN ON
  7
MONOTXT
 11
167.947917
 21
384.95375
 31
0.0
210
0.0
220
0.0
230
1.0
100
AcDbText
 73
     3
  0
TEXT
  5
DE
100
AcDbEntity
  8
1
  6
CONTINUOUS
 62
     7
100
AcDbText
 10
167.947917
 20
377.95375
 30
0.0
 40
2.5
  1
SINGLE SUPPORT IF
  7
MONOTXT
 11
167.947917
 21
380.45375
 31
0.0
210
0.0
220
0.0
230
1.0
100
AcDbText
 73
     3
  0
TEXT
  5
DF
100
AcDbEntity
  8
1
  6
CONTINUOUS
 62
     7
100
AcDbText
 10
167.947917
 20
373.45375
 30
0.0
 40
2.5
  1
TRIPLEX IS USED
  7
MONOTXT
 11
167.947917
 21
375.95375
 31
0.0
210
0.0
220
0.0
230
1.0
100
AcDbText
 73
     3
  0
TEXT
  5
E0
100
AcDbEntity
  8
1
  6
CONTINUOUS
 62
     7
100
AcDbText
 10
162.852083
 20
394.511583
 30
0.0
 40
2.5
  1
0
  7
MONOTXT
210
0.0
220
0.0
230
1.0
100
AcDbText
  0
TEXT
  5
E1
100
AcDbEntity
  8
1
  6
CONTINUOUS
 62
     7
100
AcDbText
 10
158.902833
 20
361.250417
 30
0.0
 40
2.5
  1
GROUNDED NEUTRAL
  7
MONOTXT
210
0.0
220
0.0
230
1.0
100
AcDbText
  0
TEXT
  5
E2
100
AcDbEntity
  8
1
  6
CONTINUOUS
 62
     7
100
AcDbText
 10
153.42475
 20
345.448083
 30
0.0
 40
2.5
  1
0.6m MIN. DRIP LOOP
  7
MONOTXT
210
0.0
220
0.0
230
1.0
100
AcDbText
  0
TEXT
  5
E3
100
AcDbEntity
  8
1
  6
CONTINUOUS
 62
     7
100
AcDbText
 10
67.687083
 20
334.106167
 30
0.0
 40
2.5
  1
WEATHERHEAD
  7
MONOTXT
210
0.0
220
0.0
230
1.0
100
AcDbText
  0
TEXT
  5
E4
100
AcDbEntity
  8
1
  6
CONTINUOUS
 62
     7
100
AcDbText
 10
142.0865
 20
327.145833
 30
0.0
 40
2.5
  1
PROVIDE 1.2m MIN. LENGTH OF CABLE
  7
MONOTXT
 11
142.0865
 21
329.645833
 31
0.0
210
0.0
220
0.0
230
1.0
100
AcDbText
 73
     3
  0
TEXT
  5
E5
100
AcDbEntity
  8
1
  6
CONTINUOUS
 62
     7
100
AcDbText
 10
142.0865
 20
322.645833
 30
0.0
 40
2.5
  1
BEYOND WEATHERHEAD.
  7
MONOTXT
 11
142.0865
 21
325.145833
 31
0.0
210
0.0
220
0.0
230
1.0
100
AcDbText
 73
     3
  0
TEXT
  5
E6
100
AcDbEntity
  8
1
  6
CONTINUOUS
 62
     7
100
AcDbText
 10
50.106333
 20
407.0005
 30
0.0
 40
3.5
  1
3-WIRE SERVICE
  7
MONOTXT
210
0.0
220
0.0
230
1.0
100
AcDbText
  0
LINE
  5
E7
100
AcDbEntity
  8
1
  6
CONTINUOUS
 62
     7
100
AcDbLine
 10
48.5535
 20
405.318
 30
0.0
 11
94.098417
 21
405.318
 31
0.0
  0
TEXT
  5
E8
100
AcDbEntity
  8
1
  6
CONTINUOUS
 62
     7
100
AcDbText
 10
162.945583
 20
394.496417
 30
0.0
 40
2.5
  1
/
  7
MONOTXT
210
0.0
220
0.0
230
1.0
100
AcDbText
  0
LINE
  5
E9
100
AcDbEntity
  8
1
  6
CONTINUOUS
 62
     4
100
AcDbLine
 10
335.341667
 20
398.923917
 30
0.0
 11
335.341667
 21
328.923917
 31
0.0
  0
LINE
  5
EA
100
AcDbEntity
  8
1
  6
CONTINUOUS
 62
     4
100
AcDbLine
 10
345.341667
 20
400.923917
 30
0.0
 11
345.341667
 21
328.923917
 31
0.0
  0
LINE
  5
EB
100
AcDbEntity
  8
1
  6
CONTINUOUS
 62
     4
100
AcDbLine
 10
345.341667
 20
400.923917
 30
0.0
 11
335.341667
 21
398.923917
 31
0.0
  0
ARC
  5
EC
100
AcDbEntity
  8
1
  6
CONTINUOUS
 62
     4
100
AcDbCircle
 10
337.841667
 20
330.116209
 30
0.0
 40
2.769758
210
0.0
220
0.0
230
1.0
100
AcDbArc
 50
205.497267
 51
334.502733
  0
ARC
  5
ED
100
AcDbEntity
  8
1
  6
CONTINUOUS
 62
     4
100
AcDbCircle
 10
342.841667
 20
330.116209
 30
0.0
 40
2.769758
210
0.0
220
0.0
230
1.0
100
AcDbArc
 50
205.497267
 51
334.502733
  0
ARC
  5
EE
100
AcDbEntity
  8
1
  6
CONTINUOUS
 62
     4
100
AcDbCircle
 10
342.841667
 20
327.731624
 30
0.0
 40
2.769758
210
0.0
220
0.0
230
1.0
100
AcDbArc
 50
25.497267
 51
154.502733
  0
LINE
  5
EF
100
AcDbEntity
  8
1
  6
CONTINUOUS
 62
     4
100
AcDbLine
 10
350.341667
 20
348.923917
 30
0.0
 11
350.341667
 21
328.923917
 31
0.0
  0
ARC
  5
F0
100
AcDbEntity
  8
1
  6
CONTINUOUS
 62
     4
100
AcDbCircle
 10
346.591667
 20
329.579887
 30
0.0
 40
1.411665
210
0.0
220
0.0
230
1.0
100
AcDbArc
 50
207.689433
 51
332.310567
  0
ARC
  5
F1
100
AcDbEntity
  8
1
  6
CONTINUOUS
 62
     4
100
AcDbCircle
 10
349.091667
 20
329.579887
 30
0.0
 40
1.411665
210
0.0
220
0.0
230
1.0
100
AcDbArc
 50
207.689433
 51
332.310567
  0
ARC
  5
F2
100
AcDbEntity
  8
1
  6
CONTINUOUS
 62
     4
100
AcDbCircle
 10
349.091667
 20
328.267946
 30
0.0
 40
1.411665
210
0.0
220
0.0
230
1.0
100
AcDbArc
 50
27.689433
 51
152.310567
  0
LINE
  5
F3
100
AcDbEntity
  8
1
  6
CONTINUOUS
 62
     4
100
AcDbLine
 10
350.341667
 20
348.923917
 30
0.0
 11
345.341667
 21
348.923917
 31
0.0
  0
LINE
  5
F4
100
AcDbEntity
  8
1
  6
CONTINUOUS
 62
     4
100
AcDbLine
 10
350.341667
 20
347.923917
 30
0.0
 11
345.341667
 21
347.923917
 31
0.0
  0
LINE
  5
F5
100
AcDbEntity
  8
1
  6
CONTINUOUS
 62
     4
100
AcDbLine
 10
344.841667
 20
347.673917
 30
0.0
 11
335.841667
 21
347.673917
 31
0.0
  0
LINE
  5
F6
100
AcDbEntity
  8
1
  6
CONTINUOUS
 62
     4
100
AcDbLine
 10
338.841667
 20
374.173917
 30
0.0
 11
335.841667
 21
374.173917
 31
0.0
  0
LINE
  5
F7
100
AcDbEntity
  8
1
  6
CONTINUOUS
 62
     4
100
AcDbLine
 10
344.841667
 20
374.173917
 30
0.0
 11
341.841667
 21
374.173917
 31
0.0
  0
LINE
  5
F8
100
AcDbEntity
  8
1
  6
CONTINUOUS
 62
     4
100
AcDbLine
 10
340.841667
 20
374.173917
 30
0.0
 11
339.841667
 21
374.173917
 31
0.0
  0
LINE
  5
F9
100
AcDbEntity
  8
1
  6
CONTINUOUS
 62
     4
100
AcDbLine
 10
356.341667
 20
350.423917
 30
0.0
 11
352.341667
 21
346.923917
 31
0.0
  0
LINE
  5
FA
100
AcDbEntity
  8
1
  6
CONTINUOUS
 62
     4
100
AcDbLine
 10
350.341667
 20
348.923917
 30
0.0
 11
352.341667
 21
346.923917
 31
0.0
  0
LINE
  5
FB
100
AcDbEntity
  8
1
  6
CONTINUOUS
 62
     4
100
AcDbLine
 10
354.341667
 20
352.423917
 30
0.0
 11
356.341667
 21
350.423917
 31
0.0
  0
ARC
  5
FC
100
AcDbEntity
  8
1
  6
CONTINUOUS
 62
     4
100
AcDbCircle
 10
350.703097
 20
348.458811
 30
0.0
 40
5.381566
210
0.0
220
0.0
230
1.0
100
AcDbArc
 50
47.459022
 51
175.041986
  0
LINE
  5
FD
100
AcDbEntity
  8
1
  6
CONTINUOUS
 62
     4
100
AcDbLine
 10
355.341667
 20
347.673917
 30
0.0
 11
367.341667
 21
347.673917
 31
0.0
  0
LINE
  5
FE
100
AcDbEntity
  8
1
  6
CONTINUOUS
 62
     4
100
AcDbLine
 10
361.341667
 20
332.673917
 30
0.0
 11
361.341667
 21
347.673917
 31
0.0
  0
LINE
  5
FF
100
AcDbEntity
  8
1
  6
CONTINUOUS
 62
     4
100
AcDbLine
 10
345.341667
 20
398.423917
 30
0.0
 11
347.091667
 21
398.423917
 31
0.0
  0
LINE
  5
100
100
AcDbEntity
  8
1
  6
CONTINUOUS
 62
     4
100
AcDbLine
 10
347.091667
 20
402.173917
 30
0.0
 11
347.091667
 21
398.173917
 31
0.0
  0
LINE
  5
101
100
AcDbEntity
  8
1
  6
CONTINUOUS
 62
     4
100
AcDbLine
 10
351.091667
 20
402.173917
 30
0.0
 11
351.091667
 21
398.173917
 31
0.0
  0
LINE
  5
102
100
AcDbEntity
  8
1
  6
CONTINUOUS
 62
     4
100
AcDbLine
 10
347.091667
 20
402.173917
 30
0.0
 11
351.091667
 21
402.173917
 31
0.0
  0
LINE
  5
103
100
AcDbEntity
  8
1
  6
CONTINUOUS
 62
     4
100
AcDbLine
 10
347.091667
 20
398.173917
 30
0.0
 11
351.091667
 21
398.173917
 31
0.0
  0
LINE
  5
104
100
AcDbEntity
  8
1
  6
CONTINUOUS
 62
     4
100
AcDbLine
 10
345.341667
 20
393.423917
 30
0.0
 11
350.841667
 21
393.423917
 31
0.0
  0
LINE
  5
105
100
AcDbEntity
  8
1
  6
CONTINUOUS
 62
     4
100
AcDbLine
 10
350.841667
 20
393.423917
 30
0.0
 11
350.841667
 21
392.423917
 31
0.0
  0
LINE
  5
106
100
AcDbEntity
  8
1
  6
CONTINUOUS
 62
     4
100
AcDbLine
 10
350.841667
 20
392.423917
 30
0.0
 11
346.591667
 21
392.423917
 31
0.0
  0
LINE
  5
107
100
AcDbEntity
  8
1
  6
CONTINUOUS
 62
     4
100
AcDbLine
 10
346.591667
 20
392.423917
 30
0.0
 11
346.591667
 21
387.423917
 31
0.0
  0
LINE
  5
108
100
AcDbEntity
  8
1
  6
CONTINUOUS
 62
     4
100
AcDbLine
 10
346.591667
 20
387.423917
 30
0.0
 11
350.841667
 21
387.423917
 31
0.0
  0
LINE
  5
109
100
AcDbEntity
  8
1
  6
CONTINUOUS
 62
     4
100
AcDbLine
 10
350.841667
 20
387.423917
 30
0.0
 11
350.841667
 21
386.423917
 31
0.0
  0
LINE
  5
10A
100
AcDbEntity
  8
1
  6
CONTINUOUS
 62
     4
100
AcDbLine
 10
350.841667
 20
386.423917
 30
0.0
 11
346.591667
 21
386.423917
 31
0.0
  0
LINE
  5
10B
100
AcDbEntity
  8
1
  6
CONTINUOUS
 62
     4
100
AcDbLine
 10
346.591667
 20
386.423917
 30
0.0
 11
346.591667
 21
378.923917
 31
0.0
  0
LINE
  5
10C
100
AcDbEntity
  8
1
  6
CONTINUOUS
 62
     4
100
AcDbLine
 10
346.591667
 20
378.923917
 30
0.0
 11
350.841667
 21
378.923917
 31
0.0
  0
LINE
  5
10D
100
AcDbEntity
  8
1
  6
CONTINUOUS
 62
     4
100
AcDbLine
 10
350.841667
 20
378.923917
 30
0.0
 11
350.841667
 21
377.923917
 31
0.0
  0
LINE
  5
10E
100
AcDbEntity
  8
1
  6
CONTINUOUS
 62
     4
100
AcDbLine
 10
350.841667
 20
377.923917
 30
0.0
 11
346.591667
 21
377.923917
 31
0.0
  0
LINE
  5
10F
100
AcDbEntity
  8
1
  6
CONTINUOUS
 62
     4
100
AcDbLine
 10
346.591667
 20
377.923917
 30
0.0
 11
346.591667
 21
371.923917
 31
0.0
  0
LINE
  5
110
100
AcDbEntity
  8
1
  6
CONTINUOUS
 62
     4
100
AcDbLine
 10
346.591667
 20
371.923917
 30
0.0
 11
350.841667
 21
371.923917
 31
0.0
  0
LINE
  5
111
100
AcDbEntity
  8
1
  6
CONTINUOUS
 62
     4
100
AcDbLine
 10
350.841667
 20
371.923917
 30
0.0
 11
350.841667
 21
370.923917
 31
0.0
  0
LINE
  5
112
100
AcDbEntity
  8
1
  6
CONTINUOUS
 62
     4
100
AcDbLine
 10
350.841667
 20
370.923917
 30
0.0
 11
345.341667
 21
370.923917
 31
0.0
  0
LINE
  5
113
100
AcDbEntity
  8
1
  6
CONTINUOUS
 62
     4
100
AcDbLine
 10
350.341667
 20
391.673917
 30
0.0
 11
346.591667
 21
391.673917
 31
0.0
  0
LINE
  5
114
100
AcDbEntity
  8
1
  6
CONTINUOUS
 62
     4
100
AcDbLine
 10
346.591667
 20
388.173917
 30
0.0
 11
350.341667
 21
388.173917
 31
0.0
  0
LINE
  5
115
100
AcDbEntity
  8
1
  6
CONTINUOUS
 62
     4
100
AcDbLine
 10
350.341667
 20
377.173917
 30
0.0
 11
346.591667
 21
377.173917
 31
0.0
  0
LINE
  5
116
100
AcDbEntity
  8
1
  6
CONTINUOUS
 62
     4
100
AcDbLine
 10
346.591667
 20
372.673917
 30
0.0
 11
350.341667
 21
372.673917
 31
0.0
  0
LINE
  5
117
100
AcDbEntity
  8
1
  6
CONTINUOUS
 62
     4
100
AcDbLine
 10
350.341667
 20
391.673917
 30
0.0
 11
350.341667
 21
392.423917
 31
0.0
  0
LINE
  5
118
100
AcDbEntity
  8
1
  6
CONTINUOUS
 62
     4
100
AcDbLine
 10
350.341667
 20
388.173917
 30
0.0
 11
350.341667
 21
387.423917
 31
0.0
  0
LINE
  5
119
100
AcDbEntity
  8
1
  6
CONTINUOUS
 62
     4
100
AcDbLine
 10
350.341667
 20
377.173917
 30
0.0
 11
350.341667
 21
377.923917
 31
0.0
  0
LINE
  5
11A
100
AcDbEntity
  8
1
  6
CONTINUOUS
 62
     4
100
AcDbLine
 10
350.341667
 20
372.673917
 30
0.0
 11
350.341667
 21
371.923917
 31
0.0
  0
ARC
  5
11B
100
AcDbEntity
  8
1
  6
CONTINUOUS
 62
     4
100
AcDbCircle
 10
343.309391
 20
389.923917
 30
0.0
 40
3.719655
210
0.0
220
0.0
230
1.0
100
AcDbArc
 50
331.934944
 51
28.065056
  0
ARC
  5
11C
100
AcDbEntity
  8
1
  6
CONTINUOUS
 62
     4
100
AcDbCircle
 10
353.623942
 20
389.923917
 30
0.0
 40
3.719655
210
0.0
220
0.0
230
1.0
100
AcDbArc
 50
151.934944
 51
208.065056
  0
ARC
  5
11D
100
AcDbEntity
  8
1
  6
CONTINUOUS
 62
     4
100
AcDbCircle
 10
342.503347
 20
374.923917
 30
0.0
 40
4.666568
210
0.0
220
0.0
230
1.0
100
AcDbArc
 50
331.173881
 51
28.826117
  0
ARC
  5
11E
100
AcDbEntity
  8
1
  6
CONTINUOUS
 62
     4
100
AcDbCircle
 10
354.429986
 20
374.923917
 30
0.0
 40
4.666568
210
0.0
220
0.0
230
1.0
100
AcDbArc
 50
151.173883
 51
208.826119
  0
LINE
  5
11F
100
AcDbEntity
  8
1
  6
CONTINUOUS
 62
     4
100
AcDbLine
 10
350.120583
 20
391.173917
 30
0.0
 11
346.81275
 21
391.173917
 31
0.0
  0
LINE
  5
120
100
AcDbEntity
  8
1
  6
CONTINUOUS
 62
     4
100
AcDbLine
 10
346.81275
 20
388.673917
 30
0.0
 11
350.120583
 21
388.673917
 31
0.0
  0
LINE
  5
121
100
AcDbEntity
  8
1
  6
CONTINUOUS
 62
     4
100
AcDbLine
 10
350.104
 20
376.673917
 30
0.0
 11
346.829333
 21
376.673917
 31
0.0
  0
LINE
  5
122
100
AcDbEntity
  8
1
  6
CONTINUOUS
 62
     4
100
AcDbLine
 10
346.829333
 20
373.173917
 30
0.0
 11
350.104
 21
373.173917
 31
0.0
  0
CIRCLE
  5
123
100
AcDbEntity
  8
1
  6
CONTINUOUS
 62
     4
100
AcDbCircle
 10
353.831417
 20
389.564167
 30
0.0
 40
0.5
210
0.0
220
0.0
230
1.0
  0
CIRCLE
  5
124
100
AcDbEntity
  8
1
  6
CONTINUOUS
 62
     4
100
AcDbCircle
 10
353.801333
 20
374.562
 30
0.0
 40
0.5
210
0.0
220
0.0
230
1.0
  0
LWPOLYLINE
  5
125
100
AcDbEntity
  8
1
  6
CONTINUOUS
 62
     4
100
AcDbPolyline
 90
       90
 70
     0
 10
346.779083
 20
389.923917
 10
346.868083
 20
389.916917
 10
346.936333
 20
389.916917
 10
347.004583
 20
389.909333
 10
347.050083
 20
389.909333
 10
347.10325
 20
389.909333
 10
347.156333
 20
389.909333
 10
347.217
 20
389.916917
 10
347.338333
 20
389.939667
 10
347.361083
 20
389.932083
 10
347.399
 20
389.916917
 10
347.436917
 20
389.9245
 10
347.459667
 20
389.916917
 10
347.581
 20
389.916917
 10
347.649333
 20
389.85625
 10
347.64175
 20
389.848667
 10
347.672083
 20
389.871417
 10
347.73275
 20
389.848667
 10
347.793417
 20
389.848667
 10
347.854083
 20
389.879
 10
347.861667
 20
389.886583
 10
347.922333
 20
389.90175
 10
347.952667
 20
389.886583
 10
347.990583
 20
389.863833
 10
348.020917
 20
389.85625
 10
348.172667
 20
389.841083
 10
348.22575
 20
389.85625
 10
348.331917
 20
389.8335
 10
348.36225
 20
389.863833
 10
348.422917
 20
389.863833
 10
348.536667
 20
389.825917
 10
348.551833
 20
389.825917
 10
348.605
 20
389.825917
 10
348.8325
 20
389.848667
 10
348.840083
 20
389.848667
 10
348.893167
 20
389.8335
 10
349.022083
 20
389.81075
 10
349.1435
 20
389.818333
 10
349.2345
 20
389.818333
 10
349.317917
 20
389.825917
 10
349.39375
 20
389.8335
 10
349.454417
 20
389.803167
 10
349.56825
 20
389.7955
 10
349.591
 20
389.75
 10
349.674417
 20
389.742417
 10
349.8185
 20
389.734833
 10
349.856417
 20
389.75
 10
349.947417
 20
389.780333
 10
350.068833
 20
389.803167
 10
350.144667
 20
389.765167
 10
350.15225
 20
389.765167
 10
350.175
 20
389.719667
 10
350.394917
 20
389.77275
 10
350.417667
 20
389.75
 10
350.448
 20
389.742417
 10
350.577
 20
389.742417
 10
350.59975
 20
389.734833
 10
350.705917
 20
389.757583
 10
350.751417
 20
389.75
 10
350.819667
 20
389.734833
 10
350.857583
 20
389.75
 10
350.941
 20
389.742417
 10
351.039667
 20
389.75
 10
351.153417
 20
389.742417
 10
351.214083
 20
389.712083
 10
351.252
 20
389.674167
 10
351.259583
 20
389.666583
 10
351.3885
 20
389.68175
 10
351.441583
 20
389.674167
 10
351.563
 20
389.674167
 10
351.616083
 20
389.659
 10
351.714667
 20
389.666583
 10
351.980083
 20
389.666583
 10
352.018083
 20
389.666583
 10
352.086333
 20
389.674167
 10
352.177333
 20
389.666583
 10
352.21525
 20
389.643833
 10
352.291083
 20
389.63625
 10
352.412417
 20
389.605833
 10
352.52625
 20
389.628667
 10
352.57175
 20
389.63625
 10
352.6855
 20
389.628667
 10
352.768917
 20
389.613417
 10
352.79925
 20
389.5755
 10
352.897833
 20
389.583083
 10
353.042
 20
389.583083
 10
353.148167
 20
389.5755
 10
353.193667
 20
389.59825
 10
353.299833
 20
389.590667
 10
353.375667
 20
389.613417
  0
LWPOLYLINE
  5
126
100
AcDbEntity
  8
1
  6
CONTINUOUS
 62
     4
100
AcDbPolyline
 90
       90
 70
     0
 10
346.919917
 20
374.923917
 10
347.008917
 20
374.916917
 10
347.077167
 20
374.916917
 10
347.145417
 20
374.909333
 10
347.190917
 20
374.909333
 10
347.244083
 20
374.909333
 10
347.297167
 20
374.909333
 10
347.357833
 20
374.916917
 10
347.479167
 20
374.939667
 10
347.501917
 20
374.932083
 10
347.539833
 20
374.916917
 10
347.57775
 20
374.9245
 10
347.6005
 20
374.916917
 10
347.721833
 20
374.916917
 10
347.790167
 20
374.85625
 10
347.782583
 20
374.848667
 10
347.812917
 20
374.871417
 10
347.873583
 20
374.848667
 10
347.93425
 20
374.848667
 10
347.994917
 20
374.879
 10
348.0025
 20
374.886583
 10
348.063167
 20
374.90175
 10
348.0935
 20
374.886583
 10
348.131417
 20
374.863833
 10
348.16175
 20
374.85625
 10
348.3135
 20
374.841083
 10
348.366583
 20
374.85625
 10
348.47275
 20
374.8335
 10
348.503083
 20
374.863833
 10
348.56375
 20
374.863833
 10
348.6775
 20
374.825917
 10
348.692667
 20
374.825917
 10
348.745833
 20
374.825917
 10
348.973333
 20
374.848667
 10
348.980917
 20
374.848667
 10
349.034
 20
374.8335
 10
349.162917
 20
374.81075
 10
349.284333
 20
374.818333
 10
349.375333
 20
374.818333
 10
349.45875
 20
374.825917
 10
349.534583
 20
374.8335
 10
349.59525
 20
374.803167
 10
349.709083
 20
374.7955
 10
349.731833
 20
374.75
 10
349.81525
 20
374.742417
 10
349.959333
 20
374.734833
 10
349.99725
 20
374.75
 10
350.08825
 20
374.780333
 10
350.209667
 20
374.803167
 10
350.2855
 20
374.765167
 10
350.293083
 20
374.765167
 10
350.315833
 20
374.719667
 10
350.53575
 20
374.77275
 10
350.5585
 20
374.75
 10
350.588833
 20
374.742417
 10
350.717833
 20
374.742417
 10
350.740583
 20
374.734833
 10
350.84675
 20
374.757583
 10
350.89225
 20
374.75
 10
350.9605
 20
374.734833
 10
350.998417
 20
374.75
 10
351.081833
 20
374.742417
 10
351.1805
 20
374.75
 10
351.29425
 20
374.742417
 10
351.354917
 20
374.712083
 10
351.392833
 20
374.674167
 10
351.400417
 20
374.666583
 10
351.529333
 20
374.68175
 10
351.582417
 20
374.674167
 10
351.703833
 20
374.674167
 10
351.756917
 20
374.659
 10
351.8555
 20
374.666583
 10
352.120917
 20
374.666583
 10
352.158917
 20
374.666583
 10
352.227167
 20
374.674167
 10
352.318167
 20
374.666583
 10
352.356083
 20
374.643833
 10
352.431917
 20
374.63625
 10
352.55325
 20
374.605833
 10
352.667083
 20
374.628667
 10
352.712583
 20
374.63625
 10
352.826333
 20
374.628667
 10
352.90975
 20
374.613417
 10
352.940083
 20
374.5755
 10
353.038667
 20
374.583083
 10
353.182833
 20
374.583083
 10
353.289
 20
374.5755
 10
353.3345
 20
374.59825
 10
353.440667
 20
374.590667
 10
353.5165
 20
374.613417
  0
LINE
  5
127
100
AcDbEntity
  8
1
  6
CONTINUOUS
 62
     4
100
AcDbLine
 10
354.331417
 20
389.569167
 30
0.0
 11
394.772833
 21
387.449833
 31
0.0
  0
POLYLINE
  5
128
100
AcDbEntity
  8
1
  6
CONTINUOUS
 62
     4
100
AcDb2dPolyline
 66
     1
 10
0.0
 20
0.0
 30
0.0
 70
     1
  0
VERTEX
  5
129
100
AcDbEntity
  8
1
  6
CONTINUOUS
 62
     4
100
AcDbVertex
100
AcDb2dVertex
 10
363.319
 20
390.098167
 30
0.0
  0
VERTEX
  5
12A
100
AcDbEntity
  8
1
  6
CONTINUOUS
 62
     4
100
AcDbVertex
100
AcDb2dVertex
 10
365.319
 20
390.098167
 30
0.0
  0
VERTEX
  5
12B
100
AcDbEntity
  8
1
  6
CONTINUOUS
 62
     4
100
AcDbVertex
100
AcDb2dVertex
 10
365.319
 20
388.098167
 30
0.0
  0
VERTEX
  5
12C
100
AcDbEntity
  8
1
  6
CONTINUOUS
 62
     4
100
AcDbVertex
100
AcDb2dVertex
 10
363.319
 20
388.098167
 30
0.0
  0
VERTEX
  5
12D
100
AcDbEntity
  8
1
  6
CONTINUOUS
 62
     4
100
AcDbVertex
100
AcDb2dVertex
 10
363.319
 20
390.098167
 30
0.0
  0
SEQEND
  5
12E
100
AcDbEntity
  8
1
  6
CONTINUOUS
 62
     4
  0
POLYLINE
  5
12F
100
AcDbEntity
  8
1
  6
CONTINUOUS
 62
     4
100
AcDb2dPolyline
 66
     1
 10
0.0
 20
0.0
 30
0.0
 70
     1
  0
VERTEX
  5
130
100
AcDbEntity
  8
1
  6
CONTINUOUS
 62
     4
100
AcDbVertex
100
AcDb2dVertex
 10
372.774
 20
374.550083
 30
0.0
  0
VERTEX
  5
131
100
AcDbEntity
  8
1
  6
CONTINUOUS
 62
     4
100
AcDbVertex
100
AcDb2dVertex
 10
374.774
 20
374.550083
 30
0.0
  0
VERTEX
  5
132
100
AcDbEntity
  8
1
  6
CONTINUOUS
 62
     4
100
AcDbVertex
100
AcDb2dVertex
 10
374.774
 20
372.550083
 30
0.0
  0
VERTEX
  5
133
100
AcDbEntity
  8
1
  6
CONTINUOUS
 62
     4
100
AcDbVertex
100
AcDb2dVertex
 10
372.774
 20
372.550083
 30
0.0
  0
VERTEX
  5
134
100
AcDbEntity
  8
1
  6
CONTINUOUS
 62
     4
100
AcDbVertex
100
AcDb2dVertex
 10
372.774
 20
374.550083
 30
0.0
  0
SEQEND
  5
135
100
AcDbEntity
  8
1
  6
CONTINUOUS
 62
     4
  0
LINE
  5
136
100
AcDbEntity
  8
1
  6
CONTINUOUS
 62
     4
100
AcDbLine
 10
343.341667
 20
394.923917
 30
0.0
 11
343.341667
 21
376.923917
 31
0.0
  0
ARC
  5
137
100
AcDbEntity
  8
1
  6
CONTINUOUS
 62
     4
100
AcDbCircle
 10
342.831293
 20
400.370972
 30
0.0
 40
5.470914
210
0.0
220
0.0
230
1.0
100
AcDbArc
 50
275.352822
 51
336.322483
  0
ARC
  5
138
100
AcDbEntity
  8
1
  6
CONTINUOUS
 62
     4
100
AcDbCircle
 10
364.837883
 20
384.911051
 30
0.0
 40
22.932109
210
0.0
220
0.0
230
1.0
100
AcDbArc
 50
200.383053
 51
225.614103
  0
ARC
  5
139
100
AcDbEntity
  8
1
  6
CONTINUOUS
 62
     4
100
AcDbCircle
 10
339.375867
 20
373.16472
 30
0.0
 40
14.472251
210
0.0
220
0.0
230
1.0
100
AcDbArc
 50
343.687875
 51
3.629989
  0
ARC
  5
13A
100
AcDbEntity
  8
1
  6
CONTINUOUS
 62
     4
100
AcDbCircle
 10
382.272466
 20
395.308158
 30
0.0
 40
32.806206
210
0.0
220
0.0
230
1.0
100
AcDbArc
 50
174.988592
 51
197.576139
  0
ARC
  5
13B
100
AcDbEntity
  8
1
  6
CONTINUOUS
 62
     4
100
AcDbCircle
 10
346.503742
 20
388.037179
 30
0.0
 40
7.389874
210
0.0
220
0.0
230
1.0
100
AcDbArc
 50
338.284317
 51
8.162625
  0
ELLIPSE
  5
13C
100
AcDbEntity
  8
1
  6
CONTINUOUS
 62
     4
100
AcDbEllipse
 10
360.779792
 20
347.463542
 30
0.0
 11
-0.3861476270689929
 21
14.797732485957058
 31
0.0
210
0.0
220
0.0
230
1.0
 40
0.544805
 41
1.5707963267948966
 42
4.1650300680516299
  0
ARC
  5
13D
100
AcDbEntity
  8
1
  6
CONTINUOUS
 62
     4
100
AcDbCircle
 10
181.504411
 20
354.235186
 30
0.0
 40
186.907744
210
0.0
220
0.0
230
1.0
100
AcDbArc
 50
355.614178
 51
10.438197
  0
LINE
  5
13E
100
AcDbEntity
  8
1
  6
CONTINUOUS
 62
     4
100
AcDbLine
 10
354.299417
 20
374.51825
 30
0.0
 11
366.644667
 21
373.871333
 31
0.0
  0
LINE
  5
13F
100
AcDbEntity
  8
1
  6
CONTINUOUS
 62
     4
100
AcDbLine
 10
367.994417
 20
373.800583
 30
0.0
 11
371.153583
 21
373.635
 31
0.0
  0
LINE
  5
140
100
AcDbEntity
  8
1
  6
CONTINUOUS
 62
     4
100
AcDbLine
 10
371.153583
 20
373.635
 30
0.0
 11
393.249417
 21
372.477083
 31
0.0
  0
ARC
  5
141
100
AcDbEntity
  8
1
  6
CONTINUOUS
 62
     4
100
AcDbCircle
 10
361.21636
 20
339.984765
 30
0.0
 40
7.311922
210
0.0
220
0.0
230
1.0
100
AcDbArc
 50
270.98195
 51
333.073517
  0
ARC
  5
142
100
AcDbEntity
  8
1
  6
CONTINUOUS
 62
     4
100
AcDbCircle
 10
-513.561708
 20
452.114195
 30
0.0
 40
890.833602
210
0.0
220
0.0
230
1.0
100
AcDbArc
 50
353.559325
 51
354.874758
  0
ARC
  5
143
100
AcDbEntity
  8
1
  6
CONTINUOUS
 62
     4
100
AcDbCircle
 10
339.278844
 20
351.18818
 30
0.0
 40
31.944632
210
0.0
220
0.0
230
1.0
100
AcDbArc
 50
332.975769
 51
353.721119
  0
ARC
  5
144
100
AcDbEntity
  8
1
  6
CONTINUOUS
 62
     4
100
AcDbCircle
 10
275.516156
 20
363.11758
 30
0.0
 40
96.75286
210
0.0
220
0.0
230
1.0
100
AcDbArc
 50
350.827525
 51
353.512261
  0
ARC
  5
145
100
AcDbEntity
  8
1
  6
CONTINUOUS
 62
     4
100
AcDbCircle
 10
352.211441
 20
386.024794
 30
0.0
 40
1.364345
210
0.0
220
0.0
230
1.0
100
AcDbArc
 50
207.179772
 51
328.055206
  0
ARC
  5
146
100
AcDbEntity
  8
1
  6
CONTINUOUS
 62
     4
100
AcDbCircle
 10
350.875001
 20
370.021974
 30
0.0
 40
2.56224
210
0.0
220
0.0
230
1.0
100
AcDbArc
 50
215.811653
 51
338.908153
  0
ARC
  5
147
100
AcDbEntity
  8
1
  6
CONTINUOUS
 62
     4
100
AcDbCircle
 10
395.610814
 20
386.277822
 30
0.0
 40
1.147339
210
0.0
220
0.0
230
1.0
100
AcDbArc
 50
314.460811
 51
81.613144
  0
ARC
  5
148
100
AcDbEntity
  8
1
  6
CONTINUOUS
 62
     4
100
AcDbCircle
 10
401.122613
 20
382.388033
 30
0.0
 40
5.621153
210
0.0
220
0.0
230
1.0
100
AcDbArc
 50
146.885686
 51
207.163097
  0
ARC
  5
149
100
AcDbEntity
  8
1
  6
CONTINUOUS
 62
     4
100
AcDbCircle
 10
400.479787
 20
376.271953
 30
0.0
 40
5.621153
210
0.0
220
0.0
230
1.0
100
AcDbArc
 50
140.836903
 51
201.114314
  0
ARC
  5
14A
100
AcDbEntity
  8
1
  6
CONTINUOUS
 62
     4
100
AcDbCircle
 10
394.279702
 20
373.613132
 30
0.0
 40
1.147339
210
0.0
220
0.0
230
1.0
100
AcDbArc
 50
266.386856
 51
33.539189
  0
INSERT
  5
14B
100
AcDbEntity
  8
1
  6
CONTINUOUS
 62
     1
100
AcDbBlockReference
  2
LDR
 10
361.341667
 20
347.673917
 30
0.0
 41
240.0
 42
240.0
 50
90.0
210
0.0
220
0.0
230
1.0
  0
INSERT
  5
14C
100
AcDbEntity
  8
1
  6
CONTINUOUS
 62
     1
100
AcDbBlockReference
  2
LDR
 10
361.341667
 20
347.673917
 30
0.0
 41
240.0
 42
240.0
 50
90.0
210
0.0
220
0.0
230
1.0
  0
INSERT
  5
14D
100
AcDbEntity
  8
1
  6
CONTINUOUS
 62
     1
100
AcDbBlockReference
  2
LDR
 10
361.341667
 20
332.673917
 30
0.0
 41
240.0
 42
240.0
 50
270.0
210
0.0
220
0.0
230
1.0
  0
INSERT
  5
14E
100
AcDbEntity
  8
1
  6
CONTINUOUS
 62
     1
100
AcDbBlockReference
  2
LDR
 10
361.341667
 20
332.673917
 30
0.0
 41
240.0
 42
240.0
 50
270.0
210
0.0
220
0.0
230
1.0
  0
LINE
  5
14F
100
AcDbEntity
  8
1
  6
CONTINUOUS
 62
     4
100
AcDbLine
 10
351.091667
 20
402.173917
 30
0.0
 11
357.701083
 21
408.5995
 31
0.0
  0
LINE
  5
150
100
AcDbEntity
  8
1
  6
CONTINUOUS
 62
     4
100
AcDbLine
 10
357.701083
 20
408.5995
 30
0.0
 11
361.591333
 21
408.617083
 31
0.0
  0
INSERT
  5
151
100
AcDbEntity
  8
1
  6
CONTINUOUS
 62
     1
100
AcDbBlockReference
  2
LDR
 10
351.091667
 20
402.173917
 30
0.0
 41
239.999998
 42
239.999998
 50
224.192008
210
0.0
220
0.0
230
1.0
  0
LINE
  5
152
100
AcDbEntity
  8
1
  6
CONTINUOUS
 62
     4
100
AcDbLine
 10
376.292083
 20
388.418333
 30
0.0
 11
387.003333
 21
395.805
 31
0.0
  0
LINE
  5
153
100
AcDbEntity
  8
1
  6
CONTINUOUS
 62
     4
100
AcDbLine
 10
387.003333
 20
395.805
 30
0.0
 11
393.040167
 21
395.805
 31
0.0
  0
INSERT
  5
154
100
AcDbEntity
  8
1
  6
CONTINUOUS
 62
     1
100
AcDbBlockReference
  2
LDR
 10
376.292083
 20
388.418333
 30
0.0
 41
240.000001
 42
240.000001
 50
214.59083
210
0.0
220
0.0
230
1.0
  0
INSERT
  5
155
100
AcDbEntity
  8
1
  6
CONTINUOUS
 62
     1
100
AcDbBlockReference
  2
LDR
 10
376.292083
 20
388.418333
 30
0.0
 41
240.000001
 42
240.000001
 50
214.59083
210
0.0
220
0.0
230
1.0
  0
LINE
  5
156
100
AcDbEntity
  8
1
  6
CONTINUOUS
 62
     4
100
AcDbLine
 10
380.640167
 20
373.037
 30
0.0
 11
383.33225
 21
362.346667
 31
0.0
  0
LINE
  5
157
100
AcDbEntity
  8
1
  6
CONTINUOUS
 62
     4
100
AcDbLine
 10
383.33225
 20
362.346667
 30
0.0
 11
389.04275
 21
362.346667
 31
0.0
  0
INSERT
  5
158
100
AcDbEntity
  8
1
  6
CONTINUOUS
 62
     1
100
AcDbBlockReference
  2
LDR
 10
380.640167
 20
373.037
 30
0.0
 41
239.999998
 42
239.999998
 50
104.134565
210
0.0
220
0.0
230
1.0
  0
INSERT
  5
159
100
AcDbEntity
  8
1
  6
CONTINUOUS
 62
     1
100
AcDbBlockReference
  2
LDR
 10
380.640167
 20
373.037
 30
0.0
 41
239.999998
 42
239.999998
 50
104.134565
210
0.0
220
0.0
230
1.0
  0
LINE
  5
15A
100
AcDbEntity
  8
1
  6
CONTINUOUS
 62
     4
100
AcDbLine
 10
343.195333
 20
347.673917
 30
0.0
 11
343.195333
 21
374.173917
 31
0.0
  0
INSERT
  5
15B
100
AcDbEntity
  8
1
  6
CONTINUOUS
 62
     1
100
AcDbBlockReference
  2
LDR
 10
343.195333
 20
374.173917
 30
0.0
 41
240.0
 42
240.0
 50
90.0
210
0.0
220
0.0
230
1.0
  0
INSERT
  5
15C
100
AcDbEntity
  8
1
  6
CONTINUOUS
 62
     1
100
AcDbBlockReference
  2
LDR
 10
343.195333
 20
374.173917
 30
0.0
 41
240.0
 42
240.0
 50
90.0
210
0.0
220
0.0
230
1.0
  0
INSERT
  5
15D
100
AcDbEntity
  8
1
  6
CONTINUOUS
 62
     1
100
AcDbBlockReference
  2
LDR
 10
343.195333
 20
347.673917
 30
0.0
 41
240.0
 42
240.0
 50
270.0
210
0.0
220
0.0
230
1.0
  0
LINE
  5
15E
100
AcDbEntity
  8
1
  6
CONTINUOUS
 62
     4
100
AcDbLine
 10
351.438417
 20
347.883
 30
0.0
 11
331.605083
 21
335.534333
 31
0.0
  0
LINE
  5
15F
100
AcDbEntity
  8
1
  6
CONTINUOUS
 62
     4
100
AcDbLine
 10
331.605083
 20
335.534333
 30
0.0
 11
326.105583
 21
335.534333
 31
0.0
  0
INSERT
  5
160
100
AcDbEntity
  8
1
  6
CONTINUOUS
 62
     1
100
AcDbBlockReference
  2
LDR
 10
351.438417
 20
347.883
 30
0.0
 41
239.999999
 42
239.999999
 50
31.907295
210
0.0
220
0.0
230
1.0
  0
LINE
  5
161
100
AcDbEntity
  8
1
  6
CONTINUOUS
 62
     4
100
AcDbLine
 10
343.195333
 20
360.923917
 30
0.0
 11
322.946417
 21
360.923917
 31
0.0
  0
LINE
  5
162
100
AcDbEntity
  8
1
  6
CONTINUOUS
 62
     4
100
AcDbLine
 10
361.325917
 20
340.450333
 30
0.0
 11
377.239333
 21
346.771
 31
0.0
  0
LINE
  5
163
100
AcDbEntity
  8
1
  6
CONTINUOUS
 62
     4
100
AcDbLine
 10
377.239333
 20
346.771
 30
0.0
 11
383.557917
 21
346.771
 31
0.0
  0
TEXT
  5
164
100
AcDbEntity
  8
1
  6
CONTINUOUS
 62
     7
100
AcDbText
 10
393.852083
 20
394.511583
 30
0.0
 40
2.5
  1
0
  7
MONOTXT
210
0.0
220
0.0
230
1.0
100
AcDbText
  0
TEXT
  5
165
100
AcDbEntity
  8
1
  6
CONTINUOUS
 62
     7
100
AcDbText
 10
298.687083
 20
334.106167
 30
0.0
 40
2.5
  1
WEATHERHEAD
  7
MONOTXT
210
0.0
220
0.0
230
1.0
100
AcDbText
  0
TEXT
  5
166
100
AcDbEntity
  8
1
  6
CONTINUOUS
 62
     7
100
AcDbText
 10
281.106333
 20
407.0005
 30
0.0
 40
3.5
  1
2-WIRE SERVICE
  7
MONOTXT
210
0.0
220
0.0
230
1.0
100
AcDbText
  0
LINE
  5
167
100
AcDbEntity
  8
1
  6
CONTINUOUS
 62
     7
100
AcDbLine
 10
279.5535
 20
405.318
 30
0.0
 11
325.098417
 21
405.318
 31
0.0
  0
TEXT
  5
168
100
AcDbEntity
  8
1
  6
CONTINUOUS
 62
     7
100
AcDbText
 10
393.945583
 20
394.496417
 30
0.0
 40
2.5
  1
/
  7
MONOTXT
210
0.0
220
0.0
230
1.0
100
AcDbText
  0
LINE
  5
169
100
AcDbEntity
  8
1
  6
CONTINUOUS
 62
     4
100
AcDbLine
 10
348.341667
 20
369.923917
 30
0.0
 11
349.341667
 21
369.923917
 31
0.0
  0
LINE
  5
16A
100
AcDbEntity
  8
1
  6
CONTINUOUS
 62
     4
100
AcDbLine
 10
348.341667
 20
394.423917
 30
0.0
 11
349.341667
 21
394.423917
 31
0.0
  0
LINE
  5
16B
100
AcDbEntity
  8
1
  6
CONTINUOUS
 62
     4
100
AcDbLine
 10
348.341667
 20
394.423917
 30
0.0
 11
348.341667
 21
393.423917
 31
0.0
  0
LINE
  5
16C
100
AcDbEntity
  8
1
  6
CONTINUOUS
 62
     4
100
AcDbLine
 10
348.341667
 20
386.423917
 30
0.0
 11
348.341667
 21
378.923917
 31
0.0
  0
LINE
  5
16D
100
AcDbEntity
  8
1
  6
CONTINUOUS
 62
     4
100
AcDbLine
 10
348.341667
 20
370.923917
 30
0.0
 11
348.341667
 21
369.923917
 31
0.0
  0
LINE
  5
16E
100
AcDbEntity
  8
1
  6
CONTINUOUS
 62
     4
100
AcDbLine
 10
349.341667
 20
394.423917
 30
0.0
 11
349.341667
 21
393.423917
 31
0.0
  0
LINE
  5
16F
100
AcDbEntity
  8
1
  6
CONTINUOUS
 62
     4
100
AcDbLine
 10
349.341667
 20
386.423917
 30
0.0
 11
349.341667
 21
378.923917
 31
0.0
  0
LINE
  5
170
100
AcDbEntity
  8
1
  6
CONTINUOUS
 62
     4
100
AcDbLine
 10
349.341667
 20
370.923917
 30
0.0
 11
349.341667
 21
369.923917
 31
0.0
  0
TEXT
  5
171
100
AcDbEntity
  8
1
  6
CONTINUOUS
 62
     7
100
AcDbText
 10
363.004917
 20
407.67075
 30
0.0
 40
2.5
  1
1 - POLE, SECONDARY LIGHTNING ARRESTER
  7
MONOTXT
210
0.0
220
0.0
230
1.0
100
AcDbText
  0
TEXT
  5
172
100
AcDbEntity
  8
1
  6
CONTINUOUS
 62
     7
100
AcDbText
 10
363.004917
 20
403.17075
 30
0.0
 40
2.5
  1
(2 - POLE IF BOTH WIRES ARE HOT)
  7
MONOTXT
210
0.0
220
0.0
230
1.0
100
AcDbText
  0
TEXT
  5
173
100
AcDbEntity
  8
1
  6
CONTINUOUS
 62
     7
100
AcDbText
 10
398.947917
 20
382.45375
 30
0.0
 40
2.5
  1
MAY BE SHOWN ON
  7
MONOTXT
 11
398.947917
 21
384.95375
 31
0.0
210
0.0
220
0.0
230
1.0
100
AcDbText
 73
     3
  0
TEXT
  5
174
100
AcDbEntity
  8
1
  6
CONTINUOUS
 62
     7
100
AcDbText
 10
398.947917
 20
377.95375
 30
0.0
 40
2.5
  1
SINGLE SUPPORT IF
  7
MONOTXT
 11
398.947917
 21
380.45375
 31
0.0
210
0.0
220
0.0
230
1.0
100
AcDbText
 73
     3
  0
TEXT
  5
175
100
AcDbEntity
  8
1
  6
CONTINUOUS
 62
     7
100
AcDbText
 10
398.947917
 20
373.45375
 30
0.0
 40
2.5
  1
DUPLEX IS USED
  7
MONOTXT
 11
398.947917
 21
375.95375
 31
0.0
210
0.0
220
0.0
230
1.0
100
AcDbText
 73
     3
  0
TEXT
  5
176
100
AcDbEntity
  8
1
  6
CONTINUOUS
 62
     7
100
AcDbText
 10
390.212667
 20
361.100917
 30
0.0
 40
2.5
  1
NEUTRAL OR PHASE WIRE IF SERVICE
  7
MONOTXT
210
0.0
220
0.0
230
1.0
100
AcDbText
  0
TEXT
  5
177
100
AcDbEntity
  8
1
  6
CONTINUOUS
 62
     7
100
AcDbText
 10
390.212667
 20
356.600917
 30
0.0
 40
2.5
  1
IS A DELTA-CONNECTED SECONDARY
  7
MONOTXT
210
0.0
220
0.0
230
1.0
100
AcDbText
  0
TEXT
  5
178
100
AcDbEntity
  8
1
  6
CONTINUOUS
 62
     7
100
AcDbText
 10
219.2605
 20
304.788083
 30
0.0
 40
3.5
  1
TYPICAL SERVICE POLE HEADS
  7
MONOTXT
210
0.0
220
0.0
230
1.0
100
AcDbText
  0
LINE
  5
179
100
AcDbEntity
  8
1
  6
CONTINUOUS
 62
     7
100
AcDbLine
 10
216.93375
 20
302.072667
 30
0.0
 11
306.518667
 21
302.072667
 31
0.0
  0
LINE
  5
17A
100
AcDbEntity
  8
1
  6
CONTINUOUS
 62
    30
100
AcDbLine
 10
139.655
 20
267.0065
 30
0.0
 11
139.655
 21
39.0065
 31
0.0
  0
LINE
  5
17B
100
AcDbEntity
  8
1
  6
CONTINUOUS
 62
    30
100
AcDbLine
 10
151.655
 20
273.0065
 30
0.0
 11
151.655
 21
39.0065
 31
0.0
  0
LINE
  5
17C
100
AcDbEntity
  8
1
  6
CONTINUOUS
 62
    30
100
AcDbLine
 10
139.655
 20
39.0065
 30
0.0
 11
151.655
 21
39.0065
 31
0.0
  0
LINE
  5
17D
100
AcDbEntity
  8
1
  6
CONTINUOUS
 62
    30
100
AcDbLine
 10
139.655
 20
267.0065
 30
0.0
 11
151.655
 21
273.0065
 31
0.0
  0
CIRCLE
  5
17E
100
AcDbEntity
  8
1
  6
CONTINUOUS
 62
    30
100
AcDbCircle
 10
145.688583
 20
264.645167
 30
0.0
 40
14.0
210
0.0
220
0.0
230
1.0
  0
LINE
  5
17F
100
AcDbEntity
  8
1
  6
CONTINUOUS
 62
    30
100
AcDbLine
 10
153.655
 20
176.5065
 30
0.0
 11
151.655
 21
176.5065
 31
0.0
  0
LINE
  5
180
100
AcDbEntity
  8
1
  6
CONTINUOUS
 62
    30
100
AcDbLine
 10
153.655
 20
175.0065
 30
0.0
 11
151.655
 21
175.0065
 31
0.0
  0
LINE
  5
181
100
AcDbEntity
  8
1
  6
CONTINUOUS
 62
    30
100
AcDbLine
 10
153.655
 20
135.5065
 30
0.0
 11
151.655
 21
135.5065
 31
0.0
  0
LINE
  5
182
100
AcDbEntity
  8
1
  6
CONTINUOUS
 62
    30
100
AcDbLine
 10
153.655
 20
134.0065
 30
0.0
 11
151.655
 21
134.0065
 31
0.0
  0
LINE
  5
183
100
AcDbEntity
  8
1
  6
CONTINUOUS
 62
    30
100
AcDbLine
 10
153.655
 20
93.0065
 30
0.0
 11
151.655
 21
93.0065
 31
0.0
  0
LINE
  5
184
100
AcDbEntity
  8
1
  6
CONTINUOUS
 62
    30
100
AcDbLine
 10
153.655
 20
91.5065
 30
0.0
 11
151.655
 21
91.5065
 31
0.0
  0
LINE
  5
185
100
AcDbEntity
  8
1
  6
CONTINUOUS
 62
    30
100
AcDbLine
 10
153.655
 20
253.0065
 30
0.0
 11
153.655
 21
176.5065
 31
0.0
  0
LINE
  5
186
100
AcDbEntity
  8
1
  6
CONTINUOUS
 62
    30
100
AcDbLine
 10
153.655
 20
175.0065
 30
0.0
 11
153.655
 21
135.5065
 31
0.0
  0
ARC
  5
187
100
AcDbEntity
  8
1
  6
CONTINUOUS
 62
    30
100
AcDbCircle
 10
153.360224
 20
175.7565
 30
0.0
 40
0.805849
210
0.0
220
0.0
230
1.0
100
AcDbArc
 50
291.456517
 51
68.543481
  0
ARC
  5
188
100
AcDbEntity
  8
1
  6
CONTINUOUS
 62
    30
100
AcDbCircle
 10
153.360224
 20
134.7565
 30
0.0
 40
0.805849
210
0.0
220
0.0
230
1.0
100
AcDbArc
 50
291.456517
 51
68.543481
  0
ARC
  5
189
100
AcDbEntity
  8
1
  6
CONTINUOUS
 62
    30
100
AcDbCircle
 10
153.360224
 20
92.2565
 30
0.0
 40
0.805849
210
0.0
220
0.0
230
1.0
100
AcDbArc
 50
291.456517
 51
68.543481
  0
LINE
  5
18A
100
AcDbEntity
  8
1
  6
CONTINUOUS
 62
    30
100
AcDbLine
 10
153.655
 20
127.0065
 30
0.0
 11
151.655
 21
127.0065
 31
0.0
  0
LINE
  5
18B
100
AcDbEntity
  8
1
  6
CONTINUOUS
 62
    30
100
AcDbLine
 10
153.905
 20
126.7565
 30
0.0
 11
151.655
 21
126.7565
 31
0.0
  0
LINE
  5
18C
100
AcDbEntity
  8
1
  6
CONTINUOUS
 62
    30
100
AcDbLine
 10
157.905
 20
126.2565
 30
0.0
 11
151.655
 21
126.2565
 31
0.0
  0
LINE
  5
18D
100
AcDbEntity
  8
1
  6
CONTINUOUS
 62
    30
100
AcDbLine
 10
157.905
 20
109.7565
 30
0.0
 11
151.655
 21
109.7565
 31
0.0
  0
LINE
  5
18E
100
AcDbEntity
  8
1
  6
CONTINUOUS
 62
    30
100
AcDbLine
 10
153.905
 20
109.2565
 30
0.0
 11
151.655
 21
109.2565
 31
0.0
  0
LINE
  5
18F
100
AcDbEntity
  8
1
  6
CONTINUOUS
 62
    30
100
AcDbLine
 10
153.655
 20
109.0065
 30
0.0
 11
151.655
 21
109.0065
 31
0.0
  0
LINE
  5
190
100
AcDbEntity
  8
1
  6
CONTINUOUS
 62
    30
100
AcDbLine
 10
157.905
 20
126.2565
 30
0.0
 11
157.905
 21
109.7565
 31
0.0
  0
LINE
  5
191
100
AcDbEntity
  8
1
  6
CONTINUOUS
 62
    30
100
AcDbLine
 10
153.905
 20
126.7565
 30
0.0
 11
153.905
 21
126.2565
 31
0.0
  0
LINE
  5
192
100
AcDbEntity
  8
1
  6
CONTINUOUS
 62
    30
100
AcDbLine
 10
153.905
 20
109.2565
 30
0.0
 11
153.905
 21
109.7565
 31
0.0
  0
LINE
  5
193
100
AcDbEntity
  8
1
  6
CONTINUOUS
 62
    30
100
AcDbLine
 10
160.155
 20
123.7565
 30
0.0
 11
157.905
 21
123.7565
 31
0.0
  0
LINE
  5
194
100
AcDbEntity
  8
1
  6
CONTINUOUS
 62
    30
100
AcDbLine
 10
160.155
 20
117.7565
 30
0.0
 11
157.905
 21
117.7565
 31
0.0
  0
LINE
  5
195
100
AcDbEntity
  8
1
  6
CONTINUOUS
 62
    30
100
AcDbLine
 10
160.155
 20
123.7565
 30
0.0
 11
160.155
 21
117.7565
 31
0.0
  0
LINE
  5
196
100
AcDbEntity
  8
1
  6
CONTINUOUS
 62
    30
100
AcDbLine
 10
153.655
 20
134.0065
 30
0.0
 11
153.655
 21
126.7565
 31
0.0
  0
LINE
  5
197
100
AcDbEntity
  8
1
  6
CONTINUOUS
 62
    30
100
AcDbLine
 10
153.655
 20
109.2565
 30
0.0
 11
153.655
 21
93.0065
 31
0.0
  0
LINE
  5
198
100
AcDbEntity
  8
1
  6
HIDDEN
 62
    30
100
AcDbLine
 10
139.655
 20
71.5065
 30
0.0
 11
151.655
 21
71.5065
 31
0.0
  0
LINE
  5
199
100
AcDbEntity
  8
PATTERN_CLASS
  6
CONTINUOUS
 62
    30
100
AcDbLine
 10
154.251333
 20
64.596417
 30
0.0
 11
215.251333
 21
64.596417
 31
0.0
  0
LINE
  5
19A
100
AcDbEntity
  8
1
  6
CONTINUOUS
 62
    30
100
AcDbLine
 10
153.655
 20
91.5065
 30
0.0
 11
153.655
 21
71.5065
 31
0.0
  0
LINE
  5
19B
100
AcDbEntity
  8
1
  6
HIDDEN
 62
    30
100
AcDbLine
 10
153.655
 20
71.5065
 30
0.0
 11
153.655
 21
61.5065
 31
0.0
  0
LINE
  5
19C
100
AcDbEntity
  8
1
  6
HIDDEN
 62
    30
100
AcDbLine
 10
160.655
 20
54.5065
 30
0.0
 11
189.674667
 21
54.5065
 31
0.0
  0
LINE
  5
19D
100
AcDbEntity
  8
1
  6
HIDDEN
 62
    30
100
AcDbLine
 10
160.655
 20
52.5065
 30
0.0
 11
191.68175
 21
52.5065
 31
0.0
  0
ARC
  5
19E
100
AcDbEntity
  8
1
  6
HIDDEN
 62
    30
100
AcDbCircle
 10
160.655
 20
61.5065
 30
0.0
 40
7.0
210
0.0
220
0.0
230
1.0
100
AcDbArc
 50
180.0
 51
270.0
  0
ARC
  5
19F
100
AcDbEntity
  8
1
  6
HIDDEN
 62
    30
100
AcDbCircle
 10
160.655
 20
61.5065
 30
0.0
 40
9.0
210
0.0
220
0.0
230
1.0
100
AcDbArc
 50
180.0
 51
270.0
  0
ARC
  5
1A0
100
AcDbEntity
  8
1
  6
CONTINUOUS
 62
    30
100
AcDbCircle
 10
191.92994
 20
56.28784
 30
0.0
 40
2.873935
210
0.0
220
0.0
230
1.0
100
AcDbArc
 50
107.801519
 51
240.198478
  0
ARC
  5
1A1
100
AcDbEntity
  8
1
  6
CONTINUOUS
 62
    30
100
AcDbCircle
 10
189.073266
 20
51.300113
 30
0.0
 40
2.873935
210
0.0
220
0.0
230
1.0
100
AcDbArc
 50
287.801519
 51
60.198478
  0
ARC
  5
1A2
100
AcDbEntity
  8
1
  6
CONTINUOUS
 62
    30
100
AcDbCircle
 10
144.3256
 20
201.011196
 30
0.0
 40
2.873935
210
0.0
220
0.0
230
1.0
100
AcDbArc
 50
287.801519
 51
60.198478
  0
ARC
  5
1A3
100
AcDbEntity
  8
1
  6
CONTINUOUS
 62
    30
100
AcDbCircle
 10
147.182274
 20
205.998923
 30
0.0
 40
2.873935
210
0.0
220
0.0
230
1.0
100
AcDbArc
 50
107.801519
 51
240.198478
  0
LINE
  5
1A4
100
AcDbEntity
  8
1
  6
CONTINUOUS
 62
     7
100
AcDbLine
 10
154.50525
 20
71.463333
 30
0.0
 11
156.8805
 21
69.088083
 31
0.0
  0
LINE
  5
1A5
100
AcDbEntity
  8
1
  6
CONTINUOUS
 62
     7
100
AcDbLine
 10
153.987
 20
70.426833
 30
0.0
 11
155.995167
 21
68.440333
 31
0.0
  0
LINE
  5
1A6
100
AcDbEntity
  8
1
  6
CONTINUOUS
 62
     7
100
AcDbLine
 10
159.234083
 20
71.463333
 30
0.0
 11
156.8805
 21
69.088083
 31
0.0
  0
LINE
  5
1A7
100
AcDbEntity
  8
1
  6
CONTINUOUS
 62
     7
100
AcDbLine
 10
157.701
 20
71.463333
 30
0.0
 11
156.211083
 21
69.973417
 31
0.0
  0
LINE
  5
1A8
100
AcDbEntity
  8
1
  6
CONTINUOUS
 62
     7
100
AcDbLine
 10
156.146333
 20
71.463333
 30
0.0
 11
155.54175
 21
70.837083
 31
0.0
  0
LINE
  5
1A9
100
AcDbEntity
  8
1
  6
CONTINUOUS
 62
     7
100
AcDbLine
 10
159.234083
 20
71.463333
 30
0.0
 11
161.544583
 21
69.152833
 31
0.0
  0
LINE
  5
1AA
100
AcDbEntity
  8
1
  6
CONTINUOUS
 62
     7
100
AcDbLine
 10
158.672667
 20
70.491667
 30
0.0
 11
160.65925
 21
68.505083
 31
0.0
  0
LINE
  5
1AB
100
AcDbEntity
  8
1
  6
CONTINUOUS
 62
     7
100
AcDbLine
 10
158.176083
 20
69.455167
 30
0.0
 11
159.558
 21
68.07325
 31
0.0
  0
LINE
  5
1AC
100
AcDbEntity
  8
1
  6
CONTINUOUS
 62
     7
100
AcDbLine
 10
157.614667
 20
68.461917
 30
0.0
 11
158.543167
 21
67.533417
 31
0.0
  0
LINE
  5
1AD
100
AcDbEntity
  8
1
  6
CONTINUOUS
 62
     7
100
AcDbLine
 10
163.855
 20
71.463333
 30
0.0
 11
161.544583
 21
69.152833
 31
0.0
  0
LINE
  5
1AE
100
AcDbEntity
  8
1
  6
CONTINUOUS
 62
     7
100
AcDbLine
 10
162.321917
 20
71.463333
 30
0.0
 11
160.89675
 21
70.038167
 31
0.0
  0
LINE
  5
1AF
100
AcDbEntity
  8
1
  6
CONTINUOUS
 62
     7
100
AcDbLine
 10
160.76725
 20
71.463333
 30
0.0
 11
160.205833
 21
70.901917
 31
0.0
  0
LINE
  5
1B0
100
AcDbEntity
  8
1
  6
CONTINUOUS
 62
     7
100
AcDbLine
 10
165.280167
 20
71.463333
 30
0.0
 11
163.855
 21
70.038167
 31
0.0
  0
LINE
  5
1B1
100
AcDbEntity
  8
1
  6
CONTINUOUS
 62
     7
100
AcDbLine
 10
166.81325
 20
71.463333
 30
0.0
 11
163.984583
 21
68.634667
 31
0.0
  0
LINE
  5
1B2
100
AcDbEntity
  8
1
  6
CONTINUOUS
 62
     7
100
AcDbLine
 10
166.70525
 20
71.463333
 30
0.0
 11
169.0805
 21
69.088083
 31
0.0
  0
LINE
  5
1B3
100
AcDbEntity
  8
1
  6
CONTINUOUS
 62
     7
100
AcDbLine
 10
166.187
 20
70.426833
 30
0.0
 11
168.195167
 21
68.440333
 31
0.0
  0
LINE
  5
1B4
100
AcDbEntity
  8
1
  6
CONTINUOUS
 62
     7
100
AcDbLine
 10
165.690417
 20
69.390417
 30
0.0
 11
167.072333
 21
68.008417
 31
0.0
  0
LINE
  5
1B5
100
AcDbEntity
  8
1
  6
CONTINUOUS
 62
     7
100
AcDbLine
 10
165.150583
 20
68.397083
 30
0.0
 11
166.079083
 21
67.49025
 31
0.0
  0
LINE
  5
1B6
100
AcDbEntity
  8
1
  6
CONTINUOUS
 62
     7
100
AcDbLine
 10
171.434083
 20
71.463333
 30
0.0
 11
169.0805
 21
69.088083
 31
0.0
  0
LINE
  5
1B7
100
AcDbEntity
  8
1
  6
CONTINUOUS
 62
     7
100
AcDbLine
 10
169.901
 20
71.463333
 30
0.0
 11
168.411083
 21
69.973417
 31
0.0
  0
LINE
  5
1B8
100
AcDbEntity
  8
1
  6
CONTINUOUS
 62
     7
100
AcDbLine
 10
168.346333
 20
71.463333
 30
0.0
 11
167.74175
 21
70.837083
 31
0.0
  0
LINE
  5
1B9
100
AcDbEntity
  8
1
  6
CONTINUOUS
 62
     7
100
AcDbLine
 10
170.376083
 20
69.455167
 30
0.0
 11
171.758
 21
68.07325
 31
0.0
  0
LINE
  5
1BA
100
AcDbEntity
  8
1
  6
CONTINUOUS
 62
     7
100
AcDbLine
 10
169.814667
 20
68.461917
 30
0.0
 11
170.743167
 21
67.533417
 31
0.0
  0
LINE
  5
1BB
100
AcDbEntity
  8
1
  6
CONTINUOUS
 62
     7
100
AcDbLine
 10
177.480167
 20
71.463333
 30
0.0
 11
176.055
 21
70.038167
 31
0.0
  0
LINE
  5
1BC
100
AcDbEntity
  8
1
  6
CONTINUOUS
 62
     7
100
AcDbLine
 10
179.01325
 20
71.463333
 30
0.0
 11
176.184583
 21
68.634667
 31
0.0
  0
LINE
  5
1BD
100
AcDbEntity
  8
1
  6
CONTINUOUS
 62
     7
100
AcDbLine
 10
178.90525
 20
71.463333
 30
0.0
 11
181.2805
 21
69.088083
 31
0.0
  0
LINE
  5
1BE
100
AcDbEntity
  8
1
  6
CONTINUOUS
 62
     7
100
AcDbLine
 10
178.387
 20
70.426833
 30
0.0
 11
180.395167
 21
68.440333
 31
0.0
  0
LINE
  5
1BF
100
AcDbEntity
  8
1
  6
CONTINUOUS
 62
     7
100
AcDbLine
 10
177.890417
 20
69.390417
 30
0.0
 11
179.272333
 21
68.008417
 31
0.0
  0
LINE
  5
1C0
100
AcDbEntity
  8
1
  6
CONTINUOUS
 62
     7
100
AcDbLine
 10
177.350583
 20
68.397083
 30
0.0
 11
178.279083
 21
67.49025
 31
0.0
  0
LINE
  5
1C1
100
AcDbEntity
  8
1
  6
CONTINUOUS
 62
     7
100
AcDbLine
 10
183.634083
 20
71.463333
 30
0.0
 11
181.2805
 21
69.088083
 31
0.0
  0
LINE
  5
1C2
100
AcDbEntity
  8
1
  6
CONTINUOUS
 62
     7
100
AcDbLine
 10
182.101
 20
71.463333
 30
0.0
 11
180.611083
 21
69.973417
 31
0.0
  0
LINE
  5
1C3
100
AcDbEntity
  8
1
  6
CONTINUOUS
 62
     7
100
AcDbLine
 10
180.546333
 20
71.463333
 30
0.0
 11
179.94175
 21
70.837083
 31
0.0
  0
LINE
  5
1C4
100
AcDbEntity
  8
1
  6
CONTINUOUS
 62
     7
100
AcDbLine
 10
183.634083
 20
71.463333
 30
0.0
 11
185.944583
 21
69.152833
 31
0.0
  0
LINE
  5
1C5
100
AcDbEntity
  8
1
  6
CONTINUOUS
 62
     7
100
AcDbLine
 10
183.072667
 20
70.491667
 30
0.0
 11
185.05925
 21
68.505083
 31
0.0
  0
LINE
  5
1C6
100
AcDbEntity
  8
1
  6
CONTINUOUS
 62
     7
100
AcDbLine
 10
182.576083
 20
69.455167
 30
0.0
 11
183.958
 21
68.07325
 31
0.0
  0
LINE
  5
1C7
100
AcDbEntity
  8
1
  6
CONTINUOUS
 62
     7
100
AcDbLine
 10
182.014667
 20
68.461917
 30
0.0
 11
182.943167
 21
67.533417
 31
0.0
  0
LINE
  5
1C8
100
AcDbEntity
  8
1
  6
CONTINUOUS
 62
     7
100
AcDbLine
 10
188.255
 20
71.463333
 30
0.0
 11
185.944583
 21
69.152833
 31
0.0
  0
LINE
  5
1C9
100
AcDbEntity
  8
1
  6
CONTINUOUS
 62
     7
100
AcDbLine
 10
186.721917
 20
71.463333
 30
0.0
 11
185.29675
 21
70.038167
 31
0.0
  0
LINE
  5
1CA
100
AcDbEntity
  8
1
  6
CONTINUOUS
 62
     7
100
AcDbLine
 10
185.16725
 20
71.463333
 30
0.0
 11
184.605833
 21
70.901917
 31
0.0
  0
LINE
  5
1CB
100
AcDbEntity
  8
1
  6
CONTINUOUS
 62
     7
100
AcDbLine
 10
189.680167
 20
71.463333
 30
0.0
 11
188.255
 21
70.038167
 31
0.0
  0
LINE
  5
1CC
100
AcDbEntity
  8
1
  6
CONTINUOUS
 62
     7
100
AcDbLine
 10
191.21325
 20
71.463333
 30
0.0
 11
188.384583
 21
68.634667
 31
0.0
  0
LINE
  5
1CD
100
AcDbEntity
  8
1
  6
CONTINUOUS
 62
     7
100
AcDbLine
 10
191.10525
 20
71.463333
 30
0.0
 11
193.4805
 21
69.088083
 31
0.0
  0
LINE
  5
1CE
100
AcDbEntity
  8
1
  6
CONTINUOUS
 62
     7
100
AcDbLine
 10
190.587
 20
70.426833
 30
0.0
 11
192.595167
 21
68.440333
 31
0.0
  0
LINE
  5
1CF
100
AcDbEntity
  8
1
  6
CONTINUOUS
 62
     7
100
AcDbLine
 10
190.090417
 20
69.390417
 30
0.0
 11
191.472333
 21
68.008417
 31
0.0
  0
LINE
  5
1D0
100
AcDbEntity
  8
1
  6
CONTINUOUS
 62
     7
100
AcDbLine
 10
189.550583
 20
68.397083
 30
0.0
 11
190.479083
 21
67.49025
 31
0.0
  0
LINE
  5
1D1
100
AcDbEntity
  8
1
  6
CONTINUOUS
 62
     7
100
AcDbLine
 10
195.834083
 20
71.463333
 30
0.0
 11
193.4805
 21
69.088083
 31
0.0
  0
LINE
  5
1D2
100
AcDbEntity
  8
1
  6
CONTINUOUS
 62
     7
100
AcDbLine
 10
194.301
 20
71.463333
 30
0.0
 11
192.811083
 21
69.973417
 31
0.0
  0
LINE
  5
1D3
100
AcDbEntity
  8
1
  6
CONTINUOUS
 62
     7
100
AcDbLine
 10
192.746333
 20
71.463333
 30
0.0
 11
192.14175
 21
70.837083
 31
0.0
  0
LINE
  5
1D4
100
AcDbEntity
  8
1
  6
CONTINUOUS
 62
     7
100
AcDbLine
 10
195.834083
 20
71.463333
 30
0.0
 11
198.144583
 21
69.152833
 31
0.0
  0
LINE
  5
1D5
100
AcDbEntity
  8
1
  6
CONTINUOUS
 62
     7
100
AcDbLine
 10
195.272667
 20
70.491667
 30
0.0
 11
197.25925
 21
68.505083
 31
0.0
  0
LINE
  5
1D6
100
AcDbEntity
  8
1
  6
CONTINUOUS
 62
     7
100
AcDbLine
 10
194.776083
 20
69.455167
 30
0.0
 11
196.158
 21
68.07325
 31
0.0
  0
LINE
  5
1D7
100
AcDbEntity
  8
1
  6
CONTINUOUS
 62
     7
100
AcDbLine
 10
194.214667
 20
68.461917
 30
0.0
 11
195.143167
 21
67.533417
 31
0.0
  0
LINE
  5
1D8
100
AcDbEntity
  8
1
  6
CONTINUOUS
 62
     7
100
AcDbLine
 10
200.455
 20
71.463333
 30
0.0
 11
198.144583
 21
69.152833
 31
0.0
  0
LINE
  5
1D9
100
AcDbEntity
  8
1
  6
CONTINUOUS
 62
     7
100
AcDbLine
 10
198.921917
 20
71.463333
 30
0.0
 11
197.49675
 21
70.038167
 31
0.0
  0
LINE
  5
1DA
100
AcDbEntity
  8
1
  6
CONTINUOUS
 62
     7
100
AcDbLine
 10
197.36725
 20
71.463333
 30
0.0
 11
196.805833
 21
70.901917
 31
0.0
  0
LINE
  5
1DB
100
AcDbEntity
  8
1
  6
CONTINUOUS
 62
     7
100
AcDbLine
 10
201.880167
 20
71.463333
 30
0.0
 11
200.455
 21
70.038167
 31
0.0
  0
LINE
  5
1DC
100
AcDbEntity
  8
1
  6
CONTINUOUS
 62
     7
100
AcDbLine
 10
203.41325
 20
71.463333
 30
0.0
 11
200.584583
 21
68.634667
 31
0.0
  0
LINE
  5
1DD
100
AcDbEntity
  8
1
  6
CONTINUOUS
 62
     7
100
AcDbLine
 10
203.30525
 20
71.463333
 30
0.0
 11
205.6805
 21
69.088083
 31
0.0
  0
LINE
  5
1DE
100
AcDbEntity
  8
1
  6
CONTINUOUS
 62
     7
100
AcDbLine
 10
202.787
 20
70.426833
 30
0.0
 11
204.795167
 21
68.440333
 31
0.0
  0
LINE
  5
1DF
100
AcDbEntity
  8
1
  6
CONTINUOUS
 62
     7
100
AcDbLine
 10
202.290417
 20
69.390417
 30
0.0
 11
203.672333
 21
68.008417
 31
0.0
  0
LINE
  5
1E0
100
AcDbEntity
  8
1
  6
CONTINUOUS
 62
     7
100
AcDbLine
 10
201.750583
 20
68.397083
 30
0.0
 11
202.679083
 21
67.49025
 31
0.0
  0
LINE
  5
1E1
100
AcDbEntity
  8
1
  6
CONTINUOUS
 62
     7
100
AcDbLine
 10
208.034083
 20
71.463333
 30
0.0
 11
205.6805
 21
69.088083
 31
0.0
  0
LINE
  5
1E2
100
AcDbEntity
  8
1
  6
CONTINUOUS
 62
     7
100
AcDbLine
 10
206.501
 20
71.463333
 30
0.0
 11
205.011083
 21
69.973417
 31
0.0
  0
LINE
  5
1E3
100
AcDbEntity
  8
1
  6
CONTINUOUS
 62
     7
100
AcDbLine
 10
204.946333
 20
71.463333
 30
0.0
 11
204.34175
 21
70.837083
 31
0.0
  0
LINE
  5
1E4
100
AcDbEntity
  8
1
  6
CONTINUOUS
 62
     7
100
AcDbLine
 10
208.034083
 20
71.463333
 30
0.0
 11
210.344583
 21
69.152833
 31
0.0
  0
LINE
  5
1E5
100
AcDbEntity
  8
1
  6
CONTINUOUS
 62
     7
100
AcDbLine
 10
207.472667
 20
70.491667
 30
0.0
 11
209.45925
 21
68.505083
 31
0.0
  0
LINE
  5
1E6
100
AcDbEntity
  8
1
  6
CONTINUOUS
 62
     7
100
AcDbLine
 10
206.976083
 20
69.455167
 30
0.0
 11
208.358
 21
68.07325
 31
0.0
  0
LINE
  5
1E7
100
AcDbEntity
  8
1
  6
CONTINUOUS
 62
     7
100
AcDbLine
 10
206.414667
 20
68.461917
 30
0.0
 11
207.343167
 21
67.533417
 31
0.0
  0
LINE
  5
1E8
100
AcDbEntity
  8
1
  6
CONTINUOUS
 62
     7
100
AcDbLine
 10
212.655
 20
71.463333
 30
0.0
 11
210.344583
 21
69.152833
 31
0.0
  0
LINE
  5
1E9
100
AcDbEntity
  8
1
  6
CONTINUOUS
 62
     7
100
AcDbLine
 10
211.121917
 20
71.463333
 30
0.0
 11
209.69675
 21
70.038167
 31
0.0
  0
LINE
  5
1EA
100
AcDbEntity
  8
1
  6
CONTINUOUS
 62
     7
100
AcDbLine
 10
209.56725
 20
71.463333
 30
0.0
 11
209.005833
 21
70.901917
 31
0.0
  0
LINE
  5
1EB
100
AcDbEntity
  8
1
  6
CONTINUOUS
 62
    30
100
AcDbLine
 10
151.655
 20
71.5065
 30
0.0
 11
212.655
 21
71.5065
 31
0.0
  0
LINE
  5
1EC
100
AcDbEntity
  8
PATTERN_CLASS
  6
CONTINUOUS
 62
    30
100
AcDbLine
 10
149.975833
 20
75.757667
 30
0.0
 11
88.975833
 21
75.757667
 31
0.0
  0
LINE
  5
1ED
100
AcDbEntity
  8
1
  6
CONTINUOUS
 62
    30
100
AcDbLine
 10
173.655
 20
71.5065
 30
0.0
 11
173.655
 21
54.5065
 31
0.0
  0
INSERT
  5
1EE
100
AcDbEntity
  8
1
  6
CONTINUOUS
 62
     1
100
AcDbBlockReference
  2
LDR
 10
173.655
 20
71.5065
 30
0.0
 41
240.0
 42
240.0
 50
90.0
210
0.0
220
0.0
230
1.0
  0
INSERT
  5
1EF
100
AcDbEntity
  8
1
  6
CONTINUOUS
 62
     1
100
AcDbBlockReference
  2
LDR
 10
173.655
 20
54.5065
 30
0.0
 41
240.0
 42
240.0
 50
270.0
210
0.0
220
0.0
230
1.0
  0
LINE
  5
1F0
100
AcDbEntity
  8
1
  6
CONTINUOUS
 62
    30
100
AcDbLine
 10
155.166083
 20
175.7565
 30
0.0
 11
169.655
 21
175.7565
 31
0.0
  0
LINE
  5
1F1
100
AcDbEntity
  8
1
  6
CONTINUOUS
 62
    30
100
AcDbLine
 10
155.166083
 20
134.7565
 30
0.0
 11
169.655
 21
134.7565
 31
0.0
  0
LINE
  5
1F2
100
AcDbEntity
  8
1
  6
CONTINUOUS
 62
    30
100
AcDbLine
 10
168.655
 20
175.7565
 30
0.0
 11
168.655
 21
134.7565
 31
0.0
  0
INSERT
  5
1F3
100
AcDbEntity
  8
1
  6
CONTINUOUS
 62
     1
100
AcDbBlockReference
  2
LDR
 10
168.655
 20
175.7565
 30
0.0
 41
240.0
 42
240.0
 50
90.0
210
0.0
220
0.0
230
1.0
  0
INSERT
  5
1F4
100
AcDbEntity
  8
1
  6
CONTINUOUS
 62
     1
100
AcDbBlockReference
  2
LDR
 10
168.655
 20
175.7565
 30
0.0
 41
240.0
 42
240.0
 50
90.0
210
0.0
220
0.0
230
1.0
  0
INSERT
  5
1F5
100
AcDbEntity
  8
1
  6
CONTINUOUS
 62
     1
100
AcDbBlockReference
  2
LDR
 10
168.655
 20
134.7565
 30
0.0
 41
240.0
 42
240.0
 50
270.0
210
0.0
220
0.0
230
1.0
  0
INSERT
  5
1F6
100
AcDbEntity
  8
1
  6
CONTINUOUS
 62
     1
100
AcDbBlockReference
  2
LDR
 10
168.655
 20
134.7565
 30
0.0
 41
240.0
 42
240.0
 50
270.0
210
0.0
220
0.0
230
1.0
  0
LINE
  5
1F7
100
AcDbEntity
  8
1
  6
CONTINUOUS
 62
    30
100
AcDbLine
 10
153.655
 20
230.571917
 30
0.0
 11
171.491833
 21
244.46575
 31
0.0
  0
LINE
  5
1F8
100
AcDbEntity
  8
1
  6
CONTINUOUS
 62
    30
100
AcDbLine
 10
171.491833
 20
244.46575
 30
0.0
 11
177.636917
 21
244.46575
 31
0.0
  0
LINE
  5
1F9
100
AcDbEntity
  8
1
  6
CONTINUOUS
 62
    30
100
AcDbLine
 10
145.753917
 20
203.505083
 30
0.0
 11
167.996167
 21
212.411833
 31
0.0
  0
LINE
  5
1FA
100
AcDbEntity
  8
1
  6
CONTINUOUS
 62
    30
100
AcDbLine
 10
167.996167
 20
212.411833
 30
0.0
 11
174.012167
 21
212.411833
 31
0.0
  0
LINE
  5
1FB
100
AcDbEntity
  8
1
  6
CONTINUOUS
 62
    30
100
AcDbLine
 10
154.13975
 20
175.96075
 30
0.0
 11
164.901667
 21
189.671417
 31
0.0
  0
LINE
  5
1FC
100
AcDbEntity
  8
1
  6
CONTINUOUS
 62
    30
100
AcDbLine
 10
164.901667
 20
189.671417
 30
0.0
 11
168.818583
 21
189.671417
 31
0.0
  0
LINE
  5
1FD
100
AcDbEntity
  8
1
  6
CONTINUOUS
 62
    30
100
AcDbLine
 10
157.905
 20
112.288833
 30
0.0
 11
173.287417
 21
120.94425
 31
0.0
  0
LINE
  5
1FE
100
AcDbEntity
  8
1
  6
CONTINUOUS
 62
    30
100
AcDbLine
 10
173.287417
 20
120.94425
 30
0.0
 11
177.755833
 21
120.94425
 31
0.0
  0
INSERT
  5
1FF
100
AcDbEntity
  8
1
  6
CONTINUOUS
 62
     1
100
AcDbBlockReference
  2
LDR
 10
153.655
 20
230.571917
 30
0.0
 41
239.999999
 42
239.999999
 50
217.916472
210
0.0
220
0.0
230
1.0
  0
INSERT
  5
200
100
AcDbEntity
  8
1
  6
CONTINUOUS
 62
     1
100
AcDbBlockReference
  2
LDR
 10
153.655
 20
230.571917
 30
0.0
 41
239.999999
 42
239.999999
 50
217.916472
210
0.0
220
0.0
230
1.0
  0
INSERT
  5
201
100
AcDbEntity
  8
1
  6
CONTINUOUS
 62
     1
100
AcDbBlockReference
  2
LDR
 10
145.753917
 20
203.505083
 30
0.0
 41
240.0
 42
240.0
 50
201.82328
210
0.0
220
0.0
230
1.0
  0
INSERT
  5
202
100
AcDbEntity
  8
1
  6
CONTINUOUS
 62
     1
100
AcDbBlockReference
  2
LDR
 10
145.753917
 20
203.505083
 30
0.0
 41
240.0
 42
240.0
 50
201.82328
210
0.0
220
0.0
230
1.0
  0
INSERT
  5
203
100
AcDbEntity
  8
1
  6
CONTINUOUS
 62
     1
100
AcDbBlockReference
  2
LDR
 10
154.13975
 20
175.96075
 30
0.0
 41
239.999997
 42
239.999997
 50
231.87056
210
0.0
220
0.0
230
1.0
  0
INSERT
  5
204
100
AcDbEntity
  8
1
  6
CONTINUOUS
 62
     1
100
AcDbBlockReference
  2
LDR
 10
157.905
 20
112.288833
 30
0.0
 41
240.000002
 42
240.000002
 50
209.365696
210
0.0
220
0.0
230
1.0
  0
INSERT
  5
205
100
AcDbEntity
  8
1
  6
CONTINUOUS
 62
     1
100
AcDbBlockReference
  2
LDR
 10
157.905
 20
112.288833
 30
0.0
 41
240.000002
 42
240.000002
 50
209.365696
210
0.0
220
0.0
230
1.0
  0
LINE
  5
206
100
AcDbEntity
  8
1
  6
CONTINUOUS
 62
    30
100
AcDbLine
 10
193.74375
 20
53.4695
 30
0.0
 11
205.503667
 21
53.4695
 31
0.0
  0
INSERT
  5
207
100
AcDbEntity
  8
1
  6
CONTINUOUS
 62
     1
100
AcDbBlockReference
  2
LDR
 10
205.503667
 20
53.4695
 30
0.0
 41
240.0
 42
240.0
210
0.0
220
0.0
230
1.0
  0
LINE
  5
208
100
AcDbEntity
  8
1
  6
CONTINUOUS
 62
    30
100
AcDbLine
 10
132.782917
 20
259.219
 30
0.0
 11
118.853917
 21
268.68525
 31
0.0
  0
LINE
  5
209
100
AcDbEntity
  8
1
  6
CONTINUOUS
 62
    30
100
AcDbLine
 10
118.853917
 20
268.68525
 30
0.0
 11
113.032583
 21
268.68525
 31
0.0
  0
INSERT
  5
20A
100
AcDbEntity
  8
1
  6
CONTINUOUS
 62
     1
100
AcDbBlockReference
  2
LDR
 10
132.782917
 20
259.219
 30
0.0
 41
240.0
 42
240.0
 50
325.799686
210
0.0
220
0.0
230
1.0
  0
LINE
  5
20B
100
AcDbEntity
  8
1
  6
CONTINUOUS
 62
    30
100
AcDbLine
 10
139.655
 20
222.2585
 30
0.0
 11
123.705
 21
233.74625
 31
0.0
  0
LINE
  5
20C
100
AcDbEntity
  8
1
  6
CONTINUOUS
 62
    30
100
AcDbLine
 10
123.705
 20
233.74625
 30
0.0
 11
117.668083
 21
233.74625
 31
0.0
  0
INSERT
  5
20D
100
AcDbEntity
  8
1
  6
CONTINUOUS
 62
     1
100
AcDbBlockReference
  2
LDR
 10
139.655
 20
222.2585
 30
0.0
 41
239.999997
 42
239.999997
 50
324.237242
210
0.0
220
0.0
230
1.0
  0
INSERT
  5
20E
100
AcDbEntity
  8
1
  6
CONTINUOUS
 62
     1
100
AcDbBlockReference
  2
LDR
 10
139.655
 20
222.2585
 30
0.0
 41
239.999997
 42
239.999997
 50
324.237242
210
0.0
220
0.0
230
1.0
  0
TEXT
  5
20F
100
AcDbEntity
  8
1
  6
CONTINUOUS
 62
     7
100
AcDbText
 10
42.709917
 20
267.388417
 30
0.0
 40
2.5
  1
SEE TYPICAL SERVICE POLE HEADS
  7
MONOTXT
210
0.0
220
0.0
230
1.0
100
AcDbText
  0
TEXT
  5
210
100
AcDbEntity
  8
1
  6
CONTINUOUS
 62
     7
100
AcDbText
 10
37.575417
 20
232.409667
 30
0.0
 40
2.5
  1
WOOD SERVICE POLE CLASS 5 (UNLESS
  7
MONOTXT
 11
37.575417
 21
234.909667
 31
0.0
210
0.0
220
0.0
230
1.0
100
AcDbText
 73
     3
  0
TEXT
  5
211
100
AcDbEntity
  8
1
  6
CONTINUOUS
 62
     7
100
AcDbText
 10
37.575417
 20
227.909667
 30
0.0
 40
2.5
  1
OTHERWISE DIRECTED ON PLANS)
  7
MONOTXT
 11
37.575417
 21
230.409667
 31
0.0
210
0.0
220
0.0
230
1.0
100
AcDbText
 73
     3
  0
TEXT
  5
212
100
AcDbEntity
  8
1
  6
CONTINUOUS
 62
     7
100
AcDbText
 10
37.575417
 20
223.409667
 30
0.0
 40
2.5
  1
MEETING A.N.S.I. AND PRESSURE TREATED
  7
MONOTXT
 11
37.575417
 21
225.909667
 31
0.0
210
0.0
220
0.0
230
1.0
100
AcDbText
 73
     3
  0
TEXT
  5
213
100
AcDbEntity
  8
1
  6
CONTINUOUS
 62
     7
100
AcDbText
 10
37.575417
 20
218.909667
 30
0.0
 40
2.5
  1
IN ACCORDANCE WITH SECTION 710 OF
  7
MONOTXT
 11
37.575417
 21
221.409667
 31
0.0
210
0.0
220
0.0
230
1.0
100
AcDbText
 73
     3
  0
TEXT
  5
214
100
AcDbEntity
  8
1
  6
CONTINUOUS
 62
     7
100
AcDbText
 10
37.575417
 20
214.409667
 30
0.0
 40
2.5
  1
THE SPECIFICATIONS
  7
MONOTXT
 11
37.575417
 21
216.909667
 31
0.0
210
0.0
220
0.0
230
1.0
100
AcDbText
 73
     3
  0
TEXT
  5
215
100
AcDbEntity
  8
1
  6
CONTINUOUS
 62
     7
100
AcDbText
 10
174.546167
 20
211.109583
 30
0.0
 40
2.5
  1
POLE HEIGHT VARIES - SERVICES CLEARANCES
  7
MONOTXT
 11
174.546167
 21
213.609583
 31
0.0
210
0.0
220
0.0
230
1.0
100
AcDbText
 73
     3
  0
TEXT
  5
216
100
AcDbEntity
  8
1
  6
CONTINUOUS
 62
     7
100
AcDbText
 10
174.546167
 20
206.609583
 30
0.0
 40
2.5
  1
TO COMPLY WITH N.E.C. STANDARDS
  7
MONOTXT
 11
174.546167
 21
209.109583
 31
0.0
210
0.0
220
0.0
230
1.0
100
AcDbText
 73
     3
  0
TEXT
  5
217
100
AcDbEntity
  8
1
  6
CONTINUOUS
 62
     7
100
AcDbText
 10
170.619833
 20
188.684
 30
0.0
 40
2.5
  1
CONDUIT STRAPS (TYP.)
  7
MONOTXT
210
0.0
220
0.0
230
1.0
100
AcDbText
  0
TEXT
  5
218
100
AcDbEntity
  8
1
  6
CONTINUOUS
 62
     7
100
AcDbText
 10
170.083667
 20
155.053
 30
0.0
 40
2.5
  1
1.2m c. - c. (TYP.)
  7
MONOTXT
210
0.0
220
0.0
230
1.0
100
AcDbText
  0
TEXT
  5
219
100
AcDbEntity
  8
1
  6
CONTINUOUS
 62
     7
100
AcDbText
 10
179.169583
 20
119.522667
 30
0.0
 40
2.5
  1
METER SOCKET AND METER BY APPROPRIATE
  7
MONOTXT
 11
179.169583
 21
122.022667
 31
0.0
210
0.0
220
0.0
230
1.0
100
AcDbText
 73
     3
  0
TEXT
  5
21A
100
AcDbEntity
  8
1
  6
CONTINUOUS
 62
     7
100
AcDbText
 10
179.169583
 20
115.022667
 30
0.0
 40
2.5
  1
UTILITY COMPANY
  7
MONOTXT
 11
179.169583
 21
117.522667
 31
0.0
210
0.0
220
0.0
230
1.0
100
AcDbText
 73
     3
  0
TEXT
  5
21B
100
AcDbEntity
  8
1
  6
CONTINUOUS
 62
     7
100
AcDbText
 10
174.53325
 20
61.996333
 30
0.0
 40
2.5
  1
18" MIN.
  7
MONOTXT
210
0.0
220
0.0
230
1.0
100
AcDbText
  0
TEXT
  5
21C
100
AcDbEntity
  8
1
  6
CONTINUOUS
 62
     7
100
AcDbText
 10
206.289583
 20
52.305917
 30
0.0
 40
2.5
  1
TO CONTROL CABINET, OR IF CONTROL CABINET
  7
MONOTXT
 11
206.289583
 21
54.805917
 31
0.0
210
0.0
220
0.0
230
1.0
100
AcDbText
 73
     3
  0
TEXT
  5
21D
100
AcDbEntity
  8
1
  6
CONTINUOUS
 62
     7
100
AcDbText
 10
206.289583
 20
47.805917
 30
0.0
 40
2.5
  1
IS ON SERVICE POLE, TO LIGHTING CIRCUITS
  7
MONOTXT
 11
206.289583
 21
50.305917
 31
0.0
210
0.0
220
0.0
230
1.0
100
AcDbText
 73
     3
  0
LINE
  5
21E
100
AcDbEntity
  8
1
  6
CONTINUOUS
 62
     7
100
AcDbLine
 10
128.8635
 20
71.463167
 30
0.0
 11
127.433333
 21
70.033
 31
0.0
  0
LINE
  5
21F
100
AcDbEntity
  8
1
  6
CONTINUOUS
 62
     7
100
AcDbLine
 10
130.402083
 20
71.463167
 30
0.0
 11
127.563333
 21
68.624417
 31
0.0
  0
LINE
  5
220
100
AcDbEntity
  8
1
  6
CONTINUOUS
 62
     7
100
AcDbLine
 10
130.29375
 20
71.463167
 30
0.0
 11
132.677417
 21
69.0795
 31
0.0
  0
LINE
  5
221
100
AcDbEntity
  8
1
  6
CONTINUOUS
 62
     7
100
AcDbLine
 10
129.773667
 20
70.423
 30
0.0
 11
131.788917
 21
68.429417
 31
0.0
  0
LINE
  5
222
100
AcDbEntity
  8
1
  6
CONTINUOUS
 62
     7
100
AcDbLine
 10
129.27525
 20
69.382917
 30
0.0
 11
130.662083
 21
67.996
 31
0.0
  0
LINE
  5
223
100
AcDbEntity
  8
1
  6
CONTINUOUS
 62
     7
100
AcDbLine
 10
128.7335
 20
68.386083
 30
0.0
 11
129.665333
 21
67.475917
 31
0.0
  0
LINE
  5
224
100
AcDbEntity
  8
1
  6
CONTINUOUS
 62
     7
100
AcDbLine
 10
135.039333
 20
71.463167
 30
0.0
 11
132.677417
 21
69.0795
 31
0.0
  0
LINE
  5
225
100
AcDbEntity
  8
1
  6
CONTINUOUS
 62
     7
100
AcDbLine
 10
133.500833
 20
71.463167
 30
0.0
 11
132.005583
 21
69.967917
 31
0.0
  0
LINE
  5
226
100
AcDbEntity
  8
1
  6
CONTINUOUS
 62
     7
100
AcDbLine
 10
131.940583
 20
71.463167
 30
0.0
 11
131.333833
 21
70.83475
 31
0.0
  0
LINE
  5
227
100
AcDbEntity
  8
1
  6
CONTINUOUS
 62
     7
100
AcDbLine
 10
135.039333
 20
71.463167
 30
0.0
 11
137.358
 21
69.1445
 31
0.0
  0
LINE
  5
228
100
AcDbEntity
  8
1
  6
CONTINUOUS
 62
     7
100
AcDbLine
 10
134.476
 20
70.488
 30
0.0
 11
136.469583
 21
68.494417
 31
0.0
  0
LINE
  5
229
100
AcDbEntity
  8
1
  6
CONTINUOUS
 62
     7
100
AcDbLine
 10
133.977583
 20
69.447917
 30
0.0
 11
135.364417
 21
68.061
 31
0.0
  0
LINE
  5
22A
100
AcDbEntity
  8
1
  6
CONTINUOUS
 62
     7
100
AcDbLine
 10
133.414167
 20
68.451083
 30
0.0
 11
134.345917
 21
67.51925
 31
0.0
  0
LINE
  5
22B
100
AcDbEntity
  8
1
  6
CONTINUOUS
 62
     7
100
AcDbLine
 10
139.676667
 20
71.463167
 30
0.0
 11
137.358
 21
69.1445
 31
0.0
  0
LINE
  5
22C
100
AcDbEntity
  8
1
  6
CONTINUOUS
 62
     7
100
AcDbLine
 10
138.138167
 20
71.463167
 30
0.0
 11
136.707917
 21
70.033
 31
0.0
  0
LINE
  5
22D
100
AcDbEntity
  8
1
  6
CONTINUOUS
 62
     7
100
AcDbLine
 10
136.577917
 20
71.463167
 30
0.0
 11
136.0145
 21
70.89975
 31
0.0
  0
LINE
  5
22E
100
AcDbEntity
  8
1
  6
CONTINUOUS
 62
     7
100
AcDbLine
 10
116.6635
 20
71.463167
 30
0.0
 11
115.233333
 21
70.033
 31
0.0
  0
LINE
  5
22F
100
AcDbEntity
  8
1
  6
CONTINUOUS
 62
     7
100
AcDbLine
 10
118.202083
 20
71.463167
 30
0.0
 11
115.363333
 21
68.624417
 31
0.0
  0
LINE
  5
230
100
AcDbEntity
  8
1
  6
CONTINUOUS
 62
     7
100
AcDbLine
 10
118.09375
 20
71.463167
 30
0.0
 11
120.477417
 21
69.0795
 31
0.0
  0
LINE
  5
231
100
AcDbEntity
  8
1
  6
CONTINUOUS
 62
     7
100
AcDbLine
 10
117.573667
 20
70.423
 30
0.0
 11
119.588917
 21
68.429417
 31
0.0
  0
LINE
  5
232
100
AcDbEntity
  8
1
  6
CONTINUOUS
 62
     7
100
AcDbLine
 10
117.07525
 20
69.382917
 30
0.0
 11
118.462083
 21
67.996
 31
0.0
  0
LINE
  5
233
100
AcDbEntity
  8
1
  6
CONTINUOUS
 62
     7
100
AcDbLine
 10
116.5335
 20
68.386083
 30
0.0
 11
117.465333
 21
67.475917
 31
0.0
  0
LINE
  5
234
100
AcDbEntity
  8
1
  6
CONTINUOUS
 62
     7
100
AcDbLine
 10
122.839333
 20
71.463167
 30
0.0
 11
120.477417
 21
69.0795
 31
0.0
  0
LINE
  5
235
100
AcDbEntity
  8
1
  6
CONTINUOUS
 62
     7
100
AcDbLine
 10
121.300833
 20
71.463167
 30
0.0
 11
119.805583
 21
69.967917
 31
0.0
  0
LINE
  5
236
100
AcDbEntity
  8
1
  6
CONTINUOUS
 62
     7
100
AcDbLine
 10
119.740583
 20
71.463167
 30
0.0
 11
119.133833
 21
70.83475
 31
0.0
  0
LINE
  5
237
100
AcDbEntity
  8
1
  6
CONTINUOUS
 62
     7
100
AcDbLine
 10
122.839333
 20
71.463167
 30
0.0
 11
125.158
 21
69.1445
 31
0.0
  0
LINE
  5
238
100
AcDbEntity
  8
1
  6
CONTINUOUS
 62
     7
100
AcDbLine
 10
122.276
 20
70.488
 30
0.0
 11
124.269583
 21
68.494417
 31
0.0
  0
LINE
  5
239
100
AcDbEntity
  8
1
  6
CONTINUOUS
 62
     7
100
AcDbLine
 10
121.777583
 20
69.447917
 30
0.0
 11
123.164417
 21
68.061
 31
0.0
  0
LINE
  5
23A
100
AcDbEntity
  8
1
  6
CONTINUOUS
 62
     7
100
AcDbLine
 10
121.214167
 20
68.451083
 30
0.0
 11
122.145917
 21
67.51925
 31
0.0
  0
LINE
  5
23B
100
AcDbEntity
  8
1
  6
CONTINUOUS
 62
     7
100
AcDbLine
 10
127.476667
 20
71.463167
 30
0.0
 11
125.158
 21
69.1445
 31
0.0
  0
LINE
  5
23C
100
AcDbEntity
  8
1
  6
CONTINUOUS
 62
     7
100
AcDbLine
 10
125.938167
 20
71.463167
 30
0.0
 11
124.507917
 21
70.033
 31
0.0
  0
LINE
  5
23D
100
AcDbEntity
  8
1
  6
CONTINUOUS
 62
     7
100
AcDbLine
 10
124.377917
 20
71.463167
 30
0.0
 11
123.8145
 21
70.89975
 31
0.0
  0
LINE
  5
23E
100
AcDbEntity
  8
1
  6
CONTINUOUS
 62
     7
100
AcDbLine
 10
104.4635
 20
71.463167
 30
0.0
 11
103.033333
 21
70.033
 31
0.0
  0
LINE
  5
23F
100
AcDbEntity
  8
1
  6
CONTINUOUS
 62
     7
100
AcDbLine
 10
106.002083
 20
71.463167
 30
0.0
 11
103.163333
 21
68.624417
 31
0.0
  0
LINE
  5
240
100
AcDbEntity
  8
1
  6
CONTINUOUS
 62
     7
100
AcDbLine
 10
105.89375
 20
71.463167
 30
0.0
 11
108.277417
 21
69.0795
 31
0.0
  0
LINE
  5
241
100
AcDbEntity
  8
1
  6
CONTINUOUS
 62
     7
100
AcDbLine
 10
105.373667
 20
70.423
 30
0.0
 11
107.388917
 21
68.429417
 31
0.0
  0
LINE
  5
242
100
AcDbEntity
  8
1
  6
CONTINUOUS
 62
     7
100
AcDbLine
 10
104.87525
 20
69.382917
 30
0.0
 11
106.262083
 21
67.996
 31
0.0
  0
LINE
  5
243
100
AcDbEntity
  8
1
  6
CONTINUOUS
 62
     7
100
AcDbLine
 10
104.3335
 20
68.386083
 30
0.0
 11
105.265333
 21
67.475917
 31
0.0
  0
LINE
  5
244
100
AcDbEntity
  8
1
  6
CONTINUOUS
 62
     7
100
AcDbLine
 10
110.639333
 20
71.463167
 30
0.0
 11
108.277417
 21
69.0795
 31
0.0
  0
LINE
  5
245
100
AcDbEntity
  8
1
  6
CONTINUOUS
 62
     7
100
AcDbLine
 10
109.100833
 20
71.463167
 30
0.0
 11
107.605583
 21
69.967917
 31
0.0
  0
LINE
  5
246
100
AcDbEntity
  8
1
  6
CONTINUOUS
 62
     7
100
AcDbLine
 10
107.540583
 20
71.463167
 30
0.0
 11
106.933833
 21
70.83475
 31
0.0
  0
LINE
  5
247
100
AcDbEntity
  8
1
  6
CONTINUOUS
 62
     7
100
AcDbLine
 10
110.639333
 20
71.463167
 30
0.0
 11
112.958
 21
69.1445
 31
0.0
  0
LINE
  5
248
100
AcDbEntity
  8
1
  6
CONTINUOUS
 62
     7
100
AcDbLine
 10
110.076
 20
70.488
 30
0.0
 11
112.069583
 21
68.494417
 31
0.0
  0
LINE
  5
249
100
AcDbEntity
  8
1
  6
CONTINUOUS
 62
     7
100
AcDbLine
 10
109.577583
 20
69.447917
 30
0.0
 11
110.964417
 21
68.061
 31
0.0
  0
LINE
  5
24A
100
AcDbEntity
  8
1
  6
CONTINUOUS
 62
     7
100
AcDbLine
 10
109.014167
 20
68.451083
 30
0.0
 11
109.945917
 21
67.51925
 31
0.0
  0
LINE
  5
24B
100
AcDbEntity
  8
1
  6
CONTINUOUS
 62
     7
100
AcDbLine
 10
115.276667
 20
71.463167
 30
0.0
 11
112.958
 21
69.1445
 31
0.0
  0
LINE
  5
24C
100
AcDbEntity
  8
1
  6
CONTINUOUS
 62
     7
100
AcDbLine
 10
113.738167
 20
71.463167
 30
0.0
 11
112.307917
 21
70.033
 31
0.0
  0
LINE
  5
24D
100
AcDbEntity
  8
1
  6
CONTINUOUS
 62
     7
100
AcDbLine
 10
112.177917
 20
71.463167
 30
0.0
 11
111.6145
 21
70.89975
 31
0.0
  0
LINE
  5
24E
100
AcDbEntity
  8
1
  6
CONTINUOUS
 62
     7
100
AcDbLine
 10
92.2635
 20
71.463167
 30
0.0
 11
90.833333
 21
70.033
 31
0.0
  0
LINE
  5
24F
100
AcDbEntity
  8
1
  6
CONTINUOUS
 62
     7
100
AcDbLine
 10
93.802083
 20
71.463167
 30
0.0
 11
90.963333
 21
68.624417
 31
0.0
  0
LINE
  5
250
100
AcDbEntity
  8
1
  6
CONTINUOUS
 62
     7
100
AcDbLine
 10
93.69375
 20
71.463167
 30
0.0
 11
96.077417
 21
69.0795
 31
0.0
  0
LINE
  5
251
100
AcDbEntity
  8
1
  6
CONTINUOUS
 62
     7
100
AcDbLine
 10
93.173667
 20
70.423
 30
0.0
 11
95.188917
 21
68.429417
 31
0.0
  0
LINE
  5
252
100
AcDbEntity
  8
1
  6
CONTINUOUS
 62
     7
100
AcDbLine
 10
92.67525
 20
69.382917
 30
0.0
 11
94.062083
 21
67.996
 31
0.0
  0
LINE
  5
253
100
AcDbEntity
  8
1
  6
CONTINUOUS
 62
     7
100
AcDbLine
 10
92.1335
 20
68.386083
 30
0.0
 11
93.065333
 21
67.475917
 31
0.0
  0
LINE
  5
254
100
AcDbEntity
  8
1
  6
CONTINUOUS
 62
     7
100
AcDbLine
 10
98.439333
 20
71.463167
 30
0.0
 11
96.077417
 21
69.0795
 31
0.0
  0
LINE
  5
255
100
AcDbEntity
  8
1
  6
CONTINUOUS
 62
     7
100
AcDbLine
 10
96.900833
 20
71.463167
 30
0.0
 11
95.405583
 21
69.967917
 31
0.0
  0
LINE
  5
256
100
AcDbEntity
  8
1
  6
CONTINUOUS
 62
     7
100
AcDbLine
 10
95.340583
 20
71.463167
 30
0.0
 11
94.733833
 21
70.83475
 31
0.0
  0
LINE
  5
257
100
AcDbEntity
  8
1
  6
CONTINUOUS
 62
     7
100
AcDbLine
 10
98.439333
 20
71.463167
 30
0.0
 11
100.758
 21
69.1445
 31
0.0
  0
LINE
  5
258
100
AcDbEntity
  8
1
  6
CONTINUOUS
 62
     7
100
AcDbLine
 10
97.876
 20
70.488
 30
0.0
 11
99.869583
 21
68.494417
 31
0.0
  0
LINE
  5
259
100
AcDbEntity
  8
1
  6
CONTINUOUS
 62
     7
100
AcDbLine
 10
97.377583
 20
69.447917
 30
0.0
 11
98.764417
 21
68.061
 31
0.0
  0
LINE
  5
25A
100
AcDbEntity
  8
1
  6
CONTINUOUS
 62
     7
100
AcDbLine
 10
96.814167
 20
68.451083
 30
0.0
 11
97.745917
 21
67.51925
 31
0.0
  0
LINE
  5
25B
100
AcDbEntity
  8
1
  6
CONTINUOUS
 62
     7
100
AcDbLine
 10
103.076667
 20
71.463167
 30
0.0
 11
100.758
 21
69.1445
 31
0.0
  0
LINE
  5
25C
100
AcDbEntity
  8
1
  6
CONTINUOUS
 62
     7
100
AcDbLine
 10
101.538167
 20
71.463167
 30
0.0
 11
100.107917
 21
70.033
 31
0.0
  0
LINE
  5
25D
100
AcDbEntity
  8
1
  6
CONTINUOUS
 62
     7
100
AcDbLine
 10
99.977917
 20
71.463167
 30
0.0
 11
99.4145
 21
70.89975
 31
0.0
  0
LINE
  5
25E
100
AcDbEntity
  8
1
  6
CONTINUOUS
 62
     7
100
AcDbLine
 10
80.0635
 20
71.463167
 30
0.0
 11
78.633333
 21
70.033
 31
0.0
  0
LINE
  5
25F
100
AcDbEntity
  8
1
  6
CONTINUOUS
 62
     7
100
AcDbLine
 10
81.602083
 20
71.463167
 30
0.0
 11
78.763333
 21
68.624417
 31
0.0
  0
LINE
  5
260
100
AcDbEntity
  8
1
  6
CONTINUOUS
 62
     7
100
AcDbLine
 10
81.49375
 20
71.463167
 30
0.0
 11
83.877417
 21
69.0795
 31
0.0
  0
LINE
  5
261
100
AcDbEntity
  8
1
  6
CONTINUOUS
 62
     7
100
AcDbLine
 10
80.973667
 20
70.423
 30
0.0
 11
82.988917
 21
68.429417
 31
0.0
  0
LINE
  5
262
100
AcDbEntity
  8
1
  6
CONTINUOUS
 62
     7
100
AcDbLine
 10
80.47525
 20
69.382917
 30
0.0
 11
81.862083
 21
67.996
 31
0.0
  0
LINE
  5
263
100
AcDbEntity
  8
1
  6
CONTINUOUS
 62
     7
100
AcDbLine
 10
79.9335
 20
68.386083
 30
0.0
 11
80.865333
 21
67.475917
 31
0.0
  0
LINE
  5
264
100
AcDbEntity
  8
1
  6
CONTINUOUS
 62
     7
100
AcDbLine
 10
86.239333
 20
71.463167
 30
0.0
 11
83.877417
 21
69.0795
 31
0.0
  0
LINE
  5
265
100
AcDbEntity
  8
1
  6
CONTINUOUS
 62
     7
100
AcDbLine
 10
84.700833
 20
71.463167
 30
0.0
 11
83.205583
 21
69.967917
 31
0.0
  0
LINE
  5
266
100
AcDbEntity
  8
1
  6
CONTINUOUS
 62
     7
100
AcDbLine
 10
83.140583
 20
71.463167
 30
0.0
 11
82.533833
 21
70.83475
 31
0.0
  0
LINE
  5
267
100
AcDbEntity
  8
1
  6
CONTINUOUS
 62
     7
100
AcDbLine
 10
86.239333
 20
71.463167
 30
0.0
 11
88.558
 21
69.1445
 31
0.0
  0
LINE
  5
268
100
AcDbEntity
  8
1
  6
CONTINUOUS
 62
     7
100
AcDbLine
 10
85.676
 20
70.488
 30
0.0
 11
87.669583
 21
68.494417
 31
0.0
  0
LINE
  5
269
100
AcDbEntity
  8
1
  6
CONTINUOUS
 62
     7
100
AcDbLine
 10
85.177583
 20
69.447917
 30
0.0
 11
86.564417
 21
68.061
 31
0.0
  0
LINE
  5
26A
100
AcDbEntity
  8
1
  6
CONTINUOUS
 62
     7
100
AcDbLine
 10
84.614167
 20
68.451083
 30
0.0
 11
85.545917
 21
67.51925
 31
0.0
  0
LINE
  5
26B
100
AcDbEntity
  8
1
  6
CONTINUOUS
 62
     7
100
AcDbLine
 10
90.876667
 20
71.463167
 30
0.0
 11
88.558
 21
69.1445
 31
0.0
  0
LINE
  5
26C
100
AcDbEntity
  8
1
  6
CONTINUOUS
 62
     7
100
AcDbLine
 10
89.338167
 20
71.463167
 30
0.0
 11
87.907917
 21
70.033
 31
0.0
  0
LINE
  5
26D
100
AcDbEntity
  8
1
  6
CONTINUOUS
 62
     7
100
AcDbLine
 10
87.777917
 20
71.463167
 30
0.0
 11
87.2145
 21
70.89975
 31
0.0
  0
LINE
  5
26E
100
AcDbEntity
  8
1
  6
CONTINUOUS
 62
    30
100
AcDbLine
 10
139.655
 20
71.5065
 30
0.0
 11
78.655
 21
71.5065
 31
0.0
  0
LINE
  5
26F
100
AcDbEntity
  8
1
  6
CONTINUOUS
 62
     7
100
AcDbLine
 10
110.694417
 20
23.469917
 30
0.0
 11
179.194333
 21
23.469917
 31
0.0
  0
TEXT
  5
270
100
AcDbEntity
  8
1
  6
CONTINUOUS
 62
     7
100
AcDbText
 10
113.021167
 20
26.185333
 30
0.0
 40
3.5
  1
SERVICE POLE TYPICAL
  7
MONOTXT
210
0.0
220
0.0
230
1.0
100
AcDbText
  0
LINE
  5
271
100
AcDbEntity
  8
1
  6
CONTINUOUS
 62
    30
100
AcDbLine
 10
305.763333
 20
289.208167
 30
0.0
 11
481.466917
 21
289.208167
 31
0.0
  0
LINE
  5
272
100
AcDbEntity
  8
1
  6
CONTINUOUS
 62
    30
100
AcDbLine
 10
481.466917
 20
289.208167
 30
0.0
 11
481.466917
 21
441.3865
 31
0.0
  0
LINE
  5
273
100
AcDbEntity
  8
1
  6
CONTINUOUS
 62
    30
100
AcDbLine
 10
305.763333
 20
289.208167
 30
0.0
 11
305.763333
 21
2.99425
 31
0.0
  0
LINE
  5
274
100
AcDbEntity
  8
1
  6
CONTINUOUS
 62
     6
100
AcDbLine
 10
363.968083
 20
239.861917
 30
0.0
 11
363.968083
 21
83.861917
 31
0.0
  0
ARC
  5
275
100
AcDbEntity
  8
1
  6
CONTINUOUS
 62
     6
100
AcDbCircle
 10
366.718083
 20
238.465676
 30
0.0
 40
3.084151
210
0.0
220
0.0
230
1.0
100
AcDbArc
 50
26.917989
 51
153.082011
  0
ARC
  5
276
100
AcDbEntity
  8
1
  6
CONTINUOUS
 62
     6
100
AcDbCircle
 10
372.218083
 20
238.465676
 30
0.0
 40
3.084151
210
0.0
220
0.0
230
1.0
100
AcDbArc
 50
26.917989
 51
153.082011
  0
ARC
  5
277
100
AcDbEntity
  8
1
  6
CONTINUOUS
 62
     6
100
AcDbCircle
 10
366.718083
 20
241.24849
 30
0.0
 40
3.084151
210
0.0
220
0.0
230
1.0
100
AcDbArc
 50
206.917989
 51
333.082011
  0
ARC
  5
278
100
AcDbEntity
  8
1
  6
CONTINUOUS
 62
     6
100
AcDbCircle
 10
366.718083
 20
85.258157
 30
0.0
 40
3.084151
210
0.0
220
0.0
230
1.0
100
AcDbArc
 50
206.917989
 51
333.082011
  0
ARC
  5
279
100
AcDbEntity
  8
1
  6
CONTINUOUS
 62
     6
100
AcDbCircle
 10
372.218083
 20
85.258157
 30
0.0
 40
3.084151
210
0.0
220
0.0
230
1.0
100
AcDbArc
 50
206.917989
 51
333.082011
  0
ARC
  5
27A
100
AcDbEntity
  8
1
  6
CONTINUOUS
 62
     6
100
AcDbCircle
 10
366.718083
 20
82.475343
 30
0.0
 40
3.084151
210
0.0
220
0.0
230
1.0
100
AcDbArc
 50
26.917989
 51
153.082011
  0
LINE
  5
27B
100
AcDbEntity
  8
1
  6
CONTINUOUS
 62
     6
100
AcDbLine
 10
374.968083
 20
218.361917
 30
0.0
 11
377.218083
 21
218.361917
 31
0.0
  0
LINE
  5
27C
100
AcDbEntity
  8
1
  6
CONTINUOUS
 62
     6
100
AcDbLine
 10
374.968083
 20
219.611917
 30
0.0
 11
377.218083
 21
219.611917
 31
0.0
  0
ARC
  5
27D
100
AcDbEntity
  8
1
  6
CONTINUOUS
 62
     6
100
AcDbCircle
 10
377.052774
 20
218.986917
 30
0.0
 40
0.646492
210
0.0
220
0.0
230
1.0
100
AcDbArc
 50
284.815189
 51
75.184814
  0
ARC
  5
27E
100
AcDbEntity
  8
1
  6
CONTINUOUS
 62
     6
100
AcDbCircle
 10
372.912945
 20
224.818483
 30
0.0
 40
3.941077
210
0.0
220
0.0
230
1.0
100
AcDbArc
 50
321.346178
 51
4.269917
  0
ARC
  5
27F
100
AcDbEntity
  8
1
  6
CONTINUOUS
 62
     6
100
AcDbCircle
 10
380.385823
 20
220.318971
 30
0.0
 40
4.844613
210
0.0
220
0.0
230
1.0
100
AcDbArc
 50
155.124689
 51
188.392097
  0
ARC
  5
280
100
AcDbEntity
  8
1
  6
CONTINUOUS
 62
     6
100
AcDbCircle
 10
374.162945
 20
224.818483
 30
0.0
 40
3.941077
210
0.0
220
0.0
230
1.0
100
AcDbArc
 50
321.346178
 51
4.269917
  0
ARC
  5
281
100
AcDbEntity
  8
1
  6
CONTINUOUS
 62
     6
100
AcDbCircle
 10
381.156698
 20
220.38837
 30
0.0
 40
4.382938
210
0.0
220
0.0
230
1.0
100
AcDbArc
 50
153.312783
 51
190.204003
  0
LINE
  5
282
100
AcDbEntity
  8
1
  6
CONTINUOUS
 62
     6
100
AcDbLine
 10
376.343083
 20
226.611917
 30
0.0
 11
378.593083
 21
226.611917
 31
0.0
  0
LINE
  5
283
100
AcDbEntity
  8
1
  6
CONTINUOUS
 62
     6
100
AcDbLine
 10
376.343083
 20
228.111917
 30
0.0
 11
378.593083
 21
228.111917
 31
0.0
  0
LINE
  5
284
100
AcDbEntity
  8
1
  6
CONTINUOUS
 62
     6
100
AcDbLine
 10
376.843083
 20
227.111917
 30
0.0
 11
378.093083
 21
227.111917
 31
0.0
  0
LINE
  5
285
100
AcDbEntity
  8
1
  6
CONTINUOUS
 62
     6
100
AcDbLine
 10
376.843083
 20
228.611917
 30
0.0
 11
378.093083
 21
228.611917
 31
0.0
  0
LINE
  5
286
100
AcDbEntity
  8
1
  6
CONTINUOUS
 62
     6
100
AcDbLine
 10
376.843083
 20
228.611917
 30
0.0
 11
376.343083
 21
228.111917
 31
0.0
  0
LINE
  5
287
100
AcDbEntity
  8
1
  6
CONTINUOUS
 62
     6
100
AcDbLine
 10
378.093083
 20
228.611917
 30
0.0
 11
378.593083
 21
228.111917
 31
0.0
  0
LINE
  5
288
100
AcDbEntity
  8
1
  6
CONTINUOUS
 62
     6
100
AcDbLine
 10
376.843083
 20
227.111917
 30
0.0
 11
376.343083
 21
226.611917
 31
0.0
  0
LINE
  5
289
100
AcDbEntity
  8
1
  6
CONTINUOUS
 62
     6
100
AcDbLine
 10
378.093083
 20
227.111917
 30
0.0
 11
378.593083
 21
226.611917
 31
0.0
  0
LINE
  5
28A
100
AcDbEntity
  8
1
  6
CONTINUOUS
 62
     6
100
AcDbLine
 10
376.843083
 20
229.861917
 30
0.0
 11
376.843083
 21
228.611917
 31
0.0
  0
LINE
  5
28B
100
AcDbEntity
  8
1
  6
CONTINUOUS
 62
     6
100
AcDbLine
 10
378.093083
 20
229.861917
 30
0.0
 11
378.093083
 21
228.611917
 31
0.0
  0
LINE
  5
28C
100
AcDbEntity
  8
1
  6
CONTINUOUS
 62
     6
100
AcDbLine
 10
376.843083
 20
228.111917
 30
0.0
 11
376.843083
 21
227.111917
 31
0.0
  0
LINE
  5
28D
100
AcDbEntity
  8
1
  6
CONTINUOUS
 62
     6
100
AcDbLine
 10
376.843083
 20
226.611917
 30
0.0
 11
376.843083
 21
225.111917
 31
0.0
  0
LINE
  5
28E
100
AcDbEntity
  8
1
  6
CONTINUOUS
 62
     6
100
AcDbLine
 10
378.093083
 20
228.111917
 30
0.0
 11
378.093083
 21
227.111917
 31
0.0
  0
LINE
  5
28F
100
AcDbEntity
  8
1
  6
CONTINUOUS
 62
     6
100
AcDbLine
 10
378.093083
 20
226.611917
 30
0.0
 11
378.093083
 21
225.111917
 31
0.0
  0
LINE
  5
290
100
AcDbEntity
  8
1
  6
CONTINUOUS
 62
     6
100
AcDbLine
 10
375.843083
 20
229.861917
 30
0.0
 11
379.093083
 21
229.861917
 31
0.0
  0
LINE
  5
291
100
AcDbEntity
  8
1
  6
CONTINUOUS
 62
     6
100
AcDbLine
 10
376.343083
 20
230.361917
 30
0.0
 11
378.593083
 21
230.361917
 31
0.0
  0
LINE
  5
292
100
AcDbEntity
  8
1
  6
CONTINUOUS
 62
     6
100
AcDbLine
 10
376.343083
 20
230.361917
 30
0.0
 11
375.843083
 21
229.861917
 31
0.0
  0
LINE
  5
293
100
AcDbEntity
  8
1
  6
CONTINUOUS
 62
     6
100
AcDbLine
 10
378.593083
 20
230.361917
 30
0.0
 11
379.093083
 21
229.861917
 31
0.0
  0
LINE
  5
294
100
AcDbEntity
  8
1
  6
CONTINUOUS
 62
     6
100
AcDbLine
 10
376.343083
 20
230.361917
 30
0.0
 11
376.343083
 21
231.361917
 31
0.0
  0
LINE
  5
295
100
AcDbEntity
  8
1
  6
CONTINUOUS
 62
     6
100
AcDbLine
 10
378.593083
 20
230.361917
 30
0.0
 11
378.593083
 21
231.361917
 31
0.0
  0
LINE
  5
296
100
AcDbEntity
  8
1
  6
CONTINUOUS
 62
     6
100
AcDbLine
 10
376.593083
 20
231.611917
 30
0.0
 11
378.343083
 21
231.611917
 31
0.0
  0
ARC
  5
297
100
AcDbEntity
  8
1
  6
CONTINUOUS
 62
     6
100
AcDbCircle
 10
376.593083
 20
231.361917
 30
0.0
 40
0.25
210
0.0
220
0.0
230
1.0
100
AcDbArc
 50
90.0
 51
180.0
  0
ARC
  5
298
100
AcDbEntity
  8
1
  6
CONTINUOUS
 62
     6
100
AcDbCircle
 10
378.343083
 20
231.361917
 30
0.0
 40
0.25
210
0.0
220
0.0
230
1.0
100
AcDbArc
 50
0.0
 51
90.0
  0
ARC
  5
299
100
AcDbEntity
  8
1
  6
CONTINUOUS
 62
     6
100
AcDbCircle
 10
374.162945
 20
147.15535
 30
0.0
 40
3.941077
210
0.0
220
0.0
230
1.0
100
AcDbArc
 50
355.730083
 51
38.653822
  0
ARC
  5
29A
100
AcDbEntity
  8
1
  6
CONTINUOUS
 62
     6
100
AcDbCircle
 10
372.912945
 20
147.15535
 30
0.0
 40
3.941077
210
0.0
220
0.0
230
1.0
100
AcDbArc
 50
355.730083
 51
38.653822
  0
ARC
  5
29B
100
AcDbEntity
  8
1
  6
CONTINUOUS
 62
     6
100
AcDbCircle
 10
380.385823
 20
151.654862
 30
0.0
 40
4.844613
210
0.0
220
0.0
230
1.0
100
AcDbArc
 50
171.607903
 51
204.875311
  0
ARC
  5
29C
100
AcDbEntity
  8
1
  6
CONTINUOUS
 62
     6
100
AcDbCircle
 10
381.156698
 20
151.585464
 30
0.0
 40
4.382938
210
0.0
220
0.0
230
1.0
100
AcDbArc
 50
169.795997
 51
206.687217
  0
LINE
  5
29D
100
AcDbEntity
  8
1
  6
CONTINUOUS
 62
     6
100
AcDbLine
 10
376.343083
 20
146.861917
 30
0.0
 11
378.593083
 21
146.861917
 31
0.0
  0
LINE
  5
29E
100
AcDbEntity
  8
1
  6
CONTINUOUS
 62
     6
100
AcDbLine
 10
375.843083
 20
146.611917
 30
0.0
 11
379.093083
 21
146.611917
 31
0.0
  0
LINE
  5
29F
100
AcDbEntity
  8
1
  6
CONTINUOUS
 62
     6
100
AcDbLine
 10
378.593083
 20
146.861917
 30
0.0
 11
378.593083
 21
146.611917
 31
0.0
  0
LINE
  5
2A0
100
AcDbEntity
  8
1
  6
CONTINUOUS
 62
     6
100
AcDbLine
 10
376.343083
 20
146.861917
 30
0.0
 11
376.343083
 21
146.611917
 31
0.0
  0
LINE
  5
2A1
100
AcDbEntity
  8
1
  6
CONTINUOUS
 62
     6
100
AcDbLine
 10
379.093083
 20
146.611917
 30
0.0
 11
379.093083
 21
145.861917
 31
0.0
  0
LINE
  5
2A2
100
AcDbEntity
  8
1
  6
CONTINUOUS
 62
     6
100
AcDbLine
 10
375.843083
 20
146.611917
 30
0.0
 11
375.843083
 21
145.861917
 31
0.0
  0
LINE
  5
2A3
100
AcDbEntity
  8
1
  6
CONTINUOUS
 62
     6
100
AcDbLine
 10
375.468083
 20
145.861917
 30
0.0
 11
389.968083
 21
145.861917
 31
0.0
  0
LINE
  5
2A4
100
AcDbEntity
  8
1
  6
CONTINUOUS
 62
     6
100
AcDbLine
 10
375.468083
 20
114.861917
 30
0.0
 11
389.968083
 21
114.861917
 31
0.0
  0
LINE
  5
2A5
100
AcDbEntity
  8
1
  6
CONTINUOUS
 62
     6
100
AcDbLine
 10
374.968083
 20
178.611917
 30
0.0
 11
377.218083
 21
178.611917
 31
0.0
  0
LINE
  5
2A6
100
AcDbEntity
  8
1
  6
CONTINUOUS
 62
     6
100
AcDbLine
 10
374.968083
 20
177.361917
 30
0.0
 11
377.218083
 21
177.361917
 31
0.0
  0
ARC
  5
2A7
100
AcDbEntity
  8
1
  6
CONTINUOUS
 62
     6
100
AcDbCircle
 10
377.052774
 20
177.986917
 30
0.0
 40
0.646492
210
0.0
220
0.0
230
1.0
100
AcDbArc
 50
284.815189
 51
75.184814
  0
LINE
  5
2A8
100
AcDbEntity
  8
1
  6
CONTINUOUS
 62
     6
100
AcDbLine
 10
375.593083
 20
218.361917
 30
0.0
 11
375.593083
 21
178.611917
 31
0.0
  0
LINE
  5
2A9
100
AcDbEntity
  8
1
  6
CONTINUOUS
 62
     6
100
AcDbLine
 10
375.593083
 20
177.361917
 30
0.0
 11
375.593083
 21
152.361917
 31
0.0
  0
LINE
  5
2AA
100
AcDbEntity
  8
1
  6
CONTINUOUS
 62
     6
100
AcDbLine
 10
376.843083
 20
218.361917
 30
0.0
 11
376.843083
 21
178.611917
 31
0.0
  0
LINE
  5
2AB
100
AcDbEntity
  8
1
  6
CONTINUOUS
 62
     6
100
AcDbLine
 10
376.843083
 20
177.361917
 30
0.0
 11
376.843083
 21
152.361917
 31
0.0
  0
LINE
  5
2AC
100
AcDbEntity
  8
1
  6
CONTINUOUS
 62
     6
100
AcDbLine
 10
390.968083
 20
146.611917
 30
0.0
 11
390.968083
 21
114.111917
 31
0.0
  0
LINE
  5
2AD
100
AcDbEntity
  8
1
  6
CONTINUOUS
 62
     6
100
AcDbLine
 10
390.468083
 20
146.611917
 30
0.0
 11
390.968083
 21
146.611917
 31
0.0
  0
LINE
  5
2AE
100
AcDbEntity
  8
1
  6
CONTINUOUS
 62
     6
100
AcDbLine
 10
390.468083
 20
114.111917
 30
0.0
 11
390.968083
 21
114.111917
 31
0.0
  0
LINE
  5
2AF
100
AcDbEntity
  8
1
  6
CONTINUOUS
 62
     6
100
AcDbLine
 10
375.468083
 20
145.861917
 30
0.0
 11
375.468083
 21
114.361917
 31
0.0
  0
LINE
  5
2B0
100
AcDbEntity
  8
1
  6
CONTINUOUS
 62
     6
100
AcDbLine
 10
379.468667
 20
114.861917
 30
0.0
 11
379.468667
 21
114.361917
 31
0.0
  0
LINE
  5
2B1
100
AcDbEntity
  8
1
  6
CONTINUOUS
 62
     6
100
AcDbLine
 10
375.468083
 20
114.361917
 30
0.0
 11
379.468667
 21
114.361917
 31
0.0
  0
LINE
  5
2B2
100
AcDbEntity
  8
1
  6
CONTINUOUS
 62
     6
100
AcDbLine
 10
375.593083
 20
114.361917
 30
0.0
 11
375.593083
 21
114.111917
 31
0.0
  0
LINE
  5
2B3
100
AcDbEntity
  8
1
  6
CONTINUOUS
 62
     6
100
AcDbLine
 10
379.343667
 20
114.361917
 30
0.0
 11
379.343667
 21
114.111917
 31
0.0
  0
LINE
  5
2B4
100
AcDbEntity
  8
1
  6
CONTINUOUS
 62
     6
100
AcDbLine
 10
376.093083
 20
114.361917
 30
0.0
 11
376.093083
 21
114.111917
 31
0.0
  0
LINE
  5
2B5
100
AcDbEntity
  8
1
  6
CONTINUOUS
 62
     6
100
AcDbLine
 10
378.843667
 20
114.361917
 30
0.0
 11
378.843667
 21
114.111917
 31
0.0
  0
LINE
  5
2B6
100
AcDbEntity
  8
1
  6
CONTINUOUS
 62
     6
100
AcDbLine
 10
375.593083
 20
114.111917
 30
0.0
 11
376.093083
 21
114.111917
 31
0.0
  0
LINE
  5
2B7
100
AcDbEntity
  8
1
  6
CONTINUOUS
 62
     6
100
AcDbLine
 10
378.843667
 20
114.111917
 30
0.0
 11
379.343667
 21
114.111917
 31
0.0
  0
LINE
  5
2B8
100
AcDbEntity
  8
1
  6
CONTINUOUS
 62
     6
100
AcDbLine
 10
376.593083
 20
112.361917
 30
0.0
 11
378.343667
 21
112.361917
 31
0.0
  0
LINE
  5
2B9
100
AcDbEntity
  8
1
  6
CONTINUOUS
 62
     6
100
AcDbLine
 10
376.093083
 20
114.361917
 30
0.0
 11
376.593083
 21
112.361917
 31
0.0
  0
LINE
  5
2BA
100
AcDbEntity
  8
1
  6
CONTINUOUS
 62
     6
100
AcDbLine
 10
378.843667
 20
114.361917
 30
0.0
 11
378.343667
 21
112.361917
 31
0.0
  0
LINE
  5
2BB
100
AcDbEntity
  8
1
  6
CONTINUOUS
 62
     6
100
AcDbLine
 10
376.593083
 20
112.361917
 30
0.0
 11
376.593083
 21
93.361917
 31
0.0
  0
LINE
  5
2BC
100
AcDbEntity
  8
1
  6
CONTINUOUS
 62
     6
100
AcDbLine
 10
378.343667
 20
112.361917
 30
0.0
 11
378.343667
 21
93.361917
 31
0.0
  0
ARC
  5
2BD
100
AcDbEntity
  8
1
  6
CONTINUOUS
 62
     6
100
AcDbCircle
 10
377.03075
 20
93.626778
 30
0.0
 40
0.51157
210
0.0
220
0.0
230
1.0
100
AcDbArc
 50
211.1809
 51
328.8191
  0
ARC
  5
2BE
100
AcDbEntity
  8
1
  6
CONTINUOUS
 62
     6
100
AcDbCircle
 10
377.906083
 20
93.626778
 30
0.0
 40
0.51157
210
0.0
220
0.0
230
1.0
100
AcDbArc
 50
211.1809
 51
328.8191
  0
ARC
  5
2BF
100
AcDbEntity
  8
1
  6
CONTINUOUS
 62
     6
100
AcDbCircle
 10
377.906083
 20
93.082556
 30
0.0
 40
0.51157
210
0.0
220
0.0
230
1.0
100
AcDbArc
 50
31.1809
 51
148.8191
  0
LINE
  5
2C0
100
AcDbEntity
  8
1
  6
CONTINUOUS
 62
     6
100
AcDbLine
 10
390.968083
 20
131.111917
 30
0.0
 11
389.718083
 21
131.111917
 31
0.0
  0
LINE
  5
2C1
100
AcDbEntity
  8
1
  6
CONTINUOUS
 62
     6
100
AcDbLine
 10
390.968083
 20
129.611917
 30
0.0
 11
389.718083
 21
129.611917
 31
0.0
  0
LINE
  5
2C2
100
AcDbEntity
  8
1
  6
CONTINUOUS
 62
     6
100
AcDbLine
 10
389.718083
 20
131.111917
 30
0.0
 11
389.718083
 21
129.611917
 31
0.0
  0
LINE
  5
2C3
100
AcDbEntity
  8
1
  6
CONTINUOUS
 62
     6
100
AcDbLine
 10
389.968083
 20
145.861917
 30
0.0
 11
389.968083
 21
131.111917
 31
0.0
  0
LINE
  5
2C4
100
AcDbEntity
  8
1
  6
CONTINUOUS
 62
     6
100
AcDbLine
 10
389.968083
 20
129.611917
 30
0.0
 11
389.968083
 21
114.861917
 31
0.0
  0
LINE
  5
2C5
100
AcDbEntity
  8
1
  6
CONTINUOUS
 62
     6
100
AcDbLine
 10
390.468083
 20
146.611917
 30
0.0
 11
390.468083
 21
131.111917
 31
0.0
  0
LINE
  5
2C6
100
AcDbEntity
  8
1
  6
CONTINUOUS
 62
     6
100
AcDbLine
 10
390.468083
 20
129.611917
 30
0.0
 11
390.468083
 21
114.111917
 31
0.0
  0
LINE
  5
2C7
100
AcDbEntity
  8
1
  6
CONTINUOUS
 62
     6
100
AcDbLine
 10
375.468083
 20
142.861917
 30
0.0
 11
371.468083
 21
142.861917
 31
0.0
  0
LINE
  5
2C8
100
AcDbEntity
  8
1
  6
CONTINUOUS
 62
     6
100
AcDbLine
 10
375.468083
 20
141.361917
 30
0.0
 11
371.468083
 21
141.361917
 31
0.0
  0
LINE
  5
2C9
100
AcDbEntity
  8
1
  6
CONTINUOUS
 62
     6
100
AcDbLine
 10
371.468083
 20
142.861917
 30
0.0
 11
371.468083
 21
141.361917
 31
0.0
  0
LINE
  5
2CA
100
AcDbEntity
  8
1
  6
CONTINUOUS
 62
     6
100
AcDbLine
 10
374.968083
 20
239.861917
 30
0.0
 11
374.968083
 21
142.861917
 31
0.0
  0
CIRCLE
  5
2CB
100
AcDbEntity
  8
1
  6
CONTINUOUS
 62
     6
100
AcDbCircle
 10
371.965917
 20
142.506
 30
0.0
 40
0.125
210
0.0
220
0.0
230
1.0
  0
CIRCLE
  5
2CC
100
AcDbEntity
  8
1
  6
CONTINUOUS
 62
     6
100
AcDbCircle
 10
371.978417
 20
141.722
 30
0.0
 40
0.125
210
0.0
220
0.0
230
1.0
  0
LINE
  5
2CD
100
AcDbEntity
  8
1
  6
CONTINUOUS
 62
     6
100
AcDbLine
 10
374.968083
 20
141.361917
 30
0.0
 11
374.968083
 21
118.861917
 31
0.0
  0
LINE
  5
2CE
100
AcDbEntity
  8
1
  6
CONTINUOUS
 62
     6
100
AcDbLine
 10
374.968083
 20
117.361917
 30
0.0
 11
374.968083
 21
83.861917
 31
0.0
  0
LINE
  5
2CF
100
AcDbEntity
  8
1
  6
CONTINUOUS
 62
     6
100
AcDbLine
 10
375.468083
 20
117.361917
 30
0.0
 11
371.468083
 21
117.361917
 31
0.0
  0
LINE
  5
2D0
100
AcDbEntity
  8
1
  6
CONTINUOUS
 62
     6
100
AcDbLine
 10
375.468083
 20
118.861917
 30
0.0
 11
371.468083
 21
118.861917
 31
0.0
  0
LINE
  5
2D1
100
AcDbEntity
  8
1
  6
CONTINUOUS
 62
     6
100
AcDbLine
 10
371.468083
 20
118.861917
 30
0.0
 11
371.468083
 21
117.361917
 31
0.0
  0
CIRCLE
  5
2D2
100
AcDbEntity
  8
1
  6
CONTINUOUS
 62
     6
100
AcDbCircle
 10
371.965917
 20
118.506
 30
0.0
 40
0.125
210
0.0
220
0.0
230
1.0
  0
CIRCLE
  5
2D3
100
AcDbEntity
  8
1
  6
CONTINUOUS
 62
     6
100
AcDbCircle
 10
371.978417
 20
117.722
 30
0.0
 40
0.125
210
0.0
220
0.0
230
1.0
  0
CIRCLE
  5
2D4
100
AcDbEntity
  8
1
  6
CONTINUOUS
 62
     6
100
AcDbCircle
 10
373.4685
 20
118.103583
 30
0.0
 40
3.25
210
0.0
220
0.0
230
1.0
  0
LINE
  5
2D5
100
AcDbEntity
  8
1
  6
CONTINUOUS
 62
     6
100
AcDbLine
 10
411.093083
 20
229.236917
 30
0.0
 11
384.593083
 21
229.236917
 31
0.0
  0
LINE
  5
2D6
100
AcDbEntity
  8
1
  6
CONTINUOUS
 62
     6
100
AcDbLine
 10
394.968083
 20
145.861917
 30
0.0
 11
411.093083
 21
145.861917
 31
0.0
  0
LINE
  5
2D7
100
AcDbEntity
  8
1
  6
CONTINUOUS
 62
     6
100
AcDbLine
 10
410.093083
 20
229.236917
 30
0.0
 11
410.093083
 21
145.861917
 31
0.0
  0
INSERT
  5
2D8
100
AcDbEntity
  8
1
  6
CONTINUOUS
 62
     1
100
AcDbBlockReference
  2
LDR
 10
410.093083
 20
229.236917
 30
0.0
 41
240.0
 42
240.0
 50
90.0
210
0.0
220
0.0
230
1.0
  0
INSERT
  5
2D9
100
AcDbEntity
  8
1
  6
CONTINUOUS
 62
     1
100
AcDbBlockReference
  2
LDR
 10
410.093083
 20
145.861917
 30
0.0
 41
240.0
 42
240.0
 50
270.0
210
0.0
220
0.0
230
1.0
  0
LINE
  5
2DA
100
AcDbEntity
  8
1
  6
CONTINUOUS
 62
     6
100
AcDbLine
 10
378.571833
 20
231.611917
 30
0.0
 11
385.179583
 21
240.579167
 31
0.0
  0
LINE
  5
2DB
100
AcDbEntity
  8
1
  6
CONTINUOUS
 62
     6
100
AcDbLine
 10
385.179583
 20
240.579167
 30
0.0
 11
389.236083
 21
240.579167
 31
0.0
  0
INSERT
  5
2DC
100
AcDbEntity
  8
1
  6
CONTINUOUS
 62
     1
100
AcDbBlockReference
  2
LDR
 10
378.571833
 20
231.611917
 30
0.0
 41
240.0
 42
240.0
 50
233.614395
210
0.0
220
0.0
230
1.0
  0
LINE
  5
2DD
100
AcDbEntity
  8
1
  6
CONTINUOUS
 62
     6
100
AcDbLine
 10
375.593083
 20
206.157667
 30
0.0
 11
356.55375
 21
222.273083
 31
0.0
  0
LINE
  5
2DE
100
AcDbEntity
  8
1
  6
CONTINUOUS
 62
     6
100
AcDbLine
 10
356.55375
 20
222.273083
 30
0.0
 11
354.738083
 21
222.273083
 31
0.0
  0
LINE
  5
2DF
100
AcDbEntity
  8
1
  6
CONTINUOUS
 62
     6
100
AcDbLine
 10
363.968083
 20
184.86625
 30
0.0
 11
353.787917
 21
191.655167
 31
0.0
  0
LINE
  5
2E0
100
AcDbEntity
  8
1
  6
CONTINUOUS
 62
     6
100
AcDbLine
 10
353.787917
 20
191.655167
 30
0.0
 11
350.10025
 21
191.655167
 31
0.0
  0
LINE
  5
2E1
100
AcDbEntity
  8
1
  6
CONTINUOUS
 62
     6
100
AcDbLine
 10
376.343083
 20
146.861917
 30
0.0
 11
354.825333
 21
162.749167
 31
0.0
  0
LINE
  5
2E2
100
AcDbEntity
  8
1
  6
CONTINUOUS
 62
     6
100
AcDbLine
 10
354.825333
 20
162.749167
 30
0.0
 11
351.137667
 21
162.749167
 31
0.0
  0
LINE
  5
2E3
100
AcDbEntity
  8
1
  6
CONTINUOUS
 62
     6
100
AcDbLine
 10
371.799333
 20
120.89225
 30
0.0
 11
357.54025
 21
132.165167
 31
0.0
  0
LINE
  5
2E4
100
AcDbEntity
  8
1
  6
CONTINUOUS
 62
     6
100
AcDbLine
 10
357.54025
 20
132.165167
 30
0.0
 11
353.852583
 21
132.165167
 31
0.0
  0
LINE
  5
2E5
100
AcDbEntity
  8
1
  6
CONTINUOUS
 62
     6
100
AcDbLine
 10
394.968083
 20
114.861917
 30
0.0
 11
403.968083
 21
114.861917
 31
0.0
  0
LINE
  5
2E6
100
AcDbEntity
  8
1
  6
CONTINUOUS
 62
     6
100
AcDbLine
 10
402.968083
 20
114.861917
 30
0.0
 11
402.968083
 21
68.861917
 31
0.0
  0
INSERT
  5
2E7
100
AcDbEntity
  8
1
  6
CONTINUOUS
 62
     1
100
AcDbBlockReference
  2
LDR
 10
402.968083
 20
114.861917
 30
0.0
 41
240.0
 42
240.0
 50
90.0
210
0.0
220
0.0
230
1.0
  0
ARC
  5
2E8
100
AcDbEntity
  8
1
  6
CONTINUOUS
 62
     6
100
AcDbCircle
 10
404.215027
 20
69.576117
 30
0.0
 40
1.436967
210
0.0
220
0.0
230
1.0
100
AcDbArc
 50
209.801522
 51
342.198481
  0
ARC
  5
2E9
100
AcDbEntity
  8
1
  6
CONTINUOUS
 62
     6
100
AcDbCircle
 10
401.721163
 20
68.14778
 30
0.0
 40
1.436967
210
0.0
220
0.0
230
1.0
100
AcDbArc
 50
29.801522
 51
162.198481
  0
INSERT
  5
2EA
100
AcDbEntity
  8
1
  6
CONTINUOUS
 62
     1
100
AcDbBlockReference
  2
LDR
 10
375.593083
 20
206.157667
 30
0.0
 41
239.999999
 42
239.999999
 50
319.754503
210
0.0
220
0.0
230
1.0
  0
INSERT
  5
2EB
100
AcDbEntity
  8
1
  6
CONTINUOUS
 62
     1
100
AcDbBlockReference
  2
LDR
 10
375.593083
 20
206.157667
 30
0.0
 41
239.999999
 42
239.999999
 50
319.754503
210
0.0
220
0.0
230
1.0
  0
INSERT
  5
2EC
100
AcDbEntity
  8
1
  6
CONTINUOUS
 62
     1
100
AcDbBlockReference
  2
LDR
 10
363.968083
 20
184.86625
 30
0.0
 41
240.0
 42
240.0
 50
326.301599
210
0.0
220
0.0
230
1.0
  0
INSERT
  5
2ED
100
AcDbEntity
  8
1
  6
CONTINUOUS
 62
     1
100
AcDbBlockReference
  2
LDR
 10
363.968083
 20
184.86625
 30
0.0
 41
240.0
 42
240.0
 50
326.301599
210
0.0
220
0.0
230
1.0
  0
INSERT
  5
2EE
100
AcDbEntity
  8
1
  6
CONTINUOUS
 62
     1
100
AcDbBlockReference
  2
LDR
 10
376.343083
 20
146.861917
 30
0.0
 41
240.000001
 42
240.000001
 50
323.56035
210
0.0
220
0.0
230
1.0
  0
INSERT
  5
2EF
100
AcDbEntity
  8
1
  6
CONTINUOUS
 62
     1
100
AcDbBlockReference
  2
LDR
 10
371.799333
 20
120.89225
 30
0.0
 41
239.999998
 42
239.999998
 50
321.670882
210
0.0
220
0.0
230
1.0
  0
TEXT
  5
2F0
100
AcDbEntity
  8
1
  6
CONTINUOUS
 62
     7
100
AcDbText
 10
390.382917
 20
239.52425
 30
0.0
 40
2.5
  1
PHOTOELECTRIC CELL
  7
MONOTXT
210
0.0
220
0.0
230
1.0
100
AcDbText
  0
TEXT
  5
2F1
100
AcDbEntity
  8
1
  6
CONTINUOUS
 62
     7
100
AcDbText
 10
312.92275
 20
190.256417
 30
0.0
 40
2.5
  1
LIGHTING POLE OR
  7
MONOTXT
 11
312.92275
 21
192.756417
 31
0.0
210
0.0
220
0.0
230
1.0
100
AcDbText
 73
     3
  0
TEXT
  5
2F2
100
AcDbEntity
  8
1
  6
CONTINUOUS
 62
     7
100
AcDbText
 10
312.92275
 20
185.756417
 30
0.0
 40
2.5
  1
COMBINATION LIGHTING
  7
MONOTXT
 11
312.92275
 21
188.256417
 31
0.0
210
0.0
220
0.0
230
1.0
100
AcDbText
 73
     3
  0
TEXT
  5
2F3
100
AcDbEntity
  8
1
  6
CONTINUOUS
 62
     7
100
AcDbText
 10
312.92275
 20
181.256417
 30
0.0
 40
2.5
  1
AND SIGNAL POLE
  7
MONOTXT
 11
312.92275
 21
183.756417
 31
0.0
210
0.0
220
0.0
230
1.0
100
AcDbText
 73
     3
  0
TEXT
  5
2F4
100
AcDbEntity
  8
1
  6
CONTINUOUS
 62
     7
100
AcDbText
 10
325.37175
 20
161.476167
 30
0.0
 40
2.5
  1
MEYERS HUB
  7
MONOTXT
 11
325.37175
 21
163.976167
 31
0.0
210
0.0
220
0.0
230
1.0
100
AcDbText
 73
     3
  0
TEXT
  5
2F5
100
AcDbEntity
  8
1
  6
CONTINUOUS
 62
     7
100
AcDbText
 10
325.37175
 20
156.976167
 30
0.0
 40
2.5
  1
(WATERTIGHT)
  7
MONOTXT
 11
325.37175
 21
159.476167
 31
0.0
210
0.0
220
0.0
230
1.0
100
AcDbText
 73
     3
  0
TEXT
  5
2F6
100
AcDbEntity
  8
1
  6
CONTINUOUS
 62
     7
100
AcDbText
 10
319.008917
 20
131.0355
 30
0.0
 40
2.5
  1
SEE DETAILS FOR
  7
MONOTXT
 11
319.008917
 21
133.5355
 31
0.0
210
0.0
220
0.0
230
1.0
100
AcDbText
 73
     3
  0
TEXT
  5
2F7
100
AcDbEntity
  8
1
  6
CONTINUOUS
 62
     7
100
AcDbText
 10
319.008917
 20
126.5355
 30
0.0
 40
2.5
  1
MOUNTING BRACKET
  7
MONOTXT
 11
319.008917
 21
129.0355
 31
0.0
210
0.0
220
0.0
230
1.0
100
AcDbText
 73
     3
  0
TEXT
  5
2F8
100
AcDbEntity
  8
1
  6
CONTINUOUS
 62
     7
100
AcDbText
 10
406.352917
 20
82.107333
 30
0.0
 40
2.5
  1
MINIMUM DISTANCE TO
  7
MONOTXT
 11
406.352917
 21
84.607333
 31
0.0
210
0.0
220
0.0
230
1.0
100
AcDbText
 73
     3
  0
TEXT
  5
2F9
100
AcDbEntity
  8
1
  6
CONTINUOUS
 62
     7
100
AcDbText
 10
406.352917
 20
77.607333
 30
0.0
 40
2.5
  1
SIDEWALK 2.1m (PEDESTRIAN AREA)
  7
MONOTXT
 11
406.352917
 21
80.107333
 31
0.0
210
0.0
220
0.0
230
1.0
100
AcDbText
 73
     3
  0
TEXT
  5
2FA
100
AcDbEntity
  8
1
  6
CONTINUOUS
 62
     7
100
AcDbText
 10
331.038833
 20
55.043833
 30
0.0
 40
3.5
  1
CONTROL STATION - POLE MOUNTING DETAIL
  7
MONOTXT
210
0.0
220
0.0
230
1.0
100
AcDbText
  0
LINE
  5
2FB
100
AcDbEntity
  8
1
  6
CONTINUOUS
 62
     7
100
AcDbLine
 10
328.55525
 20
52.5595
 30
0.0
 11
456.584833
 21
52.5595
 31
0.0
  0
LINE
  5
2FC
100
AcDbEntity
  8
1
  6
CONTINUOUS
 62
     2
100
AcDbLine
 10
472.851583
 20
174.964833
 30
0.0
 11
506.851583
 21
174.964833
 31
0.0
  0
LINE
  5
2FD
100
AcDbEntity
  8
1
  6
CONTINUOUS
 62
     2
100
AcDbLine
 10
472.851583
 20
158.964833
 30
0.0
 11
506.851583
 21
158.964833
 31
0.0
  0
LINE
  5
2FE
100
AcDbEntity
  8
1
  6
CONTINUOUS
 62
     2
100
AcDbLine
 10
472.851583
 20
174.964833
 30
0.0
 11
472.851583
 21
158.964833
 31
0.0
  0
LINE
  5
2FF
100
AcDbEntity
  8
1
  6
CONTINUOUS
 62
     2
100
AcDbLine
 10
506.851583
 20
169.964833
 30
0.0
 11
526.851583
 21
169.964833
 31
0.0
  0
LINE
  5
300
100
AcDbEntity
  8
1
  6
CONTINUOUS
 62
     2
100
AcDbLine
 10
506.851583
 20
163.964833
 30
0.0
 11
526.851583
 21
163.964833
 31
0.0
  0
LINE
  5
301
100
AcDbEntity
  8
1
  6
CONTINUOUS
 62
     2
100
AcDbLine
 10
506.851583
 20
174.964833
 30
0.0
 11
506.851583
 21
169.964833
 31
0.0
  0
LINE
  5
302
100
AcDbEntity
  8
1
  6
CONTINUOUS
 62
     2
100
AcDbLine
 10
506.851583
 20
163.964833
 30
0.0
 11
506.851583
 21
158.964833
 31
0.0
  0
LINE
  5
303
100
AcDbEntity
  8
1
  6
CONTINUOUS
 62
     2
100
AcDbLine
 10
526.851583
 20
169.964833
 30
0.0
 11
526.851583
 21
163.964833
 31
0.0
  0
LINE
  5
304
100
AcDbEntity
  8
1
  6
CONTINUOUS
 62
     2
100
AcDbLine
 10
561.851583
 20
169.964833
 30
0.0
 11
561.851583
 21
163.964833
 31
0.0
  0
LINE
  5
305
100
AcDbEntity
  8
1
  6
CONTINUOUS
 62
     2
100
AcDbLine
 10
541.851583
 20
169.964833
 30
0.0
 11
561.851583
 21
169.964833
 31
0.0
  0
LINE
  5
306
100
AcDbEntity
  8
1
  6
CONTINUOUS
 62
     2
100
AcDbLine
 10
541.851583
 20
163.964833
 30
0.0
 11
561.851583
 21
163.964833
 31
0.0
  0
LINE
  5
307
100
AcDbEntity
  8
1
  6
CONTINUOUS
 62
     2
100
AcDbLine
 10
541.851583
 20
174.964833
 30
0.0
 11
541.851583
 21
169.964833
 31
0.0
  0
LINE
  5
308
100
AcDbEntity
  8
1
  6
CONTINUOUS
 62
     2
100
AcDbLine
 10
541.851583
 20
158.964833
 30
0.0
 11
541.851583
 21
163.964833
 31
0.0
  0
LINE
  5
309
100
AcDbEntity
  8
1
  6
CONTINUOUS
 62
     2
100
AcDbLine
 10
541.851583
 20
174.964833
 30
0.0
 11
642.851583
 21
174.964833
 31
0.0
  0
LINE
  5
30A
100
AcDbEntity
  8
1
  6
CONTINUOUS
 62
     2
100
AcDbLine
 10
541.851583
 20
158.964833
 30
0.0
 11
642.851583
 21
158.964833
 31
0.0
  0
LINE
  5
30B
100
AcDbEntity
  8
1
  6
CONTINUOUS
 62
     2
100
AcDbLine
 10
642.851583
 20
174.964833
 30
0.0
 11
642.851583
 21
169.964833
 31
0.0
  0
LINE
  5
30C
100
AcDbEntity
  8
1
  6
CONTINUOUS
 62
     2
100
AcDbLine
 10
642.851583
 20
158.964833
 30
0.0
 11
642.851583
 21
163.964833
 31
0.0
  0
LINE
  5
30D
100
AcDbEntity
  8
1
  6
CONTINUOUS
 62
     2
100
AcDbLine
 10
622.851583
 20
169.964833
 30
0.0
 11
642.851583
 21
169.964833
 31
0.0
  0
LINE
  5
30E
100
AcDbEntity
  8
1
  6
CONTINUOUS
 62
     2
100
AcDbLine
 10
622.851583
 20
163.964833
 30
0.0
 11
642.851583
 21
163.964833
 31
0.0
  0
LINE
  5
30F
100
AcDbEntity
  8
1
  6
CONTINUOUS
 62
     2
100
AcDbLine
 10
622.851583
 20
169.964833
 30
0.0
 11
622.851583
 21
163.964833
 31
0.0
  0
LINE
  5
310
100
AcDbEntity
  8
1
  6
CONTINUOUS
 62
     2
100
AcDbLine
 10
592.351583
 20
180.964833
 30
0.0
 11
592.351583
 21
152.798167
 31
0.0
  0
LINE
  5
311
100
AcDbEntity
  8
1
  6
CONTINUOUS
 62
     2
100
AcDbLine
 10
566.351583
 20
180.964833
 30
0.0
 11
566.351583
 21
169.964833
 31
0.0
  0
LINE
  5
312
100
AcDbEntity
  8
1
  6
CONTINUOUS
 62
     2
100
AcDbLine
 10
566.351583
 20
168.964833
 30
0.0
 11
566.351583
 21
167.964833
 31
0.0
  0
LINE
  5
313
100
AcDbEntity
  8
1
  6
CONTINUOUS
 62
     2
100
AcDbLine
 10
566.351583
 20
166.964833
 30
0.0
 11
566.351583
 21
163.964833
 31
0.0
  0
LINE
  5
314
100
AcDbEntity
  8
1
  6
CONTINUOUS
 62
     2
100
AcDbLine
 10
618.351583
 20
180.964833
 30
0.0
 11
618.351583
 21
169.964833
 31
0.0
  0
LINE
  5
315
100
AcDbEntity
  8
1
  6
CONTINUOUS
 62
     2
100
AcDbLine
 10
618.351583
 20
168.964833
 30
0.0
 11
618.351583
 21
167.964833
 31
0.0
  0
LINE
  5
316
100
AcDbEntity
  8
1
  6
CONTINUOUS
 62
     2
100
AcDbLine
 10
618.351583
 20
166.964833
 30
0.0
 11
618.351583
 21
163.964833
 31
0.0
  0
LINE
  5
317
100
AcDbEntity
  8
1
  6
CONTINUOUS
 62
     2
100
AcDbLine
 10
566.351583
 20
179.964833
 30
0.0
 11
592.351583
 21
179.964833
 31
0.0
  0
LINE
  5
318
100
AcDbEntity
  8
1
  6
CONTINUOUS
 62
     2
100
AcDbLine
 10
592.351583
 20
179.964833
 30
0.0
 11
618.351583
 21
179.964833
 31
0.0
  0
INSERT
  5
319
100
AcDbEntity
  8
1
  6
CONTINUOUS
 62
     1
100
AcDbBlockReference
  2
LDR
 10
566.351583
 20
179.964833
 30
0.0
 41
240.0
 42
240.0
 50
180.0
210
0.0
220
0.0
230
1.0
  0
INSERT
  5
31A
100
AcDbEntity
  8
1
  6
CONTINUOUS
 62
     1
100
AcDbBlockReference
  2
LDR
 10
566.351583
 20
179.964833
 30
0.0
 41
240.0
 42
240.0
 50
180.0
210
0.0
220
0.0
230
1.0
  0
INSERT
  5
31B
100
AcDbEntity
  8
1
  6
CONTINUOUS
 62
     1
100
AcDbBlockReference
  2
LDR
 10
592.351583
 20
179.964833
 30
0.0
 41
240.0
 42
240.0
210
0.0
220
0.0
230
1.0
  0
INSERT
  5
31C
100
AcDbEntity
  8
1
  6
CONTINUOUS
 62
     1
100
AcDbBlockReference
  2
LDR
 10
592.351583
 20
179.964833
 30
0.0
 41
240.0
 42
240.0
210
0.0
220
0.0
230
1.0
  0
INSERT
  5
31D
100
AcDbEntity
  8
1
  6
CONTINUOUS
 62
     1
100
AcDbBlockReference
  2
LDR
 10
592.351583
 20
179.964833
 30
0.0
 41
240.0
 42
240.0
 50
180.0
210
0.0
220
0.0
230
1.0
  0
INSERT
  5
31E
100
AcDbEntity
  8
1
  6
CONTINUOUS
 62
     1
100
AcDbBlockReference
  2
LDR
 10
592.351583
 20
179.964833
 30
0.0
 41
240.0
 42
240.0
 50
180.0
210
0.0
220
0.0
230
1.0
  0
INSERT
  5
31F
100
AcDbEntity
  8
1
  6
CONTINUOUS
 62
     1
100
AcDbBlockReference
  2
LDR
 10
618.351583
 20
179.964833
 30
0.0
 41
240.0
 42
240.0
210
0.0
220
0.0
230
1.0
  0
INSERT
  5
320
100
AcDbEntity
  8
1
  6
CONTINUOUS
 62
     1
100
AcDbBlockReference
  2
LDR
 10
618.351583
 20
179.964833
 30
0.0
 41
240.0
 42
240.0
210
0.0
220
0.0
230
1.0
  0
LINE
  5
321
100
AcDbEntity
  8
1
  6
CONTINUOUS
 62
     2
100
AcDbLine
 10
622.851583
 20
170.964833
 30
0.0
 11
622.851583
 21
180.964833
 31
0.0
  0
LINE
  5
322
100
AcDbEntity
  8
1
  6
CONTINUOUS
 62
     2
100
AcDbLine
 10
642.851583
 20
175.964833
 30
0.0
 11
642.851583
 21
180.964833
 31
0.0
  0
LINE
  5
323
100
AcDbEntity
  8
1
  6
CONTINUOUS
 62
     2
100
AcDbLine
 10
622.851583
 20
179.964833
 30
0.0
 11
642.851583
 21
179.964833
 31
0.0
  0
INSERT
  5
324
100
AcDbEntity
  8
1
  6
CONTINUOUS
 62
     1
100
AcDbBlockReference
  2
LDR
 10
622.851583
 20
179.964833
 30
0.0
 41
240.0
 42
240.0
 50
180.0
210
0.0
220
0.0
230
1.0
  0
INSERT
  5
325
100
AcDbEntity
  8
1
  6
CONTINUOUS
 62
     1
100
AcDbBlockReference
  2
LDR
 10
642.851583
 20
179.964833
 30
0.0
 41
240.0
 42
240.0
210
0.0
220
0.0
230
1.0
  0
LINE
  5
326
100
AcDbEntity
  8
1
  6
CONTINUOUS
 62
     2
100
AcDbLine
 10
643.851583
 20
174.964833
 30
0.0
 11
654.851583
 21
174.964833
 31
0.0
  0
LINE
  5
327
100
AcDbEntity
  8
1
  6
CONTINUOUS
 62
     2
100
AcDbLine
 10
643.851583
 20
158.964833
 30
0.0
 11
654.851583
 21
158.964833
 31
0.0
  0
LINE
  5
328
100
AcDbEntity
  8
1
  6
CONTINUOUS
 62
     2
100
AcDbLine
 10
653.851583
 20
174.964833
 30
0.0
 11
653.851583
 21
158.964833
 31
0.0
  0
INSERT
  5
329
100
AcDbEntity
  8
1
  6
CONTINUOUS
 62
     1
100
AcDbBlockReference
  2
LDR
 10
653.851583
 20
174.964833
 30
0.0
 41
240.0
 42
240.0
 50
90.0
210
0.0
220
0.0
230
1.0
  0
INSERT
  5
32A
100
AcDbEntity
  8
1
  6
CONTINUOUS
 62
     1
100
AcDbBlockReference
  2
LDR
 10
653.851583
 20
158.964833
 30
0.0
 41
240.0
 42
240.0
 50
270.0
210
0.0
220
0.0
230
1.0
  0
LINE
  5
32B
100
AcDbEntity
  8
1
  6
CONTINUOUS
 62
     2
100
AcDbLine
 10
643.851583
 20
169.964833
 30
0.0
 11
649.851583
 21
169.964833
 31
0.0
  0
LINE
  5
32C
100
AcDbEntity
  8
1
  6
CONTINUOUS
 62
     2
100
AcDbLine
 10
643.851583
 20
163.964833
 30
0.0
 11
649.851583
 21
163.964833
 31
0.0
  0
LINE
  5
32D
100
AcDbEntity
  8
1
  6
CONTINUOUS
 62
     2
100
AcDbLine
 10
648.851583
 20
173.964833
 30
0.0
 11
648.851583
 21
169.964833
 31
0.0
  0
LINE
  5
32E
100
AcDbEntity
  8
1
  6
CONTINUOUS
 62
     2
100
AcDbLine
 10
648.851583
 20
158.964833
 30
0.0
 11
648.851583
 21
153.964833
 31
0.0
  0
INSERT
  5
32F
100
AcDbEntity
  8
1
  6
CONTINUOUS
 62
     1
100
AcDbBlockReference
  2
LDR
 10
648.851583
 20
169.964833
 30
0.0
 41
240.0
 42
240.0
 50
270.0
210
0.0
220
0.0
230
1.0
  0
INSERT
  5
330
100
AcDbEntity
  8
1
  6
CONTINUOUS
 62
     1
100
AcDbBlockReference
  2
LDR
 10
648.851583
 20
158.964833
 30
0.0
 41
240.0
 42
240.0
 50
90.0
210
0.0
220
0.0
230
1.0
  0
LINE
  5
331
100
AcDbEntity
  8
1
  6
CONTINUOUS
 62
     2
100
AcDbLine
 10
541.851583
 20
157.964833
 30
0.0
 11
541.851583
 21
147.964833
 31
0.0
  0
LINE
  5
332
100
AcDbEntity
  8
1
  6
CONTINUOUS
 62
     2
100
AcDbLine
 10
642.851583
 20
157.964833
 30
0.0
 11
642.851583
 21
147.964833
 31
0.0
  0
LINE
  5
333
100
AcDbEntity
  8
1
  6
CONTINUOUS
 62
     2
100
AcDbLine
 10
541.851583
 20
148.964833
 30
0.0
 11
642.851583
 21
148.964833
 31
0.0
  0
LINE
  5
334
100
AcDbEntity
  8
1
  6
CONTINUOUS
 62
     2
100
AcDbLine
 10
592.351583
 20
153.798167
 30
0.0
 11
642.851583
 21
153.798167
 31
0.0
  0
INSERT
  5
335
100
AcDbEntity
  8
1
  6
CONTINUOUS
 62
     1
100
AcDbBlockReference
  2
LDR
 10
642.851583
 20
148.964833
 30
0.0
 41
240.0
 42
240.0
210
0.0
220
0.0
230
1.0
  0
INSERT
  5
336
100
AcDbEntity
  8
1
  6
CONTINUOUS
 62
     1
100
AcDbBlockReference
  2
LDR
 10
642.851583
 20
148.964833
 30
0.0
 41
240.0
 42
240.0
210
0.0
220
0.0
230
1.0
  0
INSERT
  5
337
100
AcDbEntity
  8
1
  6
CONTINUOUS
 62
     1
100
AcDbBlockReference
  2
LDR
 10
541.851583
 20
148.964833
 30
0.0
 41
240.0
 42
240.0
 50
180.0
210
0.0
220
0.0
230
1.0
  0
LINE
  5
338
100
AcDbEntity
  8
1
  6
CONTINUOUS
 62
     2
100
AcDbLine
 10
527.851583
 20
169.964833
 30
0.0
 11
534.851583
 21
169.964833
 31
0.0
  0
LINE
  5
339
100
AcDbEntity
  8
1
  6
CONTINUOUS
 62
     2
100
AcDbLine
 10
527.851583
 20
163.964833
 30
0.0
 11
534.851583
 21
163.964833
 31
0.0
  0
LINE
  5
33A
100
AcDbEntity
  8
1
  6
CONTINUOUS
 62
     2
100
AcDbLine
 10
507.851583
 20
174.964833
 30
0.0
 11
534.851583
 21
174.964833
 31
0.0
  0
LINE
  5
33B
100
AcDbEntity
  8
1
  6
CONTINUOUS
 62
     2
100
AcDbLine
 10
533.851583
 20
174.964833
 30
0.0
 11
533.851583
 21
179.964833
 31
0.0
  0
LINE
  5
33C
100
AcDbEntity
  8
1
  6
CONTINUOUS
 62
     2
100
AcDbLine
 10
533.851583
 20
163.964833
 30
0.0
 11
533.851583
 21
158.964833
 31
0.0
  0
INSERT
  5
33D
100
AcDbEntity
  8
1
  6
CONTINUOUS
 62
     1
100
AcDbBlockReference
  2
LDR
 10
533.851583
 20
174.964833
 30
0.0
 41
240.0
 42
240.0
 50
270.0
210
0.0
220
0.0
230
1.0
  0
INSERT
  5
33E
100
AcDbEntity
  8
1
  6
CONTINUOUS
 62
     1
100
AcDbBlockReference
  2
LDR
 10
533.851583
 20
163.964833
 30
0.0
 41
240.0
 42
240.0
 50
90.0
210
0.0
220
0.0
230
1.0
  0
LINE
  5
33F
100
AcDbEntity
  8
1
  6
CONTINUOUS
 62
     2
100
AcDbLine
 10
526.851583
 20
162.964833
 30
0.0
 11
526.851583
 21
147.964833
 31
0.0
  0
LINE
  5
340
100
AcDbEntity
  8
1
  6
CONTINUOUS
 62
     2
100
AcDbLine
 10
472.851583
 20
157.964833
 30
0.0
 11
472.851583
 21
147.964833
 31
0.0
  0
LINE
  5
341
100
AcDbEntity
  8
1
  6
CONTINUOUS
 62
     2
100
AcDbLine
 10
472.851583
 20
148.964833
 30
0.0
 11
526.851583
 21
148.964833
 31
0.0
  0
LINE
  5
342
100
AcDbEntity
  8
1
  6
CONTINUOUS
 62
     2
100
AcDbLine
 10
506.851583
 20
157.964833
 30
0.0
 11
506.851583
 21
152.964833
 31
0.0
  0
LINE
  5
343
100
AcDbEntity
  8
1
  6
CONTINUOUS
 62
     2
100
AcDbLine
 10
506.851583
 20
153.964833
 30
0.0
 11
526.851583
 21
153.964833
 31
0.0
  0
INSERT
  5
344
100
AcDbEntity
  8
1
  6
CONTINUOUS
 62
     1
100
AcDbBlockReference
  2
LDR
 10
506.851583
 20
153.964833
 30
0.0
 41
240.0
 42
240.0
 50
180.0
210
0.0
220
0.0
230
1.0
  0
INSERT
  5
345
100
AcDbEntity
  8
1
  6
CONTINUOUS
 62
     1
100
AcDbBlockReference
  2
LDR
 10
506.851583
 20
153.964833
 30
0.0
 41
240.0
 42
240.0
 50
180.0
210
0.0
220
0.0
230
1.0
  0
INSERT
  5
346
100
AcDbEntity
  8
1
  6
CONTINUOUS
 62
     1
100
AcDbBlockReference
  2
LDR
 10
526.851583
 20
153.964833
 30
0.0
 41
240.0
 42
240.0
210
0.0
220
0.0
230
1.0
  0
INSERT
  5
347
100
AcDbEntity
  8
1
  6
CONTINUOUS
 62
     1
100
AcDbBlockReference
  2
LDR
 10
526.851583
 20
153.964833
 30
0.0
 41
240.0
 42
240.0
210
0.0
220
0.0
230
1.0
  0
INSERT
  5
348
100
AcDbEntity
  8
1
  6
CONTINUOUS
 62
     1
100
AcDbBlockReference
  2
LDR
 10
526.851583
 20
148.964833
 30
0.0
 41
240.0
 42
240.0
210
0.0
220
0.0
230
1.0
  0
INSERT
  5
349
100
AcDbEntity
  8
1
  6
CONTINUOUS
 62
     1
100
AcDbBlockReference
  2
LDR
 10
526.851583
 20
148.964833
 30
0.0
 41
240.0
 42
240.0
210
0.0
220
0.0
230
1.0
  0
INSERT
  5
34A
100
AcDbEntity
  8
1
  6
CONTINUOUS
 62
     1
100
AcDbBlockReference
  2
LDR
 10
472.851583
 20
148.964833
 30
0.0
 41
240.0
 42
240.0
 50
180.0
210
0.0
220
0.0
230
1.0
  0
INSERT
  5
34B
100
AcDbEntity
  8
1
  6
CONTINUOUS
 62
     1
100
AcDbBlockReference
  2
LDR
 10
592.351583
 20
153.798167
 30
0.0
 41
240.0
 42
240.0
 50
180.0
210
0.0
220
0.0
230
1.0
  0
INSERT
  5
34C
100
AcDbEntity
  8
1
  6
CONTINUOUS
 62
     1
100
AcDbBlockReference
  2
LDR
 10
592.351583
 20
153.798167
 30
0.0
 41
240.0
 42
240.0
 50
180.0
210
0.0
220
0.0
230
1.0
  0
INSERT
  5
34D
100
AcDbEntity
  8
1
  6
CONTINUOUS
 62
     1
100
AcDbBlockReference
  2
LDR
 10
642.851583
 20
153.798167
 30
0.0
 41
240.0
 42
240.0
210
0.0
220
0.0
230
1.0
  0
INSERT
  5
34E
100
AcDbEntity
  8
1
  6
CONTINUOUS
 62
     1
100
AcDbBlockReference
  2
LDR
 10
642.851583
 20
153.798167
 30
0.0
 41
240.0
 42
240.0
210
0.0
220
0.0
230
1.0
  0
TEXT
  5
34F
100
AcDbEntity
  8
1
  6
CONTINUOUS
 62
     7
100
AcDbText
 10
479.812417
 20
165.086417
 30
0.0
 40
3.0
  1
PART "B"
  7
MONOTXT
210
0.0
220
0.0
230
1.0
100
AcDbText
  0
TEXT
  5
350
100
AcDbEntity
  8
1
  6
CONTINUOUS
 62
     7
100
AcDbText
 10
579.967083
 20
165.086417
 30
0.0
 40
3.0
  1
PART "A"
  7
MONOTXT
210
0.0
220
0.0
230
1.0
100
AcDbText
  0
TEXT
  5
351
100
AcDbEntity
  8
1
  6
CONTINUOUS
 62
     7
100
AcDbText
 10
535.453917
 20
131.285833
 30
0.0
 40
3.5
  1
MOUNTING BRACKET
  7
MONOTXT
210
0.0
220
0.0
230
1.0
100
AcDbText
  0
LINE
  5
352
100
AcDbEntity
  8
1
  6
CONTINUOUS
 62
     7
100
AcDbLine
 10
534.037583
 20
130.273917
 30
0.0
 11
589.607167
 21
130.273917
 31
0.0
  0
LINE
  5
353
100
AcDbEntity
  8
1
  6
CONTINUOUS
 62
     1
100
AcDbLine
 10
524.682583
 20
201.792917
 30
0.0
 11
602.682583
 21
201.792917
 31
0.0
  0
LINE
  5
354
100
AcDbEntity
  8
1
  6
CONTINUOUS
 62
     1
100
AcDbLine
 10
524.682583
 20
216.792917
 30
0.0
 11
602.682583
 21
216.792917
 31
0.0
  0
LINE
  5
355
100
AcDbEntity
  8
1
  6
CONTINUOUS
 62
     1
100
AcDbLine
 10
524.682583
 20
216.792917
 30
0.0
 11
524.682583
 21
201.792917
 31
0.0
  0
LINE
  5
356
100
AcDbEntity
  8
1
  6
CONTINUOUS
 62
     1
100
AcDbLine
 10
602.682583
 20
216.792917
 30
0.0
 11
602.682583
 21
201.792917
 31
0.0
  0
LINE
  5
357
100
AcDbEntity
  8
1
  6
HIDDEN
 62
     1
100
AcDbLine
 10
526.432583
 20
216.792917
 30
0.0
 11
526.432583
 21
201.792917
 31
0.0
  0
LINE
  5
358
100
AcDbEntity
  8
1
  6
HIDDEN
 62
     1
100
AcDbLine
 10
530.932583
 20
216.792917
 30
0.0
 11
530.932583
 21
201.792917
 31
0.0
  0
LINE
  5
359
100
AcDbEntity
  8
1
  6
CONTINUOUS
 62
     1
100
AcDbLine
 10
525.182583
 20
220.292917
 30
0.0
 11
525.182583
 21
216.792917
 31
0.0
  0
LINE
  5
35A
100
AcDbEntity
  8
1
  6
CONTINUOUS
 62
     1
100
AcDbLine
 10
525.182583
 20
201.792917
 30
0.0
 11
525.182583
 21
198.292917
 31
0.0
  0
LINE
  5
35B
100
AcDbEntity
  8
1
  6
CONTINUOUS
 62
     1
100
AcDbLine
 10
532.182583
 20
220.292917
 30
0.0
 11
532.182583
 21
216.792917
 31
0.0
  0
LINE
  5
35C
100
AcDbEntity
  8
1
  6
CONTINUOUS
 62
     1
100
AcDbLine
 10
532.182583
 20
201.792917
 30
0.0
 11
532.182583
 21
198.292917
 31
0.0
  0
LINE
  5
35D
100
AcDbEntity
  8
1
  6
CONTINUOUS
 62
     1
100
AcDbLine
 10
525.182583
 20
198.292917
 30
0.0
 11
525.932583
 21
197.792917
 31
0.0
  0
LINE
  5
35E
100
AcDbEntity
  8
1
  6
CONTINUOUS
 62
     1
100
AcDbLine
 10
526.932583
 20
197.792917
 30
0.0
 11
530.432583
 21
197.792917
 31
0.0
  0
LINE
  5
35F
100
AcDbEntity
  8
1
  6
CONTINUOUS
 62
     1
100
AcDbLine
 10
531.432583
 20
197.792917
 30
0.0
 11
532.182583
 21
198.292917
 31
0.0
  0
LINE
  5
360
100
AcDbEntity
  8
1
  6
CONTINUOUS
 62
     1
100
AcDbLine
 10
525.182583
 20
220.292917
 30
0.0
 11
528.682583
 21
220.292917
 31
0.0
  0
LINE
  5
361
100
AcDbEntity
  8
1
  6
CONTINUOUS
 62
     1
100
AcDbLine
 10
528.682583
 20
220.292917
 30
0.0
 11
532.182583
 21
220.292917
 31
0.0
  0
LINE
  5
362
100
AcDbEntity
  8
1
  6
CONTINUOUS
 62
     1
100
AcDbLine
 10
527.932583
 20
220.292917
 30
0.0
 11
528.682583
 21
219.292917
 31
0.0
  0
LINE
  5
363
100
AcDbEntity
  8
1
  6
CONTINUOUS
 62
     1
100
AcDbLine
 10
528.682583
 20
219.292917
 30
0.0
 11
529.432583
 21
220.292917
 31
0.0
  0
LINE
  5
364
100
AcDbEntity
  8
1
  6
CONTINUOUS
 62
     1
100
AcDbLine
 10
525.182583
 20
219.292917
 30
0.0
 11
525.932583
 21
220.292917
 31
0.0
  0
LINE
  5
365
100
AcDbEntity
  8
1
  6
CONTINUOUS
 62
     1
100
AcDbLine
 10
531.432583
 20
220.292917
 30
0.0
 11
532.182583
 21
219.292917
 31
0.0
  0
LINE
  5
366
100
AcDbEntity
  8
1
  6
CONTINUOUS
 62
     1
100
AcDbLine
 10
525.932583
 20
197.792917
 30
0.0
 11
526.932583
 21
197.792917
 31
0.0
  0
LINE
  5
367
100
AcDbEntity
  8
1
  6
CONTINUOUS
 62
     1
100
AcDbLine
 10
530.432583
 20
197.792917
 30
0.0
 11
531.432583
 21
197.792917
 31
0.0
  0
LINE
  5
368
100
AcDbEntity
  8
1
  6
CONTINUOUS
 62
     1
100
AcDbLine
 10
526.432583
 20
198.792917
 30
0.0
 11
526.432583
 21
200.792917
 31
0.0
  0
LINE
  5
369
100
AcDbEntity
  8
1
  6
CONTINUOUS
 62
     1
100
AcDbLine
 10
530.932583
 20
198.792917
 30
0.0
 11
530.932583
 21
200.792917
 31
0.0
  0
LINE
  5
36A
100
AcDbEntity
  8
1
  6
CONTINUOUS
 62
     1
100
AcDbLine
 10
525.932583
 20
197.792917
 30
0.0
 11
526.432583
 21
198.792917
 31
0.0
  0
LINE
  5
36B
100
AcDbEntity
  8
1
  6
CONTINUOUS
 62
     1
100
AcDbLine
 10
526.432583
 20
198.792917
 30
0.0
 11
526.932583
 21
197.792917
 31
0.0
  0
LINE
  5
36C
100
AcDbEntity
  8
1
  6
CONTINUOUS
 62
     1
100
AcDbLine
 10
530.432583
 20
197.792917
 30
0.0
 11
530.932583
 21
198.792917
 31
0.0
  0
LINE
  5
36D
100
AcDbEntity
  8
1
  6
CONTINUOUS
 62
     1
100
AcDbLine
 10
530.932583
 20
198.792917
 30
0.0
 11
531.432583
 21
197.792917
 31
0.0
  0
LINE
  5
36E
100
AcDbEntity
  8
1
  6
CONTINUOUS
 62
     1
100
AcDbLine
 10
525.932583
 20
201.792917
 30
0.0
 11
526.432583
 21
200.792917
 31
0.0
  0
LINE
  5
36F
100
AcDbEntity
  8
1
  6
CONTINUOUS
 62
     1
100
AcDbLine
 10
526.432583
 20
200.792917
 30
0.0
 11
526.932583
 21
201.792917
 31
0.0
  0
LINE
  5
370
100
AcDbEntity
  8
1
  6
CONTINUOUS
 62
     1
100
AcDbLine
 10
530.432583
 20
201.792917
 30
0.0
 11
530.932583
 21
200.792917
 31
0.0
  0
LINE
  5
371
100
AcDbEntity
  8
1
  6
CONTINUOUS
 62
     1
100
AcDbLine
 10
530.932583
 20
200.792917
 30
0.0
 11
531.432583
 21
201.792917
 31
0.0
  0
LINE
  5
372
100
AcDbEntity
  8
1
  6
HIDDEN
 62
     1
100
AcDbLine
 10
596.432583
 20
216.792917
 30
0.0
 11
596.432583
 21
201.792917
 31
0.0
  0
LINE
  5
373
100
AcDbEntity
  8
1
  6
HIDDEN
 62
     1
100
AcDbLine
 10
600.932583
 20
216.792917
 30
0.0
 11
600.932583
 21
201.792917
 31
0.0
  0
LINE
  5
374
100
AcDbEntity
  8
1
  6
CONTINUOUS
 62
     1
100
AcDbLine
 10
524.682583
 20
212.042917
 30
0.0
 11
532.682583
 21
212.042917
 31
0.0
  0
LINE
  5
375
100
AcDbEntity
  8
1
  6
CONTINUOUS
 62
     1
100
AcDbLine
 10
524.682583
 20
206.542917
 30
0.0
 11
532.682583
 21
206.542917
 31
0.0
  0
LINE
  5
376
100
AcDbEntity
  8
1
  6
CONTINUOUS
 62
     1
100
AcDbLine
 10
528.682583
 20
220.292917
 30
0.0
 11
528.682583
 21
210.792917
 31
0.0
  0
LINE
  5
377
100
AcDbEntity
  8
1
  6
CONTINUOUS
 62
     1
100
AcDbLine
 10
528.682583
 20
209.792917
 30
0.0
 11
528.682583
 21
208.792917
 31
0.0
  0
LINE
  5
378
100
AcDbEntity
  8
1
  6
CONTINUOUS
 62
     1
100
AcDbLine
 10
528.682583
 20
207.792917
 30
0.0
 11
528.682583
 21
195.792917
 31
0.0
  0
LINE
  5
379
100
AcDbEntity
  8
1
  6
CONTINUOUS
 62
     1
100
AcDbLine
 10
527.432583
 20
196.792917
 30
0.0
 11
529.932583
 21
196.792917
 31
0.0
  0
LINE
  5
37A
100
AcDbEntity
  8
1
  6
CONTINUOUS
 62
     1
100
AcDbLine
 10
527.432583
 20
196.792917
 30
0.0
 11
526.932583
 21
197.792917
 31
0.0
  0
LINE
  5
37B
100
AcDbEntity
  8
1
  6
CONTINUOUS
 62
     1
100
AcDbLine
 10
529.932583
 20
196.792917
 30
0.0
 11
530.432583
 21
197.792917
 31
0.0
  0
LINE
  5
37C
100
AcDbEntity
  8
1
  6
CONTINUOUS
 62
     1
100
AcDbLine
 10
527.182583
 20
197.292917
 30
0.0
 11
530.182583
 21
197.292917
 31
0.0
  0
LINE
  5
37D
100
AcDbEntity
  8
1
  6
CONTINUOUS
 62
     1
100
AcDbLine
 10
594.682583
 20
212.042917
 30
0.0
 11
602.682583
 21
212.042917
 31
0.0
  0
LINE
  5
37E
100
AcDbEntity
  8
1
  6
CONTINUOUS
 62
     1
100
AcDbLine
 10
594.682583
 20
206.542917
 30
0.0
 11
602.682583
 21
206.542917
 31
0.0
  0
LINE
  5
37F
100
AcDbEntity
  8
1
  6
CONTINUOUS
 62
     1
100
AcDbLine
 10
598.682583
 20
209.792917
 30
0.0
 11
598.682583
 21
208.792917
 31
0.0
  0
LINE
  5
380
100
AcDbEntity
  8
1
  6
CONTINUOUS
 62
     1
100
AcDbLine
 10
598.682583
 20
207.792917
 30
0.0
 11
598.682583
 21
195.792917
 31
0.0
  0
LINE
  5
381
100
AcDbEntity
  8
1
  6
HIDDEN
 62
     1
100
AcDbLine
 10
532.682583
 20
216.792917
 30
0.0
 11
532.682583
 21
212.042917
 31
0.0
  0
LINE
  5
382
100
AcDbEntity
  8
1
  6
HIDDEN
 62
     1
100
AcDbLine
 10
532.682583
 20
206.542917
 30
0.0
 11
532.682583
 21
201.792917
 31
0.0
  0
LINE
  5
383
100
AcDbEntity
  8
1
  6
HIDDEN
 62
     1
100
AcDbLine
 10
594.682583
 20
216.792917
 30
0.0
 11
594.682583
 21
212.042917
 31
0.0
  0
LINE
  5
384
100
AcDbEntity
  8
1
  6
HIDDEN
 62
     1
100
AcDbLine
 10
594.682583
 20
206.542917
 30
0.0
 11
594.682583
 21
201.792917
 31
0.0
  0
LINE
  5
385
100
AcDbEntity
  8
1
  6
CONTINUOUS
 62
     1
100
AcDbLine
 10
532.682583
 20
212.042917
 30
0.0
 11
532.682583
 21
206.542917
 31
0.0
  0
LINE
  5
386
100
AcDbEntity
  8
1
  6
CONTINUOUS
 62
     1
100
AcDbLine
 10
594.682583
 20
212.042917
 30
0.0
 11
594.682583
 21
206.542917
 31
0.0
  0
LINE
  5
387
100
AcDbEntity
  8
1
  6
CONTINUOUS
 62
     1
100
AcDbLine
 10
536.682583
 20
217.792917
 30
0.0
 11
536.682583
 21
215.042917
 31
0.0
  0
LINE
  5
388
100
AcDbEntity
  8
1
  6
CONTINUOUS
 62
     1
100
AcDbLine
 10
536.682583
 20
214.042917
 30
0.0
 11
536.682583
 21
213.042917
 31
0.0
  0
LINE
  5
389
100
AcDbEntity
  8
1
  6
CONTINUOUS
 62
     1
100
AcDbLine
 10
536.682583
 20
212.042917
 30
0.0
 11
536.682583
 21
207.542917
 31
0.0
  0
LINE
  5
38A
100
AcDbEntity
  8
1
  6
CONTINUOUS
 62
     1
100
AcDbLine
 10
590.682583
 20
217.792917
 30
0.0
 11
590.682583
 21
215.042917
 31
0.0
  0
LINE
  5
38B
100
AcDbEntity
  8
1
  6
CONTINUOUS
 62
     1
100
AcDbLine
 10
590.682583
 20
214.042917
 30
0.0
 11
590.682583
 21
213.042917
 31
0.0
  0
LINE
  5
38C
100
AcDbEntity
  8
1
  6
CONTINUOUS
 62
     1
100
AcDbLine
 10
590.682583
 20
212.042917
 30
0.0
 11
590.682583
 21
207.542917
 31
0.0
  0
LINE
  5
38D
100
AcDbEntity
  8
1
  6
CONTINUOUS
 62
     1
100
AcDbLine
 10
533.182583
 20
213.542917
 30
0.0
 11
535.182583
 21
213.542917
 31
0.0
  0
LINE
  5
38E
100
AcDbEntity
  8
1
  6
CONTINUOUS
 62
     1
100
AcDbLine
 10
536.182583
 20
213.542917
 30
0.0
 11
537.182583
 21
213.542917
 31
0.0
  0
LINE
  5
38F
100
AcDbEntity
  8
1
  6
CONTINUOUS
 62
     1
100
AcDbLine
 10
538.182583
 20
213.542917
 30
0.0
 11
542.182583
 21
213.542917
 31
0.0
  0
LINE
  5
390
100
AcDbEntity
  8
1
  6
CONTINUOUS
 62
     1
100
AcDbLine
 10
584.182583
 20
213.542917
 30
0.0
 11
589.182583
 21
213.542917
 31
0.0
  0
LINE
  5
391
100
AcDbEntity
  8
1
  6
CONTINUOUS
 62
     1
100
AcDbLine
 10
590.182583
 20
213.542917
 30
0.0
 11
591.182583
 21
213.542917
 31
0.0
  0
LINE
  5
392
100
AcDbEntity
  8
1
  6
CONTINUOUS
 62
     1
100
AcDbLine
 10
592.182583
 20
213.542917
 30
0.0
 11
594.182583
 21
213.542917
 31
0.0
  0
LINE
  5
393
100
AcDbEntity
  8
1
  6
CONTINUOUS
 62
     1
100
AcDbLine
 10
536.682583
 20
222.292917
 30
0.0
 11
536.682583
 21
228.792917
 31
0.0
  0
LINE
  5
394
100
AcDbEntity
  8
1
  6
CONTINUOUS
 62
     1
100
AcDbLine
 10
590.682583
 20
222.292917
 30
0.0
 11
590.682583
 21
228.792917
 31
0.0
  0
LINE
  5
395
100
AcDbEntity
  8
1
  6
CONTINUOUS
 62
     1
100
AcDbLine
 10
563.682583
 20
208.792917
 30
0.0
 11
563.682583
 21
206.792917
 31
0.0
  0
LINE
  5
396
100
AcDbEntity
  8
1
  6
CONTINUOUS
 62
     1
100
AcDbLine
 10
563.682583
 20
205.792917
 30
0.0
 11
563.682583
 21
195.792917
 31
0.0
  0
LINE
  5
397
100
AcDbEntity
  8
1
  6
CONTINUOUS
 62
     1
100
AcDbLine
 10
563.682583
 20
226.042917
 30
0.0
 11
563.682583
 21
222.042917
 31
0.0
  0
LINE
  5
398
100
AcDbEntity
  8
1
  6
CONTINUOUS
 62
     1
100
AcDbLine
 10
563.682583
 20
221.042917
 30
0.0
 11
563.682583
 21
219.042917
 31
0.0
  0
LINE
  5
399
100
AcDbEntity
  8
1
  6
CONTINUOUS
 62
     1
100
AcDbLine
 10
563.682583
 20
218.042917
 30
0.0
 11
563.682583
 21
209.792917
 31
0.0
  0
LINE
  5
39A
100
AcDbEntity
  8
1
  6
CONTINUOUS
 62
     1
100
AcDbLine
 10
528.682583
 20
223.792917
 30
0.0
 11
542.682583
 21
223.792917
 31
0.0
  0
LINE
  5
39B
100
AcDbEntity
  8
1
  6
CONTINUOUS
 62
     1
100
AcDbLine
 10
543.682583
 20
223.792917
 30
0.0
 11
545.682583
 21
223.792917
 31
0.0
  0
LINE
  5
39C
100
AcDbEntity
  8
1
  6
CONTINUOUS
 62
     1
100
AcDbLine
 10
546.682583
 20
223.792917
 30
0.0
 11
548.682583
 21
223.792917
 31
0.0
  0
LINE
  5
39D
100
AcDbEntity
  8
1
  6
CONTINUOUS
 62
     1
100
AcDbLine
 10
549.682583
 20
223.792917
 30
0.0
 11
563.682583
 21
223.792917
 31
0.0
  0
LINE
  5
39E
100
AcDbEntity
  8
1
  6
CONTINUOUS
 62
     1
100
AcDbLine
 10
563.682583
 20
223.792917
 30
0.0
 11
577.682583
 21
223.792917
 31
0.0
  0
LINE
  5
39F
100
AcDbEntity
  8
1
  6
CONTINUOUS
 62
     1
100
AcDbLine
 10
578.682583
 20
223.792917
 30
0.0
 11
580.682583
 21
223.792917
 31
0.0
  0
LINE
  5
3A0
100
AcDbEntity
  8
1
  6
CONTINUOUS
 62
     1
100
AcDbLine
 10
581.682583
 20
223.792917
 30
0.0
 11
583.682583
 21
223.792917
 31
0.0
  0
LINE
  5
3A1
100
AcDbEntity
  8
1
  6
CONTINUOUS
 62
     1
100
AcDbLine
 10
584.682583
 20
223.792917
 30
0.0
 11
598.682583
 21
223.792917
 31
0.0
  0
LINE
  5
3A2
100
AcDbEntity
  8
1
  6
CONTINUOUS
 62
     1
100
AcDbLine
 10
528.682583
 20
224.792917
 30
0.0
 11
598.682583
 21
224.792917
 31
0.0
  0
CIRCLE
  5
3A3
100
AcDbEntity
  8
1
  6
CONTINUOUS
 62
     1
100
AcDbCircle
 10
528.703417
 20
228.84325
 30
0.0
 40
4.0
210
0.0
220
0.0
230
1.0
  0
CIRCLE
  5
3A4
100
AcDbEntity
  8
1
  6
CONTINUOUS
 62
     1
100
AcDbCircle
 10
598.67725
 20
228.839917
 30
0.0
 40
4.0
210
0.0
220
0.0
230
1.0
  0
LINE
  5
3A5
100
AcDbEntity
  8
1
  6
CONTINUOUS
 62
     1
100
AcDbLine
 10
526.182583
 20
230.34325
 30
0.0
 11
526.182583
 21
227.34325
 31
0.0
  0
LINE
  5
3A6
100
AcDbEntity
  8
1
  6
CONTINUOUS
 62
     1
100
AcDbLine
 10
531.182583
 20
230.34325
 30
0.0
 11
531.182583
 21
227.34325
 31
0.0
  0
LINE
  5
3A7
100
AcDbEntity
  8
1
  6
CONTINUOUS
 62
     1
100
AcDbLine
 10
527.682583
 20
228.84325
 30
0.0
 11
529.682583
 21
228.84325
 31
0.0
  0
LINE
  5
3A8
100
AcDbEntity
  8
1
  6
CONTINUOUS
 62
     1
100
AcDbLine
 10
526.182583
 20
230.34325
 30
0.0
 11
528.682583
 21
231.59325
 31
0.0
  0
LINE
  5
3A9
100
AcDbEntity
  8
1
  6
CONTINUOUS
 62
     1
100
AcDbLine
 10
528.682583
 20
231.59325
 30
0.0
 11
531.182583
 21
230.34325
 31
0.0
  0
LINE
  5
3AA
100
AcDbEntity
  8
1
  6
CONTINUOUS
 62
     1
100
AcDbLine
 10
528.682583
 20
226.09325
 30
0.0
 11
531.182583
 21
227.34325
 31
0.0
  0
LINE
  5
3AB
100
AcDbEntity
  8
1
  6
CONTINUOUS
 62
     1
100
AcDbLine
 10
528.682583
 20
226.09325
 30
0.0
 11
526.182583
 21
227.34325
 31
0.0
  0
LINE
  5
3AC
100
AcDbEntity
  8
1
  6
CONTINUOUS
 62
     1
100
AcDbLine
 10
528.682583
 20
237.292917
 30
0.0
 11
528.682583
 21
230.59325
 31
0.0
  0
LINE
  5
3AD
100
AcDbEntity
  8
1
  6
CONTINUOUS
 62
     1
100
AcDbLine
 10
528.682583
 20
229.84325
 30
0.0
 11
528.682583
 21
227.84325
 31
0.0
  0
CIRCLE
  5
3AE
100
AcDbEntity
  8
1
  6
CONTINUOUS
 62
     1
100
AcDbCircle
 10
598.683083
 20
228.898167
 30
0.0
 40
3.0
210
0.0
220
0.0
230
1.0
  0
LINE
  5
3AF
100
AcDbEntity
  8
1
  6
CONTINUOUS
 62
     1
100
AcDbLine
 10
598.682583
 20
237.292917
 30
0.0
 11
598.682583
 21
230.59325
 31
0.0
  0
LINE
  5
3B0
100
AcDbEntity
  8
1
  6
CONTINUOUS
 62
     1
100
AcDbLine
 10
598.682583
 20
229.84325
 30
0.0
 11
598.682583
 21
227.84325
 31
0.0
  0
LINE
  5
3B1
100
AcDbEntity
  8
1
  6
CONTINUOUS
 62
     1
100
AcDbLine
 10
598.682583
 20
227.09325
 30
0.0
 11
598.682583
 21
210.792917
 31
0.0
  0
LINE
  5
3B2
100
AcDbEntity
  8
1
  6
CONTINUOUS
 62
     1
100
AcDbLine
 10
597.682583
 20
228.84325
 30
0.0
 11
599.682583
 21
228.84325
 31
0.0
  0
LINE
  5
3B3
100
AcDbEntity
  8
1
  6
CONTINUOUS
 62
     1
100
AcDbLine
 10
524.948667
 20
227.42375
 30
0.0
 11
503.972
 21
257.3815
 31
0.0
  0
LINE
  5
3B4
100
AcDbEntity
  8
1
  6
CONTINUOUS
 62
     1
100
AcDbLine
 10
598.682583
 20
232.839917
 30
0.0
 11
574.812667
 21
258.437333
 31
0.0
  0
LINE
  5
3B5
100
AcDbEntity
  8
1
  6
CONTINUOUS
 62
     1
100
AcDbLine
 10
601.849167
 20
231.276917
 30
0.0
 11
575.726833
 21
259.28975
 31
0.0
  0
LINE
  5
3B6
100
AcDbEntity
  8
1
  6
CONTINUOUS
 62
     1
100
AcDbLine
 10
574.812667
 20
258.437333
 30
0.0
 11
575.726833
 21
259.28975
 31
0.0
  0
CIRCLE
  5
3B7
100
AcDbEntity
  8
1
  6
CONTINUOUS
 62
     1
100
AcDbCircle
 10
563.408083
 20
244.206167
 30
0.0
 40
17.86918
210
0.0
220
0.0
230
1.0
  0
INSERT
  5
3B8
100
AcDbEntity
  8
1
  6
CONTINUOUS
 62
     1
100
AcDbBlockReference
  2
LDR
 10
579.70725
 20
251.5305
 30
0.0
 41
239.999998
 42
239.999998
 50
24.99991
210
0.0
220
0.0
230
1.0
  0
INSERT
  5
3B9
100
AcDbEntity
  8
1
  6
CONTINUOUS
 62
     1
100
AcDbBlockReference
  2
LDR
 10
579.70725
 20
251.5305
 30
0.0
 41
239.999998
 42
239.999998
 50
24.99991
210
0.0
220
0.0
230
1.0
  0
INSERT
  5
3BA
100
AcDbEntity
  8
1
  6
CONTINUOUS
 62
     1
100
AcDbBlockReference
  2
LDR
 10
547.320417
 20
236.428333
 30
0.0
 41
239.999998
 42
239.999998
 50
204.99991
210
0.0
220
0.0
230
1.0
  0
TEXT
  5
3BB
100
AcDbEntity
  8
1
  6
CONTINUOUS
 62
     7
100
AcDbText
 10
556.154833
 20
239.103667
 30
0.0
 40
2.5
  1
POLE DIA.
 50
25.0
  7
MONOTXT
210
0.0
220
0.0
230
1.0
100
AcDbText
  0
LINE
  5
3BC
100
AcDbEntity
  8
1
  6
CONTINUOUS
 62
     1
100
AcDbLine
 10
547.320417
 20
236.428333
 30
0.0
 11
554.868333
 21
239.948
 31
0.0
  0
LINE
  5
3BD
100
AcDbEntity
  8
1
  6
CONTINUOUS
 62
     1
100
AcDbLine
 10
572.3535
 20
248.101417
 30
0.0
 11
579.70725
 21
251.5305
 31
0.0
  0
LINE
  5
3BE
100
AcDbEntity
  8
1
  6
CONTINUOUS
 62
     1
100
AcDbLine
 10
563.682583
 20
226.042917
 30
0.0
 11
563.682583
 21
240.60475
 31
0.0
  0
LINE
  5
3BF
100
AcDbEntity
  8
1
  6
CONTINUOUS
 62
     1
100
AcDbLine
 10
563.682583
 20
247.07075
 30
0.0
 11
563.682583
 21
265.07325
 31
0.0
  0
LINE
  5
3C0
100
AcDbEntity
  8
1
  6
CONTINUOUS
 62
     1
100
AcDbLine
 10
583.657583
 20
261.048917
 30
0.0
 11
582.293583
 21
262.511667
 31
0.0
  0
LINE
  5
3C1
100
AcDbEntity
  8
1
  6
CONTINUOUS
 62
     1
100
AcDbLine
 10
583.22475
 20
259.313417
 30
0.0
 11
580.496417
 21
262.239417
 31
0.0
  0
LINE
  5
3C2
100
AcDbEntity
  8
1
  6
CONTINUOUS
 62
     1
100
AcDbLine
 10
580.496417
 20
262.239417
 30
0.0
 11
581.053667
 21
262.741167
 31
0.0
  0
LINE
  5
3C3
100
AcDbEntity
  8
1
  6
CONTINUOUS
 62
     1
100
AcDbLine
 10
583.22475
 20
259.313417
 30
0.0
 11
583.745917
 21
259.782667
 31
0.0
  0
ARC
  5
3C4
100
AcDbEntity
  8
1
  6
CONTINUOUS
 62
     1
100
AcDbCircle
 10
581.550407
 20
261.960711
 30
0.0
 40
0.925129
210
0.0
220
0.0
230
1.0
100
AcDbArc
 50
36.551511
 51
122.475736
  0
ARC
  5
3C5
100
AcDbEntity
  8
1
  6
CONTINUOUS
 62
     1
100
AcDbCircle
 10
583.028402
 20
260.366694
 30
0.0
 40
0.925129
210
0.0
220
0.0
230
1.0
100
AcDbArc
 50
320.855919
 51
48.497619
  0
LINE
  5
3C6
100
AcDbEntity
  8
1
  6
CONTINUOUS
 62
     1
100
AcDbLine
 10
579.134917
 20
259.667667
 30
0.0
 11
582.2935
 21
262.51175
 31
0.0
  0
LINE
  5
3C7
100
AcDbEntity
  8
1
  6
CONTINUOUS
 62
     1
100
AcDbLine
 10
580.498917
 20
258.204833
 30
0.0
 11
583.657667
 21
261.048833
 31
0.0
  0
LINE
  5
3C8
100
AcDbEntity
  8
1
  6
CONTINUOUS
 62
     1
100
AcDbLine
 10
579.057917
 20
257.9165
 30
0.0
 11
578.717083
 21
258.28225
 31
0.0
  0
LINE
  5
3C9
100
AcDbEntity
  8
1
  6
CONTINUOUS
 62
     1
100
AcDbLine
 10
579.134917
 20
259.667667
 30
0.0
 11
578.717083
 21
258.28225
 31
0.0
  0
LINE
  5
3CA
100
AcDbEntity
  8
1
  6
CONTINUOUS
 62
     1
100
AcDbLine
 10
580.498917
 20
258.204833
 30
0.0
 11
579.057917
 21
257.9165
 31
0.0
  0
LINE
  5
3CB
100
AcDbEntity
  8
1
  6
CONTINUOUS
 62
     1
100
AcDbLine
 10
581.860583
 20
260.776417
 30
0.0
 11
584.461083
 21
263.117917
 31
0.0
  0
LINE
  5
3CC
100
AcDbEntity
  8
1
  6
CONTINUOUS
 62
     1
100
AcDbLine
 10
576.100583
 20
255.590083
 30
0.0
 11
578.887417
 21
258.099417
 31
0.0
  0
LINE
  5
3CD
100
AcDbEntity
  8
1
  6
CONTINUOUS
 62
     1
100
AcDbLine
 10
578.8875
 20
258.099417
 30
0.0
 11
579.259333
 21
258.434167
 31
0.0
  0
LINE
  5
3CE
100
AcDbEntity
  8
1
  6
CONTINUOUS
 62
     1
100
AcDbLine
 10
580.0025
 20
259.103333
 30
0.0
 11
580.745583
 21
259.772417
 31
0.0
  0
LINE
  5
3CF
100
AcDbEntity
  8
1
  6
CONTINUOUS
 62
     1
100
AcDbLine
 10
581.488667
 20
260.4415
 30
0.0
 11
581.860583
 21
260.776417
 31
0.0
  0
LINE
  5
3D0
100
AcDbEntity
  8
1
  6
CONTINUOUS
 62
     1
100
AcDbLine
 10
518.600917
 20
216.875083
 30
0.0
 11
514.012333
 21
223.428333
 31
0.0
  0
LINE
  5
3D1
100
AcDbEntity
  8
1
  6
CONTINUOUS
 62
     1
100
AcDbLine
 10
513.2765
 20
213.146833
 30
0.0
 11
508.687833
 21
219.700083
 31
0.0
  0
LINE
  5
3D2
100
AcDbEntity
  8
1
  6
CONTINUOUS
 62
     1
100
AcDbLine
 10
518.600917
 20
216.875083
 30
0.0
 11
513.2765
 21
213.146833
 31
0.0
  0
LINE
  5
3D3
100
AcDbEntity
  8
1
  6
CONTINUOUS
 62
     1
100
AcDbLine
 10
514.012333
 20
223.428333
 30
0.0
 11
517.493833
 21
225.866083
 31
0.0
  0
LINE
  5
3D4
100
AcDbEntity
  8
1
  6
CONTINUOUS
 62
     1
100
AcDbLine
 10
508.524667
 20
214.70275
 30
0.0
 11
512.415583
 21
217.427167
 31
0.0
  0
LINE
  5
3D5
100
AcDbEntity
  8
1
  6
CONTINUOUS
 62
     1
100
AcDbLine
 10
513.23475
 20
218.000833
 30
0.0
 11
514.053917
 21
218.574333
 31
0.0
  0
LINE
  5
3D6
100
AcDbEntity
  8
1
  6
CONTINUOUS
 62
     1
100
AcDbLine
 10
514.873
 20
219.147917
 30
0.0
 11
518.764
 21
221.872417
 31
0.0
  0
LINE
  5
3D7
100
AcDbEntity
  8
1
  6
HIDDEN
 62
     1
100
AcDbLine
 10
517.208167
 20
217.120583
 30
0.0
 11
513.522
 21
214.5395
 31
0.0
  0
LINE
  5
3D8
100
AcDbEntity
  8
1
  6
HIDDEN
 62
     1
100
AcDbLine
 10
509.506917
 20
220.273583
 30
0.0
 11
513.19325
 21
222.854833
 31
0.0
  0
LINE
  5
3D9
100
AcDbEntity
  8
1
  6
HIDDEN
 62
     1
100
AcDbLine
 10
510.080417
 20
219.454417
 30
0.0
 11
513.76675
 21
222.035667
 31
0.0
  0
CIRCLE
  5
3DA
100
AcDbEntity
  8
1
  6
CONTINUOUS
 62
     1
100
AcDbCircle
 10
490.414167
 20
243.624333
 30
0.0
 40
1.125
210
0.0
220
0.0
230
1.0
  0
CIRCLE
  5
3DB
100
AcDbEntity
  8
1
  6
CONTINUOUS
 62
     1
100
AcDbCircle
 10
497.786917
 20
248.781583
 30
0.0
 40
1.125
210
0.0
220
0.0
230
1.0
  0
LINE
  5
3DC
100
AcDbEntity
  8
1
  6
CONTINUOUS
 62
     1
100
AcDbLine
 10
487.138917
 20
241.322083
 30
0.0
 11
488.67775
 21
242.399583
 31
0.0
  0
LINE
  5
3DD
100
AcDbEntity
  8
1
  6
CONTINUOUS
 62
     1
100
AcDbLine
 10
489.906417
 20
243.259833
 30
0.0
 11
490.930417
 21
243.976833
 31
0.0
  0
LINE
  5
3DE
100
AcDbEntity
  8
1
  6
CONTINUOUS
 62
     1
100
AcDbLine
 10
489.192417
 20
245.362917
 30
0.0
 11
484.679833
 21
251.807833
 31
0.0
  0
LINE
  5
3DF
100
AcDbEntity
  8
1
  6
CONTINUOUS
 62
     1
100
AcDbLine
 10
493.570167
 20
239.111
 30
0.0
 11
491.630083
 21
241.881667
 31
0.0
  0
LINE
  5
3E0
100
AcDbEntity
  8
1
  6
CONTINUOUS
 62
     1
100
AcDbLine
 10
490.76975
 20
243.110333
 30
0.0
 11
490.052833
 21
244.134333
 31
0.0
  0
LINE
  5
3E1
100
AcDbEntity
  8
1
  6
CONTINUOUS
 62
     1
100
AcDbLine
 10
492.159
 20
244.837083
 30
0.0
 11
496.048083
 21
247.560333
 31
0.0
  0
LINE
  5
3E2
100
AcDbEntity
  8
1
  6
CONTINUOUS
 62
     1
100
AcDbLine
 10
497.276583
 20
248.420583
 30
0.0
 11
498.300667
 21
249.137667
 31
0.0
  0
LINE
  5
3E3
100
AcDbEntity
  8
1
  6
CONTINUOUS
 62
     1
100
AcDbLine
 10
496.56725
 20
250.521667
 30
0.0
 11
492.05225
 21
256.970083
 31
0.0
  0
LINE
  5
3E4
100
AcDbEntity
  8
1
  6
CONTINUOUS
 62
     1
100
AcDbLine
 10
500.9425
 20
244.273167
 30
0.0
 11
499.004917
 21
247.040417
 31
0.0
  0
LINE
  5
3E5
100
AcDbEntity
  8
1
  6
CONTINUOUS
 62
     1
100
AcDbLine
 10
498.144583
 20
248.269083
 30
0.0
 11
497.427667
 21
249.293083
 31
0.0
  0
LINE
  5
3E6
100
AcDbEntity
  8
1
  6
CONTINUOUS
 62
     1
100
AcDbLine
 10
499.529333
 20
249.997833
 30
0.0
 11
504.750833
 21
253.654
 31
0.0
  0
LINE
  5
3E7
100
AcDbEntity
  8
1
  6
CONTINUOUS
 62
     1
100
AcDbLine
 10
505.57
 20
254.227583
 30
0.0
 11
506.389083
 21
254.801083
 31
0.0
  0
LINE
  5
3E8
100
AcDbEntity
  8
1
  6
CONTINUOUS
 62
     1
100
AcDbLine
 10
507.208167
 20
255.374583
 30
0.0
 11
512.532667
 21
259.102917
 31
0.0
  0
LINE
  5
3E9
100
AcDbEntity
  8
1
  6
CONTINUOUS
 62
     1
100
AcDbLine
 10
505.2065
 20
217.262417
 30
0.0
 11
485.950667
 21
244.762667
 31
0.0
  0
LINE
  5
3EA
100
AcDbEntity
  8
1
  6
CONTINUOUS
 62
     1
100
AcDbLine
 10
485.377083
 20
245.581833
 30
0.0
 11
482.2225
 21
250.087167
 31
0.0
  0
LINE
  5
3EB
100
AcDbEntity
  8
1
  6
CONTINUOUS
 62
     1
100
AcDbLine
 10
517.493833
 20
225.866083
 30
0.0
 11
498.237917
 21
253.366417
 31
0.0
  0
LINE
  5
3EC
100
AcDbEntity
  8
1
  6
CONTINUOUS
 62
     1
100
AcDbLine
 10
497.664333
 20
254.1855
 30
0.0
 11
494.50975
 21
258.690833
 31
0.0
  0
LINE
  5
3ED
100
AcDbEntity
  8
1
  6
CONTINUOUS
 62
     1
100
AcDbLine
 10
479.519333
 20
246.97375
 30
0.0
 11
482.796
 21
249.268083
 31
0.0
  0
LINE
  5
3EE
100
AcDbEntity
  8
1
  6
CONTINUOUS
 62
     1
100
AcDbLine
 10
485.253333
 20
250.98875
 30
0.0
 11
488.529917
 21
253.283
 31
0.0
  0
LINE
  5
3EF
100
AcDbEntity
  8
1
  6
CONTINUOUS
 62
     1
100
AcDbLine
 10
489.349083
 20
253.856667
 30
0.0
 11
492.62575
 21
256.151
 31
0.0
  0
LINE
  5
3F0
100
AcDbEntity
  8
1
  6
CONTINUOUS
 62
     1
100
AcDbLine
 10
495.08325
 20
257.87175
 30
0.0
 11
498.359833
 21
260.166
 31
0.0
  0
INSERT
  5
3F1
100
AcDbEntity
  8
1
  6
CONTINUOUS
 62
     1
100
AcDbBlockReference
  2
LDR
 10
495.08325
 20
257.87175
 30
0.0
 41
240.0
 42
240.0
 50
214.999551
210
0.0
220
0.0
230
1.0
  0
INSERT
  5
3F2
100
AcDbEntity
  8
1
  6
CONTINUOUS
 62
     1
100
AcDbBlockReference
  2
LDR
 10
492.62575
 20
256.151
 30
0.0
 41
240.000001
 42
240.000001
 50
34.999844
210
0.0
220
0.0
230
1.0
  0
INSERT
  5
3F3
100
AcDbEntity
  8
1
  6
CONTINUOUS
 62
     1
100
AcDbBlockReference
  2
LDR
 10
492.62575
 20
256.151
 30
0.0
 41
240.000001
 42
240.000001
 50
34.999844
210
0.0
220
0.0
230
1.0
  0
INSERT
  5
3F4
100
AcDbEntity
  8
1
  6
CONTINUOUS
 62
     1
100
AcDbBlockReference
  2
LDR
 10
485.253333
 20
250.98875
 30
0.0
 41
240.0
 42
240.0
 50
214.999551
210
0.0
220
0.0
230
1.0
  0
INSERT
  5
3F5
100
AcDbEntity
  8
1
  6
CONTINUOUS
 62
     1
100
AcDbBlockReference
  2
LDR
 10
482.796
 20
249.268083
 30
0.0
 41
240.000001
 42
240.000001
 50
34.999844
210
0.0
220
0.0
230
1.0
  0
LINE
  5
3F6
100
AcDbEntity
  8
1
  6
CONTINUOUS
 62
     1
100
AcDbLine
 10
524.81725
 20
229.790833
 30
0.0
 11
504.996
 21
258.0985
 31
0.0
  0
LINE
  5
3F7
100
AcDbEntity
  8
1
  6
CONTINUOUS
 62
     1
100
AcDbLine
 10
510.525167
 20
261.97
 30
0.0
 11
505.815083
 21
258.672
 31
0.0
  0
LINE
  5
3F8
100
AcDbEntity
  8
1
  6
CONTINUOUS
 62
     1
100
AcDbLine
 10
504.996
 20
258.0985
 30
0.0
 11
503.972
 21
257.3815
 31
0.0
  0
LINE
  5
3F9
100
AcDbEntity
  8
1
  6
CONTINUOUS
 62
     1
100
AcDbLine
 10
507.411667
 20
264.672917
 30
0.0
 11
509.706
 21
261.396333
 31
0.0
  0
LINE
  5
3FA
100
AcDbEntity
  8
1
  6
CONTINUOUS
 62
     1
100
AcDbLine
 10
511.7135
 20
258.529333
 30
0.0
 11
514.00775
 21
255.25275
 31
0.0
  0
INSERT
  5
3FB
100
AcDbEntity
  8
1
  6
CONTINUOUS
 62
     1
100
AcDbBlockReference
  2
LDR
 10
509.706
 20
261.396333
 30
0.0
 41
240.0
 42
240.0
 50
305.000528
210
0.0
220
0.0
230
1.0
  0
INSERT
  5
3FC
100
AcDbEntity
  8
1
  6
CONTINUOUS
 62
     1
100
AcDbBlockReference
  2
LDR
 10
511.7135
 20
258.529333
 30
0.0
 41
240.0
 42
240.0
 50
124.999551
210
0.0
220
0.0
230
1.0
  0
LINE
  5
3FD
100
AcDbEntity
  8
1
  6
CONTINUOUS
 62
     1
100
AcDbLine
 10
480.626167
 20
241.034417
 30
0.0
 11
485.131583
 21
244.189167
 31
0.0
  0
LINE
  5
3FE
100
AcDbEntity
  8
1
  6
CONTINUOUS
 62
     1
100
AcDbLine
 10
485.950667
 20
244.762667
 30
0.0
 11
498.237917
 21
253.366417
 31
0.0
  0
LINE
  5
3FF
100
AcDbEntity
  8
1
  6
CONTINUOUS
 62
     1
100
AcDbLine
 10
499.882
 20
213.534083
 30
0.0
 11
504.387417
 21
216.688833
 31
0.0
  0
LINE
  5
400
100
AcDbEntity
  8
1
  6
CONTINUOUS
 62
     1
100
AcDbLine
 10
505.2065
 20
217.262417
 30
0.0
 11
508.687833
 21
219.700083
 31
0.0
  0
LINE
  5
401
100
AcDbEntity
  8
1
  6
CONTINUOUS
 62
     1
100
AcDbLine
 10
481.445333
 20
241.608
 30
0.0
 11
500.701167
 21
214.107667
 31
0.0
  0
INSERT
  5
402
100
AcDbEntity
  8
1
  6
CONTINUOUS
 62
     1
100
AcDbBlockReference
  2
LDR
 10
481.445333
 20
241.608
 30
0.0
 41
240.000003
 42
240.000003
 50
124.99985
210
0.0
220
0.0
230
1.0
  0
INSERT
  5
403
100
AcDbEntity
  8
1
  6
CONTINUOUS
 62
     1
100
AcDbBlockReference
  2
LDR
 10
481.445333
 20
241.608
 30
0.0
 41
240.000003
 42
240.000003
 50
124.99985
210
0.0
220
0.0
230
1.0
  0
INSERT
  5
404
100
AcDbEntity
  8
1
  6
CONTINUOUS
 62
     1
100
AcDbBlockReference
  2
LDR
 10
500.701167
 20
214.107667
 30
0.0
 41
240.000003
 42
240.000003
 50
304.99985
210
0.0
220
0.0
230
1.0
  0
LINE
  5
405
100
AcDbEntity
  8
1
  6
CONTINUOUS
 62
     1
100
AcDbLine
 10
585.182583
 20
213.542917
 30
0.0
 11
585.182583
 21
209.542917
 31
0.0
  0
LINE
  5
406
100
AcDbEntity
  8
1
  6
CONTINUOUS
 62
     1
100
AcDbLine
 10
585.182583
 20
216.792917
 30
0.0
 11
585.182583
 21
220.792917
 31
0.0
  0
INSERT
  5
407
100
AcDbEntity
  8
1
  6
CONTINUOUS
 62
     1
100
AcDbBlockReference
  2
LDR
 10
585.182583
 20
216.792917
 30
0.0
 41
240.0
 42
240.0
 50
270.0
210
0.0
220
0.0
230
1.0
  0
INSERT
  5
408
100
AcDbEntity
  8
1
  6
CONTINUOUS
 62
     1
100
AcDbBlockReference
  2
LDR
 10
585.182583
 20
213.542917
 30
0.0
 41
240.0
 42
240.0
 50
90.0
210
0.0
220
0.0
230
1.0
  0
LINE
  5
409
100
AcDbEntity
  8
1
  6
CONTINUOUS
 62
     1
100
AcDbLine
 10
528.682583
 20
227.09325
 30
0.0
 11
528.682583
 21
223.792917
 31
0.0
  0
LINE
  5
40A
100
AcDbEntity
  8
1
  6
CONTINUOUS
 62
     1
100
AcDbLine
 10
528.682583
 20
223.792917
 30
0.0
 11
528.682583
 21
220.292917
 31
0.0
  0
INSERT
  5
40B
100
AcDbEntity
  8
1
  6
CONTINUOUS
 62
     1
100
AcDbBlockReference
  2
LDR
 10
528.682583
 20
221.396667
 30
0.0
 41
240.0
 42
240.0
 50
180.0
210
0.0
220
0.0
230
1.0
  0
INSERT
  5
40C
100
AcDbEntity
  8
1
  6
CONTINUOUS
 62
     1
100
AcDbBlockReference
  2
LDR
 10
598.682583
 20
221.396667
 30
0.0
 41
240.0
 42
240.0
210
0.0
220
0.0
230
1.0
  0
LINE
  5
40D
100
AcDbEntity
  8
1
  6
CONTINUOUS
 62
     1
100
AcDbLine
 10
581.673083
 20
259.262
 30
0.0
 11
584.39825
 21
254.663
 31
0.0
  0
LINE
  5
40E
100
AcDbEntity
  8
1
  6
CONTINUOUS
 62
     1
100
AcDbLine
 10
584.39825
 20
254.663
 30
0.0
 11
589.126333
 21
254.663
 31
0.0
  0
INSERT
  5
40F
100
AcDbEntity
  8
1
  6
CONTINUOUS
 62
     1
100
AcDbBlockReference
  2
LDR
 10
581.673083
 20
259.262
 30
0.0
 41
239.999998
 42
239.999998
 50
120.649131
210
0.0
220
0.0
230
1.0
  0
LINE
  5
410
100
AcDbEntity
  8
1
  6
CONTINUOUS
 62
     1
100
AcDbLine
 10
595.12075
 20
238.492333
 30
0.0
 11
598.790417
 21
242.912333
 31
0.0
  0
LINE
  5
411
100
AcDbEntity
  8
1
  6
CONTINUOUS
 62
     1
100
AcDbLine
 10
598.790417
 20
242.912333
 30
0.0
 11
604.62875
 21
242.912333
 31
0.0
  0
INSERT
  5
412
100
AcDbEntity
  8
1
  6
CONTINUOUS
 62
     1
100
AcDbBlockReference
  2
LDR
 10
595.12075
 20
238.492333
 30
0.0
 41
239.999999
 42
239.999999
 50
230.299141
210
0.0
220
0.0
230
1.0
  0
LINE
  5
413
100
AcDbEntity
  8
1
  6
CONTINUOUS
 62
     1
100
AcDbLine
 10
598.682583
 20
223.24
 30
0.0
 11
607.28375
 21
216.148833
 31
0.0
  0
LINE
  5
414
100
AcDbEntity
  8
1
  6
CONTINUOUS
 62
     1
100
AcDbLine
 10
607.28375
 20
216.148833
 30
0.0
 11
612.667
 21
216.148833
 31
0.0
  0
INSERT
  5
415
100
AcDbEntity
  8
1
  6
CONTINUOUS
 62
     1
100
AcDbBlockReference
  2
LDR
 10
598.682583
 20
223.24
 30
0.0
 41
240.000001
 42
240.000001
 50
140.496383
210
0.0
220
0.0
230
1.0
  0
LINE
  5
416
100
AcDbEntity
  8
1
  6
CONTINUOUS
 62
     1
100
AcDbLine
 10
512.396417
 20
214.40375
 30
0.0
 11
505.588417
 21
206.275417
 31
0.0
  0
LINE
  5
417
100
AcDbEntity
  8
1
  6
CONTINUOUS
 62
     1
100
AcDbLine
 10
525.182583
 20
219.224417
 30
0.0
 11
510.108333
 21
196.646833
 31
0.0
  0
LINE
  5
418
100
AcDbEntity
  8
1
  6
CONTINUOUS
 62
     1
100
AcDbLine
 10
525.182583
 20
199.87275
 30
0.0
 11
517.556083
 21
189.16275
 31
0.0
  0
LINE
  5
419
100
AcDbEntity
  8
1
  6
CONTINUOUS
 62
     1
100
AcDbLine
 10
505.588417
 20
206.275417
 30
0.0
 11
501.251167
 21
206.275417
 31
0.0
  0
LINE
  5
41A
100
AcDbEntity
  8
1
  6
CONTINUOUS
 62
     1
100
AcDbLine
 10
510.108333
 20
196.646833
 30
0.0
 11
507.317667
 21
196.646833
 31
0.0
  0
LINE
  5
41B
100
AcDbEntity
  8
1
  6
CONTINUOUS
 62
     1
100
AcDbLine
 10
517.556083
 20
189.16275
 30
0.0
 11
490.163667
 21
189.16275
 31
0.0
  0
INSERT
  5
41C
100
AcDbEntity
  8
1
  6
CONTINUOUS
 62
     1
100
AcDbBlockReference
  2
LDR
 10
512.396417
 20
214.40375
 30
0.0
 41
240.000001
 42
240.000001
 50
50.051668
210
0.0
220
0.0
230
1.0
  0
INSERT
  5
41D
100
AcDbEntity
  8
1
  6
CONTINUOUS
 62
     1
100
AcDbBlockReference
  2
LDR
 10
512.396417
 20
214.40375
 30
0.0
 41
240.000001
 42
240.000001
 50
50.051668
210
0.0
220
0.0
230
1.0
  0
INSERT
  5
41E
100
AcDbEntity
  8
1
  6
CONTINUOUS
 62
     1
100
AcDbBlockReference
  2
LDR
 10
525.182583
 20
219.224417
 30
0.0
 41
239.999999
 42
239.999999
 50
56.270388
210
0.0
220
0.0
230
1.0
  0
INSERT
  5
41F
100
AcDbEntity
  8
1
  6
CONTINUOUS
 62
     1
100
AcDbBlockReference
  2
LDR
 10
525.182583
 20
219.224417
 30
0.0
 41
239.999999
 42
239.999999
 50
56.270388
210
0.0
220
0.0
230
1.0
  0
INSERT
  5
420
100
AcDbEntity
  8
1
  6
CONTINUOUS
 62
     1
100
AcDbBlockReference
  2
LDR
 10
525.182583
 20
199.87275
 30
0.0
 41
240.0
 42
240.0
 50
54.545655
210
0.0
220
0.0
230
1.0
  0
INSERT
  5
421
100
AcDbEntity
  8
1
  6
CONTINUOUS
 62
     1
100
AcDbBlockReference
  2
LDR
 10
525.182583
 20
199.87275
 30
0.0
 41
240.0
 42
240.0
 50
54.545655
210
0.0
220
0.0
230
1.0
  0
LINE
  5
422
100
AcDbEntity
  8
1
  6
CONTINUOUS
 62
     1
100
AcDbLine
 10
531.559667
 20
226.042917
 30
0.0
 11
563.682583
 21
226.042917
 31
0.0
  0
LINE
  5
423
100
AcDbEntity
  8
1
  6
CONTINUOUS
 62
     1
100
AcDbLine
 10
563.682583
 20
226.042917
 30
0.0
 11
595.81775
 21
226.042917
 31
0.0
  0
ARC
  5
424
100
AcDbEntity
  8
1
  6
CONTINUOUS
 62
     1
100
AcDbCircle
 10
562.941961
 20
294.319374
 30
0.0
 40
68.280474
210
0.0
220
0.0
230
1.0
100
AcDbArc
 50
212.779058
 51
270.621483
  0
TEXT
  5
425
100
AcDbEntity
  8
1
  6
CONTINUOUS
 62
     7
100
AcDbText
 10
613.656833
 20
215.398917
 30
0.0
 40
2.5
  1
ENCLOSURE WALL
  7
MONOTXT
210
0.0
220
0.0
230
1.0
100
AcDbText
  0
TEXT
  5
426
100
AcDbEntity
  8
1
  6
CONTINUOUS
 62
     7
100
AcDbText
 10
442.73425
 20
188.143333
 30
0.0
 40
2.5
  1
HEX. SELF LOCKING NUT
  7
MONOTXT
210
0.0
220
0.0
230
1.0
100
AcDbText
  0
LINE
  5
427
100
AcDbEntity
  8
1
  6
CONTINUOUS
 62
     1
100
AcDbLine
 10
528.682583
 20
221.396667
 30
0.0
 11
565.266667
 21
221.396667
 31
0.0
  0
LINE
  5
428
100
AcDbEntity
  8
1
  6
CONTINUOUS
 62
     1
100
AcDbLine
 10
584.998417
 20
221.396667
 30
0.0
 11
598.682583
 21
221.396667
 31
0.0
  0
TEXT
  5
429
100
AcDbEntity
  8
1
  6
CONTINUOUS
 62
     7
100
AcDbText
 10
495.386417
 20
241.846333
 30
0.0
 40
3.0
  1
PART "B"
 50
304.999967
  7
MONOTXT
 11
497.843874
 21
243.567061
 31
0.0
210
0.0
220
0.0
230
1.0
100
AcDbText
 73
     3
  0
TEXT
  5
42A
100
AcDbEntity
  8
1
  6
CONTINUOUS
 62
     7
100
AcDbText
 10
551.042833
 20
207.939
 30
0.0
 40
3.0
  1
PART "A"
  7
MONOTXT
 11
551.042833
 21
210.939
 31
0.0
210
0.0
220
0.0
230
1.0
100
AcDbText
 73
     3
  0
TEXT
  5
42B
100
AcDbEntity
  8
1
  6
CONTINUOUS
 62
     7
100
AcDbText
 10
507.386417
 20
392.193667
 30
0.0
 40
3.0
  1
NOTES:
  7
MONOTXT
210
0.0
220
0.0
230
1.0
100
AcDbText
  0
LINE
  5
42C
100
AcDbEntity
  8
1
  6
CONTINUOUS
 62
     7
100
AcDbLine
 10
506.238667
 20
391.236917
 30
0.0
 11
523.846583
 21
391.236917
 31
0.0
  0
TEXT
  5
42D
100
AcDbEntity
  8
1
  6
CONTINUOUS
 62
     7
100
AcDbText
 10
366.086583
 20
268.67975
 30
0.0
 40
2.5
  1
NOTE:  PHOTOCELL "WINDOW" SHALL BE
  7
MONOTXT
 11
366.086583
 21
271.17975
 31
0.0
210
0.0
220
0.0
230
1.0
100
AcDbText
 73
     3
  0
TEXT
  5
42E
100
AcDbEntity
  8
1
  6
CONTINUOUS
 62
     7
100
AcDbText
 10
366.086583
 20
264.17975
 30
0.0
 40
2.5
  1
     ORIENTED NORTH. IF NOT POSSIBLE,
  7
MONOTXT
 11
366.086583
 21
266.67975
 31
0.0
210
0.0
220
0.0
230
1.0
100
AcDbText
 73
     3
  0
TEXT
  5
42F
100
AcDbEntity
  8
1
  6
CONTINUOUS
 62
     7
100
AcDbText
 10
366.086583
 20
259.67975
 30
0.0
 40
2.5
  1
     ORIENT SOUTH. ALSO - SEE NOTE 2.
  7
MONOTXT
 11
366.086583
 21
262.17975
 31
0.0
210
0.0
220
0.0
230
1.0
100
AcDbText
 73
     3
  0
LINE
  5
430
100
AcDbEntity
  8
1
  6
CONTINUOUS
 62
     7
100
AcDbLine
 10
498.075917
 20
111.222083
 30
0.0
 11
494.075917
 21
111.222083
 31
0.0
  0
LINE
  5
431
100
AcDbEntity
  8
1
  6
CONTINUOUS
 62
     7
100
AcDbLine
 10
496.075917
 20
114.686167
 30
0.0
 11
494.075917
 21
111.222083
 31
0.0
  0
LINE
  5
432
100
AcDbEntity
  8
1
  6
CONTINUOUS
 62
     7
100
AcDbLine
 10
496.075917
 20
114.686167
 30
0.0
 11
498.075917
 21
111.222083
 31
0.0
  0
TEXT
  5
433
100
AcDbEntity
  8
1
  6
CONTINUOUS
 62
     7
100
AcDbText
 10
495.402583
 20
111.505417
 30
0.0
 40
2.0
  1
3
  7
MONOTXT
210
0.0
220
0.0
230
1.0
100
AcDbText
  0
TEXT
  5
434
100
AcDbEntity
  8
1
  6
CONTINUOUS
 62
     7
100
AcDbText
 10
499.020167
 20
111.935917
 30
0.0
 40
2.0
  1
PE CELL RELOCATED, SERVICE POLE REVISED,
  7
MONOTXT
 11
499.020167
 21
113.935917
 31
0.0
210
0.0
220
0.0
230
1.0
100
AcDbText
 73
     3
  0
TEXT
  5
435
100
AcDbEntity
  8
1
  6
CONTINUOUS
 62
     7
100
AcDbText
 10
499.020167
 20
107.935917
 30
0.0
 40
2.0
  1
SAME NOTES (3 AND 5) REVISED
  7
MONOTXT
 11
499.020167
 21
109.935917
 31
0.0
210
0.0
220
0.0
230
1.0
100
AcDbText
 73
     3
  0
LINE
  5
436
100
AcDbEntity
  8
1
  6
CONTINUOUS
 62
     7
100
AcDbLine
 10
499.735667
 20
32.33325
 30
0.0
 11
495.735667
 21
32.33325
 31
0.0
  0
LINE
  5
437
100
AcDbEntity
  8
1
  6
CONTINUOUS
 62
     7
100
AcDbLine
 10
497.735667
 20
35.797333
 30
0.0
 11
495.735667
 21
32.33325
 31
0.0
  0
LINE
  5
438
100
AcDbEntity
  8
1
  6
CONTINUOUS
 62
     7
100
AcDbLine
 10
497.735667
 20
35.797333
 30
0.0
 11
499.735667
 21
32.33325
 31
0.0
  0
TEXT
  5
439
100
AcDbEntity
  8
1
  6
CONTINUOUS
 62
     7
100
AcDbText
 10
497.028333
 20
32.645583
 30
0.0
 40
2.0
  1
3
  7
MONOTXT
210
0.0
220
0.0
230
1.0
100
AcDbText
  0
LINE
  5
43A
100
AcDbEntity
  8
1
  6
CONTINUOUS
 62
     7
100
AcDbLine
 10
497.657583
 20
102.778417
 30
0.0
 11
493.657583
 21
102.778417
 31
0.0
  0
LINE
  5
43B
100
AcDbEntity
  8
1
  6
CONTINUOUS
 62
     7
100
AcDbLine
 10
495.657583
 20
106.2425
 30
0.0
 11
493.657583
 21
102.778417
 31
0.0
  0
LINE
  5
43C
100
AcDbEntity
  8
1
  6
CONTINUOUS
 62
     7
100
AcDbLine
 10
495.657583
 20
106.2425
 30
0.0
 11
497.657583
 21
102.778417
 31
0.0
  0
TEXT
  5
43D
100
AcDbEntity
  8
1
  6
CONTINUOUS
 62
     7
100
AcDbText
 10
494.846583
 20
103.180167
 30
0.0
 40
2.0
  1
4
  7
MONOTXT
210
0.0
220
0.0
230
1.0
100
AcDbText
  0
TEXT
  5
43E
100
AcDbEntity
  8
1
  6
CONTINUOUS
 62
     7
100
AcDbText
 10
498.583917
 20
103.504167
 30
0.0
 40
2.0
  1
ADDED METRIC
  7
MONOTXT
210
0.0
220
0.0
230
1.0
100
AcDbText
  0
LINE
  5
43F
100
AcDbEntity
  8
1
  6
CONTINUOUS
 62
     7
100
AcDbLine
 10
497.800667
 20
31.057417
 30
0.0
 11
499.800667
 21
27.593333
 31
0.0
  0
LINE
  5
440
100
AcDbEntity
  8
1
  6
CONTINUOUS
 62
     7
100
AcDbLine
 10
499.800667
 20
27.593333
 30
0.0
 11
495.800667
 21
27.593333
 31
0.0
  0
LINE
  5
441
100
AcDbEntity
  8
1
  6
CONTINUOUS
 62
     7
100
AcDbLine
 10
497.800667
 20
31.057417
 30
0.0
 11
495.800667
 21
27.593333
 31
0.0
  0
TEXT
  5
442
100
AcDbEntity
  8
1
  6
CONTINUOUS
 62
     7
100
AcDbText
 10
497.093333
 20
27.905667
 30
0.0
 40
2.0
  1
4
  7
MONOTXT
210
0.0
220
0.0
230
1.0
100
AcDbText
  0
TEXT
  5
443
100
AcDbEntity
  8
1
  6
CONTINUOUS
 62
     7
100
AcDbText
 10
68.432083
 20
359.637
 30
0.0
 40
2.5
  1
300mm MIN.
  7
MONOTXT
210
0.0
220
0.0
230
1.0
100
AcDbText
  0
TEXT
  5
444
100
AcDbEntity
  8
1
  6
CONTINUOUS
 62
     7
100
AcDbText
 10
298.2435
 20
359.637
 30
0.0
 40
2.5
  1
300mm MIN.
  7
MONOTXT
210
0.0
220
0.0
230
1.0
100
AcDbText
  0
TEXT
  5
445
100
AcDbEntity
  8
1
  6
CONTINUOUS
 62
     7
100
AcDbText
 10
385.024667
 20
345.74625
 30
0.0
 40
2.5
  1
0.6m MIN. DRIP LOOP
  7
MONOTXT
210
0.0
220
0.0
230
1.0
100
AcDbText
  0
TEXT
  5
446
100
AcDbEntity
  8
1
  6
CONTINUOUS
 62
     7
100
AcDbText
 10
371.898
 20
324.462583
 30
0.0
 40
2.5
  1
PROVIDE 1.2m MIN. LENGTH OF CABLE
  7
MONOTXT
 11
371.898
 21
326.962583
 31
0.0
210
0.0
220
0.0
230
1.0
100
AcDbText
 73
     3
  0
TEXT
  5
447
100
AcDbEntity
  8
1
  6
CONTINUOUS
 62
     7
100
AcDbText
 10
371.898
 20
319.962583
 30
0.0
 40
2.5
  1
BEYOND WEATHERHEAD.
  7
MONOTXT
 11
371.898
 21
322.462583
 31
0.0
210
0.0
220
0.0
230
1.0
100
AcDbText
 73
     3
  0
TEXT
  5
448
100
AcDbEntity
  8
1
  6
CONTINUOUS
 62
     7
100
AcDbText
 10
178.321583
 20
243.36925
 30
0.0
 40
2.5
  1
GALVANIZED STEEL CONDUIT - 51mm MIN. DIA.
  7
MONOTXT
210
0.0
220
0.0
230
1.0
100
AcDbText
  0
TEXT
  5
449
100
AcDbEntity
  8
1
  6
CONTINUOUS
 62
     7
100
AcDbText
 10
414.006583
 20
185.303333
 30
0.0
 40
2.5
  1
1.5m
 50
90.0
  7
MONOTXT
210
0.0
220
0.0
230
1.0
100
AcDbText
  0
TEXT
  5
44A
100
AcDbEntity
  8
1
  6
CONTINUOUS
 62
     7
100
AcDbText
 10
406.699583
 20
101.36825
 30
0.0
 40
2.5
  1
MINIMUM DISTANCE IN
  7
MONOTXT
 11
406.699583
 21
103.86825
 31
0.0
210
0.0
220
0.0
230
1.0
100
AcDbText
 73
     3
  0
TEXT
  5
44B
100
AcDbEntity
  8
1
  6
CONTINUOUS
 62
     7
100
AcDbText
 10
406.699583
 20
96.86825
 30
0.0
 40
2.5
  1
NON-PEDESTRIAN AREA 1.2m
  7
MONOTXT
 11
406.699583
 21
99.36825
 31
0.0
210
0.0
220
0.0
230
1.0
100
AcDbText
 73
     3
  0
TEXT
  5
44C
100
AcDbEntity
  8
1
  6
CONTINUOUS
 62
     7
100
AcDbText
 10
528.883417
 20
180.906667
 30
0.0
 40
2.5
  1
16mm
  7
MONOTXT
210
0.0
220
0.0
230
1.0
100
AcDbText
  0
TEXT
  5
44D
100
AcDbEntity
  8
1
  6
CONTINUOUS
 62
     7
100
AcDbText
 10
528.883417
 20
156.161
 30
0.0
 40
2.5
  1
18mm
  7
MONOTXT
210
0.0
220
0.0
230
1.0
100
AcDbText
  0
TEXT
  5
44E
100
AcDbEntity
  8
1
  6
CONTINUOUS
 62
     7
100
AcDbText
 10
509.6685
 20
150.36875
 30
0.0
 40
2.5
  1
76.2mm
  7
MONOTXT
210
0.0
220
0.0
230
1.0
100
AcDbText
  0
TEXT
  5
44F
100
AcDbEntity
  8
1
  6
CONTINUOUS
 62
     7
100
AcDbText
 10
488.494167
 20
145.543
 30
0.0
 40
2.5
  1
190.5mm
  7
MONOTXT
210
0.0
220
0.0
230
1.0
100
AcDbText
  0
TEXT
  5
450
100
AcDbEntity
  8
1
  6
CONTINUOUS
 62
     7
100
AcDbText
 10
571.79525
 20
181.038583
 30
0.0
 40
2.5
  1
88.9mm
  7
MONOTXT
210
0.0
220
0.0
230
1.0
100
AcDbText
  0
TEXT
  5
451
100
AcDbEntity
  8
1
  6
CONTINUOUS
 62
     7
100
AcDbText
 10
598.025333
 20
180.8895
 30
0.0
 40
2.5
  1
88.9mm
  7
MONOTXT
210
0.0
220
0.0
230
1.0
100
AcDbText
  0
TEXT
  5
452
100
AcDbEntity
  8
1
  6
CONTINUOUS
 62
     7
100
AcDbText
 10
625.362917
 20
181.192167
 30
0.0
 40
2.5
  1
76.2mm
  7
MONOTXT
210
0.0
220
0.0
230
1.0
100
AcDbText
  0
TEXT
  5
453
100
AcDbEntity
  8
1
  6
CONTINUOUS
 62
     7
100
AcDbText
 10
641.392167
 20
165.806833
 30
0.0
 40
2.5
  1
19mm
  7
MONOTXT
210
0.0
220
0.0
230
1.0
100
AcDbText
  0
TEXT
  5
454
100
AcDbEntity
  8
1
  6
CONTINUOUS
 62
     7
100
AcDbText
 10
654.741083
 20
166.44675
 30
0.0
 40
2.5
  1
50mm
  7
MONOTXT
210
0.0
220
0.0
230
1.0
100
AcDbText
  0
TEXT
  5
455
100
AcDbEntity
  8
1
  6
CONTINUOUS
 62
     7
100
AcDbText
 10
644.272
 20
150.176
 30
0.0
 40
2.5
  1
15.5mm
  7
MONOTXT
210
0.0
220
0.0
230
1.0
100
AcDbText
  0
TEXT
  5
456
100
AcDbEntity
  8
1
  6
CONTINUOUS
 62
     7
100
AcDbText
 10
609.517417
 20
150.398667
 30
0.0
 40
2.5
  1
179.4mm
  7
MONOTXT
210
0.0
220
0.0
230
1.0
100
AcDbText
  0
TEXT
  5
457
100
AcDbEntity
  8
1
  6
CONTINUOUS
 62
     7
100
AcDbText
 10
588.924167
 20
145.137333
 30
0.0
 40
2.5
  1
358.8mm
  7
MONOTXT
210
0.0
220
0.0
230
1.0
100
AcDbText
  0
TEXT
  5
458
100
AcDbEntity
  8
1
  6
CONTINUOUS
 62
     7
100
AcDbText
 10
584.857833
 20
273.249083
 30
0.0
 40
2.5
  1
FIELD DRILL POLE
  7
MONOTXT
 11
584.857833
 21
275.749083
 31
0.0
210
0.0
220
0.0
230
1.0
100
AcDbText
 73
     3
  0
TEXT
  5
459
100
AcDbEntity
  8
1
  6
CONTINUOUS
 62
     7
100
AcDbText
 10
584.857833
 20
268.749083
 30
0.0
 40
2.5
  1
7.37mm DIA. DRILL - 4 HOLES.
  7
MONOTXT
 11
584.857833
 21
271.249083
 31
0.0
210
0.0
220
0.0
230
1.0
100
AcDbText
 73
     3
  0
TEXT
  5
45A
100
AcDbEntity
  8
1
  6
CONTINUOUS
 62
     7
100
AcDbText
 10
590.677833
 20
253.56725
 30
0.0
 40
2.5
  1
7.94mm DIA. x  19mm HEX. HD.
  7
MONOTXT
 11
590.677833
 21
256.06725
 31
0.0
210
0.0
220
0.0
230
1.0
100
AcDbText
 73
     3
  0
TEXT
  5
45B
100
AcDbEntity
  8
1
  6
CONTINUOUS
 62
     7
100
AcDbText
 10
590.677833
 20
249.06725
 30
0.0
 40
2.5
  1
SELF TAPPING SCREWS
  7
MONOTXT
 11
590.677833
 21
251.56725
 31
0.0
210
0.0
220
0.0
230
1.0
100
AcDbText
 73
     3
  0
TEXT
  5
45C
100
AcDbEntity
  8
1
  6
CONTINUOUS
 62
     7
100
AcDbText
 10
605.902417
 20
242.051333
 30
0.0
 40
2.5
  1
4.76mmx51mm 
  7
MONOTXT
210
0.0
220
0.0
230
1.0
100
AcDbText
  0
TEXT
  5
45D
100
AcDbEntity
  8
1
  6
CONTINUOUS
 62
     7
100
AcDbText
 10
605.902417
 20
237.551333
 30
0.0
 40
2.5
  1
BAR STOCK
  7
MONOTXT
210
0.0
220
0.0
230
1.0
100
AcDbText
  0
TEXT
  5
45E
100
AcDbEntity
  8
1
  6
CONTINUOUS
 62
     7
100
AcDbText
 10
468.39125
 20
238.185583
 30
0.0
 40
2.5
  1
12.7mm
 50
35.000567
  7
MONOTXT
 11
466.957289
 21
240.233449
 31
0.0
210
0.0
220
0.0
230
1.0
100
AcDbText
 73
     3
  0
TEXT
  5
45F
100
AcDbEntity
  8
1
  6
CONTINUOUS
 62
     7
100
AcDbText
 10
499.092333
 20
259.428167
 30
0.0
 40
2.5
  1
12.7mm
 50
35.000567
  7
MONOTXT
 11
497.658372
 21
261.476033
 31
0.0
210
0.0
220
0.0
230
1.0
100
AcDbText
 73
     3
  0
ARC
  5
460
100
AcDbEntity
  8
1
  6
CONTINUOUS
 62
     1
100
AcDbCircle
 10
567.343465
 20
302.493948
 30
0.0
 40
76.538632
210
0.0
220
0.0
230
1.0
100
AcDbArc
 50
206.852594
 51
209.790589
  0
ARC
  5
461
100
AcDbEntity
  8
1
  6
CONTINUOUS
 62
     1
100
AcDbCircle
 10
567.343465
 20
302.493948
 30
0.0
 40
76.538632
210
0.0
220
0.0
230
1.0
100
AcDbArc
 50
212.884031
 51
214.711428
  0
TEXT
  5
462
100
AcDbEntity
  8
1
  6
CONTINUOUS
 62
     7
100
AcDbText
 10
485.124
 20
230.73825
 30
0.0
 40
2.5
  1
114mm
 50
304.99985
  7
MONOTXT
 11
487.171884
 21
232.172186
 31
0.0
210
0.0
220
0.0
230
1.0
100
AcDbText
 73
     3
  0
TEXT
  5
463
100
AcDbEntity
  8
1
  6
CONTINUOUS
 62
     7
100
AcDbText
 10
526.530583
 20
251.500417
 30
0.0
 40
3.0
  1
457.2mm DIA.
 50
35.000567
  7
MONOTXT
 11
524.80983
 21
253.957856
 31
0.0
210
0.0
220
0.0
230
1.0
100
AcDbText
 73
     3
  0
TEXT
  5
464
100
AcDbEntity
  8
1
  6
CONTINUOUS
 62
     7
100
AcDbText
 10
506.797
 20
382.321833
 30
0.0
 40
2.5
  1
1.   FINAL LOCATION OF THE SERVICE POLE SHALL BE DETERMINED
  7
MONOTXT
 11
506.797
 21
384.821833
 31
0.0
210
0.0
220
0.0
230
1.0
100
AcDbText
 73
     3
  0
TEXT
  5
465
100
AcDbEntity
  8
1
  6
CONTINUOUS
 62
     7
100
AcDbText
 10
506.797
 20
377.821833
 30
0.0
 40
2.5
  1
   IN THE FIELD BY THE ENGINEER.
  7
MONOTXT
 11
506.797
 21
380.321833
 31
0.0
210
0.0
220
0.0
230
1.0
100
AcDbText
 73
     3
  0
TEXT
  5
466
100
AcDbEntity
  8
1
  6
CONTINUOUS
 62
     7
100
AcDbText
 10
506.797
 20
373.321833
 30
0.0
 40
2.5
  1
 
  7
MONOTXT
 11
506.797
 21
375.821833
 31
0.0
210
0.0
220
0.0
230
1.0
100
AcDbText
 73
     3
  0
TEXT
  5
467
100
AcDbEntity
  8
1
  6
CONTINUOUS
 62
     7
100
AcDbText
 10
506.797
 20
368.821833
 30
0.0
 40
2.5
  1
2.   PHOTOELECTRIC CELL WILL BE PHOTOCELL - TWISTLOCK TYPE,
  7
MONOTXT
 11
506.797
 21
371.321833
 31
0.0
210
0.0
220
0.0
230
1.0
100
AcDbText
 73
     3
  0
TEXT
  5
468
100
AcDbEntity
  8
1
  6
CONTINUOUS
 62
     7
100
AcDbText
 10
506.797
 20
364.321833
 30
0.0
 40
2.5
  1
   STANDARD NEMA WITH 70mm ID LOCKING BASE.
  7
MONOTXT
 11
506.797
 21
366.821833
 31
0.0
210
0.0
220
0.0
230
1.0
100
AcDbText
 73
     3
  0
TEXT
  5
469
100
AcDbEntity
  8
1
  6
CONTINUOUS
 62
     7
100
AcDbText
 10
506.797
 20
359.821833
 30
0.0
 40
2.5
  1
 
  7
MONOTXT
 11
506.797
 21
362.321833
 31
0.0
210
0.0
220
0.0
230
1.0
100
AcDbText
 73
     3
  0
TEXT
  5
46A
100
AcDbEntity
  8
1
  6
CONTINUOUS
 62
     7
100
AcDbText
 10
506.797
 20
355.321833
 30
0.0
 40
2.5
  1
3.   THE P.E. UNIT SHALL NORMALLY BE MOUNTED ON THE SAME
  7
MONOTXT
 11
506.797
 21
357.821833
 31
0.0
210
0.0
220
0.0
230
1.0
100
AcDbText
 73
     3
  0
TEXT
  5
46B
100
AcDbEntity
  8
1
  6
CONTINUOUS
 62
     7
100
AcDbText
 10
506.797
 20
350.821833
 30
0.0
 40
2.5
  1
   POLE AS THE CONTROL STATION CABINET IS MOUNTED. THE
  7
MONOTXT
 11
506.797
 21
353.321833
 31
0.0
210
0.0
220
0.0
230
1.0
100
AcDbText
 73
     3
  0
TEXT
  5
46C
100
AcDbEntity
  8
1
  6
CONTINUOUS
 62
     7
100
AcDbText
 10
506.797
 20
346.321833
 30
0.0
 40
2.5
  1
   P.E. UNIT FOR GROUND MOUNTED CONTROL STATIONS SHALL
  7
MONOTXT
 11
506.797
 21
348.821833
 31
0.0
210
0.0
220
0.0
230
1.0
100
AcDbText
 73
     3
  0
TEXT
  5
46D
100
AcDbEntity
  8
1
  6
CONTINUOUS
 62
     7
100
AcDbText
 10
506.797
 20
341.821833
 30
0.0
 40
2.5
  1
   BE MOUNTED AT THE ENCLOSURE (AS DETAILED ON TEL-23)
  7
MONOTXT
 11
506.797
 21
344.321833
 31
0.0
210
0.0
220
0.0
230
1.0
100
AcDbText
 73
     3
  0
TEXT
  5
46E
100
AcDbEntity
  8
1
  6
CONTINUOUS
 62
     7
100
AcDbText
 10
506.797
 20
337.321833
 30
0.0
 40
2.5
  1
   UNLESS OTHERWISE DIRECTED ON THE PLANS.
  7
MONOTXT
 11
506.797
 21
339.821833
 31
0.0
210
0.0
220
0.0
230
1.0
100
AcDbText
 73
     3
  0
TEXT
  5
46F
100
AcDbEntity
  8
1
  6
CONTINUOUS
 62
     7
100
AcDbText
 10
506.797
 20
332.821833
 30
0.0
 40
2.5
  1
 
  7
MONOTXT
 11
506.797
 21
335.321833
 31
0.0
210
0.0
220
0.0
230
1.0
100
AcDbText
 73
     3
  0
TEXT
  5
470
100
AcDbEntity
  8
1
  6
CONTINUOUS
 62
     7
100
AcDbText
 10
506.797
 20
328.321833
 30
0.0
 40
2.5
  1
4.   CONDUIT CONNECTION TO ALL CABINETS SHALL BE MADE
  7
MONOTXT
 11
506.797
 21
330.821833
 31
0.0
210
0.0
220
0.0
230
1.0
100
AcDbText
 73
     3
  0
TEXT
  5
471
100
AcDbEntity
  8
1
  6
CONTINUOUS
 62
     7
100
AcDbText
 10
506.797
 20
323.821833
 30
0.0
 40
2.5
  1
   THROUGH THE BASE OF THE CABINETS ONLY (EXCEPT P.E.).
  7
MONOTXT
 11
506.797
 21
326.321833
 31
0.0
210
0.0
220
0.0
230
1.0
100
AcDbText
 73
     3
  0
TEXT
  5
472
100
AcDbEntity
  8
1
  6
CONTINUOUS
 62
     7
100
AcDbText
 10
506.797
 20
319.321833
 30
0.0
 40
2.5
  1
 
  7
MONOTXT
 11
506.797
 21
321.821833
 31
0.0
210
0.0
220
0.0
230
1.0
100
AcDbText
 73
     3
  0
TEXT
  5
473
100
AcDbEntity
  8
1
  6
CONTINUOUS
 62
     7
100
AcDbText
 10
506.797
 20
314.821833
 30
0.0
 40
2.5
  1
5.   THE CONTROL STATION CABINET IS POLE MOUNTED ON THE
  7
MONOTXT
 11
506.797
 21
317.321833
 31
0.0
210
0.0
220
0.0
230
1.0
100
AcDbText
 73
     3
  0
TEXT
  5
474
100
AcDbEntity
  8
1
  6
CONTINUOUS
 62
     7
100
AcDbText
 10
506.797
 20
310.321833
 30
0.0
 40
2.5
  1
   SERVICE POLE UNLESS OTHERWISE DIRECTED ON THE PLANS
  7
MONOTXT
 11
506.797
 21
312.821833
 31
0.0
210
0.0
220
0.0
230
1.0
100
AcDbText
 73
     3
  0
TEXT
  5
475
100
AcDbEntity
  8
1
  6
CONTINUOUS
 62
     7
100
AcDbText
 10
506.797
 20
305.821833
 30
0.0
 40
2.5
  1
   (E.G. ON THE FIRST POLE OF LIGHTING CIRCUIT).
  7
MONOTXT
 11
506.797
 21
308.321833
 31
0.0
210
0.0
220
0.0
230
1.0
100
AcDbText
 73
     3
  0
TEXT
  5
476
100
AcDbEntity
  8
1
  6
CONTINUOUS
 62
     7
100
AcDbText
 10
506.797
 20
301.321833
 30
0.0
 40
2.5
  1
 
  7
MONOTXT
 11
506.797
 21
303.821833
 31
0.0
210
0.0
220
0.0
230
1.0
100
AcDbText
 73
     3
  0
TEXT
  5
477
100
AcDbEntity
  8
1
  6
CONTINUOUS
 62
     7
100
AcDbText
 10
506.797
 20
296.821833
 30
0.0
 40
2.5
  1
6.   THE METHOD SHOWN FOR CONTROL STATION CABINET POLE
  7
MONOTXT
 11
506.797
 21
299.321833
 31
0.0
210
0.0
220
0.0
230
1.0
100
AcDbText
 73
     3
  0
TEXT
  5
478
100
AcDbEntity
  8
1
  6
CONTINUOUS
 62
     7
100
AcDbText
 10
506.797
 20
292.321833
 30
0.0
 40
2.5
  1
   MOUNTING SHALL BE USED ONLY IN SITUATIONS WHERE SMALL
  7
MONOTXT
 11
506.797
 21
294.821833
 31
0.0
210
0.0
220
0.0
230
1.0
100
AcDbText
 73
     3
  0
TEXT
  5
479
100
AcDbEntity
  8
1
  6
CONTINUOUS
 62
     7
100
AcDbText
 10
506.797
 20
287.821833
 30
0.0
 40
2.5
  1
   CONTROL CABINETS ARE USED. FOR LARGER CABINETS, MOUNTING
  7
MONOTXT
 11
506.797
 21
290.321833
 31
0.0
210
0.0
220
0.0
230
1.0
100
AcDbText
 73
     3
  0
TEXT
  5
47A
100
AcDbEntity
  8
1
  6
CONTINUOUS
 62
     7
100
AcDbText
 10
506.797
 20
283.321833
 30
0.0
 40
2.5
  1
   METHOD ON SHEET TEL-23 SHALL BE USED.
  7
MONOTXT
 11
506.797
 21
285.821833
 31
0.0
210
0.0
220
0.0
230
1.0
100
AcDbText
 73
     3
  0
TEXT
  5
47B
100
AcDbEntity
  8
1
  6
CONTINUOUS
 62
     7
100
AcDbText
 10
308.566833
 20
220.97375
 30
0.0
 40
2.5
  1
25.4mm RIGID CONDUIT
  7
MONOTXT
 11
308.566833
 21
223.47375
 31
0.0
210
0.0
220
0.0
230
1.0
100
AcDbText
 73
     3
  0
TEXT
  5
47C
100
AcDbEntity
  8
1
  6
CONTINUOUS
 62
     7
100
AcDbText
 10
308.566833
 20
216.47375
 30
0.0
 40
2.5
  1
(GALVANIZED)
  7
MONOTXT
 11
308.566833
 21
218.97375
 31
0.0
210
0.0
220
0.0
230
1.0
100
AcDbText
 73
     3
  0
TEXT
  5
47D
100
AcDbEntity
  8
1
  6
CONTINUOUS
 62
     7
100
AcDbText
 10
482.998917
 20
251.530583
 30
0.0
 40
2.5
  1
25.4mm
 50
35.000567
 41
0.8
  7
MONOTXT
 11
481.564955
 21
253.578449
 31
0.0
210
0.0
220
0.0
230
1.0
100
AcDbText
 73
     3
  0
TEXT
  5
47E
100
AcDbEntity
  8
1
  6
CONTINUOUS
 62
     7
100
AcDbText
 10
512.557
 20
250.548167
 30
0.0
 40
2.5
  1
12.7mm
 50
35.000567
  7
MONOTXT
 11
511.123039
 21
252.596033
 31
0.0
210
0.0
220
0.0
230
1.0
100
AcDbText
 73
     3
  0
TEXT
  5
47F
100
AcDbEntity
  8
1
  6
CONTINUOUS
 62
     7
100
AcDbText
 10
442.0145
 20
209.64375
 30
0.0
 40
2.5
  1
FORMED HIMGE TO BE
  7
MONOTXT
 11
442.0145
 21
212.14375
 31
0.0
210
0.0
220
0.0
230
1.0
100
AcDbText
 73
     3
  0
TEXT
  5
480
100
AcDbEntity
  8
1
  6
CONTINUOUS
 62
     7
100
AcDbText
 10
442.0145
 20
205.14375
 30
0.0
 40
2.5
  1
SNUG FIT ON 15.88mm BOLT.
  7
MONOTXT
 11
442.0145
 21
207.64375
 31
0.0
210
0.0
220
0.0
230
1.0
100
AcDbText
 73
     3
  0
TEXT
  5
481
100
AcDbEntity
  8
1
  6
CONTINUOUS
 62
     7
100
AcDbText
 10
419.77
 20
195.40125
 30
0.0
 40
2.5
  1
15.88mmx63.5mm HEX. HEAD MACHINE BOLT
  7
MONOTXT
210
0.0
220
0.0
230
1.0
100
AcDbText
  0
TEXT
  5
482
100
AcDbEntity
  8
1
  6
CONTINUOUS
 62
     7
100
AcDbText
 10
565.400833
 20
220.392
 30
0.0
 40
2.5
  1
231.78mm
  7
MONOTXT
210
0.0
220
0.0
230
1.0
100
AcDbText
  0
TEXT
  5
483
100
AcDbEntity
  8
1
  6
CONTINUOUS
 62
     7
100
AcDbText
 10
579.17325
 20
206.722083
 30
0.0
 40
2.5
  1
12.7mm
 41
0.8
  7
MONOTXT
210
0.0
220
0.0
230
1.0
100
AcDbText
  0
ENDSEC
  0
SECTION
  2
OBJECTS
  0
DICTIONARY
  5
19
100
AcDbDictionary
  3
ACAD_GROUP
350
1A
  3
ACAD_MLINESTYLE
350
1B
  0
DICTIONARY
  5
1A
102
{ACAD_REACTORS
330
19
102
}
100
AcDbDictionary
  0
DICTIONARY
  5
1B
102
{ACAD_REACTORS
330
19
102
}
100
AcDbDictionary
  3
STANDARD
350
1C
  0
MLINESTYLE
  5
1C
102
{ACAD_REACTORS
330
1B
102
}
100
AcDbMlineStyle
  2
STANDARD
 70
     0
  3

 62
     0
 51
90.0
 52
90.0
 71
     2
 49
0.5
 62
   256
  6
BYLAYER
 49
-0.5
 62
   256
  6
BYLAYER
  0
ENDSEC
  0
EOF
