  0
SECTION
  2
HEADER
  9
$ACADVER
  1
AC1014
  9
$ACADMAINTVER
 70
     0
  9
$DWGCODEPAGE
  3
ANSI_1252
  9
$INSBASE
 10
0.0
 20
0.0
 30
0.0
  9
$EXTMIN
 10
-45.3949
 20
-52.8922
 30
0.0
  9
$EXTMAX
 10
711.5671
 20
443.4184
 30
0.0
  9
$LIMMIN
 10
0.0
 20
0.0
  9
$LIMMAX
 10
12.0
 20
9.0
  9
$ORTHOMODE
 70
     0
  9
$REGENMODE
 70
     1
  9
$FILLMODE
 70
     1
  9
$QTEXTMODE
 70
     0
  9
$MIRRTEXT
 70
     1
  9
$DRAGMODE
 70
     2
  9
$LTSCALE
 40
1.0
  9
$OSMODE
 70
     0
  9
$ATTMODE
 70
     1
  9
$TEXTSIZE
 40
0.2
  9
$TRACEWID
 40
0.05
  9
$TEXTSTYLE
  7
STANDARD
  9
$CLAYER
  8
0
  9
$CELTYPE
  6
CONTINUOUS
  9
$CECOLOR
 62
   256
  9
$CELTSCALE
 40
1.0
  9
$DELOBJ
 70
     1
  9
$DISPSILH
 70
     0
  9
$DIMSCALE
 40
1.0
  9
$DIMASZ
 40
0.18
  9
$DIMEXO
 40
0.0625
  9
$DIMDLI
 40
0.38
  9
$DIMRND
 40
0.0
  9
$DIMDLE
 40
0.0
  9
$DIMEXE
 40
0.18
  9
$DIMTP
 40
0.0
  9
$DIMTM
 40
0.0
  9
$DIMTXT
 40
0.18
  9
$DIMCEN
 40
0.09
  9
$DIMTSZ
 40
0.0
  9
$DIMTOL
 70
     0
  9
$DIMLIM
 70
     0
  9
$DIMTIH
 70
     1
  9
$DIMTOH
 70
     1
  9
$DIMSE1
 70
     0
  9
$DIMSE2
 70
     0
  9
$DIMTAD
 70
     0
  9
$DIMZIN
 70
     0
  9
$DIMBLK
  1

  9
$DIMASO
 70
     1
  9
$DIMSHO
 70
     1
  9
$DIMPOST
  1

  9
$DIMAPOST
  1

  9
$DIMALT
 70
     0
  9
$DIMALTD
 70
     2
  9
$DIMALTF
 40
25.4
  9
$DIMLFAC
 40
1.0
  9
$DIMTOFL
 70
     0
  9
$DIMTVP
 40
0.0
  9
$DIMTIX
 70
     0
  9
$DIMSOXD
 70
     0
  9
$DIMSAH
 70
     0
  9
$DIMBLK1
  1

  9
$DIMBLK2
  1

  9
$DIMSTYLE
  2
STANDARD
  9
$DIMCLRD
 70
     0
  9
$DIMCLRE
 70
     0
  9
$DIMCLRT
 70
     0
  9
$DIMTFAC
 40
1.0
  9
$DIMGAP
 40
0.09
  9
$DIMJUST
 70
     0
  9
$DIMSD1
 70
     0
  9
$DIMSD2
 70
     0
  9
$DIMTOLJ
 70
     1
  9
$DIMTZIN
 70
     0
  9
$DIMALTZ
 70
     0
  9
$DIMALTTZ
 70
     0
  9
$DIMFIT
 70
     3
  9
$DIMUPT
 70
     0
  9
$DIMUNIT
 70
     2
  9
$DIMDEC
 70
     4
  9
$DIMTDEC
 70
     4
  9
$DIMALTU
 70
     2
  9
$DIMALTTD
 70
     2
  9
$DIMTXSTY
  7
STANDARD
  9
$DIMAUNIT
 70
     0
  9
$LUNITS
 70
     2
  9
$LUPREC
 70
     4
  9
$SKETCHINC
 40
0.1
  9
$FILLETRAD
 40
0.0
  9
$AUNITS
 70
     0
  9
$AUPREC
 70
     0
  9
$MENU
  1
acad
  9
$ELEVATION
 40
0.0
  9
$PELEVATION
 40
0.0
  9
$THICKNESS
 40
0.0
  9
$LIMCHECK
 70
     0
  9
$BLIPMODE
 70
     1
  9
$CHAMFERA
 40
0.0
  9
$CHAMFERB
 40
0.0
  9
$CHAMFERC
 40
0.0
  9
$CHAMFERD
 40
0.0
  9
$SKPOLY
 70
     0
  9
$TDCREATE
 40
2451803.561192130
  9
$TDUPDATE
 40
2451803.561192130
  9
$TDINDWG
 40
0.0000000000
  9
$TDUSRTIMER
 40
0.0000000000
  9
$USRTIMER
 70
     1
  9
$ANGBASE
 50
0.0
  9
$ANGDIR
 70
     0
  9
$PDMODE
 70
     0
  9
$PDSIZE
 40
0.0
  9
$PLINEWID
 40
0.0
  9
$COORDS
 70
     0
  9
$SPLFRAME
 70
     0
  9
$SPLINETYPE
 70
     6
  9
$SPLINESEGS
 70
    10
  9
$ATTDIA
 70
     0
  9
$ATTREQ
 70
     1
  9
$HANDLING
 70
     1
  9
$HANDSEED
  5
404
  9
$SURFTAB1
 70
     6
  9
$SURFTAB2
 70
     6
  9
$SURFTYPE
 70
     6
  9
$SURFU
 70
     6
  9
$SURFV
 70
     6
  9
$UCSNAME
  2

  9
$UCSORG
 10
0.0
 20
0.0
 30
0.0
  9
$UCSXDIR
 10
1.0
 20
0.0
 30
0.0
  9
$UCSYDIR
 10
0.0
 20
1.0
 30
0.0
  9
$PUCSNAME
  2

  9
$PUCSORG
 10
0.0
 20
0.0
 30
0.0
  9
$PUCSXDIR
 10
1.0
 20
0.0
 30
0.0
  9
$PUCSYDIR
 10
0.0
 20
1.0
 30
0.0
  9
$USERI1
 70
     0
  9
$USERI2
 70
     0
  9
$USERI3
 70
     0
  9
$USERI4
 70
     0
  9
$USERI5
 70
     0
  9
$USERR1
 40
0.0
  9
$USERR2
 40
0.0
  9
$USERR3
 40
0.0
  9
$USERR4
 40
0.0
  9
$USERR5
 40
0.0
  9
$WORLDVIEW
 70
     1
  9
$SHADEDGE
 70
     3
  9
$SHADEDIF
 70
    70
  9
$TILEMODE
 70
     1
  9
$MAXACTVP
 70
    16
  9
$PINSBASE
 10
0.0
 20
0.0
 30
0.0
  9
$PLIMCHECK
 70
     0
  9
$PEXTMIN
 10
-1.000000E+20
 20
-1.000000E+20
 30
-1.000000E+20
  9
$PEXTMAX
 10
-1.000000E+20
 20
-1.000000E+20
 30
-1.000000E+20
  9
$PLIMMIN
 10
0.0
 20
0.0
  9
$PLIMMAX
 10
12.0
 20
9.0
  9
$UNITMODE
 70
     0
  9
$VISRETAIN
 70
     0
  9
$PLINEGEN
 70
     1
  9
$PSLTSCALE
 70
     0
  9
$TREEDEPTH
 70
  3020
  9
$PICKSTYLE
 70
     1
  9
$CMLSTYLE
  2
STANDARD
  9
$CMLJUST
 70
     0
  9
$CMLSCALE
 40
1.0
  9
$PROXYGRAPHICS
 70
     0
  9
$MEASUREMENT
 70
     0
  0
ENDSEC
  0
SECTION
  2
CLASSES
  0
CLASS
  1
LWPOLYLINE
  2
AcDbPolyline
  3
"AutoCAD"
 90
        0
280
     0
281
     1
  0
CLASS
  1
IMAGE
  2
AcDbRasterImage
  3
ISM
 90
      127
280
     0
281
     1
  0
CLASS
  1
OLE2FRAME
  2
AcDbOle2Frame
  3
""
 90
        0
280
     0
281
     1
  0
CLASS
  1
HATCH
  2
AcDbHatch
  3
"ACAD_SEDONA"
 90
        0
280
     0
281
     1
  0
CLASS
  1
DICTIONARYVAR
  2
AcDbDictionaryVar
  3
"AutoCAD"
 90
        0
280
     0
281
     0
  0
CLASS
  1
RASTERVARIABLES
  2
AcDbRasterVariables
  3
ISM
 90
        0
280
     0
281
     0
  0
CLASS
  1
IMAGEDEF
  2
AcDbRasterImageDef
  3
ISM
 90
        0
280
     0
281
     0
  0
CLASS
  1
IMAGEDEF_REACTOR
  2
AcDbRasterImageDefReactor
  3
ISM
 90
        1
280
     0
281
     0
  0
CLASS
  1
IDBUFFER
  2
AcDbIdBuffer
  3
"Acad"
 90
        0
280
     0
281
     0
  0
CLASS
  1
SPATIAL_FILTER
  2
AcDbSpatialFilter
  3
"Acad"
 90
        0
280
     0
281
     0
  0
CLASS
  1
XRECORD
  2
AcDbXrecord
  3
"<Built In>"
 90
        0
280
     0
281
     0
  0
CLASS
  1
SORTENTSTABLE
  2
AcDbSortentsTable
  3
"AutoCAD"
 90
        0
280
     0
281
     0
  0
CLASS
  1
LAYER_INDEX
  2
AcDbLayerIndex
  3
"Acad"
 90
        0
280
     0
281
     0
  0
CLASS
  1
SPATIAL_INDEX
  2
AcDbSpatialIndex
  3
"Acad"
 90
        0
280
     0
281
     0
  0
CLASS
  1
OBJECT_PTR
  2
CAseDLPNTableRecord
  3
"ASE-LPNTableRecord"
 90
        1
280
     0
281
     0
  0
ENDSEC
  0
SECTION
  2
TABLES
  0
TABLE
  2
VPORT
  5
7
100
AcDbSymbolTable
 70
     1
  0
VPORT
  5
403
100
AcDbSymbolTableRecord
100
AcDbViewportTableRecord
  2
*ACTIVE
 70
     0
 10
0.0
 20
0.0
 11
1.0
 21
1.0
 12
0.0
 22
0.0
 13
0.0
 23
0.0
 14
0.0
 24
0.0
 15
0.0
 25
0.0
 16
0.0
 26
0.0
 36
1.0
 17
280.411264
 27
195.9332
 37
0.0
 40
565.24
 41
1.542429
 42
50.0
 43
0.0
 44
0.0
 50
0.0
 51
0.0
 71
     0
 72
   100
 73
     1
 74
     0
 75
     0
 76
     0
 77
     0
 78
     0
  0
ENDTAB
  0
TABLE
  2
LTYPE
  5
4
100
AcDbSymbolTable
 70
     9
  0
LTYPE
  5
11
100
AcDbSymbolTableRecord
100
AcDbLinetypeTableRecord
  2
BYBLOCK
 70
     0
  3

 72
    65
 73
     0
 40
0.0
  0
LTYPE
  5
12
100
AcDbSymbolTableRecord
100
AcDbLinetypeTableRecord
  2
BYLAYER
 70
     0
  3

 72
    65
 73
     0
 40
0.0
  0
LTYPE
  5
13
100
AcDbSymbolTableRecord
100
AcDbLinetypeTableRecord
  2
CONTINUOUS
 70
     0
  3
Solid line
 72
    65
 73
     0
 40
0.0
  0
LTYPE
  5
22
102
{ACAD_XDICTIONARY
360
100000024030000
102
}
100
AcDbSymbolTableRecord
100
AcDbLinetypeTableRecord
  2
DOT
 70
    64
  3
. . . . . . . . . . . . . . . . . . . . . . . . . . . . . . . . .
 72
    65
 73
     2
 40
0.25
 49
0.0
 74
     0
 49
-0.25
 74
     0
  0
LTYPE
  5
23
102
{ACAD_XDICTIONARY
360
100000024030000
102
}
100
AcDbSymbolTableRecord
100
AcDbLinetypeTableRecord
  2
HIDDEN
 70
    64
  3
__ __ __ __ __ __ __ __ __ __ __ __ __ __ __ __ __ __ __ __ __ 
 72
    65
 73
     2
 40
0.375
 49
0.25
 74
     0
 49
-0.125
 74
     0
  0
LTYPE
  5
24
102
{ACAD_XDICTIONARY
360
100000024030000
102
}
100
AcDbSymbolTableRecord
100
AcDbLinetypeTableRecord
  2
DASHED
 70
    64
  3
__ __ __ __ __ __ __ __ __ __ __ __ __ __ __ __ __ __ __ __ __
 72
    65
 73
     2
 40
0.75
 49
0.5
 74
     0
 49
-0.25
 74
     0
  0
LTYPE
  5
25
102
{ACAD_XDICTIONARY
360
100000024030000
102
}
100
AcDbSymbolTableRecord
100
AcDbLinetypeTableRecord
  2
DASHDOT
 70
    64
  3
__ . __ . __ . __ . __ . __ . __ . __ . __ . __ . __ . __ . _
 72
    65
 73
     4
 40
1.0
 49
0.5
 74
     0
 49
-0.25
 74
     0
 49
0.0
 74
     0
 49
-0.25
 74
     0
  0
LTYPE
  5
26
102
{ACAD_XDICTIONARY
360
100000024030000
102
}
100
AcDbSymbolTableRecord
100
AcDbLinetypeTableRecord
  2
DIVIDE
 70
    64
  3
____ . . ____ . . ____ . . ____ . . ____ . . ____ . . ____ . .
 72
    65
 73
     6
 40
1.25
 49
0.5
 74
     0
 49
-0.25
 74
     0
 49
0.0
 74
     0
 49
-0.25
 74
     0
 49
0.0
 74
     0
 49
-0.25
 74
     0
  0
LTYPE
  5
27
102
{ACAD_XDICTIONARY
360
100000024030000
102
}
100
AcDbSymbolTableRecord
100
AcDbLinetypeTableRecord
  2
CENTER
 70
    64
  3
____ _ ____ _ ____ _ ____ _ ____ _ ____ _ ____ _ ____ _ ____ _
 72
    65
 73
     4
 40
2.0
 49
1.25
 74
     0
 49
-0.25
 74
     0
 49
0.25
 74
     0
 49
-0.25
 74
     0
  0
ENDTAB
  0
TABLE
  2
LAYER
  5
2
100
AcDbSymbolTable
 70
     3
  0
LAYER
  5
14
102
{ACAD_XDICTIONARY
360
5F205F5F5F5F205F
102
}
100
AcDbSymbolTableRecord
100
AcDbLayerTableRecord
  2
0
 70
     0
 62
     7
  6
CONTINUOUS
  0
LAYER
  5
2A
102
{ACAD_XDICTIONARY
360
5F205F5F5F5F205F
102
}
100
AcDbSymbolTableRecord
100
AcDbLayerTableRecord
  2
61
 70
    64
 62
     7
  6
CONTINUOUS
  0
LAYER
  5
2D
102
{ACAD_XDICTIONARY
360
5F205F5F5F5F205F
102
}
100
AcDbSymbolTableRecord
100
AcDbLayerTableRecord
  2
1
 70
    64
 62
     7
  6
CONTINUOUS
  0
ENDTAB
  0
TABLE
  2
STYLE
  5
3
100
AcDbSymbolTable
 70
     3
  0
STYLE
  5
17
100
AcDbSymbolTableRecord
100
AcDbTextStyleTableRecord
  2
STANDARD
 70
     0
 40
0.0
 41
1.0
 50
0.0
 71
     0
 42
0.0
  3
txt
  4

  0
STYLE
  5
2B
100
AcDbSymbolTableRecord
100
AcDbTextStyleTableRecord
  2
MONOTXT
 70
     0
 40
0.2
 41
1.0
 50
0.0
 71
     0
 42
0.2
  3
MONOTXT
  4

  0
STYLE
  5
37
100
AcDbSymbolTableRecord
100
AcDbTextStyleTableRecord
  2
TXT
 70
     0
 40
0.2
 41
1.0
 50
0.0
 71
     0
 42
0.2
  3
TXT
  4

  0
ENDTAB
  0
TABLE
  2
VIEW
  5
5
100
AcDbSymbolTable
 70
     0
  0
ENDTAB
  0
TABLE
  2
UCS
  5
6
100
AcDbSymbolTable
 70
     0
  0
ENDTAB
  0
TABLE
  2
APPID
  5
8
100
AcDbSymbolTable
 70
     1
  0
APPID
  5
16
100
AcDbSymbolTableRecord
100
AcDbRegAppTableRecord
  2
ACAD
 70
     0
  0
ENDTAB
  0
TABLE
  2
DIMSTYLE
  5
9
100
AcDbSymbolTable
 70
     1
  0
DIMSTYLE
105
18
100
AcDbSymbolTableRecord
100
AcDbDimStyleTableRecord
  2
STANDARD
 70
     0
  3

  4

  5

  6

  7

 40
1.0
 41
0.18
 42
0.0625
 43
0.38
 44
0.18
 45
0.0
 46
0.0
 47
0.0
 48
0.0
140
0.18
141
0.09
142
0.0
143
25.4
144
1.0
145
0.0
146
1.0
147
0.09
 71
     0
 72
     0
 73
     1
 74
     1
 75
     0
 76
     0
 77
     0
 78
     0
170
     0
171
     2
172
     0
173
     0
174
     0
175
     0
176
     0
177
     0
178
     0
270
     2
271
     4
272
     4
273
     2
274
     2
340
17
275
     0
280
     0
281
     0
282
     0
283
     1
284
     0
285
     0
286
     0
287
     0
288
     0
  0
ENDTAB
  0
TABLE
  2
BLOCK_RECORD
  5
1
100
AcDbSymbolTable
 70
     1
  0
BLOCK_RECORD
  5
A
100
AcDbSymbolTableRecord
100
AcDbBlockTableRecord
  2
*MODEL_SPACE
  0
BLOCK_RECORD
  5
B
100
AcDbSymbolTableRecord
100
AcDbBlockTableRecord
  2
*PAPER_SPACE
  0
BLOCK_RECORD
  5
27E
102
{ACAD_XDICTIONARY
360
34A0022400000061
102
}
100
AcDbSymbolTableRecord
100
AcDbBlockTableRecord
  2
LDR
  0
ENDTAB
  0
ENDSEC
  0
SECTION
  2
BLOCKS
  0
BLOCK
  5
D
100
AcDbEntity
  8
0
100
AcDbBlockBegin
  2
*MODEL_SPACE
 70
     0
 10
0.0
 20
0.0
 30
0.0
  3
*MODEL_SPACE
  1

  0
ENDBLK
  5
E
100
AcDbEntity
  8
0
100
AcDbBlockEnd
  0
BLOCK
  5
F
100
AcDbEntity
 67
     1
  8
0
100
AcDbBlockBegin
  2
*PAPER_SPACE
 70
     0
 10
0.0
 20
0.0
 30
0.0
  3
*PAPER_SPACE
  1

  0
ENDBLK
  5
10
100
AcDbEntity
 67
     1
  8
0
100
AcDbBlockEnd
  0
BLOCK
  5
27F
100
AcDbEntity
  8
1
  6
CONTINUOUS
 62
     1
100
AcDbBlockBegin
  2
LDR
 70
     0
 10
0.0
 20
0.0
 30
0.0
  3
LNR
  1

  0
ELLIPSE
  5
280
100
AcDbEntity
  8
1
  6
CONTINUOUS
 62
     1
100
AcDbEllipse
 10
-0.005456
 20
-0.001381
 30
0.0
 11
0.0089285004623472
 21
0.0007807500129699
 31
0.0
210
0.0
220
0.0
230
1.0
 40
0.122415
 41
0.8963533496766982
 42
3.1415926535897931
  0
ELLIPSE
  5
281
100
AcDbEntity
  8
1
  6
CONTINUOUS
 62
     1
100
AcDbEllipse
 10
-0.005603
 20
0.001058
 30
0.0
 11
0.0087822506056358
 21
-0.0008782502048316
 31
0.0
210
0.0
220
0.0
230
1.0
 40
0.07063
 41
3.1407147529760402
 42
5.4181099545465106
  0
ENDBLK
  5
282
100
AcDbEntity
  8
1
  6
CONTINUOUS
 62
     1
100
AcDbBlockEnd
  0
ENDSEC
  0
SECTION
  2
ENTITIES
  0
TEXT
  5
2C
100
AcDbEntity
  8
61
  6
CONTINUOUS
 62
     7
100
AcDbText
 10
695.6941
 20
399.0132
 30
0.0
 40
2.881584
  1
     
 41
1.001399
  7
MONOTXT
210
0.0
220
0.0
230
1.0
100
AcDbText
  0
TEXT
  5
2E
100
AcDbEntity
  8
1
  6
CONTINUOUS
 62
     1
100
AcDbText
 10
521.586
 20
-17.242
 30
0.0
 40
2.400048
  1
03-00-73
  7
MONOTXT
 72
     1
 11
530.3263
 21
-14.842
 31
0.0
210
0.0
220
0.0
230
1.0
100
AcDbText
 73
     3
  0
TEXT
  5
2F
100
AcDbEntity
  8
1
  6
CONTINUOUS
 62
     1
100
AcDbText
 10
521.7187
 20
-22.6787
 30
0.0
 40
2.400048
  1
06-00-74
  7
MONOTXT
 72
     1
 11
530.459
 21
-20.2787
 31
0.0
210
0.0
220
0.0
230
1.0
100
AcDbText
 73
     3
  0
TEXT
  5
30
100
AcDbEntity
  8
1
  6
CONTINUOUS
 62
     1
100
AcDbText
 10
521.8427
 20
-28.5856
 30
0.0
 40
2.400048
  1
04-22-75
  7
MONOTXT
 72
     1
 11
530.6397
 21
-26.1856
 31
0.0
210
0.0
220
0.0
230
1.0
100
AcDbText
 73
     3
  0
TEXT
  5
31
100
AcDbEntity
  8
1
  6
CONTINUOUS
 62
     1
100
AcDbText
 10
522.4309
 20
-34.1791
 30
0.0
 40
2.400048
  1
11-23-77
  7
MONOTXT
 72
     1
 11
530.1601
 21
-31.7791
 31
0.0
210
0.0
220
0.0
230
1.0
100
AcDbText
 73
     3
  0
TEXT
  5
32
100
AcDbEntity
  8
1
  6
CONTINUOUS
 62
     1
100
AcDbText
 10
523.1405
 20
-40.0125
 30
0.0
 40
2.400048
  1
11-10-81
  7
MONOTXT
 72
     1
 11
529.8115
 21
-37.6125
 31
0.0
210
0.0
220
0.0
230
1.0
100
AcDbText
 73
     3
  0
TEXT
  5
33
100
AcDbEntity
  8
1
  6
CONTINUOUS
 62
     1
100
AcDbText
 10
521.2915
 20
-45.8588
 30
0.0
 40
2.400048
  1
09-05-84
  7
MONOTXT
 72
     1
 11
530.0129
 21
-43.4588
 31
0.0
210
0.0
220
0.0
230
1.0
100
AcDbText
 73
     3
  0
TEXT
  5
34
100
AcDbEntity
  8
1
  6
CONTINUOUS
 62
     1
100
AcDbText
 10
522.2487
 20
-51.6922
 30
0.0
 40
2.400048
  1
12-10-92
  7
MONOTXT
 72
     1
 11
529.8929
 21
-49.2922
 31
0.0
210
0.0
220
0.0
230
1.0
100
AcDbText
 73
     3
  0
TEXT
  5
35
100
AcDbEntity
  8
1
  6
CONTINUOUS
 62
     1
100
AcDbText
 10
516.7261
 20
-44.9628
 30
0.0
 40
2.400048
  1
        
  7
MONOTXT
 72
     1
 11
525.9263
 21
-42.5628
 31
0.0
210
0.0
220
0.0
230
1.0
100
AcDbText
 73
     3
  0
TEXT
  5
36
100
AcDbEntity
  8
1
  6
CONTINUOUS
 62
     1
100
AcDbText
 10
516.7261
 20
-49.7868
 30
0.0
 40
2.400048
  1
        
  7
MONOTXT
 72
     1
 11
525.9263
 21
-47.3868
 31
0.0
210
0.0
220
0.0
230
1.0
100
AcDbText
 73
     3
  0
TEXT
  5
38
100
AcDbEntity
  8
1
  6
CONTINUOUS
 62
     7
100
AcDbText
 10
560.1589
 20
11.9548
 30
0.0
 40
8.3912
  1
PAVEMENT MARKERS
  7
TXT
 72
     1
 11
620.2971
 21
20.346
 31
0.0
210
0.0
220
0.0
230
1.0
100
AcDbText
 73
     3
  0
TEXT
  5
39
100
AcDbEntity
  8
1
  6
CONTINUOUS
 62
     7
100
AcDbText
 10
559.7595
 20
0.4534
 30
0.0
 40
8.3912
  1
TYPES "P", "R" & "C"
  7
TXT
 72
     1
 11
620.4953
 21
8.8446
 31
0.0
210
0.0
220
0.0
230
1.0
100
AcDbText
 73
     3
  0
LWPOLYLINE
  5
3A
100
AcDbEntity
  8
1
  6
CONTINUOUS
 62
     7
100
AcDbPolyline
 90
        4
 70
     0
 10
510.6272
 20
62.0617
 10
508.6272
 20
58.5976
 10
512.6272
 20
58.5976
 10
510.6272
 20
62.0617
  0
LWPOLYLINE
  5
3B
100
AcDbEntity
  8
1
  6
CONTINUOUS
 62
     7
100
AcDbPolyline
 90
        4
 70
     0
 10
510.8254
 20
67.4158
 10
508.8254
 20
63.9517
 10
512.8254
 20
63.9517
 10
510.8254
 20
67.4158
  0
LWPOLYLINE
  5
3C
100
AcDbEntity
  8
1
  6
CONTINUOUS
 62
     7
100
AcDbPolyline
 90
        4
 70
     0
 10
510.8254
 20
72.7699
 10
508.8254
 20
69.3058
 10
512.8254
 20
69.3058
 10
510.8254
 20
72.7699
  0
LWPOLYLINE
  5
3D
100
AcDbEntity
  8
1
  6
CONTINUOUS
 62
     7
100
AcDbPolyline
 90
        4
 70
     0
 10
511.0237
 20
77.9257
 10
509.0237
 20
74.4616
 10
513.0237
 20
74.4616
 10
511.0237
 20
77.9257
  0
LWPOLYLINE
  5
3E
100
AcDbEntity
  8
1
  6
CONTINUOUS
 62
     7
100
AcDbPolyline
 90
        4
 70
     0
 10
514.3425
 20
-31.1691
 10
512.3425
 20
-34.6332
 10
516.3425
 20
-34.6332
 10
514.3425
 20
-31.1691
  0
LWPOLYLINE
  5
3F
100
AcDbEntity
  8
1
  6
CONTINUOUS
 62
     7
100
AcDbPolyline
 90
        4
 70
     0
 10
514.384
 20
-36.8366
 10
512.384
 20
-40.3007
 10
516.384
 20
-40.3007
 10
514.384
 20
-36.8366
  0
LWPOLYLINE
  5
40
100
AcDbEntity
  8
1
  6
CONTINUOUS
 62
     7
100
AcDbPolyline
 90
        4
 70
     0
 10
514.384
 20
-42.661
 10
512.384
 20
-46.1251
 10
516.384
 20
-46.1251
 10
514.384
 20
-42.661
  0
TEXT
  5
41
100
AcDbEntity
  8
1
  6
CONTINUOUS
 62
     7
100
AcDbText
 10
510.7452
 20
75.1518
 30
0.0
 40
1.5
  1
1
  7
MONOTXT
210
0.0
220
0.0
230
1.0
100
AcDbText
  0
TEXT
  5
42
100
AcDbEntity
  8
1
  6
CONTINUOUS
 62
     7
100
AcDbText
 10
510.3201
 20
69.801
 30
0.0
 40
1.5
  1
2
  7
MONOTXT
210
0.0
220
0.0
230
1.0
100
AcDbText
  0
TEXT
  5
43
100
AcDbEntity
  8
1
  6
CONTINUOUS
 62
     7
100
AcDbText
 10
510.3201
 20
64.4501
 30
0.0
 40
1.5
  1
3
  7
MONOTXT
210
0.0
220
0.0
230
1.0
100
AcDbText
  0
TEXT
  5
44
100
AcDbEntity
  8
1
  6
CONTINUOUS
 62
     7
100
AcDbText
 10
510.0013
 20
59.1348
 30
0.0
 40
1.5
  1
4
  7
MONOTXT
210
0.0
220
0.0
230
1.0
100
AcDbText
  0
LWPOLYLINE
  5
45
100
AcDbEntity
  8
1
  6
CONTINUOUS
 62
     7
100
AcDbPolyline
 90
        4
 70
     0
 10
514.2935
 20
-48.4093
 10
512.2935
 20
-51.8734
 10
516.2935
 20
-51.8734
 10
514.2935
 20
-48.4093
  0
TEXT
  5
46
100
AcDbEntity
  8
1
  6
CONTINUOUS
 62
     7
100
AcDbText
 10
514.0158
 20
-34.0373
 30
0.0
 40
1.5
  1
1
  7
MONOTXT
210
0.0
220
0.0
230
1.0
100
AcDbText
  0
TEXT
  5
47
100
AcDbEntity
  8
1
  6
CONTINUOUS
 62
     7
100
AcDbText
 10
513.8591
 20
-39.7403
 30
0.0
 40
1.5
  1
2
  7
MONOTXT
210
0.0
220
0.0
230
1.0
100
AcDbText
  0
TEXT
  5
48
100
AcDbEntity
  8
1
  6
CONTINUOUS
 62
     7
100
AcDbText
 10
513.8139
 20
-45.6455
 30
0.0
 40
1.5
  1
3
  7
MONOTXT
210
0.0
220
0.0
230
1.0
100
AcDbText
  0
TEXT
  5
49
100
AcDbEntity
  8
1
  6
CONTINUOUS
 62
     7
100
AcDbText
 10
513.7233
 20
-51.2579
 30
0.0
 40
1.5
  1
4
  7
MONOTXT
210
0.0
220
0.0
230
1.0
100
AcDbText
  0
TEXT
  5
4A
100
AcDbEntity
  8
1
  6
CONTINUOUS
 62
     7
100
AcDbText
 10
514.511
 20
75.4029
 30
0.0
 40
2.0
  1
ADDED TYPE P-2 MARKERS
  7
MONOTXT
210
0.0
220
0.0
230
1.0
100
AcDbText
  0
TEXT
  5
4B
100
AcDbEntity
  8
1
  6
CONTINUOUS
 62
     7
100
AcDbText
 10
514.7429
 20
70.1826
 30
0.0
 40
2.0
  1
REVISED P-2 DIMENSIONS
  7
MONOTXT
210
0.0
220
0.0
230
1.0
100
AcDbText
  0
TEXT
  5
4C
100
AcDbEntity
  8
1
  6
CONTINUOUS
 62
     7
100
AcDbText
 10
514.6269
 20
64.7303
 30
0.0
 40
2.0
  1
REVISED P-2, R-4, C-4, C-8 MARKERS
  7
MONOTXT
210
0.0
220
0.0
230
1.0
100
AcDbText
  0
TEXT
  5
4D
100
AcDbEntity
  8
1
  6
CONTINUOUS
 62
     7
100
AcDbText
 10
514.6269
 20
59.394
 30
0.0
 40
2.0
  1
REVISED P-2, ADDED C-6
  7
MONOTXT
210
0.0
220
0.0
230
1.0
100
AcDbText
  0
LINE
  5
4E
100
AcDbEntity
  8
1
  6
CONTINUOUS
 62
    52
100
AcDbLine
 10
27.6174
 20
415.6864
 30
0.0
 11
27.6174
 21
277.6864
 31
0.0
  0
LINE
  5
4F
100
AcDbEntity
  8
1
  6
CONTINUOUS
 62
    52
100
AcDbLine
 10
95.4174
 20
415.6864
 30
0.0
 11
95.4174
 21
277.6864
 31
0.0
  0
LINE
  5
50
100
AcDbEntity
  8
1
  6
CONTINUOUS
 62
    52
100
AcDbLine
 10
27.6174
 20
415.6864
 30
0.0
 11
37.2174
 21
415.6864
 31
0.0
  0
LINE
  5
51
100
AcDbEntity
  8
1
  6
CONTINUOUS
 62
    52
100
AcDbLine
 10
85.8174
 20
415.6864
 30
0.0
 11
95.4174
 21
415.6864
 31
0.0
  0
LINE
  5
52
100
AcDbEntity
  8
1
  6
CONTINUOUS
 62
    52
100
AcDbLine
 10
27.6174
 20
277.6864
 30
0.0
 11
37.2174
 21
277.6864
 31
0.0
  0
LINE
  5
53
100
AcDbEntity
  8
1
  6
CONTINUOUS
 62
    52
100
AcDbLine
 10
85.8174
 20
277.6864
 30
0.0
 11
95.4174
 21
277.6864
 31
0.0
  0
LINE
  5
54
100
AcDbEntity
  8
1
  6
CONTINUOUS
 62
    52
100
AcDbLine
 10
36.6174
 20
348.7864
 30
0.0
 11
86.4174
 21
348.7864
 31
0.0
  0
LINE
  5
55
100
AcDbEntity
  8
1
  6
CONTINUOUS
 62
    52
100
AcDbLine
 10
36.6174
 20
344.5864
 30
0.0
 11
86.4174
 21
344.5864
 31
0.0
  0
LINE
  5
56
100
AcDbEntity
  8
1
  6
CONTINUOUS
 62
    52
100
AcDbLine
 10
36.6174
 20
354.7864
 30
0.0
 11
86.4174
 21
354.7864
 31
0.0
  0
LINE
  5
57
100
AcDbEntity
  8
1
  6
CONTINUOUS
 62
    52
100
AcDbLine
 10
36.6174
 20
338.5864
 30
0.0
 11
86.4174
 21
338.5864
 31
0.0
  0
LINE
  5
58
100
AcDbEntity
  8
1
  6
CONTINUOUS
 62
    52
100
AcDbLine
 10
37.8174
 20
356.5864
 30
0.0
 11
85.2174
 21
356.5864
 31
0.0
  0
LINE
  5
59
100
AcDbEntity
  8
1
  6
CONTINUOUS
 62
    52
100
AcDbLine
 10
37.8174
 20
336.7864
 30
0.0
 11
85.2174
 21
336.7864
 31
0.0
  0
LINE
  5
5A
100
AcDbEntity
  8
1
  6
CONTINUOUS
 62
    52
100
AcDbLine
 10
34.4804
 20
358.3864
 30
0.0
 11
88.5928
 21
358.3864
 31
0.0
  0
LINE
  5
5B
100
AcDbEntity
  8
1
  6
CONTINUOUS
 62
    52
100
AcDbLine
 10
34.49
 20
334.9864
 30
0.0
 11
88.5589
 21
334.9864
 31
0.0
  0
LINE
  5
5C
100
AcDbEntity
  8
1
  6
CONTINUOUS
 62
    52
100
AcDbLine
 10
34.8174
 20
355.9864
 30
0.0
 11
34.8174
 21
337.3864
 31
0.0
  0
LINE
  5
5D
100
AcDbEntity
  8
1
  6
CONTINUOUS
 62
    52
100
AcDbLine
 10
34.2174
 20
357.7864
 30
0.0
 11
34.2174
 21
335.5864
 31
0.0
  0
LINE
  5
5E
100
AcDbEntity
  8
1
  6
CONTINUOUS
 62
    52
100
AcDbLine
 10
37.2174
 20
415.6864
 30
0.0
 11
37.2174
 21
358.3864
 31
0.0
  0
LINE
  5
5F
100
AcDbEntity
  8
1
  6
CONTINUOUS
 62
    52
100
AcDbLine
 10
37.2174
 20
334.9864
 30
0.0
 11
37.2174
 21
277.6864
 31
0.0
  0
LINE
  5
60
100
AcDbEntity
  8
1
  6
CONTINUOUS
 62
    52
100
AcDbLine
 10
85.8174
 20
415.6864
 30
0.0
 11
85.8174
 21
358.3864
 31
0.0
  0
LINE
  5
61
100
AcDbEntity
  8
1
  6
CONTINUOUS
 62
    52
100
AcDbLine
 10
85.8174
 20
334.9864
 30
0.0
 11
85.8174
 21
277.6864
 31
0.0
  0
ARC
  5
62
100
AcDbEntity
  8
1
  6
CONTINUOUS
 62
    52
100
AcDbCircle
 10
3.117076
 20
371.778135
 30
0.0
 40
34.102768
210
0.0
220
0.0
230
1.0
100
AcDbArc
 50
335.777483
 51
0.685942
  0
ARC
  5
63
100
AcDbEntity
  8
1
  6
CONTINUOUS
 62
    52
100
AcDbCircle
 10
5.143516
 20
322.01684
 30
0.0
 40
32.084633
210
0.0
220
0.0
230
1.0
100
AcDbArc
 50
358.516858
 51
25.019722
  0
ARC
  5
64
100
AcDbEntity
  8
1
  6
CONTINUOUS
 62
    52
100
AcDbCircle
 10
37.2174
 20
355.9864
 30
0.0
 40
2.4
210
0.0
220
0.0
230
1.0
100
AcDbArc
 50
90.0
 51
180.0
  0
ARC
  5
65
100
AcDbEntity
  8
1
  6
CONTINUOUS
 62
    52
100
AcDbCircle
 10
37.2174
 20
337.3864
 30
0.0
 40
2.4
210
0.0
220
0.0
230
1.0
100
AcDbArc
 50
180.0
 51
270.0
  0
LINE
  5
66
100
AcDbEntity
  8
1
  6
CONTINUOUS
 62
    52
100
AcDbLine
 10
36.6174
 20
355.3864
 30
0.0
 11
36.6174
 21
337.9864
 31
0.0
  0
LINE
  5
67
100
AcDbEntity
  8
1
  6
CONTINUOUS
 62
    52
100
AcDbLine
 10
86.4174
 20
355.3864
 30
0.0
 11
86.4174
 21
337.9864
 31
0.0
  0
LINE
  5
68
100
AcDbEntity
  8
1
  6
CONTINUOUS
 62
    52
100
AcDbLine
 10
88.2174
 20
355.9864
 30
0.0
 11
88.2174
 21
337.3864
 31
0.0
  0
LINE
  5
69
100
AcDbEntity
  8
1
  6
CONTINUOUS
 62
    52
100
AcDbLine
 10
88.8174
 20
357.7864
 30
0.0
 11
88.8174
 21
335.5864
 31
0.0
  0
ARC
  5
6A
100
AcDbEntity
  8
1
  6
CONTINUOUS
 62
    52
100
AcDbCircle
 10
131.99688
 20
374.294626
 30
0.0
 40
46.227579
210
0.0
220
0.0
230
1.0
100
AcDbArc
 50
182.6139
 51
200.922678
  0
ARC
  5
6B
100
AcDbEntity
  8
1
  6
CONTINUOUS
 62
    52
100
AcDbCircle
 10
120.988758
 20
321.371533
 30
0.0
 40
35.171845
210
0.0
220
0.0
230
1.0
100
AcDbArc
 50
156.161833
 51
180.301589
  0
ARC
  5
6C
100
AcDbEntity
  8
1
  6
CONTINUOUS
 62
    52
100
AcDbCircle
 10
85.8174
 20
355.9864
 30
0.0
 40
2.4
210
0.0
220
0.0
230
1.0
100
AcDbArc
 50
0.0
 51
90.0
  0
ARC
  5
6D
100
AcDbEntity
  8
1
  6
CONTINUOUS
 62
    52
100
AcDbCircle
 10
85.8174
 20
337.3864
 30
0.0
 40
2.4
210
0.0
220
0.0
230
1.0
100
AcDbArc
 50
270.0
 51
0.0
  0
LINE
  5
6E
100
AcDbEntity
  8
1
  6
CONTINUOUS
 62
    52
100
AcDbLine
 10
36.6174
 20
354.7864
 30
0.0
 11
47.6778
 21
351.1483
 31
0.0
  0
LINE
  5
6F
100
AcDbEntity
  8
1
  6
CONTINUOUS
 62
    52
100
AcDbLine
 10
43.9089
 20
352.8477
 30
0.0
 11
50.0597
 21
350.8245
 31
0.0
  0
LINE
  5
70
100
AcDbEntity
  8
1
  6
CONTINUOUS
 62
    52
100
AcDbLine
 10
41.0388
 20
352.8488
 30
0.0
 11
42.9744
 21
352.2121
 31
0.0
  0
LINE
  5
71
100
AcDbEntity
  8
1
  6
CONTINUOUS
 62
    52
100
AcDbLine
 10
36.6174
 20
338.5864
 30
0.0
 11
47.6778
 21
342.2245
 31
0.0
  0
LINE
  5
72
100
AcDbEntity
  8
1
  6
CONTINUOUS
 62
    52
100
AcDbLine
 10
43.9089
 20
340.5251
 30
0.0
 11
50.0597
 21
342.5483
 31
0.0
  0
LINE
  5
73
100
AcDbEntity
  8
1
  6
CONTINUOUS
 62
    52
100
AcDbLine
 10
41.0388
 20
340.524
 30
0.0
 11
42.9744
 21
341.1607
 31
0.0
  0
LINE
  5
74
100
AcDbEntity
  8
1
  6
CONTINUOUS
 62
    52
100
AcDbLine
 10
86.4174
 20
348.7864
 30
0.0
 11
70.9336
 21
354.7929
 31
0.0
  0
LINE
  5
75
100
AcDbEntity
  8
1
  6
CONTINUOUS
 62
    52
100
AcDbLine
 10
86.5305
 20
349.0779
 30
0.0
 11
77.6532
 21
352.5216
 31
0.0
  0
LINE
  5
76
100
AcDbEntity
  8
1
  6
CONTINUOUS
 62
    52
100
AcDbLine
 10
86.4174
 20
349.7352
 30
0.0
 11
80.6117
 21
351.9874
 31
0.0
  0
LINE
  5
77
100
AcDbEntity
  8
1
  6
CONTINUOUS
 62
    52
100
AcDbLine
 10
79.0321
 20
351.3748
 30
0.0
 11
74.7316
 21
353.0431
 31
0.0
  0
LINE
  5
78
100
AcDbEntity
  8
1
  6
CONTINUOUS
 62
    52
100
AcDbLine
 10
86.4174
 20
344.5864
 30
0.0
 11
70.9336
 21
338.5799
 31
0.0
  0
LINE
  5
79
100
AcDbEntity
  8
1
  6
CONTINUOUS
 62
    52
100
AcDbLine
 10
86.5305
 20
344.2949
 30
0.0
 11
77.6532
 21
340.8512
 31
0.0
  0
LINE
  5
7A
100
AcDbEntity
  8
1
  6
CONTINUOUS
 62
    52
100
AcDbLine
 10
86.4174
 20
343.6376
 30
0.0
 11
80.6117
 21
341.3854
 31
0.0
  0
LINE
  5
7B
100
AcDbEntity
  8
1
  6
CONTINUOUS
 62
    52
100
AcDbLine
 10
79.0321
 20
341.998
 30
0.0
 11
74.7316
 21
340.3297
 31
0.0
  0
LINE
  5
7C
100
AcDbEntity
  8
1
  6
CONTINUOUS
 62
    52
100
AcDbLine
 10
23.4174
 20
381.4864
 30
0.0
 11
23.4174
 21
370.0864
 31
0.0
  0
LINE
  5
7D
100
AcDbEntity
  8
1
  6
CONTINUOUS
 62
    52
100
AcDbLine
 10
23.4174
 20
323.2864
 30
0.0
 11
23.4174
 21
311.8864
 31
0.0
  0
LINE
  5
7E
100
AcDbEntity
  8
1
  6
CONTINUOUS
 62
    52
100
AcDbLine
 10
99.6174
 20
381.4864
 30
0.0
 11
99.6174
 21
370.0864
 31
0.0
  0
LINE
  5
7F
100
AcDbEntity
  8
1
  6
CONTINUOUS
 62
    52
100
AcDbLine
 10
99.6174
 20
323.2864
 30
0.0
 11
99.6174
 21
311.8864
 31
0.0
  0
ARC
  5
80
100
AcDbEntity
  8
1
  6
CONTINUOUS
 62
    52
100
AcDbCircle
 10
19.970653
 20
388.500537
 30
0.0
 40
7.815253
210
0.0
220
0.0
230
1.0
100
AcDbArc
 50
296.169503
 51
348.080525
  0
ARC
  5
81
100
AcDbEntity
  8
1
  6
CONTINUOUS
 62
    52
100
AcDbCircle
 10
-81.322833
 20
323.137422
 30
0.0
 40
114.781196
210
0.0
220
0.0
230
1.0
100
AcDbArc
 50
18.357078
 51
24.143928
  0
ARC
  5
82
100
AcDbEntity
  8
1
  6
CONTINUOUS
 62
    52
100
AcDbCircle
 10
103.064147
 20
388.500537
 30
0.0
 40
7.815253
210
0.0
220
0.0
230
1.0
100
AcDbArc
 50
191.919475
 51
243.830497
  0
ARC
  5
83
100
AcDbEntity
  8
1
  6
CONTINUOUS
 62
    52
100
AcDbCircle
 10
204.357633
 20
323.137422
 30
0.0
 40
114.781196
210
0.0
220
0.0
230
1.0
100
AcDbArc
 50
155.856072
 51
161.642922
  0
ARC
  5
84
100
AcDbEntity
  8
1
  6
CONTINUOUS
 62
    52
100
AcDbCircle
 10
19.970653
 20
304.872263
 30
0.0
 40
7.815253
210
0.0
220
0.0
230
1.0
100
AcDbArc
 50
11.919475
 51
63.830497
  0
ARC
  5
85
100
AcDbEntity
  8
1
  6
CONTINUOUS
 62
    52
100
AcDbCircle
 10
103.064147
 20
304.872263
 30
0.0
 40
7.815253
210
0.0
220
0.0
230
1.0
100
AcDbArc
 50
116.169503
 51
168.080525
  0
ARC
  5
86
100
AcDbEntity
  8
1
  6
CONTINUOUS
 62
    52
100
AcDbCircle
 10
-81.322833
 20
370.235378
 30
0.0
 40
114.781196
210
0.0
220
0.0
230
1.0
100
AcDbArc
 50
335.856072
 51
341.642922
  0
ARC
  5
87
100
AcDbEntity
  8
1
  6
CONTINUOUS
 62
    52
100
AcDbCircle
 10
204.357633
 20
370.235378
 30
0.0
 40
114.781196
210
0.0
220
0.0
230
1.0
100
AcDbArc
 50
198.357078
 51
204.143928
  0
LINE
  5
88
100
AcDbEntity
  8
1
  6
CONTINUOUS
 62
    52
100
AcDbLine
 10
44.4174
 20
381.7864
 30
0.0
 11
78.6174
 21
381.7864
 31
0.0
  0
LINE
  5
89
100
AcDbEntity
  8
1
  6
CONTINUOUS
 62
    52
100
AcDbLine
 10
44.4174
 20
311.5864
 30
0.0
 11
78.6174
 21
311.5864
 31
0.0
  0
ARC
  5
8A
100
AcDbEntity
  8
1
  6
CONTINUOUS
 62
    52
100
AcDbCircle
 10
43.840131
 20
388.603785
 30
0.0
 40
6.841782
210
0.0
220
0.0
230
1.0
100
AcDbArc
 50
194.537542
 51
274.840036
  0
ARC
  5
8B
100
AcDbEntity
  8
1
  6
CONTINUOUS
 62
    52
100
AcDbCircle
 10
79.194669
 20
388.603785
 30
0.0
 40
6.841782
210
0.0
220
0.0
230
1.0
100
AcDbArc
 50
265.159964
 51
345.462458
  0
ARC
  5
8C
100
AcDbEntity
  8
1
  6
CONTINUOUS
 62
    52
100
AcDbCircle
 10
43.840131
 20
304.769015
 30
0.0
 40
6.841782
210
0.0
220
0.0
230
1.0
100
AcDbArc
 50
85.159964
 51
165.462458
  0
ARC
  5
8D
100
AcDbEntity
  8
1
  6
CONTINUOUS
 62
    52
100
AcDbCircle
 10
79.194669
 20
304.769015
 30
0.0
 40
6.841782
210
0.0
220
0.0
230
1.0
100
AcDbArc
 50
14.537542
 51
94.840036
  0
LINE
  5
8E
100
AcDbEntity
  8
1
  6
CONTINUOUS
 62
    52
100
AcDbLine
 10
37.2174
 20
363.7864
 30
0.0
 11
44.4174
 21
363.7864
 31
0.0
  0
LINE
  5
8F
100
AcDbEntity
  8
1
  6
CONTINUOUS
 62
    52
100
AcDbLine
 10
44.4174
 20
363.7864
 30
0.0
 11
44.4174
 21
358.3864
 31
0.0
  0
LINE
  5
90
100
AcDbEntity
  8
1
  6
CONTINUOUS
 62
    52
100
AcDbLine
 10
85.8174
 20
363.7864
 30
0.0
 11
78.6174
 21
363.7864
 31
0.0
  0
LINE
  5
91
100
AcDbEntity
  8
1
  6
CONTINUOUS
 62
    52
100
AcDbLine
 10
78.6174
 20
363.7864
 30
0.0
 11
78.6174
 21
358.3864
 31
0.0
  0
LINE
  5
92
100
AcDbEntity
  8
1
  6
CONTINUOUS
 62
    52
100
AcDbLine
 10
37.2174
 20
329.5864
 30
0.0
 11
44.4174
 21
329.5864
 31
0.0
  0
LINE
  5
93
100
AcDbEntity
  8
1
  6
CONTINUOUS
 62
    52
100
AcDbLine
 10
44.4174
 20
329.5864
 30
0.0
 11
44.4174
 21
334.9864
 31
0.0
  0
LINE
  5
94
100
AcDbEntity
  8
1
  6
CONTINUOUS
 62
    52
100
AcDbLine
 10
85.8174
 20
329.5864
 30
0.0
 11
78.6174
 21
329.5864
 31
0.0
  0
LINE
  5
95
100
AcDbEntity
  8
1
  6
CONTINUOUS
 62
    52
100
AcDbLine
 10
78.6174
 20
329.5864
 30
0.0
 11
78.6174
 21
334.9864
 31
0.0
  0
LINE
  5
96
100
AcDbEntity
  8
1
  6
CONTINUOUS
 62
    52
100
AcDbLine
 10
44.4174
 20
358.6864
 30
0.0
 11
78.6174
 21
358.6864
 31
0.0
  0
LINE
  5
97
100
AcDbEntity
  8
1
  6
CONTINUOUS
 62
    52
100
AcDbLine
 10
44.4174
 20
334.6864
 30
0.0
 11
78.6174
 21
334.6864
 31
0.0
  0
LINE
  5
98
100
AcDbEntity
  8
1
  6
CONTINUOUS
 62
    52
100
AcDbLine
 10
27.6174
 20
280.6864
 30
0.0
 11
37.2174
 21
280.6864
 31
0.0
  0
LINE
  5
99
100
AcDbEntity
  8
1
  6
CONTINUOUS
 62
    52
100
AcDbLine
 10
85.8174
 20
280.6864
 30
0.0
 11
95.4174
 21
280.6864
 31
0.0
  0
LINE
  5
9A
100
AcDbEntity
  8
1
  6
CONTINUOUS
 62
    52
100
AcDbLine
 10
27.6174
 20
412.6864
 30
0.0
 11
37.2174
 21
412.6864
 31
0.0
  0
LINE
  5
9B
100
AcDbEntity
  8
1
  6
CONTINUOUS
 62
    52
100
AcDbLine
 10
85.8174
 20
412.6864
 30
0.0
 11
95.4174
 21
412.6864
 31
0.0
  0
LINE
  5
9C
100
AcDbEntity
  8
1
  6
CONTINUOUS
 62
    52
100
AcDbLine
 10
27.6174
 20
407.8864
 30
0.0
 11
37.2174
 21
407.8864
 31
0.0
  0
LINE
  5
9D
100
AcDbEntity
  8
1
  6
CONTINUOUS
 62
    52
100
AcDbLine
 10
85.8174
 20
407.8864
 30
0.0
 11
95.4174
 21
407.8864
 31
0.0
  0
LINE
  5
9E
100
AcDbEntity
  8
1
  6
CONTINUOUS
 62
    52
100
AcDbLine
 10
27.6174
 20
285.4864
 30
0.0
 11
37.2174
 21
285.4864
 31
0.0
  0
LINE
  5
9F
100
AcDbEntity
  8
1
  6
CONTINUOUS
 62
    52
100
AcDbLine
 10
85.8174
 20
285.4864
 30
0.0
 11
95.4174
 21
285.4864
 31
0.0
  0
LINE
  5
A0
100
AcDbEntity
  8
1
  6
CONTINUOUS
 62
     7
100
AcDbLine
 10
22.8174
 20
346.6864
 30
0.0
 11
13.2174
 21
346.6864
 31
0.0
  0
LINE
  5
A1
100
AcDbEntity
  8
1
  6
CONTINUOUS
 62
     7
100
AcDbLine
 10
25.8174
 20
346.6864
 30
0.0
 11
29.4174
 21
346.6864
 31
0.0
  0
LINE
  5
A2
100
AcDbEntity
  8
1
  6
CONTINUOUS
 62
     7
100
AcDbLine
 10
59.7174
 20
346.6864
 30
0.0
 11
63.3174
 21
346.6864
 31
0.0
  0
LINE
  5
A3
100
AcDbEntity
  8
1
  6
CONTINUOUS
 62
     7
100
AcDbLine
 10
66.3174
 20
346.6864
 30
0.0
 11
105.0174
 21
346.6864
 31
0.0
  0
LINE
  5
A4
100
AcDbEntity
  8
1
  6
CONTINUOUS
 62
     7
100
AcDbLine
 10
32.4174
 20
346.6864
 30
0.0
 11
56.7174
 21
346.6864
 31
0.0
  0
LINE
  5
A5
100
AcDbEntity
  8
1
  6
CONTINUOUS
 62
     7
100
AcDbLine
 10
108.0174
 20
346.6864
 30
0.0
 11
111.6174
 21
346.6864
 31
0.0
  0
LINE
  5
A6
100
AcDbEntity
  8
1
  6
CONTINUOUS
 62
     7
100
AcDbLine
 10
59.7174
 20
346.6864
 30
0.0
 11
63.3174
 21
346.6864
 31
0.0
  0
LINE
  5
A7
100
AcDbEntity
  8
1
  6
CONTINUOUS
 62
    52
100
AcDbLine
 10
36.6174
 20
355.3864
 30
0.0
 11
36.6174
 21
358.3102
 31
0.0
  0
LINE
  5
A8
100
AcDbEntity
  8
1
  6
CONTINUOUS
 62
    52
100
AcDbLine
 10
86.4174
 20
355.3864
 30
0.0
 11
86.4174
 21
358.3102
 31
0.0
  0
LINE
  5
A9
100
AcDbEntity
  8
1
  6
CONTINUOUS
 62
    52
100
AcDbLine
 10
36.6174
 20
335.0626
 30
0.0
 11
36.6174
 21
337.9864
 31
0.0
  0
LINE
  5
AA
100
AcDbEntity
  8
1
  6
CONTINUOUS
 62
    52
100
AcDbLine
 10
86.4174
 20
335.0626
 30
0.0
 11
86.4174
 21
337.9864
 31
0.0
  0
ARC
  5
AB
100
AcDbEntity
  8
1
  6
CONTINUOUS
 62
    52
100
AcDbCircle
 10
37.8174
 20
355.3864
 30
0.0
 40
1.2
210
0.0
220
0.0
230
1.0
100
AcDbArc
 50
90.0
 51
180.0
  0
ARC
  5
AC
100
AcDbEntity
  8
1
  6
CONTINUOUS
 62
    52
100
AcDbCircle
 10
37.8174
 20
337.9864
 30
0.0
 40
1.2
210
0.0
220
0.0
230
1.0
100
AcDbArc
 50
180.0
 51
270.0
  0
ARC
  5
AD
100
AcDbEntity
  8
1
  6
CONTINUOUS
 62
    52
100
AcDbCircle
 10
85.2174
 20
355.3864
 30
0.0
 40
1.2
210
0.0
220
0.0
230
1.0
100
AcDbArc
 50
0.0
 51
90.0
  0
ARC
  5
AE
100
AcDbEntity
  8
1
  6
CONTINUOUS
 62
    52
100
AcDbCircle
 10
85.2174
 20
337.9864
 30
0.0
 40
1.2
210
0.0
220
0.0
230
1.0
100
AcDbArc
 50
270.0
 51
0.0
  0
LINE
  5
AF
100
AcDbEntity
  8
1
  6
CONTINUOUS
 62
     7
100
AcDbLine
 10
26.4174
 20
415.6864
 30
0.0
 11
-3.5826
 21
415.6864
 31
0.0
  0
LINE
  5
B0
100
AcDbEntity
  8
1
  6
CONTINUOUS
 62
     7
100
AcDbLine
 10
27.6174
 20
416.8864
 30
0.0
 11
27.6174
 21
433.6864
 31
0.0
  0
LINE
  5
B1
100
AcDbEntity
  8
1
  6
CONTINUOUS
 62
     7
100
AcDbLine
 10
37.2174
 20
416.8864
 30
0.0
 11
37.2174
 21
422.8864
 31
0.0
  0
LINE
  5
B2
100
AcDbEntity
  8
1
  6
CONTINUOUS
 62
     7
100
AcDbLine
 10
85.8174
 20
416.8864
 30
0.0
 11
85.8174
 21
422.8864
 31
0.0
  0
LINE
  5
B3
100
AcDbEntity
  8
1
  6
CONTINUOUS
 62
     7
100
AcDbLine
 10
95.4174
 20
416.8864
 30
0.0
 11
95.4174
 21
433.6864
 31
0.0
  0
LINE
  5
B4
100
AcDbEntity
  8
1
  6
CONTINUOUS
 62
     7
100
AcDbLine
 10
26.4174
 20
277.6864
 30
0.0
 11
-3.5826
 21
277.6864
 31
0.0
  0
LINE
  5
B5
100
AcDbEntity
  8
1
  6
CONTINUOUS
 62
     7
100
AcDbLine
 10
42.0174
 20
283.0864
 30
0.0
 11
37.2174
 21
283.0864
 31
0.0
  0
LINE
  5
B6
100
AcDbEntity
  8
1
  6
CONTINUOUS
 62
     7
100
AcDbLine
 10
27.6174
 20
283.0864
 30
0.0
 11
22.8174
 21
283.0864
 31
0.0
  0
LINE
  5
B7
100
AcDbEntity
  8
1
  6
CONTINUOUS
 62
     7
100
AcDbLine
 10
99.6174
 20
382.6864
 30
0.0
 11
99.6174
 21
393.4864
 31
0.0
  0
LINE
  5
B8
100
AcDbEntity
  8
1
  6
CONTINUOUS
 62
     7
100
AcDbLine
 10
90.6174
 20
392.2864
 30
0.0
 11
95.4174
 21
392.2864
 31
0.0
  0
LINE
  5
B9
100
AcDbEntity
  8
1
  6
CONTINUOUS
 62
     7
100
AcDbLine
 10
99.6174
 20
392.2864
 30
0.0
 11
104.4174
 21
392.2864
 31
0.0
  0
LINE
  5
BA
100
AcDbEntity
  8
1
  6
CONTINUOUS
 62
     7
100
AcDbLine
 10
27.6174
 20
432.4864
 30
0.0
 11
95.4174
 21
432.4864
 31
0.0
  0
LINE
  5
BB
100
AcDbEntity
  8
1
  6
CONTINUOUS
 62
     7
100
AcDbLine
 10
37.2174
 20
421.6864
 30
0.0
 11
85.8174
 21
421.6864
 31
0.0
  0
LINE
  5
BC
100
AcDbEntity
  8
1
  6
CONTINUOUS
 62
     7
100
AcDbLine
 10
-2.3826
 20
415.6864
 30
0.0
 11
-2.3826
 21
277.6864
 31
0.0
  0
LINE
  5
BD
100
AcDbEntity
  8
1
  6
CONTINUOUS
 62
     6
100
AcDbLine
 10
150.9779
 20
415.6864
 30
0.0
 11
153.871
 21
415.6864
 31
0.0
  0
LINE
  5
BE
100
AcDbEntity
  8
1
  6
CONTINUOUS
 62
     6
100
AcDbLine
 10
150.4481
 20
415.3681
 30
0.0
 11
149.2558
 21
413.1256
 31
0.0
  0
LINE
  5
BF
100
AcDbEntity
  8
1
  6
CONTINUOUS
 62
     6
100
AcDbLine
 10
148.8542
 20
411.8119
 30
0.0
 11
143.7845
 21
363.5773
 31
0.0
  0
LINE
  5
C0
100
AcDbEntity
  8
1
  6
CONTINUOUS
 62
     6
100
AcDbLine
 10
154.3906
 20
415.3864
 30
0.0
 11
158.5351
 21
408.208
 31
0.0
  0
LINE
  5
C1
100
AcDbEntity
  8
1
  6
CONTINUOUS
 62
     6
100
AcDbLine
 10
159.0174
 20
406.408
 30
0.0
 11
159.0174
 21
401.0726
 31
0.0
  0
LINE
  5
C2
100
AcDbEntity
  8
1
  6
CONTINUOUS
 62
     6
100
AcDbLine
 10
159.9174
 20
400.1726
 30
0.0
 11
161.1174
 21
400.1726
 31
0.0
  0
LINE
  5
C3
100
AcDbEntity
  8
1
  6
CONTINUOUS
 62
     6
100
AcDbLine
 10
162.0174
 20
399.2726
 30
0.0
 11
162.0174
 21
393.2726
 31
0.0
  0
LINE
  5
C4
100
AcDbEntity
  8
1
  6
CONTINUOUS
 62
     6
100
AcDbLine
 10
162.9174
 20
392.3726
 30
0.0
 11
164.1174
 21
392.3726
 31
0.0
  0
LINE
  5
C5
100
AcDbEntity
  8
1
  6
CONTINUOUS
 62
     6
100
AcDbLine
 10
165.0174
 20
391.4726
 30
0.0
 11
165.0174
 21
381.8726
 31
0.0
  0
LINE
  5
C6
100
AcDbEntity
  8
1
  6
CONTINUOUS
 62
     6
100
AcDbLine
 10
165.9174
 20
380.9726
 30
0.0
 11
167.1174
 21
380.9726
 31
0.0
  0
LINE
  5
C7
100
AcDbEntity
  8
1
  6
CONTINUOUS
 62
     6
100
AcDbLine
 10
168.0174
 20
380.0726
 30
0.0
 11
168.0174
 21
366.2726
 31
0.0
  0
LINE
  5
C8
100
AcDbEntity
  8
1
  6
CONTINUOUS
 62
     6
100
AcDbLine
 10
168.9174
 20
365.3726
 30
0.0
 11
170.1174
 21
365.3726
 31
0.0
  0
LINE
  5
C9
100
AcDbEntity
  8
1
  6
CONTINUOUS
 62
     6
100
AcDbLine
 10
171.0174
 20
364.4726
 30
0.0
 11
171.0174
 21
355.1726
 31
0.0
  0
LINE
  5
CA
100
AcDbEntity
  8
1
  6
CONTINUOUS
 62
     6
100
AcDbLine
 10
171.0174
 20
355.1726
 30
0.0
 11
163.9268
 21
353.9223
 31
0.0
  0
LINE
  5
CB
100
AcDbEntity
  8
1
  6
CONTINUOUS
 62
     6
100
AcDbLine
 10
163.9268
 20
353.9223
 30
0.0
 11
163.9268
 21
346.6864
 31
0.0
  0
LINE
  5
CC
100
AcDbEntity
  8
1
  6
CONTINUOUS
 62
     7
100
AcDbLine
 10
114.6174
 20
346.6864
 30
0.0
 11
187.9268
 21
346.6864
 31
0.0
  0
ARC
  5
CD
100
AcDbEntity
  8
1
  6
CONTINUOUS
 62
     6
100
AcDbCircle
 10
155.4174
 20
406.40802
 30
0.0
 40
3.6
210
0.0
220
0.0
230
1.0
100
AcDbArc
 50
0.0
 51
29.998886
  0
ARC
  5
CE
100
AcDbEntity
  8
1
  6
CONTINUOUS
 62
     6
100
AcDbCircle
 10
150.977909
 20
415.0864
 30
0.0
 40
0.6
210
0.0
220
0.0
230
1.0
100
AcDbArc
 50
90.0
 51
151.999022
  0
ARC
  5
CF
100
AcDbEntity
  8
1
  6
CONTINUOUS
 62
     6
100
AcDbCircle
 10
153.87099
 20
415.0864
 30
0.0
 40
0.6
210
0.0
220
0.0
230
1.0
100
AcDbArc
 50
29.999964
 51
90.0
  0
ARC
  5
D0
100
AcDbEntity
  8
1
  6
CONTINUOUS
 62
     6
100
AcDbCircle
 10
152.434459
 20
411.435677
 30
0.0
 40
3.6
210
0.0
220
0.0
230
1.0
100
AcDbArc
 50
152.002561
 51
174.001119
  0
ARC
  5
D1
100
AcDbEntity
  8
1
  6
CONTINUOUS
 62
     6
100
AcDbCircle
 10
159.9174
 20
401.0726
 30
0.0
 40
0.9
210
0.0
220
0.0
230
1.0
100
AcDbArc
 50
180.0
 51
270.0
  0
ARC
  5
D2
100
AcDbEntity
  8
1
  6
CONTINUOUS
 62
     6
100
AcDbCircle
 10
161.1174
 20
399.2726
 30
0.0
 40
0.9
210
0.0
220
0.0
230
1.0
100
AcDbArc
 50
0.0
 51
90.0
  0
ARC
  5
D3
100
AcDbEntity
  8
1
  6
CONTINUOUS
 62
     6
100
AcDbCircle
 10
162.9174
 20
393.2726
 30
0.0
 40
0.9
210
0.0
220
0.0
230
1.0
100
AcDbArc
 50
180.0
 51
270.0
  0
ARC
  5
D4
100
AcDbEntity
  8
1
  6
CONTINUOUS
 62
     6
100
AcDbCircle
 10
164.1174
 20
391.4726
 30
0.0
 40
0.9
210
0.0
220
0.0
230
1.0
100
AcDbArc
 50
0.0
 51
90.0
  0
ARC
  5
D5
100
AcDbEntity
  8
1
  6
CONTINUOUS
 62
     6
100
AcDbCircle
 10
165.9174
 20
381.8726
 30
0.0
 40
0.9
210
0.0
220
0.0
230
1.0
100
AcDbArc
 50
180.0
 51
270.0
  0
ARC
  5
D6
100
AcDbEntity
  8
1
  6
CONTINUOUS
 62
     6
100
AcDbCircle
 10
167.1174
 20
380.0726
 30
0.0
 40
0.9
210
0.0
220
0.0
230
1.0
100
AcDbArc
 50
0.0
 51
90.0
  0
ARC
  5
D7
100
AcDbEntity
  8
1
  6
CONTINUOUS
 62
     6
100
AcDbCircle
 10
168.9174
 20
366.2726
 30
0.0
 40
0.9
210
0.0
220
0.0
230
1.0
100
AcDbArc
 50
180.0
 51
270.0
  0
ARC
  5
D8
100
AcDbEntity
  8
1
  6
CONTINUOUS
 62
     6
100
AcDbCircle
 10
170.1174
 20
364.4726
 30
0.0
 40
0.9
210
0.0
220
0.0
230
1.0
100
AcDbArc
 50
0.0
 51
90.0
  0
LINE
  5
D9
100
AcDbEntity
  8
1
  6
CONTINUOUS
 62
     6
100
AcDbLine
 10
143.7845
 20
363.5773
 30
0.0
 11
143.7845
 21
346.6864
 31
0.0
  0
LINE
  5
DA
100
AcDbEntity
  8
1
  6
CONTINUOUS
 62
     6
100
AcDbLine
 10
151.5845
 20
358.0863
 30
0.0
 11
151.5845
 21
346.6864
 31
0.0
  0
LINE
  5
DB
100
AcDbEntity
  8
1
  6
CONTINUOUS
 62
     6
100
AcDbLine
 10
151.5845
 20
358.0863
 30
0.0
 11
148.2827
 21
358.3402
 31
0.0
  0
LINE
  5
DC
100
AcDbEntity
  8
1
  6
CONTINUOUS
 62
     6
100
AcDbLine
 10
147.0862
 20
358.4323
 30
0.0
 11
143.7845
 21
358.6864
 31
0.0
  0
LINE
  5
DD
100
AcDbEntity
  8
1
  6
CONTINUOUS
 62
     6
100
AcDbLine
 10
149.4845
 20
359.8864
 30
0.0
 11
149.4845
 21
333.4864
 31
0.0
  0
LINE
  5
DE
100
AcDbEntity
  8
1
  6
CONTINUOUS
 62
     6
100
AcDbLine
 10
171.0174
 20
356.9726
 30
0.0
 11
149.4845
 21
359.8864
 31
0.0
  0
LINE
  5
DF
100
AcDbEntity
  8
1
  6
CONTINUOUS
 62
     6
100
AcDbLine
 10
149.4845
 20
359.8864
 30
0.0
 11
149.4845
 21
385.6864
 31
0.0
  0
LINE
  5
E0
100
AcDbEntity
  8
1
  6
CONTINUOUS
 62
     6
100
AcDbLine
 10
149.4845
 20
385.6864
 30
0.0
 11
165.0174
 21
387.8726
 31
0.0
  0
LINE
  5
E1
100
AcDbEntity
  8
1
  6
CONTINUOUS
 62
     6
100
AcDbLine
 10
149.4845
 20
385.6864
 30
0.0
 11
149.4845
 21
413.5557
 31
0.0
  0
LINE
  5
E2
100
AcDbEntity
  8
1
  6
CONTINUOUS
 62
     6
100
AcDbLine
 10
149.4845
 20
413.5557
 30
0.0
 11
146.8917
 21
383.3228
 31
0.0
  0
LINE
  5
E3
100
AcDbEntity
  8
1
  6
CONTINUOUS
 62
     6
100
AcDbLine
 10
149.4845
 20
381.4864
 30
0.0
 11
153.0845
 21
381.4864
 31
0.0
  0
LINE
  5
E4
100
AcDbEntity
  8
1
  6
CONTINUOUS
 62
     6
100
AcDbLine
 10
149.4845
 20
380.8864
 30
0.0
 11
146.6827
 21
380.8864
 31
0.0
  0
LINE
  5
E5
100
AcDbEntity
  8
1
  6
CONTINUOUS
 62
     6
100
AcDbLine
 10
149.4845
 20
370.3864
 30
0.0
 11
145.6612
 21
370.3864
 31
0.0
  0
ARC
  5
E6
100
AcDbEntity
  8
1
  6
DASHED
 62
     6
100
AcDbCircle
 10
115.674134
 20
364.849368
 30
0.0
 40
37.420947
210
0.0
220
0.0
230
1.0
100
AcDbArc
 50
8.140744
 51
25.376058
  0
ARC
  5
E7
100
AcDbEntity
  8
1
  6
DASHED
 62
     6
100
AcDbCircle
 10
137.314981
 20
367.109857
 30
0.0
 40
15.699864
210
0.0
220
0.0
230
1.0
100
AcDbArc
 50
324.734558
 51
11.159417
  0
ARC
  5
E8
100
AcDbEntity
  8
1
  6
DASHED
 62
     6
100
AcDbCircle
 10
47.487866
 20
349.648113
 30
0.0
 40
110.292002
210
0.0
220
0.0
230
1.0
100
AcDbArc
 50
358.542819
 51
16.778508
  0
LINE
  5
E9
100
AcDbEntity
  8
1
  6
CONTINUOUS
 62
     6
100
AcDbLine
 10
144.8225
 20
350.3236
 30
0.0
 11
144.8225
 21
346.6864
 31
0.0
  0
LINE
  5
EA
100
AcDbEntity
  8
1
  6
CONTINUOUS
 62
     6
100
AcDbLine
 10
147.8629
 20
356.4981
 30
0.0
 11
151.5845
 21
353.8966
 31
0.0
  0
LINE
  5
EB
100
AcDbEntity
  8
1
  6
CONTINUOUS
 62
     6
100
AcDbLine
 10
150.9779
 20
277.6864
 30
0.0
 11
153.871
 21
277.6864
 31
0.0
  0
LINE
  5
EC
100
AcDbEntity
  8
1
  6
CONTINUOUS
 62
     6
100
AcDbLine
 10
150.4481
 20
278.0047
 30
0.0
 11
149.2558
 21
280.2472
 31
0.0
  0
LINE
  5
ED
100
AcDbEntity
  8
1
  6
CONTINUOUS
 62
     6
100
AcDbLine
 10
148.8542
 20
281.5609
 30
0.0
 11
143.7845
 21
329.7955
 31
0.0
  0
LINE
  5
EE
100
AcDbEntity
  8
1
  6
CONTINUOUS
 62
     6
100
AcDbLine
 10
154.3906
 20
277.9864
 30
0.0
 11
158.5351
 21
285.1648
 31
0.0
  0
LINE
  5
EF
100
AcDbEntity
  8
1
  6
CONTINUOUS
 62
     6
100
AcDbLine
 10
159.0174
 20
286.9648
 30
0.0
 11
159.0174
 21
292.3002
 31
0.0
  0
LINE
  5
F0
100
AcDbEntity
  8
1
  6
CONTINUOUS
 62
     6
100
AcDbLine
 10
159.9174
 20
293.2002
 30
0.0
 11
161.1174
 21
293.2002
 31
0.0
  0
LINE
  5
F1
100
AcDbEntity
  8
1
  6
CONTINUOUS
 62
     6
100
AcDbLine
 10
162.0174
 20
294.1002
 30
0.0
 11
162.0174
 21
300.1002
 31
0.0
  0
LINE
  5
F2
100
AcDbEntity
  8
1
  6
CONTINUOUS
 62
     6
100
AcDbLine
 10
162.9174
 20
301.0002
 30
0.0
 11
164.1174
 21
301.0002
 31
0.0
  0
LINE
  5
F3
100
AcDbEntity
  8
1
  6
CONTINUOUS
 62
     6
100
AcDbLine
 10
165.0174
 20
301.9002
 30
0.0
 11
165.0174
 21
311.5002
 31
0.0
  0
LINE
  5
F4
100
AcDbEntity
  8
1
  6
CONTINUOUS
 62
     6
100
AcDbLine
 10
165.9174
 20
312.4002
 30
0.0
 11
167.1174
 21
312.4002
 31
0.0
  0
LINE
  5
F5
100
AcDbEntity
  8
1
  6
CONTINUOUS
 62
     6
100
AcDbLine
 10
168.0174
 20
313.3002
 30
0.0
 11
168.0174
 21
327.1002
 31
0.0
  0
LINE
  5
F6
100
AcDbEntity
  8
1
  6
CONTINUOUS
 62
     6
100
AcDbLine
 10
168.9174
 20
328.0002
 30
0.0
 11
170.1174
 21
328.0002
 31
0.0
  0
LINE
  5
F7
100
AcDbEntity
  8
1
  6
CONTINUOUS
 62
     6
100
AcDbLine
 10
163.9268
 20
339.4505
 30
0.0
 11
163.9268
 21
346.6864
 31
0.0
  0
ARC
  5
F8
100
AcDbEntity
  8
1
  6
CONTINUOUS
 62
     6
100
AcDbCircle
 10
155.4174
 20
286.96478
 30
0.0
 40
3.6
210
0.0
220
0.0
230
1.0
100
AcDbArc
 50
330.001114
 51
0.0
  0
ARC
  5
F9
100
AcDbEntity
  8
1
  6
CONTINUOUS
 62
     6
100
AcDbCircle
 10
150.977909
 20
278.2864
 30
0.0
 40
0.6
210
0.0
220
0.0
230
1.0
100
AcDbArc
 50
208.000978
 51
270.0
  0
ARC
  5
FA
100
AcDbEntity
  8
1
  6
CONTINUOUS
 62
     6
100
AcDbCircle
 10
153.87099
 20
278.2864
 30
0.0
 40
0.6
210
0.0
220
0.0
230
1.0
100
AcDbArc
 50
270.0
 51
330.000036
  0
ARC
  5
FB
100
AcDbEntity
  8
1
  6
CONTINUOUS
 62
     6
100
AcDbCircle
 10
152.434459
 20
281.937123
 30
0.0
 40
3.6
210
0.0
220
0.0
230
1.0
100
AcDbArc
 50
185.998881
 51
207.997439
  0
ARC
  5
FC
100
AcDbEntity
  8
1
  6
CONTINUOUS
 62
     6
100
AcDbCircle
 10
159.9174
 20
292.3002
 30
0.0
 40
0.9
210
0.0
220
0.0
230
1.0
100
AcDbArc
 50
90.0
 51
180.0
  0
ARC
  5
FD
100
AcDbEntity
  8
1
  6
CONTINUOUS
 62
     6
100
AcDbCircle
 10
161.1174
 20
294.1002
 30
0.0
 40
0.9
210
0.0
220
0.0
230
1.0
100
AcDbArc
 50
270.0
 51
360.0
  0
ARC
  5
FE
100
AcDbEntity
  8
1
  6
CONTINUOUS
 62
     6
100
AcDbCircle
 10
162.9174
 20
300.1002
 30
0.0
 40
0.9
210
0.0
220
0.0
230
1.0
100
AcDbArc
 50
90.0
 51
180.0
  0
ARC
  5
FF
100
AcDbEntity
  8
1
  6
CONTINUOUS
 62
     6
100
AcDbCircle
 10
164.1174
 20
301.9002
 30
0.0
 40
0.9
210
0.0
220
0.0
230
1.0
100
AcDbArc
 50
270.0
 51
360.0
  0
ARC
  5
100
100
AcDbEntity
  8
1
  6
CONTINUOUS
 62
     6
100
AcDbCircle
 10
165.9174
 20
311.5002
 30
0.0
 40
0.9
210
0.0
220
0.0
230
1.0
100
AcDbArc
 50
90.0
 51
180.0
  0
ARC
  5
101
100
AcDbEntity
  8
1
  6
CONTINUOUS
 62
     6
100
AcDbCircle
 10
167.1174
 20
313.3002
 30
0.0
 40
0.9
210
0.0
220
0.0
230
1.0
100
AcDbArc
 50
270.0
 51
360.0
  0
ARC
  5
102
100
AcDbEntity
  8
1
  6
CONTINUOUS
 62
     6
100
AcDbCircle
 10
168.9174
 20
327.1002
 30
0.0
 40
0.9
210
0.0
220
0.0
230
1.0
100
AcDbArc
 50
90.0
 51
180.0
  0
LINE
  5
103
100
AcDbEntity
  8
1
  6
CONTINUOUS
 62
     6
100
AcDbLine
 10
143.7845
 20
329.7955
 30
0.0
 11
143.7845
 21
346.6864
 31
0.0
  0
LINE
  5
104
100
AcDbEntity
  8
1
  6
CONTINUOUS
 62
     6
100
AcDbLine
 10
151.5845
 20
335.2865
 30
0.0
 11
151.5845
 21
346.6864
 31
0.0
  0
LINE
  5
105
100
AcDbEntity
  8
1
  6
CONTINUOUS
 62
     6
100
AcDbLine
 10
151.5845
 20
335.2865
 30
0.0
 11
148.2827
 21
335.0326
 31
0.0
  0
LINE
  5
106
100
AcDbEntity
  8
1
  6
CONTINUOUS
 62
     6
100
AcDbLine
 10
147.0862
 20
334.9405
 30
0.0
 11
143.7845
 21
334.6864
 31
0.0
  0
LINE
  5
107
100
AcDbEntity
  8
1
  6
CONTINUOUS
 62
     6
100
AcDbLine
 10
149.4845
 20
333.4864
 30
0.0
 11
149.4845
 21
307.6864
 31
0.0
  0
LINE
  5
108
100
AcDbEntity
  8
1
  6
CONTINUOUS
 62
     6
100
AcDbLine
 10
149.4845
 20
307.6864
 30
0.0
 11
165.0174
 21
305.5002
 31
0.0
  0
LINE
  5
109
100
AcDbEntity
  8
1
  6
CONTINUOUS
 62
     6
100
AcDbLine
 10
149.4845
 20
307.6864
 30
0.0
 11
149.4845
 21
194.5528
 31
0.0
  0
LINE
  5
10A
100
AcDbEntity
  8
1
  6
CONTINUOUS
 62
     6
100
AcDbLine
 10
149.4845
 20
279.8171
 30
0.0
 11
146.8916
 21
310.05
 31
0.0
  0
LINE
  5
10B
100
AcDbEntity
  8
1
  6
CONTINUOUS
 62
     6
100
AcDbLine
 10
149.4845
 20
311.8864
 30
0.0
 11
153.0845
 21
311.8864
 31
0.0
  0
LINE
  5
10C
100
AcDbEntity
  8
1
  6
CONTINUOUS
 62
     6
100
AcDbLine
 10
149.4845
 20
312.4864
 30
0.0
 11
146.6827
 21
312.4864
 31
0.0
  0
LINE
  5
10D
100
AcDbEntity
  8
1
  6
CONTINUOUS
 62
     6
100
AcDbLine
 10
149.4845
 20
322.9864
 30
0.0
 11
145.7822
 21
322.9864
 31
0.0
  0
ARC
  5
10E
100
AcDbEntity
  8
1
  6
DASHED
 62
     6
100
AcDbCircle
 10
115.674134
 20
328.523432
 30
0.0
 40
37.420947
210
0.0
220
0.0
230
1.0
100
AcDbArc
 50
334.623942
 51
351.859256
  0
ARC
  5
10F
100
AcDbEntity
  8
1
  6
DASHED
 62
     6
100
AcDbCircle
 10
137.314981
 20
326.262943
 30
0.0
 40
15.699864
210
0.0
220
0.0
230
1.0
100
AcDbArc
 50
348.840583
 51
35.265442
  0
ARC
  5
110
100
AcDbEntity
  8
1
  6
DASHED
 62
     6
100
AcDbCircle
 10
47.487866
 20
343.724687
 30
0.0
 40
110.292002
210
0.0
220
0.0
230
1.0
100
AcDbArc
 50
343.221492
 51
1.457181
  0
LINE
  5
111
100
AcDbEntity
  8
1
  6
CONTINUOUS
 62
     6
100
AcDbLine
 10
144.8225
 20
343.0492
 30
0.0
 11
144.8225
 21
346.6864
 31
0.0
  0
LINE
  5
112
100
AcDbEntity
  8
1
  6
CONTINUOUS
 62
     6
100
AcDbLine
 10
171.0174
 20
338.2002
 30
0.0
 11
163.9268
 21
339.4505
 31
0.0
  0
LINE
  5
113
100
AcDbEntity
  8
1
  6
CONTINUOUS
 62
     6
100
AcDbLine
 10
171.0174
 20
328.9002
 30
0.0
 11
171.0174
 21
338.2002
 31
0.0
  0
ARC
  5
114
100
AcDbEntity
  8
1
  6
CONTINUOUS
 62
     6
100
AcDbCircle
 10
170.1174
 20
328.9002
 30
0.0
 40
0.9
210
0.0
220
0.0
230
1.0
100
AcDbArc
 50
270.0
 51
360.0
  0
LINE
  5
115
100
AcDbEntity
  8
1
  6
CONTINUOUS
 62
     6
100
AcDbLine
 10
171.0174
 20
336.4002
 30
0.0
 11
149.4845
 21
333.4864
 31
0.0
  0
ARC
  5
116
100
AcDbEntity
  8
1
  6
CONTINUOUS
 62
     6
100
AcDbCircle
 10
151.875045
 20
350.551696
 30
0.0
 40
7.056233
210
0.0
220
0.0
230
1.0
100
AcDbArc
 50
153.613258
 51
181.852433
  0
ARC
  5
117
100
AcDbEntity
  8
1
  6
DASHED
 62
     6
100
AcDbCircle
 10
130.884395
 20
369.221537
 30
0.0
 40
22.258572
210
0.0
220
0.0
230
1.0
100
AcDbArc
 50
309.471358
 51
329.86035
  0
ARC
  5
118
100
AcDbEntity
  8
1
  6
DASHED
 62
     6
100
AcDbCircle
 10
130.884395
 20
324.151263
 30
0.0
 40
22.258572
210
0.0
220
0.0
230
1.0
100
AcDbArc
 50
30.13965
 51
50.528642
  0
ARC
  5
119
100
AcDbEntity
  8
1
  6
CONTINUOUS
 62
     6
100
AcDbCircle
 10
-21.078355
 20
392.773259
 30
0.0
 40
168.235699
210
0.0
220
0.0
230
1.0
100
AcDbArc
 50
348.894864
 51
356.779775
  0
ARC
  5
11A
100
AcDbEntity
  8
1
  6
CONTINUOUS
 62
     6
100
AcDbCircle
 10
159.344816
 20
344.711577
 30
0.0
 40
16.454707
210
0.0
220
0.0
230
1.0
100
AcDbArc
 50
124.920903
 51
146.940825
  0
LINE
  5
11B
100
AcDbEntity
  8
1
  6
CONTINUOUS
 62
     6
100
AcDbLine
 10
151.5845
 20
353.8966
 30
0.0
 11
148.4135
 21
350.6263
 31
0.0
  0
ARC
  5
11C
100
AcDbEntity
  8
1
  6
CONTINUOUS
 62
     6
100
AcDbCircle
 10
146.884205
 20
351.944533
 30
0.0
 40
2.01903
210
0.0
220
0.0
230
1.0
100
AcDbArc
 50
189.120319
 51
319.239081
  0
LINE
  5
11D
100
AcDbEntity
  8
1
  6
CONTINUOUS
 62
     6
100
AcDbLine
 10
147.8629
 20
336.8747
 30
0.0
 11
151.5845
 21
339.4762
 31
0.0
  0
LINE
  5
11E
100
AcDbEntity
  8
1
  6
CONTINUOUS
 62
     6
100
AcDbLine
 10
151.5845
 20
339.4762
 30
0.0
 11
148.4135
 21
342.7465
 31
0.0
  0
ARC
  5
11F
100
AcDbEntity
  8
1
  6
CONTINUOUS
 62
     6
100
AcDbCircle
 10
146.884205
 20
341.428267
 30
0.0
 40
2.01903
210
0.0
220
0.0
230
1.0
100
AcDbArc
 50
40.760919
 51
170.879681
  0
ARC
  5
120
100
AcDbEntity
  8
1
  6
CONTINUOUS
 62
     6
100
AcDbCircle
 10
159.344816
 20
348.661223
 30
0.0
 40
16.454707
210
0.0
220
0.0
230
1.0
100
AcDbArc
 50
213.059175
 51
235.079097
  0
ARC
  5
121
100
AcDbEntity
  8
1
  6
CONTINUOUS
 62
     6
100
AcDbCircle
 10
151.875045
 20
342.821104
 30
0.0
 40
7.056233
210
0.0
220
0.0
230
1.0
100
AcDbArc
 50
178.147567
 51
206.386742
  0
ARC
  5
122
100
AcDbEntity
  8
1
  6
CONTINUOUS
 62
     6
100
AcDbCircle
 10
-21.078355
 20
300.599541
 30
0.0
 40
168.235699
210
0.0
220
0.0
230
1.0
100
AcDbArc
 50
3.220225
 51
11.105136
  0
LINE
  5
123
100
AcDbEntity
  8
1
  6
CONTINUOUS
 62
     7
100
AcDbLine
 10
190.9268
 20
346.6864
 30
0.0
 11
194.5268
 21
346.6864
 31
0.0
  0
LINE
  5
124
100
AcDbEntity
  8
1
  6
CONTINUOUS
 62
     7
100
AcDbLine
 10
197.5268
 20
346.6864
 30
0.0
 11
214.9268
 21
346.6864
 31
0.0
  0
ARC
  5
125
100
AcDbEntity
  8
1
  6
CONTINUOUS
 62
     7
100
AcDbCircle
 10
95.844447
 20
346.6864
 30
0.0
 40
120.882353
210
0.0
220
0.0
230
1.0
100
AcDbArc
 50
336.293992
 51
23.706008
  0
LINE
  5
126
100
AcDbEntity
  8
1
  6
CONTINUOUS
 62
     7
100
AcDbLine
 10
206.5268
 20
269.2864
 30
0.0
 11
206.5268
 21
424.0864
 31
0.0
  0
LINE
  5
127
100
AcDbEntity
  8
1
  6
CONTINUOUS
 62
     7
100
AcDbLine
 10
206.5268
 20
424.0864
 30
0.0
 11
206.5268
 21
434.8864
 31
0.0
  0
LWPOLYLINE
  5
128
100
AcDbEntity
  8
1
  6
CONTINUOUS
 62
     7
100
AcDbPolyline
 90
       21
 70
     0
 10
206.5268
 20
430.6864
 10
214.6504
 20
424.5676
 10
222.8752
 20
420.4539
 10
225.2943
 20
413.4364
 10
236.18
 20
401.8211
 10
236.9058
 20
392.8677
 10
242.4696
 20
384.8822
 10
244.1629
 20
374.7189
 10
244.1629
 20
366.4914
 10
244.4048
 20
356.812
 10
243.7268
 20
346.6864
 10
248.2753
 20
334.0655
 10
245.3725
 20
330.9197
 10
243.6791
 20
324.3861
 10
243.921
 20
313.4968
 10
242.4696
 20
301.1556
 10
239.3248
 20
290.7503
 10
232.3095
 20
280.345
 10
224.8105
 20
274.7793
 10
221.9076
 20
266.3099
 10
206.5268
 20
262.6864
  0
LINE
  5
129
100
AcDbEntity
  8
1
  6
CONTINUOUS
 62
     7
100
AcDbLine
 10
206.5268
 20
235.0864
 30
0.0
 11
206.5268
 21
269.2864
 31
0.0
  0
ARC
  5
12A
100
AcDbEntity
  8
1
  6
CONTINUOUS
 62
     7
100
AcDbCircle
 10
93.7193
 20
346.6864
 30
0.0
 40
136.8075
210
0.0
220
0.0
230
1.0
100
AcDbArc
 50
325.545025
 51
34.454978
  0
LINE
  5
12B
100
AcDbEntity
  8
1
  6
CONTINUOUS
 62
     7
100
AcDbLine
 10
206.5399
 20
424.0665
 30
0.0
 11
210.3101
 21
427.8367
 31
0.0
  0
LINE
  5
12C
100
AcDbEntity
  8
1
  6
CONTINUOUS
 62
     7
100
AcDbLine
 10
209.2368
 20
419.9752
 30
0.0
 11
214.182
 21
424.9204
 31
0.0
  0
LINE
  5
12D
100
AcDbEntity
  8
1
  6
CONTINUOUS
 62
     7
100
AcDbLine
 10
211.7778
 20
415.7279
 30
0.0
 11
218.628
 21
422.5782
 31
0.0
  0
LINE
  5
12E
100
AcDbEntity
  8
1
  6
CONTINUOUS
 62
     7
100
AcDbLine
 10
214.2157
 20
411.3776
 30
0.0
 11
222.982
 21
420.144
 31
0.0
  0
LINE
  5
12F
100
AcDbEntity
  8
1
  6
CONTINUOUS
 62
     7
100
AcDbLine
 10
216.545
 20
406.9187
 30
0.0
 11
224.7222
 21
415.0959
 31
0.0
  0
LINE
  5
130
100
AcDbEntity
  8
1
  6
CONTINUOUS
 62
     7
100
AcDbLine
 10
218.6862
 20
402.2717
 30
0.0
 11
227.4987
 21
411.0842
 31
0.0
  0
LINE
  5
131
100
AcDbEntity
  8
1
  6
CONTINUOUS
 62
     7
100
AcDbLine
 10
220.6926
 20
397.4899
 30
0.0
 11
230.7828
 21
407.58
 31
0.0
  0
LINE
  5
132
100
AcDbEntity
  8
1
  6
CONTINUOUS
 62
     7
100
AcDbLine
 10
222.5686
 20
392.5776
 30
0.0
 11
234.0669
 21
404.0759
 31
0.0
  0
LINE
  5
133
100
AcDbEntity
  8
1
  6
CONTINUOUS
 62
     7
100
AcDbLine
 10
224.2829
 20
387.5037
 30
0.0
 11
236.3615
 21
399.5823
 31
0.0
  0
LINE
  5
134
100
AcDbEntity
  8
1
  6
CONTINUOUS
 62
     7
100
AcDbLine
 10
225.7886
 20
382.2212
 30
0.0
 11
236.8705
 21
393.3031
 31
0.0
  0
LINE
  5
135
100
AcDbEntity
  8
1
  6
CONTINUOUS
 62
     7
100
AcDbLine
 10
227.1286
 20
376.7729
 30
0.0
 11
239.5
 21
389.1444
 31
0.0
  0
LINE
  5
136
100
AcDbEntity
  8
1
  6
CONTINUOUS
 62
     7
100
AcDbLine
 10
228.286
 20
371.1421
 30
0.0
 11
242.2875
 21
385.1436
 31
0.0
  0
LINE
  5
137
100
AcDbEntity
  8
1
  6
CONTINUOUS
 62
     7
100
AcDbLine
 10
229.2405
 20
365.3084
 30
0.0
 11
243.3757
 21
379.4436
 31
0.0
  0
LINE
  5
138
100
AcDbEntity
  8
1
  6
CONTINUOUS
 62
     7
100
AcDbLine
 10
229.9373
 20
359.217
 30
0.0
 11
244.1629
 21
373.4426
 31
0.0
  0
LINE
  5
139
100
AcDbEntity
  8
1
  6
CONTINUOUS
 62
     7
100
AcDbLine
 10
230.3571
 20
352.8485
 30
0.0
 11
244.1629
 21
366.6544
 31
0.0
  0
LINE
  5
13A
100
AcDbEntity
  8
1
  6
CONTINUOUS
 62
     7
100
AcDbLine
 10
230.487
 20
346.1903
 30
0.0
 11
244.3244
 21
360.0277
 31
0.0
  0
LINE
  5
13B
100
AcDbEntity
  8
1
  6
CONTINUOUS
 62
     7
100
AcDbLine
 10
230.28
 20
339.195
 30
0.0
 11
244.1542
 21
353.0692
 31
0.0
  0
LINE
  5
13C
100
AcDbEntity
  8
1
  6
CONTINUOUS
 62
     7
100
AcDbLine
 10
229.6747
 20
331.8015
 30
0.0
 11
243.9474
 21
346.0742
 31
0.0
  0
LINE
  5
13D
100
AcDbEntity
  8
1
  6
CONTINUOUS
 62
     7
100
AcDbLine
 10
228.5901
 20
323.9286
 30
0.0
 11
245.7458
 21
341.0843
 31
0.0
  0
LINE
  5
13E
100
AcDbEntity
  8
1
  6
CONTINUOUS
 62
     7
100
AcDbLine
 10
226.916
 20
315.4663
 30
0.0
 11
247.5441
 21
336.0944
 31
0.0
  0
LINE
  5
13F
100
AcDbEntity
  8
1
  6
CONTINUOUS
 62
     7
100
AcDbLine
 10
224.3159
 20
306.078
 30
0.0
 11
244.0482
 21
325.8103
 31
0.0
  0
LINE
  5
140
100
AcDbEntity
  8
1
  6
CONTINUOUS
 62
     7
100
AcDbLine
 10
220.5966
 20
295.5704
 30
0.0
 11
243.8037
 21
318.7776
 31
0.0
  0
LINE
  5
141
100
AcDbEntity
  8
1
  6
CONTINUOUS
 62
     7
100
AcDbLine
 10
214.711
 20
282.8967
 30
0.0
 11
243.7357
 21
311.9214
 31
0.0
  0
LINE
  5
142
100
AcDbEntity
  8
1
  6
CONTINUOUS
 62
     7
100
AcDbLine
 10
206.5268
 20
267.9242
 30
0.0
 11
242.831
 21
304.2284
 31
0.0
  0
LINE
  5
143
100
AcDbEntity
  8
1
  6
CONTINUOUS
 62
     7
100
AcDbLine
 10
208.555
 20
263.1642
 30
0.0
 11
240.7038
 21
295.313
 31
0.0
  0
LINE
  5
144
100
AcDbEntity
  8
1
  6
CONTINUOUS
 62
     7
100
AcDbLine
 10
217.4353
 20
265.2563
 30
0.0
 11
223.6904
 21
271.5114
 31
0.0
  0
CIRCLE
  5
145
100
AcDbEntity
  8
1
  6
CONTINUOUS
 62
     7
100
AcDbCircle
 10
208.7803
 20
422.8887
 30
0.0
 40
0.2328
210
0.0
220
0.0
230
1.0
  0
CIRCLE
  5
146
100
AcDbEntity
  8
1
  6
CONTINUOUS
 62
     7
100
AcDbCircle
 10
211.4868
 20
425.6057
 30
0.0
 40
0.2328
210
0.0
220
0.0
230
1.0
  0
CIRCLE
  5
147
100
AcDbEntity
  8
1
  6
CONTINUOUS
 62
     7
100
AcDbCircle
 10
211.3956
 20
418.7421
 30
0.0
 40
0.2328
210
0.0
220
0.0
230
1.0
  0
CIRCLE
  5
148
100
AcDbEntity
  8
1
  6
CONTINUOUS
 62
     7
100
AcDbCircle
 10
214.16
 20
421.4872
 30
0.0
 40
0.2328
210
0.0
220
0.0
230
1.0
  0
CIRCLE
  5
149
100
AcDbEntity
  8
1
  6
CONTINUOUS
 62
     7
100
AcDbCircle
 10
213.8976
 20
414.4831
 30
0.0
 40
0.2328
210
0.0
220
0.0
230
1.0
  0
CIRCLE
  5
14A
100
AcDbEntity
  8
1
  6
CONTINUOUS
 62
     7
100
AcDbCircle
 10
216.6822
 20
417.2282
 30
0.0
 40
0.2328
210
0.0
220
0.0
230
1.0
  0
CIRCLE
  5
14B
100
AcDbEntity
  8
1
  6
CONTINUOUS
 62
     7
100
AcDbCircle
 10
219.5475
 20
420.0743
 30
0.0
 40
0.2328
210
0.0
220
0.0
230
1.0
  0
CIRCLE
  5
14C
100
AcDbEntity
  8
1
  6
CONTINUOUS
 62
     7
100
AcDbCircle
 10
216.2517
 20
410.0273
 30
0.0
 40
0.2328
210
0.0
220
0.0
230
1.0
  0
CIRCLE
  5
14D
100
AcDbEntity
  8
1
  6
CONTINUOUS
 62
     7
100
AcDbCircle
 10
219.1127
 20
412.8594
 30
0.0
 40
0.2328
210
0.0
220
0.0
230
1.0
  0
CIRCLE
  5
14E
100
AcDbEntity
  8
1
  6
CONTINUOUS
 62
     7
100
AcDbCircle
 10
221.9736
 20
415.7213
 30
0.0
 40
0.2328
210
0.0
220
0.0
230
1.0
  0
CIRCLE
  5
14F
100
AcDbEntity
  8
1
  6
CONTINUOUS
 62
     7
100
AcDbCircle
 10
218.4868
 20
405.496
 30
0.0
 40
0.2328
210
0.0
220
0.0
230
1.0
  0
CIRCLE
  5
150
100
AcDbEntity
  8
1
  6
CONTINUOUS
 62
     7
100
AcDbCircle
 10
221.318
 20
408.2982
 30
0.0
 40
0.2328
210
0.0
220
0.0
230
1.0
  0
CIRCLE
  5
151
100
AcDbEntity
  8
1
  6
CONTINUOUS
 62
     7
100
AcDbCircle
 10
224.2385
 20
411.2197
 30
0.0
 40
0.2328
210
0.0
220
0.0
230
1.0
  0
CIRCLE
  5
152
100
AcDbEntity
  8
1
  6
CONTINUOUS
 62
     7
100
AcDbCircle
 10
226.5035
 20
406.6884
 30
0.0
 40
0.2328
210
0.0
220
0.0
230
1.0
  0
CIRCLE
  5
153
100
AcDbEntity
  8
1
  6
CONTINUOUS
 62
     7
100
AcDbCircle
 10
223.4637
 20
403.6477
 30
0.0
 40
0.2328
210
0.0
220
0.0
230
1.0
  0
CIRCLE
  5
154
100
AcDbEntity
  8
1
  6
CONTINUOUS
 62
     7
100
AcDbCircle
 10
220.5431
 20
400.756
 30
0.0
 40
0.2328
210
0.0
220
0.0
230
1.0
  0
CIRCLE
  5
155
100
AcDbEntity
  8
1
  6
CONTINUOUS
 62
     7
100
AcDbCircle
 10
231.6293
 20
405.019
 30
0.0
 40
0.2328
210
0.0
220
0.0
230
1.0
  0
CIRCLE
  5
156
100
AcDbEntity
  8
1
  6
CONTINUOUS
 62
     7
100
AcDbCircle
 10
228.53
 20
401.9186
 30
0.0
 40
0.2328
210
0.0
220
0.0
230
1.0
  0
CIRCLE
  5
157
100
AcDbEntity
  8
1
  6
CONTINUOUS
 62
     7
100
AcDbCircle
 10
225.4902
 20
398.8778
 30
0.0
 40
0.2328
210
0.0
220
0.0
230
1.0
  0
CIRCLE
  5
158
100
AcDbEntity
  8
1
  6
CONTINUOUS
 62
     7
100
AcDbCircle
 10
222.5223
 20
395.92
 30
0.0
 40
0.2328
210
0.0
220
0.0
230
1.0
  0
CIRCLE
  5
159
100
AcDbEntity
  8
1
  6
CONTINUOUS
 62
     7
100
AcDbCircle
 10
233.6141
 20
400.2082
 30
0.0
 40
0.2328
210
0.0
220
0.0
230
1.0
  0
CIRCLE
  5
15A
100
AcDbEntity
  8
1
  6
CONTINUOUS
 62
     7
100
AcDbCircle
 10
230.4065
 20
396.9995
 30
0.0
 40
0.2328
210
0.0
220
0.0
230
1.0
  0
CIRCLE
  5
15B
100
AcDbEntity
  8
1
  6
CONTINUOUS
 62
     7
100
AcDbCircle
 10
227.3188
 20
393.9108
 30
0.0
 40
0.2328
210
0.0
220
0.0
230
1.0
  0
CIRCLE
  5
15C
100
AcDbEntity
  8
1
  6
CONTINUOUS
 62
     7
100
AcDbCircle
 10
224.291
 20
390.882
 30
0.0
 40
0.2328
210
0.0
220
0.0
230
1.0
  0
CIRCLE
  5
15D
100
AcDbEntity
  8
1
  6
CONTINUOUS
 62
     7
100
AcDbCircle
 10
235.4728
 20
395.2902
 30
0.0
 40
0.2328
210
0.0
220
0.0
230
1.0
  0
CIRCLE
  5
15E
100
AcDbEntity
  8
1
  6
CONTINUOUS
 62
     7
100
AcDbCircle
 10
232.2352
 20
392.0216
 30
0.0
 40
0.2328
210
0.0
220
0.0
230
1.0
  0
CIRCLE
  5
15F
100
AcDbEntity
  8
1
  6
CONTINUOUS
 62
     7
100
AcDbCircle
 10
229.0875
 20
388.8728
 30
0.0
 40
0.2328
210
0.0
220
0.0
230
1.0
  0
CIRCLE
  5
160
100
AcDbEntity
  8
1
  6
CONTINUOUS
 62
     7
100
AcDbCircle
 10
225.9697
 20
385.7841
 30
0.0
 40
0.2328
210
0.0
220
0.0
230
1.0
  0
CIRCLE
  5
161
100
AcDbEntity
  8
1
  6
CONTINUOUS
 62
     7
100
AcDbCircle
 10
237.0316
 20
390.0723
 30
0.0
 40
0.2328
210
0.0
220
0.0
230
1.0
  0
CIRCLE
  5
162
100
AcDbEntity
  8
1
  6
CONTINUOUS
 62
     7
100
AcDbCircle
 10
233.7341
 20
386.8037
 30
0.0
 40
0.2328
210
0.0
220
0.0
230
1.0
  0
CIRCLE
  5
163
100
AcDbEntity
  8
1
  6
CONTINUOUS
 62
     7
100
AcDbCircle
 10
230.5264
 20
383.595
 30
0.0
 40
0.2328
210
0.0
220
0.0
230
1.0
  0
CIRCLE
  5
164
100
AcDbEntity
  8
1
  6
CONTINUOUS
 62
     7
100
AcDbCircle
 10
238.5305
 20
384.7945
 30
0.0
 40
0.2328
210
0.0
220
0.0
230
1.0
  0
CIRCLE
  5
165
100
AcDbEntity
  8
1
  6
CONTINUOUS
 62
     7
100
AcDbCircle
 10
227.4389
 20
380.4895
 30
0.0
 40
0.2328
210
0.0
220
0.0
230
1.0
  0
CIRCLE
  5
166
100
AcDbEntity
  8
1
  6
CONTINUOUS
 62
     7
100
AcDbCircle
 10
228.7423
 20
375.007
 30
0.0
 40
0.2328
210
0.0
220
0.0
230
1.0
  0
CIRCLE
  5
167
100
AcDbEntity
  8
1
  6
CONTINUOUS
 62
     7
100
AcDbCircle
 10
231.9171
 20
378.1829
 30
0.0
 40
0.2328
210
0.0
220
0.0
230
1.0
  0
CIRCLE
  5
168
100
AcDbEntity
  8
1
  6
CONTINUOUS
 62
     7
100
AcDbCircle
 10
235.2256
 20
381.5259
 30
0.0
 40
0.2328
210
0.0
220
0.0
230
1.0
  0
CIRCLE
  5
169
100
AcDbEntity
  8
1
  6
CONTINUOUS
 62
     7
100
AcDbCircle
 10
239.9043
 20
379.3529
 30
0.0
 40
0.2328
210
0.0
220
0.0
230
1.0
  0
CIRCLE
  5
16A
100
AcDbEntity
  8
1
  6
CONTINUOUS
 62
     7
100
AcDbCircle
 10
236.4287
 20
375.8762
 30
0.0
 40
0.2328
210
0.0
220
0.0
230
1.0
  0
CIRCLE
  5
16B
100
AcDbEntity
  8
1
  6
CONTINUOUS
 62
     7
100
AcDbCircle
 10
233.1536
 20
372.6
 30
0.0
 40
0.2328
210
0.0
220
0.0
230
1.0
  0
CIRCLE
  5
16C
100
AcDbEntity
  8
1
  6
CONTINUOUS
 62
     7
100
AcDbCircle
 10
229.8451
 20
369.2904
 30
0.0
 40
0.2328
210
0.0
220
0.0
230
1.0
  0
CIRCLE
  5
16D
100
AcDbEntity
  8
1
  6
CONTINUOUS
 62
     7
100
AcDbCircle
 10
234.0559
 20
366.7497
 30
0.0
 40
0.2328
210
0.0
220
0.0
230
1.0
  0
CIRCLE
  5
16E
100
AcDbEntity
  8
1
  6
CONTINUOUS
 62
     7
100
AcDbCircle
 10
237.4981
 20
370.2265
 30
0.0
 40
0.2328
210
0.0
220
0.0
230
1.0
  0
CIRCLE
  5
16F
100
AcDbEntity
  8
1
  6
CONTINUOUS
 62
     7
100
AcDbCircle
 10
241.0406
 20
373.7366
 30
0.0
 40
0.2328
210
0.0
220
0.0
230
1.0
  0
CIRCLE
  5
170
100
AcDbEntity
  8
1
  6
CONTINUOUS
 62
     7
100
AcDbCircle
 10
242.0097
 20
367.8529
 30
0.0
 40
0.2328
210
0.0
220
0.0
230
1.0
  0
CIRCLE
  5
171
100
AcDbEntity
  8
1
  6
CONTINUOUS
 62
     7
100
AcDbCircle
 10
230.6305
 20
363.3341
 30
0.0
 40
0.2328
210
0.0
220
0.0
230
1.0
  0
CIRCLE
  5
172
100
AcDbEntity
  8
1
  6
CONTINUOUS
 62
     7
100
AcDbCircle
 10
238.3654
 20
364.2428
 30
0.0
 40
0.2328
210
0.0
220
0.0
230
1.0
  0
CIRCLE
  5
173
100
AcDbEntity
  8
1
  6
CONTINUOUS
 62
     7
100
AcDbCircle
 10
234.7594
 20
360.6356
 30
0.0
 40
0.2328
210
0.0
220
0.0
230
1.0
  0
CIRCLE
  5
174
100
AcDbEntity
  8
1
  6
CONTINUOUS
 62
     7
100
AcDbCircle
 10
231.3186
 20
357.1662
 30
0.0
 40
0.2328
210
0.0
220
0.0
230
1.0
  0
CIRCLE
  5
175
100
AcDbEntity
  8
1
  6
CONTINUOUS
 62
     7
100
AcDbCircle
 10
235.2549
 20
354.33
 30
0.0
 40
0.2328
210
0.0
220
0.0
230
1.0
  0
CIRCLE
  5
176
100
AcDbEntity
  8
1
  6
CONTINUOUS
 62
     7
100
AcDbCircle
 10
238.971
 20
358.0748
 30
0.0
 40
0.2328
210
0.0
220
0.0
230
1.0
  0
CIRCLE
  5
177
100
AcDbEntity
  8
1
  6
CONTINUOUS
 62
     7
100
AcDbCircle
 10
242.7972
 20
361.8472
 30
0.0
 40
0.2328
210
0.0
220
0.0
230
1.0
  0
CIRCLE
  5
178
100
AcDbEntity
  8
1
  6
CONTINUOUS
 62
     7
100
AcDbCircle
 10
243.2651
 20
355.5691
 30
0.0
 40
0.2328
210
0.0
220
0.0
230
1.0
  0
CIRCLE
  5
179
100
AcDbEntity
  8
1
  6
CONTINUOUS
 62
     7
100
AcDbCircle
 10
239.3288
 20
351.6315
 30
0.0
 40
0.2328
210
0.0
220
0.0
230
1.0
  0
CIRCLE
  5
17A
100
AcDbEntity
  8
1
  6
CONTINUOUS
 62
     7
100
AcDbCircle
 10
231.5983
 20
350.6788
 30
0.0
 40
0.2328
210
0.0
220
0.0
230
1.0
  0
CIRCLE
  5
17B
100
AcDbEntity
  8
1
  6
CONTINUOUS
 62
     7
100
AcDbCircle
 10
231.5521
 20
343.8767
 30
0.0
 40
0.2328
210
0.0
220
0.0
230
1.0
  0
CIRCLE
  5
17C
100
AcDbEntity
  8
1
  6
CONTINUOUS
 62
     7
100
AcDbCircle
 10
235.4377
 20
347.7636
 30
0.0
 40
0.2328
210
0.0
220
0.0
230
1.0
  0
CIRCLE
  5
17D
100
AcDbEntity
  8
1
  6
CONTINUOUS
 62
     7
100
AcDbCircle
 10
239.3696
 20
344.8947
 30
0.0
 40
0.2328
210
0.0
220
0.0
230
1.0
  0
CIRCLE
  5
17E
100
AcDbEntity
  8
1
  6
CONTINUOUS
 62
     7
100
AcDbCircle
 10
235.4377
 20
340.9153
 30
0.0
 40
0.2328
210
0.0
220
0.0
230
1.0
  0
CIRCLE
  5
17F
100
AcDbEntity
  8
1
  6
CONTINUOUS
 62
     7
100
AcDbCircle
 10
231.367
 20
336.8895
 30
0.0
 40
0.2328
210
0.0
220
0.0
230
1.0
  0
CIRCLE
  5
180
100
AcDbEntity
  8
1
  6
CONTINUOUS
 62
     7
100
AcDbCircle
 10
230.5344
 20
329.3009
 30
0.0
 40
0.2328
210
0.0
220
0.0
230
1.0
  0
CIRCLE
  5
181
100
AcDbEntity
  8
1
  6
CONTINUOUS
 62
     7
100
AcDbCircle
 10
234.8364
 20
333.6505
 30
0.0
 40
0.2328
210
0.0
220
0.0
230
1.0
  0
CIRCLE
  5
182
100
AcDbEntity
  8
1
  6
CONTINUOUS
 62
     7
100
AcDbCircle
 10
239.092
 20
337.8613
 30
0.0
 40
0.2328
210
0.0
220
0.0
230
1.0
  0
CIRCLE
  5
183
100
AcDbEntity
  8
1
  6
CONTINUOUS
 62
     7
100
AcDbCircle
 10
243.394
 20
342.1646
 30
0.0
 40
0.2328
210
0.0
220
0.0
230
1.0
  0
CIRCLE
  5
184
100
AcDbEntity
  8
1
  6
CONTINUOUS
 62
     7
100
AcDbCircle
 10
243.0239
 20
334.9924
 30
0.0
 40
0.2328
210
0.0
220
0.0
230
1.0
  0
CIRCLE
  5
185
100
AcDbEntity
  8
1
  6
CONTINUOUS
 62
     7
100
AcDbCircle
 10
238.537
 20
330.5502
 30
0.0
 40
0.2328
210
0.0
220
0.0
230
1.0
  0
CIRCLE
  5
186
100
AcDbEntity
  8
1
  6
CONTINUOUS
 62
     7
100
AcDbCircle
 10
233.7724
 20
325.7379
 30
0.0
 40
0.2328
210
0.0
220
0.0
230
1.0
  0
CIRCLE
  5
187
100
AcDbEntity
  8
1
  6
CONTINUOUS
 62
     7
100
AcDbCircle
 10
229.2223
 20
321.1587
 30
0.0
 40
0.2328
210
0.0
220
0.0
230
1.0
  0
CIRCLE
  5
188
100
AcDbEntity
  8
1
  6
CONTINUOUS
 62
     7
100
AcDbCircle
 10
227.3566
 20
312.4921
 30
0.0
 40
0.2328
210
0.0
220
0.0
230
1.0
  0
CIRCLE
  5
189
100
AcDbEntity
  8
1
  6
CONTINUOUS
 62
     7
100
AcDbCircle
 10
232.4936
 20
317.6562
 30
0.0
 40
0.2328
210
0.0
220
0.0
230
1.0
  0
CIRCLE
  5
18A
100
AcDbEntity
  8
1
  6
CONTINUOUS
 62
     7
100
AcDbCircle
 10
237.426
 20
322.5648
 30
0.0
 40
0.2328
210
0.0
220
0.0
230
1.0
  0
CIRCLE
  5
18B
100
AcDbEntity
  8
1
  6
CONTINUOUS
 62
     7
100
AcDbCircle
 10
242.2818
 20
327.4477
 30
0.0
 40
0.2328
210
0.0
220
0.0
230
1.0
  0
CIRCLE
  5
18C
100
AcDbEntity
  8
1
  6
CONTINUOUS
 62
     7
100
AcDbCircle
 10
241.004
 20
319.3947
 30
0.0
 40
0.2328
210
0.0
220
0.0
230
1.0
  0
CIRCLE
  5
18D
100
AcDbEntity
  8
1
  6
CONTINUOUS
 62
     7
100
AcDbCircle
 10
235.6626
 20
314.0515
 30
0.0
 40
0.2328
210
0.0
220
0.0
230
1.0
  0
CIRCLE
  5
18E
100
AcDbEntity
  8
1
  6
CONTINUOUS
 62
     7
100
AcDbCircle
 10
239.1128
 20
310.7025
 30
0.0
 40
0.2328
210
0.0
220
0.0
230
1.0
  0
CIRCLE
  5
18F
100
AcDbEntity
  8
1
  6
CONTINUOUS
 62
     7
100
AcDbCircle
 10
230.2309
 20
308.6376
 30
0.0
 40
0.2328
210
0.0
220
0.0
230
1.0
  0
CIRCLE
  5
190
100
AcDbEntity
  8
1
  6
CONTINUOUS
 62
     7
100
AcDbCircle
 10
224.5223
 20
302.8883
 30
0.0
 40
0.2328
210
0.0
220
0.0
230
1.0
  0
CIRCLE
  5
191
100
AcDbEntity
  8
1
  6
CONTINUOUS
 62
     7
100
AcDbCircle
 10
220.4058
 20
292.05
 30
0.0
 40
0.2328
210
0.0
220
0.0
230
1.0
  0
CIRCLE
  5
192
100
AcDbEntity
  8
1
  6
CONTINUOUS
 62
     7
100
AcDbCircle
 10
227.2407
 20
298.8482
 30
0.0
 40
0.2328
210
0.0
220
0.0
230
1.0
  0
CIRCLE
  5
193
100
AcDbEntity
  8
1
  6
CONTINUOUS
 62
     7
100
AcDbCircle
 10
233.3377
 20
304.9472
 30
0.0
 40
0.2328
210
0.0
220
0.0
230
1.0
  0
CIRCLE
  5
194
100
AcDbEntity
  8
1
  6
CONTINUOUS
 62
     7
100
AcDbCircle
 10
236.4832
 20
301.2955
 30
0.0
 40
0.2328
210
0.0
220
0.0
230
1.0
  0
CIRCLE
  5
195
100
AcDbEntity
  8
1
  6
CONTINUOUS
 62
     7
100
AcDbCircle
 10
229.8426
 20
294.6139
 30
0.0
 40
0.2328
210
0.0
220
0.0
230
1.0
  0
CIRCLE
  5
196
100
AcDbEntity
  8
1
  6
CONTINUOUS
 62
     7
100
AcDbCircle
 10
232.6775
 20
290.7292
 30
0.0
 40
0.2328
210
0.0
220
0.0
230
1.0
  0
CIRCLE
  5
197
100
AcDbEntity
  8
1
  6
CONTINUOUS
 62
     7
100
AcDbCircle
 10
242.7744
 20
307.5499
 30
0.0
 40
0.2328
210
0.0
220
0.0
230
1.0
  0
CIRCLE
  5
198
100
AcDbEntity
  8
1
  6
CONTINUOUS
 62
     7
100
AcDbCircle
 10
240.056
 20
298.0712
 30
0.0
 40
0.2328
210
0.0
220
0.0
230
1.0
  0
CIRCLE
  5
199
100
AcDbEntity
  8
1
  6
CONTINUOUS
 62
     7
100
AcDbCircle
 10
222.3886
 20
287.1976
 30
0.0
 40
0.2328
210
0.0
220
0.0
230
1.0
  0
CIRCLE
  5
19A
100
AcDbEntity
  8
1
  6
CONTINUOUS
 62
     7
100
AcDbCircle
 10
213.4999
 20
278.2668
 30
0.0
 40
0.2328
210
0.0
220
0.0
230
1.0
  0
CIRCLE
  5
19B
100
AcDbEntity
  8
1
  6
CONTINUOUS
 62
     7
100
AcDbCircle
 10
224.464
 20
282.458
 30
0.0
 40
0.2328
210
0.0
220
0.0
230
1.0
  0
CIRCLE
  5
19C
100
AcDbEntity
  8
1
  6
CONTINUOUS
 62
     7
100
AcDbCircle
 10
235.7022
 20
286.9234
 30
0.0
 40
0.2328
210
0.0
220
0.0
230
1.0
  0
CIRCLE
  5
19D
100
AcDbEntity
  8
1
  6
CONTINUOUS
 62
     7
100
AcDbCircle
 10
226.8917
 20
278.0317
 30
0.0
 40
0.2328
210
0.0
220
0.0
230
1.0
  0
CIRCLE
  5
19E
100
AcDbEntity
  8
1
  6
CONTINUOUS
 62
     7
100
AcDbCircle
 10
214.5637
 20
272.5685
 30
0.0
 40
0.2328
210
0.0
220
0.0
230
1.0
  0
CIRCLE
  5
19F
100
AcDbEntity
  8
1
  6
CONTINUOUS
 62
     7
100
AcDbCircle
 10
215.5658
 20
266.79
 30
0.0
 40
0.2328
210
0.0
220
0.0
230
1.0
  0
LINE
  5
1A0
100
AcDbEntity
  8
1
  6
CONTINUOUS
 62
     7
100
AcDbLine
 10
217.9268
 20
346.6864
 30
0.0
 11
221.5268
 21
346.6864
 31
0.0
  0
LINE
  5
1A1
100
AcDbEntity
  8
1
  6
CONTINUOUS
 62
     7
100
AcDbLine
 10
224.5268
 20
346.6864
 30
0.0
 11
234.1268
 21
346.6864
 31
0.0
  0
LINE
  5
1A2
100
AcDbEntity
  8
1
  6
CONTINUOUS
 62
     7
100
AcDbLine
 10
143.7845
 20
375.5773
 30
0.0
 11
143.7845
 21
439.1773
 31
0.0
  0
LINE
  5
1A3
100
AcDbEntity
  8
1
  6
CONTINUOUS
 62
     7
100
AcDbLine
 10
171.0174
 20
365.6726
 30
0.0
 11
171.0174
 21
439.1773
 31
0.0
  0
LINE
  5
1A4
100
AcDbEntity
  8
1
  6
CONTINUOUS
 62
     7
100
AcDbLine
 10
149.4845
 20
415.9557
 30
0.0
 11
149.4845
 21
425.5557
 31
0.0
  0
LINE
  5
1A5
100
AcDbEntity
  8
1
  6
CONTINUOUS
 62
     7
100
AcDbLine
 10
225.3378
 20
384.0075
 30
0.0
 11
196.7409
 21
372.0882
 31
0.0
  0
LINE
  5
1A6
100
AcDbEntity
  8
1
  6
CONTINUOUS
 62
     7
100
AcDbLine
 10
212.2552
 20
314.1123
 30
0.0
 11
196.5989
 21
318.931
 31
0.0
  0
LINE
  5
1A7
100
AcDbEntity
  8
1
  6
CONTINUOUS
 62
     7
100
AcDbLine
 10
216.7268
 20
346.6864
 30
0.0
 11
216.7268
 21
251.8894
 31
0.0
  0
LINE
  5
1A8
100
AcDbEntity
  8
1
  6
CONTINUOUS
 62
     7
100
AcDbLine
 10
230.5268
 20
346.6864
 30
0.0
 11
230.5268
 21
235.8219
 31
0.0
  0
LINE
  5
1A9
100
AcDbEntity
  8
1
  6
CONTINUOUS
 62
     7
100
AcDbLine
 10
216.7268
 20
253.0894
 30
0.0
 11
221.5268
 21
253.0894
 31
0.0
  0
LINE
  5
1AA
100
AcDbEntity
  8
1
  6
CONTINUOUS
 62
     7
100
AcDbLine
 10
230.5268
 20
237.0219
 30
0.0
 11
235.3268
 21
237.0219
 31
0.0
  0
LINE
  5
1AB
100
AcDbEntity
  8
1
  6
CONTINUOUS
 62
     7
100
AcDbLine
 10
206.5268
 20
253.0894
 30
0.0
 11
201.7268
 21
253.0894
 31
0.0
  0
LINE
  5
1AC
100
AcDbEntity
  8
1
  6
CONTINUOUS
 62
     7
100
AcDbLine
 10
206.5268
 20
237.0219
 30
0.0
 11
201.7268
 21
237.0219
 31
0.0
  0
LINE
  5
1AD
100
AcDbEntity
  8
1
  6
CONTINUOUS
 62
     7
100
AcDbLine
 10
143.7845
 20
437.9773
 30
0.0
 11
171.0174
 21
437.9773
 31
0.0
  0
LINE
  5
1AE
100
AcDbEntity
  8
1
  6
CONTINUOUS
 62
     7
100
AcDbLine
 10
149.4845
 20
424.3557
 30
0.0
 11
154.2845
 21
424.3557
 31
0.0
  0
LINE
  5
1AF
100
AcDbEntity
  8
1
  6
CONTINUOUS
 62
     7
100
AcDbLine
 10
143.7845
 20
424.3557
 30
0.0
 11
138.9845
 21
424.3557
 31
0.0
  0
LINE
  5
1B0
100
AcDbEntity
  8
1
  6
CONTINUOUS
 62
     6
100
AcDbLine
 10
28.682
 20
236.1392
 30
0.0
 11
35.7128
 21
236.1392
 31
0.0
  0
LINE
  5
1B1
100
AcDbEntity
  8
1
  6
CONTINUOUS
 62
     6
100
AcDbLine
 10
29.7579
 20
209.7392
 30
0.0
 11
34.6369
 21
209.7392
 31
0.0
  0
LINE
  5
1B2
100
AcDbEntity
  8
1
  6
CONTINUOUS
 62
     6
100
AcDbLine
 10
27.4848
 20
234.8576
 30
0.0
 11
29.1593
 21
210.2984
 31
0.0
  0
LINE
  5
1B3
100
AcDbEntity
  8
1
  6
CONTINUOUS
 62
     6
100
AcDbLine
 10
36.91
 20
234.8576
 30
0.0
 11
35.2355
 21
210.2984
 31
0.0
  0
ARC
  5
1B4
100
AcDbEntity
  8
1
  6
CONTINUOUS
 62
     6
100
AcDbCircle
 10
28.682007
 20
234.9392
 30
0.0
 40
1.2
210
0.0
220
0.0
230
1.0
100
AcDbArc
 50
90.0
 51
183.900614
  0
ARC
  5
1B5
100
AcDbEntity
  8
1
  6
CONTINUOUS
 62
     6
100
AcDbCircle
 10
35.712793
 20
234.9392
 30
0.0
 40
1.2
210
0.0
220
0.0
230
1.0
100
AcDbArc
 50
356.099361
 51
90.0
  0
ARC
  5
1B6
100
AcDbEntity
  8
1
  6
CONTINUOUS
 62
     6
100
AcDbCircle
 10
29.757886
 20
210.3392
 30
0.0
 40
0.6
210
0.0
220
0.0
230
1.0
100
AcDbArc
 50
183.900269
 51
270.0
  0
ARC
  5
1B7
100
AcDbEntity
  8
1
  6
CONTINUOUS
 62
     6
100
AcDbCircle
 10
34.636904
 20
210.3392
 30
0.0
 40
0.6
210
0.0
220
0.0
230
1.0
100
AcDbArc
 50
270.0
 51
356.1007
  0
LINE
  5
1B8
100
AcDbEntity
  8
1
  6
CONTINUOUS
 62
     6
100
AcDbLine
 10
27.6838
 20
231.9392
 30
0.0
 11
36.711
 21
231.9392
 31
0.0
  0
LINE
  5
1B9
100
AcDbEntity
  8
1
  6
CONTINUOUS
 62
     6
100
AcDbLine
 10
24.1656
 20
230.7392
 30
0.0
 11
36.6292
 21
230.7392
 31
0.0
  0
LINE
  5
1BA
100
AcDbEntity
  8
1
  6
CONTINUOUS
 62
     6
100
AcDbLine
 10
28.0111
 20
227.1392
 30
0.0
 11
36.3837
 21
227.1392
 31
0.0
  0
LINE
  5
1BB
100
AcDbEntity
  8
1
  6
CONTINUOUS
 62
     6
100
AcDbLine
 10
28.2565
 20
223.5392
 30
0.0
 11
36.1383
 21
223.5392
 31
0.0
  0
LINE
  5
1BC
100
AcDbEntity
  8
1
  6
CONTINUOUS
 62
     6
100
AcDbLine
 10
28.5224
 20
219.6392
 30
0.0
 11
35.8724
 21
219.6392
 31
0.0
  0
LINE
  5
1BD
100
AcDbEntity
  8
1
  6
CONTINUOUS
 62
     6
100
AcDbLine
 10
28.727
 20
216.6392
 30
0.0
 11
35.6678
 21
216.6392
 31
0.0
  0
LINE
  5
1BE
100
AcDbEntity
  8
1
  6
CONTINUOUS
 62
     6
100
AcDbLine
 10
28.9724
 20
213.0392
 30
0.0
 11
35.4224
 21
213.0392
 31
0.0
  0
LINE
  5
1BF
100
AcDbEntity
  8
1
  6
CONTINUOUS
 62
     6
100
AcDbLine
 10
28.6677
 20
230.7392
 30
0.0
 11
28.9131
 21
227.1392
 31
0.0
  0
LINE
  5
1C0
100
AcDbEntity
  8
1
  6
CONTINUOUS
 62
     6
100
AcDbLine
 10
29.3428
 20
220.8364
 30
0.0
 11
30.0995
 21
209.7392
 31
0.0
  0
LINE
  5
1C1
100
AcDbEntity
  8
1
  6
CONTINUOUS
 62
     6
100
AcDbLine
 10
28.9947
 20
225.9418
 30
0.0
 11
29.2609
 21
222.0335
 31
0.0
  0
LINE
  5
1C2
100
AcDbEntity
  8
1
  6
CONTINUOUS
 62
     6
100
AcDbLine
 10
36.6292
 20
230.7392
 30
0.0
 11
85.9656
 21
230.7392
 31
0.0
  0
LINE
  5
1C3
100
AcDbEntity
  8
1
  6
CONTINUOUS
 62
     6
100
AcDbLine
 10
36.3837
 20
227.1392
 30
0.0
 11
86.2111
 21
227.1392
 31
0.0
  0
LINE
  5
1C4
100
AcDbEntity
  8
1
  6
CONTINUOUS
 62
     6
100
AcDbLine
 10
24.1656
 20
230.7392
 30
0.0
 11
24.5824
 21
233.1027
 31
0.0
  0
LINE
  5
1C5
100
AcDbEntity
  8
1
  6
CONTINUOUS
 62
     6
100
AcDbLine
 10
24.5824
 20
233.1027
 30
0.0
 11
27.4848
 21
234.8576
 31
0.0
  0
LINE
  5
1C6
100
AcDbEntity
  8
1
  6
DASHED
 62
     6
100
AcDbLine
 10
33.854
 20
227.4392
 30
0.0
 11
33.3128
 21
236.1392
 31
0.0
  0
LINE
  5
1C7
100
AcDbEntity
  8
1
  6
CONTINUOUS
 62
     6
100
AcDbLine
 10
36.711
 20
231.9392
 30
0.0
 11
33.3128
 21
236.1392
 31
0.0
  0
LINE
  5
1C8
100
AcDbEntity
  8
1
  6
DASHED
 62
     6
100
AcDbLine
 10
33.854
 20
227.4392
 30
0.0
 11
88.7408
 21
227.4392
 31
0.0
  0
LINE
  5
1C9
100
AcDbEntity
  8
1
  6
DASHED
 62
     6
100
AcDbLine
 10
36.3837
 20
228.6392
 30
0.0
 11
86.1088
 21
228.6392
 31
0.0
  0
LINE
  5
1CA
100
AcDbEntity
  8
1
  6
CONTINUOUS
 62
     6
100
AcDbLine
 10
24.5824
 20
233.1027
 30
0.0
 11
27.7423
 21
233.1027
 31
0.0
  0
LINE
  5
1CB
100
AcDbEntity
  8
1
  6
CONTINUOUS
 62
     6
100
AcDbLine
 10
93.9128
 20
236.1392
 30
0.0
 11
86.882
 21
236.1392
 31
0.0
  0
LINE
  5
1CC
100
AcDbEntity
  8
1
  6
CONTINUOUS
 62
     6
100
AcDbLine
 10
92.8369
 20
209.7392
 30
0.0
 11
87.9579
 21
209.7392
 31
0.0
  0
LINE
  5
1CD
100
AcDbEntity
  8
1
  6
CONTINUOUS
 62
     6
100
AcDbLine
 10
95.11
 20
234.8576
 30
0.0
 11
93.4355
 21
210.2984
 31
0.0
  0
LINE
  5
1CE
100
AcDbEntity
  8
1
  6
CONTINUOUS
 62
     6
100
AcDbLine
 10
85.6848
 20
234.8576
 30
0.0
 11
87.3593
 21
210.2984
 31
0.0
  0
ARC
  5
1CF
100
AcDbEntity
  8
1
  6
CONTINUOUS
 62
     6
100
AcDbCircle
 10
93.912793
 20
234.9392
 30
0.0
 40
1.2
210
0.0
220
0.0
230
1.0
100
AcDbArc
 50
356.099386
 51
90.0
  0
ARC
  5
1D0
100
AcDbEntity
  8
1
  6
CONTINUOUS
 62
     6
100
AcDbCircle
 10
86.882007
 20
234.9392
 30
0.0
 40
1.2
210
0.0
220
0.0
230
1.0
100
AcDbArc
 50
90.0
 51
183.900639
  0
ARC
  5
1D1
100
AcDbEntity
  8
1
  6
CONTINUOUS
 62
     6
100
AcDbCircle
 10
92.836914
 20
210.3392
 30
0.0
 40
0.6
210
0.0
220
0.0
230
1.0
100
AcDbArc
 50
270.0
 51
356.099731
  0
ARC
  5
1D2
100
AcDbEntity
  8
1
  6
CONTINUOUS
 62
     6
100
AcDbCircle
 10
87.957896
 20
210.3392
 30
0.0
 40
0.6
210
0.0
220
0.0
230
1.0
100
AcDbArc
 50
183.8993
 51
270.0
  0
LINE
  5
1D3
100
AcDbEntity
  8
1
  6
CONTINUOUS
 62
     6
100
AcDbLine
 10
94.911
 20
231.9392
 30
0.0
 11
85.8838
 21
231.9392
 31
0.0
  0
LINE
  5
1D4
100
AcDbEntity
  8
1
  6
CONTINUOUS
 62
     6
100
AcDbLine
 10
98.4292
 20
230.7392
 30
0.0
 11
85.9656
 21
230.7392
 31
0.0
  0
LINE
  5
1D5
100
AcDbEntity
  8
1
  6
CONTINUOUS
 62
     6
100
AcDbLine
 10
94.5837
 20
227.1392
 30
0.0
 11
86.2111
 21
227.1392
 31
0.0
  0
LINE
  5
1D6
100
AcDbEntity
  8
1
  6
CONTINUOUS
 62
     6
100
AcDbLine
 10
94.3383
 20
223.5392
 30
0.0
 11
86.4565
 21
223.5392
 31
0.0
  0
LINE
  5
1D7
100
AcDbEntity
  8
1
  6
CONTINUOUS
 62
     6
100
AcDbLine
 10
94.0724
 20
219.6392
 30
0.0
 11
86.7224
 21
219.6392
 31
0.0
  0
LINE
  5
1D8
100
AcDbEntity
  8
1
  6
CONTINUOUS
 62
     6
100
AcDbLine
 10
93.8678
 20
216.6392
 30
0.0
 11
86.927
 21
216.6392
 31
0.0
  0
LINE
  5
1D9
100
AcDbEntity
  8
1
  6
CONTINUOUS
 62
     6
100
AcDbLine
 10
93.6224
 20
213.0392
 30
0.0
 11
87.1724
 21
213.0392
 31
0.0
  0
LINE
  5
1DA
100
AcDbEntity
  8
1
  6
CONTINUOUS
 62
     6
100
AcDbLine
 10
93.9271
 20
230.7392
 30
0.0
 11
93.6817
 21
227.1392
 31
0.0
  0
LINE
  5
1DB
100
AcDbEntity
  8
1
  6
CONTINUOUS
 62
     6
100
AcDbLine
 10
93.252
 20
220.8364
 30
0.0
 11
92.4953
 21
209.7392
 31
0.0
  0
LINE
  5
1DC
100
AcDbEntity
  8
1
  6
CONTINUOUS
 62
     6
100
AcDbLine
 10
93.6001
 20
225.9418
 30
0.0
 11
93.3339
 21
222.0335
 31
0.0
  0
LINE
  5
1DD
100
AcDbEntity
  8
1
  6
CONTINUOUS
 62
     6
100
AcDbLine
 10
98.4292
 20
230.7392
 30
0.0
 11
98.0124
 21
233.1027
 31
0.0
  0
LINE
  5
1DE
100
AcDbEntity
  8
1
  6
CONTINUOUS
 62
     6
100
AcDbLine
 10
98.0124
 20
233.1027
 30
0.0
 11
95.11
 21
234.8576
 31
0.0
  0
LINE
  5
1DF
100
AcDbEntity
  8
1
  6
DASHED
 62
     6
100
AcDbLine
 10
88.7408
 20
227.4392
 30
0.0
 11
89.282
 21
236.1392
 31
0.0
  0
LINE
  5
1E0
100
AcDbEntity
  8
1
  6
CONTINUOUS
 62
     6
100
AcDbLine
 10
85.8838
 20
231.9392
 30
0.0
 11
89.282
 21
236.1392
 31
0.0
  0
LINE
  5
1E1
100
AcDbEntity
  8
1
  6
CONTINUOUS
 62
     6
100
AcDbLine
 10
98.0124
 20
233.1027
 30
0.0
 11
94.8525
 21
233.1027
 31
0.0
  0
LINE
  5
1E2
100
AcDbEntity
  8
1
  6
CONTINUOUS
 62
     6
100
AcDbLine
 10
149.4845
 20
194.5528
 30
0.0
 11
113.1974
 21
194.5528
 31
0.0
  0
POLYLINE
  5
1E3
100
AcDbEntity
  8
1
  6
CONTINUOUS
 62
     6
100
AcDb2dPolyline
 66
     1
 10
0.0
 20
0.0
 30
0.0
 70
     1
  0
VERTEX
  5
1E4
100
AcDbEntity
  8
1
  6
CONTINUOUS
 62
     6
100
AcDbVertex
100
AcDb2dVertex
 10
27.3974
 20
194.5528
 30
0.0
  0
VERTEX
  5
1E5
100
AcDbEntity
  8
1
  6
CONTINUOUS
 62
     6
100
AcDbVertex
100
AcDb2dVertex
 10
4.5974
 20
194.5528
 30
0.0
  0
VERTEX
  5
1E6
100
AcDbEntity
  8
1
  6
CONTINUOUS
 62
     6
100
AcDbVertex
100
AcDb2dVertex
 10
5.5404
 20
179.8812
 30
0.0
  0
VERTEX
  5
1E7
100
AcDbEntity
  8
1
  6
CONTINUOUS
 62
     6
100
AcDbVertex
100
AcDb2dVertex
 10
7.6178
 20
170.6782
 30
0.0
  0
VERTEX
  5
1E8
100
AcDbEntity
  8
1
  6
CONTINUOUS
 62
     6
100
AcDbVertex
100
AcDb2dVertex
 10
7.9146
 20
159.3972
 30
0.0
  0
VERTEX
  5
1E9
100
AcDbEntity
  8
1
  6
CONTINUOUS
 62
     6
100
AcDbVertex
100
AcDb2dVertex
 10
11.7727
 20
152.5692
 30
0.0
  0
VERTEX
  5
1EA
100
AcDbEntity
  8
1
  6
CONTINUOUS
 62
     6
100
AcDbVertex
100
AcDb2dVertex
 10
28.9855
 20
152.866
 30
0.0
  0
VERTEX
  5
1EB
100
AcDbEntity
  8
1
  6
CONTINUOUS
 62
     6
100
AcDbVertex
100
AcDb2dVertex
 10
41.1533
 20
152.2723
 30
0.0
  0
VERTEX
  5
1EC
100
AcDbEntity
  8
1
  6
CONTINUOUS
 62
     6
100
AcDbVertex
100
AcDb2dVertex
 10
53.6178
 20
153.7566
 30
0.0
  0
VERTEX
  5
1ED
100
AcDbEntity
  8
1
  6
CONTINUOUS
 62
     6
100
AcDbVertex
100
AcDb2dVertex
 10
69.3468
 20
153.1629
 30
0.0
  0
VERTEX
  5
1EE
100
AcDbEntity
  8
1
  6
CONTINUOUS
 62
     6
100
AcDbVertex
100
AcDb2dVertex
 10
81.8113
 20
151.0848
 30
0.0
  0
VERTEX
  5
1EF
100
AcDbEntity
  8
1
  6
CONTINUOUS
 62
     6
100
AcDbVertex
100
AcDb2dVertex
 10
99.3209
 20
149.3036
 30
0.0
  0
VERTEX
  5
1F0
100
AcDbEntity
  8
1
  6
CONTINUOUS
 62
     6
100
AcDbVertex
100
AcDb2dVertex
 10
112.0822
 20
152.5692
 30
0.0
  0
VERTEX
  5
1F1
100
AcDbEntity
  8
1
  6
CONTINUOUS
 62
     6
100
AcDbVertex
100
AcDb2dVertex
 10
118.0177
 20
159.694
 30
0.0
  0
VERTEX
  5
1F2
100
AcDbEntity
  8
1
  6
CONTINUOUS
 62
     6
100
AcDbVertex
100
AcDb2dVertex
 10
117.1273
 20
171.5688
 30
0.0
  0
VERTEX
  5
1F3
100
AcDbEntity
  8
1
  6
CONTINUOUS
 62
     6
100
AcDbVertex
100
AcDb2dVertex
 10
115.3467
 20
179.8812
 30
0.0
  0
VERTEX
  5
1F4
100
AcDbEntity
  8
1
  6
CONTINUOUS
 62
     6
100
AcDbVertex
100
AcDb2dVertex
 10
113.1974
 20
194.5528
 30
0.0
  0
VERTEX
  5
1F5
100
AcDbEntity
  8
1
  6
CONTINUOUS
 62
     6
100
AcDbVertex
100
AcDb2dVertex
 10
95.1974
 20
194.5528
 30
0.0
  0
VERTEX
  5
1F6
100
AcDbEntity
  8
1
  6
CONTINUOUS
 62
     6
100
AcDbVertex
100
AcDb2dVertex
 10
95.1974
 20
169.9528
 30
0.0
  0
VERTEX
  5
1F7
100
AcDbEntity
  8
1
  6
CONTINUOUS
 62
     6
100
AcDbVertex
100
AcDb2dVertex
 10
85.5974
 20
169.9528
 30
0.0
  0
VERTEX
  5
1F8
100
AcDbEntity
  8
1
  6
CONTINUOUS
 62
     6
100
AcDbVertex
100
AcDb2dVertex
 10
85.5974
 20
184.3528
 30
0.0
  0
VERTEX
  5
1F9
100
AcDbEntity
  8
1
  6
CONTINUOUS
 62
     6
100
AcDbVertex
100
AcDb2dVertex
 10
36.9974
 20
184.3528
 30
0.0
  0
VERTEX
  5
1FA
100
AcDbEntity
  8
1
  6
CONTINUOUS
 62
     6
100
AcDbVertex
100
AcDb2dVertex
 10
36.9974
 20
169.9528
 30
0.0
  0
VERTEX
  5
1FB
100
AcDbEntity
  8
1
  6
CONTINUOUS
 62
     6
100
AcDbVertex
100
AcDb2dVertex
 10
27.3974
 20
169.9528
 30
0.0
  0
VERTEX
  5
1FC
100
AcDbEntity
  8
1
  6
CONTINUOUS
 62
     6
100
AcDbVertex
100
AcDb2dVertex
 10
27.3974
 20
194.5528
 30
0.0
  0
SEQEND
  5
1FD
100
AcDbEntity
  8
1
  6
CONTINUOUS
 62
     6
  0
LINE
  5
1FE
100
AcDbEntity
  8
1
  6
CONTINUOUS
 62
     6
100
AcDbLine
 10
4.917
 20
189.5809
 30
0.0
 11
9.8889
 21
194.5528
 31
0.0
  0
LINE
  5
1FF
100
AcDbEntity
  8
1
  6
CONTINUOUS
 62
     6
100
AcDbLine
 10
5.3269
 20
183.2026
 30
0.0
 11
16.6771
 21
194.5528
 31
0.0
  0
LINE
  5
200
100
AcDbEntity
  8
1
  6
CONTINUOUS
 62
     6
100
AcDbLine
 10
6.1395
 20
177.227
 30
0.0
 11
23.4653
 21
194.5528
 31
0.0
  0
LINE
  5
201
100
AcDbEntity
  8
1
  6
CONTINUOUS
 62
     6
100
AcDbLine
 10
7.3897
 20
171.6889
 30
0.0
 11
27.3974
 21
191.6966
 31
0.0
  0
LINE
  5
202
100
AcDbEntity
  8
1
  6
CONTINUOUS
 62
     6
100
AcDbLine
 10
7.7601
 20
165.2711
 30
0.0
 11
27.3974
 21
184.9084
 31
0.0
  0
LINE
  5
203
100
AcDbEntity
  8
1
  6
CONTINUOUS
 62
     6
100
AcDbLine
 10
8.1889
 20
158.9117
 30
0.0
 11
27.3974
 21
178.1202
 31
0.0
  0
LINE
  5
204
100
AcDbEntity
  8
1
  6
CONTINUOUS
 62
     6
100
AcDbLine
 10
10.6397
 20
154.5743
 30
0.0
 11
27.3974
 21
171.332
 31
0.0
  0
LINE
  5
205
100
AcDbEntity
  8
1
  6
CONTINUOUS
 62
     6
100
AcDbLine
 10
36.9974
 20
180.932
 30
0.0
 11
40.4182
 21
184.3528
 31
0.0
  0
LINE
  5
206
100
AcDbEntity
  8
1
  6
CONTINUOUS
 62
     6
100
AcDbLine
 10
15.4869
 20
152.6332
 30
0.0
 11
32.8065
 21
169.9528
 31
0.0
  0
LINE
  5
207
100
AcDbEntity
  8
1
  6
CONTINUOUS
 62
     6
100
AcDbLine
 10
36.9974
 20
174.1437
 30
0.0
 11
47.2065
 21
184.3528
 31
0.0
  0
LINE
  5
208
100
AcDbEntity
  8
1
  6
CONTINUOUS
 62
     6
100
AcDbLine
 10
22.3942
 20
152.7523
 30
0.0
 11
53.9947
 21
184.3528
 31
0.0
  0
LINE
  5
209
100
AcDbEntity
  8
1
  6
CONTINUOUS
 62
     6
100
AcDbLine
 10
29.2817
 20
152.8515
 30
0.0
 11
60.7829
 21
184.3528
 31
0.0
  0
LINE
  5
20A
100
AcDbEntity
  8
1
  6
CONTINUOUS
 62
     6
100
AcDbLine
 10
35.7541
 20
152.5357
 30
0.0
 11
67.5711
 21
184.3528
 31
0.0
  0
LINE
  5
20B
100
AcDbEntity
  8
1
  6
CONTINUOUS
 62
     6
100
AcDbLine
 10
42.431
 20
152.4245
 30
0.0
 11
74.3594
 21
184.3528
 31
0.0
  0
LINE
  5
20C
100
AcDbEntity
  8
1
  6
CONTINUOUS
 62
     6
100
AcDbLine
 10
50.1369
 20
153.3421
 30
0.0
 11
81.1476
 21
184.3528
 31
0.0
  0
LINE
  5
20D
100
AcDbEntity
  8
1
  6
CONTINUOUS
 62
     6
100
AcDbLine
 10
57.2043
 20
153.6212
 30
0.0
 11
85.5974
 21
182.0144
 31
0.0
  0
LINE
  5
20E
100
AcDbEntity
  8
1
  6
CONTINUOUS
 62
     6
100
AcDbLine
 10
95.1974
 20
191.6144
 30
0.0
 11
98.1358
 21
194.5528
 31
0.0
  0
LINE
  5
20F
100
AcDbEntity
  8
1
  6
CONTINUOUS
 62
     6
100
AcDbLine
 10
63.7456
 20
153.3743
 30
0.0
 11
85.5974
 21
175.2261
 31
0.0
  0
LINE
  5
210
100
AcDbEntity
  8
1
  6
CONTINUOUS
 62
     6
100
AcDbLine
 10
95.1974
 20
184.8261
 30
0.0
 11
104.9241
 21
194.5528
 31
0.0
  0
LINE
  5
211
100
AcDbEntity
  8
1
  6
CONTINUOUS
 62
     6
100
AcDbLine
 10
70.183
 20
153.0235
 30
0.0
 11
87.1123
 21
169.9528
 31
0.0
  0
LINE
  5
212
100
AcDbEntity
  8
1
  6
CONTINUOUS
 62
     6
100
AcDbLine
 10
95.1974
 20
178.0379
 30
0.0
 11
111.7123
 21
194.5528
 31
0.0
  0
LINE
  5
213
100
AcDbEntity
  8
1
  6
CONTINUOUS
 62
     6
100
AcDbLine
 10
76.0012
 20
152.0535
 30
0.0
 11
93.9005
 21
169.9528
 31
0.0
  0
LINE
  5
214
100
AcDbEntity
  8
1
  6
CONTINUOUS
 62
     6
100
AcDbLine
 10
95.1974
 20
171.2497
 30
0.0
 11
113.875
 21
189.9273
 31
0.0
  0
LINE
  5
215
100
AcDbEntity
  8
1
  6
CONTINUOUS
 62
     6
100
AcDbLine
 10
81.8199
 20
151.0839
 30
0.0
 11
114.7424
 21
184.0065
 31
0.0
  0
LINE
  5
216
100
AcDbEntity
  8
1
  6
CONTINUOUS
 62
     6
100
AcDbLine
 10
87.9813
 20
150.4571
 30
0.0
 11
115.7099
 21
178.1857
 31
0.0
  0
LINE
  5
217
100
AcDbEntity
  8
1
  6
CONTINUOUS
 62
     6
100
AcDbLine
 10
94.1427
 20
149.8304
 30
0.0
 11
116.9075
 21
172.5951
 31
0.0
  0
LINE
  5
218
100
AcDbEntity
  8
1
  6
CONTINUOUS
 62
     6
100
AcDbLine
 10
100.7768
 20
149.6762
 30
0.0
 11
117.5139
 21
166.4133
 31
0.0
  0
LINE
  5
219
100
AcDbEntity
  8
1
  6
CONTINUOUS
 62
     6
100
AcDbLine
 10
109.8995
 20
152.0106
 30
0.0
 11
117.9874
 21
160.0985
 31
0.0
  0
CIRCLE
  5
21A
100
AcDbEntity
  8
1
  6
CONTINUOUS
 62
     7
100
AcDbCircle
 10
19.183
 20
180.2985
 30
0.0
 40
0.2328
210
0.0
220
0.0
230
1.0
  0
CIRCLE
  5
21B
100
AcDbEntity
  8
1
  6
CONTINUOUS
 62
     7
100
AcDbCircle
 10
18.3624
 20
193.0545
 30
0.0
 40
0.2328
210
0.0
220
0.0
230
1.0
  0
CIRCLE
  5
21C
100
AcDbEntity
  8
1
  6
CONTINUOUS
 62
     7
100
AcDbCircle
 10
21.8126
 20
189.7055
 30
0.0
 40
0.2328
210
0.0
220
0.0
230
1.0
  0
CIRCLE
  5
21D
100
AcDbEntity
  8
1
  6
CONTINUOUS
 62
     7
100
AcDbCircle
 10
12.9307
 20
187.6406
 30
0.0
 40
0.2328
210
0.0
220
0.0
230
1.0
  0
CIRCLE
  5
21E
100
AcDbEntity
  8
1
  6
CONTINUOUS
 62
     7
100
AcDbCircle
 10
7.2221
 20
181.8913
 30
0.0
 40
0.2328
210
0.0
220
0.0
230
1.0
  0
CIRCLE
  5
21F
100
AcDbEntity
  8
1
  6
CONTINUOUS
 62
     7
100
AcDbCircle
 10
9.9405
 20
177.8512
 30
0.0
 40
0.2328
210
0.0
220
0.0
230
1.0
  0
CIRCLE
  5
220
100
AcDbEntity
  8
1
  6
CONTINUOUS
 62
     7
100
AcDbCircle
 10
16.0375
 20
183.9502
 30
0.0
 40
0.2328
210
0.0
220
0.0
230
1.0
  0
CIRCLE
  5
221
100
AcDbEntity
  8
1
  6
CONTINUOUS
 62
     7
100
AcDbCircle
 10
12.5424
 20
173.6169
 30
0.0
 40
0.2328
210
0.0
220
0.0
230
1.0
  0
CIRCLE
  5
222
100
AcDbEntity
  8
1
  6
CONTINUOUS
 62
     7
100
AcDbCircle
 10
9.475
 20
191.0886
 30
0.0
 40
0.2328
210
0.0
220
0.0
230
1.0
  0
CIRCLE
  5
223
100
AcDbEntity
  8
1
  6
CONTINUOUS
 62
     7
100
AcDbCircle
 10
19.3334
 20
166.5796
 30
0.0
 40
0.2328
210
0.0
220
0.0
230
1.0
  0
CIRCLE
  5
224
100
AcDbEntity
  8
1
  6
CONTINUOUS
 62
     7
100
AcDbCircle
 10
26.9997
 20
181.0271
 30
0.0
 40
0.2328
210
0.0
220
0.0
230
1.0
  0
CIRCLE
  5
225
100
AcDbEntity
  8
1
  6
CONTINUOUS
 62
     7
100
AcDbCircle
 10
21.6583
 20
175.6839
 30
0.0
 40
0.2328
210
0.0
220
0.0
230
1.0
  0
CIRCLE
  5
226
100
AcDbEntity
  8
1
  6
CONTINUOUS
 62
     7
100
AcDbCircle
 10
25.1085
 20
172.3349
 30
0.0
 40
0.2328
210
0.0
220
0.0
230
1.0
  0
CIRCLE
  5
227
100
AcDbEntity
  8
1
  6
CONTINUOUS
 62
     7
100
AcDbCircle
 10
16.2266
 20
170.27
 30
0.0
 40
0.2328
210
0.0
220
0.0
230
1.0
  0
CIRCLE
  5
228
100
AcDbEntity
  8
1
  6
CONTINUOUS
 62
     7
100
AcDbCircle
 10
10.518
 20
164.5207
 30
0.0
 40
0.2328
210
0.0
220
0.0
230
1.0
  0
CIRCLE
  5
229
100
AcDbEntity
  8
1
  6
CONTINUOUS
 62
     7
100
AcDbCircle
 10
13.2364
 20
160.4806
 30
0.0
 40
0.2328
210
0.0
220
0.0
230
1.0
  0
CIRCLE
  5
22A
100
AcDbEntity
  8
1
  6
CONTINUOUS
 62
     7
100
AcDbCircle
 10
22.4789
 20
162.9279
 30
0.0
 40
0.2328
210
0.0
220
0.0
230
1.0
  0
CIRCLE
  5
22B
100
AcDbEntity
  8
1
  6
CONTINUOUS
 62
     7
100
AcDbCircle
 10
15.8383
 20
156.2463
 30
0.0
 40
0.2328
210
0.0
220
0.0
230
1.0
  0
CIRCLE
  5
22C
100
AcDbEntity
  8
1
  6
CONTINUOUS
 62
     7
100
AcDbCircle
 10
25.7584
 20
159.2794
 30
0.0
 40
0.2328
210
0.0
220
0.0
230
1.0
  0
CIRCLE
  5
22D
100
AcDbEntity
  8
1
  6
CONTINUOUS
 62
     7
100
AcDbCircle
 10
36.5315
 20
170.0365
 30
0.0
 40
0.2328
210
0.0
220
0.0
230
1.0
  0
CIRCLE
  5
22E
100
AcDbEntity
  8
1
  6
CONTINUOUS
 62
     7
100
AcDbCircle
 10
31.1901
 20
164.6933
 30
0.0
 40
0.2328
210
0.0
220
0.0
230
1.0
  0
CIRCLE
  5
22F
100
AcDbEntity
  8
1
  6
CONTINUOUS
 62
     7
100
AcDbCircle
 10
34.6403
 20
161.3443
 30
0.0
 40
0.2328
210
0.0
220
0.0
230
1.0
  0
CIRCLE
  5
230
100
AcDbEntity
  8
1
  6
CONTINUOUS
 62
     7
100
AcDbCircle
 10
20.0498
 20
153.5301
 30
0.0
 40
0.2328
210
0.0
220
0.0
230
1.0
  0
CIRCLE
  5
231
100
AcDbEntity
  8
1
  6
CONTINUOUS
 62
     7
100
AcDbCircle
 10
38.2913
 20
158.5272
 30
0.0
 40
0.2328
210
0.0
220
0.0
230
1.0
  0
CIRCLE
  5
232
100
AcDbEntity
  8
1
  6
CONTINUOUS
 62
     7
100
AcDbCircle
 10
50.2522
 20
156.9344
 30
0.0
 40
0.2328
210
0.0
220
0.0
230
1.0
  0
CIRCLE
  5
233
100
AcDbEntity
  8
1
  6
CONTINUOUS
 62
     7
100
AcDbCircle
 10
49.4316
 20
169.6904
 30
0.0
 40
0.2328
210
0.0
220
0.0
230
1.0
  0
CIRCLE
  5
234
100
AcDbEntity
  8
1
  6
CONTINUOUS
 62
     7
100
AcDbCircle
 10
52.8818
 20
166.3414
 30
0.0
 40
0.2328
210
0.0
220
0.0
230
1.0
  0
CIRCLE
  5
235
100
AcDbEntity
  8
1
  6
CONTINUOUS
 62
     7
100
AcDbCircle
 10
43.9999
 20
164.2765
 30
0.0
 40
0.2328
210
0.0
220
0.0
230
1.0
  0
CIRCLE
  5
236
100
AcDbEntity
  8
1
  6
CONTINUOUS
 62
     7
100
AcDbCircle
 10
41.0097
 20
154.4871
 30
0.0
 40
0.2328
210
0.0
220
0.0
230
1.0
  0
CIRCLE
  5
237
100
AcDbEntity
  8
1
  6
CONTINUOUS
 62
     7
100
AcDbCircle
 10
47.1067
 20
160.5861
 30
0.0
 40
0.2328
210
0.0
220
0.0
230
1.0
  0
CIRCLE
  5
238
100
AcDbEntity
  8
1
  6
CONTINUOUS
 62
     7
100
AcDbCircle
 10
28.5283
 20
155.5214
 30
0.0
 40
0.2328
210
0.0
220
0.0
230
1.0
  0
CIRCLE
  5
239
100
AcDbEntity
  8
1
  6
CONTINUOUS
 62
     7
100
AcDbCircle
 10
40.6067
 20
167.3854
 30
0.0
 40
0.2328
210
0.0
220
0.0
230
1.0
  0
CIRCLE
  5
23A
100
AcDbEntity
  8
1
  6
CONTINUOUS
 62
     7
100
AcDbCircle
 10
45.7
 20
172.8443
 30
0.0
 40
0.2328
210
0.0
220
0.0
230
1.0
  0
CIRCLE
  5
23B
100
AcDbEntity
  8
1
  6
CONTINUOUS
 62
     7
100
AcDbCircle
 10
42.2075
 20
176.2652
 30
0.0
 40
0.2328
210
0.0
220
0.0
230
1.0
  0
CIRCLE
  5
23C
100
AcDbEntity
  8
1
  6
CONTINUOUS
 62
     7
100
AcDbCircle
 10
38.8605
 20
179.6861
 30
0.0
 40
0.2328
210
0.0
220
0.0
230
1.0
  0
CIRCLE
  5
23D
100
AcDbEntity
  8
1
  6
CONTINUOUS
 62
     7
100
AcDbCircle
 10
47.2672
 20
181.3448
 30
0.0
 40
0.2328
210
0.0
220
0.0
230
1.0
  0
CIRCLE
  5
23E
100
AcDbEntity
  8
1
  6
CONTINUOUS
 62
     7
100
AcDbCircle
 10
61.3758
 20
167.9041
 30
0.0
 40
0.2328
210
0.0
220
0.0
230
1.0
  0
CIRCLE
  5
23F
100
AcDbEntity
  8
1
  6
CONTINUOUS
 62
     7
100
AcDbCircle
 10
56.2914
 20
183.5737
 30
0.0
 40
0.2328
210
0.0
220
0.0
230
1.0
  0
CIRCLE
  5
240
100
AcDbEntity
  8
1
  6
CONTINUOUS
 62
     7
100
AcDbCircle
 10
60.3493
 20
180.4564
 30
0.0
 40
0.2328
210
0.0
220
0.0
230
1.0
  0
CIRCLE
  5
241
100
AcDbEntity
  8
1
  6
CONTINUOUS
 62
     7
100
AcDbCircle
 10
50.9709
 20
177.8757
 30
0.0
 40
0.2328
210
0.0
220
0.0
230
1.0
  0
CIRCLE
  5
242
100
AcDbEntity
  8
1
  6
CONTINUOUS
 62
     7
100
AcDbCircle
 10
54.3907
 20
174.6732
 30
0.0
 40
0.2328
210
0.0
220
0.0
230
1.0
  0
CIRCLE
  5
243
100
AcDbEntity
  8
1
  6
CONTINUOUS
 62
     7
100
AcDbCircle
 10
57.7377
 20
171.325
 30
0.0
 40
0.2328
210
0.0
220
0.0
230
1.0
  0
CIRCLE
  5
244
100
AcDbEntity
  8
1
  6
CONTINUOUS
 62
     7
100
AcDbCircle
 10
63.7769
 20
177.2206
 30
0.0
 40
0.2328
210
0.0
220
0.0
230
1.0
  0
CIRCLE
  5
245
100
AcDbEntity
  8
1
  6
CONTINUOUS
 62
     7
100
AcDbCircle
 10
56.3362
 20
162.9738
 30
0.0
 40
0.2328
210
0.0
220
0.0
230
1.0
  0
CIRCLE
  5
246
100
AcDbEntity
  8
1
  6
CONTINUOUS
 62
     7
100
AcDbCircle
 10
67.3232
 20
174.1099
 30
0.0
 40
0.2328
210
0.0
220
0.0
230
1.0
  0
CIRCLE
  5
247
100
AcDbEntity
  8
1
  6
CONTINUOUS
 62
     7
100
AcDbCircle
 10
70.8885
 20
170.9074
 30
0.0
 40
0.2328
210
0.0
220
0.0
230
1.0
  0
CIRCLE
  5
248
100
AcDbEntity
  8
1
  6
CONTINUOUS
 62
     7
100
AcDbCircle
 10
64.5582
 20
164.7934
 30
0.0
 40
0.2328
210
0.0
220
0.0
230
1.0
  0
CIRCLE
  5
249
100
AcDbEntity
  8
1
  6
CONTINUOUS
 62
     7
100
AcDbCircle
 10
59.5377
 20
159.5529
 30
0.0
 40
0.2328
210
0.0
220
0.0
230
1.0
  0
CIRCLE
  5
24A
100
AcDbEntity
  8
1
  6
CONTINUOUS
 62
     7
100
AcDbCircle
 10
53.644
 20
153.9484
 30
0.0
 40
0.2328
210
0.0
220
0.0
230
1.0
  0
CIRCLE
  5
24B
100
AcDbEntity
  8
1
  6
CONTINUOUS
 62
     7
100
AcDbCircle
 10
69.9656
 20
183.6387
 30
0.0
 40
0.2328
210
0.0
220
0.0
230
1.0
  0
CIRCLE
  5
24C
100
AcDbEntity
  8
1
  6
CONTINUOUS
 62
     7
100
AcDbCircle
 10
77.0988
 20
176.8305
 30
0.0
 40
0.2328
210
0.0
220
0.0
230
1.0
  0
CIRCLE
  5
24D
100
AcDbEntity
  8
1
  6
CONTINUOUS
 62
     7
100
AcDbCircle
 10
73.3686
 20
179.9073
 30
0.0
 40
0.2328
210
0.0
220
0.0
230
1.0
  0
CIRCLE
  5
24E
100
AcDbEntity
  8
1
  6
CONTINUOUS
 62
     7
100
AcDbCircle
 10
83.5122
 20
182.9841
 30
0.0
 40
0.2328
210
0.0
220
0.0
230
1.0
  0
CIRCLE
  5
24F
100
AcDbEntity
  8
1
  6
CONTINUOUS
 62
     7
100
AcDbCircle
 10
80.2717
 20
173.7874
 30
0.0
 40
0.2328
210
0.0
220
0.0
230
1.0
  0
CIRCLE
  5
250
100
AcDbEntity
  8
1
  6
CONTINUOUS
 62
     7
100
AcDbCircle
 10
69.1314
 20
162.6242
 30
0.0
 40
0.2328
210
0.0
220
0.0
230
1.0
  0
CIRCLE
  5
251
100
AcDbEntity
  8
1
  6
CONTINUOUS
 62
     7
100
AcDbCircle
 10
81.0923
 20
161.0314
 30
0.0
 40
0.2328
210
0.0
220
0.0
230
1.0
  0
CIRCLE
  5
252
100
AcDbEntity
  8
1
  6
CONTINUOUS
 62
     7
100
AcDbCircle
 10
83.7219
 20
170.4384
 30
0.0
 40
0.2328
210
0.0
220
0.0
230
1.0
  0
CIRCLE
  5
253
100
AcDbEntity
  8
1
  6
CONTINUOUS
 62
     7
100
AcDbCircle
 10
74.84
 20
168.3735
 30
0.0
 40
0.2328
210
0.0
220
0.0
230
1.0
  0
CIRCLE
  5
254
100
AcDbEntity
  8
1
  6
CONTINUOUS
 62
     7
100
AcDbCircle
 10
71.8498
 20
158.5841
 30
0.0
 40
0.2328
210
0.0
220
0.0
230
1.0
  0
CIRCLE
  5
255
100
AcDbEntity
  8
1
  6
CONTINUOUS
 62
     7
100
AcDbCircle
 10
77.9468
 20
164.6831
 30
0.0
 40
0.2328
210
0.0
220
0.0
230
1.0
  0
CIRCLE
  5
256
100
AcDbEntity
  8
1
  6
CONTINUOUS
 62
     7
100
AcDbCircle
 10
63.3319
 20
156.2766
 30
0.0
 40
0.2328
210
0.0
220
0.0
230
1.0
  0
CIRCLE
  5
257
100
AcDbEntity
  8
1
  6
CONTINUOUS
 62
     7
100
AcDbCircle
 10
67.5328
 20
153.663
 30
0.0
 40
0.2328
210
0.0
220
0.0
230
1.0
  0
CIRCLE
  5
258
100
AcDbEntity
  8
1
  6
CONTINUOUS
 62
     7
100
AcDbCircle
 10
75.6272
 20
155.0467
 30
0.0
 40
0.2328
210
0.0
220
0.0
230
1.0
  0
CIRCLE
  5
259
100
AcDbEntity
  8
1
  6
CONTINUOUS
 62
     7
100
AcDbCircle
 10
87.7688
 20
167.1688
 30
0.0
 40
0.2328
210
0.0
220
0.0
230
1.0
  0
CIRCLE
  5
25A
100
AcDbEntity
  8
1
  6
CONTINUOUS
 62
     7
100
AcDbCircle
 10
79.6854
 20
152.2902
 30
0.0
 40
0.2328
210
0.0
220
0.0
230
1.0
  0
CIRCLE
  5
25B
100
AcDbEntity
  8
1
  6
CONTINUOUS
 62
     7
100
AcDbCircle
 10
91.6463
 20
150.6974
 30
0.0
 40
0.2328
210
0.0
220
0.0
230
1.0
  0
CIRCLE
  5
25C
100
AcDbEntity
  8
1
  6
CONTINUOUS
 62
     7
100
AcDbCircle
 10
90.8257
 20
163.4534
 30
0.0
 40
0.2328
210
0.0
220
0.0
230
1.0
  0
CIRCLE
  5
25D
100
AcDbEntity
  8
1
  6
CONTINUOUS
 62
     7
100
AcDbCircle
 10
94.2759
 20
160.1044
 30
0.0
 40
0.2328
210
0.0
220
0.0
230
1.0
  0
CIRCLE
  5
25E
100
AcDbEntity
  8
1
  6
CONTINUOUS
 62
     7
100
AcDbCircle
 10
85.394
 20
158.0395
 30
0.0
 40
0.2328
210
0.0
220
0.0
230
1.0
  0
CIRCLE
  5
25F
100
AcDbEntity
  8
1
  6
CONTINUOUS
 62
     7
100
AcDbCircle
 10
88.5008
 20
154.3491
 30
0.0
 40
0.2328
210
0.0
220
0.0
230
1.0
  0
CIRCLE
  5
260
100
AcDbEntity
  8
1
  6
CONTINUOUS
 62
     7
100
AcDbCircle
 10
97.6967
 20
170.615
 30
0.0
 40
0.2328
210
0.0
220
0.0
230
1.0
  0
CIRCLE
  5
261
100
AcDbEntity
  8
1
  6
CONTINUOUS
 62
     7
100
AcDbCircle
 10
109.6576
 20
169.0222
 30
0.0
 40
0.2328
210
0.0
220
0.0
230
1.0
  0
CIRCLE
  5
262
100
AcDbEntity
  8
1
  6
CONTINUOUS
 62
     7
100
AcDbCircle
 10
108.837
 20
181.7782
 30
0.0
 40
0.2328
210
0.0
220
0.0
230
1.0
  0
CIRCLE
  5
263
100
AcDbEntity
  8
1
  6
CONTINUOUS
 62
     7
100
AcDbCircle
 10
112.2872
 20
178.4292
 30
0.0
 40
0.2328
210
0.0
220
0.0
230
1.0
  0
CIRCLE
  5
264
100
AcDbEntity
  8
1
  6
CONTINUOUS
 62
     7
100
AcDbCircle
 10
103.4053
 20
176.3643
 30
0.0
 40
0.2328
210
0.0
220
0.0
230
1.0
  0
CIRCLE
  5
265
100
AcDbEntity
  8
1
  6
CONTINUOUS
 62
     7
100
AcDbCircle
 10
100.4151
 20
166.5749
 30
0.0
 40
0.2328
210
0.0
220
0.0
230
1.0
  0
CIRCLE
  5
266
100
AcDbEntity
  8
1
  6
CONTINUOUS
 62
     7
100
AcDbCircle
 10
106.5121
 20
172.6739
 30
0.0
 40
0.2328
210
0.0
220
0.0
230
1.0
  0
CIRCLE
  5
267
100
AcDbEntity
  8
1
  6
CONTINUOUS
 62
     7
100
AcDbCircle
 10
100.0875
 20
180.0041
 30
0.0
 40
0.2328
210
0.0
220
0.0
230
1.0
  0
CIRCLE
  5
268
100
AcDbEntity
  8
1
  6
CONTINUOUS
 62
     7
100
AcDbCircle
 10
99.2669
 20
192.7601
 30
0.0
 40
0.2328
210
0.0
220
0.0
230
1.0
  0
CIRCLE
  5
269
100
AcDbEntity
  8
1
  6
CONTINUOUS
 62
     7
100
AcDbCircle
 10
102.7171
 20
189.4111
 30
0.0
 40
0.2328
210
0.0
220
0.0
230
1.0
  0
CIRCLE
  5
26A
100
AcDbEntity
  8
1
  6
CONTINUOUS
 62
     7
100
AcDbCircle
 10
96.942
 20
183.6558
 30
0.0
 40
0.2328
210
0.0
220
0.0
230
1.0
  0
CIRCLE
  5
26B
100
AcDbEntity
  8
1
  6
CONTINUOUS
 62
     7
100
AcDbCircle
 10
105.6886
 20
185.2717
 30
0.0
 40
0.2328
210
0.0
220
0.0
230
1.0
  0
CIRCLE
  5
26C
100
AcDbEntity
  8
1
  6
CONTINUOUS
 62
     7
100
AcDbCircle
 10
111.3972
 20
191.021
 30
0.0
 40
0.2328
210
0.0
220
0.0
230
1.0
  0
CIRCLE
  5
26D
100
AcDbEntity
  8
1
  6
CONTINUOUS
 62
     7
100
AcDbCircle
 10
115.5592
 20
174.9818
 30
0.0
 40
0.2328
210
0.0
220
0.0
230
1.0
  0
CIRCLE
  5
26E
100
AcDbEntity
  8
1
  6
CONTINUOUS
 62
     7
100
AcDbCircle
 10
116.3798
 20
162.2258
 30
0.0
 40
0.2328
210
0.0
220
0.0
230
1.0
  0
CIRCLE
  5
26F
100
AcDbEntity
  8
1
  6
CONTINUOUS
 62
     7
100
AcDbCircle
 10
113.2343
 20
165.8775
 30
0.0
 40
0.2328
210
0.0
220
0.0
230
1.0
  0
CIRCLE
  5
270
100
AcDbEntity
  8
1
  6
CONTINUOUS
 62
     7
100
AcDbCircle
 10
104.2417
 20
162.99
 30
0.0
 40
0.2328
210
0.0
220
0.0
230
1.0
  0
CIRCLE
  5
271
100
AcDbEntity
  8
1
  6
CONTINUOUS
 62
     7
100
AcDbCircle
 10
107.6919
 20
159.641
 30
0.0
 40
0.2328
210
0.0
220
0.0
230
1.0
  0
CIRCLE
  5
272
100
AcDbEntity
  8
1
  6
CONTINUOUS
 62
     7
100
AcDbCircle
 10
97.7309
 20
157.0454
 30
0.0
 40
0.2328
210
0.0
220
0.0
230
1.0
  0
CIRCLE
  5
273
100
AcDbEntity
  8
1
  6
CONTINUOUS
 62
     7
100
AcDbCircle
 10
101.1811
 20
153.6964
 30
0.0
 40
0.2328
210
0.0
220
0.0
230
1.0
  0
CIRCLE
  5
274
100
AcDbEntity
  8
1
  6
CONTINUOUS
 62
     7
100
AcDbCircle
 10
111.1812
 20
156.3557
 30
0.0
 40
0.2328
210
0.0
220
0.0
230
1.0
  0
LINE
  5
275
100
AcDbEntity
  8
1
  6
CONTINUOUS
 62
     6
100
AcDbLine
 10
146.2645
 20
197.5528
 30
0.0
 11
129.4645
 21
197.5528
 31
0.0
  0
LINE
  5
276
100
AcDbEntity
  8
1
  6
CONTINUOUS
 62
     6
100
AcDbLine
 10
146.2645
 20
197.5528
 30
0.0
 11
146.2645
 21
214.3528
 31
0.0
  0
LINE
  5
277
100
AcDbEntity
  8
1
  6
CONTINUOUS
 62
     7
100
AcDbLine
 10
27.3974
 20
195.7528
 30
0.0
 11
27.3974
 21
205.3528
 31
0.0
  0
LINE
  5
278
100
AcDbEntity
  8
1
  6
CONTINUOUS
 62
     7
100
AcDbLine
 10
95.1974
 20
195.7528
 30
0.0
 11
95.1974
 21
205.3528
 31
0.0
  0
LINE
  5
279
100
AcDbEntity
  8
1
  6
CONTINUOUS
 62
     7
100
AcDbLine
 10
36.9974
 20
185.5528
 30
0.0
 11
36.9974
 21
199.3528
 31
0.0
  0
LINE
  5
27A
100
AcDbEntity
  8
1
  6
CONTINUOUS
 62
     7
100
AcDbLine
 10
27.3974
 20
204.1528
 30
0.0
 11
95.1974
 21
204.1528
 31
0.0
  0
LINE
  5
27B
100
AcDbEntity
  8
1
  6
CONTINUOUS
 62
     7
100
AcDbLine
 10
36.9974
 20
198.1528
 30
0.0
 11
41.7974
 21
198.1528
 31
0.0
  0
LINE
  5
27C
100
AcDbEntity
  8
1
  6
CONTINUOUS
 62
     7
100
AcDbLine
 10
27.3974
 20
198.1528
 30
0.0
 11
22.5974
 21
198.1528
 31
0.0
  0
LINE
  5
27D
100
AcDbEntity
  8
1
  6
CONTINUOUS
 62
     7
100
AcDbLine
 10
24.5824
 20
233.1027
 30
0.0
 11
-24.2327
 21
233.1027
 31
0.0
  0
INSERT
  5
283
100
AcDbEntity
  8
1
  6
CONTINUOUS
 62
     1
100
AcDbBlockReference
  2
LDR
 10
27.3974
 20
204.1528
 30
0.0
 41
240.0
 42
240.0
 50
180.0
210
0.0
220
0.0
230
1.0
  0
INSERT
  5
284
100
AcDbEntity
  8
1
  6
CONTINUOUS
 62
     1
100
AcDbBlockReference
  2
LDR
 10
27.3974
 20
204.1528
 30
0.0
 41
240.0
 42
240.0
 50
180.0
210
0.0
220
0.0
230
1.0
  0
INSERT
  5
285
100
AcDbEntity
  8
1
  6
CONTINUOUS
 62
     1
100
AcDbBlockReference
  2
LDR
 10
95.1974
 20
204.1528
 30
0.0
 41
240.0
 42
240.0
210
0.0
220
0.0
230
1.0
  0
INSERT
  5
286
100
AcDbEntity
  8
1
  6
CONTINUOUS
 62
     1
100
AcDbBlockReference
  2
LDR
 10
95.1974
 20
204.1528
 30
0.0
 41
240.0
 42
240.0
210
0.0
220
0.0
230
1.0
  0
INSERT
  5
287
100
AcDbEntity
  8
1
  6
CONTINUOUS
 62
     1
100
AcDbBlockReference
  2
LDR
 10
36.9974
 20
198.1528
 30
0.0
 41
240.0
 42
240.0
 50
180.0
210
0.0
220
0.0
230
1.0
  0
INSERT
  5
288
100
AcDbEntity
  8
1
  6
CONTINUOUS
 62
     1
100
AcDbBlockReference
  2
LDR
 10
36.9974
 20
198.1528
 30
0.0
 41
240.0
 42
240.0
 50
180.0
210
0.0
220
0.0
230
1.0
  0
INSERT
  5
289
100
AcDbEntity
  8
1
  6
CONTINUOUS
 62
     1
100
AcDbBlockReference
  2
LDR
 10
27.3974
 20
198.1528
 30
0.0
 41
240.0
 42
240.0
210
0.0
220
0.0
230
1.0
  0
INSERT
  5
28A
100
AcDbEntity
  8
1
  6
CONTINUOUS
 62
     1
100
AcDbBlockReference
  2
LDR
 10
27.3974
 20
198.1528
 30
0.0
 41
240.0
 42
240.0
210
0.0
220
0.0
230
1.0
  0
INSERT
  5
28B
100
AcDbEntity
  8
1
  6
CONTINUOUS
 62
     1
100
AcDbBlockReference
  2
LDR
 10
-2.3826
 20
277.6864
 30
0.0
 41
240.0
 42
240.0
 50
270.0
210
0.0
220
0.0
230
1.0
  0
INSERT
  5
28C
100
AcDbEntity
  8
1
  6
CONTINUOUS
 62
     1
100
AcDbBlockReference
  2
LDR
 10
-2.3826
 20
277.6864
 30
0.0
 41
240.0
 42
240.0
 50
270.0
210
0.0
220
0.0
230
1.0
  0
INSERT
  5
28D
100
AcDbEntity
  8
1
  6
CONTINUOUS
 62
     1
100
AcDbBlockReference
  2
LDR
 10
27.6174
 20
283.0864
 30
0.0
 41
240.0
 42
240.0
210
0.0
220
0.0
230
1.0
  0
INSERT
  5
28E
100
AcDbEntity
  8
1
  6
CONTINUOUS
 62
     1
100
AcDbBlockReference
  2
LDR
 10
37.2174
 20
283.0864
 30
0.0
 41
240.0
 42
240.0
 50
180.0
210
0.0
220
0.0
230
1.0
  0
INSERT
  5
28F
100
AcDbEntity
  8
1
  6
CONTINUOUS
 62
     1
100
AcDbBlockReference
  2
LDR
 10
95.4174
 20
392.2864
 30
0.0
 41
240.0
 42
240.0
210
0.0
220
0.0
230
1.0
  0
INSERT
  5
290
100
AcDbEntity
  8
1
  6
CONTINUOUS
 62
     1
100
AcDbBlockReference
  2
LDR
 10
95.4174
 20
392.2864
 30
0.0
 41
240.0
 42
240.0
210
0.0
220
0.0
230
1.0
  0
INSERT
  5
291
100
AcDbEntity
  8
1
  6
CONTINUOUS
 62
     1
100
AcDbBlockReference
  2
LDR
 10
99.6174
 20
392.2864
 30
0.0
 41
240.0
 42
240.0
 50
180.0
210
0.0
220
0.0
230
1.0
  0
INSERT
  5
292
100
AcDbEntity
  8
1
  6
CONTINUOUS
 62
     1
100
AcDbBlockReference
  2
LDR
 10
99.6174
 20
392.2864
 30
0.0
 41
240.0
 42
240.0
 50
180.0
210
0.0
220
0.0
230
1.0
  0
INSERT
  5
293
100
AcDbEntity
  8
1
  6
CONTINUOUS
 62
     1
100
AcDbBlockReference
  2
LDR
 10
85.8174
 20
421.6864
 30
0.0
 41
240.0
 42
240.0
210
0.0
220
0.0
230
1.0
  0
INSERT
  5
294
100
AcDbEntity
  8
1
  6
CONTINUOUS
 62
     1
100
AcDbBlockReference
  2
LDR
 10
-2.3826
 20
415.6864
 30
0.0
 41
240.0
 42
240.0
 50
90.0
210
0.0
220
0.0
230
1.0
  0
INSERT
  5
295
100
AcDbEntity
  8
1
  6
CONTINUOUS
 62
     1
100
AcDbBlockReference
  2
LDR
 10
-2.3826
 20
415.6864
 30
0.0
 41
240.0
 42
240.0
 50
90.0
210
0.0
220
0.0
230
1.0
  0
INSERT
  5
296
100
AcDbEntity
  8
1
  6
CONTINUOUS
 62
     1
100
AcDbBlockReference
  2
LDR
 10
27.6174
 20
432.4864
 30
0.0
 41
240.0
 42
240.0
 50
180.0
210
0.0
220
0.0
230
1.0
  0
INSERT
  5
297
100
AcDbEntity
  8
1
  6
CONTINUOUS
 62
     1
100
AcDbBlockReference
  2
LDR
 10
27.6174
 20
432.4864
 30
0.0
 41
240.0
 42
240.0
 50
180.0
210
0.0
220
0.0
230
1.0
  0
INSERT
  5
298
100
AcDbEntity
  8
1
  6
CONTINUOUS
 62
     1
100
AcDbBlockReference
  2
LDR
 10
37.2174
 20
421.6864
 30
0.0
 41
240.0
 42
240.0
 50
180.0
210
0.0
220
0.0
230
1.0
  0
INSERT
  5
299
100
AcDbEntity
  8
1
  6
CONTINUOUS
 62
     1
100
AcDbBlockReference
  2
LDR
 10
95.4174
 20
432.4864
 30
0.0
 41
240.0
 42
240.0
210
0.0
220
0.0
230
1.0
  0
INSERT
  5
29A
100
AcDbEntity
  8
1
  6
CONTINUOUS
 62
     1
100
AcDbBlockReference
  2
LDR
 10
95.4174
 20
432.4864
 30
0.0
 41
240.0
 42
240.0
210
0.0
220
0.0
230
1.0
  0
INSERT
  5
29B
100
AcDbEntity
  8
1
  6
CONTINUOUS
 62
     1
100
AcDbBlockReference
  2
LDR
 10
143.7845
 20
437.9773
 30
0.0
 41
240.0
 42
240.0
 50
180.0
210
0.0
220
0.0
230
1.0
  0
INSERT
  5
29C
100
AcDbEntity
  8
1
  6
CONTINUOUS
 62
     1
100
AcDbBlockReference
  2
LDR
 10
143.7845
 20
437.9773
 30
0.0
 41
240.0
 42
240.0
 50
180.0
210
0.0
220
0.0
230
1.0
  0
INSERT
  5
29D
100
AcDbEntity
  8
1
  6
CONTINUOUS
 62
     1
100
AcDbBlockReference
  2
LDR
 10
171.0174
 20
437.9773
 30
0.0
 41
240.0
 42
240.0
210
0.0
220
0.0
230
1.0
  0
INSERT
  5
29E
100
AcDbEntity
  8
1
  6
CONTINUOUS
 62
     1
100
AcDbBlockReference
  2
LDR
 10
171.0174
 20
437.9773
 30
0.0
 41
240.0
 42
240.0
210
0.0
220
0.0
230
1.0
  0
INSERT
  5
29F
100
AcDbEntity
  8
1
  6
CONTINUOUS
 62
     1
100
AcDbBlockReference
  2
LDR
 10
149.4845
 20
424.3557
 30
0.0
 41
240.0
 42
240.0
 50
180.0
210
0.0
220
0.0
230
1.0
  0
INSERT
  5
2A0
100
AcDbEntity
  8
1
  6
CONTINUOUS
 62
     1
100
AcDbBlockReference
  2
LDR
 10
143.7845
 20
424.3557
 30
0.0
 41
240.0
 42
240.0
210
0.0
220
0.0
230
1.0
  0
INSERT
  5
2A1
100
AcDbEntity
  8
1
  6
CONTINUOUS
 62
     1
100
AcDbBlockReference
  2
LDR
 10
225.3378
 20
384.0075
 30
0.0
 41
239.999998
 42
239.999998
 50
22.62655
210
0.0
220
0.0
230
1.0
  0
INSERT
  5
2A2
100
AcDbEntity
  8
1
  6
CONTINUOUS
 62
     1
100
AcDbBlockReference
  2
LDR
 10
225.3378
 20
384.0075
 30
0.0
 41
239.999998
 42
239.999998
 50
22.62655
210
0.0
220
0.0
230
1.0
  0
INSERT
  5
2A3
100
AcDbEntity
  8
1
  6
CONTINUOUS
 62
     1
100
AcDbBlockReference
  2
LDR
 10
212.2552
 20
314.1123
 30
0.0
 41
240.0
 42
240.0
 50
342.892553
210
0.0
220
0.0
230
1.0
  0
INSERT
  5
2A4
100
AcDbEntity
  8
1
  6
CONTINUOUS
 62
     1
100
AcDbBlockReference
  2
LDR
 10
216.7268
 20
253.0894
 30
0.0
 41
240.0
 42
240.0
 50
180.0
210
0.0
220
0.0
230
1.0
  0
INSERT
  5
2A5
100
AcDbEntity
  8
1
  6
CONTINUOUS
 62
     1
100
AcDbBlockReference
  2
LDR
 10
206.5268
 20
237.0219
 30
0.0
 41
240.0
 42
240.0
210
0.0
220
0.0
230
1.0
  0
INSERT
  5
2A6
100
AcDbEntity
  8
1
  6
CONTINUOUS
 62
     1
100
AcDbBlockReference
  2
LDR
 10
206.5268
 20
237.0219
 30
0.0
 41
240.0
 42
240.0
210
0.0
220
0.0
230
1.0
  0
INSERT
  5
2A7
100
AcDbEntity
  8
1
  6
CONTINUOUS
 62
     1
100
AcDbBlockReference
  2
LDR
 10
230.5268
 20
237.0219
 30
0.0
 41
240.0
 42
240.0
 50
180.0
210
0.0
220
0.0
230
1.0
  0
LINE
  5
2A8
100
AcDbEntity
  8
1
  6
CONTINUOUS
 62
     7
100
AcDbLine
 10
149.2674
 20
194.567
 30
0.0
 11
162.7059
 21
171.6472
 31
0.0
  0
LINE
  5
2A9
100
AcDbEntity
  8
1
  6
CONTINUOUS
 62
     7
100
AcDbLine
 10
162.7059
 20
171.6472
 30
0.0
 11
174.4037
 21
171.6472
 31
0.0
  0
INSERT
  5
2AA
100
AcDbEntity
  8
1
  6
CONTINUOUS
 62
     1
100
AcDbBlockReference
  2
LDR
 10
149.2645
 20
194.5528
 30
0.0
 41
239.999999
 42
239.999999
 50
120.384252
210
0.0
220
0.0
230
1.0
  0
INSERT
  5
2AB
100
AcDbEntity
  8
1
  6
CONTINUOUS
 62
     1
100
AcDbBlockReference
  2
LDR
 10
206.5268
 20
253.0894
 30
0.0
 41
240.0
 42
240.0
210
0.0
220
0.0
230
1.0
  0
TEXT
  5
2AC
100
AcDbEntity
  8
1
  6
CONTINUOUS
 62
     7
100
AcDbText
 10
174.9669
 20
170.1551
 30
0.0
 40
3.0
  1
PAVEMENT SURFACE
  7
MONOTXT
 72
     4
 11
198.2227
 21
171.6551
 31
0.0
210
0.0
220
0.0
230
1.0
100
AcDbText
  0
TEXT
  5
2AD
100
AcDbEntity
  8
1
  6
CONTINUOUS
 62
     7
100
AcDbText
 10
-38.7772
 20
231.5235
 30
0.0
 40
3.0
  1
NOTE:
  7
MONOTXT
 11
-38.7772
 21
234.5235
 31
0.0
210
0.0
220
0.0
230
1.0
100
AcDbText
 73
     3
  0
TEXT
  5
2AE
100
AcDbEntity
  8
1
  6
CONTINUOUS
 62
     7
100
AcDbText
 10
-38.7772
 20
226.1235
 30
0.0
 40
3.0
  1
ALL (4) LUGS MUST
  7
MONOTXT
 11
-38.7772
 21
229.1235
 31
0.0
210
0.0
220
0.0
230
1.0
100
AcDbText
 73
     3
  0
TEXT
  5
2AF
100
AcDbEntity
  8
1
  6
CONTINUOUS
 62
     7
100
AcDbText
 10
-38.7772
 20
220.7235
 30
0.0
 40
3.0
  1
CONTACT THE PAVEMENT
  7
MONOTXT
 11
-38.7772
 21
223.7235
 31
0.0
210
0.0
220
0.0
230
1.0
100
AcDbText
 73
     3
  0
TEXT
  5
2B0
100
AcDbEntity
  8
1
  6
CONTINUOUS
 62
     7
100
AcDbText
 10
24.7846
 20
130.2886
 30
0.0
 40
4.8
  1
TYPE "P-2" MARKER
  7
MONOTXT
 72
     4
 11
62.5988
 21
132.6886
 31
0.0
210
0.0
220
0.0
230
1.0
100
AcDbText
  0
LINE
  5
2B1
100
AcDbEntity
  8
1
  6
CONTINUOUS
 62
     7
100
AcDbLine
 10
22.731
 20
128.8783
 30
0.0
 11
104.1869
 21
128.8783
 31
0.0
  0
LWPOLYLINE
  5
2B2
100
AcDbEntity
  8
1
  6
CONTINUOUS
 62
     7
100
AcDbPolyline
 90
        4
 70
     0
 10
10.4777
 20
434.212
 10
8.4777
 20
430.7479
 10
12.4777
 20
430.7479
 10
10.4777
 20
434.212
  0
TEXT
  5
2B3
100
AcDbEntity
  8
1
  6
CONTINUOUS
 62
     7
100
AcDbText
 10
9.4795
 20
430.9912
 30
0.0
 40
2.4
  1
4
  7
MONOTXT
 72
     4
 11
10.3393
 21
432.1912
 31
0.0
210
0.0
220
0.0
230
1.0
100
AcDbText
  0
LINE
  5
2B4
100
AcDbEntity
  8
1
  6
CONTINUOUS
 62
   212
100
AcDbLine
 10
31.1368
 20
56.5796
 30
0.0
 11
79.1368
 21
56.5796
 31
0.0
  0
LINE
  5
2B5
100
AcDbEntity
  8
1
  6
CONTINUOUS
 62
   212
100
AcDbLine
 10
79.1368
 20
56.5796
 30
0.0
 11
79.1368
 21
8.5796
 31
0.0
  0
LINE
  5
2B6
100
AcDbEntity
  8
1
  6
CONTINUOUS
 62
   212
100
AcDbLine
 10
79.1368
 20
8.5796
 30
0.0
 11
31.1368
 21
8.5796
 31
0.0
  0
LINE
  5
2B7
100
AcDbEntity
  8
1
  6
CONTINUOUS
 62
   212
100
AcDbLine
 10
31.1368
 20
8.5796
 30
0.0
 11
31.1368
 21
56.5796
 31
0.0
  0
LINE
  5
2B8
100
AcDbEntity
  8
1
  6
CONTINUOUS
 62
   212
100
AcDbLine
 10
44.6368
 20
13.3796
 30
0.0
 11
44.6368
 21
51.7796
 31
0.0
  0
LINE
  5
2B9
100
AcDbEntity
  8
1
  6
CONTINUOUS
 62
   212
100
AcDbLine
 10
65.6368
 20
51.7796
 30
0.0
 11
65.6368
 21
13.3796
 31
0.0
  0
LINE
  5
2BA
100
AcDbEntity
  8
1
  6
CONTINUOUS
 62
   212
100
AcDbLine
 10
44.6368
 20
51.7796
 30
0.0
 11
65.6368
 21
51.7796
 31
0.0
  0
LINE
  5
2BB
100
AcDbEntity
  8
1
  6
CONTINUOUS
 62
   212
100
AcDbLine
 10
65.6368
 20
13.3796
 30
0.0
 11
44.6368
 21
13.3796
 31
0.0
  0
LINE
  5
2BC
100
AcDbEntity
  8
1
  6
CONTINUOUS
 62
   212
100
AcDbLine
 10
31.1368
 20
56.5796
 30
0.0
 11
44.6368
 21
51.7796
 31
0.0
  0
LINE
  5
2BD
100
AcDbEntity
  8
1
  6
CONTINUOUS
 62
   212
100
AcDbLine
 10
79.1368
 20
56.5796
 30
0.0
 11
65.6368
 21
51.7796
 31
0.0
  0
LINE
  5
2BE
100
AcDbEntity
  8
1
  6
CONTINUOUS
 62
   212
100
AcDbLine
 10
44.6368
 20
13.3796
 30
0.0
 11
31.1368
 21
8.5796
 31
0.0
  0
LINE
  5
2BF
100
AcDbEntity
  8
1
  6
CONTINUOUS
 62
   212
100
AcDbLine
 10
65.6368
 20
13.3796
 30
0.0
 11
79.1368
 21
8.5796
 31
0.0
  0
LINE
  5
2C0
100
AcDbEntity
  8
1
  6
CONTINUOUS
 62
   212
100
AcDbLine
 10
94.1368
 20
51.7796
 30
0.0
 11
94.1368
 21
13.3796
 31
0.0
  0
LINE
  5
2C1
100
AcDbEntity
  8
1
  6
CONTINUOUS
 62
   212
100
AcDbLine
 10
102.8368
 20
56.5796
 30
0.0
 11
102.8368
 21
8.5796
 31
0.0
  0
LINE
  5
2C2
100
AcDbEntity
  8
1
  6
CONTINUOUS
 62
   212
100
AcDbLine
 10
101.6368
 20
56.5796
 30
0.0
 11
101.6368
 21
8.5796
 31
0.0
  0
LINE
  5
2C3
100
AcDbEntity
  8
1
  6
CONTINUOUS
 62
   212
100
AcDbLine
 10
101.6368
 20
56.5796
 30
0.0
 11
102.8368
 21
56.5796
 31
0.0
  0
LINE
  5
2C4
100
AcDbEntity
  8
1
  6
CONTINUOUS
 62
   212
100
AcDbLine
 10
102.8368
 20
8.5796
 30
0.0
 11
101.6368
 21
8.5796
 31
0.0
  0
LINE
  5
2C5
100
AcDbEntity
  8
1
  6
CONTINUOUS
 62
   212
100
AcDbLine
 10
101.6368
 20
56.5796
 30
0.0
 11
94.1368
 21
51.7796
 31
0.0
  0
LINE
  5
2C6
100
AcDbEntity
  8
1
  6
CONTINUOUS
 62
   212
100
AcDbLine
 10
79.1368
 20
-15.4204
 30
0.0
 11
32.1644
 21
-15.4204
 31
0.0
  0
LINE
  5
2C7
100
AcDbEntity
  8
1
  6
CONTINUOUS
 62
   212
100
AcDbLine
 10
65.0368
 20
-6.4204
 30
0.0
 11
46.352
 21
-6.4204
 31
0.0
  0
LINE
  5
2C8
100
AcDbEntity
  8
1
  6
CONTINUOUS
 62
   212
100
AcDbLine
 10
65.0368
 20
-6.4204
 30
0.0
 11
79.1368
 21
-15.4204
 31
0.0
  0
LINE
  5
2C9
100
AcDbEntity
  8
1
  6
CONTINUOUS
 62
   212
100
AcDbLine
 10
78.1968
 20
-14.8204
 30
0.0
 11
33.7058
 21
-14.8204
 31
0.0
  0
LINE
  5
2CA
100
AcDbEntity
  8
1
  6
CONTINUOUS
 62
   212
100
AcDbLine
 10
46.352
 20
-6.4204
 30
0.0
 11
33.6251
 21
-14.544
 31
0.0
  0
ARC
  5
2CB
100
AcDbEntity
  8
1
  6
CONTINUOUS
 62
   212
100
AcDbCircle
 10
32.164395
 20
-15.1204
 30
0.0
 40
0.3
210
0.0
220
0.0
230
1.0
100
AcDbArc
 50
122.549664
 51
270.0
  0
ARC
  5
2CC
100
AcDbEntity
  8
1
  6
CONTINUOUS
 62
   212
100
AcDbCircle
 10
33.70581
 20
-14.6704
 30
0.0
 40
0.15
210
0.0
220
0.0
230
1.0
100
AcDbArc
 50
122.550131
 51
270.0
  0
LWPOLYLINE
  5
2CD
100
AcDbEntity
  8
1
  6
CONTINUOUS
 62
   212
100
AcDbPolyline
 90
       13
 70
     0
 10
45.2368
 20
-6.4204
 10
45.6896
 20
-6.7546
 10
46.3316
 20
-7.1675
 10
46.4233
 20
-7.9932
 10
46.2858
 20
-9.6447
 10
45.9189
 20
-10.6999
 10
45.8272
 20
-11.1586
 10
45.7813
 20
-12.3514
 10
45.873
 20
-12.6725
 10
45.9189
 20
-13.223
 10
45.7813
 20
-14.0029
 10
45.6437
 20
-14.9662
 10
45.3644
 20
-15.4204
  0
LWPOLYLINE
  5
2CE
100
AcDbEntity
  8
1
  6
CONTINUOUS
 62
   212
100
AcDbPolyline
 90
       29
 70
     0
 10
45.6896
 20
-6.7546
 10
45.5061
 20
-7.3051
 10
45.0934
 20
-7.2592
 10
44.8641
 20
-7.6721
 10
44.4972
 20
-7.718
 10
44.1303
 20
-8.2685
 10
43.4883
 20
-8.1309
 10
43.4424
 20
-8.6814
 10
43.0756
 20
-8.5437
 10
42.7087
 20
-9.1401
 10
42.3876
 20
-8.9566
 10
41.8832
 20
-9.6447
 10
41.4246
 20
-9.553
 10
41.1494
 20
-10.1494
 10
40.6908
 20
-10.0117
 10
40.645
 20
-10.6081
 10
40.0946
 20
-10.6081
 10
39.7736
 20
-11.021
 10
39.315
 20
-10.8834
 10
38.9481
 20
-11.5256
 10
38.3978
 20
-11.5256
 10
38.4437
 20
-11.9844
 10
37.7558
 20
-12.0302
 10
37.6641
 20
-12.3972
 10
37.0679
 20
-12.3514
 10
36.701
 20
-12.9019
 10
36.1965
 20
-12.9019
 10
36.1507
 20
-13.3606
 10
35.4791
 20
-13.3606
  0
LINE
  5
2CF
100
AcDbEntity
  8
1
  6
CONTINUOUS
 62
     7
100
AcDbLine
 10
31.1368
 20
57.7796
 30
0.0
 11
31.1368
 21
64.9796
 31
0.0
  0
LINE
  5
2D0
100
AcDbEntity
  8
1
  6
CONTINUOUS
 62
     7
100
AcDbLine
 10
79.1368
 20
57.7796
 30
0.0
 11
79.1368
 21
64.9796
 31
0.0
  0
LINE
  5
2D1
100
AcDbEntity
  8
1
  6
CONTINUOUS
 62
     7
100
AcDbLine
 10
29.9368
 20
56.5796
 30
0.0
 11
22.7368
 21
56.5796
 31
0.0
  0
LINE
  5
2D2
100
AcDbEntity
  8
1
  6
CONTINUOUS
 62
     7
100
AcDbLine
 10
29.9368
 20
8.5796
 30
0.0
 11
22.7368
 21
8.5796
 31
0.0
  0
LINE
  5
2D3
100
AcDbEntity
  8
1
  6
CONTINUOUS
 62
     7
100
AcDbLine
 10
100.4368
 20
8.5796
 30
0.0
 11
84.8368
 21
8.5796
 31
0.0
  0
LINE
  5
2D4
100
AcDbEntity
  8
1
  6
CONTINUOUS
 62
   212
100
AcDbLine
 10
101.6368
 20
8.5796
 30
0.0
 11
94.1368
 21
13.3796
 31
0.0
  0
LINE
  5
2D5
100
AcDbEntity
  8
1
  6
CONTINUOUS
 62
     7
100
AcDbLine
 10
93.126
 20
14.0264
 30
0.0
 11
87.0616
 21
17.9075
 31
0.0
  0
LINE
  5
2D6
100
AcDbEntity
  8
1
  6
CONTINUOUS
 62
     7
100
AcDbLine
 10
31.1368
 20
63.7796
 30
0.0
 11
79.1368
 21
63.7796
 31
0.0
  0
LINE
  5
2D7
100
AcDbEntity
  8
1
  6
CONTINUOUS
 62
     7
100
AcDbLine
 10
23.9368
 20
56.5796
 30
0.0
 11
23.9368
 21
8.5796
 31
0.0
  0
SPLINE
  5
2D8
100
AcDbEntity
  8
1
  6
CONTINUOUS
 62
     7
100
AcDbSpline
210
0.0
220
0.0
230
1.0
 70
     8
 71
     3
 72
    17
 73
    13
 74
     0
 42
0.0
 43
0.0
 12
1.0
 22
0.0
 32
0.0
 13
1.0
 23
0.0
 33
0.0
 40
0.0
 40
0.0
 40
0.0
 40
0.0
 40
0.2625446843408563
 40
0.2625446843408563
 40
0.2625446843408563
 40
0.5947233765111925
 40
0.5947233765111925
 40
0.5947233765111925
 40
0.8424600638019684
 40
0.8424600638019684
 40
0.8424600638019684
 40
1.0
 40
1.0
 40
1.0
 40
1.0
 10
36.1126
 20
30.151500000000002
 30
0.0
 10
36.379300000000001
 20
30.151500000000002
 30
0.0
 10
36.646000000000001
 20
30.151500000000002
 30
0.0
 10
36.912700000000001
 20
30.151500000000002
 30
0.0
 10
37.250136110825281
 20
30.151500000000002
 30
0.0
 10
37.083299377597037
 20
29.493307600581868
 30
0.0
 10
37.232700000000001
 20
29.191100000000002
 30
0.0
 10
37.344122003113647
 20
28.965715556003648
 30
0.0
 10
37.38104236440045
 20
28.550800000000002
 30
0.0
 10
37.6327
 20
28.550800000000002
 30
0.0
 10
37.792733333333331
 20
28.550800000000002
 30
0.0
 10
37.952766666666669
 20
28.550800000000002
 30
0.0
 10
38.1128
 20
28.550800000000002
 30
0.0
  0
SPLINE
  5
2D9
100
AcDbEntity
  8
1
  6
CONTINUOUS
 62
     7
100
AcDbSpline
210
0.0
220
0.0
230
1.0
 70
     8
 71
     3
 72
    17
 73
    13
 74
     0
 42
0.0
 43
0.0
 12
1.0
 22
0.0
 32
0.0
 13
1.0
 23
0.0
 33
0.0
 40
0.0
 40
0.0
 40
0.0
 40
0.0
 40
0.2625446843408563
 40
0.2625446843408563
 40
0.2625446843408563
 40
0.5947233765111925
 40
0.5947233765111925
 40
0.5947233765111925
 40
0.8424600638019684
 40
0.8424600638019684
 40
0.8424600638019684
 40
1.0
 40
1.0
 40
1.0
 40
1.0
 10
70.674900000000008
 20
27.8306
 30
0.0
 10
70.941600000000008
 20
27.8306
 30
0.0
 10
71.208300000000008
 20
27.8306
 30
0.0
 10
71.475000000000009
 20
27.8306
 30
0.0
 10
71.812436110825274
 20
27.8306
 30
0.0
 10
71.645599377597037
 20
27.17240760058187
 30
0.0
 10
71.795000000000002
 20
26.870200000000001
 30
0.0
 10
71.906422003113647
 20
26.64481555600365
 30
0.0
 10
71.943342364400451
 20
26.229900000000001
 30
0.0
 10
72.195000000000007
 20
26.229900000000001
 30
0.0
 10
72.355033333333338
 20
26.229900000000001
 30
0.0
 10
72.515066666666669
 20
26.229900000000001
 30
0.0
 10
72.6751
 20
26.229900000000001
 30
0.0
  0
LINE
  5
2DA
100
AcDbEntity
  8
1
  6
CONTINUOUS
 62
     7
100
AcDbLine
 10
37.2572
 20
29.1362
 30
0.0
 11
100.1168
 21
65.3652
 31
0.0
  0
LINE
  5
2DB
100
AcDbEntity
  8
1
  6
CONTINUOUS
 62
     7
100
AcDbLine
 10
100.1168
 20
65.3652
 30
0.0
 11
71.7427
 21
27.0474
 31
0.0
  0
LINE
  5
2DC
100
AcDbEntity
  8
1
  6
CONTINUOUS
 62
     7
100
AcDbLine
 10
100.1168
 20
65.3652
 30
0.0
 11
107.9638
 21
65.3652
 31
0.0
  0
LINE
  5
2DD
100
AcDbEntity
  8
1
  6
CONTINUOUS
 62
     7
100
AcDbLine
 10
66.2368
 20
-6.4204
 30
0.0
 11
98.0368
 21
-6.4204
 31
0.0
  0
LINE
  5
2DE
100
AcDbEntity
  8
1
  6
CONTINUOUS
 62
     7
100
AcDbLine
 10
80.3368
 20
-14.8204
 30
0.0
 11
84.1968
 21
-14.8204
 31
0.0
  0
LINE
  5
2DF
100
AcDbEntity
  8
1
  6
CONTINUOUS
 62
     7
100
AcDbLine
 10
80.3368
 20
-15.4204
 30
0.0
 11
98.0368
 21
-15.4204
 31
0.0
  0
LINE
  5
2E0
100
AcDbEntity
  8
1
  6
CONTINUOUS
 62
     7
100
AcDbLine
 10
96.8368
 20
-6.4204
 30
0.0
 11
96.8368
 21
-15.4204
 31
0.0
  0
LINE
  5
2E1
100
AcDbEntity
  8
1
  6
CONTINUOUS
 62
     7
100
AcDbLine
 10
82.9968
 20
-14.8204
 30
0.0
 11
82.9968
 21
-10.0204
 31
0.0
  0
LINE
  5
2E2
100
AcDbEntity
  8
1
  6
CONTINUOUS
 62
     7
100
AcDbLine
 10
82.9968
 20
-15.4204
 30
0.0
 11
82.9968
 21
-20.2204
 31
0.0
  0
LINE
  5
2E3
100
AcDbEntity
  8
1
  6
CONTINUOUS
 62
     7
100
AcDbLine
 10
43.952
 20
-6.4204
 30
0.0
 11
19.952
 21
-6.4204
 31
0.0
  0
LINE
  5
2E4
100
AcDbEntity
  8
1
  6
CONTINUOUS
 62
   212
100
AcDbLine
 10
45.2368
 20
-6.4204
 30
0.0
 11
32.003
 21
-14.8675
 31
0.0
  0
LINE
  5
2E5
100
AcDbEntity
  8
1
  6
CONTINUOUS
 62
     7
100
AcDbLine
 10
30.9914
 20
-15.5131
 30
0.0
 11
22.8993
 21
-20.6781
 31
0.0
  0
ARC
  5
2E6
100
AcDbEntity
  8
1
  6
CONTINUOUS
 62
     7
100
AcDbCircle
 10
38.57526
 20
-9.974691
 30
0.0
 40
17.782097
210
0.0
220
0.0
230
1.0
100
AcDbArc
 50
168.470039
 51
210.307236
  0
INSERT
  5
2E7
100
AcDbEntity
  8
1
  6
CONTINUOUS
 62
     1
100
AcDbBlockReference
  2
LDR
 10
31.1368
 20
63.7796
 30
0.0
 41
240.0
 42
240.0
 50
180.0
210
0.0
220
0.0
230
1.0
  0
INSERT
  5
2E8
100
AcDbEntity
  8
1
  6
CONTINUOUS
 62
     1
100
AcDbBlockReference
  2
LDR
 10
31.1368
 20
63.7796
 30
0.0
 41
240.0
 42
240.0
 50
180.0
210
0.0
220
0.0
230
1.0
  0
INSERT
  5
2E9
100
AcDbEntity
  8
1
  6
CONTINUOUS
 62
     1
100
AcDbBlockReference
  2
LDR
 10
79.1368
 20
63.7796
 30
0.0
 41
240.0
 42
240.0
210
0.0
220
0.0
230
1.0
  0
INSERT
  5
2EA
100
AcDbEntity
  8
1
  6
CONTINUOUS
 62
     1
100
AcDbBlockReference
  2
LDR
 10
79.1368
 20
63.7796
 30
0.0
 41
240.0
 42
240.0
210
0.0
220
0.0
230
1.0
  0
INSERT
  5
2EB
100
AcDbEntity
  8
1
  6
CONTINUOUS
 62
     1
100
AcDbBlockReference
  2
LDR
 10
37.2572
 20
29.1362
 30
0.0
 41
240.0
 42
240.0
 50
209.956909
210
0.0
220
0.0
230
1.0
  0
INSERT
  5
2EC
100
AcDbEntity
  8
1
  6
CONTINUOUS
 62
     1
100
AcDbBlockReference
  2
LDR
 10
44.6368
 20
13.3796
 30
0.0
 41
240.0
 42
240.0
 50
270.0
210
0.0
220
0.0
230
1.0
  0
INSERT
  5
2ED
100
AcDbEntity
  8
1
  6
CONTINUOUS
 62
     1
100
AcDbBlockReference
  2
LDR
 10
71.7427
 20
27.0474
 30
0.0
 41
239.999999
 42
239.999999
 50
233.480275
210
0.0
220
0.0
230
1.0
  0
INSERT
  5
2EE
100
AcDbEntity
  8
1
  6
CONTINUOUS
 62
     1
100
AcDbBlockReference
  2
LDR
 10
71.7427
 20
27.0474
 30
0.0
 41
239.999999
 42
239.999999
 50
233.480275
210
0.0
220
0.0
230
1.0
  0
INSERT
  5
2EF
100
AcDbEntity
  8
1
  6
CONTINUOUS
 62
     1
100
AcDbBlockReference
  2
LDR
 10
23.9368
 20
56.5796
 30
0.0
 41
240.0
 42
240.0
 50
90.0
210
0.0
220
0.0
230
1.0
  0
INSERT
  5
2F0
100
AcDbEntity
  8
1
  6
CONTINUOUS
 62
     1
100
AcDbBlockReference
  2
LDR
 10
23.9368
 20
56.5796
 30
0.0
 41
240.0
 42
240.0
 50
90.0
210
0.0
220
0.0
230
1.0
  0
INSERT
  5
2F1
100
AcDbEntity
  8
1
  6
CONTINUOUS
 62
     1
100
AcDbBlockReference
  2
LDR
 10
23.9368
 20
8.5796
 30
0.0
 41
240.0
 42
240.0
 50
270.0
210
0.0
220
0.0
230
1.0
  0
INSERT
  5
2F2
100
AcDbEntity
  8
1
  6
CONTINUOUS
 62
     1
100
AcDbBlockReference
  2
LDR
 10
23.9368
 20
8.5796
 30
0.0
 41
240.0
 42
240.0
 50
270.0
210
0.0
220
0.0
230
1.0
  0
INSERT
  5
2F3
100
AcDbEntity
  8
1
  6
CONTINUOUS
 62
     1
100
AcDbBlockReference
  2
LDR
 10
96.8368
 20
-6.4204
 30
0.0
 41
240.0
 42
240.0
 50
90.0
210
0.0
220
0.0
230
1.0
  0
INSERT
  5
2F4
100
AcDbEntity
  8
1
  6
CONTINUOUS
 62
     1
100
AcDbBlockReference
  2
LDR
 10
96.8368
 20
-6.4204
 30
0.0
 41
240.0
 42
240.0
 50
90.0
210
0.0
220
0.0
230
1.0
  0
INSERT
  5
2F5
100
AcDbEntity
  8
1
  6
CONTINUOUS
 62
     1
100
AcDbBlockReference
  2
LDR
 10
96.8368
 20
-15.4204
 30
0.0
 41
240.0
 42
240.0
 50
270.0
210
0.0
220
0.0
230
1.0
  0
INSERT
  5
2F6
100
AcDbEntity
  8
1
  6
CONTINUOUS
 62
     1
100
AcDbBlockReference
  2
LDR
 10
82.9968
 20
-14.8204
 30
0.0
 41
240.0
 42
240.0
 50
270.0
210
0.0
220
0.0
230
1.0
  0
INSERT
  5
2F7
100
AcDbEntity
  8
1
  6
CONTINUOUS
 62
     1
100
AcDbBlockReference
  2
LDR
 10
82.9968
 20
-15.4204
 30
0.0
 41
240.0
 42
240.0
 50
90.0
210
0.0
220
0.0
230
1.0
  0
INSERT
  5
2F8
100
AcDbEntity
  8
1
  6
CONTINUOUS
 62
     1
100
AcDbBlockReference
  2
LDR
 10
88.0587
 20
17.2565
 30
0.0
 41
240.000003
 42
240.000003
 50
58.919571
210
0.0
220
0.0
230
1.0
  0
ARC
  5
2F9
100
AcDbEntity
  8
1
  6
CONTINUOUS
 62
     7
100
AcDbCircle
 10
95.270699
 20
10.993587
 30
0.0
 40
9.544224
210
0.0
220
0.0
230
1.0
100
AcDbArc
 50
148.903331
 51
151.525819
  0
ARC
  5
2FA
100
AcDbEntity
  8
1
  6
CONTINUOUS
 62
     7
100
AcDbCircle
 10
95.270699
 20
10.993587
 30
0.0
 40
9.544224
210
0.0
220
0.0
230
1.0
100
AcDbArc
 50
148.903331
 51
182.386247
  0
INSERT
  5
2FB
100
AcDbEntity
  8
1
  6
CONTINUOUS
 62
     1
100
AcDbBlockReference
  2
LDR
 10
86.0457
 20
8.6004
 30
0.0
 41
240.000001
 42
240.000001
 50
274.799014
210
0.0
220
0.0
230
1.0
  0
INSERT
  5
2FC
100
AcDbEntity
  8
1
  6
CONTINUOUS
 62
     1
100
AcDbBlockReference
  2
LDR
 10
21.141
 20
-6.4298
 30
0.0
 41
240.000001
 42
240.000001
 50
82.194961
210
0.0
220
0.0
230
1.0
  0
INSERT
  5
2FD
100
AcDbEntity
  8
1
  6
CONTINUOUS
 62
     1
100
AcDbBlockReference
  2
LDR
 10
23.9139
 20
-20.0183
 30
0.0
 41
240.000002
 42
240.000002
 50
299.944416
210
0.0
220
0.0
230
1.0
  0
TEXT
  5
2FE
100
AcDbEntity
  8
1
  6
CONTINUOUS
 62
     7
100
AcDbText
 10
79.786
 20
11.7606
 30
0.0
 40
3.0
  1
30
  7
MONOTXT
 72
     4
 11
82.2663
 21
13.2606
 31
0.0
210
0.0
220
0.0
230
1.0
100
AcDbText
  0
CIRCLE
  5
2FF
100
AcDbEntity
  8
1
  6
CONTINUOUS
 62
     7
100
AcDbCircle
 10
85.2639
 20
15.4134
 30
0.0
 40
0.394378
210
0.0
220
0.0
230
1.0
  0
CIRCLE
  5
300
100
AcDbEntity
  8
1
  6
CONTINUOUS
 62
     7
100
AcDbCircle
 10
19.527
 20
-12.493
 30
0.0
 40
0.394378
210
0.0
220
0.0
230
1.0
  0
TEXT
  5
301
100
AcDbEntity
  8
1
  6
CONTINUOUS
 62
     7
100
AcDbText
 10
14.0491
 20
-16.1458
 30
0.0
 40
3.0
  1
30
  7
MONOTXT
 72
     4
 11
16.5294
 21
-14.6458
 31
0.0
210
0.0
220
0.0
230
1.0
100
AcDbText
  0
TEXT
  5
302
100
AcDbEntity
  8
1
  6
CONTINUOUS
 62
     7
100
AcDbText
 10
78.8303
 20
-24.1238
 30
0.0
 40
3.0
  1
20mm
  7
MONOTXT
 72
     4
 11
85.35
 21
-22.6238
 31
0.0
210
0.0
220
0.0
230
1.0
100
AcDbText
  0
TEXT
  5
303
100
AcDbEntity
  8
1
  6
CONTINUOUS
 62
     7
100
AcDbText
 10
101.6772
 20
-17.4385
 30
0.0
 40
3.0
  1
19mm
 50
90.0
  7
MONOTXT
 72
     4
 11
100.1772
 21
-11.6275
 31
0.0
210
0.0
220
0.0
230
1.0
100
AcDbText
  0
TEXT
  5
304
100
AcDbEntity
  8
1
  6
CONTINUOUS
 62
     7
100
AcDbText
 10
30.6467
 20
86.7012
 30
0.0
 40
4.8
  1
DIRECTION OF
  7
MONOTXT
 72
     4
 11
55.6105
 21
89.1012
 31
0.0
210
0.0
220
0.0
230
1.0
100
AcDbText
  0
TEXT
  5
305
100
AcDbEntity
  8
1
  6
CONTINUOUS
 62
     7
100
AcDbText
 10
41.5318
 20
73.5012
 30
0.0
 40
4.8
  1
TRAFFIC
  7
MONOTXT
 72
     4
 11
55.6105
 21
75.9012
 31
0.0
210
0.0
220
0.0
230
1.0
100
AcDbText
  0
POLYLINE
  5
306
100
AcDbEntity
  8
1
  6
CONTINUOUS
 62
     7
100
AcDb2dPolyline
 66
     1
 10
0.0
 20
0.0
 30
0.0
 70
     1
  0
VERTEX
  5
307
100
AcDbEntity
  8
1
  6
CONTINUOUS
 62
     7
100
AcDbVertex
100
AcDb2dVertex
 10
47.1088
 20
81.2503
 30
0.0
  0
VERTEX
  5
308
100
AcDbEntity
  8
1
  6
CONTINUOUS
 62
     7
100
AcDbVertex
100
AcDb2dVertex
 10
47.1088
 20
83.1703
 30
0.0
  0
VERTEX
  5
309
100
AcDbEntity
  8
1
  6
CONTINUOUS
 62
     7
100
AcDbVertex
100
AcDb2dVertex
 10
47.1088
 20
83.2183
 30
0.0
  0
VERTEX
  5
30A
100
AcDbEntity
  8
1
  6
CONTINUOUS
 62
     7
100
AcDbVertex
100
AcDb2dVertex
 10
58.9168
 20
83.2183
 30
0.0
  0
VERTEX
  5
30B
100
AcDbEntity
  8
1
  6
CONTINUOUS
 62
     7
100
AcDbVertex
100
AcDb2dVertex
 10
58.9168
 20
84.6103
 30
0.0
  0
VERTEX
  5
30C
100
AcDbEntity
  8
1
  6
CONTINUOUS
 62
     7
100
AcDbVertex
100
AcDb2dVertex
 10
64.2448
 20
82.2583
 30
0.0
  0
VERTEX
  5
30D
100
AcDbEntity
  8
1
  6
CONTINUOUS
 62
     7
100
AcDbVertex
100
AcDb2dVertex
 10
58.9168
 20
79.8343
 30
0.0
  0
VERTEX
  5
30E
100
AcDbEntity
  8
1
  6
CONTINUOUS
 62
     7
100
AcDbVertex
100
AcDb2dVertex
 10
58.9168
 20
81.2503
 30
0.0
  0
VERTEX
  5
30F
100
AcDbEntity
  8
1
  6
CONTINUOUS
 62
     7
100
AcDbVertex
100
AcDb2dVertex
 10
47.1088
 20
81.2503
 30
0.0
  0
SEQEND
  5
310
100
AcDbEntity
  8
1
  6
CONTINUOUS
 62
     7
  0
TEXT
  5
311
100
AcDbEntity
  8
1
  6
CONTINUOUS
 62
     7
100
AcDbText
 10
22.4358
 20
-40.7588
 30
0.0
 40
4.8
  1
TYPE "R-4" MARKER
  7
MONOTXT
 72
     4
 11
60.3633
 21
-38.3588
 31
0.0
210
0.0
220
0.0
230
1.0
100
AcDbText
  0
LINE
  5
312
100
AcDbEntity
  8
1
  6
CONTINUOUS
 62
     7
100
AcDbLine
 10
19.2816
 20
-42.8726
 30
0.0
 11
102.3112
 21
-42.8726
 31
0.0
  0
CIRCLE
  5
313
100
AcDbEntity
  8
1
  6
CONTINUOUS
 62
   132
100
AcDbCircle
 10
409.7264
 20
105.0505
 30
0.0
 40
48.0
210
0.0
220
0.0
230
1.0
  0
LINE
  5
314
100
AcDbEntity
  8
1
  6
CONTINUOUS
 62
     7
100
AcDbLine
 10
358.1264
 20
105.0505
 30
0.0
 11
406.1264
 21
105.0505
 31
0.0
  0
LINE
  5
315
100
AcDbEntity
  8
1
  6
CONTINUOUS
 62
     7
100
AcDbLine
 10
407.9264
 20
105.0505
 30
0.0
 11
411.5264
 21
105.0505
 31
0.0
  0
LINE
  5
316
100
AcDbEntity
  8
1
  6
CONTINUOUS
 62
     7
100
AcDbLine
 10
413.3264
 20
105.0505
 30
0.0
 11
461.3264
 21
105.0505
 31
0.0
  0
LINE
  5
317
100
AcDbEntity
  8
1
  6
CONTINUOUS
 62
     7
100
AcDbLine
 10
409.7264
 20
156.6505
 30
0.0
 11
409.7264
 21
108.6505
 31
0.0
  0
LINE
  5
318
100
AcDbEntity
  8
1
  6
CONTINUOUS
 62
     7
100
AcDbLine
 10
409.7264
 20
106.8505
 30
0.0
 11
409.7264
 21
103.2505
 31
0.0
  0
LINE
  5
319
100
AcDbEntity
  8
1
  6
CONTINUOUS
 62
   132
100
AcDbLine
 10
363.2506
 20
2.4505
 30
0.0
 11
456.2022
 21
2.4505
 31
0.0
  0
ARC
  5
31A
100
AcDbEntity
  8
1
  6
CONTINUOUS
 62
   132
100
AcDbCircle
 10
409.7264
 20
-9.5495
 30
0.0
 40
48.0
210
0.0
220
0.0
230
1.0
100
AcDbArc
 50
14.477511
 51
165.522489
  0
LINE
  5
31B
100
AcDbEntity
  8
1
  6
CONTINUOUS
 62
   132
100
AcDbLine
 10
363.6639
 20
3.9505
 30
0.0
 11
455.7889
 21
3.9505
 31
0.0
  0
LINE
  5
31C
100
AcDbEntity
  8
1
  6
HIDDEN
 62
   132
100
AcDbLine
 10
400.4264
 20
21.6505
 30
0.0
 11
400.4264
 21
3.9505
 31
0.0
  0
LINE
  5
31D
100
AcDbEntity
  8
1
  6
HIDDEN
 62
   132
100
AcDbLine
 10
419.0264
 20
21.6505
 30
0.0
 11
419.0264
 21
3.9505
 31
0.0
  0
LINE
  5
31E
100
AcDbEntity
  8
1
  6
HIDDEN
 62
   132
100
AcDbLine
 10
400.4264
 20
21.6505
 30
0.0
 11
419.0264
 21
21.6505
 31
0.0
  0
LINE
  5
31F
100
AcDbEntity
  8
1
  6
HIDDEN
 62
   132
100
AcDbLine
 10
400.4264
 20
19.2505
 30
0.0
 11
419.0264
 21
19.2505
 31
0.0
  0
LINE
  5
320
100
AcDbEntity
  8
1
  6
HIDDEN
 62
   132
100
AcDbLine
 10
400.4264
 20
74.4505
 30
0.0
 11
419.0264
 21
74.4505
 31
0.0
  0
LINE
  5
321
100
AcDbEntity
  8
1
  6
HIDDEN
 62
   132
100
AcDbLine
 10
400.4264
 20
74.4505
 30
0.0
 11
400.4264
 21
57.9601
 31
0.0
  0
LINE
  5
322
100
AcDbEntity
  8
1
  6
HIDDEN
 62
   132
100
AcDbLine
 10
419.0264
 20
74.4505
 30
0.0
 11
419.0264
 21
57.9601
 31
0.0
  0
LINE
  5
323
100
AcDbEntity
  8
1
  6
HIDDEN
 62
   132
100
AcDbLine
 10
400.4264
 20
72.0505
 30
0.0
 11
419.0264
 21
72.0505
 31
0.0
  0
LINE
  5
324
100
AcDbEntity
  8
1
  6
HIDDEN
 62
   132
100
AcDbLine
 10
400.4264
 20
135.6505
 30
0.0
 11
419.0264
 21
135.6505
 31
0.0
  0
LINE
  5
325
100
AcDbEntity
  8
1
  6
HIDDEN
 62
   132
100
AcDbLine
 10
400.4264
 20
135.6505
 30
0.0
 11
400.4264
 21
152.1409
 31
0.0
  0
LINE
  5
326
100
AcDbEntity
  8
1
  6
HIDDEN
 62
   132
100
AcDbLine
 10
419.0264
 20
135.6505
 30
0.0
 11
419.0264
 21
152.1409
 31
0.0
  0
LINE
  5
327
100
AcDbEntity
  8
1
  6
HIDDEN
 62
   132
100
AcDbLine
 10
400.4264
 20
138.0505
 30
0.0
 11
419.0264
 21
138.0505
 31
0.0
  0
LINE
  5
328
100
AcDbEntity
  8
1
  6
CONTINUOUS
 62
     7
100
AcDbLine
 10
409.7264
 20
101.4505
 30
0.0
 11
409.7264
 21
57.0505
 31
0.0
  0
LINE
  5
329
100
AcDbEntity
  8
1
  6
CONTINUOUS
 62
     7
100
AcDbLine
 10
409.7264
 20
57.0505
 30
0.0
 11
409.7264
 21
51.3505
 31
0.0
  0
LINE
  5
32A
100
AcDbEntity
  8
1
  6
CONTINUOUS
 62
     7
100
AcDbLine
 10
409.7264
 20
49.5505
 30
0.0
 11
409.7264
 21
45.9505
 31
0.0
  0
LINE
  5
32B
100
AcDbEntity
  8
1
  6
CONTINUOUS
 62
     7
100
AcDbLine
 10
409.7264
 20
44.1505
 30
0.0
 11
409.7264
 21
38.4505
 31
0.0
  0
LINE
  5
32C
100
AcDbEntity
  8
1
  6
CONTINUOUS
 62
     7
100
AcDbLine
 10
409.7264
 20
38.4505
 30
0.0
 11
409.7264
 21
14.7505
 31
0.0
  0
LINE
  5
32D
100
AcDbEntity
  8
1
  6
CONTINUOUS
 62
     7
100
AcDbLine
 10
409.7264
 20
12.9505
 30
0.0
 11
409.7264
 21
9.3505
 31
0.0
  0
LINE
  5
32E
100
AcDbEntity
  8
1
  6
CONTINUOUS
 62
     7
100
AcDbLine
 10
409.7264
 20
7.5505
 30
0.0
 11
409.7264
 21
-1.1495
 31
0.0
  0
LINE
  5
32F
100
AcDbEntity
  8
1
  6
CONTINUOUS
 62
     7
100
AcDbLine
 10
421.7264
 20
38.4505
 30
0.0
 11
478.1264
 21
38.4505
 31
0.0
  0
LINE
  5
330
100
AcDbEntity
  8
1
  6
CONTINUOUS
 62
     7
100
AcDbLine
 10
457.4022
 20
2.4505
 30
0.0
 11
478.1264
 21
2.4505
 31
0.0
  0
LINE
  5
331
100
AcDbEntity
  8
1
  6
CONTINUOUS
 62
     7
100
AcDbLine
 10
456.2022
 20
1.2505
 30
0.0
 11
456.2022
 21
-9.5495
 31
0.0
  0
LINE
  5
332
100
AcDbEntity
  8
1
  6
CONTINUOUS
 62
     7
100
AcDbLine
 10
363.2506
 20
1.2505
 30
0.0
 11
363.2506
 21
-9.5495
 31
0.0
  0
LINE
  5
333
100
AcDbEntity
  8
1
  6
CONTINUOUS
 62
     7
100
AcDbLine
 10
476.9264
 20
38.4505
 30
0.0
 11
476.9264
 21
2.4505
 31
0.0
  0
LINE
  5
334
100
AcDbEntity
  8
1
  6
CONTINUOUS
 62
     7
100
AcDbLine
 10
363.2506
 20
-8.3495
 30
0.0
 11
456.2022
 21
-8.3495
 31
0.0
  0
SPLINE
  5
335
100
AcDbEntity
  8
1
  6
CONTINUOUS
 62
     7
100
AcDbSpline
210
0.0
220
0.0
230
1.0
 70
     8
 71
     3
 72
    17
 73
    13
 74
     0
 42
0.0
 43
0.0
 12
0.780783446308943
 22
-0.624801736529221
 32
0.0
 13
0.7808890465433491
 23
-0.6246697503390244
 33
0.0
 40
0.0
 40
0.0
 40
0.0
 40
0.0
 40
0.2625411457049553
 40
0.2625411457049553
 40
0.2625411457049553
 40
0.5947166222773332
 40
0.5947166222773332
 40
0.5947166222773332
 40
0.8424681341973238
 40
0.8424681341973238
 40
0.8424681341973238
 40
1.0
 40
1.0
 40
1.0
 40
1.0
 10
404.74400000000003
 20
147.01779999999999
 30
0.0
 10
404.95223333333337
 20
146.85116666666667
 30
0.0
 10
405.16046666666665
 20
146.68453333333332
 30
0.0
 10
405.36870000000005
 20
146.5179
 30
0.0
 10
405.63216349084649
 20
146.30707016315972
 30
0.0
 10
405.0920879216244
 20
145.89322653653636
 30
0.0
 10
405.01850000000002
 20
145.56810000000002
 30
0.0
 10
404.96361479586153
 20
145.32560590674734
 30
0.0
 10
404.73439610612326
 20
144.97585468755656
 30
0.0
 10
404.9307
 20
144.81820000000002
 30
0.0
 10
405.05551909162568
 20
144.7179558606571
 30
0.0
 10
405.18053740028239
 20
144.61816344078952
 30
0.0
 10
405.30549999999999
 20
144.51820000000001
 30
0.0
  0
CIRCLE
  5
336
100
AcDbEntity
  8
1
  6
CONTINUOUS
 62
   132
100
AcDbCircle
 10
272.9264
 20
105.0505
 30
0.0
 40
21.0
210
0.0
220
0.0
230
1.0
  0
LINE
  5
337
100
AcDbEntity
  8
1
  6
CONTINUOUS
 62
     7
100
AcDbLine
 10
272.9264
 20
129.6505
 30
0.0
 11
272.9264
 21
107.4505
 31
0.0
  0
LINE
  5
338
100
AcDbEntity
  8
1
  6
CONTINUOUS
 62
     7
100
AcDbLine
 10
272.9264
 20
106.2505
 30
0.0
 11
272.9264
 21
103.8505
 31
0.0
  0
LINE
  5
339
100
AcDbEntity
  8
1
  6
CONTINUOUS
 62
     7
100
AcDbLine
 10
272.9264
 20
102.6505
 30
0.0
 11
272.9264
 21
80.4505
 31
0.0
  0
LINE
  5
33A
100
AcDbEntity
  8
1
  6
CONTINUOUS
 62
     7
100
AcDbLine
 10
270.5264
 20
105.0505
 30
0.0
 11
248.3264
 21
105.0505
 31
0.0
  0
LINE
  5
33B
100
AcDbEntity
  8
1
  6
CONTINUOUS
 62
     7
100
AcDbLine
 10
297.5264
 20
105.0505
 30
0.0
 11
275.3264
 21
105.0505
 31
0.0
  0
LINE
  5
33C
100
AcDbEntity
  8
1
  6
CONTINUOUS
 62
     7
100
AcDbLine
 10
274.1264
 20
105.0505
 30
0.0
 11
271.7264
 21
105.0505
 31
0.0
  0
LINE
  5
33D
100
AcDbEntity
  8
1
  6
HIDDEN
 62
   132
100
AcDbLine
 10
263.6264
 20
112.8505
 30
0.0
 11
282.2264
 21
112.8505
 31
0.0
  0
LINE
  5
33E
100
AcDbEntity
  8
1
  6
HIDDEN
 62
   132
100
AcDbLine
 10
263.6264
 20
112.8505
 30
0.0
 11
263.6264
 21
123.8789
 31
0.0
  0
LINE
  5
33F
100
AcDbEntity
  8
1
  6
HIDDEN
 62
   132
100
AcDbLine
 10
282.2264
 20
112.8505
 30
0.0
 11
282.2264
 21
123.8789
 31
0.0
  0
LINE
  5
340
100
AcDbEntity
  8
1
  6
HIDDEN
 62
   132
100
AcDbLine
 10
263.6264
 20
115.2505
 30
0.0
 11
282.2264
 21
115.2505
 31
0.0
  0
LINE
  5
341
100
AcDbEntity
  8
1
  6
HIDDEN
 62
   132
100
AcDbLine
 10
263.6264
 20
97.2505
 30
0.0
 11
282.2264
 21
97.2505
 31
0.0
  0
LINE
  5
342
100
AcDbEntity
  8
1
  6
HIDDEN
 62
   132
100
AcDbLine
 10
263.6264
 20
97.2505
 30
0.0
 11
263.6264
 21
86.2221
 31
0.0
  0
LINE
  5
343
100
AcDbEntity
  8
1
  6
HIDDEN
 62
   132
100
AcDbLine
 10
282.2264
 20
97.2505
 30
0.0
 11
282.2264
 21
86.2221
 31
0.0
  0
LINE
  5
344
100
AcDbEntity
  8
1
  6
HIDDEN
 62
   132
100
AcDbLine
 10
263.6264
 20
94.8505
 30
0.0
 11
282.2264
 21
94.8505
 31
0.0
  0
LINE
  5
345
100
AcDbEntity
  8
1
  6
CONTINUOUS
 62
   132
100
AcDbLine
 10
251.9264
 20
3.9505
 30
0.0
 11
251.9264
 21
2.4505
 31
0.0
  0
LINE
  5
346
100
AcDbEntity
  8
1
  6
CONTINUOUS
 62
   132
100
AcDbLine
 10
293.9264
 20
3.9505
 30
0.0
 11
293.9264
 21
2.4505
 31
0.0
  0
LINE
  5
347
100
AcDbEntity
  8
1
  6
CONTINUOUS
 62
   132
100
AcDbLine
 10
293.9264
 20
2.4505
 30
0.0
 11
251.9264
 21
2.4505
 31
0.0
  0
LINE
  5
348
100
AcDbEntity
  8
1
  6
CONTINUOUS
 62
   132
100
AcDbLine
 10
293.9264
 20
3.9505
 30
0.0
 11
251.9264
 21
3.9505
 31
0.0
  0
ARC
  5
349
100
AcDbEntity
  8
1
  6
CONTINUOUS
 62
   132
100
AcDbCircle
 10
272.9264
 20
-55.4995
 30
0.0
 40
63.05
210
0.0
220
0.0
230
1.0
100
AcDbArc
 50
70.544844
 51
109.455158
  0
LINE
  5
34A
100
AcDbEntity
  8
1
  6
HIDDEN
 62
   132
100
AcDbLine
 10
282.2264
 20
5.1505
 30
0.0
 11
263.6264
 21
5.1505
 31
0.0
  0
LINE
  5
34B
100
AcDbEntity
  8
1
  6
HIDDEN
 62
   132
100
AcDbLine
 10
263.6264
 20
6.8608
 30
0.0
 11
263.6264
 21
5.1505
 31
0.0
  0
LINE
  5
34C
100
AcDbEntity
  8
1
  6
HIDDEN
 62
   132
100
AcDbLine
 10
282.2264
 20
6.8608
 30
0.0
 11
282.2264
 21
5.1505
 31
0.0
  0
LINE
  5
34D
100
AcDbEntity
  8
1
  6
CONTINUOUS
 62
     7
100
AcDbLine
 10
263.3264
 20
7.5505
 30
0.0
 11
241.7264
 21
7.5505
 31
0.0
  0
LINE
  5
34E
100
AcDbEntity
  8
1
  6
CONTINUOUS
 62
     7
100
AcDbLine
 10
250.7264
 20
2.4505
 30
0.0
 11
241.7264
 21
2.4505
 31
0.0
  0
LINE
  5
34F
100
AcDbEntity
  8
1
  6
CONTINUOUS
 62
     7
100
AcDbLine
 10
242.9264
 20
7.5505
 30
0.0
 11
242.9264
 21
12.3505
 31
0.0
  0
LINE
  5
350
100
AcDbEntity
  8
1
  6
CONTINUOUS
 62
     7
100
AcDbLine
 10
242.9264
 20
2.4505
 30
0.0
 11
242.9264
 21
-2.3495
 31
0.0
  0
LINE
  5
351
100
AcDbEntity
  8
1
  6
CONTINUOUS
 62
     7
100
AcDbLine
 10
251.9264
 20
1.2505
 30
0.0
 11
251.9264
 21
-9.5495
 31
0.0
  0
LINE
  5
352
100
AcDbEntity
  8
1
  6
CONTINUOUS
 62
     7
100
AcDbLine
 10
293.9264
 20
1.2505
 30
0.0
 11
293.9264
 21
-9.5495
 31
0.0
  0
LINE
  5
353
100
AcDbEntity
  8
1
  6
CONTINUOUS
 62
     7
100
AcDbLine
 10
251.9264
 20
-8.3495
 30
0.0
 11
293.9264
 21
-8.3495
 31
0.0
  0
SPLINE
  5
354
100
AcDbEntity
  8
1
  6
CONTINUOUS
 62
     7
100
AcDbSpline
210
0.0
220
0.0
230
1.0
 70
     8
 71
     3
 72
    17
 73
    13
 74
     0
 42
0.0
 43
0.0
 12
0.5498161985837258
 22
0.8352856683643871
 32
0.0
 13
0.549643422852339
 23
0.8353993701907879
 33
0.0
 40
0.0
 40
0.0
 40
0.0
 40
0.0
 40
0.2625479694554563
 40
0.2625479694554563
 40
0.2625479694554563
 40
0.5947251587859294
 40
0.5947251587859294
 40
0.5947251587859294
 40
0.8424823178836377
 40
0.8424823178836377
 40
0.8424823178836377
 40
1.0
 40
1.0
 40
1.0
 40
1.0
 10
275.67610000000002
 20
119.6187
 30
0.0
 10
275.82273333333336
 20
119.84146666666668
 30
0.0
 10
275.96936666666664
 20
120.06423333333333
 30
0.0
 10
276.11599999999999
 20
120.28700000000001
 30
0.0
 10
276.30152133017771
 20
120.56884565800806
 30
0.0
 10
276.76263584964903
 20
120.06893414640983
 30
0.0
 10
277.09410000000003
 20
120.0262
 30
0.0
 10
277.34132533295923
 20
119.99432637637069
 30
0.0
 10
277.70935924174518
 20
119.79831473724876
 30
0.0
 10
277.84890000000001
 20
120.00830000000001
 30
0.0
 10
277.93761645477821
 20
120.14180327388169
 30
0.0
 10
278.02495383853102
 20
120.27553121611712
 30
0.0
 10
278.11290000000002
 20
120.40920000000001
 30
0.0
  0
LINE
  5
355
100
AcDbEntity
  8
1
  6
CONTINUOUS
 62
     7
100
AcDbLine
 10
277.118
 20
120.0227
 30
0.0
 11
284.741
 21
145.8918
 31
0.0
  0
LINE
  5
356
100
AcDbEntity
  8
1
  6
CONTINUOUS
 62
     7
100
AcDbLine
 10
405.1866
 20
145.8918
 30
0.0
 11
360.7849
 21
145.8918
 31
0.0
  0
LINE
  5
357
100
AcDbEntity
  8
1
  6
CONTINUOUS
 62
     7
100
AcDbLine
 10
300.3912
 20
145.8918
 30
0.0
 11
284.741
 21
145.8918
 31
0.0
  0
INSERT
  5
358
100
AcDbEntity
  8
1
  6
CONTINUOUS
 62
     1
100
AcDbBlockReference
  2
LDR
 10
277.118
 20
120.0227
 30
0.0
 41
240.0
 42
240.0
 50
253.581026
210
0.0
220
0.0
230
1.0
  0
INSERT
  5
359
100
AcDbEntity
  8
1
  6
CONTINUOUS
 62
     1
100
AcDbBlockReference
  2
LDR
 10
405.1866
 20
145.8918
 30
0.0
 41
240.0
 42
240.0
210
0.0
220
0.0
230
1.0
  0
INSERT
  5
35A
100
AcDbEntity
  8
1
  6
CONTINUOUS
 62
     1
100
AcDbBlockReference
  2
LDR
 10
405.1866
 20
145.8918
 30
0.0
 41
240.0
 42
240.0
210
0.0
220
0.0
230
1.0
  0
INSERT
  5
35B
100
AcDbEntity
  8
1
  6
CONTINUOUS
 62
     1
100
AcDbBlockReference
  2
LDR
 10
476.9264
 20
38.4505
 30
0.0
 41
240.0
 42
240.0
 50
90.0
210
0.0
220
0.0
230
1.0
  0
INSERT
  5
35C
100
AcDbEntity
  8
1
  6
CONTINUOUS
 62
     1
100
AcDbBlockReference
  2
LDR
 10
476.9264
 20
38.4505
 30
0.0
 41
240.0
 42
240.0
 50
90.0
210
0.0
220
0.0
230
1.0
  0
INSERT
  5
35D
100
AcDbEntity
  8
1
  6
CONTINUOUS
 62
     1
100
AcDbBlockReference
  2
LDR
 10
476.9264
 20
2.4505
 30
0.0
 41
240.0
 42
240.0
 50
270.0
210
0.0
220
0.0
230
1.0
  0
INSERT
  5
35E
100
AcDbEntity
  8
1
  6
CONTINUOUS
 62
     1
100
AcDbBlockReference
  2
LDR
 10
476.9264
 20
2.4505
 30
0.0
 41
240.0
 42
240.0
 50
270.0
210
0.0
220
0.0
230
1.0
  0
INSERT
  5
35F
100
AcDbEntity
  8
1
  6
CONTINUOUS
 62
     1
100
AcDbBlockReference
  2
LDR
 10
456.2022
 20
-8.3495
 30
0.0
 41
240.0
 42
240.0
210
0.0
220
0.0
230
1.0
  0
INSERT
  5
360
100
AcDbEntity
  8
1
  6
CONTINUOUS
 62
     1
100
AcDbBlockReference
  2
LDR
 10
456.2022
 20
-8.3495
 30
0.0
 41
240.0
 42
240.0
210
0.0
220
0.0
230
1.0
  0
INSERT
  5
361
100
AcDbEntity
  8
1
  6
CONTINUOUS
 62
     1
100
AcDbBlockReference
  2
LDR
 10
363.2506
 20
-8.3495
 30
0.0
 41
240.0
 42
240.0
 50
180.0
210
0.0
220
0.0
230
1.0
  0
INSERT
  5
362
100
AcDbEntity
  8
1
  6
CONTINUOUS
 62
     1
100
AcDbBlockReference
  2
LDR
 10
363.2506
 20
-8.3495
 30
0.0
 41
240.0
 42
240.0
 50
180.0
210
0.0
220
0.0
230
1.0
  0
INSERT
  5
363
100
AcDbEntity
  8
1
  6
CONTINUOUS
 62
     1
100
AcDbBlockReference
  2
LDR
 10
293.9264
 20
-8.3495
 30
0.0
 41
240.0
 42
240.0
210
0.0
220
0.0
230
1.0
  0
INSERT
  5
364
100
AcDbEntity
  8
1
  6
CONTINUOUS
 62
     1
100
AcDbBlockReference
  2
LDR
 10
293.9264
 20
-8.3495
 30
0.0
 41
240.0
 42
240.0
210
0.0
220
0.0
230
1.0
  0
INSERT
  5
365
100
AcDbEntity
  8
1
  6
CONTINUOUS
 62
     1
100
AcDbBlockReference
  2
LDR
 10
251.9264
 20
-8.3495
 30
0.0
 41
240.0
 42
240.0
 50
180.0
210
0.0
220
0.0
230
1.0
  0
TEXT
  5
366
100
AcDbEntity
  8
1
  6
CONTINUOUS
 62
     7
100
AcDbText
 10
288.4963
 20
51.3527
 30
0.0
 40
3.0
  1
COLOR SHALL BE WHITE OR
  7
MONOTXT
 11
288.4963
 21
54.3527
 31
0.0
210
0.0
220
0.0
230
1.0
100
AcDbText
 73
     3
  0
TEXT
  5
367
100
AcDbEntity
  8
1
  6
CONTINUOUS
 62
     7
100
AcDbText
 10
288.4963
 20
45.9527
 30
0.0
 40
3.0
  1
YELLOW AS SPECIFIED. ALSO,
  7
MONOTXT
 11
288.4963
 21
48.9527
 31
0.0
210
0.0
220
0.0
230
1.0
100
AcDbText
 73
     3
  0
TEXT
  5
368
100
AcDbEntity
  8
1
  6
CONTINUOUS
 62
     7
100
AcDbText
 10
288.4963
 20
40.5527
 30
0.0
 40
3.0
  1
REFLECTIVE OR NONREFLECTIVE
  7
MONOTXT
 11
288.4963
 21
43.5527
 31
0.0
210
0.0
220
0.0
230
1.0
100
AcDbText
 73
     3
  0
TEXT
  5
369
100
AcDbEntity
  8
1
  6
CONTINUOUS
 62
     7
100
AcDbText
 10
288.4963
 20
35.1527
 30
0.0
 40
3.0
  1
AS SPECIFIED.
  7
MONOTXT
 11
288.4963
 21
38.1527
 31
0.0
210
0.0
220
0.0
230
1.0
100
AcDbText
 73
     3
  0
INSERT
  5
36A
100
AcDbEntity
  8
1
  6
CONTINUOUS
 62
     1
100
AcDbBlockReference
  2
LDR
 10
242.9264
 20
7.5505
 30
0.0
 41
240.0
 42
240.0
 50
270.0
210
0.0
220
0.0
230
1.0
  0
INSERT
  5
36B
100
AcDbEntity
  8
1
  6
CONTINUOUS
 62
     1
100
AcDbBlockReference
  2
LDR
 10
242.9264
 20
7.5505
 30
0.0
 41
240.0
 42
240.0
 50
270.0
210
0.0
220
0.0
230
1.0
  0
INSERT
  5
36C
100
AcDbEntity
  8
1
  6
CONTINUOUS
 62
     1
100
AcDbBlockReference
  2
LDR
 10
242.9264
 20
2.4505
 30
0.0
 41
240.0
 42
240.0
 50
90.0
210
0.0
220
0.0
230
1.0
  0
TEXT
  5
36D
100
AcDbEntity
  8
1
  6
CONTINUOUS
 62
     7
100
AcDbText
 10
475.7249
 20
3.6208
 30
0.0
 40
3.0
  1
44.5mm (C-6)
 50
90.0
  7
MONOTXT
 72
     4
 11
474.2249
 21
20.546
 31
0.0
210
0.0
220
0.0
230
1.0
100
AcDbText
  0
TEXT
  5
36E
100
AcDbEntity
  8
1
  6
CONTINUOUS
 62
     7
100
AcDbText
 10
481.1249
 20
3.6681
 30
0.0
 40
3.0
  1
73.0mm (C-8)
 50
90.0
  7
MONOTXT
 72
     4
 11
479.6249
 21
20.546
 31
0.0
210
0.0
220
0.0
230
1.0
100
AcDbText
  0
TEXT
  5
36F
100
AcDbEntity
  8
1
  6
CONTINUOUS
 62
     7
100
AcDbText
 10
232.0542
 20
-25.574
 30
0.0
 40
4.8
  1
TYPE "C-4" MARKERS
  7
MONOTXT
 72
     4
 11
272.4762
 21
-23.174
 31
0.0
210
0.0
220
0.0
230
1.0
100
AcDbText
  0
LINE
  5
370
100
AcDbEntity
  8
1
  6
CONTINUOUS
 62
     7
100
AcDbLine
 10
231.0473
 20
-26.7358
 30
0.0
 11
314.37
 21
-26.7358
 31
0.0
  0
TEXT
  5
371
100
AcDbEntity
  8
1
  6
CONTINUOUS
 62
     7
100
AcDbText
 10
347.382
 20
-25.3101
 30
0.0
 40
4.8
  1
TYPE "C-6" AND "C-8" MARKERS
  7
MONOTXT
 72
     4
 11
409.4985
 21
-22.9101
 31
0.0
210
0.0
220
0.0
230
1.0
100
AcDbText
  0
LINE
  5
372
100
AcDbEntity
  8
1
  6
CONTINUOUS
 62
     7
100
AcDbLine
 10
345.3864
 20
-26.6039
 30
0.0
 11
475.1565
 21
-26.6039
 31
0.0
  0
TEXT
  5
373
100
AcDbEntity
  8
1
  6
CONTINUOUS
 62
     7
100
AcDbText
 10
363.4874
 20
-32.0616
 30
0.0
 40
3.0
  1
(C-6R OR C-6NR AND C-8R OR C-8NR)
  7
MONOTXT
 72
     4
 11
410.2708
 21
-30.5616
 31
0.0
210
0.0
220
0.0
230
1.0
100
AcDbText
  0
TEXT
  5
374
100
AcDbEntity
  8
1
  6
CONTINUOUS
 62
     7
100
AcDbText
 10
252.2663
 20
-32.0616
 30
0.0
 40
3.0
  1
(C-4R OR C-4NR)
  7
MONOTXT
 72
     4
 11
272.8529
 21
-30.5616
 31
0.0
210
0.0
220
0.0
230
1.0
100
AcDbText
  0
TEXT
  5
375
100
AcDbEntity
  8
1
  6
CONTINUOUS
 62
     7
100
AcDbText
 10
441.4801
 20
433.5517
 30
0.0
 40
3.0
  1
GENERAL NOTES
  7
MONOTXT
 72
     4
 11
459.9879
 21
435.0517
 31
0.0
210
0.0
220
0.0
230
1.0
100
AcDbText
  0
LINE
  5
376
100
AcDbEntity
  8
1
  6
CONTINUOUS
 62
     7
100
AcDbLine
 10
439.5773
 20
430.6791
 30
0.0
 11
480.899
 21
430.6791
 31
0.0
  0
SPLINE
  5
377
100
AcDbEntity
  8
1
  6
CONTINUOUS
 62
     7
100
AcDbSpline
210
0.0
220
0.0
230
1.0
 70
     8
 71
     3
 72
    17
 73
    13
 74
     0
 42
0.0
 43
0.0
 12
0.8681431368004481
 22
0.4963139067427775
 32
0.0
 13
0.8682173375923795
 23
0.4961840935620568
 33
0.0
 40
0.0
 40
0.0
 40
0.0
 40
0.0
 40
0.2625665470671924
 40
0.2625665470671924
 40
0.2625665470671924
 40
0.5947336336551929
 40
0.5947336336551929
 40
0.5947336336551929
 40
0.8424592550385498
 40
0.8424592550385498
 40
0.8424592550385498
 40
1.0
 40
1.0
 40
1.0
 40
1.0
 10
70.485799999999998
 20
341.88760000000002
 30
0.0
 10
70.717358456195612
 20
342.01998102930509
 30
0.0
 10
70.948940774935465
 20
342.15241968447413
 30
0.0
 10
71.180500000000009
 20
342.28470000000004
 30
0.0
 10
71.473440414616405
 20
342.45204487889629
 30
0.0
 10
71.641964286107594
 20
341.79911351072121
 30
0.0
 10
71.934899999999999
 20
341.60970000000003
 30
0.0
 10
72.153367405951585
 20
341.46843802210873
 30
0.0
 10
72.381431566493077
 20
341.12759266074369
 30
0.0
 10
72.599900000000005
 20
341.25229999999999
 30
0.0
 10
72.738834679315957
 20
341.33160744918069
 30
0.0
 10
72.877752405184424
 20
341.41119178802239
 30
0.0
 10
73.0167
 20
341.49060000000003
 30
0.0
  0
SPLINE
  5
378
100
AcDbEntity
  8
1
  6
CONTINUOUS
 62
     7
100
AcDbSpline
210
0.0
220
0.0
230
1.0
 70
     8
 71
     3
 72
    17
 73
    13
 74
     0
 42
0.0
 43
0.0
 12
0.8681431368004481
 22
0.4963139067427775
 32
0.0
 13
0.8682173375924015
 23
0.4961840935620186
 33
0.0
 40
0.0
 40
0.0
 40
0.0
 40
0.0
 40
0.2625665470671924
 40
0.2625665470671924
 40
0.2625665470671924
 40
0.5947336336551929
 40
0.5947336336551929
 40
0.5947336336551929
 40
0.8424592550385498
 40
0.8424592550385498
 40
0.8424592550385498
 40
1.0
 40
1.0
 40
1.0
 40
1.0
 10
63.933300000000003
 20
352.37490000000003
 30
0.0
 10
64.164858456195617
 20
352.50728102930509
 30
0.0
 10
64.396440774935471
 20
352.63971968447413
 30
0.0
 10
64.628
 20
352.77199999999999
 30
0.0
 10
64.92094041461641
 20
352.93934487889629
 30
0.0
 10
65.089464286107599
 20
352.28641351072122
 30
0.0
 10
65.382400000000004
 20
352.09700000000004
 30
0.0
 10
65.60086740595159
 20
351.95573802210873
 30
0.0
 10
65.828931566493083
 20
351.61489266074369
 30
0.0
 10
66.047399999999996
 20
351.7396
 30
0.0
 10
66.186334679315948
 20
351.8189074491807
 30
0.0
 10
66.325252405184415
 20
351.8984917880224
 30
0.0
 10
66.464200000000005
 20
351.97790000000003
 30
0.0
  0
LINE
  5
379
100
AcDbEntity
  8
1
  6
CONTINUOUS
 62
     7
100
AcDbLine
 10
68.2391
 20
268.2424
 30
0.0
 11
77.7416
 21
268.2424
 31
0.0
  0
LINE
  5
37A
100
AcDbEntity
  8
1
  6
CONTINUOUS
 62
     7
100
AcDbLine
 10
77.7416
 20
268.2424
 30
0.0
 11
65.1397
 21
352.3666
 31
0.0
  0
LINE
  5
37B
100
AcDbEntity
  8
1
  6
CONTINUOUS
 62
     7
100
AcDbLine
 10
77.7416
 20
268.2424
 30
0.0
 11
71.864
 21
341.6661
 31
0.0
  0
INSERT
  5
37C
100
AcDbEntity
  8
1
  6
CONTINUOUS
 62
     1
100
AcDbBlockReference
  2
LDR
 10
65.1397
 20
352.3666
 30
0.0
 41
240.0
 42
240.0
 50
98.519622
210
0.0
220
0.0
230
1.0
  0
INSERT
  5
37D
100
AcDbEntity
  8
1
  6
CONTINUOUS
 62
     1
100
AcDbBlockReference
  2
LDR
 10
71.864
 20
341.6661
 30
0.0
 41
240.000001
 42
240.000001
 50
94.576794
210
0.0
220
0.0
230
1.0
  0
TEXT
  5
37E
100
AcDbEntity
  8
1
  6
CONTINUOUS
 62
     7
100
AcDbText
 10
301.3675
 20
149.527
 30
0.0
 40
3.0
  1
IF REFLECTIVE INSERTS, ARE
  7
MONOTXT
 11
301.3675
 21
152.527
 31
0.0
210
0.0
220
0.0
230
1.0
100
AcDbText
 73
     3
  0
TEXT
  5
37F
100
AcDbEntity
  8
1
  6
CONTINUOUS
 62
     7
100
AcDbText
 10
301.3675
 20
144.127
 30
0.0
 40
3.0
  1
REQUIRED, THEY SHALL
  7
MONOTXT
 11
301.3675
 21
147.127
 31
0.0
210
0.0
220
0.0
230
1.0
100
AcDbText
 73
     3
  0
TEXT
  5
380
100
AcDbEntity
  8
1
  6
CONTINUOUS
 62
     7
100
AcDbText
 10
301.3675
 20
138.727
 30
0.0
 40
3.0
  1
BE MONODIRECTIONAL OR
  7
MONOTXT
 11
301.3675
 21
141.727
 31
0.0
210
0.0
220
0.0
230
1.0
100
AcDbText
 73
     3
  0
TEXT
  5
381
100
AcDbEntity
  8
1
  6
CONTINUOUS
 62
     7
100
AcDbText
 10
301.3675
 20
133.327
 30
0.0
 40
3.0
  1
BIDIRECTIONAL AS SPECIFIED.
  7
MONOTXT
 11
301.3675
 21
136.327
 31
0.0
210
0.0
220
0.0
230
1.0
100
AcDbText
 73
     3
  0
LWPOLYLINE
  5
382
100
AcDbEntity
  8
1
  6
CONTINUOUS
 62
     7
100
AcDbPolyline
 90
        4
 70
     0
 10
510.3914
 20
57.2647
 10
508.3914
 20
53.8006
 10
512.3914
 20
53.8006
 10
510.3914
 20
57.2647
  0
TEXT
  5
383
100
AcDbEntity
  8
1
  6
CONTINUOUS
 62
     7
100
AcDbText
 10
509.7655
 20
54.3378
 30
0.0
 40
1.5
  1
5
  7
MONOTXT
210
0.0
220
0.0
230
1.0
100
AcDbText
  0
TEXT
  5
384
100
AcDbEntity
  8
1
  6
CONTINUOUS
 62
     7
100
AcDbText
 10
514.3911
 20
54.597
 30
0.0
 40
2.0
  1
ADDED METRIC
  7
MONOTXT
210
0.0
220
0.0
230
1.0
100
AcDbText
  0
TEXT
  5
385
100
AcDbEntity
  8
1
  6
CONTINUOUS
 62
     7
100
AcDbText
 10
49.4059
 20
433.6428
 30
0.0
 40
3.0
  1
124.97mm
  7
MONOTXT
 72
     4
 11
60.5319
 21
435.1428
 31
0.0
210
0.0
220
0.0
230
1.0
100
AcDbText
  0
TEXT
  5
386
100
AcDbEntity
  8
1
  6
CONTINUOUS
 62
     7
100
AcDbText
 10
50.916
 20
422.9266
 30
0.0
 40
3.0
  1
89.92mm
  7
MONOTXT
 72
     4
 11
61.0262
 21
424.4266
 31
0.0
210
0.0
220
0.0
230
1.0
100
AcDbText
  0
TEXT
  5
387
100
AcDbEntity
  8
1
  6
CONTINUOUS
 62
     7
100
AcDbText
 10
104.9041
 20
390.8515
 30
0.0
 40
3.0
  1
7.37mm
  7
MONOTXT
 72
     4
 11
113.7151
 21
392.3515
 31
0.0
210
0.0
220
0.0
230
1.0
100
AcDbText
  0
TEXT
  5
388
100
AcDbEntity
  8
1
  6
CONTINUOUS
 62
     7
100
AcDbText
 10
-4.1414
 20
335.5264
 30
0.0
 40
3.0
  1
254.0mm
 50
90.0
  7
MONOTXT
 72
     4
 11
-5.6414
 21
345.8492
 31
0.0
210
0.0
220
0.0
230
1.0
100
AcDbText
  0
TEXT
  5
389
100
AcDbEntity
  8
1
  6
CONTINUOUS
 62
     7
100
AcDbText
 10
42.6839
 20
281.7858
 30
0.0
 40
3.0
  1
17.53mm
  7
MONOTXT
 72
     4
 11
52.3217
 21
283.2858
 31
0.0
210
0.0
220
0.0
230
1.0
100
AcDbText
  0
TEXT
  5
38A
100
AcDbEntity
  8
1
  6
CONTINUOUS
 62
     7
100
AcDbText
 10
146.5759
 20
438.9184
 30
0.0
 40
3.0
  1
48.77mm
  7
MONOTXT
 72
     4
 11
156.9459
 21
440.4184
 31
0.0
210
0.0
220
0.0
230
1.0
100
AcDbText
  0
TEXT
  5
38B
100
AcDbEntity
  8
1
  6
CONTINUOUS
 62
     7
100
AcDbText
 10
119.8673
 20
423.4594
 30
0.0
 40
3.0
  1
10.41mm
  7
MONOTXT
 72
     4
 11
128.9145
 21
424.9594
 31
0.0
210
0.0
220
0.0
230
1.0
100
AcDbText
  0
TEXT
  5
38C
100
AcDbEntity
  8
1
  6
CONTINUOUS
 62
     7
100
AcDbText
 10
175.6363
 20
376.2161
 30
0.0
 40
3.0
  1
508mm DIA.
  7
MONOTXT
 72
     4
 11
189.7268
 21
377.7161
 31
0.0
210
0.0
220
0.0
230
1.0
100
AcDbText
  0
TEXT
  5
38D
100
AcDbEntity
  8
1
  6
CONTINUOUS
 62
     7
100
AcDbText
 10
185.3922
 20
370.8161
 30
0.0
 40
3.0
  1
SAW
  7
MONOTXT
 72
     4
 11
189.7268
 21
372.3161
 31
0.0
210
0.0
220
0.0
230
1.0
100
AcDbText
  0
TEXT
  5
38E
100
AcDbEntity
  8
1
  6
CONTINUOUS
 62
     7
100
AcDbText
 10
181.5654
 20
365.4161
 30
0.0
 40
3.0
  1
BLADES
  7
MONOTXT
 72
     4
 11
189.7268
 21
366.9161
 31
0.0
210
0.0
220
0.0
230
1.0
100
AcDbText
  0
TEXT
  5
38F
100
AcDbEntity
  8
1
  6
CONTINUOUS
 62
     7
100
AcDbText
 10
176.5694
 20
322.1304
 30
0.0
 40
3.0
  1
457mm DIA.
  7
MONOTXT
 72
     4
 11
190.7544
 21
323.6304
 31
0.0
210
0.0
220
0.0
230
1.0
100
AcDbText
  0
TEXT
  5
390
100
AcDbEntity
  8
1
  6
CONTINUOUS
 62
     7
100
AcDbText
 10
186.4198
 20
316.7304
 30
0.0
 40
3.0
  1
SAW
  7
MONOTXT
 72
     4
 11
190.7544
 21
318.2304
 31
0.0
210
0.0
220
0.0
230
1.0
100
AcDbText
  0
TEXT
  5
391
100
AcDbEntity
  8
1
  6
CONTINUOUS
 62
     7
100
AcDbText
 10
182.593
 20
311.3304
 30
0.0
 40
3.0
  1
BLADES
  7
MONOTXT
 72
     4
 11
190.7544
 21
312.8304
 31
0.0
210
0.0
220
0.0
230
1.0
100
AcDbText
  0
TEXT
  5
392
100
AcDbEntity
  8
1
  6
CONTINUOUS
 62
     7
100
AcDbText
 10
184.5506
 20
257.0209
 30
0.0
 40
4.8
  1
+
  7
MONOTXT
 72
     4
 11
185.6278
 21
259.4209
 31
0.0
210
0.0
220
0.0
230
1.0
100
AcDbText
  0
TEXT
  5
393
100
AcDbEntity
  8
1
  6
CONTINUOUS
 62
     7
100
AcDbText
 10
162.9202
 20
258.1357
 30
0.0
 40
3.0
  1
18.03mm
  7
MONOTXT
 11
162.9202
 21
261.1357
 31
0.0
210
0.0
220
0.0
230
1.0
100
AcDbText
 73
     3
  0
TEXT
  5
394
100
AcDbEntity
  8
1
  6
CONTINUOUS
 62
     7
100
AcDbText
 10
162.9202
 20
252.1357
 30
0.0
 40
3.0
  1
1.5mm - 0.0mm
  7
MONOTXT
 11
162.9202
 21
255.1357
 31
0.0
210
0.0
220
0.0
230
1.0
100
AcDbText
 73
     3
  0
TEXT
  5
395
100
AcDbEntity
  8
1
  6
CONTINUOUS
 62
     7
100
AcDbText
 10
163.0977
 20
241.9742
 30
0.0
 40
3.0
  1
43.43mm
  7
MONOTXT
 11
163.0977
 21
244.9742
 31
0.0
210
0.0
220
0.0
230
1.0
100
AcDbText
 73
     3
  0
TEXT
  5
396
100
AcDbEntity
  8
1
  6
CONTINUOUS
 62
     7
100
AcDbText
 10
163.0977
 20
235.9742
 30
0.0
 40
3.0
  1
1.5mm - 0.0mm
  7
MONOTXT
 11
163.0977
 21
238.9742
 31
0.0
210
0.0
220
0.0
230
1.0
100
AcDbText
 73
     3
  0
TEXT
  5
397
100
AcDbEntity
  8
1
  6
CONTINUOUS
 62
     7
100
AcDbText
 10
185.971
 20
240.8594
 30
0.0
 40
4.8
  1
+
  7
MONOTXT
 72
     4
 11
187.0482
 21
243.2594
 31
0.0
210
0.0
220
0.0
230
1.0
100
AcDbText
  0
TEXT
  5
398
100
AcDbEntity
  8
1
  6
CONTINUOUS
 62
     7
100
AcDbText
 10
41.1168
 20
212.6704
 30
0.0
 40
3.0
  1
128.0mm
  7
MONOTXT
 11
41.1168
 21
215.6704
 31
0.0
210
0.0
220
0.0
230
1.0
100
AcDbText
 73
     3
  0
TEXT
  5
399
100
AcDbEntity
  8
1
  6
CONTINUOUS
 62
     7
100
AcDbText
 10
41.1168
 20
206.6704
 30
0.0
 40
3.0
  1
1.5mm - 0.0mm
  7
MONOTXT
 11
41.1168
 21
209.6704
 31
0.0
210
0.0
220
0.0
230
1.0
100
AcDbText
 73
     3
  0
TEXT
  5
39A
100
AcDbEntity
  8
1
  6
CONTINUOUS
 62
     7
100
AcDbText
 10
62.7472
 20
211.5556
 30
0.0
 40
4.8
  1
+
  7
MONOTXT
 72
     4
 11
63.8244
 21
213.9556
 31
0.0
210
0.0
220
0.0
230
1.0
100
AcDbText
  0
TEXT
  5
39B
100
AcDbEntity
  8
1
  6
CONTINUOUS
 62
     7
100
AcDbText
 10
43.2474
 20
197.3969
 30
0.0
 40
3.0
  1
20.32mm
  7
MONOTXT
 11
43.2474
 21
200.3969
 31
0.0
210
0.0
220
0.0
230
1.0
100
AcDbText
 73
     3
  0
TEXT
  5
39C
100
AcDbEntity
  8
1
  6
CONTINUOUS
 62
     7
100
AcDbText
 10
43.2474
 20
191.3969
 30
0.0
 40
3.0
  1
1.5mm - 0.0mm
  7
MONOTXT
 11
43.2474
 21
194.3969
 31
0.0
210
0.0
220
0.0
230
1.0
100
AcDbText
 73
     3
  0
TEXT
  5
39D
100
AcDbEntity
  8
1
  6
CONTINUOUS
 62
     7
100
AcDbText
 10
65.588
 20
196.1045
 30
0.0
 40
4.8
  1
+
  7
MONOTXT
 72
     4
 11
66.6652
 21
198.5045
 31
0.0
210
0.0
220
0.0
230
1.0
100
AcDbText
  0
TEXT
  5
39E
100
AcDbEntity
  8
1
  6
CONTINUOUS
 62
     7
100
AcDbText
 10
35.1146
 20
122.6887
 30
0.0
 40
3.0
  1
(WEIGHT APPROX. 2.5kg)
  7
MONOTXT
 72
     4
 11
63.1658
 21
124.1887
 31
0.0
210
0.0
220
0.0
230
1.0
100
AcDbText
  0
TEXT
  5
39F
100
AcDbEntity
  8
1
  6
CONTINUOUS
 62
     7
100
AcDbText
 10
-45.3949
 20
266.917
 30
0.0
 40
3.0
  1
CRYSTAL, YELLOW, WHITE AND/OR RED ACRYLIC
  7
MONOTXT
 11
-45.3949
 21
269.917
 31
0.0
210
0.0
220
0.0
230
1.0
100
AcDbText
 73
     3
  0
TEXT
  5
3A0
100
AcDbEntity
  8
1
  6
CONTINUOUS
 62
     7
100
AcDbText
 10
-45.3949
 20
261.517
 30
0.0
 40
3.0
  1
PRISMATIC REFLECTORS AS SPECIFIED (WHITE
  7
MONOTXT
 11
-45.3949
 21
264.517
 31
0.0
210
0.0
220
0.0
230
1.0
100
AcDbText
 73
     3
  0
TEXT
  5
3A1
100
AcDbEntity
  8
1
  6
CONTINUOUS
 62
     7
100
AcDbText
 10
-45.3949
 20
256.117
 30
0.0
 40
3.0
  1
UNLESS OTHERWISE NOTED) (REFLECTIVE AREA
  7
MONOTXT
 11
-45.3949
 21
259.117
 31
0.0
210
0.0
220
0.0
230
1.0
100
AcDbText
 73
     3
  0
TEXT
  5
3A2
100
AcDbEntity
  8
1
  6
CONTINUOUS
 62
     7
100
AcDbText
 10
-45.3949
 20
250.717
 30
0.0
 40
3.0
  1
APPROX. 0.93mm PER REFLECTIVE FACE) WITH
  7
MONOTXT
 11
-45.3949
 21
253.717
 31
0.0
210
0.0
220
0.0
230
1.0
100
AcDbText
 73
     3
  0
TEXT
  5
3A3
100
AcDbEntity
  8
1
  6
CONTINUOUS
 62
     7
100
AcDbText
 10
-45.3949
 20
245.317
 30
0.0
 40
3.0
  1
OVERALL DIMENSIONS OF 100mmX42mmX12mm
  7
MONOTXT
 11
-45.3949
 21
248.317
 31
0.0
210
0.0
220
0.0
230
1.0
100
AcDbText
 73
     3
  0
TEXT
  5
3A4
100
AcDbEntity
  8
1
  6
CONTINUOUS
 62
     7
100
AcDbText
 10
-45.3949
 20
239.917
 30
0.0
 40
3.0
  1
(NOMINAL)
  7
MONOTXT
 11
-45.3949
 21
242.917
 31
0.0
210
0.0
220
0.0
230
1.0
100
AcDbText
 73
     3
  0
TEXT
  5
3A5
100
AcDbEntity
  8
1
  6
CONTINUOUS
 62
     7
100
AcDbText
 10
-6.4326
 20
252.823
 30
0.0
 40
1.5
  1
2
  7
MONOTXT
 72
     4
 11
-5.9306
 21
253.573
 31
0.0
210
0.0
220
0.0
230
1.0
100
AcDbText
  0
TEXT
  5
3A6
100
AcDbEntity
  8
1
  6
CONTINUOUS
 62
     7
100
AcDbText
 10
46.9939
 20
64.8047
 30
0.0
 40
3.0
  1
101.6mm
  7
MONOTXT
 72
     4
 11
55.8994
 21
66.3047
 31
0.0
210
0.0
220
0.0
230
1.0
100
AcDbText
  0
TEXT
  5
3A7
100
AcDbEntity
  8
1
  6
CONTINUOUS
 62
     7
100
AcDbText
 10
22.882
 20
24.2836
 30
0.0
 40
3.0
  1
101.6mm
 50
90.0
  7
MONOTXT
 72
     4
 11
21.382
 21
33.1891
 31
0.0
210
0.0
220
0.0
230
1.0
100
AcDbText
  0
TEXT
  5
3A8
100
AcDbEntity
  8
1
  6
CONTINUOUS
 62
     7
100
AcDbText
 10
108.9322
 20
63.5877
 30
0.0
 40
3.0
  1
BIDIRECTIONAL OR MONODIRECTIONAL
  7
MONOTXT
 11
108.9322
 21
66.5877
 31
0.0
210
0.0
220
0.0
230
1.0
100
AcDbText
 73
     3
  0
TEXT
  5
3A9
100
AcDbEntity
  8
1
  6
CONTINUOUS
 62
     7
100
AcDbText
 10
108.9322
 20
58.1877
 30
0.0
 40
3.0
  1
CRYSTAL, YELLOW AND/OR RED
  7
MONOTXT
 11
108.9322
 21
61.1877
 31
0.0
210
0.0
220
0.0
230
1.0
100
AcDbText
 73
     3
  0
TEXT
  5
3AA
100
AcDbEntity
  8
1
  6
CONTINUOUS
 62
     7
100
AcDbText
 10
108.9322
 20
52.7877
 30
0.0
 40
3.0
  1
REFLECTORS AS SPECIFIED.
  7
MONOTXT
 11
108.9322
 21
55.7877
 31
0.0
210
0.0
220
0.0
230
1.0
100
AcDbText
 73
     3
  0
TEXT
  5
3AB
100
AcDbEntity
  8
1
  6
CONTINUOUS
 62
     7
100
AcDbText
 10
108.9322
 20
47.3877
 30
0.0
 40
3.0
  1
(REFLECTIVE AREA APPROX. 2100mm
  7
MONOTXT
 11
108.9322
 21
50.3877
 31
0.0
210
0.0
220
0.0
230
1.0
100
AcDbText
 73
     3
  0
TEXT
  5
3AC
100
AcDbEntity
  8
1
  6
CONTINUOUS
 62
     7
100
AcDbText
 10
108.9322
 20
41.9877
 30
0.0
 40
3.0
  1
PER REFLECTIVE FACE)
  7
MONOTXT
 11
108.9322
 21
44.9877
 31
0.0
210
0.0
220
0.0
230
1.0
100
AcDbText
 73
     3
  0
TEXT
  5
3AD
100
AcDbEntity
  8
1
  6
CONTINUOUS
 62
     7
100
AcDbText
 10
194.7384
 20
49.117
 30
0.0
 40
1.5
  1
2
  7
MONOTXT
 72
     4
 11
195.2404
 21
49.867
 31
0.0
210
0.0
220
0.0
230
1.0
100
AcDbText
  0
TEXT
  5
3AE
100
AcDbEntity
  8
1
  6
CONTINUOUS
 62
     7
100
AcDbText
 10
218.2334
 20
3.3206
 30
0.0
 40
3.0
  1
APPROX. 19mm
  7
MONOTXT
 72
     4
 11
234.5562
 21
4.8206
 31
0.0
210
0.0
220
0.0
230
1.0
100
AcDbText
  0
TEXT
  5
3AF
100
AcDbEntity
  8
1
  6
CONTINUOUS
 62
     7
100
AcDbText
 10
263.7647
 20
-12.0608
 30
0.0
 40
3.0
  1
101.6mm
  7
MONOTXT
 72
     4
 11
272.6702
 21
-10.5608
 31
0.0
210
0.0
220
0.0
230
1.0
100
AcDbText
  0
TEXT
  5
3B0
100
AcDbEntity
  8
1
  6
CONTINUOUS
 62
     7
100
AcDbText
 10
391.167
 20
-7.1935
 30
0.0
 40
3.0
  1
152.4mm (C-6)
  7
MONOTXT
 11
391.167
 21
-4.1935
 31
0.0
210
0.0
220
0.0
230
1.0
100
AcDbText
 73
     3
  0
TEXT
  5
3B1
100
AcDbEntity
  8
1
  6
CONTINUOUS
 62
     7
100
AcDbText
 10
391.167
 20
-12.5935
 30
0.0
 40
3.0
  1
203.2mm (C-8)
  7
MONOTXT
 11
391.167
 21
-9.5935
 31
0.0
210
0.0
220
0.0
230
1.0
100
AcDbText
 73
     3
  0
TEXT
  5
3B2
100
AcDbEntity
  8
1
  6
CONTINUOUS
 62
     7
100
AcDbText
 10
254.1485
 20
412.6563
 30
0.0
 40
3.0
  1
1.   LOCATION OF MARKERS ARE SHOWN ON THE PLANS.
  7
MONOTXT
 11
254.1485
 21
415.6563
 31
0.0
210
0.0
220
0.0
230
1.0
100
AcDbText
 73
     3
  0
TEXT
  5
3B3
100
AcDbEntity
  8
1
  6
CONTINUOUS
 62
     7
100
AcDbText
 10
254.1485
 20
407.2563
 30
0.0
 40
3.0
  1
 
  7
MONOTXT
 11
254.1485
 21
410.2563
 31
0.0
210
0.0
220
0.0
230
1.0
100
AcDbText
 73
     3
  0
TEXT
  5
3B4
100
AcDbEntity
  8
1
  6
CONTINUOUS
 62
     7
100
AcDbText
 10
254.1485
 20
401.8563
 30
0.0
 40
3.0
  1
2.   TYPES "R" & "C" MARKERS ARE NOT TO BE APPLIED OVER PAINT STRIPING.
  7
MONOTXT
 11
254.1485
 21
404.8563
 31
0.0
210
0.0
220
0.0
230
1.0
100
AcDbText
 73
     3
  0
TEXT
  5
3B5
100
AcDbEntity
  8
1
  6
CONTINUOUS
 62
     7
100
AcDbText
 10
254.1485
 20
396.4563
 30
0.0
 40
3.0
  1
 
  7
MONOTXT
 11
254.1485
 21
399.4563
 31
0.0
210
0.0
220
0.0
230
1.0
100
AcDbText
 73
     3
  0
TEXT
  5
3B6
100
AcDbEntity
  8
1
  6
CONTINUOUS
 62
     7
100
AcDbText
 10
254.1485
 20
391.0563
 30
0.0
 40
3.0
  1
3.   TYPE "P" MARKER INSTALLATION:
  7
MONOTXT
 11
254.1485
 21
394.0563
 31
0.0
210
0.0
220
0.0
230
1.0
100
AcDbText
 73
     3
  0
TEXT
  5
3B7
100
AcDbEntity
  8
1
  6
CONTINUOUS
 62
     7
100
AcDbText
 10
254.1485
 20
385.6563
 30
0.0
 40
3.0
  1
 
  7
MONOTXT
 11
254.1485
 21
388.6563
 31
0.0
210
0.0
220
0.0
230
1.0
100
AcDbText
 73
     3
  0
TEXT
  5
3B8
100
AcDbEntity
  8
1
  6
CONTINUOUS
 62
     7
100
AcDbText
 10
254.1485
 20
380.2563
 30
0.0
 40
3.0
  1
   (A)   THE PAVEMENT SHALL BE SAW CUT TO THE DIMENSIONS SHOWN IN
  7
MONOTXT
 11
254.1485
 21
383.2563
 31
0.0
210
0.0
220
0.0
230
1.0
100
AcDbText
 73
     3
  0
TEXT
  5
3B9
100
AcDbEntity
  8
1
  6
CONTINUOUS
 62
     7
100
AcDbText
 10
254.1485
 20
374.8563
 30
0.0
 40
3.0
  1
       OUTLINE AT LEFT.
  7
MONOTXT
 11
254.1485
 21
377.8563
 31
0.0
210
0.0
220
0.0
230
1.0
100
AcDbText
 73
     3
  0
TEXT
  5
3BA
100
AcDbEntity
  8
1
  6
CONTINUOUS
 62
     7
100
AcDbText
 10
254.1485
 20
369.4563
 30
0.0
 40
3.0
  1
 
  7
MONOTXT
 11
254.1485
 21
372.4563
 31
0.0
210
0.0
220
0.0
230
1.0
100
AcDbText
 73
     3
  0
TEXT
  5
3BB
100
AcDbEntity
  8
1
  6
CONTINUOUS
 62
     7
100
AcDbText
 10
254.1485
 20
364.0563
 30
0.0
 40
3.0
  1
   (B)   A 48.5kw CONCRETE SAW IS RECOMMENDED FOR MAKING THE
  7
MONOTXT
 11
254.1485
 21
367.0563
 31
0.0
210
0.0
220
0.0
230
1.0
100
AcDbText
 73
     3
  0
TEXT
  5
3BC
100
AcDbEntity
  8
1
  6
CONTINUOUS
 62
     7
100
AcDbText
 10
254.1485
 20
358.6563
 30
0.0
 40
3.0
  1
       REQUIRED SAW CUT.
  7
MONOTXT
 11
254.1485
 21
361.6563
 31
0.0
210
0.0
220
0.0
230
1.0
100
AcDbText
 73
     3
  0
TEXT
  5
3BD
100
AcDbEntity
  8
1
  6
CONTINUOUS
 62
     7
100
AcDbText
 10
254.1485
 20
353.2563
 30
0.0
 40
3.0
  1
 
  7
MONOTXT
 11
254.1485
 21
356.2563
 31
0.0
210
0.0
220
0.0
230
1.0
100
AcDbText
 73
     3
  0
TEXT
  5
3BE
100
AcDbEntity
  8
1
  6
CONTINUOUS
 62
     7
100
AcDbText
 10
254.1485
 20
347.8563
 30
0.0
 40
3.0
  1
   (C)   THE CONCRETE SAW SHALL BE FITTED WITH A GANG OF 457mm
  7
MONOTXT
 11
254.1485
 21
350.8563
 31
0.0
210
0.0
220
0.0
230
1.0
100
AcDbText
 73
     3
  0
TEXT
  5
3BF
100
AcDbEntity
  8
1
  6
CONTINUOUS
 62
     7
100
AcDbText
 10
254.1485
 20
342.4563
 30
0.0
 40
3.0
  1
       DIAMETER CONCRETE SAW BLADES, BORDERED BY 508mm DIAMETER
  7
MONOTXT
 11
254.1485
 21
345.4563
 31
0.0
210
0.0
220
0.0
230
1.0
100
AcDbText
 73
     3
  0
TEXT
  5
3C0
100
AcDbEntity
  8
1
  6
CONTINUOUS
 62
     7
100
AcDbText
 10
254.1485
 20
337.0563
 30
0.0
 40
3.0
  1
       BLADES AT EACH END.
  7
MONOTXT
 11
254.1485
 21
340.0563
 31
0.0
210
0.0
220
0.0
230
1.0
100
AcDbText
 73
     3
  0
TEXT
  5
3C1
100
AcDbEntity
  8
1
  6
CONTINUOUS
 62
     7
100
AcDbText
 10
254.1485
 20
331.6563
 30
0.0
 40
3.0
  1
 
  7
MONOTXT
 11
254.1485
 21
334.6563
 31
0.0
210
0.0
220
0.0
230
1.0
100
AcDbText
 73
     3
  0
TEXT
  5
3C2
100
AcDbEntity
  8
1
  6
CONTINUOUS
 62
     7
100
AcDbText
 10
254.1485
 20
326.2563
 30
0.0
 40
3.0
  1
   (D)   EACH CUT SHOULD BE INSPECTED FOR PROPER FIT OF THE MARKER.
  7
MONOTXT
 11
254.1485
 21
329.2563
 31
0.0
210
0.0
220
0.0
230
1.0
100
AcDbText
 73
     3
  0
TEXT
  5
3C3
100
AcDbEntity
  8
1
  6
CONTINUOUS
 62
     7
100
AcDbText
 10
254.1485
 20
320.8563
 30
0.0
 40
3.0
  1
 
  7
MONOTXT
 11
254.1485
 21
323.8563
 31
0.0
210
0.0
220
0.0
230
1.0
100
AcDbText
 73
     3
  0
TEXT
  5
3C4
100
AcDbEntity
  8
1
  6
CONTINUOUS
 62
     7
100
AcDbText
 10
254.1485
 20
315.4563
 30
0.0
 40
3.0
  1
       - THE CASTING SHOULD HAVE APPROXIMATELY 3.2mm CLEARANCE (SIDE TO
  7
MONOTXT
 11
254.1485
 21
318.4563
 31
0.0
210
0.0
220
0.0
230
1.0
100
AcDbText
 73
     3
  0
TEXT
  5
3C5
100
AcDbEntity
  8
1
  6
CONTINUOUS
 62
     7
100
AcDbText
 10
254.1485
 20
310.0563
 30
0.0
 40
3.0
  1
         SIDE MOVEMENT) WHEN INSERTED INTO THE CUT.
  7
MONOTXT
 11
254.1485
 21
313.0563
 31
0.0
210
0.0
220
0.0
230
1.0
100
AcDbText
 73
     3
  0
TEXT
  5
3C6
100
AcDbEntity
  8
1
  6
CONTINUOUS
 62
     7
100
AcDbText
 10
254.1485
 20
304.6563
 30
0.0
 40
3.0
  1
 
  7
MONOTXT
 11
254.1485
 21
307.6563
 31
0.0
210
0.0
220
0.0
230
1.0
100
AcDbText
 73
     3
  0
TEXT
  5
3C7
100
AcDbEntity
  8
1
  6
CONTINUOUS
 62
     7
100
AcDbText
 10
254.1485
 20
299.2563
 30
0.0
 40
3.0
  1
       - ALL FOUR LEVELING LUGS MUST CONTACT THE PAVEMENT.
  7
MONOTXT
 11
254.1485
 21
302.2563
 31
0.0
210
0.0
220
0.0
230
1.0
100
AcDbText
 73
     3
  0
TEXT
  5
3C8
100
AcDbEntity
  8
1
  6
CONTINUOUS
 62
     7
100
AcDbText
 10
254.1485
 20
293.8563
 30
0.0
 40
3.0
  1
 
  7
MONOTXT
 11
254.1485
 21
296.8563
 31
0.0
210
0.0
220
0.0
230
1.0
100
AcDbText
 73
     3
  0
TEXT
  5
3C9
100
AcDbEntity
  8
1
  6
CONTINUOUS
 62
     7
100
AcDbText
 10
254.1485
 20
288.4563
 30
0.0
 40
3.0
  1
       - THE LEADING EDGES OF THE CASTING MUST LIE BELOW THE PAVEMENT
  7
MONOTXT
 11
254.1485
 21
291.4563
 31
0.0
210
0.0
220
0.0
230
1.0
100
AcDbText
 73
     3
  0
TEXT
  5
3CA
100
AcDbEntity
  8
1
  6
CONTINUOUS
 62
     7
100
AcDbText
 10
254.1485
 20
283.0563
 30
0.0
 40
3.0
  1
         SURFACE.
  7
MONOTXT
 11
254.1485
 21
286.0563
 31
0.0
210
0.0
220
0.0
230
1.0
100
AcDbText
 73
     3
  0
TEXT
  5
3CB
100
AcDbEntity
  8
1
  6
CONTINUOUS
 62
     7
100
AcDbText
 10
254.1485
 20
277.6563
 30
0.0
 40
3.0
  1
 
  7
MONOTXT
 11
254.1485
 21
280.6563
 31
0.0
210
0.0
220
0.0
230
1.0
100
AcDbText
 73
     3
  0
TEXT
  5
3CC
100
AcDbEntity
  8
1
  6
CONTINUOUS
 62
     7
100
AcDbText
 10
254.1485
 20
272.2563
 30
0.0
 40
3.0
  1
   (E)   THE SAW CUT AREA MUST BE DRY AND FREE OF DUST, DIRT OR ANY MATERIAL
  7
MONOTXT
 11
254.1485
 21
275.2563
 31
0.0
210
0.0
220
0.0
230
1.0
100
AcDbText
 73
     3
  0
TEXT
  5
3CD
100
AcDbEntity
  8
1
  6
CONTINUOUS
 62
     7
100
AcDbText
 10
254.1485
 20
266.8563
 30
0.0
 40
3.0
  1
       WHICH WILL ADVERSELY AFFECT THE BOND OF THE ADHESIVE.
  7
MONOTXT
 11
254.1485
 21
269.8563
 31
0.0
210
0.0
220
0.0
230
1.0
100
AcDbText
 73
     3
  0
TEXT
  5
3CE
100
AcDbEntity
  8
1
  6
CONTINUOUS
 62
     7
100
AcDbText
 10
254.1485
 20
261.4563
 30
0.0
 40
3.0
  1
 
  7
MONOTXT
 11
254.1485
 21
264.4563
 31
0.0
210
0.0
220
0.0
230
1.0
100
AcDbText
 73
     3
  0
TEXT
  5
3CF
100
AcDbEntity
  8
1
  6
CONTINUOUS
 62
     7
100
AcDbText
 10
254.1485
 20
256.0563
 30
0.0
 40
3.0
  1
   (F)  THE SURFACE OF THE KEEL AND WEB SHALL BE FREE OF SCALE, DIRT, RUST,
  7
MONOTXT
 11
254.1485
 21
259.0563
 31
0.0
210
0.0
220
0.0
230
1.0
100
AcDbText
 73
     3
  0
TEXT
  5
3D0
100
AcDbEntity
  8
1
  6
CONTINUOUS
 62
     7
100
AcDbText
 10
254.1485
 20
250.6563
 30
0.0
 40
3.0
  1
       OIL, GREASE OR ANY OTHER CONTAMINANT WHICH MIGHT REDUCE ITS BOND
  7
MONOTXT
 11
254.1485
 21
253.6563
 31
0.0
210
0.0
220
0.0
230
1.0
100
AcDbText
 73
     3
  0
TEXT
  5
3D1
100
AcDbEntity
  8
1
  6
CONTINUOUS
 62
     7
100
AcDbText
 10
254.1485
 20
245.2563
 30
0.0
 40
3.0
  1
       TO THE EPOXY ADHESIVE.
  7
MONOTXT
 11
254.1485
 21
248.2563
 31
0.0
210
0.0
220
0.0
230
1.0
100
AcDbText
 73
     3
  0
TEXT
  5
3D2
100
AcDbEntity
  8
1
  6
CONTINUOUS
 62
     7
100
AcDbText
 10
254.1485
 20
239.8563
 30
0.0
 40
3.0
  1
 
  7
MONOTXT
 11
254.1485
 21
242.8563
 31
0.0
210
0.0
220
0.0
230
1.0
100
AcDbText
 73
     3
  0
TEXT
  5
3D3
100
AcDbEntity
  8
1
  6
CONTINUOUS
 62
     7
100
AcDbText
 10
254.1485
 20
234.4563
 30
0.0
 40
3.0
  1
   (G)   INSTALL THE MARKER WITH A MANUFACTURER'S APPROVED TWO COMPONENT
  7
MONOTXT
 11
254.1485
 21
237.4563
 31
0.0
210
0.0
220
0.0
230
1.0
100
AcDbText
 73
     3
  0
TEXT
  5
3D4
100
AcDbEntity
  8
1
  6
CONTINUOUS
 62
     7
100
AcDbText
 10
254.1485
 20
229.0563
 30
0.0
 40
3.0
  1
       EPOXY ADHESIVE, BY FIRST FILLING THE SAW CUT TO WITHIN APPROXIMATELY
  7
MONOTXT
 11
254.1485
 21
232.0563
 31
0.0
210
0.0
220
0.0
230
1.0
100
AcDbText
 73
     3
  0
TEXT
  5
3D5
100
AcDbEntity
  8
1
  6
CONTINUOUS
 62
     7
100
AcDbText
 10
254.1485
 20
223.6563
 30
0.0
 40
3.0
  1
       9.5mm OF PAVEMENT SURFACE AND THEN PLACING THE MARKER BY HAND
  7
MONOTXT
 11
254.1485
 21
226.6563
 31
0.0
210
0.0
220
0.0
230
1.0
100
AcDbText
 73
     3
  0
TEXT
  5
3D6
100
AcDbEntity
  8
1
  6
CONTINUOUS
 62
     7
100
AcDbText
 10
254.1485
 20
218.2563
 30
0.0
 40
3.0
  1
       INTO THE EPOXY FILLED SAW CUT. AFTER PLACEMENT OF MARKER. EPOXY
  7
MONOTXT
 11
254.1485
 21
221.2563
 31
0.0
210
0.0
220
0.0
230
1.0
100
AcDbText
 73
     3
  0
TEXT
  5
3D7
100
AcDbEntity
  8
1
  6
CONTINUOUS
 62
     7
100
AcDbText
 10
254.1485
 20
212.8563
 30
0.0
 40
3.0
  1
       SHOULD BE FLUSH TO SLIGHTLY BELOW PAVEMENT SURFACE. EPOXY SHOULD
  7
MONOTXT
 11
254.1485
 21
215.8563
 31
0.0
210
0.0
220
0.0
230
1.0
100
AcDbText
 73
     3
  0
TEXT
  5
3D8
100
AcDbEntity
  8
1
  6
CONTINUOUS
 62
     7
100
AcDbText
 10
254.1485
 20
207.4563
 30
0.0
 40
3.0
  1
       NOT BE ALLOWED TO BUILD UP IN FRONT OF MARKER LENS.
  7
MONOTXT
 11
254.1485
 21
210.4563
 31
0.0
210
0.0
220
0.0
230
1.0
100
AcDbText
 73
     3
  0
TEXT
  5
3D9
100
AcDbEntity
  8
1
  6
CONTINUOUS
 62
     7
100
AcDbText
 10
254.1485
 20
202.0563
 30
0.0
 40
3.0
  1
 
  7
MONOTXT
 11
254.1485
 21
205.0563
 31
0.0
210
0.0
220
0.0
230
1.0
100
AcDbText
 73
     3
  0
TEXT
  5
3DA
100
AcDbEntity
  8
1
  6
CONTINUOUS
 62
     7
100
AcDbText
 10
254.1485
 20
196.6563
 30
0.0
 40
3.0
  1
   (H)   MARKER IS TO BE SET IN SAW CUT IMMEDIATELY AFTER APPLICATION OF ADHESIVE
  7
MONOTXT
 11
254.1485
 21
199.6563
 31
0.0
210
0.0
220
0.0
230
1.0
100
AcDbText
 73
     3
  0
TEXT
  5
3DB
100
AcDbEntity
  8
1
  6
CONTINUOUS
 62
     7
100
AcDbText
 10
254.1485
 20
191.2563
 30
0.0
 40
3.0
  1
       AND MUST BE PROTECTED FROM TRAFFIC A MINIMUM OF 30 MINUTES OR UNTIL
  7
MONOTXT
 11
254.1485
 21
194.2563
 31
0.0
210
0.0
220
0.0
230
1.0
100
AcDbText
 73
     3
  0
TEXT
  5
3DC
100
AcDbEntity
  8
1
  6
CONTINUOUS
 62
     7
100
AcDbText
 10
254.1485
 20
185.8563
 30
0.0
 40
3.0
  1
       ADHESIVE HAS PROPERLY HARDENED.
  7
MONOTXT
 11
254.1485
 21
188.8563
 31
0.0
210
0.0
220
0.0
230
1.0
100
AcDbText
 73
     3
  0
TEXT
  5
3DD
100
AcDbEntity
  8
1
  6
CONTINUOUS
 62
     7
100
AcDbText
 10
481.3467
 20
412.4906
 30
0.0
 40
3.0
  1
4.   TYPE "R-4" MARKER INSTALLATION:
  7
MONOTXT
 11
481.3467
 21
415.4906
 31
0.0
210
0.0
220
0.0
230
1.0
100
AcDbText
 73
     3
  0
TEXT
  5
3DE
100
AcDbEntity
  8
1
  6
CONTINUOUS
 62
     7
100
AcDbText
 10
481.3467
 20
407.0906
 30
0.0
 40
3.0
  1
 
  7
MONOTXT
 11
481.3467
 21
410.0906
 31
0.0
210
0.0
220
0.0
230
1.0
100
AcDbText
 73
     3
  0
TEXT
  5
3DF
100
AcDbEntity
  8
1
  6
CONTINUOUS
 62
     7
100
AcDbText
 10
481.3467
 20
401.6906
 30
0.0
 40
3.0
  1
   (A)   AREA OF APPLICATION MUST BE FREE OF OIL, GREASE, DIRT, CURING COMPOUND,
  7
MONOTXT
 11
481.3467
 21
404.6906
 31
0.0
210
0.0
220
0.0
230
1.0
100
AcDbText
 73
     3
  0
TEXT
  5
3E0
100
AcDbEntity
  8
1
  6
CONTINUOUS
 62
     7
100
AcDbText
 10
481.3467
 20
396.2906
 30
0.0
 40
3.0
  1
       LOOSE PARTICLES OR ANY OTHER MATERIAL WHICH WILL ADVERSELY AFFECT THE
  7
MONOTXT
 11
481.3467
 21
399.2906
 31
0.0
210
0.0
220
0.0
230
1.0
100
AcDbText
 73
     3
  0
TEXT
  5
3E1
100
AcDbEntity
  8
1
  6
CONTINUOUS
 62
     7
100
AcDbText
 10
481.3467
 20
390.8906
 30
0.0
 40
3.0
  1
       BOND OF THE ADHESIVE. THE PREFERRED METHOD OF SURFACE PREPARATION IS BY
  7
MONOTXT
 11
481.3467
 21
393.8906
 31
0.0
210
0.0
220
0.0
230
1.0
100
AcDbText
 73
     3
  0
TEXT
  5
3E2
100
AcDbEntity
  8
1
  6
CONTINUOUS
 62
     7
100
AcDbText
 10
481.3467
 20
385.4906
 30
0.0
 40
3.0
  1
       SAND BLASTING OR GRINDING THE ROAD SURFACE.
  7
MONOTXT
 11
481.3467
 21
388.4906
 31
0.0
210
0.0
220
0.0
230
1.0
100
AcDbText
 73
     3
  0
TEXT
  5
3E3
100
AcDbEntity
  8
1
  6
CONTINUOUS
 62
     7
100
AcDbText
 10
481.3467
 20
380.0906
 30
0.0
 40
3.0
  1
 
  7
MONOTXT
 11
481.3467
 21
383.0906
 31
0.0
210
0.0
220
0.0
230
1.0
100
AcDbText
 73
     3
  0
TEXT
  5
3E4
100
AcDbEntity
  8
1
  6
CONTINUOUS
 62
     7
100
AcDbText
 10
481.3467
 20
374.6906
 30
0.0
 40
3.0
  1
   (B)   APPLY TO CLEANED PAVEMENT A QUANTITY OF EPOXY ADHESIVE SUFFICIENT TO
  7
MONOTXT
 11
481.3467
 21
377.6906
 31
0.0
210
0.0
220
0.0
230
1.0
100
AcDbText
 73
     3
  0
TEXT
  5
3E5
100
AcDbEntity
  8
1
  6
CONTINUOUS
 62
     7
100
AcDbText
 10
481.3467
 20
369.2906
 30
0.0
 40
3.0
  1
       COMPLETELY COVER BASE OF MARKER, AND FILL ANY IRREGULARITIES IN THE
  7
MONOTXT
 11
481.3467
 21
372.2906
 31
0.0
210
0.0
220
0.0
230
1.0
100
AcDbText
 73
     3
  0
TEXT
  5
3E6
100
AcDbEntity
  8
1
  6
CONTINUOUS
 62
     7
100
AcDbText
 10
481.3467
 20
363.8906
 30
0.0
 40
3.0
  1
       PAVEMENT. GENERALLY, A PAD BETWEEN 1.6mm AND 3.2mm THICK IS SUFFICIENT.
  7
MONOTXT
 11
481.3467
 21
366.8906
 31
0.0
210
0.0
220
0.0
230
1.0
100
AcDbText
 73
     3
  0
TEXT
  5
3E7
100
AcDbEntity
  8
1
  6
CONTINUOUS
 62
     7
100
AcDbText
 10
481.3467
 20
358.4906
 30
0.0
 40
3.0
  1
       AFTER PLACING THE MARKER ON THE ADHESIVE, ALL VOIDS IN THE ADHESIVE SHOULD
  7
MONOTXT
 11
481.3467
 21
361.4906
 31
0.0
210
0.0
220
0.0
230
1.0
100
AcDbText
 73
     3
  0
TEXT
  5
3E8
100
AcDbEntity
  8
1
  6
CONTINUOUS
 62
     7
100
AcDbText
 10
481.3467
 20
353.0906
 30
0.0
 40
3.0
  1
       BE ELIMINATED BY APPLYING PRESSURE ON THE MARKER UNTIL IT IS IN FIRM CONTACT
  7
MONOTXT
 11
481.3467
 21
356.0906
 31
0.0
210
0.0
220
0.0
230
1.0
100
AcDbText
 73
     3
  0
TEXT
  5
3E9
100
AcDbEntity
  8
1
  6
CONTINUOUS
 62
     7
100
AcDbText
 10
481.3467
 20
347.6906
 30
0.0
 40
3.0
  1
       WITH THE PAVEMENT. ADHESIVE AS RECOMMENDED BY MARKER MANUFACTURER SHALL
  7
MONOTXT
 11
481.3467
 21
350.6906
 31
0.0
210
0.0
220
0.0
230
1.0
100
AcDbText
 73
     3
  0
TEXT
  5
3EA
100
AcDbEntity
  8
1
  6
CONTINUOUS
 62
     7
100
AcDbText
 10
481.3467
 20
342.2906
 30
0.0
 40
3.0
  1
       BE USED. THE MARKER MUST BE PROTECTED FROM TRAFFIC UNTIL THE ADHESIVE
  7
MONOTXT
 11
481.3467
 21
345.2906
 31
0.0
210
0.0
220
0.0
230
1.0
100
AcDbText
 73
     3
  0
TEXT
  5
3EB
100
AcDbEntity
  8
1
  6
CONTINUOUS
 62
     7
100
AcDbText
 10
481.3467
 20
336.8906
 30
0.0
 40
3.0
  1
       HAS PROPERLY HARDENED.
  7
MONOTXT
 11
481.3467
 21
339.8906
 31
0.0
210
0.0
220
0.0
230
1.0
100
AcDbText
 73
     3
  0
TEXT
  5
3EC
100
AcDbEntity
  8
1
  6
CONTINUOUS
 62
     7
100
AcDbText
 10
481.3467
 20
331.4906
 30
0.0
 40
3.0
  1
 
  7
MONOTXT
 11
481.3467
 21
334.4906
 31
0.0
210
0.0
220
0.0
230
1.0
100
AcDbText
 73
     3
  0
TEXT
  5
3ED
100
AcDbEntity
  8
1
  6
CONTINUOUS
 62
     7
100
AcDbText
 10
481.3467
 20
326.0906
 30
0.0
 40
3.0
  1
5.   TYPES "C-4", "C-6", AND "C-8" MARKER INSTALLATION:
  7
MONOTXT
 11
481.3467
 21
329.0906
 31
0.0
210
0.0
220
0.0
230
1.0
100
AcDbText
 73
     3
  0
TEXT
  5
3EE
100
AcDbEntity
  8
1
  6
CONTINUOUS
 62
     7
100
AcDbText
 10
481.3467
 20
320.6906
 30
0.0
 40
3.0
  1
 
  7
MONOTXT
 11
481.3467
 21
323.6906
 31
0.0
210
0.0
220
0.0
230
1.0
100
AcDbText
 73
     3
  0
TEXT
  5
3EF
100
AcDbEntity
  8
1
  6
CONTINUOUS
 62
     7
100
AcDbText
 10
481.3467
 20
315.2906
 30
0.0
 40
3.0
  1
   (A)   PREPARATION OF AREA OF APPLICATION SAME AS NOTE 4A ABOVE FOR TYPE R-4
  7
MONOTXT
 11
481.3467
 21
318.2906
 31
0.0
210
0.0
220
0.0
230
1.0
100
AcDbText
 73
     3
  0
TEXT
  5
3F0
100
AcDbEntity
  8
1
  6
CONTINUOUS
 62
     7
100
AcDbText
 10
481.3467
 20
309.8906
 30
0.0
 40
3.0
  1
       MARKERS.
  7
MONOTXT
 11
481.3467
 21
312.8906
 31
0.0
210
0.0
220
0.0
230
1.0
100
AcDbText
 73
     3
  0
TEXT
  5
3F1
100
AcDbEntity
  8
1
  6
CONTINUOUS
 62
     7
100
AcDbText
 10
481.3467
 20
304.4906
 30
0.0
 40
3.0
  1
 
  7
MONOTXT
 11
481.3467
 21
307.4906
 31
0.0
210
0.0
220
0.0
230
1.0
100
AcDbText
 73
     3
  0
TEXT
  5
3F2
100
AcDbEntity
  8
1
  6
CONTINUOUS
 62
     7
100
AcDbText
 10
481.3467
 20
299.0906
 30
0.0
 40
3.0
  1
   (B)   APPLICATION OF MARKER TO PAVEMENT SHALL BE BY EPOXY ADHESIVE SAME AS
  7
MONOTXT
 11
481.3467
 21
302.0906
 31
0.0
210
0.0
220
0.0
230
1.0
100
AcDbText
 73
     3
  0
TEXT
  5
3F3
100
AcDbEntity
  8
1
  6
CONTINUOUS
 62
     7
100
AcDbText
 10
481.3467
 20
293.6906
 30
0.0
 40
3.0
  1
       4B ABOVE FOR TYPE R-4 MARKERS, EXCEPT THE EPOXY PAD FOR C-6 AND C-8
  7
MONOTXT
 11
481.3467
 21
296.6906
 31
0.0
210
0.0
220
0.0
230
1.0
100
AcDbText
 73
     3
  0
TEXT
  5
3F4
100
AcDbEntity
  8
1
  6
CONTINUOUS
 62
     7
100
AcDbText
 10
481.3467
 20
288.2906
 30
0.0
 40
3.0
  1
       MARKERS SHALL BE 3.2mm TO 6.4mm THICK.
  7
MONOTXT
 11
481.3467
 21
291.2906
 31
0.0
210
0.0
220
0.0
230
1.0
100
AcDbText
 73
     3
  0
TEXT
  5
3F5
100
AcDbEntity
  8
1
  6
CONTINUOUS
 62
     7
100
AcDbText
 10
481.3467
 20
282.8906
 30
0.0
 40
3.0
  1
 
  7
MONOTXT
 11
481.3467
 21
285.8906
 31
0.0
210
0.0
220
0.0
230
1.0
100
AcDbText
 73
     3
  0
TEXT
  5
3F6
100
AcDbEntity
  8
1
  6
CONTINUOUS
 62
     7
100
AcDbText
 10
481.3467
 20
277.4906
 30
0.0
 40
3.0
  1
   (C)   BUTTERING THE BOTTOMS OF THE MARKERS IS ADEQUATE FOR SMALL JOBS. A
  7
MONOTXT
 11
481.3467
 21
280.4906
 31
0.0
210
0.0
220
0.0
230
1.0
100
AcDbText
 73
     3
  0
TEXT
  5
3F7
100
AcDbEntity
  8
1
  6
CONTINUOUS
 62
     7
100
AcDbText
 10
481.3467
 20
272.0906
 30
0.0
 40
3.0
  1
       TEMPLATE IS RECOMMENDED FOR GREATER EFFICIENCY. APPROXIMATELY  1/16 "
  7
MONOTXT
 11
481.3467
 21
275.0906
 31
0.0
210
0.0
220
0.0
230
1.0
100
AcDbText
 73
     3
  0
TEXT
  5
3F8
100
AcDbEntity
  8
1
  6
CONTINUOUS
 62
     7
100
AcDbText
 10
481.3467
 20
266.6906
 30
0.0
 40
3.0
  1
       (.15 CM) OF ADHESIVE IS REQUIRED TO PROPERLY BOND. THE MARKER IN PLACE
  7
MONOTXT
 11
481.3467
 21
269.6906
 31
0.0
210
0.0
220
0.0
230
1.0
100
AcDbText
 73
     3
  0
TEXT
  5
3F9
100
AcDbEntity
  8
1
  6
CONTINUOUS
 62
     7
100
AcDbText
 10
481.3467
 20
261.2906
 30
0.0
 40
3.0
  1
       FOR C-4's; FOR C-6's AND C-8's USE 3.2m TO 6.4m.
  7
MONOTXT
 11
481.3467
 21
264.2906
 31
0.0
210
0.0
220
0.0
230
1.0
100
AcDbText
 73
     3
  0
TEXT
  5
3FA
100
AcDbEntity
  8
1
  6
CONTINUOUS
 62
     7
100
AcDbText
 10
481.3467
 20
255.8906
 30
0.0
 40
3.0
  1
 
  7
MONOTXT
 11
481.3467
 21
258.8906
 31
0.0
210
0.0
220
0.0
230
1.0
100
AcDbText
 73
     3
  0
TEXT
  5
3FB
100
AcDbEntity
  8
1
  6
CONTINUOUS
 62
     7
100
AcDbText
 10
481.3467
 20
250.4906
 30
0.0
 40
3.0
  1
   (D)   IMMEDIATELY AFTER THE ADHESIVE IS APPLIED, PLACE THE MARKER ONTO THE
  7
MONOTXT
 11
481.3467
 21
253.4906
 31
0.0
210
0.0
220
0.0
230
1.0
100
AcDbText
 73
     3
  0
TEXT
  5
3FC
100
AcDbEntity
  8
1
  6
CONTINUOUS
 62
     7
100
AcDbText
 10
481.3467
 20
245.0906
 30
0.0
 40
3.0
  1
       PATCH OF ADHESIVE. PRESS DOWN GRADUALLY AND CAREFULLY UNTIL A BEAD
  7
MONOTXT
 11
481.3467
 21
248.0906
 31
0.0
210
0.0
220
0.0
230
1.0
100
AcDbText
 73
     3
  0
TEXT
  5
3FD
100
AcDbEntity
  8
1
  6
CONTINUOUS
 62
     7
100
AcDbText
 10
481.3467
 20
239.6906
 30
0.0
 40
3.0
  1
       OF ADHESIVE FORMS ALL AROUND THE OUTSIDE OF THE MARKER.
  7
MONOTXT
 11
481.3467
 21
242.6906
 31
0.0
210
0.0
220
0.0
230
1.0
100
AcDbText
 73
     3
  0
TEXT
  5
3FE
100
AcDbEntity
  8
1
  6
CONTINUOUS
 62
     7
100
AcDbText
 10
481.3467
 20
234.2906
 30
0.0
 40
3.0
  1
 
  7
MONOTXT
 11
481.3467
 21
237.2906
 31
0.0
210
0.0
220
0.0
230
1.0
100
AcDbText
 73
     3
  0
TEXT
  5
3FF
100
AcDbEntity
  8
1
  6
CONTINUOUS
 62
     7
100
AcDbText
 10
481.3467
 20
228.8906
 30
0.0
 40
3.0
  1
   (E)   A COARSE PAVEMENT TEXTURE WILL REQUIRE SLIGHTLY MORE ADHESIVE.
  7
MONOTXT
 11
481.3467
 21
231.8906
 31
0.0
210
0.0
220
0.0
230
1.0
100
AcDbText
 73
     3
  0
TEXT
  5
400
100
AcDbEntity
  8
1
  6
CONTINUOUS
 62
     7
100
AcDbText
 10
481.3467
 20
223.4906
 30
0.0
 40
3.0
  1
 
  7
MONOTXT
 11
481.3467
 21
226.4906
 31
0.0
210
0.0
220
0.0
230
1.0
100
AcDbText
 73
     3
  0
TEXT
  5
401
100
AcDbEntity
  8
1
  6
CONTINUOUS
 62
     7
100
AcDbText
 10
481.3467
 20
218.0906
 30
0.0
 40
3.0
  1
   (F)   MARKER MUST BE PROTECTED FROM TRAFFIC UNTIL ADHESIVE HAS PROPERLY
  7
MONOTXT
 11
481.3467
 21
221.0906
 31
0.0
210
0.0
220
0.0
230
1.0
100
AcDbText
 73
     3
  0
TEXT
  5
402
100
AcDbEntity
  8
1
  6
CONTINUOUS
 62
     7
100
AcDbText
 10
481.3467
 20
212.6906
 30
0.0
 40
3.0
  1
       HARDENED. 
  7
MONOTXT
 11
481.3467
 21
215.6906
 31
0.0
210
0.0
220
0.0
230
1.0
100
AcDbText
 73
     3
  0
ENDSEC
  0
SECTION
  2
OBJECTS
  0
DICTIONARY
  5
19
100
AcDbDictionary
  3
ACAD_GROUP
350
1A
  3
ACAD_MLINESTYLE
350
1B
  0
DICTIONARY
  5
1A
102
{ACAD_REACTORS
330
19
102
}
100
AcDbDictionary
  0
DICTIONARY
  5
1B
102
{ACAD_REACTORS
330
19
102
}
100
AcDbDictionary
  3
STANDARD
350
1C
  0
MLINESTYLE
  5
1C
102
{ACAD_REACTORS
330
1B
102
}
100
AcDbMlineStyle
  2
STANDARD
 70
     0
  3

 62
     0
 51
90.0
 52
90.0
 71
     2
 49
0.5
 62
   256
  6
BYLAYER
 49
-0.5
 62
   256
  6
BYLAYER
  0
ENDSEC
  0
EOF
