  0
SECTION
  2
HEADER
  9
$ACADVER
  1
AC1014
  9
$ACADMAINTVER
 70
     0
  9
$DWGCODEPAGE
  3
ANSI_1252
  9
$INSBASE
 10
0.0
 20
0.0
 30
0.0
  9
$EXTMIN
 10
-286.3245
 20
-22.8882
 30
0.0
  9
$EXTMAX
 10
362.8796
 20
465.1862
 30
0.0
  9
$LIMMIN
 10
0.0
 20
0.0
  9
$LIMMAX
 10
12.0
 20
9.0
  9
$ORTHOMODE
 70
     0
  9
$REGENMODE
 70
     1
  9
$FILLMODE
 70
     1
  9
$QTEXTMODE
 70
     0
  9
$MIRRTEXT
 70
     1
  9
$DRAGMODE
 70
     2
  9
$LTSCALE
 40
1.0
  9
$OSMODE
 70
     0
  9
$ATTMODE
 70
     1
  9
$TEXTSIZE
 40
0.2
  9
$TRACEWID
 40
0.05
  9
$TEXTSTYLE
  7
STANDARD
  9
$CLAYER
  8
0
  9
$CELTYPE
  6
CONTINUOUS
  9
$CECOLOR
 62
   256
  9
$CELTSCALE
 40
1.0
  9
$DELOBJ
 70
     1
  9
$DISPSILH
 70
     0
  9
$DIMSCALE
 40
1.0
  9
$DIMASZ
 40
0.18
  9
$DIMEXO
 40
0.0625
  9
$DIMDLI
 40
0.38
  9
$DIMRND
 40
0.0
  9
$DIMDLE
 40
0.0
  9
$DIMEXE
 40
0.18
  9
$DIMTP
 40
0.0
  9
$DIMTM
 40
0.0
  9
$DIMTXT
 40
0.18
  9
$DIMCEN
 40
0.09
  9
$DIMTSZ
 40
0.0
  9
$DIMTOL
 70
     0
  9
$DIMLIM
 70
     0
  9
$DIMTIH
 70
     1
  9
$DIMTOH
 70
     1
  9
$DIMSE1
 70
     0
  9
$DIMSE2
 70
     0
  9
$DIMTAD
 70
     0
  9
$DIMZIN
 70
     0
  9
$DIMBLK
  1

  9
$DIMASO
 70
     1
  9
$DIMSHO
 70
     1
  9
$DIMPOST
  1

  9
$DIMAPOST
  1

  9
$DIMALT
 70
     0
  9
$DIMALTD
 70
     2
  9
$DIMALTF
 40
25.4
  9
$DIMLFAC
 40
1.0
  9
$DIMTOFL
 70
     0
  9
$DIMTVP
 40
0.0
  9
$DIMTIX
 70
     0
  9
$DIMSOXD
 70
     0
  9
$DIMSAH
 70
     0
  9
$DIMBLK1
  1

  9
$DIMBLK2
  1

  9
$DIMSTYLE
  2
STANDARD
  9
$DIMCLRD
 70
     0
  9
$DIMCLRE
 70
     0
  9
$DIMCLRT
 70
     0
  9
$DIMTFAC
 40
1.0
  9
$DIMGAP
 40
0.09
  9
$DIMJUST
 70
     0
  9
$DIMSD1
 70
     0
  9
$DIMSD2
 70
     0
  9
$DIMTOLJ
 70
     1
  9
$DIMTZIN
 70
     0
  9
$DIMALTZ
 70
     0
  9
$DIMALTTZ
 70
     0
  9
$DIMFIT
 70
     3
  9
$DIMUPT
 70
     0
  9
$DIMUNIT
 70
     2
  9
$DIMDEC
 70
     4
  9
$DIMTDEC
 70
     4
  9
$DIMALTU
 70
     2
  9
$DIMALTTD
 70
     2
  9
$DIMTXSTY
  7
STANDARD
  9
$DIMAUNIT
 70
     0
  9
$LUNITS
 70
     2
  9
$LUPREC
 70
     4
  9
$SKETCHINC
 40
0.1
  9
$FILLETRAD
 40
0.0
  9
$AUNITS
 70
     0
  9
$AUPREC
 70
     0
  9
$MENU
  1
acad
  9
$ELEVATION
 40
0.0
  9
$PELEVATION
 40
0.0
  9
$THICKNESS
 40
0.0
  9
$LIMCHECK
 70
     0
  9
$BLIPMODE
 70
     1
  9
$CHAMFERA
 40
0.0
  9
$CHAMFERB
 40
0.0
  9
$CHAMFERC
 40
0.0
  9
$CHAMFERD
 40
0.0
  9
$SKPOLY
 70
     0
  9
$TDCREATE
 40
2451803.571516204
  9
$TDUPDATE
 40
2451803.571516204
  9
$TDINDWG
 40
0.0000000000
  9
$TDUSRTIMER
 40
0.0000000000
  9
$USRTIMER
 70
     1
  9
$ANGBASE
 50
0.0
  9
$ANGDIR
 70
     0
  9
$PDMODE
 70
     0
  9
$PDSIZE
 40
0.0
  9
$PLINEWID
 40
0.0
  9
$COORDS
 70
     0
  9
$SPLFRAME
 70
     0
  9
$SPLINETYPE
 70
     6
  9
$SPLINESEGS
 70
    10
  9
$ATTDIA
 70
     0
  9
$ATTREQ
 70
     1
  9
$HANDLING
 70
     1
  9
$HANDSEED
  5
512
  9
$SURFTAB1
 70
     6
  9
$SURFTAB2
 70
     6
  9
$SURFTYPE
 70
     6
  9
$SURFU
 70
     6
  9
$SURFV
 70
     6
  9
$UCSNAME
  2

  9
$UCSORG
 10
0.0
 20
0.0
 30
0.0
  9
$UCSXDIR
 10
1.0
 20
0.0
 30
0.0
  9
$UCSYDIR
 10
0.0
 20
1.0
 30
0.0
  9
$PUCSNAME
  2

  9
$PUCSORG
 10
0.0
 20
0.0
 30
0.0
  9
$PUCSXDIR
 10
1.0
 20
0.0
 30
0.0
  9
$PUCSYDIR
 10
0.0
 20
1.0
 30
0.0
  9
$USERI1
 70
     0
  9
$USERI2
 70
     0
  9
$USERI3
 70
     0
  9
$USERI4
 70
     0
  9
$USERI5
 70
     0
  9
$USERR1
 40
0.0
  9
$USERR2
 40
0.0
  9
$USERR3
 40
0.0
  9
$USERR4
 40
0.0
  9
$USERR5
 40
0.0
  9
$WORLDVIEW
 70
     1
  9
$SHADEDGE
 70
     3
  9
$SHADEDIF
 70
    70
  9
$TILEMODE
 70
     1
  9
$MAXACTVP
 70
    16
  9
$PINSBASE
 10
0.0
 20
0.0
 30
0.0
  9
$PLIMCHECK
 70
     0
  9
$PEXTMIN
 10
-1.000000E+20
 20
-1.000000E+20
 30
-1.000000E+20
  9
$PEXTMAX
 10
-1.000000E+20
 20
-1.000000E+20
 30
-1.000000E+20
  9
$PLIMMIN
 10
0.0
 20
0.0
  9
$PLIMMAX
 10
12.0
 20
9.0
  9
$UNITMODE
 70
     0
  9
$VISRETAIN
 70
     0
  9
$PLINEGEN
 70
     1
  9
$PSLTSCALE
 70
     0
  9
$TREEDEPTH
 70
  3020
  9
$PICKSTYLE
 70
     1
  9
$CMLSTYLE
  2
STANDARD
  9
$CMLJUST
 70
     0
  9
$CMLSCALE
 40
1.0
  9
$PROXYGRAPHICS
 70
     0
  9
$MEASUREMENT
 70
     0
  0
ENDSEC
  0
SECTION
  2
CLASSES
  0
CLASS
  1
LWPOLYLINE
  2
AcDbPolyline
  3
"AutoCAD"
 90
        0
280
     0
281
     1
  0
CLASS
  1
IMAGE
  2
AcDbRasterImage
  3
ISM
 90
      127
280
     0
281
     1
  0
CLASS
  1
OLE2FRAME
  2
AcDbOle2Frame
  3
""
 90
        0
280
     0
281
     1
  0
CLASS
  1
HATCH
  2
AcDbHatch
  3
"ACAD_SEDONA"
 90
        0
280
     0
281
     1
  0
CLASS
  1
DICTIONARYVAR
  2
AcDbDictionaryVar
  3
"AutoCAD"
 90
        0
280
     0
281
     0
  0
CLASS
  1
RASTERVARIABLES
  2
AcDbRasterVariables
  3
ISM
 90
        0
280
     0
281
     0
  0
CLASS
  1
IMAGEDEF
  2
AcDbRasterImageDef
  3
ISM
 90
        0
280
     0
281
     0
  0
CLASS
  1
IMAGEDEF_REACTOR
  2
AcDbRasterImageDefReactor
  3
ISM
 90
        1
280
     0
281
     0
  0
CLASS
  1
IDBUFFER
  2
AcDbIdBuffer
  3
"Acad"
 90
        0
280
     0
281
     0
  0
CLASS
  1
SPATIAL_FILTER
  2
AcDbSpatialFilter
  3
"Acad"
 90
        0
280
     0
281
     0
  0
CLASS
  1
XRECORD
  2
AcDbXrecord
  3
"<Built In>"
 90
        0
280
     0
281
     0
  0
CLASS
  1
SORTENTSTABLE
  2
AcDbSortentsTable
  3
"AutoCAD"
 90
        0
280
     0
281
     0
  0
CLASS
  1
LAYER_INDEX
  2
AcDbLayerIndex
  3
"Acad"
 90
        0
280
     0
281
     0
  0
CLASS
  1
SPATIAL_INDEX
  2
AcDbSpatialIndex
  3
"Acad"
 90
        0
280
     0
281
     0
  0
CLASS
  1
OBJECT_PTR
  2
CAseDLPNTableRecord
  3
"ASE-LPNTableRecord"
 90
        1
280
     0
281
     0
  0
ENDSEC
  0
SECTION
  2
TABLES
  0
TABLE
  2
VPORT
  5
7
100
AcDbSymbolTable
 70
     1
  0
VPORT
  5
511
100
AcDbSymbolTableRecord
100
AcDbViewportTableRecord
  2
*ACTIVE
 70
     0
 10
0.0
 20
0.0
 11
1.0
 21
1.0
 12
0.0
 22
0.0
 13
0.0
 23
0.0
 14
0.0
 24
0.0
 15
0.0
 25
0.0
 16
0.0
 26
0.0
 36
1.0
 17
-18.2926
 27
226.2476
 37
0.0
 40
565.24
 41
1.545
 42
50.0
 43
0.0
 44
0.0
 50
0.0
 51
0.0
 71
     0
 72
   100
 73
     1
 74
     0
 75
     0
 76
     0
 77
     0
 78
     0
  0
ENDTAB
  0
TABLE
  2
LTYPE
  5
4
100
AcDbSymbolTable
 70
     9
  0
LTYPE
  5
11
100
AcDbSymbolTableRecord
100
AcDbLinetypeTableRecord
  2
BYBLOCK
 70
     0
  3

 72
    65
 73
     0
 40
0.0
  0
LTYPE
  5
12
100
AcDbSymbolTableRecord
100
AcDbLinetypeTableRecord
  2
BYLAYER
 70
     0
  3

 72
    65
 73
     0
 40
0.0
  0
LTYPE
  5
13
100
AcDbSymbolTableRecord
100
AcDbLinetypeTableRecord
  2
CONTINUOUS
 70
     0
  3
Solid line
 72
    65
 73
     0
 40
0.0
  0
LTYPE
  5
22
100
AcDbSymbolTableRecord
100
AcDbLinetypeTableRecord
  2
DOT
 70
    64
  3
. . . . . . . . . . . . . . . . . . . . . . . . . . . . . . . . .
 72
    65
 73
     2
 40
0.25
 49
0.0
 74
     0
 49
-0.25
 74
     0
  0
LTYPE
  5
23
100
AcDbSymbolTableRecord
100
AcDbLinetypeTableRecord
  2
HIDDEN
 70
    64
  3
__ __ __ __ __ __ __ __ __ __ __ __ __ __ __ __ __ __ __ __ __ 
 72
    65
 73
     2
 40
0.375
 49
0.25
 74
     0
 49
-0.125
 74
     0
  0
LTYPE
  5
24
100
AcDbSymbolTableRecord
100
AcDbLinetypeTableRecord
  2
DASHED
 70
    64
  3
__ __ __ __ __ __ __ __ __ __ __ __ __ __ __ __ __ __ __ __ __
 72
    65
 73
     2
 40
0.75
 49
0.5
 74
     0
 49
-0.25
 74
     0
  0
LTYPE
  5
25
100
AcDbSymbolTableRecord
100
AcDbLinetypeTableRecord
  2
DASHDOT
 70
    64
  3
__ . __ . __ . __ . __ . __ . __ . __ . __ . __ . __ . __ . _
 72
    65
 73
     4
 40
1.0
 49
0.5
 74
     0
 49
-0.25
 74
     0
 49
0.0
 74
     0
 49
-0.25
 74
     0
  0
LTYPE
  5
26
100
AcDbSymbolTableRecord
100
AcDbLinetypeTableRecord
  2
DIVIDE
 70
    64
  3
____ . . ____ . . ____ . . ____ . . ____ . . ____ . . ____ . .
 72
    65
 73
     6
 40
1.25
 49
0.5
 74
     0
 49
-0.25
 74
     0
 49
0.0
 74
     0
 49
-0.25
 74
     0
 49
0.0
 74
     0
 49
-0.25
 74
     0
  0
LTYPE
  5
27
100
AcDbSymbolTableRecord
100
AcDbLinetypeTableRecord
  2
CENTER
 70
    64
  3
____ _ ____ _ ____ _ ____ _ ____ _ ____ _ ____ _ ____ _ ____ _
 72
    65
 73
     4
 40
2.0
 49
1.25
 74
     0
 49
-0.25
 74
     0
 49
0.25
 74
     0
 49
-0.25
 74
     0
  0
ENDTAB
  0
TABLE
  2
LAYER
  5
2
100
AcDbSymbolTable
 70
     2
  0
LAYER
  5
14
102
{ACAD_XDICTIONARY
360
5F205F5F5F5F205F
102
}
100
AcDbSymbolTableRecord
100
AcDbLayerTableRecord
  2
0
 70
     0
 62
     7
  6
CONTINUOUS
  0
LAYER
  5
2A
102
{ACAD_XDICTIONARY
360
5F205F5F5F5F205F
102
}
100
AcDbSymbolTableRecord
100
AcDbLayerTableRecord
  2
1
 70
    64
 62
     7
  6
CONTINUOUS
  0
ENDTAB
  0
TABLE
  2
STYLE
  5
3
100
AcDbSymbolTable
 70
     3
  0
STYLE
  5
17
100
AcDbSymbolTableRecord
100
AcDbTextStyleTableRecord
  2
STANDARD
 70
     0
 40
0.0
 41
1.0
 50
0.0
 71
     0
 42
0.0
  3
txt
  4

  0
STYLE
  5
1B6
100
AcDbSymbolTableRecord
100
AcDbTextStyleTableRecord
  2
MONOTXT
 70
     0
 40
0.2
 41
1.0
 50
0.0
 71
     0
 42
0.2
  3
MONOTXT
  4

  0
STYLE
  5
4D8
100
AcDbSymbolTableRecord
100
AcDbTextStyleTableRecord
  2
TXT
 70
     0
 40
0.2
 41
1.0
 50
0.0
 71
     0
 42
0.2
  3
TXT
  4

  0
ENDTAB
  0
TABLE
  2
VIEW
  5
5
100
AcDbSymbolTable
 70
     0
  0
ENDTAB
  0
TABLE
  2
UCS
  5
6
100
AcDbSymbolTable
 70
     0
  0
ENDTAB
  0
TABLE
  2
APPID
  5
8
100
AcDbSymbolTable
 70
     1
  0
APPID
  5
16
100
AcDbSymbolTableRecord
100
AcDbRegAppTableRecord
  2
ACAD
 70
     0
  0
ENDTAB
  0
TABLE
  2
DIMSTYLE
  5
9
100
AcDbSymbolTable
 70
     1
  0
DIMSTYLE
105
18
100
AcDbSymbolTableRecord
100
AcDbDimStyleTableRecord
  2
STANDARD
 70
     0
  3

  4

  5

  6

  7

 40
1.0
 41
0.18
 42
0.0625
 43
0.38
 44
0.18
 45
0.0
 46
0.0
 47
0.0
 48
0.0
140
0.18
141
0.09
142
0.0
143
25.4
144
1.0
145
0.0
146
1.0
147
0.09
 71
     0
 72
     0
 73
     1
 74
     1
 75
     0
 76
     0
 77
     0
 78
     0
170
     0
171
     2
172
     0
173
     0
174
     0
175
     0
176
     0
177
     0
178
     0
270
     2
271
     4
272
     4
273
     2
274
     2
340
17
275
     0
280
     0
281
     0
282
     0
283
     1
284
     0
285
     0
286
     0
287
     0
288
     0
  0
ENDTAB
  0
TABLE
  2
BLOCK_RECORD
  5
1
100
AcDbSymbolTable
 70
     1
  0
BLOCK_RECORD
  5
A
100
AcDbSymbolTableRecord
100
AcDbBlockTableRecord
  2
*MODEL_SPACE
  0
BLOCK_RECORD
  5
B
100
AcDbSymbolTableRecord
100
AcDbBlockTableRecord
  2
*PAPER_SPACE
  0
BLOCK_RECORD
  5
198
102
{ACAD_XDICTIONARY
360
F09F022400000000
102
}
100
AcDbSymbolTableRecord
100
AcDbBlockTableRecord
  2
LDR
  0
ENDTAB
  0
ENDSEC
  0
SECTION
  2
BLOCKS
  0
BLOCK
  5
D
100
AcDbEntity
  8
0
100
AcDbBlockBegin
  2
*MODEL_SPACE
 70
     0
 10
0.0
 20
0.0
 30
0.0
  3
*MODEL_SPACE
  1

  0
ENDBLK
  5
E
100
AcDbEntity
  8
0
100
AcDbBlockEnd
  0
BLOCK
  5
F
100
AcDbEntity
 67
     1
  8
0
100
AcDbBlockBegin
  2
*PAPER_SPACE
 70
     0
 10
0.0
 20
0.0
 30
0.0
  3
*PAPER_SPACE
  1

  0
ENDBLK
  5
10
100
AcDbEntity
 67
     1
  8
0
100
AcDbBlockEnd
  0
BLOCK
  5
199
100
AcDbEntity
  8
1
  6
CONTINUOUS
 62
     1
100
AcDbBlockBegin
  2
LDR
 70
     0
 10
0.0
 20
0.0
 30
0.0
  3
LNR
  1

  0
ELLIPSE
  5
19A
100
AcDbEntity
  8
1
  6
CONTINUOUS
 62
     1
100
AcDbEllipse
 10
-0.005456
 20
-0.001381
 30
0.0
 11
0.0089285004623472
 21
0.0007807500129699
 31
0.0
210
0.0
220
0.0
230
1.0
 40
0.122415
 41
0.8963533496766982
 42
3.1415926535897931
  0
ELLIPSE
  5
19B
100
AcDbEntity
  8
1
  6
CONTINUOUS
 62
     1
100
AcDbEllipse
 10
-0.005602
 20
0.001058
 30
0.0
 11
0.0087822506056358
 21
-0.0008782502048316
 31
0.0
210
0.0
220
0.0
230
1.0
 40
0.07063
 41
3.1407147529760402
 42
5.4181099545465106
  0
ENDBLK
  5
19C
100
AcDbEntity
  8
1
  6
CONTINUOUS
 62
     1
100
AcDbBlockEnd
  0
ENDSEC
  0
SECTION
  2
ENTITIES
  0
LINE
  5
2B
100
AcDbEntity
  8
1
  6
CONTINUOUS
 62
     5
100
AcDbLine
 10
-195.7996
 20
465.1862
 30
0.0
 11
-183.7996
 21
465.1862
 31
0.0
  0
LINE
  5
2C
100
AcDbEntity
  8
1
  6
HIDDEN
 62
     5
100
AcDbLine
 10
-197.5996
 20
231.1862
 30
0.0
 11
-181.9996
 21
231.1862
 31
0.0
  0
LINE
  5
2D
100
AcDbEntity
  8
1
  6
CONTINUOUS
 62
     5
100
AcDbLine
 10
-195.7996
 20
465.1862
 30
0.0
 11
-196.0765
 21
429.1862
 31
0.0
  0
LINE
  5
2E
100
AcDbEntity
  8
1
  6
CONTINUOUS
 62
     5
100
AcDbLine
 10
-183.7996
 20
465.1862
 30
0.0
 11
-183.5226
 21
429.1862
 31
0.0
  0
LINE
  5
2F
100
AcDbEntity
  8
1
  6
CONTINUOUS
 62
     5
100
AcDbLine
 10
-226.1504
 20
263.5862
 30
0.0
 11
-149.8488
 21
263.5862
 31
0.0
  0
ARC
  5
30
100
AcDbEntity
  8
1
  6
CONTINUOUS
 62
     5
100
AcDbCircle
 10
-192.93805
 20
431.691628
 30
0.0
 40
4.015848
210
0.0
220
0.0
230
1.0
100
AcDbArc
 50
218.600403
 51
321.399597
  0
ARC
  5
31
100
AcDbEntity
  8
1
  6
CONTINUOUS
 62
     5
100
AcDbCircle
 10
-192.93805
 20
426.683772
 30
0.0
 40
4.015848
210
0.0
220
0.0
230
1.0
100
AcDbArc
 50
38.600403
 51
141.399597
  0
ARC
  5
32
100
AcDbEntity
  8
1
  6
CONTINUOUS
 62
     5
100
AcDbCircle
 10
-186.64975
 20
426.683772
 30
0.0
 40
4.015848
210
0.0
220
0.0
230
1.0
100
AcDbArc
 50
38.600403
 51
141.399597
  0
ARC
  5
33
100
AcDbEntity
  8
1
  6
CONTINUOUS
 62
     5
100
AcDbCircle
 10
-192.99345
 20
419.480772
 30
0.0
 40
4.015848
210
0.0
220
0.0
230
1.0
100
AcDbArc
 50
38.600403
 51
141.399597
  0
ARC
  5
34
100
AcDbEntity
  8
1
  6
CONTINUOUS
 62
     5
100
AcDbCircle
 10
-186.70515
 20
424.488628
 30
0.0
 40
4.015848
210
0.0
220
0.0
230
1.0
100
AcDbArc
 50
218.600403
 51
321.399597
  0
ARC
  5
35
100
AcDbEntity
  8
1
  6
CONTINUOUS
 62
     5
100
AcDbCircle
 10
-186.70515
 20
419.480772
 30
0.0
 40
4.015848
210
0.0
220
0.0
230
1.0
100
AcDbArc
 50
38.600403
 51
141.399597
  0
ARC
  5
36
100
AcDbEntity
  8
1
  6
CONTINUOUS
 62
     5
100
AcDbCircle
 10
-193.3673
 20
320.242401
 30
0.0
 40
4.447908
210
0.0
220
0.0
230
1.0
100
AcDbArc
 50
216.668181
 51
323.331822
  0
ARC
  5
37
100
AcDbEntity
  8
1
  6
CONTINUOUS
 62
     5
100
AcDbCircle
 10
-193.3673
 20
314.949799
 30
0.0
 40
4.447908
210
0.0
220
0.0
230
1.0
100
AcDbArc
 50
36.668178
 51
143.331819
  0
ARC
  5
38
100
AcDbEntity
  8
1
  6
CONTINUOUS
 62
     5
100
AcDbCircle
 10
-186.2081
 20
314.949799
 30
0.0
 40
4.447908
210
0.0
220
0.0
230
1.0
100
AcDbArc
 50
36.668181
 51
143.331822
  0
ARC
  5
39
100
AcDbEntity
  8
1
  6
CONTINUOUS
 62
     5
100
AcDbCircle
 10
-193.4319
 20
306.529999
 30
0.0
 40
4.447908
210
0.0
220
0.0
230
1.0
100
AcDbArc
 50
36.668178
 51
143.331819
  0
ARC
  5
3A
100
AcDbEntity
  8
1
  6
CONTINUOUS
 62
     5
100
AcDbCircle
 10
-186.2727
 20
311.822601
 30
0.0
 40
4.447908
210
0.0
220
0.0
230
1.0
100
AcDbArc
 50
216.668178
 51
323.331819
  0
ARC
  5
3B
100
AcDbEntity
  8
1
  6
CONTINUOUS
 62
     5
100
AcDbCircle
 10
-186.2727
 20
306.529999
 30
0.0
 40
4.447908
210
0.0
220
0.0
230
1.0
100
AcDbArc
 50
36.668181
 51
143.331822
  0
LINE
  5
3C
100
AcDbEntity
  8
1
  6
CONTINUOUS
 62
     5
100
AcDbLine
 10
-196.9996
 20
309.1862
 30
0.0
 11
-197.3504
 21
263.5862
 31
0.0
  0
LINE
  5
3D
100
AcDbEntity
  8
1
  6
HIDDEN
 62
     5
100
AcDbLine
 10
-197.3504
 20
263.5862
 30
0.0
 11
-197.5996
 21
231.1862
 31
0.0
  0
LINE
  5
3E
100
AcDbEntity
  8
1
  6
CONTINUOUS
 62
     5
100
AcDbLine
 10
-182.5996
 20
309.1862
 30
0.0
 11
-182.2488
 21
263.5862
 31
0.0
  0
LINE
  5
3F
100
AcDbEntity
  8
1
  6
HIDDEN
 62
     5
100
AcDbLine
 10
-182.2488
 20
263.5862
 30
0.0
 11
-181.9996
 21
231.1862
 31
0.0
  0
LINE
  5
40
100
AcDbEntity
  8
1
  6
CONTINUOUS
 62
     5
100
AcDbLine
 10
-28.9996
 20
465.1862
 30
0.0
 11
-29.2765
 21
429.1862
 31
0.0
  0
LINE
  5
41
100
AcDbEntity
  8
1
  6
CONTINUOUS
 62
     5
100
AcDbLine
 10
-28.9996
 20
465.1862
 30
0.0
 11
-16.9996
 21
465.1862
 31
0.0
  0
LINE
  5
42
100
AcDbEntity
  8
1
  6
HIDDEN
 62
     5
100
AcDbLine
 10
-30.7996
 20
231.1862
 30
0.0
 11
-15.1996
 21
231.1862
 31
0.0
  0
LINE
  5
43
100
AcDbEntity
  8
1
  6
CONTINUOUS
 62
     5
100
AcDbLine
 10
-16.9996
 20
465.1862
 30
0.0
 11
-16.7226
 21
429.1862
 31
0.0
  0
LINE
  5
44
100
AcDbEntity
  8
1
  6
CONTINUOUS
 62
     5
100
AcDbLine
 10
-59.3504
 20
263.5862
 30
0.0
 11
20.5512
 21
263.5862
 31
0.0
  0
ARC
  5
45
100
AcDbEntity
  8
1
  6
CONTINUOUS
 62
     5
100
AcDbCircle
 10
-26.13805
 20
431.691628
 30
0.0
 40
4.015848
210
0.0
220
0.0
230
1.0
100
AcDbArc
 50
218.600403
 51
321.399597
  0
ARC
  5
46
100
AcDbEntity
  8
1
  6
CONTINUOUS
 62
     5
100
AcDbCircle
 10
-26.13805
 20
426.683772
 30
0.0
 40
4.015848
210
0.0
220
0.0
230
1.0
100
AcDbArc
 50
38.600403
 51
141.399597
  0
ARC
  5
47
100
AcDbEntity
  8
1
  6
CONTINUOUS
 62
     5
100
AcDbCircle
 10
-19.84975
 20
426.683772
 30
0.0
 40
4.015848
210
0.0
220
0.0
230
1.0
100
AcDbArc
 50
38.600403
 51
141.399597
  0
ARC
  5
48
100
AcDbEntity
  8
1
  6
CONTINUOUS
 62
     5
100
AcDbCircle
 10
-26.19345
 20
419.480772
 30
0.0
 40
4.015848
210
0.0
220
0.0
230
1.0
100
AcDbArc
 50
38.600403
 51
141.399597
  0
ARC
  5
49
100
AcDbEntity
  8
1
  6
CONTINUOUS
 62
     5
100
AcDbCircle
 10
-19.90515
 20
424.488628
 30
0.0
 40
4.015848
210
0.0
220
0.0
230
1.0
100
AcDbArc
 50
218.600403
 51
321.399597
  0
ARC
  5
4A
100
AcDbEntity
  8
1
  6
CONTINUOUS
 62
     5
100
AcDbCircle
 10
-19.90515
 20
419.480772
 30
0.0
 40
4.015848
210
0.0
220
0.0
230
1.0
100
AcDbArc
 50
38.600403
 51
141.399597
  0
ARC
  5
4B
100
AcDbEntity
  8
1
  6
CONTINUOUS
 62
     5
100
AcDbCircle
 10
-26.5673
 20
320.242401
 30
0.0
 40
4.447908
210
0.0
220
0.0
230
1.0
100
AcDbArc
 50
216.668181
 51
323.331822
  0
ARC
  5
4C
100
AcDbEntity
  8
1
  6
CONTINUOUS
 62
     5
100
AcDbCircle
 10
-26.5673
 20
314.949799
 30
0.0
 40
4.447908
210
0.0
220
0.0
230
1.0
100
AcDbArc
 50
36.668178
 51
143.331819
  0
ARC
  5
4D
100
AcDbEntity
  8
1
  6
CONTINUOUS
 62
     5
100
AcDbCircle
 10
-19.4081
 20
314.949799
 30
0.0
 40
4.447908
210
0.0
220
0.0
230
1.0
100
AcDbArc
 50
36.668181
 51
143.331822
  0
ARC
  5
4E
100
AcDbEntity
  8
1
  6
CONTINUOUS
 62
     5
100
AcDbCircle
 10
-26.6319
 20
306.529999
 30
0.0
 40
4.447908
210
0.0
220
0.0
230
1.0
100
AcDbArc
 50
36.668178
 51
143.331819
  0
ARC
  5
4F
100
AcDbEntity
  8
1
  6
CONTINUOUS
 62
     5
100
AcDbCircle
 10
-19.4727
 20
311.822601
 30
0.0
 40
4.447908
210
0.0
220
0.0
230
1.0
100
AcDbArc
 50
216.668178
 51
323.331819
  0
ARC
  5
50
100
AcDbEntity
  8
1
  6
CONTINUOUS
 62
     5
100
AcDbCircle
 10
-19.4727
 20
306.529999
 30
0.0
 40
4.447908
210
0.0
220
0.0
230
1.0
100
AcDbArc
 50
36.668181
 51
143.331822
  0
LINE
  5
51
100
AcDbEntity
  8
1
  6
CONTINUOUS
 62
     5
100
AcDbLine
 10
-30.1996
 20
309.1862
 30
0.0
 11
-30.5504
 21
263.5862
 31
0.0
  0
LINE
  5
52
100
AcDbEntity
  8
1
  6
HIDDEN
 62
     5
100
AcDbLine
 10
-30.5504
 20
263.5862
 30
0.0
 11
-30.7996
 21
231.1862
 31
0.0
  0
LINE
  5
53
100
AcDbEntity
  8
1
  6
CONTINUOUS
 62
     5
100
AcDbLine
 10
-15.7996
 20
309.1862
 30
0.0
 11
-15.4488
 21
263.5862
 31
0.0
  0
LINE
  5
54
100
AcDbEntity
  8
1
  6
HIDDEN
 62
     5
100
AcDbLine
 10
-15.4488
 20
263.5862
 30
0.0
 11
-15.1996
 21
231.1862
 31
0.0
  0
LINE
  5
55
100
AcDbEntity
  8
1
  6
CONTINUOUS
 62
     1
100
AcDbLine
 10
-191.6458
 20
381.1862
 30
0.0
 11
-197.6458
 21
381.1862
 31
0.0
  0
LINE
  5
56
100
AcDbEntity
  8
1
  6
CONTINUOUS
 62
     1
100
AcDbLine
 10
-191.6458
 20
372.7862
 30
0.0
 11
-197.6458
 21
372.7862
 31
0.0
  0
LINE
  5
57
100
AcDbEntity
  8
1
  6
CONTINUOUS
 62
     1
100
AcDbLine
 10
-191.6458
 20
381.1862
 30
0.0
 11
-191.6458
 21
372.7862
 31
0.0
  0
LINE
  5
58
100
AcDbEntity
  8
1
  6
CONTINUOUS
 62
     1
100
AcDbLine
 10
-187.9464
 20
381.1862
 30
0.0
 11
-187.9464
 21
372.7862
 31
0.0
  0
LINE
  5
59
100
AcDbEntity
  8
1
  6
CONTINUOUS
 62
     1
100
AcDbLine
 10
-187.9464
 20
381.1862
 30
0.0
 11
-178.3464
 21
381.1862
 31
0.0
  0
LINE
  5
5A
100
AcDbEntity
  8
1
  6
CONTINUOUS
 62
     1
100
AcDbLine
 10
-187.9464
 20
372.7862
 30
0.0
 11
-178.3464
 21
372.7862
 31
0.0
  0
LINE
  5
5B
100
AcDbEntity
  8
1
  6
CONTINUOUS
 62
     5
100
AcDbLine
 10
-196.1319
 20
421.9862
 30
0.0
 11
-196.4457
 21
381.1862
 31
0.0
  0
LINE
  5
5C
100
AcDbEntity
  8
1
  6
CONTINUOUS
 62
     5
100
AcDbLine
 10
-196.5104
 20
372.7862
 30
0.0
 11
-196.935
 21
317.5862
 31
0.0
  0
LINE
  5
5D
100
AcDbEntity
  8
1
  6
CONTINUOUS
 62
     5
100
AcDbLine
 10
-183.4673
 20
421.9862
 30
0.0
 11
-183.1534
 21
381.1862
 31
0.0
  0
LINE
  5
5E
100
AcDbEntity
  8
1
  6
CONTINUOUS
 62
     5
100
AcDbLine
 10
-183.0888
 20
372.7862
 30
0.0
 11
-182.6642
 21
317.5862
 31
0.0
  0
LINE
  5
5F
100
AcDbEntity
  8
1
  6
CONTINUOUS
 62
     1
100
AcDbLine
 10
-197.6458
 20
381.1862
 30
0.0
 11
-197.6458
 21
372.7862
 31
0.0
  0
LINE
  5
60
100
AcDbEntity
  8
1
  6
CONTINUOUS
 62
     1
100
AcDbLine
 10
-181.9464
 20
381.1862
 30
0.0
 11
-181.9464
 21
372.7862
 31
0.0
  0
LINE
  5
61
100
AcDbEntity
  8
1
  6
CONTINUOUS
 62
     1
100
AcDbLine
 10
-178.3464
 20
381.1862
 30
0.0
 11
-178.3464
 21
371.5862
 31
0.0
  0
LINE
  5
62
100
AcDbEntity
  8
1
  6
CONTINUOUS
 62
     1
100
AcDbLine
 10
-177.1464
 20
382.3862
 30
0.0
 11
-167.5464
 21
382.3862
 31
0.0
  0
LINE
  5
63
100
AcDbEntity
  8
1
  6
CONTINUOUS
 62
     1
100
AcDbLine
 10
-177.1464
 20
370.3862
 30
0.0
 11
-167.5464
 21
370.3862
 31
0.0
  0
ARC
  5
64
100
AcDbEntity
  8
1
  6
CONTINUOUS
 62
     1
100
AcDbCircle
 10
-177.1464
 20
381.1862
 30
0.0
 40
1.2
210
0.0
220
0.0
230
1.0
100
AcDbArc
 50
90.0
 51
180.0
  0
ARC
  5
65
100
AcDbEntity
  8
1
  6
CONTINUOUS
 62
     1
100
AcDbCircle
 10
-177.1464
 20
371.5862
 30
0.0
 40
1.2
210
0.0
220
0.0
230
1.0
100
AcDbArc
 50
180.0
 51
270.0
  0
LINE
  5
66
100
AcDbEntity
  8
1
  6
CONTINUOUS
 62
     1
100
AcDbLine
 10
-177.7464
 20
381.1862
 30
0.0
 11
-177.7464
 21
371.5862
 31
0.0
  0
LINE
  5
67
100
AcDbEntity
  8
1
  6
CONTINUOUS
 62
     1
100
AcDbLine
 10
-177.1464
 20
381.7862
 30
0.0
 11
-166.3464
 21
381.7862
 31
0.0
  0
LINE
  5
68
100
AcDbEntity
  8
1
  6
CONTINUOUS
 62
     1
100
AcDbLine
 10
-177.1464
 20
370.9862
 30
0.0
 11
-167.5464
 21
370.9862
 31
0.0
  0
ARC
  5
69
100
AcDbEntity
  8
1
  6
CONTINUOUS
 62
     1
100
AcDbCircle
 10
-177.1464
 20
381.1862
 30
0.0
 40
0.6
210
0.0
220
0.0
230
1.0
100
AcDbArc
 50
90.0
 51
180.0
  0
ARC
  5
6A
100
AcDbEntity
  8
1
  6
CONTINUOUS
 62
     1
100
AcDbCircle
 10
-177.1464
 20
371.5862
 30
0.0
 40
0.6
210
0.0
220
0.0
230
1.0
100
AcDbArc
 50
180.0
 51
270.0
  0
LINE
  5
6B
100
AcDbEntity
  8
1
  6
CONTINUOUS
 62
     1
100
AcDbLine
 10
-167.5464
 20
382.3862
 30
0.0
 11
-167.5464
 21
381.7862
 31
0.0
  0
LINE
  5
6C
100
AcDbEntity
  8
1
  6
CONTINUOUS
 62
     1
100
AcDbLine
 10
-167.5464
 20
370.9862
 30
0.0
 11
-167.5464
 21
370.3862
 31
0.0
  0
LINE
  5
6D
100
AcDbEntity
  8
1
  6
CONTINUOUS
 62
     1
100
AcDbLine
 10
-166.3464
 20
380.8862
 30
0.0
 11
-174.7464
 21
380.8862
 31
0.0
  0
LINE
  5
6E
100
AcDbEntity
  8
1
  6
CONTINUOUS
 62
     1
100
AcDbLine
 10
-166.3464
 20
372.4862
 30
0.0
 11
-174.7464
 21
372.4862
 31
0.0
  0
LINE
  5
6F
100
AcDbEntity
  8
1
  6
CONTINUOUS
 62
     1
100
AcDbLine
 10
-166.3464
 20
371.5862
 30
0.0
 11
-174.7464
 21
371.5862
 31
0.0
  0
LINE
  5
70
100
AcDbEntity
  8
1
  6
CONTINUOUS
 62
     1
100
AcDbLine
 10
-166.3464
 20
381.7862
 30
0.0
 11
-166.3464
 21
380.8862
 31
0.0
  0
LINE
  5
71
100
AcDbEntity
  8
1
  6
CONTINUOUS
 62
     1
100
AcDbLine
 10
-166.3464
 20
372.4862
 30
0.0
 11
-166.3464
 21
371.5862
 31
0.0
  0
LINE
  5
72
100
AcDbEntity
  8
1
  6
CONTINUOUS
 62
     1
100
AcDbLine
 10
-174.7464
 20
372.4862
 30
0.0
 11
-174.7464
 21
371.5862
 31
0.0
  0
LINE
  5
73
100
AcDbEntity
  8
1
  6
CONTINUOUS
 62
     1
100
AcDbLine
 10
-174.7464
 20
381.7862
 30
0.0
 11
-174.7464
 21
380.8862
 31
0.0
  0
ARC
  5
74
100
AcDbEntity
  8
1
  6
CONTINUOUS
 62
     1
100
AcDbCircle
 10
-182.845354
 20
376.6862
 30
0.0
 40
9.123215
210
0.0
220
0.0
230
1.0
100
AcDbArc
 50
332.589397
 51
27.410597
  0
ARC
  5
75
100
AcDbEntity
  8
1
  6
CONTINUOUS
 62
     1
100
AcDbCircle
 10
-158.247446
 20
376.6862
 30
0.0
 40
9.123215
210
0.0
220
0.0
230
1.0
100
AcDbArc
 50
152.589403
 51
207.410603
  0
ARC
  5
76
100
AcDbEntity
  8
1
  6
CONTINUOUS
 62
     1
100
AcDbCircle
 10
-170.5464
 20
381.976367
 30
0.0
 40
1.55498
210
0.0
220
0.0
230
1.0
100
AcDbArc
 50
15.281514
 51
164.718486
  0
LINE
  5
77
100
AcDbEntity
  8
1
  6
CONTINUOUS
 62
     1
100
AcDbLine
 10
-171.4464
 20
369.1862
 30
0.0
 11
-171.4464
 21
370.3862
 31
0.0
  0
LINE
  5
78
100
AcDbEntity
  8
1
  6
CONTINUOUS
 62
     1
100
AcDbLine
 10
-169.6464
 20
369.1862
 30
0.0
 11
-169.6464
 21
370.3862
 31
0.0
  0
LINE
  5
79
100
AcDbEntity
  8
1
  6
CONTINUOUS
 62
     1
100
AcDbLine
 10
-171.4464
 20
370.9862
 30
0.0
 11
-171.4464
 21
371.5862
 31
0.0
  0
LINE
  5
7A
100
AcDbEntity
  8
1
  6
CONTINUOUS
 62
     1
100
AcDbLine
 10
-169.6464
 20
370.9862
 30
0.0
 11
-169.6464
 21
371.5862
 31
0.0
  0
ARC
  5
7B
100
AcDbEntity
  8
1
  6
CONTINUOUS
 62
     1
100
AcDbCircle
 10
-170.5464
 20
369.300018
 30
0.0
 40
0.907168
210
0.0
220
0.0
230
1.0
100
AcDbArc
 50
187.207633
 51
352.792367
  0
LINE
  5
7C
100
AcDbEntity
  8
1
  6
CONTINUOUS
 62
     1
100
AcDbLine
 10
-171.4464
 20
369.7862
 30
0.0
 11
-171.8707
 21
370.2105
 31
0.0
  0
LINE
  5
7D
100
AcDbEntity
  8
1
  6
CONTINUOUS
 62
     1
100
AcDbLine
 10
-171.4464
 20
369.7862
 30
0.0
 11
-171.8707
 21
369.3619
 31
0.0
  0
ARC
  5
7E
100
AcDbEntity
  8
1
  6
CONTINUOUS
 62
     1
100
AcDbCircle
 10
-169.250685
 20
369.7857
 30
0.0
 40
0.320131
210
0.0
220
0.0
230
1.0
100
AcDbArc
 50
255.192792
 51
104.807206
  0
ARC
  5
7F
100
AcDbEntity
  8
1
  6
CONTINUOUS
 62
     1
100
AcDbCircle
 10
-169.155803
 20
369.563428
 30
0.0
 40
0.56036
210
0.0
220
0.0
230
1.0
100
AcDbArc
 50
108.380642
 51
151.104706
  0
ARC
  5
80
100
AcDbEntity
  8
1
  6
CONTINUOUS
 62
     1
100
AcDbCircle
 10
-169.158485
 20
370.004745
 30
0.0
 40
0.556454
210
0.0
220
0.0
230
1.0
100
AcDbArc
 50
208.737914
 51
251.776731
  0
CIRCLE
  5
81
100
AcDbEntity
  8
1
  6
CONTINUOUS
 62
     1
100
AcDbCircle
 10
-170.5492
 20
365.6815
 30
0.0
 40
0.6
210
0.0
220
0.0
230
1.0
  0
CIRCLE
  5
82
100
AcDbEntity
  8
1
  6
CONTINUOUS
 62
     1
100
AcDbCircle
 10
-174.8555
 20
376.6986
 30
0.0
 40
1.05
210
0.0
220
0.0
230
1.0
  0
LINE
  5
83
100
AcDbEntity
  8
1
  6
CONTINUOUS
 62
     1
100
AcDbLine
 10
-173.7221
 20
376.6862
 30
0.0
 11
-168.1079
 21
374.2898
 31
0.0
  0
ARC
  5
84
100
AcDbEntity
  8
1
  6
CONTINUOUS
 62
     1
100
AcDbCircle
 10
-167.594272
 20
374.987626
 30
0.0
 40
0.866472
210
0.0
220
0.0
230
1.0
100
AcDbArc
 50
233.645436
 51
71.831822
  0
LINE
  5
85
100
AcDbEntity
  8
1
  6
CONTINUOUS
 62
     1
100
AcDbLine
 10
-176.5464
 20
378.0362
 30
0.0
 11
-177.7464
 21
378.0362
 31
0.0
  0
LINE
  5
86
100
AcDbEntity
  8
1
  6
CONTINUOUS
 62
     1
100
AcDbLine
 10
-176.5464
 20
375.3362
 30
0.0
 11
-177.7464
 21
375.3362
 31
0.0
  0
LINE
  5
87
100
AcDbEntity
  8
1
  6
CONTINUOUS
 62
     1
100
AcDbLine
 10
-176.5464
 20
378.0362
 30
0.0
 11
-176.5464
 21
375.3362
 31
0.0
  0
LINE
  5
88
100
AcDbEntity
  8
1
  6
CONTINUOUS
 62
     1
100
AcDbLine
 10
-176.5464
 20
377.4362
 30
0.0
 11
-177.7464
 21
377.4362
 31
0.0
  0
LINE
  5
89
100
AcDbEntity
  8
1
  6
CONTINUOUS
 62
     1
100
AcDbLine
 10
-176.5464
 20
375.9362
 30
0.0
 11
-177.7464
 21
375.9362
 31
0.0
  0
LINE
  5
8A
100
AcDbEntity
  8
1
  6
CONTINUOUS
 62
     1
100
AcDbLine
 10
-175.81
 20
377.1362
 30
0.0
 11
-176.5464
 21
377.1362
 31
0.0
  0
LINE
  5
8B
100
AcDbEntity
  8
1
  6
CONTINUOUS
 62
     1
100
AcDbLine
 10
-175.7982
 20
376.2362
 30
0.0
 11
-176.5464
 21
376.2362
 31
0.0
  0
CIRCLE
  5
8C
100
AcDbEntity
  8
1
  6
CONTINUOUS
 62
     1
100
AcDbCircle
 10
-174.848
 20
376.7306
 30
0.0
 40
0.626636
210
0.0
220
0.0
230
1.0
  0
LINE
  5
8D
100
AcDbEntity
  8
1
  6
CONTINUOUS
 62
     1
100
AcDbLine
 10
-186.7464
 20
378.3362
 30
0.0
 11
-187.9464
 21
378.3362
 31
0.0
  0
LINE
  5
8E
100
AcDbEntity
  8
1
  6
CONTINUOUS
 62
     1
100
AcDbLine
 10
-186.7464
 20
375.6362
 30
0.0
 11
-187.9464
 21
375.6362
 31
0.0
  0
LINE
  5
8F
100
AcDbEntity
  8
1
  6
CONTINUOUS
 62
     1
100
AcDbLine
 10
-186.7464
 20
378.3362
 30
0.0
 11
-186.7464
 21
375.6362
 31
0.0
  0
LINE
  5
90
100
AcDbEntity
  8
1
  6
CONTINUOUS
 62
     1
100
AcDbLine
 10
-186.7464
 20
377.7362
 30
0.0
 11
-187.9464
 21
377.7362
 31
0.0
  0
LINE
  5
91
100
AcDbEntity
  8
1
  6
CONTINUOUS
 62
     1
100
AcDbLine
 10
-186.7464
 20
376.2362
 30
0.0
 11
-187.9464
 21
376.2362
 31
0.0
  0
LINE
  5
92
100
AcDbEntity
  8
1
  6
CONTINUOUS
 62
     1
100
AcDbLine
 10
-192.8458
 20
378.3362
 30
0.0
 11
-191.6458
 21
378.3362
 31
0.0
  0
LINE
  5
93
100
AcDbEntity
  8
1
  6
CONTINUOUS
 62
     1
100
AcDbLine
 10
-192.8458
 20
375.6362
 30
0.0
 11
-191.6458
 21
375.6362
 31
0.0
  0
LINE
  5
94
100
AcDbEntity
  8
1
  6
CONTINUOUS
 62
     1
100
AcDbLine
 10
-192.8458
 20
378.3362
 30
0.0
 11
-192.8458
 21
375.6362
 31
0.0
  0
LINE
  5
95
100
AcDbEntity
  8
1
  6
CONTINUOUS
 62
     1
100
AcDbLine
 10
-192.8458
 20
377.7362
 30
0.0
 11
-191.6458
 21
377.7362
 31
0.0
  0
LINE
  5
96
100
AcDbEntity
  8
1
  6
CONTINUOUS
 62
     1
100
AcDbLine
 10
-192.8458
 20
376.2362
 30
0.0
 11
-191.6458
 21
376.2362
 31
0.0
  0
LINE
  5
97
100
AcDbEntity
  8
1
  6
CONTINUOUS
 62
     1
100
AcDbLine
 10
-187.9464
 20
377.4362
 30
0.0
 11
-191.6458
 21
377.4362
 31
0.0
  0
LINE
  5
98
100
AcDbEntity
  8
1
  6
CONTINUOUS
 62
     1
100
AcDbLine
 10
-192.8458
 20
377.4362
 30
0.0
 11
-195.2458
 21
377.4362
 31
0.0
  0
LINE
  5
99
100
AcDbEntity
  8
1
  6
CONTINUOUS
 62
     1
100
AcDbLine
 10
-187.9464
 20
376.5362
 30
0.0
 11
-191.6458
 21
376.5362
 31
0.0
  0
LINE
  5
9A
100
AcDbEntity
  8
1
  6
CONTINUOUS
 62
     1
100
AcDbLine
 10
-192.8458
 20
376.5362
 30
0.0
 11
-195.2458
 21
376.5362
 31
0.0
  0
LINE
  5
9B
100
AcDbEntity
  8
1
  6
CONTINUOUS
 62
     1
100
AcDbLine
 10
-195.2458
 20
377.4362
 30
0.0
 11
-195.2458
 21
376.5362
 31
0.0
  0
LINE
  5
9C
100
AcDbEntity
  8
1
  6
CONTINUOUS
 62
     5
100
AcDbLine
 10
-149.8488
 20
263.5862
 30
0.0
 11
-149.8488
 21
257.5862
 31
0.0
  0
LINE
  5
9D
100
AcDbEntity
  8
1
  6
CONTINUOUS
 62
     5
100
AcDbLine
 10
-149.8488
 20
257.5862
 30
0.0
 11
-140.2488
 21
257.5862
 31
0.0
  0
LINE
  5
9E
100
AcDbEntity
  8
1
  6
CONTINUOUS
 62
     5
100
AcDbLine
 10
-155.8488
 20
252.7862
 30
0.0
 11
-140.2488
 21
252.7862
 31
0.0
  0
LINE
  5
9F
100
AcDbEntity
  8
1
  6
CONTINUOUS
 62
     5
100
AcDbLine
 10
-155.8488
 20
252.7862
 30
0.0
 11
-155.8488
 21
263.5862
 31
0.0
  0
LWPOLYLINE
  5
A0
100
AcDbEntity
  8
1
  6
CONTINUOUS
 62
     5
100
AcDbPolyline
 90
       13
 70
     0
 10
-140.2488
 20
257.5862
 10
-140.1658
 20
256.9436
 10
-140.4104
 20
256.4217
 10
-140.1495
 20
255.9649
 10
-140.0027
 20
255.4103
 10
-140.1658
 20
254.8884
 10
-140.2147
 20
254.5621
 10
-140.3451
 20
254.2196
 10
-140.3778
 20
253.8607
 10
-140.2636
 20
253.616
 10
-140.2473
 20
253.3061
 10
-140.3451
 20
252.8657
 10
-140.2488
 20
252.7862
  0
LINE
  5
A1
100
AcDbEntity
  8
1
  6
CONTINUOUS
 62
     5
100
AcDbLine
 10
-59.3262
 20
263.5862
 30
0.0
 11
-59.3262
 21
257.5862
 31
0.0
  0
LINE
  5
A2
100
AcDbEntity
  8
1
  6
CONTINUOUS
 62
     5
100
AcDbLine
 10
-59.3262
 20
257.5862
 30
0.0
 11
-68.9262
 21
257.5862
 31
0.0
  0
LINE
  5
A3
100
AcDbEntity
  8
1
  6
CONTINUOUS
 62
     5
100
AcDbLine
 10
-53.3262
 20
252.7862
 30
0.0
 11
-68.9262
 21
252.7862
 31
0.0
  0
LINE
  5
A4
100
AcDbEntity
  8
1
  6
CONTINUOUS
 62
     5
100
AcDbLine
 10
-53.3262
 20
252.7862
 30
0.0
 11
-53.3262
 21
263.5862
 31
0.0
  0
LWPOLYLINE
  5
A5
100
AcDbEntity
  8
1
  6
CONTINUOUS
 62
     5
100
AcDbPolyline
 90
       13
 70
     0
 10
-68.9262
 20
257.5862
 10
-69.0092
 20
256.9436
 10
-68.7646
 20
256.4217
 10
-69.0255
 20
255.9649
 10
-69.1723
 20
255.4103
 10
-69.0092
 20
254.8884
 10
-68.9603
 20
254.5621
 10
-68.8299
 20
254.2196
 10
-68.7972
 20
253.8607
 10
-68.9114
 20
253.616
 10
-68.9277
 20
253.3061
 10
-68.8299
 20
252.8657
 10
-68.9262
 20
252.7862
  0
LWPOLYLINE
  5
A6
100
AcDbEntity
  8
1
  6
CONTINUOUS
 62
     7
100
AcDbPolyline
 90
        4
 70
     0
 10
-151.6986
 20
261.7013
 10
-152.5775
 20
261.0343
 10
-151.6077
 20
260.5189
 10
-151.8198
 20
261.8225
  0
LWPOLYLINE
  5
A7
100
AcDbEntity
  8
1
  6
CONTINUOUS
 62
     7
100
AcDbPolyline
 90
        4
 70
     0
 10
-152.1532
 20
258.6089
 10
-152.3654
 20
257.0627
 10
-151.4258
 20
257.093
 10
-152.1532
 20
258.6089
  0
LWPOLYLINE
  5
A8
100
AcDbEntity
  8
1
  6
CONTINUOUS
 62
     7
100
AcDbPolyline
 90
        4
 70
     0
 10
-149.0921
 20
255.0314
 10
-150.8803
 20
254.2431
 10
-149.183
 20
254.1219
 10
-149.0921
 20
255.0011
  0
LWPOLYLINE
  5
A9
100
AcDbEntity
  8
1
  6
CONTINUOUS
 62
     7
100
AcDbPolyline
 90
        4
 70
     0
 10
-144.455
 20
255.9106
 10
-145.243
 20
255.1527
 10
-144.1217
 20
254.8192
 10
-144.5157
 20
255.8803
  0
CIRCLE
  5
AA
100
AcDbEntity
  8
1
  6
CONTINUOUS
 62
     7
100
AcDbCircle
 10
-153.6686
 20
255.8196
 30
0.0
 40
0.067753
210
0.0
220
0.0
230
1.0
  0
CIRCLE
  5
AB
100
AcDbEntity
  8
1
  6
CONTINUOUS
 62
     7
100
AcDbCircle
 10
-154.305
 20
259.7912
 30
0.0
 40
0.067753
210
0.0
220
0.0
230
1.0
  0
CIRCLE
  5
AC
100
AcDbEntity
  8
1
  6
CONTINUOUS
 62
     7
100
AcDbCircle
 10
-152.0926
 20
259.7912
 30
0.0
 40
0.067753
210
0.0
220
0.0
230
1.0
  0
CIRCLE
  5
AD
100
AcDbEntity
  8
1
  6
CONTINUOUS
 62
     7
100
AcDbCircle
 10
-150.5166
 20
257.9418
 30
0.0
 40
0.067753
210
0.0
220
0.0
230
1.0
  0
CIRCLE
  5
AE
100
AcDbEntity
  8
1
  6
CONTINUOUS
 62
     7
100
AcDbCircle
 10
-149.6983
 20
256.0015
 30
0.0
 40
0.067753
210
0.0
220
0.0
230
1.0
  0
CIRCLE
  5
AF
100
AcDbEntity
  8
1
  6
CONTINUOUS
 62
     7
100
AcDbCircle
 10
-147.5161
 20
256.4562
 30
0.0
 40
0.067753
210
0.0
220
0.0
230
1.0
  0
CIRCLE
  5
B0
100
AcDbEntity
  8
1
  6
CONTINUOUS
 62
     7
100
AcDbCircle
 10
-145.1521
 20
256.0015
 30
0.0
 40
0.067753
210
0.0
220
0.0
230
1.0
  0
CIRCLE
  5
B1
100
AcDbEntity
  8
1
  6
CONTINUOUS
 62
     7
100
AcDbCircle
 10
-146.031
 20
254.5765
 30
0.0
 40
0.067753
210
0.0
220
0.0
230
1.0
  0
CIRCLE
  5
B2
100
AcDbEntity
  8
1
  6
CONTINUOUS
 62
     7
100
AcDbCircle
 10
-144.849
 20
253.5154
 30
0.0
 40
0.067753
210
0.0
220
0.0
230
1.0
  0
CIRCLE
  5
B3
100
AcDbEntity
  8
1
  6
CONTINUOUS
 62
     7
100
AcDbCircle
 10
-140.9393
 20
254.8191
 30
0.0
 40
0.067753
210
0.0
220
0.0
230
1.0
  0
CIRCLE
  5
B4
100
AcDbEntity
  8
1
  6
CONTINUOUS
 62
     7
100
AcDbCircle
 10
-141.394
 20
256.1531
 30
0.0
 40
0.067753
210
0.0
220
0.0
230
1.0
  0
CIRCLE
  5
B5
100
AcDbEntity
  8
1
  6
CONTINUOUS
 62
     7
100
AcDbCircle
 10
-142.2426
 20
256.911
 30
0.0
 40
0.067753
210
0.0
220
0.0
230
1.0
  0
CIRCLE
  5
B6
100
AcDbEntity
  8
1
  6
CONTINUOUS
 62
     7
100
AcDbCircle
 10
-142.6972
 20
255.4254
 30
0.0
 40
0.067753
210
0.0
220
0.0
230
1.0
  0
CIRCLE
  5
B7
100
AcDbEntity
  8
1
  6
CONTINUOUS
 62
     7
100
AcDbCircle
 10
-142.0304
 20
254.0915
 30
0.0
 40
0.067753
210
0.0
220
0.0
230
1.0
  0
CIRCLE
  5
B8
100
AcDbEntity
  8
1
  6
CONTINUOUS
 62
     7
100
AcDbCircle
 10
-152.6078
 20
253.667
 30
0.0
 40
0.067753
210
0.0
220
0.0
230
1.0
  0
CIRCLE
  5
B9
100
AcDbEntity
  8
1
  6
CONTINUOUS
 62
     7
100
AcDbCircle
 10
-153.9717
 20
253.9399
 30
0.0
 40
0.067753
210
0.0
220
0.0
230
1.0
  0
CIRCLE
  5
BA
100
AcDbEntity
  8
1
  6
CONTINUOUS
 62
     7
100
AcDbCircle
 10
-154.6687
 20
255.4558
 30
0.0
 40
0.067753
210
0.0
220
0.0
230
1.0
  0
CIRCLE
  5
BB
100
AcDbEntity
  8
1
  6
CONTINUOUS
 62
     7
100
AcDbCircle
 10
-154.6384
 20
256.8807
 30
0.0
 40
0.067753
210
0.0
220
0.0
230
1.0
  0
CIRCLE
  5
BC
100
AcDbEntity
  8
1
  6
CONTINUOUS
 62
     7
100
AcDbCircle
 10
-154.7597
 20
258.3359
 30
0.0
 40
0.067753
210
0.0
220
0.0
230
1.0
  0
CIRCLE
  5
BD
100
AcDbEntity
  8
1
  6
CONTINUOUS
 62
     7
100
AcDbCircle
 10
-155.0021
 20
260.064
 30
0.0
 40
0.067753
210
0.0
220
0.0
230
1.0
  0
CIRCLE
  5
BE
100
AcDbEntity
  8
1
  6
CONTINUOUS
 62
     7
100
AcDbCircle
 10
-154.9415
 20
261.9134
 30
0.0
 40
0.067753
210
0.0
220
0.0
230
1.0
  0
CIRCLE
  5
BF
100
AcDbEntity
  8
1
  6
CONTINUOUS
 62
     7
100
AcDbCircle
 10
-153.0927
 20
262.641
 30
0.0
 40
0.067753
210
0.0
220
0.0
230
1.0
  0
CIRCLE
  5
C0
100
AcDbEntity
  8
1
  6
CONTINUOUS
 62
     7
100
AcDbCircle
 10
-151.0621
 20
262.6714
 30
0.0
 40
0.067753
210
0.0
220
0.0
230
1.0
  0
CIRCLE
  5
C1
100
AcDbEntity
  8
1
  6
CONTINUOUS
 62
     7
100
AcDbCircle
 10
-150.4257
 20
262.5198
 30
0.0
 40
0.067753
210
0.0
220
0.0
230
1.0
  0
CIRCLE
  5
C2
100
AcDbEntity
  8
1
  6
CONTINUOUS
 62
     7
100
AcDbCircle
 10
-151.1227
 20
259.8215
 30
0.0
 40
0.067753
210
0.0
220
0.0
230
1.0
  0
CIRCLE
  5
C3
100
AcDbEntity
  8
1
  6
CONTINUOUS
 62
     7
100
AcDbCircle
 10
-152.032
 20
259.4577
 30
0.0
 40
0.067753
210
0.0
220
0.0
230
1.0
  0
CIRCLE
  5
C4
100
AcDbEntity
  8
1
  6
CONTINUOUS
 62
     7
100
AcDbCircle
 10
-153.4261
 20
258.7604
 30
0.0
 40
0.067753
210
0.0
220
0.0
230
1.0
  0
CIRCLE
  5
C5
100
AcDbEntity
  8
1
  6
CONTINUOUS
 62
     7
100
AcDbCircle
 10
-153.9414
 20
256.9413
 30
0.0
 40
0.067753
210
0.0
220
0.0
230
1.0
  0
CIRCLE
  5
C6
100
AcDbEntity
  8
1
  6
CONTINUOUS
 62
     7
100
AcDbCircle
 10
-151.0621
 20
255.6377
 30
0.0
 40
0.067753
210
0.0
220
0.0
230
1.0
  0
CIRCLE
  5
C7
100
AcDbEntity
  8
1
  6
CONTINUOUS
 62
     7
100
AcDbCircle
 10
-149.971
 20
255.7286
 30
0.0
 40
0.067753
210
0.0
220
0.0
230
1.0
  0
CIRCLE
  5
C8
100
AcDbEntity
  8
1
  6
CONTINUOUS
 62
     7
100
AcDbCircle
 10
-147.2433
 20
255.6377
 30
0.0
 40
0.067753
210
0.0
220
0.0
230
1.0
  0
CIRCLE
  5
C9
100
AcDbEntity
  8
1
  6
CONTINUOUS
 62
     7
100
AcDbCircle
 10
-146.5463
 20
254.2127
 30
0.0
 40
0.067753
210
0.0
220
0.0
230
1.0
  0
CIRCLE
  5
CA
100
AcDbEntity
  8
1
  6
CONTINUOUS
 62
     7
100
AcDbCircle
 10
-147.4252
 20
253.9702
 30
0.0
 40
0.067753
210
0.0
220
0.0
230
1.0
  0
CIRCLE
  5
CB
100
AcDbEntity
  8
1
  6
CONTINUOUS
 62
     7
100
AcDbCircle
 10
-147.9707
 20
253.4548
 30
0.0
 40
0.067753
210
0.0
220
0.0
230
1.0
  0
CIRCLE
  5
CC
100
AcDbEntity
  8
1
  6
CONTINUOUS
 62
     7
100
AcDbCircle
 10
-144.8187
 20
253.667
 30
0.0
 40
0.067753
210
0.0
220
0.0
230
1.0
  0
CIRCLE
  5
CD
100
AcDbEntity
  8
1
  6
CONTINUOUS
 62
     7
100
AcDbCircle
 10
-141.6667
 20
254.2734
 30
0.0
 40
0.067753
210
0.0
220
0.0
230
1.0
  0
CIRCLE
  5
CE
100
AcDbEntity
  8
1
  6
CONTINUOUS
 62
     7
100
AcDbCircle
 10
-140.9393
 20
254.0308
 30
0.0
 40
0.067753
210
0.0
220
0.0
230
1.0
  0
CIRCLE
  5
CF
100
AcDbEntity
  8
1
  6
CONTINUOUS
 62
     7
100
AcDbCircle
 10
-141.697
 20
255.5467
 30
0.0
 40
0.067753
210
0.0
220
0.0
230
1.0
  0
CIRCLE
  5
D0
100
AcDbEntity
  8
1
  6
CONTINUOUS
 62
     7
100
AcDbCircle
 10
-143.6064
 20
256.244
 30
0.0
 40
0.067753
210
0.0
220
0.0
230
1.0
  0
CIRCLE
  5
D1
100
AcDbEntity
  8
1
  6
CONTINUOUS
 62
     7
100
AcDbCircle
 10
-145.9098
 20
256.4562
 30
0.0
 40
0.067753
210
0.0
220
0.0
230
1.0
  0
CIRCLE
  5
D2
100
AcDbEntity
  8
1
  6
CONTINUOUS
 62
     7
100
AcDbCircle
 10
-148.2132
 20
255.577
 30
0.0
 40
0.067753
210
0.0
220
0.0
230
1.0
  0
CIRCLE
  5
D3
100
AcDbEntity
  8
1
  6
CONTINUOUS
 62
     7
100
AcDbCircle
 10
-152.0926
 20
255.9712
 30
0.0
 40
0.067753
210
0.0
220
0.0
230
1.0
  0
CIRCLE
  5
D4
100
AcDbEntity
  8
1
  6
CONTINUOUS
 62
     7
100
AcDbCircle
 10
-151.941
 20
254.8191
 30
0.0
 40
0.067753
210
0.0
220
0.0
230
1.0
  0
CIRCLE
  5
D5
100
AcDbEntity
  8
1
  6
CONTINUOUS
 62
     7
100
AcDbCircle
 10
-151.4258
 20
256.4866
 30
0.0
 40
0.067753
210
0.0
220
0.0
230
1.0
  0
CIRCLE
  5
D6
100
AcDbEntity
  8
1
  6
CONTINUOUS
 62
     7
100
AcDbCircle
 10
-153.4564
 20
261.489
 30
0.0
 40
0.067753
210
0.0
220
0.0
230
1.0
  0
CIRCLE
  5
D7
100
AcDbEntity
  8
1
  6
CONTINUOUS
 62
     7
100
AcDbCircle
 10
-154.3657
 20
262.4591
 30
0.0
 40
0.067753
210
0.0
220
0.0
230
1.0
  0
CIRCLE
  5
D8
100
AcDbEntity
  8
1
  6
CONTINUOUS
 62
     7
100
AcDbCircle
 10
-155.3355
 20
261.8225
 30
0.0
 40
0.067753
210
0.0
220
0.0
230
1.0
  0
CIRCLE
  5
D9
100
AcDbEntity
  8
1
  6
CONTINUOUS
 62
     7
100
AcDbCircle
 10
-154.6081
 20
255.8499
 30
0.0
 40
0.067753
210
0.0
220
0.0
230
1.0
  0
CIRCLE
  5
DA
100
AcDbEntity
  8
1
  6
CONTINUOUS
 62
     7
100
AcDbCircle
 10
-155.193
 20
254.26
 30
0.0
 40
0.067753
210
0.0
220
0.0
230
1.0
  0
CIRCLE
  5
DB
100
AcDbEntity
  8
1
  6
CONTINUOUS
 62
     7
100
AcDbCircle
 10
-154.2833
 20
253.0563
 30
0.0
 40
0.067753
210
0.0
220
0.0
230
1.0
  0
CIRCLE
  5
DC
100
AcDbEntity
  8
1
  6
CONTINUOUS
 62
     7
100
AcDbCircle
 10
-146.9403
 20
253.3638
 30
0.0
 40
0.067753
210
0.0
220
0.0
230
1.0
  0
CIRCLE
  5
DD
100
AcDbEntity
  8
1
  6
CONTINUOUS
 62
     7
100
AcDbCircle
 10
-141.6364
 20
254.243
 30
0.0
 40
0.067753
210
0.0
220
0.0
230
1.0
  0
CIRCLE
  5
DE
100
AcDbEntity
  8
1
  6
CONTINUOUS
 62
     7
100
AcDbCircle
 10
-142.7578
 20
253.3335
 30
0.0
 40
0.067753
210
0.0
220
0.0
230
1.0
  0
CIRCLE
  5
DF
100
AcDbEntity
  8
1
  6
CONTINUOUS
 62
     7
100
AcDbCircle
 10
-150.9712
 20
253.5761
 30
0.0
 40
0.067753
210
0.0
220
0.0
230
1.0
  0
CIRCLE
  5
E0
100
AcDbEntity
  8
1
  6
CONTINUOUS
 62
     7
100
AcDbCircle
 10
-141.1212
 20
253.8792
 30
0.0
 40
0.067753
210
0.0
220
0.0
230
1.0
  0
LWPOLYLINE
  5
E1
100
AcDbEntity
  8
1
  6
CONTINUOUS
 62
     7
100
AcDbPolyline
 90
        4
 70
     0
 10
-55.6924
 20
261.7013
 10
-56.5713
 20
261.0343
 10
-55.6015
 20
260.5189
 10
-55.8136
 20
261.8225
  0
LWPOLYLINE
  5
E2
100
AcDbEntity
  8
1
  6
CONTINUOUS
 62
     7
100
AcDbPolyline
 90
        4
 70
     0
 10
-56.5393
 20
256.5489
 10
-56.7515
 20
255.0027
 10
-55.8119
 20
255.033
 10
-56.5393
 20
256.5489
  0
LWPOLYLINE
  5
E3
100
AcDbEntity
  8
1
  6
CONTINUOUS
 62
     7
100
AcDbPolyline
 90
        4
 70
     0
 10
-61.8838
 20
255.6163
 10
-62.6718
 20
254.8584
 10
-61.5505
 20
254.5249
 10
-61.9445
 20
255.586
  0
LWPOLYLINE
  5
E4
100
AcDbEntity
  8
1
  6
CONTINUOUS
 62
     7
100
AcDbPolyline
 90
        4
 70
     0
 10
-65.8344
 20
256.0124
 10
-67.6226
 20
255.2241
 10
-65.9253
 20
255.1029
 10
-65.8344
 20
255.9821
  0
CIRCLE
  5
E5
100
AcDbEntity
  8
1
  6
CONTINUOUS
 62
     7
100
AcDbCircle
 10
-59.5372
 20
255.1651
 30
0.0
 40
0.067753
210
0.0
220
0.0
230
1.0
  0
CIRCLE
  5
E6
100
AcDbEntity
  8
1
  6
CONTINUOUS
 62
     7
100
AcDbCircle
 10
-62.3402
 20
256.3792
 30
0.0
 40
0.067753
210
0.0
220
0.0
230
1.0
  0
CIRCLE
  5
E7
100
AcDbEntity
  8
1
  6
CONTINUOUS
 62
     7
100
AcDbCircle
 10
-64.6231
 20
256.3792
 30
0.0
 40
0.067753
210
0.0
220
0.0
230
1.0
  0
CIRCLE
  5
E8
100
AcDbEntity
  8
1
  6
CONTINUOUS
 62
     7
100
AcDbCircle
 10
-64.7098
 20
254.1823
 30
0.0
 40
0.067753
210
0.0
220
0.0
230
1.0
  0
CIRCLE
  5
E9
100
AcDbEntity
  8
1
  6
CONTINUOUS
 62
     7
100
AcDbCircle
 10
-64.3919
 20
253.6331
 30
0.0
 40
0.067753
210
0.0
220
0.0
230
1.0
  0
CIRCLE
  5
EA
100
AcDbEntity
  8
1
  6
CONTINUOUS
 62
     7
100
AcDbCircle
 10
-67.5129
 20
253.2862
 30
0.0
 40
0.067753
210
0.0
220
0.0
230
1.0
  0
CIRCLE
  5
EB
100
AcDbEntity
  8
1
  6
CONTINUOUS
 62
     7
100
AcDbCircle
 10
-68.4376
 20
253.8932
 30
0.0
 40
0.067753
210
0.0
220
0.0
230
1.0
  0
CIRCLE
  5
EC
100
AcDbEntity
  8
1
  6
CONTINUOUS
 62
     7
100
AcDbCircle
 10
-68.4954
 20
255.83
 30
0.0
 40
0.067753
210
0.0
220
0.0
230
1.0
  0
CIRCLE
  5
ED
100
AcDbEntity
  8
1
  6
CONTINUOUS
 62
     7
100
AcDbCircle
 10
-67.5707
 20
256.6972
 30
0.0
 40
0.067753
210
0.0
220
0.0
230
1.0
  0
CIRCLE
  5
EE
100
AcDbEntity
  8
1
  6
CONTINUOUS
 62
     7
100
AcDbCircle
 10
-63.4383
 20
255.4253
 30
0.0
 40
0.067753
210
0.0
220
0.0
230
1.0
  0
CIRCLE
  5
EF
100
AcDbEntity
  8
1
  6
CONTINUOUS
 62
     7
100
AcDbCircle
 10
-62.7737
 20
253.662
 30
0.0
 40
0.067753
210
0.0
220
0.0
230
1.0
  0
CIRCLE
  5
F0
100
AcDbEntity
  8
1
  6
CONTINUOUS
 62
     7
100
AcDbCircle
 10
-60.0573
 20
253.4307
 30
0.0
 40
0.067753
210
0.0
220
0.0
230
1.0
  0
CIRCLE
  5
F1
100
AcDbEntity
  8
1
  6
CONTINUOUS
 62
     7
100
AcDbCircle
 10
-57.9767
 20
254.4425
 30
0.0
 40
0.067753
210
0.0
220
0.0
230
1.0
  0
CIRCLE
  5
F2
100
AcDbEntity
  8
1
  6
CONTINUOUS
 62
     7
100
AcDbCircle
 10
-58.1501
 20
256.2347
 30
0.0
 40
0.067753
210
0.0
220
0.0
230
1.0
  0
CIRCLE
  5
F3
100
AcDbEntity
  8
1
  6
CONTINUOUS
 62
     7
100
AcDbCircle
 10
-57.3121
 20
257.6511
 30
0.0
 40
0.067753
210
0.0
220
0.0
230
1.0
  0
CIRCLE
  5
F4
100
AcDbEntity
  8
1
  6
CONTINUOUS
 62
     7
100
AcDbCircle
 10
-55.8383
 20
258.8363
 30
0.0
 40
0.067753
210
0.0
220
0.0
230
1.0
  0
CIRCLE
  5
F5
100
AcDbEntity
  8
1
  6
CONTINUOUS
 62
     7
100
AcDbCircle
 10
-55.2892
 20
258.8074
 30
0.0
 40
0.067753
210
0.0
220
0.0
230
1.0
  0
CIRCLE
  5
F6
100
AcDbEntity
  8
1
  6
CONTINUOUS
 62
     7
100
AcDbCircle
 10
-57.2543
 20
258.8941
 30
0.0
 40
0.067753
210
0.0
220
0.0
230
1.0
  0
CIRCLE
  5
F7
100
AcDbEntity
  8
1
  6
CONTINUOUS
 62
     7
100
AcDbCircle
 10
-58.1501
 20
260.2817
 30
0.0
 40
0.067753
210
0.0
220
0.0
230
1.0
  0
CIRCLE
  5
F8
100
AcDbEntity
  8
1
  6
CONTINUOUS
 62
     7
100
AcDbCircle
 10
-58.5836
 20
261.6403
 30
0.0
 40
0.067753
210
0.0
220
0.0
230
1.0
  0
CIRCLE
  5
F9
100
AcDbEntity
  8
1
  6
CONTINUOUS
 62
     7
100
AcDbCircle
 10
-57.4855
 20
262.9122
 30
0.0
 40
0.067753
210
0.0
220
0.0
230
1.0
  0
CIRCLE
  5
FA
100
AcDbEntity
  8
1
  6
CONTINUOUS
 62
     7
100
AcDbCircle
 10
-55.8672
 20
262.8833
 30
0.0
 40
0.067753
210
0.0
220
0.0
230
1.0
  0
CIRCLE
  5
FB
100
AcDbEntity
  8
1
  6
CONTINUOUS
 62
     7
100
AcDbCircle
 10
-53.9889
 20
262.3051
 30
0.0
 40
0.067753
210
0.0
220
0.0
230
1.0
  0
CIRCLE
  5
FC
100
AcDbEntity
  8
1
  6
CONTINUOUS
 62
     7
100
AcDbCircle
 10
-53.5843
 20
260.8598
 30
0.0
 40
0.067753
210
0.0
220
0.0
230
1.0
  0
CIRCLE
  5
FD
100
AcDbEntity
  8
1
  6
CONTINUOUS
 62
     7
100
AcDbCircle
 10
-54.4801
 20
259.4434
 30
0.0
 40
0.067753
210
0.0
220
0.0
230
1.0
  0
CIRCLE
  5
FE
100
AcDbEntity
  8
1
  6
CONTINUOUS
 62
     7
100
AcDbCircle
 10
-54.8558
 20
256.9574
 30
0.0
 40
0.067753
210
0.0
220
0.0
230
1.0
  0
CIRCLE
  5
FF
100
AcDbEntity
  8
1
  6
CONTINUOUS
 62
     7
100
AcDbCircle
 10
-55.0292
 20
255.1362
 30
0.0
 40
0.067753
210
0.0
220
0.0
230
1.0
  0
CIRCLE
  5
100
100
AcDbEntity
  8
1
  6
CONTINUOUS
 62
     7
100
AcDbCircle
 10
-56.5318
 20
256.5238
 30
0.0
 40
0.067753
210
0.0
220
0.0
230
1.0
  0
CIRCLE
  5
101
100
AcDbEntity
  8
1
  6
CONTINUOUS
 62
     7
100
AcDbCircle
 10
-53.6999
 20
253.7487
 30
0.0
 40
0.067753
210
0.0
220
0.0
230
1.0
  0
CIRCLE
  5
102
100
AcDbEntity
  8
1
  6
CONTINUOUS
 62
     7
100
AcDbCircle
 10
-53.8155
 20
253.5175
 30
0.0
 40
0.067753
210
0.0
220
0.0
230
1.0
  0
CIRCLE
  5
103
100
AcDbEntity
  8
1
  6
CONTINUOUS
 62
     7
100
AcDbCircle
 10
-55.4915
 20
253.5175
 30
0.0
 40
0.067753
210
0.0
220
0.0
230
1.0
  0
CIRCLE
  5
104
100
AcDbEntity
  8
1
  6
CONTINUOUS
 62
     7
100
AcDbCircle
 10
-57.3988
 20
253.98
 30
0.0
 40
0.067753
210
0.0
220
0.0
230
1.0
  0
CIRCLE
  5
105
100
AcDbEntity
  8
1
  6
CONTINUOUS
 62
     7
100
AcDbCircle
 10
-59.5372
 20
255.9456
 30
0.0
 40
0.067753
210
0.0
220
0.0
230
1.0
  0
CIRCLE
  5
106
100
AcDbEntity
  8
1
  6
CONTINUOUS
 62
     7
100
AcDbCircle
 10
-61.5022
 20
255.6855
 30
0.0
 40
0.067753
210
0.0
220
0.0
230
1.0
  0
CIRCLE
  5
107
100
AcDbEntity
  8
1
  6
CONTINUOUS
 62
     7
100
AcDbCircle
 10
-60.722
 20
256.8417
 30
0.0
 40
0.067753
210
0.0
220
0.0
230
1.0
  0
CIRCLE
  5
108
100
AcDbEntity
  8
1
  6
CONTINUOUS
 62
     7
100
AcDbCircle
 10
-63.6695
 20
256.0902
 30
0.0
 40
0.067753
210
0.0
220
0.0
230
1.0
  0
CIRCLE
  5
109
100
AcDbEntity
  8
1
  6
CONTINUOUS
 62
     7
100
AcDbCircle
 10
-66.068
 20
256.0323
 30
0.0
 40
0.067753
210
0.0
220
0.0
230
1.0
  0
CIRCLE
  5
10A
100
AcDbEntity
  8
1
  6
CONTINUOUS
 62
     7
100
AcDbCircle
 10
-65.7212
 20
253.8065
 30
0.0
 40
0.067753
210
0.0
220
0.0
230
1.0
  0
CIRCLE
  5
10B
100
AcDbEntity
  8
1
  6
CONTINUOUS
 62
     7
100
AcDbCircle
 10
-66.7037
 20
253.8065
 30
0.0
 40
0.067753
210
0.0
220
0.0
230
1.0
  0
LWPOLYLINE
  5
10C
100
AcDbEntity
  8
1
  6
CONTINUOUS
 62
     7
100
AcDbPolyline
 90
        4
 70
     0
 10
-224.745
 20
263.1482
 10
-225.8618
 20
262.0311
 10
-227.0584
 20
260.1159
 10
-227.6168
 20
258.9988
  0
LWPOLYLINE
  5
10D
100
AcDbEntity
  8
1
  6
CONTINUOUS
 62
     7
100
AcDbPolyline
 90
        5
 70
     0
 10
-223.2293
 20
262.5099
 10
-224.5855
 20
261.4725
 10
-224.9843
 20
260.3553
 10
-225.6225
 20
259.3978
 10
-226.0213
 20
259.1584
  0
LWPOLYLINE
  5
10E
100
AcDbEntity
  8
1
  6
CONTINUOUS
 62
     7
100
AcDbPolyline
 90
        5
 70
     0
 10
-222.0328
 20
261.4725
 10
-223.9473
 20
259.8765
 10
-224.1068
 20
258.7594
 10
-224.5057
 20
257.5624
 10
-225.3832
 20
256.8442
  0
LWPOLYLINE
  5
10F
100
AcDbEntity
  8
1
  6
CONTINUOUS
 62
     7
100
AcDbPolyline
 90
        4
 70
     0
 10
-222.5114
 20
260.7543
 10
-221.0755
 20
259.3978
 10
-219.7194
 20
258.2806
 10
-217.9644
 20
257.0038
  0
LWPOLYLINE
  5
110
100
AcDbEntity
  8
1
  6
CONTINUOUS
 62
     7
100
AcDbPolyline
 90
        5
 70
     0
 10
-223.9473
 20
258.9988
 10
-222.5912
 20
257.2432
 10
-220.7564
 20
256.924
 10
-218.6823
 20
255.8069
 10
-218.6026
 20
255.5675
  0
LWPOLYLINE
  5
111
100
AcDbEntity
  8
1
  6
CONTINUOUS
 62
     7
100
AcDbPolyline
 90
        3
 70
     0
 10
-224.5855
 20
257.0038
 10
-221.3148
 20
254.9291
 10
-220.7564
 20
254.6099
  0
LWPOLYLINE
  5
112
100
AcDbEntity
  8
1
  6
CONTINUOUS
 62
     7
100
AcDbPolyline
 90
        4
 70
     0
 10
-216.3691
 20
263.228
 10
-217.4859
 20
262.1109
 10
-218.6825
 20
260.1957
 10
-219.2409
 20
259.0786
  0
LWPOLYLINE
  5
113
100
AcDbEntity
  8
1
  6
CONTINUOUS
 62
     7
100
AcDbPolyline
 90
        5
 70
     0
 10
-214.8534
 20
262.5897
 10
-216.2096
 20
261.5523
 10
-216.6084
 20
260.4351
 10
-217.2466
 20
259.4776
 10
-217.6454
 20
259.2382
  0
LWPOLYLINE
  5
114
100
AcDbEntity
  8
1
  6
CONTINUOUS
 62
     7
100
AcDbPolyline
 90
        5
 70
     0
 10
-213.6569
 20
261.5523
 10
-215.5714
 20
259.9563
 10
-215.7309
 20
258.8392
 10
-216.1298
 20
257.6422
 10
-217.0073
 20
256.924
  0
LWPOLYLINE
  5
115
100
AcDbEntity
  8
1
  6
CONTINUOUS
 62
     7
100
AcDbPolyline
 90
        4
 70
     0
 10
-214.1355
 20
260.8341
 10
-212.6996
 20
259.4776
 10
-211.3435
 20
258.3604
 10
-209.5885
 20
257.0836
  0
LWPOLYLINE
  5
116
100
AcDbEntity
  8
1
  6
CONTINUOUS
 62
     7
100
AcDbPolyline
 90
        5
 70
     0
 10
-215.5714
 20
259.0786
 10
-214.2153
 20
257.323
 10
-212.3805
 20
257.0038
 10
-210.3064
 20
255.8867
 10
-210.2267
 20
255.6473
  0
LWPOLYLINE
  5
117
100
AcDbEntity
  8
1
  6
CONTINUOUS
 62
     7
100
AcDbPolyline
 90
        3
 70
     0
 10
-216.2096
 20
257.0836
 10
-212.9389
 20
255.0089
 10
-212.3805
 20
254.6897
  0
LWPOLYLINE
  5
118
100
AcDbEntity
  8
1
  6
CONTINUOUS
 62
     7
100
AcDbPolyline
 90
        4
 70
     0
 10
-207.275
 20
262.9886
 10
-208.3918
 20
261.8715
 10
-209.5884
 20
259.9563
 10
-210.1468
 20
258.8392
  0
LWPOLYLINE
  5
119
100
AcDbEntity
  8
1
  6
CONTINUOUS
 62
     7
100
AcDbPolyline
 90
        5
 70
     0
 10
-205.7593
 20
262.3503
 10
-207.1155
 20
261.3129
 10
-207.5143
 20
260.1957
 10
-208.1525
 20
259.2382
 10
-208.5513
 20
258.9988
  0
LWPOLYLINE
  5
11A
100
AcDbEntity
  8
1
  6
CONTINUOUS
 62
     7
100
AcDbPolyline
 90
        5
 70
     0
 10
-204.5628
 20
261.3129
 10
-206.4773
 20
259.7169
 10
-206.6368
 20
258.5998
 10
-207.0357
 20
257.4028
 10
-207.9132
 20
256.6846
  0
LWPOLYLINE
  5
11B
100
AcDbEntity
  8
1
  6
CONTINUOUS
 62
     7
100
AcDbPolyline
 90
        4
 70
     0
 10
-205.0414
 20
260.5947
 10
-203.6055
 20
259.2382
 10
-202.2494
 20
258.121
 10
-200.4944
 20
256.8442
  0
LWPOLYLINE
  5
11C
100
AcDbEntity
  8
1
  6
CONTINUOUS
 62
     7
100
AcDbPolyline
 90
        5
 70
     0
 10
-206.4773
 20
258.8392
 10
-205.1212
 20
257.0836
 10
-203.2864
 20
256.7644
 10
-201.2123
 20
255.6473
 10
-201.1326
 20
255.4079
  0
LWPOLYLINE
  5
11D
100
AcDbEntity
  8
1
  6
CONTINUOUS
 62
     7
100
AcDbPolyline
 90
        3
 70
     0
 10
-207.1155
 20
256.8442
 10
-203.8448
 20
254.7695
 10
-203.2864
 20
254.4503
  0
LWPOLYLINE
  5
11E
100
AcDbEntity
  8
1
  6
CONTINUOUS
 62
     7
100
AcDbPolyline
 90
        4
 70
     0
 10
-178.7166
 20
262.9886
 10
-179.8334
 20
261.8715
 10
-181.03
 20
259.9563
 10
-181.5884
 20
258.8392
  0
LWPOLYLINE
  5
11F
100
AcDbEntity
  8
1
  6
CONTINUOUS
 62
     7
100
AcDbPolyline
 90
        5
 70
     0
 10
-177.2009
 20
262.3503
 10
-178.5571
 20
261.3129
 10
-178.9559
 20
260.1957
 10
-179.5941
 20
259.2382
 10
-179.9929
 20
258.9988
  0
LWPOLYLINE
  5
120
100
AcDbEntity
  8
1
  6
CONTINUOUS
 62
     7
100
AcDbPolyline
 90
        5
 70
     0
 10
-176.0044
 20
261.3129
 10
-177.9189
 20
259.7169
 10
-178.0784
 20
258.5998
 10
-178.4773
 20
257.4028
 10
-179.3548
 20
256.6846
  0
LWPOLYLINE
  5
121
100
AcDbEntity
  8
1
  6
CONTINUOUS
 62
     7
100
AcDbPolyline
 90
        4
 70
     0
 10
-176.483
 20
260.5947
 10
-175.0471
 20
259.2382
 10
-173.691
 20
258.121
 10
-171.936
 20
256.8442
  0
LWPOLYLINE
  5
122
100
AcDbEntity
  8
1
  6
CONTINUOUS
 62
     7
100
AcDbPolyline
 90
        5
 70
     0
 10
-177.9189
 20
258.8392
 10
-176.5628
 20
257.0836
 10
-174.728
 20
256.7644
 10
-172.6539
 20
255.6473
 10
-172.5742
 20
255.4079
  0
LWPOLYLINE
  5
123
100
AcDbEntity
  8
1
  6
CONTINUOUS
 62
     7
100
AcDbPolyline
 90
        3
 70
     0
 10
-178.5571
 20
256.8442
 10
-175.2864
 20
254.7695
 10
-174.728
 20
254.4503
  0
LWPOLYLINE
  5
124
100
AcDbEntity
  8
1
  6
CONTINUOUS
 62
     7
100
AcDbPolyline
 90
        4
 70
     0
 10
-170.8991
 20
262.5098
 10
-172.0159
 20
261.3927
 10
-173.2125
 20
259.4775
 10
-173.7709
 20
258.3604
  0
LWPOLYLINE
  5
125
100
AcDbEntity
  8
1
  6
CONTINUOUS
 62
     7
100
AcDbPolyline
 90
        5
 70
     0
 10
-169.3834
 20
261.8715
 10
-170.7396
 20
260.8341
 10
-171.1384
 20
259.7169
 10
-171.7766
 20
258.7594
 10
-172.1754
 20
258.52
  0
LWPOLYLINE
  5
126
100
AcDbEntity
  8
1
  6
CONTINUOUS
 62
     7
100
AcDbPolyline
 90
        5
 70
     0
 10
-168.1869
 20
260.8341
 10
-170.1014
 20
259.2381
 10
-170.2609
 20
258.121
 10
-170.6598
 20
256.924
 10
-171.5373
 20
256.2058
  0
LWPOLYLINE
  5
127
100
AcDbEntity
  8
1
  6
CONTINUOUS
 62
     7
100
AcDbPolyline
 90
        4
 70
     0
 10
-168.6655
 20
260.1159
 10
-167.2296
 20
258.7594
 10
-165.8735
 20
257.6422
 10
-164.1185
 20
256.3654
  0
LWPOLYLINE
  5
128
100
AcDbEntity
  8
1
  6
CONTINUOUS
 62
     7
100
AcDbPolyline
 90
        5
 70
     0
 10
-170.1014
 20
258.3604
 10
-168.7453
 20
256.6048
 10
-166.9105
 20
256.2856
 10
-164.8364
 20
255.1685
 10
-164.7567
 20
254.9291
  0
LWPOLYLINE
  5
129
100
AcDbEntity
  8
1
  6
CONTINUOUS
 62
     7
100
AcDbPolyline
 90
        3
 70
     0
 10
-170.7396
 20
256.3654
 10
-167.4689
 20
254.2907
 10
-166.9105
 20
253.9715
  0
LWPOLYLINE
  5
12A
100
AcDbEntity
  8
1
  6
CONTINUOUS
 62
     7
100
AcDbPolyline
 90
        4
 70
     0
 10
-163.3207
 20
262.7492
 10
-164.4375
 20
261.6321
 10
-165.6341
 20
259.7169
 10
-166.1925
 20
258.5998
  0
LWPOLYLINE
  5
12B
100
AcDbEntity
  8
1
  6
CONTINUOUS
 62
     7
100
AcDbPolyline
 90
        5
 70
     0
 10
-161.805
 20
262.1109
 10
-163.1612
 20
261.0735
 10
-163.56
 20
259.9563
 10
-164.1982
 20
258.9988
 10
-164.597
 20
258.7594
  0
LWPOLYLINE
  5
12C
100
AcDbEntity
  8
1
  6
CONTINUOUS
 62
     7
100
AcDbPolyline
 90
        5
 70
     0
 10
-160.6085
 20
261.0735
 10
-162.523
 20
259.4775
 10
-162.6825
 20
258.3604
 10
-163.0814
 20
257.1634
 10
-163.9589
 20
256.4452
  0
LWPOLYLINE
  5
12D
100
AcDbEntity
  8
1
  6
CONTINUOUS
 62
     7
100
AcDbPolyline
 90
        4
 70
     0
 10
-161.0871
 20
260.3553
 10
-159.6512
 20
258.9988
 10
-158.2951
 20
257.8816
 10
-156.5401
 20
256.6048
  0
LWPOLYLINE
  5
12E
100
AcDbEntity
  8
1
  6
CONTINUOUS
 62
     7
100
AcDbPolyline
 90
        5
 70
     0
 10
-162.523
 20
258.5998
 10
-161.1669
 20
256.8442
 10
-159.3321
 20
256.525
 10
-157.258
 20
255.4079
 10
-157.1783
 20
255.1685
  0
LWPOLYLINE
  5
12F
100
AcDbEntity
  8
1
  6
CONTINUOUS
 62
     7
100
AcDbPolyline
 90
        3
 70
     0
 10
-163.1612
 20
256.6048
 10
-159.8905
 20
254.5301
 10
-159.3321
 20
254.2109
  0
LWPOLYLINE
  5
130
100
AcDbEntity
  8
1
  6
CONTINUOUS
 62
     7
100
AcDbPolyline
 90
        5
 70
     0
 10
-200.8931
 20
263.0685
 10
-202.2493
 20
262.0311
 10
-202.6481
 20
260.9139
 10
-203.2863
 20
259.9564
 10
-203.6851
 20
259.717
  0
LWPOLYLINE
  5
131
100
AcDbEntity
  8
1
  6
CONTINUOUS
 62
     7
100
AcDbPolyline
 90
        4
 70
     0
 10
-199.4573
 20
262.829
 10
-200.5741
 20
261.7119
 10
-201.7707
 20
259.7967
 10
-202.3291
 20
258.6796
  0
LWPOLYLINE
  5
132
100
AcDbEntity
  8
1
  6
CONTINUOUS
 62
     7
100
AcDbPolyline
 90
        5
 70
     0
 10
-197.7821
 20
262.0311
 10
-199.6966
 20
260.4351
 10
-199.8561
 20
259.318
 10
-200.255
 20
258.121
 10
-201.1325
 20
257.4028
  0
LWPOLYLINE
  5
133
100
AcDbEntity
  8
1
  6
CONTINUOUS
 62
     7
100
AcDbPolyline
 90
        5
 70
     0
 10
-157.2578
 20
263.0685
 10
-158.614
 20
262.0311
 10
-159.0128
 20
260.9139
 10
-159.651
 20
259.9564
 10
-160.0498
 20
259.717
  0
LWPOLYLINE
  5
134
100
AcDbEntity
  8
1
  6
CONTINUOUS
 62
     7
100
AcDbPolyline
 90
        4
 70
     0
 10
-155.9816
 20
262.1906
 10
-157.0984
 20
261.0735
 10
-158.295
 20
259.1583
 10
-158.8534
 20
258.0412
  0
LWPOLYLINE
  5
135
100
AcDbEntity
  8
1
  6
CONTINUOUS
 62
     7
100
AcDbPolyline
 90
        5
 70
     0
 10
-46.6925
 20
261.1196
 10
-48.607
 20
259.5236
 10
-48.7665
 20
258.4065
 10
-49.1654
 20
257.2095
 10
-50.0429
 20
256.4913
  0
LWPOLYLINE
  5
136
100
AcDbEntity
  8
1
  6
CONTINUOUS
 62
     7
100
AcDbPolyline
 90
        4
 70
     0
 10
-49.4047
 20
262.7953
 10
-50.5215
 20
261.6782
 10
-51.7181
 20
259.763
 10
-52.2765
 20
258.6459
  0
LWPOLYLINE
  5
137
100
AcDbEntity
  8
1
  6
CONTINUOUS
 62
     7
100
AcDbPolyline
 90
        5
 70
     0
 10
-47.889
 20
262.157
 10
-49.2452
 20
261.1196
 10
-49.644
 20
260.0024
 10
-50.2822
 20
259.0449
 10
-50.681
 20
258.8055
  0
LWPOLYLINE
  5
138
100
AcDbEntity
  8
1
  6
CONTINUOUS
 62
     7
100
AcDbPolyline
 90
        4
 70
     0
 10
-47.1711
 20
260.4014
 10
-45.7352
 20
259.0449
 10
-44.3791
 20
257.9277
 10
-42.6241
 20
256.6509
  0
LWPOLYLINE
  5
139
100
AcDbEntity
  8
1
  6
CONTINUOUS
 62
     7
100
AcDbPolyline
 90
        5
 70
     0
 10
-48.607
 20
258.6459
 10
-47.2509
 20
256.8903
 10
-45.4161
 20
256.5711
 10
-43.342
 20
255.454
 10
-43.2623
 20
255.2146
  0
LWPOLYLINE
  5
13A
100
AcDbEntity
  8
1
  6
CONTINUOUS
 62
     7
100
AcDbPolyline
 90
        3
 70
     0
 10
-49.2452
 20
256.6509
 10
-45.9745
 20
254.5762
 10
-45.4161
 20
254.257
  0
LWPOLYLINE
  5
13B
100
AcDbEntity
  8
1
  6
CONTINUOUS
 62
     7
100
AcDbPolyline
 90
        4
 70
     0
 10
-41.2848
 20
262.8956
 10
-42.4016
 20
261.7785
 10
-43.5982
 20
259.8633
 10
-44.1566
 20
258.7462
  0
LWPOLYLINE
  5
13C
100
AcDbEntity
  8
1
  6
CONTINUOUS
 62
     7
100
AcDbPolyline
 90
        5
 70
     0
 10
-38.5726
 20
261.2199
 10
-40.4871
 20
259.6239
 10
-40.6466
 20
258.5068
 10
-41.0455
 20
257.3098
 10
-41.923
 20
256.5916
  0
LWPOLYLINE
  5
13D
100
AcDbEntity
  8
1
  6
CONTINUOUS
 62
     7
100
AcDbPolyline
 90
        5
 70
     0
 10
-39.7691
 20
262.2573
 10
-41.1253
 20
261.2199
 10
-41.5241
 20
260.1027
 10
-42.1623
 20
259.1452
 10
-42.5611
 20
258.9058
  0
LWPOLYLINE
  5
13E
100
AcDbEntity
  8
1
  6
CONTINUOUS
 62
     7
100
AcDbPolyline
 90
        4
 70
     0
 10
-39.0512
 20
260.5017
 10
-37.6153
 20
259.1452
 10
-36.2592
 20
258.028
 10
-34.5042
 20
256.7512
  0
LWPOLYLINE
  5
13F
100
AcDbEntity
  8
1
  6
CONTINUOUS
 62
     7
100
AcDbPolyline
 90
        5
 70
     0
 10
-40.4871
 20
258.7462
 10
-39.131
 20
256.9906
 10
-37.2962
 20
256.6714
 10
-35.2221
 20
255.5543
 10
-35.1424
 20
255.3149
  0
LWPOLYLINE
  5
140
100
AcDbEntity
  8
1
  6
CONTINUOUS
 62
     7
100
AcDbPolyline
 90
        3
 70
     0
 10
-41.1253
 20
256.7512
 10
-37.8546
 20
254.6765
 10
-37.2962
 20
254.3573
  0
LWPOLYLINE
  5
141
100
AcDbEntity
  8
1
  6
CONTINUOUS
 62
     7
100
AcDbPolyline
 90
        4
 70
     0
 10
-3.2918
 20
262.9959
 10
-4.4086
 20
261.8788
 10
-5.6052
 20
259.9636
 10
-6.1636
 20
258.8465
  0
LWPOLYLINE
  5
142
100
AcDbEntity
  8
1
  6
CONTINUOUS
 62
     7
100
AcDbPolyline
 90
        5
 70
     0
 10
-0.5796
 20
261.3202
 10
-2.4941
 20
259.7242
 10
-2.6536
 20
258.6071
 10
-3.0525
 20
257.4101
 10
-3.93
 20
256.6919
  0
LWPOLYLINE
  5
143
100
AcDbEntity
  8
1
  6
CONTINUOUS
 62
     7
100
AcDbPolyline
 90
        5
 70
     0
 10
-1.7761
 20
262.3576
 10
-3.1323
 20
261.3202
 10
-3.5311
 20
260.203
 10
-4.1693
 20
259.2455
 10
-4.5681
 20
259.0061
  0
LWPOLYLINE
  5
144
100
AcDbEntity
  8
1
  6
CONTINUOUS
 62
     7
100
AcDbPolyline
 90
        4
 70
     0
 10
-1.0582
 20
260.602
 10
0.3777
 20
259.2455
 10
1.7338
 20
258.1283
 10
3.4888
 20
256.8515
  0
LWPOLYLINE
  5
145
100
AcDbEntity
  8
1
  6
CONTINUOUS
 62
     7
100
AcDbPolyline
 90
        5
 70
     0
 10
-2.4941
 20
258.8465
 10
-1.138
 20
257.0909
 10
0.6968
 20
256.7717
 10
2.7709
 20
255.6546
 10
2.8506
 20
255.4152
  0
LWPOLYLINE
  5
146
100
AcDbEntity
  8
1
  6
CONTINUOUS
 62
     7
100
AcDbPolyline
 90
        3
 70
     0
 10
-3.1323
 20
256.8515
 10
0.1384
 20
254.7768
 10
0.6968
 20
254.4576
  0
LWPOLYLINE
  5
147
100
AcDbEntity
  8
1
  6
CONTINUOUS
 62
     7
100
AcDbPolyline
 90
        4
 70
     0
 10
-11.7125
 20
262.9959
 10
-12.8293
 20
261.8788
 10
-14.0259
 20
259.9636
 10
-14.5843
 20
258.8465
  0
LWPOLYLINE
  5
148
100
AcDbEntity
  8
1
  6
CONTINUOUS
 62
     7
100
AcDbPolyline
 90
        5
 70
     0
 10
-9.0003
 20
261.3202
 10
-10.9148
 20
259.7242
 10
-11.0743
 20
258.6071
 10
-11.4732
 20
257.4101
 10
-12.3507
 20
256.6919
  0
LWPOLYLINE
  5
149
100
AcDbEntity
  8
1
  6
CONTINUOUS
 62
     7
100
AcDbPolyline
 90
        5
 70
     0
 10
-10.1968
 20
262.3576
 10
-11.553
 20
261.3202
 10
-11.9518
 20
260.203
 10
-12.59
 20
259.2455
 10
-12.9888
 20
259.0061
  0
LWPOLYLINE
  5
14A
100
AcDbEntity
  8
1
  6
CONTINUOUS
 62
     7
100
AcDbPolyline
 90
        4
 70
     0
 10
-9.4789
 20
260.602
 10
-8.043
 20
259.2455
 10
-6.6869
 20
258.1283
 10
-4.9319
 20
256.8515
  0
LWPOLYLINE
  5
14B
100
AcDbEntity
  8
1
  6
CONTINUOUS
 62
     7
100
AcDbPolyline
 90
        5
 70
     0
 10
-10.9148
 20
258.8465
 10
-9.5587
 20
257.0909
 10
-7.7239
 20
256.7717
 10
-5.6498
 20
255.6546
 10
-5.5701
 20
255.4152
  0
LWPOLYLINE
  5
14C
100
AcDbEntity
  8
1
  6
CONTINUOUS
 62
     7
100
AcDbPolyline
 90
        3
 70
     0
 10
-11.553
 20
256.8515
 10
-8.2823
 20
254.7768
 10
-7.7239
 20
254.4576
  0
LWPOLYLINE
  5
14D
100
AcDbEntity
  8
1
  6
CONTINUOUS
 62
     7
100
AcDbPolyline
 90
        4
 70
     0
 10
5.0286
 20
262.996
 10
3.9118
 20
261.8789
 10
2.7152
 20
259.9637
 10
2.1568
 20
258.8466
  0
LWPOLYLINE
  5
14E
100
AcDbEntity
  8
1
  6
CONTINUOUS
 62
     7
100
AcDbPolyline
 90
        5
 70
     0
 10
7.7408
 20
261.3203
 10
5.8263
 20
259.7243
 10
5.6668
 20
258.6072
 10
5.2679
 20
257.4102
 10
4.3904
 20
256.692
  0
LWPOLYLINE
  5
14F
100
AcDbEntity
  8
1
  6
CONTINUOUS
 62
     7
100
AcDbPolyline
 90
        5
 70
     0
 10
6.5443
 20
262.3577
 10
5.1881
 20
261.3203
 10
4.7893
 20
260.2031
 10
4.1511
 20
259.2456
 10
3.7523
 20
259.0062
  0
LWPOLYLINE
  5
150
100
AcDbEntity
  8
1
  6
CONTINUOUS
 62
     7
100
AcDbPolyline
 90
        4
 70
     0
 10
7.2622
 20
260.6021
 10
8.6981
 20
259.2456
 10
10.0542
 20
258.1284
 10
11.8092
 20
256.8516
  0
LWPOLYLINE
  5
151
100
AcDbEntity
  8
1
  6
CONTINUOUS
 62
     7
100
AcDbPolyline
 90
        5
 70
     0
 10
5.8263
 20
258.8466
 10
7.1824
 20
257.091
 10
9.0172
 20
256.7718
 10
11.0913
 20
255.6547
 10
11.171
 20
255.4153
  0
LWPOLYLINE
  5
152
100
AcDbEntity
  8
1
  6
CONTINUOUS
 62
     7
100
AcDbPolyline
 90
        3
 70
     0
 10
5.1881
 20
256.8516
 10
8.4588
 20
254.7769
 10
9.0172
 20
254.4577
  0
LWPOLYLINE
  5
153
100
AcDbEntity
  8
1
  6
CONTINUOUS
 62
     7
100
AcDbPolyline
 90
        4
 70
     0
 10
12.7476
 20
262.996
 10
11.6308
 20
261.8789
 10
10.4342
 20
259.9637
 10
9.8758
 20
258.8466
  0
LWPOLYLINE
  5
154
100
AcDbEntity
  8
1
  6
CONTINUOUS
 62
     7
100
AcDbPolyline
 90
        5
 70
     0
 10
15.4598
 20
261.3203
 10
13.5453
 20
259.7243
 10
13.3858
 20
258.6072
 10
12.9869
 20
257.4102
 10
12.1094
 20
256.692
  0
LWPOLYLINE
  5
155
100
AcDbEntity
  8
1
  6
CONTINUOUS
 62
     7
100
AcDbPolyline
 90
        5
 70
     0
 10
14.2633
 20
262.3577
 10
12.9071
 20
261.3203
 10
12.5083
 20
260.2031
 10
11.8701
 20
259.2456
 10
11.4713
 20
259.0062
  0
LWPOLYLINE
  5
156
100
AcDbEntity
  8
1
  6
CONTINUOUS
 62
     7
100
AcDbPolyline
 90
        4
 70
     0
 10
14.9812
 20
260.6021
 10
16.4171
 20
259.2456
 10
17.7732
 20
258.1284
 10
19.5282
 20
256.8516
  0
LWPOLYLINE
  5
157
100
AcDbEntity
  8
1
  6
CONTINUOUS
 62
     7
100
AcDbPolyline
 90
        5
 70
     0
 10
13.5453
 20
258.8466
 10
14.9014
 20
257.091
 10
16.7362
 20
256.7718
 10
18.8103
 20
255.6547
 10
18.89
 20
255.4153
  0
LWPOLYLINE
  5
158
100
AcDbEntity
  8
1
  6
CONTINUOUS
 62
     7
100
AcDbPolyline
 90
        3
 70
     0
 10
12.9071
 20
256.8516
 10
16.1778
 20
254.7769
 10
16.7362
 20
254.4577
  0
LWPOLYLINE
  5
159
100
AcDbEntity
  8
1
  6
CONTINUOUS
 62
     7
100
AcDbPolyline
 90
        5
 70
     0
 10
-34.3558
 20
262.5582
 10
-35.712
 20
261.5208
 10
-36.1108
 20
260.4036
 10
-36.749
 20
259.4461
 10
-37.1478
 20
259.2067
  0
LWPOLYLINE
  5
15A
100
AcDbEntity
  8
1
  6
CONTINUOUS
 62
     7
100
AcDbPolyline
 90
        4
 70
     0
 10
-32.363
 20
262.4945
 10
-33.4798
 20
261.3774
 10
-34.6764
 20
259.4622
 10
-35.2348
 20
258.3451
  0
LWPOLYLINE
  5
15B
100
AcDbEntity
  8
1
  6
CONTINUOUS
 62
     7
100
AcDbPolyline
 90
        5
 70
     0
 10
-31.0542
 20
261.621
 10
-32.9687
 20
260.025
 10
-33.1282
 20
258.9079
 10
-33.5271
 20
257.7109
 10
-34.4046
 20
256.9927
  0
LWPOLYLINE
  5
15C
100
AcDbEntity
  8
1
  6
CONTINUOUS
 62
     7
100
AcDbPolyline
 90
        5
 70
     0
 10
19.5763
 20
262.7589
 10
18.2201
 20
261.7215
 10
17.8213
 20
260.6043
 10
17.1831
 20
259.6468
 10
16.7843
 20
259.4074
  0
LWPOLYLINE
  5
15D
100
AcDbEntity
  8
1
  6
CONTINUOUS
 62
     7
100
AcDbPolyline
 90
        4
 70
     0
 10
21.1682
 20
262.3943
 10
20.0514
 20
261.2772
 10
18.8548
 20
259.362
 10
18.2964
 20
258.2449
  0
ARC
  5
15E
100
AcDbEntity
  8
1
  6
CONTINUOUS
 62
     1
100
AcDbCircle
 10
-10.700646
 20
376.9862
 30
0.0
 40
9.123215
210
0.0
220
0.0
230
1.0
100
AcDbArc
 50
152.589403
 51
207.410603
  0
LINE
  5
15F
100
AcDbEntity
  8
1
  6
CONTINUOUS
 62
     1
100
AcDbLine
 10
-18.7996
 20
381.1862
 30
0.0
 11
-27.1996
 21
381.1862
 31
0.0
  0
LINE
  5
160
100
AcDbEntity
  8
1
  6
CONTINUOUS
 62
     1
100
AcDbLine
 10
-18.7996
 20
372.7862
 30
0.0
 11
-27.1996
 21
372.7862
 31
0.0
  0
LINE
  5
161
100
AcDbEntity
  8
1
  6
CONTINUOUS
 62
     1
100
AcDbLine
 10
-18.7996
 20
382.0862
 30
0.0
 11
-18.7996
 21
381.1862
 31
0.0
  0
LINE
  5
162
100
AcDbEntity
  8
1
  6
CONTINUOUS
 62
     1
100
AcDbLine
 10
-18.7996
 20
372.7862
 30
0.0
 11
-18.7996
 21
371.8862
 31
0.0
  0
LINE
  5
163
100
AcDbEntity
  8
1
  6
CONTINUOUS
 62
     1
100
AcDbLine
 10
-27.1996
 20
372.7862
 30
0.0
 11
-27.1996
 21
371.8862
 31
0.0
  0
LINE
  5
164
100
AcDbEntity
  8
1
  6
CONTINUOUS
 62
     1
100
AcDbLine
 10
-27.1996
 20
382.0862
 30
0.0
 11
-27.1996
 21
381.1862
 31
0.0
  0
ARC
  5
165
100
AcDbEntity
  8
1
  6
CONTINUOUS
 62
     1
100
AcDbCircle
 10
-35.298554
 20
376.9862
 30
0.0
 40
9.123215
210
0.0
220
0.0
230
1.0
100
AcDbArc
 50
332.589397
 51
27.410597
  0
LINE
  5
166
100
AcDbEntity
  8
1
  6
CONTINUOUS
 62
     1
100
AcDbLine
 10
-18.7996
 20
382.0862
 30
0.0
 11
-27.1996
 21
382.0862
 31
0.0
  0
LINE
  5
167
100
AcDbEntity
  8
1
  6
CONTINUOUS
 62
     1
100
AcDbLine
 10
-11.5996
 20
381.4862
 30
0.0
 11
-18.7996
 21
381.4862
 31
0.0
  0
LINE
  5
168
100
AcDbEntity
  8
1
  6
CONTINUOUS
 62
     1
100
AcDbLine
 10
-27.1996
 20
381.4862
 30
0.0
 11
-34.3996
 21
381.4862
 31
0.0
  0
LINE
  5
169
100
AcDbEntity
  8
1
  6
CONTINUOUS
 62
     1
100
AcDbLine
 10
-11.5996
 20
372.4862
 30
0.0
 11
-18.7996
 21
372.4862
 31
0.0
  0
LINE
  5
16A
100
AcDbEntity
  8
1
  6
CONTINUOUS
 62
     1
100
AcDbLine
 10
-27.1996
 20
372.4862
 30
0.0
 11
-34.3996
 21
372.4862
 31
0.0
  0
ARC
  5
16B
100
AcDbEntity
  8
1
  6
CONTINUOUS
 62
     1
100
AcDbCircle
 10
-32.503232
 20
376.9862
 30
0.0
 40
4.883258
210
0.0
220
0.0
230
1.0
100
AcDbArc
 50
112.851294
 51
247.148711
  0
ARC
  5
16C
100
AcDbEntity
  8
1
  6
CONTINUOUS
 62
     1
100
AcDbCircle
 10
-13.509368
 20
376.9862
 30
0.0
 40
4.883258
210
0.0
220
0.0
230
1.0
100
AcDbArc
 50
292.851289
 51
67.148706
  0
LINE
  5
16D
100
AcDbEntity
  8
1
  6
CONTINUOUS
 62
     5
100
AcDbLine
 10
-29.3319
 20
421.9862
 30
0.0
 11
-29.6435
 21
381.4862
 31
0.0
  0
LINE
  5
16E
100
AcDbEntity
  8
1
  6
CONTINUOUS
 62
     5
100
AcDbLine
 10
-29.7127
 20
372.4862
 30
0.0
 11
-30.135
 21
317.5862
 31
0.0
  0
LINE
  5
16F
100
AcDbEntity
  8
1
  6
CONTINUOUS
 62
     5
100
AcDbLine
 10
-16.6673
 20
421.9862
 30
0.0
 11
-16.3557
 21
381.4862
 31
0.0
  0
LINE
  5
170
100
AcDbEntity
  8
1
  6
CONTINUOUS
 62
     5
100
AcDbLine
 10
-16.2865
 20
372.4862
 30
0.0
 11
-15.8642
 21
317.5862
 31
0.0
  0
LINE
  5
171
100
AcDbEntity
  8
1
  6
CONTINUOUS
 62
     1
100
AcDbLine
 10
-30.3128
 20
372.4862
 30
0.0
 11
-30.3128
 21
381.4862
 31
0.0
  0
LINE
  5
172
100
AcDbEntity
  8
1
  6
CONTINUOUS
 62
     1
100
AcDbLine
 10
-15.6866
 20
372.4862
 30
0.0
 11
-15.6866
 21
381.4862
 31
0.0
  0
CIRCLE
  5
173
100
AcDbEntity
  8
1
  6
CONTINUOUS
 62
     1
100
AcDbCircle
 10
-33.844
 20
376.9803
 30
0.0
 40
0.9
210
0.0
220
0.0
230
1.0
  0
CIRCLE
  5
174
100
AcDbEntity
  8
1
  6
CONTINUOUS
 62
     1
100
AcDbCircle
 10
-12.1686
 20
376.9803
 30
0.0
 40
0.9
210
0.0
220
0.0
230
1.0
  0
LINE
  5
175
100
AcDbEntity
  8
1
  6
CONTINUOUS
 62
     1
100
AcDbLine
 10
-19.8128
 20
377.4362
 30
0.0
 11
-26.1864
 21
377.4362
 31
0.0
  0
LINE
  5
176
100
AcDbEntity
  8
1
  6
CONTINUOUS
 62
     1
100
AcDbLine
 10
-20.5996
 20
382.9862
 30
0.0
 11
-25.3996
 21
382.9862
 31
0.0
  0
LINE
  5
177
100
AcDbEntity
  8
1
  6
CONTINUOUS
 62
     1
100
AcDbLine
 10
-20.5996
 20
370.9862
 30
0.0
 11
-25.3996
 21
370.9862
 31
0.0
  0
LINE
  5
178
100
AcDbEntity
  8
1
  6
CONTINUOUS
 62
     1
100
AcDbLine
 10
-25.3996
 20
384.1862
 30
0.0
 11
-25.3996
 21
382.0862
 31
0.0
  0
LINE
  5
179
100
AcDbEntity
  8
1
  6
CONTINUOUS
 62
     1
100
AcDbLine
 10
-20.5996
 20
384.1862
 30
0.0
 11
-20.5996
 21
382.0862
 31
0.0
  0
LINE
  5
17A
100
AcDbEntity
  8
1
  6
CONTINUOUS
 62
     1
100
AcDbLine
 10
-25.3996
 20
384.1862
 30
0.0
 11
-24.1996
 21
384.1862
 31
0.0
  0
LINE
  5
17B
100
AcDbEntity
  8
1
  6
CONTINUOUS
 62
     1
100
AcDbLine
 10
-20.5996
 20
384.1862
 30
0.0
 11
-21.7996
 21
384.1862
 31
0.0
  0
LINE
  5
17C
100
AcDbEntity
  8
1
  6
CONTINUOUS
 62
     1
100
AcDbLine
 10
-24.1996
 20
384.1862
 30
0.0
 11
-24.1996
 21
382.9862
 31
0.0
  0
LINE
  5
17D
100
AcDbEntity
  8
1
  6
CONTINUOUS
 62
     1
100
AcDbLine
 10
-21.7996
 20
384.1862
 30
0.0
 11
-21.7996
 21
382.9862
 31
0.0
  0
ARC
  5
17E
100
AcDbEntity
  8
1
  6
CONTINUOUS
 62
     1
100
AcDbCircle
 10
-22.9996
 20
383.063129
 30
0.0
 40
1.052814
210
0.0
220
0.0
230
1.0
100
AcDbArc
 50
355.809672
 51
184.190331
  0
LINE
  5
17F
100
AcDbEntity
  8
1
  6
CONTINUOUS
 62
     1
100
AcDbLine
 10
-25.3996
 20
370.0862
 30
0.0
 11
-25.3996
 21
371.8862
 31
0.0
  0
LINE
  5
180
100
AcDbEntity
  8
1
  6
CONTINUOUS
 62
     1
100
AcDbLine
 10
-20.5996
 20
370.0862
 30
0.0
 11
-20.5996
 21
371.8862
 31
0.0
  0
LINE
  5
181
100
AcDbEntity
  8
1
  6
CONTINUOUS
 62
     1
100
AcDbLine
 10
-20.5996
 20
370.0862
 30
0.0
 11
-25.3996
 21
370.0862
 31
0.0
  0
LINE
  5
182
100
AcDbEntity
  8
1
  6
CONTINUOUS
 62
     1
100
AcDbLine
 10
-23.5996
 20
370.9862
 30
0.0
 11
-23.5996
 21
371.8862
 31
0.0
  0
LINE
  5
183
100
AcDbEntity
  8
1
  6
CONTINUOUS
 62
     1
100
AcDbLine
 10
-22.3996
 20
370.9862
 30
0.0
 11
-22.3996
 21
371.8862
 31
0.0
  0
LINE
  5
184
100
AcDbEntity
  8
1
  6
CONTINUOUS
 62
     1
100
AcDbLine
 10
-23.7496
 20
367.6862
 30
0.0
 11
-23.7496
 21
370.0862
 31
0.0
  0
LINE
  5
185
100
AcDbEntity
  8
1
  6
CONTINUOUS
 62
     1
100
AcDbLine
 10
-22.2496
 20
367.6862
 30
0.0
 11
-22.2496
 21
370.0862
 31
0.0
  0
ARC
  5
186
100
AcDbEntity
  8
1
  6
CONTINUOUS
 62
     1
100
AcDbCircle
 10
-22.9996
 20
367.732956
 30
0.0
 40
0.751456
210
0.0
220
0.0
230
1.0
100
AcDbArc
 50
183.567264
 51
356.432736
  0
LINE
  5
187
100
AcDbEntity
  8
1
  6
CONTINUOUS
 62
     1
100
AcDbLine
 10
-22.9996
 20
369.1862
 30
0.0
 11
-22.9996
 21
367.9862
 31
0.0
  0
LINE
  5
188
100
AcDbEntity
  8
1
  6
CONTINUOUS
 62
     1
100
AcDbLine
 10
-18.7996
 20
371.8862
 30
0.0
 11
-27.1996
 21
371.8862
 31
0.0
  0
ARC
  5
189
100
AcDbEntity
  8
1
  6
CONTINUOUS
 62
     1
100
AcDbCircle
 10
-22.9996
 20
386.561419
 30
0.0
 40
19.73834
210
0.0
220
0.0
230
1.0
100
AcDbArc
 50
228.029394
 51
311.970603
  0
ARC
  5
18A
100
AcDbEntity
  8
1
  6
CONTINUOUS
 62
     1
100
AcDbCircle
 10
-41.878593
 20
364.470228
 30
0.0
 40
9.340643
210
0.0
220
0.0
230
1.0
100
AcDbArc
 50
52.555883
 51
99.371633
  0
ARC
  5
18B
100
AcDbEntity
  8
1
  6
CONTINUOUS
 62
     1
100
AcDbCircle
 10
-4.076207
 20
364.470228
 30
0.0
 40
9.340643
210
0.0
220
0.0
230
1.0
100
AcDbArc
 50
80.628367
 51
127.444117
  0
LINE
  5
18C
100
AcDbEntity
  8
1
  6
CONTINUOUS
 62
     1
100
AcDbLine
 10
-43.3996
 20
373.6862
 30
0.0
 11
-76.8717
 21
370.7578
 31
0.0
  0
LINE
  5
18D
100
AcDbEntity
  8
1
  6
CONTINUOUS
 62
     1
100
AcDbLine
 10
-2.5552
 20
373.6862
 30
0.0
 11
38.0895
 21
370.1302
 31
0.0
  0
LINE
  5
18E
100
AcDbEntity
  8
1
  6
CONTINUOUS
 62
     1
100
AcDbLine
 10
-26.2212
 20
377.8995
 30
0.0
 11
-77.1071
 21
373.4476
 31
0.0
  0
LINE
  5
18F
100
AcDbEntity
  8
1
  6
CONTINUOUS
 62
     1
100
AcDbLine
 10
-19.7776
 20
377.9034
 30
0.0
 11
38.3248
 21
372.82
 31
0.0
  0
SPLINE
  5
190
100
AcDbEntity
  8
1
  6
CONTINUOUS
 62
     1
100
AcDbSpline
210
0.0
220
0.0
230
1.0
 70
     8
 71
     3
 72
    53
 73
    49
 74
     0
 42
0.0
 43
0.0
 12
-0.4419935983487316
 22
0.8970182043965107
 32
0.0
 13
-0.7071067811863416
 23
-0.7071067811867534
 33
0.0
 40
0.0
 40
0.0
 40
0.0
 40
0.0
 40
0.1082970998497047
 40
0.1082970998497047
 40
0.1082970998497047
 40
0.1921110054768411
 40
0.1921110054768411
 40
0.1921110054768411
 40
0.2517251347105446
 40
0.2517251347105446
 40
0.2517251347105446
 40
0.2931752335963472
 40
0.2931752335963472
 40
0.2931752335963472
 40
0.3333626766969094
 40
0.3333626766969094
 40
0.3333626766969094
 40
0.3549527475710578
 40
0.3549527475710578
 40
0.3549527475710578
 40
0.4102390751643288
 40
0.4102390751643288
 40
0.4102390751643288
 40
0.5090876011525501
 40
0.5090876011525501
 40
0.5090876011525501
 40
0.5844158658771673
 40
0.5844158658771673
 40
0.5844158658771673
 40
0.6932313883703788
 40
0.6932313883703788
 40
0.6932313883703788
 40
0.7685347621968497
 40
0.7685347621968497
 40
0.7685347621968497
 40
0.8403824060208586
 40
0.8403824060208586
 40
0.8403824060208586
 40
0.883564013213005
 40
0.883564013213005
 40
0.883564013213005
 40
0.9215952392476419
 40
0.9215952392476419
 40
0.9215952392476419
 40
0.961778742304909
 40
0.961778742304909
 40
0.961778742304909
 40
1.0
 40
1.0
 40
1.0
 40
1.0
 10
-26.186400000000003
 20
377.43620000000004
 30
0.0
 10
-26.283633333333334
 20
377.63353333333339
 30
0.0
 10
-26.38086666666667
 20
377.83086666666668
 30
0.0
 10
-26.478100000000001
 20
378.02820000000003
 30
0.0
 10
-26.553351372706398
 20
378.18092133233523
 30
0.0
 10
-26.81736438066396
 20
378.22182930936248
 30
0.0
 10
-26.972200000000001
 20
378.1576
 30
0.0
 10
-27.082329584727177
 20
378.11191576275712
 30
0.0
 10
-27.192306712196796
 20
378.05916844468624
 30
0.0
 10
-27.3017
 20
378.00460000000004
 30
0.0
 10
-27.377761877530915
 20
377.96665819899812
 30
0.0
 10
-27.452392394750873
 20
377.92932546467256
 30
0.0
 10
-27.525200000000002
 20
377.88690000000003
 30
0.0
 10
-27.5957897349316
 20
377.84576690277294
 30
0.0
 10
-27.594450335684552
 20
377.72550118803014
 30
0.0
 10
-27.666400000000003
 20
377.68680000000001
 30
0.0
 10
-27.705053823983146
 20
377.66600839625471
 30
0.0
 10
-27.744384695700138
 20
377.64681375272818
 30
0.0
 10
-27.784100000000002
 20
377.62800000000004
 30
0.0
 10
-27.885800144329668
 20
377.57982307169584
 30
0.0
 10
-27.9852029620324
 20
377.53149202874624
 30
0.0
 10
-28.09
 20
377.48680000000002
 30
0.0
 10
-28.277370606476854
 20
377.40689342350447
 30
0.0
 10
-28.480445569869108
 20
377.38504997724959
 30
0.0
 10
-28.6783
 20
377.35730000000001
 30
0.0
 10
-28.829076460658747
 20
377.33615292055237
 30
0.0
 10
-28.990963406036109
 20
377.31462497751352
 30
0.0
 10
-29.1372
 20
377.3691
 30
0.0
 10
-29.34844622262284
 20
377.44779194991241
 30
0.0
 10
-29.524536471627766
 20
377.58348287138921
 30
0.0
 10
-29.7255
 20
377.67510000000004
 30
0.0
 10
-29.864572361697711
 20
377.73850160600819
 30
0.0
 10
-29.999454070567456
 20
377.8017271786423
 30
0.0
 10
-30.149100000000001
 20
377.85160000000002
 30
0.0
 10
-30.291878562118061
 20
377.89918411905506
 30
0.0
 10
-30.440061010059139
 20
377.90598581753892
 30
0.0
 10
-30.584400000000002
 20
377.89870000000002
 30
0.0
 10
-30.671150089973789
 20
377.89432110468357
 30
0.0
 10
-30.757590906883568
 20
377.87977196879132
 30
0.0
 10
-30.843300000000003
 20
377.85160000000002
 30
0.0
 10
-30.918786349524478
 20
377.82678817425733
 30
0.0
 10
-30.987424034859735
 20
377.79726507836511
 30
0.0
 10
-31.055100000000003
 20
377.75749999999999
 30
0.0
 10
-31.126605908056728
 20
377.71548452180849
 30
0.0
 10
-31.19738148284803
 20
377.673918517152
 30
0.0
 10
-31.255100000000002
 20
377.61619999999999
 30
0.0
 10
-31.310000000000002
 20
377.56130000000002
 30
0.0
 10
-31.364900000000002
 20
377.50640000000004
 30
0.0
 10
-31.419800000000002
 20
377.45150000000001
 30
0.0
  0
SPLINE
  5
191
100
AcDbEntity
  8
1
  6
CONTINUOUS
 62
     1
100
AcDbSpline
210
0.0
220
0.0
230
1.0
 70
     8
 71
     3
 72
    47
 73
    43
 74
     0
 42
0.0
 43
0.0
 12
0.9846983805413122
 22
-0.1742673215474347
 32
0.0
 13
0.6245992307292828
 23
0.7809454532631509
 33
0.0
 40
0.0
 40
0.0
 40
0.0
 40
0.0
 40
0.0643810931234698
 40
0.0643810931234698
 40
0.0643810931234698
 40
0.1802074908386633
 40
0.1802074908386633
 40
0.1802074908386633
 40
0.2590385940083946
 40
0.2590385940083946
 40
0.2590385940083946
 40
0.3240078522440371
 40
0.3240078522440371
 40
0.3240078522440371
 40
0.3710334575523249
 40
0.3710334575523249
 40
0.3710334575523249
 40
0.4677760984535955
 40
0.4677760984535955
 40
0.4677760984535955
 40
0.5254923354103668
 40
0.5254923354103668
 40
0.5254923354103668
 40
0.5955787098311811
 40
0.5955787098311811
 40
0.5955787098311811
 40
0.6210617494871189
 40
0.6210617494871189
 40
0.6210617494871189
 40
0.6798207220982778
 40
0.6798207220982778
 40
0.6798207220982778
 40
0.7748543083632241
 40
0.7748543083632241
 40
0.7748543083632241
 40
0.849414610342941
 40
0.849414610342941
 40
0.849414610342941
 40
0.942301465453512
 40
0.942301465453512
 40
0.942301465453512
 40
1.0
 40
1.0
 40
1.0
 40
1.0
 10
-19.812799999999999
 20
377.43620000000004
 30
0.0
 10
-19.719566666666665
 20
377.41970000000003
 30
0.0
 10
-19.626333333333335
 20
377.40320000000003
 30
0.0
 10
-19.533100000000001
 20
377.38670000000002
 30
0.0
 10
-19.365366266025184
 20
377.35701526695834
 30
0.0
 10
-19.19542279205837
 20
377.42261488988106
 30
0.0
 10
-19.036200000000001
 20
377.50600000000003
 30
0.0
 10
-18.927833439394451
 20
377.56275165893334
 30
0.0
 10
-18.835996259403277
 20
377.62295227027988
 30
0.0
 10
-18.738
 20
377.685
 30
0.0
 10
-18.657235631276272
 20
377.73613711229495
 30
0.0
 10
-18.582100152698224
 20
377.79228684216935
 30
0.0
 10
-18.499500000000001
 20
377.84399999999999
 30
0.0
 10
-18.439712920930965
 20
377.8814306651397
 30
0.0
 10
-18.365395049375813
 20
377.90769096581556
 30
0.0
 10
-18.300800000000002
 20
377.90370000000001
 30
0.0
 10
-18.167912913809474
 20
377.89548965224986
 30
0.0
 10
-18.031630498581265
 20
377.8120269938297
 30
0.0
 10
-17.923100000000002
 20
377.70490000000001
 30
0.0
 10
-17.858351178644739
 20
377.64098850344857
 30
0.0
 10
-17.824101465430186
 20
377.56603647342382
 30
0.0
 10
-17.764099999999999
 20
377.50600000000003
 30
0.0
 10
-17.691238611356678
 20
377.43309610021117
 30
0.0
 10
-17.618372947495409
 20
377.36019495725469
 30
0.0
 10
-17.545500000000001
 20
377.28730000000002
 30
0.0
 10
-17.519003776929303
 20
377.26079577429579
 30
0.0
 10
-17.49250544089103
 20
377.23429766963659
 30
0.0
 10
-17.466000000000001
 20
377.20780000000002
 30
0.0
 10
-17.404883567408341
 20
377.14670148642165
 30
0.0
 10
-17.328134578839272
 20
377.10554373465516
 30
0.0
 10
-17.247299999999999
 20
377.0686
 30
0.0
 10
-17.116562521451005
 20
377.00884920044922
 30
0.0
 10
-16.962313265254643
 20
376.99293261623137
 30
0.0
 10
-16.829900000000002
 20
377.02890000000002
 30
0.0
 10
-16.726012801468084
 20
377.05711885504491
 30
0.0
 10
-16.625867525098791
 20
377.10396163128263
 30
0.0
 10
-16.5318
 20
377.16800000000001
 30
0.0
 10
-16.41461114289427
 20
377.24777868273912
 30
0.0
 10
-16.299122848484025
 20
377.31981960831052
 30
0.0
 10
-16.213799999999999
 20
377.42650000000003
 30
0.0
 10
-16.160800000000002
 20
377.49276666666668
 30
0.0
 10
-16.107800000000001
 20
377.55903333333339
 30
0.0
 10
-16.0548
 20
377.62530000000004
 30
0.0
  0
ELLIPSE
  5
192
100
AcDbEntity
  8
1
  6
CONTINUOUS
 62
     1
100
AcDbEllipse
 10
-68.3142
 20
372.8586
 30
0.0
 11
0.0000000000000001
 21
2.3609
 31
0.0
210
0.0
220
0.0
230
1.0
 40
0.186637
 41
0.0
 42
6.2831753071795866
  0
ELLIPSE
  5
193
100
AcDbEntity
  8
1
  6
CONTINUOUS
 62
     1
100
AcDbEllipse
 10
-44.2835
 20
374.8569
 30
0.0
 11
0.0000000000000001
 21
2.3609
 31
0.0
210
0.0
220
0.0
230
1.0
 40
0.186637
 41
0.0
 42
6.2831753071795866
  0
ELLIPSE
  5
194
100
AcDbEntity
  8
1
  6
CONTINUOUS
 62
     1
100
AcDbEllipse
 10
22.1451
 20
372.7828
 30
0.0
 11
0.0000000000000001
 21
2.3609
 31
0.0
210
0.0
220
0.0
230
1.0
 40
0.186637
 41
0.0
 42
6.2831753071795866
  0
ELLIPSE
  5
195
100
AcDbEntity
  8
1
  6
CONTINUOUS
 62
     1
100
AcDbEllipse
 10
-1.7788
 20
374.9367
 30
0.0
 11
0.0000000000000001
 21
2.3609
 31
0.0
210
0.0
220
0.0
230
1.0
 40
0.186637
 41
0.0
 42
6.2831753071795866
  0
LINE
  5
196
100
AcDbEntity
  8
1
  6
CONTINUOUS
 62
     7
100
AcDbLine
 10
-164.3862
 20
376.9296
 30
0.0
 11
-53.3862
 21
376.9296
 31
0.0
  0
LINE
  5
197
100
AcDbEntity
  8
1
  6
CONTINUOUS
 62
     7
100
AcDbLine
 10
-138.42
 20
257.5862
 30
0.0
 11
-70.7262
 21
257.5862
 31
0.0
  0
INSERT
  5
19D
100
AcDbEntity
  8
1
  6
CONTINUOUS
 62
     1
100
AcDbBlockReference
  2
LDR
 10
-104.5875
 20
376.9296
 30
0.0
 41
240.0
 42
240.0
 50
90.0
210
0.0
220
0.0
230
1.0
  0
INSERT
  5
19E
100
AcDbEntity
  8
1
  6
CONTINUOUS
 62
     1
100
AcDbBlockReference
  2
LDR
 10
-104.5875
 20
376.9296
 30
0.0
 41
240.0
 42
240.0
 50
90.0
210
0.0
220
0.0
230
1.0
  0
INSERT
  5
19F
100
AcDbEntity
  8
1
  6
CONTINUOUS
 62
     1
100
AcDbBlockReference
  2
LDR
 10
-104.5875
 20
257.5862
 30
0.0
 41
240.0
 42
240.0
 50
270.0
210
0.0
220
0.0
230
1.0
  0
LINE
  5
1A0
100
AcDbEntity
  8
1
  6
CONTINUOUS
 62
     7
100
AcDbLine
 10
-197.6458
 20
381.1862
 30
0.0
 11
-209.7878
 21
389.8607
 31
0.0
  0
LINE
  5
1A1
100
AcDbEntity
  8
1
  6
CONTINUOUS
 62
     7
100
AcDbLine
 10
-209.7878
 20
389.8607
 30
0.0
 11
-212.2577
 21
389.8607
 31
0.0
  0
LINE
  5
1A2
100
AcDbEntity
  8
1
  6
CONTINUOUS
 62
     7
100
AcDbLine
 10
-195.2458
 20
376.5362
 30
0.0
 11
-206.9651
 21
371.507
 31
0.0
  0
LINE
  5
1A3
100
AcDbEntity
  8
1
  6
CONTINUOUS
 62
     7
100
AcDbLine
 10
-206.9651
 20
371.507
 30
0.0
 11
-209.9642
 21
371.507
 31
0.0
  0
LINE
  5
1A4
100
AcDbEntity
  8
1
  6
CONTINUOUS
 62
     7
100
AcDbLine
 10
-176.5464
 20
378.0362
 30
0.0
 11
-176.358
 21
405.2036
 31
0.0
  0
LINE
  5
1A5
100
AcDbEntity
  8
1
  6
CONTINUOUS
 62
     7
100
AcDbLine
 10
-174.7353
 20
377.8468
 30
0.0
 11
-167.1036
 21
397.7539
 31
0.0
  0
LINE
  5
1A6
100
AcDbEntity
  8
1
  6
CONTINUOUS
 62
     7
100
AcDbLine
 10
-170.0527
 20
383.4782
 30
0.0
 11
-162.0907
 21
390.4474
 31
0.0
  0
LINE
  5
1A7
100
AcDbEntity
  8
1
  6
CONTINUOUS
 62
     7
100
AcDbLine
 10
-167.2116
 20
378.2679
 30
0.0
 11
-162.1082
 21
381.0046
 31
0.0
  0
LINE
  5
1A8
100
AcDbEntity
  8
1
  6
CONTINUOUS
 62
     7
100
AcDbLine
 10
-162.1082
 20
381.0046
 30
0.0
 11
-160.3193
 21
381.0046
 31
0.0
  0
LINE
  5
1A9
100
AcDbEntity
  8
1
  6
CONTINUOUS
 62
     7
100
AcDbLine
 10
-168.9479
 20
369.5839
 30
0.0
 11
-166.8433
 21
364.5314
 31
0.0
  0
LINE
  5
1AA
100
AcDbEntity
  8
1
  6
CONTINUOUS
 62
     7
100
AcDbLine
 10
-166.8433
 20
364.5314
 30
0.0
 11
-164.844
 21
364.5314
 31
0.0
  0
LINE
  5
1AB
100
AcDbEntity
  8
1
  6
CONTINUOUS
 62
     7
100
AcDbLine
 10
-170.2106
 20
365.1104
 30
0.0
 11
-166.1237
 21
357.4978
 31
0.0
  0
LINE
  5
1AC
100
AcDbEntity
  8
1
  6
CONTINUOUS
 62
     7
100
AcDbLine
 10
-176.3137
 20
370.3207
 30
0.0
 11
-176.3137
 21
349.1574
 31
0.0
  0
LINE
  5
1AD
100
AcDbEntity
  8
1
  6
CONTINUOUS
 62
     7
100
AcDbLine
 10
-16.8786
 20
377.0666
 30
0.0
 11
-9.2041
 21
393.4026
 31
0.0
  0
LINE
  5
1AE
100
AcDbEntity
  8
1
  6
CONTINUOUS
 62
     7
100
AcDbLine
 10
-9.2041
 20
393.4026
 30
0.0
 11
-6.7054
 21
393.4026
 31
0.0
  0
LINE
  5
1AF
100
AcDbEntity
  8
1
  6
CONTINUOUS
 62
     7
100
AcDbLine
 10
-1.7973
 20
377.3344
 30
0.0
 11
4.0133
 21
387.7057
 31
0.0
  0
LINE
  5
1B0
100
AcDbEntity
  8
1
  6
CONTINUOUS
 62
     7
100
AcDbLine
 10
12.2132
 20
375.3705
 30
0.0
 11
16.1815
 21
381.7564
 31
0.0
  0
LINE
  5
1B1
100
AcDbEntity
  8
1
  6
CONTINUOUS
 62
     7
100
AcDbLine
 10
-10.0965
 20
371.4427
 30
0.0
 11
-8.4902
 21
358.0526
 31
0.0
  0
LINE
  5
1B2
100
AcDbEntity
  8
1
  6
CONTINUOUS
 62
     7
100
AcDbLine
 10
-8.4902
 20
358.0526
 30
0.0
 11
-6.6162
 21
358.0526
 31
0.0
  0
LINE
  5
1B3
100
AcDbEntity
  8
1
  6
CONTINUOUS
 62
     7
100
AcDbLine
 10
-165.298
 20
263.5542
 30
0.0
 11
-160.634
 21
269.1291
 31
0.0
  0
LINE
  5
1B4
100
AcDbEntity
  8
1
  6
CONTINUOUS
 62
     7
100
AcDbLine
 10
-160.634
 20
269.1291
 30
0.0
 11
-159.5273
 21
269.1291
 31
0.0
  0
INSERT
  5
1B5
100
AcDbEntity
  8
1
  6
CONTINUOUS
 62
     1
100
AcDbBlockReference
  2
LDR
 10
-165.298
 20
263.5542
 30
0.0
 41
240.0
 42
240.0
 50
230.083913
210
0.0
220
0.0
230
1.0
  0
TEXT
  5
1B7
100
AcDbEntity
  8
1
  6
CONTINUOUS
 62
     7
100
AcDbText
 10
-159.0186
 20
267.8104
 30
0.0
 40
2.4
  1
GRADE
  7
MONOTXT
 72
     4
 11
-153.51
 21
269.0104
 31
0.0
210
0.0
220
0.0
230
1.0
100
AcDbText
  0
INSERT
  5
1B8
100
AcDbEntity
  8
1
  6
CONTINUOUS
 62
     1
100
AcDbBlockReference
  2
LDR
 10
-197.6458
 20
381.1862
 30
0.0
 41
240.000003
 42
240.000003
 50
324.457189
210
0.0
220
0.0
230
1.0
  0
INSERT
  5
1B9
100
AcDbEntity
  8
1
  6
CONTINUOUS
 62
     1
100
AcDbBlockReference
  2
LDR
 10
-197.6458
 20
381.1862
 30
0.0
 41
240.000003
 42
240.000003
 50
324.457189
210
0.0
220
0.0
230
1.0
  0
INSERT
  5
1BA
100
AcDbEntity
  8
1
  6
CONTINUOUS
 62
     1
100
AcDbBlockReference
  2
LDR
 10
-195.2458
 20
376.5362
 30
0.0
 41
240.0
 42
240.0
 50
23.226022
210
0.0
220
0.0
230
1.0
  0
INSERT
  5
1BB
100
AcDbEntity
  8
1
  6
CONTINUOUS
 62
     1
100
AcDbBlockReference
  2
LDR
 10
-195.2458
 20
376.5362
 30
0.0
 41
240.0
 42
240.0
 50
23.226022
210
0.0
220
0.0
230
1.0
  0
INSERT
  5
1BC
100
AcDbEntity
  8
1
  6
CONTINUOUS
 62
     1
100
AcDbBlockReference
  2
LDR
 10
-176.5464
 20
378.0362
 30
0.0
 41
239.999999
 42
239.999999
 50
269.602747
210
0.0
220
0.0
230
1.0
  0
INSERT
  5
1BD
100
AcDbEntity
  8
1
  6
CONTINUOUS
 62
     1
100
AcDbBlockReference
  2
LDR
 10
-176.5464
 20
378.0362
 30
0.0
 41
239.999999
 42
239.999999
 50
269.602747
210
0.0
220
0.0
230
1.0
  0
INSERT
  5
1BE
100
AcDbEntity
  8
1
  6
CONTINUOUS
 62
     1
100
AcDbBlockReference
  2
LDR
 10
-174.7353
 20
377.8468
 30
0.0
 41
240.000001
 42
240.000001
 50
249.024771
210
0.0
220
0.0
230
1.0
  0
INSERT
  5
1BF
100
AcDbEntity
  8
1
  6
CONTINUOUS
 62
     1
100
AcDbBlockReference
  2
LDR
 10
-174.7353
 20
377.8468
 30
0.0
 41
240.000001
 42
240.000001
 50
249.024771
210
0.0
220
0.0
230
1.0
  0
INSERT
  5
1C0
100
AcDbEntity
  8
1
  6
CONTINUOUS
 62
     1
100
AcDbBlockReference
  2
LDR
 10
-170.0527
 20
383.4782
 30
0.0
 41
239.999998
 42
239.999998
 50
221.195882
210
0.0
220
0.0
230
1.0
  0
INSERT
  5
1C1
100
AcDbEntity
  8
1
  6
CONTINUOUS
 62
     1
100
AcDbBlockReference
  2
LDR
 10
-170.0527
 20
383.4782
 30
0.0
 41
239.999998
 42
239.999998
 50
221.195882
210
0.0
220
0.0
230
1.0
  0
INSERT
  5
1C2
100
AcDbEntity
  8
1
  6
CONTINUOUS
 62
     1
100
AcDbBlockReference
  2
LDR
 10
-167.2116
 20
378.2679
 30
0.0
 41
240.000003
 42
240.000003
 50
208.20245
210
0.0
220
0.0
230
1.0
  0
INSERT
  5
1C3
100
AcDbEntity
  8
1
  6
CONTINUOUS
 62
     1
100
AcDbBlockReference
  2
LDR
 10
-167.2116
 20
378.2679
 30
0.0
 41
240.000003
 42
240.000003
 50
208.20245
210
0.0
220
0.0
230
1.0
  0
INSERT
  5
1C4
100
AcDbEntity
  8
1
  6
CONTINUOUS
 62
     1
100
AcDbBlockReference
  2
LDR
 10
-168.9479
 20
369.5839
 30
0.0
 41
239.999999
 42
239.999999
 50
112.613986
210
0.0
220
0.0
230
1.0
  0
INSERT
  5
1C5
100
AcDbEntity
  8
1
  6
CONTINUOUS
 62
     1
100
AcDbBlockReference
  2
LDR
 10
-168.9479
 20
369.5839
 30
0.0
 41
239.999999
 42
239.999999
 50
112.613986
210
0.0
220
0.0
230
1.0
  0
INSERT
  5
1C6
100
AcDbEntity
  8
1
  6
CONTINUOUS
 62
     1
100
AcDbBlockReference
  2
LDR
 10
-170.2106
 20
365.1104
 30
0.0
 41
239.999999
 42
239.999999
 50
118.229838
210
0.0
220
0.0
230
1.0
  0
INSERT
  5
1C7
100
AcDbEntity
  8
1
  6
CONTINUOUS
 62
     1
100
AcDbBlockReference
  2
LDR
 10
-170.2106
 20
365.1104
 30
0.0
 41
239.999999
 42
239.999999
 50
118.229838
210
0.0
220
0.0
230
1.0
  0
INSERT
  5
1C8
100
AcDbEntity
  8
1
  6
CONTINUOUS
 62
     1
100
AcDbBlockReference
  2
LDR
 10
-176.3137
 20
370.3207
 30
0.0
 41
240.0
 42
240.0
 50
90.0
210
0.0
220
0.0
230
1.0
  0
TEXT
  5
1C9
100
AcDbEntity
  8
1
  6
CONTINUOUS
 62
     7
100
AcDbText
 10
-270.0325
 20
403.1282
 30
0.0
 40
2.4
  1
POLE CLAMP
  7
MONOTXT
 11
-270.0325
 21
405.5282
 31
0.0
210
0.0
220
0.0
230
1.0
100
AcDbText
 73
     3
  0
TEXT
  5
1CA
100
AcDbEntity
  8
1
  6
CONTINUOUS
 62
     7
100
AcDbText
 10
-270.0325
 20
398.3282
 30
0.0
 40
2.4
  1
THRU BOLTS MAY BE USED
  7
MONOTXT
 11
-270.0325
 21
400.7282
 31
0.0
210
0.0
220
0.0
230
1.0
100
AcDbText
 73
     3
  0
TEXT
  5
1CB
100
AcDbEntity
  8
1
  6
CONTINUOUS
 62
     7
100
AcDbText
 10
-270.0325
 20
393.5282
 30
0.0
 40
2.4
  1
ON WOOD POLES (as approved
  7
MONOTXT
 11
-270.0325
 21
395.9282
 31
0.0
210
0.0
220
0.0
230
1.0
100
AcDbText
 73
     3
  0
TEXT
  5
1CC
100
AcDbEntity
  8
1
  6
CONTINUOUS
 62
     7
100
AcDbText
 10
-270.0325
 20
388.7282
 30
0.0
 40
2.4
  1
by the owner e.g., Utility Co.)
  7
MONOTXT
 11
-270.0325
 21
391.1282
 31
0.0
210
0.0
220
0.0
230
1.0
100
AcDbText
 73
     3
  0
TEXT
  5
1CD
100
AcDbEntity
  8
1
  6
CONTINUOUS
 62
     7
100
AcDbText
 10
-164.0692
 20
396.6115
 30
0.0
 40
2.4
  1
MESSENGER CABLE
  7
MONOTXT
 72
     4
 11
-146.7684
 21
397.8115
 31
0.0
210
0.0
220
0.0
230
1.0
100
AcDbText
  0
TEXT
  5
1CE
100
AcDbEntity
  8
1
  6
CONTINUOUS
 62
     7
100
AcDbText
 10
-163.7931
 20
363.4895
 30
0.0
 40
2.4
  1
COTTER PIN
  7
MONOTXT
 72
     4
 11
-152.9553
 21
364.6895
 31
0.0
210
0.0
220
0.0
230
1.0
100
AcDbText
  0
TEXT
  5
1CF
100
AcDbEntity
  8
1
  6
CONTINUOUS
 62
     7
100
AcDbText
 10
-172.4592
 20
347.8316
 30
0.0
 40
2.4
  1
CLEVIS (TYPE D)
  7
MONOTXT
 72
     4
 11
-156.708
 21
349.0316
 31
0.0
210
0.0
220
0.0
230
1.0
100
AcDbText
  0
LINE
  5
1D0
100
AcDbEntity
  8
1
  6
CONTINUOUS
 62
     7
100
AcDbLine
 10
-176.358
 20
405.2036
 30
0.0
 11
-174.101
 21
405.2061
 31
0.0
  0
LINE
  5
1D1
100
AcDbEntity
  8
1
  6
CONTINUOUS
 62
     7
100
AcDbLine
 10
-167.1036
 20
397.7539
 30
0.0
 11
-164.9443
 21
397.7184
 31
0.0
  0
LINE
  5
1D2
100
AcDbEntity
  8
1
  6
CONTINUOUS
 62
     7
100
AcDbLine
 10
-162.0907
 20
390.4474
 30
0.0
 11
-159.4212
 21
390.4488
 31
0.0
  0
LINE
  5
1D3
100
AcDbEntity
  8
1
  6
CONTINUOUS
 62
     7
100
AcDbLine
 10
-166.1237
 20
357.4978
 30
0.0
 11
-164.2902
 21
357.5174
 31
0.0
  0
LINE
  5
1D4
100
AcDbEntity
  8
1
  6
CONTINUOUS
 62
     7
100
AcDbLine
 10
-176.3137
 20
349.1574
 30
0.0
 11
-173.1563
 21
349.1574
 31
0.0
  0
TEXT
  5
1D5
100
AcDbEntity
  8
1
  6
CONTINUOUS
 62
     7
100
AcDbText
 10
-6.1482
 20
392.5986
 30
0.0
 40
2.4
  1
TIE (ALUM. LASHING WIRE)
  7
MONOTXT
 72
     4
 11
17.6156
 21
393.7986
 31
0.0
210
0.0
220
0.0
230
1.0
100
AcDbText
  0
TEXT
  5
1D6
100
AcDbEntity
  8
1
  6
CONTINUOUS
 62
     7
100
AcDbText
 10
18.7055
 20
380.8368
 30
0.0
 40
2.4
  1
MESSENGER CABLE TO
  7
MONOTXT
 11
18.7055
 21
383.2368
 31
0.0
210
0.0
220
0.0
230
1.0
100
AcDbText
 73
     3
  0
TEXT
  5
1D7
100
AcDbEntity
  8
1
  6
CONTINUOUS
 62
     7
100
AcDbText
 10
18.7055
 20
376.0368
 30
0.0
 40
2.4
  1
HAVE MAXIMUM 2% SAG
  7
MONOTXT
 11
18.7055
 21
378.4368
 31
0.0
210
0.0
220
0.0
230
1.0
100
AcDbText
 73
     3
  0
LINE
  5
1D8
100
AcDbEntity
  8
1
  6
CONTINUOUS
 62
     7
100
AcDbLine
 10
4.0133
 20
387.7057
 30
0.0
 11
6.989
 21
387.7341
 31
0.0
  0
LINE
  5
1D9
100
AcDbEntity
  8
1
  6
CONTINUOUS
 62
     7
100
AcDbLine
 10
16.1815
 20
381.7564
 30
0.0
 11
17.9562
 21
381.7377
 31
0.0
  0
TEXT
  5
1DA
100
AcDbEntity
  8
1
  6
CONTINUOUS
 62
     7
100
AcDbText
 10
-5.6184
 20
357.2334
 30
0.0
 40
2.4
  1
SIGNAL CONTROL CABLE
  7
MONOTXT
 72
     4
 11
16.6713
 21
358.4334
 31
0.0
210
0.0
220
0.0
230
1.0
100
AcDbText
  0
INSERT
  5
1DB
100
AcDbEntity
  8
1
  6
CONTINUOUS
 62
     1
100
AcDbBlockReference
  2
LDR
 10
-16.8786
 20
377.0666
 30
0.0
 41
240.000001
 42
240.000001
 50
244.836301
210
0.0
220
0.0
230
1.0
  0
INSERT
  5
1DC
100
AcDbEntity
  8
1
  6
CONTINUOUS
 62
     1
100
AcDbBlockReference
  2
LDR
 10
-16.8786
 20
377.0666
 30
0.0
 41
240.000001
 42
240.000001
 50
244.836301
210
0.0
220
0.0
230
1.0
  0
INSERT
  5
1DD
100
AcDbEntity
  8
1
  6
CONTINUOUS
 62
     1
100
AcDbBlockReference
  2
LDR
 10
-1.7973
 20
377.3344
 30
0.0
 41
240.0
 42
240.0
 50
240.739938
210
0.0
220
0.0
230
1.0
  0
INSERT
  5
1DE
100
AcDbEntity
  8
1
  6
CONTINUOUS
 62
     1
100
AcDbBlockReference
  2
LDR
 10
-1.7973
 20
377.3344
 30
0.0
 41
240.0
 42
240.0
 50
240.739938
210
0.0
220
0.0
230
1.0
  0
INSERT
  5
1DF
100
AcDbEntity
  8
1
  6
CONTINUOUS
 62
     1
100
AcDbBlockReference
  2
LDR
 10
12.2132
 20
375.3705
 30
0.0
 41
240.0
 42
240.0
 50
238.142524
210
0.0
220
0.0
230
1.0
  0
INSERT
  5
1E0
100
AcDbEntity
  8
1
  6
CONTINUOUS
 62
     1
100
AcDbBlockReference
  2
LDR
 10
12.2132
 20
375.3705
 30
0.0
 41
240.0
 42
240.0
 50
238.142524
210
0.0
220
0.0
230
1.0
  0
INSERT
  5
1E1
100
AcDbEntity
  8
1
  6
CONTINUOUS
 62
     1
100
AcDbBlockReference
  2
LDR
 10
-10.0965
 20
371.4427
 30
0.0
 41
240.0
 42
240.0
 50
96.840614
210
0.0
220
0.0
230
1.0
  0
LINE
  5
1E2
100
AcDbEntity
  8
1
  6
CONTINUOUS
 62
     7
100
AcDbLine
 10
-104.5875
 20
257.5862
 30
0.0
 11
-104.5875
 21
311.2579
 31
0.0
  0
LINE
  5
1E3
100
AcDbEntity
  8
1
  6
CONTINUOUS
 62
     7
100
AcDbLine
 10
-104.5875
 20
323.2579
 30
0.0
 11
-104.5875
 21
376.9296
 31
0.0
  0
TEXT
  5
1E4
100
AcDbEntity
  8
1
  6
CONTINUOUS
 62
     7
100
AcDbText
 10
-115.7731
 20
318.9169
 30
0.0
 40
2.4
  1
5.4m + SAG
  7
MONOTXT
 72
     4
 11
-104.3684
 21
320.1169
 31
0.0
210
0.0
220
0.0
230
1.0
100
AcDbText
  0
TEXT
  5
1E5
100
AcDbEntity
  8
1
  6
CONTINUOUS
 62
     7
100
AcDbText
 10
-111.0676
 20
314.1169
 30
0.0
 40
2.4
  1
MINIMUM
  7
MONOTXT
 72
     4
 11
-104.3684
 21
315.3169
 31
0.0
210
0.0
220
0.0
230
1.0
100
AcDbText
  0
TEXT
  5
1E6
100
AcDbEntity
  8
1
  6
CONTINUOUS
 62
     7
100
AcDbText
 10
-110.5408
 20
254.4734
 30
0.0
 40
2.4
  1
CROWN
  7
MONOTXT
 72
     4
 11
-104.4652
 21
255.6734
 31
0.0
210
0.0
220
0.0
230
1.0
100
AcDbText
  0
TEXT
  5
1E7
100
AcDbEntity
  8
1
  6
CONTINUOUS
 62
     4
100
AcDbText
 10
-172.0695
 20
211.1991
 30
0.0
 40
4.8
  1
INTERCONNECT CABLE ATTACHMENT
  7
MONOTXT
 72
     4
 11
-105.6065
 21
213.5991
 31
0.0
210
0.0
220
0.0
230
1.0
100
AcDbText
  0
TEXT
  5
1E8
100
AcDbEntity
  8
1
  6
CONTINUOUS
 62
     4
100
AcDbText
 10
-150.8663
 20
201.5991
 30
0.0
 40
4.8
  1
METAL OR WOOD POLES
  7
MONOTXT
 72
     4
 11
-105.6065
 21
203.9991
 31
0.0
210
0.0
220
0.0
230
1.0
100
AcDbText
  0
LINE
  5
1E9
100
AcDbEntity
  8
1
  6
CONTINUOUS
 62
     4
100
AcDbLine
 10
-174.0904
 20
209.0297
 30
0.0
 11
-37.3404
 21
209.0297
 31
0.0
  0
LINE
  5
1EA
100
AcDbEntity
  8
1
  6
CONTINUOUS
 62
     4
100
AcDbLine
 10
-152.8823
 20
199.8058
 30
0.0
 11
-57.4422
 21
199.8058
 31
0.0
  0
LINE
  5
1EB
100
AcDbEntity
  8
1
  6
HIDDEN
 62
     6
100
AcDbLine
 10
-273.2537
 20
120.3531
 30
0.0
 11
-273.2537
 21
113.1531
 31
0.0
  0
LINE
  5
1EC
100
AcDbEntity
  8
1
  6
HIDDEN
 62
     6
100
AcDbLine
 10
-270.8537
 20
122.7531
 30
0.0
 11
-266.7627
 21
122.7531
 31
0.0
  0
LINE
  5
1ED
100
AcDbEntity
  8
1
  6
HIDDEN
 62
     6
100
AcDbLine
 10
-270.8537
 20
110.7531
 30
0.0
 11
-266.7627
 21
110.7531
 31
0.0
  0
ARC
  5
1EE
100
AcDbEntity
  8
1
  6
HIDDEN
 62
     6
100
AcDbCircle
 10
-270.8537
 20
120.3531
 30
0.0
 40
2.4
210
0.0
220
0.0
230
1.0
100
AcDbArc
 50
90.0
 51
180.0
  0
ARC
  5
1EF
100
AcDbEntity
  8
1
  6
HIDDEN
 62
     6
100
AcDbCircle
 10
-270.8537
 20
113.1531
 30
0.0
 40
2.4
210
0.0
220
0.0
230
1.0
100
AcDbArc
 50
180.0
 51
270.0
  0
LINE
  5
1F0
100
AcDbEntity
  8
1
  6
HIDDEN
 62
     6
100
AcDbLine
 10
-272.0537
 20
120.3531
 30
0.0
 11
-272.0537
 21
113.1531
 31
0.0
  0
LINE
  5
1F1
100
AcDbEntity
  8
1
  6
HIDDEN
 62
     6
100
AcDbLine
 10
-270.8537
 20
121.5531
 30
0.0
 11
-266.6537
 21
121.5531
 31
0.0
  0
LINE
  5
1F2
100
AcDbEntity
  8
1
  6
HIDDEN
 62
     6
100
AcDbLine
 10
-270.8537
 20
111.9531
 30
0.0
 11
-266.6537
 21
111.9531
 31
0.0
  0
ARC
  5
1F3
100
AcDbEntity
  8
1
  6
HIDDEN
 62
     6
100
AcDbCircle
 10
-270.8537
 20
120.3531
 30
0.0
 40
1.2
210
0.0
220
0.0
230
1.0
100
AcDbArc
 50
90.0
 51
180.0
  0
ARC
  5
1F4
100
AcDbEntity
  8
1
  6
HIDDEN
 62
     6
100
AcDbCircle
 10
-270.8537
 20
113.1531
 30
0.0
 40
1.2
210
0.0
220
0.0
230
1.0
100
AcDbArc
 50
180.0
 51
270.0
  0
ARC
  5
1F5
100
AcDbEntity
  8
1
  6
HIDDEN
 62
     6
100
AcDbCircle
 10
-266.6537
 20
122.1531
 30
0.0
 40
0.6
210
0.0
220
0.0
230
1.0
100
AcDbArc
 50
270.0
 51
360.0
  0
ARC
  5
1F6
100
AcDbEntity
  8
1
  6
HIDDEN
 62
     6
100
AcDbCircle
 10
-266.6537
 20
111.3531
 30
0.0
 40
0.6
210
0.0
220
0.0
230
1.0
100
AcDbArc
 50
0.0
 51
90.0
  0
ARC
  5
1F7
100
AcDbEntity
  8
1
  6
CONTINUOUS
 62
     6
100
AcDbCircle
 10
-244.908424
 20
116.7531
 30
0.0
 40
21.80974
210
0.0
220
0.0
230
1.0
100
AcDbArc
 50
119.236525
 51
240.763475
  0
ARC
  5
1F8
100
AcDbEntity
  8
1
  6
HIDDEN
 62
     6
100
AcDbCircle
 10
-266.762671
 20
123.9531
 30
0.0
 40
1.2
210
0.0
220
0.0
230
1.0
100
AcDbArc
 50
270.0
 51
341.765253
  0
ARC
  5
1F9
100
AcDbEntity
  8
1
  6
HIDDEN
 62
     6
100
AcDbCircle
 10
-266.762671
 20
109.5375
 30
0.0
 40
1.2
210
0.0
220
0.0
230
1.0
100
AcDbArc
 50
18.234747
 51
90.0
  0
LINE
  5
1FA
100
AcDbEntity
  8
1
  6
CONTINUOUS
 62
     6
100
AcDbLine
 10
-255.2537
 20
136.3081
 30
0.0
 11
-255.2537
 21
143.7531
 31
0.0
  0
LINE
  5
1FB
100
AcDbEntity
  8
1
  6
CONTINUOUS
 62
     6
100
AcDbLine
 10
-255.2537
 20
97.1981
 30
0.0
 11
-255.2537
 21
89.7531
 31
0.0
  0
LINE
  5
1FC
100
AcDbEntity
  8
1
  6
CONTINUOUS
 62
     6
100
AcDbLine
 10
-254.0537
 20
135.5018
 30
0.0
 11
-254.0537
 21
143.7531
 31
0.0
  0
LINE
  5
1FD
100
AcDbEntity
  8
1
  6
CONTINUOUS
 62
     6
100
AcDbLine
 10
-254.0537
 20
98.0044
 30
0.0
 11
-254.0537
 21
89.7531
 31
0.0
  0
ARC
  5
1FE
100
AcDbEntity
  8
1
  6
CONTINUOUS
 62
     6
100
AcDbCircle
 10
-245.655373
 20
116.7531
 30
0.0
 40
19.862827
210
0.0
220
0.0
230
1.0
100
AcDbArc
 50
117.109972
 51
242.890028
  0
ARC
  5
1FF
100
AcDbEntity
  8
1
  6
CONTINUOUS
 62
     6
100
AcDbCircle
 10
-255.2537
 20
135.501828
 30
0.0
 40
1.2
210
0.0
220
0.0
230
1.0
100
AcDbArc
 50
297.109972
 51
360.0
  0
ARC
  5
200
100
AcDbEntity
  8
1
  6
CONTINUOUS
 62
     6
100
AcDbCircle
 10
-255.8537
 20
136.308083
 30
0.0
 40
0.6
210
0.0
220
0.0
230
1.0
100
AcDbArc
 50
299.236525
 51
360.0
  0
ARC
  5
201
100
AcDbEntity
  8
1
  6
CONTINUOUS
 62
     6
100
AcDbCircle
 10
-255.8537
 20
97.198117
 30
0.0
 40
0.6
210
0.0
220
0.0
230
1.0
100
AcDbArc
 50
360.0
 51
60.763475
  0
ARC
  5
202
100
AcDbEntity
  8
1
  6
CONTINUOUS
 62
     6
100
AcDbCircle
 10
-255.2537
 20
98.004372
 30
0.0
 40
1.2
210
0.0
220
0.0
230
1.0
100
AcDbArc
 50
360.0
 51
62.890028
  0
ARC
  5
203
100
AcDbEntity
  8
1
  6
CONTINUOUS
 62
     6
100
AcDbCircle
 10
-248.749427
 20
116.7531
 30
0.0
 40
19.862827
210
0.0
220
0.0
230
1.0
100
AcDbArc
 50
16.550603
 51
62.890028
  0
LINE
  5
204
100
AcDbEntity
  8
1
  6
CONTINUOUS
 62
     6
100
AcDbLine
 10
-221.1511
 20
120.3531
 30
0.0
 11
-221.1511
 21
113.1531
 31
0.0
  0
LINE
  5
205
100
AcDbEntity
  8
1
  6
CONTINUOUS
 62
     6
100
AcDbLine
 10
-223.5511
 20
122.7531
 30
0.0
 11
-228.0922
 21
122.7531
 31
0.0
  0
LINE
  5
206
100
AcDbEntity
  8
1
  6
CONTINUOUS
 62
     6
100
AcDbLine
 10
-223.5511
 20
110.7531
 30
0.0
 11
-228.1014
 21
110.7531
 31
0.0
  0
ARC
  5
207
100
AcDbEntity
  8
1
  6
CONTINUOUS
 62
     6
100
AcDbCircle
 10
-223.5511
 20
120.3531
 30
0.0
 40
2.4
210
0.0
220
0.0
230
1.0
100
AcDbArc
 50
0.0
 51
90.0
  0
ARC
  5
208
100
AcDbEntity
  8
1
  6
CONTINUOUS
 62
     6
100
AcDbCircle
 10
-223.5511
 20
113.1531
 30
0.0
 40
2.4
210
0.0
220
0.0
230
1.0
100
AcDbArc
 50
270.0
 51
0.0
  0
LINE
  5
209
100
AcDbEntity
  8
1
  6
CONTINUOUS
 62
     6
100
AcDbLine
 10
-222.3511
 20
120.3531
 30
0.0
 11
-222.3511
 21
113.1531
 31
0.0
  0
LINE
  5
20A
100
AcDbEntity
  8
1
  6
CONTINUOUS
 62
     6
100
AcDbLine
 10
-223.5511
 20
121.5531
 30
0.0
 11
-228.5593
 21
121.5531
 31
0.0
  0
LINE
  5
20B
100
AcDbEntity
  8
1
  6
CONTINUOUS
 62
     6
100
AcDbLine
 10
-223.5511
 20
111.9531
 30
0.0
 11
-228.5681
 21
111.9531
 31
0.0
  0
ARC
  5
20C
100
AcDbEntity
  8
1
  6
CONTINUOUS
 62
     6
100
AcDbCircle
 10
-223.5511
 20
120.3531
 30
0.0
 40
1.2
210
0.0
220
0.0
230
1.0
100
AcDbArc
 50
0.0
 51
90.0
  0
ARC
  5
20D
100
AcDbEntity
  8
1
  6
CONTINUOUS
 62
     6
100
AcDbCircle
 10
-223.5511
 20
113.1531
 30
0.0
 40
1.2
210
0.0
220
0.0
230
1.0
100
AcDbArc
 50
270.0
 51
0.0
  0
LINE
  5
20E
100
AcDbEntity
  8
1
  6
CONTINUOUS
 62
     6
100
AcDbLine
 10
-239.1511
 20
136.3081
 30
0.0
 11
-239.1511
 21
143.7531
 31
0.0
  0
LINE
  5
20F
100
AcDbEntity
  8
1
  6
CONTINUOUS
 62
     6
100
AcDbLine
 10
-239.1511
 20
97.2344
 30
0.0
 11
-239.1511
 21
89.7531
 31
0.0
  0
LINE
  5
210
100
AcDbEntity
  8
1
  6
CONTINUOUS
 62
     6
100
AcDbLine
 10
-240.3511
 20
135.5018
 30
0.0
 11
-240.3511
 21
143.7531
 31
0.0
  0
LINE
  5
211
100
AcDbEntity
  8
1
  6
CONTINUOUS
 62
     6
100
AcDbLine
 10
-240.3511
 20
98.0342
 30
0.0
 11
-240.3511
 21
89.7531
 31
0.0
  0
ARC
  5
212
100
AcDbEntity
  8
1
  6
CONTINUOUS
 62
     6
100
AcDbCircle
 10
-239.1511
 20
135.501828
 30
0.0
 40
1.2
210
0.0
220
0.0
230
1.0
100
AcDbArc
 50
180.0
 51
242.890028
  0
ARC
  5
213
100
AcDbEntity
  8
1
  6
CONTINUOUS
 62
     6
100
AcDbCircle
 10
-238.5511
 20
136.308083
 30
0.0
 40
0.6
210
0.0
220
0.0
230
1.0
100
AcDbArc
 50
180.0
 51
240.763475
  0
ARC
  5
214
100
AcDbEntity
  8
1
  6
CONTINUOUS
 62
     6
100
AcDbCircle
 10
-228.559264
 20
122.7531
 30
0.0
 40
1.2
210
0.0
220
0.0
230
1.0
100
AcDbArc
 50
196.550603
 51
270.0
  0
ARC
  5
215
100
AcDbEntity
  8
1
  6
CONTINUOUS
 62
     6
100
AcDbCircle
 10
-249.507976
 20
116.7531
 30
0.0
 40
21.80974
210
0.0
220
0.0
230
1.0
100
AcDbArc
 50
17.128444
 51
60.763475
  0
ARC
  5
216
100
AcDbEntity
  8
1
  6
CONTINUOUS
 62
     6
100
AcDbCircle
 10
-228.092178
 20
123.3531
 30
0.0
 40
0.6
210
0.0
220
0.0
230
1.0
100
AcDbArc
 50
197.128444
 51
270.0
  0
ARC
  5
217
100
AcDbEntity
  8
1
  6
CONTINUOUS
 62
     6
100
AcDbCircle
 10
-248.749427
 20
116.7829
 30
0.0
 40
19.862827
210
0.0
220
0.0
230
1.0
100
AcDbArc
 50
297.109972
 51
343.364811
  0
ARC
  5
218
100
AcDbEntity
  8
1
  6
CONTINUOUS
 62
     6
100
AcDbCircle
 10
-249.507976
 20
116.7829
 30
0.0
 40
21.80974
210
0.0
220
0.0
230
1.0
100
AcDbArc
 50
299.270519
 51
342.791811
  0
ARC
  5
219
100
AcDbEntity
  8
1
  6
CONTINUOUS
 62
     6
100
AcDbCircle
 10
-228.101384
 20
110.1531
 30
0.0
 40
0.6
210
0.0
220
0.0
230
1.0
100
AcDbArc
 50
90.0
 51
162.791811
  0
ARC
  5
21A
100
AcDbEntity
  8
1
  6
CONTINUOUS
 62
     6
100
AcDbCircle
 10
-228.568144
 20
110.7531
 30
0.0
 40
1.2
210
0.0
220
0.0
230
1.0
100
AcDbArc
 50
90.0
 51
163.364811
  0
ARC
  5
21B
100
AcDbEntity
  8
1
  6
CONTINUOUS
 62
     6
100
AcDbCircle
 10
-239.1511
 20
98.034172
 30
0.0
 40
1.2
210
0.0
220
0.0
230
1.0
100
AcDbArc
 50
117.109972
 51
180.0
  0
ARC
  5
21C
100
AcDbEntity
  8
1
  6
CONTINUOUS
 62
     6
100
AcDbCircle
 10
-238.5511
 20
97.234414
 30
0.0
 40
0.6
210
0.0
220
0.0
230
1.0
100
AcDbArc
 50
119.270519
 51
180.0
  0
LINE
  5
21D
100
AcDbEntity
  8
1
  6
CONTINUOUS
 62
     6
100
AcDbLine
 10
-255.2537
 20
143.7531
 30
0.0
 11
-254.0537
 21
143.7531
 31
0.0
  0
LINE
  5
21E
100
AcDbEntity
  8
1
  6
CONTINUOUS
 62
     6
100
AcDbLine
 10
-240.3511
 20
143.7531
 30
0.0
 11
-239.1511
 21
143.7531
 31
0.0
  0
LINE
  5
21F
100
AcDbEntity
  8
1
  6
CONTINUOUS
 62
     6
100
AcDbLine
 10
-255.2537
 20
89.7531
 30
0.0
 11
-254.0537
 21
89.7531
 31
0.0
  0
LINE
  5
220
100
AcDbEntity
  8
1
  6
CONTINUOUS
 62
     6
100
AcDbLine
 10
-240.3511
 20
89.7531
 30
0.0
 11
-239.1511
 21
89.7531
 31
0.0
  0
LINE
  5
221
100
AcDbEntity
  8
1
  6
CONTINUOUS
 62
     6
100
AcDbLine
 10
-252.6833
 20
138.5306
 30
0.0
 11
-252.6833
 21
141.5306
 31
0.0
  0
LINE
  5
222
100
AcDbEntity
  8
1
  6
CONTINUOUS
 62
     6
100
AcDbLine
 10
-251.3129
 20
138.5306
 30
0.0
 11
-251.3129
 21
141.5306
 31
0.0
  0
LINE
  5
223
100
AcDbEntity
  8
1
  6
CONTINUOUS
 62
     6
100
AcDbLine
 10
-249.9425
 20
138.5306
 30
0.0
 11
-249.9425
 21
141.5306
 31
0.0
  0
LINE
  5
224
100
AcDbEntity
  8
1
  6
CONTINUOUS
 62
     6
100
AcDbLine
 10
-248.5721
 20
138.5306
 30
0.0
 11
-248.5721
 21
141.5306
 31
0.0
  0
LINE
  5
225
100
AcDbEntity
  8
1
  6
CONTINUOUS
 62
     6
100
AcDbLine
 10
-247.2017
 20
138.5306
 30
0.0
 11
-247.2017
 21
141.5306
 31
0.0
  0
LINE
  5
226
100
AcDbEntity
  8
1
  6
CONTINUOUS
 62
     6
100
AcDbLine
 10
-245.8313
 20
138.5306
 30
0.0
 11
-245.8313
 21
141.5306
 31
0.0
  0
LINE
  5
227
100
AcDbEntity
  8
1
  6
CONTINUOUS
 62
     6
100
AcDbLine
 10
-244.4609
 20
138.5306
 30
0.0
 11
-244.4609
 21
141.5306
 31
0.0
  0
LINE
  5
228
100
AcDbEntity
  8
1
  6
CONTINUOUS
 62
     6
100
AcDbLine
 10
-243.0905
 20
138.5306
 30
0.0
 11
-243.0905
 21
141.5306
 31
0.0
  0
LINE
  5
229
100
AcDbEntity
  8
1
  6
CONTINUOUS
 62
     6
100
AcDbLine
 10
-241.7201
 20
138.5306
 30
0.0
 11
-241.7201
 21
141.5306
 31
0.0
  0
LINE
  5
22A
100
AcDbEntity
  8
1
  6
CONTINUOUS
 62
     6
100
AcDbLine
 10
-253.3685
 20
139.4306
 30
0.0
 11
-253.3685
 21
140.6306
 31
0.0
  0
LINE
  5
22B
100
AcDbEntity
  8
1
  6
CONTINUOUS
 62
     6
100
AcDbLine
 10
-251.9981
 20
139.4306
 30
0.0
 11
-251.9981
 21
140.6306
 31
0.0
  0
LINE
  5
22C
100
AcDbEntity
  8
1
  6
CONTINUOUS
 62
     6
100
AcDbLine
 10
-250.6277
 20
139.4306
 30
0.0
 11
-250.6277
 21
140.6306
 31
0.0
  0
LINE
  5
22D
100
AcDbEntity
  8
1
  6
CONTINUOUS
 62
     6
100
AcDbLine
 10
-249.2573
 20
139.4306
 30
0.0
 11
-249.2573
 21
140.6306
 31
0.0
  0
LINE
  5
22E
100
AcDbEntity
  8
1
  6
CONTINUOUS
 62
     6
100
AcDbLine
 10
-247.8869
 20
139.4306
 30
0.0
 11
-247.8869
 21
140.6306
 31
0.0
  0
LINE
  5
22F
100
AcDbEntity
  8
1
  6
CONTINUOUS
 62
     6
100
AcDbLine
 10
-246.5165
 20
139.4306
 30
0.0
 11
-246.5165
 21
140.6306
 31
0.0
  0
LINE
  5
230
100
AcDbEntity
  8
1
  6
CONTINUOUS
 62
     6
100
AcDbLine
 10
-245.1461
 20
139.4306
 30
0.0
 11
-245.1461
 21
140.6306
 31
0.0
  0
LINE
  5
231
100
AcDbEntity
  8
1
  6
CONTINUOUS
 62
     6
100
AcDbLine
 10
-243.7757
 20
139.4306
 30
0.0
 11
-243.7757
 21
140.6306
 31
0.0
  0
LINE
  5
232
100
AcDbEntity
  8
1
  6
CONTINUOUS
 62
     6
100
AcDbLine
 10
-242.4053
 20
139.4306
 30
0.0
 11
-242.4053
 21
140.6306
 31
0.0
  0
LINE
  5
233
100
AcDbEntity
  8
1
  6
CONTINUOUS
 62
     6
100
AcDbLine
 10
-241.0349
 20
139.4306
 30
0.0
 11
-241.0349
 21
140.6306
 31
0.0
  0
LINE
  5
234
100
AcDbEntity
  8
1
  6
CONTINUOUS
 62
     6
100
AcDbLine
 10
-240.3511
 20
141.5306
 30
0.0
 11
-254.0537
 21
141.5306
 31
0.0
  0
LINE
  5
235
100
AcDbEntity
  8
1
  6
CONTINUOUS
 62
     6
100
AcDbLine
 10
-240.3511
 20
138.5306
 30
0.0
 11
-254.0537
 21
138.5306
 31
0.0
  0
LINE
  5
236
100
AcDbEntity
  8
1
  6
CONTINUOUS
 62
     6
100
AcDbLine
 10
-236.1511
 20
142.7306
 30
0.0
 11
-239.1511
 21
142.7306
 31
0.0
  0
LINE
  5
237
100
AcDbEntity
  8
1
  6
CONTINUOUS
 62
     6
100
AcDbLine
 10
-236.1511
 20
137.3306
 30
0.0
 11
-239.1511
 21
137.3306
 31
0.0
  0
LINE
  5
238
100
AcDbEntity
  8
1
  6
CONTINUOUS
 62
     6
100
AcDbLine
 10
-236.1875
 20
141.5306
 30
0.0
 11
-235.5511
 21
142.167
 31
0.0
  0
LINE
  5
239
100
AcDbEntity
  8
1
  6
CONTINUOUS
 62
     6
100
AcDbLine
 10
-236.1875
 20
141.5306
 30
0.0
 11
-235.5511
 21
140.8942
 31
0.0
  0
LINE
  5
23A
100
AcDbEntity
  8
1
  6
CONTINUOUS
 62
     6
100
AcDbLine
 10
-236.1875
 20
138.5306
 30
0.0
 11
-235.5511
 21
139.167
 31
0.0
  0
LINE
  5
23B
100
AcDbEntity
  8
1
  6
CONTINUOUS
 62
     6
100
AcDbLine
 10
-236.1875
 20
138.5306
 30
0.0
 11
-235.5511
 21
137.8942
 31
0.0
  0
LINE
  5
23C
100
AcDbEntity
  8
1
  6
CONTINUOUS
 62
     6
100
AcDbLine
 10
-235.5511
 20
142.1306
 30
0.0
 11
-235.5511
 21
137.9306
 31
0.0
  0
ARC
  5
23D
100
AcDbEntity
  8
1
  6
CONTINUOUS
 62
     6
100
AcDbCircle
 10
-236.1511
 20
142.1306
 30
0.0
 40
0.6
210
0.0
220
0.0
230
1.0
100
AcDbArc
 50
0.0
 51
90.0
  0
ARC
  5
23E
100
AcDbEntity
  8
1
  6
CONTINUOUS
 62
     6
100
AcDbCircle
 10
-236.1511
 20
137.9306
 30
0.0
 40
0.6
210
0.0
220
0.0
230
1.0
100
AcDbArc
 50
270.0
 51
0.0
  0
LINE
  5
23F
100
AcDbEntity
  8
1
  6
CONTINUOUS
 62
     6
100
AcDbLine
 10
-258.8529
 20
142.1306
 30
0.0
 11
-258.8529
 21
137.9306
 31
0.0
  0
LINE
  5
240
100
AcDbEntity
  8
1
  6
CONTINUOUS
 62
     6
100
AcDbLine
 10
-258.2529
 20
142.7306
 30
0.0
 11
-255.2529
 21
142.7306
 31
0.0
  0
LINE
  5
241
100
AcDbEntity
  8
1
  6
CONTINUOUS
 62
     6
100
AcDbLine
 10
-258.2529
 20
137.3306
 30
0.0
 11
-255.2529
 21
137.3306
 31
0.0
  0
LINE
  5
242
100
AcDbEntity
  8
1
  6
CONTINUOUS
 62
     6
100
AcDbLine
 10
-258.2165
 20
141.5306
 30
0.0
 11
-258.8529
 21
142.167
 31
0.0
  0
LINE
  5
243
100
AcDbEntity
  8
1
  6
CONTINUOUS
 62
     6
100
AcDbLine
 10
-258.2165
 20
141.5306
 30
0.0
 11
-258.8529
 21
140.8942
 31
0.0
  0
LINE
  5
244
100
AcDbEntity
  8
1
  6
CONTINUOUS
 62
     6
100
AcDbLine
 10
-258.2165
 20
138.5306
 30
0.0
 11
-258.8529
 21
139.167
 31
0.0
  0
LINE
  5
245
100
AcDbEntity
  8
1
  6
CONTINUOUS
 62
     6
100
AcDbLine
 10
-258.2165
 20
138.5306
 30
0.0
 11
-258.8529
 21
137.8942
 31
0.0
  0
ARC
  5
246
100
AcDbEntity
  8
1
  6
CONTINUOUS
 62
     6
100
AcDbCircle
 10
-258.2529
 20
142.1306
 30
0.0
 40
0.6
210
0.0
220
0.0
230
1.0
100
AcDbArc
 50
90.0
 51
180.0
  0
ARC
  5
247
100
AcDbEntity
  8
1
  6
CONTINUOUS
 62
     6
100
AcDbCircle
 10
-258.2529
 20
137.9306
 30
0.0
 40
0.6
210
0.0
220
0.0
230
1.0
100
AcDbArc
 50
180.0
 51
270.0
  0
LINE
  5
248
100
AcDbEntity
  8
1
  6
CONTINUOUS
 62
     6
100
AcDbLine
 10
-258.2165
 20
141.5306
 30
0.0
 11
-255.2529
 21
141.5306
 31
0.0
  0
LINE
  5
249
100
AcDbEntity
  8
1
  6
CONTINUOUS
 62
     6
100
AcDbLine
 10
-258.2165
 20
138.5306
 30
0.0
 11
-255.2529
 21
138.5306
 31
0.0
  0
LINE
  5
24A
100
AcDbEntity
  8
1
  6
CONTINUOUS
 62
     6
100
AcDbLine
 10
-234.1807
 20
141.5306
 30
0.0
 11
-235.5511
 21
141.5306
 31
0.0
  0
LINE
  5
24B
100
AcDbEntity
  8
1
  6
CONTINUOUS
 62
     6
100
AcDbLine
 10
-236.1875
 20
141.5306
 30
0.0
 11
-239.1511
 21
141.5306
 31
0.0
  0
LINE
  5
24C
100
AcDbEntity
  8
1
  6
CONTINUOUS
 62
     6
100
AcDbLine
 10
-234.1807
 20
138.5306
 30
0.0
 11
-235.5511
 21
138.5306
 31
0.0
  0
LINE
  5
24D
100
AcDbEntity
  8
1
  6
CONTINUOUS
 62
     6
100
AcDbLine
 10
-236.1875
 20
138.5306
 30
0.0
 11
-239.1511
 21
138.5306
 31
0.0
  0
LINE
  5
24E
100
AcDbEntity
  8
1
  6
CONTINUOUS
 62
     6
100
AcDbLine
 10
-234.1807
 20
141.5306
 30
0.0
 11
-234.1807
 21
138.5306
 31
0.0
  0
LINE
  5
24F
100
AcDbEntity
  8
1
  6
CONTINUOUS
 62
     6
100
AcDbLine
 10
-234.8708
 20
139.4306
 30
0.0
 11
-234.8708
 21
140.6306
 31
0.0
  0
LINE
  5
250
100
AcDbEntity
  8
1
  6
CONTINUOUS
 62
     6
100
AcDbLine
 10
-233.5807
 20
141.2306
 30
0.0
 11
-233.5807
 21
138.8306
 31
0.0
  0
LINE
  5
251
100
AcDbEntity
  8
1
  6
CONTINUOUS
 62
     6
100
AcDbLine
 10
-234.1807
 20
141.5306
 30
0.0
 11
-233.5807
 21
141.2306
 31
0.0
  0
LINE
  5
252
100
AcDbEntity
  8
1
  6
CONTINUOUS
 62
     6
100
AcDbLine
 10
-234.1807
 20
138.5306
 30
0.0
 11
-233.5807
 21
138.8306
 31
0.0
  0
LINE
  5
253
100
AcDbEntity
  8
1
  6
CONTINUOUS
 62
     6
100
AcDbLine
 10
-244.4609
 20
92.3787
 30
0.0
 11
-244.4609
 21
95.3787
 31
0.0
  0
LINE
  5
254
100
AcDbEntity
  8
1
  6
CONTINUOUS
 62
     6
100
AcDbLine
 10
-252.6833
 20
92.3787
 30
0.0
 11
-252.6833
 21
95.3787
 31
0.0
  0
LINE
  5
255
100
AcDbEntity
  8
1
  6
CONTINUOUS
 62
     6
100
AcDbLine
 10
-251.3129
 20
92.3787
 30
0.0
 11
-251.3129
 21
95.3787
 31
0.0
  0
LINE
  5
256
100
AcDbEntity
  8
1
  6
CONTINUOUS
 62
     6
100
AcDbLine
 10
-249.9425
 20
92.3787
 30
0.0
 11
-249.9425
 21
95.3787
 31
0.0
  0
LINE
  5
257
100
AcDbEntity
  8
1
  6
CONTINUOUS
 62
     6
100
AcDbLine
 10
-248.5721
 20
92.3787
 30
0.0
 11
-248.5721
 21
95.3787
 31
0.0
  0
LINE
  5
258
100
AcDbEntity
  8
1
  6
CONTINUOUS
 62
     6
100
AcDbLine
 10
-247.2017
 20
92.3787
 30
0.0
 11
-247.2017
 21
95.3787
 31
0.0
  0
LINE
  5
259
100
AcDbEntity
  8
1
  6
CONTINUOUS
 62
     6
100
AcDbLine
 10
-245.8313
 20
92.3787
 30
0.0
 11
-245.8313
 21
95.3787
 31
0.0
  0
LINE
  5
25A
100
AcDbEntity
  8
1
  6
CONTINUOUS
 62
     6
100
AcDbLine
 10
-243.0905
 20
92.3787
 30
0.0
 11
-243.0905
 21
95.3787
 31
0.0
  0
LINE
  5
25B
100
AcDbEntity
  8
1
  6
CONTINUOUS
 62
     6
100
AcDbLine
 10
-241.7201
 20
92.3787
 30
0.0
 11
-241.7201
 21
95.3787
 31
0.0
  0
LINE
  5
25C
100
AcDbEntity
  8
1
  6
CONTINUOUS
 62
     6
100
AcDbLine
 10
-253.3685
 20
93.2787
 30
0.0
 11
-253.3685
 21
94.4787
 31
0.0
  0
LINE
  5
25D
100
AcDbEntity
  8
1
  6
CONTINUOUS
 62
     6
100
AcDbLine
 10
-251.9981
 20
93.2787
 30
0.0
 11
-251.9981
 21
94.4787
 31
0.0
  0
LINE
  5
25E
100
AcDbEntity
  8
1
  6
CONTINUOUS
 62
     6
100
AcDbLine
 10
-250.6277
 20
93.2787
 30
0.0
 11
-250.6277
 21
94.4787
 31
0.0
  0
LINE
  5
25F
100
AcDbEntity
  8
1
  6
CONTINUOUS
 62
     6
100
AcDbLine
 10
-249.2573
 20
93.2787
 30
0.0
 11
-249.2573
 21
94.4787
 31
0.0
  0
LINE
  5
260
100
AcDbEntity
  8
1
  6
CONTINUOUS
 62
     6
100
AcDbLine
 10
-247.8869
 20
93.2787
 30
0.0
 11
-247.8869
 21
94.4787
 31
0.0
  0
LINE
  5
261
100
AcDbEntity
  8
1
  6
CONTINUOUS
 62
     6
100
AcDbLine
 10
-246.5165
 20
93.2787
 30
0.0
 11
-246.5165
 21
94.4787
 31
0.0
  0
LINE
  5
262
100
AcDbEntity
  8
1
  6
CONTINUOUS
 62
     6
100
AcDbLine
 10
-245.1461
 20
93.2787
 30
0.0
 11
-245.1461
 21
94.4787
 31
0.0
  0
LINE
  5
263
100
AcDbEntity
  8
1
  6
CONTINUOUS
 62
     6
100
AcDbLine
 10
-243.7757
 20
93.2787
 30
0.0
 11
-243.7757
 21
94.4787
 31
0.0
  0
LINE
  5
264
100
AcDbEntity
  8
1
  6
CONTINUOUS
 62
     6
100
AcDbLine
 10
-242.4053
 20
93.2787
 30
0.0
 11
-242.4053
 21
94.4787
 31
0.0
  0
LINE
  5
265
100
AcDbEntity
  8
1
  6
CONTINUOUS
 62
     6
100
AcDbLine
 10
-241.0349
 20
93.2787
 30
0.0
 11
-241.0349
 21
94.4787
 31
0.0
  0
LINE
  5
266
100
AcDbEntity
  8
1
  6
CONTINUOUS
 62
     6
100
AcDbLine
 10
-240.3511
 20
95.3787
 30
0.0
 11
-254.0537
 21
95.3787
 31
0.0
  0
LINE
  5
267
100
AcDbEntity
  8
1
  6
CONTINUOUS
 62
     6
100
AcDbLine
 10
-240.3511
 20
92.3787
 30
0.0
 11
-254.0537
 21
92.3787
 31
0.0
  0
LINE
  5
268
100
AcDbEntity
  8
1
  6
CONTINUOUS
 62
     6
100
AcDbLine
 10
-236.1511
 20
96.5787
 30
0.0
 11
-239.1511
 21
96.5787
 31
0.0
  0
LINE
  5
269
100
AcDbEntity
  8
1
  6
CONTINUOUS
 62
     6
100
AcDbLine
 10
-236.1511
 20
91.1787
 30
0.0
 11
-239.1511
 21
91.1787
 31
0.0
  0
LINE
  5
26A
100
AcDbEntity
  8
1
  6
CONTINUOUS
 62
     6
100
AcDbLine
 10
-236.1875
 20
95.3787
 30
0.0
 11
-235.5511
 21
96.0151
 31
0.0
  0
LINE
  5
26B
100
AcDbEntity
  8
1
  6
CONTINUOUS
 62
     6
100
AcDbLine
 10
-236.1875
 20
95.3787
 30
0.0
 11
-235.5511
 21
94.7423
 31
0.0
  0
LINE
  5
26C
100
AcDbEntity
  8
1
  6
CONTINUOUS
 62
     6
100
AcDbLine
 10
-236.1875
 20
92.3787
 30
0.0
 11
-235.5511
 21
93.0151
 31
0.0
  0
LINE
  5
26D
100
AcDbEntity
  8
1
  6
CONTINUOUS
 62
     6
100
AcDbLine
 10
-236.1875
 20
92.3787
 30
0.0
 11
-235.5511
 21
91.7423
 31
0.0
  0
LINE
  5
26E
100
AcDbEntity
  8
1
  6
CONTINUOUS
 62
     6
100
AcDbLine
 10
-235.5511
 20
95.9787
 30
0.0
 11
-235.5511
 21
91.7787
 31
0.0
  0
ARC
  5
26F
100
AcDbEntity
  8
1
  6
CONTINUOUS
 62
     6
100
AcDbCircle
 10
-236.1511
 20
95.9787
 30
0.0
 40
0.6
210
0.0
220
0.0
230
1.0
100
AcDbArc
 50
0.0
 51
90.0
  0
ARC
  5
270
100
AcDbEntity
  8
1
  6
CONTINUOUS
 62
     6
100
AcDbCircle
 10
-236.1511
 20
91.7787
 30
0.0
 40
0.6
210
0.0
220
0.0
230
1.0
100
AcDbArc
 50
270.0
 51
0.0
  0
LINE
  5
271
100
AcDbEntity
  8
1
  6
CONTINUOUS
 62
     6
100
AcDbLine
 10
-258.8529
 20
95.9787
 30
0.0
 11
-258.8529
 21
91.7787
 31
0.0
  0
LINE
  5
272
100
AcDbEntity
  8
1
  6
CONTINUOUS
 62
     6
100
AcDbLine
 10
-258.2529
 20
96.5787
 30
0.0
 11
-255.2529
 21
96.5787
 31
0.0
  0
LINE
  5
273
100
AcDbEntity
  8
1
  6
CONTINUOUS
 62
     6
100
AcDbLine
 10
-258.2529
 20
91.1787
 30
0.0
 11
-255.2529
 21
91.1787
 31
0.0
  0
LINE
  5
274
100
AcDbEntity
  8
1
  6
CONTINUOUS
 62
     6
100
AcDbLine
 10
-258.2165
 20
95.3787
 30
0.0
 11
-258.8529
 21
96.0151
 31
0.0
  0
LINE
  5
275
100
AcDbEntity
  8
1
  6
CONTINUOUS
 62
     6
100
AcDbLine
 10
-258.2165
 20
95.3787
 30
0.0
 11
-258.8529
 21
94.7423
 31
0.0
  0
LINE
  5
276
100
AcDbEntity
  8
1
  6
CONTINUOUS
 62
     6
100
AcDbLine
 10
-258.2165
 20
92.3787
 30
0.0
 11
-258.8529
 21
93.0151
 31
0.0
  0
LINE
  5
277
100
AcDbEntity
  8
1
  6
CONTINUOUS
 62
     6
100
AcDbLine
 10
-258.2165
 20
92.3787
 30
0.0
 11
-258.8529
 21
91.7423
 31
0.0
  0
ARC
  5
278
100
AcDbEntity
  8
1
  6
CONTINUOUS
 62
     6
100
AcDbCircle
 10
-258.2529
 20
95.9787
 30
0.0
 40
0.6
210
0.0
220
0.0
230
1.0
100
AcDbArc
 50
90.0
 51
180.0
  0
ARC
  5
279
100
AcDbEntity
  8
1
  6
CONTINUOUS
 62
     6
100
AcDbCircle
 10
-258.2529
 20
91.7787
 30
0.0
 40
0.6
210
0.0
220
0.0
230
1.0
100
AcDbArc
 50
180.0
 51
270.0
  0
LINE
  5
27A
100
AcDbEntity
  8
1
  6
CONTINUOUS
 62
     6
100
AcDbLine
 10
-258.2165
 20
95.3787
 30
0.0
 11
-255.2529
 21
95.3787
 31
0.0
  0
LINE
  5
27B
100
AcDbEntity
  8
1
  6
CONTINUOUS
 62
     6
100
AcDbLine
 10
-258.2165
 20
92.3787
 30
0.0
 11
-255.2529
 21
92.3787
 31
0.0
  0
LINE
  5
27C
100
AcDbEntity
  8
1
  6
CONTINUOUS
 62
     6
100
AcDbLine
 10
-234.1807
 20
95.3787
 30
0.0
 11
-235.5511
 21
95.3787
 31
0.0
  0
LINE
  5
27D
100
AcDbEntity
  8
1
  6
CONTINUOUS
 62
     6
100
AcDbLine
 10
-236.1875
 20
95.3787
 30
0.0
 11
-239.1511
 21
95.3787
 31
0.0
  0
LINE
  5
27E
100
AcDbEntity
  8
1
  6
CONTINUOUS
 62
     6
100
AcDbLine
 10
-234.1807
 20
92.3787
 30
0.0
 11
-235.5511
 21
92.3787
 31
0.0
  0
LINE
  5
27F
100
AcDbEntity
  8
1
  6
CONTINUOUS
 62
     6
100
AcDbLine
 10
-236.1875
 20
92.3787
 30
0.0
 11
-239.1511
 21
92.3787
 31
0.0
  0
LINE
  5
280
100
AcDbEntity
  8
1
  6
CONTINUOUS
 62
     6
100
AcDbLine
 10
-234.1807
 20
95.3787
 30
0.0
 11
-234.1807
 21
92.3787
 31
0.0
  0
LINE
  5
281
100
AcDbEntity
  8
1
  6
CONTINUOUS
 62
     6
100
AcDbLine
 10
-234.8708
 20
93.2787
 30
0.0
 11
-234.8708
 21
94.4787
 31
0.0
  0
LINE
  5
282
100
AcDbEntity
  8
1
  6
CONTINUOUS
 62
     6
100
AcDbLine
 10
-233.5807
 20
95.0787
 30
0.0
 11
-233.5807
 21
92.6787
 31
0.0
  0
LINE
  5
283
100
AcDbEntity
  8
1
  6
CONTINUOUS
 62
     6
100
AcDbLine
 10
-234.1807
 20
95.3787
 30
0.0
 11
-233.5807
 21
95.0787
 31
0.0
  0
LINE
  5
284
100
AcDbEntity
  8
1
  6
CONTINUOUS
 62
     6
100
AcDbLine
 10
-234.1807
 20
92.3787
 30
0.0
 11
-233.5807
 21
92.6787
 31
0.0
  0
LINE
  5
285
100
AcDbEntity
  8
1
  6
CONTINUOUS
 62
     6
100
AcDbLine
 10
-273.0137
 20
118.2531
 30
0.0
 11
-272.2937
 21
118.2531
 31
0.0
  0
LINE
  5
286
100
AcDbEntity
  8
1
  6
CONTINUOUS
 62
     6
100
AcDbLine
 10
-273.0137
 20
115.2531
 30
0.0
 11
-272.2937
 21
115.2531
 31
0.0
  0
LINE
  5
287
100
AcDbEntity
  8
1
  6
CONTINUOUS
 62
     6
100
AcDbLine
 10
-219.7807
 20
118.2531
 30
0.0
 11
-219.7807
 21
115.2531
 31
0.0
  0
LINE
  5
288
100
AcDbEntity
  8
1
  6
CONTINUOUS
 62
     6
100
AcDbLine
 10
-218.4103
 20
120.3531
 30
0.0
 11
-218.4103
 21
113.1531
 31
0.0
  0
LINE
  5
289
100
AcDbEntity
  8
1
  6
CONTINUOUS
 62
     6
100
AcDbLine
 10
-220.4659
 20
117.3531
 30
0.0
 11
-220.4659
 21
116.1531
 31
0.0
  0
LINE
  5
28A
100
AcDbEntity
  8
1
  6
CONTINUOUS
 62
     6
100
AcDbLine
 10
-219.0955
 20
117.3531
 30
0.0
 11
-219.0955
 21
116.1531
 31
0.0
  0
LINE
  5
28B
100
AcDbEntity
  8
1
  6
CONTINUOUS
 62
     6
100
AcDbLine
 10
-217.8103
 20
120.3531
 30
0.0
 11
-217.8103
 21
113.1531
 31
0.0
  0
LINE
  5
28C
100
AcDbEntity
  8
1
  6
CONTINUOUS
 62
     6
100
AcDbLine
 10
-218.4103
 20
120.3531
 30
0.0
 11
-214.8103
 21
120.3531
 31
0.0
  0
LINE
  5
28D
100
AcDbEntity
  8
1
  6
CONTINUOUS
 62
     6
100
AcDbLine
 10
-218.4103
 20
113.1531
 30
0.0
 11
-214.8103
 21
113.1531
 31
0.0
  0
LINE
  5
28E
100
AcDbEntity
  8
1
  6
CONTINUOUS
 62
     6
100
AcDbLine
 10
-221.1511
 20
118.2531
 30
0.0
 11
-218.4103
 21
118.2531
 31
0.0
  0
LINE
  5
28F
100
AcDbEntity
  8
1
  6
CONTINUOUS
 62
     6
100
AcDbLine
 10
-213.9008
 20
118.2531
 30
0.0
 11
-212.1511
 21
118.2531
 31
0.0
  0
LINE
  5
290
100
AcDbEntity
  8
1
  6
CONTINUOUS
 62
     6
100
AcDbLine
 10
-221.1511
 20
115.2531
 30
0.0
 11
-218.4103
 21
115.2531
 31
0.0
  0
LINE
  5
291
100
AcDbEntity
  8
1
  6
CONTINUOUS
 62
     6
100
AcDbLine
 10
-213.9008
 20
115.2531
 30
0.0
 11
-212.1511
 21
115.2531
 31
0.0
  0
LINE
  5
292
100
AcDbEntity
  8
1
  6
CONTINUOUS
 62
     6
100
AcDbLine
 10
-217.8103
 20
116.7531
 30
0.0
 11
-214.8103
 21
116.7531
 31
0.0
  0
ARC
  5
293
100
AcDbEntity
  8
1
  6
CONTINUOUS
 62
     6
100
AcDbCircle
 10
-216.087255
 20
118.5531
 30
0.0
 40
2.206947
210
0.0
220
0.0
230
1.0
100
AcDbArc
 50
305.352622
 51
54.647375
  0
ARC
  5
294
100
AcDbEntity
  8
1
  6
CONTINUOUS
 62
     6
100
AcDbCircle
 10
-216.087255
 20
114.9531
 30
0.0
 40
2.206947
210
0.0
220
0.0
230
1.0
100
AcDbArc
 50
305.352622
 51
54.647375
  0
LINE
  5
295
100
AcDbEntity
  8
1
  6
CONTINUOUS
 62
     6
100
AcDbLine
 10
-213.9008
 20
118.2531
 30
0.0
 11
-213.9008
 21
115.2531
 31
0.0
  0
LINE
  5
296
100
AcDbEntity
  8
1
  6
CONTINUOUS
 62
     6
100
AcDbLine
 10
-212.1511
 20
118.2531
 30
0.0
 11
-212.1511
 21
115.2531
 31
0.0
  0
LINE
  5
297
100
AcDbEntity
  8
1
  6
CONTINUOUS
 62
     6
100
AcDbLine
 10
-211.5511
 20
117.6531
 30
0.0
 11
-211.5511
 21
115.8531
 31
0.0
  0
LINE
  5
298
100
AcDbEntity
  8
1
  6
CONTINUOUS
 62
     6
100
AcDbLine
 10
-212.1511
 20
118.2531
 30
0.0
 11
-211.5511
 21
117.6531
 31
0.0
  0
LINE
  5
299
100
AcDbEntity
  8
1
  6
CONTINUOUS
 62
     6
100
AcDbLine
 10
-211.5511
 20
115.8531
 30
0.0
 11
-212.1511
 21
115.2531
 31
0.0
  0
LINE
  5
29A
100
AcDbEntity
  8
1
  6
CONTINUOUS
 62
     6
100
AcDbLine
 10
-213.0297
 20
117.3531
 30
0.0
 11
-213.0297
 21
116.1531
 31
0.0
  0
ARC
  5
29B
100
AcDbEntity
  8
1
  6
CONTINUOUS
 62
     6
100
AcDbCircle
 10
-222.043126
 20
116.35057
 30
0.0
 40
3.212267
210
0.0
220
0.0
230
1.0
100
AcDbArc
 50
96.730464
 51
264.498361
  0
LINE
  5
29C
100
AcDbEntity
  8
1
  6
CONTINUOUS
 62
     6
100
AcDbLine
 10
-243.1344
 20
47.547
 30
0.0
 11
-256.837
 21
47.547
 31
0.0
  0
LINE
  5
29D
100
AcDbEntity
  8
1
  6
CONTINUOUS
 62
     6
100
AcDbLine
 10
-247.2442
 20
47.547
 30
0.0
 11
-247.2442
 21
50.547
 31
0.0
  0
LINE
  5
29E
100
AcDbEntity
  8
1
  6
CONTINUOUS
 62
     6
100
AcDbLine
 10
-255.4666
 20
47.547
 30
0.0
 11
-255.4666
 21
50.547
 31
0.0
  0
LINE
  5
29F
100
AcDbEntity
  8
1
  6
CONTINUOUS
 62
     6
100
AcDbLine
 10
-254.0962
 20
47.547
 30
0.0
 11
-254.0962
 21
50.547
 31
0.0
  0
LINE
  5
2A0
100
AcDbEntity
  8
1
  6
CONTINUOUS
 62
     6
100
AcDbLine
 10
-252.7258
 20
47.547
 30
0.0
 11
-252.7258
 21
50.547
 31
0.0
  0
LINE
  5
2A1
100
AcDbEntity
  8
1
  6
CONTINUOUS
 62
     6
100
AcDbLine
 10
-251.3554
 20
47.547
 30
0.0
 11
-251.3554
 21
50.547
 31
0.0
  0
LINE
  5
2A2
100
AcDbEntity
  8
1
  6
CONTINUOUS
 62
     6
100
AcDbLine
 10
-249.985
 20
47.547
 30
0.0
 11
-249.985
 21
50.547
 31
0.0
  0
LINE
  5
2A3
100
AcDbEntity
  8
1
  6
CONTINUOUS
 62
     6
100
AcDbLine
 10
-248.6146
 20
47.547
 30
0.0
 11
-248.6146
 21
50.547
 31
0.0
  0
LINE
  5
2A4
100
AcDbEntity
  8
1
  6
CONTINUOUS
 62
     6
100
AcDbLine
 10
-245.8738
 20
47.547
 30
0.0
 11
-245.8738
 21
50.547
 31
0.0
  0
LINE
  5
2A5
100
AcDbEntity
  8
1
  6
CONTINUOUS
 62
     6
100
AcDbLine
 10
-244.5034
 20
47.547
 30
0.0
 11
-244.5034
 21
50.547
 31
0.0
  0
LINE
  5
2A6
100
AcDbEntity
  8
1
  6
CONTINUOUS
 62
     6
100
AcDbLine
 10
-256.1518
 20
48.447
 30
0.0
 11
-256.1518
 21
49.647
 31
0.0
  0
LINE
  5
2A7
100
AcDbEntity
  8
1
  6
CONTINUOUS
 62
     6
100
AcDbLine
 10
-254.7814
 20
48.447
 30
0.0
 11
-254.7814
 21
49.647
 31
0.0
  0
LINE
  5
2A8
100
AcDbEntity
  8
1
  6
CONTINUOUS
 62
     6
100
AcDbLine
 10
-253.411
 20
48.447
 30
0.0
 11
-253.411
 21
49.647
 31
0.0
  0
LINE
  5
2A9
100
AcDbEntity
  8
1
  6
CONTINUOUS
 62
     6
100
AcDbLine
 10
-252.0406
 20
48.447
 30
0.0
 11
-252.0406
 21
49.647
 31
0.0
  0
LINE
  5
2AA
100
AcDbEntity
  8
1
  6
CONTINUOUS
 62
     6
100
AcDbLine
 10
-250.6702
 20
48.447
 30
0.0
 11
-250.6702
 21
49.647
 31
0.0
  0
LINE
  5
2AB
100
AcDbEntity
  8
1
  6
CONTINUOUS
 62
     6
100
AcDbLine
 10
-249.2998
 20
48.447
 30
0.0
 11
-249.2998
 21
49.647
 31
0.0
  0
LINE
  5
2AC
100
AcDbEntity
  8
1
  6
CONTINUOUS
 62
     6
100
AcDbLine
 10
-247.9294
 20
48.447
 30
0.0
 11
-247.9294
 21
49.647
 31
0.0
  0
LINE
  5
2AD
100
AcDbEntity
  8
1
  6
CONTINUOUS
 62
     6
100
AcDbLine
 10
-246.559
 20
48.447
 30
0.0
 11
-246.559
 21
49.647
 31
0.0
  0
LINE
  5
2AE
100
AcDbEntity
  8
1
  6
CONTINUOUS
 62
     6
100
AcDbLine
 10
-245.1886
 20
48.447
 30
0.0
 11
-245.1886
 21
49.647
 31
0.0
  0
LINE
  5
2AF
100
AcDbEntity
  8
1
  6
CONTINUOUS
 62
     6
100
AcDbLine
 10
-243.8182
 20
48.447
 30
0.0
 11
-243.8182
 21
49.647
 31
0.0
  0
LINE
  5
2B0
100
AcDbEntity
  8
1
  6
CONTINUOUS
 62
     6
100
AcDbLine
 10
-243.1344
 20
50.547
 30
0.0
 11
-256.837
 21
50.547
 31
0.0
  0
LINE
  5
2B1
100
AcDbEntity
  8
1
  6
CONTINUOUS
 62
     6
100
AcDbLine
 10
-238.9344
 20
51.747
 30
0.0
 11
-241.9344
 21
51.747
 31
0.0
  0
LINE
  5
2B2
100
AcDbEntity
  8
1
  6
CONTINUOUS
 62
     6
100
AcDbLine
 10
-238.9344
 20
46.347
 30
0.0
 11
-241.9344
 21
46.347
 31
0.0
  0
LINE
  5
2B3
100
AcDbEntity
  8
1
  6
CONTINUOUS
 62
     6
100
AcDbLine
 10
-238.9708
 20
50.547
 30
0.0
 11
-238.3344
 21
51.1834
 31
0.0
  0
LINE
  5
2B4
100
AcDbEntity
  8
1
  6
CONTINUOUS
 62
     6
100
AcDbLine
 10
-238.9708
 20
50.547
 30
0.0
 11
-238.3344
 21
49.9106
 31
0.0
  0
LINE
  5
2B5
100
AcDbEntity
  8
1
  6
CONTINUOUS
 62
     6
100
AcDbLine
 10
-238.9708
 20
47.547
 30
0.0
 11
-238.3344
 21
48.1834
 31
0.0
  0
LINE
  5
2B6
100
AcDbEntity
  8
1
  6
CONTINUOUS
 62
     6
100
AcDbLine
 10
-238.9708
 20
47.547
 30
0.0
 11
-238.3344
 21
46.9106
 31
0.0
  0
LINE
  5
2B7
100
AcDbEntity
  8
1
  6
CONTINUOUS
 62
     6
100
AcDbLine
 10
-238.3344
 20
51.147
 30
0.0
 11
-238.3344
 21
46.947
 31
0.0
  0
ARC
  5
2B8
100
AcDbEntity
  8
1
  6
CONTINUOUS
 62
     6
100
AcDbCircle
 10
-238.9344
 20
51.147
 30
0.0
 40
0.6
210
0.0
220
0.0
230
1.0
100
AcDbArc
 50
0.0
 51
90.0
  0
ARC
  5
2B9
100
AcDbEntity
  8
1
  6
CONTINUOUS
 62
     6
100
AcDbCircle
 10
-238.9344
 20
46.947
 30
0.0
 40
0.6
210
0.0
220
0.0
230
1.0
100
AcDbArc
 50
270.0
 51
0.0
  0
LINE
  5
2BA
100
AcDbEntity
  8
1
  6
CONTINUOUS
 62
     6
100
AcDbLine
 10
-261.6362
 20
51.147
 30
0.0
 11
-261.6362
 21
46.947
 31
0.0
  0
LINE
  5
2BB
100
AcDbEntity
  8
1
  6
CONTINUOUS
 62
     6
100
AcDbLine
 10
-261.0362
 20
51.747
 30
0.0
 11
-258.0362
 21
51.747
 31
0.0
  0
LINE
  5
2BC
100
AcDbEntity
  8
1
  6
CONTINUOUS
 62
     6
100
AcDbLine
 10
-261.0362
 20
46.347
 30
0.0
 11
-258.0362
 21
46.347
 31
0.0
  0
LINE
  5
2BD
100
AcDbEntity
  8
1
  6
CONTINUOUS
 62
     6
100
AcDbLine
 10
-260.9998
 20
50.547
 30
0.0
 11
-261.6362
 21
51.1834
 31
0.0
  0
LINE
  5
2BE
100
AcDbEntity
  8
1
  6
CONTINUOUS
 62
     6
100
AcDbLine
 10
-260.9998
 20
50.547
 30
0.0
 11
-261.6362
 21
49.9106
 31
0.0
  0
LINE
  5
2BF
100
AcDbEntity
  8
1
  6
CONTINUOUS
 62
     6
100
AcDbLine
 10
-260.9998
 20
47.547
 30
0.0
 11
-261.6362
 21
48.1834
 31
0.0
  0
LINE
  5
2C0
100
AcDbEntity
  8
1
  6
CONTINUOUS
 62
     6
100
AcDbLine
 10
-260.9998
 20
47.547
 30
0.0
 11
-261.6362
 21
46.9106
 31
0.0
  0
ARC
  5
2C1
100
AcDbEntity
  8
1
  6
CONTINUOUS
 62
     6
100
AcDbCircle
 10
-261.0362
 20
51.147
 30
0.0
 40
0.6
210
0.0
220
0.0
230
1.0
100
AcDbArc
 50
90.0
 51
180.0
  0
ARC
  5
2C2
100
AcDbEntity
  8
1
  6
CONTINUOUS
 62
     6
100
AcDbCircle
 10
-261.0362
 20
46.947
 30
0.0
 40
0.6
210
0.0
220
0.0
230
1.0
100
AcDbArc
 50
180.0
 51
270.0
  0
LINE
  5
2C3
100
AcDbEntity
  8
1
  6
CONTINUOUS
 62
     6
100
AcDbLine
 10
-260.9998
 20
50.547
 30
0.0
 11
-258.0362
 21
50.547
 31
0.0
  0
LINE
  5
2C4
100
AcDbEntity
  8
1
  6
CONTINUOUS
 62
     6
100
AcDbLine
 10
-260.9998
 20
47.547
 30
0.0
 11
-258.0362
 21
47.547
 31
0.0
  0
LINE
  5
2C5
100
AcDbEntity
  8
1
  6
CONTINUOUS
 62
     6
100
AcDbLine
 10
-236.964
 20
50.547
 30
0.0
 11
-238.3344
 21
50.547
 31
0.0
  0
LINE
  5
2C6
100
AcDbEntity
  8
1
  6
CONTINUOUS
 62
     6
100
AcDbLine
 10
-238.9708
 20
50.547
 30
0.0
 11
-241.9344
 21
50.547
 31
0.0
  0
LINE
  5
2C7
100
AcDbEntity
  8
1
  6
CONTINUOUS
 62
     6
100
AcDbLine
 10
-236.964
 20
47.547
 30
0.0
 11
-238.3344
 21
47.547
 31
0.0
  0
LINE
  5
2C8
100
AcDbEntity
  8
1
  6
CONTINUOUS
 62
     6
100
AcDbLine
 10
-238.9708
 20
47.547
 30
0.0
 11
-241.9344
 21
47.547
 31
0.0
  0
LINE
  5
2C9
100
AcDbEntity
  8
1
  6
CONTINUOUS
 62
     6
100
AcDbLine
 10
-236.964
 20
50.547
 30
0.0
 11
-236.964
 21
47.547
 31
0.0
  0
LINE
  5
2CA
100
AcDbEntity
  8
1
  6
CONTINUOUS
 62
     6
100
AcDbLine
 10
-237.6541
 20
48.447
 30
0.0
 11
-237.6541
 21
49.647
 31
0.0
  0
LINE
  5
2CB
100
AcDbEntity
  8
1
  6
CONTINUOUS
 62
     6
100
AcDbLine
 10
-236.364
 20
50.247
 30
0.0
 11
-236.364
 21
47.847
 31
0.0
  0
LINE
  5
2CC
100
AcDbEntity
  8
1
  6
CONTINUOUS
 62
     6
100
AcDbLine
 10
-236.964
 20
50.547
 30
0.0
 11
-236.364
 21
50.247
 31
0.0
  0
LINE
  5
2CD
100
AcDbEntity
  8
1
  6
CONTINUOUS
 62
     6
100
AcDbLine
 10
-236.964
 20
47.547
 30
0.0
 11
-236.364
 21
47.847
 31
0.0
  0
LINE
  5
2CE
100
AcDbEntity
  8
1
  6
CONTINUOUS
 62
     6
100
AcDbLine
 10
-258.0362
 20
54.447
 30
0.0
 11
-258.0362
 21
43.647
 31
0.0
  0
LINE
  5
2CF
100
AcDbEntity
  8
1
  6
CONTINUOUS
 62
     6
100
AcDbLine
 10
-256.8362
 20
54.447
 30
0.0
 11
-256.8362
 21
43.647
 31
0.0
  0
LINE
  5
2D0
100
AcDbEntity
  8
1
  6
CONTINUOUS
 62
     6
100
AcDbLine
 10
-258.0362
 20
54.447
 30
0.0
 11
-256.8362
 21
54.447
 31
0.0
  0
LINE
  5
2D1
100
AcDbEntity
  8
1
  6
CONTINUOUS
 62
     6
100
AcDbLine
 10
-258.0362
 20
43.647
 30
0.0
 11
-256.8362
 21
43.647
 31
0.0
  0
LINE
  5
2D2
100
AcDbEntity
  8
1
  6
CONTINUOUS
 62
     6
100
AcDbLine
 10
-241.9344
 20
54.447
 30
0.0
 11
-241.9344
 21
43.647
 31
0.0
  0
LINE
  5
2D3
100
AcDbEntity
  8
1
  6
CONTINUOUS
 62
     6
100
AcDbLine
 10
-243.1344
 20
54.447
 30
0.0
 11
-243.1344
 21
43.647
 31
0.0
  0
LINE
  5
2D4
100
AcDbEntity
  8
1
  6
CONTINUOUS
 62
     6
100
AcDbLine
 10
-243.1344
 20
54.447
 30
0.0
 11
-241.9344
 21
54.447
 31
0.0
  0
LINE
  5
2D5
100
AcDbEntity
  8
1
  6
CONTINUOUS
 62
     6
100
AcDbLine
 10
-243.1344
 20
43.647
 30
0.0
 11
-241.9344
 21
43.647
 31
0.0
  0
LINE
  5
2D6
100
AcDbEntity
  8
1
  6
CONTINUOUS
 62
     6
100
AcDbLine
 10
-258.0362
 20
54.447
 30
0.0
 11
-271.5362
 21
54.447
 31
0.0
  0
LINE
  5
2D7
100
AcDbEntity
  8
1
  6
CONTINUOUS
 62
     6
100
AcDbLine
 10
-258.0362
 20
43.647
 30
0.0
 11
-271.5362
 21
43.647
 31
0.0
  0
LINE
  5
2D8
100
AcDbEntity
  8
1
  6
CONTINUOUS
 62
     6
100
AcDbLine
 10
-271.5362
 20
54.447
 30
0.0
 11
-271.5362
 21
43.647
 31
0.0
  0
LINE
  5
2D9
100
AcDbEntity
  8
1
  6
HIDDEN
 62
     6
100
AcDbLine
 10
-270.9362
 20
54.447
 30
0.0
 11
-270.9362
 21
43.647
 31
0.0
  0
LINE
  5
2DA
100
AcDbEntity
  8
1
  6
CONTINUOUS
 62
     6
100
AcDbLine
 10
-241.9344
 20
54.447
 30
0.0
 11
-224.5344
 21
54.447
 31
0.0
  0
LINE
  5
2DB
100
AcDbEntity
  8
1
  6
CONTINUOUS
 62
     6
100
AcDbLine
 10
-241.9344
 20
43.647
 30
0.0
 11
-224.5344
 21
43.647
 31
0.0
  0
LINE
  5
2DC
100
AcDbEntity
  8
1
  6
CONTINUOUS
 62
     6
100
AcDbLine
 10
-224.5344
 20
54.447
 30
0.0
 11
-224.5344
 21
43.647
 31
0.0
  0
LINE
  5
2DD
100
AcDbEntity
  8
1
  6
HIDDEN
 62
     6
100
AcDbLine
 10
-225.7344
 20
54.447
 30
0.0
 11
-225.7344
 21
43.647
 31
0.0
  0
LINE
  5
2DE
100
AcDbEntity
  8
1
  6
CONTINUOUS
 62
     6
100
AcDbLine
 10
-230.5344
 20
54.447
 30
0.0
 11
-230.5344
 21
43.647
 31
0.0
  0
LINE
  5
2DF
100
AcDbEntity
  8
1
  6
HIDDEN
 62
     6
100
AcDbLine
 10
-230.9263
 20
54.447
 30
0.0
 11
-230.9263
 21
43.647
 31
0.0
  0
LINE
  5
2E0
100
AcDbEntity
  8
1
  6
CONTINUOUS
 62
     6
100
AcDbLine
 10
-224.5344
 20
50.547
 30
0.0
 11
-221.2344
 21
50.547
 31
0.0
  0
LINE
  5
2E1
100
AcDbEntity
  8
1
  6
CONTINUOUS
 62
     6
100
AcDbLine
 10
-224.5344
 20
47.547
 30
0.0
 11
-221.2344
 21
47.547
 31
0.0
  0
LINE
  5
2E2
100
AcDbEntity
  8
1
  6
CONTINUOUS
 62
     6
100
AcDbLine
 10
-217.6708
 20
50.547
 30
0.0
 11
-220.6344
 21
50.547
 31
0.0
  0
LINE
  5
2E3
100
AcDbEntity
  8
1
  6
CONTINUOUS
 62
     6
100
AcDbLine
 10
-217.6344
 20
51.747
 30
0.0
 11
-221.2344
 21
51.747
 31
0.0
  0
LINE
  5
2E4
100
AcDbEntity
  8
1
  6
CONTINUOUS
 62
     6
100
AcDbLine
 10
-217.6344
 20
46.347
 30
0.0
 11
-221.2344
 21
46.347
 31
0.0
  0
LINE
  5
2E5
100
AcDbEntity
  8
1
  6
CONTINUOUS
 62
     6
100
AcDbLine
 10
-217.6708
 20
50.547
 30
0.0
 11
-217.0344
 21
51.1834
 31
0.0
  0
LINE
  5
2E6
100
AcDbEntity
  8
1
  6
CONTINUOUS
 62
     6
100
AcDbLine
 10
-217.6708
 20
50.547
 30
0.0
 11
-217.0344
 21
49.9106
 31
0.0
  0
LINE
  5
2E7
100
AcDbEntity
  8
1
  6
CONTINUOUS
 62
     6
100
AcDbLine
 10
-217.6708
 20
47.547
 30
0.0
 11
-217.0344
 21
48.1834
 31
0.0
  0
LINE
  5
2E8
100
AcDbEntity
  8
1
  6
CONTINUOUS
 62
     6
100
AcDbLine
 10
-217.6708
 20
47.547
 30
0.0
 11
-217.0344
 21
46.9106
 31
0.0
  0
LINE
  5
2E9
100
AcDbEntity
  8
1
  6
CONTINUOUS
 62
     6
100
AcDbLine
 10
-217.0344
 20
51.147
 30
0.0
 11
-217.0344
 21
46.947
 31
0.0
  0
ARC
  5
2EA
100
AcDbEntity
  8
1
  6
CONTINUOUS
 62
     6
100
AcDbCircle
 10
-217.6344
 20
51.147
 30
0.0
 40
0.6
210
0.0
220
0.0
230
1.0
100
AcDbArc
 50
0.0
 51
90.0
  0
ARC
  5
2EB
100
AcDbEntity
  8
1
  6
CONTINUOUS
 62
     6
100
AcDbCircle
 10
-217.6344
 20
46.947
 30
0.0
 40
0.6
210
0.0
220
0.0
230
1.0
100
AcDbArc
 50
270.0
 51
0.0
  0
LINE
  5
2EC
100
AcDbEntity
  8
1
  6
CONTINUOUS
 62
     6
100
AcDbLine
 10
-215.664
 20
50.547
 30
0.0
 11
-217.0344
 21
50.547
 31
0.0
  0
LINE
  5
2ED
100
AcDbEntity
  8
1
  6
CONTINUOUS
 62
     6
100
AcDbLine
 10
-215.664
 20
47.547
 30
0.0
 11
-217.0344
 21
47.547
 31
0.0
  0
LINE
  5
2EE
100
AcDbEntity
  8
1
  6
CONTINUOUS
 62
     6
100
AcDbLine
 10
-217.6708
 20
47.547
 30
0.0
 11
-220.6344
 21
47.547
 31
0.0
  0
LINE
  5
2EF
100
AcDbEntity
  8
1
  6
CONTINUOUS
 62
     6
100
AcDbLine
 10
-215.664
 20
50.547
 30
0.0
 11
-215.664
 21
47.547
 31
0.0
  0
LINE
  5
2F0
100
AcDbEntity
  8
1
  6
CONTINUOUS
 62
     6
100
AcDbLine
 10
-216.3541
 20
48.447
 30
0.0
 11
-216.3541
 21
49.647
 31
0.0
  0
LINE
  5
2F1
100
AcDbEntity
  8
1
  6
CONTINUOUS
 62
     6
100
AcDbLine
 10
-215.064
 20
50.247
 30
0.0
 11
-215.064
 21
47.847
 31
0.0
  0
LINE
  5
2F2
100
AcDbEntity
  8
1
  6
CONTINUOUS
 62
     6
100
AcDbLine
 10
-215.664
 20
50.547
 30
0.0
 11
-215.064
 21
50.247
 31
0.0
  0
LINE
  5
2F3
100
AcDbEntity
  8
1
  6
CONTINUOUS
 62
     6
100
AcDbLine
 10
-215.664
 20
47.547
 30
0.0
 11
-215.064
 21
47.847
 31
0.0
  0
LINE
  5
2F4
100
AcDbEntity
  8
1
  6
CONTINUOUS
 62
     6
100
AcDbLine
 10
-220.6344
 20
51.747
 30
0.0
 11
-220.6344
 21
46.347
 31
0.0
  0
LINE
  5
2F5
100
AcDbEntity
  8
1
  6
CONTINUOUS
 62
     6
100
AcDbLine
 10
-221.2344
 20
51.747
 30
0.0
 11
-221.2344
 21
46.347
 31
0.0
  0
ARC
  5
2F6
100
AcDbEntity
  8
1
  6
HIDDEN
 62
     6
100
AcDbCircle
 10
-224.720392
 20
49.047
 30
0.0
 40
2.884131
210
0.0
220
0.0
230
1.0
100
AcDbArc
 50
110.584103
 51
249.415897
  0
LINE
  5
2F7
100
AcDbEntity
  8
1
  6
CONTINUOUS
 62
     6
100
AcDbLine
 10
-171.1344
 20
116.3214
 30
0.0
 11
-139.9344
 21
116.3214
 31
0.0
  0
LINE
  5
2F8
100
AcDbEntity
  8
1
  6
CONTINUOUS
 62
     6
100
AcDbLine
 10
-171.1344
 20
128.3214
 30
0.0
 11
-139.9344
 21
128.3214
 31
0.0
  0
LINE
  5
2F9
100
AcDbEntity
  8
1
  6
CONTINUOUS
 62
     6
100
AcDbLine
 10
-139.9344
 20
128.3214
 30
0.0
 11
-139.9344
 21
116.3214
 31
0.0
  0
LINE
  5
2FA
100
AcDbEntity
  8
1
  6
HIDDEN
 62
     6
100
AcDbLine
 10
-167.5344
 20
128.3214
 30
0.0
 11
-167.5344
 21
116.3214
 31
0.0
  0
LINE
  5
2FB
100
AcDbEntity
  8
1
  6
CONTINUOUS
 62
     6
100
AcDbLine
 10
-171.1344
 20
126.8214
 30
0.0
 11
-139.9344
 21
126.8214
 31
0.0
  0
LINE
  5
2FC
100
AcDbEntity
  8
1
  6
CONTINUOUS
 62
     6
100
AcDbLine
 10
-171.1344
 20
117.8214
 30
0.0
 11
-139.9344
 21
117.8214
 31
0.0
  0
LINE
  5
2FD
100
AcDbEntity
  8
1
  6
CONTINUOUS
 62
     6
100
AcDbLine
 10
-171.1344
 20
128.3214
 30
0.0
 11
-171.1344
 21
126.8214
 31
0.0
  0
LINE
  5
2FE
100
AcDbEntity
  8
1
  6
CONTINUOUS
 62
     6
100
AcDbLine
 10
-171.1344
 20
117.8214
 30
0.0
 11
-171.1344
 21
116.3214
 31
0.0
  0
LINE
  5
2FF
100
AcDbEntity
  8
1
  6
CONTINUOUS
 62
     6
100
AcDbLine
 10
-168.7344
 20
124.7214
 30
0.0
 11
-168.7344
 21
119.9214
 31
0.0
  0
LINE
  5
300
100
AcDbEntity
  8
1
  6
CONTINUOUS
 62
     6
100
AcDbLine
 10
-168.7344
 20
124.7214
 30
0.0
 11
-167.5344
 21
124.7214
 31
0.0
  0
LINE
  5
301
100
AcDbEntity
  8
1
  6
CONTINUOUS
 62
     6
100
AcDbLine
 10
-168.7344
 20
119.9214
 30
0.0
 11
-167.5344
 21
119.9214
 31
0.0
  0
ARC
  5
302
100
AcDbEntity
  8
1
  6
CONTINUOUS
 62
     6
100
AcDbCircle
 10
-173.830486
 20
121.31873
 30
0.0
 40
6.127663
210
0.0
220
0.0
230
1.0
100
AcDbArc
 50
33.731142
 51
63.897011
  0
ARC
  5
303
100
AcDbEntity
  8
1
  6
CONTINUOUS
 62
     6
100
AcDbCircle
 10
-173.830486
 20
123.35727
 30
0.0
 40
6.127663
210
0.0
220
0.0
230
1.0
100
AcDbArc
 50
296.102989
 51
326.268858
  0
CIRCLE
  5
304
100
AcDbEntity
  8
1
  6
CONTINUOUS
 62
     6
100
AcDbCircle
 10
-147.41
 20
122.3262
 30
0.0
 40
2.4
210
0.0
220
0.0
230
1.0
  0
CIRCLE
  5
305
100
AcDbEntity
  8
1
  6
HIDDEN
 62
     6
100
AcDbCircle
 10
-147.3882
 20
122.3262
 30
0.0
 40
4.180273
210
0.0
220
0.0
230
1.0
  0
LINE
  5
306
100
AcDbEntity
  8
1
  6
CONTINUOUS
 62
     6
100
AcDbLine
 10
-150.41
 20
122.3214
 30
0.0
 11
-151.3648
 21
123.276
 31
0.0
  0
LINE
  5
307
100
AcDbEntity
  8
1
  6
CONTINUOUS
 62
     6
100
AcDbLine
 10
-150.41
 20
122.3214
 30
0.0
 11
-151.3648
 21
121.3667
 31
0.0
  0
ARC
  5
308
100
AcDbEntity
  8
1
  6
CONTINUOUS
 62
     6
100
AcDbCircle
 10
-144.085091
 20
122.337725
 30
0.0
 40
0.720295
210
0.0
220
0.0
230
1.0
100
AcDbArc
 50
255.192792
 51
104.807206
  0
ARC
  5
309
100
AcDbEntity
  8
1
  6
CONTINUOUS
 62
     6
100
AcDbCircle
 10
-143.871606
 20
121.837614
 30
0.0
 40
1.26081
210
0.0
220
0.0
230
1.0
100
AcDbArc
 50
108.380642
 51
151.104706
  0
ARC
  5
30A
100
AcDbEntity
  8
1
  6
CONTINUOUS
 62
     6
100
AcDbCircle
 10
-143.877642
 20
122.830577
 30
0.0
 40
1.252022
210
0.0
220
0.0
230
1.0
100
AcDbArc
 50
208.737914
 51
251.776731
  0
LINE
  5
30B
100
AcDbEntity
  8
1
  6
CONTINUOUS
 62
     6
100
AcDbLine
 10
-150.41
 20
122.3214
 30
0.0
 11
-149.81
 21
122.3214
 31
0.0
  0
LINE
  5
30C
100
AcDbEntity
  8
1
  6
CONTINUOUS
 62
     6
100
AcDbLine
 10
-171.264
 20
39.447
 30
0.0
 11
-171.264
 21
58.647
 31
0.0
  0
LINE
  5
30D
100
AcDbEntity
  8
1
  6
CONTINUOUS
 62
     6
100
AcDbLine
 10
-165.264
 20
64.647
 30
0.0
 11
-139.464
 21
64.647
 31
0.0
  0
LINE
  5
30E
100
AcDbEntity
  8
1
  6
CONTINUOUS
 62
     6
100
AcDbLine
 10
-165.264
 20
33.447
 30
0.0
 11
-139.464
 21
33.447
 31
0.0
  0
ARC
  5
30F
100
AcDbEntity
  8
1
  6
CONTINUOUS
 62
     6
100
AcDbCircle
 10
-165.264
 20
58.647
 30
0.0
 40
6.0
210
0.0
220
0.0
230
1.0
100
AcDbArc
 50
90.0
 51
180.0
  0
ARC
  5
310
100
AcDbEntity
  8
1
  6
CONTINUOUS
 62
     6
100
AcDbCircle
 10
-165.264
 20
39.447
 30
0.0
 40
6.0
210
0.0
220
0.0
230
1.0
100
AcDbArc
 50
180.0
 51
270.0
  0
LINE
  5
311
100
AcDbEntity
  8
1
  6
CONTINUOUS
 62
     6
100
AcDbLine
 10
-166.764
 20
40.347
 30
0.0
 11
-166.764
 21
57.747
 31
0.0
  0
LINE
  5
312
100
AcDbEntity
  8
1
  6
CONTINUOUS
 62
     6
100
AcDbLine
 10
-164.364
 20
60.147
 30
0.0
 11
-139.464
 21
60.147
 31
0.0
  0
LINE
  5
313
100
AcDbEntity
  8
1
  6
CONTINUOUS
 62
     6
100
AcDbLine
 10
-164.364
 20
37.947
 30
0.0
 11
-139.464
 21
37.947
 31
0.0
  0
ARC
  5
314
100
AcDbEntity
  8
1
  6
CONTINUOUS
 62
     6
100
AcDbCircle
 10
-164.364
 20
57.747
 30
0.0
 40
2.4
210
0.0
220
0.0
230
1.0
100
AcDbArc
 50
90.0
 51
180.0
  0
ARC
  5
315
100
AcDbEntity
  8
1
  6
CONTINUOUS
 62
     6
100
AcDbCircle
 10
-164.364
 20
40.347
 30
0.0
 40
2.4
210
0.0
220
0.0
230
1.0
100
AcDbArc
 50
180.0
 51
270.0
  0
LINE
  5
316
100
AcDbEntity
  8
1
  6
HIDDEN
 62
     6
100
AcDbLine
 10
-164.664
 20
61.647
 30
0.0
 11
-139.464
 21
61.647
 31
0.0
  0
LINE
  5
317
100
AcDbEntity
  8
1
  6
HIDDEN
 62
     6
100
AcDbLine
 10
-168.264
 20
40.047
 30
0.0
 11
-168.264
 21
58.047
 31
0.0
  0
LINE
  5
318
100
AcDbEntity
  8
1
  6
HIDDEN
 62
     6
100
AcDbLine
 10
-164.664
 20
36.447
 30
0.0
 11
-139.464
 21
36.447
 31
0.0
  0
ARC
  5
319
100
AcDbEntity
  8
1
  6
HIDDEN
 62
     6
100
AcDbCircle
 10
-164.664
 20
58.047
 30
0.0
 40
3.6
210
0.0
220
0.0
230
1.0
100
AcDbArc
 50
90.0
 51
180.0
  0
ARC
  5
31A
100
AcDbEntity
  8
1
  6
HIDDEN
 62
     6
100
AcDbCircle
 10
-164.664
 20
40.047
 30
0.0
 40
3.6
210
0.0
220
0.0
230
1.0
100
AcDbArc
 50
180.0
 51
270.0
  0
LINE
  5
31B
100
AcDbEntity
  8
1
  6
CONTINUOUS
 62
     6
100
AcDbLine
 10
-139.464
 20
64.647
 30
0.0
 11
-139.464
 21
60.147
 31
0.0
  0
LINE
  5
31C
100
AcDbEntity
  8
1
  6
CONTINUOUS
 62
     6
100
AcDbLine
 10
-139.464
 20
37.947
 30
0.0
 11
-139.464
 21
33.447
 31
0.0
  0
LINE
  5
31D
100
AcDbEntity
  8
1
  6
CONTINUOUS
 62
     6
100
AcDbLine
 10
-145.464
 20
60.147
 30
0.0
 11
-145.464
 21
37.947
 31
0.0
  0
LINE
  5
31E
100
AcDbEntity
  8
1
  6
CONTINUOUS
 62
     6
100
AcDbLine
 10
-149.964
 20
60.147
 30
0.0
 11
-149.964
 21
37.947
 31
0.0
  0
LINE
  5
31F
100
AcDbEntity
  8
1
  6
HIDDEN
 62
     6
100
AcDbLine
 10
-145.464
 20
60.147
 30
0.0
 11
-145.464
 21
61.347
 31
0.0
  0
LINE
  5
320
100
AcDbEntity
  8
1
  6
HIDDEN
 62
     6
100
AcDbLine
 10
-149.964
 20
60.147
 30
0.0
 11
-149.964
 21
61.347
 31
0.0
  0
LINE
  5
321
100
AcDbEntity
  8
1
  6
HIDDEN
 62
     6
100
AcDbLine
 10
-149.964
 20
37.947
 30
0.0
 11
-149.964
 21
33.447
 31
0.0
  0
LINE
  5
322
100
AcDbEntity
  8
1
  6
HIDDEN
 62
     6
100
AcDbLine
 10
-145.464
 20
37.947
 30
0.0
 11
-145.464
 21
33.447
 31
0.0
  0
LINE
  5
323
100
AcDbEntity
  8
1
  6
CONTINUOUS
 62
     6
100
AcDbLine
 10
-149.964
 20
33.447
 30
0.0
 11
-149.964
 21
29.247
 31
0.0
  0
LINE
  5
324
100
AcDbEntity
  8
1
  6
CONTINUOUS
 62
     6
100
AcDbLine
 10
-145.464
 20
33.447
 30
0.0
 11
-145.464
 21
29.247
 31
0.0
  0
LINE
  5
325
100
AcDbEntity
  8
1
  6
CONTINUOUS
 62
     6
100
AcDbLine
 10
-149.124
 20
26.847
 30
0.0
 11
-146.304
 21
26.847
 31
0.0
  0
LINE
  5
326
100
AcDbEntity
  8
1
  6
CONTINUOUS
 62
     6
100
AcDbLine
 10
-149.964
 20
29.247
 30
0.0
 11
-149.124
 21
26.847
 31
0.0
  0
LINE
  5
327
100
AcDbEntity
  8
1
  6
CONTINUOUS
 62
     6
100
AcDbLine
 10
-145.464
 20
29.247
 30
0.0
 11
-146.304
 21
26.847
 31
0.0
  0
ARC
  5
328
100
AcDbEntity
  8
1
  6
CONTINUOUS
 62
     6
100
AcDbCircle
 10
-151.067658
 20
31.807577
 30
0.0
 40
1.252022
210
0.0
220
0.0
230
1.0
100
AcDbArc
 50
288.223269
 51
331.262086
  0
LINE
  5
329
100
AcDbEntity
  8
1
  6
CONTINUOUS
 62
     6
100
AcDbLine
 10
-145.464
 20
31.3174
 30
0.0
 11
-144.5092
 21
32.272
 31
0.0
  0
LINE
  5
32A
100
AcDbEntity
  8
1
  6
CONTINUOUS
 62
     6
100
AcDbLine
 10
-145.464
 20
31.3174
 30
0.0
 11
-144.5092
 21
30.3627
 31
0.0
  0
ARC
  5
32B
100
AcDbEntity
  8
1
  6
CONTINUOUS
 62
     6
100
AcDbCircle
 10
-150.860209
 20
31.314725
 30
0.0
 40
0.720295
210
0.0
220
0.0
230
1.0
100
AcDbArc
 50
75.192794
 51
284.807208
  0
ARC
  5
32C
100
AcDbEntity
  8
1
  6
CONTINUOUS
 62
     6
100
AcDbCircle
 10
-151.073694
 20
30.814614
 30
0.0
 40
1.26081
210
0.0
220
0.0
230
1.0
100
AcDbArc
 50
28.895294
 51
71.619358
  0
LINE
  5
32D
100
AcDbEntity
  8
1
  6
CONTINUOUS
 62
     7
100
AcDbLine
 10
-216.4749
 20
113.125
 30
0.0
 11
-212.887
 21
109.3115
 31
0.0
  0
LINE
  5
32E
100
AcDbEntity
  8
1
  6
CONTINUOUS
 62
     7
100
AcDbLine
 10
-212.887
 20
109.3115
 30
0.0
 11
-211.5415
 21
109.2617
 31
0.0
  0
LINE
  5
32F
100
AcDbEntity
  8
1
  6
CONTINUOUS
 62
     7
100
AcDbLine
 10
-218.1942
 20
120.6276
 30
0.0
 11
-214.6063
 21
124.4411
 31
0.0
  0
LINE
  5
330
100
AcDbEntity
  8
1
  6
CONTINUOUS
 62
     7
100
AcDbLine
 10
-214.6063
 20
124.4411
 30
0.0
 11
-213.2608
 21
124.4909
 31
0.0
  0
INSERT
  5
331
100
AcDbEntity
  8
1
  6
CONTINUOUS
 62
     1
100
AcDbBlockReference
  2
LDR
 10
-218.1942
 20
120.6276
 30
0.0
 41
239.999998
 42
239.999998
 50
226.745876
210
0.0
220
0.0
230
1.0
  0
INSERT
  5
332
100
AcDbEntity
  8
1
  6
CONTINUOUS
 62
     1
100
AcDbBlockReference
  2
LDR
 10
-218.1942
 20
120.6276
 30
0.0
 41
239.999998
 42
239.999998
 50
226.745876
210
0.0
220
0.0
230
1.0
  0
INSERT
  5
333
100
AcDbEntity
  8
1
  6
CONTINUOUS
 62
     1
100
AcDbBlockReference
  2
LDR
 10
-216.4749
 20
113.125
 30
0.0
 41
239.999998
 42
239.999998
 50
133.254124
210
0.0
220
0.0
230
1.0
  0
TEXT
  5
334
100
AcDbEntity
  8
1
  6
CONTINUOUS
 62
     7
100
AcDbText
 10
-212.8314
 20
123.4226
 30
0.0
 40
2.4
  1
SPLIT LOCK
  7
MONOTXT
 72
     4
 11
-202.1638
 21
124.6226
 31
0.0
210
0.0
220
0.0
230
1.0
100
AcDbText
  0
TEXT
  5
335
100
AcDbEntity
  8
1
  6
CONTINUOUS
 62
     7
100
AcDbText
 10
-209.1463
 20
118.6226
 30
0.0
 40
2.4
  1
WASHER
  7
MONOTXT
 72
     4
 11
-202.1637
 21
119.8226
 31
0.0
210
0.0
220
0.0
230
1.0
100
AcDbText
  0
TEXT
  5
336
100
AcDbEntity
  8
1
  6
CONTINUOUS
 62
     7
100
AcDbText
 10
-211.091
 20
108.0632
 30
0.0
 40
2.4
  1
CARRIAGE BOLT
  7
MONOTXT
 72
     4
 11
-196.9084
 21
109.2632
 31
0.0
210
0.0
220
0.0
230
1.0
100
AcDbText
  0
TEXT
  5
337
100
AcDbEntity
  8
1
  6
CONTINUOUS
 62
     7
100
AcDbText
 10
-204.7981
 20
103.2632
 30
0.0
 40
2.4
  1
AND NUT
  7
MONOTXT
 72
     4
 11
-196.9084
 21
104.4632
 31
0.0
210
0.0
220
0.0
230
1.0
100
AcDbText
  0
TEXT
  5
338
100
AcDbEntity
  8
1
  6
CONTINUOUS
 62
     7
100
AcDbText
 10
-171.009
 20
111.433
 30
0.0
 40
2.4
  1
CLEVIS (TYPE D)
  7
MONOTXT
 72
     4
 11
-155.2578
 21
112.633
 31
0.0
210
0.0
220
0.0
230
1.0
100
AcDbText
  0
ARC
  5
339
100
AcDbEntity
  8
1
  6
HIDDEN
 62
     6
100
AcDbCircle
 10
-147.714
 20
61.461425
 30
0.0
 40
4.653702
210
0.0
220
0.0
230
1.0
100
AcDbArc
 50
136.801742
 51
177.714619
  0
ARC
  5
33A
100
AcDbEntity
  8
1
  6
CONTINUOUS
 62
     6
100
AcDbCircle
 10
-147.714
 20
61.461425
 30
0.0
 40
4.653702
210
0.0
220
0.0
230
1.0
100
AcDbArc
 50
43.150139
 51
136.903753
  0
ARC
  5
33B
100
AcDbEntity
  8
1
  6
HIDDEN
 62
     6
100
AcDbCircle
 10
-147.714
 20
61.461425
 30
0.0
 40
4.653702
210
0.0
220
0.0
230
1.0
100
AcDbArc
 50
2.285378
 51
43.198258
  0
LINE
  5
33C
100
AcDbEntity
  8
1
  6
CONTINUOUS
 62
     7
100
AcDbLine
 10
-272.1362
 20
54.447
 30
0.0
 11
-281.1362
 21
54.447
 31
0.0
  0
LINE
  5
33D
100
AcDbEntity
  8
1
  6
CONTINUOUS
 62
     7
100
AcDbLine
 10
-272.1362
 20
43.647
 30
0.0
 11
-281.1362
 21
43.647
 31
0.0
  0
LINE
  5
33E
100
AcDbEntity
  8
1
  6
CONTINUOUS
 62
     7
100
AcDbLine
 10
-279.3022
 20
38.847
 30
0.0
 11
-279.3022
 21
43.647
 31
0.0
  0
LINE
  5
33F
100
AcDbEntity
  8
1
  6
CONTINUOUS
 62
     7
100
AcDbLine
 10
-279.3022
 20
54.447
 30
0.0
 11
-279.3022
 21
59.3104
 31
0.0
  0
INSERT
  5
340
100
AcDbEntity
  8
1
  6
CONTINUOUS
 62
     1
100
AcDbBlockReference
  2
LDR
 10
-279.3022
 20
54.447
 30
0.0
 41
240.0
 42
240.0
 50
270.0
210
0.0
220
0.0
230
1.0
  0
INSERT
  5
341
100
AcDbEntity
  8
1
  6
CONTINUOUS
 62
     1
100
AcDbBlockReference
  2
LDR
 10
-279.3022
 20
54.447
 30
0.0
 41
240.0
 42
240.0
 50
270.0
210
0.0
220
0.0
230
1.0
  0
INSERT
  5
342
100
AcDbEntity
  8
1
  6
CONTINUOUS
 62
     1
100
AcDbBlockReference
  2
LDR
 10
-279.3022
 20
43.647
 30
0.0
 41
240.0
 42
240.0
 50
90.0
210
0.0
220
0.0
230
1.0
  0
INSERT
  5
343
100
AcDbEntity
  8
1
  6
CONTINUOUS
 62
     1
100
AcDbBlockReference
  2
LDR
 10
-279.3022
 20
43.647
 30
0.0
 41
240.0
 42
240.0
 50
90.0
210
0.0
220
0.0
230
1.0
  0
LINE
  5
344
100
AcDbEntity
  8
1
  6
CONTINUOUS
 62
     7
100
AcDbLine
 10
-147.8699
 20
66.2973
 30
0.0
 11
-140.4548
 21
78.8187
 31
0.0
  0
LINE
  5
345
100
AcDbEntity
  8
1
  6
CONTINUOUS
 62
     7
100
AcDbLine
 10
-140.4548
 20
78.8187
 30
0.0
 11
-137.1213
 21
78.8868
 31
0.0
  0
INSERT
  5
346
100
AcDbEntity
  8
1
  6
CONTINUOUS
 62
     1
100
AcDbBlockReference
  2
LDR
 10
-147.8699
 20
66.2973
 30
0.0
 41
239.999999
 42
239.999999
 50
239.366231
210
0.0
220
0.0
230
1.0
  0
TEXT
  5
347
100
AcDbEntity
  8
1
  6
CONTINUOUS
 62
     7
100
AcDbText
 10
-137.5818
 20
22.0895
 30
0.0
 40
2.4
  1
COTTER PIN
  7
MONOTXT
 72
     4
 11
-126.744
 21
23.2895
 31
0.0
210
0.0
220
0.0
230
1.0
100
AcDbText
  0
LINE
  5
348
100
AcDbEntity
  8
1
  6
CONTINUOUS
 62
     7
100
AcDbLine
 10
-144.3865
 20
30.2542
 30
0.0
 11
-141.1323
 21
23.4409
 31
0.0
  0
LINE
  5
349
100
AcDbEntity
  8
1
  6
CONTINUOUS
 62
     7
100
AcDbLine
 10
-141.1323
 20
23.4409
 30
0.0
 11
-138.7106
 21
23.4409
 31
0.0
  0
INSERT
  5
34A
100
AcDbEntity
  8
1
  6
CONTINUOUS
 62
     1
100
AcDbBlockReference
  2
LDR
 10
-144.3865
 20
30.2542
 30
0.0
 41
239.999997
 42
239.999997
 50
115.530291
210
0.0
220
0.0
230
1.0
  0
LINE
  5
34B
100
AcDbEntity
  8
1
  6
CONTINUOUS
 62
     4
100
AcDbLine
 10
-261.0137
 20
9.5761
 30
0.0
 11
-133.9247
 21
9.5761
 31
0.0
  0
LINE
  5
34C
100
AcDbEntity
  8
1
  6
CONTINUOUS
 62
     4
100
AcDbLine
 10
-237.1632
 20
0.3522
 30
0.0
 11
-156.753
 21
0.3522
 31
0.0
  0
TEXT
  5
34D
100
AcDbEntity
  8
1
  6
CONTINUOUS
 62
     4
100
AcDbText
 10
-259.2126
 20
11.7455
 30
0.0
 40
4.8
  1
INTERCONNECT POLE CLAMP AND
  7
MONOTXT
 72
     4
 11
-197.3984
 21
14.1455
 31
0.0
210
0.0
220
0.0
230
1.0
100
AcDbText
  0
TEXT
  5
34E
100
AcDbEntity
  8
1
  6
CONTINUOUS
 62
     4
100
AcDbText
 10
-235.5149
 20
2.1455
 30
0.0
 40
4.8
  1
CLEVIS ATTACHMENT
  7
MONOTXT
 72
     4
 11
-197.3984
 21
4.5455
 31
0.0
210
0.0
220
0.0
230
1.0
100
AcDbText
  0
TEXT
  5
34F
100
AcDbEntity
  8
1
  6
CONTINUOUS
 62
     7
100
AcDbText
 10
-228.6452
 20
-6.3432
 30
0.0
 40
2.4
  1
MUST USE FOR MESSENGER CABLE
  7
MONOTXT
 11
-228.6452
 21
-3.9432
 31
0.0
210
0.0
220
0.0
230
1.0
100
AcDbText
 73
     3
  0
TEXT
  5
350
100
AcDbEntity
  8
1
  6
CONTINUOUS
 62
     7
100
AcDbText
 10
-228.6452
 20
-11.1432
 30
0.0
 40
2.4
  1
MUST USE ON METAL POLES
  7
MONOTXT
 11
-228.6452
 21
-8.7432
 31
0.0
210
0.0
220
0.0
230
1.0
100
AcDbText
 73
     3
  0
LINE
  5
351
100
AcDbEntity
  8
1
  6
CONTINUOUS
 62
     3
100
AcDbLine
 10
-52.3344
 20
116.3214
 30
0.0
 11
-44.4976
 21
116.3214
 31
0.0
  0
LINE
  5
352
100
AcDbEntity
  8
1
  6
CONTINUOUS
 62
     3
100
AcDbLine
 10
-52.3344
 20
115.1214
 30
0.0
 11
-45.7344
 21
115.1214
 31
0.0
  0
LINE
  5
353
100
AcDbEntity
  8
1
  6
CONTINUOUS
 62
     3
100
AcDbLine
 10
-52.3344
 20
119.9214
 30
0.0
 11
-44.5022
 21
119.9214
 31
0.0
  0
LINE
  5
354
100
AcDbEntity
  8
1
  6
CONTINUOUS
 62
     3
100
AcDbLine
 10
-52.3344
 20
121.1214
 30
0.0
 11
-45.7344
 21
121.1214
 31
0.0
  0
LINE
  5
355
100
AcDbEntity
  8
1
  6
CONTINUOUS
 62
     3
100
AcDbLine
 10
-52.3344
 20
121.1214
 30
0.0
 11
-52.3344
 21
119.9214
 31
0.0
  0
LINE
  5
356
100
AcDbEntity
  8
1
  6
CONTINUOUS
 62
     3
100
AcDbLine
 10
-52.3344
 20
116.3214
 30
0.0
 11
-52.3344
 21
115.1214
 31
0.0
  0
LINE
  5
357
100
AcDbEntity
  8
1
  6
CONTINUOUS
 62
     7
100
AcDbLine
 10
-30.7344
 20
116.6214
 30
0.0
 11
-30.7344
 21
119.6214
 31
0.0
  0
LINE
  5
358
100
AcDbEntity
  8
1
  6
CONTINUOUS
 62
     3
100
AcDbLine
 10
-9.1852
 20
121.1214
 30
0.0
 11
-9.1852
 21
119.9214
 31
0.0
  0
LINE
  5
359
100
AcDbEntity
  8
1
  6
CONTINUOUS
 62
     3
100
AcDbLine
 10
-9.1852
 20
116.3214
 30
0.0
 11
-17.138
 21
116.3214
 31
0.0
  0
LINE
  5
35A
100
AcDbEntity
  8
1
  6
CONTINUOUS
 62
     3
100
AcDbLine
 10
-9.1852
 20
115.1214
 30
0.0
 11
-15.7852
 21
115.1214
 31
0.0
  0
LINE
  5
35B
100
AcDbEntity
  8
1
  6
CONTINUOUS
 62
     3
100
AcDbLine
 10
-9.1852
 20
119.9214
 30
0.0
 11
-17.1334
 21
119.9214
 31
0.0
  0
LINE
  5
35C
100
AcDbEntity
  8
1
  6
CONTINUOUS
 62
     3
100
AcDbLine
 10
-9.1852
 20
121.1214
 30
0.0
 11
-15.7852
 21
121.1214
 31
0.0
  0
LINE
  5
35D
100
AcDbEntity
  8
1
  6
CONTINUOUS
 62
     3
100
AcDbLine
 10
-9.1852
 20
116.3214
 30
0.0
 11
-9.1852
 21
115.1214
 31
0.0
  0
CIRCLE
  5
35E
100
AcDbEntity
  8
1
  6
CONTINUOUS
 62
     3
100
AcDbCircle
 10
-30.8178
 20
118.139
 30
0.0
 40
13.8
210
0.0
220
0.0
230
1.0
  0
LINE
  5
35F
100
AcDbEntity
  8
1
  6
CONTINUOUS
 62
     7
100
AcDbLine
 10
-53.5344
 20
118.1214
 30
0.0
 11
-38.6178
 21
118.1214
 31
0.0
  0
LINE
  5
360
100
AcDbEntity
  8
1
  6
CONTINUOUS
 62
     7
100
AcDbLine
 10
-23.0178
 20
118.1214
 30
0.0
 11
-7.9852
 21
118.1214
 31
0.0
  0
LINE
  5
361
100
AcDbEntity
  8
1
  6
CONTINUOUS
 62
     7
100
AcDbLine
 10
-32.2344
 20
118.1214
 30
0.0
 11
-29.2344
 21
118.1214
 31
0.0
  0
LINE
  5
362
100
AcDbEntity
  8
1
  6
CONTINUOUS
 62
     7
100
AcDbLine
 10
-30.7344
 20
124.4214
 30
0.0
 11
-30.7344
 21
155.6214
 31
0.0
  0
LINE
  5
363
100
AcDbEntity
  8
1
  6
CONTINUOUS
 62
     7
100
AcDbLine
 10
-30.7344
 20
110.6214
 30
0.0
 11
-30.7344
 21
97.4214
 31
0.0
  0
LINE
  5
364
100
AcDbEntity
  8
1
  6
CONTINUOUS
 62
     3
100
AcDbLine
 10
-32.5344
 20
131.8318
 30
0.0
 11
-32.5344
 21
136.6318
 31
0.0
  0
LINE
  5
365
100
AcDbEntity
  8
1
  6
CONTINUOUS
 62
     3
100
AcDbLine
 10
-28.9344
 20
131.8099
 30
0.0
 11
-28.9344
 21
136.6318
 31
0.0
  0
LINE
  5
366
100
AcDbEntity
  8
1
  6
CONTINUOUS
 62
     3
100
AcDbLine
 10
-32.5344
 20
136.6318
 30
0.0
 11
-28.9344
 21
136.6318
 31
0.0
  0
LINE
  5
367
100
AcDbEntity
  8
1
  6
CONTINUOUS
 62
     3
100
AcDbLine
 10
-31.6344
 20
135.4318
 30
0.0
 11
-29.8344
 21
135.4318
 31
0.0
  0
LINE
  5
368
100
AcDbEntity
  8
1
  6
CONTINUOUS
 62
     3
100
AcDbLine
 10
-31.6344
 20
135.4318
 30
0.0
 11
-31.6344
 21
136.6318
 31
0.0
  0
LINE
  5
369
100
AcDbEntity
  8
1
  6
CONTINUOUS
 62
     3
100
AcDbLine
 10
-29.8344
 20
135.4318
 30
0.0
 11
-29.8344
 21
136.6318
 31
0.0
  0
LINE
  5
36A
100
AcDbEntity
  8
1
  6
CONTINUOUS
 62
     3
100
AcDbLine
 10
-33.7344
 20
137.8318
 30
0.0
 11
-27.7344
 21
137.8318
 31
0.0
  0
LINE
  5
36B
100
AcDbEntity
  8
1
  6
CONTINUOUS
 62
     3
100
AcDbLine
 10
-33.7344
 20
133.0318
 30
0.0
 11
-33.7344
 21
137.8318
 31
0.0
  0
LINE
  5
36C
100
AcDbEntity
  8
1
  6
CONTINUOUS
 62
     3
100
AcDbLine
 10
-27.7344
 20
133.0099
 30
0.0
 11
-27.7344
 21
137.8318
 31
0.0
  0
ARC
  5
36D
100
AcDbEntity
  8
1
  6
CONTINUOUS
 62
     3
100
AcDbCircle
 10
-30.265563
 20
117.536531
 30
0.0
 40
15.878797
210
0.0
220
0.0
230
1.0
100
AcDbArc
 50
102.618433
 51
166.952164
  0
ARC
  5
36E
100
AcDbEntity
  8
1
  6
CONTINUOUS
 62
     3
100
AcDbCircle
 10
-31.189237
 20
117.536531
 30
0.0
 40
15.878797
210
0.0
220
0.0
230
1.0
100
AcDbArc
 50
13.047836
 51
77.381567
  0
ARC
  5
36F
100
AcDbEntity
  8
1
  6
CONTINUOUS
 62
     3
100
AcDbCircle
 10
-30.7598
 20
117.9754
 30
0.0
 40
15.244145
210
0.0
220
0.0
230
1.0
100
AcDbArc
 50
190.790558
 51
349.209444
  0
LINE
  5
370
100
AcDbEntity
  8
1
  6
CONTINUOUS
 62
     3
100
AcDbLine
 10
-50.2344
 20
122.0214
 30
0.0
 11
-47.8344
 21
122.0214
 31
0.0
  0
LINE
  5
371
100
AcDbEntity
  8
1
  6
CONTINUOUS
 62
     3
100
AcDbLine
 10
-50.2344
 20
122.0214
 30
0.0
 11
-50.2344
 21
121.1214
 31
0.0
  0
LINE
  5
372
100
AcDbEntity
  8
1
  6
CONTINUOUS
 62
     3
100
AcDbLine
 10
-47.8344
 20
122.0214
 30
0.0
 11
-47.8344
 21
121.1214
 31
0.0
  0
LINE
  5
373
100
AcDbEntity
  8
1
  6
CONTINUOUS
 62
     3
100
AcDbLine
 10
-50.0844
 20
114.8214
 30
0.0
 11
-47.9844
 21
114.8214
 31
0.0
  0
LINE
  5
374
100
AcDbEntity
  8
1
  6
CONTINUOUS
 62
     3
100
AcDbLine
 10
-50.0844
 20
114.8214
 30
0.0
 11
-50.0844
 21
115.1214
 31
0.0
  0
LINE
  5
375
100
AcDbEntity
  8
1
  6
CONTINUOUS
 62
     3
100
AcDbLine
 10
-47.9844
 20
114.8214
 30
0.0
 11
-47.9844
 21
115.1214
 31
0.0
  0
LINE
  5
376
100
AcDbEntity
  8
1
  6
CONTINUOUS
 62
     3
100
AcDbLine
 10
-49.6344
 20
119.9214
 30
0.0
 11
-49.6344
 21
116.3214
 31
0.0
  0
LINE
  5
377
100
AcDbEntity
  8
1
  6
CONTINUOUS
 62
     3
100
AcDbLine
 10
-49.6344
 20
114.8214
 30
0.0
 11
-49.6344
 21
113.6214
 31
0.0
  0
LINE
  5
378
100
AcDbEntity
  8
1
  6
CONTINUOUS
 62
     3
100
AcDbLine
 10
-48.4344
 20
119.9214
 30
0.0
 11
-48.4344
 21
116.3214
 31
0.0
  0
LINE
  5
379
100
AcDbEntity
  8
1
  6
CONTINUOUS
 62
     3
100
AcDbLine
 10
-48.4344
 20
114.8214
 30
0.0
 11
-48.4344
 21
113.6214
 31
0.0
  0
LINE
  5
37A
100
AcDbEntity
  8
1
  6
CONTINUOUS
 62
     3
100
AcDbLine
 10
-49.6344
 20
113.6214
 30
0.0
 11
-48.4344
 21
113.6214
 31
0.0
  0
LINE
  5
37B
100
AcDbEntity
  8
1
  6
CONTINUOUS
 62
     3
100
AcDbLine
 10
-11.8963
 20
119.9018
 30
0.0
 11
-11.8963
 21
116.3018
 31
0.0
  0
LINE
  5
37C
100
AcDbEntity
  8
1
  6
CONTINUOUS
 62
     3
100
AcDbLine
 10
-13.6963
 20
122.0018
 30
0.0
 11
-11.2963
 21
122.0018
 31
0.0
  0
LINE
  5
37D
100
AcDbEntity
  8
1
  6
CONTINUOUS
 62
     3
100
AcDbLine
 10
-13.6963
 20
122.0018
 30
0.0
 11
-13.6963
 21
121.1018
 31
0.0
  0
LINE
  5
37E
100
AcDbEntity
  8
1
  6
CONTINUOUS
 62
     3
100
AcDbLine
 10
-11.2963
 20
122.0018
 30
0.0
 11
-11.2963
 21
121.1018
 31
0.0
  0
LINE
  5
37F
100
AcDbEntity
  8
1
  6
CONTINUOUS
 62
     3
100
AcDbLine
 10
-13.5463
 20
114.8018
 30
0.0
 11
-11.4463
 21
114.8018
 31
0.0
  0
LINE
  5
380
100
AcDbEntity
  8
1
  6
CONTINUOUS
 62
     3
100
AcDbLine
 10
-13.5463
 20
114.8018
 30
0.0
 11
-13.5463
 21
115.1018
 31
0.0
  0
LINE
  5
381
100
AcDbEntity
  8
1
  6
CONTINUOUS
 62
     3
100
AcDbLine
 10
-13.0963
 20
119.9018
 30
0.0
 11
-13.0963
 21
116.3018
 31
0.0
  0
LINE
  5
382
100
AcDbEntity
  8
1
  6
CONTINUOUS
 62
     3
100
AcDbLine
 10
-13.0963
 20
114.8018
 30
0.0
 11
-13.0963
 21
113.6018
 31
0.0
  0
LINE
  5
383
100
AcDbEntity
  8
1
  6
CONTINUOUS
 62
     3
100
AcDbLine
 10
-11.8963
 20
114.8018
 30
0.0
 11
-11.8963
 21
113.6018
 31
0.0
  0
LINE
  5
384
100
AcDbEntity
  8
1
  6
CONTINUOUS
 62
     3
100
AcDbLine
 10
-13.0963
 20
113.6018
 30
0.0
 11
-11.8963
 21
113.6018
 31
0.0
  0
LINE
  5
385
100
AcDbEntity
  8
1
  6
CONTINUOUS
 62
     3
100
AcDbLine
 10
-34.9344
 20
136.9318
 30
0.0
 11
-33.7344
 21
136.9318
 31
0.0
  0
LINE
  5
386
100
AcDbEntity
  8
1
  6
CONTINUOUS
 62
     3
100
AcDbLine
 10
-27.7344
 20
136.9318
 30
0.0
 11
-26.5344
 21
136.9318
 31
0.0
  0
LINE
  5
387
100
AcDbEntity
  8
1
  6
CONTINUOUS
 62
     3
100
AcDbLine
 10
-34.9344
 20
136.9318
 30
0.0
 11
-34.9344
 21
145.3318
 31
0.0
  0
LINE
  5
388
100
AcDbEntity
  8
1
  6
CONTINUOUS
 62
     3
100
AcDbLine
 10
-26.5344
 20
136.9318
 30
0.0
 11
-26.5344
 21
145.3318
 31
0.0
  0
ARC
  5
389
100
AcDbEntity
  8
1
  6
CONTINUOUS
 62
     3
100
AcDbCircle
 10
-30.7344
 20
144.6818
 30
0.0
 40
4.25
210
0.0
220
0.0
230
1.0
100
AcDbArc
 50
8.797411
 51
171.202589
  0
CIRCLE
  5
38A
100
AcDbEntity
  8
1
  6
CONTINUOUS
 62
     3
100
AcDbCircle
 10
-30.725
 20
144.1225
 30
0.0
 40
1.2
210
0.0
220
0.0
230
1.0
  0
LINE
  5
38B
100
AcDbEntity
  8
1
  6
CONTINUOUS
 62
     3
100
AcDbLine
 10
-26.5344
 20
142.9318
 30
0.0
 11
17.5105
 21
174.9322
 31
0.0
  0
LINE
  5
38C
100
AcDbEntity
  8
1
  6
CONTINUOUS
 62
     3
100
AcDbLine
 10
-26.5345
 20
145.3319
 30
0.0
 11
16.7414
 21
176.7733
 31
0.0
  0
LINE
  5
38D
100
AcDbEntity
  8
1
  6
CONTINUOUS
 62
     3
100
AcDbLine
 10
-24.5928
 20
144.3424
 30
0.0
 11
-23.2203
 21
147.7396
 31
0.0
  0
LINE
  5
38E
100
AcDbEntity
  8
1
  6
CONTINUOUS
 62
     3
100
AcDbLine
 10
-25.0566
 20
146.4055
 30
0.0
 11
-22.9338
 21
145.5478
 31
0.0
  0
LINE
  5
38F
100
AcDbEntity
  8
1
  6
CONTINUOUS
 62
     3
100
AcDbLine
 10
-19.0971
 20
148.3353
 30
0.0
 11
-17.7246
 21
151.7325
 31
0.0
  0
LINE
  5
390
100
AcDbEntity
  8
1
  6
CONTINUOUS
 62
     3
100
AcDbLine
 10
-13.6011
 20
152.3284
 30
0.0
 11
-12.2286
 21
155.7256
 31
0.0
  0
LINE
  5
391
100
AcDbEntity
  8
1
  6
CONTINUOUS
 62
     3
100
AcDbLine
 10
-8.1052
 20
156.3214
 30
0.0
 11
-6.7327
 21
159.7185
 31
0.0
  0
LINE
  5
392
100
AcDbEntity
  8
1
  6
CONTINUOUS
 62
     3
100
AcDbLine
 10
-2.6094
 20
160.3143
 30
0.0
 11
-1.237
 21
163.7114
 31
0.0
  0
LINE
  5
393
100
AcDbEntity
  8
1
  6
CONTINUOUS
 62
     3
100
AcDbLine
 10
2.8866
 20
164.3074
 30
0.0
 11
4.259
 21
167.7045
 31
0.0
  0
LINE
  5
394
100
AcDbEntity
  8
1
  6
CONTINUOUS
 62
     3
100
AcDbLine
 10
8.3824
 20
168.3003
 30
0.0
 11
9.7549
 21
171.6974
 31
0.0
  0
LINE
  5
395
100
AcDbEntity
  8
1
  6
CONTINUOUS
 62
     3
100
AcDbLine
 10
13.8782
 20
172.2933
 30
0.0
 11
15.2507
 21
175.6904
 31
0.0
  0
LINE
  5
396
100
AcDbEntity
  8
1
  6
CONTINUOUS
 62
     3
100
AcDbLine
 10
-19.5357
 20
150.4166
 30
0.0
 11
-17.4129
 21
149.559
 31
0.0
  0
LINE
  5
397
100
AcDbEntity
  8
1
  6
CONTINUOUS
 62
     3
100
AcDbLine
 10
-14.0715
 20
154.3866
 30
0.0
 11
-11.9487
 21
153.529
 31
0.0
  0
LINE
  5
398
100
AcDbEntity
  8
1
  6
CONTINUOUS
 62
     3
100
AcDbLine
 10
-8.5789
 20
158.3772
 30
0.0
 11
-6.4561
 21
157.5195
 31
0.0
  0
LINE
  5
399
100
AcDbEntity
  8
1
  6
CONTINUOUS
 62
     3
100
AcDbLine
 10
-3.0218
 20
162.4147
 30
0.0
 11
-0.899
 21
161.557
 31
0.0
  0
LINE
  5
39A
100
AcDbEntity
  8
1
  6
CONTINUOUS
 62
     3
100
AcDbLine
 10
2.508
 20
166.4323
 30
0.0
 11
4.6308
 21
165.5746
 31
0.0
  0
LINE
  5
39B
100
AcDbEntity
  8
1
  6
CONTINUOUS
 62
     3
100
AcDbLine
 10
7.8254
 20
170.2956
 30
0.0
 11
9.9481
 21
169.4379
 31
0.0
  0
LINE
  5
39C
100
AcDbEntity
  8
1
  6
CONTINUOUS
 62
     3
100
AcDbLine
 10
13.2905
 20
174.2662
 30
0.0
 11
15.4133
 21
173.4086
 31
0.0
  0
LINE
  5
39D
100
AcDbEntity
  8
1
  6
CONTINUOUS
 62
     3
100
AcDbLine
 10
-34.9322
 20
142.9318
 30
0.0
 11
-78.9055
 21
174.8802
 31
0.0
  0
LINE
  5
39E
100
AcDbEntity
  8
1
  6
CONTINUOUS
 62
     3
100
AcDbLine
 10
-34.9323
 20
145.3319
 30
0.0
 11
-78.1363
 21
176.7213
 31
0.0
  0
LINE
  5
39F
100
AcDbEntity
  8
1
  6
CONTINUOUS
 62
     3
100
AcDbLine
 10
-36.8738
 20
144.3424
 30
0.0
 11
-38.2463
 21
147.7396
 31
0.0
  0
LINE
  5
3A0
100
AcDbEntity
  8
1
  6
CONTINUOUS
 62
     3
100
AcDbLine
 10
-36.41
 20
146.4055
 30
0.0
 11
-38.5328
 21
145.5478
 31
0.0
  0
LINE
  5
3A1
100
AcDbEntity
  8
1
  6
CONTINUOUS
 62
     3
100
AcDbLine
 10
-42.3695
 20
148.3353
 30
0.0
 11
-43.742
 21
151.7325
 31
0.0
  0
LINE
  5
3A2
100
AcDbEntity
  8
1
  6
CONTINUOUS
 62
     3
100
AcDbLine
 10
-47.8655
 20
152.3284
 30
0.0
 11
-49.238
 21
155.7256
 31
0.0
  0
LINE
  5
3A3
100
AcDbEntity
  8
1
  6
CONTINUOUS
 62
     3
100
AcDbLine
 10
-53.3614
 20
156.3214
 30
0.0
 11
-54.7339
 21
159.7185
 31
0.0
  0
LINE
  5
3A4
100
AcDbEntity
  8
1
  6
CONTINUOUS
 62
     3
100
AcDbLine
 10
-58.8572
 20
160.3143
 30
0.0
 11
-60.2296
 21
163.7114
 31
0.0
  0
LINE
  5
3A5
100
AcDbEntity
  8
1
  6
CONTINUOUS
 62
     3
100
AcDbLine
 10
-64.3532
 20
164.3074
 30
0.0
 11
-65.7256
 21
167.7045
 31
0.0
  0
LINE
  5
3A6
100
AcDbEntity
  8
1
  6
CONTINUOUS
 62
     3
100
AcDbLine
 10
-69.849
 20
168.3003
 30
0.0
 11
-71.2215
 21
171.6974
 31
0.0
  0
LINE
  5
3A7
100
AcDbEntity
  8
1
  6
CONTINUOUS
 62
     3
100
AcDbLine
 10
-75.3448
 20
172.2933
 30
0.0
 11
-76.7173
 21
175.6904
 31
0.0
  0
LINE
  5
3A8
100
AcDbEntity
  8
1
  6
CONTINUOUS
 62
     3
100
AcDbLine
 10
-41.9309
 20
150.4166
 30
0.0
 11
-44.0537
 21
149.559
 31
0.0
  0
LINE
  5
3A9
100
AcDbEntity
  8
1
  6
CONTINUOUS
 62
     3
100
AcDbLine
 10
-47.3951
 20
154.3866
 30
0.0
 11
-49.5179
 21
153.529
 31
0.0
  0
LINE
  5
3AA
100
AcDbEntity
  8
1
  6
CONTINUOUS
 62
     3
100
AcDbLine
 10
-52.8877
 20
158.3772
 30
0.0
 11
-55.0105
 21
157.5195
 31
0.0
  0
LINE
  5
3AB
100
AcDbEntity
  8
1
  6
CONTINUOUS
 62
     3
100
AcDbLine
 10
-58.4448
 20
162.4147
 30
0.0
 11
-60.5676
 21
161.557
 31
0.0
  0
LINE
  5
3AC
100
AcDbEntity
  8
1
  6
CONTINUOUS
 62
     3
100
AcDbLine
 10
-63.9746
 20
166.4323
 30
0.0
 11
-66.0974
 21
165.5746
 31
0.0
  0
LINE
  5
3AD
100
AcDbEntity
  8
1
  6
CONTINUOUS
 62
     3
100
AcDbLine
 10
-69.292
 20
170.2956
 30
0.0
 11
-71.4147
 21
169.4379
 31
0.0
  0
LINE
  5
3AE
100
AcDbEntity
  8
1
  6
CONTINUOUS
 62
     3
100
AcDbLine
 10
-74.7571
 20
174.2662
 30
0.0
 11
-76.8799
 21
173.4086
 31
0.0
  0
ARC
  5
3AF
100
AcDbEntity
  8
1
  6
CONTINUOUS
 62
     3
100
AcDbCircle
 10
-30.534403
 20
209.663503
 30
0.0
 40
54.642469
210
0.0
220
0.0
230
1.0
100
AcDbArc
 50
232.799725
 51
300.563244
  0
ARC
  5
3B0
100
AcDbEntity
  8
1
  6
CONTINUOUS
 62
     3
100
AcDbCircle
 10
-30.7344
 20
147.209358
 30
0.0
 40
4.600568
210
0.0
220
0.0
230
1.0
100
AcDbArc
 50
335.913558
 51
204.086444
  0
ARC
  5
3B1
100
AcDbEntity
  8
1
  6
CONTINUOUS
 62
     3
100
AcDbCircle
 10
-28.609952
 20
203.843692
 30
0.0
 40
52.814282
210
0.0
220
0.0
230
1.0
100
AcDbArc
 50
248.837453
 51
265.229908
  0
ARC
  5
3B2
100
AcDbEntity
  8
1
  6
CONTINUOUS
 62
     3
100
AcDbCircle
 10
-32.889448
 20
203.843692
 30
0.0
 40
52.814282
210
0.0
220
0.0
230
1.0
100
AcDbArc
 50
274.799111
 51
291.244194
  0
LINE
  5
3B3
100
AcDbEntity
  8
1
  6
CONTINUOUS
 62
     3
100
AcDbLine
 10
-6.6325
 20
157.3914
 30
0.0
 11
19.9535
 21
171.5273
 31
0.0
  0
LINE
  5
3B4
100
AcDbEntity
  8
1
  6
CONTINUOUS
 62
     3
100
AcDbLine
 10
-54.4651
 20
157.1233
 30
0.0
 11
-81.3688
 21
171.4282
 31
0.0
  0
LINE
  5
3B5
100
AcDbEntity
  8
1
  6
CONTINUOUS
 62
     3
100
AcDbLine
 10
-76.2377
 20
178.7165
 30
0.0
 11
-77.6028
 21
176.9947
 31
0.0
  0
LINE
  5
3B6
100
AcDbEntity
  8
1
  6
CONTINUOUS
 62
     3
100
AcDbLine
 10
-77.6028
 20
176.9947
 30
0.0
 11
-77.7385
 21
177.6735
 31
0.0
  0
LINE
  5
3B7
100
AcDbEntity
  8
1
  6
CONTINUOUS
 62
     3
100
AcDbLine
 10
-77.7385
 20
177.6735
 30
0.0
 11
-79.367
 21
173.7754
 31
0.0
  0
LINE
  5
3B8
100
AcDbEntity
  8
1
  6
CONTINUOUS
 62
     3
100
AcDbLine
 10
-79.367
 20
173.7754
 30
0.0
 11
-79.9098
 21
174.8615
 31
0.0
  0
LINE
  5
3B9
100
AcDbEntity
  8
1
  6
CONTINUOUS
 62
     3
100
AcDbLine
 10
-79.9098
 20
174.8615
 30
0.0
 11
-82.0033
 21
169.9352
 31
0.0
  0
LINE
  5
3BA
100
AcDbEntity
  8
1
  6
CONTINUOUS
 62
     3
100
AcDbLine
 10
17.9938
 20
173.7754
 30
0.0
 11
18.5366
 21
174.8615
 31
0.0
  0
LINE
  5
3BB
100
AcDbEntity
  8
1
  6
CONTINUOUS
 62
     3
100
AcDbLine
 10
14.9406
 20
178.6205
 30
0.0
 11
16.2296
 21
176.9947
 31
0.0
  0
LINE
  5
3BC
100
AcDbEntity
  8
1
  6
CONTINUOUS
 62
     3
100
AcDbLine
 10
16.2296
 20
176.9947
 30
0.0
 11
16.3653
 21
177.6735
 31
0.0
  0
LINE
  5
3BD
100
AcDbEntity
  8
1
  6
CONTINUOUS
 62
     3
100
AcDbLine
 10
16.3653
 20
177.6735
 30
0.0
 11
17.9938
 21
173.7754
 31
0.0
  0
LINE
  5
3BE
100
AcDbEntity
  8
1
  6
CONTINUOUS
 62
     3
100
AcDbLine
 10
18.5366
 20
174.8615
 30
0.0
 11
20.8632
 21
169.3866
 31
0.0
  0
CIRCLE
  5
3BF
100
AcDbEntity
  8
1
  6
CONTINUOUS
 62
     7
100
AcDbCircle
 10
-80.2069
 20
171.8229
 30
0.0
 40
0.067753
210
0.0
220
0.0
230
1.0
  0
CIRCLE
  5
3C0
100
AcDbEntity
  8
1
  6
CONTINUOUS
 62
     7
100
AcDbCircle
 10
-77.6465
 20
170.708
 30
0.0
 40
0.067753
210
0.0
220
0.0
230
1.0
  0
CIRCLE
  5
3C1
100
AcDbEntity
  8
1
  6
CONTINUOUS
 62
     7
100
AcDbCircle
 10
-76.0801
 20
171.2203
 30
0.0
 40
0.067753
210
0.0
220
0.0
230
1.0
  0
CIRCLE
  5
3C2
100
AcDbEntity
  8
1
  6
CONTINUOUS
 62
     7
100
AcDbCircle
 10
-75.568
 20
169.804
 30
0.0
 40
0.067753
210
0.0
220
0.0
230
1.0
  0
CIRCLE
  5
3C3
100
AcDbEntity
  8
1
  6
CONTINUOUS
 62
     7
100
AcDbCircle
 10
-74.0317
 20
168.1769
 30
0.0
 40
0.067753
210
0.0
220
0.0
230
1.0
  0
CIRCLE
  5
3C4
100
AcDbEntity
  8
1
  6
CONTINUOUS
 62
     7
100
AcDbCircle
 10
-72.9473
 20
169.2616
 30
0.0
 40
0.067753
210
0.0
220
0.0
230
1.0
  0
CIRCLE
  5
3C5
100
AcDbEntity
  8
1
  6
CONTINUOUS
 62
     7
100
AcDbCircle
 10
-72.2244
 20
167.2126
 30
0.0
 40
0.067753
210
0.0
220
0.0
230
1.0
  0
CIRCLE
  5
3C6
100
AcDbEntity
  8
1
  6
CONTINUOUS
 62
     7
100
AcDbCircle
 10
-69.5736
 20
167.514
 30
0.0
 40
0.067753
210
0.0
220
0.0
230
1.0
  0
CIRCLE
  5
3C7
100
AcDbEntity
  8
1
  6
CONTINUOUS
 62
     7
100
AcDbCircle
 10
-69.0916
 20
165.4951
 30
0.0
 40
0.067753
210
0.0
220
0.0
230
1.0
  0
CIRCLE
  5
3C8
100
AcDbEntity
  8
1
  6
CONTINUOUS
 62
     7
100
AcDbCircle
 10
-66.5914
 20
164.4103
 30
0.0
 40
0.067753
210
0.0
220
0.0
230
1.0
  0
CIRCLE
  5
3C9
100
AcDbEntity
  8
1
  6
CONTINUOUS
 62
     7
100
AcDbCircle
 10
-64.5431
 20
163.2954
 30
0.0
 40
0.067753
210
0.0
220
0.0
230
1.0
  0
CIRCLE
  5
3CA
100
AcDbEntity
  8
1
  6
CONTINUOUS
 62
     7
100
AcDbCircle
 10
-62.4646
 20
162.4216
 30
0.0
 40
0.067753
210
0.0
220
0.0
230
1.0
  0
CIRCLE
  5
3CB
100
AcDbEntity
  8
1
  6
CONTINUOUS
 62
     7
100
AcDbCircle
 10
-60.4765
 20
160.7643
 30
0.0
 40
0.067753
210
0.0
220
0.0
230
1.0
  0
CIRCLE
  5
3CC
100
AcDbEntity
  8
1
  6
CONTINUOUS
 62
     7
100
AcDbCircle
 10
-59.0306
 20
159.8904
 30
0.0
 40
0.067753
210
0.0
220
0.0
230
1.0
  0
CIRCLE
  5
3CD
100
AcDbEntity
  8
1
  6
CONTINUOUS
 62
     7
100
AcDbCircle
 10
-55.1749
 20
160.5232
 30
0.0
 40
0.067753
210
0.0
220
0.0
230
1.0
  0
CIRCLE
  5
3CE
100
AcDbEntity
  8
1
  6
CONTINUOUS
 62
     7
100
AcDbCircle
 10
-53.7591
 20
159.6795
 30
0.0
 40
0.067753
210
0.0
220
0.0
230
1.0
  0
CIRCLE
  5
3CF
100
AcDbEntity
  8
1
  6
CONTINUOUS
 62
     7
100
AcDbCircle
 10
-51.0782
 20
157.751
 30
0.0
 40
0.067753
210
0.0
220
0.0
230
1.0
  0
CIRCLE
  5
3D0
100
AcDbEntity
  8
1
  6
CONTINUOUS
 62
     7
100
AcDbCircle
 10
-48.7542
 20
157.751
 30
0.0
 40
0.067753
210
0.0
220
0.0
230
1.0
  0
CIRCLE
  5
3D1
100
AcDbEntity
  8
1
  6
CONTINUOUS
 62
     7
100
AcDbCircle
 10
-48.6767
 20
155.8525
 30
0.0
 40
0.067753
210
0.0
220
0.0
230
1.0
  0
CIRCLE
  5
3D2
100
AcDbEntity
  8
1
  6
CONTINUOUS
 62
     7
100
AcDbCircle
 10
-45.6943
 20
156.4337
 30
0.0
 40
0.067753
210
0.0
220
0.0
230
1.0
  0
CIRCLE
  5
3D3
100
AcDbEntity
  8
1
  6
CONTINUOUS
 62
     7
100
AcDbCircle
 10
-47.2436
 20
155.2713
 30
0.0
 40
0.067753
210
0.0
220
0.0
230
1.0
  0
CIRCLE
  5
3D4
100
AcDbEntity
  8
1
  6
CONTINUOUS
 62
     7
100
AcDbCircle
 10
-45.152
 20
154.2252
 30
0.0
 40
0.067753
210
0.0
220
0.0
230
1.0
  0
CIRCLE
  5
3D5
100
AcDbEntity
  8
1
  6
CONTINUOUS
 62
     7
100
AcDbCircle
 10
-43.4478
 20
155.62
 30
0.0
 40
0.067753
210
0.0
220
0.0
230
1.0
  0
CIRCLE
  5
3D6
100
AcDbEntity
  8
1
  6
CONTINUOUS
 62
     7
100
AcDbCircle
 10
-40.5428
 20
154.6901
 30
0.0
 40
0.067753
210
0.0
220
0.0
230
1.0
  0
CIRCLE
  5
3D7
100
AcDbEntity
  8
1
  6
CONTINUOUS
 62
     7
100
AcDbCircle
 10
-42.2083
 20
153.8377
 30
0.0
 40
0.067753
210
0.0
220
0.0
230
1.0
  0
CIRCLE
  5
3D8
100
AcDbEntity
  8
1
  6
CONTINUOUS
 62
     7
100
AcDbCircle
 10
-39.2646
 20
152.6366
 30
0.0
 40
0.067753
210
0.0
220
0.0
230
1.0
  0
CIRCLE
  5
3D9
100
AcDbEntity
  8
1
  6
CONTINUOUS
 62
     7
100
AcDbCircle
 10
-37.1343
 20
154.2639
 30
0.0
 40
0.067753
210
0.0
220
0.0
230
1.0
  0
CIRCLE
  5
3DA
100
AcDbEntity
  8
1
  6
CONTINUOUS
 62
     7
100
AcDbCircle
 10
-35.1977
 20
152.4429
 30
0.0
 40
0.067753
210
0.0
220
0.0
230
1.0
  0
CIRCLE
  5
3DB
100
AcDbEntity
  8
1
  6
CONTINUOUS
 62
     7
100
AcDbCircle
 10
-32.0603
 20
153.8765
 30
0.0
 40
0.067753
210
0.0
220
0.0
230
1.0
  0
CIRCLE
  5
3DC
100
AcDbEntity
  8
1
  6
CONTINUOUS
 62
     7
100
AcDbCircle
 10
-29.4652
 20
152.4816
 30
0.0
 40
0.067753
210
0.0
220
0.0
230
1.0
  0
CIRCLE
  5
3DD
100
AcDbEntity
  8
1
  6
CONTINUOUS
 62
     7
100
AcDbCircle
 10
-27.606
 20
154.3027
 30
0.0
 40
0.067753
210
0.0
220
0.0
230
1.0
  0
CIRCLE
  5
3DE
100
AcDbEntity
  8
1
  6
CONTINUOUS
 62
     7
100
AcDbCircle
 10
-27.2187
 20
152.7916
 30
0.0
 40
0.067753
210
0.0
220
0.0
230
1.0
  0
CIRCLE
  5
3DF
100
AcDbEntity
  8
1
  6
CONTINUOUS
 62
     7
100
AcDbCircle
 10
-23.113
 20
153.644
 30
0.0
 40
0.067753
210
0.0
220
0.0
230
1.0
  0
CIRCLE
  5
3E0
100
AcDbEntity
  8
1
  6
CONTINUOUS
 62
     7
100
AcDbCircle
 10
-24.7011
 20
154.0702
 30
0.0
 40
0.067753
210
0.0
220
0.0
230
1.0
  0
CIRCLE
  5
3E1
100
AcDbEntity
  8
1
  6
CONTINUOUS
 62
     7
100
AcDbCircle
 10
-20.8278
 20
154.8839
 30
0.0
 40
0.067753
210
0.0
220
0.0
230
1.0
  0
CIRCLE
  5
3E2
100
AcDbEntity
  8
1
  6
CONTINUOUS
 62
     7
100
AcDbCircle
 10
-19.6271
 20
153.8377
 30
0.0
 40
0.067753
210
0.0
220
0.0
230
1.0
  0
CIRCLE
  5
3E3
100
AcDbEntity
  8
1
  6
CONTINUOUS
 62
     7
100
AcDbCircle
 10
-17.8066
 20
155.5813
 30
0.0
 40
0.067753
210
0.0
220
0.0
230
1.0
  0
CIRCLE
  5
3E4
100
AcDbEntity
  8
1
  6
CONTINUOUS
 62
     7
100
AcDbCircle
 10
-15.5375
 20
154.803
 30
0.0
 40
0.067753
210
0.0
220
0.0
230
1.0
  0
CIRCLE
  5
3E5
100
AcDbEntity
  8
1
  6
CONTINUOUS
 62
     7
100
AcDbCircle
 10
-14.7595
 20
156.6838
 30
0.0
 40
0.067753
210
0.0
220
0.0
230
1.0
  0
CIRCLE
  5
3E6
100
AcDbEntity
  8
1
  6
CONTINUOUS
 62
     7
100
AcDbCircle
 10
-12.9442
 20
155.9488
 30
0.0
 40
0.067753
210
0.0
220
0.0
230
1.0
  0
CIRCLE
  5
3E7
100
AcDbEntity
  8
1
  6
CONTINUOUS
 62
     7
100
AcDbCircle
 10
-11.3666
 20
157.6998
 30
0.0
 40
0.067753
210
0.0
220
0.0
230
1.0
  0
CIRCLE
  5
3E8
100
AcDbEntity
  8
1
  6
CONTINUOUS
 62
     7
100
AcDbCircle
 10
-8.7085
 20
158.8888
 30
0.0
 40
0.067753
210
0.0
220
0.0
230
1.0
  0
CIRCLE
  5
3E9
100
AcDbEntity
  8
1
  6
CONTINUOUS
 62
     7
100
AcDbCircle
 10
-6.742
 20
160.121
 30
0.0
 40
0.067753
210
0.0
220
0.0
230
1.0
  0
CIRCLE
  5
3EA
100
AcDbEntity
  8
1
  6
CONTINUOUS
 62
     7
100
AcDbCircle
 10
-1.8363
 20
160.3156
 30
0.0
 40
0.067753
210
0.0
220
0.0
230
1.0
  0
CIRCLE
  5
3EB
100
AcDbEntity
  8
1
  6
CONTINUOUS
 62
     7
100
AcDbCircle
 10
0.4977
 20
161.9153
 30
0.0
 40
0.067753
210
0.0
220
0.0
230
1.0
  0
CIRCLE
  5
3EC
100
AcDbEntity
  8
1
  6
CONTINUOUS
 62
     7
100
AcDbCircle
 10
3.4367
 20
163.1691
 30
0.0
 40
0.067753
210
0.0
220
0.0
230
1.0
  0
CIRCLE
  5
3ED
100
AcDbEntity
  8
1
  6
CONTINUOUS
 62
     7
100
AcDbCircle
 10
4.8198
 20
164.9418
 30
0.0
 40
0.067753
210
0.0
220
0.0
230
1.0
  0
CIRCLE
  5
3EE
100
AcDbEntity
  8
1
  6
CONTINUOUS
 62
     7
100
AcDbCircle
 10
6.419
 20
165.1147
 30
0.0
 40
0.067753
210
0.0
220
0.0
230
1.0
  0
CIRCLE
  5
3EF
100
AcDbEntity
  8
1
  6
CONTINUOUS
 62
     7
100
AcDbCircle
 10
8.1046
 20
166.7577
 30
0.0
 40
0.067753
210
0.0
220
0.0
230
1.0
  0
CIRCLE
  5
3F0
100
AcDbEntity
  8
1
  6
CONTINUOUS
 62
     7
100
AcDbCircle
 10
9.747
 20
168.1412
 30
0.0
 40
0.067753
210
0.0
220
0.0
230
1.0
  0
CIRCLE
  5
3F1
100
AcDbEntity
  8
1
  6
CONTINUOUS
 62
     7
100
AcDbCircle
 10
11.4759
 20
167.8818
 30
0.0
 40
0.067753
210
0.0
220
0.0
230
1.0
  0
CIRCLE
  5
3F2
100
AcDbEntity
  8
1
  6
CONTINUOUS
 62
     7
100
AcDbCircle
 10
14.6743
 20
169.7409
 30
0.0
 40
0.067753
210
0.0
220
0.0
230
1.0
  0
CIRCLE
  5
3F3
100
AcDbEntity
  8
1
  6
CONTINUOUS
 62
     7
100
AcDbCircle
 10
14.5014
 20
170.9947
 30
0.0
 40
0.067753
210
0.0
220
0.0
230
1.0
  0
CIRCLE
  5
3F4
100
AcDbEntity
  8
1
  6
CONTINUOUS
 62
     7
100
AcDbCircle
 10
16.9218
 20
172.8538
 30
0.0
 40
0.067753
210
0.0
220
0.0
230
1.0
  0
CIRCLE
  5
3F5
100
AcDbEntity
  8
1
  6
CONTINUOUS
 62
     7
100
AcDbCircle
 10
18.521
 20
172.508
 30
0.0
 40
0.067753
210
0.0
220
0.0
230
1.0
  0
CIRCLE
  5
3F6
100
AcDbEntity
  8
1
  6
CONTINUOUS
 62
     7
100
AcDbCircle
 10
16.3167
 20
171.0812
 30
0.0
 40
0.067753
210
0.0
220
0.0
230
1.0
  0
CIRCLE
  5
3F7
100
AcDbEntity
  8
1
  6
CONTINUOUS
 62
     7
100
AcDbCircle
 10
12.1242
 20
169.8706
 30
0.0
 40
0.067753
210
0.0
220
0.0
230
1.0
  0
LINE
  5
3F8
100
AcDbEntity
  8
1
  6
CONTINUOUS
 62
     3
100
AcDbLine
 10
-34.2119
 20
150.2214
 30
0.0
 11
-37.8017
 21
147.4167
 31
0.0
  0
LINE
  5
3F9
100
AcDbEntity
  8
1
  6
CONTINUOUS
 62
     3
100
AcDbLine
 10
-27.2933
 20
150.2214
 30
0.0
 11
-23.7035
 21
147.4167
 31
0.0
  0
ARC
  5
3FA
100
AcDbEntity
  8
1
  6
CONTINUOUS
 62
     3
100
AcDbCircle
 10
-38.5344
 20
72.03336
 30
0.0
 40
9.301023
210
0.0
220
0.0
230
1.0
100
AcDbArc
 50
39.275728
 51
140.724269
  0
ARC
  5
3FB
100
AcDbEntity
  8
1
  6
CONTINUOUS
 62
     3
100
AcDbCircle
 10
-38.5344
 20
83.83704
 30
0.0
 40
9.301023
210
0.0
220
0.0
230
1.0
100
AcDbArc
 50
219.275731
 51
320.724272
  0
ARC
  5
3FC
100
AcDbEntity
  8
1
  6
CONTINUOUS
 62
     3
100
AcDbCircle
 10
-24.0676
 20
72.03336
 30
0.0
 40
9.301023
210
0.0
220
0.0
230
1.0
100
AcDbArc
 50
39.275731
 51
140.724272
  0
ARC
  5
3FD
100
AcDbEntity
  8
1
  6
CONTINUOUS
 62
     3
100
AcDbCircle
 10
-24.0676
 20
25.05824
 30
0.0
 40
9.301023
210
0.0
220
0.0
230
1.0
100
AcDbArc
 50
219.275728
 51
320.724269
  0
ARC
  5
3FE
100
AcDbEntity
  8
1
  6
CONTINUOUS
 62
     3
100
AcDbCircle
 10
-38.5344
 20
25.05824
 30
0.0
 40
9.301023
210
0.0
220
0.0
230
1.0
100
AcDbArc
 50
219.275731
 51
320.724272
  0
ARC
  5
3FF
100
AcDbEntity
  8
1
  6
CONTINUOUS
 62
     3
100
AcDbCircle
 10
-38.5344
 20
13.25456
 30
0.0
 40
9.301023
210
0.0
220
0.0
230
1.0
100
AcDbArc
 50
39.275728
 51
140.724269
  0
LINE
  5
400
100
AcDbEntity
  8
1
  6
CONTINUOUS
 62
     3
100
AcDbLine
 10
-45.7344
 20
77.9214
 30
0.0
 11
-45.7344
 21
55.1214
 31
0.0
  0
LINE
  5
401
100
AcDbEntity
  8
1
  6
CONTINUOUS
 62
     3
100
AcDbLine
 10
-46.3344
 20
55.1214
 30
0.0
 11
-46.3344
 21
44.3214
 31
0.0
  0
LINE
  5
402
100
AcDbEntity
  8
1
  6
CONTINUOUS
 62
     3
100
AcDbLine
 10
-45.7344
 20
44.3214
 30
0.0
 11
-45.7344
 21
19.1214
 31
0.0
  0
LINE
  5
403
100
AcDbEntity
  8
1
  6
CONTINUOUS
 62
     3
100
AcDbLine
 10
-16.9344
 20
77.9214
 30
0.0
 11
-16.9344
 21
55.1214
 31
0.0
  0
LINE
  5
404
100
AcDbEntity
  8
1
  6
CONTINUOUS
 62
     3
100
AcDbLine
 10
-16.0344
 20
55.1214
 30
0.0
 11
-16.0344
 21
44.3214
 31
0.0
  0
LINE
  5
405
100
AcDbEntity
  8
1
  6
CONTINUOUS
 62
     3
100
AcDbLine
 10
-16.9344
 20
44.3214
 30
0.0
 11
-16.9344
 21
19.1214
 31
0.0
  0
LINE
  5
406
100
AcDbEntity
  8
1
  6
CONTINUOUS
 62
     3
100
AcDbLine
 10
-46.3344
 20
55.1214
 30
0.0
 11
-33.1344
 21
55.1214
 31
0.0
  0
LINE
  5
407
100
AcDbEntity
  8
1
  6
CONTINUOUS
 62
     3
100
AcDbLine
 10
-46.3344
 20
44.3214
 30
0.0
 11
-33.1344
 21
44.3214
 31
0.0
  0
LINE
  5
408
100
AcDbEntity
  8
1
  6
CONTINUOUS
 62
     3
100
AcDbLine
 10
-33.1344
 20
55.1214
 30
0.0
 11
-33.1344
 21
44.3214
 31
0.0
  0
LINE
  5
409
100
AcDbEntity
  8
1
  6
CONTINUOUS
 62
     3
100
AcDbLine
 10
-34.3344
 20
55.1214
 30
0.0
 11
-34.3344
 21
44.3214
 31
0.0
  0
LINE
  5
40A
100
AcDbEntity
  8
1
  6
CONTINUOUS
 62
     3
100
AcDbLine
 10
-28.0344
 20
55.1214
 30
0.0
 11
-28.0344
 21
44.3214
 31
0.0
  0
LINE
  5
40B
100
AcDbEntity
  8
1
  6
CONTINUOUS
 62
     3
100
AcDbLine
 10
-29.2344
 20
55.1214
 30
0.0
 11
-10.3344
 21
55.1214
 31
0.0
  0
LINE
  5
40C
100
AcDbEntity
  8
1
  6
CONTINUOUS
 62
     3
100
AcDbLine
 10
-29.2344
 20
44.3214
 30
0.0
 11
-10.3344
 21
44.3214
 31
0.0
  0
LINE
  5
40D
100
AcDbEntity
  8
1
  6
CONTINUOUS
 62
     3
100
AcDbLine
 10
-35.5344
 20
51.5214
 30
0.0
 11
-35.5344
 21
47.9214
 31
0.0
  0
LINE
  5
40E
100
AcDbEntity
  8
1
  6
CONTINUOUS
 62
     3
100
AcDbLine
 10
-29.2344
 20
55.1214
 30
0.0
 11
-29.2344
 21
44.3214
 31
0.0
  0
LINE
  5
40F
100
AcDbEntity
  8
1
  6
CONTINUOUS
 62
     3
100
AcDbLine
 10
-35.5344
 20
51.5214
 30
0.0
 11
-34.3344
 21
51.5214
 31
0.0
  0
LINE
  5
410
100
AcDbEntity
  8
1
  6
CONTINUOUS
 62
     3
100
AcDbLine
 10
-35.5344
 20
47.9214
 30
0.0
 11
-34.3344
 21
47.9214
 31
0.0
  0
LINE
  5
411
100
AcDbEntity
  8
1
  6
CONTINUOUS
 62
     3
100
AcDbLine
 10
-35.5344
 20
50.6214
 30
0.0
 11
-34.3344
 21
50.6214
 31
0.0
  0
LINE
  5
412
100
AcDbEntity
  8
1
  6
CONTINUOUS
 62
     3
100
AcDbLine
 10
-35.5344
 20
48.8214
 30
0.0
 11
-34.3344
 21
48.8214
 31
0.0
  0
LINE
  5
413
100
AcDbEntity
  8
1
  6
CONTINUOUS
 62
     3
100
AcDbLine
 10
-26.8466
 20
51.5214
 30
0.0
 11
-26.8466
 21
47.9214
 31
0.0
  0
LINE
  5
414
100
AcDbEntity
  8
1
  6
CONTINUOUS
 62
     3
100
AcDbLine
 10
-26.8466
 20
51.5214
 30
0.0
 11
-28.0466
 21
51.5214
 31
0.0
  0
LINE
  5
415
100
AcDbEntity
  8
1
  6
CONTINUOUS
 62
     3
100
AcDbLine
 10
-26.8466
 20
47.9214
 30
0.0
 11
-28.0466
 21
47.9214
 31
0.0
  0
LINE
  5
416
100
AcDbEntity
  8
1
  6
CONTINUOUS
 62
     3
100
AcDbLine
 10
-26.8466
 20
50.6214
 30
0.0
 11
-28.0466
 21
50.6214
 31
0.0
  0
LINE
  5
417
100
AcDbEntity
  8
1
  6
CONTINUOUS
 62
     3
100
AcDbLine
 10
-26.8466
 20
48.8214
 30
0.0
 11
-28.0466
 21
48.8214
 31
0.0
  0
LINE
  5
418
100
AcDbEntity
  8
1
  6
CONTINUOUS
 62
     3
100
AcDbLine
 10
-33.1344
 20
50.3214
 30
0.0
 11
-29.2344
 21
50.3214
 31
0.0
  0
LINE
  5
419
100
AcDbEntity
  8
1
  6
CONTINUOUS
 62
     3
100
AcDbLine
 10
-26.8466
 20
50.3214
 30
0.0
 11
-25.0466
 21
50.3214
 31
0.0
  0
LINE
  5
41A
100
AcDbEntity
  8
1
  6
CONTINUOUS
 62
     3
100
AcDbLine
 10
-33.1344
 20
49.1214
 30
0.0
 11
-29.2344
 21
49.1214
 31
0.0
  0
LINE
  5
41B
100
AcDbEntity
  8
1
  6
CONTINUOUS
 62
     3
100
AcDbLine
 10
-26.8466
 20
49.1214
 30
0.0
 11
-25.0466
 21
49.1214
 31
0.0
  0
LINE
  5
41C
100
AcDbEntity
  8
1
  6
CONTINUOUS
 62
     3
100
AcDbLine
 10
-25.0466
 20
50.3214
 30
0.0
 11
-25.0466
 21
49.1214
 31
0.0
  0
LINE
  5
41D
100
AcDbEntity
  8
1
  6
CONTINUOUS
 62
     3
100
AcDbLine
 10
-10.3344
 20
55.1214
 30
0.0
 11
-10.3344
 21
41.9214
 31
0.0
  0
LINE
  5
41E
100
AcDbEntity
  8
1
  6
CONTINUOUS
 62
     3
100
AcDbLine
 10
-9.1344
 20
54.5214
 30
0.0
 11
-9.1344
 21
42.5214
 31
0.0
  0
LINE
  5
41F
100
AcDbEntity
  8
1
  6
CONTINUOUS
 62
     3
100
AcDbLine
 10
-9.1344
 20
56.3214
 30
0.0
 11
2.8656
 21
56.3214
 31
0.0
  0
LINE
  5
420
100
AcDbEntity
  8
1
  6
CONTINUOUS
 62
     3
100
AcDbLine
 10
-9.1344
 20
40.7214
 30
0.0
 11
2.8656
 21
40.7214
 31
0.0
  0
LINE
  5
421
100
AcDbEntity
  8
1
  6
CONTINUOUS
 62
     3
100
AcDbLine
 10
-8.5344
 20
55.1214
 30
0.0
 11
2.8656
 21
55.1214
 31
0.0
  0
LINE
  5
422
100
AcDbEntity
  8
1
  6
CONTINUOUS
 62
     3
100
AcDbLine
 10
-8.5344
 20
41.9214
 30
0.0
 11
2.8656
 21
41.9214
 31
0.0
  0
ARC
  5
423
100
AcDbEntity
  8
1
  6
CONTINUOUS
 62
     3
100
AcDbCircle
 10
-9.1344
 20
55.1214
 30
0.0
 40
1.2
210
0.0
220
0.0
230
1.0
100
AcDbArc
 50
90.0
 51
180.0
  0
ARC
  5
424
100
AcDbEntity
  8
1
  6
CONTINUOUS
 62
     3
100
AcDbCircle
 10
-9.1344
 20
41.9214
 30
0.0
 40
1.2
210
0.0
220
0.0
230
1.0
100
AcDbArc
 50
180.0
 51
270.0
  0
ARC
  5
425
100
AcDbEntity
  8
1
  6
CONTINUOUS
 62
     3
100
AcDbCircle
 10
-8.5344
 20
54.5214
 30
0.0
 40
0.6
210
0.0
220
0.0
230
1.0
100
AcDbArc
 50
90.0
 51
180.0
  0
ARC
  5
426
100
AcDbEntity
  8
1
  6
CONTINUOUS
 62
     3
100
AcDbCircle
 10
-8.5344
 20
42.5214
 30
0.0
 40
0.6
210
0.0
220
0.0
230
1.0
100
AcDbArc
 50
180.0
 51
270.0
  0
LINE
  5
427
100
AcDbEntity
  8
1
  6
CONTINUOUS
 62
     3
100
AcDbLine
 10
0.0725
 20
39.4658
 30
0.0
 11
0.5498
 21
39.9432
 31
0.0
  0
LINE
  5
428
100
AcDbEntity
  8
1
  6
CONTINUOUS
 62
     3
100
AcDbLine
 10
0.0725
 20
39.4658
 30
0.0
 11
0.5498
 21
38.9885
 31
0.0
  0
ARC
  5
429
100
AcDbEntity
  8
1
  6
CONTINUOUS
 62
     3
100
AcDbCircle
 10
-2.259067
 20
39.465275
 30
0.0
 40
0.360148
210
0.0
220
0.0
230
1.0
100
AcDbArc
 50
75.192794
 51
284.807208
  0
ARC
  5
42A
100
AcDbEntity
  8
1
  6
CONTINUOUS
 62
     3
100
AcDbCircle
 10
-2.36581
 20
39.215219
 30
0.0
 40
0.630405
210
0.0
220
0.0
230
1.0
100
AcDbArc
 50
28.895294
 51
71.619358
  0
ARC
  5
42B
100
AcDbEntity
  8
1
  6
CONTINUOUS
 62
     3
100
AcDbCircle
 10
-2.362792
 20
39.711701
 30
0.0
 40
0.626011
210
0.0
220
0.0
230
1.0
100
AcDbArc
 50
288.223269
 51
331.262086
  0
LINE
  5
42C
100
AcDbEntity
  8
1
  6
CONTINUOUS
 62
     3
100
AcDbLine
 10
-6.1344
 20
54.9876
 30
0.0
 11
4.3656
 21
54.9876
 31
0.0
  0
LINE
  5
42D
100
AcDbEntity
  8
1
  6
CONTINUOUS
 62
     3
100
AcDbLine
 10
-6.1344
 20
42.9876
 30
0.0
 11
4.3656
 21
42.9876
 31
0.0
  0
LINE
  5
42E
100
AcDbEntity
  8
1
  6
CONTINUOUS
 62
     3
100
AcDbLine
 10
-6.1344
 20
53.7876
 30
0.0
 11
4.3656
 21
53.7876
 31
0.0
  0
LINE
  5
42F
100
AcDbEntity
  8
1
  6
CONTINUOUS
 62
     3
100
AcDbLine
 10
-6.1344
 20
44.1876
 30
0.0
 11
4.3656
 21
44.1876
 31
0.0
  0
LINE
  5
430
100
AcDbEntity
  8
1
  6
CONTINUOUS
 62
     3
100
AcDbLine
 10
-6.1344
 20
54.9876
 30
0.0
 11
-6.1344
 21
53.7876
 31
0.0
  0
LINE
  5
431
100
AcDbEntity
  8
1
  6
CONTINUOUS
 62
     3
100
AcDbLine
 10
4.3656
 20
54.9876
 30
0.0
 11
4.3656
 21
53.7876
 31
0.0
  0
LINE
  5
432
100
AcDbEntity
  8
1
  6
CONTINUOUS
 62
     3
100
AcDbLine
 10
-6.1344
 20
44.1876
 30
0.0
 11
-6.1344
 21
42.9876
 31
0.0
  0
LINE
  5
433
100
AcDbEntity
  8
1
  6
CONTINUOUS
 62
     3
100
AcDbLine
 10
4.3656
 20
44.1876
 30
0.0
 11
4.3656
 21
42.9876
 31
0.0
  0
ARC
  5
434
100
AcDbEntity
  8
1
  6
CONTINUOUS
 62
     3
100
AcDbCircle
 10
-0.8844
 20
56.292201
 30
0.0
 40
1.800237
210
0.0
220
0.0
230
1.0
100
AcDbArc
 50
0.929342
 51
179.070656
  0
LINE
  5
435
100
AcDbEntity
  8
1
  6
CONTINUOUS
 62
     3
100
AcDbLine
 10
-1.7844
 20
39.0876
 30
0.0
 11
-1.7844
 21
40.7214
 31
0.0
  0
LINE
  5
436
100
AcDbEntity
  8
1
  6
CONTINUOUS
 62
     3
100
AcDbLine
 10
-1.7844
 20
41.9214
 30
0.0
 11
-1.7844
 21
42.9876
 31
0.0
  0
LINE
  5
437
100
AcDbEntity
  8
1
  6
CONTINUOUS
 62
     3
100
AcDbLine
 10
0.0156
 20
39.0876
 30
0.0
 11
0.0156
 21
40.7214
 31
0.0
  0
LINE
  5
438
100
AcDbEntity
  8
1
  6
CONTINUOUS
 62
     3
100
AcDbLine
 10
0.0156
 20
41.9214
 30
0.0
 11
0.0156
 21
42.9876
 31
0.0
  0
ARC
  5
439
100
AcDbEntity
  8
1
  6
CONTINUOUS
 62
     3
100
AcDbCircle
 10
-0.8844
 20
39.186969
 30
0.0
 40
0.905469
210
0.0
220
0.0
230
1.0
100
AcDbArc
 50
186.300511
 51
353.699489
  0
LINE
  5
43A
100
AcDbEntity
  8
1
  6
CONTINUOUS
 62
     3
100
AcDbLine
 10
2.8656
 20
56.3214
 30
0.0
 11
2.8656
 21
55.1214
 31
0.0
  0
LINE
  5
43B
100
AcDbEntity
  8
1
  6
CONTINUOUS
 62
     3
100
AcDbLine
 10
2.8656
 20
41.9214
 30
0.0
 11
2.8656
 21
40.7214
 31
0.0
  0
ARC
  5
43C
100
AcDbEntity
  8
1
  6
CONTINUOUS
 62
     3
100
AcDbCircle
 10
-3.751634
 20
48.9876
 30
0.0
 40
1.334023
210
0.0
220
0.0
230
1.0
100
AcDbArc
 50
115.902992
 51
244.097011
  0
ARC
  5
43D
100
AcDbEntity
  8
1
  6
CONTINUOUS
 62
     3
100
AcDbCircle
 10
-11.6344
 20
48.9876
 30
0.0
 40
7.3
210
0.0
220
0.0
230
1.0
100
AcDbArc
 50
9.073128
 51
41.112092
  0
ARC
  5
43E
100
AcDbEntity
  8
1
  6
CONTINUOUS
 62
     3
100
AcDbCircle
 10
-11.6344
 20
48.9876
 30
0.0
 40
7.3
210
0.0
220
0.0
230
1.0
100
AcDbArc
 50
318.887911
 51
350.926872
  0
LINE
  5
43F
100
AcDbEntity
  8
1
  6
CONTINUOUS
 62
     3
100
AcDbLine
 10
30.1656
 20
51.0876
 30
0.0
 11
46.9656
 21
51.0876
 31
0.0
  0
LINE
  5
440
100
AcDbEntity
  8
1
  6
CONTINUOUS
 62
     3
100
AcDbLine
 10
30.1656
 20
49.2876
 30
0.0
 11
46.9656
 21
49.2876
 31
0.0
  0
LINE
  5
441
100
AcDbEntity
  8
1
  6
CONTINUOUS
 62
     3
100
AcDbLine
 10
30.1656
 20
46.8876
 30
0.0
 11
46.9656
 21
46.8876
 31
0.0
  0
LINE
  5
442
100
AcDbEntity
  8
1
  6
CONTINUOUS
 62
     3
100
AcDbLine
 10
30.1656
 20
48.6876
 30
0.0
 11
46.9656
 21
48.6876
 31
0.0
  0
LINE
  5
443
100
AcDbEntity
  8
1
  6
CONTINUOUS
 62
     3
100
AcDbLine
 10
46.9656
 20
51.0876
 30
0.0
 11
46.9656
 21
49.2876
 31
0.0
  0
LINE
  5
444
100
AcDbEntity
  8
1
  6
CONTINUOUS
 62
     3
100
AcDbLine
 10
46.9656
 20
48.6876
 30
0.0
 11
46.9656
 21
46.8876
 31
0.0
  0
LINE
  5
445
100
AcDbEntity
  8
1
  6
CONTINUOUS
 62
     3
100
AcDbLine
 10
31.0656
 20
52.5876
 30
0.0
 11
31.0656
 21
51.0876
 31
0.0
  0
LINE
  5
446
100
AcDbEntity
  8
1
  6
CONTINUOUS
 62
     3
100
AcDbLine
 10
34.0656
 20
52.5876
 30
0.0
 11
34.0656
 21
51.0876
 31
0.0
  0
LINE
  5
447
100
AcDbEntity
  8
1
  6
CONTINUOUS
 62
     3
100
AcDbLine
 10
43.0748
 20
52.5876
 30
0.0
 11
43.0748
 21
51.0876
 31
0.0
  0
LINE
  5
448
100
AcDbEntity
  8
1
  6
CONTINUOUS
 62
     3
100
AcDbLine
 10
46.0748
 20
52.5876
 30
0.0
 11
46.0748
 21
51.0876
 31
0.0
  0
LINE
  5
449
100
AcDbEntity
  8
1
  6
CONTINUOUS
 62
     3
100
AcDbLine
 10
37.0656
 20
52.5876
 30
0.0
 11
37.0656
 21
51.0876
 31
0.0
  0
LINE
  5
44A
100
AcDbEntity
  8
1
  6
CONTINUOUS
 62
     3
100
AcDbLine
 10
40.0656
 20
52.5876
 30
0.0
 11
40.0656
 21
51.0876
 31
0.0
  0
LINE
  5
44B
100
AcDbEntity
  8
1
  6
CONTINUOUS
 62
     3
100
AcDbLine
 10
31.0656
 20
52.5876
 30
0.0
 11
34.0656
 21
52.5876
 31
0.0
  0
LINE
  5
44C
100
AcDbEntity
  8
1
  6
CONTINUOUS
 62
     3
100
AcDbLine
 10
37.0656
 20
52.5876
 30
0.0
 11
40.0656
 21
52.5876
 31
0.0
  0
LINE
  5
44D
100
AcDbEntity
  8
1
  6
CONTINUOUS
 62
     3
100
AcDbLine
 10
43.0748
 20
52.5876
 30
0.0
 11
46.0748
 21
52.5876
 31
0.0
  0
LINE
  5
44E
100
AcDbEntity
  8
1
  6
CONTINUOUS
 62
     3
100
AcDbLine
 10
31.6656
 20
52.5876
 30
0.0
 11
31.6656
 21
51.0876
 31
0.0
  0
LINE
  5
44F
100
AcDbEntity
  8
1
  6
CONTINUOUS
 62
     3
100
AcDbLine
 10
33.4656
 20
52.5876
 30
0.0
 11
33.4656
 21
51.0876
 31
0.0
  0
LINE
  5
450
100
AcDbEntity
  8
1
  6
CONTINUOUS
 62
     3
100
AcDbLine
 10
37.6656
 20
52.5876
 30
0.0
 11
37.6656
 21
51.0876
 31
0.0
  0
LINE
  5
451
100
AcDbEntity
  8
1
  6
CONTINUOUS
 62
     3
100
AcDbLine
 10
39.4656
 20
52.5876
 30
0.0
 11
39.4656
 21
51.0876
 31
0.0
  0
LINE
  5
452
100
AcDbEntity
  8
1
  6
CONTINUOUS
 62
     3
100
AcDbLine
 10
43.6748
 20
52.5876
 30
0.0
 11
43.6748
 21
51.0876
 31
0.0
  0
LINE
  5
453
100
AcDbEntity
  8
1
  6
CONTINUOUS
 62
     3
100
AcDbLine
 10
45.4748
 20
52.5876
 30
0.0
 11
45.4748
 21
51.0876
 31
0.0
  0
LINE
  5
454
100
AcDbEntity
  8
1
  6
CONTINUOUS
 62
     3
100
AcDbLine
 10
37.0656
 20
45.3992
 30
0.0
 11
40.0656
 21
45.3992
 31
0.0
  0
LINE
  5
455
100
AcDbEntity
  8
1
  6
CONTINUOUS
 62
     3
100
AcDbLine
 10
31.0656
 20
45.3992
 30
0.0
 11
31.0656
 21
46.8992
 31
0.0
  0
LINE
  5
456
100
AcDbEntity
  8
1
  6
CONTINUOUS
 62
     3
100
AcDbLine
 10
34.0656
 20
45.3992
 30
0.0
 11
34.0656
 21
46.8992
 31
0.0
  0
LINE
  5
457
100
AcDbEntity
  8
1
  6
CONTINUOUS
 62
     3
100
AcDbLine
 10
43.0748
 20
45.3992
 30
0.0
 11
43.0748
 21
46.8992
 31
0.0
  0
LINE
  5
458
100
AcDbEntity
  8
1
  6
CONTINUOUS
 62
     3
100
AcDbLine
 10
46.0748
 20
45.3992
 30
0.0
 11
46.0748
 21
46.8992
 31
0.0
  0
LINE
  5
459
100
AcDbEntity
  8
1
  6
CONTINUOUS
 62
     3
100
AcDbLine
 10
37.0656
 20
45.3992
 30
0.0
 11
37.0656
 21
46.8992
 31
0.0
  0
LINE
  5
45A
100
AcDbEntity
  8
1
  6
CONTINUOUS
 62
     3
100
AcDbLine
 10
40.0656
 20
45.3992
 30
0.0
 11
40.0656
 21
46.8992
 31
0.0
  0
LINE
  5
45B
100
AcDbEntity
  8
1
  6
CONTINUOUS
 62
     3
100
AcDbLine
 10
31.0656
 20
45.3992
 30
0.0
 11
34.0656
 21
45.3992
 31
0.0
  0
LINE
  5
45C
100
AcDbEntity
  8
1
  6
CONTINUOUS
 62
     3
100
AcDbLine
 10
43.0748
 20
45.3992
 30
0.0
 11
46.0748
 21
45.3992
 31
0.0
  0
LINE
  5
45D
100
AcDbEntity
  8
1
  6
CONTINUOUS
 62
     3
100
AcDbLine
 10
31.6656
 20
45.3992
 30
0.0
 11
31.6656
 21
46.8992
 31
0.0
  0
LINE
  5
45E
100
AcDbEntity
  8
1
  6
CONTINUOUS
 62
     3
100
AcDbLine
 10
33.4656
 20
45.3992
 30
0.0
 11
33.4656
 21
46.8992
 31
0.0
  0
LINE
  5
45F
100
AcDbEntity
  8
1
  6
CONTINUOUS
 62
     3
100
AcDbLine
 10
37.6656
 20
45.3992
 30
0.0
 11
37.6656
 21
46.8992
 31
0.0
  0
LINE
  5
460
100
AcDbEntity
  8
1
  6
CONTINUOUS
 62
     3
100
AcDbLine
 10
39.4656
 20
45.3992
 30
0.0
 11
39.4656
 21
46.8992
 31
0.0
  0
LINE
  5
461
100
AcDbEntity
  8
1
  6
CONTINUOUS
 62
     3
100
AcDbLine
 10
43.6748
 20
45.3992
 30
0.0
 11
43.6748
 21
46.8992
 31
0.0
  0
LINE
  5
462
100
AcDbEntity
  8
1
  6
CONTINUOUS
 62
     3
100
AcDbLine
 10
45.4748
 20
45.3992
 30
0.0
 11
45.4748
 21
46.8992
 31
0.0
  0
LINE
  5
463
100
AcDbEntity
  8
1
  6
CONTINUOUS
 62
     3
100
AcDbLine
 10
31.9656
 20
54.3876
 30
0.0
 11
31.9656
 21
52.5876
 31
0.0
  0
LINE
  5
464
100
AcDbEntity
  8
1
  6
CONTINUOUS
 62
     3
100
AcDbLine
 10
33.1656
 20
54.3876
 30
0.0
 11
33.1656
 21
52.5876
 31
0.0
  0
LINE
  5
465
100
AcDbEntity
  8
1
  6
CONTINUOUS
 62
     3
100
AcDbLine
 10
31.9656
 20
54.3876
 30
0.0
 11
33.1656
 21
54.3876
 31
0.0
  0
LINE
  5
466
100
AcDbEntity
  8
1
  6
CONTINUOUS
 62
     3
100
AcDbLine
 10
43.9748
 20
54.3876
 30
0.0
 11
43.9748
 21
52.5876
 31
0.0
  0
LINE
  5
467
100
AcDbEntity
  8
1
  6
CONTINUOUS
 62
     3
100
AcDbLine
 10
45.1748
 20
54.3876
 30
0.0
 11
45.1748
 21
52.5876
 31
0.0
  0
LINE
  5
468
100
AcDbEntity
  8
1
  6
CONTINUOUS
 62
     3
100
AcDbLine
 10
43.9748
 20
54.3876
 30
0.0
 11
45.1748
 21
54.3876
 31
0.0
  0
LINE
  5
469
100
AcDbEntity
  8
1
  6
CONTINUOUS
 62
     3
100
AcDbLine
 10
37.9656
 20
43.5992
 30
0.0
 11
37.9656
 21
45.3992
 31
0.0
  0
LINE
  5
46A
100
AcDbEntity
  8
1
  6
CONTINUOUS
 62
     3
100
AcDbLine
 10
39.1656
 20
43.5992
 30
0.0
 11
39.1656
 21
45.3992
 31
0.0
  0
LINE
  5
46B
100
AcDbEntity
  8
1
  6
CONTINUOUS
 62
     3
100
AcDbLine
 10
31.9656
 20
53.7876
 30
0.0
 11
33.1656
 21
53.7876
 31
0.0
  0
LINE
  5
46C
100
AcDbEntity
  8
1
  6
CONTINUOUS
 62
     3
100
AcDbLine
 10
31.9656
 20
53.1876
 30
0.0
 11
33.1656
 21
53.1876
 31
0.0
  0
LINE
  5
46D
100
AcDbEntity
  8
1
  6
CONTINUOUS
 62
     3
100
AcDbLine
 10
43.9748
 20
53.7876
 30
0.0
 11
45.1748
 21
53.7876
 31
0.0
  0
LINE
  5
46E
100
AcDbEntity
  8
1
  6
CONTINUOUS
 62
     3
100
AcDbLine
 10
43.9748
 20
53.1876
 30
0.0
 11
45.1748
 21
53.1876
 31
0.0
  0
LINE
  5
46F
100
AcDbEntity
  8
1
  6
CONTINUOUS
 62
     3
100
AcDbLine
 10
37.9656
 20
44.1992
 30
0.0
 11
39.1656
 21
44.1992
 31
0.0
  0
LINE
  5
470
100
AcDbEntity
  8
1
  6
CONTINUOUS
 62
     3
100
AcDbLine
 10
37.9656
 20
44.7992
 30
0.0
 11
39.1656
 21
44.7992
 31
0.0
  0
LINE
  5
471
100
AcDbEntity
  8
1
  6
CONTINUOUS
 62
     3
100
AcDbLine
 10
32.2656
 20
54.0876
 30
0.0
 11
32.8656
 21
54.0876
 31
0.0
  0
LINE
  5
472
100
AcDbEntity
  8
1
  6
CONTINUOUS
 62
     3
100
AcDbLine
 10
32.2656
 20
53.4876
 30
0.0
 11
32.8656
 21
53.4876
 31
0.0
  0
LINE
  5
473
100
AcDbEntity
  8
1
  6
CONTINUOUS
 62
     3
100
AcDbLine
 10
32.2656
 20
52.8876
 30
0.0
 11
32.8656
 21
52.8876
 31
0.0
  0
LINE
  5
474
100
AcDbEntity
  8
1
  6
CONTINUOUS
 62
     3
100
AcDbLine
 10
44.2748
 20
54.0876
 30
0.0
 11
44.8748
 21
54.0876
 31
0.0
  0
LINE
  5
475
100
AcDbEntity
  8
1
  6
CONTINUOUS
 62
     3
100
AcDbLine
 10
44.2748
 20
53.4876
 30
0.0
 11
44.8748
 21
53.4876
 31
0.0
  0
LINE
  5
476
100
AcDbEntity
  8
1
  6
CONTINUOUS
 62
     3
100
AcDbLine
 10
44.2748
 20
52.8876
 30
0.0
 11
44.8748
 21
52.8876
 31
0.0
  0
LINE
  5
477
100
AcDbEntity
  8
1
  6
CONTINUOUS
 62
     3
100
AcDbLine
 10
37.9656
 20
43.5992
 30
0.0
 11
39.1656
 21
43.5992
 31
0.0
  0
LINE
  5
478
100
AcDbEntity
  8
1
  6
CONTINUOUS
 62
     3
100
AcDbLine
 10
38.2656
 20
43.8992
 30
0.0
 11
38.8656
 21
43.8992
 31
0.0
  0
LINE
  5
479
100
AcDbEntity
  8
1
  6
CONTINUOUS
 62
     3
100
AcDbLine
 10
38.2656
 20
44.4992
 30
0.0
 11
38.8656
 21
44.4992
 31
0.0
  0
LINE
  5
47A
100
AcDbEntity
  8
1
  6
CONTINUOUS
 62
     3
100
AcDbLine
 10
38.2656
 20
45.0992
 30
0.0
 11
38.8656
 21
45.0992
 31
0.0
  0
LINE
  5
47B
100
AcDbEntity
  8
1
  6
CONTINUOUS
 62
     3
100
AcDbLine
 10
30.1656
 20
51.0876
 30
0.0
 11
30.1656
 21
49.2876
 31
0.0
  0
LINE
  5
47C
100
AcDbEntity
  8
1
  6
CONTINUOUS
 62
     3
100
AcDbLine
 10
30.1656
 20
48.6876
 30
0.0
 11
30.1656
 21
46.8876
 31
0.0
  0
LINE
  5
47D
100
AcDbEntity
  8
1
  6
CONTINUOUS
 62
     3
100
AcDbLine
 10
-4.3344
 20
50.1876
 30
0.0
 11
30.1656
 21
50.1876
 31
0.0
  0
LINE
  5
47E
100
AcDbEntity
  8
1
  6
CONTINUOUS
 62
     3
100
AcDbLine
 10
46.9656
 20
50.1876
 30
0.0
 11
66.1656
 21
50.1876
 31
0.0
  0
LINE
  5
47F
100
AcDbEntity
  8
1
  6
CONTINUOUS
 62
     3
100
AcDbLine
 10
-4.3344
 20
47.7876
 30
0.0
 11
30.1656
 21
47.7876
 31
0.0
  0
ARC
  5
480
100
AcDbEntity
  8
1
  6
CONTINUOUS
 62
     3
100
AcDbCircle
 10
48.746047
 20
27.977586
 30
0.0
 40
22.607285
210
0.0
220
0.0
230
1.0
100
AcDbArc
 50
39.598644
 51
79.242903
  0
ARC
  5
481
100
AcDbEntity
  8
1
  6
CONTINUOUS
 62
     3
100
AcDbCircle
 10
47.546047
 20
25.577586
 30
0.0
 40
22.607285
210
0.0
220
0.0
230
1.0
100
AcDbArc
 50
39.598644
 51
79.242903
  0
LINE
  5
482
100
AcDbEntity
  8
1
  6
CONTINUOUS
 62
     3
100
AcDbLine
 10
46.9656
 20
47.7876
 30
0.0
 11
51.7656
 21
47.7876
 31
0.0
  0
LINE
  5
483
100
AcDbEntity
  8
1
  6
CONTINUOUS
 62
     3
100
AcDbLine
 10
59.6388
 20
47.7876
 30
0.0
 11
66.1656
 21
47.7876
 31
0.0
  0
LWPOLYLINE
  5
484
100
AcDbEntity
  8
1
  6
CONTINUOUS
 62
     3
100
AcDbPolyline
 90
       12
 70
     0
 10
66.1656
 20
50.1876
 10
66.1792
 20
49.9943
 10
66.0224
 20
49.6808
 10
65.9833
 20
49.4848
 10
66.1008
 20
49.2105
 10
66.1792
 20
48.9753
 10
66.14
 20
48.8185
 10
65.9441
 20
48.5442
 10
65.7874
 20
48.309
 10
65.9441
 20
48.1523
 10
66.0616
 20
47.9171
 10
66.1656
 20
47.7876
  0
LWPOLYLINE
  5
485
100
AcDbEntity
  8
1
  6
CONTINUOUS
 62
     3
100
AcDbPolyline
 90
       13
 70
     0
 10
66.1656
 20
42.3876
 10
65.6698
 20
42.3518
 10
65.8266
 20
42.1951
 10
65.7874
 20
42.0775
 10
65.5915
 20
41.8815
 10
65.5915
 20
41.6464
 10
65.5523
 20
41.6072
 10
65.3564
 20
41.3329
 10
65.278
 20
41.1369
 10
65.1605
 20
41.0193
 10
65.0821
 20
40.6666
 10
65.0821
 20
40.1963
 10
64.9656
 20
39.9876
  0
LINE
  5
486
100
AcDbEntity
  8
1
  6
CONTINUOUS
 62
     3
100
AcDbLine
 10
-4.3344
 20
47.7876
 30
0.0
 11
-2.7692
 21
50.1919
 31
0.0
  0
LINE
  5
487
100
AcDbEntity
  8
1
  6
CONTINUOUS
 62
     3
100
AcDbLine
 10
-0.7548
 20
47.7876
 30
0.0
 11
0.8076
 21
50.1876
 31
0.0
  0
LINE
  5
488
100
AcDbEntity
  8
1
  6
CONTINUOUS
 62
     3
100
AcDbLine
 10
2.8248
 20
47.7876
 30
0.0
 11
4.3872
 21
50.1876
 31
0.0
  0
LINE
  5
489
100
AcDbEntity
  8
1
  6
CONTINUOUS
 62
     3
100
AcDbLine
 10
6.4045
 20
47.7876
 30
0.0
 11
7.9669
 21
50.1876
 31
0.0
  0
LINE
  5
48A
100
AcDbEntity
  8
1
  6
CONTINUOUS
 62
     3
100
AcDbLine
 10
9.9842
 20
47.7876
 30
0.0
 11
11.5466
 21
50.1876
 31
0.0
  0
ARC
  5
48B
100
AcDbEntity
  8
1
  6
CONTINUOUS
 62
     3
100
AcDbCircle
 10
9.8808
 20
48.9876
 30
0.0
 40
7.3
210
0.0
220
0.0
230
1.0
100
AcDbArc
 50
138.887908
 51
170.538575
  0
ARC
  5
48C
100
AcDbEntity
  8
1
  6
CONTINUOUS
 62
     3
100
AcDbCircle
 10
9.8808
 20
48.9876
 30
0.0
 40
7.3
210
0.0
220
0.0
230
1.0
100
AcDbArc
 50
189.461425
 51
221.112089
  0
LINE
  5
48D
100
AcDbEntity
  8
1
  6
CONTINUOUS
 62
     3
100
AcDbLine
 10
13.5638
 20
47.7876
 30
0.0
 11
15.1262
 21
50.1876
 31
0.0
  0
LINE
  5
48E
100
AcDbEntity
  8
1
  6
CONTINUOUS
 62
     3
100
AcDbLine
 10
17.1435
 20
47.7876
 30
0.0
 11
18.7059
 21
50.1876
 31
0.0
  0
LINE
  5
48F
100
AcDbEntity
  8
1
  6
CONTINUOUS
 62
     3
100
AcDbLine
 10
20.7232
 20
47.7876
 30
0.0
 11
22.2856
 21
50.1876
 31
0.0
  0
LINE
  5
490
100
AcDbEntity
  8
1
  6
CONTINUOUS
 62
     3
100
AcDbLine
 10
24.3029
 20
47.7876
 30
0.0
 11
25.8653
 21
50.1876
 31
0.0
  0
LINE
  5
491
100
AcDbEntity
  8
1
  6
CONTINUOUS
 62
     3
100
AcDbLine
 10
27.8826
 20
47.7876
 30
0.0
 11
29.445
 21
50.1876
 31
0.0
  0
LINE
  5
492
100
AcDbEntity
  8
1
  6
CONTINUOUS
 62
     3
100
AcDbLine
 10
49.3606
 20
47.7876
 30
0.0
 11
50.923
 21
50.1876
 31
0.0
  0
LINE
  5
493
100
AcDbEntity
  8
1
  6
CONTINUOUS
 62
     3
100
AcDbLine
 10
52.7966
 20
47.5667
 30
0.0
 11
54.3089
 21
49.8898
 31
0.0
  0
LINE
  5
494
100
AcDbEntity
  8
1
  6
CONTINUOUS
 62
     3
100
AcDbLine
 10
57.258
 20
48.9212
 30
0.0
 11
58.0824
 21
50.1876
 31
0.0
  0
LINE
  5
495
100
AcDbEntity
  8
1
  6
CONTINUOUS
 62
     3
100
AcDbLine
 10
60.0996
 20
47.7876
 30
0.0
 11
61.662
 21
50.1876
 31
0.0
  0
LINE
  5
496
100
AcDbEntity
  8
1
  6
CONTINUOUS
 62
     3
100
AcDbLine
 10
63.6792
 20
47.7876
 30
0.0
 11
65.2416
 21
50.1876
 31
0.0
  0
LINE
  5
497
100
AcDbEntity
  8
1
  6
CONTINUOUS
 62
     3
100
AcDbLine
 10
56.3419
 20
46.4036
 30
0.0
 11
59.8608
 21
47.6639
 31
0.0
  0
LINE
  5
498
100
AcDbEntity
  8
1
  6
CONTINUOUS
 62
     3
100
AcDbLine
 10
59.9193
 20
44.4983
 30
0.0
 11
62.9344
 21
45.5781
 31
0.0
  0
LINE
  5
499
100
AcDbEntity
  8
1
  6
CONTINUOUS
 62
     3
100
AcDbLine
 10
62.7367
 20
42.3208
 30
0.0
 11
65.394
 21
43.2725
 31
0.0
  0
LINE
  5
49A
100
AcDbEntity
  8
1
  6
CONTINUOUS
 62
     7
100
AcDbLine
 10
-40.5252
 20
108.3306
 30
0.0
 11
-21.0094
 21
127.8464
 31
0.0
  0
INSERT
  5
49B
100
AcDbEntity
  8
1
  6
CONTINUOUS
 62
     1
100
AcDbBlockReference
  2
LDR
 10
-21.0094
 20
127.8464
 30
0.0
 41
239.999999
 42
239.999999
 50
45.0
210
0.0
220
0.0
230
1.0
  0
INSERT
  5
49C
100
AcDbEntity
  8
1
  6
CONTINUOUS
 62
     1
100
AcDbBlockReference
  2
LDR
 10
-21.0094
 20
127.8464
 30
0.0
 41
239.999999
 42
239.999999
 50
45.0
210
0.0
220
0.0
230
1.0
  0
INSERT
  5
49D
100
AcDbEntity
  8
1
  6
CONTINUOUS
 62
     1
100
AcDbBlockReference
  2
LDR
 10
-40.5252
 20
108.3306
 30
0.0
 41
239.999999
 42
239.999999
 50
225.0
210
0.0
220
0.0
230
1.0
  0
LINE
  5
49E
100
AcDbEntity
  8
1
  6
CONTINUOUS
 62
     7
100
AcDbLine
 10
-40.5673
 20
156.5091
 30
0.0
 11
-36.9306
 21
183.8664
 31
0.0
  0
LINE
  5
49F
100
AcDbEntity
  8
1
  6
CONTINUOUS
 62
     7
100
AcDbLine
 10
-36.9306
 20
183.8664
 30
0.0
 11
-33.183
 21
183.8986
 31
0.0
  0
INSERT
  5
4A0
100
AcDbEntity
  8
1
  6
CONTINUOUS
 62
     1
100
AcDbBlockReference
  2
LDR
 10
-40.5673
 20
156.5091
 30
0.0
 41
240.000001
 42
240.000001
 50
262.42787
210
0.0
220
0.0
230
1.0
  0
LINE
  5
4A1
100
AcDbEntity
  8
1
  6
CONTINUOUS
 62
     7
100
AcDbLine
 10
-18.0201
 20
148.9585
 30
0.0
 11
-11.971
 21
141.3514
 31
0.0
  0
LINE
  5
4A2
100
AcDbEntity
  8
1
  6
CONTINUOUS
 62
     7
100
AcDbLine
 10
-11.971
 20
141.3514
 30
0.0
 11
-10.6229
 21
141.386
 31
0.0
  0
INSERT
  5
4A3
100
AcDbEntity
  8
1
  6
CONTINUOUS
 62
     1
100
AcDbBlockReference
  2
LDR
 10
-18.0201
 20
148.9585
 30
0.0
 41
239.999999
 42
239.999999
 50
128.491416
210
0.0
220
0.0
230
1.0
  0
LINE
  5
4A4
100
AcDbEntity
  8
1
  6
CONTINUOUS
 62
     7
100
AcDbLine
 10
29.8777
 20
51.2958
 30
0.0
 11
26.4182
 21
63.3757
 31
0.0
  0
LINE
  5
4A5
100
AcDbEntity
  8
1
  6
CONTINUOUS
 62
     7
100
AcDbLine
 10
26.4182
 20
63.3757
 30
0.0
 11
30.0995
 21
63.3757
 31
0.0
  0
LINE
  5
4A6
100
AcDbEntity
  8
1
  6
CONTINUOUS
 62
     7
100
AcDbLine
 10
15.3213
 20
47.5739
 30
0.0
 11
19.7601
 21
32.2945
 31
0.0
  0
LINE
  5
4A7
100
AcDbEntity
  8
1
  6
CONTINUOUS
 62
     7
100
AcDbLine
 10
19.7601
 20
32.2945
 30
0.0
 11
24.0135
 21
32.2945
 31
0.0
  0
INSERT
  5
4A8
100
AcDbEntity
  8
1
  6
CONTINUOUS
 62
     1
100
AcDbBlockReference
  2
LDR
 10
29.8777
 20
51.2958
 30
0.0
 41
239.999999
 42
239.999999
 50
285.980909
210
0.0
220
0.0
230
1.0
  0
INSERT
  5
4A9
100
AcDbEntity
  8
1
  6
CONTINUOUS
 62
     1
100
AcDbBlockReference
  2
LDR
 10
29.8777
 20
51.2958
 30
0.0
 41
239.999999
 42
239.999999
 50
285.980909
210
0.0
220
0.0
230
1.0
  0
INSERT
  5
4AA
100
AcDbEntity
  8
1
  6
CONTINUOUS
 62
     1
100
AcDbBlockReference
  2
LDR
 10
15.3213
 20
47.5739
 30
0.0
 41
239.999999
 42
239.999999
 50
106.199045
210
0.0
220
0.0
230
1.0
  0
TEXT
  5
4AB
100
AcDbEntity
  8
1
  6
CONTINUOUS
 62
     7
100
AcDbText
 10
-9.0354
 20
140.4552
 30
0.0
 40
2.4
  1
MESSENGER CABLE
  7
MONOTXT
 72
     4
 11
8.2654
 21
141.6552
 31
0.0
210
0.0
220
0.0
230
1.0
100
AcDbText
  0
TEXT
  5
4AC
100
AcDbEntity
  8
1
  6
CONTINUOUS
 62
     7
100
AcDbText
 10
-51.6827
 20
6.252
 30
0.0
 40
2.4
  1
DEAD END CONNECTION
  7
MONOTXT
 72
     4
 11
-30.13
 21
7.452
 31
0.0
210
0.0
220
0.0
230
1.0
100
AcDbText
  0
TEXT
  5
4AD
100
AcDbEntity
  8
1
  6
CONTINUOUS
 62
     4
100
AcDbText
 10
-89.0504
 20
-5.8549
 30
0.0
 40
4.8
  1
MESSENGER CABLE CONNECTIONS
  7
MONOTXT
 72
     4
 11
-27.0095
 21
-3.4549
 31
0.0
210
0.0
220
0.0
230
1.0
100
AcDbText
  0
LINE
  5
4AE
100
AcDbEntity
  8
1
  6
CONTINUOUS
 62
     4
100
AcDbLine
 10
-92.2826
 20
-8.1201
 30
0.0
 11
37.2529
 21
-8.1201
 31
0.0
  0
TEXT
  5
4AF
100
AcDbEntity
  8
1
  6
CONTINUOUS
 62
     7
100
AcDbText
 10
-38.7262
 20
111.8668
 30
0.0
 40
2.4
  1
POLE
 50
45.0
  7
MONOTXT
 72
     4
 11
-36.521441
 21
115.768615
 31
0.0
210
0.0
220
0.0
230
1.0
100
AcDbText
  0
TEXT
  5
4B0
100
AcDbEntity
  8
1
  6
CONTINUOUS
 62
     7
100
AcDbText
 10
-34.3232
 20
109.4815
 30
0.0
 40
2.4
  1
DIA.
 50
45.0
  7
MONOTXT
 72
     4
 11
-33.133917
 21
112.367839
 31
0.0
210
0.0
220
0.0
230
1.0
100
AcDbText
  0
TEXT
  5
4B1
100
AcDbEntity
  8
1
  6
CONTINUOUS
 62
     7
100
AcDbText
 10
-32.017
 20
182.8073
 30
0.0
 40
2.4
  1
SIGNAL CONTROL
  7
MONOTXT
 72
     4
 11
-16.5872
 21
184.0073
 31
0.0
210
0.0
220
0.0
230
1.0
100
AcDbText
  0
TEXT
  5
4B2
100
AcDbEntity
  8
1
  6
CONTINUOUS
 62
     7
100
AcDbText
 10
-21.9823
 20
178.0073
 30
0.0
 40
2.4
  1
CABLE
  7
MONOTXT
 72
     4
 11
-16.5871
 21
179.2073
 31
0.0
210
0.0
220
0.0
230
1.0
100
AcDbText
  0
TEXT
  5
4B3
100
AcDbEntity
  8
1
  6
CONTINUOUS
 62
     7
100
AcDbText
 10
30.929
 20
62.3531
 30
0.0
 40
2.4
  1
THREE BOLT
  7
MONOTXT
 72
     4
 11
42.277
 21
63.5531
 31
0.0
210
0.0
220
0.0
230
1.0
100
AcDbText
  0
TEXT
  5
4B4
100
AcDbEntity
  8
1
  6
CONTINUOUS
 62
     7
100
AcDbText
 10
29.7952
 20
57.5531
 30
0.0
 40
2.4
  1
CABLE CLAMP
  7
MONOTXT
 72
     4
 11
42.277
 21
58.7531
 31
0.0
210
0.0
220
0.0
230
1.0
100
AcDbText
  0
TEXT
  5
4B5
100
AcDbEntity
  8
1
  6
CONTINUOUS
 62
     7
100
AcDbText
 10
25.1282
 20
30.9504
 30
0.0
 40
2.4
  1
MESSENGER
  7
MONOTXT
 72
     4
 11
35.4557
 21
32.1504
 31
0.0
210
0.0
220
0.0
230
1.0
100
AcDbText
  0
TEXT
  5
4B6
100
AcDbEntity
  8
1
  6
CONTINUOUS
 62
     7
100
AcDbText
 10
30.0605
 20
26.1504
 30
0.0
 40
2.4
  1
CABLE
  7
MONOTXT
 72
     4
 11
35.4557
 21
27.3504
 31
0.0
210
0.0
220
0.0
230
1.0
100
AcDbText
  0
TEXT
  5
4B7
100
AcDbEntity
  8
1
  6
CONTINUOUS
 62
     7
100
AcDbText
 10
-54.3197
 20
92.2856
 30
0.0
 40
2.4
  1
ANGLE CABLE CONNECTION
  7
MONOTXT
 72
     4
 11
-29.4788
 21
93.4856
 31
0.0
210
0.0
220
0.0
230
1.0
100
AcDbText
  0
TEXT
  5
4B8
100
AcDbEntity
  8
1
  6
CONTINUOUS
 62
     7
100
AcDbText
 10
-162.615
 20
356.5157
 30
0.0
 40
2.4
  1
SIGNAL CONTROL CABLE
  7
MONOTXT
 72
     4
 11
-140.3253
 21
357.7157
 31
0.0
210
0.0
220
0.0
230
1.0
100
AcDbText
  0
LINE
  5
4B9
100
AcDbEntity
  8
1
  6
CONTINUOUS
 62
     7
100
AcDbLine
 10
183.919
 20
422.8022
 30
0.0
 11
223.6936
 21
422.8022
 31
0.0
  0
TEXT
  5
4BA
100
AcDbEntity
  8
1
  6
CONTINUOUS
 62
     7
100
AcDbText
 10
216.3248
 20
102.5714
 30
0.0
 40
2.4
  1
ADDED THRU - BOLT NOTE ON POLE CLAMP
  7
MONOTXT
 72
     4
 11
258.268
 21
103.7714
 31
0.0
210
0.0
220
0.0
230
1.0
100
AcDbText
  0
LINE
  5
4BB
100
AcDbEntity
  8
1
  6
CONTINUOUS
 62
     7
100
AcDbLine
 10
212.7453
 20
106.071
 30
0.0
 11
215.1453
 21
101.9141
 31
0.0
  0
LINE
  5
4BC
100
AcDbEntity
  8
1
  6
CONTINUOUS
 62
     7
100
AcDbLine
 10
210.2391
 20
107.331
 30
0.0
 11
215.0391
 21
107.331
 31
0.0
  0
LINE
  5
4BD
100
AcDbEntity
  8
1
  6
CONTINUOUS
 62
     7
100
AcDbLine
 10
212.6391
 20
111.4879
 30
0.0
 11
210.2391
 21
107.331
 31
0.0
  0
LINE
  5
4BE
100
AcDbEntity
  8
1
  6
CONTINUOUS
 62
     7
100
AcDbLine
 10
212.6391
 20
111.4879
 30
0.0
 11
215.0391
 21
107.331
 31
0.0
  0
LINE
  5
4BF
100
AcDbEntity
  8
1
  6
CONTINUOUS
 62
     7
100
AcDbLine
 10
210.3453
 20
101.9141
 30
0.0
 11
215.1453
 21
101.9141
 31
0.0
  0
LINE
  5
4C0
100
AcDbEntity
  8
1
  6
CONTINUOUS
 62
     7
100
AcDbLine
 10
212.7453
 20
106.071
 30
0.0
 11
210.3453
 21
101.9141
 31
0.0
  0
LINE
  5
4C1
100
AcDbEntity
  8
1
  6
CONTINUOUS
 62
     7
100
AcDbLine
 10
210.133
 20
96.497
 30
0.0
 11
214.933
 21
96.497
 31
0.0
  0
LINE
  5
4C2
100
AcDbEntity
  8
1
  6
CONTINUOUS
 62
     7
100
AcDbLine
 10
212.533
 20
100.6539
 30
0.0
 11
210.133
 21
96.497
 31
0.0
  0
LINE
  5
4C3
100
AcDbEntity
  8
1
  6
CONTINUOUS
 62
     7
100
AcDbLine
 10
212.533
 20
100.6539
 30
0.0
 11
214.933
 21
96.497
 31
0.0
  0
TEXT
  5
4C4
100
AcDbEntity
  8
1
  6
CONTINUOUS
 62
     7
100
AcDbText
 10
211.7427
 20
96.7012
 30
0.0
 40
2.3973
  1
3
  7
MONOTXT
210
0.0
220
0.0
230
1.0
100
AcDbText
  0
TEXT
  5
4C5
100
AcDbEntity
  8
1
  6
CONTINUOUS
 62
     7
100
AcDbText
 10
211.8488
 20
102.2243
 30
0.0
 40
2.3973
  1
2
  7
MONOTXT
210
0.0
220
0.0
230
1.0
100
AcDbText
  0
TEXT
  5
4C6
100
AcDbEntity
  8
1
  6
CONTINUOUS
 62
     7
100
AcDbText
 10
212.1674
 20
107.8537
 30
0.0
 40
2.3973
  1
1
  7
MONOTXT
210
0.0
220
0.0
230
1.0
100
AcDbText
  0
TEXT
  5
4C7
100
AcDbEntity
  8
1
  6
CONTINUOUS
 62
     7
100
AcDbText
 10
216.4865
 20
108.2621
 30
0.0
 40
2.4
  1
REVISED FIGURE "8" vs. MESSENGER CABLE ADDED J-HOOK FOR FIGURE "8"
  7
MONOTXT
 72
     4
 11
288.8361
 21
109.4621
 31
0.0
210
0.0
220
0.0
230
1.0
100
AcDbText
  0
TEXT
  5
4C8
100
AcDbEntity
  8
1
  6
CONTINUOUS
 62
     7
100
AcDbText
 10
216.3181
 20
97.2364
 30
0.0
 40
2.4
  1
DELETED FIGURE "8"
  7
MONOTXT
 72
     4
 11
235.6221
 21
98.4364
 31
0.0
210
0.0
220
0.0
230
1.0
100
AcDbText
  0
TEXT
  5
4C9
100
AcDbEntity
  8
1
  6
CONTINUOUS
 62
     7
100
AcDbText
 10
225.7606
 20
-4.2661
 30
0.0
 40
2.3973
  1
10/5/77
  7
MONOTXT
210
0.0
220
0.0
230
1.0
100
AcDbText
  0
LINE
  5
4CA
100
AcDbEntity
  8
1
  6
CONTINUOUS
 62
     7
100
AcDbLine
 10
214.5457
 20
1.0203
 30
0.0
 11
219.3457
 21
1.0203
 31
0.0
  0
LINE
  5
4CB
100
AcDbEntity
  8
1
  6
CONTINUOUS
 62
     7
100
AcDbLine
 10
216.9457
 20
5.1772
 30
0.0
 11
214.5457
 21
1.0203
 31
0.0
  0
LINE
  5
4CC
100
AcDbEntity
  8
1
  6
CONTINUOUS
 62
     7
100
AcDbLine
 10
216.9457
 20
5.1772
 30
0.0
 11
219.3457
 21
1.0203
 31
0.0
  0
LINE
  5
4CD
100
AcDbEntity
  8
1
  6
CONTINUOUS
 62
     7
100
AcDbLine
 10
214.9132
 20
-4.7887
 30
0.0
 11
219.7132
 21
-4.7887
 31
0.0
  0
LINE
  5
4CE
100
AcDbEntity
  8
1
  6
CONTINUOUS
 62
     7
100
AcDbLine
 10
217.3132
 20
-0.6318
 30
0.0
 11
214.9132
 21
-4.7887
 31
0.0
  0
LINE
  5
4CF
100
AcDbEntity
  8
1
  6
CONTINUOUS
 62
     7
100
AcDbLine
 10
217.3132
 20
-0.6318
 30
0.0
 11
219.7132
 21
-4.7887
 31
0.0
  0
LINE
  5
4D0
100
AcDbEntity
  8
1
  6
CONTINUOUS
 62
     7
100
AcDbLine
 10
215.0929
 20
-10.5979
 30
0.0
 11
219.8929
 21
-10.5979
 31
0.0
  0
LINE
  5
4D1
100
AcDbEntity
  8
1
  6
CONTINUOUS
 62
     7
100
AcDbLine
 10
217.4929
 20
-6.441
 30
0.0
 11
215.0929
 21
-10.5979
 31
0.0
  0
LINE
  5
4D2
100
AcDbEntity
  8
1
  6
CONTINUOUS
 62
     7
100
AcDbLine
 10
217.4929
 20
-6.441
 30
0.0
 11
219.8929
 21
-10.5979
 31
0.0
  0
TEXT
  5
4D3
100
AcDbEntity
  8
1
  6
CONTINUOUS
 62
     7
100
AcDbText
 10
226.1037
 20
7.1722
 30
0.0
 40
2.3973
  1
06/18/76
  7
MONOTXT
210
0.0
220
0.0
230
1.0
100
AcDbText
  0
TEXT
  5
4D4
100
AcDbEntity
  8
1
  6
CONTINUOUS
 62
     7
100
AcDbText
 10
225.6055
 20
1.6493
 30
0.0
 40
2.3973
  1
03/23/77
  7
MONOTXT
210
0.0
220
0.0
230
1.0
100
AcDbText
  0
TEXT
  5
4D5
100
AcDbEntity
  8
1
  6
CONTINUOUS
 62
     7
100
AcDbText
 10
216.7026
 20
-10.3937
 30
0.0
 40
2.3973
  1
3
  7
MONOTXT
210
0.0
220
0.0
230
1.0
100
AcDbText
  0
TEXT
  5
4D6
100
AcDbEntity
  8
1
  6
CONTINUOUS
 62
     7
100
AcDbText
 10
216.4167
 20
-4.4785
 30
0.0
 40
2.3973
  1
2
  7
MONOTXT
210
0.0
220
0.0
230
1.0
100
AcDbText
  0
TEXT
  5
4D7
100
AcDbEntity
  8
1
  6
CONTINUOUS
 62
     7
100
AcDbText
 10
216.474
 20
1.543
 30
0.0
 40
2.3973
  1
1
  7
MONOTXT
210
0.0
220
0.0
230
1.0
100
AcDbText
  0
TEXT
  5
4D9
100
AcDbEntity
  8
1
  6
CONTINUOUS
 62
     7
100
AcDbText
 10
276.9207
 20
40.0988
 30
0.0
 40
8.3912
  1
INTERCONNECT
  7
TXT
 72
     1
 11
319.9001
 21
48.49
 31
0.0
210
0.0
220
0.0
230
1.0
100
AcDbText
 73
     3
  0
LINE
  5
4DA
100
AcDbEntity
  8
1
  6
CONTINUOUS
 62
     7
100
AcDbLine
 10
209.9898
 20
90.4805
 30
0.0
 11
214.7898
 21
90.4805
 31
0.0
  0
LINE
  5
4DB
100
AcDbEntity
  8
1
  6
CONTINUOUS
 62
     7
100
AcDbLine
 10
212.3898
 20
94.6374
 30
0.0
 11
209.9898
 21
90.4805
 31
0.0
  0
LINE
  5
4DC
100
AcDbEntity
  8
1
  6
CONTINUOUS
 62
     7
100
AcDbLine
 10
212.3898
 20
94.6374
 30
0.0
 11
214.7898
 21
90.4805
 31
0.0
  0
TEXT
  5
4DD
100
AcDbEntity
  8
1
  6
CONTINUOUS
 62
     7
100
AcDbText
 10
211.5995
 20
90.6847
 30
0.0
 40
2.3973
  1
4
  7
MONOTXT
210
0.0
220
0.0
230
1.0
100
AcDbText
  0
TEXT
  5
4DE
100
AcDbEntity
  8
1
  6
CONTINUOUS
 62
     7
100
AcDbText
 10
215.9383
 20
90.9334
 30
0.0
 40
2.4
  1
DELETED FIGURE '8' CABLE AND DETAILS
  7
MONOTXT
 72
     4
 11
253.8185
 21
92.1334
 31
0.0
210
0.0
220
0.0
230
1.0
100
AcDbText
  0
LINE
  5
4DF
100
AcDbEntity
  8
1
  6
CONTINUOUS
 62
     7
100
AcDbLine
 10
217.7004
 20
-11.9661
 30
0.0
 11
220.1004
 21
-16.123
 31
0.0
  0
LINE
  5
4E0
100
AcDbEntity
  8
1
  6
CONTINUOUS
 62
     7
100
AcDbLine
 10
215.3004
 20
-16.123
 30
0.0
 11
220.1004
 21
-16.123
 31
0.0
  0
LINE
  5
4E1
100
AcDbEntity
  8
1
  6
CONTINUOUS
 62
     7
100
AcDbLine
 10
217.7004
 20
-11.9661
 30
0.0
 11
215.3004
 21
-16.123
 31
0.0
  0
TEXT
  5
4E2
100
AcDbEntity
  8
1
  6
CONTINUOUS
 62
     7
100
AcDbText
 10
216.9101
 20
-15.9188
 30
0.0
 40
2.3973
  1
4
  7
MONOTXT
210
0.0
220
0.0
230
1.0
100
AcDbText
  0
LINE
  5
4E3
100
AcDbEntity
  8
1
  6
CONTINUOUS
 62
     7
100
AcDbLine
 10
209.9897
 20
84.8402
 30
0.0
 11
214.7897
 21
84.8402
 31
0.0
  0
LINE
  5
4E4
100
AcDbEntity
  8
1
  6
CONTINUOUS
 62
     7
100
AcDbLine
 10
212.3897
 20
88.9971
 30
0.0
 11
209.9897
 21
84.8402
 31
0.0
  0
LINE
  5
4E5
100
AcDbEntity
  8
1
  6
CONTINUOUS
 62
     7
100
AcDbLine
 10
212.3897
 20
88.9971
 30
0.0
 11
214.7897
 21
84.8402
 31
0.0
  0
TEXT
  5
4E6
100
AcDbEntity
  8
1
  6
CONTINUOUS
 62
     7
100
AcDbText
 10
211.5994
 20
85.0444
 30
0.0
 40
2.3973
  1
5
  7
MONOTXT
210
0.0
220
0.0
230
1.0
100
AcDbText
  0
TEXT
  5
4E7
100
AcDbEntity
  8
1
  6
CONTINUOUS
 62
     7
100
AcDbText
 10
215.8589
 20
85.5112
 30
0.0
 40
2.4
  1
ADDED METRIC
  7
MONOTXT
 72
     4
 11
228.9643
 21
86.7112
 31
0.0
210
0.0
220
0.0
230
1.0
100
AcDbText
  0
LINE
  5
4E8
100
AcDbEntity
  8
1
  6
CONTINUOUS
 62
     7
100
AcDbLine
 10
215.5283
 20
-21.8938
 30
0.0
 11
220.3283
 21
-21.8938
 31
0.0
  0
LINE
  5
4E9
100
AcDbEntity
  8
1
  6
CONTINUOUS
 62
     7
100
AcDbLine
 10
217.9283
 20
-17.7369
 30
0.0
 11
220.3283
 21
-21.8938
 31
0.0
  0
LINE
  5
4EA
100
AcDbEntity
  8
1
  6
CONTINUOUS
 62
     7
100
AcDbLine
 10
217.9283
 20
-17.7369
 30
0.0
 11
215.5283
 21
-21.8938
 31
0.0
  0
TEXT
  5
4EB
100
AcDbEntity
  8
1
  6
CONTINUOUS
 62
     7
100
AcDbText
 10
217.138
 20
-21.6896
 30
0.0
 40
2.3973
  1
5
  7
MONOTXT
210
0.0
220
0.0
230
1.0
100
AcDbText
  0
TEXT
  5
4EC
100
AcDbEntity
  8
1
  6
CONTINUOUS
 62
     7
100
AcDbText
 10
226.4472
 20
-15.4076
 30
0.0
 40
2.3973
  1
01/20/93
  7
MONOTXT
210
0.0
220
0.0
230
1.0
100
AcDbText
  0
TEXT
  5
4ED
100
AcDbEntity
  8
1
  6
CONTINUOUS
 62
     7
100
AcDbText
 10
226.6752
 20
-21.0813
 30
0.0
 40
2.3973
  1
04/29/94
  7
MONOTXT
210
0.0
220
0.0
230
1.0
100
AcDbText
  0
TEXT
  5
4EE
100
AcDbEntity
  8
1
  6
CONTINUOUS
 62
     7
100
AcDbText
 10
226.1526
 20
-9.9315
 30
0.0
 40
2.3973
  1
05/5/84
  7
MONOTXT
210
0.0
220
0.0
230
1.0
100
AcDbText
  0
TEXT
  5
4EF
100
AcDbEntity
  8
1
  6
CONTINUOUS
 62
     7
100
AcDbText
 10
226.3733
 20
13.3734
 30
0.0
 40
2.3973
  1
08/0/74
  7
MONOTXT
210
0.0
220
0.0
230
1.0
100
AcDbText
  0
TEXT
  5
4F0
100
AcDbEntity
  8
1
  6
CONTINUOUS
 62
     7
100
AcDbText
 10
185.3711
 20
424.4166
 30
0.0
 40
3.0
  1
GENERAL NOTES
  7
MONOTXT
 11
185.3711
 21
427.4166
 31
0.0
210
0.0
220
0.0
230
1.0
100
AcDbText
 73
     3
  0
TEXT
  5
4F1
100
AcDbEntity
  8
1
  6
CONTINUOUS
 62
     7
100
AcDbText
 10
185.3711
 20
419.0166
 30
0.0
 40
3.0
  1
 
  7
MONOTXT
 11
185.3711
 21
422.0166
 31
0.0
210
0.0
220
0.0
230
1.0
100
AcDbText
 73
     3
  0
TEXT
  5
4F2
100
AcDbEntity
  8
1
  6
CONTINUOUS
 62
     7
100
AcDbText
 10
185.3711
 20
413.6166
 30
0.0
 40
3.0
  1
THE FOLLOWING EXTRACT FROM THE NATIONAL ELECTRICAL CODE
  7
MONOTXT
 11
185.3711
 21
416.6166
 31
0.0
210
0.0
220
0.0
230
1.0
100
AcDbText
 73
     3
  0
TEXT
  5
4F3
100
AcDbEntity
  8
1
  6
CONTINUOUS
 62
     7
100
AcDbText
 10
185.3711
 20
408.2166
 30
0.0
 40
3.0
  1
SHALL BE USED AS A GENERAL GUIDELINE. (LOCAL CONDITIONS MAY
  7
MONOTXT
 11
185.3711
 21
411.2166
 31
0.0
210
0.0
220
0.0
230
1.0
100
AcDbText
 73
     3
  0
TEXT
  5
4F4
100
AcDbEntity
  8
1
  6
CONTINUOUS
 62
     7
100
AcDbText
 10
185.3711
 20
402.8166
 30
0.0
 40
3.0
  1
DICTATE SOME VARIANCE WITH THIS SPACING AT THE DISCRETION
  7
MONOTXT
 11
185.3711
 21
405.8166
 31
0.0
210
0.0
220
0.0
230
1.0
100
AcDbText
 73
     3
  0
TEXT
  5
4F5
100
AcDbEntity
  8
1
  6
CONTINUOUS
 62
     7
100
AcDbText
 10
185.3711
 20
397.4166
 30
0.0
 40
3.0
  1
OF THE PROJECT ENGINEER).
  7
MONOTXT
 11
185.3711
 21
400.4166
 31
0.0
210
0.0
220
0.0
230
1.0
100
AcDbText
 73
     3
  0
TEXT
  5
4F6
100
AcDbEntity
  8
1
  6
CONTINUOUS
 62
     7
100
AcDbText
 10
185.3711
 20
392.0166
 30
0.0
 40
3.0
  1
 
  7
MONOTXT
 11
185.3711
 21
395.0166
 31
0.0
210
0.0
220
0.0
230
1.0
100
AcDbText
 73
     3
  0
TEXT
  5
4F7
100
AcDbEntity
  8
1
  6
CONTINUOUS
 62
     7
100
AcDbText
 10
185.3711
 20
386.6166
 30
0.0
 40
3.0
  1
SIGNAL CONDUCTOR CABLE SUPPORT ON POLES SHALL HAVE A
  7
MONOTXT
 11
185.3711
 21
389.6166
 31
0.0
210
0.0
220
0.0
230
1.0
100
AcDbText
 73
     3
  0
TEXT
  5
4F8
100
AcDbEntity
  8
1
  6
CONTINUOUS
 62
     7
100
AcDbText
 10
185.3711
 20
381.2166
 30
0.0
 40
3.0
  1
SEPARATION OF NO LESS THAN 300mm EXCEPT WHEN PLACED
  7
MONOTXT
 11
185.3711
 21
384.2166
 31
0.0
210
0.0
220
0.0
230
1.0
100
AcDbText
 73
     3
  0
TEXT
  5
4F9
100
AcDbEntity
  8
1
  6
CONTINUOUS
 62
     7
100
AcDbText
 10
185.3711
 20
375.8166
 30
0.0
 40
3.0
  1
ON RACKS OR BRACKETS.
  7
MONOTXT
 11
185.3711
 21
378.8166
 31
0.0
210
0.0
220
0.0
230
1.0
100
AcDbText
 73
     3
  0
TEXT
  5
4FA
100
AcDbEntity
  8
1
  6
CONTINUOUS
 62
     7
100
AcDbText
 10
185.3711
 20
370.4166
 30
0.0
 40
3.0
  1
 
  7
MONOTXT
 11
185.3711
 21
373.4166
 31
0.0
210
0.0
220
0.0
230
1.0
100
AcDbText
 73
     3
  0
TEXT
  5
4FB
100
AcDbEntity
  8
1
  6
CONTINUOUS
 62
     7
100
AcDbText
 10
185.3711
 20
365.0166
 30
0.0
 40
3.0
  1
SIGNAL CONDUCTOR CABLE SUPPORTED ON POLES SHALL PROVIDE
  7
MONOTXT
 11
185.3711
 21
368.0166
 31
0.0
210
0.0
220
0.0
230
1.0
100
AcDbText
 73
     3
  0
TEXT
  5
4FC
100
AcDbEntity
  8
1
  6
CONTINUOUS
 62
     7
100
AcDbText
 10
185.3711
 20
359.6166
 30
0.0
 40
3.0
  1
A HORIZONTAL CLIMBING SPACE NOT LESS THAN FOLLOWING:
  7
MONOTXT
 11
185.3711
 21
362.6166
 31
0.0
210
0.0
220
0.0
230
1.0
100
AcDbText
 73
     3
  0
TEXT
  5
4FD
100
AcDbEntity
  8
1
  6
CONTINUOUS
 62
     7
100
AcDbText
 10
185.3711
 20
354.2166
 30
0.0
 40
3.0
  1
 
  7
MONOTXT
 11
185.3711
 21
357.2166
 31
0.0
210
0.0
220
0.0
230
1.0
100
AcDbText
 73
     3
  0
TEXT
  5
4FE
100
AcDbEntity
  8
1
  6
CONTINUOUS
 62
     7
100
AcDbText
 10
185.3711
 20
348.8166
 30
0.0
 40
3.0
  1
   A.   SIGNAL CONDUCTOR CABLE LOCATED BELOW EXISTING
  7
MONOTXT
 11
185.3711
 21
351.8166
 31
0.0
210
0.0
220
0.0
230
1.0
100
AcDbText
 73
     3
  0
TEXT
  5
4FF
100
AcDbEntity
  8
1
  6
CONTINUOUS
 62
     7
100
AcDbText
 10
185.3711
 20
343.4166
 30
0.0
 40
3.0
  1
      POWER LINES -- 305mm FOR SECONDARY OR AS
  7
MONOTXT
 11
185.3711
 21
346.4166
 31
0.0
210
0.0
220
0.0
230
1.0
100
AcDbText
 73
     3
  0
TEXT
  5
500
100
AcDbEntity
  8
1
  6
CONTINUOUS
 62
     7
100
AcDbText
 10
185.3711
 20
338.0166
 30
0.0
 40
3.0
  1
      OTHERWISE DIRECTED ON THE PLANS OR BY THE LOCAL
  7
MONOTXT
 11
185.3711
 21
341.0166
 31
0.0
210
0.0
220
0.0
230
1.0
100
AcDbText
 73
     3
  0
TEXT
  5
501
100
AcDbEntity
  8
1
  6
CONTINUOUS
 62
     7
100
AcDbText
 10
185.3711
 20
332.6166
 30
0.0
 40
3.0
  1
      POWER COMPANY.
  7
MONOTXT
 11
185.3711
 21
335.6166
 31
0.0
210
0.0
220
0.0
230
1.0
100
AcDbText
 73
     3
  0
TEXT
  5
502
100
AcDbEntity
  8
1
  6
CONTINUOUS
 62
     7
100
AcDbText
 10
185.3711
 20
327.2166
 30
0.0
 40
3.0
  1
 
  7
MONOTXT
 11
185.3711
 21
330.2166
 31
0.0
210
0.0
220
0.0
230
1.0
100
AcDbText
 73
     3
  0
TEXT
  5
503
100
AcDbEntity
  8
1
  6
CONTINUOUS
 62
     7
100
AcDbText
 10
185.3711
 20
321.8166
 30
0.0
 40
3.0
  1
   B.   SIGNAL CONDUCTOR CABLE LOCATED ABOVE EXISTING
  7
MONOTXT
 11
185.3711
 21
324.8166
 31
0.0
210
0.0
220
0.0
230
1.0
100
AcDbText
 73
     3
  0
TEXT
  5
504
100
AcDbEntity
  8
1
  6
CONTINUOUS
 62
     7
100
AcDbText
 10
185.3711
 20
316.4166
 30
0.0
 40
3.0
  1
      COMMUNICATION LINES -- 765mm.
  7
MONOTXT
 11
185.3711
 21
319.4166
 31
0.0
210
0.0
220
0.0
230
1.0
100
AcDbText
 73
     3
  0
TEXT
  5
505
100
AcDbEntity
  8
1
  6
CONTINUOUS
 62
     7
100
AcDbText
 10
185.3711
 20
311.0166
 30
0.0
 40
3.0
  1
 
  7
MONOTXT
 11
185.3711
 21
314.0166
 31
0.0
210
0.0
220
0.0
230
1.0
100
AcDbText
 73
     3
  0
TEXT
  5
506
100
AcDbEntity
  8
1
  6
CONTINUOUS
 62
     7
100
AcDbText
 10
185.3711
 20
305.6166
 30
0.0
 40
3.0
  1
   C.   SIGNAL CONDUCTOR CABLE LOCATED BELOW EXISTING
  7
MONOTXT
 11
185.3711
 21
308.6166
 31
0.0
210
0.0
220
0.0
230
1.0
100
AcDbText
 73
     3
  0
TEXT
  5
507
100
AcDbEntity
  8
1
  6
CONTINUOUS
 62
     7
100
AcDbText
 10
185.3711
 20
300.2166
 30
0.0
 40
3.0
  1
      COMMUNICATION LINES -- NOT ALLOWED UNLESS OTHER-
  7
MONOTXT
 11
185.3711
 21
303.2166
 31
0.0
210
0.0
220
0.0
230
1.0
100
AcDbText
 73
     3
  0
TEXT
  5
508
100
AcDbEntity
  8
1
  6
CONTINUOUS
 62
     7
100
AcDbText
 10
185.3711
 20
294.8166
 30
0.0
 40
3.0
  1
      WISE DIRECTED ON THE PLANS OR BY THE OWNER.
  7
MONOTXT
 11
185.3711
 21
297.8166
 31
0.0
210
0.0
220
0.0
230
1.0
100
AcDbText
 73
     3
  0
TEXT
  5
509
100
AcDbEntity
  8
1
  6
CONTINUOUS
 62
     7
100
AcDbText
 10
-157.5693
 20
388.0645
 30
0.0
 40
2.4
  1
15.88mm DIA. INSULATOR PIN
  7
MONOTXT
 72
     4
 11
-130.5174
 21
389.2645
 31
0.0
210
0.0
220
0.0
230
1.0
100
AcDbText
  0
TEXT
  5
50A
100
AcDbEntity
  8
1
  6
CONTINUOUS
 62
     7
100
AcDbText
 10
-159.9199
 20
379.9313
 30
0.0
 40
2.4
  1
76.2mm to 92.1mm SPOOL INSULATOR
  7
MONOTXT
 72
     4
 11
-122.8523
 21
381.1313
 31
0.0
210
0.0
220
0.0
230
1.0
100
AcDbText
  0
TEXT
  5
50B
100
AcDbEntity
  8
1
  6
CONTINUOUS
 62
     7
100
AcDbText
 10
-173.3097
 20
404.3294
 30
0.0
 40
2.4
  1
12.7mm DIA. x LENGTH REQUIRED
  7
MONOTXT
 72
     4
 11
-142.2704
 21
405.5294
 31
0.0
210
0.0
220
0.0
230
1.0
100
AcDbText
  0
TEXT
  5
50C
100
AcDbEntity
  8
1
  6
CONTINUOUS
 62
     7
100
AcDbText
 10
2.9229
 20
386.8066
 30
0.0
 40
2.4
  1
CABLE RING 375mm ON CENTER
  7
MONOTXT
 72
     4
 11
33.9055
 21
388.0066
 31
0.0
210
0.0
220
0.0
230
1.0
100
AcDbText
  0
TEXT
  5
50D
100
AcDbEntity
  8
1
  6
CONTINUOUS
 62
     7
100
AcDbText
 10
-136.6915
 20
78.1282
 30
0.0
 40
2.4
  1
15.88mm DIA. GALV.
  7
MONOTXT
 72
     4
 11
-118.1623
 21
79.3282
 31
0.0
210
0.0
220
0.0
230
1.0
100
AcDbText
  0
TEXT
  5
50E
100
AcDbEntity
  8
1
  6
CONTINUOUS
 62
     7
100
AcDbText
 10
-131.6079
 20
73.3282
 30
0.0
 40
2.4
  1
INSULATOR PIN
  7
MONOTXT
 72
     4
 11
-118.1623
 21
74.5282
 31
0.0
210
0.0
220
0.0
230
1.0
100
AcDbText
  0
TEXT
  5
50F
100
AcDbEntity
  8
1
  6
CONTINUOUS
 62
     7
100
AcDbText
 10
-286.3245
 20
47.9999
 30
0.0
 40
2.4
  1
38.1mm
  7
MONOTXT
 72
     4
 11
-279.8237
 21
49.1999
 31
0.0
210
0.0
220
0.0
230
1.0
100
AcDbText
  0
TEXT
  5
510
100
AcDbEntity
  8
1
  6
CONTINUOUS
 62
     7
100
AcDbText
 10
-261.1214
 20
370.2158
 30
0.0
 40
2.4
  1
12.7mm DIA. MACHINE BOLT
  7
MONOTXT
 72
     4
 11
-235.5813
 21
371.4158
 31
0.0
210
0.0
220
0.0
230
1.0
100
AcDbText
  0
ENDSEC
  0
SECTION
  2
OBJECTS
  0
DICTIONARY
  5
19
100
AcDbDictionary
  3
ACAD_GROUP
350
1A
  3
ACAD_MLINESTYLE
350
1B
  0
DICTIONARY
  5
1A
102
{ACAD_REACTORS
330
19
102
}
100
AcDbDictionary
  0
DICTIONARY
  5
1B
102
{ACAD_REACTORS
330
19
102
}
100
AcDbDictionary
  3
STANDARD
350
1C
  0
MLINESTYLE
  5
1C
102
{ACAD_REACTORS
330
1B
102
}
100
AcDbMlineStyle
  2
STANDARD
 70
     0
  3

 62
     0
 51
90.0
 52
90.0
 71
     2
 49
0.5
 62
   256
  6
BYLAYER
 49
-0.5
 62
   256
  6
BYLAYER
  0
ENDSEC
  0
EOF
