  0
SECTION
  2
HEADER
  9
$ACADVER
  1
AC1014
  9
$ACADMAINTVER
 70
     0
  9
$DWGCODEPAGE
  3
ANSI_1252
  9
$INSBASE
 10
0.0
 20
0.0
 30
0.0
  9
$EXTMIN
 10
-37.5025
 20
-1028.635833
 30
0.0
  9
$EXTMAX
 10
601.74675
 20
-605.495833
 30
0.0
  9
$LIMMIN
 10
0.0
 20
0.0
  9
$LIMMAX
 10
12.0
 20
9.0
  9
$ORTHOMODE
 70
     0
  9
$REGENMODE
 70
     1
  9
$FILLMODE
 70
     1
  9
$QTEXTMODE
 70
     0
  9
$MIRRTEXT
 70
     1
  9
$DRAGMODE
 70
     2
  9
$LTSCALE
 40
1.0
  9
$OSMODE
 70
     0
  9
$ATTMODE
 70
     1
  9
$TEXTSIZE
 40
0.2
  9
$TRACEWID
 40
0.05
  9
$TEXTSTYLE
  7
STANDARD
  9
$CLAYER
  8
0
  9
$CELTYPE
  6
CONTINUOUS
  9
$CECOLOR
 62
   256
  9
$CELTSCALE
 40
1.0
  9
$DELOBJ
 70
     1
  9
$DISPSILH
 70
     0
  9
$DIMSCALE
 40
1.0
  9
$DIMASZ
 40
0.18
  9
$DIMEXO
 40
0.0625
  9
$DIMDLI
 40
0.38
  9
$DIMRND
 40
0.0
  9
$DIMDLE
 40
0.0
  9
$DIMEXE
 40
0.18
  9
$DIMTP
 40
0.0
  9
$DIMTM
 40
0.0
  9
$DIMTXT
 40
0.18
  9
$DIMCEN
 40
0.09
  9
$DIMTSZ
 40
0.0
  9
$DIMTOL
 70
     0
  9
$DIMLIM
 70
     0
  9
$DIMTIH
 70
     1
  9
$DIMTOH
 70
     1
  9
$DIMSE1
 70
     0
  9
$DIMSE2
 70
     0
  9
$DIMTAD
 70
     0
  9
$DIMZIN
 70
     0
  9
$DIMBLK
  1

  9
$DIMASO
 70
     1
  9
$DIMSHO
 70
     1
  9
$DIMPOST
  1

  9
$DIMAPOST
  1

  9
$DIMALT
 70
     0
  9
$DIMALTD
 70
     2
  9
$DIMALTF
 40
25.4
  9
$DIMLFAC
 40
1.0
  9
$DIMTOFL
 70
     0
  9
$DIMTVP
 40
0.0
  9
$DIMTIX
 70
     0
  9
$DIMSOXD
 70
     0
  9
$DIMSAH
 70
     0
  9
$DIMBLK1
  1

  9
$DIMBLK2
  1

  9
$DIMSTYLE
  2
STANDARD
  9
$DIMCLRD
 70
     0
  9
$DIMCLRE
 70
     0
  9
$DIMCLRT
 70
     0
  9
$DIMTFAC
 40
1.0
  9
$DIMGAP
 40
0.09
  9
$DIMJUST
 70
     0
  9
$DIMSD1
 70
     0
  9
$DIMSD2
 70
     0
  9
$DIMTOLJ
 70
     1
  9
$DIMTZIN
 70
     0
  9
$DIMALTZ
 70
     0
  9
$DIMALTTZ
 70
     0
  9
$DIMFIT
 70
     3
  9
$DIMUPT
 70
     0
  9
$DIMUNIT
 70
     2
  9
$DIMDEC
 70
     4
  9
$DIMTDEC
 70
     4
  9
$DIMALTU
 70
     2
  9
$DIMALTTD
 70
     2
  9
$DIMTXSTY
  7
STANDARD
  9
$DIMAUNIT
 70
     0
  9
$LUNITS
 70
     2
  9
$LUPREC
 70
     4
  9
$SKETCHINC
 40
0.1
  9
$FILLETRAD
 40
0.0
  9
$AUNITS
 70
     0
  9
$AUPREC
 70
     0
  9
$MENU
  1
acad
  9
$ELEVATION
 40
0.0
  9
$PELEVATION
 40
0.0
  9
$THICKNESS
 40
0.0
  9
$LIMCHECK
 70
     0
  9
$BLIPMODE
 70
     1
  9
$CHAMFERA
 40
0.0
  9
$CHAMFERB
 40
0.0
  9
$CHAMFERC
 40
0.0
  9
$CHAMFERD
 40
0.0
  9
$SKPOLY
 70
     0
  9
$TDCREATE
 40
2451803.573298611
  9
$TDUPDATE
 40
2451803.573298611
  9
$TDINDWG
 40
0.0000000000
  9
$TDUSRTIMER
 40
0.0000000000
  9
$USRTIMER
 70
     1
  9
$ANGBASE
 50
0.0
  9
$ANGDIR
 70
     0
  9
$PDMODE
 70
     0
  9
$PDSIZE
 40
0.0
  9
$PLINEWID
 40
0.0
  9
$COORDS
 70
     0
  9
$SPLFRAME
 70
     0
  9
$SPLINETYPE
 70
     6
  9
$SPLINESEGS
 70
    10
  9
$ATTDIA
 70
     0
  9
$ATTREQ
 70
     1
  9
$HANDLING
 70
     1
  9
$HANDSEED
  5
5B6
  9
$SURFTAB1
 70
     6
  9
$SURFTAB2
 70
     6
  9
$SURFTYPE
 70
     6
  9
$SURFU
 70
     6
  9
$SURFV
 70
     6
  9
$UCSNAME
  2

  9
$UCSORG
 10
0.0
 20
0.0
 30
0.0
  9
$UCSXDIR
 10
1.0
 20
0.0
 30
0.0
  9
$UCSYDIR
 10
0.0
 20
1.0
 30
0.0
  9
$PUCSNAME
  2

  9
$PUCSORG
 10
0.0
 20
0.0
 30
0.0
  9
$PUCSXDIR
 10
1.0
 20
0.0
 30
0.0
  9
$PUCSYDIR
 10
0.0
 20
1.0
 30
0.0
  9
$USERI1
 70
     0
  9
$USERI2
 70
     0
  9
$USERI3
 70
     0
  9
$USERI4
 70
     0
  9
$USERI5
 70
     0
  9
$USERR1
 40
0.0
  9
$USERR2
 40
0.0
  9
$USERR3
 40
0.0
  9
$USERR4
 40
0.0
  9
$USERR5
 40
0.0
  9
$WORLDVIEW
 70
     1
  9
$SHADEDGE
 70
     3
  9
$SHADEDIF
 70
    70
  9
$TILEMODE
 70
     1
  9
$MAXACTVP
 70
    16
  9
$PINSBASE
 10
0.0
 20
0.0
 30
0.0
  9
$PLIMCHECK
 70
     0
  9
$PEXTMIN
 10
-1.000000E+20
 20
-1.000000E+20
 30
-1.000000E+20
  9
$PEXTMAX
 10
-1.000000E+20
 20
-1.000000E+20
 30
-1.000000E+20
  9
$PLIMMIN
 10
0.0
 20
0.0
  9
$PLIMMAX
 10
12.0
 20
9.0
  9
$UNITMODE
 70
     0
  9
$VISRETAIN
 70
     0
  9
$PLINEGEN
 70
     1
  9
$PSLTSCALE
 70
     0
  9
$TREEDEPTH
 70
  3020
  9
$PICKSTYLE
 70
     1
  9
$CMLSTYLE
  2
STANDARD
  9
$CMLJUST
 70
     0
  9
$CMLSCALE
 40
1.0
  9
$PROXYGRAPHICS
 70
     0
  9
$MEASUREMENT
 70
     0
  0
ENDSEC
  0
SECTION
  2
CLASSES
  0
CLASS
  1
LWPOLYLINE
  2
AcDbPolyline
  3
"AutoCAD"
 90
        0
280
     0
281
     1
  0
CLASS
  1
IMAGE
  2
AcDbRasterImage
  3
ISM
 90
      127
280
     0
281
     1
  0
CLASS
  1
OLE2FRAME
  2
AcDbOle2Frame
  3
""
 90
        0
280
     0
281
     1
  0
CLASS
  1
HATCH
  2
AcDbHatch
  3
"ACAD_SEDONA"
 90
        0
280
     0
281
     1
  0
CLASS
  1
DICTIONARYVAR
  2
AcDbDictionaryVar
  3
"AutoCAD"
 90
        0
280
     0
281
     0
  0
CLASS
  1
RASTERVARIABLES
  2
AcDbRasterVariables
  3
ISM
 90
        0
280
     0
281
     0
  0
CLASS
  1
IMAGEDEF
  2
AcDbRasterImageDef
  3
ISM
 90
        0
280
     0
281
     0
  0
CLASS
  1
IMAGEDEF_REACTOR
  2
AcDbRasterImageDefReactor
  3
ISM
 90
        1
280
     0
281
     0
  0
CLASS
  1
IDBUFFER
  2
AcDbIdBuffer
  3
"Acad"
 90
        0
280
     0
281
     0
  0
CLASS
  1
SPATIAL_FILTER
  2
AcDbSpatialFilter
  3
"Acad"
 90
        0
280
     0
281
     0
  0
CLASS
  1
XRECORD
  2
AcDbXrecord
  3
"<Built In>"
 90
        0
280
     0
281
     0
  0
CLASS
  1
SORTENTSTABLE
  2
AcDbSortentsTable
  3
"AutoCAD"
 90
        0
280
     0
281
     0
  0
CLASS
  1
LAYER_INDEX
  2
AcDbLayerIndex
  3
"Acad"
 90
        0
280
     0
281
     0
  0
CLASS
  1
SPATIAL_INDEX
  2
AcDbSpatialIndex
  3
"Acad"
 90
        0
280
     0
281
     0
  0
CLASS
  1
OBJECT_PTR
  2
CAseDLPNTableRecord
  3
"ASE-LPNTableRecord"
 90
        1
280
     0
281
     0
  0
ENDSEC
  0
SECTION
  2
TABLES
  0
TABLE
  2
VPORT
  5
7
100
AcDbSymbolTable
 70
     1
  0
VPORT
  5
5B5
100
AcDbSymbolTableRecord
100
AcDbViewportTableRecord
  2
*ACTIVE
 70
     0
 10
0.0
 20
0.0
 11
1.0
 21
1.0
 12
0.0
 22
0.0
 13
0.0
 23
0.0
 14
0.0
 24
0.0
 15
0.0
 25
0.0
 16
0.0
 26
0.0
 36
1.0
 17
252.580054
 27
-815.515875
 37
0.0
 40
457.641583
 41
1.541667
 42
50.0
 43
0.0
 44
0.0
 50
0.0
 51
0.0
 71
     0
 72
   100
 73
     1
 74
     0
 75
     0
 76
     0
 77
     0
 78
     0
  0
ENDTAB
  0
TABLE
  2
LTYPE
  5
4
100
AcDbSymbolTable
 70
     9
  0
LTYPE
  5
11
100
AcDbSymbolTableRecord
100
AcDbLinetypeTableRecord
  2
BYBLOCK
 70
     0
  3

 72
    65
 73
     0
 40
0.0
  0
LTYPE
  5
12
100
AcDbSymbolTableRecord
100
AcDbLinetypeTableRecord
  2
BYLAYER
 70
     0
  3

 72
    65
 73
     0
 40
0.0
  0
LTYPE
  5
13
100
AcDbSymbolTableRecord
100
AcDbLinetypeTableRecord
  2
CONTINUOUS
 70
     0
  3
Solid line
 72
    65
 73
     0
 40
0.0
  0
LTYPE
  5
22
100
AcDbSymbolTableRecord
100
AcDbLinetypeTableRecord
  2
DOT
 70
    64
  3
. . . . . . . . . . . . . . . . . . . . . . . . . . . . . . . . .
 72
    65
 73
     2
 40
0.25
 49
0.0
 74
     0
 49
-0.25
 74
     0
  0
LTYPE
  5
23
100
AcDbSymbolTableRecord
100
AcDbLinetypeTableRecord
  2
HIDDEN
 70
    64
  3
__ __ __ __ __ __ __ __ __ __ __ __ __ __ __ __ __ __ __ __ __ 
 72
    65
 73
     2
 40
0.375
 49
0.25
 74
     0
 49
-0.125
 74
     0
  0
LTYPE
  5
24
100
AcDbSymbolTableRecord
100
AcDbLinetypeTableRecord
  2
DASHED
 70
    64
  3
__ __ __ __ __ __ __ __ __ __ __ __ __ __ __ __ __ __ __ __ __
 72
    65
 73
     2
 40
0.75
 49
0.5
 74
     0
 49
-0.25
 74
     0
  0
LTYPE
  5
25
100
AcDbSymbolTableRecord
100
AcDbLinetypeTableRecord
  2
DASHDOT
 70
    64
  3
__ . __ . __ . __ . __ . __ . __ . __ . __ . __ . __ . __ . _
 72
    65
 73
     4
 40
1.0
 49
0.5
 74
     0
 49
-0.25
 74
     0
 49
0.0
 74
     0
 49
-0.25
 74
     0
  0
LTYPE
  5
26
100
AcDbSymbolTableRecord
100
AcDbLinetypeTableRecord
  2
DIVIDE
 70
    64
  3
____ . . ____ . . ____ . . ____ . . ____ . . ____ . . ____ . .
 72
    65
 73
     6
 40
1.25
 49
0.5
 74
     0
 49
-0.25
 74
     0
 49
0.0
 74
     0
 49
-0.25
 74
     0
 49
0.0
 74
     0
 49
-0.25
 74
     0
  0
LTYPE
  5
27
100
AcDbSymbolTableRecord
100
AcDbLinetypeTableRecord
  2
CENTER
 70
    64
  3
____ _ ____ _ ____ _ ____ _ ____ _ ____ _ ____ _ ____ _ ____ _
 72
    65
 73
     4
 40
2.0
 49
1.25
 74
     0
 49
-0.25
 74
     0
 49
0.25
 74
     0
 49
-0.25
 74
     0
  0
ENDTAB
  0
TABLE
  2
LAYER
  5
2
100
AcDbSymbolTable
 70
     3
  0
LAYER
  5
14
102
{ACAD_XDICTIONARY
360
5F205F5F5F5F205F
102
}
100
AcDbSymbolTableRecord
100
AcDbLayerTableRecord
  2
0
 70
     0
 62
     7
  6
CONTINUOUS
  0
LAYER
  5
2A
102
{ACAD_XDICTIONARY
360
5F205F5F5F5F205F
102
}
100
AcDbSymbolTableRecord
100
AcDbLayerTableRecord
  2
61
 70
    64
 62
     7
  6
CONTINUOUS
  0
LAYER
  5
58
102
{ACAD_XDICTIONARY
360
5F205F5F5F5F205F
102
}
100
AcDbSymbolTableRecord
100
AcDbLayerTableRecord
  2
1
 70
    64
 62
     7
  6
CONTINUOUS
  0
ENDTAB
  0
TABLE
  2
STYLE
  5
3
100
AcDbSymbolTable
 70
     4
  0
STYLE
  5
17
100
AcDbSymbolTableRecord
100
AcDbTextStyleTableRecord
  2
STANDARD
 70
     0
 40
0.0
 41
1.0
 50
0.0
 71
     0
 42
0.0
  3
txt
  4

  0
STYLE
  5
3B
100
AcDbSymbolTableRecord
100
AcDbTextStyleTableRecord
  2
MONOTXT
 70
     0
 40
0.2
 41
1.0
 50
0.0
 71
     0
 42
0.2
  3
MONOTXT
  4

  0
STYLE
  5
59
100
AcDbSymbolTableRecord
100
AcDbTextStyleTableRecord
  2
TXT
 70
     0
 40
0.2
 41
1.0
 50
0.0
 71
     0
 42
0.2
  3
TXT
  4

  0
STYLE
  5
6A
100
AcDbSymbolTableRecord
100
AcDbTextStyleTableRecord
  2
ROMANT
 70
     0
 40
0.2
 41
1.0
 50
0.0
 71
     0
 42
0.2
  3
ROMANT
  4

  0
ENDTAB
  0
TABLE
  2
VIEW
  5
5
100
AcDbSymbolTable
 70
     0
  0
ENDTAB
  0
TABLE
  2
UCS
  5
6
100
AcDbSymbolTable
 70
     0
  0
ENDTAB
  0
TABLE
  2
APPID
  5
8
100
AcDbSymbolTable
 70
     1
  0
APPID
  5
16
100
AcDbSymbolTableRecord
100
AcDbRegAppTableRecord
  2
ACAD
 70
     0
  0
ENDTAB
  0
TABLE
  2
DIMSTYLE
  5
9
100
AcDbSymbolTable
 70
     1
  0
DIMSTYLE
105
18
100
AcDbSymbolTableRecord
100
AcDbDimStyleTableRecord
  2
STANDARD
 70
     0
  3

  4

  5

  6

  7

 40
1.0
 41
0.18
 42
0.0625
 43
0.38
 44
0.18
 45
0.0
 46
0.0
 47
0.0
 48
0.0
140
0.18
141
0.09
142
0.0
143
25.4
144
1.0
145
0.0
146
1.0
147
0.09
 71
     0
 72
     0
 73
     1
 74
     1
 75
     0
 76
     0
 77
     0
 78
     0
170
     0
171
     2
172
     0
173
     0
174
     0
175
     0
176
     0
177
     0
178
     0
270
     2
271
     4
272
     4
273
     2
274
     2
340
17
275
     0
280
     0
281
     0
282
     0
283
     1
284
     0
285
     0
286
     0
287
     0
288
     0
  0
ENDTAB
  0
TABLE
  2
BLOCK_RECORD
  5
1
100
AcDbSymbolTable
 70
     1
  0
BLOCK_RECORD
  5
A
100
AcDbSymbolTableRecord
100
AcDbBlockTableRecord
  2
*MODEL_SPACE
  0
BLOCK_RECORD
  5
B
100
AcDbSymbolTableRecord
100
AcDbBlockTableRecord
  2
*PAPER_SPACE
  0
BLOCK_RECORD
  5
F3
102
{ACAD_XDICTIONARY
360
6E0002000200E6FF
102
}
100
AcDbSymbolTableRecord
100
AcDbBlockTableRecord
  2
LDR
  0
ENDTAB
  0
ENDSEC
  0
SECTION
  2
BLOCKS
  0
BLOCK
  5
D
100
AcDbEntity
  8
0
100
AcDbBlockBegin
  2
*MODEL_SPACE
 70
     0
 10
0.0
 20
0.0
 30
0.0
  3
*MODEL_SPACE
  1

  0
ENDBLK
  5
E
100
AcDbEntity
  8
0
100
AcDbBlockEnd
  0
BLOCK
  5
F
100
AcDbEntity
 67
     1
  8
0
100
AcDbBlockBegin
  2
*PAPER_SPACE
 70
     0
 10
0.0
 20
0.0
 30
0.0
  3
*PAPER_SPACE
  1

  0
ENDBLK
  5
10
100
AcDbEntity
 67
     1
  8
0
100
AcDbBlockEnd
  0
BLOCK
  5
F4
100
AcDbEntity
  8
1
  6
CONTINUOUS
 62
     1
100
AcDbBlockBegin
  2
LDR
 70
     0
 10
0.0
 20
0.0
 30
0.0
  3
LNR
  1

  0
ELLIPSE
  5
F5
100
AcDbEntity
  8
1
  6
CONTINUOUS
 62
     1
100
AcDbEllipse
 10
-0.004547
 20
-0.001151
 30
0.0
 11
0.007440417051956
 21
0.0006506250108083
 31
0.0
210
0.0
220
0.0
230
1.0
 40
0.122415
 41
0.8963533496766982
 42
3.1415926535897931
  0
ELLIPSE
  5
F6
100
AcDbEntity
  8
1
  6
CONTINUOUS
 62
     1
100
AcDbEllipse
 10
-0.004669
 20
0.000882
 30
0.0
 11
0.0073185421713632
 21
-0.000731875170693
 31
0.0
210
0.0
220
0.0
230
1.0
 40
0.07063
 41
3.1407147529760402
 42
5.4181099545465106
  0
ENDBLK
  5
F7
100
AcDbEntity
  8
1
  6
CONTINUOUS
 62
     1
100
AcDbBlockEnd
  0
ENDSEC
  0
SECTION
  2
ENTITIES
  0
LINE
  5
2B
100
AcDbEntity
  8
61
  6
CONTINUOUS
 62
     1
100
AcDbLine
 10
601.5375
 20
-605.495833
 30
0.0
 11
-37.5025
 21
-605.495833
 31
0.0
  0
LINE
  5
2C
100
AcDbEntity
  8
61
  6
CONTINUOUS
 62
     1
100
AcDbLine
 10
-37.5025
 20
-605.495833
 30
0.0
 11
-37.5025
 21
-1025.515833
 31
0.0
  0
LINE
  5
2D
100
AcDbEntity
  8
61
  6
CONTINUOUS
 62
     1
100
AcDbLine
 10
601.5575
 20
-1025.535833
 30
0.0
 11
-37.5025
 21
-1025.515833
 31
0.0
  0
LINE
  5
2E
100
AcDbEntity
  8
61
  6
CONTINUOUS
 62
     1
100
AcDbLine
 10
601.5375
 20
-605.495833
 30
0.0
 11
601.5575
 21
-1025.535833
 31
0.0
  0
LINE
  5
2F
100
AcDbEntity
  8
61
  6
CONTINUOUS
 62
     1
100
AcDbLine
 10
595.4375
 20
-610.235833
 30
0.0
 11
487.4575
 21
-610.255833
 31
0.0
  0
LINE
  5
30
100
AcDbEntity
  8
61
  6
CONTINUOUS
 62
     1
100
AcDbLine
 10
487.4575
 20
-610.255833
 30
0.0
 11
487.4575
 21
-630.255833
 31
0.0
  0
LINE
  5
31
100
AcDbEntity
  8
61
  6
CONTINUOUS
 62
     1
100
AcDbLine
 10
595.4375
 20
-610.235833
 30
0.0
 11
595.4375
 21
-630.235833
 31
0.0
  0
LINE
  5
32
100
AcDbEntity
  8
61
  6
CONTINUOUS
 62
     1
100
AcDbLine
 10
595.4375
 20
-630.235833
 30
0.0
 11
487.4575
 21
-630.255833
 31
0.0
  0
LINE
  5
33
100
AcDbEntity
  8
61
  6
CONTINUOUS
 62
     1
100
AcDbLine
 10
595.4575
 20
-620.275833
 30
0.0
 11
487.4375
 21
-620.255833
 31
0.0
  0
LINE
  5
34
100
AcDbEntity
  8
61
  6
CONTINUOUS
 62
     1
100
AcDbLine
 10
497.4575
 20
-610.255833
 30
0.0
 11
497.4575
 21
-630.255833
 31
0.0
  0
LINE
  5
35
100
AcDbEntity
  8
61
  6
CONTINUOUS
 62
     1
100
AcDbLine
 10
507.4575
 20
-610.255833
 30
0.0
 11
507.4575
 21
-630.255833
 31
0.0
  0
LINE
  5
36
100
AcDbEntity
  8
61
  6
CONTINUOUS
 62
     1
100
AcDbLine
 10
521.1375
 20
-610.255833
 30
0.0
 11
521.1375
 21
-630.255833
 31
0.0
  0
LINE
  5
37
100
AcDbEntity
  8
61
  6
CONTINUOUS
 62
     1
100
AcDbLine
 10
585.4375
 20
-610.235833
 30
0.0
 11
585.4375
 21
-630.235833
 31
0.0
  0
LINE
  5
38
100
AcDbEntity
  8
61
  6
CONTINUOUS
 62
     1
100
AcDbLine
 10
575.4375
 20
-610.235833
 30
0.0
 11
575.4375
 21
-630.235833
 31
0.0
  0
LINE
  5
39
100
AcDbEntity
  8
61
  6
CONTINUOUS
 62
     1
100
AcDbLine
 10
553.4575
 20
-610.255833
 30
0.0
 11
553.4575
 21
-630.255833
 31
0.0
  0
LINE
  5
3A
100
AcDbEntity
  8
61
  6
CONTINUOUS
 62
     1
100
AcDbLine
 10
543.4575
 20
-610.255833
 30
0.0
 11
543.4575
 21
-630.255833
 31
0.0
  0
TEXT
  5
3C
100
AcDbEntity
  8
61
  6
CONTINUOUS
 62
     1
100
AcDbText
 10
489.4975
 20
-613.275833
 30
0.0
 40
1.20072
  1
PUBLIC
 50
0.033272
 41
1.001799
  7
MONOTXT
210
0.0
220
0.0
230
1.0
100
AcDbText
  0
TEXT
  5
3D
100
AcDbEntity
  8
61
  6
CONTINUOUS
 62
     1
100
AcDbText
 10
489.5775
 20
-615.795833
 30
0.0
 40
1.20072
  1
ROADS
 50
0.124322
 41
0.996902
  7
MONOTXT
210
0.0
220
0.0
230
1.0
100
AcDbText
  0
TEXT
  5
3E
100
AcDbEntity
  8
61
  6
CONTINUOUS
 62
     1
100
AcDbText
 10
490.7775
 20
-618.295833
 30
0.0
 40
1.20072
  1
DIV.
 50
359.931522
 41
0.994903
  7
MONOTXT
210
0.0
220
0.0
230
1.0
100
AcDbText
  0
TEXT
  5
3F
100
AcDbEntity
  8
61
  6
CONTINUOUS
 62
     1
100
AcDbText
 10
499.6575
 20
-613.215833
 30
0.0
 40
1.20072
  1
STATE
 50
0.058969
 41
0.998201
  7
MONOTXT
210
0.0
220
0.0
230
1.0
100
AcDbText
  0
TEXT
  5
40
100
AcDbEntity
  8
61
  6
CONTINUOUS
 62
     1
100
AcDbText
 10
500.5375
 20
-615.715833
 30
0.0
 40
1.20072
  1
DIST.
 50
0.055889
 41
0.9996
  7
MONOTXT
210
0.0
220
0.0
230
1.0
100
AcDbText
  0
TEXT
  5
41
100
AcDbEntity
  8
61
  6
CONTINUOUS
 62
     1
100
AcDbText
 10
501.1175
 20
-618.235833
 30
0.0
 40
1.20072
  1
NO.
 50
359.852072
 41
0.997801
  7
MONOTXT
210
0.0
220
0.0
230
1.0
100
AcDbText
  0
TEXT
  5
42
100
AcDbEntity
  8
61
  6
CONTINUOUS
 62
     1
100
AcDbText
 10
511.6575
 20
-613.275833
 30
0.0
 40
1.20072
  1
STATE
 50
0.058969
 41
0.998201
  7
MONOTXT
210
0.0
220
0.0
230
1.0
100
AcDbText
  0
TEXT
  5
43
100
AcDbEntity
  8
61
  6
CONTINUOUS
 62
     1
100
AcDbText
 10
510.5775
 20
-615.695833
 30
0.0
 40
1.20072
  1
PROJECT
 50
359.908431
 41
1.0001
  7
MONOTXT
210
0.0
220
0.0
230
1.0
100
AcDbText
  0
TEXT
  5
44
100
AcDbEntity
  8
61
  6
CONTINUOUS
 62
     1
100
AcDbText
 10
513.3175
 20
-618.235833
 30
0.0
 40
1.20072
  1
NO.
 50
0.225453
 41
0.993604
  7
MONOTXT
210
0.0
220
0.0
230
1.0
100
AcDbText
  0
TEXT
  5
45
100
AcDbEntity
  8
61
  6
CONTINUOUS
 62
     1
100
AcDbText
 10
528.9575
 20
-614.395833
 30
0.0
 40
1.20072
  1
FEDERAL
 50
0.006714
 41
0.998601
  7
MONOTXT
210
0.0
220
0.0
230
1.0
100
AcDbText
  0
TEXT
  5
46
100
AcDbEntity
  8
61
  6
CONTINUOUS
 62
     1
100
AcDbText
 10
527.4175
 20
-617.055833
 30
0.0
 40
1.20072
  1
PROJECT NO.
 50
359.921531
 41
1.0007
  7
MONOTXT
210
0.0
220
0.0
230
1.0
100
AcDbText
  0
TEXT
  5
47
100
AcDbEntity
  8
61
  6
CONTINUOUS
 62
     1
100
AcDbText
 10
545.6975
 20
-614.455833
 30
0.0
 40
1.20072
  1
FISCAL
 50
359.941939
 41
0.999001
  7
MONOTXT
210
0.0
220
0.0
230
1.0
100
AcDbText
  0
TEXT
  5
48
100
AcDbEntity
  8
61
  6
CONTINUOUS
 62
     1
100
AcDbText
 10
546.2175
 20
-617.355833
 30
0.0
 40
1.20072
  1
YEAR
 50
0.104606
 41
0.993304
  7
MONOTXT
210
0.0
220
0.0
230
1.0
100
AcDbText
  0
TEXT
  5
49
100
AcDbEntity
  8
61
  6
CONTINUOUS
 62
     1
100
AcDbText
 10
560.3175
 20
-615.995833
 30
0.0
 40
1.20072
  1
COUNTY
 50
0.068575
 41
1.001899
  7
MONOTXT
210
0.0
220
0.0
230
1.0
100
AcDbText
  0
TEXT
  5
4A
100
AcDbEntity
  8
61
  6
CONTINUOUS
 62
     1
100
AcDbText
 10
577.9575
 20
-614.335833
 30
0.0
 40
1.20072
  1
SHEET
 50
0.058969
 41
0.997601
  7
MONOTXT
210
0.0
220
0.0
230
1.0
100
AcDbText
  0
TEXT
  5
4B
100
AcDbEntity
  8
61
  6
CONTINUOUS
 62
     1
100
AcDbText
 10
579.3775
 20
-617.055833
 30
0.0
 40
1.20072
  1
NO.
 50
359.852072
 41
0.997801
  7
MONOTXT
210
0.0
220
0.0
230
1.0
100
AcDbText
  0
TEXT
  5
4C
100
AcDbEntity
  8
61
  6
CONTINUOUS
 62
     1
100
AcDbText
 10
587.6975
 20
-614.475833
 30
0.0
 40
1.20072
  1
TOTAL
 50
359.926039
 41
0.998601
  7
MONOTXT
210
0.0
220
0.0
230
1.0
100
AcDbText
  0
TEXT
  5
4D
100
AcDbEntity
  8
61
  6
CONTINUOUS
 62
     1
100
AcDbText
 10
587.2375
 20
-617.175833
 30
0.0
 40
1.20072
  1
SHEETS
 50
359.958675
  7
MONOTXT
210
0.0
220
0.0
230
1.0
100
AcDbText
  0
TEXT
  5
4E
100
AcDbEntity
  8
61
  6
CONTINUOUS
 62
     1
100
AcDbText
 10
500.0575
 20
-626.055833
 30
0.0
 40
2.40132
  1
04
 50
0.029406
 41
0.996502
  7
MONOTXT
210
0.0
220
0.0
230
1.0
100
AcDbText
  0
TEXT
  5
4F
100
AcDbEntity
  8
61
  6
CONTINUOUS
 62
     1
100
AcDbText
 10
577.2375
 20
-626.335833
 30
0.0
 40
2.40132
  1
   
 50
0.011508
 41
1.000999
  7
MONOTXT
210
0.0
220
0.0
230
1.0
100
AcDbText
  0
TEXT
  5
50
100
AcDbEntity
  8
61
  6
CONTINUOUS
 62
     1
100
AcDbText
 10
587.1175
 20
-626.355833
 30
0.0
 40
2.40132
  1
   
 50
359.922128
 41
1.00055
  7
MONOTXT
210
0.0
220
0.0
230
1.0
100
AcDbText
  0
TEXT
  5
51
100
AcDbEntity
  8
61
  6
CONTINUOUS
 62
     1
100
AcDbText
 10
510.4975
 20
-622.955833
 30
0.0
 40
2.00676
  1
U331
 50
0.054383
 41
0.993721
  7
MONOTXT
210
0.0
220
0.0
230
1.0
100
AcDbText
  0
TEXT
  5
52
100
AcDbEntity
  8
61
  6
CONTINUOUS
 62
     1
100
AcDbText
 10
507.5775
 20
-625.975833
 30
0.0
 40
1.9896
  1
 -705- 
 50
0.064678
 41
1.000965
  7
MONOTXT
210
0.0
220
0.0
230
1.0
100
AcDbText
  0
TEXT
  5
53
100
AcDbEntity
  8
61
  6
CONTINUOUS
 62
     1
100
AcDbText
 10
508.5375
 20
-628.875833
 30
0.0
 40
1.9896
  1
 0.00 
 50
359.958053
 41
1.000302
  7
MONOTXT
210
0.0
220
0.0
230
1.0
100
AcDbText
  0
TEXT
  5
54
100
AcDbEntity
  8
61
  6
CONTINUOUS
 62
     1
100
AcDbText
 10
519.4975
 20
-624.235833
 30
0.0
 40
2.40132
  1
  STP-0705 
 50
0.011508
 41
0.998751
  7
MONOTXT
210
0.0
220
0.0
230
1.0
100
AcDbText
  0
TEXT
  5
55
100
AcDbEntity
  8
61
  6
CONTINUOUS
 62
     1
100
AcDbText
 10
519.3775
 20
-627.895833
 30
0.0
 40
2.40132
  1
  (003)EQ  
 50
0.011508
 41
0.9996
  7
MONOTXT
210
0.0
220
0.0
230
1.0
100
AcDbText
  0
TEXT
  5
56
100
AcDbEntity
  8
61
  6
CONTINUOUS
 62
     1
100
AcDbText
 10
554.7175
 20
-626.155833
 30
0.0
 40
2.00676
  1
MONONGALIA
 50
0.009222
 41
0.992764
  7
MONOTXT
210
0.0
220
0.0
230
1.0
100
AcDbText
  0
TEXT
  5
57
100
AcDbEntity
  8
61
  6
CONTINUOUS
 62
     1
100
AcDbText
 10
574.9775
 20
-638.075833
 30
0.0
 40
2.40132
  1
     
 41
1.001399
  7
MONOTXT
210
0.0
220
0.0
230
1.0
100
AcDbText
  0
TEXT
  5
5A
100
AcDbEntity
  8
1
  6
CONTINUOUS
 62
     1
100
AcDbText
 10
567.2775
 20
-1028.035833
 30
0.0
 40
1.2
  1
TRAFFIC ENGINEERING DIVISION
  7
TXT
210
0.0
220
0.0
230
1.0
100
AcDbText
  0
LINE
  5
5B
100
AcDbEntity
  8
1
  6
CONTINUOUS
 62
     1
100
AcDbLine
 10
429.8975
 20
-1025.535833
 30
0.0
 11
429.8975
 21
-933.955833
 31
0.0
  0
LINE
  5
5C
100
AcDbEntity
  8
1
  6
CONTINUOUS
 62
     1
100
AcDbLine
 10
429.8975
 20
-933.955833
 30
0.0
 11
601.5575
 21
-933.955833
 31
0.0
  0
LINE
  5
5D
100
AcDbEntity
  8
1
  6
CONTINUOUS
 62
     1
100
AcDbLine
 10
464.8975
 20
-1025.575833
 30
0.0
 11
464.8975
 21
-980.615833
 31
0.0
  0
LINE
  5
5E
100
AcDbEntity
  8
1
  6
CONTINUOUS
 62
     1
100
AcDbLine
 10
464.8975
 20
-980.615833
 30
0.0
 11
429.9175
 21
-980.615833
 31
0.0
  0
LINE
  5
5F
100
AcDbEntity
  8
1
  6
CONTINUOUS
 62
     1
100
AcDbLine
 10
464.8975
 20
-985.095833
 30
0.0
 11
429.9175
 21
-985.095833
 31
0.0
  0
LINE
  5
60
100
AcDbEntity
  8
1
  6
CONTINUOUS
 62
     1
100
AcDbLine
 10
464.8975
 20
-989.595833
 30
0.0
 11
429.9175
 21
-989.595833
 31
0.0
  0
LINE
  5
61
100
AcDbEntity
  8
1
  6
CONTINUOUS
 62
     1
100
AcDbLine
 10
464.8975
 20
-994.095833
 30
0.0
 11
429.9175
 21
-994.095833
 31
0.0
  0
LINE
  5
62
100
AcDbEntity
  8
1
  6
CONTINUOUS
 62
     1
100
AcDbLine
 10
464.8975
 20
-998.615833
 30
0.0
 11
429.9175
 21
-998.615833
 31
0.0
  0
LINE
  5
63
100
AcDbEntity
  8
1
  6
CONTINUOUS
 62
     1
100
AcDbLine
 10
464.8975
 20
-1003.095833
 30
0.0
 11
429.9175
 21
-1003.095833
 31
0.0
  0
LINE
  5
64
100
AcDbEntity
  8
1
  6
CONTINUOUS
 62
     1
100
AcDbLine
 10
464.8975
 20
-1007.575833
 30
0.0
 11
429.9175
 21
-1007.575833
 31
0.0
  0
LINE
  5
65
100
AcDbEntity
  8
1
  6
CONTINUOUS
 62
     1
100
AcDbLine
 10
464.8975
 20
-1012.075833
 30
0.0
 11
429.9175
 21
-1012.075833
 31
0.0
  0
LINE
  5
66
100
AcDbEntity
  8
1
  6
CONTINUOUS
 62
     1
100
AcDbLine
 10
464.8975
 20
-1016.575833
 30
0.0
 11
429.9175
 21
-1016.575833
 31
0.0
  0
LINE
  5
67
100
AcDbEntity
  8
1
  6
CONTINUOUS
 62
     1
100
AcDbLine
 10
464.8975
 20
-1021.095833
 30
0.0
 11
429.9175
 21
-1021.095833
 31
0.0
  0
TEXT
  5
68
100
AcDbEntity
  8
1
  6
CONTINUOUS
 62
     1
100
AcDbText
 10
440.1775
 20
-983.615833
 30
0.0
 40
1.99776
  1
REVISIONS
  7
MONOTXT
210
0.0
220
0.0
230
1.0
100
AcDbText
  0
TEXT
  5
69
100
AcDbEntity
  8
1
  6
CONTINUOUS
 62
     1
100
AcDbText
 10
431.8575
 20
-979.615833
 30
0.0
 40
1.99776
  1
PREPARED: 10/01/69
  7
MONOTXT
210
0.0
220
0.0
230
1.0
100
AcDbText
  0
TEXT
  5
6B
100
AcDbEntity
  8
1
  6
CONTINUOUS
 62
     1
100
AcDbText
 10
462.5175
 20
-942.555833
 30
0.0
 40
4.79484
  1
WEST VIRGINIA DIVISION OF HIGHWAYS
  7
ROMANT
 72
     1
 11
516.48775
 21
-937.761
 31
0.0
210
0.0
220
0.0
230
1.0
100
AcDbText
 73
     3
  0
TEXT
  5
6C
100
AcDbEntity
  8
1
  6
CONTINUOUS
 62
     1
100
AcDbText
 10
473.2775
 20
-953.715833
 30
0.0
 40
6.99264
  1
STANDARD DETAIL
  7
TXT
 72
     1
 11
517.767583
 21
-946.723167
 31
0.0
210
0.0
220
0.0
230
1.0
100
AcDbText
 73
     3
  0
TEXT
  5
6D
100
AcDbEntity
  8
1
  6
CONTINUOUS
 62
     1
100
AcDbText
 10
468.7375
 20
-1021.495833
 30
0.0
 40
6.99264
  1
STANDARD SHEET TP1-1 
  7
TXT
210
0.0
220
0.0
230
1.0
100
AcDbText
  0
TEXT
  5
6E
100
AcDbEntity
  8
1
  6
CONTINUOUS
 62
     1
100
AcDbText
 10
440.016417
 20
-988.675833
 30
0.0
 40
2.00004
  1
05-01-70
  7
MONOTXT
 72
     1
 11
446.866917
 21
-986.675833
 31
0.0
210
0.0
220
0.0
230
1.0
100
AcDbText
 73
     3
  0
TEXT
  5
6F
100
AcDbEntity
  8
1
  6
CONTINUOUS
 62
     1
100
AcDbText
 10
439.996417
 20
-993.075833
 30
0.0
 40
2.00004
  1
12-00-73
  7
MONOTXT
 72
     1
 11
446.85475
 21
-991.075833
 31
0.0
210
0.0
220
0.0
230
1.0
100
AcDbText
 73
     3
  0
TEXT
  5
70
100
AcDbEntity
  8
1
  6
CONTINUOUS
 62
     1
100
AcDbText
 10
440.110917
 20
-997.475833
 30
0.0
 40
2.00004
  1
06-01-76
  7
MONOTXT
 72
     1
 11
446.87475
 21
-995.475833
 31
0.0
210
0.0
220
0.0
230
1.0
100
AcDbText
 73
     3
  0
TEXT
  5
71
100
AcDbEntity
  8
1
  6
CONTINUOUS
 62
     1
100
AcDbText
 10
440.126667
 20
-1001.875833
 30
0.0
 40
2.00004
  1
09-13-93
  7
MONOTXT
 72
     1
 11
446.874833
 21
-999.875833
 31
0.0
210
0.0
220
0.0
230
1.0
100
AcDbText
 73
     3
  0
TEXT
  5
72
100
AcDbEntity
  8
1
  6
CONTINUOUS
 62
     1
100
AcDbText
 10
439.0375
 20
-1006.475833
 30
0.0
 40
2.00004
  1
        
  7
MONOTXT
 72
     1
 11
446.704333
 21
-1004.475833
 31
0.0
210
0.0
220
0.0
230
1.0
100
AcDbText
 73
     3
  0
TEXT
  5
73
100
AcDbEntity
  8
1
  6
CONTINUOUS
 62
     1
100
AcDbText
 10
439.1975
 20
-1010.955833
 30
0.0
 40
2.00004
  1
        
  7
MONOTXT
 72
     1
 11
446.864333
 21
-1008.955833
 31
0.0
210
0.0
220
0.0
230
1.0
100
AcDbText
 73
     3
  0
TEXT
  5
74
100
AcDbEntity
  8
1
  6
CONTINUOUS
 62
     1
100
AcDbText
 10
439.0975
 20
-1015.555833
 30
0.0
 40
2.00004
  1
        
  7
MONOTXT
 72
     1
 11
446.764333
 21
-1013.555833
 31
0.0
210
0.0
220
0.0
230
1.0
100
AcDbText
 73
     3
  0
TEXT
  5
75
100
AcDbEntity
  8
1
  6
CONTINUOUS
 62
     1
100
AcDbText
 10
439.1975
 20
-1020.135833
 30
0.0
 40
2.00004
  1
        
  7
MONOTXT
 72
     1
 11
446.864333
 21
-1018.135833
 31
0.0
210
0.0
220
0.0
230
1.0
100
AcDbText
 73
     3
  0
TEXT
  5
76
100
AcDbEntity
  8
1
  6
CONTINUOUS
 62
     1
100
AcDbText
 10
439.1975
 20
-1024.155833
 30
0.0
 40
2.00004
  1
        
  7
MONOTXT
 72
     1
 11
446.864333
 21
-1022.155833
 31
0.0
210
0.0
220
0.0
230
1.0
100
AcDbText
 73
     3
  0
TEXT
  5
77
100
AcDbEntity
  8
1
  6
CONTINUOUS
 62
     1
100
AcDbText
 10
482.0175
 20
-1027.935833
 30
0.0
 40
1.2
  1
CATALOG:dt standa  FILENAME:tp11.dgn     DATE:03/15/93
  7
MONOTXT
210
0.0
220
0.0
230
1.0
100
AcDbText
  0
TEXT
  5
78
100
AcDbEntity
  8
1
  6
CONTINUOUS
 62
     1
100
AcDbText
 10
437.828917
 20
-963.40775
 30
0.0
 40
6.992667
  1
PUNCHING AND MOUNTING FOR
  7
TXT
 72
     1
 11
517.76775
 21
-956.415083
 31
0.0
210
0.0
220
0.0
230
1.0
100
AcDbText
 73
     3
  0
TEXT
  5
79
100
AcDbEntity
  8
1
  6
CONTINUOUS
 62
     1
100
AcDbText
 10
466.748583
 20
-973.27275
 30
0.0
 40
6.992667
  1
R1-1 AND R1-2 SIGNS
  7
TXT
 72
     1
 11
517.59475
 21
-966.280083
 31
0.0
210
0.0
220
0.0
230
1.0
100
AcDbText
 73
     3
  0
LWPOLYLINE
  5
7A
100
AcDbEntity
  8
1
  6
CONTINUOUS
 62
     7
100
AcDbPolyline
 90
        4
 70
     0
 10
432.492167
 20
-927.75425
 10
430.492167
 20
-931.218333
 10
434.492167
 20
-931.218333
 10
432.492167
 20
-927.75425
  0
LWPOLYLINE
  5
7B
100
AcDbEntity
  8
1
  6
CONTINUOUS
 62
     7
100
AcDbPolyline
 90
        4
 70
     0
 10
435.569333
 20
-985.572083
 10
433.569333
 20
-989.036167
 10
437.569333
 20
-989.036167
 10
435.569333
 20
-985.572083
  0
LWPOLYLINE
  5
7C
100
AcDbEntity
  8
1
  6
CONTINUOUS
 62
     7
100
AcDbPolyline
 90
        4
 70
     0
 10
435.606417
 20
-990.05925
 10
433.606417
 20
-993.523333
 10
437.606417
 20
-993.523333
 10
435.606417
 20
-990.05925
  0
TEXT
  5
7D
100
AcDbEntity
  8
1
  6
CONTINUOUS
 62
     7
100
AcDbText
 10
431.937667
 20
-930.598
 30
0.0
 40
1.5
  1
3
  7
MONOTXT
210
0.0
220
0.0
230
1.0
100
AcDbText
  0
TEXT
  5
7E
100
AcDbEntity
  8
1
  6
CONTINUOUS
 62
     7
100
AcDbText
 10
435.261083
 20
-988.414
 30
0.0
 40
1.5
  1
1
  7
MONOTXT
210
0.0
220
0.0
230
1.0
100
AcDbText
  0
TEXT
  5
7F
100
AcDbEntity
  8
1
  6
CONTINUOUS
 62
     7
100
AcDbText
 10
435.112583
 20
-992.945
 30
0.0
 40
1.5
  1
2
  7
MONOTXT
210
0.0
220
0.0
230
1.0
100
AcDbText
  0
LWPOLYLINE
  5
80
100
AcDbEntity
  8
1
  6
CONTINUOUS
 62
   212
100
AcDbPolyline
 90
        8
 70
     1
 10
80.578833
 20
-697.977333
 10
80.578833
 20
-673.1245
 10
63.00525
 20
-655.550917
 10
38.152417
 20
-655.550917
 10
20.578833
 20
-673.1245
 10
20.578833
 20
-697.977333
 10
38.152417
 20
-715.550917
 10
63.00525
 20
-715.550917
  0
CIRCLE
  5
81
100
AcDbEntity
  8
1
  6
CONTINUOUS
 62
   212
100
AcDbCircle
 10
50.578833
 20
-662.550917
 30
0.0
 40
0.75
210
0.0
220
0.0
230
1.0
  0
CIRCLE
  5
82
100
AcDbEntity
  8
1
  6
CONTINUOUS
 62
   212
100
AcDbCircle
 10
50.578833
 20
-708.550917
 30
0.0
 40
0.75
210
0.0
220
0.0
230
1.0
  0
LINE
  5
83
100
AcDbEntity
  8
1
  6
CONTINUOUS
 62
     7
100
AcDbLine
 10
48.828833
 20
-662.550917
 30
0.0
 11
52.328833
 21
-662.550917
 31
0.0
  0
LINE
  5
84
100
AcDbEntity
  8
1
  6
CONTINUOUS
 62
     7
100
AcDbLine
 10
54.328833
 20
-662.550917
 30
0.0
 11
90.00525
 21
-662.550917
 31
0.0
  0
LINE
  5
85
100
AcDbEntity
  8
1
  6
CONTINUOUS
 62
     7
100
AcDbLine
 10
46.828833
 20
-662.550917
 30
0.0
 11
40.828833
 21
-662.550917
 31
0.0
  0
LINE
  5
86
100
AcDbEntity
  8
1
  6
CONTINUOUS
 62
     7
100
AcDbLine
 10
40.828833
 20
-708.550917
 30
0.0
 11
46.828833
 21
-708.550917
 31
0.0
  0
LINE
  5
87
100
AcDbEntity
  8
1
  6
CONTINUOUS
 62
     7
100
AcDbLine
 10
48.828833
 20
-708.550917
 30
0.0
 11
52.328833
 21
-708.550917
 31
0.0
  0
LINE
  5
88
100
AcDbEntity
  8
1
  6
CONTINUOUS
 62
     7
100
AcDbLine
 10
54.328833
 20
-708.550917
 30
0.0
 11
90.00525
 21
-708.550917
 31
0.0
  0
LINE
  5
89
100
AcDbEntity
  8
1
  6
CONTINUOUS
 62
     7
100
AcDbLine
 10
50.578833
 20
-645.550917
 30
0.0
 11
50.578833
 21
-668.502833
 31
0.0
  0
LINE
  5
8A
100
AcDbEntity
  8
1
  6
CONTINUOUS
 62
     7
100
AcDbLine
 10
40.578833
 20
-685.550917
 30
0.0
 11
60.578833
 21
-685.550917
 31
0.0
  0
LINE
  5
8B
100
AcDbEntity
  8
1
  6
CONTINUOUS
 62
     7
100
AcDbLine
 10
50.578833
 20
-680.550917
 30
0.0
 11
50.578833
 21
-690.550917
 31
0.0
  0
LINE
  5
8C
100
AcDbEntity
  8
1
  6
CONTINUOUS
 62
     7
100
AcDbLine
 10
50.578833
 20
-697.964333
 30
0.0
 11
50.578833
 21
-715.550917
 31
0.0
  0
LINE
  5
8D
100
AcDbEntity
  8
1
  6
CONTINUOUS
 62
     7
100
AcDbLine
 10
90.00525
 20
-685.550917
 30
0.0
 11
70.578833
 21
-685.550917
 31
0.0
  0
LINE
  5
8E
100
AcDbEntity
  8
1
  6
CONTINUOUS
 62
     7
100
AcDbLine
 10
63.578833
 20
-685.550917
 30
0.0
 11
67.578833
 21
-685.550917
 31
0.0
  0
LINE
  5
8F
100
AcDbEntity
  8
1
  6
CONTINUOUS
 62
     7
100
AcDbLine
 10
10.578833
 20
-685.550917
 30
0.0
 11
30.578833
 21
-685.550917
 31
0.0
  0
LINE
  5
90
100
AcDbEntity
  8
1
  6
CONTINUOUS
 62
     7
100
AcDbLine
 10
33.578833
 20
-685.550917
 30
0.0
 11
37.578833
 21
-685.550917
 31
0.0
  0
LINE
  5
91
100
AcDbEntity
  8
1
  6
CONTINUOUS
 62
     7
100
AcDbLine
 10
89.00525
 20
-662.550917
 30
0.0
 11
89.00525
 21
-685.550917
 31
0.0
  0
LINE
  5
92
100
AcDbEntity
  8
1
  6
CONTINUOUS
 62
     7
100
AcDbLine
 10
89.00525
 20
-685.550917
 30
0.0
 11
89.00525
 21
-708.550917
 31
0.0
  0
LINE
  5
93
100
AcDbEntity
  8
1
  6
CONTINUOUS
 62
     7
100
AcDbLine
 10
20.578833
 20
-699.977333
 30
0.0
 11
20.578833
 21
-725.977333
 31
0.0
  0
LWPOLYLINE
  5
94
100
AcDbEntity
  8
1
  6
CONTINUOUS
 62
   212
100
AcDbPolyline
 90
        8
 70
     1
 10
80.578833
 20
-786.977333
 10
80.578833
 20
-762.1245
 10
63.00525
 20
-744.550917
 10
38.152417
 20
-744.550917
 10
20.578833
 20
-762.1245
 10
20.578833
 20
-786.977333
 10
38.152417
 20
-804.550917
 10
63.00525
 20
-804.550917
  0
LINE
  5
95
100
AcDbEntity
  8
1
  6
CONTINUOUS
 62
     7
100
AcDbLine
 10
20.578833
 20
-724.977333
 30
0.0
 11
50.578833
 21
-724.977333
 31
0.0
  0
LINE
  5
96
100
AcDbEntity
  8
1
  6
CONTINUOUS
 62
     7
100
AcDbLine
 10
50.578833
 20
-734.087333
 30
0.0
 11
50.578833
 21
-730.087333
 31
0.0
  0
LINE
  5
97
100
AcDbEntity
  8
1
  6
CONTINUOUS
 62
     7
100
AcDbLine
 10
50.578833
 20
-715.550917
 30
0.0
 11
50.578833
 21
-727.979167
 31
0.0
  0
LINE
  5
98
100
AcDbEntity
  8
1
  6
CONTINUOUS
 62
     7
100
AcDbLine
 10
10.578833
 20
-774.550917
 30
0.0
 11
30.578833
 21
-774.550917
 31
0.0
  0
LINE
  5
99
100
AcDbEntity
  8
1
  6
CONTINUOUS
 62
     7
100
AcDbLine
 10
33.578833
 20
-774.550917
 30
0.0
 11
37.578833
 21
-774.550917
 31
0.0
  0
LINE
  5
9A
100
AcDbEntity
  8
1
  6
CONTINUOUS
 62
     7
100
AcDbLine
 10
40.578833
 20
-774.550917
 30
0.0
 11
60.578833
 21
-774.550917
 31
0.0
  0
LINE
  5
9B
100
AcDbEntity
  8
1
  6
CONTINUOUS
 62
     7
100
AcDbLine
 10
63.578833
 20
-774.550917
 30
0.0
 11
67.578833
 21
-774.550917
 31
0.0
  0
LINE
  5
9C
100
AcDbEntity
  8
1
  6
CONTINUOUS
 62
     7
100
AcDbLine
 10
70.578833
 20
-774.550917
 30
0.0
 11
85.578833
 21
-774.550917
 31
0.0
  0
LINE
  5
9D
100
AcDbEntity
  8
1
  6
CONTINUOUS
 62
     7
100
AcDbLine
 10
88.578833
 20
-774.550917
 30
0.0
 11
92.578833
 21
-774.550917
 31
0.0
  0
LINE
  5
9E
100
AcDbEntity
  8
1
  6
CONTINUOUS
 62
     7
100
AcDbLine
 10
95.578833
 20
-774.550917
 30
0.0
 11
115.578833
 21
-774.550917
 31
0.0
  0
LINE
  5
9F
100
AcDbEntity
  8
1
  6
CONTINUOUS
 62
     7
100
AcDbLine
 10
50.578833
 20
-766.550917
 30
0.0
 11
50.578833
 21
-762.550917
 31
0.0
  0
LINE
  5
A0
100
AcDbEntity
  8
1
  6
CONTINUOUS
 62
     7
100
AcDbLine
 10
50.578833
 20
-769.550917
 30
0.0
 11
50.578833
 21
-804.550917
 31
0.0
  0
CIRCLE
  5
A1
100
AcDbEntity
  8
1
  6
CONTINUOUS
 62
   212
100
AcDbCircle
 10
50.578833
 20
-751.550917
 30
0.0
 40
0.75
210
0.0
220
0.0
230
1.0
  0
CIRCLE
  5
A2
100
AcDbEntity
  8
1
  6
CONTINUOUS
 62
   212
100
AcDbCircle
 10
50.578833
 20
-797.550917
 30
0.0
 40
0.75
210
0.0
220
0.0
230
1.0
  0
LINE
  5
A3
100
AcDbEntity
  8
1
  6
CONTINUOUS
 62
     7
100
AcDbLine
 10
48.828833
 20
-797.550917
 30
0.0
 11
52.328833
 21
-797.550917
 31
0.0
  0
LINE
  5
A4
100
AcDbEntity
  8
1
  6
CONTINUOUS
 62
     7
100
AcDbLine
 10
50.578833
 20
-736.087333
 30
0.0
 11
50.578833
 21
-744.550917
 31
0.0
  0
LINE
  5
A5
100
AcDbEntity
  8
1
  6
CONTINUOUS
 62
     7
100
AcDbLine
 10
50.578833
 20
-744.550917
 30
0.0
 11
50.578833
 21
-759.550917
 31
0.0
  0
LINE
  5
A6
100
AcDbEntity
  8
1
  6
CONTINUOUS
 62
     7
100
AcDbLine
 10
48.892917
 20
-751.376083
 30
0.0
 11
52.392917
 21
-751.376083
 31
0.0
  0
LINE
  5
A7
100
AcDbEntity
  8
1
  6
CONTINUOUS
 62
     7
100
AcDbLine
 10
45.892917
 20
-751.376083
 30
0.0
 11
40.892917
 21
-751.376083
 31
0.0
  0
LINE
  5
A8
100
AcDbEntity
  8
1
  6
CONTINUOUS
 62
     7
100
AcDbLine
 10
45.828833
 20
-797.550917
 30
0.0
 11
40.828833
 21
-797.550917
 31
0.0
  0
LINE
  5
A9
100
AcDbEntity
  8
1
  6
DASHED
 62
   212
100
AcDbLine
 10
47.642917
 20
-748.376083
 30
0.0
 11
53.642917
 21
-748.376083
 31
0.0
  0
LINE
  5
AA
100
AcDbEntity
  8
1
  6
DASHED
 62
   212
100
AcDbLine
 10
47.642917
 20
-748.376083
 30
0.0
 11
47.642917
 21
-804.550917
 31
0.0
  0
LINE
  5
AB
100
AcDbEntity
  8
1
  6
DASHED
 62
   212
100
AcDbLine
 10
53.642917
 20
-748.376083
 30
0.0
 11
53.642917
 21
-804.550917
 31
0.0
  0
LINE
  5
AC
100
AcDbEntity
  8
1
  6
DASHED
 62
   212
100
AcDbLine
 10
49.142917
 20
-748.376083
 30
0.0
 11
49.142917
 21
-804.550917
 31
0.0
  0
LINE
  5
AD
100
AcDbEntity
  8
1
  6
DASHED
 62
   212
100
AcDbLine
 10
52.142917
 20
-748.376083
 30
0.0
 11
52.142917
 21
-804.550917
 31
0.0
  0
LINE
  5
AE
100
AcDbEntity
  8
1
  6
CONTINUOUS
 62
   212
100
AcDbLine
 10
47.642917
 20
-804.550917
 30
0.0
 11
47.642917
 21
-818.550917
 31
0.0
  0
LINE
  5
AF
100
AcDbEntity
  8
1
  6
CONTINUOUS
 62
   212
100
AcDbLine
 10
49.142917
 20
-804.550917
 30
0.0
 11
49.142917
 21
-818.550917
 31
0.0
  0
LINE
  5
B0
100
AcDbEntity
  8
1
  6
CONTINUOUS
 62
   212
100
AcDbLine
 10
52.142917
 20
-804.550917
 30
0.0
 11
52.142917
 21
-818.550917
 31
0.0
  0
LINE
  5
B1
100
AcDbEntity
  8
1
  6
CONTINUOUS
 62
   212
100
AcDbLine
 10
53.642917
 20
-804.550917
 30
0.0
 11
53.642917
 21
-818.550917
 31
0.0
  0
LINE
  5
B2
100
AcDbEntity
  8
1
  6
CONTINUOUS
 62
   212
100
AcDbLine
 10
20.578833
 20
-831.550917
 30
0.0
 11
80.578833
 21
-831.550917
 31
0.0
  0
LINE
  5
B3
100
AcDbEntity
  8
1
  6
CONTINUOUS
 62
   212
100
AcDbLine
 10
20.578833
 20
-832.550917
 30
0.0
 11
80.578833
 21
-832.550917
 31
0.0
  0
LINE
  5
B4
100
AcDbEntity
  8
1
  6
CONTINUOUS
 62
   212
100
AcDbLine
 10
20.578833
 20
-831.550917
 30
0.0
 11
20.578833
 21
-832.550917
 31
0.0
  0
LINE
  5
B5
100
AcDbEntity
  8
1
  6
CONTINUOUS
 62
   212
100
AcDbLine
 10
80.578833
 20
-831.550917
 30
0.0
 11
80.578833
 21
-832.550917
 31
0.0
  0
LINE
  5
B6
100
AcDbEntity
  8
1
  6
CONTINUOUS
 62
     7
100
AcDbLine
 10
50.578833
 20
-804.550917
 30
0.0
 11
50.578833
 21
-818.550917
 31
0.0
  0
LINE
  5
B7
100
AcDbEntity
  8
1
  6
CONTINUOUS
 62
     7
100
AcDbLine
 10
50.578833
 20
-823.050917
 30
0.0
 11
50.578833
 21
-838.550917
 31
0.0
  0
LINE
  5
B8
100
AcDbEntity
  8
1
  6
CONTINUOUS
 62
   212
100
AcDbLine
 10
47.578833
 20
-830.550917
 30
0.0
 11
47.578833
 21
-831.550917
 31
0.0
  0
LINE
  5
B9
100
AcDbEntity
  8
1
  6
CONTINUOUS
 62
   212
100
AcDbLine
 10
53.578833
 20
-830.550917
 30
0.0
 11
53.578833
 21
-831.550917
 31
0.0
  0
LINE
  5
BA
100
AcDbEntity
  8
1
  6
CONTINUOUS
 62
   212
100
AcDbLine
 10
47.578833
 20
-830.550917
 30
0.0
 11
48.828833
 21
-830.550917
 31
0.0
  0
LINE
  5
BB
100
AcDbEntity
  8
1
  6
CONTINUOUS
 62
   212
100
AcDbLine
 10
53.578833
 20
-830.550917
 30
0.0
 11
52.328833
 21
-830.550917
 31
0.0
  0
LINE
  5
BC
100
AcDbEntity
  8
1
  6
CONTINUOUS
 62
   212
100
AcDbLine
 10
49.078833
 20
-827.550917
 30
0.0
 11
52.078833
 21
-827.550917
 31
0.0
  0
LINE
  5
BD
100
AcDbEntity
  8
1
  6
CONTINUOUS
 62
   212
100
AcDbLine
 10
49.078833
 20
-827.550917
 30
0.0
 11
48.828833
 21
-830.550917
 31
0.0
  0
LINE
  5
BE
100
AcDbEntity
  8
1
  6
CONTINUOUS
 62
   212
100
AcDbLine
 10
52.078833
 20
-827.550917
 30
0.0
 11
52.328833
 21
-830.550917
 31
0.0
  0
LINE
  5
BF
100
AcDbEntity
  8
1
  6
CONTINUOUS
 62
   212
100
AcDbLine
 10
49.768833
 20
-828.300917
 30
0.0
 11
51.388667
 21
-828.300917
 31
0.0
  0
LINE
  5
C0
100
AcDbEntity
  8
1
  6
CONTINUOUS
 62
   212
100
AcDbLine
 10
49.768833
 20
-828.300917
 30
0.0
 11
49.498
 21
-831.550917
 31
0.0
  0
LINE
  5
C1
100
AcDbEntity
  8
1
  6
CONTINUOUS
 62
   212
100
AcDbLine
 10
51.388667
 20
-828.300917
 30
0.0
 11
51.6595
 21
-831.550917
 31
0.0
  0
LINE
  5
C2
100
AcDbEntity
  8
1
  6
CONTINUOUS
 62
   212
100
AcDbLine
 10
49.602167
 20
-833.300917
 30
0.0
 11
51.555333
 21
-833.300917
 31
0.0
  0
LINE
  5
C3
100
AcDbEntity
  8
1
  6
CONTINUOUS
 62
   212
100
AcDbLine
 10
49.602167
 20
-833.300917
 30
0.0
 11
49.602167
 21
-832.550917
 31
0.0
  0
LINE
  5
C4
100
AcDbEntity
  8
1
  6
CONTINUOUS
 62
   212
100
AcDbLine
 10
51.555333
 20
-833.300917
 30
0.0
 11
51.555333
 21
-832.550917
 31
0.0
  0
LINE
  5
C5
100
AcDbEntity
  8
1
  6
CONTINUOUS
 62
   212
100
AcDbLine
 10
49.602167
 20
-826.785917
 30
0.0
 11
51.555333
 21
-826.785917
 31
0.0
  0
LINE
  5
C6
100
AcDbEntity
  8
1
  6
CONTINUOUS
 62
   212
100
AcDbLine
 10
49.602167
 20
-826.785917
 30
0.0
 11
49.602167
 21
-827.535917
 31
0.0
  0
LINE
  5
C7
100
AcDbEntity
  8
1
  6
CONTINUOUS
 62
   212
100
AcDbLine
 10
51.555333
 20
-826.785917
 30
0.0
 11
51.555333
 21
-827.535917
 31
0.0
  0
LINE
  5
C8
100
AcDbEntity
  8
1
  6
CONTINUOUS
 62
   212
100
AcDbLine
 10
50.102167
 20
-825.785917
 30
0.0
 11
50.102167
 21
-826.785917
 31
0.0
  0
LINE
  5
C9
100
AcDbEntity
  8
1
  6
CONTINUOUS
 62
   212
100
AcDbLine
 10
51.055333
 20
-825.785917
 30
0.0
 11
51.055333
 21
-826.785917
 31
0.0
  0
LINE
  5
CA
100
AcDbEntity
  8
1
  6
CONTINUOUS
 62
   212
100
AcDbLine
 10
50.102167
 20
-825.785917
 30
0.0
 11
51.055333
 21
-825.785917
 31
0.0
  0
LINE
  5
CB
100
AcDbEntity
  8
1
  6
CONTINUOUS
 62
   212
100
AcDbLine
 10
50.102167
 20
-828.300917
 30
0.0
 11
50.102167
 21
-831.550917
 31
0.0
  0
LINE
  5
CC
100
AcDbEntity
  8
1
  6
CONTINUOUS
 62
   212
100
AcDbLine
 10
51.055333
 20
-828.300917
 30
0.0
 11
51.055333
 21
-831.550917
 31
0.0
  0
LINE
  5
CD
100
AcDbEntity
  8
1
  6
CONTINUOUS
 62
   212
100
AcDbLine
 10
97.578833
 20
-803.550917
 30
0.0
 11
97.578833
 21
-744.550917
 31
0.0
  0
LINE
  5
CE
100
AcDbEntity
  8
1
  6
CONTINUOUS
 62
   212
100
AcDbLine
 10
98.578833
 20
-814.550917
 30
0.0
 11
98.578833
 21
-744.550917
 31
0.0
  0
LINE
  5
CF
100
AcDbEntity
  8
1
  6
CONTINUOUS
 62
   212
100
AcDbLine
 10
97.578833
 20
-744.550917
 30
0.0
 11
98.578833
 21
-744.550917
 31
0.0
  0
LINE
  5
D0
100
AcDbEntity
  8
1
  6
CONTINUOUS
 62
   212
100
AcDbLine
 10
99.578833
 20
-814.550917
 30
0.0
 11
99.578833
 21
-749.550917
 31
0.0
  0
LINE
  5
D1
100
AcDbEntity
  8
1
  6
CONTINUOUS
 62
   212
100
AcDbLine
 10
101.578833
 20
-814.550917
 30
0.0
 11
101.578833
 21
-749.550917
 31
0.0
  0
LINE
  5
D2
100
AcDbEntity
  8
1
  6
HIDDEN
 62
   212
100
AcDbLine
 10
101.078833
 20
-814.550917
 30
0.0
 11
101.078833
 21
-749.550917
 31
0.0
  0
LINE
  5
D3
100
AcDbEntity
  8
1
  6
CONTINUOUS
 62
   212
100
AcDbLine
 10
101.578833
 20
-749.550917
 30
0.0
 11
98.578833
 21
-749.550917
 31
0.0
  0
LINE
  5
D4
100
AcDbEntity
  8
1
  6
CONTINUOUS
 62
   212
100
AcDbLine
 10
97.578833
 20
-803.550917
 30
0.0
 11
98.578833
 21
-803.550917
 31
0.0
  0
LINE
  5
D5
100
AcDbEntity
  8
1
  6
CONTINUOUS
 62
   212
100
AcDbLine
 10
96.578833
 20
-798.550917
 30
0.0
 11
97.578833
 21
-798.550917
 31
0.0
  0
LINE
  5
D6
100
AcDbEntity
  8
1
  6
CONTINUOUS
 62
   212
100
AcDbLine
 10
96.578833
 20
-796.550917
 30
0.0
 11
97.578833
 21
-796.550917
 31
0.0
  0
LINE
  5
D7
100
AcDbEntity
  8
1
  6
CONTINUOUS
 62
   212
100
AcDbLine
 10
96.578833
 20
-796.550917
 30
0.0
 11
96.578833
 21
-798.550917
 31
0.0
  0
LINE
  5
D8
100
AcDbEntity
  8
1
  6
CONTINUOUS
 62
   212
100
AcDbLine
 10
102.578833
 20
-796.550917
 30
0.0
 11
102.578833
 21
-798.550917
 31
0.0
  0
LINE
  5
D9
100
AcDbEntity
  8
1
  6
CONTINUOUS
 62
   212
100
AcDbLine
 10
102.578833
 20
-798.550917
 30
0.0
 11
101.578833
 21
-798.550917
 31
0.0
  0
LINE
  5
DA
100
AcDbEntity
  8
1
  6
CONTINUOUS
 62
   212
100
AcDbLine
 10
102.578833
 20
-796.550917
 30
0.0
 11
101.578833
 21
-796.550917
 31
0.0
  0
LINE
  5
DB
100
AcDbEntity
  8
1
  6
HIDDEN
 62
   212
100
AcDbLine
 10
98.578833
 20
-797.050917
 30
0.0
 11
101.078833
 21
-797.050917
 31
0.0
  0
LINE
  5
DC
100
AcDbEntity
  8
1
  6
CONTINUOUS
 62
   212
100
AcDbLine
 10
102.578833
 20
-797.050917
 30
0.0
 11
103.578833
 21
-797.050917
 31
0.0
  0
LINE
  5
DD
100
AcDbEntity
  8
1
  6
HIDDEN
 62
   212
100
AcDbLine
 10
98.578833
 20
-798.050917
 30
0.0
 11
101.078833
 21
-798.050917
 31
0.0
  0
LINE
  5
DE
100
AcDbEntity
  8
1
  6
CONTINUOUS
 62
   212
100
AcDbLine
 10
102.578833
 20
-798.050917
 30
0.0
 11
103.578833
 21
-798.050917
 31
0.0
  0
LINE
  5
DF
100
AcDbEntity
  8
1
  6
CONTINUOUS
 62
   212
100
AcDbLine
 10
103.578833
 20
-797.050917
 30
0.0
 11
103.578833
 21
-798.050917
 31
0.0
  0
LINE
  5
E0
100
AcDbEntity
  8
1
  6
CONTINUOUS
 62
     7
100
AcDbLine
 10
105.578833
 20
-797.550917
 30
0.0
 11
92.578833
 21
-797.550917
 31
0.0
  0
LINE
  5
E1
100
AcDbEntity
  8
1
  6
CONTINUOUS
 62
     7
100
AcDbLine
 10
105.578833
 20
-751.550917
 30
0.0
 11
92.578833
 21
-751.550917
 31
0.0
  0
LINE
  5
E2
100
AcDbEntity
  8
1
  6
CONTINUOUS
 62
   212
100
AcDbLine
 10
96.578833
 20
-750.550917
 30
0.0
 11
97.578833
 21
-750.550917
 31
0.0
  0
LINE
  5
E3
100
AcDbEntity
  8
1
  6
CONTINUOUS
 62
   212
100
AcDbLine
 10
96.578833
 20
-752.550917
 30
0.0
 11
97.578833
 21
-752.550917
 31
0.0
  0
LINE
  5
E4
100
AcDbEntity
  8
1
  6
CONTINUOUS
 62
   212
100
AcDbLine
 10
96.578833
 20
-752.550917
 30
0.0
 11
96.578833
 21
-750.550917
 31
0.0
  0
LINE
  5
E5
100
AcDbEntity
  8
1
  6
CONTINUOUS
 62
   212
100
AcDbLine
 10
102.578833
 20
-752.550917
 30
0.0
 11
102.578833
 21
-750.550917
 31
0.0
  0
LINE
  5
E6
100
AcDbEntity
  8
1
  6
CONTINUOUS
 62
   212
100
AcDbLine
 10
102.578833
 20
-750.550917
 30
0.0
 11
101.578833
 21
-750.550917
 31
0.0
  0
LINE
  5
E7
100
AcDbEntity
  8
1
  6
CONTINUOUS
 62
   212
100
AcDbLine
 10
102.578833
 20
-752.550917
 30
0.0
 11
101.578833
 21
-752.550917
 31
0.0
  0
LINE
  5
E8
100
AcDbEntity
  8
1
  6
HIDDEN
 62
   212
100
AcDbLine
 10
98.578833
 20
-752.050917
 30
0.0
 11
101.078833
 21
-752.050917
 31
0.0
  0
LINE
  5
E9
100
AcDbEntity
  8
1
  6
CONTINUOUS
 62
   212
100
AcDbLine
 10
102.578833
 20
-752.050917
 30
0.0
 11
103.578833
 21
-752.050917
 31
0.0
  0
LINE
  5
EA
100
AcDbEntity
  8
1
  6
HIDDEN
 62
   212
100
AcDbLine
 10
98.578833
 20
-751.050917
 30
0.0
 11
101.078833
 21
-751.050917
 31
0.0
  0
LINE
  5
EB
100
AcDbEntity
  8
1
  6
CONTINUOUS
 62
   212
100
AcDbLine
 10
102.578833
 20
-751.050917
 30
0.0
 11
103.578833
 21
-751.050917
 31
0.0
  0
LINE
  5
EC
100
AcDbEntity
  8
1
  6
CONTINUOUS
 62
   212
100
AcDbLine
 10
103.578833
 20
-752.050917
 30
0.0
 11
103.578833
 21
-751.050917
 31
0.0
  0
LINE
  5
ED
100
AcDbEntity
  8
1
  6
CONTINUOUS
 62
     7
100
AcDbLine
 10
99.578833
 20
-744.550917
 30
0.0
 11
115.578833
 21
-744.550917
 31
0.0
  0
LINE
  5
EE
100
AcDbEntity
  8
1
  6
CONTINUOUS
 62
     7
100
AcDbLine
 10
102.578833
 20
-749.550917
 30
0.0
 11
115.578833
 21
-749.550917
 31
0.0
  0
LINE
  5
EF
100
AcDbEntity
  8
1
  6
CONTINUOUS
 62
     7
100
AcDbLine
 10
114.578833
 20
-739.550917
 30
0.0
 11
114.578833
 21
-744.550917
 31
0.0
  0
LINE
  5
F0
100
AcDbEntity
  8
1
  6
CONTINUOUS
 62
     7
100
AcDbLine
 10
114.578833
 20
-749.550917
 30
0.0
 11
114.578833
 21
-754.550917
 31
0.0
  0
LINE
  5
F1
100
AcDbEntity
  8
1
  6
CONTINUOUS
 62
     7
100
AcDbLine
 10
97.578833
 20
-746.9735
 30
0.0
 11
87.5875
 21
-746.9735
 31
0.0
  0
LINE
  5
F2
100
AcDbEntity
  8
1
  6
CONTINUOUS
 62
     7
100
AcDbLine
 10
65.813583
 20
-832.550917
 30
0.0
 11
65.813583
 21
-842.561917
 31
0.0
  0
INSERT
  5
F8
100
AcDbEntity
  8
1
  6
CONTINUOUS
 62
     1
100
AcDbBlockReference
  2
LDR
 10
89.00525
 20
-662.550917
 30
0.0
 41
240.0
 42
240.0
 50
90.0
210
0.0
220
0.0
230
1.0
  0
INSERT
  5
F9
100
AcDbEntity
  8
1
  6
CONTINUOUS
 62
     1
100
AcDbBlockReference
  2
LDR
 10
89.00525
 20
-662.550917
 30
0.0
 41
240.0
 42
240.0
 50
90.0
210
0.0
220
0.0
230
1.0
  0
INSERT
  5
FA
100
AcDbEntity
  8
1
  6
CONTINUOUS
 62
     1
100
AcDbBlockReference
  2
LDR
 10
89.00525
 20
-685.550917
 30
0.0
 41
240.0
 42
240.0
 50
270.0
210
0.0
220
0.0
230
1.0
  0
INSERT
  5
FB
100
AcDbEntity
  8
1
  6
CONTINUOUS
 62
     1
100
AcDbBlockReference
  2
LDR
 10
89.00525
 20
-685.550917
 30
0.0
 41
240.0
 42
240.0
 50
270.0
210
0.0
220
0.0
230
1.0
  0
INSERT
  5
FC
100
AcDbEntity
  8
1
  6
CONTINUOUS
 62
     1
100
AcDbBlockReference
  2
LDR
 10
89.00525
 20
-685.550917
 30
0.0
 41
240.0
 42
240.0
 50
90.0
210
0.0
220
0.0
230
1.0
  0
INSERT
  5
FD
100
AcDbEntity
  8
1
  6
CONTINUOUS
 62
     1
100
AcDbBlockReference
  2
LDR
 10
89.00525
 20
-685.550917
 30
0.0
 41
240.0
 42
240.0
 50
90.0
210
0.0
220
0.0
230
1.0
  0
INSERT
  5
FE
100
AcDbEntity
  8
1
  6
CONTINUOUS
 62
     1
100
AcDbBlockReference
  2
LDR
 10
89.00525
 20
-708.550917
 30
0.0
 41
240.0
 42
240.0
 50
270.0
210
0.0
220
0.0
230
1.0
  0
INSERT
  5
FF
100
AcDbEntity
  8
1
  6
CONTINUOUS
 62
     1
100
AcDbBlockReference
  2
LDR
 10
89.00525
 20
-708.550917
 30
0.0
 41
240.0
 42
240.0
 50
270.0
210
0.0
220
0.0
230
1.0
  0
INSERT
  5
100
100
AcDbEntity
  8
1
  6
CONTINUOUS
 62
     1
100
AcDbBlockReference
  2
LDR
 10
20.578833
 20
-724.977333
 30
0.0
 41
240.0
 42
240.0
 50
180.0
210
0.0
220
0.0
230
1.0
  0
INSERT
  5
101
100
AcDbEntity
  8
1
  6
CONTINUOUS
 62
     1
100
AcDbBlockReference
  2
LDR
 10
20.578833
 20
-724.977333
 30
0.0
 41
240.0
 42
240.0
 50
180.0
210
0.0
220
0.0
230
1.0
  0
INSERT
  5
102
100
AcDbEntity
  8
1
  6
CONTINUOUS
 62
     1
100
AcDbBlockReference
  2
LDR
 10
50.578833
 20
-724.977333
 30
0.0
 41
240.0
 42
240.0
210
0.0
220
0.0
230
1.0
  0
INSERT
  5
103
100
AcDbEntity
  8
1
  6
CONTINUOUS
 62
     1
100
AcDbBlockReference
  2
LDR
 10
114.578833
 20
-744.550917
 30
0.0
 41
240.0
 42
240.0
 50
270.0
210
0.0
220
0.0
230
1.0
  0
INSERT
  5
104
100
AcDbEntity
  8
1
  6
CONTINUOUS
 62
     1
100
AcDbBlockReference
  2
LDR
 10
114.578833
 20
-744.550917
 30
0.0
 41
240.0
 42
240.0
 50
270.0
210
0.0
220
0.0
230
1.0
  0
INSERT
  5
105
100
AcDbEntity
  8
1
  6
CONTINUOUS
 62
     1
100
AcDbBlockReference
  2
LDR
 10
114.578833
 20
-749.550917
 30
0.0
 41
240.0
 42
240.0
 50
90.0
210
0.0
220
0.0
230
1.0
  0
INSERT
  5
106
100
AcDbEntity
  8
1
  6
CONTINUOUS
 62
     1
100
AcDbBlockReference
  2
LDR
 10
97.578833
 20
-746.9735
 30
0.0
 41
240.0
 42
240.0
210
0.0
220
0.0
230
1.0
  0
INSERT
  5
107
100
AcDbEntity
  8
1
  6
CONTINUOUS
 62
     1
100
AcDbBlockReference
  2
LDR
 10
97.578833
 20
-746.9735
 30
0.0
 41
240.0
 42
240.0
210
0.0
220
0.0
230
1.0
  0
INSERT
  5
108
100
AcDbEntity
  8
1
  6
CONTINUOUS
 62
     1
100
AcDbBlockReference
  2
LDR
 10
65.813583
 20
-832.550917
 30
0.0
 41
240.0
 42
240.0
 50
90.0
210
0.0
220
0.0
230
1.0
  0
LWPOLYLINE
  5
109
100
AcDbEntity
  8
1
  6
CONTINUOUS
 62
   212
100
AcDbPolyline
 90
        8
 70
     1
 10
237.578833
 20
-697.977333
 10
237.578833
 20
-673.1245
 10
220.00525
 20
-655.550917
 10
195.152417
 20
-655.550917
 10
177.578833
 20
-673.1245
 10
177.578833
 20
-697.977333
 10
195.152417
 20
-715.550917
 10
220.00525
 20
-715.550917
  0
LINE
  5
10A
100
AcDbEntity
  8
1
  6
CONTINUOUS
 62
     7
100
AcDbLine
 10
220.828833
 20
-670.550917
 30
0.0
 11
224.328833
 21
-670.550917
 31
0.0
  0
LINE
  5
10B
100
AcDbEntity
  8
1
  6
CONTINUOUS
 62
     7
100
AcDbLine
 10
194.328833
 20
-670.550917
 30
0.0
 11
190.828833
 21
-670.550917
 31
0.0
  0
LINE
  5
10C
100
AcDbEntity
  8
1
  6
CONTINUOUS
 62
     7
100
AcDbLine
 10
197.578833
 20
-685.550917
 30
0.0
 11
217.578833
 21
-685.550917
 31
0.0
  0
LINE
  5
10D
100
AcDbEntity
  8
1
  6
CONTINUOUS
 62
     7
100
AcDbLine
 10
247.00525
 20
-685.550917
 30
0.0
 11
227.578833
 21
-685.550917
 31
0.0
  0
LINE
  5
10E
100
AcDbEntity
  8
1
  6
CONTINUOUS
 62
     7
100
AcDbLine
 10
220.578833
 20
-685.550917
 30
0.0
 11
224.578833
 21
-685.550917
 31
0.0
  0
LINE
  5
10F
100
AcDbEntity
  8
1
  6
CONTINUOUS
 62
     7
100
AcDbLine
 10
167.578833
 20
-685.550917
 30
0.0
 11
187.578833
 21
-685.550917
 31
0.0
  0
LINE
  5
110
100
AcDbEntity
  8
1
  6
CONTINUOUS
 62
     7
100
AcDbLine
 10
190.578833
 20
-685.550917
 30
0.0
 11
194.578833
 21
-685.550917
 31
0.0
  0
LINE
  5
111
100
AcDbEntity
  8
1
  6
CONTINUOUS
 62
     7
100
AcDbLine
 10
246.00525
 20
-670.550917
 30
0.0
 11
246.00525
 21
-685.550917
 31
0.0
  0
LINE
  5
112
100
AcDbEntity
  8
1
  6
CONTINUOUS
 62
     7
100
AcDbLine
 10
246.00525
 20
-685.550917
 30
0.0
 11
246.00525
 21
-700.550917
 31
0.0
  0
LWPOLYLINE
  5
113
100
AcDbEntity
  8
1
  6
CONTINUOUS
 62
   212
100
AcDbPolyline
 90
        8
 70
     1
 10
237.578833
 20
-786.977333
 10
237.578833
 20
-762.1245
 10
220.00525
 20
-744.550917
 10
195.152417
 20
-744.550917
 10
177.578833
 20
-762.1245
 10
177.578833
 20
-786.977333
 10
195.152417
 20
-804.550917
 10
220.00525
 20
-804.550917
  0
LINE
  5
114
100
AcDbEntity
  8
1
  6
CONTINUOUS
 62
     7
100
AcDbLine
 10
207.578833
 20
-715.550917
 30
0.0
 11
207.578833
 21
-727.979167
 31
0.0
  0
LINE
  5
115
100
AcDbEntity
  8
1
  6
CONTINUOUS
 62
   212
100
AcDbLine
 10
177.578833
 20
-831.550917
 30
0.0
 11
237.578833
 21
-831.550917
 31
0.0
  0
LINE
  5
116
100
AcDbEntity
  8
1
  6
CONTINUOUS
 62
   212
100
AcDbLine
 10
177.578833
 20
-832.550917
 30
0.0
 11
237.578833
 21
-832.550917
 31
0.0
  0
LINE
  5
117
100
AcDbEntity
  8
1
  6
CONTINUOUS
 62
   212
100
AcDbLine
 10
177.578833
 20
-831.550917
 30
0.0
 11
177.578833
 21
-832.550917
 31
0.0
  0
LINE
  5
118
100
AcDbEntity
  8
1
  6
CONTINUOUS
 62
   212
100
AcDbLine
 10
254.578833
 20
-804.550917
 30
0.0
 11
254.578833
 21
-744.550917
 31
0.0
  0
LINE
  5
119
100
AcDbEntity
  8
1
  6
CONTINUOUS
 62
   212
100
AcDbLine
 10
255.578833
 20
-804.550917
 30
0.0
 11
255.578833
 21
-744.550917
 31
0.0
  0
LINE
  5
11A
100
AcDbEntity
  8
1
  6
CONTINUOUS
 62
   212
100
AcDbLine
 10
254.578833
 20
-744.550917
 30
0.0
 11
255.578833
 21
-744.550917
 31
0.0
  0
LINE
  5
11B
100
AcDbEntity
  8
1
  6
CONTINUOUS
 62
   212
100
AcDbLine
 10
254.578833
 20
-804.550917
 30
0.0
 11
255.578833
 21
-804.550917
 31
0.0
  0
LINE
  5
11C
100
AcDbEntity
  8
1
  6
CONTINUOUS
 62
   212
100
AcDbLine
 10
253.578833
 20
-759.550917
 30
0.0
 11
254.578833
 21
-759.550917
 31
0.0
  0
LINE
  5
11D
100
AcDbEntity
  8
1
  6
CONTINUOUS
 62
   212
100
AcDbLine
 10
253.578833
 20
-761.550917
 30
0.0
 11
254.578833
 21
-761.550917
 31
0.0
  0
LINE
  5
11E
100
AcDbEntity
  8
1
  6
CONTINUOUS
 62
   212
100
AcDbLine
 10
253.578833
 20
-761.550917
 30
0.0
 11
253.578833
 21
-759.550917
 31
0.0
  0
LINE
  5
11F
100
AcDbEntity
  8
1
  6
CONTINUOUS
 62
   212
100
AcDbLine
 10
257.078833
 20
-761.550917
 30
0.0
 11
257.078833
 21
-759.550917
 31
0.0
  0
LINE
  5
120
100
AcDbEntity
  8
1
  6
CONTINUOUS
 62
   212
100
AcDbLine
 10
257.078833
 20
-759.550917
 30
0.0
 11
256.078833
 21
-759.550917
 31
0.0
  0
LINE
  5
121
100
AcDbEntity
  8
1
  6
CONTINUOUS
 62
   212
100
AcDbLine
 10
261.078833
 20
-761.550917
 30
0.0
 11
256.078833
 21
-761.550917
 31
0.0
  0
LINE
  5
122
100
AcDbEntity
  8
1
  6
CONTINUOUS
 62
   212
100
AcDbLine
 10
256.078833
 20
-761.050917
 30
0.0
 11
258.078833
 21
-761.050917
 31
0.0
  0
LINE
  5
123
100
AcDbEntity
  8
1
  6
CONTINUOUS
 62
   212
100
AcDbLine
 10
256.078833
 20
-760.050917
 30
0.0
 11
258.078833
 21
-760.050917
 31
0.0
  0
LINE
  5
124
100
AcDbEntity
  8
1
  6
CONTINUOUS
 62
   212
100
AcDbLine
 10
258.078833
 20
-761.050917
 30
0.0
 11
258.078833
 21
-760.050917
 31
0.0
  0
LINE
  5
125
100
AcDbEntity
  8
1
  6
CONTINUOUS
 62
     7
100
AcDbLine
 10
254.578833
 20
-746.9735
 30
0.0
 11
244.5875
 21
-746.9735
 31
0.0
  0
LINE
  5
126
100
AcDbEntity
  8
1
  6
CONTINUOUS
 62
     7
100
AcDbLine
 10
210.882417
 20
-832.550917
 30
0.0
 11
210.882417
 21
-842.561917
 31
0.0
  0
INSERT
  5
127
100
AcDbEntity
  8
1
  6
CONTINUOUS
 62
     1
100
AcDbBlockReference
  2
LDR
 10
246.00525
 20
-685.550917
 30
0.0
 41
240.0
 42
240.0
 50
270.0
210
0.0
220
0.0
230
1.0
  0
INSERT
  5
128
100
AcDbEntity
  8
1
  6
CONTINUOUS
 62
     1
100
AcDbBlockReference
  2
LDR
 10
246.00525
 20
-685.550917
 30
0.0
 41
240.0
 42
240.0
 50
270.0
210
0.0
220
0.0
230
1.0
  0
INSERT
  5
129
100
AcDbEntity
  8
1
  6
CONTINUOUS
 62
     1
100
AcDbBlockReference
  2
LDR
 10
246.00525
 20
-685.550917
 30
0.0
 41
240.0
 42
240.0
 50
90.0
210
0.0
220
0.0
230
1.0
  0
INSERT
  5
12A
100
AcDbEntity
  8
1
  6
CONTINUOUS
 62
     1
100
AcDbBlockReference
  2
LDR
 10
246.00525
 20
-685.550917
 30
0.0
 41
240.0
 42
240.0
 50
90.0
210
0.0
220
0.0
230
1.0
  0
INSERT
  5
12B
100
AcDbEntity
  8
1
  6
CONTINUOUS
 62
     1
100
AcDbBlockReference
  2
LDR
 10
254.578833
 20
-746.9735
 30
0.0
 41
240.0
 42
240.0
210
0.0
220
0.0
230
1.0
  0
INSERT
  5
12C
100
AcDbEntity
  8
1
  6
CONTINUOUS
 62
     1
100
AcDbBlockReference
  2
LDR
 10
254.578833
 20
-746.9735
 30
0.0
 41
240.0
 42
240.0
210
0.0
220
0.0
230
1.0
  0
INSERT
  5
12D
100
AcDbEntity
  8
1
  6
CONTINUOUS
 62
     1
100
AcDbBlockReference
  2
LDR
 10
210.882417
 20
-832.550917
 30
0.0
 41
240.0
 42
240.0
 50
90.0
210
0.0
220
0.0
230
1.0
  0
CIRCLE
  5
12E
100
AcDbEntity
  8
1
  6
CONTINUOUS
 62
   212
100
AcDbCircle
 10
192.578833
 20
-670.550917
 30
0.0
 40
0.75
210
0.0
220
0.0
230
1.0
  0
CIRCLE
  5
12F
100
AcDbEntity
  8
1
  6
CONTINUOUS
 62
   212
100
AcDbCircle
 10
222.578833
 20
-670.550917
 30
0.0
 40
0.75
210
0.0
220
0.0
230
1.0
  0
CIRCLE
  5
130
100
AcDbEntity
  8
1
  6
CONTINUOUS
 62
   212
100
AcDbCircle
 10
192.578833
 20
-700.550917
 30
0.0
 40
0.75
210
0.0
220
0.0
230
1.0
  0
CIRCLE
  5
131
100
AcDbEntity
  8
1
  6
CONTINUOUS
 62
   212
100
AcDbCircle
 10
222.578833
 20
-700.550917
 30
0.0
 40
0.75
210
0.0
220
0.0
230
1.0
  0
LINE
  5
132
100
AcDbEntity
  8
1
  6
CONTINUOUS
 62
     7
100
AcDbLine
 10
192.578833
 20
-645.550917
 30
0.0
 11
192.578833
 21
-667.800917
 31
0.0
  0
LINE
  5
133
100
AcDbEntity
  8
1
  6
CONTINUOUS
 62
     7
100
AcDbLine
 10
192.578833
 20
-668.800917
 30
0.0
 11
192.578833
 21
-672.300917
 31
0.0
  0
LINE
  5
134
100
AcDbEntity
  8
1
  6
CONTINUOUS
 62
     7
100
AcDbLine
 10
222.578833
 20
-645.550917
 30
0.0
 11
222.578833
 21
-667.800917
 31
0.0
  0
LINE
  5
135
100
AcDbEntity
  8
1
  6
CONTINUOUS
 62
     7
100
AcDbLine
 10
222.578833
 20
-668.800917
 30
0.0
 11
222.578833
 21
-672.300917
 31
0.0
  0
LINE
  5
136
100
AcDbEntity
  8
1
  6
CONTINUOUS
 62
     7
100
AcDbLine
 10
195.328833
 20
-670.550917
 30
0.0
 11
197.328833
 21
-670.550917
 31
0.0
  0
LINE
  5
137
100
AcDbEntity
  8
1
  6
CONTINUOUS
 62
     7
100
AcDbLine
 10
189.828833
 20
-670.550917
 30
0.0
 11
187.828833
 21
-670.550917
 31
0.0
  0
LINE
  5
138
100
AcDbEntity
  8
1
  6
CONTINUOUS
 62
     7
100
AcDbLine
 10
192.578833
 20
-673.300917
 30
0.0
 11
192.578833
 21
-675.300917
 31
0.0
  0
LINE
  5
139
100
AcDbEntity
  8
1
  6
CONTINUOUS
 62
     7
100
AcDbLine
 10
225.328833
 20
-670.550917
 30
0.0
 11
247.00525
 21
-670.550917
 31
0.0
  0
LINE
  5
13A
100
AcDbEntity
  8
1
  6
CONTINUOUS
 62
     7
100
AcDbLine
 10
217.828833
 20
-670.550917
 30
0.0
 11
219.828833
 21
-670.550917
 31
0.0
  0
LINE
  5
13B
100
AcDbEntity
  8
1
  6
CONTINUOUS
 62
     7
100
AcDbLine
 10
222.578833
 20
-673.300917
 30
0.0
 11
222.578833
 21
-675.300917
 31
0.0
  0
LINE
  5
13C
100
AcDbEntity
  8
1
  6
CONTINUOUS
 62
     7
100
AcDbLine
 10
194.328833
 20
-700.550917
 30
0.0
 11
190.828833
 21
-700.550917
 31
0.0
  0
LINE
  5
13D
100
AcDbEntity
  8
1
  6
CONTINUOUS
 62
     7
100
AcDbLine
 10
220.828833
 20
-700.550917
 30
0.0
 11
224.328833
 21
-700.550917
 31
0.0
  0
LINE
  5
13E
100
AcDbEntity
  8
1
  6
CONTINUOUS
 62
     7
100
AcDbLine
 10
192.578833
 20
-698.800917
 30
0.0
 11
192.578833
 21
-702.300917
 31
0.0
  0
LINE
  5
13F
100
AcDbEntity
  8
1
  6
CONTINUOUS
 62
     7
100
AcDbLine
 10
222.578833
 20
-698.800917
 30
0.0
 11
222.578833
 21
-702.300917
 31
0.0
  0
LINE
  5
140
100
AcDbEntity
  8
1
  6
CONTINUOUS
 62
     7
100
AcDbLine
 10
195.328833
 20
-700.550917
 30
0.0
 11
197.328833
 21
-700.550917
 31
0.0
  0
LINE
  5
141
100
AcDbEntity
  8
1
  6
CONTINUOUS
 62
     7
100
AcDbLine
 10
189.828833
 20
-700.550917
 30
0.0
 11
187.828833
 21
-700.550917
 31
0.0
  0
LINE
  5
142
100
AcDbEntity
  8
1
  6
CONTINUOUS
 62
     7
100
AcDbLine
 10
192.578833
 20
-703.300917
 30
0.0
 11
192.578833
 21
-705.300917
 31
0.0
  0
LINE
  5
143
100
AcDbEntity
  8
1
  6
CONTINUOUS
 62
     7
100
AcDbLine
 10
225.328833
 20
-700.550917
 30
0.0
 11
247.00525
 21
-700.550917
 31
0.0
  0
LINE
  5
144
100
AcDbEntity
  8
1
  6
CONTINUOUS
 62
     7
100
AcDbLine
 10
217.828833
 20
-700.550917
 30
0.0
 11
219.828833
 21
-700.550917
 31
0.0
  0
LINE
  5
145
100
AcDbEntity
  8
1
  6
CONTINUOUS
 62
     7
100
AcDbLine
 10
222.578833
 20
-703.300917
 30
0.0
 11
222.578833
 21
-705.300917
 31
0.0
  0
LINE
  5
146
100
AcDbEntity
  8
1
  6
CONTINUOUS
 62
     7
100
AcDbLine
 10
192.578833
 20
-697.800917
 30
0.0
 11
192.578833
 21
-695.800917
 31
0.0
  0
LINE
  5
147
100
AcDbEntity
  8
1
  6
CONTINUOUS
 62
     7
100
AcDbLine
 10
222.578833
 20
-697.800917
 30
0.0
 11
222.578833
 21
-695.800917
 31
0.0
  0
INSERT
  5
148
100
AcDbEntity
  8
1
  6
CONTINUOUS
 62
     1
100
AcDbBlockReference
  2
LDR
 10
246.00525
 20
-670.550917
 30
0.0
 41
240.0
 42
240.0
 50
90.0
210
0.0
220
0.0
230
1.0
  0
INSERT
  5
149
100
AcDbEntity
  8
1
  6
CONTINUOUS
 62
     1
100
AcDbBlockReference
  2
LDR
 10
246.00525
 20
-670.550917
 30
0.0
 41
240.0
 42
240.0
 50
90.0
210
0.0
220
0.0
230
1.0
  0
INSERT
  5
14A
100
AcDbEntity
  8
1
  6
CONTINUOUS
 62
     1
100
AcDbBlockReference
  2
LDR
 10
246.00525
 20
-700.550917
 30
0.0
 41
240.0
 42
240.0
 50
270.0
210
0.0
220
0.0
230
1.0
  0
LINE
  5
14B
100
AcDbEntity
  8
1
  6
CONTINUOUS
 62
     7
100
AcDbLine
 10
192.578833
 20
-646.550917
 30
0.0
 11
207.578833
 21
-646.550917
 31
0.0
  0
LINE
  5
14C
100
AcDbEntity
  8
1
  6
CONTINUOUS
 62
     7
100
AcDbLine
 10
207.578833
 20
-646.550917
 30
0.0
 11
222.578833
 21
-646.550917
 31
0.0
  0
INSERT
  5
14D
100
AcDbEntity
  8
1
  6
CONTINUOUS
 62
     1
100
AcDbBlockReference
  2
LDR
 10
192.578833
 20
-646.550917
 30
0.0
 41
240.0
 42
240.0
 50
180.0
210
0.0
220
0.0
230
1.0
  0
INSERT
  5
14E
100
AcDbEntity
  8
1
  6
CONTINUOUS
 62
     1
100
AcDbBlockReference
  2
LDR
 10
192.578833
 20
-646.550917
 30
0.0
 41
240.0
 42
240.0
 50
180.0
210
0.0
220
0.0
230
1.0
  0
INSERT
  5
14F
100
AcDbEntity
  8
1
  6
CONTINUOUS
 62
     1
100
AcDbBlockReference
  2
LDR
 10
207.578833
 20
-646.550917
 30
0.0
 41
240.0
 42
240.0
210
0.0
220
0.0
230
1.0
  0
INSERT
  5
150
100
AcDbEntity
  8
1
  6
CONTINUOUS
 62
     1
100
AcDbBlockReference
  2
LDR
 10
207.578833
 20
-646.550917
 30
0.0
 41
240.0
 42
240.0
210
0.0
220
0.0
230
1.0
  0
INSERT
  5
151
100
AcDbEntity
  8
1
  6
CONTINUOUS
 62
     1
100
AcDbBlockReference
  2
LDR
 10
207.578833
 20
-646.550917
 30
0.0
 41
240.0
 42
240.0
 50
180.0
210
0.0
220
0.0
230
1.0
  0
INSERT
  5
152
100
AcDbEntity
  8
1
  6
CONTINUOUS
 62
     1
100
AcDbBlockReference
  2
LDR
 10
207.578833
 20
-646.550917
 30
0.0
 41
240.0
 42
240.0
 50
180.0
210
0.0
220
0.0
230
1.0
  0
INSERT
  5
153
100
AcDbEntity
  8
1
  6
CONTINUOUS
 62
     1
100
AcDbBlockReference
  2
LDR
 10
222.578833
 20
-646.550917
 30
0.0
 41
240.0
 42
240.0
210
0.0
220
0.0
230
1.0
  0
LINE
  5
154
100
AcDbEntity
  8
1
  6
CONTINUOUS
 62
     7
100
AcDbLine
 10
207.578833
 20
-668.800917
 30
0.0
 11
207.578833
 21
-672.300917
 31
0.0
  0
LINE
  5
155
100
AcDbEntity
  8
1
  6
CONTINUOUS
 62
     7
100
AcDbLine
 10
207.578833
 20
-675.300917
 30
0.0
 11
207.578833
 21
-685.550917
 31
0.0
  0
LINE
  5
156
100
AcDbEntity
  8
1
  6
CONTINUOUS
 62
     7
100
AcDbLine
 10
207.578833
 20
-645.550917
 30
0.0
 11
207.578833
 21
-655.550917
 31
0.0
  0
LINE
  5
157
100
AcDbEntity
  8
1
  6
CONTINUOUS
 62
     7
100
AcDbLine
 10
207.578833
 20
-655.550917
 30
0.0
 11
207.578833
 21
-665.800917
 31
0.0
  0
LINE
  5
158
100
AcDbEntity
  8
1
  6
CONTINUOUS
 62
     7
100
AcDbLine
 10
207.578833
 20
-715.550917
 30
0.0
 11
207.578833
 21
-705.300917
 31
0.0
  0
LINE
  5
159
100
AcDbEntity
  8
1
  6
CONTINUOUS
 62
     7
100
AcDbLine
 10
207.578833
 20
-702.300917
 30
0.0
 11
207.578833
 21
-698.800917
 31
0.0
  0
LINE
  5
15A
100
AcDbEntity
  8
1
  6
CONTINUOUS
 62
     7
100
AcDbLine
 10
207.578833
 20
-695.800917
 30
0.0
 11
207.578833
 21
-685.550917
 31
0.0
  0
LINE
  5
15B
100
AcDbEntity
  8
1
  6
CONTINUOUS
 62
     7
100
AcDbLine
 10
197.578833
 20
-774.550917
 30
0.0
 11
217.578833
 21
-774.550917
 31
0.0
  0
LINE
  5
15C
100
AcDbEntity
  8
1
  6
CONTINUOUS
 62
     7
100
AcDbLine
 10
247.00525
 20
-774.550917
 30
0.0
 11
227.578833
 21
-774.550917
 31
0.0
  0
LINE
  5
15D
100
AcDbEntity
  8
1
  6
CONTINUOUS
 62
     7
100
AcDbLine
 10
220.578833
 20
-774.550917
 30
0.0
 11
224.578833
 21
-774.550917
 31
0.0
  0
LINE
  5
15E
100
AcDbEntity
  8
1
  6
CONTINUOUS
 62
     7
100
AcDbLine
 10
167.578833
 20
-774.550917
 30
0.0
 11
187.578833
 21
-774.550917
 31
0.0
  0
LINE
  5
15F
100
AcDbEntity
  8
1
  6
CONTINUOUS
 62
     7
100
AcDbLine
 10
190.578833
 20
-774.550917
 30
0.0
 11
194.578833
 21
-774.550917
 31
0.0
  0
CIRCLE
  5
160
100
AcDbEntity
  8
1
  6
CONTINUOUS
 62
   212
100
AcDbCircle
 10
192.578833
 20
-759.550917
 30
0.0
 40
0.75
210
0.0
220
0.0
230
1.0
  0
CIRCLE
  5
161
100
AcDbEntity
  8
1
  6
CONTINUOUS
 62
   212
100
AcDbCircle
 10
222.578833
 20
-759.550917
 30
0.0
 40
0.75
210
0.0
220
0.0
230
1.0
  0
CIRCLE
  5
162
100
AcDbEntity
  8
1
  6
CONTINUOUS
 62
   212
100
AcDbCircle
 10
192.578833
 20
-789.550917
 30
0.0
 40
0.75
210
0.0
220
0.0
230
1.0
  0
CIRCLE
  5
163
100
AcDbEntity
  8
1
  6
CONTINUOUS
 62
   212
100
AcDbCircle
 10
222.578833
 20
-789.550917
 30
0.0
 40
0.75
210
0.0
220
0.0
230
1.0
  0
LINE
  5
164
100
AcDbEntity
  8
1
  6
CONTINUOUS
 62
     7
100
AcDbLine
 10
207.578833
 20
-757.800917
 30
0.0
 11
207.578833
 21
-761.300917
 31
0.0
  0
LINE
  5
165
100
AcDbEntity
  8
1
  6
CONTINUOUS
 62
     7
100
AcDbLine
 10
207.578833
 20
-764.300917
 30
0.0
 11
207.578833
 21
-774.550917
 31
0.0
  0
LINE
  5
166
100
AcDbEntity
  8
1
  6
CONTINUOUS
 62
     7
100
AcDbLine
 10
207.578833
 20
-736.550917
 30
0.0
 11
207.578833
 21
-744.550917
 31
0.0
  0
LINE
  5
167
100
AcDbEntity
  8
1
  6
CONTINUOUS
 62
     7
100
AcDbLine
 10
207.578833
 20
-744.550917
 30
0.0
 11
207.578833
 21
-754.800917
 31
0.0
  0
LINE
  5
168
100
AcDbEntity
  8
1
  6
CONTINUOUS
 62
     7
100
AcDbLine
 10
207.578833
 20
-806.550917
 30
0.0
 11
207.578833
 21
-794.300917
 31
0.0
  0
LINE
  5
169
100
AcDbEntity
  8
1
  6
CONTINUOUS
 62
     7
100
AcDbLine
 10
207.578833
 20
-791.300917
 30
0.0
 11
207.578833
 21
-787.800917
 31
0.0
  0
LINE
  5
16A
100
AcDbEntity
  8
1
  6
CONTINUOUS
 62
     7
100
AcDbLine
 10
207.578833
 20
-784.800917
 30
0.0
 11
207.578833
 21
-774.550917
 31
0.0
  0
LINE
  5
16B
100
AcDbEntity
  8
1
  6
HIDDEN
 62
   212
100
AcDbLine
 10
185.578833
 20
-756.550917
 30
0.0
 11
185.578833
 21
-794.977333
 31
0.0
  0
LINE
  5
16C
100
AcDbEntity
  8
1
  6
HIDDEN
 62
   212
100
AcDbLine
 10
229.578833
 20
-756.550917
 30
0.0
 11
229.578833
 21
-794.977333
 31
0.0
  0
LINE
  5
16D
100
AcDbEntity
  8
1
  6
HIDDEN
 62
   212
100
AcDbLine
 10
187.078833
 20
-756.550917
 30
0.0
 11
187.078833
 21
-796.477333
 31
0.0
  0
LINE
  5
16E
100
AcDbEntity
  8
1
  6
HIDDEN
 62
   212
100
AcDbLine
 10
188.578833
 20
-756.550917
 30
0.0
 11
188.578833
 21
-797.977333
 31
0.0
  0
LINE
  5
16F
100
AcDbEntity
  8
1
  6
HIDDEN
 62
   212
100
AcDbLine
 10
190.078833
 20
-756.550917
 30
0.0
 11
190.078833
 21
-799.477333
 31
0.0
  0
LINE
  5
170
100
AcDbEntity
  8
1
  6
HIDDEN
 62
   212
100
AcDbLine
 10
191.578833
 20
-756.550917
 30
0.0
 11
191.578833
 21
-800.977333
 31
0.0
  0
LINE
  5
171
100
AcDbEntity
  8
1
  6
HIDDEN
 62
   212
100
AcDbLine
 10
193.078833
 20
-756.550917
 30
0.0
 11
193.078833
 21
-802.477333
 31
0.0
  0
LINE
  5
172
100
AcDbEntity
  8
1
  6
HIDDEN
 62
   212
100
AcDbLine
 10
228.078833
 20
-756.550917
 30
0.0
 11
228.078833
 21
-796.477333
 31
0.0
  0
LINE
  5
173
100
AcDbEntity
  8
1
  6
HIDDEN
 62
   212
100
AcDbLine
 10
226.578833
 20
-756.550917
 30
0.0
 11
226.578833
 21
-797.977333
 31
0.0
  0
LINE
  5
174
100
AcDbEntity
  8
1
  6
HIDDEN
 62
   212
100
AcDbLine
 10
225.078833
 20
-756.550917
 30
0.0
 11
225.078833
 21
-799.477333
 31
0.0
  0
LINE
  5
175
100
AcDbEntity
  8
1
  6
HIDDEN
 62
   212
100
AcDbLine
 10
223.578833
 20
-756.550917
 30
0.0
 11
223.578833
 21
-800.977333
 31
0.0
  0
LINE
  5
176
100
AcDbEntity
  8
1
  6
HIDDEN
 62
   212
100
AcDbLine
 10
222.078833
 20
-756.550917
 30
0.0
 11
222.078833
 21
-802.477333
 31
0.0
  0
LINE
  5
177
100
AcDbEntity
  8
1
  6
HIDDEN
 62
   212
100
AcDbLine
 10
185.078833
 20
-758.050917
 30
0.0
 11
230.078833
 21
-758.050917
 31
0.0
  0
LINE
  5
178
100
AcDbEntity
  8
1
  6
HIDDEN
 62
   212
100
AcDbLine
 10
185.078833
 20
-759.050917
 30
0.0
 11
230.078833
 21
-759.050917
 31
0.0
  0
LINE
  5
179
100
AcDbEntity
  8
1
  6
HIDDEN
 62
   212
100
AcDbLine
 10
185.078833
 20
-760.050917
 30
0.0
 11
230.078833
 21
-760.050917
 31
0.0
  0
LINE
  5
17A
100
AcDbEntity
  8
1
  6
HIDDEN
 62
   212
100
AcDbLine
 10
185.078833
 20
-761.050917
 30
0.0
 11
230.078833
 21
-761.050917
 31
0.0
  0
LINE
  5
17B
100
AcDbEntity
  8
1
  6
HIDDEN
 62
   212
100
AcDbLine
 10
185.078833
 20
-762.050917
 30
0.0
 11
230.078833
 21
-762.050917
 31
0.0
  0
LINE
  5
17C
100
AcDbEntity
  8
1
  6
HIDDEN
 62
   212
100
AcDbLine
 10
185.078833
 20
-763.050917
 30
0.0
 11
230.078833
 21
-763.050917
 31
0.0
  0
LINE
  5
17D
100
AcDbEntity
  8
1
  6
HIDDEN
 62
   212
100
AcDbLine
 10
185.578833
 20
-756.550917
 30
0.0
 11
193.078833
 21
-756.550917
 31
0.0
  0
LINE
  5
17E
100
AcDbEntity
  8
1
  6
HIDDEN
 62
   212
100
AcDbLine
 10
222.078833
 20
-756.550917
 30
0.0
 11
229.578833
 21
-756.550917
 31
0.0
  0
LINE
  5
17F
100
AcDbEntity
  8
1
  6
HIDDEN
 62
   212
100
AcDbLine
 10
185.078833
 20
-791.050917
 30
0.0
 11
230.078833
 21
-791.050917
 31
0.0
  0
LINE
  5
180
100
AcDbEntity
  8
1
  6
HIDDEN
 62
   212
100
AcDbLine
 10
185.078833
 20
-790.050917
 30
0.0
 11
230.078833
 21
-790.050917
 31
0.0
  0
LINE
  5
181
100
AcDbEntity
  8
1
  6
HIDDEN
 62
   212
100
AcDbLine
 10
185.078833
 20
-789.050917
 30
0.0
 11
230.078833
 21
-789.050917
 31
0.0
  0
LINE
  5
182
100
AcDbEntity
  8
1
  6
HIDDEN
 62
   212
100
AcDbLine
 10
185.078833
 20
-788.050917
 30
0.0
 11
230.078833
 21
-788.050917
 31
0.0
  0
LINE
  5
183
100
AcDbEntity
  8
1
  6
HIDDEN
 62
   212
100
AcDbLine
 10
185.078833
 20
-787.050917
 30
0.0
 11
230.078833
 21
-787.050917
 31
0.0
  0
LINE
  5
184
100
AcDbEntity
  8
1
  6
HIDDEN
 62
   212
100
AcDbLine
 10
185.078833
 20
-786.050917
 30
0.0
 11
230.078833
 21
-786.050917
 31
0.0
  0
LINE
  5
185
100
AcDbEntity
  8
1
  6
HIDDEN
 62
   212
100
AcDbLine
 10
185.078833
 20
-758.050917
 30
0.0
 11
185.078833
 21
-763.050917
 31
0.0
  0
LINE
  5
186
100
AcDbEntity
  8
1
  6
HIDDEN
 62
   212
100
AcDbLine
 10
230.078833
 20
-758.050917
 30
0.0
 11
230.078833
 21
-763.050917
 31
0.0
  0
LINE
  5
187
100
AcDbEntity
  8
1
  6
HIDDEN
 62
   212
100
AcDbLine
 10
185.078833
 20
-786.050917
 30
0.0
 11
185.078833
 21
-791.050917
 31
0.0
  0
LINE
  5
188
100
AcDbEntity
  8
1
  6
HIDDEN
 62
   212
100
AcDbLine
 10
230.078833
 20
-786.050917
 30
0.0
 11
230.078833
 21
-791.050917
 31
0.0
  0
LINE
  5
189
100
AcDbEntity
  8
1
  6
CONTINUOUS
 62
   212
100
AcDbLine
 10
185.578833
 20
-794.977333
 30
0.0
 11
185.578833
 21
-811.977333
 31
0.0
  0
LINE
  5
18A
100
AcDbEntity
  8
1
  6
CONTINUOUS
 62
   212
100
AcDbLine
 10
229.578833
 20
-794.977333
 30
0.0
 11
229.578833
 21
-811.977333
 31
0.0
  0
LINE
  5
18B
100
AcDbEntity
  8
1
  6
CONTINUOUS
 62
   212
100
AcDbLine
 10
187.078833
 20
-796.477333
 30
0.0
 11
187.078833
 21
-811.977333
 31
0.0
  0
LINE
  5
18C
100
AcDbEntity
  8
1
  6
CONTINUOUS
 62
   212
100
AcDbLine
 10
188.578833
 20
-797.977333
 30
0.0
 11
188.578833
 21
-811.977333
 31
0.0
  0
LINE
  5
18D
100
AcDbEntity
  8
1
  6
CONTINUOUS
 62
   212
100
AcDbLine
 10
190.078833
 20
-799.477333
 30
0.0
 11
190.078833
 21
-811.977333
 31
0.0
  0
LINE
  5
18E
100
AcDbEntity
  8
1
  6
CONTINUOUS
 62
   212
100
AcDbLine
 10
191.578833
 20
-800.977333
 30
0.0
 11
191.578833
 21
-811.977333
 31
0.0
  0
LINE
  5
18F
100
AcDbEntity
  8
1
  6
CONTINUOUS
 62
   212
100
AcDbLine
 10
193.078833
 20
-802.477333
 30
0.0
 11
193.078833
 21
-811.977333
 31
0.0
  0
LINE
  5
190
100
AcDbEntity
  8
1
  6
CONTINUOUS
 62
   212
100
AcDbLine
 10
222.078833
 20
-802.477333
 30
0.0
 11
222.078833
 21
-811.977333
 31
0.0
  0
LINE
  5
191
100
AcDbEntity
  8
1
  6
CONTINUOUS
 62
   212
100
AcDbLine
 10
223.578833
 20
-800.977333
 30
0.0
 11
223.578833
 21
-811.977333
 31
0.0
  0
LINE
  5
192
100
AcDbEntity
  8
1
  6
CONTINUOUS
 62
   212
100
AcDbLine
 10
225.078833
 20
-799.477333
 30
0.0
 11
225.078833
 21
-811.977333
 31
0.0
  0
LINE
  5
193
100
AcDbEntity
  8
1
  6
CONTINUOUS
 62
   212
100
AcDbLine
 10
226.578833
 20
-797.977333
 30
0.0
 11
226.578833
 21
-811.977333
 31
0.0
  0
LINE
  5
194
100
AcDbEntity
  8
1
  6
CONTINUOUS
 62
   212
100
AcDbLine
 10
228.078833
 20
-796.477333
 30
0.0
 11
228.078833
 21
-811.977333
 31
0.0
  0
LINE
  5
195
100
AcDbEntity
  8
1
  6
CONTINUOUS
 62
   212
100
AcDbLine
 10
187.578833
 20
-830.550917
 30
0.0
 11
227.578833
 21
-830.550917
 31
0.0
  0
LINE
  5
196
100
AcDbEntity
  8
1
  6
CONTINUOUS
 62
   212
100
AcDbLine
 10
187.578833
 20
-831.550917
 30
0.0
 11
187.578833
 21
-826.550917
 31
0.0
  0
LINE
  5
197
100
AcDbEntity
  8
1
  6
CONTINUOUS
 62
   212
100
AcDbLine
 10
227.578833
 20
-831.550917
 30
0.0
 11
227.578833
 21
-826.550917
 31
0.0
  0
LINE
  5
198
100
AcDbEntity
  8
1
  6
CONTINUOUS
 62
   212
100
AcDbLine
 10
187.578833
 20
-826.550917
 30
0.0
 11
227.578833
 21
-826.550917
 31
0.0
  0
LINE
  5
199
100
AcDbEntity
  8
1
  6
HIDDEN
 62
   212
100
AcDbLine
 10
187.578833
 20
-827.300917
 30
0.0
 11
227.578833
 21
-827.300917
 31
0.0
  0
LINE
  5
19A
100
AcDbEntity
  8
1
  6
HIDDEN
 62
   212
100
AcDbLine
 10
187.578833
 20
-828.050917
 30
0.0
 11
227.578833
 21
-828.050917
 31
0.0
  0
LINE
  5
19B
100
AcDbEntity
  8
1
  6
HIDDEN
 62
   212
100
AcDbLine
 10
187.578833
 20
-828.800917
 30
0.0
 11
227.578833
 21
-828.800917
 31
0.0
  0
LINE
  5
19C
100
AcDbEntity
  8
1
  6
CONTINUOUS
 62
   212
100
AcDbLine
 10
187.578833
 20
-826.550917
 30
0.0
 11
187.578833
 21
-825.550917
 31
0.0
  0
LINE
  5
19D
100
AcDbEntity
  8
1
  6
CONTINUOUS
 62
   212
100
AcDbLine
 10
227.578833
 20
-826.550917
 30
0.0
 11
227.578833
 21
-825.550917
 31
0.0
  0
LINE
  5
19E
100
AcDbEntity
  8
1
  6
CONTINUOUS
 62
   212
100
AcDbLine
 10
187.578833
 20
-825.550917
 30
0.0
 11
188.578833
 21
-825.550917
 31
0.0
  0
LINE
  5
19F
100
AcDbEntity
  8
1
  6
CONTINUOUS
 62
   212
100
AcDbLine
 10
227.578833
 20
-825.550917
 30
0.0
 11
226.578833
 21
-825.550917
 31
0.0
  0
LINE
  5
1A0
100
AcDbEntity
  8
1
  6
CONTINUOUS
 62
   212
100
AcDbLine
 10
194.578833
 20
-826.550917
 30
0.0
 11
194.578833
 21
-825.550917
 31
0.0
  0
LINE
  5
1A1
100
AcDbEntity
  8
1
  6
CONTINUOUS
 62
   212
100
AcDbLine
 10
220.578833
 20
-826.550917
 30
0.0
 11
220.578833
 21
-825.550917
 31
0.0
  0
LINE
  5
1A2
100
AcDbEntity
  8
1
  6
CONTINUOUS
 62
   212
100
AcDbLine
 10
193.578833
 20
-825.550917
 30
0.0
 11
194.578833
 21
-825.550917
 31
0.0
  0
LINE
  5
1A3
100
AcDbEntity
  8
1
  6
CONTINUOUS
 62
   212
100
AcDbLine
 10
221.578833
 20
-825.550917
 30
0.0
 11
220.578833
 21
-825.550917
 31
0.0
  0
LINE
  5
1A4
100
AcDbEntity
  8
1
  6
CONTINUOUS
 62
   212
100
AcDbLine
 10
189.828833
 20
-823.050917
 30
0.0
 11
192.328833
 21
-823.050917
 31
0.0
  0
LINE
  5
1A5
100
AcDbEntity
  8
1
  6
CONTINUOUS
 62
   212
100
AcDbLine
 10
222.828833
 20
-823.050917
 30
0.0
 11
225.328833
 21
-823.050917
 31
0.0
  0
LINE
  5
1A6
100
AcDbEntity
  8
1
  6
CONTINUOUS
 62
   212
100
AcDbLine
 10
188.578833
 20
-825.550917
 30
0.0
 11
189.828833
 21
-823.050917
 31
0.0
  0
LINE
  5
1A7
100
AcDbEntity
  8
1
  6
CONTINUOUS
 62
   212
100
AcDbLine
 10
193.578833
 20
-825.550917
 30
0.0
 11
192.328833
 21
-823.050917
 31
0.0
  0
LINE
  5
1A8
100
AcDbEntity
  8
1
  6
CONTINUOUS
 62
   212
100
AcDbLine
 10
221.578833
 20
-825.550917
 30
0.0
 11
222.828833
 21
-823.050917
 31
0.0
  0
LINE
  5
1A9
100
AcDbEntity
  8
1
  6
CONTINUOUS
 62
   212
100
AcDbLine
 10
225.328833
 20
-823.050917
 30
0.0
 11
226.578833
 21
-825.550917
 31
0.0
  0
LINE
  5
1AA
100
AcDbEntity
  8
1
  6
CONTINUOUS
 62
   212
100
AcDbLine
 10
190.29225
 20
-823.800917
 30
0.0
 11
191.865333
 21
-823.800917
 31
0.0
  0
LINE
  5
1AB
100
AcDbEntity
  8
1
  6
CONTINUOUS
 62
   212
100
AcDbLine
 10
188.91725
 20
-826.550917
 30
0.0
 11
190.29225
 21
-823.800917
 31
0.0
  0
LINE
  5
1AC
100
AcDbEntity
  8
1
  6
CONTINUOUS
 62
   212
100
AcDbLine
 10
193.240333
 20
-826.550917
 30
0.0
 11
191.865333
 21
-823.800917
 31
0.0
  0
LINE
  5
1AD
100
AcDbEntity
  8
1
  6
CONTINUOUS
 62
   212
100
AcDbLine
 10
223.29225
 20
-823.800917
 30
0.0
 11
224.865333
 21
-823.800917
 31
0.0
  0
LINE
  5
1AE
100
AcDbEntity
  8
1
  6
CONTINUOUS
 62
   212
100
AcDbLine
 10
221.91725
 20
-826.550917
 30
0.0
 11
223.29225
 21
-823.800917
 31
0.0
  0
LINE
  5
1AF
100
AcDbEntity
  8
1
  6
CONTINUOUS
 62
   212
100
AcDbLine
 10
224.865333
 20
-823.800917
 30
0.0
 11
226.240333
 21
-826.550917
 31
0.0
  0
LINE
  5
1B0
100
AcDbEntity
  8
1
  6
CONTINUOUS
 62
   212
100
AcDbLine
 10
190.078833
 20
-822.300917
 30
0.0
 11
192.078833
 21
-822.300917
 31
0.0
  0
LINE
  5
1B1
100
AcDbEntity
  8
1
  6
CONTINUOUS
 62
   212
100
AcDbLine
 10
223.078833
 20
-822.300917
 30
0.0
 11
225.078833
 21
-822.300917
 31
0.0
  0
LINE
  5
1B2
100
AcDbEntity
  8
1
  6
CONTINUOUS
 62
   212
100
AcDbLine
 10
190.078833
 20
-822.300917
 30
0.0
 11
190.078833
 21
-823.050917
 31
0.0
  0
LINE
  5
1B3
100
AcDbEntity
  8
1
  6
CONTINUOUS
 62
   212
100
AcDbLine
 10
192.078833
 20
-822.300917
 30
0.0
 11
192.078833
 21
-823.050917
 31
0.0
  0
LINE
  5
1B4
100
AcDbEntity
  8
1
  6
CONTINUOUS
 62
   212
100
AcDbLine
 10
223.078833
 20
-822.300917
 30
0.0
 11
223.078833
 21
-823.050917
 31
0.0
  0
LINE
  5
1B5
100
AcDbEntity
  8
1
  6
CONTINUOUS
 62
   212
100
AcDbLine
 10
225.078833
 20
-822.300917
 30
0.0
 11
225.078833
 21
-823.050917
 31
0.0
  0
LINE
  5
1B6
100
AcDbEntity
  8
1
  6
CONTINUOUS
 62
   212
100
AcDbLine
 10
190.54225
 20
-823.800917
 30
0.0
 11
190.54225
 21
-826.550917
 31
0.0
  0
LINE
  5
1B7
100
AcDbEntity
  8
1
  6
CONTINUOUS
 62
   212
100
AcDbLine
 10
191.615333
 20
-823.800917
 30
0.0
 11
191.615333
 21
-826.550917
 31
0.0
  0
LINE
  5
1B8
100
AcDbEntity
  8
1
  6
CONTINUOUS
 62
   212
100
AcDbLine
 10
223.54225
 20
-823.800917
 30
0.0
 11
223.54225
 21
-826.550917
 31
0.0
  0
LINE
  5
1B9
100
AcDbEntity
  8
1
  6
CONTINUOUS
 62
   212
100
AcDbLine
 10
224.615333
 20
-823.800917
 30
0.0
 11
224.615333
 21
-826.550917
 31
0.0
  0
LINE
  5
1BA
100
AcDbEntity
  8
1
  6
CONTINUOUS
 62
   212
100
AcDbLine
 10
190.54225
 20
-823.050917
 30
0.0
 11
190.54225
 21
-821.550917
 31
0.0
  0
LINE
  5
1BB
100
AcDbEntity
  8
1
  6
CONTINUOUS
 62
   212
100
AcDbLine
 10
191.615333
 20
-823.050917
 30
0.0
 11
191.615333
 21
-821.550917
 31
0.0
  0
LINE
  5
1BC
100
AcDbEntity
  8
1
  6
CONTINUOUS
 62
   212
100
AcDbLine
 10
190.54225
 20
-821.550917
 30
0.0
 11
191.615333
 21
-821.550917
 31
0.0
  0
LINE
  5
1BD
100
AcDbEntity
  8
1
  6
CONTINUOUS
 62
   212
100
AcDbLine
 10
223.54225
 20
-823.050917
 30
0.0
 11
223.54225
 21
-821.550917
 31
0.0
  0
LINE
  5
1BE
100
AcDbEntity
  8
1
  6
CONTINUOUS
 62
   212
100
AcDbLine
 10
224.615333
 20
-823.050917
 30
0.0
 11
224.615333
 21
-821.550917
 31
0.0
  0
LINE
  5
1BF
100
AcDbEntity
  8
1
  6
CONTINUOUS
 62
   212
100
AcDbLine
 10
223.54225
 20
-821.550917
 30
0.0
 11
224.615333
 21
-821.550917
 31
0.0
  0
LINE
  5
1C0
100
AcDbEntity
  8
1
  6
CONTINUOUS
 62
   212
100
AcDbLine
 10
190.54225
 20
-824.300917
 30
0.0
 11
191.615333
 21
-824.300917
 31
0.0
  0
LINE
  5
1C1
100
AcDbEntity
  8
1
  6
CONTINUOUS
 62
   212
100
AcDbLine
 10
190.54225
 20
-824.800917
 30
0.0
 11
191.615333
 21
-824.800917
 31
0.0
  0
LINE
  5
1C2
100
AcDbEntity
  8
1
  6
CONTINUOUS
 62
   212
100
AcDbLine
 10
190.54225
 20
-825.300917
 30
0.0
 11
191.615333
 21
-825.300917
 31
0.0
  0
LINE
  5
1C3
100
AcDbEntity
  8
1
  6
CONTINUOUS
 62
   212
100
AcDbLine
 10
190.54225
 20
-825.800917
 30
0.0
 11
191.615333
 21
-825.800917
 31
0.0
  0
LINE
  5
1C4
100
AcDbEntity
  8
1
  6
CONTINUOUS
 62
   212
100
AcDbLine
 10
190.54225
 20
-826.300917
 30
0.0
 11
191.615333
 21
-826.300917
 31
0.0
  0
LINE
  5
1C5
100
AcDbEntity
  8
1
  6
CONTINUOUS
 62
   212
100
AcDbLine
 10
190.79225
 20
-824.050917
 30
0.0
 11
191.365333
 21
-824.050917
 31
0.0
  0
LINE
  5
1C6
100
AcDbEntity
  8
1
  6
CONTINUOUS
 62
   212
100
AcDbLine
 10
190.79225
 20
-824.550917
 30
0.0
 11
191.365333
 21
-824.550917
 31
0.0
  0
LINE
  5
1C7
100
AcDbEntity
  8
1
  6
CONTINUOUS
 62
   212
100
AcDbLine
 10
190.79225
 20
-825.050917
 30
0.0
 11
191.365333
 21
-825.050917
 31
0.0
  0
LINE
  5
1C8
100
AcDbEntity
  8
1
  6
CONTINUOUS
 62
   212
100
AcDbLine
 10
190.79225
 20
-825.550917
 30
0.0
 11
191.365333
 21
-825.550917
 31
0.0
  0
LINE
  5
1C9
100
AcDbEntity
  8
1
  6
CONTINUOUS
 62
   212
100
AcDbLine
 10
190.79225
 20
-826.050917
 30
0.0
 11
191.365333
 21
-826.050917
 31
0.0
  0
LINE
  5
1CA
100
AcDbEntity
  8
1
  6
CONTINUOUS
 62
   212
100
AcDbLine
 10
223.79225
 20
-824.050917
 30
0.0
 11
224.365333
 21
-824.050917
 31
0.0
  0
LINE
  5
1CB
100
AcDbEntity
  8
1
  6
CONTINUOUS
 62
   212
100
AcDbLine
 10
223.54225
 20
-824.300917
 30
0.0
 11
224.615333
 21
-824.300917
 31
0.0
  0
LINE
  5
1CC
100
AcDbEntity
  8
1
  6
CONTINUOUS
 62
   212
100
AcDbLine
 10
223.79225
 20
-824.550917
 30
0.0
 11
224.365333
 21
-824.550917
 31
0.0
  0
LINE
  5
1CD
100
AcDbEntity
  8
1
  6
CONTINUOUS
 62
   212
100
AcDbLine
 10
223.54225
 20
-824.800917
 30
0.0
 11
224.615333
 21
-824.800917
 31
0.0
  0
LINE
  5
1CE
100
AcDbEntity
  8
1
  6
CONTINUOUS
 62
   212
100
AcDbLine
 10
223.79225
 20
-825.050917
 30
0.0
 11
224.365333
 21
-825.050917
 31
0.0
  0
LINE
  5
1CF
100
AcDbEntity
  8
1
  6
CONTINUOUS
 62
   212
100
AcDbLine
 10
223.54225
 20
-825.300917
 30
0.0
 11
224.615333
 21
-825.300917
 31
0.0
  0
LINE
  5
1D0
100
AcDbEntity
  8
1
  6
CONTINUOUS
 62
   212
100
AcDbLine
 10
223.79225
 20
-825.550917
 30
0.0
 11
224.365333
 21
-825.550917
 31
0.0
  0
LINE
  5
1D1
100
AcDbEntity
  8
1
  6
CONTINUOUS
 62
   212
100
AcDbLine
 10
223.54225
 20
-825.800917
 30
0.0
 11
224.615333
 21
-825.800917
 31
0.0
  0
LINE
  5
1D2
100
AcDbEntity
  8
1
  6
CONTINUOUS
 62
   212
100
AcDbLine
 10
223.79225
 20
-826.050917
 30
0.0
 11
224.365333
 21
-826.050917
 31
0.0
  0
LINE
  5
1D3
100
AcDbEntity
  8
1
  6
CONTINUOUS
 62
   212
100
AcDbLine
 10
223.54225
 20
-826.300917
 30
0.0
 11
224.615333
 21
-826.300917
 31
0.0
  0
LINE
  5
1D4
100
AcDbEntity
  8
1
  6
CONTINUOUS
 62
     7
100
AcDbLine
 10
194.578833
 20
-827.550917
 30
0.0
 11
194.578833
 21
-828.050917
 31
0.0
  0
LINE
  5
1D5
100
AcDbEntity
  8
1
  6
CONTINUOUS
 62
     7
100
AcDbLine
 10
220.578833
 20
-827.550917
 30
0.0
 11
220.578833
 21
-828.050917
 31
0.0
  0
LINE
  5
1D6
100
AcDbEntity
  8
1
  6
CONTINUOUS
 62
   212
100
AcDbLine
 10
194.04225
 20
-829.050917
 30
0.0
 11
195.115333
 21
-829.050917
 31
0.0
  0
LINE
  5
1D7
100
AcDbEntity
  8
1
  6
CONTINUOUS
 62
   212
100
AcDbLine
 10
193.578833
 20
-829.800917
 30
0.0
 11
195.578833
 21
-829.800917
 31
0.0
  0
LINE
  5
1D8
100
AcDbEntity
  8
1
  6
CONTINUOUS
 62
   212
100
AcDbLine
 10
193.578833
 20
-829.800917
 30
0.0
 11
193.578833
 21
-830.550917
 31
0.0
  0
LINE
  5
1D9
100
AcDbEntity
  8
1
  6
CONTINUOUS
 62
   212
100
AcDbLine
 10
195.578833
 20
-829.800917
 30
0.0
 11
195.578833
 21
-830.550917
 31
0.0
  0
LINE
  5
1DA
100
AcDbEntity
  8
1
  6
CONTINUOUS
 62
   212
100
AcDbLine
 10
194.04225
 20
-830.550917
 30
0.0
 11
194.04225
 21
-829.050917
 31
0.0
  0
LINE
  5
1DB
100
AcDbEntity
  8
1
  6
CONTINUOUS
 62
   212
100
AcDbLine
 10
195.115333
 20
-830.550917
 30
0.0
 11
195.115333
 21
-829.050917
 31
0.0
  0
LINE
  5
1DC
100
AcDbEntity
  8
1
  6
CONTINUOUS
 62
   212
100
AcDbLine
 10
220.04225
 20
-829.050917
 30
0.0
 11
221.115333
 21
-829.050917
 31
0.0
  0
LINE
  5
1DD
100
AcDbEntity
  8
1
  6
CONTINUOUS
 62
   212
100
AcDbLine
 10
219.578833
 20
-829.800917
 30
0.0
 11
221.578833
 21
-829.800917
 31
0.0
  0
LINE
  5
1DE
100
AcDbEntity
  8
1
  6
CONTINUOUS
 62
   212
100
AcDbLine
 10
219.578833
 20
-829.800917
 30
0.0
 11
219.578833
 21
-830.550917
 31
0.0
  0
LINE
  5
1DF
100
AcDbEntity
  8
1
  6
CONTINUOUS
 62
   212
100
AcDbLine
 10
221.578833
 20
-829.800917
 30
0.0
 11
221.578833
 21
-830.550917
 31
0.0
  0
LINE
  5
1E0
100
AcDbEntity
  8
1
  6
CONTINUOUS
 62
   212
100
AcDbLine
 10
220.04225
 20
-830.550917
 30
0.0
 11
220.04225
 21
-829.050917
 31
0.0
  0
LINE
  5
1E1
100
AcDbEntity
  8
1
  6
CONTINUOUS
 62
   212
100
AcDbLine
 10
221.115333
 20
-830.550917
 30
0.0
 11
221.115333
 21
-829.050917
 31
0.0
  0
LINE
  5
1E2
100
AcDbEntity
  8
1
  6
CONTINUOUS
 62
   212
100
AcDbLine
 10
193.578833
 20
-833.300917
 30
0.0
 11
195.578833
 21
-833.300917
 31
0.0
  0
LINE
  5
1E3
100
AcDbEntity
  8
1
  6
CONTINUOUS
 62
   212
100
AcDbLine
 10
193.578833
 20
-833.300917
 30
0.0
 11
193.578833
 21
-832.550917
 31
0.0
  0
LINE
  5
1E4
100
AcDbEntity
  8
1
  6
CONTINUOUS
 62
   212
100
AcDbLine
 10
195.578833
 20
-833.300917
 30
0.0
 11
195.578833
 21
-832.550917
 31
0.0
  0
LINE
  5
1E5
100
AcDbEntity
  8
1
  6
CONTINUOUS
 62
   212
100
AcDbLine
 10
219.578833
 20
-833.300917
 30
0.0
 11
221.578833
 21
-833.300917
 31
0.0
  0
LINE
  5
1E6
100
AcDbEntity
  8
1
  6
CONTINUOUS
 62
   212
100
AcDbLine
 10
219.578833
 20
-833.300917
 30
0.0
 11
219.578833
 21
-832.550917
 31
0.0
  0
LINE
  5
1E7
100
AcDbEntity
  8
1
  6
CONTINUOUS
 62
   212
100
AcDbLine
 10
221.578833
 20
-833.300917
 30
0.0
 11
221.578833
 21
-832.550917
 31
0.0
  0
LINE
  5
1E8
100
AcDbEntity
  8
1
  6
CONTINUOUS
 62
   212
100
AcDbLine
 10
194.04225
 20
-832.550917
 30
0.0
 11
194.04225
 21
-833.300917
 31
0.0
  0
LINE
  5
1E9
100
AcDbEntity
  8
1
  6
CONTINUOUS
 62
   212
100
AcDbLine
 10
195.115333
 20
-832.550917
 30
0.0
 11
195.115333
 21
-833.300917
 31
0.0
  0
LINE
  5
1EA
100
AcDbEntity
  8
1
  6
CONTINUOUS
 62
   212
100
AcDbLine
 10
220.04225
 20
-832.550917
 30
0.0
 11
220.04225
 21
-833.300917
 31
0.0
  0
LINE
  5
1EB
100
AcDbEntity
  8
1
  6
CONTINUOUS
 62
   212
100
AcDbLine
 10
221.115333
 20
-832.550917
 30
0.0
 11
221.115333
 21
-833.300917
 31
0.0
  0
LINE
  5
1EC
100
AcDbEntity
  8
1
  6
CONTINUOUS
 62
     7
100
AcDbLine
 10
207.578833
 20
-832.050917
 30
0.0
 11
207.578833
 21
-838.550917
 31
0.0
  0
LINE
  5
1ED
100
AcDbEntity
  8
1
  6
CONTINUOUS
 62
     7
100
AcDbLine
 10
207.578833
 20
-823.050917
 30
0.0
 11
207.578833
 21
-828.800917
 31
0.0
  0
LINE
  5
1EE
100
AcDbEntity
  8
1
  6
CONTINUOUS
 62
     7
100
AcDbLine
 10
207.578833
 20
-829.800917
 30
0.0
 11
207.578833
 21
-831.050917
 31
0.0
  0
LINE
  5
1EF
100
AcDbEntity
  8
1
  6
CONTINUOUS
 62
     7
100
AcDbLine
 10
237.578833
 20
-833.550917
 30
0.0
 11
237.578833
 21
-856.550917
 31
0.0
  0
LINE
  5
1F0
100
AcDbEntity
  8
1
  6
CONTINUOUS
 62
     7
100
AcDbLine
 10
187.578833
 20
-833.550917
 30
0.0
 11
187.578833
 21
-848.550917
 31
0.0
  0
LINE
  5
1F1
100
AcDbEntity
  8
1
  6
CONTINUOUS
 62
     7
100
AcDbLine
 10
191.078833
 20
-833.550917
 30
0.0
 11
191.078833
 21
-856.550917
 31
0.0
  0
LINE
  5
1F2
100
AcDbEntity
  8
1
  6
CONTINUOUS
 62
     7
100
AcDbLine
 10
224.078833
 20
-833.550917
 30
0.0
 11
224.078833
 21
-856.550917
 31
0.0
  0
LINE
  5
1F3
100
AcDbEntity
  8
1
  6
CONTINUOUS
 62
     7
100
AcDbLine
 10
220.578833
 20
-834.300917
 30
0.0
 11
220.578833
 21
-856.550917
 31
0.0
  0
LINE
  5
1F4
100
AcDbEntity
  8
1
  6
CONTINUOUS
 62
     7
100
AcDbLine
 10
177.578833
 20
-855.550917
 30
0.0
 11
191.078833
 21
-855.550917
 31
0.0
  0
LINE
  5
1F5
100
AcDbEntity
  8
1
  6
CONTINUOUS
 62
     7
100
AcDbLine
 10
194.578833
 20
-855.550917
 30
0.0
 11
199.578833
 21
-855.550917
 31
0.0
  0
LINE
  5
1F6
100
AcDbEntity
  8
1
  6
CONTINUOUS
 62
     7
100
AcDbLine
 10
237.578833
 20
-855.550917
 30
0.0
 11
224.078833
 21
-855.550917
 31
0.0
  0
LINE
  5
1F7
100
AcDbEntity
  8
1
  6
CONTINUOUS
 62
     7
100
AcDbLine
 10
220.578833
 20
-855.550917
 30
0.0
 11
215.578833
 21
-855.550917
 31
0.0
  0
LINE
  5
1F8
100
AcDbEntity
  8
1
  6
CONTINUOUS
 62
     7
100
AcDbLine
 10
187.578833
 20
-847.550917
 30
0.0
 11
182.578833
 21
-847.550917
 31
0.0
  0
LINE
  5
1F9
100
AcDbEntity
  8
1
  6
CONTINUOUS
 62
     7
100
AcDbLine
 10
191.078833
 20
-847.550917
 30
0.0
 11
196.078833
 21
-847.550917
 31
0.0
  0
LINE
  5
1FA
100
AcDbEntity
  8
1
  6
CONTINUOUS
 62
     7
100
AcDbLine
 10
194.578833
 20
-834.300917
 30
0.0
 11
194.578833
 21
-846.550917
 31
0.0
  0
LINE
  5
1FB
100
AcDbEntity
  8
1
  6
CONTINUOUS
 62
     7
100
AcDbLine
 10
194.578833
 20
-848.550917
 30
0.0
 11
194.578833
 21
-856.550917
 31
0.0
  0
INSERT
  5
1FC
100
AcDbEntity
  8
1
  6
CONTINUOUS
 62
     1
100
AcDbBlockReference
  2
LDR
 10
187.578833
 20
-847.550917
 30
0.0
 41
240.0
 42
240.0
210
0.0
220
0.0
230
1.0
  0
INSERT
  5
1FD
100
AcDbEntity
  8
1
  6
CONTINUOUS
 62
     1
100
AcDbBlockReference
  2
LDR
 10
187.578833
 20
-847.550917
 30
0.0
 41
240.0
 42
240.0
210
0.0
220
0.0
230
1.0
  0
INSERT
  5
1FE
100
AcDbEntity
  8
1
  6
CONTINUOUS
 62
     1
100
AcDbBlockReference
  2
LDR
 10
191.078833
 20
-847.550917
 30
0.0
 41
240.0
 42
240.0
 50
180.0
210
0.0
220
0.0
230
1.0
  0
INSERT
  5
1FF
100
AcDbEntity
  8
1
  6
CONTINUOUS
 62
     1
100
AcDbBlockReference
  2
LDR
 10
191.078833
 20
-847.550917
 30
0.0
 41
240.0
 42
240.0
 50
180.0
210
0.0
220
0.0
230
1.0
  0
INSERT
  5
200
100
AcDbEntity
  8
1
  6
CONTINUOUS
 62
     1
100
AcDbBlockReference
  2
LDR
 10
194.578833
 20
-855.550917
 30
0.0
 41
240.0
 42
240.0
 50
180.0
210
0.0
220
0.0
230
1.0
  0
INSERT
  5
201
100
AcDbEntity
  8
1
  6
CONTINUOUS
 62
     1
100
AcDbBlockReference
  2
LDR
 10
194.578833
 20
-855.550917
 30
0.0
 41
240.0
 42
240.0
 50
180.0
210
0.0
220
0.0
230
1.0
  0
INSERT
  5
202
100
AcDbEntity
  8
1
  6
CONTINUOUS
 62
     1
100
AcDbBlockReference
  2
LDR
 10
191.078833
 20
-855.550917
 30
0.0
 41
240.0
 42
240.0
210
0.0
220
0.0
230
1.0
  0
INSERT
  5
203
100
AcDbEntity
  8
1
  6
CONTINUOUS
 62
     1
100
AcDbBlockReference
  2
LDR
 10
191.078833
 20
-855.550917
 30
0.0
 41
240.0
 42
240.0
210
0.0
220
0.0
230
1.0
  0
INSERT
  5
204
100
AcDbEntity
  8
1
  6
CONTINUOUS
 62
     1
100
AcDbBlockReference
  2
LDR
 10
177.578833
 20
-855.550917
 30
0.0
 41
240.0
 42
240.0
 50
180.0
210
0.0
220
0.0
230
1.0
  0
INSERT
  5
205
100
AcDbEntity
  8
1
  6
CONTINUOUS
 62
     1
100
AcDbBlockReference
  2
LDR
 10
177.578833
 20
-855.550917
 30
0.0
 41
240.0
 42
240.0
 50
180.0
210
0.0
220
0.0
230
1.0
  0
INSERT
  5
206
100
AcDbEntity
  8
1
  6
CONTINUOUS
 62
     1
100
AcDbBlockReference
  2
LDR
 10
220.578833
 20
-855.550917
 30
0.0
 41
240.0
 42
240.0
210
0.0
220
0.0
230
1.0
  0
INSERT
  5
207
100
AcDbEntity
  8
1
  6
CONTINUOUS
 62
     1
100
AcDbBlockReference
  2
LDR
 10
220.578833
 20
-855.550917
 30
0.0
 41
240.0
 42
240.0
210
0.0
220
0.0
230
1.0
  0
INSERT
  5
208
100
AcDbEntity
  8
1
  6
CONTINUOUS
 62
     1
100
AcDbBlockReference
  2
LDR
 10
224.078833
 20
-855.550917
 30
0.0
 41
240.0
 42
240.0
 50
180.0
210
0.0
220
0.0
230
1.0
  0
INSERT
  5
209
100
AcDbEntity
  8
1
  6
CONTINUOUS
 62
     1
100
AcDbBlockReference
  2
LDR
 10
224.078833
 20
-855.550917
 30
0.0
 41
240.0
 42
240.0
 50
180.0
210
0.0
220
0.0
230
1.0
  0
INSERT
  5
20A
100
AcDbEntity
  8
1
  6
CONTINUOUS
 62
     1
100
AcDbBlockReference
  2
LDR
 10
237.578833
 20
-855.550917
 30
0.0
 41
240.0
 42
240.0
210
0.0
220
0.0
230
1.0
  0
LINE
  5
20B
100
AcDbEntity
  8
1
  6
CONTINUOUS
 62
   212
100
AcDbLine
 10
256.078833
 20
-761.550917
 30
0.0
 11
256.078833
 21
-759.050917
 31
0.0
  0
ARC
  5
20C
100
AcDbEntity
  8
1
  6
CONTINUOUS
 62
   212
100
AcDbCircle
 10
255.702258
 20
-759.166001
 30
0.0
 40
0.393768
210
0.0
220
0.0
230
1.0
100
AcDbArc
 50
16.993586
 51
108.266919
  0
LINE
  5
20D
100
AcDbEntity
  8
1
  6
CONTINUOUS
 62
   212
100
AcDbLine
 10
259.078833
 20
-762.300917
 30
0.0
 11
255.578833
 21
-762.300917
 31
0.0
  0
LINE
  5
20E
100
AcDbEntity
  8
1
  6
CONTINUOUS
 62
   212
100
AcDbLine
 10
259.078833
 20
-762.300917
 30
0.0
 11
259.078833
 21
-764.550917
 31
0.0
  0
LINE
  5
20F
100
AcDbEntity
  8
1
  6
CONTINUOUS
 62
   212
100
AcDbLine
 10
259.828833
 20
-762.300917
 30
0.0
 11
259.828833
 21
-763.800917
 31
0.0
  0
LINE
  5
210
100
AcDbEntity
  8
1
  6
CONTINUOUS
 62
   212
100
AcDbLine
 10
259.828833
 20
-762.300917
 30
0.0
 11
261.078833
 21
-762.300917
 31
0.0
  0
LINE
  5
211
100
AcDbEntity
  8
1
  6
CONTINUOUS
 62
   212
100
AcDbLine
 10
259.828833
 20
-763.800917
 30
0.0
 11
261.078833
 21
-763.800917
 31
0.0
  0
LINE
  5
212
100
AcDbEntity
  8
1
  6
CONTINUOUS
 62
   212
100
AcDbLine
 10
259.078833
 20
-764.550917
 30
0.0
 11
261.078833
 21
-764.550917
 31
0.0
  0
LINE
  5
213
100
AcDbEntity
  8
1
  6
CONTINUOUS
 62
   212
100
AcDbLine
 10
261.078833
 20
-758.050917
 30
0.0
 11
261.078833
 21
-813.550917
 31
0.0
  0
LINE
  5
214
100
AcDbEntity
  8
1
  6
CONTINUOUS
 62
     7
100
AcDbLine
 10
259.078833
 20
-760.550917
 30
0.0
 11
258.328833
 21
-760.550917
 31
0.0
  0
LINE
  5
215
100
AcDbEntity
  8
1
  6
CONTINUOUS
 62
     7
100
AcDbLine
 10
253.328833
 20
-760.550917
 30
0.0
 11
251.578833
 21
-760.550917
 31
0.0
  0
LINE
  5
216
100
AcDbEntity
  8
1
  6
CONTINUOUS
 62
   212
100
AcDbLine
 10
264.078833
 20
-758.050917
 30
0.0
 11
264.078833
 21
-813.550917
 31
0.0
  0
LINE
  5
217
100
AcDbEntity
  8
1
  6
CONTINUOUS
 62
   212
100
AcDbLine
 10
261.078833
 20
-758.050917
 30
0.0
 11
264.078833
 21
-758.050917
 31
0.0
  0
LINE
  5
218
100
AcDbEntity
  8
1
  6
CONTINUOUS
 62
   212
100
AcDbLine
 10
261.078833
 20
-792.550917
 30
0.0
 11
256.078833
 21
-792.550917
 31
0.0
  0
LINE
  5
219
100
AcDbEntity
  8
1
  6
CONTINUOUS
 62
   212
100
AcDbLine
 10
253.578833
 20
-790.550917
 30
0.0
 11
254.578833
 21
-790.550917
 31
0.0
  0
LINE
  5
21A
100
AcDbEntity
  8
1
  6
CONTINUOUS
 62
   212
100
AcDbLine
 10
253.578833
 20
-792.550917
 30
0.0
 11
254.578833
 21
-792.550917
 31
0.0
  0
LINE
  5
21B
100
AcDbEntity
  8
1
  6
CONTINUOUS
 62
   212
100
AcDbLine
 10
253.578833
 20
-792.550917
 30
0.0
 11
253.578833
 21
-790.550917
 31
0.0
  0
LINE
  5
21C
100
AcDbEntity
  8
1
  6
CONTINUOUS
 62
   212
100
AcDbLine
 10
257.078833
 20
-792.550917
 30
0.0
 11
257.078833
 21
-790.550917
 31
0.0
  0
LINE
  5
21D
100
AcDbEntity
  8
1
  6
CONTINUOUS
 62
   212
100
AcDbLine
 10
257.078833
 20
-790.550917
 30
0.0
 11
256.078833
 21
-790.550917
 31
0.0
  0
LINE
  5
21E
100
AcDbEntity
  8
1
  6
CONTINUOUS
 62
   212
100
AcDbLine
 10
256.078833
 20
-792.050917
 30
0.0
 11
258.078833
 21
-792.050917
 31
0.0
  0
LINE
  5
21F
100
AcDbEntity
  8
1
  6
CONTINUOUS
 62
   212
100
AcDbLine
 10
256.078833
 20
-791.050917
 30
0.0
 11
258.078833
 21
-791.050917
 31
0.0
  0
LINE
  5
220
100
AcDbEntity
  8
1
  6
CONTINUOUS
 62
   212
100
AcDbLine
 10
258.078833
 20
-792.050917
 30
0.0
 11
258.078833
 21
-791.050917
 31
0.0
  0
LINE
  5
221
100
AcDbEntity
  8
1
  6
CONTINUOUS
 62
   212
100
AcDbLine
 10
256.078833
 20
-792.550917
 30
0.0
 11
256.078833
 21
-790.050917
 31
0.0
  0
ARC
  5
222
100
AcDbEntity
  8
1
  6
CONTINUOUS
 62
   212
100
AcDbCircle
 10
255.702258
 20
-790.166001
 30
0.0
 40
0.393768
210
0.0
220
0.0
230
1.0
100
AcDbArc
 50
16.993586
 51
108.266919
  0
LINE
  5
223
100
AcDbEntity
  8
1
  6
CONTINUOUS
 62
   212
100
AcDbLine
 10
259.078833
 20
-793.300917
 30
0.0
 11
255.578833
 21
-793.300917
 31
0.0
  0
LINE
  5
224
100
AcDbEntity
  8
1
  6
CONTINUOUS
 62
   212
100
AcDbLine
 10
259.078833
 20
-793.300917
 30
0.0
 11
259.078833
 21
-795.550917
 31
0.0
  0
LINE
  5
225
100
AcDbEntity
  8
1
  6
CONTINUOUS
 62
   212
100
AcDbLine
 10
259.828833
 20
-793.300917
 30
0.0
 11
259.828833
 21
-794.800917
 31
0.0
  0
LINE
  5
226
100
AcDbEntity
  8
1
  6
CONTINUOUS
 62
   212
100
AcDbLine
 10
259.828833
 20
-793.300917
 30
0.0
 11
261.078833
 21
-793.300917
 31
0.0
  0
LINE
  5
227
100
AcDbEntity
  8
1
  6
CONTINUOUS
 62
   212
100
AcDbLine
 10
259.828833
 20
-794.800917
 30
0.0
 11
261.078833
 21
-794.800917
 31
0.0
  0
LINE
  5
228
100
AcDbEntity
  8
1
  6
CONTINUOUS
 62
   212
100
AcDbLine
 10
259.078833
 20
-795.550917
 30
0.0
 11
261.078833
 21
-795.550917
 31
0.0
  0
LINE
  5
229
100
AcDbEntity
  8
1
  6
CONTINUOUS
 62
     7
100
AcDbLine
 10
259.078833
 20
-791.550917
 30
0.0
 11
258.328833
 21
-791.550917
 31
0.0
  0
LINE
  5
22A
100
AcDbEntity
  8
1
  6
CONTINUOUS
 62
     7
100
AcDbLine
 10
253.328833
 20
-791.550917
 30
0.0
 11
251.578833
 21
-791.550917
 31
0.0
  0
LINE
  5
22B
100
AcDbEntity
  8
1
  6
CONTINUOUS
 62
   212
100
AcDbLine
 10
261.828833
 20
-758.050917
 30
0.0
 11
261.828833
 21
-813.550917
 31
0.0
  0
LINE
  5
22C
100
AcDbEntity
  8
1
  6
HIDDEN
 62
   212
100
AcDbLine
 10
263.328833
 20
-758.050917
 30
0.0
 11
263.328833
 21
-813.550917
 31
0.0
  0
LINE
  5
22D
100
AcDbEntity
  8
1
  6
CONTINUOUS
 62
   212
100
AcDbLine
 10
266.078833
 20
-763.550917
 30
0.0
 11
266.078833
 21
-762.550917
 31
0.0
  0
LINE
  5
22E
100
AcDbEntity
  8
1
  6
CONTINUOUS
 62
   212
100
AcDbLine
 10
265.078833
 20
-764.050917
 30
0.0
 11
265.078833
 21
-762.050917
 31
0.0
  0
LINE
  5
22F
100
AcDbEntity
  8
1
  6
CONTINUOUS
 62
   212
100
AcDbLine
 10
265.078833
 20
-762.050917
 30
0.0
 11
264.078833
 21
-762.050917
 31
0.0
  0
LINE
  5
230
100
AcDbEntity
  8
1
  6
CONTINUOUS
 62
   212
100
AcDbLine
 10
264.078833
 20
-763.550917
 30
0.0
 11
266.078833
 21
-763.550917
 31
0.0
  0
LINE
  5
231
100
AcDbEntity
  8
1
  6
CONTINUOUS
 62
   212
100
AcDbLine
 10
264.078833
 20
-762.550917
 30
0.0
 11
266.078833
 21
-762.550917
 31
0.0
  0
LINE
  5
232
100
AcDbEntity
  8
1
  6
CONTINUOUS
 62
   212
100
AcDbLine
 10
265.078833
 20
-764.050917
 30
0.0
 11
264.078833
 21
-764.050917
 31
0.0
  0
LINE
  5
233
100
AcDbEntity
  8
1
  6
HIDDEN
 62
   212
100
AcDbLine
 10
264.078833
 20
-762.550917
 30
0.0
 11
261.828833
 21
-762.550917
 31
0.0
  0
LINE
  5
234
100
AcDbEntity
  8
1
  6
HIDDEN
 62
   212
100
AcDbLine
 10
264.078833
 20
-763.550917
 30
0.0
 11
261.828833
 21
-763.550917
 31
0.0
  0
LINE
  5
235
100
AcDbEntity
  8
1
  6
CONTINUOUS
 62
   212
100
AcDbLine
 10
266.078833
 20
-794.550917
 30
0.0
 11
266.078833
 21
-793.550917
 31
0.0
  0
LINE
  5
236
100
AcDbEntity
  8
1
  6
CONTINUOUS
 62
   212
100
AcDbLine
 10
265.078833
 20
-795.050917
 30
0.0
 11
265.078833
 21
-793.050917
 31
0.0
  0
LINE
  5
237
100
AcDbEntity
  8
1
  6
CONTINUOUS
 62
   212
100
AcDbLine
 10
265.078833
 20
-793.050917
 30
0.0
 11
264.078833
 21
-793.050917
 31
0.0
  0
LINE
  5
238
100
AcDbEntity
  8
1
  6
CONTINUOUS
 62
   212
100
AcDbLine
 10
264.078833
 20
-794.550917
 30
0.0
 11
266.078833
 21
-794.550917
 31
0.0
  0
LINE
  5
239
100
AcDbEntity
  8
1
  6
CONTINUOUS
 62
   212
100
AcDbLine
 10
264.078833
 20
-793.550917
 30
0.0
 11
266.078833
 21
-793.550917
 31
0.0
  0
LINE
  5
23A
100
AcDbEntity
  8
1
  6
CONTINUOUS
 62
   212
100
AcDbLine
 10
265.078833
 20
-795.050917
 30
0.0
 11
264.078833
 21
-795.050917
 31
0.0
  0
LINE
  5
23B
100
AcDbEntity
  8
1
  6
HIDDEN
 62
   212
100
AcDbLine
 10
264.078833
 20
-793.550917
 30
0.0
 11
261.828833
 21
-793.550917
 31
0.0
  0
LINE
  5
23C
100
AcDbEntity
  8
1
  6
HIDDEN
 62
   212
100
AcDbLine
 10
264.078833
 20
-794.550917
 30
0.0
 11
261.828833
 21
-794.550917
 31
0.0
  0
LINE
  5
23D
100
AcDbEntity
  8
1
  6
CONTINUOUS
 62
     7
100
AcDbLine
 10
342.561333
 20
-748.050917
 30
0.0
 11
342.561333
 21
-744.050917
 31
0.0
  0
LINE
  5
23E
100
AcDbEntity
  8
1
  6
CONTINUOUS
 62
     7
100
AcDbLine
 10
342.561333
 20
-751.050917
 30
0.0
 11
342.561333
 21
-777.550917
 31
0.0
  0
CIRCLE
  5
23F
100
AcDbEntity
  8
1
  6
CONTINUOUS
 62
   212
100
AcDbCircle
 10
342.561333
 20
-733.050917
 30
0.0
 40
0.75
210
0.0
220
0.0
230
1.0
  0
CIRCLE
  5
240
100
AcDbEntity
  8
1
  6
CONTINUOUS
 62
   212
100
AcDbCircle
 10
342.561333
 20
-763.550917
 30
0.0
 40
0.75
210
0.0
220
0.0
230
1.0
  0
LINE
  5
241
100
AcDbEntity
  8
1
  6
CONTINUOUS
 62
     7
100
AcDbLine
 10
338.811333
 20
-763.550917
 30
0.0
 11
346.311333
 21
-763.550917
 31
0.0
  0
LINE
  5
242
100
AcDbEntity
  8
1
  6
CONTINUOUS
 62
     7
100
AcDbLine
 10
342.561333
 20
-721.050917
 30
0.0
 11
342.561333
 21
-741.050917
 31
0.0
  0
LINE
  5
243
100
AcDbEntity
  8
1
  6
CONTINUOUS
 62
     7
100
AcDbLine
 10
338.875417
 20
-732.876083
 30
0.0
 11
346.375417
 21
-732.876083
 31
0.0
  0
LINE
  5
244
100
AcDbEntity
  8
1
  6
DASHED
 62
   212
100
AcDbLine
 10
339.625417
 20
-729.876083
 30
0.0
 11
345.625417
 21
-729.876083
 31
0.0
  0
LINE
  5
245
100
AcDbEntity
  8
1
  6
DASHED
 62
   212
100
AcDbLine
 10
339.625417
 20
-729.876083
 30
0.0
 11
339.625417
 21
-772.510917
 31
0.0
  0
LINE
  5
246
100
AcDbEntity
  8
1
  6
DASHED
 62
   212
100
AcDbLine
 10
345.625417
 20
-729.876083
 30
0.0
 11
345.625417
 21
-772.290917
 31
0.0
  0
LINE
  5
247
100
AcDbEntity
  8
1
  6
DASHED
 62
   212
100
AcDbLine
 10
341.125417
 20
-729.876083
 30
0.0
 11
341.125417
 21
-775.085917
 31
0.0
  0
LINE
  5
248
100
AcDbEntity
  8
1
  6
DASHED
 62
   212
100
AcDbLine
 10
344.125417
 20
-729.876083
 30
0.0
 11
344.125417
 21
-774.865917
 31
0.0
  0
LINE
  5
249
100
AcDbEntity
  8
1
  6
CONTINUOUS
 62
   212
100
AcDbLine
 10
339.625417
 20
-772.510917
 30
0.0
 11
339.625417
 21
-789.085917
 31
0.0
  0
LINE
  5
24A
100
AcDbEntity
  8
1
  6
CONTINUOUS
 62
   212
100
AcDbLine
 10
341.125417
 20
-775.085917
 30
0.0
 11
341.125417
 21
-789.085917
 31
0.0
  0
LINE
  5
24B
100
AcDbEntity
  8
1
  6
CONTINUOUS
 62
   212
100
AcDbLine
 10
344.125417
 20
-774.865917
 30
0.0
 11
344.125417
 21
-789.085917
 31
0.0
  0
LINE
  5
24C
100
AcDbEntity
  8
1
  6
CONTINUOUS
 62
   212
100
AcDbLine
 10
345.625417
 20
-772.290917
 30
0.0
 11
345.625417
 21
-789.085917
 31
0.0
  0
LINE
  5
24D
100
AcDbEntity
  8
1
  6
CONTINUOUS
 62
   212
100
AcDbLine
 10
312.561333
 20
-805.332917
 30
0.0
 11
372.561333
 21
-805.332917
 31
0.0
  0
LINE
  5
24E
100
AcDbEntity
  8
1
  6
CONTINUOUS
 62
   212
100
AcDbLine
 10
312.561333
 20
-806.332917
 30
0.0
 11
372.561333
 21
-806.332917
 31
0.0
  0
LINE
  5
24F
100
AcDbEntity
  8
1
  6
CONTINUOUS
 62
   212
100
AcDbLine
 10
312.561333
 20
-805.332917
 30
0.0
 11
312.561333
 21
-806.332917
 31
0.0
  0
LINE
  5
250
100
AcDbEntity
  8
1
  6
CONTINUOUS
 62
   212
100
AcDbLine
 10
372.561333
 20
-805.332917
 30
0.0
 11
372.561333
 21
-806.332917
 31
0.0
  0
LINE
  5
251
100
AcDbEntity
  8
1
  6
DASHED
 62
     7
100
AcDbLine
 10
342.561333
 20
-777.550917
 30
0.0
 11
342.561333
 21
-790.562667
 31
0.0
  0
LINE
  5
252
100
AcDbEntity
  8
1
  6
CONTINUOUS
 62
     7
100
AcDbLine
 10
342.561333
 20
-796.832917
 30
0.0
 11
342.561333
 21
-812.332917
 31
0.0
  0
LINE
  5
253
100
AcDbEntity
  8
1
  6
CONTINUOUS
 62
   212
100
AcDbLine
 10
339.561333
 20
-804.332917
 30
0.0
 11
339.561333
 21
-805.332917
 31
0.0
  0
LINE
  5
254
100
AcDbEntity
  8
1
  6
CONTINUOUS
 62
   212
100
AcDbLine
 10
345.561333
 20
-804.332917
 30
0.0
 11
345.561333
 21
-805.332917
 31
0.0
  0
LINE
  5
255
100
AcDbEntity
  8
1
  6
CONTINUOUS
 62
   212
100
AcDbLine
 10
339.561333
 20
-804.332917
 30
0.0
 11
340.811333
 21
-804.332917
 31
0.0
  0
LINE
  5
256
100
AcDbEntity
  8
1
  6
CONTINUOUS
 62
   212
100
AcDbLine
 10
345.561333
 20
-804.332917
 30
0.0
 11
344.311333
 21
-804.332917
 31
0.0
  0
LINE
  5
257
100
AcDbEntity
  8
1
  6
CONTINUOUS
 62
   212
100
AcDbLine
 10
341.061333
 20
-801.332917
 30
0.0
 11
344.061333
 21
-801.332917
 31
0.0
  0
LINE
  5
258
100
AcDbEntity
  8
1
  6
CONTINUOUS
 62
   212
100
AcDbLine
 10
341.061333
 20
-801.332917
 30
0.0
 11
340.811333
 21
-804.332917
 31
0.0
  0
LINE
  5
259
100
AcDbEntity
  8
1
  6
CONTINUOUS
 62
   212
100
AcDbLine
 10
344.061333
 20
-801.332917
 30
0.0
 11
344.311333
 21
-804.332917
 31
0.0
  0
LINE
  5
25A
100
AcDbEntity
  8
1
  6
CONTINUOUS
 62
   212
100
AcDbLine
 10
341.751333
 20
-802.082917
 30
0.0
 11
343.371167
 21
-802.082917
 31
0.0
  0
LINE
  5
25B
100
AcDbEntity
  8
1
  6
CONTINUOUS
 62
   212
100
AcDbLine
 10
341.751333
 20
-802.082917
 30
0.0
 11
341.4805
 21
-805.332917
 31
0.0
  0
LINE
  5
25C
100
AcDbEntity
  8
1
  6
CONTINUOUS
 62
   212
100
AcDbLine
 10
343.371167
 20
-802.082917
 30
0.0
 11
343.642
 21
-805.332917
 31
0.0
  0
LINE
  5
25D
100
AcDbEntity
  8
1
  6
CONTINUOUS
 62
   212
100
AcDbLine
 10
341.584667
 20
-807.082917
 30
0.0
 11
343.537833
 21
-807.082917
 31
0.0
  0
LINE
  5
25E
100
AcDbEntity
  8
1
  6
CONTINUOUS
 62
   212
100
AcDbLine
 10
341.584667
 20
-807.082917
 30
0.0
 11
341.584667
 21
-806.332917
 31
0.0
  0
LINE
  5
25F
100
AcDbEntity
  8
1
  6
CONTINUOUS
 62
   212
100
AcDbLine
 10
343.537833
 20
-807.082917
 30
0.0
 11
343.537833
 21
-806.332917
 31
0.0
  0
LINE
  5
260
100
AcDbEntity
  8
1
  6
CONTINUOUS
 62
   212
100
AcDbLine
 10
341.584667
 20
-800.567917
 30
0.0
 11
343.537833
 21
-800.567917
 31
0.0
  0
LINE
  5
261
100
AcDbEntity
  8
1
  6
CONTINUOUS
 62
   212
100
AcDbLine
 10
341.584667
 20
-800.567917
 30
0.0
 11
341.584667
 21
-801.317917
 31
0.0
  0
LINE
  5
262
100
AcDbEntity
  8
1
  6
CONTINUOUS
 62
   212
100
AcDbLine
 10
343.537833
 20
-800.567917
 30
0.0
 11
343.537833
 21
-801.317917
 31
0.0
  0
LINE
  5
263
100
AcDbEntity
  8
1
  6
CONTINUOUS
 62
   212
100
AcDbLine
 10
342.084667
 20
-799.567917
 30
0.0
 11
342.084667
 21
-800.567917
 31
0.0
  0
LINE
  5
264
100
AcDbEntity
  8
1
  6
CONTINUOUS
 62
   212
100
AcDbLine
 10
343.037833
 20
-799.567917
 30
0.0
 11
343.037833
 21
-800.567917
 31
0.0
  0
LINE
  5
265
100
AcDbEntity
  8
1
  6
CONTINUOUS
 62
   212
100
AcDbLine
 10
342.084667
 20
-799.567917
 30
0.0
 11
343.037833
 21
-799.567917
 31
0.0
  0
LINE
  5
266
100
AcDbEntity
  8
1
  6
CONTINUOUS
 62
   212
100
AcDbLine
 10
342.084667
 20
-802.082917
 30
0.0
 11
342.084667
 21
-805.332917
 31
0.0
  0
LINE
  5
267
100
AcDbEntity
  8
1
  6
CONTINUOUS
 62
   212
100
AcDbLine
 10
343.037833
 20
-802.082917
 30
0.0
 11
343.037833
 21
-805.332917
 31
0.0
  0
LINE
  5
268
100
AcDbEntity
  8
1
  6
CONTINUOUS
 62
   212
100
AcDbLine
 10
389.561333
 20
-777.550917
 30
0.0
 11
389.561333
 21
-726.050917
 31
0.0
  0
LINE
  5
269
100
AcDbEntity
  8
1
  6
CONTINUOUS
 62
   212
100
AcDbLine
 10
390.561333
 20
-786.050917
 30
0.0
 11
390.561333
 21
-726.050917
 31
0.0
  0
LINE
  5
26A
100
AcDbEntity
  8
1
  6
CONTINUOUS
 62
   212
100
AcDbLine
 10
389.561333
 20
-726.050917
 30
0.0
 11
390.561333
 21
-726.050917
 31
0.0
  0
LINE
  5
26B
100
AcDbEntity
  8
1
  6
CONTINUOUS
 62
   212
100
AcDbLine
 10
391.561333
 20
-786.050917
 30
0.0
 11
391.561333
 21
-731.050917
 31
0.0
  0
LINE
  5
26C
100
AcDbEntity
  8
1
  6
CONTINUOUS
 62
   212
100
AcDbLine
 10
393.561333
 20
-786.050917
 30
0.0
 11
393.561333
 21
-731.050917
 31
0.0
  0
LINE
  5
26D
100
AcDbEntity
  8
1
  6
HIDDEN
 62
   212
100
AcDbLine
 10
393.061333
 20
-786.050917
 30
0.0
 11
393.061333
 21
-731.050917
 31
0.0
  0
LINE
  5
26E
100
AcDbEntity
  8
1
  6
CONTINUOUS
 62
   212
100
AcDbLine
 10
393.561333
 20
-731.050917
 30
0.0
 11
390.561333
 21
-731.050917
 31
0.0
  0
LINE
  5
26F
100
AcDbEntity
  8
1
  6
CONTINUOUS
 62
   212
100
AcDbLine
 10
389.561333
 20
-777.550917
 30
0.0
 11
390.561333
 21
-777.550917
 31
0.0
  0
LINE
  5
270
100
AcDbEntity
  8
1
  6
CONTINUOUS
 62
   212
100
AcDbLine
 10
388.561333
 20
-764.550917
 30
0.0
 11
389.561333
 21
-764.550917
 31
0.0
  0
LINE
  5
271
100
AcDbEntity
  8
1
  6
CONTINUOUS
 62
   212
100
AcDbLine
 10
388.561333
 20
-762.550917
 30
0.0
 11
389.561333
 21
-762.550917
 31
0.0
  0
LINE
  5
272
100
AcDbEntity
  8
1
  6
CONTINUOUS
 62
   212
100
AcDbLine
 10
388.561333
 20
-762.550917
 30
0.0
 11
388.561333
 21
-764.550917
 31
0.0
  0
LINE
  5
273
100
AcDbEntity
  8
1
  6
CONTINUOUS
 62
   212
100
AcDbLine
 10
394.561333
 20
-762.550917
 30
0.0
 11
394.561333
 21
-764.550917
 31
0.0
  0
LINE
  5
274
100
AcDbEntity
  8
1
  6
CONTINUOUS
 62
   212
100
AcDbLine
 10
394.561333
 20
-764.550917
 30
0.0
 11
393.561333
 21
-764.550917
 31
0.0
  0
LINE
  5
275
100
AcDbEntity
  8
1
  6
CONTINUOUS
 62
   212
100
AcDbLine
 10
394.561333
 20
-762.550917
 30
0.0
 11
393.561333
 21
-762.550917
 31
0.0
  0
LINE
  5
276
100
AcDbEntity
  8
1
  6
HIDDEN
 62
   212
100
AcDbLine
 10
390.561333
 20
-763.050917
 30
0.0
 11
393.061333
 21
-763.050917
 31
0.0
  0
LINE
  5
277
100
AcDbEntity
  8
1
  6
CONTINUOUS
 62
   212
100
AcDbLine
 10
394.561333
 20
-763.050917
 30
0.0
 11
395.561333
 21
-763.050917
 31
0.0
  0
LINE
  5
278
100
AcDbEntity
  8
1
  6
HIDDEN
 62
   212
100
AcDbLine
 10
390.561333
 20
-764.050917
 30
0.0
 11
393.061333
 21
-764.050917
 31
0.0
  0
LINE
  5
279
100
AcDbEntity
  8
1
  6
CONTINUOUS
 62
   212
100
AcDbLine
 10
394.561333
 20
-764.050917
 30
0.0
 11
395.561333
 21
-764.050917
 31
0.0
  0
LINE
  5
27A
100
AcDbEntity
  8
1
  6
CONTINUOUS
 62
   212
100
AcDbLine
 10
395.561333
 20
-763.050917
 30
0.0
 11
395.561333
 21
-764.050917
 31
0.0
  0
LINE
  5
27B
100
AcDbEntity
  8
1
  6
CONTINUOUS
 62
     7
100
AcDbLine
 10
397.561333
 20
-763.550917
 30
0.0
 11
384.561333
 21
-763.550917
 31
0.0
  0
LINE
  5
27C
100
AcDbEntity
  8
1
  6
CONTINUOUS
 62
     7
100
AcDbLine
 10
397.561333
 20
-733.050917
 30
0.0
 11
384.561333
 21
-733.050917
 31
0.0
  0
LINE
  5
27D
100
AcDbEntity
  8
1
  6
CONTINUOUS
 62
   212
100
AcDbLine
 10
388.561333
 20
-732.050917
 30
0.0
 11
389.561333
 21
-732.050917
 31
0.0
  0
LINE
  5
27E
100
AcDbEntity
  8
1
  6
CONTINUOUS
 62
   212
100
AcDbLine
 10
388.561333
 20
-734.050917
 30
0.0
 11
389.561333
 21
-734.050917
 31
0.0
  0
LINE
  5
27F
100
AcDbEntity
  8
1
  6
CONTINUOUS
 62
   212
100
AcDbLine
 10
388.561333
 20
-734.050917
 30
0.0
 11
388.561333
 21
-732.050917
 31
0.0
  0
LINE
  5
280
100
AcDbEntity
  8
1
  6
CONTINUOUS
 62
   212
100
AcDbLine
 10
394.561333
 20
-734.050917
 30
0.0
 11
394.561333
 21
-732.050917
 31
0.0
  0
LINE
  5
281
100
AcDbEntity
  8
1
  6
CONTINUOUS
 62
   212
100
AcDbLine
 10
394.561333
 20
-732.050917
 30
0.0
 11
393.561333
 21
-732.050917
 31
0.0
  0
LINE
  5
282
100
AcDbEntity
  8
1
  6
CONTINUOUS
 62
   212
100
AcDbLine
 10
394.561333
 20
-734.050917
 30
0.0
 11
393.561333
 21
-734.050917
 31
0.0
  0
LINE
  5
283
100
AcDbEntity
  8
1
  6
HIDDEN
 62
   212
100
AcDbLine
 10
390.561333
 20
-733.550917
 30
0.0
 11
393.061333
 21
-733.550917
 31
0.0
  0
LINE
  5
284
100
AcDbEntity
  8
1
  6
CONTINUOUS
 62
   212
100
AcDbLine
 10
394.561333
 20
-733.550917
 30
0.0
 11
395.561333
 21
-733.550917
 31
0.0
  0
LINE
  5
285
100
AcDbEntity
  8
1
  6
HIDDEN
 62
   212
100
AcDbLine
 10
390.561333
 20
-732.550917
 30
0.0
 11
393.061333
 21
-732.550917
 31
0.0
  0
LINE
  5
286
100
AcDbEntity
  8
1
  6
CONTINUOUS
 62
   212
100
AcDbLine
 10
394.561333
 20
-732.550917
 30
0.0
 11
395.561333
 21
-732.550917
 31
0.0
  0
LINE
  5
287
100
AcDbEntity
  8
1
  6
CONTINUOUS
 62
   212
100
AcDbLine
 10
395.561333
 20
-733.550917
 30
0.0
 11
395.561333
 21
-732.550917
 31
0.0
  0
LINE
  5
288
100
AcDbEntity
  8
1
  6
CONTINUOUS
 62
     7
100
AcDbLine
 10
391.561333
 20
-726.050917
 30
0.0
 11
407.561333
 21
-726.050917
 31
0.0
  0
LINE
  5
289
100
AcDbEntity
  8
1
  6
CONTINUOUS
 62
     7
100
AcDbLine
 10
394.561333
 20
-731.050917
 30
0.0
 11
407.561333
 21
-731.050917
 31
0.0
  0
LINE
  5
28A
100
AcDbEntity
  8
1
  6
CONTINUOUS
 62
     7
100
AcDbLine
 10
406.561333
 20
-721.050917
 30
0.0
 11
406.561333
 21
-726.050917
 31
0.0
  0
LINE
  5
28B
100
AcDbEntity
  8
1
  6
CONTINUOUS
 62
     7
100
AcDbLine
 10
406.561333
 20
-731.050917
 30
0.0
 11
406.561333
 21
-736.050917
 31
0.0
  0
LINE
  5
28C
100
AcDbEntity
  8
1
  6
CONTINUOUS
 62
     7
100
AcDbLine
 10
389.258
 20
-750.77725
 30
0.0
 11
379.266667
 21
-750.77725
 31
0.0
  0
LINE
  5
28D
100
AcDbEntity
  8
1
  6
CONTINUOUS
 62
     7
100
AcDbLine
 10
357.796083
 20
-806.332917
 30
0.0
 11
357.796083
 21
-816.343917
 31
0.0
  0
INSERT
  5
28E
100
AcDbEntity
  8
1
  6
CONTINUOUS
 62
     1
100
AcDbBlockReference
  2
LDR
 10
406.561333
 20
-726.050917
 30
0.0
 41
240.0
 42
240.0
 50
270.0
210
0.0
220
0.0
230
1.0
  0
INSERT
  5
28F
100
AcDbEntity
  8
1
  6
CONTINUOUS
 62
     1
100
AcDbBlockReference
  2
LDR
 10
406.561333
 20
-726.050917
 30
0.0
 41
240.0
 42
240.0
 50
270.0
210
0.0
220
0.0
230
1.0
  0
INSERT
  5
290
100
AcDbEntity
  8
1
  6
CONTINUOUS
 62
     1
100
AcDbBlockReference
  2
LDR
 10
406.561333
 20
-731.050917
 30
0.0
 41
240.0
 42
240.0
 50
90.0
210
0.0
220
0.0
230
1.0
  0
INSERT
  5
291
100
AcDbEntity
  8
1
  6
CONTINUOUS
 62
     1
100
AcDbBlockReference
  2
LDR
 10
389.258
 20
-750.77725
 30
0.0
 41
240.0
 42
240.0
210
0.0
220
0.0
230
1.0
  0
INSERT
  5
292
100
AcDbEntity
  8
1
  6
CONTINUOUS
 62
     1
100
AcDbBlockReference
  2
LDR
 10
389.258
 20
-750.77725
 30
0.0
 41
240.0
 42
240.0
210
0.0
220
0.0
230
1.0
  0
INSERT
  5
293
100
AcDbEntity
  8
1
  6
CONTINUOUS
 62
     1
100
AcDbBlockReference
  2
LDR
 10
357.796083
 20
-806.332917
 30
0.0
 41
240.0
 42
240.0
 50
90.0
210
0.0
220
0.0
230
1.0
  0
LINE
  5
294
100
AcDbEntity
  8
1
  6
CONTINUOUS
 62
     7
100
AcDbLine
 10
499.561333
 20
-697.050917
 30
0.0
 11
499.561333
 21
-712.479167
 31
0.0
  0
LINE
  5
295
100
AcDbEntity
  8
1
  6
CONTINUOUS
 62
   212
100
AcDbLine
 10
469.561333
 20
-805.332917
 30
0.0
 11
529.561333
 21
-805.332917
 31
0.0
  0
LINE
  5
296
100
AcDbEntity
  8
1
  6
CONTINUOUS
 62
   212
100
AcDbLine
 10
469.561333
 20
-806.332917
 30
0.0
 11
529.561333
 21
-806.332917
 31
0.0
  0
LINE
  5
297
100
AcDbEntity
  8
1
  6
CONTINUOUS
 62
   212
100
AcDbLine
 10
529.561333
 20
-805.332917
 30
0.0
 11
529.561333
 21
-806.332917
 31
0.0
  0
LINE
  5
298
100
AcDbEntity
  8
1
  6
CONTINUOUS
 62
   212
100
AcDbLine
 10
546.561333
 20
-777.550917
 30
0.0
 11
546.561333
 21
-726.050917
 31
0.0
  0
LINE
  5
299
100
AcDbEntity
  8
1
  6
CONTINUOUS
 62
   212
100
AcDbLine
 10
547.561333
 20
-777.550917
 30
0.0
 11
547.561333
 21
-726.050917
 31
0.0
  0
LINE
  5
29A
100
AcDbEntity
  8
1
  6
CONTINUOUS
 62
   212
100
AcDbLine
 10
546.561333
 20
-726.050917
 30
0.0
 11
547.561333
 21
-726.050917
 31
0.0
  0
LINE
  5
29B
100
AcDbEntity
  8
1
  6
CONTINUOUS
 62
   212
100
AcDbLine
 10
546.561333
 20
-777.550917
 30
0.0
 11
547.561333
 21
-777.550917
 31
0.0
  0
LINE
  5
29C
100
AcDbEntity
  8
1
  6
CONTINUOUS
 62
   212
100
AcDbLine
 10
545.561333
 20
-733.428
 30
0.0
 11
546.561333
 21
-733.428
 31
0.0
  0
LINE
  5
29D
100
AcDbEntity
  8
1
  6
CONTINUOUS
 62
   212
100
AcDbLine
 10
545.561333
 20
-735.428
 30
0.0
 11
546.561333
 21
-735.428
 31
0.0
  0
LINE
  5
29E
100
AcDbEntity
  8
1
  6
CONTINUOUS
 62
   212
100
AcDbLine
 10
545.561333
 20
-735.428
 30
0.0
 11
545.561333
 21
-733.428
 31
0.0
  0
LINE
  5
29F
100
AcDbEntity
  8
1
  6
CONTINUOUS
 62
   212
100
AcDbLine
 10
549.061333
 20
-735.428
 30
0.0
 11
549.061333
 21
-733.428
 31
0.0
  0
LINE
  5
2A0
100
AcDbEntity
  8
1
  6
CONTINUOUS
 62
   212
100
AcDbLine
 10
549.061333
 20
-733.428
 30
0.0
 11
548.061333
 21
-733.428
 31
0.0
  0
LINE
  5
2A1
100
AcDbEntity
  8
1
  6
CONTINUOUS
 62
   212
100
AcDbLine
 10
553.061333
 20
-735.428
 30
0.0
 11
548.061333
 21
-735.428
 31
0.0
  0
LINE
  5
2A2
100
AcDbEntity
  8
1
  6
CONTINUOUS
 62
   212
100
AcDbLine
 10
548.061333
 20
-734.928
 30
0.0
 11
550.061333
 21
-734.928
 31
0.0
  0
LINE
  5
2A3
100
AcDbEntity
  8
1
  6
CONTINUOUS
 62
   212
100
AcDbLine
 10
548.061333
 20
-733.928
 30
0.0
 11
550.061333
 21
-733.928
 31
0.0
  0
LINE
  5
2A4
100
AcDbEntity
  8
1
  6
CONTINUOUS
 62
   212
100
AcDbLine
 10
550.061333
 20
-734.928
 30
0.0
 11
550.061333
 21
-733.928
 31
0.0
  0
LINE
  5
2A5
100
AcDbEntity
  8
1
  6
CONTINUOUS
 62
     7
100
AcDbLine
 10
546.561333
 20
-766.739167
 30
0.0
 11
536.57
 21
-766.739167
 31
0.0
  0
LINE
  5
2A6
100
AcDbEntity
  8
1
  6
CONTINUOUS
 62
     7
100
AcDbLine
 10
521.430583
 20
-806.332917
 30
0.0
 11
521.430583
 21
-816.343917
 31
0.0
  0
INSERT
  5
2A7
100
AcDbEntity
  8
1
  6
CONTINUOUS
 62
     1
100
AcDbBlockReference
  2
LDR
 10
546.552333
 20
-766.731083
 30
0.0
 41
240.0
 42
240.0
210
0.0
220
0.0
230
1.0
  0
INSERT
  5
2A8
100
AcDbEntity
  8
1
  6
CONTINUOUS
 62
     1
100
AcDbBlockReference
  2
LDR
 10
521.4225
 20
-806.341917
 30
0.0
 41
240.0
 42
240.0
 50
90.0
210
0.0
220
0.0
230
1.0
  0
LINE
  5
2A9
100
AcDbEntity
  8
1
  6
CONTINUOUS
 62
     7
100
AcDbLine
 10
499.561333
 20
-694.050917
 30
0.0
 11
499.561333
 21
-690.550917
 31
0.0
  0
LINE
  5
2AA
100
AcDbEntity
  8
1
  6
CONTINUOUS
 62
     7
100
AcDbLine
 10
499.561333
 20
-687.550917
 30
0.0
 11
499.561333
 21
-675.12975
 31
0.0
  0
LINE
  5
2AB
100
AcDbEntity
  8
1
  6
CONTINUOUS
 62
     7
100
AcDbLine
 10
499.561333
 20
-739.300917
 30
0.0
 11
499.561333
 21
-742.800917
 31
0.0
  0
LINE
  5
2AC
100
AcDbEntity
  8
1
  6
CONTINUOUS
 62
     7
100
AcDbLine
 10
499.561333
 20
-745.800917
 30
0.0
 11
499.561333
 21
-756.050917
 31
0.0
  0
LINE
  5
2AD
100
AcDbEntity
  8
1
  6
CONTINUOUS
 62
     7
100
AcDbLine
 10
499.561333
 20
-718.050917
 30
0.0
 11
499.561333
 21
-726.050917
 31
0.0
  0
LINE
  5
2AE
100
AcDbEntity
  8
1
  6
CONTINUOUS
 62
     7
100
AcDbLine
 10
499.561333
 20
-726.050917
 30
0.0
 11
499.561333
 21
-736.300917
 31
0.0
  0
LINE
  5
2AF
100
AcDbEntity
  8
1
  6
CONTINUOUS
 62
     7
100
AcDbLine
 10
499.561333
 20
-788.050917
 30
0.0
 11
499.561333
 21
-775.800917
 31
0.0
  0
LINE
  5
2B0
100
AcDbEntity
  8
1
  6
CONTINUOUS
 62
     7
100
AcDbLine
 10
499.561333
 20
-772.800917
 30
0.0
 11
499.561333
 21
-769.300917
 31
0.0
  0
LINE
  5
2B1
100
AcDbEntity
  8
1
  6
CONTINUOUS
 62
     7
100
AcDbLine
 10
499.561333
 20
-766.300917
 30
0.0
 11
499.561333
 21
-756.050917
 31
0.0
  0
LINE
  5
2B2
100
AcDbEntity
  8
1
  6
HIDDEN
 62
   212
100
AcDbLine
 10
486.311333
 20
-731.050917
 30
0.0
 11
486.311333
 21
-754.805083
 31
0.0
  0
LINE
  5
2B3
100
AcDbEntity
  8
1
  6
HIDDEN
 62
   212
100
AcDbLine
 10
512.811333
 20
-731.050917
 30
0.0
 11
512.811333
 21
-754.805083
 31
0.0
  0
LINE
  5
2B4
100
AcDbEntity
  8
1
  6
HIDDEN
 62
   212
100
AcDbLine
 10
487.811333
 20
-731.050917
 30
0.0
 11
487.811333
 21
-757.380083
 31
0.0
  0
LINE
  5
2B5
100
AcDbEntity
  8
1
  6
HIDDEN
 62
   212
100
AcDbLine
 10
489.311333
 20
-731.050917
 30
0.0
 11
489.311333
 21
-759.955083
 31
0.0
  0
LINE
  5
2B6
100
AcDbEntity
  8
1
  6
HIDDEN
 62
   212
100
AcDbLine
 10
490.811333
 20
-731.050917
 30
0.0
 11
490.811333
 21
-762.530083
 31
0.0
  0
LINE
  5
2B7
100
AcDbEntity
  8
1
  6
HIDDEN
 62
   212
100
AcDbLine
 10
492.311333
 20
-731.050917
 30
0.0
 11
492.311333
 21
-765.105083
 31
0.0
  0
LINE
  5
2B8
100
AcDbEntity
  8
1
  6
HIDDEN
 62
   212
100
AcDbLine
 10
511.311333
 20
-731.050917
 30
0.0
 11
511.311333
 21
-757.380083
 31
0.0
  0
LINE
  5
2B9
100
AcDbEntity
  8
1
  6
HIDDEN
 62
   212
100
AcDbLine
 10
509.811333
 20
-731.050917
 30
0.0
 11
509.811333
 21
-759.955083
 31
0.0
  0
LINE
  5
2BA
100
AcDbEntity
  8
1
  6
HIDDEN
 62
   212
100
AcDbLine
 10
508.311333
 20
-731.050917
 30
0.0
 11
508.311333
 21
-762.530083
 31
0.0
  0
LINE
  5
2BB
100
AcDbEntity
  8
1
  6
HIDDEN
 62
   212
100
AcDbLine
 10
506.811333
 20
-731.050917
 30
0.0
 11
506.811333
 21
-765.105083
 31
0.0
  0
LINE
  5
2BC
100
AcDbEntity
  8
1
  6
HIDDEN
 62
   212
100
AcDbLine
 10
486.311333
 20
-732.550917
 30
0.0
 11
512.811333
 21
-732.550917
 31
0.0
  0
LINE
  5
2BD
100
AcDbEntity
  8
1
  6
HIDDEN
 62
   212
100
AcDbLine
 10
486.311333
 20
-733.550917
 30
0.0
 11
512.811333
 21
-733.550917
 31
0.0
  0
LINE
  5
2BE
100
AcDbEntity
  8
1
  6
HIDDEN
 62
   212
100
AcDbLine
 10
486.311333
 20
-734.550917
 30
0.0
 11
512.811333
 21
-734.550917
 31
0.0
  0
LINE
  5
2BF
100
AcDbEntity
  8
1
  6
HIDDEN
 62
   212
100
AcDbLine
 10
486.311333
 20
-735.550917
 30
0.0
 11
512.811333
 21
-735.550917
 31
0.0
  0
LINE
  5
2C0
100
AcDbEntity
  8
1
  6
HIDDEN
 62
   212
100
AcDbLine
 10
486.311333
 20
-736.550917
 30
0.0
 11
512.811333
 21
-736.550917
 31
0.0
  0
LINE
  5
2C1
100
AcDbEntity
  8
1
  6
HIDDEN
 62
   212
100
AcDbLine
 10
486.311333
 20
-731.050917
 30
0.0
 11
493.811333
 21
-731.050917
 31
0.0
  0
LINE
  5
2C2
100
AcDbEntity
  8
1
  6
HIDDEN
 62
   212
100
AcDbLine
 10
505.311333
 20
-731.050917
 30
0.0
 11
512.811333
 21
-731.050917
 31
0.0
  0
LINE
  5
2C3
100
AcDbEntity
  8
1
  6
HIDDEN
 62
   212
100
AcDbLine
 10
486.311333
 20
-754.805083
 30
0.0
 11
512.811333
 21
-754.805083
 31
0.0
  0
LINE
  5
2C4
100
AcDbEntity
  8
1
  6
HIDDEN
 62
   212
100
AcDbLine
 10
486.311333
 20
-753.805083
 30
0.0
 11
512.811333
 21
-753.805083
 31
0.0
  0
LINE
  5
2C5
100
AcDbEntity
  8
1
  6
HIDDEN
 62
   212
100
AcDbLine
 10
486.311333
 20
-752.805083
 30
0.0
 11
512.811333
 21
-752.805083
 31
0.0
  0
LINE
  5
2C6
100
AcDbEntity
  8
1
  6
HIDDEN
 62
   212
100
AcDbLine
 10
486.311333
 20
-751.805083
 30
0.0
 11
512.811333
 21
-751.805083
 31
0.0
  0
LINE
  5
2C7
100
AcDbEntity
  8
1
  6
HIDDEN
 62
   212
100
AcDbLine
 10
486.311333
 20
-750.805083
 30
0.0
 11
512.811333
 21
-750.805083
 31
0.0
  0
LINE
  5
2C8
100
AcDbEntity
  8
1
  6
CONTINUOUS
 62
   212
100
AcDbLine
 10
486.311333
 20
-754.805083
 30
0.0
 11
486.311333
 21
-784.299833
 31
0.0
  0
LINE
  5
2C9
100
AcDbEntity
  8
1
  6
CONTINUOUS
 62
   212
100
AcDbLine
 10
512.811333
 20
-754.805083
 30
0.0
 11
512.811333
 21
-784.299833
 31
0.0
  0
LINE
  5
2CA
100
AcDbEntity
  8
1
  6
CONTINUOUS
 62
   212
100
AcDbLine
 10
487.811333
 20
-757.380083
 30
0.0
 11
487.811333
 21
-784.299833
 31
0.0
  0
LINE
  5
2CB
100
AcDbEntity
  8
1
  6
CONTINUOUS
 62
   212
100
AcDbLine
 10
489.311333
 20
-759.955083
 30
0.0
 11
489.311333
 21
-784.299833
 31
0.0
  0
LINE
  5
2CC
100
AcDbEntity
  8
1
  6
CONTINUOUS
 62
   212
100
AcDbLine
 10
490.811333
 20
-762.530083
 30
0.0
 11
490.811333
 21
-784.299833
 31
0.0
  0
LINE
  5
2CD
100
AcDbEntity
  8
1
  6
CONTINUOUS
 62
   212
100
AcDbLine
 10
492.311333
 20
-765.105083
 30
0.0
 11
492.311333
 21
-784.299833
 31
0.0
  0
LINE
  5
2CE
100
AcDbEntity
  8
1
  6
CONTINUOUS
 62
   212
100
AcDbLine
 10
493.811333
 20
-767.680083
 30
0.0
 11
493.811333
 21
-784.299833
 31
0.0
  0
LINE
  5
2CF
100
AcDbEntity
  8
1
  6
CONTINUOUS
 62
   212
100
AcDbLine
 10
505.311333
 20
-767.680083
 30
0.0
 11
505.311333
 21
-784.299833
 31
0.0
  0
LINE
  5
2D0
100
AcDbEntity
  8
1
  6
CONTINUOUS
 62
   212
100
AcDbLine
 10
506.811333
 20
-765.105083
 30
0.0
 11
506.811333
 21
-784.299833
 31
0.0
  0
LINE
  5
2D1
100
AcDbEntity
  8
1
  6
CONTINUOUS
 62
   212
100
AcDbLine
 10
508.311333
 20
-762.530083
 30
0.0
 11
508.311333
 21
-784.299833
 31
0.0
  0
LINE
  5
2D2
100
AcDbEntity
  8
1
  6
CONTINUOUS
 62
   212
100
AcDbLine
 10
509.811333
 20
-759.955083
 30
0.0
 11
509.811333
 21
-784.299833
 31
0.0
  0
LINE
  5
2D3
100
AcDbEntity
  8
1
  6
CONTINUOUS
 62
   212
100
AcDbLine
 10
511.311333
 20
-757.380083
 30
0.0
 11
511.311333
 21
-784.299833
 31
0.0
  0
LINE
  5
2D4
100
AcDbEntity
  8
1
  6
CONTINUOUS
 62
   212
100
AcDbLine
 10
487.561333
 20
-804.332917
 30
0.0
 11
511.561333
 21
-804.332917
 31
0.0
  0
LINE
  5
2D5
100
AcDbEntity
  8
1
  6
CONTINUOUS
 62
   212
100
AcDbLine
 10
487.561333
 20
-805.332917
 30
0.0
 11
487.561333
 21
-800.332917
 31
0.0
  0
LINE
  5
2D6
100
AcDbEntity
  8
1
  6
CONTINUOUS
 62
   212
100
AcDbLine
 10
511.561333
 20
-805.332917
 30
0.0
 11
511.561333
 21
-800.332917
 31
0.0
  0
LINE
  5
2D7
100
AcDbEntity
  8
1
  6
CONTINUOUS
 62
   212
100
AcDbLine
 10
487.561333
 20
-800.332917
 30
0.0
 11
511.561333
 21
-800.332917
 31
0.0
  0
LINE
  5
2D8
100
AcDbEntity
  8
1
  6
HIDDEN
 62
   212
100
AcDbLine
 10
487.561333
 20
-801.082917
 30
0.0
 11
511.561333
 21
-801.082917
 31
0.0
  0
LINE
  5
2D9
100
AcDbEntity
  8
1
  6
HIDDEN
 62
   212
100
AcDbLine
 10
487.561333
 20
-801.832917
 30
0.0
 11
511.561333
 21
-801.832917
 31
0.0
  0
LINE
  5
2DA
100
AcDbEntity
  8
1
  6
HIDDEN
 62
   212
100
AcDbLine
 10
487.561333
 20
-802.582917
 30
0.0
 11
511.561333
 21
-802.582917
 31
0.0
  0
LINE
  5
2DB
100
AcDbEntity
  8
1
  6
CONTINUOUS
 62
   212
100
AcDbLine
 10
487.561333
 20
-800.332917
 30
0.0
 11
487.561333
 21
-799.332917
 31
0.0
  0
LINE
  5
2DC
100
AcDbEntity
  8
1
  6
CONTINUOUS
 62
   212
100
AcDbLine
 10
511.561333
 20
-800.332917
 30
0.0
 11
511.561333
 21
-799.332917
 31
0.0
  0
LINE
  5
2DD
100
AcDbEntity
  8
1
  6
CONTINUOUS
 62
   212
100
AcDbLine
 10
487.561333
 20
-799.332917
 30
0.0
 11
488.561333
 21
-799.332917
 31
0.0
  0
LINE
  5
2DE
100
AcDbEntity
  8
1
  6
CONTINUOUS
 62
   212
100
AcDbLine
 10
511.561333
 20
-799.332917
 30
0.0
 11
510.561333
 21
-799.332917
 31
0.0
  0
LINE
  5
2DF
100
AcDbEntity
  8
1
  6
CONTINUOUS
 62
   212
100
AcDbLine
 10
494.561333
 20
-800.332917
 30
0.0
 11
494.561333
 21
-799.332917
 31
0.0
  0
LINE
  5
2E0
100
AcDbEntity
  8
1
  6
CONTINUOUS
 62
   212
100
AcDbLine
 10
504.561333
 20
-800.332917
 30
0.0
 11
504.561333
 21
-799.332917
 31
0.0
  0
LINE
  5
2E1
100
AcDbEntity
  8
1
  6
CONTINUOUS
 62
   212
100
AcDbLine
 10
493.561333
 20
-799.332917
 30
0.0
 11
494.561333
 21
-799.332917
 31
0.0
  0
LINE
  5
2E2
100
AcDbEntity
  8
1
  6
CONTINUOUS
 62
   212
100
AcDbLine
 10
505.561333
 20
-799.332917
 30
0.0
 11
504.561333
 21
-799.332917
 31
0.0
  0
LINE
  5
2E3
100
AcDbEntity
  8
1
  6
CONTINUOUS
 62
   212
100
AcDbLine
 10
489.811333
 20
-796.832917
 30
0.0
 11
492.311333
 21
-796.832917
 31
0.0
  0
LINE
  5
2E4
100
AcDbEntity
  8
1
  6
CONTINUOUS
 62
   212
100
AcDbLine
 10
506.811333
 20
-796.832917
 30
0.0
 11
509.311333
 21
-796.832917
 31
0.0
  0
LINE
  5
2E5
100
AcDbEntity
  8
1
  6
CONTINUOUS
 62
   212
100
AcDbLine
 10
488.561333
 20
-799.332917
 30
0.0
 11
489.811333
 21
-796.832917
 31
0.0
  0
LINE
  5
2E6
100
AcDbEntity
  8
1
  6
CONTINUOUS
 62
   212
100
AcDbLine
 10
493.561333
 20
-799.332917
 30
0.0
 11
492.311333
 21
-796.832917
 31
0.0
  0
LINE
  5
2E7
100
AcDbEntity
  8
1
  6
CONTINUOUS
 62
   212
100
AcDbLine
 10
505.561333
 20
-799.332917
 30
0.0
 11
506.811333
 21
-796.832917
 31
0.0
  0
LINE
  5
2E8
100
AcDbEntity
  8
1
  6
CONTINUOUS
 62
   212
100
AcDbLine
 10
509.311333
 20
-796.832917
 30
0.0
 11
510.561333
 21
-799.332917
 31
0.0
  0
LINE
  5
2E9
100
AcDbEntity
  8
1
  6
CONTINUOUS
 62
   212
100
AcDbLine
 10
490.27475
 20
-797.582917
 30
0.0
 11
491.847833
 21
-797.582917
 31
0.0
  0
LINE
  5
2EA
100
AcDbEntity
  8
1
  6
CONTINUOUS
 62
   212
100
AcDbLine
 10
488.89975
 20
-800.332917
 30
0.0
 11
490.27475
 21
-797.582917
 31
0.0
  0
LINE
  5
2EB
100
AcDbEntity
  8
1
  6
CONTINUOUS
 62
   212
100
AcDbLine
 10
493.222833
 20
-800.332917
 30
0.0
 11
491.847833
 21
-797.582917
 31
0.0
  0
LINE
  5
2EC
100
AcDbEntity
  8
1
  6
CONTINUOUS
 62
   212
100
AcDbLine
 10
507.27475
 20
-797.582917
 30
0.0
 11
508.847833
 21
-797.582917
 31
0.0
  0
LINE
  5
2ED
100
AcDbEntity
  8
1
  6
CONTINUOUS
 62
   212
100
AcDbLine
 10
505.89975
 20
-800.332917
 30
0.0
 11
507.27475
 21
-797.582917
 31
0.0
  0
LINE
  5
2EE
100
AcDbEntity
  8
1
  6
CONTINUOUS
 62
   212
100
AcDbLine
 10
508.847833
 20
-797.582917
 30
0.0
 11
510.222833
 21
-800.332917
 31
0.0
  0
LINE
  5
2EF
100
AcDbEntity
  8
1
  6
CONTINUOUS
 62
   212
100
AcDbLine
 10
490.061333
 20
-796.082917
 30
0.0
 11
492.061333
 21
-796.082917
 31
0.0
  0
LINE
  5
2F0
100
AcDbEntity
  8
1
  6
CONTINUOUS
 62
   212
100
AcDbLine
 10
507.061333
 20
-796.082917
 30
0.0
 11
509.061333
 21
-796.082917
 31
0.0
  0
LINE
  5
2F1
100
AcDbEntity
  8
1
  6
CONTINUOUS
 62
   212
100
AcDbLine
 10
490.061333
 20
-796.082917
 30
0.0
 11
490.061333
 21
-796.832917
 31
0.0
  0
LINE
  5
2F2
100
AcDbEntity
  8
1
  6
CONTINUOUS
 62
   212
100
AcDbLine
 10
492.061333
 20
-796.082917
 30
0.0
 11
492.061333
 21
-796.832917
 31
0.0
  0
LINE
  5
2F3
100
AcDbEntity
  8
1
  6
CONTINUOUS
 62
   212
100
AcDbLine
 10
507.061333
 20
-796.082917
 30
0.0
 11
507.061333
 21
-796.832917
 31
0.0
  0
LINE
  5
2F4
100
AcDbEntity
  8
1
  6
CONTINUOUS
 62
   212
100
AcDbLine
 10
509.061333
 20
-796.082917
 30
0.0
 11
509.061333
 21
-796.832917
 31
0.0
  0
LINE
  5
2F5
100
AcDbEntity
  8
1
  6
CONTINUOUS
 62
   212
100
AcDbLine
 10
490.52475
 20
-797.582917
 30
0.0
 11
490.52475
 21
-800.332917
 31
0.0
  0
LINE
  5
2F6
100
AcDbEntity
  8
1
  6
CONTINUOUS
 62
   212
100
AcDbLine
 10
491.597833
 20
-797.582917
 30
0.0
 11
491.597833
 21
-800.332917
 31
0.0
  0
LINE
  5
2F7
100
AcDbEntity
  8
1
  6
CONTINUOUS
 62
   212
100
AcDbLine
 10
507.52475
 20
-797.582917
 30
0.0
 11
507.52475
 21
-800.332917
 31
0.0
  0
LINE
  5
2F8
100
AcDbEntity
  8
1
  6
CONTINUOUS
 62
   212
100
AcDbLine
 10
508.597833
 20
-797.582917
 30
0.0
 11
508.597833
 21
-800.332917
 31
0.0
  0
LINE
  5
2F9
100
AcDbEntity
  8
1
  6
CONTINUOUS
 62
   212
100
AcDbLine
 10
490.52475
 20
-796.832917
 30
0.0
 11
490.52475
 21
-795.332917
 31
0.0
  0
LINE
  5
2FA
100
AcDbEntity
  8
1
  6
CONTINUOUS
 62
   212
100
AcDbLine
 10
491.597833
 20
-796.832917
 30
0.0
 11
491.597833
 21
-795.332917
 31
0.0
  0
LINE
  5
2FB
100
AcDbEntity
  8
1
  6
CONTINUOUS
 62
   212
100
AcDbLine
 10
490.52475
 20
-795.332917
 30
0.0
 11
491.597833
 21
-795.332917
 31
0.0
  0
LINE
  5
2FC
100
AcDbEntity
  8
1
  6
CONTINUOUS
 62
   212
100
AcDbLine
 10
507.52475
 20
-796.832917
 30
0.0
 11
507.52475
 21
-795.332917
 31
0.0
  0
LINE
  5
2FD
100
AcDbEntity
  8
1
  6
CONTINUOUS
 62
   212
100
AcDbLine
 10
508.597833
 20
-796.832917
 30
0.0
 11
508.597833
 21
-795.332917
 31
0.0
  0
LINE
  5
2FE
100
AcDbEntity
  8
1
  6
CONTINUOUS
 62
   212
100
AcDbLine
 10
507.52475
 20
-795.332917
 30
0.0
 11
508.597833
 21
-795.332917
 31
0.0
  0
LINE
  5
2FF
100
AcDbEntity
  8
1
  6
CONTINUOUS
 62
   212
100
AcDbLine
 10
490.52475
 20
-798.082917
 30
0.0
 11
491.597833
 21
-798.082917
 31
0.0
  0
LINE
  5
300
100
AcDbEntity
  8
1
  6
CONTINUOUS
 62
   212
100
AcDbLine
 10
490.52475
 20
-798.582917
 30
0.0
 11
491.597833
 21
-798.582917
 31
0.0
  0
LINE
  5
301
100
AcDbEntity
  8
1
  6
CONTINUOUS
 62
   212
100
AcDbLine
 10
490.52475
 20
-799.082917
 30
0.0
 11
491.597833
 21
-799.082917
 31
0.0
  0
LINE
  5
302
100
AcDbEntity
  8
1
  6
CONTINUOUS
 62
   212
100
AcDbLine
 10
490.52475
 20
-799.582917
 30
0.0
 11
491.597833
 21
-799.582917
 31
0.0
  0
LINE
  5
303
100
AcDbEntity
  8
1
  6
CONTINUOUS
 62
   212
100
AcDbLine
 10
490.52475
 20
-800.082917
 30
0.0
 11
491.597833
 21
-800.082917
 31
0.0
  0
LINE
  5
304
100
AcDbEntity
  8
1
  6
CONTINUOUS
 62
   212
100
AcDbLine
 10
490.77475
 20
-797.832917
 30
0.0
 11
491.347833
 21
-797.832917
 31
0.0
  0
LINE
  5
305
100
AcDbEntity
  8
1
  6
CONTINUOUS
 62
   212
100
AcDbLine
 10
490.77475
 20
-798.332917
 30
0.0
 11
491.347833
 21
-798.332917
 31
0.0
  0
LINE
  5
306
100
AcDbEntity
  8
1
  6
CONTINUOUS
 62
   212
100
AcDbLine
 10
490.77475
 20
-798.832917
 30
0.0
 11
491.347833
 21
-798.832917
 31
0.0
  0
LINE
  5
307
100
AcDbEntity
  8
1
  6
CONTINUOUS
 62
   212
100
AcDbLine
 10
490.77475
 20
-799.332917
 30
0.0
 11
491.347833
 21
-799.332917
 31
0.0
  0
LINE
  5
308
100
AcDbEntity
  8
1
  6
CONTINUOUS
 62
   212
100
AcDbLine
 10
490.77475
 20
-799.832917
 30
0.0
 11
491.347833
 21
-799.832917
 31
0.0
  0
LINE
  5
309
100
AcDbEntity
  8
1
  6
CONTINUOUS
 62
   212
100
AcDbLine
 10
507.77475
 20
-797.832917
 30
0.0
 11
508.347833
 21
-797.832917
 31
0.0
  0
LINE
  5
30A
100
AcDbEntity
  8
1
  6
CONTINUOUS
 62
   212
100
AcDbLine
 10
507.52475
 20
-798.082917
 30
0.0
 11
508.597833
 21
-798.082917
 31
0.0
  0
LINE
  5
30B
100
AcDbEntity
  8
1
  6
CONTINUOUS
 62
   212
100
AcDbLine
 10
507.77475
 20
-798.332917
 30
0.0
 11
508.347833
 21
-798.332917
 31
0.0
  0
LINE
  5
30C
100
AcDbEntity
  8
1
  6
CONTINUOUS
 62
   212
100
AcDbLine
 10
507.52475
 20
-798.582917
 30
0.0
 11
508.597833
 21
-798.582917
 31
0.0
  0
LINE
  5
30D
100
AcDbEntity
  8
1
  6
CONTINUOUS
 62
   212
100
AcDbLine
 10
507.77475
 20
-798.832917
 30
0.0
 11
508.347833
 21
-798.832917
 31
0.0
  0
LINE
  5
30E
100
AcDbEntity
  8
1
  6
CONTINUOUS
 62
   212
100
AcDbLine
 10
507.52475
 20
-799.082917
 30
0.0
 11
508.597833
 21
-799.082917
 31
0.0
  0
LINE
  5
30F
100
AcDbEntity
  8
1
  6
CONTINUOUS
 62
   212
100
AcDbLine
 10
507.77475
 20
-799.332917
 30
0.0
 11
508.347833
 21
-799.332917
 31
0.0
  0
LINE
  5
310
100
AcDbEntity
  8
1
  6
CONTINUOUS
 62
   212
100
AcDbLine
 10
507.52475
 20
-799.582917
 30
0.0
 11
508.597833
 21
-799.582917
 31
0.0
  0
LINE
  5
311
100
AcDbEntity
  8
1
  6
CONTINUOUS
 62
   212
100
AcDbLine
 10
507.77475
 20
-799.832917
 30
0.0
 11
508.347833
 21
-799.832917
 31
0.0
  0
LINE
  5
312
100
AcDbEntity
  8
1
  6
CONTINUOUS
 62
   212
100
AcDbLine
 10
507.52475
 20
-800.082917
 30
0.0
 11
508.597833
 21
-800.082917
 31
0.0
  0
LINE
  5
313
100
AcDbEntity
  8
1
  6
CONTINUOUS
 62
     7
100
AcDbLine
 10
491.597833
 20
-801.332917
 30
0.0
 11
491.597833
 21
-801.832917
 31
0.0
  0
LINE
  5
314
100
AcDbEntity
  8
1
  6
CONTINUOUS
 62
     7
100
AcDbLine
 10
507.52475
 20
-801.332917
 30
0.0
 11
507.52475
 21
-801.832917
 31
0.0
  0
LINE
  5
315
100
AcDbEntity
  8
1
  6
CONTINUOUS
 62
   212
100
AcDbLine
 10
491.06125
 20
-802.832917
 30
0.0
 11
492.134333
 21
-802.832917
 31
0.0
  0
LINE
  5
316
100
AcDbEntity
  8
1
  6
CONTINUOUS
 62
   212
100
AcDbLine
 10
490.597833
 20
-803.582917
 30
0.0
 11
492.597833
 21
-803.582917
 31
0.0
  0
LINE
  5
317
100
AcDbEntity
  8
1
  6
CONTINUOUS
 62
   212
100
AcDbLine
 10
490.597833
 20
-803.582917
 30
0.0
 11
490.597833
 21
-804.332917
 31
0.0
  0
LINE
  5
318
100
AcDbEntity
  8
1
  6
CONTINUOUS
 62
   212
100
AcDbLine
 10
492.597833
 20
-803.582917
 30
0.0
 11
492.597833
 21
-804.332917
 31
0.0
  0
LINE
  5
319
100
AcDbEntity
  8
1
  6
CONTINUOUS
 62
   212
100
AcDbLine
 10
491.06125
 20
-804.332917
 30
0.0
 11
491.06125
 21
-802.832917
 31
0.0
  0
LINE
  5
31A
100
AcDbEntity
  8
1
  6
CONTINUOUS
 62
   212
100
AcDbLine
 10
492.134333
 20
-804.332917
 30
0.0
 11
492.134333
 21
-802.832917
 31
0.0
  0
LINE
  5
31B
100
AcDbEntity
  8
1
  6
CONTINUOUS
 62
   212
100
AcDbLine
 10
506.988167
 20
-802.832917
 30
0.0
 11
508.06125
 21
-802.832917
 31
0.0
  0
LINE
  5
31C
100
AcDbEntity
  8
1
  6
CONTINUOUS
 62
   212
100
AcDbLine
 10
506.52475
 20
-803.582917
 30
0.0
 11
508.52475
 21
-803.582917
 31
0.0
  0
LINE
  5
31D
100
AcDbEntity
  8
1
  6
CONTINUOUS
 62
   212
100
AcDbLine
 10
506.52475
 20
-803.582917
 30
0.0
 11
506.52475
 21
-804.332917
 31
0.0
  0
LINE
  5
31E
100
AcDbEntity
  8
1
  6
CONTINUOUS
 62
   212
100
AcDbLine
 10
508.52475
 20
-803.582917
 30
0.0
 11
508.52475
 21
-804.332917
 31
0.0
  0
LINE
  5
31F
100
AcDbEntity
  8
1
  6
CONTINUOUS
 62
   212
100
AcDbLine
 10
506.988167
 20
-804.332917
 30
0.0
 11
506.988167
 21
-802.832917
 31
0.0
  0
LINE
  5
320
100
AcDbEntity
  8
1
  6
CONTINUOUS
 62
   212
100
AcDbLine
 10
508.06125
 20
-804.332917
 30
0.0
 11
508.06125
 21
-802.832917
 31
0.0
  0
LINE
  5
321
100
AcDbEntity
  8
1
  6
CONTINUOUS
 62
   212
100
AcDbLine
 10
490.597833
 20
-807.082917
 30
0.0
 11
492.597833
 21
-807.082917
 31
0.0
  0
LINE
  5
322
100
AcDbEntity
  8
1
  6
CONTINUOUS
 62
   212
100
AcDbLine
 10
490.597833
 20
-807.082917
 30
0.0
 11
490.597833
 21
-806.332917
 31
0.0
  0
LINE
  5
323
100
AcDbEntity
  8
1
  6
CONTINUOUS
 62
   212
100
AcDbLine
 10
492.597833
 20
-807.082917
 30
0.0
 11
492.597833
 21
-806.332917
 31
0.0
  0
LINE
  5
324
100
AcDbEntity
  8
1
  6
CONTINUOUS
 62
   212
100
AcDbLine
 10
506.52475
 20
-807.082917
 30
0.0
 11
508.52475
 21
-807.082917
 31
0.0
  0
LINE
  5
325
100
AcDbEntity
  8
1
  6
CONTINUOUS
 62
   212
100
AcDbLine
 10
506.52475
 20
-807.082917
 30
0.0
 11
506.52475
 21
-806.332917
 31
0.0
  0
LINE
  5
326
100
AcDbEntity
  8
1
  6
CONTINUOUS
 62
   212
100
AcDbLine
 10
508.52475
 20
-807.082917
 30
0.0
 11
508.52475
 21
-806.332917
 31
0.0
  0
LINE
  5
327
100
AcDbEntity
  8
1
  6
CONTINUOUS
 62
   212
100
AcDbLine
 10
491.06125
 20
-806.332917
 30
0.0
 11
491.06125
 21
-807.082917
 31
0.0
  0
LINE
  5
328
100
AcDbEntity
  8
1
  6
CONTINUOUS
 62
   212
100
AcDbLine
 10
492.134333
 20
-806.332917
 30
0.0
 11
492.134333
 21
-807.082917
 31
0.0
  0
LINE
  5
329
100
AcDbEntity
  8
1
  6
CONTINUOUS
 62
   212
100
AcDbLine
 10
506.988167
 20
-806.332917
 30
0.0
 11
506.988167
 21
-807.082917
 31
0.0
  0
LINE
  5
32A
100
AcDbEntity
  8
1
  6
CONTINUOUS
 62
   212
100
AcDbLine
 10
508.06125
 20
-806.332917
 30
0.0
 11
508.06125
 21
-807.082917
 31
0.0
  0
LINE
  5
32B
100
AcDbEntity
  8
1
  6
CONTINUOUS
 62
     7
100
AcDbLine
 10
487.561333
 20
-807.332917
 30
0.0
 11
487.561333
 21
-820.297583
 31
0.0
  0
LINE
  5
32C
100
AcDbEntity
  8
1
  6
CONTINUOUS
 62
     7
100
AcDbLine
 10
490.597833
 20
-818.297583
 30
0.0
 11
490.597833
 21
-825.739167
 31
0.0
  0
LINE
  5
32D
100
AcDbEntity
  8
1
  6
CONTINUOUS
 62
     7
100
AcDbLine
 10
508.52475
 20
-810.638333
 30
0.0
 11
508.52475
 21
-825.739167
 31
0.0
  0
LINE
  5
32E
100
AcDbEntity
  8
1
  6
CONTINUOUS
 62
     7
100
AcDbLine
 10
491.597833
 20
-810.638333
 30
0.0
 11
491.597833
 21
-825.739167
 31
0.0
  0
LINE
  5
32F
100
AcDbEntity
  8
1
  6
CONTINUOUS
 62
   212
100
AcDbLine
 10
548.061333
 20
-735.428
 30
0.0
 11
548.061333
 21
-732.928
 31
0.0
  0
ARC
  5
330
100
AcDbEntity
  8
1
  6
CONTINUOUS
 62
   212
100
AcDbCircle
 10
547.684758
 20
-733.043085
 30
0.0
 40
0.393768
210
0.0
220
0.0
230
1.0
100
AcDbArc
 50
16.993586
 51
108.266919
  0
LINE
  5
331
100
AcDbEntity
  8
1
  6
CONTINUOUS
 62
   212
100
AcDbLine
 10
551.061333
 20
-736.178
 30
0.0
 11
547.561333
 21
-736.178
 31
0.0
  0
LINE
  5
332
100
AcDbEntity
  8
1
  6
CONTINUOUS
 62
   212
100
AcDbLine
 10
551.061333
 20
-736.178
 30
0.0
 11
551.061333
 21
-738.428
 31
0.0
  0
LINE
  5
333
100
AcDbEntity
  8
1
  6
CONTINUOUS
 62
   212
100
AcDbLine
 10
551.811333
 20
-736.178
 30
0.0
 11
551.811333
 21
-737.678
 31
0.0
  0
LINE
  5
334
100
AcDbEntity
  8
1
  6
CONTINUOUS
 62
   212
100
AcDbLine
 10
551.811333
 20
-736.178
 30
0.0
 11
553.061333
 21
-736.178
 31
0.0
  0
LINE
  5
335
100
AcDbEntity
  8
1
  6
CONTINUOUS
 62
   212
100
AcDbLine
 10
551.811333
 20
-737.678
 30
0.0
 11
553.061333
 21
-737.678
 31
0.0
  0
LINE
  5
336
100
AcDbEntity
  8
1
  6
CONTINUOUS
 62
   212
100
AcDbLine
 10
551.061333
 20
-738.428
 30
0.0
 11
553.061333
 21
-738.428
 31
0.0
  0
LINE
  5
337
100
AcDbEntity
  8
1
  6
CONTINUOUS
 62
   212
100
AcDbLine
 10
553.061333
 20
-731.928
 30
0.0
 11
553.061333
 21
-784.299833
 31
0.0
  0
LINE
  5
338
100
AcDbEntity
  8
1
  6
CONTINUOUS
 62
     7
100
AcDbLine
 10
551.061333
 20
-734.428
 30
0.0
 11
550.311333
 21
-734.428
 31
0.0
  0
LINE
  5
339
100
AcDbEntity
  8
1
  6
CONTINUOUS
 62
     7
100
AcDbLine
 10
545.311333
 20
-734.428
 30
0.0
 11
543.561333
 21
-734.428
 31
0.0
  0
LINE
  5
33A
100
AcDbEntity
  8
1
  6
CONTINUOUS
 62
   212
100
AcDbLine
 10
556.061333
 20
-731.928
 30
0.0
 11
556.061333
 21
-784.299833
 31
0.0
  0
LINE
  5
33B
100
AcDbEntity
  8
1
  6
CONTINUOUS
 62
   212
100
AcDbLine
 10
553.061333
 20
-731.928
 30
0.0
 11
556.061333
 21
-731.928
 31
0.0
  0
LINE
  5
33C
100
AcDbEntity
  8
1
  6
CONTINUOUS
 62
   212
100
AcDbLine
 10
553.061333
 20
-753.928
 30
0.0
 11
548.061333
 21
-753.928
 31
0.0
  0
LINE
  5
33D
100
AcDbEntity
  8
1
  6
CONTINUOUS
 62
   212
100
AcDbLine
 10
545.561333
 20
-751.928
 30
0.0
 11
546.561333
 21
-751.928
 31
0.0
  0
LINE
  5
33E
100
AcDbEntity
  8
1
  6
CONTINUOUS
 62
   212
100
AcDbLine
 10
545.561333
 20
-753.928
 30
0.0
 11
546.561333
 21
-753.928
 31
0.0
  0
LINE
  5
33F
100
AcDbEntity
  8
1
  6
CONTINUOUS
 62
   212
100
AcDbLine
 10
545.561333
 20
-753.928
 30
0.0
 11
545.561333
 21
-751.928
 31
0.0
  0
LINE
  5
340
100
AcDbEntity
  8
1
  6
CONTINUOUS
 62
   212
100
AcDbLine
 10
549.061333
 20
-753.928
 30
0.0
 11
549.061333
 21
-751.928
 31
0.0
  0
LINE
  5
341
100
AcDbEntity
  8
1
  6
CONTINUOUS
 62
   212
100
AcDbLine
 10
549.061333
 20
-751.928
 30
0.0
 11
548.061333
 21
-751.928
 31
0.0
  0
LINE
  5
342
100
AcDbEntity
  8
1
  6
CONTINUOUS
 62
   212
100
AcDbLine
 10
548.061333
 20
-753.428
 30
0.0
 11
550.061333
 21
-753.428
 31
0.0
  0
LINE
  5
343
100
AcDbEntity
  8
1
  6
CONTINUOUS
 62
   212
100
AcDbLine
 10
548.061333
 20
-752.428
 30
0.0
 11
550.061333
 21
-752.428
 31
0.0
  0
LINE
  5
344
100
AcDbEntity
  8
1
  6
CONTINUOUS
 62
   212
100
AcDbLine
 10
550.061333
 20
-753.428
 30
0.0
 11
550.061333
 21
-752.428
 31
0.0
  0
LINE
  5
345
100
AcDbEntity
  8
1
  6
CONTINUOUS
 62
   212
100
AcDbLine
 10
548.061333
 20
-753.928
 30
0.0
 11
548.061333
 21
-751.428
 31
0.0
  0
ARC
  5
346
100
AcDbEntity
  8
1
  6
CONTINUOUS
 62
   212
100
AcDbCircle
 10
547.684758
 20
-751.543085
 30
0.0
 40
0.393768
210
0.0
220
0.0
230
1.0
100
AcDbArc
 50
16.993586
 51
108.266919
  0
LINE
  5
347
100
AcDbEntity
  8
1
  6
CONTINUOUS
 62
   212
100
AcDbLine
 10
551.061333
 20
-754.678
 30
0.0
 11
547.561333
 21
-754.678
 31
0.0
  0
LINE
  5
348
100
AcDbEntity
  8
1
  6
CONTINUOUS
 62
   212
100
AcDbLine
 10
551.061333
 20
-754.678
 30
0.0
 11
551.061333
 21
-756.928
 31
0.0
  0
LINE
  5
349
100
AcDbEntity
  8
1
  6
CONTINUOUS
 62
   212
100
AcDbLine
 10
551.811333
 20
-754.678
 30
0.0
 11
551.811333
 21
-756.178
 31
0.0
  0
LINE
  5
34A
100
AcDbEntity
  8
1
  6
CONTINUOUS
 62
   212
100
AcDbLine
 10
551.811333
 20
-754.678
 30
0.0
 11
553.061333
 21
-754.678
 31
0.0
  0
LINE
  5
34B
100
AcDbEntity
  8
1
  6
CONTINUOUS
 62
   212
100
AcDbLine
 10
551.811333
 20
-756.178
 30
0.0
 11
553.061333
 21
-756.178
 31
0.0
  0
LINE
  5
34C
100
AcDbEntity
  8
1
  6
CONTINUOUS
 62
   212
100
AcDbLine
 10
551.061333
 20
-756.928
 30
0.0
 11
553.061333
 21
-756.928
 31
0.0
  0
LINE
  5
34D
100
AcDbEntity
  8
1
  6
CONTINUOUS
 62
     7
100
AcDbLine
 10
551.061333
 20
-752.928
 30
0.0
 11
550.311333
 21
-752.928
 31
0.0
  0
LINE
  5
34E
100
AcDbEntity
  8
1
  6
CONTINUOUS
 62
     7
100
AcDbLine
 10
545.311333
 20
-752.928
 30
0.0
 11
543.561333
 21
-752.928
 31
0.0
  0
LINE
  5
34F
100
AcDbEntity
  8
1
  6
CONTINUOUS
 62
   212
100
AcDbLine
 10
553.811333
 20
-731.928
 30
0.0
 11
553.811333
 21
-784.299833
 31
0.0
  0
LINE
  5
350
100
AcDbEntity
  8
1
  6
HIDDEN
 62
   212
100
AcDbLine
 10
555.311333
 20
-731.928
 30
0.0
 11
555.311333
 21
-784.299833
 31
0.0
  0
LINE
  5
351
100
AcDbEntity
  8
1
  6
CONTINUOUS
 62
   212
100
AcDbLine
 10
558.061333
 20
-737.428
 30
0.0
 11
558.061333
 21
-736.428
 31
0.0
  0
LINE
  5
352
100
AcDbEntity
  8
1
  6
CONTINUOUS
 62
   212
100
AcDbLine
 10
557.061333
 20
-737.928
 30
0.0
 11
557.061333
 21
-735.928
 31
0.0
  0
LINE
  5
353
100
AcDbEntity
  8
1
  6
CONTINUOUS
 62
   212
100
AcDbLine
 10
557.061333
 20
-735.928
 30
0.0
 11
556.061333
 21
-735.928
 31
0.0
  0
LINE
  5
354
100
AcDbEntity
  8
1
  6
CONTINUOUS
 62
   212
100
AcDbLine
 10
556.061333
 20
-737.428
 30
0.0
 11
558.061333
 21
-737.428
 31
0.0
  0
LINE
  5
355
100
AcDbEntity
  8
1
  6
CONTINUOUS
 62
   212
100
AcDbLine
 10
556.061333
 20
-736.428
 30
0.0
 11
558.061333
 21
-736.428
 31
0.0
  0
LINE
  5
356
100
AcDbEntity
  8
1
  6
CONTINUOUS
 62
   212
100
AcDbLine
 10
557.061333
 20
-737.928
 30
0.0
 11
556.061333
 21
-737.928
 31
0.0
  0
LINE
  5
357
100
AcDbEntity
  8
1
  6
HIDDEN
 62
   212
100
AcDbLine
 10
556.061333
 20
-736.428
 30
0.0
 11
553.811333
 21
-736.428
 31
0.0
  0
LINE
  5
358
100
AcDbEntity
  8
1
  6
HIDDEN
 62
   212
100
AcDbLine
 10
556.061333
 20
-737.428
 30
0.0
 11
553.811333
 21
-737.428
 31
0.0
  0
LINE
  5
359
100
AcDbEntity
  8
1
  6
CONTINUOUS
 62
   212
100
AcDbLine
 10
558.061333
 20
-755.928
 30
0.0
 11
558.061333
 21
-754.928
 31
0.0
  0
LINE
  5
35A
100
AcDbEntity
  8
1
  6
CONTINUOUS
 62
   212
100
AcDbLine
 10
557.061333
 20
-756.428
 30
0.0
 11
557.061333
 21
-754.428
 31
0.0
  0
LINE
  5
35B
100
AcDbEntity
  8
1
  6
CONTINUOUS
 62
   212
100
AcDbLine
 10
557.061333
 20
-754.428
 30
0.0
 11
556.061333
 21
-754.428
 31
0.0
  0
LINE
  5
35C
100
AcDbEntity
  8
1
  6
CONTINUOUS
 62
   212
100
AcDbLine
 10
556.061333
 20
-755.928
 30
0.0
 11
558.061333
 21
-755.928
 31
0.0
  0
LINE
  5
35D
100
AcDbEntity
  8
1
  6
CONTINUOUS
 62
   212
100
AcDbLine
 10
556.061333
 20
-754.928
 30
0.0
 11
558.061333
 21
-754.928
 31
0.0
  0
LINE
  5
35E
100
AcDbEntity
  8
1
  6
CONTINUOUS
 62
   212
100
AcDbLine
 10
557.061333
 20
-756.428
 30
0.0
 11
556.061333
 21
-756.428
 31
0.0
  0
LINE
  5
35F
100
AcDbEntity
  8
1
  6
HIDDEN
 62
   212
100
AcDbLine
 10
556.061333
 20
-754.928
 30
0.0
 11
553.811333
 21
-754.928
 31
0.0
  0
LINE
  5
360
100
AcDbEntity
  8
1
  6
HIDDEN
 62
   212
100
AcDbLine
 10
556.061333
 20
-755.928
 30
0.0
 11
553.811333
 21
-755.928
 31
0.0
  0
LINE
  5
361
100
AcDbEntity
  8
1
  6
CONTINUOUS
 62
   212
100
AcDbLine
 10
390.561333
 20
-786.050917
 30
0.0
 11
391.561333
 21
-786.050917
 31
0.0
  0
LINE
  5
362
100
AcDbEntity
  8
1
  6
CONTINUOUS
 62
   212
100
AcDbLine
 10
372.561333
 20
-726.050917
 30
0.0
 11
312.561333
 21
-726.050917
 31
0.0
  0
LINE
  5
363
100
AcDbEntity
  8
1
  6
CONTINUOUS
 62
   212
100
AcDbLine
 10
312.561333
 20
-726.050917
 30
0.0
 11
342.561333
 21
-777.550917
 31
0.0
  0
LINE
  5
364
100
AcDbEntity
  8
1
  6
CONTINUOUS
 62
   212
100
AcDbLine
 10
372.561333
 20
-726.050917
 30
0.0
 11
342.561333
 21
-777.550917
 31
0.0
  0
LINE
  5
365
100
AcDbEntity
  8
1
  6
CONTINUOUS
 62
   212
100
AcDbLine
 10
312.561333
 20
-655.550917
 30
0.0
 11
342.561333
 21
-707.050917
 31
0.0
  0
LINE
  5
366
100
AcDbEntity
  8
1
  6
CONTINUOUS
 62
   212
100
AcDbLine
 10
372.561333
 20
-655.550917
 30
0.0
 11
342.561333
 21
-707.050917
 31
0.0
  0
LINE
  5
367
100
AcDbEntity
  8
1
  6
CONTINUOUS
 62
     7
100
AcDbLine
 10
342.561333
 20
-681.22575
 30
0.0
 11
342.561333
 21
-666.126083
 31
0.0
  0
CIRCLE
  5
368
100
AcDbEntity
  8
1
  6
CONTINUOUS
 62
   212
100
AcDbCircle
 10
342.561333
 20
-662.376083
 30
0.0
 40
0.75
210
0.0
220
0.0
230
1.0
  0
LINE
  5
369
100
AcDbEntity
  8
1
  6
CONTINUOUS
 62
   212
100
AcDbLine
 10
372.561333
 20
-655.550917
 30
0.0
 11
312.561333
 21
-655.550917
 31
0.0
  0
LINE
  5
36A
100
AcDbEntity
  8
1
  6
CONTINUOUS
 62
     7
100
AcDbLine
 10
312.561333
 20
-654.550917
 30
0.0
 11
312.561333
 21
-650.550917
 31
0.0
  0
LINE
  5
36B
100
AcDbEntity
  8
1
  6
CONTINUOUS
 62
     7
100
AcDbLine
 10
312.561333
 20
-651.550917
 30
0.0
 11
342.561333
 21
-651.550917
 31
0.0
  0
INSERT
  5
36C
100
AcDbEntity
  8
1
  6
CONTINUOUS
 62
     1
100
AcDbBlockReference
  2
LDR
 10
312.561333
 20
-651.550917
 30
0.0
 41
240.0
 42
240.0
 50
180.0
210
0.0
220
0.0
230
1.0
  0
INSERT
  5
36D
100
AcDbEntity
  8
1
  6
CONTINUOUS
 62
     1
100
AcDbBlockReference
  2
LDR
 10
312.561333
 20
-651.550917
 30
0.0
 41
240.0
 42
240.0
 50
180.0
210
0.0
220
0.0
230
1.0
  0
INSERT
  5
36E
100
AcDbEntity
  8
1
  6
CONTINUOUS
 62
     1
100
AcDbBlockReference
  2
LDR
 10
342.561333
 20
-651.550917
 30
0.0
 41
240.0
 42
240.0
210
0.0
220
0.0
230
1.0
  0
LINE
  5
36F
100
AcDbEntity
  8
1
  6
CONTINUOUS
 62
     7
100
AcDbLine
 10
340.811333
 20
-662.376083
 30
0.0
 11
342.561333
 21
-662.376083
 31
0.0
  0
LINE
  5
370
100
AcDbEntity
  8
1
  6
CONTINUOUS
 62
     7
100
AcDbLine
 10
342.561333
 20
-662.376083
 30
0.0
 11
344.311333
 21
-662.376083
 31
0.0
  0
LINE
  5
371
100
AcDbEntity
  8
1
  6
CONTINUOUS
 62
     7
100
AcDbLine
 10
342.561333
 20
-650.550917
 30
0.0
 11
342.561333
 21
-658.626083
 31
0.0
  0
LINE
  5
372
100
AcDbEntity
  8
1
  6
CONTINUOUS
 62
     7
100
AcDbLine
 10
342.561333
 20
-660.626083
 30
0.0
 11
342.561333
 21
-664.126083
 31
0.0
  0
LINE
  5
373
100
AcDbEntity
  8
1
  6
CONTINUOUS
 62
     7
100
AcDbLine
 10
342.561333
 20
-665.5555
 30
0.0
 11
342.561333
 21
-666.126083
 31
0.0
  0
LINE
  5
374
100
AcDbEntity
  8
1
  6
CONTINUOUS
 62
     7
100
AcDbLine
 10
338.811333
 20
-662.376083
 30
0.0
 11
336.811333
 21
-662.376083
 31
0.0
  0
LINE
  5
375
100
AcDbEntity
  8
1
  6
CONTINUOUS
 62
     7
100
AcDbLine
 10
346.24725
 20
-662.376083
 30
0.0
 11
382.24725
 21
-662.376083
 31
0.0
  0
CIRCLE
  5
376
100
AcDbEntity
  8
1
  6
CONTINUOUS
 62
   212
100
AcDbCircle
 10
342.561333
 20
-693.050917
 30
0.0
 40
0.75
210
0.0
220
0.0
230
1.0
  0
LINE
  5
377
100
AcDbEntity
  8
1
  6
CONTINUOUS
 62
     7
100
AcDbLine
 10
340.811333
 20
-693.050917
 30
0.0
 11
342.561333
 21
-693.050917
 31
0.0
  0
LINE
  5
378
100
AcDbEntity
  8
1
  6
CONTINUOUS
 62
     7
100
AcDbLine
 10
342.561333
 20
-693.050917
 30
0.0
 11
344.311333
 21
-693.050917
 31
0.0
  0
LINE
  5
379
100
AcDbEntity
  8
1
  6
CONTINUOUS
 62
     7
100
AcDbLine
 10
342.561333
 20
-681.22575
 30
0.0
 11
342.561333
 21
-689.300917
 31
0.0
  0
LINE
  5
37A
100
AcDbEntity
  8
1
  6
CONTINUOUS
 62
     7
100
AcDbLine
 10
342.561333
 20
-691.300917
 30
0.0
 11
342.561333
 21
-694.800917
 31
0.0
  0
LINE
  5
37B
100
AcDbEntity
  8
1
  6
CONTINUOUS
 62
     7
100
AcDbLine
 10
338.811333
 20
-693.050917
 30
0.0
 11
336.811333
 21
-693.050917
 31
0.0
  0
LINE
  5
37C
100
AcDbEntity
  8
1
  6
CONTINUOUS
 62
     7
100
AcDbLine
 10
346.24725
 20
-693.050917
 30
0.0
 11
382.24725
 21
-693.050917
 31
0.0
  0
LINE
  5
37D
100
AcDbEntity
  8
1
  6
CONTINUOUS
 62
     7
100
AcDbLine
 10
342.561333
 20
-696.800917
 30
0.0
 11
342.561333
 21
-714.050917
 31
0.0
  0
LINE
  5
37E
100
AcDbEntity
  8
1
  6
CONTINUOUS
 62
     7
100
AcDbLine
 10
373.561333
 20
-655.550917
 30
0.0
 11
382.24725
 21
-655.550917
 31
0.0
  0
LINE
  5
37F
100
AcDbEntity
  8
1
  6
CONTINUOUS
 62
     7
100
AcDbLine
 10
381.24725
 20
-655.550917
 30
0.0
 11
381.24725
 21
-662.376083
 31
0.0
  0
LINE
  5
380
100
AcDbEntity
  8
1
  6
CONTINUOUS
 62
     7
100
AcDbLine
 10
381.24725
 20
-662.376083
 30
0.0
 11
381.24725
 21
-693.050917
 31
0.0
  0
INSERT
  5
381
100
AcDbEntity
  8
1
  6
CONTINUOUS
 62
     1
100
AcDbBlockReference
  2
LDR
 10
381.24725
 20
-655.550917
 30
0.0
 41
240.0
 42
240.0
 50
90.0
210
0.0
220
0.0
230
1.0
  0
INSERT
  5
382
100
AcDbEntity
  8
1
  6
CONTINUOUS
 62
     1
100
AcDbBlockReference
  2
LDR
 10
381.24725
 20
-655.550917
 30
0.0
 41
240.0
 42
240.0
 50
90.0
210
0.0
220
0.0
230
1.0
  0
INSERT
  5
383
100
AcDbEntity
  8
1
  6
CONTINUOUS
 62
     1
100
AcDbBlockReference
  2
LDR
 10
381.24725
 20
-662.376083
 30
0.0
 41
240.0
 42
240.0
 50
270.0
210
0.0
220
0.0
230
1.0
  0
INSERT
  5
384
100
AcDbEntity
  8
1
  6
CONTINUOUS
 62
     1
100
AcDbBlockReference
  2
LDR
 10
381.24725
 20
-662.376083
 30
0.0
 41
240.0
 42
240.0
 50
270.0
210
0.0
220
0.0
230
1.0
  0
INSERT
  5
385
100
AcDbEntity
  8
1
  6
CONTINUOUS
 62
     1
100
AcDbBlockReference
  2
LDR
 10
381.24725
 20
-662.376083
 30
0.0
 41
240.0
 42
240.0
 50
90.0
210
0.0
220
0.0
230
1.0
  0
INSERT
  5
386
100
AcDbEntity
  8
1
  6
CONTINUOUS
 62
     1
100
AcDbBlockReference
  2
LDR
 10
381.24725
 20
-662.376083
 30
0.0
 41
240.0
 42
240.0
 50
90.0
210
0.0
220
0.0
230
1.0
  0
INSERT
  5
387
100
AcDbEntity
  8
1
  6
CONTINUOUS
 62
     1
100
AcDbBlockReference
  2
LDR
 10
381.24725
 20
-693.050917
 30
0.0
 41
240.0
 42
240.0
 50
270.0
210
0.0
220
0.0
230
1.0
  0
LINE
  5
388
100
AcDbEntity
  8
1
  6
CONTINUOUS
 62
   212
100
AcDbLine
 10
529.561333
 20
-655.550917
 30
0.0
 11
469.561333
 21
-655.550917
 31
0.0
  0
LINE
  5
389
100
AcDbEntity
  8
1
  6
CONTINUOUS
 62
   212
100
AcDbLine
 10
469.561333
 20
-655.550917
 30
0.0
 11
499.561333
 21
-707.050917
 31
0.0
  0
LINE
  5
38A
100
AcDbEntity
  8
1
  6
CONTINUOUS
 62
   212
100
AcDbLine
 10
529.561333
 20
-655.550917
 30
0.0
 11
499.561333
 21
-707.050917
 31
0.0
  0
CIRCLE
  5
38B
100
AcDbEntity
  8
1
  6
CONTINUOUS
 62
   212
100
AcDbCircle
 10
491.061333
 20
-662.550917
 30
0.0
 40
0.75
210
0.0
220
0.0
230
1.0
  0
LINE
  5
38C
100
AcDbEntity
  8
1
  6
CONTINUOUS
 62
     7
100
AcDbLine
 10
492.811333
 20
-662.550917
 30
0.0
 11
489.311333
 21
-662.550917
 31
0.0
  0
LINE
  5
38D
100
AcDbEntity
  8
1
  6
CONTINUOUS
 62
     7
100
AcDbLine
 10
491.061333
 20
-660.800917
 30
0.0
 11
491.061333
 21
-664.300917
 31
0.0
  0
LINE
  5
38E
100
AcDbEntity
  8
1
  6
CONTINUOUS
 62
     7
100
AcDbLine
 10
493.811333
 20
-662.550917
 30
0.0
 11
495.811333
 21
-662.550917
 31
0.0
  0
LINE
  5
38F
100
AcDbEntity
  8
1
  6
CONTINUOUS
 62
     7
100
AcDbLine
 10
488.311333
 20
-662.550917
 30
0.0
 11
486.311333
 21
-662.550917
 31
0.0
  0
LINE
  5
390
100
AcDbEntity
  8
1
  6
CONTINUOUS
 62
     7
100
AcDbLine
 10
491.061333
 20
-665.300917
 30
0.0
 11
491.061333
 21
-667.300917
 31
0.0
  0
CIRCLE
  5
391
100
AcDbEntity
  8
1
  6
CONTINUOUS
 62
   212
100
AcDbCircle
 10
508.061333
 20
-662.550917
 30
0.0
 40
0.75
210
0.0
220
0.0
230
1.0
  0
LINE
  5
392
100
AcDbEntity
  8
1
  6
CONTINUOUS
 62
     7
100
AcDbLine
 10
509.811333
 20
-662.550917
 30
0.0
 11
506.311333
 21
-662.550917
 31
0.0
  0
LINE
  5
393
100
AcDbEntity
  8
1
  6
CONTINUOUS
 62
     7
100
AcDbLine
 10
508.061333
 20
-660.800917
 30
0.0
 11
508.061333
 21
-664.300917
 31
0.0
  0
LINE
  5
394
100
AcDbEntity
  8
1
  6
CONTINUOUS
 62
     7
100
AcDbLine
 10
505.311333
 20
-662.550917
 30
0.0
 11
503.311333
 21
-662.550917
 31
0.0
  0
LINE
  5
395
100
AcDbEntity
  8
1
  6
CONTINUOUS
 62
     7
100
AcDbLine
 10
508.061333
 20
-665.300917
 30
0.0
 11
508.061333
 21
-667.300917
 31
0.0
  0
CIRCLE
  5
396
100
AcDbEntity
  8
1
  6
CONTINUOUS
 62
   212
100
AcDbCircle
 10
508.061333
 20
-681.050917
 30
0.0
 40
0.75
210
0.0
220
0.0
230
1.0
  0
LINE
  5
397
100
AcDbEntity
  8
1
  6
CONTINUOUS
 62
     7
100
AcDbLine
 10
509.811333
 20
-681.050917
 30
0.0
 11
506.311333
 21
-681.050917
 31
0.0
  0
LINE
  5
398
100
AcDbEntity
  8
1
  6
CONTINUOUS
 62
     7
100
AcDbLine
 10
508.061333
 20
-679.300917
 30
0.0
 11
508.061333
 21
-682.800917
 31
0.0
  0
LINE
  5
399
100
AcDbEntity
  8
1
  6
CONTINUOUS
 62
     7
100
AcDbLine
 10
505.311333
 20
-681.050917
 30
0.0
 11
503.311333
 21
-681.050917
 31
0.0
  0
LINE
  5
39A
100
AcDbEntity
  8
1
  6
CONTINUOUS
 62
     7
100
AcDbLine
 10
508.061333
 20
-683.800917
 30
0.0
 11
508.061333
 21
-685.800917
 31
0.0
  0
LINE
  5
39B
100
AcDbEntity
  8
1
  6
CONTINUOUS
 62
     7
100
AcDbLine
 10
508.061333
 20
-678.300917
 30
0.0
 11
508.061333
 21
-676.300917
 31
0.0
  0
CIRCLE
  5
39C
100
AcDbEntity
  8
1
  6
CONTINUOUS
 62
   212
100
AcDbCircle
 10
491.061333
 20
-681.050917
 30
0.0
 40
0.75
210
0.0
220
0.0
230
1.0
  0
LINE
  5
39D
100
AcDbEntity
  8
1
  6
CONTINUOUS
 62
     7
100
AcDbLine
 10
492.811333
 20
-681.050917
 30
0.0
 11
489.311333
 21
-681.050917
 31
0.0
  0
LINE
  5
39E
100
AcDbEntity
  8
1
  6
CONTINUOUS
 62
     7
100
AcDbLine
 10
491.061333
 20
-679.300917
 30
0.0
 11
491.061333
 21
-682.800917
 31
0.0
  0
LINE
  5
39F
100
AcDbEntity
  8
1
  6
CONTINUOUS
 62
     7
100
AcDbLine
 10
493.811333
 20
-681.050917
 30
0.0
 11
495.811333
 21
-681.050917
 31
0.0
  0
LINE
  5
3A0
100
AcDbEntity
  8
1
  6
CONTINUOUS
 62
     7
100
AcDbLine
 10
488.311333
 20
-681.050917
 30
0.0
 11
486.311333
 21
-681.050917
 31
0.0
  0
LINE
  5
3A1
100
AcDbEntity
  8
1
  6
CONTINUOUS
 62
     7
100
AcDbLine
 10
491.061333
 20
-683.800917
 30
0.0
 11
491.061333
 21
-685.800917
 31
0.0
  0
LINE
  5
3A2
100
AcDbEntity
  8
1
  6
CONTINUOUS
 62
     7
100
AcDbLine
 10
491.061333
 20
-678.300917
 30
0.0
 11
491.061333
 21
-676.300917
 31
0.0
  0
LINE
  5
3A3
100
AcDbEntity
  8
1
  6
CONTINUOUS
 62
     7
100
AcDbLine
 10
499.561333
 20
-672.12975
 30
0.0
 11
499.561333
 21
-668.62975
 31
0.0
  0
LINE
  5
3A4
100
AcDbEntity
  8
1
  6
CONTINUOUS
 62
     7
100
AcDbLine
 10
499.561333
 20
-665.62975
 30
0.0
 11
499.561333
 21
-641.550917
 31
0.0
  0
LINE
  5
3A5
100
AcDbEntity
  8
1
  6
CONTINUOUS
 62
     7
100
AcDbLine
 10
510.811333
 20
-662.550917
 30
0.0
 11
538.811333
 21
-662.550917
 31
0.0
  0
LINE
  5
3A6
100
AcDbEntity
  8
1
  6
CONTINUOUS
 62
     7
100
AcDbLine
 10
510.811333
 20
-681.050917
 30
0.0
 11
538.811333
 21
-681.050917
 31
0.0
  0
LINE
  5
3A7
100
AcDbEntity
  8
1
  6
CONTINUOUS
 62
     7
100
AcDbLine
 10
530.561333
 20
-655.550917
 30
0.0
 11
538.811333
 21
-655.550917
 31
0.0
  0
LINE
  5
3A8
100
AcDbEntity
  8
1
  6
CONTINUOUS
 62
     7
100
AcDbLine
 10
537.811333
 20
-655.550917
 30
0.0
 11
537.811333
 21
-662.550917
 31
0.0
  0
LINE
  5
3A9
100
AcDbEntity
  8
1
  6
CONTINUOUS
 62
     7
100
AcDbLine
 10
537.811333
 20
-662.550917
 30
0.0
 11
537.811333
 21
-681.050917
 31
0.0
  0
INSERT
  5
3AA
100
AcDbEntity
  8
1
  6
CONTINUOUS
 62
     1
100
AcDbBlockReference
  2
LDR
 10
537.811333
 20
-655.550917
 30
0.0
 41
240.0
 42
240.0
 50
90.0
210
0.0
220
0.0
230
1.0
  0
INSERT
  5
3AB
100
AcDbEntity
  8
1
  6
CONTINUOUS
 62
     1
100
AcDbBlockReference
  2
LDR
 10
537.811333
 20
-655.550917
 30
0.0
 41
240.0
 42
240.0
 50
90.0
210
0.0
220
0.0
230
1.0
  0
INSERT
  5
3AC
100
AcDbEntity
  8
1
  6
CONTINUOUS
 62
     1
100
AcDbBlockReference
  2
LDR
 10
537.811333
 20
-662.550917
 30
0.0
 41
240.0
 42
240.0
 50
270.0
210
0.0
220
0.0
230
1.0
  0
INSERT
  5
3AD
100
AcDbEntity
  8
1
  6
CONTINUOUS
 62
     1
100
AcDbBlockReference
  2
LDR
 10
537.811333
 20
-662.550917
 30
0.0
 41
240.0
 42
240.0
 50
270.0
210
0.0
220
0.0
230
1.0
  0
INSERT
  5
3AE
100
AcDbEntity
  8
1
  6
CONTINUOUS
 62
     1
100
AcDbBlockReference
  2
LDR
 10
537.811333
 20
-662.550917
 30
0.0
 41
240.0
 42
240.0
 50
90.0
210
0.0
220
0.0
230
1.0
  0
INSERT
  5
3AF
100
AcDbEntity
  8
1
  6
CONTINUOUS
 62
     1
100
AcDbBlockReference
  2
LDR
 10
537.811333
 20
-662.550917
 30
0.0
 41
240.0
 42
240.0
 50
90.0
210
0.0
220
0.0
230
1.0
  0
INSERT
  5
3B0
100
AcDbEntity
  8
1
  6
CONTINUOUS
 62
     1
100
AcDbBlockReference
  2
LDR
 10
537.811333
 20
-681.050917
 30
0.0
 41
240.0
 42
240.0
 50
270.0
210
0.0
220
0.0
230
1.0
  0
LINE
  5
3B1
100
AcDbEntity
  8
1
  6
CONTINUOUS
 62
     7
100
AcDbLine
 10
491.061333
 20
-659.800917
 30
0.0
 11
491.061333
 21
-645.800917
 31
0.0
  0
LINE
  5
3B2
100
AcDbEntity
  8
1
  6
CONTINUOUS
 62
     7
100
AcDbLine
 10
508.061333
 20
-659.800917
 30
0.0
 11
508.061333
 21
-645.800917
 31
0.0
  0
LINE
  5
3B3
100
AcDbEntity
  8
1
  6
CONTINUOUS
 62
     7
100
AcDbLine
 10
469.561333
 20
-654.550917
 30
0.0
 11
469.561333
 21
-641.550917
 31
0.0
  0
LINE
  5
3B4
100
AcDbEntity
  8
1
  6
CONTINUOUS
 62
     7
100
AcDbLine
 10
469.561333
 20
-642.550917
 30
0.0
 11
499.561333
 21
-642.550917
 31
0.0
  0
LINE
  5
3B5
100
AcDbEntity
  8
1
  6
CONTINUOUS
 62
     7
100
AcDbLine
 10
491.061333
 20
-646.800917
 30
0.0
 11
499.561333
 21
-646.800917
 31
0.0
  0
LINE
  5
3B6
100
AcDbEntity
  8
1
  6
CONTINUOUS
 62
     7
100
AcDbLine
 10
499.561333
 20
-646.800917
 30
0.0
 11
508.061333
 21
-646.800917
 31
0.0
  0
INSERT
  5
3B7
100
AcDbEntity
  8
1
  6
CONTINUOUS
 62
     1
100
AcDbBlockReference
  2
LDR
 10
469.561333
 20
-642.550917
 30
0.0
 41
240.0
 42
240.0
 50
180.0
210
0.0
220
0.0
230
1.0
  0
INSERT
  5
3B8
100
AcDbEntity
  8
1
  6
CONTINUOUS
 62
     1
100
AcDbBlockReference
  2
LDR
 10
469.561333
 20
-642.550917
 30
0.0
 41
240.0
 42
240.0
 50
180.0
210
0.0
220
0.0
230
1.0
  0
INSERT
  5
3B9
100
AcDbEntity
  8
1
  6
CONTINUOUS
 62
     1
100
AcDbBlockReference
  2
LDR
 10
499.561333
 20
-642.550917
 30
0.0
 41
240.0
 42
240.0
210
0.0
220
0.0
230
1.0
  0
INSERT
  5
3BA
100
AcDbEntity
  8
1
  6
CONTINUOUS
 62
     1
100
AcDbBlockReference
  2
LDR
 10
499.561333
 20
-642.550917
 30
0.0
 41
240.0
 42
240.0
210
0.0
220
0.0
230
1.0
  0
INSERT
  5
3BB
100
AcDbEntity
  8
1
  6
CONTINUOUS
 62
     1
100
AcDbBlockReference
  2
LDR
 10
491.061333
 20
-646.800917
 30
0.0
 41
240.0
 42
240.0
 50
180.0
210
0.0
220
0.0
230
1.0
  0
INSERT
  5
3BC
100
AcDbEntity
  8
1
  6
CONTINUOUS
 62
     1
100
AcDbBlockReference
  2
LDR
 10
491.061333
 20
-646.800917
 30
0.0
 41
240.0
 42
240.0
 50
180.0
210
0.0
220
0.0
230
1.0
  0
INSERT
  5
3BD
100
AcDbEntity
  8
1
  6
CONTINUOUS
 62
     1
100
AcDbBlockReference
  2
LDR
 10
499.561333
 20
-646.800917
 30
0.0
 41
240.0
 42
240.0
210
0.0
220
0.0
230
1.0
  0
INSERT
  5
3BE
100
AcDbEntity
  8
1
  6
CONTINUOUS
 62
     1
100
AcDbBlockReference
  2
LDR
 10
499.561333
 20
-646.800917
 30
0.0
 41
240.0
 42
240.0
210
0.0
220
0.0
230
1.0
  0
INSERT
  5
3BF
100
AcDbEntity
  8
1
  6
CONTINUOUS
 62
     1
100
AcDbBlockReference
  2
LDR
 10
499.561333
 20
-646.800917
 30
0.0
 41
240.0
 42
240.0
 50
180.0
210
0.0
220
0.0
230
1.0
  0
INSERT
  5
3C0
100
AcDbEntity
  8
1
  6
CONTINUOUS
 62
     1
100
AcDbBlockReference
  2
LDR
 10
499.561333
 20
-646.800917
 30
0.0
 41
240.0
 42
240.0
 50
180.0
210
0.0
220
0.0
230
1.0
  0
INSERT
  5
3C1
100
AcDbEntity
  8
1
  6
CONTINUOUS
 62
     1
100
AcDbBlockReference
  2
LDR
 10
508.061333
 20
-646.800917
 30
0.0
 41
240.0
 42
240.0
210
0.0
220
0.0
230
1.0
  0
LINE
  5
3C2
100
AcDbEntity
  8
1
  6
CONTINUOUS
 62
   212
100
AcDbLine
 10
529.561333
 20
-726.050917
 30
0.0
 11
469.561333
 21
-726.050917
 31
0.0
  0
LINE
  5
3C3
100
AcDbEntity
  8
1
  6
CONTINUOUS
 62
   212
100
AcDbLine
 10
469.561333
 20
-726.050917
 30
0.0
 11
499.561333
 21
-777.550917
 31
0.0
  0
LINE
  5
3C4
100
AcDbEntity
  8
1
  6
CONTINUOUS
 62
   212
100
AcDbLine
 10
529.561333
 20
-726.050917
 30
0.0
 11
499.561333
 21
-777.550917
 31
0.0
  0
LINE
  5
3C5
100
AcDbEntity
  8
1
  6
HIDDEN
 62
   212
100
AcDbLine
 10
486.311333
 20
-737.550917
 30
0.0
 11
493.811333
 21
-737.550917
 31
0.0
  0
LINE
  5
3C6
100
AcDbEntity
  8
1
  6
HIDDEN
 62
   212
100
AcDbLine
 10
493.811333
 20
-737.550917
 30
0.0
 11
505.311333
 21
-737.550917
 31
0.0
  0
LINE
  5
3C7
100
AcDbEntity
  8
1
  6
HIDDEN
 62
   212
100
AcDbLine
 10
505.311333
 20
-737.550917
 30
0.0
 11
512.811333
 21
-737.550917
 31
0.0
  0
LINE
  5
3C8
100
AcDbEntity
  8
1
  6
HIDDEN
 62
   212
100
AcDbLine
 10
486.311333
 20
-749.805083
 30
0.0
 11
493.811333
 21
-749.805083
 31
0.0
  0
LINE
  5
3C9
100
AcDbEntity
  8
1
  6
HIDDEN
 62
   212
100
AcDbLine
 10
493.811333
 20
-749.805083
 30
0.0
 11
505.311333
 21
-749.805083
 31
0.0
  0
LINE
  5
3CA
100
AcDbEntity
  8
1
  6
HIDDEN
 62
   212
100
AcDbLine
 10
505.311333
 20
-749.805083
 30
0.0
 11
512.811333
 21
-749.805083
 31
0.0
  0
LINE
  5
3CB
100
AcDbEntity
  8
1
  6
HIDDEN
 62
   212
100
AcDbLine
 10
493.811333
 20
-731.050917
 30
0.0
 11
493.811333
 21
-737.550917
 31
0.0
  0
LINE
  5
3CC
100
AcDbEntity
  8
1
  6
HIDDEN
 62
   212
100
AcDbLine
 10
505.311333
 20
-731.050917
 30
0.0
 11
505.311333
 21
-737.550917
 31
0.0
  0
LINE
  5
3CD
100
AcDbEntity
  8
1
  6
HIDDEN
 62
   212
100
AcDbLine
 10
505.311333
 20
-737.550917
 30
0.0
 11
505.311333
 21
-749.805083
 31
0.0
  0
LINE
  5
3CE
100
AcDbEntity
  8
1
  6
HIDDEN
 62
   212
100
AcDbLine
 10
505.311333
 20
-749.805083
 30
0.0
 11
505.311333
 21
-767.680083
 31
0.0
  0
LINE
  5
3CF
100
AcDbEntity
  8
1
  6
HIDDEN
 62
   212
100
AcDbLine
 10
493.811333
 20
-737.550917
 30
0.0
 11
493.811333
 21
-749.805083
 31
0.0
  0
LINE
  5
3D0
100
AcDbEntity
  8
1
  6
HIDDEN
 62
   212
100
AcDbLine
 10
493.811333
 20
-749.805083
 30
0.0
 11
493.811333
 21
-767.680083
 31
0.0
  0
CIRCLE
  5
3D1
100
AcDbEntity
  8
1
  6
CONTINUOUS
 62
   212
100
AcDbCircle
 10
491.061333
 20
-734.428
 30
0.0
 40
0.75
210
0.0
220
0.0
230
1.0
  0
LINE
  5
3D2
100
AcDbEntity
  8
1
  6
CONTINUOUS
 62
     7
100
AcDbLine
 10
492.811333
 20
-734.428
 30
0.0
 11
489.311333
 21
-734.428
 31
0.0
  0
LINE
  5
3D3
100
AcDbEntity
  8
1
  6
CONTINUOUS
 62
     7
100
AcDbLine
 10
491.061333
 20
-732.678
 30
0.0
 11
491.061333
 21
-736.178
 31
0.0
  0
LINE
  5
3D4
100
AcDbEntity
  8
1
  6
CONTINUOUS
 62
     7
100
AcDbLine
 10
493.811333
 20
-734.428
 30
0.0
 11
495.811333
 21
-734.428
 31
0.0
  0
LINE
  5
3D5
100
AcDbEntity
  8
1
  6
CONTINUOUS
 62
     7
100
AcDbLine
 10
488.311333
 20
-734.428
 30
0.0
 11
486.311333
 21
-734.428
 31
0.0
  0
LINE
  5
3D6
100
AcDbEntity
  8
1
  6
CONTINUOUS
 62
     7
100
AcDbLine
 10
491.061333
 20
-737.178
 30
0.0
 11
491.061333
 21
-739.178
 31
0.0
  0
CIRCLE
  5
3D7
100
AcDbEntity
  8
1
  6
CONTINUOUS
 62
   212
100
AcDbCircle
 10
508.061333
 20
-734.428
 30
0.0
 40
0.75
210
0.0
220
0.0
230
1.0
  0
LINE
  5
3D8
100
AcDbEntity
  8
1
  6
CONTINUOUS
 62
     7
100
AcDbLine
 10
509.811333
 20
-734.428
 30
0.0
 11
506.311333
 21
-734.428
 31
0.0
  0
LINE
  5
3D9
100
AcDbEntity
  8
1
  6
CONTINUOUS
 62
     7
100
AcDbLine
 10
508.061333
 20
-732.678
 30
0.0
 11
508.061333
 21
-736.178
 31
0.0
  0
LINE
  5
3DA
100
AcDbEntity
  8
1
  6
CONTINUOUS
 62
     7
100
AcDbLine
 10
505.311333
 20
-734.428
 30
0.0
 11
503.311333
 21
-734.428
 31
0.0
  0
LINE
  5
3DB
100
AcDbEntity
  8
1
  6
CONTINUOUS
 62
     7
100
AcDbLine
 10
508.061333
 20
-737.178
 30
0.0
 11
508.061333
 21
-739.178
 31
0.0
  0
CIRCLE
  5
3DC
100
AcDbEntity
  8
1
  6
CONTINUOUS
 62
   212
100
AcDbCircle
 10
508.061333
 20
-752.928
 30
0.0
 40
0.75
210
0.0
220
0.0
230
1.0
  0
LINE
  5
3DD
100
AcDbEntity
  8
1
  6
CONTINUOUS
 62
     7
100
AcDbLine
 10
509.811333
 20
-752.928
 30
0.0
 11
506.311333
 21
-752.928
 31
0.0
  0
LINE
  5
3DE
100
AcDbEntity
  8
1
  6
CONTINUOUS
 62
     7
100
AcDbLine
 10
508.061333
 20
-751.178
 30
0.0
 11
508.061333
 21
-754.678
 31
0.0
  0
LINE
  5
3DF
100
AcDbEntity
  8
1
  6
CONTINUOUS
 62
     7
100
AcDbLine
 10
505.311333
 20
-752.928
 30
0.0
 11
503.311333
 21
-752.928
 31
0.0
  0
LINE
  5
3E0
100
AcDbEntity
  8
1
  6
CONTINUOUS
 62
     7
100
AcDbLine
 10
508.061333
 20
-755.678
 30
0.0
 11
508.061333
 21
-757.678
 31
0.0
  0
LINE
  5
3E1
100
AcDbEntity
  8
1
  6
CONTINUOUS
 62
     7
100
AcDbLine
 10
508.061333
 20
-750.178
 30
0.0
 11
508.061333
 21
-748.178
 31
0.0
  0
CIRCLE
  5
3E2
100
AcDbEntity
  8
1
  6
CONTINUOUS
 62
   212
100
AcDbCircle
 10
491.061333
 20
-752.928
 30
0.0
 40
0.75
210
0.0
220
0.0
230
1.0
  0
LINE
  5
3E3
100
AcDbEntity
  8
1
  6
CONTINUOUS
 62
     7
100
AcDbLine
 10
492.811333
 20
-752.928
 30
0.0
 11
489.311333
 21
-752.928
 31
0.0
  0
LINE
  5
3E4
100
AcDbEntity
  8
1
  6
CONTINUOUS
 62
     7
100
AcDbLine
 10
491.061333
 20
-751.178
 30
0.0
 11
491.061333
 21
-754.678
 31
0.0
  0
LINE
  5
3E5
100
AcDbEntity
  8
1
  6
CONTINUOUS
 62
     7
100
AcDbLine
 10
493.811333
 20
-752.928
 30
0.0
 11
495.811333
 21
-752.928
 31
0.0
  0
LINE
  5
3E6
100
AcDbEntity
  8
1
  6
CONTINUOUS
 62
     7
100
AcDbLine
 10
488.311333
 20
-752.928
 30
0.0
 11
486.311333
 21
-752.928
 31
0.0
  0
LINE
  5
3E7
100
AcDbEntity
  8
1
  6
CONTINUOUS
 62
     7
100
AcDbLine
 10
491.061333
 20
-755.678
 30
0.0
 11
491.061333
 21
-757.678
 31
0.0
  0
LINE
  5
3E8
100
AcDbEntity
  8
1
  6
CONTINUOUS
 62
     7
100
AcDbLine
 10
491.061333
 20
-750.178
 30
0.0
 11
491.061333
 21
-748.178
 31
0.0
  0
LINE
  5
3E9
100
AcDbEntity
  8
1
  6
CONTINUOUS
 62
     7
100
AcDbLine
 10
491.061333
 20
-729.678
 30
0.0
 11
491.061333
 21
-731.678
 31
0.0
  0
LINE
  5
3EA
100
AcDbEntity
  8
1
  6
CONTINUOUS
 62
     7
100
AcDbLine
 10
508.061333
 20
-729.678
 30
0.0
 11
508.061333
 21
-731.678
 31
0.0
  0
LINE
  5
3EB
100
AcDbEntity
  8
1
  6
CONTINUOUS
 62
     7
100
AcDbLine
 10
510.811333
 20
-734.428
 30
0.0
 11
512.811333
 21
-734.428
 31
0.0
  0
LINE
  5
3EC
100
AcDbEntity
  8
1
  6
CONTINUOUS
 62
     7
100
AcDbLine
 10
510.811333
 20
-752.928
 30
0.0
 11
512.811333
 21
-752.928
 31
0.0
  0
LWPOLYLINE
  5
3ED
100
AcDbEntity
  8
1
  6
CONTINUOUS
 62
     3
100
AcDbPolyline
 90
        6
 70
     1
 10
490.06925
 20
-737.00175
 10
490.06925
 20
-736.13575
 10
489.31925
 20
-735.70275
 10
488.56925
 20
-736.13575
 10
488.56925
 20
-737.00175
 10
489.31925
 20
-737.43475
  0
LWPOLYLINE
  5
3EE
100
AcDbEntity
  8
1
  6
CONTINUOUS
 62
     3
100
AcDbPolyline
 90
        6
 70
     1
 10
510.544167
 20
-736.9605
 10
510.544167
 20
-736.0945
 10
509.794167
 20
-735.6615
 10
509.044167
 20
-736.0945
 10
509.044167
 20
-736.9605
 10
509.794167
 20
-737.3935
  0
LWPOLYLINE
  5
3EF
100
AcDbEntity
  8
1
  6
CONTINUOUS
 62
     3
100
AcDbPolyline
 90
        6
 70
     1
 10
493.003417
 20
-751.17925
 10
493.003417
 20
-750.31325
 10
492.253417
 20
-749.88025
 10
491.503417
 20
-750.31325
 10
491.503417
 20
-751.17925
 10
492.253417
 20
-751.61225
  0
LWPOLYLINE
  5
3F0
100
AcDbEntity
  8
1
  6
CONTINUOUS
 62
     3
100
AcDbPolyline
 90
        6
 70
     1
 10
507.550333
 20
-751.229583
 10
507.550333
 20
-750.363583
 10
506.800333
 20
-749.930583
 10
506.050333
 20
-750.363583
 10
506.050333
 20
-751.229583
 10
506.800333
 20
-751.662583
  0
LINE
  5
3F1
100
AcDbEntity
  8
1
  6
CONTINUOUS
 62
     7
100
AcDbLine
 10
507.52475
 20
-810.638333
 30
0.0
 11
507.52475
 21
-825.739167
 31
0.0
  0
LINE
  5
3F2
100
AcDbEntity
  8
1
  6
CONTINUOUS
 62
     7
100
AcDbLine
 10
507.52475
 20
-801.332917
 30
0.0
 11
507.52475
 21
-801.832917
 31
0.0
  0
LINE
  5
3F3
100
AcDbEntity
  8
1
  6
CONTINUOUS
 62
   212
100
AcDbLine
 10
506.988167
 20
-802.832917
 30
0.0
 11
508.06125
 21
-802.832917
 31
0.0
  0
LINE
  5
3F4
100
AcDbEntity
  8
1
  6
CONTINUOUS
 62
   212
100
AcDbLine
 10
506.52475
 20
-803.582917
 30
0.0
 11
508.52475
 21
-803.582917
 31
0.0
  0
LINE
  5
3F5
100
AcDbEntity
  8
1
  6
CONTINUOUS
 62
   212
100
AcDbLine
 10
506.52475
 20
-803.582917
 30
0.0
 11
506.52475
 21
-804.332917
 31
0.0
  0
LINE
  5
3F6
100
AcDbEntity
  8
1
  6
CONTINUOUS
 62
   212
100
AcDbLine
 10
508.52475
 20
-803.582917
 30
0.0
 11
508.52475
 21
-804.332917
 31
0.0
  0
LINE
  5
3F7
100
AcDbEntity
  8
1
  6
CONTINUOUS
 62
   212
100
AcDbLine
 10
506.988167
 20
-804.332917
 30
0.0
 11
506.988167
 21
-802.832917
 31
0.0
  0
LINE
  5
3F8
100
AcDbEntity
  8
1
  6
CONTINUOUS
 62
   212
100
AcDbLine
 10
508.06125
 20
-804.332917
 30
0.0
 11
508.06125
 21
-802.832917
 31
0.0
  0
LINE
  5
3F9
100
AcDbEntity
  8
1
  6
CONTINUOUS
 62
   212
100
AcDbLine
 10
506.52475
 20
-807.082917
 30
0.0
 11
508.52475
 21
-807.082917
 31
0.0
  0
LINE
  5
3FA
100
AcDbEntity
  8
1
  6
CONTINUOUS
 62
   212
100
AcDbLine
 10
506.52475
 20
-807.082917
 30
0.0
 11
506.52475
 21
-806.332917
 31
0.0
  0
LINE
  5
3FB
100
AcDbEntity
  8
1
  6
CONTINUOUS
 62
   212
100
AcDbLine
 10
508.52475
 20
-807.082917
 30
0.0
 11
508.52475
 21
-806.332917
 31
0.0
  0
LINE
  5
3FC
100
AcDbEntity
  8
1
  6
CONTINUOUS
 62
   212
100
AcDbLine
 10
506.988167
 20
-806.332917
 30
0.0
 11
506.988167
 21
-807.082917
 31
0.0
  0
LINE
  5
3FD
100
AcDbEntity
  8
1
  6
CONTINUOUS
 62
   212
100
AcDbLine
 10
508.06125
 20
-806.332917
 30
0.0
 11
508.06125
 21
-807.082917
 31
0.0
  0
LINE
  5
3FE
100
AcDbEntity
  8
1
  6
CONTINUOUS
 62
     7
100
AcDbLine
 10
487.561333
 20
-819.297583
 30
0.0
 11
482.561333
 21
-819.297583
 31
0.0
  0
LINE
  5
3FF
100
AcDbEntity
  8
1
  6
CONTINUOUS
 62
     7
100
AcDbLine
 10
490.597833
 20
-819.297583
 30
0.0
 11
495.597833
 21
-819.297583
 31
0.0
  0
LINE
  5
400
100
AcDbEntity
  8
1
  6
CONTINUOUS
 62
     7
100
AcDbLine
 10
491.597833
 20
-824.739167
 30
0.0
 11
496.597833
 21
-824.739167
 31
0.0
  0
LINE
  5
401
100
AcDbEntity
  8
1
  6
CONTINUOUS
 62
     7
100
AcDbLine
 10
485.597833
 20
-824.739167
 30
0.0
 11
490.597833
 21
-824.739167
 31
0.0
  0
LINE
  5
402
100
AcDbEntity
  8
1
  6
CONTINUOUS
 62
     7
100
AcDbLine
 10
502.52475
 20
-824.739167
 30
0.0
 11
507.52475
 21
-824.739167
 31
0.0
  0
LINE
  5
403
100
AcDbEntity
  8
1
  6
CONTINUOUS
 62
     7
100
AcDbLine
 10
508.52475
 20
-824.739167
 30
0.0
 11
513.52475
 21
-824.739167
 31
0.0
  0
INSERT
  5
404
100
AcDbEntity
  8
1
  6
CONTINUOUS
 62
     1
100
AcDbBlockReference
  2
LDR
 10
487.561333
 20
-819.297583
 30
0.0
 41
240.0
 42
240.0
210
0.0
220
0.0
230
1.0
  0
INSERT
  5
405
100
AcDbEntity
  8
1
  6
CONTINUOUS
 62
     1
100
AcDbBlockReference
  2
LDR
 10
487.561333
 20
-819.297583
 30
0.0
 41
240.0
 42
240.0
210
0.0
220
0.0
230
1.0
  0
INSERT
  5
406
100
AcDbEntity
  8
1
  6
CONTINUOUS
 62
     1
100
AcDbBlockReference
  2
LDR
 10
490.597833
 20
-819.297583
 30
0.0
 41
240.0
 42
240.0
 50
180.0
210
0.0
220
0.0
230
1.0
  0
INSERT
  5
407
100
AcDbEntity
  8
1
  6
CONTINUOUS
 62
     1
100
AcDbBlockReference
  2
LDR
 10
490.597833
 20
-819.297583
 30
0.0
 41
240.0
 42
240.0
 50
180.0
210
0.0
220
0.0
230
1.0
  0
INSERT
  5
408
100
AcDbEntity
  8
1
  6
CONTINUOUS
 62
     1
100
AcDbBlockReference
  2
LDR
 10
490.597833
 20
-824.739167
 30
0.0
 41
240.0
 42
240.0
210
0.0
220
0.0
230
1.0
  0
INSERT
  5
409
100
AcDbEntity
  8
1
  6
CONTINUOUS
 62
     1
100
AcDbBlockReference
  2
LDR
 10
490.597833
 20
-824.739167
 30
0.0
 41
240.0
 42
240.0
210
0.0
220
0.0
230
1.0
  0
INSERT
  5
40A
100
AcDbEntity
  8
1
  6
CONTINUOUS
 62
     1
100
AcDbBlockReference
  2
LDR
 10
491.597833
 20
-824.739167
 30
0.0
 41
240.0
 42
240.0
 50
180.0
210
0.0
220
0.0
230
1.0
  0
INSERT
  5
40B
100
AcDbEntity
  8
1
  6
CONTINUOUS
 62
     1
100
AcDbBlockReference
  2
LDR
 10
491.597833
 20
-824.739167
 30
0.0
 41
240.0
 42
240.0
 50
180.0
210
0.0
220
0.0
230
1.0
  0
INSERT
  5
40C
100
AcDbEntity
  8
1
  6
CONTINUOUS
 62
     1
100
AcDbBlockReference
  2
LDR
 10
507.52475
 20
-824.739167
 30
0.0
 41
240.0
 42
240.0
210
0.0
220
0.0
230
1.0
  0
INSERT
  5
40D
100
AcDbEntity
  8
1
  6
CONTINUOUS
 62
     1
100
AcDbBlockReference
  2
LDR
 10
507.52475
 20
-824.739167
 30
0.0
 41
240.0
 42
240.0
210
0.0
220
0.0
230
1.0
  0
INSERT
  5
40E
100
AcDbEntity
  8
1
  6
CONTINUOUS
 62
     1
100
AcDbBlockReference
  2
LDR
 10
508.52475
 20
-824.739167
 30
0.0
 41
240.0
 42
240.0
 50
180.0
210
0.0
220
0.0
230
1.0
  0
LINE
  5
40F
100
AcDbEntity
  8
1
  6
CONTINUOUS
 62
     3
100
AcDbLine
 10
318.0335
 20
-883.354167
 30
0.0
 11
318.0335
 21
-929.354167
 31
0.0
  0
LINE
  5
410
100
AcDbEntity
  8
1
  6
CONTINUOUS
 62
     3
100
AcDbLine
 10
318.0335
 20
-941.354167
 30
0.0
 11
318.0335
 21
-987.354167
 31
0.0
  0
LINE
  5
411
100
AcDbEntity
  8
1
  6
CONTINUOUS
 62
     3
100
AcDbLine
 10
320.0335
 20
-883.354167
 30
0.0
 11
320.0335
 21
-929.354167
 31
0.0
  0
LINE
  5
412
100
AcDbEntity
  8
1
  6
CONTINUOUS
 62
     3
100
AcDbLine
 10
320.0335
 20
-941.354167
 30
0.0
 11
320.0335
 21
-987.354167
 31
0.0
  0
LINE
  5
413
100
AcDbEntity
  8
1
  6
CONTINUOUS
 62
     3
100
AcDbLine
 10
319.0335
 20
-881.854167
 30
0.0
 11
319.0335
 21
-884.854167
 31
0.0
  0
LINE
  5
414
100
AcDbEntity
  8
1
  6
CONTINUOUS
 62
     3
100
AcDbLine
 10
318.0335
 20
-883.354167
 30
0.0
 11
319.0335
 21
-881.854167
 31
0.0
  0
LINE
  5
415
100
AcDbEntity
  8
1
  6
CONTINUOUS
 62
     3
100
AcDbLine
 10
319.0335
 20
-884.854167
 30
0.0
 11
320.0335
 21
-883.354167
 31
0.0
  0
LINE
  5
416
100
AcDbEntity
  8
1
  6
CONTINUOUS
 62
     3
100
AcDbLine
 10
316.0335
 20
-883.354167
 30
0.0
 11
318.0335
 21
-883.354167
 31
0.0
  0
LINE
  5
417
100
AcDbEntity
  8
1
  6
CONTINUOUS
 62
     3
100
AcDbLine
 10
320.0335
 20
-883.354167
 30
0.0
 11
322.0335
 21
-883.354167
 31
0.0
  0
LINE
  5
418
100
AcDbEntity
  8
1
  6
CONTINUOUS
 62
     3
100
AcDbLine
 10
316.0335
 20
-929.354167
 30
0.0
 11
318.0335
 21
-929.354167
 31
0.0
  0
LINE
  5
419
100
AcDbEntity
  8
1
  6
CONTINUOUS
 62
     3
100
AcDbLine
 10
319.0335
 20
-927.854167
 30
0.0
 11
319.0335
 21
-930.854167
 31
0.0
  0
LINE
  5
41A
100
AcDbEntity
  8
1
  6
CONTINUOUS
 62
     3
100
AcDbLine
 10
318.0335
 20
-929.354167
 30
0.0
 11
319.0335
 21
-927.854167
 31
0.0
  0
LINE
  5
41B
100
AcDbEntity
  8
1
  6
CONTINUOUS
 62
     3
100
AcDbLine
 10
319.0335
 20
-930.854167
 30
0.0
 11
320.0335
 21
-929.354167
 31
0.0
  0
LINE
  5
41C
100
AcDbEntity
  8
1
  6
CONTINUOUS
 62
     3
100
AcDbLine
 10
320.0335
 20
-929.354167
 30
0.0
 11
322.0335
 21
-929.354167
 31
0.0
  0
LINE
  5
41D
100
AcDbEntity
  8
1
  6
CONTINUOUS
 62
     3
100
AcDbLine
 10
316.0335
 20
-941.354167
 30
0.0
 11
318.0335
 21
-941.354167
 31
0.0
  0
LINE
  5
41E
100
AcDbEntity
  8
1
  6
CONTINUOUS
 62
     3
100
AcDbLine
 10
319.0335
 20
-939.854167
 30
0.0
 11
319.0335
 21
-942.854167
 31
0.0
  0
LINE
  5
41F
100
AcDbEntity
  8
1
  6
CONTINUOUS
 62
     3
100
AcDbLine
 10
318.0335
 20
-941.354167
 30
0.0
 11
319.0335
 21
-939.854167
 31
0.0
  0
LINE
  5
420
100
AcDbEntity
  8
1
  6
CONTINUOUS
 62
     3
100
AcDbLine
 10
319.0335
 20
-942.854167
 30
0.0
 11
320.0335
 21
-941.354167
 31
0.0
  0
LINE
  5
421
100
AcDbEntity
  8
1
  6
CONTINUOUS
 62
     3
100
AcDbLine
 10
320.0335
 20
-941.354167
 30
0.0
 11
322.0335
 21
-941.354167
 31
0.0
  0
LINE
  5
422
100
AcDbEntity
  8
1
  6
CONTINUOUS
 62
     3
100
AcDbLine
 10
316.0335
 20
-987.354167
 30
0.0
 11
318.0335
 21
-987.354167
 31
0.0
  0
LINE
  5
423
100
AcDbEntity
  8
1
  6
CONTINUOUS
 62
     3
100
AcDbLine
 10
319.0335
 20
-985.854167
 30
0.0
 11
319.0335
 21
-988.854167
 31
0.0
  0
LINE
  5
424
100
AcDbEntity
  8
1
  6
CONTINUOUS
 62
     3
100
AcDbLine
 10
318.0335
 20
-987.354167
 30
0.0
 11
319.0335
 21
-985.854167
 31
0.0
  0
LINE
  5
425
100
AcDbEntity
  8
1
  6
CONTINUOUS
 62
     3
100
AcDbLine
 10
319.0335
 20
-988.854167
 30
0.0
 11
320.0335
 21
-987.354167
 31
0.0
  0
LINE
  5
426
100
AcDbEntity
  8
1
  6
CONTINUOUS
 62
     3
100
AcDbLine
 10
320.0335
 20
-987.354167
 30
0.0
 11
322.0335
 21
-987.354167
 31
0.0
  0
LINE
  5
427
100
AcDbEntity
  8
1
  6
CONTINUOUS
 62
     3
100
AcDbLine
 10
340.5335
 20
-884.854167
 30
0.0
 11
340.5335
 21
-933.354167
 31
0.0
  0
LINE
  5
428
100
AcDbEntity
  8
1
  6
CONTINUOUS
 62
     3
100
AcDbLine
 10
341.5335
 20
-884.854167
 30
0.0
 11
341.5335
 21
-933.354167
 31
0.0
  0
LINE
  5
429
100
AcDbEntity
  8
1
  6
CONTINUOUS
 62
     3
100
AcDbLine
 10
352.5335
 20
-884.854167
 30
0.0
 11
352.5335
 21
-933.354167
 31
0.0
  0
LINE
  5
42A
100
AcDbEntity
  8
1
  6
DASHED
 62
     3
100
AcDbLine
 10
351.5335
 20
-884.854167
 30
0.0
 11
351.5335
 21
-933.354167
 31
0.0
  0
LINE
  5
42B
100
AcDbEntity
  8
1
  6
CONTINUOUS
 62
     3
100
AcDbLine
 10
346.5335
 20
-883.354167
 30
0.0
 11
346.5335
 21
-886.354167
 31
0.0
  0
LINE
  5
42C
100
AcDbEntity
  8
1
  6
CONTINUOUS
 62
     3
100
AcDbLine
 10
345.5335
 20
-884.854167
 30
0.0
 11
346.5335
 21
-883.354167
 31
0.0
  0
LINE
  5
42D
100
AcDbEntity
  8
1
  6
CONTINUOUS
 62
     3
100
AcDbLine
 10
346.5335
 20
-886.354167
 30
0.0
 11
347.5335
 21
-884.854167
 31
0.0
  0
LINE
  5
42E
100
AcDbEntity
  8
1
  6
CONTINUOUS
 62
     3
100
AcDbLine
 10
346.5335
 20
-931.854167
 30
0.0
 11
346.5335
 21
-934.854167
 31
0.0
  0
LINE
  5
42F
100
AcDbEntity
  8
1
  6
CONTINUOUS
 62
     3
100
AcDbLine
 10
345.5335
 20
-933.354167
 30
0.0
 11
346.5335
 21
-931.854167
 31
0.0
  0
LINE
  5
430
100
AcDbEntity
  8
1
  6
CONTINUOUS
 62
     3
100
AcDbLine
 10
346.5335
 20
-934.854167
 30
0.0
 11
347.5335
 21
-933.354167
 31
0.0
  0
LINE
  5
431
100
AcDbEntity
  8
1
  6
CONTINUOUS
 62
     3
100
AcDbLine
 10
338.5335
 20
-884.854167
 30
0.0
 11
345.5335
 21
-884.854167
 31
0.0
  0
LINE
  5
432
100
AcDbEntity
  8
1
  6
CONTINUOUS
 62
     3
100
AcDbLine
 10
347.5335
 20
-884.854167
 30
0.0
 11
354.5335
 21
-884.854167
 31
0.0
  0
LINE
  5
433
100
AcDbEntity
  8
1
  6
CONTINUOUS
 62
     3
100
AcDbLine
 10
338.5335
 20
-933.354167
 30
0.0
 11
345.5335
 21
-933.354167
 31
0.0
  0
LINE
  5
434
100
AcDbEntity
  8
1
  6
CONTINUOUS
 62
     3
100
AcDbLine
 10
347.5335
 20
-933.354167
 30
0.0
 11
354.5335
 21
-933.354167
 31
0.0
  0
LINE
  5
435
100
AcDbEntity
  8
1
  6
CONTINUOUS
 62
     3
100
AcDbLine
 10
320.0335
 20
-902.854167
 30
0.0
 11
322.0335
 21
-902.854167
 31
0.0
  0
LINE
  5
436
100
AcDbEntity
  8
1
  6
CONTINUOUS
 62
     3
100
AcDbLine
 10
322.0335
 20
-902.854167
 30
0.0
 11
322.0335
 21
-910.854167
 31
0.0
  0
LINE
  5
437
100
AcDbEntity
  8
1
  6
CONTINUOUS
 62
     3
100
AcDbLine
 10
322.0335
 20
-910.854167
 30
0.0
 11
340.5335
 21
-910.854167
 31
0.0
  0
LINE
  5
438
100
AcDbEntity
  8
1
  6
CONTINUOUS
 62
     3
100
AcDbLine
 10
320.0335
 20
-912.854167
 30
0.0
 11
334.5335
 21
-912.854167
 31
0.0
  0
LINE
  5
439
100
AcDbEntity
  8
1
  6
CONTINUOUS
 62
     3
100
AcDbLine
 10
334.5335
 20
-912.854167
 30
0.0
 11
334.5335
 21
-918.854167
 31
0.0
  0
LINE
  5
43A
100
AcDbEntity
  8
1
  6
CONTINUOUS
 62
     3
100
AcDbLine
 10
334.5335
 20
-918.854167
 30
0.0
 11
340.5335
 21
-918.854167
 31
0.0
  0
LINE
  5
43B
100
AcDbEntity
  8
1
  6
CONTINUOUS
 62
     3
100
AcDbLine
 10
336.5335
 20
-912.854167
 30
0.0
 11
336.5335
 21
-917.854167
 31
0.0
  0
LINE
  5
43C
100
AcDbEntity
  8
1
  6
CONTINUOUS
 62
     3
100
AcDbLine
 10
336.5335
 20
-912.854167
 30
0.0
 11
339.7835
 21
-912.854167
 31
0.0
  0
LINE
  5
43D
100
AcDbEntity
  8
1
  6
CONTINUOUS
 62
     3
100
AcDbLine
 10
336.5335
 20
-917.854167
 30
0.0
 11
339.7835
 21
-917.854167
 31
0.0
  0
LINE
  5
43E
100
AcDbEntity
  8
1
  6
CONTINUOUS
 62
     3
100
AcDbLine
 10
339.7835
 20
-912.854167
 30
0.0
 11
339.7835
 21
-917.854167
 31
0.0
  0
LINE
  5
43F
100
AcDbEntity
  8
1
  6
CONTINUOUS
 62
     3
100
AcDbLine
 10
337.0335
 20
-913.354167
 30
0.0
 11
337.0335
 21
-917.354167
 31
0.0
  0
LINE
  5
440
100
AcDbEntity
  8
1
  6
CONTINUOUS
 62
     3
100
AcDbLine
 10
337.0335
 20
-913.354167
 30
0.0
 11
339.2835
 21
-913.354167
 31
0.0
  0
LINE
  5
441
100
AcDbEntity
  8
1
  6
CONTINUOUS
 62
     3
100
AcDbLine
 10
339.2835
 20
-913.354167
 30
0.0
 11
339.2835
 21
-917.354167
 31
0.0
  0
LINE
  5
442
100
AcDbEntity
  8
1
  6
CONTINUOUS
 62
     3
100
AcDbLine
 10
337.0335
 20
-917.354167
 30
0.0
 11
339.2835
 21
-917.354167
 31
0.0
  0
LINE
  5
443
100
AcDbEntity
  8
1
  6
CONTINUOUS
 62
     3
100
AcDbLine
 10
337.0335
 20
-914.354167
 30
0.0
 11
339.2835
 21
-914.354167
 31
0.0
  0
LINE
  5
444
100
AcDbEntity
  8
1
  6
CONTINUOUS
 62
     3
100
AcDbLine
 10
337.0335
 20
-916.354167
 30
0.0
 11
339.2835
 21
-916.354167
 31
0.0
  0
LINE
  5
445
100
AcDbEntity
  8
1
  6
DASHED
 62
     3
100
AcDbLine
 10
341.5335
 20
-914.354167
 30
0.0
 11
351.5335
 21
-914.354167
 31
0.0
  0
LINE
  5
446
100
AcDbEntity
  8
1
  6
DASHED
 62
     3
100
AcDbLine
 10
341.5335
 20
-916.354167
 30
0.0
 11
351.5335
 21
-916.354167
 31
0.0
  0
LINE
  5
447
100
AcDbEntity
  8
1
  6
CONTINUOUS
 62
     3
100
AcDbLine
 10
352.5335
 20
-914.354167
 30
0.0
 11
356.0335
 21
-914.354167
 31
0.0
  0
LINE
  5
448
100
AcDbEntity
  8
1
  6
CONTINUOUS
 62
     3
100
AcDbLine
 10
352.5335
 20
-916.354167
 30
0.0
 11
356.0335
 21
-916.354167
 31
0.0
  0
LINE
  5
449
100
AcDbEntity
  8
1
  6
CONTINUOUS
 62
     3
100
AcDbLine
 10
352.5335
 20
-913.354167
 30
0.0
 11
354.0335
 21
-913.354167
 31
0.0
  0
LINE
  5
44A
100
AcDbEntity
  8
1
  6
CONTINUOUS
 62
     3
100
AcDbLine
 10
352.5335
 20
-917.354167
 30
0.0
 11
354.0335
 21
-917.354167
 31
0.0
  0
LINE
  5
44B
100
AcDbEntity
  8
1
  6
CONTINUOUS
 62
     3
100
AcDbLine
 10
354.0335
 20
-913.354167
 30
0.0
 11
354.0335
 21
-917.354167
 31
0.0
  0
LINE
  5
44C
100
AcDbEntity
  8
1
  6
CONTINUOUS
 62
     3
100
AcDbLine
 10
356.0335
 20
-914.354167
 30
0.0
 11
356.0335
 21
-916.354167
 31
0.0
  0
LINE
  5
44D
100
AcDbEntity
  8
1
  6
CONTINUOUS
 62
     3
100
AcDbLine
 10
355.0335
 20
-914.354167
 30
0.0
 11
355.0335
 21
-916.354167
 31
0.0
  0
LINE
  5
44E
100
AcDbEntity
  8
1
  6
CONTINUOUS
 62
     3
100
AcDbLine
 10
355.5335
 20
-914.854167
 30
0.0
 11
355.5335
 21
-915.854167
 31
0.0
  0
LINE
  5
44F
100
AcDbEntity
  8
1
  6
CONTINUOUS
 62
     3
100
AcDbLine
 10
354.5335
 20
-914.854167
 30
0.0
 11
354.5335
 21
-915.854167
 31
0.0
  0
LINE
  5
450
100
AcDbEntity
  8
1
  6
CONTINUOUS
 62
     7
100
AcDbLine
 10
357.0335
 20
-915.354167
 30
0.0
 11
361.0335
 21
-915.354167
 31
0.0
  0
LINE
  5
451
100
AcDbEntity
  8
1
  6
CONTINUOUS
 62
     3
100
AcDbLine
 10
322.0335
 20
-906.854167
 30
0.0
 11
323.0335
 21
-906.854167
 31
0.0
  0
LINE
  5
452
100
AcDbEntity
  8
1
  6
CONTINUOUS
 62
     3
100
AcDbLine
 10
322.0335
 20
-905.854167
 30
0.0
 11
323.0335
 21
-905.854167
 31
0.0
  0
LINE
  5
453
100
AcDbEntity
  8
1
  6
CONTINUOUS
 62
     3
100
AcDbLine
 10
322.0335
 20
-907.854167
 30
0.0
 11
323.0335
 21
-907.854167
 31
0.0
  0
LINE
  5
454
100
AcDbEntity
  8
1
  6
CONTINUOUS
 62
     3
100
AcDbLine
 10
323.0335
 20
-905.854167
 30
0.0
 11
323.0335
 21
-906.854167
 31
0.0
  0
LINE
  5
455
100
AcDbEntity
  8
1
  6
CONTINUOUS
 62
     3
100
AcDbLine
 10
323.0335
 20
-906.854167
 30
0.0
 11
323.0335
 21
-907.854167
 31
0.0
  0
LINE
  5
456
100
AcDbEntity
  8
1
  6
CONTINUOUS
 62
     3
100
AcDbLine
 10
323.0335
 20
-906.354167
 30
0.0
 11
325.0335
 21
-906.354167
 31
0.0
  0
LINE
  5
457
100
AcDbEntity
  8
1
  6
CONTINUOUS
 62
     3
100
AcDbLine
 10
323.0335
 20
-907.354167
 30
0.0
 11
325.0335
 21
-907.354167
 31
0.0
  0
LINE
  5
458
100
AcDbEntity
  8
1
  6
CONTINUOUS
 62
     3
100
AcDbLine
 10
325.0335
 20
-907.354167
 30
0.0
 11
325.0335
 21
-906.354167
 31
0.0
  0
LINE
  5
459
100
AcDbEntity
  8
1
  6
CONTINUOUS
 62
     3
100
AcDbLine
 10
324.2835
 20
-907.354167
 30
0.0
 11
324.2835
 21
-906.354167
 31
0.0
  0
LINE
  5
45A
100
AcDbEntity
  8
1
  6
CONTINUOUS
 62
     3
100
AcDbLine
 10
323.5335
 20
-907.354167
 30
0.0
 11
323.5335
 21
-906.354167
 31
0.0
  0
LINE
  5
45B
100
AcDbEntity
  8
1
  6
CONTINUOUS
 62
     3
100
AcDbLine
 10
318.0335
 20
-906.854167
 30
0.0
 11
317.0335
 21
-906.854167
 31
0.0
  0
LINE
  5
45C
100
AcDbEntity
  8
1
  6
CONTINUOUS
 62
     3
100
AcDbLine
 10
318.0335
 20
-905.854167
 30
0.0
 11
317.0335
 21
-905.854167
 31
0.0
  0
LINE
  5
45D
100
AcDbEntity
  8
1
  6
CONTINUOUS
 62
     3
100
AcDbLine
 10
318.0335
 20
-907.854167
 30
0.0
 11
317.0335
 21
-907.854167
 31
0.0
  0
LINE
  5
45E
100
AcDbEntity
  8
1
  6
CONTINUOUS
 62
     3
100
AcDbLine
 10
317.0335
 20
-905.854167
 30
0.0
 11
317.0335
 21
-906.854167
 31
0.0
  0
LINE
  5
45F
100
AcDbEntity
  8
1
  6
CONTINUOUS
 62
     3
100
AcDbLine
 10
317.0335
 20
-906.854167
 30
0.0
 11
317.0335
 21
-907.854167
 31
0.0
  0
LINE
  5
460
100
AcDbEntity
  8
1
  6
CONTINUOUS
 62
     7
100
AcDbLine
 10
328.5335
 20
-906.854167
 30
0.0
 11
326.0335
 21
-906.854167
 31
0.0
  0
LINE
  5
461
100
AcDbEntity
  8
1
  6
CONTINUOUS
 62
     7
100
AcDbLine
 10
316.0335
 20
-906.854167
 30
0.0
 11
313.5335
 21
-906.854167
 31
0.0
  0
LINE
  5
462
100
AcDbEntity
  8
1
  6
CONTINUOUS
 62
     7
100
AcDbLine
 10
331.2835
 20
-910.854167
 30
0.0
 11
327.51325
 21
-876.221667
 31
0.0
  0
LINE
  5
463
100
AcDbEntity
  8
1
  6
CONTINUOUS
 62
     7
100
AcDbLine
 10
327.51325
 20
-876.221667
 30
0.0
 11
309.416333
 21
-876.221667
 31
0.0
  0
INSERT
  5
464
100
AcDbEntity
  8
1
  6
CONTINUOUS
 62
     1
100
AcDbBlockReference
  2
LDR
 10
331.2835
 20
-910.854167
 30
0.0
 41
239.999999
 42
239.999999
 50
276.21301
210
0.0
220
0.0
230
1.0
  0
LINE
  5
465
100
AcDbEntity
  8
1
  6
CONTINUOUS
 62
     7
100
AcDbLine
 10
352.5335
 20
-898.253583
 30
0.0
 11
359.989833
 21
-890.11675
 31
0.0
  0
LINE
  5
466
100
AcDbEntity
  8
1
  6
CONTINUOUS
 62
     7
100
AcDbLine
 10
359.989833
 20
-890.11675
 30
0.0
 11
364.68525
 21
-890.11675
 31
0.0
  0
INSERT
  5
467
100
AcDbEntity
  8
1
  6
CONTINUOUS
 62
     1
100
AcDbBlockReference
  2
LDR
 10
352.5335
 20
-898.253583
 30
0.0
 41
240.000001
 42
240.000001
 50
227.498854
210
0.0
220
0.0
230
1.0
  0
LINE
  5
468
100
AcDbEntity
  8
1
  6
CONTINUOUS
 62
     3
100
AcDbLine
 10
341.0335
 20
-946.354167
 30
0.0
 11
341.0335
 21
-982.354167
 31
0.0
  0
LINE
  5
469
100
AcDbEntity
  8
1
  6
CONTINUOUS
 62
     3
100
AcDbLine
 10
330.5335
 20
-944.354167
 30
0.0
 11
330.5335
 21
-948.354167
 31
0.0
  0
LINE
  5
46A
100
AcDbEntity
  8
1
  6
CONTINUOUS
 62
     3
100
AcDbLine
 10
330.5335
 20
-980.354167
 30
0.0
 11
330.5335
 21
-984.354167
 31
0.0
  0
LINE
  5
46B
100
AcDbEntity
  8
1
  6
CONTINUOUS
 62
     3
100
AcDbLine
 10
341.0335
 20
-946.354167
 30
0.0
 11
332.5335
 21
-946.354167
 31
0.0
  0
LINE
  5
46C
100
AcDbEntity
  8
1
  6
CONTINUOUS
 62
     3
100
AcDbLine
 10
328.5335
 20
-946.354167
 30
0.0
 11
320.0335
 21
-946.354167
 31
0.0
  0
LINE
  5
46D
100
AcDbEntity
  8
1
  6
CONTINUOUS
 62
     3
100
AcDbLine
 10
341.0335
 20
-982.354167
 30
0.0
 11
332.5335
 21
-982.354167
 31
0.0
  0
LINE
  5
46E
100
AcDbEntity
  8
1
  6
CONTINUOUS
 62
     3
100
AcDbLine
 10
328.5335
 20
-982.354167
 30
0.0
 11
320.0335
 21
-982.354167
 31
0.0
  0
LINE
  5
46F
100
AcDbEntity
  8
1
  6
CONTINUOUS
 62
     3
100
AcDbLine
 10
328.5335
 20
-946.354167
 30
0.0
 11
330.5335
 21
-944.354167
 31
0.0
  0
LINE
  5
470
100
AcDbEntity
  8
1
  6
CONTINUOUS
 62
     3
100
AcDbLine
 10
332.5335
 20
-946.354167
 30
0.0
 11
330.5335
 21
-948.354167
 31
0.0
  0
LINE
  5
471
100
AcDbEntity
  8
1
  6
CONTINUOUS
 62
     3
100
AcDbLine
 10
328.5335
 20
-982.354167
 30
0.0
 11
330.5335
 21
-980.354167
 31
0.0
  0
LINE
  5
472
100
AcDbEntity
  8
1
  6
CONTINUOUS
 62
     3
100
AcDbLine
 10
332.5335
 20
-982.354167
 30
0.0
 11
330.5335
 21
-984.354167
 31
0.0
  0
LINE
  5
473
100
AcDbEntity
  8
1
  6
CONTINUOUS
 62
     3
100
AcDbLine
 10
322.0335
 20
-946.354167
 30
0.0
 11
322.0335
 21
-982.354167
 31
0.0
  0
LINE
  5
474
100
AcDbEntity
  8
1
  6
DASHED
 62
     3
100
AcDbLine
 10
337.2835
 20
-946.354167
 30
0.0
 11
337.2835
 21
-982.354167
 31
0.0
  0
LINE
  5
475
100
AcDbEntity
  8
1
  6
DASHED
 62
     3
100
AcDbLine
 10
335.2835
 20
-946.354167
 30
0.0
 11
335.2835
 21
-982.354167
 31
0.0
  0
LINE
  5
476
100
AcDbEntity
  8
1
  6
HIDDEN
 62
     3
100
AcDbLine
 10
338.0335
 20
-961.854167
 30
0.0
 11
338.0335
 21
-966.854167
 31
0.0
  0
LINE
  5
477
100
AcDbEntity
  8
1
  6
HIDDEN
 62
     3
100
AcDbLine
 10
338.0335
 20
-961.854167
 30
0.0
 11
339.7835
 21
-961.854167
 31
0.0
  0
LINE
  5
478
100
AcDbEntity
  8
1
  6
HIDDEN
 62
     3
100
AcDbLine
 10
338.0335
 20
-966.854167
 30
0.0
 11
339.7835
 21
-966.854167
 31
0.0
  0
LINE
  5
479
100
AcDbEntity
  8
1
  6
HIDDEN
 62
     3
100
AcDbLine
 10
339.7835
 20
-963.104167
 30
0.0
 11
341.0335
 21
-963.104167
 31
0.0
  0
LINE
  5
47A
100
AcDbEntity
  8
1
  6
HIDDEN
 62
     3
100
AcDbLine
 10
339.7835
 20
-965.604167
 30
0.0
 11
341.0335
 21
-965.604167
 31
0.0
  0
LINE
  5
47B
100
AcDbEntity
  8
1
  6
CONTINUOUS
 62
     3
100
AcDbLine
 10
341.0335
 20
-963.104167
 30
0.0
 11
351.0335
 21
-963.104167
 31
0.0
  0
LINE
  5
47C
100
AcDbEntity
  8
1
  6
CONTINUOUS
 62
     3
100
AcDbLine
 10
341.0335
 20
-965.604167
 30
0.0
 11
351.0335
 21
-965.604167
 31
0.0
  0
LINE
  5
47D
100
AcDbEntity
  8
1
  6
CONTINUOUS
 62
     3
100
AcDbLine
 10
351.0335
 20
-968.104167
 30
0.0
 11
351.0335
 21
-960.604167
 31
0.0
  0
LINE
  5
47E
100
AcDbEntity
  8
1
  6
CONTINUOUS
 62
     3
100
AcDbLine
 10
353.0335
 20
-969.167083
 30
0.0
 11
353.0335
 21
-959.541167
 31
0.0
  0
LINE
  5
47F
100
AcDbEntity
  8
1
  6
CONTINUOUS
 62
     3
100
AcDbLine
 10
341.0335
 20
-953.854167
 30
0.0
 11
351.0335
 21
-960.604167
 31
0.0
  0
LINE
  5
480
100
AcDbEntity
  8
1
  6
CONTINUOUS
 62
     3
100
AcDbLine
 10
351.0335
 20
-968.104167
 30
0.0
 11
341.0335
 21
-974.854167
 31
0.0
  0
LINE
  5
481
100
AcDbEntity
  8
1
  6
CONTINUOUS
 62
     3
100
AcDbLine
 10
341.0335
 20
-949.354167
 30
0.0
 11
343.0335
 21
-949.354167
 31
0.0
  0
LINE
  5
482
100
AcDbEntity
  8
1
  6
CONTINUOUS
 62
     3
100
AcDbLine
 10
341.0335
 20
-979.354167
 30
0.0
 11
343.0335
 21
-979.354167
 31
0.0
  0
LINE
  5
483
100
AcDbEntity
  8
1
  6
CONTINUOUS
 62
     3
100
AcDbLine
 10
343.0335
 20
-952.791167
 30
0.0
 11
353.0335
 21
-959.541167
 31
0.0
  0
LINE
  5
484
100
AcDbEntity
  8
1
  6
CONTINUOUS
 62
     3
100
AcDbLine
 10
353.0335
 20
-969.167083
 30
0.0
 11
343.0335
 21
-975.917083
 31
0.0
  0
LINE
  5
485
100
AcDbEntity
  8
1
  6
CONTINUOUS
 62
     3
100
AcDbLine
 10
343.0335
 20
-949.354167
 30
0.0
 11
343.0335
 21
-952.791167
 31
0.0
  0
LINE
  5
486
100
AcDbEntity
  8
1
  6
CONTINUOUS
 62
     3
100
AcDbLine
 10
343.0335
 20
-979.354167
 30
0.0
 11
343.0335
 21
-975.917083
 31
0.0
  0
LINE
  5
487
100
AcDbEntity
  8
1
  6
CONTINUOUS
 62
     3
100
AcDbLine
 10
353.0335
 20
-961.854167
 30
0.0
 11
354.5335
 21
-961.854167
 31
0.0
  0
LINE
  5
488
100
AcDbEntity
  8
1
  6
CONTINUOUS
 62
     3
100
AcDbLine
 10
353.0335
 20
-966.854167
 30
0.0
 11
354.5335
 21
-966.854167
 31
0.0
  0
LINE
  5
489
100
AcDbEntity
  8
1
  6
CONTINUOUS
 62
     3
100
AcDbLine
 10
354.5335
 20
-961.854167
 30
0.0
 11
354.5335
 21
-966.854167
 31
0.0
  0
LINE
  5
48A
100
AcDbEntity
  8
1
  6
DASHED
 62
     3
100
AcDbLine
 10
339.7835
 20
-946.354167
 30
0.0
 11
339.7835
 21
-961.854167
 31
0.0
  0
LINE
  5
48B
100
AcDbEntity
  8
1
  6
DASHED
 62
     3
100
AcDbLine
 10
339.7835
 20
-963.104167
 30
0.0
 11
339.7835
 21
-965.604167
 31
0.0
  0
LINE
  5
48C
100
AcDbEntity
  8
1
  6
DASHED
 62
     3
100
AcDbLine
 10
339.7835
 20
-966.854167
 30
0.0
 11
339.7835
 21
-982.354167
 31
0.0
  0
LINE
  5
48D
100
AcDbEntity
  8
1
  6
CONTINUOUS
 62
     3
100
AcDbLine
 10
353.0335
 20
-963.104167
 30
0.0
 11
356.5335
 21
-963.104167
 31
0.0
  0
LINE
  5
48E
100
AcDbEntity
  8
1
  6
CONTINUOUS
 62
     3
100
AcDbLine
 10
353.0335
 20
-965.604167
 30
0.0
 11
356.5335
 21
-965.604167
 31
0.0
  0
LINE
  5
48F
100
AcDbEntity
  8
1
  6
CONTINUOUS
 62
     3
100
AcDbLine
 10
356.5335
 20
-963.104167
 30
0.0
 11
356.5335
 21
-965.604167
 31
0.0
  0
LINE
  5
490
100
AcDbEntity
  8
1
  6
CONTINUOUS
 62
     3
100
AcDbLine
 10
356.0335
 20
-963.604167
 30
0.0
 11
356.0335
 21
-965.104167
 31
0.0
  0
LINE
  5
491
100
AcDbEntity
  8
1
  6
CONTINUOUS
 62
     3
100
AcDbLine
 10
355.5335
 20
-963.104167
 30
0.0
 11
355.5335
 21
-965.604167
 31
0.0
  0
LINE
  5
492
100
AcDbEntity
  8
1
  6
CONTINUOUS
 62
     3
100
AcDbLine
 10
355.0335
 20
-963.604167
 30
0.0
 11
355.0335
 21
-965.104167
 31
0.0
  0
LINE
  5
493
100
AcDbEntity
  8
1
  6
CONTINUOUS
 62
     3
100
AcDbLine
 10
350.5335
 20
-965.104167
 30
0.0
 11
350.5335
 21
-963.604167
 31
0.0
  0
LINE
  5
494
100
AcDbEntity
  8
1
  6
CONTINUOUS
 62
     3
100
AcDbLine
 10
350.0335
 20
-965.604167
 30
0.0
 11
350.0335
 21
-963.104167
 31
0.0
  0
LINE
  5
495
100
AcDbEntity
  8
1
  6
CONTINUOUS
 62
     3
100
AcDbLine
 10
349.5335
 20
-965.104167
 30
0.0
 11
349.5335
 21
-963.604167
 31
0.0
  0
LINE
  5
496
100
AcDbEntity
  8
1
  6
CONTINUOUS
 62
     3
100
AcDbLine
 10
349.0335
 20
-965.604167
 30
0.0
 11
349.0335
 21
-963.104167
 31
0.0
  0
LINE
  5
497
100
AcDbEntity
  8
1
  6
CONTINUOUS
 62
     3
100
AcDbLine
 10
348.5335
 20
-965.104167
 30
0.0
 11
348.5335
 21
-963.604167
 31
0.0
  0
LINE
  5
498
100
AcDbEntity
  8
1
  6
CONTINUOUS
 62
     3
100
AcDbLine
 10
348.0335
 20
-965.604167
 30
0.0
 11
348.0335
 21
-963.104167
 31
0.0
  0
LINE
  5
499
100
AcDbEntity
  8
1
  6
CONTINUOUS
 62
     3
100
AcDbLine
 10
347.5335
 20
-965.104167
 30
0.0
 11
347.5335
 21
-963.604167
 31
0.0
  0
LINE
  5
49A
100
AcDbEntity
  8
1
  6
CONTINUOUS
 62
     3
100
AcDbLine
 10
347.0335
 20
-965.604167
 30
0.0
 11
347.0335
 21
-963.104167
 31
0.0
  0
LINE
  5
49B
100
AcDbEntity
  8
1
  6
CONTINUOUS
 62
     3
100
AcDbLine
 10
346.5335
 20
-965.104167
 30
0.0
 11
346.5335
 21
-963.604167
 31
0.0
  0
LINE
  5
49C
100
AcDbEntity
  8
1
  6
CONTINUOUS
 62
     3
100
AcDbLine
 10
346.0335
 20
-965.604167
 30
0.0
 11
346.0335
 21
-963.104167
 31
0.0
  0
LINE
  5
49D
100
AcDbEntity
  8
1
  6
CONTINUOUS
 62
     3
100
AcDbLine
 10
345.5335
 20
-965.104167
 30
0.0
 11
345.5335
 21
-963.604167
 31
0.0
  0
LINE
  5
49E
100
AcDbEntity
  8
1
  6
CONTINUOUS
 62
     3
100
AcDbLine
 10
345.0335
 20
-965.604167
 30
0.0
 11
345.0335
 21
-963.104167
 31
0.0
  0
LINE
  5
49F
100
AcDbEntity
  8
1
  6
CONTINUOUS
 62
     3
100
AcDbLine
 10
344.5335
 20
-965.104167
 30
0.0
 11
344.5335
 21
-963.604167
 31
0.0
  0
LINE
  5
4A0
100
AcDbEntity
  8
1
  6
CONTINUOUS
 62
     3
100
AcDbLine
 10
344.0335
 20
-965.604167
 30
0.0
 11
344.0335
 21
-963.104167
 31
0.0
  0
LINE
  5
4A1
100
AcDbEntity
  8
1
  6
CONTINUOUS
 62
     3
100
AcDbLine
 10
343.5335
 20
-965.104167
 30
0.0
 11
343.5335
 21
-963.604167
 31
0.0
  0
LINE
  5
4A2
100
AcDbEntity
  8
1
  6
CONTINUOUS
 62
     3
100
AcDbLine
 10
343.0335
 20
-965.604167
 30
0.0
 11
343.0335
 21
-963.104167
 31
0.0
  0
LINE
  5
4A3
100
AcDbEntity
  8
1
  6
CONTINUOUS
 62
     3
100
AcDbLine
 10
342.5335
 20
-965.104167
 30
0.0
 11
342.5335
 21
-963.604167
 31
0.0
  0
LINE
  5
4A4
100
AcDbEntity
  8
1
  6
CONTINUOUS
 62
     3
100
AcDbLine
 10
342.0335
 20
-965.604167
 30
0.0
 11
342.0335
 21
-963.104167
 31
0.0
  0
LINE
  5
4A5
100
AcDbEntity
  8
1
  6
CONTINUOUS
 62
     3
100
AcDbLine
 10
341.5335
 20
-965.104167
 30
0.0
 11
341.5335
 21
-963.604167
 31
0.0
  0
LINE
  5
4A6
100
AcDbEntity
  8
1
  6
CONTINUOUS
 62
     7
100
AcDbLine
 10
357.5335
 20
-964.354167
 30
0.0
 11
361.5335
 21
-964.354167
 31
0.0
  0
LINE
  5
4A7
100
AcDbEntity
  8
1
  6
CONTINUOUS
 62
     7
100
AcDbLine
 10
361.0335
 20
-939.854167
 30
0.0
 11
365.949583
 21
-939.854167
 31
0.0
  0
LINE
  5
4A8
100
AcDbEntity
  8
1
  6
CONTINUOUS
 62
     7
100
AcDbLine
 10
353.994
 20
-916.305333
 30
0.0
 11
361.0335
 21
-939.854167
 31
0.0
  0
LINE
  5
4A9
100
AcDbEntity
  8
1
  6
CONTINUOUS
 62
     7
100
AcDbLine
 10
354.466833
 20
-963.14275
 30
0.0
 11
361.0335
 21
-939.854167
 31
0.0
  0
INSERT
  5
4AA
100
AcDbEntity
  8
1
  6
CONTINUOUS
 62
     1
100
AcDbBlockReference
  2
LDR
 10
353.994
 20
-916.305333
 30
0.0
 41
239.999999
 42
239.999999
 50
106.643089
210
0.0
220
0.0
230
1.0
  0
INSERT
  5
4AB
100
AcDbEntity
  8
1
  6
CONTINUOUS
 62
     1
100
AcDbBlockReference
  2
LDR
 10
353.994
 20
-916.305333
 30
0.0
 41
239.999999
 42
239.999999
 50
106.643089
210
0.0
220
0.0
230
1.0
  0
INSERT
  5
4AC
100
AcDbEntity
  8
1
  6
CONTINUOUS
 62
     1
100
AcDbBlockReference
  2
LDR
 10
354.466833
 20
-963.14275
 30
0.0
 41
240.0
 42
240.0
 50
254.253175
210
0.0
220
0.0
230
1.0
  0
LINE
  5
4AD
100
AcDbEntity
  8
1
  6
CONTINUOUS
 62
     7
100
AcDbLine
 10
296.4155
 20
-939.854167
 30
0.0
 11
301.331583
 21
-939.854167
 31
0.0
  0
LINE
  5
4AE
100
AcDbEntity
  8
1
  6
CONTINUOUS
 62
     7
100
AcDbLine
 10
301.331583
 20
-939.854167
 30
0.0
 11
318.0335
 21
-916.2675
 31
0.0
  0
LINE
  5
4AF
100
AcDbEntity
  8
1
  6
CONTINUOUS
 62
     7
100
AcDbLine
 10
301.331583
 20
-939.854167
 30
0.0
 11
318.0335
 21
-963.440833
 31
0.0
  0
INSERT
  5
4B0
100
AcDbEntity
  8
1
  6
CONTINUOUS
 62
     1
100
AcDbBlockReference
  2
LDR
 10
318.0335
 20
-916.2675
 30
0.0
 41
240.0
 42
240.0
 50
54.697369
210
0.0
220
0.0
230
1.0
  0
INSERT
  5
4B1
100
AcDbEntity
  8
1
  6
CONTINUOUS
 62
     1
100
AcDbBlockReference
  2
LDR
 10
318.0335
 20
-916.2675
 30
0.0
 41
240.0
 42
240.0
 50
54.697369
210
0.0
220
0.0
230
1.0
  0
INSERT
  5
4B2
100
AcDbEntity
  8
1
  6
CONTINUOUS
 62
     1
100
AcDbBlockReference
  2
LDR
 10
318.0335
 20
-963.440833
 30
0.0
 41
240.0
 42
240.0
 50
305.302631
210
0.0
220
0.0
230
1.0
  0
LINE
  5
4B3
100
AcDbEntity
  8
1
  6
CONTINUOUS
 62
     7
100
AcDbLine
 10
348.0335
 20
-972.542083
 30
0.0
 11
353.268083
 21
-983.162083
 31
0.0
  0
LINE
  5
4B4
100
AcDbEntity
  8
1
  6
CONTINUOUS
 62
     7
100
AcDbLine
 10
353.268083
 20
-983.162083
 30
0.0
 11
357.510417
 21
-983.162083
 31
0.0
  0
INSERT
  5
4B5
100
AcDbEntity
  8
1
  6
CONTINUOUS
 62
     1
100
AcDbBlockReference
  2
LDR
 10
348.0335
 20
-972.542083
 30
0.0
 41
240.000002
 42
240.000002
 50
116.238624
210
0.0
220
0.0
230
1.0
  0
LINE
  5
4B6
100
AcDbEntity
  8
1
  6
CONTINUOUS
 62
     7
100
AcDbLine
 10
337.2835
 20
-982.354167
 30
0.0
 11
342.201083
 21
-995.70875
 31
0.0
  0
LINE
  5
4B7
100
AcDbEntity
  8
1
  6
CONTINUOUS
 62
     7
100
AcDbLine
 10
342.201083
 20
-995.70875
 30
0.0
 11
346.99675
 21
-995.70875
 31
0.0
  0
INSERT
  5
4B8
100
AcDbEntity
  8
1
  6
CONTINUOUS
 62
     1
100
AcDbBlockReference
  2
LDR
 10
337.2835
 20
-982.354167
 30
0.0
 41
239.999999
 42
239.999999
 50
110.215315
210
0.0
220
0.0
230
1.0
  0
LINE
  5
4B9
100
AcDbEntity
  8
1
  6
CONTINUOUS
 62
    52
100
AcDbLine
 10
578.742917
 20
-848.365583
 30
0.0
 11
578.742917
 21
-921.365583
 31
0.0
  0
LINE
  5
4BA
100
AcDbEntity
  8
1
  6
CONTINUOUS
 62
    52
100
AcDbLine
 10
578.742917
 20
-921.365583
 30
0.0
 11
397.742917
 21
-921.365583
 31
0.0
  0
LINE
  5
4BB
100
AcDbEntity
  8
1
  6
CONTINUOUS
 62
    52
100
AcDbLine
 10
397.742917
 20
-860.365583
 30
0.0
 11
578.742917
 21
-860.365583
 31
0.0
  0
LINE
  5
4BC
100
AcDbEntity
  8
1
  6
CONTINUOUS
 62
    52
100
AcDbLine
 10
397.742917
 20
-861.365583
 30
0.0
 11
578.742917
 21
-861.365583
 31
0.0
  0
LINE
  5
4BD
100
AcDbEntity
  8
1
  6
CONTINUOUS
 62
    52
100
AcDbLine
 10
397.742917
 20
-891.365583
 30
0.0
 11
578.742917
 21
-891.365583
 31
0.0
  0
LINE
  5
4BE
100
AcDbEntity
  8
1
  6
CONTINUOUS
 62
    52
100
AcDbLine
 10
427.742917
 20
-921.365583
 30
0.0
 11
427.742917
 21
-848.365583
 31
0.0
  0
LINE
  5
4BF
100
AcDbEntity
  8
1
  6
CONTINUOUS
 62
    52
100
AcDbLine
 10
428.742917
 20
-921.365583
 30
0.0
 11
428.742917
 21
-848.365583
 31
0.0
  0
LINE
  5
4C0
100
AcDbEntity
  8
1
  6
CONTINUOUS
 62
    52
100
AcDbLine
 10
458.742917
 20
-921.365583
 30
0.0
 11
458.742917
 21
-848.365583
 31
0.0
  0
LINE
  5
4C1
100
AcDbEntity
  8
1
  6
CONTINUOUS
 62
    52
100
AcDbLine
 10
488.742917
 20
-921.365583
 30
0.0
 11
488.742917
 21
-848.365583
 31
0.0
  0
LINE
  5
4C2
100
AcDbEntity
  8
1
  6
CONTINUOUS
 62
    52
100
AcDbLine
 10
518.742917
 20
-921.365583
 30
0.0
 11
518.742917
 21
-848.365583
 31
0.0
  0
LINE
  5
4C3
100
AcDbEntity
  8
1
  6
CONTINUOUS
 62
    52
100
AcDbLine
 10
548.742917
 20
-921.365583
 30
0.0
 11
548.742917
 21
-848.365583
 31
0.0
  0
LINE
  5
4C4
100
AcDbEntity
  8
1
  6
CONTINUOUS
 62
    52
100
AcDbLine
 10
428.742917
 20
-854.365583
 30
0.0
 11
458.742917
 21
-854.365583
 31
0.0
  0
LINE
  5
4C5
100
AcDbEntity
  8
1
  6
CONTINUOUS
 62
    52
100
AcDbLine
 10
428.742917
 20
-871.365583
 30
0.0
 11
578.742917
 21
-871.365583
 31
0.0
  0
LINE
  5
4C6
100
AcDbEntity
  8
1
  6
CONTINUOUS
 62
    52
100
AcDbLine
 10
428.742917
 20
-881.365583
 30
0.0
 11
578.742917
 21
-881.365583
 31
0.0
  0
LINE
  5
4C7
100
AcDbEntity
  8
1
  6
CONTINUOUS
 62
    52
100
AcDbLine
 10
428.742917
 20
-901.365583
 30
0.0
 11
578.742917
 21
-901.365583
 31
0.0
  0
LINE
  5
4C8
100
AcDbEntity
  8
1
  6
CONTINUOUS
 62
    52
100
AcDbLine
 10
428.742917
 20
-911.365583
 30
0.0
 11
578.742917
 21
-911.365583
 31
0.0
  0
LINE
  5
4C9
100
AcDbEntity
  8
1
  6
CONTINUOUS
 62
    52
100
AcDbLine
 10
443.742917
 20
-854.365583
 30
0.0
 11
443.742917
 21
-891.365583
 31
0.0
  0
LINE
  5
4CA
100
AcDbEntity
  8
1
  6
CONTINUOUS
 62
    52
100
AcDbLine
 10
397.742917
 20
-848.365583
 30
0.0
 11
427.742917
 21
-848.365583
 31
0.0
  0
LINE
  5
4CB
100
AcDbEntity
  8
1
  6
CONTINUOUS
 62
    52
100
AcDbLine
 10
427.742917
 20
-848.365583
 30
0.0
 11
578.742917
 21
-848.365583
 31
0.0
  0
LINE
  5
4CC
100
AcDbEntity
  8
1
  6
CONTINUOUS
 62
    52
100
AcDbLine
 10
397.742917
 20
-860.365583
 30
0.0
 11
397.742917
 21
-848.365583
 31
0.0
  0
LINE
  5
4CD
100
AcDbEntity
  8
1
  6
CONTINUOUS
 62
    52
100
AcDbLine
 10
397.742917
 20
-921.365583
 30
0.0
 11
397.742917
 21
-891.365583
 31
0.0
  0
LINE
  5
4CE
100
AcDbEntity
  8
1
  6
CONTINUOUS
 62
    52
100
AcDbLine
 10
397.742917
 20
-891.365583
 30
0.0
 11
397.742917
 21
-860.365583
 31
0.0
  0
TEXT
  5
4CF
100
AcDbEntity
  8
1
  6
CONTINUOUS
 62
     7
100
AcDbText
 10
401.650333
 20
-855.6575
 30
0.0
 40
2.5
  1
SIGN SHAPE
  7
MONOTXT
 72
     4
 11
412.7625
 21
-854.4075
 31
0.0
210
0.0
220
0.0
230
1.0
100
AcDbText
  0
TEXT
  5
4D0
100
AcDbEntity
  8
1
  6
CONTINUOUS
 62
     7
100
AcDbText
 10
404.279917
 20
-873.085333
 30
0.0
 40
2.5
  1
OCTAGON
  7
MONOTXT
 72
     4
 11
412.85275
 21
-871.835333
 31
0.0
210
0.0
220
0.0
230
1.0
100
AcDbText
  0
TEXT
  5
4D1
100
AcDbEntity
  8
1
  6
CONTINUOUS
 62
     7
100
AcDbText
 10
412.006333
 20
-877.585333
 30
0.0
 40
2.5
  1
 
  7
MONOTXT
 72
     4
 11
412.839667
 21
-876.335333
 31
0.0
210
0.0
220
0.0
230
1.0
100
AcDbText
  0
TEXT
  5
4D2
100
AcDbEntity
  8
1
  6
CONTINUOUS
 62
     7
100
AcDbText
 10
408.049583
 20
-882.085333
 30
0.0
 40
2.5
  1
(R1-1)
  7
MONOTXT
 72
     4
 11
412.842917
 21
-880.835333
 31
0.0
210
0.0
220
0.0
230
1.0
100
AcDbText
  0
TEXT
  5
4D3
100
AcDbEntity
  8
1
  6
CONTINUOUS
 62
     7
100
AcDbText
 10
400.705417
 20
-898.634583
 30
0.0
 40
2.5
  1
EQUILATERAL
  7
MONOTXT
 72
     4
 11
412.762417
 21
-897.384583
 31
0.0
210
0.0
220
0.0
230
1.0
100
AcDbText
  0
TEXT
  5
4D4
100
AcDbEntity
  8
1
  6
CONTINUOUS
 62
     7
100
AcDbText
 10
411.916083
 20
-903.134583
 30
0.0
 40
2.5
  1
 
  7
MONOTXT
 72
     4
 11
412.749417
 21
-901.884583
 31
0.0
210
0.0
220
0.0
230
1.0
100
AcDbText
  0
TEXT
  5
4D5
100
AcDbEntity
  8
1
  6
CONTINUOUS
 62
     7
100
AcDbText
 10
404.24875
 20
-907.634583
 30
0.0
 40
2.5
  1
TRIANGLE
  7
MONOTXT
 72
     4
 11
412.7625
 21
-906.384583
 31
0.0
210
0.0
220
0.0
230
1.0
100
AcDbText
  0
TEXT
  5
4D6
100
AcDbEntity
  8
1
  6
CONTINUOUS
 62
     7
100
AcDbText
 10
411.916083
 20
-912.134583
 30
0.0
 40
2.5
  1
 
  7
MONOTXT
 72
     4
 11
412.749417
 21
-910.884583
 31
0.0
210
0.0
220
0.0
230
1.0
100
AcDbText
  0
TEXT
  5
4D7
100
AcDbEntity
  8
1
  6
CONTINUOUS
 62
     7
100
AcDbText
 10
407.427833
 20
-916.634583
 30
0.0
 40
2.5
  1
(R1-2)
  7
MONOTXT
 72
     4
 11
412.752667
 21
-915.384583
 31
0.0
210
0.0
220
0.0
230
1.0
100
AcDbText
  0
TEXT
  5
4D8
100
AcDbEntity
  8
1
  6
CONTINUOUS
 62
     7
100
AcDbText
 10
440.123083
 20
-852.589417
 30
0.0
 40
2.5
  1
SIZE
  7
MONOTXT
 72
     4
 11
443.79425
 21
-851.339417
 31
0.0
210
0.0
220
0.0
230
1.0
100
AcDbText
  0
TEXT
  5
4D9
100
AcDbEntity
  8
1
  6
CONTINUOUS
 62
     7
100
AcDbText
 10
430.006167
 20
-858.635417
 30
0.0
 40
2.5
  1
HEIGHT
  7
MONOTXT
 72
     4
 11
436.21675
 21
-857.385417
 31
0.0
210
0.0
220
0.0
230
1.0
100
AcDbText
  0
TEXT
  5
4DA
100
AcDbEntity
  8
1
  6
CONTINUOUS
 62
     7
100
AcDbText
 10
445.95675
 20
-858.635417
 30
0.0
 40
2.5
  1
WIDTH
  7
MONOTXT
 72
     4
 11
451.2815
 21
-857.385417
 31
0.0
210
0.0
220
0.0
230
1.0
100
AcDbText
  0
TEXT
  5
4DB
100
AcDbEntity
  8
1
  6
CONTINUOUS
 62
     7
100
AcDbText
 10
460.21175
 20
-855.6575
 30
0.0
 40
2.5
  1
DIMENSION "A"
  7
MONOTXT
 72
     4
 11
473.823917
 21
-854.4075
 31
0.0
210
0.0
220
0.0
230
1.0
100
AcDbText
  0
TEXT
  5
4DC
100
AcDbEntity
  8
1
  6
CONTINUOUS
 62
     7
100
AcDbText
 10
433.204917
 20
-867.659167
 30
0.0
 40
2.5
  1
30"
  7
MONOTXT
 72
     4
 11
436.206917
 21
-866.409167
 31
0.0
210
0.0
220
0.0
230
1.0
100
AcDbText
  0
TEXT
  5
4DD
100
AcDbEntity
  8
1
  6
CONTINUOUS
 62
     7
100
AcDbText
 10
448.26975
 20
-867.659167
 30
0.0
 40
2.5
  1
30"
  7
MONOTXT
 72
     4
 11
451.27175
 21
-866.409167
 31
0.0
210
0.0
220
0.0
230
1.0
100
AcDbText
  0
TEXT
  5
4DE
100
AcDbEntity
  8
1
  6
CONTINUOUS
 62
     7
100
AcDbText
 10
433.264
 20
-877.585333
 30
0.0
 40
2.5
  1
36"
  7
MONOTXT
 72
     4
 11
436.206833
 21
-876.335333
 31
0.0
210
0.0
220
0.0
230
1.0
100
AcDbText
  0
TEXT
  5
4DF
100
AcDbEntity
  8
1
  6
CONTINUOUS
 62
     7
100
AcDbText
 10
448.328833
 20
-877.585333
 30
0.0
 40
2.5
  1
36"
  7
MONOTXT
 72
     4
 11
451.271667
 21
-876.335333
 31
0.0
210
0.0
220
0.0
230
1.0
100
AcDbText
  0
TEXT
  5
4E0
100
AcDbEntity
  8
1
  6
CONTINUOUS
 62
     7
100
AcDbText
 10
433.326333
 20
-887.78225
 30
0.0
 40
2.5
  1
48"
  7
MONOTXT
 72
     4
 11
436.387333
 21
-886.53225
 31
0.0
210
0.0
220
0.0
230
1.0
100
AcDbText
  0
TEXT
  5
4E1
100
AcDbEntity
  8
1
  6
CONTINUOUS
 62
     7
100
AcDbText
 10
448.21075
 20
-887.78225
 30
0.0
 40
2.5
  1
48"
  7
MONOTXT
 72
     4
 11
451.27175
 21
-886.53225
 31
0.0
210
0.0
220
0.0
230
1.0
100
AcDbText
  0
TEXT
  5
4E2
100
AcDbEntity
  8
1
  6
CONTINUOUS
 62
     7
100
AcDbText
 10
429.945917
 20
-897.708417
 30
0.0
 40
2.5
  1
36" ALL SIDES
  7
MONOTXT
 72
     4
 11
443.79425
 21
-896.458417
 31
0.0
210
0.0
220
0.0
230
1.0
100
AcDbText
  0
TEXT
  5
4E3
100
AcDbEntity
  8
1
  6
CONTINUOUS
 62
     7
100
AcDbText
 10
429.918
 20
-907.454083
 30
0.0
 40
2.5
  1
48" ALL SIDES
  7
MONOTXT
 72
     4
 11
443.8845
 21
-906.204083
 31
0.0
210
0.0
220
0.0
230
1.0
100
AcDbText
  0
TEXT
  5
4E4
100
AcDbEntity
  8
1
  6
CONTINUOUS
 62
     7
100
AcDbText
 10
429.945917
 20
-917.651
 30
0.0
 40
2.5
  1
60" ALL SIDES
  7
MONOTXT
 72
     4
 11
443.79425
 21
-916.401
 31
0.0
210
0.0
220
0.0
230
1.0
100
AcDbText
  0
TEXT
  5
4E5
100
AcDbEntity
  8
1
  6
CONTINUOUS
 62
     7
100
AcDbText
 10
471.173
 20
-867.659167
 30
0.0
 40
2.5
  1
12"
  7
MONOTXT
 72
     4
 11
473.6435
 21
-866.409167
 31
0.0
210
0.0
220
0.0
230
1.0
100
AcDbText
  0
TEXT
  5
4E6
100
AcDbEntity
  8
1
  6
CONTINUOUS
 62
     7
100
AcDbText
 10
471.322333
 20
-877.585333
 30
0.0
 40
2.5
  1
16"
  7
MONOTXT
 72
     4
 11
473.733667
 21
-876.335333
 31
0.0
210
0.0
220
0.0
230
1.0
100
AcDbText
  0
TEXT
  5
4E7
100
AcDbEntity
  8
1
  6
CONTINUOUS
 62
     7
100
AcDbText
 10
471.26325
 20
-887.60175
 30
0.0
 40
2.5
  1
15"
  7
MONOTXT
 72
     4
 11
473.73375
 21
-886.35175
 31
0.0
210
0.0
220
0.0
230
1.0
100
AcDbText
  0
TEXT
  5
4E8
100
AcDbEntity
  8
1
  6
CONTINUOUS
 62
     7
100
AcDbText
 10
471.971917
 20
-897.618167
 30
0.0
 40
2.5
  1
2"
  7
MONOTXT
 72
     4
 11
473.73375
 21
-896.368167
 31
0.0
210
0.0
220
0.0
230
1.0
100
AcDbText
  0
TEXT
  5
4E9
100
AcDbEntity
  8
1
  6
CONTINUOUS
 62
     7
100
AcDbText
 10
471.971917
 20
-907.634583
 30
0.0
 40
2.5
  1
3"
  7
MONOTXT
 72
     4
 11
473.73375
 21
-906.384583
 31
0.0
210
0.0
220
0.0
230
1.0
100
AcDbText
  0
TEXT
  5
4EA
100
AcDbEntity
  8
1
  6
CONTINUOUS
 62
     7
100
AcDbText
 10
472.031
 20
-917.74125
 30
0.0
 40
2.5
  1
6"
  7
MONOTXT
 72
     4
 11
473.73375
 21
-916.49125
 31
0.0
210
0.0
220
0.0
230
1.0
100
AcDbText
  0
TEXT
  5
4EB
100
AcDbEntity
  8
1
  6
CONTINUOUS
 62
     7
100
AcDbText
 10
490.024083
 20
-855.616917
 30
0.0
 40
2.5
  1
DIMENSION "B"
  7
MONOTXT
 72
     4
 11
503.695333
 21
-854.366917
 31
0.0
210
0.0
220
0.0
230
1.0
100
AcDbText
  0
TEXT
  5
4EC
100
AcDbEntity
  8
1
  6
CONTINUOUS
 62
     7
100
AcDbText
 10
520.000667
 20
-855.616917
 30
0.0
 40
2.5
  1
DIMENSION "C"
  7
MONOTXT
 72
     4
 11
533.731
 21
-854.366917
 31
0.0
210
0.0
220
0.0
230
1.0
100
AcDbText
  0
TEXT
  5
4ED
100
AcDbEntity
  8
1
  6
CONTINUOUS
 62
     7
100
AcDbText
 10
550.0955
 20
-855.616917
 30
0.0
 40
2.5
  1
DIMENSION "D"
  7
MONOTXT
 72
     4
 11
563.76675
 21
-854.366917
 31
0.0
210
0.0
220
0.0
230
1.0
100
AcDbText
  0
TEXT
  5
4EE
100
AcDbEntity
  8
1
  6
CONTINUOUS
 62
     7
100
AcDbText
 10
501.3155
 20
-867.689583
 30
0.0
 40
2.5
  1
15"
  7
MONOTXT
 72
     4
 11
503.786
 21
-866.439583
 31
0.0
210
0.0
220
0.0
230
1.0
100
AcDbText
  0
TEXT
  5
4EF
100
AcDbEntity
  8
1
  6
CONTINUOUS
 62
     7
100
AcDbText
 10
501.3155
 20
-877.58375
 30
0.0
 40
2.5
  1
18"
  7
MONOTXT
 72
     4
 11
503.786
 21
-876.33375
 31
0.0
210
0.0
220
0.0
230
1.0
100
AcDbText
  0
TEXT
  5
4F0
100
AcDbEntity
  8
1
  6
CONTINUOUS
 62
     7
100
AcDbText
 10
501.3155
 20
-887.659417
 30
0.0
 40
2.5
  1
15"
  7
MONOTXT
 72
     4
 11
503.786
 21
-886.409417
 31
0.0
210
0.0
220
0.0
230
1.0
100
AcDbText
  0
TEXT
  5
4F1
100
AcDbEntity
  8
1
  6
CONTINUOUS
 62
     7
100
AcDbText
 10
501.58775
 20
-897.644333
 30
0.0
 40
2.5
  1
18"
  7
MONOTXT
 72
     4
 11
504.05825
 21
-896.394333
 31
0.0
210
0.0
220
0.0
230
1.0
100
AcDbText
  0
TEXT
  5
4F2
100
AcDbEntity
  8
1
  6
CONTINUOUS
 62
     7
100
AcDbText
 10
501.3155
 20
-907.62925
 30
0.0
 40
2.5
  1
21"
  7
MONOTXT
 72
     4
 11
503.786
 21
-906.37925
 31
0.0
210
0.0
220
0.0
230
1.0
100
AcDbText
  0
TEXT
  5
4F3
100
AcDbEntity
  8
1
  6
CONTINUOUS
 62
     7
100
AcDbText
 10
500.725
 20
-917.614167
 30
0.0
 40
2.5
  1
24"
  7
MONOTXT
 72
     4
 11
503.786
 21
-916.364167
 31
0.0
210
0.0
220
0.0
230
1.0
100
AcDbText
  0
TEXT
  5
4F4
100
AcDbEntity
  8
1
  6
CONTINUOUS
 62
     7
100
AcDbText
 10
530.76075
 20
-907.62925
 30
0.0
 40
2.5
  1
24"
  7
MONOTXT
 72
     4
 11
533.82175
 21
-906.37925
 31
0.0
210
0.0
220
0.0
230
1.0
100
AcDbText
  0
TEXT
  5
4F5
100
AcDbEntity
  8
1
  6
CONTINUOUS
 62
     7
100
AcDbText
 10
530.8515
 20
-897.825917
 30
0.0
 40
2.5
  1
24"
  7
MONOTXT
 72
     4
 11
533.9125
 21
-896.575917
 31
0.0
210
0.0
220
0.0
230
1.0
100
AcDbText
  0
TEXT
  5
4F6
100
AcDbEntity
  8
1
  6
CONTINUOUS
 62
     7
100
AcDbText
 10
530.729
 20
-917.614167
 30
0.0
 40
2.5
  1
30"
  7
MONOTXT
 72
     4
 11
533.731
 21
-916.364167
 31
0.0
210
0.0
220
0.0
230
1.0
100
AcDbText
  0
TEXT
  5
4F7
100
AcDbEntity
  8
1
  6
CONTINUOUS
 62
     7
100
AcDbText
 10
562.064
 20
-917.614167
 30
0.0
 40
2.5
  1
9"
  7
MONOTXT
 72
     4
 11
563.76675
 21
-916.364167
 31
0.0
210
0.0
220
0.0
230
1.0
100
AcDbText
  0
TEXT
  5
4F8
100
AcDbEntity
  8
1
  6
CONTINUOUS
 62
     7
100
AcDbText
 10
560.02875
 20
-907.62925
 30
0.0
 40
2.5
  1
7 1/2 "
  7
MONOTXT
 72
     4
 11
563.857417
 21
-906.37925
 31
0.0
210
0.0
220
0.0
230
1.0
100
AcDbText
  0
LINE
  5
4F9
100
AcDbEntity
  8
1
  6
CONTINUOUS
 62
     7
100
AcDbLine
 10
527.231
 20
-876.33375
 30
0.0
 11
540.231
 21
-876.33375
 31
0.0
  0
LINE
  5
4FA
100
AcDbEntity
  8
1
  6
CONTINUOUS
 62
     7
100
AcDbLine
 10
527.231
 20
-866.348833
 30
0.0
 11
540.231
 21
-866.348833
 31
0.0
  0
LINE
  5
4FB
100
AcDbEntity
  8
1
  6
CONTINUOUS
 62
     7
100
AcDbLine
 10
527.231
 20
-886.318667
 30
0.0
 11
540.231
 21
-886.318667
 31
0.0
  0
LINE
  5
4FC
100
AcDbEntity
  8
1
  6
CONTINUOUS
 62
     7
100
AcDbLine
 10
557.26675
 20
-866.348833
 30
0.0
 11
570.26675
 21
-866.348833
 31
0.0
  0
LINE
  5
4FD
100
AcDbEntity
  8
1
  6
CONTINUOUS
 62
     7
100
AcDbLine
 10
557.26675
 20
-876.33375
 30
0.0
 11
570.26675
 21
-876.33375
 31
0.0
  0
LINE
  5
4FE
100
AcDbEntity
  8
1
  6
CONTINUOUS
 62
     7
100
AcDbLine
 10
557.176
 20
-886.409417
 30
0.0
 11
570.176
 21
-886.409417
 31
0.0
  0
LINE
  5
4FF
100
AcDbEntity
  8
1
  6
CONTINUOUS
 62
     7
100
AcDbLine
 10
557.26675
 20
-896.394333
 30
0.0
 11
570.26675
 21
-896.394333
 31
0.0
  0
TEXT
  5
500
100
AcDbEntity
  8
1
  6
CONTINUOUS
 62
     7
100
AcDbText
 10
100.67025
 20
-873.803
 30
0.0
 40
2.0
  1
GENERAL NOTES
  7
MONOTXT
 72
     4
 11
113.00875
 21
-872.803
 31
0.0
210
0.0
220
0.0
230
1.0
100
AcDbText
  0
LINE
  5
501
100
AcDbEntity
  8
1
  6
CONTINUOUS
 62
     7
100
AcDbLine
 10
98.7935
 20
-874.637333
 30
0.0
 11
127.280917
 21
-874.637333
 31
0.0
  0
TEXT
  5
502
100
AcDbEntity
  8
1
  6
CONTINUOUS
 62
     7
100
AcDbText
 10
39.059583
 20
-663.51575
 30
0.0
 40
2.0
  1
1
  7
MONOTXT
 72
     4
 11
39.29575
 21
-662.51575
 31
0.0
210
0.0
220
0.0
230
1.0
100
AcDbText
  0
TEXT
  5
503
100
AcDbEntity
  8
1
  6
CONTINUOUS
 62
     7
100
AcDbText
 10
38.634417
 20
-709.569
 30
0.0
 40
2.0
  1
2
  7
MONOTXT
 72
     4
 11
39.303667
 21
-708.569
 31
0.0
210
0.0
220
0.0
230
1.0
100
AcDbText
  0
TEXT
  5
504
100
AcDbEntity
  8
1
  6
CONTINUOUS
 62
     7
100
AcDbText
 10
89.717583
 20
-674.5285
 30
0.0
 40
2.0
  1
A
  7
MONOTXT
 72
     4
 11
90.48925
 21
-673.5285
 31
0.0
210
0.0
220
0.0
230
1.0
100
AcDbText
  0
TEXT
  5
505
100
AcDbEntity
  8
1
  6
CONTINUOUS
 62
     7
100
AcDbText
 10
89.8605
 20
-697.698167
 30
0.0
 40
2.0
  1
A
  7
MONOTXT
 72
     4
 11
90.632167
 21
-696.698167
 31
0.0
210
0.0
220
0.0
230
1.0
100
AcDbText
  0
TEXT
  5
506
100
AcDbEntity
  8
1
  6
CONTINUOUS
 62
     7
100
AcDbText
 10
34.488167
 20
-727.875917
 30
0.0
 40
2.0
  1
B
  7
MONOTXT
 72
     4
 11
35.157417
 21
-726.875917
 31
0.0
210
0.0
220
0.0
230
1.0
100
AcDbText
  0
TEXT
  5
507
100
AcDbEntity
  8
1
  6
CONTINUOUS
 62
     7
100
AcDbText
 10
0.549333
 20
-718.43525
 30
0.0
 40
2.0
  1
30" x 30"
  7
MONOTXT
 11
0.549333
 21
-716.43525
 31
0.0
210
0.0
220
0.0
230
1.0
100
AcDbText
 73
     3
  0
TEXT
  5
508
100
AcDbEntity
  8
1
  6
CONTINUOUS
 62
     7
100
AcDbText
 10
0.549333
 20
-722.43525
 30
0.0
 40
2.0
  1
36" x 36"
  7
MONOTXT
 11
0.549333
 21
-720.43525
 31
0.0
210
0.0
220
0.0
230
1.0
100
AcDbText
 73
     3
  0
TEXT
  5
509
100
AcDbEntity
  8
1
  6
CONTINUOUS
 62
     7
100
AcDbText
 10
39.223417
 20
-752.409083
 30
0.0
 40
2.0
  1
1
  7
MONOTXT
 72
     4
 11
39.459583
 21
-751.409083
 31
0.0
210
0.0
220
0.0
230
1.0
100
AcDbText
  0
TEXT
  5
50A
100
AcDbEntity
  8
1
  6
CONTINUOUS
 62
     7
100
AcDbText
 10
38.630417
 20
-798.414667
 30
0.0
 40
2.0
  1
2
  7
MONOTXT
 72
     4
 11
39.299667
 21
-797.414667
 31
0.0
210
0.0
220
0.0
230
1.0
100
AcDbText
  0
TEXT
  5
50B
100
AcDbEntity
  8
1
  6
CONTINUOUS
 62
     7
100
AcDbText
 10
71.18225
 20
-748.043583
 30
0.0
 40
2.0
  1
SIGN FACE
  7
MONOTXT
 72
     4
 11
79.079833
 21
-747.043583
 31
0.0
210
0.0
220
0.0
230
1.0
100
AcDbText
  0
TEXT
  5
50C
100
AcDbEntity
  8
1
  6
CONTINUOUS
 62
     7
100
AcDbText
 10
103.736083
 20
-748.043583
 30
0.0
 40
2.0
  1
GEN. NOTE 2.5.2
  7
MONOTXT
 72
     4
 11
116.342333
 21
-747.043583
 31
0.0
210
0.0
220
0.0
230
1.0
100
AcDbText
  0
TEXT
  5
50D
100
AcDbEntity
  8
1
  6
CONTINUOUS
 62
     7
100
AcDbText
 10
106.698667
 20
-752.409083
 30
0.0
 40
2.0
  1
1
  7
MONOTXT
 72
     4
 11
106.934833
 21
-751.409083
 31
0.0
210
0.0
220
0.0
230
1.0
100
AcDbText
  0
TEXT
  5
50E
100
AcDbEntity
  8
1
  6
CONTINUOUS
 62
     7
100
AcDbText
 10
106.2735
 20
-798.414667
 30
0.0
 40
2.0
  1
2
  7
MONOTXT
 72
     4
 11
106.94275
 21
-797.414667
 31
0.0
210
0.0
220
0.0
230
1.0
100
AcDbText
  0
TEXT
  5
50F
100
AcDbEntity
  8
1
  6
CONTINUOUS
 62
     7
100
AcDbText
 10
147.298417
 20
-740.82375
 30
0.0
 40
2.0
  1
GEN. NOTE 2.5.1
  7
MONOTXT
 72
     4
 11
159.471583
 21
-739.82375
 31
0.0
210
0.0
220
0.0
230
1.0
100
AcDbText
  0
TEXT
  5
510
100
AcDbEntity
  8
1
  6
CONTINUOUS
 62
     7
100
AcDbText
 10
162.29025
 20
-718.492583
 30
0.0
 40
2.0
  1
48" x 48"
  7
MONOTXT
 72
     4
 11
170.046167
 21
-717.492583
 31
0.0
210
0.0
220
0.0
230
1.0
100
AcDbText
  0
TEXT
  5
511
100
AcDbEntity
  8
1
  6
CONTINUOUS
 62
     7
100
AcDbText
 10
48.876083
 20
-822.365
 30
0.0
 40
2.0
  1
1,2
  7
MONOTXT
 72
     4
 11
50.61625
 21
-821.365
 31
0.0
210
0.0
220
0.0
230
1.0
100
AcDbText
  0
TEXT
  5
512
100
AcDbEntity
  8
1
  6
CONTINUOUS
 62
     7
100
AcDbText
 10
58.350917
 20
-845.064417
 30
0.0
 40
2.0
  1
SIGN FACE
  7
MONOTXT
 72
     4
 11
66.2485
 21
-844.064417
 31
0.0
210
0.0
220
0.0
230
1.0
100
AcDbText
  0
TEXT
  5
513
100
AcDbEntity
  8
1
  6
CONTINUOUS
 62
     7
100
AcDbText
 10
199.381417
 20
-645.781667
 30
0.0
 40
2.0
  1
B
  7
MONOTXT
 72
     4
 11
200.050667
 21
-644.781667
 31
0.0
210
0.0
220
0.0
230
1.0
100
AcDbText
  0
TEXT
  5
514
100
AcDbEntity
  8
1
  6
CONTINUOUS
 62
     7
100
AcDbText
 10
213.865833
 20
-645.781667
 30
0.0
 40
2.0
  1
B
  7
MONOTXT
 72
     4
 11
214.535083
 21
-644.781667
 31
0.0
210
0.0
220
0.0
230
1.0
100
AcDbText
  0
TEXT
  5
515
100
AcDbEntity
  8
1
  6
CONTINUOUS
 62
     7
100
AcDbText
 10
197.657083
 20
-671.425083
 30
0.0
 40
2.0
  1
2
  7
MONOTXT
 72
     4
 11
198.326333
 21
-670.425083
 31
0.0
210
0.0
220
0.0
230
1.0
100
AcDbText
  0
TEXT
  5
516
100
AcDbEntity
  8
1
  6
CONTINUOUS
 62
     7
100
AcDbText
 10
215.935
 20
-671.770083
 30
0.0
 40
2.0
  1
3
  7
MONOTXT
 72
     4
 11
216.60425
 21
-670.770083
 31
0.0
210
0.0
220
0.0
230
1.0
100
AcDbText
  0
TEXT
  5
517
100
AcDbEntity
  8
1
  6
CONTINUOUS
 62
     7
100
AcDbText
 10
193.91075
 20
-703.968167
 30
0.0
 40
2.0
  1
6
  7
MONOTXT
 72
     4
 11
194.53275
 21
-702.968167
 31
0.0
210
0.0
220
0.0
230
1.0
100
AcDbText
  0
TEXT
  5
518
100
AcDbEntity
  8
1
  6
CONTINUOUS
 62
     7
100
AcDbText
 10
219.712833
 20
-703.968167
 30
0.0
 40
2.0
  1
7
  7
MONOTXT
 72
     4
 11
220.39
 21
-702.968167
 31
0.0
210
0.0
220
0.0
230
1.0
100
AcDbText
  0
TEXT
  5
519
100
AcDbEntity
  8
1
  6
CONTINUOUS
 62
     7
100
AcDbText
 10
246.87075
 20
-678.784667
 30
0.0
 40
2.0
  1
A
  7
MONOTXT
 72
     4
 11
247.642417
 21
-677.784667
 31
0.0
210
0.0
220
0.0
230
1.0
100
AcDbText
  0
TEXT
  5
51A
100
AcDbEntity
  8
1
  6
CONTINUOUS
 62
     7
100
AcDbText
 10
246.75575
 20
-694.53875
 30
0.0
 40
2.0
  1
A
  7
MONOTXT
 72
     4
 11
247.527417
 21
-693.53875
 31
0.0
210
0.0
220
0.0
230
1.0
100
AcDbText
  0
TEXT
  5
51B
100
AcDbEntity
  8
1
  6
CONTINUOUS
 62
     7
100
AcDbText
 10
183.19875
 20
-759.462083
 30
0.0
 40
2.0
  1
1
  7
MONOTXT
 72
     4
 11
183.434917
 21
-758.462083
 31
0.0
210
0.0
220
0.0
230
1.0
100
AcDbText
  0
TEXT
  5
51C
100
AcDbEntity
  8
1
  6
CONTINUOUS
 62
     7
100
AcDbText
 10
194.0085
 20
-766.144417
 30
0.0
 40
2.0
  1
2
  7
MONOTXT
 72
     4
 11
194.67775
 21
-765.144417
 31
0.0
210
0.0
220
0.0
230
1.0
100
AcDbText
  0
TEXT
  5
51D
100
AcDbEntity
  8
1
  6
CONTINUOUS
 62
     7
100
AcDbText
 10
219.616
 20
-766.043167
 30
0.0
 40
2.0
  1
3
  7
MONOTXT
 72
     4
 11
220.28525
 21
-765.043167
 31
0.0
210
0.0
220
0.0
230
1.0
100
AcDbText
  0
TEXT
  5
51E
100
AcDbEntity
  8
1
  6
CONTINUOUS
 62
     7
100
AcDbText
 10
231.2085
 20
-759.563333
 30
0.0
 40
2.0
  1
4
  7
MONOTXT
 72
     4
 11
231.925
 21
-758.563333
 31
0.0
210
0.0
220
0.0
230
1.0
100
AcDbText
  0
TEXT
  5
51F
100
AcDbEntity
  8
1
  6
CONTINUOUS
 62
     7
100
AcDbText
 10
182.773583
 20
-787.811583
 30
0.0
 40
2.0
  1
5
  7
MONOTXT
 72
     4
 11
183.442833
 21
-786.811583
 31
0.0
210
0.0
220
0.0
230
1.0
100
AcDbText
  0
TEXT
  5
520
100
AcDbEntity
  8
1
  6
CONTINUOUS
 62
     7
100
AcDbText
 10
193.853333
 20
-794.19025
 30
0.0
 40
2.0
  1
6
  7
MONOTXT
 72
     4
 11
194.475333
 21
-793.19025
 31
0.0
210
0.0
220
0.0
230
1.0
100
AcDbText
  0
TEXT
  5
521
100
AcDbEntity
  8
1
  6
CONTINUOUS
 62
     7
100
AcDbText
 10
219.499
 20
-794.19025
 30
0.0
 40
2.0
  1
7
  7
MONOTXT
 72
     4
 11
220.176167
 21
-793.19025
 31
0.0
210
0.0
220
0.0
230
1.0
100
AcDbText
  0
TEXT
  5
522
100
AcDbEntity
  8
1
  6
CONTINUOUS
 62
     7
100
AcDbText
 10
231.356917
 20
-787.912833
 30
0.0
 40
2.0
  1
8
  7
MONOTXT
 72
     4
 11
232.026167
 21
-786.912833
 31
0.0
210
0.0
220
0.0
230
1.0
100
AcDbText
  0
TEXT
  5
523
100
AcDbEntity
  8
1
  6
CONTINUOUS
 62
     7
100
AcDbText
 10
228.379667
 20
-748.021
 30
0.0
 40
2.0
  1
SIGN FACE
  7
MONOTXT
 72
     4
 11
236.27725
 21
-747.021
 31
0.0
210
0.0
220
0.0
230
1.0
100
AcDbText
  0
TEXT
  5
524
100
AcDbEntity
  8
1
  6
CONTINUOUS
 62
     7
100
AcDbText
 10
246.156583
 20
-761.79075
 30
0.0
 40
2.0
  1
2,3
  7
MONOTXT
 72
     4
 11
248.321917
 21
-760.79075
 31
0.0
210
0.0
220
0.0
230
1.0
100
AcDbText
  0
TEXT
  5
525
100
AcDbEntity
  8
1
  6
CONTINUOUS
 62
     7
100
AcDbText
 10
267.283667
 20
-763.512
 30
0.0
 40
2.0
  1
1,4
  7
MONOTXT
 72
     4
 11
269.071
 21
-762.512
 31
0.0
210
0.0
220
0.0
230
1.0
100
AcDbText
  0
TEXT
  5
526
100
AcDbEntity
  8
1
  6
CONTINUOUS
 62
     7
100
AcDbText
 10
246.795333
 20
-792.57025
 30
0.0
 40
2.0
  1
6,7
  7
MONOTXT
 72
     4
 11
248.921333
 21
-791.57025
 31
0.0
210
0.0
220
0.0
230
1.0
100
AcDbText
  0
TEXT
  5
527
100
AcDbEntity
  8
1
  6
CONTINUOUS
 62
     7
100
AcDbText
 10
267.108167
 20
-794.79775
 30
0.0
 40
2.0
  1
5,8
  7
MONOTXT
 72
     4
 11
269.2735
 21
-793.79775
 31
0.0
210
0.0
220
0.0
230
1.0
100
AcDbText
  0
TEXT
  5
528
100
AcDbEntity
  8
1
  6
CONTINUOUS
 62
     7
100
AcDbText
 10
189.3315
 20
-820.488167
 30
0.0
 40
2.0
  1
1,5
  7
MONOTXT
 72
     4
 11
191.071667
 21
-819.488167
 31
0.0
210
0.0
220
0.0
230
1.0
100
AcDbText
  0
TEXT
  5
529
100
AcDbEntity
  8
1
  6
CONTINUOUS
 62
     7
100
AcDbText
 10
221.7625
 20
-820.488167
 30
0.0
 40
2.0
  1
4,8
  7
MONOTXT
 72
     4
 11
223.975
 21
-819.488167
 31
0.0
210
0.0
220
0.0
230
1.0
100
AcDbText
  0
TEXT
  5
52A
100
AcDbEntity
  8
1
  6
CONTINUOUS
 62
     7
100
AcDbText
 10
192.026917
 20
-835.860167
 30
0.0
 40
2.0
  1
2,6
  7
MONOTXT
 72
     4
 11
194.145
 21
-834.860167
 31
0.0
210
0.0
220
0.0
230
1.0
100
AcDbText
  0
TEXT
  5
52B
100
AcDbEntity
  8
1
  6
CONTINUOUS
 62
     7
100
AcDbText
 10
217.997417
 20
-835.860167
 30
0.0
 40
2.0
  1
3,7
  7
MONOTXT
 72
     4
 11
220.170583
 21
-834.860167
 31
0.0
210
0.0
220
0.0
230
1.0
100
AcDbText
  0
TEXT
  5
52C
100
AcDbEntity
  8
1
  6
CONTINUOUS
 62
     7
100
AcDbText
 10
203.18125
 20
-845.023083
 30
0.0
 40
2.0
  1
SIGN FACE
  7
MONOTXT
 72
     4
 11
211.078833
 21
-844.023083
 31
0.0
210
0.0
220
0.0
230
1.0
100
AcDbText
  0
TEXT
  5
52D
100
AcDbEntity
  8
1
  6
CONTINUOUS
 62
     7
100
AcDbText
 10
156.602917
 20
-848.760667
 30
0.0
 40
2.0
  1
GEN. NOTE 2.4.3
  7
MONOTXT
 72
     4
 11
169.256417
 21
-847.760667
 31
0.0
210
0.0
220
0.0
230
1.0
100
AcDbText
  0
LINE
  5
52E
100
AcDbEntity
  8
1
  6
CONTINUOUS
 62
     7
100
AcDbLine
 10
177.578833
 20
-833.550917
 30
0.0
 11
177.578833
 21
-846.494667
 31
0.0
  0
LINE
  5
52F
100
AcDbEntity
  8
1
  6
CONTINUOUS
 62
     7
100
AcDbLine
 10
177.578833
 20
-849.38825
 30
0.0
 11
177.578833
 21
-856.550917
 31
0.0
  0
TEXT
  5
530
100
AcDbEntity
  8
1
  6
CONTINUOUS
 62
     7
100
AcDbText
 10
181.970917
 20
-858.164667
 30
0.0
 40
2.0
  1
"e"
  7
MONOTXT
 72
     4
 11
184.07325
 21
-857.164667
 31
0.0
210
0.0
220
0.0
230
1.0
100
AcDbText
  0
TEXT
  5
531
100
AcDbEntity
  8
1
  6
CONTINUOUS
 62
     7
100
AcDbText
 10
199.562833
 20
-856.115
 30
0.0
 40
2.0
  1
"f"
  7
MONOTXT
 72
     4
 11
201.429
 21
-855.115
 31
0.0
210
0.0
220
0.0
230
1.0
100
AcDbText
  0
TEXT
  5
532
100
AcDbEntity
  8
1
  6
CONTINUOUS
 62
     7
100
AcDbText
 10
211.615333
 20
-856.356167
 30
0.0
 40
2.0
  1
"f"
  7
MONOTXT
 72
     4
 11
213.4815
 21
-855.356167
 31
0.0
210
0.0
220
0.0
230
1.0
100
AcDbText
  0
TEXT
  5
533
100
AcDbEntity
  8
1
  6
CONTINUOUS
 62
     7
100
AcDbText
 10
228.975917
 20
-857.98375
 30
0.0
 40
2.0
  1
"e"
  7
MONOTXT
 72
     4
 11
231.07825
 21
-856.98375
 31
0.0
210
0.0
220
0.0
230
1.0
100
AcDbText
  0
TEXT
  5
534
100
AcDbEntity
  8
1
  6
CONTINUOUS
 62
     7
100
AcDbText
 10
243.854
 20
-842.10475
 30
0.0
 40
2.0
  1
"e"   3" MINIMUM
  7
MONOTXT
 11
243.854
 21
-840.10475
 31
0.0
210
0.0
220
0.0
230
1.0
100
AcDbText
 73
     3
  0
TEXT
  5
535
100
AcDbEntity
  8
1
  6
CONTINUOUS
 62
     7
100
AcDbText
 10
243.854
 20
-846.10475
 30
0.0
 40
2.0
  1
"f"   SEE GENERAL NOTE 2.4.4
  7
MONOTXT
 11
243.854
 21
-844.10475
 31
0.0
210
0.0
220
0.0
230
1.0
100
AcDbText
 73
     3
  0
TEXT
  5
536
100
AcDbEntity
  8
1
  6
CONTINUOUS
 62
     7
100
AcDbText
 10
326.137333
 20
-650.713417
 30
0.0
 40
2.0
  1
B
  7
MONOTXT
 72
     4
 11
326.806583
 21
-649.713417
 31
0.0
210
0.0
220
0.0
230
1.0
100
AcDbText
  0
TEXT
  5
537
100
AcDbEntity
  8
1
  6
CONTINUOUS
 62
     7
100
AcDbText
 10
335.238083
 20
-663.326
 30
0.0
 40
2.0
  1
1
  7
MONOTXT
 72
     4
 11
335.47425
 21
-662.326
 31
0.0
210
0.0
220
0.0
230
1.0
100
AcDbText
  0
TEXT
  5
538
100
AcDbEntity
  8
1
  6
CONTINUOUS
 62
     7
100
AcDbText
 10
335.39125
 20
-693.873917
 30
0.0
 40
2.0
  1
2
  7
MONOTXT
 72
     4
 11
336.0605
 21
-692.873917
 31
0.0
210
0.0
220
0.0
230
1.0
100
AcDbText
  0
TEXT
  5
539
100
AcDbEntity
  8
1
  6
CONTINUOUS
 62
     7
100
AcDbText
 10
382.715333
 20
-659.738917
 30
0.0
 40
2.0
  1
A
  7
MONOTXT
 72
     4
 11
383.487
 21
-658.738917
 31
0.0
210
0.0
220
0.0
230
1.0
100
AcDbText
  0
TEXT
  5
53A
100
AcDbEntity
  8
1
  6
CONTINUOUS
 62
     7
100
AcDbText
 10
381.960667
 20
-678.137083
 30
0.0
 40
2.0
  1
C
  7
MONOTXT
 72
     4
 11
382.677167
 21
-677.137083
 31
0.0
210
0.0
220
0.0
230
1.0
100
AcDbText
  0
TEXT
  5
53B
100
AcDbEntity
  8
1
  6
CONTINUOUS
 62
     7
100
AcDbText
 10
306.242667
 20
-708.916417
 30
0.0
 40
2.0
  1
36" ALL SIDES
  7
MONOTXT
 72
     4
 11
317.321333
 21
-707.916417
 31
0.0
210
0.0
220
0.0
230
1.0
100
AcDbText
  0
TEXT
  5
53C
100
AcDbEntity
  8
1
  6
CONTINUOUS
 62
     7
100
AcDbText
 10
337.011
 20
-733.60475
 30
0.0
 40
2.0
  1
1
  7
MONOTXT
 72
     4
 11
337.247167
 21
-732.60475
 31
0.0
210
0.0
220
0.0
230
1.0
100
AcDbText
  0
TEXT
  5
53D
100
AcDbEntity
  8
1
  6
CONTINUOUS
 62
     7
100
AcDbText
 10
336.7375
 20
-764.405167
 30
0.0
 40
2.0
  1
2
  7
MONOTXT
 72
     4
 11
337.40675
 21
-763.405167
 31
0.0
210
0.0
220
0.0
230
1.0
100
AcDbText
  0
TEXT
  5
53E
100
AcDbEntity
  8
1
  6
CONTINUOUS
 62
     7
100
AcDbText
 10
362.726417
 20
-751.963583
 30
0.0
 40
2.0
  1
SIGN FACE
  7
MONOTXT
 72
     4
 11
370.624
 21
-750.963583
 31
0.0
210
0.0
220
0.0
230
1.0
100
AcDbText
  0
TEXT
  5
53F
100
AcDbEntity
  8
1
  6
CONTINUOUS
 62
     7
100
AcDbText
 10
395.026917
 20
-729.356417
 30
0.0
 40
2.0
  1
GEN. NOTE 2.5.2
  7
MONOTXT
 72
     4
 11
407.633167
 21
-728.356417
 31
0.0
210
0.0
220
0.0
230
1.0
100
AcDbText
  0
TEXT
  5
540
100
AcDbEntity
  8
1
  6
CONTINUOUS
 62
     7
100
AcDbText
 10
398.59175
 20
-733.908167
 30
0.0
 40
2.0
  1
1
  7
MONOTXT
 72
     4
 11
398.827917
 21
-732.908167
 31
0.0
210
0.0
220
0.0
230
1.0
100
AcDbText
  0
TEXT
  5
541
100
AcDbEntity
  8
1
  6
CONTINUOUS
 62
     7
100
AcDbText
 10
398.318333
 20
-764.405167
 30
0.0
 40
2.0
  1
2
  7
MONOTXT
 72
     4
 11
398.987583
 21
-763.405167
 31
0.0
210
0.0
220
0.0
230
1.0
100
AcDbText
  0
TEXT
  5
542
100
AcDbEntity
  8
1
  6
CONTINUOUS
 62
     7
100
AcDbText
 10
340.823667
 20
-795.66075
 30
0.0
 40
2.0
  1
1,2
  7
MONOTXT
 72
     4
 11
342.563833
 21
-794.66075
 31
0.0
210
0.0
220
0.0
230
1.0
100
AcDbText
  0
TEXT
  5
543
100
AcDbEntity
  8
1
  6
CONTINUOUS
 62
     7
100
AcDbText
 10
349.985583
 20
-819.33
 30
0.0
 40
2.0
  1
SIGN FACE
  7
MONOTXT
 72
     4
 11
357.883167
 21
-818.33
 31
0.0
210
0.0
220
0.0
230
1.0
100
AcDbText
  0
TEXT
  5
544
100
AcDbEntity
  8
1
  6
CONTINUOUS
 62
     7
100
AcDbText
 10
482.868833
 20
-641.82875
 30
0.0
 40
2.0
  1
C
  7
MONOTXT
 72
     4
 11
483.585333
 21
-640.82875
 31
0.0
210
0.0
220
0.0
230
1.0
100
AcDbText
  0
TEXT
  5
545
100
AcDbEntity
  8
1
  6
CONTINUOUS
 62
     7
100
AcDbText
 10
494.735
 20
-645.8535
 30
0.0
 40
2.0
  1
D
  7
MONOTXT
 72
     4
 11
495.40425
 21
-644.8535
 31
0.0
210
0.0
220
0.0
230
1.0
100
AcDbText
  0
TEXT
  5
546
100
AcDbEntity
  8
1
  6
CONTINUOUS
 62
     7
100
AcDbText
 10
502.907583
 20
-645.8535
 30
0.0
 40
2.0
  1
D
  7
MONOTXT
 72
     4
 11
503.576833
 21
-644.8535
 31
0.0
210
0.0
220
0.0
230
1.0
100
AcDbText
  0
TEXT
  5
547
100
AcDbEntity
  8
1
  6
CONTINUOUS
 62
     7
100
AcDbText
 10
492.220333
 20
-665.6
 30
0.0
 40
2.0
  1
2
  7
MONOTXT
 72
     4
 11
492.889583
 21
-664.6
 31
0.0
210
0.0
220
0.0
230
1.0
100
AcDbText
  0
TEXT
  5
548
100
AcDbEntity
  8
1
  6
CONTINUOUS
 62
     7
100
AcDbText
 10
505.42225
 20
-665.851583
 30
0.0
 40
2.0
  1
3
  7
MONOTXT
 72
     4
 11
506.0915
 21
-664.851583
 31
0.0
210
0.0
220
0.0
230
1.0
100
AcDbText
  0
TEXT
  5
549
100
AcDbEntity
  8
1
  6
CONTINUOUS
 62
     7
100
AcDbText
 10
492.393333
 20
-684.2145
 30
0.0
 40
2.0
  1
6
  7
MONOTXT
 72
     4
 11
493.015333
 21
-683.2145
 31
0.0
210
0.0
220
0.0
230
1.0
100
AcDbText
  0
TEXT
  5
54A
100
AcDbEntity
  8
1
  6
CONTINUOUS
 62
     7
100
AcDbText
 10
505.53225
 20
-684.466083
 30
0.0
 40
2.0
  1
7
  7
MONOTXT
 72
     4
 11
506.209417
 21
-683.466083
 31
0.0
210
0.0
220
0.0
230
1.0
100
AcDbText
  0
TEXT
  5
54B
100
AcDbEntity
  8
1
  6
CONTINUOUS
 62
     7
100
AcDbText
 10
539.142083
 20
-659.814417
 30
0.0
 40
2.0
  1
A
  7
MONOTXT
 72
     4
 11
539.91375
 21
-658.814417
 31
0.0
210
0.0
220
0.0
230
1.0
100
AcDbText
  0
TEXT
  5
54C
100
AcDbEntity
  8
1
  6
CONTINUOUS
 62
     7
100
AcDbText
 10
538.61575
 20
-672.517583
 30
0.0
 40
2.0
  1
B
  7
MONOTXT
 72
     4
 11
539.285
 21
-671.517583
 31
0.0
210
0.0
220
0.0
230
1.0
100
AcDbText
  0
TEXT
  5
54D
100
AcDbEntity
  8
1
  6
CONTINUOUS
 62
     7
100
AcDbText
 10
458.430917
 20
-708.482667
 30
0.0
 40
2.0
  1
48" ALL SIDES
  7
MONOTXT
 11
458.430917
 21
-706.482667
 31
0.0
210
0.0
220
0.0
230
1.0
100
AcDbText
 73
     3
  0
TEXT
  5
54E
100
AcDbEntity
  8
1
  6
CONTINUOUS
 62
     7
100
AcDbText
 10
458.430917
 20
-712.482667
 30
0.0
 40
2.0
  1
60" ALL SIDES
  7
MONOTXT
 11
458.430917
 21
-710.482667
 31
0.0
210
0.0
220
0.0
230
1.0
100
AcDbText
 73
     3
  0
TEXT
  5
54F
100
AcDbEntity
  8
1
  6
CONTINUOUS
 62
     7
100
AcDbText
 10
483.583083
 20
-733.1695
 30
0.0
 40
2.0
  1
1
  7
MONOTXT
 72
     4
 11
483.81925
 21
-732.1695
 31
0.0
210
0.0
220
0.0
230
1.0
100
AcDbText
  0
TEXT
  5
550
100
AcDbEntity
  8
1
  6
CONTINUOUS
 62
     7
100
AcDbText
 10
514.570917
 20
-733.022417
 30
0.0
 40
2.0
  1
4
  7
MONOTXT
 72
     4
 11
515.287417
 21
-732.022417
 31
0.0
210
0.0
220
0.0
230
1.0
100
AcDbText
  0
TEXT
  5
551
100
AcDbEntity
  8
1
  6
CONTINUOUS
 62
     7
100
AcDbText
 10
495.06575
 20
-740.8165
 30
0.0
 40
2.0
  1
2
  7
MONOTXT
 72
     4
 11
495.735
 21
-739.8165
 31
0.0
210
0.0
220
0.0
230
1.0
100
AcDbText
  0
TEXT
  5
552
100
AcDbEntity
  8
1
  6
CONTINUOUS
 62
     7
100
AcDbText
 10
502.857333
 20
-740.8165
 30
0.0
 40
2.0
  1
3
  7
MONOTXT
 72
     4
 11
503.526583
 21
-739.8165
 31
0.0
210
0.0
220
0.0
230
1.0
100
AcDbText
  0
TEXT
  5
553
100
AcDbEntity
  8
1
  6
CONTINUOUS
 62
     7
100
AcDbText
 10
494.819
 20
-748.757667
 30
0.0
 40
2.0
  1
6
  7
MONOTXT
 72
     4
 11
495.441
 21
-747.757667
 31
0.0
210
0.0
220
0.0
230
1.0
100
AcDbText
  0
TEXT
  5
554
100
AcDbEntity
  8
1
  6
CONTINUOUS
 62
     7
100
AcDbText
 10
502.694583
 20
-748.757667
 30
0.0
 40
2.0
  1
7
  7
MONOTXT
 72
     4
 11
503.37175
 21
-747.757667
 31
0.0
210
0.0
220
0.0
230
1.0
100
AcDbText
  0
TEXT
  5
555
100
AcDbEntity
  8
1
  6
CONTINUOUS
 62
     7
100
AcDbText
 10
481.39375
 20
-753.169417
 30
0.0
 40
2.0
  1
5
  7
MONOTXT
 72
     4
 11
482.063
 21
-752.169417
 31
0.0
210
0.0
220
0.0
230
1.0
100
AcDbText
  0
TEXT
  5
556
100
AcDbEntity
  8
1
  6
CONTINUOUS
 62
     7
100
AcDbText
 10
516.08825
 20
-752.72825
 30
0.0
 40
2.0
  1
8
  7
MONOTXT
 72
     4
 11
516.7575
 21
-751.72825
 31
0.0
210
0.0
220
0.0
230
1.0
100
AcDbText
  0
TEXT
  5
557
100
AcDbEntity
  8
1
  6
CONTINUOUS
 62
     7
100
AcDbText
 10
537.819833
 20
-735.6695
 30
0.0
 40
2.0
  1
2,3
  7
MONOTXT
 72
     4
 11
539.985167
 21
-734.6695
 31
0.0
210
0.0
220
0.0
230
1.0
100
AcDbText
  0
TEXT
  5
558
100
AcDbEntity
  8
1
  6
CONTINUOUS
 62
     7
100
AcDbText
 10
559.367417
 20
-737.58125
 30
0.0
 40
2.0
  1
1,4
  7
MONOTXT
 72
     4
 11
561.15475
 21
-736.58125
 31
0.0
210
0.0
220
0.0
230
1.0
100
AcDbText
  0
TEXT
  5
559
100
AcDbEntity
  8
1
  6
CONTINUOUS
 62
     7
100
AcDbText
 10
538.292417
 20
-753.610583
 30
0.0
 40
2.0
  1
6,7
  7
MONOTXT
 72
     4
 11
540.418417
 21
-752.610583
 31
0.0
210
0.0
220
0.0
230
1.0
100
AcDbText
  0
TEXT
  5
55A
100
AcDbEntity
  8
1
  6
CONTINUOUS
 62
     7
100
AcDbText
 10
559.577417
 20
-756.404667
 30
0.0
 40
2.0
  1
5,8
  7
MONOTXT
 72
     4
 11
561.74275
 21
-755.404667
 31
0.0
210
0.0
220
0.0
230
1.0
100
AcDbText
  0
TEXT
  5
55B
100
AcDbEntity
  8
1
  6
CONTINUOUS
 62
     7
100
AcDbText
 10
520.17975
 20
-767.728167
 30
0.0
 40
2.0
  1
SIGN FACE
  7
MONOTXT
 72
     4
 11
528.077333
 21
-766.728167
 31
0.0
210
0.0
220
0.0
230
1.0
100
AcDbText
  0
TEXT
  5
55C
100
AcDbEntity
  8
1
  6
CONTINUOUS
 62
     7
100
AcDbText
 10
489.437583
 20
-794.051667
 30
0.0
 40
2.0
  1
1,5
  7
MONOTXT
 72
     4
 11
491.17775
 21
-793.051667
 31
0.0
210
0.0
220
0.0
230
1.0
100
AcDbText
  0
TEXT
  5
55D
100
AcDbEntity
  8
1
  6
CONTINUOUS
 62
     7
100
AcDbText
 10
505.871333
 20
-794.051667
 30
0.0
 40
2.0
  1
4,8
  7
MONOTXT
 72
     4
 11
508.083833
 21
-793.051667
 31
0.0
210
0.0
220
0.0
230
1.0
100
AcDbText
  0
TEXT
  5
55E
100
AcDbEntity
  8
1
  6
CONTINUOUS
 62
     7
100
AcDbText
 10
489.002167
 20
-809.718083
 30
0.0
 40
2.0
  1
2,6
  7
MONOTXT
 72
     4
 11
491.12025
 21
-808.718083
 31
0.0
210
0.0
220
0.0
230
1.0
100
AcDbText
  0
TEXT
  5
55F
100
AcDbEntity
  8
1
  6
CONTINUOUS
 62
     7
100
AcDbText
 10
505.822083
 20
-809.797583
 30
0.0
 40
2.0
  1
3,7
  7
MONOTXT
 72
     4
 11
507.99525
 21
-808.797583
 31
0.0
210
0.0
220
0.0
230
1.0
100
AcDbText
  0
TEXT
  5
560
100
AcDbEntity
  8
1
  6
CONTINUOUS
 62
     7
100
AcDbText
 10
513.770583
 20
-818.585167
 30
0.0
 40
2.0
  1
SIGN FACE
  7
MONOTXT
 72
     4
 11
521.668167
 21
-817.585167
 31
0.0
210
0.0
220
0.0
230
1.0
100
AcDbText
  0
TEXT
  5
561
100
AcDbEntity
  8
1
  6
CONTINUOUS
 62
     7
100
AcDbText
 10
456.536333
 20
-820.767667
 30
0.0
 40
2.0
  1
GEN. NOTE 2.4.3
  7
MONOTXT
 72
     4
 11
469.189833
 21
-819.767667
 31
0.0
210
0.0
220
0.0
230
1.0
100
AcDbText
  0
TEXT
  5
562
100
AcDbEntity
  8
1
  6
CONTINUOUS
 62
     7
100
AcDbText
 10
484.363833
 20
-825.821917
 30
0.0
 40
2.0
  1
f
  7
MONOTXT
 72
     4
 11
484.749667
 21
-824.821917
 31
0.0
210
0.0
220
0.0
230
1.0
100
AcDbText
  0
TEXT
  5
563
100
AcDbEntity
  8
1
  6
CONTINUOUS
 62
     7
100
AcDbText
 10
501.301583
 20
-825.649583
 30
0.0
 40
2.0
  1
f
  7
MONOTXT
 72
     4
 11
501.687417
 21
-824.649583
 31
0.0
210
0.0
220
0.0
230
1.0
100
AcDbText
  0
TEXT
  5
564
100
AcDbEntity
  8
1
  6
CONTINUOUS
 62
     7
100
AcDbText
 10
519.60975
 20
-824.041417
 30
0.0
 40
2.0
  1
"f"   SEE GENERAL NOTE 2.4.4
  7
MONOTXT
 72
     4
 11
544.405
 21
-823.041417
 31
0.0
210
0.0
220
0.0
230
1.0
100
AcDbText
  0
TEXT
  5
565
100
AcDbEntity
  8
1
  6
CONTINUOUS
 62
     7
100
AcDbText
 10
566.997083
 20
-724.368667
 30
0.0
 40
2.0
  1
GEN. NOTE 2.5.1
  7
MONOTXT
 72
     4
 11
579.17025
 21
-723.368667
 31
0.0
210
0.0
220
0.0
230
1.0
100
AcDbText
  0
TEXT
  5
566
100
AcDbEntity
  8
1
  6
CONTINUOUS
 62
     7
100
AcDbText
 10
285.959167
 20
-877.39425
 30
0.0
 40
2.0
  1
EXTRUDED RIB
  7
MONOTXT
 72
     4
 11
296.785917
 21
-876.39425
 31
0.0
210
0.0
220
0.0
230
1.0
100
AcDbText
  0
TEXT
  5
567
100
AcDbEntity
  8
1
  6
CONTINUOUS
 62
     7
100
AcDbText
 10
365.74475
 20
-890.917417
 30
0.0
 40
2.0
  1
U-CHANNEL
  7
MONOTXT
 72
     4
 11
374.036083
 21
-889.917417
 31
0.0
210
0.0
220
0.0
230
1.0
100
AcDbText
  0
TEXT
  5
568
100
AcDbEntity
  8
1
  6
CONTINUOUS
 62
     7
100
AcDbText
 10
279.714833
 20
-940.904917
 30
0.0
 40
2.0
  1
SIGN FACE
  7
MONOTXT
 72
     4
 11
287.612417
 21
-939.904917
 31
0.0
210
0.0
220
0.0
230
1.0
100
AcDbText
  0
TEXT
  5
569
100
AcDbEntity
  8
1
  6
CONTINUOUS
 62
     7
100
AcDbText
 10
367.268917
 20
-936.833667
 30
0.0
 40
2.0
  1
SQUARE HD.
  7
MONOTXT
 11
367.268917
 21
-934.833667
 31
0.0
210
0.0
220
0.0
230
1.0
100
AcDbText
 73
     3
  0
TEXT
  5
56A
100
AcDbEntity
  8
1
  6
CONTINUOUS
 62
     7
100
AcDbText
 10
367.268917
 20
-940.833667
 30
0.0
 40
2.0
  1
POST-CLIP
  7
MONOTXT
 11
367.268917
 21
-938.833667
 31
0.0
210
0.0
220
0.0
230
1.0
100
AcDbText
 73
     3
  0
TEXT
  5
56B
100
AcDbEntity
  8
1
  6
CONTINUOUS
 62
     7
100
AcDbText
 10
367.268917
 20
-944.833667
 30
0.0
 40
2.0
  1
TYPE BOLT
  7
MONOTXT
 11
367.268917
 21
-942.833667
 31
0.0
210
0.0
220
0.0
230
1.0
100
AcDbText
 73
     3
  0
TEXT
  5
56C
100
AcDbEntity
  8
1
  6
CONTINUOUS
 62
     7
100
AcDbText
 10
358.744
 20
-983.889333
 30
0.0
 40
2.0
  1
U-CHANNEL
  7
MONOTXT
 72
     4
 11
367.035333
 21
-982.889333
 31
0.0
210
0.0
220
0.0
230
1.0
100
AcDbText
  0
TEXT
  5
56D
100
AcDbEntity
  8
1
  6
CONTINUOUS
 62
     7
100
AcDbText
 10
348.242167
 20
-996.446583
 30
0.0
 40
2.0
  1
EXTRUDED RIB
  7
MONOTXT
 72
     4
 11
359.068917
 21
-995.446583
 31
0.0
210
0.0
220
0.0
230
1.0
100
AcDbText
  0
TEXT
  5
56E
100
AcDbEntity
  8
1
  6
CONTINUOUS
 62
     7
100
AcDbText
 10
323.56525
 20
-935.272917
 30
0.0
 40
3.0
  1
ELEV.
  7
MONOTXT
 72
     4
 11
329.577083
 21
-933.772917
 31
0.0
210
0.0
220
0.0
230
1.0
100
AcDbText
  0
TEXT
  5
56F
100
AcDbEntity
  8
1
  6
CONTINUOUS
 62
     7
100
AcDbText
 10
323.779083
 20
-993.271083
 30
0.0
 40
3.0
  1
PLAN
  7
MONOTXT
 72
     4
 11
329.034917
 21
-991.771083
 31
0.0
210
0.0
220
0.0
230
1.0
100
AcDbText
  0
TEXT
  5
570
100
AcDbEntity
  8
1
  6
CONTINUOUS
 62
     7
100
AcDbText
 10
301.979833
 20
-1009.071833
 30
0.0
 40
4.0
  1
TYPICAL U-CHANNEL AND
  7
MONOTXT
 72
     4
 11
340.578167
 21
-1007.071833
 31
0.0
210
0.0
220
0.0
230
1.0
100
AcDbText
  0
TEXT
  5
571
100
AcDbEntity
  8
1
  6
CONTINUOUS
 62
     7
100
AcDbText
 10
318.73575
 20
-1016.071833
 30
0.0
 40
4.0
  1
RIB ASSEMBLY
  7
MONOTXT
 72
     4
 11
340.57825
 21
-1014.071833
 31
0.0
210
0.0
220
0.0
230
1.0
100
AcDbText
  0
LINE
  5
572
100
AcDbEntity
  8
1
  6
CONTINUOUS
 62
     7
100
AcDbLine
 10
300.729
 20
-1009.847583
 30
0.0
 11
380.604417
 21
-1009.847583
 31
0.0
  0
LINE
  5
573
100
AcDbEntity
  8
1
  6
CONTINUOUS
 62
     7
100
AcDbLine
 10
317.418
 20
-1016.780833
 30
0.0
 11
363.680333
 21
-1016.780833
 31
0.0
  0
TEXT
  5
574
100
AcDbEntity
  8
1
  6
CONTINUOUS
 62
     7
100
AcDbText
 10
337.199
 20
-832.244167
 30
0.0
 40
4.0
  1
R1-2
  7
MONOTXT
 72
     4
 11
343.2935
 21
-830.244167
 31
0.0
210
0.0
220
0.0
230
1.0
100
AcDbText
  0
TEXT
  5
575
100
AcDbEntity
  8
1
  6
CONTINUOUS
 62
     7
100
AcDbText
 10
497.41875
 20
-837.198
 30
0.0
 40
4.0
  1
R1-2
  7
MONOTXT
 72
     4
 11
503.51325
 21
-835.198
 31
0.0
210
0.0
220
0.0
230
1.0
100
AcDbText
  0
TEXT
  5
576
100
AcDbEntity
  8
1
  6
CONTINUOUS
 62
     7
100
AcDbText
 10
45.680833
 20
-856.32225
 30
0.0
 40
4.0
  1
R1-1
  7
MONOTXT
 72
     4
 11
50.909167
 21
-854.32225
 31
0.0
210
0.0
220
0.0
230
1.0
100
AcDbText
  0
TEXT
  5
577
100
AcDbEntity
  8
1
  6
CONTINUOUS
 62
     7
100
AcDbText
 10
204.3195
 20
-866.240417
 30
0.0
 40
4.0
  1
R1-1
  7
MONOTXT
 72
     4
 11
209.547833
 21
-864.240417
 31
0.0
210
0.0
220
0.0
230
1.0
100
AcDbText
  0
TEXT
  5
578
100
AcDbEntity
  8
1
  6
CONTINUOUS
 62
     7
100
AcDbText
 10
249.60375
 20
-842.911917
 30
0.0
 40
4.0
  1
=
  7
MONOTXT
 72
     4
 11
250.501417
 21
-840.911917
 31
0.0
210
0.0
220
0.0
230
1.0
100
AcDbText
  0
TEXT
  5
579
100
AcDbEntity
  8
1
  6
CONTINUOUS
 62
     7
100
AcDbText
 10
249.254667
 20
-846.82375
 30
0.0
 40
4.0
  1
=
  7
MONOTXT
 72
     4
 11
250.152333
 21
-844.82375
 31
0.0
210
0.0
220
0.0
230
1.0
100
AcDbText
  0
TEXT
  5
57A
100
AcDbEntity
  8
1
  6
CONTINUOUS
 62
     7
100
AcDbText
 10
525.056583
 20
-824.955
 30
0.0
 40
4.0
  1
=
  7
MONOTXT
 72
     4
 11
525.95425
 21
-822.955
 31
0.0
210
0.0
220
0.0
230
1.0
100
AcDbText
  0
LWPOLYLINE
  5
57B
100
AcDbEntity
  8
1
  6
CONTINUOUS
 62
     7
100
AcDbPolyline
 90
        4
 70
     0
 10
432.597917
 20
-923.4645
 10
430.597917
 20
-926.928583
 10
434.597917
 20
-926.928583
 10
432.597917
 20
-923.4645
  0
TEXT
  5
57C
100
AcDbEntity
  8
1
  6
CONTINUOUS
 62
     7
100
AcDbText
 10
432.043417
 20
-926.30825
 30
0.0
 40
1.5
  1
2
  7
MONOTXT
210
0.0
220
0.0
230
1.0
100
AcDbText
  0
TEXT
  5
57D
100
AcDbEntity
  8
1
  6
CONTINUOUS
 62
     7
100
AcDbText
 10
435.539167
 20
-926.060583
 30
0.0
 40
1.5
  1
ADDITION OF EXTRUDED RIB
  7
MONOTXT
210
0.0
220
0.0
230
1.0
100
AcDbText
  0
TEXT
  5
57E
100
AcDbEntity
  8
1
  6
CONTINUOUS
 62
     7
100
AcDbText
 10
435.433417
 20
-930.350333
 30
0.0
 40
1.5
  1
ADDED TP3-1 REFERENCE
  7
MONOTXT
210
0.0
220
0.0
230
1.0
100
AcDbText
  0
TEXT
  5
57F
100
AcDbEntity
  8
1
  6
CONTINUOUS
 62
     7
100
AcDbText
 10
434.9865
 20
-1001.916167
 30
0.0
 40
1.5
  1
3
  7
MONOTXT
210
0.0
220
0.0
230
1.0
100
AcDbText
  0
LWPOLYLINE
  5
580
100
AcDbEntity
  8
1
  6
CONTINUOUS
 62
     7
100
AcDbPolyline
 90
        4
 70
     0
 10
435.541
 20
-999.072417
 10
433.541
 20
-1002.5365
 10
437.541
 20
-1002.5365
 10
435.541
 20
-999.072417
  0
TEXT
  5
581
100
AcDbEntity
  8
1
  6
CONTINUOUS
 62
     7
100
AcDbText
 10
108.5625
 20
-926.75025
 30
0.0
 40
1.5
  1
3
  7
MONOTXT
210
0.0
220
0.0
230
1.0
100
AcDbText
  0
LWPOLYLINE
  5
582
100
AcDbEntity
  8
1
  6
CONTINUOUS
 62
     7
100
AcDbPolyline
 90
        4
 70
     0
 10
109.117
 20
-923.9065
 10
107.117
 20
-927.370583
 10
111.117
 20
-927.370583
 10
109.117
 20
-923.9065
  0
TEXT
  5
583
100
AcDbEntity
  8
1
  6
CONTINUOUS
 62
     7
100
AcDbText
 10
-29.507667
 20
-887.949083
 30
0.0
 40
2.0
  1
1.   PUNCHING DETAILS
  7
MONOTXT
 11
-29.507667
 21
-885.949083
 31
0.0
210
0.0
220
0.0
230
1.0
100
AcDbText
 73
     3
  0
TEXT
  5
584
100
AcDbEntity
  8
1
  6
CONTINUOUS
 62
     7
100
AcDbText
 10
-29.507667
 20
-891.949083
 30
0.0
 40
2.0
  1
   
  7
MONOTXT
 11
-29.507667
 21
-889.949083
 31
0.0
210
0.0
220
0.0
230
1.0
100
AcDbText
 73
     3
  0
TEXT
  5
585
100
AcDbEntity
  8
1
  6
CONTINUOUS
 62
     7
100
AcDbText
 10
-29.507667
 20
-895.949083
 30
0.0
 40
2.0
  1
   1.1     THE SPACING OF THE PUNCHED HOLES WILL BE IN ACCORDANCE WITH THE
  7
MONOTXT
 11
-29.507667
 21
-893.949083
 31
0.0
210
0.0
220
0.0
230
1.0
100
AcDbText
 73
     3
  0
TEXT
  5
586
100
AcDbEntity
  8
1
  6
CONTINUOUS
 62
     7
100
AcDbText
 10
-29.507667
 20
-899.949083
 30
0.0
 40
2.0
  1
        ACCOMPANYING TABLE AND DETAILED DRAWINGS.
  7
MONOTXT
 11
-29.507667
 21
-897.949083
 31
0.0
210
0.0
220
0.0
230
1.0
100
AcDbText
 73
     3
  0
TEXT
  5
587
100
AcDbEntity
  8
1
  6
CONTINUOUS
 62
     7
100
AcDbText
 10
-29.507667
 20
-903.949083
 30
0.0
 40
2.0
  1
 
  7
MONOTXT
 11
-29.507667
 21
-901.949083
 31
0.0
210
0.0
220
0.0
230
1.0
100
AcDbText
 73
     3
  0
TEXT
  5
588
100
AcDbEntity
  8
1
  6
CONTINUOUS
 62
     7
100
AcDbText
 10
-29.507667
 20
-907.949083
 30
0.0
 40
2.0
  1
   1.2   ALL PUNCHED HOLES IN THE SIGNS SHALL BE  3/8 " DIAMETER, UNLESS OTHER-
  7
MONOTXT
 11
-29.507667
 21
-905.949083
 31
0.0
210
0.0
220
0.0
230
1.0
100
AcDbText
 73
     3
  0
TEXT
  5
589
100
AcDbEntity
  8
1
  6
CONTINUOUS
 62
     7
100
AcDbText
 10
-29.507667
 20
-911.949083
 30
0.0
 40
2.0
  1
        WISE SPECIFIED.
  7
MONOTXT
 11
-29.507667
 21
-909.949083
 31
0.0
210
0.0
220
0.0
230
1.0
100
AcDbText
 73
     3
  0
TEXT
  5
58A
100
AcDbEntity
  8
1
  6
CONTINUOUS
 62
     7
100
AcDbText
 10
-29.507667
 20
-915.949083
 30
0.0
 40
2.0
  1
 
  7
MONOTXT
 11
-29.507667
 21
-913.949083
 31
0.0
210
0.0
220
0.0
230
1.0
100
AcDbText
 73
     3
  0
TEXT
  5
58B
100
AcDbEntity
  8
1
  6
CONTINUOUS
 62
     7
100
AcDbText
 10
-29.507667
 20
-919.949083
 30
0.0
 40
2.0
  1
2.   MOUNTING DETAILS
  7
MONOTXT
 11
-29.507667
 21
-917.949083
 31
0.0
210
0.0
220
0.0
230
1.0
100
AcDbText
 73
     3
  0
TEXT
  5
58C
100
AcDbEntity
  8
1
  6
CONTINUOUS
 62
     7
100
AcDbText
 10
-29.507667
 20
-923.949083
 30
0.0
 40
2.0
  1
 
  7
MONOTXT
 11
-29.507667
 21
-921.949083
 31
0.0
210
0.0
220
0.0
230
1.0
100
AcDbText
 73
     3
  0
TEXT
  5
58D
100
AcDbEntity
  8
1
  6
CONTINUOUS
 62
     7
100
AcDbText
 10
-29.507667
 20
-927.949083
 30
0.0
 40
2.0
  1
   2.1     SIGNS IN THE SHAPE OF AN OCTAGON OR EQUILATERAL TRIANGLE WILL BE
  7
MONOTXT
 11
-29.507667
 21
-925.949083
 31
0.0
210
0.0
220
0.0
230
1.0
100
AcDbText
 73
     3
  0
TEXT
  5
58E
100
AcDbEntity
  8
1
  6
CONTINUOUS
 62
     7
100
AcDbText
 10
-29.507667
 20
-931.949083
 30
0.0
 40
2.0
  1
        MOUNTED IN ACCORDANCE WITH THE ACCOMPANYING DETAILED DRAWINGS
  7
MONOTXT
 11
-29.507667
 21
-929.949083
 31
0.0
210
0.0
220
0.0
230
1.0
100
AcDbText
 73
     3
  0
TEXT
  5
58F
100
AcDbEntity
  8
1
  6
CONTINUOUS
 62
     7
100
AcDbText
 10
-29.507667
 20
-935.949083
 30
0.0
 40
2.0
  1
        AND TP3-1. THE ASSOCIATED BOLTS, NUTS, WASHERS AND SHIMS SHALL BE
  7
MONOTXT
 11
-29.507667
 21
-933.949083
 31
0.0
210
0.0
220
0.0
230
1.0
100
AcDbText
 73
     3
  0
TEXT
  5
590
100
AcDbEntity
  8
1
  6
CONTINUOUS
 62
     7
100
AcDbText
 10
-29.507667
 20
-939.949083
 30
0.0
 40
2.0
  1
        INSTALLED IN ACCORDANCE WITH STANDARD DETAIL TP-A: SIGN ASSEMBLY
  7
MONOTXT
 11
-29.507667
 21
-937.949083
 31
0.0
210
0.0
220
0.0
230
1.0
100
AcDbText
 73
     3
  0
TEXT
  5
591
100
AcDbEntity
  8
1
  6
CONTINUOUS
 62
     7
100
AcDbText
 10
-29.507667
 20
-943.949083
 30
0.0
 40
2.0
  1
        BOLTING DETAILS.
  7
MONOTXT
 11
-29.507667
 21
-941.949083
 31
0.0
210
0.0
220
0.0
230
1.0
100
AcDbText
 73
     3
  0
TEXT
  5
592
100
AcDbEntity
  8
1
  6
CONTINUOUS
 62
     7
100
AcDbText
 10
-29.507667
 20
-947.949083
 30
0.0
 40
2.0
  1
 
  7
MONOTXT
 11
-29.507667
 21
-945.949083
 31
0.0
210
0.0
220
0.0
230
1.0
100
AcDbText
 73
     3
  0
TEXT
  5
593
100
AcDbEntity
  8
1
  6
CONTINUOUS
 62
     7
100
AcDbText
 10
-29.507667
 20
-951.949083
 30
0.0
 40
2.0
  1
   2.2   THE MOUNTINGS SHOWN FOR THESE SHAPED SIGNS ARE FOR SIGN ASS-
  7
MONOTXT
 11
-29.507667
 21
-949.949083
 31
0.0
210
0.0
220
0.0
230
1.0
100
AcDbText
 73
     3
  0
TEXT
  5
594
100
AcDbEntity
  8
1
  6
CONTINUOUS
 62
     7
100
AcDbText
 10
-29.507667
 20
-955.949083
 30
0.0
 40
2.0
  1
         EMBLIES CONSISTING OF ONLY ONE SIGN.
  7
MONOTXT
 11
-29.507667
 21
-953.949083
 31
0.0
210
0.0
220
0.0
230
1.0
100
AcDbText
 73
     3
  0
TEXT
  5
595
100
AcDbEntity
  8
1
  6
CONTINUOUS
 62
     7
100
AcDbText
 10
-29.507667
 20
-959.949083
 30
0.0
 40
2.0
  1
 
  7
MONOTXT
 11
-29.507667
 21
-957.949083
 31
0.0
210
0.0
220
0.0
230
1.0
100
AcDbText
 73
     3
  0
TEXT
  5
596
100
AcDbEntity
  8
1
  6
CONTINUOUS
 62
     7
100
AcDbText
 10
-29.507667
 20
-963.949083
 30
0.0
 40
2.0
  1
   2.3   ALL BOLTS, NUTS AND WASHERS USED TO MOUNT THE SIGN AND SIGN
  7
MONOTXT
 11
-29.507667
 21
-961.949083
 31
0.0
210
0.0
220
0.0
230
1.0
100
AcDbText
 73
     3
  0
TEXT
  5
597
100
AcDbEntity
  8
1
  6
CONTINUOUS
 62
     7
100
AcDbText
 10
-29.507667
 20
-967.949083
 30
0.0
 40
2.0
  1
         ASSEMBLY WILL BE  5/16 " DIAMETER.
  7
MONOTXT
 11
-29.507667
 21
-965.949083
 31
0.0
210
0.0
220
0.0
230
1.0
100
AcDbText
 73
     3
  0
TEXT
  5
598
100
AcDbEntity
  8
1
  6
CONTINUOUS
 62
     7
100
AcDbText
 10
-29.507667
 20
-971.949083
 30
0.0
 40
2.0
  1
 
  7
MONOTXT
 11
-29.507667
 21
-969.949083
 31
0.0
210
0.0
220
0.0
230
1.0
100
AcDbText
 73
     3
  0
TEXT
  5
599
100
AcDbEntity
  8
1
  6
CONTINUOUS
 62
     7
100
AcDbText
 10
-29.507667
 20
-975.949083
 30
0.0
 40
2.0
  1
   2.4   BRACING ON SIGNS SHOWN WILL CONSIST OF EXTRUDED RIB AS DETAILED
  7
MONOTXT
 11
-29.507667
 21
-973.949083
 31
0.0
210
0.0
220
0.0
230
1.0
100
AcDbText
 73
     3
  0
TEXT
  5
59A
100
AcDbEntity
  8
1
  6
CONTINUOUS
 62
     7
100
AcDbText
 10
-29.507667
 20
-979.949083
 30
0.0
 40
2.0
  1
         ON TP-A.
  7
MONOTXT
 11
-29.507667
 21
-977.949083
 31
0.0
210
0.0
220
0.0
230
1.0
100
AcDbText
 73
     3
  0
TEXT
  5
59B
100
AcDbEntity
  8
1
  6
CONTINUOUS
 62
     7
100
AcDbText
 10
-29.507667
 20
-983.949083
 30
0.0
 40
2.0
  1
 
  7
MONOTXT
 11
-29.507667
 21
-981.949083
 31
0.0
210
0.0
220
0.0
230
1.0
100
AcDbText
 73
     3
  0
TEXT
  5
59C
100
AcDbEntity
  8
1
  6
CONTINUOUS
 62
     7
100
AcDbText
 10
-29.507667
 20
-987.949083
 30
0.0
 40
2.0
  1
         2.4.1     ON ALL BRACED SIGNS, THE WEB OF THE BRACING SHALL BE IN 
  7
MONOTXT
 11
-29.507667
 21
-985.949083
 31
0.0
210
0.0
220
0.0
230
1.0
100
AcDbText
 73
     3
  0
TEXT
  5
59D
100
AcDbEntity
  8
1
  6
CONTINUOUS
 62
     7
100
AcDbText
 10
-29.507667
 20
-991.949083
 30
0.0
 40
2.0
  1
                CONTACT WITH THE BACK OF THE SIGN.
  7
MONOTXT
 11
-29.507667
 21
-989.949083
 31
0.0
210
0.0
220
0.0
230
1.0
100
AcDbText
 73
     3
  0
TEXT
  5
59E
100
AcDbEntity
  8
1
  6
CONTINUOUS
 62
     7
100
AcDbText
 10
-29.507667
 20
-995.949083
 30
0.0
 40
2.0
  1
 
  7
MONOTXT
 11
-29.507667
 21
-993.949083
 31
0.0
210
0.0
220
0.0
230
1.0
100
AcDbText
 73
     3
  0
TEXT
  5
59F
100
AcDbEntity
  8
1
  6
CONTINUOUS
 62
     7
100
AcDbText
 10
-29.507667
 20
-999.949083
 30
0.0
 40
2.0
  1
         2.4.2   ON ALL BRACED SIGNS, THE FLANGE OF THE BRACING SHALL BE
  7
MONOTXT
 11
-29.507667
 21
-997.949083
 31
0.0
210
0.0
220
0.0
230
1.0
100
AcDbText
 73
     3
  0
TEXT
  5
5A0
100
AcDbEntity
  8
1
  6
CONTINUOUS
 62
     7
100
AcDbText
 10
-29.507667
 20
-1003.949083
 30
0.0
 40
2.0
  1
                IN CONTACT WITH THE FLANGE OF THE POST SUPPORT.
  7
MONOTXT
 11
-29.507667
 21
-1001.949083
 31
0.0
210
0.0
220
0.0
230
1.0
100
AcDbText
 73
     3
  0
TEXT
  5
5A1
100
AcDbEntity
  8
1
  6
CONTINUOUS
 62
     7
100
AcDbText
 10
119.8445
 20
-887.686
 30
0.0
 40
2.0
  1
         2.4.3   ON ALL BRACED SIGNS, THE END OF THE OVERHANGING LENGTH
  7
MONOTXT
 11
119.8445
 21
-885.686
 31
0.0
210
0.0
220
0.0
230
1.0
100
AcDbText
 73
     3
  0
TEXT
  5
5A2
100
AcDbEntity
  8
1
  6
CONTINUOUS
 62
     7
100
AcDbText
 10
119.8445
 20
-891.686
 30
0.0
 40
2.0
  1
                OF THE BRACE SHALL BE AT LEAST 1 3/4 " FROM THE CENTERLINE
  7
MONOTXT
 11
119.8445
 21
-889.686
 31
0.0
210
0.0
220
0.0
230
1.0
100
AcDbText
 73
     3
  0
TEXT
  5
5A3
100
AcDbEntity
  8
1
  6
CONTINUOUS
 62
     7
100
AcDbText
 10
119.8445
 20
-895.686
 30
0.0
 40
2.0
  1
                OF THE POST SUPPORT, BUT NO CLOSER THAN 1" TO THE EDGE
  7
MONOTXT
 11
119.8445
 21
-893.686
 31
0.0
210
0.0
220
0.0
230
1.0
100
AcDbText
 73
     3
  0
TEXT
  5
5A4
100
AcDbEntity
  8
1
  6
CONTINUOUS
 62
     7
100
AcDbText
 10
119.8445
 20
-899.686
 30
0.0
 40
2.0
  1
                OF THE SIGN. THE TWO OVERHANGING SECTIONS OF EACH BRACE
  7
MONOTXT
 11
119.8445
 21
-897.686
 31
0.0
210
0.0
220
0.0
230
1.0
100
AcDbText
 73
     3
  0
TEXT
  5
5A5
100
AcDbEntity
  8
1
  6
CONTINUOUS
 62
     7
100
AcDbText
 10
119.8445
 20
-903.686
 30
0.0
 40
2.0
  1
                SHALL BE EQUAL IN LENGTH.
  7
MONOTXT
 11
119.8445
 21
-901.686
 31
0.0
210
0.0
220
0.0
230
1.0
100
AcDbText
 73
     3
  0
TEXT
  5
5A6
100
AcDbEntity
  8
1
  6
CONTINUOUS
 62
     7
100
AcDbText
 10
119.8445
 20
-907.686
 30
0.0
 40
2.0
  1
 
  7
MONOTXT
 11
119.8445
 21
-905.686
 31
0.0
210
0.0
220
0.0
230
1.0
100
AcDbText
 73
     3
  0
TEXT
  5
5A7
100
AcDbEntity
  8
1
  6
CONTINUOUS
 62
     7
100
AcDbText
 10
119.8445
 20
-911.686
 30
0.0
 40
2.0
  1
         2.4.4   ON ALL BRACED SIGNS, THE CENTERLINE OF THE POST SHALL BE
  7
MONOTXT
 11
119.8445
 21
-909.686
 31
0.0
210
0.0
220
0.0
230
1.0
100
AcDbText
 73
     3
  0
TEXT
  5
5A8
100
AcDbEntity
  8
1
  6
CONTINUOUS
 62
     7
100
AcDbText
 10
119.8445
 20
-915.686
 30
0.0
 40
2.0
  1
                WITHIN 3" (ON EITHER SIDE) OF THE CENTERLINE OF THE SIGN HOLE.
  7
MONOTXT
 11
119.8445
 21
-913.686
 31
0.0
210
0.0
220
0.0
230
1.0
100
AcDbText
 73
     3
  0
TEXT
  5
5A9
100
AcDbEntity
  8
1
  6
CONTINUOUS
 62
     7
100
AcDbText
 10
119.8445
 20
-919.686
 30
0.0
 40
2.0
  1
 
  7
MONOTXT
 11
119.8445
 21
-917.686
 31
0.0
210
0.0
220
0.0
230
1.0
100
AcDbText
 73
     3
  0
TEXT
  5
5AA
100
AcDbEntity
  8
1
  6
CONTINUOUS
 62
     7
100
AcDbText
 10
119.8445
 20
-923.686
 30
0.0
 40
2.0
  1
   2.5   POST SUPPORT
  7
MONOTXT
 11
119.8445
 21
-921.686
 31
0.0
210
0.0
220
0.0
230
1.0
100
AcDbText
 73
     3
  0
TEXT
  5
5AB
100
AcDbEntity
  8
1
  6
CONTINUOUS
 62
     7
100
AcDbText
 10
119.8445
 20
-927.686
 30
0.0
 40
2.0
  1
 
  7
MONOTXT
 11
119.8445
 21
-925.686
 31
0.0
210
0.0
220
0.0
230
1.0
100
AcDbText
 73
     3
  0
TEXT
  5
5AC
100
AcDbEntity
  8
1
  6
CONTINUOUS
 62
     7
100
AcDbText
 10
119.8445
 20
-931.686
 30
0.0
 40
2.0
  1
         2.5.1      THE TOP OF THE POST SUPPORT SHALL NOT EXTEND BEYOND THE
  7
MONOTXT
 11
119.8445
 21
-929.686
 31
0.0
210
0.0
220
0.0
230
1.0
100
AcDbText
 73
     3
  0
TEXT
  5
5AD
100
AcDbEntity
  8
1
  6
CONTINUOUS
 62
     7
100
AcDbText
 10
119.8445
 20
-935.686
 30
0.0
 40
2.0
  1
                EDGE OF THE SIGN.
  7
MONOTXT
 11
119.8445
 21
-933.686
 31
0.0
210
0.0
220
0.0
230
1.0
100
AcDbText
 73
     3
  0
TEXT
  5
5AE
100
AcDbEntity
  8
1
  6
CONTINUOUS
 62
     7
100
AcDbText
 10
119.8445
 20
-939.686
 30
0.0
 40
2.0
  1
 
  7
MONOTXT
 11
119.8445
 21
-937.686
 31
0.0
210
0.0
220
0.0
230
1.0
100
AcDbText
 73
     3
  0
TEXT
  5
5AF
100
AcDbEntity
  8
1
  6
CONTINUOUS
 62
     7
100
AcDbText
 10
119.8445
 20
-943.686
 30
0.0
 40
2.0
  1
         2.5.2   THE TOP OF THE POST SUPPORT SHALL EXTEND 2" OR LESS FROM
  7
MONOTXT
 11
119.8445
 21
-941.686
 31
0.0
210
0.0
220
0.0
230
1.0
100
AcDbText
 73
     3
  0
TEXT
  5
5B0
100
AcDbEntity
  8
1
  6
CONTINUOUS
 62
     7
100
AcDbText
 10
119.8445
 20
-947.686
 30
0.0
 40
2.0
  1
                THE EDGE OF THE SIGN, BUT NOT BEYOND ANY EDGE OF THE SIGN.
  7
MONOTXT
 11
119.8445
 21
-945.686
 31
0.0
210
0.0
220
0.0
230
1.0
100
AcDbText
 73
     3
  0
TEXT
  5
5B1
100
AcDbEntity
  8
1
  6
CONTINUOUS
 62
     7
100
AcDbText
 10
119.8445
 20
-951.686
 30
0.0
 40
2.0
  1
 
  7
MONOTXT
 11
119.8445
 21
-949.686
 31
0.0
210
0.0
220
0.0
230
1.0
100
AcDbText
 73
     3
  0
TEXT
  5
5B2
100
AcDbEntity
  8
1
  6
CONTINUOUS
 62
     7
100
AcDbText
 10
119.8445
 20
-955.686
 30
0.0
 40
2.0
  1
3.   CORNER RADIUS FOR SIGN BLANK MATERIAL SHALL BE 1.5" (EXCEPT R1-1 WHICH WILL
  7
MONOTXT
 11
119.8445
 21
-953.686
 31
0.0
210
0.0
220
0.0
230
1.0
100
AcDbText
 73
     3
  0
TEXT
  5
5B3
100
AcDbEntity
  8
1
  6
CONTINUOUS
 62
     7
100
AcDbText
 10
119.8445
 20
-959.686
 30
0.0
 40
2.0
  1
   HAVE NO RADIUS).
  7
MONOTXT
 11
119.8445
 21
-957.686
 31
0.0
210
0.0
220
0.0
230
1.0
100
AcDbText
 73
     3
  0
TEXT
  5
5B4
100
AcDbEntity
  8
61
  6
CONTINUOUS
 62
     1
100
AcDbText
 10
488.97375
 20
-626.442583
 30
0.0
 40
2.401333
  1
W.V.
 50
0.029406
 41
0.996495
  7
MONOTXT
210
0.0
220
0.0
230
1.0
100
AcDbText
  0
ENDSEC
  0
SECTION
  2
OBJECTS
  0
DICTIONARY
  5
19
100
AcDbDictionary
  3
ACAD_GROUP
350
1A
  3
ACAD_MLINESTYLE
350
1B
  0
DICTIONARY
  5
1A
102
{ACAD_REACTORS
330
19
102
}
100
AcDbDictionary
  0
DICTIONARY
  5
1B
102
{ACAD_REACTORS
330
19
102
}
100
AcDbDictionary
  3
STANDARD
350
1C
  0
MLINESTYLE
  5
1C
102
{ACAD_REACTORS
330
1B
102
}
100
AcDbMlineStyle
  2
STANDARD
 70
     0
  3

 62
     0
 51
90.0
 52
90.0
 71
     2
 49
0.5
 62
   256
  6
BYLAYER
 49
-0.5
 62
   256
  6
BYLAYER
  0
ENDSEC
  0
EOF
